  0
SECTION
  2
HEADER
  9
$ACADVER
  1
AC1024
  9
$DWGCODEPAGE
  3
ANSI_1252
  9
$EXTMAX
 10
297.0
 20
210.0
 30
0.0
  9
$EXTMIN
 10
0.0
 20
0.0
 30
0.0
  9
$LIMMIN
 10
0.0
 20
0.0
  9
$LIMMAX
 10
297.0
 20
210.0
  9
$VIEWCTR
 10
148.5
 20
105.0
  9
$VIEWSIZE
 40
210.0
  9
$CLAYER
  8
0
  9
$LTSCALE
 40
16.335
  9
$CELTYPE
  6
BYLAYER
  9
$DIMSCALE
 40
1.0
  9
$DIMASZ
 40
3.0
  9
$DIMEXO
 40
0.5
  9
$DIMDLI
 40
11.286
  9
$DIMEXE
 40
1.5
  9
$DIMCEN
 40
2.673
  9
$DIMLFAC
 40
1.0
  9
$DIMBLK
  1
_FILLED
  9
$DIMALT
 70
0
  9
$DIMALTF
 40
0.0393700787
  9
$DIMTXT
 40
3.0
  9
$DIMTOL
 70
1
  9
$DIMLIM
 70
0
  9
$DIMTFAC
 40
1.0
  9
$DIMTP
 40
0.01
  9
$DIMTM
 40
0.01
  9
$DIMGAP
 40
0.625
  9
$DIMDSEP
 70
44
  9
$AUNITS
 70
0
  9
$PDMODE
 70
3
  9
$PDSIZE
 40
3.0
  9
$HANDSEED
  5
4F3
  9
$TILEMODE
 70
1
  9
$MEASUREMENT
 70
1
  9
$INSUNITS
 70
4
  0
ENDSEC
  0
SECTION
  2
CLASSES
  0
CLASS
  1
ACDBDICTIONARYWDFLT
  2
AcDbDictionaryWithDefault
  3
AutoCAD 2000
 90
0
 91
1
280
0
281
0
  0
CLASS
  1
ACDBPLACEHOLDER
  2
AcDbPlaceHolder
  3
AutoCAD 2000
 90
0
 91
1
280
0
281
0
  0
CLASS
  1
LAYOUT
  2
AcDbLayout
  3
AutoCAD 2000
 90
0
 91
0
280
0
281
0
  0
ENDSEC
  0
SECTION
  2
TABLES
  0
TABLE
  2
VPORT
  5
8
100
AcDbSymbolTable
 70
2
  0
VPORT
  5
1F4
100
AcDbSymbolTableRecord
100
AcDbViewportTableRecord
  2
*ACTIVE
 70
0
 10
0.0
 20
0.0
 11
1.0
 21
1.0
 12
148.5
 22
105.0
 13
0.0
 23
0.0
 14
1.0
 24
1.0
 15
0.0
 25
0.0
 16
0.0
 26
0.0
 36
1.0
 17
0.0
 27
0.0
 37
0.0
 40
210.0
 41
1.4142857143
 42
50.0
 43
0.0
 44
0.0
 50
0.0
 51
0.0
 71
0
 72
100
 73
1
 74
1
 75
0
 76
0
 77
0
 78
0
  0
ENDTAB
  0
TABLE
  2
LTYPE
  5
5
100
AcDbSymbolTable
 70
6
  0
LTYPE
  5
14
100
AcDbSymbolTableRecord
100
AcDbLinetypeTableRecord
  2
BYBLOCK
 70
0
  3

 72
65
 73
0
 40
0.0
  0
LTYPE
  5
15
100
AcDbSymbolTableRecord
100
AcDbLinetypeTableRecord
  2
BYLAYER
 70
0
  3

 72
65
 73
0
 40
0.0
  0
LTYPE
  5
16
100
AcDbSymbolTableRecord
100
AcDbLinetypeTableRecord
  2
CONTINUOUS
 70
64
  3
Solid line
 72
65
 73
0
 40
0.0
  0
LTYPE
  5
1F5
100
AcDbSymbolTableRecord
100
AcDbLinetypeTableRecord
  2
CENTER
 70
64
  3
____ _ ____ _ ____ _ ____ _ ____ _ ____ _ ____
 72
65
 73
4
 40
0.6
 49
0.375
 74
0
 49
-0.075
 74
0
 49
0.075
 74
0
 49
-0.075
 74
0
  0
LTYPE
  5
1F6
100
AcDbSymbolTableRecord
100
AcDbLinetypeTableRecord
  2
HIDDEN
 70
64
  3
- - - - - - - - - - - - - - - - - - - -
 72
65
 73
2
 40
0.2
 49
0.1
 74
0
 49
-0.1
 74
0
  0
LTYPE
  5
1F7
100
AcDbSymbolTableRecord
100
AcDbLinetypeTableRecord
  2
PHANTOM
 70
64
  3
_____ _ _ _____ _ _ _____ _ _ _____
 72
65
 73
6
 40
0.8
 49
0.45
 74
0
 49
-0.05
 74
0
 49
0.1
 74
0
 49
-0.05
 74
0
 49
0.1
 74
0
 49
-0.05
 74
0
  0
LTYPE
  5
1F8
100
AcDbSymbolTableRecord
100
AcDbLinetypeTableRecord
  2
DOT
 70
64
  3
. . . . . . . . . . . . . . . . . . . .
 72
65
 73
2
 40
0.2
 49
0.1
 74
0
 49
-0.1
 74
0
  0
LTYPE
  5
1F9
100
AcDbSymbolTableRecord
100
AcDbLinetypeTableRecord
  2
DASHED
 70
64
  3
- - - - - - - - - - - - - - - - - - - -
 72
65
 73
2
 40
0.2
 49
0.1
 74
0
 49
-0.1
 74
0
  0
ENDTAB
  0
TABLE
  2
LAYER
  5
2
100
AcDbSymbolTable
 70
36
  0
LAYER
  5
10
100
AcDbSymbolTableRecord
100
AcDbLayerTableRecord
  2
0
 70
0
 62
7
  6
CONTINUOUS
370
-3
390
F
  0
LAYER
  5
1FA
100
AcDbSymbolTableRecord
100
AcDbLayerTableRecord
  2
DEFAULT_1
 70
0
 62
7
  6
CENTER
370
-3
390
F
  0
LAYER
  5
1FB
100
AcDbSymbolTableRecord
100
AcDbLayerTableRecord
  2
DEFAULT_2
 70
0
 62
7
  6
HIDDEN
370
-3
390
F
  0
LAYER
  5
1FC
100
AcDbSymbolTableRecord
100
AcDbLayerTableRecord
  2
DEFAULT_3
 70
0
 62
7
  6
PHANTOM
370
-3
390
F
  0
LAYER
  5
1FD
100
AcDbSymbolTableRecord
100
AcDbLayerTableRecord
  2
ASSI
 70
0
 62
7
  6
CONTINUOUS
370
-3
390
F
  0
LAYER
  5
1FE
100
AcDbSymbolTableRecord
100
AcDbLayerTableRecord
  2
COORDINATE
 70
0
 62
7
  6
CONTINUOUS
370
-3
390
F
  0
LAYER
  5
1FF
100
AcDbSymbolTableRecord
100
AcDbLayerTableRecord
  2
COORD_ORIGINE
 70
0
 62
7
  6
CONTINUOUS
370
-3
390
F
  0
LAYER
  5
200
100
AcDbSymbolTableRecord
100
AcDbLayerTableRecord
  2
COPY-PUBBLISH
 70
0
 62
7
  6
CONTINUOUS
370
-3
390
F
  0
LAYER
  5
201
100
AcDbSymbolTableRecord
100
AcDbLayerTableRecord
  2
COPY_PUBLISH
 70
0
 62
7
  6
CONTINUOUS
370
-3
390
F
  0
LAYER
  5
202
100
AcDbSymbolTableRecord
100
AcDbLayerTableRecord
  2
COSMETIC
 70
0
 62
7
  6
CONTINUOUS
370
-3
390
F
  0
LAYER
  5
203
100
AcDbSymbolTableRecord
100
AcDbLayerTableRecord
  2
COSMETICHE
 70
0
 62
7
  6
CONTINUOUS
370
-3
390
F
  0
LAYER
  5
204
100
AcDbSymbolTableRecord
100
AcDbLayerTableRecord
  2
COSMETICI
 70
0
 62
7
  6
CONTINUOUS
370
-3
390
F
  0
LAYER
  5
205
100
AcDbSymbolTableRecord
100
AcDbLayerTableRecord
  2
CURVE
 70
0
 62
7
  6
CONTINUOUS
370
-3
390
F
  0
LAYER
  5
206
100
AcDbSymbolTableRecord
100
AcDbLayerTableRecord
  2
DRAFT
 70
0
 62
7
  6
CONTINUOUS
370
-3
390
F
  0
LAYER
  5
207
100
AcDbSymbolTableRecord
100
AcDbLayerTableRecord
  2
IMPORT_IGES
 70
0
 62
7
  6
CONTINUOUS
370
-3
390
F
  0
LAYER
  5
208
100
AcDbSymbolTableRecord
100
AcDbLayerTableRecord
  2
INTF_1
 70
0
 62
7
  6
CONTINUOUS
370
-3
390
F
  0
LAYER
  5
209
100
AcDbSymbolTableRecord
100
AcDbLayerTableRecord
  2
INTF_11
 70
0
 62
7
  6
CONTINUOUS
370
-3
390
F
  0
LAYER
  5
20A
100
AcDbSymbolTableRecord
100
AcDbLayerTableRecord
  2
INTF_2
 70
0
 62
7
  6
CONTINUOUS
370
-3
390
F
  0
LAYER
  5
20B
100
AcDbSymbolTableRecord
100
AcDbLayerTableRecord
  2
INTF_3
 70
0
 62
7
  6
CONTINUOUS
370
-3
390
F
  0
LAYER
  5
20C
100
AcDbSymbolTableRecord
100
AcDbLayerTableRecord
  2
INTF_4
 70
0
 62
7
  6
CONTINUOUS
370
-3
390
F
  0
LAYER
  5
20D
100
AcDbSymbolTableRecord
100
AcDbLayerTableRecord
  2
INTF_MAGENTA
 70
0
 62
7
  6
CONTINUOUS
370
-3
390
F
  0
LAYER
  5
20E
100
AcDbSymbolTableRecord
100
AcDbLayerTableRecord
  2
NOTE
 70
0
 62
7
  6
CONTINUOUS
370
-3
390
F
  0
LAYER
  5
20F
100
AcDbSymbolTableRecord
100
AcDbLayerTableRecord
  2
PIANI
 70
0
 62
7
  6
CONTINUOUS
370
-3
390
F
  0
LAYER
  5
210
100
AcDbSymbolTableRecord
100
AcDbLayerTableRecord
  2
PIANI-RIFERIMENTO
 70
0
 62
7
  6
CONTINUOUS
370
-3
390
F
  0
LAYER
  5
211
100
AcDbSymbolTableRecord
100
AcDbLayerTableRecord
  2
PIANI_ORIGINE
 70
0
 62
7
  6
CONTINUOUS
370
-3
390
F
  0
LAYER
  5
212
100
AcDbSymbolTableRecord
100
AcDbLayerTableRecord
  2
PIANI_SFORMI
 70
0
 62
7
  6
CONTINUOUS
370
-3
390
F
  0
LAYER
  5
213
100
AcDbSymbolTableRecord
100
AcDbLayerTableRecord
  2
PUNTI
 70
0
 62
7
  6
CONTINUOUS
370
-3
390
F
  0
LAYER
  5
214
100
AcDbSymbolTableRecord
100
AcDbLayerTableRecord
  2
RACCORDO
 70
0
 62
7
  6
CONTINUOUS
370
-3
390
F
  0
LAYER
  5
215
100
AcDbSymbolTableRecord
100
AcDbLayerTableRecord
  2
RGB__255__255__255__
 70
0
 62
7
  6
CONTINUOUS
370
-3
390
F
  0
LAYER
  5
216
100
AcDbSymbolTableRecord
100
AcDbLayerTableRecord
  2
SIMBOLI
 70
0
 62
7
  6
CONTINUOUS
370
-3
390
F
  0
LAYER
  5
217
100
AcDbSymbolTableRecord
100
AcDbLayerTableRecord
  2
SMUSSO
 70
0
 62
7
  6
CONTINUOUS
370
-3
390
F
  0
LAYER
  5
218
100
AcDbSymbolTableRecord
100
AcDbLayerTableRecord
  2
SUPERFICI
 70
0
 62
7
  6
CONTINUOUS
370
-3
390
F
  0
LAYER
  5
219
100
AcDbSymbolTableRecord
100
AcDbLayerTableRecord
  2
TRASH
 70
0
 62
7
  6
CONTINUOUS
370
-3
390
F
  0
LAYER
  5
21A
100
AcDbSymbolTableRecord
100
AcDbLayerTableRecord
  2
WHITE
 70
0
 62
7
  6
CONTINUOUS
370
-3
390
F
  0
LAYER
  5
21B
100
AcDbSymbolTableRecord
100
AcDbLayerTableRecord
  2
XSEC_DATUMS
 70
0
 62
7
  6
CONTINUOUS
370
-3
390
F
  0
ENDTAB
  0
TABLE
  2
STYLE
  5
3
100
AcDbSymbolTable
 70
1
  0
STYLE
  5
11
100
AcDbSymbolTableRecord
100
AcDbTextStyleTableRecord
  2
STANDARD
 70
0
 40
0.0
 41
0.8
 50
0.0
 71
0
 42
0.2
  3
txt
  4

  0
STYLE
  5
21C
100
AcDbSymbolTableRecord
100
AcDbTextStyleTableRecord
  2
TEXTSTYLE_1
 70
0
 40
0.0
 41
0.8
 50
0.0
 71
0
 42
0.2
  3
gdt
  4

  0
ENDTAB
  0
TABLE
  2
VIEW
  5
6
100
AcDbSymbolTable
 70
0
  0
ENDTAB
  0
TABLE
  2
UCS
  5
7
100
AcDbSymbolTable
 70
0
  0
ENDTAB
  0
TABLE
  2
APPID
  5
9
100
AcDbSymbolTable
 70
1
  0
APPID
  5
21D
100
AcDbSymbolTableRecord
100
AcDbRegAppTableRecord
  2
ACAD
 70
0
  0
ENDTAB
  0
TABLE
  2
BLOCK_RECORD
  5
1
100
AcDbSymbolTable
 70
0
  0
BLOCK_RECORD
  5
21E
100
AcDbSymbolTableRecord
100
AcDbBlockTableRecord
  2
*Model_Space
  0
BLOCK_RECORD
  5
21F
100
AcDbSymbolTableRecord
100
AcDbBlockTableRecord
  2
*Paper_Space
  0
BLOCK_RECORD
  5
220
100
AcDbSymbolTableRecord
100
AcDbBlockTableRecord
  2
_FILLED
  0
ENDTAB
  0
TABLE
  2
DIMSTYLE
  5
A
100
AcDbSymbolTable
 70
1
100
AcDbDimStyleTable
 71
0
  0
DIMSTYLE
105
221
100
AcDbSymbolTableRecord
100
AcDbDimStyleTableRecord
  2
STANDARD
 70
0
  3

  4

 40
1.0
 41
3.0
 42
0.5
 43
0.38
 44
1.5
 45
0.0
 46
0.0
 47
0.01
 48
0.01
140
3.0
141
0.09
142
0.0
143
25.4
144
1.0
145
0.0
146
1.0
147
0.625
 71
1
 72
0
 73
0
 74
0
 75
0
 76
0
 77
1
 78
8
 79
2
170
0
171
1
172
0
173
0
174
0
175
0
176
0
177
0
178
0
270
2
179
2
271
2
272
2
273
2
274
2
275
0
280
0
281
0
282
0
283
1
284
8
285
0
286
0
287
3
288
0
340
11
278
44
341
220
342
220
343
220
344
220
  0
ENDTAB
  0
ENDSEC
  0
SECTION
  2
BLOCKS
  0
BLOCK
  5
20
100
AcDbEntity
  8
0
100
AcDbBlockBegin
  2
*Model_Space
 70
0
 10
0.0
 20
0.0
 30
0.0
  3
*Model_Space
  1

  0
ENDBLK
  5
21
100
AcDbEntity
  8
0
100
AcDbBlockEnd
  0
BLOCK
  5
1C
100
AcDbEntity
  8
0
100
AcDbBlockBegin
  2
*Paper_Space
 70
0
 10
0.0
 20
0.0
 30
0.0
  3
*Paper_Space
  1

  0
ENDBLK
  5
1D
100
AcDbEntity
  8
0
100
AcDbBlockEnd
  0
BLOCK
  5
222
100
AcDbEntity
  8
0
100
AcDbBlockBegin
  2
_FILLED
 70
64
 10
0.0
 20
0.0
  3
_FILLED
  1

  0
SOLID
  5
223
100
AcDbEntity
  8
0
  6
BYBLOCK
 62
0
100
AcDbTrace
 10
0.0
 20
0.0
 11
-1.0
 21
0.3166666667
 12
-1.0
 22
-0.3166666667
 13
-1.0
 23
-0.3166666667
  0
ENDBLK
  5
224
100
AcDbEntity
  8
0
  6
BYBLOCK
 62
0
100
AcDbBlockEnd
  0
ENDSEC
  0
SECTION
  2
ENTITIES
  0
LWPOLYLINE
  5
225
100
AcDbEntity
  8
ASSI
100
AcDbPolyline
 62
7
  6
CONTINUOUS
 90
9
 70
0
 10
-24.3997211594
 20
10.5800760465
 10
-24.423004612
 20
10.5201686858
 10
-24.44327501
 20
10.4592401248
 10
-24.4605302817
 20
10.3971611489
 10
-24.4747724988
 20
10.3340609727
 10
-24.4858552222
 20
10.2706637229
 10
-24.493729639
 20
10.2072107753
 10
-24.4984445622
 20
10.1434607541
 10
-24.4999996435
 20
10.0809812335
  0
LINE
  5
226
100
AcDbEntity
  8
ASSI
100
AcDbLine
 62
7
  6
CONTINUOUS
 10
-24.373779822
 20
10.6381721848
 11
-24.3997211594
 21
10.5800760465
  0
LINE
  5
227
100
AcDbEntity
  8
ASSI
100
AcDbLine
 62
7
  6
CONTINUOUS
 10
-24.3997211588
 20
-10.5800760469
 11
-24.373779822
 21
-10.6381721847
  0
LWPOLYLINE
  5
228
100
AcDbEntity
  8
ASSI
100
AcDbPolyline
 62
7
  6
CONTINUOUS
 90
9
 70
0
 10
-24.4999996238
 20
-10.081004121
 10
-24.4984445608
 20
-10.1434607592
 10
-24.4937296372
 20
-10.2072107773
 10
-24.4858552202
 20
-10.2706637229
 10
-24.4747724969
 20
-10.334060972
 10
-24.4605302802
 20
-10.3971611486
 10
-24.4432750088
 20
-10.4592401249
 10
-24.4230046111
 20
-10.5201686861
 10
-24.3997211588
 20
-10.5800760469
  0
LINE
  5
229
100
AcDbEntity
  8
ASSI
100
AcDbLine
 62
7
  6
CONTINUOUS
 10
-24.4999999911
 20
-10.0794136687
 11
-24.4999996238
 21
-10.081004121
  0
LINE
  5
22A
100
AcDbEntity
  8
0
100
AcDbLine
 62
7
  6
CONTINUOUS
 10
-24.4999999911
 20
-10.0794136687
 11
-24.4999999918
 21
10.0794136594
  0
LINE
  5
22B
100
AcDbEntity
  8
0
100
AcDbLine
 62
7
  6
CONTINUOUS
 10
-24.373779822
 20
-10.7856918211
 11
-24.373779822
 21
10.7856918211
  0
LINE
  5
22C
100
AcDbEntity
  8
ASSI
100
AcDbLine
 62
250
  6
CONTINUOUS
 10
-23.8952585473
 20
-10.396238116
 11
-23.8952585473
 21
10.396238116
  0
LINE
  5
22D
100
AcDbEntity
  8
ASSI
100
AcDbLine
 62
7
  6
CONTINUOUS
 10
-22.3749521765
 20
-9.6726465946
 11
-22.3749521765
 21
9.6726465946
  0
LINE
  5
22E
100
AcDbEntity
  8
ASSI
100
AcDbLine
 62
7
  6
CONTINUOUS
 10
-22.1
 20
-9.5404147135
 11
-22.1
 21
9.5404147135
  0
LINE
  5
22F
100
AcDbEntity
  8
ASSI
100
AcDbLine
 62
7
  6
CONTINUOUS
 10
-24.4999996435
 20
10.0809812335
 11
-24.4999999918
 21
10.0794136594
  0
LWPOLYLINE
  5
230
100
AcDbEntity
  8
ASSI
100
AcDbPolyline
 62
7
  6
CONTINUOUS
 90
4
 70
0
 10
-24.0187860442
 20
11.0891631966
 10
-24.0675492582
 20
11.0476231223
 10
-24.1140971833
 20
11.0038076759
 10
-24.1529536017
 20
10.963410256
  0
LWPOLYLINE
  5
231
100
AcDbEntity
  8
ASSI
100
AcDbPolyline
 62
7
  6
CONTINUOUS
 90
28
 70
0
 10
-24.0187860442
 20
11.0891631966
 10
-23.5462234291
 20
11.4685670886
 10
-23.0700857039
 20
11.8433121444
 10
-22.5903728684
 20
12.2133983643
 10
-22.1070352909
 20
12.5788617517
 10
-21.6201226032
 20
12.9396663031
 10
-21.1297837011
 20
13.2957040073
 10
-20.6360217012
 20
13.6469722886
 10
-20.1388334869
 20
13.9934737228
 10
-19.6383586036
 20
14.3351080266
 10
-19.1345972964
 20
14.6718745616
 10
-18.6275493201
 20
15.0037739663
 10
-18.1173534853
 20
15.3307078726
 10
-17.6040073462
 20
15.6526725836
 10
-17.0875133485
 20
15.9696717963
 10
-16.56801764
 20
16.281618234
 10
-16.0455188003
 20
16.5885094595
 10
-15.5200182499
 20
16.89034791
 10
-14.9916663978
 20
17.1870536209
 10
-14.4604627137
 20
17.4786268223
 10
-13.926407728
 20
17.765067284
 10
-13.3896534404
 20
18.0462943504
 10
-12.8502007978
 20
18.3223075515
 10
-12.3080488533
 20
18.5931073573
 10
-11.7633467663
 20
18.8586145222
 10
-11.2161442565
 20
19.1188026309
 10
-10.666391604
 20
19.3736980985
 10
-10.114088809
 20
19.6233009253
  0
LWPOLYLINE
  5
232
100
AcDbEntity
  8
ASSI
100
AcDbPolyline
 62
7
  6
CONTINUOUS
 90
33
 70
0
 10
-10.2026483683
 20
19.5976263539
 10
-10.5932883734
 20
19.4232722234
 10
-11.0471999531
 20
19.2166280751
 10
-11.4944322396
 20
19.0086786742
 10
-11.9341959253
 20
18.7999067186
 10
-12.3672460608
 20
18.590074931
 10
-12.7958480597
 20
18.3781669046
 10
-13.2198811951
 20
18.1642959561
 10
-13.6394314287
 20
17.9484766131
 10
-14.0570217444
 20
17.7294329295
 10
-14.4726005154
 20
17.507179035
 10
-14.8861506398
 20
17.2817144626
 10
-15.3001810338
 20
17.0516246726
 10
-15.7146431629
 20
16.8168520576
 10
-16.1294630479
 20
16.5773563824
 10
-16.5470391951
 20
16.3316326073
 10
-16.9676187917
 20
16.0793698025
 10
-17.3907636128
 20
15.8206668539
 10
-17.8177844494
 20
15.5545414568
 10
-18.2493097593
 20
15.2803867101
 10
-18.6844839577
 20
14.9985386773
 10
-19.1223871085
 20
14.7094189596
 10
-19.5631239832
 20
14.4128006036
 10
-20.0064231703
 20
14.1087138588
 10
-20.4508483997
 20
13.7980282384
 10
-20.896309518
 20
13.4807260773
 10
-21.342818875
 20
13.1567257362
 10
-21.7891528853
 20
12.826873946
 10
-22.2352381431
 20
12.4912185786
 10
-22.681163437
 20
12.1496959913
 10
-23.126001988
 20
11.8030469436
 10
-23.569488275
 20
11.4515451787
 10
-24.0196657121
 20
11.0887405629
  0
LINE
  5
233
100
AcDbEntity
  8
ASSI
100
AcDbLine
 62
7
  6
CONTINUOUS
 10
-10.114088809
 20
19.6233009253
 11
-9.8518105118
 21
19.7392395967
  0
LWPOLYLINE
  5
234
100
AcDbEntity
  8
ASSI
100
AcDbPolyline
 62
7
  6
CONTINUOUS
 90
8
 70
0
 10
-9.8518105118
 20
19.7392395967
 10
-9.5887797828
 20
19.8533962159
 10
-9.324996622
 20
19.9657707829
 10
-9.0604487079
 20
20.0763683497
 10
-8.795148362
 20
20.1851838643
 10
-8.5291325487
 20
20.2922021704
 10
-8.2624135894
 20
20.3974182161
 10
-7.9949791628
 20
20.5008370534
  0
LWPOLYLINE
  5
235
100
AcDbEntity
  8
ASSI
100
AcDbPolyline
 62
7
  6
CONTINUOUS
 90
3
 70
0
 10
-9.7623532673
 20
19.7894919216
 10
-10.024051631
 20
19.6761400468
 10
-10.202660036
 20
19.5976211939
  0
LINE
  5
236
100
AcDbEntity
  8
ASSI
100
AcDbLine
 62
7
  6
CONTINUOUS
 10
-9.7570892173
 20
19.7917312299
 11
-9.7623532673
 21
19.7894919216
  0
LINE
  5
237
100
AcDbEntity
  8
ASSI
100
AcDbLine
 62
7
  6
CONTINUOUS
 10
-7.9949791628
 20
20.5008370534
 11
-7.7268292688
 21
20.6024586823
  0
LWPOLYLINE
  5
238
100
AcDbEntity
  8
ASSI
100
AcDbPolyline
 62
7
  6
CONTINUOUS
 90
6
 70
0
 10
-7.7268292688
 20
20.6024586823
 10
-7.4178664104
 20
20.715681383
 10
-7.1073724431
 20
20.8242105906
 10
-6.795347367
 20
20.9280463053
 10
-6.481715511
 20
21.0272028338
 10
-6.3024217688
 20
21.0815730055
  0
LWPOLYLINE
  5
239
100
AcDbEntity
  8
ASSI
100
AcDbPolyline
 62
7
  6
CONTINUOUS
 90
21
 70
0
 10
-6.3024217688
 20
21.0815730055
 10
-6.1665525462
 20
21.1216658692
 10
-5.8500854854
 20
21.2113924912
 10
-5.5323181908
 20
21.296381322
 10
-5.2132468003
 20
21.3766337394
 10
-4.8930867397
 20
21.4521109562
 10
-4.5718380497
 20
21.522813032
 10
-4.2495006896
 20
21.5887399073
 10
-3.9262899643
 20
21.6498526154
 10
-3.6022058549
 20
21.7061512272
 10
-3.2772483802
 20
21.7576356719
 10
-2.9516329008
 20
21.8042667708
 10
-2.6253593736
 20
21.8460445901
 10
-2.2984278417
 20
21.8829690636
 10
-1.9710537955
 20
21.9150008148
 10
-1.6432330538
 20
21.9421399004
 10
-1.3149697979
 20
21.9643862637
 10
-0.9864920612
 20
21.9817003581
 10
-0.6578758549
 20
21.9940690016
 10
-0.3290451678
 20
22.0015053763
 10
-0.0
 20
22.0040094821
  0
LWPOLYLINE
  5
23A
100
AcDbEntity
  8
ASSI
100
AcDbPolyline
 62
250
  6
CONTINUOUS
 90
3
 70
0
 10
10.114088809
 20
-19.6233009252
 10
10.1931641597
 20
-19.6016182406
 10
10.2026483683
 20
-19.5976263539
  0
LWPOLYLINE
  5
23B
100
AcDbEntity
  8
ASSI
100
AcDbPolyline
 62
7
  6
CONTINUOUS
 90
4
 70
0
 10
1.8034906514
 20
-20.9366850977
 10
1.2371387776
 20
-20.9804352399
 10
0.6180539644
 20
-21.0095912744
 10
0.0
 20
-21.02
  0
LWPOLYLINE
  5
23C
100
AcDbEntity
  8
ASSI
100
AcDbPolyline
 62
7
  6
CONTINUOUS
 90
21
 70
0
 10
0.0
 20
-22.0040094821
 10
-0.3290448956
 20
-22.0015053693
 10
-0.6578751632
 20
-21.9940690136
 10
-0.9864908028
 20
-21.981700415
 10
-1.3149677738
 20
-21.9643863917
 10
-1.6432301169
 20
-21.9421401254
 10
-1.9710499541
 20
-21.9150011618
 10
-2.2984231066
 20
-21.8829695663
 10
-2.6253537532
 20
-21.8460452734
 10
-2.9516265534
 20
-21.8042676317
 10
-3.2772414826
 20
-21.7576367122
 10
-3.6021985654
 20
-21.706152444
 10
-3.9262825351
 20
-21.649853963
 10
-4.2494934389
 20
-21.5887413278
 10
-4.5718312295
 20
-21.5228144798
 10
-4.8930804991
 20
-21.4521123784
 10
-5.2132413036
 20
-21.3766350723
 10
-5.532313587
 20
-21.2963825128
 10
-5.8500817732
 20
-21.2113935137
 10
-6.1665497233
 20
-21.1216666883
 10
-6.3024217686
 20
-21.0815730055
  0
LWPOLYLINE
  5
23D
100
AcDbEntity
  8
ASSI
100
AcDbPolyline
 62
7
  6
CONTINUOUS
 90
4
 70
0
 10
-1.8034906514
 20
-20.9366850977
 10
-1.2371387776
 20
-20.9804352399
 10
-0.6180539644
 20
-21.0095912744
 10
0.0
 20
-21.02
  0
LWPOLYLINE
  5
23E
100
AcDbEntity
  8
ASSI
100
AcDbPolyline
 62
7
  6
CONTINUOUS
 90
10
 70
0
 10
-1.2336050792
 20
-21.3596654191
 10
-0.9608418923
 20
-21.3955848564
 10
-0.6870490512
 20
-21.4225581212
 10
-0.4125197398
 20
-21.4405562863
 10
-0.1375464895
 20
-21.4495600491
 10
0.1375748041
 20
-21.449559586
 10
0.4125451956
 20
-21.4405550361
 10
0.6870688078
 20
-21.4225565013
 10
0.9608531455
 20
-21.3955835617
 10
1.2336050792
 20
-21.3596654191
  0
LWPOLYLINE
  5
23F
100
AcDbEntity
  8
ASSI
100
AcDbPolyline
 62
250
  6
CONTINUOUS
 90
3
 70
0
 10
-10.114088809
 20
-19.6233009252
 10
-10.1931641597
 20
-19.6016182406
 10
-10.2026483683
 20
-19.5976263539
  0
LWPOLYLINE
  5
240
100
AcDbEntity
  8
ASSI
100
AcDbPolyline
 62
7
  6
CONTINUOUS
 90
6
 70
0
 10
-6.3024217686
 20
-21.0815730055
 10
-6.4817135762
 20
-21.0272034232
 10
-6.7953461731
 20
-20.9280466926
 10
-7.1073717943
 20
-20.8242108213
 10
-7.4178661596
 20
-20.7156814845
 10
-7.7268292688
 20
-20.6024586823
  0
LWPOLYLINE
  5
241
100
AcDbEntity
  8
ASSI
100
AcDbPolyline
 62
7
  6
CONTINUOUS
 90
8
 70
0
 10
-7.7268292688
 20
-20.6024586823
 10
-7.9949791628
 20
-20.5008370534
 10
-8.2624135894
 20
-20.3974182161
 10
-8.5291325487
 20
-20.2922021704
 10
-8.795148362
 20
-20.1851838643
 10
-9.0604487079
 20
-20.0763683497
 10
-9.324996622
 20
-19.9657707829
 10
-9.5887797828
 20
-19.8533962159
  0
LWPOLYLINE
  5
242
100
AcDbEntity
  8
ASSI
100
AcDbPolyline
 62
7
  6
CONTINUOUS
 90
8
 70
0
 10
-9.7623532673
 20
-19.7894919216
 10
-9.4920811919
 20
-19.9044647044
 10
-9.2131844659
 20
-20.0209023707
 10
-8.9256544224
 20
-20.1386272283
 10
-8.6295258804
 20
-20.2574411105
 10
-8.3248020564
 20
-20.3771563493
 10
-8.0114545483
 20
-20.4975944071
 10
-7.7596101508
 20
-20.5924537516
  0
LWPOLYLINE
  5
243
100
AcDbEntity
  8
ASSI
100
AcDbPolyline
 62
7
  6
CONTINUOUS
 90
3
 70
0
 10
-9.5887797828
 20
-19.8533962159
 10
-9.8518105118
 20
-19.7392395967
 10
-10.114088809
 20
-19.6233009253
  0
LWPOLYLINE
  5
244
100
AcDbEntity
  8
ASSI
100
AcDbPolyline
 62
7
  6
CONTINUOUS
 90
3
 70
0
 10
-10.202660036
 20
-19.5976211939
 10
-10.024051631
 20
-19.6761400468
 10
-9.7623532673
 20
-19.7894919216
  0
LWPOLYLINE
  5
245
100
AcDbEntity
  8
ASSI
100
AcDbPolyline
 62
7
  6
CONTINUOUS
 90
28
 70
0
 10
-10.114088809
 20
-19.6233009253
 10
-10.6663916001
 20
-19.3736981003
 10
-11.2161442481
 20
-19.1188026347
 10
-11.7633467528
 20
-18.8586145287
 10
-12.3080488339
 20
-18.5931073669
 10
-12.8502007718
 20
-18.3223075647
 10
-13.3896534077
 20
-18.0462943673
 10
-13.9264076885
 20
-17.7650673049
 10
-14.4604626674
 20
-17.4786268474
 10
-14.991666345
 20
-17.1870536501
 10
-15.5200181912
 20
-16.8903479434
 10
-16.0455187362
 20
-16.5885094968
 10
-16.5680175712
 20
-16.2816182748
 10
-17.0875132762
 20
-15.9696718402
 10
-17.6040072713
 20
-15.6526726301
 10
-18.1173534087
 20
-15.3307079212
 10
-18.6275492429
 20
-15.0037740163
 10
-19.1345972194
 20
-14.6718746126
 10
-19.6383585274
 20
-14.3351080781
 10
-20.1388334124
 20
-13.9934737742
 10
-20.6360216288
 20
-13.6469723395
 10
-21.12978363
 20
-13.2957040584
 10
-21.6201225294
 20
-12.9396663574
 10
-22.1070352135
 20
-12.5788618099
 10
-22.5903727949
 20
-12.2133984204
 10
-23.0700856445
 20
-11.8433121905
 10
-23.5462233914
 20
-11.4685671186
 10
-24.0187860357
 20
-11.0891632046
  0
LWPOLYLINE
  5
246
100
AcDbEntity
  8
ASSI
100
AcDbPolyline
 62
7
  6
CONTINUOUS
 90
33
 70
0
 10
-24.0196653885
 20
-11.0887408259
 10
-23.569488275
 20
-11.4515451787
 10
-23.126001988
 20
-11.8030469436
 10
-22.681163437
 20
-12.1496959913
 10
-22.2352381431
 20
-12.4912185786
 10
-21.7891528853
 20
-12.826873946
 10
-21.342818875
 20
-13.1567257362
 10
-20.896309518
 20
-13.4807260773
 10
-20.4508483997
 20
-13.7980282384
 10
-20.0064231703
 20
-14.1087138588
 10
-19.5631239832
 20
-14.4128006036
 10
-19.1223871085
 20
-14.7094189596
 10
-18.6844839577
 20
-14.9985386773
 10
-18.2493097593
 20
-15.2803867101
 10
-17.8177844494
 20
-15.5545414568
 10
-17.3907636128
 20
-15.8206668539
 10
-16.9676187917
 20
-16.0793698025
 10
-16.5470391951
 20
-16.3316326073
 10
-16.1294630479
 20
-16.5773563824
 10
-15.7146431629
 20
-16.8168520576
 10
-15.3001810338
 20
-17.0516246726
 10
-14.8861506398
 20
-17.2817144626
 10
-14.4726005154
 20
-17.507179035
 10
-14.0570217444
 20
-17.7294329295
 10
-13.6394314287
 20
-17.9484766131
 10
-13.2198811951
 20
-18.1642959561
 10
-12.7958480597
 20
-18.3781669046
 10
-12.3672460608
 20
-18.590074931
 10
-11.9341959253
 20
-18.7999067186
 10
-11.4944322396
 20
-19.0086786742
 10
-11.0471999531
 20
-19.2166280751
 10
-10.5932883734
 20
-19.4232722234
 10
-10.2026483683
 20
-19.5976263539
  0
LWPOLYLINE
  5
247
100
AcDbEntity
  8
ASSI
100
AcDbPolyline
 62
7
  6
CONTINUOUS
 90
4
 70
0
 10
-24.1529536157
 20
-10.9634102447
 10
-24.1140971827
 20
-11.0038076792
 10
-24.0675492542
 20
-11.0476231277
 10
-24.0187860357
 20
-11.0891632046
  0
LWPOLYLINE
  5
248
100
AcDbEntity
  8
0
100
AcDbPolyline
 62
250
  6
CONTINUOUS
 90
10
 70
0
 10
-0.95
 20
-16.3700733605
 10
-0.9280837431
 20
-16.3648723218
 10
-0.9047682559
 20
-16.3602576832
 10
-0.8802075178
 20
-16.3562599204
 10
-0.8545637325
 20
-16.3529054363
 10
-0.8280062557
 20
-16.3502163843
 10
-0.8007104769
 20
-16.3482105223
 10
-0.7728566619
 20
-16.3469010979
 10
-0.7446287623
 20
-16.34629676
 10
-0.7162132005
 20
-16.3464015011
  0
LWPOLYLINE
  5
249
100
AcDbEntity
  8
ASSI
100
AcDbPolyline
 62
7
  6
CONTINUOUS
 90
10
 70
0
 10
-1.1130526192
 20
-20.8156414452
 10
-1.1292611368
 20
-20.8193271904
 10
-1.1440294782
 20
-20.8250694054
 10
-1.1573576436
 20
-20.8328680903
 10
-1.169507964
 20
-20.8430223304
 10
-1.1802181083
 20
-20.8552330405
 10
-1.1887010833
 20
-20.868602964
 10
-1.1946945581
 20
-20.8828330155
 10
-1.1984608637
 20
-20.8982222806
 10
-1.2
 20
-20.9147707591
  0
LINE
  5
24A
100
AcDbEntity
  8
ASSI
100
AcDbLine
 62
7
  6
CONTINUOUS
 10
0.0
 20
-19.6991020889
 11
-0.7331767741
 21
-19.7980265726
  0
LINE
  5
24B
100
AcDbEntity
  8
ASSI
100
AcDbLine
 62
7
  6
CONTINUOUS
 10
-0.3094829293
 20
-20.709865678
 11
-1.1130526192
 21
-20.8156414452
  0
LWPOLYLINE
  5
24C
100
AcDbEntity
  8
0
100
AcDbPolyline
 62
250
  6
CONTINUOUS
 90
9
 70
0
 10
-0.95
 20
-18.8668759592
 10
-0.8892231378
 20
-18.8617771132
 10
-0.8302929498
 20
-18.846635501
 10
-0.775
 20
-18.8219111928
 10
-0.7250243366
 20
-18.7883554242
 10
-0.6818844449
 20
-18.7469877703
 10
-0.6468911087
 20
-18.6990651663
 10
-0.6211075827
 20
-18.6460437163
 10
-0.6053172864
 20
-18.5895344502
  0
LINE
  5
24D
100
AcDbEntity
  8
ASSI
100
AcDbLine
 62
7
  6
CONTINUOUS
 10
0.0
 20
-19.6978924779
 11
-1.3
 21
-19.7434905301
  0
LINE
  5
24E
100
AcDbEntity
  8
ASSI
100
AcDbLine
 62
7
  6
CONTINUOUS
 10
0.0
 20
-20.6990580614
 11
-1.3
 21
-20.7444560472
  0
LWPOLYLINE
  5
24F
100
AcDbEntity
  8
ASSI
100
AcDbPolyline
 62
7
  6
CONTINUOUS
 90
7
 70
0
 10
0.0
 20
-20.1990289669
 10
0.3049015964
 20
-20.1954827754
 10
0.6095299289
 20
-20.1874625793
 10
0.9138849975
 20
-20.1749683783
 10
1.2180333509
 20
-20.1579843963
 10
1.5219084404
 20
-20.1365264096
 10
1.8034906514
 20
-20.1125033109
  0
LINE
  5
250
100
AcDbEntity
  8
ASSI
100
AcDbLine
 62
7
  6
CONTINUOUS
 10
1.8034906514
 20
-19.8
 11
-1.8034906514
 21
-19.8
  0
LINE
  5
251
100
AcDbEntity
  8
0
100
AcDbLine
 62
7
  6
CONTINUOUS
 10
-1.8
 20
-19.5511295404
 11
1.8
 21
-19.5511295404
  0
LINE
  5
252
100
AcDbEntity
  8
0
100
AcDbLine
 62
7
  6
CONTINUOUS
 10
-1.8094390391
 20
-19.0068326776
 11
-0.95
 21
-19.0068326776
  0
LINE
  5
253
100
AcDbEntity
  8
0
100
AcDbLine
 62
7
  6
CONTINUOUS
 10
0.95
 20
-19.0068326776
 11
1.8094390391
 21
-19.0068326776
  0
LINE
  5
254
100
AcDbEntity
  8
0
100
AcDbLine
 62
7
  6
CONTINUOUS
 10
-0.6860283222
 20
-18.8855233043
 11
0.6860283222
 21
-18.8855233043
  0
LINE
  5
255
100
AcDbEntity
  8
0
100
AcDbLine
 62
250
  6
CONTINUOUS
 10
-1.8094390391
 20
-18.8668759592
 11
-0.95
 21
-18.8668759592
  0
LINE
  5
256
100
AcDbEntity
  8
0
100
AcDbLine
 62
250
  6
CONTINUOUS
 10
0.95
 20
-18.8668759592
 11
1.8094390391
 21
-18.8668759592
  0
LINE
  5
257
100
AcDbEntity
  8
DRAFT
100
AcDbLine
 62
7
  6
CONTINUOUS
 10
-0.6311929693
 20
-18.8
 11
0.6311929693
 21
-18.8
  0
LINE
  5
258
100
AcDbEntity
  8
0
100
AcDbLine
 62
7
  6
CONTINUOUS
 10
-0.6
 20
-18.6568326776
 11
0.6
 21
-18.6568326776
  0
LINE
  5
259
100
AcDbEntity
  8
0
100
AcDbLine
 62
250
  6
CONTINUOUS
 10
0.6
 20
-18.5312543735
 11
-0.6
 21
-18.5312543735
  0
LINE
  5
25A
100
AcDbEntity
  8
0
100
AcDbLine
 62
7
  6
CONTINUOUS
 10
0.6
 20
-18.0673041954
 11
-0.6
 21
-18.0673041954
  0
LINE
  5
25B
100
AcDbEntity
  8
ASSI
100
AcDbLine
 62
7
  6
CONTINUOUS
 10
1.8
 20
-17.5
 11
1.8034906514
 21
-17.5
  0
LINE
  5
25C
100
AcDbEntity
  8
ASSI
100
AcDbLine
 62
7
  6
CONTINUOUS
 10
-1.8
 20
-17.5
 11
-1.8034906514
 21
-17.5
  0
LINE
  5
25D
100
AcDbEntity
  8
0
100
AcDbLine
 62
250
  6
CONTINUOUS
 10
-0.6874517351
 20
-17.49
 11
0.6874517351
 21
-17.49
  0
LINE
  5
25E
100
AcDbEntity
  8
0
100
AcDbLine
 62
250
  6
CONTINUOUS
 10
-1.8
 20
-15.6
 11
-1.1508197988
 21
-15.6
  0
LINE
  5
25F
100
AcDbEntity
  8
0
100
AcDbLine
 62
250
  6
CONTINUOUS
 10
1.1508197988
 20
-15.6
 11
1.8
 21
-15.6
  0
LWPOLYLINE
  5
260
100
AcDbEntity
  8
0
100
AcDbPolyline
 62
250
  6
CONTINUOUS
 90
9
 70
0
 10
0.95
 20
-18.8668759592
 10
0.8892231378
 20
-18.8617771132
 10
0.8302929498
 20
-18.846635501
 10
0.775
 20
-18.8219111928
 10
0.7250243366
 20
-18.7883554242
 10
0.6818844449
 20
-18.7469877703
 10
0.6468911087
 20
-18.6990651663
 10
0.6211075827
 20
-18.6460437163
 10
0.6053172864
 20
-18.5895344502
  0
LWPOLYLINE
  5
261
100
AcDbEntity
  8
ASSI
100
AcDbPolyline
 62
7
  6
CONTINUOUS
 90
7
 70
0
 10
-1.8034906514
 20
-20.1125088301
 10
-1.5212607173
 20
-20.1365777448
 10
-1.2175853304
 20
-20.158014008
 10
-0.9136049891
 20
-20.1749819533
 10
-0.6093749472
 20
-20.1874659424
 10
-0.3048399509
 20
-20.1954816136
 10
0.0
 20
-20.1990289669
  0
LWPOLYLINE
  5
262
100
AcDbEntity
  8
0
100
AcDbPolyline
 62
7
  6
CONTINUOUS
 90
9
 70
0
 10
1.8034906514
 20
-18.4010778872
 10
1.8007804417
 20
-18.4005672444
 10
1.7585968406
 20
-18.3905919616
 10
1.7206582259
 20
-18.3793069935
 10
1.6868505662
 20
-18.3667730778
 10
1.6583990986
 20
-18.3534856434
 10
1.6357122356
 20
-18.3396098333
 10
1.6183815648
 20
-18.3249805045
 10
1.6064070861
 20
-18.309597657
  0
LWPOLYLINE
  5
263
100
AcDbEntity
  8
0
100
AcDbPolyline
 62
7
  6
CONTINUOUS
 90
3
 70
0
 10
1.8034906514
 20
-17.633942834
 10
1.8007804417
 20
-17.6334321912
 10
1.7585968406
 20
-17.6234569084
  0
LWPOLYLINE
  5
264
100
AcDbEntity
  8
0
100
AcDbPolyline
 62
250
  6
CONTINUOUS
 90
10
 70
0
 10
0.95
 20
-16.3700733606
 10
0.928083695
 20
-16.3648707356
 10
0.9047681702
 20
-16.3602549403
 10
0.8802074061
 20
-16.3562564334
 10
0.8545636076
 20
-16.3529015636
 10
0.8280061303
 20
-16.3502124921
 10
0.8007103614
 20
-16.3482070394
 10
0.7728565652
 20
-16.3468984438
 10
0.7446286936
 20
-16.3462952815
 10
0.716213168
 20
-16.3464015016
  0
LWPOLYLINE
  5
265
100
AcDbEntity
  8
0
100
AcDbPolyline
 62
7
  6
CONTINUOUS
 90
7
 70
0
 10
1.7585968406
 20
-17.6234569084
 10
1.7206582259
 20
-17.6121719403
 10
1.6868505662
 20
-17.5996380246
 10
1.6583990986
 20
-17.5863505902
 10
1.6357122356
 20
-17.5724747801
 10
1.6183815648
 20
-17.5578454513
 10
1.6064070861
 20
-17.5424626038
  0
LINE
  5
266
100
AcDbEntity
  8
DRAFT
100
AcDbLine
 62
250
  6
CONTINUOUS
 10
-13.0
 20
2.7505817807
 11
-13.0
 21
2.75
  0
LINE
  5
267
100
AcDbEntity
  8
DRAFT
100
AcDbLine
 62
250
  6
CONTINUOUS
 10
-12.9980002443
 20
2.798672482
 11
-12.9987979658
 21
2.7552359213
  0
LWPOLYLINE
  5
268
100
AcDbEntity
  8
COPY-PUBBLISH
100
AcDbPolyline
 62
7
  6
CONTINUOUS
 90
9
 70
0
 10
-11.4445417014
 20
2.0643811707
 10
-11.4430383551
 20
2.0826748969
 10
-11.4406709135
 20
2.1004459278
 10
-11.4374221737
 20
2.1176919704
 10
-11.4332540196
 20
2.1344363717
 10
-11.4281715144
 20
2.1506486252
 10
-11.4222226215
 20
2.1662441018
 10
-11.415413056
 20
2.1811902203
 10
-11.40770658
 20
2.1955066643
  0
LWPOLYLINE
  5
269
100
AcDbEntity
  8
COPY-PUBBLISH
100
AcDbPolyline
 62
7
  6
CONTINUOUS
 90
10
 70
0
 10
-11.7072066164
 20
1.6872024142
 10
-11.7046841773
 20
1.7045642781
 10
-11.7014107834
 20
1.721550569
 10
-11.6973707853
 20
1.7381584
 10
-11.6925302784
 20
1.7544237765
 10
-11.6868927561
 20
1.7703027062
 10
-11.680498188
 20
1.7856706721
 10
-11.6733494966
 20
1.8004814412
 10
-11.6654134972
 20
1.814767544
 10
-11.6566759063
 20
1.8285210306
  0
LINE
  5
26A
100
AcDbEntity
  8
DRAFT
100
AcDbLine
 62
250
  6
CONTINUOUS
 10
-12.9987979658
 20
2.7552359213
 11
-13.0
 21
2.7505817807
  0
LINE
  5
26B
100
AcDbEntity
  8
ASSI
100
AcDbLine
 62
250
  6
CONTINUOUS
 10
-11.5151515151
 20
2.3738628808
 11
-11.25
 21
2.7977669667
  0
LINE
  5
26C
100
AcDbEntity
  8
COPY-PUBBLISH
100
AcDbLine
 62
7
  6
CONTINUOUS
 10
-11.3341030791
 20
2.3052224296
 11
-11.6566759063
 21
1.8285210306
  0
LINE
  5
26D
100
AcDbEntity
  8
COPY-PUBBLISH
100
AcDbLine
 62
7
  6
CONTINUOUS
 10
-11.7072066164
 20
1.6872024142
 11
-11.4445417014
 21
2.0643811707
  0
LWPOLYLINE
  5
26E
100
AcDbEntity
  8
0
100
AcDbPolyline
 62
7
  6
CONTINUOUS
 90
9
 70
0
 10
1.6064070861
 20
18.5739101771
 10
1.6183815648
 20
18.5892930246
 10
1.6357122356
 20
18.6039223534
 10
1.6583990986
 20
18.6177981635
 10
1.6868505662
 20
18.6310855979
 10
1.7206582259
 20
18.6436195136
 10
1.7585968406
 20
18.6549044817
 10
1.8007804417
 20
18.6648797645
 10
1.8034906514
 20
18.6653904074
  0
LINE
  5
26F
100
AcDbEntity
  8
ASSI
100
AcDbLine
 62
7
  6
CONTINUOUS
 10
-1.8
 20
18.8
 11
-1.8034906514
 21
18.7965093486
  0
LWPOLYLINE
  5
270
100
AcDbEntity
  8
COPY-PUBBLISH
100
AcDbPolyline
 62
250
  6
CONTINUOUS
 90
4
 70
0
 10
-15.5118111305
 20
1.1147922364
 10
-15.494422193
 20
1.1318814565
 10
-15.4652324234
 20
1.1609485346
 10
-15.4361479327
 20
1.1902954103
  0
LWPOLYLINE
  5
271
100
AcDbEntity
  8
COPY-PUBBLISH
100
AcDbPolyline
 62
7
  6
CONTINUOUS
 90
10
 70
0
 10
-15.5119960377
 20
0.8624317824
 10
-15.4853817097
 20
0.8829079684
 10
-15.4592813108
 20
0.9040743623
 10
-15.4337119654
 20
0.9259173476
 10
-15.4086787997
 20
0.9484343807
 10
-15.3842117272
 20
0.9716011859
 10
-15.3603625609
 20
0.9953687048
 10
-15.3371571737
 20
1.0197083942
 10
-15.314598386
 20
1.0446152751
 10
-15.2927007299
 20
1.0700729927
  0
LWPOLYLINE
  5
272
100
AcDbEntity
  8
0
100
AcDbPolyline
 62
7
  6
CONTINUOUS
 90
10
 70
0
 10
-0.6638481745
 20
-13.8518585447
 10
-0.6919917018
 20
-13.8529912999
 10
-0.7366658537
 20
-13.8595112949
 10
-0.7790791119
 20
-13.8713541123
 10
-0.8187152122
 20
-13.8879499786
 10
-0.8550913712
 20
-13.9086633405
 10
-0.8877818405
 20
-13.9327666263
 10
-0.9168172362
 20
-13.9598088244
 10
-0.9418624372
 20
-13.9889719801
 10
-0.9499937145
 20
-14.0000001322
  0
LINE
  5
273
100
AcDbEntity
  8
ASSI
100
AcDbLine
 62
7
  6
CONTINUOUS
 10
-1.8069813454
 20
-14.6
 11
-1.1
 21
-14.6
  0
LINE
  5
274
100
AcDbEntity
  8
ASSI
100
AcDbLine
 62
7
  6
CONTINUOUS
 10
1.1
 20
-14.6
 11
1.8069813454
 21
-14.6
  0
LINE
  5
275
100
AcDbEntity
  8
0
100
AcDbLine
 62
7
  6
CONTINUOUS
 10
-1.1
 20
-14.0
 11
-0.9499936953
 21
-14.0
  0
LINE
  5
276
100
AcDbEntity
  8
0
100
AcDbLine
 62
7
  6
CONTINUOUS
 10
0.9499934176
 20
-14.0
 11
1.1
 21
-14.0
  0
LINE
  5
277
100
AcDbEntity
  8
0
100
AcDbLine
 62
7
  6
CONTINUOUS
 10
0.6638481374
 20
-13.8519235587
 11
-0.6638387641
 21
-13.8519235587
  0
LWPOLYLINE
  5
278
100
AcDbEntity
  8
0
100
AcDbPolyline
 62
7
  6
CONTINUOUS
 90
10
 70
0
 10
-0.6874517351
 20
-17.49
 10
-0.7744653609
 20
-17.42037272
 10
-0.8511924951
 20
-17.3465199161
 10
-0.9176331375
 20
-17.2685115887
 10
-0.9737969426
 20
-17.1854780993
 10
-1.019674256
 20
-17.0985045261
 10
-1.0552361147
 20
-17.0105930781
 10
-1.0804728645
 20
-16.9228078926
 10
-1.0953941596
 20
-16.8343158669
 10
-1.1
 20
-16.7452497106
  0
LINE
  5
279
100
AcDbEntity
  8
ASSI
100
AcDbLine
 62
7
  6
CONTINUOUS
 10
-1.8
 20
-18.8
 11
-1.8034906514
 21
-18.7965093486
  0
LWPOLYLINE
  5
27A
100
AcDbEntity
  8
0
100
AcDbPolyline
 62
7
  6
CONTINUOUS
 90
10
 70
0
 10
-0.6874517351
 20
-17.49
 10
-0.768448443
 20
-17.4086604736
 10
-0.8412340976
 20
-17.3194760588
 10
-0.905808699
 20
-17.2225276153
 10
-0.9629435133
 20
-17.1165541727
 10
-1.0118672744
 20
-17.0031059038
 10
-1.0502661835
 20
-16.8864963651
 10
-1.0773689743
 20
-16.7682745792
 10
-1.0939469131
 20
-16.6472824196
 10
-1.1
 20
-16.5237626357
  0
LWPOLYLINE
  5
27B
100
AcDbEntity
  8
ASSI
100
AcDbPolyline
 62
250
  6
CONTINUOUS
 90
5
 70
0
 10
-11.5151515145
 20
-2.3738628804
 10
-11.5140393243
 20
-2.3754251847
 10
-11.5110581769
 20
-2.3802408673
 10
-11.5061841112
 20
-2.3881992846
 10
-11.4903611348
 20
-2.4133371535
  0
LWPOLYLINE
  5
27C
100
AcDbEntity
  8
ASSI
100
AcDbPolyline
 62
250
  6
CONTINUOUS
 90
3
 70
0
 10
-11.4673856763
 20
-2.4502712998
 10
-11.4532014401
 20
-2.472751534
 10
-11.4206237073
 20
-2.5250920571
  0
LWPOLYLINE
  5
27D
100
AcDbEntity
  8
ASSI
100
AcDbPolyline
 62
250
  6
CONTINUOUS
 90
3
 70
0
 10
-11.4206237073
 20
-2.5250920571
 10
-11.4021694183
 20
-2.5543619653
 10
-11.3622149918
 20
-2.6184901499
  0
LWPOLYLINE
  5
27E
100
AcDbEntity
  8
ASSI
100
AcDbPolyline
 62
250
  6
CONTINUOUS
 90
6
 70
0
 10
-11.3622149918
 20
-2.6184901499
 10
-11.3407301703
 20
-2.6525953627
 10
-11.3186851306
 20
-2.6879584012
 10
-11.2962582985
 20
-2.7243011245
 10
-11.2733483809
 20
-2.7610503836
 10
-11.25
 20
-2.7977669667
  0
LINE
  5
27F
100
AcDbEntity
  8
ASSI
100
AcDbLine
 62
250
  6
CONTINUOUS
 10
-11.4903611348
 20
-2.4133371535
 11
-11.4673856763
 21
-2.4502712998
  0
LINE
  5
280
100
AcDbEntity
  8
RACCORDO
100
AcDbLine
 62
250
  6
CONTINUOUS
 10
-9.5
 20
2.761910009
 11
-9.5
 21
2.75
  0
LINE
  5
281
100
AcDbEntity
  8
ASSI
100
AcDbLine
 62
7
  6
CONTINUOUS
 10
-4.8264036
 20
-8.1318187073
 11
-4.8264036
 21
-8.3806748
  0
LWPOLYLINE
  5
282
100
AcDbEntity
  8
COPY-PUBBLISH
100
AcDbPolyline
 62
7
  6
CONTINUOUS
 90
4
 70
0
 10
-7.683645172
 20
1.6375455215
 10
-7.6778008595
 20
1.7097774745
 10
-7.6728607044
 20
1.791649895
 10
-7.669575236
 20
1.8739912991
  0
LINE
  5
283
100
AcDbEntity
  8
COPY-PUBBLISH
100
AcDbLine
 62
7
  6
CONTINUOUS
 10
-7.4635114323
 20
1.7729424446
 11
-7.4576577672
 21
1.8414142357
  0
LINE
  5
284
100
AcDbEntity
  8
COPY-PUBBLISH
100
AcDbLine
 62
7
  6
CONTINUOUS
 10
-7.4675204533
 20
1.7350973033
 11
-7.4635114323
 21
1.7729424446
  0
LWPOLYLINE
  5
285
100
AcDbEntity
  8
RACCORDO
100
AcDbPolyline
 62
7
  6
CONTINUOUS
 90
8
 70
0
 10
-6.8718960298
 20
0.9617912118
 10
-6.9063819991
 20
0.6811081865
 10
-6.9292093118
 20
0.3916102409
 10
-6.9395123431
 20
0.1008466664
 10
-6.9372480766
 20
-0.1895578594
 10
-6.9224021737
 20
-0.4790617775
 10
-6.894988973
 20
-0.768206647
 10
-6.8691966855
 20
-0.95450865
  0
LINE
  5
286
100
AcDbEntity
  8
COPY-PUBBLISH
100
AcDbLine
 62
7
  6
CONTINUOUS
 10
-7.6043775287
 20
1.9911131058
 11
-7.669575236
 21
1.8739912991
  0
LINE
  5
287
100
AcDbEntity
  8
0
100
AcDbLine
 62
7
  6
CONTINUOUS
 10
1.6064070861
 20
18.5739101771
 11
1.3525628344
 21
18.1284268867
  0
LINE
  5
288
100
AcDbEntity
  8
0
100
AcDbLine
 62
7
  6
CONTINUOUS
 10
1.6064070861
 20
17.8067751239
 11
1.3525628344
 21
17.3612918335
  0
LINE
  5
289
100
AcDbEntity
  8
ASSI
100
AcDbLine
 62
250
  6
CONTINUOUS
 10
-10.9848484849
 20
-2.3738628808
 11
-11.25
 21
-2.7977669667
  0
LWPOLYLINE
  5
28A
100
AcDbEntity
  8
COPY-PUBBLISH
100
AcDbPolyline
 62
7
  6
CONTINUOUS
 90
10
 70
0
 10
-10.4856032564
 20
1.8637840725
 10
-10.4956543098
 20
1.8479614381
 10
-10.5078223301
 20
1.8328788876
 10
-10.5220844641
 20
1.8184580606
 10
-10.5384706312
 20
1.804570127
 10
-10.5568921744
 20
1.7911327948
 10
-10.5771407916
 20
1.7781069301
 10
-10.5991182681
 20
1.7653789494
 10
-10.6228382246
 20
1.7527702947
 10
-10.648253639
 20
1.7401289608
  0
LWPOLYLINE
  5
28B
100
AcDbEntity
  8
0
100
AcDbPolyline
 62
7
  6
CONTINUOUS
 90
9
 70
0
 10
1.6064070861
 20
17.8067751239
 10
1.6183815648
 20
17.8221579714
 10
1.6357122356
 20
17.8367873002
 10
1.6583990986
 20
17.8506631103
 10
1.6868505662
 20
17.8639505447
 10
1.7206582259
 20
17.8764844604
 10
1.7585968406
 20
17.8877694285
 10
1.8007804417
 20
17.8977447113
 10
1.8034906514
 20
17.8982553541
  0
LINE
  5
28C
100
AcDbEntity
  8
COPY-PUBBLISH
100
AcDbLine
 62
7
  6
CONTINUOUS
 10
-11.6860297768
 20
1.4384062693
 11
-11.3135751099
 21
1.908807716
  0
LINE
  5
28D
100
AcDbEntity
  8
COPY-PUBBLISH
100
AcDbLine
 62
7
  6
CONTINUOUS
 10
-11.4355384926
 20
1.2121212121
 11
-11.0052781447
 21
1.6303030303
  0
LINE
  5
28E
100
AcDbEntity
  8
COPY-PUBBLISH
100
AcDbLine
 62
7
  6
CONTINUOUS
 10
-15.5888615364
 20
0.8090334541
 11
-15.5119960377
 21
0.8624317824
  0
LINE
  5
28F
100
AcDbEntity
  8
COPY-PUBBLISH
100
AcDbLine
 62
7
  6
CONTINUOUS
 10
-15.6349787366
 20
0.781647869
 11
-15.5888615364
 21
0.8090334541
  0
LINE
  5
290
100
AcDbEntity
  8
DRAFT
100
AcDbLine
 62
7
  6
CONTINUOUS
 10
-7.3529897215
 20
1.7958250869
 11
-7.4411170845
 21
1.7481530461
  0
LWPOLYLINE
  5
291
100
AcDbEntity
  8
ASSI
100
AcDbPolyline
 62
7
  6
CONTINUOUS
 90
19
 70
0
 10
4.6187165158
 20
-8.8573459157
 10
4.6290511083
 20
-8.8566952534
 10
4.63947498
 20
-8.8548599247
 10
4.6499881306
 20
-8.8518399295
 10
4.6607054793
 20
-8.847661363
 10
4.6715121071
 20
-8.84229813
 10
4.6820632568
 20
-8.8356719449
 10
4.6922523474
 20
-8.8276353289
 10
4.70218596
 20
-8.8183357607
 10
4.7118390806
 20
-8.8081373907
 10
4.7211637288
 20
-8.7970999905
 10
4.730207885
 20
-8.7851637885
 10
4.7390904763
 20
-8.7725136212
 10
4.747786702
 20
-8.7591515774
 10
4.7563213628
 20
-8.7450755682
 10
4.7648877885
 20
-8.7304641632
 10
4.7735504223
 20
-8.7153768856
 10
4.7822448211
 20
-8.6997542122
 10
4.7909709848
 20
-8.683596143
  0
LWPOLYLINE
  5
292
100
AcDbEntity
  8
ASSI
100
AcDbPolyline
 62
7
  6
CONTINUOUS
 90
22
 70
0
 10
-3.1004001311
 20
-9.3408372634
 10
-3.0833205452
 20
-9.3399358057
 10
-3.0667623011
 20
-9.3373724217
 10
-3.0507253988
 20
-9.3331471115
 10
-3.0351443329
 20
-9.3272591721
 10
-3.0200846088
 20
-9.3197093065
 10
-3.0057427424
 20
-9.3104996236
 10
-2.9921473342
 20
-9.2996000264
 10
-2.9792697837
 20
-9.2870406118
 10
-2.9672208058
 20
-9.2729137794
 10
-2.9559788846
 20
-9.2572034306
 10
-2.9455655358
 20
-9.2399256638
 10
-2.936156022
 20
-9.2212211747
 10
-2.9278212176
 20
-9.2010278747
 10
-2.9204902481
 20
-9.1794078524
 10
-2.9141257519
 20
-9.1566880688
 10
-2.9087076909
 20
-9.1329603394
 10
-2.9042561032
 20
-9.1081328488
 10
-2.9007937411
 20
-9.0822571115
 10
-2.8983281887
 20
-9.055350299
 10
-2.8968518619
 20
-9.0273952399
 10
-2.8963647607
 20
-8.9983919341
  0
LWPOLYLINE
  5
293
100
AcDbEntity
  8
ASSI
100
AcDbPolyline
 62
7
  6
CONTINUOUS
 90
19
 70
0
 10
-3.1083547264
 20
-8.696515041
 10
-3.1295559548
 20
-8.6976194425
 10
-3.1498858466
 20
-8.7006298158
 10
-3.1693444018
 20
-8.7055461608
 10
-3.1879083069
 20
-8.7123458522
 10
-3.2056008754
 20
-8.7210515152
 10
-3.2224920482
 20
-8.7317310262
 10
-3.2387544025
 20
-8.744360967
 10
-3.2542153612
 20
-8.7589647558
 10
-3.2684271335
 20
-8.7756805232
 10
-3.2813472357
 20
-8.7946864231
 10
-3.2930181516
 20
-8.8158043016
 10
-3.3031195421
 20
-8.8386378285
 10
-3.3115092118
 20
-8.8632373432
 10
-3.3183293562
 20
-8.8895525062
 10
-3.3236862221
 20
-8.9170359682
 10
-3.3276152251
 20
-8.9455052796
 10
-3.3300809498
 20
-8.9751428901
 10
-3.3310833959
 20
-9.0059487997
  0
LWPOLYLINE
  5
294
100
AcDbEntity
  8
ASSI
100
AcDbPolyline
 62
7
  6
CONTINUOUS
 90
16
 70
0
 10
4.1927531495
 20
-8.9384284161
 10
4.1799033193
 20
-8.939094532
 10
4.1670546913
 20
-8.9414634834
 10
4.1542072655
 20
-8.9455352703
 10
4.1411861236
 20
-8.9513232569
 10
4.128166184
 20
-8.9588140791
 10
4.1156722009
 20
-8.9679676439
 10
4.1038674922
 20
-8.9788913839
 10
4.0925887402
 20
-8.9914778666
 10
4.0818707453
 20
-9.0053647007
 10
4.0717505998
 20
-9.0205317676
 10
4.0621912115
 20
-9.0369991859
 10
4.0531161052
 20
-9.0544649211
 10
4.044499789
 20
-9.0728282948
 10
4.0363677548
 20
-9.0921899853
 10
4.0287200024
 20
-9.1125499926
  0
LWPOLYLINE
  5
295
100
AcDbEntity
  8
ASSI
100
AcDbPolyline
 62
7
  6
CONTINUOUS
 90
22
 70
0
 10
1.7106806856
 20
-9.3211734476
 10
1.7298092044
 20
-9.320197695
 10
1.7480282598
 20
-9.3175145288
 10
1.7653378517
 20
-9.3131239488
 10
1.781689298
 20
-9.3069377685
 10
1.7971312808
 20
-9.2990441745
 10
1.8118098466
 20
-9.2897077266
 10
1.8257514796
 20
-9.2790416437
 10
1.8389296958
 20
-9.2669327069
 10
1.8514110889
 20
-9.2533058194
 10
1.8632943311
 20
-9.2381111511
 10
1.8744807503
 20
-9.2213985321
 10
1.8847409238
 20
-9.2032423563
 10
1.8940455903
 20
-9.1835632152
 10
1.902424011
 20
-9.1624405172
 10
1.9097345471
 20
-9.1401868815
 10
1.9159250201
 20
-9.1168932553
 10
1.9210476085
 20
-9.0924686914
 10
1.9251172087
 20
-9.0669529667
 10
1.9281387861
 20
-9.0403593403
 10
1.9301073754
 20
-9.0126745531
 10
1.9310229764
 20
-8.9838986053
  0
LWPOLYLINE
  5
296
100
AcDbEntity
  8
ASSI
100
AcDbPolyline
 62
7
  6
CONTINUOUS
 90
28
 70
0
 10
-3.0936387251
 20
-8.0597496841
 10
-3.1115627671
 20
-8.0605686747
 10
-3.1289764223
 20
-8.0631494773
 10
-3.1458796908
 20
-8.0674920918
 10
-3.1624076509
 20
-8.0736293557
 10
-3.1784252242
 20
-8.0815284315
 10
-3.1935271755
 20
-8.0910908072
 10
-3.207542827
 20
-8.102384849
 10
-3.2206428566
 20
-8.1153421908
 10
-3.2329340628
 20
-8.1296592211
 10
-3.2444353841
 20
-8.1453142778
 10
-3.2551278821
 20
-8.1623290231
 10
-3.26506154
 20
-8.1804648324
 10
-3.2742444477
 20
-8.1996609882
 10
-3.2826685153
 20
-8.2199782079
 10
-3.2903594566
 20
-8.2413600187
 10
-3.2972714385
 20
-8.2638413774
 10
-3.303450294
 20
-8.2873873272
 10
-3.3090592358
 20
-8.3118365251
 10
-3.3141198501
 20
-8.3371554881
 10
-3.3186105506
 20
-8.3633776993
 10
-3.3226297912
 20
-8.3904422649
 10
-3.3261655767
 20
-8.4183384465
 10
-3.3292299023
 20
-8.4470769825
 10
-3.3319572071
 20
-8.4766291948
 10
-3.3343923042
 20
-8.5069855239
 10
-3.3364903805
 20
-8.5381555292
 10
-3.3382514361
 20
-8.5701392108
  0
LWPOLYLINE
  5
297
100
AcDbEntity
  8
ASSI
100
AcDbPolyline
 62
7
  6
CONTINUOUS
 90
13
 70
0
 10
1.7090897665
 20
-8.661737494
 10
1.6878155104
 20
-8.6625550441
 10
1.6675382864
 20
-8.6651878888
 10
1.6482580944
 20
-8.6696360281
 10
1.6300122783
 20
-8.6758908214
 10
1.6127634943
 20
-8.6839609094
 10
1.5963997111
 20
-8.693872214
 10
1.5808017947
 20
-8.7056591471
 10
1.5660888792
 20
-8.7192872969
 10
1.5525063356
 20
-8.7346793502
 10
1.5401359545
 20
-8.751809536
 10
1.5288959454
 20
-8.7707036254
 10
1.5187863083
 20
-8.7913616184
  0
LWPOLYLINE
  5
298
100
AcDbEntity
  8
ASSI
100
AcDbPolyline
 62
7
  6
CONTINUOUS
 90
22
 70
0
 10
0.2620845085
 20
-8.0865089503
 10
0.2421874474
 20
-8.0871002082
 10
0.2229087387
 20
-8.089435699
 10
0.2042483825
 20
-8.0935154228
 10
0.1860305186
 20
-8.0993361738
 10
0.168431007
 20
-8.1069011577
 10
0.1519774286
 20
-8.1162199916
 10
0.1367585814
 20
-8.1273685834
 10
0.1226856673
 20
-8.1402710251
 10
0.1100198724
 20
-8.1547092096
 10
0.0989220499
 20
-8.1707117696
 10
0.0892313465
 20
-8.1882500723
 10
0.0807263882
 20
-8.2070201123
 10
0.0733755948
 20
-8.2269693967
 10
0.0672105465
 20
-8.2481504185
 10
0.0621046101
 20
-8.2704166509
 10
0.0581546669
 20
-8.2938107338
 10
0.0552638357
 20
-8.3182900273
 10
0.0530148397
 20
-8.3435800853
 10
0.0512685866
 20
-8.3695894257
 10
0.0501641686
 20
-8.3964095306
 10
0.0497015859
 20
-8.4240404
  0
LINE
  5
299
100
AcDbEntity
  8
ASSI
100
AcDbLine
 62
7
  6
CONTINUOUS
 10
-4.4748912
 20
-9.6209192
 11
-4.1838168
 21
-9.6209192
  0
LINE
  5
29A
100
AcDbEntity
  8
ASSI
100
AcDbLine
 62
7
  6
CONTINUOUS
 10
-1.8830124
 20
-9.6075428
 11
-1.6454016
 21
-9.6075428
  0
LINE
  5
29B
100
AcDbEntity
  8
ASSI
100
AcDbLine
 62
7
  6
CONTINUOUS
 10
-0.249396048
 20
-9.588338
 11
0.7594212
 21
-9.588338
  0
LINE
  5
29C
100
AcDbEntity
  8
ASSI
100
AcDbLine
 62
7
  6
CONTINUOUS
 10
0.7594212
 20
-9.2738012
 11
0.1159184929
 21
-9.2738012
  0
LINE
  5
29D
100
AcDbEntity
  8
ASSI
100
AcDbLine
 62
7
  6
CONTINUOUS
 10
1.5046492405
 20
-9.0753104
 11
1.2135123872
 21
-9.0753104
  0
LINE
  5
29E
100
AcDbEntity
  8
ASSI
100
AcDbLine
 62
7
  6
CONTINUOUS
 10
-0.2330816083
 20
-8.4240404
 11
0.0497015859
 21
-8.4240404
  0
LINE
  5
29F
100
AcDbEntity
  8
ASSI
100
AcDbLine
 62
7
  6
CONTINUOUS
 10
-4.8264036
 20
-8.3806748
 11
-4.4748912
 21
-8.3806748
  0
LINE
  5
2A0
100
AcDbEntity
  8
ASSI
100
AcDbLine
 62
7
  6
CONTINUOUS
 10
-2.9234232256
 20
-8.2322648
 11
-2.6342758287
 21
-8.2322648
  0
LINE
  5
2A1
100
AcDbEntity
  8
ASSI
100
AcDbLine
 62
7
  6
CONTINUOUS
 10
1.5714804
 20
-8.0858252
 11
2.1724452
 21
-8.0858252
  0
LINE
  5
2A2
100
AcDbEntity
  8
ASSI
100
AcDbLine
 62
7
  6
CONTINUOUS
 10
-4.1838168
 20
-7.8199976
 11
-4.422851516
 21
-7.8199976
  0
LINE
  5
2A3
100
AcDbEntity
  8
ASSI
100
AcDbLine
 62
7
  6
CONTINUOUS
 10
2.1724452
 20
-7.7867324
 11
1.3610748
 21
-7.7867324
  0
LINE
  5
2A4
100
AcDbEntity
  8
ASSI
100
AcDbLine
 62
7
  6
CONTINUOUS
 10
-1.1841528
 20
-7.7357636
 11
-1.4221536
 21
-7.7357636
  0
LWPOLYLINE
  5
2A5
100
AcDbEntity
  8
ASSI
100
AcDbPolyline
 62
7
  6
CONTINUOUS
 90
22
 70
0
 10
-4.8264036
 20
-8.1318187073
 10
-4.793066913
 20
-8.1324064439
 10
-4.7608686157
 20
-8.1315486495
 10
-4.7298087082
 20
-8.1292453241
 10
-4.699794612
 20
-8.1256012023
 10
-4.6709189056
 20
-8.1205115496
 10
-4.6434593246
 20
-8.1136621615
 10
-4.61746424
 20
-8.1049328547
 10
-4.5928852807
 20
-8.0944438126
 10
-4.5698550688
 20
-8.0822413804
 10
-4.5484069055
 20
-8.0682671946
 10
-4.5285074895
 20
-8.0525796187
 10
-4.5101895388
 20
-8.0354000882
 10
-4.4933606337
 20
-8.0167486829
 10
-4.478113194
 20
-7.996605323
 10
-4.4647571969
 20
-7.9751312049
 10
-4.4534741144
 20
-7.9523306301
 10
-4.4440824745
 20
-7.9281992972
 10
-4.4363478386
 20
-7.9028854985
 10
-4.4301920605
 20
-7.8764386648
 10
-4.4256932862
 20
-7.8488093653
 10
-4.422851516
 20
-7.8199976
  0
LWPOLYLINE
  5
2A6
100
AcDbEntity
  8
ASSI
100
AcDbPolyline
 62
7
  6
CONTINUOUS
 90
31
 70
0
 10
3.195886453
 20
-8.0401071319
 10
3.2154329689
 20
-8.0406757083
 10
3.2341861472
 20
-8.0434668994
 10
3.2521459878
 20
-8.0484807051
 10
3.2695170237
 20
-8.0558089677
 10
3.286094722
 20
-8.0653598449
 10
3.301265484
 20
-8.0768578103
 10
3.3147977581
 20
-8.0904887112
 10
3.326923096
 20
-8.1060667002
 10
3.3377225536
 20
-8.1227587094
 10
3.3470565164
 20
-8.1403432598
 10
3.3550645989
 20
-8.1590418303
 10
3.3622467014
 20
-8.1786857897
 10
3.3687007631
 20
-8.1992345979
 10
3.3743288446
 20
-8.2207287949
 10
3.379337028
 20
-8.2431213701
 10
3.3837253312
 20
-8.2664190267
 10
3.3874937362
 20
-8.2906150616
 10
3.390848271
 20
-8.3156423548
 10
3.3938110479
 20
-8.34149836
 10
3.3963599545
 20
-8.3681856236
 10
3.3986346816
 20
-8.3956446647
 10
3.4006691751
 20
-8.4238356642
 10
3.4024294891
 20
-8.4527984412
 10
3.4039534766
 20
-8.482592972
 10
3.4052513886
 20
-8.5132129654
 10
3.4063129741
 20
-8.5446647126
 10
3.4071453329
 20
-8.5770270644
 10
3.4077508316
 20
-8.6103263041
 10
3.4081271034
 20
-8.6445361484
 10
3.4082741486
 20
-8.6796565971
  0
LWPOLYLINE
  5
2A7
100
AcDbEntity
  8
ASSI
100
AcDbPolyline
 62
7
  6
CONTINUOUS
 90
28
 70
0
 10
3.195886453
 20
-9.6051737648
 10
3.155891146
 20
-9.6039757614
 10
3.1175989277
 20
-9.5998234711
 10
3.0810097981
 20
-9.5927168939
 10
3.0461649088
 20
-9.5825101509
 10
3.0130231081
 20
-9.569349121
 10
2.9814609412
 20
-9.5536714405
 10
2.9513950164
 20
-9.535632524
 10
2.9229087254
 20
-9.5150769567
 10
2.8961287886
 20
-9.4919761316
 10
2.8710500853
 20
-9.4663725774
 10
2.8476777362
 20
-9.4382237652
 10
2.826153824
 20
-9.407373501
 10
2.8066328068
 20
-9.3736249757
 10
2.7889602265
 20
-9.3371749983
 10
2.7728147906
 20
-9.2984578015
 10
2.7581463915
 20
-9.2574934831
 10
2.7450051368
 20
-9.2142619453
 10
2.7332200571
 20
-9.1691371272
 10
2.7227583476
 20
-9.122236518
 10
2.7136528132
 20
-9.0734426286
 10
2.7058308994
 20
-9.0227769311
 10
2.6993167314
 20
-8.9702414393
 10
2.694086184
 20
-8.9158341394
 10
2.6899943274
 20
-8.8595704622
 10
2.6869928517
 20
-8.8014555512
 10
2.6851300668
 20
-8.7414842629
 10
2.6844059728
 20
-8.6796565971
  0
LWPOLYLINE
  5
2A8
100
AcDbEntity
  8
ASSI
100
AcDbPolyline
 62
7
  6
CONTINUOUS
 90
22
 70
0
 10
0.2497548858
 20
-7.7874161655
 10
0.2915949305
 20
-7.789186661
 10
0.3318062756
 20
-7.7935597311
 10
0.3703889211
 20
-7.8005353759
 10
0.4073611654
 20
-7.8101616123
 10
0.4427047101
 20
-7.8223904233
 10
0.4763646602
 20
-7.8370777584
 10
0.5083313456
 20
-7.854208945
 10
0.5386144364
 20
-7.8737986557
 10
0.5671880486
 20
-7.8957468576
 10
0.5940572738
 20
-7.9199424919
 10
0.6192170204
 20
-7.9464966174
 10
0.6426261298
 20
-7.9756423783
 10
0.6644023855
 20
-8.0074301815
 10
0.6844280039
 20
-8.0418096201
 10
0.7023084766
 20
-8.0788626173
 10
0.7181528994
 20
-8.118694811
 10
0.7318521765
 20
-8.1612005633
 10
0.7426845115
 20
-8.2061448846
 10
0.7504093058
 20
-8.253449445
 10
0.7552671581
 20
-8.3031925744
 10
0.7572580684
 20
-8.3553742727
  0
LWPOLYLINE
  5
2A9
100
AcDbEntity
  8
ASSI
100
AcDbPolyline
 62
7
  6
CONTINUOUS
 90
22
 70
0
 10
-3.0566498567
 20
-8.4125359874
 10
-3.0235886539
 20
-8.4139575097
 10
-2.9910633125
 20
-8.4178600111
 10
-2.9590738326
 20
-8.4242434914
 10
-2.9274502621
 20
-8.4330666769
 10
-2.8963625531
 20
-8.4443708414
 10
-2.8663205615
 20
-8.4582798068
 10
-2.8373530106
 20
-8.4748540902
 10
-2.8094311771
 20
-8.4940331746
 10
-2.7829787471
 20
-8.5157593309
 10
-2.7581514406
 20
-8.5399289771
 10
-2.7347935376
 20
-8.5666456951
 10
-2.7128615646
 20
-8.5961625016
 10
-2.6920773263
 20
-8.6286200176
 10
-2.6727190181
 20
-8.6638776221
 10
-2.6555777523
 20
-8.7017664691
 10
-2.6407558885
 20
-8.7428174427
 10
-2.6281510672
 20
-8.7864996587
 10
-2.6182473215
 20
-8.8310516194
 10
-2.6112059958
 20
-8.8758861589
 10
-2.6068657457
 20
-8.921590443
 10
-2.6052265713
 20
-8.9681644718
  0
LWPOLYLINE
  5
2AA
100
AcDbEntity
  8
ASSI
100
AcDbPolyline
 62
7
  6
CONTINUOUS
 90
28
 70
0
 10
3.195886453
 20
-7.7561280783
 10
3.2330493518
 20
-7.7577658785
 10
3.2689080833
 20
-7.7617861781
 10
3.3034626475
 20
-7.768188977
 10
3.3367104884
 20
-7.7769421782
 10
3.3686541621
 20
-7.7880778788
 10
3.3993013369
 20
-7.8016923702
 10
3.4286695788
 20
-7.8176981053
 10
3.4567413218
 20
-7.8361826311
 10
3.4834715361
 20
-7.8575048798
 10
3.5088941142
 20
-7.8817660661
 10
3.5329751635
 20
-7.9088649752
 10
3.5555679772
 20
-7.9388568946
 10
3.5767136898
 20
-7.971843198
 10
3.5963711669
 20
-8.0077225117
 10
3.6142702981
 20
-8.0462460018
 10
3.630268961
 20
-8.0875194901
 10
3.6445092782
 20
-8.1314371549
 10
3.6571475066
 20
-8.1774326977
 10
3.6681547908
 20
-8.2253626248
 10
3.6775599862
 20
-8.27537043
 10
3.6856059161
 20
-8.3273202952
 10
3.6923015922
 20
-8.3811623003
 10
3.6976380027
 20
-8.4369463655
 10
3.7018309362
 20
-8.4946864335
 10
3.7049523222
 20
-8.5543871519
 10
3.7069302311
 20
-8.6160438731
 10
3.7077646631
 20
-8.6796565971
  0
LWPOLYLINE
  5
2AB
100
AcDbEntity
  8
ASSI
100
AcDbPolyline
 62
7
  6
CONTINUOUS
 90
22
 70
0
 10
1.6939760354
 20
-9.6051525012
 10
1.6541002491
 20
-9.6032450254
 10
1.6159501162
 20
-9.5986853004
 10
1.5795256368
 20
-9.5914733263
 10
1.5449019889
 20
-9.5814491975
 10
1.5120039944
 20
-9.5687728195
 10
1.4806061189
 20
-9.5539239089
 10
1.4506454781
 20
-9.5370841504
 10
1.4221849563
 20
-9.5180718593
 10
1.3951876712
 20
-9.496821697
 10
1.3695263986
 20
-9.4732965279
 10
1.3453283628
 20
-9.4475334877
 10
1.3229383548
 20
-9.4195786452
 10
1.302392911
 20
-9.3893921529
 10
1.283655495
 20
-9.3570138583
 10
1.2669612878
 20
-9.3226093732
 10
1.2522650315
 20
-9.2861840231
 10
1.239611984
 20
-9.2477324825
 10
1.2293731004
 20
-9.2074043863
 10
1.2216720322
 20
-9.1652496131
 10
1.2163851278
 20
-9.1212182843
 10
1.2135123872
 20
-9.0753104
  0
LWPOLYLINE
  5
2AC
100
AcDbEntity
  8
ASSI
100
AcDbPolyline
 62
7
  6
CONTINUOUS
 90
19
 70
0
 10
4.6168482554
 20
-9.1028353294
 10
4.5922779356
 20
-9.1015167446
 10
4.5673351111
 20
-9.0974317025
 10
4.5420197818
 20
-9.0905802032
 10
4.5160515762
 20
-9.0804021967
 10
4.4897108658
 20
-9.067457733
 10
4.4638387652
 20
-9.0534269614
 10
4.4387041559
 20
-9.0382047393
 10
4.4140381563
 20
-9.0218962093
 10
4.3898752361
 20
-9.0064969492
 10
4.3662612591
 20
-8.9923687967
 10
4.3431503615
 20
-8.9791499141
 10
4.3204394208
 20
-8.967750366
 10
4.2980797474
 20
-8.9585087224
 10
4.2761200309
 20
-8.9510864133
 10
4.2546032182
 20
-8.9453777927
 10
4.2335436248
 20
-8.9413476453
 10
4.2129269353
 20
-8.9390311865
 10
4.1927531495
 20
-8.9384284161
  0
LWPOLYLINE
  5
2AD
100
AcDbEntity
  8
ASSI
100
AcDbPolyline
 62
7
  6
CONTINUOUS
 90
28
 70
0
 10
1.7834652329
 20
-8.3773607107
 10
1.8077599188
 20
-8.3786846045
 10
1.8320806597
 20
-8.3814588425
 10
1.8564274554
 20
-8.3856834248
 10
1.8809013782
 20
-8.3912033541
 10
1.9054013558
 20
-8.3981736276
 10
1.9296241723
 20
-8.4070592373
 10
1.9534765064
 20
-8.4180676713
 10
1.9770516792
 20
-8.4309914414
 10
2.0003264379
 20
-8.4456730749
 10
2.0235095951
 20
-8.4619335865
 10
2.046392338
 20
-8.4799519614
 10
2.0683249757
 20
-8.5001076836
 10
2.0891620027
 20
-8.5226163803
 10
2.1090489245
 20
-8.5472624242
 10
2.1277725654
 20
-8.5737784166
 10
2.1454724221
 20
-8.6022621043
 10
2.1620089981
 20
-8.6326157405
 10
2.1767506277
 20
-8.6642786852
 10
2.1895413943
 20
-8.6975017871
 10
2.2005372146
 20
-8.7320341976
 10
2.2095741736
 20
-8.7665627302
 10
2.2162946148
 20
-8.8011156643
 10
2.2210561945
 20
-8.8356647207
 10
2.2247679667
 20
-8.8688118748
 10
2.2277329491
 20
-8.9000911188
 10
2.2296481238
 20
-8.9299684605
 10
2.2305134909
 20
-8.9584439002
  0
LWPOLYLINE
  5
2AE
100
AcDbEntity
  8
ASSI
100
AcDbPolyline
 62
7
  6
CONTINUOUS
 90
31
 70
0
 10
3.195886453
 20
-9.3211947112
 10
3.172245203
 20
-9.3198166517
 10
3.1503390839
 20
-9.3158487939
 10
3.1301680957
 20
-9.3092911379
 10
3.1116293726
 20
-9.2997871692
 10
3.0948257805
 20
-9.2876934022
 10
3.0800659173
 20
-9.2740793799
 10
3.0677625442
 20
-9.2590455817
 10
3.0575029001
 20
-9.2424915282
 10
3.048357299
 20
-9.2251853239
 10
3.0401788581
 20
-9.207367947
 10
3.0331144603
 20
-9.1887984194
 10
3.0266750676
 20
-9.1695219113
 10
3.0207273669
 20
-9.1496521036
 10
3.0154046714
 20
-9.1290753155
 10
3.0106178822
 20
-9.1074956747
 10
3.0063709393
 20
-9.0847654659
 10
3.0026599028
 20
-9.0610324045
 10
2.999383854
 20
-9.0364437645
 10
2.9965639846
 20
-9.0110023583
 10
2.9941791029
 20
-8.9847053735
 10
2.9920647153
 20
-8.9576916467
 10
2.9901710835
 20
-8.9300363839
 10
2.9885479458
 20
-8.9016643792
 10
2.9871800232
 20
-8.8724888507
 10
2.9860772212
 20
-8.8425079646
 10
2.9852296344
 20
-8.8117235548
 10
2.9845922672
 20
-8.7800543411
 10
2.984150121
 20
-8.7474732303
 10
2.9839181943
 20
-8.7140073156
 10
2.9838514147
 20
-8.6410894048
  0
LINE
  5
2AF
100
AcDbEntity
  8
ASSI
100
AcDbLine
 62
7
  6
CONTINUOUS
 10
1.2592572
 20
-8.7758864
 11
1.5187863083
 21
-8.7913616184
  0
LWPOLYLINE
  5
2B0
100
AcDbEntity
  8
ASSI
100
AcDbPolyline
 62
7
  6
CONTINUOUS
 90
22
 70
0
 10
-3.0726749895
 20
-7.7757706305
 10
-3.0443565534
 20
-7.7774902917
 10
-3.0159078274
 20
-7.7807757058
 10
-2.9873288114
 20
-7.7856268729
 10
-2.9583852553
 20
-7.7919448648
 10
-2.9293114092
 20
-7.7998286097
 10
-2.9008100241
 20
-7.809574892
 10
-2.8727901757
 20
-7.8211235896
 10
-2.8453427884
 20
-7.8345348247
 10
-2.8194433857
 20
-7.8502857481
 10
-2.7954888252
 20
-7.8684429894
 10
-2.7730822494
 20
-7.888939919
 10
-2.7520086084
 20
-7.9120537993
 10
-2.7320337824
 20
-7.9378661646
 10
-2.7133918914
 20
-7.9662954806
 10
-2.6965702451
 20
-7.9973744064
 10
-2.6817521799
 20
-8.0313838394
 10
-2.6687543594
 20
-8.0680428823
 10
-2.657514084
 20
-8.1065415031
 10
-2.6480104538
 20
-8.1466096909
 10
-2.6402643687
 20
-8.1885174565
 10
-2.6342758287
 20
-8.2322648
  0
LWPOLYLINE
  5
2B1
100
AcDbEntity
  8
ASSI
100
AcDbPolyline
 62
7
  6
CONTINUOUS
 90
15
 70
0
 10
4.2024681034
 20
-8.6929390024
 10
4.220066843
 20
-8.6940206246
 10
4.2381286263
 20
-8.6963774996
 10
4.2566534531
 20
-8.7000096272
 10
4.2758532704
 20
-8.7050869283
 10
4.2955161313
 20
-8.7114394822
 10
4.3150061956
 20
-8.7185575261
 10
4.3342408477
 20
-8.7264576888
 10
4.3533027033
 20
-8.7351233417
 10
4.3718037692
 20
-8.7439948366
 10
4.389634156
 20
-8.7530144862
 10
4.406903753
 20
-8.7622399779
 10
4.423554236
 20
-8.7712847257
 10
4.4395524426
 20
-8.7800735136
 10
4.4975016192
 20
-8.8124116296
  0
LWPOLYLINE
  5
2B2
100
AcDbEntity
  8
ASSI
100
AcDbPolyline
 62
7
  6
CONTINUOUS
 90
34
 70
0
 10
-3.0876727786
 20
-9.624816317
 10
-3.1066520281
 20
-9.6235597388
 10
-3.1262751134
 20
-9.6217322437
 10
-3.1465420344
 20
-9.6193338316
 10
-3.1674782056
 20
-9.6165801558
 10
-3.1890582126
 20
-9.613255563
 10
-3.2112058121
 20
-9.6087130938
 10
-3.233989102
 20
-9.6029809274
 10
-3.2573399845
 20
-9.5960308846
 10
-3.2809779225
 20
-9.5871314671
 10
-3.3049815616
 20
-9.5761426148
 10
-3.3292722563
 20
-9.5632043878
 10
-3.3533335335
 20
-9.5480054689
 10
-3.377182858
 20
-9.5305073421
 10
-3.4008027649
 20
-9.5107485233
 10
-3.4236243861
 20
-9.4885332435
 10
-3.4456160886
 20
-9.4637613692
 10
-3.4668095055
 20
-9.436533034
 10
-3.4867306678
 20
-9.4069528687
 10
-3.5053181369
 20
-9.374975264
 10
-3.5226333514
 20
-9.3406458294
 10
-3.538386659
 20
-9.3042060241
 10
-3.5524177989
 20
-9.2656560044
 10
-3.5648870318
 20
-9.2249956142
 10
-3.5759854876
 20
-9.1824658438
 10
-3.5856842661
 20
-9.1380997905
 10
-3.5940122676
 20
-9.0918643571
 10
-3.6012473222
 20
-9.0439012431
 10
-3.6074835155
 20
-8.9942777298
 10
-3.612626762
 20
-8.9429265358
 10
-3.6166726348
 20
-8.889787517
 10
-3.6196196586
 20
-8.8348406253
 10
-3.6214693087
 20
-8.7781059088
 10
-3.6222215853
 20
-8.7195833675
  0
LWPOLYLINE
  5
2B3
100
AcDbEntity
  8
COPY-PUBBLISH
100
AcDbPolyline
 62
250
  6
CONTINUOUS
 90
6
 70
0
 10
-15.6015442625
 20
0.8876799858
 10
-15.5919348669
 20
0.8833601527
 10
-15.5704304852
 20
0.8746790305
 10
-15.5516456215
 20
0.8682243617
 10
-15.5356686077
 20
0.8640327135
 10
-15.5224442111
 20
0.862095259
  0
LWPOLYLINE
  5
2B4
100
AcDbEntity
  8
ASSI
100
AcDbPolyline
 62
7
  6
CONTINUOUS
 90
11
 70
0
 10
4.4975016192
 20
-8.8124116296
 10
4.5107095523
 20
-8.8195359804
 10
4.523524769
 20
-8.8262303499
 10
4.535952423
 20
-8.8324880562
 10
4.5481983642
 20
-8.8381940717
 10
4.5603146624
 20
-8.8434311164
 10
4.5722492478
 20
-8.8481164704
 10
4.5840517618
 20
-8.8518869461
 10
4.5957387513
 20
-8.8546214809
 10
4.6072936693
 20
-8.8564411375
 10
4.6187165158
 20
-8.8573459157
  0
LINE
  5
2B5
100
AcDbEntity
  8
COPY-PUBBLISH
100
AcDbLine
 62
7
  6
CONTINUOUS
 10
-15.6349787366
 20
-0.781647869
 11
-15.601186922
 21
-0.8017143216
  0
LWPOLYLINE
  5
2B6
100
AcDbEntity
  8
COPY-PUBBLISH
100
AcDbPolyline
 62
7
  6
CONTINUOUS
 90
10
 70
0
 10
-11.3135751099
 20
1.908807716
 10
-11.3355501318
 20
1.9265992827
 10
-11.3558711947
 20
1.9439996031
 10
-11.3744599539
 20
1.9611449215
 10
-11.3912905588
 20
1.9782103523
 10
-11.4062435571
 20
1.9952838444
 10
-11.4191102611
 20
2.0123566236
 10
-11.4297880538
 20
2.0294872914
 10
-11.4382780518
 20
2.0468056648
 10
-11.4445417014
 20
2.0643811707
  0
LINE
  5
2B7
100
AcDbEntity
  8
COPY-PUBBLISH
100
AcDbLine
 62
7
  6
CONTINUOUS
 10
-15.4661836984
 20
1.2154682425
 11
-15.2927057248
 21
1.0700771789
  0
LWPOLYLINE
  5
2B8
100
AcDbEntity
  8
COPY-PUBBLISH
100
AcDbPolyline
 62
7
  6
CONTINUOUS
 90
10
 70
0
 10
-11.6860297768
 20
1.4384062693
 10
-11.7050356788
 20
1.4562011089
 10
-11.7197312069
 20
1.4762161143
 10
-11.7301171163
 20
1.498629718
 10
-11.7360746889
 20
1.5235604785
 10
-11.737722426
 20
1.5511473891
 10
-11.73550827
 20
1.5814290171
 10
-11.7296853615
 20
1.6142954363
 10
-11.7202185935
 20
1.6496084569
 10
-11.7072066164
 20
1.6872024142
  0
LWPOLYLINE
  5
2B9
100
AcDbEntity
  8
0
100
AcDbPolyline
 62
250
  6
CONTINUOUS
 90
7
 70
0
 10
0.663824622
 20
-13.8519235848
 10
0.6644870155
 20
-13.8527133176
 10
0.6663769668
 20
-13.8631851958
 10
0.6682816787
 20
-13.8850613217
 10
0.6701917717
 20
-13.9175404777
 10
0.6720920313
 20
-13.9592083604
 10
0.6739994549
 20
-14.0084309114
  0
LWPOLYLINE
  5
2BA
100
AcDbEntity
  8
0
100
AcDbPolyline
 62
7
  6
CONTINUOUS
 90
10
 70
0
 10
0.9499934339
 20
-14.0000001271
 10
0.9418111928
 20
-13.9889064706
 10
0.9167637328
 20
-13.9597561665
 10
0.8877277019
 20
-13.932726393
 10
0.8550375806
 20
-13.9086344426
 10
0.8186630817
 20
-13.8879316993
 10
0.77903037
 20
-13.8713457286
 10
0.7366221472
 20
-13.8595117283
 10
0.6919544518
 20
-13.852999116
 10
0.6638551627
 20
-13.8518700252
  0
LWPOLYLINE
  5
2BB
100
AcDbEntity
  8
ASSI
100
AcDbPolyline
 62
250
  6
CONTINUOUS
 90
5
 70
0
 10
-10.9848484855
 20
2.3738628804
 10
-10.9859606757
 20
2.3754251847
 10
-10.9889418231
 20
2.3802408673
 10
-10.9938158888
 20
2.3881992846
 10
-11.0096388652
 20
2.4133371535
  0
LWPOLYLINE
  5
2BC
100
AcDbEntity
  8
ASSI
100
AcDbPolyline
 62
250
  6
CONTINUOUS
 90
3
 70
0
 10
-11.0326143237
 20
2.4502712998
 10
-11.0467985599
 20
2.472751534
 10
-11.0793762927
 20
2.5250920571
  0
LWPOLYLINE
  5
2BD
100
AcDbEntity
  8
ASSI
100
AcDbPolyline
 62
250
  6
CONTINUOUS
 90
3
 70
0
 10
-11.0793762927
 20
2.5250920571
 10
-11.0978305817
 20
2.5543619653
 10
-11.1377850082
 20
2.6184901499
  0
LWPOLYLINE
  5
2BE
100
AcDbEntity
  8
ASSI
100
AcDbPolyline
 62
250
  6
CONTINUOUS
 90
6
 70
0
 10
-11.1377850082
 20
2.6184901499
 10
-11.1592698297
 20
2.6525953627
 10
-11.1813148694
 20
2.6879584012
 10
-11.2037417015
 20
2.7243011245
 10
-11.2266516191
 20
2.7610503836
 10
-11.25
 20
2.7977669667
  0
LINE
  5
2BF
100
AcDbEntity
  8
ASSI
100
AcDbLine
 62
250
  6
CONTINUOUS
 10
-11.0096388652
 20
2.4133371535
 11
-11.0326143237
 21
2.4502712998
  0
LINE
  5
2C0
100
AcDbEntity
  8
COPY-PUBBLISH
100
AcDbLine
 62
7
  6
CONTINUOUS
 10
-10.6895345555
 20
1.2898738526
 11
-10.8824334987
 21
1.6140625
  0
LINE
  5
2C1
100
AcDbEntity
  8
0
100
AcDbLine
 62
7
  6
CONTINUOUS
 10
1.3525628344
 20
-17.8641143666
 11
1.6064070861
 21
-18.309597657
  0
LINE
  5
2C2
100
AcDbEntity
  8
0
100
AcDbLine
 62
7
  6
CONTINUOUS
 10
1.3525628344
 20
-17.0969793134
 11
1.6064070861
 21
-17.5424626038
  0
LWPOLYLINE
  5
2C3
100
AcDbEntity
  8
0
100
AcDbPolyline
 62
7
  6
CONTINUOUS
 90
7
 70
0
 10
1.3525628344
 20
-17.8641143666
 10
1.3517904141
 20
-17.8626489344
 10
1.3511561063
 20
-17.8611660977
 10
1.350659911
 20
-17.8596658565
 10
1.3503018282
 20
-17.8581482108
 10
1.3500818578
 20
-17.8566131607
 10
1.35
 20
-17.855060706
  0
LINE
  5
2C4
100
AcDbEntity
  8
COPY-PUBBLISH
100
AcDbLine
 62
7
  6
CONTINUOUS
 10
-10.4468182429
 20
1.3241157064
 11
-10.648253639
 21
1.7401289608
  0
LINE
  5
2C5
100
AcDbEntity
  8
COPY-PUBBLISH
100
AcDbLine
 62
7
  6
CONTINUOUS
 10
-10.3120316255
 20
1.4381908854
 11
-10.4856032564
 21
1.8637840725
  0
LINE
  5
2C6
100
AcDbEntity
  8
COPY-PUBBLISH
100
AcDbLine
 62
7
  6
CONTINUOUS
 10
-10.6854729867
 20
2.4939379943
 11
-10.3302777542
 21
1.5871671724
  0
LWPOLYLINE
  5
2C7
100
AcDbEntity
  8
COPY-PUBBLISH
100
AcDbPolyline
 62
7
  6
CONTINUOUS
 90
10
 70
0
 10
-10.3302777542
 20
1.5871671724
 10
-10.3247977556
 20
1.5719273862
 10
-10.3202098199
 20
1.5563095689
 10
-10.3164976203
 20
1.5403185364
 10
-10.3136311268
 20
1.5239026599
 10
-10.3116062392
 20
1.5071206614
 10
-10.3104460966
 20
1.4901412616
 10
-10.3101479762
 20
1.4730209449
 10
-10.31068199
 20
1.455704368
 10
-10.3120316255
 20
1.4381908854
  0
LWPOLYLINE
  5
2C8
100
AcDbEntity
  8
RACCORDO
100
AcDbPolyline
 62
250
  6
CONTINUOUS
 90
12
 70
0
 10
-7.2361498171
 20
-1.6458141021
 10
-7.2369855999
 20
-1.6414534649
 10
-7.2826670007
 20
-1.3275113304
 10
-7.3141736571
 20
-1.0119222061
 10
-7.3314518538
 20
-0.6938553747
 10
-7.3345553061
 20
-0.3741415535
 10
-7.3236451597
 20
-0.0552728954
 10
-7.2985530275
 20
0.2626835814
 10
-7.2594472967
 20
0.5797948952
 10
-7.2069942748
 20
0.8937699482
 10
-7.1414160644
 20
1.2038450412
 10
-7.0864866753
 20
1.4174637355
  0
LWPOLYLINE
  5
2C9
100
AcDbEntity
  8
COPY-PUBBLISH
100
AcDbPolyline
 62
7
  6
CONTINUOUS
 90
4
 70
0
 10
-10.3120316255
 20
1.4381908854
 10
-10.3075730793
 20
1.3986790826
 10
-10.3060601994
 20
1.3621646431
 10
-10.3068797733
 20
1.3438579007
  0
LINE
  5
2CA
100
AcDbEntity
  8
0
100
AcDbLine
 62
250
  6
CONTINUOUS
 10
0.6053172864
 20
-18.5895344502
 11
0.6
 21
-18.5312543735
  0
LWPOLYLINE
  5
2CB
100
AcDbEntity
  8
ASSI
100
AcDbPolyline
 62
7
  6
CONTINUOUS
 90
19
 70
0
 10
0.466119879
 20
-8.3430446499
 10
0.4648387176
 20
-8.3151844877
 10
0.4618603317
 20
-8.2887597415
 10
0.4571847214
 20
-8.2637704113
 10
0.4507026655
 20
-8.2401490152
 10
0.4425233851
 20
-8.2179630351
 10
0.4329745438
 20
-8.1974149172
 10
0.4219788297
 20
-8.1785281152
 10
0.4096135546
 20
-8.1612791753
 10
0.3964383181
 20
-8.1458001821
 10
0.3824613503
 20
-8.1321188873
 10
0.3676744209
 20
-8.1202075391
 10
0.352612439
 20
-8.1101149676
 10
0.3372851798
 20
-8.101907174
 10
0.3216828681
 20
-8.095518157
 10
0.3063110867
 20
-8.0907987435
 10
0.2913383635
 20
-8.087699209
 10
0.2765961708
 20
-8.0862692779
 10
0.2620845085
 20
-8.0865089503
  0
LINE
  5
2CC
100
AcDbEntity
  8
0
100
AcDbLine
 62
250
  6
CONTINUOUS
 10
0.6739994549
 20
-14.0084309114
 11
0.6777185959
 21
-14.1254506067
  0
LINE
  5
2CD
100
AcDbEntity
  8
0
100
AcDbLine
 62
250
  6
CONTINUOUS
 10
-0.6754263627
 20
14.2415553419
 11
-0.6798030057
 21
14.3920929174
  0
LWPOLYLINE
  5
2CE
100
AcDbEntity
  8
ASSI
100
AcDbPolyline
 62
7
  6
CONTINUOUS
 90
19
 70
0
 10
-2.8963647607
 20
-8.9983919341
 10
-2.897105705
 20
-8.9681084676
 10
-2.8993670076
 20
-8.9391925641
 10
-2.9031486684
 20
-8.9116442237
 10
-2.9085289663
 20
-8.8853863832
 10
-2.9154296223
 20
-8.8604961058
 10
-2.9236158002
 20
-8.8372045808
 10
-2.9329932426
 20
-8.8155388147
 10
-2.9436562068
 20
-8.7954718009
 10
-2.9556526288
 20
-8.7771537095
 10
-2.9691189529
 20
-8.7605833292
 10
-2.9839187347
 20
-8.7457618712
 10
-2.9996905772
 20
-8.7328431392
 10
-3.0165235477
 20
-8.721844348
 10
-3.034328579
 20
-8.7127482828
 10
-3.0524770723
 20
-8.7056571036
 10
-3.0707594949
 20
-8.7006048635
 10
-3.0893853796
 20
-8.6975575093
 10
-3.1083547264
 20
-8.696515041
  0
LWPOLYLINE
  5
2CF
100
AcDbEntity
  8
ASSI
100
AcDbPolyline
 62
7
  6
CONTINUOUS
 90
22
 70
0
 10
-3.3310833959
 20
-9.0059487997
 10
-3.3304046376
 20
-9.0352369439
 10
-3.3284464653
 20
-9.0633903133
 10
-3.325208879
 20
-9.0904089077
 10
-3.3206524376
 20
-9.1163444814
 10
-3.3148165821
 20
-9.1411452803
 10
-3.3078196361
 20
-9.1646560418
 10
-3.2996172673
 20
-9.1868879247
 10
-3.2902538079
 20
-9.2078297704
 10
-3.2799805774
 20
-9.2272928401
 10
-3.2687867651
 20
-9.2452452644
 10
-3.2566831818
 20
-9.2617189129
 10
-3.2439535789
 20
-9.2766206557
 10
-3.2307094308
 20
-9.2898995996
 10
-3.2168392631
 20
-9.3016066379
 10
-3.2022924051
 20
-9.3118013205
 10
-3.1870630509
 20
-9.3205217116
 10
-3.1711570063
 20
-9.3277297471
 10
-3.1545410174
 20
-9.3333707842
 10
-3.1372039996
 20
-9.3374266089
 10
-3.1191570375
 20
-9.3399154353
 10
-3.1004001311
 20
-9.3408372634
  0
LWPOLYLINE
  5
2D0
100
AcDbEntity
  8
0
100
AcDbPolyline
 62
7
  6
CONTINUOUS
 90
10
 70
0
 10
-1.35
 20
16.4167751139
 10
-1.3499224743
 20
16.4134059367
 10
-1.349715225
 20
16.4100719561
 10
-1.3493782521
 20
16.4067731721
 10
-1.3489156418
 20
16.4035317026
 10
-1.348323308
 20
16.4003254296
 10
-1.3475889922
 20
16.3970879995
 10
-1.3467086085
 20
16.3937972944
 10
-1.3456862429
 20
16.3904754322
 10
-1.3445218954
 20
16.3871224129
  0
LINE
  5
2D1
100
AcDbEntity
  8
0
100
AcDbLine
 62
250
  6
CONTINUOUS
 10
0.6777185959
 20
-14.1254506067
 11
0.6826608048
 21
-14.3337405042
  0
LINE
  5
2D2
100
AcDbEntity
  8
0
100
AcDbLine
 62
250
  6
CONTINUOUS
 10
-0.6798030057
 20
14.3920929174
 11
-0.6858123769
 21
14.6629031536
  0
LINE
  5
2D3
100
AcDbEntity
  8
0
100
AcDbLine
 62
250
  6
CONTINUOUS
 10
0.6826608048
 20
-14.3337405042
 11
0.6975371938
 21
-15.1359997947
  0
LINE
  5
2D4
100
AcDbEntity
  8
0
100
AcDbLine
 62
250
  6
CONTINUOUS
 10
-0.6858123769
 20
14.6629031536
 11
-0.7008014181
 21
15.4754938532
  0
LINE
  5
2D5
100
AcDbEntity
  8
0
100
AcDbLine
 62
250
  6
CONTINUOUS
 10
-0.7008014181
 20
15.4754938532
 11
-0.7160076235
 21
16.4230154476
  0
LINE
  5
2D6
100
AcDbEntity
  8
0
100
AcDbLine
 62
250
  6
CONTINUOUS
 10
0.6975371938
 20
-15.1359997947
 11
0.7162132013
 21
-16.3464011933
  0
LINE
  5
2D7
100
AcDbEntity
  8
ASSI
100
AcDbLine
 62
7
  6
CONTINUOUS
 10
-4.4748912
 20
-8.3806748
 11
-4.4748912
 21
-9.6209192
  0
LINE
  5
2D8
100
AcDbEntity
  8
ASSI
100
AcDbLine
 62
7
  6
CONTINUOUS
 10
-4.1838168
 20
-9.6209192
 11
-4.1838168
 21
-7.8199976
  0
LINE
  5
2D9
100
AcDbEntity
  8
ASSI
100
AcDbLine
 62
7
  6
CONTINUOUS
 10
-1.8436334085
 20
-21.2459341581
 11
-1.8436334085
 21
-19.789258208
  0
LINE
  5
2DA
100
AcDbEntity
  8
ASSI
100
AcDbLine
 62
7
  6
CONTINUOUS
 10
-1.8436334085
 20
19.789258208
 11
-1.8436334085
 21
21.2459341581
  0
LINE
  5
2DB
100
AcDbEntity
  8
ASSI
100
AcDbLine
 62
7
  6
CONTINUOUS
 10
-1.8069813454
 20
-14.6
 11
-1.8069813454
 21
-19.516526816
  0
LINE
  5
2DC
100
AcDbEntity
  8
ASSI
100
AcDbLine
 62
7
  6
CONTINUOUS
 10
-1.8069813454
 20
14.6
 11
-1.8069813454
 21
19.516526816
  0
LINE
  5
2DD
100
AcDbEntity
  8
ASSI
100
AcDbLine
 62
7
  6
CONTINUOUS
 10
-1.8034906514
 20
21.0492138033
 11
-1.8034906514
 21
19.6174549586
  0
LINE
  5
2DE
100
AcDbEntity
  8
ASSI
100
AcDbLine
 62
7
  6
CONTINUOUS
 10
-1.8034906514
 20
-17.5
 11
-1.8034906514
 21
-18.7965093486
  0
LINE
  5
2DF
100
AcDbEntity
  8
ASSI
100
AcDbLine
 62
7
  6
CONTINUOUS
 10
-1.8034906514
 20
-19.6174549586
 11
-1.8034906514
 21
-21.0492138033
  0
LINE
  5
2E0
100
AcDbEntity
  8
ASSI
100
AcDbLine
 62
7
  6
CONTINUOUS
 10
-1.8
 20
17.5
 11
-1.8
 21
14.6
  0
LINE
  5
2E1
100
AcDbEntity
  8
ASSI
100
AcDbLine
 62
7
  6
CONTINUOUS
 10
-1.8
 20
-14.6
 11
-1.8
 21
-17.5
  0
LINE
  5
2E2
100
AcDbEntity
  8
ASSI
100
AcDbLine
 62
7
  6
CONTINUOUS
 10
-1.8
 20
-19.6
 11
-1.8
 21
-18.8
  0
LINE
  5
2E3
100
AcDbEntity
  8
ASSI
100
AcDbLine
 62
7
  6
CONTINUOUS
 10
-1.8
 20
18.8
 11
-1.8
 21
19.6
  0
LINE
  5
2E4
100
AcDbEntity
  8
0
100
AcDbLine
 62
250
  6
CONTINUOUS
 10
-1.6064070861
 20
18.5739101771
 11
-1.6064070861
 21
17.8067751239
  0
LINE
  5
2E5
100
AcDbEntity
  8
0
100
AcDbLine
 62
250
  6
CONTINUOUS
 10
-1.6064070861
 20
-18.309597657
 11
-1.6064070861
 21
-17.5424626038
  0
LINE
  5
2E6
100
AcDbEntity
  8
0
100
AcDbLine
 62
7
  6
CONTINUOUS
 10
-1.35
 20
18.1193732261
 11
-1.35
 21
17.1839101671
  0
LINE
  5
2E7
100
AcDbEntity
  8
0
100
AcDbLine
 62
7
  6
CONTINUOUS
 10
-1.35
 20
17.1839101671
 11
-1.35
 21
16.4167751139
  0
LINE
  5
2E8
100
AcDbEntity
  8
0
100
AcDbLine
 62
7
  6
CONTINUOUS
 10
-1.35
 20
-16.919597647
 11
-1.35
 21
-17.855060706
  0
LINE
  5
2E9
100
AcDbEntity
  8
0
100
AcDbLine
 62
7
  6
CONTINUOUS
 10
-1.35
 20
-16.919597647
 11
-1.35
 21
-16.1524625938
  0
LINE
  5
2EA
100
AcDbEntity
  8
0
100
AcDbLine
 62
250
  6
CONTINUOUS
 10
-1.3445218954
 20
17.1542574661
 11
-1.3445218954
 21
16.3871224129
  0
LINE
  5
2EB
100
AcDbEntity
  8
0
100
AcDbLine
 62
250
  6
CONTINUOUS
 10
-1.3445218954
 20
-16.889944946
 11
-1.3445218954
 21
-16.1228098928
  0
LINE
  5
2EC
100
AcDbEntity
  8
ASSI
100
AcDbLine
 62
7
  6
CONTINUOUS
 10
-1.3
 20
20.9762817962
 11
-1.3
 21
20.7444560472
  0
LINE
  5
2ED
100
AcDbEntity
  8
ASSI
100
AcDbLine
 62
7
  6
CONTINUOUS
 10
-1.3
 20
-20.7444560472
 11
-1.3
 21
-20.9762817962
  0
LINE
  5
2EE
100
AcDbEntity
  8
ASSI
100
AcDbLine
 62
7
  6
CONTINUOUS
 10
-1.3
 20
-19.8
 11
-1.3
 21
-19.7434905301
  0
LINE
  5
2EF
100
AcDbEntity
  8
ASSI
100
AcDbLine
 62
7
  6
CONTINUOUS
 10
-1.3
 20
-1.2835586555
 11
-1.3
 21
1.4837838456
  0
LINE
  5
2F0
100
AcDbEntity
  8
ASSI
100
AcDbLine
 62
7
  6
CONTINUOUS
 10
-1.3
 20
19.7434905301
 11
-1.3
 21
19.8
  0
LINE
  5
2F1
100
AcDbEntity
  8
ASSI
100
AcDbLine
 62
7
  6
CONTINUOUS
 10
-1.2
 20
19.8
 11
-1.2
 21
19.7399829876
  0
LINE
  5
2F2
100
AcDbEntity
  8
ASSI
100
AcDbLine
 62
7
  6
CONTINUOUS
 10
-1.2
 20
-19.7399829876
 11
-1.2
 21
-19.8
  0
LINE
  5
2F3
100
AcDbEntity
  8
ASSI
100
AcDbLine
 62
7
  6
CONTINUOUS
 10
-1.2
 20
-20.7409638945
 11
-1.2
 21
-20.9821843047
  0
LINE
  5
2F4
100
AcDbEntity
  8
ASSI
100
AcDbLine
 62
7
  6
CONTINUOUS
 10
-1.2
 20
20.7409638945
 11
-1.2
 21
20.9821843047
  0
LINE
  5
2F5
100
AcDbEntity
  8
ASSI
100
AcDbLine
 62
250
  6
CONTINUOUS
 10
-1.1130526192
 20
20.8156414452
 11
-1.1130526192
 21
20.7379275591
  0
LINE
  5
2F6
100
AcDbEntity
  8
ASSI
100
AcDbLine
 62
250
  6
CONTINUOUS
 10
-1.1130526192
 20
19.8
 11
-1.1130526192
 21
19.7369332713
  0
LINE
  5
2F7
100
AcDbEntity
  8
ASSI
100
AcDbLine
 62
250
  6
CONTINUOUS
 10
-1.1130526192
 20
-19.7369332713
 11
-1.1130526192
 21
-19.8
  0
LINE
  5
2F8
100
AcDbEntity
  8
ASSI
100
AcDbLine
 62
250
  6
CONTINUOUS
 10
-1.1130526192
 20
-20.7379275591
 11
-1.1130526192
 21
-20.8156414452
  0
LINE
  5
2F9
100
AcDbEntity
  8
0
100
AcDbLine
 62
7
  6
CONTINUOUS
 10
-1.1
 20
-14.0000000023
 11
-1.1
 21
-16.5237626357
  0
LINE
  5
2FA
100
AcDbEntity
  8
0
100
AcDbLine
 62
7
  6
CONTINUOUS
 10
-1.1
 20
14.2000000526
 11
-1.1
 21
16.6221636524
  0
LINE
  5
2FB
100
AcDbEntity
  8
0
100
AcDbLine
 62
250
  6
CONTINUOUS
 10
-0.95
 20
-19.0068326776
 11
-0.95
 21
-17.2206598891
  0
LINE
  5
2FC
100
AcDbEntity
  8
0
100
AcDbLine
 62
250
  6
CONTINUOUS
 10
-0.95
 20
17.3130715558
 11
-0.95
 21
19.25
  0
LINE
  5
2FD
100
AcDbEntity
  8
0
100
AcDbLine
 62
7
  6
CONTINUOUS
 10
-0.9499994088
 20
14.2
 11
-0.95
 21
16.4466533108
  0
LINE
  5
2FE
100
AcDbEntity
  8
0
100
AcDbLine
 62
7
  6
CONTINUOUS
 10
-0.95
 20
-16.3700733606
 11
-0.9499972556
 21
-14.0
  0
LINE
  5
2FF
100
AcDbEntity
  8
ASSI
100
AcDbLine
 62
250
  6
CONTINUOUS
 10
-0.8034904813
 20
2.0640821761
 11
-0.8034904813
 21
-1.9189051894
  0
LINE
  5
300
100
AcDbEntity
  8
ASSI
100
AcDbLine
 62
250
  6
CONTINUOUS
 10
-0.6956367323
 20
-2.0984364925
 11
-0.6956367323
 21
2.1522639453
  0
LINE
  5
301
100
AcDbEntity
  8
0
100
AcDbLine
 62
7
  6
CONTINUOUS
 10
-0.6
 20
-18.6568326776
 11
-0.6
 21
-18.0673041954
  0
LINE
  5
302
100
AcDbEntity
  8
0
100
AcDbLine
 62
7
  6
CONTINUOUS
 10
-0.6
 20
18.0674322765
 11
-0.6
 21
18.9
  0
LINE
  5
303
100
AcDbEntity
  8
ASSI
100
AcDbLine
 62
7
  6
CONTINUOUS
 10
-0.4
 20
2.7191467862
 11
-0.4
 21
2.710473039
  0
LINE
  5
304
100
AcDbEntity
  8
ASSI
100
AcDbLine
 62
7
  6
CONTINUOUS
 10
-0.4
 20
-2.710473039
 11
-0.4
 21
-2.7191467862
  0
LINE
  5
305
100
AcDbEntity
  8
ASSI
100
AcDbLine
 62
7
  6
CONTINUOUS
 10
-0.0
 20
19.6991020889
 11
-0.0
 21
19.5511295404
  0
LINE
  5
306
100
AcDbEntity
  8
ASSI
100
AcDbLine
 62
7
  6
CONTINUOUS
 10
0.0
 20
-18.8
 11
0.0
 21
-18.8663241952
  0
LINE
  5
307
100
AcDbEntity
  8
ASSI
100
AcDbLine
 62
7
  6
CONTINUOUS
 10
0.0
 20
-19.5511295404
 11
0.0
 21
-19.6991020889
  0
LINE
  5
308
100
AcDbEntity
  8
ASSI
100
AcDbLine
 62
7
  6
CONTINUOUS
 10
0.0
 20
-19.8
 11
0.0
 21
-21.25
  0
LINE
  5
309
100
AcDbEntity
  8
ASSI
100
AcDbLine
 62
7
  6
CONTINUOUS
 10
0.0
 20
-21.9966560719
 11
0.0
 21
-22.0040094821
  0
LINE
  5
30A
100
AcDbEntity
  8
ASSI
100
AcDbLine
 62
7
  6
CONTINUOUS
 10
-0.0
 20
19.8
 11
-0.0
 21
21.25
  0
LINE
  5
30B
100
AcDbEntity
  8
ASSI
100
AcDbLine
 62
7
  6
CONTINUOUS
 10
0.1
 20
-2.7478453103
 11
0.1
 21
2.7478453103
  0
LINE
  5
30C
100
AcDbEntity
  8
0
100
AcDbLine
 62
7
  6
CONTINUOUS
 10
0.6
 20
18.9
 11
0.6
 21
18.0674322765
  0
LINE
  5
30D
100
AcDbEntity
  8
0
100
AcDbLine
 62
7
  6
CONTINUOUS
 10
0.6
 20
-18.0673041954
 11
0.6
 21
-18.6568326776
  0
LWPOLYLINE
  5
30E
100
AcDbEntity
  8
ASSI
100
AcDbPolyline
 62
7
  6
CONTINUOUS
 90
28
 70
0
 10
-3.6222215853
 20
-8.7195833675
 10
-3.6216018687
 20
-8.6532491581
 10
-3.6196581225
 20
-8.5890800825
 10
-3.6163903465
 20
-8.5270761409
 10
-3.611912996
 20
-8.4672567368
 10
-3.6061116159
 20
-8.4096024665
 10
-3.5986428404
 20
-8.3540551195
 10
-3.5894057253
 20
-8.3005360807
 10
-3.5785012148
 20
-8.2491239652
 10
-3.5658887769
 20
-8.1999964068
 10
-3.5516186589
 20
-8.1530255526
 10
-3.5356406135
 20
-8.1083392555
 10
-3.5177633659
 20
-8.0664987091
 10
-3.497718897
 20
-8.0276438716
 10
-3.4757752259
 20
-7.9916347846
 10
-3.4525451353
 20
-7.9586127671
 10
-3.4281805159
 20
-7.9287292636
 10
-3.4025294769
 20
-7.9018328295
 10
-3.3757491288
 20
-7.8776104502
 10
-3.3480246753
 20
-7.8559881938
 10
-3.3191709127
 20
-7.8370399921
 10
-3.2887893396
 20
-7.8206746265
 10
-3.2567820812
 20
-7.8068901695
 10
-3.2232470123
 20
-7.7956885485
 10
-3.1880792563
 20
-7.7869843277
 10
-3.1512438544
 20
-7.7807490285
 10
-3.1127757655
 20
-7.7770111294
 10
-3.0726749895
 20
-7.7757706305
  0
LINE
  5
30F
100
AcDbEntity
  8
0
100
AcDbLine
 62
250
  6
CONTINUOUS
 10
-0.7162131964
 20
-16.3464012295
 11
-0.6995441597
 21
-15.2624370163
  0
LINE
  5
310
100
AcDbEntity
  8
0
100
AcDbLine
 62
250
  6
CONTINUOUS
 10
0.7160076232
 20
16.4230154734
 11
0.700079355
 21
15.4312531432
  0
LINE
  5
311
100
AcDbEntity
  8
0
100
AcDbLine
 62
250
  6
CONTINUOUS
 10
-0.6995441597
 20
-15.2624370163
 11
-0.6893990922
 21
-14.6786872327
  0
LINE
  5
312
100
AcDbEntity
  8
0
100
AcDbLine
 62
250
  6
CONTINUOUS
 10
0.700079355
 20
15.4312531432
 11
0.6945619596
 21
15.1140580227
  0
LWPOLYLINE
  5
313
100
AcDbEntity
  8
ASSI
100
AcDbPolyline
 62
7
  6
CONTINUOUS
 90
22
 70
0
 10
-0.2330816083
 20
-8.4240404
 10
-0.2320181785
 20
-8.3670086569
 10
-0.2285478781
 20
-8.3123496901
 10
-0.222670707
 20
-8.2600634998
 10
-0.2143307499
 20
-8.2099666374
 10
-0.2035839222
 20
-8.1622425514
 10
-0.1905979701
 20
-8.1174415873
 10
-0.1753796812
 20
-8.0757395933
 10
-0.157922268
 20
-8.0369607211
 10
-0.1383731135
 20
-8.0011277717
 10
-0.1167176054
 20
-7.9683466856
 10
-0.0929703559
 20
-7.9385115223
 10
-0.0673225851
 20
-7.911327262
 10
-0.039839471
 20
-7.8867079662
 10
-0.0104558355
 20
-7.8647395734
 10
0.0208326354
 20
-7.8453848786
 10
0.0539836299
 20
-7.8285075466
 10
0.08903946
 20
-7.8142439126
 10
0.1261313756
 20
-7.8029657774
 10
0.1653031268
 20
-7.7947970746
 10
0.2065109635
 20
-7.7896138707
 10
0.2497548858
 20
-7.7874161655
  0
LINE
  5
314
100
AcDbEntity
  8
0
100
AcDbLine
 62
250
  6
CONTINUOUS
 10
-0.6893990922
 20
-14.6786872327
 11
-0.6826600006
 21
-14.3345426456
  0
LINE
  5
315
100
AcDbEntity
  8
0
100
AcDbLine
 62
250
  6
CONTINUOUS
 10
0.6945619596
 20
15.1140580227
 11
0.6825560783
 21
14.5094856486
  0
LWPOLYLINE
  5
316
100
AcDbEntity
  8
0
100
AcDbPolyline
 62
7
  6
CONTINUOUS
 90
10
 70
0
 10
-1.35
 20
-16.919597647
 10
-1.3499224743
 20
-16.9162284698
 10
-1.349715225
 20
-16.9128944892
 10
-1.3493782521
 20
-16.9095957052
 10
-1.3489156418
 20
-16.9063542357
 10
-1.348323308
 20
-16.9031479627
 10
-1.3475889922
 20
-16.8999105326
 10
-1.3467086085
 20
-16.8966198275
 10
-1.3456862429
 20
-16.8932979653
 10
-1.3445218954
 20
-16.889944946
  0
LWPOLYLINE
  5
317
100
AcDbEntity
  8
0
100
AcDbPolyline
 62
250
  6
CONTINUOUS
 90
10
 70
0
 10
-0.6826600006
 20
-14.3345426456
 10
-0.6783493575
 20
-14.1514187407
 10
-0.6761829615
 20
-14.0747054263
 10
-0.6740261573
 20
-14.0086202995
 10
-0.6719202412
 20
-13.9538480503
 10
-0.6698774537
 20
-13.9107361718
 10
-0.6678855542
 20
-13.879398394
 10
-0.665949118
 20
-13.8598485737
 10
-0.6640892446
 20
-13.8520736678
 10
-0.6638041533
 20
-13.8519236039
  0
LWPOLYLINE
  5
318
100
AcDbEntity
  8
0
100
AcDbPolyline
 62
250
  6
CONTINUOUS
 90
10
 70
0
 10
0.6825560783
 20
14.5094856486
 10
0.6784671383
 20
14.3412851872
 10
0.6763236453
 20
14.2688116191
 10
0.6741405368
 20
14.2052751744
 10
0.6720106891
 20
14.1522329615
 10
0.6699659716
 20
14.1102243711
 10
0.6679745149
 20
14.0794257719
 10
0.6660335865
 20
14.0600744375
 10
0.6641591408
 20
14.0521425374
 10
0.6638004547
 20
14.0519205338
  0
LWPOLYLINE
  5
319
100
AcDbEntity
  8
0
100
AcDbPolyline
 62
250
  6
CONTINUOUS
 90
19
 70
0
 10
-0.7160076235
 20
16.4230154476
 10
-0.7138236879
 20
16.5021623386
 10
-0.7056998728
 20
16.5796932995
 10
-0.6916361782
 20
16.6555223904
 10
-0.6713049077
 20
16.7301977615
 10
-0.6450337578
 20
16.803029235
 10
-0.6138058179
 20
16.8720608063
 10
-0.5773862802
 20
16.9370952249
 10
-0.5360099525
 20
16.9981931949
 10
-0.4913643478
 20
17.0537684716
 10
-0.4435172555
 20
17.1033591575
 10
-0.3924008861
 20
17.1473409489
 10
-0.3394993848
 20
17.1853888671
 10
-0.2848471294
 20
17.217327257
 10
-0.2284097421
 20
17.2432970093
 10
-0.1715682344
 20
17.2634565698
 10
-0.1147829436
 20
17.2778558715
 10
-0.0575935325
 20
17.2864352024
 10
-0.000000001
 20
17.2891925914
  0
LWPOLYLINE
  5
31A
100
AcDbEntity
  8
ASSI
100
AcDbPolyline
 62
7
  6
CONTINUOUS
 90
22
 70
0
 10
-2.6052265713
 20
-8.9681644718
 10
-2.6071078468
 20
-9.0294145445
 10
-2.6118949221
 20
-9.0878097712
 10
-2.619587797
 20
-9.1433501518
 10
-2.630407611
 20
-9.1961074715
 10
-2.6441332247
 20
-9.2460099452
 10
-2.6601012199
 20
-9.2928422178
 10
-2.6782399288
 20
-9.3365857736
 10
-2.6986210192
 20
-9.3772591282
 10
-2.7207960769
 20
-9.4147024739
 10
-2.7447773229
 20
-9.44880736
 10
-2.7705525361
 20
-9.479682237
 10
-2.7976366388
 20
-9.507492649
 10
-2.825979331
 20
-9.5322464325
 10
-2.8556309127
 20
-9.5539357509
 10
-2.8862572054
 20
-9.5727026377
 10
-2.9178261778
 20
-9.588572239
 10
-2.9503698613
 20
-9.6015194087
 10
-2.9836501715
 20
-9.6116107419
 10
-3.0175877471
 20
-9.6188684368
 10
-3.0522619494
 20
-9.6232702952
 10
-3.0876727786
 20
-9.624816317
  0
LWPOLYLINE
  5
31B
100
AcDbEntity
  8
ASSI
100
AcDbPolyline
 62
7
  6
CONTINUOUS
 90
28
 70
0
 10
-0.249396048
 20
-9.588338
 10
-0.2475950795
 20
-9.531450618
 10
-0.2428101402
 20
-9.4754197345
 10
-0.2350412302
 20
-9.4202453493
 10
-0.2246894444
 20
-9.3659241587
 10
-0.2113536878
 20
-9.3124594665
 10
-0.1938306758
 20
-9.2598611844
 10
-0.1716818741
 20
-9.2081421309
 10
-0.145345817
 20
-9.1572894875
 10
-0.1149348231
 20
-9.10727471
 10
-0.0799356627
 20
-9.0578198957
 10
-0.0408615655
 20
-9.0092029472
 10
0.0006354612
 20
-8.9622290294
 10
0.045105217
 20
-8.9170905613
 10
0.0919979023
 20
-8.8735951239
 10
0.1380121106
 20
-8.8319706235
 10
0.1826241182
 20
-8.7928350393
 10
0.2263576488
 20
-8.7555703922
 10
0.2674824667
 20
-8.7185506514
 10
0.3058832844
 20
-8.6818587205
 10
0.3416753893
 20
-8.6454116959
 10
0.3734744079
 20
-8.6073348362
 10
0.4012457368
 20
-8.5669237092
 10
0.4250239793
 20
-8.5248827471
 10
0.4435285712
 20
-8.4814505046
 10
0.4563326578
 20
-8.4367065001
 10
0.4638630937
 20
-8.3905712152
 10
0.466119879
 20
-8.3430446499
  0
LWPOLYLINE
  5
31C
100
AcDbEntity
  8
0
100
AcDbPolyline
 62
7
  6
CONTINUOUS
 90
10
 70
0
 10
-1.1
 20
16.6221636524
 10
-1.0952713405
 20
16.7331195032
 10
-1.0820406531
 20
16.8424094168
 10
-1.0603079377
 20
16.9498493933
 10
-1.0295828247
 20
17.0563044791
 10
-0.9903556838
 20
17.160602582
 10
-0.9440976241
 20
17.2594930058
 10
-0.8912990152
 20
17.3517982932
 10
-0.8314694875
 20
17.4384505377
 10
-0.7646090409
 20
17.5193732436
  0
LWPOLYLINE
  5
31D
100
AcDbEntity
  8
0
100
AcDbPolyline
 62
7
  6
CONTINUOUS
 90
10
 70
0
 10
-1.1
 20
16.838399556
 10
-1.0962632565
 20
16.9178970532
 10
-1.084187382
 20
16.9971482545
 10
-1.0637723764
 20
17.0760510552
 10
-1.0350757046
 20
17.1551572509
 10
-0.9980399017
 20
17.2337315026
 10
-0.9524925734
 20
17.3097247791
 10
-0.8983762547
 20
17.3823867277
 10
-0.8357484106
 20
17.4522907942
 10
-0.7646090409
 20
17.5193732436
  0
LWPOLYLINE
  5
31E
100
AcDbEntity
  8
0
100
AcDbPolyline
 62
7
  6
CONTINUOUS
 90
7
 70
0
 10
-1.35
 20
-17.855060706
 10
-1.3500818578
 20
-17.8566131607
 10
-1.3503018282
 20
-17.8581482108
 10
-1.350659911
 20
-17.8596658565
 10
-1.3511561063
 20
-17.8611660977
 10
-1.3517904141
 20
-17.8626489344
 10
-1.3525628344
 20
-17.8641143666
  0
LWPOLYLINE
  5
31F
100
AcDbEntity
  8
0
100
AcDbPolyline
 62
7
  6
CONTINUOUS
 90
7
 70
0
 10
1.35
 20
18.1193732261
 10
1.3500818578
 20
18.1209256808
 10
1.3503018282
 20
18.1224607309
 10
1.350659911
 20
18.1239783766
 10
1.3511561063
 20
18.1254786178
 10
1.3517904141
 20
18.1269614545
 10
1.3525628344
 20
18.1284268867
  0
LWPOLYLINE
  5
320
100
AcDbEntity
  8
0
100
AcDbPolyline
 62
7
  6
CONTINUOUS
 90
16
 70
0
 10
-0.95
 20
16.4466533108
 10
-0.9433722336
 20
16.5633900692
 10
-0.9262492093
 20
16.6769126261
 10
-0.898630927
 20
16.7869425213
 10
-0.8596469739
 20
16.8944853183
 10
-0.8101677629
 20
16.9980995979
 10
-0.7528045327
 20
17.0938250676
 10
-0.6873953095
 20
17.180801592
 10
-0.6141020671
 20
17.2595579363
 10
-0.5360219657
 20
17.328213729
 10
-0.4531952101
 20
17.3862114657
 10
-0.3655815954
 20
17.4339888107
 10
-0.2761576668
 20
17.4711895213
 10
-0.185915606
 20
17.4976908266
 10
-0.0938632312
 20
17.5135982869
 10
-0.0000005425
 20
17.5189106638
  0
LINE
  5
321
100
AcDbEntity
  8
0
100
AcDbLine
 62
250
  6
CONTINUOUS
 10
0.6053172864
 20
18.8309284079
 11
0.6
 21
18.7726483312
  0
LINE
  5
322
100
AcDbEntity
  8
ASSI
100
AcDbLine
 62
7
  6
CONTINUOUS
 10
1.8436334085
 20
19.789258208
 11
1.8069813454
 21
19.516526816
  0
LINE
  5
323
100
AcDbEntity
  8
ASSI
100
AcDbLine
 62
7
  6
CONTINUOUS
 10
1.8034906514
 20
19.6174549586
 11
1.8
 21
19.6
  0
LINE
  5
324
100
AcDbEntity
  8
ASSI
100
AcDbLine
 62
7
  6
CONTINUOUS
 10
1.8436334085
 20
21.2459341581
 11
1.8034906514
 21
21.0492138033
  0
LINE
  5
325
100
AcDbEntity
  8
ASSI
100
AcDbLine
 62
7
  6
CONTINUOUS
 10
-1.4221536
 20
-7.7357636
 11
-1.8830124
 21
-9.6075428
  0
LINE
  5
326
100
AcDbEntity
  8
ASSI
100
AcDbLine
 62
7
  6
CONTINUOUS
 10
-1.6454016
 20
-9.6075428
 11
-1.1841528
 21
-7.7357636
  0
LWPOLYLINE
  5
327
100
AcDbEntity
  8
0
100
AcDbPolyline
 62
7
  6
CONTINUOUS
 90
10
 70
0
 10
1.3445218954
 20
16.3871224129
 10
1.3456862429
 20
16.3904754322
 10
1.3467086085
 20
16.3937972944
 10
1.3475889922
 20
16.3970879995
 10
1.348323308
 20
16.4003254296
 10
1.3489156418
 20
16.4035317026
 10
1.3493782521
 20
16.4067731721
 10
1.349715225
 20
16.4100719561
 10
1.3499224743
 20
16.4134059367
 10
1.35
 20
16.4167751139
  0
LINE
  5
328
100
AcDbEntity
  8
0
100
AcDbLine
 62
7
  6
CONTINUOUS
 10
1.3445218954
 20
17.1542574661
 11
1.1054781046
 21
16.5090684834
  0
LINE
  5
329
100
AcDbEntity
  8
0
100
AcDbLine
 62
7
  6
CONTINUOUS
 10
1.3445218954
 20
16.3871224129
 11
1.1054781046
 21
15.7419334302
  0
LINE
  5
32A
100
AcDbEntity
  8
ASSI
100
AcDbLine
 62
250
  6
CONTINUOUS
 10
-6.8839024103
 20
-18.3513456173
 11
-6.9804709794
 21
-18.6087814555
  0
LINE
  5
32B
100
AcDbEntity
  8
ASSI
100
AcDbLine
 62
250
  6
CONTINUOUS
 10
6.8839024103
 20
18.3513456173
 11
6.9804709794
 21
18.6087814555
  0
LINE
  5
32C
100
AcDbEntity
  8
ASSI
100
AcDbLine
 62
250
  6
CONTINUOUS
 10
7.5144322476
 20
20.0322339096
 11
7.7268292525
 21
20.5984492062
  0
LINE
  5
32D
100
AcDbEntity
  8
ASSI
100
AcDbLine
 62
250
  6
CONTINUOUS
 10
-7.5144322476
 20
-20.0322339096
 11
-7.7268292525
 21
-20.5984492062
  0
LINE
  5
32E
100
AcDbEntity
  8
ASSI
100
AcDbLine
 62
7
  6
CONTINUOUS
 10
-9.75165174
 20
-19.7789490892
 11
-9.5102833932
 21
-19.2244641241
  0
LINE
  5
32F
100
AcDbEntity
  8
ASSI
100
AcDbLine
 62
250
  6
CONTINUOUS
 10
-9.1802324565
 20
-17.4078714615
 11
-9.2925461965
 21
-17.6588382385
  0
LINE
  5
330
100
AcDbEntity
  8
0
100
AcDbLine
 62
7
  6
CONTINUOUS
 10
0.4896921016
 20
2.7056726905
 11
0.3235294118
 21
2.3941176471
  0
LINE
  5
331
100
AcDbEntity
  8
0
100
AcDbLine
 62
7
  6
CONTINUOUS
 10
-1.5749385333
 20
-2.2312398539
 11
-0.9926000549
 21
-1.6827128294
  0
LINE
  5
332
100
AcDbEntity
  8
0
100
AcDbLine
 62
7
  6
CONTINUOUS
 10
1.4198370017
 20
2.2793181825
 11
0.9949734517
 21
1.8801897701
  0
LINE
  5
333
100
AcDbEntity
  8
0
100
AcDbLine
 62
7
  6
CONTINUOUS
 10
-1.5808012818
 20
-2.225
 11
-0.9970833332
 21
-1.6779411765
  0
LINE
  5
334
100
AcDbEntity
  8
0
100
AcDbLine
 62
7
  6
CONTINUOUS
 10
1.8059386749
 20
1.9109691932
 11
1.649603755
 21
1.806340908
  0
LINE
  5
335
100
AcDbEntity
  8
0
100
AcDbLine
 62
7
  6
CONTINUOUS
 10
-2.0266399429
 20
-1.8561741894
 11
-1.6506107771
 21
-1.6048352605
  0
LINE
  5
336
100
AcDbEntity
  8
ASSI
100
AcDbLine
 62
7
  6
CONTINUOUS
 10
-22.1
 20
-9.5404147135
 11
-22.3749521765
 21
-9.6726465946
  0
LINE
  5
337
100
AcDbEntity
  8
0
100
AcDbLine
 62
7
  6
CONTINUOUS
 10
-24.373779822
 20
-10.6220331871
 11
-24.0053777989
 21
-10.4482932804
  0
LWPOLYLINE
  5
338
100
AcDbEntity
  8
0
100
AcDbPolyline
 62
7
  6
CONTINUOUS
 90
3
 70
0
 10
-24.0053777989
 20
-10.4482932804
 10
-23.9691240531
 20
-10.4312813938
 10
-23.8952585473
 20
-10.396238116
  0
LWPOLYLINE
  5
339
100
AcDbEntity
  8
RACCORDO
100
AcDbPolyline
 62
7
  6
CONTINUOUS
 90
6
 70
0
 10
1.6880700248
 20
-1.5988288095
 10
1.7680012436
 20
-1.5828164227
 10
1.848632817
 20
-1.5661208832
 10
1.9299607133
 20
-1.5487611502
 10
2.0119787543
 20
-1.5307834312
 10
2.0923560233
 20
-1.5127112257
  0
LWPOLYLINE
  5
33A
100
AcDbEntity
  8
RACCORDO
100
AcDbPolyline
 62
7
  6
CONTINUOUS
 90
5
 70
0
 10
1.1853930228
 20
-1.611241572
 10
1.1269552314
 20
-1.6210428293
 10
1.077123937
 20
-1.6339746274
 10
1.0358848721
 20
-1.6510277675
 10
1.0031526665
 20
-1.6727786892
  0
LINE
  5
33B
100
AcDbEntity
  8
DRAFT
100
AcDbLine
 62
7
  6
CONTINUOUS
 10
9.2040689709
 20
-1.4576344065
 11
13.1069272639
 21
-0.9070282215
  0
LWPOLYLINE
  5
33C
100
AcDbEntity
  8
RACCORDO
100
AcDbPolyline
 62
7
  6
CONTINUOUS
 90
7
 70
0
 10
1.6512190769
 20
-1.6039248292
 10
1.6573074782
 20
-1.603385983
 10
1.6634175132
 20
-1.6027235727
 10
1.6695489957
 20
-1.6019371229
 10
1.6757017233
 20
-1.60102616
 10
1.6818754777
 20
-1.5999902122
 10
1.6880700248
 20
-1.5988288095
  0
LINE
  5
33D
100
AcDbEntity
  8
COPY-PUBBLISH
100
AcDbLine
 62
250
  6
CONTINUOUS
 10
15.5224442111
 20
-0.862095259
 11
15.5119960377
 21
-0.8624317824
  0
LINE
  5
33E
100
AcDbEntity
  8
RACCORDO
100
AcDbLine
 62
7
  6
CONTINUOUS
 10
9.5
 20
-2.761910009
 11
9.0518799352
 21
-2.7631461187
  0
LINE
  5
33F
100
AcDbEntity
  8
DRAFT
100
AcDbLine
 62
7
  6
CONTINUOUS
 10
9.5
 20
-2.75
 11
10.0210877184
 21
-2.75
  0
LINE
  5
340
100
AcDbEntity
  8
DRAFT
100
AcDbLine
 62
7
  6
CONTINUOUS
 10
12.4789122815
 20
-2.75
 11
13.0
 21
-2.75
  0
LINE
  5
341
100
AcDbEntity
  8
ASSI
100
AcDbLine
 62
7
  6
CONTINUOUS
 10
-0.4704455941
 20
-2.7092434065
 11
0.1
 21
-2.7192005714
  0
LWPOLYLINE
  5
342
100
AcDbEntity
  8
RACCORDO
100
AcDbPolyline
 62
7
  6
CONTINUOUS
 90
5
 70
0
 10
1.5084351874
 20
-1.6013581305
 10
1.4135734098
 20
-1.5997126786
 10
1.3282856795
 20
-1.6003267434
 10
1.2523898237
 20
-1.604158739
 10
1.1853930228
 20
-1.611241572
  0
LWPOLYLINE
  5
343
100
AcDbEntity
  8
RACCORDO
100
AcDbPolyline
 62
250
  6
CONTINUOUS
 90
9
 70
0
 10
9.5
 20
-2.76191001
 10
9.3291584521
 20
-2.7568400016
 10
9.1593127572
 20
-2.7412546038
 10
8.9911048911
 20
-2.7152800192
 10
8.8251885041
 20
-2.679088041
 10
8.6621513275
 20
-2.6328768668
 10
8.5025177583
 20
-2.5768546819
 10
8.3468638559
 20
-2.5112784827
 10
8.1957579084
 20
-2.4364439296
  0
LWPOLYLINE
  5
344
100
AcDbEntity
  8
RACCORDO
100
AcDbPolyline
 62
7
  6
CONTINUOUS
 90
7
 70
0
 10
1.5084351874
 20
-1.6013581305
 10
1.6192259818
 20
-1.6048314178
 10
1.6254688303
 20
-1.6049133433
 10
1.6317900682
 20
-1.6048648266
 10
1.6381892
 20
-1.604684691
 10
1.644665713
 20
-1.6043717543
 10
1.6512190769
 20
-1.6039248292
  0
LINE
  5
345
100
AcDbEntity
  8
RACCORDO
100
AcDbLine
 62
7
  6
CONTINUOUS
 10
-7.4536911331
 20
-1.9091969119
 11
-7.5470038322
 21
-1.894165042
  0
LINE
  5
346
100
AcDbEntity
  8
DRAFT
100
AcDbLine
 62
7
  6
CONTINUOUS
 10
-15.2187468574
 20
-0.6583136798
 11
-15.5179547403
 21
-0.6101138811
  0
LWPOLYLINE
  5
347
100
AcDbEntity
  8
0
100
AcDbPolyline
 62
7
  6
CONTINUOUS
 90
9
 70
0
 10
-1.6506107771
 20
-1.6048352605
 10
-1.7344318209
 20
-1.5883674042
 10
-1.8190307608
 20
-1.5711401348
 10
-1.9044028724
 20
-1.5531749566
 10
-1.9905407769
 20
-1.5345241365
 10
-2.0774437566
 20
-1.5151880493
 10
-2.1651154023
 20
-1.4951101906
 10
-2.2535525714
 20
-1.4742896106
 10
-2.3333942023
 20
-1.4550409665
  0
LINE
  5
348
100
AcDbEntity
  8
RACCORDO
100
AcDbLine
 62
250
  6
CONTINUOUS
 10
0.740780219
 20
-2.334130115
 11
0.6065422788
 21
-2.2904988954
  0
LINE
  5
349
100
AcDbEntity
  8
RACCORDO
100
AcDbLine
 62
250
  6
CONTINUOUS
 10
0.8838110588
 20
-2.3814720457
 11
0.740780219
 21
-2.334130115
  0
LINE
  5
34A
100
AcDbEntity
  8
RACCORDO
100
AcDbLine
 62
250
  6
CONTINUOUS
 10
0.9840184113
 20
-2.4152726348
 11
0.8838110588
 21
-2.3814720457
  0
LINE
  5
34B
100
AcDbEntity
  8
RACCORDO
100
AcDbLine
 62
250
  6
CONTINUOUS
 10
1.0880894709
 20
-2.4510069047
 11
0.9840184113
 21
-2.4152726348
  0
LINE
  5
34C
100
AcDbEntity
  8
RACCORDO
100
AcDbLine
 62
250
  6
CONTINUOUS
 10
1.142082943
 20
-2.469853858
 11
1.0880894709
 21
-2.4510069047
  0
LINE
  5
34D
100
AcDbEntity
  8
RACCORDO
100
AcDbLine
 62
250
  6
CONTINUOUS
 10
0.5153006498
 20
-2.7002294713
 11
0.4965513901
 21
-2.6928053908
  0
LINE
  5
34E
100
AcDbEntity
  8
0
100
AcDbLine
 62
7
  6
CONTINUOUS
 10
-24.373779822
 20
10.6220331871
 11
-23.932351469
 21
10.4139296723
  0
LINE
  5
34F
100
AcDbEntity
  8
0
100
AcDbLine
 62
7
  6
CONTINUOUS
 10
-23.932351469
 20
10.4139296723
 11
-23.8952585473
 21
10.396238116
  0
LINE
  5
350
100
AcDbEntity
  8
ASSI
100
AcDbLine
 62
7
  6
CONTINUOUS
 10
-22.1
 20
9.5404147135
 11
-22.3749521765
 21
9.6726465946
  0
LINE
  5
351
100
AcDbEntity
  8
RACCORDO
100
AcDbLine
 62
250
  6
CONTINUOUS
 10
-8.1957579084
 20
2.4364439296
 11
-8.0496920786
 21
2.3526449709
  0
LWPOLYLINE
  5
352
100
AcDbEntity
  8
RACCORDO
100
AcDbPolyline
 62
250
  6
CONTINUOUS
 90
3
 70
0
 10
1.8318750272
 20
-1.7484718973
 10
1.8909322181
 20
-1.7862194354
 10
1.8981269805
 20
-1.790708839
  0
LWPOLYLINE
  5
353
100
AcDbEntity
  8
0
100
AcDbPolyline
 62
7
  6
CONTINUOUS
 90
6
 70
0
 10
-1.6667222572
 20
-2.154167843
 10
-1.693041311
 20
-2.1371427654
 10
-1.7209269541
 20
-2.1205343635
 10
-1.7503164915
 20
-2.1042779176
 10
-1.7811983365
 20
-2.0882506771
 10
-1.7949385686
 20
-2.0815810312
  0
LWPOLYLINE
  5
354
100
AcDbEntity
  8
RACCORDO
100
AcDbPolyline
 62
250
  6
CONTINUOUS
 90
6
 70
0
 10
-8.0496920786
 20
2.3526449709
 10
-7.9091976018
 20
2.2602355449
 10
-7.7747634483
 20
2.1595884968
 10
-7.6467969835
 20
2.0510486051
 10
-7.5257441194
 20
1.9350257785
 10
-7.4120451536
 20
1.8119758145
  0
LWPOLYLINE
  5
355
100
AcDbEntity
  8
RACCORDO
100
AcDbPolyline
 62
250
  6
CONTINUOUS
 90
4
 70
0
 10
1.6127664947
 20
-1.6046071131
 10
1.6648341047
 20
-1.6393880325
 10
1.7187829526
 20
-1.6750019229
 10
1.8318750272
 20
-1.7484718973
  0
LINE
  5
356
100
AcDbEntity
  8
0
100
AcDbLine
 62
7
  6
CONTINUOUS
 10
-1.9071925981
 20
1.9787341198
 11
-1.649603755
 21
1.806340908
  0
LWPOLYLINE
  5
357
100
AcDbEntity
  8
RACCORDO
100
AcDbPolyline
 62
250
  6
CONTINUOUS
 90
6
 70
0
 10
1.6881845934
 20
-1.5988061396
 10
1.7369537595
 20
-1.63294826
 10
1.7864663612
 20
-1.6680261277
 10
1.8367112933
 20
-1.7040566473
 10
1.8877272947
 20
-1.7410277441
 10
1.9190391914
 20
-1.7640052368
  0
LWPOLYLINE
  5
358
100
AcDbEntity
  8
RACCORDO
100
AcDbPolyline
 62
250
  6
CONTINUOUS
 90
3
 70
0
 10
1.5694396844
 20
-2.1465421199
 10
1.563523082
 20
-2.1421645998
 10
1.5422177036
 20
-2.1261823129
  0
LWPOLYLINE
  5
359
100
AcDbEntity
  8
RACCORDO
100
AcDbPolyline
 62
250
  6
CONTINUOUS
 90
3
 70
0
 10
1.5422177036
 20
-2.1261823129
 10
1.5203590884
 20
-2.1095680707
 10
1.4981003083
 20
-2.0924261363
  0
LWPOLYLINE
  5
35A
100
AcDbEntity
  8
RACCORDO
100
AcDbPolyline
 62
250
  6
CONTINUOUS
 90
4
 70
0
 10
1.4981003083
 20
-2.0924261363
 10
1.4754437182
 20
-2.0747550182
 10
1.4523842924
 20
-2.056558279
 10
1.4290624344
 20
-2.037949217
  0
LWPOLYLINE
  5
35B
100
AcDbEntity
  8
RACCORDO
100
AcDbPolyline
 62
250
  6
CONTINUOUS
 90
4
 70
0
 10
1.4290624344
 20
-2.037949217
 10
1.4054793776
 20
-2.018928033
 10
1.3816299118
 20
-1.9994977149
 10
1.3576439416
 20
-1.9797766047
  0
LINE
  5
35C
100
AcDbEntity
  8
RACCORDO
100
AcDbLine
 62
250
  6
CONTINUOUS
 10
1.3576439416
 20
-1.9797766047
 11
1.3092570972
 21
-1.9394671764
  0
LINE
  5
35D
100
AcDbEntity
  8
RACCORDO
100
AcDbLine
 62
250
  6
CONTINUOUS
 10
1.3092570972
 20
-1.9394671764
 11
1.2606771815
 21
-1.8983766062
  0
LINE
  5
35E
100
AcDbEntity
  8
RACCORDO
100
AcDbLine
 62
250
  6
CONTINUOUS
 10
1.2606771815
 20
-1.8983766062
 11
1.2121363337
 21
-1.8567625497
  0
LINE
  5
35F
100
AcDbEntity
  8
RACCORDO
100
AcDbLine
 62
250
  6
CONTINUOUS
 10
1.2121363337
 20
-1.8567625497
 11
1.1639883624
 21
-1.8150069218
  0
LINE
  5
360
100
AcDbEntity
  8
RACCORDO
100
AcDbLine
 62
250
  6
CONTINUOUS
 10
1.1639883624
 20
-1.8150069218
 11
1.1165854853
 21
-1.7734954762
  0
LINE
  5
361
100
AcDbEntity
  8
RACCORDO
100
AcDbLine
 62
250
  6
CONTINUOUS
 10
1.1165854853
 20
-1.7734954762
 11
1.047489874
 21
-1.7123630292
  0
LINE
  5
362
100
AcDbEntity
  8
RACCORDO
100
AcDbLine
 62
250
  6
CONTINUOUS
 10
1.047489874
 20
-1.7123630292
 11
1.0031457635
 21
-1.6727844801
  0
LWPOLYLINE
  5
363
100
AcDbEntity
  8
0
100
AcDbPolyline
 62
7
  6
CONTINUOUS
 90
19
 70
0
 10
-0.9970833332
 20
-1.6779411765
 10
-1.0119205736
 20
-1.6645406048
 10
-1.0296577391
 20
-1.6527617077
 10
-1.0502373418
 20
-1.6424406754
 10
-1.0736587137
 20
-1.6333227204
 10
-1.0997922394
 20
-1.6253179584
 10
-1.1284052336
 20
-1.6185307348
 10
-1.1594269492
 20
-1.6128329246
 10
-1.1928267124
 20
-1.6080532269
 10
-1.2284740251
 20
-1.6042809
 10
-1.2662815248
 20
-1.6014109612
 10
-1.3062561063
 20
-1.5992959385
 10
-1.3484695371
 20
-1.5980165672
 10
-1.3929017403
 20
-1.5974878057
 10
-1.439553847
 20
-1.5975998227
 10
-1.488608209
 20
-1.5984488752
 10
-1.5401572941
 20
-1.6000245065
 10
-1.594155053
 20
-1.6021818357
 10
-1.6506107771
 20
-1.6048352605
  0
LINE
  5
364
100
AcDbEntity
  8
0
100
AcDbLine
 62
7
  6
CONTINUOUS
 10
-1.4673059351
 20
2.3239117939
 11
-0.9949734517
 21
1.8801897701
  0
LINE
  5
365
100
AcDbEntity
  8
0
100
AcDbLine
 62
7
  6
CONTINUOUS
 10
1.5252565138
 20
-2.1844424476
 11
0.9926000549
 21
-1.6827128294
  0
LWPOLYLINE
  5
366
100
AcDbEntity
  8
0
100
AcDbPolyline
 62
7
  6
CONTINUOUS
 90
5
 70
0
 10
-1.5808012818
 20
-2.225
 10
-1.5992996482
 20
-2.2066416951
 10
-1.6198016096
 20
-2.1888057725
 10
-1.6422630977
 20
-2.1713864276
 10
-1.6667222572
 20
-2.154167843
  0
LINE
  5
367
100
AcDbEntity
  8
0
100
AcDbLine
 62
7
  6
CONTINUOUS
 10
-1.5808012818
 20
-2.225
 11
-1.5749385333
 21
-2.2312398539
  0
LINE
  5
368
100
AcDbEntity
  8
0
100
AcDbLine
 62
7
  6
CONTINUOUS
 10
-0.9970833332
 20
-1.6779411765
 11
-0.9926000549
 21
-1.6827128294
  0
LINE
  5
369
100
AcDbEntity
  8
RACCORDO
100
AcDbLine
 62
250
  6
CONTINUOUS
 10
-7.4120451536
 20
1.8119758145
 11
-7.3847845764
 21
1.7786258247
  0
LINE
  5
36A
100
AcDbEntity
  8
ASSI
100
AcDbLine
 62
250
  6
CONTINUOUS
 10
-9.1802339478
 20
17.4078747938
 11
-9.2925476878
 21
17.6588415707
  0
LINE
  5
36B
100
AcDbEntity
  8
ASSI
100
AcDbLine
 62
7
  6
CONTINUOUS
 10
-9.75165174
 20
19.7789490892
 11
-9.508738235
 21
19.2251392982
  0
LINE
  5
36C
100
AcDbEntity
  8
ASSI
100
AcDbLine
 62
250
  6
CONTINUOUS
 10
-6.9804709794
 20
18.6087814555
 11
-6.8839024103
 21
18.3513456173
  0
LINE
  5
36D
100
AcDbEntity
  8
ASSI
100
AcDbLine
 62
250
  6
CONTINUOUS
 10
6.8839024298
 20
-18.3513456694
 11
6.9804709989
 21
-18.6087815077
  0
LINE
  5
36E
100
AcDbEntity
  8
ASSI
100
AcDbLine
 62
250
  6
CONTINUOUS
 10
7.5144322476
 20
-20.0322339096
 11
7.7268292378
 21
-20.5984491671
  0
LINE
  5
36F
100
AcDbEntity
  8
ASSI
100
AcDbLine
 62
250
  6
CONTINUOUS
 10
-7.5144322476
 20
20.0322339096
 11
-7.7268292378
 21
20.5984491671
  0
LINE
  5
370
100
AcDbEntity
  8
0
100
AcDbLine
 62
7
  6
CONTINUOUS
 10
1.1054781046
 20
-16.2447559633
 11
1.3445218954
 21
-16.889944946
  0
LINE
  5
371
100
AcDbEntity
  8
0
100
AcDbLine
 62
7
  6
CONTINUOUS
 10
1.1054781046
 20
-15.4776209101
 11
1.3445218954
 21
-16.1228098928
  0
LWPOLYLINE
  5
372
100
AcDbEntity
  8
0
100
AcDbPolyline
 62
7
  6
CONTINUOUS
 90
10
 70
0
 10
1.3445218954
 20
-16.889944946
 10
1.3456862429
 20
-16.8932979653
 10
1.3467086085
 20
-16.8966198275
 10
1.3475889922
 20
-16.8999105326
 10
1.348323308
 20
-16.9031479627
 10
1.3489156418
 20
-16.9063542357
 10
1.3493782521
 20
-16.9095957052
 10
1.349715225
 20
-16.9128944892
 10
1.3499224743
 20
-16.9162284698
 10
1.35
 20
-16.919597647
  0
LINE
  5
373
100
AcDbEntity
  8
ASSI
100
AcDbLine
 62
7
  6
CONTINUOUS
 10
1.8034906514
 20
-21.0492138033
 11
1.8436334085
 21
-21.2459341581
  0
LINE
  5
374
100
AcDbEntity
  8
ASSI
100
AcDbLine
 62
7
  6
CONTINUOUS
 10
1.8034906514
 20
-19.6174549586
 11
1.8
 21
-19.6
  0
LINE
  5
375
100
AcDbEntity
  8
ASSI
100
AcDbLine
 62
7
  6
CONTINUOUS
 10
1.8069813454
 20
-19.516526816
 11
1.8436334085
 21
-19.789258208
  0
LWPOLYLINE
  5
376
100
AcDbEntity
  8
ASSI
100
AcDbPolyline
 62
7
  6
CONTINUOUS
 90
16
 70
0
 10
-2.9234232256
 20
-8.2322648
 10
-2.9259945048
 20
-8.2112087693
 10
-2.9298509548
 20
-8.1913773039
 10
-2.9349925757
 20
-8.1727704037
 10
-2.9414402381
 20
-8.1552842135
 10
-2.9491730713
 20
-8.1390225885
 10
-2.9581284637
 20
-8.1242970948
 10
-2.9682909611
 20
-8.1112454274
 10
-2.9796760176
 20
-8.0997298912
 10
-2.9922673835
 20
-8.0896489664
 10
-3.0060402664
 20
-8.080944277
 10
-3.0210194586
 20
-8.073674199
 10
-3.0372630879
 20
-8.0679123399
 10
-3.05479053
 20
-8.0636832357
 10
-3.073582409
 20
-8.0609623504
 10
-3.0936387251
 20
-8.0597496841
  0
LWPOLYLINE
  5
377
100
AcDbEntity
  8
ASSI
100
AcDbPolyline
 62
7
  6
CONTINUOUS
 90
19
 70
0
 10
1.5046492405
 20
-9.0753104
 10
1.5074450869
 20
-9.1000872942
 10
1.5112442789
 20
-9.1237919369
 10
1.5160468163
 20
-9.1464243279
 10
1.5218260565
 20
-9.1680887748
 10
1.5286086422
 20
-9.1886809702
 10
1.5364745013
 20
-9.2078879917
 10
1.5454592573
 20
-9.2256593666
 10
1.5555272867
 20
-9.2420455677
 10
1.5666516472
 20
-9.2568850908
 10
1.5788703614
 20
-9.2701000496
 10
1.5921454068
 20
-9.2817683304
 10
1.6063357729
 20
-9.2919620877
 10
1.6213847156
 20
-9.300747243
 10
1.6373489791
 20
-9.3080578747
 10
1.6542577856
 20
-9.3137683721
 10
1.6721208759
 20
-9.3178368649
 10
1.6909285092
 20
-9.3203052234
 10
1.7106806856
 20
-9.3211734476
  0
LINE
  5
378
100
AcDbEntity
  8
0
100
AcDbLine
 62
250
  6
CONTINUOUS
 10
-0.6053172864
 20
18.8309284079
 11
-0.6
 21
18.7726483312
  0
LWPOLYLINE
  5
379
100
AcDbEntity
  8
ASSI
100
AcDbPolyline
 62
7
  6
CONTINUOUS
 90
22
 70
0
 10
1.9310229764
 20
-8.9838986053
 10
1.930227771
 20
-8.9567070288
 10
1.928418032
 20
-8.9305241887
 10
1.9255937594
 20
-8.9053500851
 10
1.9217280489
 20
-8.881150852
 10
1.9168478048
 20
-8.8579603554
 10
1.9110337405
 20
-8.8358801927
 10
1.9043216671
 20
-8.8148982807
 10
1.8966757735
 20
-8.7950267028
 10
1.8880693393
 20
-8.776403306
 10
1.878508586
 20
-8.7590345975
 10
1.8679872921
 20
-8.7429140701
 10
1.8564600725
 20
-8.7281600496
 10
1.843887426
 20
-8.714806916
 10
1.8303088538
 20
-8.7028202894
 10
1.8157974742
 20
-8.6922153556
 10
1.8003849457
 20
-8.6828451092
 10
1.7840396099
 20
-8.6748565555
 10
1.7667396097
 20
-8.668705897
 10
1.7484776596
 20
-8.6645452009
 10
1.7292610452
 20
-8.6622224
 10
1.7090897665
 20
-8.661737494
  0
LWPOLYLINE
  5
37A
100
AcDbEntity
  8
0
100
AcDbPolyline
 62
7
  6
CONTINUOUS
 90
10
 70
0
 10
1.35
 20
-16.1524625938
 10
1.3499224743
 20
-16.1490934166
 10
1.349715225
 20
-16.145759436
 10
1.3493782521
 20
-16.142460652
 10
1.3489156418
 20
-16.1392191825
 10
1.348323308
 20
-16.1360129095
 10
1.3475889922
 20
-16.1327754794
 10
1.3467086085
 20
-16.1294847743
 10
1.3456862429
 20
-16.1261629121
 10
1.3445218954
 20
-16.1228098928
  0
LINE
  5
37B
100
AcDbEntity
  8
ASSI
100
AcDbLine
 62
7
  6
CONTINUOUS
 10
0.7594212
 20
-9.588338
 11
0.7594212
 21
-9.2738012
  0
LINE
  5
37C
100
AcDbEntity
  8
0
100
AcDbLine
 62
7
  6
CONTINUOUS
 10
0.95
 20
16.4466533108
 11
0.9499967741
 21
14.2
  0
LINE
  5
37D
100
AcDbEntity
  8
0
100
AcDbLine
 62
7
  6
CONTINUOUS
 10
0.9499967532
 20
-14.0
 11
0.95
 21
-16.3700733606
  0
LINE
  5
37E
100
AcDbEntity
  8
0
100
AcDbLine
 62
250
  6
CONTINUOUS
 10
0.95
 20
19.25
 11
0.95
 21
17.3130715559
  0
LINE
  5
37F
100
AcDbEntity
  8
0
100
AcDbLine
 62
250
  6
CONTINUOUS
 10
0.95
 20
-17.220659889
 11
0.95
 21
-19.0068326776
  0
LINE
  5
380
100
AcDbEntity
  8
0
100
AcDbLine
 62
7
  6
CONTINUOUS
 10
1.1
 20
-14.0000000023
 11
1.1
 21
-16.5237626414
  0
LINE
  5
381
100
AcDbEntity
  8
0
100
AcDbLine
 62
7
  6
CONTINUOUS
 10
1.1
 20
14.2000000526
 11
1.1
 21
16.6221636525
  0
LINE
  5
382
100
AcDbEntity
  8
0
100
AcDbLine
 62
250
  6
CONTINUOUS
 10
1.3445218954
 20
17.1542574661
 11
1.3445218954
 21
16.3871224129
  0
LINE
  5
383
100
AcDbEntity
  8
0
100
AcDbLine
 62
250
  6
CONTINUOUS
 10
1.3445218954
 20
-16.889944946
 11
1.3445218954
 21
-16.1228098928
  0
LINE
  5
384
100
AcDbEntity
  8
0
100
AcDbLine
 62
7
  6
CONTINUOUS
 10
1.35
 20
17.1839101671
 11
1.35
 21
16.4167751139
  0
LINE
  5
385
100
AcDbEntity
  8
0
100
AcDbLine
 62
7
  6
CONTINUOUS
 10
1.35
 20
-17.855060706
 11
1.35
 21
-16.919597647
  0
LINE
  5
386
100
AcDbEntity
  8
0
100
AcDbLine
 62
7
  6
CONTINUOUS
 10
1.35
 20
-16.919597647
 11
1.35
 21
-16.1524625938
  0
LINE
  5
387
100
AcDbEntity
  8
0
100
AcDbLine
 62
7
  6
CONTINUOUS
 10
1.35
 20
17.1839101671
 11
1.35
 21
18.1193732261
  0
LINE
  5
388
100
AcDbEntity
  8
0
100
AcDbLine
 62
250
  6
CONTINUOUS
 10
1.6064070861
 20
18.5739101771
 11
1.6064070861
 21
17.8067751239
  0
LINE
  5
389
100
AcDbEntity
  8
0
100
AcDbLine
 62
250
  6
CONTINUOUS
 10
1.6064070861
 20
-18.309597657
 11
1.6064070861
 21
-17.5424626038
  0
LINE
  5
38A
100
AcDbEntity
  8
ASSI
100
AcDbLine
 62
7
  6
CONTINUOUS
 10
1.8
 20
19.6
 11
1.8
 21
18.8
  0
LINE
  5
38B
100
AcDbEntity
  8
ASSI
100
AcDbLine
 62
7
  6
CONTINUOUS
 10
1.8
 20
-18.8
 11
1.8
 21
-19.6
  0
LINE
  5
38C
100
AcDbEntity
  8
ASSI
100
AcDbLine
 62
7
  6
CONTINUOUS
 10
1.8
 20
-17.5
 11
1.8
 21
-14.6
  0
LINE
  5
38D
100
AcDbEntity
  8
ASSI
100
AcDbLine
 62
7
  6
CONTINUOUS
 10
1.8
 20
14.6
 11
1.8
 21
17.5
  0
LINE
  5
38E
100
AcDbEntity
  8
ASSI
100
AcDbLine
 62
7
  6
CONTINUOUS
 10
1.8034906514
 20
-21.0492138033
 11
1.8034906514
 21
-19.6174549586
  0
LINE
  5
38F
100
AcDbEntity
  8
ASSI
100
AcDbLine
 62
7
  6
CONTINUOUS
 10
1.8034906514
 20
17.5
 11
1.8034906514
 21
18.7965093486
  0
LINE
  5
390
100
AcDbEntity
  8
ASSI
100
AcDbLine
 62
7
  6
CONTINUOUS
 10
1.8034906514
 20
19.6174549586
 11
1.8034906514
 21
21.0492138033
  0
LINE
  5
391
100
AcDbEntity
  8
ASSI
100
AcDbLine
 62
7
  6
CONTINUOUS
 10
1.8069813454
 20
-14.6
 11
1.8069813454
 21
-19.516526816
  0
LINE
  5
392
100
AcDbEntity
  8
ASSI
100
AcDbLine
 62
7
  6
CONTINUOUS
 10
1.8069813454
 20
14.6
 11
1.8069813454
 21
19.516526816
  0
LINE
  5
393
100
AcDbEntity
  8
ASSI
100
AcDbLine
 62
7
  6
CONTINUOUS
 10
1.8436334085
 20
21.2459341581
 11
1.8436334085
 21
19.789258208
  0
LINE
  5
394
100
AcDbEntity
  8
ASSI
100
AcDbLine
 62
7
  6
CONTINUOUS
 10
1.8436334085
 20
-19.789258208
 11
1.8436334085
 21
-21.2459341581
  0
LINE
  5
395
100
AcDbEntity
  8
ASSI
100
AcDbLine
 62
7
  6
CONTINUOUS
 10
2.1724452
 20
-8.0858252
 11
2.1724452
 21
-7.7867324
  0
LWPOLYLINE
  5
396
100
AcDbEntity
  8
ASSI
100
AcDbPolyline
 62
7
  6
CONTINUOUS
 90
31
 70
0
 10
3.4082741486
 20
-8.6796565971
 10
3.4080604304
 20
-8.7141472946
 10
3.4076652834
 20
-8.74777132
 10
3.4070887077
 20
-8.7805286733
 10
3.4063387573
 20
-8.8123998257
 10
3.405407378
 20
-8.8434043059
 10
3.4042704081
 20
-8.8736007006
 10
3.4029698505
 20
-8.9029961784
 10
3.4014637021
 20
-8.9315835707
 10
3.3996017917
 20
-8.9593999576
 10
3.3973613208
 20
-8.9864670933
 10
3.3947650879
 20
-9.0127632236
 10
3.3917313166
 20
-9.0382601668
 10
3.3882358976
 20
-9.0629560466
 10
3.3843029403
 20
-9.0868527392
 10
3.379922996
 20
-9.1099276915
 10
3.3751865404
 20
-9.1321886445
 10
3.3700030979
 20
-9.1536278572
 10
3.3640917934
 20
-9.1741995536
 10
3.3575625378
 20
-9.193921861
 10
3.3503054201
 20
-9.2127766521
 10
3.3417098324
 20
-9.2306637692
 10
3.3316930018
 20
-9.2477824267
 10
3.320337701
 20
-9.2639334103
 10
3.3072816404
 20
-9.278418919
 10
3.2922788079
 20
-9.2912940076
 10
3.2755752155
 20
-9.3025036213
 10
3.2575466092
 20
-9.3111847951
 10
3.2383182377
 20
-9.3170498738
 10
3.2177648523
 20
-9.3203865125
 10
3.195886453
 20
-9.3211947112
  0
LWPOLYLINE
  5
397
100
AcDbEntity
  8
ASSI
100
AcDbPolyline
 62
7
  6
CONTINUOUS
 90
34
 70
0
 10
2.6844059728
 20
-8.6796565971
 10
2.6847861335
 20
-8.621452561
 10
2.6861865464
 20
-8.5649772066
 10
2.6886072114
 20
-8.510230534
 10
2.6920083592
 20
-8.4572057837
 10
2.6964297593
 20
-8.4059097153
 10
2.7019907193
 20
-8.3563626066
 10
2.7086935293
 20
-8.3085390903
 10
2.7165358993
 20
-8.2624645337
 10
2.7256302678
 20
-8.2182353176
 10
2.7360271896
 20
-8.1758669282
 10
2.7476761097
 20
-8.1353438792
 10
2.7605378019
 20
-8.0967160921
 10
2.774621518
 20
-8.0599369697
 10
2.7899180061
 20
-8.025053109
 10
2.8063602837
 20
-7.9922542229
 10
2.8240101045
 20
-7.9615455688
 10
2.8428057149
 20
-7.9329218893
 10
2.8624948712
 20
-7.9065571246
 10
2.8830961973
 20
-7.8824531649
 10
2.9045910693
 20
-7.8606081199
 10
2.9266713722
 20
-7.8411902599
 10
2.9493967062
 20
-7.8243486945
 10
2.972707471
 20
-7.8099343141
 10
2.996116751
 20
-7.7976680594
 10
3.0196275435
 20
-7.787715628
 10
3.0432368512
 20
-7.7799113225
 10
3.0664487663
 20
-7.7734789912
 10
3.0891163845
 20
-7.7683827348
 10
3.1113866101
 20
-7.7646584526
 10
3.1332042492
 20
-7.7616376912
 10
3.1545509037
 20
-7.7590976328
 10
3.1754449716
 20
-7.7572610952
 10
3.195886453
 20
-7.7561280783
  0
LWPOLYLINE
  5
398
100
AcDbEntity
  8
ASSI
100
AcDbPolyline
 62
7
  6
CONTINUOUS
 90
27
 70
0
 10
2.9838514147
 20
-8.6410894048
 10
2.9841154888
 20
-8.6035368364
 10
2.9846887097
 20
-8.566998892
 10
2.985544475
 20
-8.5314937204
 10
2.9867093869
 20
-8.4970031728
 10
2.9882632532
 20
-8.4634728029
 10
2.9902475403
 20
-8.4308955349
 10
2.9926207818
 20
-8.3992784447
 10
2.9953383849
 20
-8.3685883138
 10
2.9982741724
 20
-8.3387770453
 10
3.0015543216
 20
-8.3098927361
 10
3.0055127726
 20
-8.2820464595
 10
3.0101519352
 20
-8.2552459456
 10
3.0154693997
 20
-8.2294834643
 10
3.0217918771
 20
-8.2048468974
 10
3.0291072583
 20
-8.18127031
 10
3.0374276525
 20
-8.1588196371
 10
3.0471160983
 20
-8.1377805656
 10
3.0582091706
 20
-8.117969652
 10
3.0706702945
 20
-8.0995703398
 10
3.0847527843
 20
-8.0834186462
 10
3.1008342848
 20
-8.0696181837
 10
3.1185371511
 20
-8.0580653397
 10
3.136981763
 20
-8.0492852946
 10
3.155874914
 20
-8.0434531082
 10
3.1755098107
 20
-8.0403937207
 10
3.195886453
 20
-8.0401071319
  0
LWPOLYLINE
  5
399
100
AcDbEntity
  8
ASSI
100
AcDbPolyline
 62
7
  6
CONTINUOUS
 90
28
 70
0
 10
3.7077646631
 20
-8.6796565971
 10
3.7070471588
 20
-8.7433249113
 10
3.7050903712
 20
-8.8049720894
 10
3.7018943001
 20
-8.8645981314
 10
3.6974689125
 20
-8.9221531027
 10
3.6918042416
 20
-8.9776869378
 10
3.6848703865
 20
-9.0313494411
 10
3.6767371107
 20
-9.0832466101
 10
3.6673346509
 20
-9.1332724472
 10
3.6564238163
 20
-9.181258764
 10
3.6440214379
 20
-9.2273488943
 10
3.6301106847
 20
-9.2713995043
 10
3.6144018739
 20
-9.3128124048
 10
3.5967087851
 20
-9.3514658402
 10
3.5772176388
 20
-9.387481566
 10
3.5561974127
 20
-9.4206266594
 10
3.5336833557
 20
-9.4508110297
 10
3.509640219
 20
-9.4781247676
 10
3.484231234
 20
-9.5026052227
 10
3.4574952465
 20
-9.5241547303
 10
3.4293934106
 20
-9.5428709552
 10
3.3999724197
 20
-9.5590842409
 10
3.3692460293
 20
-9.5728783744
 10
3.337200484
 20
-9.5841695689
 10
3.3038412109
 20
-9.5930368069
 10
3.2691700193
 20
-9.599506416
 10
3.2331851
 20
-9.6035520686
 10
3.195886453
 20
-9.6051737648
  0
LWPOLYLINE
  5
39A
100
AcDbEntity
  8
0
100
AcDbPolyline
 62
7
  6
CONTINUOUS
 90
10
 70
0
 10
1.35
 20
17.1839101671
 10
1.3499224743
 20
17.1805409899
 10
1.349715225
 20
17.1772070093
 10
1.3493782521
 20
17.1739082253
 10
1.3489156418
 20
17.1706667558
 10
1.348323308
 20
17.1674604828
 10
1.3475889922
 20
17.1642230527
 10
1.3467086085
 20
17.1609323476
 10
1.3456862429
 20
17.1576104854
 10
1.3445218954
 20
17.1542574661
  0
LWPOLYLINE
  5
39B
100
AcDbEntity
  8
ASSI
100
AcDbPolyline
 62
7
  6
CONTINUOUS
 90
28
 70
0
 10
0.7572580684
 20
-8.3553742727
 10
0.7561540967
 20
-8.3947090691
 10
0.7532942138
 20
-8.4329081613
 10
0.7486784196
 20
-8.4699715491
 10
0.7423130012
 20
-8.5058099286
 10
0.7341916716
 20
-8.5405126038
 10
0.7242955698
 20
-8.5743474869
 10
0.7126592351
 20
-8.6072698652
 10
0.6992481282
 20
-8.6393244514
 10
0.68393977
 20
-8.6709132963
 10
0.6668297947
 20
-8.7020823594
 10
0.6478225681
 20
-8.7327856812
 10
0.6265087094
 20
-8.7632874339
 10
0.6027020301
 20
-8.7936917723
 10
0.5765887187
 20
-8.8238945415
 10
0.5483179595
 20
-8.8538474499
 10
0.5177085729
 20
-8.8833087454
 10
0.4849417386
 20
-8.9125201801
 10
0.4507101805
 20
-8.9421587178
 10
0.4149895277
 20
-8.9721112659
 10
0.3778041511
 20
-9.0024909171
 10
0.3399198872
 20
-9.0343139127
 10
0.3009827871
 20
-9.0673187557
 10
0.2613467996
 20
-9.1017669432
 10
0.2228396081
 20
-9.139459208
 10
0.1860704404
 20
-9.1809957946
 10
0.1504300687
 20
-9.2257764586
 10
0.1159184929
 20
-9.2738012
  0
LWPOLYLINE
  5
39C
100
AcDbEntity
  8
0
100
AcDbPolyline
 62
250
  6
CONTINUOUS
 90
37
 70
0
 10
0.7162132013
 20
-16.3464011933
 10
0.7139884845
 20
-16.4247006326
 10
0.7057760054
 20
-16.5014495957
 10
0.6915757639
 20
-16.5765717045
 10
0.6710343038
 20
-16.6506822789
 10
0.6445050813
 20
-16.7230397397
 10
0.6130484647
 20
-16.7915165389
 10
0.57646536
 20
-16.8558169876
 10
0.5349548612
 20
-16.9161060551
 10
0.4901746183
 20
-16.970928176
 10
0.4421390744
 20
-17.0198805482
 10
0.3908337866
 20
-17.0632824562
 10
0.337873076
 20
-17.1007655959
 10
0.2834319808
 20
-17.1321199873
 10
0.227335463
 20
-17.1575193123
 10
0.170672729
 20
-17.1771789025
 10
0.1136145126
 20
-17.1911144385
 10
0.0559900801
 20
-17.1992991151
 10
-0.001623563
 20
-17.2018889543
 10
-0.0592216239
 20
-17.1989910749
 10
-0.1168088953
 20
-17.1904984401
 10
-0.1738227506
 20
-17.1762483993
 10
-0.2304431272
 20
-17.156265444
 10
-0.2864900877
 20
-17.1305365048
 10
-0.3408611925
 20
-17.0988470826
 10
-0.3937505366
 20
-17.0609817509
 10
-0.4449640251
 20
-17.0171930446
 10
-0.4928169335
 20
-16.9679762019
 10
-0.5372722784
 20
-16.9130292813
 10
-0.5783670433
 20
-16.8527372639
 10
-0.6145274538
 20
-16.788628454
 10
-0.6455440196
 20
-16.7206493722
 10
-0.671626231
 20
-16.6489788997
 10
-0.6918287847
 20
-16.5754766591
 10
-0.7058365796
 20
-16.5007966553
 10
-0.7139647169
 20
-16.4244125137
 10
-0.7162131964
 20
-16.3464012295
  0
LWPOLYLINE
  5
39D
100
AcDbEntity
  8
ASSI
100
AcDbPolyline
 62
7
  6
CONTINUOUS
 90
25
 70
0
 10
2.2305134909
 20
-8.9584439002
 10
2.2283854306
 20
-9.0107401926
 10
2.2239782642
 20
-9.0613786586
 10
2.2172919915
 20
-9.1103592982
 10
2.2082505279
 20
-9.1578501933
 10
2.196929958
 20
-9.203683262
 10
2.1835585364
 20
-9.2473542584
 10
2.1681674981
 20
-9.2889053824
 10
2.1507256079
 20
-9.3282944341
 10
2.1313674154
 20
-9.3648905677
 10
2.109907853
 20
-9.3985006012
 10
2.0865319882
 20
-9.4293177167
 10
2.0619295723
 20
-9.4572906145
 10
2.0361526626
 20
-9.4822063404
 10
2.0091492019
 20
-9.5042778487
 10
1.9814527698
 20
-9.5240927025
 10
1.9533259065
 20
-9.54185344
 10
1.9245060719
 20
-9.5573575229
 10
1.8947392255
 20
-9.5705848996
 10
1.8640061235
 20
-9.5814157651
 10
1.8323260098
 20
-9.5899699244
 10
1.799502575
 20
-9.5965867412
 10
1.7654703828
 20
-9.6013793369
 10
1.7302948696
 20
-9.6042345903
 10
1.6939760354
 20
-9.6051525012
  0
LWPOLYLINE
  5
39E
100
AcDbEntity
  8
0
100
AcDbPolyline
 62
7
  6
CONTINUOUS
 90
10
 70
0
 10
1.1
 20
-16.5237626414
 10
1.0939469127
 20
-16.6472824246
 10
1.0773689735
 20
-16.7682745836
 10
1.0502661824
 20
-16.8864963688
 10
1.0118672732
 20
-17.0031059067
 10
0.9629435122
 20
-17.1165541749
 10
0.905808698
 20
-17.2225276169
 10
0.8412340969
 20
-17.3194760597
 10
0.7684484426
 20
-17.408660474
 10
0.6874517351
 20
-17.49
  0
LWPOLYLINE
  5
39F
100
AcDbEntity
  8
0
100
AcDbPolyline
 62
7
  6
CONTINUOUS
 90
10
 70
0
 10
1.1
 20
-16.745249715
 10
1.0953941591
 20
-16.8343158708
 10
1.0804728637
 20
-16.922807896
 10
1.0552361137
 20
-17.010593081
 10
1.0196742548
 20
-17.0985045285
 10
0.9737969415
 20
-17.1854781012
 10
0.9176331365
 20
-17.26851159
 10
0.8511924943
 20
-17.3465199169
 10
0.7744653605
 20
-17.4203727204
 10
0.6874517351
 20
-17.49
  0
LWPOLYLINE
  5
3A0
100
AcDbEntity
  8
0
100
AcDbPolyline
 62
7
  6
CONTINUOUS
 90
28
 70
0
 10
0.95
 20
-16.3700733606
 10
0.941561327
 20
-16.4994157711
 10
0.9204982302
 20
-16.6241399936
 10
0.8868107097
 20
-16.7438873412
 10
0.8392527449
 20
-16.8598945702
 10
0.7790703563
 20
-16.9703840184
 10
0.7100016055
 20
-17.0704762078
 10
0.6318689531
 20
-17.1590055105
 10
0.5448499384
 20
-17.2367677092
 10
0.4532152405
 20
-17.3018328106
 10
0.3572726216
 20
-17.353563399
 10
0.2567143194
 20
-17.392487273
 10
0.1548877265
 20
-17.4184585827
 10
0.052063665
 20
-17.4314272154
 10
-0.0520286874
 20
-17.4314311407
 10
-0.1548544049
 20
-17.4184679134
 10
-0.2566853639
 20
-17.392496102
 10
-0.357249688
 20
-17.353569282
 10
-0.4531968229
 20
-17.3018387964
 10
-0.5448325949
 20
-17.2367811319
 10
-0.6318511775
 20
-17.1590293763
 10
-0.7099845374
 20
-17.0705061143
 10
-0.7790566246
 20
-16.9704116844
 10
-0.8392434891
 20
-16.8599156834
 10
-0.8868052472
 20
-16.743901969
 10
-0.9204952711
 20
-16.6241496451
 10
-0.9415601887
 20
-16.4994205383
 10
-0.95
 20
-16.3700733606
  0
LINE
  5
3A1
100
AcDbEntity
  8
0
100
AcDbLine
 62
250
  6
CONTINUOUS
 10
-0.6053172864
 20
-18.5895344502
 11
-0.6
 21
-18.5312543735
  0
LINE
  5
3A2
100
AcDbEntity
  8
ASSI
100
AcDbLine
 62
7
  6
CONTINUOUS
 10
1.3610748
 20
-7.7867324
 11
1.2592572
 21
-8.7758864
  0
LINE
  5
3A3
100
AcDbEntity
  8
ASSI
100
AcDbLine
 62
7
  6
CONTINUOUS
 10
1.5194282825
 20
-8.4760198822
 11
1.5714804
 21
-8.0858252
  0
LINE
  5
3A4
100
AcDbEntity
  8
ASSI
100
AcDbLine
 62
7
  6
CONTINUOUS
 10
-1.8436334085
 20
-19.789258208
 11
-1.8069813454
 21
-19.516526816
  0
LINE
  5
3A5
100
AcDbEntity
  8
ASSI
100
AcDbLine
 62
7
  6
CONTINUOUS
 10
-1.8034906514
 20
-19.6174549586
 11
-1.8
 21
-19.6
  0
LINE
  5
3A6
100
AcDbEntity
  8
ASSI
100
AcDbLine
 62
7
  6
CONTINUOUS
 10
-1.8034906514
 20
-21.0492138033
 11
-1.8436334085
 21
-21.2459341581
  0
LWPOLYLINE
  5
3A7
100
AcDbEntity
  8
0
100
AcDbPolyline
 62
7
  6
CONTINUOUS
 90
10
 70
0
 10
-1.3445218954
 20
-16.1228098928
 10
-1.3456862429
 20
-16.1261629121
 10
-1.3467086085
 20
-16.1294847743
 10
-1.3475889922
 20
-16.1327754794
 10
-1.348323308
 20
-16.1360129095
 10
-1.3489156418
 20
-16.1392191825
 10
-1.3493782521
 20
-16.142460652
 10
-1.349715225
 20
-16.145759436
 10
-1.3499224743
 20
-16.1490934166
 10
-1.35
 20
-16.1524625938
  0
LINE
  5
3A8
100
AcDbEntity
  8
0
100
AcDbLine
 62
7
  6
CONTINUOUS
 10
-1.3445218954
 20
-16.1228098928
 11
-1.1054781046
 21
-15.4776209101
  0
LINE
  5
3A9
100
AcDbEntity
  8
0
100
AcDbLine
 62
7
  6
CONTINUOUS
 10
-1.3445218954
 20
-16.889944946
 11
-1.1054781046
 21
-16.2447559633
  0
LINE
  5
3AA
100
AcDbEntity
  8
ASSI
100
AcDbLine
 62
7
  6
CONTINUOUS
 10
9.75165174
 20
19.7789490892
 11
9.5102833932
 21
19.2244641241
  0
LINE
  5
3AB
100
AcDbEntity
  8
ASSI
100
AcDbLine
 62
250
  6
CONTINUOUS
 10
9.1802324565
 20
17.4078714615
 11
9.2925461965
 21
17.6588382385
  0
LWPOLYLINE
  5
3AC
100
AcDbEntity
  8
ASSI
100
AcDbPolyline
 62
7
  6
CONTINUOUS
 90
13
 70
0
 10
-3.3382514361
 20
-8.5701392108
 10
-3.3232733307
 20
-8.5456985056
 10
-3.3068700522
 20
-8.5232616895
 10
-3.2890416006
 20
-8.5028287625
 10
-3.2698689624
 20
-8.4843819323
 10
-3.2492711512
 20
-8.4679389913
 10
-3.2270052071
 20
-8.4535533162
 10
-3.20303618
 20
-8.4411690923
 10
-3.1773990202
 20
-8.4308421343
 10
-3.1499556188
 20
-8.4227932627
 10
-3.1206599397
 20
-8.4170960845
 10
-3.089558019
 20
-8.4136769927
 10
-3.0566498567
 20
-8.4125359874
  0
LWPOLYLINE
  5
3AD
100
AcDbEntity
  8
RACCORDO
100
AcDbPolyline
 62
7
  6
CONTINUOUS
 90
7
 70
0
 10
0.9950081657
 20
-1.680152817
 10
0.9959174225
 20
-1.6792216067
 10
0.9970064275
 20
-1.6781719521
 10
0.9982748338
 20
-1.6770033824
 10
0.9997222731
 20
-1.6757153744
 10
1.0013483549
 20
-1.6743073525
 10
1.0031526665
 20
-1.6727786892
  0
LINE
  5
3AE
100
AcDbEntity
  8
ASSI
100
AcDbLine
 62
7
  6
CONTINUOUS
 10
22.1
 20
9.5404147135
 11
22.3749521765
 21
9.6726465946
  0
LWPOLYLINE
  5
3AF
100
AcDbEntity
  8
0
100
AcDbPolyline
 62
7
  6
CONTINUOUS
 90
3
 70
0
 10
23.8952585473
 20
10.396238116
 10
23.9691240531
 20
10.4312813938
 10
24.373779822
 20
10.6220331871
  0
LWPOLYLINE
  5
3B0
100
AcDbEntity
  8
DRAFT
100
AcDbPolyline
 62
7
  6
CONTINUOUS
 90
6
 70
0
 10
7.3492951236
 20
-1.6530482567
 10
7.3488879187
 20
-1.6532348335
 10
7.3256484232
 20
-1.6641074141
 10
7.3024956076
 20
-1.6751647679
 10
7.2794309299
 20
-1.6864061986
 10
7.2690753383
 20
-1.6915557137
  0
LWPOLYLINE
  5
3B1
100
AcDbEntity
  8
COPY-PUBBLISH
100
AcDbPolyline
 62
250
  6
CONTINUOUS
 90
6
 70
0
 10
15.6015442625
 20
0.8876799858
 10
15.5919348669
 20
0.8833601527
 10
15.5704304852
 20
0.8746790305
 10
15.5516456215
 20
0.8682243617
 10
15.5356686077
 20
0.8640327135
 10
15.5224442111
 20
0.862095259
  0
LWPOLYLINE
  5
3B2
100
AcDbEntity
  8
DRAFT
100
AcDbPolyline
 62
7
  6
CONTINUOUS
 90
12
 70
0
 10
7.321417349
 20
-1.6644153218
 10
7.4675997581
 20
-1.604809956
 10
7.6343956824
 20
-1.546823947
 10
7.8040944302
 20
-1.498204311
 10
7.9761839382
 20
-1.4590916847
 10
8.1501656516
 20
-1.4295968143
 10
8.3255065599
 20
-1.4098100604
 10
8.5016694886
 20
-1.3997920417
 10
8.6781447862
 20
-1.3995742472
 10
8.8544016089
 20
-1.4091631713
 10
9.0298892637
 20
-1.4285347034
 10
9.2040689709
 20
-1.4576344065
  0
LINE
  5
3B3
100
AcDbEntity
  8
0
100
AcDbLine
 62
7
  6
CONTINUOUS
 10
-1.0034232596
 20
-2.5593124835
 11
-0.5606348981
 21
-2.4201710268
  0
LWPOLYLINE
  5
3B4
100
AcDbEntity
  8
0
100
AcDbPolyline
 62
7
  6
CONTINUOUS
 90
7
 70
0
 10
-2.1619554987
 20
1.69667958
 10
-2.0769799269
 20
1.7162193353
 10
-1.9899968874
 20
1.735651181
 10
-1.903764468
 20
1.7543983384
 10
-1.8182836773
 20
1.7724600593
 10
-1.7335618049
 20
1.7897818424
 10
-1.649603755
 20
1.806340908
  0
LINE
  5
3B5
100
AcDbEntity
  8
DRAFT
100
AcDbLine
 62
7
  6
CONTINUOUS
 10
-9.5003984963
 20
1.4576344065
 11
-13.4032567892
 21
0.9070282215
  0
LINE
  5
3B6
100
AcDbEntity
  8
RACCORDO
100
AcDbLine
 62
7
  6
CONTINUOUS
 10
-7.3275213378
 20
1.7641788744
 11
-7.4411170845
 21
1.7481530461
  0
LINE
  5
3B7
100
AcDbEntity
  8
COPY-PUBBLISH
100
AcDbLine
 62
250
  6
CONTINUOUS
 10
-15.5224442111
 20
0.862095259
 11
-15.5119960377
 21
0.8624317824
  0
LINE
  5
3B8
100
AcDbEntity
  8
ASSI
100
AcDbLine
 62
7
  6
CONTINUOUS
 10
-0.4704455941
 20
2.7092434065
 11
0.1
 21
2.7192005714
  0
LINE
  5
3B9
100
AcDbEntity
  8
RACCORDO
100
AcDbLine
 62
7
  6
CONTINUOUS
 10
-9.5
 20
2.761910009
 11
-9.0518799352
 21
2.7631461187
  0
LINE
  5
3BA
100
AcDbEntity
  8
DRAFT
100
AcDbLine
 62
7
  6
CONTINUOUS
 10
-9.5
 20
2.75
 11
-10.0210877184
 21
2.75
  0
LINE
  5
3BB
100
AcDbEntity
  8
DRAFT
100
AcDbLine
 62
7
  6
CONTINUOUS
 10
-12.4789122815
 20
2.75
 11
-13.0
 21
2.75
  0
LWPOLYLINE
  5
3BC
100
AcDbEntity
  8
RACCORDO
100
AcDbPolyline
 62
250
  6
CONTINUOUS
 90
9
 70
0
 10
-9.5
 20
2.76191001
 10
-9.3291584521
 20
2.7568400016
 10
-9.1593127572
 20
2.7412546038
 10
-8.9911048911
 20
2.7152800192
 10
-8.8251885041
 20
2.679088041
 10
-8.6621513275
 20
2.6328768668
 10
-8.5025177583
 20
2.5768546819
 10
-8.3468638559
 20
2.5112784827
 10
-8.1957579084
 20
2.4364439296
  0
LINE
  5
3BD
100
AcDbEntity
  8
COPY-PUBBLISH
100
AcDbLine
 62
250
  6
CONTINUOUS
 10
15.5224442111
 20
0.862095259
 11
15.5119960377
 21
0.8624317824
  0
LWPOLYLINE
  5
3BE
100
AcDbEntity
  8
0
100
AcDbPolyline
 62
7
  6
CONTINUOUS
 90
19
 70
0
 10
-1.649603755
 20
1.806340908
 10
-1.5918428826
 20
1.8036717307
 10
-1.5366648761
 20
1.8015198938
 10
-1.484058113
 20
1.7999768984
 10
-1.4340091982
 20
1.7991957755
 10
-1.3864835502
 20
1.7991905723
 10
-1.3414501298
 20
1.7998573665
 10
-1.2988987172
 20
1.8012969537
 10
-1.258804723
 20
1.8035933455
 10
-1.2211567165
 20
1.8066536327
 10
-1.1859596796
 20
1.810593589
 10
-1.1531983348
 20
1.8155045697
 10
-1.122888649
 20
1.8213061194
 10
-1.0950488848
 20
1.8281422806
 10
-1.0697011934
 20
1.8361184519
 10
-1.0469470993
 20
1.8451659778
 10
-1.0268813532
 20
1.8553879782
 10
-1.0095385727
 20
1.8670109497
 10
-0.9949734517
 20
1.8801897701
  0
LINE
  5
3BF
100
AcDbEntity
  8
DRAFT
100
AcDbLine
 62
7
  6
CONTINUOUS
 10
14.7910178891
 20
0.6583136798
 11
15.0992999006
 21
0.6101138811
  0
LWPOLYLINE
  5
3C0
100
AcDbEntity
  8
0
100
AcDbPolyline
 62
7
  6
CONTINUOUS
 90
5
 70
0
 10
1.9384088124
 20
1.7468665658
 10
1.903764468
 20
1.7543983384
 10
1.8182836773
 20
1.7724600593
 10
1.7335618049
 20
1.7897818424
 10
1.649603755
 20
1.806340908
  0
LWPOLYLINE
  5
3C1
100
AcDbEntity
  8
RACCORDO
100
AcDbPolyline
 62
7
  6
CONTINUOUS
 90
19
 70
0
 10
0.6394437558
 20
2.7244697215
 10
0.7903009363
 20
2.6623163601
 10
0.9515200164
 20
2.5842145122
 10
1.1074749515
 20
2.4966632678
 10
1.2576100051
 20
2.400000457
 10
1.4013997853
 20
2.2946258535
 10
1.5383436809
 20
2.1809269061
 10
1.6679521051
 20
2.0593253714
 10
1.7897770215
 20
1.9303085502
 10
1.9033893405
 20
1.794357782
 10
2.0083751523
 20
1.651982594
 10
2.10439158
 20
1.5037434171
 10
2.1911187304
 20
1.3501875486
 10
2.2682393417
 20
1.1918909257
 10
2.3355208184
 20
1.0294411664
 10
2.3927623937
 20
0.8633888122
 10
2.4397605152
 20
0.6943229263
 10
2.4763819038
 20
0.522956606
 10
2.4952767216
 20
0.4056991663
  0
LWPOLYLINE
  5
3C2
100
AcDbEntity
  8
COPY-PUBBLISH
100
AcDbPolyline
 62
250
  6
CONTINUOUS
 90
6
 70
0
 10
15.6015442625
 20
-0.8876799858
 10
15.5919348669
 20
-0.8833601527
 10
15.5704304852
 20
-0.8746790305
 10
15.5516456215
 20
-0.8682243617
 10
15.5356686077
 20
-0.8640327135
 10
15.5224442111
 20
-0.862095259
  0
LINE
  5
3C3
100
AcDbEntity
  8
0
100
AcDbLine
 62
7
  6
CONTINUOUS
 10
24.373779822
 20
-10.6220331871
 11
24.0756475004
 21
-10.481496455
  0
LINE
  5
3C4
100
AcDbEntity
  8
0
100
AcDbLine
 62
7
  6
CONTINUOUS
 10
24.0756475004
 20
-10.481496455
 11
23.932351469
 21
-10.4139296723
  0
LINE
  5
3C5
100
AcDbEntity
  8
0
100
AcDbLine
 62
7
  6
CONTINUOUS
 10
23.932351469
 20
-10.4139296723
 11
23.8952585473
 21
-10.396238116
  0
LINE
  5
3C6
100
AcDbEntity
  8
ASSI
100
AcDbLine
 62
7
  6
CONTINUOUS
 10
22.1
 20
-9.5404147135
 11
22.3749521765
 21
-9.6726465946
  0
LINE
  5
3C7
100
AcDbEntity
  8
RACCORDO
100
AcDbLine
 62
250
  6
CONTINUOUS
 10
8.1957579084
 20
-2.4364439296
 11
8.0496920786
 21
-2.3526449709
  0
LWPOLYLINE
  5
3C8
100
AcDbEntity
  8
RACCORDO
100
AcDbPolyline
 62
250
  6
CONTINUOUS
 90
6
 70
0
 10
8.0496920786
 20
-2.3526449709
 10
7.9091976018
 20
-2.2602355449
 10
7.7747634483
 20
-2.1595884968
 10
7.6467969835
 20
-2.0510486051
 10
7.5257441194
 20
-1.9350257785
 10
7.4120451536
 20
-1.8119758145
  0
LWPOLYLINE
  5
3C9
100
AcDbEntity
  8
COPY-PUBBLISH
100
AcDbPolyline
 62
7
  6
CONTINUOUS
 90
10
 70
0
 10
11.3135751099
 20
-1.908807716
 10
11.3355501318
 20
-1.9265992827
 10
11.3558711947
 20
-1.9439996031
 10
11.3744599539
 20
-1.9611449215
 10
11.3912905588
 20
-1.9782103523
 10
11.4062435571
 20
-1.9952838444
 10
11.4191102611
 20
-2.0123566236
 10
11.4297880538
 20
-2.0294872914
 10
11.4382780518
 20
-2.0468056648
 10
11.4445417014
 20
-2.0643811707
  0
LWPOLYLINE
  5
3CA
100
AcDbEntity
  8
0
100
AcDbPolyline
 62
7
  6
CONTINUOUS
 90
19
 70
0
 10
0.9949734517
 20
1.8801897701
 10
1.0098921855
 20
1.8667350897
 10
1.0277047361
 20
1.8549055114
 10
1.0483534615
 20
1.8445364743
 10
1.0718373158
 20
1.8353725185
 10
1.0980265877
 20
1.8273230471
 10
1.1266892386
 20
1.8204920522
 10
1.1577541269
 20
1.8147515537
 10
1.1911912593
 20
1.8099298084
 10
1.2268733877
 20
1.8061156188
 10
1.2647130277
 20
1.8032044108
 10
1.3047185653
 20
1.8010487579
 10
1.3469689821
 20
1.7997291689
 10
1.3914470408
 20
1.7991609637
 10
1.4381544148
 20
1.7992349174
 10
1.4872786805
 20
1.8000478953
 10
1.5389156766
 20
1.8015898946
 10
1.5930202686
 20
1.8037161039
 10
1.649603755
 20
1.806340908
  0
LINE
  5
3CB
100
AcDbEntity
  8
RACCORDO
100
AcDbLine
 62
250
  6
CONTINUOUS
 10
7.4120451536
 20
-1.8119758145
 11
7.3060739133
 21
-1.682332933
  0
LINE
  5
3CC
100
AcDbEntity
  8
RACCORDO
100
AcDbLine
 62
250
  6
CONTINUOUS
 10
7.3060739133
 20
-1.682332933
 11
7.3013193538
 21
-1.675738059
  0
LWPOLYLINE
  5
3CD
100
AcDbEntity
  8
RACCORDO
100
AcDbPolyline
 62
250
  6
CONTINUOUS
 90
8
 70
0
 10
2.3101310624
 20
1.5806930772
 10
2.3762818869
 20
1.4650111734
 10
2.4569440657
 20
1.3022789902
 10
2.5281464218
 20
1.1347018078
 10
2.5891699263
 20
0.964308854
 10
2.639774903
 20
0.7917765383
 10
2.6802010282
 20
0.6164284513
 10
2.7104483018
 20
0.438264593
  0
LINE
  5
3CE
100
AcDbEntity
  8
0
100
AcDbLine
 62
7
  6
CONTINUOUS
 10
-0.4896921016
 20
2.7056726905
 11
-0.3235294118
 21
2.3941176471
  0
LINE
  5
3CF
100
AcDbEntity
  8
ASSI
100
AcDbLine
 62
250
  6
CONTINUOUS
 10
9.1802339478
 20
-17.4078747938
 11
9.2925476878
 21
-17.6588415707
  0
LINE
  5
3D0
100
AcDbEntity
  8
ASSI
100
AcDbLine
 62
7
  6
CONTINUOUS
 10
9.75165174
 20
-19.7789490892
 11
9.508738235
 21
-19.2251392982
  0
LINE
  5
3D1
100
AcDbEntity
  8
0
100
AcDbLine
 62
7
  6
CONTINUOUS
 10
-1.1054781046
 20
15.7419334302
 11
-1.3445218954
 21
16.3871224129
  0
LINE
  5
3D2
100
AcDbEntity
  8
0
100
AcDbLine
 62
7
  6
CONTINUOUS
 10
-1.1054781046
 20
16.5090684834
 11
-1.3445218954
 21
17.1542574661
  0
LWPOLYLINE
  5
3D3
100
AcDbEntity
  8
0
100
AcDbPolyline
 62
7
  6
CONTINUOUS
 90
10
 70
0
 10
-1.3445218954
 20
17.1542574661
 10
-1.3456862429
 20
17.1576104854
 10
-1.3467086085
 20
17.1609323476
 10
-1.3475889922
 20
17.1642230527
 10
-1.348323308
 20
17.1674604828
 10
-1.3489156418
 20
17.1706667558
 10
-1.3493782521
 20
17.1739082253
 10
-1.349715225
 20
17.1772070093
 10
-1.3499224743
 20
17.1805409899
 10
-1.35
 20
17.1839101671
  0
LINE
  5
3D4
100
AcDbEntity
  8
ASSI
100
AcDbLine
 62
7
  6
CONTINUOUS
 10
3.958099153
 20
-8.8980750573
 11
4.0287200024
 21
-9.1125499926
  0
LINE
  5
3D5
100
AcDbEntity
  8
ASSI
100
AcDbLine
 62
7
  6
CONTINUOUS
 10
4.8612165136
 20
-8.8980743257
 11
4.7909709848
 21
-8.683596143
  0
LINE
  5
3D6
100
AcDbEntity
  8
ASSI
100
AcDbLine
 62
7
  6
CONTINUOUS
 10
-1.8034906514
 20
21.0492138033
 11
-1.8436334085
 21
21.2459341581
  0
LINE
  5
3D7
100
AcDbEntity
  8
ASSI
100
AcDbLine
 62
7
  6
CONTINUOUS
 10
-1.8034906514
 20
19.6174549586
 11
-1.8
 21
19.6
  0
LINE
  5
3D8
100
AcDbEntity
  8
ASSI
100
AcDbLine
 62
7
  6
CONTINUOUS
 10
-1.8069813454
 20
19.516526816
 11
-1.8436334085
 21
19.789258208
  0
LWPOLYLINE
  5
3D9
100
AcDbEntity
  8
RACCORDO
100
AcDbPolyline
 62
7
  6
CONTINUOUS
 90
22
 70
0
 10
2.4952800665
 20
0.4056996472
 10
2.5102523674
 20
0.2780247145
 10
2.5219716338
 20
0.0882271202
 10
2.5211799997
 20
-0.1022413042
 10
2.5077970031
 20
-0.2924666516
 10
2.4818672443
 20
-0.4816492721
 10
2.4434441092
 20
-0.6690221126
 10
2.3926366554
 20
-0.8537841307
 10
2.3296512694
 20
-1.0351065514
 10
2.254704237
 20
-1.2121687866
 10
2.1680821293
 20
-1.3841851207
 10
2.0701498492
 20
-1.5504006462
 10
1.9612888273
 20
-1.7100550604
 10
1.8419508187
 20
-1.862442329
 10
1.7126363043
 20
-2.0068955774
 10
1.5738604846
 20
-2.1427499571
 10
1.4262067451
 20
-2.2694073481
 10
1.2702908324
 20
-2.3863029575
 10
1.1067396446
 20
-2.4928864843
 10
0.9362415127
 20
-2.588683213
 10
0.7595061452
 20
-2.6732428935
 10
0.620236521
 20
-2.7289482251
  0
LWPOLYLINE
  5
3DA
100
AcDbEntity
  8
RACCORDO
100
AcDbPolyline
 62
250
  6
CONTINUOUS
 90
14
 70
0
 10
2.7104483018
 20
0.438264593
 10
2.7302911162
 20
0.258617656
 10
2.7395692045
 20
0.0789154214
 10
2.7382825666
 20
-0.100842111
 10
2.726386188
 20
-0.2813673808
 10
2.7039250832
 20
-0.4619479483
 10
2.6710342964
 20
-0.6404464947
 10
2.6276028684
 20
-0.8167248581
 10
2.5737417585
 20
-0.9909212004
 10
2.5099188881
 20
-1.1613126882
 10
2.4360427294
 20
-1.3278724205
 10
2.3522048103
 20
-1.4906272983
 10
2.2591476367
 20
-1.6479351909
 10
2.219121183
 20
-1.7072957559
  0
LINE
  5
3DB
100
AcDbEntity
  8
RACCORDO
100
AcDbLine
 62
250
  6
CONTINUOUS
 10
9.5
 20
-2.761910009
 11
9.5
 21
-2.75
  0
LWPOLYLINE
  5
3DC
100
AcDbEntity
  8
COPY-PUBBLISH
100
AcDbPolyline
 62
7
  6
CONTINUOUS
 90
9
 70
0
 10
11.4445417014
 20
-2.0643811707
 10
11.4430383551
 20
-2.0826748969
 10
11.4406709135
 20
-2.1004459278
 10
11.4374221737
 20
-2.1176919704
 10
11.4332540196
 20
-2.1344363717
 10
11.4281715144
 20
-2.1506486252
 10
11.4222226215
 20
-2.1662441018
 10
11.415413056
 20
-2.1811902203
 10
11.40770658
 20
-2.1955066643
  0
LWPOLYLINE
  5
3DD
100
AcDbEntity
  8
COPY-PUBBLISH
100
AcDbPolyline
 62
7
  6
CONTINUOUS
 90
6
 70
0
 10
7.694811582
 20
-1.5295144554
 10
7.6926039831
 20
-1.5475321056
 10
7.6843850737
 20
-1.6284008118
 10
7.6778008595
 20
-1.7097774745
 10
7.6728607044
 20
-1.791649895
 10
7.669575236
 20
-1.8739912991
  0
LWPOLYLINE
  5
3DE
100
AcDbEntity
  8
COPY-PUBBLISH
100
AcDbPolyline
 62
7
  6
CONTINUOUS
 90
5
 70
0
 10
7.4840430057
 20
-1.5990935196
 10
7.4824731705
 20
-1.6097503454
 10
7.4721879822
 20
-1.6910358497
 10
7.4635114323
 20
-1.7729424446
 10
7.4576577672
 20
-1.8414142357
  0
LWPOLYLINE
  5
3DF
100
AcDbEntity
  8
ASSI
100
AcDbPolyline
 62
7
  6
CONTINUOUS
 90
16
 70
0
 10
3.958099153
 20
-8.8980750573
 10
3.9696910984
 20
-8.8718397532
 10
3.9821532493
 20
-8.8472360432
 10
3.9954856058
 20
-8.8242639274
 10
4.0097687119
 20
-8.8028254638
 10
4.0249220235
 20
-8.7830185943
 10
4.0407039089
 20
-8.7651371446
 10
4.0571261899
 20
-8.7492283378
 10
4.0741770446
 20
-8.7352449508
 10
4.0915793758
 20
-8.7233391403
 10
4.1092538575
 20
-8.7136689842
 10
4.1272798156
 20
-8.7060764045
 10
4.1456181311
 20
-8.7002393242
 10
4.1642557645
 20
-8.6960503842
 10
4.1832057552
 20
-8.6936169436
 10
4.2024681034
 20
-8.6929390024
  0
LINE
  5
3E0
100
AcDbEntity
  8
COPY-PUBBLISH
100
AcDbLine
 62
7
  6
CONTINUOUS
 10
7.6043775287
 20
-1.9911131058
 11
7.669575236
 21
-1.8739912991
  0
LINE
  5
3E1
100
AcDbEntity
  8
0
100
AcDbLine
 62
7
  6
CONTINUOUS
 10
-1.6064070861
 20
-17.5424626038
 11
-1.3525628344
 21
-17.0969793134
  0
LINE
  5
3E2
100
AcDbEntity
  8
0
100
AcDbLine
 62
7
  6
CONTINUOUS
 10
-1.6064070861
 20
-18.309597657
 11
-1.3525628344
 21
-17.8641143666
  0
LWPOLYLINE
  5
3E3
100
AcDbEntity
  8
ASSI
100
AcDbPolyline
 62
7
  6
CONTINUOUS
 90
16
 70
0
 10
4.8612165136
 20
-8.8980743257
 10
4.847186518
 20
-8.9223306193
 10
4.8329067048
 20
-8.9454540705
 10
4.8183770742
 20
-8.9674446793
 10
4.8036943195
 20
-8.9884938563
 10
4.7887617472
 20
-9.0084101908
 10
4.7732892776
 20
-9.0266194511
 10
4.757124478
 20
-9.0430697864
 10
4.7404197811
 20
-9.0578130475
 10
4.7233424053
 20
-9.0704305547
 10
4.7058198706
 20
-9.0807020844
 10
4.687924657
 20
-9.0888478603
 10
4.6700414228
 20
-9.0951098736
 10
4.6522983875
 20
-9.0995687881
 10
4.6345673317
 20
-9.1021439401
 10
4.6168482554
 20
-9.1028353294
  0
LINE
  5
3E4
100
AcDbEntity
  8
ASSI
100
AcDbLine
 62
250
  6
CONTINUOUS
 10
10.9848484849
 20
2.3738628808
 11
11.25
 21
2.7977669667
  0
LINE
  5
3E5
100
AcDbEntity
  8
ASSI
100
AcDbLine
 62
250
  6
CONTINUOUS
 10
11.5151515151
 20
-2.3738628808
 11
11.25
 21
-2.7977669667
  0
LWPOLYLINE
  5
3E6
100
AcDbEntity
  8
COPY-PUBBLISH
100
AcDbPolyline
 62
7
  6
CONTINUOUS
 90
10
 70
0
 10
10.4856032564
 20
-1.8637840725
 10
10.4956543098
 20
-1.8479614381
 10
10.5078223301
 20
-1.8328788876
 10
10.5220844641
 20
-1.8184580606
 10
10.5384706312
 20
-1.804570127
 10
10.5568921744
 20
-1.7911327948
 10
10.5771407916
 20
-1.7781069301
 10
10.5991182681
 20
-1.7653789494
 10
10.6228382246
 20
-1.7527702947
 10
10.648253639
 20
-1.7401289608
  0
LINE
  5
3E7
100
AcDbEntity
  8
COPY-PUBBLISH
100
AcDbLine
 62
7
  6
CONTINUOUS
 10
11.3341030791
 20
-2.3052224296
 11
11.6566759063
 21
-1.8285210306
  0
LINE
  5
3E8
100
AcDbEntity
  8
COPY-PUBBLISH
100
AcDbLine
 62
7
  6
CONTINUOUS
 10
11.7072066164
 20
-1.6872024142
 11
11.4445417014
 21
-2.0643811707
  0
LWPOLYLINE
  5
3E9
100
AcDbEntity
  8
0
100
AcDbPolyline
 62
7
  6
CONTINUOUS
 90
9
 70
0
 10
-1.6064070861
 20
-17.5424626038
 10
-1.6183815648
 20
-17.5578454513
 10
-1.6357122356
 20
-17.5724747801
 10
-1.6583990986
 20
-17.5863505902
 10
-1.6868505662
 20
-17.5996380246
 10
-1.7206582259
 20
-17.6121719403
 10
-1.7585968406
 20
-17.6234569084
 10
-1.8007804417
 20
-17.6334321912
 10
-1.8034906514
 20
-17.633942834
  0
LWPOLYLINE
  5
3EA
100
AcDbEntity
  8
0
100
AcDbPolyline
 62
7
  6
CONTINUOUS
 90
9
 70
0
 10
-1.6064070861
 20
-18.309597657
 10
-1.6183815648
 20
-18.3249805045
 10
-1.6357122356
 20
-18.3396098333
 10
-1.6583990986
 20
-18.3534856434
 10
-1.6868505662
 20
-18.3667730778
 10
-1.7206582259
 20
-18.3793069935
 10
-1.7585968406
 20
-18.3905919616
 10
-1.8007804417
 20
-18.4005672444
 10
-1.8034906514
 20
-18.4010778872
  0
LINE
  5
3EB
100
AcDbEntity
  8
COPY-PUBBLISH
100
AcDbLine
 62
7
  6
CONTINUOUS
 10
11.6860297768
 20
-1.4384062693
 11
11.3135751099
 21
-1.908807716
  0
LINE
  5
3EC
100
AcDbEntity
  8
COPY-PUBBLISH
100
AcDbLine
 62
7
  6
CONTINUOUS
 10
11.4355384926
 20
-1.2121212121
 11
11.0052781447
 21
-1.6303030303
  0
LWPOLYLINE
  5
3ED
100
AcDbEntity
  8
ASSI
100
AcDbPolyline
 62
7
  6
CONTINUOUS
 90
13
 70
0
 10
1.5194282825
 20
-8.4760198822
 10
1.5395152925
 20
-8.4591510386
 10
1.5598082588
 20
-8.4439289352
 10
1.5803071813
 20
-8.430353572
 10
1.6009237077
 20
-8.4184444338
 10
1.6217461904
 20
-8.4081820358
 10
1.6430396864
 20
-8.3995079236
 10
1.6648094677
 20
-8.3925263022
 10
1.6870502622
 20
-8.3871329666
 10
1.7100113119
 20
-8.3829568467
 10
1.7337756971
 20
-8.3798742524
 10
1.7582603375
 20
-8.3780088737
 10
1.7834652329
 20
-8.3773607107
  0
LINE
  5
3EE
100
AcDbEntity
  8
COPY-PUBBLISH
100
AcDbLine
 62
7
  6
CONTINUOUS
 10
15.462679555
 20
1.2125314365
 11
15.4661836984
 21
1.2154682425
  0
LWPOLYLINE
  5
3EF
100
AcDbEntity
  8
COPY-PUBBLISH
100
AcDbPolyline
 62
7
  6
CONTINUOUS
 90
10
 70
0
 10
15.5119960377
 20
-0.8624317824
 10
15.4853817097
 20
-0.8829079684
 10
15.4592813108
 20
-0.9040743623
 10
15.4337119654
 20
-0.9259173476
 10
15.4086787997
 20
-0.9484343807
 10
15.3842117272
 20
-0.9716011859
 10
15.3603625609
 20
-0.9953687048
 10
15.3371571737
 20
-1.0197083942
 10
15.314598386
 20
-1.0446152751
 10
15.2927007299
 20
-1.0700729927
  0
LINE
  5
3F0
100
AcDbEntity
  8
COPY-PUBBLISH
100
AcDbLine
 62
7
  6
CONTINUOUS
 10
15.5888615364
 20
-0.8090334541
 11
15.5119960377
 21
-0.8624317824
  0
LINE
  5
3F1
100
AcDbEntity
  8
COPY-PUBBLISH
100
AcDbLine
 62
7
  6
CONTINUOUS
 10
15.6349787366
 20
-0.781647869
 11
15.5888615364
 21
-0.8090334541
  0
LWPOLYLINE
  5
3F2
100
AcDbEntity
  8
DRAFT
100
AcDbPolyline
 62
7
  6
CONTINUOUS
 90
17
 70
0
 10
13.8191328365
 20
-0.7052310666
 10
13.9587182459
 20
-0.6394831269
 10
14.1160769465
 20
-0.5532712237
 10
14.2674816582
 20
-0.4569128426
 10
14.4122840426
 20
-0.3508206049
 10
14.5498640337
 20
-0.2354488139
 10
14.6796324929
 20
-0.1112915093
 10
14.8010337318
 20
0.0211196483
 10
14.9135478916
 20
0.1612176539
 10
15.0166931693
 20
0.3084025863
 10
15.1100278811
 20
0.4620441772
 10
15.1931523535
 20
0.6214845097
 10
15.2657106345
 20
0.7860408356
 10
15.3273920187
 20
0.9550084997
 10
15.3779323767
 20
1.1276639564
 10
15.417115287
 20
1.3032678685
 10
15.4305441406
 20
1.3895967287
  0
LWPOLYLINE
  5
3F3
100
AcDbEntity
  8
0
100
AcDbPolyline
 62
7
  6
CONTINUOUS
 90
16
 70
0
 10
13.9127176172
 20
-0.6643354206
 10
14.0500390682
 20
-0.5996538573
 10
14.2048455424
 20
-0.514840239
 10
14.3537945964
 20
-0.4200447102
 10
14.4962484074
 20
-0.3156731998
 10
14.6315969663
 20
-0.2021726426
 10
14.7592606898
 20
-0.0800290655
 10
14.8786929022
 20
0.0502344939
 10
14.9893821765
 20
0.1880602272
 10
15.0908545242
 20
0.3328579433
 10
15.1826754252
 20
0.4840075963
 10
15.2644516881
 20
0.64086194
 10
15.3358331346
 20
0.8027493001
 10
15.3965140984
 20
0.9689764502
 10
15.4462347341
 20
1.1388315799
 10
15.4810280919
 20
1.2947630736
  0
LINE
  5
3F4
100
AcDbEntity
  8
DRAFT
100
AcDbLine
 62
7
  6
CONTINUOUS
 10
13.9127176172
 20
-0.6643354206
 11
13.8191328365
 21
-0.7052310666
  0
LINE
  5
3F5
100
AcDbEntity
  8
COPY-PUBBLISH
100
AcDbLine
 62
7
  6
CONTINUOUS
 10
15.6349787366
 20
0.781647869
 11
15.5888615364
 21
0.8090334541
  0
LINE
  5
3F6
100
AcDbEntity
  8
COPY-PUBBLISH
100
AcDbLine
 62
7
  6
CONTINUOUS
 10
15.5888615364
 20
0.8090334541
 11
15.5119960377
 21
0.8624317824
  0
LWPOLYLINE
  5
3F7
100
AcDbEntity
  8
COPY-PUBBLISH
100
AcDbPolyline
 62
7
  6
CONTINUOUS
 90
6
 70
0
 10
15.5119960377
 20
0.8624317824
 10
15.4853817097
 20
0.8829079684
 10
15.4592813108
 20
0.9040743623
 10
15.4337119654
 20
0.9259173476
 10
15.4086787997
 20
0.9484343807
 10
15.3940661038
 20
0.9622705059
  0
LINE
  5
3F8
100
AcDbEntity
  8
COPY-PUBBLISH
100
AcDbLine
 62
7
  6
CONTINUOUS
 10
15.4661836984
 20
-1.2154682425
 11
15.2927057248
 21
-1.0700771789
  0
LWPOLYLINE
  5
3F9
100
AcDbEntity
  8
COPY-PUBBLISH
100
AcDbPolyline
 62
7
  6
CONTINUOUS
 90
10
 70
0
 10
11.6860297768
 20
-1.4384062693
 10
11.7050356788
 20
-1.4562011089
 10
11.7197312069
 20
-1.4762161143
 10
11.7301171163
 20
-1.498629718
 10
11.7360746889
 20
-1.5235604785
 10
11.737722426
 20
-1.5511473891
 10
11.73550827
 20
-1.5814290171
 10
11.7296853615
 20
-1.6142954363
 10
11.7202185935
 20
-1.6496084569
 10
11.7072066164
 20
-1.6872024142
  0
LWPOLYLINE
  5
3FA
100
AcDbEntity
  8
0
100
AcDbPolyline
 62
7
  6
CONTINUOUS
 90
10
 70
0
 10
-0.9499963908
 20
14.2000001443
 10
-0.9416199151
 20
14.1886539935
 10
-0.9165589435
 20
14.1595393901
 10
-0.8875182236
 20
14.1325486362
 10
-0.8548297416
 20
14.1084944326
 10
-0.8184665081
 20
14.0878290493
 10
-0.7788528458
 20
14.071276775
 10
-0.7364701112
 20
14.0594707854
 10
-0.6918340322
 20
14.0529790645
 10
-0.6638431494
 20
14.0518584937
  0
LWPOLYLINE
  5
3FB
100
AcDbEntity
  8
ASSI
100
AcDbPolyline
 62
250
  6
CONTINUOUS
 90
5
 70
0
 10
10.9848484855
 20
-2.3738628804
 10
10.9859606757
 20
-2.3754251847
 10
10.9889418231
 20
-2.3802408673
 10
10.9938158888
 20
-2.3881992846
 10
11.0096388652
 20
-2.4133371535
  0
LWPOLYLINE
  5
3FC
100
AcDbEntity
  8
ASSI
100
AcDbPolyline
 62
250
  6
CONTINUOUS
 90
5
 70
0
 10
11.5151515145
 20
2.3738628804
 10
11.5140393243
 20
2.3754251847
 10
11.5110581769
 20
2.3802408673
 10
11.5061841112
 20
2.3881992846
 10
11.4903611348
 20
2.4133371535
  0
LWPOLYLINE
  5
3FD
100
AcDbEntity
  8
0
100
AcDbPolyline
 62
250
  6
CONTINUOUS
 90
7
 70
0
 10
-0.66379385
 20
14.0519205809
 10
-0.6647020681
 20
14.0533600677
 10
-0.6666979197
 20
14.0658488898
 10
-0.6688171946
 20
14.0913454579
 10
-0.6710115155
 20
14.129844638
 10
-0.6732139504
 20
14.1802493637
 10
-0.6754263627
 20
14.2415553419
  0
LWPOLYLINE
  5
3FE
100
AcDbEntity
  8
ASSI
100
AcDbPolyline
 62
250
  6
CONTINUOUS
 90
3
 70
0
 10
11.0326143237
 20
-2.4502712998
 10
11.0467985599
 20
-2.472751534
 10
11.0793762927
 20
-2.5250920571
  0
LWPOLYLINE
  5
3FF
100
AcDbEntity
  8
ASSI
100
AcDbPolyline
 62
250
  6
CONTINUOUS
 90
3
 70
0
 10
11.4673856763
 20
2.4502712998
 10
11.4532014401
 20
2.472751534
 10
11.4206237073
 20
2.5250920571
  0
LWPOLYLINE
  5
400
100
AcDbEntity
  8
ASSI
100
AcDbPolyline
 62
250
  6
CONTINUOUS
 90
3
 70
0
 10
11.0793762927
 20
-2.5250920571
 10
11.0978305817
 20
-2.5543619653
 10
11.1377850082
 20
-2.6184901499
  0
LWPOLYLINE
  5
401
100
AcDbEntity
  8
ASSI
100
AcDbPolyline
 62
250
  6
CONTINUOUS
 90
3
 70
0
 10
11.4206237073
 20
2.5250920571
 10
11.4021694183
 20
2.5543619653
 10
11.3622149918
 20
2.6184901499
  0
LWPOLYLINE
  5
402
100
AcDbEntity
  8
ASSI
100
AcDbPolyline
 62
250
  6
CONTINUOUS
 90
6
 70
0
 10
11.1377850082
 20
-2.6184901499
 10
11.1592698297
 20
-2.6525953627
 10
11.1813148694
 20
-2.6879584012
 10
11.2037417015
 20
-2.7243011245
 10
11.2266516191
 20
-2.7610503836
 10
11.25
 20
-2.7977669667
  0
LWPOLYLINE
  5
403
100
AcDbEntity
  8
ASSI
100
AcDbPolyline
 62
250
  6
CONTINUOUS
 90
6
 70
0
 10
11.3622149918
 20
2.6184901499
 10
11.3407301703
 20
2.6525953627
 10
11.3186851306
 20
2.6879584012
 10
11.2962582985
 20
2.7243011245
 10
11.2733483809
 20
2.7610503836
 10
11.25
 20
2.7977669667
  0
LINE
  5
404
100
AcDbEntity
  8
ASSI
100
AcDbLine
 62
250
  6
CONTINUOUS
 10
11.0096388652
 20
-2.4133371535
 11
11.0326143237
 21
-2.4502712998
  0
LINE
  5
405
100
AcDbEntity
  8
ASSI
100
AcDbLine
 62
250
  6
CONTINUOUS
 10
11.4903611348
 20
2.4133371535
 11
11.4673856763
 21
2.4502712998
  0
LINE
  5
406
100
AcDbEntity
  8
COPY-PUBBLISH
100
AcDbLine
 62
7
  6
CONTINUOUS
 10
10.6665858404
 20
-1.2513059227
 11
10.8824334987
 21
-1.6140625
  0
LINE
  5
407
100
AcDbEntity
  8
0
100
AcDbLine
 62
7
  6
CONTINUOUS
 10
-1.3525628344
 20
17.3612918335
 11
-1.6064070861
 21
17.8067751239
  0
LINE
  5
408
100
AcDbEntity
  8
0
100
AcDbLine
 62
7
  6
CONTINUOUS
 10
-1.3525628344
 20
18.1284268867
 11
-1.6064070861
 21
18.5739101771
  0
LWPOLYLINE
  5
409
100
AcDbEntity
  8
0
100
AcDbPolyline
 62
7
  6
CONTINUOUS
 90
7
 70
0
 10
-1.3525628344
 20
18.1284268867
 10
-1.3517904141
 20
18.1269614545
 10
-1.3511561063
 20
18.1254786178
 10
-1.350659911
 20
18.1239783766
 10
-1.3503018282
 20
18.1224607309
 10
-1.3500818578
 20
18.1209256808
 10
-1.35
 20
18.1193732261
  0
LINE
  5
40A
100
AcDbEntity
  8
COPY-PUBBLISH
100
AcDbLine
 62
7
  6
CONTINUOUS
 10
10.4278701989
 20
-1.2849833711
 11
10.648253639
 21
-1.7401289608
  0
LINE
  5
40B
100
AcDbEntity
  8
COPY-PUBBLISH
100
AcDbLine
 62
7
  6
CONTINUOUS
 10
10.3120316255
 20
-1.4381908854
 11
10.4856032564
 21
-1.8637840725
  0
LINE
  5
40C
100
AcDbEntity
  8
COPY-PUBBLISH
100
AcDbLine
 62
7
  6
CONTINUOUS
 10
10.6854729867
 20
-2.4939379943
 11
10.3302777542
 21
-1.5871671724
  0
LWPOLYLINE
  5
40D
100
AcDbEntity
  8
COPY-PUBBLISH
100
AcDbPolyline
 62
7
  6
CONTINUOUS
 90
10
 70
0
 10
10.3302777542
 20
-1.5871671724
 10
10.3247977556
 20
-1.5719273862
 10
10.3202098199
 20
-1.5563095689
 10
10.3164976203
 20
-1.5403185364
 10
10.3136311268
 20
-1.5239026599
 10
10.3116062392
 20
-1.5071206614
 10
10.3104460966
 20
-1.4901412616
 10
10.3101479762
 20
-1.4730209449
 10
10.31068199
 20
-1.455704368
 10
10.3120316255
 20
-1.4381908854
  0
LWPOLYLINE
  5
40E
100
AcDbEntity
  8
RACCORDO
100
AcDbPolyline
 62
250
  6
CONTINUOUS
 90
7
 70
0
 10
6.7882702277
 20
0.6951890766
 10
6.7884775605
 20
0.6938553747
 10
6.8237130088
 20
0.3741415535
 10
6.8446516117
 20
0.0552728954
 10
6.8511158715
 20
-0.2626835814
 10
6.8432832859
 20
-0.5797948952
 10
6.8262292522
 20
-0.8267341725
  0
LWPOLYLINE
  5
40F
100
AcDbEntity
  8
COPY-PUBBLISH
100
AcDbPolyline
 62
7
  6
CONTINUOUS
 90
5
 70
0
 10
10.3120316255
 20
-1.4381908854
 10
10.3075730793
 20
-1.3986790826
 10
10.3060601994
 20
-1.3621646431
 10
10.3075524847
 20
-1.3288316099
 10
10.3116048178
 20
-1.3013858211
  0
LINE
  5
410
100
AcDbEntity
  8
DRAFT
100
AcDbLine
 62
250
  6
CONTINUOUS
 10
13.0
 20
-2.7505817807
 11
13.0
 21
-2.75
  0
LINE
  5
411
100
AcDbEntity
  8
DRAFT
100
AcDbLine
 62
250
  6
CONTINUOUS
 10
12.9980002443
 20
-2.798672482
 11
12.9987979658
 21
-2.7552359213
  0
LWPOLYLINE
  5
412
100
AcDbEntity
  8
COPY-PUBBLISH
100
AcDbPolyline
 62
7
  6
CONTINUOUS
 90
10
 70
0
 10
11.7072066164
 20
-1.6872024142
 10
11.7046841773
 20
-1.7045642781
 10
11.7014107834
 20
-1.721550569
 10
11.6973707853
 20
-1.7381584
 10
11.6925302784
 20
-1.7544237765
 10
11.6868927561
 20
-1.7703027062
 10
11.680498188
 20
-1.7856706721
 10
11.6733494966
 20
-1.8004814412
 10
11.6654134972
 20
-1.814767544
 10
11.6566759063
 20
-1.8285210306
  0
LINE
  5
413
100
AcDbEntity
  8
DRAFT
100
AcDbLine
 62
250
  6
CONTINUOUS
 10
12.9987979658
 20
-2.7552359213
 11
13.0
 21
-2.7505817807
  0
LINE
  5
414
100
AcDbEntity
  8
ASSI
100
AcDbLine
 62
7
  6
CONTINUOUS
 10
1.8
 20
-18.8
 11
1.8034906514
 21
-18.7965093486
  0
LWPOLYLINE
  5
415
100
AcDbEntity
  8
COPY-PUBBLISH
100
AcDbPolyline
 62
250
  6
CONTINUOUS
 90
4
 70
0
 10
15.5118111305
 20
-1.1147922364
 10
15.494422193
 20
-1.1318814565
 10
15.4652324234
 20
-1.1609485346
 10
15.4361479327
 20
-1.1902954103
  0
LWPOLYLINE
  5
416
100
AcDbEntity
  8
0
100
AcDbPolyline
 62
250
  6
CONTINUOUS
 90
10
 70
0
 10
0.95
 20
16.4466533107
 10
0.9280738052
 20
16.4414356163
 10
0.9047440064
 20
16.4368092602
 10
0.8801650171
 20
16.4328048628
 10
0.8544995182
 20
16.4294489287
 10
0.827917383
 20
16.4267636699
 10
0.8005945537
 20
16.4247668581
 10
0.7727118734
 20
16.4234717095
 10
0.7444538889
 20
16.4228867977
 10
0.7160076319
 20
16.4230159949
  0
LWPOLYLINE
  5
417
100
AcDbEntity
  8
0
100
AcDbPolyline
 62
7
  6
CONTINUOUS
 90
10
 70
0
 10
0.6638359102
 20
14.0518613338
 10
0.6920192637
 20
14.0529971793
 10
0.736690582
 20
14.0595213556
 10
0.7791002684
 20
14.0713671162
 10
0.8187327885
 20
14.0879647617
 10
0.855105286
 20
14.1086785873
 10
0.8877909622
 20
14.132779856
 10
0.9168219727
 20
14.1598179665
 10
0.941863358
 20
14.1889744068
 10
0.9499940277
 20
14.2000001246
  0
LINE
  5
418
100
AcDbEntity
  8
0
100
AcDbLine
 62
7
  6
CONTINUOUS
 10
-0.6638303235
 20
14.0519205028
 11
0.6638280202
 21
14.0519205028
  0
LINE
  5
419
100
AcDbEntity
  8
0
100
AcDbLine
 62
7
  6
CONTINUOUS
 10
-1.1
 20
14.2
 11
-0.9499963642
 21
14.2
  0
LINE
  5
41A
100
AcDbEntity
  8
0
100
AcDbLine
 62
7
  6
CONTINUOUS
 10
0.9499940179
 20
14.2
 11
1.1
 21
14.2
  0
LINE
  5
41B
100
AcDbEntity
  8
ASSI
100
AcDbLine
 62
7
  6
CONTINUOUS
 10
1.8069813454
 20
14.6
 11
1.1
 21
14.6
  0
LINE
  5
41C
100
AcDbEntity
  8
ASSI
100
AcDbLine
 62
7
  6
CONTINUOUS
 10
-1.1
 20
14.6
 11
-1.8069813454
 21
14.6
  0
LINE
  5
41D
100
AcDbEntity
  8
0
100
AcDbLine
 62
250
  6
CONTINUOUS
 10
-1.8
 20
15.8
 11
-1.1269918833
 21
15.8
  0
LINE
  5
41E
100
AcDbEntity
  8
0
100
AcDbLine
 62
250
  6
CONTINUOUS
 10
1.1269918833
 20
15.8
 11
1.8
 21
15.8
  0
LWPOLYLINE
  5
41F
100
AcDbEntity
  8
0
100
AcDbPolyline
 62
250
  6
CONTINUOUS
 90
10
 70
0
 10
-0.95
 20
16.4466533108
 10
-0.9280737909
 20
16.4414353655
 10
-0.9047439806
 20
16.4368088322
 10
-0.8801649831
 20
16.4328043253
 10
-0.854499482
 20
16.4294483331
 10
-0.8279173488
 20
16.4267630689
 10
-0.8005945186
 20
16.4247663227
 10
-0.7727118317
 20
16.4234713086
 10
-0.7444538368
 20
16.4228865796
 10
-0.7160075655
 20
16.423015996
  0
LWPOLYLINE
  5
420
100
AcDbEntity
  8
0
100
AcDbPolyline
 62
7
  6
CONTINUOUS
 90
10
 70
0
 10
0.7646090409
 20
17.5193732436
 10
0.8357484106
 20
17.4522907942
 10
0.8983762547
 20
17.3823867277
 10
0.9524925734
 20
17.3097247791
 10
0.9980399017
 20
17.2337315027
 10
1.0350757046
 20
17.155157251
 10
1.0637723764
 20
17.0760510553
 10
1.084187382
 20
16.9971482546
 10
1.0962632565
 20
16.9178970533
 10
1.1
 20
16.8383995561
  0
LWPOLYLINE
  5
421
100
AcDbEntity
  8
COPY-PUBBLISH
100
AcDbPolyline
 62
250
  6
CONTINUOUS
 90
4
 70
0
 10
15.5118111305
 20
1.1147922364
 10
15.494422193
 20
1.1318814565
 10
15.4652324234
 20
1.1609485346
 10
15.4537540449
 20
1.172530465
  0
LINE
  5
422
100
AcDbEntity
  8
ASSI
100
AcDbLine
 62
7
  6
CONTINUOUS
 10
1.8
 20
18.8
 11
1.8034906514
 21
18.7965093486
  0
LWPOLYLINE
  5
423
100
AcDbEntity
  8
0
100
AcDbPolyline
 62
7
  6
CONTINUOUS
 90
10
 70
0
 10
0.7646090409
 20
17.5193732436
 10
0.8314694875
 20
17.4384505377
 10
0.8912990152
 20
17.3517982932
 10
0.9440976241
 20
17.2594930058
 10
0.9903556838
 20
17.1606025821
 10
1.0295828248
 20
17.0563044792
 10
1.0603079378
 20
16.9498493933
 10
1.0820406531
 20
16.8424094168
 10
1.0952713405
 20
16.7331195033
 10
1.1
 20
16.6221636525
  0
LINE
  5
424
100
AcDbEntity
  8
ASSI
100
AcDbLine
 62
7
  6
CONTINUOUS
 10
22.1
 20
9.5404147135
 11
22.1
 21
-9.5404147135
  0
LINE
  5
425
100
AcDbEntity
  8
ASSI
100
AcDbLine
 62
7
  6
CONTINUOUS
 10
22.3749521765
 20
9.6726465946
 11
22.3749521765
 21
-9.6726465946
  0
LWPOLYLINE
  5
426
100
AcDbEntity
  8
ASSI
100
AcDbPolyline
 62
7
  6
CONTINUOUS
 90
33
 70
0
 10
10.2026483683
 20
-19.5976263539
 10
10.5932883734
 20
-19.4232722234
 10
11.0471999531
 20
-19.2166280751
 10
11.4944322396
 20
-19.0086786742
 10
11.9341959253
 20
-18.7999067186
 10
12.3672460608
 20
-18.590074931
 10
12.7958480597
 20
-18.3781669046
 10
13.2198811951
 20
-18.1642959561
 10
13.6394314287
 20
-17.9484766131
 10
14.0570217444
 20
-17.7294329295
 10
14.4726005154
 20
-17.507179035
 10
14.8861506398
 20
-17.2817144626
 10
15.3001810338
 20
-17.0516246726
 10
15.7146431629
 20
-16.8168520576
 10
16.1294630479
 20
-16.5773563824
 10
16.5470391951
 20
-16.3316326073
 10
16.9676187917
 20
-16.0793698025
 10
17.3907636128
 20
-15.8206668539
 10
17.8177844494
 20
-15.5545414568
 10
18.2493097593
 20
-15.2803867101
 10
18.6844839577
 20
-14.9985386773
 10
19.1223871085
 20
-14.7094189596
 10
19.5631239832
 20
-14.4128006036
 10
20.0064231703
 20
-14.1087138588
 10
20.4508483997
 20
-13.7980282384
 10
20.896309518
 20
-13.4807260773
 10
21.342818875
 20
-13.1567257362
 10
21.7891528853
 20
-12.826873946
 10
22.2352381431
 20
-12.4912185786
 10
22.681163437
 20
-12.1496959913
 10
23.126001988
 20
-11.8030469436
 10
23.569488275
 20
-11.4515451787
 10
24.0196658697
 20
-11.0887404349
  0
LINE
  5
427
100
AcDbEntity
  8
ASSI
100
AcDbLine
 62
7
  6
CONTINUOUS
 10
10.114088809
 20
-19.6233009253
 11
9.8518105118
 21
-19.7392395967
  0
LWPOLYLINE
  5
428
100
AcDbEntity
  8
ASSI
100
AcDbPolyline
 62
7
  6
CONTINUOUS
 90
8
 70
0
 10
9.8518105118
 20
-19.7392395967
 10
9.5887797828
 20
-19.8533962159
 10
9.324996622
 20
-19.9657707829
 10
9.0604487079
 20
-20.0763683497
 10
8.795148362
 20
-20.1851838643
 10
8.5291325487
 20
-20.2922021704
 10
8.2624135894
 20
-20.3974182161
 10
7.9949791628
 20
-20.5008370534
  0
LWPOLYLINE
  5
429
100
AcDbEntity
  8
ASSI
100
AcDbPolyline
 62
7
  6
CONTINUOUS
 90
3
 70
0
 10
9.7623532673
 20
-19.7894919216
 10
10.024051631
 20
-19.6761400468
 10
10.202660036
 20
-19.5976211939
  0
LINE
  5
42A
100
AcDbEntity
  8
ASSI
100
AcDbLine
 62
7
  6
CONTINUOUS
 10
9.7570892173
 20
-19.7917312299
 11
9.7623532673
 21
-19.7894919216
  0
LINE
  5
42B
100
AcDbEntity
  8
ASSI
100
AcDbLine
 62
7
  6
CONTINUOUS
 10
7.9949791628
 20
-20.5008370534
 11
7.7268292688
 21
-20.6024586823
  0
LWPOLYLINE
  5
42C
100
AcDbEntity
  8
ASSI
100
AcDbPolyline
 62
7
  6
CONTINUOUS
 90
6
 70
0
 10
7.7268292688
 20
-20.6024586823
 10
7.4178664106
 20
-20.7156813829
 10
7.1073724437
 20
-20.8242105904
 10
6.7953473681
 20
-20.928046305
 10
6.4817155128
 20
-21.0272028332
 10
6.3024217688
 20
-21.0815730055
  0
LWPOLYLINE
  5
42D
100
AcDbEntity
  8
ASSI
100
AcDbPolyline
 62
7
  6
CONTINUOUS
 90
21
 70
0
 10
6.3024217688
 20
-21.0815730055
 10
6.1665525488
 20
-21.1216658684
 10
5.8500854888
 20
-21.2113924903
 10
5.532318195
 20
-21.2963813209
 10
5.2132468052
 20
-21.3766337382
 10
4.8930867453
 20
-21.4521109549
 10
4.5718380558
 20
-21.5228130307
 10
4.2495006962
 20
-21.588739906
 10
3.926289971
 20
-21.6498526142
 10
3.6022058615
 20
-21.7061512261
 10
3.2772483864
 20
-21.7576356709
 10
2.9516329065
 20
-21.8042667701
 10
2.6253593786
 20
-21.8460445895
 10
2.298427846
 20
-21.8829690632
 10
1.9710537989
 20
-21.9150008145
 10
1.6432330565
 20
-21.9421399002
 10
1.3149697997
 20
-21.9643862635
 10
0.9864920623
 20
-21.9817003581
 10
0.6578758555
 20
-21.9940690016
 10
0.3290451681
 20
-22.0015053763
 10
0.0
 20
-22.0040094821
  0
LWPOLYLINE
  5
42E
100
AcDbEntity
  8
ASSI
100
AcDbPolyline
 62
250
  6
CONTINUOUS
 90
3
 70
0
 10
-10.114088809
 20
19.6233009252
 10
-10.1931641597
 20
19.6016182406
 10
-10.2026483683
 20
19.5976263539
  0
LWPOLYLINE
  5
42F
100
AcDbEntity
  8
0
100
AcDbPolyline
 62
250
  6
CONTINUOUS
 90
9
 70
0
 10
0.95
 20
19.108269917
 10
0.8892231378
 20
19.1031710709
 10
0.8302929498
 20
19.0880294587
 10
0.775
 20
19.0633051505
 10
0.7250243366
 20
19.029749382
 10
0.6818844449
 20
18.9883817281
 10
0.6468911087
 20
18.9404591241
 10
0.6211075827
 20
18.8874376741
 10
0.6053172864
 20
18.8309284079
  0
LWPOLYLINE
  5
430
100
AcDbEntity
  8
ASSI
100
AcDbPolyline
 62
7
  6
CONTINUOUS
 90
4
 70
0
 10
-1.8034906514
 20
20.9366850977
 10
-1.2371387776
 20
20.9804352399
 10
-0.6180539644
 20
21.0095912744
 10
-0.0
 20
21.02
  0
LWPOLYLINE
  5
431
100
AcDbEntity
  8
ASSI
100
AcDbPolyline
 62
7
  6
CONTINUOUS
 90
7
 70
0
 10
-0.0
 20
20.1990289669
 10
-0.3049015964
 20
20.1954827754
 10
-0.6095299289
 20
20.1874625793
 10
-0.9138849975
 20
20.1749683783
 10
-1.2180333509
 20
20.1579843963
 10
-1.5219084404
 20
20.1365264096
 10
-1.8034906514
 20
20.1125033109
  0
LINE
  5
432
100
AcDbEntity
  8
ASSI
100
AcDbLine
 62
7
  6
CONTINUOUS
 10
1.8
 20
17.5
 11
1.8034906514
 21
17.5
  0
LINE
  5
433
100
AcDbEntity
  8
ASSI
100
AcDbLine
 62
7
  6
CONTINUOUS
 10
-1.8
 20
17.5
 11
-1.8034906514
 21
17.5
  0
LINE
  5
434
100
AcDbEntity
  8
0
100
AcDbLine
 62
250
  6
CONTINUOUS
 10
-0.7646090409
 20
17.5193732436
 11
0.7646090409
 21
17.5193732436
  0
LINE
  5
435
100
AcDbEntity
  8
0
100
AcDbLine
 62
7
  6
CONTINUOUS
 10
-0.6
 20
18.0674322765
 11
0.6
 21
18.0674322765
  0
LINE
  5
436
100
AcDbEntity
  8
0
100
AcDbLine
 62
250
  6
CONTINUOUS
 10
-0.6
 20
18.7726483312
 11
0.6
 21
18.7726483312
  0
LINE
  5
437
100
AcDbEntity
  8
0
100
AcDbLine
 62
7
  6
CONTINUOUS
 10
-0.6
 20
18.9
 11
0.6
 21
18.9
  0
LINE
  5
438
100
AcDbEntity
  8
0
100
AcDbLine
 62
250
  6
CONTINUOUS
 10
-1.8094390391
 20
19.108269917
 11
-0.95
 21
19.108269917
  0
LINE
  5
439
100
AcDbEntity
  8
0
100
AcDbLine
 62
250
  6
CONTINUOUS
 10
0.95
 20
19.108269917
 11
1.8094390391
 21
19.108269917
  0
LINE
  5
43A
100
AcDbEntity
  8
0
100
AcDbLine
 62
7
  6
CONTINUOUS
 10
-1.8094390391
 20
19.25
 11
-0.95
 21
19.25
  0
LINE
  5
43B
100
AcDbEntity
  8
0
100
AcDbLine
 62
7
  6
CONTINUOUS
 10
0.95
 20
19.25
 11
1.8094390391
 21
19.25
  0
LINE
  5
43C
100
AcDbEntity
  8
0
100
AcDbLine
 62
7
  6
CONTINUOUS
 10
1.8
 20
19.5511295404
 11
-1.8
 21
19.5511295404
  0
LINE
  5
43D
100
AcDbEntity
  8
ASSI
100
AcDbLine
 62
7
  6
CONTINUOUS
 10
-1.8034906514
 20
19.8
 11
1.8034906514
 21
19.8
  0
LWPOLYLINE
  5
43E
100
AcDbEntity
  8
ASSI
100
AcDbPolyline
 62
7
  6
CONTINUOUS
 90
21
 70
0
 10
-0.0
 20
22.0040094821
 10
0.3290448955
 20
22.0015053693
 10
0.657875163
 20
21.9940690136
 10
0.9864908024
 20
21.981700415
 10
1.3149677732
 20
21.9643863917
 10
1.6432301159
 20
21.9421401255
 10
1.9710499529
 20
21.9150011619
 10
2.298423105
 20
21.8829695665
 10
2.6253537514
 20
21.8460452736
 10
2.9516265514
 20
21.804267632
 10
3.2772414804
 20
21.7576367126
 10
3.6021985631
 20
21.7061524444
 10
3.9262825328
 20
21.6498539634
 10
4.2494934365
 20
21.5887413283
 10
4.5718312273
 20
21.5228144802
 10
4.893080497
 20
21.4521123788
 10
5.2132413018
 20
21.3766350727
 10
5.5323135855
 20
21.2963825132
 10
5.850081772
 20
21.2113935141
 10
6.1665497224
 20
21.1216666885
 10
6.3024217686
 20
21.0815730055
  0
LINE
  5
43F
100
AcDbEntity
  8
ASSI
100
AcDbLine
 62
7
  6
CONTINUOUS
 10
-1.3
 20
20.7444560472
 11
-0.0
 21
20.6990580614
  0
LINE
  5
440
100
AcDbEntity
  8
ASSI
100
AcDbLine
 62
7
  6
CONTINUOUS
 10
-1.3
 20
19.7434905301
 11
-0.0
 21
19.6978924779
  0
LWPOLYLINE
  5
441
100
AcDbEntity
  8
0
100
AcDbPolyline
 62
250
  6
CONTINUOUS
 90
19
 70
0
 10
-0.000000001
 20
17.2891925914
 10
0.0575156986
 20
17.2864402691
 10
0.1146276794
 20
17.2778839576
 10
0.1713359415
 20
17.2635256162
 10
0.228099327
 20
17.2434234432
 10
0.2844589937
 20
17.217528955
 10
0.3390384151
 20
17.1856881036
 10
0.391858704
 20
17.1477832063
 10
0.4428987476
 20
17.1039663659
 10
0.490718681
 20
17.0544969512
 10
0.5354143342
 20
16.9989856831
 10
0.5768898773
 20
16.9379081882
 10
0.6134179552
 20
16.8728266274
 10
0.6447645358
 20
16.8036374253
 10
0.6711636513
 20
16.7305826036
 10
0.6915900436
 20
16.6557247303
 10
0.70570196
 20
16.5797886257
 10
0.7138411532
 20
16.5021904262
 10
0.7160076232
 20
16.4230154734
  0
LWPOLYLINE
  5
442
100
AcDbEntity
  8
0
100
AcDbPolyline
 62
7
  6
CONTINUOUS
 90
16
 70
0
 10
0.0000005312
 20
17.5189106638
 10
0.0938472882
 20
17.5136028696
 10
0.1858894804
 20
17.4976987068
 10
0.2761271079
 20
17.4711994133
 10
0.3655547704
 20
17.4339992163
 10
0.453177868
 20
17.3862210979
 10
0.5360126017
 20
17.3282219369
 10
0.6140964304
 20
17.2595639673
 10
0.6873918951
 20
17.1808048035
 10
0.7528028193
 20
17.0938257671
 10
0.8101675389
 20
16.9980981796
 10
0.8596477179
 20
16.8944820976
 10
0.898632172
 20
16.786938496
 10
0.9262505063
 20
16.6769090019
 10
0.9433731157
 20
16.5633877985
 10
0.95
 20
16.4466533108
  0
LWPOLYLINE
  5
443
100
AcDbEntity
  8
ASSI
100
AcDbPolyline
 62
7
  6
CONTINUOUS
 90
4
 70
0
 10
1.8034906514
 20
20.9366850977
 10
1.2371387776
 20
20.9804352399
 10
0.6180539644
 20
21.0095912744
 10
-0.0
 20
21.02
  0
LWPOLYLINE
  5
444
100
AcDbEntity
  8
0
100
AcDbPolyline
 62
250
  6
CONTINUOUS
 90
9
 70
0
 10
-0.95
 20
19.108269917
 10
-0.8892231378
 20
19.1031710709
 10
-0.8302929498
 20
19.0880294587
 10
-0.775
 20
19.0633051505
 10
-0.7250243366
 20
19.029749382
 10
-0.6818844449
 20
18.9883817281
 10
-0.6468911087
 20
18.9404591241
 10
-0.6211075827
 20
18.887437674
 10
-0.6053172864
 20
18.8309284079
  0
LWPOLYLINE
  5
445
100
AcDbEntity
  8
ASSI
100
AcDbPolyline
 62
7
  6
CONTINUOUS
 90
7
 70
0
 10
1.8034906514
 20
20.1125088301
 10
1.5212607173
 20
20.1365777448
 10
1.2175853304
 20
20.158014008
 10
0.9136049891
 20
20.1749819533
 10
0.6093749472
 20
20.1874659424
 10
0.3048399509
 20
20.1954816136
 10
-0.0
 20
20.1990289669
  0
LINE
  5
446
100
AcDbEntity
  8
ASSI
100
AcDbLine
 62
7
  6
CONTINUOUS
 10
-0.3094829293
 20
20.709865678
 11
-1.1130526192
 21
20.8156414452
  0
LWPOLYLINE
  5
447
100
AcDbEntity
  8
ASSI
100
AcDbPolyline
 62
7
  6
CONTINUOUS
 90
10
 70
0
 10
1.2336050792
 20
21.3596654191
 10
0.9608418923
 20
21.3955848564
 10
0.6870490512
 20
21.4225581212
 10
0.4125197398
 20
21.4405562863
 10
0.1375464895
 20
21.4495600491
 10
-0.1375748041
 20
21.449559586
 10
-0.4125451956
 20
21.4405550361
 10
-0.6870688078
 20
21.4225565013
 10
-0.9608531455
 20
21.3955835617
 10
-1.2336050792
 20
21.3596654191
  0
LINE
  5
448
100
AcDbEntity
  8
ASSI
100
AcDbLine
 62
7
  6
CONTINUOUS
 10
-0.7331767741
 20
19.7980265726
 11
-0.0
 21
19.6991020889
  0
LWPOLYLINE
  5
449
100
AcDbEntity
  8
0
100
AcDbPolyline
 62
7
  6
CONTINUOUS
 90
9
 70
0
 10
-1.8034906514
 20
17.8982553541
 10
-1.8007804417
 20
17.8977447113
 10
-1.7585968406
 20
17.8877694285
 10
-1.7206582259
 20
17.8764844604
 10
-1.6868505662
 20
17.8639505447
 10
-1.6583990986
 20
17.8506631103
 10
-1.6357122356
 20
17.8367873002
 10
-1.6183815648
 20
17.8221579714
 10
-1.6064070861
 20
17.8067751239
  0
LWPOLYLINE
  5
44A
100
AcDbEntity
  8
0
100
AcDbPolyline
 62
7
  6
CONTINUOUS
 90
9
 70
0
 10
-1.8034906514
 20
18.6653904074
 10
-1.8007804417
 20
18.6648797645
 10
-1.7585968406
 20
18.6549044817
 10
-1.7206582259
 20
18.6436195136
 10
-1.6868505662
 20
18.6310855979
 10
-1.6583990986
 20
18.6177981635
 10
-1.6357122356
 20
18.6039223534
 10
-1.6183815648
 20
18.5892930246
 10
-1.6064070861
 20
18.5739101771
  0
LWPOLYLINE
  5
44B
100
AcDbEntity
  8
ASSI
100
AcDbPolyline
 62
7
  6
CONTINUOUS
 90
10
 70
0
 10
-1.1130526192
 20
20.8156414452
 10
-1.1292611368
 20
20.8193271904
 10
-1.1440294782
 20
20.8250694054
 10
-1.1573576436
 20
20.8328680903
 10
-1.169507964
 20
20.8430223304
 10
-1.1802181083
 20
20.8552330405
 10
-1.1887010833
 20
20.868602964
 10
-1.1946945581
 20
20.8828330155
 10
-1.1984608637
 20
20.8982222806
 10
-1.2
 20
20.9147707591
  0
LWPOLYLINE
  5
44C
100
AcDbEntity
  8
ASSI
100
AcDbPolyline
 62
250
  6
CONTINUOUS
 90
3
 70
0
 10
10.114088809
 20
19.6233009252
 10
10.1931641597
 20
19.6016182406
 10
10.2026483683
 20
19.5976263539
  0
LWPOLYLINE
  5
44D
100
AcDbEntity
  8
ASSI
100
AcDbPolyline
 62
7
  6
CONTINUOUS
 90
6
 70
0
 10
6.3024217686
 20
21.0815730055
 10
6.4817135756
 20
21.0272034234
 10
6.7953461727
 20
20.9280466928
 10
7.1073717941
 20
20.8242108214
 10
7.4178661595
 20
20.7156814846
 10
7.7268292688
 20
20.6024586823
  0
LWPOLYLINE
  5
44E
100
AcDbEntity
  8
ASSI
100
AcDbPolyline
 62
7
  6
CONTINUOUS
 90
8
 70
0
 10
7.7268292688
 20
20.6024586823
 10
7.9949791628
 20
20.5008370534
 10
8.2624135894
 20
20.3974182161
 10
8.5291325487
 20
20.2922021704
 10
8.795148362
 20
20.1851838643
 10
9.0604487079
 20
20.0763683497
 10
9.324996622
 20
19.9657707829
 10
9.5887797828
 20
19.8533962159
  0
LWPOLYLINE
  5
44F
100
AcDbEntity
  8
ASSI
100
AcDbPolyline
 62
7
  6
CONTINUOUS
 90
8
 70
0
 10
9.7623532673
 20
19.7894919216
 10
9.4920811919
 20
19.9044647044
 10
9.2131844659
 20
20.0209023707
 10
8.9256544224
 20
20.1386272283
 10
8.6295258804
 20
20.2574411105
 10
8.3248020564
 20
20.3771563493
 10
8.0114545483
 20
20.4975944071
 10
7.7596101508
 20
20.5924537516
  0
LWPOLYLINE
  5
450
100
AcDbEntity
  8
ASSI
100
AcDbPolyline
 62
7
  6
CONTINUOUS
 90
3
 70
0
 10
9.5887797828
 20
19.8533962159
 10
9.8518105118
 20
19.7392395967
 10
10.114088809
 20
19.6233009253
  0
LWPOLYLINE
  5
451
100
AcDbEntity
  8
ASSI
100
AcDbPolyline
 62
7
  6
CONTINUOUS
 90
3
 70
0
 10
10.202660036
 20
19.5976211939
 10
10.024051631
 20
19.6761400468
 10
9.7623532673
 20
19.7894919216
  0
LWPOLYLINE
  5
452
100
AcDbEntity
  8
ASSI
100
AcDbPolyline
 62
7
  6
CONTINUOUS
 90
28
 70
0
 10
10.114088809
 20
19.6233009253
 10
10.6663916085
 20
19.3736980964
 10
11.2161442647
 20
19.1188026269
 10
11.7633467776
 20
18.8586145167
 10
12.3080488668
 20
18.5931073507
 10
12.8502008127
 20
18.322307544
 10
13.3896534566
 20
18.046294342
 10
13.9264077452
 20
17.7650672748
 10
14.4604627319
 20
17.4786268124
 10
14.9916664172
 20
17.1870536101
 10
15.520018271
 20
16.8903478981
 10
16.0455188234
 20
16.5885094461
 10
16.5680176659
 20
16.2816182186
 10
17.0875133781
 20
15.9696717783
 10
17.6040073804
 20
15.6526725624
 10
18.1173535249
 20
15.3307078475
 10
18.6275493661
 20
15.0037739365
 10
19.1345973494
 20
14.6718745265
 10
19.6383586643
 20
14.3351079856
 10
20.138833556
 20
13.9934736751
 10
20.6360217791
 20
13.6469722337
 10
21.1297837868
 20
13.2957039457
 10
21.6201226793
 20
12.9396662511
 10
22.1070353562
 20
12.57886171
 10
22.5903729698
 20
12.2133982869
 10
23.0700859039
 20
11.8433119701
 10
23.5462237745
 20
11.4685667714
 10
24.0187865817
 20
11.0891626907
  0
LWPOLYLINE
  5
453
100
AcDbEntity
  8
ASSI
100
AcDbPolyline
 62
7
  6
CONTINUOUS
 90
9
 70
0
 10
24.4999996248
 20
10.0810095585
 10
24.498444558
 20
10.1434607126
 10
24.4937296241
 20
10.2072107533
 10
24.4858551953
 20
10.2706637114
 10
24.474772458
 20
10.3340609598
 10
24.4605302258
 20
10.3971611257
 10
24.4432749396
 20
10.4592400907
 10
24.4230045282
 20
10.5201686432
 10
24.3997210627
 20
10.5800759948
  0
LINE
  5
454
100
AcDbEntity
  8
ASSI
100
AcDbLine
 62
7
  6
CONTINUOUS
 10
24.4999999969
 20
10.0794135894
 11
24.4999996248
 21
10.0810095585
  0
LINE
  5
455
100
AcDbEntity
  8
ASSI
100
AcDbLine
 62
250
  6
CONTINUOUS
 10
23.8952585473
 20
10.396238116
 11
23.8952585473
 21
-10.396238116
  0
LINE
  5
456
100
AcDbEntity
  8
0
100
AcDbLine
 62
7
  6
CONTINUOUS
 10
24.373779822
 20
-10.7856918211
 11
24.373779822
 21
10.7856918211
  0
LINE
  5
457
100
AcDbEntity
  8
0
100
AcDbLine
 62
7
  6
CONTINUOUS
 10
24.4999999969
 20
10.0794135894
 11
24.4999999924
 21
-10.079413651
  0
LINE
  5
458
100
AcDbEntity
  8
ASSI
100
AcDbLine
 62
7
  6
CONTINUOUS
 10
24.4999996543
 20
-10.0809688
 11
24.4999999924
 21
-10.079413651
  0
LWPOLYLINE
  5
459
100
AcDbEntity
  8
ASSI
100
AcDbPolyline
 62
7
  6
CONTINUOUS
 90
9
 70
0
 10
24.3997211477
 20
-10.5800760399
 10
24.4230046019
 20
-10.5201686804
 10
24.4432750015
 20
-10.4592401204
 10
24.460530275
 20
-10.3971611459
 10
24.4747724939
 20
-10.334060971
 10
24.485855219
 20
-10.2706637214
 10
24.4937296372
 20
-10.2072107725
 10
24.4984445617
 20
-10.1434607491
 10
24.4999996543
 20
-10.0809688
  0
LINE
  5
45A
100
AcDbEntity
  8
ASSI
100
AcDbLine
 62
7
  6
CONTINUOUS
 10
24.373779822
 20
-10.6381721475
 11
24.3997211477
 21
-10.5800760399
  0
LWPOLYLINE
  5
45B
100
AcDbEntity
  8
ASSI
100
AcDbPolyline
 62
7
  6
CONTINUOUS
 90
4
 70
0
 10
24.0187861112
 20
-11.0891631336
 10
24.0675492867
 20
-11.0476230788
 10
24.1140971832
 20
-11.0038076475
 10
24.1529534465
 20
-10.9634103809
  0
LWPOLYLINE
  5
45C
100
AcDbEntity
  8
ASSI
100
AcDbPolyline
 62
7
  6
CONTINUOUS
 90
28
 70
0
 10
24.0187861112
 20
-11.0891631336
 10
23.54622348
 20
-11.468567043
 10
23.0700857425
 20
-11.8433121122
 10
22.5903728985
 20
-12.2133983413
 10
22.1070353174
 20
-12.5788617326
 10
21.6201226299
 20
-12.9396662839
 10
21.1297837279
 20
-13.295703988
 10
20.6360217269
 20
-13.6469722705
 10
20.1388335113
 20
-13.9934737059
 10
19.6383586268
 20
-14.3351080109
 10
19.1345973184
 20
-14.6718745471
 10
18.627549341
 20
-15.0037739528
 10
18.1173535051
 20
-15.3307078601
 10
17.6040073647
 20
-15.6526725721
 10
17.0875133658
 20
-15.9696717858
 10
16.568017656
 20
-16.2816182245
 10
16.0455188151
 20
-16.5885094509
 10
15.5200182634
 20
-16.8903479024
 10
14.99166641
 20
-17.1870536141
 10
14.4604627247
 20
-17.4786268163
 10
13.9264077376
 20
-17.7650672789
 10
13.3896534487
 20
-18.0462943461
 10
12.8502008047
 20
-18.322307548
 10
12.3080488589
 20
-18.5931073546
 10
11.7633467705
 20
-18.8586145202
 10
11.2161442593
 20
-19.1188026295
 10
10.6663916054
 20
-19.3736980979
 10
10.114088809
 20
-19.6233009253
  0
LWPOLYLINE
  5
45D
100
AcDbEntity
  8
ASSI
100
AcDbPolyline
 62
7
  6
CONTINUOUS
 90
33
 70
0
 10
24.0196653024
 20
11.0887408959
 10
23.569488275
 20
11.4515451787
 10
23.126001988
 20
11.8030469436
 10
22.681163437
 20
12.1496959913
 10
22.2352381431
 20
12.4912185786
 10
21.7891528853
 20
12.826873946
 10
21.342818875
 20
13.1567257362
 10
20.896309518
 20
13.4807260773
 10
20.4508483997
 20
13.7980282384
 10
20.0064231703
 20
14.1087138588
 10
19.5631239832
 20
14.4128006036
 10
19.1223871085
 20
14.7094189596
 10
18.6844839577
 20
14.9985386773
 10
18.2493097593
 20
15.2803867101
 10
17.8177844494
 20
15.5545414568
 10
17.3907636128
 20
15.8206668539
 10
16.9676187917
 20
16.0793698025
 10
16.5470391951
 20
16.3316326073
 10
16.1294630479
 20
16.5773563824
 10
15.7146431629
 20
16.8168520576
 10
15.3001810338
 20
17.0516246726
 10
14.8861506398
 20
17.2817144626
 10
14.4726005154
 20
17.507179035
 10
14.0570217444
 20
17.7294329295
 10
13.6394314287
 20
17.9484766131
 10
13.2198811951
 20
18.1642959561
 10
12.7958480597
 20
18.3781669046
 10
12.3672460608
 20
18.590074931
 10
11.9341959253
 20
18.7999067186
 10
11.4944322396
 20
19.0086786742
 10
11.0471999531
 20
19.2166280751
 10
10.5932883734
 20
19.4232722234
 10
10.2026483683
 20
19.5976263539
  0
LWPOLYLINE
  5
45E
100
AcDbEntity
  8
ASSI
100
AcDbPolyline
 62
7
  6
CONTINUOUS
 90
4
 70
0
 10
24.1529523461
 20
10.9634112665
 10
24.1140971807
 20
11.0038074471
 10
24.0675494863
 20
11.0476227724
 10
24.0187865817
 20
11.0891626907
  0
LINE
  5
45F
100
AcDbEntity
  8
ASSI
100
AcDbLine
 62
7
  6
CONTINUOUS
 10
24.3997210627
 20
10.5800759948
 11
24.373779822
 21
10.6381718801
  0
ARC
  5
460
100
AcDbEntity
  8
0
100
AcDbCircle
 62
7
  6
CONTINUOUS
 10
-15.37
 20
-37.45
 40
62.5
100
AcDbArc
 50
50.5131967857
 51
66.3000843995
  0
ARC
  5
461
100
AcDbEntity
  8
0
100
AcDbCircle
 62
7
  6
CONTINUOUS
 10
-15.37
 20
-37.45
 40
62.3952395089
100
AcDbArc
 50
50.4338887444
 51
66.299922484
  0
ARC
  5
462
100
AcDbEntity
  8
ASSI
100
AcDbCircle
 62
250
  6
CONTINUOUS
 10
-15.37
 20
-37.45
 40
61.8952585473
100
AcDbArc
 50
50.625811665
 51
66.2995844458
  0
ARC
  5
463
100
AcDbEntity
  8
ASSI
100
AcDbCircle
 62
7
  6
CONTINUOUS
 10
-15.37
 20
-37.45
 40
60.3757007155
100
AcDbArc
 50
51.3054854588
 51
65.8903224382
  0
ARC
  5
464
100
AcDbEntity
  8
ASSI
100
AcDbCircle
 62
7
  6
CONTINUOUS
 10
-15.37
 20
-37.45
 40
60.100748539
100
AcDbArc
 50
51.4312585871
 51
65.8903224382
  0
ARC
  5
465
100
AcDbEntity
  8
ASSI
100
AcDbCircle
 62
7
  6
CONTINUOUS
 10
-7.2
 20
-19.1940095268
 40
42.5
100
AcDbArc
 50
66.4929195302
 51
69.4380759664
  0
ARC
  5
466
100
AcDbEntity
  8
ASSI
100
AcDbCircle
 62
7
  6
CONTINUOUS
 10
-7.2
 20
-19.1940095268
 40
42.3952395088
100
AcDbArc
 50
66.4931577353
 51
69.4380759664
  0
ARC
  5
467
100
AcDbEntity
  8
ASSI
100
AcDbCircle
 62
250
  6
CONTINUOUS
 10
-7.2
 20
-19.1940095268
 40
41.8952585473
100
AcDbArc
 50
66.4949644659
 51
69.4380759664
  0
ARC
  5
468
100
AcDbEntity
  8
ASSI
100
AcDbCircle
 62
7
  6
CONTINUOUS
 10
-7.2
 20
-19.1940095268
 40
40.3749521765
100
AcDbArc
 50
65.8903224382
 51
69.4380774104
  0
ARC
  5
469
100
AcDbEntity
  8
ASSI
100
AcDbCircle
 62
7
  6
CONTINUOUS
 10
-7.2
 20
-19.1940095268
 40
40.1
100
AcDbArc
 50
65.8903224382
 51
69.4375210594
  0
ARC
  5
46A
100
AcDbEntity
  8
COPY-PUBBLISH
100
AcDbCircle
 62
7
  6
CONTINUOUS
 10
-9.2972612696
 20
-1.05
 40
3.8061303549
100
AcDbArc
 50
93.011780007
 51
111.390996375
  0
ARC
  5
46B
100
AcDbEntity
  8
COPY-PUBBLISH
100
AcDbCircle
 62
7
  6
CONTINUOUS
 10
-13.3
 20
-0.6
 40
3.4465036891
100
AcDbArc
 50
55.9146956199
 51
76.4940139
  0
ARC
  5
46C
100
AcDbEntity
  8
COPY-PUBBLISH
100
AcDbCircle
 62
7
  6
CONTINUOUS
 10
-9.2972612696
 20
-1.05
 40
3.3465036891
100
AcDbArc
 50
60.8968082337
 51
111.390996375
  0
ARC
  5
46D
100
AcDbEntity
  8
COPY-PUBBLISH
100
AcDbCircle
 62
7
  6
CONTINUOUS
 10
-13.3
 20
-0.6
 40
3.2
100
AcDbArc
 50
44.1843851533
 51
51.6285074105
  0
ARC
  5
46E
100
AcDbEntity
  8
COPY-PUBBLISH
100
AcDbCircle
 62
7
  6
CONTINUOUS
 10
-9.2972612696
 20
-1.05
 40
3.1
100
AcDbArc
 50
115.8364640574
 51
120.7535198081
  0
ARC
  5
46F
100
AcDbEntity
  8
DRAFT
100
AcDbCircle
 62
250
  6
CONTINUOUS
 10
-12.9975959316
 20
-0.25
 40
3.0052361211
100
AcDbArc
 50
90.0
 51
91.0832177581
  0
ARC
  5
470
100
AcDbEntity
  8
DRAFT
100
AcDbCircle
 62
7
  6
CONTINUOUS
 10
-12.9975959316
 20
-0.25
 40
3.0052361207
100
AcDbArc
 50
91.0832177581
 51
123.918327695
  0
ARC
  5
471
100
AcDbEntity
  8
COPY-PUBBLISH
100
AcDbCircle
 62
250
  6
CONTINUOUS
 10
-13.3
 20
-0.6
 40
2.7871644455
100
AcDbArc
 50
55.1468893548
 51
140.0337869562
  0
ARC
  5
472
100
AcDbEntity
  8
COPY-PUBBLISH
100
AcDbCircle
 62
250
  6
CONTINUOUS
 10
-9.2972612696
 20
-1.05
 40
2.6871644455
100
AcDbArc
 50
68.6388613085
 51
112.1873351663
  0
ARC
  5
473
100
AcDbEntity
  8
COPY-PUBBLISH
100
AcDbCircle
 62
7
  6
CONTINUOUS
 10
-13.3
 20
-0.6
 40
2.6
100
AcDbArc
 50
44.1843851533
 51
140.0337869562
  0
ARC
  5
474
100
AcDbEntity
  8
COPY-PUBBLISH
100
AcDbCircle
 62
7
  6
CONTINUOUS
 10
-9.2972612696
 20
-1.05
 40
2.5
100
AcDbArc
 50
78.5936094036
 51
92.992587483
  0
ARC
  5
475
100
AcDbEntity
  8
0
100
AcDbCircle
 62
7
  6
CONTINUOUS
 10
-2.3829840104
 20
-2.9923689868
 40
1.9100698402
100
AcDbArc
 50
8.6682802107
 51
43.2874385523
  0
ARC
  5
476
100
AcDbEntity
  8
COPY-PUBBLISH
100
AcDbCircle
 62
7
  6
CONTINUOUS
 10
-16.3
 20
-1.9142857143
 40
1.3142857143
100
AcDbArc
 50
57.8521799811
 51
59.5324162033
  0
ARC
  5
477
100
AcDbEntity
  8
0
100
AcDbCircle
 62
7
  6
CONTINUOUS
 10
-2.3829840104
 20
-2.9923689868
 40
1.1100698402
100
AcDbArc
 50
39.4473736685
 51
43.2874385523
  0
ARC
  5
478
100
AcDbEntity
  8
ASSI
100
AcDbCircle
 62
7
  6
CONTINUOUS
 10
-11.25
 20
-2.7977669667
 40
0.5
100
AcDbArc
 50
57.9740683498
 51
122.0259316502
  0
ARC
  5
479
100
AcDbEntity
  8
0
100
AcDbCircle
 62
7
  6
CONTINUOUS
 10
-0.95
 20
-18.6568326776
 40
0.35
100
AcDbArc
 50
270.0
 51
360.0
  0
ARC
  5
47A
100
AcDbEntity
  8
ASSI
100
AcDbCircle
 62
250
  6
CONTINUOUS
 10
-9.5
 20
0.0
 40
3.3
100
AcDbArc
 50
237.9740683498
 51
122.0259316502
  0
ARC
  5
47B
100
AcDbEntity
  8
ASSI
100
AcDbCircle
 62
250
  6
CONTINUOUS
 10
-13.0
 20
0.0
 40
3.3
100
AcDbArc
 50
57.9740683498
 51
302.0259316502
  0
ARC
  5
47C
100
AcDbEntity
  8
ASSI
100
AcDbCircle
 62
7
  6
CONTINUOUS
 10
-13.0
 20
0.0
 40
2.8
100
AcDbArc
 50
57.9740683498
 51
302.0259316502
  0
ARC
  5
47D
100
AcDbEntity
  8
ASSI
100
AcDbCircle
 62
7
  6
CONTINUOUS
 10
-9.5
 20
0.0
 40
2.8
100
AcDbArc
 50
237.9740683498
 51
122.0259316502
  0
ARC
  5
47E
100
AcDbEntity
  8
DRAFT
100
AcDbCircle
 62
7
  6
CONTINUOUS
 10
-13.0
 20
0.0
 40
2.7552361207
100
AcDbArc
 50
91.1315148723
 51
197.9806991782
  0
ARC
  5
47F
100
AcDbEntity
  8
DRAFT
100
AcDbCircle
 62
7
  6
CONTINUOUS
 10
-13.0
 20
0.0
 40
2.75
100
AcDbArc
 50
90.0
 51
197.8824581672
  0
ARC
  5
480
100
AcDbEntity
  8
DRAFT
100
AcDbCircle
 62
7
  6
CONTINUOUS
 10
-9.5
 20
0.0
 40
2.75
100
AcDbArc
 50
40.1282291609
 51
90.0
  0
ARC
  5
481
100
AcDbEntity
  8
COPY-PUBBLISH
100
AcDbCircle
 62
7
  6
CONTINUOUS
 10
-16.3
 20
1.9142857143
 40
1.3142857143
100
AcDbArc
 50
300.4675837967
 51
320.0337869562
  0
ARC
  5
482
100
AcDbEntity
  8
COPY-PUBBLISH
100
AcDbCircle
 62
7
  6
CONTINUOUS
 10
-10.9335680868
 20
1.7
 40
0.7
100
AcDbArc
 50
224.1843851533
 51
227.0651855548
  0
ARC
  5
483
100
AcDbEntity
  8
ASSI
100
AcDbCircle
 62
7
  6
CONTINUOUS
 10
-11.25
 20
2.7977669667
 40
0.5
100
AcDbArc
 50
237.9740683498
 51
302.0259316502
  0
ARC
  5
484
100
AcDbEntity
  8
COPY-PUBBLISH
100
AcDbCircle
 62
7
  6
CONTINUOUS
 10
-10.9335680868
 20
1.7
 40
0.1
100
AcDbArc
 50
224.1843851533
 51
300.7535198081
  0
ARC
  5
485
100
AcDbEntity
  8
0
100
AcDbCircle
 62
7
  6
CONTINUOUS
 10
-15.37
 20
37.45
 40
62.5
100
AcDbArc
 50
293.6999156005
 51
309.4868032143
  0
ARC
  5
486
100
AcDbEntity
  8
0
100
AcDbCircle
 62
7
  6
CONTINUOUS
 10
-15.37
 20
37.45
 40
62.3952395089
100
AcDbArc
 50
293.700077516
 51
309.5661112556
  0
ARC
  5
487
100
AcDbEntity
  8
ASSI
100
AcDbCircle
 62
250
  6
CONTINUOUS
 10
-15.37
 20
37.45
 40
61.8952585473
100
AcDbArc
 50
293.7004203121
 51
309.374188335
  0
ARC
  5
488
100
AcDbEntity
  8
ASSI
100
AcDbCircle
 62
7
  6
CONTINUOUS
 10
-15.37
 20
37.45
 40
60.3757007155
100
AcDbArc
 50
294.1096775618
 51
308.6945145412
  0
ARC
  5
489
100
AcDbEntity
  8
ASSI
100
AcDbCircle
 62
7
  6
CONTINUOUS
 10
-15.37
 20
37.45
 40
60.100748539
100
AcDbArc
 50
294.1096775618
 51
308.5687414129
  0
ARC
  5
48A
100
AcDbEntity
  8
RACCORDO
100
AcDbCircle
 62
250
  6
CONTINUOUS
 10
-0.9
 20
0.1
 40
3.0679111138
100
AcDbArc
 50
326.261572663
 51
33.792705289
  0
ARC
  5
48B
100
AcDbEntity
  8
0
100
AcDbCircle
 62
7
  6
CONTINUOUS
 10
-0.9
 20
0.1
 40
2.6
100
AcDbArc
 50
43.2111043863
 51
61.9275130641
  0
ARC
  5
48C
100
AcDbEntity
  8
RACCORDO
100
AcDbCircle
 62
7
  6
CONTINUOUS
 10
-0.9
 20
0.1
 40
2.6
100
AcDbArc
 50
316.7125614477
 51
43.2111043863
  0
ARC
  5
48D
100
AcDbEntity
  8
ASSI
100
AcDbCircle
 62
7
  6
CONTINUOUS
 10
-7.2
 20
19.1940095268
 40
42.5
100
AcDbArc
 50
290.5619240336
 51
293.5070804699
  0
ARC
  5
48E
100
AcDbEntity
  8
ASSI
100
AcDbCircle
 62
7
  6
CONTINUOUS
 10
-7.2
 20
19.1940095268
 40
42.3952395089
100
AcDbArc
 50
290.5619240336
 51
293.5068422647
  0
ARC
  5
48F
100
AcDbEntity
  8
ASSI
100
AcDbCircle
 62
250
  6
CONTINUOUS
 10
-7.2
 20
19.1940095268
 40
41.8952585473
100
AcDbArc
 50
290.5619240336
 51
293.5050425635
  0
ARC
  5
490
100
AcDbEntity
  8
ASSI
100
AcDbCircle
 62
7
  6
CONTINUOUS
 10
-7.2
 20
19.1940095268
 40
40.3749521765
100
AcDbArc
 50
290.5619225896
 51
294.1096775618
  0
ARC
  5
491
100
AcDbEntity
  8
ASSI
100
AcDbCircle
 62
7
  6
CONTINUOUS
 10
-7.2
 20
19.1940095268
 40
40.1
100
AcDbArc
 50
290.5624789406
 51
294.1096775618
  0
ARC
  5
492
100
AcDbEntity
  8
0
100
AcDbCircle
 62
7
  6
CONTINUOUS
 10
-0.95
 20
18.9
 40
0.35
100
AcDbArc
 50
0.0
 51
90.0
  0
ARC
  5
493
100
AcDbEntity
  8
0
100
AcDbCircle
 62
7
  6
CONTINUOUS
 10
15.37
 20
-37.45
 40
62.5
100
AcDbArc
 50
113.6999156005
 51
129.4868032143
  0
ARC
  5
494
100
AcDbEntity
  8
0
100
AcDbCircle
 62
7
  6
CONTINUOUS
 10
15.37
 20
-37.45
 40
62.3952395089
100
AcDbArc
 50
113.700077516
 51
129.5661112556
  0
ARC
  5
495
100
AcDbEntity
  8
ASSI
100
AcDbCircle
 62
250
  6
CONTINUOUS
 10
15.37
 20
-37.45
 40
61.8952585473
100
AcDbArc
 50
113.7004198581
 51
129.374188335
  0
ARC
  5
496
100
AcDbEntity
  8
ASSI
100
AcDbCircle
 62
7
  6
CONTINUOUS
 10
15.37
 20
-37.45
 40
60.3757007155
100
AcDbArc
 50
114.1096775618
 51
128.6945145412
  0
ARC
  5
497
100
AcDbEntity
  8
ASSI
100
AcDbCircle
 62
7
  6
CONTINUOUS
 10
15.37
 20
-37.45
 40
60.100748539
100
AcDbArc
 50
114.1096775618
 51
128.5687414129
  0
ARC
  5
498
100
AcDbEntity
  8
ASSI
100
AcDbCircle
 62
7
  6
CONTINUOUS
 10
7.2
 20
-19.1940095268
 40
42.5
100
AcDbArc
 50
110.5619240336
 51
113.5070804698
  0
ARC
  5
499
100
AcDbEntity
  8
ASSI
100
AcDbCircle
 62
7
  6
CONTINUOUS
 10
7.2
 20
-19.1940095268
 40
42.3952395088
100
AcDbArc
 50
110.5619240336
 51
113.5068422646
  0
ARC
  5
49A
100
AcDbEntity
  8
ASSI
100
AcDbCircle
 62
250
  6
CONTINUOUS
 10
7.2
 20
-19.1940095268
 40
41.8952585473
100
AcDbArc
 50
110.5619240336
 51
113.5050418928
  0
ARC
  5
49B
100
AcDbEntity
  8
ASSI
100
AcDbCircle
 62
7
  6
CONTINUOUS
 10
7.2
 20
-19.1940095268
 40
40.3749521765
100
AcDbArc
 50
110.5619225896
 51
114.1096775618
  0
ARC
  5
49C
100
AcDbEntity
  8
ASSI
100
AcDbCircle
 62
7
  6
CONTINUOUS
 10
7.2
 20
-19.1940095268
 40
40.1
100
AcDbArc
 50
110.5624789406
 51
114.1096775618
  0
ARC
  5
49D
100
AcDbEntity
  8
ASSI
100
AcDbCircle
 62
7
  6
CONTINUOUS
 10
-0.0
 20
-13.05
 40
8.400733353
100
AcDbArc
 50
257.3226226241
 51
261.5560123114
  0
ARC
  5
49E
100
AcDbEntity
  8
ASSI
100
AcDbCircle
 62
7
  6
CONTINUOUS
 10
-0.0
 20
-13.05
 40
8.400733353
100
AcDbArc
 50
278.4439876887
 51
282.6773773759
  0
ARC
  5
49F
100
AcDbEntity
  8
ASSI
100
AcDbCircle
 62
7
  6
CONTINUOUS
 10
-0.0
 20
-13.05
 40
8.2
100
AcDbArc
 50
257.2946153309
 51
282.7053846691
  0
ARC
  5
4A0
100
AcDbEntity
  8
RACCORDO
100
AcDbCircle
 62
7
  6
CONTINUOUS
 10
2.3829840104
 20
-2.9923689868
 40
1.9100698402
100
AcDbArc
 50
136.7125614477
 51
171.3336214491
  0
ARC
  5
4A1
100
AcDbEntity
  8
COPY-PUBBLISH
100
AcDbCircle
 62
7
  6
CONTINUOUS
 10
16.3
 20
-1.9142857143
 40
1.3142857143
100
AcDbArc
 50
120.4675837967
 51
140.0337869562
  0
ARC
  5
4A2
100
AcDbEntity
  8
ASSI
100
AcDbCircle
 62
7
  6
CONTINUOUS
 10
0.0
 20
-16.6312741346
 40
1.1
100
AcDbArc
 50
231.3210329455
 51
308.6789670545
  0
ARC
  5
4A3
100
AcDbEntity
  8
COPY-PUBBLISH
100
AcDbCircle
 62
7
  6
CONTINUOUS
 10
10.9335680868
 20
-1.7
 40
0.7
100
AcDbArc
 50
44.1843851533
 51
51.546163167
  0
ARC
  5
4A4
100
AcDbEntity
  8
ASSI
100
AcDbCircle
 62
7
  6
CONTINUOUS
 10
11.25
 20
-2.7977669667
 40
0.5
100
AcDbArc
 50
57.9740683498
 51
122.0259316502
  0
ARC
  5
4A5
100
AcDbEntity
  8
0
100
AcDbCircle
 62
7
  6
CONTINUOUS
 10
0.95
 20
-18.6568326776
 40
0.35
100
AcDbArc
 50
180.0
 51
270.0
  0
ARC
  5
4A6
100
AcDbEntity
  8
COPY-PUBBLISH
100
AcDbCircle
 62
7
  6
CONTINUOUS
 10
10.9335680868
 20
-1.7
 40
0.1
100
AcDbArc
 50
44.1843851533
 51
120.7535198081
  0
ARC
  5
4A7
100
AcDbEntity
  8
ASSI
100
AcDbCircle
 62
7
  6
CONTINUOUS
 10
-0.0
 20
0.0
 40
22.0
100
AcDbArc
 50
69.4380759664
 51
110.5619240336
  0
ARC
  5
4A8
100
AcDbEntity
  8
ASSI
100
AcDbCircle
 62
7
  6
CONTINUOUS
 10
0.0
 20
0.0
 40
22.0
100
AcDbArc
 50
249.4380759664
 51
290.5619240336
  0
ARC
  5
4A9
100
AcDbEntity
  8
ASSI
100
AcDbCircle
 62
7
  6
CONTINUOUS
 10
0.0
 20
0.0
 40
21.8952395089
100
AcDbArc
 50
249.4380759664
 51
290.5619240336
  0
ARC
  5
4AA
100
AcDbEntity
  8
ASSI
100
AcDbCircle
 62
7
  6
CONTINUOUS
 10
-0.0
 20
0.0
 40
21.8952395089
100
AcDbArc
 50
69.4380759664
 51
110.5619240336
  0
ARC
  5
4AB
100
AcDbEntity
  8
ASSI
100
AcDbCircle
 62
250
  6
CONTINUOUS
 10
0.0
 20
0.0
 40
21.3952585473
100
AcDbArc
 50
249.4380759664
 51
266.6946698382
  0
ARC
  5
4AC
100
AcDbEntity
  8
ASSI
100
AcDbCircle
 62
250
  6
CONTINUOUS
 10
-0.0
 20
0.0
 40
21.3952585473
100
AcDbArc
 50
69.4380759664
 51
86.6946698382
  0
ARC
  5
4AD
100
AcDbEntity
  8
ASSI
100
AcDbCircle
 62
250
  6
CONTINUOUS
 10
0.0
 20
0.0
 40
21.3952585473
100
AcDbArc
 50
273.3053301618
 51
290.5619240336
  0
ARC
  5
4AE
100
AcDbEntity
  8
ASSI
100
AcDbCircle
 62
250
  6
CONTINUOUS
 10
-0.0
 20
0.0
 40
21.3952585473
100
AcDbArc
 50
93.3053301618
 51
110.5619240336
  0
ARC
  5
4AF
100
AcDbEntity
  8
ASSI
100
AcDbCircle
 62
7
  6
CONTINUOUS
 10
-0.0
 20
0.0
 40
19.8749521903
100
AcDbArc
 50
249.4380788998
 51
264.6774970071
  0
ARC
  5
4B0
100
AcDbEntity
  8
ASSI
100
AcDbCircle
 62
7
  6
CONTINUOUS
 10
-0.0
 20
0.0
 40
19.8749521903
100
AcDbArc
 50
69.4380788998
 51
84.6774970071
  0
ARC
  5
4B1
100
AcDbEntity
  8
ASSI
100
AcDbCircle
 62
7
  6
CONTINUOUS
 10
-0.0
 20
0.0
 40
19.8749521903
100
AcDbArc
 50
275.3225029929
 51
290.5619211002
  0
ARC
  5
4B2
100
AcDbEntity
  8
ASSI
100
AcDbCircle
 62
7
  6
CONTINUOUS
 10
-0.0
 20
0.0
 40
19.8749521903
100
AcDbArc
 50
95.3225029929
 51
110.5619211002
  0
ARC
  5
4B3
100
AcDbEntity
  8
ASSI
100
AcDbCircle
 62
7
  6
CONTINUOUS
 10
-0.0
 20
0.0
 40
19.6000000138
100
AcDbArc
 50
69.4369406726
 51
84.7102228889
  0
ARC
  5
4B4
100
AcDbEntity
  8
ASSI
100
AcDbCircle
 62
7
  6
CONTINUOUS
 10
-0.0
 20
0.0
 40
19.6000000138
100
AcDbArc
 50
275.2897771111
 51
290.5630593274
  0
ARC
  5
4B5
100
AcDbEntity
  8
ASSI
100
AcDbCircle
 62
7
  6
CONTINUOUS
 10
-0.0
 20
0.0
 40
19.6000000138
100
AcDbArc
 50
249.4369406726
 51
264.7102228889
  0
ARC
  5
4B6
100
AcDbEntity
  8
ASSI
100
AcDbCircle
 62
7
  6
CONTINUOUS
 10
-0.0
 20
0.0
 40
19.6000000138
100
AcDbArc
 50
95.2897771111
 51
110.5630593274
  0
ARC
  5
4B7
100
AcDbEntity
  8
ASSI
100
AcDbCircle
 62
7
  6
CONTINUOUS
 10
-0.0
 20
13.05
 40
8.400733353
100
AcDbArc
 50
77.3226226241
 51
81.5560123114
  0
ARC
  5
4B8
100
AcDbEntity
  8
ASSI
100
AcDbCircle
 62
7
  6
CONTINUOUS
 10
-0.0
 20
13.05
 40
8.400733353
100
AcDbArc
 50
98.4439876887
 51
102.6773773759
  0
ARC
  5
4B9
100
AcDbEntity
  8
ASSI
100
AcDbCircle
 62
7
  6
CONTINUOUS
 10
-0.0
 20
13.05
 40
8.2
100
AcDbArc
 50
77.2946153309
 51
102.7053846691
  0
CIRCLE
  5
4BA
100
AcDbEntity
  8
ASSI
100
AcDbCircle
 62
250
  6
CONTINUOUS
 10
-0.0
 20
0.0
 40
3.3
  0
ARC
  5
4BB
100
AcDbEntity
  8
0
100
AcDbCircle
 62
250
  6
CONTINUOUS
 10
0.9
 20
0.1
 40
3.0679111138
100
AcDbArc
 50
146.207294711
 51
213.7588764212
  0
CIRCLE
  5
4BC
100
AcDbEntity
  8
ASSI
100
AcDbCircle
 62
7
  6
CONTINUOUS
 10
-0.0
 20
0.0
 40
2.8
  0
ARC
  5
4BD
100
AcDbEntity
  8
DRAFT
100
AcDbCircle
 62
7
  6
CONTINUOUS
 10
-0.0
 20
0.0
 40
2.75
100
AcDbArc
 50
69.0748922545
 51
290.4586640239
  0
ARC
  5
4BE
100
AcDbEntity
  8
0
100
AcDbCircle
 62
7
  6
CONTINUOUS
 10
0.9
 20
0.1
 40
2.6
100
AcDbArc
 50
118.0724869359
 51
223.1431545035
  0
ARC
  5
4BF
100
AcDbEntity
  8
ASSI
100
AcDbCircle
 62
7
  6
CONTINUOUS
 10
0.0
 20
16.7285679486
 40
1.1
100
AcDbArc
 50
45.9648830359
 51
134.0351169641
  0
ARC
  5
4C0
100
AcDbEntity
  8
ASSI
100
AcDbCircle
 62
7
  6
CONTINUOUS
 10
7.2
 20
19.1940095268
 40
42.5
100
AcDbArc
 50
246.4929195302
 51
249.4380759664
  0
ARC
  5
4C1
100
AcDbEntity
  8
ASSI
100
AcDbCircle
 62
7
  6
CONTINUOUS
 10
7.2
 20
19.1940095268
 40
42.3952395089
100
AcDbArc
 50
246.4931577354
 51
249.4380759664
  0
ARC
  5
4C2
100
AcDbEntity
  8
ASSI
100
AcDbCircle
 62
250
  6
CONTINUOUS
 10
7.2
 20
19.1940095268
 40
41.8952585473
100
AcDbArc
 50
246.4949644911
 51
249.4380759664
  0
ARC
  5
4C3
100
AcDbEntity
  8
ASSI
100
AcDbCircle
 62
7
  6
CONTINUOUS
 10
7.2
 20
19.1940095268
 40
40.3749521765
100
AcDbArc
 50
245.8903224382
 51
249.4380774104
  0
ARC
  5
4C4
100
AcDbEntity
  8
ASSI
100
AcDbCircle
 62
7
  6
CONTINUOUS
 10
7.2
 20
19.1940095268
 40
40.1
100
AcDbArc
 50
245.8903224382
 51
249.4375210594
  0
ARC
  5
4C5
100
AcDbEntity
  8
0
100
AcDbCircle
 62
7
  6
CONTINUOUS
 10
0.95
 20
18.9
 40
0.35
100
AcDbArc
 50
90.0
 51
180.0
  0
ARC
  5
4C6
100
AcDbEntity
  8
COPY-PUBBLISH
100
AcDbCircle
 62
7
  6
CONTINUOUS
 10
9.2972612696
 20
1.05
 40
3.8061303549
100
AcDbArc
 50
273.011780007
 51
291.390996375
  0
ARC
  5
4C7
100
AcDbEntity
  8
COPY-PUBBLISH
100
AcDbCircle
 62
7
  6
CONTINUOUS
 10
13.3
 20
0.6
 40
3.4465036891
100
AcDbArc
 50
235.9146956199
 51
256.4940139
  0
ARC
  5
4C8
100
AcDbEntity
  8
COPY-PUBBLISH
100
AcDbCircle
 62
7
  6
CONTINUOUS
 10
9.2972612696
 20
1.05
 40
3.3465036891
100
AcDbArc
 50
240.8968082337
 51
291.390996375
  0
ARC
  5
4C9
100
AcDbEntity
  8
ASSI
100
AcDbCircle
 62
250
  6
CONTINUOUS
 10
13.0
 20
0.0
 40
3.3
100
AcDbArc
 50
237.9740683498
 51
122.0259316502
  0
ARC
  5
4CA
100
AcDbEntity
  8
ASSI
100
AcDbCircle
 62
250
  6
CONTINUOUS
 10
9.5
 20
0.0
 40
3.3
100
AcDbArc
 50
57.9740683498
 51
302.0259316502
  0
ARC
  5
4CB
100
AcDbEntity
  8
COPY-PUBBLISH
100
AcDbCircle
 62
7
  6
CONTINUOUS
 10
13.3
 20
0.6
 40
3.2
100
AcDbArc
 50
224.1843851533
 51
231.6285074105
  0
ARC
  5
4CC
100
AcDbEntity
  8
COPY-PUBBLISH
100
AcDbCircle
 62
7
  6
CONTINUOUS
 10
9.2972612696
 20
1.05
 40
3.1
100
AcDbArc
 50
295.8364640574
 51
300.7535198081
  0
ARC
  5
4CD
100
AcDbEntity
  8
DRAFT
100
AcDbCircle
 62
250
  6
CONTINUOUS
 10
12.9975959316
 20
0.25
 40
3.0052361211
100
AcDbArc
 50
270.0
 51
271.0832177656
  0
ARC
  5
4CE
100
AcDbEntity
  8
DRAFT
100
AcDbCircle
 62
7
  6
CONTINUOUS
 10
12.9975959316
 20
0.25
 40
3.0052361207
100
AcDbArc
 50
271.0832177656
 51
303.9183309565
  0
ARC
  5
4CF
100
AcDbEntity
  8
ASSI
100
AcDbCircle
 62
7
  6
CONTINUOUS
 10
13.0
 20
0.0
 40
2.8
100
AcDbArc
 50
237.9740683498
 51
122.0259316502
  0
ARC
  5
4D0
100
AcDbEntity
  8
ASSI
100
AcDbCircle
 62
7
  6
CONTINUOUS
 10
9.5
 20
0.0
 40
2.8
100
AcDbArc
 50
57.9740683498
 51
302.0259316502
  0
ARC
  5
4D1
100
AcDbEntity
  8
COPY-PUBBLISH
100
AcDbCircle
 62
250
  6
CONTINUOUS
 10
13.3
 20
0.6
 40
2.7871644455
100
AcDbArc
 50
235.1468893548
 51
320.0337869562
  0
ARC
  5
4D2
100
AcDbEntity
  8
DRAFT
100
AcDbCircle
 62
7
  6
CONTINUOUS
 10
13.0
 20
0.0
 40
2.7552361207
100
AcDbArc
 50
271.1315148805
 51
26.4416971105
  0
ARC
  5
4D3
100
AcDbEntity
  8
DRAFT
100
AcDbCircle
 62
7
  6
CONTINUOUS
 10
13.0
 20
0.0
 40
2.75
100
AcDbArc
 50
270.0
 51
26.3275850495
  0
ARC
  5
4D4
100
AcDbEntity
  8
DRAFT
100
AcDbCircle
 62
7
  6
CONTINUOUS
 10
9.5
 20
0.0
 40
2.75
100
AcDbArc
 50
217.3794438002
 51
270.0
  0
ARC
  5
4D5
100
AcDbEntity
  8
COPY-PUBBLISH
100
AcDbCircle
 62
250
  6
CONTINUOUS
 10
9.2972612696
 20
1.05
 40
2.6871644455
100
AcDbArc
 50
246.8068690596
 51
292.1873351663
  0
ARC
  5
4D6
100
AcDbEntity
  8
COPY-PUBBLISH
100
AcDbCircle
 62
7
  6
CONTINUOUS
 10
13.3
 20
0.6
 40
2.6
100
AcDbArc
 50
224.1843851533
 51
320.0337869562
  0
ARC
  5
4D7
100
AcDbEntity
  8
COPY-PUBBLISH
100
AcDbCircle
 62
7
  6
CONTINUOUS
 10
9.2972612696
 20
1.05
 40
2.5
100
AcDbArc
 50
269.3008392464
 51
286.7523651916
  0
ARC
  5
4D8
100
AcDbEntity
  8
COPY-PUBBLISH
100
AcDbCircle
 62
7
  6
CONTINUOUS
 10
9.2972612696
 20
1.05
 40
2.5
100
AcDbArc
 50
259.7600347794
 51
265.7238352457
  0
ARC
  5
4D9
100
AcDbEntity
  8
COPY-PUBBLISH
100
AcDbCircle
 62
7
  6
CONTINUOUS
 10
16.3
 20
1.9142857143
 40
1.3142857143
100
AcDbArc
 50
226.40946561
 51
239.5324162033
  0
ARC
  5
4DA
100
AcDbEntity
  8
ASSI
100
AcDbCircle
 62
7
  6
CONTINUOUS
 10
11.25
 20
2.7977669667
 40
0.5
100
AcDbArc
 50
237.9740683498
 51
302.0259316502
  0
ARC
  5
4DB
100
AcDbEntity
  8
0
100
AcDbCircle
 62
7
  6
CONTINUOUS
 10
15.37
 20
37.45
 40
62.5
100
AcDbArc
 50
230.5131967857
 51
246.3000843995
  0
ARC
  5
4DC
100
AcDbEntity
  8
0
100
AcDbCircle
 62
7
  6
CONTINUOUS
 10
15.37
 20
37.45
 40
62.3952395089
100
AcDbArc
 50
230.4338887444
 51
246.299922484
  0
ARC
  5
4DD
100
AcDbEntity
  8
ASSI
100
AcDbCircle
 62
250
  6
CONTINUOUS
 10
15.37
 20
37.45
 40
61.8952585473
100
AcDbArc
 50
230.625811665
 51
246.2995844628
  0
ARC
  5
4DE
100
AcDbEntity
  8
ASSI
100
AcDbCircle
 62
7
  6
CONTINUOUS
 10
15.37
 20
37.45
 40
60.3757007155
100
AcDbArc
 50
231.3054854588
 51
245.8903224382
  0
ARC
  5
4DF
100
AcDbEntity
  8
ASSI
100
AcDbCircle
 62
7
  6
CONTINUOUS
 10
15.37
 20
37.45
 40
60.100748539
100
AcDbArc
 50
231.4312585871
 51
245.8903224382
  0
ELLIPSE
  5
4E0
100
AcDbEntity
  8
DRAFT
100
AcDbEllipse
 62
7
  6
CONTINUOUS
 10
-13.1339808304
 20
-1.818532795
 30
0.0
 11
-0.1529661536
 21
2.7075226544
 31
0.0
 40
0.980875985
 41
1.053552874
 42
1.1768382226
  0
ELLIPSE
  5
4E1
100
AcDbEntity
  8
DRAFT
100
AcDbEllipse
 62
7
  6
CONTINUOUS
 10
12.6466078864
 20
1.818532795
 30
0.0
 11
2.7313043067
 21
0.2524591722
 31
0.0
 40
0.9885017812
 41
-0.5551195811
 42
-0.2138249842
  0
ELLIPSE
  5
4E2
100
AcDbEntity
  8
0
100
AcDbEllipse
 62
7
  6
CONTINUOUS
 10
12.6549429696
 20
1.8196906518
 30
0.0
 11
2.4298132893
 21
0.2289778642
 31
0.0
 40
0.9880445209
 41
-0.5975321046
 42
-0.079520744
  0
ELLIPSE
  5
4E3
100
AcDbEntity
  8
0
100
AcDbEllipse
 62
7
  6
CONTINUOUS
 10
-13.1420602056
 20
-1.8196906518
 30
0.0
 11
-0.131063907
 21
2.4082265435
 31
0.0
 40
0.9813251951
 41
1.0149973006
 42
1.3144301479
  0
ELLIPSE
  5
4E4
100
AcDbEntity
  8
0
100
AcDbEllipse
 62
7
  6
CONTINUOUS
 10
-9.7398097583
 20
-1.3321134757
 30
0.0
 11
-0.1251471062
 21
2.2995086134
 31
0.0
 40
0.9813251951
 41
-1.9393076596
 42
-1.8707180452
  0
ELLIPSE
  5
4E5
100
AcDbEntity
  8
0
100
AcDbEllipse
 62
7
  6
CONTINUOUS
 10
12.5831647569
 20
1.5723230369
 30
0.0
 11
-1.6950329137
 21
1.7115867097
 31
0.0
 40
0.9499595428
 41
-2.7251741508
 42
-2.094050157
  0
ELLIPSE
  5
4E6
100
AcDbEntity
  8
DRAFT
100
AcDbEllipse
 62
7
  6
CONTINUOUS
 10
12.5975491328
 20
1.7623894611
 30
0.0
 11
-2.0385778325
 21
1.8722648867
 31
0.0
 40
0.9513282595
 41
2.4781927256
 42
3.4677107247
  0
ELLIPSE
  5
4E7
100
AcDbEntity
  8
DRAFT
100
AcDbEllipse
 62
7
  6
CONTINUOUS
 10
8.7340772269
 20
-4.535757828
 30
0.0
 11
-2.3748326203
 21
2.1810870578
 31
0.0
 40
0.9513282595
 41
-1.0022848045
 42
-0.3683901747
  0
ELLIPSE
  5
4E8
100
AcDbEntity
  8
0
100
AcDbEllipse
 62
7
  6
CONTINUOUS
 10
-9.6794232345
 20
-1.0852171835
 30
0.0
 11
1.4291322305
 21
1.918099901
 31
0.0
 40
0.9499803279
 41
-1.3979921311
 42
-1.3062769792
  0
ELLIPSE
  5
4E9
100
AcDbEntity
  8
0
100
AcDbEllipse
 62
7
  6
CONTINUOUS
 10
-13.1321725337
 20
-1.5723230369
 30
0.0
 11
1.4291322305
 21
1.918099901
 31
0.0
 40
0.9499803279
 41
-4.4959295765
 42
-4.173296715
  0
ELLIPSE
  5
4EA
100
AcDbEntity
  8
DRAFT
100
AcDbEllipse
 62
7
  6
CONTINUOUS
 10
-13.1651657526
 20
-1.7623894611
 30
0.0
 11
1.7488821333
 21
2.1227058565
 31
0.0
 40
0.9500385019
 41
0.8037196571
 42
1.7932376561
  0
ELLIPSE
  5
4EB
100
AcDbEntity
  8
DRAFT
100
AcDbEllipse
 62
7
  6
CONTINUOUS
 10
-8.7323461731
 20
4.535757828
 30
0.0
 11
2.0373528413
 21
2.4728372058
 31
0.0
 40
0.9500385019
 41
-2.676757873
 42
-1.99898812
  0
ELLIPSE
  5
4EC
100
AcDbEntity
  8
DRAFT
100
AcDbEllipse
 62
7
  6
CONTINUOUS
 10
-0.0
 20
-18.8423253088
 30
0.0
 11
2.75
 21
0.0
 31
0.0
 40
0.0087268678
 41
-1.8168494168
 42
-1.3247432368
  0
ELLIPSE
  5
4ED
100
AcDbEntity
  8
0
100
AcDbEllipse
 62
7
  6
CONTINUOUS
 10
-0.95
 20
-18.0673041954
 30
0.0
 11
-0.0
 21
6.1512089616
 31
0.0
 40
0.0568993839
 41
-1.5707963268
 42
-1.4868977864
  0
ELLIPSE
  5
4EE
100
AcDbEntity
  8
0
100
AcDbEllipse
 62
7
  6
CONTINUOUS
 10
0.95
 20
-18.0673041954
 30
0.0
 11
-0.0
 21
6.1512089616
 31
0.0
 40
0.0568993839
 41
1.4868977864
 42
1.5707963268
  0
ELLIPSE
  5
4EF
100
AcDbEntity
  8
0
100
AcDbEllipse
 62
7
  6
CONTINUOUS
 10
-0.95
 20
18.0674322765
 30
0.0
 11
-0.0
 21
5.7918801557
 31
0.0
 40
0.0604294272
 41
-1.6431425961
 42
-1.5707963268
  0
ELLIPSE
  5
4F0
100
AcDbEntity
  8
0
100
AcDbEllipse
 62
7
  6
CONTINUOUS
 10
0.95
 20
18.0674322765
 30
0.0
 11
-0.0
 21
5.7918801557
 31
0.0
 40
0.0604294272
 41
1.5707963268
 42
1.6431425961
  0
ENDSEC
  0
SECTION
  2
OBJECTS
  0
DICTIONARY
  5
C
100
AcDbDictionary
280
0
281
1
  3
ACAD_GROUP
350
D
  3
ACAD_MLINESTYLE
350
17
  3
ACAD_LAYOUT
350
1A
  3
ACAD_PLOTSETTINGS
350
19
  3
ACAD_PLOTSTYLENAME
350
E
  0
DICTIONARY
  5
D
102
{ACAD_REACTORS
330
C
102
}
100
AcDbDictionary
280
0
281
1
  0
ACDBDICTIONARYWDFLT
  5
E
102
{ACAD_REACTORS
330
C
102
}
100
AcDbDictionary
281
1
  3
Normal
350
F
100
AcDbDictionaryWithDefault
340
F
  0
DICTIONARY
  5
17
102
{ACAD_REACTORS
330
C
102
}
100
AcDbDictionary
280
0
281
1
  3
Standard
350
18
  0
DICTIONARY
  5
19
102
{ACAD_REACTORS
330
C
102
}
100
AcDbDictionary
281
1
  0
DICTIONARY
  5
1A
102
{ACAD_REACTORS
330
C
102
}
100
AcDbDictionary
281
1
  3
Model
350
4F1
  3
Layout1
350
4F2
  0
ACDBPLACEHOLDER
  5
F
102
{ACAD_REACTORS
330
E
102
}
  0
MLINESTYLE
  5
18
102
{ACAD_REACTORS
330
17
102
}
100
AcDbMlineStyle
  2
STANDARD
 70
0
  3

 62
256
 51
90.0
 52
90.0
 71
2
 49
0.5
 62
256
  6
BYLAYER
 49
-0.5
 62
256
  6
BYLAYER
  0
LAYOUT
  5
4F1
102
{ACAD_REACTORS
330
1A
102
}
100
AcDbPlotSettings
  1

  2
none_device
  4
ISO_A4_(297.00_x_210.00_MM)
  6

 40
0.0
 41
0.0
 42
0.0
 43
0.0
 44
297.0
 45
210.0
 46
0.0
 47
0.0
 48
0.0
 49
0.0
140
0.0
141
0.0
142
1.0
143
1.0
 70
1024
 72
1
 73
0
 74
0
  7

 75
0
147
1.0
148
0.0
149
0.0
100
AcDbLayout
  1
Model
 70
0
 71
0
 10
0.0
 20
0.0
 11
297.0
 21
210.0
 12
0.0
 22
0.0
 32
0.0
 14
0.0
 24
0.0
 34
0.0
 15
0.0
 25
0.0
 35
0.0
146
0.0
 13
0.0
 23
0.0
 33
0.0
 16
1.0
 26
0.0
 36
0.0
 17
0.0
 27
1.0
 37
0.0
 76
0
330
21E
345
0
346
0
  0
LAYOUT
  5
4F2
102
{ACAD_REACTORS
330
1A
102
}
100
AcDbPlotSettings
  1

  2
none_device
  4
ISO_A4_(297.00_x_210.00_MM)
  6

 40
0.0
 41
0.0
 42
0.0
 43
0.0
 44
297.0
 45
210.0
 46
0.0
 47
0.0
 48
0.0
 49
0.0
140
0.0
141
0.0
142
1.0
143
1.0
 70
0
 72
1
 73
0
 74
0
  7

 75
0
147
1.0
148
0.0
149
0.0
100
AcDbLayout
  1
Layout1
 70
0
 71
1
 10
0.0
 20
0.0
 11
297.0
 21
210.0
 12
0.0
 22
0.0
 32
0.0
 14
0.0
 24
0.0
 34
0.0
 15
0.0
 25
0.0
 35
0.0
146
0.0
 13
0.0
 23
0.0
 33
0.0
 16
1.0
 26
0.0
 36
0.0
 17
0.0
 27
1.0
 37
0.0
 76
0
330
21F
345
0
346
0
  0
ENDSEC
  0
EOF
