  0
SECTION
  2
HEADER
  9
$ACADVER
  1
AC1024
  9
$DWGCODEPAGE
  3
ANSI_1252
  9
$EXTMAX
 10
297.0
 20
210.0
 30
0.0
  9
$EXTMIN
 10
0.0
 20
0.0
 30
0.0
  9
$LIMMIN
 10
0.0
 20
0.0
  9
$LIMMAX
 10
297.0
 20
210.0
  9
$VIEWCTR
 10
148.5
 20
105.0
  9
$VIEWSIZE
 40
210.0
  9
$CLAYER
  8
0
  9
$LTSCALE
 40
16.335
  9
$CELTYPE
  6
BYLAYER
  9
$DIMSCALE
 40
1.0
  9
$DIMASZ
 40
3.0
  9
$DIMEXO
 40
0.5
  9
$DIMDLI
 40
11.286
  9
$DIMEXE
 40
1.5
  9
$DIMCEN
 40
2.673
  9
$DIMLFAC
 40
1.0
  9
$DIMBLK
  1
_FILLED
  9
$DIMALT
 70
0
  9
$DIMALTF
 40
0.0393700787
  9
$DIMTXT
 40
3.0
  9
$DIMTOL
 70
1
  9
$DIMLIM
 70
0
  9
$DIMTFAC
 40
1.0
  9
$DIMTP
 40
0.01
  9
$DIMTM
 40
0.01
  9
$DIMGAP
 40
0.625
  9
$DIMDSEP
 70
44
  9
$AUNITS
 70
0
  9
$PDMODE
 70
3
  9
$PDSIZE
 40
3.0
  9
$HANDSEED
  5
3AF
  9
$TILEMODE
 70
1
  9
$MEASUREMENT
 70
1
  9
$INSUNITS
 70
4
  0
ENDSEC
  0
SECTION
  2
CLASSES
  0
CLASS
  1
ACDBDICTIONARYWDFLT
  2
AcDbDictionaryWithDefault
  3
AutoCAD 2000
 90
0
 91
1
280
0
281
0
  0
CLASS
  1
ACDBPLACEHOLDER
  2
AcDbPlaceHolder
  3
AutoCAD 2000
 90
0
 91
1
280
0
281
0
  0
CLASS
  1
LAYOUT
  2
AcDbLayout
  3
AutoCAD 2000
 90
0
 91
0
280
0
281
0
  0
ENDSEC
  0
SECTION
  2
TABLES
  0
TABLE
  2
VPORT
  5
8
100
AcDbSymbolTable
 70
2
  0
VPORT
  5
1F4
100
AcDbSymbolTableRecord
100
AcDbViewportTableRecord
  2
*ACTIVE
 70
0
 10
0.0
 20
0.0
 11
1.0
 21
1.0
 12
148.5
 22
105.0
 13
0.0
 23
0.0
 14
1.0
 24
1.0
 15
0.0
 25
0.0
 16
0.0
 26
0.0
 36
1.0
 17
0.0
 27
0.0
 37
0.0
 40
210.0
 41
1.4142857143
 42
50.0
 43
0.0
 44
0.0
 50
0.0
 51
0.0
 71
0
 72
100
 73
1
 74
1
 75
0
 76
0
 77
0
 78
0
  0
ENDTAB
  0
TABLE
  2
LTYPE
  5
5
100
AcDbSymbolTable
 70
6
  0
LTYPE
  5
14
100
AcDbSymbolTableRecord
100
AcDbLinetypeTableRecord
  2
BYBLOCK
 70
0
  3

 72
65
 73
0
 40
0.0
  0
LTYPE
  5
15
100
AcDbSymbolTableRecord
100
AcDbLinetypeTableRecord
  2
BYLAYER
 70
0
  3

 72
65
 73
0
 40
0.0
  0
LTYPE
  5
16
100
AcDbSymbolTableRecord
100
AcDbLinetypeTableRecord
  2
CONTINUOUS
 70
64
  3
Solid line
 72
65
 73
0
 40
0.0
  0
LTYPE
  5
1F5
100
AcDbSymbolTableRecord
100
AcDbLinetypeTableRecord
  2
CENTER
 70
64
  3
____ _ ____ _ ____ _ ____ _ ____ _ ____ _ ____
 72
65
 73
4
 40
0.6
 49
0.375
 74
0
 49
-0.075
 74
0
 49
0.075
 74
0
 49
-0.075
 74
0
  0
LTYPE
  5
1F6
100
AcDbSymbolTableRecord
100
AcDbLinetypeTableRecord
  2
HIDDEN
 70
64
  3
- - - - - - - - - - - - - - - - - - - -
 72
65
 73
2
 40
0.2
 49
0.1
 74
0
 49
-0.1
 74
0
  0
LTYPE
  5
1F7
100
AcDbSymbolTableRecord
100
AcDbLinetypeTableRecord
  2
PHANTOM
 70
64
  3
_____ _ _ _____ _ _ _____ _ _ _____
 72
65
 73
6
 40
0.8
 49
0.45
 74
0
 49
-0.05
 74
0
 49
0.1
 74
0
 49
-0.05
 74
0
 49
0.1
 74
0
 49
-0.05
 74
0
  0
LTYPE
  5
1F8
100
AcDbSymbolTableRecord
100
AcDbLinetypeTableRecord
  2
DOT
 70
64
  3
. . . . . . . . . . . . . . . . . . . .
 72
65
 73
2
 40
0.2
 49
0.1
 74
0
 49
-0.1
 74
0
  0
LTYPE
  5
1F9
100
AcDbSymbolTableRecord
100
AcDbLinetypeTableRecord
  2
DASHED
 70
64
  3
- - - - - - - - - - - - - - - - - - - -
 72
65
 73
2
 40
0.2
 49
0.1
 74
0
 49
-0.1
 74
0
  0
ENDTAB
  0
TABLE
  2
LAYER
  5
2
100
AcDbSymbolTable
 70
36
  0
LAYER
  5
10
100
AcDbSymbolTableRecord
100
AcDbLayerTableRecord
  2
0
 70
0
 62
7
  6
CONTINUOUS
370
-3
390
F
  0
LAYER
  5
1FA
100
AcDbSymbolTableRecord
100
AcDbLayerTableRecord
  2
DEFAULT_1
 70
0
 62
7
  6
CENTER
370
-3
390
F
  0
LAYER
  5
1FB
100
AcDbSymbolTableRecord
100
AcDbLayerTableRecord
  2
DEFAULT_2
 70
0
 62
7
  6
HIDDEN
370
-3
390
F
  0
LAYER
  5
1FC
100
AcDbSymbolTableRecord
100
AcDbLayerTableRecord
  2
DEFAULT_3
 70
0
 62
7
  6
PHANTOM
370
-3
390
F
  0
LAYER
  5
1FD
100
AcDbSymbolTableRecord
100
AcDbLayerTableRecord
  2
ALTRI_PIANI
 70
0
 62
7
  6
CONTINUOUS
370
-3
390
F
  0
LAYER
  5
1FE
100
AcDbSymbolTableRecord
100
AcDbLayerTableRecord
  2
ASSI
 70
0
 62
7
  6
CONTINUOUS
370
-3
390
F
  0
LAYER
  5
1FF
100
AcDbSymbolTableRecord
100
AcDbLayerTableRecord
  2
COLOR5
 70
0
 62
7
  6
CONTINUOUS
370
-3
390
F
  0
LAYER
  5
200
100
AcDbSymbolTableRecord
100
AcDbLayerTableRecord
  2
COORDINATE
 70
0
 62
7
  6
CONTINUOUS
370
-3
390
F
  0
LAYER
  5
201
100
AcDbSymbolTableRecord
100
AcDbLayerTableRecord
  2
COORD_ORIGINE
 70
0
 62
7
  6
CONTINUOUS
370
-3
390
F
  0
LAYER
  5
202
100
AcDbSymbolTableRecord
100
AcDbLayerTableRecord
  2
COSMETICHE
 70
0
 62
7
  6
CONTINUOUS
370
-3
390
F
  0
LAYER
  5
203
100
AcDbSymbolTableRecord
100
AcDbLayerTableRecord
  2
COSMETICI
 70
0
 62
7
  6
CONTINUOUS
370
-3
390
F
  0
LAYER
  5
204
100
AcDbSymbolTableRecord
100
AcDbLayerTableRecord
  2
CURVE
 70
0
 62
7
  6
CONTINUOUS
370
-3
390
F
  0
LAYER
  5
205
100
AcDbSymbolTableRecord
100
AcDbLayerTableRecord
  2
DRAFT
 70
0
 62
7
  6
CONTINUOUS
370
-3
390
F
  0
LAYER
  5
206
100
AcDbSymbolTableRecord
100
AcDbLayerTableRecord
  2
IGES
 70
0
 62
7
  6
CONTINUOUS
370
-3
390
F
  0
LAYER
  5
207
100
AcDbSymbolTableRecord
100
AcDbLayerTableRecord
  2
INTF_1
 70
0
 62
7
  6
CONTINUOUS
370
-3
390
F
  0
LAYER
  5
208
100
AcDbSymbolTableRecord
100
AcDbLayerTableRecord
  2
INTF_11
 70
0
 62
7
  6
CONTINUOUS
370
-3
390
F
  0
LAYER
  5
209
100
AcDbSymbolTableRecord
100
AcDbLayerTableRecord
  2
INTF_12
 70
0
 62
7
  6
CONTINUOUS
370
-3
390
F
  0
LAYER
  5
20A
100
AcDbSymbolTableRecord
100
AcDbLayerTableRecord
  2
INTF_2
 70
0
 62
7
  6
CONTINUOUS
370
-3
390
F
  0
LAYER
  5
20B
100
AcDbSymbolTableRecord
100
AcDbLayerTableRecord
  2
INTF_YELLOW
 70
0
 62
7
  6
CONTINUOUS
370
-3
390
F
  0
LAYER
  5
20C
100
AcDbSymbolTableRecord
100
AcDbLayerTableRecord
  2
NOTE
 70
0
 62
7
  6
CONTINUOUS
370
-3
390
F
  0
LAYER
  5
20D
100
AcDbSymbolTableRecord
100
AcDbLayerTableRecord
  2
PIANI
 70
0
 62
7
  6
CONTINUOUS
370
-3
390
F
  0
LAYER
  5
20E
100
AcDbSymbolTableRecord
100
AcDbLayerTableRecord
  2
PIANI_ORIGINE
 70
0
 62
7
  6
CONTINUOUS
370
-3
390
F
  0
LAYER
  5
20F
100
AcDbSymbolTableRecord
100
AcDbLayerTableRecord
  2
PIANI_SFORMI
 70
0
 62
7
  6
CONTINUOUS
370
-3
390
F
  0
LAYER
  5
210
100
AcDbSymbolTableRecord
100
AcDbLayerTableRecord
  2
PUNTI
 70
0
 62
7
  6
CONTINUOUS
370
-3
390
F
  0
LAYER
  5
211
100
AcDbSymbolTableRecord
100
AcDbLayerTableRecord
  2
RACCORDO
 70
0
 62
7
  6
CONTINUOUS
370
-3
390
F
  0
LAYER
  5
212
100
AcDbSymbolTableRecord
100
AcDbLayerTableRecord
  2
RGB__255__255__255__
 70
0
 62
7
  6
CONTINUOUS
370
-3
390
F
  0
LAYER
  5
213
100
AcDbSymbolTableRecord
100
AcDbLayerTableRecord
  2
RGB____0____0____0__
 70
0
 62
7
  6
CONTINUOUS
370
-3
390
F
  0
LAYER
  5
214
100
AcDbSymbolTableRecord
100
AcDbLayerTableRecord
  2
SIMBOLI
 70
0
 62
7
  6
CONTINUOUS
370
-3
390
F
  0
LAYER
  5
215
100
AcDbSymbolTableRecord
100
AcDbLayerTableRecord
  2
SMUSSO
 70
0
 62
7
  6
CONTINUOUS
370
-3
390
F
  0
LAYER
  5
216
100
AcDbSymbolTableRecord
100
AcDbLayerTableRecord
  2
SNAPLINE
 70
0
 62
7
  6
CONTINUOUS
370
-3
390
F
  0
LAYER
  5
217
100
AcDbSymbolTableRecord
100
AcDbLayerTableRecord
  2
SUPERFICI
 70
0
 62
7
  6
CONTINUOUS
370
-3
390
F
  0
LAYER
  5
218
100
AcDbSymbolTableRecord
100
AcDbLayerTableRecord
  2
TRASH
 70
0
 62
7
  6
CONTINUOUS
370
-3
390
F
  0
LAYER
  5
219
100
AcDbSymbolTableRecord
100
AcDbLayerTableRecord
  2
XSEC_DATUMS
 70
0
 62
7
  6
CONTINUOUS
370
-3
390
F
  0
ENDTAB
  0
TABLE
  2
STYLE
  5
3
100
AcDbSymbolTable
 70
1
  0
STYLE
  5
11
100
AcDbSymbolTableRecord
100
AcDbTextStyleTableRecord
  2
STANDARD
 70
0
 40
0.0
 41
0.8
 50
0.0
 71
0
 42
0.2
  3
txt
  4

  0
STYLE
  5
21A
100
AcDbSymbolTableRecord
100
AcDbTextStyleTableRecord
  2
TEXTSTYLE_1
 70
0
 40
0.0
 41
0.8
 50
0.0
 71
0
 42
0.2
  3
gdt
  4

  0
ENDTAB
  0
TABLE
  2
VIEW
  5
6
100
AcDbSymbolTable
 70
0
  0
ENDTAB
  0
TABLE
  2
UCS
  5
7
100
AcDbSymbolTable
 70
0
  0
ENDTAB
  0
TABLE
  2
APPID
  5
9
100
AcDbSymbolTable
 70
1
  0
APPID
  5
21B
100
AcDbSymbolTableRecord
100
AcDbRegAppTableRecord
  2
ACAD
 70
0
  0
ENDTAB
  0
TABLE
  2
BLOCK_RECORD
  5
1
100
AcDbSymbolTable
 70
0
  0
BLOCK_RECORD
  5
21C
100
AcDbSymbolTableRecord
100
AcDbBlockTableRecord
  2
*Model_Space
  0
BLOCK_RECORD
  5
21D
100
AcDbSymbolTableRecord
100
AcDbBlockTableRecord
  2
*Paper_Space
  0
BLOCK_RECORD
  5
21E
100
AcDbSymbolTableRecord
100
AcDbBlockTableRecord
  2
_FILLED
  0
ENDTAB
  0
TABLE
  2
DIMSTYLE
  5
A
100
AcDbSymbolTable
 70
1
100
AcDbDimStyleTable
 71
0
  0
DIMSTYLE
105
21F
100
AcDbSymbolTableRecord
100
AcDbDimStyleTableRecord
  2
STANDARD
 70
0
  3

  4

 40
1.0
 41
3.0
 42
0.5
 43
0.38
 44
1.5
 45
0.0
 46
0.0
 47
0.01
 48
0.01
140
3.0
141
0.09
142
0.0
143
25.4
144
1.0
145
0.0
146
1.0
147
0.625
 71
1
 72
0
 73
0
 74
0
 75
0
 76
0
 77
1
 78
8
 79
2
170
0
171
1
172
0
173
0
174
0
175
0
176
0
177
0
178
0
270
2
179
2
271
2
272
2
273
2
274
2
275
0
280
0
281
0
282
0
283
1
284
8
285
0
286
0
287
3
288
0
340
11
278
44
341
21E
342
21E
343
21E
344
21E
  0
ENDTAB
  0
ENDSEC
  0
SECTION
  2
BLOCKS
  0
BLOCK
  5
20
100
AcDbEntity
  8
0
100
AcDbBlockBegin
  2
*Model_Space
 70
0
 10
0.0
 20
0.0
 30
0.0
  3
*Model_Space
  1

  0
ENDBLK
  5
21
100
AcDbEntity
  8
0
100
AcDbBlockEnd
  0
BLOCK
  5
1C
100
AcDbEntity
  8
0
100
AcDbBlockBegin
  2
*Paper_Space
 70
0
 10
0.0
 20
0.0
 30
0.0
  3
*Paper_Space
  1

  0
ENDBLK
  5
1D
100
AcDbEntity
  8
0
100
AcDbBlockEnd
  0
BLOCK
  5
220
100
AcDbEntity
  8
0
100
AcDbBlockBegin
  2
_FILLED
 70
64
 10
0.0
 20
0.0
  3
_FILLED
  1

  0
SOLID
  5
221
100
AcDbEntity
  8
0
  6
BYBLOCK
 62
0
100
AcDbTrace
 10
0.0
 20
0.0
 11
-1.0
 21
0.3166666667
 12
-1.0
 22
-0.3166666667
 13
-1.0
 23
-0.3166666667
  0
ENDBLK
  5
222
100
AcDbEntity
  8
0
  6
BYBLOCK
 62
0
100
AcDbBlockEnd
  0
ENDSEC
  0
SECTION
  2
ENTITIES
  0
LINE
  5
223
100
AcDbEntity
  8
RACCORDO
100
AcDbLine
 62
7
  6
CONTINUOUS
 10
-16.12
 20
-8.3287047434
 11
-16.12
 21
-2.099983353
  0
LINE
  5
224
100
AcDbEntity
  8
RACCORDO
100
AcDbLine
 62
7
  6
CONTINUOUS
 10
-16.12
 20
2.100016647
 11
-16.12
 21
8.3287380375
  0
LINE
  5
225
100
AcDbEntity
  8
0
100
AcDbLine
 62
7
  6
CONTINUOUS
 10
-13.265359908
 20
9.0327646412
 11
-13.2750296303
 21
9.0195535958
  0
LINE
  5
226
100
AcDbEntity
  8
0
100
AcDbLine
 62
7
  6
CONTINUOUS
 10
-13.2650841403
 20
9.0310190645
 11
-13.2748315408
 21
9.0183097542
  0
LINE
  5
227
100
AcDbEntity
  8
DRAFT
100
AcDbLine
 62
7
  6
CONTINUOUS
 10
1.85
 20
18.2062655743
 11
1.699897874
 21
18.1605921804
  0
LINE
  5
228
100
AcDbEntity
  8
DRAFT
100
AcDbLine
 62
7
  6
CONTINUOUS
 10
1.699897874
 20
-16.2843771169
 11
-1.699897874
 21
-16.2843771169
  0
LINE
  5
229
100
AcDbEntity
  8
DRAFT
100
AcDbLine
 62
7
  6
CONTINUOUS
 10
1.85
 20
-18.2062322802
 11
1.699897874
 21
-18.1605588863
  0
LINE
  5
22A
100
AcDbEntity
  8
0
100
AcDbLine
 62
7
  6
CONTINUOUS
 10
-13.2751050712
 20
-9.018087295
 11
-13.2654292561
 21
-9.0307771711
  0
LINE
  5
22B
100
AcDbEntity
  8
0
100
AcDbLine
 62
7
  6
CONTINUOUS
 10
-13.2752797774
 20
-9.0191783433
 11
-13.265672208
 21
-9.0323057531
  0
LINE
  5
22C
100
AcDbEntity
  8
0
100
AcDbLine
 62
7
  6
CONTINUOUS
 10
-13.7339745962
 20
-9.399983353
 11
-13.7339745962
 21
-8.949983353
  0
LINE
  5
22D
100
AcDbEntity
  8
0
100
AcDbLine
 62
7
  6
CONTINUOUS
 10
-13.7339745962
 20
-8.449983353
 11
-13.7339745962
 21
8.450016647
  0
LINE
  5
22E
100
AcDbEntity
  8
0
100
AcDbLine
 62
7
  6
CONTINUOUS
 10
-13.7339745962
 20
8.950016647
 11
-13.7339745962
 21
9.400016647
  0
LINE
  5
22F
100
AcDbEntity
  8
0
100
AcDbLine
 62
7
  6
CONTINUOUS
 10
-13.2
 20
-9.399983353
 11
-13.2
 21
9.400016647
  0
LINE
  5
230
100
AcDbEntity
  8
0
100
AcDbLine
 62
7
  6
CONTINUOUS
 10
-13.1857864376
 20
8.950016647
 11
-13.1857864376
 21
8.450016647
  0
LINE
  5
231
100
AcDbEntity
  8
0
100
AcDbLine
 62
7
  6
CONTINUOUS
 10
-13.1857864376
 20
-8.449983353
 11
-13.1857864376
 21
-8.949983353
  0
LINE
  5
232
100
AcDbEntity
  8
DRAFT
100
AcDbLine
 62
7
  6
CONTINUOUS
 10
-13.165708362
 20
9.8624009088
 11
-13.165708362
 21
9.400016647
  0
LINE
  5
233
100
AcDbEntity
  8
DRAFT
100
AcDbLine
 62
7
  6
CONTINUOUS
 10
-13.165708362
 20
-9.399983353
 11
-13.165708362
 21
-9.8623676147
  0
LINE
  5
234
100
AcDbEntity
  8
0
100
AcDbLine
 62
250
  6
CONTINUOUS
 10
-4.2999990861
 20
15.000016647
 11
-4.3499990861
 21
14.950016647
  0
LINE
  5
235
100
AcDbEntity
  8
0
100
AcDbLine
 62
250
  6
CONTINUOUS
 10
-4.15
 20
14.8500175609
 11
-4.2
 21
14.8000175609
  0
LINE
  5
236
100
AcDbEntity
  8
DRAFT
100
AcDbLine
 62
7
  6
CONTINUOUS
 10
-1.8347279814
 20
16.1495803037
 11
-1.699897874
 21
16.284410411
  0
LINE
  5
237
100
AcDbEntity
  8
RACCORDO
100
AcDbLine
 62
250
  6
CONTINUOUS
 10
-5.8499314592
 20
13.5062998579
 11
-5.7445800616
 21
13.5484395183
  0
LINE
  5
238
100
AcDbEntity
  8
DRAFT
100
AcDbLine
 62
7
  6
CONTINUOUS
 10
1.8347279814
 20
-15.499983353
 11
1.8281828305
 21
-15.499983353
  0
LINE
  5
239
100
AcDbEntity
  8
DRAFT
100
AcDbLine
 62
7
  6
CONTINUOUS
 10
-1.8281828305
 20
-15.499983353
 11
-1.8347279814
 21
-15.499983353
  0
LINE
  5
23A
100
AcDbEntity
  8
0
100
AcDbLine
 62
7
  6
CONTINUOUS
 10
-5.75
 20
-14.999983353
 11
-4.2999990861
 21
-14.999983353
  0
LINE
  5
23B
100
AcDbEntity
  8
0
100
AcDbLine
 62
7
  6
CONTINUOUS
 10
4.2999990861
 20
-14.999983353
 11
5.75
 21
-14.999983353
  0
LINE
  5
23C
100
AcDbEntity
  8
0
100
AcDbLine
 62
7
  6
CONTINUOUS
 10
-4.2
 20
-14.949983353
 11
-5.75
 21
-14.949983353
  0
LINE
  5
23D
100
AcDbEntity
  8
0
100
AcDbLine
 62
7
  6
CONTINUOUS
 10
4.2
 20
-14.949983353
 11
5.75
 21
-14.949983353
  0
LINE
  5
23E
100
AcDbEntity
  8
DRAFT
100
AcDbLine
 62
7
  6
CONTINUOUS
 10
1.85
 20
-14.499983353
 11
-1.85
 21
-14.499983353
  0
LINE
  5
23F
100
AcDbEntity
  8
0
100
AcDbLine
 62
7
  6
CONTINUOUS
 10
-9.4152801339
 20
-13.549983353
 11
-4.2
 21
-13.549983353
  0
LINE
  5
240
100
AcDbEntity
  8
0
100
AcDbLine
 62
7
  6
CONTINUOUS
 10
4.2
 20
-13.549983353
 11
9.4152801339
 21
-13.549983353
  0
LINE
  5
241
100
AcDbEntity
  8
0
100
AcDbLine
 62
7
  6
CONTINUOUS
 10
-9.3996010554
 20
-13.499983353
 11
-4.2999990861
 21
-13.499983353
  0
LINE
  5
242
100
AcDbEntity
  8
0
100
AcDbLine
 62
7
  6
CONTINUOUS
 10
4.2999990861
 20
-13.499983353
 11
9.3996010554
 21
-13.499983353
  0
LINE
  5
243
100
AcDbEntity
  8
RACCORDO
100
AcDbLine
 62
7
  6
CONTINUOUS
 10
-6.6770101124
 20
-13.5062665638
 11
-6.615889918
 21
-13.5307141203
  0
LINE
  5
244
100
AcDbEntity
  8
RACCORDO
100
AcDbLine
 62
250
  6
CONTINUOUS
 10
-6.5999725837
 20
-13.5062665638
 11
-6.4906782802
 21
-13.549983353
  0
LINE
  5
245
100
AcDbEntity
  8
0
100
AcDbLine
 62
250
  6
CONTINUOUS
 10
-4.2999990861
 20
-14.999983353
 11
-4.3499990861
 21
-14.949983353
  0
LINE
  5
246
100
AcDbEntity
  8
0
100
AcDbLine
 62
250
  6
CONTINUOUS
 10
-4.15
 20
-14.8499842668
 11
-4.2
 21
-14.7999842668
  0
LINE
  5
247
100
AcDbEntity
  8
DRAFT
100
AcDbLine
 62
7
  6
CONTINUOUS
 10
-1.8347279814
 20
-16.1495470096
 11
-1.699897874
 21
-16.2843771169
  0
LINE
  5
248
100
AcDbEntity
  8
0
100
AcDbLine
 62
7
  6
CONTINUOUS
 10
-9.4292820007
 20
-8.2949676037
 11
-9.4293699648
 21
-7.7997172829
  0
LINE
  5
249
100
AcDbEntity
  8
0
100
AcDbLine
 62
7
  6
CONTINUOUS
 10
-11.209359
 20
-9.110995353
 11
-11.209359
 21
-10.000155353
  0
LINE
  5
24A
100
AcDbEntity
  8
0
100
AcDbLine
 62
7
  6
CONTINUOUS
 10
-11.05235
 20
-9.822147353
 11
-11.05235
 21
-9.120660353
  0
LINE
  5
24B
100
AcDbEntity
  8
0
100
AcDbLine
 62
7
  6
CONTINUOUS
 10
-10.23102
 20
-7.502863353
 11
-10.23102
 21
-8.591820353
  0
LINE
  5
24C
100
AcDbEntity
  8
0
100
AcDbLine
 62
7
  6
CONTINUOUS
 10
-10.04695
 20
-8.419084353
 11
-10.04695
 21
-7.670591353
  0
LINE
  5
24D
100
AcDbEntity
  8
0
100
AcDbLine
 62
7
  6
CONTINUOUS
 10
-9.592441
 20
-7.840105353
 11
-9.592441
 21
-8.2495676209
  0
LINE
  5
24E
100
AcDbEntity
  8
0
100
AcDbLine
 62
7
  6
CONTINUOUS
 10
-8.612608
 20
-7.502863353
 11
-8.612608
 21
-8.586637353
  0
LINE
  5
24F
100
AcDbEntity
  8
0
100
AcDbLine
 62
7
  6
CONTINUOUS
 10
-8.445056
 20
-8.419084353
 11
-8.445056
 21
-8.115435353
  0
LINE
  5
250
100
AcDbEntity
  8
0
100
AcDbLine
 62
7
  6
CONTINUOUS
 10
-8.445056
 20
-7.947882353
 11
-8.445056
 21
-7.670415353
  0
LINE
  5
251
100
AcDbEntity
  8
0
100
AcDbLine
 62
7
  6
CONTINUOUS
 10
-7.989582
 20
-8.115435353
 11
-7.989582
 21
-7.947882353
  0
LINE
  5
252
100
AcDbEntity
  8
0
100
AcDbLine
 62
7
  6
CONTINUOUS
 10
-7.811574
 20
-8.586637353
 11
-7.811574
 21
-8.419084353
  0
LINE
  5
253
100
AcDbEntity
  8
0
100
AcDbLine
 62
7
  6
CONTINUOUS
 10
-7.811574
 20
-7.670415353
 11
-7.811574
 21
-7.502863353
  0
LINE
  5
254
100
AcDbEntity
  8
0
100
AcDbLine
 62
7
  6
CONTINUOUS
 10
-11.209359
 20
-10.000155353
 11
-6.79071
 21
-10.000155353
  0
LINE
  5
255
100
AcDbEntity
  8
0
100
AcDbLine
 62
7
  6
CONTINUOUS
 10
-6.937263
 20
-9.822147353
 11
-11.05235
 21
-9.822147353
  0
LINE
  5
256
100
AcDbEntity
  8
0
100
AcDbLine
 62
7
  6
CONTINUOUS
 10
-13.7339745962
 20
-9.399983353
 11
-13.5606047063
 21
-9.399983353
  0
LINE
  5
257
100
AcDbEntity
  8
0
100
AcDbLine
 62
7
  6
CONTINUOUS
 10
-13.2
 20
-9.399983353
 11
-13.165708362
 21
-9.399983353
  0
LINE
  5
258
100
AcDbEntity
  8
0
100
AcDbLine
 62
7
  6
CONTINUOUS
 10
13.165708362
 20
-9.399983353
 11
13.2
 21
-9.399983353
  0
LINE
  5
259
100
AcDbEntity
  8
0
100
AcDbLine
 62
7
  6
CONTINUOUS
 10
13.5606047063
 20
-9.399983353
 11
13.7339745962
 21
-9.399983353
  0
LINE
  5
25A
100
AcDbEntity
  8
0
100
AcDbLine
 62
7
  6
CONTINUOUS
 10
8.246068
 20
-9.270416353
 11
9.158087
 21
-9.270416353
  0
LINE
  5
25B
100
AcDbEntity
  8
0
100
AcDbLine
 62
7
  6
CONTINUOUS
 10
-11.05235
 20
-9.120660353
 11
-6.937263
 21
-9.120660353
  0
LINE
  5
25C
100
AcDbEntity
  8
0
100
AcDbLine
 62
7
  6
CONTINUOUS
 10
-11.2721423039
 20
-9.110995353
 11
-11.209359
 21
-9.110995353
  0
LINE
  5
25D
100
AcDbEntity
  8
0
100
AcDbLine
 62
7
  6
CONTINUOUS
 10
-6.79071
 20
-9.110995353
 11
-6.727875
 21
-9.110995353
  0
LINE
  5
25E
100
AcDbEntity
  8
0
100
AcDbLine
 62
7
  6
CONTINUOUS
 10
-6.738341
 20
-8.962860353
 11
-11.2618077122
 21
-8.962860353
  0
LINE
  5
25F
100
AcDbEntity
  8
0
100
AcDbLine
 62
7
  6
CONTINUOUS
 10
-13.7339745962
 20
-8.949983353
 11
-13.1857864376
 21
-8.949983353
  0
LINE
  5
260
100
AcDbEntity
  8
0
100
AcDbLine
 62
7
  6
CONTINUOUS
 10
13.4
 20
-8.949983353
 11
13.7339745962
 21
-8.949983353
  0
LINE
  5
261
100
AcDbEntity
  8
0
100
AcDbLine
 62
7
  6
CONTINUOUS
 10
9.158087
 20
-8.948989353
 11
8.873343
 21
-8.948989353
  0
LINE
  5
262
100
AcDbEntity
  8
0
100
AcDbLine
 62
7
  6
CONTINUOUS
 10
8.530922
 20
-8.948989353
 11
8.246068
 21
-8.948989353
  0
LINE
  5
263
100
AcDbEntity
  8
0
100
AcDbLine
 62
7
  6
CONTINUOUS
 10
-4.350603
 20
-8.797547353
 11
-4.067613
 21
-8.797547353
  0
LINE
  5
264
100
AcDbEntity
  8
0
100
AcDbLine
 62
7
  6
CONTINUOUS
 10
-1.830713
 20
-8.784542353
 11
-1.599701
 21
-8.784542353
  0
LINE
  5
265
100
AcDbEntity
  8
0
100
AcDbLine
 62
7
  6
CONTINUOUS
 10
-0.2424692521
 20
-8.765870353
 11
0.738329
 21
-8.765870353
  0
LINE
  5
266
100
AcDbEntity
  8
0
100
AcDbLine
 62
7
  6
CONTINUOUS
 10
-10.23102
 20
-8.591820353
 11
-9.726079
 21
-8.591820353
  0
LINE
  5
267
100
AcDbEntity
  8
0
100
AcDbLine
 62
7
  6
CONTINUOUS
 10
-8.612608
 20
-8.586637353
 11
-7.811574
 21
-8.586637353
  0
LINE
  5
268
100
AcDbEntity
  8
0
100
AcDbLine
 62
7
  6
CONTINUOUS
 10
0.738329
 20
-8.460070353
 11
0.1126987983
 21
-8.460070353
  0
LINE
  5
269
100
AcDbEntity
  8
0
100
AcDbLine
 62
7
  6
CONTINUOUS
 10
13.7339745962
 20
-8.449983353
 11
13.4
 21
-8.449983353
  0
LINE
  5
26A
100
AcDbEntity
  8
0
100
AcDbLine
 62
7
  6
CONTINUOUS
 10
-13.7339745962
 20
-8.449983353
 11
-13.1857864376
 21
-8.449983353
  0
LINE
  5
26B
100
AcDbEntity
  8
0
100
AcDbLine
 62
7
  6
CONTINUOUS
 10
-7.811574
 20
-8.419084353
 11
-8.445056
 21
-8.419084353
  0
LINE
  5
26C
100
AcDbEntity
  8
0
100
AcDbLine
 62
7
  6
CONTINUOUS
 10
-9.761955
 20
-8.419084353
 11
-10.04695
 21
-8.419084353
  0
LINE
  5
26D
100
AcDbEntity
  8
0
100
AcDbLine
 62
7
  6
CONTINUOUS
 10
1.462858338
 20
-8.267092353
 11
1.1798076688
 21
-8.267092353
  0
LINE
  5
26E
100
AcDbEntity
  8
0
100
AcDbLine
 62
7
  6
CONTINUOUS
 10
-8.445056
 20
-8.115435353
 11
-7.989582
 21
-8.115435353
  0
LINE
  5
26F
100
AcDbEntity
  8
0
100
AcDbLine
 62
7
  6
CONTINUOUS
 10
-7.989582
 20
-7.947882353
 11
-8.445056
 21
-7.947882353
  0
LINE
  5
270
100
AcDbEntity
  8
0
100
AcDbLine
 62
7
  6
CONTINUOUS
 10
-9.116583
 20
-7.796058353
 11
-8.919158
 21
-7.796058353
  0
LINE
  5
271
100
AcDbEntity
  8
0
100
AcDbLine
 62
7
  6
CONTINUOUS
 10
1.224282
 20
-7.975984353
 11
1.4766025649
 21
-7.9910303866
  0
LINE
  5
272
100
AcDbEntity
  8
0
100
AcDbLine
 62
7
  6
CONTINUOUS
 10
-8.738483
 20
-5.910578353
 11
-6.4769054682
 21
-8.3667630166
  0
LINE
  5
273
100
AcDbEntity
  8
0
100
AcDbLine
 62
7
  6
CONTINUOUS
 10
-6.3561528121
 20
-8.267938748
 11
-8.65438
 21
-5.752197353
  0
LINE
  5
274
100
AcDbEntity
  8
0
100
AcDbLine
 62
7
  6
CONTINUOUS
 10
-9.592969
 20
-6.701917353
 11
-9.116583
 21
-7.796058353
  0
LINE
  5
275
100
AcDbEntity
  8
0
100
AcDbLine
 62
7
  6
CONTINUOUS
 10
-9.017914
 20
-7.589934353
 11
-9.404505
 21
-6.701917353
  0
LINE
  5
276
100
AcDbEntity
  8
0
100
AcDbLine
 62
7
  6
CONTINUOUS
 10
-6.937263
 20
-9.120660353
 11
-6.937263
 21
-9.822147353
  0
LINE
  5
277
100
AcDbEntity
  8
0
100
AcDbLine
 62
7
  6
CONTINUOUS
 10
-6.79071
 20
-10.000155353
 11
-6.79071
 21
-9.110995353
  0
LINE
  5
278
100
AcDbEntity
  8
0
100
AcDbLine
 62
7
  6
CONTINUOUS
 10
-5.75
 20
17.3732000053
 11
-5.75
 21
14.950016647
  0
LINE
  5
279
100
AcDbEntity
  8
0
100
AcDbLine
 62
7
  6
CONTINUOUS
 10
-5.75
 20
-14.949983353
 11
-5.75
 21
-17.3731667112
  0
LINE
  5
27A
100
AcDbEntity
  8
0
100
AcDbLine
 62
7
  6
CONTINUOUS
 10
-4.692353
 20
-7.349805524
 11
-4.692353
 21
-7.591749353
  0
LINE
  5
27B
100
AcDbEntity
  8
0
100
AcDbLine
 62
7
  6
CONTINUOUS
 10
-4.350603
 20
-7.591749353
 11
-4.350603
 21
-8.797547353
  0
LINE
  5
27C
100
AcDbEntity
  8
0
100
AcDbLine
 62
7
  6
CONTINUOUS
 10
-4.2
 20
-14.949983353
 11
-4.2
 21
-13.549983353
  0
LINE
  5
27D
100
AcDbEntity
  8
0
100
AcDbLine
 62
7
  6
CONTINUOUS
 10
-4.2
 20
13.550016647
 11
-4.2
 21
14.950016647
  0
LINE
  5
27E
100
AcDbEntity
  8
0
100
AcDbLine
 62
7
  6
CONTINUOUS
 10
-4.15
 20
-14.8499842668
 11
-4.15
 21
-13.6499824391
  0
LINE
  5
27F
100
AcDbEntity
  8
0
100
AcDbLine
 62
7
  6
CONTINUOUS
 10
-4.15
 20
13.6500157332
 11
-4.15
 21
14.8500175609
  0
LINE
  5
280
100
AcDbEntity
  8
0
100
AcDbLine
 62
7
  6
CONTINUOUS
 10
-4.067613
 20
-8.797547353
 11
-4.067613
 21
-7.046645353
  0
LINE
  5
281
100
AcDbEntity
  8
0
100
AcDbLine
 62
7
  6
CONTINUOUS
 10
-8.631235
 20
-6.701917353
 11
-9.017914
 21
-7.589934353
  0
LINE
  5
282
100
AcDbEntity
  8
0
100
AcDbLine
 62
7
  6
CONTINUOUS
 10
-8.919158
 20
-7.796058353
 11
-8.442772
 21
-6.701917353
  0
LINE
  5
283
100
AcDbEntity
  8
0
100
AcDbLine
 62
250
  6
CONTINUOUS
 10
4.15
 20
13.6500157332
 11
4.1883973995
 21
13.6884131327
  0
LINE
  5
284
100
AcDbEntity
  8
DRAFT
100
AcDbLine
 62
7
  6
CONTINUOUS
 10
5.7401315789
 20
14.990148226
 11
5.7
 21
14.950016647
  0
LINE
  5
285
100
AcDbEntity
  8
0
100
AcDbLine
 62
250
  6
CONTINUOUS
 10
4.2999990861
 20
13.500016647
 11
4.3383964856
 21
13.5384140465
  0
LINE
  5
286
100
AcDbEntity
  8
0
100
AcDbLine
 62
7
  6
CONTINUOUS
 10
-10.04695
 20
-7.670591353
 11
-9.761955
 21
-7.670591353
  0
LINE
  5
287
100
AcDbEntity
  8
0
100
AcDbLine
 62
7
  6
CONTINUOUS
 10
-8.445056
 20
-7.670415353
 11
-7.811574
 21
-7.670415353
  0
LINE
  5
288
100
AcDbEntity
  8
0
100
AcDbLine
 62
7
  6
CONTINUOUS
 10
-0.2266078879
 20
-7.633911353
 11
0.0483211376
 21
-7.633911353
  0
LINE
  5
289
100
AcDbEntity
  8
0
100
AcDbLine
 62
7
  6
CONTINUOUS
 10
-4.692353
 20
-7.591749353
 11
-4.350603
 21
-7.591749353
  0
LINE
  5
28A
100
AcDbEntity
  8
0
100
AcDbLine
 62
7
  6
CONTINUOUS
 10
-7.811574
 20
-7.502863353
 11
-8.612608
 21
-7.502863353
  0
LINE
  5
28B
100
AcDbEntity
  8
0
100
AcDbLine
 62
7
  6
CONTINUOUS
 10
-9.726079
 20
-7.502863353
 11
-10.23102
 21
-7.502863353
  0
LINE
  5
28C
100
AcDbEntity
  8
0
100
AcDbLine
 62
7
  6
CONTINUOUS
 10
-2.8422265122
 20
-7.447461353
 11
-2.5611100774
 21
-7.447461353
  0
LINE
  5
28D
100
AcDbEntity
  8
0
100
AcDbLine
 62
7
  6
CONTINUOUS
 10
1.527833
 20
-7.305089353
 11
2.112106
 21
-7.305089353
  0
LINE
  5
28E
100
AcDbEntity
  8
0
100
AcDbLine
 62
7
  6
CONTINUOUS
 10
-4.067613
 20
-7.046645353
 11
-4.3000087775
 21
-7.046645353
  0
LINE
  5
28F
100
AcDbEntity
  8
0
100
AcDbLine
 62
7
  6
CONTINUOUS
 10
2.112106
 20
-7.014303353
 11
1.323272
 21
-7.014303353
  0
LINE
  5
290
100
AcDbEntity
  8
0
100
AcDbLine
 62
7
  6
CONTINUOUS
 10
-1.151264
 20
-6.964750353
 11
-1.382654
 21
-6.964750353
  0
LINE
  5
291
100
AcDbEntity
  8
0
100
AcDbLine
 62
7
  6
CONTINUOUS
 10
-8.442772
 20
-6.701917353
 11
-8.631235
 21
-6.701917353
  0
LINE
  5
292
100
AcDbEntity
  8
0
100
AcDbLine
 62
7
  6
CONTINUOUS
 10
-9.404505
 20
-6.701917353
 11
-9.592969
 21
-6.701917353
  0
LINE
  5
293
100
AcDbEntity
  8
0
100
AcDbLine
 62
7
  6
CONTINUOUS
 10
8.256565
 20
-6.665407353
 11
8.530922
 21
-6.665407353
  0
LINE
  5
294
100
AcDbEntity
  8
0
100
AcDbLine
 62
7
  6
CONTINUOUS
 10
8.873343
 20
-6.665407353
 11
9.14759
 21
-6.665407353
  0
LINE
  5
295
100
AcDbEntity
  8
0
100
AcDbLine
 62
7
  6
CONTINUOUS
 10
9.14759
 20
-6.342212353
 11
8.256565
 21
-6.342212353
  0
LINE
  5
296
100
AcDbEntity
  8
0
100
AcDbLine
 62
250
  6
CONTINUOUS
 10
4.15
 20
-13.6499824391
 11
4.2
 21
-13.6999824391
  0
LINE
  5
297
100
AcDbEntity
  8
DRAFT
100
AcDbLine
 62
7
  6
CONTINUOUS
 10
5.7401315789
 20
-14.9901149319
 11
5.7
 21
-14.949983353
  0
LINE
  5
298
100
AcDbEntity
  8
0
100
AcDbLine
 62
250
  6
CONTINUOUS
 10
4.2999990861
 20
-13.499983353
 11
4.3499990861
 21
-13.549983353
  0
LINE
  5
299
100
AcDbEntity
  8
DRAFT
100
AcDbLine
 62
7
  6
CONTINUOUS
 10
-1.8281828305
 20
15.500016647
 11
-1.8172742458
 21
14.7783288106
  0
LINE
  5
29A
100
AcDbEntity
  8
DRAFT
100
AcDbLine
 62
7
  6
CONTINUOUS
 10
-1.85
 20
18.2062655743
 11
-1.85
 21
14.500016647
  0
LINE
  5
29B
100
AcDbEntity
  8
DRAFT
100
AcDbLine
 62
7
  6
CONTINUOUS
 10
-1.85
 20
-14.499983353
 11
-1.85
 21
-18.2062322802
  0
LINE
  5
29C
100
AcDbEntity
  8
DRAFT
100
AcDbLine
 62
7
  6
CONTINUOUS
 10
-1.8347279814
 20
16.1495803037
 11
-1.8347279814
 21
15.500016647
  0
LINE
  5
29D
100
AcDbEntity
  8
DRAFT
100
AcDbLine
 62
7
  6
CONTINUOUS
 10
-1.8347279814
 20
-16.1495470096
 11
-1.8347279814
 21
-15.499983353
  0
LINE
  5
29E
100
AcDbEntity
  8
DRAFT
100
AcDbLine
 62
7
  6
CONTINUOUS
 10
-1.8172742458
 20
14.7783288106
 11
-1.8172742458
 21
14.500016647
  0
LINE
  5
29F
100
AcDbEntity
  8
DRAFT
100
AcDbLine
 62
7
  6
CONTINUOUS
 10
-1.8172742458
 20
-14.499983353
 11
-1.8172742458
 21
-14.7782955165
  0
LINE
  5
2A0
100
AcDbEntity
  8
DRAFT
100
AcDbLine
 62
7
  6
CONTINUOUS
 10
-1.699897874
 20
18.1605921804
 11
-1.699897874
 21
16.284410411
  0
LINE
  5
2A1
100
AcDbEntity
  8
DRAFT
100
AcDbLine
 62
7
  6
CONTINUOUS
 10
-1.699897874
 20
-16.2843771169
 11
-1.699897874
 21
-18.1605588863
  0
LINE
  5
2A2
100
AcDbEntity
  8
0
100
AcDbLine
 62
7
  6
CONTINUOUS
 10
0.0
 20
16.284410411
 11
0.0
 21
16.0464398301
  0
LINE
  5
2A3
100
AcDbEntity
  8
RACCORDO
100
AcDbLine
 62
7
  6
CONTINUOUS
 10
-0.0
 20
-14.499983353
 11
-0.0
 21
-16.046406536
  0
LINE
  5
2A4
100
AcDbEntity
  8
0
100
AcDbLine
 62
7
  6
CONTINUOUS
 10
-0.0
 20
-16.046406536
 11
-0.0
 21
-16.2843771169
  0
LINE
  5
2A5
100
AcDbEntity
  8
RACCORDO
100
AcDbLine
 62
7
  6
CONTINUOUS
 10
0.0
 20
14.500016647
 11
0.0
 21
16.0464398301
  0
LINE
  5
2A6
100
AcDbEntity
  8
DRAFT
100
AcDbLine
 62
7
  6
CONTINUOUS
 10
-1.8172742458
 20
-14.7782955165
 11
-1.8281828305
 21
-15.499983353
  0
LINE
  5
2A7
100
AcDbEntity
  8
0
100
AcDbLine
 62
7
  6
CONTINUOUS
 10
-1.382654
 20
-6.964750353
 11
-1.830713
 21
-8.784542353
  0
LINE
  5
2A8
100
AcDbEntity
  8
0
100
AcDbLine
 62
7
  6
CONTINUOUS
 10
-1.599701
 20
-8.784542353
 11
-1.151264
 21
-6.964750353
  0
LINE
  5
2A9
100
AcDbEntity
  8
0
100
AcDbLine
 62
7
  6
CONTINUOUS
 10
-9.3456033637
 20
-5.7521999403
 11
-11.643849
 21
-8.267961353
  0
LINE
  5
2AA
100
AcDbEntity
  8
0
100
AcDbLine
 62
7
  6
CONTINUOUS
 10
-11.523189
 20
-8.366887353
 11
-9.2614997624
 21
-5.9105802671
  0
LINE
  5
2AB
100
AcDbEntity
  8
RACCORDO
100
AcDbLine
 62
7
  6
CONTINUOUS
 10
-13.7339745962
 20
-5.6524226192
 11
-13.2
 21
-5.5093445574
  0
LINE
  5
2AC
100
AcDbEntity
  8
RACCORDO
100
AcDbLine
 62
250
  6
CONTINUOUS
 10
-13.7339745962
 20
-5.4458350368
 11
-13.2
 21
-5.3027569749
  0
LINE
  5
2AD
100
AcDbEntity
  8
RACCORDO
100
AcDbLine
 62
7
  6
CONTINUOUS
 10
-17.7279440432
 20
-2.099983353
 11
-16.12
 21
-2.099983353
  0
LINE
  5
2AE
100
AcDbEntity
  8
RACCORDO
100
AcDbLine
 62
7
  6
CONTINUOUS
 10
17.7279440432
 20
-2.099983353
 11
16.12
 21
-2.099983353
  0
LINE
  5
2AF
100
AcDbEntity
  8
RACCORDO
100
AcDbLine
 62
7
  6
CONTINUOUS
 10
13.2
 20
-5.5093445574
 11
13.7339745962
 21
-5.6524226192
  0
LINE
  5
2B0
100
AcDbEntity
  8
RACCORDO
100
AcDbLine
 62
250
  6
CONTINUOUS
 10
13.2
 20
-5.3027569749
 11
13.7339745962
 21
-5.4458350368
  0
LINE
  5
2B1
100
AcDbEntity
  8
0
100
AcDbLine
 62
7
  6
CONTINUOUS
 10
7.666644
 20
-7.154940353
 11
8.530922
 21
-7.883273353
  0
LINE
  5
2B2
100
AcDbEntity
  8
0
100
AcDbLine
 62
7
  6
CONTINUOUS
 10
8.530922
 20
-7.484942353
 11
7.626751
 21
-6.722991353
  0
LINE
  5
2B3
100
AcDbEntity
  8
DRAFT
100
AcDbLine
 62
7
  6
CONTINUOUS
 10
1.8281828305
 20
-15.499983353
 11
1.8172742458
 21
-14.7782955165
  0
LINE
  5
2B4
100
AcDbEntity
  8
0
100
AcDbLine
 62
7
  6
CONTINUOUS
 10
0.738329
 20
-8.765870353
 11
0.738329
 21
-8.460070353
  0
LINE
  5
2B5
100
AcDbEntity
  8
0
100
AcDbLine
 62
7
  6
CONTINUOUS
 10
1.5
 20
-14.499983353
 11
1.5
 21
-15.7710636247
  0
LINE
  5
2B6
100
AcDbEntity
  8
DRAFT
100
AcDbLine
 62
7
  6
CONTINUOUS
 10
1.699897874
 20
-18.1605588863
 11
1.699897874
 21
-16.2843771169
  0
LINE
  5
2B7
100
AcDbEntity
  8
DRAFT
100
AcDbLine
 62
7
  6
CONTINUOUS
 10
1.699897874
 20
16.284410411
 11
1.699897874
 21
18.1605921804
  0
LINE
  5
2B8
100
AcDbEntity
  8
DRAFT
100
AcDbLine
 62
7
  6
CONTINUOUS
 10
1.8172742458
 20
-14.7782955165
 11
1.8172742458
 21
-14.499983353
  0
LINE
  5
2B9
100
AcDbEntity
  8
RACCORDO
100
AcDbLine
 62
7
  6
CONTINUOUS
 10
1.8172742458
 20
14.500016647
 11
1.8172742458
 21
14.7783288106
  0
LINE
  5
2BA
100
AcDbEntity
  8
DRAFT
100
AcDbLine
 62
7
  6
CONTINUOUS
 10
1.8347279814
 20
16.1495803037
 11
1.8347279814
 21
15.500016647
  0
LINE
  5
2BB
100
AcDbEntity
  8
DRAFT
100
AcDbLine
 62
7
  6
CONTINUOUS
 10
1.8347279814
 20
-16.1495470096
 11
1.8347279814
 21
-15.499983353
  0
LINE
  5
2BC
100
AcDbEntity
  8
DRAFT
100
AcDbLine
 62
7
  6
CONTINUOUS
 10
1.85
 20
-18.2062322802
 11
1.85
 21
-14.499983353
  0
LINE
  5
2BD
100
AcDbEntity
  8
DRAFT
100
AcDbLine
 62
7
  6
CONTINUOUS
 10
1.85
 20
14.500016647
 11
1.85
 21
18.2062655743
  0
LINE
  5
2BE
100
AcDbEntity
  8
0
100
AcDbLine
 62
7
  6
CONTINUOUS
 10
2.112106
 20
-7.305089353
 11
2.112106
 21
-7.014303353
  0
LINE
  5
2BF
100
AcDbEntity
  8
0
100
AcDbLine
 62
7
  6
CONTINUOUS
 10
4.15
 20
14.8500175609
 11
4.15
 21
13.6500157332
  0
LINE
  5
2C0
100
AcDbEntity
  8
0
100
AcDbLine
 62
7
  6
CONTINUOUS
 10
4.15
 20
-13.6499824391
 11
4.15
 21
-14.8499842668
  0
LINE
  5
2C1
100
AcDbEntity
  8
0
100
AcDbLine
 62
7
  6
CONTINUOUS
 10
4.2
 20
14.950016647
 11
4.2
 21
13.550016647
  0
LINE
  5
2C2
100
AcDbEntity
  8
0
100
AcDbLine
 62
7
  6
CONTINUOUS
 10
4.2
 20
-13.549983353
 11
4.2
 21
-14.949983353
  0
LINE
  5
2C3
100
AcDbEntity
  8
DRAFT
100
AcDbLine
 62
7
  6
CONTINUOUS
 10
1.8172742458
 20
14.7783288106
 11
1.8281828305
 21
15.500016647
  0
LINE
  5
2C4
100
AcDbEntity
  8
0
100
AcDbLine
 62
7
  6
CONTINUOUS
 10
1.323272
 20
-7.014303353
 11
1.224282
 21
-7.975984353
  0
LINE
  5
2C5
100
AcDbEntity
  8
0
100
AcDbLine
 62
7
  6
CONTINUOUS
 10
1.4772261281
 20
-7.6844473925
 11
1.527833
 21
-7.305089353
  0
LINE
  5
2C6
100
AcDbEntity
  8
RACCORDO
100
AcDbLine
 62
250
  6
CONTINUOUS
 10
13.7339745962
 20
4.4458683308
 11
13.2
 21
4.302790269
  0
LINE
  5
2C7
100
AcDbEntity
  8
RACCORDO
100
AcDbLine
 62
7
  6
CONTINUOUS
 10
13.7339745962
 20
4.6524559133
 11
13.2
 21
4.5093778515
  0
LINE
  5
2C8
100
AcDbEntity
  8
RACCORDO
100
AcDbLine
 62
7
  6
CONTINUOUS
 10
16.12
 20
2.100016647
 11
17.7279440432
 21
2.100016647
  0
LINE
  5
2C9
100
AcDbEntity
  8
RACCORDO
100
AcDbLine
 62
7
  6
CONTINUOUS
 10
-16.12
 20
2.100016647
 11
-17.7279440432
 21
2.100016647
  0
LINE
  5
2CA
100
AcDbEntity
  8
RACCORDO
100
AcDbLine
 62
250
  6
CONTINUOUS
 10
-13.2
 20
4.302790269
 11
-13.7339745962
 21
4.4458683308
  0
LINE
  5
2CB
100
AcDbEntity
  8
RACCORDO
100
AcDbLine
 62
7
  6
CONTINUOUS
 10
-13.2
 20
4.5093778515
 11
-13.7339745962
 21
4.6524559133
  0
LINE
  5
2CC
100
AcDbEntity
  8
0
100
AcDbLine
 62
7
  6
CONTINUOUS
 10
9.296221
 20
-8.862257353
 11
9.444178
 21
-9.125869353
  0
LINE
  5
2CD
100
AcDbEntity
  8
0
100
AcDbLine
 62
7
  6
CONTINUOUS
 10
3.8481649242
 20
-8.0947791228
 11
3.9168244876
 21
-8.3032967967
  0
LINE
  5
2CE
100
AcDbEntity
  8
0
100
AcDbLine
 62
7
  6
CONTINUOUS
 10
4.7261986982
 20
-8.0947784315
 11
4.6579038519
 21
-7.8862579008
  0
LINE
  5
2CF
100
AcDbEntity
  8
0
100
AcDbLine
 62
7
  6
CONTINUOUS
 10
5.75
 20
17.3732000053
 11
5.75
 21
14.950016647
  0
LINE
  5
2D0
100
AcDbEntity
  8
0
100
AcDbLine
 62
7
  6
CONTINUOUS
 10
5.75
 20
-14.949983353
 11
5.75
 21
-17.3731667112
  0
LINE
  5
2D1
100
AcDbEntity
  8
0
100
AcDbLine
 62
7
  6
CONTINUOUS
 10
8.246068
 20
-8.948989353
 11
8.246068
 21
-9.270416353
  0
LINE
  5
2D2
100
AcDbEntity
  8
0
100
AcDbLine
 62
7
  6
CONTINUOUS
 10
8.256565
 20
-6.342212353
 11
8.256565
 21
-6.665407353
  0
LINE
  5
2D3
100
AcDbEntity
  8
0
100
AcDbLine
 62
7
  6
CONTINUOUS
 10
8.530922
 20
-6.665407353
 11
8.530922
 21
-7.484942353
  0
LINE
  5
2D4
100
AcDbEntity
  8
0
100
AcDbLine
 62
7
  6
CONTINUOUS
 10
8.530922
 20
-7.883273353
 11
8.530922
 21
-8.948989353
  0
LINE
  5
2D5
100
AcDbEntity
  8
0
100
AcDbLine
 62
250
  6
CONTINUOUS
 10
-4.2999990861
 20
-13.499983353
 11
-4.3499990861
 21
-13.549983353
  0
LINE
  5
2D6
100
AcDbEntity
  8
DRAFT
100
AcDbLine
 62
7
  6
CONTINUOUS
 10
-5.7401315789
 20
-14.9901149319
 11
-5.7
 21
-14.949983353
  0
LINE
  5
2D7
100
AcDbEntity
  8
0
100
AcDbLine
 62
250
  6
CONTINUOUS
 10
-4.15
 20
-13.6499824391
 11
-4.2
 21
-13.6999824391
  0
LINE
  5
2D8
100
AcDbEntity
  8
0
100
AcDbLine
 62
7
  6
CONTINUOUS
 10
-13.7339745962
 20
8.450016647
 11
-13.1857864376
 21
8.450016647
  0
LINE
  5
2D9
100
AcDbEntity
  8
0
100
AcDbLine
 62
7
  6
CONTINUOUS
 10
13.4
 20
8.450016647
 11
13.7339745962
 21
8.450016647
  0
LINE
  5
2DA
100
AcDbEntity
  8
0
100
AcDbLine
 62
250
  6
CONTINUOUS
 10
-4.2999990861
 20
13.500016647
 11
-4.3499990861
 21
13.550016647
  0
LINE
  5
2DB
100
AcDbEntity
  8
0
100
AcDbLine
 62
250
  6
CONTINUOUS
 10
-4.15
 20
13.6500157332
 11
-4.2
 21
13.7000157332
  0
LINE
  5
2DC
100
AcDbEntity
  8
0
100
AcDbLine
 62
7
  6
CONTINUOUS
 10
8.873343
 20
-8.948989353
 11
8.873343
 21
-7.879679353
  0
LINE
  5
2DD
100
AcDbEntity
  8
0
100
AcDbLine
 62
7
  6
CONTINUOUS
 10
8.873343
 20
-7.484942353
 11
8.873343
 21
-6.665407353
  0
LINE
  5
2DE
100
AcDbEntity
  8
0
100
AcDbLine
 62
7
  6
CONTINUOUS
 10
9.14759
 20
-6.665407353
 11
9.14759
 21
-6.342212353
  0
LINE
  5
2DF
100
AcDbEntity
  8
0
100
AcDbLine
 62
7
  6
CONTINUOUS
 10
9.158087
 20
-9.270416353
 11
9.158087
 21
-8.948989353
  0
LINE
  5
2E0
100
AcDbEntity
  8
0
100
AcDbLine
 62
7
  6
CONTINUOUS
 10
7.9558219029
 20
-9.125869526
 11
8.1037790879
 21
-8.8622571964
  0
LINE
  5
2E1
100
AcDbEntity
  8
DRAFT
100
AcDbLine
 62
7
  6
CONTINUOUS
 10
1.8347279814
 20
-16.1495470096
 11
1.699897874
 21
-16.2843771169
  0
LINE
  5
2E2
100
AcDbEntity
  8
0
100
AcDbLine
 62
7
  6
CONTINUOUS
 10
9.7752015202
 20
-6.7249409146
 11
8.873343
 21
-7.484942353
  0
LINE
  5
2E3
100
AcDbEntity
  8
0
100
AcDbLine
 62
7
  6
CONTINUOUS
 10
8.873343
 20
-7.879679353
 11
9.733356142
 21
-7.1549402333
  0
LINE
  5
2E4
100
AcDbEntity
  8
0
100
AcDbLine
 62
7
  6
CONTINUOUS
 10
13.7339745962
 20
8.950016647
 11
13.4
 21
8.950016647
  0
LINE
  5
2E5
100
AcDbEntity
  8
0
100
AcDbLine
 62
7
  6
CONTINUOUS
 10
-13.7339745962
 20
8.950016647
 11
-13.1857864376
 21
8.950016647
  0
LINE
  5
2E6
100
AcDbEntity
  8
0
100
AcDbLine
 62
7
  6
CONTINUOUS
 10
-13.2
 20
9.400016647
 11
-13.165708362
 21
9.400016647
  0
LINE
  5
2E7
100
AcDbEntity
  8
0
100
AcDbLine
 62
7
  6
CONTINUOUS
 10
13.165708362
 20
9.400016647
 11
13.2
 21
9.400016647
  0
LINE
  5
2E8
100
AcDbEntity
  8
0
100
AcDbLine
 62
7
  6
CONTINUOUS
 10
13.5606047063
 20
9.400016647
 11
13.7339745962
 21
9.400016647
  0
LINE
  5
2E9
100
AcDbEntity
  8
0
100
AcDbLine
 62
7
  6
CONTINUOUS
 10
-13.5606047063
 20
9.400016647
 11
-13.7339745962
 21
9.400016647
  0
LINE
  5
2EA
100
AcDbEntity
  8
DRAFT
100
AcDbLine
 62
7
  6
CONTINUOUS
 10
1.8347279814
 20
16.1495803037
 11
1.699897874
 21
16.284410411
  0
LINE
  5
2EB
100
AcDbEntity
  8
DRAFT
100
AcDbLine
 62
7
  6
CONTINUOUS
 10
13.165708362
 20
-9.8623676147
 11
13.165708362
 21
-9.399983353
  0
LINE
  5
2EC
100
AcDbEntity
  8
DRAFT
100
AcDbLine
 62
7
  6
CONTINUOUS
 10
13.165708362
 20
9.400016647
 11
13.165708362
 21
9.8624009088
  0
LINE
  5
2ED
100
AcDbEntity
  8
0
100
AcDbLine
 62
7
  6
CONTINUOUS
 10
13.1857864376
 20
8.750016647
 11
13.1857864376
 21
8.650016647
  0
LINE
  5
2EE
100
AcDbEntity
  8
0
100
AcDbLine
 62
7
  6
CONTINUOUS
 10
13.1857864376
 20
-8.649983353
 11
13.1857864376
 21
-8.749983353
  0
LINE
  5
2EF
100
AcDbEntity
  8
0
100
AcDbLine
 62
7
  6
CONTINUOUS
 10
13.2
 20
-9.399983353
 11
13.2
 21
9.400016647
  0
LINE
  5
2F0
100
AcDbEntity
  8
0
100
AcDbLine
 62
7
  6
CONTINUOUS
 10
13.7339745962
 20
-9.399983353
 11
13.7339745962
 21
-8.949983353
  0
LINE
  5
2F1
100
AcDbEntity
  8
0
100
AcDbLine
 62
7
  6
CONTINUOUS
 10
13.7339745962
 20
-8.449983353
 11
13.7339745962
 21
8.450016647
  0
LINE
  5
2F2
100
AcDbEntity
  8
0
100
AcDbLine
 62
7
  6
CONTINUOUS
 10
13.7339745962
 20
8.950016647
 11
13.7339745962
 21
9.400016647
  0
LINE
  5
2F3
100
AcDbEntity
  8
RACCORDO
100
AcDbLine
 62
7
  6
CONTINUOUS
 10
16.12
 20
-8.3287047434
 11
16.12
 21
-2.099983353
  0
LINE
  5
2F4
100
AcDbEntity
  8
RACCORDO
100
AcDbLine
 62
7
  6
CONTINUOUS
 10
16.12
 20
2.100016647
 11
16.12
 21
8.3287380375
  0
LINE
  5
2F5
100
AcDbEntity
  8
0
100
AcDbLine
 62
7
  6
CONTINUOUS
 10
9.864033
 20
-10.290939353
 11
10.031763
 21
-10.053156353
  0
LINE
  5
2F6
100
AcDbEntity
  8
0
100
AcDbLine
 62
250
  6
CONTINUOUS
 10
4.15
 20
-14.8499842668
 11
4.2
 21
-14.7999842668
  0
LINE
  5
2F7
100
AcDbEntity
  8
0
100
AcDbLine
 62
250
  6
CONTINUOUS
 10
4.2999990861
 20
-14.999983353
 11
4.3499990861
 21
-14.949983353
  0
LINE
  5
2F8
100
AcDbEntity
  8
RACCORDO
100
AcDbLine
 62
250
  6
CONTINUOUS
 10
6.5999725837
 20
-13.5062665638
 11
6.4906782802
 21
-13.549983353
  0
LINE
  5
2F9
100
AcDbEntity
  8
RACCORDO
100
AcDbLine
 62
7
  6
CONTINUOUS
 10
6.6770101124
 20
-13.5062665638
 11
6.6185079783
 21
-13.5296669185
  0
LINE
  5
2FA
100
AcDbEntity
  8
DRAFT
100
AcDbLine
 62
7
  6
CONTINUOUS
 10
-1.85
 20
-18.2062322802
 11
-1.699897874
 21
-18.1605588863
  0
LINE
  5
2FB
100
AcDbEntity
  8
0
100
AcDbLine
 62
7
  6
CONTINUOUS
 10
9.3996010554
 20
13.500016647
 11
4.2999990861
 21
13.500016647
  0
LINE
  5
2FC
100
AcDbEntity
  8
0
100
AcDbLine
 62
7
  6
CONTINUOUS
 10
-4.2999990861
 20
13.500016647
 11
-9.3996010554
 21
13.500016647
  0
LINE
  5
2FD
100
AcDbEntity
  8
0
100
AcDbLine
 62
7
  6
CONTINUOUS
 10
5.0116026005
 20
13.5384140465
 11
4.3383964856
 21
13.5384140465
  0
LINE
  5
2FE
100
AcDbEntity
  8
0
100
AcDbLine
 62
7
  6
CONTINUOUS
 10
-9.4152801339
 20
13.550016647
 11
-4.2
 21
13.550016647
  0
LINE
  5
2FF
100
AcDbEntity
  8
0
100
AcDbLine
 62
7
  6
CONTINUOUS
 10
4.2
 20
13.550016647
 11
9.4152801339
 21
13.550016647
  0
LINE
  5
300
100
AcDbEntity
  8
DRAFT
100
AcDbLine
 62
7
  6
CONTINUOUS
 10
-1.85
 20
14.500016647
 11
1.85
 21
14.500016647
  0
LINE
  5
301
100
AcDbEntity
  8
0
100
AcDbLine
 62
7
  6
CONTINUOUS
 10
-4.2
 20
14.950016647
 11
-5.75
 21
14.950016647
  0
LINE
  5
302
100
AcDbEntity
  8
0
100
AcDbLine
 62
7
  6
CONTINUOUS
 10
4.2
 20
14.950016647
 11
5.75
 21
14.950016647
  0
LINE
  5
303
100
AcDbEntity
  8
0
100
AcDbLine
 62
7
  6
CONTINUOUS
 10
5.75
 20
15.000016647
 11
4.2999990861
 21
15.000016647
  0
LINE
  5
304
100
AcDbEntity
  8
0
100
AcDbLine
 62
7
  6
CONTINUOUS
 10
-4.2999990861
 20
15.000016647
 11
-5.75
 21
15.000016647
  0
LINE
  5
305
100
AcDbEntity
  8
DRAFT
100
AcDbLine
 62
7
  6
CONTINUOUS
 10
-1.8347279814
 20
15.500016647
 11
-1.8281828305
 21
15.500016647
  0
LINE
  5
306
100
AcDbEntity
  8
DRAFT
100
AcDbLine
 62
7
  6
CONTINUOUS
 10
1.8281828305
 20
15.500016647
 11
1.8347279814
 21
15.500016647
  0
LINE
  5
307
100
AcDbEntity
  8
DRAFT
100
AcDbLine
 62
7
  6
CONTINUOUS
 10
1.699897874
 20
16.284410411
 11
-1.699897874
 21
16.284410411
  0
LINE
  5
308
100
AcDbEntity
  8
DRAFT
100
AcDbLine
 62
7
  6
CONTINUOUS
 10
-1.85
 20
18.2062655743
 11
-1.699897874
 21
18.1605921804
  0
LINE
  5
309
100
AcDbEntity
  8
RACCORDO
100
AcDbLine
 62
7
  6
CONTINUOUS
 10
5.8499314592
 20
13.5062998579
 11
5.7313673283
 21
13.550016647
  0
LINE
  5
30A
100
AcDbEntity
  8
0
100
AcDbLine
 62
250
  6
CONTINUOUS
 10
4.15
 20
14.8500175609
 11
4.2
 21
14.8000175609
  0
LINE
  5
30B
100
AcDbEntity
  8
0
100
AcDbLine
 62
250
  6
CONTINUOUS
 10
4.2999990861
 20
15.000016647
 11
4.3499990861
 21
14.950016647
  0
ARC
  5
30C
100
AcDbEntity
  8
0
100
AcDbCircle
 62
7
  6
CONTINUOUS
 10
-1.6019162547
 20
-0.5024385301
 40
14.45015786
100
AcDbArc
 50
212.9038395531
 51
213.3675811125
  0
ARC
  5
30D
100
AcDbEntity
  8
0
100
AcDbCircle
 62
7
  6
CONTINUOUS
 10
-1.9010301755
 20
-0.7089311314
 40
14.0866555322
100
AcDbArc
 50
215.8055862506
 51
216.0023617285
  0
ARC
  5
30E
100
AcDbEntity
  8
0
100
AcDbCircle
 62
7
  6
CONTINUOUS
 10
-2.6862450472
 20
-1.2794663134
 40
13.1160511902
100
AcDbArc
 50
216.0023838832
 51
216.1637272684
  0
ARC
  5
30F
100
AcDbEntity
  8
0
100
AcDbCircle
 62
7
  6
CONTINUOUS
 10
-2.7267884292
 20
-1.3092075746
 40
13.0657688935
100
AcDbArc
 50
216.2346834036
 51
216.7148604467
  0
ARC
  5
310
100
AcDbEntity
  8
RACCORDO
100
AcDbCircle
 62
7
  6
CONTINUOUS
 10
-14.8199999949
 20
-8.3287047494
 40
1.3
100
AcDbArc
 50
179.9999997351
 51
209.3356380007
  0
ARC
  5
311
100
AcDbEntity
  8
0
100
AcDbCircle
 62
7
  6
CONTINUOUS
 10
-6.727875
 20
-8.607516353
 40
0.503479
100
AcDbArc
 50
270.0
 51
42.4124880737
  0
ARC
  5
312
100
AcDbEntity
  8
0
100
AcDbCircle
 62
7
  6
CONTINUOUS
 10
-11.272141
 20
-8.607532353
 40
0.5034633068
100
AcDbArc
 50
137.586977878
 51
269.9998516156
  0
ARC
  5
313
100
AcDbEntity
  8
RACCORDO
100
AcDbCircle
 62
7
  6
CONTINUOUS
 10
-17.7279440432
 20
-1.599983353
 40
0.5
100
AcDbArc
 50
185.1571431635
 51
270.0
  0
ARC
  5
314
100
AcDbEntity
  8
0
100
AcDbCircle
 62
7
  6
CONTINUOUS
 10
-8.99999
 20
-6.067926353
 40
0.4681143808
100
AcDbArc
 50
42.4129885295
 51
137.5875229606
  0
ARC
  5
315
100
AcDbEntity
  8
0
100
AcDbCircle
 62
7
  6
CONTINUOUS
 10
-8.99999
 20
-6.151366353
 40
0.35547823
100
AcDbArc
 50
42.6379644014
 51
137.3625641511
  0
ARC
  5
316
100
AcDbEntity
  8
0
100
AcDbCircle
 62
7
  6
CONTINUOUS
 10
-6.738341
 20
-8.607481353
 40
0.355379
100
AcDbArc
 50
270.0
 51
42.637506848
  0
ARC
  5
317
100
AcDbEntity
  8
0
100
AcDbCircle
 62
7
  6
CONTINUOUS
 10
-11.26181
 20
-8.607556353
 40
0.3553034607
100
AcDbArc
 50
137.3621709958
 51
270.0003689205
  0
ARC
  5
318
100
AcDbEntity
  8
0
100
AcDbCircle
 62
7
  6
CONTINUOUS
 10
-9.726079
 20
-8.295024353
 40
0.296796
100
AcDbArc
 50
270.0
 51
0.0109552796
  0
ARC
  5
319
100
AcDbEntity
  8
0
100
AcDbCircle
 62
7
  6
CONTINUOUS
 10
-9.726079
 20
-7.799519353
 40
0.296656
100
AcDbArc
 50
359.9617788993
 51
90.0
  0
ARC
  5
31A
100
AcDbEntity
  8
0
100
AcDbCircle
 62
7
  6
CONTINUOUS
 10
-9.761955
 20
-7.840105353
 40
0.169514
100
AcDbArc
 50
0.0
 51
90.0
  0
ARC
  5
31B
100
AcDbEntity
  8
0
100
AcDbCircle
 62
7
  6
CONTINUOUS
 10
-9.761955
 20
-8.249571353
 40
0.169513
100
AcDbArc
 50
270.0
 51
0.0012614342
  0
ARC
  5
31C
100
AcDbEntity
  8
0
100
AcDbCircle
 62
7
  6
CONTINUOUS
 10
-5.6002252983
 20
-17.265447886
 40
0.1490003586
100
AcDbArc
 50
243.6850331844
 51
251.9948700656
  0
ARC
  5
31D
100
AcDbEntity
  8
0
100
AcDbCircle
 62
7
  6
CONTINUOUS
 10
-1.5902506696
 20
0.4948929706
 40
14.4640691584
100
AcDbArc
 50
146.8681785459
 51
147.0960575497
  0
ARC
  5
31E
100
AcDbEntity
  8
0
100
AcDbCircle
 62
7
  6
CONTINUOUS
 10
-1.6132301266
 20
0.5098874744
 40
14.4366303068
100
AcDbArc
 50
146.6323019089
 51
146.868165888
  0
ARC
  5
31F
100
AcDbEntity
  8
0
100
AcDbCircle
 62
7
  6
CONTINUOUS
 10
-1.901030177
 20
0.7089644266
 40
14.0866555303
100
AcDbArc
 50
143.9976382715
 51
144.1944137494
  0
ARC
  5
320
100
AcDbEntity
  8
0
100
AcDbCircle
 62
7
  6
CONTINUOUS
 10
-2.7173923802
 20
1.3021310117
 40
13.0775500628
100
AcDbArc
 50
143.8339399121
 51
143.9976145647
  0
ARC
  5
321
100
AcDbEntity
  8
0
100
AcDbCircle
 62
7
  6
CONTINUOUS
 10
-2.7538967219
 20
1.3289117107
 40
13.0322756374
100
AcDbArc
 50
143.2838694763
 51
143.7623055494
  0
CIRCLE
  5
322
100
AcDbEntity
  8
ASSI
100
AcDbCircle
 62
7
  6
CONTINUOUS
 10
-9.5
 20
0.000016647
 40
2.425
  0
CIRCLE
  5
323
100
AcDbEntity
  8
0
100
AcDbCircle
 62
7
  6
CONTINUOUS
 10
-9.5
 20
0.000016647
 40
2.4
  0
ARC
  5
324
100
AcDbEntity
  8
RACCORDO
100
AcDbCircle
 62
7
  6
CONTINUOUS
 10
-14.8199999951
 20
8.3287380436
 40
1.3
100
AcDbArc
 50
150.6643619996
 51
180.0000002706
  0
ARC
  5
325
100
AcDbEntity
  8
RACCORDO
100
AcDbCircle
 62
7
  6
CONTINUOUS
 10
-17.7279440432
 20
1.600016647
 40
0.5
100
AcDbArc
 50
90.0
 51
174.8428568365
  0
ARC
  5
326
100
AcDbEntity
  8
0
100
AcDbCircle
 62
7
  6
CONTINUOUS
 10
-5.6009932567
 20
17.2644153623
 40
0.1490067687
100
AcDbArc
 50
171.6920350302
 51
179.9665490017
  0
ARC
  5
327
100
AcDbEntity
  8
0
100
AcDbCircle
 62
7
  6
CONTINUOUS
 10
1.6019162548
 20
-0.5024385301
 40
14.4501578599
100
AcDbArc
 50
326.6324188875
 51
327.0961604469
  0
ARC
  5
328
100
AcDbEntity
  8
0
100
AcDbCircle
 62
7
  6
CONTINUOUS
 10
1.8972910663
 20
-0.7062216278
 40
14.0912731411
100
AcDbArc
 50
323.9976624607
 51
324.2464340806
  0
ARC
  5
329
100
AcDbEntity
  8
DRAFT
100
AcDbCircle
 62
7
  6
CONTINUOUS
 10
2.6477189995
 20
-1.2514710533
 40
13.1636746187
100
AcDbArc
 50
323.8772147891
 51
323.9976090784
  0
ARC
  5
32A
100
AcDbEntity
  8
DRAFT
100
AcDbCircle
 62
7
  6
CONTINUOUS
 10
2.6961969514
 20
-1.2870188878
 40
13.1035600307
100
AcDbArc
 50
323.2864558915
 51
323.765903615
  0
ARC
  5
32B
100
AcDbEntity
  8
0
100
AcDbCircle
 62
7
  6
CONTINUOUS
 10
8.7
 20
-7.799983353
 40
2.0240299518
100
AcDbArc
 50
292.0885299178
 51
273.4299110983
  0
ARC
  5
32C
100
AcDbEntity
  8
0
100
AcDbCircle
 62
7
  6
CONTINUOUS
 10
8.638781
 20
-11.615540353
 40
1.8043863978
100
AcDbArc
 50
47.231266101
 51
84.2010512492
  0
ARC
  5
32D
100
AcDbEntity
  8
0
100
AcDbCircle
 62
7
  6
CONTINUOUS
 10
8.780786
 20
-11.323270353
 40
1.7827319001
100
AcDbArc
 50
45.4349102329
 51
67.5658789177
  0
CIRCLE
  5
32E
100
AcDbEntity
  8
0
100
AcDbCircle
 62
7
  6
CONTINUOUS
 10
8.7
 20
-7.799983353
 40
1.700044
  0
ARC
  5
32F
100
AcDbEntity
  8
0
100
AcDbCircle
 62
7
  6
CONTINUOUS
 10
8.7
 20
-7.799983353
 40
1.5204522959
100
AcDbArc
 50
134.9002633258
 51
240.6958764731
  0
ARC
  5
330
100
AcDbEntity
  8
0
100
AcDbCircle
 62
7
  6
CONTINUOUS
 10
8.7
 20
-7.799983353
 40
1.5204520975
100
AcDbArc
 50
299.3041235269
 51
44.9957610776
  0
ARC
  5
331
100
AcDbEntity
  8
RACCORDO
100
AcDbCircle
 62
7
  6
CONTINUOUS
 10
14.8199999953
 20
-8.3287047491
 40
1.3
100
AcDbArc
 50
330.6643619848
 51
0.0000002487
  0
ARC
  5
332
100
AcDbEntity
  8
0
100
AcDbCircle
 62
7
  6
CONTINUOUS
 10
8.7
 20
-7.799983353
 40
1.2181566122
100
AcDbArc
 50
299.3041277351
 51
31.9732965954
  0
ARC
  5
333
100
AcDbEntity
  8
0
100
AcDbCircle
 62
7
  6
CONTINUOUS
 10
8.7
 20
-7.799983353
 40
1.2181564327
100
AcDbArc
 50
148.0267046423
 51
240.6958722649
  0
ARC
  5
334
100
AcDbEntity
  8
RACCORDO
100
AcDbCircle
 62
7
  6
CONTINUOUS
 10
17.7279440432
 20
-1.599983353
 40
0.5
100
AcDbArc
 50
270.0
 51
354.8428568365
  0
ARC
  5
335
100
AcDbEntity
  8
0
100
AcDbCircle
 62
7
  6
CONTINUOUS
 10
5.6009953926
 20
-17.2643836762
 40
0.1490046328
100
AcDbArc
 50
351.6910547644
 51
359.9665419482
  0
ARC
  5
336
100
AcDbEntity
  8
RACCORDO
100
AcDbCircle
 62
7
  6
CONTINUOUS
 10
-0.0
 20
0.000016647
 40
18.3
100
AcDbArc
 50
209.3356382171
 51
251.687013001
  0
ARC
  5
337
100
AcDbEntity
  8
RACCORDO
100
AcDbCircle
 62
7
  6
CONTINUOUS
 10
-0.0
 20
0.000016647
 40
18.3
100
AcDbArc
 50
108.312986999
 51
150.6643617829
  0
ARC
  5
338
100
AcDbEntity
  8
RACCORDO
100
AcDbCircle
 62
7
  6
CONTINUOUS
 10
-0.0
 20
0.000016647
 40
18.3
100
AcDbArc
 50
174.8428568365
 51
185.1571431635
  0
ARC
  5
339
100
AcDbEntity
  8
RACCORDO
100
AcDbCircle
 62
7
  6
CONTINUOUS
 10
-0.0
 20
0.000016647
 40
18.3
100
AcDbArc
 50
288.312986999
 51
330.6643617836
  0
ARC
  5
33A
100
AcDbEntity
  8
RACCORDO
100
AcDbCircle
 62
7
  6
CONTINUOUS
 10
-0.0
 20
0.000016647
 40
18.3
100
AcDbArc
 50
29.3356382164
 51
71.687013001
  0
ARC
  5
33B
100
AcDbEntity
  8
RACCORDO
100
AcDbCircle
 62
7
  6
CONTINUOUS
 10
-0.0
 20
0.000016647
 40
18.3
100
AcDbArc
 50
354.8428568365
 51
5.1571431635
  0
ARC
  5
33C
100
AcDbEntity
  8
0
100
AcDbCircle
 62
7
  6
CONTINUOUS
 10
-0.0
 20
0.000016647
 40
18.3
100
AcDbArc
 50
95.8021077619
 51
107.9712618704
  0
ARC
  5
33D
100
AcDbEntity
  8
0
100
AcDbCircle
 62
7
  6
CONTINUOUS
 10
-0.0
 20
0.000016647
 40
18.3
100
AcDbArc
 50
72.0287350968
 51
84.1978922381
  0
ARC
  5
33E
100
AcDbEntity
  8
0
100
AcDbCircle
 62
7
  6
CONTINUOUS
 10
-0.0
 20
0.000016647
 40
18.3
100
AcDbArc
 50
275.8021077619
 51
287.9712649032
  0
ARC
  5
33F
100
AcDbEntity
  8
0
100
AcDbCircle
 62
7
  6
CONTINUOUS
 10
-0.0
 20
0.000016647
 40
18.3
100
AcDbArc
 50
252.0287350968
 51
264.1978922381
  0
ARC
  5
340
100
AcDbEntity
  8
DRAFT
100
AcDbCircle
 62
7
  6
CONTINUOUS
 10
-0.0
 20
0.000016647
 40
18.2399604299
100
AcDbArc
 50
264.6524818781
 51
275.3475181219
  0
ARC
  5
341
100
AcDbEntity
  8
DRAFT
100
AcDbCircle
 62
7
  6
CONTINUOUS
 10
-0.0
 20
0.000016647
 40
18.2399604299
100
AcDbArc
 50
84.6524818781
 51
95.3475181219
  0
ARC
  5
342
100
AcDbEntity
  8
ASSI
100
AcDbCircle
 62
7
  6
CONTINUOUS
 10
-0.0
 20
0.000016647
 40
16.5
100
AcDbArc
 50
214.7290972325
 51
235.2063164478
  0
ARC
  5
343
100
AcDbEntity
  8
ASSI
100
AcDbCircle
 62
7
  6
CONTINUOUS
 10
-0.0
 20
0.000016647
 40
16.5
100
AcDbArc
 50
124.7936835522
 51
145.2709027675
  0
ARC
  5
344
100
AcDbEntity
  8
ASSI
100
AcDbCircle
 62
7
  6
CONTINUOUS
 10
-0.0
 20
0.000016647
 40
16.5
100
AcDbArc
 50
304.7936835522
 51
325.2709027675
  0
ARC
  5
345
100
AcDbEntity
  8
ASSI
100
AcDbCircle
 62
7
  6
CONTINUOUS
 10
-0.0
 20
0.000016647
 40
16.5
100
AcDbArc
 50
34.7290972325
 51
55.2063164478
  0
ARC
  5
346
100
AcDbEntity
  8
0
100
AcDbCircle
 62
7
  6
CONTINUOUS
 10
-0.0
 20
0.000016647
 40
16.4980380414
100
AcDbArc
 50
145.2661795126
 51
146.3542900736
  0
ARC
  5
347
100
AcDbEntity
  8
0
100
AcDbCircle
 62
7
  6
CONTINUOUS
 10
-0.0
 20
0.000016647
 40
16.4980380414
100
AcDbArc
 50
213.6457099264
 51
214.7338204874
  0
ARC
  5
348
100
AcDbEntity
  8
0
100
AcDbCircle
 62
7
  6
CONTINUOUS
 10
-0.0
 20
0.000016647
 40
16.4980380414
100
AcDbArc
 50
33.6457099264
 51
34.7338204874
  0
ARC
  5
349
100
AcDbEntity
  8
0
100
AcDbCircle
 62
7
  6
CONTINUOUS
 10
-0.0
 20
0.000016647
 40
16.4980380414
100
AcDbArc
 50
325.2661795126
 51
326.3542900736
  0
ARC
  5
34A
100
AcDbEntity
  8
DRAFT
100
AcDbCircle
 62
7
  6
CONTINUOUS
 10
-0.0
 20
0.000016647
 40
16.45
100
AcDbArc
 50
124.848211388
 51
143.1632524326
  0
ARC
  5
34B
100
AcDbEntity
  8
DRAFT
100
AcDbCircle
 62
7
  6
CONTINUOUS
 10
-0.0
 20
0.000016647
 40
16.45
100
AcDbArc
 50
36.8367475674
 51
55.151788612
  0
ARC
  5
34C
100
AcDbEntity
  8
DRAFT
100
AcDbCircle
 62
7
  6
CONTINUOUS
 10
-0.0
 20
0.000016647
 40
16.45
100
AcDbArc
 50
304.848211388
 51
323.1632524326
  0
ARC
  5
34D
100
AcDbEntity
  8
DRAFT
100
AcDbCircle
 62
7
  6
CONTINUOUS
 10
-0.0
 20
0.000016647
 40
16.45
100
AcDbArc
 50
216.8367475674
 51
235.151788612
  0
ARC
  5
34E
100
AcDbEntity
  8
0
100
AcDbCircle
 62
250
  6
CONTINUOUS
 10
-0.0
 20
0.000016647
 40
16.0505269509
100
AcDbArc
 50
214.0603254783
 51
214.6562870423
  0
ARC
  5
34F
100
AcDbEntity
  8
0
100
AcDbCircle
 62
250
  6
CONTINUOUS
 10
-0.0
 20
0.000016647
 40
16.0505269509
100
AcDbArc
 50
237.3118768063
 51
237.5928649285
  0
ARC
  5
350
100
AcDbEntity
  8
0
100
AcDbCircle
 62
250
  6
CONTINUOUS
 10
-0.0
 20
0.000016647
 40
16.0505269509
100
AcDbArc
 50
122.4071351076
 51
122.6881232277
  0
ARC
  5
351
100
AcDbEntity
  8
0
100
AcDbCircle
 62
250
  6
CONTINUOUS
 10
-0.0
 20
0.000016647
 40
16.0505269509
100
AcDbArc
 50
145.3437129577
 51
145.9396745217
  0
ARC
  5
352
100
AcDbEntity
  8
0
100
AcDbCircle
 62
250
  6
CONTINUOUS
 10
-0.0
 20
0.000016647
 40
16.0505269509
100
AcDbArc
 50
325.3415395304
 51
325.9396745217
  0
ARC
  5
353
100
AcDbEntity
  8
0
100
AcDbCircle
 62
250
  6
CONTINUOUS
 10
-0.0
 20
0.000016647
 40
16.0505269509
100
AcDbArc
 50
57.3118767723
 51
57.5928648924
  0
ARC
  5
354
100
AcDbEntity
  8
0
100
AcDbCircle
 62
250
  6
CONTINUOUS
 10
-0.0
 20
0.000016647
 40
16.0505269509
100
AcDbArc
 50
34.0603254783
 51
34.6562870423
  0
ARC
  5
355
100
AcDbEntity
  8
0
100
AcDbCircle
 62
250
  6
CONTINUOUS
 10
-0.0
 20
0.000016647
 40
16.0505269509
100
AcDbArc
 50
302.3986010971
 51
302.6858738877
  0
ARC
  5
356
100
AcDbEntity
  8
0
100
AcDbCircle
 62
7
  6
CONTINUOUS
 10
-0.0
 20
0.000016647
 40
16.0464231831
100
AcDbArc
 50
83.4339222789
 51
96.5660777211
  0
ARC
  5
357
100
AcDbEntity
  8
0
100
AcDbCircle
 62
7
  6
CONTINUOUS
 10
-0.0
 20
0.000016647
 40
16.0464231831
100
AcDbArc
 50
263.4339222789
 51
276.5660777211
  0
ARC
  5
358
100
AcDbEntity
  8
0
100
AcDbCircle
 62
7
  6
CONTINUOUS
 10
-0.0
 20
0.000016647
 40
15.8422527735
100
AcDbArc
 50
301.1906054532
 51
301.4908502952
  0
ARC
  5
359
100
AcDbEntity
  8
0
100
AcDbCircle
 62
7
  6
CONTINUOUS
 10
-0.0
 20
0.000016647
 40
15.8422527735
100
AcDbArc
 50
275.4331038022
 51
276.6528305081
  0
ARC
  5
35A
100
AcDbEntity
  8
0
100
AcDbCircle
 62
7
  6
CONTINUOUS
 10
1.5902506694
 20
0.4948929705
 40
14.4640691586
100
AcDbArc
 50
32.9039424503
 51
33.1318214541
  0
ARC
  5
35B
100
AcDbEntity
  8
0
100
AcDbCircle
 62
7
  6
CONTINUOUS
 10
1.6132301263
 20
0.5098874742
 40
14.4366303072
100
AcDbArc
 50
33.131834112
 51
33.3676980911
  0
ARC
  5
35C
100
AcDbEntity
  8
0
100
AcDbCircle
 62
7
  6
CONTINUOUS
 10
1.897290824
 20
0.7062547463
 40
14.0912734403
100
AcDbArc
 50
35.753562514
 51
36.0023375376
  0
ARC
  5
35D
100
AcDbEntity
  8
DRAFT
100
AcDbCircle
 62
7
  6
CONTINUOUS
 10
2.647620427
 20
1.251432725
 40
13.1637964641
100
AcDbArc
 50
36.0023909178
 51
36.1227805118
  0
ARC
  5
35E
100
AcDbEntity
  8
DRAFT
100
AcDbCircle
 62
7
  6
CONTINUOUS
 10
2.6961157413
 20
1.2869932826
 40
13.1036603509
100
AcDbArc
 50
36.2340888659
 51
36.7135379101
  0
ARC
  5
35F
100
AcDbEntity
  8
0
100
AcDbCircle
 62
7
  6
CONTINUOUS
 10
5.6002254269
 20
17.2654773055
 40
0.1490040038
100
AcDbArc
 50
63.7309808217
 51
71.9953775896
  0
CIRCLE
  5
360
100
AcDbEntity
  8
ASSI
100
AcDbCircle
 62
7
  6
CONTINUOUS
 10
9.5
 20
0.000016647
 40
2.425
  0
CIRCLE
  5
361
100
AcDbEntity
  8
0
100
AcDbCircle
 62
7
  6
CONTINUOUS
 10
9.5
 20
0.000016647
 40
2.4
  0
ARC
  5
362
100
AcDbEntity
  8
RACCORDO
100
AcDbCircle
 62
7
  6
CONTINUOUS
 10
14.8199999951
 20
8.328738043
 40
1.3
100
AcDbArc
 50
359.9999997569
 51
29.3356380155
  0
ARC
  5
363
100
AcDbEntity
  8
RACCORDO
100
AcDbCircle
 62
7
  6
CONTINUOUS
 10
17.7279440432
 20
1.600016647
 40
0.5
100
AcDbArc
 50
5.1571431635
 51
90.0
  0
SPLINE
  5
364
100
AcDbEntity
  8
0
100
AcDbSpline
 62
7
  6
CONTINUOUS
 70
0
 71
3
 72
9
 73
5
 74
0
 42
0.0000001
 43
0.0000001
 44
0.0000000001
 40
0.0
 40
0.0
 40
0.0
 40
0.0
 40
0.2853596374
 40
1.0
 40
1.0
 40
1.0
 40
1.0
 10
-5.7158063272
 20
-17.3597601962
 30
0.0
 10
-5.717200583
 20
-17.3613145453
 30
0.0
 10
-5.7222799766
 20
-17.3665542533
 30
0.0
 10
-5.7284305238
 20
-17.3709732253
 30
0.0
 10
-5.7333280955
 20
-17.3728058163
 30
0.0
  0
SPLINE
  5
365
100
AcDbEntity
  8
0
100
AcDbSpline
 62
7
  6
CONTINUOUS
 70
0
 71
3
 72
8
 73
4
 74
0
 42
0.0000001
 43
0.0000001
 44
0.0000000001
 40
0.0
 40
0.0
 40
0.0
 40
0.0
 40
1.0
 40
1.0
 40
1.0
 40
1.0
 10
-5.7333280955
 20
-17.3728058163
 30
0.0
 10
-5.7377935842
 20
-17.3744767289
 30
0.0
 10
-5.7429468438
 20
-17.3749056209
 30
0.0
 10
-5.7475942178
 20
-17.3738405139
 30
0.0
  0
SPLINE
  5
366
100
AcDbEntity
  8
0
100
AcDbSpline
 62
7
  6
CONTINUOUS
 70
0
 71
3
 72
9
 73
5
 74
0
 42
0.0000001
 43
0.0000001
 44
0.0000000001
 40
0.0
 40
0.0
 40
0.0
 40
0.0
 40
0.4441478614
 40
1.0
 40
1.0
 40
1.0
 40
1.0
 10
-5.75
 20
17.3732000053
 30
0.0
 10
-5.7445872373
 20
17.3749914666
 30
0.0
 10
-5.7305190831
 20
17.3742523106
 30
0.0
 10
-5.7205717284
 20
17.36510592
 30
0.0
 10
-5.7158070792
 20
17.3597943286
 30
0.0
  0
SPLINE
  5
367
100
AcDbEntity
  8
0
100
AcDbSpline
 62
7
  6
CONTINUOUS
 70
0
 71
3
 72
9
 73
5
 74
0
 42
0.0000001
 43
0.0000001
 44
0.0000000001
 40
0.0
 40
0.0
 40
0.0
 40
0.0
 40
0.4441450985
 40
1.0
 40
1.0
 40
1.0
 40
1.0
 10
5.75
 20
-17.3731667112
 30
0.0
 10
5.7445871172
 20
-17.3749582123
 30
0.0
 10
5.7305185276
 20
-17.37421888
 30
0.0
 10
5.7205710618
 20
-17.3650720339
 30
0.0
 10
5.7158063287
 20
-17.3597601979
 30
0.0
  0
SPLINE
  5
368
100
AcDbEntity
  8
0
100
AcDbSpline
 62
7
  6
CONTINUOUS
 70
0
 71
3
 72
9
 73
5
 74
0
 42
0.0000001
 43
0.0000001
 44
0.0000000001
 40
0.0
 40
0.0
 40
0.0
 40
0.0
 40
0.2853811052
 40
1.0
 40
1.0
 40
1.0
 40
1.0
 10
5.7157969257
 20
17.3597830073
 30
0.0
 10
5.717191894
 20
17.361338705
 30
0.0
 10
5.7222735767
 20
17.3665825875
 30
0.0
 10
5.7284275378
 20
17.3710053951
 30
0.0
 10
5.7333280618
 20
17.3728390977
 30
0.0
  0
SPLINE
  5
369
100
AcDbEntity
  8
0
100
AcDbSpline
 62
7
  6
CONTINUOUS
 70
0
 71
3
 72
8
 73
4
 74
0
 42
0.0000001
 43
0.0000001
 44
0.0000000001
 40
0.0
 40
0.0
 40
0.0
 40
0.0
 40
1.0
 40
1.0
 40
1.0
 40
1.0
 10
5.7333280618
 20
17.3728390977
 30
0.0
 10
5.7377934762
 20
17.3745099889
 30
0.0
 10
5.7429466363
 20
17.3749389092
 30
0.0
 10
5.7475939468
 20
17.3738738701
 30
0.0
  0
SPLINE
  5
36A
100
AcDbEntity
  8
0
100
AcDbSpline
 62
7
  6
CONTINUOUS
 70
0
 71
3
 72
8
 73
4
 74
0
 42
0.0000001
 43
0.0000001
 44
0.0000000001
 40
0.0
 40
0.0
 40
0.0
 40
0.0
 40
1.0
 40
1.0
 40
1.0
 40
1.0
 10
13.1857864376
 20
8.750016647
 30
0.0
 10
13.1857864376
 20
8.7743276286
 30
0.0
 10
13.1907025667
 20
8.7990549466
 30
0.0
 10
13.1998429407
 20
8.8215822054
 30
0.0
  0
SPLINE
  5
36B
100
AcDbEntity
  8
0
100
AcDbSpline
 62
7
  6
CONTINUOUS
 70
0
 71
3
 72
9
 73
5
 74
0
 42
0.0000001
 43
0.0000001
 44
0.0000000001
 40
0.0
 40
0.0
 40
0.0
 40
0.0
 40
0.4992320406
 40
1.0
 40
1.0
 40
1.0
 40
1.0
 10
13.1998429407
 20
8.8215822054
 30
0.0
 10
13.2153966383
 20
8.859915666
 30
0.0
 10
13.2736804661
 20
8.9274842913
 30
0.0
 10
13.3585039979
 20
8.950016647
 30
0.0
 10
13.4
 20
8.950016647
 30
0.0
  0
SPLINE
  5
36C
100
AcDbEntity
  8
0
100
AcDbSpline
 62
7
  6
CONTINUOUS
 70
0
 71
3
 72
9
 73
5
 74
0
 42
0.0000001
 43
0.0000001
 44
0.0000000001
 40
0.0
 40
0.0
 40
0.0
 40
0.0
 40
0.5007633447
 40
1.0
 40
1.0
 40
1.0
 40
1.0
 10
13.4
 20
8.450016647
 30
0.0
 10
13.3585046706
 20
8.450016647
 30
0.0
 10
13.2736816547
 20
8.4725481646
 30
0.0
 10
13.2153979291
 20
8.5401160013
 30
0.0
 10
13.1998436399
 20
8.5784493221
 30
0.0
  0
SPLINE
  5
36D
100
AcDbEntity
  8
0
100
AcDbSpline
 62
7
  6
CONTINUOUS
 70
0
 71
3
 72
8
 73
4
 74
0
 42
0.0000001
 43
0.0000001
 44
0.0000000001
 40
0.0
 40
0.0
 40
0.0
 40
0.0
 40
1.0
 40
1.0
 40
1.0
 40
1.0
 10
13.1998436399
 20
8.5784493221
 30
0.0
 10
13.1907027046
 20
8.6009770252
 30
0.0
 10
13.1857864376
 20
8.6257050427
 30
0.0
 10
13.1857864376
 20
8.650016647
 30
0.0
  0
SPLINE
  5
36E
100
AcDbEntity
  8
0
100
AcDbSpline
 62
7
  6
CONTINUOUS
 70
0
 71
3
 72
8
 73
4
 74
0
 42
0.0000001
 43
0.0000001
 44
0.0000000001
 40
0.0
 40
0.0
 40
0.0
 40
0.0
 40
1.0
 40
1.0
 40
1.0
 40
1.0
 10
13.1857864376
 20
-8.649983353
 30
0.0
 10
13.1857864376
 20
-8.6256723714
 30
0.0
 10
13.1907025667
 20
-8.6009450534
 30
0.0
 10
13.1998429407
 20
-8.5784177946
 30
0.0
  0
SPLINE
  5
36F
100
AcDbEntity
  8
0
100
AcDbSpline
 62
7
  6
CONTINUOUS
 70
0
 71
3
 72
9
 73
5
 74
0
 42
0.0000001
 43
0.0000001
 44
0.0000000001
 40
0.0
 40
0.0
 40
0.0
 40
0.0
 40
0.4992320406
 40
1.0
 40
1.0
 40
1.0
 40
1.0
 10
13.1998429407
 20
-8.5784177946
 30
0.0
 10
13.2153966383
 20
-8.540084334
 30
0.0
 10
13.2736804661
 20
-8.4725157087
 30
0.0
 10
13.3585039979
 20
-8.449983353
 30
0.0
 10
13.4
 20
-8.449983353
 30
0.0
  0
SPLINE
  5
370
100
AcDbEntity
  8
0
100
AcDbSpline
 62
7
  6
CONTINUOUS
 70
0
 71
3
 72
9
 73
5
 74
0
 42
0.0000001
 43
0.0000001
 44
0.0000000001
 40
0.0
 40
0.0
 40
0.0
 40
0.0
 40
0.5007633447
 40
1.0
 40
1.0
 40
1.0
 40
1.0
 10
13.4
 20
-8.949983353
 30
0.0
 10
13.3585046706
 20
-8.949983353
 30
0.0
 10
13.2736816547
 20
-8.9274518354
 30
0.0
 10
13.2153979291
 20
-8.8598839987
 30
0.0
 10
13.1998436399
 20
-8.8215506779
 30
0.0
  0
SPLINE
  5
371
100
AcDbEntity
  8
0
100
AcDbSpline
 62
7
  6
CONTINUOUS
 70
0
 71
3
 72
8
 73
4
 74
0
 42
0.0000001
 43
0.0000001
 44
0.0000000001
 40
0.0
 40
0.0
 40
0.0
 40
0.0
 40
1.0
 40
1.0
 40
1.0
 40
1.0
 10
13.1998436399
 20
-8.8215506779
 30
0.0
 10
13.1907027046
 20
-8.7990229748
 30
0.0
 10
13.1857864376
 20
-8.7742949573
 30
0.0
 10
13.1857864376
 20
-8.749983353
 30
0.0
  0
LINE
  5
372
100
AcDbEntity
  8
DRAFT
100
AcDbLine
 62
7
  6
CONTINUOUS
 10
13.2807497072
 20
-9.0116893127
 11
13.2656425161
 21
-9.0323468945
  0
LINE
  5
373
100
AcDbEntity
  8
DRAFT
100
AcDbLine
 62
7
  6
CONTINUOUS
 10
13.2656432417
 20
9.0323792001
 11
13.2807501925
 21
9.0117219424
  0
SPLINE
  5
374
100
AcDbEntity
  8
0
100
AcDbSpline
 62
7
  6
CONTINUOUS
 70
0
 71
3
 72
14
 73
10
 74
0
 42
0.0000001
 43
0.0000001
 44
0.0000000001
 40
0.0
 40
0.0
 40
0.0
 40
0.0
 40
0.0714327663
 40
0.1403990094
 40
0.2953599924
 40
0.5296764681
 40
0.7323168775
 40
0.9228551289
 40
1.0
 40
1.0
 40
1.0
 40
1.0
 10
4.0763013719
 20
-8.1340120765
 30
0.0
 10
4.086982151
 20
-8.1340120765
 30
0.0
 10
4.1079564551
 20
-8.1357649217
 30
0.0
 10
4.1516299244
 20
-8.1426706792
 30
0.0
 10
4.2165882945
 20
-8.166706846
 30
0.0
 10
4.291055691
 20
-8.2150367403
 30
0.0
 10
4.3697572307
 20
-8.2659820098
 30
0.0
 10
4.436947404
 20
-8.2911054236
 30
0.0
 10
4.4770825674
 20
-8.2938526639
 30
0.0
 10
4.4886174326
 20
-8.2938526639
 30
0.0
  0
SPLINE
  5
375
100
AcDbEntity
  8
0
100
AcDbSpline
 62
7
  6
CONTINUOUS
 70
0
 71
3
 72
13
 73
9
 74
0
 42
0.0000001
 43
0.0000001
 44
0.0000000001
 40
0.0
 40
0.0
 40
0.0
 40
0.0
 40
0.1280421218
 40
0.2491998699
 40
0.40729335
 40
0.6543072319
 40
0.8263078139
 40
1.0
 40
1.0
 40
1.0
 40
1.0
 10
4.4886174326
 20
-8.2938526639
 30
0.0
 10
4.5025183034
 20
-8.2938526639
 30
0.0
 10
4.5295767107
 20
-8.2903207982
 30
0.0
 10
4.5719837798
 20
-8.2766564503
 30
0.0
 10
4.6198686314
 20
-8.244182703
 30
0.0
 10
4.6620879031
 20
-8.1971014888
 30
0.0
 10
4.6971297669
 20
-8.1430948894
 30
0.0
 10
4.7165324829
 20
-8.1109693404
 30
0.0
 10
4.7261986973
 20
-8.0947784309
 30
0.0
  0
SPLINE
  5
376
100
AcDbEntity
  8
0
100
AcDbSpline
 62
7
  6
CONTINUOUS
 70
0
 71
3
 72
13
 73
9
 74
0
 42
0.0000001
 43
0.0000001
 44
0.0000000001
 40
0.0
 40
0.0
 40
0.0
 40
0.0
 40
0.1401997078
 40
0.2798373852
 40
0.5443265837
 40
0.7811496383
 40
0.8890939865
 40
1.0
 40
1.0
 40
1.0
 40
1.0
 10
4.6579038474
 20
-7.8862578983
 30
0.0
 10
4.6522728631
 20
-7.8964299935
 30
0.0
 10
4.6410896412
 20
-7.916758725
 30
0.0
 10
4.6189004306
 20
-7.9561046465
 30
0.0
 10
4.5896564802
 20
-8.0003892675
 30
0.0
 10
4.552881753
 20
-8.0370395625
 30
0.0
 10
4.5177564614
 20
-8.0518319177
 30
0.0
 10
4.4996311675
 20
-8.055181605
 30
0.0
 10
4.4904338029
 20
-8.055181605
 30
0.0
  0
SPLINE
  5
377
100
AcDbEntity
  8
0
100
AcDbSpline
 62
7
  6
CONTINUOUS
 70
0
 71
3
 72
13
 73
9
 74
0
 42
0.0000001
 43
0.0000001
 44
0.0000000001
 40
0.0
 40
0.0
 40
0.0
 40
0.0
 40
0.1345694109
 40
0.3030713837
 40
0.463210334
 40
0.7157783978
 40
0.8649137229
 40
1.0
 40
1.0
 40
1.0
 40
1.0
 10
4.4904338029
 20
-8.055181605
 30
0.0
 10
4.4707558058
 20
-8.055181605
 30
0.0
 10
4.4272293895
 20
-8.0411848051
 30
0.0
 10
4.3679432415
 20
-8.0091349775
 30
0.0
 10
4.2938757865
 20
-7.9673258018
 30
0.0
 10
4.2211247878
 20
-7.928689344
 30
0.0
 10
4.1469592104
 20
-7.9025576981
 30
0.0
 10
4.1055000756
 20
-7.8953410176
 30
0.0
 10
4.0857464975
 20
-7.8953410176
 30
0.0
  0
SPLINE
  5
378
100
AcDbEntity
  8
0
100
AcDbSpline
 62
7
  6
CONTINUOUS
 70
0
 71
3
 72
13
 73
9
 74
0
 42
0.0000001
 43
0.0000001
 44
0.0000000001
 40
0.0
 40
0.0
 40
0.0
 40
0.0
 40
0.0927729075
 40
0.2643731917
 40
0.4670990455
 40
0.6707029957
 40
0.8364062731
 40
1.0
 40
1.0
 40
1.0
 40
1.0
 10
4.0857464975
 20
-7.8953410176
 30
0.0
 10
4.0755489086
 20
-7.8953410176
 30
0.0
 10
4.0465068329
 20
-7.8974902907
 30
0.0
 10
3.9961310359
 20
-7.9109180745
 30
0.0
 10
3.9430039461
 20
-7.947771014
 30
0.0
 10
3.9011258149
 20
-7.995194232
 30
0.0
 10
3.8704790635
 20
-8.0453758109
 30
0.0
 10
3.8557159953
 20
-8.0784591639
 30
0.0
 10
3.8481649556
 20
-8.0947791373
 30
0.0
  0
SPLINE
  5
379
100
AcDbEntity
  8
0
100
AcDbSpline
 62
7
  6
CONTINUOUS
 70
0
 71
3
 72
13
 73
9
 74
0
 42
0.0000001
 43
0.0000001
 44
0.0000000001
 40
0.0
 40
0.0
 40
0.0
 40
0.0
 40
0.0885469108
 40
0.1776468887
 40
0.3560230126
 40
0.6077132786
 40
0.8027578089
 40
1.0
 40
1.0
 40
1.0
 40
1.0
 10
3.9168244538
 20
-8.3032967834
 30
0.0
 10
3.9194883304
 20
-8.2965160026
 30
0.0
 10
3.9248039975
 20
-8.2829042931
 30
0.0
 10
3.935688176
 20
-8.2556876888
 30
0.0
 10
3.9552773839
 20
-8.217723817
 30
0.0
 10
3.9842747822
 20
-8.1744850912
 30
0.0
 10
4.0274976229
 20
-8.1421066195
 30
0.0
 10
4.0600730973
 20
-8.1340120765
 30
0.0
 10
4.0763013719
 20
-8.1340120765
 30
0.0
  0
SPLINE
  5
37A
100
AcDbEntity
  8
0
100
AcDbSpline
 62
7
  6
CONTINUOUS
 70
0
 71
3
 72
13
 73
9
 74
0
 42
0.0000001
 43
0.0000001
 44
0.0000000001
 40
0.0
 40
0.0
 40
0.0
 40
0.0
 40
0.1856479259
 40
0.4427973682
 40
0.6049969334
 40
0.7707561477
 40
0.8970169567
 40
1.0
 40
1.0
 40
1.0
 40
1.0
 10
3.6047832162
 20
-7.882427525
 30
0.0
 10
3.6047832162
 20
-7.8112263827
 30
0.0
 10
3.5982842541
 20
-7.641547169
 30
0.0
 10
3.5686449611
 20
-7.4099626598
 30
0.0
 10
3.4918947129
 20
-7.1972305929
 30
0.0
 10
3.3769922735
 20
-7.0575704529
 30
0.0
 10
3.2347477669
 20
-6.9954809193
 30
0.0
 10
3.1466190474
 20
-6.9845495832
 30
0.0
 10
3.1071221864
 20
-6.9845495832
 30
0.0
  0
SPLINE
  5
37B
100
AcDbEntity
  8
0
100
AcDbSpline
 62
7
  6
CONTINUOUS
 70
0
 71
3
 72
14
 73
10
 74
0
 42
0.0000001
 43
0.0000001
 44
0.0000000001
 40
0.0
 40
0.0
 40
0.0
 40
0.0
 40
0.0352191342
 40
0.1029219007
 40
0.1983527216
 40
0.2939909865
 40
0.5145961338
 40
0.7563515445
 40
1.0
 40
1.0
 40
1.0
 40
1.0
 10
3.1071221864
 20
-6.9845495832
 30
0.0
 10
3.0936180824
 20
-6.9845495832
 30
0.0
 10
3.0542628193
 20
-6.9885937209
 30
0.0
 10
2.9789089337
 20
-6.9985662986
 30
0.0
 10
2.8835593128
 20
-7.0324335408
 30
0.0
 10
2.7617869357
 20
-7.1372029435
 30
0.0
 10
2.6636920828
 20
-7.3349431375
 30
0.0
 10
2.6164485857
 20
-7.6025926016
 30
0.0
 10
2.6098478397
 20
-7.7890051809
 30
0.0
 10
2.6098478397
 20
-7.882427525
 30
0.0
  0
SPLINE
  5
37C
100
AcDbEntity
  8
0
100
AcDbSpline
 62
7
  6
CONTINUOUS
 70
0
 71
3
 72
14
 73
10
 74
0
 42
0.0000001
 43
0.0000001
 44
0.0000000001
 40
0.0
 40
0.0
 40
0.0
 40
0.0
 40
0.1850879033
 40
0.2954786164
 40
0.4852756959
 40
0.6744966508
 40
0.8331073612
 40
0.9296647263
 40
1.0
 40
1.0
 40
1.0
 40
1.0
 10
2.6098478397
 20
-7.882427525
 30
0.0
 10
2.6098478397
 20
-7.9534998663
 30
0.0
 10
2.6140069271
 20
-8.0669946521
 30
0.0
 10
2.6330169843
 20
-8.2525695932
 30
0.0
 10
2.6714271167
 20
-8.4364881559
 30
0.0
 10
2.7554723654
 20
-8.6310583503
 30
0.0
 10
2.8950979496
 20
-8.7406669427
 30
0.0
 10
3.0157465674
 20
-8.7787305815
 30
0.0
 10
3.0801139785
 20
-8.7822388818
 30
0.0
 10
3.1071221864
 20
-8.7822388818
 30
0.0
  0
SPLINE
  5
37D
100
AcDbEntity
  8
0
100
AcDbSpline
 62
7
  6
CONTINUOUS
 70
0
 71
3
 72
13
 73
9
 74
0
 42
0.0000001
 43
0.0000001
 44
0.0000000001
 40
0.0
 40
0.0
 40
0.0
 40
0.0
 40
0.1028854479
 40
0.2291659425
 40
0.3952737717
 40
0.6046312464
 40
0.8148635236
 40
1.0
 40
1.0
 40
1.0
 40
1.0
 10
3.1071221864
 20
-8.7822388818
 30
0.0
 10
3.1466190474
 20
-8.7822388818
 30
0.0
 10
3.2348343247
 20
-8.7713819566
 30
0.0
 10
3.3771091969
 20
-8.7086815354
 30
0.0
 10
3.5038498039
 20
-8.5539909698
 30
0.0
 10
3.5694369585
 20
-8.3357821096
 30
0.0
 10
3.5994631631
 20
-8.1054202047
 30
0.0
 10
3.6047832162
 20
-7.9534998663
 30
0.0
 10
3.6047832162
 20
-7.882427525
 30
0.0
  0
SPLINE
  5
37E
100
AcDbEntity
  8
0
100
AcDbSpline
 62
7
  6
CONTINUOUS
 70
0
 71
3
 72
14
 73
10
 74
0
 42
0.0000001
 43
0.0000001
 44
0.0000000001
 40
0.0
 40
0.0
 40
0.0
 40
0.0
 40
0.2834028275
 40
0.4539271409
 40
0.6746867381
 40
0.8239194675
 40
0.8975057799
 40
0.9468330802
 40
1.0
 40
1.0
 40
1.0
 40
1.0
 10
2.9010201438
 20
-7.882427525
 30
0.0
 10
2.9010201438
 20
-7.8147457243
 30
0.0
 10
2.9016723728
 20
-7.7062136704
 30
0.0
 10
2.9142809965
 20
-7.5456388681
 30
0.0
 10
2.9317901383
 20
-7.4171344779
 30
0.0
 10
2.9779769639
 20
-7.3185390675
 30
0.0
 10
3.029069369
 20
-7.2751615515
 30
0.0
 10
3.0699687321
 20
-7.2632444811
 30
0.0
 10
3.0944249494
 20
-7.2606412501
 30
0.0
 10
3.1071221864
 20
-7.2606412501
 30
0.0
  0
SPLINE
  5
37F
100
AcDbEntity
  8
0
100
AcDbSpline
 62
7
  6
CONTINUOUS
 70
0
 71
3
 72
14
 73
10
 74
0
 42
0.0000001
 43
0.0000001
 44
0.0000000001
 40
0.0
 40
0.0
 40
0.0
 40
0.0
 40
0.0531286742
 40
0.1024204909
 40
0.2014589346
 40
0.3259305922
 40
0.546432472
 40
0.783696216
 40
1.0
 40
1.0
 40
1.0
 40
1.0
 10
3.1071221864
 20
-7.2606412501
 30
0.0
 10
3.1198194234
 20
-7.2606412501
 30
0.0
 10
3.1443031201
 20
-7.2632014446
 30
0.0
 10
3.1909766272
 20
-7.2770876603
 30
0.0
 10
3.2409733181
 20
-7.3238123139
 30
0.0
 10
3.2828413952
 20
-7.4229396081
 30
0.0
 10
3.3026046562
 20
-7.561569676
 30
0.0
 10
3.3118275126
 20
-7.7222876626
 30
0.0
 10
3.313610912
 20
-7.8307330219
 30
0.0
 10
3.313610912
 20
-7.882427525
 30
0.0
  0
SPLINE
  5
380
100
AcDbEntity
  8
0
100
AcDbSpline
 62
7
  6
CONTINUOUS
 70
0
 71
3
 72
13
 73
9
 74
0
 42
0.0000001
 43
0.0000001
 44
0.0000000001
 40
0.0
 40
0.0
 40
0.0
 40
0.0
 40
0.2157397901
 40
0.4010006197
 40
0.6351243765
 40
0.7990235885
 40
0.8982798778
 40
1.0
 40
1.0
 40
1.0
 40
1.0
 10
3.313610912
 20
-7.882427525
 30
0.0
 10
3.313610912
 20
-7.9340575907
 30
0.0
 10
3.3116515475
 20
-8.0299776985
 30
0.0
 10
3.3052732906
 20
-8.1820415315
 30
0.0
 10
3.286442805
 20
-8.3201047813
 30
0.0
 10
3.2482191576
 20
-8.4359081877
 30
0.0
 10
3.1814160235
 20
-8.4983694034
 30
0.0
 10
3.1314654779
 20
-8.5061472149
 30
0.0
 10
3.1071221864
 20
-8.5061472149
 30
0.0
  0
SPLINE
  5
381
100
AcDbEntity
  8
0
100
AcDbSpline
 62
7
  6
CONTINUOUS
 70
0
 71
3
 72
14
 73
10
 74
0
 42
0.0000001
 43
0.0000001
 44
0.0000000001
 40
0.0
 40
0.0
 40
0.0
 40
0.0
 40
0.0529996926
 40
0.15006521
 40
0.2917823737
 40
0.4038991228
 40
0.59903006
 40
0.7177500359
 40
1.0
 40
1.0
 40
1.0
 40
1.0
 10
3.1071221864
 20
-8.5061472149
 30
0.0
 10
3.0944373858
 20
-8.5061472149
 30
0.0
 10
3.0584284847
 20
-8.503683787
 30
0.0
 10
2.9919203898
 20
-8.4717693056
 30
0.0
 10
2.9518358682
 20
-8.3930664101
 30
0.0
 10
2.922118007
 20
-8.290409611
 30
0.0
 10
2.9109469065
 20
-8.1883039497
 30
0.0
 10
2.9019842192
 20
-8.0460637703
 30
0.0
 10
2.9010201438
 20
-7.9499804548
 30
0.0
 10
2.9010201438
 20
-7.882427525
 30
0.0
  0
SPLINE
  5
382
100
AcDbEntity
  8
0
100
AcDbSpline
 62
7
  6
CONTINUOUS
 70
0
 71
3
 72
13
 73
9
 74
0
 42
0.0000001
 43
0.0000001
 44
0.0000000001
 40
0.0
 40
0.0
 40
0.0
 40
0.0
 40
0.0016705068
 40
0.1354965556
 40
0.3641314264
 40
0.6397559973
 40
0.7940224071
 40
1.0
 40
1.0
 40
1.0
 40
1.0
 10
1.4766025259
 20
-7.9910303663
 30
0.0
 10
1.4766637775
 20
-7.9909129715
 30
0.0
 10
1.4816273404
 20
-7.9813885645
 30
0.0
 10
1.4940010586
 20
-7.9552802825
 30
0.0
 10
1.5247335834
 20
-7.914335296
 30
0.0
 10
1.5683788209
 20
-7.8834571017
 30
0.0
 10
1.6165493098
 20
-7.8675551607
 30
0.0
 10
1.645293691
 20
-7.8650061167
 30
0.0
 10
1.6616205895
 20
-7.8650061167
 30
0.0
  0
SPLINE
  5
383
100
AcDbEntity
  8
0
100
AcDbSpline
 62
7
  6
CONTINUOUS
 70
0
 71
3
 72
14
 73
10
 74
0
 42
0.0000001
 43
0.0000001
 44
0.0000000001
 40
0.0
 40
0.0
 40
0.0
 40
0.0
 40
0.0966121779
 40
0.2120371391
 40
0.3982235185
 40
0.5578504468
 40
0.7291778851
 40
0.8177850235
 40
1.0
 40
1.0
 40
1.0
 40
1.0
 10
1.6616205895
 20
-7.8650061167
 30
0.0
 10
1.6753222453
 20
-7.8650061167
 30
0.0
 10
1.7056641028
 20
-7.8662331348
 30
0.0
 10
1.7593642409
 20
-7.886407011
 30
0.0
 10
1.8110730218
 20
-7.9296615005
 30
0.0
 10
1.8467090613
 20
-7.994822672
 30
0.0
 10
1.8638801527
 20
-8.052101898
 30
0.0
 10
1.8746810374
 20
-8.1138986057
 30
0.0
 10
1.8773897073
 20
-8.152377404
 30
0.0
 10
1.8773897073
 20
-8.1782193522
 30
0.0
  0
SPLINE
  5
384
100
AcDbEntity
  8
0
100
AcDbSpline
 62
7
  6
CONTINUOUS
 70
0
 71
3
 72
14
 73
10
 74
0
 42
0.0000001
 43
0.0000001
 44
0.0000000001
 40
0.0
 40
0.0
 40
0.0
 40
0.0
 40
0.1555851968
 40
0.347323569
 40
0.5981461645
 40
0.7460489305
 40
0.8528530836
 40
0.9249812045
 40
1.0
 40
1.0
 40
1.0
 40
1.0
 10
1.8773897073
 20
-8.1782193522
 30
0.0
 10
1.8773897073
 20
-8.200752095
 30
0.0
 10
1.8741319429
 20
-8.2510832503
 30
0.0
 10
1.8587247423
 20
-8.3364852312
 30
0.0
 10
1.8238182947
 20
-8.4167364594
 30
0.0
 10
1.7725932145
 20
-8.4705733568
 30
0.0
 10
1.7310635143
 20
-8.4945275017
 30
0.0
 10
1.6954193364
 20
-8.5045506495
 30
0.0
 10
1.6740319749
 20
-8.5061265419
 30
0.0
 10
1.6631673215
 20
-8.5061265419
 30
0.0
  0
SPLINE
  5
385
100
AcDbEntity
  8
0
100
AcDbSpline
 62
7
  6
CONTINUOUS
 70
0
 71
3
 72
14
 73
10
 74
0
 42
0.0000001
 43
0.0000001
 44
0.0000000001
 40
0.0
 40
0.0
 40
0.0
 40
0.0
 40
0.0871461817
 40
0.2803676724
 40
0.4669712024
 40
0.6274068671
 40
0.7582200186
 40
0.899957261
 40
1.0
 40
1.0
 40
1.0
 40
1.0
 10
1.6631673215
 20
-8.5061265419
 30
0.0
 10
1.6530929284
 20
-8.5061265419
 30
0.0
 10
1.6206416666
 20
-8.5044050796
 30
0.0
 10
1.5680857662
 20
-8.4866558658
 30
0.0
 10
1.519643264
 20
-8.4448750609
 30
0.0
 10
1.4919620903
 20
-8.3962003642
 30
0.0
 10
1.4767144773
 20
-8.3484642516
 30
0.0
 10
1.4663252724
 20
-8.3065039658
 30
0.0
 10
1.4641511266
 20
-8.2785851496
 30
0.0
 10
1.4628583189
 20
-8.2670923551
 30
0.0
  0
SPLINE
  5
386
100
AcDbEntity
  8
0
100
AcDbSpline
 62
7
  6
CONTINUOUS
 70
0
 71
3
 72
14
 73
10
 74
0
 42
0.0000001
 43
0.0000001
 44
0.0000000001
 40
0.0
 40
0.0
 40
0.0
 40
0.0
 40
0.1090541263
 40
0.3038686281
 40
0.4748077129
 40
0.6318156585
 40
0.7808752173
 40
0.9273823816
 40
1.0
 40
1.0
 40
1.0
 40
1.0
 10
1.1798076543
 20
-8.2670923543
 30
0.0
 10
1.1823891548
 20
-8.2950836368
 30
0.0
 10
1.1865796154
 20
-8.3733925583
 30
0.0
 10
1.2192137463
 20
-8.4930252418
 30
0.0
 10
1.2860470763
 20
-8.6117353847
 30
0.0
 10
1.3753168048
 20
-8.6987412709
 30
0.0
 10
1.4786192128
 20
-8.7555001656
 30
0.0
 10
1.5716603685
 20
-8.7794555242
 30
0.0
 10
1.6282085326
 20
-8.7822182088
 30
0.0
 10
1.6469266352
 20
-8.7822182088
 30
0.0
  0
SPLINE
  5
387
100
AcDbEntity
  8
0
100
AcDbSpline
 62
7
  6
CONTINUOUS
 70
0
 71
3
 72
15
 73
11
 74
0
 42
0.0000001
 43
0.0000001
 44
0.0000000001
 40
0.0
 40
0.0
 40
0.0
 40
0.0
 40
0.108062554
 40
0.2049264
 40
0.3364521058
 40
0.4602456247
 40
0.6223569364
 40
0.742136643
 40
0.8952441235
 40
1.0
 40
1.0
 40
1.0
 40
1.0
 10
1.6469266352
 20
-8.7822182088
 30
0.0
 10
1.6800241307
 20
-8.7822182088
 30
0.0
 10
1.7428812787
 20
-8.7775847285
 30
0.0
 10
1.8437268394
 20
-8.7531679268
 30
0.0
 10
1.9390878919
 20
-8.699835702
 30
0.0
 10
2.0355066798
 20
-8.6141748616
 30
0.0
 10
2.099895818
 20
-8.5052915316
 30
0.0
 10
2.1422384661
 20
-8.3786919957
 30
0.0
 10
2.1636243327
 20
-8.2645470919
 30
0.0
 10
2.1685620114
 20
-8.185556363
 30
0.0
 10
2.1685620114
 20
-8.1534716398
 30
0.0
  0
SPLINE
  5
388
100
AcDbEntity
  8
0
100
AcDbSpline
 62
7
  6
CONTINUOUS
 70
0
 71
3
 72
16
 73
12
 74
0
 42
0.0000001
 43
0.0000001
 44
0.0000000001
 40
0.0
 40
0.0
 40
0.0
 40
0.0
 40
0.0603102014
 40
0.1752889121
 40
0.3305005989
 40
0.4654288584
 40
0.5887925441
 40
0.7012171469
 40
0.8072151964
 40
0.9061924244
 40
1.0
 40
1.0
 40
1.0
 40
1.0
 10
2.1685620114
 20
-8.1534716398
 30
0.0
 10
2.1685620114
 20
-8.1375344142
 30
0.0
 10
2.1653070393
 20
-8.0912732127
 30
0.0
 10
2.1578913311
 20
-8.0042929947
 30
0.0
 10
2.1336283027
 20
-7.8989809475
 30
0.0
 10
2.0847599451
 20
-7.8006818438
 30
0.0
 10
2.0282468733
 20
-7.7195878709
 30
0.0
 10
1.9580860791
 20
-7.6617239173
 30
0.0
 10
1.8859806814
 20
-7.6175781519
 30
0.0
 10
1.8094789422
 20
-7.595830645
 30
0.0
 10
1.7587193601
 20
-7.5885277668
 30
0.0
 10
1.7339303118
 20
-7.5885277668
 30
0.0
  0
SPLINE
  5
389
100
AcDbEntity
  8
0
100
AcDbSpline
 62
7
  6
CONTINUOUS
 70
0
 71
3
 72
12
 73
8
 74
0
 42
0.0000001
 43
0.0000001
 44
0.0000000001
 40
0.0
 40
0.0
 40
0.0
 40
0.0
 40
0.1731224323
 40
0.3282667855
 40
0.5074297015
 40
0.7384134235
 40
1.0
 40
1.0
 40
1.0
 40
1.0
 10
1.7339303118
 20
-7.5885277668
 30
0.0
 10
1.7177289296
 20
-7.5885277668
 30
0.0
 10
1.6870309847
 20
-7.5905989269
 30
0.0
 10
1.6398666564
 20
-7.5967026788
 30
0.0
 10
1.5887949626
 20
-7.61141435
 30
0.0
 10
1.5321776308
 20
-7.6398510877
 30
0.0
 10
1.4960799669
 20
-7.6688329483
 30
0.0
 10
1.4772261005
 20
-7.6844473591
 30
0.0
  0
SPLINE
  5
38A
100
AcDbEntity
  8
0
100
AcDbSpline
 62
7
  6
CONTINUOUS
 70
0
 71
3
 72
9
 73
5
 74
0
 42
0.0000001
 43
0.0000001
 44
0.0000000001
 40
0.0
 40
0.0
 40
0.0
 40
0.0
 40
0.4998391003
 40
1.0
 40
1.0
 40
1.0
 40
1.0
 10
-5.6462807074
 20
17.4071851179
 30
0.0
 10
-5.6724147612
 20
17.3987081388
 30
0.0
 10
-5.7209461152
 20
17.3664424583
 30
0.0
 10
-5.744474604
 20
17.3131511512
 30
0.0
 10
-5.7484363054
 20
17.2859459103
 30
0.0
  0
SPLINE
  5
38B
100
AcDbEntity
  8
0
100
AcDbSpline
 62
7
  6
CONTINUOUS
 70
0
 71
3
 72
9
 73
5
 74
0
 42
0.0000001
 43
0.0000001
 44
0.0000000001
 40
0.0
 40
0.0
 40
0.0
 40
0.0
 40
0.4998500529
 40
1.0
 40
1.0
 40
1.0
 40
1.0
 10
5.75
 20
17.264503982
 30
0.0
 10
5.75
 20
17.2919830172
 30
0.0
 10
5.7342775614
 20
17.348110446
 30
0.0
 10
5.6908333097
 20
17.3869336263
 30
0.0
 10
5.6661725696
 20
17.3990930512
 30
0.0
  0
SPLINE
  5
38C
100
AcDbEntity
  8
0
100
AcDbSpline
 62
7
  6
CONTINUOUS
 70
0
 71
3
 72
9
 73
5
 74
0
 42
0.0000001
 43
0.0000001
 44
0.0000000001
 40
0.0
 40
0.0
 40
0.0
 40
0.0
 40
0.4998379509
 40
1.0
 40
1.0
 40
1.0
 40
1.0
 10
5.6462816288
 20
-17.4071515249
 30
0.0
 10
5.6724149377
 20
-17.3986747859
 30
0.0
 10
5.7209451605
 20
-17.3664104575
 30
0.0
 10
5.7444738888
 20
-17.3131209614
 30
0.0
 10
5.7484359595
 20
-17.2859164381
 30
0.0
  0
SPLINE
  5
38D
100
AcDbEntity
  8
0
100
AcDbSpline
 62
7
  6
CONTINUOUS
 70
0
 71
3
 72
9
 73
5
 74
0
 42
0.0000001
 43
0.0000001
 44
0.0000000001
 40
0.0
 40
0.0
 40
0.0
 40
0.0
 40
0.499819416
 40
1.0
 40
1.0
 40
1.0
 40
1.0
 10
-5.75
 20
-17.2644706879
 30
0.0
 10
-5.75
 20
-17.2919291484
 30
0.0
 10
-5.7343012019
 20
-17.348016258
 30
0.0
 10
-5.6909135679
 20
-17.3868360073
 30
0.0
 10
-5.6662779554
 20
-17.3990074359
 30
0.0
  0
SPLINE
  5
38E
100
AcDbEntity
  8
0
100
AcDbSpline
 62
7
  6
CONTINUOUS
 70
0
 71
3
 72
14
 73
10
 74
0
 42
0.0000001
 43
0.0000001
 44
0.0000000001
 40
0.0
 40
0.0
 40
0.0
 40
0.0
 40
0.0652551132
 40
0.1182318957
 40
0.3304958227
 40
0.5788356249
 40
0.7944476957
 40
0.9357562146
 40
1.0
 40
1.0
 40
1.0
 40
1.0
 10
0.1126987405
 20
-8.4600703181
 30
0.0
 10
0.1253690035
 20
-8.4390880805
 30
0.0
 10
0.1473913302
 20
-8.4001649869
 30
0.0
 10
0.2333222757
 20
-8.3098156279
 30
0.0
 10
0.3792793758
 20
-8.1841925194
 30
0.0
 10
0.5797750982
 20
-8.0253444268
 30
0.0
 10
0.700253178
 20
-7.8249768671
 30
0.0
 10
0.7325460416
 20
-7.6684880515
 30
0.0
 10
0.7362255761
 20
-7.5912831322
 30
0.0
 10
0.7362255761
 20
-7.567151992
 30
0.0
  0
SPLINE
  5
38F
100
AcDbEntity
  8
0
100
AcDbSpline
 62
7
  6
CONTINUOUS
 70
0
 71
3
 72
13
 73
9
 74
0
 42
0.0000001
 43
0.0000001
 44
0.0000000001
 40
0.0
 40
0.0
 40
0.0
 40
0.0
 40
0.1032302293
 40
0.2441442576
 40
0.4936344215
 40
0.6857525144
 40
0.8397495956
 40
1.0
 40
1.0
 40
1.0
 40
1.0
 10
0.7362255761
 20
-7.567151992
 30
0.0
 10
0.7363380605
 20
-7.5386246038
 30
0.0
 10
0.7327820388
 20
-7.4710469519
 30
0.0
 10
0.7058512672
 20
-7.3368711352
 30
0.0
 10
0.633027068
 20
-7.1883088742
 30
0.0
 10
0.5061657278
 20
-7.0773645317
 30
0.0
 10
0.3743603535
 20
-7.0252771251
 30
0.0
 10
0.287103159
 20
-7.0149756613
 30
0.0
 10
0.2428180594
 20
-7.0149686583
 30
0.0
  0
SPLINE
  5
390
100
AcDbEntity
  8
0
100
AcDbSpline
 62
7
  6
CONTINUOUS
 70
0
 71
3
 72
14
 73
10
 74
0
 42
0.0000001
 43
0.0000001
 44
0.0000000001
 40
0.0
 40
0.0
 40
0.0
 40
0.0
 40
0.0904463275
 40
0.1776035503
 40
0.3108354687
 40
0.5103583986
 40
0.7196593013
 40
0.8492223843
 40
1.0
 40
1.0
 40
1.0
 40
1.0
 10
0.2428180594
 20
-7.0149686583
 30
0.0
 10
0.2164428641
 20
-7.0149686583
 30
0.0
 10
0.1644755679
 20
-7.0186575006
 30
0.0
 10
0.0763690879
 20
-7.0415106293
 30
0.0
 10
-0.0347451801
 20
-7.0965038101
 30
0.0
 10
-0.1450110832
 20
-7.2169775498
 30
0.0
 10
-0.199328171
 20
-7.3670064194
 30
0.0
 10
-0.2234814809
 20
-7.5080400339
 30
0.0
 10
-0.2242941173
 20
-7.5900037772
 30
0.0
 10
-0.2266078958
 20
-7.6339113525
 30
0.0
  0
SPLINE
  5
391
100
AcDbEntity
  8
0
100
AcDbSpline
 62
7
  6
CONTINUOUS
 70
0
 71
3
 72
12
 73
8
 74
0
 42
0.0000001
 43
0.0000001
 44
0.0000000001
 40
0.0
 40
0.0
 40
0.0
 40
0.0
 40
0.1987967625
 40
0.4492218425
 40
0.684998795
 40
0.8954609423
 40
1.0
 40
1.0
 40
1.0
 40
1.0
 10
0.0483211338
 20
-7.6339113528
 30
0.0
 10
0.0493024588
 20
-7.6048793181
 30
0.0
 10
0.0507008128
 20
-7.5391942287
 30
0.0
 10
0.065627848
 20
-7.4398734807
 30
0.0
 10
0.1161170543
 20
-7.3454344196
 30
0.0
 10
0.1935023386
 20
-7.3096785517
 30
0.0
 10
0.2395345741
 20
-7.3053707412
 30
0.0
 10
0.2548052327
 20
-7.3057542794
 30
0.0
  0
SPLINE
  5
392
100
AcDbEntity
  8
0
100
AcDbSpline
 62
7
  6
CONTINUOUS
 70
0
 71
3
 72
11
 73
7
 74
0
 42
0.0000001
 43
0.0000001
 44
0.0000000001
 40
0.0
 40
0.0
 40
0.0
 40
0.0
 40
0.1802594941
 40
0.5400380017
 40
0.8325598106
 40
1.0
 40
1.0
 40
1.0
 40
1.0
 10
0.2548052327
 20
-7.3057542794
 30
0.0
 10
0.2759368665
 20
-7.3044986029
 30
0.0
 10
0.3405765116
 20
-7.3161421404
 30
0.0
 10
0.4175204788
 20
-7.3883769659
 30
0.0
 10
0.4487573484
 20
-7.481445806
 30
0.0
 10
0.4529903382
 20
-7.5355022094
 30
0.0
 10
0.4531736151
 20
-7.5551648188
 30
0.0
  0
SPLINE
  5
393
100
AcDbEntity
  8
0
100
AcDbSpline
 62
7
  6
CONTINUOUS
 70
0
 71
3
 72
14
 73
10
 74
0
 42
0.0000001
 43
0.0000001
 44
0.0000000001
 40
0.0
 40
0.0
 40
0.0
 40
0.0
 40
0.0326556103
 40
0.1208667668
 40
0.3416589678
 40
0.5791634907
 40
0.7948114943
 40
0.9100659164
 40
1.0
 40
1.0
 40
1.0
 40
1.0
 10
0.4531736151
 20
-7.5551648188
 30
0.0
 10
0.4531736151
 20
-7.5709089334
 30
0.0
 10
0.4507190044
 20
-7.6291564518
 30
0.0
 10
0.4052988488
 20
-7.7921322197
 30
0.0
 10
0.2002867574
 20
-7.9750413862
 30
0.0
 10
-0.045727206
 20
-8.1825293954
 30
0.0
 10
-0.1952322116
 20
-8.423159976
 30
0.0
 10
-0.2351399972
 20
-8.623744912
 30
0.0
 10
-0.2401902407
 20
-8.7225707393
 30
0.0
 10
-0.242469169
 20
-8.7658703573
 30
0.0
  0
SPLINE
  5
394
100
AcDbEntity
  8
0
100
AcDbSpline
 62
7
  6
CONTINUOUS
 70
0
 71
3
 72
12
 73
8
 74
0
 42
0.0000001
 43
0.0000001
 44
0.0000000001
 40
0.0
 40
0.0
 40
0.0
 40
0.0
 40
0.1256213689
 40
0.1823918692
 40
0.5178944537
 40
0.8039625183
 40
1.0
 40
1.0
 40
1.0
 40
1.0
 10
-3.2385640968
 20
-8.1996571126
 30
0.0
 10
-3.2385640968
 20
-8.1823732521
 30
0.0
 10
-3.238412869
 20
-8.1571527485
 30
0.0
 10
-3.2276574172
 20
-8.0867929305
 30
0.0
 10
-3.2051357837
 20
-7.992971536
 30
0.0
 10
-3.1163514053
 20
-7.91164626
 30
0.0
 10
-3.0489938114
 20
-7.8988177334
 30
0.0
 10
-3.022021613
 20
-7.8988177334
 30
0.0
  0
SPLINE
  5
395
100
AcDbEntity
  8
0
100
AcDbSpline
 62
7
  6
CONTINUOUS
 70
0
 71
3
 72
12
 73
8
 74
0
 42
0.0000001
 43
0.0000001
 44
0.0000000001
 40
0.0
 40
0.0
 40
0.0
 40
0.0
 40
0.1785070189
 40
0.3861756488
 40
0.5984366329
 40
0.8688776476
 40
1.0
 40
1.0
 40
1.0
 40
1.0
 10
-3.022021613
 20
-7.8988177334
 30
0.0
 10
-2.9983092587
 20
-7.8988177334
 30
0.0
 10
-2.9466066757
 20
-7.9100422542
 30
0.0
 10
-2.8803218271
 20
-7.9587459943
 30
0.0
 10
-2.8353951627
 20
-8.0408898925
 30
0.0
 10
-2.8179369173
 20
-8.1215292202
 30
0.0
 10
-2.8159195704
 20
-8.1748922228
 30
0.0
 10
-2.8159195704
 20
-8.1923101355
 30
0.0
  0
SPLINE
  5
396
100
AcDbEntity
  8
0
100
AcDbSpline
 62
7
  6
CONTINUOUS
 70
0
 71
3
 72
12
 73
8
 74
0
 42
0.0000001
 43
0.0000001
 44
0.0000000001
 40
0.0
 40
0.0
 40
0.0
 40
0.0
 40
0.1318074585
 40
0.3034329874
 40
0.6181924422
 40
0.8205587368
 40
1.0
 40
1.0
 40
1.0
 40
1.0
 10
-2.8159195704
 20
-8.1923101355
 30
0.0
 10
-2.8159195704
 20
-8.2111397408
 30
0.0
 10
-2.8171713226
 20
-8.2545605703
 30
0.0
 10
-2.828855069
 20
-8.341977803
 30
0.0
 10
-2.8596546988
 20
-8.4384405995
 30
0.0
 10
-2.9328389727
 20
-8.5117803847
 30
0.0
 10
-2.9886535298
 20
-8.5252442044
 30
0.0
 10
-3.0142879529
 20
-8.5252442044
 30
0.0
  0
SPLINE
  5
397
100
AcDbEntity
  8
0
100
AcDbSpline
 62
7
  6
CONTINUOUS
 70
0
 71
3
 72
12
 73
8
 74
0
 42
0.0000001
 43
0.0000001
 44
0.0000000001
 40
0.0
 40
0.0
 40
0.0
 40
0.0
 40
0.0753026129
 40
0.218853156
 40
0.4424161071
 40
0.793665707
 40
1.0
 40
1.0
 40
1.0
 40
1.0
 10
-3.0142879529
 20
-8.5252442044
 30
0.0
 10
-3.0252810605
 20
-8.5252442044
 30
0.0
 10
-3.0572754157
 20
-8.5227879759
 30
0.0
 10
-3.1195249824
 20
-8.5004656102
 30
0.0
 10
-3.1956656552
 20
-8.4228471831
 30
0.0
 10
-3.2330891512
 20
-8.3111049701
 30
0.0
 10
-3.2385640968
 20
-8.229778977
 30
0.0
 10
-3.2385640968
 20
-8.1996571126
 30
0.0
  0
SPLINE
  5
398
100
AcDbEntity
  8
0
100
AcDbSpline
 62
7
  6
CONTINUOUS
 70
0
 71
3
 72
12
 73
8
 74
0
 42
0.0000001
 43
0.0000001
 44
0.0000000001
 40
0.0
 40
0.0
 40
0.0
 40
0.0
 40
0.186655837
 40
0.4080174125
 40
0.6556453203
 40
0.8943305364
 40
1.0
 40
1.0
 40
1.0
 40
1.0
 10
-3.0019140967
 20
-8.8013358712
 30
0.0
 10
-2.9472233552
 20
-8.8013358712
 30
0.0
 10
-2.8261123624
 20
-8.7767083798
 30
0.0
 10
-2.6686100286
 20
-8.6548073392
 30
0.0
 10
-2.5709975308
 20
-8.4664189919
 30
0.0
 10
-2.5366935846
 20
-8.2948212867
 30
0.0
 10
-2.5328676094
 20
-8.1938837089
 30
0.0
 10
-2.5328676094
 20
-8.162922227
 30
0.0
  0
SPLINE
  5
399
100
AcDbEntity
  8
0
100
AcDbSpline
 62
7
  6
CONTINUOUS
 70
0
 71
3
 72
14
 73
10
 74
0
 42
0.0000001
 43
0.0000001
 44
0.0000000001
 40
0.0
 40
0.0
 40
0.0
 40
0.0
 40
0.1270925824
 40
0.2543731419
 40
0.4608291989
 40
0.541698735
 40
0.7010184163
 40
0.8653682949
 40
1.0
 40
1.0
 40
1.0
 40
1.0
 10
-2.5328676094
 20
-8.162922227
 30
0.0
 10
-2.5328676094
 20
-8.1300963419
 30
0.0
 10
-2.5383165039
 20
-8.0644019527
 30
0.0
 10
-2.5605887866
 20
-7.9472333413
 30
0.0
 10
-2.6044275496
 20
-7.847538079
 30
0.0
 10
-2.6709780401
 20
-7.7531895124
 30
0.0
 10
-2.7488472836
 20
-7.6806781872
 30
0.0
 10
-2.8595715457
 20
-7.6331016578
 30
0.0
 10
-2.9369797079
 20
-7.6227260665
 30
0.0
 10
-2.9717528221
 20
-7.6227260665
 30
0.0
  0
SPLINE
  5
39A
100
AcDbEntity
  8
0
100
AcDbSpline
 62
7
  6
CONTINUOUS
 70
0
 71
3
 72
12
 73
8
 74
0
 42
0.0000001
 43
0.0000001
 44
0.0000000001
 40
0.0
 40
0.0
 40
0.0
 40
0.0
 40
0.1149232047
 40
0.3185514617
 40
0.5717520337
 40
0.85187164
 40
1.0
 40
1.0
 40
1.0
 40
1.0
 10
-2.9717528221
 20
-7.6227260665
 30
0.0
 10
-2.9843949846
 20
-7.6227260665
 30
0.0
 10
-3.0194410059
 20
-7.6240422161
 30
0.0
 10
-3.0818717154
 20
-7.6346384185
 30
0.0
 10
-3.1567523408
 20
-7.6689212058
 30
0.0
 10
-3.2120670972
 20
-7.7220456489
 30
0.0
 10
-3.236721454
 20
-7.7622450093
 30
0.0
 10
-3.245533048
 20
-7.7759519333
 30
0.0
  0
SPLINE
  5
39B
100
AcDbEntity
  8
0
100
AcDbSpline
 62
7
  6
CONTINUOUS
 70
0
 71
3
 72
12
 73
8
 74
0
 42
0.0000001
 43
0.0000001
 44
0.0000000001
 40
0.0
 40
0.0
 40
0.0
 40
0.0
 40
0.1647259497
 40
0.4005949281
 40
0.6534590834
 40
0.8613396785
 40
1.0
 40
1.0
 40
1.0
 40
1.0
 10
-3.245533048
 20
-7.7759519333
 30
0.0
 10
-3.2435312894
 20
-7.7430341251
 30
0.0
 10
-3.2388235664
 20
-7.6629827953
 30
0.0
 10
-3.2224406613
 20
-7.5328739033
 30
0.0
 10
-3.1850864373
 20
-7.397995247
 30
0.0
 10
-3.1070759446
 20
-7.2964687834
 30
0.0
 10
-3.0354745432
 20
-7.2797382395
 30
0.0
 10
-3.0077143418
 20
-7.2797382395
 30
0.0
  0
SPLINE
  5
39C
100
AcDbEntity
  8
0
100
AcDbSpline
 62
7
  6
CONTINUOUS
 70
0
 71
3
 72
13
 73
9
 74
0
 42
0.0000001
 43
0.0000001
 44
0.0000000001
 40
0.0
 40
0.0
 40
0.0
 40
0.0
 40
0.0960549297
 40
0.2261229798
 40
0.4987157019
 40
0.6953281024
 40
0.908167469
 40
1.0
 40
1.0
 40
1.0
 40
1.0
 10
-3.0077143418
 20
-7.2797382395
 30
0.0
 10
-2.999320361
 20
-7.2797382395
 30
0.0
 10
-2.9795136216
 20
-7.2808875955
 30
0.0
 10
-2.9368933402
 20
-7.290392492
 30
0.0
 10
-2.8892694819
 20
-7.318204523
 30
0.0
 10
-2.8582578272
 20
-7.3705135999
 30
0.0
 10
-2.8459383349
 20
-7.4129927804
 30
0.0
 10
-2.8432517589
 20
-7.4395021169
 30
0.0
 10
-2.8422265594
 20
-7.447461359
 30
0.0
  0
SPLINE
  5
39D
100
AcDbEntity
  8
0
100
AcDbSpline
 62
7
  6
CONTINUOUS
 70
0
 71
3
 72
13
 73
9
 74
0
 42
0.0000001
 43
0.0000001
 44
0.0000000001
 40
0.0
 40
0.0
 40
0.0
 40
0.0
 40
0.0934850498
 40
0.3373815407
 40
0.634037197
 40
0.8101904442
 40
0.9115548007
 40
1.0
 40
1.0
 40
1.0
 40
1.0
 10
-2.5611101079
 20
-7.4474613575
 30
0.0
 10
-2.5642702812
 20
-7.4264551594
 30
0.0
 10
-2.5756143152
 20
-7.350663336
 30
0.0
 10
-2.6114307626
 20
-7.2101007914
 30
0.0
 10
-2.7187436329
 20
-7.0734766298
 30
0.0
 10
-2.8430594007
 20
-7.0264298756
 30
0.0
 10
-2.9241146008
 20
-7.0083756613
 30
0.0
 10
-2.9672354914
 20
-7.0036465726
 30
0.0
 10
-2.9873328642
 20
-7.0036465726
 30
0.0
  0
SPLINE
  5
39E
100
AcDbEntity
  8
0
100
AcDbSpline
 62
7
  6
CONTINUOUS
 70
0
 71
3
 72
14
 73
10
 74
0
 42
0.0000001
 43
0.0000001
 44
0.0000000001
 40
0.0
 40
0.0
 40
0.0
 40
0.0
 40
0.0974209039
 40
0.1835207442
 40
0.4205557156
 40
0.588396897
 40
0.761472812
 40
0.8859059353
 40
1.0
 40
1.0
 40
1.0
 40
1.0
 10
-2.9873328642
 20
-7.0036465726
 30
0.0
 10
-3.0260283869
 20
-7.0036465726
 30
0.0
 10
-3.099259918
 20
-7.0101411726
 30
0.0
 10
-3.259440424
 20
-7.0632878953
 30
0.0
 10
-3.4024259517
 20
-7.2171018158
 30
0.0
 10
-3.4775363378
 20
-7.4350825009
 30
0.0
 10
-3.5091675192
 20
-7.6179337445
 30
0.0
 10
-3.519192079
 20
-7.7811905595
 30
0.0
 10
-3.5216160578
 20
-7.875927256
 30
0.0
 10
-3.5216160578
 20
-7.9212453478
 30
0.0
  0
SPLINE
  5
39F
100
AcDbEntity
  8
0
100
AcDbSpline
 62
7
  6
CONTINUOUS
 70
0
 71
3
 72
14
 73
10
 74
0
 42
0.0000001
 43
0.0000001
 44
0.0000000001
 40
0.0
 40
0.0
 40
0.0
 40
0.0
 40
0.1419026395
 40
0.325351858
 40
0.5355361309
 40
0.7223169155
 40
0.8717797923
 40
0.955697981
 40
1.0
 40
1.0
 40
1.0
 40
1.0
 10
-3.5216160578
 20
-7.9212453478
 30
0.0
 10
-3.5216160578
 20
-7.9755377549
 30
0.0
 10
-3.5176631794
 20
-8.1000864885
 30
0.0
 10
-3.4958227482
 20
-8.3038585926
 30
0.0
 10
-3.4416592895
 20
-8.5216418779
 30
0.0
 10
-3.3193245448
 20
-8.6993443981
 30
0.0
 10
-3.1731953677
 20
-8.7801991396
 30
0.0
 10
-3.0676478823
 20
-8.7949824338
 30
0.0
 10
-3.0188641919
 20
-8.8013358712
 30
0.0
 10
-3.0019140967
 20
-8.8013358712
 30
0.0
  0
SPLINE
  5
3A0
100
AcDbEntity
  8
0
100
AcDbSpline
 62
7
  6
CONTINUOUS
 70
0
 71
3
 72
12
 73
8
 74
0
 42
0.0000001
 43
0.0000001
 44
0.0000000001
 40
0.0
 40
0.0
 40
0.0
 40
0.0
 40
0.1543906211
 40
0.2524812668
 40
0.5370586883
 40
0.8132916501
 40
1.0
 40
1.0
 40
1.0
 40
1.0
 10
-4.30000888
 20
-7.0466453434
 30
0.0
 10
-4.3026722624
 20
-7.0752769774
 30
0.0
 10
-4.3093911937
 20
-7.1221711033
 30
0.0
 10
-4.34317702
 20
-7.216735416
 30
0.0
 10
-4.4322784447
 20
-7.3129957616
 30
0.0
 10
-4.5714352093
 20
-7.3502247763
 30
0.0
 10
-4.6575785765
 20
-7.3498060355
 30
0.0
 10
-4.692353
 20
-7.3498055789
 30
0.0
  0
ELLIPSE
  5
3A1
100
AcDbEntity
  8
RACCORDO
100
AcDbEllipse
 62
7
  6
CONTINUOUS
 10
-5.6998597956
 20
12.5663333356
 30
0.0
 11
0.9285204331
 21
0.3714002535
 31
0.0
 40
0.9999558314
 41
1.3655533852
 42
1.5437065086
  0
ELLIPSE
  5
3A2
100
AcDbEntity
  8
RACCORDO
100
AcDbEllipse
 62
7
  6
CONTINUOUS
 10
5.6998597956
 20
12.5663333356
 30
0.0
 11
0.9285204331
 21
-0.3714002535
 31
0.0
 40
0.9999558314
 41
1.6049112538
 42
1.6386944001
  0
ELLIPSE
  5
3A3
100
AcDbEntity
  8
0
100
AcDbEllipse
 62
7
  6
CONTINUOUS
 10
4.3000009139
 20
-14.8499824391
 30
0.0
 11
0.1060673096
 21
0.1060673096
 31
0.0
 40
0.9999878154
 41
2.3562005825
 42
3.9269847247
  0
ELLIPSE
  5
3A4
100
AcDbEntity
  8
0
100
AcDbEllipse
 62
7
  6
CONTINUOUS
 10
4.3000009139
 20
-13.6499842668
 30
0.0
 11
0.1060673096
 21
-0.1060673096
 31
0.0
 40
0.9999878154
 41
2.3562005825
 42
3.9269847247
  0
ELLIPSE
  5
3A5
100
AcDbEntity
  8
0
100
AcDbEllipse
 62
7
  6
CONTINUOUS
 10
-4.3000009139
 20
-14.8499824391
 30
0.0
 11
0.1060673096
 21
-0.1060673096
 31
0.0
 40
0.9999878154
 41
-0.7853920711
 42
0.7853920711
  0
ELLIPSE
  5
3A6
100
AcDbEntity
  8
0
100
AcDbEllipse
 62
7
  6
CONTINUOUS
 10
-4.3000009139
 20
-13.6499842668
 30
0.0
 11
0.1060673096
 21
0.1060673096
 31
0.0
 40
0.9999878154
 41
-0.7853920711
 42
0.7853920711
  0
ELLIPSE
  5
3A7
100
AcDbEntity
  8
0
100
AcDbEllipse
 62
7
  6
CONTINUOUS
 10
4.3000009139
 20
14.8500157332
 30
0.0
 11
-0.1060673096
 21
0.1060673096
 31
0.0
 40
0.9999878154
 41
-0.6024176531
 42
0.7853920711
  0
ELLIPSE
  5
3A8
100
AcDbEntity
  8
0
100
AcDbEllipse
 62
7
  6
CONTINUOUS
 10
4.3000009139
 20
14.8500157332
 30
0.0
 11
0.1060673096
 21
-0.1060673096
 31
0.0
 40
0.9999878154
 41
2.3562005825
 42
2.5391750005
  0
ELLIPSE
  5
3A9
100
AcDbEntity
  8
0
100
AcDbEllipse
 62
7
  6
CONTINUOUS
 10
4.3000009139
 20
13.6500175609
 30
0.0
 11
0.1060673096
 21
0.1060673096
 31
0.0
 40
0.9999878154
 41
2.3562005825
 42
3.9269847247
  0
ELLIPSE
  5
3AA
100
AcDbEntity
  8
0
100
AcDbEllipse
 62
7
  6
CONTINUOUS
 10
-4.3000009139
 20
13.6500175609
 30
0.0
 11
-0.1060673096
 21
0.1060673096
 31
0.0
 40
0.9999878154
 41
-3.7440103067
 42
-2.3562005825
  0
ELLIPSE
  5
3AB
100
AcDbEntity
  8
0
100
AcDbEllipse
 62
7
  6
CONTINUOUS
 10
-4.3000009139
 20
13.6500175609
 30
0.0
 11
0.1060673096
 21
-0.1060673096
 31
0.0
 40
0.9999878154
 41
-0.7853920711
 42
-0.6024176531
  0
ELLIPSE
  5
3AC
100
AcDbEntity
  8
0
100
AcDbEllipse
 62
7
  6
CONTINUOUS
 10
-4.3000009139
 20
14.8500157332
 30
0.0
 11
0.1060673096
 21
0.1060673096
 31
0.0
 40
0.9999878154
 41
-0.7853920711
 42
0.7853920711
  0
ENDSEC
  0
SECTION
  2
OBJECTS
  0
DICTIONARY
  5
C
100
AcDbDictionary
280
0
281
1
  3
ACAD_GROUP
350
D
  3
ACAD_MLINESTYLE
350
17
  3
ACAD_LAYOUT
350
1A
  3
ACAD_PLOTSETTINGS
350
19
  3
ACAD_PLOTSTYLENAME
350
E
  0
DICTIONARY
  5
D
102
{ACAD_REACTORS
330
C
102
}
100
AcDbDictionary
280
0
281
1
  0
ACDBDICTIONARYWDFLT
  5
E
102
{ACAD_REACTORS
330
C
102
}
100
AcDbDictionary
281
1
  3
Normal
350
F
100
AcDbDictionaryWithDefault
340
F
  0
DICTIONARY
  5
17
102
{ACAD_REACTORS
330
C
102
}
100
AcDbDictionary
280
0
281
1
  3
Standard
350
18
  0
DICTIONARY
  5
19
102
{ACAD_REACTORS
330
C
102
}
100
AcDbDictionary
281
1
  0
DICTIONARY
  5
1A
102
{ACAD_REACTORS
330
C
102
}
100
AcDbDictionary
281
1
  3
Model
350
3AD
  3
Layout1
350
3AE
  0
ACDBPLACEHOLDER
  5
F
102
{ACAD_REACTORS
330
E
102
}
  0
MLINESTYLE
  5
18
102
{ACAD_REACTORS
330
17
102
}
100
AcDbMlineStyle
  2
STANDARD
 70
0
  3

 62
256
 51
90.0
 52
90.0
 71
2
 49
0.5
 62
256
  6
BYLAYER
 49
-0.5
 62
256
  6
BYLAYER
  0
LAYOUT
  5
3AD
102
{ACAD_REACTORS
330
1A
102
}
100
AcDbPlotSettings
  1

  2
none_device
  4
ISO_A4_(297.00_x_210.00_MM)
  6

 40
0.0
 41
0.0
 42
0.0
 43
0.0
 44
297.0
 45
210.0
 46
0.0
 47
0.0
 48
0.0
 49
0.0
140
0.0
141
0.0
142
1.0
143
1.0
 70
1024
 72
1
 73
0
 74
0
  7

 75
0
147
1.0
148
0.0
149
0.0
100
AcDbLayout
  1
Model
 70
0
 71
0
 10
0.0
 20
0.0
 11
297.0
 21
210.0
 12
0.0
 22
0.0
 32
0.0
 14
0.0
 24
0.0
 34
0.0
 15
0.0
 25
0.0
 35
0.0
146
0.0
 13
0.0
 23
0.0
 33
0.0
 16
1.0
 26
0.0
 36
0.0
 17
0.0
 27
1.0
 37
0.0
 76
0
330
21C
345
0
346
0
  0
LAYOUT
  5
3AE
102
{ACAD_REACTORS
330
1A
102
}
100
AcDbPlotSettings
  1

  2
none_device
  4
ISO_A4_(297.00_x_210.00_MM)
  6

 40
0.0
 41
0.0
 42
0.0
 43
0.0
 44
297.0
 45
210.0
 46
0.0
 47
0.0
 48
0.0
 49
0.0
140
0.0
141
0.0
142
1.0
143
1.0
 70
0
 72
1
 73
0
 74
0
  7

 75
0
147
1.0
148
0.0
149
0.0
100
AcDbLayout
  1
Layout1
 70
0
 71
1
 10
0.0
 20
0.0
 11
297.0
 21
210.0
 12
0.0
 22
0.0
 32
0.0
 14
0.0
 24
0.0
 34
0.0
 15
0.0
 25
0.0
 35
0.0
146
0.0
 13
0.0
 23
0.0
 33
0.0
 16
1.0
 26
0.0
 36
0.0
 17
0.0
 27
1.0
 37
0.0
 76
0
330
21D
345
0
346
0
  0
ENDSEC
  0
EOF
