  0
SECTION
  2
HEADER
  9
$ACADVER
  1
AC1024
  9
$DWGCODEPAGE
  3
ANSI_1252
  9
$EXTMAX
 10
297.0
 20
210.0
 30
0.0
  9
$EXTMIN
 10
0.0
 20
0.0
 30
0.0
  9
$LIMMIN
 10
0.0
 20
0.0
  9
$LIMMAX
 10
297.0
 20
210.0
  9
$VIEWCTR
 10
148.5
 20
105.0
  9
$VIEWSIZE
 40
210.0
  9
$CLAYER
  8
0
  9
$LTSCALE
 40
16.335
  9
$CELTYPE
  6
BYLAYER
  9
$DIMSCALE
 40
1.0
  9
$DIMASZ
 40
3.0
  9
$DIMEXO
 40
0.5
  9
$DIMDLI
 40
11.286
  9
$DIMEXE
 40
1.5
  9
$DIMCEN
 40
2.673
  9
$DIMLFAC
 40
1.0
  9
$DIMBLK
  1
_FILLED
  9
$DIMALT
 70
0
  9
$DIMALTF
 40
0.0393700787
  9
$DIMTXT
 40
3.0
  9
$DIMTOL
 70
1
  9
$DIMLIM
 70
0
  9
$DIMTFAC
 40
1.0
  9
$DIMTP
 40
0.01
  9
$DIMTM
 40
0.01
  9
$DIMGAP
 40
0.625
  9
$DIMDSEP
 70
44
  9
$AUNITS
 70
0
  9
$PDMODE
 70
3
  9
$PDSIZE
 40
3.0
  9
$HANDSEED
  5
310
  9
$TILEMODE
 70
1
  9
$MEASUREMENT
 70
1
  9
$INSUNITS
 70
4
  0
ENDSEC
  0
SECTION
  2
CLASSES
  0
CLASS
  1
ACDBDICTIONARYWDFLT
  2
AcDbDictionaryWithDefault
  3
AutoCAD 2000
 90
0
 91
1
280
0
281
0
  0
CLASS
  1
ACDBPLACEHOLDER
  2
AcDbPlaceHolder
  3
AutoCAD 2000
 90
0
 91
1
280
0
281
0
  0
CLASS
  1
LAYOUT
  2
AcDbLayout
  3
AutoCAD 2000
 90
0
 91
0
280
0
281
0
  0
ENDSEC
  0
SECTION
  2
TABLES
  0
TABLE
  2
VPORT
  5
8
100
AcDbSymbolTable
 70
2
  0
VPORT
  5
1F4
100
AcDbSymbolTableRecord
100
AcDbViewportTableRecord
  2
*ACTIVE
 70
0
 10
0.0
 20
0.0
 11
1.0
 21
1.0
 12
148.5
 22
105.0
 13
0.0
 23
0.0
 14
1.0
 24
1.0
 15
0.0
 25
0.0
 16
0.0
 26
0.0
 36
1.0
 17
0.0
 27
0.0
 37
0.0
 40
210.0
 41
1.4142857143
 42
50.0
 43
0.0
 44
0.0
 50
0.0
 51
0.0
 71
0
 72
100
 73
1
 74
1
 75
0
 76
0
 77
0
 78
0
  0
ENDTAB
  0
TABLE
  2
LTYPE
  5
5
100
AcDbSymbolTable
 70
6
  0
LTYPE
  5
14
100
AcDbSymbolTableRecord
100
AcDbLinetypeTableRecord
  2
BYBLOCK
 70
0
  3

 72
65
 73
0
 40
0.0
  0
LTYPE
  5
15
100
AcDbSymbolTableRecord
100
AcDbLinetypeTableRecord
  2
BYLAYER
 70
0
  3

 72
65
 73
0
 40
0.0
  0
LTYPE
  5
16
100
AcDbSymbolTableRecord
100
AcDbLinetypeTableRecord
  2
CONTINUOUS
 70
64
  3
Solid line
 72
65
 73
0
 40
0.0
  0
LTYPE
  5
1F5
100
AcDbSymbolTableRecord
100
AcDbLinetypeTableRecord
  2
CENTER
 70
64
  3
____ _ ____ _ ____ _ ____ _ ____ _ ____ _ ____
 72
65
 73
4
 40
0.6
 49
0.375
 74
0
 49
-0.075
 74
0
 49
0.075
 74
0
 49
-0.075
 74
0
  0
LTYPE
  5
1F6
100
AcDbSymbolTableRecord
100
AcDbLinetypeTableRecord
  2
HIDDEN
 70
64
  3
- - - - - - - - - - - - - - - - - - - -
 72
65
 73
2
 40
0.2
 49
0.1
 74
0
 49
-0.1
 74
0
  0
LTYPE
  5
1F7
100
AcDbSymbolTableRecord
100
AcDbLinetypeTableRecord
  2
PHANTOM
 70
64
  3
_____ _ _ _____ _ _ _____ _ _ _____
 72
65
 73
6
 40
0.8
 49
0.45
 74
0
 49
-0.05
 74
0
 49
0.1
 74
0
 49
-0.05
 74
0
 49
0.1
 74
0
 49
-0.05
 74
0
  0
LTYPE
  5
1F8
100
AcDbSymbolTableRecord
100
AcDbLinetypeTableRecord
  2
DOT
 70
64
  3
. . . . . . . . . . . . . . . . . . . .
 72
65
 73
2
 40
0.2
 49
0.1
 74
0
 49
-0.1
 74
0
  0
LTYPE
  5
1F9
100
AcDbSymbolTableRecord
100
AcDbLinetypeTableRecord
  2
DASHED
 70
64
  3
- - - - - - - - - - - - - - - - - - - -
 72
65
 73
2
 40
0.2
 49
0.1
 74
0
 49
-0.1
 74
0
  0
ENDTAB
  0
TABLE
  2
LAYER
  5
2
100
AcDbSymbolTable
 70
36
  0
LAYER
  5
10
100
AcDbSymbolTableRecord
100
AcDbLayerTableRecord
  2
0
 70
0
 62
7
  6
CONTINUOUS
370
-3
390
F
  0
LAYER
  5
1FA
100
AcDbSymbolTableRecord
100
AcDbLayerTableRecord
  2
DEFAULT_1
 70
0
 62
7
  6
CENTER
370
-3
390
F
  0
LAYER
  5
1FB
100
AcDbSymbolTableRecord
100
AcDbLayerTableRecord
  2
DEFAULT_2
 70
0
 62
7
  6
HIDDEN
370
-3
390
F
  0
LAYER
  5
1FC
100
AcDbSymbolTableRecord
100
AcDbLayerTableRecord
  2
DEFAULT_3
 70
0
 62
7
  6
PHANTOM
370
-3
390
F
  0
LAYER
  5
1FD
100
AcDbSymbolTableRecord
100
AcDbLayerTableRecord
  2
255013570
 70
0
 62
7
  6
CONTINUOUS
370
-3
390
F
  0
LAYER
  5
1FE
100
AcDbSymbolTableRecord
100
AcDbLayerTableRecord
  2
261013570
 70
0
 62
7
  6
CONTINUOUS
370
-3
390
F
  0
LAYER
  5
1FF
100
AcDbSymbolTableRecord
100
AcDbLayerTableRecord
  2
280013570
 70
0
 62
7
  6
CONTINUOUS
370
-3
390
F
  0
LAYER
  5
200
100
AcDbSymbolTableRecord
100
AcDbLayerTableRecord
  2
ASSI
 70
0
 62
7
  6
CONTINUOUS
370
-3
390
F
  0
LAYER
  5
201
100
AcDbSymbolTableRecord
100
AcDbLayerTableRecord
  2
COLOR5
 70
0
 62
7
  6
CONTINUOUS
370
-3
390
F
  0
LAYER
  5
202
100
AcDbSymbolTableRecord
100
AcDbLayerTableRecord
  2
COORDINATE
 70
0
 62
7
  6
CONTINUOUS
370
-3
390
F
  0
LAYER
  5
203
100
AcDbSymbolTableRecord
100
AcDbLayerTableRecord
  2
COORD_ORIGINE
 70
0
 62
7
  6
CONTINUOUS
370
-3
390
F
  0
LAYER
  5
204
100
AcDbSymbolTableRecord
100
AcDbLayerTableRecord
  2
COPY-PUBBLISH
 70
0
 62
7
  6
CONTINUOUS
370
-3
390
F
  0
LAYER
  5
205
100
AcDbSymbolTableRecord
100
AcDbLayerTableRecord
  2
COPY_PUBLISH
 70
0
 62
7
  6
CONTINUOUS
370
-3
390
F
  0
LAYER
  5
206
100
AcDbSymbolTableRecord
100
AcDbLayerTableRecord
  2
COSMETICHE
 70
0
 62
7
  6
CONTINUOUS
370
-3
390
F
  0
LAYER
  5
207
100
AcDbSymbolTableRecord
100
AcDbLayerTableRecord
  2
COSMETICI
 70
0
 62
7
  6
CONTINUOUS
370
-3
390
F
  0
LAYER
  5
208
100
AcDbSymbolTableRecord
100
AcDbLayerTableRecord
  2
CURVE
 70
0
 62
7
  6
CONTINUOUS
370
-3
390
F
  0
LAYER
  5
209
100
AcDbSymbolTableRecord
100
AcDbLayerTableRecord
  2
DRAFT
 70
0
 62
7
  6
CONTINUOUS
370
-3
390
F
  0
LAYER
  5
20A
100
AcDbSymbolTableRecord
100
AcDbLayerTableRecord
  2
IGES
 70
0
 62
7
  6
CONTINUOUS
370
-3
390
F
  0
LAYER
  5
20B
100
AcDbSymbolTableRecord
100
AcDbLayerTableRecord
  2
IMPORT_IGES
 70
0
 62
7
  6
CONTINUOUS
370
-3
390
F
  0
LAYER
  5
20C
100
AcDbSymbolTableRecord
100
AcDbLayerTableRecord
  2
INTF_1
 70
0
 62
7
  6
CONTINUOUS
370
-3
390
F
  0
LAYER
  5
20D
100
AcDbSymbolTableRecord
100
AcDbLayerTableRecord
  2
INTF_11
 70
0
 62
7
  6
CONTINUOUS
370
-3
390
F
  0
LAYER
  5
20E
100
AcDbSymbolTableRecord
100
AcDbLayerTableRecord
  2
NOTE
 70
0
 62
7
  6
CONTINUOUS
370
-3
390
F
  0
LAYER
  5
20F
100
AcDbSymbolTableRecord
100
AcDbLayerTableRecord
  2
PIANI
 70
0
 62
7
  6
CONTINUOUS
370
-3
390
F
  0
LAYER
  5
210
100
AcDbSymbolTableRecord
100
AcDbLayerTableRecord
  2
PIANI_ORIGINE
 70
0
 62
7
  6
CONTINUOUS
370
-3
390
F
  0
LAYER
  5
211
100
AcDbSymbolTableRecord
100
AcDbLayerTableRecord
  2
PIANI_SFORMI
 70
0
 62
7
  6
CONTINUOUS
370
-3
390
F
  0
LAYER
  5
212
100
AcDbSymbolTableRecord
100
AcDbLayerTableRecord
  2
PUNTI
 70
0
 62
7
  6
CONTINUOUS
370
-3
390
F
  0
LAYER
  5
213
100
AcDbSymbolTableRecord
100
AcDbLayerTableRecord
  2
RACCORDO
 70
0
 62
7
  6
CONTINUOUS
370
-3
390
F
  0
LAYER
  5
214
100
AcDbSymbolTableRecord
100
AcDbLayerTableRecord
  2
SIMBOLI
 70
0
 62
7
  6
CONTINUOUS
370
-3
390
F
  0
LAYER
  5
215
100
AcDbSymbolTableRecord
100
AcDbLayerTableRecord
  2
SMUSSO
 70
0
 62
7
  6
CONTINUOUS
370
-3
390
F
  0
LAYER
  5
216
100
AcDbSymbolTableRecord
100
AcDbLayerTableRecord
  2
SNAPLINE
 70
0
 62
7
  6
CONTINUOUS
370
-3
390
F
  0
LAYER
  5
217
100
AcDbSymbolTableRecord
100
AcDbLayerTableRecord
  2
SUP-SCAVI-INCLINATI
 70
0
 62
7
  6
CONTINUOUS
370
-3
390
F
  0
LAYER
  5
218
100
AcDbSymbolTableRecord
100
AcDbLayerTableRecord
  2
SUP-SCAVI-INCLINATI-SUP
 70
0
 62
7
  6
CONTINUOUS
370
-3
390
F
  0
LAYER
  5
219
100
AcDbSymbolTableRecord
100
AcDbLayerTableRecord
  2
SUPERFICI
 70
0
 62
7
  6
CONTINUOUS
370
-3
390
F
  0
LAYER
  5
21A
100
AcDbSymbolTableRecord
100
AcDbLayerTableRecord
  2
SUP_COLORE
 70
0
 62
7
  6
CONTINUOUS
370
-3
390
F
  0
LAYER
  5
21B
100
AcDbSymbolTableRecord
100
AcDbLayerTableRecord
  2
TRASH
 70
0
 62
7
  6
CONTINUOUS
370
-3
390
F
  0
LAYER
  5
21C
100
AcDbSymbolTableRecord
100
AcDbLayerTableRecord
  2
XSEC_DATUMS
 70
0
 62
7
  6
CONTINUOUS
370
-3
390
F
  0
ENDTAB
  0
TABLE
  2
STYLE
  5
3
100
AcDbSymbolTable
 70
1
  0
STYLE
  5
11
100
AcDbSymbolTableRecord
100
AcDbTextStyleTableRecord
  2
STANDARD
 70
0
 40
0.0
 41
0.8
 50
0.0
 71
0
 42
0.2
  3
txt
  4

  0
STYLE
  5
21D
100
AcDbSymbolTableRecord
100
AcDbTextStyleTableRecord
  2
TEXTSTYLE_1
 70
0
 40
0.0
 41
0.8
 50
0.0
 71
0
 42
0.2
  3
gdt
  4

  0
ENDTAB
  0
TABLE
  2
VIEW
  5
6
100
AcDbSymbolTable
 70
0
  0
ENDTAB
  0
TABLE
  2
UCS
  5
7
100
AcDbSymbolTable
 70
0
  0
ENDTAB
  0
TABLE
  2
APPID
  5
9
100
AcDbSymbolTable
 70
1
  0
APPID
  5
21E
100
AcDbSymbolTableRecord
100
AcDbRegAppTableRecord
  2
ACAD
 70
0
  0
ENDTAB
  0
TABLE
  2
BLOCK_RECORD
  5
1
100
AcDbSymbolTable
 70
0
  0
BLOCK_RECORD
  5
21F
100
AcDbSymbolTableRecord
100
AcDbBlockTableRecord
  2
*Model_Space
  0
BLOCK_RECORD
  5
220
100
AcDbSymbolTableRecord
100
AcDbBlockTableRecord
  2
*Paper_Space
  0
BLOCK_RECORD
  5
221
100
AcDbSymbolTableRecord
100
AcDbBlockTableRecord
  2
_FILLED
  0
ENDTAB
  0
TABLE
  2
DIMSTYLE
  5
A
100
AcDbSymbolTable
 70
1
100
AcDbDimStyleTable
 71
0
  0
DIMSTYLE
105
222
100
AcDbSymbolTableRecord
100
AcDbDimStyleTableRecord
  2
STANDARD
 70
0
  3

  4

 40
1.0
 41
3.0
 42
0.5
 43
0.38
 44
1.5
 45
0.0
 46
0.0
 47
0.01
 48
0.01
140
3.0
141
0.09
142
0.0
143
25.4
144
1.0
145
0.0
146
1.0
147
0.625
 71
1
 72
0
 73
0
 74
0
 75
0
 76
0
 77
1
 78
8
 79
2
170
0
171
1
172
0
173
0
174
0
175
0
176
0
177
0
178
0
270
2
179
2
271
2
272
2
273
2
274
2
275
0
280
0
281
0
282
0
283
1
284
8
285
0
286
0
287
3
288
0
340
11
278
44
341
221
342
221
343
221
344
221
  0
ENDTAB
  0
ENDSEC
  0
SECTION
  2
BLOCKS
  0
BLOCK
  5
20
100
AcDbEntity
  8
0
100
AcDbBlockBegin
  2
*Model_Space
 70
0
 10
0.0
 20
0.0
 30
0.0
  3
*Model_Space
  1

  0
ENDBLK
  5
21
100
AcDbEntity
  8
0
100
AcDbBlockEnd
  0
BLOCK
  5
1C
100
AcDbEntity
  8
0
100
AcDbBlockBegin
  2
*Paper_Space
 70
0
 10
0.0
 20
0.0
 30
0.0
  3
*Paper_Space
  1

  0
ENDBLK
  5
1D
100
AcDbEntity
  8
0
100
AcDbBlockEnd
  0
BLOCK
  5
223
100
AcDbEntity
  8
0
100
AcDbBlockBegin
  2
_FILLED
 70
64
 10
0.0
 20
0.0
  3
_FILLED
  1

  0
SOLID
  5
224
100
AcDbEntity
  8
0
  6
BYBLOCK
 62
0
100
AcDbTrace
 10
0.0
 20
0.0
 11
-1.0
 21
0.3166666667
 12
-1.0
 22
-0.3166666667
 13
-1.0
 23
-0.3166666667
  0
ENDBLK
  5
225
100
AcDbEntity
  8
0
  6
BYBLOCK
 62
0
100
AcDbBlockEnd
  0
ENDSEC
  0
SECTION
  2
ENTITIES
  0
LWPOLYLINE
  5
226
100
AcDbEntity
  8
ASSI
100
AcDbPolyline
 62
7
  6
CONTINUOUS
 90
3
 70
0
 10
-21.9959362365
 20
-7.1782358527
 10
-21.9927717373
 20
-7.2123590589
 10
-21.9887044137
 20
-7.2464258576
  0
LINE
  5
227
100
AcDbEntity
  8
ASSI
100
AcDbLine
 62
7
  6
CONTINUOUS
 10
-21.9976835394
 20
-7.1518069611
 11
-21.9959362365
 21
-7.1782358527
  0
LINE
  5
228
100
AcDbEntity
  8
ASSI
100
AcDbLine
 62
7
  6
CONTINUOUS
 10
-21.9995482366
 20
-7.1098903084
 11
-21.9991228424
 21
-7.1206307676
  0
LWPOLYLINE
  5
229
100
AcDbEntity
  8
ASSI
100
AcDbPolyline
 62
250
  6
CONTINUOUS
 90
25
 70
0
 10
-21.7170756317
 20
-6.9817783304
 10
-21.7166199902
 20
-7.016143937
 10
-21.7152560498
 20
-7.0504849398
 10
-21.712984807
 20
-7.0847773396
 10
-21.7098079179
 20
-7.1189969399
 10
-21.705727632
 20
-7.1531200645
 10
-21.7007467293
 20
-7.1871235663
 10
-21.6948686151
 20
-7.2209840136
 10
-21.6880974293
 20
-7.2546774045
 10
-21.6804379634
 20
-7.2881798838
 10
-21.6718956196
 20
-7.3214678972
 10
-21.6624763481
 20
-7.3545183291
 10
-21.6521867007
 20
-7.3873082096
 10
-21.641033872
 20
-7.4198146142
 10
-21.629025654
 20
-7.4520148358
 10
-21.6161703776
 20
-7.4838865198
 10
-21.6024769428
 20
-7.5154075473
 10
-21.5879549717
 20
-7.5465557213
 10
-21.5726147701
 20
-7.5773089451
 10
-21.5564672677
 20
-7.607645378
 10
-21.5395235873
 20
-7.6375441925
 10
-21.5217951368
 20
-7.6669852276
 10
-21.5032941059
 20
-7.695948119
 10
-21.4840335234
 20
-7.7244123515
 10
-21.4640268074
 20
-7.752358002
  0
LWPOLYLINE
  5
22A
100
AcDbEntity
  8
ASSI
100
AcDbPolyline
 62
250
  6
CONTINUOUS
 90
25
 70
0
 10
-21.2171517841
 20
-6.9817783304
 10
-21.2168711516
 20
-7.0029418939
 10
-21.2160332351
 20
-7.0240637699
 10
-21.2146380347
 20
-7.0451439585
 10
-21.2126838044
 20
-7.0661979627
 10
-21.2101722902
 20
-7.0872102794
 10
-21.2071087297
 20
-7.1081343992
 10
-21.2034919531
 20
-7.1289693642
 10
-21.1993231303
 20
-7.1497161322
 10
-21.1946110085
 20
-7.1703310677
 10
-21.1893544443
 20
-7.190813849
 10
-21.1835545809
 20
-7.2111647979
 10
-21.1772235953
 20
-7.2313412437
 10
-21.1703603908
 20
-7.2513427805
 10
-21.162966064
 20
-7.2711698143
 10
-21.1550560813
 20
-7.2907808923
 10
-21.1466293281
 20
-7.3101756223
 10
-21.137686919
 20
-7.3293543966
 10
-21.1282476647
 20
-7.3482769391
 10
-21.118309931
 20
-7.3669435121
 10
-21.1078753522
 20
-7.3853538532
 10
-21.0969676414
 20
-7.4034668994
 10
-21.0855947031
 20
-7.4212689629
 10
-21.0737486329
 20
-7.4387737315
 10
-21.0614294307
 20
-7.4559812052
  0
LINE
  5
22B
100
AcDbEntity
  8
ASSI
100
AcDbLine
 62
7
  6
CONTINUOUS
 10
-22.0
 20
-7.0756329249
 11
-21.9995482366
 21
-7.1098903084
  0
LWPOLYLINE
  5
22C
100
AcDbEntity
  8
0
100
AcDbPolyline
 62
7
  6
CONTINUOUS
 90
9
 70
0
 10
-21.975529968
 20
-7.0758739578
 10
-21.9754311964
 20
-7.0851250035
 10
-21.9752665944
 20
-7.0943745843
 10
-21.9750364535
 20
-7.1036168225
 10
-21.9747404822
 20
-7.1128575956
 10
-21.9743778058
 20
-7.1221145367
 10
-21.9739481328
 20
-7.1313935232
 10
-21.9734517547
 20
-7.1406886777
 10
-21.9728886715
 20
-7.15
  0
LINE
  5
22D
100
AcDbEntity
  8
0
100
AcDbLine
 62
7
  6
CONTINUOUS
 10
-22.0
 20
7.0756329295
 11
-22.0
 21
-7.0756329295
  0
LINE
  5
22E
100
AcDbEntity
  8
0
100
AcDbLine
 62
7
  6
CONTINUOUS
 10
-21.9991228424
 20
-7.15
 11
-21.9991228424
 21
-7.05
  0
LINE
  5
22F
100
AcDbEntity
  8
0
100
AcDbLine
 62
7
  6
CONTINUOUS
 10
-21.9991228424
 20
7.05
 11
-21.9991228424
 21
7.15
  0
LINE
  5
230
100
AcDbEntity
  8
0
100
AcDbLine
 62
7
  6
CONTINUOUS
 10
-21.9755620937
 20
-7.15
 11
-21.9755620937
 21
7.15
  0
LINE
  5
231
100
AcDbEntity
  8
ASSI
100
AcDbLine
 62
250
  6
CONTINUOUS
 10
-21.7170756317
 20
6.9817783304
 11
-21.7170756317
 21
-6.9817783304
  0
LINE
  5
232
100
AcDbEntity
  8
ASSI
100
AcDbLine
 62
250
  6
CONTINUOUS
 10
-21.2171517841
 20
6.9817783304
 11
-21.2171517841
 21
-6.9817783304
  0
LINE
  5
233
100
AcDbEntity
  8
ASSI
100
AcDbLine
 62
7
  6
CONTINUOUS
 10
-21.9995482366
 20
7.1098903084
 11
-22.0
 21
7.0756329249
  0
LINE
  5
234
100
AcDbEntity
  8
ASSI
100
AcDbLine
 62
7
  6
CONTINUOUS
 10
-21.9991228424
 20
7.1206307676
 11
-21.9995482366
 21
7.1098903084
  0
LWPOLYLINE
  5
235
100
AcDbEntity
  8
0
100
AcDbPolyline
 62
7
  6
CONTINUOUS
 90
10
 70
0
 10
-21.9728886715
 20
7.15
 10
-21.9734517547
 20
7.1406886777
 10
-21.9739481328
 20
7.1313935233
 10
-21.9743778058
 20
7.1221145368
 10
-21.9747404822
 20
7.1128575958
 10
-21.9750364535
 20
7.1036168227
 10
-21.9752665944
 20
7.0943745846
 10
-21.9754311964
 20
7.0851250037
 10
-21.975529968
 20
7.0758739579
 10
-21.9755629091
 20
7.066621447
  0
LINE
  5
236
100
AcDbEntity
  8
ASSI
100
AcDbLine
 62
7
  6
CONTINUOUS
 10
-21.9978135022
 20
7.15
 11
-21.9952541863
 21
7.1855838897
  0
LWPOLYLINE
  5
237
100
AcDbEntity
  8
ASSI
100
AcDbPolyline
 62
7
  6
CONTINUOUS
 90
17
 70
0
 10
-21.9952541863
 20
7.1855838897
 10
-21.9917292159
 20
7.2210276918
 10
-21.9872385909
 20
7.2563314063
 10
-21.9817793953
 20
7.2915142622
 10
-21.9753545451
 20
7.3265570305
 10
-21.9679727887
 20
7.3614020246
 10
-21.9596296374
 20
7.3960608856
 10
-21.9503295799
 20
7.4305219724
 10
-21.9400948299
 20
7.4646926747
 10
-21.9289208069
 20
7.4985736939
 10
-21.9168120914
 20
7.5321643286
 10
-21.9038046392
 20
7.5653698641
 10
-21.8899038185
 20
7.5981730639
 10
-21.8751042611
 20
7.6305911647
 10
-21.8594258185
 20
7.6625811615
 10
-21.842856798
 20
7.6941613692
 10
-21.8254088924
 20
7.7253134731
  0
LWPOLYLINE
  5
238
100
AcDbEntity
  8
ASSI
100
AcDbPolyline
 62
7
  6
CONTINUOUS
 90
4
 70
0
 10
-21.9887044137
 20
7.2464258576
 10
-21.9927717373
 20
7.2123590589
 10
-21.9959362365
 20
7.1782358527
 10
-21.9976835409
 20
7.1518069382
  0
LWPOLYLINE
  5
239
100
AcDbEntity
  8
ASSI
100
AcDbPolyline
 62
7
  6
CONTINUOUS
 90
16
 70
0
 10
-21.8231864976
 20
7.729321944
 10
-21.8400874831
 20
7.6994676629
 10
-21.8561760625
 20
7.669215738
 10
-21.8714401797
 20
7.6385855164
 10
-21.8858918908
 20
7.6075576509
 10
-21.8995156815
 20
7.5761657057
 10
-21.9123172521
 20
7.5443935728
 10
-21.9242909023
 20
7.5122573602
 10
-21.9354040176
 20
7.4798389557
 10
-21.945653104
 20
7.4471373281
 10
-21.9550416554
 20
7.4141535088
 10
-21.9635475393
 20
7.3809724793
 10
-21.9711658345
 20
7.3476106783
 10
-21.9779014623
 20
7.3140516673
 10
-21.9837470533
 20
7.2803311126
 10
-21.9887044137
 20
7.2464258576
  0
LINE
  5
23A
100
AcDbEntity
  8
ASSI
100
AcDbLine
 62
7
  6
CONTINUOUS
 10
-21.8055247886
 20
7.7586869758
 11
-21.8254088924
 21
7.7253134731
  0
LINE
  5
23B
100
AcDbEntity
  8
ASSI
100
AcDbLine
 62
7
  6
CONTINUOUS
 10
-21.7871195834
 20
7.787532223
 11
-21.8071370307
 21
7.7559395244
  0
LWPOLYLINE
  5
23C
100
AcDbEntity
  8
ASSI
100
AcDbPolyline
 62
7
  6
CONTINUOUS
 90
3
 70
0
 10
-21.7880595228
 20
7.7860068737
 10
-21.7681580589
 20
7.8155481705
 10
-21.7474326389
 20
7.8445634147
  0
LWPOLYLINE
  5
23D
100
AcDbEntity
  8
ASSI
100
AcDbPolyline
 62
250
  6
CONTINUOUS
 90
25
 70
0
 10
-21.4640268074
 20
7.752358002
 10
-21.4840333121
 20
7.7244126551
 10
-21.5032937613
 20
7.6959486431
 10
-21.5217947298
 20
7.6669858836
 10
-21.5395232064
 20
7.6375448445
 10
-21.5564669665
 20
7.6076459263
 10
-21.5726145268
 20
7.5773094171
 10
-21.5879547382
 20
7.5465562053
 10
-21.6024767053
 20
7.5154080749
 10
-21.616170144
 20
7.4838870775
 10
-21.6290254411
 20
7.4520153846
 10
-21.6410336841
 20
7.4198151391
 10
-21.6521865321
 20
7.3873087232
 10
-21.6624761882
 20
7.3545188633
 10
-21.6718954657
 20
7.3214684656
 10
-21.6804378208
 20
7.2881804716
 10
-21.6880973078
 20
7.2546779705
 10
-21.6948685161
 20
7.2209845421
 10
-21.7007466453
 20
7.187124091
 10
-21.7057275494
 20
7.1531206852
 10
-21.709807838
 20
7.1189976916
 10
-21.7129847457
 20
7.0847781101
 10
-21.7152560166
 20
7.0504855669
 10
-21.7166199804
 20
7.0161443072
 10
-21.7170756317
 20
6.9817783304
  0
LWPOLYLINE
  5
23E
100
AcDbEntity
  8
ASSI
100
AcDbPolyline
 62
250
  6
CONTINUOUS
 90
25
 70
0
 10
-21.0614294307
 20
7.4559812052
 10
-21.073750115
 20
7.4387714582
 10
-21.0855972963
 20
7.4212648981
 10
-21.0969709748
 20
7.4034615251
 10
-21.1078789358
 20
7.3853478183
 10
-21.1183133939
 20
7.3669372985
 10
-21.1282509926
 20
7.348270528
 10
-21.1376902212
 20
7.3293475858
 10
-21.1466325905
 20
7.310168393
 10
-21.1550592757
 20
7.290773275
 10
-21.1629691657
 20
7.2711618128
 10
-21.1703633716
 20
7.2513344254
 10
-21.1772264025
 20
7.2313326955
 10
-21.1835571344
 20
7.2111562998
 10
-21.1893566913
 20
7.1908055615
 10
-21.1946129535
 20
7.1703230328
 10
-21.1993247906
 20
7.1497083686
 10
-21.203493333
 20
7.128961914
 10
-21.2071098517
 20
7.1081272557
 10
-21.2101731862
 20
7.0872032143
 10
-21.2126844971
 20
7.0661909693
 10
-21.2146385371
 20
7.0451376458
 10
-21.216033557
 20
7.0240589524
 10
-21.216871306
 20
7.0029391806
 10
-21.2171517841
 20
6.9817783304
  0
LINE
  5
23F
100
AcDbEntity
  8
ASSI
100
AcDbLine
 62
7
  6
CONTINUOUS
 10
-21.7474326389
 20
-7.8445634147
 11
-21.7681585582
 21
-7.8155474589
  0
LINE
  5
240
100
AcDbEntity
  8
ASSI
100
AcDbLine
 62
7
  6
CONTINUOUS
 10
-21.7679536491
 20
-7.8158882291
 11
-21.7880604943
 21
-7.786005395
  0
LINE
  5
241
100
AcDbEntity
  8
ASSI
100
AcDbLine
 62
7
  6
CONTINUOUS
 10
-21.7871195812
 20
-7.7875322263
 11
-21.8071384472
 21
-7.755937223
  0
LWPOLYLINE
  5
242
100
AcDbEntity
  8
ASSI
100
AcDbPolyline
 62
7
  6
CONTINUOUS
 90
19
 70
0
 10
-21.8055247886
 20
-7.7586869758
 10
-21.8254108025
 20
-7.7253101154
 10
-21.8428591745
 20
-7.6941568997
 10
-21.8594284065
 20
-7.6625760588
 10
-21.875106633
 20
-7.6305862466
 10
-21.8899057195
 20
-7.5981688092
 10
-21.9038061056
 20
-7.5653662676
 10
-21.916813237
 20
-7.5321613175
 10
-21.928921668
 20
-7.4985712633
 10
-21.9400955019
 20
-7.4646905385
 10
-21.9503302311
 20
-7.4305195501
 10
-21.9596303631
 20
-7.3960578912
 10
-21.9679735239
 20
-7.3613987744
 10
-21.9753551385
 20
-7.3265541554
 10
-21.9817797819
 20
-7.2915120786
 10
-21.9872388049
 20
-7.2563298901
 10
-21.9917293244
 20
-7.2210267051
 10
-21.9952542235
 20
-7.1855834084
 10
-21.9978135022
 20
-7.15
  0
LWPOLYLINE
  5
243
100
AcDbEntity
  8
ASSI
100
AcDbPolyline
 62
7
  6
CONTINUOUS
 90
16
 70
0
 10
-21.9887044137
 20
-7.2464258576
 10
-21.9837470533
 20
-7.2803311126
 10
-21.9779014623
 20
-7.3140516673
 10
-21.9711658345
 20
-7.3476106783
 10
-21.9635475393
 20
-7.3809724793
 10
-21.9550416554
 20
-7.4141535088
 10
-21.945653104
 20
-7.4471373281
 10
-21.9354040176
 20
-7.4798389557
 10
-21.9242909023
 20
-7.5122573602
 10
-21.9123172521
 20
-7.5443935728
 10
-21.8995156815
 20
-7.5761657057
 10
-21.8858918908
 20
-7.6075576509
 10
-21.8714401797
 20
-7.6385855164
 10
-21.8561760625
 20
-7.669215738
 10
-21.8400874835
 20
-7.6994676624
 10
-21.8231864984
 20
-7.7293219429
  0
LWPOLYLINE
  5
244
100
AcDbEntity
  8
RACCORDO
100
AcDbPolyline
 62
7
  6
CONTINUOUS
 90
21
 70
0
 10
-12.2116882383
 20
0.6940110879
 10
-12.2171696477
 20
0.6639680348
 10
-12.2209610148
 20
0.6347355346
 10
-12.2229509953
 20
0.6063986776
 10
-12.2232299387
 20
0.5789874427
 10
-12.2220688943
 20
0.5525917664
 10
-12.2195062102
 20
0.5272217688
 10
-12.2155035381
 20
0.5028673299
 10
-12.2102168824
 20
0.4795880255
 10
-12.2036617246
 20
0.4573332454
 10
-12.1958225832
 20
0.4361535999
 10
-12.186809017
 20
0.416260496
 10
-12.1766792983
 20
0.3976611694
 10
-12.1653751548
 20
0.3803483845
 10
-12.152831328
 20
0.3645118411
 10
-12.1387976021
 20
0.3499861634
 10
-12.123524193
 20
0.3369367273
 10
-12.1076964896
 20
0.3260493611
 10
-12.0915429551
 20
0.3175526742
 10
-12.0748351262
 20
0.3112180572
 10
-12.0575730032
 20
0.3070455101
  0
LINE
  5
245
100
AcDbEntity
  8
RACCORDO
100
AcDbLine
 62
7
  6
CONTINUOUS
 10
-12.2059219907
 20
0.7188832703
 11
-12.2116882383
 21
0.6940110879
  0
LWPOLYLINE
  5
246
100
AcDbEntity
  8
ASSI
100
AcDbPolyline
 62
7
  6
CONTINUOUS
 90
7
 70
0
 10
-3.0019140967
 20
-9.2463525183
 10
-3.0105022187
 20
-9.2461000632
 10
-3.0196056264
 20
-9.2455749653
 10
-3.0292243198
 20
-9.2447772244
 10
-3.0393816671
 20
-9.2436648586
 10
-3.0500543
 20
-9.2422798498
 10
-3.0727466733
 20
-9.2391591617
  0
LWPOLYLINE
  5
247
100
AcDbEntity
  8
ASSI
100
AcDbPolyline
 62
7
  6
CONTINUOUS
 90
48
 70
0
 10
-3.0727466733
 20
-9.2391591617
 10
-3.0847664137
 20
-9.2374234823
 10
-3.0971265313
 20
-9.235398795
 10
-3.1098347502
 20
-9.2331165872
 10
-3.1228833464
 20
-9.2305453714
 10
-3.1361443447
 20
-9.2274483744
 10
-3.1496230429
 20
-9.2237842856
 10
-3.1633141432
 20
-9.2195944156
 10
-3.1770737774
 20
-9.214765923
 10
-3.1909102875
 20
-9.2092557879
 10
-3.2048153314
 20
-9.2031070302
 10
-3.2186200149
 20
-9.1963358685
 10
-3.2322936206
 20
-9.1889521631
 10
-3.2458668658
 20
-9.1809460538
 10
-3.2592630082
 20
-9.1723041778
 10
-3.2724832
 20
-9.1630283629
 10
-3.2855262889
 20
-9.1531167814
 10
-3.2983120759
 20
-9.1425505875
 10
-3.3108156725
 20
-9.1313437483
 10
-3.3230619672
 20
-9.1194822967
 10
-3.3350454263
 20
-9.1069054853
 10
-3.3467599121
 20
-9.0936365193
 10
-3.3582115624
 20
-9.0796521935
 10
-3.3694132562
 20
-9.0648221452
 10
-3.3803866985
 20
-9.049146831
 10
-3.3911101845
 20
-9.0326257942
 10
-3.4015314789
 20
-9.0151273019
 10
-3.4116673437
 20
-8.9966412507
 10
-3.4215010169
 20
-8.9771777439
 10
-3.4309299778
 20
-8.9566353589
 10
-3.4399377675
 20
-8.9350307866
 10
-3.4485408448
 20
-8.9123473361
 10
-3.4566860651
 20
-8.8884335119
 10
-3.4643573087
 20
-8.8632696347
 10
-3.4715706953
 20
-8.8368753839
 10
-3.4783214386
 20
-8.8091583022
 10
-3.4846005621
 20
-8.7801034055
 10
-3.4904170423
 20
-8.7497256781
 10
-3.4957930229
 20
-8.7179776149
 10
-3.5007585581
 20
-8.6848841988
 10
-3.5052835936
 20
-8.6504204469
 10
-3.5093001102
 20
-8.614463906
 10
-3.5128212946
 20
-8.5770059502
 10
-3.5158339601
 20
-8.5380552052
 10
-3.5182305271
 20
-8.4975150948
 10
-3.5199751358
 20
-8.4553534269
 10
-3.521103646
 20
-8.4116023936
 10
-3.5216160578
 20
-8.3662619948
  0
LINE
  5
248
100
AcDbEntity
  8
ASSI
100
AcDbLine
 62
7
  6
CONTINUOUS
 10
-4.692353
 20
-7.794822226
 11
-4.692353
 21
-8.036766
  0
LINE
  5
249
100
AcDbEntity
  8
ASSI
100
AcDbLine
 62
7
  6
CONTINUOUS
 10
-4.350603
 20
-8.036766
 11
-4.350603
 21
-9.242564
  0
LWPOLYLINE
  5
24A
100
AcDbEntity
  8
RACCORDO
100
AcDbPolyline
 62
250
  6
CONTINUOUS
 90
9
 70
0
 10
-7.027510187
 20
1.3136219193
 10
-7.0719097299
 20
1.1005699555
 10
-7.1145217334
 20
0.8561517941
 10
-7.1479303614
 20
0.6143399113
 10
-7.1724652096
 20
0.3751652763
 10
-7.1893217391
 20
0.1420272921
 10
-7.1988984372
 20
-0.0839409069
 10
-7.2007968166
 20
-0.3038724551
 10
-7.1950168774
 20
-0.5177673525
  0
LWPOLYLINE
  5
24B
100
AcDbEntity
  8
RACCORDO
100
AcDbPolyline
 62
250
  6
CONTINUOUS
 90
6
 70
0
 10
-6.7683836658
 20
0.0406868081
 10
-6.7570944771
 20
0.0882637202
 10
-6.7461989228
 20
0.137656122
 10
-6.7357057474
 20
0.1888533219
 10
-6.7256183309
 20
0.2418275667
 10
-6.7159285048
 20
0.2966546125
  0
LINE
  5
24C
100
AcDbEntity
  8
RACCORDO
100
AcDbLine
 62
250
  6
CONTINUOUS
 10
-6.7800941478
 20
-0.0051862955
 11
-6.7683836658
 21
0.0406868081
  0
LWPOLYLINE
  5
24D
100
AcDbEntity
  8
COPY-PUBBLISH
100
AcDbPolyline
 62
7
  6
CONTINUOUS
 90
25
 70
0
 10
-7.4087905944
 20
-1.0660254038
 10
-7.439867544
 20
-1.1149144802
 10
-7.4722810272
 20
-1.1637876536
 10
-7.506031044
 20
-1.2125750399
 10
-7.5411306338
 20
-1.2612573714
 10
-7.5775667572
 20
-1.3097253964
 10
-7.6153002959
 20
-1.357774544
 10
-7.6543430804
 20
-1.405335313
 10
-7.6946832802
 20
-1.4523597298
 10
-7.7362462858
 20
-1.4986736338
 10
-7.7790424779
 20
-1.544219638
 10
-7.8230614758
 20
-1.5889559943
 10
-7.8681975274
 20
-1.6327332714
 10
-7.9144421932
 20
-1.6754941696
 10
-7.9618039127
 20
-1.7172173913
 10
-8.0102022531
 20
-1.757810888
 10
-8.0596381761
 20
-1.7972444049
 10
-8.1101107199
 20
-1.8354908716
 10
-8.161536566
 20
-1.8724671457
 10
-8.2139122562
 20
-1.9081521161
 10
-8.2672412488
 20
-1.9425281252
 10
-8.3214505998
 20
-1.9755210049
 10
-8.3765159946
 20
-2.0070982842
 10
-8.4324617478
 20
-2.0372691846
 10
-8.4892878595
 20
-2.0660254038
  0
LINE
  5
24E
100
AcDbEntity
  8
ASSI
100
AcDbLine
 62
250
  6
CONTINUOUS
 10
-21.0614294307
 20
-7.4559812052
 11
-21.4640268074
 21
-7.752358002
  0
LWPOLYLINE
  5
24F
100
AcDbEntity
  8
ASSI
100
AcDbPolyline
 62
7
  6
CONTINUOUS
 90
40
 70
0
 10
-3.0142879529
 20
-8.9702608514
 10
-3.006377991
 20
-8.9700299569
 10
-2.998623613
 20
-8.9694573665
 10
-2.991024819
 20
-8.9685430804
 10
-2.9835897252
 20
-8.9672801443
 10
-2.9763102154
 20
-8.9656755123
 10
-2.9691619402
 20
-8.9637500475
 10
-2.9621422737
 20
-8.9615189304
 10
-2.9552538418
 20
-8.9589669804
 10
-2.948480173
 20
-8.9560695184
 10
-2.9418216307
 20
-8.9528311872
 10
-2.9352778516
 20
-8.949247344
 10
-2.9288312739
 20
-8.9452793807
 10
-2.9224841782
 20
-8.9409324237
 10
-2.9162342838
 20
-8.9362013467
 10
-2.9100571874
 20
-8.9310321631
 10
-2.9039378742
 20
-8.925425787
 10
-2.8978913589
 20
-8.9193813042
 10
-2.891938282
 20
-8.9128419859
 10
-2.886066078
 20
-8.9058056035
 10
-2.8802873123
 20
-8.8982743856
 10
-2.8746603215
 20
-8.8901982893
 10
-2.8691856082
 20
-8.8815836875
 10
-2.8638626697
 20
-8.8724242073
 10
-2.858748334
 20
-8.8626506868
 10
-2.8538438172
 20
-8.8522534654
 10
-2.8491479031
 20
-8.8412422037
 10
-2.8447137708
 20
-8.8295767219
 10
-2.8405500116
 20
-8.8172410087
 10
-2.8366480343
 20
-8.8042510754
 10
-2.8330352443
 20
-8.7906147768
 10
-2.8297039075
 20
-8.7763448639
 10
-2.8266617581
 20
-8.7614285858
 10
-2.8239594041
 20
-8.7458355438
 10
-2.8215789972
 20
-8.7295807042
 10
-2.8195383856
 20
-8.7126491007
 10
-2.8179417219
 20
-8.6949654365
 10
-2.8168237235
 20
-8.6765046126
 10
-2.816149673
 20
-8.6572917279
 10
-2.8159195704
 20
-8.6373267826
  0
LWPOLYLINE
  5
250
100
AcDbEntity
  8
ASSI
100
AcDbPolyline
 62
7
  6
CONTINUOUS
 90
31
 70
0
 10
4.4904338029
 20
-8.500198252
 10
4.494751262
 20
-8.5000744027
 10
4.4991592698
 20
-8.4997091247
 10
4.5036578263
 20
-8.4991024182
 10
4.5082494605
 20
-8.4982563382
 10
4.5129316435
 20
-8.4971688295
 10
4.5176967879
 20
-8.4958337271
 10
4.5225535985
 20
-8.4942696607
 10
4.5274933705
 20
-8.4924580005
 10
4.5324824031
 20
-8.4903366915
 10
4.5375201226
 20
-8.4879083362
 10
4.5426071027
 20
-8.4851703321
 10
4.5477113641
 20
-8.4820528157
 10
4.55282436
 20
-8.4785401496
 10
4.5579546373
 20
-8.4746479712
 10
4.5630958565
 20
-8.4703533301
 10
4.5682502263
 20
-8.4656368241
 10
4.5734155382
 20
-8.4605178554
 10
4.5785788266
 20
-8.4550316801
 10
4.5837348408
 20
-8.4491832155
 10
4.5888888316
 20
-8.4429675443
 10
4.5940435863
 20
-8.4364051707
 10
4.5991957863
 20
-8.4295076361
 10
4.6043487502
 20
-8.4222633991
 10
4.6095152214
 20
-8.4146583394
 10
4.6146911154
 20
-8.4066765838
 10
4.6198805166
 20
-8.3983340055
 10
4.6251084215
 20
-8.3896641036
 10
4.6303620721
 20
-8.3806618724
 10
4.6356542264
 20
-8.3713323177
 10
4.6465649458
 20
-8.3518529581
  0
LWPOLYLINE
  5
251
100
AcDbEntity
  8
ASSI
100
AcDbPolyline
 62
7
  6
CONTINUOUS
 90
31
 70
0
 10
4.0763013719
 20
-8.5790287235
 10
4.070863493
 20
-8.5791759222
 10
4.0653904542
 20
-8.5796251957
 10
4.0598822554
 20
-8.5803765442
 10
4.0543352552
 20
-8.5814225257
 10
4.048753095
 20
-8.582770582
 10
4.0431466994
 20
-8.5844430392
 10
4.0375111907
 20
-8.5864340271
 10
4.0318514466
 20
-8.5887494159
 10
4.0261930252
 20
-8.591429141
 10
4.0205374116
 20
-8.5944718721
 10
4.0148831208
 20
-8.5978789395
 10
4.0092512555
 20
-8.6016942704
 10
4.0036359314
 20
-8.605920031
 10
3.9980430328
 20
-8.6105540551
 10
3.9925113166
 20
-8.6156337705
 10
3.9870528827
 20
-8.6211603669
 10
3.9816556311
 20
-8.6271326547
 10
3.976322018
 20
-8.6335844927
 10
3.97106284
 20
-8.6405287031
 10
3.9658673005
 20
-8.6479524637
 10
3.9607054659
 20
-8.655851167
 10
3.9555526719
 20
-8.6642228188
 10
3.9504335828
 20
-8.6730694133
 10
3.9453922584
 20
-8.6823923257
 10
3.9404449045
 20
-8.6921928228
 10
3.9355753152
 20
-8.7024696378
 10
3.9307789329
 20
-8.7132203446
 10
3.9260542383
 20
-8.7244441345
 10
3.9214027506
 20
-8.7361418162
 10
3.9168244698
 20
-8.7483133897
  0
LWPOLYLINE
  5
252
100
AcDbEntity
  8
ASSI
100
AcDbPolyline
 62
7
  6
CONTINUOUS
 90
46
 70
0
 10
-3.0077143418
 20
-7.7247548865
 10
-3.0162590197
 20
-7.724982656
 10
-3.0246821945
 20
-7.7255942448
 10
-3.0329838662
 20
-7.726589653
 10
-3.041164748
 20
-7.7279686085
 10
-3.0492241267
 20
-7.7297313834
 10
-3.0571598626
 20
-7.7318787938
 10
-3.0649798799
 20
-7.7343987449
 10
-3.0726762543
 20
-7.7373033314
 10
-3.0802230732
 20
-7.7406296535
 10
-3.0876136337
 20
-7.7443816413
 10
-3.0948546387
 20
-7.7485553647
 10
-3.1019402846
 20
-7.7531761333
 10
-3.1088636872
 20
-7.7582488094
 10
-3.1156317306
 20
-7.7637685308
 10
-3.1222592636
 20
-7.7697460209
 10
-3.128740254
 20
-7.7761646338
 10
-3.1350807339
 20
-7.7830410153
 10
-3.1413136487
 20
-7.7904358265
 10
-3.147455971
 20
-7.7983610566
 10
-3.1534907281
 20
-7.8068047162
 10
-3.1593999473
 20
-7.815791498
 10
-3.1651882707
 20
-7.8253168705
 10
-3.1708510563
 20
-7.8353853651
 10
-3.1763564056
 20
-7.8460352693
 10
-3.1817079118
 20
-7.85725271
 10
-3.1869019817
 20
-7.8690515602
 10
-3.191895937
 20
-7.8815117264
 10
-3.196687078
 20
-7.8946584919
 10
-3.2012781044
 20
-7.9084665733
 10
-3.205634437
 20
-7.9229400279
 10
-3.209735319
 20
-7.9380803815
 10
-3.2136015072
 20
-7.9538861081
 10
-3.2172606928
 20
-7.9703566873
 10
-3.2207218288
 20
-7.9874879201
 10
-3.2239759622
 20
-8.0052840055
 10
-3.2270239246
 20
-8.0237570188
 10
-3.2298697472
 20
-8.0429064088
 10
-3.2325093988
 20
-8.0627327268
 10
-3.2349316169
 20
-8.0832497016
 10
-3.237108323
 20
-8.1044587325
 10
-3.2390675956
 20
-8.1263584202
 10
-3.2408824071
 20
-8.1489582958
 10
-3.2425770818
 20
-8.1722615362
 10
-3.2441272954
 20
-8.1962649644
 10
-3.245533048
 20
-8.2209685804
  0
LWPOLYLINE
  5
253
100
AcDbEntity
  8
ASSI
100
AcDbPolyline
 62
7
  6
CONTINUOUS
 90
22
 70
0
 10
1.7339303118
 20
-8.0335444139
 10
1.7199594773
 20
-8.0338971326
 10
1.7061587435
 20
-8.0345737559
 10
1.6925281104
 20
-8.0355742836
 10
1.6790128647
 20
-8.0368751794
 10
1.6656677197
 20
-8.0384999796
 10
1.6526568152
 20
-8.0405192941
 10
1.6400339224
 20
-8.0429524389
 10
1.6277452701
 20
-8.045780098
 10
1.6157936842
 20
-8.0490149332
 10
1.6042877896
 20
-8.0526262278
 10
1.5931189614
 20
-8.0566446985
 10
1.5819641512
 20
-8.0611751575
 10
1.5707566159
 20
-8.0662011222
 10
1.5595630985
 20
-8.0717390753
 10
1.5482607798
 20
-8.0779432764
 10
1.5368342852
 20
-8.0848653022
 10
1.5252989891
 20
-8.092453576
 10
1.5135781959
 20
-8.1007076274
 10
1.50164634
 20
-8.1096272995
 10
1.4895289869
 20
-8.1192127491
 10
1.4772261366
 20
-8.1294639762
  0
LWPOLYLINE
  5
254
100
AcDbEntity
  8
ASSI
100
AcDbPolyline
 62
7
  6
CONTINUOUS
 90
40
 70
0
 10
-3.022021613
 20
-8.3438343804
 10
-3.031118657
 20
-8.3440533084
 10
-3.0400417776
 20
-8.3446299706
 10
-3.0487909746
 20
-8.345564367
 10
-3.0573634016
 20
-8.3468619084
 10
-3.065761905
 20
-8.3485171841
 10
-3.0739950246
 20
-8.3505139617
 10
-3.0820664688
 20
-8.3528463015
 10
-3.0899725292
 20
-8.3555201433
 10
-3.0977106195
 20
-8.3585370741
 10
-3.1052697174
 20
-8.3618951297
 10
-3.1126608452
 20
-8.3655962744
 10
-3.1199144844
 20
-8.3696479878
 10
-3.1270377422
 20
-8.3740463442
 10
-3.1340235114
 20
-8.3787952693
 10
-3.1408809515
 20
-8.3839140206
 10
-3.1476192339
 20
-8.3893953993
 10
-3.1542291872
 20
-8.3952466042
 10
-3.1606924571
 20
-8.4015084887
 10
-3.1670246095
 20
-8.4081799159
 10
-3.1732100784
 20
-8.4152620228
 10
-3.1791838119
 20
-8.4227990736
 10
-3.1849461844
 20
-8.4307904755
 10
-3.1904968215
 20
-8.4392368214
 10
-3.1957695484
 20
-8.4481841548
 10
-3.2007473764
 20
-8.4576375982
 10
-3.2054472943
 20
-8.4675920291
 10
-3.2098540924
 20
-8.4780781236
 10
-3.2139571006
 20
-8.4891069934
 10
-3.2177669891
 20
-8.5006675268
 10
-3.22130056
 20
-8.512757064
 10
-3.2245551943
 20
-8.5253861682
 10
-3.227533511
 20
-8.5385442762
 10
-3.2302601684
 20
-8.5521970389
 10
-3.2328478485
 20
-8.5663240771
 10
-3.2351838692
 20
-8.5809457699
 10
-3.2369548431
 20
-8.5960889057
 10
-3.2380563078
 20
-8.611762414
 10
-3.2385927257
 20
-8.6279573653
 10
-3.2385640968
 20
-8.6446737597
  0
LWPOLYLINE
  5
255
100
AcDbEntity
  8
ASSI
100
AcDbPolyline
 62
7
  6
CONTINUOUS
 90
46
 70
0
 10
1.6469266352
 20
-9.2272348558
 10
1.6674934128
 20
-9.2268704278
 10
1.6875134275
 20
-9.225945248
 10
1.7069866795
 20
-9.2244593164
 10
1.725891817
 20
-9.2224043091
 10
1.7442501917
 20
-9.2197885499
 10
1.7621258588
 20
-9.2166370107
 10
1.7795268683
 20
-9.2129745378
 10
1.7964451703
 20
-9.2087762848
 10
1.8129206694
 20
-9.2039926849
 10
1.8289386029
 20
-9.1985989286
 10
1.8445137337
 20
-9.1926198253
 10
1.8597302552
 20
-9.1860802359
 10
1.874583418
 20
-9.1789696041
 10
1.8890779715
 20
-9.1712984862
 10
1.903312358
 20
-9.1631234116
 10
1.9173007781
 20
-9.1544687292
 10
1.9310290311
 20
-9.1453100901
 10
1.9445529566
 20
-9.135630977
 10
1.9578996724
 20
-9.1254701062
 10
1.9710420608
 20
-9.1147887614
 10
1.9839546083
 20
-9.1034542767
 10
1.9966576892
 20
-9.0914761972
 10
2.0091309292
 20
-9.0788449778
 10
2.0212876922
 20
-9.0653993165
 10
2.033117709
 20
-9.0511157394
 10
2.0446312489
 20
-9.0360177205
 10
2.0557724835
 20
-9.0200143795
 10
2.066551052
 20
-9.0030771775
 10
2.0769573153
 20
-8.9852346535
 10
2.0869065271
 20
-8.9664815446
 10
2.0963990002
 20
-8.9467822401
 10
2.1054344218
 20
-8.9261723507
 10
2.1139271074
 20
-8.9047534465
 10
2.1218553185
 20
-8.8825100068
 10
2.1292407936
 20
-8.8594575523
 10
2.1360630636
 20
-8.8357442153
 10
2.1423435236
 20
-8.8113695944
 10
2.1480607785
 20
-8.7863340909
 10
2.153130174
 20
-8.7607870415
 10
2.1575683133
 20
-8.7347253606
 10
2.1613585932
 20
-8.7081521338
 10
2.1643665494
 20
-8.6812259537
 10
2.1665473604
 20
-8.6539996846
 10
2.1679458478
 20
-8.6264204623
 10
2.1685620114
 20
-8.5984882868
  0
LWPOLYLINE
  5
256
100
AcDbEntity
  8
ASSI
100
AcDbPolyline
 62
7
  6
CONTINUOUS
 90
43
 70
0
 10
0.2548052327
 20
-7.7507709264
 10
0.2459059973
 20
-7.7507775354
 10
0.2371324712
 20
-7.7511546459
 10
0.2284846543
 20
-7.7519022579
 10
0.2199620502
 20
-7.7530304997
 10
0.2115651552
 20
-7.7545292429
 10
0.2032954591
 20
-7.7563681027
 10
0.1951451158
 20
-7.7585386187
 10
0.1871219712
 20
-7.7610492513
 10
0.1792510529
 20
-7.763894997
 10
0.1715259148
 20
-7.7670703987
 10
0.1639530029
 20
-7.7705809135
 10
0.156576683
 20
-7.7744379091
 10
0.1493920599
 20
-7.7786377034
 10
0.1424040287
 20
-7.7831839786
 10
0.13567164
 20
-7.7880991483
 10
0.1292078121
 20
-7.7933896003
 10
0.1229996268
 20
-7.799048947
 10
0.1170673796
 20
-7.8050804386
 10
0.1114201667
 20
-7.811499326
 10
0.106048892
 20
-7.8182903584
 10
0.1009465628
 20
-7.8254110339
 10
0.0961299712
 20
-7.8328204191
 10
0.0915823251
 20
-7.8405594475
 10
0.0872462559
 20
-7.8487084172
 10
0.0831013022
 20
-7.8572761302
 10
0.0791679254
 20
-7.8662537845
 10
0.0754501406
 20
-7.8756952731
 10
0.0719399749
 20
-7.8855860083
 10
0.0686454012
 20
-7.8959405777
 10
0.065594353
 20
-7.9068566373
 10
0.0627821517
 20
-7.9183775046
 10
0.060213476
 20
-7.930459862
 10
0.0579302948
 20
-7.9430714127
 10
0.055957705
 20
-7.9562145518
 10
0.0542706099
 20
-7.9698868841
 10
0.0528356879
 20
-7.9840489275
 10
0.0516838329
 20
-7.9986985644
 10
0.050784151
 20
-8.0138379123
 10
0.0500106404
 20
-8.0294338427
 10
0.0493213003
 20
-8.0454753127
 10
0.0487581314
 20
-8.0619733651
 10
0.0483211337
 20
-8.078928
  0
LINE
  5
257
100
AcDbEntity
  8
ASSI
100
AcDbLine
 62
7
  6
CONTINUOUS
 10
-4.350603
 20
-9.242564
 11
-4.067613
 21
-9.242564
  0
LINE
  5
258
100
AcDbEntity
  8
ASSI
100
AcDbLine
 62
7
  6
CONTINUOUS
 10
-1.830713
 20
-9.229559
 11
-1.599701
 21
-9.229559
  0
LINE
  5
259
100
AcDbEntity
  8
ASSI
100
AcDbLine
 62
7
  6
CONTINUOUS
 10
-0.2424691688
 20
-9.210887
 11
0.738329
 21
-9.210887
  0
LINE
  5
25A
100
AcDbEntity
  8
ASSI
100
AcDbLine
 62
7
  6
CONTINUOUS
 10
0.738329
 20
-8.905087
 11
0.1126987194
 21
-8.905087
  0
LINE
  5
25B
100
AcDbEntity
  8
ASSI
100
AcDbLine
 62
7
  6
CONTINUOUS
 10
1.4628583187
 20
-8.712109
 11
1.1798076542
 21
-8.712109
  0
LINE
  5
25C
100
AcDbEntity
  8
ASSI
100
AcDbLine
 62
7
  6
CONTINUOUS
 10
-0.2266078958
 20
-8.078928
 11
0.0483211337
 21
-8.078928
  0
LINE
  5
25D
100
AcDbEntity
  8
ASSI
100
AcDbLine
 62
7
  6
CONTINUOUS
 10
-4.692353
 20
-8.036766
 11
-4.350603
 21
-8.036766
  0
LINE
  5
25E
100
AcDbEntity
  8
ASSI
100
AcDbLine
 62
7
  6
CONTINUOUS
 10
-2.8422265601
 20
-7.892478
 11
-2.5611101086
 21
-7.892478
  0
LINE
  5
25F
100
AcDbEntity
  8
ASSI
100
AcDbLine
 62
7
  6
CONTINUOUS
 10
1.527833
 20
-7.750106
 11
2.112106
 21
-7.750106
  0
LINE
  5
260
100
AcDbEntity
  8
ASSI
100
AcDbLine
 62
7
  6
CONTINUOUS
 10
-4.067613
 20
-7.491662
 11
-4.3000088809
 21
-7.491662
  0
LINE
  5
261
100
AcDbEntity
  8
ASSI
100
AcDbLine
 62
7
  6
CONTINUOUS
 10
2.112106
 20
-7.45932
 11
1.323272
 21
-7.45932
  0
LINE
  5
262
100
AcDbEntity
  8
ASSI
100
AcDbLine
 62
7
  6
CONTINUOUS
 10
-1.151264
 20
-7.409767
 11
-1.382654
 21
-7.409767
  0
LINE
  5
263
100
AcDbEntity
  8
0
100
AcDbLine
 62
7
  6
CONTINUOUS
 10
-21.9991228424
 20
-7.15
 11
-21.9755620937
 21
-7.15
  0
LINE
  5
264
100
AcDbEntity
  8
0
100
AcDbLine
 62
7
  6
CONTINUOUS
 10
21.9991228424
 20
-7.15
 11
21.9755620937
 21
-7.15
  0
LINE
  5
265
100
AcDbEntity
  8
0
100
AcDbLine
 62
7
  6
CONTINUOUS
 10
-21.9991228424
 20
-7.05
 11
-21.9999954628
 21
-7.05
  0
LINE
  5
266
100
AcDbEntity
  8
0
100
AcDbLine
 62
7
  6
CONTINUOUS
 10
21.9991228424
 20
-7.05
 11
21.9999954628
 21
-7.05
  0
LINE
  5
267
100
AcDbEntity
  8
ASSI
100
AcDbLine
 62
250
  6
CONTINUOUS
 10
21.2171517841
 20
-6.9817783304
 11
21.7170756317
 21
-6.9817783304
  0
LINE
  5
268
100
AcDbEntity
  8
ASSI
100
AcDbLine
 62
250
  6
CONTINUOUS
 10
-21.2171517841
 20
-6.9817783304
 11
-21.7170756317
 21
-6.9817783304
  0
LWPOLYLINE
  5
269
100
AcDbEntity
  8
ASSI
100
AcDbPolyline
 62
7
  6
CONTINUOUS
 90
40
 70
0
 10
1.6616205895
 20
-8.3100227637
 10
1.6722576583
 20
-8.3100464202
 10
1.6825289888
 20
-8.3105593561
 10
1.692434581
 20
-8.3115615716
 10
1.7019642876
 20
-8.3130661352
 10
1.711128256
 20
-8.3150599783
 10
1.7199569283
 20
-8.3175038952
 10
1.728446838
 20
-8.320430956
 10
1.7366014516
 20
-8.3238080907
 10
1.7444616112
 20
-8.3274968838
 10
1.7520177043
 20
-8.3314597531
 10
1.7592793433
 20
-8.3357342807
 10
1.766316208
 20
-8.340294797
 10
1.7731419151
 20
-8.3451251937
 10
1.7797428477
 20
-8.350241579
 10
1.7861478347
 20
-8.3556666084
 10
1.7923671633
 20
-8.3613905347
 10
1.7983905462
 20
-8.3674231052
 10
1.8042159501
 20
-8.3738162169
 10
1.8098392218
 20
-8.3805648973
 10
1.8152645145
 20
-8.3876741189
 10
1.8205022543
 20
-8.3952106972
 10
1.8255506717
 20
-8.4031755126
 10
1.8304115362
 20
-8.4115676847
 10
1.8351005825
 20
-8.4204513872
 10
1.8396287468
 20
-8.4298265699
 10
1.8439850928
 20
-8.4396932831
 10
1.8481525469
 20
-8.4501158511
 10
1.8521452114
 20
-8.4610962411
 10
1.8559489838
 20
-8.472632486
 10
1.8595044838
 20
-8.4847830088
 10
1.8628134545
 20
-8.4975551212
 10
1.8658741527
 20
-8.5109415116
 10
1.8686219681
 20
-8.5249786683
 10
1.871073119
 20
-8.5396678166
 10
1.8732113871
 20
-8.5550077313
 10
1.8749235066
 20
-8.5710312256
 10
1.8761717221
 20
-8.5877492373
 10
1.876993789
 20
-8.6051508284
 10
1.8773897073
 20
-8.6232359992
  0
LWPOLYLINE
  5
26A
100
AcDbEntity
  8
ASSI
100
AcDbPolyline
 62
7
  6
CONTINUOUS
 90
40
 70
0
 10
-4.692353
 20
-7.794822226
 10
-4.671329152
 20
-7.7949959829
 10
-4.6510990981
 20
-7.7947913266
 10
-4.6316628384
 20
-7.794208257
 10
-4.6130502472
 20
-7.793291191
 10
-4.5952314502
 20
-7.7919957117
 10
-4.5781168244
 20
-7.7901885688
 10
-4.5617017051
 20
-7.7878089618
 10
-4.5459907571
 20
-7.7849176912
 10
-4.5309083514
 20
-7.7815639081
 10
-4.5164557144
 20
-7.7777515924
 10
-4.5026316198
 20
-7.7734767643
 10
-4.4893567594
 20
-7.7687766356
 10
-4.4766294104
 20
-7.7636611492
 10
-4.4644512956
 20
-7.7581203621
 10
-4.4527482753
 20
-7.7521616582
 10
-4.4415122523
 20
-7.7457757166
 10
-4.4307513237
 20
-7.738971858
 10
-4.4204156413
 20
-7.731785429
 10
-4.4105001522
 20
-7.7242203094
 10
-4.4010099093
 20
-7.7162726192
 10
-4.3919102235
 20
-7.7079660651
 10
-4.3831875684
 20
-7.6993103708
 10
-4.3748554704
 20
-7.6902958125
 10
-4.3669198191
 20
-7.6809169253
 10
-4.3593659366
 20
-7.6711791534
 10
-4.3522085008
 20
-7.6610770527
 10
-4.3454974354
 20
-7.6505888252
 10
-4.3392392215
 20
-7.6397207778
 10
-4.3334273779
 20
-7.6284666037
 10
-4.3280923842
 20
-7.6167855852
 10
-4.3232567449
 20
-7.6046705012
 10
-4.3188979555
 20
-7.5921285729
 10
-4.3149789824
 20
-7.5791407467
 10
-4.3115103825
 20
-7.5657062204
 10
-4.3084815989
 20
-7.5518257963
 10
-4.3058239273
 20
-7.5374828269
 10
-4.3035144665
 20
-7.5226717631
 10
-4.3015761176
 20
-7.5073981542
 10
-4.3000088809
 20
-7.491662
  0
LWPOLYLINE
  5
26B
100
AcDbEntity
  8
ASSI
100
AcDbPolyline
 62
7
  6
CONTINUOUS
 90
20
 70
0
 10
4.0857464975
 20
-8.3403576646
 10
4.0925104302
 20
-8.3404150962
 10
4.0998769521
 20
-8.3408603464
 10
4.1078460633
 20
-8.3416934153
 10
4.1164815095
 20
-8.3429044504
 10
4.1257195449
 20
-8.344503304
 10
4.1353689324
 20
-8.3465195338
 10
4.1454244398
 20
-8.3489733829
 10
4.1558912992
 20
-8.3518446081
 10
4.1665939701
 20
-8.3551020371
 10
4.1775201294
 20
-8.3587558231
 10
4.1886821002
 20
-8.3627958129
 10
4.1999413102
 20
-8.3671603748
 10
4.2112911593
 20
-8.3718646611
 10
4.2227382477
 20
-8.3768935196
 10
4.2341638037
 20
-8.3821398611
 10
4.2455689223
 20
-8.3876166352
 10
4.2569525085
 20
-8.3933108922
 10
4.2681925057
 20
-8.3990766946
 10
4.279294141
 20
-8.4049199353
  0
LWPOLYLINE
  5
26C
100
AcDbEntity
  8
ASSI
100
AcDbPolyline
 62
7
  6
CONTINUOUS
 90
53
 70
0
 10
3.1071221864
 20
-8.951163862
 10
3.0977638973
 20
-8.9510331203
 10
3.0887030392
 20
-8.9504815409
 10
3.079939612
 20
-8.9495091237
 10
3.0714833559
 20
-8.9481096801
 10
3.0633245308
 20
-8.9462893988
 10
3.0554339162
 20
-8.9440668459
 10
3.0478075252
 20
-8.9414348328
 10
3.0404493446
 20
-8.9384005481
 10
3.0333421147
 20
-8.9350041238
 10
3.0264757396
 20
-8.9312618833
 10
3.019860315
 20
-8.9271575031
 10
3.0135088683
 20
-8.9226821446
 10
3.0074356387
 20
-8.9178436712
 10
3.0016263869
 20
-8.9126342194
 10
2.9960514224
 20
-8.9070213599
 10
2.9907139564
 20
-8.9009981853
 10
2.9856107777
 20
-8.894571603
 10
2.9807025626
 20
-8.8877299052
 10
2.9759891815
 20
-8.8804726027
 10
2.9714707638
 20
-8.8728001848
 10
2.9671083749
 20
-8.8647024109
 10
2.9628989078
 20
-8.8561605893
 10
2.9588454694
 20
-8.8471934117
 10
2.9549184447
 20
-8.8378467139
 10
2.9511072434
 20
-8.8281429523
 10
2.9474224558
 20
-8.8180596703
 10
2.9438662384
 20
-8.8075753343
 10
2.9404322237
 20
-8.7967103397
 10
2.9371267792
 20
-8.7854442909
 10
2.9339711637
 20
-8.7736944676
 10
2.9309661988
 20
-8.7614503243
 10
2.9281110629
 20
-8.7487224065
 10
2.9254245501
 20
-8.7354596298
 10
2.9229130131
 20
-8.7216460147
 10
2.9205700992
 20
-8.7072975409
 10
2.9183955442
 20
-8.6924110626
 10
2.9164020913
 20
-8.6769819617
 10
2.9145769974
 20
-8.6610148565
 10
2.9128817686
 20
-8.6445204562
 10
2.9113134404
 20
-8.6275070147
 10
2.9098749773
 20
-8.6099662783
 10
2.9085367788
 20
-8.5918841943
 10
2.9072834242
 20
-8.5732769707
 10
2.9061303343
 20
-8.5541283995
 10
2.9050941698
 20
-8.5343758048
 10
2.9041794707
 20
-8.5140149453
 10
2.9033816972
 20
-8.4930500622
 10
2.9027038905
 20
-8.4714312028
 10
2.9021523347
 20
-8.4491580296
 10
2.9017207457
 20
-8.4262308802
 10
2.9013933131
 20
-8.4026008138
 10
2.9011647669
 20
-8.3782515169
  0
LWPOLYLINE
  5
26D
100
AcDbEntity
  8
ASSI
100
AcDbPolyline
 62
7
  6
CONTINUOUS
 90
37
 70
0
 10
4.4886174326
 20
-8.7388693109
 10
4.4779714063
 20
-8.7387189422
 10
4.4671847211
 20
-8.737977489
 10
4.4562573768
 20
-8.7366449515
 10
4.4451818072
 20
-8.7347271732
 10
4.4339655787
 20
-8.7322183105
 10
4.4226313899
 20
-8.7291008329
 10
4.4111795115
 20
-8.7253501252
 10
4.399609673
 20
-8.7209908027
 10
4.3879437617
 20
-8.7160791801
 10
4.3762085695
 20
-8.7106105681
 10
4.3643773045
 20
-8.704589656
 10
4.3523914783
 20
-8.6980868272
 10
4.3402446288
 20
-8.6910617717
 10
4.3279432181
 20
-8.6835547993
 10
4.3154481437
 20
-8.6757572232
 10
4.3026827874
 20
-8.6675903648
 10
4.2897237674
 20
-8.6591329026
 10
4.2767618361
 20
-8.6508121846
 10
4.2638049398
 20
-8.6426560995
 10
4.2508451322
 20
-8.6346367586
 10
4.2380493269
 20
-8.6270978437
 10
4.2254638911
 20
-8.6201175504
 10
4.2130424576
 20
-8.613617683
 10
4.2008128378
 20
-8.6077073359
 10
4.1887599407
 20
-8.602420031
 10
4.1768988573
 20
-8.5977222464
 10
4.1653026723
 20
-8.5936225106
 10
4.153963853
 20
-8.590163327
 10
4.1428899321
 20
-8.5873021922
 10
4.1321765919
 20
-8.5849201247
 10
4.1218319762
 20
-8.5830301104
 10
4.1118479413
 20
-8.5816191635
 10
4.1022957383
 20
-8.5805293452
 10
4.0931991176
 20
-8.5797080094
 10
4.0845343288
 20
-8.5792078021
 10
4.0763013719
 20
-8.5790287235
  0
LWPOLYLINE
  5
26E
100
AcDbEntity
  8
ASSI
100
AcDbPolyline
 62
7
  6
CONTINUOUS
 90
49
 70
0
 10
3.1071221864
 20
-9.2272555288
 10
3.0829916249
 20
-9.2268457037
 10
3.0599109642
 20
-9.2254779969
 10
3.0378802043
 20
-9.2231524083
 10
3.0169474357
 20
-9.2197934408
 10
2.997064568
 20
-9.2154765916
 10
2.9780873295
 20
-9.2104283519
 10
2.9600272057
 20
-9.2046546485
 10
2.9428727112
 20
-9.1981495547
 10
2.9264451185
 20
-9.1911217817
 10
2.9107268459
 20
-9.1836029531
 10
2.895735475
 20
-9.1755614453
 10
2.8813450239
 20
-9.1671110988
 10
2.8675823159
 20
-9.1583135675
 10
2.8544205276
 20
-9.1491071975
 10
2.8416532061
 20
-9.1394208675
 10
2.8292393825
 20
-9.1292771889
 10
2.8172200256
 20
-9.1186535504
 10
2.8055115895
 20
-9.1074109968
 10
2.7940794118
 20
-9.0955485551
 10
2.7829581548
 20
-9.0830671984
 10
2.7721682595
 20
-9.0698308909
 10
2.7617192195
 20
-9.0558309152
 10
2.7516015412
 20
-9.0410759888
 10
2.7418071847
 20
-9.0254562281
 10
2.7323380977
 20
-9.0089667928
 10
2.7231923326
 20
-8.9916125233
 10
2.7143560068
 20
-8.9732980569
 10
2.7058318086
 20
-8.9540032099
 10
2.6976170497
 20
-8.933748166
 10
2.6896897826
 20
-8.9124981128
 10
2.6820368528
 20
-8.8902641527
 10
2.6746714149
 20
-8.8670351833
 10
2.6676109847
 20
-8.8427430857
 10
2.6608359983
 20
-8.8174198828
 10
2.6543660197
 20
-8.7910335516
 10
2.6482772567
 20
-8.763419905
 10
2.6425727258
 20
-8.7345567029
 10
2.6372494105
 20
-8.7044661854
 10
2.6323744698
 20
-8.6730508856
 10
2.6279674934
 20
-8.6403037003
 10
2.6240088916
 20
-8.6062317326
 10
2.6205070537
 20
-8.5707588254
 10
2.6174372581
 20
-8.5338931172
 10
2.6148242263
 20
-8.4956264694
 10
2.6127505132
 20
-8.4558583084
 10
2.6112436368
 20
-8.4145551096
 10
2.610276079
 20
-8.3717503974
 10
2.6098478397
 20
-8.327444172
  0
LWPOLYLINE
  5
26F
100
AcDbEntity
  8
ASSI
100
AcDbPolyline
 62
7
  6
CONTINUOUS
 90
37
 70
0
 10
1.6631673215
 20
-8.951143189
 10
1.6531353163
 20
-8.9509597214
 10
1.6434405806
 20
-8.9503643303
 10
1.6340831144
 20
-8.9493570154
 10
1.6250742925
 20
-8.9479148927
 10
1.6164027401
 20
-8.9460608464
 10
1.6080343333
 20
-8.9438635291
 10
1.5999723271
 20
-8.9413303593
 10
1.5922134665
 20
-8.9384539187
 10
1.5847138618
 20
-8.9352806043
 10
1.5774743187
 20
-8.9318252774
 10
1.5704940314
 20
-8.9280730768
 10
1.5637266932
 20
-8.9240258163
 10
1.5571672926
 20
-8.9196926995
 10
1.5508208412
 20
-8.9150645228
 10
1.5446560667
 20
-8.9101154891
 10
1.5386589051
 20
-8.9048525102
 10
1.5328434203
 20
-8.8992686744
 10
1.5272205316
 20
-8.8933174492
 10
1.5217860006
 20
-8.8869968816
 10
1.5165440656
 20
-8.8803089247
 10
1.5115183612
 20
-8.8732129047
 10
1.5067092978
 20
-8.8657026216
 10
1.502116465
 20
-8.8577842756
 10
1.4977622659
 20
-8.8494357935
 10
1.4936691092
 20
-8.8406591891
 10
1.4898145862
 20
-8.8314524487
 10
1.4861538736
 20
-8.8217874577
 10
1.4826827098
 20
-8.8116696888
 10
1.4794053564
 20
-8.8010936693
 10
1.4762897748
 20
-8.7900148667
 10
1.473253845
 20
-8.7784475309
 10
1.4703796871
 20
-8.766377412
 10
1.4678816233
 20
-8.7537172277
 10
1.4658310944
 20
-8.7404378839
 10
1.4641566595
 20
-8.7265684747
 10
1.4628583187
 20
-8.712109
  0
LWPOLYLINE
  5
270
100
AcDbEntity
  8
ASSI
100
AcDbPolyline
 62
7
  6
CONTINUOUS
 90
43
 70
0
 10
0.2428180594
 20
-7.4599853053
 10
0.2633480203
 20
-7.4604077474
 10
0.2834848955
 20
-7.4615115346
 10
0.3032286851
 20
-7.4632966671
 10
0.3225804751
 20
-7.4657820014
 10
0.3415391794
 20
-7.4689486809
 10
0.3601015403
 20
-7.4727401357
 10
0.378266921
 20
-7.47714597
 10
0.3960359582
 20
-7.4821765796
 10
0.4134073046
 20
-7.4878065826
 10
0.4303854965
 20
-7.4940277263
 10
0.4469659976
 20
-7.5008482634
 10
0.4631338523
 20
-7.5082675704
 10
0.4788844769
 20
-7.5162872609
 10
0.4942224551
 20
-7.5249057213
 10
0.5091465833
 20
-7.534117488
 10
0.5236585669
 20
-7.5439328945
 10
0.5377567005
 20
-7.5543416073
 10
0.5514346631
 20
-7.5653071626
 10
0.5646862266
 20
-7.5768076888
 10
0.5775176192
 20
-7.5888650575
 10
0.5899412051
 20
-7.60150842
 10
0.6019660741
 20
-7.6147318868
 10
0.6135831363
 20
-7.6285413474
 10
0.6247774866
 20
-7.6429836222
 10
0.6355528472
 20
-7.6580625788
 10
0.6459054958
 20
-7.6737743495
 10
0.655809361
 20
-7.6901541519
 10
0.6652781257
 20
-7.7072167649
 10
0.6742981069
 20
-7.7249474096
 10
0.6828021838
 20
-7.7433369669
 10
0.6907976727
 20
-7.7623975526
 10
0.6982772573
 20
-7.7821170508
 10
0.7051518686
 20
-7.8024499942
 10
0.7114220194
 20
-7.8233846777
 10
0.7170871969
 20
-7.8449328064
 10
0.722056793
 20
-7.8670840281
 10
0.7263324708
 20
-7.8898521873
 10
0.7299125672
 20
-7.9132234395
 10
0.7327014856
 20
-7.9371458993
 10
0.7346673604
 20
-7.9616022716
 10
0.7358420573
 20
-7.9866098515
 10
0.7362255761
 20
-8.012168639
  0
LWPOLYLINE
  5
271
100
AcDbEntity
  8
ASSI
100
AcDbPolyline
 62
7
  6
CONTINUOUS
 90
52
 70
0
 10
3.1071221864
 20
-7.4295662303
 10
3.1250911708
 20
-7.4299487233
 10
3.1427373642
 20
-7.4309355278
 10
3.1600607668
 20
-7.4325266439
 10
3.1770700371
 20
-7.4347451332
 10
3.1937565166
 20
-7.437567934
 10
3.2100942289
 20
-7.4409258615
 10
3.2260809999
 20
-7.4448100029
 10
3.2417190037
 20
-7.449229271
 10
3.2569887868
 20
-7.4541412194
 10
3.2718921209
 20
-7.4595381595
 10
3.2864272342
 20
-7.4654277798
 10
3.3005693583
 20
-7.4717907
 10
3.3143022058
 20
-7.4786093749
 10
3.3276420639
 20
-7.4859013496
 10
3.3406130255
 20
-7.4936998802
 10
3.3531899096
 20
-7.5019877063
 10
3.3653978971
 20
-7.5107820882
 10
3.3773366241
 20
-7.5201680622
 10
3.3890187674
 20
-7.5301470702
 10
3.4004316502
 20
-7.5407176702
 10
3.4116368781
 20
-7.5519605734
 10
3.4226551272
 20
-7.5638720773
 10
3.4334657214
 20
-7.5764558843
 10
3.444068238
 20
-7.5898038125
 10
3.4544823648
 20
-7.6039196398
 10
3.4646884139
 20
-7.6187995884
 10
3.4746268983
 20
-7.6345241427
 10
3.4842999342
 20
-7.6510937806
 10
3.4937054055
 20
-7.6685080242
 10
3.502777477
 20
-7.6868459243
 10
3.5115033382
 20
-7.7061050339
 10
3.5198957996
 20
-7.7262878002
 10
3.5279274575
 20
-7.7474806147
 10
3.5355893942
 20
-7.7696890657
 10
3.5428905274
 20
-7.7929075651
 10
3.5498302066
 20
-7.8172057404
 10
3.5564228749
 20
-7.8425755696
 10
3.5626540892
 20
-7.8690250748
 10
3.5684798696
 20
-7.8966479489
 10
3.5738952231
 20
-7.9254438282
 10
3.5789051427
 20
-7.9554130764
 10
3.5834806274
 20
-7.986650478
 10
3.5876048067
 20
-8.01916772
 10
3.5912945511
 20
-8.0529531153
 10
3.5945714714
 20
-8.0880663875
 10
3.5974732783
 20
-8.124501767
 10
3.599962261
 20
-8.1622650233
 10
3.6019468983
 20
-8.2014331887
 10
3.6033966831
 20
-8.2420319407
 10
3.6043421223
 20
-8.2840356018
 10
3.6047832162
 20
-8.327444172
  0
LWPOLYLINE
  5
272
100
AcDbEntity
  8
ASSI
100
AcDbPolyline
 62
7
  6
CONTINUOUS
 90
43
 70
0
 10
-2.9717528221
 20
-8.0677427136
 10
-2.9558741119
 20
-8.0680904926
 10
-2.9401037319
 20
-8.069038618
 10
-2.924441682
 20
-8.0705870899
 10
-2.9088786178
 20
-8.0727458109
 10
-2.8934238837
 20
-8.0755048783
 10
-2.8781055133
 20
-8.0788345837
 10
-2.862919823
 20
-8.0827218524
 10
-2.8478704964
 20
-8.0871797591
 10
-2.8329966177
 20
-8.0922178193
 10
-2.8182920531
 20
-8.0978273154
 10
-2.8037629364
 20
-8.1040169649
 10
-2.7894667535
 20
-8.1108224361
 10
-2.7754026189
 20
-8.1182452264
 10
-2.7615714183
 20
-8.1262838383
 10
-2.7480332943
 20
-8.1349694469
 10
-2.7347957635
 20
-8.1443211029
 10
-2.7218513093
 20
-8.1543197555
 10
-2.7092375251
 20
-8.1649394272
 10
-2.6969642387
 20
-8.1761666052
 10
-2.6850216222
 20
-8.1880148022
 10
-2.673417785
 20
-8.2004985794
 10
-2.6621702455
 20
-8.213587845
 10
-2.6512614852
 20
-8.2273126909
 10
-2.640647058
 20
-8.2417779535
 10
-2.6303028907
 20
-8.2569787107
 10
-2.6202530565
 20
-8.2729198847
 10
-2.6105253285
 20
-8.2897210782
 10
-2.6010533192
 20
-8.3074557054
 10
-2.5919034161
 20
-8.3260503523
 10
-2.5833025562
 20
-8.3454043793
 10
-2.5752573159
 20
-8.3655860047
 10
-2.5677611186
 20
-8.3865270104
 10
-2.5610211718
 20
-8.4079221019
 10
-2.5551311354
 20
-8.4297812614
 10
-2.5499973495
 20
-8.4520945068
 10
-2.5455460416
 20
-8.4745265971
 10
-2.5417583643
 20
-8.4970771011
 10
-2.5386531649
 20
-8.5197464502
 10
-2.5362132128
 20
-8.5422006967
 10
-2.5344327644
 20
-8.564328525
 10
-2.5333175633
 20
-8.5862412507
 10
-2.5328676094
 20
-8.607938874
  0
LWPOLYLINE
  5
273
100
AcDbEntity
  8
ASSI
100
AcDbPolyline
 62
7
  6
CONTINUOUS
 90
58
 70
0
 10
3.1071221864
 20
-7.7056578971
 10
3.1149359428
 20
-7.7058729976
 10
3.1225156233
 20
-7.7063395874
 10
3.1298612279
 20
-7.7070576668
 10
3.1369546015
 20
-7.7080345034
 10
3.1438138991
 20
-7.7092628294
 10
3.1504935861
 20
-7.7107208414
 10
3.1570049536
 20
-7.7123801372
 10
3.1633367104
 20
-7.714269119
 10
3.1695094482
 20
-7.7164511892
 10
3.1755172118
 20
-7.718931143
 10
3.1813659563
 20
-7.7217041852
 10
3.1870941394
 20
-7.7248193326
 10
3.1927013894
 20
-7.7282838363
 10
3.198188078
 20
-7.7320904452
 10
3.2035937772
 20
-7.7362664234
 10
3.208931703
 20
-7.7408071615
 10
3.2141886394
 20
-7.745717269
 10
3.2193645102
 20
-7.7510378383
 10
3.2244720677
 20
-7.7567697403
 10
3.2294985596
 20
-7.7629121042
 10
3.2344056527
 20
-7.7695034095
 10
3.2391945522
 20
-7.7765497955
 10
3.243864053
 20
-7.784045123
 10
3.2483722058
 20
-7.7920094531
 10
3.2527082806
 20
-7.8004495309
 10
3.2568830075
 20
-7.8093586115
 10
3.2608866281
 20
-7.8187365213
 10
3.264711724
 20
-7.8285904128
 10
3.2683657137
 20
-7.8389131337
 10
3.2718610941
 20
-7.8496830528
 10
3.2752069057
 20
-7.8608930225
 10
3.2783941081
 20
-7.8725501905
 10
3.2814080765
 20
-7.8846543696
 10
3.2842432325
 20
-7.8971979032
 10
3.2869051545
 20
-7.9101884478
 10
3.2893959537
 20
-7.9236487857
 10
3.2917052947
 20
-7.9375809977
 10
3.2938435129
 20
-7.9519830031
 10
3.2958437257
 20
-7.9668713416
 10
3.2977035016
 20
-7.982247836
 10
3.2994252722
 20
-7.9981106636
 10
3.3010494495
 20
-8.0144708965
 10
3.3025899978
 20
-8.0313195035
 10
3.3040329528
 20
-8.0486655158
 10
3.305376833
 20
-8.0665470993
 10
3.3066211285
 20
-8.0849609091
 10
3.3077663491
 20
-8.1039102901
 10
3.3088125426
 20
-8.1234434425
 10
3.3097596139
 20
-8.1435598283
 10
3.3106076581
 20
-8.1642599856
 10
3.3113570087
 20
-8.1855937291
 10
3.3120140847
 20
-8.2075612549
 10
3.3125724671
 20
-8.2301623669
 10
3.3130132333
 20
-8.253446292
 10
3.3133300758
 20
-8.277429439
 10
3.313529302
 20
-8.302095399
 10
3.313610912
 20
-8.327444172
  0
LWPOLYLINE
  5
274
100
AcDbEntity
  8
ASSI
100
AcDbPolyline
 62
7
  6
CONTINUOUS
 90
43
 70
0
 10
-2.9873328642
 20
-7.4486632197
 10
-2.9744445575
 20
-7.4490321636
 10
-2.9613296475
 20
-7.4498624049
 10
-2.9479881343
 20
-7.4511539434
 10
-2.9343811106
 20
-7.4529379946
 10
-2.9205474836
 20
-7.4551833431
 10
-2.9066039754
 20
-7.4577963427
 10
-2.8925577851
 20
-7.4607462771
 10
-2.8784017134
 20
-7.4640638625
 10
-2.8642308844
 20
-7.4677476013
 10
-2.8500145412
 20
-7.4717750814
 10
-2.8357834405
 20
-7.4761687147
 10
-2.8217249772
 20
-7.4809942393
 10
-2.8078333027
 20
-7.4862535024
 10
-2.7941142656
 20
-7.4919446567
 10
-2.7807728056
 20
-7.4981278981
 10
-2.7678259062
 20
-7.5048407708
 10
-2.755256584
 20
-7.5120457306
 10
-2.7432188288
 20
-7.5196903417
 10
-2.7318026683
 20
-7.527768002
 10
-2.7209180748
 20
-7.5362853136
 10
-2.710448955
 20
-7.5452096471
 10
-2.7004146022
 20
-7.5544835382
 10
-2.6907957232
 20
-7.5641644512
 10
-2.6814183444
 20
-7.5743921498
 10
-2.6722453608
 20
-7.5851453066
 10
-2.6633138775
 20
-7.596445249
 10
-2.654561236
 20
-7.6084957229
 10
-2.645932098
 20
-7.6213221062
 10
-2.6374818018
 20
-7.6348990211
 10
-2.6293137051
 20
-7.6493540796
 10
-2.621413116
 20
-7.6647283418
 10
-2.6137947263
 20
-7.6809807476
 10
-2.6066059689
 20
-7.6981157289
 10
-2.5998907058
 20
-7.7161222386
 10
-2.593605075
 20
-7.7350113237
 10
-2.587764923
 20
-7.7548205577
 10
-2.5824125931
 20
-7.7755845478
 10
-2.577505742
 20
-7.7972686867
 10
-2.5729331863
 20
-7.8198067262
 10
-2.568657865
 20
-7.8431765835
 10
-2.5647168391
 20
-7.8674003415
 10
-2.5611101086
 20
-7.892478
  0
LINE
  5
275
100
AcDbEntity
  8
ASSI
100
AcDbLine
 62
7
  6
CONTINUOUS
 10
1.224282
 20
-8.421001
 11
1.4766025168
 21
-8.4360470308
  0
LWPOLYLINE
  5
276
100
AcDbEntity
  8
RACCORDO
100
AcDbPolyline
 62
250
  6
CONTINUOUS
 90
16
 70
0
 10
-8.7757649296
 20
-2.7044879801
 10
-8.778266694
 20
-2.7039183906
 10
-8.7819266868
 20
-2.7005145401
 10
-8.7862451602
 20
-2.6944193502
 10
-8.7911731578
 20
-2.6857019197
 10
-8.7966548128
 20
-2.6744610744
 10
-8.8026279821
 20
-2.6608242474
 10
-8.8090249503
 20
-2.6449460337
 10
-8.8157731979
 20
-2.6270064379
 10
-8.8227962228
 20
-2.6072088339
 10
-8.8300144081
 20
-2.5857776585
 10
-8.8373459245
 20
-2.5629558677
 10
-8.8447076578
 20
-2.5390021823
 10
-8.8520161514
 20
-2.5141881545
 10
-8.8591885525
 20
-2.4887950896
 10
-8.8661435508
 20
-2.463110857
  0
LWPOLYLINE
  5
277
100
AcDbEntity
  8
COPY-PUBBLISH
100
AcDbPolyline
 62
7
  6
CONTINUOUS
 90
25
 70
0
 10
-10.5107121405
 20
-2.0660254038
 10
-10.5675546897
 20
-2.037262311
 10
-10.6235256193
 20
-2.0070765222
 10
-10.6786249293
 20
-1.9754763594
 10
-10.7328805048
 20
-1.9424508801
 10
-10.7862644606
 20
-1.9080343677
 10
-10.8386931416
 20
-1.8723063177
 10
-10.8901694213
 20
-1.835283358
 10
-10.9406904262
 20
-1.7969877833
 10
-10.990163881
 20
-1.7575113197
 10
-11.0385868925
 20
-1.7168813199
 10
-11.085962354
 20
-1.675127792
 10
-11.1322066695
 20
-1.6323504011
 10
-11.1773246222
 20
-1.5885737337
 10
-11.221311429
 20
-1.5438514371
 10
-11.2640691451
 20
-1.4983300274
 10
-11.3055870265
 20
-1.4520528976
 10
-11.3458758171
 20
-1.4050752168
 10
-11.3848698038
 20
-1.3575626167
 10
-11.4225582675
 20
-1.3095634556
 10
-11.4589519273
 20
-1.2611464982
 10
-11.4940172266
 20
-1.2125066172
 10
-11.52774298
 20
-1.1637501064
 10
-11.560140373
 20
-1.1148996555
 10
-11.5912094056
 20
-1.0660254038
  0
LWPOLYLINE
  5
278
100
AcDbEntity
  8
ASSI
100
AcDbPolyline
 62
7
  6
CONTINUOUS
 90
20
 70
0
 10
4.3738906053
 20
-8.4571850891
 10
4.381436151
 20
-8.461289873
 10
4.3887046557
 20
-8.4651773893
 10
4.3956954399
 20
-8.4688502028
 10
4.4024849837
 20
-8.4723188336
 10
4.4090781281
 20
-8.4755794478
 10
4.4154700321
 20
-8.4786358795
 10
4.4217226535
 20
-8.4815101505
 10
4.4278400401
 20
-8.4842110344
 10
4.4338181441
 20
-8.4867297576
 10
4.4397067796
 20
-8.4890620223
 10
4.44550829
 20
-8.4912192048
 10
4.451220332
 20
-8.4931899288
 10
4.4568856898
 20
-8.4949357668
 10
4.46250193
 20
-8.496459209
 10
4.4680714861
 20
-8.4977577651
 10
4.473644443
 20
-8.4987855373
 10
4.4792374955
 20
-8.4995272262
 10
4.4848339488
 20
-8.4999981311
 10
4.4904338029
 20
-8.500198252
  0
LWPOLYLINE
  5
279
100
AcDbEntity
  8
ASSI
100
AcDbPolyline
 62
7
  6
CONTINUOUS
 90
3
 70
0
 10
4.279294141
 20
-8.4049199353
 10
4.300928906
 20
-8.4166574359
 10
4.3113123857
 20
-8.4223707398
  0
LWPOLYLINE
  5
27A
100
AcDbEntity
  8
ASSI
100
AcDbPolyline
 62
7
  6
CONTINUOUS
 90
3
 70
0
 10
4.3113123857
 20
-8.4223707398
 10
4.3493349452
 20
-8.4435684784
 10
4.3738906053
 20
-8.4571850891
  0
LWPOLYLINE
  5
27B
100
AcDbEntity
  8
RACCORDO
100
AcDbPolyline
 62
7
  6
CONTINUOUS
 90
10
 70
0
 10
-7.1621934313
 20
-0.544378673
 10
-7.1660194264
 20
-0.541565946
 10
-7.1697994746
 20
-0.538715429
 10
-7.1735335761
 20
-0.5358271218
 10
-7.1772201169
 20
-0.5328986666
 10
-7.1808607109
 20
-0.5299324213
 10
-7.1844601998
 20
-0.5269354599
 10
-7.1880201974
 20
-0.5239101402
 10
-7.19153909
 20
-0.5208541044
 10
-7.1950168774
 20
-0.5177673525
  0
LINE
  5
27C
100
AcDbEntity
  8
ASSI
100
AcDbLine
 62
250
  6
CONTINUOUS
 10
-21.0614294307
 20
7.4559812052
 11
-21.4640268074
 21
7.752358002
  0
LWPOLYLINE
  5
27D
100
AcDbEntity
  8
ASSI
100
AcDbPolyline
 62
7
  6
CONTINUOUS
 90
34
 70
0
 10
-2.8422265601
 20
-7.892478
 10
-2.8433867872
 20
-7.8815997527
 10
-2.844842219
 20
-7.8711880067
 10
-2.8465928556
 20
-7.861242762
 10
-2.8486563539
 20
-7.8517792325
 10
-2.8510150571
 20
-7.8427822042
 10
-2.8536159942
 20
-7.8342060361
 10
-2.8564604598
 20
-7.8260545808
 10
-2.8595471595
 20
-7.8183239856
 10
-2.8628192385
 20
-7.8109570506
 10
-2.8662533532
 20
-7.8039434312
 10
-2.8698728473
 20
-7.7972934719
 10
-2.8736908975
 20
-7.7909810064
 10
-2.8777025365
 20
-7.7850046245
 10
-2.8819127318
 20
-7.7793657365
 10
-2.886349562
 20
-7.7740424064
 10
-2.891022636
 20
-7.7690434354
 10
-2.8959223451
 20
-7.7643600223
 10
-2.9010479421
 20
-7.759943828
 10
-2.9063974464
 20
-7.7557891452
 10
-2.9119728387
 20
-7.7519016811
 10
-2.9177793134
 20
-7.7482502176
 10
-2.9238138299
 20
-7.7448215954
 10
-2.9300794288
 20
-7.7416289737
 10
-2.9365904263
 20
-7.7386806117
 10
-2.9433365856
 20
-7.7359666668
 10
-2.9503281436
 20
-7.7334969817
 10
-2.957610126
 20
-7.7313093431
 10
-2.9651892693
 20
-7.729395131
 10
-2.973058837
 20
-7.7277629654
 10
-2.9812436465
 20
-7.7264764935
 10
-2.9897519699
 20
-7.7255569309
 10
-2.998575535
 20
-7.7249830619
 10
-3.0077143418
 20
-7.7247548865
  0
LWPOLYLINE
  5
27E
100
AcDbEntity
  8
ASSI
100
AcDbPolyline
 62
7
  6
CONTINUOUS
 90
43
 70
0
 10
1.1798076542
 20
-8.712109
 10
1.1813512953
 20
-8.7363784443
 10
1.1833998645
 20
-8.759929037
 10
1.1859533618
 20
-8.7827607782
 10
1.1889654943
 20
-8.8048595526
 10
1.1924825548
 20
-8.8262394754
 10
1.1966434219
 20
-8.8469428923
 10
1.2015415022
 20
-8.8669567876
 10
1.2070833891
 20
-8.886294177
 10
1.213127741
 20
-8.9050364528
 10
1.2196464826
 20
-8.9231851718
 10
1.2266676893
 20
-8.9407387772
 10
1.2341342452
 20
-8.9577739913
 10
1.2420201716
 20
-8.9742990223
 10
1.2503514474
 20
-8.9903056619
 10
1.2591488936
 20
-9.005846008
 10
1.2684240746
 20
-9.0209502914
 10
1.278165426
 20
-9.0355882813
 10
1.2883590768
 20
-9.0497213827
 10
1.2990213268
 20
-9.0633460556
 10
1.3101358763
 20
-9.0764658402
 10
1.3216399541
 20
-9.089052762
 10
1.3335333426
 20
-9.1011020575
 10
1.3458162595
 20
-9.1126184902
 10
1.3584265871
 20
-9.1235883771
 10
1.3713444046
 20
-9.1339992581
 10
1.3845896328
 20
-9.1438635932
 10
1.3981599156
 20
-9.1532050793
 10
1.4120447841
 20
-9.162025827
 10
1.4262547072
 20
-9.1703237257
 10
1.4408187363
 20
-9.1781161399
 10
1.4557311453
 20
-9.1854177038
 10
1.4709976603
 20
-9.1922137832
 10
1.4866645112
 20
-9.19847784
 10
1.5027359553
 20
-9.204232896
 10
1.5192077354
 20
-9.2094559293
 10
1.5361133099
 20
-9.2140513361
 10
1.5534563029
 20
-9.2180249355
 10
1.5712330903
 20
-9.2213709084
 10
1.5894662586
 20
-9.223976193
 10
1.6081633366
 20
-9.2258031022
 10
1.6273167955
 20
-9.2268893231
 10
1.6469266352
 20
-9.2272348558
  0
LWPOLYLINE
  5
27F
100
AcDbEntity
  8
ASSI
100
AcDbPolyline
 62
7
  6
CONTINUOUS
 90
37
 70
0
 10
0.4531736151
 20
-8.0001814658
 10
0.4526862976
 20
-7.9847652501
 10
0.4517214472
 20
-7.9699910308
 10
0.450279064
 20
-7.9558588079
 10
0.4483302752
 20
-7.9423996373
 10
0.4459039537
 20
-7.9295824631
 10
0.4430867169
 20
-7.9173141178
 10
0.4398922906
 20
-7.9055967303
 10
0.4363069491
 20
-7.8944281716
 10
0.4323761336
 20
-7.8837088875
 10
0.428105751
 20
-7.8734233867
 10
0.4234898945
 20
-7.8635871605
 10
0.4185562846
 20
-7.8541471292
 10
0.4132940563
 20
-7.8450847807
 10
0.4077140746
 20
-7.8364186271
 10
0.4018766547
 20
-7.8281511247
 10
0.3957763386
 20
-7.8202755116
 10
0.3894185843
 20
-7.8127985497
 10
0.3828800802
 20
-7.8057429808
 10
0.3761603701
 20
-7.799110006
 10
0.3692599103
 20
-7.7928984242
 10
0.3622567577
 20
-7.7871273735
 10
0.3551599539
 20
-7.7818063547
 10
0.3479604574
 20
-7.7769258672
 10
0.3407092001
 20
-7.7724765464
 10
0.3334107899
 20
-7.768461966
 10
0.3260606189
 20
-7.7648785523
 10
0.3186957954
 20
-7.7617062206
 10
0.3112987392
 20
-7.7589444445
 10
0.3038870305
 20
-7.7565937503
 10
0.2965505174
 20
-7.7546356313
 10
0.2893000758
 20
-7.7530758838
 10
0.2821248298
 20
-7.7519087115
 10
0.2750820005
 20
-7.7510982192
 10
0.2681906613
 20
-7.7506324417
 10
0.2614317387
 20
-7.7505233441
 10
0.2548052327
 20
-7.7507709264
  0
LWPOLYLINE
  5
280
100
AcDbEntity
  8
ASSI
100
AcDbPolyline
 62
7
  6
CONTINUOUS
 90
37
 70
0
 10
-3.2385640968
 20
-8.6446737597
 10
-3.2381608194
 20
-8.665609606
 10
-3.2371739308
 20
-8.6856535543
 10
-3.235603431
 20
-8.7048056047
 10
-3.2334096005
 20
-8.7230360385
 10
-3.2306321588
 20
-8.7403745744
 10
-3.2273902645
 20
-8.7569103682
 10
-3.2236932462
 20
-8.772642077
 10
-3.2195317754
 20
-8.7875710437
 10
-3.2149970248
 20
-8.8017904528
 10
-3.2100911899
 20
-8.8153123111
 10
-3.2048120753
 20
-8.8281246117
 10
-3.1992442679
 20
-8.8402845187
 10
-3.1933865161
 20
-8.8517963836
 10
-3.1872400716
 20
-8.8626558549
 10
-3.1808932763
 20
-8.8729070419
 10
-3.174351019
 20
-8.8825516117
 10
-3.167608411
 20
-8.8915878972
 10
-3.1607391285
 20
-8.9000550067
 10
-3.1537577574
 20
-8.907948394
 10
-3.1466497119
 20
-8.9152726054
 10
-3.1394449101
 20
-8.9220803868
 10
-3.1321627645
 20
-8.928369074
 10
-3.1247838626
 20
-8.9341413313
 10
-3.117279886
 20
-8.9394578978
 10
-3.1096549929
 20
-8.9443236894
 10
-3.101905025
 20
-8.9487337903
 10
-3.0939891887
 20
-8.9527341919
 10
-3.0858999955
 20
-8.9563392784
 10
-3.077644934
 20
-8.9595346656
 10
-3.0692056759
 20
-8.9623231926
 10
-3.0605900894
 20
-8.9647152541
 10
-3.0517903063
 20
-8.9667004553
 10
-3.0427643943
 20
-8.9682504502
 10
-3.033498376
 20
-8.9693557902
 10
-3.0240062289
 20
-8.970025924
 10
-3.0142879529
 20
-8.9702608514
  0
LWPOLYLINE
  5
281
100
AcDbEntity
  8
ASSI
100
AcDbPolyline
 62
7
  6
CONTINUOUS
 90
37
 70
0
 10
-2.8159195704
 20
-8.6373267826
 10
-2.816212755
 20
-8.6184972911
 10
-2.8170515529
 20
-8.6004285067
 10
-2.8184359642
 20
-8.5831204294
 10
-2.8204084223
 20
-8.5665718736
 10
-2.8229264939
 20
-8.5507840249
 10
-2.8258628781
 20
-8.5357604401
 10
-2.8292225002
 20
-8.5215167787
 10
-2.833000435
 20
-8.5080373812
 10
-2.8370546061
 20
-8.4952788261
 10
-2.8413621628
 20
-8.4832545489
 10
-2.8459459558
 20
-8.471951114
 10
-2.8507324612
 20
-8.4612847939
 10
-2.8556932206
 20
-8.4512689313
 10
-2.8608566923
 20
-8.4418901833
 10
-2.8662347275
 20
-8.4330247934
 10
-2.871817356
 20
-8.4246639862
 10
-2.8776145479
 20
-8.416816537
 10
-2.8836680644
 20
-8.4093850157
 10
-2.8900072326
 20
-8.4023420305
 10
-2.8966027253
 20
-8.3957149731
 10
-2.9034083216
 20
-8.3894885883
 10
-2.9104266916
 20
-8.3836592704
 10
-2.9176551651
 20
-8.3782306251
 10
-2.9250395111
 20
-8.3731982144
 10
-2.9325739997
 20
-8.3685607743
 10
-2.9402643608
 20
-8.3643195688
 10
-2.9480735531
 20
-8.3604739517
 10
-2.9560042249
 20
-8.3570226925
 10
-2.9640537277
 20
-8.3539670218
 10
-2.9721770754
 20
-8.3513099851
 10
-2.9803724693
 20
-8.3490492938
 10
-2.988641708
 20
-8.3471872365
 10
-2.9969452007
 20
-8.3457337253
 10
-3.0052697507
 20
-8.3446920643
 10
-3.0136285548
 20
-8.3440589493
 10
-3.022021613
 20
-8.3438343804
  0
LINE
  5
282
100
AcDbEntity
  8
ASSI
100
AcDbLine
 62
7
  6
CONTINUOUS
 10
-4.067613
 20
-9.242564
 11
-4.067613
 21
-7.491662
  0
LWPOLYLINE
  5
283
100
AcDbEntity
  8
ASSI
100
AcDbPolyline
 62
7
  6
CONTINUOUS
 90
52
 70
0
 10
-3.5216160578
 20
-8.3662619948
 10
-3.5211369728
 20
-8.3214273826
 10
-3.520189327
 20
-8.278111786
 10
-3.5187731204
 20
-8.236315205
 10
-3.5169198269
 20
-8.1960643952
 10
-3.5145979726
 20
-8.157332601
 10
-3.5117131355
 20
-8.1200395557
 10
-3.5082194907
 20
-8.0841818203
 10
-3.5041628632
 20
-8.0497628338
 10
-3.4995863053
 20
-8.016712647
 10
-3.4944548837
 20
-7.9850387147
 10
-3.4888035318
 20
-7.9547335821
 10
-3.4827801014
 20
-7.9257049348
 10
-3.4764219667
 20
-7.897968793
 10
-3.4696917536
 20
-7.8715091364
 10
-3.4626251913
 20
-7.8461855906
 10
-3.4552526236
 20
-7.8220094794
 10
-3.4475437068
 20
-7.7989694789
 10
-3.4394431385
 20
-7.7768912432
 10
-3.4309448404
 20
-7.7557737182
 10
-3.4220548909
 20
-7.735617958
 10
-3.4127362231
 20
-7.7162527777
 10
-3.4029485007
 20
-7.6976315582
 10
-3.3927320601
 20
-7.6798009188
 10
-3.3821708438
 20
-7.6627295324
 10
-3.3712645075
 20
-7.6464221882
 10
-3.3600133956
 20
-7.630874097
 10
-3.3485024842
 20
-7.6160395645
 10
-3.3367385427
 20
-7.6019119219
 10
-3.3247148016
 20
-7.5884978378
 10
-3.3124959294
 20
-7.5757716243
 10
-3.3000844032
 20
-7.5637294839
 10
-3.2874777459
 20
-7.5523752141
 10
-3.2747331948
 20
-7.5416945187
 10
-3.261892176
 20
-7.5317062082
 10
-3.2489132633
 20
-7.5223914721
 10
-3.2357294159
 20
-7.5136795828
 10
-3.2223594
 20
-7.5055644788
 10
-3.2087844494
 20
-7.4980522216
 10
-3.1948812249
 20
-7.4910902678
 10
-3.1806589012
 20
-7.4846788502
 10
-3.1661083036
 20
-7.4788177361
 10
-3.1510785691
 20
-7.4734536842
 10
-3.1355777288
 20
-7.4685627652
 10
-3.1195977517
 20
-7.4641689083
 10
-3.1029636811
 20
-7.4602906607
 10
-3.085681662
 20
-7.4569054211
 10
-3.0677455496
 20
-7.4540357907
 10
-3.0489619527
 20
-7.4517681202
 10
-3.0292664076
 20
-7.4501311934
 10
-3.0087233781
 20
-7.4490962265
 10
-2.9873328642
 20
-7.4486632197
  0
LWPOLYLINE
  5
284
100
AcDbEntity
  8
ASSI
100
AcDbPolyline
 62
7
  6
CONTINUOUS
 90
46
 70
0
 10
-2.5328676094
 20
-8.607938874
 10
-2.5333640871
 20
-8.6405306267
 10
-2.5347061977
 20
-8.6720680607
 10
-2.5368939411
 20
-8.7025511761
 10
-2.5399808893
 20
-8.7319748815
 10
-2.5439134704
 20
-8.7603442684
 10
-2.5485309682
 20
-8.787674611
 10
-2.553829933
 20
-8.8139400007
 10
-2.5598138144
 20
-8.8391663462
 10
-2.5663322455
 20
-8.8634466476
 10
-2.5733720954
 20
-8.88679197
 10
-2.5809464949
 20
-8.9091912483
 10
-2.58894447
 20
-8.9307042875
 10
-2.5973534533
 20
-8.9513381354
 10
-2.6061860121
 20
-8.9710857443
 10
-2.615368874
 20
-8.9899857755
 10
-2.6248938796
 20
-9.0080282254
 10
-2.6347691882
 20
-9.0252230977
 10
-2.6449460057
 20
-9.0416390649
 10
-2.6554172273
 20
-9.0572724458
 10
-2.6661899578
 20
-9.0721269217
 10
-2.6772367168
 20
-9.0862822087
 10
-2.6885654236
 20
-9.0997451927
 10
-2.7001681591
 20
-9.1125089879
 10
-2.711993685
 20
-9.124632653
 10
-2.7240399928
 20
-9.1361219024
 10
-2.736309091
 20
-9.1469710217
 10
-2.7487557673
 20
-9.1572219257
 10
-2.7613699468
 20
-9.1668781347
 10
-2.7741617043
 20
-9.1759361284
 10
-2.7871160518
 20
-9.1844272611
 10
-2.8002218261
 20
-9.1923551539
 10
-2.8134901902
 20
-9.1997161855
 10
-2.8269396459
 20
-9.2065308464
 10
-2.840579232
 20
-9.2128019923
 10
-2.8543999095
 20
-9.2185267675
 10
-2.8683930637
 20
-9.2237170943
 10
-2.8825574556
 20
-9.228374969
 10
-2.8968943242
 20
-9.2324983953
 10
-2.9113987711
 20
-9.2360933078
 10
-2.9260699305
 20
-9.2391699567
 10
-2.9409086683
 20
-9.2417180917
 10
-2.9559126838
 20
-9.243712897
 10
-2.9710812103
 20
-9.2451461005
 10
-2.9864150146
 20
-9.2460259743
 10
-3.0019140967
 20
-9.2463525183
  0
LWPOLYLINE
  5
285
100
AcDbEntity
  8
ASSI
100
AcDbPolyline
 62
7
  6
CONTINUOUS
 90
46
 70
0
 10
-0.2266078958
 20
-8.078928
 10
-0.225729023
 20
-8.0482778741
 10
-0.2244478497
 20
-8.0186878451
 10
-0.2227643758
 20
-7.990157913
 10
-0.2207633592
 20
-7.9627137058
 10
-0.218360042
 20
-7.9363295954
 10
-0.2153001513
 20
-7.9109286986
 10
-0.2114359913
 20
-7.8865262276
 10
-0.2069152577
 20
-7.86310697
 10
-0.2019267645
 20
-7.8405484049
 10
-0.196516623
 20
-7.8188302305
 10
-0.190638722
 20
-7.7979727485
 10
-0.1843435415
 20
-7.7779143433
 10
-0.1776456728
 20
-7.7586596662
 10
-0.1705305246
 20
-7.740204066
 10
-0.163004803
 20
-7.722471973
 10
-0.1550694431
 20
-7.7054647755
 10
-0.1467235097
 20
-7.6891810854
 10
-0.1379709046
 20
-7.6735411679
 10
-0.1288020104
 20
-7.6585425238
 10
-0.1192264444
 20
-7.6441876525
 10
-0.1092769593
 20
-7.6304043176
 10
-0.0989642612
 20
-7.6171877122
 10
-0.0882776439
 20
-7.6045426432
 10
-0.077217742
 20
-7.5924112952
 10
-0.0657841776
 20
-7.5807716199
 10
-0.0539773285
 20
-7.5696456656
 10
-0.0417989635
 20
-7.5590417619
 10
-0.0292517645
 20
-7.5489613847
 10
-0.0163330494
 20
-7.5394030581
 10
-0.0030365403
 20
-7.5303706841
 10
0.0106402713
 20
-7.5218725649
 10
0.024694877
 20
-7.5139003983
 10
0.0391260299
 20
-7.506433179
 10
0.0539306352
 20
-7.4994599193
 10
0.0691117878
 20
-7.4929916068
 10
0.0846775257
 20
-7.4870401995
 10
0.1006227934
 20
-7.4815782714
 10
0.1169526465
 20
-7.4766332485
 10
0.1336902892
 20
-7.4722993671
 10
0.1508400516
 20
-7.4685833436
 10
0.1683976035
 20
-7.4654784616
 10
0.1863731589
 20
-7.4630588081
 10
0.2047701223
 20
-7.4613490787
 10
0.2235850892
 20
-7.4603245778
 10
0.2428180594
 20
-7.4599853053
  0
LWPOLYLINE
  5
286
100
AcDbEntity
  8
ASSI
100
AcDbPolyline
 62
7
  6
CONTINUOUS
 90
32
 70
0
 10
-0.2424691688
 20
-9.210887
 10
-0.2411664185
 20
-9.1825122186
 10
-0.2394869791
 20
-9.1548107502
 10
-0.2374308504
 20
-9.1277825948
 10
-0.2350755008
 20
-9.1014896209
 10
-0.232343462
 20
-9.07586996
 10
-0.2290023291
 20
-9.0507380071
 10
-0.2250121281
 20
-9.0260798442
 10
-0.220412833
 20
-9.0019093893
 10
-0.2150919616
 20
-8.9780827923
 10
-0.2090513675
 20
-8.9545990049
 10
-0.2022891972
 20
-8.9314590754
 10
-0.1946874076
 20
-8.9085222986
 10
-0.1862290412
 20
-8.8857999553
 10
-0.1769310556
 20
-8.8632807648
 10
-0.1667262809
 20
-8.8407901793
 10
-0.1556268153
 20
-8.8183078513
 10
-0.1436205607
 20
-8.7958541284
 10
-0.1306040521
 20
-8.7733155054
 10
-0.1165883501
 20
-8.750668908
 10
-0.1015623941
 20
-8.7279374104
 10
-0.0853895381
 20
-8.7050767308
 10
-0.0679759883
 20
-8.6819888895
 10
-0.0494155385
 20
-8.6587718661
 10
-0.0298529239
 20
-8.635675317
 10
-0.0091732501
 20
-8.6126957584
 10
0.0125085885
 20
-8.5898366742
 10
0.0347031737
 20
-8.5673581717
 10
0.0574573869
 20
-8.54529023
 10
0.0807243467
 20
-8.5236028702
 10
0.1038739899
 20
-8.5024662627
 10
0.1268413066
 20
-8.4819367375
  0
LINE
  5
287
100
AcDbEntity
  8
ASSI
100
AcDbLine
 62
7
  6
CONTINUOUS
 10
-1.382654
 20
-7.409767
 11
-1.830713
 21
-9.229559
  0
LINE
  5
288
100
AcDbEntity
  8
ASSI
100
AcDbLine
 62
7
  6
CONTINUOUS
 10
-1.599701
 20
-9.229559
 11
-1.151264
 21
-7.409767
  0
LINE
  5
289
100
AcDbEntity
  8
ASSI
100
AcDbLine
 62
250
  6
CONTINUOUS
 10
-16.4276682465
 20
-13.4275554669
 11
-17.0337991215
 21
-13.9229913268
  0
LINE
  5
28A
100
AcDbEntity
  8
ASSI
100
AcDbLine
 62
250
  6
CONTINUOUS
 10
16.4276682465
 20
13.4275554669
 11
17.0337991215
 21
13.9229913268
  0
LINE
  5
28B
100
AcDbEntity
  8
0
100
AcDbLine
 62
250
  6
CONTINUOUS
 10
-21.9755629091
 20
-7.0666214483
 11
-21.7170756317
 21
-6.9817783304
  0
LINE
  5
28C
100
AcDbEntity
  8
0
100
AcDbLine
 62
250
  6
CONTINUOUS
 10
21.9755629091
 20
7.0666214483
 11
21.7170756317
 21
6.9817783304
  0
LINE
  5
28D
100
AcDbEntity
  8
ASSI
100
AcDbLine
 62
250
  6
CONTINUOUS
 10
21.747432639
 20
7.8445634146
 11
21.4640268074
 21
7.752358002
  0
LINE
  5
28E
100
AcDbEntity
  8
RACCORDO
100
AcDbLine
 62
250
  6
CONTINUOUS
 10
-7.7106884213
 20
-2.1535075882
 11
-8.8661435508
 21
-2.463110857
  0
LINE
  5
28F
100
AcDbEntity
  8
RACCORDO
100
AcDbLine
 62
250
  6
CONTINUOUS
 10
7.7107271768
 20
2.1535179727
 11
8.8661435508
 21
2.463110857
  0
LWPOLYLINE
  5
290
100
AcDbEntity
  8
RACCORDO
100
AcDbPolyline
 62
250
  6
CONTINUOUS
 90
46
 70
0
 10
-8.8661435508
 20
-2.463110857
 10
-8.9208539886
 20
-2.4772696507
 10
-8.9770560056
 20
-2.490301927
 10
-9.0347496018
 20
-2.5022076857
 10
-9.0937894439
 20
-2.5130742575
 10
-9.1543208651
 20
-2.5228143118
 10
-9.2167798657
 20
-2.5311658572
 10
-9.2811911689
 20
-2.5381884715
 10
-9.3475300515
 20
-2.543822577
 10
-9.4161583439
 20
-2.5476274488
 10
-9.4871044943
 20
-2.549668202
 10
-9.5603400545
 20
-2.5498797215
 10
-9.6361415094
 20
-2.5476259373
 10
-9.7145597151
 20
-2.5429790242
 10
-9.7955438155
 20
-2.5358668075
 10
-9.8792177271
 20
-2.5254366929
 10
-9.9656618565
 20
-2.5117631569
 10
-10.054795797
 20
-2.4947717231
 10
-10.146502245
 20
-2.4733863683
 10
-10.2408860957
 20
-2.4476821351
 10
-10.3378424539
 20
-2.417583981
 10
-10.4369393296
 20
-2.3817907552
 10
-10.5384044864
 20
-2.3403113224
 10
-10.6420101607
 20
-2.293136818
 10
-10.7466410722
 20
-2.2389394974
 10
-10.8526820259
 20
-2.1774862155
 10
-10.9597482169
 20
-2.1090101175
 10
-11.0655699498
 20
-2.0328828937
 10
-11.1702653399
 20
-1.9487931701
 10
-11.273716272
 20
-1.8570523206
 10
-11.3732987048
 20
-1.7579661577
 10
-11.4689375266
 20
-1.6512153443
 10
-11.5607078491
 20
-1.5371192174
 10
-11.6462109659
 20
-1.4169416007
 10
-11.7252332479
 20
-1.2903997339
 10
-11.7979883241
 20
-1.1577763772
 10
-11.8627183754
 20
-1.021183635
 10
-11.9190930242
 20
-0.8805961024
 10
-11.9674426481
 20
-0.7360391842
 10
-12.0070005607
 20
-0.5897011998
 10
-12.0375340042
 20
-0.4417817022
 10
-12.0592757365
 20
-0.2920811384
 10
-12.0721573438
 20
-0.1421891692
 10
-12.0761560218
 20
0.0073643185
 10
-12.0712945749
 20
0.1571092116
 10
-12.0575730032
 20
0.3070455101
  0
LWPOLYLINE
  5
291
100
AcDbEntity
  8
RACCORDO
100
AcDbPolyline
 62
250
  6
CONTINUOUS
 90
46
 70
0
 10
8.8661435508
 20
2.463110857
 10
8.9208558684
 20
2.4772699776
 10
8.9770586714
 20
2.4903024082
 10
9.0347519598
 20
2.5022081488
 10
9.0937903406
 20
2.5130744421
 10
9.1543192069
 20
2.5228140454
 10
9.2167747377
 20
2.5311652305
 10
9.2811816492
 20
2.538187581
 10
9.3475152252
 20
2.5438215134
 10
9.416137496
 20
2.5476265488
 10
9.4870768936
 20
2.5496678082
 10
9.5603049861
 20
2.5498801705
 10
9.6360985077
 20
2.5476277938
 10
9.7145082945
 20
2.5429828644
 10
9.7954835105
 20
2.5358731959
 10
9.8791483815
 20
2.5254463873
 10
9.9655832934
 20
2.511776936
 10
10.0547078603
 20
2.4947903446
 10
10.1464051514
 20
2.4734107192
 10
10.2407800582
 20
2.4477131276
 10
10.337727689
 20
2.417622502
 10
10.4368164387
 20
2.3818377459
 10
10.5382739144
 20
2.3403678771
 10
10.6418725089
 20
2.2932038776
 10
10.7464977949
 20
2.2390175965
 10
10.8525345568
 20
2.1775761709
 10
10.9595980102
 20
2.1091124636
 10
11.0654193741
 20
2.0329969123
 10
11.1701170459
 20
1.9489183167
 10
11.2735726282
 20
1.8571878771
 10
11.3731621488
 20
1.7581096322
 10
11.4688110186
 20
1.6513638961
 10
11.5605938265
 20
1.5372703548
 10
11.6461103673
 20
1.4170921043
 10
11.7251471613
 20
1.2905457659
 10
11.7979176881
 20
1.1579147183
 10
11.8626621806
 20
1.0213121943
 10
11.9190498997
 20
0.8807126192
 10
11.9674115845
 20
0.7361415678
 10
12.006979686
 20
0.5897889963
 10
12.0375211305
 20
0.4418547816
 10
12.0592689918
 20
0.2921390469
 10
12.0721549422
 20
0.1422321179
 10
12.0761562059
 20
-0.007335897
 10
12.0712955589
 20
-0.1570951062
 10
12.057573001
 20
-0.3070455097
  0
LINE
  5
292
100
AcDbEntity
  8
COPY-PUBBLISH
100
AcDbLine
 62
250
  6
CONTINUOUS
 10
-8.4892878595
 20
-2.0660254038
 11
-10.5107121405
 21
-2.0660254038
  0
LINE
  5
293
100
AcDbEntity
  8
COPY-PUBBLISH
100
AcDbLine
 62
250
  6
CONTINUOUS
 10
-7.4087905944
 20
-1.0660254038
 11
-11.5912094056
 21
-1.0660254038
  0
LWPOLYLINE
  5
294
100
AcDbEntity
  8
RACCORDO
100
AcDbPolyline
 62
250
  6
CONTINUOUS
 90
19
 70
0
 10
-7.1920994876
 20
-0.6469346824
 10
-7.1612931247
 20
-0.6488320388
 10
-7.1309369868
 20
-0.6483126721
 10
-7.101031074
 20
-0.6453765822
 10
-7.0716396417
 20
-0.6400348384
 10
-7.0426984344
 20
-0.6322763715
 10
-7.014014686
 20
-0.6220679741
 10
-6.9854897932
 20
-0.6094163866
 10
-6.9572223593
 20
-0.5943148686
 10
-6.9293154278
 20
-0.5767099917
 10
-6.901674203
 20
-0.5564703983
 10
-6.8743934806
 20
-0.533727446
 10
-6.8478606917
 20
-0.5088217785
 10
-6.8221797426
 20
-0.4817708572
 10
-6.797246727
 20
-0.4525572207
 10
-6.7731373569
 20
-0.4214691281
 10
-6.749894802
 20
-0.3885638911
 10
-6.7274758927
 20
-0.353784198
 10
-6.72116546
 20
-0.3431338751
  0
LINE
  5
295
100
AcDbEntity
  8
RACCORDO
100
AcDbLine
 62
7
  6
CONTINUOUS
 10
-11.9683038008
 20
0.29079442
 11
-12.0575730032
 21
0.3070455101
  0
LWPOLYLINE
  5
296
100
AcDbEntity
  8
RACCORDO
100
AcDbPolyline
 62
250
  6
CONTINUOUS
 90
25
 70
0
 10
-7.1950168077
 20
-0.517767633
 10
-7.1739149807
 20
-0.522596474
 10
-7.1528106167
 20
-0.5250139929
 10
-7.1318862146
 20
-0.5250021346
 10
-7.1115151103
 20
-0.5225875486
 10
-7.0916423834
 20
-0.5178685388
 10
-7.0718208047
 20
-0.5107913344
 10
-7.0521760479
 20
-0.5013278938
 10
-7.03291011
 20
-0.4895394668
 10
-7.0137414845
 20
-0.4752408769
 10
-6.9947019692
 20
-0.4583684155
 10
-6.9760419254
 20
-0.4390806516
 10
-6.9578162305
 20
-0.4174316934
 10
-6.9400741749
 20
-0.3935206747
 10
-6.92286789
 20
-0.3674853777
 10
-6.9062270439
 20
-0.3394169634
 10
-6.8901724253
 20
-0.3094426294
 10
-6.8746790117
 20
-0.2776404918
 10
-6.8597074081
 20
-0.2439851915
 10
-6.8452548436
 20
-0.2085381832
 10
-6.8313058184
 20
-0.1713693256
 10
-6.8178227172
 20
-0.132421212
 10
-6.8048029811
 20
-0.0917267149
 10
-6.7922358583
 20
-0.0493362029
 10
-6.7800941478
 20
-0.0051862955
  0
LINE
  5
297
100
AcDbEntity
  8
ASSI
100
AcDbLine
 62
250
  6
CONTINUOUS
 10
21.747432639
 20
-7.8445634146
 11
21.4640268074
 21
-7.752358002
  0
LINE
  5
298
100
AcDbEntity
  8
0
100
AcDbLine
 62
250
  6
CONTINUOUS
 10
-21.9755629091
 20
7.0666214483
 11
-21.7170756317
 21
6.9817783304
  0
LINE
  5
299
100
AcDbEntity
  8
0
100
AcDbLine
 62
250
  6
CONTINUOUS
 10
21.9755629091
 20
-7.0666214483
 11
21.7170756317
 21
-6.9817783304
  0
LINE
  5
29A
100
AcDbEntity
  8
ASSI
100
AcDbLine
 62
250
  6
CONTINUOUS
 10
16.4276682465
 20
-13.4275554669
 11
17.0337991215
 21
-13.9229913268
  0
LINE
  5
29B
100
AcDbEntity
  8
ASSI
100
AcDbLine
 62
250
  6
CONTINUOUS
 10
-16.4276682465
 20
13.4275554669
 11
-17.0337991215
 21
13.9229913268
  0
LWPOLYLINE
  5
29C
100
AcDbEntity
  8
ASSI
100
AcDbPolyline
 62
7
  6
CONTINUOUS
 90
52
 70
0
 10
2.1685620114
 20
-8.5984882868
 10
2.1682750303
 20
-8.5868179756
 10
2.1677305115
 20
-8.5740069939
 10
2.1669284551
 20
-8.5600553417
 10
2.1658837821
 20
-8.5448417026
 10
2.1645815714
 20
-8.5284873929
 10
2.1629770596
 20
-8.5113563625
 10
2.1611416245
 20
-8.4934420835
 10
2.1590038882
 20
-8.4747510838
 10
2.1563049541
 20
-8.4556668961
 10
2.1530039498
 20
-8.4361610012
 10
2.1491417475
 20
-8.4162619184
 10
2.1445820673
 20
-8.3964387382
 10
2.1392602492
 20
-8.3767049885
 10
2.1332409532
 20
-8.3570471413
 10
2.1265818789
 20
-8.3378937034
 10
2.1191988215
 20
-8.3193199104
 10
2.1111759858
 20
-8.3012505267
 10
2.102823686
 20
-8.2838883513
 10
2.0941910833
 20
-8.2673064798
 10
2.0852290165
 20
-8.2514318167
 10
2.0761003154
 20
-8.2362478738
 10
2.066864976
 20
-8.2217354599
 10
2.0574630023
 20
-8.2079137663
 10
2.0478772359
 20
-8.1948238784
 10
2.0380943127
 20
-8.1824980386
 10
2.0281275969
 20
-8.1709040045
 10
2.0180000223
 20
-8.1599861349
 10
2.0076946045
 20
-8.1497935432
 10
1.9972283279
 20
-8.1402771159
 10
1.9866750795
 20
-8.1312338713
 10
1.9760633246
 20
-8.1226440692
 10
1.965364598
 20
-8.1145274497
 10
1.9545673905
 20
-8.1067402517
 10
1.9437111775
 20
-8.0992254563
 10
1.9327564837
 20
-8.0920400823
 10
1.921573373
 20
-8.0852114242
 10
1.9101511929
 20
-8.0787153115
 10
1.898500596
 20
-8.0725759147
 10
1.8865236047
 20
-8.0668930394
 10
1.8741350014
 20
-8.0617026741
 10
1.8614200036
 20
-8.0569688304
 10
1.8485362862
 20
-8.0526833493
 10
1.8354542129
 20
-8.0488621284
 10
1.8222034201
 20
-8.0454892701
 10
1.809030492
 20
-8.0425089225
 10
1.7959506213
 20
-8.0398733367
 10
1.7829486153
 20
-8.0376302616
 10
1.7702254807
 20
-8.0358670923
 10
1.7578482197
 20
-8.0346129604
 10
1.7457498301
 20
-8.0338387343
 10
1.7339303118
 20
-8.0335444139
  0
LINE
  5
29D
100
AcDbEntity
  8
ASSI
100
AcDbLine
 62
7
  6
CONTINUOUS
 10
2.9011647669
 20
-8.3782515169
 11
2.9010201438
 21
-8.327444172
  0
LINE
  5
29E
100
AcDbEntity
  8
ASSI
100
AcDbLine
 62
7
  6
CONTINUOUS
 10
0.738329
 20
-9.210887
 11
0.738329
 21
-8.905087
  0
LINE
  5
29F
100
AcDbEntity
  8
ASSI
100
AcDbLine
 62
7
  6
CONTINUOUS
 10
2.112106
 20
-7.750106
 11
2.112106
 21
-7.45932
  0
LINE
  5
2A0
100
AcDbEntity
  8
ASSI
100
AcDbLine
 62
7
  6
CONTINUOUS
 10
2.9010201438
 20
-8.327444172
 11
2.9011135315
 21
-8.2768933902
  0
LWPOLYLINE
  5
2A1
100
AcDbEntity
  8
ASSI
100
AcDbPolyline
 62
7
  6
CONTINUOUS
 90
5
 70
0
 10
3.313610912
 20
-8.327444172
 10
3.3134939409
 20
-8.3527352444
 10
3.313270758
 20
-8.3773486003
 10
3.3129413636
 20
-8.4012842396
 10
3.3124923217
 20
-8.4245271433
  0
LWPOLYLINE
  5
2A2
100
AcDbEntity
  8
ASSI
100
AcDbPolyline
 62
7
  6
CONTINUOUS
 90
55
 70
0
 10
2.6098478397
 20
-8.327444172
 10
2.610135394
 20
-8.2806145608
 10
2.6110346121
 20
-8.2353483855
 10
2.612545494
 20
-8.1916456461
 10
2.6146785834
 20
-8.1495255234
 10
2.6174233366
 20
-8.1089688365
 10
2.6207481226
 20
-8.0699180432
 10
2.6246461164
 20
-8.0323667619
 10
2.629124143
 20
-7.996321374
 10
2.634171047
 20
-7.9617434817
 10
2.6398076764
 20
-7.92863684
 10
2.6460131832
 20
-7.8969976938
 10
2.652713868
 20
-7.8667763802
 10
2.6599121543
 20
-7.8380257376
 10
2.6676056185
 20
-7.8106929274
 10
2.6757132904
 20
-7.7845697713
 10
2.6842292097
 20
-7.7596187979
 10
2.6931593366
 20
-7.7358774784
 10
2.7024405821
 20
-7.7132500489
 10
2.7120696254
 20
-7.6917347884
 10
2.7220497874
 20
-7.6713334179
 10
2.7323279412
 20
-7.6519553351
 10
2.7429434001
 20
-7.6335583939
 10
2.7538568508
 20
-7.6161847404
 10
2.7648972264
 20
-7.5998702117
 10
2.7760634278
 20
-7.5846472691
 10
2.7873565541
 20
-7.5704834513
 10
2.7986088351
 20
-7.5573172104
 10
2.8097566058
 20
-7.5451948387
 10
2.8208635312
 20
-7.5340700438
 10
2.8319528364
 20
-7.5237424015
 10
2.8429759963
 20
-7.5142081102
 10
2.8539815359
 20
-7.5054709714
 10
2.8651382561
 20
-7.4973419652
 10
2.8764781259
 20
-7.4897851821
 10
2.8879691763
 20
-7.4828365317
 10
2.8996843001
 20
-7.476414723
 10
2.9116955217
 20
-7.4705068478
 10
2.9239308167
 20
-7.4651258143
 10
2.9362470048
 20
-7.4602290565
 10
2.9486475221
 20
-7.4558234951
 10
2.9611289324
 20
-7.4519022094
 10
2.9735377474
 20
-7.4484018708
 10
2.9858607496
 20
-7.4453404695
 10
2.9981111564
 20
-7.4427000155
 10
3.0101751319
 20
-7.4403632098
 10
3.0220423586
 20
-7.4383353689
 10
3.033723154
 20
-7.4366111764
 10
3.0451346347
 20
-7.435057385
 10
3.0562736158
 20
-7.433610332
 10
3.0671432824
 20
-7.4323336801
 10
3.0776703056
 20
-7.4312851699
 10
3.0878302425
 20
-7.4304840483
 10
3.0976475362
 20
-7.4299110684
 10
3.1071221864
 20
-7.4295662303
  0
LWPOLYLINE
  5
2A3
100
AcDbEntity
  8
ASSI
100
AcDbPolyline
 62
7
  6
CONTINUOUS
 90
52
 70
0
 10
3.6047832162
 20
-8.327444172
 10
3.6044073449
 20
-8.3708158103
 10
3.6034960722
 20
-8.4127431577
 10
3.6020493981
 20
-8.4532262143
 10
3.6000379954
 20
-8.4922347393
 10
3.5974911912
 20
-8.5297989734
 10
3.5944969677
 20
-8.566009639
 10
3.5910658438
 20
-8.6008597667
 10
3.5871873005
 20
-8.6343563258
 10
3.5829177625
 20
-8.6666109466
 10
3.5782548031
 20
-8.6976241661
 10
3.5732008491
 20
-8.7273954473
 10
3.5678196056
 20
-8.7560348094
 10
3.5621387642
 20
-8.7835582521
 10
3.5561306333
 20
-8.8099497757
 10
3.5497758435
 20
-8.8352713996
 10
3.5430763067
 20
-8.8595167325
 10
3.5360301108
 20
-8.8826921657
 10
3.5286121501
 20
-8.9048788928
 10
3.520810129
 20
-8.9260682179
 10
3.5126363429
 20
-8.9462688369
 10
3.5041025727
 20
-8.9655880309
 10
3.4951949296
 20
-8.9840366016
 10
3.4859273023
 20
-9.0016037473
 10
3.4763531377
 20
-9.0183643443
 10
3.4664667512
 20
-9.034326685
 10
3.4562738274
 20
-9.0494824769
 10
3.4458448675
 20
-9.0638817197
 10
3.4351976304
 20
-9.0775173506
 10
3.4243143571
 20
-9.0903964323
 10
3.4132122718
 20
-9.1025901518
 10
3.4019125715
 20
-9.1140979032
 10
3.390394059
 20
-9.1249202926
 10
3.3786103669
 20
-9.135130325
 10
3.3665761024
 20
-9.1447239801
 10
3.3542766583
 20
-9.1537052784
 10
3.3416218449
 20
-9.1621592867
 10
3.3285905865
 20
-9.1701008441
 10
3.3152039589
 20
-9.1775151116
 10
3.3014349996
 20
-9.1844426386
 10
3.2872709107
 20
-9.1909017172
 10
3.2727244902
 20
-9.1968740553
 10
3.2578071693
 20
-9.202345327
 10
3.2425213321
 20
-9.2073245427
 10
3.2268645946
 20
-9.2118026919
 10
3.2108412355
 20
-9.2157384175
 10
3.1944485475
 20
-9.2191410312
 10
3.1776892379
 20
-9.2220012212
 10
3.160575707
 20
-9.2242496952
 10
3.1431120881
 20
-9.2258633558
 10
3.1252942479
 20
-9.2268653003
 10
3.1071221864
 20
-9.2272555288
  0
LWPOLYLINE
  5
2A4
100
AcDbEntity
  8
ASSI
100
AcDbPolyline
 62
7
  6
CONTINUOUS
 90
55
 70
0
 10
2.9011135315
 20
-8.2768933902
 10
2.9016163617
 20
-8.2290811496
 10
2.9020198924
 20
-8.2062036783
 10
2.9025628449
 20
-8.1839667441
 10
2.9032564723
 20
-8.162369034
 10
2.9040895215
 20
-8.141411861
 10
2.9050624428
 20
-8.1210584581
 10
2.9061881991
 20
-8.1013110373
 10
2.9074538275
 20
-8.0821673866
 10
2.90882089
 20
-8.0635841035
 10
2.9102843021
 20
-8.0455598075
 10
2.9118491484
 20
-8.028095879
 10
2.9134922447
 20
-8.0111530571
 10
2.9151865313
 20
-7.9947235128
 10
2.9169590679
 20
-7.9788150751
 10
2.9188678496
 20
-7.9634119702
 10
2.9209161293
 20
-7.948515972
 10
2.9231006541
 20
-7.9341253066
 10
2.925469661
 20
-7.9202188783
 10
2.9280370323
 20
-7.90679719
 10
2.9307888857
 20
-7.8938597387
 10
2.9337318102
 20
-7.8813839193
 10
2.9368740763
 20
-7.8693636034
 10
2.9402074135
 20
-7.8578049194
 10
2.9437135998
 20
-7.846703647
 10
2.9473930559
 20
-7.8360495336
 10
2.951245361
 20
-7.8258528318
 10
2.955251031
 20
-7.8161400794
 10
2.9594156696
 20
-7.8069207259
 10
2.9637336732
 20
-7.7981853218
 10
2.9681687462
 20
-7.7899320553
 10
2.9727215051
 20
-7.7821745072
 10
2.9773913335
 20
-7.7748990968
 10
2.9821400869
 20
-7.7680632703
 10
2.9869593951
 20
-7.7616725149
 10
2.9918576282
 20
-7.7557213436
 10
2.9968217532
 20
-7.7501507409
 10
3.0018423054
 20
-7.7449492748
 10
3.0069287494
 20
-7.7401283775
 10
3.012096446
 20
-7.7356633301
 10
3.0173343963
 20
-7.7315494877
 10
3.0226535991
 20
-7.7277914953
 10
3.0281024123
 20
-7.7243785695
 10
3.0336835717
 20
-7.7213245434
 10
3.0393943413
 20
-7.718615584
 10
3.0452748711
 20
-7.7161994083
 10
3.0513308676
 20
-7.7140838319
 10
3.0575566241
 20
-7.7122610393
 10
3.0639751706
 20
-7.7106553011
 10
3.0705741434
 20
-7.7092328431
 10
3.0773659062
 20
-7.7080274396
 10
3.0844105799
 20
-7.7070646839
 10
3.0917282046
 20
-7.7063531072
 10
3.0992987401
 20
-7.7058841782
 10
3.1071221864
 20
-7.7056578971
  0
LWPOLYLINE
  5
2A5
100
AcDbEntity
  8
ASSI
100
AcDbPolyline
 62
7
  6
CONTINUOUS
 90
31
 70
0
 10
0.7362255761
 20
-8.012168639
 10
0.735809909
 20
-8.0358545046
 10
0.7347323774
 20
-8.059090156
 10
0.7329929812
 20
-8.0818755933
 10
0.7305837745
 20
-8.1041855902
 10
0.7275127032
 20
-8.126045373
 10
0.7238036052
 20
-8.1475306199
 10
0.7194724139
 20
-8.1686467162
 10
0.7145031958
 20
-8.1893882768
 10
0.7088719877
 20
-8.2098148239
 10
0.7025791389
 20
-8.229918774
 10
0.6956243
 20
-8.2497077108
 10
0.6879824598
 20
-8.2692639067
 10
0.6796538251
 20
-8.2885895606
 10
0.6706381892
 20
-8.3076824737
 10
0.6609099197
 20
-8.3266183223
 10
0.6504811387
 20
-8.3454116867
 10
0.6393397242
 20
-8.3640479866
 10
0.6274236786
 20
-8.3825591576
 10
0.614749229
 20
-8.4009475609
 10
0.6013001483
 20
-8.4192108353
 10
0.5869657577
 20
-8.4373738322
 10
0.5717528944
 20
-8.4553900299
 10
0.5556547213
 20
-8.4733059501
 10
0.5385400482
 20
-8.4912860095
 10
0.5203953559
 20
-8.5092937747
 10
0.5012341636
 20
-8.5273656793
 10
0.4809658389
 20
-8.5457754401
 10
0.4595006435
 20
-8.5645248899
 10
0.4369283156
 20
-8.5836121961
 10
0.4134274372
 20
-8.603305578
  0
LWPOLYLINE
  5
2A6
100
AcDbEntity
  8
ASSI
100
AcDbPolyline
 62
7
  6
CONTINUOUS
 90
37
 70
0
 10
1.8773897073
 20
-8.6232359992
 10
1.8769361265
 20
-8.6425401881
 10
1.8759763805
 20
-8.6613727574
 10
1.8745104693
 20
-8.6797337073
 10
1.8725177637
 20
-8.6976715889
 10
1.870018893
 20
-8.715137851
 10
1.8670757439
 20
-8.7319868401
 10
1.8636828448
 20
-8.7482134201
 10
1.8598456673
 20
-8.7638227271
 10
1.8556425142
 20
-8.7786845167
 10
1.8510608145
 20
-8.7927645632
 10
1.846113139
 20
-8.8060970923
 10
1.8409155034
 20
-8.8186545366
 10
1.8354835715
 20
-8.8303912426
 10
1.8298016795
 20
-8.8413528637
 10
1.8239388508
 20
-8.8516487923
 10
1.8179054659
 20
-8.8612777723
 10
1.8116911445
 20
-8.8702410599
 10
1.8053337686
 20
-8.878651816
 10
1.7988376094
 20
-8.8865233448
 10
1.7921983958
 20
-8.8938423422
 10
1.7854411975
 20
-8.9006820564
 10
1.7785830258
 20
-8.9070458771
 10
1.7716068694
 20
-8.9129304148
 10
1.7644867635
 20
-8.918398749
 10
1.7572326722
 20
-8.9234679764
 10
1.7498346313
 20
-8.9281210004
 10
1.7422367832
 20
-8.9323696107
 10
1.734435148
 20
-8.9362304215
 10
1.7264337056
 20
-8.9396868186
 10
1.7181885375
 20
-8.9427007486
 10
1.70969775
 20
-8.9452696466
 10
1.7009632368
 20
-8.9473960776
 10
1.6919467611
 20
-8.9490496832
 10
1.6826355771
 20
-8.9502203438
 10
1.6730424306
 20
-8.9509181791
 10
1.6631673215
 20
-8.951143189
  0
LINE
  5
2A7
100
AcDbEntity
  8
ASSI
100
AcDbLine
 62
7
  6
CONTINUOUS
 10
3.3124923217
 20
-8.4245271433
 11
3.3113159106
 21
-8.4690248586
  0
LWPOLYLINE
  5
2A8
100
AcDbEntity
  8
ASSI
100
AcDbPolyline
 62
7
  6
CONTINUOUS
 90
51
 70
0
 10
3.3113159106
 20
-8.4690248586
 10
3.3099235346
 20
-8.5109983349
 10
3.30909732
 20
-8.5310715463
 10
3.3081752108
 20
-8.5505468176
 10
3.307156027
 20
-8.5694248917
 10
3.306005059
 20
-8.5877434584
 10
3.3047149502
 20
-8.6055018491
 10
3.3032930571
 20
-8.6227007326
 10
3.3017267404
 20
-8.6393798048
 10
3.3000108707
 20
-8.6555392785
 10
3.2981505773
 20
-8.6711789411
 10
3.2961486093
 20
-8.6863378505
 10
3.2940010932
 20
-8.7010151588
 10
3.2917119026
 20
-8.7152117139
 10
3.2892954069
 20
-8.7289691185
 10
3.2867508368
 20
-8.7422905014
 10
3.2840789616
 20
-8.7551727338
 10
3.2812964589
 20
-8.7676480318
 10
3.2784197331
 20
-8.7797357483
 10
3.2754323798
 20
-8.7914165305
 10
3.272301862
 20
-8.8026645361
 10
3.2690288916
 20
-8.8134808496
 10
3.2656127568
 20
-8.8238643865
 10
3.2620187852
 20
-8.8337860511
 10
3.2582339886
 20
-8.8432340428
 10
3.2542713553
 20
-8.8522201622
 10
3.2501351777
 20
-8.8607507148
 10
3.2458169459
 20
-8.8688186685
 10
3.2413251697
 20
-8.8764310555
 10
3.2366896715
 20
-8.8836152781
 10
3.2319077403
 20
-8.8903690639
 10
3.226982087
 20
-8.8966946853
 10
3.2219506663
 20
-8.9026263615
 10
3.2168250586
 20
-8.9081631088
 10
3.2115936834
 20
-8.9133059109
 10
3.2062597543
 20
-8.9180919385
 10
3.2008359798
 20
-8.9225266969
 10
3.1953096512
 20
-8.9266046808
 10
3.1896458561
 20
-8.9303465448
 10
3.1838481659
 20
-8.9337518999
 10
3.1779130091
 20
-8.9368211352
 10
3.1717947588
 20
-8.9395760721
 10
3.1654905686
 20
-8.9420132214
 10
3.1590032848
 20
-8.9441360725
 10
3.1522958191
 20
-8.9459769148
 10
3.1453643584
 20
-8.9475465301
 10
3.1382127158
 20
-8.9488341367
 10
3.1308152422
 20
-8.9498396788
 10
3.1231633879
 20
-8.9505631377
 10
3.1152657027
 20
-8.9510045321
 10
3.1071221864
 20
-8.951163862
  0
LINE
  5
2A9
100
AcDbEntity
  8
ASSI
100
AcDbLine
 62
7
  6
CONTINUOUS
 10
1.323272
 20
-7.45932
 11
1.224282
 21
-8.421001
  0
LINE
  5
2AA
100
AcDbEntity
  8
ASSI
100
AcDbLine
 62
7
  6
CONTINUOUS
 10
1.4772261366
 20
-8.1294639762
 11
1.527833
 21
-7.750106
  0
LWPOLYLINE
  5
2AB
100
AcDbEntity
  8
ASSI
100
AcDbPolyline
 62
7
  6
CONTINUOUS
 90
28
 70
0
 10
1.4766025168
 20
-8.4360470308
 10
1.4811247068
 20
-8.4266607276
 10
1.4857850863
 20
-8.4176642391
 10
1.4905836553
 20
-8.4090575653
 10
1.495496602
 20
-8.4008408179
 10
1.5005477382
 20
-8.3930138853
 10
1.5058084993
 20
-8.385576432
 10
1.5113072744
 20
-8.3785431445
 10
1.5170156745
 20
-8.3718993364
 10
1.5229199685
 20
-8.3656006132
 10
1.5290241328
 20
-8.3596352682
 10
1.535324191
 20
-8.3540150082
 10
1.5417944823
 20
-8.3487305598
 10
1.548434259
 20
-8.34377612
 10
1.5552442689
 20
-8.3391574919
 10
1.562201094
 20
-8.3348828111
 10
1.569285924
 20
-8.3309575251
 10
1.5765175692
 20
-8.3273761864
 10
1.583929044
 20
-8.324130588
 10
1.5915059965
 20
-8.3212193034
 10
1.5992627786
 20
-8.318643759
 10
1.6072754599
 20
-8.3164000277
 10
1.6155418779
 20
-8.3144821746
 10
1.6240641952
 20
-8.3128961345
 10
1.6329249692
 20
-8.3116557856
 10
1.6421517192
 20
-8.3107657538
 10
1.651716926
 20
-8.3102214132
 10
1.6616205895
 20
-8.3100227637
  0
LWPOLYLINE
  5
2AC
100
AcDbEntity
  8
ASSI
100
AcDbPolyline
 62
7
  6
CONTINUOUS
 90
28
 70
0
 10
-3.245533048
 20
-8.2209685804
 10
-3.2387508002
 20
-8.2099244243
 10
-3.2318524061
 20
-8.1993280897
 10
-3.2248378656
 20
-8.1891795767
 10
-3.217747825
 20
-8.1794780668
 10
-3.2105416381
 20
-8.1702243785
 10
-3.2030973663
 20
-8.1614209672
 10
-3.1953798686
 20
-8.153090885
 10
-3.1874242861
 20
-8.1452110798
 10
-3.1792141028
 20
-8.1377148506
 10
-3.1707578751
 20
-8.130587711
 10
-3.1620470465
 20
-8.1238441473
 10
-3.1530394319
 20
-8.1174609179
 10
-3.1437322171
 20
-8.1114297245
 10
-3.1341282162
 20
-8.1057588652
 10
-3.1241936862
 20
-8.100449993
 10
-3.1139387467
 20
-8.0954948989
 10
-3.103353278
 20
-8.0909017917
 10
-3.0923731781
 20
-8.0866969507
 10
-3.0810128089
 20
-8.0828772419
 10
-3.0692578084
 20
-8.0794457992
 10
-3.0570009889
 20
-8.0764383039
 10
-3.0442419795
 20
-8.0738527563
 10
-3.0309811511
 20
-8.0716911561
 10
-3.0171124286
 20
-8.0699951837
 10
-3.0026004538
 20
-8.0687787325
 10
-2.987480585
 20
-8.0680279091
 10
-2.9717528221
 20
-8.0677427136
  0
LINE
  5
2AD
100
AcDbEntity
  8
ASSI
100
AcDbLine
 62
250
  6
CONTINUOUS
 10
-21.747432639
 20
-7.8445634146
 11
-21.4640268074
 21
-7.752358002
  0
LINE
  5
2AE
100
AcDbEntity
  8
COPY-PUBBLISH
100
AcDbLine
 62
250
  6
CONTINUOUS
 10
7.4087905944
 20
1.0660254038
 11
11.5912094056
 21
1.0660254038
  0
LINE
  5
2AF
100
AcDbEntity
  8
COPY-PUBBLISH
100
AcDbLine
 62
250
  6
CONTINUOUS
 10
8.4892878595
 20
2.0660254038
 11
10.5107121405
 21
2.0660254038
  0
LWPOLYLINE
  5
2B0
100
AcDbEntity
  8
RACCORDO
100
AcDbPolyline
 62
250
  6
CONTINUOUS
 90
19
 70
0
 10
7.1920995094
 20
0.6469347617
 10
7.1612953006
 20
0.6488322256
 10
7.1309410966
 20
0.6483132371
 10
7.1010368974
 20
0.6453777963
 10
7.0716469488
 20
0.6400369965
 10
7.0427070051
 20
0.6322797443
 10
7.0140243285
 20
0.6220727597
 10
6.9855003397
 20
0.6094227967
 10
6.9572336181
 20
0.5943231012
 10
6.929327164
 20
0.5767201313
 10
6.9016861693
 20
0.5564825524
 10
6.8744054421
 20
0.5337416992
 10
6.8478724081
 20
0.5088380332
 10
6.8221909319
 20
0.4817889718
 10
6.7972571487
 20
0.4525770978
 10
6.7731468895
 20
0.421490621
 10
6.7499033389
 20
0.3885868586
 10
6.7274833121
 20
0.3538084935
 10
6.7212946427
 20
0.3433645554
  0
LINE
  5
2B1
100
AcDbEntity
  8
RACCORDO
100
AcDbLine
 62
7
  6
CONTINUOUS
 10
11.9683038008
 20
-0.29079442
 11
12.057573001
 21
-0.3070455097
  0
LWPOLYLINE
  5
2B2
100
AcDbEntity
  8
RACCORDO
100
AcDbPolyline
 62
250
  6
CONTINUOUS
 90
16
 70
0
 10
8.7757649296
 20
2.7044879801
 10
8.778266694
 20
2.7039183906
 10
8.7819266868
 20
2.7005145401
 10
8.7862451602
 20
2.6944193502
 10
8.7911731578
 20
2.6857019197
 10
8.7966548128
 20
2.6744610744
 10
8.8026279821
 20
2.6608242474
 10
8.8090249503
 20
2.6449460337
 10
8.8157731979
 20
2.6270064379
 10
8.8227962228
 20
2.6072088339
 10
8.8300144081
 20
2.5857776585
 10
8.8373459245
 20
2.5629558677
 10
8.8447076578
 20
2.5390021823
 10
8.8520161514
 20
2.5141881545
 10
8.8591885525
 20
2.4887950896
 10
8.8661435508
 20
2.463110857
  0
LWPOLYLINE
  5
2B3
100
AcDbEntity
  8
RACCORDO
100
AcDbPolyline
 62
250
  6
CONTINUOUS
 90
25
 70
0
 10
7.195015147
 20
0.5177676117
 10
7.1739148203
 20
0.5225959676
 10
7.1528118765
 20
0.5250133298
 10
7.1318887743
 20
0.5250016282
 10
7.111518795
 20
0.5225874867
 10
7.0916470152
 20
0.5178691814
 10
7.0718262461
 20
0.5107929218
 10
7.052182155
 20
0.5013306407
 10
7.0329167023
 20
0.4895435495
 10
7.0137483811
 20
0.4752464572
 10
6.994709006
 20
0.4583756395
 10
6.9760489221
 20
0.439089603
 10
6.9578229745
 20
0.4174423777
 10
6.9400804666
 20
0.3935330493
 10
6.9228735712
 20
0.3674993836
 10
6.90623198
 20
0.3394325207
 10
6.8901765099
 20
0.3094596528
 10
6.8746821633
 20
0.2776588841
 10
6.8597095636
 20
0.2440048356
 10
6.8452559715
 20
0.2085589697
 10
6.8313059135
 20
0.1713911366
 10
6.8178217887
 20
0.1324438809
 10
6.8048010701
 20
0.0917500583
 10
6.7922330418
 20
0.0493600265
 10
6.7800905238
 20
0.0052103669
  0
LINE
  5
2B4
100
AcDbEntity
  8
ASSI
100
AcDbLine
 62
250
  6
CONTINUOUS
 10
-21.747432639
 20
7.8445634146
 11
-21.4640268074
 21
7.752358002
  0
LWPOLYLINE
  5
2B5
100
AcDbEntity
  8
RACCORDO
100
AcDbPolyline
 62
7
  6
CONTINUOUS
 90
10
 70
0
 10
7.1621932605
 20
0.5443781667
 10
7.1660191211
 20
0.5415655196
 10
7.1697990417
 20
0.5387150889
 10
7.1735330223
 20
0.5358268744
 10
7.177219468
 20
0.5328985355
 10
7.1808599738
 20
0.529932413
 10
7.1844593241
 20
0.5269355286
 10
7.1880191138
 20
0.5239102229
 10
7.191537748
 20
0.5208541554
 10
7.1950152268
 20
0.517767326
  0
LINE
  5
2B6
100
AcDbEntity
  8
ASSI
100
AcDbLine
 62
7
  6
CONTINUOUS
 10
3.8481649401
 20
-8.5397958179
 11
3.9168244698
 21
-8.7483133897
  0
LINE
  5
2B7
100
AcDbEntity
  8
ASSI
100
AcDbLine
 62
7
  6
CONTINUOUS
 10
4.7261986978
 20
-8.5397950772
 11
4.6579038497
 21
-8.3312745411
  0
LWPOLYLINE
  5
2B8
100
AcDbEntity
  8
RACCORDO
100
AcDbPolyline
 62
250
  6
CONTINUOUS
 90
7
 70
0
 10
7.0267969232
 20
-1.3127011642
 10
7.074329903
 20
-1.0885698734
 10
7.1274260559
 20
-0.768753547
 10
7.166095322
 20
-0.4479222371
 10
7.190162177
 20
-0.1270406996
 10
7.1998021453
 20
0.1948558215
 10
7.1950152268
 20
0.517767326
  0
LWPOLYLINE
  5
2B9
100
AcDbEntity
  8
RACCORDO
100
AcDbPolyline
 62
250
  6
CONTINUOUS
 90
6
 70
0
 10
6.7683793622
 20
-0.0406627141
 10
6.7570896463
 20
-0.0882398362
 10
6.7461937304
 20
-0.1376327402
 10
6.7357003785
 20
-0.188830766
 10
6.7256129974
 20
-0.2418061423
 10
6.715935385
 20
-0.2965670007
  0
LINE
  5
2BA
100
AcDbEntity
  8
RACCORDO
100
AcDbLine
 62
250
  6
CONTINUOUS
 10
6.7800905238
 20
0.0052103669
 11
6.7683793622
 21
-0.0406627141
  0
LWPOLYLINE
  5
2BB
100
AcDbEntity
  8
ASSI
100
AcDbPolyline
 62
7
  6
CONTINUOUS
 90
31
 70
0
 10
3.8481649401
 20
-8.5397958179
 10
3.8548090769
 20
-8.5248324388
 10
3.8615910861
 20
-8.5104810893
 10
3.8685109676
 20
-8.4967417694
 10
3.8755602146
 20
-8.4835922793
 10
3.8827473339
 20
-8.4710548188
 10
3.890097846
 20
-8.4591959878
 10
3.8976547844
 20
-8.4480438653
 10
3.9053751155
 20
-8.4375703722
 10
3.9131552591
 20
-8.4277578711
 10
3.9209734009
 20
-8.4186321391
 10
3.9288513552
 20
-8.4101673991
 10
3.9367509845
 20
-8.4022686817
 10
3.9446582197
 20
-8.3949261672
 10
3.9525871299
 20
-8.3881496754
 10
3.9605417857
 20
-8.381873696
 10
3.9685198855
 20
-8.3760840544
 10
3.9765237308
 20
-8.3707949251
 10
3.9845642976
 20
-8.3659833222
 10
3.9926383183
 20
-8.3616591221
 10
4.0007490605
 20
-8.3578124483
 10
4.0089173026
 20
-8.354390685
 10
4.0171456506
 20
-8.3514013215
 10
4.0254314985
 20
-8.3488368686
 10
4.0337878079
 20
-8.346622243
 10
4.0422072244
 20
-8.3447388255
 10
4.0506971023
 20
-8.3432052354
 10
4.0592924661
 20
-8.3420022468
 10
4.0680049907
 20
-8.3411234512
 10
4.0768230011
 20
-8.3405752571
 10
4.0857464975
 20
-8.3403576646
  0
LINE
  5
2BC
100
AcDbEntity
  8
ASSI
100
AcDbLine
 62
7
  6
CONTINUOUS
 10
4.6465649458
 20
-8.3518529581
 11
4.6579038497
 21
-8.3312745411
  0
LWPOLYLINE
  5
2BD
100
AcDbEntity
  8
ASSI
100
AcDbPolyline
 62
7
  6
CONTINUOUS
 90
31
 70
0
 10
4.7261986978
 20
-8.5397950772
 10
4.7176878708
 20
-8.5540929326
 10
4.7092798443
 20
-8.5679511348
 10
4.7009746182
 20
-8.5813696839
 10
4.6928120983
 20
-8.5943888644
 10
4.6847523788
 20
-8.6069683918
 10
4.6766757427
 20
-8.6189874122
 10
4.6685471225
 20
-8.6304317933
 10
4.6604015855
 20
-8.6413156675
 10
4.652224617
 20
-8.6515605783
 10
4.6439915583
 20
-8.6611364782
 10
4.635727068
 20
-8.6700734147
 10
4.627490607
 20
-8.6783830744
 10
4.6192874977
 20
-8.6860579203
 10
4.6111124178
 20
-8.6931054894
 10
4.6030088611
 20
-8.6995600791
 10
4.5949911823
 20
-8.7054204965
 10
4.5870450266
 20
-8.7106879346
 10
4.5791708236
 20
-8.7154002692
 10
4.5713718868
 20
-8.7195297071
 10
4.5636449027
 20
-8.7231040416
 10
4.5559803603
 20
-8.7262445284
 10
4.5483826022
 20
-8.7289490339
 10
4.5408472857
 20
-8.7312196918
 10
4.5333518721
 20
-8.7331841589
 10
4.5259093977
 20
-8.7348822822
 10
4.5185068261
 20
-8.7362742147
 10
4.5110825087
 20
-8.7373680722
 10
4.5036158958
 20
-8.7381665601
 10
4.4961275371
 20
-8.738666973
 10
4.4886174326
 20
-8.7388693109
  0
LWPOLYLINE
  5
2BE
100
AcDbEntity
  8
COPY-PUBBLISH
100
AcDbPolyline
 62
7
  6
CONTINUOUS
 90
25
 70
0
 10
7.4087905944
 20
1.0660254038
 10
7.439867544
 20
1.1149144802
 10
7.4722810272
 20
1.1637876536
 10
7.506031044
 20
1.2125750399
 10
7.5411306338
 20
1.2612573714
 10
7.5775667572
 20
1.3097253964
 10
7.6153002959
 20
1.357774544
 10
7.6543430804
 20
1.405335313
 10
7.6946832802
 20
1.4523597298
 10
7.7362462858
 20
1.4986736338
 10
7.7790424779
 20
1.544219638
 10
7.8230614758
 20
1.5889559943
 10
7.8681975274
 20
1.6327332714
 10
7.9144421932
 20
1.6754941696
 10
7.9618039127
 20
1.7172173913
 10
8.0102022531
 20
1.757810888
 10
8.0596381761
 20
1.7972444049
 10
8.1101107199
 20
1.8354908716
 10
8.161536566
 20
1.8724671457
 10
8.2139122562
 20
1.9081521161
 10
8.2672412488
 20
1.9425281252
 10
8.3214505998
 20
1.9755210049
 10
8.3765159946
 20
2.0070982842
 10
8.4324617478
 20
2.0372691846
 10
8.4892878595
 20
2.0660254038
  0
LWPOLYLINE
  5
2BF
100
AcDbEntity
  8
ASSI
100
AcDbPolyline
 62
7
  6
CONTINUOUS
 90
28
 70
0
 10
0.1268413066
 20
-8.4819367375
 10
0.1936604428
 20
-8.423718189
 10
0.2147795787
 20
-8.405457186
 10
0.235132777
 20
-8.3875633914
 10
0.2547371696
 20
-8.3699967327
 10
0.2735756245
 20
-8.3527972823
 10
0.2913831581
 20
-8.3359005321
 10
0.3080863496
 20
-8.3193009506
 10
0.3237586199
 20
-8.3030040693
 10
0.338355248
 20
-8.2869619749
 10
0.3518295033
 20
-8.2711804936
 10
0.3642281164
 20
-8.2556537992
 10
0.3756465584
 20
-8.2403164994
 10
0.3860599384
 20
-8.2252033435
 10
0.3954931472
 20
-8.2102795821
 10
0.4041163285
 20
-8.1953755755
 10
0.4119401321
 20
-8.1804944871
 10
0.4189539083
 20
-8.1656331535
 10
0.425295851
 20
-8.1506124439
 10
0.4309948813
 20
-8.1354417771
 10
0.436022078
 20
-8.1201117342
 10
0.4404288711
 20
-8.104414929
 10
0.4442609374
 20
-8.0883539307
 10
0.4474726
 20
-8.07192617
 10
0.4499782591
 20
-8.0549165526
 10
0.4517493813
 20
-8.0372533804
 10
0.4528145
 20
-8.0190083514
 10
0.4531736151
 20
-8.0001814658
  0
LWPOLYLINE
  5
2C0
100
AcDbEntity
  8
ASSI
100
AcDbPolyline
 62
7
  6
CONTINUOUS
 90
12
 70
0
 10
0.4134274372
 20
-8.603305578
 10
0.3634273087
 20
-8.6446010595
 10
0.3375320813
 20
-8.6662903981
 10
0.3112305756
 20
-8.6887191212
 10
0.2844981819
 20
-8.7118864043
 10
0.2577587335
 20
-8.7359222569
 10
0.2306099095
 20
-8.7606311398
 10
0.2034540308
 20
-8.7862085923
 10
0.1779218929
 20
-8.8133712419
 10
0.1545570943
 20
-8.8423579642
 10
0.1328160365
 20
-8.8729298836
 10
0.1126987194
 20
-8.905087
  0
LINE
  5
2C1
100
AcDbEntity
  8
ASSI
100
AcDbLine
 62
250
  6
CONTINUOUS
 10
21.0614294307
 20
7.4559812052
 11
21.4640268074
 21
7.752358002
  0
LINE
  5
2C2
100
AcDbEntity
  8
ASSI
100
AcDbLine
 62
250
  6
CONTINUOUS
 10
21.2171517841
 20
6.9817783304
 11
21.7170756317
 21
6.9817783304
  0
LINE
  5
2C3
100
AcDbEntity
  8
ASSI
100
AcDbLine
 62
250
  6
CONTINUOUS
 10
-21.2171517841
 20
6.9817783304
 11
-21.7170756317
 21
6.9817783304
  0
LINE
  5
2C4
100
AcDbEntity
  8
0
100
AcDbLine
 62
7
  6
CONTINUOUS
 10
-21.9999954628
 20
7.05
 11
-21.9991228424
 21
7.05
  0
LINE
  5
2C5
100
AcDbEntity
  8
0
100
AcDbLine
 62
7
  6
CONTINUOUS
 10
21.9999954628
 20
7.05
 11
21.9991228424
 21
7.05
  0
LINE
  5
2C6
100
AcDbEntity
  8
0
100
AcDbLine
 62
7
  6
CONTINUOUS
 10
-21.9991228424
 20
7.15
 11
-21.9755620937
 21
7.15
  0
LINE
  5
2C7
100
AcDbEntity
  8
0
100
AcDbLine
 62
7
  6
CONTINUOUS
 10
21.9991228424
 20
7.15
 11
21.9755620937
 21
7.15
  0
LWPOLYLINE
  5
2C8
100
AcDbEntity
  8
COPY-PUBBLISH
100
AcDbPolyline
 62
7
  6
CONTINUOUS
 90
25
 70
0
 10
10.5107121405
 20
2.0660254038
 10
10.5675546897
 20
2.037262311
 10
10.6235256193
 20
2.0070765222
 10
10.6786249293
 20
1.9754763594
 10
10.7328805048
 20
1.9424508801
 10
10.7862644606
 20
1.9080343677
 10
10.8386931416
 20
1.8723063177
 10
10.8901694213
 20
1.835283358
 10
10.9406904262
 20
1.7969877833
 10
10.990163881
 20
1.7575113197
 10
11.0385868925
 20
1.7168813199
 10
11.085962354
 20
1.675127792
 10
11.1322066695
 20
1.6323504011
 10
11.1773246222
 20
1.5885737337
 10
11.221311429
 20
1.5438514371
 10
11.2640691451
 20
1.4983300274
 10
11.3055870265
 20
1.4520528976
 10
11.3458758171
 20
1.4050752168
 10
11.3848698038
 20
1.3575626167
 10
11.4225582675
 20
1.3095634556
 10
11.4589519273
 20
1.2611464982
 10
11.4940172266
 20
1.2125066172
 10
11.52774298
 20
1.1637501064
 10
11.560140373
 20
1.1148996555
 10
11.5912094056
 20
1.0660254038
  0
LINE
  5
2C9
100
AcDbEntity
  8
ASSI
100
AcDbLine
 62
250
  6
CONTINUOUS
 10
21.0614294307
 20
-7.4559812052
 11
21.4640268074
 21
-7.752358002
  0
LWPOLYLINE
  5
2CA
100
AcDbEntity
  8
RACCORDO
100
AcDbPolyline
 62
7
  6
CONTINUOUS
 90
21
 70
0
 10
12.2116882891
 20
-0.6940108704
 10
12.2171693586
 20
-0.6639701376
 10
12.2209607316
 20
-0.6347384549
 10
12.2229508373
 20
-0.6064022614
 10
12.2232300044
 20
-0.5789915411
 10
12.2220692194
 20
-0.5525962461
 10
12.219506825
 20
-0.5272264933
 10
12.2155044784
 20
-0.5028721657
 10
12.2102181384
 20
-0.4795928643
 10
12.2036632847
 20
-0.4573379771
 10
12.1958244376
 20
-0.4361581161
 10
12.1868111171
 20
-0.4162647191
 10
12.1766816038
 20
-0.3976650228
 10
12.165377617
 20
-0.3803517905
 10
12.1528338353
 20
-0.3645147493
 10
12.138800033
 20
-0.3499884922
 10
12.1235264358
 20
-0.3369384263
 10
12.1076983984
 20
-0.3260505003
 10
12.0915443727
 20
-0.3175533636
 10
12.0748359069
 20
-0.3112183667
 10
12.057573001
 20
-0.3070455097
  0
LINE
  5
2CB
100
AcDbEntity
  8
RACCORDO
100
AcDbLine
 62
7
  6
CONTINUOUS
 10
12.2059220891
 20
-0.718882903
 11
12.2116882891
 21
-0.6940108704
  0
LWPOLYLINE
  5
2CC
100
AcDbEntity
  8
ASSI
100
AcDbPolyline
 62
7
  6
CONTINUOUS
 90
3
 70
0
 10
21.9959362365
 20
7.1782358527
 10
21.9927717373
 20
7.2123590589
 10
21.9887044137
 20
7.2464258576
  0
LINE
  5
2CD
100
AcDbEntity
  8
ASSI
100
AcDbLine
 62
7
  6
CONTINUOUS
 10
21.9976835394
 20
7.1518069611
 11
21.9959362365
 21
7.1782358527
  0
LINE
  5
2CE
100
AcDbEntity
  8
ASSI
100
AcDbLine
 62
7
  6
CONTINUOUS
 10
21.9995482366
 20
7.1098903084
 11
21.9991228424
 21
7.1206307676
  0
LWPOLYLINE
  5
2CF
100
AcDbEntity
  8
ASSI
100
AcDbPolyline
 62
250
  6
CONTINUOUS
 90
25
 70
0
 10
21.2171517841
 20
6.9817783304
 10
21.2168711516
 20
7.0029418939
 10
21.2160332351
 20
7.0240637699
 10
21.2146380347
 20
7.0451439585
 10
21.2126838044
 20
7.0661979627
 10
21.2101722902
 20
7.0872102794
 10
21.2071087297
 20
7.1081343992
 10
21.2034919531
 20
7.1289693642
 10
21.1993231303
 20
7.1497161322
 10
21.1946110085
 20
7.1703310677
 10
21.1893544443
 20
7.190813849
 10
21.1835545809
 20
7.2111647979
 10
21.1772235953
 20
7.2313412437
 10
21.1703603908
 20
7.2513427805
 10
21.162966064
 20
7.2711698143
 10
21.1550560813
 20
7.2907808923
 10
21.1466293281
 20
7.3101756223
 10
21.137686919
 20
7.3293543966
 10
21.1282476647
 20
7.3482769391
 10
21.118309931
 20
7.3669435121
 10
21.1078753522
 20
7.3853538532
 10
21.0969676414
 20
7.4034668994
 10
21.0855947031
 20
7.4212689629
 10
21.0737486329
 20
7.4387737315
 10
21.0614294307
 20
7.4559812052
  0
LWPOLYLINE
  5
2D0
100
AcDbEntity
  8
ASSI
100
AcDbPolyline
 62
250
  6
CONTINUOUS
 90
25
 70
0
 10
21.7170756317
 20
6.9817783304
 10
21.7166199902
 20
7.016143937
 10
21.7152560498
 20
7.0504849398
 10
21.712984807
 20
7.0847773396
 10
21.7098079179
 20
7.1189969399
 10
21.705727632
 20
7.1531200645
 10
21.7007467293
 20
7.1871235663
 10
21.6948686151
 20
7.2209840136
 10
21.6880974293
 20
7.2546774045
 10
21.6804379634
 20
7.2881798838
 10
21.6718956196
 20
7.3214678972
 10
21.6624763481
 20
7.3545183291
 10
21.6521867007
 20
7.3873082096
 10
21.641033872
 20
7.4198146142
 10
21.629025654
 20
7.4520148358
 10
21.6161703776
 20
7.4838865198
 10
21.6024769428
 20
7.5154075473
 10
21.5879549717
 20
7.5465557213
 10
21.5726147701
 20
7.5773089451
 10
21.5564672677
 20
7.607645378
 10
21.5395235873
 20
7.6375441925
 10
21.5217951368
 20
7.6669852276
 10
21.5032941059
 20
7.695948119
 10
21.4840335234
 20
7.7244123515
 10
21.4640268074
 20
7.752358002
  0
LINE
  5
2D1
100
AcDbEntity
  8
ASSI
100
AcDbLine
 62
7
  6
CONTINUOUS
 10
22.0
 20
7.0756329249
 11
21.9995482366
 21
7.1098903084
  0
LWPOLYLINE
  5
2D2
100
AcDbEntity
  8
0
100
AcDbPolyline
 62
7
  6
CONTINUOUS
 90
9
 70
0
 10
21.975529968
 20
7.0758739578
 10
21.9754311964
 20
7.0851250035
 10
21.9752665944
 20
7.0943745843
 10
21.9750364535
 20
7.1036168225
 10
21.9747404822
 20
7.1128575956
 10
21.9743778058
 20
7.1221145367
 10
21.9739481328
 20
7.1313935232
 10
21.9734517547
 20
7.1406886777
 10
21.9728886715
 20
7.15
  0
LINE
  5
2D3
100
AcDbEntity
  8
ASSI
100
AcDbLine
 62
250
  6
CONTINUOUS
 10
21.2171517841
 20
-6.9817783304
 11
21.2171517841
 21
6.9817783304
  0
LINE
  5
2D4
100
AcDbEntity
  8
ASSI
100
AcDbLine
 62
250
  6
CONTINUOUS
 10
21.7170756317
 20
-6.9817783304
 11
21.7170756317
 21
6.9817783304
  0
LINE
  5
2D5
100
AcDbEntity
  8
0
100
AcDbLine
 62
7
  6
CONTINUOUS
 10
21.9755620937
 20
7.15
 11
21.9755620937
 21
-7.15
  0
LINE
  5
2D6
100
AcDbEntity
  8
0
100
AcDbLine
 62
7
  6
CONTINUOUS
 10
21.9991228424
 20
-7.15
 11
21.9991228424
 21
-7.05
  0
LINE
  5
2D7
100
AcDbEntity
  8
0
100
AcDbLine
 62
7
  6
CONTINUOUS
 10
21.9991228424
 20
7.05
 11
21.9991228424
 21
7.15
  0
LINE
  5
2D8
100
AcDbEntity
  8
0
100
AcDbLine
 62
7
  6
CONTINUOUS
 10
22.0
 20
7.0756329295
 11
22.0
 21
-7.0756329295
  0
LINE
  5
2D9
100
AcDbEntity
  8
ASSI
100
AcDbLine
 62
7
  6
CONTINUOUS
 10
21.9995482366
 20
-7.1098903084
 11
22.0
 21
-7.0756329249
  0
LINE
  5
2DA
100
AcDbEntity
  8
ASSI
100
AcDbLine
 62
7
  6
CONTINUOUS
 10
21.9991228424
 20
-7.1206307676
 11
21.9995482366
 21
-7.1098903084
  0
LWPOLYLINE
  5
2DB
100
AcDbEntity
  8
0
100
AcDbPolyline
 62
7
  6
CONTINUOUS
 90
10
 70
0
 10
21.9728886715
 20
-7.15
 10
21.9734517547
 20
-7.1406886777
 10
21.9739481328
 20
-7.1313935233
 10
21.9743778058
 20
-7.1221145368
 10
21.9747404822
 20
-7.1128575958
 10
21.9750364535
 20
-7.1036168227
 10
21.9752665944
 20
-7.0943745846
 10
21.9754311964
 20
-7.0851250037
 10
21.975529968
 20
-7.0758739579
 10
21.9755629091
 20
-7.066621447
  0
LINE
  5
2DC
100
AcDbEntity
  8
ASSI
100
AcDbLine
 62
7
  6
CONTINUOUS
 10
21.9978135022
 20
-7.15
 11
21.9952541863
 21
-7.1855838897
  0
LWPOLYLINE
  5
2DD
100
AcDbEntity
  8
ASSI
100
AcDbPolyline
 62
7
  6
CONTINUOUS
 90
17
 70
0
 10
21.9952541863
 20
-7.1855838897
 10
21.9917292159
 20
-7.2210276918
 10
21.9872385909
 20
-7.2563314063
 10
21.9817793953
 20
-7.2915142622
 10
21.9753545451
 20
-7.3265570305
 10
21.9679727887
 20
-7.3614020246
 10
21.9596296374
 20
-7.3960608856
 10
21.9503295799
 20
-7.4305219724
 10
21.9400948299
 20
-7.4646926747
 10
21.9289208069
 20
-7.4985736939
 10
21.9168120914
 20
-7.5321643286
 10
21.9038046392
 20
-7.5653698641
 10
21.8899038185
 20
-7.5981730639
 10
21.8751042611
 20
-7.6305911647
 10
21.8594258185
 20
-7.6625811615
 10
21.842856798
 20
-7.6941613692
 10
21.8254088924
 20
-7.7253134731
  0
LWPOLYLINE
  5
2DE
100
AcDbEntity
  8
ASSI
100
AcDbPolyline
 62
7
  6
CONTINUOUS
 90
4
 70
0
 10
21.9887044137
 20
-7.2464258576
 10
21.9927717373
 20
-7.2123590589
 10
21.9959362365
 20
-7.1782358527
 10
21.9976835409
 20
-7.1518069382
  0
LWPOLYLINE
  5
2DF
100
AcDbEntity
  8
ASSI
100
AcDbPolyline
 62
7
  6
CONTINUOUS
 90
16
 70
0
 10
21.8231864982
 20
-7.7293219431
 10
21.8400874834
 20
-7.6994676625
 10
21.8561760625
 20
-7.669215738
 10
21.8714401797
 20
-7.6385855164
 10
21.8858918908
 20
-7.6075576509
 10
21.8995156815
 20
-7.5761657057
 10
21.9123172521
 20
-7.5443935728
 10
21.9242909023
 20
-7.5122573602
 10
21.9354040176
 20
-7.4798389557
 10
21.945653104
 20
-7.4471373281
 10
21.9550416554
 20
-7.4141535088
 10
21.9635475393
 20
-7.3809724793
 10
21.9711658345
 20
-7.3476106783
 10
21.9779014623
 20
-7.3140516673
 10
21.9837470533
 20
-7.2803311126
 10
21.9887044137
 20
-7.2464258576
  0
LINE
  5
2E0
100
AcDbEntity
  8
ASSI
100
AcDbLine
 62
7
  6
CONTINUOUS
 10
21.8055247886
 20
-7.7586869758
 11
21.8254088924
 21
-7.7253134731
  0
LINE
  5
2E1
100
AcDbEntity
  8
ASSI
100
AcDbLine
 62
7
  6
CONTINUOUS
 10
21.7871195816
 20
-7.7875322257
 11
21.8071370307
 21
-7.7559395244
  0
LWPOLYLINE
  5
2E2
100
AcDbEntity
  8
ASSI
100
AcDbPolyline
 62
7
  6
CONTINUOUS
 90
3
 70
0
 10
21.7880595228
 20
-7.7860068737
 10
21.7681580589
 20
-7.8155481705
 10
21.7474326389
 20
-7.8445634147
  0
LWPOLYLINE
  5
2E3
100
AcDbEntity
  8
ASSI
100
AcDbPolyline
 62
250
  6
CONTINUOUS
 90
25
 70
0
 10
21.0614294307
 20
-7.4559812052
 10
21.073750115
 20
-7.4387714582
 10
21.0855972963
 20
-7.4212648981
 10
21.0969709748
 20
-7.4034615251
 10
21.1078789358
 20
-7.3853478183
 10
21.1183133939
 20
-7.3669372985
 10
21.1282509926
 20
-7.348270528
 10
21.1376902212
 20
-7.3293475858
 10
21.1466325905
 20
-7.310168393
 10
21.1550592757
 20
-7.290773275
 10
21.1629691657
 20
-7.2711618128
 10
21.1703633716
 20
-7.2513344254
 10
21.1772264025
 20
-7.2313326955
 10
21.1835571344
 20
-7.2111562998
 10
21.1893566913
 20
-7.1908055615
 10
21.1946129535
 20
-7.1703230328
 10
21.1993247906
 20
-7.1497083686
 10
21.203493333
 20
-7.128961914
 10
21.2071098517
 20
-7.1081272557
 10
21.2101731862
 20
-7.0872032143
 10
21.2126844971
 20
-7.0661909693
 10
21.2146385371
 20
-7.0451376458
 10
21.216033557
 20
-7.0240589524
 10
21.216871306
 20
-7.0029391806
 10
21.2171517841
 20
-6.9817783304
  0
LWPOLYLINE
  5
2E4
100
AcDbEntity
  8
ASSI
100
AcDbPolyline
 62
250
  6
CONTINUOUS
 90
25
 70
0
 10
21.4640268074
 20
-7.752358002
 10
21.4840333121
 20
-7.7244126551
 10
21.5032937613
 20
-7.6959486431
 10
21.5217947298
 20
-7.6669858836
 10
21.5395232064
 20
-7.6375448445
 10
21.5564669665
 20
-7.6076459263
 10
21.5726145268
 20
-7.5773094171
 10
21.5879547382
 20
-7.5465562053
 10
21.6024767053
 20
-7.5154080749
 10
21.616170144
 20
-7.4838870775
 10
21.6290254411
 20
-7.4520153846
 10
21.6410336841
 20
-7.4198151391
 10
21.6521865321
 20
-7.3873087232
 10
21.6624761882
 20
-7.3545188633
 10
21.6718954657
 20
-7.3214684656
 10
21.6804378208
 20
-7.2881804716
 10
21.6880973078
 20
-7.2546779705
 10
21.6948685161
 20
-7.2209845421
 10
21.7007466453
 20
-7.187124091
 10
21.7057275494
 20
-7.1531206852
 10
21.709807838
 20
-7.1189976916
 10
21.7129847457
 20
-7.0847781101
 10
21.7152560166
 20
-7.0504855669
 10
21.7166199804
 20
-7.0161443072
 10
21.7170756317
 20
-6.9817783304
  0
LINE
  5
2E5
100
AcDbEntity
  8
ASSI
100
AcDbLine
 62
7
  6
CONTINUOUS
 10
21.7474326389
 20
7.8445634147
 11
21.7681585582
 21
7.8155474589
  0
LINE
  5
2E6
100
AcDbEntity
  8
ASSI
100
AcDbLine
 62
7
  6
CONTINUOUS
 10
21.7679536547
 20
7.8158882209
 11
21.7880604943
 21
7.786005395
  0
LINE
  5
2E7
100
AcDbEntity
  8
ASSI
100
AcDbLine
 62
7
  6
CONTINUOUS
 10
21.7871195834
 20
7.787532223
 11
21.8071384472
 21
7.755937223
  0
LWPOLYLINE
  5
2E8
100
AcDbEntity
  8
ASSI
100
AcDbPolyline
 62
7
  6
CONTINUOUS
 90
19
 70
0
 10
21.8055247886
 20
7.7586869758
 10
21.8254108025
 20
7.7253101154
 10
21.8428591745
 20
7.6941568997
 10
21.8594284065
 20
7.6625760588
 10
21.875106633
 20
7.6305862466
 10
21.8899057195
 20
7.5981688092
 10
21.9038061056
 20
7.5653662676
 10
21.916813237
 20
7.5321613175
 10
21.928921668
 20
7.4985712633
 10
21.9400955019
 20
7.4646905385
 10
21.9503302311
 20
7.4305195501
 10
21.9596303631
 20
7.3960578912
 10
21.9679735239
 20
7.3613987744
 10
21.9753551385
 20
7.3265541554
 10
21.9817797819
 20
7.2915120786
 10
21.9872388049
 20
7.2563298901
 10
21.9917293244
 20
7.2210267051
 10
21.9952542235
 20
7.1855834084
 10
21.9978135022
 20
7.15
  0
LWPOLYLINE
  5
2E9
100
AcDbEntity
  8
ASSI
100
AcDbPolyline
 62
7
  6
CONTINUOUS
 90
16
 70
0
 10
21.9887044137
 20
7.2464258576
 10
21.9837470533
 20
7.2803311126
 10
21.9779014623
 20
7.3140516673
 10
21.9711658345
 20
7.3476106783
 10
21.9635475393
 20
7.3809724793
 10
21.9550416554
 20
7.4141535088
 10
21.945653104
 20
7.4471373281
 10
21.9354040176
 20
7.4798389557
 10
21.9242909023
 20
7.5122573602
 10
21.9123172521
 20
7.5443935728
 10
21.8995156815
 20
7.5761657057
 10
21.8858918908
 20
7.6075576509
 10
21.8714401797
 20
7.6385855164
 10
21.8561760625
 20
7.669215738
 10
21.8400874831
 20
7.6994676629
 10
21.8231864976
 20
7.729321944
  0
ARC
  5
2EA
100
AcDbEntity
  8
ASSI
100
AcDbCircle
 62
7
  6
CONTINUOUS
 10
-99.1057403435
 20
-81.0064949925
 40
150.0
100
AcDbArc
 50
36.3228825419
 51
39.2616846859
  0
ARC
  5
2EB
100
AcDbEntity
  8
ASSI
100
AcDbCircle
 62
250
  6
CONTINUOUS
 10
-99.1057403435
 20
-81.0064949925
 40
149.7170756317
100
AcDbArc
 50
36.3590798063
 51
39.2616846859
  0
ARC
  5
2EC
100
AcDbEntity
  8
ASSI
100
AcDbCircle
 62
250
  6
CONTINUOUS
 10
-99.1057403435
 20
-81.0064949925
 40
149.2171517854
100
AcDbArc
 50
36.3590798063
 51
39.2616846859
  0
ARC
  5
2ED
100
AcDbEntity
  8
ASSI
100
AcDbCircle
 62
7
  6
CONTINUOUS
 10
-99.1057403435
 20
81.0064949925
 40
150.0
100
AcDbArc
 50
320.7383153141
 51
323.6771174526
  0
ARC
  5
2EE
100
AcDbEntity
  8
ASSI
100
AcDbCircle
 62
250
  6
CONTINUOUS
 10
-99.1057403435
 20
81.0064949925
 40
149.7170756317
100
AcDbArc
 50
320.7383153141
 51
323.6409201937
  0
ARC
  5
2EF
100
AcDbEntity
  8
ASSI
100
AcDbCircle
 62
250
  6
CONTINUOUS
 10
-99.1057403435
 20
81.0064949925
 40
149.2171517854
100
AcDbArc
 50
320.7383153141
 51
323.6409201937
  0
CIRCLE
  5
2F0
100
AcDbEntity
  8
ASSI
100
AcDbCircle
 62
250
  6
CONTINUOUS
 10
-9.5
 20
0.0
 40
3.2999999929
  0
CIRCLE
  5
2F1
100
AcDbEntity
  8
ASSI
100
AcDbCircle
 62
7
  6
CONTINUOUS
 10
-9.5
 20
0.0
 40
2.8
  0
ARC
  5
2F2
100
AcDbEntity
  8
COPY-PUBBLISH
100
AcDbCircle
 62
7
  6
CONTINUOUS
 10
-9.5
 20
0.0
 40
2.3
100
AcDbArc
 50
243.9318397081
 51
296.0681602919
  0
ARC
  5
2F3
100
AcDbEntity
  8
ASSI
100
AcDbCircle
 62
7
  6
CONTINUOUS
 10
99.1057403435
 20
-81.0064949925
 40
150.0
100
AcDbArc
 50
140.7383153141
 51
143.6771174581
  0
ARC
  5
2F4
100
AcDbEntity
  8
ASSI
100
AcDbCircle
 62
250
  6
CONTINUOUS
 10
99.1057403435
 20
-81.0064949925
 40
149.7170756317
100
AcDbArc
 50
140.7383153141
 51
143.6409201937
  0
ARC
  5
2F5
100
AcDbEntity
  8
ASSI
100
AcDbCircle
 62
250
  6
CONTINUOUS
 10
99.1057403435
 20
-81.0064949925
 40
149.2171517854
100
AcDbArc
 50
140.7383153141
 51
143.6409201937
  0
ARC
  5
2F6
100
AcDbEntity
  8
ASSI
100
AcDbCircle
 62
7
  6
CONTINUOUS
 10
-0.0
 20
0.0
 40
22.0
100
AcDbArc
 50
219.2616846859
 51
320.7383153141
  0
ARC
  5
2F7
100
AcDbEntity
  8
ASSI
100
AcDbCircle
 62
7
  6
CONTINUOUS
 10
-0.0
 20
0.0
 40
22.0
100
AcDbArc
 50
39.2616846859
 51
140.7383153141
  0
ARC
  5
2F8
100
AcDbEntity
  8
ASSI
100
AcDbCircle
 62
250
  6
CONTINUOUS
 10
-0.0
 20
0.0
 40
21.7170756317
100
AcDbArc
 50
39.2616846859
 51
140.7383153141
  0
ARC
  5
2F9
100
AcDbEntity
  8
ASSI
100
AcDbCircle
 62
250
  6
CONTINUOUS
 10
-0.0
 20
0.0
 40
21.7170756317
100
AcDbArc
 50
219.2616846859
 51
320.7383153141
  0
ARC
  5
2FA
100
AcDbEntity
  8
ASSI
100
AcDbCircle
 62
250
  6
CONTINUOUS
 10
-0.0
 20
0.0
 40
21.2171517842
100
AcDbArc
 50
39.2616846859
 51
140.7383153141
  0
ARC
  5
2FB
100
AcDbEntity
  8
ASSI
100
AcDbCircle
 62
250
  6
CONTINUOUS
 10
-0.0
 20
0.0
 40
21.2171517842
100
AcDbArc
 50
219.2616846859
 51
320.7383153141
  0
CIRCLE
  5
2FC
100
AcDbEntity
  8
ASSI
100
AcDbCircle
 62
250
  6
CONTINUOUS
 10
-0.0
 20
0.0
 40
20.3898071571
  0
CIRCLE
  5
2FD
100
AcDbEntity
  8
ASSI
100
AcDbCircle
 62
250
  6
CONTINUOUS
 10
-0.0
 20
0.0
 40
19.8899131909
  0
CIRCLE
  5
2FE
100
AcDbEntity
  8
ASSI
100
AcDbCircle
 62
7
  6
CONTINUOUS
 10
-0.0
 20
0.0
 40
19.5951525979
  0
CIRCLE
  5
2FF
100
AcDbEntity
  8
ASSI
100
AcDbCircle
 62
250
  6
CONTINUOUS
 10
9.5
 20
0.0
 40
3.2999999929
  0
CIRCLE
  5
300
100
AcDbEntity
  8
ASSI
100
AcDbCircle
 62
7
  6
CONTINUOUS
 10
9.5
 20
0.0
 40
2.8
  0
CIRCLE
  5
301
100
AcDbEntity
  8
ASSI
100
AcDbCircle
 62
250
  6
CONTINUOUS
 10
-0.0
 20
10.0
 40
2.7499999916
  0
CIRCLE
  5
302
100
AcDbEntity
  8
ASSI
100
AcDbCircle
 62
7
  6
CONTINUOUS
 10
-0.0
 20
10.0
 40
2.45
  0
CIRCLE
  5
303
100
AcDbEntity
  8
0
100
AcDbCircle
 62
7
  6
CONTINUOUS
 10
-0.0
 20
10.0
 40
2.4
  0
ARC
  5
304
100
AcDbEntity
  8
COPY-PUBBLISH
100
AcDbCircle
 62
7
  6
CONTINUOUS
 10
9.5
 20
0.0
 40
2.3
100
AcDbArc
 50
63.9318397081
 51
116.0681602919
  0
ARC
  5
305
100
AcDbEntity
  8
ASSI
100
AcDbCircle
 62
7
  6
CONTINUOUS
 10
99.1057403435
 20
81.0064949925
 40
150.0
100
AcDbArc
 50
216.3228825487
 51
219.2616846859
  0
ARC
  5
306
100
AcDbEntity
  8
ASSI
100
AcDbCircle
 62
250
  6
CONTINUOUS
 10
99.1057403435
 20
81.0064949925
 40
149.7170756317
100
AcDbArc
 50
216.3590798063
 51
219.2616846859
  0
ARC
  5
307
100
AcDbEntity
  8
ASSI
100
AcDbCircle
 62
250
  6
CONTINUOUS
 10
99.1057403435
 20
81.0064949925
 40
149.2171517854
100
AcDbArc
 50
216.3590798063
 51
219.2616846859
  0
ELLIPSE
  5
308
100
AcDbEntity
  8
RACCORDO
100
AcDbEllipse
 62
7
  6
CONTINUOUS
 10
-9.545228493
 20
0.0
 30
0.0
 11
2.440468069
 21
0.0
 31
0.0
 40
0.9998282545
 41
3.0221330787
 42
6.0148446455
  0
ELLIPSE
  5
309
100
AcDbEntity
  8
COPY-PUBBLISH
100
AcDbEllipse
 62
7
  6
CONTINUOUS
 10
-9.5
 20
0.2526215214
 30
0.0
 11
-0.0
 21
2.4814881331
 31
0.0
 40
0.9948046367
 41
1.5554126529
 42
2.1310411446
  0
ELLIPSE
  5
30A
100
AcDbEntity
  8
RACCORDO
100
AcDbEllipse
 62
7
  6
CONTINUOUS
 10
9.545228493
 20
0.0
 30
0.0
 11
2.440468069
 21
-0.0
 31
0.0
 40
0.9998282545
 41
-0.1194595749
 42
2.8732519582
  0
ELLIPSE
  5
30B
100
AcDbEntity
  8
COPY-PUBBLISH
100
AcDbEllipse
 62
7
  6
CONTINUOUS
 10
9.5
 20
-0.2526215214
 30
0.0
 11
0.0
 21
2.4814881331
 31
0.0
 40
0.9948046367
 41
-1.5861800007
 42
-1.010551509
  0
ELLIPSE
  5
30C
100
AcDbEntity
  8
RACCORDO
100
AcDbEllipse
 62
7
  6
CONTINUOUS
 10
-9.5
 20
0.2526215214
 30
0.0
 11
-0.0
 21
2.4814881331
 31
0.0
 40
0.9948046367
 41
-2.1310411446
 42
-1.8977697955
  0
ELLIPSE
  5
30D
100
AcDbEntity
  8
RACCORDO
100
AcDbEllipse
 62
7
  6
CONTINUOUS
 10
9.5
 20
-0.2526215214
 30
0.0
 11
-0.0
 21
2.4814881331
 31
0.0
 40
0.9948046367
 41
1.010551509
 42
1.2438230735
  0
ENDSEC
  0
SECTION
  2
OBJECTS
  0
DICTIONARY
  5
C
100
AcDbDictionary
280
0
281
1
  3
ACAD_GROUP
350
D
  3
ACAD_MLINESTYLE
350
17
  3
ACAD_LAYOUT
350
1A
  3
ACAD_PLOTSETTINGS
350
19
  3
ACAD_PLOTSTYLENAME
350
E
  0
DICTIONARY
  5
D
102
{ACAD_REACTORS
330
C
102
}
100
AcDbDictionary
280
0
281
1
  0
ACDBDICTIONARYWDFLT
  5
E
102
{ACAD_REACTORS
330
C
102
}
100
AcDbDictionary
281
1
  3
Normal
350
F
100
AcDbDictionaryWithDefault
340
F
  0
DICTIONARY
  5
17
102
{ACAD_REACTORS
330
C
102
}
100
AcDbDictionary
280
0
281
1
  3
Standard
350
18
  0
DICTIONARY
  5
19
102
{ACAD_REACTORS
330
C
102
}
100
AcDbDictionary
281
1
  0
DICTIONARY
  5
1A
102
{ACAD_REACTORS
330
C
102
}
100
AcDbDictionary
281
1
  3
Model
350
30E
  3
Layout1
350
30F
  0
ACDBPLACEHOLDER
  5
F
102
{ACAD_REACTORS
330
E
102
}
  0
MLINESTYLE
  5
18
102
{ACAD_REACTORS
330
17
102
}
100
AcDbMlineStyle
  2
STANDARD
 70
0
  3

 62
256
 51
90.0
 52
90.0
 71
2
 49
0.5
 62
256
  6
BYLAYER
 49
-0.5
 62
256
  6
BYLAYER
  0
LAYOUT
  5
30E
102
{ACAD_REACTORS
330
1A
102
}
100
AcDbPlotSettings
  1

  2
none_device
  4
ISO_A4_(297.00_x_210.00_MM)
  6

 40
0.0
 41
0.0
 42
0.0
 43
0.0
 44
297.0
 45
210.0
 46
0.0
 47
0.0
 48
0.0
 49
0.0
140
0.0
141
0.0
142
1.0
143
1.0
 70
1024
 72
1
 73
0
 74
0
  7

 75
0
147
1.0
148
0.0
149
0.0
100
AcDbLayout
  1
Model
 70
0
 71
0
 10
0.0
 20
0.0
 11
297.0
 21
210.0
 12
0.0
 22
0.0
 32
0.0
 14
0.0
 24
0.0
 34
0.0
 15
0.0
 25
0.0
 35
0.0
146
0.0
 13
0.0
 23
0.0
 33
0.0
 16
1.0
 26
0.0
 36
0.0
 17
0.0
 27
1.0
 37
0.0
 76
0
330
21F
345
0
346
0
  0
LAYOUT
  5
30F
102
{ACAD_REACTORS
330
1A
102
}
100
AcDbPlotSettings
  1

  2
none_device
  4
ISO_A4_(297.00_x_210.00_MM)
  6

 40
0.0
 41
0.0
 42
0.0
 43
0.0
 44
297.0
 45
210.0
 46
0.0
 47
0.0
 48
0.0
 49
0.0
140
0.0
141
0.0
142
1.0
143
1.0
 70
0
 72
1
 73
0
 74
0
  7

 75
0
147
1.0
148
0.0
149
0.0
100
AcDbLayout
  1
Layout1
 70
0
 71
1
 10
0.0
 20
0.0
 11
297.0
 21
210.0
 12
0.0
 22
0.0
 32
0.0
 14
0.0
 24
0.0
 34
0.0
 15
0.0
 25
0.0
 35
0.0
146
0.0
 13
0.0
 23
0.0
 33
0.0
 16
1.0
 26
0.0
 36
0.0
 17
0.0
 27
1.0
 37
0.0
 76
0
330
220
345
0
346
0
  0
ENDSEC
  0
EOF
