  0
SECTION
  2
HEADER
  9
$ACADVER
  1
AC1024
  9
$DWGCODEPAGE
  3
ANSI_1252
  9
$EXTMAX
 10
558.8
 20
431.8
 30
0.0
  9
$EXTMIN
 10
0.0
 20
0.0
 30
0.0
  9
$LIMMIN
 10
0.0
 20
0.0
  9
$LIMMAX
 10
558.8
 20
431.8
  9
$VIEWCTR
 10
279.4
 20
215.9
  9
$VIEWSIZE
 40
431.8
  9
$CLAYER
  8
0
  9
$LTSCALE
 40
30.734
  9
$CELTYPE
  6
BYLAYER
  9
$DIMSCALE
 40
1.0
  9
$DIMASZ
 40
3.0
  9
$DIMEXO
 40
0.5
  9
$DIMDLI
 40
21.2344
  9
$DIMEXE
 40
1.5
  9
$DIMCEN
 40
5.0292
  9
$DIMLFAC
 40
1.0
  9
$DIMBLK
  1
_FILLED
  9
$DIMALT
 70
0
  9
$DIMALTF
 40
0.0393700787
  9
$DIMTXT
 40
3.0
  9
$DIMTOL
 70
1
  9
$DIMLIM
 70
0
  9
$DIMTFAC
 40
1.0
  9
$DIMTP
 40
0.01
  9
$DIMTM
 40
0.01
  9
$DIMGAP
 40
0.625
  9
$DIMDSEP
 70
44
  9
$AUNITS
 70
0
  9
$PDMODE
 70
3
  9
$PDSIZE
 40
3.0
  9
$HANDSEED
  5
7D9
  9
$TILEMODE
 70
1
  9
$MEASUREMENT
 70
1
  9
$INSUNITS
 70
4
  0
ENDSEC
  0
SECTION
  2
CLASSES
  0
CLASS
  1
ACDBDICTIONARYWDFLT
  2
AcDbDictionaryWithDefault
  3
AutoCAD 2000
 90
0
 91
1
280
0
281
0
  0
CLASS
  1
ACDBPLACEHOLDER
  2
AcDbPlaceHolder
  3
AutoCAD 2000
 90
0
 91
1
280
0
281
0
  0
CLASS
  1
LAYOUT
  2
AcDbLayout
  3
AutoCAD 2000
 90
0
 91
0
280
0
281
0
  0
ENDSEC
  0
SECTION
  2
TABLES
  0
TABLE
  2
VPORT
  5
8
100
AcDbSymbolTable
 70
2
  0
VPORT
  5
1F4
100
AcDbSymbolTableRecord
100
AcDbViewportTableRecord
  2
*ACTIVE
 70
0
 10
0.0
 20
0.0
 11
1.0
 21
1.0
 12
279.4
 22
215.9
 13
0.0
 23
0.0
 14
1.0
 24
1.0
 15
0.0
 25
0.0
 16
0.0
 26
0.0
 36
1.0
 17
0.0
 27
0.0
 37
0.0
 40
431.8
 41
1.2941176471
 42
50.0
 43
0.0
 44
0.0
 50
0.0
 51
0.0
 71
0
 72
100
 73
1
 74
1
 75
0
 76
0
 77
0
 78
0
  0
ENDTAB
  0
TABLE
  2
LTYPE
  5
5
100
AcDbSymbolTable
 70
6
  0
LTYPE
  5
14
100
AcDbSymbolTableRecord
100
AcDbLinetypeTableRecord
  2
BYBLOCK
 70
0
  3

 72
65
 73
0
 40
0.0
  0
LTYPE
  5
15
100
AcDbSymbolTableRecord
100
AcDbLinetypeTableRecord
  2
BYLAYER
 70
0
  3

 72
65
 73
0
 40
0.0
  0
LTYPE
  5
16
100
AcDbSymbolTableRecord
100
AcDbLinetypeTableRecord
  2
CONTINUOUS
 70
64
  3
Solid line
 72
65
 73
0
 40
0.0
  0
LTYPE
  5
1F5
100
AcDbSymbolTableRecord
100
AcDbLinetypeTableRecord
  2
CENTER
 70
64
  3
____ _ ____ _ ____ _ ____ _ ____ _ ____ _ ____
 72
65
 73
4
 40
0.6
 49
0.375
 74
0
 49
-0.075
 74
0
 49
0.075
 74
0
 49
-0.075
 74
0
  0
LTYPE
  5
1F6
100
AcDbSymbolTableRecord
100
AcDbLinetypeTableRecord
  2
HIDDEN
 70
64
  3
- - - - - - - - - - - - - - - - - - - -
 72
65
 73
2
 40
0.2
 49
0.1
 74
0
 49
-0.1
 74
0
  0
LTYPE
  5
1F7
100
AcDbSymbolTableRecord
100
AcDbLinetypeTableRecord
  2
PHANTOM
 70
64
  3
_____ _ _ _____ _ _ _____ _ _ _____
 72
65
 73
6
 40
0.8
 49
0.45
 74
0
 49
-0.05
 74
0
 49
0.1
 74
0
 49
-0.05
 74
0
 49
0.1
 74
0
 49
-0.05
 74
0
  0
LTYPE
  5
1F8
100
AcDbSymbolTableRecord
100
AcDbLinetypeTableRecord
  2
DOT
 70
64
  3
. . . . . . . . . . . . . . . . . . . .
 72
65
 73
2
 40
0.2
 49
0.1
 74
0
 49
-0.1
 74
0
  0
LTYPE
  5
1F9
100
AcDbSymbolTableRecord
100
AcDbLinetypeTableRecord
  2
DASHED
 70
64
  3
- - - - - - - - - - - - - - - - - - - -
 72
65
 73
2
 40
0.2
 49
0.1
 74
0
 49
-0.1
 74
0
  0
ENDTAB
  0
TABLE
  2
LAYER
  5
2
100
AcDbSymbolTable
 70
36
  0
LAYER
  5
10
100
AcDbSymbolTableRecord
100
AcDbLayerTableRecord
  2
0
 70
0
 62
7
  6
CONTINUOUS
370
-3
390
F
  0
LAYER
  5
1FA
100
AcDbSymbolTableRecord
100
AcDbLayerTableRecord
  2
DEFAULT_1
 70
0
 62
7
  6
CENTER
370
-3
390
F
  0
LAYER
  5
1FB
100
AcDbSymbolTableRecord
100
AcDbLayerTableRecord
  2
DEFAULT_2
 70
0
 62
7
  6
HIDDEN
370
-3
390
F
  0
LAYER
  5
1FC
100
AcDbSymbolTableRecord
100
AcDbLayerTableRecord
  2
DEFAULT_3
 70
0
 62
7
  6
PHANTOM
370
-3
390
F
  0
LAYER
  5
1FD
100
AcDbSymbolTableRecord
100
AcDbLayerTableRecord
  2
06___PRT_ALL_SURFS_17
 70
0
 62
7
  6
CONTINUOUS
370
-3
390
F
  0
LAYER
  5
1FE
100
AcDbSymbolTableRecord
100
AcDbLayerTableRecord
  2
200A_170000
 70
0
 62
7
  6
CONTINUOUS
370
-3
390
F
  0
LAYER
  5
1FF
100
AcDbSymbolTableRecord
100
AcDbLayerTableRecord
  2
200A_170000_1
 70
0
 62
7
  6
CONTINUOUS
370
-3
390
F
  0
LAYER
  5
200
100
AcDbSymbolTableRecord
100
AcDbLayerTableRecord
  2
200A_170000_2
 70
0
 62
7
  6
CONTINUOUS
370
-3
390
F
  0
LAYER
  5
201
100
AcDbSymbolTableRecord
100
AcDbLayerTableRecord
  2
200A_170000_3
 70
0
 62
7
  6
CONTINUOUS
370
-3
390
F
  0
LAYER
  5
202
100
AcDbSymbolTableRecord
100
AcDbLayerTableRecord
  2
200A_170000_4
 70
0
 62
7
  6
CONTINUOUS
370
-3
390
F
  0
LAYER
  5
203
100
AcDbSymbolTableRecord
100
AcDbLayerTableRecord
  2
201A_260000
 70
0
 62
7
  6
CONTINUOUS
370
-3
390
F
  0
LAYER
  5
204
100
AcDbSymbolTableRecord
100
AcDbLayerTableRecord
  2
2125-CC-RF-VIMAR_110000
 70
0
 62
7
  6
CONTINUOUS
370
-3
390
F
  0
LAYER
  5
205
100
AcDbSymbolTableRecord
100
AcDbLayerTableRecord
  2
2125-CC-RF-VIMAR_110000_1
 70
0
 62
7
  6
CONTINUOUS
370
-3
390
F
  0
LAYER
  5
206
100
AcDbSymbolTableRecord
100
AcDbLayerTableRecord
  2
2125-CC-RF-VIMAR_110000_10
 70
0
 62
7
  6
CONTINUOUS
370
-3
390
F
  0
LAYER
  5
207
100
AcDbSymbolTableRecord
100
AcDbLayerTableRecord
  2
2125-CC-RF-VIMAR_110000_11
 70
0
 62
7
  6
CONTINUOUS
370
-3
390
F
  0
LAYER
  5
208
100
AcDbSymbolTableRecord
100
AcDbLayerTableRecord
  2
2125-CC-RF-VIMAR_110000_12
 70
0
 62
7
  6
CONTINUOUS
370
-3
390
F
  0
LAYER
  5
209
100
AcDbSymbolTableRecord
100
AcDbLayerTableRecord
  2
2125-CC-RF-VIMAR_110000_13
 70
0
 62
7
  6
CONTINUOUS
370
-3
390
F
  0
LAYER
  5
20A
100
AcDbSymbolTableRecord
100
AcDbLayerTableRecord
  2
2125-CC-RF-VIMAR_110000_14
 70
0
 62
7
  6
CONTINUOUS
370
-3
390
F
  0
LAYER
  5
20B
100
AcDbSymbolTableRecord
100
AcDbLayerTableRecord
  2
2125-CC-RF-VIMAR_110000_15
 70
0
 62
7
  6
CONTINUOUS
370
-3
390
F
  0
LAYER
  5
20C
100
AcDbSymbolTableRecord
100
AcDbLayerTableRecord
  2
2125-CC-RF-VIMAR_110000_16
 70
0
 62
7
  6
CONTINUOUS
370
-3
390
F
  0
LAYER
  5
20D
100
AcDbSymbolTableRecord
100
AcDbLayerTableRecord
  2
2125-CC-RF-VIMAR_110000_17
 70
0
 62
7
  6
CONTINUOUS
370
-3
390
F
  0
LAYER
  5
20E
100
AcDbSymbolTableRecord
100
AcDbLayerTableRecord
  2
2125-CC-RF-VIMAR_110000_2
 70
0
 62
7
  6
CONTINUOUS
370
-3
390
F
  0
LAYER
  5
20F
100
AcDbSymbolTableRecord
100
AcDbLayerTableRecord
  2
2125-CC-RF-VIMAR_110000_3
 70
0
 62
7
  6
CONTINUOUS
370
-3
390
F
  0
LAYER
  5
210
100
AcDbSymbolTableRecord
100
AcDbLayerTableRecord
  2
2125-CC-RF-VIMAR_110000_4
 70
0
 62
7
  6
CONTINUOUS
370
-3
390
F
  0
LAYER
  5
211
100
AcDbSymbolTableRecord
100
AcDbLayerTableRecord
  2
2125-CC-RF-VIMAR_110000_5
 70
0
 62
7
  6
CONTINUOUS
370
-3
390
F
  0
LAYER
  5
212
100
AcDbSymbolTableRecord
100
AcDbLayerTableRecord
  2
2125-CC-RF-VIMAR_110000_6
 70
0
 62
7
  6
CONTINUOUS
370
-3
390
F
  0
LAYER
  5
213
100
AcDbSymbolTableRecord
100
AcDbLayerTableRecord
  2
2125-CC-RF-VIMAR_110000_7
 70
0
 62
7
  6
CONTINUOUS
370
-3
390
F
  0
LAYER
  5
214
100
AcDbSymbolTableRecord
100
AcDbLayerTableRecord
  2
2125-CC-RF-VIMAR_110000_8
 70
0
 62
7
  6
CONTINUOUS
370
-3
390
F
  0
LAYER
  5
215
100
AcDbSymbolTableRecord
100
AcDbLayerTableRecord
  2
2125-CC-RF-VIMAR_110000_9
 70
0
 62
7
  6
CONTINUOUS
370
-3
390
F
  0
LAYER
  5
216
100
AcDbSymbolTableRecord
100
AcDbLayerTableRecord
  2
2125-DL-RF-FINE_VIMAR_110000
 70
0
 62
7
  6
CONTINUOUS
370
-3
390
F
  0
LAYER
  5
217
100
AcDbSymbolTableRecord
100
AcDbLayerTableRecord
  2
2125-DL-RF-FINE_VIMAR_110000_1
 70
0
 62
7
  6
CONTINUOUS
370
-3
390
F
  0
LAYER
  5
218
100
AcDbSymbolTableRecord
100
AcDbLayerTableRecord
  2
2125-R1-RF-VIMAR_60000
 70
0
 62
7
  6
CONTINUOUS
370
-3
390
F
  0
LAYER
  5
219
100
AcDbSymbolTableRecord
100
AcDbLayerTableRecord
  2
2125-R1-RF-VIMAR_60000_1
 70
0
 62
7
  6
CONTINUOUS
370
-3
390
F
  0
LAYER
  5
21A
100
AcDbSymbolTableRecord
100
AcDbLayerTableRecord
  2
2125-R1-RF-VIMAR_60000_10
 70
0
 62
7
  6
CONTINUOUS
370
-3
390
F
  0
LAYER
  5
21B
100
AcDbSymbolTableRecord
100
AcDbLayerTableRecord
  2
2125-R1-RF-VIMAR_60000_11
 70
0
 62
7
  6
CONTINUOUS
370
-3
390
F
  0
LAYER
  5
21C
100
AcDbSymbolTableRecord
100
AcDbLayerTableRecord
  2
2125-R1-RF-VIMAR_60000_12
 70
0
 62
7
  6
CONTINUOUS
370
-3
390
F
  0
LAYER
  5
21D
100
AcDbSymbolTableRecord
100
AcDbLayerTableRecord
  2
2125-R1-RF-VIMAR_60000_13
 70
0
 62
7
  6
CONTINUOUS
370
-3
390
F
  0
LAYER
  5
21E
100
AcDbSymbolTableRecord
100
AcDbLayerTableRecord
  2
2125-R1-RF-VIMAR_60000_14
 70
0
 62
7
  6
CONTINUOUS
370
-3
390
F
  0
LAYER
  5
21F
100
AcDbSymbolTableRecord
100
AcDbLayerTableRecord
  2
2125-R1-RF-VIMAR_60000_15
 70
0
 62
7
  6
CONTINUOUS
370
-3
390
F
  0
LAYER
  5
220
100
AcDbSymbolTableRecord
100
AcDbLayerTableRecord
  2
2125-R1-RF-VIMAR_60000_16
 70
0
 62
7
  6
CONTINUOUS
370
-3
390
F
  0
LAYER
  5
221
100
AcDbSymbolTableRecord
100
AcDbLayerTableRecord
  2
2125-R1-RF-VIMAR_60000_2
 70
0
 62
7
  6
CONTINUOUS
370
-3
390
F
  0
LAYER
  5
222
100
AcDbSymbolTableRecord
100
AcDbLayerTableRecord
  2
2125-R1-RF-VIMAR_60000_3
 70
0
 62
7
  6
CONTINUOUS
370
-3
390
F
  0
LAYER
  5
223
100
AcDbSymbolTableRecord
100
AcDbLayerTableRecord
  2
2125-R1-RF-VIMAR_60000_4
 70
0
 62
7
  6
CONTINUOUS
370
-3
390
F
  0
LAYER
  5
224
100
AcDbSymbolTableRecord
100
AcDbLayerTableRecord
  2
2125-R1-RF-VIMAR_60000_5
 70
0
 62
7
  6
CONTINUOUS
370
-3
390
F
  0
LAYER
  5
225
100
AcDbSymbolTableRecord
100
AcDbLayerTableRecord
  2
2125-R1-RF-VIMAR_60000_6
 70
0
 62
7
  6
CONTINUOUS
370
-3
390
F
  0
LAYER
  5
226
100
AcDbSymbolTableRecord
100
AcDbLayerTableRecord
  2
2125-R1-RF-VIMAR_60000_7
 70
0
 62
7
  6
CONTINUOUS
370
-3
390
F
  0
LAYER
  5
227
100
AcDbSymbolTableRecord
100
AcDbLayerTableRecord
  2
2125-R1-RF-VIMAR_60000_8
 70
0
 62
7
  6
CONTINUOUS
370
-3
390
F
  0
LAYER
  5
228
100
AcDbSymbolTableRecord
100
AcDbLayerTableRecord
  2
2125-R1-RF-VIMAR_60000_9
 70
0
 62
7
  6
CONTINUOUS
370
-3
390
F
  0
LAYER
  5
229
100
AcDbSymbolTableRecord
100
AcDbLayerTableRecord
  2
3216-CF-RF-VIMAR_100000
 70
0
 62
7
  6
CONTINUOUS
370
-3
390
F
  0
LAYER
  5
22A
100
AcDbSymbolTableRecord
100
AcDbLayerTableRecord
  2
3216-CF-RF-VIMAR_100000_1
 70
0
 62
7
  6
CONTINUOUS
370
-3
390
F
  0
LAYER
  5
22B
100
AcDbSymbolTableRecord
100
AcDbLayerTableRecord
  2
3216-CF-RF-VIMAR_100000_2
 70
0
 62
7
  6
CONTINUOUS
370
-3
390
F
  0
LAYER
  5
22C
100
AcDbSymbolTableRecord
100
AcDbLayerTableRecord
  2
3216-CF-RF-VIMAR_100000_3
 70
0
 62
7
  6
CONTINUOUS
370
-3
390
F
  0
LAYER
  5
22D
100
AcDbSymbolTableRecord
100
AcDbLayerTableRecord
  2
3216-CF-RF-VIMAR_100000_4
 70
0
 62
7
  6
CONTINUOUS
370
-3
390
F
  0
LAYER
  5
22E
100
AcDbSymbolTableRecord
100
AcDbLayerTableRecord
  2
3216-R1-RF-VIMAR_60000
 70
0
 62
7
  6
CONTINUOUS
370
-3
390
F
  0
LAYER
  5
22F
100
AcDbSymbolTableRecord
100
AcDbLayerTableRecord
  2
3216-R1-RF-VIMAR_60000_1
 70
0
 62
7
  6
CONTINUOUS
370
-3
390
F
  0
LAYER
  5
230
100
AcDbSymbolTableRecord
100
AcDbLayerTableRecord
  2
3216-R1-RF-VIMAR_60000_10
 70
0
 62
7
  6
CONTINUOUS
370
-3
390
F
  0
LAYER
  5
231
100
AcDbSymbolTableRecord
100
AcDbLayerTableRecord
  2
3216-R1-RF-VIMAR_60000_11
 70
0
 62
7
  6
CONTINUOUS
370
-3
390
F
  0
LAYER
  5
232
100
AcDbSymbolTableRecord
100
AcDbLayerTableRecord
  2
3216-R1-RF-VIMAR_60000_12
 70
0
 62
7
  6
CONTINUOUS
370
-3
390
F
  0
LAYER
  5
233
100
AcDbSymbolTableRecord
100
AcDbLayerTableRecord
  2
3216-R1-RF-VIMAR_60000_13
 70
0
 62
7
  6
CONTINUOUS
370
-3
390
F
  0
LAYER
  5
234
100
AcDbSymbolTableRecord
100
AcDbLayerTableRecord
  2
3216-R1-RF-VIMAR_60000_14
 70
0
 62
7
  6
CONTINUOUS
370
-3
390
F
  0
LAYER
  5
235
100
AcDbSymbolTableRecord
100
AcDbLayerTableRecord
  2
3216-R1-RF-VIMAR_60000_15
 70
0
 62
7
  6
CONTINUOUS
370
-3
390
F
  0
LAYER
  5
236
100
AcDbSymbolTableRecord
100
AcDbLayerTableRecord
  2
3216-R1-RF-VIMAR_60000_16
 70
0
 62
7
  6
CONTINUOUS
370
-3
390
F
  0
LAYER
  5
237
100
AcDbSymbolTableRecord
100
AcDbLayerTableRecord
  2
3216-R1-RF-VIMAR_60000_17
 70
0
 62
7
  6
CONTINUOUS
370
-3
390
F
  0
LAYER
  5
238
100
AcDbSymbolTableRecord
100
AcDbLayerTableRecord
  2
3216-R1-RF-VIMAR_60000_18
 70
0
 62
7
  6
CONTINUOUS
370
-3
390
F
  0
LAYER
  5
239
100
AcDbSymbolTableRecord
100
AcDbLayerTableRecord
  2
3216-R1-RF-VIMAR_60000_2
 70
0
 62
7
  6
CONTINUOUS
370
-3
390
F
  0
LAYER
  5
23A
100
AcDbSymbolTableRecord
100
AcDbLayerTableRecord
  2
3216-R1-RF-VIMAR_60000_3
 70
0
 62
7
  6
CONTINUOUS
370
-3
390
F
  0
LAYER
  5
23B
100
AcDbSymbolTableRecord
100
AcDbLayerTableRecord
  2
3216-R1-RF-VIMAR_60000_4
 70
0
 62
7
  6
CONTINUOUS
370
-3
390
F
  0
LAYER
  5
23C
100
AcDbSymbolTableRecord
100
AcDbLayerTableRecord
  2
3216-R1-RF-VIMAR_60000_5
 70
0
 62
7
  6
CONTINUOUS
370
-3
390
F
  0
LAYER
  5
23D
100
AcDbSymbolTableRecord
100
AcDbLayerTableRecord
  2
3216-R1-RF-VIMAR_60000_6
 70
0
 62
7
  6
CONTINUOUS
370
-3
390
F
  0
LAYER
  5
23E
100
AcDbSymbolTableRecord
100
AcDbLayerTableRecord
  2
3216-R1-RF-VIMAR_60000_7
 70
0
 62
7
  6
CONTINUOUS
370
-3
390
F
  0
LAYER
  5
23F
100
AcDbSymbolTableRecord
100
AcDbLayerTableRecord
  2
3216-R1-RF-VIMAR_60000_8
 70
0
 62
7
  6
CONTINUOUS
370
-3
390
F
  0
LAYER
  5
240
100
AcDbSymbolTableRecord
100
AcDbLayerTableRecord
  2
3216-R1-RF-VIMAR_60000_9
 70
0
 62
7
  6
CONTINUOUS
370
-3
390
F
  0
LAYER
  5
241
100
AcDbSymbolTableRecord
100
AcDbLayerTableRecord
  2
43000711A0
 70
0
 62
7
  6
CONTINUOUS
370
-3
390
F
  0
LAYER
  5
242
100
AcDbSymbolTableRecord
100
AcDbLayerTableRecord
  2
43000712A0
 70
0
 62
7
  6
CONTINUOUS
370
-3
390
F
  0
LAYER
  5
243
100
AcDbSymbolTableRecord
100
AcDbLayerTableRecord
  2
ASSI
 70
0
 62
7
  6
CONTINUOUS
370
-3
390
F
  0
LAYER
  5
244
100
AcDbSymbolTableRecord
100
AcDbLayerTableRecord
  2
CN-243-VIMAR_850000
 70
0
 62
7
  6
CONTINUOUS
370
-3
390
F
  0
LAYER
  5
245
100
AcDbSymbolTableRecord
100
AcDbLayerTableRecord
  2
CN-243-VIMAR_850000_1
 70
0
 62
7
  6
CONTINUOUS
370
-3
390
F
  0
LAYER
  5
246
100
AcDbSymbolTableRecord
100
AcDbLayerTableRecord
  2
CN-MSM02001-VIMAR_1520000
 70
0
 62
7
  6
CONTINUOUS
370
-3
390
F
  0
LAYER
  5
247
100
AcDbSymbolTableRecord
100
AcDbLayerTableRecord
  2
CN-MSM02001-VIMAR_1520000_1
 70
0
 62
7
  6
CONTINUOUS
370
-3
390
F
  0
LAYER
  5
248
100
AcDbSymbolTableRecord
100
AcDbLayerTableRecord
  2
CN-MSM02001-VIMAR_1520000_2
 70
0
 62
7
  6
CONTINUOUS
370
-3
390
F
  0
LAYER
  5
249
100
AcDbSymbolTableRecord
100
AcDbLayerTableRecord
  2
CN1-REF_SQUAREHOLE12_SPEA-VIMAR
 70
0
 62
7
  6
CONTINUOUS
370
-3
390
F
  0
LAYER
  5
24A
100
AcDbSymbolTableRecord
100
AcDbLayerTableRecord
  2
CN1-REF_SQUAREHOLE12_SPEA-VIM_1
 70
0
 62
7
  6
CONTINUOUS
370
-3
390
F
  0
LAYER
  5
24B
100
AcDbSymbolTableRecord
100
AcDbLayerTableRecord
  2
CN1-REF_SQUAREHOLE12_SPEA-VIM_2
 70
0
 62
7
  6
CONTINUOUS
370
-3
390
F
  0
LAYER
  5
24C
100
AcDbSymbolTableRecord
100
AcDbLayerTableRecord
  2
CN1-REF_SQUAREHOLE12_SPEA-VIM_3
 70
0
 62
7
  6
CONTINUOUS
370
-3
390
F
  0
LAYER
  5
24D
100
AcDbSymbolTableRecord
100
AcDbLayerTableRecord
  2
CN1-TP10_SMD-VIMAR_01_10000
 70
0
 62
7
  6
CONTINUOUS
370
-3
390
F
  0
LAYER
  5
24E
100
AcDbSymbolTableRecord
100
AcDbLayerTableRecord
  2
COLOR1
 70
0
 62
7
  6
CONTINUOUS
370
-3
390
F
  0
LAYER
  5
24F
100
AcDbSymbolTableRecord
100
AcDbLayerTableRecord
  2
COLOR14
 70
0
 62
7
  6
CONTINUOUS
370
-3
390
F
  0
LAYER
  5
250
100
AcDbSymbolTableRecord
100
AcDbLayerTableRecord
  2
COLOR20
 70
0
 62
7
  6
CONTINUOUS
370
-3
390
F
  0
LAYER
  5
251
100
AcDbSymbolTableRecord
100
AcDbLayerTableRecord
  2
COLOR24
 70
0
 62
7
  6
CONTINUOUS
370
-3
390
F
  0
LAYER
  5
252
100
AcDbSymbolTableRecord
100
AcDbLayerTableRecord
  2
COLOR5
 70
0
 62
7
  6
CONTINUOUS
370
-3
390
F
  0
LAYER
  5
253
100
AcDbSymbolTableRecord
100
AcDbLayerTableRecord
  2
COLOR6
 70
0
 62
7
  6
CONTINUOUS
370
-3
390
F
  0
LAYER
  5
254
100
AcDbSymbolTableRecord
100
AcDbLayerTableRecord
  2
COORDINATE
 70
0
 62
7
  6
CONTINUOUS
370
-3
390
F
  0
LAYER
  5
255
100
AcDbSymbolTableRecord
100
AcDbLayerTableRecord
  2
COORD_ORIGINE
 70
0
 62
7
  6
CONTINUOUS
370
-3
390
F
  0
LAYER
  5
256
100
AcDbSymbolTableRecord
100
AcDbLayerTableRecord
  2
COPY_PUBLISH
 70
0
 62
7
  6
CONTINUOUS
370
-3
390
F
  0
LAYER
  5
257
100
AcDbSymbolTableRecord
100
AcDbLayerTableRecord
  2
COSMETIC
 70
0
 62
7
  6
CONTINUOUS
370
-3
390
F
  0
LAYER
  5
258
100
AcDbSymbolTableRecord
100
AcDbLayerTableRecord
  2
COSMETICI
 70
0
 62
7
  6
CONTINUOUS
370
-3
390
F
  0
LAYER
  5
259
100
AcDbSymbolTableRecord
100
AcDbLayerTableRecord
  2
CP-CE11-RF-VIMAR_630000
 70
0
 62
7
  6
CONTINUOUS
370
-3
390
F
  0
LAYER
  5
25A
100
AcDbSymbolTableRecord
100
AcDbLayerTableRecord
  2
CP-CE11-RF-VIMAR_630000_1
 70
0
 62
7
  6
CONTINUOUS
370
-3
390
F
  0
LAYER
  5
25B
100
AcDbSymbolTableRecord
100
AcDbLayerTableRecord
  2
CP-DO-214AC-D-VIMAR_240000
 70
0
 62
7
  6
CONTINUOUS
370
-3
390
F
  0
LAYER
  5
25C
100
AcDbSymbolTableRecord
100
AcDbLayerTableRecord
  2
CP-DO-214AC-VIMAR_240000
 70
0
 62
7
  6
CONTINUOUS
370
-3
390
F
  0
LAYER
  5
25D
100
AcDbSymbolTableRecord
100
AcDbLayerTableRecord
  2
CP-DO-214AC-VIMAR_240000_1
 70
0
 62
7
  6
CONTINUOUS
370
-3
390
F
  0
LAYER
  5
25E
100
AcDbSymbolTableRecord
100
AcDbLayerTableRecord
  2
CURVE
 70
0
 62
7
  6
CONTINUOUS
370
-3
390
F
  0
LAYER
  5
25F
100
AcDbSymbolTableRecord
100
AcDbLayerTableRecord
  2
DO214AA_265000
 70
0
 62
7
  6
CONTINUOUS
370
-3
390
F
  0
LAYER
  5
260
100
AcDbSymbolTableRecord
100
AcDbLayerTableRecord
  2
DRAFT
 70
0
 62
7
  6
CONTINUOUS
370
-3
390
F
  0
LAYER
  5
261
100
AcDbSymbolTableRecord
100
AcDbLayerTableRecord
  2
E2_MARK_10000
 70
0
 62
7
  6
CONTINUOUS
370
-3
390
F
  0
LAYER
  5
262
100
AcDbSymbolTableRecord
100
AcDbLayerTableRecord
  2
GEOMETRIA_SOLIDA
 70
0
 62
7
  6
CONTINUOUS
370
-3
390
F
  0
LAYER
  5
263
100
AcDbSymbolTableRecord
100
AcDbLayerTableRecord
  2
I3-TO-H12-VIMAR_1080000
 70
0
 62
7
  6
CONTINUOUS
370
-3
390
F
  0
LAYER
  5
264
100
AcDbSymbolTableRecord
100
AcDbLayerTableRecord
  2
I3-TO-H2-7C-VIMAR_2040000
 70
0
 62
7
  6
CONTINUOUS
370
-3
390
F
  0
LAYER
  5
265
100
AcDbSymbolTableRecord
100
AcDbLayerTableRecord
  2
I3-TO-H2-VIMAR_1130000
 70
0
 62
7
  6
CONTINUOUS
370
-3
390
F
  0
LAYER
  5
266
100
AcDbSymbolTableRecord
100
AcDbLayerTableRecord
  2
IGES_HOLGER
 70
0
 62
7
  6
CONTINUOUS
370
-3
390
F
  0
LAYER
  5
267
100
AcDbSymbolTableRecord
100
AcDbLayerTableRecord
  2
IMPORT_IGES
 70
0
 62
7
  6
CONTINUOUS
370
-3
390
F
  0
LAYER
  5
268
100
AcDbSymbolTableRecord
100
AcDbLayerTableRecord
  2
INTFCLR_1
 70
0
 62
7
  6
CONTINUOUS
370
-3
390
F
  0
LAYER
  5
269
100
AcDbSymbolTableRecord
100
AcDbLayerTableRecord
  2
INTFCLR_10
 70
0
 62
7
  6
CONTINUOUS
370
-3
390
F
  0
LAYER
  5
26A
100
AcDbSymbolTableRecord
100
AcDbLayerTableRecord
  2
INTFCLR_11
 70
0
 62
7
  6
CONTINUOUS
370
-3
390
F
  0
LAYER
  5
26B
100
AcDbSymbolTableRecord
100
AcDbLayerTableRecord
  2
INTFCLR_3
 70
0
 62
7
  6
CONTINUOUS
370
-3
390
F
  0
LAYER
  5
26C
100
AcDbSymbolTableRecord
100
AcDbLayerTableRecord
  2
INTFCLR_4
 70
0
 62
7
  6
CONTINUOUS
370
-3
390
F
  0
LAYER
  5
26D
100
AcDbSymbolTableRecord
100
AcDbLayerTableRecord
  2
INTFCLR_5
 70
0
 62
7
  6
CONTINUOUS
370
-3
390
F
  0
LAYER
  5
26E
100
AcDbSymbolTableRecord
100
AcDbLayerTableRecord
  2
INTFCLR_6
 70
0
 62
7
  6
CONTINUOUS
370
-3
390
F
  0
LAYER
  5
26F
100
AcDbSymbolTableRecord
100
AcDbLayerTableRecord
  2
INTFCLR_7
 70
0
 62
7
  6
CONTINUOUS
370
-3
390
F
  0
LAYER
  5
270
100
AcDbSymbolTableRecord
100
AcDbLayerTableRecord
  2
INTFCLR_8
 70
0
 62
7
  6
CONTINUOUS
370
-3
390
F
  0
LAYER
  5
271
100
AcDbSymbolTableRecord
100
AcDbLayerTableRecord
  2
INTFCLR_9
 70
0
 62
7
  6
CONTINUOUS
370
-3
390
F
  0
LAYER
  5
272
100
AcDbSymbolTableRecord
100
AcDbLayerTableRecord
  2
INTF_1
 70
0
 62
7
  6
CONTINUOUS
370
-3
390
F
  0
LAYER
  5
273
100
AcDbSymbolTableRecord
100
AcDbLayerTableRecord
  2
INTF_2
 70
0
 62
7
  6
CONTINUOUS
370
-3
390
F
  0
LAYER
  5
274
100
AcDbSymbolTableRecord
100
AcDbLayerTableRecord
  2
INTF_3
 70
0
 62
7
  6
CONTINUOUS
370
-3
390
F
  0
LAYER
  5
275
100
AcDbSymbolTableRecord
100
AcDbLayerTableRecord
  2
INTF_46
 70
0
 62
7
  6
CONTINUOUS
370
-3
390
F
  0
LAYER
  5
276
100
AcDbSymbolTableRecord
100
AcDbLayerTableRecord
  2
INTF_6
 70
0
 62
7
  6
CONTINUOUS
370
-3
390
F
  0
LAYER
  5
277
100
AcDbSymbolTableRecord
100
AcDbLayerTableRecord
  2
INTF_8
 70
0
 62
7
  6
CONTINUOUS
370
-3
390
F
  0
LAYER
  5
278
100
AcDbSymbolTableRecord
100
AcDbLayerTableRecord
  2
INTF_YELLOW
 70
0
 62
7
  6
CONTINUOUS
370
-3
390
F
  0
LAYER
  5
279
100
AcDbSymbolTableRecord
100
AcDbLayerTableRecord
  2
LAYER_44
 70
0
 62
7
  6
CONTINUOUS
370
-3
390
F
  0
LAYER
  5
27A
100
AcDbSymbolTableRecord
100
AcDbLayerTableRecord
  2
LIVELLO_1
 70
0
 62
7
  6
CONTINUOUS
370
-3
390
F
  0
LAYER
  5
27B
100
AcDbSymbolTableRecord
100
AcDbLayerTableRecord
  2
LOGO_RESIST-RESTYLING_10000
 70
0
 62
7
  6
CONTINUOUS
370
-3
390
F
  0
LAYER
  5
27C
100
AcDbSymbolTableRecord
100
AcDbLayerTableRecord
  2
L_SMD_5X5X2-VIMAR_200000
 70
0
 62
7
  6
CONTINUOUS
370
-3
390
F
  0
LAYER
  5
27D
100
AcDbSymbolTableRecord
100
AcDbLayerTableRecord
  2
L_SMD_5X5X2-VIMAR_200000_1
 70
0
 62
7
  6
CONTINUOUS
370
-3
390
F
  0
LAYER
  5
27E
100
AcDbSymbolTableRecord
100
AcDbLayerTableRecord
  2
L_SMD_5X5X2-VIMAR_200000_2
 70
0
 62
7
  6
CONTINUOUS
370
-3
390
F
  0
LAYER
  5
27F
100
AcDbSymbolTableRecord
100
AcDbLayerTableRecord
  2
MM3-MPAK-RF-VIMAR_120000
 70
0
 62
7
  6
CONTINUOUS
370
-3
390
F
  0
LAYER
  5
280
100
AcDbSymbolTableRecord
100
AcDbLayerTableRecord
  2
MM3-MPAK-RF-VIMAR_120000_1
 70
0
 62
7
  6
CONTINUOUS
370
-3
390
F
  0
LAYER
  5
281
100
AcDbSymbolTableRecord
100
AcDbLayerTableRecord
  2
MM3-MPAK-RF-VIMAR_120000_2
 70
0
 62
7
  6
CONTINUOUS
370
-3
390
F
  0
LAYER
  5
282
100
AcDbSymbolTableRecord
100
AcDbLayerTableRecord
  2
MM3-MPAK-RF-VIMAR_120000_3
 70
0
 62
7
  6
CONTINUOUS
370
-3
390
F
  0
LAYER
  5
283
100
AcDbSymbolTableRecord
100
AcDbLayerTableRecord
  2
MM4-ABS-VIMAR_180000
 70
0
 62
7
  6
CONTINUOUS
370
-3
390
F
  0
LAYER
  5
284
100
AcDbSymbolTableRecord
100
AcDbLayerTableRecord
  2
MM4-LSOP-1-VIMAR_230000
 70
0
 62
7
  6
CONTINUOUS
370
-3
390
F
  0
LAYER
  5
285
100
AcDbSymbolTableRecord
100
AcDbLayerTableRecord
  2
NO-PB_MARK_10000
 70
0
 62
7
  6
CONTINUOUS
370
-3
390
F
  0
LAYER
  5
286
100
AcDbSymbolTableRecord
100
AcDbLayerTableRecord
  2
NONE
 70
0
 62
7
  6
CONTINUOUS
370
-3
390
F
  0
LAYER
  5
287
100
AcDbSymbolTableRecord
100
AcDbLayerTableRecord
  2
NOTE
 70
0
 62
7
  6
CONTINUOUS
370
-3
390
F
  0
LAYER
  5
288
100
AcDbSymbolTableRecord
100
AcDbLayerTableRecord
  2
PIANI
 70
0
 62
7
  6
CONTINUOUS
370
-3
390
F
  0
LAYER
  5
289
100
AcDbSymbolTableRecord
100
AcDbLayerTableRecord
  2
PIANI_ORIGINE
 70
0
 62
7
  6
CONTINUOUS
370
-3
390
F
  0
LAYER
  5
28A
100
AcDbSymbolTableRecord
100
AcDbLayerTableRecord
  2
PUNTI
 70
0
 62
7
  6
CONTINUOUS
370
-3
390
F
  0
LAYER
  5
28B
100
AcDbSymbolTableRecord
100
AcDbLayerTableRecord
  2
RACCORDO
 70
0
 62
7
  6
CONTINUOUS
370
-3
390
F
  0
LAYER
  5
28C
100
AcDbSymbolTableRecord
100
AcDbLayerTableRecord
  2
RD-C100-1-VIMAR_900000
 70
0
 62
7
  6
CONTINUOUS
370
-3
390
F
  0
LAYER
  5
28D
100
AcDbSymbolTableRecord
100
AcDbLayerTableRecord
  2
RD-C150-10-VIMAR_1400000
 70
0
 62
7
  6
CONTINUOUS
370
-3
390
F
  0
LAYER
  5
28E
100
AcDbSymbolTableRecord
100
AcDbLayerTableRecord
  2
RD-C50-17-VIMAR_1300000
 70
0
 62
7
  6
CONTINUOUS
370
-3
390
F
  0
LAYER
  5
28F
100
AcDbSymbolTableRecord
100
AcDbLayerTableRecord
  2
RD-CE20-1-VIMAR_1100000
 70
0
 62
7
  6
CONTINUOUS
370
-3
390
F
  0
LAYER
  5
290
100
AcDbSymbolTableRecord
100
AcDbLayerTableRecord
  2
RD-CE20-1-VIMAR_1100000_1
 70
0
 62
7
  6
CONTINUOUS
370
-3
390
F
  0
LAYER
  5
291
100
AcDbSymbolTableRecord
100
AcDbLayerTableRecord
  2
RD-CE50-3-VIMAR_2000000
 70
0
 62
7
  6
CONTINUOUS
370
-3
390
F
  0
LAYER
  5
292
100
AcDbSymbolTableRecord
100
AcDbLayerTableRecord
  2
RD-CE50-3-VIMAR_2000000_1
 70
0
 62
7
  6
CONTINUOUS
370
-3
390
F
  0
LAYER
  5
293
100
AcDbSymbolTableRecord
100
AcDbLayerTableRecord
  2
RD-CE50-3-VIMAR_2000000_2
 70
0
 62
7
  6
CONTINUOUS
370
-3
390
F
  0
LAYER
  5
294
100
AcDbSymbolTableRecord
100
AcDbLayerTableRecord
  2
RD-CE75-5-VIMAR_2000000
 70
0
 62
7
  6
CONTINUOUS
370
-3
390
F
  0
LAYER
  5
295
100
AcDbSymbolTableRecord
100
AcDbLayerTableRecord
  2
RD-CE75-8-VIMAR_1950000
 70
0
 62
7
  6
CONTINUOUS
370
-3
390
F
  0
LAYER
  5
296
100
AcDbSymbolTableRecord
100
AcDbLayerTableRecord
  2
RD-L2-1-VIMAR_2030000
 70
0
 62
7
  6
CONTINUOUS
370
-3
390
F
  0
LAYER
  5
297
100
AcDbSymbolTableRecord
100
AcDbLayerTableRecord
  2
RGB__255__255__255__
 70
0
 62
7
  6
CONTINUOUS
370
-3
390
F
  0
LAYER
  5
298
100
AcDbSymbolTableRecord
100
AcDbLayerTableRecord
  2
RGB____0____0____0__
 70
0
 62
7
  6
CONTINUOUS
370
-3
390
F
  0
LAYER
  5
299
100
AcDbSymbolTableRecord
100
AcDbLayerTableRecord
  2
SIMBOLI
 70
0
 62
7
  6
CONTINUOUS
370
-3
390
F
  0
LAYER
  5
29A
100
AcDbSymbolTableRecord
100
AcDbLayerTableRecord
  2
SMUSSO
 70
0
 62
7
  6
CONTINUOUS
370
-3
390
F
  0
LAYER
  5
29B
100
AcDbSymbolTableRecord
100
AcDbLayerTableRecord
  2
SNAPLINE
 70
0
 62
7
  6
CONTINUOUS
370
-3
390
F
  0
LAYER
  5
29C
100
AcDbSymbolTableRecord
100
AcDbLayerTableRecord
  2
SOP8-T1-RF-FINE-VIMAR_150000
 70
0
 62
7
  6
CONTINUOUS
370
-3
390
F
  0
LAYER
  5
29D
100
AcDbSymbolTableRecord
100
AcDbLayerTableRecord
  2
SUPERFICI
 70
0
 62
7
  6
CONTINUOUS
370
-3
390
F
  0
LAYER
  5
29E
100
AcDbSymbolTableRecord
100
AcDbLayerTableRecord
  2
TR-64W_850000
 70
0
 62
7
  6
CONTINUOUS
370
-3
390
F
  0
LAYER
  5
29F
100
AcDbSymbolTableRecord
100
AcDbLayerTableRecord
  2
TR-PQ20-20_2550000
 70
0
 62
7
  6
CONTINUOUS
370
-3
390
F
  0
LAYER
  5
2A0
100
AcDbSymbolTableRecord
100
AcDbLayerTableRecord
  2
TRASH
 70
0
 62
7
  6
CONTINUOUS
370
-3
390
F
  0
LAYER
  5
2A1
100
AcDbSymbolTableRecord
100
AcDbLayerTableRecord
  2
UMT-250-FLOW_300000
 70
0
 62
7
  6
CONTINUOUS
370
-3
390
F
  0
LAYER
  5
2A2
100
AcDbSymbolTableRecord
100
AcDbLayerTableRecord
  2
WHITE
 70
0
 62
7
  6
CONTINUOUS
370
-3
390
F
  0
LAYER
  5
2A3
100
AcDbSymbolTableRecord
100
AcDbLayerTableRecord
  2
XSEC_DATUMS
 70
0
 62
7
  6
CONTINUOUS
370
-3
390
F
  0
LAYER
  5
2A4
100
AcDbSymbolTableRecord
100
AcDbLayerTableRecord
  2
_101
 70
0
 62
7
  6
CONTINUOUS
370
-3
390
F
  0
LAYER
  5
2A5
100
AcDbSymbolTableRecord
100
AcDbLayerTableRecord
  2
_1038
 70
0
 62
7
  6
CONTINUOUS
370
-3
390
F
  0
LAYER
  5
2A6
100
AcDbSymbolTableRecord
100
AcDbLayerTableRecord
  2
_1156
 70
0
 62
7
  6
CONTINUOUS
370
-3
390
F
  0
LAYER
  5
2A7
100
AcDbSymbolTableRecord
100
AcDbLayerTableRecord
  2
_1248
 70
0
 62
7
  6
CONTINUOUS
370
-3
390
F
  0
LAYER
  5
2A8
100
AcDbSymbolTableRecord
100
AcDbLayerTableRecord
  2
_1408
 70
0
 62
7
  6
CONTINUOUS
370
-3
390
F
  0
LAYER
  5
2A9
100
AcDbSymbolTableRecord
100
AcDbLayerTableRecord
  2
_1426
 70
0
 62
7
  6
CONTINUOUS
370
-3
390
F
  0
LAYER
  5
2AA
100
AcDbSymbolTableRecord
100
AcDbLayerTableRecord
  2
_1444
 70
0
 62
7
  6
CONTINUOUS
370
-3
390
F
  0
LAYER
  5
2AB
100
AcDbSymbolTableRecord
100
AcDbLayerTableRecord
  2
_1469
 70
0
 62
7
  6
CONTINUOUS
370
-3
390
F
  0
LAYER
  5
2AC
100
AcDbSymbolTableRecord
100
AcDbLayerTableRecord
  2
_1498
 70
0
 62
7
  6
CONTINUOUS
370
-3
390
F
  0
LAYER
  5
2AD
100
AcDbSymbolTableRecord
100
AcDbLayerTableRecord
  2
_1504
 70
0
 62
7
  6
CONTINUOUS
370
-3
390
F
  0
LAYER
  5
2AE
100
AcDbSymbolTableRecord
100
AcDbLayerTableRecord
  2
_1567
 70
0
 62
7
  6
CONTINUOUS
370
-3
390
F
  0
LAYER
  5
2AF
100
AcDbSymbolTableRecord
100
AcDbLayerTableRecord
  2
_1576
 70
0
 62
7
  6
CONTINUOUS
370
-3
390
F
  0
LAYER
  5
2B0
100
AcDbSymbolTableRecord
100
AcDbLayerTableRecord
  2
_1779
 70
0
 62
7
  6
CONTINUOUS
370
-3
390
F
  0
LAYER
  5
2B1
100
AcDbSymbolTableRecord
100
AcDbLayerTableRecord
  2
_182
 70
0
 62
7
  6
CONTINUOUS
370
-3
390
F
  0
LAYER
  5
2B2
100
AcDbSymbolTableRecord
100
AcDbLayerTableRecord
  2
_1869
 70
0
 62
7
  6
CONTINUOUS
370
-3
390
F
  0
LAYER
  5
2B3
100
AcDbSymbolTableRecord
100
AcDbLayerTableRecord
  2
_1968
 70
0
 62
7
  6
CONTINUOUS
370
-3
390
F
  0
LAYER
  5
2B4
100
AcDbSymbolTableRecord
100
AcDbLayerTableRecord
  2
_198
 70
0
 62
7
  6
CONTINUOUS
370
-3
390
F
  0
LAYER
  5
2B5
100
AcDbSymbolTableRecord
100
AcDbLayerTableRecord
  2
_2019
 70
0
 62
7
  6
CONTINUOUS
370
-3
390
F
  0
LAYER
  5
2B6
100
AcDbSymbolTableRecord
100
AcDbLayerTableRecord
  2
_2038
 70
0
 62
7
  6
CONTINUOUS
370
-3
390
F
  0
LAYER
  5
2B7
100
AcDbSymbolTableRecord
100
AcDbLayerTableRecord
  2
_2041
 70
0
 62
7
  6
CONTINUOUS
370
-3
390
F
  0
LAYER
  5
2B8
100
AcDbSymbolTableRecord
100
AcDbLayerTableRecord
  2
_2059
 70
0
 62
7
  6
CONTINUOUS
370
-3
390
F
  0
LAYER
  5
2B9
100
AcDbSymbolTableRecord
100
AcDbLayerTableRecord
  2
_2061
 70
0
 62
7
  6
CONTINUOUS
370
-3
390
F
  0
LAYER
  5
2BA
100
AcDbSymbolTableRecord
100
AcDbLayerTableRecord
  2
_2079
 70
0
 62
7
  6
CONTINUOUS
370
-3
390
F
  0
LAYER
  5
2BB
100
AcDbSymbolTableRecord
100
AcDbLayerTableRecord
  2
_2110
 70
0
 62
7
  6
CONTINUOUS
370
-3
390
F
  0
LAYER
  5
2BC
100
AcDbSymbolTableRecord
100
AcDbLayerTableRecord
  2
_2129
 70
0
 62
7
  6
CONTINUOUS
370
-3
390
F
  0
LAYER
  5
2BD
100
AcDbSymbolTableRecord
100
AcDbLayerTableRecord
  2
_2161
 70
0
 62
7
  6
CONTINUOUS
370
-3
390
F
  0
LAYER
  5
2BE
100
AcDbSymbolTableRecord
100
AcDbLayerTableRecord
  2
_243
 70
0
 62
7
  6
CONTINUOUS
370
-3
390
F
  0
LAYER
  5
2BF
100
AcDbSymbolTableRecord
100
AcDbLayerTableRecord
  2
_2499
 70
0
 62
7
  6
CONTINUOUS
370
-3
390
F
  0
LAYER
  5
2C0
100
AcDbSymbolTableRecord
100
AcDbLayerTableRecord
  2
_2519
 70
0
 62
7
  6
CONTINUOUS
370
-3
390
F
  0
LAYER
  5
2C1
100
AcDbSymbolTableRecord
100
AcDbLayerTableRecord
  2
_2547
 70
0
 62
7
  6
CONTINUOUS
370
-3
390
F
  0
LAYER
  5
2C2
100
AcDbSymbolTableRecord
100
AcDbLayerTableRecord
  2
_2599
 70
0
 62
7
  6
CONTINUOUS
370
-3
390
F
  0
LAYER
  5
2C3
100
AcDbSymbolTableRecord
100
AcDbLayerTableRecord
  2
_2628
 70
0
 62
7
  6
CONTINUOUS
370
-3
390
F
  0
LAYER
  5
2C4
100
AcDbSymbolTableRecord
100
AcDbLayerTableRecord
  2
_263
 70
0
 62
7
  6
CONTINUOUS
370
-3
390
F
  0
LAYER
  5
2C5
100
AcDbSymbolTableRecord
100
AcDbLayerTableRecord
  2
_2641
 70
0
 62
7
  6
CONTINUOUS
370
-3
390
F
  0
LAYER
  5
2C6
100
AcDbSymbolTableRecord
100
AcDbLayerTableRecord
  2
_2713
 70
0
 62
7
  6
CONTINUOUS
370
-3
390
F
  0
LAYER
  5
2C7
100
AcDbSymbolTableRecord
100
AcDbLayerTableRecord
  2
_2762
 70
0
 62
7
  6
CONTINUOUS
370
-3
390
F
  0
LAYER
  5
2C8
100
AcDbSymbolTableRecord
100
AcDbLayerTableRecord
  2
_2942
 70
0
 62
7
  6
CONTINUOUS
370
-3
390
F
  0
LAYER
  5
2C9
100
AcDbSymbolTableRecord
100
AcDbLayerTableRecord
  2
_3074
 70
0
 62
7
  6
CONTINUOUS
370
-3
390
F
  0
LAYER
  5
2CA
100
AcDbSymbolTableRecord
100
AcDbLayerTableRecord
  2
_3099
 70
0
 62
7
  6
CONTINUOUS
370
-3
390
F
  0
LAYER
  5
2CB
100
AcDbSymbolTableRecord
100
AcDbLayerTableRecord
  2
_311
 70
0
 62
7
  6
CONTINUOUS
370
-3
390
F
  0
LAYER
  5
2CC
100
AcDbSymbolTableRecord
100
AcDbLayerTableRecord
  2
_3119
 70
0
 62
7
  6
CONTINUOUS
370
-3
390
F
  0
LAYER
  5
2CD
100
AcDbSymbolTableRecord
100
AcDbLayerTableRecord
  2
_3167
 70
0
 62
7
  6
CONTINUOUS
370
-3
390
F
  0
LAYER
  5
2CE
100
AcDbSymbolTableRecord
100
AcDbLayerTableRecord
  2
_3198
 70
0
 62
7
  6
CONTINUOUS
370
-3
390
F
  0
LAYER
  5
2CF
100
AcDbSymbolTableRecord
100
AcDbLayerTableRecord
  2
_3228
 70
0
 62
7
  6
CONTINUOUS
370
-3
390
F
  0
LAYER
  5
2D0
100
AcDbSymbolTableRecord
100
AcDbLayerTableRecord
  2
_3313
 70
0
 62
7
  6
CONTINUOUS
370
-3
390
F
  0
LAYER
  5
2D1
100
AcDbSymbolTableRecord
100
AcDbLayerTableRecord
  2
_3318
 70
0
 62
7
  6
CONTINUOUS
370
-3
390
F
  0
LAYER
  5
2D2
100
AcDbSymbolTableRecord
100
AcDbLayerTableRecord
  2
_3342
 70
0
 62
7
  6
CONTINUOUS
370
-3
390
F
  0
LAYER
  5
2D3
100
AcDbSymbolTableRecord
100
AcDbLayerTableRecord
  2
_3351
 70
0
 62
7
  6
CONTINUOUS
370
-3
390
F
  0
LAYER
  5
2D4
100
AcDbSymbolTableRecord
100
AcDbLayerTableRecord
  2
_3355
 70
0
 62
7
  6
CONTINUOUS
370
-3
390
F
  0
LAYER
  5
2D5
100
AcDbSymbolTableRecord
100
AcDbLayerTableRecord
  2
_3373
 70
0
 62
7
  6
CONTINUOUS
370
-3
390
F
  0
LAYER
  5
2D6
100
AcDbSymbolTableRecord
100
AcDbLayerTableRecord
  2
_3385
 70
0
 62
7
  6
CONTINUOUS
370
-3
390
F
  0
LAYER
  5
2D7
100
AcDbSymbolTableRecord
100
AcDbLayerTableRecord
  2
_3400
 70
0
 62
7
  6
CONTINUOUS
370
-3
390
F
  0
LAYER
  5
2D8
100
AcDbSymbolTableRecord
100
AcDbLayerTableRecord
  2
_352
 70
0
 62
7
  6
CONTINUOUS
370
-3
390
F
  0
LAYER
  5
2D9
100
AcDbSymbolTableRecord
100
AcDbLayerTableRecord
  2
_3585
 70
0
 62
7
  6
CONTINUOUS
370
-3
390
F
  0
LAYER
  5
2DA
100
AcDbSymbolTableRecord
100
AcDbLayerTableRecord
  2
_3587
 70
0
 62
7
  6
CONTINUOUS
370
-3
390
F
  0
LAYER
  5
2DB
100
AcDbSymbolTableRecord
100
AcDbLayerTableRecord
  2
_3625
 70
0
 62
7
  6
CONTINUOUS
370
-3
390
F
  0
LAYER
  5
2DC
100
AcDbSymbolTableRecord
100
AcDbLayerTableRecord
  2
_3640
 70
0
 62
7
  6
CONTINUOUS
370
-3
390
F
  0
LAYER
  5
2DD
100
AcDbSymbolTableRecord
100
AcDbLayerTableRecord
  2
_3978
 70
0
 62
7
  6
CONTINUOUS
370
-3
390
F
  0
LAYER
  5
2DE
100
AcDbSymbolTableRecord
100
AcDbLayerTableRecord
  2
_3997
 70
0
 62
7
  6
CONTINUOUS
370
-3
390
F
  0
LAYER
  5
2DF
100
AcDbSymbolTableRecord
100
AcDbLayerTableRecord
  2
_4061
 70
0
 62
7
  6
CONTINUOUS
370
-3
390
F
  0
LAYER
  5
2E0
100
AcDbSymbolTableRecord
100
AcDbLayerTableRecord
  2
_4106
 70
0
 62
7
  6
CONTINUOUS
370
-3
390
F
  0
LAYER
  5
2E1
100
AcDbSymbolTableRecord
100
AcDbLayerTableRecord
  2
_4123
 70
0
 62
7
  6
CONTINUOUS
370
-3
390
F
  0
LAYER
  5
2E2
100
AcDbSymbolTableRecord
100
AcDbLayerTableRecord
  2
_4168
 70
0
 62
7
  6
CONTINUOUS
370
-3
390
F
  0
LAYER
  5
2E3
100
AcDbSymbolTableRecord
100
AcDbLayerTableRecord
  2
_422
 70
0
 62
7
  6
CONTINUOUS
370
-3
390
F
  0
LAYER
  5
2E4
100
AcDbSymbolTableRecord
100
AcDbLayerTableRecord
  2
_4225
 70
0
 62
7
  6
CONTINUOUS
370
-3
390
F
  0
LAYER
  5
2E5
100
AcDbSymbolTableRecord
100
AcDbLayerTableRecord
  2
_4445
 70
0
 62
7
  6
CONTINUOUS
370
-3
390
F
  0
LAYER
  5
2E6
100
AcDbSymbolTableRecord
100
AcDbLayerTableRecord
  2
_4498
 70
0
 62
7
  6
CONTINUOUS
370
-3
390
F
  0
LAYER
  5
2E7
100
AcDbSymbolTableRecord
100
AcDbLayerTableRecord
  2
_4558
 70
0
 62
7
  6
CONTINUOUS
370
-3
390
F
  0
LAYER
  5
2E8
100
AcDbSymbolTableRecord
100
AcDbLayerTableRecord
  2
_464
 70
0
 62
7
  6
CONTINUOUS
370
-3
390
F
  0
LAYER
  5
2E9
100
AcDbSymbolTableRecord
100
AcDbLayerTableRecord
  2
_4814
 70
0
 62
7
  6
CONTINUOUS
370
-3
390
F
  0
LAYER
  5
2EA
100
AcDbSymbolTableRecord
100
AcDbLayerTableRecord
  2
_4839
 70
0
 62
7
  6
CONTINUOUS
370
-3
390
F
  0
LAYER
  5
2EB
100
AcDbSymbolTableRecord
100
AcDbLayerTableRecord
  2
_4842
 70
0
 62
7
  6
CONTINUOUS
370
-3
390
F
  0
LAYER
  5
2EC
100
AcDbSymbolTableRecord
100
AcDbLayerTableRecord
  2
_4908
 70
0
 62
7
  6
CONTINUOUS
370
-3
390
F
  0
LAYER
  5
2ED
100
AcDbSymbolTableRecord
100
AcDbLayerTableRecord
  2
_4922
 70
0
 62
7
  6
CONTINUOUS
370
-3
390
F
  0
LAYER
  5
2EE
100
AcDbSymbolTableRecord
100
AcDbLayerTableRecord
  2
_5021
 70
0
 62
7
  6
CONTINUOUS
370
-3
390
F
  0
LAYER
  5
2EF
100
AcDbSymbolTableRecord
100
AcDbLayerTableRecord
  2
_504
 70
0
 62
7
  6
CONTINUOUS
370
-3
390
F
  0
LAYER
  5
2F0
100
AcDbSymbolTableRecord
100
AcDbLayerTableRecord
  2
_5123
 70
0
 62
7
  6
CONTINUOUS
370
-3
390
F
  0
LAYER
  5
2F1
100
AcDbSymbolTableRecord
100
AcDbLayerTableRecord
  2
_5156
 70
0
 62
7
  6
CONTINUOUS
370
-3
390
F
  0
LAYER
  5
2F2
100
AcDbSymbolTableRecord
100
AcDbLayerTableRecord
  2
_5169
 70
0
 62
7
  6
CONTINUOUS
370
-3
390
F
  0
LAYER
  5
2F3
100
AcDbSymbolTableRecord
100
AcDbLayerTableRecord
  2
_5182
 70
0
 62
7
  6
CONTINUOUS
370
-3
390
F
  0
LAYER
  5
2F4
100
AcDbSymbolTableRecord
100
AcDbLayerTableRecord
  2
_5275
 70
0
 62
7
  6
CONTINUOUS
370
-3
390
F
  0
LAYER
  5
2F5
100
AcDbSymbolTableRecord
100
AcDbLayerTableRecord
  2
_5306
 70
0
 62
7
  6
CONTINUOUS
370
-3
390
F
  0
LAYER
  5
2F6
100
AcDbSymbolTableRecord
100
AcDbLayerTableRecord
  2
_5453
 70
0
 62
7
  6
CONTINUOUS
370
-3
390
F
  0
LAYER
  5
2F7
100
AcDbSymbolTableRecord
100
AcDbLayerTableRecord
  2
_5468
 70
0
 62
7
  6
CONTINUOUS
370
-3
390
F
  0
LAYER
  5
2F8
100
AcDbSymbolTableRecord
100
AcDbLayerTableRecord
  2
_55
 70
0
 62
7
  6
CONTINUOUS
370
-3
390
F
  0
LAYER
  5
2F9
100
AcDbSymbolTableRecord
100
AcDbLayerTableRecord
  2
_5533
 70
0
 62
7
  6
CONTINUOUS
370
-3
390
F
  0
LAYER
  5
2FA
100
AcDbSymbolTableRecord
100
AcDbLayerTableRecord
  2
_5598
 70
0
 62
7
  6
CONTINUOUS
370
-3
390
F
  0
LAYER
  5
2FB
100
AcDbSymbolTableRecord
100
AcDbLayerTableRecord
  2
_5626
 70
0
 62
7
  6
CONTINUOUS
370
-3
390
F
  0
LAYER
  5
2FC
100
AcDbSymbolTableRecord
100
AcDbLayerTableRecord
  2
_5658
 70
0
 62
7
  6
CONTINUOUS
370
-3
390
F
  0
LAYER
  5
2FD
100
AcDbSymbolTableRecord
100
AcDbLayerTableRecord
  2
_5688
 70
0
 62
7
  6
CONTINUOUS
370
-3
390
F
  0
LAYER
  5
2FE
100
AcDbSymbolTableRecord
100
AcDbLayerTableRecord
  2
_5742
 70
0
 62
7
  6
CONTINUOUS
370
-3
390
F
  0
LAYER
  5
2FF
100
AcDbSymbolTableRecord
100
AcDbLayerTableRecord
  2
_5758
 70
0
 62
7
  6
CONTINUOUS
370
-3
390
F
  0
LAYER
  5
300
100
AcDbSymbolTableRecord
100
AcDbLayerTableRecord
  2
_5783
 70
0
 62
7
  6
CONTINUOUS
370
-3
390
F
  0
LAYER
  5
301
100
AcDbSymbolTableRecord
100
AcDbLayerTableRecord
  2
_5836
 70
0
 62
7
  6
CONTINUOUS
370
-3
390
F
  0
LAYER
  5
302
100
AcDbSymbolTableRecord
100
AcDbLayerTableRecord
  2
_5874
 70
0
 62
7
  6
CONTINUOUS
370
-3
390
F
  0
LAYER
  5
303
100
AcDbSymbolTableRecord
100
AcDbLayerTableRecord
  2
_5903
 70
0
 62
7
  6
CONTINUOUS
370
-3
390
F
  0
LAYER
  5
304
100
AcDbSymbolTableRecord
100
AcDbLayerTableRecord
  2
_5960
 70
0
 62
7
  6
CONTINUOUS
370
-3
390
F
  0
LAYER
  5
305
100
AcDbSymbolTableRecord
100
AcDbLayerTableRecord
  2
_5977
 70
0
 62
7
  6
CONTINUOUS
370
-3
390
F
  0
LAYER
  5
306
100
AcDbSymbolTableRecord
100
AcDbLayerTableRecord
  2
_6011
 70
0
 62
7
  6
CONTINUOUS
370
-3
390
F
  0
LAYER
  5
307
100
AcDbSymbolTableRecord
100
AcDbLayerTableRecord
  2
_6033
 70
0
 62
7
  6
CONTINUOUS
370
-3
390
F
  0
LAYER
  5
308
100
AcDbSymbolTableRecord
100
AcDbLayerTableRecord
  2
_610
 70
0
 62
7
  6
CONTINUOUS
370
-3
390
F
  0
LAYER
  5
309
100
AcDbSymbolTableRecord
100
AcDbLayerTableRecord
  2
_6219
 70
0
 62
7
  6
CONTINUOUS
370
-3
390
F
  0
LAYER
  5
30A
100
AcDbSymbolTableRecord
100
AcDbLayerTableRecord
  2
_6305
 70
0
 62
7
  6
CONTINUOUS
370
-3
390
F
  0
LAYER
  5
30B
100
AcDbSymbolTableRecord
100
AcDbLayerTableRecord
  2
_6332
 70
0
 62
7
  6
CONTINUOUS
370
-3
390
F
  0
LAYER
  5
30C
100
AcDbSymbolTableRecord
100
AcDbLayerTableRecord
  2
_6380
 70
0
 62
7
  6
CONTINUOUS
370
-3
390
F
  0
LAYER
  5
30D
100
AcDbSymbolTableRecord
100
AcDbLayerTableRecord
  2
_6452
 70
0
 62
7
  6
CONTINUOUS
370
-3
390
F
  0
LAYER
  5
30E
100
AcDbSymbolTableRecord
100
AcDbLayerTableRecord
  2
_646
 70
0
 62
7
  6
CONTINUOUS
370
-3
390
F
  0
LAYER
  5
30F
100
AcDbSymbolTableRecord
100
AcDbLayerTableRecord
  2
_6481
 70
0
 62
7
  6
CONTINUOUS
370
-3
390
F
  0
LAYER
  5
310
100
AcDbSymbolTableRecord
100
AcDbLayerTableRecord
  2
_6571
 70
0
 62
7
  6
CONTINUOUS
370
-3
390
F
  0
LAYER
  5
311
100
AcDbSymbolTableRecord
100
AcDbLayerTableRecord
  2
_660
 70
0
 62
7
  6
CONTINUOUS
370
-3
390
F
  0
LAYER
  5
312
100
AcDbSymbolTableRecord
100
AcDbLayerTableRecord
  2
_6664
 70
0
 62
7
  6
CONTINUOUS
370
-3
390
F
  0
LAYER
  5
313
100
AcDbSymbolTableRecord
100
AcDbLayerTableRecord
  2
_6753
 70
0
 62
7
  6
CONTINUOUS
370
-3
390
F
  0
LAYER
  5
314
100
AcDbSymbolTableRecord
100
AcDbLayerTableRecord
  2
_6926
 70
0
 62
7
  6
CONTINUOUS
370
-3
390
F
  0
LAYER
  5
315
100
AcDbSymbolTableRecord
100
AcDbLayerTableRecord
  2
_7024
 70
0
 62
7
  6
CONTINUOUS
370
-3
390
F
  0
LAYER
  5
316
100
AcDbSymbolTableRecord
100
AcDbLayerTableRecord
  2
_7059
 70
0
 62
7
  6
CONTINUOUS
370
-3
390
F
  0
LAYER
  5
317
100
AcDbSymbolTableRecord
100
AcDbLayerTableRecord
  2
_72
 70
0
 62
7
  6
CONTINUOUS
370
-3
390
F
  0
LAYER
  5
318
100
AcDbSymbolTableRecord
100
AcDbLayerTableRecord
  2
_7282
 70
0
 62
7
  6
CONTINUOUS
370
-3
390
F
  0
LAYER
  5
319
100
AcDbSymbolTableRecord
100
AcDbLayerTableRecord
  2
_7328
 70
0
 62
7
  6
CONTINUOUS
370
-3
390
F
  0
LAYER
  5
31A
100
AcDbSymbolTableRecord
100
AcDbLayerTableRecord
  2
_7378
 70
0
 62
7
  6
CONTINUOUS
370
-3
390
F
  0
LAYER
  5
31B
100
AcDbSymbolTableRecord
100
AcDbLayerTableRecord
  2
_7441
 70
0
 62
7
  6
CONTINUOUS
370
-3
390
F
  0
LAYER
  5
31C
100
AcDbSymbolTableRecord
100
AcDbLayerTableRecord
  2
_7501
 70
0
 62
7
  6
CONTINUOUS
370
-3
390
F
  0
LAYER
  5
31D
100
AcDbSymbolTableRecord
100
AcDbLayerTableRecord
  2
_7506
 70
0
 62
7
  6
CONTINUOUS
370
-3
390
F
  0
LAYER
  5
31E
100
AcDbSymbolTableRecord
100
AcDbLayerTableRecord
  2
_7520
 70
0
 62
7
  6
CONTINUOUS
370
-3
390
F
  0
LAYER
  5
31F
100
AcDbSymbolTableRecord
100
AcDbLayerTableRecord
  2
_7543
 70
0
 62
7
  6
CONTINUOUS
370
-3
390
F
  0
LAYER
  5
320
100
AcDbSymbolTableRecord
100
AcDbLayerTableRecord
  2
_7594
 70
0
 62
7
  6
CONTINUOUS
370
-3
390
F
  0
LAYER
  5
321
100
AcDbSymbolTableRecord
100
AcDbLayerTableRecord
  2
_7603
 70
0
 62
7
  6
CONTINUOUS
370
-3
390
F
  0
LAYER
  5
322
100
AcDbSymbolTableRecord
100
AcDbLayerTableRecord
  2
_7631
 70
0
 62
7
  6
CONTINUOUS
370
-3
390
F
  0
LAYER
  5
323
100
AcDbSymbolTableRecord
100
AcDbLayerTableRecord
  2
_7679
 70
0
 62
7
  6
CONTINUOUS
370
-3
390
F
  0
LAYER
  5
324
100
AcDbSymbolTableRecord
100
AcDbLayerTableRecord
  2
_7685
 70
0
 62
7
  6
CONTINUOUS
370
-3
390
F
  0
LAYER
  5
325
100
AcDbSymbolTableRecord
100
AcDbLayerTableRecord
  2
_7711
 70
0
 62
7
  6
CONTINUOUS
370
-3
390
F
  0
LAYER
  5
326
100
AcDbSymbolTableRecord
100
AcDbLayerTableRecord
  2
_7755
 70
0
 62
7
  6
CONTINUOUS
370
-3
390
F
  0
LAYER
  5
327
100
AcDbSymbolTableRecord
100
AcDbLayerTableRecord
  2
_7764
 70
0
 62
7
  6
CONTINUOUS
370
-3
390
F
  0
LAYER
  5
328
100
AcDbSymbolTableRecord
100
AcDbLayerTableRecord
  2
_7960
 70
0
 62
7
  6
CONTINUOUS
370
-3
390
F
  0
LAYER
  5
329
100
AcDbSymbolTableRecord
100
AcDbLayerTableRecord
  2
_7993
 70
0
 62
7
  6
CONTINUOUS
370
-3
390
F
  0
LAYER
  5
32A
100
AcDbSymbolTableRecord
100
AcDbLayerTableRecord
  2
_805
 70
0
 62
7
  6
CONTINUOUS
370
-3
390
F
  0
LAYER
  5
32B
100
AcDbSymbolTableRecord
100
AcDbLayerTableRecord
  2
_827
 70
0
 62
7
  6
CONTINUOUS
370
-3
390
F
  0
LAYER
  5
32C
100
AcDbSymbolTableRecord
100
AcDbLayerTableRecord
  2
_8299
 70
0
 62
7
  6
CONTINUOUS
370
-3
390
F
  0
LAYER
  5
32D
100
AcDbSymbolTableRecord
100
AcDbLayerTableRecord
  2
_8325
 70
0
 62
7
  6
CONTINUOUS
370
-3
390
F
  0
LAYER
  5
32E
100
AcDbSymbolTableRecord
100
AcDbLayerTableRecord
  2
_834
 70
0
 62
7
  6
CONTINUOUS
370
-3
390
F
  0
LAYER
  5
32F
100
AcDbSymbolTableRecord
100
AcDbLayerTableRecord
  2
_8436
 70
0
 62
7
  6
CONTINUOUS
370
-3
390
F
  0
LAYER
  5
330
100
AcDbSymbolTableRecord
100
AcDbLayerTableRecord
  2
_8442
 70
0
 62
7
  6
CONTINUOUS
370
-3
390
F
  0
LAYER
  5
331
100
AcDbSymbolTableRecord
100
AcDbLayerTableRecord
  2
_8451
 70
0
 62
7
  6
CONTINUOUS
370
-3
390
F
  0
LAYER
  5
332
100
AcDbSymbolTableRecord
100
AcDbLayerTableRecord
  2
_8528
 70
0
 62
7
  6
CONTINUOUS
370
-3
390
F
  0
LAYER
  5
333
100
AcDbSymbolTableRecord
100
AcDbLayerTableRecord
  2
_973
 70
0
 62
7
  6
CONTINUOUS
370
-3
390
F
  0
LAYER
  5
334
100
AcDbSymbolTableRecord
100
AcDbLayerTableRecord
  2
___SHELL
 70
0
 62
7
  6
CONTINUOUS
370
-3
390
F
  0
ENDTAB
  0
TABLE
  2
STYLE
  5
3
100
AcDbSymbolTable
 70
1
  0
STYLE
  5
11
100
AcDbSymbolTableRecord
100
AcDbTextStyleTableRecord
  2
STANDARD
 70
0
 40
0.0
 41
0.8
 50
0.0
 71
0
 42
0.2
  3
txt
  4

  0
STYLE
  5
335
100
AcDbSymbolTableRecord
100
AcDbTextStyleTableRecord
  2
TEXTSTYLE_1
 70
0
 40
0.0
 41
0.8
 50
0.0
 71
0
 42
0.2
  3
gdt
  4

  0
ENDTAB
  0
TABLE
  2
VIEW
  5
6
100
AcDbSymbolTable
 70
0
  0
ENDTAB
  0
TABLE
  2
UCS
  5
7
100
AcDbSymbolTable
 70
0
  0
ENDTAB
  0
TABLE
  2
APPID
  5
9
100
AcDbSymbolTable
 70
1
  0
APPID
  5
336
100
AcDbSymbolTableRecord
100
AcDbRegAppTableRecord
  2
ACAD
 70
0
  0
ENDTAB
  0
TABLE
  2
BLOCK_RECORD
  5
1
100
AcDbSymbolTable
 70
0
  0
BLOCK_RECORD
  5
337
100
AcDbSymbolTableRecord
100
AcDbBlockTableRecord
  2
*Model_Space
  0
BLOCK_RECORD
  5
338
100
AcDbSymbolTableRecord
100
AcDbBlockTableRecord
  2
*Paper_Space
  0
BLOCK_RECORD
  5
339
100
AcDbSymbolTableRecord
100
AcDbBlockTableRecord
  2
_FILLED
  0
ENDTAB
  0
TABLE
  2
DIMSTYLE
  5
A
100
AcDbSymbolTable
 70
1
100
AcDbDimStyleTable
 71
0
  0
DIMSTYLE
105
33A
100
AcDbSymbolTableRecord
100
AcDbDimStyleTableRecord
  2
STANDARD
 70
0
  3

  4

 40
1.0
 41
3.0
 42
0.5
 43
0.38
 44
1.5
 45
0.0
 46
0.0
 47
0.01
 48
0.01
140
3.0
141
0.09
142
0.0
143
25.4
144
1.0
145
0.0
146
1.0
147
0.625
 71
1.0
 72
0.0
 73
0
 74
0
 75
0
 76
0
 77
1
 78
8
 79
2
170
0
171
1
172
0
173
0
174
0
175
0
176
0
177
0
178
0
270
2
179
2
271
2
272
2
273
2
274
2
275
0
280
0
281
0
282
0
283
1
284
8
285
0
286
0
287
3
288
0
340
11
278
44
341
339
342
339
343
339
344
339
  0
ENDTAB
  0
ENDSEC
  0
SECTION
  2
BLOCKS
  0
BLOCK
  5
20
100
AcDbEntity
  8
0
100
AcDbBlockBegin
  2
*Model_Space
 70
0
 10
0.0
 20
0.0
 30
0.0
  3
*Model_Space
  1

  0
ENDBLK
  5
21
100
AcDbEntity
  8
0
100
AcDbBlockEnd
  0
BLOCK
  5
1C
100
AcDbEntity
  8
0
100
AcDbBlockBegin
  2
*Paper_Space
 70
0
 10
0.0
 20
0.0
 30
0.0
  3
*Paper_Space
  1

  0
ENDBLK
  5
1D
100
AcDbEntity
  8
0
100
AcDbBlockEnd
  0
BLOCK
  5
33B
100
AcDbEntity
  8
0
100
AcDbBlockBegin
  2
_FILLED
 70
64
 10
0.0
 20
0.0
  3
_FILLED
  1

  0
SOLID
  5
33C
100
AcDbEntity
  8
0
  6
BYBLOCK
 62
0
100
AcDbTrace
 10
0.0
 20
0.0
 11
-1.0
 21
0.3166666667
 12
-1.0
 22
-0.3166666667
 13
-1.0
 23
-0.3166666667
  0
ENDBLK
  5
33D
100
AcDbEntity
  8
0
  6
BYBLOCK
 62
0
100
AcDbBlockEnd
  0
ENDSEC
  0
SECTION
  2
ENTITIES
  0
LINE
  5
33E
100
AcDbEntity
  8
RACCORDO
100
AcDbLine
 62
7
  6
CONTINUOUS
 10
-31.8430335203
 20
-59.235102184
 11
-31.4952464103
 21
-59.235102184
  0
LINE
  5
33F
100
AcDbEntity
  8
RACCORDO
100
AcDbLine
 62
7
  6
CONTINUOUS
 10
-21.3905160207
 20
-59.235102184
 11
37.9572710893
 21
-59.235102184
  0
LINE
  5
340
100
AcDbEntity
  8
DRAFT
100
AcDbLine
 62
7
  6
CONTINUOUS
 10
-31.4428812155
 20
-59.1827369892
 11
-21.4428812155
 21
-59.1827369892
  0
LINE
  5
341
100
AcDbEntity
  8
RACCORDO
100
AcDbLine
 62
7
  6
CONTINUOUS
 10
-31.7383031308
 20
-59.1303717944
 11
37.8525406998
 21
-59.1303717944
  0
LINE
  5
342
100
AcDbEntity
  8
ASSI
100
AcDbLine
 62
7
  6
CONTINUOUS
 10
-20.4428812155
 20
-57.835102184
 11
37.5071187845
 21
-57.835102184
  0
LINE
  5
343
100
AcDbEntity
  8
0
100
AcDbLine
 62
7
  6
CONTINUOUS
 10
-25.4428812155
 20
-57.235102184
 11
-27.4428812155
 21
-57.235102184
  0
LINE
  5
344
100
AcDbEntity
  8
DRAFT
100
AcDbLine
 62
7
  6
CONTINUOUS
 10
-21.3905160207
 20
-59.235102184
 11
-21.4428812155
 21
-59.1827369892
  0
LINE
  5
345
100
AcDbEntity
  8
0
100
AcDbLine
 62
7
  6
CONTINUOUS
 10
-27.4428812155
 20
-53.235102184
 11
-25.4428812155
 21
-53.235102184
  0
LINE
  5
346
100
AcDbEntity
  8
0
100
AcDbLine
 62
7
  6
CONTINUOUS
 10
-6.1428812155
 20
-51.535102184
 11
-3.9428812155
 21
-51.535102184
  0
LINE
  5
347
100
AcDbEntity
  8
0
100
AcDbLine
 62
7
  6
CONTINUOUS
 10
10.0571187845
 20
-51.535102184
 11
12.2571187845
 21
-51.535102184
  0
LINE
  5
348
100
AcDbEntity
  8
0
100
AcDbLine
 62
7
  6
CONTINUOUS
 10
33.0571187845
 20
-51.535102184
 11
35.2571187845
 21
-51.535102184
  0
LINE
  5
349
100
AcDbEntity
  8
DRAFT
100
AcDbLine
 62
7
  6
CONTINUOUS
 10
-20.4428812155
 20
-50.935102184
 11
37.5071187845
 21
-50.935102184
  0
LINE
  5
34A
100
AcDbEntity
  8
DRAFT
100
AcDbLine
 62
250
  6
CONTINUOUS
 10
33.7722086546
 20
-49.085102184
 11
33.8071187845
 21
-49.085102184
  0
LINE
  5
34B
100
AcDbEntity
  8
ASSI
100
AcDbLine
 62
7
  6
CONTINUOUS
 10
37.6559716469
 20
-31.7929938392
 11
37.602300628
 21
-31.8023850506
  0
LINE
  5
34C
100
AcDbEntity
  8
DRAFT
100
AcDbLine
 62
7
  6
CONTINUOUS
 10
37.6559716469
 20
-31.7929938392
 11
37.602300628
 21
-31.8023850506
  0
LINE
  5
34D
100
AcDbEntity
  8
DRAFT
100
AcDbLine
 62
7
  6
CONTINUOUS
 10
-32.8428812155
 20
-40.335102184
 11
-31.4312823583
 21
-40.335102184
  0
LINE
  5
34E
100
AcDbEntity
  8
DRAFT
100
AcDbLine
 62
7
  6
CONTINUOUS
 10
37.5455199273
 20
-40.335102184
 11
38.9571187845
 21
-40.335102184
  0
LINE
  5
34F
100
AcDbEntity
  8
ASSI
100
AcDbLine
 62
7
  6
CONTINUOUS
 10
-31.4912492674
 20
-40.235102184
 11
-32.8428812155
 21
-40.235102184
  0
LINE
  5
350
100
AcDbEntity
  8
RACCORDO
100
AcDbLine
 62
7
  6
CONTINUOUS
 10
-31.4912492674
 20
-40.235102184
 11
-32.8428812155
 21
-40.235102184
  0
LINE
  5
351
100
AcDbEntity
  8
ASSI
100
AcDbLine
 62
7
  6
CONTINUOUS
 10
37.6054868364
 20
-40.235102184
 11
38.9571187845
 21
-40.235102184
  0
LINE
  5
352
100
AcDbEntity
  8
RACCORDO
100
AcDbLine
 62
7
  6
CONTINUOUS
 10
37.6054868364
 20
-40.235102184
 11
38.9571187845
 21
-40.235102184
  0
LINE
  5
353
100
AcDbEntity
  8
ASSI
100
AcDbLine
 62
250
  6
CONTINUOUS
 10
38.8558794079
 20
-39.235102184
 11
37.6892711481
 21
-39.235102184
  0
LINE
  5
354
100
AcDbEntity
  8
RACCORDO
100
AcDbLine
 62
250
  6
CONTINUOUS
 10
38.8558794079
 20
-39.235102184
 11
37.6892711481
 21
-39.235102184
  0
LINE
  5
355
100
AcDbEntity
  8
ASSI
100
AcDbLine
 62
250
  6
CONTINUOUS
 10
-31.575033579
 20
-39.235102184
 11
-32.7416418389
 21
-39.235102184
  0
LINE
  5
356
100
AcDbEntity
  8
RACCORDO
100
AcDbLine
 62
250
  6
CONTINUOUS
 10
-31.575033579
 20
-39.235102184
 11
-32.7416418389
 21
-39.235102184
  0
LINE
  5
357
100
AcDbEntity
  8
DRAFT
100
AcDbLine
 62
7
  6
CONTINUOUS
 10
-32.7381508259
 20
-22.3995488597
 11
-32.8428812155
 21
-22.085102184
  0
LINE
  5
358
100
AcDbEntity
  8
ASSI
100
AcDbLine
 62
7
  6
CONTINUOUS
 10
-32.9428812155
 20
41.9149739685
 11
-32.9428812155
 21
16.9711081384
  0
LINE
  5
359
100
AcDbEntity
  8
RACCORDO
100
AcDbLine
 62
7
  6
CONTINUOUS
 10
-32.9428812155
 20
41.9149739685
 11
-32.9428812155
 21
16.9711081384
  0
LINE
  5
35A
100
AcDbEntity
  8
ASSI
100
AcDbLine
 62
7
  6
CONTINUOUS
 10
-32.9428812155
 20
-27.835102184
 11
-32.9428812155
 21
-50.5851783364
  0
LINE
  5
35B
100
AcDbEntity
  8
RACCORDO
100
AcDbLine
 62
7
  6
CONTINUOUS
 10
-32.9428812155
 20
-27.835102184
 11
-32.9428812155
 21
-50.5851783364
  0
LINE
  5
35C
100
AcDbEntity
  8
ASSI
100
AcDbLine
 62
7
  6
CONTINUOUS
 10
-32.8817884882
 20
16.664897816
 11
-32.8817884882
 21
-24.335102184
  0
LINE
  5
35D
100
AcDbEntity
  8
0
100
AcDbLine
 62
7
  6
CONTINUOUS
 10
-32.8817884882
 20
16.664897816
 11
-32.8817884882
 21
-24.335102184
  0
LINE
  5
35E
100
AcDbEntity
  8
RACCORDO
100
AcDbLine
 62
7
  6
CONTINUOUS
 10
-32.8428812155
 20
49.5650501209
 11
-32.8428812155
 21
31.664897816
  0
LINE
  5
35F
100
AcDbEntity
  8
ASSI
100
AcDbLine
 62
7
  6
CONTINUOUS
 10
-32.8428812155
 20
31.564897816
 11
-32.8428812155
 21
19.764897816
  0
LINE
  5
360
100
AcDbEntity
  8
DRAFT
100
AcDbLine
 62
7
  6
CONTINUOUS
 10
-32.8428812155
 20
31.564897816
 11
-32.8428812155
 21
19.764897816
  0
LINE
  5
361
100
AcDbEntity
  8
ASSI
100
AcDbLine
 62
7
  6
CONTINUOUS
 10
-32.8428812155
 20
-28.435102184
 11
-32.8428812155
 21
-40.235102184
  0
LINE
  5
362
100
AcDbEntity
  8
DRAFT
100
AcDbLine
 62
7
  6
CONTINUOUS
 10
-32.8428812155
 20
-28.435102184
 11
-32.8428812155
 21
-40.235102184
  0
LINE
  5
363
100
AcDbEntity
  8
RACCORDO
100
AcDbLine
 62
7
  6
CONTINUOUS
 10
-32.8428812155
 20
-40.335102184
 11
-32.8428812155
 21
-58.2352544888
  0
LINE
  5
364
100
AcDbEntity
  8
DRAFT
100
AcDbLine
 62
7
  6
CONTINUOUS
 10
-32.8428812155
 20
-28.335102184
 11
-32.8428812155
 21
19.664897816
  0
LINE
  5
365
100
AcDbEntity
  8
ASSI
100
AcDbLine
 62
7
  6
CONTINUOUS
 10
-32.83066267
 20
-36.985102184
 11
-32.83066267
 21
-31.685102184
  0
LINE
  5
366
100
AcDbEntity
  8
DRAFT
100
AcDbLine
 62
7
  6
CONTINUOUS
 10
-32.83066267
 20
-36.985102184
 11
-32.83066267
 21
-31.685102184
  0
LINE
  5
367
100
AcDbEntity
  8
ASSI
100
AcDbLine
 62
7
  6
CONTINUOUS
 10
-32.83066267
 20
23.014897816
 11
-32.83066267
 21
28.314897816
  0
LINE
  5
368
100
AcDbEntity
  8
DRAFT
100
AcDbLine
 62
7
  6
CONTINUOUS
 10
-32.83066267
 20
23.014897816
 11
-32.83066267
 21
28.314897816
  0
LINE
  5
369
100
AcDbEntity
  8
SMUSSO
100
AcDbLine
 62
7
  6
CONTINUOUS
 10
-32.7992435532
 20
14.2459172643
 11
-32.7992435532
 21
16.0459172643
  0
LINE
  5
36A
100
AcDbEntity
  8
SMUSSO
100
AcDbLine
 62
7
  6
CONTINUOUS
 10
-32.8121378606
 20
13.5072028841
 11
-32.7992435532
 21
14.2459172643
  0
LINE
  5
36B
100
AcDbEntity
  8
DRAFT
100
AcDbLine
 62
7
  6
CONTINUOUS
 10
-32.7381508259
 20
16.2293444917
 11
-32.7992435532
 21
16.0459172643
  0
LINE
  5
36C
100
AcDbEntity
  8
SMUSSO
100
AcDbLine
 62
7
  6
CONTINUOUS
 10
-32.8121378606
 20
13.5072028841
 11
-32.8428812155
 21
13.414897816
  0
LINE
  5
36D
100
AcDbEntity
  8
DRAFT
100
AcDbLine
 62
7
  6
CONTINUOUS
 10
38.9449002391
 20
-31.685102184
 11
38.8877347493
 21
-31.6900958786
  0
LINE
  5
36E
100
AcDbEntity
  8
ASSI
100
AcDbLine
 62
7
  6
CONTINUOUS
 10
37.6563793471
 20
-31.797661001
 11
37.602300628
 21
-31.8023850506
  0
LINE
  5
36F
100
AcDbEntity
  8
DRAFT
100
AcDbLine
 62
7
  6
CONTINUOUS
 10
37.6563793471
 20
-31.797661001
 11
37.602300628
 21
-31.8023850506
  0
LINE
  5
370
100
AcDbEntity
  8
ASSI
100
AcDbLine
 62
7
  6
CONTINUOUS
 10
-31.5421417781
 20
-36.8725433669
 11
-31.488063059
 21
-36.8678193173
  0
LINE
  5
371
100
AcDbEntity
  8
DRAFT
100
AcDbLine
 62
7
  6
CONTINUOUS
 10
-31.5421417781
 20
-36.8725433669
 11
-31.488063059
 21
-36.8678193173
  0
LINE
  5
372
100
AcDbEntity
  8
ASSI
100
AcDbLine
 62
7
  6
CONTINUOUS
 10
-31.5625633419
 20
-37.035102184
 11
-31.975033579
 21
-37.035102184
  0
LINE
  5
373
100
AcDbEntity
  8
0
100
AcDbLine
 62
7
  6
CONTINUOUS
 10
-31.5625633419
 20
-37.035102184
 11
-31.975033579
 21
-37.035102184
  0
LINE
  5
374
100
AcDbEntity
  8
ASSI
100
AcDbLine
 62
7
  6
CONTINUOUS
 10
37.6768009109
 20
-37.035102184
 11
38.0892711481
 21
-37.035102184
  0
LINE
  5
375
100
AcDbEntity
  8
0
100
AcDbLine
 62
7
  6
CONTINUOUS
 10
37.6768009109
 20
-37.035102184
 11
38.0892711481
 21
-37.035102184
  0
LINE
  5
376
100
AcDbEntity
  8
ASSI
100
AcDbLine
 62
7
  6
CONTINUOUS
 10
38.9449002391
 20
-36.985102184
 11
38.8872985248
 21
-36.985102184
  0
LINE
  5
377
100
AcDbEntity
  8
DRAFT
100
AcDbLine
 62
7
  6
CONTINUOUS
 10
38.9449002391
 20
-36.985102184
 11
38.8872985248
 21
-36.985102184
  0
LINE
  5
378
100
AcDbEntity
  8
ASSI
100
AcDbLine
 62
7
  6
CONTINUOUS
 10
-32.7730609558
 20
-36.985102184
 11
-32.83066267
 21
-36.985102184
  0
LINE
  5
379
100
AcDbEntity
  8
DRAFT
100
AcDbLine
 62
7
  6
CONTINUOUS
 10
-32.7730609558
 20
-36.985102184
 11
-32.83066267
 21
-36.985102184
  0
LINE
  5
37A
100
AcDbEntity
  8
DRAFT
100
AcDbLine
 62
7
  6
CONTINUOUS
 10
-31.5417340779
 20
-36.635102184
 11
-31.3544800727
 21
-36.635102184
  0
LINE
  5
37B
100
AcDbEntity
  8
DRAFT
100
AcDbLine
 62
7
  6
CONTINUOUS
 10
37.4687176417
 20
-36.635102184
 11
37.6559716469
 21
-36.635102184
  0
LINE
  5
37C
100
AcDbEntity
  8
ASSI
100
AcDbLine
 62
7
  6
CONTINUOUS
 10
-31.5421417781
 20
-31.797661001
 11
-31.488063059
 21
-31.8023850506
  0
LINE
  5
37D
100
AcDbEntity
  8
DRAFT
100
AcDbLine
 62
7
  6
CONTINUOUS
 10
-31.5421417781
 20
-31.797661001
 11
-31.488063059
 21
-31.8023850506
  0
LINE
  5
37E
100
AcDbEntity
  8
DRAFT
100
AcDbLine
 62
7
  6
CONTINUOUS
 10
38.9449002391
 20
-36.985102184
 11
38.8877347493
 21
-36.9801084893
  0
LINE
  5
37F
100
AcDbEntity
  8
ASSI
100
AcDbLine
 62
7
  6
CONTINUOUS
 10
37.6563793471
 20
-36.8725433669
 11
37.602300628
 21
-36.8678193173
  0
LINE
  5
380
100
AcDbEntity
  8
DRAFT
100
AcDbLine
 62
7
  6
CONTINUOUS
 10
37.6563793471
 20
-36.8725433669
 11
37.602300628
 21
-36.8678193173
  0
LINE
  5
381
100
AcDbEntity
  8
ASSI
100
AcDbLine
 62
7
  6
CONTINUOUS
 10
-31.5417340779
 20
-31.7929938392
 11
-31.488063059
 21
-31.8023850506
  0
LINE
  5
382
100
AcDbEntity
  8
DRAFT
100
AcDbLine
 62
7
  6
CONTINUOUS
 10
-31.5417340779
 20
-31.7929938392
 11
-31.488063059
 21
-31.8023850506
  0
LINE
  5
383
100
AcDbEntity
  8
ASSI
100
AcDbLine
 62
7
  6
CONTINUOUS
 10
-32.7730609558
 20
28.314897816
 11
-32.7730609558
 21
23.014897816
  0
LINE
  5
384
100
AcDbEntity
  8
DRAFT
100
AcDbLine
 62
7
  6
CONTINUOUS
 10
-32.7730609558
 20
28.314897816
 11
-32.7730609558
 21
23.014897816
  0
LINE
  5
385
100
AcDbEntity
  8
ASSI
100
AcDbLine
 62
7
  6
CONTINUOUS
 10
-32.7730609558
 20
-31.685102184
 11
-32.7730609558
 21
-36.985102184
  0
LINE
  5
386
100
AcDbEntity
  8
DRAFT
100
AcDbLine
 62
7
  6
CONTINUOUS
 10
-32.7730609558
 20
-31.685102184
 11
-32.7730609558
 21
-36.985102184
  0
LINE
  5
387
100
AcDbEntity
  8
ASSI
100
AcDbLine
 62
7
  6
CONTINUOUS
 10
-32.7416418389
 20
30.564897816
 11
-32.7416418389
 21
20.764897816
  0
LINE
  5
388
100
AcDbEntity
  8
RACCORDO
100
AcDbLine
 62
7
  6
CONTINUOUS
 10
-32.7416418389
 20
30.564897816
 11
-32.7416418389
 21
20.764897816
  0
LINE
  5
389
100
AcDbEntity
  8
ASSI
100
AcDbLine
 62
7
  6
CONTINUOUS
 10
-32.7416418389
 20
-29.435102184
 11
-32.7416418389
 21
-39.235102184
  0
LINE
  5
38A
100
AcDbEntity
  8
RACCORDO
100
AcDbLine
 62
7
  6
CONTINUOUS
 10
-32.7416418389
 20
-29.435102184
 11
-32.7416418389
 21
-39.235102184
  0
LINE
  5
38B
100
AcDbEntity
  8
RACCORDO
100
AcDbLine
 62
7
  6
CONTINUOUS
 10
-32.7381508259
 20
49.4603197313
 11
-32.7381508259
 21
31.664897816
  0
LINE
  5
38C
100
AcDbEntity
  8
DRAFT
100
AcDbLine
 62
7
  6
CONTINUOUS
 10
-32.7381508259
 20
19.664897816
 11
-32.7381508259
 21
16.2293444917
  0
LINE
  5
38D
100
AcDbEntity
  8
DRAFT
100
AcDbLine
 62
7
  6
CONTINUOUS
 10
-32.7381508259
 20
-22.3995488597
 11
-32.7381508259
 21
-28.335102184
  0
LINE
  5
38E
100
AcDbEntity
  8
RACCORDO
100
AcDbLine
 62
7
  6
CONTINUOUS
 10
-32.7381508259
 20
-40.335102184
 11
-32.7381508259
 21
-58.1305240992
  0
LINE
  5
38F
100
AcDbEntity
  8
ASSI
100
AcDbLine
 62
7
  6
CONTINUOUS
 10
-32.0817884882
 20
-28.335102184
 11
-32.0817884882
 21
-28.435102184
  0
LINE
  5
390
100
AcDbEntity
  8
DRAFT
100
AcDbLine
 62
7
  6
CONTINUOUS
 10
-32.0817884882
 20
-28.335102184
 11
-32.0817884882
 21
-28.435102184
  0
LINE
  5
391
100
AcDbEntity
  8
ASSI
100
AcDbLine
 62
7
  6
CONTINUOUS
 10
-32.0817884882
 20
-40.235102184
 11
-32.0817884882
 21
-40.335102184
  0
LINE
  5
392
100
AcDbEntity
  8
DRAFT
100
AcDbLine
 62
7
  6
CONTINUOUS
 10
-32.0817884882
 20
-40.235102184
 11
-32.0817884882
 21
-40.335102184
  0
LINE
  5
393
100
AcDbEntity
  8
ASSI
100
AcDbLine
 62
7
  6
CONTINUOUS
 10
-32.0817884882
 20
19.664897816
 11
-32.0817884882
 21
19.764897816
  0
LINE
  5
394
100
AcDbEntity
  8
DRAFT
100
AcDbLine
 62
7
  6
CONTINUOUS
 10
-32.0817884882
 20
19.664897816
 11
-32.0817884882
 21
19.764897816
  0
LINE
  5
395
100
AcDbEntity
  8
ASSI
100
AcDbLine
 62
7
  6
CONTINUOUS
 10
-32.0817884882
 20
31.564897816
 11
-32.0817884882
 21
31.664897816
  0
LINE
  5
396
100
AcDbEntity
  8
DRAFT
100
AcDbLine
 62
7
  6
CONTINUOUS
 10
-32.0817884882
 20
31.564897816
 11
-32.0817884882
 21
31.664897816
  0
LINE
  5
397
100
AcDbEntity
  8
ASSI
100
AcDbLine
 62
7
  6
CONTINUOUS
 10
-32.0643334233
 20
-40.335102184
 11
-32.0643334233
 21
-40.235102184
  0
LINE
  5
398
100
AcDbEntity
  8
DRAFT
100
AcDbLine
 62
7
  6
CONTINUOUS
 10
-32.0643334233
 20
-40.335102184
 11
-32.0643334233
 21
-40.235102184
  0
LINE
  5
399
100
AcDbEntity
  8
ASSI
100
AcDbLine
 62
7
  6
CONTINUOUS
 10
-32.0643334233
 20
-28.435102184
 11
-32.0643334233
 21
-28.335102184
  0
LINE
  5
39A
100
AcDbEntity
  8
DRAFT
100
AcDbLine
 62
7
  6
CONTINUOUS
 10
-32.0643334233
 20
-28.435102184
 11
-32.0643334233
 21
-28.335102184
  0
LINE
  5
39B
100
AcDbEntity
  8
ASSI
100
AcDbLine
 62
7
  6
CONTINUOUS
 10
-32.0643334233
 20
19.664897816
 11
-32.0643334233
 21
19.764897816
  0
LINE
  5
39C
100
AcDbEntity
  8
DRAFT
100
AcDbLine
 62
7
  6
CONTINUOUS
 10
-32.0643334233
 20
19.664897816
 11
-32.0643334233
 21
19.764897816
  0
LINE
  5
39D
100
AcDbEntity
  8
ASSI
100
AcDbLine
 62
7
  6
CONTINUOUS
 10
-32.0643334233
 20
31.564897816
 11
-32.0643334233
 21
31.664897816
  0
LINE
  5
39E
100
AcDbEntity
  8
DRAFT
100
AcDbLine
 62
7
  6
CONTINUOUS
 10
-32.0643334233
 20
31.564897816
 11
-32.0643334233
 21
31.664897816
  0
LINE
  5
39F
100
AcDbEntity
  8
ASSI
100
AcDbLine
 62
7
  6
CONTINUOUS
 10
-31.975033579
 20
28.364897816
 11
-31.975033579
 21
22.964897816
  0
LINE
  5
3A0
100
AcDbEntity
  8
0
100
AcDbLine
 62
7
  6
CONTINUOUS
 10
-31.975033579
 20
28.364897816
 11
-31.975033579
 21
22.964897816
  0
LINE
  5
3A1
100
AcDbEntity
  8
ASSI
100
AcDbLine
 62
7
  6
CONTINUOUS
 10
-31.975033579
 20
-37.035102184
 11
-31.975033579
 21
-31.635102184
  0
LINE
  5
3A2
100
AcDbEntity
  8
0
100
AcDbLine
 62
7
  6
CONTINUOUS
 10
-31.975033579
 20
-37.035102184
 11
-31.975033579
 21
-31.635102184
  0
LINE
  5
3A3
100
AcDbEntity
  8
ASSI
100
AcDbLine
 62
7
  6
CONTINUOUS
 10
-31.575033579
 20
30.564897816
 11
-31.575033579
 21
28.364897816
  0
LINE
  5
3A4
100
AcDbEntity
  8
RACCORDO
100
AcDbLine
 62
7
  6
CONTINUOUS
 10
-31.575033579
 20
30.564897816
 11
-31.575033579
 21
28.364897816
  0
LINE
  5
3A5
100
AcDbEntity
  8
ASSI
100
AcDbLine
 62
7
  6
CONTINUOUS
 10
-31.575033579
 20
22.964897816
 11
-31.575033579
 21
20.764897816
  0
LINE
  5
3A6
100
AcDbEntity
  8
RACCORDO
100
AcDbLine
 62
7
  6
CONTINUOUS
 10
-31.575033579
 20
22.964897816
 11
-31.575033579
 21
20.764897816
  0
LINE
  5
3A7
100
AcDbEntity
  8
ASSI
100
AcDbLine
 62
7
  6
CONTINUOUS
 10
-31.575033579
 20
-29.435102184
 11
-31.575033579
 21
-31.635102184
  0
LINE
  5
3A8
100
AcDbEntity
  8
RACCORDO
100
AcDbLine
 62
7
  6
CONTINUOUS
 10
-31.575033579
 20
-29.435102184
 11
-31.575033579
 21
-31.635102184
  0
LINE
  5
3A9
100
AcDbEntity
  8
ASSI
100
AcDbLine
 62
7
  6
CONTINUOUS
 10
-31.575033579
 20
-37.035102184
 11
-31.575033579
 21
-39.235102184
  0
LINE
  5
3AA
100
AcDbEntity
  8
RACCORDO
100
AcDbLine
 62
7
  6
CONTINUOUS
 10
-31.575033579
 20
-37.035102184
 11
-31.575033579
 21
-39.235102184
  0
LINE
  5
3AB
100
AcDbEntity
  8
ASSI
100
AcDbLine
 62
7
  6
CONTINUOUS
 10
-31.5625633419
 20
28.364897816
 11
-31.5625633419
 21
22.964897816
  0
LINE
  5
3AC
100
AcDbEntity
  8
0
100
AcDbLine
 62
7
  6
CONTINUOUS
 10
-31.5625633419
 20
28.364897816
 11
-31.5625633419
 21
22.964897816
  0
LINE
  5
3AD
100
AcDbEntity
  8
ASSI
100
AcDbLine
 62
7
  6
CONTINUOUS
 10
-31.5625633419
 20
-37.035102184
 11
-31.5625633419
 21
-31.635102184
  0
LINE
  5
3AE
100
AcDbEntity
  8
0
100
AcDbLine
 62
7
  6
CONTINUOUS
 10
-31.5625633419
 20
-37.035102184
 11
-31.5625633419
 21
-31.635102184
  0
LINE
  5
3AF
100
AcDbEntity
  8
ASSI
100
AcDbLine
 62
7
  6
CONTINUOUS
 10
-31.5417340779
 20
-36.8772105287
 11
-31.5417340779
 21
-31.7929938392
  0
LINE
  5
3B0
100
AcDbEntity
  8
DRAFT
100
AcDbLine
 62
7
  6
CONTINUOUS
 10
-31.5417340779
 20
-36.8772105287
 11
-31.5417340779
 21
-31.7929938392
  0
LINE
  5
3B1
100
AcDbEntity
  8
ASSI
100
AcDbLine
 62
7
  6
CONTINUOUS
 10
-31.5417340779
 20
23.1227894713
 11
-31.5417340779
 21
28.2070061608
  0
LINE
  5
3B2
100
AcDbEntity
  8
DRAFT
100
AcDbLine
 62
7
  6
CONTINUOUS
 10
-31.5417340779
 20
23.1227894713
 11
-31.5417340779
 21
28.2070061608
  0
LINE
  5
3B3
100
AcDbEntity
  8
ASSI
100
AcDbLine
 62
7
  6
CONTINUOUS
 10
-31.4912492674
 20
-40.335102184
 11
-31.4912492674
 21
-40.235102184
  0
LINE
  5
3B4
100
AcDbEntity
  8
DRAFT
100
AcDbLine
 62
7
  6
CONTINUOUS
 10
-31.4912492674
 20
-40.335102184
 11
-31.4912492674
 21
-40.235102184
  0
LINE
  5
3B5
100
AcDbEntity
  8
ASSI
100
AcDbLine
 62
7
  6
CONTINUOUS
 10
-31.4912492674
 20
-28.435102184
 11
-31.4912492674
 21
-28.335102184
  0
LINE
  5
3B6
100
AcDbEntity
  8
DRAFT
100
AcDbLine
 62
7
  6
CONTINUOUS
 10
-31.4912492674
 20
-28.435102184
 11
-31.4912492674
 21
-28.335102184
  0
LINE
  5
3B7
100
AcDbEntity
  8
ASSI
100
AcDbLine
 62
7
  6
CONTINUOUS
 10
-31.4912492674
 20
19.664897816
 11
-31.4912492674
 21
19.764897816
  0
LINE
  5
3B8
100
AcDbEntity
  8
DRAFT
100
AcDbLine
 62
7
  6
CONTINUOUS
 10
-31.4912492674
 20
19.664897816
 11
-31.4912492674
 21
19.764897816
  0
LINE
  5
3B9
100
AcDbEntity
  8
ASSI
100
AcDbLine
 62
7
  6
CONTINUOUS
 10
-31.4912492674
 20
31.564897816
 11
-31.4912492674
 21
31.664897816
  0
LINE
  5
3BA
100
AcDbEntity
  8
DRAFT
100
AcDbLine
 62
7
  6
CONTINUOUS
 10
-31.4912492674
 20
31.564897816
 11
-31.4912492674
 21
31.664897816
  0
LINE
  5
3BB
100
AcDbEntity
  8
ASSI
100
AcDbLine
 62
7
  6
CONTINUOUS
 10
-31.488063059
 20
28.1976149494
 11
-31.488063059
 21
27.964897816
  0
LINE
  5
3BC
100
AcDbEntity
  8
DRAFT
100
AcDbLine
 62
7
  6
CONTINUOUS
 10
-31.488063059
 20
28.1976149494
 11
-31.488063059
 21
27.964897816
  0
LINE
  5
3BD
100
AcDbEntity
  8
ASSI
100
AcDbLine
 62
7
  6
CONTINUOUS
 10
-31.488063059
 20
23.364897816
 11
-31.488063059
 21
23.1321806827
  0
LINE
  5
3BE
100
AcDbEntity
  8
DRAFT
100
AcDbLine
 62
7
  6
CONTINUOUS
 10
-31.488063059
 20
23.364897816
 11
-31.488063059
 21
23.1321806827
  0
LINE
  5
3BF
100
AcDbEntity
  8
ASSI
100
AcDbLine
 62
7
  6
CONTINUOUS
 10
-31.488063059
 20
-31.8023850506
 11
-31.488063059
 21
-32.035102184
  0
LINE
  5
3C0
100
AcDbEntity
  8
DRAFT
100
AcDbLine
 62
7
  6
CONTINUOUS
 10
-31.488063059
 20
-31.8023850506
 11
-31.488063059
 21
-32.035102184
  0
LINE
  5
3C1
100
AcDbEntity
  8
ASSI
100
AcDbLine
 62
7
  6
CONTINUOUS
 10
-31.488063059
 20
-36.635102184
 11
-31.488063059
 21
-36.8678193173
  0
LINE
  5
3C2
100
AcDbEntity
  8
DRAFT
100
AcDbLine
 62
7
  6
CONTINUOUS
 10
-31.488063059
 20
-36.635102184
 11
-31.488063059
 21
-36.8678193173
  0
LINE
  5
3C3
100
AcDbEntity
  8
DRAFT
100
AcDbLine
 62
7
  6
CONTINUOUS
 10
-31.4312823583
 20
31.664897816
 11
-31.4312823583
 21
27.964897816
  0
LINE
  5
3C4
100
AcDbEntity
  8
DRAFT
100
AcDbLine
 62
7
  6
CONTINUOUS
 10
-31.4312823583
 20
23.364897816
 11
-31.4312823583
 21
19.664897816
  0
LINE
  5
3C5
100
AcDbEntity
  8
DRAFT
100
AcDbLine
 62
7
  6
CONTINUOUS
 10
-31.4312823583
 20
-40.335102184
 11
-31.4312823583
 21
-36.635102184
  0
LINE
  5
3C6
100
AcDbEntity
  8
DRAFT
100
AcDbLine
 62
7
  6
CONTINUOUS
 10
-31.4312823583
 20
-28.335102184
 11
-31.4312823583
 21
-32.035102184
  0
LINE
  5
3C7
100
AcDbEntity
  8
DRAFT
100
AcDbLine
 62
7
  6
CONTINUOUS
 10
-31.3928812155
 20
27.964897816
 11
-31.3928812155
 21
23.364897816
  0
LINE
  5
3C8
100
AcDbEntity
  8
DRAFT
100
AcDbLine
 62
7
  6
CONTINUOUS
 10
-31.3928812155
 20
-32.035102184
 11
-31.3928812155
 21
-36.635102184
  0
LINE
  5
3C9
100
AcDbEntity
  8
DRAFT
100
AcDbLine
 62
7
  6
CONTINUOUS
 10
-31.3928812155
 20
42.1353628695
 11
-31.3928812155
 21
49.164897816
  0
LINE
  5
3CA
100
AcDbEntity
  8
DRAFT
100
AcDbLine
 62
7
  6
CONTINUOUS
 10
-31.3544800727
 20
-32.035102184
 11
-31.3544800727
 21
-36.635102184
  0
LINE
  5
3CB
100
AcDbEntity
  8
DRAFT
100
AcDbLine
 62
7
  6
CONTINUOUS
 10
-31.3544800727
 20
23.364897816
 11
-31.3544800727
 21
27.964897816
  0
LINE
  5
3CC
100
AcDbEntity
  8
0
100
AcDbLine
 62
7
  6
CONTINUOUS
 10
-29.1428812155
 20
49.164897816
 11
-29.1428812155
 21
42.864897816
  0
LINE
  5
3CD
100
AcDbEntity
  8
0
100
AcDbLine
 62
7
  6
CONTINUOUS
 10
-28.1740697567
 20
9.3677558723
 11
-28.1740697567
 21
7.664897816
  0
LINE
  5
3CE
100
AcDbEntity
  8
ASSI
100
AcDbLine
 62
7
  6
CONTINUOUS
 10
-32.8817884882
 20
-24.335102184
 11
-32.9428812155
 21
-27.835102184
  0
LINE
  5
3CF
100
AcDbEntity
  8
0
100
AcDbLine
 62
7
  6
CONTINUOUS
 10
-32.8817884882
 20
-24.335102184
 11
-32.9428812155
 21
-27.835102184
  0
LWPOLYLINE
  5
3D0
100
AcDbEntity
  8
0
100
AcDbPolyline
 62
7
  6
CONTINUOUS
 90
9
 70
0
 10
-29.0882887829
 20
8.1024728222
 10
-29.0997601969
 20
8.0712299272
 10
-29.1108696754
 20
8.0401001874
 10
-29.1216150803
 20
8.0090789214
 10
-29.1319985497
 20
7.9781708107
 10
-29.1420264981
 20
7.9473898991
 10
-29.1517010637
 20
7.9167408682
 10
-29.1610201084
 20
7.8862190365
 10
-29.169983632
 20
7.8558244041
  0
LINE
  5
3D1
100
AcDbEntity
  8
0
100
AcDbLine
 62
7
  6
CONTINUOUS
 10
-28.6075245346
 20
9.3677558723
 11
-29.0882887829
 21
8.1024728222
  0
LINE
  5
3D2
100
AcDbEntity
  8
0
100
AcDbLine
 62
7
  6
CONTINUOUS
 10
-29.0438817983
 20
7.664897816
 11
-28.3646736713
 21
9.3677558723
  0
LINE
  5
3D3
100
AcDbEntity
  8
ASSI
100
AcDbLine
 62
7
  6
CONTINUOUS
 10
-31.488063059
 20
-36.8678193173
 11
-31.5417340779
 21
-36.8772105287
  0
LINE
  5
3D4
100
AcDbEntity
  8
DRAFT
100
AcDbLine
 62
7
  6
CONTINUOUS
 10
-31.488063059
 20
-36.8678193173
 11
-31.5417340779
 21
-36.8772105287
  0
LINE
  5
3D5
100
AcDbEntity
  8
DRAFT
100
AcDbLine
 62
7
  6
CONTINUOUS
 10
-31.5417340779
 20
-32.035102184
 11
-31.3544800727
 21
-32.035102184
  0
LINE
  5
3D6
100
AcDbEntity
  8
DRAFT
100
AcDbLine
 62
7
  6
CONTINUOUS
 10
37.4687176417
 20
-32.035102184
 11
37.6559716469
 21
-32.035102184
  0
LINE
  5
3D7
100
AcDbEntity
  8
ASSI
100
AcDbLine
 62
7
  6
CONTINUOUS
 10
-32.83066267
 20
-31.685102184
 11
-32.7730609558
 21
-31.685102184
  0
LINE
  5
3D8
100
AcDbEntity
  8
DRAFT
100
AcDbLine
 62
7
  6
CONTINUOUS
 10
-32.83066267
 20
-31.685102184
 11
-32.7730609558
 21
-31.685102184
  0
LINE
  5
3D9
100
AcDbEntity
  8
ASSI
100
AcDbLine
 62
7
  6
CONTINUOUS
 10
38.8872985248
 20
-31.685102184
 11
38.9449002391
 21
-31.685102184
  0
LINE
  5
3DA
100
AcDbEntity
  8
DRAFT
100
AcDbLine
 62
7
  6
CONTINUOUS
 10
38.8872985248
 20
-31.685102184
 11
38.9449002391
 21
-31.685102184
  0
LINE
  5
3DB
100
AcDbEntity
  8
ASSI
100
AcDbLine
 62
7
  6
CONTINUOUS
 10
-31.5625633419
 20
-31.635102184
 11
-31.975033579
 21
-31.635102184
  0
LINE
  5
3DC
100
AcDbEntity
  8
0
100
AcDbLine
 62
7
  6
CONTINUOUS
 10
-31.5625633419
 20
-31.635102184
 11
-31.975033579
 21
-31.635102184
  0
LINE
  5
3DD
100
AcDbEntity
  8
ASSI
100
AcDbLine
 62
7
  6
CONTINUOUS
 10
37.6768009109
 20
-31.635102184
 11
38.0892711481
 21
-31.635102184
  0
LINE
  5
3DE
100
AcDbEntity
  8
0
100
AcDbLine
 62
7
  6
CONTINUOUS
 10
37.6768009109
 20
-31.635102184
 11
38.0892711481
 21
-31.635102184
  0
LINE
  5
3DF
100
AcDbEntity
  8
ASSI
100
AcDbLine
 62
250
  6
CONTINUOUS
 10
38.8558794079
 20
-29.435102184
 11
37.6892711481
 21
-29.435102184
  0
LINE
  5
3E0
100
AcDbEntity
  8
RACCORDO
100
AcDbLine
 62
250
  6
CONTINUOUS
 10
38.8558794079
 20
-29.435102184
 11
37.6892711481
 21
-29.435102184
  0
LINE
  5
3E1
100
AcDbEntity
  8
ASSI
100
AcDbLine
 62
250
  6
CONTINUOUS
 10
-31.575033579
 20
-29.435102184
 11
-32.7416418389
 21
-29.435102184
  0
LINE
  5
3E2
100
AcDbEntity
  8
RACCORDO
100
AcDbLine
 62
250
  6
CONTINUOUS
 10
-31.575033579
 20
-29.435102184
 11
-32.7416418389
 21
-29.435102184
  0
LINE
  5
3E3
100
AcDbEntity
  8
ASSI
100
AcDbLine
 62
7
  6
CONTINUOUS
 10
-31.4912492674
 20
-28.435102184
 11
-32.8428812155
 21
-28.435102184
  0
LINE
  5
3E4
100
AcDbEntity
  8
RACCORDO
100
AcDbLine
 62
7
  6
CONTINUOUS
 10
-31.4912492674
 20
-28.435102184
 11
-32.8428812155
 21
-28.435102184
  0
LINE
  5
3E5
100
AcDbEntity
  8
ASSI
100
AcDbLine
 62
7
  6
CONTINUOUS
 10
37.6054868364
 20
-28.435102184
 11
38.9571187845
 21
-28.435102184
  0
LINE
  5
3E6
100
AcDbEntity
  8
RACCORDO
100
AcDbLine
 62
7
  6
CONTINUOUS
 10
37.6054868364
 20
-28.435102184
 11
38.9571187845
 21
-28.435102184
  0
LINE
  5
3E7
100
AcDbEntity
  8
DRAFT
100
AcDbLine
 62
7
  6
CONTINUOUS
 10
-32.8428812155
 20
-28.335102184
 11
-31.4312823583
 21
-28.335102184
  0
LINE
  5
3E8
100
AcDbEntity
  8
DRAFT
100
AcDbLine
 62
7
  6
CONTINUOUS
 10
37.5455199273
 20
-28.335102184
 11
38.9571187845
 21
-28.335102184
  0
LINE
  5
3E9
100
AcDbEntity
  8
ASSI
100
AcDbLine
 62
7
  6
CONTINUOUS
 10
37.602300628
 20
-36.8678193173
 11
37.6559716469
 21
-36.8772105287
  0
LINE
  5
3EA
100
AcDbEntity
  8
DRAFT
100
AcDbLine
 62
7
  6
CONTINUOUS
 10
37.602300628
 20
-36.8678193173
 11
37.6559716469
 21
-36.8772105287
  0
LINE
  5
3EB
100
AcDbEntity
  8
ASSI
100
AcDbLine
 62
7
  6
CONTINUOUS
 10
-32.9428812155
 20
16.9711081384
 11
-32.8817884882
 21
16.664897816
  0
LINE
  5
3EC
100
AcDbEntity
  8
0
100
AcDbLine
 62
7
  6
CONTINUOUS
 10
-32.9428812155
 20
16.9711081384
 11
-32.8817884882
 21
16.664897816
  0
LINE
  5
3ED
100
AcDbEntity
  8
0
100
AcDbLine
 62
7
  6
CONTINUOUS
 10
-27.9470220158
 20
7.664897816
 11
-27.9470220158
 21
9.3677558723
  0
LINE
  5
3EE
100
AcDbEntity
  8
DRAFT
100
AcDbLine
 62
7
  6
CONTINUOUS
 10
-27.6928812155
 20
40.414897816
 11
-27.6928812155
 21
42.264897816
  0
LINE
  5
3EF
100
AcDbEntity
  8
DRAFT
100
AcDbLine
 62
7
  6
CONTINUOUS
 10
-27.6579710856
 20
40.414897816
 11
-27.6579710856
 21
42.264897816
  0
LINE
  5
3F0
100
AcDbEntity
  8
0
100
AcDbLine
 62
7
  6
CONTINUOUS
 10
-27.5651689972
 20
9.3677558723
 11
-27.5651689972
 21
7.664897816
  0
LINE
  5
3F1
100
AcDbEntity
  8
0
100
AcDbLine
 62
7
  6
CONTINUOUS
 10
-27.3381212563
 20
7.664897816
 11
-27.3381212563
 21
9.1097470759
  0
LINE
  5
3F2
100
AcDbEntity
  8
0
100
AcDbLine
 62
7
  6
CONTINUOUS
 10
-26.9428812155
 20
49.164897816
 11
-26.9428812155
 21
42.864897816
  0
LINE
  5
3F3
100
AcDbEntity
  8
0
100
AcDbLine
 62
7
  6
CONTINUOUS
 10
-26.1512807929
 20
9.0891063722
 11
-26.1512807929
 21
7.664897816
  0
LINE
  5
3F4
100
AcDbEntity
  8
0
100
AcDbLine
 62
7
  6
CONTINUOUS
 10
-25.9242330521
 20
7.664897816
 11
-25.9242330521
 21
9.3677558723
  0
LINE
  5
3F5
100
AcDbEntity
  8
DRAFT
100
AcDbLine
 62
7
  6
CONTINUOUS
 10
-24.4428812155
 20
-20.285102184
 11
-24.4428812155
 21
-22.3527419108
  0
LINE
  5
3F6
100
AcDbEntity
  8
0
100
AcDbLine
 62
7
  6
CONTINUOUS
 10
-23.9736865513
 20
9.3677558723
 11
-23.9736865513
 21
7.664897816
  0
LINE
  5
3F7
100
AcDbEntity
  8
0
100
AcDbLine
 62
7
  6
CONTINUOUS
 10
-23.7466388105
 20
7.664897816
 11
-23.7466388105
 21
8.4182835015
  0
LINE
  5
3F8
100
AcDbEntity
  8
0
100
AcDbLine
 62
7
  6
CONTINUOUS
 10
-23.7466388105
 20
8.6143701868
 11
-23.7466388105
 21
9.171669187
  0
LWPOLYLINE
  5
3F9
100
AcDbEntity
  8
0
100
AcDbPolyline
 62
7
  6
CONTINUOUS
 90
3
 70
0
 10
-26.7044938188
 20
8.0030435997
 10
-26.7146227383
 20
7.9729997002
 10
-26.734380594
 20
7.9132312924
  0
LINE
  5
3FA
100
AcDbEntity
  8
0
100
AcDbLine
 62
7
  6
CONTINUOUS
 10
-26.6836891832
 20
8.0634471489
 11
-26.7044938188
 21
8.0030435997
  0
LINE
  5
3FB
100
AcDbEntity
  8
0
100
AcDbLine
 62
7
  6
CONTINUOUS
 10
-25.5114189778
 20
7.664897816
 11
-25.3319415473
 21
8.1809154088
  0
LINE
  5
3FC
100
AcDbEntity
  8
0
100
AcDbLine
 62
7
  6
CONTINUOUS
 10
-26.6539141326
 20
7.664897816
 11
-26.1512807929
 21
9.0891063722
  0
LINE
  5
3FD
100
AcDbEntity
  8
0
100
AcDbLine
 62
7
  6
CONTINUOUS
 10
-26.6408523955
 20
8.1855918896
 11
-26.6836891832
 21
8.0634471489
  0
LINE
  5
3FE
100
AcDbEntity
  8
0
100
AcDbLine
 62
7
  6
CONTINUOUS
 10
-26.2196530649
 20
9.3677558723
 11
-26.6408523955
 21
8.1855918896
  0
LINE
  5
3FF
100
AcDbEntity
  8
0
100
AcDbLine
 62
7
  6
CONTINUOUS
 10
-25.2672780509
 20
8.3666817422
 11
-25.083285555
 21
8.8638324689
  0
LINE
  5
400
100
AcDbEntity
  8
0
100
AcDbLine
 62
7
  6
CONTINUOUS
 10
-25.1037650008
 20
9.3677558723
 11
-25.7510445245
 21
7.664897816
  0
LWPOLYLINE
  5
401
100
AcDbEntity
  8
0
100
AcDbPolyline
 62
7
  6
CONTINUOUS
 90
10
 70
0
 10
-25.083285555
 20
8.8638324689
 10
-25.0690878023
 20
8.8988731965
 10
-25.0555548834
 20
8.9343116987
 10
-25.0426867981
 20
8.9701479754
 10
-25.0304657324
 20
9.0064268048
 10
-25.0189095005
 20
9.0431034088
 10
-25.0080715449
 20
9.0800434528
 10
-24.9979696798
 20
9.1172021587
 10
-24.988586091
 20
9.1546243047
 10
-24.9799207785
 20
9.1923098907
  0
LINE
  5
402
100
AcDbEntity
  8
ASSI
100
AcDbLine
 62
7
  6
CONTINUOUS
 10
-32.9428812155
 20
-27.835102184
 11
-32.8428812155
 21
-27.835102184
  0
LINE
  5
403
100
AcDbEntity
  8
0
100
AcDbLine
 62
7
  6
CONTINUOUS
 10
-32.9428812155
 20
-27.835102184
 11
-32.8428812155
 21
-27.835102184
  0
LINE
  5
404
100
AcDbEntity
  8
ASSI
100
AcDbLine
 62
7
  6
CONTINUOUS
 10
38.9571187845
 20
-27.835102184
 11
39.0571187845
 21
-27.835102184
  0
LINE
  5
405
100
AcDbEntity
  8
0
100
AcDbLine
 62
7
  6
CONTINUOUS
 10
38.9571187845
 20
-27.835102184
 11
39.0571187845
 21
-27.835102184
  0
LINE
  5
406
100
AcDbEntity
  8
ASSI
100
AcDbLine
 62
7
  6
CONTINUOUS
 10
-32.8817884882
 20
-24.335102184
 11
-32.8428812155
 21
-24.335102184
  0
LINE
  5
407
100
AcDbEntity
  8
0
100
AcDbLine
 62
7
  6
CONTINUOUS
 10
-32.8817884882
 20
-24.335102184
 11
-32.8428812155
 21
-24.335102184
  0
LINE
  5
408
100
AcDbEntity
  8
ASSI
100
AcDbLine
 62
7
  6
CONTINUOUS
 10
38.9571187845
 20
-24.335102184
 11
38.9960260573
 21
-24.335102184
  0
LINE
  5
409
100
AcDbEntity
  8
0
100
AcDbLine
 62
7
  6
CONTINUOUS
 10
38.9571187845
 20
-24.335102184
 11
38.9960260573
 21
-24.335102184
  0
LINE
  5
40A
100
AcDbEntity
  8
0
100
AcDbLine
 62
7
  6
CONTINUOUS
 10
-29.9428812155
 20
9.3677558723
 11
-29.2881839832
 21
7.664897816
  0
LWPOLYLINE
  5
40B
100
AcDbEntity
  8
0
100
AcDbPolyline
 62
7
  6
CONTINUOUS
 90
10
 70
0
 10
-29.169983632
 20
7.8558244041
 10
-29.1785214757
 20
7.8860250653
 10
-29.1874129517
 20
7.9163999763
 10
-29.1966580601
 20
7.946949137
 10
-29.2062655368
 20
7.9776753057
 10
-29.216226646
 20
8.0085757242
 10
-29.2265151799
 20
8.0396421176
 10
-29.237122403
 20
8.0708717277
 10
-29.2480570509
 20
8.1022673126
 10
-29.7014818313
 20
9.3677558723
  0
LWPOLYLINE
  5
40C
100
AcDbEntity
  8
0
100
AcDbPolyline
 62
7
  6
CONTINUOUS
 90
41
 70
0
 10
-20.3822041055
 20
8.8930196869
 10
-20.3864006473
 20
8.9402159003
 10
-20.393996268
 20
8.9855490021
 10
-20.4049909676
 20
9.0290189922
 10
-20.4195875818
 20
9.0709064657
 10
-20.4375832749
 20
9.1109308275
 10
-20.4583695396
 20
9.1482502926
 10
-20.4816695053
 20
9.1824755023
 10
-20.5077600427
 20
9.2139958153
 10
-20.5368632558
 20
9.2431375226
 10
-20.56892671
 20
9.269997469
 10
-20.60400284
 20
9.2944788095
 10
-20.6424710537
 20
9.3166173007
 10
-20.6845452374
 20
9.3365863836
 10
-20.7300115048
 20
9.3542126171
 10
-20.7786076055
 20
9.3690114337
 10
-20.83085071
 20
9.3809609449
 10
-20.8862236477
 20
9.3900830393
 10
-20.9429126566
 20
9.3959588148
 10
-21.001600785
 20
9.3984243934
 10
-21.0616049845
 20
9.3976436532
 10
-21.1190623485
 20
9.3936893269
 10
-21.1728408561
 20
9.3863923574
 10
-21.2240725281
 20
9.3759218018
 10
-21.2722905196
 20
9.3628575639
 10
-21.3174220026
 20
9.3472666989
 10
-21.3595398052
 20
9.3290821516
 10
-21.3983955656
 20
9.3086826606
 10
-21.4338073819
 20
9.2862094518
 10
-21.465957156
 20
9.2615212993
 10
-21.495142233
 20
9.234573264
 10
-21.5214670791
 20
9.2052568361
 10
-21.544827228
 20
9.1736805255
 10
-21.5652066258
 20
9.1401249227
 10
-21.582765041
 20
9.1041866413
 10
-21.5973427051
 20
9.0662690678
 10
-21.608444259
 20
9.0278629528
 10
-21.6158832269
 20
8.988986795
 10
-21.6198460845
 20
8.9496220958
 10
-21.6203968995
 20
8.9112041091
 10
-21.6174419905
 20
8.8740388942
  0
LWPOLYLINE
  5
40D
100
AcDbEntity
  8
0
100
AcDbPolyline
 62
7
  6
CONTINUOUS
 90
22
 70
0
 10
-21.6825684393
 20
8.2221968163
 10
-21.6790192168
 20
8.1704897834
 10
-21.6720750963
 20
8.1209280408
 10
-21.6617360779
 20
8.0735115886
 10
-21.6478403269
 20
8.0282136353
 10
-21.630549678
 20
7.9850609723
 10
-21.6103496353
 20
7.9441339735
 10
-21.5872580072
 20
7.9053145607
 10
-21.5612569854
 20
7.8687208121
 10
-21.5327786485
 20
7.8347873369
 10
-21.5021503088
 20
7.8037362349
 10
-21.469044654
 20
7.7753454062
 10
-21.4329118253
 20
7.7493831603
 10
-21.3937071544
 20
7.725684265
 10
-21.3514753096
 20
7.7044139524
 10
-21.3058004376
 20
7.6858362287
 10
-21.256343998
 20
7.6699467069
 10
-21.2034445312
 20
7.6567497739
 10
-21.1477018054
 20
7.6465225961
 10
-21.0893157435
 20
7.6393575623
 10
-21.0280864227
 20
7.6351622838
 10
-20.9640138429
 20
7.6339367605
  0
LINE
  5
40E
100
AcDbEntity
  8
DRAFT
100
AcDbLine
 62
7
  6
CONTINUOUS
 10
-22.6928812155
 20
-22.3527419108
 11
-22.6928812155
 21
-20.285102184
  0
LINE
  5
40F
100
AcDbEntity
  8
DRAFT
100
AcDbLine
 62
7
  6
CONTINUOUS
 10
-21.1928812155
 20
-20.285102184
 11
-21.1928812155
 21
-22.3527419108
  0
LINE
  5
410
100
AcDbEntity
  8
ASSI
100
AcDbLine
 62
7
  6
CONTINUOUS
 10
-20.4428812155
 20
-50.935102184
 11
-20.4428812155
 21
-57.835102184
  0
LINE
  5
411
100
AcDbEntity
  8
0
100
AcDbLine
 62
7
  6
CONTINUOUS
 10
-20.0209917905
 20
9.3677558723
 11
-20.0209917905
 21
7.664897816
  0
LINE
  5
412
100
AcDbEntity
  8
0
100
AcDbLine
 62
7
  6
CONTINUOUS
 10
-19.7939440497
 20
7.664897816
 11
-19.7939440497
 21
8.3666817422
  0
LINE
  5
413
100
AcDbEntity
  8
0
100
AcDbLine
 62
7
  6
CONTINUOUS
 10
-19.7939440497
 20
8.5627684275
 11
-19.7939440497
 21
9.171669187
  0
LINE
  5
414
100
AcDbEntity
  8
DRAFT
100
AcDbLine
 62
7
  6
CONTINUOUS
 10
-19.4428812155
 20
-22.3527419108
 11
-19.4428812155
 21
-20.285102184
  0
LINE
  5
415
100
AcDbEntity
  8
0
100
AcDbLine
 62
7
  6
CONTINUOUS
 10
-18.4006965492
 20
7.664897816
 11
-18.2212191186
 21
8.1809154088
  0
LINE
  5
416
100
AcDbEntity
  8
0
100
AcDbLine
 62
7
  6
CONTINUOUS
 10
-18.1565556222
 20
8.3666817422
 11
-17.9725631264
 21
8.8638324689
  0
LINE
  5
417
100
AcDbEntity
  8
0
100
AcDbLine
 62
7
  6
CONTINUOUS
 10
-17.9930425721
 20
9.3677558723
 11
-18.6403220958
 21
7.664897816
  0
LWPOLYLINE
  5
418
100
AcDbEntity
  8
0
100
AcDbPolyline
 62
7
  6
CONTINUOUS
 90
10
 70
0
 10
-17.9725631264
 20
8.8638324689
 10
-17.9583653736
 20
8.8988731965
 10
-17.9448324547
 20
8.9343116987
 10
-17.9319643694
 20
8.9701479754
 10
-17.9197433038
 20
9.0064268048
 10
-17.9081870718
 20
9.0431034088
 10
-17.8973491162
 20
9.0800434528
 10
-17.8872472511
 20
9.1172021587
 10
-17.8778636623
 20
9.1546243047
 10
-17.8691983498
 20
9.1923098907
  0
LWPOLYLINE
  5
419
100
AcDbEntity
  8
0
100
AcDbPolyline
 62
7
  6
CONTINUOUS
 90
28
 70
0
 10
-18.8856724574
 20
8.5156818911
 10
-18.8585057592
 20
8.5484966521
 10
-18.8343974809
 20
8.5828132935
 10
-18.8133476226
 20
8.6186318154
 10
-18.7953410637
 20
8.6558764246
 10
-18.7803929247
 20
8.6946229142
 10
-18.768548567
 20
8.7350986639
 10
-18.7597819463
 20
8.7779802002
 10
-18.754119107
 20
8.8225909965
 10
-18.7516835428
 20
8.867128853
 10
-18.7525827735
 20
8.911609978
 10
-18.7567092795
 20
8.9560181632
 10
-18.7638639953
 20
8.998502584
 10
-18.774256425
 20
9.0385913425
 10
-18.7876770645
 20
9.0767563366
 10
-18.8032983365
 20
9.1125624349
 10
-18.8210402621
 20
9.1459927973
 10
-18.8409828201
 20
9.1770642639
 10
-18.8625383701
 20
9.2053922239
 10
-18.8853907773
 20
9.2306817745
 10
-18.9098561765
 20
9.2532278185
 10
-18.9362953317
 20
9.273530453
 10
-18.9646952638
 20
9.2916676537
 10
-18.9950689518
 20
9.307561445
 10
-19.0278160975
 20
9.3214779974
 10
-19.0630699346
 20
9.3335060343
 10
-19.1006972293
 20
9.3435568323
 10
-19.1406979816
 20
9.3516303914
  0
LINE
  5
41A
100
AcDbEntity
  8
DRAFT
100
AcDbLine
 62
7
  6
CONTINUOUS
 10
-32.7381508259
 20
-22.3995488597
 11
38.8523883949
 21
-22.3995488597
  0
LINE
  5
41B
100
AcDbEntity
  8
DRAFT
100
AcDbLine
 62
7
  6
CONTINUOUS
 10
-24.4428812155
 20
-22.3527419108
 11
-22.6928812155
 21
-22.3527419108
  0
LINE
  5
41C
100
AcDbEntity
  8
DRAFT
100
AcDbLine
 62
7
  6
CONTINUOUS
 10
-21.1928812155
 20
-22.3527419108
 11
-19.4428812155
 21
-22.3527419108
  0
LINE
  5
41D
100
AcDbEntity
  8
DRAFT
100
AcDbLine
 62
7
  6
CONTINUOUS
 10
0.5571187845
 20
-22.3527419108
 11
2.3071187845
 21
-22.3527419108
  0
LINE
  5
41E
100
AcDbEntity
  8
DRAFT
100
AcDbLine
 62
7
  6
CONTINUOUS
 10
3.8071187845
 20
-22.3527419108
 11
5.5571187845
 21
-22.3527419108
  0
LINE
  5
41F
100
AcDbEntity
  8
DRAFT
100
AcDbLine
 62
7
  6
CONTINUOUS
 10
25.5571187845
 20
-22.3527419108
 11
27.3071187845
 21
-22.3527419108
  0
LINE
  5
420
100
AcDbEntity
  8
DRAFT
100
AcDbLine
 62
7
  6
CONTINUOUS
 10
28.8071187845
 20
-22.3527419108
 11
30.5571187845
 21
-22.3527419108
  0
LINE
  5
421
100
AcDbEntity
  8
DRAFT
100
AcDbLine
 62
7
  6
CONTINUOUS
 10
-32.8428812155
 20
-22.085102184
 11
-24.4428812155
 21
-22.085102184
  0
LINE
  5
422
100
AcDbEntity
  8
DRAFT
100
AcDbLine
 62
7
  6
CONTINUOUS
 10
-22.6928812155
 20
-22.085102184
 11
-21.1928812155
 21
-22.085102184
  0
LINE
  5
423
100
AcDbEntity
  8
DRAFT
100
AcDbLine
 62
7
  6
CONTINUOUS
 10
-19.4428812155
 20
-22.085102184
 11
0.5571187845
 21
-22.085102184
  0
LINE
  5
424
100
AcDbEntity
  8
DRAFT
100
AcDbLine
 62
7
  6
CONTINUOUS
 10
2.3071187845
 20
-22.085102184
 11
3.8071187845
 21
-22.085102184
  0
LINE
  5
425
100
AcDbEntity
  8
DRAFT
100
AcDbLine
 62
7
  6
CONTINUOUS
 10
5.5571187845
 20
-22.085102184
 11
25.5571187845
 21
-22.085102184
  0
LINE
  5
426
100
AcDbEntity
  8
DRAFT
100
AcDbLine
 62
7
  6
CONTINUOUS
 10
27.3071187845
 20
-22.085102184
 11
28.8071187845
 21
-22.085102184
  0
LINE
  5
427
100
AcDbEntity
  8
DRAFT
100
AcDbLine
 62
7
  6
CONTINUOUS
 10
30.5571187845
 20
-22.085102184
 11
38.9571187845
 21
-22.085102184
  0
LINE
  5
428
100
AcDbEntity
  8
0
100
AcDbLine
 62
7
  6
CONTINUOUS
 10
-24.4428812155
 20
-20.285102184
 11
-22.6928812155
 21
-20.285102184
  0
LINE
  5
429
100
AcDbEntity
  8
0
100
AcDbLine
 62
7
  6
CONTINUOUS
 10
-21.1928812155
 20
-20.285102184
 11
-19.4428812155
 21
-20.285102184
  0
LINE
  5
42A
100
AcDbEntity
  8
0
100
AcDbLine
 62
7
  6
CONTINUOUS
 10
0.5571187845
 20
-20.285102184
 11
2.3071187845
 21
-20.285102184
  0
LINE
  5
42B
100
AcDbEntity
  8
0
100
AcDbLine
 62
7
  6
CONTINUOUS
 10
3.8071187845
 20
-20.285102184
 11
5.5571187845
 21
-20.285102184
  0
LINE
  5
42C
100
AcDbEntity
  8
0
100
AcDbLine
 62
7
  6
CONTINUOUS
 10
25.5571187845
 20
-20.285102184
 11
27.3071187845
 21
-20.285102184
  0
LINE
  5
42D
100
AcDbEntity
  8
0
100
AcDbLine
 62
7
  6
CONTINUOUS
 10
28.8071187845
 20
-20.285102184
 11
30.5571187845
 21
-20.285102184
  0
LINE
  5
42E
100
AcDbEntity
  8
0
100
AcDbLine
 62
7
  6
CONTINUOUS
 10
-24.1760621395
 20
7.664897816
 11
-24.8581729097
 21
9.3677558723
  0
LINE
  5
42F
100
AcDbEntity
  8
0
100
AcDbLine
 62
7
  6
CONTINUOUS
 10
-24.7520854211
 20
8.5604073484
 11
-24.6759540939
 21
8.3666817422
  0
LINE
  5
430
100
AcDbEntity
  8
0
100
AcDbLine
 62
7
  6
CONTINUOUS
 10
-24.607420564
 20
8.1809154088
 11
-24.4174616811
 21
7.664897816
  0
LINE
  5
431
100
AcDbEntity
  8
0
100
AcDbLine
 62
7
  6
CONTINUOUS
 10
-27.3381212563
 20
9.1097470759
 11
-26.8470981747
 21
7.664897816
  0
LINE
  5
432
100
AcDbEntity
  8
0
100
AcDbLine
 62
7
  6
CONTINUOUS
 10
-26.7970519898
 20
8.1080254648
 11
-27.2191146153
 21
9.3677558723
  0
LINE
  5
433
100
AcDbEntity
  8
0
100
AcDbLine
 62
7
  6
CONTINUOUS
 10
-26.7695146003
 20
8.023899338
 11
-26.7970519898
 21
8.1080254648
  0
LINE
  5
434
100
AcDbEntity
  8
0
100
AcDbLine
 62
7
  6
CONTINUOUS
 10
-26.7516963848
 20
7.9683484112
 11
-26.7695146003
 21
8.023899338
  0
LINE
  5
435
100
AcDbEntity
  8
0
100
AcDbLine
 62
7
  6
CONTINUOUS
 10
-26.734380594
 20
7.9132312924
 11
-26.7516963848
 21
7.9683484112
  0
LWPOLYLINE
  5
436
100
AcDbEntity
  8
0
100
AcDbPolyline
 62
7
  6
CONTINUOUS
 90
6
 70
0
 10
-24.9799207785
 20
9.1923098907
 10
-24.9535928238
 20
9.106582814
 10
-24.9250612205
 20
9.0193331036
 10
-24.8943259686
 20
8.9305607597
 10
-24.8609309104
 20
8.8402387321
 10
-24.7520854211
 20
8.5604073484
  0
LWPOLYLINE
  5
437
100
AcDbEntity
  8
0
100
AcDbPolyline
 62
7
  6
CONTINUOUS
 90
12
 70
0
 10
-21.6174419905
 20
8.8740388942
 10
-21.611075039
 20
8.8378203919
 10
-21.6016411568
 20
8.8030656785
 10
-21.5892972825
 20
8.7699700094
 10
-21.5738864775
 20
8.7383381292
 10
-21.555283038
 20
8.7081013482
 10
-21.5335235026
 20
8.6792549048
 10
-21.5085713326
 20
8.6518035606
 10
-21.4801912084
 20
8.6256929104
 10
-21.4483046899
 20
8.6009048192
 10
-21.412990217
 20
8.577457422
 10
-21.3742477898
 20
8.5553507189
  0
LINE
  5
438
100
AcDbEntity
  8
0
100
AcDbLine
 62
7
  6
CONTINUOUS
 10
-14.6028070662
 20
9.3677558723
 11
-14.6028070662
 21
7.664897816
  0
LINE
  5
439
100
AcDbEntity
  8
0
100
AcDbLine
 62
7
  6
CONTINUOUS
 10
-14.3757593254
 20
7.664897816
 11
-14.3757593254
 21
9.3677558723
  0
LINE
  5
43A
100
AcDbEntity
  8
0
100
AcDbLine
 62
7
  6
CONTINUOUS
 10
-13.9216638437
 20
7.664897816
 11
-13.7421864132
 21
8.1809154088
  0
LWPOLYLINE
  5
43B
100
AcDbEntity
  8
0
100
AcDbPolyline
 62
7
  6
CONTINUOUS
 90
9
 70
0
 10
-15.5170260925
 20
8.1024728222
 10
-15.5284975064
 20
8.0712299272
 10
-15.5396069849
 20
8.0401001874
 10
-15.5503523898
 20
8.0090789214
 10
-15.5607358592
 20
7.9781708107
 10
-15.5707638077
 20
7.9473898991
 10
-15.5804383733
 20
7.9167408682
 10
-15.5897574179
 20
7.8862190365
 10
-15.5987209416
 20
7.8558244041
  0
LINE
  5
43C
100
AcDbEntity
  8
0
100
AcDbLine
 62
7
  6
CONTINUOUS
 10
-13.6775229168
 20
8.3666817422
 11
-13.4935304209
 21
8.8638324689
  0
LINE
  5
43D
100
AcDbEntity
  8
0
100
AcDbLine
 62
7
  6
CONTINUOUS
 10
-15.0362618441
 20
9.3677558723
 11
-15.5170260925
 21
8.1024728222
  0
LINE
  5
43E
100
AcDbEntity
  8
0
100
AcDbLine
 62
7
  6
CONTINUOUS
 10
-13.5140098667
 20
9.3677558723
 11
-14.1612893903
 21
7.664897816
  0
LINE
  5
43F
100
AcDbEntity
  8
0
100
AcDbLine
 62
7
  6
CONTINUOUS
 10
-15.4726191079
 20
7.664897816
 11
-14.7934109809
 21
9.3677558723
  0
LWPOLYLINE
  5
440
100
AcDbEntity
  8
0
100
AcDbPolyline
 62
7
  6
CONTINUOUS
 90
10
 70
0
 10
-13.4935304209
 20
8.8638324689
 10
-13.4793326682
 20
8.8988731965
 10
-13.4657997492
 20
8.9343116987
 10
-13.452931664
 20
8.9701479754
 10
-13.4407105983
 20
9.0064268048
 10
-13.4291543664
 20
9.0431034088
 10
-13.4183164107
 20
9.0800434528
 10
-13.4082145456
 20
9.1172021587
 10
-13.3988309568
 20
9.1546243047
 10
-13.3901656444
 20
9.1923098907
  0
LINE
  5
441
100
AcDbEntity
  8
RACCORDO
100
AcDbLine
 62
250
  6
CONTINUOUS
 10
37.8525406998
 20
-59.1303717944
 11
37.9572710893
 21
-59.235102184
  0
LWPOLYLINE
  5
442
100
AcDbEntity
  8
0
100
AcDbPolyline
 62
7
  6
CONTINUOUS
 90
5
 70
0
 10
-22.7576908866
 20
8.0840395219
 10
-22.8077688781
 20
8.1588507021
 10
-22.8598018833
 20
8.2279448313
 10
-22.9129758935
 20
8.2921692003
 10
-22.9672909087
 20
8.3515238091
  0
LINE
  5
443
100
AcDbEntity
  8
0
100
AcDbLine
 62
7
  6
CONTINUOUS
 10
-23.0080305308
 20
8.0512398655
 11
-22.7642702887
 21
7.664897816
  0
LINE
  5
444
100
AcDbEntity
  8
0
100
AcDbLine
 62
7
  6
CONTINUOUS
 10
-22.49755372
 20
7.664897816
 11
-22.6585158926
 21
7.9223497535
  0
LINE
  5
445
100
AcDbEntity
  8
0
100
AcDbLine
 62
7
  6
CONTINUOUS
 10
-22.6585158926
 20
7.9223497535
 11
-22.7576908866
 21
8.0840395219
  0
LWPOLYLINE
  5
446
100
AcDbEntity
  8
0
100
AcDbPolyline
 62
7
  6
CONTINUOUS
 90
6
 70
0
 10
-17.8691983498
 20
9.1923098907
 10
-17.8428703951
 20
9.106582814
 10
-17.8143387918
 20
9.0193331036
 10
-17.7836035399
 20
8.9305607597
 10
-17.7502084817
 20
8.8402387321
 10
-17.6413629924
 20
8.5604073484
  0
LINE
  5
447
100
AcDbEntity
  8
0
100
AcDbLine
 62
7
  6
CONTINUOUS
 10
-12.4045721209
 20
9.3677558723
 11
-12.4045721209
 21
7.664897816
  0
LINE
  5
448
100
AcDbEntity
  8
0
100
AcDbLine
 62
7
  6
CONTINUOUS
 10
-12.1775243801
 20
7.8609845013
 11
-12.1775243801
 21
9.3677558723
  0
LINE
  5
449
100
AcDbEntity
  8
0
100
AcDbLine
 62
7
  6
CONTINUOUS
 10
-11.3312555279
 20
7.664897816
 11
-11.3312555279
 21
7.8609845013
  0
LINE
  5
44A
100
AcDbEntity
  8
0
100
AcDbLine
 62
7
  6
CONTINUOUS
 10
-11.0629263796
 20
9.3677558723
 11
-11.0629263796
 21
7.664897816
  0
LINE
  5
44B
100
AcDbEntity
  8
0
100
AcDbLine
 62
7
  6
CONTINUOUS
 10
-10.8358786388
 20
7.8609845013
 11
-10.8358786388
 21
8.4492445571
  0
LINE
  5
44C
100
AcDbEntity
  8
0
100
AcDbLine
 62
7
  6
CONTINUOUS
 10
-10.8358786388
 20
8.6453312424
 11
-10.8358786388
 21
9.171669187
  0
LINE
  5
44D
100
AcDbEntity
  8
0
100
AcDbLine
 62
7
  6
CONTINUOUS
 10
-9.9070469718
 20
8.4492445571
 11
-9.9070469718
 21
8.6453312424
  0
LINE
  5
44E
100
AcDbEntity
  8
0
100
AcDbLine
 62
7
  6
CONTINUOUS
 10
-9.8451248606
 20
9.171669187
 11
-9.8451248606
 21
9.3677558723
  0
LINE
  5
44F
100
AcDbEntity
  8
0
100
AcDbLine
 62
7
  6
CONTINUOUS
 10
-9.8038434532
 20
7.664897816
 11
-9.8038434532
 21
7.8609845013
  0
LWPOLYLINE
  5
450
100
AcDbEntity
  8
0
100
AcDbPolyline
 62
7
  6
CONTINUOUS
 90
9
 70
0
 10
-8.1379745155
 20
8.1024728222
 10
-8.1494459295
 20
8.0712299272
 10
-8.160555408
 20
8.0401001874
 10
-8.1713008129
 20
8.0090789214
 10
-8.1816842823
 20
7.9781708107
 10
-8.1917122307
 20
7.9473898991
 10
-8.2013867963
 20
7.9167408682
 10
-8.210705841
 20
7.8862190365
 10
-8.2196693646
 20
7.8558244041
  0
LINE
  5
451
100
AcDbEntity
  8
0
100
AcDbLine
 62
7
  6
CONTINUOUS
 10
-7.6572102672
 20
9.3677558723
 11
-8.1379745155
 21
8.1024728222
  0
LINE
  5
452
100
AcDbEntity
  8
0
100
AcDbLine
 62
7
  6
CONTINUOUS
 10
-8.0935675309
 20
7.664897816
 11
-7.4143594039
 21
9.3677558723
  0
LINE
  5
453
100
AcDbEntity
  8
DRAFT
100
AcDbLine
 62
7
  6
CONTINUOUS
 10
37.6094839793
 20
50.564897816
 11
37.5571187845
 21
50.5125326213
  0
LINE
  5
454
100
AcDbEntity
  8
RACCORDO
100
AcDbLine
 62
250
  6
CONTINUOUS
 10
37.9572710893
 20
50.564897816
 11
37.8525406998
 21
50.4601674265
  0
LINE
  5
455
100
AcDbEntity
  8
0
100
AcDbLine
 62
7
  6
CONTINUOUS
 10
17.2455019867
 20
-12.995662184
 11
29.9455019867
 21
-12.995662184
  0
LINE
  5
456
100
AcDbEntity
  8
0
100
AcDbLine
 62
7
  6
CONTINUOUS
 10
29.9455019867
 20
-10.995662184
 11
17.2455019867
 21
-10.995662184
  0
LINE
  5
457
100
AcDbEntity
  8
0
100
AcDbLine
 62
7
  6
CONTINUOUS
 10
21.3079847845
 20
-9.850136184
 11
21.9488387845
 21
-9.850136184
  0
LINE
  5
458
100
AcDbEntity
  8
0
100
AcDbLine
 62
7
  6
CONTINUOUS
 10
21.7886247845
 20
-9.689922184
 11
21.4681987845
 21
-9.689922184
  0
LINE
  5
459
100
AcDbEntity
  8
0
100
AcDbLine
 62
7
  6
CONTINUOUS
 10
21.4681987845
 20
-9.049068184
 11
21.7886247845
 21
-9.049068184
  0
LINE
  5
45A
100
AcDbEntity
  8
0
100
AcDbLine
 62
7
  6
CONTINUOUS
 10
21.9488387845
 20
-8.995662184
 11
23.7262027845
 21
-8.995662184
  0
LWPOLYLINE
  5
45B
100
AcDbEntity
  8
0
100
AcDbPolyline
 62
7
  6
CONTINUOUS
 90
10
 70
0
 10
-22.9672909087
 20
8.3515238091
 10
-22.9790558272
 20
8.3622441986
 10
-22.9915058973
 20
8.372698602
 10
-23.004641119
 20
8.3828870194
 10
-23.0185008119
 20
8.392791214
 10
-23.0330456565
 20
8.4024294226
 10
-23.0481576937
 20
8.411856355
 10
-23.0637976038
 20
8.4210902479
 10
-23.0800047066
 20
8.4301128646
 10
-23.096779002
 20
8.4389242052
  0
LINE
  5
45C
100
AcDbEntity
  8
RACCORDO
100
AcDbLine
 62
250
  6
CONTINUOUS
 10
38.8523883949
 20
-58.1305240992
 11
38.9571187845
 21
-58.2352544888
  0
LWPOLYLINE
  5
45D
100
AcDbEntity
  8
0
100
AcDbPolyline
 62
7
  6
CONTINUOUS
 90
28
 70
0
 10
-21.3290963489
 20
8.7923962957
 10
-21.3437502525
 20
8.8073549366
 10
-21.3565466003
 20
8.8233715728
 10
-21.3674853924
 20
8.8404462045
 10
-21.3766216379
 20
8.8586007827
 10
-21.3839003276
 20
8.8778133562
 10
-21.3891564345
 20
8.8980180715
 10
-21.3923716188
 20
8.9195597367
 10
-21.3935642203
 20
8.9420935437
 10
-21.3926242313
 20
8.9645192141
 10
-21.3895005904
 20
8.9867128856
 10
-21.384244359
 20
9.0087984206
 10
-21.3768987141
 20
9.0300471282
 10
-21.3675413933
 20
9.0502278465
 10
-21.356094659
 20
9.0695717375
 10
-21.3423684747
 20
9.0880435956
 10
-21.3263034024
 20
9.1058195684
 10
-21.3079588802
 20
9.1227235084
 10
-21.2873231857
 20
9.1381917678
 10
-21.2642650003
 20
9.1521502041
 10
-21.2389156426
 20
9.1646729597
 10
-21.2116573457
 20
9.1754188143
 10
-21.1824720151
 20
9.1842468548
 10
-21.1513777453
 20
9.1912979943
 10
-21.1188110531
 20
9.196653751
 10
-21.0849174441
 20
9.2003412976
 10
-21.0495514128
 20
9.2023334615
 10
-21.012712959
 20
9.2026302426
  0
LINE
  5
45E
100
AcDbEntity
  8
0
100
AcDbLine
 62
7
  6
CONTINUOUS
 10
-17.0653397108
 20
7.664897816
 11
-17.747450481
 21
9.3677558723
  0
LINE
  5
45F
100
AcDbEntity
  8
0
100
AcDbLine
 62
7
  6
CONTINUOUS
 10
-17.6413629924
 20
8.5604073484
 11
-17.5652316652
 21
8.3666817422
  0
LINE
  5
460
100
AcDbEntity
  8
0
100
AcDbLine
 62
7
  6
CONTINUOUS
 10
-13.162330287
 20
8.5604073484
 11
-13.0861989598
 21
8.3666817422
  0
LINE
  5
461
100
AcDbEntity
  8
0
100
AcDbLine
 62
7
  6
CONTINUOUS
 10
-16.371618525
 20
9.3677558723
 11
-15.7169212928
 21
7.664897816
  0
LINE
  5
462
100
AcDbEntity
  8
0
100
AcDbLine
 62
7
  6
CONTINUOUS
 10
-17.4966981353
 20
8.1809154088
 11
-17.3067392524
 21
7.664897816
  0
LINE
  5
463
100
AcDbEntity
  8
0
100
AcDbLine
 62
7
  6
CONTINUOUS
 10
-13.0176654298
 20
8.1809154088
 11
-12.827706547
 21
7.664897816
  0
LWPOLYLINE
  5
464
100
AcDbEntity
  8
0
100
AcDbPolyline
 62
7
  6
CONTINUOUS
 90
6
 70
0
 10
-13.3901656444
 20
9.1923098907
 10
-13.3638376897
 20
9.106582814
 10
-13.3353060864
 20
9.0193331036
 10
-13.3045708344
 20
8.9305607597
 10
-13.2711757763
 20
8.8402387321
 10
-13.162330287
 20
8.5604073484
  0
LWPOLYLINE
  5
465
100
AcDbEntity
  8
0
100
AcDbPolyline
 62
7
  6
CONTINUOUS
 90
10
 70
0
 10
-15.5987209416
 20
7.8558244041
 10
-15.6072587852
 20
7.8860250653
 10
-15.6161502612
 20
7.9163999763
 10
-15.6253953697
 20
7.946949137
 10
-15.6350028464
 20
7.9776753057
 10
-15.6449639555
 20
8.0085757242
 10
-15.6552524895
 20
8.0396421176
 10
-15.6658597125
 20
8.0708717277
 10
-15.6767943604
 20
8.1022673126
 10
-16.1302191409
 20
9.3677558723
  0
LINE
  5
466
100
AcDbEntity
  8
0
100
AcDbLine
 62
7
  6
CONTINUOUS
 10
-7.2237554893
 20
9.3677558723
 11
-7.2237554893
 21
7.664897816
  0
LINE
  5
467
100
AcDbEntity
  8
0
100
AcDbLine
 62
7
  6
CONTINUOUS
 10
-6.9967077484
 20
7.664897816
 11
-6.9967077484
 21
9.3677558723
  0
LINE
  5
468
100
AcDbEntity
  8
0
100
AcDbLine
 62
7
  6
CONTINUOUS
 10
-6.1428812155
 20
49.164897816
 11
-6.1428812155
 21
42.864897816
  0
LINE
  5
469
100
AcDbEntity
  8
0
100
AcDbLine
 62
7
  6
CONTINUOUS
 10
-6.1428812155
 20
-57.835102184
 11
-6.1428812155
 21
-51.535102184
  0
LINE
  5
46A
100
AcDbEntity
  8
0
100
AcDbLine
 62
7
  6
CONTINUOUS
 10
-4.8707152661
 20
9.3677558723
 11
-4.8707152661
 21
7.664897816
  0
LINE
  5
46B
100
AcDbEntity
  8
0
100
AcDbLine
 62
7
  6
CONTINUOUS
 10
-4.6436675253
 20
7.8609845013
 11
-4.6436675253
 21
8.4492445571
  0
LINE
  5
46C
100
AcDbEntity
  8
0
100
AcDbLine
 62
7
  6
CONTINUOUS
 10
-4.6436675253
 20
8.6453312424
 11
-4.6436675253
 21
9.171669187
  0
LWPOLYLINE
  5
46D
100
AcDbEntity
  8
0
100
AcDbPolyline
 62
7
  6
CONTINUOUS
 90
42
 70
0
 10
-5.3867328589
 20
8.2625108334
 10
-5.4009189664
 20
8.2089643252
 10
-5.4176314725
 20
8.1590482276
 10
-5.4368703773
 20
8.1127625406
 10
-5.4588670082
 20
8.0700367545
 10
-5.4833900377
 20
8.030941379
 10
-5.5097454835
 20
7.995687943
 10
-5.5376203865
 20
7.9645851171
 10
-5.5673277057
 20
7.9373242308
 10
-5.5991123356
 20
7.9131908008
 10
-5.6329048238
 20
7.8919756184
 10
-5.6687746228
 20
7.8738878924
 10
-5.7071749839
 20
7.8588407662
 10
-5.7485416097
 20
7.8465739793
 10
-5.7924387976
 20
7.8373477922
 10
-5.8380126915
 20
7.831856129
 10
-5.8858836195
 20
7.8302920825
 10
-5.9354312535
 20
7.83246256
 10
-5.9839407534
 20
7.8384822065
 10
-6.0310947366
 20
7.848666901
 10
-6.0772105858
 20
7.8627007647
 10
-6.120525609
 20
7.8797508064
 10
-6.1604881019
 20
7.8996619857
 10
-6.1976497689
 20
7.922589343
 10
-6.2319030311
 20
7.9481650087
 10
-6.2631018271
 20
7.9761307768
 10
-6.2913922184
 20
8.0067448533
 10
-6.3171048109
 20
8.0404139865
 10
-6.3402739101
 20
8.077279363
 10
-6.3608652105
 20
8.1171997963
 10
-6.3791064009
 20
8.1601584751
 10
-6.3951104516
 20
8.2062524624
 10
-6.4087643923
 20
8.2553846953
 10
-6.4199570003
 20
8.3072471738
 10
-6.4287952868
 20
8.3621914045
 10
-6.4351722406
 20
8.4198658808
 10
-6.4386556049
 20
8.4789080829
 10
-6.4391325997
 20
8.5401251054
 10
-6.4367160051
 20
8.6027098536
 10
-6.4313119043
 20
8.6628785234
 10
-6.4227412122
 20
8.7196291024
 10
-6.411183014
 20
8.7739636031
  0
LWPOLYLINE
  5
46E
100
AcDbEntity
  8
0
100
AcDbPolyline
 62
7
  6
CONTINUOUS
 90
17
 70
0
 10
-6.411183014
 20
8.7739636031
 10
-6.3970806481
 20
8.8251042582
 10
-6.3805331164
 20
8.8728912443
 10
-6.361441417
 20
8.9174843849
 10
-6.3399518838
 20
8.9585853837
 10
-6.3161322155
 20
8.9959562755
 10
-6.2899147134
 20
9.0298350256
 10
-6.2612426155
 20
9.0606372328
 10
-6.2303059873
 20
9.0884077434
 10
-6.1969147633
 20
9.1131017111
 10
-6.1604419851
 20
9.1350001965
 10
-6.1205703956
 20
9.1544049555
 10
-6.0776172519
 20
9.1710142321
 10
-6.0319073665
 20
9.1842038199
 10
-5.9835490103
 20
9.1937656497
 10
-5.9324339124
 20
9.1999077906
 10
-5.8785620729
 20
9.2026302426
  0
LINE
  5
46F
100
AcDbEntity
  8
0
100
AcDbLine
 62
7
  6
CONTINUOUS
 10
-0.8636773608
 20
8.9676810193
 11
-1.7333283019
 21
7.8692086572
  0
LINE
  5
470
100
AcDbEntity
  8
0
100
AcDbLine
 62
7
  6
CONTINUOUS
 10
-1.4761256379
 20
7.8609845013
 11
-0.4226436162
 21
9.171669187
  0
LWPOLYLINE
  5
471
100
AcDbEntity
  8
0
100
AcDbPolyline
 62
7
  6
CONTINUOUS
 90
10
 70
0
 10
-0.6864575417
 20
9.171669187
 10
-0.7063170599
 20
9.1505952897
 10
-0.7261317638
 20
9.1291143526
 10
-0.7459016534
 20
9.1072263755
 10
-0.7656231186
 20
9.0849191236
 10
-0.7852997695
 20
9.0622048319
 10
-0.8049424361
 20
9.0391202051
 10
-0.8245547286
 20
9.0156774782
 10
-0.8441330368
 20
8.9918644163
 10
-0.8636773608
 20
8.9676810193
  0
LINE
  5
472
100
AcDbEntity
  8
RACCORDO
100
AcDbLine
 62
250
  6
CONTINUOUS
 10
38.9571187845
 20
49.5650501209
 11
38.8523883949
 21
49.4603197313
  0
LWPOLYLINE
  5
473
100
AcDbEntity
  8
0
100
AcDbPolyline
 62
7
  6
CONTINUOUS
 90
12
 70
0
 10
5.5975248639
 20
9.3225163192
 10
5.563244317
 20
9.302828538
 10
5.5310954632
 20
9.2802970543
 10
5.5011280501
 20
9.2551547332
 10
5.4732923301
 20
9.2271687096
 10
5.4472784872
 20
9.1956853229
 10
5.4227137124
 20
9.1604026845
 10
5.3999708148
 20
9.1216226829
 10
5.3798584055
 20
9.0795973227
 10
5.3626460218
 20
9.0344106052
 10
5.3480641263
 20
8.9859785291
 10
5.3361127193
 20
8.9343010943
  0
LWPOLYLINE
  5
474
100
AcDbEntity
  8
0
100
AcDbPolyline
 62
7
  6
CONTINUOUS
 90
38
 70
0
 10
6.1030439158
 20
8.5874405802
 10
6.1388816156
 20
8.6063414371
 10
6.171543304
 20
8.6265841478
 10
6.201028981
 20
8.6481687124
 10
6.2271936539
 20
8.6710559598
 10
6.2501823155
 20
8.695285061
 10
6.2704299437
 20
8.720973529
 10
6.2880470874
 20
8.7481032168
 10
6.3029231977
 20
8.7766922714
 10
6.3151616058
 20
8.8069126474
 10
6.3249508629
 20
8.8390859842
 10
6.3321024178
 20
8.8728906423
 10
6.3361539483
 20
8.9075336584
 10
6.337018427
 20
8.9430630163
 10
6.3347828813
 20
8.9794307322
 10
6.3292460709
 20
9.0156998916
 10
6.320198717
 20
9.0520364396
 10
6.3078500985
 20
9.088274431
 10
6.2926268115
 20
9.1229791155
 10
6.2745669056
 20
9.1558774626
 10
6.2536323312
 20
9.1872425028
 10
6.230135536
 20
9.2164585774
 10
6.2042817137
 20
9.2432930543
 10
6.1758656706
 20
9.2679785656
 10
6.1445842734
 20
9.290597348
 10
6.1102215677
 20
9.3114577318
 10
6.0729935079
 20
9.3302513868
 10
6.0332448233
 20
9.3461355591
 10
5.9905266744
 20
9.3590633982
 10
5.9452879007
 20
9.3690817546
 10
5.8992197506
 20
9.3754884261
 10
5.8519481497
 20
9.377951686
 10
5.8038471723
 20
9.3768032609
 10
5.7577302893
 20
9.3723361283
 10
5.7144326002
 20
9.3645045907
 10
5.6731190055
 20
9.3533543456
 10
5.6340976773
 20
9.3393154624
 10
5.5975248639
 20
9.3225163192
  0
LWPOLYLINE
  5
475
100
AcDbEntity
  8
0
100
AcDbPolyline
 62
7
  6
CONTINUOUS
 90
10
 70
0
 10
2.1677646996
 20
8.7472448547
 10
2.223560345
 20
8.7705690883
 10
2.2774120313
 20
8.7952384298
 10
2.3293197583
 20
8.8212528793
 10
2.3796184836
 20
8.8488278429
 10
2.4279732497
 20
8.8777479145
 10
2.4733791842
 20
8.9073668759
 10
2.5155013297
 20
8.937469321
 10
2.5546746435
 20
8.9682706559
 10
2.5908991257
 20
8.9997708805
  0
LINE
  5
476
100
AcDbEntity
  8
RACCORDO
100
AcDbLine
 62
7
  6
CONTINUOUS
 10
7.5571187845
 20
-5.835102184
 11
7.9101283806
 21
-5.789095825
  0
LINE
  5
477
100
AcDbEntity
  8
0
100
AcDbLine
 62
7
  6
CONTINUOUS
 10
23.7262014787
 20
-8.888854184
 11
21.4058567845
 21
-8.888854184
  0
LINE
  5
478
100
AcDbEntity
  8
DRAFT
100
AcDbLine
 62
7
  6
CONTINUOUS
 10
-2.9428812155
 20
-5.835102184
 11
-1.4428812155
 21
-5.835102184
  0
LINE
  5
479
100
AcDbEntity
  8
DRAFT
100
AcDbLine
 62
7
  6
CONTINUOUS
 10
7.5571187845
 20
-5.835102184
 11
9.0571187845
 21
-5.835102184
  0
LINE
  5
47A
100
AcDbEntity
  8
RACCORDO
100
AcDbLine
 62
250
  6
CONTINUOUS
 10
-2.8968748565
 20
-5.789095825
 11
-1.7958908116
 21
-5.789095825
  0
LINE
  5
47B
100
AcDbEntity
  8
RACCORDO
100
AcDbLine
 62
250
  6
CONTINUOUS
 10
7.9101283806
 20
-5.789095825
 11
9.0111124255
 21
-5.789095825
  0
LINE
  5
47C
100
AcDbEntity
  8
RACCORDO
100
AcDbLine
 62
250
  6
CONTINUOUS
 10
-2.8800238304
 20
-5.2894004115
 11
-1.9251897619
 21
-5.2894004115
  0
LINE
  5
47D
100
AcDbEntity
  8
RACCORDO
100
AcDbLine
 62
250
  6
CONTINUOUS
 10
8.0394273309
 20
-5.2894004115
 11
8.9942613994
 21
-5.2894004115
  0
LINE
  5
47E
100
AcDbEntity
  8
RACCORDO
100
AcDbLine
 62
7
  6
CONTINUOUS
 10
-1.4428812155
 20
-5.835102184
 11
-1.7958908116
 21
-5.789095825
  0
LINE
  5
47F
100
AcDbEntity
  8
0
100
AcDbLine
 62
7
  6
CONTINUOUS
 10
-12.5863070053
 20
7.664897816
 11
-13.2684177756
 21
9.3677558723
  0
LINE
  5
480
100
AcDbEntity
  8
0
100
AcDbLine
 62
7
  6
CONTINUOUS
 10
-8.9925669481
 20
9.3677558723
 11
-8.3378697158
 21
7.664897816
  0
LWPOLYLINE
  5
481
100
AcDbEntity
  8
0
100
AcDbPolyline
 62
7
  6
CONTINUOUS
 90
10
 70
0
 10
-8.2196693646
 20
7.8558244041
 10
-8.2282072082
 20
7.8860250653
 10
-8.2370986843
 20
7.9163999763
 10
-8.2463437927
 20
7.946949137
 10
-8.2559512694
 20
7.9776753057
 10
-8.2659123785
 20
8.0085757242
 10
-8.2762009125
 20
8.0396421176
 10
-8.2868081355
 20
8.0708717277
 10
-8.2977427834
 20
8.1022673126
 10
-8.7511675639
 20
9.3677558723
  0
LINE
  5
482
100
AcDbEntity
  8
DRAFT
100
AcDbLine
 62
7
  6
CONTINUOUS
 10
-1.3205320164
 20
11.064897816
 11
-1.3219351376
 21
11.364897816
  0
LINE
  5
483
100
AcDbEntity
  8
0
100
AcDbLine
 62
7
  6
CONTINUOUS
 10
-3.9428812155
 20
49.164897816
 11
-3.9428812155
 21
42.864897816
  0
LINE
  5
484
100
AcDbEntity
  8
0
100
AcDbLine
 62
7
  6
CONTINUOUS
 10
-3.9428812155
 20
-57.835102184
 11
-3.9428812155
 21
-51.535102184
  0
LINE
  5
485
100
AcDbEntity
  8
0
100
AcDbLine
 62
7
  6
CONTINUOUS
 10
-3.7148358583
 20
8.4492445571
 11
-3.7148358583
 21
8.6453312424
  0
LINE
  5
486
100
AcDbEntity
  8
0
100
AcDbLine
 62
7
  6
CONTINUOUS
 10
-3.6529137471
 20
9.171669187
 11
-3.6529137471
 21
9.3677558723
  0
LINE
  5
487
100
AcDbEntity
  8
0
100
AcDbLine
 62
7
  6
CONTINUOUS
 10
-3.6116323397
 20
7.664897816
 11
-3.6116323397
 21
7.8609845013
  0
LINE
  5
488
100
AcDbEntity
  8
0
100
AcDbLine
 62
7
  6
CONTINUOUS
 10
-3.2917014322
 20
9.3677558723
 11
-3.2917014322
 21
7.664897816
  0
LINE
  5
489
100
AcDbEntity
  8
0
100
AcDbLine
 62
7
  6
CONTINUOUS
 10
-3.0646536913
 20
7.664897816
 11
-3.0646536913
 21
8.9709061784
  0
LINE
  5
48A
100
AcDbEntity
  8
DRAFT
100
AcDbLine
 62
7
  6
CONTINUOUS
 10
-2.9428812155
 20
-2.835102184
 11
-2.9428812155
 21
-5.835102184
  0
LINE
  5
48B
100
AcDbEntity
  8
RACCORDO
100
AcDbLine
 62
7
  6
CONTINUOUS
 10
-2.8800238304
 20
-3.3808039564
 11
-2.8800238304
 21
-5.2894004115
  0
LINE
  5
48C
100
AcDbEntity
  8
0
100
AcDbLine
 62
7
  6
CONTINUOUS
 10
-2.4428812155
 20
49.164897816
 11
-2.4428812155
 21
42.264897816
  0
LINE
  5
48D
100
AcDbEntity
  8
0
100
AcDbLine
 62
7
  6
CONTINUOUS
 10
-2.1977441354
 20
9.3677558723
 11
-2.1977441354
 21
8.0617476674
  0
LINE
  5
48E
100
AcDbEntity
  8
0
100
AcDbLine
 62
7
  6
CONTINUOUS
 10
-1.9706963946
 20
7.664897816
 11
-1.9706963946
 21
9.3677558723
  0
LINE
  5
48F
100
AcDbEntity
  8
RACCORDO
100
AcDbLine
 62
7
  6
CONTINUOUS
 10
-1.9251897619
 20
-3.3808039564
 11
-1.9251897619
 21
-5.2894004115
  0
LINE
  5
490
100
AcDbEntity
  8
0
100
AcDbLine
 62
7
  6
CONTINUOUS
 10
-1.7333283019
 20
7.8692086572
 11
-1.7333283019
 21
7.664897816
  0
LINE
  5
491
100
AcDbEntity
  8
0
100
AcDbLine
 62
7
  6
CONTINUOUS
 10
-1.6301247834
 20
9.3677558723
 11
-1.6301247834
 21
9.171669187
  0
LINE
  5
492
100
AcDbEntity
  8
SMUSSO
100
AcDbLine
 62
7
  6
CONTINUOUS
 10
-1.4428812155
 20
16.0459172643
 11
-1.4428812155
 21
13.414897816
  0
LINE
  5
493
100
AcDbEntity
  8
DRAFT
100
AcDbLine
 62
7
  6
CONTINUOUS
 10
-1.4428812155
 20
-5.835102184
 11
-1.4428812155
 21
-2.835102184
  0
LINE
  5
494
100
AcDbEntity
  8
DRAFT
100
AcDbLine
 62
7
  6
CONTINUOUS
 10
-1.4428812155
 20
16.0459172643
 11
-1.4428812155
 21
16.914897816
  0
LINE
  5
495
100
AcDbEntity
  8
0
100
AcDbLine
 62
7
  6
CONTINUOUS
 10
-1.4428812155
 20
39.364897816
 11
-1.4428812155
 21
49.664897816
  0
LINE
  5
496
100
AcDbEntity
  8
RACCORDO
100
AcDbLine
 62
7
  6
CONTINUOUS
 10
-1.3428812155
 20
45.0649739685
 11
-1.3428812155
 21
39.364897816
  0
LINE
  5
497
100
AcDbEntity
  8
RACCORDO
100
AcDbLine
 62
7
  6
CONTINUOUS
 10
-1.3428812155
 20
16.914897816
 11
-1.3428812155
 21
12.164897816
  0
LINE
  5
498
100
AcDbEntity
  8
RACCORDO
100
AcDbLine
 62
7
  6
CONTINUOUS
 10
-1.3219351376
 20
11.364897816
 11
-1.3219351376
 21
11.864897816
  0
LINE
  5
499
100
AcDbEntity
  8
0
100
AcDbLine
 62
7
  6
CONTINUOUS
 10
-0.5928812155
 20
16.914897816
 11
-0.5928812155
 21
39.364897816
  0
LINE
  5
49A
100
AcDbEntity
  8
0
100
AcDbLine
 62
7
  6
CONTINUOUS
 10
-0.4226436162
 20
9.171669187
 11
-0.4226436162
 21
9.3677558723
  0
LINE
  5
49B
100
AcDbEntity
  8
0
100
AcDbLine
 62
7
  6
CONTINUOUS
 10
-0.3813622088
 20
7.664897816
 11
-0.3813622088
 21
7.8609845013
  0
LINE
  5
49C
100
AcDbEntity
  8
DRAFT
100
AcDbLine
 62
7
  6
CONTINUOUS
 10
-0.1789171636
 20
14.764897816
 11
-0.1789171636
 21
37.064897816
  0
LINE
  5
49D
100
AcDbEntity
  8
DRAFT
100
AcDbLine
 62
7
  6
CONTINUOUS
 10
-0.1789171636
 20
41.864897816
 11
-0.1789171636
 21
44.064897816
  0
LINE
  5
49E
100
AcDbEntity
  8
0
100
AcDbLine
 62
7
  6
CONTINUOUS
 10
-0.0928812155
 20
37.064897816
 11
-0.0928812155
 21
16.914897816
  0
LINE
  5
49F
100
AcDbEntity
  8
DRAFT
100
AcDbLine
 62
7
  6
CONTINUOUS
 10
0.5571187845
 20
-20.285102184
 11
0.5571187845
 21
-22.3527419108
  0
LINE
  5
4A0
100
AcDbEntity
  8
0
100
AcDbLine
 62
7
  6
CONTINUOUS
 10
-0.0923923569
 20
7.664897816
 11
0.0870850737
 21
8.1809154088
  0
LINE
  5
4A1
100
AcDbEntity
  8
0
100
AcDbLine
 62
7
  6
CONTINUOUS
 10
0.1517485701
 20
8.3666817422
 11
0.3357410659
 21
8.8638324689
  0
LINE
  5
4A2
100
AcDbEntity
  8
0
100
AcDbLine
 62
7
  6
CONTINUOUS
 10
0.3152616202
 20
9.3677558723
 11
-0.3320179035
 21
7.664897816
  0
LWPOLYLINE
  5
4A3
100
AcDbEntity
  8
0
100
AcDbPolyline
 62
7
  6
CONTINUOUS
 90
10
 70
0
 10
0.3357410659
 20
8.8638324689
 10
0.3499388187
 20
8.8988731965
 10
0.3634717376
 20
8.9343116987
 10
0.3763398229
 20
8.9701479754
 10
0.3885608886
 20
9.0064268048
 10
0.4001171205
 20
9.0431034088
 10
0.4109550761
 20
9.0800434528
 10
0.4210569412
 20
9.1172021587
 10
0.43044053
 20
9.1546243047
 10
0.4391058425
 20
9.1923098907
  0
LWPOLYLINE
  5
4A4
100
AcDbEntity
  8
0
100
AcDbPolyline
 62
7
  6
CONTINUOUS
 90
16
 70
0
 10
2.6642703944
 20
9.3780762241
 10
2.6474803116
 20
9.3475327249
 10
2.6282985867
 20
9.3171531369
 10
2.6067252195
 20
9.28693746
 10
2.582688348
 20
9.2568600688
 10
2.5562598344
 20
9.2269465887
 10
2.5276552645
 20
9.1972738961
 10
2.4969834736
 20
9.1678078974
 10
2.4641356266
 20
9.1385826862
 10
2.4290008034
 20
9.1097774197
 10
2.3916227283
 20
9.0813163086
 10
2.3519576771
 20
9.0532751422
 10
2.3097635578
 20
9.0260604457
 10
2.2649596731
 20
8.9998077275
 10
2.2176267204
 20
8.9743814792
 10
2.1677646996
 20
8.9497817008
  0
LINE
  5
4A5
100
AcDbEntity
  8
0
100
AcDbLine
 62
7
  6
CONTINUOUS
 10
4.0563890892
 20
9.3677558723
 11
3.2617219963
 21
8.2634782237
  0
LINE
  5
4A6
100
AcDbEntity
  8
0
100
AcDbLine
 62
7
  6
CONTINUOUS
 10
3.4684515493
 20
8.2634782237
 11
4.0151076818
 21
9.0233142275
  0
LWPOLYLINE
  5
4A7
100
AcDbEntity
  8
0
100
AcDbPolyline
 62
7
  6
CONTINUOUS
 90
25
 70
0
 10
7.0431634825
 20
9.1468359339
 10
7.0672935564
 20
9.1619602904
 10
7.0922382061
 20
9.1747015697
 10
7.1179974314
 20
9.1850597717
 10
7.144832077
 20
9.1930318652
 10
7.1724812983
 20
9.1986208815
 10
7.2001625616
 20
9.2018359144
 10
7.2280033268
 20
9.2026174008
 10
7.2558761341
 20
9.2010249039
 10
7.2826160702
 20
9.197246207
 10
7.307965499
 20
9.1911729363
 10
7.3321820567
 20
9.1829134656
 10
7.3548737379
 20
9.1729806992
 10
7.3759279989
 20
9.1614412194
 10
7.3954573836
 20
9.1482284438
 10
7.4134075177
 20
9.13365553
 10
7.4296617627
 20
9.1179656388
 10
7.4443367572
 20
9.1009156094
 10
7.4577280426
 20
9.0820891167
 10
7.4698601323
 20
9.0612248186
 10
7.4807085129
 20
9.0385840573
 10
7.490495186
 20
9.0145345341
 10
7.4992941519
 20
8.9891988161
 10
7.5070314102
 20
8.9624543361
 10
7.5137069609
 20
8.9343010943
  0
LWPOLYLINE
  5
4A8
100
AcDbEntity
  8
0
100
AcDbPolyline
 62
7
  6
CONTINUOUS
 90
25
 70
0
 10
9.6851735576
 20
9.1468359339
 10
9.7093036315
 20
9.1619602904
 10
9.7342482812
 20
9.1747015697
 10
9.7600075065
 20
9.1850597717
 10
9.7868421521
 20
9.1930318652
 10
9.8144913734
 20
9.1986208815
 10
9.8421726367
 20
9.2018359144
 10
9.8700134019
 20
9.2026174008
 10
9.8978862092
 20
9.2010249039
 10
9.9246261453
 20
9.197246207
 10
9.9499755741
 20
9.1911729363
 10
9.9741921318
 20
9.1829134656
 10
9.996883813
 20
9.1729806992
 10
10.017938074
 20
9.1614412194
 10
10.0374674587
 20
9.1482284438
 10
10.0554175928
 20
9.13365553
 10
10.0716718378
 20
9.1179656388
 10
10.0863468323
 20
9.1009156094
 10
10.0997381177
 20
9.0820891167
 10
10.1118702074
 20
9.0612248186
 10
10.1227185881
 20
9.0385840573
 10
10.1325052611
 20
9.0145345341
 10
10.141304227
 20
8.9891988161
 10
10.1490414853
 20
8.9624543361
 10
10.155717036
 20
8.9343010943
  0
LWPOLYLINE
  5
4A9
100
AcDbEntity
  8
0
100
AcDbPolyline
 62
7
  6
CONTINUOUS
 90
12
 70
0
 10
10.8815450141
 20
9.3225163192
 10
10.8472644672
 20
9.302828538
 10
10.8151156134
 20
9.2802970543
 10
10.7851482003
 20
9.2551547332
 10
10.7573124803
 20
9.2271687096
 10
10.7312986374
 20
9.1956853229
 10
10.7067338626
 20
9.1604026845
 10
10.683990965
 20
9.1216226829
 10
10.6638785557
 20
9.0795973227
 10
10.646666172
 20
9.0344106052
 10
10.6320842766
 20
8.9859785291
 10
10.6201328695
 20
8.9343010943
  0
LWPOLYLINE
  5
4AA
100
AcDbEntity
  8
0
100
AcDbPolyline
 62
7
  6
CONTINUOUS
 90
38
 70
0
 10
11.387064066
 20
8.5874405802
 10
11.4229017658
 20
8.6063414371
 10
11.4555634542
 20
8.6265841478
 10
11.4850491312
 20
8.6481687124
 10
11.5112138042
 20
8.6710559598
 10
11.5342024657
 20
8.695285061
 10
11.5544500939
 20
8.720973529
 10
11.5720672376
 20
8.7481032168
 10
11.5869433479
 20
8.7766922714
 10
11.599181756
 20
8.8069126474
 10
11.6089710131
 20
8.8390859842
 10
11.616122568
 20
8.8728906423
 10
11.6201740985
 20
8.9075336584
 10
11.6210385772
 20
8.9430630163
 10
11.6188030315
 20
8.9794307322
 10
11.6132662211
 20
9.0156998916
 10
11.6042188672
 20
9.0520364396
 10
11.5918702487
 20
9.088274431
 10
11.5766469617
 20
9.1229791155
 10
11.5585870558
 20
9.1558774626
 10
11.5376524814
 20
9.1872425028
 10
11.5141556862
 20
9.2164585774
 10
11.4883018639
 20
9.2432930543
 10
11.4598858208
 20
9.2679785656
 10
11.4286044236
 20
9.290597348
 10
11.3942417179
 20
9.3114577318
 10
11.3570136581
 20
9.3302513868
 10
11.3172649735
 20
9.3461355591
 10
11.2745468246
 20
9.3590633982
 10
11.2293080509
 20
9.3690817546
 10
11.1832399008
 20
9.3754884261
 10
11.1359682999
 20
9.377951686
 10
11.0878673225
 20
9.3768032609
 10
11.0417504395
 20
9.3723361283
 10
10.9984527504
 20
9.3645045907
 10
10.9571391557
 20
9.3533543456
 10
10.9181178275
 20
9.3393154624
 10
10.8815450141
 20
9.3225163192
  0
LINE
  5
4AB
100
AcDbEntity
  8
RACCORDO
100
AcDbLine
 62
7
  6
CONTINUOUS
 10
-1.4428812155
 20
-2.835102184
 11
-1.7958908116
 21
-2.8811085429
  0
LINE
  5
4AC
100
AcDbEntity
  8
0
100
AcDbLine
 62
7
  6
CONTINUOUS
 10
22.3628587845
 20
-3.922232184
 11
24.2320187845
 21
-3.922232184
  0
LINE
  5
4AD
100
AcDbEntity
  8
0
100
AcDbLine
 62
7
  6
CONTINUOUS
 10
24.1252087845
 20
-3.815422184
 11
22.4696687845
 21
-3.815422184
  0
LINE
  5
4AE
100
AcDbEntity
  8
0
100
AcDbLine
 62
7
  6
CONTINUOUS
 10
22.4696687845
 20
-3.494994184
 11
24.1252087845
 21
-3.494994184
  0
LINE
  5
4AF
100
AcDbEntity
  8
0
100
AcDbLine
 62
7
  6
CONTINUOUS
 10
24.2320187845
 20
-3.388186184
 11
22.3628587845
 21
-3.388186184
  0
LINE
  5
4B0
100
AcDbEntity
  8
0
100
AcDbLine
 62
7
  6
CONTINUOUS
 10
25.2523907845
 20
-3.388186184
 11
26.2079867845
 21
-3.388186184
  0
LINE
  5
4B1
100
AcDbEntity
  8
RACCORDO
100
AcDbLine
 62
250
  6
CONTINUOUS
 10
8.9942613994
 20
-3.3808039564
 11
8.0394273309
 21
-3.3808039564
  0
LINE
  5
4B2
100
AcDbEntity
  8
RACCORDO
100
AcDbLine
 62
250
  6
CONTINUOUS
 10
-1.9251897619
 20
-3.3808039564
 11
-2.8800238304
 21
-3.3808039564
  0
LINE
  5
4B3
100
AcDbEntity
  8
0
100
AcDbLine
 62
7
  6
CONTINUOUS
 10
26.1011767845
 20
-3.281376184
 11
25.2618947845
 21
-3.281376184
  0
LINE
  5
4B4
100
AcDbEntity
  8
RACCORDO
100
AcDbLine
 62
250
  6
CONTINUOUS
 10
9.0111124255
 20
-2.8811085429
 11
7.9101283806
 21
-2.8811085429
  0
LINE
  5
4B5
100
AcDbEntity
  8
RACCORDO
100
AcDbLine
 62
250
  6
CONTINUOUS
 10
-1.7958908116
 20
-2.8811085429
 11
-2.8968748565
 21
-2.8811085429
  0
LINE
  5
4B6
100
AcDbEntity
  8
DRAFT
100
AcDbLine
 62
7
  6
CONTINUOUS
 10
9.0571187845
 20
-2.835102184
 11
7.5571187845
 21
-2.835102184
  0
LINE
  5
4B7
100
AcDbEntity
  8
DRAFT
100
AcDbLine
 62
7
  6
CONTINUOUS
 10
-1.4428812155
 20
-2.835102184
 11
-2.9428812155
 21
-2.835102184
  0
LINE
  5
4B8
100
AcDbEntity
  8
0
100
AcDbLine
 62
7
  6
CONTINUOUS
 10
25.0330867845
 20
-2.320096184
 11
25.2386187845
 21
-2.320096184
  0
LINE
  5
4B9
100
AcDbEntity
  8
0
100
AcDbLine
 62
7
  6
CONTINUOUS
 10
25.3458367845
 20
-2.320096184
 11
25.9210747845
 21
-2.320096184
  0
LINE
  5
4BA
100
AcDbEntity
  8
0
100
AcDbLine
 62
7
  6
CONTINUOUS
 10
26.0278847845
 20
-2.213286184
 11
25.3551807845
 21
-2.213286184
  0
LINE
  5
4BB
100
AcDbEntity
  8
0
100
AcDbLine
 62
7
  6
CONTINUOUS
 10
25.2479627845
 20
-2.213286184
 11
24.9262767845
 21
-2.213286184
  0
LINE
  5
4BC
100
AcDbEntity
  8
0
100
AcDbLine
 62
7
  6
CONTINUOUS
 10
19.7994427845
 20
-1.786050184
 11
20.6772247845
 21
-1.786050184
  0
LINE
  5
4BD
100
AcDbEntity
  8
0
100
AcDbLine
 62
7
  6
CONTINUOUS
 10
20.7844427845
 20
-1.786050184
 11
25.2853427845
 21
-1.786050184
  0
LINE
  5
4BE
100
AcDbEntity
  8
0
100
AcDbLine
 62
7
  6
CONTINUOUS
 10
25.3925587845
 20
-1.786050184
 11
25.7273447845
 21
-1.786050184
  0
LINE
  5
4BF
100
AcDbEntity
  8
0
100
AcDbLine
 62
7
  6
CONTINUOUS
 10
24.9917006151
 20
-1.358814184
 11
21.4549827845
 21
-1.358814184
  0
LINE
  5
4C0
100
AcDbEntity
  8
0
100
AcDbLine
 62
7
  6
CONTINUOUS
 10
20.9209367845
 20
-1.358814184
 11
20.7470647845
 21
-1.358814184
  0
LINE
  5
4C1
100
AcDbEntity
  8
0
100
AcDbLine
 62
7
  6
CONTINUOUS
 10
20.6398467845
 20
-1.358814184
 11
19.7994427845
 21
-1.358814184
  0
LINE
  5
4C2
100
AcDbEntity
  8
0
100
AcDbLine
 62
7
  6
CONTINUOUS
 10
21.3481727845
 20
-1.252004184
 11
21.0277467845
 21
-1.252004184
  0
LINE
  5
4C3
100
AcDbEntity
  8
0
100
AcDbLine
 62
7
  6
CONTINUOUS
 10
22.5764787845
 20
-0.931576184
 11
24.0184007845
 21
-0.931576184
  0
LINE
  5
4C4
100
AcDbEntity
  8
0
100
AcDbLine
 62
7
  6
CONTINUOUS
 10
23.9115907845
 20
-0.824768184
 11
22.6832867845
 21
-0.824768184
  0
LINE
  5
4C5
100
AcDbEntity
  8
0
100
AcDbLine
 62
7
  6
CONTINUOUS
 10
21.0277467845
 20
-0.557746184
 11
21.3481727845
 21
-0.557746184
  0
LINE
  5
4C6
100
AcDbEntity
  8
0
100
AcDbLine
 62
7
  6
CONTINUOUS
 10
21.4549827845
 20
-0.450936184
 11
20.9209367845
 21
-0.450936184
  0
LINE
  5
4C7
100
AcDbEntity
  8
0
100
AcDbLine
 62
7
  6
CONTINUOUS
 10
22.6832867845
 20
-0.397532184
 11
23.9115907845
 21
-0.397532184
  0
LINE
  5
4C8
100
AcDbEntity
  8
0
100
AcDbLine
 62
7
  6
CONTINUOUS
 10
24.0184007845
 20
-0.290722184
 11
22.5764787845
 21
-0.290722184
  0
LINE
  5
4C9
100
AcDbEntity
  8
RACCORDO
100
AcDbLine
 62
7
  6
CONTINUOUS
 10
7.5571187845
 20
-2.835102184
 11
7.9101283806
 21
-2.8811085429
  0
LWPOLYLINE
  5
4CA
100
AcDbEntity
  8
0
100
AcDbPolyline
 62
7
  6
CONTINUOUS
 90
10
 70
0
 10
-20.6297312921
 20
8.5606722315
 10
-20.6651537998
 20
8.5749071971
 10
-20.7020162727
 20
8.5885346497
 10
-20.740318711
 20
8.6015545893
 10
-20.7801266483
 20
8.6138586574
 10
-20.8213745508
 20
8.6255552125
 10
-20.8638658176
 20
8.6369693304
 10
-20.907534915
 20
8.6482093698
 10
-20.9524473766
 20
8.659166972
 10
-20.9986032026
 20
8.6698421371
  0
LWPOLYLINE
  5
4CB
100
AcDbEntity
  8
0
100
AcDbPolyline
 62
7
  6
CONTINUOUS
 90
39
 70
0
 10
-20.7550266785
 20
8.3645855463
 10
-20.729350687
 20
8.3538590874
 10
-20.7055308466
 20
8.3422445865
 10
-20.6835671574
 20
8.3297420435
 10
-20.6634537109
 20
8.316497129
 10
-20.6451964156
 20
8.3023641723
 10
-20.6288129964
 20
8.2869061626
 10
-20.6142890092
 20
8.27006541
 10
-20.601638898
 20
8.2518996044
 10
-20.5909237204
 20
8.2321448032
 10
-20.5820174693
 20
8.2104981804
 10
-20.5750461517
 20
8.1872625621
 10
-20.5704488464
 20
8.1630824848
 10
-20.5683237362
 20
8.1377508033
 10
-20.5685726384
 20
8.1114746628
 10
-20.5713400838
 20
8.0855200353
 10
-20.5767367415
 20
8.0600117113
 10
-20.5846519424
 20
8.0348249004
 10
-20.5948982106
 20
8.0108512033
 10
-20.6073914243
 20
7.9883538051
 10
-20.6222157052
 20
7.9670695207
 10
-20.6394359429
 20
7.9471003954
 10
-20.6590719762
 20
7.9284411971
 10
-20.6811039663
 20
7.911097158
 10
-20.7055372858
 20
7.8951860196
 10
-20.7325337812
 20
7.8805868173
 10
-20.761931606
 20
7.8674205157
 10
-20.7932505933
 20
7.8561677505
 10
-20.8263613748
 20
7.8469372007
 10
-20.8613933188
 20
7.8396201872
 10
-20.8982543631
 20
7.8343713097
 10
-20.9372734912
 20
7.8310564614
 10
-20.9781217196
 20
7.829809749
 10
-21.0197200354
 20
7.8311880913
 10
-21.0626395909
 20
7.8354168006
 10
-21.1063092337
 20
7.8422705647
 10
-21.1479364942
 20
7.8516303657
 10
-21.1868299597
 20
7.863712036
 10
-21.2236810428
 20
7.8782997431
  0
LWPOLYLINE
  5
4CC
100
AcDbEntity
  8
0
100
AcDbPolyline
 62
7
  6
CONTINUOUS
 90
10
 70
0
 10
-21.3742477898
 20
8.5553507189
 10
-21.3435544179
 20
8.5410871928
 10
-21.3114767569
 20
8.5274899177
 10
-21.2780148067
 20
8.5145588936
 10
-21.2430992832
 20
8.5023906501
 10
-21.2067994706
 20
8.4908886576
 10
-21.1693232211
 20
8.479763327
 10
-21.1307398189
 20
8.4689181285
 10
-21.0909799798
 20
8.4584495919
 10
-21.0500437039
 20
8.4483577171
  0
LWPOLYLINE
  5
4CD
100
AcDbEntity
  8
0
100
AcDbPolyline
 62
7
  6
CONTINUOUS
 90
14
 70
0
 10
-21.2236810428
 20
7.8782997431
 10
-21.2577715118
 20
7.8946269717
 10
-21.2888603267
 20
7.9124953924
 10
-21.3171885276
 20
7.9321033345
 10
-21.342761002
 20
7.9532792705
 10
-21.3653962398
 20
7.9757323607
 10
-21.3852757512
 20
7.9997534447
 10
-21.4029489547
 20
8.026043514
 10
-21.4185217119
 20
8.0548479889
 10
-21.4318881611
 20
8.085921449
 10
-21.4432801362
 20
8.119228624
 10
-21.4527749151
 20
8.1547577571
 10
-21.4602952198
 20
8.1925206052
 10
-21.4658410503
 20
8.2325171681
  0
LINE
  5
4CE
100
AcDbEntity
  8
RACCORDO
100
AcDbLine
 62
7
  6
CONTINUOUS
 10
-2.9428812155
 20
-2.835102184
 11
-2.8968748565
 21
-2.8811085429
  0
LWPOLYLINE
  5
4CF
100
AcDbEntity
  8
0
100
AcDbPolyline
 62
7
  6
CONTINUOUS
 90
18
 70
0
 10
-6.6064287808
 20
8.1500208071
 10
-6.5833856985
 20
8.0883459182
 10
-6.5577265419
 20
8.030909085
 10
-6.5295525809
 20
7.9777597481
 10
-6.4987625456
 20
7.9288484669
 10
-6.4658914946
 20
7.8841645863
 10
-6.4312503012
 20
7.8439276996
 10
-6.394528092
 20
7.8079182135
 10
-6.355327306
 20
7.7754666936
 10
-6.3138357942
 20
7.7464739095
 10
-6.2698657054
 20
7.7210390915
 10
-6.2224559252
 20
7.6987904955
 10
-6.1712306156
 20
7.6795127007
 10
-6.1165656144
 20
7.6634211279
 10
-6.0586273202
 20
7.6507902957
 10
-5.9974711991
 20
7.6417117101
 10
-5.933041785
 20
7.636093865
 10
-5.8653390778
 20
7.6339367605
  0
LWPOLYLINE
  5
4D0
100
AcDbEntity
  8
0
100
AcDbPolyline
 62
7
  6
CONTINUOUS
 90
44
 70
0
 10
-5.2009665255
 20
8.9001150371
 10
-5.2201845039
 20
8.9571238405
 10
-5.2424370133
 20
9.0109138615
 10
-5.2677240538
 20
9.0614851
 10
-5.296341901
 20
9.109053759
 10
-5.3279942793
 20
9.1534036355
 10
-5.3617923615
 20
9.1938861214
 10
-5.3973448118
 20
9.2301496018
 10
-5.4350429659
 20
9.2625456915
 10
-5.4751720041
 20
9.2914806266
 10
-5.5175837846
 20
9.3170646588
 10
-5.5624264493
 20
9.3391875366
 10
-5.6104296045
 20
9.3579247405
 10
-5.6620900722
 20
9.3734898886
 10
-5.7169110304
 20
9.3856693629
 10
-5.7741316193
 20
9.3938977903
 10
-5.8343995984
 20
9.3981163251
 10
-5.8970672081
 20
9.3983838129
 10
-5.9594303107
 20
9.3943114178
 10
-6.0213036176
 20
9.3856329572
 10
-6.0828724175
 20
9.3726146138
 10
-6.1419884378
 20
9.3556660997
 10
-6.198211714
 20
9.3346752284
 10
-6.2519822107
 20
9.3097541863
 10
-6.3024715495
 20
9.2816492454
 10
-6.3493528258
 20
9.2506319734
 10
-6.3929529442
 20
9.2164308025
 10
-6.4334242392
 20
9.1789773014
 10
-6.4707092869
 20
9.1385116119
 10
-6.5048655113
 20
9.0947935921
 10
-6.5362175192
 20
9.047034386
 10
-6.5651487704
 20
8.995042567
 10
-6.5912758051
 20
8.9390095616
 10
-6.6137728506
 20
8.8787207936
 10
-6.6326483897
 20
8.8137196053
 10
-6.6478939395
 20
8.7444626543
 10
-6.6586582789
 20
8.6721053373
 10
-6.6647102429
 20
8.5955279146
 10
-6.6662809966
 20
8.5158501258
 10
-6.6632128137
 20
8.4375865869
 10
-6.6550584545
 20
8.36134679
 10
-6.6422651588
 20
8.286521243
 10
-6.6260169203
 20
8.2157960851
 10
-6.6064287808
 20
8.1500208071
  0
LINE
  5
4D1
100
AcDbEntity
  8
0
100
AcDbLine
 62
7
  6
CONTINUOUS
 10
2.1677646996
 20
8.9497817008
 11
2.1677646996
 21
8.7472448547
  0
LINE
  5
4D2
100
AcDbEntity
  8
DRAFT
100
AcDbLine
 62
7
  6
CONTINUOUS
 10
2.3071187845
 20
-22.3527419108
 11
2.3071187845
 21
-20.285102184
  0
LINE
  5
4D3
100
AcDbEntity
  8
0
100
AcDbLine
 62
7
  6
CONTINUOUS
 10
2.5908991257
 20
8.9997708805
 11
2.5908991257
 21
7.664897816
  0
LINE
  5
4D4
100
AcDbEntity
  8
0
100
AcDbLine
 62
7
  6
CONTINUOUS
 10
2.7973061628
 20
7.664897816
 11
2.7973061628
 21
9.3780762241
  0
LINE
  5
4D5
100
AcDbEntity
  8
0
100
AcDbLine
 62
7
  6
CONTINUOUS
 10
3.2617219963
 20
8.2634782237
 11
3.2617219963
 21
8.0673915384
  0
LINE
  5
4D6
100
AcDbEntity
  8
DRAFT
100
AcDbLine
 62
7
  6
CONTINUOUS
 10
3.8071187845
 20
-20.285102184
 11
3.8071187845
 21
-22.3527419108
  0
LINE
  5
4D7
100
AcDbEntity
  8
0
100
AcDbLine
 62
7
  6
CONTINUOUS
 10
4.0151076818
 20
9.0233142275
 11
4.0151076818
 21
8.2634782237
  0
LINE
  5
4D8
100
AcDbEntity
  8
0
100
AcDbLine
 62
7
  6
CONTINUOUS
 10
4.0151076818
 20
8.0673915384
 11
4.0151076818
 21
7.664897816
  0
LINE
  5
4D9
100
AcDbEntity
  8
0
100
AcDbLine
 62
7
  6
CONTINUOUS
 10
4.2215147189
 20
7.664897816
 11
4.2215147189
 21
8.0673915384
  0
LINE
  5
4DA
100
AcDbEntity
  8
0
100
AcDbLine
 62
7
  6
CONTINUOUS
 10
4.2215147189
 20
8.2634782237
 11
4.2215147189
 21
9.3677558723
  0
LINE
  5
4DB
100
AcDbEntity
  8
0
100
AcDbLine
 62
7
  6
CONTINUOUS
 10
4.4485624597
 20
8.0673915384
 11
4.4485624597
 21
8.2634782237
  0
LINE
  5
4DC
100
AcDbEntity
  8
0
100
AcDbLine
 62
7
  6
CONTINUOUS
 10
5.7542483062
 20
8.6556515942
 11
5.7303824433
 21
8.4698852608
  0
LWPOLYLINE
  5
4DD
100
AcDbEntity
  8
0
100
AcDbPolyline
 62
7
  6
CONTINUOUS
 90
34
 70
0
 10
5.5425197564
 20
8.9033400388
 10
5.5491312607
 20
8.9379511633
 10
5.55742184
 20
8.9705292831
 10
5.5673914943
 20
9.001074398
 10
5.5791203141
 20
9.0296785486
 10
5.592528209
 20
9.0562496944
 10
5.6073749077
 20
9.0805117141
 10
5.6235310097
 20
9.1022858397
 10
5.6411259155
 20
9.1217508392
 10
5.6603075557
 20
9.1391668947
 10
5.6811254513
 20
9.1546536605
 10
5.7035300812
 20
9.1680914823
 10
5.7275208134
 20
9.1793815792
 10
5.7533653655
 20
9.1885669314
 10
5.7807960199
 20
9.1956045586
 10
5.8090089917
 20
9.2002667391
 10
5.8384019023
 20
9.2024362806
 10
5.8685771303
 20
9.2022303754
 10
5.8975380267
 20
9.1997728782
 10
5.9246985423
 20
9.195065754
 10
5.9506447263
 20
9.1881070378
 10
5.9751380776
 20
9.1790146897
 10
5.9981611501
 20
9.1677004056
 10
6.0197313898
 20
9.1542524895
 10
6.0396626339
 20
9.1390538132
 10
6.058049663
 20
9.122073074
 10
6.0747976964
 20
9.1033415747
 10
6.0894362289
 20
9.0833360957
 10
6.1018546134
 20
9.0622266554
 10
6.1121634969
 20
9.0398432354
 10
6.120224315
 20
9.0161525611
 10
6.1259908795
 20
8.9911435409
 10
6.1295093786
 20
8.9648272664
 10
6.1307798122
 20
8.9372037376
  0
LWPOLYLINE
  5
4DE
100
AcDbEntity
  8
0
100
AcDbPolyline
 62
7
  6
CONTINUOUS
 90
22
 70
0
 10
8.76448526
 20
7.9461274435
 10
8.7442044461
 20
7.9208899402
 10
8.7232662192
 20
7.8982918852
 10
8.7016705793
 20
7.8783332785
 10
8.6794787758
 20
7.8610797715
 10
8.6566295592
 20
7.8464657128
 10
8.6329391817
 20
7.8342941479
 10
8.6083217176
 20
7.8244998
 10
8.5828630926
 20
7.8171479459
 10
8.5566373356
 20
7.812237462
 10
8.5291659779
 20
7.8097671392
 10
8.5009274883
 20
7.8097381867
 10
8.4734313023
 20
7.8121531077
 10
8.4471443373
 20
7.8170143153
 10
8.4215996758
 20
7.8243193964
 10
8.3969060006
 20
7.8340636154
 10
8.3731645402
 20
7.8461779241
 10
8.3502740661
 20
7.8607313707
 10
8.3280395753
 20
7.8779263648
 10
8.306396067
 20
7.897830376
 10
8.2854085422
 20
7.9203759346
 10
8.2650770007
 20
7.9455630406
  0
LINE
  5
4DF
100
AcDbEntity
  8
RACCORDO
100
AcDbLine
 62
7
  6
CONTINUOUS
 10
-2.9428812155
 20
-5.835102184
 11
-2.8968748565
 21
-5.789095825
  0
LWPOLYLINE
  5
4E0
100
AcDbEntity
  8
0
100
AcDbPolyline
 62
7
  6
CONTINUOUS
 90
42
 70
0
 10
18.2649335461
 20
9.0385527896
 10
18.3037879889
 20
9.0724160781
 10
18.3439725121
 20
9.1023356814
 10
18.3854871156
 20
9.1283115996
 10
18.4282349026
 20
9.1502998303
 10
18.47231277
 20
9.1683443758
 10
18.5180114084
 20
9.1825772432
 10
18.5659413313
 20
9.1930617741
 10
18.6154920251
 20
9.199734627
 10
18.6651226396
 20
9.2025377842
 10
18.7149923753
 20
9.2013925229
 10
18.7649420317
 20
9.196377566
 10
18.8129531568
 20
9.1876710647
 10
18.8584017774
 20
9.1751905355
 10
18.9019118668
 20
9.1590184619
 10
18.9433368922
 20
9.139580446
 10
18.9827720319
 20
9.116925825
 10
19.0201221076
 20
9.0910052617
 10
19.054955052
 20
9.062096347
 10
19.0871376118
 20
9.0304218685
 10
19.1168030402
 20
8.9957590385
 10
19.143919029
 20
8.9577170846
 10
19.1686043305
 20
8.9162652466
 10
19.1907401924
 20
8.8714342846
 10
19.2099380499
 20
8.8229257071
 10
19.2262668138
 20
8.7702434461
 10
19.2396575732
 20
8.7138835694
 10
19.249515031
 20
8.6550357889
 10
19.2556135545
 20
8.5928628219
 10
19.2581787762
 20
8.5282019511
 10
19.2572922963
 20
8.4647547363
 10
19.2529298772
 20
8.4030532952
 10
19.2451157566
 20
8.3425655101
 10
19.2340042475
 20
8.2853965886
 10
19.2195486919
 20
8.2322248898
 10
19.2017957479
 20
8.1823720547
 10
19.1810397035
 20
8.1359082132
 10
19.1572143708
 20
8.0929666545
 10
19.1303859376
 20
8.0534140895
 10
19.1010472558
 20
8.0169207816
 10
19.069157985
 20
7.9832911554
 10
19.0347584656
 20
7.9527207864
  0
LWPOLYLINE
  5
4E1
100
AcDbEntity
  8
0
100
AcDbPolyline
 62
7
  6
CONTINUOUS
 90
29
 70
0
 10
19.0347584656
 20
7.9527207864
 10
18.9984625698
 20
7.9254666636
 10
18.9605641132
 20
7.9015766775
 10
18.9207692802
 20
7.8810029377
 10
18.878810497
 20
7.8638587626
 10
18.8343178948
 20
7.8500984591
 10
18.7876613422
 20
7.8397677203
 10
18.739682872
 20
7.833116944
 10
18.6896863083
 20
7.8302213611
 10
18.6383678268
 20
7.8310057407
 10
18.5886579876
 20
7.8354947884
 10
18.5414162458
 20
7.843747818
 10
18.4957831462
 20
7.8557055158
 10
18.452110883
 20
7.8712146459
 10
18.4105113096
 20
7.8902984154
 10
18.3708725725
 20
7.9129336173
 10
18.3332113057
 20
7.9388973944
 10
18.2972440615
 20
7.9683321459
 10
18.2632542877
 20
8.0010954726
 10
18.2321089618
 20
8.03653732
 10
18.2040225474
 20
8.074245195
 10
18.1787805809
 20
8.1146315906
 10
18.1566066498
 20
8.1582839314
 10
18.1374408895
 20
8.2053650328
 10
18.1213431645
 20
8.2557120792
 10
18.1087166563
 20
8.3094240494
 10
18.0996957585
 20
8.3665339361
 10
18.0941460775
 20
8.4270087464
 10
18.0920676132
 20
8.4908484804
  0
LINE
  5
4E2
100
AcDbEntity
  8
0
100
AcDbLine
 62
7
  6
CONTINUOUS
 10
24.6351706898
 20
8.8478682459
 11
24.8622184306
 21
8.9001150371
  0
LWPOLYLINE
  5
4E3
100
AcDbEntity
  8
0
100
AcDbPolyline
 62
7
  6
CONTINUOUS
 90
16
 70
0
 10
-20.9986032026
 20
8.6698421371
 10
-21.0263939211
 20
8.6765067722
 10
-21.0533884767
 20
8.683284805
 10
-21.0795868694
 20
8.6901762356
 10
-21.1049474833
 20
8.6971746712
 10
-21.1295119342
 20
8.7042865046
 10
-21.1534050695
 20
8.7115309137
 10
-21.1767137769
 20
8.7188529977
 10
-21.1993511687
 20
8.7263076575
 10
-21.2211814285
 20
8.7340787735
 10
-21.2423757744
 20
8.7420543995
 10
-21.2627629884
 20
8.7503464817
 10
-21.2816935999
 20
8.7594747405
 10
-21.2989511187
 20
8.7696124158
 10
-21.314752035
 20
8.7805862675
 10
-21.3290963489
 20
8.7923962957
  0
LWPOLYLINE
  5
4E4
100
AcDbEntity
  8
0
100
AcDbPolyline
 62
7
  6
CONTINUOUS
 90
3
 70
0
 10
-21.0500437039
 20
8.4483577171
 10
-20.9797611564
 20
8.4305220988
 10
-20.8786696057
 20
8.404534283
  0
LWPOLYLINE
  5
4E5
100
AcDbEntity
  8
0
100
AcDbPolyline
 62
7
  6
CONTINUOUS
 90
5
 70
0
 10
-20.8786696057
 20
8.404534283
 10
-20.8464042052
 20
8.3954677091
 10
-20.815085122
 20
8.3856923744
 10
-20.7846259465
 20
8.3753983201
 10
-20.7550266785
 20
8.3645855463
  0
LWPOLYLINE
  5
4E6
100
AcDbEntity
  8
0
100
AcDbPolyline
 62
7
  6
CONTINUOUS
 90
34
 70
0
 10
-19.1687563939
 20
9.1565112539
 10
-19.14617277
 20
9.1488408046
 10
-19.1243400311
 20
9.1387217681
 10
-19.1032581771
 20
9.1261541445
 10
-19.0825331485
 20
9.1109197997
 10
-19.0625590049
 20
9.0932368677
 10
-19.0445179249
 20
9.0737597509
 10
-19.0287250896
 20
9.0527465253
 10
-19.0148653179
 20
9.0299391149
 10
-19.0031752455
 20
9.0052176948
 10
-18.9936491371
 20
8.9782924606
 10
-18.9862927279
 20
8.9494532165
 10
-18.9813598591
 20
8.9194495502
 10
-18.9789504943
 20
8.8877611374
 10
-18.9789646699
 20
8.8549083022
 10
-18.9813563356
 20
8.8232016051
 10
-18.9862326147
 20
8.7930832553
 10
-18.993486384
 20
8.7641110436
 10
-19.0027502238
 20
8.7372689025
 10
-19.0140041149
 20
8.7129229379
 10
-19.0272680766
 20
8.6907070438
 10
-19.0422347463
 20
8.6705068346
 10
-19.0586088691
 20
8.6524300048
 10
-19.0766857
 20
8.63636886
 10
-19.0970436419
 20
8.6218859307
 10
-19.1200389033
 20
8.6088016144
 10
-19.1453152758
 20
8.5972955136
 10
-19.1723825372
 20
8.5874689673
 10
-19.2012131544
 20
8.5794007395
 10
-19.2318346606
 20
8.5730120661
 10
-19.2638394327
 20
8.5681679935
 10
-19.2970915966
 20
8.5648235373
 10
-19.3317270265
 20
8.563023682
 10
-19.3677457224
 20
8.5627684275
  0
LINE
  5
4E7
100
AcDbEntity
  8
RACCORDO
100
AcDbLine
 62
7
  6
CONTINUOUS
 10
9.0571187845
 20
-5.835102184
 11
9.0111124255
 21
-5.789095825
  0
LINE
  5
4E8
100
AcDbEntity
  8
0
100
AcDbLine
 62
7
  6
CONTINUOUS
 10
-3.0646536913
 20
8.9709061784
 11
-2.2120957788
 21
7.664897816
  0
LINE
  5
4E9
100
AcDbEntity
  8
0
100
AcDbLine
 62
7
  6
CONTINUOUS
 10
-2.1977441354
 20
8.0617476674
 11
-3.0503018905
 21
9.3677558723
  0
LINE
  5
4EA
100
AcDbEntity
  8
0
100
AcDbLine
 62
7
  6
CONTINUOUS
 10
1.2429644815
 20
7.664897816
 11
0.5608537113
 21
9.3677558723
  0
LINE
  5
4EB
100
AcDbEntity
  8
0
100
AcDbLine
 62
7
  6
CONTINUOUS
 10
0.6669411999
 20
8.5604073484
 11
0.7430725271
 21
8.3666817422
  0
LINE
  5
4EC
100
AcDbEntity
  8
0
100
AcDbLine
 62
7
  6
CONTINUOUS
 10
0.811606057
 20
8.1809154088
 11
1.0015649399
 21
7.664897816
  0
LWPOLYLINE
  5
4ED
100
AcDbEntity
  8
0
100
AcDbPolyline
 62
7
  6
CONTINUOUS
 90
6
 70
0
 10
0.4391058425
 20
9.1923098907
 10
0.4654337972
 20
9.106582814
 10
0.4939654005
 20
9.0193331036
 10
0.5247006524
 20
8.9305607597
 10
0.5580957106
 20
8.8402387321
 10
0.6669411999
 20
8.5604073484
  0
LWPOLYLINE
  5
4EE
100
AcDbEntity
  8
0
100
AcDbPolyline
 62
7
  6
CONTINUOUS
 90
49
 70
0
 10
7.9574820907
 20
8.5053615392
 10
7.9583196103
 20
8.4386285626
 10
7.9609190666
 20
8.3742139194
 10
7.9652804598
 20
8.3121176096
 10
7.9713884027
 20
8.2523016932
 10
7.9792582824
 20
8.1948041101
 10
7.9889362597
 20
8.1397386804
 10
8.0003881523
 20
8.0870298097
 10
8.0136481425
 20
8.0367530923
 10
8.0288649373
 20
7.9892491318
 10
8.0460448133
 20
7.9445241837
 10
8.0651814938
 20
7.9025719924
 10
8.0864048561
 20
7.8637143945
 10
8.1098087997
 20
7.828073231
 10
8.1352994252
 20
7.7955266609
 10
8.1627249111
 20
7.7660309983
 10
8.1920341221
 20
7.7396287808
 10
8.2232781934
 20
7.7162774708
 10
8.2564587097
 20
7.69580577
 10
8.2913520065
 20
7.6781216492
 10
8.3281817482
 20
7.6633171375
 10
8.3676205118
 20
7.6514970241
 10
8.410641557
 20
7.6425895735
 10
8.456271624
 20
7.6366665212
 10
8.5022635111
 20
7.6340478628
 10
8.5488267831
 20
7.6348872489
 10
8.595751875
 20
7.6390310288
 10
8.6401628898
 20
7.6463382454
 10
8.6810200818
 20
7.6568764774
 10
8.7193631966
 20
7.670578146
 10
8.7554355745
 20
7.6870995579
 10
8.7891119068
 20
7.7062050663
 10
8.8205175021
 20
7.7281303181
 10
8.8502716269
 20
7.7532385601
 10
8.8786046234
 20
7.7815562402
 10
8.9052861493
 20
7.8130569105
 10
8.9302444443
 20
7.848024474
 10
8.9536144454
 20
7.8866802391
 10
8.9752612156
 20
7.9288028973
 10
8.9947081836
 20
7.9740124259
 10
9.0117956002
 20
8.0223118483
 10
9.0266832146
 20
8.073698141
 10
9.0393737036
 20
8.1277822109
 10
9.049768038
 20
8.1845305295
 10
9.0579652469
 20
8.2439766253
 10
9.0642650944
 20
8.3058319902
 10
9.0687675015
 20
8.3700004549
 10
9.0713725472
 20
8.4365781888
 10
9.0720802313
 20
8.5055651918
  0
LWPOLYLINE
  5
4EF
100
AcDbEntity
  8
0
100
AcDbPolyline
 62
7
  6
CONTINUOUS
 90
49
 70
0
 10
9.0720802313
 20
8.5055651918
 10
9.0717116754
 20
8.5728062498
 10
9.0694564788
 20
8.6377233536
 10
9.0653146415
 20
8.7003165029
 10
9.0593994283
 20
8.7607050139
 10
9.0515975744
 20
8.8187695706
 10
9.0415692856
 20
8.8741522249
 10
9.029027002
 20
8.9267415348
 10
9.0142582835
 20
8.9766489425
 10
8.9977860146
 20
9.0238508262
 10
8.9797694718
 20
9.0685096332
 10
8.9600493788
 20
9.1104629162
 10
8.9386707905
 20
9.1491997115
 10
8.9157100752
 20
9.1844986055
 10
8.8910908648
 20
9.2165810119
 10
8.8646291095
 20
9.2456002076
 10
8.8364306626
 20
9.2714525949
 10
8.8063896709
 20
9.2942417717
 10
8.7740045251
 20
9.3144318086
 10
8.73916547
 20
9.3323246959
 10
8.7019822609
 20
9.3476184433
 10
8.6622825545
 20
9.3598711505
 10
8.6192904136
 20
9.3690412039
 10
8.5737817754
 20
9.3751702171
 10
8.5279121085
 20
9.3779411297
 10
8.4814558736
 20
9.377186528
 10
8.4346386098
 20
9.3730738258
 10
8.3902924036
 20
9.3657882038
 10
8.3494306402
 20
9.3552781616
 10
8.3110399343
 20
9.3415951995
 10
8.2749122165
 20
9.325078999
 10
8.2411814039
 20
9.3059617278
 10
8.2097135793
 20
9.2840112181
 10
8.1798989222
 20
9.2588706483
 10
8.1515121539
 20
9.2305133295
 10
8.1247785531
 20
9.1989659506
 10
8.099764135
 20
9.1639517576
 10
8.076326857
 20
9.1252559063
 10
8.0546087618
 20
9.0830932409
 10
8.0351019928
 20
9.0378315397
 10
8.017974647
 20
8.9894613456
 10
8.0030586274
 20
8.9379921157
 10
7.9903417867
 20
8.8838199995
 10
7.97992071
 20
8.8269828783
 10
7.9716988122
 20
8.7674428708
 10
7.9653741915
 20
8.7054824826
 10
7.9608462141
 20
8.6411958822
 10
7.9582155138
 20
8.5744889011
 10
7.9574820907
 20
8.5053615392
  0
LINE
  5
4F0
100
AcDbEntity
  8
DRAFT
100
AcDbLine
 62
7
  6
CONTINUOUS
 10
5.5571187845
 20
-22.3527419108
 11
5.5571187845
 21
-20.285102184
  0
LINE
  5
4F1
100
AcDbEntity
  8
0
100
AcDbLine
 62
7
  6
CONTINUOUS
 10
6.2071187845
 20
16.914897816
 11
6.2071187845
 21
37.064897816
  0
LINE
  5
4F2
100
AcDbEntity
  8
DRAFT
100
AcDbLine
 62
7
  6
CONTINUOUS
 10
6.2931547326
 20
44.064897816
 11
6.2931547326
 21
41.864897816
  0
LINE
  5
4F3
100
AcDbEntity
  8
DRAFT
100
AcDbLine
 62
7
  6
CONTINUOUS
 10
6.2931547326
 20
37.064897816
 11
6.2931547326
 21
14.764897816
  0
LINE
  5
4F4
100
AcDbEntity
  8
0
100
AcDbLine
 62
7
  6
CONTINUOUS
 10
6.7071187845
 20
39.364897816
 11
6.7071187845
 21
16.914897816
  0
LINE
  5
4F5
100
AcDbEntity
  8
RACCORDO
100
AcDbLine
 62
7
  6
CONTINUOUS
 10
7.4361727066
 20
11.364897816
 11
7.4361727066
 21
11.864897816
  0
LINE
  5
4F6
100
AcDbEntity
  8
RACCORDO
100
AcDbLine
 62
7
  6
CONTINUOUS
 10
7.4571187845
 20
12.164897816
 11
7.4571187845
 21
16.914897816
  0
LINE
  5
4F7
100
AcDbEntity
  8
RACCORDO
100
AcDbLine
 62
7
  6
CONTINUOUS
 10
7.4571187845
 20
39.364897816
 11
7.4571187845
 21
45.0649739685
  0
LINE
  5
4F8
100
AcDbEntity
  8
0
100
AcDbLine
 62
7
  6
CONTINUOUS
 10
7.5571187845
 20
49.664897816
 11
7.5571187845
 21
39.364897816
  0
LINE
  5
4F9
100
AcDbEntity
  8
DRAFT
100
AcDbLine
 62
7
  6
CONTINUOUS
 10
7.5571187845
 20
-2.835102184
 11
7.5571187845
 21
-5.835102184
  0
LINE
  5
4FA
100
AcDbEntity
  8
SMUSSO
100
AcDbLine
 62
7
  6
CONTINUOUS
 10
7.5571187845
 20
13.414897816
 11
7.5571187845
 21
16.0459172643
  0
LINE
  5
4FB
100
AcDbEntity
  8
DRAFT
100
AcDbLine
 62
7
  6
CONTINUOUS
 10
7.5571187845
 20
16.0459172643
 11
7.5571187845
 21
16.914897816
  0
LINE
  5
4FC
100
AcDbEntity
  8
RACCORDO
100
AcDbLine
 62
7
  6
CONTINUOUS
 10
8.0394273309
 20
-3.3808039564
 11
8.0394273309
 21
-5.2894004115
  0
LINE
  5
4FD
100
AcDbEntity
  8
0
100
AcDbLine
 62
7
  6
CONTINUOUS
 10
8.5571187845
 20
42.264897816
 11
8.5571187845
 21
49.164897816
  0
LINE
  5
4FE
100
AcDbEntity
  8
RACCORDO
100
AcDbLine
 62
7
  6
CONTINUOUS
 10
8.9942613994
 20
-3.3808039564
 11
8.9942613994
 21
-5.2894004115
  0
LINE
  5
4FF
100
AcDbEntity
  8
DRAFT
100
AcDbLine
 62
7
  6
CONTINUOUS
 10
9.0571187845
 20
-5.835102184
 11
9.0571187845
 21
-2.835102184
  0
LINE
  5
500
100
AcDbEntity
  8
0
100
AcDbLine
 62
7
  6
CONTINUOUS
 10
10.0571187845
 20
49.164897816
 11
10.0571187845
 21
42.864897816
  0
LINE
  5
501
100
AcDbEntity
  8
0
100
AcDbLine
 62
7
  6
CONTINUOUS
 10
10.0571187845
 20
-57.835102184
 11
10.0571187845
 21
-51.535102184
  0
LINE
  5
502
100
AcDbEntity
  8
DRAFT
100
AcDbLine
 62
7
  6
CONTINUOUS
 10
7.4347695854
 20
11.064897816
 11
7.4361727066
 21
11.364897816
  0
LWPOLYLINE
  5
503
100
AcDbEntity
  8
0
100
AcDbPolyline
 62
7
  6
CONTINUOUS
 90
37
 70
0
 10
8.1638891278
 20
8.506006571
 10
8.164160333
 20
8.5537513041
 10
8.1652605817
 20
8.6001221103
 10
8.1671898739
 20
8.6451189895
 10
8.169934663
 20
8.6886966501
 10
8.1735084957
 20
8.7309003837
 10
8.1779520116
 20
8.7718660659
 10
8.1832025706
 20
8.8117146147
 10
8.1893228128
 20
8.8503251121
 10
8.1965412993
 20
8.8874706788
 10
8.2047962903
 20
8.9233130839
 10
8.2141495256
 20
8.9576905583
 10
8.2250147854
 20
8.9898909154
 10
8.2374535173
 20
9.0196532569
 10
8.2514042738
 20
9.0472384811
 10
8.2670964926
 20
9.0727170959
 10
8.2847979176
 20
9.0961986511
 10
8.304240805
 20
9.1175735969
 10
8.3248513611
 20
9.1365837909
 10
8.3464611641
 20
9.1531537191
 10
8.3692386358
 20
9.1673588955
 10
8.3931152483
 20
9.1791677199
 10
8.418189973
 20
9.1885688304
 10
8.4443638384
 20
9.1955735888
 10
8.471271402
 20
9.2001844805
 10
8.4993076237
 20
9.2024033962
 10
8.5280775437
 20
9.2022284452
 10
8.55603084
 20
9.1996564397
 10
8.5826774558
 20
9.1947100325
 10
8.6085074479
 20
9.1873665709
 10
8.6334406652
 20
9.1775549089
 10
8.6573863934
 20
9.1653356327
 10
8.6804353468
 20
9.1506481562
 10
8.7027795174
 20
9.1332395749
 10
8.7244829023
 20
9.1130255875
 10
8.7454815044
 20
9.0900904952
 10
8.7657753236
 20
9.0644342982
  0
LWPOLYLINE
  5
504
100
AcDbEntity
  8
0
100
AcDbPolyline
 62
7
  6
CONTINUOUS
 90
16
 70
0
 10
6.8325637384
 20
8.5432565295
 10
6.8334382484
 20
8.5999913591
 10
6.8361521552
 20
8.6546960126
 10
6.8407054586
 20
8.7073704899
 10
6.8469867293
 20
8.7581666968
 10
6.8551073967
 20
8.8069327275
 10
6.8654017494
 20
8.8532128649
 10
6.8780722774
 20
8.8969614383
 10
6.8929164906
 20
8.9382241184
 10
6.9096612076
 20
8.9766821998
 10
6.928449821
 20
9.0122687351
 10
6.9491389382
 20
9.0450506718
 10
6.9710251989
 20
9.0749101463
 10
6.9938741498
 20
9.1018078709
 10
7.0179202444
 20
9.1257831334
 10
7.0431634825
 20
9.1468359339
  0
LWPOLYLINE
  5
505
100
AcDbEntity
  8
0
100
AcDbPolyline
 62
7
  6
CONTINUOUS
 90
16
 70
0
 10
9.4745738135
 20
8.5432565295
 10
9.4754483235
 20
8.5999913591
 10
9.4781622303
 20
8.6546960126
 10
9.4827155337
 20
8.7073704899
 10
9.4889968044
 20
8.7581666968
 10
9.4971174718
 20
8.8069327275
 10
9.5074118245
 20
8.8532128649
 10
9.5200823525
 20
8.8969614383
 10
9.5349265657
 20
8.9382241184
 10
9.5516712827
 20
8.9766821998
 10
9.5704598961
 20
9.0122687351
 10
9.5911490133
 20
9.0450506718
 10
9.613035274
 20
9.0749101463
 10
9.6358842249
 20
9.1018078709
 10
9.6599303195
 20
9.1257831334
 10
9.6851735576
 20
9.1468359339
  0
LWPOLYLINE
  5
506
100
AcDbEntity
  8
0
100
AcDbPolyline
 62
7
  6
CONTINUOUS
 90
37
 70
0
 10
6.863524794
 20
8.2167142032
 10
6.8647543076
 20
8.2526812927
 10
6.868470406
 20
8.2869583514
 10
6.8746730893
 20
8.319545379
 10
6.8833374411
 20
8.350314386
 10
6.8944883778
 20
8.379393362
 10
6.9082006483
 20
8.4071662764
 10
6.92470965
 20
8.4340206928
 10
6.9437799855
 20
8.4595690476
 10
6.9647802118
 20
8.4830326198
 10
6.9877294857
 20
8.5043237241
 10
7.0126086502
 20
8.5235300458
 10
7.0387287917
 20
8.5401359188
 10
7.0658569499
 20
8.5540015245
 10
7.094226085
 20
8.5652666814
 10
7.1238461631
 20
8.57383518
 10
7.1552977485
 20
8.5796397022
 10
7.1880002769
 20
8.5827475661
 10
7.2202220221
 20
8.5832645158
 10
7.2517368775
 20
8.5811670967
 10
7.2827709497
 20
8.5764787635
 10
7.3122708312
 20
8.5693756242
 10
7.3398315974
 20
8.5599020787
 10
7.365858173
 20
8.5480137271
 10
7.3905119243
 20
8.5337534781
 10
7.4139797106
 20
8.5170910457
 10
7.4360746725
 20
8.4980567158
 10
7.4563975984
 20
8.4767842544
 10
7.4749460567
 20
8.4533657328
 10
7.491722479
 20
8.4277090797
 10
7.5063349481
 20
8.3996718467
 10
7.5187792265
 20
8.3690976599
 10
7.5290595517
 20
8.3361428933
 10
7.5367967193
 20
8.301134221
 10
7.5418643277
 20
8.2641805344
 10
7.5443887785
 20
8.2251729421
 10
7.5443700716
 20
8.184111444
  0
LWPOLYLINE
  5
507
100
AcDbEntity
  8
0
100
AcDbPolyline
 62
7
  6
CONTINUOUS
 90
37
 70
0
 10
9.5055348691
 20
8.2167142032
 10
9.5067643827
 20
8.2526812927
 10
9.5104804811
 20
8.2869583514
 10
9.5166831644
 20
8.319545379
 10
9.5253475162
 20
8.350314386
 10
9.5364984529
 20
8.379393362
 10
9.5502107234
 20
8.4071662764
 10
9.5667197251
 20
8.4340206928
 10
9.5857900606
 20
8.4595690476
 10
9.6067902869
 20
8.4830326198
 10
9.6297395608
 20
8.5043237241
 10
9.6546187253
 20
8.5235300458
 10
9.6807388668
 20
8.5401359188
 10
9.707867025
 20
8.5540015245
 10
9.7362361601
 20
8.5652666814
 10
9.7658562382
 20
8.57383518
 10
9.7973078236
 20
8.5796397022
 10
9.830010352
 20
8.5827475661
 10
9.8622320972
 20
8.5832645158
 10
9.8937469526
 20
8.5811670967
 10
9.9247810248
 20
8.5764787635
 10
9.9542809063
 20
8.5693756242
 10
9.9818416725
 20
8.5599020787
 10
10.0078682481
 20
8.5480137271
 10
10.0325219994
 20
8.5337534781
 10
10.0559897857
 20
8.5170910457
 10
10.0780847476
 20
8.4980567158
 10
10.0984076735
 20
8.4767842544
 10
10.1169561318
 20
8.4533657328
 10
10.1337325541
 20
8.4277090797
 10
10.1483450232
 20
8.3996718467
 10
10.1607893016
 20
8.3690976599
 10
10.1710696268
 20
8.3361428933
 10
10.1788067944
 20
8.301134221
 10
10.1838744028
 20
8.2641805344
 10
10.1863988536
 20
8.2251729421
 10
10.1863801467
 20
8.184111444
  0
LWPOLYLINE
  5
508
100
AcDbEntity
  8
0
100
AcDbPolyline
 62
7
  6
CONTINUOUS
 90
19
 70
0
 10
6.1307798122
 20
8.9372037376
 10
6.1297792046
 20
8.9092869547
 10
6.1267697938
 20
8.8829921413
 10
6.1217515799
 20
8.8583192973
 10
6.1147868043
 20
8.8354149911
 10
6.1058132255
 20
8.8141326543
 10
6.0946441194
 20
8.794032582
 10
6.0812741377
 20
8.7750302293
 10
6.0657086287
 20
8.7572101411
 10
6.0477769137
 20
8.7403862468
 10
6.0273334335
 20
8.7243023589
 10
6.0045237472
 20
8.7092146649
 10
5.9796138533
 20
8.6957056575
 10
5.9526297832
 20
8.6838115798
 10
5.9235455055
 20
8.6734961887
 10
5.8925489242
 20
8.665233247
 10
5.859702674
 20
8.6591806759
 10
5.8249441203
 20
8.6551805544
 10
5.788273263
 20
8.6532328823
  0
LWPOLYLINE
  5
509
100
AcDbEntity
  8
0
100
AcDbPolyline
 62
7
  6
CONTINUOUS
 90
37
 70
0
 10
7.5443700716
 20
8.184111444
 10
7.5418881673
 20
8.1448524577
 10
7.5370692071
 20
8.1076106532
 10
7.529913191
 20
8.0723860306
 10
7.5203468567
 20
8.0391431158
 10
7.5084434665
 20
8.0079173829
 10
7.4944228073
 20
7.9788152538
 10
7.4781417271
 20
7.9518251936
 10
7.459743378
 20
7.9269587373
 10
7.439877003
 20
7.9043569116
 10
7.4185710961
 20
7.883978092
 10
7.3957971635
 20
7.865863903
 10
7.3721189659
 20
7.8502802449
 10
7.3477513163
 20
7.8373529259
 10
7.3224794018
 20
7.8269561378
 10
7.2962225452
 20
7.8189783566
 10
7.268810788
 20
7.8133220239
 10
7.2404140887
 20
7.8100846981
 10
7.2114616456
 20
7.8094475298
 10
7.1815994219
 20
7.8115139095
 10
7.1511814544
 20
7.8161804467
 10
7.1216990515
 20
7.8233181207
 10
7.0934605797
 20
7.8329488925
 10
7.0661576726
 20
7.845050801
 10
7.0403565382
 20
7.8594289428
 10
7.0162741276
 20
7.875910053
 10
6.9936934898
 20
7.8946673964
 10
6.9725299799
 20
7.9160258638
 10
6.9526371654
 20
7.9401371997
 10
6.9341614789
 20
7.9668496596
 10
6.9174575727
 20
7.9960329003
 10
6.9023335174
 20
8.0278673208
 10
6.8889812424
 20
8.0621725222
 10
6.8783311885
 20
8.0982769651
 10
6.8706935026
 20
8.135956803
 10
6.8657580378
 20
8.1754358823
 10
6.863524794
 20
8.2167142032
  0
LWPOLYLINE
  5
50A
100
AcDbEntity
  8
0
100
AcDbPolyline
 62
7
  6
CONTINUOUS
 90
37
 70
0
 10
10.1863801467
 20
8.184111444
 10
10.1838982424
 20
8.1448524577
 10
10.1790792822
 20
8.1076106532
 10
10.1719232661
 20
8.0723860306
 10
10.1623569318
 20
8.0391431158
 10
10.1504535416
 20
8.0079173829
 10
10.1364328824
 20
7.9788152538
 10
10.1201518022
 20
7.9518251936
 10
10.1017534531
 20
7.9269587373
 10
10.0818870781
 20
7.9043569116
 10
10.0605811712
 20
7.883978092
 10
10.0378072386
 20
7.865863903
 10
10.0141290411
 20
7.8502802449
 10
9.9897613914
 20
7.8373529259
 10
9.9644894769
 20
7.8269561378
 10
9.9382326203
 20
7.8189783566
 10
9.9108208631
 20
7.8133220239
 10
9.8824241638
 20
7.8100846981
 10
9.8534717207
 20
7.8094475298
 10
9.823609497
 20
7.8115139095
 10
9.7931915295
 20
7.8161804467
 10
9.7637091266
 20
7.8233181207
 10
9.7354706548
 20
7.8329488925
 10
9.7081677477
 20
7.845050801
 10
9.6823666133
 20
7.8594289428
 10
9.6582842027
 20
7.875910053
 10
9.6357035649
 20
7.8946673964
 10
9.614540055
 20
7.9160258638
 10
9.5946472405
 20
7.9401371997
 10
9.576171554
 20
7.9668496596
 10
9.5594676478
 20
7.9960329003
 10
9.5443435925
 20
8.0278673208
 10
9.5309913175
 20
8.0621725222
 10
9.5203412636
 20
8.0982769651
 10
9.5127035777
 20
8.135956803
 10
9.5077681129
 20
8.1754358823
 10
9.5055348691
 20
8.2167142032
  0
LINE
  5
50B
100
AcDbEntity
  8
0
100
AcDbLine
 62
7
  6
CONTINUOUS
 10
11.0382684564
 20
8.6556515942
 11
11.0144025935
 21
8.4698852608
  0
LWPOLYLINE
  5
50C
100
AcDbEntity
  8
0
100
AcDbPolyline
 62
7
  6
CONTINUOUS
 90
34
 70
0
 10
10.8265399067
 20
8.9033400388
 10
10.8331514109
 20
8.9379511633
 10
10.8414419902
 20
8.9705292831
 10
10.8514116445
 20
9.001074398
 10
10.8631404643
 20
9.0296785486
 10
10.8765483592
 20
9.0562496944
 10
10.8913950579
 20
9.0805117141
 10
10.9075511599
 20
9.1022858397
 10
10.9251460657
 20
9.1217508392
 10
10.944327706
 20
9.1391668947
 10
10.9651456015
 20
9.1546536605
 10
10.9875502314
 20
9.1680914823
 10
11.0115409636
 20
9.1793815792
 10
11.0373855157
 20
9.1885669314
 10
11.0648161701
 20
9.1956045586
 10
11.0930291419
 20
9.2002667391
 10
11.1224220525
 20
9.2024362806
 10
11.1525972805
 20
9.2022303754
 10
11.1815581769
 20
9.1997728782
 10
11.2087186925
 20
9.195065754
 10
11.2346648765
 20
9.1881070378
 10
11.2591582278
 20
9.1790146897
 10
11.2821813003
 20
9.1677004056
 10
11.30375154
 20
9.1542524895
 10
11.3236827841
 20
9.1390538132
 10
11.3420698132
 20
9.122073074
 10
11.3588178466
 20
9.1033415747
 10
11.3734563791
 20
9.0833360957
 10
11.3858747636
 20
9.0622266554
 10
11.3961836471
 20
9.0398432354
 10
11.4042444652
 20
9.0161525611
 10
11.4100110297
 20
8.9911435409
 10
11.4135295288
 20
8.9648272664
 10
11.4147999624
 20
8.9372037376
  0
LINE
  5
50D
100
AcDbEntity
  8
0
100
AcDbLine
 62
7
  6
CONTINUOUS
 10
13.5244016472
 20
8.0634471489
 11
13.5035970117
 21
8.0030435997
  0
LINE
  5
50E
100
AcDbEntity
  8
0
100
AcDbLine
 62
7
  6
CONTINUOUS
 10
13.567238435
 20
8.1855918896
 11
13.5244016472
 21
8.0634471489
  0
LINE
  5
50F
100
AcDbEntity
  8
0
100
AcDbLine
 62
7
  6
CONTINUOUS
 10
13.9884377655
 20
9.3677558723
 11
13.567238435
 21
8.1855918896
  0
LINE
  5
510
100
AcDbEntity
  8
RACCORDO
100
AcDbLine
 62
7
  6
CONTINUOUS
 10
9.0571187845
 20
-2.835102184
 11
9.0111124255
 21
-2.8811085429
  0
LWPOLYLINE
  5
511
100
AcDbEntity
  8
0
100
AcDbPolyline
 62
7
  6
CONTINUOUS
 90
10
 70
0
 10
11.0144025935
 20
8.4698852608
 10
11.0321376665
 20
8.4743211819
 10
11.0496585251
 20
8.4783322287
 10
11.0669651694
 20
8.481918401
 10
11.0840755594
 20
8.4851318092
 10
11.1009717351
 20
8.487920343
 10
11.1175998162
 20
8.4901276713
 10
11.1339418426
 20
8.4917016837
 10
11.1500157744
 20
8.4926944905
 10
11.1658216117
 20
8.4931060918
  0
LWPOLYLINE
  5
512
100
AcDbEntity
  8
0
100
AcDbPolyline
 62
7
  6
CONTINUOUS
 90
10
 70
0
 10
5.7303824433
 20
8.4698852608
 10
5.7481175163
 20
8.4743211819
 10
5.7656383749
 20
8.4783322287
 10
5.7829450192
 20
8.481918401
 10
5.8000554092
 20
8.4851318092
 10
5.8169515849
 20
8.487920343
 10
5.833579666
 20
8.4901276713
 10
5.8499216924
 20
8.4917016837
 10
5.8659956242
 20
8.4926944905
 10
5.8818014615
 20
8.4931060918
  0
LINE
  5
513
100
AcDbEntity
  8
0
100
AcDbLine
 62
7
  6
CONTINUOUS
 10
-5.4280142663
 20
8.8478682459
 11
-5.2009665255
 21
8.9001150371
  0
LWPOLYLINE
  5
514
100
AcDbEntity
  8
0
100
AcDbPolyline
 62
7
  6
CONTINUOUS
 90
40
 70
0
 10
17.1113118284
 20
8.4389242052
 10
17.1634155761
 20
8.4477182176
 10
17.2126530151
 20
8.4588635021
 10
17.2590241456
 20
8.4723600588
 10
17.3027317349
 20
8.4883642596
 10
17.3435730156
 20
8.5067197326
 10
17.3809396855
 20
8.526957362
 10
17.4144655199
 20
8.5489103358
 10
17.4445167435
 20
8.5727454659
 10
17.4715837281
 20
8.5984940722
 10
17.4957386389
 20
8.6261438443
 10
17.5169093106
 20
8.6557070926
 10
17.5353696196
 20
8.6872520673
 10
17.5513458825
 20
8.720771083
 10
17.5646117827
 20
8.7562718252
 10
17.5747622468
 20
8.7938456001
 10
17.581775092
 20
8.8341532186
 10
17.5856725011
 20
8.8765338698
 10
17.5861159488
 20
8.9190964274
 10
17.5829226031
 20
8.9618364254
 10
17.5762752961
 20
9.0047583299
 10
17.5663839987
 20
9.0459844127
 10
17.5529833289
 20
9.0852037697
 10
17.5363386687
 20
9.1227273051
 10
17.5174561357
 20
9.1576100032
 10
17.4965276614
 20
9.1896638735
 10
17.4733613143
 20
9.2190769064
 10
17.4483874172
 20
9.2454680584
 10
17.4219552909
 20
9.2685484141
 10
17.3937156147
 20
9.2886068888
 10
17.3630507489
 20
9.3061291843
 10
17.3297022438
 20
9.3211552616
 10
17.2939285491
 20
9.3336451597
 10
17.2558873739
 20
9.3439646971
 10
17.2154210055
 20
9.3519869283
 10
17.1726871566
 20
9.3578387987
 10
17.1283166753
 20
9.3622669629
 10
17.0825198442
 20
9.3655203056
 10
17.0350863806
 20
9.3673499421
 10
16.9860162845
 20
9.3677558723
  0
LINE
  5
515
100
AcDbEntity
  8
0
100
AcDbLine
 62
7
  6
CONTINUOUS
 10
10.8058992029
 20
8.1396340014
 11
10.5994921658
 21
8.1086729458
  0
LINE
  5
516
100
AcDbEntity
  8
0
100
AcDbLine
 62
7
  6
CONTINUOUS
 10
5.5218790527
 20
8.1396340014
 11
5.3154720156
 21
8.1086729458
  0
LINE
  5
517
100
AcDbEntity
  8
0
100
AcDbLine
 62
7
  6
CONTINUOUS
 10
10.155717036
 20
8.9343010943
 11
10.3621240731
 21
8.954941798
  0
LINE
  5
518
100
AcDbEntity
  8
0
100
AcDbLine
 62
7
  6
CONTINUOUS
 10
7.5137069609
 20
8.9343010943
 11
7.720113998
 21
8.954941798
  0
LINE
  5
519
100
AcDbEntity
  8
0
100
AcDbLine
 62
7
  6
CONTINUOUS
 10
19.9290902435
 20
8.2325171681
 11
19.7123628546
 21
8.2221968163
  0
LINE
  5
51A
100
AcDbEntity
  8
0
100
AcDbLine
 62
7
  6
CONTINUOUS
 10
-21.4658410503
 20
8.2325171681
 11
-21.6825684393
 21
8.2221968163
  0
LINE
  5
51B
100
AcDbEntity
  8
0
100
AcDbLine
 62
7
  6
CONTINUOUS
 10
20.7856794476
 20
8.882699335
 11
21.0127271884
 21
8.8930196869
  0
LINE
  5
51C
100
AcDbEntity
  8
0
100
AcDbLine
 62
7
  6
CONTINUOUS
 10
-20.6092518463
 20
8.882699335
 11
-20.3822041055
 21
8.8930196869
  0
LWPOLYLINE
  5
51D
100
AcDbEntity
  8
0
100
AcDbPolyline
 62
7
  6
CONTINUOUS
 90
34
 70
0
 10
20.4309174509
 20
7.6339367605
 10
20.493442892
 20
7.6366651294
 10
20.5526978518
 20
7.6427991037
 10
20.6086823303
 20
7.6523386834
 10
20.6615150363
 20
7.6656071782
 10
20.711077261
 20
7.6822812783
 10
20.7570128779
 20
7.7013910551
 10
20.7990876059
 20
7.7227440701
 10
20.837535726
 20
7.7465327618
 10
20.872703955
 20
7.7723645168
 10
20.904573596
 20
7.800083272
 10
20.933163346
 20
7.8298450906
 10
20.958876012
 20
7.8617255484
 10
20.9819639284
 20
7.8960010692
 10
21.0021747609
 20
7.9323952293
 10
21.0191543136
 20
7.9701543333
 10
21.0328794724
 20
8.009535214
 10
21.0433733515
 20
8.0502810386
 10
21.0503510976
 20
8.0908676135
 10
21.0536261218
 20
8.1311253748
 10
21.053385013
 20
8.1712238863
 10
21.0499026855
 20
8.2101476461
 10
21.0431725925
 20
8.2477109793
 10
21.0332012808
 20
8.2840995608
 10
21.0202833041
 20
8.3188549133
 10
21.0045920726
 20
8.3517855039
 10
20.9859541762
 20
8.3830828654
 10
20.9641439378
 20
8.4128631185
 10
20.9391236122
 20
8.4411370211
 10
20.9109309446
 20
8.4678938154
 10
20.8794534939
 20
8.4932173488
 10
20.8446537797
 20
8.5171355706
 10
20.8065692823
 20
8.5396205315
 10
20.7652000018
 20
8.5606722315
  0
LWPOLYLINE
  5
51E
100
AcDbEntity
  8
0
100
AcDbPolyline
 62
7
  6
CONTINUOUS
 90
34
 70
0
 10
-20.9640138429
 20
7.6339367605
 10
-20.9014884019
 20
7.6366651294
 10
-20.8422334421
 20
7.6427991037
 10
-20.7862489636
 20
7.6523386834
 10
-20.7334162576
 20
7.6656071782
 10
-20.6838540328
 20
7.6822812783
 10
-20.637918416
 20
7.7013910551
 10
-20.595843688
 20
7.7227440701
 10
-20.5573955679
 20
7.7465327618
 10
-20.5222273389
 20
7.7723645168
 10
-20.4903576978
 20
7.800083272
 10
-20.4617679479
 20
7.8298450906
 10
-20.4360552818
 20
7.8617255484
 10
-20.4129673654
 20
7.8960010692
 10
-20.392756533
 20
7.9323952293
 10
-20.3757769802
 20
7.9701543333
 10
-20.3620518215
 20
8.009535214
 10
-20.3515579424
 20
8.0502810386
 10
-20.3445801963
 20
8.0908676135
 10
-20.3413051721
 20
8.1311253748
 10
-20.3415462809
 20
8.1712238863
 10
-20.3450286084
 20
8.2101476461
 10
-20.3517587013
 20
8.2477109793
 10
-20.3617300131
 20
8.2840995608
 10
-20.3746479898
 20
8.3188549133
 10
-20.3903392212
 20
8.3517855039
 10
-20.4089771177
 20
8.3830828654
 10
-20.430787356
 20
8.4128631185
 10
-20.4558076817
 20
8.4411370211
 10
-20.4840003493
 20
8.4678938154
 10
-20.5154778
 20
8.4932173488
 10
-20.5502775142
 20
8.5171355706
 10
-20.5883620116
 20
8.5396205315
 10
-20.6297312921
 20
8.5606722315
  0
LWPOLYLINE
  5
51F
100
AcDbEntity
  8
0
100
AcDbPolyline
 62
7
  6
CONTINUOUS
 90
19
 70
0
 10
24.1978458783
 20
7.6339367605
 10
24.2596758037
 20
7.6363302933
 10
24.3184472386
 20
7.6423148458
 10
24.374160183
 20
7.651890418
 10
24.4266144609
 20
7.6651813014
 10
24.4760102483
 20
7.6820632045
 10
24.5229480736
 20
7.7021632528
 10
24.5675406054
 20
7.7253264973
 10
24.6096751751
 20
7.7517078871
 10
24.6496143043
 20
7.7813993945
 10
24.6875058886
 20
7.8143722488
 10
24.7232020324
 20
7.8506552207
 10
24.7565215712
 20
7.8904265959
 10
24.7875029289
 20
7.9336376664
 10
24.8161076815
 20
7.9803371401
 10
24.8420393924
 20
8.0308494256
 10
24.8651992493
 20
8.0852826591
 10
24.8856860646
 20
8.1435287044
 10
24.9034998381
 20
8.2055875615
  0
LWPOLYLINE
  5
520
100
AcDbEntity
  8
0
100
AcDbPolyline
 62
7
  6
CONTINUOUS
 90
19
 70
0
 10
-5.8653390778
 20
7.6339367605
 10
-5.8035091525
 20
7.6363302933
 10
-5.7447377176
 20
7.6423148458
 10
-5.6890247731
 20
7.651890418
 10
-5.6365704952
 20
7.6651813014
 10
-5.5871747078
 20
7.6820632045
 10
-5.5402368826
 20
7.7021632528
 10
-5.4956443507
 20
7.7253264973
 10
-5.453509781
 20
7.7517078871
 10
-5.4135706518
 20
7.7813993945
 10
-5.3756790675
 20
7.8143722488
 10
-5.3399829237
 20
7.8506552207
 10
-5.3066633849
 20
7.8904265959
 10
-5.2756820273
 20
7.9336376664
 10
-5.2470772746
 20
7.9803371401
 10
-5.2211455637
 20
8.0308494256
 10
-5.1979857068
 20
8.0852826591
 10
-5.1774988916
 20
8.1435287044
 10
-5.1596851181
 20
8.2055875615
  0
LWPOLYLINE
  5
521
100
AcDbEntity
  8
0
100
AcDbPolyline
 62
7
  6
CONTINUOUS
 90
21
 70
0
 10
16.7202671061
 20
8.4182835015
 10
16.7566057021
 20
8.4194214147
 10
16.7912130069
 20
8.4179164936
 10
16.8240890204
 20
8.4137687382
 10
16.8553432344
 20
8.4067853916
 10
16.8848661573
 20
8.3971592107
 10
16.912329314
 20
8.3854684664
 10
16.9373012111
 20
8.3718271073
 10
16.9602133422
 20
8.3561211849
 10
16.9820317126
 20
8.3385871247
 10
17.0027646877
 20
8.3191754473
 10
17.0224039022
 20
8.2979356321
 10
17.0418902661
 20
8.2752525418
 10
17.061461128
 20
8.251123026
 10
17.0808791394
 20
8.225550235
 10
17.1003731639
 20
8.198928483
 10
17.1199731311
 20
8.1713560499
 10
17.1396491115
 20
8.1427346556
 10
17.1595401802
 20
8.1131637742
 10
17.1796926958
 20
8.0826765635
 10
17.2000602997
 20
8.0512398655
  0
LWPOLYLINE
  5
522
100
AcDbEntity
  8
0
100
AcDbPolyline
 62
7
  6
CONTINUOUS
 90
21
 70
0
 10
-23.4878237243
 20
8.4182835015
 10
-23.4514851284
 20
8.4194214147
 10
-23.4168778236
 20
8.4179164936
 10
-23.38400181
 20
8.4137687382
 10
-23.352747596
 20
8.4067853916
 10
-23.3232246732
 20
8.3971592107
 10
-23.2957615165
 20
8.3854684664
 10
-23.2707896193
 20
8.3718271073
 10
-23.2478774883
 20
8.3561211849
 10
-23.2260591178
 20
8.3385871247
 10
-23.2053261427
 20
8.3191754473
 10
-23.1856869282
 20
8.2979356321
 10
-23.1662005644
 20
8.2752525418
 10
-23.1466297024
 20
8.251123026
 10
-23.1272116911
 20
8.225550235
 10
-23.1077176665
 20
8.198928483
 10
-23.0881176993
 20
8.1713560499
 10
-23.068441719
 20
8.1427346556
 10
-23.0485506502
 20
8.1131637742
 10
-23.0283981347
 20
8.0826765635
 10
-23.0080305308
 20
8.0512398655
  0
LWPOLYLINE
  5
523
100
AcDbEntity
  8
0
100
AcDbPolyline
 62
7
  6
CONTINUOUS
 90
16
 70
0
 10
-19.3701645918
 20
8.3666817422
 10
-19.3276687432
 20
8.3670637686
 10
-19.2862171984
 20
8.3688003796
 10
-19.2458099576
 20
8.3718915753
 10
-19.2062938992
 20
8.3763003705
 10
-19.1678221447
 20
8.3820637504
 10
-19.1308540581
 20
8.3892926703
 10
-19.0953336823
 20
8.3980580804
 10
-19.0613169745
 20
8.4082890306
 10
-19.02943117
 20
8.4198836252
 10
-18.9998278407
 20
8.4328894565
 10
-18.9723554147
 20
8.4472589323
 10
-18.9471864114
 20
8.4627473808
 10
-18.9243783373
 20
8.4792732448
 10
-18.903873686
 20
8.4969180816
 10
-18.8856724574
 20
8.5156818911
  0
LWPOLYLINE
  5
524
100
AcDbEntity
  8
0
100
AcDbPolyline
 62
7
  6
CONTINUOUS
 90
10
 70
0
 10
-19.3722607878
 20
9.171669187
 10
-19.3467815479
 20
9.1717948514
 10
-19.3219998602
 20
9.1715323892
 10
-19.2979157246
 20
9.1708818003
 10
-19.2745033307
 20
9.1699288755
 10
-19.251788489
 20
9.1685878242
 10
-19.2298486312
 20
9.1666012736
 10
-19.2087095681
 20
9.1638834329
 10
-19.188345489
 20
9.160520093
 10
-19.1687563939
 20
9.1565112539
  0
LINE
  5
525
100
AcDbEntity
  8
0
100
AcDbLine
 62
7
  6
CONTINUOUS
 10
-29.2881839832
 20
7.664897816
 11
-29.0438817983
 21
7.664897816
  0
LINE
  5
526
100
AcDbEntity
  8
0
100
AcDbLine
 62
7
  6
CONTINUOUS
 10
-28.1740697567
 20
7.664897816
 11
-27.9470220158
 21
7.664897816
  0
LINE
  5
527
100
AcDbEntity
  8
0
100
AcDbLine
 62
7
  6
CONTINUOUS
 10
-27.5651689972
 20
7.664897816
 11
-27.3381212563
 21
7.664897816
  0
LINE
  5
528
100
AcDbEntity
  8
0
100
AcDbLine
 62
7
  6
CONTINUOUS
 10
-26.8470981747
 20
7.664897816
 11
-26.6539141326
 21
7.664897816
  0
LINE
  5
529
100
AcDbEntity
  8
0
100
AcDbLine
 62
7
  6
CONTINUOUS
 10
-25.7510445245
 20
7.664897816
 11
-25.5114189778
 21
7.664897816
  0
LINE
  5
52A
100
AcDbEntity
  8
0
100
AcDbLine
 62
7
  6
CONTINUOUS
 10
-26.1512807929
 20
7.664897816
 11
-25.9242330521
 21
7.664897816
  0
LINE
  5
52B
100
AcDbEntity
  8
0
100
AcDbLine
 62
7
  6
CONTINUOUS
 10
-24.4174616811
 20
7.664897816
 11
-24.1760621395
 21
7.664897816
  0
LINE
  5
52C
100
AcDbEntity
  8
0
100
AcDbLine
 62
7
  6
CONTINUOUS
 10
-23.9736865513
 20
7.664897816
 11
-23.7466388105
 21
7.664897816
  0
LINE
  5
52D
100
AcDbEntity
  8
0
100
AcDbLine
 62
7
  6
CONTINUOUS
 10
-22.7642702887
 20
7.664897816
 11
-22.49755372
 21
7.664897816
  0
LINE
  5
52E
100
AcDbEntity
  8
0
100
AcDbLine
 62
7
  6
CONTINUOUS
 10
-20.0209917905
 20
7.664897816
 11
-19.7939440497
 21
7.664897816
  0
LINE
  5
52F
100
AcDbEntity
  8
0
100
AcDbLine
 62
7
  6
CONTINUOUS
 10
-18.6403220958
 20
7.664897816
 11
-18.4006965492
 21
7.664897816
  0
LINE
  5
530
100
AcDbEntity
  8
0
100
AcDbLine
 62
7
  6
CONTINUOUS
 10
-17.3067392524
 20
7.664897816
 11
-17.0653397108
 21
7.664897816
  0
LINE
  5
531
100
AcDbEntity
  8
0
100
AcDbLine
 62
7
  6
CONTINUOUS
 10
-15.7169212928
 20
7.664897816
 11
-15.4726191079
 21
7.664897816
  0
LINE
  5
532
100
AcDbEntity
  8
0
100
AcDbLine
 62
7
  6
CONTINUOUS
 10
-14.6028070662
 20
7.664897816
 11
-14.3757593254
 21
7.664897816
  0
LINE
  5
533
100
AcDbEntity
  8
0
100
AcDbLine
 62
7
  6
CONTINUOUS
 10
-14.1612893903
 20
7.664897816
 11
-13.9216638437
 21
7.664897816
  0
LINE
  5
534
100
AcDbEntity
  8
0
100
AcDbLine
 62
7
  6
CONTINUOUS
 10
-12.4045721209
 20
7.664897816
 11
-11.3312555279
 21
7.664897816
  0
LINE
  5
535
100
AcDbEntity
  8
0
100
AcDbLine
 62
7
  6
CONTINUOUS
 10
-12.827706547
 20
7.664897816
 11
-12.5863070053
 21
7.664897816
  0
LINE
  5
536
100
AcDbEntity
  8
0
100
AcDbLine
 62
7
  6
CONTINUOUS
 10
-11.0629263796
 20
7.664897816
 11
-9.8038434532
 21
7.664897816
  0
LINE
  5
537
100
AcDbEntity
  8
0
100
AcDbLine
 62
7
  6
CONTINUOUS
 10
-8.3378697158
 20
7.664897816
 11
-8.0935675309
 21
7.664897816
  0
LINE
  5
538
100
AcDbEntity
  8
0
100
AcDbLine
 62
7
  6
CONTINUOUS
 10
-7.2237554893
 20
7.664897816
 11
-6.9967077484
 21
7.664897816
  0
LINE
  5
539
100
AcDbEntity
  8
0
100
AcDbLine
 62
7
  6
CONTINUOUS
 10
-4.8707152661
 20
7.664897816
 11
-3.6116323397
 21
7.664897816
  0
LINE
  5
53A
100
AcDbEntity
  8
0
100
AcDbLine
 62
7
  6
CONTINUOUS
 10
-3.2917014322
 20
7.664897816
 11
-3.0646536913
 21
7.664897816
  0
LINE
  5
53B
100
AcDbEntity
  8
0
100
AcDbLine
 62
7
  6
CONTINUOUS
 10
-1.7333283019
 20
7.664897816
 11
-0.3813622088
 21
7.664897816
  0
LINE
  5
53C
100
AcDbEntity
  8
0
100
AcDbLine
 62
7
  6
CONTINUOUS
 10
-2.2120957788
 20
7.664897816
 11
-1.9706963946
 21
7.664897816
  0
LINE
  5
53D
100
AcDbEntity
  8
0
100
AcDbLine
 62
7
  6
CONTINUOUS
 10
-0.3320179035
 20
7.664897816
 11
-0.0923923569
 21
7.664897816
  0
LINE
  5
53E
100
AcDbEntity
  8
0
100
AcDbLine
 62
7
  6
CONTINUOUS
 10
1.0015649399
 20
7.664897816
 11
1.2429644815
 21
7.664897816
  0
LINE
  5
53F
100
AcDbEntity
  8
0
100
AcDbLine
 62
7
  6
CONTINUOUS
 10
2.5908991257
 20
7.664897816
 11
2.7973061628
 21
7.664897816
  0
LINE
  5
540
100
AcDbEntity
  8
0
100
AcDbLine
 62
7
  6
CONTINUOUS
 10
4.0151076818
 20
7.664897816
 11
4.2215147189
 21
7.664897816
  0
LINE
  5
541
100
AcDbEntity
  8
0
100
AcDbLine
 62
7
  6
CONTINUOUS
 10
12.6429218333
 20
7.664897816
 11
12.8699695741
 21
7.664897816
  0
LINE
  5
542
100
AcDbEntity
  8
0
100
AcDbLine
 62
7
  6
CONTINUOUS
 10
13.3609926558
 20
7.664897816
 11
13.5541766978
 21
7.664897816
  0
LINE
  5
543
100
AcDbEntity
  8
0
100
AcDbLine
 62
7
  6
CONTINUOUS
 10
14.457046306
 20
7.664897816
 11
14.6966718526
 21
7.664897816
  0
LINE
  5
544
100
AcDbEntity
  8
0
100
AcDbLine
 62
7
  6
CONTINUOUS
 10
14.0568100375
 20
7.664897816
 11
14.2838577784
 21
7.664897816
  0
LINE
  5
545
100
AcDbEntity
  8
0
100
AcDbLine
 62
7
  6
CONTINUOUS
 10
15.7906291493
 20
7.664897816
 11
16.032028691
 21
7.664897816
  0
LINE
  5
546
100
AcDbEntity
  8
0
100
AcDbLine
 62
7
  6
CONTINUOUS
 10
16.2344042791
 20
7.664897816
 11
16.46145202
 21
7.664897816
  0
LINE
  5
547
100
AcDbEntity
  8
0
100
AcDbLine
 62
7
  6
CONTINUOUS
 10
17.4438205418
 20
7.664897816
 11
17.7105371104
 21
7.664897816
  0
LINE
  5
548
100
AcDbEntity
  8
0
100
AcDbLine
 62
7
  6
CONTINUOUS
 10
21.7970739294
 20
7.664897816
 11
22.0241216703
 21
7.664897816
  0
LINE
  5
549
100
AcDbEntity
  8
0
100
AcDbLine
 62
7
  6
CONTINUOUS
 10
22.8394294669
 20
7.664897816
 11
23.0664772077
 21
7.664897816
  0
LINE
  5
54A
100
AcDbEntity
  8
0
100
AcDbLine
 62
7
  6
CONTINUOUS
 10
24.9941255508
 20
7.664897816
 11
25.2337510974
 21
7.664897816
  0
LINE
  5
54B
100
AcDbEntity
  8
0
100
AcDbLine
 62
7
  6
CONTINUOUS
 10
26.3277083942
 20
7.664897816
 11
26.5691079358
 21
7.664897816
  0
LINE
  5
54C
100
AcDbEntity
  8
0
100
AcDbLine
 62
7
  6
CONTINUOUS
 10
27.9175263538
 20
7.664897816
 11
28.1618285387
 21
7.664897816
  0
LINE
  5
54D
100
AcDbEntity
  8
0
100
AcDbLine
 62
7
  6
CONTINUOUS
 10
29.0316405804
 20
7.664897816
 11
29.2586883212
 21
7.664897816
  0
LINE
  5
54E
100
AcDbEntity
  8
0
100
AcDbLine
 62
7
  6
CONTINUOUS
 10
30.3526456179
 20
7.664897816
 11
30.5796933588
 21
7.664897816
  0
LINE
  5
54F
100
AcDbEntity
  8
0
100
AcDbLine
 62
7
  6
CONTINUOUS
 10
31.4156418591
 20
7.664897816
 11
31.6426895999
 21
7.664897816
  0
LINE
  5
550
100
AcDbEntity
  8
0
100
AcDbLine
 62
7
  6
CONTINUOUS
 10
32.2390125536
 20
7.664897816
 11
32.4786381003
 21
7.664897816
  0
LINE
  5
551
100
AcDbEntity
  8
0
100
AcDbLine
 62
7
  6
CONTINUOUS
 10
33.9957298231
 20
7.664897816
 11
35.0690464161
 21
7.664897816
  0
LINE
  5
552
100
AcDbEntity
  8
0
100
AcDbLine
 62
7
  6
CONTINUOUS
 10
33.572595397
 20
7.664897816
 11
33.8139949386
 21
7.664897816
  0
LINE
  5
553
100
AcDbEntity
  8
0
100
AcDbLine
 62
7
  6
CONTINUOUS
 10
35.8030814615
 20
7.664897816
 11
36.0301292023
 21
7.664897816
  0
LINE
  5
554
100
AcDbEntity
  8
0
100
AcDbLine
 62
7
  6
CONTINUOUS
 10
35.0690464161
 20
7.8609845013
 11
34.2227775639
 21
7.8609845013
  0
LINE
  5
555
100
AcDbEntity
  8
0
100
AcDbLine
 62
7
  6
CONTINUOUS
 10
-0.3813622088
 20
7.8609845013
 11
-1.4761256379
 21
7.8609845013
  0
LINE
  5
556
100
AcDbEntity
  8
0
100
AcDbLine
 62
7
  6
CONTINUOUS
 10
-3.6116323397
 20
7.8609845013
 11
-4.6436675253
 21
7.8609845013
  0
LINE
  5
557
100
AcDbEntity
  8
0
100
AcDbLine
 62
7
  6
CONTINUOUS
 10
-9.8038434532
 20
7.8609845013
 11
-10.8358786388
 21
7.8609845013
  0
LINE
  5
558
100
AcDbEntity
  8
0
100
AcDbLine
 62
7
  6
CONTINUOUS
 10
-11.3312555279
 20
7.8609845013
 11
-12.1775243801
 21
7.8609845013
  0
LINE
  5
559
100
AcDbEntity
  8
0
100
AcDbLine
 62
7
  6
CONTINUOUS
 10
3.2617219963
 20
8.0673915384
 11
4.0151076818
 21
8.0673915384
  0
LINE
  5
55A
100
AcDbEntity
  8
0
100
AcDbLine
 62
7
  6
CONTINUOUS
 10
4.2215147189
 20
8.0673915384
 11
4.4485624597
 21
8.0673915384
  0
LINE
  5
55B
100
AcDbEntity
  8
0
100
AcDbLine
 62
7
  6
CONTINUOUS
 10
-25.3319415473
 20
8.1809154088
 11
-24.607420564
 21
8.1809154088
  0
LINE
  5
55C
100
AcDbEntity
  8
0
100
AcDbLine
 62
7
  6
CONTINUOUS
 10
-18.2212191186
 20
8.1809154088
 11
-17.4966981353
 21
8.1809154088
  0
LINE
  5
55D
100
AcDbEntity
  8
0
100
AcDbLine
 62
7
  6
CONTINUOUS
 10
-13.7421864132
 20
8.1809154088
 11
-13.0176654298
 21
8.1809154088
  0
LINE
  5
55E
100
AcDbEntity
  8
0
100
AcDbLine
 62
7
  6
CONTINUOUS
 10
0.0870850737
 20
8.1809154088
 11
0.811606057
 21
8.1809154088
  0
LINE
  5
55F
100
AcDbEntity
  8
0
100
AcDbLine
 62
7
  6
CONTINUOUS
 10
14.8761492831
 20
8.1809154088
 11
15.6006702665
 21
8.1809154088
  0
LINE
  5
560
100
AcDbEntity
  8
0
100
AcDbLine
 62
7
  6
CONTINUOUS
 10
25.4132285279
 20
8.1809154088
 11
26.1377495113
 21
8.1809154088
  0
LINE
  5
561
100
AcDbEntity
  8
0
100
AcDbLine
 62
7
  6
CONTINUOUS
 10
32.6581155308
 20
8.1809154088
 11
33.3826365141
 21
8.1809154088
  0
LINE
  5
562
100
AcDbEntity
  8
0
100
AcDbLine
 62
7
  6
CONTINUOUS
 10
4.4485624597
 20
8.2634782237
 11
4.2215147189
 21
8.2634782237
  0
LINE
  5
563
100
AcDbEntity
  8
0
100
AcDbLine
 62
7
  6
CONTINUOUS
 10
4.0151076818
 20
8.2634782237
 11
3.4684515493
 21
8.2634782237
  0
LINE
  5
564
100
AcDbEntity
  8
0
100
AcDbLine
 62
7
  6
CONTINUOUS
 10
33.3141029842
 20
8.3666817422
 11
32.7227790272
 21
8.3666817422
  0
LINE
  5
565
100
AcDbEntity
  8
0
100
AcDbLine
 62
7
  6
CONTINUOUS
 10
26.0692159814
 20
8.3666817422
 11
25.4778920244
 21
8.3666817422
  0
LINE
  5
566
100
AcDbEntity
  8
0
100
AcDbLine
 62
7
  6
CONTINUOUS
 10
-19.7939440497
 20
8.3666817422
 11
-19.3701645918
 21
8.3666817422
  0
LINE
  5
567
100
AcDbEntity
  8
0
100
AcDbLine
 62
7
  6
CONTINUOUS
 10
15.5321367365
 20
8.3666817422
 11
14.9408127795
 21
8.3666817422
  0
LINE
  5
568
100
AcDbEntity
  8
0
100
AcDbLine
 62
7
  6
CONTINUOUS
 10
0.7430725271
 20
8.3666817422
 11
0.1517485701
 21
8.3666817422
  0
LINE
  5
569
100
AcDbEntity
  8
0
100
AcDbLine
 62
7
  6
CONTINUOUS
 10
-13.0861989598
 20
8.3666817422
 11
-13.6775229168
 21
8.3666817422
  0
LINE
  5
56A
100
AcDbEntity
  8
0
100
AcDbLine
 62
7
  6
CONTINUOUS
 10
-17.5652316652
 20
8.3666817422
 11
-18.1565556222
 21
8.3666817422
  0
LINE
  5
56B
100
AcDbEntity
  8
0
100
AcDbLine
 62
7
  6
CONTINUOUS
 10
-24.6759540939
 20
8.3666817422
 11
-25.2672780509
 21
8.3666817422
  0
LINE
  5
56C
100
AcDbEntity
  8
0
100
AcDbLine
 62
7
  6
CONTINUOUS
 10
-23.7466388105
 20
8.4182835015
 11
-23.4878237243
 21
8.4182835015
  0
LINE
  5
56D
100
AcDbEntity
  8
0
100
AcDbLine
 62
7
  6
CONTINUOUS
 10
16.46145202
 20
8.4182835015
 11
16.7202671061
 21
8.4182835015
  0
LINE
  5
56E
100
AcDbEntity
  8
0
100
AcDbLine
 62
7
  6
CONTINUOUS
 10
-10.8358786388
 20
8.4492445571
 11
-9.9070469718
 21
8.4492445571
  0
LINE
  5
56F
100
AcDbEntity
  8
0
100
AcDbLine
 62
7
  6
CONTINUOUS
 10
-4.6436675253
 20
8.4492445571
 11
-3.7148358583
 21
8.4492445571
  0
LINE
  5
570
100
AcDbEntity
  8
0
100
AcDbLine
 62
7
  6
CONTINUOUS
 10
-19.3677457224
 20
8.5627684275
 11
-19.7939440497
 21
8.5627684275
  0
LINE
  5
571
100
AcDbEntity
  8
0
100
AcDbLine
 62
7
  6
CONTINUOUS
 10
-3.7148358583
 20
8.6453312424
 11
-4.6436675253
 21
8.6453312424
  0
LINE
  5
572
100
AcDbEntity
  8
0
100
AcDbLine
 62
7
  6
CONTINUOUS
 10
-9.9070469718
 20
8.6453312424
 11
-10.8358786388
 21
8.6453312424
  0
LINE
  5
573
100
AcDbEntity
  8
0
100
AcDbLine
 62
7
  6
CONTINUOUS
 10
-23.7466388105
 20
9.171669187
 11
-23.2128829998
 21
9.171669187
  0
LINE
  5
574
100
AcDbEntity
  8
0
100
AcDbLine
 62
7
  6
CONTINUOUS
 10
-19.7939440497
 20
9.171669187
 11
-19.3722607878
 21
9.171669187
  0
LINE
  5
575
100
AcDbEntity
  8
0
100
AcDbLine
 62
7
  6
CONTINUOUS
 10
-10.8358786388
 20
9.171669187
 11
-9.8451248606
 21
9.171669187
  0
LINE
  5
576
100
AcDbEntity
  8
0
100
AcDbLine
 62
7
  6
CONTINUOUS
 10
-4.6436675253
 20
9.171669187
 11
-3.6529137471
 21
9.171669187
  0
LINE
  5
577
100
AcDbEntity
  8
0
100
AcDbLine
 62
7
  6
CONTINUOUS
 10
-1.6301247834
 20
9.171669187
 11
-0.6864575417
 21
9.171669187
  0
LINE
  5
578
100
AcDbEntity
  8
0
100
AcDbLine
 62
7
  6
CONTINUOUS
 10
16.46145202
 20
9.171669187
 11
16.9952078307
 21
9.171669187
  0
LINE
  5
579
100
AcDbEntity
  8
0
100
AcDbLine
 62
7
  6
CONTINUOUS
 10
21.2397749292
 20
9.171669187
 11
21.7970739294
 21
9.171669187
  0
LINE
  5
57A
100
AcDbEntity
  8
0
100
AcDbLine
 62
7
  6
CONTINUOUS
 10
22.0241216703
 20
9.171669187
 11
22.5814206705
 21
9.171669187
  0
LINE
  5
57B
100
AcDbEntity
  8
0
100
AcDbLine
 62
7
  6
CONTINUOUS
 10
30.8583428589
 20
9.171669187
 11
31.4156418591
 21
9.171669187
  0
LINE
  5
57C
100
AcDbEntity
  8
0
100
AcDbLine
 62
7
  6
CONTINUOUS
 10
31.6426895999
 20
9.171669187
 11
32.1999886001
 21
9.171669187
  0
LINE
  5
57D
100
AcDbEntity
  8
0
100
AcDbLine
 62
7
  6
CONTINUOUS
 10
36.7112724248
 20
9.3677558723
 11
36.4372994055
 21
9.3677558723
  0
LINE
  5
57E
100
AcDbEntity
  8
0
100
AcDbLine
 62
7
  6
CONTINUOUS
 10
35.4230022804
 20
9.3677558723
 11
35.1528992946
 21
9.3677558723
  0
LINE
  5
57F
100
AcDbEntity
  8
0
100
AcDbLine
 62
7
  6
CONTINUOUS
 10
34.2227775639
 20
9.3677558723
 11
33.9957298231
 21
9.3677558723
  0
LINE
  5
580
100
AcDbEntity
  8
0
100
AcDbLine
 62
7
  6
CONTINUOUS
 10
33.1318841684
 20
9.3677558723
 11
32.8862920773
 21
9.3677558723
  0
LINE
  5
581
100
AcDbEntity
  8
0
100
AcDbLine
 62
7
  6
CONTINUOUS
 10
32.1999886001
 20
9.3677558723
 11
30.8583428589
 21
9.3677558723
  0
LINE
  5
582
100
AcDbEntity
  8
0
100
AcDbLine
 62
7
  6
CONTINUOUS
 10
30.5796933588
 20
9.3677558723
 11
30.3526456179
 21
9.3677558723
  0
LINE
  5
583
100
AcDbEntity
  8
0
100
AcDbLine
 62
7
  6
CONTINUOUS
 10
29.2586883212
 20
9.3677558723
 11
29.0316405804
 21
9.3677558723
  0
LINE
  5
584
100
AcDbEntity
  8
0
100
AcDbLine
 62
7
  6
CONTINUOUS
 10
28.8410366657
 20
9.3677558723
 11
28.5981858025
 21
9.3677558723
  0
LINE
  5
585
100
AcDbEntity
  8
0
100
AcDbLine
 62
7
  6
CONTINUOUS
 10
27.5042285057
 20
9.3677558723
 11
27.2628291216
 21
9.3677558723
  0
LINE
  5
586
100
AcDbEntity
  8
0
100
AcDbLine
 62
7
  6
CONTINUOUS
 10
25.8869971656
 20
9.3677558723
 11
25.6414050745
 21
9.3677558723
  0
LINE
  5
587
100
AcDbEntity
  8
0
100
AcDbLine
 62
7
  6
CONTINUOUS
 10
23.0664772077
 20
9.3677558723
 11
22.8394294669
 21
9.3677558723
  0
LINE
  5
588
100
AcDbEntity
  8
0
100
AcDbLine
 62
7
  6
CONTINUOUS
 10
22.5814206705
 20
9.3677558723
 11
21.2397749292
 21
9.3677558723
  0
LINE
  5
589
100
AcDbEntity
  8
0
100
AcDbLine
 62
7
  6
CONTINUOUS
 10
16.9860162845
 20
9.3677558723
 11
16.2344042791
 21
9.3677558723
  0
LINE
  5
58A
100
AcDbEntity
  8
0
100
AcDbLine
 62
7
  6
CONTINUOUS
 10
15.3499179207
 20
9.3677558723
 11
15.1043258296
 21
9.3677558723
  0
LINE
  5
58B
100
AcDbEntity
  8
0
100
AcDbLine
 62
7
  6
CONTINUOUS
 10
14.2838577784
 20
9.3677558723
 11
13.9884377655
 21
9.3677558723
  0
LINE
  5
58C
100
AcDbEntity
  8
0
100
AcDbLine
 62
7
  6
CONTINUOUS
 10
12.9889762151
 20
9.3677558723
 11
12.6429218333
 21
9.3677558723
  0
LINE
  5
58D
100
AcDbEntity
  8
0
100
AcDbLine
 62
7
  6
CONTINUOUS
 10
4.2215147189
 20
9.3677558723
 11
4.0563890892
 21
9.3677558723
  0
LINE
  5
58E
100
AcDbEntity
  8
0
100
AcDbLine
 62
7
  6
CONTINUOUS
 10
0.5608537113
 20
9.3677558723
 11
0.3152616202
 21
9.3677558723
  0
LINE
  5
58F
100
AcDbEntity
  8
0
100
AcDbLine
 62
7
  6
CONTINUOUS
 10
-0.4226436162
 20
9.3677558723
 11
-1.6301247834
 21
9.3677558723
  0
LINE
  5
590
100
AcDbEntity
  8
0
100
AcDbLine
 62
7
  6
CONTINUOUS
 10
-1.9706963946
 20
9.3677558723
 11
-2.1977441354
 21
9.3677558723
  0
LINE
  5
591
100
AcDbEntity
  8
0
100
AcDbLine
 62
7
  6
CONTINUOUS
 10
-3.0503018905
 20
9.3677558723
 11
-3.2917014322
 21
9.3677558723
  0
LINE
  5
592
100
AcDbEntity
  8
0
100
AcDbLine
 62
7
  6
CONTINUOUS
 10
-3.6529137471
 20
9.3677558723
 11
-4.8707152661
 21
9.3677558723
  0
LINE
  5
593
100
AcDbEntity
  8
0
100
AcDbLine
 62
7
  6
CONTINUOUS
 10
-6.9967077484
 20
9.3677558723
 11
-7.2237554893
 21
9.3677558723
  0
LINE
  5
594
100
AcDbEntity
  8
0
100
AcDbLine
 62
7
  6
CONTINUOUS
 10
-7.4143594039
 20
9.3677558723
 11
-7.6572102672
 21
9.3677558723
  0
LINE
  5
595
100
AcDbEntity
  8
0
100
AcDbLine
 62
7
  6
CONTINUOUS
 10
-8.7511675639
 20
9.3677558723
 11
-8.9925669481
 21
9.3677558723
  0
LINE
  5
596
100
AcDbEntity
  8
0
100
AcDbLine
 62
7
  6
CONTINUOUS
 10
-9.8451248606
 20
9.3677558723
 11
-11.0629263796
 21
9.3677558723
  0
LINE
  5
597
100
AcDbEntity
  8
0
100
AcDbLine
 62
7
  6
CONTINUOUS
 10
-12.1775243801
 20
9.3677558723
 11
-12.4045721209
 21
9.3677558723
  0
LINE
  5
598
100
AcDbEntity
  8
0
100
AcDbLine
 62
7
  6
CONTINUOUS
 10
-13.2684177756
 20
9.3677558723
 11
-13.5140098667
 21
9.3677558723
  0
LINE
  5
599
100
AcDbEntity
  8
0
100
AcDbLine
 62
7
  6
CONTINUOUS
 10
-14.3757593254
 20
9.3677558723
 11
-14.6028070662
 21
9.3677558723
  0
LINE
  5
59A
100
AcDbEntity
  8
0
100
AcDbLine
 62
7
  6
CONTINUOUS
 10
-14.7934109809
 20
9.3677558723
 11
-15.0362618441
 21
9.3677558723
  0
LINE
  5
59B
100
AcDbEntity
  8
0
100
AcDbLine
 62
7
  6
CONTINUOUS
 10
-16.1302191409
 20
9.3677558723
 11
-16.371618525
 21
9.3677558723
  0
LINE
  5
59C
100
AcDbEntity
  8
0
100
AcDbLine
 62
7
  6
CONTINUOUS
 10
-17.747450481
 20
9.3677558723
 11
-17.9930425721
 21
9.3677558723
  0
LINE
  5
59D
100
AcDbEntity
  8
0
100
AcDbLine
 62
7
  6
CONTINUOUS
 10
-19.3633327862
 20
9.3677658908
 11
-20.0209917905
 21
9.3677558723
  0
LINE
  5
59E
100
AcDbEntity
  8
0
100
AcDbLine
 62
7
  6
CONTINUOUS
 10
-23.2220745459
 20
9.3677558723
 11
-23.9736865513
 21
9.3677558723
  0
LINE
  5
59F
100
AcDbEntity
  8
0
100
AcDbLine
 62
7
  6
CONTINUOUS
 10
-24.8581729097
 20
9.3677558723
 11
-25.1037650008
 21
9.3677558723
  0
LINE
  5
5A0
100
AcDbEntity
  8
0
100
AcDbLine
 62
7
  6
CONTINUOUS
 10
-25.9242330521
 20
9.3677558723
 11
-26.2196530649
 21
9.3677558723
  0
LINE
  5
5A1
100
AcDbEntity
  8
0
100
AcDbLine
 62
7
  6
CONTINUOUS
 10
-27.2191146153
 20
9.3677558723
 11
-27.5651689972
 21
9.3677558723
  0
LINE
  5
5A2
100
AcDbEntity
  8
0
100
AcDbLine
 62
7
  6
CONTINUOUS
 10
-27.9470220158
 20
9.3677558723
 11
-28.1740697567
 21
9.3677558723
  0
LINE
  5
5A3
100
AcDbEntity
  8
0
100
AcDbLine
 62
7
  6
CONTINUOUS
 10
-28.3646736713
 20
9.3677558723
 11
-28.6075245346
 21
9.3677558723
  0
LINE
  5
5A4
100
AcDbEntity
  8
0
100
AcDbLine
 62
7
  6
CONTINUOUS
 10
-29.7014818313
 20
9.3677558723
 11
-29.9428812155
 21
9.3677558723
  0
LINE
  5
5A5
100
AcDbEntity
  8
0
100
AcDbLine
 62
7
  6
CONTINUOUS
 10
2.7973061628
 20
9.3780762241
 11
2.6642703944
 21
9.3780762241
  0
LWPOLYLINE
  5
5A6
100
AcDbEntity
  8
0
100
AcDbPolyline
 62
7
  6
CONTINUOUS
 90
10
 70
0
 10
5.788273263
 20
8.6532328823
 10
5.7845949618
 20
8.6532824414
 10
5.7808896969
 20
8.6533923862
 10
5.7771574684
 20
8.6535627167
 10
5.7733964079
 20
8.6538008849
 10
5.7696083836
 20
8.6540994388
 10
5.7657990008
 20
8.6544360222
 10
5.7619701279
 20
8.6548031833
 10
5.7581198963
 20
8.6552083739
 10
5.7542483062
 20
8.6556515942
  0
LWPOLYLINE
  5
5A7
100
AcDbEntity
  8
0
100
AcDbPolyline
 62
7
  6
CONTINUOUS
 90
10
 70
0
 10
11.0722934132
 20
8.6532328823
 10
11.068615112
 20
8.6532824414
 10
11.0649098471
 20
8.6533923862
 10
11.0611776186
 20
8.6535627167
 10
11.0574165581
 20
8.6538008849
 10
11.0536285338
 20
8.6540994388
 10
11.0498191511
 20
8.6544360222
 10
11.0459902781
 20
8.6548031833
 10
11.0421400465
 20
8.6552083739
 10
11.0382684564
 20
8.6556515942
  0
LWPOLYLINE
  5
5A8
100
AcDbEntity
  8
0
100
AcDbPolyline
 62
7
  6
CONTINUOUS
 90
40
 70
0
 10
-23.2128829998
 20
9.171669187
 10
-23.1779820956
 20
9.1710953802
 10
-23.1444729288
 20
9.1689078729
 10
-23.1123554993
 20
9.1651066651
 10
-23.0814009845
 20
9.159669156
 10
-23.051838207
 20
9.1526179464
 10
-23.0243536349
 20
9.1440208384
 10
-22.9992346771
 20
9.1339016247
 10
-22.9761939247
 20
9.1222365126
 10
-22.9550556193
 20
9.1090219265
 10
-22.9358054641
 20
9.0942468746
 10
-22.9184577559
 20
9.0779223487
 10
-22.9028796269
 20
9.0600777482
 10
-22.8889000573
 20
9.040605844
 10
-22.8766900669
 20
9.0196138652
 10
-22.8666298474
 20
8.9974528985
 10
-22.8587660332
 20
8.9740842664
 10
-22.8530519899
 20
8.9495466464
 10
-22.8497280053
 20
8.9243071577
 10
-22.8488756785
 20
8.8981004418
 10
-22.8504134104
 20
8.8711918572
 10
-22.8543366928
 20
8.844844598
 10
-22.8608045232
 20
8.8191316356
 10
-22.8696579039
 20
8.7939799985
 10
-22.8804153338
 20
8.7704339671
 10
-22.8929103393
 20
8.7488353867
 10
-22.9073093938
 20
8.7288424118
 10
-22.9236304164
 20
8.7104737868
 10
-22.9417949462
 20
8.6937452733
 10
-22.961881444
 20
8.6786411095
 10
-22.9841432112
 20
8.6651327546
 10
-23.00882255
 20
8.6531866325
 10
-23.0356771583
 20
8.6428363193
 10
-23.0642334313
 20
8.6341540017
 10
-23.0944554986
 20
8.6272697492
 10
-23.1263792307
 20
8.6220534924
 10
-23.1596386348
 20
8.6181872099
 10
-23.1941117133
 20
8.6155648945
 10
-23.2299204638
 20
8.6142925535
 10
-23.7466388105
 20
8.6143701868
  0
LWPOLYLINE
  5
5A9
100
AcDbEntity
  8
0
100
AcDbPolyline
 62
7
  6
CONTINUOUS
 90
40
 70
0
 10
16.9952078307
 20
9.171669187
 10
17.0301087348
 20
9.1710953802
 10
17.0636179016
 20
9.1689078729
 10
17.0957353311
 20
9.1651066651
 10
17.126689846
 20
9.159669156
 10
17.1562526235
 20
9.1526179464
 10
17.1837371956
 20
9.1440208384
 10
17.2088561534
 20
9.1339016247
 10
17.2318969057
 20
9.1222365126
 10
17.2530352111
 20
9.1090219265
 10
17.2722853663
 20
9.0942468746
 10
17.2896330746
 20
9.0779223487
 10
17.3052112036
 20
9.0600777482
 10
17.3191907732
 20
9.040605844
 10
17.3314007635
 20
9.0196138652
 10
17.3414609831
 20
8.9974528985
 10
17.3493247972
 20
8.9740842664
 10
17.3550388406
 20
8.9495466464
 10
17.3583628251
 20
8.9243071577
 10
17.359215152
 20
8.8981004418
 10
17.35767742
 20
8.8711918572
 10
17.3537541377
 20
8.844844598
 10
17.3472863073
 20
8.8191316356
 10
17.3384329265
 20
8.7939799985
 10
17.3276754967
 20
8.7704339671
 10
17.3151804912
 20
8.7488353867
 10
17.3007814366
 20
8.7288424118
 10
17.2844604141
 20
8.7104737868
 10
17.2662958843
 20
8.6937452733
 10
17.2462093865
 20
8.6786411095
 10
17.2239476192
 20
8.6651327546
 10
17.1992682804
 20
8.6531866325
 10
17.1724136722
 20
8.6428363193
 10
17.1438573991
 20
8.6341540017
 10
17.1136353318
 20
8.6272697492
 10
17.0817115997
 20
8.6220534924
 10
17.0484521956
 20
8.6181872099
 10
17.0139791171
 20
8.6155648945
 10
16.9781703666
 20
8.6142925535
 10
16.46145202
 20
8.6143701868
  0
LWPOLYLINE
  5
5AA
100
AcDbEntity
  8
0
100
AcDbPolyline
 62
7
  6
CONTINUOUS
 90
19
 70
0
 10
-21.012712959
 20
9.2026302426
 10
-20.9739087523
 20
9.2018850997
 10
-20.9367991676
 20
9.1992202424
 10
-20.9013842051
 20
9.1946356709
 10
-20.8674150159
 20
9.1881005327
 10
-20.8351404487
 20
9.1796456802
 10
-20.8053070497
 20
9.1693636702
 10
-20.7782886471
 20
9.1573401852
 10
-20.7537114125
 20
9.1434895426
 10
-20.7312004068
 20
9.1276472521
 10
-20.7108325673
 20
9.1099367173
 10
-20.6925309567
 20
9.0902345345
 10
-20.6756898231
 20
9.0680060019
 10
-20.659916497
 20
9.0429918754
 10
-20.6456036479
 20
9.015451399
 10
-20.6333235326
 20
8.9856276038
 10
-20.6232669034
 20
8.9536014998
 10
-20.6152430079
 20
8.9192920769
 10
-20.6092518463
 20
8.882699335
  0
LWPOLYLINE
  5
5AB
100
AcDbEntity
  8
0
100
AcDbPolyline
 62
7
  6
CONTINUOUS
 90
19
 70
0
 10
20.3822183349
 20
9.2026302426
 10
20.4210225416
 20
9.2018850997
 10
20.4581321262
 20
9.1992202424
 10
20.4935470888
 20
9.1946356709
 10
20.527516278
 20
9.1881005327
 10
20.5597908451
 20
9.1796456802
 10
20.5896242442
 20
9.1693636702
 10
20.6166426468
 20
9.1573401852
 10
20.6412198814
 20
9.1434895426
 10
20.6637308871
 20
9.1276472521
 10
20.6840987265
 20
9.1099367173
 10
20.7024003371
 20
9.0902345345
 10
20.7192414707
 20
9.0680060019
 10
20.7350147969
 20
9.0429918754
 10
20.749327646
 20
9.015451399
 10
20.7616077613
 20
8.9856276038
 10
20.7716643905
 20
8.9536014998
 10
20.7796882859
 20
8.9192920769
 10
20.7856794476
 20
8.882699335
  0
LWPOLYLINE
  5
5AC
100
AcDbEntity
  8
0
100
AcDbPolyline
 62
7
  6
CONTINUOUS
 90
36
 70
0
 10
5.8818014615
 20
8.4931060918
 10
5.9178299223
 20
8.4915716738
 10
5.9520649125
 20
8.4873412715
 10
5.9845064321
 20
8.4804148848
 10
6.0151526763
 20
8.47068405
 10
6.0440054499
 20
8.4582572309
 10
6.0710701674
 20
8.4434598191
 10
6.0965114803
 20
8.4261587379
 10
6.1201647371
 20
8.406487064
 10
6.1415413977
 20
8.38516942
 10
6.1605624425
 20
8.3623973681
 10
6.1773068911
 20
8.337979346
 10
6.1915232621
 20
8.3120652899
 10
6.2031769213
 20
8.2847414846
 10
6.212302503
 20
8.2559216453
 10
6.2187524276
 20
8.2254968536
 10
6.222521912
 20
8.1926905998
 10
6.2236157394
 20
8.1582793936
 10
6.2219006805
 20
8.1244838456
 10
6.2172919373
 20
8.091750828
 10
6.2098743079
 20
8.0596334687
 10
6.1997689574
 20
8.0290117618
 10
6.1869277552
 20
8.0001528015
 10
6.1713988319
 20
7.9727894936
 10
6.1534477446
 20
7.9470005495
 10
6.1328873309
 20
7.9225200085
 10
6.1099047532
 20
7.8996138314
 10
6.0853270554
 20
7.8791586119
 10
6.0594229706
 20
7.8613845869
 10
6.0319237658
 20
7.8460615196
 10
6.0028502854
 20
7.8333752933
 10
5.9718424921
 20
7.8233701193
 10
5.9392604231
 20
7.8160017863
 10
5.906205035
 20
7.8113235437
 10
5.8723476499
 20
7.8094067019
 10
5.8380169456
 20
7.8101799505
  0
LWPOLYLINE
  5
5AD
100
AcDbEntity
  8
0
100
AcDbPolyline
 62
7
  6
CONTINUOUS
 90
36
 70
0
 10
11.1658216117
 20
8.4931060918
 10
11.2018500725
 20
8.4915716738
 10
11.2360850627
 20
8.4873412715
 10
11.2685265823
 20
8.4804148848
 10
11.2991728265
 20
8.47068405
 10
11.3280256001
 20
8.4582572309
 10
11.3550903176
 20
8.4434598191
 10
11.3805316305
 20
8.4261587379
 10
11.4041848873
 20
8.406487064
 10
11.4255615479
 20
8.38516942
 10
11.4445825927
 20
8.3623973681
 10
11.4613270413
 20
8.337979346
 10
11.4755434123
 20
8.3120652899
 10
11.4871970715
 20
8.2847414846
 10
11.4963226532
 20
8.2559216453
 10
11.5027725778
 20
8.2254968536
 10
11.5065420622
 20
8.1926905998
 10
11.5076358896
 20
8.1582793936
 10
11.5059208307
 20
8.1244838456
 10
11.5013120875
 20
8.091750828
 10
11.4938944581
 20
8.0596334687
 10
11.4837891076
 20
8.0290117618
 10
11.4709479054
 20
8.0001528015
 10
11.4554189821
 20
7.9727894936
 10
11.4374678948
 20
7.9470005495
 10
11.4169074811
 20
7.9225200085
 10
11.3939249034
 20
7.8996138314
 10
11.3693472056
 20
7.8791586119
 10
11.3434431208
 20
7.8613845869
 10
11.315943916
 20
7.8460615196
 10
11.2868704356
 20
7.8333752933
 10
11.2558626423
 20
7.8233701193
 10
11.2232805733
 20
7.8160017863
 10
11.1902251852
 20
7.8113235437
 10
11.1563678001
 20
7.8094067019
 10
11.1220370958
 20
7.8101799505
  0
LWPOLYLINE
  5
5AE
100
AcDbEntity
  8
0
100
AcDbPolyline
 62
7
  6
CONTINUOUS
 90
19
 70
0
 10
-5.8785620729
 20
9.2026302426
 10
-5.8378178533
 20
9.2008206383
 10
-5.7990518926
 20
9.1967216476
 10
-5.7622641909
 20
9.1903332705
 10
-5.7273174301
 20
9.1814659354
 10
-5.6943489282
 20
9.170309214
 10
-5.6637706396
 20
9.1574318209
 10
-5.6359821854
 20
9.1431013452
 10
-5.6105839444
 20
9.1270501977
 10
-5.586789007
 20
9.109044326
 10
-5.564545677
 20
9.089179626
 10
-5.5439056506
 20
9.0673602018
 10
-5.5242371076
 20
9.0430643126
 10
-5.5052312596
 20
9.0159836557
 10
-5.487196895
 20
8.9864265338
 10
-5.4704285588
 20
8.954796115
 10
-5.4550244329
 20
8.9212267888
 10
-5.4408863354
 20
8.8855841658
 10
-5.4280142663
 20
8.8478682459
  0
LWPOLYLINE
  5
5AF
100
AcDbEntity
  8
0
100
AcDbPolyline
 62
7
  6
CONTINUOUS
 90
17
 70
0
 10
5.8380169456
 20
7.8101799505
 10
5.8052999119
 20
7.8134826087
 10
5.7748066249
 20
7.8193793882
 10
5.7459270084
 20
7.8278055773
 10
5.7189178236
 20
7.8384063597
 10
5.6939434762
 20
7.8510624092
 10
5.6708395604
 20
7.865893052
 10
5.6493696203
 20
7.8829014504
 10
5.6295571044
 20
7.9019563201
 10
5.6113785641
 20
7.9231889453
 10
5.5945271981
 20
7.9469963414
 10
5.5788561839
 20
7.9736986593
 10
5.5645123439
 20
8.0029757482
 10
5.5516293442
 20
8.0342641705
 10
5.5402517401
 20
8.067376114
 10
5.5303349763
 20
8.1024993909
 10
5.5218790527
 20
8.1396340014
  0
LWPOLYLINE
  5
5B0
100
AcDbEntity
  8
0
100
AcDbPolyline
 62
7
  6
CONTINUOUS
 90
17
 70
0
 10
11.1220370958
 20
7.8101799505
 10
11.0893200621
 20
7.8134826087
 10
11.0588267751
 20
7.8193793882
 10
11.0299471586
 20
7.8278055773
 10
11.0029379738
 20
7.8384063597
 10
10.9779636264
 20
7.8510624092
 10
10.9548597106
 20
7.865893052
 10
10.9333897705
 20
7.8829014504
 10
10.9135772546
 20
7.9019563201
 10
10.8953987143
 20
7.9231889453
 10
10.8785473483
 20
7.9469963414
 10
10.8628763341
 20
7.9736986593
 10
10.8485324941
 20
8.0029757482
 10
10.8356494944
 20
8.0342641705
 10
10.8242718903
 20
8.067376114
 10
10.8143551265
 20
8.1024993909
 10
10.8058992029
 20
8.1396340014
  0
LINE
  5
5B1
100
AcDbEntity
  8
0
100
AcDbLine
 62
7
  6
CONTINUOUS
 10
5.3361127193
 20
8.9343010943
 11
5.5425197564
 21
8.9033400388
  0
LWPOLYLINE
  5
5B2
100
AcDbEntity
  8
0
100
AcDbPolyline
 62
7
  6
CONTINUOUS
 90
9
 70
0
 10
-19.1406979816
 20
9.3516303914
 10
-19.1663972695
 20
9.3555863665
 10
-19.1927185501
 20
9.3589559634
 10
-19.2196618233
 20
9.3617391819
 10
-19.2472521086
 20
9.3638756026
 10
-19.2754643866
 20
9.3654256451
 10
-19.3042235986
 20
9.3665705675
 10
-19.3335047254
 20
9.3673707892
 10
-19.3633327862
 20
9.3677658908
  0
LINE
  5
5B3
100
AcDbEntity
  8
0
100
AcDbLine
 62
7
  6
CONTINUOUS
 10
-5.1596851181
 20
8.2055875615
 11
-5.3867328589
 21
8.2625108334
  0
LINE
  5
5B4
100
AcDbEntity
  8
0
100
AcDbLine
 62
7
  6
CONTINUOUS
 10
18.0996587845
 20
-10.141510184
 11
18.2507107845
 21
-10.292562184
  0
LWPOLYLINE
  5
5B5
100
AcDbEntity
  8
0
100
AcDbPolyline
 62
7
  6
CONTINUOUS
 90
14
 70
0
 10
6.4238366837
 20
8.2504098982
 10
6.415974164
 20
8.2909077053
 10
6.4051267614
 20
8.3280184595
 10
6.3912496066
 20
8.362525504
 10
6.3746256229
 20
8.3948077291
 10
6.3554239696
 20
8.4248968056
 10
6.3334754873
 20
8.4527610627
 10
6.3085556213
 20
8.4786843785
 10
6.2803356066
 20
8.5030055151
 10
6.2491442082
 20
8.5253857103
 10
6.2157431659
 20
8.5450925552
 10
6.1803863931
 20
8.5618819138
 10
6.1428199764
 20
8.5759979221
 10
6.1030439158
 20
8.5874405802
  0
LWPOLYLINE
  5
5B6
100
AcDbEntity
  8
0
100
AcDbPolyline
 62
7
  6
CONTINUOUS
 90
29
 70
0
 10
7.7429394359
 20
8.3255603899
 10
7.7335857289
 20
8.3743333501
 10
7.7210480646
 20
8.4194019809
 10
7.7051566985
 20
8.4616657563
 10
7.685920707
 20
8.5018372935
 10
7.6631086284
 20
8.5403239616
 10
7.6369519244
 20
8.5767183917
 10
7.6081540577
 20
8.6105110943
 10
7.5764787747
 20
8.6418914566
 10
7.5421623289
 20
8.6706700914
 10
7.506616943
 20
8.6957693477
 10
7.470363585
 20
8.7167608941
 10
7.4328812869
 20
8.734073062
 10
7.3940193677
 20
8.7479131944
 10
7.3534727889
 20
8.7583940332
 10
7.3115465889
 20
8.7654028365
 10
7.2690052025
 20
8.7688087212
 10
7.2253916992
 20
8.7684831511
 10
7.1811630095
 20
8.7645546623
 10
7.1384543589
 20
8.7572779805
 10
7.0979466928
 20
8.7467181049
 10
7.0589590659
 20
8.7328100363
 10
7.0215838684
 20
8.715613503
 10
6.9858079986
 20
8.6951572837
 10
6.9516445583
 20
8.6714125997
 10
6.9192252426
 20
8.644352843
 10
6.8885939499
 20
8.6139691445
 10
6.8597067819
 20
8.5802703733
 10
6.8325637384
 20
8.5432565295
  0
LWPOLYLINE
  5
5B7
100
AcDbEntity
  8
0
100
AcDbPolyline
 62
7
  6
CONTINUOUS
 90
40
 70
0
 10
6.6463152772
 20
8.1831984852
 10
6.6572026309
 20
8.1254038375
 10
6.6705474288
 20
8.070414236
 10
6.686361105
 20
8.0183952841
 10
6.7048769627
 20
7.9697794573
 10
6.7261904463
 20
7.9248057875
 10
6.7502061112
 20
7.8832352428
 10
6.7768709272
 20
7.844783204
 10
6.8063351349
 20
7.809361093
 10
6.8384484935
 20
7.7770574878
 10
6.8727072506
 20
7.7478535025
 10
6.9089824299
 20
7.7216214097
 10
6.9474030076
 20
7.6984889367
 10
6.9878521601
 20
7.6788203794
 10
7.0304840395
 20
7.662674299
 10
7.0751444937
 20
7.6499921343
 10
7.1212542423
 20
7.6409624977
 10
7.1696009595
 20
7.635642731
 10
7.2193969712
 20
7.6339754925
 10
7.2676999742
 20
7.6359773685
 10
7.3137644969
 20
7.6417866823
 10
7.3583360111
 20
7.6512651107
 10
7.4007086282
 20
7.6640142705
 10
7.4406355542
 20
7.680005303
 10
7.4783635833
 20
7.6992670669
 10
7.5139272089
 20
7.721487755
 10
7.5473324022
 20
7.7464767775
 10
7.5785731921
 20
7.7744247242
 10
7.6076661591
 20
7.8055915571
 10
7.6347446755
 20
7.8400358743
 10
7.659675369
 20
7.8776990777
 10
7.6820747043
 20
7.9186653359
 10
7.7022399359
 20
7.963422322
 10
7.7198738092
 20
8.0114823629
 10
7.7337010256
 20
8.061466607
 10
7.7433182704
 20
8.1138298553
 10
7.7491288583
 20
8.1681173068
 10
7.7510674336
 20
8.2215857075
 10
7.748939441
 20
8.2739825741
 10
7.7429394359
 20
8.3255603899
  0
LWPOLYLINE
  5
5B8
100
AcDbEntity
  8
0
100
AcDbPolyline
 62
7
  6
CONTINUOUS
 90
45
 70
0
 10
7.720113998
 20
8.954941798
 10
7.7121179178
 20
9.0025481481
 10
7.7012499781
 20
9.0472531083
 10
7.6875101788
 20
9.0890566786
 10
7.6707443408
 20
9.1279204499
 10
7.6511066432
 20
9.1638828313
 10
7.6290596239
 20
9.1970590499
 10
7.6046885338
 20
9.2274529347
 10
7.577908122
 20
9.2550606568
 10
7.5489251737
 20
9.2799859567
 10
7.5178185302
 20
9.3023289608
 10
7.4845093502
 20
9.3219895427
 10
7.4489678948
 20
9.3387710634
 10
7.4112651299
 20
9.3526928846
 10
7.3713300895
 20
9.3637356447
 10
7.3289201365
 20
9.3716446195
 10
7.2830431411
 20
9.3764643692
 10
7.2346912331
 20
9.3781503336
 10
7.1865981643
 20
9.3763141087
 10
7.1389389634
 20
9.3707596153
 10
7.0915386017
 20
9.3616829325
 10
7.0466057447
 20
9.3492838941
 10
7.0050823216
 20
9.3336536886
 10
6.9660264032
 20
9.3147011274
 10
6.9288208671
 20
9.2923524786
 10
6.8932646463
 20
9.2667663439
 10
6.8595588078
 20
9.2377841216
 10
6.8276894301
 20
9.204856274
 10
6.7974460355
 20
9.1678235842
 10
6.7690391017
 20
9.1268452692
 10
6.7430861402
 20
9.0818494419
 10
6.7197140009
 20
9.0326077256
 10
6.698795834
 20
8.979348497
 10
6.6805686014
 20
8.9226849996
 10
6.6651655897
 20
8.8626365264
 10
6.6524535123
 20
8.7991837844
 10
6.6422694714
 20
8.7328821386
 10
6.6346399081
 20
8.6627534496
 10
6.6295383813
 20
8.5897758569
 10
6.6267226696
 20
8.5174391435
 10
6.6261173452
 20
8.4461085359
 10
6.6277978359
 20
8.3754188077
 10
6.6317482036
 20
8.3077640633
 10
6.6378968019
 20
8.2439637823
 10
6.6463152772
 20
8.1831984852
  0
LWPOLYLINE
  5
5B9
100
AcDbEntity
  8
0
100
AcDbPolyline
 62
7
  6
CONTINUOUS
 90
39
 70
0
 10
5.3154720156
 20
8.1086729458
 10
5.3225894557
 20
8.0592987588
 10
5.3329787834
 20
8.0125980026
 10
5.3466399987
 20
7.9685706773
 10
5.3636228753
 20
7.9273784714
 10
5.3838776396
 20
7.8888596963
 10
5.4072549704
 20
7.8525292864
 10
5.4339618178
 20
7.8179952864
 10
5.4637912318
 20
7.7856496517
 10
5.4959730413
 20
7.7561831826
 10
5.5303115261
 20
7.7297004712
 10
5.5670024065
 20
7.7060969254
 10
5.6058626729
 20
7.6857495696
 10
5.6466278923
 20
7.6687163761
 10
5.6895624976
 20
7.6549393726
 10
5.7352767775
 20
7.6446216666
 10
5.7849445909
 20
7.6377038913
 10
5.8373920787
 20
7.6342454135
 10
5.8897079527
 20
7.6346274414
 10
5.9417928256
 20
7.6390841908
 10
5.9937460846
 20
7.6473814459
 10
6.0429546029
 20
7.6591977676
 10
6.0883188893
 20
7.6744429507
 10
6.130938435
 20
7.6932072004
 10
6.1714985869
 20
7.7154396929
 10
6.2105523248
 20
7.7415136615
 10
6.2475466689
 20
7.7710558729
 10
6.2815080262
 20
7.8028958026
 10
6.3123535731
 20
7.8369876711
 10
6.3401661332
 20
7.8733772579
 10
6.3642205843
 20
7.9110313771
 10
6.3842056569
 20
7.9495267672
 10
6.4004326205
 20
7.9892866897
 10
6.4131101615
 20
8.0305477437
 10
6.4222737957
 20
8.0741000297
 10
6.4278880072
 20
8.1191534471
 10
6.4300549359
 20
8.1635742937
 10
6.4286694513
 20
8.2073083814
 10
6.4238366837
 20
8.2504098982
  0
LINE
  5
5BA
100
AcDbEntity
  8
0
100
AcDbLine
 62
7
  6
CONTINUOUS
 10
12.2571187845
 20
49.164897816
 11
12.2571187845
 21
42.864897816
  0
LINE
  5
5BB
100
AcDbEntity
  8
0
100
AcDbLine
 62
7
  6
CONTINUOUS
 10
12.2571187845
 20
-57.835102184
 11
12.2571187845
 21
-51.535102184
  0
LINE
  5
5BC
100
AcDbEntity
  8
0
100
AcDbLine
 62
7
  6
CONTINUOUS
 10
12.6429218333
 20
9.3677558723
 11
12.6429218333
 21
7.664897816
  0
LINE
  5
5BD
100
AcDbEntity
  8
0
100
AcDbLine
 62
7
  6
CONTINUOUS
 10
12.8699695741
 20
7.664897816
 11
12.8699695741
 21
9.1097470759
  0
LINE
  5
5BE
100
AcDbEntity
  8
0
100
AcDbLine
 62
7
  6
CONTINUOUS
 10
14.0568100375
 20
9.0891063722
 11
14.0568100375
 21
7.664897816
  0
LINE
  5
5BF
100
AcDbEntity
  8
0
100
AcDbLine
 62
7
  6
CONTINUOUS
 10
14.2838577784
 20
7.664897816
 11
14.2838577784
 21
9.3677558723
  0
LWPOLYLINE
  5
5C0
100
AcDbEntity
  8
0
100
AcDbPolyline
 62
7
  6
CONTINUOUS
 90
19
 70
0
 10
11.4147999624
 20
8.9372037376
 10
11.4137993548
 20
8.9092869547
 10
11.410789944
 20
8.8829921413
 10
11.4057717301
 20
8.8583192973
 10
11.3988069545
 20
8.8354149911
 10
11.3898333757
 20
8.8141326543
 10
11.3786642696
 20
8.794032582
 10
11.3652942879
 20
8.7750302293
 10
11.3497287789
 20
8.7572101411
 10
11.3317970639
 20
8.7403862468
 10
11.3113535837
 20
8.7243023589
 10
11.2885438974
 20
8.7092146649
 10
11.2636340035
 20
8.6957056575
 10
11.2366499334
 20
8.6838115798
 10
11.2075656557
 20
8.6734961887
 10
11.1765690744
 20
8.665233247
 10
11.1437228242
 20
8.6591806759
 10
11.1089642705
 20
8.6551805544
 10
11.0722934132
 20
8.6532328823
  0
LWPOLYLINE
  5
5C1
100
AcDbEntity
  8
0
100
AcDbPolyline
 62
7
  6
CONTINUOUS
 90
3
 70
0
 10
13.5035970117
 20
8.0030435997
 10
13.4934680922
 20
7.9729997002
 10
13.4737102364
 20
7.9132312924
  0
LINE
  5
5C2
100
AcDbEntity
  8
0
100
AcDbLine
 62
7
  6
CONTINUOUS
 10
14.6966718526
 20
7.664897816
 11
14.8761492831
 21
8.1809154088
  0
LINE
  5
5C3
100
AcDbEntity
  8
0
100
AcDbLine
 62
7
  6
CONTINUOUS
 10
13.5541766978
 20
7.664897816
 11
14.0568100375
 21
9.0891063722
  0
LINE
  5
5C4
100
AcDbEntity
  8
0
100
AcDbLine
 62
7
  6
CONTINUOUS
 10
14.9408127795
 20
8.3666817422
 11
15.1248052754
 21
8.8638324689
  0
LINE
  5
5C5
100
AcDbEntity
  8
0
100
AcDbLine
 62
7
  6
CONTINUOUS
 10
15.1043258296
 20
9.3677558723
 11
14.457046306
 21
7.664897816
  0
LWPOLYLINE
  5
5C6
100
AcDbEntity
  8
0
100
AcDbPolyline
 62
7
  6
CONTINUOUS
 90
10
 70
0
 10
15.1248052754
 20
8.8638324689
 10
15.1390030281
 20
8.8988731965
 10
15.1525359471
 20
8.9343116987
 10
15.1654040323
 20
8.9701479754
 10
15.177625098
 20
9.0064268048
 10
15.18918133
 20
9.0431034088
 10
15.2000192856
 20
9.0800434528
 10
15.2101211507
 20
9.1172021587
 10
15.2195047395
 20
9.1546243047
 10
15.2281700519
 20
9.1923098907
  0
LINE
  5
5C7
100
AcDbEntity
  8
0
100
AcDbLine
 62
7
  6
CONTINUOUS
 10
18.2507107845
 20
-0.377642184
 11
18.0996587845
 21
-0.528694184
  0
LWPOLYLINE
  5
5C8
100
AcDbEntity
  8
0
100
AcDbPolyline
 62
7
  6
CONTINUOUS
 90
40
 70
0
 10
-23.096779002
 20
8.4389242052
 10
-23.0446752544
 20
8.4477182176
 10
-22.9954378153
 20
8.4588635021
 10
-22.9490666848
 20
8.4723600588
 10
-22.9053590955
 20
8.4883642596
 10
-22.8645178148
 20
8.5067197326
 10
-22.8271511449
 20
8.526957362
 10
-22.7936253105
 20
8.5489103358
 10
-22.7635740869
 20
8.5727454659
 10
-22.7365071023
 20
8.5984940722
 10
-22.7123521916
 20
8.6261438443
 10
-22.6911815199
 20
8.6557070926
 10
-22.6727212109
 20
8.6872520673
 10
-22.656744948
 20
8.720771083
 10
-22.6434790477
 20
8.7562718252
 10
-22.6333285837
 20
8.7938456001
 10
-22.6263157385
 20
8.8341532186
 10
-22.6224183294
 20
8.8765338698
 10
-22.6219748817
 20
8.9190964274
 10
-22.6251682274
 20
8.9618364254
 10
-22.6318155344
 20
9.0047583299
 10
-22.6417068317
 20
9.0459844127
 10
-22.6551075016
 20
9.0852037697
 10
-22.6717521617
 20
9.1227273051
 10
-22.6906346948
 20
9.1576100032
 10
-22.7115631691
 20
9.1896638735
 10
-22.7347295162
 20
9.2190769064
 10
-22.7597034133
 20
9.2454680584
 10
-22.7861355395
 20
9.2685484141
 10
-22.8143752157
 20
9.2886068888
 10
-22.8450400816
 20
9.3061291843
 10
-22.8783885866
 20
9.3211552616
 10
-22.9141622814
 20
9.3336451597
 10
-22.9522034565
 20
9.3439646971
 10
-22.992669825
 20
9.3519869283
 10
-23.0354036738
 20
9.3578387987
 10
-23.0797741552
 20
9.3622669629
 10
-23.1255709863
 20
9.3655203056
 10
-23.1730044499
 20
9.3673499421
 10
-23.2220745459
 20
9.3677558723
  0
LINE
  5
5C9
100
AcDbEntity
  8
DRAFT
100
AcDbLine
 62
7
  6
CONTINUOUS
 10
-1.3205320164
 20
11.064897816
 11
7.4347695854
 21
11.064897816
  0
LINE
  5
5CA
100
AcDbEntity
  8
DRAFT
100
AcDbLine
 62
7
  6
CONTINUOUS
 10
-1.3219351376
 20
11.364897816
 11
7.4361727066
 21
11.364897816
  0
LINE
  5
5CB
100
AcDbEntity
  8
RACCORDO
100
AcDbLine
 62
250
  6
CONTINUOUS
 10
7.4361727066
 20
11.864897816
 11
-1.3219351376
 21
11.864897816
  0
LINE
  5
5CC
100
AcDbEntity
  8
DRAFT
100
AcDbLine
 62
7
  6
CONTINUOUS
 10
-1.3428812155
 20
12.164897816
 11
7.4571187845
 21
12.164897816
  0
LINE
  5
5CD
100
AcDbEntity
  8
DRAFT
100
AcDbLine
 62
7
  6
CONTINUOUS
 10
-32.8428812155
 20
13.414897816
 11
-1.4428812155
 21
13.414897816
  0
LINE
  5
5CE
100
AcDbEntity
  8
DRAFT
100
AcDbLine
 62
7
  6
CONTINUOUS
 10
7.5571187845
 20
13.414897816
 11
38.9571187845
 21
13.414897816
  0
LINE
  5
5CF
100
AcDbEntity
  8
SMUSSO
100
AcDbLine
 62
7
  6
CONTINUOUS
 10
-32.8121378606
 20
13.5072028841
 11
-1.4428812155
 21
13.5072028841
  0
LINE
  5
5D0
100
AcDbEntity
  8
SMUSSO
100
AcDbLine
 62
7
  6
CONTINUOUS
 10
7.5571187845
 20
13.5072028841
 11
38.9263754297
 21
13.5072028841
  0
LINE
  5
5D1
100
AcDbEntity
  8
SMUSSO
100
AcDbLine
 62
7
  6
CONTINUOUS
 10
-32.7992435532
 20
14.2459172643
 11
-1.4428812155
 21
14.2459172643
  0
LINE
  5
5D2
100
AcDbEntity
  8
SMUSSO
100
AcDbLine
 62
7
  6
CONTINUOUS
 10
7.5571187845
 20
14.2459172643
 11
38.9134811222
 21
14.2459172643
  0
LINE
  5
5D3
100
AcDbEntity
  8
DRAFT
100
AcDbLine
 62
7
  6
CONTINUOUS
 10
6.2931547326
 20
14.764897816
 11
-0.1789171636
 21
14.764897816
  0
LWPOLYLINE
  5
5D4
100
AcDbEntity
  8
0
100
AcDbPolyline
 62
7
  6
CONTINUOUS
 90
19
 70
0
 10
24.1846228832
 20
9.2026302426
 10
24.2253671029
 20
9.2008206383
 10
24.2641330636
 20
9.1967216476
 10
24.3009207653
 20
9.1903332705
 10
24.3358675261
 20
9.1814659354
 10
24.3688360279
 20
9.170309214
 10
24.3994143166
 20
9.1574318209
 10
24.4272027708
 20
9.1431013452
 10
24.4526010118
 20
9.1270501977
 10
24.4763959491
 20
9.109044326
 10
24.4986392792
 20
9.089179626
 10
24.5192793055
 20
9.0673602018
 10
24.5389478485
 20
9.0430643126
 10
24.5579536965
 20
9.0159836557
 10
24.5759880611
 20
8.9864265338
 10
24.5927563973
 20
8.954796115
 10
24.6081605233
 20
8.9212267888
 10
24.6222986208
 20
8.8855841658
 10
24.6351706898
 20
8.8478682459
  0
LINE
  5
5D5
100
AcDbEntity
  8
0
100
AcDbLine
 62
7
  6
CONTINUOUS
 10
10.6201328695
 20
8.9343010943
 11
10.8265399067
 21
8.9033400388
  0
LWPOLYLINE
  5
5D6
100
AcDbEntity
  8
0
100
AcDbPolyline
 62
7
  6
CONTINUOUS
 90
16
 70
0
 10
20.3963280913
 20
8.6698421371
 10
20.3685373727
 20
8.6765067722
 10
20.3415428171
 20
8.683284805
 10
20.3153444245
 20
8.6901762356
 10
20.2899838106
 20
8.6971746712
 10
20.2654193596
 20
8.7042865046
 10
20.2415262244
 20
8.7115309137
 10
20.2182175169
 20
8.7188529977
 10
20.1955801252
 20
8.7263076575
 10
20.1737498654
 20
8.7340787735
 10
20.1525555195
 20
8.7420543995
 10
20.1321683055
 20
8.7503464817
 10
20.113237694
 20
8.7594747405
 10
20.0959801752
 20
8.7696124158
 10
20.0801792588
 20
8.7805862675
 10
20.065834945
 20
8.7923962957
  0
LINE
  5
5D7
100
AcDbEntity
  8
0
100
AcDbLine
 62
7
  6
CONTINUOUS
 10
24.9034998381
 20
8.2055875615
 11
24.6764520972
 21
8.2625108334
  0
LWPOLYLINE
  5
5D8
100
AcDbEntity
  8
0
100
AcDbPolyline
 62
7
  6
CONTINUOUS
 90
3
 70
0
 10
20.34488759
 20
8.4483577171
 10
20.4151701375
 20
8.4305220988
 10
20.5162616881
 20
8.404534283
  0
LWPOLYLINE
  5
5D9
100
AcDbEntity
  8
0
100
AcDbPolyline
 62
7
  6
CONTINUOUS
 90
5
 70
0
 10
20.5162616881
 20
8.404534283
 10
20.5485270886
 20
8.3954677091
 10
20.5798461718
 20
8.3856923744
 10
20.6103053474
 20
8.3753983201
 10
20.6399046154
 20
8.3645855463
  0
LINE
  5
5DA
100
AcDbEntity
  8
RACCORDO
100
AcDbLine
 62
250
  6
CONTINUOUS
 10
-32.7381508259
 20
49.4603197313
 11
-32.8428812155
 21
49.5650501209
  0
LINE
  5
5DB
100
AcDbEntity
  8
0
100
AcDbLine
 62
7
  6
CONTINUOUS
 10
20.9212987845
 20
-3.350334184
 11
22.9060687845
 21
-5.335102184
  0
LINE
  5
5DC
100
AcDbEntity
  8
0
100
AcDbLine
 62
7
  6
CONTINUOUS
 10
18.0996587845
 20
-0.528694184
 11
20.8038027845
 21
-3.232836184
  0
LINE
  5
5DD
100
AcDbEntity
  8
0
100
AcDbLine
 62
7
  6
CONTINUOUS
 10
24.9069987845
 20
-7.336032184
 11
27.8635267845
 21
-10.292562184
  0
LINE
  5
5DE
100
AcDbEntity
  8
0
100
AcDbLine
 62
7
  6
CONTINUOUS
 10
23.0571187845
 20
-5.486152184
 11
24.8084067845
 21
-7.237442184
  0
LINE
  5
5DF
100
AcDbEntity
  8
0
100
AcDbLine
 62
7
  6
CONTINUOUS
 10
28.0145787845
 20
-10.141510184
 11
24.9313027845
 21
-7.058236184
  0
LINE
  5
5E0
100
AcDbEntity
  8
0
100
AcDbLine
 62
7
  6
CONTINUOUS
 10
24.8327107845
 20
-6.959644184
 11
23.2081687845
 21
-5.335102184
  0
LINE
  5
5E1
100
AcDbEntity
  8
0
100
AcDbLine
 62
7
  6
CONTINUOUS
 10
23.0571187845
 20
-5.184052184
 11
20.8923347845
 21
-3.019268184
  0
LINE
  5
5E2
100
AcDbEntity
  8
0
100
AcDbLine
 62
7
  6
CONTINUOUS
 10
20.7748387845
 20
-2.901770184
 11
18.2507107845
 21
-0.377642184
  0
LINE
  5
5E3
100
AcDbEntity
  8
RACCORDO
100
AcDbLine
 62
250
  6
CONTINUOUS
 10
-31.7383031308
 20
50.4601674265
 11
-31.8430335203
 21
50.564897816
  0
LWPOLYLINE
  5
5E4
100
AcDbEntity
  8
0
100
AcDbPolyline
 62
7
  6
CONTINUOUS
 90
19
 70
0
 10
8.2650770007
 20
7.9455630406
 10
8.2515887986
 20
7.9655299884
 10
8.239297418
 20
7.9871800167
 10
8.2282028588
 20
8.0105131253
 10
8.2183869864
 20
8.0356664516
 10
8.2097679355
 20
8.0625028583
 10
8.20210011
 20
8.0906109338
 10
8.1954122803
 20
8.1199859936
 10
8.1896756759
 20
8.1506327221
 10
8.1845583903
 20
8.1821537619
 10
8.179961642
 20
8.2144018255
 10
8.1759842124
 20
8.2475242003
 10
8.1725905389
 20
8.2815653915
 10
8.1697882905
 20
8.3165102387
 10
8.1675697983
 20
8.3523739023
 10
8.1658764929
 20
8.3892463686
 10
8.1646888511
 20
8.4271576333
 10
8.1640263961
 20
8.4660777008
 10
8.1638891278
 20
8.506006571
  0
LWPOLYLINE
  5
5E5
100
AcDbEntity
  8
0
100
AcDbPolyline
 62
7
  6
CONTINUOUS
 90
34
 70
0
 10
8.7657753236
 20
9.0644342982
 10
8.7797033948
 20
9.0422979088
 10
8.7923765638
 20
9.018424801
 10
8.8037948305
 20
8.992814975
 10
8.8138588912
 20
8.9653795753
 10
8.8226680498
 20
8.9362074573
 10
8.8305202168
 20
8.9055651874
 10
8.8374456856
 20
8.8735806407
 10
8.8434141629
 20
8.8401259421
 10
8.8486326802
 20
8.8050840336
 10
8.8531461809
 20
8.7684971108
 10
8.8569097216
 20
8.730322978
 10
8.8599955029
 20
8.6903179903
 10
8.8624157825
 20
8.6478083062
 10
8.8641583027
 20
8.6034677671
 10
8.8652584906
 20
8.5590742523
 10
8.8657080448
 20
8.5147691004
 10
8.8655152666
 20
8.4704109729
 10
8.8647404883
 20
8.4273537338
 10
8.8634230478
 20
8.3860661958
 10
8.861523607
 20
8.3460795462
 10
8.8589844841
 20
8.3073412114
 10
8.8558211376
 20
8.2698281162
 10
8.8520181088
 20
8.2335633358
 10
8.8474713403
 20
8.1985635212
 10
8.8422177654
 20
8.1648059849
 10
8.8362204508
 20
8.1323134144
 10
8.8292645387
 20
8.1011705243
 10
8.8213703927
 20
8.0712832729
 10
8.8125176492
 20
8.0427457018
 10
8.8024303591
 20
8.0159246495
 10
8.7910165393
 20
7.9909423954
 10
8.7783681729
 20
7.9676766601
 10
8.76448526
 20
7.9461274435
  0
LWPOLYLINE
  5
5E6
100
AcDbEntity
  8
0
100
AcDbPolyline
 62
7
  6
CONTINUOUS
 90
14
 70
0
 10
11.7078568339
 20
8.2504098982
 10
11.6999943142
 20
8.2909077053
 10
11.6891469116
 20
8.3280184595
 10
11.6752697568
 20
8.362525504
 10
11.6586457731
 20
8.3948077291
 10
11.6394441198
 20
8.4248968056
 10
11.6174956375
 20
8.4527610627
 10
11.5925757715
 20
8.4786843785
 10
11.5643557569
 20
8.5030055151
 10
11.5331643584
 20
8.5253857103
 10
11.4997633161
 20
8.5450925552
 10
11.4644065433
 20
8.5618819138
 10
11.4268401266
 20
8.5759979221
 10
11.387064066
 20
8.5874405802
  0
LWPOLYLINE
  5
5E7
100
AcDbEntity
  8
0
100
AcDbPolyline
 62
7
  6
CONTINUOUS
 90
29
 70
0
 10
10.384949511
 20
8.3255603899
 10
10.375595804
 20
8.3743333501
 10
10.3630581397
 20
8.4194019809
 10
10.3471667736
 20
8.4616657563
 10
10.3279307821
 20
8.5018372935
 10
10.3051187035
 20
8.5403239616
 10
10.2789619995
 20
8.5767183917
 10
10.2501641328
 20
8.6105110943
 10
10.2184888498
 20
8.6418914566
 10
10.184172404
 20
8.6706700914
 10
10.1486270181
 20
8.6957693477
 10
10.1123736601
 20
8.7167608941
 10
10.074891362
 20
8.734073062
 10
10.0360294428
 20
8.7479131944
 10
9.995482864
 20
8.7583940332
 10
9.953556664
 20
8.7654028365
 10
9.9110152776
 20
8.7688087212
 10
9.8674017743
 20
8.7684831511
 10
9.8231730846
 20
8.7645546623
 10
9.780464434
 20
8.7572779805
 10
9.7399567679
 20
8.7467181049
 10
9.700969141
 20
8.7328100363
 10
9.6635939435
 20
8.715613503
 10
9.6278180737
 20
8.6951572837
 10
9.5936546334
 20
8.6714125997
 10
9.5612353177
 20
8.644352843
 10
9.530604025
 20
8.6139691445
 10
9.501716857
 20
8.5802703733
 10
9.4745738135
 20
8.5432565295
  0
LWPOLYLINE
  5
5E8
100
AcDbEntity
  8
0
100
AcDbPolyline
 62
7
  6
CONTINUOUS
 90
40
 70
0
 10
9.2883253523
 20
8.1831984852
 10
9.299212706
 20
8.1254038375
 10
9.3125575039
 20
8.070414236
 10
9.3283711801
 20
8.0183952841
 10
9.3468870378
 20
7.9697794573
 10
9.3682005214
 20
7.9248057875
 10
9.3922161863
 20
7.8832352428
 10
9.4188810023
 20
7.844783204
 10
9.44834521
 20
7.809361093
 10
9.4804585686
 20
7.7770574878
 10
9.5147173257
 20
7.7478535025
 10
9.550992505
 20
7.7216214097
 10
9.5894130827
 20
7.6984889367
 10
9.6298622352
 20
7.6788203794
 10
9.6724941146
 20
7.662674299
 10
9.7171545688
 20
7.6499921343
 10
9.7632643174
 20
7.6409624977
 10
9.8116110346
 20
7.635642731
 10
9.8614070463
 20
7.6339754925
 10
9.9097100493
 20
7.6359773685
 10
9.955774572
 20
7.6417866823
 10
10.0003460862
 20
7.6512651107
 10
10.0427187033
 20
7.6640142705
 10
10.0826456293
 20
7.680005303
 10
10.1203736584
 20
7.6992670669
 10
10.155937284
 20
7.721487755
 10
10.1893424773
 20
7.7464767775
 10
10.2205832672
 20
7.7744247242
 10
10.2496762342
 20
7.8055915571
 10
10.2767547506
 20
7.8400358743
 10
10.3016854441
 20
7.8776990777
 10
10.3240847794
 20
7.9186653359
 10
10.344250011
 20
7.963422322
 10
10.3618838843
 20
8.0114823629
 10
10.3757111007
 20
8.061466607
 10
10.3853283455
 20
8.1138298553
 10
10.3911389334
 20
8.1681173068
 10
10.3930775087
 20
8.2215857075
 10
10.3909495161
 20
8.2739825741
 10
10.384949511
 20
8.3255603899
  0
LWPOLYLINE
  5
5E9
100
AcDbEntity
  8
0
100
AcDbPolyline
 62
7
  6
CONTINUOUS
 90
45
 70
0
 10
10.3621240731
 20
8.954941798
 10
10.3541279929
 20
9.0025481481
 10
10.3432600532
 20
9.0472531083
 10
10.3295202539
 20
9.0890566786
 10
10.3127544159
 20
9.1279204499
 10
10.2931167183
 20
9.1638828313
 10
10.271069699
 20
9.1970590499
 10
10.2466986089
 20
9.2274529347
 10
10.2199181971
 20
9.2550606568
 10
10.1909352488
 20
9.2799859567
 10
10.1598286053
 20
9.3023289608
 10
10.1265194254
 20
9.3219895427
 10
10.0909779699
 20
9.3387710634
 10
10.053275205
 20
9.3526928846
 10
10.0133401646
 20
9.3637356447
 10
9.9709302116
 20
9.3716446195
 10
9.9250532162
 20
9.3764643692
 10
9.8767013082
 20
9.3781503336
 10
9.8286082394
 20
9.3763141087
 10
9.7809490385
 20
9.3707596153
 10
9.7335486768
 20
9.3616829325
 10
9.6886158198
 20
9.3492838941
 10
9.6470923967
 20
9.3336536886
 10
9.6080364783
 20
9.3147011274
 10
9.5708309422
 20
9.2923524786
 10
9.5352747214
 20
9.2667663439
 10
9.5015688829
 20
9.2377841216
 10
9.4696995052
 20
9.204856274
 10
9.4394561106
 20
9.1678235842
 10
9.4110491768
 20
9.1268452692
 10
9.3850962153
 20
9.0818494419
 10
9.361724076
 20
9.0326077256
 10
9.3408059091
 20
8.979348497
 10
9.3225786765
 20
8.9226849996
 10
9.3071756648
 20
8.8626365264
 10
9.2944635874
 20
8.7991837844
 10
9.2842795465
 20
8.7328821386
 10
9.2766499832
 20
8.6627534496
 10
9.2715484564
 20
8.5897758569
 10
9.2687327447
 20
8.5174391435
 10
9.2681274203
 20
8.4461085359
 10
9.269807911
 20
8.3754188077
 10
9.2737582787
 20
8.3077640633
 10
9.279906877
 20
8.2439637823
 10
9.2883253523
 20
8.1831984852
  0
LWPOLYLINE
  5
5EA
100
AcDbEntity
  8
0
100
AcDbPolyline
 62
7
  6
CONTINUOUS
 90
39
 70
0
 10
10.5994921658
 20
8.1086729458
 10
10.6066096059
 20
8.0592987588
 10
10.6169989336
 20
8.0125980026
 10
10.6306601489
 20
7.9685706773
 10
10.6476430255
 20
7.9273784714
 10
10.6678977898
 20
7.8888596963
 10
10.6912751207
 20
7.8525292864
 10
10.717981968
 20
7.8179952864
 10
10.747811382
 20
7.7856496517
 10
10.7799931915
 20
7.7561831826
 10
10.8143316763
 20
7.7297004712
 10
10.8510225567
 20
7.7060969254
 10
10.8898828231
 20
7.6857495696
 10
10.9306480425
 20
7.6687163761
 10
10.9735826478
 20
7.6549393726
 10
11.0192969277
 20
7.6446216666
 10
11.0689647411
 20
7.6377038913
 10
11.121412229
 20
7.6342454135
 10
11.1737281029
 20
7.6346274414
 10
11.2258129758
 20
7.6390841908
 10
11.2777662348
 20
7.6473814459
 10
11.3269747531
 20
7.6591977676
 10
11.3723390395
 20
7.6744429507
 10
11.4149585852
 20
7.6932072004
 10
11.4555187371
 20
7.7154396929
 10
11.494572475
 20
7.7415136615
 10
11.5315668191
 20
7.7710558729
 10
11.5655281764
 20
7.8028958026
 10
11.5963737233
 20
7.8369876711
 10
11.6241862834
 20
7.8733772579
 10
11.6482407345
 20
7.9110313771
 10
11.6682258071
 20
7.9495267672
 10
11.6844527707
 20
7.9892866897
 10
11.6971303118
 20
8.0305477437
 10
11.7062939459
 20
8.0741000297
 10
11.7119081574
 20
8.1191534471
 10
11.7140750861
 20
8.1635742937
 10
11.7126896015
 20
8.2073083814
 10
11.7078568339
 20
8.2504098982
  0
LWPOLYLINE
  5
5EB
100
AcDbEntity
  8
0
100
AcDbPolyline
 62
7
  6
CONTINUOUS
 90
43
 70
0
 10
17.8650198724
 20
8.4935898657
 10
17.8682344026
 20
8.4188684678
 10
17.8761865084
 20
8.3465886505
 10
17.8888761897
 20
8.2767504138
 10
17.9067670911
 20
8.2088096726
 10
17.9293955679
 20
8.1433105119
 10
17.9553706864
 20
8.0818851876
 10
17.9843758052
 20
8.0251215296
 10
18.0167275656
 20
7.972431708
 10
18.0519849578
 20
7.9236844881
 10
18.0899416265
 20
7.8790343187
 10
18.130803927
 20
7.838326751
 10
18.1747499151
 20
7.8009672044
 10
18.2220621835
 20
7.7665556059
 10
18.2724581395
 20
7.7354920285
 10
18.3252680618
 20
7.7083821113
 10
18.3802975847
 20
7.6852729944
 10
18.4377410739
 20
7.6661175377
 10
18.497511904
 20
7.6513799595
 10
18.5603094176
 20
7.6410865184
 10
18.6254342721
 20
7.6352109558
 10
18.690701815
 20
7.6341387144
 10
18.7561344183
 20
7.6381452298
 10
18.82170971
 20
7.6469550664
 10
18.8851759216
 20
7.66012736
 10
18.9462923178
 20
7.6778772463
 10
19.005299634
 20
7.6999895895
 10
19.0606683077
 20
7.7253781185
 10
19.1117761944
 20
7.7537407538
 10
19.1592454388
 20
7.7853795748
 10
19.2034129118
 20
7.8201145484
 10
19.2441017906
 20
7.8574245006
 10
19.2814888982
 20
7.8978306054
 10
19.3164415743
 20
7.9427163519
 10
19.3496043011
 20
7.9926404616
 10
19.3803325965
 20
8.0470442129
 10
19.4075603539
 20
8.1056349307
 10
19.4313131797
 20
8.1683874379
 10
19.4515654674
 20
8.2353269114
 10
19.467174292
 20
8.3062362074
 10
19.4777586784
 20
8.3810429445
 10
19.4836996015
 20
8.459819504
 10
19.4849970615
 20
8.542565886
  0
LINE
  5
5EC
100
AcDbEntity
  8
0
100
AcDbLine
 62
7
  6
CONTINUOUS
 10
16.2344042791
 20
9.3677558723
 11
16.2344042791
 21
7.664897816
  0
LINE
  5
5ED
100
AcDbEntity
  8
0
100
AcDbLine
 62
7
  6
CONTINUOUS
 10
16.46145202
 20
7.664897816
 11
16.46145202
 21
8.4182835015
  0
LINE
  5
5EE
100
AcDbEntity
  8
0
100
AcDbLine
 62
7
  6
CONTINUOUS
 10
16.46145202
 20
8.6143701868
 11
16.46145202
 21
9.171669187
  0
LINE
  5
5EF
100
AcDbEntity
  8
0
100
AcDbLine
 62
7
  6
CONTINUOUS
 10
17.2455019867
 20
-10.995662184
 11
17.2455019867
 21
-12.995662184
  0
LWPOLYLINE
  5
5F0
100
AcDbEntity
  8
0
100
AcDbPolyline
 62
7
  6
CONTINUOUS
 90
16
 70
0
 10
18.0920676132
 20
8.4908484804
 10
18.0925594907
 20
8.5402965008
 10
18.0946659084
 20
8.588186696
 10
18.0983868663
 20
8.6345190661
 10
18.1037005961
 20
8.6794546637
 10
18.1106288661
 20
8.7228324362
 10
18.1192369806
 20
8.7641692257
 10
18.1296008407
 20
8.8033483779
 10
18.1416445453
 20
8.8404865471
 10
18.1552056958
 20
8.875450539
 10
18.17034796
 20
8.9082240143
 10
18.1870076701
 20
8.9388233122
 10
18.2048314239
 20
8.9671642564
 10
18.2237014208
 20
8.9932187879
 10
18.2437354616
 20
9.0170149657
 10
18.2649335461
 20
9.0385527896
  0
LINE
  5
5F1
100
AcDbEntity
  8
RACCORDO
100
AcDbLine
 62
250
  6
CONTINUOUS
 10
-32.8428812155
 20
-58.2352544888
 11
-32.7381508259
 21
-58.1305240992
  0
LINE
  5
5F2
100
AcDbEntity
  8
RACCORDO
100
AcDbLine
 62
250
  6
CONTINUOUS
 10
-31.8430335203
 20
-59.235102184
 11
-31.7383031308
 21
-59.1303717944
  0
LINE
  5
5F3
100
AcDbEntity
  8
DRAFT
100
AcDbLine
 62
7
  6
CONTINUOUS
 10
-31.4952464103
 20
-59.235102184
 11
-31.4428812155
 21
-59.1827369892
  0
LINE
  5
5F4
100
AcDbEntity
  8
DRAFT
100
AcDbLine
 62
7
  6
CONTINUOUS
 10
-32.7992435532
 20
16.0459172643
 11
-1.4428812155
 21
16.0459172643
  0
LINE
  5
5F5
100
AcDbEntity
  8
DRAFT
100
AcDbLine
 62
7
  6
CONTINUOUS
 10
7.5571187845
 20
16.0459172643
 11
38.9134811222
 21
16.0459172643
  0
LINE
  5
5F6
100
AcDbEntity
  8
DRAFT
100
AcDbLine
 62
7
  6
CONTINUOUS
 10
-32.7381508259
 20
16.2293444917
 11
-1.4428812155
 21
16.2293444917
  0
LINE
  5
5F7
100
AcDbEntity
  8
DRAFT
100
AcDbLine
 62
7
  6
CONTINUOUS
 10
7.5571187845
 20
16.2293444917
 11
38.8523883949
 21
16.2293444917
  0
LINE
  5
5F8
100
AcDbEntity
  8
ASSI
100
AcDbLine
 62
7
  6
CONTINUOUS
 10
-32.8817884882
 20
16.664897816
 11
-32.8428812155
 21
16.664897816
  0
LINE
  5
5F9
100
AcDbEntity
  8
0
100
AcDbLine
 62
7
  6
CONTINUOUS
 10
-32.8817884882
 20
16.664897816
 11
-32.8428812155
 21
16.664897816
  0
LINE
  5
5FA
100
AcDbEntity
  8
ASSI
100
AcDbLine
 62
7
  6
CONTINUOUS
 10
38.9571187845
 20
16.664897816
 11
38.9960260573
 21
16.664897816
  0
LINE
  5
5FB
100
AcDbEntity
  8
0
100
AcDbLine
 62
7
  6
CONTINUOUS
 10
38.9571187845
 20
16.664897816
 11
38.9960260573
 21
16.664897816
  0
LINE
  5
5FC
100
AcDbEntity
  8
0
100
AcDbLine
 62
7
  6
CONTINUOUS
 10
7.5571187845
 20
16.914897816
 11
6.7071187845
 21
16.914897816
  0
LINE
  5
5FD
100
AcDbEntity
  8
0
100
AcDbLine
 62
7
  6
CONTINUOUS
 10
6.2931547326
 20
16.914897816
 11
6.2071187845
 21
16.914897816
  0
LINE
  5
5FE
100
AcDbEntity
  8
0
100
AcDbLine
 62
7
  6
CONTINUOUS
 10
-0.0928812155
 20
16.914897816
 11
-0.1789171636
 21
16.914897816
  0
LINE
  5
5FF
100
AcDbEntity
  8
0
100
AcDbLine
 62
7
  6
CONTINUOUS
 10
-0.5928812155
 20
16.914897816
 11
-1.4428812155
 21
16.914897816
  0
LINE
  5
600
100
AcDbEntity
  8
ASSI
100
AcDbLine
 62
7
  6
CONTINUOUS
 10
39.0571187845
 20
16.9711081384
 11
38.9571187845
 21
16.9711081384
  0
LINE
  5
601
100
AcDbEntity
  8
0
100
AcDbLine
 62
7
  6
CONTINUOUS
 10
39.0571187845
 20
16.9711081384
 11
38.9571187845
 21
16.9711081384
  0
LINE
  5
602
100
AcDbEntity
  8
ASSI
100
AcDbLine
 62
7
  6
CONTINUOUS
 10
-32.8428812155
 20
16.9711081384
 11
-32.9428812155
 21
16.9711081384
  0
LINE
  5
603
100
AcDbEntity
  8
0
100
AcDbLine
 62
7
  6
CONTINUOUS
 10
-32.8428812155
 20
16.9711081384
 11
-32.9428812155
 21
16.9711081384
  0
LINE
  5
604
100
AcDbEntity
  8
ASSI
100
AcDbLine
 62
7
  6
CONTINUOUS
 10
6.2931547326
 20
17.9158466319
 11
6.2071187845
 21
17.9158466319
  0
LINE
  5
605
100
AcDbEntity
  8
DRAFT
100
AcDbLine
 62
7
  6
CONTINUOUS
 10
6.2931547326
 20
17.9158466319
 11
6.2071187845
 21
17.9158466319
  0
LINE
  5
606
100
AcDbEntity
  8
ASSI
100
AcDbLine
 62
7
  6
CONTINUOUS
 10
-0.0928812155
 20
17.9158466319
 11
-0.1789171636
 21
17.9158466319
  0
LINE
  5
607
100
AcDbEntity
  8
DRAFT
100
AcDbLine
 62
7
  6
CONTINUOUS
 10
-0.0928812155
 20
17.9158466319
 11
-0.1789171636
 21
17.9158466319
  0
LINE
  5
608
100
AcDbEntity
  8
DRAFT
100
AcDbLine
 62
7
  6
CONTINUOUS
 10
-32.8428812155
 20
19.664897816
 11
-31.4312823583
 21
19.664897816
  0
LINE
  5
609
100
AcDbEntity
  8
DRAFT
100
AcDbLine
 62
7
  6
CONTINUOUS
 10
37.5455199273
 20
19.664897816
 11
38.9571187845
 21
19.664897816
  0
LWPOLYLINE
  5
60A
100
AcDbEntity
  8
0
100
AcDbPolyline
 62
7
  6
CONTINUOUS
 90
10
 70
0
 10
20.7652000018
 20
8.5606722315
 10
20.7297774941
 20
8.5749071971
 10
20.6929150211
 20
8.5885346497
 10
20.6546125829
 20
8.6015545893
 10
20.6148046456
 20
8.6138586574
 10
20.5735567431
 20
8.6255552125
 10
20.5310654763
 20
8.6369693304
 10
20.4873963789
 20
8.6482093698
 10
20.4424839172
 20
8.659166972
 10
20.3963280913
 20
8.6698421371
  0
LWPOLYLINE
  5
60B
100
AcDbEntity
  8
0
100
AcDbPolyline
 62
7
  6
CONTINUOUS
 90
39
 70
0
 10
20.6399046154
 20
8.3645855463
 10
20.6655806069
 20
8.3538590874
 10
20.6894004473
 20
8.3422445865
 10
20.7113641365
 20
8.3297420435
 10
20.7314775829
 20
8.316497129
 10
20.7497348783
 20
8.3023641723
 10
20.7661182975
 20
8.2869061626
 10
20.7806422847
 20
8.27006541
 10
20.7932923959
 20
8.2518996044
 10
20.8040075734
 20
8.2321448032
 10
20.8129138246
 20
8.2104981804
 10
20.8198851422
 20
8.1872625621
 10
20.8244824475
 20
8.1630824848
 10
20.8266075577
 20
8.1377508033
 10
20.8263586555
 20
8.1114746628
 10
20.8235912101
 20
8.0855200353
 10
20.8181945524
 20
8.0600117113
 10
20.8102793514
 20
8.0348249004
 10
20.8000330832
 20
8.0108512033
 10
20.7875398696
 20
7.9883538051
 10
20.7727155887
 20
7.9670695207
 10
20.755495351
 20
7.9471003954
 10
20.7358593177
 20
7.9284411971
 10
20.7138273275
 20
7.911097158
 10
20.689394008
 20
7.8951860196
 10
20.6623975126
 20
7.8805868173
 10
20.6329996879
 20
7.8674205157
 10
20.6016807006
 20
7.8561677505
 10
20.5685699191
 20
7.8469372007
 10
20.5335379751
 20
7.8396201872
 10
20.4966769308
 20
7.8343713097
 10
20.4576578027
 20
7.8310564614
 10
20.4168095743
 20
7.829809749
 10
20.3752112585
 20
7.8311880913
 10
20.332291703
 20
7.8354168006
 10
20.2886220601
 20
7.8422705647
 10
20.2469947996
 20
7.8516303657
 10
20.2081013342
 20
7.863712036
 10
20.1712502511
 20
7.8782997431
  0
LWPOLYLINE
  5
60C
100
AcDbEntity
  8
0
100
AcDbPolyline
 62
7
  6
CONTINUOUS
 90
10
 70
0
 10
20.020683504
 20
8.5553507189
 10
20.0513768759
 20
8.5410871928
 10
20.083454537
 20
8.5274899177
 10
20.1169164872
 20
8.5145588936
 10
20.1518320107
 20
8.5023906501
 10
20.1881318233
 20
8.4908886576
 10
20.2256080728
 20
8.479763327
 10
20.264191475
 20
8.4689181285
 10
20.3039513141
 20
8.4584495919
 10
20.34488759
 20
8.4483577171
  0
LWPOLYLINE
  5
60D
100
AcDbEntity
  8
0
100
AcDbPolyline
 62
7
  6
CONTINUOUS
 90
14
 70
0
 10
20.1712502511
 20
7.8782997431
 10
20.1371597821
 20
7.8946269717
 10
20.1060709671
 20
7.9124953924
 10
20.0777427663
 20
7.9321033345
 10
20.0521702919
 20
7.9532792705
 10
20.0295350541
 20
7.9757323607
 10
20.0096555427
 20
7.9997534447
 10
19.9919823392
 20
8.026043514
 10
19.976409582
 20
8.0548479889
 10
19.9630431327
 20
8.085921449
 10
19.9516511576
 20
8.119228624
 10
19.9421563788
 20
8.1547577571
 10
19.9346360741
 20
8.1925206052
 10
19.9290902435
 20
8.2325171681
  0
LWPOLYLINE
  5
60E
100
AcDbEntity
  8
0
100
AcDbPolyline
 62
7
  6
CONTINUOUS
 90
10
 70
0
 10
17.2407999218
 20
8.3515238091
 10
17.2290350033
 20
8.3622441986
 10
17.2165849332
 20
8.372698602
 10
17.2034497115
 20
8.3828870194
 10
17.1895900185
 20
8.392791214
 10
17.175045174
 20
8.4024294226
 10
17.1599331368
 20
8.411856355
 10
17.1442932266
 20
8.4210902479
 10
17.1280861238
 20
8.4301128646
 10
17.1113118284
 20
8.4389242052
  0
LINE
  5
60F
100
AcDbEntity
  8
0
100
AcDbLine
 62
7
  6
CONTINUOUS
 10
28.0145787845
 20
-0.528694184
 11
27.8635267845
 21
-0.377642184
  0
LWPOLYLINE
  5
610
100
AcDbEntity
  8
0
100
AcDbPolyline
 62
7
  6
CONTINUOUS
 90
5
 70
0
 10
17.4503999439
 20
8.0840395219
 10
17.4003219523
 20
8.1588507021
 10
17.3482889471
 20
8.2279448313
 10
17.2951149369
 20
8.2921692003
 10
17.2407999218
 20
8.3515238091
  0
LINE
  5
611
100
AcDbEntity
  8
0
100
AcDbLine
 62
7
  6
CONTINUOUS
 10
17.2000602997
 20
8.0512398655
 11
17.4438205418
 21
7.664897816
  0
LINE
  5
612
100
AcDbEntity
  8
0
100
AcDbLine
 62
7
  6
CONTINUOUS
 10
17.7105371104
 20
7.664897816
 11
17.5495749379
 21
7.9223497535
  0
LINE
  5
613
100
AcDbEntity
  8
0
100
AcDbLine
 62
7
  6
CONTINUOUS
 10
17.5495749379
 20
7.9223497535
 11
17.4503999439
 21
8.0840395219
  0
LINE
  5
614
100
AcDbEntity
  8
0
100
AcDbLine
 62
7
  6
CONTINUOUS
 10
16.032028691
 20
7.664897816
 11
15.3499179207
 21
9.3677558723
  0
LINE
  5
615
100
AcDbEntity
  8
0
100
AcDbLine
 62
7
  6
CONTINUOUS
 10
15.4560054093
 20
8.5604073484
 11
15.5321367365
 21
8.3666817422
  0
LINE
  5
616
100
AcDbEntity
  8
0
100
AcDbLine
 62
7
  6
CONTINUOUS
 10
15.6006702665
 20
8.1809154088
 11
15.7906291493
 21
7.664897816
  0
LINE
  5
617
100
AcDbEntity
  8
0
100
AcDbLine
 62
7
  6
CONTINUOUS
 10
12.8699695741
 20
9.1097470759
 11
13.3609926558
 21
7.664897816
  0
LINE
  5
618
100
AcDbEntity
  8
0
100
AcDbLine
 62
7
  6
CONTINUOUS
 10
13.4110388407
 20
8.1080254648
 11
12.9889762151
 21
9.3677558723
  0
LINE
  5
619
100
AcDbEntity
  8
0
100
AcDbLine
 62
7
  6
CONTINUOUS
 10
13.4385762302
 20
8.023899338
 11
13.4110388407
 21
8.1080254648
  0
LINE
  5
61A
100
AcDbEntity
  8
0
100
AcDbLine
 62
7
  6
CONTINUOUS
 10
13.4563944457
 20
7.9683484112
 11
13.4385762302
 21
8.023899338
  0
LINE
  5
61B
100
AcDbEntity
  8
0
100
AcDbLine
 62
7
  6
CONTINUOUS
 10
13.4737102364
 20
7.9132312924
 11
13.4563944457
 21
7.9683484112
  0
LWPOLYLINE
  5
61C
100
AcDbEntity
  8
0
100
AcDbPolyline
 62
7
  6
CONTINUOUS
 90
6
 70
0
 10
15.2281700519
 20
9.1923098907
 10
15.2544980066
 20
9.106582814
 10
15.28302961
 20
9.0193331036
 10
15.3137648619
 20
8.9305607597
 10
15.34715992
 20
8.8402387321
 10
15.4560054093
 20
8.5604073484
  0
LWPOLYLINE
  5
61D
100
AcDbEntity
  8
0
100
AcDbPolyline
 62
7
  6
CONTINUOUS
 90
41
 70
0
 10
21.0127271884
 20
8.8930196869
 10
21.0085306465
 20
8.9402159003
 10
21.0009350258
 20
8.9855490021
 10
20.9899403263
 20
9.0290189922
 10
20.975343712
 20
9.0709064657
 10
20.957348019
 20
9.1109308275
 10
20.9365617543
 20
9.1482502926
 10
20.9132617885
 20
9.1824755023
 10
20.8871712512
 20
9.2139958153
 10
20.8580680381
 20
9.2431375226
 10
20.8260045838
 20
9.269997469
 10
20.7909284539
 20
9.2944788095
 10
20.7524602401
 20
9.3166173007
 10
20.7103860565
 20
9.3365863836
 10
20.664919789
 20
9.3542126171
 10
20.6163236883
 20
9.3690114337
 10
20.5640805839
 20
9.3809609449
 10
20.5087076462
 20
9.3900830393
 10
20.4520186373
 20
9.3959588148
 10
20.3933305089
 20
9.3984243934
 10
20.3333263093
 20
9.3976436532
 10
20.2758689454
 20
9.3936893269
 10
20.2220904377
 20
9.3863923574
 10
20.1708587658
 20
9.3759218018
 10
20.1226407743
 20
9.3628575639
 10
20.0775092912
 20
9.3472666989
 10
20.0353914887
 20
9.3290821516
 10
19.9965357282
 20
9.3086826606
 10
19.961123912
 20
9.2862094518
 10
19.9289741379
 20
9.2615212993
 10
19.8997890609
 20
9.234573264
 10
19.8734642148
 20
9.2052568361
 10
19.8501040659
 20
9.1736805255
 10
19.8297246681
 20
9.1401249227
 10
19.8121662529
 20
9.1041866413
 10
19.7975885887
 20
9.0662690678
 10
19.7864870349
 20
9.0278629528
 10
19.779048067
 20
8.988986795
 10
19.7750852094
 20
8.9496220958
 10
19.7745343944
 20
8.9112041091
 10
19.7774893033
 20
8.8740388942
  0
LINE
  5
61E
100
AcDbEntity
  8
0
100
AcDbLine
 62
7
  6
CONTINUOUS
 10
20.6772247845
 20
-1.786050184
 11
20.7748387845
 21
-2.901770184
  0
LINE
  5
61F
100
AcDbEntity
  8
0
100
AcDbLine
 62
7
  6
CONTINUOUS
 10
20.6074709129
 20
-0.9887576511
 11
20.6398467845
 21
-1.358814184
  0
LINE
  5
620
100
AcDbEntity
  8
0
100
AcDbLine
 62
7
  6
CONTINUOUS
 10
20.8038027845
 20
-3.232836184
 11
21.1420587845
 21
-7.099112184
  0
LINE
  5
621
100
AcDbEntity
  8
0
100
AcDbLine
 62
7
  6
CONTINUOUS
 10
21.1663627845
 20
-7.376910184
 11
21.3079847845
 21
-8.995662184
  0
LINE
  5
622
100
AcDbEntity
  8
0
100
AcDbLine
 62
7
  6
CONTINUOUS
 10
21.4058567845
 20
-8.888854184
 11
21.2649527845
 21
-7.278318184
  0
LINE
  5
623
100
AcDbEntity
  8
0
100
AcDbLine
 62
7
  6
CONTINUOUS
 10
21.2406487845
 20
-7.000520184
 11
20.9212987845
 21
-3.350334184
  0
LINE
  5
624
100
AcDbEntity
  8
0
100
AcDbLine
 62
7
  6
CONTINUOUS
 10
20.7470647845
 20
-1.358814184
 11
20.7207367885
 21
-1.0578842292
  0
LINE
  5
625
100
AcDbEntity
  8
0
100
AcDbLine
 62
7
  6
CONTINUOUS
 10
20.8923347845
 20
-3.019268184
 11
20.7844427845
 21
-1.786050184
  0
LWPOLYLINE
  5
626
100
AcDbEntity
  8
0
100
AcDbPolyline
 62
7
  6
CONTINUOUS
 90
22
 70
0
 10
19.7123628546
 20
8.2221968163
 10
19.7159120771
 20
8.1704897834
 10
19.7228561976
 20
8.1209280408
 10
19.733195216
 20
8.0735115886
 10
19.747090967
 20
8.0282136353
 10
19.7643816159
 20
7.9850609723
 10
19.7845816586
 20
7.9441339735
 10
19.8076732866
 20
7.9053145607
 10
19.8336743085
 20
7.8687208121
 10
19.8621526454
 20
7.8347873369
 10
19.8927809851
 20
7.8037362349
 10
19.9258866399
 20
7.7753454062
 10
19.9620194686
 20
7.7493831603
 10
20.0012241395
 20
7.725684265
 10
20.0434559843
 20
7.7044139524
 10
20.0891308562
 20
7.6858362287
 10
20.1385872959
 20
7.6699467069
 10
20.1914867627
 20
7.6567497739
 10
20.2472294884
 20
7.6465225961
 10
20.3056155503
 20
7.6393575623
 10
20.3668448712
 20
7.6351622838
 10
20.4309174509
 20
7.6339367605
  0
LWPOLYLINE
  5
627
100
AcDbEntity
  8
0
100
AcDbPolyline
 62
7
  6
CONTINUOUS
 90
43
 70
0
 10
19.4849970615
 20
8.542565886
 10
19.4799253349
 20
8.6237499306
 10
19.4704684488
 20
8.7007155254
 10
19.4566264031
 20
8.7734626703
 10
19.4380039319
 20
8.8420625361
 10
19.4149963012
 20
8.906443952
 10
19.3887893088
 20
8.9663934055
 10
19.3596974266
 20
9.0216160006
 10
19.3274061827
 20
9.0724066332
 10
19.2921579601
 20
9.1194364789
 10
19.2541339585
 20
9.1627406855
 10
19.2131529781
 20
9.2022841053
 10
19.1689138024
 20
9.23863247
 10
19.1209798274
 20
9.2722512851
 10
19.0697876571
 20
9.3026750451
 10
19.0163458863
 20
9.3290729654
 10
18.9611700219
 20
9.3512772832
 10
18.903744557
 20
9.3694557613
 10
18.8435315658
 20
9.3832809033
 10
18.7793033558
 20
9.3927337989
 10
18.7122876193
 20
9.3978333584
 10
18.6456295077
 20
9.3983088167
 10
18.5793428146
 20
9.3938714118
 10
18.5134137463
 20
9.3848099056
 10
18.4509460733
 20
9.3717198191
 10
18.3933385622
 20
9.3547690852
 10
18.3391924463
 20
9.3337897711
 10
18.287415196
 20
9.3088735991
 10
18.2375659435
 20
9.2799747064
 10
18.1900855565
 20
9.247138956
 10
18.1452041081
 20
9.2105956585
 10
18.1026836758
 20
9.1701961548
 10
18.062762182
 20
9.126089104
 10
18.0263834676
 20
9.0789497947
 10
17.9938687952
 20
9.0293270143
 10
17.9648969022
 20
8.9766719753
 10
17.9394478409
 20
8.9200136039
 10
17.917354709
 20
8.8590452972
 10
17.8987844087
 20
8.7940736582
 10
17.8842176991
 20
8.725047422
 10
17.8738148329
 20
8.6519495004
 10
17.8674155574
 20
8.5747969816
 10
17.8650198724
 20
8.4935898657
  0
LINE
  5
628
100
AcDbEntity
  8
0
100
AcDbLine
 62
7
  6
CONTINUOUS
 10
19.7994427845
 20
-1.358814184
 11
19.7994427845
 21
-1.786050184
  0
LINE
  5
629
100
AcDbEntity
  8
0
100
AcDbLine
 62
7
  6
CONTINUOUS
 10
20.9209367845
 20
-0.450936184
 11
20.9209367845
 21
-0.869078184
  0
LINE
  5
62A
100
AcDbEntity
  8
0
100
AcDbLine
 62
7
  6
CONTINUOUS
 10
20.9209367845
 20
-0.982298184
 11
20.9209367845
 21
-1.358814184
  0
LINE
  5
62B
100
AcDbEntity
  8
0
100
AcDbLine
 62
7
  6
CONTINUOUS
 10
21.0277467845
 20
-1.252004184
 11
21.0277467845
 21
-0.9455596435
  0
LINE
  5
62C
100
AcDbEntity
  8
0
100
AcDbLine
 62
7
  6
CONTINUOUS
 10
21.0277467845
 20
-0.833118056
 11
21.0277467845
 21
-0.557746184
  0
LINE
  5
62D
100
AcDbEntity
  8
0
100
AcDbLine
 62
7
  6
CONTINUOUS
 10
21.2397749292
 20
9.3677558723
 11
21.2397749292
 21
9.171669187
  0
LINE
  5
62E
100
AcDbEntity
  8
0
100
AcDbLine
 62
7
  6
CONTINUOUS
 10
21.3079847845
 20
-8.995662184
 11
21.3079847845
 21
-9.850136184
  0
LINE
  5
62F
100
AcDbEntity
  8
0
100
AcDbLine
 62
7
  6
CONTINUOUS
 10
21.3481727845
 20
-0.557746184
 11
21.3481727845
 21
-0.739270184
  0
LINE
  5
630
100
AcDbEntity
  8
0
100
AcDbLine
 62
7
  6
CONTINUOUS
 10
21.3481727845
 20
-0.849726184
 11
21.3481727845
 21
-1.252004184
  0
LINE
  5
631
100
AcDbEntity
  8
0
100
AcDbLine
 62
7
  6
CONTINUOUS
 10
21.4549827845
 20
-1.358814184
 11
21.4549827845
 21
-0.8224313547
  0
LINE
  5
632
100
AcDbEntity
  8
0
100
AcDbLine
 62
7
  6
CONTINUOUS
 10
21.4549827845
 20
-0.7125304939
 11
21.4549827845
 21
-0.450936184
  0
LINE
  5
633
100
AcDbEntity
  8
0
100
AcDbLine
 62
7
  6
CONTINUOUS
 10
21.4681987845
 20
-9.689922184
 11
21.4681987845
 21
-9.049068184
  0
LINE
  5
634
100
AcDbEntity
  8
0
100
AcDbLine
 62
7
  6
CONTINUOUS
 10
21.7886247845
 20
-9.049068184
 11
21.7886247845
 21
-9.689922184
  0
LINE
  5
635
100
AcDbEntity
  8
0
100
AcDbLine
 62
7
  6
CONTINUOUS
 10
21.7970739294
 20
9.171669187
 11
21.7970739294
 21
7.664897816
  0
LINE
  5
636
100
AcDbEntity
  8
0
100
AcDbLine
 62
7
  6
CONTINUOUS
 10
21.9488387845
 20
-9.850136184
 11
21.9488387845
 21
-8.995662184
  0
LINE
  5
637
100
AcDbEntity
  8
0
100
AcDbLine
 62
7
  6
CONTINUOUS
 10
22.0241216703
 20
7.664897816
 11
22.0241216703
 21
9.171669187
  0
LINE
  5
638
100
AcDbEntity
  8
0
100
AcDbLine
 62
7
  6
CONTINUOUS
 10
22.3628587845
 20
-3.388186184
 11
22.3628587845
 21
-3.922232184
  0
LINE
  5
639
100
AcDbEntity
  8
0
100
AcDbLine
 62
7
  6
CONTINUOUS
 10
22.4696687845
 20
-3.815422184
 11
22.4696687845
 21
-3.494994184
  0
LINE
  5
63A
100
AcDbEntity
  8
0
100
AcDbLine
 62
7
  6
CONTINUOUS
 10
22.5764787845
 20
-0.667730184
 11
22.5764787845
 21
-0.931576184
  0
LINE
  5
63B
100
AcDbEntity
  8
0
100
AcDbLine
 62
7
  6
CONTINUOUS
 10
22.5764787845
 20
-0.290722184
 11
22.5764787845
 21
-0.560862184
  0
LINE
  5
63C
100
AcDbEntity
  8
0
100
AcDbLine
 62
7
  6
CONTINUOUS
 10
22.5814206705
 20
9.171669187
 11
22.5814206705
 21
9.3677558723
  0
LINE
  5
63D
100
AcDbEntity
  8
0
100
AcDbLine
 62
7
  6
CONTINUOUS
 10
22.6832867845
 20
-0.5583184689
 11
22.6832867845
 21
-0.397532184
  0
LINE
  5
63E
100
AcDbEntity
  8
0
100
AcDbLine
 62
7
  6
CONTINUOUS
 10
22.6832867845
 20
-0.824768184
 11
22.6832867845
 21
-0.6651390953
  0
LINE
  5
63F
100
AcDbEntity
  8
0
100
AcDbLine
 62
7
  6
CONTINUOUS
 10
22.8394294669
 20
9.3677558723
 11
22.8394294669
 21
7.664897816
  0
LINE
  5
640
100
AcDbEntity
  8
0
100
AcDbLine
 62
7
  6
CONTINUOUS
 10
23.0664772077
 20
7.664897816
 11
23.0664772077
 21
9.3677558723
  0
LINE
  5
641
100
AcDbEntity
  8
0
100
AcDbLine
 62
7
  6
CONTINUOUS
 10
23.9115907845
 20
-0.397532184
 11
23.9115907845
 21
-0.676558184
  0
LINE
  5
642
100
AcDbEntity
  8
0
100
AcDbLine
 62
7
  6
CONTINUOUS
 10
23.9115907845
 20
-0.785726184
 11
23.9115907845
 21
-0.824768184
  0
LINE
  5
643
100
AcDbEntity
  8
0
100
AcDbLine
 62
7
  6
CONTINUOUS
 10
24.0184007845
 20
-0.931576184
 11
24.0184007845
 21
-0.8096363321
  0
LINE
  5
644
100
AcDbEntity
  8
0
100
AcDbLine
 62
7
  6
CONTINUOUS
 10
24.0184007845
 20
-0.6999908126
 11
24.0184007845
 21
-0.290722184
  0
LINE
  5
645
100
AcDbEntity
  8
0
100
AcDbLine
 62
7
  6
CONTINUOUS
 10
24.1252087845
 20
-3.494994184
 11
24.1252087845
 21
-3.815422184
  0
LINE
  5
646
100
AcDbEntity
  8
0
100
AcDbLine
 62
7
  6
CONTINUOUS
 10
24.2320187845
 20
-3.922232184
 11
24.2320187845
 21
-3.388186184
  0
LWPOLYLINE
  5
647
100
AcDbEntity
  8
0
100
AcDbPolyline
 62
7
  6
CONTINUOUS
 90
42
 70
0
 10
24.6764520972
 20
8.2625108334
 10
24.6622659897
 20
8.2089643252
 10
24.6455534836
 20
8.1590482276
 10
24.6263145788
 20
8.1127625406
 10
24.6043179479
 20
8.0700367545
 10
24.5797949184
 20
8.030941379
 10
24.5534394727
 20
7.995687943
 10
24.5255645697
 20
7.9645851171
 10
24.4958572505
 20
7.9373242308
 10
24.4640726206
 20
7.9131908008
 10
24.4302801323
 20
7.8919756184
 10
24.3944103333
 20
7.8738878924
 10
24.3560099722
 20
7.8588407662
 10
24.3146433465
 20
7.8465739793
 10
24.2707461585
 20
7.8373477922
 10
24.2251722646
 20
7.831856129
 10
24.1773013366
 20
7.8302920825
 10
24.1277537027
 20
7.83246256
 10
24.0792442027
 20
7.8384822065
 10
24.0320902195
 20
7.848666901
 10
23.9859743704
 20
7.8627007647
 10
23.9426593471
 20
7.8797508064
 10
23.9026968542
 20
7.8996619857
 10
23.8655351873
 20
7.922589343
 10
23.831281925
 20
7.9481650087
 10
23.800083129
 20
7.9761307768
 10
23.7717927377
 20
8.0067448533
 10
23.7460801452
 20
8.0404139865
 10
23.722911046
 20
8.077279363
 10
23.7023197456
 20
8.1171997963
 10
23.6840785553
 20
8.1601584751
 10
23.6680745045
 20
8.2062524624
 10
23.6544205638
 20
8.2553846953
 10
23.6432279558
 20
8.3072471738
 10
23.6343896693
 20
8.3621914045
 10
23.6280127155
 20
8.4198658808
 10
23.6245293512
 20
8.4789080829
 10
23.6240523564
 20
8.5401251054
 10
23.6264689511
 20
8.6027098536
 10
23.6318730519
 20
8.6628785234
 10
23.6404437439
 20
8.7196291024
 10
23.6520019422
 20
8.7739636031
  0
LWPOLYLINE
  5
648
100
AcDbEntity
  8
0
100
AcDbPolyline
 62
7
  6
CONTINUOUS
 90
17
 70
0
 10
23.6520019422
 20
8.7739636031
 10
23.666104308
 20
8.8251042582
 10
23.6826518398
 20
8.8728912443
 10
23.7017435392
 20
8.9174843849
 10
23.7232330723
 20
8.9585853837
 10
23.7470527407
 20
8.9959562755
 10
23.7732702428
 20
9.0298350256
 10
23.8019423407
 20
9.0606372328
 10
23.8328789689
 20
9.0884077434
 10
23.8662701928
 20
9.1131017111
 10
23.902742971
 20
9.1350001965
 10
23.9426145605
 20
9.1544049555
 10
23.9855677043
 20
9.1710142321
 10
24.0312775897
 20
9.1842038199
 10
24.0796359459
 20
9.1937656497
 10
24.1307510437
 20
9.1999077906
 10
24.1846228832
 20
9.2026302426
  0
LINE
  5
649
100
AcDbEntity
  8
0
100
AcDbLine
 62
7
  6
CONTINUOUS
 10
25.2337510974
 20
7.664897816
 11
25.4132285279
 21
8.1809154088
  0
LWPOLYLINE
  5
64A
100
AcDbEntity
  8
0
100
AcDbPolyline
 62
7
  6
CONTINUOUS
 90
9
 70
0
 10
28.1174215541
 20
8.1024728222
 10
28.1059501402
 20
8.0712299272
 10
28.0948406616
 20
8.0401001874
 10
28.0840952568
 20
8.0090789214
 10
28.0737117874
 20
7.9781708107
 10
28.0636838389
 20
7.9473898991
 10
28.0540092733
 20
7.9167408682
 10
28.0446902287
 20
7.8862190365
 10
28.035726705
 20
7.8558244041
  0
LINE
  5
64B
100
AcDbEntity
  8
0
100
AcDbLine
 62
7
  6
CONTINUOUS
 10
25.4778920244
 20
8.3666817422
 11
25.6618845202
 21
8.8638324689
  0
LINE
  5
64C
100
AcDbEntity
  8
0
100
AcDbLine
 62
7
  6
CONTINUOUS
 10
25.6414050745
 20
9.3677558723
 11
24.9941255508
 21
7.664897816
  0
LINE
  5
64D
100
AcDbEntity
  8
0
100
AcDbLine
 62
7
  6
CONTINUOUS
 10
28.5981858025
 20
9.3677558723
 11
28.1174215541
 21
8.1024728222
  0
LINE
  5
64E
100
AcDbEntity
  8
0
100
AcDbLine
 62
7
  6
CONTINUOUS
 10
28.1618285387
 20
7.664897816
 11
28.8410366657
 21
9.3677558723
  0
LWPOLYLINE
  5
64F
100
AcDbEntity
  8
0
100
AcDbPolyline
 62
7
  6
CONTINUOUS
 90
10
 70
0
 10
25.6618845202
 20
8.8638324689
 10
25.676082273
 20
8.8988731965
 10
25.6896151919
 20
8.9343116987
 10
25.7024832772
 20
8.9701479754
 10
25.7147043428
 20
9.0064268048
 10
25.7262605748
 20
9.0431034088
 10
25.7370985304
 20
9.0800434528
 10
25.7472003955
 20
9.1172021587
 10
25.7565839843
 20
9.1546243047
 10
25.7652492968
 20
9.1923098907
  0
LINE
  5
650
100
AcDbEntity
  8
0
100
AcDbLine
 62
7
  6
CONTINUOUS
 10
22.9060687845
 20
-5.335102184
 11
21.2406487845
 21
-7.000520184
  0
LINE
  5
651
100
AcDbEntity
  8
0
100
AcDbLine
 62
7
  6
CONTINUOUS
 10
21.1420587845
 20
-7.099112184
 11
18.0996587845
 21
-10.141510184
  0
LINE
  5
652
100
AcDbEntity
  8
0
100
AcDbLine
 62
7
  6
CONTINUOUS
 10
25.9210747845
 20
-2.320096184
 11
25.2906847845
 21
-2.950486184
  0
LINE
  5
653
100
AcDbEntity
  8
0
100
AcDbLine
 62
7
  6
CONTINUOUS
 10
24.9262767845
 20
-3.314892184
 11
23.0571187845
 21
-5.184052184
  0
LINE
  5
654
100
AcDbEntity
  8
0
100
AcDbLine
 62
7
  6
CONTINUOUS
 10
27.8635267845
 20
-0.377642184
 11
26.0278847845
 21
-2.213286184
  0
LINE
  5
655
100
AcDbEntity
  8
0
100
AcDbLine
 62
7
  6
CONTINUOUS
 10
25.1731867845
 20
-3.067982184
 11
25.0330867845
 21
-3.208084184
  0
LINE
  5
656
100
AcDbEntity
  8
0
100
AcDbLine
 62
7
  6
CONTINUOUS
 10
18.2507107845
 20
-10.292562184
 11
21.1663627845
 21
-7.376910184
  0
LINE
  5
657
100
AcDbEntity
  8
0
100
AcDbLine
 62
7
  6
CONTINUOUS
 10
21.2649527845
 20
-7.278318184
 11
23.0571187845
 21
-5.486152184
  0
LINE
  5
658
100
AcDbEntity
  8
0
100
AcDbLine
 62
7
  6
CONTINUOUS
 10
23.2081687845
 20
-5.335102184
 11
25.1442227845
 21
-3.399048184
  0
LINE
  5
659
100
AcDbEntity
  8
0
100
AcDbLine
 62
7
  6
CONTINUOUS
 10
25.2618947845
 20
-3.281376184
 11
26.1011767845
 21
-2.442094184
  0
LINE
  5
65A
100
AcDbEntity
  8
0
100
AcDbLine
 62
7
  6
CONTINUOUS
 10
26.2079867845
 20
-2.335286184
 11
28.0145787845
 21
-0.528694184
  0
LINE
  5
65B
100
AcDbEntity
  8
ASSI
100
AcDbLine
 62
7
  6
CONTINUOUS
 10
37.6559716469
 20
28.2070061608
 11
37.602300628
 21
28.1976149494
  0
LINE
  5
65C
100
AcDbEntity
  8
DRAFT
100
AcDbLine
 62
7
  6
CONTINUOUS
 10
37.6559716469
 20
28.2070061608
 11
37.602300628
 21
28.1976149494
  0
LINE
  5
65D
100
AcDbEntity
  8
ASSI
100
AcDbLine
 62
7
  6
CONTINUOUS
 10
-31.4912492674
 20
19.764897816
 11
-32.8428812155
 21
19.764897816
  0
LINE
  5
65E
100
AcDbEntity
  8
RACCORDO
100
AcDbLine
 62
7
  6
CONTINUOUS
 10
-31.4912492674
 20
19.764897816
 11
-32.8428812155
 21
19.764897816
  0
LINE
  5
65F
100
AcDbEntity
  8
ASSI
100
AcDbLine
 62
7
  6
CONTINUOUS
 10
37.6054868364
 20
19.764897816
 11
38.9571187845
 21
19.764897816
  0
LINE
  5
660
100
AcDbEntity
  8
RACCORDO
100
AcDbLine
 62
7
  6
CONTINUOUS
 10
37.6054868364
 20
19.764897816
 11
38.9571187845
 21
19.764897816
  0
LINE
  5
661
100
AcDbEntity
  8
ASSI
100
AcDbLine
 62
250
  6
CONTINUOUS
 10
38.8558794079
 20
20.764897816
 11
37.6892711481
 21
20.764897816
  0
LINE
  5
662
100
AcDbEntity
  8
RACCORDO
100
AcDbLine
 62
250
  6
CONTINUOUS
 10
38.8558794079
 20
20.764897816
 11
37.6892711481
 21
20.764897816
  0
LINE
  5
663
100
AcDbEntity
  8
ASSI
100
AcDbLine
 62
250
  6
CONTINUOUS
 10
-31.575033579
 20
20.764897816
 11
-32.7416418389
 21
20.764897816
  0
LINE
  5
664
100
AcDbEntity
  8
RACCORDO
100
AcDbLine
 62
250
  6
CONTINUOUS
 10
-31.575033579
 20
20.764897816
 11
-32.7416418389
 21
20.764897816
  0
LINE
  5
665
100
AcDbEntity
  8
ASSI
100
AcDbLine
 62
7
  6
CONTINUOUS
 10
6.2931547326
 20
22.914897816
 11
6.2071187845
 21
22.914897816
  0
LINE
  5
666
100
AcDbEntity
  8
0
100
AcDbLine
 62
7
  6
CONTINUOUS
 10
6.2931547326
 20
22.914897816
 11
6.2071187845
 21
22.914897816
  0
LINE
  5
667
100
AcDbEntity
  8
ASSI
100
AcDbLine
 62
7
  6
CONTINUOUS
 10
-0.0928812155
 20
22.914897816
 11
-0.1789171636
 21
22.914897816
  0
LINE
  5
668
100
AcDbEntity
  8
0
100
AcDbLine
 62
7
  6
CONTINUOUS
 10
-0.0928812155
 20
22.914897816
 11
-0.1789171636
 21
22.914897816
  0
LINE
  5
669
100
AcDbEntity
  8
ASSI
100
AcDbLine
 62
7
  6
CONTINUOUS
 10
-31.5625633419
 20
22.964897816
 11
-31.975033579
 21
22.964897816
  0
LINE
  5
66A
100
AcDbEntity
  8
0
100
AcDbLine
 62
7
  6
CONTINUOUS
 10
-31.5625633419
 20
22.964897816
 11
-31.975033579
 21
22.964897816
  0
LINE
  5
66B
100
AcDbEntity
  8
ASSI
100
AcDbLine
 62
7
  6
CONTINUOUS
 10
37.6768009109
 20
22.964897816
 11
38.0892711481
 21
22.964897816
  0
LINE
  5
66C
100
AcDbEntity
  8
0
100
AcDbLine
 62
7
  6
CONTINUOUS
 10
37.6768009109
 20
22.964897816
 11
38.0892711481
 21
22.964897816
  0
LINE
  5
66D
100
AcDbEntity
  8
ASSI
100
AcDbLine
 62
7
  6
CONTINUOUS
 10
38.9449002391
 20
23.014897816
 11
38.8872985248
 21
23.014897816
  0
LINE
  5
66E
100
AcDbEntity
  8
DRAFT
100
AcDbLine
 62
7
  6
CONTINUOUS
 10
38.9449002391
 20
23.014897816
 11
38.8872985248
 21
23.014897816
  0
LINE
  5
66F
100
AcDbEntity
  8
ASSI
100
AcDbLine
 62
7
  6
CONTINUOUS
 10
-32.7730609558
 20
23.014897816
 11
-32.83066267
 21
23.014897816
  0
LINE
  5
670
100
AcDbEntity
  8
DRAFT
100
AcDbLine
 62
7
  6
CONTINUOUS
 10
-32.7730609558
 20
23.014897816
 11
-32.83066267
 21
23.014897816
  0
LINE
  5
671
100
AcDbEntity
  8
DRAFT
100
AcDbLine
 62
7
  6
CONTINUOUS
 10
-31.5417340779
 20
23.364897816
 11
-31.3544800727
 21
23.364897816
  0
LINE
  5
672
100
AcDbEntity
  8
DRAFT
100
AcDbLine
 62
7
  6
CONTINUOUS
 10
37.4687176417
 20
23.364897816
 11
37.6559716469
 21
23.364897816
  0
LINE
  5
673
100
AcDbEntity
  8
ASSI
100
AcDbLine
 62
7
  6
CONTINUOUS
 10
-31.5417340779
 20
28.2070061608
 11
-31.488063059
 21
28.1976149494
  0
LINE
  5
674
100
AcDbEntity
  8
DRAFT
100
AcDbLine
 62
7
  6
CONTINUOUS
 10
-31.5417340779
 20
28.2070061608
 11
-31.488063059
 21
28.1976149494
  0
LWPOLYLINE
  5
675
100
AcDbEntity
  8
0
100
AcDbPolyline
 62
7
  6
CONTINUOUS
 90
28
 70
0
 10
20.065834945
 20
8.7923962957
 10
20.0511810414
 20
8.8073549366
 10
20.0383846936
 20
8.8233715728
 10
20.0274459014
 20
8.8404462045
 10
20.018309656
 20
8.8586007827
 10
20.0110309663
 20
8.8778133562
 10
20.0057748594
 20
8.8980180715
 10
20.0025596751
 20
8.9195597367
 10
20.0013670736
 20
8.9420935437
 10
20.0023070626
 20
8.9645192141
 10
20.0054307035
 20
8.9867128856
 10
20.0106869348
 20
9.0087984206
 10
20.0180325798
 20
9.0300471282
 10
20.0273899005
 20
9.0502278465
 10
20.0388366349
 20
9.0695717375
 10
20.0525628192
 20
9.0880435956
 10
20.0686278915
 20
9.1058195684
 10
20.0869724137
 20
9.1227235084
 10
20.1076081082
 20
9.1381917678
 10
20.1306662936
 20
9.1521502041
 10
20.1560156513
 20
9.1646729597
 10
20.1832739481
 20
9.1754188143
 10
20.2124592787
 20
9.1842468548
 10
20.2435535485
 20
9.1912979943
 10
20.2761202407
 20
9.196653751
 10
20.3100138497
 20
9.2003412976
 10
20.3453798811
 20
9.2023334615
 10
20.3822183349
 20
9.2026302426
  0
LWPOLYLINE
  5
676
100
AcDbEntity
  8
0
100
AcDbPolyline
 62
7
  6
CONTINUOUS
 90
12
 70
0
 10
19.7774893033
 20
8.8740388942
 10
19.7838562548
 20
8.8378203919
 10
19.793290137
 20
8.8030656785
 10
19.8056340114
 20
8.7699700094
 10
19.8210448164
 20
8.7383381292
 10
19.8396482559
 20
8.7081013482
 10
19.8614077913
 20
8.6792549048
 10
19.8863599612
 20
8.6518035606
 10
19.9147400855
 20
8.6256929104
 10
19.946626604
 20
8.6009048192
 10
19.9819410769
 20
8.577457422
 10
20.020683504
 20
8.5553507189
  0
LINE
  5
677
100
AcDbEntity
  8
0
100
AcDbLine
 62
7
  6
CONTINUOUS
 10
24.9262767845
 20
-2.213286184
 11
24.9262767845
 21
-3.314892184
  0
LINE
  5
678
100
AcDbEntity
  8
0
100
AcDbLine
 62
7
  6
CONTINUOUS
 10
25.0330867845
 20
-3.208084184
 11
25.0330867845
 21
-2.320096184
  0
LINE
  5
679
100
AcDbEntity
  8
DRAFT
100
AcDbLine
 62
7
  6
CONTINUOUS
 10
25.5571187845
 20
-20.285102184
 11
25.5571187845
 21
-22.3527419108
  0
LINE
  5
67A
100
AcDbEntity
  8
0
100
AcDbLine
 62
7
  6
CONTINUOUS
 10
25.7273447845
 20
-1.786050184
 11
25.7273447845
 21
-1.651648184
  0
LINE
  5
67B
100
AcDbEntity
  8
0
100
AcDbLine
 62
7
  6
CONTINUOUS
 10
26.1011767845
 20
-2.442094184
 11
26.1011767845
 21
-3.281376184
  0
LINE
  5
67C
100
AcDbEntity
  8
0
100
AcDbLine
 62
7
  6
CONTINUOUS
 10
26.2079867845
 20
-3.388186184
 11
26.2079867845
 21
-2.335286184
  0
LINE
  5
67D
100
AcDbEntity
  8
ASSI
100
AcDbLine
 62
7
  6
CONTINUOUS
 10
26.5571187845
 20
42.264897816
 11
26.5571187845
 21
49.164897816
  0
LINE
  5
67E
100
AcDbEntity
  8
DRAFT
100
AcDbLine
 62
7
  6
CONTINUOUS
 10
27.3071187845
 20
-22.3527419108
 11
27.3071187845
 21
-20.285102184
  0
LINE
  5
67F
100
AcDbEntity
  8
DRAFT
100
AcDbLine
 62
7
  6
CONTINUOUS
 10
28.8071187845
 20
-20.285102184
 11
28.8071187845
 21
-22.3527419108
  0
LINE
  5
680
100
AcDbEntity
  8
0
100
AcDbLine
 62
7
  6
CONTINUOUS
 10
29.0316405804
 20
9.3677558723
 11
29.0316405804
 21
7.664897816
  0
LINE
  5
681
100
AcDbEntity
  8
0
100
AcDbLine
 62
7
  6
CONTINUOUS
 10
29.2586883212
 20
7.664897816
 11
29.2586883212
 21
9.3677558723
  0
LINE
  5
682
100
AcDbEntity
  8
0
100
AcDbLine
 62
7
  6
CONTINUOUS
 10
25.2853427845
 20
-1.786050184
 11
25.2479627845
 21
-2.213286184
  0
LINE
  5
683
100
AcDbEntity
  8
0
100
AcDbLine
 62
7
  6
CONTINUOUS
 10
25.2386187845
 20
-2.320096184
 11
25.1731867845
 21
-3.067982184
  0
LINE
  5
684
100
AcDbEntity
  8
0
100
AcDbLine
 62
7
  6
CONTINUOUS
 10
25.1442227845
 20
-3.399048184
 11
24.8327107845
 21
-6.959644184
  0
LINE
  5
685
100
AcDbEntity
  8
0
100
AcDbLine
 62
7
  6
CONTINUOUS
 10
24.8084067845
 20
-7.237442184
 11
24.7407087845
 21
-8.011234184
  0
LINE
  5
686
100
AcDbEntity
  8
0
100
AcDbLine
 62
7
  6
CONTINUOUS
 10
24.8465787247
 20
-8.0266448671
 11
24.9069987845
 21
-7.336032184
  0
LINE
  5
687
100
AcDbEntity
  8
0
100
AcDbLine
 62
7
  6
CONTINUOUS
 10
24.9313027845
 20
-7.058236184
 11
25.2523907845
 21
-3.388186184
  0
LINE
  5
688
100
AcDbEntity
  8
0
100
AcDbLine
 62
7
  6
CONTINUOUS
 10
25.2906847845
 20
-2.950486184
 11
25.3458367845
 21
-2.320096184
  0
LINE
  5
689
100
AcDbEntity
  8
0
100
AcDbLine
 62
7
  6
CONTINUOUS
 10
25.3551807845
 20
-2.213286184
 11
25.3925587845
 21
-1.786050184
  0
LINE
  5
68A
100
AcDbEntity
  8
0
100
AcDbLine
 62
7
  6
CONTINUOUS
 10
32.4786381003
 20
7.664897816
 11
32.6581155308
 21
8.1809154088
  0
LINE
  5
68B
100
AcDbEntity
  8
0
100
AcDbLine
 62
7
  6
CONTINUOUS
 10
32.7227790272
 20
8.3666817422
 11
32.9067715231
 21
8.8638324689
  0
LINE
  5
68C
100
AcDbEntity
  8
0
100
AcDbLine
 62
7
  6
CONTINUOUS
 10
32.8862920773
 20
9.3677558723
 11
32.2390125536
 21
7.664897816
  0
LWPOLYLINE
  5
68D
100
AcDbEntity
  8
0
100
AcDbPolyline
 62
7
  6
CONTINUOUS
 90
10
 70
0
 10
32.9067715231
 20
8.8638324689
 10
32.9209692758
 20
8.8988731965
 10
32.9345021947
 20
8.9343116987
 10
32.94737028
 20
8.9701479754
 10
32.9595913457
 20
9.0064268048
 10
32.9711475776
 20
9.0431034088
 10
32.9819855332
 20
9.0800434528
 10
32.9920873983
 20
9.1172021587
 10
33.0014709871
 20
9.1546243047
 10
33.0101362996
 20
9.1923098907
  0
LINE
  5
68E
100
AcDbEntity
  8
0
100
AcDbLine
 62
7
  6
CONTINUOUS
 10
36.4372994055
 20
9.3677558723
 11
35.9243457139
 21
8.5742175851
  0
LINE
  5
68F
100
AcDbEntity
  8
0
100
AcDbLine
 62
7
  6
CONTINUOUS
 10
36.0301292023
 20
8.3861937977
 11
36.7112724248
 21
9.3677558723
  0
LINE
  5
690
100
AcDbEntity
  8
0
100
AcDbLine
 62
7
  6
CONTINUOUS
 10
27.8635267845
 20
-10.292562184
 11
28.0145787845
 21
-10.141510184
  0
LINE
  5
691
100
AcDbEntity
  8
ASSI
100
AcDbLine
 62
7
  6
CONTINUOUS
 10
-31.488063059
 20
23.1321806827
 11
-31.5417340779
 21
23.1227894713
  0
LINE
  5
692
100
AcDbEntity
  8
DRAFT
100
AcDbLine
 62
7
  6
CONTINUOUS
 10
-31.488063059
 20
23.1321806827
 11
-31.5417340779
 21
23.1227894713
  0
LINE
  5
693
100
AcDbEntity
  8
ASSI
100
AcDbLine
 62
7
  6
CONTINUOUS
 10
-31.5421417781
 20
23.1274566331
 11
-31.488063059
 21
23.1321806827
  0
LINE
  5
694
100
AcDbEntity
  8
DRAFT
100
AcDbLine
 62
7
  6
CONTINUOUS
 10
-31.5421417781
 20
23.1274566331
 11
-31.488063059
 21
23.1321806827
  0
LINE
  5
695
100
AcDbEntity
  8
ASSI
100
AcDbLine
 62
7
  6
CONTINUOUS
 10
-0.1789171636
 20
24.9412431638
 11
-0.0928812155
 21
24.9412431638
  0
LINE
  5
696
100
AcDbEntity
  8
0
100
AcDbLine
 62
7
  6
CONTINUOUS
 10
-0.1789171636
 20
24.9412431638
 11
-0.0928812155
 21
24.9412431638
  0
LINE
  5
697
100
AcDbEntity
  8
ASSI
100
AcDbLine
 62
7
  6
CONTINUOUS
 10
6.2071187845
 20
24.9412431638
 11
6.2931547326
 21
24.9412431638
  0
LINE
  5
698
100
AcDbEntity
  8
0
100
AcDbLine
 62
7
  6
CONTINUOUS
 10
6.2071187845
 20
24.9412431638
 11
6.2931547326
 21
24.9412431638
  0
LINE
  5
699
100
AcDbEntity
  8
ASSI
100
AcDbLine
 62
7
  6
CONTINUOUS
 10
-0.1789171636
 20
25.2048159733
 11
-0.0928812155
 21
25.2048159733
  0
LINE
  5
69A
100
AcDbEntity
  8
DRAFT
100
AcDbLine
 62
7
  6
CONTINUOUS
 10
-0.1789171636
 20
25.2048159733
 11
-0.0928812155
 21
25.2048159733
  0
LINE
  5
69B
100
AcDbEntity
  8
ASSI
100
AcDbLine
 62
7
  6
CONTINUOUS
 10
6.2071187845
 20
25.2048159733
 11
6.2931547326
 21
25.2048159733
  0
LINE
  5
69C
100
AcDbEntity
  8
DRAFT
100
AcDbLine
 62
7
  6
CONTINUOUS
 10
6.2071187845
 20
25.2048159733
 11
6.2931547326
 21
25.2048159733
  0
LINE
  5
69D
100
AcDbEntity
  8
ASSI
100
AcDbLine
 62
7
  6
CONTINUOUS
 10
-0.1789171636
 20
27.664897816
 11
-0.0928812155
 21
27.664897816
  0
LINE
  5
69E
100
AcDbEntity
  8
DRAFT
100
AcDbLine
 62
7
  6
CONTINUOUS
 10
-0.1789171636
 20
27.664897816
 11
-0.0928812155
 21
27.664897816
  0
LINE
  5
69F
100
AcDbEntity
  8
ASSI
100
AcDbLine
 62
7
  6
CONTINUOUS
 10
6.2071187845
 20
27.664897816
 11
6.2931547326
 21
27.664897816
  0
LINE
  5
6A0
100
AcDbEntity
  8
DRAFT
100
AcDbLine
 62
7
  6
CONTINUOUS
 10
6.2071187845
 20
27.664897816
 11
6.2931547326
 21
27.664897816
  0
LINE
  5
6A1
100
AcDbEntity
  8
DRAFT
100
AcDbLine
 62
7
  6
CONTINUOUS
 10
-31.5417340779
 20
27.964897816
 11
-31.3544800727
 21
27.964897816
  0
LINE
  5
6A2
100
AcDbEntity
  8
DRAFT
100
AcDbLine
 62
7
  6
CONTINUOUS
 10
37.4687176417
 20
27.964897816
 11
37.6559716469
 21
27.964897816
  0
LINE
  5
6A3
100
AcDbEntity
  8
ASSI
100
AcDbLine
 62
7
  6
CONTINUOUS
 10
-32.83066267
 20
28.314897816
 11
-32.7730609558
 21
28.314897816
  0
LINE
  5
6A4
100
AcDbEntity
  8
DRAFT
100
AcDbLine
 62
7
  6
CONTINUOUS
 10
-32.83066267
 20
28.314897816
 11
-32.7730609558
 21
28.314897816
  0
LINE
  5
6A5
100
AcDbEntity
  8
ASSI
100
AcDbLine
 62
7
  6
CONTINUOUS
 10
38.8872985248
 20
28.314897816
 11
38.9449002391
 21
28.314897816
  0
LINE
  5
6A6
100
AcDbEntity
  8
DRAFT
100
AcDbLine
 62
7
  6
CONTINUOUS
 10
38.8872985248
 20
28.314897816
 11
38.9449002391
 21
28.314897816
  0
LINE
  5
6A7
100
AcDbEntity
  8
ASSI
100
AcDbLine
 62
7
  6
CONTINUOUS
 10
-31.5625633419
 20
28.364897816
 11
-31.975033579
 21
28.364897816
  0
LINE
  5
6A8
100
AcDbEntity
  8
0
100
AcDbLine
 62
7
  6
CONTINUOUS
 10
-31.5625633419
 20
28.364897816
 11
-31.975033579
 21
28.364897816
  0
LINE
  5
6A9
100
AcDbEntity
  8
ASSI
100
AcDbLine
 62
7
  6
CONTINUOUS
 10
37.6768009109
 20
28.364897816
 11
38.0892711481
 21
28.364897816
  0
LINE
  5
6AA
100
AcDbEntity
  8
0
100
AcDbLine
 62
7
  6
CONTINUOUS
 10
37.6768009109
 20
28.364897816
 11
38.0892711481
 21
28.364897816
  0
LINE
  5
6AB
100
AcDbEntity
  8
ASSI
100
AcDbLine
 62
7
  6
CONTINUOUS
 10
-31.5421417781
 20
28.202338999
 11
-31.488063059
 21
28.1976149494
  0
LINE
  5
6AC
100
AcDbEntity
  8
DRAFT
100
AcDbLine
 62
7
  6
CONTINUOUS
 10
-31.5421417781
 20
28.202338999
 11
-31.488063059
 21
28.1976149494
  0
LINE
  5
6AD
100
AcDbEntity
  8
ASSI
100
AcDbLine
 62
7
  6
CONTINUOUS
 10
37.6563793471
 20
23.1274566331
 11
37.602300628
 21
23.1321806827
  0
LINE
  5
6AE
100
AcDbEntity
  8
DRAFT
100
AcDbLine
 62
7
  6
CONTINUOUS
 10
37.6563793471
 20
23.1274566331
 11
37.602300628
 21
23.1321806827
  0
LINE
  5
6AF
100
AcDbEntity
  8
ASSI
100
AcDbLine
 62
7
  6
CONTINUOUS
 10
37.602300628
 20
23.1321806827
 11
37.6559716469
 21
23.1227894713
  0
LINE
  5
6B0
100
AcDbEntity
  8
DRAFT
100
AcDbLine
 62
7
  6
CONTINUOUS
 10
37.602300628
 20
23.1321806827
 11
37.6559716469
 21
23.1227894713
  0
LINE
  5
6B1
100
AcDbEntity
  8
0
100
AcDbLine
 62
7
  6
CONTINUOUS
 10
26.5691079358
 20
7.664897816
 11
25.8869971656
 21
9.3677558723
  0
LINE
  5
6B2
100
AcDbEntity
  8
0
100
AcDbLine
 62
7
  6
CONTINUOUS
 10
25.9930846542
 20
8.5604073484
 11
26.0692159814
 21
8.3666817422
  0
LINE
  5
6B3
100
AcDbEntity
  8
0
100
AcDbLine
 62
7
  6
CONTINUOUS
 10
27.2628291216
 20
9.3677558723
 11
27.9175263538
 21
7.664897816
  0
LWPOLYLINE
  5
6B4
100
AcDbEntity
  8
0
100
AcDbPolyline
 62
7
  6
CONTINUOUS
 90
18
 70
0
 10
23.4567561753
 20
8.1500208071
 10
23.4797992576
 20
8.0883459182
 10
23.5054584142
 20
8.030909085
 10
23.5336323752
 20
7.9777597481
 10
23.5644224105
 20
7.9288484669
 10
23.5972934615
 20
7.8841645863
 10
23.631934655
 20
7.8439276996
 10
23.6686568641
 20
7.8079182135
 10
23.7078576502
 20
7.7754666936
 10
23.749349162
 20
7.7464739095
 10
23.7933192507
 20
7.7210390915
 10
23.840729031
 20
7.6987904955
 10
23.8919543406
 20
7.6795127007
 10
23.9466193417
 20
7.6634211279
 10
24.0045576359
 20
7.6507902957
 10
24.065713757
 20
7.6417117101
 10
24.1301431711
 20
7.636093865
 10
24.1978458783
 20
7.6339367605
  0
LINE
  5
6B5
100
AcDbEntity
  8
0
100
AcDbLine
 62
7
  6
CONTINUOUS
 10
26.1377495113
 20
8.1809154088
 11
26.3277083942
 21
7.664897816
  0
LWPOLYLINE
  5
6B6
100
AcDbEntity
  8
0
100
AcDbPolyline
 62
7
  6
CONTINUOUS
 90
44
 70
0
 10
24.8622184306
 20
8.9001150371
 10
24.8430004523
 20
8.9571238405
 10
24.8207479428
 20
9.0109138615
 10
24.7954609024
 20
9.0614851
 10
24.7668430551
 20
9.109053759
 10
24.7351906768
 20
9.1534036355
 10
24.7013925946
 20
9.1938861214
 10
24.6658401444
 20
9.2301496018
 10
24.6281419903
 20
9.2625456915
 10
24.588012952
 20
9.2914806266
 10
24.5456011715
 20
9.3170646588
 10
24.5007585068
 20
9.3391875366
 10
24.4527553517
 20
9.3579247405
 10
24.4010948839
 20
9.3734898886
 10
24.3462739257
 20
9.3856693629
 10
24.2890533368
 20
9.3938977903
 10
24.2287853578
 20
9.3981163251
 10
24.1661177481
 20
9.3983838129
 10
24.1037546455
 20
9.3943114178
 10
24.0418813385
 20
9.3856329572
 10
23.9803125387
 20
9.3726146138
 10
23.9211965183
 20
9.3556660997
 10
23.8649732421
 20
9.3346752284
 10
23.8112027454
 20
9.3097541863
 10
23.7607134067
 20
9.2816492454
 10
23.7138321303
 20
9.2506319734
 10
23.670232012
 20
9.2164308025
 10
23.6297607169
 20
9.1789773014
 10
23.5924756692
 20
9.1385116119
 10
23.5583194448
 20
9.0947935921
 10
23.5269674369
 20
9.047034386
 10
23.4980361857
 20
8.995042567
 10
23.471909151
 20
8.9390095616
 10
23.4494121055
 20
8.8787207936
 10
23.4305365665
 20
8.8137196053
 10
23.4152910167
 20
8.7444626543
 10
23.4045266772
 20
8.6721053373
 10
23.3984747132
 20
8.5955279146
 10
23.3969039596
 20
8.5158501258
 10
23.3999721424
 20
8.4375865869
 10
23.4081265016
 20
8.36134679
 10
23.4209197973
 20
8.286521243
 10
23.4371680358
 20
8.2157960851
 10
23.4567561753
 20
8.1500208071
  0
LWPOLYLINE
  5
6B7
100
AcDbEntity
  8
0
100
AcDbPolyline
 62
7
  6
CONTINUOUS
 90
6
 70
0
 10
25.7652492968
 20
9.1923098907
 10
25.7915772515
 20
9.106582814
 10
25.8201088548
 20
9.0193331036
 10
25.8508441067
 20
8.9305607597
 10
25.8842391649
 20
8.8402387321
 10
25.9930846542
 20
8.5604073484
  0
LWPOLYLINE
  5
6B8
100
AcDbEntity
  8
0
100
AcDbPolyline
 62
7
  6
CONTINUOUS
 90
10
 70
0
 10
28.035726705
 20
7.8558244041
 10
28.0271888614
 20
7.8860250653
 10
28.0182973854
 20
7.9163999763
 10
28.0090522769
 20
7.946949137
 10
27.9994448002
 20
7.9776753057
 10
27.9894836911
 20
8.0085757242
 10
27.9791951571
 20
8.0396421176
 10
27.9685879341
 20
8.0708717277
 10
27.9576532862
 20
8.1022673126
 10
27.5042285057
 20
9.3677558723
  0
LINE
  5
6B9
100
AcDbEntity
  8
0
100
AcDbLine
 62
7
  6
CONTINUOUS
 10
29.9455019867
 20
-12.995662184
 11
29.9455019867
 21
-10.995662184
  0
LINE
  5
6BA
100
AcDbEntity
  8
0
100
AcDbLine
 62
7
  6
CONTINUOUS
 10
30.3526456179
 20
9.3677558723
 11
30.3526456179
 21
7.664897816
  0
LINE
  5
6BB
100
AcDbEntity
  8
DRAFT
100
AcDbLine
 62
7
  6
CONTINUOUS
 10
30.5571187845
 20
-22.3527419108
 11
30.5571187845
 21
-20.285102184
  0
LINE
  5
6BC
100
AcDbEntity
  8
0
100
AcDbLine
 62
7
  6
CONTINUOUS
 10
30.5796933588
 20
7.664897816
 11
30.5796933588
 21
9.3677558723
  0
LINE
  5
6BD
100
AcDbEntity
  8
0
100
AcDbLine
 62
7
  6
CONTINUOUS
 10
30.8583428589
 20
9.3677558723
 11
30.8583428589
 21
9.171669187
  0
LINE
  5
6BE
100
AcDbEntity
  8
0
100
AcDbLine
 62
7
  6
CONTINUOUS
 10
31.4156418591
 20
9.171669187
 11
31.4156418591
 21
7.664897816
  0
LINE
  5
6BF
100
AcDbEntity
  8
0
100
AcDbLine
 62
7
  6
CONTINUOUS
 10
31.6426895999
 20
7.664897816
 11
31.6426895999
 21
9.171669187
  0
LINE
  5
6C0
100
AcDbEntity
  8
0
100
AcDbLine
 62
7
  6
CONTINUOUS
 10
32.1999886001
 20
9.171669187
 11
32.1999886001
 21
9.3677558723
  0
LINE
  5
6C1
100
AcDbEntity
  8
0
100
AcDbLine
 62
7
  6
CONTINUOUS
 10
33.0571187845
 20
-57.835102184
 11
33.0571187845
 21
-51.535102184
  0
LINE
  5
6C2
100
AcDbEntity
  8
DRAFT
100
AcDbLine
 62
7
  6
CONTINUOUS
 10
33.7722086546
 20
-49.085102184
 11
33.7722086546
 21
-50.935102184
  0
LINE
  5
6C3
100
AcDbEntity
  8
DRAFT
100
AcDbLine
 62
7
  6
CONTINUOUS
 10
33.8071187845
 20
-49.085102184
 11
33.8071187845
 21
-50.935102184
  0
LINE
  5
6C4
100
AcDbEntity
  8
0
100
AcDbLine
 62
7
  6
CONTINUOUS
 10
33.9957298231
 20
9.3677558723
 11
33.9957298231
 21
7.664897816
  0
LINE
  5
6C5
100
AcDbEntity
  8
SMUSSO
100
AcDbLine
 62
7
  6
CONTINUOUS
 10
34.0112089442
 20
48.5118520635
 11
33.9718804264
 21
44.6093176808
  0
LINE
  5
6C6
100
AcDbEntity
  8
ASSI
100
AcDbLine
 62
250
  6
CONTINUOUS
 10
38.8558794079
 20
30.564897816
 11
37.6892711481
 21
30.564897816
  0
LINE
  5
6C7
100
AcDbEntity
  8
RACCORDO
100
AcDbLine
 62
250
  6
CONTINUOUS
 10
38.8558794079
 20
30.564897816
 11
37.6892711481
 21
30.564897816
  0
LINE
  5
6C8
100
AcDbEntity
  8
ASSI
100
AcDbLine
 62
250
  6
CONTINUOUS
 10
-31.575033579
 20
30.564897816
 11
-32.7416418389
 21
30.564897816
  0
LINE
  5
6C9
100
AcDbEntity
  8
RACCORDO
100
AcDbLine
 62
250
  6
CONTINUOUS
 10
-31.575033579
 20
30.564897816
 11
-32.7416418389
 21
30.564897816
  0
LINE
  5
6CA
100
AcDbEntity
  8
ASSI
100
AcDbLine
 62
7
  6
CONTINUOUS
 10
-31.4912492674
 20
31.564897816
 11
-32.8428812155
 21
31.564897816
  0
LINE
  5
6CB
100
AcDbEntity
  8
RACCORDO
100
AcDbLine
 62
7
  6
CONTINUOUS
 10
-31.4912492674
 20
31.564897816
 11
-32.8428812155
 21
31.564897816
  0
LINE
  5
6CC
100
AcDbEntity
  8
ASSI
100
AcDbLine
 62
7
  6
CONTINUOUS
 10
37.6054868364
 20
31.564897816
 11
38.9571187845
 21
31.564897816
  0
LINE
  5
6CD
100
AcDbEntity
  8
RACCORDO
100
AcDbLine
 62
7
  6
CONTINUOUS
 10
37.6054868364
 20
31.564897816
 11
38.9571187845
 21
31.564897816
  0
LINE
  5
6CE
100
AcDbEntity
  8
DRAFT
100
AcDbLine
 62
7
  6
CONTINUOUS
 10
-32.8428812155
 20
31.664897816
 11
-31.4312823583
 21
31.664897816
  0
LINE
  5
6CF
100
AcDbEntity
  8
DRAFT
100
AcDbLine
 62
7
  6
CONTINUOUS
 10
37.5455199273
 20
31.664897816
 11
38.9571187845
 21
31.664897816
  0
LINE
  5
6D0
100
AcDbEntity
  8
ASSI
100
AcDbLine
 62
7
  6
CONTINUOUS
 10
38.9960260573
 20
-24.335102184
 11
39.0571187845
 21
-27.835102184
  0
LINE
  5
6D1
100
AcDbEntity
  8
0
100
AcDbLine
 62
7
  6
CONTINUOUS
 10
38.9960260573
 20
-24.335102184
 11
39.0571187845
 21
-27.835102184
  0
LINE
  5
6D2
100
AcDbEntity
  8
RACCORDO
100
AcDbLine
 62
250
  6
CONTINUOUS
 10
35.3904268186
 20
45.766920732
 11
35.3739827992
 21
47.3986463697
  0
LINE
  5
6D3
100
AcDbEntity
  8
0
100
AcDbLine
 62
7
  6
CONTINUOUS
 10
34.2227775639
 20
7.8609845013
 11
34.2227775639
 21
9.3677558723
  0
LINE
  5
6D4
100
AcDbEntity
  8
RACCORDO
100
AcDbLine
 62
7
  6
CONTINUOUS
 10
34.3571187845
 20
48.3970038737
 11
34.3571187845
 21
44.7327917584
  0
LINE
  5
6D5
100
AcDbEntity
  8
RACCORDO
100
AcDbLine
 62
7
  6
CONTINUOUS
 10
35.03493333
 20
45.218762564
 11
35.03493333
 21
47.9110330681
  0
LINE
  5
6D6
100
AcDbEntity
  8
0
100
AcDbLine
 62
7
  6
CONTINUOUS
 10
35.0690464161
 20
7.664897816
 11
35.0690464161
 21
7.8609845013
  0
LINE
  5
6D7
100
AcDbEntity
  8
0
100
AcDbLine
 62
7
  6
CONTINUOUS
 10
35.2571187845
 20
-57.835102184
 11
35.2571187845
 21
-51.535102184
  0
LINE
  5
6D8
100
AcDbEntity
  8
0
100
AcDbLine
 62
7
  6
CONTINUOUS
 10
35.8030814615
 20
8.3861937977
 11
35.8030814615
 21
7.664897816
  0
LINE
  5
6D9
100
AcDbEntity
  8
0
100
AcDbLine
 62
7
  6
CONTINUOUS
 10
36.0301292023
 20
7.664897816
 11
36.0301292023
 21
8.3861937977
  0
LINE
  5
6DA
100
AcDbEntity
  8
DRAFT
100
AcDbLine
 62
7
  6
CONTINUOUS
 10
37.4687176417
 20
27.964897816
 11
37.4687176417
 21
23.364897816
  0
LINE
  5
6DB
100
AcDbEntity
  8
DRAFT
100
AcDbLine
 62
7
  6
CONTINUOUS
 10
37.4687176417
 20
-36.635102184
 11
37.4687176417
 21
-32.035102184
  0
LINE
  5
6DC
100
AcDbEntity
  8
DRAFT
100
AcDbLine
 62
7
  6
CONTINUOUS
 10
37.5071187845
 20
27.964897816
 11
37.5071187845
 21
23.364897816
  0
LINE
  5
6DD
100
AcDbEntity
  8
DRAFT
100
AcDbLine
 62
7
  6
CONTINUOUS
 10
37.5071187845
 20
-32.035102184
 11
37.5071187845
 21
-36.635102184
  0
LINE
  5
6DE
100
AcDbEntity
  8
DRAFT
100
AcDbLine
 62
7
  6
CONTINUOUS
 10
37.5071187845
 20
-50.8055672374
 11
37.5071187845
 21
-57.835102184
  0
LINE
  5
6DF
100
AcDbEntity
  8
DRAFT
100
AcDbLine
 62
7
  6
CONTINUOUS
 10
37.5455199273
 20
31.664897816
 11
37.5455199273
 21
27.964897816
  0
LINE
  5
6E0
100
AcDbEntity
  8
DRAFT
100
AcDbLine
 62
7
  6
CONTINUOUS
 10
37.5455199273
 20
23.364897816
 11
37.5455199273
 21
19.664897816
  0
LINE
  5
6E1
100
AcDbEntity
  8
DRAFT
100
AcDbLine
 62
7
  6
CONTINUOUS
 10
37.5455199273
 20
-40.335102184
 11
37.5455199273
 21
-36.635102184
  0
LINE
  5
6E2
100
AcDbEntity
  8
DRAFT
100
AcDbLine
 62
7
  6
CONTINUOUS
 10
37.5455199273
 20
-28.335102184
 11
37.5455199273
 21
-32.035102184
  0
LINE
  5
6E3
100
AcDbEntity
  8
ASSI
100
AcDbLine
 62
7
  6
CONTINUOUS
 10
37.602300628
 20
28.1976149494
 11
37.602300628
 21
27.964897816
  0
LINE
  5
6E4
100
AcDbEntity
  8
DRAFT
100
AcDbLine
 62
7
  6
CONTINUOUS
 10
37.602300628
 20
28.1976149494
 11
37.602300628
 21
27.964897816
  0
LINE
  5
6E5
100
AcDbEntity
  8
ASSI
100
AcDbLine
 62
7
  6
CONTINUOUS
 10
37.602300628
 20
23.364897816
 11
37.602300628
 21
23.1321806827
  0
LINE
  5
6E6
100
AcDbEntity
  8
DRAFT
100
AcDbLine
 62
7
  6
CONTINUOUS
 10
37.602300628
 20
23.364897816
 11
37.602300628
 21
23.1321806827
  0
LINE
  5
6E7
100
AcDbEntity
  8
ASSI
100
AcDbLine
 62
7
  6
CONTINUOUS
 10
37.602300628
 20
-31.8023850506
 11
37.602300628
 21
-32.035102184
  0
LINE
  5
6E8
100
AcDbEntity
  8
DRAFT
100
AcDbLine
 62
7
  6
CONTINUOUS
 10
37.602300628
 20
-31.8023850506
 11
37.602300628
 21
-32.035102184
  0
LINE
  5
6E9
100
AcDbEntity
  8
ASSI
100
AcDbLine
 62
7
  6
CONTINUOUS
 10
37.602300628
 20
-36.635102184
 11
37.602300628
 21
-36.8678193173
  0
LINE
  5
6EA
100
AcDbEntity
  8
DRAFT
100
AcDbLine
 62
7
  6
CONTINUOUS
 10
37.602300628
 20
-36.635102184
 11
37.602300628
 21
-36.8678193173
  0
LINE
  5
6EB
100
AcDbEntity
  8
ASSI
100
AcDbLine
 62
7
  6
CONTINUOUS
 10
37.6054868364
 20
-40.335102184
 11
37.6054868364
 21
-40.235102184
  0
LINE
  5
6EC
100
AcDbEntity
  8
DRAFT
100
AcDbLine
 62
7
  6
CONTINUOUS
 10
37.6054868364
 20
-40.335102184
 11
37.6054868364
 21
-40.235102184
  0
LINE
  5
6ED
100
AcDbEntity
  8
ASSI
100
AcDbLine
 62
7
  6
CONTINUOUS
 10
37.6054868364
 20
-28.435102184
 11
37.6054868364
 21
-28.335102184
  0
LINE
  5
6EE
100
AcDbEntity
  8
DRAFT
100
AcDbLine
 62
7
  6
CONTINUOUS
 10
37.6054868364
 20
-28.435102184
 11
37.6054868364
 21
-28.335102184
  0
LINE
  5
6EF
100
AcDbEntity
  8
ASSI
100
AcDbLine
 62
7
  6
CONTINUOUS
 10
37.6054868364
 20
19.664897816
 11
37.6054868364
 21
19.764897816
  0
LINE
  5
6F0
100
AcDbEntity
  8
DRAFT
100
AcDbLine
 62
7
  6
CONTINUOUS
 10
37.6054868364
 20
19.664897816
 11
37.6054868364
 21
19.764897816
  0
LINE
  5
6F1
100
AcDbEntity
  8
ASSI
100
AcDbLine
 62
7
  6
CONTINUOUS
 10
37.6054868364
 20
31.564897816
 11
37.6054868364
 21
31.664897816
  0
LINE
  5
6F2
100
AcDbEntity
  8
DRAFT
100
AcDbLine
 62
7
  6
CONTINUOUS
 10
37.6054868364
 20
31.564897816
 11
37.6054868364
 21
31.664897816
  0
LINE
  5
6F3
100
AcDbEntity
  8
ASSI
100
AcDbLine
 62
7
  6
CONTINUOUS
 10
37.6559716469
 20
-36.8772105287
 11
37.6559716469
 21
-31.7929938392
  0
LINE
  5
6F4
100
AcDbEntity
  8
DRAFT
100
AcDbLine
 62
7
  6
CONTINUOUS
 10
37.6559716469
 20
-36.8772105287
 11
37.6559716469
 21
-31.7929938392
  0
LINE
  5
6F5
100
AcDbEntity
  8
ASSI
100
AcDbLine
 62
7
  6
CONTINUOUS
 10
37.6559716469
 20
23.1227894713
 11
37.6559716469
 21
28.2070061608
  0
LINE
  5
6F6
100
AcDbEntity
  8
DRAFT
100
AcDbLine
 62
7
  6
CONTINUOUS
 10
37.6559716469
 20
23.1227894713
 11
37.6559716469
 21
28.2070061608
  0
LINE
  5
6F7
100
AcDbEntity
  8
ASSI
100
AcDbLine
 62
7
  6
CONTINUOUS
 10
37.6768009109
 20
28.364897816
 11
37.6768009109
 21
22.964897816
  0
LINE
  5
6F8
100
AcDbEntity
  8
0
100
AcDbLine
 62
7
  6
CONTINUOUS
 10
37.6768009109
 20
28.364897816
 11
37.6768009109
 21
22.964897816
  0
LINE
  5
6F9
100
AcDbEntity
  8
ASSI
100
AcDbLine
 62
7
  6
CONTINUOUS
 10
37.6768009109
 20
-37.035102184
 11
37.6768009109
 21
-31.635102184
  0
LINE
  5
6FA
100
AcDbEntity
  8
0
100
AcDbLine
 62
7
  6
CONTINUOUS
 10
37.6768009109
 20
-37.035102184
 11
37.6768009109
 21
-31.635102184
  0
LINE
  5
6FB
100
AcDbEntity
  8
ASSI
100
AcDbLine
 62
7
  6
CONTINUOUS
 10
37.6892711481
 20
30.564897816
 11
37.6892711481
 21
28.364897816
  0
LINE
  5
6FC
100
AcDbEntity
  8
RACCORDO
100
AcDbLine
 62
7
  6
CONTINUOUS
 10
37.6892711481
 20
30.564897816
 11
37.6892711481
 21
28.364897816
  0
LINE
  5
6FD
100
AcDbEntity
  8
ASSI
100
AcDbLine
 62
7
  6
CONTINUOUS
 10
37.6892711481
 20
22.964897816
 11
37.6892711481
 21
20.764897816
  0
LINE
  5
6FE
100
AcDbEntity
  8
RACCORDO
100
AcDbLine
 62
7
  6
CONTINUOUS
 10
37.6892711481
 20
22.964897816
 11
37.6892711481
 21
20.764897816
  0
LINE
  5
6FF
100
AcDbEntity
  8
ASSI
100
AcDbLine
 62
7
  6
CONTINUOUS
 10
37.6892711481
 20
-29.435102184
 11
37.6892711481
 21
-31.635102184
  0
LINE
  5
700
100
AcDbEntity
  8
RACCORDO
100
AcDbLine
 62
7
  6
CONTINUOUS
 10
37.6892711481
 20
-29.435102184
 11
37.6892711481
 21
-31.635102184
  0
LINE
  5
701
100
AcDbEntity
  8
ASSI
100
AcDbLine
 62
7
  6
CONTINUOUS
 10
37.6892711481
 20
-37.035102184
 11
37.6892711481
 21
-39.235102184
  0
LINE
  5
702
100
AcDbEntity
  8
RACCORDO
100
AcDbLine
 62
7
  6
CONTINUOUS
 10
37.6892711481
 20
-37.035102184
 11
37.6892711481
 21
-39.235102184
  0
LINE
  5
703
100
AcDbEntity
  8
ASSI
100
AcDbLine
 62
7
  6
CONTINUOUS
 10
38.0892711481
 20
28.364897816
 11
38.0892711481
 21
22.964897816
  0
LINE
  5
704
100
AcDbEntity
  8
0
100
AcDbLine
 62
7
  6
CONTINUOUS
 10
38.0892711481
 20
28.364897816
 11
38.0892711481
 21
22.964897816
  0
LINE
  5
705
100
AcDbEntity
  8
ASSI
100
AcDbLine
 62
7
  6
CONTINUOUS
 10
38.0892711481
 20
-37.035102184
 11
38.0892711481
 21
-31.635102184
  0
LINE
  5
706
100
AcDbEntity
  8
0
100
AcDbLine
 62
7
  6
CONTINUOUS
 10
38.0892711481
 20
-37.035102184
 11
38.0892711481
 21
-31.635102184
  0
LINE
  5
707
100
AcDbEntity
  8
ASSI
100
AcDbLine
 62
7
  6
CONTINUOUS
 10
38.1785709923
 20
-40.335102184
 11
38.1785709923
 21
-40.235102184
  0
LINE
  5
708
100
AcDbEntity
  8
DRAFT
100
AcDbLine
 62
7
  6
CONTINUOUS
 10
38.1785709923
 20
-40.335102184
 11
38.1785709923
 21
-40.235102184
  0
LINE
  5
709
100
AcDbEntity
  8
ASSI
100
AcDbLine
 62
7
  6
CONTINUOUS
 10
38.1785709923
 20
-28.435102184
 11
38.1785709923
 21
-28.335102184
  0
LINE
  5
70A
100
AcDbEntity
  8
DRAFT
100
AcDbLine
 62
7
  6
CONTINUOUS
 10
38.1785709923
 20
-28.435102184
 11
38.1785709923
 21
-28.335102184
  0
LINE
  5
70B
100
AcDbEntity
  8
ASSI
100
AcDbLine
 62
7
  6
CONTINUOUS
 10
38.1785709923
 20
19.664897816
 11
38.1785709923
 21
19.764897816
  0
LINE
  5
70C
100
AcDbEntity
  8
DRAFT
100
AcDbLine
 62
7
  6
CONTINUOUS
 10
38.1785709923
 20
19.664897816
 11
38.1785709923
 21
19.764897816
  0
LINE
  5
70D
100
AcDbEntity
  8
ASSI
100
AcDbLine
 62
7
  6
CONTINUOUS
 10
38.1785709923
 20
31.564897816
 11
38.1785709923
 21
31.664897816
  0
LINE
  5
70E
100
AcDbEntity
  8
DRAFT
100
AcDbLine
 62
7
  6
CONTINUOUS
 10
38.1785709923
 20
31.564897816
 11
38.1785709923
 21
31.664897816
  0
LINE
  5
70F
100
AcDbEntity
  8
ASSI
100
AcDbLine
 62
7
  6
CONTINUOUS
 10
38.1960260573
 20
-28.335102184
 11
38.1960260573
 21
-28.435102184
  0
LINE
  5
710
100
AcDbEntity
  8
DRAFT
100
AcDbLine
 62
7
  6
CONTINUOUS
 10
38.1960260573
 20
-28.335102184
 11
38.1960260573
 21
-28.435102184
  0
LINE
  5
711
100
AcDbEntity
  8
ASSI
100
AcDbLine
 62
7
  6
CONTINUOUS
 10
38.1960260573
 20
-40.235102184
 11
38.1960260573
 21
-40.335102184
  0
LINE
  5
712
100
AcDbEntity
  8
DRAFT
100
AcDbLine
 62
7
  6
CONTINUOUS
 10
38.1960260573
 20
-40.235102184
 11
38.1960260573
 21
-40.335102184
  0
LINE
  5
713
100
AcDbEntity
  8
ASSI
100
AcDbLine
 62
7
  6
CONTINUOUS
 10
38.1960260573
 20
19.664897816
 11
38.1960260573
 21
19.764897816
  0
LINE
  5
714
100
AcDbEntity
  8
DRAFT
100
AcDbLine
 62
7
  6
CONTINUOUS
 10
38.1960260573
 20
19.664897816
 11
38.1960260573
 21
19.764897816
  0
LINE
  5
715
100
AcDbEntity
  8
ASSI
100
AcDbLine
 62
7
  6
CONTINUOUS
 10
38.1960260573
 20
31.564897816
 11
38.1960260573
 21
31.664897816
  0
LINE
  5
716
100
AcDbEntity
  8
DRAFT
100
AcDbLine
 62
7
  6
CONTINUOUS
 10
38.1960260573
 20
31.564897816
 11
38.1960260573
 21
31.664897816
  0
LINE
  5
717
100
AcDbEntity
  8
RACCORDO
100
AcDbLine
 62
7
  6
CONTINUOUS
 10
38.8523883949
 20
49.4603197313
 11
38.8523883949
 21
31.664897816
  0
LINE
  5
718
100
AcDbEntity
  8
DRAFT
100
AcDbLine
 62
7
  6
CONTINUOUS
 10
38.8523883949
 20
19.664897816
 11
38.8523883949
 21
16.2293444917
  0
LINE
  5
719
100
AcDbEntity
  8
DRAFT
100
AcDbLine
 62
7
  6
CONTINUOUS
 10
38.8523883949
 20
-22.3995488597
 11
38.8523883949
 21
-28.335102184
  0
LINE
  5
71A
100
AcDbEntity
  8
RACCORDO
100
AcDbLine
 62
7
  6
CONTINUOUS
 10
38.8523883949
 20
-40.335102184
 11
38.8523883949
 21
-58.1305240992
  0
LINE
  5
71B
100
AcDbEntity
  8
ASSI
100
AcDbLine
 62
7
  6
CONTINUOUS
 10
39.0571187845
 20
16.9711081384
 11
38.9960260573
 21
16.664897816
  0
LINE
  5
71C
100
AcDbEntity
  8
0
100
AcDbLine
 62
7
  6
CONTINUOUS
 10
39.0571187845
 20
16.9711081384
 11
38.9960260573
 21
16.664897816
  0
LINE
  5
71D
100
AcDbEntity
  8
DRAFT
100
AcDbLine
 62
7
  6
CONTINUOUS
 10
-0.1789171636
 20
37.064897816
 11
6.2931547326
 21
37.064897816
  0
LINE
  5
71E
100
AcDbEntity
  8
0
100
AcDbLine
 62
7
  6
CONTINUOUS
 10
35.1528992946
 20
9.3677558723
 11
35.8030814615
 21
8.3861937977
  0
LINE
  5
71F
100
AcDbEntity
  8
0
100
AcDbLine
 62
7
  6
CONTINUOUS
 10
35.7511571863
 20
8.8481907619
 11
35.4230022804
 21
9.3677558723
  0
LWPOLYLINE
  5
720
100
AcDbEntity
  8
0
100
AcDbPolyline
 62
7
  6
CONTINUOUS
 90
10
 70
0
 10
35.9243457139
 20
8.5742175851
 10
35.9077920867
 20
8.6042442769
 10
35.8905624993
 20
8.6343802727
 10
35.8726569518
 20
8.6646255726
 10
35.8540706779
 20
8.6949876578
 10
35.8348084439
 20
8.7254590469
 10
35.8148845478
 20
8.7560172963
 10
35.794303756
 20
8.7866549246
 10
35.7730613021
 20
8.8173794131
 10
35.7511571863
 20
8.8481907619
  0
LINE
  5
721
100
AcDbEntity
  8
0
100
AcDbLine
 62
7
  6
CONTINUOUS
 10
33.8139949386
 20
7.664897816
 11
33.1318841684
 21
9.3677558723
  0
LINE
  5
722
100
AcDbEntity
  8
0
100
AcDbLine
 62
7
  6
CONTINUOUS
 10
33.3826365141
 20
8.1809154088
 11
33.572595397
 21
7.664897816
  0
LWPOLYLINE
  5
723
100
AcDbEntity
  8
0
100
AcDbPolyline
 62
7
  6
CONTINUOUS
 90
9
 70
0
 10
33.0101362996
 20
9.1923098907
 10
33.0364642543
 20
9.106582814
 10
33.0649958576
 20
9.0193331036
 10
33.0957311095
 20
8.9305607597
 10
33.1291261677
 20
8.8402387321
 10
33.1647248744
 20
8.7483940709
 10
33.2011587568
 20
8.6551079263
 10
33.237971657
 20
8.5604073484
 10
33.3141029842
 20
8.3666817422
  0
LINE
  5
724
100
AcDbEntity
  8
SMUSSO
100
AcDbLine
 62
7
  6
CONTINUOUS
 10
38.9134811222
 20
14.2459172643
 11
38.9263754297
 21
13.5072028841
  0
LINE
  5
725
100
AcDbEntity
  8
ASSI
100
AcDbLine
 62
7
  6
CONTINUOUS
 10
38.8558794079
 20
30.564897816
 11
38.8558794079
 21
20.764897816
  0
LINE
  5
726
100
AcDbEntity
  8
RACCORDO
100
AcDbLine
 62
7
  6
CONTINUOUS
 10
38.8558794079
 20
30.564897816
 11
38.8558794079
 21
20.764897816
  0
LINE
  5
727
100
AcDbEntity
  8
ASSI
100
AcDbLine
 62
7
  6
CONTINUOUS
 10
38.8558794079
 20
-29.435102184
 11
38.8558794079
 21
-39.235102184
  0
LINE
  5
728
100
AcDbEntity
  8
RACCORDO
100
AcDbLine
 62
7
  6
CONTINUOUS
 10
38.8558794079
 20
-29.435102184
 11
38.8558794079
 21
-39.235102184
  0
LINE
  5
729
100
AcDbEntity
  8
ASSI
100
AcDbLine
 62
7
  6
CONTINUOUS
 10
38.8872985248
 20
-36.985102184
 11
38.8872985248
 21
-31.685102184
  0
LINE
  5
72A
100
AcDbEntity
  8
DRAFT
100
AcDbLine
 62
7
  6
CONTINUOUS
 10
38.8872985248
 20
-36.985102184
 11
38.8872985248
 21
-31.685102184
  0
LINE
  5
72B
100
AcDbEntity
  8
ASSI
100
AcDbLine
 62
7
  6
CONTINUOUS
 10
38.8872985248
 20
23.014897816
 11
38.8872985248
 21
28.314897816
  0
LINE
  5
72C
100
AcDbEntity
  8
DRAFT
100
AcDbLine
 62
7
  6
CONTINUOUS
 10
38.8872985248
 20
23.014897816
 11
38.8872985248
 21
28.314897816
  0
LINE
  5
72D
100
AcDbEntity
  8
SMUSSO
100
AcDbLine
 62
7
  6
CONTINUOUS
 10
38.9134811222
 20
16.0459172643
 11
38.9134811222
 21
14.2459172643
  0
LINE
  5
72E
100
AcDbEntity
  8
ASSI
100
AcDbLine
 62
7
  6
CONTINUOUS
 10
38.9449002391
 20
28.314897816
 11
38.9449002391
 21
23.014897816
  0
LINE
  5
72F
100
AcDbEntity
  8
DRAFT
100
AcDbLine
 62
7
  6
CONTINUOUS
 10
38.9449002391
 20
28.314897816
 11
38.9449002391
 21
23.014897816
  0
LINE
  5
730
100
AcDbEntity
  8
ASSI
100
AcDbLine
 62
7
  6
CONTINUOUS
 10
38.9449002391
 20
-31.685102184
 11
38.9449002391
 21
-36.985102184
  0
LINE
  5
731
100
AcDbEntity
  8
DRAFT
100
AcDbLine
 62
7
  6
CONTINUOUS
 10
38.9449002391
 20
-31.685102184
 11
38.9449002391
 21
-36.985102184
  0
LINE
  5
732
100
AcDbEntity
  8
ASSI
100
AcDbLine
 62
7
  6
CONTINUOUS
 10
38.9571187845
 20
31.564897816
 11
38.9571187845
 21
19.764897816
  0
LINE
  5
733
100
AcDbEntity
  8
DRAFT
100
AcDbLine
 62
7
  6
CONTINUOUS
 10
38.9571187845
 20
31.564897816
 11
38.9571187845
 21
19.764897816
  0
LINE
  5
734
100
AcDbEntity
  8
RACCORDO
100
AcDbLine
 62
7
  6
CONTINUOUS
 10
38.9571187845
 20
-58.2352544888
 11
38.9571187845
 21
-40.335102184
  0
LINE
  5
735
100
AcDbEntity
  8
ASSI
100
AcDbLine
 62
7
  6
CONTINUOUS
 10
38.9571187845
 20
-28.435102184
 11
38.9571187845
 21
-40.235102184
  0
LINE
  5
736
100
AcDbEntity
  8
DRAFT
100
AcDbLine
 62
7
  6
CONTINUOUS
 10
38.9571187845
 20
-28.435102184
 11
38.9571187845
 21
-40.235102184
  0
LINE
  5
737
100
AcDbEntity
  8
DRAFT
100
AcDbLine
 62
7
  6
CONTINUOUS
 10
38.9571187845
 20
-28.335102184
 11
38.9571187845
 21
19.664897816
  0
LINE
  5
738
100
AcDbEntity
  8
RACCORDO
100
AcDbLine
 62
7
  6
CONTINUOUS
 10
38.9571187845
 20
31.664897816
 11
38.9571187845
 21
49.5650501209
  0
LINE
  5
739
100
AcDbEntity
  8
ASSI
100
AcDbLine
 62
7
  6
CONTINUOUS
 10
38.9960260573
 20
16.664897816
 11
38.9960260573
 21
-24.335102184
  0
LINE
  5
73A
100
AcDbEntity
  8
0
100
AcDbLine
 62
7
  6
CONTINUOUS
 10
38.9960260573
 20
16.664897816
 11
38.9960260573
 21
-24.335102184
  0
LINE
  5
73B
100
AcDbEntity
  8
ASSI
100
AcDbLine
 62
7
  6
CONTINUOUS
 10
39.0571187845
 20
41.9149739685
 11
39.0571187845
 21
16.9711081384
  0
LINE
  5
73C
100
AcDbEntity
  8
RACCORDO
100
AcDbLine
 62
7
  6
CONTINUOUS
 10
39.0571187845
 20
41.9149739685
 11
39.0571187845
 21
16.9711081384
  0
LINE
  5
73D
100
AcDbEntity
  8
ASSI
100
AcDbLine
 62
7
  6
CONTINUOUS
 10
39.0571187845
 20
-27.835102184
 11
39.0571187845
 21
-50.5851783364
  0
LINE
  5
73E
100
AcDbEntity
  8
RACCORDO
100
AcDbLine
 62
7
  6
CONTINUOUS
 10
39.0571187845
 20
-27.835102184
 11
39.0571187845
 21
-50.5851783364
  0
LINE
  5
73F
100
AcDbEntity
  8
0
100
AcDbLine
 62
7
  6
CONTINUOUS
 10
7.5571187845
 20
39.364897816
 11
6.7071187845
 21
39.364897816
  0
LINE
  5
740
100
AcDbEntity
  8
0
100
AcDbLine
 62
7
  6
CONTINUOUS
 10
-0.5928812155
 20
39.364897816
 11
-1.4428812155
 21
39.364897816
  0
LINE
  5
741
100
AcDbEntity
  8
DRAFT
100
AcDbLine
 62
7
  6
CONTINUOUS
 10
7.5571187845
 20
40.364897816
 11
7.4571187845
 21
40.364897816
  0
LINE
  5
742
100
AcDbEntity
  8
DRAFT
100
AcDbLine
 62
7
  6
CONTINUOUS
 10
-1.3428812155
 20
40.364897816
 11
-1.4428812155
 21
40.364897816
  0
LINE
  5
743
100
AcDbEntity
  8
DRAFT
100
AcDbLine
 62
250
  6
CONTINUOUS
 10
-27.6579710856
 20
40.414897816
 11
-27.6928812155
 21
40.414897816
  0
LINE
  5
744
100
AcDbEntity
  8
ASSI
100
AcDbLine
 62
7
  6
CONTINUOUS
 10
-1.4428812155
 20
40.8634092961
 11
-1.3428812155
 21
40.8634092961
  0
LINE
  5
745
100
AcDbEntity
  8
DRAFT
100
AcDbLine
 62
7
  6
CONTINUOUS
 10
-1.4428812155
 20
40.8634092961
 11
-1.3428812155
 21
40.8634092961
  0
LINE
  5
746
100
AcDbEntity
  8
ASSI
100
AcDbLine
 62
7
  6
CONTINUOUS
 10
7.4571187845
 20
40.8634092961
 11
7.5571187845
 21
40.8634092961
  0
LINE
  5
747
100
AcDbEntity
  8
DRAFT
100
AcDbLine
 62
7
  6
CONTINUOUS
 10
7.4571187845
 20
40.8634092961
 11
7.5571187845
 21
40.8634092961
  0
LINE
  5
748
100
AcDbEntity
  8
ASSI
100
AcDbLine
 62
7
  6
CONTINUOUS
 10
-1.4428812155
 20
40.914897816
 11
-1.3428812155
 21
40.914897816
  0
LINE
  5
749
100
AcDbEntity
  8
DRAFT
100
AcDbLine
 62
7
  6
CONTINUOUS
 10
-1.4428812155
 20
40.914897816
 11
-1.3428812155
 21
40.914897816
  0
LINE
  5
74A
100
AcDbEntity
  8
ASSI
100
AcDbLine
 62
7
  6
CONTINUOUS
 10
7.4571187845
 20
40.914897816
 11
7.5571187845
 21
40.914897816
  0
LINE
  5
74B
100
AcDbEntity
  8
DRAFT
100
AcDbLine
 62
7
  6
CONTINUOUS
 10
7.4571187845
 20
40.914897816
 11
7.5571187845
 21
40.914897816
  0
LINE
  5
74C
100
AcDbEntity
  8
DRAFT
100
AcDbLine
 62
7
  6
CONTINUOUS
 10
6.2931547326
 20
41.864897816
 11
-0.1789171636
 21
41.864897816
  0
LINE
  5
74D
100
AcDbEntity
  8
ASSI
100
AcDbLine
 62
7
  6
CONTINUOUS
 10
8.5571187845
 20
42.264897816
 11
26.5571187845
 21
42.264897816
  0
LINE
  5
74E
100
AcDbEntity
  8
DRAFT
100
AcDbLine
 62
7
  6
CONTINUOUS
 10
-2.4428812155
 20
42.264897816
 11
-31.3928812155
 21
42.264897816
  0
LINE
  5
74F
100
AcDbEntity
  8
ASSI
100
AcDbLine
 62
7
  6
CONTINUOUS
 10
-1.4428812155
 20
42.414897816
 11
-1.3428812155
 21
42.414897816
  0
LINE
  5
750
100
AcDbEntity
  8
RACCORDO
100
AcDbLine
 62
7
  6
CONTINUOUS
 10
-1.4428812155
 20
42.414897816
 11
-1.3428812155
 21
42.414897816
  0
LINE
  5
751
100
AcDbEntity
  8
ASSI
100
AcDbLine
 62
7
  6
CONTINUOUS
 10
-0.1789171636
 20
42.414897816
 11
6.2931547326
 21
42.414897816
  0
LINE
  5
752
100
AcDbEntity
  8
RACCORDO
100
AcDbLine
 62
7
  6
CONTINUOUS
 10
-0.1789171636
 20
42.414897816
 11
6.2931547326
 21
42.414897816
  0
LINE
  5
753
100
AcDbEntity
  8
ASSI
100
AcDbLine
 62
7
  6
CONTINUOUS
 10
7.4571187845
 20
42.414897816
 11
7.5571187845
 21
42.414897816
  0
LINE
  5
754
100
AcDbEntity
  8
RACCORDO
100
AcDbLine
 62
7
  6
CONTINUOUS
 10
7.4571187845
 20
42.414897816
 11
7.5571187845
 21
42.414897816
  0
LINE
  5
755
100
AcDbEntity
  8
0
100
AcDbLine
 62
7
  6
CONTINUOUS
 10
12.2571187845
 20
42.864897816
 11
10.0571187845
 21
42.864897816
  0
LINE
  5
756
100
AcDbEntity
  8
0
100
AcDbLine
 62
7
  6
CONTINUOUS
 10
-3.9428812155
 20
42.864897816
 11
-6.1428812155
 21
42.864897816
  0
LINE
  5
757
100
AcDbEntity
  8
0
100
AcDbLine
 62
7
  6
CONTINUOUS
 10
-26.9428812155
 20
42.864897816
 11
-29.1428812155
 21
42.864897816
  0
LINE
  5
758
100
AcDbEntity
  8
SMUSSO
100
AcDbLine
 62
7
  6
CONTINUOUS
 10
38.9263754297
 20
13.5072028841
 11
38.9571187845
 21
13.414897816
  0
LINE
  5
759
100
AcDbEntity
  8
DRAFT
100
AcDbLine
 62
7
  6
CONTINUOUS
 10
38.8523883949
 20
16.2293444917
 11
38.9134811222
 21
16.0459172643
  0
LINE
  5
75A
100
AcDbEntity
  8
DRAFT
100
AcDbLine
 62
7
  6
CONTINUOUS
 10
38.8523883949
 20
-22.3995488597
 11
38.9571187845
 21
-22.085102184
  0
LINE
  5
75B
100
AcDbEntity
  8
DRAFT
100
AcDbLine
 62
7
  6
CONTINUOUS
 10
-0.1789171636
 20
44.064897816
 11
6.2931547326
 21
44.064897816
  0
LINE
  5
75C
100
AcDbEntity
  8
0
100
AcDbLine
 62
7
  6
CONTINUOUS
 10
33.5571187845
 20
44.564897816
 11
31.5571187845
 21
44.564897816
  0
LINE
  5
75D
100
AcDbEntity
  8
RACCORDO
100
AcDbLine
 62
7
  6
CONTINUOUS
 10
6.9571949369
 20
45.564897816
 11
-0.8429573679
 21
45.564897816
  0
LINE
  5
75E
100
AcDbEntity
  8
0
100
AcDbLine
 62
7
  6
CONTINUOUS
 10
31.5571187845
 20
48.564897816
 11
33.5571187845
 21
48.564897816
  0
LINE
  5
75F
100
AcDbEntity
  8
0
100
AcDbLine
 62
7
  6
CONTINUOUS
 10
-31.3928812155
 20
49.164897816
 11
-2.4428812155
 21
49.164897816
  0
LINE
  5
760
100
AcDbEntity
  8
ASSI
100
AcDbLine
 62
7
  6
CONTINUOUS
 10
8.5571187845
 20
49.164897816
 11
26.5571187845
 21
49.164897816
  0
LINE
  5
761
100
AcDbEntity
  8
0
100
AcDbLine
 62
7
  6
CONTINUOUS
 10
-1.4428812155
 20
49.664897816
 11
7.5571187845
 21
49.664897816
  0
LINE
  5
762
100
AcDbEntity
  8
RACCORDO
100
AcDbLine
 62
7
  6
CONTINUOUS
 10
-31.7383031308
 20
50.4601674265
 11
37.8525406998
 21
50.4601674265
  0
LINE
  5
763
100
AcDbEntity
  8
DRAFT
100
AcDbLine
 62
7
  6
CONTINUOUS
 10
27.5571187845
 20
50.5125326213
 11
37.5571187845
 21
50.5125326213
  0
LINE
  5
764
100
AcDbEntity
  8
RACCORDO
100
AcDbLine
 62
7
  6
CONTINUOUS
 10
-31.8430335203
 20
50.564897816
 11
27.5047535897
 21
50.564897816
  0
LINE
  5
765
100
AcDbEntity
  8
RACCORDO
100
AcDbLine
 62
7
  6
CONTINUOUS
 10
37.6094839793
 20
50.564897816
 11
37.9572710893
 21
50.564897816
  0
LINE
  5
766
100
AcDbEntity
  8
DRAFT
100
AcDbLine
 62
7
  6
CONTINUOUS
 10
27.5047535897
 20
50.564897816
 11
27.5571187845
 21
50.5125326213
  0
CIRCLE
  5
767
100
AcDbEntity
  8
DRAFT
100
AcDbCircle
 62
7
  6
CONTINUOUS
 10
-29.9428812155
 20
-49.085102184
 40
2.2849101299
  0
CIRCLE
  5
768
100
AcDbEntity
  8
DRAFT
100
AcDbCircle
 62
7
  6
CONTINUOUS
 10
-29.9428812155
 20
-49.085102184
 40
2.25
  0
ARC
  5
769
100
AcDbEntity
  8
0
100
AcDbCircle
 62
7
  6
CONTINUOUS
 10
-27.4428812155
 20
-55.235102184
 40
2.0
100
AcDbArc
 50
90.0
 51
270.0
  0
ARC
  5
76A
100
AcDbEntity
  8
0
100
AcDbCircle
 62
7
  6
CONTINUOUS
 10
-25.4428812155
 20
-55.235102184
 40
2.0
100
AcDbArc
 50
270.0
 51
90.0
  0
CIRCLE
  5
76B
100
AcDbEntity
  8
DRAFT
100
AcDbCircle
 62
7
  6
CONTINUOUS
 10
-29.9428812155
 20
-49.085102184
 40
1.3198202597
  0
CIRCLE
  5
76C
100
AcDbEntity
  8
DRAFT
100
AcDbCircle
 62
7
  6
CONTINUOUS
 10
-29.9428812155
 20
-49.085102184
 40
1.25
  0
CIRCLE
  5
76D
100
AcDbEntity
  8
ASSI
100
AcDbCircle
 62
7
  6
CONTINUOUS
 10
-29.9428812155
 20
-49.085102184
 40
1.0
  0
CIRCLE
  5
76E
100
AcDbEntity
  8
DRAFT
100
AcDbCircle
 62
7
  6
CONTINUOUS
 10
-29.9428812155
 20
-49.085102184
 40
1.0
  0
CIRCLE
  5
76F
100
AcDbEntity
  8
ASSI
100
AcDbCircle
 62
7
  6
CONTINUOUS
 10
-29.9428812155
 20
-49.085102184
 40
0.9520022272
  0
CIRCLE
  5
770
100
AcDbEntity
  8
DRAFT
100
AcDbCircle
 62
7
  6
CONTINUOUS
 10
-29.9428812155
 20
-49.085102184
 40
0.9520022272
  0
ARC
  5
771
100
AcDbEntity
  8
DRAFT
100
AcDbCircle
 62
7
  6
CONTINUOUS
 10
-29.9428812155
 20
40.414897816
 40
2.2849101299
100
AcDbArc
 50
129.3901947656
 51
360.0
  0
ARC
  5
772
100
AcDbEntity
  8
DRAFT
100
AcDbCircle
 62
7
  6
CONTINUOUS
 10
-29.9428812155
 20
40.414897816
 40
2.25
100
AcDbArc
 50
130.1240345935
 51
360.0
  0
CIRCLE
  5
773
100
AcDbEntity
  8
DRAFT
100
AcDbCircle
 62
7
  6
CONTINUOUS
 10
-29.9428812155
 20
40.414897816
 40
1.3198202597
  0
CIRCLE
  5
774
100
AcDbEntity
  8
DRAFT
100
AcDbCircle
 62
7
  6
CONTINUOUS
 10
-29.9428812155
 20
40.414897816
 40
1.25
  0
CIRCLE
  5
775
100
AcDbEntity
  8
ASSI
100
AcDbCircle
 62
7
  6
CONTINUOUS
 10
-29.9428812155
 20
40.414897816
 40
1.0
  0
CIRCLE
  5
776
100
AcDbEntity
  8
DRAFT
100
AcDbCircle
 62
7
  6
CONTINUOUS
 10
-29.9428812155
 20
40.414897816
 40
1.0
  0
CIRCLE
  5
777
100
AcDbEntity
  8
ASSI
100
AcDbCircle
 62
7
  6
CONTINUOUS
 10
-29.9428812155
 20
40.414897816
 40
0.9520022272
  0
CIRCLE
  5
778
100
AcDbEntity
  8
DRAFT
100
AcDbCircle
 62
7
  6
CONTINUOUS
 10
-29.9428812155
 20
40.414897816
 40
0.9520022272
  0
ARC
  5
779
100
AcDbEntity
  8
0
100
AcDbCircle
 62
7
  6
CONTINUOUS
 10
22.7633947845
 20
-6.165222184
 40
5.6074779015
100
AcDbArc
 50
104.6184641724
 51
108.030536234
  0
ARC
  5
77A
100
AcDbEntity
  8
0
100
AcDbCircle
 62
7
  6
CONTINUOUS
 10
22.7633947845
 20
-6.165222184
 40
5.6074766208
100
AcDbArc
 50
66.1507510578
 51
77.0671232762
  0
ARC
  5
77B
100
AcDbEntity
  8
0
100
AcDbCircle
 62
7
  6
CONTINUOUS
 10
22.7633947845
 20
-6.165222184
 40
5.6074765047
100
AcDbArc
 50
109.1821054584
 51
112.6110335093
  0
ARC
  5
77C
100
AcDbEntity
  8
0
100
AcDbCircle
 62
7
  6
CONTINUOUS
 10
22.7633947845
 20
-6.165222184
 40
5.6074761346
100
AcDbArc
 50
91.9102144889
 51
103.4934082927
  0
ARC
  5
77D
100
AcDbEntity
  8
0
100
AcDbCircle
 62
7
  6
CONTINUOUS
 10
22.7633947845
 20
-6.165222184
 40
5.6074759526
100
AcDbArc
 50
78.1844536706
 51
90.8185512484
  0
ARC
  5
77E
100
AcDbEntity
  8
0
100
AcDbCircle
 62
7
  6
CONTINUOUS
 10
22.7633947845
 20
-6.165222184
 40
5.5006686758
100
AcDbArc
 50
91.9473196142
 51
103.7605162941
  0
ARC
  5
77F
100
AcDbEntity
  8
0
100
AcDbCircle
 62
7
  6
CONTINUOUS
 10
22.7633947845
 20
-6.165222184
 40
5.5006683841
100
AcDbArc
 50
109.5695983715
 51
111.7987287801
  0
ARC
  5
780
100
AcDbEntity
  8
0
100
AcDbCircle
 62
7
  6
CONTINUOUS
 10
22.7633947845
 20
-6.165222184
 40
5.5006682353
100
AcDbArc
 50
104.9088365842
 51
108.3930555303
  0
ARC
  5
781
100
AcDbEntity
  8
0
100
AcDbCircle
 62
7
  6
CONTINUOUS
 10
22.7633947845
 20
-6.165222184
 40
5.5006672221
100
AcDbArc
 50
66.0805511142
 51
76.8115132283
  0
ARC
  5
782
100
AcDbEntity
  8
0
100
AcDbCircle
 62
7
  6
CONTINUOUS
 10
22.7633947845
 20
-6.165222184
 40
5.5006664386
100
AcDbArc
 50
77.9516164098
 51
90.8344466285
  0
ARC
  5
783
100
AcDbEntity
  8
DRAFT
100
AcDbCircle
 62
7
  6
CONTINUOUS
 10
36.0571187845
 20
-49.085102184
 40
2.2849101299
100
AcDbArc
 50
309.3901947656
 51
180.0
  0
ARC
  5
784
100
AcDbEntity
  8
DRAFT
100
AcDbCircle
 62
7
  6
CONTINUOUS
 10
36.0571187845
 20
-49.085102184
 40
2.25
100
AcDbArc
 50
310.1240345935
 51
180.0
  0
CIRCLE
  5
785
100
AcDbEntity
  8
DRAFT
100
AcDbCircle
 62
7
  6
CONTINUOUS
 10
36.0571187845
 20
-49.085102184
 40
1.3198202597
  0
CIRCLE
  5
786
100
AcDbEntity
  8
DRAFT
100
AcDbCircle
 62
7
  6
CONTINUOUS
 10
36.0571187845
 20
-49.085102184
 40
1.25
  0
CIRCLE
  5
787
100
AcDbEntity
  8
ASSI
100
AcDbCircle
 62
7
  6
CONTINUOUS
 10
36.0571187845
 20
-49.085102184
 40
1.0
  0
CIRCLE
  5
788
100
AcDbEntity
  8
DRAFT
100
AcDbCircle
 62
7
  6
CONTINUOUS
 10
36.0571187845
 20
-49.085102184
 40
1.0
  0
CIRCLE
  5
789
100
AcDbEntity
  8
ASSI
100
AcDbCircle
 62
7
  6
CONTINUOUS
 10
36.0571187845
 20
-49.085102184
 40
0.9520022272
  0
CIRCLE
  5
78A
100
AcDbEntity
  8
DRAFT
100
AcDbCircle
 62
7
  6
CONTINUOUS
 10
36.0571187845
 20
-49.085102184
 40
0.9520022272
  0
ARC
  5
78B
100
AcDbEntity
  8
0
100
AcDbCircle
 62
7
  6
CONTINUOUS
 10
24.6592547845
 20
-8.942258184
 40
0.9345803565
100
AcDbArc
 50
85.000002777
 51
176.7242074107
  0
ARC
  5
78C
100
AcDbEntity
  8
0
100
AcDbCircle
 62
7
  6
CONTINUOUS
 10
24.6592547845
 20
-8.942258184
 40
0.9345790614
100
AcDbArc
 50
183.2757971638
 51
78.4375028389
  0
CIRCLE
  5
78D
100
AcDbEntity
  8
0
100
AcDbCircle
 62
7
  6
CONTINUOUS
 10
24.6592547845
 20
-8.942258184
 40
0.534046
  0
CIRCLE
  5
78E
100
AcDbEntity
  8
0
100
AcDbCircle
 62
7
  6
CONTINUOUS
 10
24.6592547845
 20
-8.942258184
 40
0.320428
  0
CIRCLE
  5
78F
100
AcDbEntity
  8
DRAFT
100
AcDbCircle
 62
7
  6
CONTINUOUS
 10
36.0571187845
 20
40.414897816
 40
2.2849101299
  0
CIRCLE
  5
790
100
AcDbEntity
  8
DRAFT
100
AcDbCircle
 62
7
  6
CONTINUOUS
 10
36.0571187845
 20
40.414897816
 40
2.25
  0
ARC
  5
791
100
AcDbEntity
  8
0
100
AcDbCircle
 62
7
  6
CONTINUOUS
 10
31.5571187845
 20
46.564897816
 40
2.0
100
AcDbArc
 50
90.0
 51
270.0
  0
ARC
  5
792
100
AcDbEntity
  8
0
100
AcDbCircle
 62
7
  6
CONTINUOUS
 10
33.5571187845
 20
46.564897816
 40
2.0
100
AcDbArc
 50
270.0
 51
90.0
  0
CIRCLE
  5
793
100
AcDbEntity
  8
DRAFT
100
AcDbCircle
 62
7
  6
CONTINUOUS
 10
36.0571187845
 20
40.414897816
 40
1.3198202597
  0
CIRCLE
  5
794
100
AcDbEntity
  8
DRAFT
100
AcDbCircle
 62
7
  6
CONTINUOUS
 10
36.0571187845
 20
40.414897816
 40
1.25
  0
CIRCLE
  5
795
100
AcDbEntity
  8
ASSI
100
AcDbCircle
 62
7
  6
CONTINUOUS
 10
36.0571187845
 20
40.414897816
 40
1.0
  0
CIRCLE
  5
796
100
AcDbEntity
  8
DRAFT
100
AcDbCircle
 62
7
  6
CONTINUOUS
 10
36.0571187845
 20
40.414897816
 40
1.0
  0
CIRCLE
  5
797
100
AcDbEntity
  8
ASSI
100
AcDbCircle
 62
7
  6
CONTINUOUS
 10
36.0571187845
 20
40.414897816
 40
0.9520022272
  0
CIRCLE
  5
798
100
AcDbEntity
  8
DRAFT
100
AcDbCircle
 62
7
  6
CONTINUOUS
 10
36.0571187845
 20
40.414897816
 40
0.9520022272
  0
ARC
  5
799
100
AcDbEntity
  8
0
100
AcDbCircle
 62
7
  6
CONTINUOUS
 10
25.4603227845
 20
-1.252004184
 40
0.4806413166
100
AcDbArc
 50
303.7488518717
 51
153.3682031715
  0
ARC
  5
79A
100
AcDbEntity
  8
0
100
AcDbCircle
 62
7
  6
CONTINUOUS
 10
25.4603227845
 20
-1.252004184
 40
0.4806403194
100
AcDbArc
 50
166.1529569329
 51
192.8397156584
  0
ELLIPSE
  5
79B
100
AcDbEntity
  8
RACCORDO
100
AcDbEllipse
 62
7
  6
CONTINUOUS
 10
-1.3271716571
 20
11.864897816
 30
0.0
 11
0.0
 21
0.3
 31
0.0
 40
0.0174550649
 41
-1.5707963268
 42
0.0
  0
ELLIPSE
  5
79C
100
AcDbEntity
  8
RACCORDO
100
AcDbEllipse
 62
7
  6
CONTINUOUS
 10
7.4414092261
 20
11.864897816
 30
0.0
 11
0.0
 21
0.3
 31
0.0
 40
0.0174550649
 41
-0.0
 42
1.5707963268
  0
ELLIPSE
  5
79D
100
AcDbEntity
  8
RACCORDO
100
AcDbEllipse
 62
7
  6
CONTINUOUS
 10
6.9570426205
 20
45.064821652
 30
0.0
 11
-0.3536610946
 21
-0.3536610946
 31
0.0
 40
0.9996954599
 41
2.3563467834
 42
3.9268385237
  0
ELLIPSE
  5
79E
100
AcDbEntity
  8
RACCORDO
100
AcDbEllipse
 62
7
  6
CONTINUOUS
 10
-0.8428050515
 20
45.064821652
 30
0.0
 11
0.3536610946
 21
-0.3536610946
 31
0.0
 40
0.9996954599
 41
2.3563467834
 42
3.9268385237
  0
ELLIPSE
  5
79F
100
AcDbEntity
  8
ASSI
100
AcDbEllipse
 62
7
  6
CONTINUOUS
 10
-32.4428050515
 20
41.914821652
 30
0.0
 11
0.3536610946
 21
-0.3536610946
 31
0.0
 40
0.9996954599
 41
3.2846872406
 42
3.9268385237
  0
ELLIPSE
  5
7A0
100
AcDbEntity
  8
ASSI
100
AcDbEllipse
 62
7
  6
CONTINUOUS
 10
38.5570426205
 20
41.914821652
 30
0.0
 11
0.3536610946
 21
0.3536610946
 31
0.0
 40
0.9996954599
 41
-0.7852458701
 42
-0.143094587
  0
ELLIPSE
  5
7A1
100
AcDbEntity
  8
ASSI
100
AcDbEllipse
 62
7
  6
CONTINUOUS
 10
38.5570426205
 20
-50.5850260199
 30
0.0
 11
-0.3536610946
 21
0.3536610946
 31
0.0
 40
0.9996954599
 41
3.2846872406
 42
3.9268385237
  0
ELLIPSE
  5
7A2
100
AcDbEntity
  8
ASSI
100
AcDbEllipse
 62
7
  6
CONTINUOUS
 10
-32.4428050515
 20
-50.5850260199
 30
0.0
 11
-0.3536610946
 21
-0.3536610946
 31
0.0
 40
0.9996954599
 41
-0.7852458701
 42
-0.143094587
  0
ELLIPSE
  5
7A3
100
AcDbEntity
  8
ASSI
100
AcDbEllipse
 62
7
  6
CONTINUOUS
 10
37.6718160831
 20
-39.235102184
 30
0.0
 11
-0.0
 21
1.0
 31
0.0
 40
0.0174550649
 41
-3.1415926536
 42
-1.5707963268
  0
ELLIPSE
  5
7A4
100
AcDbEntity
  8
ASSI
100
AcDbEllipse
 62
7
  6
CONTINUOUS
 10
37.6718160831
 20
-29.435102184
 30
0.0
 11
-0.0
 21
1.0
 31
0.0
 40
0.0174550649
 41
-1.5707963268
 42
0.0
  0
ELLIPSE
  5
7A5
100
AcDbEntity
  8
ASSI
100
AcDbEllipse
 62
7
  6
CONTINUOUS
 10
37.6718160831
 20
20.764897816
 30
0.0
 11
0.0
 21
1.0
 31
0.0
 40
0.0174550649
 41
-3.1415926536
 42
-1.5707963268
  0
ELLIPSE
  5
7A6
100
AcDbEntity
  8
ASSI
100
AcDbEllipse
 62
7
  6
CONTINUOUS
 10
37.6718160831
 20
30.564897816
 30
0.0
 11
0.0
 21
1.0
 31
0.0
 40
0.0174550649
 41
-1.5707963268
 42
0.0
  0
ELLIPSE
  5
7A7
100
AcDbEntity
  8
ASSI
100
AcDbEllipse
 62
7
  6
CONTINUOUS
 10
-31.5575785141
 20
20.764897816
 30
0.0
 11
0.0
 21
1.0
 31
0.0
 40
0.0174550649
 41
-4.7123889804
 42
-3.1415926536
  0
ELLIPSE
  5
7A8
100
AcDbEntity
  8
ASSI
100
AcDbEllipse
 62
7
  6
CONTINUOUS
 10
-31.5575785141
 20
-29.435102184
 30
0.0
 11
0.0
 21
1.0
 31
0.0
 40
0.0174550649
 41
0.0
 42
1.5707963268
  0
ELLIPSE
  5
7A9
100
AcDbEntity
  8
ASSI
100
AcDbEllipse
 62
7
  6
CONTINUOUS
 10
-31.5575785141
 20
-39.235102184
 30
0.0
 11
0.0
 21
1.0
 31
0.0
 40
0.0174550649
 41
-4.7123889804
 42
-3.1415926536
  0
ELLIPSE
  5
7AA
100
AcDbEntity
  8
ASSI
100
AcDbEllipse
 62
7
  6
CONTINUOUS
 10
-31.5575785141
 20
30.564897816
 30
0.0
 11
0.0
 21
1.0
 31
0.0
 40
0.0174550649
 41
0.0
 42
1.5707963268
  0
ELLIPSE
  5
7AB
100
AcDbEntity
  8
ASSI
100
AcDbEllipse
 62
7
  6
CONTINUOUS
 10
38.8733344729
 20
-39.235102184
 30
0.0
 11
0.0
 21
1.0
 31
0.0
 40
0.0174550649
 41
-4.7123889804
 42
-3.1415926536
  0
ELLIPSE
  5
7AC
100
AcDbEntity
  8
ASSI
100
AcDbEllipse
 62
7
  6
CONTINUOUS
 10
38.8733344729
 20
-29.435102184
 30
0.0
 11
0.0
 21
1.0
 31
0.0
 40
0.0174550649
 41
-0.0
 42
1.5707963268
  0
ELLIPSE
  5
7AD
100
AcDbEntity
  8
ASSI
100
AcDbEllipse
 62
7
  6
CONTINUOUS
 10
38.8733344729
 20
20.764897816
 30
0.0
 11
0.0
 21
1.0
 31
0.0
 40
0.0174550649
 41
-4.7123889804
 42
-3.1415926536
  0
ELLIPSE
  5
7AE
100
AcDbEntity
  8
ASSI
100
AcDbEllipse
 62
7
  6
CONTINUOUS
 10
38.8733344729
 20
30.564897816
 30
0.0
 11
0.0
 21
1.0
 31
0.0
 40
0.0174550649
 41
-0.0
 42
1.5707963268
  0
ELLIPSE
  5
7AF
100
AcDbEntity
  8
ASSI
100
AcDbEllipse
 62
7
  6
CONTINUOUS
 10
-32.7590969038
 20
-29.435102184
 30
0.0
 11
-0.0
 21
1.0
 31
0.0
 40
0.0174550649
 41
-1.5707963268
 42
0.0
  0
ELLIPSE
  5
7B0
100
AcDbEntity
  8
ASSI
100
AcDbEllipse
 62
7
  6
CONTINUOUS
 10
-32.7590969038
 20
-39.235102184
 30
0.0
 11
-0.0
 21
1.0
 31
0.0
 40
0.0174550649
 41
-3.1415926536
 42
-1.5707963268
  0
ELLIPSE
  5
7B1
100
AcDbEntity
  8
ASSI
100
AcDbEllipse
 62
7
  6
CONTINUOUS
 10
-32.7590969038
 20
20.764897816
 30
0.0
 11
-0.0
 21
1.0
 31
0.0
 40
0.0174550649
 41
-3.1415926536
 42
-1.5707963268
  0
ELLIPSE
  5
7B2
100
AcDbEntity
  8
ASSI
100
AcDbEllipse
 62
7
  6
CONTINUOUS
 10
-32.7590969038
 20
30.564897816
 30
0.0
 11
0.0
 21
1.0
 31
0.0
 40
0.0174550649
 41
-1.5707963268
 42
0.0
  0
ELLIPSE
  5
7B3
100
AcDbEntity
  8
RACCORDO
100
AcDbEllipse
 62
7
  6
CONTINUOUS
 10
-32.4428050515
 20
41.914821652
 30
0.0
 11
0.3536610946
 21
-0.3536610946
 31
0.0
 40
0.9996954599
 41
3.2846872406
 42
3.9268385237
  0
ELLIPSE
  5
7B4
100
AcDbEntity
  8
RACCORDO
100
AcDbEllipse
 62
7
  6
CONTINUOUS
 10
38.5570426205
 20
41.914821652
 30
0.0
 11
0.3536610946
 21
0.3536610946
 31
0.0
 40
0.9996954599
 41
-0.7852458701
 42
-0.143094587
  0
ELLIPSE
  5
7B5
100
AcDbEntity
  8
RACCORDO
100
AcDbEllipse
 62
7
  6
CONTINUOUS
 10
38.5570426205
 20
-50.5850260199
 30
0.0
 11
-0.3536610946
 21
0.3536610946
 31
0.0
 40
0.9996954599
 41
3.2846872406
 42
3.9268385237
  0
ELLIPSE
  5
7B6
100
AcDbEntity
  8
RACCORDO
100
AcDbEllipse
 62
7
  6
CONTINUOUS
 10
-32.4428050515
 20
-50.5850260199
 30
0.0
 11
-0.3536610946
 21
-0.3536610946
 31
0.0
 40
0.9996954599
 41
-0.7852458701
 42
-0.143094587
  0
ELLIPSE
  5
7B7
100
AcDbEntity
  8
RACCORDO
100
AcDbEllipse
 62
7
  6
CONTINUOUS
 10
37.6718160831
 20
-39.235102184
 30
0.0
 11
-0.0
 21
1.0
 31
0.0
 40
0.0174550649
 41
-3.1415926536
 42
-1.5707963268
  0
ELLIPSE
  5
7B8
100
AcDbEntity
  8
RACCORDO
100
AcDbEllipse
 62
7
  6
CONTINUOUS
 10
37.6718160831
 20
-29.435102184
 30
0.0
 11
-0.0
 21
1.0
 31
0.0
 40
0.0174550649
 41
-1.5707963268
 42
0.0
  0
ELLIPSE
  5
7B9
100
AcDbEntity
  8
RACCORDO
100
AcDbEllipse
 62
7
  6
CONTINUOUS
 10
37.6718160831
 20
20.764897816
 30
0.0
 11
0.0
 21
1.0
 31
0.0
 40
0.0174550649
 41
-3.1415926536
 42
-1.5707963268
  0
ELLIPSE
  5
7BA
100
AcDbEntity
  8
RACCORDO
100
AcDbEllipse
 62
7
  6
CONTINUOUS
 10
37.6718160831
 20
30.564897816
 30
0.0
 11
0.0
 21
1.0
 31
0.0
 40
0.0174550649
 41
-1.5707963268
 42
0.0
  0
ELLIPSE
  5
7BB
100
AcDbEntity
  8
RACCORDO
100
AcDbEllipse
 62
7
  6
CONTINUOUS
 10
-31.5575785141
 20
20.764897816
 30
0.0
 11
0.0
 21
1.0
 31
0.0
 40
0.0174550649
 41
-4.7123889804
 42
-3.1415926536
  0
ELLIPSE
  5
7BC
100
AcDbEntity
  8
RACCORDO
100
AcDbEllipse
 62
7
  6
CONTINUOUS
 10
-31.5575785141
 20
-29.435102184
 30
0.0
 11
0.0
 21
1.0
 31
0.0
 40
0.0174550649
 41
0.0
 42
1.5707963268
  0
ELLIPSE
  5
7BD
100
AcDbEntity
  8
RACCORDO
100
AcDbEllipse
 62
7
  6
CONTINUOUS
 10
-31.5575785141
 20
-39.235102184
 30
0.0
 11
0.0
 21
1.0
 31
0.0
 40
0.0174550649
 41
-4.7123889804
 42
-3.1415926536
  0
ELLIPSE
  5
7BE
100
AcDbEntity
  8
RACCORDO
100
AcDbEllipse
 62
7
  6
CONTINUOUS
 10
-31.5575785141
 20
30.564897816
 30
0.0
 11
0.0
 21
1.0
 31
0.0
 40
0.0174550649
 41
0.0
 42
1.5707963268
  0
ELLIPSE
  5
7BF
100
AcDbEntity
  8
RACCORDO
100
AcDbEllipse
 62
7
  6
CONTINUOUS
 10
38.8733344729
 20
-39.235102184
 30
0.0
 11
0.0
 21
1.0
 31
0.0
 40
0.0174550649
 41
-4.7123889804
 42
-3.1415926536
  0
ELLIPSE
  5
7C0
100
AcDbEntity
  8
RACCORDO
100
AcDbEllipse
 62
7
  6
CONTINUOUS
 10
38.8733344729
 20
-29.435102184
 30
0.0
 11
0.0
 21
1.0
 31
0.0
 40
0.0174550649
 41
-0.0
 42
1.5707963268
  0
ELLIPSE
  5
7C1
100
AcDbEntity
  8
RACCORDO
100
AcDbEllipse
 62
7
  6
CONTINUOUS
 10
38.8733344729
 20
20.764897816
 30
0.0
 11
0.0
 21
1.0
 31
0.0
 40
0.0174550649
 41
-4.7123889804
 42
-3.1415926536
  0
ELLIPSE
  5
7C2
100
AcDbEntity
  8
RACCORDO
100
AcDbEllipse
 62
7
  6
CONTINUOUS
 10
38.8733344729
 20
30.564897816
 30
0.0
 11
0.0
 21
1.0
 31
0.0
 40
0.0174550649
 41
-0.0
 42
1.5707963268
  0
ELLIPSE
  5
7C3
100
AcDbEntity
  8
RACCORDO
100
AcDbEllipse
 62
7
  6
CONTINUOUS
 10
-32.7590969038
 20
-29.435102184
 30
0.0
 11
-0.0
 21
1.0
 31
0.0
 40
0.0174550649
 41
-1.5707963268
 42
0.0
  0
ELLIPSE
  5
7C4
100
AcDbEntity
  8
RACCORDO
100
AcDbEllipse
 62
7
  6
CONTINUOUS
 10
-32.7590969038
 20
-39.235102184
 30
0.0
 11
-0.0
 21
1.0
 31
0.0
 40
0.0174550649
 41
-3.1415926536
 42
-1.5707963268
  0
ELLIPSE
  5
7C5
100
AcDbEntity
  8
RACCORDO
100
AcDbEllipse
 62
7
  6
CONTINUOUS
 10
-32.7590969038
 20
20.764897816
 30
0.0
 11
-0.0
 21
1.0
 31
0.0
 40
0.0174550649
 41
-3.1415926536
 42
-1.5707963268
  0
ELLIPSE
  5
7C6
100
AcDbEntity
  8
RACCORDO
100
AcDbEllipse
 62
7
  6
CONTINUOUS
 10
-32.7590969038
 20
30.564897816
 30
0.0
 11
0.0
 21
1.0
 31
0.0
 40
0.0174550649
 41
-1.5707963268
 42
0.0
  0
ELLIPSE
  5
7C7
100
AcDbEntity
  8
RACCORDO
100
AcDbEllipse
 62
7
  6
CONTINUOUS
 10
37.9569664565
 20
49.564745488
 30
0.0
 11
0.7073221892
 21
0.7073221892
 31
0.0
 40
0.9996954599
 41
-0.7852458701
 42
0.7852458701
  0
ELLIPSE
  5
7C8
100
AcDbEntity
  8
RACCORDO
100
AcDbEllipse
 62
7
  6
CONTINUOUS
 10
-31.8427288875
 20
49.564745488
 30
0.0
 11
0.7073221892
 21
-0.7073221892
 31
0.0
 40
0.9996954599
 41
2.3563467834
 42
3.9268385237
  0
ELLIPSE
  5
7C9
100
AcDbEntity
  8
RACCORDO
100
AcDbEllipse
 62
7
  6
CONTINUOUS
 10
37.9569664565
 20
-58.2349498559
 30
0.0
 11
0.7073221892
 21
-0.7073221892
 31
0.0
 40
0.9996954599
 41
-0.7852458701
 42
0.7852458701
  0
ELLIPSE
  5
7CA
100
AcDbEntity
  8
RACCORDO
100
AcDbEllipse
 62
7
  6
CONTINUOUS
 10
-31.8427288875
 20
-58.2349498559
 30
0.0
 11
0.7073221892
 21
0.7073221892
 31
0.0
 40
0.9996954599
 41
-3.9268385237
 42
-2.3563467834
  0
ELLIPSE
  5
7CB
100
AcDbEntity
  8
RACCORDO
100
AcDbEllipse
 62
7
  6
CONTINUOUS
 10
-31.7379984979
 20
-58.1302194663
 30
0.0
 11
0.7073221892
 21
0.7073221892
 31
0.0
 40
0.9996954599
 41
2.3563467834
 42
3.9268385237
  0
ELLIPSE
  5
7CC
100
AcDbEntity
  8
RACCORDO
100
AcDbEllipse
 62
7
  6
CONTINUOUS
 10
37.8522360669
 20
49.4600150984
 30
0.0
 11
-0.7073221892
 21
-0.7073221892
 31
0.0
 40
0.9996954599
 41
2.3563467834
 42
3.9268385237
  0
ELLIPSE
  5
7CD
100
AcDbEntity
  8
RACCORDO
100
AcDbEllipse
 62
7
  6
CONTINUOUS
 10
9.0117217842
 20
-5.2894004115
 30
0.0
 11
0.0
 21
0.5
 31
0.0
 40
0.0349207695
 41
1.5707963268
 42
3.1066860685
  0
ELLIPSE
  5
7CE
100
AcDbEntity
  8
RACCORDO
100
AcDbEllipse
 62
7
  6
CONTINUOUS
 10
9.0117217842
 20
-3.3808039564
 30
0.0
 11
-0.0
 21
0.5
 31
0.0
 40
0.0349207695
 41
0.034906585
 42
1.5707963268
  0
ELLIPSE
  5
7CF
100
AcDbEntity
  8
RACCORDO
100
AcDbEllipse
 62
7
  6
CONTINUOUS
 10
-2.8974842152
 20
-3.3808039564
 30
0.0
 11
0.0
 21
0.5
 31
0.0
 40
0.0349207695
 41
-1.5707963268
 42
-0.034906585
  0
ELLIPSE
  5
7D0
100
AcDbEntity
  8
RACCORDO
100
AcDbEllipse
 62
7
  6
CONTINUOUS
 10
-2.8974842152
 20
-5.2894004115
 30
0.0
 11
0.0
 21
0.5
 31
0.0
 40
0.0349207695
 41
-3.1066860685
 42
-1.5707963268
  0
ELLIPSE
  5
7D1
100
AcDbEntity
  8
RACCORDO
100
AcDbEllipse
 62
7
  6
CONTINUOUS
 10
7.9054527347
 20
-5.2894004115
 30
0.0
 11
-0.0
 21
0.5
 31
0.0
 40
0.2679491924
 41
-3.1066860685
 42
-1.5707963268
  0
ELLIPSE
  5
7D2
100
AcDbEntity
  8
RACCORDO
100
AcDbEllipse
 62
7
  6
CONTINUOUS
 10
7.9054527347
 20
-3.3808039564
 30
0.0
 11
-0.0
 21
0.5
 31
0.0
 40
0.2679491924
 41
-1.5707963268
 42
-0.034906585
  0
ELLIPSE
  5
7D3
100
AcDbEntity
  8
RACCORDO
100
AcDbEllipse
 62
7
  6
CONTINUOUS
 10
-1.7912151657
 20
-3.3808039564
 30
0.0
 11
0.0
 21
0.5
 31
0.0
 40
0.2679491924
 41
0.034906585
 42
1.5707963268
  0
ELLIPSE
  5
7D4
100
AcDbEntity
  8
RACCORDO
100
AcDbEllipse
 62
7
  6
CONTINUOUS
 10
-1.7912151657
 20
-5.2894004115
 30
0.0
 11
-0.0
 21
0.5
 31
0.0
 40
0.2679491924
 41
-4.7123889804
 42
-3.1764992386
  0
ELLIPSE
  5
7D5
100
AcDbEntity
  8
RACCORDO
100
AcDbEllipse
 62
7
  6
CONTINUOUS
 10
-31.7379984979
 20
49.4600150984
 30
0.0
 11
-0.7073221892
 21
0.7073221892
 31
0.0
 40
0.9996954599
 41
-0.7852458701
 42
0.7852458701
  0
ELLIPSE
  5
7D6
100
AcDbEntity
  8
RACCORDO
100
AcDbEllipse
 62
7
  6
CONTINUOUS
 10
37.8522360669
 20
-58.1302194663
 30
0.0
 11
0.7073221892
 21
-0.7073221892
 31
0.0
 40
0.9996954599
 41
-0.7852458701
 42
0.7852458701
  0
ENDSEC
  0
SECTION
  2
OBJECTS
  0
DICTIONARY
  5
C
100
AcDbDictionary
280
0
281
1
  3
ACAD_GROUP
350
D
  3
ACAD_MLINESTYLE
350
17
  3
ACAD_LAYOUT
350
1A
  3
ACAD_PLOTSETTINGS
350
19
  3
ACAD_PLOTSTYLENAME
350
E
  0
DICTIONARY
  5
D
102
{ACAD_REACTORS
330
C
102
}
100
AcDbDictionary
280
0
281
1
  0
ACDBDICTIONARYWDFLT
  5
E
102
{ACAD_REACTORS
330
C
102
}
100
AcDbDictionary
281
1
  3
Normal
350
F
100
AcDbDictionaryWithDefault
340
F
  0
DICTIONARY
  5
17
102
{ACAD_REACTORS
330
C
102
}
100
AcDbDictionary
280
0
281
1
  3
Standard
350
18
  0
DICTIONARY
  5
19
102
{ACAD_REACTORS
330
C
102
}
100
AcDbDictionary
281
1
  0
DICTIONARY
  5
1A
102
{ACAD_REACTORS
330
C
102
}
100
AcDbDictionary
281
1
  3
Model
350
7D7
  3
Layout1
350
7D8
  0
ACDBPLACEHOLDER
  5
F
102
{ACAD_REACTORS
330
E
102
}
  0
MLINESTYLE
  5
18
102
{ACAD_REACTORS
330
17
102
}
100
AcDbMlineStyle
  2
STANDARD
 70
0
  3

 62
256
 51
90.0
 52
90.0
 71
2
 49
0.5
 62
256
  6
BYLAYER
 49
-0.5
 62
256
  6
BYLAYER
  0
LAYOUT
  5
7D7
102
{ACAD_REACTORS
330
1A
102
}
100
AcDbPlotSettings
  1

  2
none_device
  4
ANSI_C_(22.00_x_17.00_Inches)
  6

 40
0.0
 41
0.0
 42
0.0
 43
0.0
 44
558.8
 45
431.8
 46
0.0
 47
0.0
 48
0.0
 49
0.0
140
0.0
141
0.0
142
1.0
143
1.0
 70
1024
 72
1
 73
0
 74
0
  7

 75
0
147
1.0
148
0.0
149
0.0
100
AcDbLayout
  1
Model
 70
0
 71
0
 10
0.0
 20
0.0
 11
558.8
 21
431.8
 12
0.0
 22
0.0
 32
0.0
 14
0.0
 24
0.0
 34
0.0
 15
0.0
 25
0.0
 35
0.0
146
0.0
 13
0.0
 23
0.0
 33
0.0
 16
1.0
 26
0.0
 36
0.0
 17
0.0
 27
1.0
 37
0.0
 76
0
330
337
345
0
346
0
  0
LAYOUT
  5
7D8
102
{ACAD_REACTORS
330
1A
102
}
100
AcDbPlotSettings
  1

  2
none_device
  4
ANSI_C_(22.00_x_17.00_Inches)
  6

 40
0.0
 41
0.0
 42
0.0
 43
0.0
 44
558.8
 45
431.8
 46
0.0
 47
0.0
 48
0.0
 49
0.0
140
0.0
141
0.0
142
1.0
143
1.0
 70
0
 72
1
 73
0
 74
0
  7

 75
0
147
1.0
148
0.0
149
0.0
100
AcDbLayout
  1
Layout1
 70
0
 71
1
 10
0.0
 20
0.0
 11
558.8
 21
431.8
 12
0.0
 22
0.0
 32
0.0
 14
0.0
 24
0.0
 34
0.0
 15
0.0
 25
0.0
 35
0.0
146
0.0
 13
0.0
 23
0.0
 33
0.0
 16
1.0
 26
0.0
 36
0.0
 17
0.0
 27
1.0
 37
0.0
 76
0
330
338
345
0
346
0
  0
ENDSEC
  0
EOF
