  0
SECTION
  2
HEADER
  9
$ACADVER
  1
AC1024
  9
$DWGCODEPAGE
  3
ANSI_1252
  9
$EXTMAX
 10
558.8
 20
431.8
 30
0.0
  9
$EXTMIN
 10
0.0
 20
0.0
 30
0.0
  9
$LIMMIN
 10
0.0
 20
0.0
  9
$LIMMAX
 10
558.8
 20
431.8
  9
$VIEWCTR
 10
279.4
 20
215.9
  9
$VIEWSIZE
 40
431.8
  9
$CLAYER
  8
0
  9
$LTSCALE
 40
30.734
  9
$CELTYPE
  6
BYLAYER
  9
$DIMSCALE
 40
1.0
  9
$DIMASZ
 40
3.0
  9
$DIMEXO
 40
0.5
  9
$DIMDLI
 40
21.2344
  9
$DIMEXE
 40
1.5
  9
$DIMCEN
 40
5.0292
  9
$DIMLFAC
 40
1.0
  9
$DIMBLK
  1
_FILLED
  9
$DIMALT
 70
0
  9
$DIMALTF
 40
0.0393700787
  9
$DIMTXT
 40
3.0
  9
$DIMTOL
 70
1
  9
$DIMLIM
 70
0
  9
$DIMTFAC
 40
1.0
  9
$DIMTP
 40
0.01
  9
$DIMTM
 40
0.01
  9
$DIMGAP
 40
0.625
  9
$DIMDSEP
 70
44
  9
$AUNITS
 70
0
  9
$PDMODE
 70
3
  9
$PDSIZE
 40
3.0
  9
$HANDSEED
  5
81A
  9
$TILEMODE
 70
1
  9
$MEASUREMENT
 70
1
  9
$INSUNITS
 70
4
  0
ENDSEC
  0
SECTION
  2
CLASSES
  0
CLASS
  1
ACDBDICTIONARYWDFLT
  2
AcDbDictionaryWithDefault
  3
AutoCAD 2000
 90
0
 91
1
280
0
281
0
  0
CLASS
  1
ACDBPLACEHOLDER
  2
AcDbPlaceHolder
  3
AutoCAD 2000
 90
0
 91
1
280
0
281
0
  0
CLASS
  1
LAYOUT
  2
AcDbLayout
  3
AutoCAD 2000
 90
0
 91
0
280
0
281
0
  0
ENDSEC
  0
SECTION
  2
TABLES
  0
TABLE
  2
VPORT
  5
8
100
AcDbSymbolTable
 70
2
  0
VPORT
  5
1F4
100
AcDbSymbolTableRecord
100
AcDbViewportTableRecord
  2
*ACTIVE
 70
0
 10
0.0
 20
0.0
 11
1.0
 21
1.0
 12
279.4
 22
215.9
 13
0.0
 23
0.0
 14
1.0
 24
1.0
 15
0.0
 25
0.0
 16
0.0
 26
0.0
 36
1.0
 17
0.0
 27
0.0
 37
0.0
 40
431.8
 41
1.2941176471
 42
50.0
 43
0.0
 44
0.0
 50
0.0
 51
0.0
 71
0
 72
100
 73
1
 74
1
 75
0
 76
0
 77
0
 78
0
  0
ENDTAB
  0
TABLE
  2
LTYPE
  5
5
100
AcDbSymbolTable
 70
6
  0
LTYPE
  5
14
100
AcDbSymbolTableRecord
100
AcDbLinetypeTableRecord
  2
BYBLOCK
 70
0
  3

 72
65
 73
0
 40
0.0
  0
LTYPE
  5
15
100
AcDbSymbolTableRecord
100
AcDbLinetypeTableRecord
  2
BYLAYER
 70
0
  3

 72
65
 73
0
 40
0.0
  0
LTYPE
  5
16
100
AcDbSymbolTableRecord
100
AcDbLinetypeTableRecord
  2
CONTINUOUS
 70
64
  3
Solid line
 72
65
 73
0
 40
0.0
  0
LTYPE
  5
1F5
100
AcDbSymbolTableRecord
100
AcDbLinetypeTableRecord
  2
CENTER
 70
64
  3
____ _ ____ _ ____ _ ____ _ ____ _ ____ _ ____
 72
65
 73
4
 40
0.6
 49
0.375
 74
0
 49
-0.075
 74
0
 49
0.075
 74
0
 49
-0.075
 74
0
  0
LTYPE
  5
1F6
100
AcDbSymbolTableRecord
100
AcDbLinetypeTableRecord
  2
HIDDEN
 70
64
  3
- - - - - - - - - - - - - - - - - - - -
 72
65
 73
2
 40
0.2
 49
0.1
 74
0
 49
-0.1
 74
0
  0
LTYPE
  5
1F7
100
AcDbSymbolTableRecord
100
AcDbLinetypeTableRecord
  2
PHANTOM
 70
64
  3
_____ _ _ _____ _ _ _____ _ _ _____
 72
65
 73
6
 40
0.8
 49
0.45
 74
0
 49
-0.05
 74
0
 49
0.1
 74
0
 49
-0.05
 74
0
 49
0.1
 74
0
 49
-0.05
 74
0
  0
LTYPE
  5
1F8
100
AcDbSymbolTableRecord
100
AcDbLinetypeTableRecord
  2
DOT
 70
64
  3
. . . . . . . . . . . . . . . . . . . .
 72
65
 73
2
 40
0.2
 49
0.1
 74
0
 49
-0.1
 74
0
  0
LTYPE
  5
1F9
100
AcDbSymbolTableRecord
100
AcDbLinetypeTableRecord
  2
DASHED
 70
64
  3
- - - - - - - - - - - - - - - - - - - -
 72
65
 73
2
 40
0.2
 49
0.1
 74
0
 49
-0.1
 74
0
  0
ENDTAB
  0
TABLE
  2
LAYER
  5
2
100
AcDbSymbolTable
 70
36
  0
LAYER
  5
10
100
AcDbSymbolTableRecord
100
AcDbLayerTableRecord
  2
0
 70
0
 62
7
  6
CONTINUOUS
370
-3
390
F
  0
LAYER
  5
1FA
100
AcDbSymbolTableRecord
100
AcDbLayerTableRecord
  2
DEFAULT_1
 70
0
 62
7
  6
CENTER
370
-3
390
F
  0
LAYER
  5
1FB
100
AcDbSymbolTableRecord
100
AcDbLayerTableRecord
  2
DEFAULT_2
 70
0
 62
7
  6
HIDDEN
370
-3
390
F
  0
LAYER
  5
1FC
100
AcDbSymbolTableRecord
100
AcDbLayerTableRecord
  2
DEFAULT_3
 70
0
 62
7
  6
PHANTOM
370
-3
390
F
  0
LAYER
  5
1FD
100
AcDbSymbolTableRecord
100
AcDbLayerTableRecord
  2
0402_C_REF_70000
 70
0
 62
7
  6
CONTINUOUS
370
-3
390
F
  0
LAYER
  5
1FE
100
AcDbSymbolTableRecord
100
AcDbLayerTableRecord
  2
0402_C_REF_70000_1
 70
0
 62
7
  6
CONTINUOUS
370
-3
390
F
  0
LAYER
  5
1FF
100
AcDbSymbolTableRecord
100
AcDbLayerTableRecord
  2
0402_C_REF_70000_10
 70
0
 62
7
  6
CONTINUOUS
370
-3
390
F
  0
LAYER
  5
200
100
AcDbSymbolTableRecord
100
AcDbLayerTableRecord
  2
0402_C_REF_70000_11
 70
0
 62
7
  6
CONTINUOUS
370
-3
390
F
  0
LAYER
  5
201
100
AcDbSymbolTableRecord
100
AcDbLayerTableRecord
  2
0402_C_REF_70000_12
 70
0
 62
7
  6
CONTINUOUS
370
-3
390
F
  0
LAYER
  5
202
100
AcDbSymbolTableRecord
100
AcDbLayerTableRecord
  2
0402_C_REF_70000_13
 70
0
 62
7
  6
CONTINUOUS
370
-3
390
F
  0
LAYER
  5
203
100
AcDbSymbolTableRecord
100
AcDbLayerTableRecord
  2
0402_C_REF_70000_14
 70
0
 62
7
  6
CONTINUOUS
370
-3
390
F
  0
LAYER
  5
204
100
AcDbSymbolTableRecord
100
AcDbLayerTableRecord
  2
0402_C_REF_70000_15
 70
0
 62
7
  6
CONTINUOUS
370
-3
390
F
  0
LAYER
  5
205
100
AcDbSymbolTableRecord
100
AcDbLayerTableRecord
  2
0402_C_REF_70000_16
 70
0
 62
7
  6
CONTINUOUS
370
-3
390
F
  0
LAYER
  5
206
100
AcDbSymbolTableRecord
100
AcDbLayerTableRecord
  2
0402_C_REF_70000_17
 70
0
 62
7
  6
CONTINUOUS
370
-3
390
F
  0
LAYER
  5
207
100
AcDbSymbolTableRecord
100
AcDbLayerTableRecord
  2
0402_C_REF_70000_18
 70
0
 62
7
  6
CONTINUOUS
370
-3
390
F
  0
LAYER
  5
208
100
AcDbSymbolTableRecord
100
AcDbLayerTableRecord
  2
0402_C_REF_70000_19
 70
0
 62
7
  6
CONTINUOUS
370
-3
390
F
  0
LAYER
  5
209
100
AcDbSymbolTableRecord
100
AcDbLayerTableRecord
  2
0402_C_REF_70000_2
 70
0
 62
7
  6
CONTINUOUS
370
-3
390
F
  0
LAYER
  5
20A
100
AcDbSymbolTableRecord
100
AcDbLayerTableRecord
  2
0402_C_REF_70000_20
 70
0
 62
7
  6
CONTINUOUS
370
-3
390
F
  0
LAYER
  5
20B
100
AcDbSymbolTableRecord
100
AcDbLayerTableRecord
  2
0402_C_REF_70000_21
 70
0
 62
7
  6
CONTINUOUS
370
-3
390
F
  0
LAYER
  5
20C
100
AcDbSymbolTableRecord
100
AcDbLayerTableRecord
  2
0402_C_REF_70000_22
 70
0
 62
7
  6
CONTINUOUS
370
-3
390
F
  0
LAYER
  5
20D
100
AcDbSymbolTableRecord
100
AcDbLayerTableRecord
  2
0402_C_REF_70000_23
 70
0
 62
7
  6
CONTINUOUS
370
-3
390
F
  0
LAYER
  5
20E
100
AcDbSymbolTableRecord
100
AcDbLayerTableRecord
  2
0402_C_REF_70000_24
 70
0
 62
7
  6
CONTINUOUS
370
-3
390
F
  0
LAYER
  5
20F
100
AcDbSymbolTableRecord
100
AcDbLayerTableRecord
  2
0402_C_REF_70000_25
 70
0
 62
7
  6
CONTINUOUS
370
-3
390
F
  0
LAYER
  5
210
100
AcDbSymbolTableRecord
100
AcDbLayerTableRecord
  2
0402_C_REF_70000_26
 70
0
 62
7
  6
CONTINUOUS
370
-3
390
F
  0
LAYER
  5
211
100
AcDbSymbolTableRecord
100
AcDbLayerTableRecord
  2
0402_C_REF_70000_27
 70
0
 62
7
  6
CONTINUOUS
370
-3
390
F
  0
LAYER
  5
212
100
AcDbSymbolTableRecord
100
AcDbLayerTableRecord
  2
0402_C_REF_70000_28
 70
0
 62
7
  6
CONTINUOUS
370
-3
390
F
  0
LAYER
  5
213
100
AcDbSymbolTableRecord
100
AcDbLayerTableRecord
  2
0402_C_REF_70000_29
 70
0
 62
7
  6
CONTINUOUS
370
-3
390
F
  0
LAYER
  5
214
100
AcDbSymbolTableRecord
100
AcDbLayerTableRecord
  2
0402_C_REF_70000_3
 70
0
 62
7
  6
CONTINUOUS
370
-3
390
F
  0
LAYER
  5
215
100
AcDbSymbolTableRecord
100
AcDbLayerTableRecord
  2
0402_C_REF_70000_30
 70
0
 62
7
  6
CONTINUOUS
370
-3
390
F
  0
LAYER
  5
216
100
AcDbSymbolTableRecord
100
AcDbLayerTableRecord
  2
0402_C_REF_70000_31
 70
0
 62
7
  6
CONTINUOUS
370
-3
390
F
  0
LAYER
  5
217
100
AcDbSymbolTableRecord
100
AcDbLayerTableRecord
  2
0402_C_REF_70000_32
 70
0
 62
7
  6
CONTINUOUS
370
-3
390
F
  0
LAYER
  5
218
100
AcDbSymbolTableRecord
100
AcDbLayerTableRecord
  2
0402_C_REF_70000_33
 70
0
 62
7
  6
CONTINUOUS
370
-3
390
F
  0
LAYER
  5
219
100
AcDbSymbolTableRecord
100
AcDbLayerTableRecord
  2
0402_C_REF_70000_34
 70
0
 62
7
  6
CONTINUOUS
370
-3
390
F
  0
LAYER
  5
21A
100
AcDbSymbolTableRecord
100
AcDbLayerTableRecord
  2
0402_C_REF_70000_35
 70
0
 62
7
  6
CONTINUOUS
370
-3
390
F
  0
LAYER
  5
21B
100
AcDbSymbolTableRecord
100
AcDbLayerTableRecord
  2
0402_C_REF_70000_36
 70
0
 62
7
  6
CONTINUOUS
370
-3
390
F
  0
LAYER
  5
21C
100
AcDbSymbolTableRecord
100
AcDbLayerTableRecord
  2
0402_C_REF_70000_37
 70
0
 62
7
  6
CONTINUOUS
370
-3
390
F
  0
LAYER
  5
21D
100
AcDbSymbolTableRecord
100
AcDbLayerTableRecord
  2
0402_C_REF_70000_4
 70
0
 62
7
  6
CONTINUOUS
370
-3
390
F
  0
LAYER
  5
21E
100
AcDbSymbolTableRecord
100
AcDbLayerTableRecord
  2
0402_C_REF_70000_5
 70
0
 62
7
  6
CONTINUOUS
370
-3
390
F
  0
LAYER
  5
21F
100
AcDbSymbolTableRecord
100
AcDbLayerTableRecord
  2
0402_C_REF_70000_6
 70
0
 62
7
  6
CONTINUOUS
370
-3
390
F
  0
LAYER
  5
220
100
AcDbSymbolTableRecord
100
AcDbLayerTableRecord
  2
0402_C_REF_70000_7
 70
0
 62
7
  6
CONTINUOUS
370
-3
390
F
  0
LAYER
  5
221
100
AcDbSymbolTableRecord
100
AcDbLayerTableRecord
  2
0402_C_REF_70000_8
 70
0
 62
7
  6
CONTINUOUS
370
-3
390
F
  0
LAYER
  5
222
100
AcDbSymbolTableRecord
100
AcDbLayerTableRecord
  2
0402_C_REF_70000_9
 70
0
 62
7
  6
CONTINUOUS
370
-3
390
F
  0
LAYER
  5
223
100
AcDbSymbolTableRecord
100
AcDbLayerTableRecord
  2
0402_R_REF_30000
 70
0
 62
7
  6
CONTINUOUS
370
-3
390
F
  0
LAYER
  5
224
100
AcDbSymbolTableRecord
100
AcDbLayerTableRecord
  2
0402_R_REF_30000_1
 70
0
 62
7
  6
CONTINUOUS
370
-3
390
F
  0
LAYER
  5
225
100
AcDbSymbolTableRecord
100
AcDbLayerTableRecord
  2
0402_R_REF_30000_2
 70
0
 62
7
  6
CONTINUOUS
370
-3
390
F
  0
LAYER
  5
226
100
AcDbSymbolTableRecord
100
AcDbLayerTableRecord
  2
0402_R_REF_30000_3
 70
0
 62
7
  6
CONTINUOUS
370
-3
390
F
  0
LAYER
  5
227
100
AcDbSymbolTableRecord
100
AcDbLayerTableRecord
  2
0402_R_REF_30000_4
 70
0
 62
7
  6
CONTINUOUS
370
-3
390
F
  0
LAYER
  5
228
100
AcDbSymbolTableRecord
100
AcDbLayerTableRecord
  2
0402_R_REF_30000_5
 70
0
 62
7
  6
CONTINUOUS
370
-3
390
F
  0
LAYER
  5
229
100
AcDbSymbolTableRecord
100
AcDbLayerTableRecord
  2
0402_R_REF_30000_6
 70
0
 62
7
  6
CONTINUOUS
370
-3
390
F
  0
LAYER
  5
22A
100
AcDbSymbolTableRecord
100
AcDbLayerTableRecord
  2
0402_R_REF_30000_7
 70
0
 62
7
  6
CONTINUOUS
370
-3
390
F
  0
LAYER
  5
22B
100
AcDbSymbolTableRecord
100
AcDbLayerTableRecord
  2
0603_C_REF_90000
 70
0
 62
7
  6
CONTINUOUS
370
-3
390
F
  0
LAYER
  5
22C
100
AcDbSymbolTableRecord
100
AcDbLayerTableRecord
  2
0603_C_REF_90000_1
 70
0
 62
7
  6
CONTINUOUS
370
-3
390
F
  0
LAYER
  5
22D
100
AcDbSymbolTableRecord
100
AcDbLayerTableRecord
  2
0603_C_REF_90000_10
 70
0
 62
7
  6
CONTINUOUS
370
-3
390
F
  0
LAYER
  5
22E
100
AcDbSymbolTableRecord
100
AcDbLayerTableRecord
  2
0603_C_REF_90000_11
 70
0
 62
7
  6
CONTINUOUS
370
-3
390
F
  0
LAYER
  5
22F
100
AcDbSymbolTableRecord
100
AcDbLayerTableRecord
  2
0603_C_REF_90000_12
 70
0
 62
7
  6
CONTINUOUS
370
-3
390
F
  0
LAYER
  5
230
100
AcDbSymbolTableRecord
100
AcDbLayerTableRecord
  2
0603_C_REF_90000_13
 70
0
 62
7
  6
CONTINUOUS
370
-3
390
F
  0
LAYER
  5
231
100
AcDbSymbolTableRecord
100
AcDbLayerTableRecord
  2
0603_C_REF_90000_14
 70
0
 62
7
  6
CONTINUOUS
370
-3
390
F
  0
LAYER
  5
232
100
AcDbSymbolTableRecord
100
AcDbLayerTableRecord
  2
0603_C_REF_90000_15
 70
0
 62
7
  6
CONTINUOUS
370
-3
390
F
  0
LAYER
  5
233
100
AcDbSymbolTableRecord
100
AcDbLayerTableRecord
  2
0603_C_REF_90000_16
 70
0
 62
7
  6
CONTINUOUS
370
-3
390
F
  0
LAYER
  5
234
100
AcDbSymbolTableRecord
100
AcDbLayerTableRecord
  2
0603_C_REF_90000_17
 70
0
 62
7
  6
CONTINUOUS
370
-3
390
F
  0
LAYER
  5
235
100
AcDbSymbolTableRecord
100
AcDbLayerTableRecord
  2
0603_C_REF_90000_18
 70
0
 62
7
  6
CONTINUOUS
370
-3
390
F
  0
LAYER
  5
236
100
AcDbSymbolTableRecord
100
AcDbLayerTableRecord
  2
0603_C_REF_90000_19
 70
0
 62
7
  6
CONTINUOUS
370
-3
390
F
  0
LAYER
  5
237
100
AcDbSymbolTableRecord
100
AcDbLayerTableRecord
  2
0603_C_REF_90000_2
 70
0
 62
7
  6
CONTINUOUS
370
-3
390
F
  0
LAYER
  5
238
100
AcDbSymbolTableRecord
100
AcDbLayerTableRecord
  2
0603_C_REF_90000_20
 70
0
 62
7
  6
CONTINUOUS
370
-3
390
F
  0
LAYER
  5
239
100
AcDbSymbolTableRecord
100
AcDbLayerTableRecord
  2
0603_C_REF_90000_21
 70
0
 62
7
  6
CONTINUOUS
370
-3
390
F
  0
LAYER
  5
23A
100
AcDbSymbolTableRecord
100
AcDbLayerTableRecord
  2
0603_C_REF_90000_22
 70
0
 62
7
  6
CONTINUOUS
370
-3
390
F
  0
LAYER
  5
23B
100
AcDbSymbolTableRecord
100
AcDbLayerTableRecord
  2
0603_C_REF_90000_23
 70
0
 62
7
  6
CONTINUOUS
370
-3
390
F
  0
LAYER
  5
23C
100
AcDbSymbolTableRecord
100
AcDbLayerTableRecord
  2
0603_C_REF_90000_24
 70
0
 62
7
  6
CONTINUOUS
370
-3
390
F
  0
LAYER
  5
23D
100
AcDbSymbolTableRecord
100
AcDbLayerTableRecord
  2
0603_C_REF_90000_25
 70
0
 62
7
  6
CONTINUOUS
370
-3
390
F
  0
LAYER
  5
23E
100
AcDbSymbolTableRecord
100
AcDbLayerTableRecord
  2
0603_C_REF_90000_26
 70
0
 62
7
  6
CONTINUOUS
370
-3
390
F
  0
LAYER
  5
23F
100
AcDbSymbolTableRecord
100
AcDbLayerTableRecord
  2
0603_C_REF_90000_27
 70
0
 62
7
  6
CONTINUOUS
370
-3
390
F
  0
LAYER
  5
240
100
AcDbSymbolTableRecord
100
AcDbLayerTableRecord
  2
0603_C_REF_90000_28
 70
0
 62
7
  6
CONTINUOUS
370
-3
390
F
  0
LAYER
  5
241
100
AcDbSymbolTableRecord
100
AcDbLayerTableRecord
  2
0603_C_REF_90000_29
 70
0
 62
7
  6
CONTINUOUS
370
-3
390
F
  0
LAYER
  5
242
100
AcDbSymbolTableRecord
100
AcDbLayerTableRecord
  2
0603_C_REF_90000_3
 70
0
 62
7
  6
CONTINUOUS
370
-3
390
F
  0
LAYER
  5
243
100
AcDbSymbolTableRecord
100
AcDbLayerTableRecord
  2
0603_C_REF_90000_30
 70
0
 62
7
  6
CONTINUOUS
370
-3
390
F
  0
LAYER
  5
244
100
AcDbSymbolTableRecord
100
AcDbLayerTableRecord
  2
0603_C_REF_90000_31
 70
0
 62
7
  6
CONTINUOUS
370
-3
390
F
  0
LAYER
  5
245
100
AcDbSymbolTableRecord
100
AcDbLayerTableRecord
  2
0603_C_REF_90000_4
 70
0
 62
7
  6
CONTINUOUS
370
-3
390
F
  0
LAYER
  5
246
100
AcDbSymbolTableRecord
100
AcDbLayerTableRecord
  2
0603_C_REF_90000_5
 70
0
 62
7
  6
CONTINUOUS
370
-3
390
F
  0
LAYER
  5
247
100
AcDbSymbolTableRecord
100
AcDbLayerTableRecord
  2
0603_C_REF_90000_6
 70
0
 62
7
  6
CONTINUOUS
370
-3
390
F
  0
LAYER
  5
248
100
AcDbSymbolTableRecord
100
AcDbLayerTableRecord
  2
0603_C_REF_90000_7
 70
0
 62
7
  6
CONTINUOUS
370
-3
390
F
  0
LAYER
  5
249
100
AcDbSymbolTableRecord
100
AcDbLayerTableRecord
  2
0603_C_REF_90000_8
 70
0
 62
7
  6
CONTINUOUS
370
-3
390
F
  0
LAYER
  5
24A
100
AcDbSymbolTableRecord
100
AcDbLayerTableRecord
  2
0603_C_REF_90000_9
 70
0
 62
7
  6
CONTINUOUS
370
-3
390
F
  0
LAYER
  5
24B
100
AcDbSymbolTableRecord
100
AcDbLayerTableRecord
  2
0603_R_REF_55000
 70
0
 62
7
  6
CONTINUOUS
370
-3
390
F
  0
LAYER
  5
24C
100
AcDbSymbolTableRecord
100
AcDbLayerTableRecord
  2
0603_R_REF_55000_1
 70
0
 62
7
  6
CONTINUOUS
370
-3
390
F
  0
LAYER
  5
24D
100
AcDbSymbolTableRecord
100
AcDbLayerTableRecord
  2
0603_R_REF_55000_10
 70
0
 62
7
  6
CONTINUOUS
370
-3
390
F
  0
LAYER
  5
24E
100
AcDbSymbolTableRecord
100
AcDbLayerTableRecord
  2
0603_R_REF_55000_11
 70
0
 62
7
  6
CONTINUOUS
370
-3
390
F
  0
LAYER
  5
24F
100
AcDbSymbolTableRecord
100
AcDbLayerTableRecord
  2
0603_R_REF_55000_12
 70
0
 62
7
  6
CONTINUOUS
370
-3
390
F
  0
LAYER
  5
250
100
AcDbSymbolTableRecord
100
AcDbLayerTableRecord
  2
0603_R_REF_55000_13
 70
0
 62
7
  6
CONTINUOUS
370
-3
390
F
  0
LAYER
  5
251
100
AcDbSymbolTableRecord
100
AcDbLayerTableRecord
  2
0603_R_REF_55000_14
 70
0
 62
7
  6
CONTINUOUS
370
-3
390
F
  0
LAYER
  5
252
100
AcDbSymbolTableRecord
100
AcDbLayerTableRecord
  2
0603_R_REF_55000_15
 70
0
 62
7
  6
CONTINUOUS
370
-3
390
F
  0
LAYER
  5
253
100
AcDbSymbolTableRecord
100
AcDbLayerTableRecord
  2
0603_R_REF_55000_16
 70
0
 62
7
  6
CONTINUOUS
370
-3
390
F
  0
LAYER
  5
254
100
AcDbSymbolTableRecord
100
AcDbLayerTableRecord
  2
0603_R_REF_55000_17
 70
0
 62
7
  6
CONTINUOUS
370
-3
390
F
  0
LAYER
  5
255
100
AcDbSymbolTableRecord
100
AcDbLayerTableRecord
  2
0603_R_REF_55000_18
 70
0
 62
7
  6
CONTINUOUS
370
-3
390
F
  0
LAYER
  5
256
100
AcDbSymbolTableRecord
100
AcDbLayerTableRecord
  2
0603_R_REF_55000_19
 70
0
 62
7
  6
CONTINUOUS
370
-3
390
F
  0
LAYER
  5
257
100
AcDbSymbolTableRecord
100
AcDbLayerTableRecord
  2
0603_R_REF_55000_2
 70
0
 62
7
  6
CONTINUOUS
370
-3
390
F
  0
LAYER
  5
258
100
AcDbSymbolTableRecord
100
AcDbLayerTableRecord
  2
0603_R_REF_55000_20
 70
0
 62
7
  6
CONTINUOUS
370
-3
390
F
  0
LAYER
  5
259
100
AcDbSymbolTableRecord
100
AcDbLayerTableRecord
  2
0603_R_REF_55000_21
 70
0
 62
7
  6
CONTINUOUS
370
-3
390
F
  0
LAYER
  5
25A
100
AcDbSymbolTableRecord
100
AcDbLayerTableRecord
  2
0603_R_REF_55000_22
 70
0
 62
7
  6
CONTINUOUS
370
-3
390
F
  0
LAYER
  5
25B
100
AcDbSymbolTableRecord
100
AcDbLayerTableRecord
  2
0603_R_REF_55000_23
 70
0
 62
7
  6
CONTINUOUS
370
-3
390
F
  0
LAYER
  5
25C
100
AcDbSymbolTableRecord
100
AcDbLayerTableRecord
  2
0603_R_REF_55000_24
 70
0
 62
7
  6
CONTINUOUS
370
-3
390
F
  0
LAYER
  5
25D
100
AcDbSymbolTableRecord
100
AcDbLayerTableRecord
  2
0603_R_REF_55000_25
 70
0
 62
7
  6
CONTINUOUS
370
-3
390
F
  0
LAYER
  5
25E
100
AcDbSymbolTableRecord
100
AcDbLayerTableRecord
  2
0603_R_REF_55000_26
 70
0
 62
7
  6
CONTINUOUS
370
-3
390
F
  0
LAYER
  5
25F
100
AcDbSymbolTableRecord
100
AcDbLayerTableRecord
  2
0603_R_REF_55000_27
 70
0
 62
7
  6
CONTINUOUS
370
-3
390
F
  0
LAYER
  5
260
100
AcDbSymbolTableRecord
100
AcDbLayerTableRecord
  2
0603_R_REF_55000_28
 70
0
 62
7
  6
CONTINUOUS
370
-3
390
F
  0
LAYER
  5
261
100
AcDbSymbolTableRecord
100
AcDbLayerTableRecord
  2
0603_R_REF_55000_29
 70
0
 62
7
  6
CONTINUOUS
370
-3
390
F
  0
LAYER
  5
262
100
AcDbSymbolTableRecord
100
AcDbLayerTableRecord
  2
0603_R_REF_55000_3
 70
0
 62
7
  6
CONTINUOUS
370
-3
390
F
  0
LAYER
  5
263
100
AcDbSymbolTableRecord
100
AcDbLayerTableRecord
  2
0603_R_REF_55000_30
 70
0
 62
7
  6
CONTINUOUS
370
-3
390
F
  0
LAYER
  5
264
100
AcDbSymbolTableRecord
100
AcDbLayerTableRecord
  2
0603_R_REF_55000_31
 70
0
 62
7
  6
CONTINUOUS
370
-3
390
F
  0
LAYER
  5
265
100
AcDbSymbolTableRecord
100
AcDbLayerTableRecord
  2
0603_R_REF_55000_32
 70
0
 62
7
  6
CONTINUOUS
370
-3
390
F
  0
LAYER
  5
266
100
AcDbSymbolTableRecord
100
AcDbLayerTableRecord
  2
0603_R_REF_55000_33
 70
0
 62
7
  6
CONTINUOUS
370
-3
390
F
  0
LAYER
  5
267
100
AcDbSymbolTableRecord
100
AcDbLayerTableRecord
  2
0603_R_REF_55000_34
 70
0
 62
7
  6
CONTINUOUS
370
-3
390
F
  0
LAYER
  5
268
100
AcDbSymbolTableRecord
100
AcDbLayerTableRecord
  2
0603_R_REF_55000_35
 70
0
 62
7
  6
CONTINUOUS
370
-3
390
F
  0
LAYER
  5
269
100
AcDbSymbolTableRecord
100
AcDbLayerTableRecord
  2
0603_R_REF_55000_36
 70
0
 62
7
  6
CONTINUOUS
370
-3
390
F
  0
LAYER
  5
26A
100
AcDbSymbolTableRecord
100
AcDbLayerTableRecord
  2
0603_R_REF_55000_37
 70
0
 62
7
  6
CONTINUOUS
370
-3
390
F
  0
LAYER
  5
26B
100
AcDbSymbolTableRecord
100
AcDbLayerTableRecord
  2
0603_R_REF_55000_38
 70
0
 62
7
  6
CONTINUOUS
370
-3
390
F
  0
LAYER
  5
26C
100
AcDbSymbolTableRecord
100
AcDbLayerTableRecord
  2
0603_R_REF_55000_39
 70
0
 62
7
  6
CONTINUOUS
370
-3
390
F
  0
LAYER
  5
26D
100
AcDbSymbolTableRecord
100
AcDbLayerTableRecord
  2
0603_R_REF_55000_4
 70
0
 62
7
  6
CONTINUOUS
370
-3
390
F
  0
LAYER
  5
26E
100
AcDbSymbolTableRecord
100
AcDbLayerTableRecord
  2
0603_R_REF_55000_40
 70
0
 62
7
  6
CONTINUOUS
370
-3
390
F
  0
LAYER
  5
26F
100
AcDbSymbolTableRecord
100
AcDbLayerTableRecord
  2
0603_R_REF_55000_41
 70
0
 62
7
  6
CONTINUOUS
370
-3
390
F
  0
LAYER
  5
270
100
AcDbSymbolTableRecord
100
AcDbLayerTableRecord
  2
0603_R_REF_55000_42
 70
0
 62
7
  6
CONTINUOUS
370
-3
390
F
  0
LAYER
  5
271
100
AcDbSymbolTableRecord
100
AcDbLayerTableRecord
  2
0603_R_REF_55000_43
 70
0
 62
7
  6
CONTINUOUS
370
-3
390
F
  0
LAYER
  5
272
100
AcDbSymbolTableRecord
100
AcDbLayerTableRecord
  2
0603_R_REF_55000_44
 70
0
 62
7
  6
CONTINUOUS
370
-3
390
F
  0
LAYER
  5
273
100
AcDbSymbolTableRecord
100
AcDbLayerTableRecord
  2
0603_R_REF_55000_45
 70
0
 62
7
  6
CONTINUOUS
370
-3
390
F
  0
LAYER
  5
274
100
AcDbSymbolTableRecord
100
AcDbLayerTableRecord
  2
0603_R_REF_55000_46
 70
0
 62
7
  6
CONTINUOUS
370
-3
390
F
  0
LAYER
  5
275
100
AcDbSymbolTableRecord
100
AcDbLayerTableRecord
  2
0603_R_REF_55000_5
 70
0
 62
7
  6
CONTINUOUS
370
-3
390
F
  0
LAYER
  5
276
100
AcDbSymbolTableRecord
100
AcDbLayerTableRecord
  2
0603_R_REF_55000_6
 70
0
 62
7
  6
CONTINUOUS
370
-3
390
F
  0
LAYER
  5
277
100
AcDbSymbolTableRecord
100
AcDbLayerTableRecord
  2
0603_R_REF_55000_7
 70
0
 62
7
  6
CONTINUOUS
370
-3
390
F
  0
LAYER
  5
278
100
AcDbSymbolTableRecord
100
AcDbLayerTableRecord
  2
0603_R_REF_55000_8
 70
0
 62
7
  6
CONTINUOUS
370
-3
390
F
  0
LAYER
  5
279
100
AcDbSymbolTableRecord
100
AcDbLayerTableRecord
  2
0603_R_REF_55000_9
 70
0
 62
7
  6
CONTINUOUS
370
-3
390
F
  0
LAYER
  5
27A
100
AcDbSymbolTableRecord
100
AcDbLayerTableRecord
  2
06___PRT_ALL_SURFS
 70
0
 62
7
  6
CONTINUOUS
370
-3
390
F
  0
LAYER
  5
27B
100
AcDbSymbolTableRecord
100
AcDbLayerTableRecord
  2
06___PRT_ALL_SURFS_11
 70
0
 62
7
  6
CONTINUOUS
370
-3
390
F
  0
LAYER
  5
27C
100
AcDbSymbolTableRecord
100
AcDbLayerTableRecord
  2
06___PRT_ALL_SURFS_12
 70
0
 62
7
  6
CONTINUOUS
370
-3
390
F
  0
LAYER
  5
27D
100
AcDbSymbolTableRecord
100
AcDbLayerTableRecord
  2
06___PRT_ALL_SURFS_14
 70
0
 62
7
  6
CONTINUOUS
370
-3
390
F
  0
LAYER
  5
27E
100
AcDbSymbolTableRecord
100
AcDbLayerTableRecord
  2
06___PRT_ALL_SURFS_2
 70
0
 62
7
  6
CONTINUOUS
370
-3
390
F
  0
LAYER
  5
27F
100
AcDbSymbolTableRecord
100
AcDbLayerTableRecord
  2
06___PRT_ALL_SURFS_20
 70
0
 62
7
  6
CONTINUOUS
370
-3
390
F
  0
LAYER
  5
280
100
AcDbSymbolTableRecord
100
AcDbLayerTableRecord
  2
06___PRT_ALL_SURFS_21
 70
0
 62
7
  6
CONTINUOUS
370
-3
390
F
  0
LAYER
  5
281
100
AcDbSymbolTableRecord
100
AcDbLayerTableRecord
  2
06___PRT_ALL_SURFS_22
 70
0
 62
7
  6
CONTINUOUS
370
-3
390
F
  0
LAYER
  5
282
100
AcDbSymbolTableRecord
100
AcDbLayerTableRecord
  2
06___PRT_ALL_SURFS_28
 70
0
 62
7
  6
CONTINUOUS
370
-3
390
F
  0
LAYER
  5
283
100
AcDbSymbolTableRecord
100
AcDbLayerTableRecord
  2
06___PRT_ALL_SURFS_3
 70
0
 62
7
  6
CONTINUOUS
370
-3
390
F
  0
LAYER
  5
284
100
AcDbSymbolTableRecord
100
AcDbLayerTableRecord
  2
06___PRT_ALL_SURFS_39
 70
0
 62
7
  6
CONTINUOUS
370
-3
390
F
  0
LAYER
  5
285
100
AcDbSymbolTableRecord
100
AcDbLayerTableRecord
  2
06___PRT_ALL_SURFS_4
 70
0
 62
7
  6
CONTINUOUS
370
-3
390
F
  0
LAYER
  5
286
100
AcDbSymbolTableRecord
100
AcDbLayerTableRecord
  2
06___PRT_ALL_SURFS_5
 70
0
 62
7
  6
CONTINUOUS
370
-3
390
F
  0
LAYER
  5
287
100
AcDbSymbolTableRecord
100
AcDbLayerTableRecord
  2
06___PRT_ALL_SURFS_7
 70
0
 62
7
  6
CONTINUOUS
370
-3
390
F
  0
LAYER
  5
288
100
AcDbSymbolTableRecord
100
AcDbLayerTableRecord
  2
0805_C_REF_145000
 70
0
 62
7
  6
CONTINUOUS
370
-3
390
F
  0
LAYER
  5
289
100
AcDbSymbolTableRecord
100
AcDbLayerTableRecord
  2
0805_R_REF_60000
 70
0
 62
7
  6
CONTINUOUS
370
-3
390
F
  0
LAYER
  5
28A
100
AcDbSymbolTableRecord
100
AcDbLayerTableRecord
  2
0805_R_REF_60000_1
 70
0
 62
7
  6
CONTINUOUS
370
-3
390
F
  0
LAYER
  5
28B
100
AcDbSymbolTableRecord
100
AcDbLayerTableRecord
  2
0805_R_REF_60000_2
 70
0
 62
7
  6
CONTINUOUS
370
-3
390
F
  0
LAYER
  5
28C
100
AcDbSymbolTableRecord
100
AcDbLayerTableRecord
  2
0805_R_REF_60000_3
 70
0
 62
7
  6
CONTINUOUS
370
-3
390
F
  0
LAYER
  5
28D
100
AcDbSymbolTableRecord
100
AcDbLayerTableRecord
  2
0805_R_REF_60000_4
 70
0
 62
7
  6
CONTINUOUS
370
-3
390
F
  0
LAYER
  5
28E
100
AcDbSymbolTableRecord
100
AcDbLayerTableRecord
  2
0805_R_REF_60000_5
 70
0
 62
7
  6
CONTINUOUS
370
-3
390
F
  0
LAYER
  5
28F
100
AcDbSymbolTableRecord
100
AcDbLayerTableRecord
  2
0805_R_REF_60000_6
 70
0
 62
7
  6
CONTINUOUS
370
-3
390
F
  0
LAYER
  5
290
100
AcDbSymbolTableRecord
100
AcDbLayerTableRecord
  2
0805_R_REF_60000_7
 70
0
 62
7
  6
CONTINUOUS
370
-3
390
F
  0
LAYER
  5
291
100
AcDbSymbolTableRecord
100
AcDbLayerTableRecord
  2
1206_C_REF_180000
 70
0
 62
7
  6
CONTINUOUS
370
-3
390
F
  0
LAYER
  5
292
100
AcDbSymbolTableRecord
100
AcDbLayerTableRecord
  2
1206_C_REF_180000_1
 70
0
 62
7
  6
CONTINUOUS
370
-3
390
F
  0
LAYER
  5
293
100
AcDbSymbolTableRecord
100
AcDbLayerTableRecord
  2
133A_110000
 70
0
 62
7
  6
CONTINUOUS
370
-3
390
F
  0
LAYER
  5
294
100
AcDbSymbolTableRecord
100
AcDbLayerTableRecord
  2
133A_110000_1
 70
0
 62
7
  6
CONTINUOUS
370
-3
390
F
  0
LAYER
  5
295
100
AcDbSymbolTableRecord
100
AcDbLayerTableRecord
  2
1608-CC-RF-VIMAR_80000
 70
0
 62
7
  6
CONTINUOUS
370
-3
390
F
  0
LAYER
  5
296
100
AcDbSymbolTableRecord
100
AcDbLayerTableRecord
  2
1608-CC-RF-VIMAR_80000_1
 70
0
 62
7
  6
CONTINUOUS
370
-3
390
F
  0
LAYER
  5
297
100
AcDbSymbolTableRecord
100
AcDbLayerTableRecord
  2
1608-CC-RF-VIMAR_80000_10
 70
0
 62
7
  6
CONTINUOUS
370
-3
390
F
  0
LAYER
  5
298
100
AcDbSymbolTableRecord
100
AcDbLayerTableRecord
  2
1608-CC-RF-VIMAR_80000_2
 70
0
 62
7
  6
CONTINUOUS
370
-3
390
F
  0
LAYER
  5
299
100
AcDbSymbolTableRecord
100
AcDbLayerTableRecord
  2
1608-CC-RF-VIMAR_80000_3
 70
0
 62
7
  6
CONTINUOUS
370
-3
390
F
  0
LAYER
  5
29A
100
AcDbSymbolTableRecord
100
AcDbLayerTableRecord
  2
1608-CC-RF-VIMAR_80000_4
 70
0
 62
7
  6
CONTINUOUS
370
-3
390
F
  0
LAYER
  5
29B
100
AcDbSymbolTableRecord
100
AcDbLayerTableRecord
  2
1608-CC-RF-VIMAR_80000_5
 70
0
 62
7
  6
CONTINUOUS
370
-3
390
F
  0
LAYER
  5
29C
100
AcDbSymbolTableRecord
100
AcDbLayerTableRecord
  2
1608-CC-RF-VIMAR_80000_6
 70
0
 62
7
  6
CONTINUOUS
370
-3
390
F
  0
LAYER
  5
29D
100
AcDbSymbolTableRecord
100
AcDbLayerTableRecord
  2
1608-CC-RF-VIMAR_80000_7
 70
0
 62
7
  6
CONTINUOUS
370
-3
390
F
  0
LAYER
  5
29E
100
AcDbSymbolTableRecord
100
AcDbLayerTableRecord
  2
1608-CC-RF-VIMAR_80000_8
 70
0
 62
7
  6
CONTINUOUS
370
-3
390
F
  0
LAYER
  5
29F
100
AcDbSymbolTableRecord
100
AcDbLayerTableRecord
  2
1608-CC-RF-VIMAR_80000_9
 70
0
 62
7
  6
CONTINUOUS
370
-3
390
F
  0
LAYER
  5
2A0
100
AcDbSymbolTableRecord
100
AcDbLayerTableRecord
  2
210_120000
 70
0
 62
7
  6
CONTINUOUS
370
-3
390
F
  0
LAYER
  5
2A1
100
AcDbSymbolTableRecord
100
AcDbLayerTableRecord
  2
210_120000_1
 70
0
 62
7
  6
CONTINUOUS
370
-3
390
F
  0
LAYER
  5
2A2
100
AcDbSymbolTableRecord
100
AcDbLayerTableRecord
  2
210_120000_2
 70
0
 62
7
  6
CONTINUOUS
370
-3
390
F
  0
LAYER
  5
2A3
100
AcDbSymbolTableRecord
100
AcDbLayerTableRecord
  2
210_120000_3
 70
0
 62
7
  6
CONTINUOUS
370
-3
390
F
  0
LAYER
  5
2A4
100
AcDbSymbolTableRecord
100
AcDbLayerTableRecord
  2
2125-CC-RF-VIMAR_65000
 70
0
 62
7
  6
CONTINUOUS
370
-3
390
F
  0
LAYER
  5
2A5
100
AcDbSymbolTableRecord
100
AcDbLayerTableRecord
  2
2125-CC-RF-VIMAR_65000_1
 70
0
 62
7
  6
CONTINUOUS
370
-3
390
F
  0
LAYER
  5
2A6
100
AcDbSymbolTableRecord
100
AcDbLayerTableRecord
  2
2125-CC-RF-VIMAR_65000_2
 70
0
 62
7
  6
CONTINUOUS
370
-3
390
F
  0
LAYER
  5
2A7
100
AcDbSymbolTableRecord
100
AcDbLayerTableRecord
  2
2125-DL-RF-FINE_VIMAR_110000
 70
0
 62
7
  6
CONTINUOUS
370
-3
390
F
  0
LAYER
  5
2A8
100
AcDbSymbolTableRecord
100
AcDbLayerTableRecord
  2
2125-DL-RF-FINE_VIMAR_110000_1
 70
0
 62
7
  6
CONTINUOUS
370
-3
390
F
  0
LAYER
  5
2A9
100
AcDbSymbolTableRecord
100
AcDbLayerTableRecord
  2
2125-DL-RF-FINE_VIMAR_110000_2
 70
0
 62
7
  6
CONTINUOUS
370
-3
390
F
  0
LAYER
  5
2AA
100
AcDbSymbolTableRecord
100
AcDbLayerTableRecord
  2
2125-DL-RF-FINE_VIMAR_110000_3
 70
0
 62
7
  6
CONTINUOUS
370
-3
390
F
  0
LAYER
  5
2AB
100
AcDbSymbolTableRecord
100
AcDbLayerTableRecord
  2
2125-DL-RF-FINE_VIMAR_110000_4
 70
0
 62
7
  6
CONTINUOUS
370
-3
390
F
  0
LAYER
  5
2AC
100
AcDbSymbolTableRecord
100
AcDbLayerTableRecord
  2
2125-DL-RF-FINE_VIMAR_110000_5
 70
0
 62
7
  6
CONTINUOUS
370
-3
390
F
  0
LAYER
  5
2AD
100
AcDbSymbolTableRecord
100
AcDbLayerTableRecord
  2
2125-DL-RF-FINE_VIMAR_110000_6
 70
0
 62
7
  6
CONTINUOUS
370
-3
390
F
  0
LAYER
  5
2AE
100
AcDbSymbolTableRecord
100
AcDbLayerTableRecord
  2
2125-DL-RF-FINE_VIMAR_110000_7
 70
0
 62
7
  6
CONTINUOUS
370
-3
390
F
  0
LAYER
  5
2AF
100
AcDbSymbolTableRecord
100
AcDbLayerTableRecord
  2
2125-DL-RF-FINE_VIMAR_110000_8
 70
0
 62
7
  6
CONTINUOUS
370
-3
390
F
  0
LAYER
  5
2B0
100
AcDbSymbolTableRecord
100
AcDbLayerTableRecord
  2
2125-DL-RF-FINE_VIMAR_110000_9
 70
0
 62
7
  6
CONTINUOUS
370
-3
390
F
  0
LAYER
  5
2B1
100
AcDbSymbolTableRecord
100
AcDbLayerTableRecord
  2
243-131_850000
 70
0
 62
7
  6
CONTINUOUS
370
-3
390
F
  0
LAYER
  5
2B2
100
AcDbSymbolTableRecord
100
AcDbLayerTableRecord
  2
243-131_850000_1
 70
0
 62
7
  6
CONTINUOUS
370
-3
390
F
  0
LAYER
  5
2B3
100
AcDbSymbolTableRecord
100
AcDbLayerTableRecord
  2
2512_R_REF_65000
 70
0
 62
7
  6
CONTINUOUS
370
-3
390
F
  0
LAYER
  5
2B4
100
AcDbSymbolTableRecord
100
AcDbLayerTableRecord
  2
3216-R1-RF-VIMAR_60000
 70
0
 62
7
  6
CONTINUOUS
370
-3
390
F
  0
LAYER
  5
2B5
100
AcDbSymbolTableRecord
100
AcDbLayerTableRecord
  2
3216-R1-RF-VIMAR_60000_1
 70
0
 62
7
  6
CONTINUOUS
370
-3
390
F
  0
LAYER
  5
2B6
100
AcDbSymbolTableRecord
100
AcDbLayerTableRecord
  2
43000429A0
 70
0
 62
7
  6
CONTINUOUS
370
-3
390
F
  0
LAYER
  5
2B7
100
AcDbSymbolTableRecord
100
AcDbLayerTableRecord
  2
43000431A0
 70
0
 62
7
  6
CONTINUOUS
370
-3
390
F
  0
LAYER
  5
2B8
100
AcDbSymbolTableRecord
100
AcDbLayerTableRecord
  2
43000924B0
 70
0
 62
7
  6
CONTINUOUS
370
-3
390
F
  0
LAYER
  5
2B9
100
AcDbSymbolTableRecord
100
AcDbLayerTableRecord
  2
43000925B0
 70
0
 62
7
  6
CONTINUOUS
370
-3
390
F
  0
LAYER
  5
2BA
100
AcDbSymbolTableRecord
100
AcDbLayerTableRecord
  2
ASSI
 70
0
 62
7
  6
CONTINUOUS
370
-3
390
F
  0
LAYER
  5
2BB
100
AcDbSymbolTableRecord
100
AcDbLayerTableRecord
  2
CAP-E-SMD-8_3-8_0-10_0_1050000
 70
0
 62
7
  6
CONTINUOUS
370
-3
390
F
  0
LAYER
  5
2BC
100
AcDbSymbolTableRecord
100
AcDbLayerTableRecord
  2
CAPAE1700X1900N_1900000
 70
0
 62
7
  6
CONTINUOUS
370
-3
390
F
  0
LAYER
  5
2BD
100
AcDbSymbolTableRecord
100
AcDbLayerTableRecord
  2
CAPAE1700X1900N_1900000_1
 70
0
 62
7
  6
CONTINUOUS
370
-3
390
F
  0
LAYER
  5
2BE
100
AcDbSymbolTableRecord
100
AcDbLayerTableRecord
  2
CAPAE1700X1900N_1900000_2
 70
0
 62
7
  6
CONTINUOUS
370
-3
390
F
  0
LAYER
  5
2BF
100
AcDbSymbolTableRecord
100
AcDbLayerTableRecord
  2
CAPC1608N_80000
 70
0
 62
7
  6
CONTINUOUS
370
-3
390
F
  0
LAYER
  5
2C0
100
AcDbSymbolTableRecord
100
AcDbLayerTableRecord
  2
CAPC1608N_80000_1
 70
0
 62
7
  6
CONTINUOUS
370
-3
390
F
  0
LAYER
  5
2C1
100
AcDbSymbolTableRecord
100
AcDbLayerTableRecord
  2
CAPC1608N_80000_10
 70
0
 62
7
  6
CONTINUOUS
370
-3
390
F
  0
LAYER
  5
2C2
100
AcDbSymbolTableRecord
100
AcDbLayerTableRecord
  2
CAPC1608N_80000_11
 70
0
 62
7
  6
CONTINUOUS
370
-3
390
F
  0
LAYER
  5
2C3
100
AcDbSymbolTableRecord
100
AcDbLayerTableRecord
  2
CAPC1608N_80000_12
 70
0
 62
7
  6
CONTINUOUS
370
-3
390
F
  0
LAYER
  5
2C4
100
AcDbSymbolTableRecord
100
AcDbLayerTableRecord
  2
CAPC1608N_80000_13
 70
0
 62
7
  6
CONTINUOUS
370
-3
390
F
  0
LAYER
  5
2C5
100
AcDbSymbolTableRecord
100
AcDbLayerTableRecord
  2
CAPC1608N_80000_14
 70
0
 62
7
  6
CONTINUOUS
370
-3
390
F
  0
LAYER
  5
2C6
100
AcDbSymbolTableRecord
100
AcDbLayerTableRecord
  2
CAPC1608N_80000_15
 70
0
 62
7
  6
CONTINUOUS
370
-3
390
F
  0
LAYER
  5
2C7
100
AcDbSymbolTableRecord
100
AcDbLayerTableRecord
  2
CAPC1608N_80000_16
 70
0
 62
7
  6
CONTINUOUS
370
-3
390
F
  0
LAYER
  5
2C8
100
AcDbSymbolTableRecord
100
AcDbLayerTableRecord
  2
CAPC1608N_80000_17
 70
0
 62
7
  6
CONTINUOUS
370
-3
390
F
  0
LAYER
  5
2C9
100
AcDbSymbolTableRecord
100
AcDbLayerTableRecord
  2
CAPC1608N_80000_18
 70
0
 62
7
  6
CONTINUOUS
370
-3
390
F
  0
LAYER
  5
2CA
100
AcDbSymbolTableRecord
100
AcDbLayerTableRecord
  2
CAPC1608N_80000_19
 70
0
 62
7
  6
CONTINUOUS
370
-3
390
F
  0
LAYER
  5
2CB
100
AcDbSymbolTableRecord
100
AcDbLayerTableRecord
  2
CAPC1608N_80000_2
 70
0
 62
7
  6
CONTINUOUS
370
-3
390
F
  0
LAYER
  5
2CC
100
AcDbSymbolTableRecord
100
AcDbLayerTableRecord
  2
CAPC1608N_80000_20
 70
0
 62
7
  6
CONTINUOUS
370
-3
390
F
  0
LAYER
  5
2CD
100
AcDbSymbolTableRecord
100
AcDbLayerTableRecord
  2
CAPC1608N_80000_21
 70
0
 62
7
  6
CONTINUOUS
370
-3
390
F
  0
LAYER
  5
2CE
100
AcDbSymbolTableRecord
100
AcDbLayerTableRecord
  2
CAPC1608N_80000_3
 70
0
 62
7
  6
CONTINUOUS
370
-3
390
F
  0
LAYER
  5
2CF
100
AcDbSymbolTableRecord
100
AcDbLayerTableRecord
  2
CAPC1608N_80000_4
 70
0
 62
7
  6
CONTINUOUS
370
-3
390
F
  0
LAYER
  5
2D0
100
AcDbSymbolTableRecord
100
AcDbLayerTableRecord
  2
CAPC1608N_80000_5
 70
0
 62
7
  6
CONTINUOUS
370
-3
390
F
  0
LAYER
  5
2D1
100
AcDbSymbolTableRecord
100
AcDbLayerTableRecord
  2
CAPC1608N_80000_6
 70
0
 62
7
  6
CONTINUOUS
370
-3
390
F
  0
LAYER
  5
2D2
100
AcDbSymbolTableRecord
100
AcDbLayerTableRecord
  2
CAPC1608N_80000_7
 70
0
 62
7
  6
CONTINUOUS
370
-3
390
F
  0
LAYER
  5
2D3
100
AcDbSymbolTableRecord
100
AcDbLayerTableRecord
  2
CAPC1608N_80000_8
 70
0
 62
7
  6
CONTINUOUS
370
-3
390
F
  0
LAYER
  5
2D4
100
AcDbSymbolTableRecord
100
AcDbLayerTableRecord
  2
CAPC1608N_80000_9
 70
0
 62
7
  6
CONTINUOUS
370
-3
390
F
  0
LAYER
  5
2D5
100
AcDbSymbolTableRecord
100
AcDbLayerTableRecord
  2
CN-1S-HEADER-PIH-1_254000
 70
0
 62
7
  6
CONTINUOUS
370
-3
390
F
  0
LAYER
  5
2D6
100
AcDbSymbolTableRecord
100
AcDbLayerTableRecord
  2
CN-1S-HEADER-PIH-1_254000_1
 70
0
 62
7
  6
CONTINUOUS
370
-3
390
F
  0
LAYER
  5
2D7
100
AcDbSymbolTableRecord
100
AcDbLayerTableRecord
  2
CN-1S-HEADER-PIH-1_254000_2
 70
0
 62
7
  6
CONTINUOUS
370
-3
390
F
  0
LAYER
  5
2D8
100
AcDbSymbolTableRecord
100
AcDbLayerTableRecord
  2
CN-1S-HEADER-PIH-1_254000_3
 70
0
 62
7
  6
CONTINUOUS
370
-3
390
F
  0
LAYER
  5
2D9
100
AcDbSymbolTableRecord
100
AcDbLayerTableRecord
  2
CN-1S-HEADER-PIH-1_254000_4
 70
0
 62
7
  6
CONTINUOUS
370
-3
390
F
  0
LAYER
  5
2DA
100
AcDbSymbolTableRecord
100
AcDbLayerTableRecord
  2
CN-1S-HEADER-PIH-1_254000_5
 70
0
 62
7
  6
CONTINUOUS
370
-3
390
F
  0
LAYER
  5
2DB
100
AcDbSymbolTableRecord
100
AcDbLayerTableRecord
  2
CN-1S-HEADER-PIH-1_254000_6
 70
0
 62
7
  6
CONTINUOUS
370
-3
390
F
  0
LAYER
  5
2DC
100
AcDbSymbolTableRecord
100
AcDbLayerTableRecord
  2
CN-1S-HEADER-PIH-1_254000_7
 70
0
 62
7
  6
CONTINUOUS
370
-3
390
F
  0
LAYER
  5
2DD
100
AcDbSymbolTableRecord
100
AcDbLayerTableRecord
  2
CN-243-VIMAR_850000
 70
0
 62
7
  6
CONTINUOUS
370
-3
390
F
  0
LAYER
  5
2DE
100
AcDbSymbolTableRecord
100
AcDbLayerTableRecord
  2
CN-243-VIMAR_850000_1
 70
0
 62
7
  6
CONTINUOUS
370
-3
390
F
  0
LAYER
  5
2DF
100
AcDbSymbolTableRecord
100
AcDbLayerTableRecord
  2
CN-MRT4P5_2-VIMAR_1750000
 70
0
 62
7
  6
CONTINUOUS
370
-3
390
F
  0
LAYER
  5
2E0
100
AcDbSymbolTableRecord
100
AcDbLayerTableRecord
  2
CN-MRT4P5_2-VIMAR_1750000_1
 70
0
 62
7
  6
CONTINUOUS
370
-3
390
F
  0
LAYER
  5
2E1
100
AcDbSymbolTableRecord
100
AcDbLayerTableRecord
  2
CN-MRT4P5_2-VIMAR_1750000_2
 70
0
 62
7
  6
CONTINUOUS
370
-3
390
F
  0
LAYER
  5
2E2
100
AcDbSymbolTableRecord
100
AcDbLayerTableRecord
  2
CN-MRT4P5_2-VIMAR_1750000_3
 70
0
 62
7
  6
CONTINUOUS
370
-3
390
F
  0
LAYER
  5
2E3
100
AcDbSymbolTableRecord
100
AcDbLayerTableRecord
  2
CN-MRT4P5_3-VIMAR_1750000
 70
0
 62
7
  6
CONTINUOUS
370
-3
390
F
  0
LAYER
  5
2E4
100
AcDbSymbolTableRecord
100
AcDbLayerTableRecord
  2
CN-MRT4P5_3-VIMAR_1750000_1
 70
0
 62
7
  6
CONTINUOUS
370
-3
390
F
  0
LAYER
  5
2E5
100
AcDbSymbolTableRecord
100
AcDbLayerTableRecord
  2
CN-MRT4P5_3-VIMAR_1750000_2
 70
0
 62
7
  6
CONTINUOUS
370
-3
390
F
  0
LAYER
  5
2E6
100
AcDbSymbolTableRecord
100
AcDbLayerTableRecord
  2
CN-MRT4P5_3-VIMAR_1750000_3
 70
0
 62
7
  6
CONTINUOUS
370
-3
390
F
  0
LAYER
  5
2E7
100
AcDbSymbolTableRecord
100
AcDbLayerTableRecord
  2
CN1-AUTOTRONIK_REF_POINT_CROCE-
 70
0
 62
7
  6
CONTINUOUS
370
-3
390
F
  0
LAYER
  5
2E8
100
AcDbSymbolTableRecord
100
AcDbLayerTableRecord
  2
CN1-AUTOTRONIK_REF_POINT_CROC_1
 70
0
 62
7
  6
CONTINUOUS
370
-3
390
F
  0
LAYER
  5
2E9
100
AcDbSymbolTableRecord
100
AcDbLayerTableRecord
  2
CN1-AUTOTRONIK_REF_POINT_CROC_2
 70
0
 62
7
  6
CONTINUOUS
370
-3
390
F
  0
LAYER
  5
2EA
100
AcDbSymbolTableRecord
100
AcDbLayerTableRecord
  2
CN1-AUTOTRONIK_REF_POINT_CROC_3
 70
0
 62
7
  6
CONTINUOUS
370
-3
390
F
  0
LAYER
  5
2EB
100
AcDbSymbolTableRecord
100
AcDbLayerTableRecord
  2
CN_M_THT_P5_R1_P2_SET_1750000
 70
0
 62
7
  6
CONTINUOUS
370
-3
390
F
  0
LAYER
  5
2EC
100
AcDbSymbolTableRecord
100
AcDbLayerTableRecord
  2
CN_M_THT_P5_R1_P2_SET_1750000_1
 70
0
 62
7
  6
CONTINUOUS
370
-3
390
F
  0
LAYER
  5
2ED
100
AcDbSymbolTableRecord
100
AcDbLayerTableRecord
  2
CN_M_THT_P5_R1_P2_SET_1750000_2
 70
0
 62
7
  6
CONTINUOUS
370
-3
390
F
  0
LAYER
  5
2EE
100
AcDbSymbolTableRecord
100
AcDbLayerTableRecord
  2
CN_M_THT_P5_R1_P2_SET_1750000_3
 70
0
 62
7
  6
CONTINUOUS
370
-3
390
F
  0
LAYER
  5
2EF
100
AcDbSymbolTableRecord
100
AcDbLayerTableRecord
  2
CN_M_THT_P5_R1_P3_SET_1750000
 70
0
 62
7
  6
CONTINUOUS
370
-3
390
F
  0
LAYER
  5
2F0
100
AcDbSymbolTableRecord
100
AcDbLayerTableRecord
  2
CN_M_THT_P5_R1_P3_SET_1750000_1
 70
0
 62
7
  6
CONTINUOUS
370
-3
390
F
  0
LAYER
  5
2F1
100
AcDbSymbolTableRecord
100
AcDbLayerTableRecord
  2
CN_M_THT_P5_R1_P3_SET_1750000_2
 70
0
 62
7
  6
CONTINUOUS
370
-3
390
F
  0
LAYER
  5
2F2
100
AcDbSymbolTableRecord
100
AcDbLayerTableRecord
  2
CN_M_THT_P5_R1_P3_SET_1750000_3
 70
0
 62
7
  6
CONTINUOUS
370
-3
390
F
  0
LAYER
  5
2F3
100
AcDbSymbolTableRecord
100
AcDbLayerTableRecord
  2
COLOR1
 70
0
 62
7
  6
CONTINUOUS
370
-3
390
F
  0
LAYER
  5
2F4
100
AcDbSymbolTableRecord
100
AcDbLayerTableRecord
  2
COLOR14
 70
0
 62
7
  6
CONTINUOUS
370
-3
390
F
  0
LAYER
  5
2F5
100
AcDbSymbolTableRecord
100
AcDbLayerTableRecord
  2
COLOR15
 70
0
 62
7
  6
CONTINUOUS
370
-3
390
F
  0
LAYER
  5
2F6
100
AcDbSymbolTableRecord
100
AcDbLayerTableRecord
  2
COLOR16
 70
0
 62
7
  6
CONTINUOUS
370
-3
390
F
  0
LAYER
  5
2F7
100
AcDbSymbolTableRecord
100
AcDbLayerTableRecord
  2
COLOR3
 70
0
 62
7
  6
CONTINUOUS
370
-3
390
F
  0
LAYER
  5
2F8
100
AcDbSymbolTableRecord
100
AcDbLayerTableRecord
  2
COLOR5
 70
0
 62
7
  6
CONTINUOUS
370
-3
390
F
  0
LAYER
  5
2F9
100
AcDbSymbolTableRecord
100
AcDbLayerTableRecord
  2
COORDINATE
 70
0
 62
7
  6
CONTINUOUS
370
-3
390
F
  0
LAYER
  5
2FA
100
AcDbSymbolTableRecord
100
AcDbLayerTableRecord
  2
COORD_ORIGINE
 70
0
 62
7
  6
CONTINUOUS
370
-3
390
F
  0
LAYER
  5
2FB
100
AcDbSymbolTableRecord
100
AcDbLayerTableRecord
  2
COPY_PUBLISH
 70
0
 62
7
  6
CONTINUOUS
370
-3
390
F
  0
LAYER
  5
2FC
100
AcDbSymbolTableRecord
100
AcDbLayerTableRecord
  2
COSMETIC
 70
0
 62
7
  6
CONTINUOUS
370
-3
390
F
  0
LAYER
  5
2FD
100
AcDbSymbolTableRecord
100
AcDbLayerTableRecord
  2
CP-DO-214AA-VIMAR_240000
 70
0
 62
7
  6
CONTINUOUS
370
-3
390
F
  0
LAYER
  5
2FE
100
AcDbSymbolTableRecord
100
AcDbLayerTableRecord
  2
CP-DO-214AA-VIMAR_240000_1
 70
0
 62
7
  6
CONTINUOUS
370
-3
390
F
  0
LAYER
  5
2FF
100
AcDbSymbolTableRecord
100
AcDbLayerTableRecord
  2
CP-DO-214AA-VIMAR_240000_2
 70
0
 62
7
  6
CONTINUOUS
370
-3
390
F
  0
LAYER
  5
300
100
AcDbSymbolTableRecord
100
AcDbLayerTableRecord
  2
CP-DO-214AA-VIMAR_240000_3
 70
0
 62
7
  6
CONTINUOUS
370
-3
390
F
  0
LAYER
  5
301
100
AcDbSymbolTableRecord
100
AcDbLayerTableRecord
  2
CR_MR2P5_CSMH020A1_TET_SW_STH_9
 70
0
 62
7
  6
CONTINUOUS
370
-3
390
F
  0
LAYER
  5
302
100
AcDbSymbolTableRecord
100
AcDbLayerTableRecord
  2
CURVE
 70
0
 62
7
  6
CONTINUOUS
370
-3
390
F
  0
LAYER
  5
303
100
AcDbSymbolTableRecord
100
AcDbLayerTableRecord
  2
DATAMATRIX_RESIST_10000
 70
0
 62
7
  6
CONTINUOUS
370
-3
390
F
  0
LAYER
  5
304
100
AcDbSymbolTableRecord
100
AcDbLayerTableRecord
  2
DATAMATRIX_RESIST_10000_1
 70
0
 62
7
  6
CONTINUOUS
370
-3
390
F
  0
LAYER
  5
305
100
AcDbSymbolTableRecord
100
AcDbLayerTableRecord
  2
DRAFT
 70
0
 62
7
  6
CONTINUOUS
370
-3
390
F
  0
LAYER
  5
306
100
AcDbSymbolTableRecord
100
AcDbLayerTableRecord
  2
E2_MARK_10000
 70
0
 62
7
  6
CONTINUOUS
370
-3
390
F
  0
LAYER
  5
307
100
AcDbSymbolTableRecord
100
AcDbLayerTableRecord
  2
E2_MARK_10000_1
 70
0
 62
7
  6
CONTINUOUS
370
-3
390
F
  0
LAYER
  5
308
100
AcDbSymbolTableRecord
100
AcDbLayerTableRecord
  2
ECAD_133A_110000
 70
0
 62
7
  6
CONTINUOUS
370
-3
390
F
  0
LAYER
  5
309
100
AcDbSymbolTableRecord
100
AcDbLayerTableRecord
  2
ECAD_1608-CC-RF-VIMAR_80000
 70
0
 62
7
  6
CONTINUOUS
370
-3
390
F
  0
LAYER
  5
30A
100
AcDbSymbolTableRecord
100
AcDbLayerTableRecord
  2
ECAD_210_120000
 70
0
 62
7
  6
CONTINUOUS
370
-3
390
F
  0
LAYER
  5
30B
100
AcDbSymbolTableRecord
100
AcDbLayerTableRecord
  2
ECAD_2125-CC-RF-VIMAR_65000
 70
0
 62
7
  6
CONTINUOUS
370
-3
390
F
  0
LAYER
  5
30C
100
AcDbSymbolTableRecord
100
AcDbLayerTableRecord
  2
ECAD_2125-DL-RF-FINE_VIMAR_1100
 70
0
 62
7
  6
CONTINUOUS
370
-3
390
F
  0
LAYER
  5
30D
100
AcDbSymbolTableRecord
100
AcDbLayerTableRecord
  2
ECAD_3216-CF-RF-VIMAR_100000
 70
0
 62
7
  6
CONTINUOUS
370
-3
390
F
  0
LAYER
  5
30E
100
AcDbSymbolTableRecord
100
AcDbLayerTableRecord
  2
ECAD_3216-CS2-RF_1_180000
 70
0
 62
7
  6
CONTINUOUS
370
-3
390
F
  0
LAYER
  5
30F
100
AcDbSymbolTableRecord
100
AcDbLayerTableRecord
  2
ECAD_3216-R1-RF-VIMAR_60000
 70
0
 62
7
  6
CONTINUOUS
370
-3
390
F
  0
LAYER
  5
310
100
AcDbSymbolTableRecord
100
AcDbLayerTableRecord
  2
ECAD_CAPAE1700X1900N_1900000
 70
0
 62
7
  6
CONTINUOUS
370
-3
390
F
  0
LAYER
  5
311
100
AcDbSymbolTableRecord
100
AcDbLayerTableRecord
  2
ECAD_CAPC1608N_80000
 70
0
 62
7
  6
CONTINUOUS
370
-3
390
F
  0
LAYER
  5
312
100
AcDbSymbolTableRecord
100
AcDbLayerTableRecord
  2
ECAD_CN-1S-HEADER-PIH-1_254000
 70
0
 62
7
  6
CONTINUOUS
370
-3
390
F
  0
LAYER
  5
313
100
AcDbSymbolTableRecord
100
AcDbLayerTableRecord
  2
ECAD_CN-243-VIMAR_850000
 70
0
 62
7
  6
CONTINUOUS
370
-3
390
F
  0
LAYER
  5
314
100
AcDbSymbolTableRecord
100
AcDbLayerTableRecord
  2
ECAD_CN-MRT4P5_2-VIMAR_1750000
 70
0
 62
7
  6
CONTINUOUS
370
-3
390
F
  0
LAYER
  5
315
100
AcDbSymbolTableRecord
100
AcDbLayerTableRecord
  2
ECAD_CN-MRT4P5_3-VIMAR_1750000
 70
0
 62
7
  6
CONTINUOUS
370
-3
390
F
  0
LAYER
  5
316
100
AcDbSymbolTableRecord
100
AcDbLayerTableRecord
  2
ECAD_CN1-AUTOTRONIK_REF_POINT_C
 70
0
 62
7
  6
CONTINUOUS
370
-3
390
F
  0
LAYER
  5
317
100
AcDbSymbolTableRecord
100
AcDbLayerTableRecord
  2
ECAD_CN9-FSN-1_2500000
 70
0
 62
7
  6
CONTINUOUS
370
-3
390
F
  0
LAYER
  5
318
100
AcDbSymbolTableRecord
100
AcDbLayerTableRecord
  2
ECAD_CP-CE10-RF-VIMAR_630000
 70
0
 62
7
  6
CONTINUOUS
370
-3
390
F
  0
LAYER
  5
319
100
AcDbSymbolTableRecord
100
AcDbLayerTableRecord
  2
ECAD_CP-CE4-RF_550000
 70
0
 62
7
  6
CONTINUOUS
370
-3
390
F
  0
LAYER
  5
31A
100
AcDbSymbolTableRecord
100
AcDbLayerTableRecord
  2
ECAD_CP-CE8-RF-FINE-VIMAR_10800
 70
0
 62
7
  6
CONTINUOUS
370
-3
390
F
  0
LAYER
  5
31B
100
AcDbSymbolTableRecord
100
AcDbLayerTableRecord
  2
ECAD_CP-DO-214AA-VIMAR_240000
 70
0
 62
7
  6
CONTINUOUS
370
-3
390
F
  0
LAYER
  5
31C
100
AcDbSymbolTableRecord
100
AcDbLayerTableRecord
  2
ECAD_CP-DO-214AC-VIMAR_240000
 70
0
 62
7
  6
CONTINUOUS
370
-3
390
F
  0
LAYER
  5
31D
100
AcDbSymbolTableRecord
100
AcDbLayerTableRecord
  2
ECAD_LOGO_RESIST-RESTYLING_1000
 70
0
 62
7
  6
CONTINUOUS
370
-3
390
F
  0
LAYER
  5
31E
100
AcDbSymbolTableRecord
100
AcDbLayerTableRecord
  2
ECAD_L_SRR0604-RF-VIMAR_480000
 70
0
 62
7
  6
CONTINUOUS
370
-3
390
F
  0
LAYER
  5
31F
100
AcDbSymbolTableRecord
100
AcDbLayerTableRecord
  2
ECAD_MM2-SWITCH-1-VIMAR_150000
 70
0
 62
7
  6
CONTINUOUS
370
-3
390
F
  0
LAYER
  5
320
100
AcDbSymbolTableRecord
100
AcDbLayerTableRecord
  2
ECAD_MM3-MPAK-RF-VIMAR_120000
 70
0
 62
7
  6
CONTINUOUS
370
-3
390
F
  0
LAYER
  5
321
100
AcDbSymbolTableRecord
100
AcDbLayerTableRecord
  2
ECAD_MM3-X-5-VIMAR_70000
 70
0
 62
7
  6
CONTINUOUS
370
-3
390
F
  0
LAYER
  5
322
100
AcDbSymbolTableRecord
100
AcDbLayerTableRecord
  2
ECAD_MM4-SWITCH-8-VIMAR_500000
 70
0
 62
7
  6
CONTINUOUS
370
-3
390
F
  0
LAYER
  5
323
100
AcDbSymbolTableRecord
100
AcDbLayerTableRecord
  2
ECAD_MM4-SWITCH-9-VIMAR_290000
 70
0
 62
7
  6
CONTINUOUS
370
-3
390
F
  0
LAYER
  5
324
100
AcDbSymbolTableRecord
100
AcDbLayerTableRecord
  2
ECAD_MM5-FMT-RF_120000
 70
0
 62
7
  6
CONTINUOUS
370
-3
390
F
  0
LAYER
  5
325
100
AcDbSymbolTableRecord
100
AcDbLayerTableRecord
  2
ECAD_MM6-SC70-1-VIMAR_110000
 70
0
 62
7
  6
CONTINUOUS
370
-3
390
F
  0
LAYER
  5
326
100
AcDbSymbolTableRecord
100
AcDbLayerTableRecord
  2
ECAD_NO-PB_MARK_10000
 70
0
 62
7
  6
CONTINUOUS
370
-3
390
F
  0
LAYER
  5
327
100
AcDbSymbolTableRecord
100
AcDbLayerTableRecord
  2
ECAD_QFP50P1200X1200X120-64N_12
 70
0
 62
7
  6
CONTINUOUS
370
-3
390
F
  0
LAYER
  5
328
100
AcDbSymbolTableRecord
100
AcDbLayerTableRecord
  2
ECAD_RESC1608N_45000
 70
0
 62
7
  6
CONTINUOUS
370
-3
390
F
  0
LAYER
  5
329
100
AcDbSymbolTableRecord
100
AcDbLayerTableRecord
  2
ECAD_RESC6432X70N_70000
 70
0
 62
7
  6
CONTINUOUS
370
-3
390
F
  0
LAYER
  5
32A
100
AcDbSymbolTableRecord
100
AcDbLayerTableRecord
  2
ECAD_RY-S13-2_0-VIMAR_1570000
 70
0
 62
7
  6
CONTINUOUS
370
-3
390
F
  0
LAYER
  5
32B
100
AcDbSymbolTableRecord
100
AcDbLayerTableRecord
  2
ECAD_SOP16-F1-RF-VIMAR_310000
 70
0
 62
7
  6
CONTINUOUS
370
-3
390
F
  0
LAYER
  5
32C
100
AcDbSymbolTableRecord
100
AcDbLayerTableRecord
  2
ECAD_SOP16-TI1-RF-VIMAR_180000
 70
0
 62
7
  6
CONTINUOUS
370
-3
390
F
  0
LAYER
  5
32D
100
AcDbSymbolTableRecord
100
AcDbLayerTableRecord
  2
ECAD_SOP20-1-VIMAR_270000
 70
0
 62
7
  6
CONTINUOUS
370
-3
390
F
  0
LAYER
  5
32E
100
AcDbSymbolTableRecord
100
AcDbLayerTableRecord
  2
ECAD_SOT95P280X110-6N_110000
 70
0
 62
7
  6
CONTINUOUS
370
-3
390
F
  0
LAYER
  5
32F
100
AcDbSymbolTableRecord
100
AcDbLayerTableRecord
  2
FIDUCIAL_1MM_0
 70
0
 62
7
  6
CONTINUOUS
370
-3
390
F
  0
LAYER
  5
330
100
AcDbSymbolTableRecord
100
AcDbLayerTableRecord
  2
FIDUCIAL_1MM_0_1
 70
0
 62
7
  6
CONTINUOUS
370
-3
390
F
  0
LAYER
  5
331
100
AcDbSymbolTableRecord
100
AcDbLayerTableRecord
  2
FIDUCIAL_1MM_0_2
 70
0
 62
7
  6
CONTINUOUS
370
-3
390
F
  0
LAYER
  5
332
100
AcDbSymbolTableRecord
100
AcDbLayerTableRecord
  2
FIDUCIAL_1MM_0_3
 70
0
 62
7
  6
CONTINUOUS
370
-3
390
F
  0
LAYER
  5
333
100
AcDbSymbolTableRecord
100
AcDbLayerTableRecord
  2
FIDUCIAL_1_2_MM_RUOTATO_45_1000
 70
0
 62
7
  6
CONTINUOUS
370
-3
390
F
  0
LAYER
  5
334
100
AcDbSymbolTableRecord
100
AcDbLayerTableRecord
  2
FIDUCIAL_1_2_MM_RUOTATO_45_10_1
 70
0
 62
7
  6
CONTINUOUS
370
-3
390
F
  0
LAYER
  5
335
100
AcDbSymbolTableRecord
100
AcDbLayerTableRecord
  2
FIDUCIAL_1_2_MM_RUOTATO_45_10_2
 70
0
 62
7
  6
CONTINUOUS
370
-3
390
F
  0
LAYER
  5
336
100
AcDbSymbolTableRecord
100
AcDbLayerTableRecord
  2
FIDUCIAL_1_2_MM_RUOTATO_45_10_3
 70
0
 62
7
  6
CONTINUOUS
370
-3
390
F
  0
LAYER
  5
337
100
AcDbSymbolTableRecord
100
AcDbLayerTableRecord
  2
GEOMETRIA_SOLIDA
 70
0
 62
7
  6
CONTINUOUS
370
-3
390
F
  0
LAYER
  5
338
100
AcDbSymbolTableRecord
100
AcDbLayerTableRecord
  2
GEOMETRIA_SOLIDA_1
 70
0
 62
7
  6
CONTINUOUS
370
-3
390
F
  0
LAYER
  5
339
100
AcDbSymbolTableRecord
100
AcDbLayerTableRecord
  2
GEOMETRIA_SOLIDA_10
 70
0
 62
7
  6
CONTINUOUS
370
-3
390
F
  0
LAYER
  5
33A
100
AcDbSymbolTableRecord
100
AcDbLayerTableRecord
  2
GEOMETRIA_SOLIDA_11
 70
0
 62
7
  6
CONTINUOUS
370
-3
390
F
  0
LAYER
  5
33B
100
AcDbSymbolTableRecord
100
AcDbLayerTableRecord
  2
GEOMETRIA_SOLIDA_2
 70
0
 62
7
  6
CONTINUOUS
370
-3
390
F
  0
LAYER
  5
33C
100
AcDbSymbolTableRecord
100
AcDbLayerTableRecord
  2
GEOMETRIA_SOLIDA_3
 70
0
 62
7
  6
CONTINUOUS
370
-3
390
F
  0
LAYER
  5
33D
100
AcDbSymbolTableRecord
100
AcDbLayerTableRecord
  2
GEOMETRIA_SOLIDA_4
 70
0
 62
7
  6
CONTINUOUS
370
-3
390
F
  0
LAYER
  5
33E
100
AcDbSymbolTableRecord
100
AcDbLayerTableRecord
  2
GEOMETRIA_SOLIDA_5
 70
0
 62
7
  6
CONTINUOUS
370
-3
390
F
  0
LAYER
  5
33F
100
AcDbSymbolTableRecord
100
AcDbLayerTableRecord
  2
GEOMETRIA_SOLIDA_6
 70
0
 62
7
  6
CONTINUOUS
370
-3
390
F
  0
LAYER
  5
340
100
AcDbSymbolTableRecord
100
AcDbLayerTableRecord
  2
GEOMETRIA_SOLIDA_7
 70
0
 62
7
  6
CONTINUOUS
370
-3
390
F
  0
LAYER
  5
341
100
AcDbSymbolTableRecord
100
AcDbLayerTableRecord
  2
GEOMETRIA_SOLIDA_8
 70
0
 62
7
  6
CONTINUOUS
370
-3
390
F
  0
LAYER
  5
342
100
AcDbSymbolTableRecord
100
AcDbLayerTableRecord
  2
GEOMETRIA_SOLIDA_9
 70
0
 62
7
  6
CONTINUOUS
370
-3
390
F
  0
LAYER
  5
343
100
AcDbSymbolTableRecord
100
AcDbLayerTableRecord
  2
IGES_HOLGER
 70
0
 62
7
  6
CONTINUOUS
370
-3
390
F
  0
LAYER
  5
344
100
AcDbSymbolTableRecord
100
AcDbLayerTableRecord
  2
IMPORT_IGES
 70
0
 62
7
  6
CONTINUOUS
370
-3
390
F
  0
LAYER
  5
345
100
AcDbSymbolTableRecord
100
AcDbLayerTableRecord
  2
IND-CHIP-0504-H4_5_450000
 70
0
 62
7
  6
CONTINUOUS
370
-3
390
F
  0
LAYER
  5
346
100
AcDbSymbolTableRecord
100
AcDbLayerTableRecord
  2
IND-CHIP-0603-H1_0_REF_100000
 70
0
 62
7
  6
CONTINUOUS
370
-3
390
F
  0
LAYER
  5
347
100
AcDbSymbolTableRecord
100
AcDbLayerTableRecord
  2
IND-CHIP-0603-H1_0_REF_100000_1
 70
0
 62
7
  6
CONTINUOUS
370
-3
390
F
  0
LAYER
  5
348
100
AcDbSymbolTableRecord
100
AcDbLayerTableRecord
  2
IND-CHIP-1206-H1_8_REF_200000
 70
0
 62
7
  6
CONTINUOUS
370
-3
390
F
  0
LAYER
  5
349
100
AcDbSymbolTableRecord
100
AcDbLayerTableRecord
  2
IND-CHIP-1206-H1_8_REF_200000_1
 70
0
 62
7
  6
CONTINUOUS
370
-3
390
F
  0
LAYER
  5
34A
100
AcDbSymbolTableRecord
100
AcDbLayerTableRecord
  2
IND-CHIP-1206-H1_8_REF_200000_2
 70
0
 62
7
  6
CONTINUOUS
370
-3
390
F
  0
LAYER
  5
34B
100
AcDbSymbolTableRecord
100
AcDbLayerTableRecord
  2
INTFCLR_1
 70
0
 62
7
  6
CONTINUOUS
370
-3
390
F
  0
LAYER
  5
34C
100
AcDbSymbolTableRecord
100
AcDbLayerTableRecord
  2
INTFCLR_2
 70
0
 62
7
  6
CONTINUOUS
370
-3
390
F
  0
LAYER
  5
34D
100
AcDbSymbolTableRecord
100
AcDbLayerTableRecord
  2
INTFCLR_3
 70
0
 62
7
  6
CONTINUOUS
370
-3
390
F
  0
LAYER
  5
34E
100
AcDbSymbolTableRecord
100
AcDbLayerTableRecord
  2
INTFCLR_4
 70
0
 62
7
  6
CONTINUOUS
370
-3
390
F
  0
LAYER
  5
34F
100
AcDbSymbolTableRecord
100
AcDbLayerTableRecord
  2
INTFCLR_5
 70
0
 62
7
  6
CONTINUOUS
370
-3
390
F
  0
LAYER
  5
350
100
AcDbSymbolTableRecord
100
AcDbLayerTableRecord
  2
INTFCLR_6
 70
0
 62
7
  6
CONTINUOUS
370
-3
390
F
  0
LAYER
  5
351
100
AcDbSymbolTableRecord
100
AcDbLayerTableRecord
  2
INTFCLR_7
 70
0
 62
7
  6
CONTINUOUS
370
-3
390
F
  0
LAYER
  5
352
100
AcDbSymbolTableRecord
100
AcDbLayerTableRecord
  2
INTFCLR_8
 70
0
 62
7
  6
CONTINUOUS
370
-3
390
F
  0
LAYER
  5
353
100
AcDbSymbolTableRecord
100
AcDbLayerTableRecord
  2
INTFCLR_9
 70
0
 62
7
  6
CONTINUOUS
370
-3
390
F
  0
LAYER
  5
354
100
AcDbSymbolTableRecord
100
AcDbLayerTableRecord
  2
INTF_1
 70
0
 62
7
  6
CONTINUOUS
370
-3
390
F
  0
LAYER
  5
355
100
AcDbSymbolTableRecord
100
AcDbLayerTableRecord
  2
INTF_12
 70
0
 62
7
  6
CONTINUOUS
370
-3
390
F
  0
LAYER
  5
356
100
AcDbSymbolTableRecord
100
AcDbLayerTableRecord
  2
INTF_2
 70
0
 62
7
  6
CONTINUOUS
370
-3
390
F
  0
LAYER
  5
357
100
AcDbSymbolTableRecord
100
AcDbLayerTableRecord
  2
INTF_6
 70
0
 62
7
  6
CONTINUOUS
370
-3
390
F
  0
LAYER
  5
358
100
AcDbSymbolTableRecord
100
AcDbLayerTableRecord
  2
INTF_8
 70
0
 62
7
  6
CONTINUOUS
370
-3
390
F
  0
LAYER
  5
359
100
AcDbSymbolTableRecord
100
AcDbLayerTableRecord
  2
INTF_BLANK
 70
0
 62
7
  6
CONTINUOUS
370
-3
390
F
  0
LAYER
  5
35A
100
AcDbSymbolTableRecord
100
AcDbLayerTableRecord
  2
INTF_GREEN
 70
0
 62
7
  6
CONTINUOUS
370
-3
390
F
  0
LAYER
  5
35B
100
AcDbSymbolTableRecord
100
AcDbLayerTableRecord
  2
INTF_YELLOW
 70
0
 62
7
  6
CONTINUOUS
370
-3
390
F
  0
LAYER
  5
35C
100
AcDbSymbolTableRecord
100
AcDbLayerTableRecord
  2
LED_0805_120000
 70
0
 62
7
  6
CONTINUOUS
370
-3
390
F
  0
LAYER
  5
35D
100
AcDbSymbolTableRecord
100
AcDbLayerTableRecord
  2
LED_0805_120000_1
 70
0
 62
7
  6
CONTINUOUS
370
-3
390
F
  0
LAYER
  5
35E
100
AcDbSymbolTableRecord
100
AcDbLayerTableRecord
  2
LED_0805_120000_2
 70
0
 62
7
  6
CONTINUOUS
370
-3
390
F
  0
LAYER
  5
35F
100
AcDbSymbolTableRecord
100
AcDbLayerTableRecord
  2
LED_0805_120000_3
 70
0
 62
7
  6
CONTINUOUS
370
-3
390
F
  0
LAYER
  5
360
100
AcDbSymbolTableRecord
100
AcDbLayerTableRecord
  2
LED_0805_120000_4
 70
0
 62
7
  6
CONTINUOUS
370
-3
390
F
  0
LAYER
  5
361
100
AcDbSymbolTableRecord
100
AcDbLayerTableRecord
  2
LED_0805_120000_5
 70
0
 62
7
  6
CONTINUOUS
370
-3
390
F
  0
LAYER
  5
362
100
AcDbSymbolTableRecord
100
AcDbLayerTableRecord
  2
LED_0805_120000_6
 70
0
 62
7
  6
CONTINUOUS
370
-3
390
F
  0
LAYER
  5
363
100
AcDbSymbolTableRecord
100
AcDbLayerTableRecord
  2
LED_0805_120000_7
 70
0
 62
7
  6
CONTINUOUS
370
-3
390
F
  0
LAYER
  5
364
100
AcDbSymbolTableRecord
100
AcDbLayerTableRecord
  2
LED_0805_120000_8
 70
0
 62
7
  6
CONTINUOUS
370
-3
390
F
  0
LAYER
  5
365
100
AcDbSymbolTableRecord
100
AcDbLayerTableRecord
  2
LED_0805_120000_9
 70
0
 62
7
  6
CONTINUOUS
370
-3
390
F
  0
LAYER
  5
366
100
AcDbSymbolTableRecord
100
AcDbLayerTableRecord
  2
LIVELLO_1
 70
0
 62
7
  6
CONTINUOUS
370
-3
390
F
  0
LAYER
  5
367
100
AcDbSymbolTableRecord
100
AcDbLayerTableRecord
  2
LOGO_RESIST-RESTYLING_10000
 70
0
 62
7
  6
CONTINUOUS
370
-3
390
F
  0
LAYER
  5
368
100
AcDbSymbolTableRecord
100
AcDbLayerTableRecord
  2
LOGO_RESIST-RESTYLING_10000_1
 70
0
 62
7
  6
CONTINUOUS
370
-3
390
F
  0
LAYER
  5
369
100
AcDbSymbolTableRecord
100
AcDbLayerTableRecord
  2
LQFP48-7_0-7_0-9_0-9_0-1_6-0_5-
 70
0
 62
7
  6
CONTINUOUS
370
-3
390
F
  0
LAYER
  5
36A
100
AcDbSymbolTableRecord
100
AcDbLayerTableRecord
  2
MM3-MPAK-RF-VIMAR_120000
 70
0
 62
7
  6
CONTINUOUS
370
-3
390
F
  0
LAYER
  5
36B
100
AcDbSymbolTableRecord
100
AcDbLayerTableRecord
  2
MM3-MPAK-RF-VIMAR_120000_1
 70
0
 62
7
  6
CONTINUOUS
370
-3
390
F
  0
LAYER
  5
36C
100
AcDbSymbolTableRecord
100
AcDbLayerTableRecord
  2
MM3-MPAK-RF-VIMAR_120000_10
 70
0
 62
7
  6
CONTINUOUS
370
-3
390
F
  0
LAYER
  5
36D
100
AcDbSymbolTableRecord
100
AcDbLayerTableRecord
  2
MM3-MPAK-RF-VIMAR_120000_11
 70
0
 62
7
  6
CONTINUOUS
370
-3
390
F
  0
LAYER
  5
36E
100
AcDbSymbolTableRecord
100
AcDbLayerTableRecord
  2
MM3-MPAK-RF-VIMAR_120000_12
 70
0
 62
7
  6
CONTINUOUS
370
-3
390
F
  0
LAYER
  5
36F
100
AcDbSymbolTableRecord
100
AcDbLayerTableRecord
  2
MM3-MPAK-RF-VIMAR_120000_13
 70
0
 62
7
  6
CONTINUOUS
370
-3
390
F
  0
LAYER
  5
370
100
AcDbSymbolTableRecord
100
AcDbLayerTableRecord
  2
MM3-MPAK-RF-VIMAR_120000_14
 70
0
 62
7
  6
CONTINUOUS
370
-3
390
F
  0
LAYER
  5
371
100
AcDbSymbolTableRecord
100
AcDbLayerTableRecord
  2
MM3-MPAK-RF-VIMAR_120000_15
 70
0
 62
7
  6
CONTINUOUS
370
-3
390
F
  0
LAYER
  5
372
100
AcDbSymbolTableRecord
100
AcDbLayerTableRecord
  2
MM3-MPAK-RF-VIMAR_120000_16
 70
0
 62
7
  6
CONTINUOUS
370
-3
390
F
  0
LAYER
  5
373
100
AcDbSymbolTableRecord
100
AcDbLayerTableRecord
  2
MM3-MPAK-RF-VIMAR_120000_17
 70
0
 62
7
  6
CONTINUOUS
370
-3
390
F
  0
LAYER
  5
374
100
AcDbSymbolTableRecord
100
AcDbLayerTableRecord
  2
MM3-MPAK-RF-VIMAR_120000_18
 70
0
 62
7
  6
CONTINUOUS
370
-3
390
F
  0
LAYER
  5
375
100
AcDbSymbolTableRecord
100
AcDbLayerTableRecord
  2
MM3-MPAK-RF-VIMAR_120000_19
 70
0
 62
7
  6
CONTINUOUS
370
-3
390
F
  0
LAYER
  5
376
100
AcDbSymbolTableRecord
100
AcDbLayerTableRecord
  2
MM3-MPAK-RF-VIMAR_120000_2
 70
0
 62
7
  6
CONTINUOUS
370
-3
390
F
  0
LAYER
  5
377
100
AcDbSymbolTableRecord
100
AcDbLayerTableRecord
  2
MM3-MPAK-RF-VIMAR_120000_20
 70
0
 62
7
  6
CONTINUOUS
370
-3
390
F
  0
LAYER
  5
378
100
AcDbSymbolTableRecord
100
AcDbLayerTableRecord
  2
MM3-MPAK-RF-VIMAR_120000_21
 70
0
 62
7
  6
CONTINUOUS
370
-3
390
F
  0
LAYER
  5
379
100
AcDbSymbolTableRecord
100
AcDbLayerTableRecord
  2
MM3-MPAK-RF-VIMAR_120000_3
 70
0
 62
7
  6
CONTINUOUS
370
-3
390
F
  0
LAYER
  5
37A
100
AcDbSymbolTableRecord
100
AcDbLayerTableRecord
  2
MM3-MPAK-RF-VIMAR_120000_4
 70
0
 62
7
  6
CONTINUOUS
370
-3
390
F
  0
LAYER
  5
37B
100
AcDbSymbolTableRecord
100
AcDbLayerTableRecord
  2
MM3-MPAK-RF-VIMAR_120000_5
 70
0
 62
7
  6
CONTINUOUS
370
-3
390
F
  0
LAYER
  5
37C
100
AcDbSymbolTableRecord
100
AcDbLayerTableRecord
  2
MM3-MPAK-RF-VIMAR_120000_6
 70
0
 62
7
  6
CONTINUOUS
370
-3
390
F
  0
LAYER
  5
37D
100
AcDbSymbolTableRecord
100
AcDbLayerTableRecord
  2
MM3-MPAK-RF-VIMAR_120000_7
 70
0
 62
7
  6
CONTINUOUS
370
-3
390
F
  0
LAYER
  5
37E
100
AcDbSymbolTableRecord
100
AcDbLayerTableRecord
  2
MM3-MPAK-RF-VIMAR_120000_8
 70
0
 62
7
  6
CONTINUOUS
370
-3
390
F
  0
LAYER
  5
37F
100
AcDbSymbolTableRecord
100
AcDbLayerTableRecord
  2
MM3-MPAK-RF-VIMAR_120000_9
 70
0
 62
7
  6
CONTINUOUS
370
-3
390
F
  0
LAYER
  5
380
100
AcDbSymbolTableRecord
100
AcDbLayerTableRecord
  2
MM4-SWITCH-8-VIMAR_500000
 70
0
 62
7
  6
CONTINUOUS
370
-3
390
F
  0
LAYER
  5
381
100
AcDbSymbolTableRecord
100
AcDbLayerTableRecord
  2
MM4-SWITCH-8-VIMAR_500000_1
 70
0
 62
7
  6
CONTINUOUS
370
-3
390
F
  0
LAYER
  5
382
100
AcDbSymbolTableRecord
100
AcDbLayerTableRecord
  2
MM4-SWITCH-8-VIMAR_500000_2
 70
0
 62
7
  6
CONTINUOUS
370
-3
390
F
  0
LAYER
  5
383
100
AcDbSymbolTableRecord
100
AcDbLayerTableRecord
  2
MM4-SWITCH-8-VIMAR_500000_3
 70
0
 62
7
  6
CONTINUOUS
370
-3
390
F
  0
LAYER
  5
384
100
AcDbSymbolTableRecord
100
AcDbLayerTableRecord
  2
MM4-SWITCH-8-VIMAR_500000_4
 70
0
 62
7
  6
CONTINUOUS
370
-3
390
F
  0
LAYER
  5
385
100
AcDbSymbolTableRecord
100
AcDbLayerTableRecord
  2
MM5-FMT-RF_120000
 70
0
 62
7
  6
CONTINUOUS
370
-3
390
F
  0
LAYER
  5
386
100
AcDbSymbolTableRecord
100
AcDbLayerTableRecord
  2
MM5-FMT-RF_120000_1
 70
0
 62
7
  6
CONTINUOUS
370
-3
390
F
  0
LAYER
  5
387
100
AcDbSymbolTableRecord
100
AcDbLayerTableRecord
  2
MM6-SC70-1-VIMAR_110000
 70
0
 62
7
  6
CONTINUOUS
370
-3
390
F
  0
LAYER
  5
388
100
AcDbSymbolTableRecord
100
AcDbLayerTableRecord
  2
MM6-SC70-1-VIMAR_110000_1
 70
0
 62
7
  6
CONTINUOUS
370
-3
390
F
  0
LAYER
  5
389
100
AcDbSymbolTableRecord
100
AcDbLayerTableRecord
  2
MM6-SC70-1-VIMAR_110000_2
 70
0
 62
7
  6
CONTINUOUS
370
-3
390
F
  0
LAYER
  5
38A
100
AcDbSymbolTableRecord
100
AcDbLayerTableRecord
  2
MM6-SC70-1-VIMAR_110000_3
 70
0
 62
7
  6
CONTINUOUS
370
-3
390
F
  0
LAYER
  5
38B
100
AcDbSymbolTableRecord
100
AcDbLayerTableRecord
  2
MM6-SC70-1-VIMAR_110000_4
 70
0
 62
7
  6
CONTINUOUS
370
-3
390
F
  0
LAYER
  5
38C
100
AcDbSymbolTableRecord
100
AcDbLayerTableRecord
  2
MM6-SC70-1-VIMAR_110000_5
 70
0
 62
7
  6
CONTINUOUS
370
-3
390
F
  0
LAYER
  5
38D
100
AcDbSymbolTableRecord
100
AcDbLayerTableRecord
  2
MM6-SC70-1-VIMAR_110000_6
 70
0
 62
7
  6
CONTINUOUS
370
-3
390
F
  0
LAYER
  5
38E
100
AcDbSymbolTableRecord
100
AcDbLayerTableRecord
  2
MM6-SC70-1-VIMAR_110000_7
 70
0
 62
7
  6
CONTINUOUS
370
-3
390
F
  0
LAYER
  5
38F
100
AcDbSymbolTableRecord
100
AcDbLayerTableRecord
  2
MM6-SC70-1-VIMAR_110000_8
 70
0
 62
7
  6
CONTINUOUS
370
-3
390
F
  0
LAYER
  5
390
100
AcDbSymbolTableRecord
100
AcDbLayerTableRecord
  2
NO-PB_MARK_10000
 70
0
 62
7
  6
CONTINUOUS
370
-3
390
F
  0
LAYER
  5
391
100
AcDbSymbolTableRecord
100
AcDbLayerTableRecord
  2
NO-PB_MARK_10000_1
 70
0
 62
7
  6
CONTINUOUS
370
-3
390
F
  0
LAYER
  5
392
100
AcDbSymbolTableRecord
100
AcDbLayerTableRecord
  2
NOTE
 70
0
 62
7
  6
CONTINUOUS
370
-3
390
F
  0
LAYER
  5
393
100
AcDbSymbolTableRecord
100
AcDbLayerTableRecord
  2
PIANI
 70
0
 62
7
  6
CONTINUOUS
370
-3
390
F
  0
LAYER
  5
394
100
AcDbSymbolTableRecord
100
AcDbLayerTableRecord
  2
PIANI_ORIGINE
 70
0
 62
7
  6
CONTINUOUS
370
-3
390
F
  0
LAYER
  5
395
100
AcDbSymbolTableRecord
100
AcDbLayerTableRecord
  2
PUNTI
 70
0
 62
7
  6
CONTINUOUS
370
-3
390
F
  0
LAYER
  5
396
100
AcDbSymbolTableRecord
100
AcDbLayerTableRecord
  2
P_4_5X9_H5_SMD_500000
 70
0
 62
7
  6
CONTINUOUS
370
-3
390
F
  0
LAYER
  5
397
100
AcDbSymbolTableRecord
100
AcDbLayerTableRecord
  2
P_4_5X9_H5_SMD_500000_1
 70
0
 62
7
  6
CONTINUOUS
370
-3
390
F
  0
LAYER
  5
398
100
AcDbSymbolTableRecord
100
AcDbLayerTableRecord
  2
P_4_5X9_H5_SMD_500000_2
 70
0
 62
7
  6
CONTINUOUS
370
-3
390
F
  0
LAYER
  5
399
100
AcDbSymbolTableRecord
100
AcDbLayerTableRecord
  2
P_4_5X9_H5_SMD_500000_3
 70
0
 62
7
  6
CONTINUOUS
370
-3
390
F
  0
LAYER
  5
39A
100
AcDbSymbolTableRecord
100
AcDbLayerTableRecord
  2
P_4_5X9_H5_SMD_500000_4
 70
0
 62
7
  6
CONTINUOUS
370
-3
390
F
  0
LAYER
  5
39B
100
AcDbSymbolTableRecord
100
AcDbLayerTableRecord
  2
P_4_5X9_H5_SMD_500000_5
 70
0
 62
7
  6
CONTINUOUS
370
-3
390
F
  0
LAYER
  5
39C
100
AcDbSymbolTableRecord
100
AcDbLayerTableRecord
  2
QFN24-4_0-4_0-4_0-4_0_0_9-0_5-0
 70
0
 62
7
  6
CONTINUOUS
370
-3
390
F
  0
LAYER
  5
39D
100
AcDbSymbolTableRecord
100
AcDbLayerTableRecord
  2
RACCORDO
 70
0
 62
7
  6
CONTINUOUS
370
-3
390
F
  0
LAYER
  5
39E
100
AcDbSymbolTableRecord
100
AcDbLayerTableRecord
  2
RESC1608N_45000
 70
0
 62
7
  6
CONTINUOUS
370
-3
390
F
  0
LAYER
  5
39F
100
AcDbSymbolTableRecord
100
AcDbLayerTableRecord
  2
RESC1608N_45000_1
 70
0
 62
7
  6
CONTINUOUS
370
-3
390
F
  0
LAYER
  5
3A0
100
AcDbSymbolTableRecord
100
AcDbLayerTableRecord
  2
RESC1608N_45000_10
 70
0
 62
7
  6
CONTINUOUS
370
-3
390
F
  0
LAYER
  5
3A1
100
AcDbSymbolTableRecord
100
AcDbLayerTableRecord
  2
RESC1608N_45000_11
 70
0
 62
7
  6
CONTINUOUS
370
-3
390
F
  0
LAYER
  5
3A2
100
AcDbSymbolTableRecord
100
AcDbLayerTableRecord
  2
RESC1608N_45000_12
 70
0
 62
7
  6
CONTINUOUS
370
-3
390
F
  0
LAYER
  5
3A3
100
AcDbSymbolTableRecord
100
AcDbLayerTableRecord
  2
RESC1608N_45000_13
 70
0
 62
7
  6
CONTINUOUS
370
-3
390
F
  0
LAYER
  5
3A4
100
AcDbSymbolTableRecord
100
AcDbLayerTableRecord
  2
RESC1608N_45000_14
 70
0
 62
7
  6
CONTINUOUS
370
-3
390
F
  0
LAYER
  5
3A5
100
AcDbSymbolTableRecord
100
AcDbLayerTableRecord
  2
RESC1608N_45000_15
 70
0
 62
7
  6
CONTINUOUS
370
-3
390
F
  0
LAYER
  5
3A6
100
AcDbSymbolTableRecord
100
AcDbLayerTableRecord
  2
RESC1608N_45000_16
 70
0
 62
7
  6
CONTINUOUS
370
-3
390
F
  0
LAYER
  5
3A7
100
AcDbSymbolTableRecord
100
AcDbLayerTableRecord
  2
RESC1608N_45000_17
 70
0
 62
7
  6
CONTINUOUS
370
-3
390
F
  0
LAYER
  5
3A8
100
AcDbSymbolTableRecord
100
AcDbLayerTableRecord
  2
RESC1608N_45000_18
 70
0
 62
7
  6
CONTINUOUS
370
-3
390
F
  0
LAYER
  5
3A9
100
AcDbSymbolTableRecord
100
AcDbLayerTableRecord
  2
RESC1608N_45000_19
 70
0
 62
7
  6
CONTINUOUS
370
-3
390
F
  0
LAYER
  5
3AA
100
AcDbSymbolTableRecord
100
AcDbLayerTableRecord
  2
RESC1608N_45000_2
 70
0
 62
7
  6
CONTINUOUS
370
-3
390
F
  0
LAYER
  5
3AB
100
AcDbSymbolTableRecord
100
AcDbLayerTableRecord
  2
RESC1608N_45000_20
 70
0
 62
7
  6
CONTINUOUS
370
-3
390
F
  0
LAYER
  5
3AC
100
AcDbSymbolTableRecord
100
AcDbLayerTableRecord
  2
RESC1608N_45000_21
 70
0
 62
7
  6
CONTINUOUS
370
-3
390
F
  0
LAYER
  5
3AD
100
AcDbSymbolTableRecord
100
AcDbLayerTableRecord
  2
RESC1608N_45000_22
 70
0
 62
7
  6
CONTINUOUS
370
-3
390
F
  0
LAYER
  5
3AE
100
AcDbSymbolTableRecord
100
AcDbLayerTableRecord
  2
RESC1608N_45000_23
 70
0
 62
7
  6
CONTINUOUS
370
-3
390
F
  0
LAYER
  5
3AF
100
AcDbSymbolTableRecord
100
AcDbLayerTableRecord
  2
RESC1608N_45000_24
 70
0
 62
7
  6
CONTINUOUS
370
-3
390
F
  0
LAYER
  5
3B0
100
AcDbSymbolTableRecord
100
AcDbLayerTableRecord
  2
RESC1608N_45000_25
 70
0
 62
7
  6
CONTINUOUS
370
-3
390
F
  0
LAYER
  5
3B1
100
AcDbSymbolTableRecord
100
AcDbLayerTableRecord
  2
RESC1608N_45000_26
 70
0
 62
7
  6
CONTINUOUS
370
-3
390
F
  0
LAYER
  5
3B2
100
AcDbSymbolTableRecord
100
AcDbLayerTableRecord
  2
RESC1608N_45000_27
 70
0
 62
7
  6
CONTINUOUS
370
-3
390
F
  0
LAYER
  5
3B3
100
AcDbSymbolTableRecord
100
AcDbLayerTableRecord
  2
RESC1608N_45000_28
 70
0
 62
7
  6
CONTINUOUS
370
-3
390
F
  0
LAYER
  5
3B4
100
AcDbSymbolTableRecord
100
AcDbLayerTableRecord
  2
RESC1608N_45000_29
 70
0
 62
7
  6
CONTINUOUS
370
-3
390
F
  0
LAYER
  5
3B5
100
AcDbSymbolTableRecord
100
AcDbLayerTableRecord
  2
RESC1608N_45000_3
 70
0
 62
7
  6
CONTINUOUS
370
-3
390
F
  0
LAYER
  5
3B6
100
AcDbSymbolTableRecord
100
AcDbLayerTableRecord
  2
RESC1608N_45000_30
 70
0
 62
7
  6
CONTINUOUS
370
-3
390
F
  0
LAYER
  5
3B7
100
AcDbSymbolTableRecord
100
AcDbLayerTableRecord
  2
RESC1608N_45000_31
 70
0
 62
7
  6
CONTINUOUS
370
-3
390
F
  0
LAYER
  5
3B8
100
AcDbSymbolTableRecord
100
AcDbLayerTableRecord
  2
RESC1608N_45000_32
 70
0
 62
7
  6
CONTINUOUS
370
-3
390
F
  0
LAYER
  5
3B9
100
AcDbSymbolTableRecord
100
AcDbLayerTableRecord
  2
RESC1608N_45000_33
 70
0
 62
7
  6
CONTINUOUS
370
-3
390
F
  0
LAYER
  5
3BA
100
AcDbSymbolTableRecord
100
AcDbLayerTableRecord
  2
RESC1608N_45000_34
 70
0
 62
7
  6
CONTINUOUS
370
-3
390
F
  0
LAYER
  5
3BB
100
AcDbSymbolTableRecord
100
AcDbLayerTableRecord
  2
RESC1608N_45000_35
 70
0
 62
7
  6
CONTINUOUS
370
-3
390
F
  0
LAYER
  5
3BC
100
AcDbSymbolTableRecord
100
AcDbLayerTableRecord
  2
RESC1608N_45000_36
 70
0
 62
7
  6
CONTINUOUS
370
-3
390
F
  0
LAYER
  5
3BD
100
AcDbSymbolTableRecord
100
AcDbLayerTableRecord
  2
RESC1608N_45000_37
 70
0
 62
7
  6
CONTINUOUS
370
-3
390
F
  0
LAYER
  5
3BE
100
AcDbSymbolTableRecord
100
AcDbLayerTableRecord
  2
RESC1608N_45000_38
 70
0
 62
7
  6
CONTINUOUS
370
-3
390
F
  0
LAYER
  5
3BF
100
AcDbSymbolTableRecord
100
AcDbLayerTableRecord
  2
RESC1608N_45000_39
 70
0
 62
7
  6
CONTINUOUS
370
-3
390
F
  0
LAYER
  5
3C0
100
AcDbSymbolTableRecord
100
AcDbLayerTableRecord
  2
RESC1608N_45000_4
 70
0
 62
7
  6
CONTINUOUS
370
-3
390
F
  0
LAYER
  5
3C1
100
AcDbSymbolTableRecord
100
AcDbLayerTableRecord
  2
RESC1608N_45000_40
 70
0
 62
7
  6
CONTINUOUS
370
-3
390
F
  0
LAYER
  5
3C2
100
AcDbSymbolTableRecord
100
AcDbLayerTableRecord
  2
RESC1608N_45000_41
 70
0
 62
7
  6
CONTINUOUS
370
-3
390
F
  0
LAYER
  5
3C3
100
AcDbSymbolTableRecord
100
AcDbLayerTableRecord
  2
RESC1608N_45000_42
 70
0
 62
7
  6
CONTINUOUS
370
-3
390
F
  0
LAYER
  5
3C4
100
AcDbSymbolTableRecord
100
AcDbLayerTableRecord
  2
RESC1608N_45000_43
 70
0
 62
7
  6
CONTINUOUS
370
-3
390
F
  0
LAYER
  5
3C5
100
AcDbSymbolTableRecord
100
AcDbLayerTableRecord
  2
RESC1608N_45000_44
 70
0
 62
7
  6
CONTINUOUS
370
-3
390
F
  0
LAYER
  5
3C6
100
AcDbSymbolTableRecord
100
AcDbLayerTableRecord
  2
RESC1608N_45000_45
 70
0
 62
7
  6
CONTINUOUS
370
-3
390
F
  0
LAYER
  5
3C7
100
AcDbSymbolTableRecord
100
AcDbLayerTableRecord
  2
RESC1608N_45000_46
 70
0
 62
7
  6
CONTINUOUS
370
-3
390
F
  0
LAYER
  5
3C8
100
AcDbSymbolTableRecord
100
AcDbLayerTableRecord
  2
RESC1608N_45000_47
 70
0
 62
7
  6
CONTINUOUS
370
-3
390
F
  0
LAYER
  5
3C9
100
AcDbSymbolTableRecord
100
AcDbLayerTableRecord
  2
RESC1608N_45000_48
 70
0
 62
7
  6
CONTINUOUS
370
-3
390
F
  0
LAYER
  5
3CA
100
AcDbSymbolTableRecord
100
AcDbLayerTableRecord
  2
RESC1608N_45000_49
 70
0
 62
7
  6
CONTINUOUS
370
-3
390
F
  0
LAYER
  5
3CB
100
AcDbSymbolTableRecord
100
AcDbLayerTableRecord
  2
RESC1608N_45000_5
 70
0
 62
7
  6
CONTINUOUS
370
-3
390
F
  0
LAYER
  5
3CC
100
AcDbSymbolTableRecord
100
AcDbLayerTableRecord
  2
RESC1608N_45000_50
 70
0
 62
7
  6
CONTINUOUS
370
-3
390
F
  0
LAYER
  5
3CD
100
AcDbSymbolTableRecord
100
AcDbLayerTableRecord
  2
RESC1608N_45000_51
 70
0
 62
7
  6
CONTINUOUS
370
-3
390
F
  0
LAYER
  5
3CE
100
AcDbSymbolTableRecord
100
AcDbLayerTableRecord
  2
RESC1608N_45000_52
 70
0
 62
7
  6
CONTINUOUS
370
-3
390
F
  0
LAYER
  5
3CF
100
AcDbSymbolTableRecord
100
AcDbLayerTableRecord
  2
RESC1608N_45000_53
 70
0
 62
7
  6
CONTINUOUS
370
-3
390
F
  0
LAYER
  5
3D0
100
AcDbSymbolTableRecord
100
AcDbLayerTableRecord
  2
RESC1608N_45000_54
 70
0
 62
7
  6
CONTINUOUS
370
-3
390
F
  0
LAYER
  5
3D1
100
AcDbSymbolTableRecord
100
AcDbLayerTableRecord
  2
RESC1608N_45000_55
 70
0
 62
7
  6
CONTINUOUS
370
-3
390
F
  0
LAYER
  5
3D2
100
AcDbSymbolTableRecord
100
AcDbLayerTableRecord
  2
RESC1608N_45000_56
 70
0
 62
7
  6
CONTINUOUS
370
-3
390
F
  0
LAYER
  5
3D3
100
AcDbSymbolTableRecord
100
AcDbLayerTableRecord
  2
RESC1608N_45000_57
 70
0
 62
7
  6
CONTINUOUS
370
-3
390
F
  0
LAYER
  5
3D4
100
AcDbSymbolTableRecord
100
AcDbLayerTableRecord
  2
RESC1608N_45000_6
 70
0
 62
7
  6
CONTINUOUS
370
-3
390
F
  0
LAYER
  5
3D5
100
AcDbSymbolTableRecord
100
AcDbLayerTableRecord
  2
RESC1608N_45000_7
 70
0
 62
7
  6
CONTINUOUS
370
-3
390
F
  0
LAYER
  5
3D6
100
AcDbSymbolTableRecord
100
AcDbLayerTableRecord
  2
RESC1608N_45000_8
 70
0
 62
7
  6
CONTINUOUS
370
-3
390
F
  0
LAYER
  5
3D7
100
AcDbSymbolTableRecord
100
AcDbLayerTableRecord
  2
RESC1608N_45000_9
 70
0
 62
7
  6
CONTINUOUS
370
-3
390
F
  0
LAYER
  5
3D8
100
AcDbSymbolTableRecord
100
AcDbLayerTableRecord
  2
RGB____0____0____0__
 70
0
 62
7
  6
CONTINUOUS
370
-3
390
F
  0
LAYER
  5
3D9
100
AcDbSymbolTableRecord
100
AcDbLayerTableRecord
  2
RY-S13-2_0-VIMAR_1570000
 70
0
 62
7
  6
CONTINUOUS
370
-3
390
F
  0
LAYER
  5
3DA
100
AcDbSymbolTableRecord
100
AcDbLayerTableRecord
  2
RY-S13-2_0-VIMAR_1570000_1
 70
0
 62
7
  6
CONTINUOUS
370
-3
390
F
  0
LAYER
  5
3DB
100
AcDbSymbolTableRecord
100
AcDbLayerTableRecord
  2
RY-S13-2_0-VIMAR_1570000_2
 70
0
 62
7
  6
CONTINUOUS
370
-3
390
F
  0
LAYER
  5
3DC
100
AcDbSymbolTableRecord
100
AcDbLayerTableRecord
  2
RY-S13-2_0-VIMAR_1570000_3
 70
0
 62
7
  6
CONTINUOUS
370
-3
390
F
  0
LAYER
  5
3DD
100
AcDbSymbolTableRecord
100
AcDbLayerTableRecord
  2
SMUSSO
 70
0
 62
7
  6
CONTINUOUS
370
-3
390
F
  0
LAYER
  5
3DE
100
AcDbSymbolTableRecord
100
AcDbLayerTableRecord
  2
SNAPLINE
 70
0
 62
7
  6
CONTINUOUS
370
-3
390
F
  0
LAYER
  5
3DF
100
AcDbSymbolTableRecord
100
AcDbLayerTableRecord
  2
SO16-10_0-6_2-1_75-REF_175000
 70
0
 62
7
  6
CONTINUOUS
370
-3
390
F
  0
LAYER
  5
3E0
100
AcDbSymbolTableRecord
100
AcDbLayerTableRecord
  2
SO16-10_0-6_2-1_75-REF_175000_1
 70
0
 62
7
  6
CONTINUOUS
370
-3
390
F
  0
LAYER
  5
3E1
100
AcDbSymbolTableRecord
100
AcDbLayerTableRecord
  2
SO16-10_0-6_2-1_75-REF_175000_2
 70
0
 62
7
  6
CONTINUOUS
370
-3
390
F
  0
LAYER
  5
3E2
100
AcDbSymbolTableRecord
100
AcDbLayerTableRecord
  2
SO8-5_0-6_2-1_75-REF_175000
 70
0
 62
7
  6
CONTINUOUS
370
-3
390
F
  0
LAYER
  5
3E3
100
AcDbSymbolTableRecord
100
AcDbLayerTableRecord
  2
SO8-5_0-6_2-1_75-REF_175000_1
 70
0
 62
7
  6
CONTINUOUS
370
-3
390
F
  0
LAYER
  5
3E4
100
AcDbSymbolTableRecord
100
AcDbLayerTableRecord
  2
SOD80_SOD-213AA_MINIMELF_REF_16
 70
0
 62
7
  6
CONTINUOUS
370
-3
390
F
  0
LAYER
  5
3E5
100
AcDbSymbolTableRecord
100
AcDbLayerTableRecord
  2
SOD80_SOD-213AA_MINIMELF_REF__1
 70
0
 62
7
  6
CONTINUOUS
370
-3
390
F
  0
LAYER
  5
3E6
100
AcDbSymbolTableRecord
100
AcDbLayerTableRecord
  2
SOD80_SOD-213AA_MINIMELF_REF__2
 70
0
 62
7
  6
CONTINUOUS
370
-3
390
F
  0
LAYER
  5
3E7
100
AcDbSymbolTableRecord
100
AcDbLayerTableRecord
  2
SOP16-F1-RF-VIMAR_310000
 70
0
 62
7
  6
CONTINUOUS
370
-3
390
F
  0
LAYER
  5
3E8
100
AcDbSymbolTableRecord
100
AcDbLayerTableRecord
  2
SOP16-F1-RF-VIMAR_310000_1
 70
0
 62
7
  6
CONTINUOUS
370
-3
390
F
  0
LAYER
  5
3E9
100
AcDbSymbolTableRecord
100
AcDbLayerTableRecord
  2
SOT23-5_REF_H1_5_150000
 70
0
 62
7
  6
CONTINUOUS
370
-3
390
F
  0
LAYER
  5
3EA
100
AcDbSymbolTableRecord
100
AcDbLayerTableRecord
  2
SOT23-5_REF_H1_5_150000_1
 70
0
 62
7
  6
CONTINUOUS
370
-3
390
F
  0
LAYER
  5
3EB
100
AcDbSymbolTableRecord
100
AcDbLayerTableRecord
  2
SOT95P280X110-6N_110000
 70
0
 62
7
  6
CONTINUOUS
370
-3
390
F
  0
LAYER
  5
3EC
100
AcDbSymbolTableRecord
100
AcDbLayerTableRecord
  2
SOT95P280X110-6N_110000_1
 70
0
 62
7
  6
CONTINUOUS
370
-3
390
F
  0
LAYER
  5
3ED
100
AcDbSymbolTableRecord
100
AcDbLayerTableRecord
  2
SOT95P280X110-6N_110000_2
 70
0
 62
7
  6
CONTINUOUS
370
-3
390
F
  0
LAYER
  5
3EE
100
AcDbSymbolTableRecord
100
AcDbLayerTableRecord
  2
SOT95P280X110-6N_110000_3
 70
0
 62
7
  6
CONTINUOUS
370
-3
390
F
  0
LAYER
  5
3EF
100
AcDbSymbolTableRecord
100
AcDbLayerTableRecord
  2
SOT95P280X110-6N_110000_4
 70
0
 62
7
  6
CONTINUOUS
370
-3
390
F
  0
LAYER
  5
3F0
100
AcDbSymbolTableRecord
100
AcDbLayerTableRecord
  2
SOT95P280X110-6N_110000_5
 70
0
 62
7
  6
CONTINUOUS
370
-3
390
F
  0
LAYER
  5
3F1
100
AcDbSymbolTableRecord
100
AcDbLayerTableRecord
  2
SOT95P280X110-6N_110000_6
 70
0
 62
7
  6
CONTINUOUS
370
-3
390
F
  0
LAYER
  5
3F2
100
AcDbSymbolTableRecord
100
AcDbLayerTableRecord
  2
SOT95P280X110-6N_110000_7
 70
0
 62
7
  6
CONTINUOUS
370
-3
390
F
  0
LAYER
  5
3F3
100
AcDbSymbolTableRecord
100
AcDbLayerTableRecord
  2
SUPERFICI
 70
0
 62
7
  6
CONTINUOUS
370
-3
390
F
  0
LAYER
  5
3F4
100
AcDbSymbolTableRecord
100
AcDbLayerTableRecord
  2
SUPERFICI_2
 70
0
 62
7
  6
CONTINUOUS
370
-3
390
F
  0
LAYER
  5
3F5
100
AcDbSymbolTableRecord
100
AcDbLayerTableRecord
  2
TP-RND-1_0_3500
 70
0
 62
7
  6
CONTINUOUS
370
-3
390
F
  0
LAYER
  5
3F6
100
AcDbSymbolTableRecord
100
AcDbLayerTableRecord
  2
TP-RND-1_0_3500_1
 70
0
 62
7
  6
CONTINUOUS
370
-3
390
F
  0
LAYER
  5
3F7
100
AcDbSymbolTableRecord
100
AcDbLayerTableRecord
  2
TP-RND-1_0_3500_2
 70
0
 62
7
  6
CONTINUOUS
370
-3
390
F
  0
LAYER
  5
3F8
100
AcDbSymbolTableRecord
100
AcDbLayerTableRecord
  2
TP_PROGRAMMAZIONE_SWD_1000
 70
0
 62
7
  6
CONTINUOUS
370
-3
390
F
  0
LAYER
  5
3F9
100
AcDbSymbolTableRecord
100
AcDbLayerTableRecord
  2
TRASH
 70
0
 62
7
  6
CONTINUOUS
370
-3
390
F
  0
LAYER
  5
3FA
100
AcDbSymbolTableRecord
100
AcDbLayerTableRecord
  2
VG_CAP-E-16-25-7_5_2700000
 70
0
 62
7
  6
CONTINUOUS
370
-3
390
F
  0
LAYER
  5
3FB
100
AcDbSymbolTableRecord
100
AcDbLayerTableRecord
  2
VG_CAP-E-16-25-7_5_2700000_1
 70
0
 62
7
  6
CONTINUOUS
370
-3
390
F
  0
LAYER
  5
3FC
100
AcDbSymbolTableRecord
100
AcDbLayerTableRecord
  2
VG_CAP-E-16-25-7_5_2700000_2
 70
0
 62
7
  6
CONTINUOUS
370
-3
390
F
  0
LAYER
  5
3FD
100
AcDbSymbolTableRecord
100
AcDbLayerTableRecord
  2
VG_CAP-E-SMD-3_3-3_3-5_5_550000
 70
0
 62
7
  6
CONTINUOUS
370
-3
390
F
  0
LAYER
  5
3FE
100
AcDbSymbolTableRecord
100
AcDbLayerTableRecord
  2
VG_CN_FLEX_THT_P2_54_R1_P9_TET_
 70
0
 62
7
  6
CONTINUOUS
370
-3
390
F
  0
LAYER
  5
3FF
100
AcDbSymbolTableRecord
100
AcDbLayerTableRecord
  2
VG_DO-214AA_265000
 70
0
 62
7
  6
CONTINUOUS
370
-3
390
F
  0
LAYER
  5
400
100
AcDbSymbolTableRecord
100
AcDbLayerTableRecord
  2
VG_DO-214AA_265000_1
 70
0
 62
7
  6
CONTINUOUS
370
-3
390
F
  0
LAYER
  5
401
100
AcDbSymbolTableRecord
100
AcDbLayerTableRecord
  2
VG_DO-214AA_265000_2
 70
0
 62
7
  6
CONTINUOUS
370
-3
390
F
  0
LAYER
  5
402
100
AcDbSymbolTableRecord
100
AcDbLayerTableRecord
  2
VG_DO-214AA_265000_3
 70
0
 62
7
  6
CONTINUOUS
370
-3
390
F
  0
LAYER
  5
403
100
AcDbSymbolTableRecord
100
AcDbLayerTableRecord
  2
VG_DO-214AC-NP_230000
 70
0
 62
7
  6
CONTINUOUS
370
-3
390
F
  0
LAYER
  5
404
100
AcDbSymbolTableRecord
100
AcDbLayerTableRecord
  2
VG_K_THT_TE_RT31LA06_1570000
 70
0
 62
7
  6
CONTINUOUS
370
-3
390
F
  0
LAYER
  5
405
100
AcDbSymbolTableRecord
100
AcDbLayerTableRecord
  2
VG_K_THT_TE_RT31LA06_1570000_1
 70
0
 62
7
  6
CONTINUOUS
370
-3
390
F
  0
LAYER
  5
406
100
AcDbSymbolTableRecord
100
AcDbLayerTableRecord
  2
VG_K_THT_TE_RT31LA06_1570000_2
 70
0
 62
7
  6
CONTINUOUS
370
-3
390
F
  0
LAYER
  5
407
100
AcDbSymbolTableRecord
100
AcDbLayerTableRecord
  2
VG_K_THT_TE_RT31LA06_1570000_3
 70
0
 62
7
  6
CONTINUOUS
370
-3
390
F
  0
LAYER
  5
408
100
AcDbSymbolTableRecord
100
AcDbLayerTableRecord
  2
VG_PTC-9_0-12_5-5_0-5_0-0_0-0_1
 70
0
 62
7
  6
CONTINUOUS
370
-3
390
F
  0
LAYER
  5
409
100
AcDbSymbolTableRecord
100
AcDbLayerTableRecord
  2
VG_PTC-9_0-12_5-5_0-5_0-0_0-0_2
 70
0
 62
7
  6
CONTINUOUS
370
-3
390
F
  0
LAYER
  5
40A
100
AcDbSymbolTableRecord
100
AcDbLayerTableRecord
  2
VG_PTC-9_0-12_5-5_0-5_0-0_0-0_3
 70
0
 62
7
  6
CONTINUOUS
370
-3
390
F
  0
LAYER
  5
40B
100
AcDbSymbolTableRecord
100
AcDbLayerTableRecord
  2
VG_PTC-9_0-12_5-5_0-5_0-0_0-0_6
 70
0
 62
7
  6
CONTINUOUS
370
-3
390
F
  0
LAYER
  5
40C
100
AcDbSymbolTableRecord
100
AcDbLayerTableRecord
  2
VG_SOD523_70000
 70
0
 62
7
  6
CONTINUOUS
370
-3
390
F
  0
LAYER
  5
40D
100
AcDbSymbolTableRecord
100
AcDbLayerTableRecord
  2
VG_SOT23_H1_1_REF_110000
 70
0
 62
7
  6
CONTINUOUS
370
-3
390
F
  0
LAYER
  5
40E
100
AcDbSymbolTableRecord
100
AcDbLayerTableRecord
  2
VG_SOT23_H1_1_REF_110000_1
 70
0
 62
7
  6
CONTINUOUS
370
-3
390
F
  0
LAYER
  5
40F
100
AcDbSymbolTableRecord
100
AcDbLayerTableRecord
  2
VG_SOT23_H1_1_REF_110000_10
 70
0
 62
7
  6
CONTINUOUS
370
-3
390
F
  0
LAYER
  5
410
100
AcDbSymbolTableRecord
100
AcDbLayerTableRecord
  2
VG_SOT23_H1_1_REF_110000_11
 70
0
 62
7
  6
CONTINUOUS
370
-3
390
F
  0
LAYER
  5
411
100
AcDbSymbolTableRecord
100
AcDbLayerTableRecord
  2
VG_SOT23_H1_1_REF_110000_12
 70
0
 62
7
  6
CONTINUOUS
370
-3
390
F
  0
LAYER
  5
412
100
AcDbSymbolTableRecord
100
AcDbLayerTableRecord
  2
VG_SOT23_H1_1_REF_110000_13
 70
0
 62
7
  6
CONTINUOUS
370
-3
390
F
  0
LAYER
  5
413
100
AcDbSymbolTableRecord
100
AcDbLayerTableRecord
  2
VG_SOT23_H1_1_REF_110000_14
 70
0
 62
7
  6
CONTINUOUS
370
-3
390
F
  0
LAYER
  5
414
100
AcDbSymbolTableRecord
100
AcDbLayerTableRecord
  2
VG_SOT23_H1_1_REF_110000_15
 70
0
 62
7
  6
CONTINUOUS
370
-3
390
F
  0
LAYER
  5
415
100
AcDbSymbolTableRecord
100
AcDbLayerTableRecord
  2
VG_SOT23_H1_1_REF_110000_2
 70
0
 62
7
  6
CONTINUOUS
370
-3
390
F
  0
LAYER
  5
416
100
AcDbSymbolTableRecord
100
AcDbLayerTableRecord
  2
VG_SOT23_H1_1_REF_110000_3
 70
0
 62
7
  6
CONTINUOUS
370
-3
390
F
  0
LAYER
  5
417
100
AcDbSymbolTableRecord
100
AcDbLayerTableRecord
  2
VG_SOT23_H1_1_REF_110000_4
 70
0
 62
7
  6
CONTINUOUS
370
-3
390
F
  0
LAYER
  5
418
100
AcDbSymbolTableRecord
100
AcDbLayerTableRecord
  2
VG_SOT23_H1_1_REF_110000_5
 70
0
 62
7
  6
CONTINUOUS
370
-3
390
F
  0
LAYER
  5
419
100
AcDbSymbolTableRecord
100
AcDbLayerTableRecord
  2
VG_SOT23_H1_1_REF_110000_6
 70
0
 62
7
  6
CONTINUOUS
370
-3
390
F
  0
LAYER
  5
41A
100
AcDbSymbolTableRecord
100
AcDbLayerTableRecord
  2
VG_SOT23_H1_1_REF_110000_7
 70
0
 62
7
  6
CONTINUOUS
370
-3
390
F
  0
LAYER
  5
41B
100
AcDbSymbolTableRecord
100
AcDbLayerTableRecord
  2
VG_SOT23_H1_1_REF_110000_8
 70
0
 62
7
  6
CONTINUOUS
370
-3
390
F
  0
LAYER
  5
41C
100
AcDbSymbolTableRecord
100
AcDbLayerTableRecord
  2
VG_SOT23_H1_1_REF_110000_9
 70
0
 62
7
  6
CONTINUOUS
370
-3
390
F
  0
LAYER
  5
41D
100
AcDbSymbolTableRecord
100
AcDbLayerTableRecord
  2
VG_SOT23_H1_2_REF_120000
 70
0
 62
7
  6
CONTINUOUS
370
-3
390
F
  0
LAYER
  5
41E
100
AcDbSymbolTableRecord
100
AcDbLayerTableRecord
  2
VG_SOT23_H1_2_REF_120000_1
 70
0
 62
7
  6
CONTINUOUS
370
-3
390
F
  0
LAYER
  5
41F
100
AcDbSymbolTableRecord
100
AcDbLayerTableRecord
  2
VG_SOT23_H1_2_REF_120000_2
 70
0
 62
7
  6
CONTINUOUS
370
-3
390
F
  0
LAYER
  5
420
100
AcDbSymbolTableRecord
100
AcDbLayerTableRecord
  2
VG_SOT23_H1_2_REF_120000_3
 70
0
 62
7
  6
CONTINUOUS
370
-3
390
F
  0
LAYER
  5
421
100
AcDbSymbolTableRecord
100
AcDbLayerTableRecord
  2
VG_SOT23_H1_2_REF_120000_4
 70
0
 62
7
  6
CONTINUOUS
370
-3
390
F
  0
LAYER
  5
422
100
AcDbSymbolTableRecord
100
AcDbLayerTableRecord
  2
VG_SOT23_H1_2_REF_120000_5
 70
0
 62
7
  6
CONTINUOUS
370
-3
390
F
  0
LAYER
  5
423
100
AcDbSymbolTableRecord
100
AcDbLayerTableRecord
  2
VG_SOT23_H1_2_REF_120000_6
 70
0
 62
7
  6
CONTINUOUS
370
-3
390
F
  0
LAYER
  5
424
100
AcDbSymbolTableRecord
100
AcDbLayerTableRecord
  2
VG_TSOP6-3_1-3_0-1_1-REF_110000
 70
0
 62
7
  6
CONTINUOUS
370
-3
390
F
  0
LAYER
  5
425
100
AcDbSymbolTableRecord
100
AcDbLayerTableRecord
  2
VG_TSOP6-3_1-3_0-1_1-REF_1100_1
 70
0
 62
7
  6
CONTINUOUS
370
-3
390
F
  0
LAYER
  5
426
100
AcDbSymbolTableRecord
100
AcDbLayerTableRecord
  2
VG_TSOP6-3_1-3_0-1_1-REF_1100_2
 70
0
 62
7
  6
CONTINUOUS
370
-3
390
F
  0
LAYER
  5
427
100
AcDbSymbolTableRecord
100
AcDbLayerTableRecord
  2
VG_TSOP6-3_1-3_0-1_1-REF_1100_3
 70
0
 62
7
  6
CONTINUOUS
370
-3
390
F
  0
LAYER
  5
428
100
AcDbSymbolTableRecord
100
AcDbLayerTableRecord
  2
VG_TSOP6-3_1-3_0-1_1-REF_1100_4
 70
0
 62
7
  6
CONTINUOUS
370
-3
390
F
  0
LAYER
  5
429
100
AcDbSymbolTableRecord
100
AcDbLayerTableRecord
  2
VG_TSOP6-3_1-3_0-1_1-REF_1100_5
 70
0
 62
7
  6
CONTINUOUS
370
-3
390
F
  0
LAYER
  5
42A
100
AcDbSymbolTableRecord
100
AcDbLayerTableRecord
  2
VG_TSOP6-3_1-3_0-1_1-REF_1100_6
 70
0
 62
7
  6
CONTINUOUS
370
-3
390
F
  0
LAYER
  5
42B
100
AcDbSymbolTableRecord
100
AcDbLayerTableRecord
  2
VG_TSOP6-3_1-3_0-1_1-REF_1100_7
 70
0
 62
7
  6
CONTINUOUS
370
-3
390
F
  0
LAYER
  5
42C
100
AcDbSymbolTableRecord
100
AcDbLayerTableRecord
  2
WHITE
 70
0
 62
7
  6
CONTINUOUS
370
-3
390
F
  0
LAYER
  5
42D
100
AcDbSymbolTableRecord
100
AcDbLayerTableRecord
  2
X-SMD-3PIN-3_2-2_5_70000
 70
0
 62
7
  6
CONTINUOUS
370
-3
390
F
  0
LAYER
  5
42E
100
AcDbSymbolTableRecord
100
AcDbLayerTableRecord
  2
XSEC_DATUMS
 70
0
 62
7
  6
CONTINUOUS
370
-3
390
F
  0
LAYER
  5
42F
100
AcDbSymbolTableRecord
100
AcDbLayerTableRecord
  2
___SHELL
 70
0
 62
7
  6
CONTINUOUS
370
-3
390
F
  0
ENDTAB
  0
TABLE
  2
STYLE
  5
3
100
AcDbSymbolTable
 70
1
  0
STYLE
  5
11
100
AcDbSymbolTableRecord
100
AcDbTextStyleTableRecord
  2
STANDARD
 70
0
 40
0.0
 41
0.8
 50
0.0
 71
0
 42
0.2
  3
txt
  4

  0
STYLE
  5
430
100
AcDbSymbolTableRecord
100
AcDbTextStyleTableRecord
  2
TEXTSTYLE_1
 70
0
 40
0.0
 41
0.8
 50
0.0
 71
0
 42
0.2
  3
gdt
  4

  0
ENDTAB
  0
TABLE
  2
VIEW
  5
6
100
AcDbSymbolTable
 70
0
  0
ENDTAB
  0
TABLE
  2
UCS
  5
7
100
AcDbSymbolTable
 70
0
  0
ENDTAB
  0
TABLE
  2
APPID
  5
9
100
AcDbSymbolTable
 70
1
  0
APPID
  5
431
100
AcDbSymbolTableRecord
100
AcDbRegAppTableRecord
  2
ACAD
 70
0
  0
ENDTAB
  0
TABLE
  2
BLOCK_RECORD
  5
1
100
AcDbSymbolTable
 70
0
  0
BLOCK_RECORD
  5
432
100
AcDbSymbolTableRecord
100
AcDbBlockTableRecord
  2
*Model_Space
  0
BLOCK_RECORD
  5
433
100
AcDbSymbolTableRecord
100
AcDbBlockTableRecord
  2
*Paper_Space
  0
BLOCK_RECORD
  5
434
100
AcDbSymbolTableRecord
100
AcDbBlockTableRecord
  2
_FILLED
  0
ENDTAB
  0
TABLE
  2
DIMSTYLE
  5
A
100
AcDbSymbolTable
 70
1
100
AcDbDimStyleTable
 71
0
  0
DIMSTYLE
105
435
100
AcDbSymbolTableRecord
100
AcDbDimStyleTableRecord
  2
STANDARD
 70
0
  3

  4

 40
1.0
 41
3.0
 42
0.5
 43
0.38
 44
1.5
 45
0.0
 46
0.0
 47
0.01
 48
0.01
140
3.0
141
0.09
142
0.0
143
25.4
144
1.0
145
0.0
146
1.0
147
0.625
 71
1.0
 72
0.0
 73
0
 74
0
 75
0
 76
0
 77
1
 78
8
 79
2
170
0
171
1
172
0
173
0
174
0
175
0
176
0
177
0
178
0
270
2
179
2
271
2
272
2
273
2
274
2
275
0
280
0
281
0
282
0
283
1
284
8
285
0
286
0
287
3
288
0
340
11
278
44
341
434
342
434
343
434
344
434
  0
ENDTAB
  0
ENDSEC
  0
SECTION
  2
BLOCKS
  0
BLOCK
  5
20
100
AcDbEntity
  8
0
100
AcDbBlockBegin
  2
*Model_Space
 70
0
 10
0.0
 20
0.0
 30
0.0
  3
*Model_Space
  1

  0
ENDBLK
  5
21
100
AcDbEntity
  8
0
100
AcDbBlockEnd
  0
BLOCK
  5
1C
100
AcDbEntity
  8
0
100
AcDbBlockBegin
  2
*Paper_Space
 70
0
 10
0.0
 20
0.0
 30
0.0
  3
*Paper_Space
  1

  0
ENDBLK
  5
1D
100
AcDbEntity
  8
0
100
AcDbBlockEnd
  0
BLOCK
  5
436
100
AcDbEntity
  8
0
100
AcDbBlockBegin
  2
_FILLED
 70
64
 10
0.0
 20
0.0
  3
_FILLED
  1

  0
SOLID
  5
437
100
AcDbEntity
  8
0
  6
BYBLOCK
 62
0
100
AcDbTrace
 10
0.0
 20
0.0
 11
-1.0
 21
0.3166666667
 12
-1.0
 22
-0.3166666667
 13
-1.0
 23
-0.3166666667
  0
ENDBLK
  5
438
100
AcDbEntity
  8
0
  6
BYBLOCK
 62
0
100
AcDbBlockEnd
  0
ENDSEC
  0
SECTION
  2
ENTITIES
  0
LINE
  5
439
100
AcDbEntity
  8
RACCORDO
100
AcDbLine
 62
7
  6
CONTINUOUS
 10
-31.8430335203
 20
-59.254189197
 11
-31.4952464103
 21
-59.254189197
  0
LINE
  5
43A
100
AcDbEntity
  8
RACCORDO
100
AcDbLine
 62
7
  6
CONTINUOUS
 10
-21.3905160207
 20
-59.254189197
 11
37.9572710893
 21
-59.254189197
  0
LINE
  5
43B
100
AcDbEntity
  8
DRAFT
100
AcDbLine
 62
7
  6
CONTINUOUS
 10
-31.4428812155
 20
-59.2018240022
 11
-21.4428812155
 21
-59.2018240022
  0
LINE
  5
43C
100
AcDbEntity
  8
RACCORDO
100
AcDbLine
 62
7
  6
CONTINUOUS
 10
-31.7383031308
 20
-59.1494588074
 11
37.8525406998
 21
-59.1494588074
  0
LINE
  5
43D
100
AcDbEntity
  8
ASSI
100
AcDbLine
 62
7
  6
CONTINUOUS
 10
-20.4428812155
 20
-57.854189197
 11
37.5071187845
 21
-57.854189197
  0
LINE
  5
43E
100
AcDbEntity
  8
0
100
AcDbLine
 62
7
  6
CONTINUOUS
 10
-25.4428812155
 20
-57.254189197
 11
-27.4428812155
 21
-57.254189197
  0
LINE
  5
43F
100
AcDbEntity
  8
DRAFT
100
AcDbLine
 62
7
  6
CONTINUOUS
 10
-21.3905160207
 20
-59.254189197
 11
-21.4428812155
 21
-59.2018240022
  0
LINE
  5
440
100
AcDbEntity
  8
0
100
AcDbLine
 62
7
  6
CONTINUOUS
 10
-27.4428812155
 20
-53.254189197
 11
-25.4428812155
 21
-53.254189197
  0
LINE
  5
441
100
AcDbEntity
  8
0
100
AcDbLine
 62
7
  6
CONTINUOUS
 10
-6.1428812155
 20
-51.554189197
 11
-3.9428812155
 21
-51.554189197
  0
LINE
  5
442
100
AcDbEntity
  8
0
100
AcDbLine
 62
7
  6
CONTINUOUS
 10
10.0571187845
 20
-51.554189197
 11
12.2571187845
 21
-51.554189197
  0
LINE
  5
443
100
AcDbEntity
  8
0
100
AcDbLine
 62
7
  6
CONTINUOUS
 10
33.0571187845
 20
-51.554189197
 11
35.2571187845
 21
-51.554189197
  0
LINE
  5
444
100
AcDbEntity
  8
DRAFT
100
AcDbLine
 62
7
  6
CONTINUOUS
 10
-20.4428812155
 20
-50.954189197
 11
37.5071187845
 21
-50.954189197
  0
LINE
  5
445
100
AcDbEntity
  8
DRAFT
100
AcDbLine
 62
250
  6
CONTINUOUS
 10
33.7722086546
 20
-49.104189197
 11
33.8071187845
 21
-49.104189197
  0
LINE
  5
446
100
AcDbEntity
  8
DRAFT
100
AcDbLine
 62
7
  6
CONTINUOUS
 10
37.6559716469
 20
-31.8120808522
 11
37.602300628
 21
-31.8214720636
  0
LINE
  5
447
100
AcDbEntity
  8
DRAFT
100
AcDbLine
 62
7
  6
CONTINUOUS
 10
-32.8428812155
 20
-40.354189197
 11
-31.4312823583
 21
-40.354189197
  0
LINE
  5
448
100
AcDbEntity
  8
DRAFT
100
AcDbLine
 62
7
  6
CONTINUOUS
 10
37.5455199273
 20
-40.354189197
 11
38.9571187845
 21
-40.354189197
  0
LINE
  5
449
100
AcDbEntity
  8
RACCORDO
100
AcDbLine
 62
7
  6
CONTINUOUS
 10
-31.4912492674
 20
-40.254189197
 11
-32.8428812155
 21
-40.254189197
  0
LINE
  5
44A
100
AcDbEntity
  8
RACCORDO
100
AcDbLine
 62
7
  6
CONTINUOUS
 10
37.6054868364
 20
-40.254189197
 11
38.9571187845
 21
-40.254189197
  0
LINE
  5
44B
100
AcDbEntity
  8
RACCORDO
100
AcDbLine
 62
250
  6
CONTINUOUS
 10
38.8558794079
 20
-39.254189197
 11
37.6892711481
 21
-39.254189197
  0
LINE
  5
44C
100
AcDbEntity
  8
RACCORDO
100
AcDbLine
 62
250
  6
CONTINUOUS
 10
-31.575033579
 20
-39.254189197
 11
-32.7416418389
 21
-39.254189197
  0
LINE
  5
44D
100
AcDbEntity
  8
DRAFT
100
AcDbLine
 62
7
  6
CONTINUOUS
 10
-32.7381508259
 20
-22.4186358727
 11
-32.8428812155
 21
-22.104189197
  0
LINE
  5
44E
100
AcDbEntity
  8
RACCORDO
100
AcDbLine
 62
7
  6
CONTINUOUS
 10
-32.8428812155
 20
49.5459631079
 11
-32.8428812155
 21
31.545810803
  0
LINE
  5
44F
100
AcDbEntity
  8
RACCORDO
100
AcDbLine
 62
7
  6
CONTINUOUS
 10
-32.8428812155
 20
-40.254189197
 11
-32.8428812155
 21
-58.2543415018
  0
LINE
  5
450
100
AcDbEntity
  8
DRAFT
100
AcDbLine
 62
7
  6
CONTINUOUS
 10
-32.8428812155
 20
-40.254189197
 11
-32.8428812155
 21
31.545810803
  0
LINE
  5
451
100
AcDbEntity
  8
DRAFT
100
AcDbLine
 62
7
  6
CONTINUOUS
 10
-32.83066267
 20
-37.004189197
 11
-32.83066267
 21
-31.704189197
  0
LINE
  5
452
100
AcDbEntity
  8
DRAFT
100
AcDbLine
 62
7
  6
CONTINUOUS
 10
-32.83066267
 20
22.995810803
 11
-32.83066267
 21
28.295810803
  0
LINE
  5
453
100
AcDbEntity
  8
SMUSSO
100
AcDbLine
 62
7
  6
CONTINUOUS
 10
-32.7992435532
 20
14.2268302512
 11
-32.7992435532
 21
16.0268302512
  0
LINE
  5
454
100
AcDbEntity
  8
SMUSSO
100
AcDbLine
 62
7
  6
CONTINUOUS
 10
-32.8121378606
 20
13.488115871
 11
-32.7992435532
 21
14.2268302512
  0
LINE
  5
455
100
AcDbEntity
  8
DRAFT
100
AcDbLine
 62
7
  6
CONTINUOUS
 10
-32.7381508259
 20
16.2102574787
 11
-32.7992435532
 21
16.0268302512
  0
LINE
  5
456
100
AcDbEntity
  8
SMUSSO
100
AcDbLine
 62
7
  6
CONTINUOUS
 10
-32.8121378606
 20
13.488115871
 11
-32.8428812155
 21
13.395810803
  0
LINE
  5
457
100
AcDbEntity
  8
DRAFT
100
AcDbLine
 62
7
  6
CONTINUOUS
 10
37.6563793471
 20
-31.816748014
 11
37.602300628
 21
-31.8214720636
  0
LINE
  5
458
100
AcDbEntity
  8
DRAFT
100
AcDbLine
 62
7
  6
CONTINUOUS
 10
-31.5421417781
 20
-36.89163038
 11
-31.488063059
 21
-36.8869063304
  0
LINE
  5
459
100
AcDbEntity
  8
0
100
AcDbLine
 62
7
  6
CONTINUOUS
 10
-31.5625633419
 20
-37.054189197
 11
-31.975033579
 21
-37.054189197
  0
LINE
  5
45A
100
AcDbEntity
  8
0
100
AcDbLine
 62
7
  6
CONTINUOUS
 10
37.6768009109
 20
-37.054189197
 11
38.0892711481
 21
-37.054189197
  0
LINE
  5
45B
100
AcDbEntity
  8
DRAFT
100
AcDbLine
 62
7
  6
CONTINUOUS
 10
38.9449002391
 20
-37.004189197
 11
38.8872985248
 21
-37.004189197
  0
LINE
  5
45C
100
AcDbEntity
  8
DRAFT
100
AcDbLine
 62
7
  6
CONTINUOUS
 10
-32.7730609558
 20
-37.004189197
 11
-32.83066267
 21
-37.004189197
  0
LINE
  5
45D
100
AcDbEntity
  8
DRAFT
100
AcDbLine
 62
7
  6
CONTINUOUS
 10
-31.5417340779
 20
-36.654189197
 11
-31.3544800727
 21
-36.654189197
  0
LINE
  5
45E
100
AcDbEntity
  8
DRAFT
100
AcDbLine
 62
7
  6
CONTINUOUS
 10
37.4687176417
 20
-36.654189197
 11
37.6559716469
 21
-36.654189197
  0
LINE
  5
45F
100
AcDbEntity
  8
DRAFT
100
AcDbLine
 62
7
  6
CONTINUOUS
 10
-31.5421417781
 20
-31.816748014
 11
-31.488063059
 21
-31.8214720636
  0
LINE
  5
460
100
AcDbEntity
  8
DRAFT
100
AcDbLine
 62
7
  6
CONTINUOUS
 10
-31.5417340779
 20
-31.8120808522
 11
-31.488063059
 21
-31.8214720636
  0
LINE
  5
461
100
AcDbEntity
  8
DRAFT
100
AcDbLine
 62
7
  6
CONTINUOUS
 10
-32.7730609558
 20
28.295810803
 11
-32.7730609558
 21
22.995810803
  0
LINE
  5
462
100
AcDbEntity
  8
DRAFT
100
AcDbLine
 62
7
  6
CONTINUOUS
 10
-32.7730609558
 20
-31.704189197
 11
-32.7730609558
 21
-37.004189197
  0
LINE
  5
463
100
AcDbEntity
  8
RACCORDO
100
AcDbLine
 62
7
  6
CONTINUOUS
 10
-32.7416418389
 20
30.545810803
 11
-32.7416418389
 21
20.745810803
  0
LINE
  5
464
100
AcDbEntity
  8
RACCORDO
100
AcDbLine
 62
7
  6
CONTINUOUS
 10
-32.7416418389
 20
-29.454189197
 11
-32.7416418389
 21
-39.254189197
  0
LINE
  5
465
100
AcDbEntity
  8
RACCORDO
100
AcDbLine
 62
7
  6
CONTINUOUS
 10
-32.7381508259
 20
49.4412327183
 11
-32.7381508259
 21
31.645810803
  0
LINE
  5
466
100
AcDbEntity
  8
DRAFT
100
AcDbLine
 62
7
  6
CONTINUOUS
 10
-32.7381508259
 20
19.645810803
 11
-32.7381508259
 21
16.2102574787
  0
LINE
  5
467
100
AcDbEntity
  8
DRAFT
100
AcDbLine
 62
7
  6
CONTINUOUS
 10
-32.7381508259
 20
-22.4186358727
 11
-32.7381508259
 21
-28.354189197
  0
LINE
  5
468
100
AcDbEntity
  8
RACCORDO
100
AcDbLine
 62
7
  6
CONTINUOUS
 10
-32.7381508259
 20
-40.354189197
 11
-32.7381508259
 21
-58.1496111123
  0
LINE
  5
469
100
AcDbEntity
  8
DRAFT
100
AcDbLine
 62
7
  6
CONTINUOUS
 10
-32.0817884882
 20
-28.354189197
 11
-32.0817884882
 21
-28.454189197
  0
LINE
  5
46A
100
AcDbEntity
  8
DRAFT
100
AcDbLine
 62
7
  6
CONTINUOUS
 10
-32.0817884882
 20
-40.254189197
 11
-32.0817884882
 21
-40.354189197
  0
LINE
  5
46B
100
AcDbEntity
  8
DRAFT
100
AcDbLine
 62
7
  6
CONTINUOUS
 10
-32.0817884882
 20
19.645810803
 11
-32.0817884882
 21
19.745810803
  0
LINE
  5
46C
100
AcDbEntity
  8
DRAFT
100
AcDbLine
 62
7
  6
CONTINUOUS
 10
-32.0817884882
 20
31.545810803
 11
-32.0817884882
 21
31.645810803
  0
LINE
  5
46D
100
AcDbEntity
  8
DRAFT
100
AcDbLine
 62
7
  6
CONTINUOUS
 10
-32.0643334233
 20
-40.354189197
 11
-32.0643334233
 21
-40.254189197
  0
LINE
  5
46E
100
AcDbEntity
  8
DRAFT
100
AcDbLine
 62
7
  6
CONTINUOUS
 10
-32.0643334233
 20
-28.454189197
 11
-32.0643334233
 21
-28.354189197
  0
LINE
  5
46F
100
AcDbEntity
  8
DRAFT
100
AcDbLine
 62
7
  6
CONTINUOUS
 10
-32.0643334233
 20
19.645810803
 11
-32.0643334233
 21
19.745810803
  0
LINE
  5
470
100
AcDbEntity
  8
DRAFT
100
AcDbLine
 62
7
  6
CONTINUOUS
 10
-32.0643334233
 20
31.545810803
 11
-32.0643334233
 21
31.645810803
  0
LINE
  5
471
100
AcDbEntity
  8
0
100
AcDbLine
 62
7
  6
CONTINUOUS
 10
-31.975033579
 20
28.345810803
 11
-31.975033579
 21
22.945810803
  0
LINE
  5
472
100
AcDbEntity
  8
0
100
AcDbLine
 62
7
  6
CONTINUOUS
 10
-31.975033579
 20
-37.054189197
 11
-31.975033579
 21
-31.654189197
  0
LINE
  5
473
100
AcDbEntity
  8
RACCORDO
100
AcDbLine
 62
7
  6
CONTINUOUS
 10
-31.575033579
 20
30.545810803
 11
-31.575033579
 21
28.345810803
  0
LINE
  5
474
100
AcDbEntity
  8
RACCORDO
100
AcDbLine
 62
7
  6
CONTINUOUS
 10
-31.575033579
 20
22.945810803
 11
-31.575033579
 21
20.745810803
  0
LINE
  5
475
100
AcDbEntity
  8
RACCORDO
100
AcDbLine
 62
7
  6
CONTINUOUS
 10
-31.575033579
 20
-29.454189197
 11
-31.575033579
 21
-31.654189197
  0
LINE
  5
476
100
AcDbEntity
  8
RACCORDO
100
AcDbLine
 62
7
  6
CONTINUOUS
 10
-31.575033579
 20
-37.054189197
 11
-31.575033579
 21
-39.254189197
  0
LINE
  5
477
100
AcDbEntity
  8
0
100
AcDbLine
 62
7
  6
CONTINUOUS
 10
-31.5625633419
 20
28.345810803
 11
-31.5625633419
 21
22.945810803
  0
LINE
  5
478
100
AcDbEntity
  8
0
100
AcDbLine
 62
7
  6
CONTINUOUS
 10
-31.5625633419
 20
-37.054189197
 11
-31.5625633419
 21
-31.654189197
  0
LINE
  5
479
100
AcDbEntity
  8
DRAFT
100
AcDbLine
 62
7
  6
CONTINUOUS
 10
-31.5417340779
 20
-36.8962975418
 11
-31.5417340779
 21
-31.8120808522
  0
LINE
  5
47A
100
AcDbEntity
  8
DRAFT
100
AcDbLine
 62
7
  6
CONTINUOUS
 10
-31.5417340779
 20
23.1037024582
 11
-31.5417340779
 21
28.1879191478
  0
LINE
  5
47B
100
AcDbEntity
  8
DRAFT
100
AcDbLine
 62
7
  6
CONTINUOUS
 10
-31.4912492674
 20
-40.354189197
 11
-31.4912492674
 21
-40.254189197
  0
LINE
  5
47C
100
AcDbEntity
  8
DRAFT
100
AcDbLine
 62
7
  6
CONTINUOUS
 10
-31.4912492674
 20
-28.454189197
 11
-31.4912492674
 21
-28.354189197
  0
LINE
  5
47D
100
AcDbEntity
  8
DRAFT
100
AcDbLine
 62
7
  6
CONTINUOUS
 10
-31.4912492674
 20
19.645810803
 11
-31.4912492674
 21
19.745810803
  0
LINE
  5
47E
100
AcDbEntity
  8
DRAFT
100
AcDbLine
 62
7
  6
CONTINUOUS
 10
-31.4912492674
 20
31.545810803
 11
-31.4912492674
 21
31.645810803
  0
LINE
  5
47F
100
AcDbEntity
  8
DRAFT
100
AcDbLine
 62
7
  6
CONTINUOUS
 10
-31.488063059
 20
28.1785279364
 11
-31.488063059
 21
27.945810803
  0
LINE
  5
480
100
AcDbEntity
  8
DRAFT
100
AcDbLine
 62
7
  6
CONTINUOUS
 10
-31.488063059
 20
23.345810803
 11
-31.488063059
 21
23.1130936696
  0
LINE
  5
481
100
AcDbEntity
  8
DRAFT
100
AcDbLine
 62
7
  6
CONTINUOUS
 10
-31.488063059
 20
-31.8214720636
 11
-31.488063059
 21
-32.054189197
  0
LINE
  5
482
100
AcDbEntity
  8
DRAFT
100
AcDbLine
 62
7
  6
CONTINUOUS
 10
-31.488063059
 20
-36.654189197
 11
-31.488063059
 21
-36.8869063304
  0
LINE
  5
483
100
AcDbEntity
  8
DRAFT
100
AcDbLine
 62
7
  6
CONTINUOUS
 10
-31.4312823583
 20
31.645810803
 11
-31.4312823583
 21
27.945810803
  0
LINE
  5
484
100
AcDbEntity
  8
DRAFT
100
AcDbLine
 62
7
  6
CONTINUOUS
 10
-31.4312823583
 20
23.345810803
 11
-31.4312823583
 21
19.645810803
  0
LINE
  5
485
100
AcDbEntity
  8
DRAFT
100
AcDbLine
 62
7
  6
CONTINUOUS
 10
-31.4312823583
 20
-40.354189197
 11
-31.4312823583
 21
-36.654189197
  0
LINE
  5
486
100
AcDbEntity
  8
DRAFT
100
AcDbLine
 62
7
  6
CONTINUOUS
 10
-31.4312823583
 20
-28.354189197
 11
-31.4312823583
 21
-32.054189197
  0
LINE
  5
487
100
AcDbEntity
  8
DRAFT
100
AcDbLine
 62
7
  6
CONTINUOUS
 10
-31.3928812155
 20
27.945810803
 11
-31.3928812155
 21
23.345810803
  0
LINE
  5
488
100
AcDbEntity
  8
DRAFT
100
AcDbLine
 62
7
  6
CONTINUOUS
 10
-31.3928812155
 20
-32.054189197
 11
-31.3928812155
 21
-36.654189197
  0
LINE
  5
489
100
AcDbEntity
  8
DRAFT
100
AcDbLine
 62
7
  6
CONTINUOUS
 10
-31.3928812155
 20
42.1162758564
 11
-31.3928812155
 21
49.145810803
  0
LINE
  5
48A
100
AcDbEntity
  8
DRAFT
100
AcDbLine
 62
7
  6
CONTINUOUS
 10
-31.3544800727
 20
-32.054189197
 11
-31.3544800727
 21
-36.654189197
  0
LINE
  5
48B
100
AcDbEntity
  8
DRAFT
100
AcDbLine
 62
7
  6
CONTINUOUS
 10
-31.3544800727
 20
23.345810803
 11
-31.3544800727
 21
27.945810803
  0
LINE
  5
48C
100
AcDbEntity
  8
0
100
AcDbLine
 62
7
  6
CONTINUOUS
 10
-29.1428812155
 20
49.145810803
 11
-29.1428812155
 21
42.845810803
  0
LINE
  5
48D
100
AcDbEntity
  8
0
100
AcDbLine
 62
7
  6
CONTINUOUS
 10
-28.1740697567
 20
9.3486688592
 11
-28.1740697567
 21
7.645810803
  0
LINE
  5
48E
100
AcDbEntity
  8
0
100
AcDbLine
 62
7
  6
CONTINUOUS
 10
-28.6075245346
 20
9.3486688592
 11
-29.0764554335
 21
8.1147418594
  0
LINE
  5
48F
100
AcDbEntity
  8
0
100
AcDbLine
 62
7
  6
CONTINUOUS
 10
-29.0438817983
 20
7.645810803
 11
-28.3646736713
 21
9.3486688592
  0
LINE
  5
490
100
AcDbEntity
  8
DRAFT
100
AcDbLine
 62
7
  6
CONTINUOUS
 10
-31.488063059
 20
-36.8869063304
 11
-31.5417340779
 21
-36.8962975418
  0
LINE
  5
491
100
AcDbEntity
  8
DRAFT
100
AcDbLine
 62
7
  6
CONTINUOUS
 10
-31.5417340779
 20
-32.054189197
 11
-31.3544800727
 21
-32.054189197
  0
LINE
  5
492
100
AcDbEntity
  8
DRAFT
100
AcDbLine
 62
7
  6
CONTINUOUS
 10
37.4687176417
 20
-32.054189197
 11
37.6559716469
 21
-32.054189197
  0
LINE
  5
493
100
AcDbEntity
  8
DRAFT
100
AcDbLine
 62
7
  6
CONTINUOUS
 10
-32.83066267
 20
-31.704189197
 11
-32.7730609558
 21
-31.704189197
  0
LINE
  5
494
100
AcDbEntity
  8
DRAFT
100
AcDbLine
 62
7
  6
CONTINUOUS
 10
38.8872985248
 20
-31.704189197
 11
38.9449002391
 21
-31.704189197
  0
LINE
  5
495
100
AcDbEntity
  8
0
100
AcDbLine
 62
7
  6
CONTINUOUS
 10
-31.5625633419
 20
-31.654189197
 11
-31.975033579
 21
-31.654189197
  0
LINE
  5
496
100
AcDbEntity
  8
0
100
AcDbLine
 62
7
  6
CONTINUOUS
 10
37.6768009109
 20
-31.654189197
 11
38.0892711481
 21
-31.654189197
  0
LINE
  5
497
100
AcDbEntity
  8
RACCORDO
100
AcDbLine
 62
250
  6
CONTINUOUS
 10
38.8558794079
 20
-29.454189197
 11
37.6892711481
 21
-29.454189197
  0
LINE
  5
498
100
AcDbEntity
  8
RACCORDO
100
AcDbLine
 62
250
  6
CONTINUOUS
 10
-31.575033579
 20
-29.454189197
 11
-32.7416418389
 21
-29.454189197
  0
LINE
  5
499
100
AcDbEntity
  8
RACCORDO
100
AcDbLine
 62
7
  6
CONTINUOUS
 10
-31.4912492674
 20
-28.454189197
 11
-32.8428812155
 21
-28.454189197
  0
LINE
  5
49A
100
AcDbEntity
  8
RACCORDO
100
AcDbLine
 62
7
  6
CONTINUOUS
 10
37.6054868364
 20
-28.454189197
 11
38.9571187845
 21
-28.454189197
  0
LINE
  5
49B
100
AcDbEntity
  8
DRAFT
100
AcDbLine
 62
7
  6
CONTINUOUS
 10
-32.8428812155
 20
-28.354189197
 11
-31.4312823583
 21
-28.354189197
  0
LINE
  5
49C
100
AcDbEntity
  8
DRAFT
100
AcDbLine
 62
7
  6
CONTINUOUS
 10
37.5455199273
 20
-28.354189197
 11
38.9571187845
 21
-28.354189197
  0
LINE
  5
49D
100
AcDbEntity
  8
DRAFT
100
AcDbLine
 62
7
  6
CONTINUOUS
 10
37.602300628
 20
-36.8869063304
 11
37.6559716469
 21
-36.8962975418
  0
LINE
  5
49E
100
AcDbEntity
  8
0
100
AcDbLine
 62
7
  6
CONTINUOUS
 10
-27.9470220158
 20
7.645810803
 11
-27.9470220158
 21
9.3486688592
  0
LINE
  5
49F
100
AcDbEntity
  8
DRAFT
100
AcDbLine
 62
7
  6
CONTINUOUS
 10
-27.6928812155
 20
40.395810803
 11
-27.6928812155
 21
42.245810803
  0
LINE
  5
4A0
100
AcDbEntity
  8
DRAFT
100
AcDbLine
 62
7
  6
CONTINUOUS
 10
-27.6579710856
 20
40.395810803
 11
-27.6579710856
 21
42.245810803
  0
LINE
  5
4A1
100
AcDbEntity
  8
0
100
AcDbLine
 62
7
  6
CONTINUOUS
 10
-27.5651689972
 20
9.3486688592
 11
-27.5651689972
 21
7.645810803
  0
LINE
  5
4A2
100
AcDbEntity
  8
0
100
AcDbLine
 62
7
  6
CONTINUOUS
 10
-27.3381212563
 20
7.645810803
 11
-27.3381212563
 21
9.0906600628
  0
LINE
  5
4A3
100
AcDbEntity
  8
0
100
AcDbLine
 62
7
  6
CONTINUOUS
 10
-26.9428812155
 20
49.145810803
 11
-26.9428812155
 21
42.845810803
  0
LINE
  5
4A4
100
AcDbEntity
  8
0
100
AcDbLine
 62
7
  6
CONTINUOUS
 10
-26.1512807929
 20
9.0700193591
 11
-26.1512807929
 21
7.645810803
  0
LINE
  5
4A5
100
AcDbEntity
  8
0
100
AcDbLine
 62
7
  6
CONTINUOUS
 10
-25.9242330521
 20
7.645810803
 11
-25.9242330521
 21
9.3486688592
  0
LINE
  5
4A6
100
AcDbEntity
  8
DRAFT
100
AcDbLine
 62
7
  6
CONTINUOUS
 10
-24.4428812155
 20
-20.304189197
 11
-24.4428812155
 21
-22.3718289239
  0
LINE
  5
4A7
100
AcDbEntity
  8
0
100
AcDbLine
 62
7
  6
CONTINUOUS
 10
-23.9736865513
 20
9.3486688592
 11
-23.9736865513
 21
7.645810803
  0
LINE
  5
4A8
100
AcDbEntity
  8
0
100
AcDbLine
 62
7
  6
CONTINUOUS
 10
-23.7466388105
 20
7.645810803
 11
-23.7466388105
 21
8.3991964885
  0
LINE
  5
4A9
100
AcDbEntity
  8
0
100
AcDbLine
 62
7
  6
CONTINUOUS
 10
-23.7466388105
 20
8.5952831737
 11
-23.7466388105
 21
9.152582174
  0
LINE
  5
4AA
100
AcDbEntity
  8
0
100
AcDbLine
 62
7
  6
CONTINUOUS
 10
-25.5114189778
 20
7.645810803
 11
-25.3319415473
 21
8.1618283958
  0
LINE
  5
4AB
100
AcDbEntity
  8
0
100
AcDbLine
 62
7
  6
CONTINUOUS
 10
-26.6539141326
 20
7.645810803
 11
-26.1512807929
 21
9.0700193591
  0
LINE
  5
4AC
100
AcDbEntity
  8
0
100
AcDbLine
 62
7
  6
CONTINUOUS
 10
-26.2196530649
 20
9.3486688592
 11
-26.6408523955
 21
8.1665048766
  0
LINE
  5
4AD
100
AcDbEntity
  8
0
100
AcDbLine
 62
7
  6
CONTINUOUS
 10
-25.2672780509
 20
8.3475947292
 11
-25.083285555
 21
8.8447454558
  0
LINE
  5
4AE
100
AcDbEntity
  8
0
100
AcDbLine
 62
7
  6
CONTINUOUS
 10
-25.1037650008
 20
9.3486688592
 11
-25.7510445245
 21
7.645810803
  0
LINE
  5
4AF
100
AcDbEntity
  8
RACCORDO
100
AcDbLine
 62
250
  6
CONTINUOUS
 10
6.9571949369
 20
45.745810803
 11
6.8821381577
 21
45.6707540238
  0
LINE
  5
4B0
100
AcDbEntity
  8
RACCORDO
100
AcDbLine
 62
250
  6
CONTINUOUS
 10
7.4571187845
 20
45.2458869554
 11
7.3820620053
 21
45.1708301762
  0
LINE
  5
4B1
100
AcDbEntity
  8
0
100
AcDbLine
 62
7
  6
CONTINUOUS
 10
-29.9428812155
 20
9.3486688592
 11
-29.2881839832
 21
7.645810803
  0
LINE
  5
4B2
100
AcDbEntity
  8
0
100
AcDbLine
 62
7
  6
CONTINUOUS
 10
-29.2593191236
 20
8.1147418594
 11
-29.7014818313
 21
9.3486688592
  0
LINE
  5
4B3
100
AcDbEntity
  8
DRAFT
100
AcDbLine
 62
7
  6
CONTINUOUS
 10
-22.6928812155
 20
-22.3718289239
 11
-22.6928812155
 21
-20.304189197
  0
LINE
  5
4B4
100
AcDbEntity
  8
DRAFT
100
AcDbLine
 62
7
  6
CONTINUOUS
 10
-21.1928812155
 20
-20.304189197
 11
-21.1928812155
 21
-22.3718289239
  0
LINE
  5
4B5
100
AcDbEntity
  8
ASSI
100
AcDbLine
 62
7
  6
CONTINUOUS
 10
-20.4428812155
 20
-50.954189197
 11
-20.4428812155
 21
-57.854189197
  0
LINE
  5
4B6
100
AcDbEntity
  8
0
100
AcDbLine
 62
7
  6
CONTINUOUS
 10
-20.0209917905
 20
9.3486688592
 11
-20.0209917905
 21
7.645810803
  0
LINE
  5
4B7
100
AcDbEntity
  8
0
100
AcDbLine
 62
7
  6
CONTINUOUS
 10
-19.7939440497
 20
7.645810803
 11
-19.7939440497
 21
8.3475947292
  0
LINE
  5
4B8
100
AcDbEntity
  8
0
100
AcDbLine
 62
7
  6
CONTINUOUS
 10
-19.7939440497
 20
8.5436814145
 11
-19.7939440497
 21
9.152582174
  0
LINE
  5
4B9
100
AcDbEntity
  8
DRAFT
100
AcDbLine
 62
7
  6
CONTINUOUS
 10
-19.4428812155
 20
-22.3718289239
 11
-19.4428812155
 21
-20.304189197
  0
LINE
  5
4BA
100
AcDbEntity
  8
0
100
AcDbLine
 62
7
  6
CONTINUOUS
 10
-18.4006965492
 20
7.645810803
 11
-18.2212191186
 21
8.1618283958
  0
LINE
  5
4BB
100
AcDbEntity
  8
0
100
AcDbLine
 62
7
  6
CONTINUOUS
 10
-18.1565556222
 20
8.3475947292
 11
-17.9725631264
 21
8.8447454558
  0
LINE
  5
4BC
100
AcDbEntity
  8
0
100
AcDbLine
 62
7
  6
CONTINUOUS
 10
-17.9930425721
 20
9.3486688592
 11
-18.6403220958
 21
7.645810803
  0
LINE
  5
4BD
100
AcDbEntity
  8
DRAFT
100
AcDbLine
 62
7
  6
CONTINUOUS
 10
-32.7381508259
 20
-22.4186358727
 11
38.8523883949
 21
-22.4186358727
  0
LINE
  5
4BE
100
AcDbEntity
  8
DRAFT
100
AcDbLine
 62
7
  6
CONTINUOUS
 10
-24.4428812155
 20
-22.3718289239
 11
-22.6928812155
 21
-22.3718289239
  0
LINE
  5
4BF
100
AcDbEntity
  8
DRAFT
100
AcDbLine
 62
7
  6
CONTINUOUS
 10
-21.1928812155
 20
-22.3718289239
 11
-19.4428812155
 21
-22.3718289239
  0
LINE
  5
4C0
100
AcDbEntity
  8
DRAFT
100
AcDbLine
 62
7
  6
CONTINUOUS
 10
0.5571187845
 20
-22.3718289239
 11
2.3071187845
 21
-22.3718289239
  0
LINE
  5
4C1
100
AcDbEntity
  8
DRAFT
100
AcDbLine
 62
7
  6
CONTINUOUS
 10
3.8071187845
 20
-22.3718289239
 11
5.5571187845
 21
-22.3718289239
  0
LINE
  5
4C2
100
AcDbEntity
  8
DRAFT
100
AcDbLine
 62
7
  6
CONTINUOUS
 10
25.5571187845
 20
-22.3718289239
 11
27.3071187845
 21
-22.3718289239
  0
LINE
  5
4C3
100
AcDbEntity
  8
DRAFT
100
AcDbLine
 62
7
  6
CONTINUOUS
 10
28.8071187845
 20
-22.3718289239
 11
30.5571187845
 21
-22.3718289239
  0
LINE
  5
4C4
100
AcDbEntity
  8
DRAFT
100
AcDbLine
 62
7
  6
CONTINUOUS
 10
-32.8428812155
 20
-22.104189197
 11
-24.4428812155
 21
-22.104189197
  0
LINE
  5
4C5
100
AcDbEntity
  8
DRAFT
100
AcDbLine
 62
7
  6
CONTINUOUS
 10
-22.6928812155
 20
-22.104189197
 11
-21.1928812155
 21
-22.104189197
  0
LINE
  5
4C6
100
AcDbEntity
  8
DRAFT
100
AcDbLine
 62
7
  6
CONTINUOUS
 10
-19.4428812155
 20
-22.104189197
 11
0.5571187845
 21
-22.104189197
  0
LINE
  5
4C7
100
AcDbEntity
  8
DRAFT
100
AcDbLine
 62
7
  6
CONTINUOUS
 10
2.3071187845
 20
-22.104189197
 11
3.8071187845
 21
-22.104189197
  0
LINE
  5
4C8
100
AcDbEntity
  8
DRAFT
100
AcDbLine
 62
7
  6
CONTINUOUS
 10
5.5571187845
 20
-22.104189197
 11
25.5571187845
 21
-22.104189197
  0
LINE
  5
4C9
100
AcDbEntity
  8
DRAFT
100
AcDbLine
 62
7
  6
CONTINUOUS
 10
27.3071187845
 20
-22.104189197
 11
28.8071187845
 21
-22.104189197
  0
LINE
  5
4CA
100
AcDbEntity
  8
DRAFT
100
AcDbLine
 62
7
  6
CONTINUOUS
 10
30.5571187845
 20
-22.104189197
 11
38.9571187845
 21
-22.104189197
  0
LINE
  5
4CB
100
AcDbEntity
  8
0
100
AcDbLine
 62
7
  6
CONTINUOUS
 10
-24.4428812155
 20
-20.304189197
 11
-22.6928812155
 21
-20.304189197
  0
LINE
  5
4CC
100
AcDbEntity
  8
0
100
AcDbLine
 62
7
  6
CONTINUOUS
 10
-21.1928812155
 20
-20.304189197
 11
-19.4428812155
 21
-20.304189197
  0
LINE
  5
4CD
100
AcDbEntity
  8
0
100
AcDbLine
 62
7
  6
CONTINUOUS
 10
0.5571187845
 20
-20.304189197
 11
2.3071187845
 21
-20.304189197
  0
LINE
  5
4CE
100
AcDbEntity
  8
0
100
AcDbLine
 62
7
  6
CONTINUOUS
 10
3.8071187845
 20
-20.304189197
 11
5.5571187845
 21
-20.304189197
  0
LINE
  5
4CF
100
AcDbEntity
  8
0
100
AcDbLine
 62
7
  6
CONTINUOUS
 10
25.5571187845
 20
-20.304189197
 11
27.3071187845
 21
-20.304189197
  0
LINE
  5
4D0
100
AcDbEntity
  8
0
100
AcDbLine
 62
7
  6
CONTINUOUS
 10
28.8071187845
 20
-20.304189197
 11
30.5571187845
 21
-20.304189197
  0
LINE
  5
4D1
100
AcDbEntity
  8
0
100
AcDbLine
 62
7
  6
CONTINUOUS
 10
-24.1760621395
 20
7.645810803
 11
-24.8581729097
 21
9.3486688592
  0
LINE
  5
4D2
100
AcDbEntity
  8
0
100
AcDbLine
 62
7
  6
CONTINUOUS
 10
-24.607420564
 20
8.1618283958
 11
-24.4174616811
 21
7.645810803
  0
LINE
  5
4D3
100
AcDbEntity
  8
0
100
AcDbLine
 62
7
  6
CONTINUOUS
 10
-27.3381212563
 20
9.0906600628
 11
-26.8470981747
 21
7.645810803
  0
LINE
  5
4D4
100
AcDbEntity
  8
0
100
AcDbLine
 62
7
  6
CONTINUOUS
 10
-26.8158146032
 20
8.145541657
 11
-27.2191146153
 21
9.3486688592
  0
LINE
  5
4D5
100
AcDbEntity
  8
0
100
AcDbLine
 62
7
  6
CONTINUOUS
 10
-14.6028070662
 20
9.3486688592
 11
-14.6028070662
 21
7.645810803
  0
LINE
  5
4D6
100
AcDbEntity
  8
0
100
AcDbLine
 62
7
  6
CONTINUOUS
 10
-14.3757593254
 20
7.645810803
 11
-14.3757593254
 21
9.3486688592
  0
LINE
  5
4D7
100
AcDbEntity
  8
0
100
AcDbLine
 62
7
  6
CONTINUOUS
 10
-13.9216638437
 20
7.645810803
 11
-13.7421864132
 21
8.1618283958
  0
LINE
  5
4D8
100
AcDbEntity
  8
0
100
AcDbLine
 62
7
  6
CONTINUOUS
 10
-13.6775229168
 20
8.3475947292
 11
-13.4935304209
 21
8.8447454558
  0
LINE
  5
4D9
100
AcDbEntity
  8
0
100
AcDbLine
 62
7
  6
CONTINUOUS
 10
-15.0362618441
 20
9.3486688592
 11
-15.505192743
 21
8.1147418594
  0
LINE
  5
4DA
100
AcDbEntity
  8
0
100
AcDbLine
 62
7
  6
CONTINUOUS
 10
-13.5140098667
 20
9.3486688592
 11
-14.1612893903
 21
7.645810803
  0
LINE
  5
4DB
100
AcDbEntity
  8
0
100
AcDbLine
 62
7
  6
CONTINUOUS
 10
-15.4726191079
 20
7.645810803
 11
-14.7934109809
 21
9.3486688592
  0
LINE
  5
4DC
100
AcDbEntity
  8
DRAFT
100
AcDbLine
 62
7
  6
CONTINUOUS
 10
-0.2539739427
 20
29.65714787
 11
-0.5928812155
 21
29.0701432545
  0
LINE
  5
4DD
100
AcDbEntity
  8
DRAFT
100
AcDbLine
 62
7
  6
CONTINUOUS
 10
-0.1928812155
 20
29.640778123
 11
-0.5928812155
 21
28.9479578
  0
LINE
  5
4DE
100
AcDbEntity
  8
RACCORDO
100
AcDbLine
 62
250
  6
CONTINUOUS
 10
37.8525406998
 20
-59.1494588074
 11
37.9572710893
 21
-59.254189197
  0
LINE
  5
4DF
100
AcDbEntity
  8
0
100
AcDbLine
 62
7
  6
CONTINUOUS
 10
-22.9874478385
 20
7.9997666673
 11
-22.7642702887
 21
7.645810803
  0
LINE
  5
4E0
100
AcDbEntity
  8
0
100
AcDbLine
 62
7
  6
CONTINUOUS
 10
-12.4045721209
 20
9.3486688592
 11
-12.4045721209
 21
7.645810803
  0
LINE
  5
4E1
100
AcDbEntity
  8
0
100
AcDbLine
 62
7
  6
CONTINUOUS
 10
-12.1775243801
 20
7.8418974883
 11
-12.1775243801
 21
9.3486688592
  0
LINE
  5
4E2
100
AcDbEntity
  8
0
100
AcDbLine
 62
7
  6
CONTINUOUS
 10
-11.3312555279
 20
7.645810803
 11
-11.3312555279
 21
7.8418974883
  0
LINE
  5
4E3
100
AcDbEntity
  8
0
100
AcDbLine
 62
7
  6
CONTINUOUS
 10
-11.0629263796
 20
9.3486688592
 11
-11.0629263796
 21
7.645810803
  0
LINE
  5
4E4
100
AcDbEntity
  8
0
100
AcDbLine
 62
7
  6
CONTINUOUS
 10
-10.8358786388
 20
7.8418974883
 11
-10.8358786388
 21
8.4301575441
  0
LINE
  5
4E5
100
AcDbEntity
  8
0
100
AcDbLine
 62
7
  6
CONTINUOUS
 10
-10.8358786388
 20
8.6262442293
 11
-10.8358786388
 21
9.152582174
  0
LINE
  5
4E6
100
AcDbEntity
  8
0
100
AcDbLine
 62
7
  6
CONTINUOUS
 10
-9.9070469718
 20
8.4301575441
 11
-9.9070469718
 21
8.6262442293
  0
LINE
  5
4E7
100
AcDbEntity
  8
0
100
AcDbLine
 62
7
  6
CONTINUOUS
 10
-9.8451248606
 20
9.152582174
 11
-9.8451248606
 21
9.3486688592
  0
LINE
  5
4E8
100
AcDbEntity
  8
0
100
AcDbLine
 62
7
  6
CONTINUOUS
 10
-9.8038434532
 20
7.645810803
 11
-9.8038434532
 21
7.8418974883
  0
LINE
  5
4E9
100
AcDbEntity
  8
0
100
AcDbLine
 62
7
  6
CONTINUOUS
 10
-7.6572102672
 20
9.3486688592
 11
-8.1261411661
 21
8.1147418594
  0
LINE
  5
4EA
100
AcDbEntity
  8
0
100
AcDbLine
 62
7
  6
CONTINUOUS
 10
-8.0935675309
 20
7.645810803
 11
-7.4143594039
 21
9.3486688592
  0
LINE
  5
4EB
100
AcDbEntity
  8
DRAFT
100
AcDbLine
 62
7
  6
CONTINUOUS
 10
37.6094839793
 20
50.545810803
 11
37.5571187845
 21
50.4934456082
  0
LINE
  5
4EC
100
AcDbEntity
  8
0
100
AcDbLine
 62
7
  6
CONTINUOUS
 10
17.2455019867
 20
-13.014749197
 11
29.9455019867
 21
-13.014749197
  0
LINE
  5
4ED
100
AcDbEntity
  8
0
100
AcDbLine
 62
7
  6
CONTINUOUS
 10
29.9455019867
 20
-11.014749197
 11
17.2455019867
 21
-11.014749197
  0
LINE
  5
4EE
100
AcDbEntity
  8
0
100
AcDbLine
 62
7
  6
CONTINUOUS
 10
21.3079847845
 20
-9.869223197
 11
21.9488387845
 21
-9.869223197
  0
LINE
  5
4EF
100
AcDbEntity
  8
0
100
AcDbLine
 62
7
  6
CONTINUOUS
 10
21.7886247845
 20
-9.709009197
 11
21.4681987845
 21
-9.709009197
  0
LINE
  5
4F0
100
AcDbEntity
  8
0
100
AcDbLine
 62
7
  6
CONTINUOUS
 10
21.4681987845
 20
-9.068155197
 11
21.7886247845
 21
-9.068155197
  0
LINE
  5
4F1
100
AcDbEntity
  8
0
100
AcDbLine
 62
7
  6
CONTINUOUS
 10
21.9488387845
 20
-9.014749197
 11
23.7262027845
 21
-9.014749197
  0
LINE
  5
4F2
100
AcDbEntity
  8
RACCORDO
100
AcDbLine
 62
250
  6
CONTINUOUS
 10
38.8523883949
 20
-58.1496111123
 11
38.9571187845
 21
-58.2543415018
  0
LINE
  5
4F3
100
AcDbEntity
  8
0
100
AcDbLine
 62
7
  6
CONTINUOUS
 10
-17.0653397108
 20
7.645810803
 11
-17.747450481
 21
9.3486688592
  0
LINE
  5
4F4
100
AcDbEntity
  8
0
100
AcDbLine
 62
7
  6
CONTINUOUS
 10
-16.371618525
 20
9.3486688592
 11
-15.7169212928
 21
7.645810803
  0
LINE
  5
4F5
100
AcDbEntity
  8
0
100
AcDbLine
 62
7
  6
CONTINUOUS
 10
-17.4966981353
 20
8.1618283958
 11
-17.3067392524
 21
7.645810803
  0
LINE
  5
4F6
100
AcDbEntity
  8
0
100
AcDbLine
 62
7
  6
CONTINUOUS
 10
-13.0176654298
 20
8.1618283958
 11
-12.827706547
 21
7.645810803
  0
LINE
  5
4F7
100
AcDbEntity
  8
0
100
AcDbLine
 62
7
  6
CONTINUOUS
 10
-15.6880564332
 20
8.1147418594
 11
-16.1302191409
 21
9.3486688592
  0
LINE
  5
4F8
100
AcDbEntity
  8
0
100
AcDbLine
 62
7
  6
CONTINUOUS
 10
-7.2237554893
 20
9.3486688592
 11
-7.2237554893
 21
7.645810803
  0
LINE
  5
4F9
100
AcDbEntity
  8
0
100
AcDbLine
 62
7
  6
CONTINUOUS
 10
-6.9967077484
 20
7.645810803
 11
-6.9967077484
 21
9.3486688592
  0
LINE
  5
4FA
100
AcDbEntity
  8
0
100
AcDbLine
 62
7
  6
CONTINUOUS
 10
-6.1428812155
 20
49.145810803
 11
-6.1428812155
 21
42.845810803
  0
LINE
  5
4FB
100
AcDbEntity
  8
0
100
AcDbLine
 62
7
  6
CONTINUOUS
 10
-6.1428812155
 20
-57.854189197
 11
-6.1428812155
 21
-51.554189197
  0
LINE
  5
4FC
100
AcDbEntity
  8
0
100
AcDbLine
 62
7
  6
CONTINUOUS
 10
-4.8707152661
 20
9.3486688592
 11
-4.8707152661
 21
7.645810803
  0
LINE
  5
4FD
100
AcDbEntity
  8
0
100
AcDbLine
 62
7
  6
CONTINUOUS
 10
-4.6436675253
 20
7.8418974883
 11
-4.6436675253
 21
8.4301575441
  0
LINE
  5
4FE
100
AcDbEntity
  8
0
100
AcDbLine
 62
7
  6
CONTINUOUS
 10
-4.6436675253
 20
8.6262442293
 11
-4.6436675253
 21
9.152582174
  0
LINE
  5
4FF
100
AcDbEntity
  8
DRAFT
100
AcDbLine
 62
7
  6
CONTINUOUS
 10
6.3071187845
 20
25.050843483
 11
6.7071187845
 21
25.743663806
  0
LINE
  5
500
100
AcDbEntity
  8
DRAFT
100
AcDbLine
 62
7
  6
CONTINUOUS
 10
6.3682115118
 20
25.0344737361
 11
6.7071187845
 21
25.6214783515
  0
LINE
  5
501
100
AcDbEntity
  8
0
100
AcDbLine
 62
7
  6
CONTINUOUS
 10
-0.8636773608
 20
8.9485940062
 11
-1.7333283019
 21
7.8501216441
  0
LINE
  5
502
100
AcDbEntity
  8
RACCORDO
100
AcDbLine
 62
250
  6
CONTINUOUS
 10
37.9572710893
 20
50.545810803
 11
37.8525406998
 21
50.4410804134
  0
LINE
  5
503
100
AcDbEntity
  8
RACCORDO
100
AcDbLine
 62
250
  6
CONTINUOUS
 10
38.9571187845
 20
49.5459631079
 11
38.8523883949
 21
49.4412327183
  0
LINE
  5
504
100
AcDbEntity
  8
RACCORDO
100
AcDbLine
 62
7
  6
CONTINUOUS
 10
7.5571187845
 20
-5.854189197
 11
7.9101283806
 21
-5.808182838
  0
LINE
  5
505
100
AcDbEntity
  8
0
100
AcDbLine
 62
7
  6
CONTINUOUS
 10
23.7262014787
 20
-8.907941197
 11
21.4058567845
 21
-8.907941197
  0
LINE
  5
506
100
AcDbEntity
  8
DRAFT
100
AcDbLine
 62
7
  6
CONTINUOUS
 10
-2.9428812155
 20
-5.854189197
 11
-1.4428812155
 21
-5.854189197
  0
LINE
  5
507
100
AcDbEntity
  8
DRAFT
100
AcDbLine
 62
7
  6
CONTINUOUS
 10
7.5571187845
 20
-5.854189197
 11
9.0571187845
 21
-5.854189197
  0
LINE
  5
508
100
AcDbEntity
  8
RACCORDO
100
AcDbLine
 62
250
  6
CONTINUOUS
 10
-2.8968748565
 20
-5.808182838
 11
-1.7958908116
 21
-5.808182838
  0
LINE
  5
509
100
AcDbEntity
  8
RACCORDO
100
AcDbLine
 62
250
  6
CONTINUOUS
 10
7.9101283806
 20
-5.808182838
 11
9.0111124255
 21
-5.808182838
  0
LINE
  5
50A
100
AcDbEntity
  8
RACCORDO
100
AcDbLine
 62
250
  6
CONTINUOUS
 10
-2.8800238304
 20
-5.3084874245
 11
-1.9251897619
 21
-5.3084874245
  0
LINE
  5
50B
100
AcDbEntity
  8
RACCORDO
100
AcDbLine
 62
250
  6
CONTINUOUS
 10
8.0394273309
 20
-5.3084874245
 11
8.9942613994
 21
-5.3084874245
  0
LINE
  5
50C
100
AcDbEntity
  8
RACCORDO
100
AcDbLine
 62
7
  6
CONTINUOUS
 10
-1.4428812155
 20
-5.854189197
 11
-1.7958908116
 21
-5.808182838
  0
LINE
  5
50D
100
AcDbEntity
  8
0
100
AcDbLine
 62
7
  6
CONTINUOUS
 10
-12.5863070053
 20
7.645810803
 11
-13.2684177756
 21
9.3486688592
  0
LINE
  5
50E
100
AcDbEntity
  8
0
100
AcDbLine
 62
7
  6
CONTINUOUS
 10
-8.9925669481
 20
9.3486688592
 11
-8.3378697158
 21
7.645810803
  0
LINE
  5
50F
100
AcDbEntity
  8
0
100
AcDbLine
 62
7
  6
CONTINUOUS
 10
-8.3090048562
 20
8.1147418594
 11
-8.7511675639
 21
9.3486688592
  0
LINE
  5
510
100
AcDbEntity
  8
DRAFT
100
AcDbLine
 62
7
  6
CONTINUOUS
 10
-1.3205320164
 20
11.245810803
 11
-1.3219351376
 21
11.545810803
  0
LINE
  5
511
100
AcDbEntity
  8
0
100
AcDbLine
 62
7
  6
CONTINUOUS
 10
-3.9428812155
 20
49.145810803
 11
-3.9428812155
 21
42.845810803
  0
LINE
  5
512
100
AcDbEntity
  8
0
100
AcDbLine
 62
7
  6
CONTINUOUS
 10
-3.9428812155
 20
-57.854189197
 11
-3.9428812155
 21
-51.554189197
  0
LINE
  5
513
100
AcDbEntity
  8
0
100
AcDbLine
 62
7
  6
CONTINUOUS
 10
-3.7148358583
 20
8.4301575441
 11
-3.7148358583
 21
8.6262442293
  0
LINE
  5
514
100
AcDbEntity
  8
0
100
AcDbLine
 62
7
  6
CONTINUOUS
 10
-3.6529137471
 20
9.152582174
 11
-3.6529137471
 21
9.3486688592
  0
LINE
  5
515
100
AcDbEntity
  8
0
100
AcDbLine
 62
7
  6
CONTINUOUS
 10
-3.6116323397
 20
7.645810803
 11
-3.6116323397
 21
7.8418974883
  0
LINE
  5
516
100
AcDbEntity
  8
0
100
AcDbLine
 62
7
  6
CONTINUOUS
 10
-3.2917014322
 20
9.3486688592
 11
-3.2917014322
 21
7.645810803
  0
LINE
  5
517
100
AcDbEntity
  8
0
100
AcDbLine
 62
7
  6
CONTINUOUS
 10
-3.0646536913
 20
7.645810803
 11
-3.0646536913
 21
8.9518191654
  0
LINE
  5
518
100
AcDbEntity
  8
DRAFT
100
AcDbLine
 62
7
  6
CONTINUOUS
 10
-2.9428812155
 20
-2.854189197
 11
-2.9428812155
 21
-5.854189197
  0
LINE
  5
519
100
AcDbEntity
  8
RACCORDO
100
AcDbLine
 62
7
  6
CONTINUOUS
 10
-2.8800238304
 20
-3.3998909695
 11
-2.8800238304
 21
-5.3084874245
  0
LINE
  5
51A
100
AcDbEntity
  8
0
100
AcDbLine
 62
7
  6
CONTINUOUS
 10
-2.4428812155
 20
49.145810803
 11
-2.4428812155
 21
42.245810803
  0
LINE
  5
51B
100
AcDbEntity
  8
0
100
AcDbLine
 62
7
  6
CONTINUOUS
 10
-2.1977441354
 20
9.3486688592
 11
-2.1977441354
 21
8.0426606543
  0
LINE
  5
51C
100
AcDbEntity
  8
0
100
AcDbLine
 62
7
  6
CONTINUOUS
 10
-1.9706963946
 20
7.645810803
 11
-1.9706963946
 21
9.3486688592
  0
LINE
  5
51D
100
AcDbEntity
  8
RACCORDO
100
AcDbLine
 62
7
  6
CONTINUOUS
 10
-1.9251897619
 20
-3.3998909695
 11
-1.9251897619
 21
-5.3084874245
  0
LINE
  5
51E
100
AcDbEntity
  8
0
100
AcDbLine
 62
7
  6
CONTINUOUS
 10
-1.7333283019
 20
7.8501216441
 11
-1.7333283019
 21
7.645810803
  0
LINE
  5
51F
100
AcDbEntity
  8
0
100
AcDbLine
 62
7
  6
CONTINUOUS
 10
-1.6301247834
 20
9.3486688592
 11
-1.6301247834
 21
9.152582174
  0
LINE
  5
520
100
AcDbEntity
  8
SMUSSO
100
AcDbLine
 62
7
  6
CONTINUOUS
 10
-1.4428812155
 20
16.0268302512
 11
-1.4428812155
 21
13.395810803
  0
LINE
  5
521
100
AcDbEntity
  8
DRAFT
100
AcDbLine
 62
7
  6
CONTINUOUS
 10
-1.4428812155
 20
-5.854189197
 11
-1.4428812155
 21
-2.854189197
  0
LINE
  5
522
100
AcDbEntity
  8
DRAFT
100
AcDbLine
 62
7
  6
CONTINUOUS
 10
-1.4428812155
 20
16.0268302512
 11
-1.4428812155
 21
16.895810803
  0
LINE
  5
523
100
AcDbEntity
  8
0
100
AcDbLine
 62
7
  6
CONTINUOUS
 10
-1.4428812155
 20
39.345810803
 11
-1.4428812155
 21
49.645810803
  0
LINE
  5
524
100
AcDbEntity
  8
RACCORDO
100
AcDbLine
 62
7
  6
CONTINUOUS
 10
-1.3428812155
 20
12.345810803
 11
-1.3428812155
 21
16.895810803
  0
LINE
  5
525
100
AcDbEntity
  8
RACCORDO
100
AcDbLine
 62
7
  6
CONTINUOUS
 10
-1.3428812155
 20
39.345810803
 11
-1.3428812155
 21
45.2458869554
  0
LINE
  5
526
100
AcDbEntity
  8
RACCORDO
100
AcDbLine
 62
7
  6
CONTINUOUS
 10
-1.3219351376
 20
11.545810803
 11
-1.3219351376
 21
12.045810803
  0
LINE
  5
527
100
AcDbEntity
  8
RACCORDO
100
AcDbLine
 62
7
  6
CONTINUOUS
 10
-1.2678244363
 20
13.245810803
 11
-1.2678244363
 21
16.895810803
  0
LINE
  5
528
100
AcDbEntity
  8
RACCORDO
100
AcDbLine
 62
7
  6
CONTINUOUS
 10
-1.2678244363
 20
39.345810803
 11
-1.2678244363
 21
45.1708301762
  0
LINE
  5
529
100
AcDbEntity
  8
0
100
AcDbLine
 62
7
  6
CONTINUOUS
 10
-0.5928812155
 20
16.895810803
 11
-0.5928812155
 21
39.345810803
  0
LINE
  5
52A
100
AcDbEntity
  8
0
100
AcDbLine
 62
7
  6
CONTINUOUS
 10
-0.4226436162
 20
9.152582174
 11
-0.4226436162
 21
9.3486688592
  0
LINE
  5
52B
100
AcDbEntity
  8
0
100
AcDbLine
 62
7
  6
CONTINUOUS
 10
-0.3813622088
 20
7.645810803
 11
-0.3813622088
 21
7.8418974883
  0
LINE
  5
52C
100
AcDbEntity
  8
DRAFT
100
AcDbLine
 62
7
  6
CONTINUOUS
 10
-0.2539739427
 20
44.245810803
 11
-0.2539739427
 21
29.65714787
  0
LINE
  5
52D
100
AcDbEntity
  8
DRAFT
100
AcDbLine
 62
7
  6
CONTINUOUS
 10
-0.2539739427
 20
25.0344737361
 11
-0.2539739427
 21
14.945810803
  0
LINE
  5
52E
100
AcDbEntity
  8
DRAFT
100
AcDbLine
 62
7
  6
CONTINUOUS
 10
-0.2050997609
 20
42.045810803
 11
-0.2050997609
 21
37.245810803
  0
LINE
  5
52F
100
AcDbEntity
  8
DRAFT
100
AcDbLine
 62
7
  6
CONTINUOUS
 10
-0.1928812155
 20
29.640778123
 11
-0.1928812155
 21
25.050843483
  0
LINE
  5
530
100
AcDbEntity
  8
DRAFT
100
AcDbLine
 62
7
  6
CONTINUOUS
 10
-0.1789171636
 20
44.245810803
 11
-0.1789171636
 21
42.045810803
  0
LINE
  5
531
100
AcDbEntity
  8
DRAFT
100
AcDbLine
 62
7
  6
CONTINUOUS
 10
-0.1789171636
 20
37.245810803
 11
-0.1789171636
 21
14.945810803
  0
LINE
  5
532
100
AcDbEntity
  8
0
100
AcDbLine
 62
7
  6
CONTINUOUS
 10
-0.0928812155
 20
37.245810803
 11
-0.0928812155
 21
16.895810803
  0
LINE
  5
533
100
AcDbEntity
  8
DRAFT
100
AcDbLine
 62
7
  6
CONTINUOUS
 10
0.5571187845
 20
-20.304189197
 11
0.5571187845
 21
-22.3718289239
  0
LINE
  5
534
100
AcDbEntity
  8
DRAFT
100
AcDbLine
 62
7
  6
CONTINUOUS
 10
-1.2678244363
 20
13.245810803
 11
-1.3027345662
 21
11.245810803
  0
LINE
  5
535
100
AcDbEntity
  8
0
100
AcDbLine
 62
7
  6
CONTINUOUS
 10
-0.0923923569
 20
7.645810803
 11
0.0870850737
 21
8.1618283958
  0
LINE
  5
536
100
AcDbEntity
  8
0
100
AcDbLine
 62
7
  6
CONTINUOUS
 10
0.1517485701
 20
8.3475947292
 11
0.3357410659
 21
8.8447454558
  0
LINE
  5
537
100
AcDbEntity
  8
0
100
AcDbLine
 62
7
  6
CONTINUOUS
 10
0.3152616202
 20
9.3486688592
 11
-0.3320179035
 21
7.645810803
  0
LINE
  5
538
100
AcDbEntity
  8
0
100
AcDbLine
 62
7
  6
CONTINUOUS
 10
4.0563890892
 20
9.3486688592
 11
3.2617219963
 21
8.2443912106
  0
LINE
  5
539
100
AcDbEntity
  8
0
100
AcDbLine
 62
7
  6
CONTINUOUS
 10
3.4684515493
 20
8.2443912106
 11
4.0151076818
 21
9.0042272145
  0
LINE
  5
53A
100
AcDbEntity
  8
RACCORDO
100
AcDbLine
 62
7
  6
CONTINUOUS
 10
-1.4428812155
 20
-2.854189197
 11
-1.7958908116
 21
-2.900195556
  0
LINE
  5
53B
100
AcDbEntity
  8
0
100
AcDbLine
 62
7
  6
CONTINUOUS
 10
22.3628587845
 20
-3.941319197
 11
24.2320187845
 21
-3.941319197
  0
LINE
  5
53C
100
AcDbEntity
  8
0
100
AcDbLine
 62
7
  6
CONTINUOUS
 10
24.1252087845
 20
-3.834509197
 11
22.4696687845
 21
-3.834509197
  0
LINE
  5
53D
100
AcDbEntity
  8
0
100
AcDbLine
 62
7
  6
CONTINUOUS
 10
22.4696687845
 20
-3.514081197
 11
24.1252087845
 21
-3.514081197
  0
LINE
  5
53E
100
AcDbEntity
  8
0
100
AcDbLine
 62
7
  6
CONTINUOUS
 10
24.2320187845
 20
-3.407273197
 11
22.3628587845
 21
-3.407273197
  0
LINE
  5
53F
100
AcDbEntity
  8
0
100
AcDbLine
 62
7
  6
CONTINUOUS
 10
25.2523907845
 20
-3.407273197
 11
26.2079867845
 21
-3.407273197
  0
LINE
  5
540
100
AcDbEntity
  8
RACCORDO
100
AcDbLine
 62
250
  6
CONTINUOUS
 10
8.9942613994
 20
-3.3998909695
 11
8.0394273309
 21
-3.3998909695
  0
LINE
  5
541
100
AcDbEntity
  8
RACCORDO
100
AcDbLine
 62
250
  6
CONTINUOUS
 10
-1.9251897619
 20
-3.3998909695
 11
-2.8800238304
 21
-3.3998909695
  0
LINE
  5
542
100
AcDbEntity
  8
0
100
AcDbLine
 62
7
  6
CONTINUOUS
 10
26.1011767845
 20
-3.300463197
 11
25.2618947845
 21
-3.300463197
  0
LINE
  5
543
100
AcDbEntity
  8
RACCORDO
100
AcDbLine
 62
250
  6
CONTINUOUS
 10
9.0111124255
 20
-2.900195556
 11
7.9101283806
 21
-2.900195556
  0
LINE
  5
544
100
AcDbEntity
  8
RACCORDO
100
AcDbLine
 62
250
  6
CONTINUOUS
 10
-1.7958908116
 20
-2.900195556
 11
-2.8968748565
 21
-2.900195556
  0
LINE
  5
545
100
AcDbEntity
  8
DRAFT
100
AcDbLine
 62
7
  6
CONTINUOUS
 10
9.0571187845
 20
-2.854189197
 11
7.5571187845
 21
-2.854189197
  0
LINE
  5
546
100
AcDbEntity
  8
DRAFT
100
AcDbLine
 62
7
  6
CONTINUOUS
 10
-1.4428812155
 20
-2.854189197
 11
-2.9428812155
 21
-2.854189197
  0
LINE
  5
547
100
AcDbEntity
  8
0
100
AcDbLine
 62
7
  6
CONTINUOUS
 10
25.0330867845
 20
-2.339183197
 11
25.2386187845
 21
-2.339183197
  0
LINE
  5
548
100
AcDbEntity
  8
0
100
AcDbLine
 62
7
  6
CONTINUOUS
 10
25.3458367845
 20
-2.339183197
 11
25.9210747845
 21
-2.339183197
  0
LINE
  5
549
100
AcDbEntity
  8
0
100
AcDbLine
 62
7
  6
CONTINUOUS
 10
26.0278847845
 20
-2.232373197
 11
25.3551807845
 21
-2.232373197
  0
LINE
  5
54A
100
AcDbEntity
  8
0
100
AcDbLine
 62
7
  6
CONTINUOUS
 10
25.2479627845
 20
-2.232373197
 11
24.9262767845
 21
-2.232373197
  0
LINE
  5
54B
100
AcDbEntity
  8
0
100
AcDbLine
 62
7
  6
CONTINUOUS
 10
19.7994427845
 20
-1.805137197
 11
20.6772247845
 21
-1.805137197
  0
LINE
  5
54C
100
AcDbEntity
  8
0
100
AcDbLine
 62
7
  6
CONTINUOUS
 10
20.7844427845
 20
-1.805137197
 11
25.2853427845
 21
-1.805137197
  0
LINE
  5
54D
100
AcDbEntity
  8
0
100
AcDbLine
 62
7
  6
CONTINUOUS
 10
25.3925587845
 20
-1.805137197
 11
25.7273447845
 21
-1.805137197
  0
LINE
  5
54E
100
AcDbEntity
  8
0
100
AcDbLine
 62
7
  6
CONTINUOUS
 10
24.9917006151
 20
-1.377901197
 11
21.4549827845
 21
-1.377901197
  0
LINE
  5
54F
100
AcDbEntity
  8
0
100
AcDbLine
 62
7
  6
CONTINUOUS
 10
20.9209367845
 20
-1.377901197
 11
20.7470647845
 21
-1.377901197
  0
LINE
  5
550
100
AcDbEntity
  8
0
100
AcDbLine
 62
7
  6
CONTINUOUS
 10
20.6398467845
 20
-1.377901197
 11
19.7994427845
 21
-1.377901197
  0
LINE
  5
551
100
AcDbEntity
  8
0
100
AcDbLine
 62
7
  6
CONTINUOUS
 10
21.3481727845
 20
-1.271091197
 11
21.0277467845
 21
-1.271091197
  0
LINE
  5
552
100
AcDbEntity
  8
0
100
AcDbLine
 62
7
  6
CONTINUOUS
 10
22.5764787845
 20
-0.950663197
 11
24.0184007845
 21
-0.950663197
  0
LINE
  5
553
100
AcDbEntity
  8
0
100
AcDbLine
 62
7
  6
CONTINUOUS
 10
23.9115907845
 20
-0.843855197
 11
22.6832867845
 21
-0.843855197
  0
LINE
  5
554
100
AcDbEntity
  8
0
100
AcDbLine
 62
7
  6
CONTINUOUS
 10
21.0277467845
 20
-0.576833197
 11
21.3481727845
 21
-0.576833197
  0
LINE
  5
555
100
AcDbEntity
  8
0
100
AcDbLine
 62
7
  6
CONTINUOUS
 10
21.4549827845
 20
-0.470023197
 11
20.9209367845
 21
-0.470023197
  0
LINE
  5
556
100
AcDbEntity
  8
0
100
AcDbLine
 62
7
  6
CONTINUOUS
 10
22.6832867845
 20
-0.416619197
 11
23.9115907845
 21
-0.416619197
  0
LINE
  5
557
100
AcDbEntity
  8
0
100
AcDbLine
 62
7
  6
CONTINUOUS
 10
24.0184007845
 20
-0.309809197
 11
22.5764787845
 21
-0.309809197
  0
LINE
  5
558
100
AcDbEntity
  8
RACCORDO
100
AcDbLine
 62
7
  6
CONTINUOUS
 10
7.5571187845
 20
-2.854189197
 11
7.9101283806
 21
-2.900195556
  0
LINE
  5
559
100
AcDbEntity
  8
RACCORDO
100
AcDbLine
 62
7
  6
CONTINUOUS
 10
-2.9428812155
 20
-2.854189197
 11
-2.8968748565
 21
-2.900195556
  0
LINE
  5
55A
100
AcDbEntity
  8
0
100
AcDbLine
 62
7
  6
CONTINUOUS
 10
2.1677646996
 20
8.9306946878
 11
2.1677646996
 21
8.7281578417
  0
LINE
  5
55B
100
AcDbEntity
  8
DRAFT
100
AcDbLine
 62
7
  6
CONTINUOUS
 10
2.3071187845
 20
-22.3718289239
 11
2.3071187845
 21
-20.304189197
  0
LINE
  5
55C
100
AcDbEntity
  8
0
100
AcDbLine
 62
7
  6
CONTINUOUS
 10
2.5908991257
 20
8.9806838675
 11
2.5908991257
 21
7.645810803
  0
LINE
  5
55D
100
AcDbEntity
  8
0
100
AcDbLine
 62
7
  6
CONTINUOUS
 10
2.7973061628
 20
7.645810803
 11
2.7973061628
 21
9.3589892111
  0
LINE
  5
55E
100
AcDbEntity
  8
0
100
AcDbLine
 62
7
  6
CONTINUOUS
 10
3.2617219963
 20
8.2443912106
 11
3.2617219963
 21
8.0483045254
  0
LINE
  5
55F
100
AcDbEntity
  8
DRAFT
100
AcDbLine
 62
7
  6
CONTINUOUS
 10
3.8071187845
 20
-20.304189197
 11
3.8071187845
 21
-22.3718289239
  0
LINE
  5
560
100
AcDbEntity
  8
0
100
AcDbLine
 62
7
  6
CONTINUOUS
 10
4.0151076818
 20
9.0042272145
 11
4.0151076818
 21
8.2443912106
  0
LINE
  5
561
100
AcDbEntity
  8
0
100
AcDbLine
 62
7
  6
CONTINUOUS
 10
4.0151076818
 20
8.0483045254
 11
4.0151076818
 21
7.645810803
  0
LINE
  5
562
100
AcDbEntity
  8
0
100
AcDbLine
 62
7
  6
CONTINUOUS
 10
4.2215147189
 20
7.645810803
 11
4.2215147189
 21
8.0483045254
  0
LINE
  5
563
100
AcDbEntity
  8
0
100
AcDbLine
 62
7
  6
CONTINUOUS
 10
4.2215147189
 20
8.2443912106
 11
4.2215147189
 21
9.3486688592
  0
LINE
  5
564
100
AcDbEntity
  8
0
100
AcDbLine
 62
7
  6
CONTINUOUS
 10
4.4485624597
 20
8.0483045254
 11
4.4485624597
 21
8.2443912106
  0
LINE
  5
565
100
AcDbEntity
  8
0
100
AcDbLine
 62
7
  6
CONTINUOUS
 10
5.7542483062
 20
8.6365645812
 11
5.7303824433
 21
8.4507982478
  0
LINE
  5
566
100
AcDbEntity
  8
RACCORDO
100
AcDbLine
 62
7
  6
CONTINUOUS
 10
-2.9428812155
 20
-5.854189197
 11
-2.8968748565
 21
-5.808182838
  0
LINE
  5
567
100
AcDbEntity
  8
0
100
AcDbLine
 62
7
  6
CONTINUOUS
 10
24.6351706898
 20
8.8287812329
 11
24.8622184306
 21
8.881028024
  0
LINE
  5
568
100
AcDbEntity
  8
RACCORDO
100
AcDbLine
 62
7
  6
CONTINUOUS
 10
9.0571187845
 20
-5.854189197
 11
9.0111124255
 21
-5.808182838
  0
LINE
  5
569
100
AcDbEntity
  8
0
100
AcDbLine
 62
7
  6
CONTINUOUS
 10
-3.0646536913
 20
8.9518191654
 11
-2.2120957788
 21
7.645810803
  0
LINE
  5
56A
100
AcDbEntity
  8
0
100
AcDbLine
 62
7
  6
CONTINUOUS
 10
-2.1977441354
 20
8.0426606543
 11
-3.0503018905
 21
9.3486688592
  0
LINE
  5
56B
100
AcDbEntity
  8
0
100
AcDbLine
 62
7
  6
CONTINUOUS
 10
1.2429644815
 20
7.645810803
 11
0.5608537113
 21
9.3486688592
  0
LINE
  5
56C
100
AcDbEntity
  8
0
100
AcDbLine
 62
7
  6
CONTINUOUS
 10
0.811606057
 20
8.1618283958
 11
1.0015649399
 21
7.645810803
  0
LINE
  5
56D
100
AcDbEntity
  8
DRAFT
100
AcDbLine
 62
7
  6
CONTINUOUS
 10
7.3820620053
 20
13.245810803
 11
7.4169721352
 21
11.245810803
  0
LINE
  5
56E
100
AcDbEntity
  8
DRAFT
100
AcDbLine
 62
7
  6
CONTINUOUS
 10
5.5571187845
 20
-22.3718289239
 11
5.5571187845
 21
-20.304189197
  0
LINE
  5
56F
100
AcDbEntity
  8
0
100
AcDbLine
 62
7
  6
CONTINUOUS
 10
6.2071187845
 20
16.895810803
 11
6.2071187845
 21
37.245810803
  0
LINE
  5
570
100
AcDbEntity
  8
DRAFT
100
AcDbLine
 62
7
  6
CONTINUOUS
 10
6.2931547326
 20
14.945810803
 11
6.2931547326
 21
37.245810803
  0
LINE
  5
571
100
AcDbEntity
  8
DRAFT
100
AcDbLine
 62
7
  6
CONTINUOUS
 10
6.2931547326
 20
42.045810803
 11
6.2931547326
 21
44.245810803
  0
LINE
  5
572
100
AcDbEntity
  8
DRAFT
100
AcDbLine
 62
7
  6
CONTINUOUS
 10
6.3071187845
 20
25.050843483
 11
6.3071187845
 21
29.640778123
  0
LINE
  5
573
100
AcDbEntity
  8
DRAFT
100
AcDbLine
 62
7
  6
CONTINUOUS
 10
6.31933733
 20
42.045810803
 11
6.31933733
 21
37.245810803
  0
LINE
  5
574
100
AcDbEntity
  8
DRAFT
100
AcDbLine
 62
7
  6
CONTINUOUS
 10
6.3682115118
 20
14.945810803
 11
6.3682115118
 21
25.0344737361
  0
LINE
  5
575
100
AcDbEntity
  8
DRAFT
100
AcDbLine
 62
7
  6
CONTINUOUS
 10
6.3682115118
 20
29.65714787
 11
6.3682115118
 21
44.245810803
  0
LINE
  5
576
100
AcDbEntity
  8
0
100
AcDbLine
 62
7
  6
CONTINUOUS
 10
6.7071187845
 20
39.345810803
 11
6.7071187845
 21
16.895810803
  0
LINE
  5
577
100
AcDbEntity
  8
RACCORDO
100
AcDbLine
 62
7
  6
CONTINUOUS
 10
7.3820620053
 20
45.1708301762
 11
7.3820620053
 21
39.345810803
  0
LINE
  5
578
100
AcDbEntity
  8
RACCORDO
100
AcDbLine
 62
7
  6
CONTINUOUS
 10
7.3820620053
 20
16.895810803
 11
7.3820620053
 21
13.245810803
  0
LINE
  5
579
100
AcDbEntity
  8
RACCORDO
100
AcDbLine
 62
7
  6
CONTINUOUS
 10
7.4361727066
 20
11.545810803
 11
7.4361727066
 21
12.045810803
  0
LINE
  5
57A
100
AcDbEntity
  8
RACCORDO
100
AcDbLine
 62
7
  6
CONTINUOUS
 10
7.4571187845
 20
45.2458869554
 11
7.4571187845
 21
39.345810803
  0
LINE
  5
57B
100
AcDbEntity
  8
RACCORDO
100
AcDbLine
 62
7
  6
CONTINUOUS
 10
7.4571187845
 20
16.895810803
 11
7.4571187845
 21
12.345810803
  0
LINE
  5
57C
100
AcDbEntity
  8
0
100
AcDbLine
 62
7
  6
CONTINUOUS
 10
7.5571187845
 20
49.645810803
 11
7.5571187845
 21
39.345810803
  0
LINE
  5
57D
100
AcDbEntity
  8
DRAFT
100
AcDbLine
 62
7
  6
CONTINUOUS
 10
7.5571187845
 20
-2.854189197
 11
7.5571187845
 21
-5.854189197
  0
LINE
  5
57E
100
AcDbEntity
  8
SMUSSO
100
AcDbLine
 62
7
  6
CONTINUOUS
 10
7.5571187845
 20
13.395810803
 11
7.5571187845
 21
16.0268302512
  0
LINE
  5
57F
100
AcDbEntity
  8
DRAFT
100
AcDbLine
 62
7
  6
CONTINUOUS
 10
7.5571187845
 20
16.0268302512
 11
7.5571187845
 21
16.895810803
  0
LINE
  5
580
100
AcDbEntity
  8
RACCORDO
100
AcDbLine
 62
7
  6
CONTINUOUS
 10
8.0394273309
 20
-3.3998909695
 11
8.0394273309
 21
-5.3084874245
  0
LINE
  5
581
100
AcDbEntity
  8
0
100
AcDbLine
 62
7
  6
CONTINUOUS
 10
8.5571187845
 20
42.245810803
 11
8.5571187845
 21
49.145810803
  0
LINE
  5
582
100
AcDbEntity
  8
RACCORDO
100
AcDbLine
 62
7
  6
CONTINUOUS
 10
8.9942613994
 20
-3.3998909695
 11
8.9942613994
 21
-5.3084874245
  0
LINE
  5
583
100
AcDbEntity
  8
DRAFT
100
AcDbLine
 62
7
  6
CONTINUOUS
 10
9.0571187845
 20
-5.854189197
 11
9.0571187845
 21
-2.854189197
  0
LINE
  5
584
100
AcDbEntity
  8
0
100
AcDbLine
 62
7
  6
CONTINUOUS
 10
10.0571187845
 20
49.145810803
 11
10.0571187845
 21
42.845810803
  0
LINE
  5
585
100
AcDbEntity
  8
0
100
AcDbLine
 62
7
  6
CONTINUOUS
 10
10.0571187845
 20
-57.854189197
 11
10.0571187845
 21
-51.554189197
  0
LINE
  5
586
100
AcDbEntity
  8
DRAFT
100
AcDbLine
 62
7
  6
CONTINUOUS
 10
7.4347695854
 20
11.245810803
 11
7.4361727066
 21
11.545810803
  0
LINE
  5
587
100
AcDbEntity
  8
0
100
AcDbLine
 62
7
  6
CONTINUOUS
 10
11.0382684564
 20
8.6365645812
 11
11.0144025935
 21
8.4507982478
  0
LINE
  5
588
100
AcDbEntity
  8
0
100
AcDbLine
 62
7
  6
CONTINUOUS
 10
13.9884377655
 20
9.3486688592
 11
13.567238435
 21
8.1665048766
  0
LINE
  5
589
100
AcDbEntity
  8
RACCORDO
100
AcDbLine
 62
7
  6
CONTINUOUS
 10
9.0571187845
 20
-2.854189197
 11
9.0111124255
 21
-2.900195556
  0
LINE
  5
58A
100
AcDbEntity
  8
0
100
AcDbLine
 62
7
  6
CONTINUOUS
 10
-5.4280142663
 20
8.8287812329
 11
-5.2009665255
 21
8.881028024
  0
LINE
  5
58B
100
AcDbEntity
  8
0
100
AcDbLine
 62
7
  6
CONTINUOUS
 10
10.8058992029
 20
8.1205469884
 11
10.5994921658
 21
8.0895859328
  0
LINE
  5
58C
100
AcDbEntity
  8
0
100
AcDbLine
 62
7
  6
CONTINUOUS
 10
5.5218790527
 20
8.1205469884
 11
5.3154720156
 21
8.0895859328
  0
LINE
  5
58D
100
AcDbEntity
  8
0
100
AcDbLine
 62
7
  6
CONTINUOUS
 10
10.155717036
 20
8.9152140813
 11
10.3621240731
 21
8.935854785
  0
LINE
  5
58E
100
AcDbEntity
  8
0
100
AcDbLine
 62
7
  6
CONTINUOUS
 10
7.5137069609
 20
8.9152140813
 11
7.720113998
 21
8.935854785
  0
LINE
  5
58F
100
AcDbEntity
  8
0
100
AcDbLine
 62
7
  6
CONTINUOUS
 10
19.9290902435
 20
8.2134301551
 11
19.7123628546
 21
8.2031098032
  0
LINE
  5
590
100
AcDbEntity
  8
0
100
AcDbLine
 62
7
  6
CONTINUOUS
 10
-21.4658410503
 20
8.2134301551
 11
-21.6825684393
 21
8.2031098032
  0
LINE
  5
591
100
AcDbEntity
  8
0
100
AcDbLine
 62
7
  6
CONTINUOUS
 10
20.7856794476
 20
8.863612322
 11
21.0127271884
 21
8.8739326739
  0
LINE
  5
592
100
AcDbEntity
  8
0
100
AcDbLine
 62
7
  6
CONTINUOUS
 10
-20.6092518463
 20
8.863612322
 11
-20.3822041055
 21
8.8739326739
  0
LINE
  5
593
100
AcDbEntity
  8
0
100
AcDbLine
 62
7
  6
CONTINUOUS
 10
-29.2881839832
 20
7.645810803
 11
-29.0438817983
 21
7.645810803
  0
LINE
  5
594
100
AcDbEntity
  8
0
100
AcDbLine
 62
7
  6
CONTINUOUS
 10
-28.1740697567
 20
7.645810803
 11
-27.9470220158
 21
7.645810803
  0
LINE
  5
595
100
AcDbEntity
  8
0
100
AcDbLine
 62
7
  6
CONTINUOUS
 10
-27.5651689972
 20
7.645810803
 11
-27.3381212563
 21
7.645810803
  0
LINE
  5
596
100
AcDbEntity
  8
0
100
AcDbLine
 62
7
  6
CONTINUOUS
 10
-26.8470981747
 20
7.645810803
 11
-26.6539141326
 21
7.645810803
  0
LINE
  5
597
100
AcDbEntity
  8
0
100
AcDbLine
 62
7
  6
CONTINUOUS
 10
-25.7510445245
 20
7.645810803
 11
-25.5114189778
 21
7.645810803
  0
LINE
  5
598
100
AcDbEntity
  8
0
100
AcDbLine
 62
7
  6
CONTINUOUS
 10
-26.1512807929
 20
7.645810803
 11
-25.9242330521
 21
7.645810803
  0
LINE
  5
599
100
AcDbEntity
  8
0
100
AcDbLine
 62
7
  6
CONTINUOUS
 10
-24.4174616811
 20
7.645810803
 11
-24.1760621395
 21
7.645810803
  0
LINE
  5
59A
100
AcDbEntity
  8
0
100
AcDbLine
 62
7
  6
CONTINUOUS
 10
-23.9736865513
 20
7.645810803
 11
-23.7466388105
 21
7.645810803
  0
LINE
  5
59B
100
AcDbEntity
  8
0
100
AcDbLine
 62
7
  6
CONTINUOUS
 10
-22.7642702887
 20
7.645810803
 11
-22.49755372
 21
7.645810803
  0
LINE
  5
59C
100
AcDbEntity
  8
0
100
AcDbLine
 62
7
  6
CONTINUOUS
 10
-20.0209917905
 20
7.645810803
 11
-19.7939440497
 21
7.645810803
  0
LINE
  5
59D
100
AcDbEntity
  8
0
100
AcDbLine
 62
7
  6
CONTINUOUS
 10
-18.6403220958
 20
7.645810803
 11
-18.4006965492
 21
7.645810803
  0
LINE
  5
59E
100
AcDbEntity
  8
0
100
AcDbLine
 62
7
  6
CONTINUOUS
 10
-17.3067392524
 20
7.645810803
 11
-17.0653397108
 21
7.645810803
  0
LINE
  5
59F
100
AcDbEntity
  8
0
100
AcDbLine
 62
7
  6
CONTINUOUS
 10
-15.7169212928
 20
7.645810803
 11
-15.4726191079
 21
7.645810803
  0
LINE
  5
5A0
100
AcDbEntity
  8
0
100
AcDbLine
 62
7
  6
CONTINUOUS
 10
-14.6028070662
 20
7.645810803
 11
-14.3757593254
 21
7.645810803
  0
LINE
  5
5A1
100
AcDbEntity
  8
0
100
AcDbLine
 62
7
  6
CONTINUOUS
 10
-14.1612893903
 20
7.645810803
 11
-13.9216638437
 21
7.645810803
  0
LINE
  5
5A2
100
AcDbEntity
  8
0
100
AcDbLine
 62
7
  6
CONTINUOUS
 10
-12.4045721209
 20
7.645810803
 11
-11.3312555279
 21
7.645810803
  0
LINE
  5
5A3
100
AcDbEntity
  8
0
100
AcDbLine
 62
7
  6
CONTINUOUS
 10
-12.827706547
 20
7.645810803
 11
-12.5863070053
 21
7.645810803
  0
LINE
  5
5A4
100
AcDbEntity
  8
0
100
AcDbLine
 62
7
  6
CONTINUOUS
 10
-11.0629263796
 20
7.645810803
 11
-9.8038434532
 21
7.645810803
  0
LINE
  5
5A5
100
AcDbEntity
  8
0
100
AcDbLine
 62
7
  6
CONTINUOUS
 10
-8.3378697158
 20
7.645810803
 11
-8.0935675309
 21
7.645810803
  0
LINE
  5
5A6
100
AcDbEntity
  8
0
100
AcDbLine
 62
7
  6
CONTINUOUS
 10
-7.2237554893
 20
7.645810803
 11
-6.9967077484
 21
7.645810803
  0
LINE
  5
5A7
100
AcDbEntity
  8
0
100
AcDbLine
 62
7
  6
CONTINUOUS
 10
-4.8707152661
 20
7.645810803
 11
-3.6116323397
 21
7.645810803
  0
LINE
  5
5A8
100
AcDbEntity
  8
0
100
AcDbLine
 62
7
  6
CONTINUOUS
 10
-3.2917014322
 20
7.645810803
 11
-3.0646536913
 21
7.645810803
  0
LINE
  5
5A9
100
AcDbEntity
  8
0
100
AcDbLine
 62
7
  6
CONTINUOUS
 10
-1.7333283019
 20
7.645810803
 11
-0.3813622088
 21
7.645810803
  0
LINE
  5
5AA
100
AcDbEntity
  8
0
100
AcDbLine
 62
7
  6
CONTINUOUS
 10
-2.2120957788
 20
7.645810803
 11
-1.9706963946
 21
7.645810803
  0
LINE
  5
5AB
100
AcDbEntity
  8
0
100
AcDbLine
 62
7
  6
CONTINUOUS
 10
-0.3320179035
 20
7.645810803
 11
-0.0923923569
 21
7.645810803
  0
LINE
  5
5AC
100
AcDbEntity
  8
0
100
AcDbLine
 62
7
  6
CONTINUOUS
 10
1.0015649399
 20
7.645810803
 11
1.2429644815
 21
7.645810803
  0
LINE
  5
5AD
100
AcDbEntity
  8
0
100
AcDbLine
 62
7
  6
CONTINUOUS
 10
2.5908991257
 20
7.645810803
 11
2.7973061628
 21
7.645810803
  0
LINE
  5
5AE
100
AcDbEntity
  8
0
100
AcDbLine
 62
7
  6
CONTINUOUS
 10
4.0151076818
 20
7.645810803
 11
4.2215147189
 21
7.645810803
  0
LINE
  5
5AF
100
AcDbEntity
  8
0
100
AcDbLine
 62
7
  6
CONTINUOUS
 10
12.6429218333
 20
7.645810803
 11
12.8699695741
 21
7.645810803
  0
LINE
  5
5B0
100
AcDbEntity
  8
0
100
AcDbLine
 62
7
  6
CONTINUOUS
 10
13.3609926558
 20
7.645810803
 11
13.5541766978
 21
7.645810803
  0
LINE
  5
5B1
100
AcDbEntity
  8
0
100
AcDbLine
 62
7
  6
CONTINUOUS
 10
14.457046306
 20
7.645810803
 11
14.6966718526
 21
7.645810803
  0
LINE
  5
5B2
100
AcDbEntity
  8
0
100
AcDbLine
 62
7
  6
CONTINUOUS
 10
14.0568100375
 20
7.645810803
 11
14.2838577784
 21
7.645810803
  0
LINE
  5
5B3
100
AcDbEntity
  8
0
100
AcDbLine
 62
7
  6
CONTINUOUS
 10
15.7906291493
 20
7.645810803
 11
16.032028691
 21
7.645810803
  0
LINE
  5
5B4
100
AcDbEntity
  8
0
100
AcDbLine
 62
7
  6
CONTINUOUS
 10
16.2344042791
 20
7.645810803
 11
16.46145202
 21
7.645810803
  0
LINE
  5
5B5
100
AcDbEntity
  8
0
100
AcDbLine
 62
7
  6
CONTINUOUS
 10
17.4438205418
 20
7.645810803
 11
17.7105371104
 21
7.645810803
  0
LINE
  5
5B6
100
AcDbEntity
  8
0
100
AcDbLine
 62
7
  6
CONTINUOUS
 10
21.7970739294
 20
7.645810803
 11
22.0241216703
 21
7.645810803
  0
LINE
  5
5B7
100
AcDbEntity
  8
0
100
AcDbLine
 62
7
  6
CONTINUOUS
 10
22.8394294669
 20
7.645810803
 11
23.0664772077
 21
7.645810803
  0
LINE
  5
5B8
100
AcDbEntity
  8
0
100
AcDbLine
 62
7
  6
CONTINUOUS
 10
24.9941255508
 20
7.645810803
 11
25.2337510974
 21
7.645810803
  0
LINE
  5
5B9
100
AcDbEntity
  8
0
100
AcDbLine
 62
7
  6
CONTINUOUS
 10
26.3277083942
 20
7.645810803
 11
26.5691079358
 21
7.645810803
  0
LINE
  5
5BA
100
AcDbEntity
  8
0
100
AcDbLine
 62
7
  6
CONTINUOUS
 10
27.9175263538
 20
7.645810803
 11
28.1618285387
 21
7.645810803
  0
LINE
  5
5BB
100
AcDbEntity
  8
0
100
AcDbLine
 62
7
  6
CONTINUOUS
 10
29.0316405804
 20
7.645810803
 11
29.2586883212
 21
7.645810803
  0
LINE
  5
5BC
100
AcDbEntity
  8
0
100
AcDbLine
 62
7
  6
CONTINUOUS
 10
30.3526456179
 20
7.645810803
 11
30.5796933588
 21
7.645810803
  0
LINE
  5
5BD
100
AcDbEntity
  8
0
100
AcDbLine
 62
7
  6
CONTINUOUS
 10
31.4156418591
 20
7.645810803
 11
31.6426895999
 21
7.645810803
  0
LINE
  5
5BE
100
AcDbEntity
  8
0
100
AcDbLine
 62
7
  6
CONTINUOUS
 10
32.2390125536
 20
7.645810803
 11
32.4786381003
 21
7.645810803
  0
LINE
  5
5BF
100
AcDbEntity
  8
0
100
AcDbLine
 62
7
  6
CONTINUOUS
 10
33.9957298231
 20
7.645810803
 11
35.0690464161
 21
7.645810803
  0
LINE
  5
5C0
100
AcDbEntity
  8
0
100
AcDbLine
 62
7
  6
CONTINUOUS
 10
33.572595397
 20
7.645810803
 11
33.8139949386
 21
7.645810803
  0
LINE
  5
5C1
100
AcDbEntity
  8
0
100
AcDbLine
 62
7
  6
CONTINUOUS
 10
35.8030814615
 20
7.645810803
 11
36.0301292023
 21
7.645810803
  0
LINE
  5
5C2
100
AcDbEntity
  8
0
100
AcDbLine
 62
7
  6
CONTINUOUS
 10
35.0690464161
 20
7.8418974883
 11
34.2227775639
 21
7.8418974883
  0
LINE
  5
5C3
100
AcDbEntity
  8
0
100
AcDbLine
 62
7
  6
CONTINUOUS
 10
-0.3813622088
 20
7.8418974883
 11
-1.4761256379
 21
7.8418974883
  0
LINE
  5
5C4
100
AcDbEntity
  8
0
100
AcDbLine
 62
7
  6
CONTINUOUS
 10
-3.6116323397
 20
7.8418974883
 11
-4.6436675253
 21
7.8418974883
  0
LINE
  5
5C5
100
AcDbEntity
  8
0
100
AcDbLine
 62
7
  6
CONTINUOUS
 10
-9.8038434532
 20
7.8418974883
 11
-10.8358786388
 21
7.8418974883
  0
LINE
  5
5C6
100
AcDbEntity
  8
0
100
AcDbLine
 62
7
  6
CONTINUOUS
 10
-11.3312555279
 20
7.8418974883
 11
-12.1775243801
 21
7.8418974883
  0
LINE
  5
5C7
100
AcDbEntity
  8
0
100
AcDbLine
 62
7
  6
CONTINUOUS
 10
3.2617219963
 20
8.0483045254
 11
4.0151076818
 21
8.0483045254
  0
LINE
  5
5C8
100
AcDbEntity
  8
0
100
AcDbLine
 62
7
  6
CONTINUOUS
 10
4.2215147189
 20
8.0483045254
 11
4.4485624597
 21
8.0483045254
  0
LINE
  5
5C9
100
AcDbEntity
  8
0
100
AcDbLine
 62
7
  6
CONTINUOUS
 10
-25.3319415473
 20
8.1618283958
 11
-24.607420564
 21
8.1618283958
  0
LINE
  5
5CA
100
AcDbEntity
  8
0
100
AcDbLine
 62
7
  6
CONTINUOUS
 10
-18.2212191186
 20
8.1618283958
 11
-17.4966981353
 21
8.1618283958
  0
LINE
  5
5CB
100
AcDbEntity
  8
0
100
AcDbLine
 62
7
  6
CONTINUOUS
 10
-13.7421864132
 20
8.1618283958
 11
-13.0176654298
 21
8.1618283958
  0
LINE
  5
5CC
100
AcDbEntity
  8
0
100
AcDbLine
 62
7
  6
CONTINUOUS
 10
0.0870850737
 20
8.1618283958
 11
0.811606057
 21
8.1618283958
  0
LINE
  5
5CD
100
AcDbEntity
  8
0
100
AcDbLine
 62
7
  6
CONTINUOUS
 10
14.8761492831
 20
8.1618283958
 11
15.6006702665
 21
8.1618283958
  0
LINE
  5
5CE
100
AcDbEntity
  8
0
100
AcDbLine
 62
7
  6
CONTINUOUS
 10
25.4132285279
 20
8.1618283958
 11
26.1377495113
 21
8.1618283958
  0
LINE
  5
5CF
100
AcDbEntity
  8
0
100
AcDbLine
 62
7
  6
CONTINUOUS
 10
32.6581155308
 20
8.1618283958
 11
33.3826365141
 21
8.1618283958
  0
LINE
  5
5D0
100
AcDbEntity
  8
0
100
AcDbLine
 62
7
  6
CONTINUOUS
 10
4.4485624597
 20
8.2443912106
 11
4.2215147189
 21
8.2443912106
  0
LINE
  5
5D1
100
AcDbEntity
  8
0
100
AcDbLine
 62
7
  6
CONTINUOUS
 10
4.0151076818
 20
8.2443912106
 11
3.4684515493
 21
8.2443912106
  0
LINE
  5
5D2
100
AcDbEntity
  8
0
100
AcDbLine
 62
7
  6
CONTINUOUS
 10
33.3141029842
 20
8.3475947292
 11
32.7227790272
 21
8.3475947292
  0
LINE
  5
5D3
100
AcDbEntity
  8
0
100
AcDbLine
 62
7
  6
CONTINUOUS
 10
26.0692159814
 20
8.3475947292
 11
25.4778920244
 21
8.3475947292
  0
LINE
  5
5D4
100
AcDbEntity
  8
0
100
AcDbLine
 62
7
  6
CONTINUOUS
 10
-19.7939440497
 20
8.3475947292
 11
-19.3701645918
 21
8.3475947292
  0
LINE
  5
5D5
100
AcDbEntity
  8
0
100
AcDbLine
 62
7
  6
CONTINUOUS
 10
15.5321367365
 20
8.3475947292
 11
14.9408127795
 21
8.3475947292
  0
LINE
  5
5D6
100
AcDbEntity
  8
0
100
AcDbLine
 62
7
  6
CONTINUOUS
 10
0.7430725271
 20
8.3475947292
 11
0.1517485701
 21
8.3475947292
  0
LINE
  5
5D7
100
AcDbEntity
  8
0
100
AcDbLine
 62
7
  6
CONTINUOUS
 10
-13.0861989598
 20
8.3475947292
 11
-13.6775229168
 21
8.3475947292
  0
LINE
  5
5D8
100
AcDbEntity
  8
0
100
AcDbLine
 62
7
  6
CONTINUOUS
 10
-17.5652316652
 20
8.3475947292
 11
-18.1565556222
 21
8.3475947292
  0
LINE
  5
5D9
100
AcDbEntity
  8
0
100
AcDbLine
 62
7
  6
CONTINUOUS
 10
-24.6759540939
 20
8.3475947292
 11
-25.2672780509
 21
8.3475947292
  0
LINE
  5
5DA
100
AcDbEntity
  8
0
100
AcDbLine
 62
7
  6
CONTINUOUS
 10
-23.7466388105
 20
8.3991964885
 11
-23.4878237243
 21
8.3991964885
  0
LINE
  5
5DB
100
AcDbEntity
  8
0
100
AcDbLine
 62
7
  6
CONTINUOUS
 10
16.46145202
 20
8.3991964885
 11
16.7202671061
 21
8.3991964885
  0
LINE
  5
5DC
100
AcDbEntity
  8
0
100
AcDbLine
 62
7
  6
CONTINUOUS
 10
-10.8358786388
 20
8.4301575441
 11
-9.9070469718
 21
8.4301575441
  0
LINE
  5
5DD
100
AcDbEntity
  8
0
100
AcDbLine
 62
7
  6
CONTINUOUS
 10
-4.6436675253
 20
8.4301575441
 11
-3.7148358583
 21
8.4301575441
  0
LINE
  5
5DE
100
AcDbEntity
  8
0
100
AcDbLine
 62
7
  6
CONTINUOUS
 10
-19.3677457224
 20
8.5436814145
 11
-19.7939440497
 21
8.5436814145
  0
LINE
  5
5DF
100
AcDbEntity
  8
0
100
AcDbLine
 62
7
  6
CONTINUOUS
 10
16.9410259441
 20
8.5952831737
 11
16.46145202
 21
8.5952831737
  0
LINE
  5
5E0
100
AcDbEntity
  8
0
100
AcDbLine
 62
7
  6
CONTINUOUS
 10
-23.2670648864
 20
8.5952831737
 11
-23.7466388105
 21
8.5952831737
  0
LINE
  5
5E1
100
AcDbEntity
  8
0
100
AcDbLine
 62
7
  6
CONTINUOUS
 10
-3.7148358583
 20
8.6262442293
 11
-4.6436675253
 21
8.6262442293
  0
LINE
  5
5E2
100
AcDbEntity
  8
0
100
AcDbLine
 62
7
  6
CONTINUOUS
 10
-9.9070469718
 20
8.6262442293
 11
-10.8358786388
 21
8.6262442293
  0
LINE
  5
5E3
100
AcDbEntity
  8
0
100
AcDbLine
 62
7
  6
CONTINUOUS
 10
-23.7466388105
 20
9.152582174
 11
-23.2128829998
 21
9.152582174
  0
LINE
  5
5E4
100
AcDbEntity
  8
0
100
AcDbLine
 62
7
  6
CONTINUOUS
 10
-19.7939440497
 20
9.152582174
 11
-19.3722607878
 21
9.152582174
  0
LINE
  5
5E5
100
AcDbEntity
  8
0
100
AcDbLine
 62
7
  6
CONTINUOUS
 10
-10.8358786388
 20
9.152582174
 11
-9.8451248606
 21
9.152582174
  0
LINE
  5
5E6
100
AcDbEntity
  8
0
100
AcDbLine
 62
7
  6
CONTINUOUS
 10
-4.6436675253
 20
9.152582174
 11
-3.6529137471
 21
9.152582174
  0
LINE
  5
5E7
100
AcDbEntity
  8
0
100
AcDbLine
 62
7
  6
CONTINUOUS
 10
-1.6301247834
 20
9.152582174
 11
-0.6864575417
 21
9.152582174
  0
LINE
  5
5E8
100
AcDbEntity
  8
0
100
AcDbLine
 62
7
  6
CONTINUOUS
 10
16.46145202
 20
9.152582174
 11
16.9952078307
 21
9.152582174
  0
LINE
  5
5E9
100
AcDbEntity
  8
0
100
AcDbLine
 62
7
  6
CONTINUOUS
 10
21.2397749292
 20
9.152582174
 11
21.7970739294
 21
9.152582174
  0
LINE
  5
5EA
100
AcDbEntity
  8
0
100
AcDbLine
 62
7
  6
CONTINUOUS
 10
22.0241216703
 20
9.152582174
 11
22.5814206705
 21
9.152582174
  0
LINE
  5
5EB
100
AcDbEntity
  8
0
100
AcDbLine
 62
7
  6
CONTINUOUS
 10
30.8583428589
 20
9.152582174
 11
31.4156418591
 21
9.152582174
  0
LINE
  5
5EC
100
AcDbEntity
  8
0
100
AcDbLine
 62
7
  6
CONTINUOUS
 10
31.6426895999
 20
9.152582174
 11
32.1999886001
 21
9.152582174
  0
LINE
  5
5ED
100
AcDbEntity
  8
0
100
AcDbLine
 62
7
  6
CONTINUOUS
 10
36.7112724248
 20
9.3486688592
 11
36.4372994055
 21
9.3486688592
  0
LINE
  5
5EE
100
AcDbEntity
  8
0
100
AcDbLine
 62
7
  6
CONTINUOUS
 10
35.4230022804
 20
9.3486688592
 11
35.1528992946
 21
9.3486688592
  0
LINE
  5
5EF
100
AcDbEntity
  8
0
100
AcDbLine
 62
7
  6
CONTINUOUS
 10
34.2227775639
 20
9.3486688592
 11
33.9957298231
 21
9.3486688592
  0
LINE
  5
5F0
100
AcDbEntity
  8
0
100
AcDbLine
 62
7
  6
CONTINUOUS
 10
33.1318841684
 20
9.3486688592
 11
32.8862920773
 21
9.3486688592
  0
LINE
  5
5F1
100
AcDbEntity
  8
0
100
AcDbLine
 62
7
  6
CONTINUOUS
 10
32.1999886001
 20
9.3486688592
 11
30.8583428589
 21
9.3486688592
  0
LINE
  5
5F2
100
AcDbEntity
  8
0
100
AcDbLine
 62
7
  6
CONTINUOUS
 10
30.5796933588
 20
9.3486688592
 11
30.3526456179
 21
9.3486688592
  0
LINE
  5
5F3
100
AcDbEntity
  8
0
100
AcDbLine
 62
7
  6
CONTINUOUS
 10
29.2586883212
 20
9.3486688592
 11
29.0316405804
 21
9.3486688592
  0
LINE
  5
5F4
100
AcDbEntity
  8
0
100
AcDbLine
 62
7
  6
CONTINUOUS
 10
28.8410366657
 20
9.3486688592
 11
28.5981858025
 21
9.3486688592
  0
LINE
  5
5F5
100
AcDbEntity
  8
0
100
AcDbLine
 62
7
  6
CONTINUOUS
 10
27.5042285057
 20
9.3486688592
 11
27.2628291216
 21
9.3486688592
  0
LINE
  5
5F6
100
AcDbEntity
  8
0
100
AcDbLine
 62
7
  6
CONTINUOUS
 10
25.8869971656
 20
9.3486688592
 11
25.6414050745
 21
9.3486688592
  0
LINE
  5
5F7
100
AcDbEntity
  8
0
100
AcDbLine
 62
7
  6
CONTINUOUS
 10
23.0664772077
 20
9.3486688592
 11
22.8394294669
 21
9.3486688592
  0
LINE
  5
5F8
100
AcDbEntity
  8
0
100
AcDbLine
 62
7
  6
CONTINUOUS
 10
22.5814206705
 20
9.3486688592
 11
21.2397749292
 21
9.3486688592
  0
LINE
  5
5F9
100
AcDbEntity
  8
0
100
AcDbLine
 62
7
  6
CONTINUOUS
 10
16.9860162845
 20
9.3486688592
 11
16.2344042791
 21
9.3486688592
  0
LINE
  5
5FA
100
AcDbEntity
  8
0
100
AcDbLine
 62
7
  6
CONTINUOUS
 10
15.3499179207
 20
9.3486688592
 11
15.1043258296
 21
9.3486688592
  0
LINE
  5
5FB
100
AcDbEntity
  8
0
100
AcDbLine
 62
7
  6
CONTINUOUS
 10
14.2838577784
 20
9.3486688592
 11
13.9884377655
 21
9.3486688592
  0
LINE
  5
5FC
100
AcDbEntity
  8
0
100
AcDbLine
 62
7
  6
CONTINUOUS
 10
12.9889762151
 20
9.3486688592
 11
12.6429218333
 21
9.3486688592
  0
LINE
  5
5FD
100
AcDbEntity
  8
0
100
AcDbLine
 62
7
  6
CONTINUOUS
 10
4.2215147189
 20
9.3486688592
 11
4.0563890892
 21
9.3486688592
  0
LINE
  5
5FE
100
AcDbEntity
  8
0
100
AcDbLine
 62
7
  6
CONTINUOUS
 10
0.5608537113
 20
9.3486688592
 11
0.3152616202
 21
9.3486688592
  0
LINE
  5
5FF
100
AcDbEntity
  8
0
100
AcDbLine
 62
7
  6
CONTINUOUS
 10
-0.4226436162
 20
9.3486688592
 11
-1.6301247834
 21
9.3486688592
  0
LINE
  5
600
100
AcDbEntity
  8
0
100
AcDbLine
 62
7
  6
CONTINUOUS
 10
-1.9706963946
 20
9.3486688592
 11
-2.1977441354
 21
9.3486688592
  0
LINE
  5
601
100
AcDbEntity
  8
0
100
AcDbLine
 62
7
  6
CONTINUOUS
 10
-3.0503018905
 20
9.3486688592
 11
-3.2917014322
 21
9.3486688592
  0
LINE
  5
602
100
AcDbEntity
  8
0
100
AcDbLine
 62
7
  6
CONTINUOUS
 10
-3.6529137471
 20
9.3486688592
 11
-4.8707152661
 21
9.3486688592
  0
LINE
  5
603
100
AcDbEntity
  8
0
100
AcDbLine
 62
7
  6
CONTINUOUS
 10
-6.9967077484
 20
9.3486688592
 11
-7.2237554893
 21
9.3486688592
  0
LINE
  5
604
100
AcDbEntity
  8
0
100
AcDbLine
 62
7
  6
CONTINUOUS
 10
-7.4143594039
 20
9.3486688592
 11
-7.6572102672
 21
9.3486688592
  0
LINE
  5
605
100
AcDbEntity
  8
0
100
AcDbLine
 62
7
  6
CONTINUOUS
 10
-8.7511675639
 20
9.3486688592
 11
-8.9925669481
 21
9.3486688592
  0
LINE
  5
606
100
AcDbEntity
  8
0
100
AcDbLine
 62
7
  6
CONTINUOUS
 10
-9.8451248606
 20
9.3486688592
 11
-11.0629263796
 21
9.3486688592
  0
LINE
  5
607
100
AcDbEntity
  8
0
100
AcDbLine
 62
7
  6
CONTINUOUS
 10
-12.1775243801
 20
9.3486688592
 11
-12.4045721209
 21
9.3486688592
  0
LINE
  5
608
100
AcDbEntity
  8
0
100
AcDbLine
 62
7
  6
CONTINUOUS
 10
-13.2684177756
 20
9.3486688592
 11
-13.5140098667
 21
9.3486688592
  0
LINE
  5
609
100
AcDbEntity
  8
0
100
AcDbLine
 62
7
  6
CONTINUOUS
 10
-14.3757593254
 20
9.3486688592
 11
-14.6028070662
 21
9.3486688592
  0
LINE
  5
60A
100
AcDbEntity
  8
0
100
AcDbLine
 62
7
  6
CONTINUOUS
 10
-14.7934109809
 20
9.3486688592
 11
-15.0362618441
 21
9.3486688592
  0
LINE
  5
60B
100
AcDbEntity
  8
0
100
AcDbLine
 62
7
  6
CONTINUOUS
 10
-16.1302191409
 20
9.3486688592
 11
-16.371618525
 21
9.3486688592
  0
LINE
  5
60C
100
AcDbEntity
  8
0
100
AcDbLine
 62
7
  6
CONTINUOUS
 10
-17.747450481
 20
9.3486688592
 11
-17.9930425721
 21
9.3486688592
  0
LINE
  5
60D
100
AcDbEntity
  8
0
100
AcDbLine
 62
7
  6
CONTINUOUS
 10
-19.3937077813
 20
9.3486688592
 11
-20.0209917905
 21
9.3486688592
  0
LINE
  5
60E
100
AcDbEntity
  8
0
100
AcDbLine
 62
7
  6
CONTINUOUS
 10
-23.2220745459
 20
9.3486688592
 11
-23.9736865513
 21
9.3486688592
  0
LINE
  5
60F
100
AcDbEntity
  8
0
100
AcDbLine
 62
7
  6
CONTINUOUS
 10
-24.8581729097
 20
9.3486688592
 11
-25.1037650008
 21
9.3486688592
  0
LINE
  5
610
100
AcDbEntity
  8
0
100
AcDbLine
 62
7
  6
CONTINUOUS
 10
-25.9242330521
 20
9.3486688592
 11
-26.2196530649
 21
9.3486688592
  0
LINE
  5
611
100
AcDbEntity
  8
0
100
AcDbLine
 62
7
  6
CONTINUOUS
 10
-27.2191146153
 20
9.3486688592
 11
-27.5651689972
 21
9.3486688592
  0
LINE
  5
612
100
AcDbEntity
  8
0
100
AcDbLine
 62
7
  6
CONTINUOUS
 10
-27.9470220158
 20
9.3486688592
 11
-28.1740697567
 21
9.3486688592
  0
LINE
  5
613
100
AcDbEntity
  8
0
100
AcDbLine
 62
7
  6
CONTINUOUS
 10
-28.3646736713
 20
9.3486688592
 11
-28.6075245346
 21
9.3486688592
  0
LINE
  5
614
100
AcDbEntity
  8
0
100
AcDbLine
 62
7
  6
CONTINUOUS
 10
-29.7014818313
 20
9.3486688592
 11
-29.9428812155
 21
9.3486688592
  0
LINE
  5
615
100
AcDbEntity
  8
0
100
AcDbLine
 62
7
  6
CONTINUOUS
 10
2.7973061628
 20
9.3589892111
 11
2.6642703944
 21
9.3589892111
  0
LINE
  5
616
100
AcDbEntity
  8
0
100
AcDbLine
 62
7
  6
CONTINUOUS
 10
5.3361127193
 20
8.9152140813
 11
5.5425197564
 21
8.8842530257
  0
LINE
  5
617
100
AcDbEntity
  8
0
100
AcDbLine
 62
7
  6
CONTINUOUS
 10
-5.1596851181
 20
8.1865005485
 11
-5.3867328589
 21
8.2434238204
  0
LINE
  5
618
100
AcDbEntity
  8
0
100
AcDbLine
 62
7
  6
CONTINUOUS
 10
18.0996587845
 20
-10.160597197
 11
18.2507107845
 21
-10.311649197
  0
LINE
  5
619
100
AcDbEntity
  8
0
100
AcDbLine
 62
7
  6
CONTINUOUS
 10
12.2571187845
 20
49.145810803
 11
12.2571187845
 21
42.845810803
  0
LINE
  5
61A
100
AcDbEntity
  8
0
100
AcDbLine
 62
7
  6
CONTINUOUS
 10
12.2571187845
 20
-57.854189197
 11
12.2571187845
 21
-51.554189197
  0
LINE
  5
61B
100
AcDbEntity
  8
0
100
AcDbLine
 62
7
  6
CONTINUOUS
 10
12.6429218333
 20
9.3486688592
 11
12.6429218333
 21
7.645810803
  0
LINE
  5
61C
100
AcDbEntity
  8
0
100
AcDbLine
 62
7
  6
CONTINUOUS
 10
12.8699695741
 20
7.645810803
 11
12.8699695741
 21
9.0906600628
  0
LINE
  5
61D
100
AcDbEntity
  8
0
100
AcDbLine
 62
7
  6
CONTINUOUS
 10
14.0568100375
 20
9.0700193591
 11
14.0568100375
 21
7.645810803
  0
LINE
  5
61E
100
AcDbEntity
  8
0
100
AcDbLine
 62
7
  6
CONTINUOUS
 10
14.2838577784
 20
7.645810803
 11
14.2838577784
 21
9.3486688592
  0
LINE
  5
61F
100
AcDbEntity
  8
0
100
AcDbLine
 62
7
  6
CONTINUOUS
 10
14.6966718526
 20
7.645810803
 11
14.8761492831
 21
8.1618283958
  0
LINE
  5
620
100
AcDbEntity
  8
0
100
AcDbLine
 62
7
  6
CONTINUOUS
 10
13.5541766978
 20
7.645810803
 11
14.0568100375
 21
9.0700193591
  0
LINE
  5
621
100
AcDbEntity
  8
0
100
AcDbLine
 62
7
  6
CONTINUOUS
 10
14.9408127795
 20
8.3475947292
 11
15.1248052754
 21
8.8447454558
  0
LINE
  5
622
100
AcDbEntity
  8
0
100
AcDbLine
 62
7
  6
CONTINUOUS
 10
15.1043258296
 20
9.3486688592
 11
14.457046306
 21
7.645810803
  0
LINE
  5
623
100
AcDbEntity
  8
0
100
AcDbLine
 62
7
  6
CONTINUOUS
 10
18.2507107845
 20
-0.396729197
 11
18.0996587845
 21
-0.547781197
  0
LINE
  5
624
100
AcDbEntity
  8
DRAFT
100
AcDbLine
 62
7
  6
CONTINUOUS
 10
7.4169721352
 20
11.245810803
 11
-1.3027345662
 21
11.245810803
  0
LINE
  5
625
100
AcDbEntity
  8
DRAFT
100
AcDbLine
 62
7
  6
CONTINUOUS
 10
7.3820620053
 20
13.245810803
 11
-1.2678244363
 21
13.245810803
  0
LINE
  5
626
100
AcDbEntity
  8
DRAFT
100
AcDbLine
 62
7
  6
CONTINUOUS
 10
-32.8428812155
 20
13.395810803
 11
-1.4428812155
 21
13.395810803
  0
LINE
  5
627
100
AcDbEntity
  8
DRAFT
100
AcDbLine
 62
7
  6
CONTINUOUS
 10
7.5571187845
 20
13.395810803
 11
38.9571187845
 21
13.395810803
  0
LINE
  5
628
100
AcDbEntity
  8
SMUSSO
100
AcDbLine
 62
7
  6
CONTINUOUS
 10
-32.8121378606
 20
13.488115871
 11
-1.4428812155
 21
13.488115871
  0
LINE
  5
629
100
AcDbEntity
  8
SMUSSO
100
AcDbLine
 62
7
  6
CONTINUOUS
 10
7.5571187845
 20
13.488115871
 11
38.9263754297
 21
13.488115871
  0
LINE
  5
62A
100
AcDbEntity
  8
SMUSSO
100
AcDbLine
 62
7
  6
CONTINUOUS
 10
-32.7992435532
 20
14.2268302512
 11
-1.4428812155
 21
14.2268302512
  0
LINE
  5
62B
100
AcDbEntity
  8
SMUSSO
100
AcDbLine
 62
7
  6
CONTINUOUS
 10
7.5571187845
 20
14.2268302512
 11
38.9134811222
 21
14.2268302512
  0
LINE
  5
62C
100
AcDbEntity
  8
DRAFT
100
AcDbLine
 62
7
  6
CONTINUOUS
 10
-0.2539739427
 20
14.945810803
 11
6.3682115118
 21
14.945810803
  0
LINE
  5
62D
100
AcDbEntity
  8
0
100
AcDbLine
 62
7
  6
CONTINUOUS
 10
10.6201328695
 20
8.9152140813
 11
10.8265399067
 21
8.8842530257
  0
LINE
  5
62E
100
AcDbEntity
  8
0
100
AcDbLine
 62
7
  6
CONTINUOUS
 10
24.9034998381
 20
8.1865005485
 11
24.6764520972
 21
8.2434238204
  0
LINE
  5
62F
100
AcDbEntity
  8
RACCORDO
100
AcDbLine
 62
250
  6
CONTINUOUS
 10
-32.7381508259
 20
49.4412327183
 11
-32.8428812155
 21
49.5459631079
  0
LINE
  5
630
100
AcDbEntity
  8
0
100
AcDbLine
 62
7
  6
CONTINUOUS
 10
20.9212987845
 20
-3.369421197
 11
22.9060687845
 21
-5.354189197
  0
LINE
  5
631
100
AcDbEntity
  8
0
100
AcDbLine
 62
7
  6
CONTINUOUS
 10
18.0996587845
 20
-0.547781197
 11
20.8038027845
 21
-3.251923197
  0
LINE
  5
632
100
AcDbEntity
  8
0
100
AcDbLine
 62
7
  6
CONTINUOUS
 10
24.9069987845
 20
-7.355119197
 11
27.8635267845
 21
-10.311649197
  0
LINE
  5
633
100
AcDbEntity
  8
0
100
AcDbLine
 62
7
  6
CONTINUOUS
 10
23.0571187845
 20
-5.505239197
 11
24.8084067845
 21
-7.256529197
  0
LINE
  5
634
100
AcDbEntity
  8
0
100
AcDbLine
 62
7
  6
CONTINUOUS
 10
28.0145787845
 20
-10.160597197
 11
24.9313027845
 21
-7.077323197
  0
LINE
  5
635
100
AcDbEntity
  8
0
100
AcDbLine
 62
7
  6
CONTINUOUS
 10
24.8327107845
 20
-6.978731197
 11
23.2081687845
 21
-5.354189197
  0
LINE
  5
636
100
AcDbEntity
  8
0
100
AcDbLine
 62
7
  6
CONTINUOUS
 10
23.0571187845
 20
-5.203139197
 11
20.8923347845
 21
-3.038355197
  0
LINE
  5
637
100
AcDbEntity
  8
0
100
AcDbLine
 62
7
  6
CONTINUOUS
 10
20.7748387845
 20
-2.920857197
 11
18.2507107845
 21
-0.396729197
  0
LINE
  5
638
100
AcDbEntity
  8
RACCORDO
100
AcDbLine
 62
250
  6
CONTINUOUS
 10
-31.7383031308
 20
50.4410804134
 11
-31.8430335203
 21
50.545810803
  0
LINE
  5
639
100
AcDbEntity
  8
DRAFT
100
AcDbLine
 62
7
  6
CONTINUOUS
 10
-0.5928812155
 20
25.6214783515
 11
-0.2539739427
 21
25.0344737361
  0
LINE
  5
63A
100
AcDbEntity
  8
DRAFT
100
AcDbLine
 62
7
  6
CONTINUOUS
 10
-0.5928812155
 20
25.743663806
 11
-0.1928812155
 21
25.050843483
  0
LINE
  5
63B
100
AcDbEntity
  8
0
100
AcDbLine
 62
7
  6
CONTINUOUS
 10
16.2344042791
 20
9.3486688592
 11
16.2344042791
 21
7.645810803
  0
LINE
  5
63C
100
AcDbEntity
  8
0
100
AcDbLine
 62
7
  6
CONTINUOUS
 10
16.46145202
 20
7.645810803
 11
16.46145202
 21
8.3991964885
  0
LINE
  5
63D
100
AcDbEntity
  8
0
100
AcDbLine
 62
7
  6
CONTINUOUS
 10
16.46145202
 20
8.5952831737
 11
16.46145202
 21
9.152582174
  0
LINE
  5
63E
100
AcDbEntity
  8
0
100
AcDbLine
 62
7
  6
CONTINUOUS
 10
17.2455019867
 20
-11.014749197
 11
17.2455019867
 21
-13.014749197
  0
LINE
  5
63F
100
AcDbEntity
  8
RACCORDO
100
AcDbLine
 62
250
  6
CONTINUOUS
 10
-32.8428812155
 20
-58.2543415018
 11
-32.7381508259
 21
-58.1496111123
  0
LINE
  5
640
100
AcDbEntity
  8
RACCORDO
100
AcDbLine
 62
250
  6
CONTINUOUS
 10
-31.8430335203
 20
-59.254189197
 11
-31.7383031308
 21
-59.1494588074
  0
LINE
  5
641
100
AcDbEntity
  8
DRAFT
100
AcDbLine
 62
7
  6
CONTINUOUS
 10
-31.4952464103
 20
-59.254189197
 11
-31.4428812155
 21
-59.2018240022
  0
LINE
  5
642
100
AcDbEntity
  8
DRAFT
100
AcDbLine
 62
7
  6
CONTINUOUS
 10
-32.7992435532
 20
16.0268302512
 11
-1.4428812155
 21
16.0268302512
  0
LINE
  5
643
100
AcDbEntity
  8
DRAFT
100
AcDbLine
 62
7
  6
CONTINUOUS
 10
7.5571187845
 20
16.0268302512
 11
38.9134811222
 21
16.0268302512
  0
LINE
  5
644
100
AcDbEntity
  8
DRAFT
100
AcDbLine
 62
7
  6
CONTINUOUS
 10
-32.7381508259
 20
16.2102574787
 11
-1.4428812155
 21
16.2102574787
  0
LINE
  5
645
100
AcDbEntity
  8
DRAFT
100
AcDbLine
 62
7
  6
CONTINUOUS
 10
7.5571187845
 20
16.2102574787
 11
38.8523883949
 21
16.2102574787
  0
LINE
  5
646
100
AcDbEntity
  8
0
100
AcDbLine
 62
7
  6
CONTINUOUS
 10
7.5571187845
 20
16.895810803
 11
6.7071187845
 21
16.895810803
  0
LINE
  5
647
100
AcDbEntity
  8
0
100
AcDbLine
 62
7
  6
CONTINUOUS
 10
6.2931547326
 20
16.895810803
 11
6.2071187845
 21
16.895810803
  0
LINE
  5
648
100
AcDbEntity
  8
0
100
AcDbLine
 62
7
  6
CONTINUOUS
 10
-0.0928812155
 20
16.895810803
 11
-0.1789171636
 21
16.895810803
  0
LINE
  5
649
100
AcDbEntity
  8
0
100
AcDbLine
 62
7
  6
CONTINUOUS
 10
-0.5928812155
 20
16.895810803
 11
-1.4428812155
 21
16.895810803
  0
LINE
  5
64A
100
AcDbEntity
  8
IMPORT_IGES
100
AcDbLine
 62
7
  6
CONTINUOUS
 10
-0.0928812155
 20
18.295810803
 11
-0.1789171636
 21
18.295810803
  0
LINE
  5
64B
100
AcDbEntity
  8
IMPORT_IGES
100
AcDbLine
 62
250
  6
CONTINUOUS
 10
-0.0928812155
 20
18.455810803
 11
-0.1789171636
 21
18.455810803
  0
LINE
  5
64C
100
AcDbEntity
  8
IMPORT_IGES
100
AcDbLine
 62
7
  6
CONTINUOUS
 10
6.2931547326
 20
18.545810803
 11
6.2071187845
 21
18.545810803
  0
LINE
  5
64D
100
AcDbEntity
  8
IMPORT_IGES
100
AcDbLine
 62
7
  6
CONTINUOUS
 10
-0.0928812155
 20
18.555810803
 11
-0.1789171636
 21
18.555810803
  0
LINE
  5
64E
100
AcDbEntity
  8
IMPORT_IGES
100
AcDbLine
 62
250
  6
CONTINUOUS
 10
-0.1789171636
 20
18.805810803
 11
-0.0928812155
 21
18.805810803
  0
LINE
  5
64F
100
AcDbEntity
  8
IMPORT_IGES
100
AcDbLine
 62
7
  6
CONTINUOUS
 10
-0.1789171636
 20
18.9089341025
 11
-0.0928812155
 21
18.9089341025
  0
LINE
  5
650
100
AcDbEntity
  8
IMPORT_IGES
100
AcDbLine
 62
7
  6
CONTINUOUS
 10
-0.0928812155
 20
18.9745506002
 11
-0.1789171636
 21
18.9745506002
  0
LINE
  5
651
100
AcDbEntity
  8
DRAFT
100
AcDbLine
 62
7
  6
CONTINUOUS
 10
-32.8428812155
 20
19.645810803
 11
-31.4312823583
 21
19.645810803
  0
LINE
  5
652
100
AcDbEntity
  8
DRAFT
100
AcDbLine
 62
7
  6
CONTINUOUS
 10
37.5455199273
 20
19.645810803
 11
38.9571187845
 21
19.645810803
  0
LINE
  5
653
100
AcDbEntity
  8
RACCORDO
100
AcDbLine
 62
7
  6
CONTINUOUS
 10
-31.4912492674
 20
19.745810803
 11
-32.8428812155
 21
19.745810803
  0
LINE
  5
654
100
AcDbEntity
  8
RACCORDO
100
AcDbLine
 62
7
  6
CONTINUOUS
 10
37.6054868364
 20
19.745810803
 11
38.9571187845
 21
19.745810803
  0
LINE
  5
655
100
AcDbEntity
  8
0
100
AcDbLine
 62
7
  6
CONTINUOUS
 10
28.0145787845
 20
-0.547781197
 11
27.8635267845
 21
-0.396729197
  0
LINE
  5
656
100
AcDbEntity
  8
0
100
AcDbLine
 62
7
  6
CONTINUOUS
 10
17.2206429919
 20
7.9997666673
 11
17.4438205418
 21
7.645810803
  0
LINE
  5
657
100
AcDbEntity
  8
0
100
AcDbLine
 62
7
  6
CONTINUOUS
 10
16.032028691
 20
7.645810803
 11
15.3499179207
 21
9.3486688592
  0
LINE
  5
658
100
AcDbEntity
  8
0
100
AcDbLine
 62
7
  6
CONTINUOUS
 10
15.6006702665
 20
8.1618283958
 11
15.7906291493
 21
7.645810803
  0
LINE
  5
659
100
AcDbEntity
  8
0
100
AcDbLine
 62
7
  6
CONTINUOUS
 10
12.8699695741
 20
9.0906600628
 11
13.3609926558
 21
7.645810803
  0
LINE
  5
65A
100
AcDbEntity
  8
0
100
AcDbLine
 62
7
  6
CONTINUOUS
 10
13.3922762273
 20
8.145541657
 11
12.9889762151
 21
9.3486688592
  0
LINE
  5
65B
100
AcDbEntity
  8
0
100
AcDbLine
 62
7
  6
CONTINUOUS
 10
20.6772247845
 20
-1.805137197
 11
20.7748387845
 21
-2.920857197
  0
LINE
  5
65C
100
AcDbEntity
  8
0
100
AcDbLine
 62
7
  6
CONTINUOUS
 10
20.6074709129
 20
-1.0078446641
 11
20.6398467845
 21
-1.377901197
  0
LINE
  5
65D
100
AcDbEntity
  8
0
100
AcDbLine
 62
7
  6
CONTINUOUS
 10
20.8038027845
 20
-3.251923197
 11
21.1420587845
 21
-7.118199197
  0
LINE
  5
65E
100
AcDbEntity
  8
0
100
AcDbLine
 62
7
  6
CONTINUOUS
 10
21.1663627845
 20
-7.395997197
 11
21.3079847845
 21
-9.014749197
  0
LINE
  5
65F
100
AcDbEntity
  8
0
100
AcDbLine
 62
7
  6
CONTINUOUS
 10
21.4058567845
 20
-8.907941197
 11
21.2649527845
 21
-7.297405197
  0
LINE
  5
660
100
AcDbEntity
  8
0
100
AcDbLine
 62
7
  6
CONTINUOUS
 10
21.2406487845
 20
-7.019607197
 11
20.9212987845
 21
-3.369421197
  0
LINE
  5
661
100
AcDbEntity
  8
0
100
AcDbLine
 62
7
  6
CONTINUOUS
 10
20.7470647845
 20
-1.377901197
 11
20.7207367885
 21
-1.0769712423
  0
LINE
  5
662
100
AcDbEntity
  8
0
100
AcDbLine
 62
7
  6
CONTINUOUS
 10
20.8923347845
 20
-3.038355197
 11
20.7844427845
 21
-1.805137197
  0
LINE
  5
663
100
AcDbEntity
  8
0
100
AcDbLine
 62
7
  6
CONTINUOUS
 10
19.7994427845
 20
-1.377901197
 11
19.7994427845
 21
-1.805137197
  0
LINE
  5
664
100
AcDbEntity
  8
0
100
AcDbLine
 62
7
  6
CONTINUOUS
 10
20.9209367845
 20
-0.470023197
 11
20.9209367845
 21
-0.888165197
  0
LINE
  5
665
100
AcDbEntity
  8
0
100
AcDbLine
 62
7
  6
CONTINUOUS
 10
20.9209367845
 20
-1.001385197
 11
20.9209367845
 21
-1.377901197
  0
LINE
  5
666
100
AcDbEntity
  8
0
100
AcDbLine
 62
7
  6
CONTINUOUS
 10
21.0277467845
 20
-1.271091197
 11
21.0277467845
 21
-0.9646466565
  0
LINE
  5
667
100
AcDbEntity
  8
0
100
AcDbLine
 62
7
  6
CONTINUOUS
 10
21.0277467845
 20
-0.852205069
 11
21.0277467845
 21
-0.576833197
  0
LINE
  5
668
100
AcDbEntity
  8
0
100
AcDbLine
 62
7
  6
CONTINUOUS
 10
21.2397749292
 20
9.3486688592
 11
21.2397749292
 21
9.152582174
  0
LINE
  5
669
100
AcDbEntity
  8
0
100
AcDbLine
 62
7
  6
CONTINUOUS
 10
21.3079847845
 20
-9.014749197
 11
21.3079847845
 21
-9.869223197
  0
LINE
  5
66A
100
AcDbEntity
  8
0
100
AcDbLine
 62
7
  6
CONTINUOUS
 10
21.3481727845
 20
-0.576833197
 11
21.3481727845
 21
-0.758357197
  0
LINE
  5
66B
100
AcDbEntity
  8
0
100
AcDbLine
 62
7
  6
CONTINUOUS
 10
21.3481727845
 20
-0.868813197
 11
21.3481727845
 21
-1.271091197
  0
LINE
  5
66C
100
AcDbEntity
  8
0
100
AcDbLine
 62
7
  6
CONTINUOUS
 10
21.4549827845
 20
-1.377901197
 11
21.4549827845
 21
-0.8415183678
  0
LINE
  5
66D
100
AcDbEntity
  8
0
100
AcDbLine
 62
7
  6
CONTINUOUS
 10
21.4549827845
 20
-0.731617507
 11
21.4549827845
 21
-0.470023197
  0
LINE
  5
66E
100
AcDbEntity
  8
0
100
AcDbLine
 62
7
  6
CONTINUOUS
 10
21.4681987845
 20
-9.709009197
 11
21.4681987845
 21
-9.068155197
  0
LINE
  5
66F
100
AcDbEntity
  8
0
100
AcDbLine
 62
7
  6
CONTINUOUS
 10
21.7886247845
 20
-9.068155197
 11
21.7886247845
 21
-9.709009197
  0
LINE
  5
670
100
AcDbEntity
  8
0
100
AcDbLine
 62
7
  6
CONTINUOUS
 10
21.7970739294
 20
9.152582174
 11
21.7970739294
 21
7.645810803
  0
LINE
  5
671
100
AcDbEntity
  8
0
100
AcDbLine
 62
7
  6
CONTINUOUS
 10
21.9488387845
 20
-9.869223197
 11
21.9488387845
 21
-9.014749197
  0
LINE
  5
672
100
AcDbEntity
  8
0
100
AcDbLine
 62
7
  6
CONTINUOUS
 10
22.0241216703
 20
7.645810803
 11
22.0241216703
 21
9.152582174
  0
LINE
  5
673
100
AcDbEntity
  8
0
100
AcDbLine
 62
7
  6
CONTINUOUS
 10
22.3628587845
 20
-3.407273197
 11
22.3628587845
 21
-3.941319197
  0
LINE
  5
674
100
AcDbEntity
  8
0
100
AcDbLine
 62
7
  6
CONTINUOUS
 10
22.4696687845
 20
-3.834509197
 11
22.4696687845
 21
-3.514081197
  0
LINE
  5
675
100
AcDbEntity
  8
0
100
AcDbLine
 62
7
  6
CONTINUOUS
 10
22.5764787845
 20
-0.686817197
 11
22.5764787845
 21
-0.950663197
  0
LINE
  5
676
100
AcDbEntity
  8
0
100
AcDbLine
 62
7
  6
CONTINUOUS
 10
22.5764787845
 20
-0.309809197
 11
22.5764787845
 21
-0.579949197
  0
LINE
  5
677
100
AcDbEntity
  8
0
100
AcDbLine
 62
7
  6
CONTINUOUS
 10
22.5814206705
 20
9.152582174
 11
22.5814206705
 21
9.3486688592
  0
LINE
  5
678
100
AcDbEntity
  8
0
100
AcDbLine
 62
7
  6
CONTINUOUS
 10
22.6832867845
 20
-0.577405482
 11
22.6832867845
 21
-0.416619197
  0
LINE
  5
679
100
AcDbEntity
  8
0
100
AcDbLine
 62
7
  6
CONTINUOUS
 10
22.6832867845
 20
-0.843855197
 11
22.6832867845
 21
-0.6842261083
  0
LINE
  5
67A
100
AcDbEntity
  8
0
100
AcDbLine
 62
7
  6
CONTINUOUS
 10
22.8394294669
 20
9.3486688592
 11
22.8394294669
 21
7.645810803
  0
LINE
  5
67B
100
AcDbEntity
  8
0
100
AcDbLine
 62
7
  6
CONTINUOUS
 10
23.0664772077
 20
7.645810803
 11
23.0664772077
 21
9.3486688592
  0
LINE
  5
67C
100
AcDbEntity
  8
0
100
AcDbLine
 62
7
  6
CONTINUOUS
 10
23.9115907845
 20
-0.416619197
 11
23.9115907845
 21
-0.695645197
  0
LINE
  5
67D
100
AcDbEntity
  8
0
100
AcDbLine
 62
7
  6
CONTINUOUS
 10
23.9115907845
 20
-0.804813197
 11
23.9115907845
 21
-0.843855197
  0
LINE
  5
67E
100
AcDbEntity
  8
0
100
AcDbLine
 62
7
  6
CONTINUOUS
 10
24.0184007845
 20
-0.950663197
 11
24.0184007845
 21
-0.8287233452
  0
LINE
  5
67F
100
AcDbEntity
  8
0
100
AcDbLine
 62
7
  6
CONTINUOUS
 10
24.0184007845
 20
-0.7190778256
 11
24.0184007845
 21
-0.309809197
  0
LINE
  5
680
100
AcDbEntity
  8
0
100
AcDbLine
 62
7
  6
CONTINUOUS
 10
24.1252087845
 20
-3.514081197
 11
24.1252087845
 21
-3.834509197
  0
LINE
  5
681
100
AcDbEntity
  8
0
100
AcDbLine
 62
7
  6
CONTINUOUS
 10
24.2320187845
 20
-3.941319197
 11
24.2320187845
 21
-3.407273197
  0
LINE
  5
682
100
AcDbEntity
  8
0
100
AcDbLine
 62
7
  6
CONTINUOUS
 10
25.2337510974
 20
7.645810803
 11
25.4132285279
 21
8.1618283958
  0
LINE
  5
683
100
AcDbEntity
  8
0
100
AcDbLine
 62
7
  6
CONTINUOUS
 10
25.4778920244
 20
8.3475947292
 11
25.6618845202
 21
8.8447454558
  0
LINE
  5
684
100
AcDbEntity
  8
0
100
AcDbLine
 62
7
  6
CONTINUOUS
 10
25.6414050745
 20
9.3486688592
 11
24.9941255508
 21
7.645810803
  0
LINE
  5
685
100
AcDbEntity
  8
0
100
AcDbLine
 62
7
  6
CONTINUOUS
 10
28.5981858025
 20
9.3486688592
 11
28.1292549036
 21
8.1147418594
  0
LINE
  5
686
100
AcDbEntity
  8
0
100
AcDbLine
 62
7
  6
CONTINUOUS
 10
28.1618285387
 20
7.645810803
 11
28.8410366657
 21
9.3486688592
  0
LINE
  5
687
100
AcDbEntity
  8
0
100
AcDbLine
 62
7
  6
CONTINUOUS
 10
22.9060687845
 20
-5.354189197
 11
21.2406487845
 21
-7.019607197
  0
LINE
  5
688
100
AcDbEntity
  8
0
100
AcDbLine
 62
7
  6
CONTINUOUS
 10
21.1420587845
 20
-7.118199197
 11
18.0996587845
 21
-10.160597197
  0
LINE
  5
689
100
AcDbEntity
  8
0
100
AcDbLine
 62
7
  6
CONTINUOUS
 10
25.9210747845
 20
-2.339183197
 11
25.2906847845
 21
-2.969573197
  0
LINE
  5
68A
100
AcDbEntity
  8
0
100
AcDbLine
 62
7
  6
CONTINUOUS
 10
24.9262767845
 20
-3.333979197
 11
23.0571187845
 21
-5.203139197
  0
LINE
  5
68B
100
AcDbEntity
  8
0
100
AcDbLine
 62
7
  6
CONTINUOUS
 10
27.8635267845
 20
-0.396729197
 11
26.0278847845
 21
-2.232373197
  0
LINE
  5
68C
100
AcDbEntity
  8
0
100
AcDbLine
 62
7
  6
CONTINUOUS
 10
25.1731867845
 20
-3.087069197
 11
25.0330867845
 21
-3.227171197
  0
LINE
  5
68D
100
AcDbEntity
  8
0
100
AcDbLine
 62
7
  6
CONTINUOUS
 10
21.2649527845
 20
-7.297405197
 11
23.0571187845
 21
-5.505239197
  0
LINE
  5
68E
100
AcDbEntity
  8
0
100
AcDbLine
 62
7
  6
CONTINUOUS
 10
23.2081687845
 20
-5.354189197
 11
25.1442227845
 21
-3.418135197
  0
LINE
  5
68F
100
AcDbEntity
  8
0
100
AcDbLine
 62
7
  6
CONTINUOUS
 10
25.2618947845
 20
-3.300463197
 11
26.1011767845
 21
-2.461181197
  0
LINE
  5
690
100
AcDbEntity
  8
0
100
AcDbLine
 62
7
  6
CONTINUOUS
 10
18.2507107845
 20
-10.311649197
 11
21.1663627845
 21
-7.395997197
  0
LINE
  5
691
100
AcDbEntity
  8
0
100
AcDbLine
 62
7
  6
CONTINUOUS
 10
26.2079867845
 20
-2.354373197
 11
28.0145787845
 21
-0.547781197
  0
LINE
  5
692
100
AcDbEntity
  8
DRAFT
100
AcDbLine
 62
7
  6
CONTINUOUS
 10
-0.2539739427
 20
25.0344737361
 11
-0.1928812155
 21
25.050843483
  0
LINE
  5
693
100
AcDbEntity
  8
DRAFT
100
AcDbLine
 62
7
  6
CONTINUOUS
 10
37.6559716469
 20
28.1879191478
 11
37.602300628
 21
28.1785279364
  0
LINE
  5
694
100
AcDbEntity
  8
IMPORT_IGES
100
AcDbLine
 62
7
  6
CONTINUOUS
 10
-0.1789171636
 20
20.3170710058
 11
-0.0928812155
 21
20.3170710058
  0
LINE
  5
695
100
AcDbEntity
  8
IMPORT_IGES
100
AcDbLine
 62
7
  6
CONTINUOUS
 10
-0.0928812155
 20
20.395810803
 11
-0.1789171636
 21
20.395810803
  0
LINE
  5
696
100
AcDbEntity
  8
RACCORDO
100
AcDbLine
 62
250
  6
CONTINUOUS
 10
38.8558794079
 20
20.745810803
 11
37.6892711481
 21
20.745810803
  0
LINE
  5
697
100
AcDbEntity
  8
IMPORT_IGES
100
AcDbLine
 62
7
  6
CONTINUOUS
 10
6.2071187845
 20
20.745810803
 11
6.2931547326
 21
20.745810803
  0
LINE
  5
698
100
AcDbEntity
  8
RACCORDO
100
AcDbLine
 62
250
  6
CONTINUOUS
 10
-31.575033579
 20
20.745810803
 11
-32.7416418389
 21
20.745810803
  0
LINE
  5
699
100
AcDbEntity
  8
0
100
AcDbLine
 62
7
  6
CONTINUOUS
 10
-31.5625633419
 20
22.945810803
 11
-31.975033579
 21
22.945810803
  0
LINE
  5
69A
100
AcDbEntity
  8
0
100
AcDbLine
 62
7
  6
CONTINUOUS
 10
37.6768009109
 20
22.945810803
 11
38.0892711481
 21
22.945810803
  0
LINE
  5
69B
100
AcDbEntity
  8
DRAFT
100
AcDbLine
 62
7
  6
CONTINUOUS
 10
38.9449002391
 20
22.995810803
 11
38.8872985248
 21
22.995810803
  0
LINE
  5
69C
100
AcDbEntity
  8
DRAFT
100
AcDbLine
 62
7
  6
CONTINUOUS
 10
-32.7730609558
 20
22.995810803
 11
-32.83066267
 21
22.995810803
  0
LINE
  5
69D
100
AcDbEntity
  8
DRAFT
100
AcDbLine
 62
7
  6
CONTINUOUS
 10
-31.5417340779
 20
23.345810803
 11
-31.3544800727
 21
23.345810803
  0
LINE
  5
69E
100
AcDbEntity
  8
DRAFT
100
AcDbLine
 62
7
  6
CONTINUOUS
 10
37.4687176417
 20
23.345810803
 11
37.6559716469
 21
23.345810803
  0
LINE
  5
69F
100
AcDbEntity
  8
DRAFT
100
AcDbLine
 62
7
  6
CONTINUOUS
 10
-31.5417340779
 20
28.1879191478
 11
-31.488063059
 21
28.1785279364
  0
LINE
  5
6A0
100
AcDbEntity
  8
DRAFT
100
AcDbLine
 62
7
  6
CONTINUOUS
 10
6.7071187845
 20
28.9479578
 11
6.3071187845
 21
29.640778123
  0
LINE
  5
6A1
100
AcDbEntity
  8
DRAFT
100
AcDbLine
 62
7
  6
CONTINUOUS
 10
6.3682115118
 20
29.65714787
 11
6.7071187845
 21
29.0701432545
  0
LINE
  5
6A2
100
AcDbEntity
  8
0
100
AcDbLine
 62
7
  6
CONTINUOUS
 10
24.9262767845
 20
-2.232373197
 11
24.9262767845
 21
-3.333979197
  0
LINE
  5
6A3
100
AcDbEntity
  8
0
100
AcDbLine
 62
7
  6
CONTINUOUS
 10
25.0330867845
 20
-3.227171197
 11
25.0330867845
 21
-2.339183197
  0
LINE
  5
6A4
100
AcDbEntity
  8
DRAFT
100
AcDbLine
 62
7
  6
CONTINUOUS
 10
25.5571187845
 20
-20.304189197
 11
25.5571187845
 21
-22.3718289239
  0
LINE
  5
6A5
100
AcDbEntity
  8
0
100
AcDbLine
 62
7
  6
CONTINUOUS
 10
25.7273447845
 20
-1.805137197
 11
25.7273447845
 21
-1.670735197
  0
LINE
  5
6A6
100
AcDbEntity
  8
0
100
AcDbLine
 62
7
  6
CONTINUOUS
 10
26.1011767845
 20
-2.461181197
 11
26.1011767845
 21
-3.300463197
  0
LINE
  5
6A7
100
AcDbEntity
  8
0
100
AcDbLine
 62
7
  6
CONTINUOUS
 10
26.2079867845
 20
-3.407273197
 11
26.2079867845
 21
-2.354373197
  0
LINE
  5
6A8
100
AcDbEntity
  8
ASSI
100
AcDbLine
 62
7
  6
CONTINUOUS
 10
26.5571187845
 20
42.245810803
 11
26.5571187845
 21
49.145810803
  0
LINE
  5
6A9
100
AcDbEntity
  8
DRAFT
100
AcDbLine
 62
7
  6
CONTINUOUS
 10
27.3071187845
 20
-22.3718289239
 11
27.3071187845
 21
-20.304189197
  0
LINE
  5
6AA
100
AcDbEntity
  8
DRAFT
100
AcDbLine
 62
7
  6
CONTINUOUS
 10
28.8071187845
 20
-20.304189197
 11
28.8071187845
 21
-22.3718289239
  0
LINE
  5
6AB
100
AcDbEntity
  8
0
100
AcDbLine
 62
7
  6
CONTINUOUS
 10
29.0316405804
 20
9.3486688592
 11
29.0316405804
 21
7.645810803
  0
LINE
  5
6AC
100
AcDbEntity
  8
0
100
AcDbLine
 62
7
  6
CONTINUOUS
 10
29.2586883212
 20
7.645810803
 11
29.2586883212
 21
9.3486688592
  0
LINE
  5
6AD
100
AcDbEntity
  8
0
100
AcDbLine
 62
7
  6
CONTINUOUS
 10
25.2853427845
 20
-1.805137197
 11
25.2479627845
 21
-2.232373197
  0
LINE
  5
6AE
100
AcDbEntity
  8
0
100
AcDbLine
 62
7
  6
CONTINUOUS
 10
25.2386187845
 20
-2.339183197
 11
25.1731867845
 21
-3.087069197
  0
LINE
  5
6AF
100
AcDbEntity
  8
0
100
AcDbLine
 62
7
  6
CONTINUOUS
 10
25.1442227845
 20
-3.418135197
 11
24.8327107845
 21
-6.978731197
  0
LINE
  5
6B0
100
AcDbEntity
  8
0
100
AcDbLine
 62
7
  6
CONTINUOUS
 10
24.8084067845
 20
-7.256529197
 11
24.7407087845
 21
-8.030321197
  0
LINE
  5
6B1
100
AcDbEntity
  8
0
100
AcDbLine
 62
7
  6
CONTINUOUS
 10
24.8465787247
 20
-8.0457318801
 11
24.9069987845
 21
-7.355119197
  0
LINE
  5
6B2
100
AcDbEntity
  8
0
100
AcDbLine
 62
7
  6
CONTINUOUS
 10
24.9313027845
 20
-7.077323197
 11
25.2523907845
 21
-3.407273197
  0
LINE
  5
6B3
100
AcDbEntity
  8
0
100
AcDbLine
 62
7
  6
CONTINUOUS
 10
25.2906847845
 20
-2.969573197
 11
25.3458367845
 21
-2.339183197
  0
LINE
  5
6B4
100
AcDbEntity
  8
0
100
AcDbLine
 62
7
  6
CONTINUOUS
 10
25.3551807845
 20
-2.232373197
 11
25.3925587845
 21
-1.805137197
  0
LINE
  5
6B5
100
AcDbEntity
  8
0
100
AcDbLine
 62
7
  6
CONTINUOUS
 10
32.4786381003
 20
7.645810803
 11
32.6581155308
 21
8.1618283958
  0
LINE
  5
6B6
100
AcDbEntity
  8
0
100
AcDbLine
 62
7
  6
CONTINUOUS
 10
32.7227790272
 20
8.3475947292
 11
32.9067715231
 21
8.8447454558
  0
LINE
  5
6B7
100
AcDbEntity
  8
0
100
AcDbLine
 62
7
  6
CONTINUOUS
 10
32.8862920773
 20
9.3486688592
 11
32.2390125536
 21
7.645810803
  0
LINE
  5
6B8
100
AcDbEntity
  8
0
100
AcDbLine
 62
7
  6
CONTINUOUS
 10
36.0301292023
 20
8.3671067847
 11
36.7112724248
 21
9.3486688592
  0
LINE
  5
6B9
100
AcDbEntity
  8
0
100
AcDbLine
 62
7
  6
CONTINUOUS
 10
27.8635267845
 20
-10.311649197
 11
28.0145787845
 21
-10.160597197
  0
LINE
  5
6BA
100
AcDbEntity
  8
DRAFT
100
AcDbLine
 62
7
  6
CONTINUOUS
 10
6.3682115118
 20
29.65714787
 11
6.3071187845
 21
29.640778123
  0
LINE
  5
6BB
100
AcDbEntity
  8
DRAFT
100
AcDbLine
 62
7
  6
CONTINUOUS
 10
-31.488063059
 20
23.1130936696
 11
-31.5417340779
 21
23.1037024582
  0
LINE
  5
6BC
100
AcDbEntity
  8
DRAFT
100
AcDbLine
 62
7
  6
CONTINUOUS
 10
37.6563793471
 20
28.183251986
 11
37.602300628
 21
28.1785279364
  0
LINE
  5
6BD
100
AcDbEntity
  8
DRAFT
100
AcDbLine
 62
7
  6
CONTINUOUS
 10
-31.5421417781
 20
23.10836962
 11
-31.488063059
 21
23.1130936696
  0
LINE
  5
6BE
100
AcDbEntity
  8
DRAFT
100
AcDbLine
 62
7
  6
CONTINUOUS
 10
-31.5417340779
 20
27.945810803
 11
-31.3544800727
 21
27.945810803
  0
LINE
  5
6BF
100
AcDbEntity
  8
DRAFT
100
AcDbLine
 62
7
  6
CONTINUOUS
 10
37.4687176417
 20
27.945810803
 11
37.6559716469
 21
27.945810803
  0
LINE
  5
6C0
100
AcDbEntity
  8
DRAFT
100
AcDbLine
 62
7
  6
CONTINUOUS
 10
-32.83066267
 20
28.295810803
 11
-32.7730609558
 21
28.295810803
  0
LINE
  5
6C1
100
AcDbEntity
  8
DRAFT
100
AcDbLine
 62
7
  6
CONTINUOUS
 10
38.8872985248
 20
28.295810803
 11
38.9449002391
 21
28.295810803
  0
LINE
  5
6C2
100
AcDbEntity
  8
0
100
AcDbLine
 62
7
  6
CONTINUOUS
 10
-31.5625633419
 20
28.345810803
 11
-31.975033579
 21
28.345810803
  0
LINE
  5
6C3
100
AcDbEntity
  8
0
100
AcDbLine
 62
7
  6
CONTINUOUS
 10
37.6768009109
 20
28.345810803
 11
38.0892711481
 21
28.345810803
  0
LINE
  5
6C4
100
AcDbEntity
  8
DRAFT
100
AcDbLine
 62
7
  6
CONTINUOUS
 10
-31.5421417781
 20
28.183251986
 11
-31.488063059
 21
28.1785279364
  0
LINE
  5
6C5
100
AcDbEntity
  8
DRAFT
100
AcDbLine
 62
7
  6
CONTINUOUS
 10
37.602300628
 20
23.1130936696
 11
37.6559716469
 21
23.1037024582
  0
LINE
  5
6C6
100
AcDbEntity
  8
DRAFT
100
AcDbLine
 62
7
  6
CONTINUOUS
 10
6.3682115118
 20
25.0344737361
 11
6.3071187845
 21
25.050843483
  0
LINE
  5
6C7
100
AcDbEntity
  8
DRAFT
100
AcDbLine
 62
7
  6
CONTINUOUS
 10
-0.2539739427
 20
29.65714787
 11
-0.1928812155
 21
29.640778123
  0
LINE
  5
6C8
100
AcDbEntity
  8
0
100
AcDbLine
 62
7
  6
CONTINUOUS
 10
26.5691079358
 20
7.645810803
 11
25.8869971656
 21
9.3486688592
  0
LINE
  5
6C9
100
AcDbEntity
  8
0
100
AcDbLine
 62
7
  6
CONTINUOUS
 10
27.2628291216
 20
9.3486688592
 11
27.9175263538
 21
7.645810803
  0
LINE
  5
6CA
100
AcDbEntity
  8
0
100
AcDbLine
 62
7
  6
CONTINUOUS
 10
26.1377495113
 20
8.1618283958
 11
26.3277083942
 21
7.645810803
  0
LINE
  5
6CB
100
AcDbEntity
  8
0
100
AcDbLine
 62
7
  6
CONTINUOUS
 10
27.9463912134
 20
8.1147418594
 11
27.5042285057
 21
9.3486688592
  0
LINE
  5
6CC
100
AcDbEntity
  8
0
100
AcDbLine
 62
7
  6
CONTINUOUS
 10
29.9455019867
 20
-13.014749197
 11
29.9455019867
 21
-11.014749197
  0
LINE
  5
6CD
100
AcDbEntity
  8
0
100
AcDbLine
 62
7
  6
CONTINUOUS
 10
30.3526456179
 20
9.3486688592
 11
30.3526456179
 21
7.645810803
  0
LINE
  5
6CE
100
AcDbEntity
  8
DRAFT
100
AcDbLine
 62
7
  6
CONTINUOUS
 10
30.5571187845
 20
-22.3718289239
 11
30.5571187845
 21
-20.304189197
  0
LINE
  5
6CF
100
AcDbEntity
  8
0
100
AcDbLine
 62
7
  6
CONTINUOUS
 10
30.5796933588
 20
7.645810803
 11
30.5796933588
 21
9.3486688592
  0
LINE
  5
6D0
100
AcDbEntity
  8
0
100
AcDbLine
 62
7
  6
CONTINUOUS
 10
30.8583428589
 20
9.3486688592
 11
30.8583428589
 21
9.152582174
  0
LINE
  5
6D1
100
AcDbEntity
  8
0
100
AcDbLine
 62
7
  6
CONTINUOUS
 10
31.4156418591
 20
9.152582174
 11
31.4156418591
 21
7.645810803
  0
LINE
  5
6D2
100
AcDbEntity
  8
0
100
AcDbLine
 62
7
  6
CONTINUOUS
 10
31.6426895999
 20
7.645810803
 11
31.6426895999
 21
9.152582174
  0
LINE
  5
6D3
100
AcDbEntity
  8
0
100
AcDbLine
 62
7
  6
CONTINUOUS
 10
32.1999886001
 20
9.152582174
 11
32.1999886001
 21
9.3486688592
  0
LINE
  5
6D4
100
AcDbEntity
  8
0
100
AcDbLine
 62
7
  6
CONTINUOUS
 10
33.0571187845
 20
-57.854189197
 11
33.0571187845
 21
-51.554189197
  0
LINE
  5
6D5
100
AcDbEntity
  8
DRAFT
100
AcDbLine
 62
7
  6
CONTINUOUS
 10
33.7722086546
 20
-49.104189197
 11
33.7722086546
 21
-50.954189197
  0
LINE
  5
6D6
100
AcDbEntity
  8
DRAFT
100
AcDbLine
 62
7
  6
CONTINUOUS
 10
33.8071187845
 20
-49.104189197
 11
33.8071187845
 21
-50.954189197
  0
LINE
  5
6D7
100
AcDbEntity
  8
0
100
AcDbLine
 62
7
  6
CONTINUOUS
 10
33.9957298231
 20
9.3486688592
 11
33.9957298231
 21
7.645810803
  0
LINE
  5
6D8
100
AcDbEntity
  8
SMUSSO
100
AcDbLine
 62
7
  6
CONTINUOUS
 10
34.0110170155
 20
48.492807146
 11
33.9716876473
 21
44.5901883857
  0
LINE
  5
6D9
100
AcDbEntity
  8
RACCORDO
100
AcDbLine
 62
250
  6
CONTINUOUS
 10
38.8558794079
 20
30.545810803
 11
37.6892711481
 21
30.545810803
  0
LINE
  5
6DA
100
AcDbEntity
  8
RACCORDO
100
AcDbLine
 62
250
  6
CONTINUOUS
 10
-31.575033579
 20
30.545810803
 11
-32.7416418389
 21
30.545810803
  0
LINE
  5
6DB
100
AcDbEntity
  8
RACCORDO
100
AcDbLine
 62
7
  6
CONTINUOUS
 10
-31.4912492674
 20
31.545810803
 11
-32.8428812155
 21
31.545810803
  0
LINE
  5
6DC
100
AcDbEntity
  8
RACCORDO
100
AcDbLine
 62
7
  6
CONTINUOUS
 10
37.6054868364
 20
31.545810803
 11
38.9571187845
 21
31.545810803
  0
LINE
  5
6DD
100
AcDbEntity
  8
DRAFT
100
AcDbLine
 62
7
  6
CONTINUOUS
 10
-32.8428812155
 20
31.645810803
 11
-31.4312823583
 21
31.645810803
  0
LINE
  5
6DE
100
AcDbEntity
  8
DRAFT
100
AcDbLine
 62
7
  6
CONTINUOUS
 10
37.5455199273
 20
31.645810803
 11
38.9571187845
 21
31.645810803
  0
LINE
  5
6DF
100
AcDbEntity
  8
IMPORT_IGES
100
AcDbLine
 62
7
  6
CONTINUOUS
 10
6.2931547326
 20
32.545810803
 11
6.2071187845
 21
32.545810803
  0
LINE
  5
6E0
100
AcDbEntity
  8
IMPORT_IGES
100
AcDbLine
 62
7
  6
CONTINUOUS
 10
-0.0928812155
 20
32.545810803
 11
-0.1789171636
 21
32.545810803
  0
LINE
  5
6E1
100
AcDbEntity
  8
RACCORDO
100
AcDbLine
 62
250
  6
CONTINUOUS
 10
-1.3428812155
 20
45.2458869554
 11
-1.2678244363
 21
45.1708301762
  0
LINE
  5
6E2
100
AcDbEntity
  8
RACCORDO
100
AcDbLine
 62
250
  6
CONTINUOUS
 10
-0.8429573679
 20
45.745810803
 11
-0.7679005887
 21
45.6707540238
  0
LINE
  5
6E3
100
AcDbEntity
  8
RACCORDO
100
AcDbLine
 62
250
  6
CONTINUOUS
 10
35.3906150451
 20
45.7482431772
 11
35.3741794635
 21
47.3791315434
  0
LINE
  5
6E4
100
AcDbEntity
  8
0
100
AcDbLine
 62
7
  6
CONTINUOUS
 10
34.2227775639
 20
7.8418974883
 11
34.2227775639
 21
9.3486688592
  0
LINE
  5
6E5
100
AcDbEntity
  8
RACCORDO
100
AcDbLine
 62
7
  6
CONTINUOUS
 10
34.3571187845
 20
48.3779168606
 11
34.3571187845
 21
44.7137047454
  0
LINE
  5
6E6
100
AcDbEntity
  8
RACCORDO
100
AcDbLine
 62
7
  6
CONTINUOUS
 10
35.03493333
 20
45.199675551
 11
35.03493333
 21
47.891946055
  0
LINE
  5
6E7
100
AcDbEntity
  8
0
100
AcDbLine
 62
7
  6
CONTINUOUS
 10
35.0690464161
 20
7.645810803
 11
35.0690464161
 21
7.8418974883
  0
LINE
  5
6E8
100
AcDbEntity
  8
0
100
AcDbLine
 62
7
  6
CONTINUOUS
 10
35.2571187845
 20
-57.854189197
 11
35.2571187845
 21
-51.554189197
  0
LINE
  5
6E9
100
AcDbEntity
  8
0
100
AcDbLine
 62
7
  6
CONTINUOUS
 10
35.8030814615
 20
8.3671067847
 11
35.8030814615
 21
7.645810803
  0
LINE
  5
6EA
100
AcDbEntity
  8
0
100
AcDbLine
 62
7
  6
CONTINUOUS
 10
36.0301292023
 20
7.645810803
 11
36.0301292023
 21
8.3671067847
  0
LINE
  5
6EB
100
AcDbEntity
  8
DRAFT
100
AcDbLine
 62
7
  6
CONTINUOUS
 10
37.4687176417
 20
27.945810803
 11
37.4687176417
 21
23.345810803
  0
LINE
  5
6EC
100
AcDbEntity
  8
DRAFT
100
AcDbLine
 62
7
  6
CONTINUOUS
 10
37.4687176417
 20
-36.654189197
 11
37.4687176417
 21
-32.054189197
  0
LINE
  5
6ED
100
AcDbEntity
  8
DRAFT
100
AcDbLine
 62
7
  6
CONTINUOUS
 10
37.5071187845
 20
27.945810803
 11
37.5071187845
 21
23.345810803
  0
LINE
  5
6EE
100
AcDbEntity
  8
DRAFT
100
AcDbLine
 62
7
  6
CONTINUOUS
 10
37.5071187845
 20
-32.054189197
 11
37.5071187845
 21
-36.654189197
  0
LINE
  5
6EF
100
AcDbEntity
  8
DRAFT
100
AcDbLine
 62
7
  6
CONTINUOUS
 10
37.5071187845
 20
-50.8246542504
 11
37.5071187845
 21
-57.854189197
  0
LINE
  5
6F0
100
AcDbEntity
  8
DRAFT
100
AcDbLine
 62
7
  6
CONTINUOUS
 10
37.5455199273
 20
31.645810803
 11
37.5455199273
 21
27.945810803
  0
LINE
  5
6F1
100
AcDbEntity
  8
DRAFT
100
AcDbLine
 62
7
  6
CONTINUOUS
 10
37.5455199273
 20
23.345810803
 11
37.5455199273
 21
19.645810803
  0
LINE
  5
6F2
100
AcDbEntity
  8
DRAFT
100
AcDbLine
 62
7
  6
CONTINUOUS
 10
37.5455199273
 20
-40.354189197
 11
37.5455199273
 21
-36.654189197
  0
LINE
  5
6F3
100
AcDbEntity
  8
DRAFT
100
AcDbLine
 62
7
  6
CONTINUOUS
 10
37.5455199273
 20
-28.354189197
 11
37.5455199273
 21
-32.054189197
  0
LINE
  5
6F4
100
AcDbEntity
  8
DRAFT
100
AcDbLine
 62
7
  6
CONTINUOUS
 10
37.602300628
 20
28.1785279364
 11
37.602300628
 21
27.945810803
  0
LINE
  5
6F5
100
AcDbEntity
  8
DRAFT
100
AcDbLine
 62
7
  6
CONTINUOUS
 10
37.602300628
 20
23.345810803
 11
37.602300628
 21
23.1130936696
  0
LINE
  5
6F6
100
AcDbEntity
  8
DRAFT
100
AcDbLine
 62
7
  6
CONTINUOUS
 10
37.602300628
 20
-31.8214720636
 11
37.602300628
 21
-32.054189197
  0
LINE
  5
6F7
100
AcDbEntity
  8
DRAFT
100
AcDbLine
 62
7
  6
CONTINUOUS
 10
37.602300628
 20
-36.654189197
 11
37.602300628
 21
-36.8869063304
  0
LINE
  5
6F8
100
AcDbEntity
  8
DRAFT
100
AcDbLine
 62
7
  6
CONTINUOUS
 10
37.6054868364
 20
-40.354189197
 11
37.6054868364
 21
-40.254189197
  0
LINE
  5
6F9
100
AcDbEntity
  8
DRAFT
100
AcDbLine
 62
7
  6
CONTINUOUS
 10
37.6054868364
 20
-28.454189197
 11
37.6054868364
 21
-28.354189197
  0
LINE
  5
6FA
100
AcDbEntity
  8
DRAFT
100
AcDbLine
 62
7
  6
CONTINUOUS
 10
37.6054868364
 20
19.645810803
 11
37.6054868364
 21
19.745810803
  0
LINE
  5
6FB
100
AcDbEntity
  8
DRAFT
100
AcDbLine
 62
7
  6
CONTINUOUS
 10
37.6054868364
 20
31.545810803
 11
37.6054868364
 21
31.645810803
  0
LINE
  5
6FC
100
AcDbEntity
  8
DRAFT
100
AcDbLine
 62
7
  6
CONTINUOUS
 10
37.6559716469
 20
-36.8962975418
 11
37.6559716469
 21
-31.8120808522
  0
LINE
  5
6FD
100
AcDbEntity
  8
DRAFT
100
AcDbLine
 62
7
  6
CONTINUOUS
 10
37.6559716469
 20
23.1037024582
 11
37.6559716469
 21
28.1879191478
  0
LINE
  5
6FE
100
AcDbEntity
  8
0
100
AcDbLine
 62
7
  6
CONTINUOUS
 10
37.6768009109
 20
28.345810803
 11
37.6768009109
 21
22.945810803
  0
LINE
  5
6FF
100
AcDbEntity
  8
0
100
AcDbLine
 62
7
  6
CONTINUOUS
 10
37.6768009109
 20
-37.054189197
 11
37.6768009109
 21
-31.654189197
  0
LINE
  5
700
100
AcDbEntity
  8
RACCORDO
100
AcDbLine
 62
7
  6
CONTINUOUS
 10
37.6892711481
 20
30.545810803
 11
37.6892711481
 21
28.345810803
  0
LINE
  5
701
100
AcDbEntity
  8
RACCORDO
100
AcDbLine
 62
7
  6
CONTINUOUS
 10
37.6892711481
 20
22.945810803
 11
37.6892711481
 21
20.745810803
  0
LINE
  5
702
100
AcDbEntity
  8
RACCORDO
100
AcDbLine
 62
7
  6
CONTINUOUS
 10
37.6892711481
 20
-29.454189197
 11
37.6892711481
 21
-31.654189197
  0
LINE
  5
703
100
AcDbEntity
  8
RACCORDO
100
AcDbLine
 62
7
  6
CONTINUOUS
 10
37.6892711481
 20
-37.054189197
 11
37.6892711481
 21
-39.254189197
  0
LINE
  5
704
100
AcDbEntity
  8
0
100
AcDbLine
 62
7
  6
CONTINUOUS
 10
38.0892711481
 20
28.345810803
 11
38.0892711481
 21
22.945810803
  0
LINE
  5
705
100
AcDbEntity
  8
0
100
AcDbLine
 62
7
  6
CONTINUOUS
 10
38.0892711481
 20
-37.054189197
 11
38.0892711481
 21
-31.654189197
  0
LINE
  5
706
100
AcDbEntity
  8
DRAFT
100
AcDbLine
 62
7
  6
CONTINUOUS
 10
38.1785709923
 20
-40.354189197
 11
38.1785709923
 21
-40.254189197
  0
LINE
  5
707
100
AcDbEntity
  8
DRAFT
100
AcDbLine
 62
7
  6
CONTINUOUS
 10
38.1785709923
 20
-28.454189197
 11
38.1785709923
 21
-28.354189197
  0
LINE
  5
708
100
AcDbEntity
  8
DRAFT
100
AcDbLine
 62
7
  6
CONTINUOUS
 10
38.1785709923
 20
19.645810803
 11
38.1785709923
 21
19.745810803
  0
LINE
  5
709
100
AcDbEntity
  8
DRAFT
100
AcDbLine
 62
7
  6
CONTINUOUS
 10
38.1785709923
 20
31.545810803
 11
38.1785709923
 21
31.645810803
  0
LINE
  5
70A
100
AcDbEntity
  8
DRAFT
100
AcDbLine
 62
7
  6
CONTINUOUS
 10
38.1960260573
 20
-28.354189197
 11
38.1960260573
 21
-28.454189197
  0
LINE
  5
70B
100
AcDbEntity
  8
DRAFT
100
AcDbLine
 62
7
  6
CONTINUOUS
 10
38.1960260573
 20
-40.254189197
 11
38.1960260573
 21
-40.354189197
  0
LINE
  5
70C
100
AcDbEntity
  8
DRAFT
100
AcDbLine
 62
7
  6
CONTINUOUS
 10
38.1960260573
 20
19.645810803
 11
38.1960260573
 21
19.745810803
  0
LINE
  5
70D
100
AcDbEntity
  8
DRAFT
100
AcDbLine
 62
7
  6
CONTINUOUS
 10
38.1960260573
 20
31.545810803
 11
38.1960260573
 21
31.645810803
  0
LINE
  5
70E
100
AcDbEntity
  8
RACCORDO
100
AcDbLine
 62
7
  6
CONTINUOUS
 10
38.8523883949
 20
49.4412327183
 11
38.8523883949
 21
31.645810803
  0
LINE
  5
70F
100
AcDbEntity
  8
DRAFT
100
AcDbLine
 62
7
  6
CONTINUOUS
 10
38.8523883949
 20
19.645810803
 11
38.8523883949
 21
16.2102574787
  0
LINE
  5
710
100
AcDbEntity
  8
DRAFT
100
AcDbLine
 62
7
  6
CONTINUOUS
 10
38.8523883949
 20
-22.4186358727
 11
38.8523883949
 21
-28.354189197
  0
LINE
  5
711
100
AcDbEntity
  8
RACCORDO
100
AcDbLine
 62
7
  6
CONTINUOUS
 10
38.8523883949
 20
-40.354189197
 11
38.8523883949
 21
-58.1496111123
  0
LINE
  5
712
100
AcDbEntity
  8
IMPORT_IGES
100
AcDbLine
 62
7
  6
CONTINUOUS
 10
-0.1789171636
 20
34.745810803
 11
-0.0928812155
 21
34.745810803
  0
LINE
  5
713
100
AcDbEntity
  8
IMPORT_IGES
100
AcDbLine
 62
7
  6
CONTINUOUS
 10
6.2071187845
 20
34.745810803
 11
6.2931547326
 21
34.745810803
  0
LINE
  5
714
100
AcDbEntity
  8
DRAFT
100
AcDbLine
 62
7
  6
CONTINUOUS
 10
6.31933733
 20
37.245810803
 11
-0.2050997609
 21
37.245810803
  0
LINE
  5
715
100
AcDbEntity
  8
0
100
AcDbLine
 62
7
  6
CONTINUOUS
 10
35.1528992946
 20
9.3486688592
 11
35.8030814615
 21
8.3671067847
  0
LINE
  5
716
100
AcDbEntity
  8
0
100
AcDbLine
 62
7
  6
CONTINUOUS
 10
35.7511571863
 20
8.8291037488
 11
35.4230022804
 21
9.3486688592
  0
LINE
  5
717
100
AcDbEntity
  8
0
100
AcDbLine
 62
7
  6
CONTINUOUS
 10
33.8139949386
 20
7.645810803
 11
33.1318841684
 21
9.3486688592
  0
LINE
  5
718
100
AcDbEntity
  8
0
100
AcDbLine
 62
7
  6
CONTINUOUS
 10
33.3826365141
 20
8.1618283958
 11
33.572595397
 21
7.645810803
  0
LINE
  5
719
100
AcDbEntity
  8
SMUSSO
100
AcDbLine
 62
7
  6
CONTINUOUS
 10
38.9134811222
 20
14.2268302512
 11
38.9263754297
 21
13.488115871
  0
LINE
  5
71A
100
AcDbEntity
  8
RACCORDO
100
AcDbLine
 62
7
  6
CONTINUOUS
 10
38.8558794079
 20
30.545810803
 11
38.8558794079
 21
20.745810803
  0
LINE
  5
71B
100
AcDbEntity
  8
RACCORDO
100
AcDbLine
 62
7
  6
CONTINUOUS
 10
38.8558794079
 20
-29.454189197
 11
38.8558794079
 21
-39.254189197
  0
LINE
  5
71C
100
AcDbEntity
  8
DRAFT
100
AcDbLine
 62
7
  6
CONTINUOUS
 10
38.8872985248
 20
-37.004189197
 11
38.8872985248
 21
-31.704189197
  0
LINE
  5
71D
100
AcDbEntity
  8
DRAFT
100
AcDbLine
 62
7
  6
CONTINUOUS
 10
38.8872985248
 20
22.995810803
 11
38.8872985248
 21
28.295810803
  0
LINE
  5
71E
100
AcDbEntity
  8
SMUSSO
100
AcDbLine
 62
7
  6
CONTINUOUS
 10
38.9134811222
 20
16.0268302512
 11
38.9134811222
 21
14.2268302512
  0
LINE
  5
71F
100
AcDbEntity
  8
DRAFT
100
AcDbLine
 62
7
  6
CONTINUOUS
 10
38.9449002391
 20
28.295810803
 11
38.9449002391
 21
22.995810803
  0
LINE
  5
720
100
AcDbEntity
  8
DRAFT
100
AcDbLine
 62
7
  6
CONTINUOUS
 10
38.9449002391
 20
-31.704189197
 11
38.9449002391
 21
-37.004189197
  0
LINE
  5
721
100
AcDbEntity
  8
DRAFT
100
AcDbLine
 62
7
  6
CONTINUOUS
 10
38.9571187845
 20
31.545810803
 11
38.9571187845
 21
-40.254189197
  0
LINE
  5
722
100
AcDbEntity
  8
RACCORDO
100
AcDbLine
 62
7
  6
CONTINUOUS
 10
38.9571187845
 20
-40.254189197
 11
38.9571187845
 21
-58.2543415018
  0
LINE
  5
723
100
AcDbEntity
  8
RACCORDO
100
AcDbLine
 62
7
  6
CONTINUOUS
 10
38.9571187845
 20
31.545810803
 11
38.9571187845
 21
49.5459631079
  0
LINE
  5
724
100
AcDbEntity
  8
0
100
AcDbLine
 62
7
  6
CONTINUOUS
 10
7.5571187845
 20
39.345810803
 11
6.7071187845
 21
39.345810803
  0
LINE
  5
725
100
AcDbEntity
  8
0
100
AcDbLine
 62
7
  6
CONTINUOUS
 10
-0.5928812155
 20
39.345810803
 11
-1.4428812155
 21
39.345810803
  0
LINE
  5
726
100
AcDbEntity
  8
DRAFT
100
AcDbLine
 62
7
  6
CONTINUOUS
 10
7.5571187845
 20
40.345810803
 11
7.4571187845
 21
40.345810803
  0
LINE
  5
727
100
AcDbEntity
  8
DRAFT
100
AcDbLine
 62
7
  6
CONTINUOUS
 10
-1.3428812155
 20
40.345810803
 11
-1.4428812155
 21
40.345810803
  0
LINE
  5
728
100
AcDbEntity
  8
DRAFT
100
AcDbLine
 62
250
  6
CONTINUOUS
 10
-27.6579710856
 20
40.395810803
 11
-27.6928812155
 21
40.395810803
  0
LINE
  5
729
100
AcDbEntity
  8
DRAFT
100
AcDbLine
 62
7
  6
CONTINUOUS
 10
-1.4428812155
 20
40.844322283
 11
-1.3428812155
 21
40.844322283
  0
LINE
  5
72A
100
AcDbEntity
  8
DRAFT
100
AcDbLine
 62
7
  6
CONTINUOUS
 10
7.4571187845
 20
40.844322283
 11
7.5571187845
 21
40.844322283
  0
LINE
  5
72B
100
AcDbEntity
  8
DRAFT
100
AcDbLine
 62
7
  6
CONTINUOUS
 10
-1.4428812155
 20
40.895810803
 11
-1.3428812155
 21
40.895810803
  0
LINE
  5
72C
100
AcDbEntity
  8
DRAFT
100
AcDbLine
 62
7
  6
CONTINUOUS
 10
7.4571187845
 20
40.895810803
 11
7.5571187845
 21
40.895810803
  0
LINE
  5
72D
100
AcDbEntity
  8
DRAFT
100
AcDbLine
 62
7
  6
CONTINUOUS
 10
-0.2050997609
 20
42.045810803
 11
6.31933733
 21
42.045810803
  0
LINE
  5
72E
100
AcDbEntity
  8
ASSI
100
AcDbLine
 62
7
  6
CONTINUOUS
 10
8.5571187845
 20
42.245810803
 11
26.5571187845
 21
42.245810803
  0
LINE
  5
72F
100
AcDbEntity
  8
DRAFT
100
AcDbLine
 62
7
  6
CONTINUOUS
 10
-2.4428812155
 20
42.245810803
 11
-31.3928812155
 21
42.245810803
  0
LINE
  5
730
100
AcDbEntity
  8
RACCORDO
100
AcDbLine
 62
7
  6
CONTINUOUS
 10
-1.4428812155
 20
42.395810803
 11
-1.3428812155
 21
42.395810803
  0
LINE
  5
731
100
AcDbEntity
  8
RACCORDO
100
AcDbLine
 62
7
  6
CONTINUOUS
 10
-0.1789171636
 20
42.395810803
 11
6.2931547326
 21
42.395810803
  0
LINE
  5
732
100
AcDbEntity
  8
RACCORDO
100
AcDbLine
 62
7
  6
CONTINUOUS
 10
7.4571187845
 20
42.395810803
 11
7.5571187845
 21
42.395810803
  0
LINE
  5
733
100
AcDbEntity
  8
0
100
AcDbLine
 62
7
  6
CONTINUOUS
 10
12.2571187845
 20
42.845810803
 11
10.0571187845
 21
42.845810803
  0
LINE
  5
734
100
AcDbEntity
  8
0
100
AcDbLine
 62
7
  6
CONTINUOUS
 10
-3.9428812155
 20
42.845810803
 11
-6.1428812155
 21
42.845810803
  0
LINE
  5
735
100
AcDbEntity
  8
0
100
AcDbLine
 62
7
  6
CONTINUOUS
 10
-26.9428812155
 20
42.845810803
 11
-29.1428812155
 21
42.845810803
  0
LINE
  5
736
100
AcDbEntity
  8
SMUSSO
100
AcDbLine
 62
7
  6
CONTINUOUS
 10
38.9263754297
 20
13.488115871
 11
38.9571187845
 21
13.395810803
  0
LINE
  5
737
100
AcDbEntity
  8
DRAFT
100
AcDbLine
 62
7
  6
CONTINUOUS
 10
38.8523883949
 20
16.2102574787
 11
38.9134811222
 21
16.0268302512
  0
LINE
  5
738
100
AcDbEntity
  8
DRAFT
100
AcDbLine
 62
7
  6
CONTINUOUS
 10
38.8523883949
 20
-22.4186358727
 11
38.9571187845
 21
-22.104189197
  0
LINE
  5
739
100
AcDbEntity
  8
DRAFT
100
AcDbLine
 62
7
  6
CONTINUOUS
 10
6.3682115118
 20
44.245810803
 11
-0.2539739427
 21
44.245810803
  0
LINE
  5
73A
100
AcDbEntity
  8
0
100
AcDbLine
 62
7
  6
CONTINUOUS
 10
33.5571187845
 20
44.545810803
 11
31.5571187845
 21
44.545810803
  0
LINE
  5
73B
100
AcDbEntity
  8
RACCORDO
100
AcDbLine
 62
7
  6
CONTINUOUS
 10
-0.7679005887
 20
45.6707540238
 11
6.8821381577
 21
45.6707540238
  0
LINE
  5
73C
100
AcDbEntity
  8
RACCORDO
100
AcDbLine
 62
7
  6
CONTINUOUS
 10
-0.8429573679
 20
45.745810803
 11
6.9571949369
 21
45.745810803
  0
LINE
  5
73D
100
AcDbEntity
  8
0
100
AcDbLine
 62
7
  6
CONTINUOUS
 10
31.5571187845
 20
48.545810803
 11
33.5571187845
 21
48.545810803
  0
LINE
  5
73E
100
AcDbEntity
  8
0
100
AcDbLine
 62
7
  6
CONTINUOUS
 10
-31.3928812155
 20
49.145810803
 11
-2.4428812155
 21
49.145810803
  0
LINE
  5
73F
100
AcDbEntity
  8
ASSI
100
AcDbLine
 62
7
  6
CONTINUOUS
 10
8.5571187845
 20
49.145810803
 11
26.5571187845
 21
49.145810803
  0
LINE
  5
740
100
AcDbEntity
  8
0
100
AcDbLine
 62
7
  6
CONTINUOUS
 10
-1.4428812155
 20
49.645810803
 11
7.5571187845
 21
49.645810803
  0
LINE
  5
741
100
AcDbEntity
  8
RACCORDO
100
AcDbLine
 62
7
  6
CONTINUOUS
 10
-31.7383031308
 20
50.4410804134
 11
37.8525406998
 21
50.4410804134
  0
LINE
  5
742
100
AcDbEntity
  8
DRAFT
100
AcDbLine
 62
7
  6
CONTINUOUS
 10
27.5571187845
 20
50.4934456082
 11
37.5571187845
 21
50.4934456082
  0
LINE
  5
743
100
AcDbEntity
  8
RACCORDO
100
AcDbLine
 62
7
  6
CONTINUOUS
 10
-31.8430335203
 20
50.545810803
 11
27.5047535897
 21
50.545810803
  0
LINE
  5
744
100
AcDbEntity
  8
RACCORDO
100
AcDbLine
 62
7
  6
CONTINUOUS
 10
37.6094839793
 20
50.545810803
 11
37.9572710893
 21
50.545810803
  0
LINE
  5
745
100
AcDbEntity
  8
DRAFT
100
AcDbLine
 62
7
  6
CONTINUOUS
 10
27.5047535897
 20
50.545810803
 11
27.5571187845
 21
50.4934456082
  0
CIRCLE
  5
746
100
AcDbEntity
  8
DRAFT
100
AcDbCircle
 62
7
  6
CONTINUOUS
 10
-29.9428812155
 20
-49.104189197
 40
2.2849101299
  0
CIRCLE
  5
747
100
AcDbEntity
  8
DRAFT
100
AcDbCircle
 62
7
  6
CONTINUOUS
 10
-29.9428812155
 20
-49.104189197
 40
2.25
  0
ARC
  5
748
100
AcDbEntity
  8
0
100
AcDbCircle
 62
7
  6
CONTINUOUS
 10
-27.4428812155
 20
-55.254189197
 40
2.0
100
AcDbArc
 50
90.0
 51
270.0
  0
ARC
  5
749
100
AcDbEntity
  8
0
100
AcDbCircle
 62
7
  6
CONTINUOUS
 10
-25.4428812155
 20
-55.254189197
 40
2.0
100
AcDbArc
 50
270.0
 51
90.0
  0
CIRCLE
  5
74A
100
AcDbEntity
  8
DRAFT
100
AcDbCircle
 62
7
  6
CONTINUOUS
 10
-29.9428812155
 20
-49.104189197
 40
1.3198202597
  0
CIRCLE
  5
74B
100
AcDbEntity
  8
DRAFT
100
AcDbCircle
 62
7
  6
CONTINUOUS
 10
-29.9428812155
 20
-49.104189197
 40
1.25
  0
CIRCLE
  5
74C
100
AcDbEntity
  8
DRAFT
100
AcDbCircle
 62
7
  6
CONTINUOUS
 10
-29.9428812155
 20
-49.104189197
 40
1.0
  0
CIRCLE
  5
74D
100
AcDbEntity
  8
DRAFT
100
AcDbCircle
 62
7
  6
CONTINUOUS
 10
-29.9428812155
 20
-49.104189197
 40
0.9520022272
  0
ARC
  5
74E
100
AcDbEntity
  8
0
100
AcDbCircle
 62
7
  6
CONTINUOUS
 10
-4.8375965216
 20
6.853651839
 40
3.5220553542
100
AcDbArc
 50
159.0191965858
 51
163.7921491218
  0
ARC
  5
74F
100
AcDbEntity
  8
0
100
AcDbCircle
 62
7
  6
CONTINUOUS
 10
-12.2166480985
 20
6.853651839
 40
3.5220553542
100
AcDbArc
 50
159.0191965858
 51
163.7921491218
  0
ARC
  5
750
100
AcDbEntity
  8
0
100
AcDbCircle
 62
7
  6
CONTINUOUS
 10
-25.787910789
 20
6.853651839
 40
3.5220553542
100
AcDbArc
 50
159.0191965858
 51
163.7921491218
  0
ARC
  5
751
100
AcDbEntity
  8
DRAFT
100
AcDbCircle
 62
7
  6
CONTINUOUS
 10
-29.9428812155
 20
40.395810803
 40
2.2849101299
100
AcDbArc
 50
129.3901947656
 51
360.0
  0
ARC
  5
752
100
AcDbEntity
  8
DRAFT
100
AcDbCircle
 62
7
  6
CONTINUOUS
 10
-29.9428812155
 20
40.395810803
 40
2.25
100
AcDbArc
 50
130.1240345935
 51
360.0
  0
ARC
  5
753
100
AcDbEntity
  8
0
100
AcDbCircle
 62
7
  6
CONTINUOUS
 10
-1.4480795846
 20
9.5865774769
 40
1.9319241343
100
AcDbArc
 50
337.4191892411
 51
347.6454766647
  0
ARC
  5
754
100
AcDbEntity
  8
0
100
AcDbCircle
 62
7
  6
CONTINUOUS
 10
-15.2773510714
 20
9.5865774769
 40
1.9319241343
100
AcDbArc
 50
337.4191892411
 51
347.6454766647
  0
ARC
  5
755
100
AcDbEntity
  8
0
100
AcDbCircle
 62
7
  6
CONTINUOUS
 10
-19.7563837769
 20
9.5865774769
 40
1.9319241343
100
AcDbArc
 50
337.4191892411
 51
347.6454766647
  0
ARC
  5
756
100
AcDbEntity
  8
0
100
AcDbCircle
 62
7
  6
CONTINUOUS
 10
-26.8671062056
 20
9.5865774769
 40
1.9319241343
100
AcDbArc
 50
337.4191892411
 51
347.6454766647
  0
CIRCLE
  5
757
100
AcDbEntity
  8
DRAFT
100
AcDbCircle
 62
7
  6
CONTINUOUS
 10
-29.9428812155
 20
40.395810803
 40
1.3198202597
  0
CIRCLE
  5
758
100
AcDbEntity
  8
DRAFT
100
AcDbCircle
 62
7
  6
CONTINUOUS
 10
-29.9428812155
 20
40.395810803
 40
1.25
  0
CIRCLE
  5
759
100
AcDbEntity
  8
DRAFT
100
AcDbCircle
 62
7
  6
CONTINUOUS
 10
-29.9428812155
 20
40.395810803
 40
1.0
  0
CIRCLE
  5
75A
100
AcDbEntity
  8
DRAFT
100
AcDbCircle
 62
7
  6
CONTINUOUS
 10
-29.9428812155
 20
40.395810803
 40
0.9520022272
  0
ARC
  5
75B
100
AcDbEntity
  8
0
100
AcDbCircle
 62
7
  6
CONTINUOUS
 10
22.7633947845
 20
-6.184309197
 40
5.6074779015
100
AcDbArc
 50
104.6184641724
 51
108.030536234
  0
ARC
  5
75C
100
AcDbEntity
  8
0
100
AcDbCircle
 62
7
  6
CONTINUOUS
 10
22.7633947845
 20
-6.184309197
 40
5.6074766208
100
AcDbArc
 50
66.1507510578
 51
77.0671232762
  0
ARC
  5
75D
100
AcDbEntity
  8
0
100
AcDbCircle
 62
7
  6
CONTINUOUS
 10
22.7633947845
 20
-6.184309197
 40
5.6074765047
100
AcDbArc
 50
109.1821054584
 51
112.6110335093
  0
ARC
  5
75E
100
AcDbEntity
  8
0
100
AcDbCircle
 62
7
  6
CONTINUOUS
 10
22.7633947845
 20
-6.184309197
 40
5.6074761346
100
AcDbArc
 50
91.9102144889
 51
103.4934082927
  0
ARC
  5
75F
100
AcDbEntity
  8
0
100
AcDbCircle
 62
7
  6
CONTINUOUS
 10
22.7633947845
 20
-6.184309197
 40
5.6074759526
100
AcDbArc
 50
78.1844536706
 51
90.8185512484
  0
ARC
  5
760
100
AcDbEntity
  8
0
100
AcDbCircle
 62
7
  6
CONTINUOUS
 10
22.7633947845
 20
-6.184309197
 40
5.5006686758
100
AcDbArc
 50
91.9473196142
 51
103.7605162941
  0
ARC
  5
761
100
AcDbEntity
  8
0
100
AcDbCircle
 62
7
  6
CONTINUOUS
 10
22.7633947845
 20
-6.184309197
 40
5.5006683841
100
AcDbArc
 50
109.5695983715
 51
111.7987287801
  0
ARC
  5
762
100
AcDbEntity
  8
0
100
AcDbCircle
 62
7
  6
CONTINUOUS
 10
22.7633947845
 20
-6.184309197
 40
5.5006682353
100
AcDbArc
 50
104.9088365842
 51
108.3930555303
  0
ARC
  5
763
100
AcDbEntity
  8
0
100
AcDbCircle
 62
7
  6
CONTINUOUS
 10
22.7633947845
 20
-6.184309197
 40
5.5006672221
100
AcDbArc
 50
66.0805511142
 51
76.8115132283
  0
ARC
  5
764
100
AcDbEntity
  8
0
100
AcDbCircle
 62
7
  6
CONTINUOUS
 10
22.7633947845
 20
-6.184309197
 40
5.5006664386
100
AcDbArc
 50
77.9516164098
 51
90.8344466285
  0
ARC
  5
765
100
AcDbEntity
  8
DRAFT
100
AcDbCircle
 62
7
  6
CONTINUOUS
 10
36.0571187845
 20
-49.104189197
 40
2.2849101299
100
AcDbArc
 50
309.3901947656
 51
180.0
  0
ARC
  5
766
100
AcDbEntity
  8
DRAFT
100
AcDbCircle
 62
7
  6
CONTINUOUS
 10
36.0571187845
 20
-49.104189197
 40
2.25
100
AcDbArc
 50
310.1240345935
 51
180.0
  0
CIRCLE
  5
767
100
AcDbEntity
  8
DRAFT
100
AcDbCircle
 62
7
  6
CONTINUOUS
 10
36.0571187845
 20
-49.104189197
 40
1.3198202597
  0
CIRCLE
  5
768
100
AcDbEntity
  8
DRAFT
100
AcDbCircle
 62
7
  6
CONTINUOUS
 10
36.0571187845
 20
-49.104189197
 40
1.25
  0
CIRCLE
  5
769
100
AcDbEntity
  8
DRAFT
100
AcDbCircle
 62
7
  6
CONTINUOUS
 10
36.0571187845
 20
-49.104189197
 40
1.0
  0
CIRCLE
  5
76A
100
AcDbEntity
  8
DRAFT
100
AcDbCircle
 62
7
  6
CONTINUOUS
 10
36.0571187845
 20
-49.104189197
 40
0.9520022272
  0
ARC
  5
76B
100
AcDbEntity
  8
0
100
AcDbCircle
 62
7
  6
CONTINUOUS
 10
24.6592547845
 20
-8.961345197
 40
0.9345803565
100
AcDbArc
 50
85.000002777
 51
176.7242074107
  0
ARC
  5
76C
100
AcDbEntity
  8
0
100
AcDbCircle
 62
7
  6
CONTINUOUS
 10
24.6592547845
 20
-8.961345197
 40
0.9345790614
100
AcDbArc
 50
183.2757971638
 51
78.4375028389
  0
CIRCLE
  5
76D
100
AcDbEntity
  8
0
100
AcDbCircle
 62
7
  6
CONTINUOUS
 10
24.6592547845
 20
-8.961345197
 40
0.534046
  0
CIRCLE
  5
76E
100
AcDbEntity
  8
0
100
AcDbCircle
 62
7
  6
CONTINUOUS
 10
24.6592547845
 20
-8.961345197
 40
0.320428
  0
ARC
  5
76F
100
AcDbEntity
  8
0
100
AcDbCircle
 62
7
  6
CONTINUOUS
 10
31.4177995481
 20
6.853651839
 40
3.5220553542
100
AcDbArc
 50
159.0191965858
 51
163.7921491218
  0
CIRCLE
  5
770
100
AcDbEntity
  8
DRAFT
100
AcDbCircle
 62
7
  6
CONTINUOUS
 10
36.0571187845
 20
40.395810803
 40
2.2849101299
  0
CIRCLE
  5
771
100
AcDbEntity
  8
DRAFT
100
AcDbCircle
 62
7
  6
CONTINUOUS
 10
36.0571187845
 20
40.395810803
 40
2.25
  0
ARC
  5
772
100
AcDbEntity
  8
0
100
AcDbCircle
 62
7
  6
CONTINUOUS
 10
31.5571187845
 20
46.545810803
 40
2.0
100
AcDbArc
 50
90.0
 51
270.0
  0
ARC
  5
773
100
AcDbEntity
  8
0
100
AcDbCircle
 62
7
  6
CONTINUOUS
 10
33.5571187845
 20
46.545810803
 40
2.0
100
AcDbArc
 50
270.0
 51
90.0
  0
ARC
  5
774
100
AcDbEntity
  8
0
100
AcDbCircle
 62
7
  6
CONTINUOUS
 10
31.1229508725
 20
9.5865774769
 40
1.9319241343
100
AcDbArc
 50
337.4191892411
 51
347.6454766647
  0
ARC
  5
775
100
AcDbEntity
  8
0
100
AcDbCircle
 62
7
  6
CONTINUOUS
 10
23.8780638697
 20
9.5865774769
 40
1.9319241343
100
AcDbArc
 50
337.4191892411
 51
347.6454766647
  0
ARC
  5
776
100
AcDbEntity
  8
0
100
AcDbCircle
 62
7
  6
CONTINUOUS
 10
13.3409846249
 20
9.5865774769
 40
1.9319241343
100
AcDbArc
 50
337.4191892411
 51
347.6454766647
  0
CIRCLE
  5
777
100
AcDbEntity
  8
DRAFT
100
AcDbCircle
 62
7
  6
CONTINUOUS
 10
36.0571187845
 20
40.395810803
 40
1.3198202597
  0
CIRCLE
  5
778
100
AcDbEntity
  8
DRAFT
100
AcDbCircle
 62
7
  6
CONTINUOUS
 10
36.0571187845
 20
40.395810803
 40
1.25
  0
CIRCLE
  5
779
100
AcDbEntity
  8
DRAFT
100
AcDbCircle
 62
7
  6
CONTINUOUS
 10
36.0571187845
 20
40.395810803
 40
1.0
  0
CIRCLE
  5
77A
100
AcDbEntity
  8
DRAFT
100
AcDbCircle
 62
7
  6
CONTINUOUS
 10
36.0571187845
 20
40.395810803
 40
0.9520022272
  0
ARC
  5
77B
100
AcDbEntity
  8
0
100
AcDbCircle
 62
7
  6
CONTINUOUS
 10
25.4603227845
 20
-1.271091197
 40
0.4806413166
100
AcDbArc
 50
303.7488518717
 51
153.3682031715
  0
ARC
  5
77C
100
AcDbEntity
  8
0
100
AcDbCircle
 62
7
  6
CONTINUOUS
 10
25.4603227845
 20
-1.271091197
 40
0.4806403194
100
AcDbArc
 50
166.1529569329
 51
192.8397156584
  0
LINE
  5
77D
100
AcDbEntity
  8
0
100
AcDbLine
 62
7
  6
CONTINUOUS
 10
36.4372994055
 20
9.3486688592
 11
35.9243457139
 21
8.555130572
  0
SPLINE
  5
77E
100
AcDbEntity
  8
0
100
AcDbSpline
 62
7
  6
CONTINUOUS
 70
0
 71
3
 72
8
 73
4
 74
0
 42
0.0000001
 43
0.0000001
 44
0.0000000001
 40
0.0
 40
0.0
 40
0.0
 40
0.0
 40
1.0
 40
1.0
 40
1.0
 40
1.0
 10
35.9243457139
 20
8.555130572
 30
0.0
 10
35.8729205569
 20
8.6501479077
 30
0.0
 10
35.8143101404
 20
8.7414422108
 30
0.0
 10
35.7511571863
 20
8.8291037488
 30
0.0
  0
SPLINE
  5
77F
100
AcDbEntity
  8
0
100
AcDbSpline
 62
7
  6
CONTINUOUS
 70
0
 71
3
 72
12
 73
8
 74
0
 42
0.0000001
 43
0.0000001
 44
0.0000000001
 40
0.0
 40
0.0
 40
0.0
 40
0.0
 40
0.1914546415
 40
0.4289323167
 40
0.5716992375
 40
0.7144661583
 40
1.0
 40
1.0
 40
1.0
 40
1.0
 10
33.0101362996
 20
9.1732228777
 30
0.0
 10
33.0258887743
 20
9.1193103566
 30
0.0
 10
33.0648189405
 20
8.9996212311
 30
0.0
 10
33.1197250113
 20
8.841090938
 30
0.0
 10
33.176776241
 20
8.6986368172
 30
0.0
 10
33.2375977581
 20
8.5425378505
 30
0.0
 10
33.2835450473
 20
8.4255886473
 30
0.0
 10
33.3141029842
 20
8.3475947292
 30
0.0
  0
SPLINE
  5
780
100
AcDbEntity
  8
0
100
AcDbSpline
 62
7
  6
CONTINUOUS
 70
0
 71
3
 72
8
 73
4
 74
0
 42
0.0000001
 43
0.0000001
 44
0.0000000001
 40
0.0
 40
0.0
 40
0.0
 40
0.0
 40
1.0
 40
1.0
 40
1.0
 40
1.0
 10
28.035726705
 20
7.8367373911
 30
0.0
 10
28.0097415809
 20
7.9305399463
 30
0.0
 10
27.9793745807
 20
8.0231654239
 30
0.0
 10
27.9463912134
 20
8.1147418594
 30
0.0
  0
SPLINE
  5
781
100
AcDbEntity
  8
0
100
AcDbSpline
 62
7
  6
CONTINUOUS
 70
0
 71
3
 72
12
 73
8
 74
0
 42
0.0000001
 43
0.0000001
 44
0.0000000001
 40
0.0
 40
0.0
 40
0.0
 40
0.0
 40
0.1914546415
 40
0.4289323167
 40
0.5716992375
 40
0.7144661583
 40
1.0
 40
1.0
 40
1.0
 40
1.0
 10
25.7652492968
 20
9.1732228777
 30
0.0
 10
25.7810017715
 20
9.1193103566
 30
0.0
 10
25.8199319377
 20
8.9996212311
 30
0.0
 10
25.8748380085
 20
8.841090938
 30
0.0
 10
25.9318892381
 20
8.6986368172
 30
0.0
 10
25.9927107553
 20
8.5425378505
 30
0.0
 10
26.0386580444
 20
8.4255886473
 30
0.0
 10
26.0692159814
 20
8.3475947292
 30
0.0
  0
SPLINE
  5
782
100
AcDbEntity
  8
0
100
AcDbSpline
 62
7
  6
CONTINUOUS
 70
0
 71
3
 72
17
 73
13
 74
0
 42
0.0000001
 43
0.0000001
 44
0.0000000001
 40
0.0
 40
0.0
 40
0.0
 40
0.0
 40
0.188120604
 40
0.2735438531
 40
0.3176588673
 40
0.3643730824
 40
0.5178315861
 40
0.5961564737
 40
0.6791493087
 40
0.7717453768
 40
0.8754137835
 40
1.0
 40
1.0
 40
1.0
 40
1.0
 10
24.6764520972
 20
8.2434238204
 30
0.0
 10
24.6503016707
 20
8.1230773007
 30
0.0
 10
24.5660947149
 20
7.9441136674
 30
0.0
 10
24.378592872
 20
7.8419185673
 30
0.0
 10
24.2658958191
 20
7.8151256519
 30
0.0
 10
24.1061445121
 20
7.8034005955
 30
0.0
 10
23.9190197834
 20
7.8516625498
 30
0.0
 10
23.7590553414
 20
7.9874957954
 30
0.0
 10
23.6782043679
 20
8.1361890962
 30
0.0
 10
23.6329182222
 20
8.3145018386
 30
0.0
 10
23.617361463
 20
8.5244825085
 30
0.0
 10
23.6324750751
 20
8.6753911733
 30
0.0
 10
23.651905373
 20
8.7549001895
 30
0.0
  0
SPLINE
  5
783
100
AcDbEntity
  8
0
100
AcDbSpline
 62
7
  6
CONTINUOUS
 70
0
 71
3
 72
9
 73
5
 74
0
 42
0.0000001
 43
0.0000001
 44
0.0000000001
 40
0.0
 40
0.0
 40
0.0
 40
0.0
 40
0.4786249203
 40
1.0
 40
1.0
 40
1.0
 40
1.0
 10
24.1846228832
 20
9.1835432295
 30
0.0
 10
24.2822899121
 20
9.1835432295
 30
0.0
 10
24.5013596296
 20
9.1301830499
 30
0.0
 10
24.6031458584
 20
8.9302373972
 30
0.0
 10
24.6351706898
 20
8.8287812329
 30
0.0
  0
SPLINE
  5
784
100
AcDbEntity
  8
0
100
AcDbSpline
 62
7
  6
CONTINUOUS
 70
0
 71
3
 72
24
 73
20
 74
0
 42
0.0000001
 43
0.0000001
 44
0.0000000001
 40
0.0
 40
0.0
 40
0.0
 40
0.0
 40
0.1687487347
 40
0.2518691597
 40
0.2957520897
 40
0.3425908566
 40
0.3846805941
 40
0.4255807727
 40
0.4659466652
 40
0.5064594779
 40
0.5863058399
 40
0.6680835282
 40
0.7557269759
 40
0.8025545509
 40
0.8521511709
 40
0.898353344
 40
0.9434652361
 40
0.9879339646
 40
1.0
 40
1.0
 40
1.0
 40
1.0
 10
24.8622184306
 20
8.881028024
 30
0.0
 10
24.8217724224
 20
9.0219182769
 30
0.0
 10
24.697625695
 20
9.2267289099
 30
0.0
 10
24.4623924986
 20
9.3429500075
 30
0.0
 10
24.314263185
 20
9.3747266349
 30
0.0
 10
24.1987313218
 20
9.3819217128
 30
0.0
 10
24.0859022782
 20
9.375540414
 30
0.0
 10
23.9801997524
 20
9.3562314241
 30
0.0
 10
23.8792222321
 20
9.3236899247
 30
0.0
 10
23.7525606083
 20
9.2643025121
 30
0.0
 10
23.6103301488
 20
9.1562840264
 30
0.0
 10
23.4862252116
 20
8.9749505949
 30
0.0
 10
23.424841868
 20
8.7951912869
 30
0.0
 10
23.4005911016
 20
8.6368988053
 30
0.0
 10
23.394824113
 20
8.5129217483
 30
0.0
 10
23.4003304614
 20
8.3904798526
 30
0.0
 10
23.4171909167
 20
8.2735407134
 30
0.0
 10
23.4387305721
 20
8.1877459202
 30
0.0
 10
23.4536787498
 20
8.1409576848
 30
0.0
 10
23.4570109038
 20
8.1310191989
 30
0.0
  0
SPLINE
  5
785
100
AcDbEntity
  8
0
100
AcDbSpline
 62
7
  6
CONTINUOUS
 70
0
 71
3
 72
11
 73
7
 74
0
 42
0.0000001
 43
0.0000001
 44
0.0000000001
 40
0.0
 40
0.0
 40
0.0
 40
0.0
 40
0.2525992429
 40
0.4888102636
 40
0.730558892
 40
1.0
 40
1.0
 40
1.0
 40
1.0
 10
24.1978458783
 20
7.6148497474
 30
0.0
 10
24.2806607508
 20
7.6148497474
 30
0.0
 10
24.4427784333
 20
7.6358169697
 30
0.0
 10
24.6591352344
 20
7.7507394525
 30
0.0
 10
24.8216914385
 20
7.9413080455
 30
0.0
 10
24.8817141344
 20
8.1008926111
 30
0.0
 10
24.9034998381
 20
8.1865005485
 30
0.0
  0
SPLINE
  5
786
100
AcDbEntity
  8
0
100
AcDbSpline
 62
7
  6
CONTINUOUS
 70
0
 71
3
 72
9
 73
5
 74
0
 42
0.0000001
 43
0.0000001
 44
0.0000000001
 40
0.0
 40
0.0
 40
0.0
 40
0.0
 40
0.3500357027
 40
1.0
 40
1.0
 40
1.0
 40
1.0
 10
20.34488759
 20
8.429270704
 30
0.0
 10
20.3796168522
 20
8.4206221246
 30
0.0
 10
20.4784371694
 20
8.3948108102
 30
0.0
 10
20.578273315
 20
8.3703593841
 30
0.0
 10
20.6399046154
 20
8.3454985332
 30
0.0
  0
SPLINE
  5
787
100
AcDbEntity
  8
0
100
AcDbSpline
 62
7
  6
CONTINUOUS
 70
0
 71
3
 72
16
 73
12
 74
0
 42
0.0000001
 43
0.0000001
 44
0.0000000001
 40
0.0
 40
0.0
 40
0.0
 40
0.0
 40
0.1559909888
 40
0.2192678892
 40
0.2859020836
 40
0.4220584258
 40
0.5795857181
 40
0.674079367
 40
0.7781612252
 40
0.8965933076
 40
1.0
 40
1.0
 40
1.0
 40
1.0
 10
20.6399046154
 20
8.3454985332
 30
0.0
 10
20.6947654481
 20
8.3238093707
 30
0.0
 10
20.7739302066
 20
8.2800912054
 30
0.0
 10
20.820561594
 20
8.1797769395
 30
0.0
 10
20.8343134939
 20
8.0791350731
 30
0.0
 10
20.7910710931
 20
7.9394767442
 30
0.0
 10
20.6618430253
 20
7.8519993828
 30
0.0
 10
20.5316781761
 20
7.8166238361
 30
0.0
 10
20.4114430208
 20
7.8075266719
 30
0.0
 10
20.2878431698
 20
7.8182435629
 30
0.0
 10
20.2072298309
 20
7.8435708033
 30
0.0
 10
20.171260717
 20
7.85923676
 30
0.0
  0
SPLINE
  5
788
100
AcDbEntity
  8
0
100
AcDbSpline
 62
7
  6
CONTINUOUS
 70
0
 71
3
 72
12
 73
8
 74
0
 42
0.0000001
 43
0.0000001
 44
0.0000000001
 40
0.0
 40
0.0
 40
0.0
 40
0.0
 40
0.1606441131
 40
0.3160528741
 40
0.4695579901
 40
0.6257786262
 40
1.0
 40
1.0
 40
1.0
 40
1.0
 10
19.7123628546
 20
8.2031098032
 30
0.0
 10
19.7138578476
 20
8.1473835041
 30
0.0
 10
19.7298338295
 20
8.0373371363
 30
0.0
 10
19.7980956879
 20
7.887118432
 30
0.0
 10
19.9046891879
 20
7.7626311268
 30
0.0
 10
20.110250452
 20
7.6370982565
 30
0.0
 10
20.3010560146
 20
7.6148497474
 30
0.0
 10
20.4309174509
 20
7.6148497474
 30
0.0
  0
SPLINE
  5
789
100
AcDbEntity
  8
0
100
AcDbSpline
 62
7
  6
CONTINUOUS
 70
0
 71
3
 72
14
 73
10
 74
0
 42
0.0000001
 43
0.0000001
 44
0.0000000001
 40
0.0
 40
0.0
 40
0.0
 40
0.0
 40
0.2324140172
 40
0.3379986706
 40
0.4377481205
 40
0.6253413849
 40
0.7167588502
 40
0.8043408137
 40
1.0
 40
1.0
 40
1.0
 40
1.0
 10
20.4309174509
 20
7.6148497474
 30
0.0
 10
20.5414425717
 20
7.6148497474
 30
0.0
 10
20.7062257998
 20
7.6443574855
 30
0.0
 10
20.8857494468
 20
7.7545043752
 30
0.0
 10
21.0109666459
 20
7.8963786987
 30
0.0
 10
21.0664375399
 20
8.0795914897
 30
0.0
 10
21.0430627735
 20
8.2543321565
 30
0.0
 10
20.967600748
 20
8.4191890662
 30
0.0
 10
20.849584988
 20
8.5023834239
 30
0.0
 10
20.7652000018
 20
8.5415852185
 30
0.0
  0
SPLINE
  5
78A
100
AcDbEntity
  8
0
100
AcDbSpline
 62
7
  6
CONTINUOUS
 70
0
 71
3
 72
9
 73
5
 74
0
 42
0.0000001
 43
0.0000001
 44
0.0000000001
 40
0.0
 40
0.0
 40
0.0
 40
0.0
 40
0.1708537376
 40
1.0
 40
1.0
 40
1.0
 40
1.0
 10
20.7652000018
 20
8.5415852185
 30
0.0
 10
20.7452583408
 20
8.5507013932
 30
0.0
 10
20.6250862109
 20
8.5962728281
 30
0.0
 10
20.4999221183
 20
8.6264425528
 30
0.0
 10
20.3963280913
 20
8.650755124
 30
0.0
  0
SPLINE
  5
78B
100
AcDbEntity
  8
0
100
AcDbSpline
 62
7
  6
CONTINUOUS
 70
0
 71
3
 72
9
 73
5
 74
0
 42
0.0000001
 43
0.0000001
 44
0.0000000001
 40
0.0
 40
0.0
 40
0.0
 40
0.0
 40
0.6350560901
 40
1.0
 40
1.0
 40
1.0
 40
1.0
 10
20.3963280913
 20
8.650755124
 30
0.0
 10
20.3233196693
 20
8.6678895333
 30
0.0
 10
20.2110572751
 20
8.698739995
 30
0.0
 10
20.0971347709
 20
8.7436862581
 30
0.0
 10
20.065834945
 20
8.7733092826
 30
0.0
  0
SPLINE
  5
78C
100
AcDbEntity
  8
0
100
AcDbSpline
 62
7
  6
CONTINUOUS
 70
0
 71
3
 72
13
 73
9
 74
0
 42
0.0000001
 43
0.0000001
 44
0.0000000001
 40
0.0
 40
0.0
 40
0.0
 40
0.0
 40
0.1223010007
 40
0.2481832321
 40
0.3968182834
 40
0.5546662969
 40
0.7464665216
 40
1.0
 40
1.0
 40
1.0
 40
1.0
 10
20.065834945
 20
8.7733092826
 30
0.0
 10
20.0454376948
 20
8.7922277105
 30
0.0
 10
20.0110040972
 20
8.8396481623
 30
0.0
 10
19.9951726282
 20
8.930973324
 30
0.0
 10
20.0172638286
 20
9.0301706668
 30
0.0
 10
20.0930234135
 20
9.1202173257
 30
0.0
 10
20.2221413916
 20
9.1770177666
 30
0.0
 10
20.3245465911
 20
9.1835432295
 30
0.0
 10
20.3822183349
 20
9.1835432295
 30
0.0
  0
SPLINE
  5
78D
100
AcDbEntity
  8
0
100
AcDbSpline
 62
7
  6
CONTINUOUS
 70
0
 71
3
 72
9
 73
5
 74
0
 42
0.0000001
 43
0.0000001
 44
0.0000000001
 40
0.0
 40
0.0
 40
0.0
 40
0.0
 40
0.5306823676
 40
1.0
 40
1.0
 40
1.0
 40
1.0
 10
20.3822183349
 20
9.1835432295
 30
0.0
 10
20.4821648126
 20
9.1835432295
 30
0.0
 10
20.6948731294
 20
9.1523846719
 30
0.0
 10
20.7762725832
 20
8.9514996344
 30
0.0
 10
20.7856794476
 20
8.863612322
 30
0.0
  0
SPLINE
  5
78E
100
AcDbEntity
  8
0
100
AcDbSpline
 62
7
  6
CONTINUOUS
 70
0
 71
3
 72
19
 73
15
 74
0
 42
0.0000001
 43
0.0000001
 44
0.0000000001
 40
0.0
 40
0.0
 40
0.0
 40
0.0
 40
0.1543381976
 40
0.2316852979
 40
0.3135124509
 40
0.4030904341
 40
0.4511122273
 40
0.5018427828
 40
0.592716338
 40
0.6780805119
 40
0.7570416494
 40
0.8309061667
 40
0.9705334111
 40
1.0
 40
1.0
 40
1.0
 40
1.0
 10
21.0127271884
 20
8.8739326739
 30
0.0
 10
21.0091002348
 20
8.9670256293
 30
0.0
 10
20.9670088906
 20
9.1101588644
 30
0.0
 10
20.8374020562
 20
9.2517797361
 30
0.0
 10
20.7048343697
 20
9.3266783733
 30
0.0
 10
20.5763302057
 20
9.3627135353
 30
0.0
 10
20.4634550265
 20
9.3772807373
 30
0.0
 10
20.3489836154
 20
9.3819537317
 30
0.0
 10
20.2116095988
 20
9.3708805883
 30
0.0
 10
20.0625772005
 20
9.3281740448
 30
0.0
 10
19.9350763423
 20
9.2573409755
 30
0.0
 10
19.8145619326
 20
9.1248609964
 30
0.0
 10
19.769135044
 20
8.9752028567
 30
0.0
 10
19.7752798972
 20
8.8726508093
 30
0.0
 10
19.7775244759
 20
8.8549563429
 30
0.0
  0
SPLINE
  5
78F
100
AcDbEntity
  8
0
100
AcDbSpline
 62
7
  6
CONTINUOUS
 70
0
 71
3
 72
9
 73
5
 74
0
 42
0.0000001
 43
0.0000001
 44
0.0000000001
 40
0.0
 40
0.0
 40
0.0
 40
0.0
 40
0.1806469784
 40
1.0
 40
1.0
 40
1.0
 40
1.0
 10
20.020683504
 20
8.5362637059
 30
0.0
 10
20.0389255305
 20
8.5267287911
 30
0.0
 10
20.1435531369
 20
8.4810762435
 30
0.0
 10
20.2542940758
 20
8.4518310798
 30
0.0
 10
20.34488759
 20
8.429270704
 30
0.0
  0
SPLINE
  5
790
100
AcDbEntity
  8
0
100
AcDbSpline
 62
7
  6
CONTINUOUS
 70
0
 71
3
 72
17
 73
13
 74
0
 42
0.0000001
 43
0.0000001
 44
0.0000000001
 40
0.0
 40
0.0
 40
0.0
 40
0.0
 40
0.2460836248
 40
0.3488272006
 40
0.4008361773
 40
0.4556648225
 40
0.540858721
 40
0.6244209655
 40
0.704882247
 40
0.7821673896
 40
0.8752909099
 40
1.0
 40
1.0
 40
1.0
 40
1.0
 10
17.1113118284
 20
8.4198371922
 30
0.0
 10
17.2407893795
 20
8.4378178236
 30
0.0
 10
17.4369917998
 20
8.5025806543
 30
0.0
 10
17.5529357784
 20
8.6895721782
 30
0.0
 10
17.5819528804
 20
8.7975660221
 30
0.0
 10
17.5899298975
 20
8.8997182405
 30
0.0
 10
17.5752843063
 20
9.0191018855
 30
0.0
 10
17.5222013722
 20
9.1421079724
 30
0.0
 10
17.4406664365
 20
9.2438096339
 30
0.0
 10
17.323461177
 20
9.3131599848
 30
0.0
 10
17.167935982
 20
9.343629885
 30
0.0
 10
17.0522619856
 20
9.3486688592
 30
0.0
 10
16.9860162845
 20
9.3486688592
 30
0.0
  0
SPLINE
  5
791
100
AcDbEntity
  8
0
100
AcDbSpline
 62
7
  6
CONTINUOUS
 70
0
 71
3
 72
14
 73
10
 74
0
 42
0.0000001
 43
0.0000001
 44
0.0000000001
 40
0.0
 40
0.0
 40
0.0
 40
0.0
 40
0.1089885614
 40
0.1829254059
 40
0.2624764842
 40
0.3465277994
 40
0.4482203747
 40
0.5822701297
 40
1.0
 40
1.0
 40
1.0
 40
1.0
 10
16.7202671061
 20
8.3991964885
 30
0.0
 10
16.7450017249
 20
8.3991964885
 30
0.0
 10
16.7864411013
 20
8.3983238616
 30
0.0
 10
16.8461566012
 20
8.3932902648
 30
0.0
 10
16.8972276289
 20
8.3747096193
 30
0.0
 10
16.9509295289
 20
8.3469555769
 30
0.0
 10
17.00648352
 20
8.2992896894
 30
0.0
 10
17.1015273674
 20
8.1851288331
 30
0.0
 10
17.169598986
 20
8.0796542456
 30
0.0
 10
17.2206429919
 20
7.9997666673
 30
0.0
  0
SPLINE
  5
792
100
AcDbEntity
  8
0
100
AcDbSpline
 62
7
  6
CONTINUOUS
 70
0
 71
3
 72
12
 73
8
 74
0
 42
0.0000001
 43
0.0000001
 44
0.0000000001
 40
0.0
 40
0.0
 40
0.0
 40
0.0
 40
0.3274191609
 40
0.4911287414
 40
0.6548383219
 40
0.8345406322
 40
1.0
 40
1.0
 40
1.0
 40
1.0
 10
17.7105371104
 20
7.645810803
 30
0.0
 10
17.6623217158
 20
7.7229715812
 30
0.0
 10
17.5902485299
 20
7.8388729199
 30
0.0
 10
17.4931513244
 20
7.9927673529
 30
0.0
 10
17.4205375108
 20
8.1136005203
 30
0.0
 10
17.3373530404
 20
8.22823619
 30
0.0
 10
17.2734517499
 20
8.3000645254
 30
0.0
 10
17.2407999218
 20
8.3324367961
 30
0.0
  0
SPLINE
  5
793
100
AcDbEntity
  8
0
100
AcDbSpline
 62
7
  6
CONTINUOUS
 70
0
 71
3
 72
9
 73
5
 74
0
 42
0.0000001
 43
0.0000001
 44
0.0000000001
 40
0.0
 40
0.0
 40
0.0
 40
0.0
 40
0.209446698
 40
1.0
 40
1.0
 40
1.0
 40
1.0
 10
17.2407999218
 20
8.3324367961
 30
0.0
 10
17.2329720883
 20
8.3400646455
 30
0.0
 10
17.1934050215
 20
8.3742346927
 30
0.0
 10
17.1479154399
 20
8.4008088715
 30
0.0
 10
17.1113118284
 20
8.4198371922
 30
0.0
  0
SPLINE
  5
794
100
AcDbEntity
  8
0
100
AcDbSpline
 62
7
  6
CONTINUOUS
 70
0
 71
3
 72
9
 73
5
 74
0
 42
0.0000001
 43
0.0000001
 44
0.0000000001
 40
0.0
 40
0.0
 40
0.0
 40
0.0
 40
0.7911658617
 40
1.0
 40
1.0
 40
1.0
 40
1.0
 10
18.0920676132
 20
8.4717614674
 30
0.0
 10
18.0920676132
 20
8.6258567481
 30
0.0
 10
18.1147613248
 20
8.8346627938
 30
0.0
 10
18.2354321146
 20
8.9914641937
 30
0.0
 10
18.2649335461
 20
9.0194657766
 30
0.0
  0
SPLINE
  5
795
100
AcDbEntity
  8
0
100
AcDbSpline
 62
7
  6
CONTINUOUS
 70
0
 71
3
 72
22
 73
18
 74
0
 42
0.0000001
 43
0.0000001
 44
0.0000000001
 40
0.0
 40
0.0
 40
0.0
 40
0.0
 40
0.1081298759
 40
0.1615346473
 40
0.217080687
 40
0.2945607721
 40
0.3699060589
 40
0.4451944316
 40
0.522906274
 40
0.6071289573
 40
0.6524814421
 40
0.7005967246
 40
0.7747894701
 40
0.8415253269
 40
0.902820447
 40
0.9612568651
 40
1.0
 40
1.0
 40
1.0
 40
1.0
 10
18.2649335461
 20
9.0194657766
 30
0.0
 10
18.3195723967
 20
9.0713267955
 30
0.0
 10
18.4162544686
 20
9.1357874341
 30
0.0
 10
18.5626196073
 20
9.1771218181
 30
0.0
 10
18.6926561055
 20
9.1882230336
 30
0.0
 10
18.8386088061
 20
9.1703212865
 30
0.0
 10
18.9859093602
 20
9.1048435054
 30
0.0
 10
19.1086955596
 20
8.9998705492
 30
0.0
 10
19.1965046217
 20
8.8571124278
 30
0.0
 10
19.2386870615
 20
8.7175901268
 30
0.0
 10
19.2556095677
 20
8.5947984545
 30
0.0
 10
19.2603136841
 20
8.4779524753
 30
0.0
 10
19.252487898
 20
8.3460513991
 30
0.0
 10
19.2223354084
 20
8.2077395033
 30
0.0
 10
19.1707458005
 20
8.0874363476
 30
0.0
 10
19.1049628527
 20
7.9976274394
 30
0.0
 10
19.0556541068
 20
7.9507941927
 30
0.0
 10
19.0347363899
 20
7.9336607248
 30
0.0
  0
SPLINE
  5
796
100
AcDbEntity
  8
0
100
AcDbSpline
 62
7
  6
CONTINUOUS
 70
0
 71
3
 72
14
 73
10
 74
0
 42
0.0000001
 43
0.0000001
 44
0.0000000001
 40
0.0
 40
0.0
 40
0.0
 40
0.0
 40
0.2665979089
 40
0.368288704
 40
0.4714152591
 40
0.6179308633
 40
0.694077139
 40
0.7749435498
 40
1.0
 40
1.0
 40
1.0
 40
1.0
 10
16.9952078307
 20
9.152582174
 30
0.0
 10
17.0908986067
 20
9.152582174
 30
0.0
 10
17.2397884625
 20
9.131728003
 30
0.0
 10
17.3456177886
 20
8.9906953518
 30
0.0
 10
17.369772075
 20
8.8635678021
 30
0.0
 10
17.3350715622
 20
8.7443456955
 30
0.0
 10
17.2597766541
 20
8.6628714223
 30
0.0
 10
17.135271959
 20
8.5999479128
 30
0.0
 10
17.0218061214
 20
8.5952831737
 30
0.0
 10
16.9410259441
 20
8.5952831737
 30
0.0
  0
SPLINE
  5
797
100
AcDbEntity
  8
0
100
AcDbSpline
 62
7
  6
CONTINUOUS
 70
0
 71
3
 72
12
 73
8
 74
0
 42
0.0000001
 43
0.0000001
 44
0.0000000001
 40
0.0
 40
0.0
 40
0.0
 40
0.0
 40
0.1914546415
 40
0.4289323167
 40
0.5716992375
 40
0.7144661583
 40
1.0
 40
1.0
 40
1.0
 40
1.0
 10
15.2281700519
 20
9.1732228777
 30
0.0
 10
15.2439225267
 20
9.1193103566
 30
0.0
 10
15.2828526929
 20
8.9996212311
 30
0.0
 10
15.3377587636
 20
8.841090938
 30
0.0
 10
15.3948099933
 20
8.6986368172
 30
0.0
 10
15.4556315105
 20
8.5425378505
 30
0.0
 10
15.5015787996
 20
8.4255886473
 30
0.0
 10
15.5321367365
 20
8.3475947292
 30
0.0
  0
SPLINE
  5
798
100
AcDbEntity
  8
0
100
AcDbSpline
 62
7
  6
CONTINUOUS
 70
0
 71
3
 72
9
 73
5
 74
0
 42
0.0000001
 43
0.0000001
 44
0.0000000001
 40
0.0
 40
0.0
 40
0.0
 40
0.0
 40
0.3106214921
 40
1.0
 40
1.0
 40
1.0
 40
1.0
 10
13.567238435
 20
8.1665048766
 30
0.0
 10
13.5572962221
 20
8.1383941539
 30
0.0
 10
13.5254727728
 20
8.047833203
 30
0.0
 10
13.4940772215
 20
7.9571067625
 30
0.0
 10
13.4737102364
 20
7.8941442794
 30
0.0
  0
SPLINE
  5
799
100
AcDbEntity
  8
0
100
AcDbSpline
 62
7
  6
CONTINUOUS
 70
0
 71
3
 72
9
 73
5
 74
0
 42
0.0000001
 43
0.0000001
 44
0.0000000001
 40
0.0
 40
0.0
 40
0.0
 40
0.0
 40
0.1862683768
 40
1.0
 40
1.0
 40
1.0
 40
1.0
 10
13.4737102364
 20
7.8941442794
 30
0.0
 10
13.4688870531
 20
7.9098271644
 30
0.0
 10
13.4424740208
 20
7.9938621809
 30
0.0
 10
13.4148647494
 20
8.0775148197
 30
0.0
 10
13.3922762273
 20
8.145541657
 30
0.0
  0
SPLINE
  5
79A
100
AcDbEntity
  8
0
100
AcDbSpline
 62
7
  6
CONTINUOUS
 70
0
 71
3
 72
23
 73
19
 74
0
 42
0.0000001
 43
0.0000001
 44
0.0000000001
 40
0.0
 40
0.0
 40
0.0
 40
0.0
 40
0.1131442974
 40
0.2224261488
 40
0.278293043
 40
0.3340032058
 40
0.3916539933
 40
0.4531445052
 40
0.5213279899
 40
0.5853433225
 40
0.6475398075
 40
0.7104707811
 40
0.7724610212
 40
0.8317288719
 40
0.8908879957
 40
0.9525658784
 40
0.9979009156
 40
1.0
 40
1.0
 40
1.0
 40
1.0
 10
10.5994921658
 20
8.0895859328
 30
0.0
 10
10.606036786
 20
8.0239384038
 30
0.0
 10
10.63902837
 20
7.8948855891
 30
0.0
 10
10.741334931
 20
7.7632820704
 30
0.0
 10
10.8454843525
 20
7.6865003418
 30
0.0
 10
10.9355284486
 20
7.6445047639
 30
0.0
 10
11.0350313515
 20
7.6197672803
 30
0.0
 10
11.1444069997
 20
7.6120912016
 30
0.0
 10
11.2575342441
 20
7.620656597
 30
0.0
 10
11.3678193089
 20
7.649757889
 30
0.0
 10
11.4673224334
 20
7.6991704128
 30
0.0
 10
11.5534375792
 20
7.7672763959
 30
0.0
 10
11.6246918269
 20
7.8484890188
 30
0.0
 10
11.6769144578
 20
7.9407406122
 30
0.0
 10
11.7078421192
 20
8.041958962
 30
0.0
 10
11.7164195765
 20
8.1390810493
 30
0.0
 10
11.7123126064
 20
8.202769487
 30
0.0
 10
11.7082195067
 20
8.2301395055
 30
0.0
 10
11.7080338168
 20
8.2313500336
 30
0.0
  0
SPLINE
  5
79B
100
AcDbEntity
  8
0
100
AcDbSpline
 62
7
  6
CONTINUOUS
 70
0
 71
3
 72
17
 73
13
 74
0
 42
0.0000001
 43
0.0000001
 44
0.0000000001
 40
0.0
 40
0.0
 40
0.0
 40
0.0
 40
0.1590642081
 40
0.3063151579
 40
0.4665910561
 40
0.5503046233
 40
0.6376676072
 40
0.7285367308
 40
0.8219968636
 40
0.8894628744
 40
0.9528542452
 40
1.0
 40
1.0
 40
1.0
 40
1.0
 10
11.387064066
 20
8.5683535671
 30
0.0
 10
11.4557466623
 20
8.6001634571
 30
0.0
 10
11.5796393821
 20
8.6947114159
 30
0.0
 10
11.6423289672
 20
8.9214411103
 30
0.0
 10
11.5874006164
 20
9.1094391268
 30
0.0
 10
11.4872386514
 20
9.2335915741
 30
0.0
 10
11.3826053127
 20
9.3042716252
 30
0.0
 10
11.2602310943
 20
9.3496396426
 30
0.0
 10
11.1399501759
 20
9.362261321
 30
0.0
 10
11.033088582
 20
9.3545979329
 30
0.0
 10
10.9504335697
 20
9.3345406874
 30
0.0
 10
10.9016676494
 20
9.3136719633
 30
0.0
 10
10.8816135371
 20
9.3032968577
 30
0.0
  0
SPLINE
  5
79C
100
AcDbEntity
  8
0
100
AcDbSpline
 62
7
  6
CONTINUOUS
 70
0
 71
3
 72
16
 73
12
 74
0
 42
0.0000001
 43
0.0000001
 44
0.0000000001
 40
0.0
 40
0.0
 40
0.0
 40
0.0
 40
0.2754465559
 40
0.3950325473
 40
0.4565247543
 40
0.5218606479
 40
0.5875789382
 40
0.6488150883
 40
0.7664059399
 40
0.8813245124
 40
1.0
 40
1.0
 40
1.0
 40
1.0
 10
10.8265399067
 20
8.8842530257
 30
0.0
 10
10.8392022137
 20
8.9658544644
 30
0.0
 10
10.8846061239
 20
9.0893930486
 30
0.0
 10
11.0056192123
 20
9.1622446039
 30
0.0
 10
11.0774646325
 20
9.1807323404
 30
0.0
 10
11.1353027031
 20
9.1849930904
 30
0.0
 10
11.1930357293
 20
9.1807389709
 30
0.0
 10
11.2644474849
 20
9.1623664247
 30
0.0
 10
11.3410564777
 20
9.1139103819
 30
0.0
 10
11.4031139013
 20
9.0250798937
 30
0.0
 10
11.4147999624
 20
8.9536952648
 30
0.0
 10
11.4147999624
 20
8.9181167245
 30
0.0
  0
SPLINE
  5
79D
100
AcDbEntity
  8
0
100
AcDbSpline
 62
7
  6
CONTINUOUS
 70
0
 71
3
 72
11
 73
7
 74
0
 42
0.0000001
 43
0.0000001
 44
0.0000000001
 40
0.0
 40
0.0
 40
0.0
 40
0.0
 40
0.2589066357
 40
0.4973886641
 40
0.7458566114
 40
1.0
 40
1.0
 40
1.0
 40
1.0
 10
11.4147999624
 20
8.9181167245
 30
0.0
 10
11.4147999624
 20
8.8752081413
 30
0.0
 10
11.4015512697
 20
8.789261736
 30
0.0
 10
11.3122153175
 20
8.6957082752
 30
0.0
 10
11.1981207411
 20
8.6456887693
 30
0.0
 10
11.1144125837
 20
8.6341458693
 30
0.0
 10
11.0722934132
 20
8.6341458693
 30
0.0
  0
SPLINE
  5
79E
100
AcDbEntity
  8
0
100
AcDbSpline
 62
7
  6
CONTINUOUS
 70
0
 71
3
 72
8
 73
4
 74
0
 42
0.0000001
 43
0.0000001
 44
0.0000000001
 40
0.0
 40
0.0
 40
0.0
 40
0.0
 40
1.0
 40
1.0
 40
1.0
 40
1.0
 10
11.0722934132
 20
8.6341458693
 30
0.0
 10
11.0609231408
 20
8.6341458693
 30
0.0
 10
11.049567105
 20
8.6352903617
 30
0.0
 10
11.0382684564
 20
8.6365645812
 30
0.0
  0
SPLINE
  5
79F
100
AcDbEntity
  8
0
100
AcDbSpline
 62
7
  6
CONTINUOUS
 70
0
 71
3
 72
9
 73
5
 74
0
 42
0.0000001
 43
0.0000001
 44
0.0000000001
 40
0.0
 40
0.0
 40
0.0
 40
0.0
 40
0.290916541
 40
1.0
 40
1.0
 40
1.0
 40
1.0
 10
11.0144025935
 20
8.4507982478
 30
0.0
 10
11.0288105609
 20
8.4544899702
 30
0.0
 10
11.0785306613
 20
8.4661597862
 30
0.0
 10
11.129568983
 20
8.4740190788
 30
0.0
 10
11.1658216117
 20
8.4740190788
 30
0.0
  0
SPLINE
  5
7A0
100
AcDbEntity
  8
0
100
AcDbSpline
 62
7
  6
CONTINUOUS
 70
0
 71
3
 72
21
 73
17
 74
0
 42
0.0000001
 43
0.0000001
 44
0.0000000001
 40
0.0
 40
0.0
 40
0.0
 40
0.0
 40
0.1230757907
 40
0.2391982989
 40
0.3536863931
 40
0.4116637412
 40
0.4732056226
 40
0.5378946217
 40
0.5993303129
 40
0.6599976583
 40
0.7224733697
 40
0.7852047098
 40
0.8467620542
 40
0.9098248093
 40
0.9768921958
 40
1.0
 40
1.0
 40
1.0
 40
1.0
 10
11.1658216117
 20
8.4740190788
 30
0.0
 10
11.2117345155
 20
8.4740190788
 30
0.0
 10
11.3025458843
 20
8.4606712752
 30
0.0
 10
11.4166760571
 20
8.3876224533
 30
0.0
 10
11.4800306448
 20
8.2964771414
 30
0.0
 10
11.5040572637
 20
8.2119218539
 30
0.0
 10
11.5096084059
 20
8.14307432
 30
0.0
 10
11.5038148067
 20
8.0729407598
 30
0.0
 10
11.484616963
 20
8.0054433012
 30
0.0
 10
11.4520753439
 20
7.9441804689
 30
0.0
 10
11.4074812021
 20
7.8905286329
 30
0.0
 10
11.3535014692
 20
7.8457634785
 30
0.0
 10
11.2910204671
 20
7.8132521834
 30
0.0
 10
11.2216145598
 20
7.7941129819
 30
0.0
 10
11.1643497274
 20
7.7895805085
 30
0.0
 10
11.1306514604
 20
7.7905568581
 30
0.0
 10
11.1220359537
 20
7.791073907
 30
0.0
  0
SPLINE
  5
7A1
100
AcDbEntity
  8
0
100
AcDbSpline
 62
7
  6
CONTINUOUS
 70
0
 71
3
 72
14
 73
10
 74
0
 42
0.0000001
 43
0.0000001
 44
0.0000000001
 40
0.0
 40
0.0
 40
0.0
 40
0.0
 40
0.1531755028
 40
0.3079996746
 40
0.4958433067
 40
0.5877948367
 40
0.6835810267
 40
0.8209533056
 40
1.0
 40
1.0
 40
1.0
 40
1.0
 10
9.6851735576
 20
9.1277489208
 30
0.0
 10
9.711370404
 20
9.1458048898
 30
0.0
 10
9.7698948563
 20
9.1746669072
 30
0.0
 10
9.8730942052
 20
9.1891215231
 30
0.0
 10
9.964811863
 20
9.173113641
 30
0.0
 10
10.032966027
 20
9.1342256757
 30
0.0
 10
10.0851645833
 20
9.0903026923
 30
0.0
 10
10.1292623465
 20
9.0149766208
 30
0.0
 10
10.1474584845
 20
8.9514758678
 30
0.0
 10
10.155717036
 20
8.9152140813
 30
0.0
  0
SPLINE
  5
7A2
100
AcDbEntity
  8
0
100
AcDbSpline
 62
7
  6
CONTINUOUS
 70
0
 71
3
 72
24
 73
20
 74
0
 42
0.0000001
 43
0.0000001
 44
0.0000000001
 40
0.0
 40
0.0
 40
0.0
 40
0.0
 40
0.0825102292
 40
0.1581571843
 40
0.2339552416
 40
0.2740306701
 40
0.317156928
 40
0.3747321163
 40
0.4284382917
 40
0.4810807048
 40
0.5356289722
 40
0.603752398
 40
0.6812180962
 40
0.7708254026
 40
0.8207991687
 40
0.8744300317
 40
0.9223115912
 40
0.9668146944
 40
1.0
 40
1.0
 40
1.0
 40
1.0
 10
10.3621240731
 20
8.935854785
 30
0.0
 10
10.3543025323
 20
8.9966947012
 30
0.0
 10
10.3237978624
 20
9.1130573979
 30
0.0
 10
10.2159060779
 20
9.2553166004
 30
0.0
 10
10.0886095942
 20
9.3276193058
 30
0.0
 10
9.9730506489
 20
9.3548237588
 30
0.0
 10
9.8682677116
 20
9.3618279735
 30
0.0
 10
9.7531744726
 20
9.3517876618
 30
0.0
 10
9.6358682793
 20
9.3148128591
 30
0.0
 10
9.5329054843
 20
9.2516781762
 30
0.0
 10
9.4398694444
 20
9.1587850898
 30
0.0
 10
9.3623187141
 20
9.0300231723
 30
0.0
 10
9.306723989
 20
8.8631714625
 30
0.0
 10
9.2806048785
 20
8.7034162796
 30
0.0
 10
9.2698823707
 20
8.5601334306
 30
0.0
 10
9.2673271905
 20
8.447494052
 30
0.0
 10
9.2696907059
 20
8.3389234457
 30
0.0
 10
9.2767843389
 20
8.2458042396
 30
0.0
 10
9.2843984452
 20
8.1884864086
 30
0.0
 10
9.2883624782
 20
8.1641175113
 30
0.0
  0
SPLINE
  5
7A3
100
AcDbEntity
  8
0
100
AcDbSpline
 62
7
  6
CONTINUOUS
 70
0
 71
3
 72
11
 73
7
 74
0
 42
0.0000001
 43
0.0000001
 44
0.0000000001
 40
0.0
 40
0.0
 40
0.0
 40
0.0
 40
0.3426107936
 40
0.6044566108
 40
0.8143265955
 40
1.0
 40
1.0
 40
1.0
 40
1.0
 10
9.4745738135
 20
8.5241695165
 30
0.0
 10
9.4752418982
 20
8.5996142435
 30
0.0
 10
9.4818866127
 20
8.7329651176
 30
0.0
 10
9.52347881
 20
8.9091126313
 30
0.0
 10
9.5926184697
 20
9.0379053275
 30
0.0
 10
9.6527255702
 20
9.1028702807
 30
0.0
 10
9.6851735576
 20
9.1277489208
 30
0.0
  0
SPLINE
  5
7A4
100
AcDbEntity
  8
0
100
AcDbSpline
 62
7
  6
CONTINUOUS
 70
0
 71
3
 72
17
 73
13
 74
0
 42
0.0000001
 43
0.0000001
 44
0.0000000001
 40
0.0
 40
0.0
 40
0.0
 40
0.0
 40
0.0844580526
 40
0.1939587312
 40
0.3316668575
 40
0.4116386184
 40
0.4991820578
 40
0.5872976204
 40
0.6677250704
 40
0.8060064882
 40
0.915671004
 40
1.0
 40
1.0
 40
1.0
 40
1.0
 10
8.7657753236
 20
9.0453472852
 30
0.0
 10
8.7847398884
 20
9.0191121953
 30
0.0
 10
8.8163200313
 20
8.9505106476
 30
0.0
 10
8.8454125019
 20
8.8264757511
 30
0.0
 10
8.8590038498
 20
8.7015402468
 30
0.0
 10
8.8647710674
 20
8.5846909838
 30
0.0
 10
8.8661472824
 20
8.4867003187
 30
0.0
 10
8.8647604903
 20
8.3885345514
 30
0.0
 10
8.8589238309
 20
8.2710747393
 30
0.0
 10
8.8451767772
 20
8.1456881696
 30
0.0
 10
8.8157443375
 20
8.0214896213
 30
0.0
 10
8.7837115822
 20
7.9530227905
 30
0.0
 10
8.76448526
 20
7.9270404305
 30
0.0
  0
SPLINE
  5
7A5
100
AcDbEntity
  8
0
100
AcDbSpline
 62
7
  6
CONTINUOUS
 70
0
 71
3
 72
13
 73
9
 74
0
 42
0.0000001
 43
0.0000001
 44
0.0000000001
 40
0.0
 40
0.0
 40
0.0
 40
0.0
 40
0.2591153923
 40
0.3783559876
 40
0.5002774492
 40
0.6221918058
 40
0.741366948
 40
1.0
 40
1.0
 40
1.0
 40
1.0
 10
8.76448526
 20
7.9270404305
 30
0.0
 10
8.7342249699
 20
7.886146819
 30
0.0
 10
8.6787427903
 20
7.8319694723
 30
0.0
 10
8.5863068246
 20
7.7956904077
 30
0.0
 10
8.5147820366
 20
7.7875736757
 30
0.0
 10
8.4432733151
 20
7.7956682525
 30
0.0
 10
8.350891769
 20
7.8317583155
 30
0.0
 10
8.2953616881
 20
7.8857183986
 30
0.0
 10
8.2650770007
 20
7.9264760276
 30
0.0
  0
SPLINE
  5
7A6
100
AcDbEntity
  8
0
100
AcDbSpline
 62
7
  6
CONTINUOUS
 70
0
 71
3
 72
9
 73
5
 74
0
 42
0.0000001
 43
0.0000001
 44
0.0000000001
 40
0.0
 40
0.0
 40
0.0
 40
0.0
 40
0.3855604367
 40
1.0
 40
1.0
 40
1.0
 40
1.0
 10
8.2650770007
 20
7.9264760276
 30
0.0
 10
8.2210211764
 20
7.9857670783
 30
0.0
 10
8.1717563883
 20
8.1797481145
 30
0.0
 10
8.1638891278
 20
8.3692029896
 30
0.0
 10
8.1638891278
 20
8.486919558
 30
0.0
  0
SPLINE
  5
7A7
100
AcDbEntity
  8
0
100
AcDbSpline
 62
7
  6
CONTINUOUS
 70
0
 71
3
 72
16
 73
12
 74
0
 42
0.0000001
 43
0.0000001
 44
0.0000000001
 40
0.0
 40
0.0
 40
0.0
 40
0.0
 40
0.3032052898
 40
0.5052272749
 40
0.5672959251
 40
0.6254877337
 40
0.6832430076
 40
0.7440761608
 40
0.8073340128
 40
0.8685784542
 40
1.0
 40
1.0
 40
1.0
 40
1.0
 10
8.1638891278
 20
8.486919558
 30
0.0
 10
8.1638891278
 20
8.6050118043
 30
0.0
 10
8.173577726
 20
8.7998955229
 30
0.0
 10
8.2330382063
 20
9.0225379982
 30
0.0
 10
8.3190145866
 20
9.1160089755
 30
0.0
 10
8.3766761983
 20
9.1556131759
 30
0.0
 10
8.4422917566
 20
9.1789363101
 30
0.0
 10
8.5132967914
 20
9.1860781135
 30
0.0
 10
8.5857410043
 20
9.1781952863
 30
0.0
 10
8.6797323226
 20
9.1418003649
 30
0.0
 10
8.7357887421
 20
9.0868299489
 30
0.0
 10
8.7657753236
 20
9.0453472852
 30
0.0
  0
SPLINE
  5
7A8
100
AcDbEntity
  8
0
100
AcDbSpline
 62
7
  6
CONTINUOUS
 70
0
 71
3
 72
16
 73
12
 74
0
 42
0.0000001
 43
0.0000001
 44
0.0000000001
 40
0.0
 40
0.0
 40
0.0
 40
0.0
 40
0.2754465559
 40
0.3950325473
 40
0.4565247543
 40
0.5218606479
 40
0.5875789382
 40
0.6488150883
 40
0.7664059399
 40
0.8813245124
 40
1.0
 40
1.0
 40
1.0
 40
1.0
 10
5.5425197564
 20
8.8842530257
 30
0.0
 10
5.5551820635
 20
8.9658544644
 30
0.0
 10
5.6005859737
 20
9.0893930486
 30
0.0
 10
5.721599062
 20
9.1622446039
 30
0.0
 10
5.7934444823
 20
9.1807323404
 30
0.0
 10
5.8512825529
 20
9.1849930904
 30
0.0
 10
5.9090155791
 20
9.1807389709
 30
0.0
 10
5.9804273347
 20
9.1623664247
 30
0.0
 10
6.0570363275
 20
9.1139103819
 30
0.0
 10
6.1190937511
 20
9.0250798937
 30
0.0
 10
6.1307798122
 20
8.9536952648
 30
0.0
 10
6.1307798122
 20
8.9181167245
 30
0.0
  0
SPLINE
  5
7A9
100
AcDbEntity
  8
0
100
AcDbSpline
 62
7
  6
CONTINUOUS
 70
0
 71
3
 72
11
 73
7
 74
0
 42
0.0000001
 43
0.0000001
 44
0.0000000001
 40
0.0
 40
0.0
 40
0.0
 40
0.0
 40
0.2589066357
 40
0.4973886641
 40
0.7458566114
 40
1.0
 40
1.0
 40
1.0
 40
1.0
 10
6.1307798122
 20
8.9181167245
 30
0.0
 10
6.1307798122
 20
8.8752081413
 30
0.0
 10
6.1175311195
 20
8.789261736
 30
0.0
 10
6.0281951673
 20
8.6957082752
 30
0.0
 10
5.9141005909
 20
8.6456887693
 30
0.0
 10
5.8303924335
 20
8.6341458693
 30
0.0
 10
5.788273263
 20
8.6341458693
 30
0.0
  0
SPLINE
  5
7AA
100
AcDbEntity
  8
0
100
AcDbSpline
 62
7
  6
CONTINUOUS
 70
0
 71
3
 72
8
 73
4
 74
0
 42
0.0000001
 43
0.0000001
 44
0.0000000001
 40
0.0
 40
0.0
 40
0.0
 40
0.0
 40
1.0
 40
1.0
 40
1.0
 40
1.0
 10
5.788273263
 20
8.6341458693
 30
0.0
 10
5.7769029906
 20
8.6341458693
 30
0.0
 10
5.7655469548
 20
8.6352903617
 30
0.0
 10
5.7542483062
 20
8.6365645812
 30
0.0
  0
SPLINE
  5
7AB
100
AcDbEntity
  8
0
100
AcDbSpline
 62
7
  6
CONTINUOUS
 70
0
 71
3
 72
9
 73
5
 74
0
 42
0.0000001
 43
0.0000001
 44
0.0000000001
 40
0.0
 40
0.0
 40
0.0
 40
0.0
 40
0.290916541
 40
1.0
 40
1.0
 40
1.0
 40
1.0
 10
5.7303824433
 20
8.4507982478
 30
0.0
 10
5.7447904107
 20
8.4544899702
 30
0.0
 10
5.7945105111
 20
8.4661597862
 30
0.0
 10
5.8455488328
 20
8.4740190788
 30
0.0
 10
5.8818014615
 20
8.4740190788
 30
0.0
  0
SPLINE
  5
7AC
100
AcDbEntity
  8
0
100
AcDbSpline
 62
7
  6
CONTINUOUS
 70
0
 71
3
 72
21
 73
17
 74
0
 42
0.0000001
 43
0.0000001
 44
0.0000000001
 40
0.0
 40
0.0
 40
0.0
 40
0.0
 40
0.1230757907
 40
0.2391982989
 40
0.3536863931
 40
0.4116637412
 40
0.4732056226
 40
0.5378946217
 40
0.5993303129
 40
0.6599976583
 40
0.7224733697
 40
0.7852047098
 40
0.8467620542
 40
0.9098248093
 40
0.9768921958
 40
1.0
 40
1.0
 40
1.0
 40
1.0
 10
5.8818014615
 20
8.4740190788
 30
0.0
 10
5.9277143653
 20
8.4740190788
 30
0.0
 10
6.0185257341
 20
8.4606712752
 30
0.0
 10
6.1326559069
 20
8.3876224533
 30
0.0
 10
6.1960104946
 20
8.2964771414
 30
0.0
 10
6.2200371135
 20
8.2119218539
 30
0.0
 10
6.2255882557
 20
8.14307432
 30
0.0
 10
6.2197946565
 20
8.0729407598
 30
0.0
 10
6.2005968127
 20
8.0054433012
 30
0.0
 10
6.1680551937
 20
7.9441804689
 30
0.0
 10
6.1234610519
 20
7.8905286329
 30
0.0
 10
6.069481319
 20
7.8457634785
 30
0.0
 10
6.0070003169
 20
7.8132521834
 30
0.0
 10
5.9375944096
 20
7.7941129819
 30
0.0
 10
5.8803295772
 20
7.7895805085
 30
0.0
 10
5.8466313102
 20
7.7905568581
 30
0.0
 10
5.8380158035
 20
7.791073907
 30
0.0
  0
SPLINE
  5
7AD
100
AcDbEntity
  8
0
100
AcDbSpline
 62
7
  6
CONTINUOUS
 70
0
 71
3
 72
23
 73
19
 74
0
 42
0.0000001
 43
0.0000001
 44
0.0000000001
 40
0.0
 40
0.0
 40
0.0
 40
0.0
 40
0.1131442974
 40
0.2224261488
 40
0.278293043
 40
0.3340032058
 40
0.3916539933
 40
0.4531445052
 40
0.5213279899
 40
0.5853433225
 40
0.6475398075
 40
0.7104707811
 40
0.7724610212
 40
0.8317288719
 40
0.8908879957
 40
0.9525658784
 40
0.9979009156
 40
1.0
 40
1.0
 40
1.0
 40
1.0
 10
5.3154720156
 20
8.0895859328
 30
0.0
 10
5.3220166358
 20
8.0239384038
 30
0.0
 10
5.3550082198
 20
7.8948855891
 30
0.0
 10
5.4573147808
 20
7.7632820704
 30
0.0
 10
5.5614642023
 20
7.6865003418
 30
0.0
 10
5.6515082984
 20
7.6445047639
 30
0.0
 10
5.7510112012
 20
7.6197672803
 30
0.0
 10
5.8603868495
 20
7.6120912016
 30
0.0
 10
5.9735140939
 20
7.620656597
 30
0.0
 10
6.0837991587
 20
7.649757889
 30
0.0
 10
6.1833022832
 20
7.6991704128
 30
0.0
 10
6.269417429
 20
7.7672763959
 30
0.0
 10
6.3406716767
 20
7.8484890188
 30
0.0
 10
6.3928943076
 20
7.9407406122
 30
0.0
 10
6.423821969
 20
8.041958962
 30
0.0
 10
6.4323994263
 20
8.1390810493
 30
0.0
 10
6.4282924562
 20
8.202769487
 30
0.0
 10
6.4241993565
 20
8.2301395055
 30
0.0
 10
6.4240136666
 20
8.2313500336
 30
0.0
  0
SPLINE
  5
7AE
100
AcDbEntity
  8
0
100
AcDbSpline
 62
7
  6
CONTINUOUS
 70
0
 71
3
 72
17
 73
13
 74
0
 42
0.0000001
 43
0.0000001
 44
0.0000000001
 40
0.0
 40
0.0
 40
0.0
 40
0.0
 40
0.1590642081
 40
0.3063151579
 40
0.4665910561
 40
0.5503046233
 40
0.6376676072
 40
0.7285367308
 40
0.8219968636
 40
0.8894628744
 40
0.9528542452
 40
1.0
 40
1.0
 40
1.0
 40
1.0
 10
6.1030439158
 20
8.5683535671
 30
0.0
 10
6.1717265121
 20
8.6001634571
 30
0.0
 10
6.2956192319
 20
8.6947114159
 30
0.0
 10
6.358308817
 20
8.9214411103
 30
0.0
 10
6.3033804662
 20
9.1094391268
 30
0.0
 10
6.2032185012
 20
9.2335915741
 30
0.0
 10
6.0985851625
 20
9.3042716252
 30
0.0
 10
5.9762109441
 20
9.3496396426
 30
0.0
 10
5.8559300257
 20
9.362261321
 30
0.0
 10
5.7490684318
 20
9.3545979329
 30
0.0
 10
5.6664134195
 20
9.3345406874
 30
0.0
 10
5.6176474992
 20
9.3136719633
 30
0.0
 10
5.5975933869
 20
9.3032968577
 30
0.0
  0
SPLINE
  5
7AF
100
AcDbEntity
  8
0
100
AcDbSpline
 62
7
  6
CONTINUOUS
 70
0
 71
3
 72
14
 73
10
 74
0
 42
0.0000001
 43
0.0000001
 44
0.0000000001
 40
0.0
 40
0.0
 40
0.0
 40
0.0
 40
0.1531755028
 40
0.3079996746
 40
0.4958433067
 40
0.5877948367
 40
0.6835810267
 40
0.8209533056
 40
1.0
 40
1.0
 40
1.0
 40
1.0
 10
7.0431634825
 20
9.1277489208
 30
0.0
 10
7.0693603289
 20
9.1458048898
 30
0.0
 10
7.1278847812
 20
9.1746669072
 30
0.0
 10
7.2310841301
 20
9.1891215231
 30
0.0
 10
7.3228017879
 20
9.173113641
 30
0.0
 10
7.3909559519
 20
9.1342256757
 30
0.0
 10
7.4431545082
 20
9.0903026923
 30
0.0
 10
7.4872522714
 20
9.0149766208
 30
0.0
 10
7.5054484094
 20
8.9514758678
 30
0.0
 10
7.5137069609
 20
8.9152140813
 30
0.0
  0
SPLINE
  5
7B0
100
AcDbEntity
  8
0
100
AcDbSpline
 62
7
  6
CONTINUOUS
 70
0
 71
3
 72
24
 73
20
 74
0
 42
0.0000001
 43
0.0000001
 44
0.0000000001
 40
0.0
 40
0.0
 40
0.0
 40
0.0
 40
0.0825102292
 40
0.1581571843
 40
0.2339552416
 40
0.2740306701
 40
0.317156928
 40
0.3747321163
 40
0.4284382917
 40
0.4810807048
 40
0.5356289722
 40
0.603752398
 40
0.6812180962
 40
0.7708254026
 40
0.8207991687
 40
0.8744300317
 40
0.9223115912
 40
0.9668146944
 40
1.0
 40
1.0
 40
1.0
 40
1.0
 10
7.720113998
 20
8.935854785
 30
0.0
 10
7.7122924572
 20
8.9966947012
 30
0.0
 10
7.6817877873
 20
9.1130573979
 30
0.0
 10
7.5738960028
 20
9.2553166004
 30
0.0
 10
7.4465995191
 20
9.3276193058
 30
0.0
 10
7.3310405738
 20
9.3548237588
 30
0.0
 10
7.2262576365
 20
9.3618279735
 30
0.0
 10
7.1111643975
 20
9.3517876618
 30
0.0
 10
6.9938582042
 20
9.3148128591
 30
0.0
 10
6.8908954092
 20
9.2516781762
 30
0.0
 10
6.7978593693
 20
9.1587850898
 30
0.0
 10
6.720308639
 20
9.0300231723
 30
0.0
 10
6.6647139139
 20
8.8631714625
 30
0.0
 10
6.6385948034
 20
8.7034162796
 30
0.0
 10
6.6278722956
 20
8.5601334306
 30
0.0
 10
6.6253171154
 20
8.447494052
 30
0.0
 10
6.6276806308
 20
8.3389234457
 30
0.0
 10
6.6347742638
 20
8.2458042396
 30
0.0
 10
6.6423883701
 20
8.1884864086
 30
0.0
 10
6.6463524031
 20
8.1641175113
 30
0.0
  0
SPLINE
  5
7B1
100
AcDbEntity
  8
0
100
AcDbSpline
 62
7
  6
CONTINUOUS
 70
0
 71
3
 72
11
 73
7
 74
0
 42
0.0000001
 43
0.0000001
 44
0.0000000001
 40
0.0
 40
0.0
 40
0.0
 40
0.0
 40
0.3426107936
 40
0.6044566108
 40
0.8143265955
 40
1.0
 40
1.0
 40
1.0
 40
1.0
 10
6.8325637384
 20
8.5241695165
 30
0.0
 10
6.8332318231
 20
8.5996142435
 30
0.0
 10
6.8398765376
 20
8.7329651176
 30
0.0
 10
6.8814687348
 20
8.9091126313
 30
0.0
 10
6.9506083946
 20
9.0379053275
 30
0.0
 10
7.0107154951
 20
9.1028702807
 30
0.0
 10
7.0431634825
 20
9.1277489208
 30
0.0
  0
SPLINE
  5
7B2
100
AcDbEntity
  8
0
100
AcDbSpline
 62
7
  6
CONTINUOUS
 70
0
 71
3
 72
11
 73
7
 74
0
 42
0.0000001
 43
0.0000001
 44
0.0000000001
 40
0.0
 40
0.0
 40
0.0
 40
0.0
 40
0.2023283395
 40
0.445343536
 40
0.7157738534
 40
1.0
 40
1.0
 40
1.0
 40
1.0
 10
2.6642703944
 20
9.3589892111
 30
0.0
 10
2.6442828481
 20
9.3187795993
 30
0.0
 10
2.5874870595
 20
9.2366762515
 30
0.0
 10
2.4749904727
 20
9.123850277
 30
0.0
 10
2.3334838544
 20
9.0164310037
 30
0.0
 10
2.2249247181
 20
8.9573728335
 30
0.0
 10
2.1677646996
 20
8.9306946878
 30
0.0
  0
SPLINE
  5
7B3
100
AcDbEntity
  8
0
100
AcDbSpline
 62
7
  6
CONTINUOUS
 70
0
 71
3
 72
11
 73
7
 74
0
 42
0.0000001
 43
0.0000001
 44
0.0000000001
 40
0.0
 40
0.0
 40
0.0
 40
0.0
 40
0.2308286057
 40
0.5005232368
 40
0.769747873
 40
1.0
 40
1.0
 40
1.0
 40
1.0
 10
2.1677646996
 20
8.7281578417
 30
0.0
 10
2.2035449118
 20
8.7412538268
 30
0.0
 10
2.2793187744
 20
8.7746027733
 30
0.0
 10
2.3911324486
 20
8.8351160531
 30
0.0
 10
2.4986331941
 20
8.9029233999
 30
0.0
 10
2.5632485845
 20
8.9546083261
 30
0.0
 10
2.5908991257
 20
8.9806838675
 30
0.0
  0
SPLINE
  5
7B4
100
AcDbEntity
  8
0
100
AcDbSpline
 62
7
  6
CONTINUOUS
 70
0
 71
3
 72
8
 73
4
 74
0
 42
0.0000001
 43
0.0000001
 44
0.0000000001
 40
0.0
 40
0.0
 40
0.0
 40
0.0
 40
1.0
 40
1.0
 40
1.0
 40
1.0
 10
-0.6864575417
 20
9.152582174
 30
0.0
 10
-0.7486450277
 20
9.0874221265
 30
0.0
 10
-0.8072661132
 20
9.0188142765
 30
0.0
 10
-0.8636773608
 20
8.9485940062
 30
0.0
  0
SPLINE
  5
7B5
100
AcDbEntity
  8
0
100
AcDbSpline
 62
7
  6
CONTINUOUS
 70
0
 71
3
 72
9
 73
5
 74
0
 42
0.0000001
 43
0.0000001
 44
0.0000000001
 40
0.0
 40
0.0
 40
0.0
 40
0.0
 40
0.0986341094
 40
1.0
 40
1.0
 40
1.0
 40
1.0
 10
-1.4761256379
 20
7.8418974883
 30
0.0
 10
-1.4415094544
 20
7.8850064859
 30
0.0
 10
-1.0905764029
 20
8.3220842577
 30
0.0
 10
-0.7391881066
 20
8.7587962764
 30
0.0
 10
-0.4226436162
 20
9.152582174
 30
0.0
  0
SPLINE
  5
7B6
100
AcDbEntity
  8
0
100
AcDbSpline
 62
7
  6
CONTINUOUS
 70
0
 71
3
 72
12
 73
8
 74
0
 42
0.0000001
 43
0.0000001
 44
0.0000000001
 40
0.0
 40
0.0
 40
0.0
 40
0.0
 40
0.1914546415
 40
0.4289323167
 40
0.5716992375
 40
0.7144661583
 40
1.0
 40
1.0
 40
1.0
 40
1.0
 10
0.4391058425
 20
9.1732228777
 30
0.0
 10
0.4548583172
 20
9.1193103566
 30
0.0
 10
0.4937884834
 20
8.9996212311
 30
0.0
 10
0.5486945542
 20
8.841090938
 30
0.0
 10
0.6057457839
 20
8.6986368172
 30
0.0
 10
0.666567301
 20
8.5425378505
 30
0.0
 10
0.7125145902
 20
8.4255886473
 30
0.0
 10
0.7430725271
 20
8.3475947292
 30
0.0
  0
SPLINE
  5
7B7
100
AcDbEntity
  8
0
100
AcDbSpline
 62
7
  6
CONTINUOUS
 70
0
 71
3
 72
17
 73
13
 74
0
 42
0.0000001
 43
0.0000001
 44
0.0000000001
 40
0.0
 40
0.0
 40
0.0
 40
0.0
 40
0.188120604
 40
0.2735438531
 40
0.3176588673
 40
0.3643730824
 40
0.5178315861
 40
0.5961564737
 40
0.6791493087
 40
0.7717453768
 40
0.8754137835
 40
1.0
 40
1.0
 40
1.0
 40
1.0
 10
-5.3867328589
 20
8.2434238204
 30
0.0
 10
-5.4128832855
 20
8.1230773007
 30
0.0
 10
-5.4970902412
 20
7.9441136674
 30
0.0
 10
-5.6845920842
 20
7.8419185673
 30
0.0
 10
-5.7972891371
 20
7.8151256519
 30
0.0
 10
-5.9570404441
 20
7.8034005955
 30
0.0
 10
-6.1441651728
 20
7.8516625498
 30
0.0
 10
-6.3041296147
 20
7.9874957954
 30
0.0
 10
-6.3849805882
 20
8.1361890962
 30
0.0
 10
-6.4302667339
 20
8.3145018386
 30
0.0
 10
-6.4458234932
 20
8.5244825085
 30
0.0
 10
-6.430709881
 20
8.6753911733
 30
0.0
 10
-6.4112795831
 20
8.7549001895
 30
0.0
  0
SPLINE
  5
7B8
100
AcDbEntity
  8
0
100
AcDbSpline
 62
7
  6
CONTINUOUS
 70
0
 71
3
 72
9
 73
5
 74
0
 42
0.0000001
 43
0.0000001
 44
0.0000000001
 40
0.0
 40
0.0
 40
0.0
 40
0.0
 40
0.4786249203
 40
1.0
 40
1.0
 40
1.0
 40
1.0
 10
-5.8785620729
 20
9.1835432295
 30
0.0
 10
-5.780895044
 20
9.1835432295
 30
0.0
 10
-5.5618253266
 20
9.1301830499
 30
0.0
 10
-5.4600390977
 20
8.9302373972
 30
0.0
 10
-5.4280142663
 20
8.8287812329
 30
0.0
  0
SPLINE
  5
7B9
100
AcDbEntity
  8
0
100
AcDbSpline
 62
7
  6
CONTINUOUS
 70
0
 71
3
 72
24
 73
20
 74
0
 42
0.0000001
 43
0.0000001
 44
0.0000000001
 40
0.0
 40
0.0
 40
0.0
 40
0.0
 40
0.1687487347
 40
0.2518691597
 40
0.2957520897
 40
0.3425908566
 40
0.3846805941
 40
0.4255807727
 40
0.4659466652
 40
0.5064594779
 40
0.5863058399
 40
0.6680835282
 40
0.7557269759
 40
0.8025545509
 40
0.8521511709
 40
0.898353344
 40
0.9434652361
 40
0.9879339646
 40
1.0
 40
1.0
 40
1.0
 40
1.0
 10
-5.2009665255
 20
8.881028024
 30
0.0
 10
-5.2414125337
 20
9.0219182769
 30
0.0
 10
-5.3655592611
 20
9.2267289099
 30
0.0
 10
-5.6007924575
 20
9.3429500075
 30
0.0
 10
-5.7489217711
 20
9.3747266349
 30
0.0
 10
-5.8644536344
 20
9.3819217128
 30
0.0
 10
-5.9772826779
 20
9.375540414
 30
0.0
 10
-6.0829852038
 20
9.3562314241
 30
0.0
 10
-6.183962724
 20
9.3236899247
 30
0.0
 10
-6.3106243478
 20
9.2643025121
 30
0.0
 10
-6.4528548073
 20
9.1562840264
 30
0.0
 10
-6.5769597446
 20
8.9749505949
 30
0.0
 10
-6.6383430881
 20
8.7951912869
 30
0.0
 10
-6.6625938546
 20
8.6368988053
 30
0.0
 10
-6.6683608431
 20
8.5129217483
 30
0.0
 10
-6.6628544948
 20
8.3904798526
 30
0.0
 10
-6.6459940395
 20
8.2735407134
 30
0.0
 10
-6.624454384
 20
8.1877459202
 30
0.0
 10
-6.6095062063
 20
8.1409576848
 30
0.0
 10
-6.6061740523
 20
8.1310191989
 30
0.0
  0
SPLINE
  5
7BA
100
AcDbEntity
  8
0
100
AcDbSpline
 62
7
  6
CONTINUOUS
 70
0
 71
3
 72
11
 73
7
 74
0
 42
0.0000001
 43
0.0000001
 44
0.0000000001
 40
0.0
 40
0.0
 40
0.0
 40
0.0
 40
0.2525992429
 40
0.4888102636
 40
0.730558892
 40
1.0
 40
1.0
 40
1.0
 40
1.0
 10
-5.8653390778
 20
7.6148497474
 30
0.0
 10
-5.7825242053
 20
7.6148497474
 30
0.0
 10
-5.6204065228
 20
7.6358169697
 30
0.0
 10
-5.4040497217
 20
7.7507394525
 30
0.0
 10
-5.2414935176
 20
7.9413080455
 30
0.0
 10
-5.1814708218
 20
8.1008926111
 30
0.0
 10
-5.1596851181
 20
8.1865005485
 30
0.0
  0
SPLINE
  5
7BB
100
AcDbEntity
  8
0
100
AcDbSpline
 62
7
  6
CONTINUOUS
 70
0
 71
3
 72
8
 73
4
 74
0
 42
0.0000001
 43
0.0000001
 44
0.0000000001
 40
0.0
 40
0.0
 40
0.0
 40
0.0
 40
1.0
 40
1.0
 40
1.0
 40
1.0
 10
-8.2196693646
 20
7.8367373911
 30
0.0
 10
-8.2456544887
 20
7.9305399463
 30
0.0
 10
-8.276021489
 20
8.0231654239
 30
0.0
 10
-8.3090048562
 20
8.1147418594
 30
0.0
  0
SPLINE
  5
7BC
100
AcDbEntity
  8
0
100
AcDbSpline
 62
7
  6
CONTINUOUS
 70
0
 71
3
 72
12
 73
8
 74
0
 42
0.0000001
 43
0.0000001
 44
0.0000000001
 40
0.0
 40
0.0
 40
0.0
 40
0.0
 40
0.1914546415
 40
0.4289323167
 40
0.5716992375
 40
0.7144661583
 40
1.0
 40
1.0
 40
1.0
 40
1.0
 10
-13.3901656444
 20
9.1732228777
 30
0.0
 10
-13.3744131696
 20
9.1193103566
 30
0.0
 10
-13.3354830034
 20
8.9996212311
 30
0.0
 10
-13.2805769327
 20
8.841090938
 30
0.0
 10
-13.223525703
 20
8.6986368172
 30
0.0
 10
-13.1627041858
 20
8.5425378505
 30
0.0
 10
-13.1167568967
 20
8.4255886473
 30
0.0
 10
-13.0861989598
 20
8.3475947292
 30
0.0
  0
SPLINE
  5
7BD
100
AcDbEntity
  8
0
100
AcDbSpline
 62
7
  6
CONTINUOUS
 70
0
 71
3
 72
8
 73
4
 74
0
 42
0.0000001
 43
0.0000001
 44
0.0000000001
 40
0.0
 40
0.0
 40
0.0
 40
0.0
 40
1.0
 40
1.0
 40
1.0
 40
1.0
 10
-15.5987209416
 20
7.8367373911
 30
0.0
 10
-15.6247060657
 20
7.9305399463
 30
0.0
 10
-15.6550730659
 20
8.0231654239
 30
0.0
 10
-15.6880564332
 20
8.1147418594
 30
0.0
  0
SPLINE
  5
7BE
100
AcDbEntity
  8
0
100
AcDbSpline
 62
7
  6
CONTINUOUS
 70
0
 71
3
 72
12
 73
8
 74
0
 42
0.0000001
 43
0.0000001
 44
0.0000000001
 40
0.0
 40
0.0
 40
0.0
 40
0.0
 40
0.1914546415
 40
0.4289323167
 40
0.5716992375
 40
0.7144661583
 40
1.0
 40
1.0
 40
1.0
 40
1.0
 10
-17.8691983498
 20
9.1732228777
 30
0.0
 10
-17.8534458751
 20
9.1193103566
 30
0.0
 10
-17.8145157089
 20
8.9996212311
 30
0.0
 10
-17.7596096381
 20
8.841090938
 30
0.0
 10
-17.7025584085
 20
8.6986368172
 30
0.0
 10
-17.6417368913
 20
8.5425378505
 30
0.0
 10
-17.5957896021
 20
8.4255886473
 30
0.0
 10
-17.5652316652
 20
8.3475947292
 30
0.0
  0
SPLINE
  5
7BF
100
AcDbEntity
  8
0
100
AcDbSpline
 62
7
  6
CONTINUOUS
 70
0
 71
3
 72
9
 73
5
 74
0
 42
0.0000001
 43
0.0000001
 44
0.0000000001
 40
0.0
 40
0.0
 40
0.0
 40
0.0
 40
0.8336714283
 40
1.0
 40
1.0
 40
1.0
 40
1.0
 10
-19.3722607878
 20
9.152582174
 30
0.0
 10
-19.3154680274
 20
9.152582174
 30
0.0
 10
-19.2469633194
 20
9.1522784764
 30
0.0
 10
-19.1796798818
 20
9.1404353882
 30
0.0
 10
-19.1687563939
 20
9.1374242408
 30
0.0
  0
SPLINE
  5
7C0
100
AcDbEntity
  8
0
100
AcDbSpline
 62
7
  6
CONTINUOUS
 70
0
 71
3
 72
15
 73
11
 74
0
 42
0.0000001
 43
0.0000001
 44
0.0000000001
 40
0.0
 40
0.0
 40
0.0
 40
0.0
 40
0.1831476441
 40
0.2825427925
 40
0.39002016
 40
0.4650484773
 40
0.5333382897
 40
0.6605327543
 40
0.8046292292
 40
1.0
 40
1.0
 40
1.0
 40
1.0
 10
-19.1687563939
 20
9.1374242408
 30
0.0
 10
-19.1140894244
 20
9.1218492837
 30
0.0
 10
-19.0368103691
 20
9.0637675912
 30
0.0
 10
-18.9861832464
 20
8.952090566
 30
0.0
 10
-18.9760696569
 20
8.863961992
 30
0.0
 10
-18.9818548738
 20
8.7860304339
 30
0.0
 10
-19.0031031486
 20
8.7044744032
 30
0.0
 10
-19.0635535387
 20
8.6121126959
 30
0.0
 10
-19.2009591546
 20
8.5503325222
 30
0.0
 10
-19.3071097212
 20
8.5436814145
 30
0.0
 10
-19.3677457224
 20
8.5436814145
 30
0.0
  0
SPLINE
  5
7C1
100
AcDbEntity
  8
0
100
AcDbSpline
 62
7
  6
CONTINUOUS
 70
0
 71
3
 72
9
 73
5
 74
0
 42
0.0000001
 43
0.0000001
 44
0.0000000001
 40
0.0
 40
0.0
 40
0.0
 40
0.0
 40
0.1935112737
 40
1.0
 40
1.0
 40
1.0
 40
1.0
 10
-19.1406979816
 20
9.3325433783
 30
0.0
 10
-19.1567922658
 20
9.3355127936
 30
0.0
 10
-19.240656336
 20
9.3470235113
 30
0.0
 10
-19.3255002214
 20
9.3486688592
 30
0.0
 10
-19.3937077813
 20
9.3486688592
 30
0.0
  0
SPLINE
  5
7C2
100
AcDbEntity
  8
0
100
AcDbSpline
 62
7
  6
CONTINUOUS
 70
0
 71
3
 72
9
 73
5
 74
0
 42
0.0000001
 43
0.0000001
 44
0.0000000001
 40
0.0
 40
0.0
 40
0.0
 40
0.0
 40
0.3152731366
 40
1.0
 40
1.0
 40
1.0
 40
1.0
 10
-19.3701645918
 20
8.3475947292
 30
0.0
 10
-19.3161806605
 20
8.3475947292
 30
0.0
 10
-19.1477874665
 20
8.3549253591
 30
0.0
 10
-18.9641000997
 20
8.409442532
 30
0.0
 10
-18.8856724574
 20
8.496594878
 30
0.0
  0
SPLINE
  5
7C3
100
AcDbEntity
  8
0
100
AcDbSpline
 62
7
  6
CONTINUOUS
 70
0
 71
3
 72
15
 73
11
 74
0
 42
0.0000001
 43
0.0000001
 44
0.0000000001
 40
0.0
 40
0.0
 40
0.0
 40
0.0
 40
0.1818234323
 40
0.2742230203
 40
0.3716340726
 40
0.4851660516
 40
0.5943000072
 40
0.6975375539
 40
0.7935178969
 40
1.0
 40
1.0
 40
1.0
 40
1.0
 10
-18.8856724574
 20
8.496594878
 30
0.0
 10
-18.8424865408
 20
8.5445850233
 30
0.0
 10
-18.7898841435
 20
8.6302085613
 30
0.0
 10
-18.7567555782
 20
8.7585578522
 30
0.0
 10
-18.7483714566
 20
8.8664072316
 30
0.0
 10
-18.7592452288
 20
8.9804495163
 30
0.0
 10
-18.7974089968
 20
9.0907675861
 30
0.0
 10
-18.8553013857
 20
9.1849095533
 30
0.0
 10
-18.9614508314
 20
9.284972416
 30
0.0
 10
-19.0683999172
 20
9.3203668603
 30
0.0
 10
-19.1406979816
 20
9.3325433783
 30
0.0
  0
SPLINE
  5
7C4
100
AcDbEntity
  8
0
100
AcDbSpline
 62
7
  6
CONTINUOUS
 70
0
 71
3
 72
16
 73
12
 74
0
 42
0.0000001
 43
0.0000001
 44
0.0000000001
 40
0.0
 40
0.0
 40
0.0
 40
0.0
 40
0.1559909888
 40
0.2192678892
 40
0.2859020836
 40
0.4220584258
 40
0.5795857181
 40
0.674079367
 40
0.7781612252
 40
0.8965933076
 40
1.0
 40
1.0
 40
1.0
 40
1.0
 10
-20.7550266785
 20
8.3454985332
 30
0.0
 10
-20.7001658458
 20
8.3238093707
 30
0.0
 10
-20.6210010873
 20
8.2800912054
 30
0.0
 10
-20.5743696999
 20
8.1797769395
 30
0.0
 10
-20.5606178
 20
8.0791350731
 30
0.0
 10
-20.6038602008
 20
7.9394767442
 30
0.0
 10
-20.7330882686
 20
7.8519993828
 30
0.0
 10
-20.8632531178
 20
7.8166238361
 30
0.0
 10
-20.9834882731
 20
7.8075266719
 30
0.0
 10
-21.107088124
 20
7.8182435629
 30
0.0
 10
-21.1877014629
 20
7.8435708033
 30
0.0
 10
-21.2236705769
 20
7.85923676
 30
0.0
  0
SPLINE
  5
7C5
100
AcDbEntity
  8
0
100
AcDbSpline
 62
7
  6
CONTINUOUS
 70
0
 71
3
 72
12
 73
8
 74
0
 42
0.0000001
 43
0.0000001
 44
0.0000000001
 40
0.0
 40
0.0
 40
0.0
 40
0.0
 40
0.1606441131
 40
0.3160528741
 40
0.4695579901
 40
0.6257786262
 40
1.0
 40
1.0
 40
1.0
 40
1.0
 10
-21.6825684393
 20
8.2031098032
 30
0.0
 10
-21.6810734463
 20
8.1473835041
 30
0.0
 10
-21.6650974644
 20
8.0373371363
 30
0.0
 10
-21.596835606
 20
7.887118432
 30
0.0
 10
-21.4902421059
 20
7.7626311268
 30
0.0
 10
-21.2846808418
 20
7.6370982565
 30
0.0
 10
-21.0938752793
 20
7.6148497474
 30
0.0
 10
-20.9640138429
 20
7.6148497474
 30
0.0
  0
SPLINE
  5
7C6
100
AcDbEntity
  8
0
100
AcDbSpline
 62
7
  6
CONTINUOUS
 70
0
 71
3
 72
14
 73
10
 74
0
 42
0.0000001
 43
0.0000001
 44
0.0000000001
 40
0.0
 40
0.0
 40
0.0
 40
0.0
 40
0.2324140172
 40
0.3379986706
 40
0.4377481205
 40
0.6253413849
 40
0.7167588502
 40
0.8043408137
 40
1.0
 40
1.0
 40
1.0
 40
1.0
 10
-20.9640138429
 20
7.6148497474
 30
0.0
 10
-20.8534887221
 20
7.6148497474
 30
0.0
 10
-20.6887054941
 20
7.6443574855
 30
0.0
 10
-20.5091818471
 20
7.7545043752
 30
0.0
 10
-20.383964648
 20
7.8963786987
 30
0.0
 10
-20.328493754
 20
8.0795914897
 30
0.0
 10
-20.3518685204
 20
8.2543321565
 30
0.0
 10
-20.4273305458
 20
8.4191890662
 30
0.0
 10
-20.5453463058
 20
8.5023834239
 30
0.0
 10
-20.6297312921
 20
8.5415852185
 30
0.0
  0
SPLINE
  5
7C7
100
AcDbEntity
  8
0
100
AcDbSpline
 62
7
  6
CONTINUOUS
 70
0
 71
3
 72
9
 73
5
 74
0
 42
0.0000001
 43
0.0000001
 44
0.0000000001
 40
0.0
 40
0.0
 40
0.0
 40
0.0
 40
0.1708537376
 40
1.0
 40
1.0
 40
1.0
 40
1.0
 10
-20.6297312921
 20
8.5415852185
 30
0.0
 10
-20.6496729531
 20
8.5507013932
 30
0.0
 10
-20.7698450829
 20
8.5962728281
 30
0.0
 10
-20.8950091756
 20
8.6264425528
 30
0.0
 10
-20.9986032026
 20
8.650755124
 30
0.0
  0
SPLINE
  5
7C8
100
AcDbEntity
  8
0
100
AcDbSpline
 62
7
  6
CONTINUOUS
 70
0
 71
3
 72
9
 73
5
 74
0
 42
0.0000001
 43
0.0000001
 44
0.0000000001
 40
0.0
 40
0.0
 40
0.0
 40
0.0
 40
0.6350560901
 40
1.0
 40
1.0
 40
1.0
 40
1.0
 10
-20.9986032026
 20
8.650755124
 30
0.0
 10
-21.0716116246
 20
8.6678895333
 30
0.0
 10
-21.1838740187
 20
8.698739995
 30
0.0
 10
-21.2977965229
 20
8.7436862581
 30
0.0
 10
-21.3290963489
 20
8.7733092826
 30
0.0
  0
SPLINE
  5
7C9
100
AcDbEntity
  8
0
100
AcDbSpline
 62
7
  6
CONTINUOUS
 70
0
 71
3
 72
13
 73
9
 74
0
 42
0.0000001
 43
0.0000001
 44
0.0000000001
 40
0.0
 40
0.0
 40
0.0
 40
0.0
 40
0.1223010007
 40
0.2481832321
 40
0.3968182834
 40
0.5546662969
 40
0.7464665216
 40
1.0
 40
1.0
 40
1.0
 40
1.0
 10
-21.3290963489
 20
8.7733092826
 30
0.0
 10
-21.3494935991
 20
8.7922277105
 30
0.0
 10
-21.3839271966
 20
8.8396481623
 30
0.0
 10
-21.3997586657
 20
8.930973324
 30
0.0
 10
-21.3776674653
 20
9.0301706668
 30
0.0
 10
-21.3019078804
 20
9.1202173257
 30
0.0
 10
-21.1727899023
 20
9.1770177666
 30
0.0
 10
-21.0703847028
 20
9.1835432295
 30
0.0
 10
-21.012712959
 20
9.1835432295
 30
0.0
  0
SPLINE
  5
7CA
100
AcDbEntity
  8
0
100
AcDbSpline
 62
7
  6
CONTINUOUS
 70
0
 71
3
 72
9
 73
5
 74
0
 42
0.0000001
 43
0.0000001
 44
0.0000000001
 40
0.0
 40
0.0
 40
0.0
 40
0.0
 40
0.5306823676
 40
1.0
 40
1.0
 40
1.0
 40
1.0
 10
-21.012712959
 20
9.1835432295
 30
0.0
 10
-20.9127664813
 20
9.1835432295
 30
0.0
 10
-20.7000581645
 20
9.1523846719
 30
0.0
 10
-20.6186587107
 20
8.9514996344
 30
0.0
 10
-20.6092518463
 20
8.863612322
 30
0.0
  0
SPLINE
  5
7CB
100
AcDbEntity
  8
0
100
AcDbSpline
 62
7
  6
CONTINUOUS
 70
0
 71
3
 72
19
 73
15
 74
0
 42
0.0000001
 43
0.0000001
 44
0.0000000001
 40
0.0
 40
0.0
 40
0.0
 40
0.0
 40
0.1543381976
 40
0.2316852979
 40
0.3135124509
 40
0.4030904341
 40
0.4511122273
 40
0.5018427828
 40
0.592716338
 40
0.6780805119
 40
0.7570416494
 40
0.8309061667
 40
0.9705334111
 40
1.0
 40
1.0
 40
1.0
 40
1.0
 10
-20.3822041055
 20
8.8739326739
 30
0.0
 10
-20.385831059
 20
8.9670256293
 30
0.0
 10
-20.4279224032
 20
9.1101588644
 30
0.0
 10
-20.5575292377
 20
9.2517797361
 30
0.0
 10
-20.6900969241
 20
9.3266783733
 30
0.0
 10
-20.8186010881
 20
9.3627135353
 30
0.0
 10
-20.9314762673
 20
9.3772807373
 30
0.0
 10
-21.0459476784
 20
9.3819537317
 30
0.0
 10
-21.1833216951
 20
9.3708805883
 30
0.0
 10
-21.3323540934
 20
9.3281740448
 30
0.0
 10
-21.4598549516
 20
9.2573409755
 30
0.0
 10
-21.5803693613
 20
9.1248609964
 30
0.0
 10
-21.6257962499
 20
8.9752028567
 30
0.0
 10
-21.6196513967
 20
8.8726508093
 30
0.0
 10
-21.617406818
 20
8.8549563429
 30
0.0
  0
SPLINE
  5
7CC
100
AcDbEntity
  8
0
100
AcDbSpline
 62
7
  6
CONTINUOUS
 70
0
 71
3
 72
9
 73
5
 74
0
 42
0.0000001
 43
0.0000001
 44
0.0000000001
 40
0.0
 40
0.0
 40
0.0
 40
0.0
 40
0.1806469784
 40
1.0
 40
1.0
 40
1.0
 40
1.0
 10
-21.3742477898
 20
8.5362637059
 30
0.0
 10
-21.3560057633
 20
8.5267287911
 30
0.0
 10
-21.251378157
 20
8.4810762435
 30
0.0
 10
-21.1406372181
 20
8.4518310798
 30
0.0
 10
-21.0500437039
 20
8.429270704
 30
0.0
  0
SPLINE
  5
7CD
100
AcDbEntity
  8
0
100
AcDbSpline
 62
7
  6
CONTINUOUS
 70
0
 71
3
 72
9
 73
5
 74
0
 42
0.0000001
 43
0.0000001
 44
0.0000000001
 40
0.0
 40
0.0
 40
0.0
 40
0.0
 40
0.3500357027
 40
1.0
 40
1.0
 40
1.0
 40
1.0
 10
-21.0500437039
 20
8.429270704
 30
0.0
 10
-21.0153144417
 20
8.4206221246
 30
0.0
 10
-20.9164941245
 20
8.3948108102
 30
0.0
 10
-20.8166579789
 20
8.3703593841
 30
0.0
 10
-20.7550266785
 20
8.3454985332
 30
0.0
  0
SPLINE
  5
7CE
100
AcDbEntity
  8
0
100
AcDbSpline
 62
7
  6
CONTINUOUS
 70
0
 71
3
 72
14
 73
10
 74
0
 42
0.0000001
 43
0.0000001
 44
0.0000000001
 40
0.0
 40
0.0
 40
0.0
 40
0.0
 40
0.2665979089
 40
0.368288704
 40
0.4714152591
 40
0.6179308633
 40
0.694077139
 40
0.7749435498
 40
1.0
 40
1.0
 40
1.0
 40
1.0
 10
-23.2128829998
 20
9.152582174
 30
0.0
 10
-23.1171922238
 20
9.152582174
 30
0.0
 10
-22.968302368
 20
9.131728003
 30
0.0
 10
-22.8624730419
 20
8.9906953518
 30
0.0
 10
-22.8383187554
 20
8.8635678021
 30
0.0
 10
-22.8730192682
 20
8.7443456955
 30
0.0
 10
-22.9483141763
 20
8.6628714223
 30
0.0
 10
-23.0728188715
 20
8.5999479128
 30
0.0
 10
-23.186284709
 20
8.5952831737
 30
0.0
 10
-23.2670648864
 20
8.5952831737
 30
0.0
  0
SPLINE
  5
7CF
100
AcDbEntity
  8
0
100
AcDbSpline
 62
7
  6
CONTINUOUS
 70
0
 71
3
 72
12
 73
8
 74
0
 42
0.0000001
 43
0.0000001
 44
0.0000000001
 40
0.0
 40
0.0
 40
0.0
 40
0.0
 40
0.3274191609
 40
0.4911287414
 40
0.6548383219
 40
0.8345406322
 40
1.0
 40
1.0
 40
1.0
 40
1.0
 10
-22.49755372
 20
7.645810803
 30
0.0
 10
-22.5457691147
 20
7.7229715812
 30
0.0
 10
-22.6178423006
 20
7.8388729199
 30
0.0
 10
-22.7149395061
 20
7.9927673529
 30
0.0
 10
-22.7875533197
 20
8.1136005203
 30
0.0
 10
-22.87073779
 20
8.22823619
 30
0.0
 10
-22.9346390805
 20
8.3000645254
 30
0.0
 10
-22.9672909087
 20
8.3324367961
 30
0.0
  0
SPLINE
  5
7D0
100
AcDbEntity
  8
0
100
AcDbSpline
 62
7
  6
CONTINUOUS
 70
0
 71
3
 72
9
 73
5
 74
0
 42
0.0000001
 43
0.0000001
 44
0.0000000001
 40
0.0
 40
0.0
 40
0.0
 40
0.0
 40
0.209446698
 40
1.0
 40
1.0
 40
1.0
 40
1.0
 10
-22.9672909087
 20
8.3324367961
 30
0.0
 10
-22.9751187421
 20
8.3400646455
 30
0.0
 10
-23.0146858089
 20
8.3742346927
 30
0.0
 10
-23.0601753906
 20
8.4008088715
 30
0.0
 10
-23.096779002
 20
8.4198371922
 30
0.0
  0
SPLINE
  5
7D1
100
AcDbEntity
  8
0
100
AcDbSpline
 62
7
  6
CONTINUOUS
 70
0
 71
3
 72
17
 73
13
 74
0
 42
0.0000001
 43
0.0000001
 44
0.0000000001
 40
0.0
 40
0.0
 40
0.0
 40
0.0
 40
0.2460836248
 40
0.3488272006
 40
0.4008361773
 40
0.4556648225
 40
0.540858721
 40
0.6244209655
 40
0.704882247
 40
0.7821673896
 40
0.8752909099
 40
1.0
 40
1.0
 40
1.0
 40
1.0
 10
-23.096779002
 20
8.4198371922
 30
0.0
 10
-22.9673014509
 20
8.4378178236
 30
0.0
 10
-22.7710990307
 20
8.5025806543
 30
0.0
 10
-22.6551550521
 20
8.6895721782
 30
0.0
 10
-22.6261379501
 20
8.7975660221
 30
0.0
 10
-22.6181609329
 20
8.8997182405
 30
0.0
 10
-22.6328065241
 20
9.0191018855
 30
0.0
 10
-22.6858894582
 20
9.1421079724
 30
0.0
 10
-22.767424394
 20
9.2438096339
 30
0.0
 10
-22.8846296535
 20
9.3131599848
 30
0.0
 10
-23.0401548484
 20
9.343629885
 30
0.0
 10
-23.1558288448
 20
9.3486688592
 30
0.0
 10
-23.2220745459
 20
9.3486688592
 30
0.0
  0
SPLINE
  5
7D2
100
AcDbEntity
  8
0
100
AcDbSpline
 62
7
  6
CONTINUOUS
 70
0
 71
3
 72
14
 73
10
 74
0
 42
0.0000001
 43
0.0000001
 44
0.0000000001
 40
0.0
 40
0.0
 40
0.0
 40
0.0
 40
0.1089885614
 40
0.1829254059
 40
0.2624764842
 40
0.3465277994
 40
0.4482203747
 40
0.5822701297
 40
1.0
 40
1.0
 40
1.0
 40
1.0
 10
-23.4878237243
 20
8.3991964885
 30
0.0
 10
-23.4630891056
 20
8.3991964885
 30
0.0
 10
-23.4216497292
 20
8.3983238616
 30
0.0
 10
-23.3619342293
 20
8.3932902648
 30
0.0
 10
-23.3108632015
 20
8.3747096193
 30
0.0
 10
-23.2571613016
 20
8.3469555769
 30
0.0
 10
-23.2016073104
 20
8.2992896894
 30
0.0
 10
-23.106563463
 20
8.1851288331
 30
0.0
 10
-23.0384918444
 20
8.0796542456
 30
0.0
 10
-22.9874478385
 20
7.9997666673
 30
0.0
  0
SPLINE
  5
7D3
100
AcDbEntity
  8
0
100
AcDbSpline
 62
7
  6
CONTINUOUS
 70
0
 71
3
 72
12
 73
8
 74
0
 42
0.0000001
 43
0.0000001
 44
0.0000000001
 40
0.0
 40
0.0
 40
0.0
 40
0.0
 40
0.1914546415
 40
0.4289323167
 40
0.5716992375
 40
0.7144661583
 40
1.0
 40
1.0
 40
1.0
 40
1.0
 10
-24.9799207785
 20
9.1732228777
 30
0.0
 10
-24.9641683038
 20
9.1193103566
 30
0.0
 10
-24.9252381376
 20
8.9996212311
 30
0.0
 10
-24.8703320668
 20
8.841090938
 30
0.0
 10
-24.8132808371
 20
8.6986368172
 30
0.0
 10
-24.75245932
 20
8.5425378505
 30
0.0
 10
-24.7065120308
 20
8.4255886473
 30
0.0
 10
-24.6759540939
 20
8.3475947292
 30
0.0
  0
SPLINE
  5
7D4
100
AcDbEntity
  8
0
100
AcDbSpline
 62
7
  6
CONTINUOUS
 70
0
 71
3
 72
9
 73
5
 74
0
 42
0.0000001
 43
0.0000001
 44
0.0000000001
 40
0.0
 40
0.0
 40
0.0
 40
0.0
 40
0.3106214921
 40
1.0
 40
1.0
 40
1.0
 40
1.0
 10
-26.6408523955
 20
8.1665048766
 30
0.0
 10
-26.6507946083
 20
8.1383941539
 30
0.0
 10
-26.6826180577
 20
8.047833203
 30
0.0
 10
-26.714013609
 20
7.9571067625
 30
0.0
 10
-26.734380594
 20
7.8941442794
 30
0.0
  0
SPLINE
  5
7D5
100
AcDbEntity
  8
0
100
AcDbSpline
 62
7
  6
CONTINUOUS
 70
0
 71
3
 72
9
 73
5
 74
0
 42
0.0000001
 43
0.0000001
 44
0.0000000001
 40
0.0
 40
0.0
 40
0.0
 40
0.0
 40
0.1862683768
 40
1.0
 40
1.0
 40
1.0
 40
1.0
 10
-26.734380594
 20
7.8941442794
 30
0.0
 10
-26.7392037773
 20
7.9098271644
 30
0.0
 10
-26.7656168097
 20
7.9938621809
 30
0.0
 10
-26.793226081
 20
8.0775148197
 30
0.0
 10
-26.8158146032
 20
8.145541657
 30
0.0
  0
SPLINE
  5
7D6
100
AcDbEntity
  8
0
100
AcDbSpline
 62
7
  6
CONTINUOUS
 70
0
 71
3
 72
8
 73
4
 74
0
 42
0.0000001
 43
0.0000001
 44
0.0000000001
 40
0.0
 40
0.0
 40
0.0
 40
0.0
 40
1.0
 40
1.0
 40
1.0
 40
1.0
 10
-29.169983632
 20
7.8367373911
 30
0.0
 10
-29.1959687561
 20
7.9305399463
 30
0.0
 10
-29.2263357564
 20
8.0231654239
 30
0.0
 10
-29.2593191236
 20
8.1147418594
 30
0.0
  0
SPLINE
  5
7D7
100
AcDbEntity
  8
0
100
AcDbSpline
 62
7
  6
CONTINUOUS
 70
0
 71
3
 72
29
 73
25
 74
0
 42
0.0000001
 43
0.0000001
 44
0.0000000001
 40
0.0
 40
0.0
 40
0.0
 40
0.0
 40
0.0355937351
 40
0.0799962023
 40
0.1647872018
 40
0.2454541378
 40
0.3251342714
 40
0.3656814677
 40
0.4061636494
 40
0.4473705763
 40
0.4900517958
 40
0.553930843
 40
0.6138247316
 40
0.672298714
 40
0.7321010455
 40
0.7934417861
 40
0.8247546384
 40
0.8568674109
 40
0.8901746441
 40
0.9249718061
 40
0.9615063193
 40
0.9804966154
 40
0.9901828374
 40
1.0
 40
1.0
 40
1.0
 40
1.0
 10
19.4849970615
 20
8.523478873
 30
0.0
 10
19.4842865027
 20
8.5553564215
 30
0.0
 10
19.4799871745
 20
8.6269289527
 30
0.0
 10
19.457358905
 20
8.7729527415
 30
0.0
 10
19.3968812841
 20
8.9528857903
 30
0.0
 10
19.2741812927
 20
9.1384642068
 30
0.0
 10
19.13181809
 20
9.2530636774
 30
0.0
 10
19.0032718645
 20
9.3184583924
 30
0.0
 10
18.8993778213
 20
9.3540446409
 30
0.0
 10
18.7896974254
 20
9.3752281476
 30
0.0
 10
18.6573369206
 20
9.3828611686
 30
0.0
 10
18.5079630821
 20
9.3706590936
 30
0.0
 10
18.3499109297
 20
9.3255192141
 30
0.0
 10
18.2087028275
 20
9.2485541447
 30
0.0
 10
18.0864077654
 20
9.1423523855
 30
0.0
 10
18.0035110176
 20
9.0324718179
 30
0.0
 10
17.9517481856
 20
8.9332711818
 30
0.0
 10
17.9199466939
 20
8.8525495241
 30
0.0
 10
17.8952732311
 20
8.7661504769
 30
0.0
 10
17.8776900992
 20
8.6740157776
 30
0.0
 10
17.8690698249
 20
8.5935235832
 30
0.0
 10
17.866041646
 20
8.5352081358
 30
0.0
 10
17.8651701787
 20
8.5007539818
 30
0.0
 10
17.8650086035
 20
8.4832924093
 30
0.0
 10
17.8650198724
 20
8.4745028527
 30
0.0
  0
SPLINE
  5
7D8
100
AcDbEntity
  8
0
100
AcDbSpline
 62
7
  6
CONTINUOUS
 70
0
 71
3
 72
25
 73
21
 74
0
 42
0.0000001
 43
0.0000001
 44
0.0000000001
 40
0.0
 40
0.0
 40
0.0
 40
0.0
 40
0.0104078563
 40
0.0207474892
 40
0.0412716006
 40
0.0820581221
 40
0.123007883
 40
0.1639100271
 40
0.2444382688
 40
0.3245725211
 40
0.4061842734
 40
0.4479717478
 40
0.4914182365
 40
0.649541018
 40
0.7289634834
 40
0.8106560421
 40
0.8970003625
 40
0.9420674742
 40
0.9891559287
 40
1.0
 40
1.0
 40
1.0
 40
1.0
 10
17.8650198724
 20
8.4745028527
 30
0.0
 10
17.8650318192
 20
8.4651844328
 30
0.0
 10
17.8652631069
 20
8.4466083295
 30
0.0
 10
17.8667754532
 20
8.4096840496
 30
0.0
 10
17.872033263
 20
8.3457207388
 30
0.0
 10
17.8873008977
 20
8.255239798
 30
0.0
 10
17.9177366273
 20
8.1494770748
 30
0.0
 10
17.9736673446
 20
8.0150740599
 30
0.0
 10
18.0734866854
 20
7.8616326293
 30
0.0
 10
18.243331016
 20
7.7218231607
 30
0.0
 10
18.4127917548
 20
7.6480480898
 30
0.0
 10
18.5599116038
 20
7.619482276
 30
0.0
 10
18.7774906681
 20
7.6057915145
 30
0.0
 10
19.0349011118
 20
7.6682024497
 30
0.0
 10
19.2655181092
 20
7.8436467051
 30
0.0
 10
19.3921301043
 20
8.0296000273
 30
0.0
 10
19.4558522645
 20
8.2115158799
 30
0.0
 10
19.4812806746
 20
8.3695919541
 30
0.0
 10
19.4857738189
 20
8.4618671392
 30
0.0
 10
19.4852135421
 20
8.5137669839
 30
0.0
 10
19.4849970615
 20
8.523478873
 30
0.0
  0
SPLINE
  5
7D9
100
AcDbEntity
  8
0
100
AcDbSpline
 62
7
  6
CONTINUOUS
 70
0
 71
3
 72
20
 73
16
 74
0
 42
0.0000001
 43
0.0000001
 44
0.0000000001
 40
0.0
 40
0.0
 40
0.0
 40
0.0
 40
0.0572164243
 40
0.1259090416
 40
0.1899024107
 40
0.2516979518
 40
0.3666568775
 40
0.4226515948
 40
0.4811108566
 40
0.6424617623
 40
0.7260628317
 40
0.8152762586
 40
0.9077988128
 40
0.9537448232
 40
1.0
 40
1.0
 40
1.0
 40
1.0
 10
7.5443700716
 20
8.165024431
 30
0.0
 10
7.5437072365
 20
8.1430488155
 30
0.0
 10
7.5397704508
 20
8.0947873599
 30
0.0
 10
7.5239572384
 20
8.023281607
 30
0.0
 10
7.4943023093
 20
7.9541514194
 30
0.0
 10
7.4404591472
 20
7.8785272196
 30
0.0
 10
7.36756003
 20
7.8215473102
 30
0.0
 10
7.2830048212
 20
7.7944395978
 30
0.0
 10
7.1771877598
 20
7.7841677577
 30
0.0
 10
7.0578378628
 20
7.8176739308
 30
0.0
 10
6.9601871047
 20
7.9034893781
 30
0.0
 10
6.9060768037
 20
7.9911872231
 30
0.0
 10
6.8771969078
 20
8.0743926965
 30
0.0
 10
6.8653788144
 20
8.1444478173
 30
0.0
 10
6.8635444382
 20
8.179864352
 30
0.0
 10
6.863524794
 20
8.1976271901
 30
0.0
  0
SPLINE
  5
7DA
100
AcDbEntity
  8
0
100
AcDbSpline
 62
7
  6
CONTINUOUS
 70
0
 71
3
 72
22
 73
18
 74
0
 42
0.0000001
 43
0.0000001
 44
0.0000000001
 40
0.0
 40
0.0
 40
0.0
 40
0.0
 40
0.0347934713
 40
0.0680881394
 40
0.1313457496
 40
0.2521632748
 40
0.3120984002
 40
0.3697590662
 40
0.4275848594
 40
0.4879953648
 40
0.5503890856
 40
0.6087058281
 40
0.7229097408
 40
0.8433811834
 40
0.9093353186
 40
0.9817892272
 40
1.0
 40
1.0
 40
1.0
 40
1.0
 10
6.863524794
 20
8.1976271901
 30
0.0
 10
6.8635100175
 20
8.2109885226
 30
0.0
 10
6.8644783182
 20
8.2371302959
 30
0.0
 10
6.8704938619
 20
8.2872398632
 30
0.0
 10
6.8916433999
 20
8.3684539885
 30
0.0
 10
6.9443137655
 20
8.4496822059
 30
0.0
 10
7.0148209504
 20
8.5086897353
 30
0.0
 10
7.0743358601
 20
8.5412299729
 30
0.0
 10
7.1395904277
 20
8.5604513802
 30
0.0
 10
7.2090484547
 20
8.5662912913
 30
0.0
 10
7.278715181
 20
8.5605362137
 30
0.0
 10
7.3659627766
 20
8.5354894339
 30
0.0
 10
7.4608340189
 20
8.4679373136
 30
0.0
 10
7.5193348986
 20
8.3643910273
 30
0.0
 10
7.541323954
 20
8.2670667511
 30
0.0
 10
7.545063399
 20
8.2068635391
 30
0.0
 10
7.544581038
 20
8.1720188027
 30
0.0
 10
7.5443700716
 20
8.165024431
 30
0.0
  0
SPLINE
  5
7DB
100
AcDbEntity
  8
0
100
AcDbSpline
 62
7
  6
CONTINUOUS
 70
0
 71
3
 72
20
 73
16
 74
0
 42
0.0000001
 43
0.0000001
 44
0.0000000001
 40
0.0
 40
0.0
 40
0.0
 40
0.0
 40
0.0572164243
 40
0.1259090416
 40
0.1899024107
 40
0.2516979518
 40
0.3666568775
 40
0.4226515948
 40
0.4811108566
 40
0.6424617623
 40
0.7260628317
 40
0.8152762586
 40
0.9077988128
 40
0.9537448232
 40
1.0
 40
1.0
 40
1.0
 40
1.0
 10
10.1863801467
 20
8.165024431
 30
0.0
 10
10.1857173116
 20
8.1430488155
 30
0.0
 10
10.1817805259
 20
8.0947873599
 30
0.0
 10
10.1659673135
 20
8.023281607
 30
0.0
 10
10.1363123844
 20
7.9541514194
 30
0.0
 10
10.0824692223
 20
7.8785272196
 30
0.0
 10
10.0095701051
 20
7.8215473102
 30
0.0
 10
9.9250148963
 20
7.7944395978
 30
0.0
 10
9.8191978349
 20
7.7841677577
 30
0.0
 10
9.6998479379
 20
7.8176739308
 30
0.0
 10
9.6021971798
 20
7.9034893781
 30
0.0
 10
9.5480868788
 20
7.9911872231
 30
0.0
 10
9.5192069829
 20
8.0743926965
 30
0.0
 10
9.5073888895
 20
8.1444478173
 30
0.0
 10
9.5055545133
 20
8.179864352
 30
0.0
 10
9.5055348691
 20
8.1976271901
 30
0.0
  0
SPLINE
  5
7DC
100
AcDbEntity
  8
0
100
AcDbSpline
 62
7
  6
CONTINUOUS
 70
0
 71
3
 72
22
 73
18
 74
0
 42
0.0000001
 43
0.0000001
 44
0.0000000001
 40
0.0
 40
0.0
 40
0.0
 40
0.0
 40
0.0347934713
 40
0.0680881394
 40
0.1313457496
 40
0.2521632748
 40
0.3120984002
 40
0.3697590662
 40
0.4275848594
 40
0.4879953648
 40
0.5503890856
 40
0.6087058281
 40
0.7229097408
 40
0.8433811834
 40
0.9093353186
 40
0.9817892272
 40
1.0
 40
1.0
 40
1.0
 40
1.0
 10
9.5055348691
 20
8.1976271901
 30
0.0
 10
9.5055200926
 20
8.2109885226
 30
0.0
 10
9.5064883933
 20
8.2371302959
 30
0.0
 10
9.512503937
 20
8.2872398632
 30
0.0
 10
9.533653475
 20
8.3684539885
 30
0.0
 10
9.5863238406
 20
8.4496822059
 30
0.0
 10
9.6568310255
 20
8.5086897353
 30
0.0
 10
9.7163459352
 20
8.5412299729
 30
0.0
 10
9.7816005028
 20
8.5604513802
 30
0.0
 10
9.8510585298
 20
8.5662912913
 30
0.0
 10
9.9207252561
 20
8.5605362137
 30
0.0
 10
10.0079728517
 20
8.5354894339
 30
0.0
 10
10.102844094
 20
8.4679373136
 30
0.0
 10
10.1613449737
 20
8.3643910273
 30
0.0
 10
10.1833340291
 20
8.2670667511
 30
0.0
 10
10.1870734741
 20
8.2068635391
 30
0.0
 10
10.1865911131
 20
8.1720188027
 30
0.0
 10
10.1863801467
 20
8.165024431
 30
0.0
  0
SPLINE
  5
7DD
100
AcDbEntity
  8
0
100
AcDbSpline
 62
7
  6
CONTINUOUS
 70
0
 71
3
 72
25
 73
21
 74
0
 42
0.0000001
 43
0.0000001
 44
0.0000000001
 40
0.0
 40
0.0
 40
0.0
 40
0.0
 40
0.0514335127
 40
0.0974753557
 40
0.1736419787
 40
0.2358722462
 40
0.2912819311
 40
0.3421630814
 40
0.3923662866
 40
0.4442955522
 40
0.5000866919
 40
0.5383619081
 40
0.5740179499
 40
0.6411406999
 40
0.7101280716
 40
0.7880107919
 40
0.8828187826
 40
0.9383827827
 40
0.9684100182
 40
1.0
 40
1.0
 40
1.0
 40
1.0
 10
9.0720802313
 20
8.4864781787
 30
0.0
 10
9.0721062934
 20
8.5265853527
 30
0.0
 10
9.0706938584
 20
8.6025873074
 30
0.0
 10
9.0621675955
 20
8.7376968388
 30
0.0
 10
9.0405479252
 20
8.8804841907
 30
0.0
 10
8.9933553962
 20
9.0245331511
 30
0.0
 10
8.936014916
 20
9.1434014021
 30
0.0
 10
8.8590405502
 20
9.2399167102
 30
0.0
 10
8.7598844508
 20
9.3090596726
 30
0.0
 10
8.6426814664
 20
9.3509763824
 30
0.0
 10
8.5284043614
 20
9.3617933196
 30
0.0
 10
8.4272068742
 20
9.3553239861
 30
0.0
 10
8.3193560134
 20
9.3318699136
 30
0.0
 10
8.1976970602
 20
9.2682756158
 30
0.0
 10
8.0864275948
 20
9.1398058747
 30
0.0
 10
8.0083370823
 20
8.9661380673
 30
0.0
 10
7.9741074082
 20
8.790359385
 30
0.0
 10
7.9618292959
 20
8.6502393899
 30
0.0
 10
7.9580904799
 20
8.5589407644
 30
0.0
 10
7.9574745465
 20
8.5109027611
 30
0.0
 10
7.9574820907
 20
8.4862745262
 30
0.0
  0
SPLINE
  5
7DE
100
AcDbEntity
  8
0
100
AcDbSpline
 62
7
  6
CONTINUOUS
 70
0
 71
3
 72
25
 73
21
 74
0
 42
0.0000001
 43
0.0000001
 44
0.0000000001
 40
0.0
 40
0.0
 40
0.0
 40
0.0
 40
0.0252748524
 40
0.0496777713
 40
0.0959413722
 40
0.1788918516
 40
0.2504468259
 40
0.3126957994
 40
0.3587715651
 40
0.4037491419
 40
0.4501831796
 40
0.5004065656
 40
0.538895651
 40
0.5747150939
 40
0.6420519243
 40
0.7111453054
 40
0.7889985187
 40
0.8832681673
 40
0.9386609163
 40
1.0
 40
1.0
 40
1.0
 40
1.0
 10
7.9574820907
 20
8.4862745262
 30
0.0
 10
7.9574881268
 20
8.466569703
 30
0.0
 10
7.9579067962
 20
8.4278397604
 30
0.0
 10
7.9605217735
 20
8.3530808857
 30
0.0
 10
7.9691716328
 20
8.2335977182
 30
0.0
 10
7.9934062488
 20
8.0785141139
 30
0.0
 10
8.0436591818
 20
7.9163785462
 30
0.0
 10
8.1139630713
 20
7.7929569724
 30
0.0
 10
8.2004233666
 20
7.708720049
 30
0.0
 10
8.2933906184
 20
7.6533755787
 30
0.0
 10
8.4000244078
 20
7.6210814958
 30
0.0
 10
8.5056439382
 20
7.6123677505
 30
0.0
 10
8.6028215773
 20
7.6185227023
 30
0.0
 10
8.7111192029
 20
7.6420987053
 30
0.0
 10
8.8330476394
 20
7.7060566393
 30
0.0
 10
8.9442150405
 20
7.8349453301
 30
0.0
 10
9.0216017439
 20
8.0085144145
 30
0.0
 10
9.0557251854
 20
8.1836917876
 30
0.0
 10
9.0699022353
 20
8.3476093464
 30
0.0
 10
9.0720491499
 20
8.4386467713
 30
0.0
 10
9.0720802313
 20
8.4864781787
 30
0.0
  0
SPLINE
  5
7DF
100
AcDbEntity
  8
0
100
AcDbSpline
 62
7
  6
CONTINUOUS
 70
0
 71
3
 72
11
 73
7
 74
0
 42
0.0000001
 43
0.0000001
 44
0.0000000001
 40
0.0
 40
0.0
 40
0.0
 40
0.0
 40
0.1162102124
 40
0.3317882747
 40
0.5431267096
 40
1.0
 40
1.0
 40
1.0
 40
1.0
 10
23.651905373
 20
8.7549001895
 30
0.0
 10
23.6587309775
 20
8.7828306462
 30
0.0
 10
23.6821578586
 20
8.8615663622
 30
0.0
 10
23.7408736704
 20
8.9838269509
 30
0.0
 10
23.8982719735
 20
9.1408339601
 30
0.0
 10
24.0719813733
 20
9.1835432295
 30
0.0
 10
24.1846228832
 20
9.1835432295
 30
0.0
  0
SPLINE
  5
7E0
100
AcDbEntity
  8
0
100
AcDbSpline
 62
7
  6
CONTINUOUS
 70
0
 71
3
 72
11
 73
7
 74
0
 42
0.0000001
 43
0.0000001
 44
0.0000000001
 40
0.0
 40
0.0
 40
0.0
 40
0.0
 40
0.0866582146
 40
0.3116844198
 40
0.5231858397
 40
1.0
 40
1.0
 40
1.0
 40
1.0
 10
23.4570109038
 20
8.1310191989
 30
0.0
 10
23.4659104653
 20
8.1044753578
 30
0.0
 10
23.501557955
 20
8.0102204354
 30
0.0
 10
23.5860970983
 20
7.8614224559
 30
0.0
 10
23.8073006076
 20
7.6573979887
 30
0.0
 10
24.0438233562
 20
7.6148497474
 30
0.0
 10
24.1978458783
 20
7.6148497474
 30
0.0
  0
SPLINE
  5
7E1
100
AcDbEntity
  8
0
100
AcDbSpline
 62
7
  6
CONTINUOUS
 70
0
 71
3
 72
12
 73
8
 74
0
 42
0.0000001
 43
0.0000001
 44
0.0000000001
 40
0.0
 40
0.0
 40
0.0
 40
0.0
 40
0.0187751415
 40
0.2723568662
 40
0.4981981867
 40
0.7309919311
 40
1.0
 40
1.0
 40
1.0
 40
1.0
 10
20.171260717
 20
7.85923676
 30
0.0
 10
20.1686570219
 20
7.8603707711
 30
0.0
 10
20.1310093636
 20
7.8771144247
 30
0.0
 10
20.065509363
 20
7.9155191525
 30
0.0
 10
19.991789724
 20
7.9962693175
 30
0.0
 10
19.9478279647
 20
8.098368423
 30
0.0
 10
19.9336074152
 20
8.173123282
 30
0.0
 10
19.9290902435
 20
8.2134301551
 30
0.0
  0
SPLINE
  5
7E2
100
AcDbEntity
  8
0
100
AcDbSpline
 62
7
  6
CONTINUOUS
 70
0
 71
3
 72
10
 73
6
 74
0
 42
0.0000001
 43
0.0000001
 44
0.0000000001
 40
0.0
 40
0.0
 40
0.0
 40
0.0
 40
0.1442436565
 40
0.4110007853
 40
1.0
 40
1.0
 40
1.0
 40
1.0
 10
19.7775244759
 20
8.8549563429
 30
0.0
 10
19.7800418138
 20
8.8351116607
 30
0.0
 10
19.7914212845
 20
8.7791995249
 30
0.0
 10
19.8490266623
 20
8.6511010063
 30
0.0
 10
19.9483017938
 20
8.5736280825
 30
0.0
 10
20.020683504
 20
8.5362637059
 30
0.0
  0
SPLINE
  5
7E3
100
AcDbEntity
  8
0
100
AcDbSpline
 62
7
  6
CONTINUOUS
 70
0
 71
3
 72
18
 73
14
 74
0
 42
0.0000001
 43
0.0000001
 44
0.0000000001
 40
0.0
 40
0.0
 40
0.0
 40
0.0
 40
0.0266531233
 40
0.1093929354
 40
0.1933044419
 40
0.2821650598
 40
0.369640163
 40
0.4526506338
 40
0.5348893368
 40
0.6201494781
 40
0.7079260703
 40
0.7981768338
 40
1.0
 40
1.0
 40
1.0
 40
1.0
 10
19.0347363899
 20
7.9336607248
 30
0.0
 10
19.0252624244
 20
7.9259007056
 30
0.0
 10
18.9853178192
 20
7.8953458392
 30
0.0
 10
18.907501672
 20
7.8513748309
 30
0.0
 10
18.7942794632
 20
7.8176517387
 30
0.0
 10
18.6746756921
 20
7.8074954978
 30
0.0
 10
18.5554850048
 20
7.8176162295
 30
0.0
 10
18.4435461418
 20
7.8511108721
 30
0.0
 10
18.3426222256
 20
7.9079062703
 30
0.0
 10
18.2541999967
 20
7.9858524582
 30
0.0
 10
18.1808470163
 20
8.0829724897
 30
0.0
 10
18.1085700372
 20
8.2428381576
 30
0.0
 10
18.0920676132
 20
8.3791912594
 30
0.0
 10
18.0920676132
 20
8.4717614674
 30
0.0
  0
SPLINE
  5
7E4
100
AcDbEntity
  8
0
100
AcDbSpline
 62
7
  6
CONTINUOUS
 70
0
 71
3
 72
10
 73
6
 74
0
 42
0.0000001
 43
0.0000001
 44
0.0000000001
 40
0.0
 40
0.0
 40
0.0
 40
0.0
 40
0.1437025839
 40
0.430028558
 40
1.0
 40
1.0
 40
1.0
 40
1.0
 10
11.7080338168
 20
8.2313500336
 30
0.0
 10
11.704473336
 20
8.2545611033
 30
0.0
 10
11.6888022169
 20
8.3232861003
 30
0.0
 10
11.6115195659
 20
8.4712504969
 30
0.0
 10
11.477753813
 20
8.5473803269
 30
0.0
 10
11.387064066
 20
8.5683535671
 30
0.0
  0
SPLINE
  5
7E5
100
AcDbEntity
  8
0
100
AcDbSpline
 62
7
  6
CONTINUOUS
 70
0
 71
3
 72
9
 73
5
 74
0
 42
0.0000001
 43
0.0000001
 44
0.0000000001
 40
0.0
 40
0.0
 40
0.0
 40
0.0
 40
0.2243368453
 40
1.0
 40
1.0
 40
1.0
 40
1.0
 10
10.8816135371
 20
9.3032968577
 30
0.0
 10
10.8497061223
 20
9.2867893805
 30
0.0
 10
10.7158862837
 20
9.1965696846
 30
0.0
 10
10.6419087301
 20
9.0366952889
 30
0.0
 10
10.6201328695
 20
8.9152140813
 30
0.0
  0
SPLINE
  5
7E6
100
AcDbEntity
  8
0
100
AcDbSpline
 62
7
  6
CONTINUOUS
 70
0
 71
3
 72
11
 73
7
 74
0
 42
0.0000001
 43
0.0000001
 44
0.0000000001
 40
0.0
 40
0.0
 40
0.0
 40
0.0
 40
0.0767440388
 40
0.1974970117
 40
0.4286091491
 40
1.0
 40
1.0
 40
1.0
 40
1.0
 10
11.1220359537
 20
7.791073907
 30
0.0
 10
11.1094521297
 20
7.7918291096
 30
0.0
 10
11.0771771349
 20
7.7952376438
 30
0.0
 10
11.0086294386
 20
7.8120529617
 30
0.0
 10
10.8734534141
 20
7.8911191614
 30
0.0
 10
10.8252071465
 20
8.0288134041
 30
0.0
 10
10.8058992029
 20
8.1205469884
 30
0.0
  0
SPLINE
  5
7E7
100
AcDbEntity
  8
0
100
AcDbSpline
 62
7
  6
CONTINUOUS
 70
0
 71
3
 72
23
 73
19
 74
0
 42
0.0000001
 43
0.0000001
 44
0.0000000001
 40
0.0
 40
0.0
 40
0.0
 40
0.0
 40
0.0553763048
 40
0.1370825342
 40
0.2086082121
 40
0.2742393825
 40
0.3371620967
 40
0.4006389219
 40
0.4678517829
 40
0.5079822395
 40
0.5465690235
 40
0.6218048486
 40
0.6970176518
 40
0.7757776369
 40
0.8576568479
 40
0.8990423508
 40
0.9414323925
 40
1.0
 40
1.0
 40
1.0
 40
1.0
 10
9.2883624782
 20
8.1641175113
 30
0.0
 10
9.2938896551
 20
8.1301391845
 30
0.0
 10
9.3109967547
 20
8.046579897
 30
0.0
 10
9.353042531
 20
7.9230560239
 30
0.0
 10
9.4268453118
 20
7.8071537165
 30
0.0
 10
9.517802707
 20
7.7209338784
 30
0.0
 10
9.620702625
 20
7.6586290793
 30
0.0
 10
9.7364334957
 20
7.6221195096
 30
0.0
 10
9.8428400561
 20
7.6125108656
 30
0.0
 10
9.9335406819
 20
7.617694664
 30
0.0
 10
10.0277080479
 20
7.6358124329
 30
0.0
 10
10.1374311348
 20
7.6822347224
 30
0.0
 10
10.2486774651
 20
7.7744662149
 30
0.0
 10
10.3300977592
 20
7.8983724062
 30
0.0
 10
10.3730832489
 20
8.0175352794
 30
0.0
 10
10.3903335704
 20
8.1192079776
 30
0.0
 10
10.3949391078
 20
8.2076635617
 30
0.0
 10
10.3906584711
 20
8.2704962918
 30
0.0
 10
10.3851087965
 20
8.3064979308
 30
0.0
  0
SPLINE
  5
7E8
100
AcDbEntity
  8
0
100
AcDbSpline
 62
7
  6
CONTINUOUS
 70
0
 71
3
 72
17
 73
13
 74
0
 42
0.0000001
 43
0.0000001
 44
0.0000000001
 40
0.0
 40
0.0
 40
0.0
 40
0.0
 40
0.0063718223
 40
0.0960616541
 40
0.1823068531
 40
0.2687096187
 40
0.3533956038
 40
0.4341565744
 40
0.5145299232
 40
0.598102278
 40
0.7926890907
 40
1.0
 40
1.0
 40
1.0
 40
1.0
 10
10.3851087965
 20
8.3064979308
 30
0.0
 10
10.3847158
 20
8.309047363
 30
0.0
 10
10.3785591578
 20
8.3474486889
 30
0.0
 10
10.3601615944
 20
8.4192824378
 30
0.0
 10
10.3134030885
 20
8.515386191
 30
0.0
 10
10.2486571654
 20
8.597720856
 30
0.0
 10
10.1716332627
 20
8.665249109
 30
0.0
 10
10.0846155515
 20
8.714812275
 30
0.0
 10
9.9892432469
 20
8.7440685389
 30
0.0
 10
9.8442868165
 20
8.7575647409
 30
0.0
 10
9.6447214629
 20
8.7120863242
 30
0.0
 10
9.5207294994
 20
8.5941411053
 30
0.0
 10
9.4745738135
 20
8.5241695165
 30
0.0
  0
SPLINE
  5
7E9
100
AcDbEntity
  8
0
100
AcDbSpline
 62
7
  6
CONTINUOUS
 70
0
 71
3
 72
11
 73
7
 74
0
 42
0.0000001
 43
0.0000001
 44
0.0000000001
 40
0.0
 40
0.0
 40
0.0
 40
0.0
 40
0.0767440388
 40
0.1974970117
 40
0.4286091491
 40
1.0
 40
1.0
 40
1.0
 40
1.0
 10
5.8380158035
 20
7.791073907
 30
0.0
 10
5.8254319795
 20
7.7918291096
 30
0.0
 10
5.7931569847
 20
7.7952376438
 30
0.0
 10
5.7246092884
 20
7.8120529617
 30
0.0
 10
5.5894332639
 20
7.8911191614
 30
0.0
 10
5.5411869963
 20
8.0288134041
 30
0.0
 10
5.5218790527
 20
8.1205469884
 30
0.0
  0
SPLINE
  5
7EA
100
AcDbEntity
  8
0
100
AcDbSpline
 62
7
  6
CONTINUOUS
 70
0
 71
3
 72
10
 73
6
 74
0
 42
0.0000001
 43
0.0000001
 44
0.0000000001
 40
0.0
 40
0.0
 40
0.0
 40
0.0
 40
0.1437025839
 40
0.430028558
 40
1.0
 40
1.0
 40
1.0
 40
1.0
 10
6.4240136666
 20
8.2313500336
 30
0.0
 10
6.4204531858
 20
8.2545611033
 30
0.0
 10
6.4047820667
 20
8.3232861003
 30
0.0
 10
6.3274994157
 20
8.4712504969
 30
0.0
 10
6.1937336628
 20
8.5473803269
 30
0.0
 10
6.1030439158
 20
8.5683535671
 30
0.0
  0
SPLINE
  5
7EB
100
AcDbEntity
  8
0
100
AcDbSpline
 62
7
  6
CONTINUOUS
 70
0
 71
3
 72
9
 73
5
 74
0
 42
0.0000001
 43
0.0000001
 44
0.0000000001
 40
0.0
 40
0.0
 40
0.0
 40
0.0
 40
0.2243368453
 40
1.0
 40
1.0
 40
1.0
 40
1.0
 10
5.5975933869
 20
9.3032968577
 30
0.0
 10
5.5656859721
 20
9.2867893805
 30
0.0
 10
5.4318661335
 20
9.1965696846
 30
0.0
 10
5.3578885799
 20
9.0366952889
 30
0.0
 10
5.3361127193
 20
8.9152140813
 30
0.0
  0
SPLINE
  5
7EC
100
AcDbEntity
  8
0
100
AcDbSpline
 62
7
  6
CONTINUOUS
 70
0
 71
3
 72
23
 73
19
 74
0
 42
0.0000001
 43
0.0000001
 44
0.0000000001
 40
0.0
 40
0.0
 40
0.0
 40
0.0
 40
0.0553763048
 40
0.1370825342
 40
0.2086082121
 40
0.2742393825
 40
0.3371620967
 40
0.4006389219
 40
0.4678517829
 40
0.5079822395
 40
0.5465690235
 40
0.6218048486
 40
0.6970176518
 40
0.7757776369
 40
0.8576568479
 40
0.8990423508
 40
0.9414323925
 40
1.0
 40
1.0
 40
1.0
 40
1.0
 10
6.6463524031
 20
8.1641175113
 30
0.0
 10
6.65187958
 20
8.1301391845
 30
0.0
 10
6.6689866796
 20
8.046579897
 30
0.0
 10
6.7110324559
 20
7.9230560239
 30
0.0
 10
6.7848352367
 20
7.8071537165
 30
0.0
 10
6.8757926319
 20
7.7209338784
 30
0.0
 10
6.9786925499
 20
7.6586290793
 30
0.0
 10
7.0944234206
 20
7.6221195096
 30
0.0
 10
7.200829981
 20
7.6125108656
 30
0.0
 10
7.2915306068
 20
7.617694664
 30
0.0
 10
7.3856979728
 20
7.6358124329
 30
0.0
 10
7.4954210597
 20
7.6822347224
 30
0.0
 10
7.60666739
 20
7.7744662149
 30
0.0
 10
7.6880876841
 20
7.8983724062
 30
0.0
 10
7.7310731738
 20
8.0175352794
 30
0.0
 10
7.7483234953
 20
8.1192079776
 30
0.0
 10
7.7529290327
 20
8.2076635617
 30
0.0
 10
7.748648396
 20
8.2704962918
 30
0.0
 10
7.7430987214
 20
8.3064979308
 30
0.0
  0
SPLINE
  5
7ED
100
AcDbEntity
  8
0
100
AcDbSpline
 62
7
  6
CONTINUOUS
 70
0
 71
3
 72
17
 73
13
 74
0
 42
0.0000001
 43
0.0000001
 44
0.0000000001
 40
0.0
 40
0.0
 40
0.0
 40
0.0
 40
0.0063718223
 40
0.0960616541
 40
0.1823068531
 40
0.2687096187
 40
0.3533956038
 40
0.4341565744
 40
0.5145299232
 40
0.598102278
 40
0.7926890907
 40
1.0
 40
1.0
 40
1.0
 40
1.0
 10
7.7430987214
 20
8.3064979308
 30
0.0
 10
7.7427057249
 20
8.309047363
 30
0.0
 10
7.7365490827
 20
8.3474486889
 30
0.0
 10
7.7181515193
 20
8.4192824378
 30
0.0
 10
7.6713930134
 20
8.515386191
 30
0.0
 10
7.6066470903
 20
8.597720856
 30
0.0
 10
7.5296231876
 20
8.665249109
 30
0.0
 10
7.4426054764
 20
8.714812275
 30
0.0
 10
7.3472331718
 20
8.7440685389
 30
0.0
 10
7.2022767414
 20
8.7575647409
 30
0.0
 10
7.0027113878
 20
8.7120863242
 30
0.0
 10
6.8787194243
 20
8.5941411053
 30
0.0
 10
6.8325637384
 20
8.5241695165
 30
0.0
  0
SPLINE
  5
7EE
100
AcDbEntity
  8
0
100
AcDbSpline
 62
7
  6
CONTINUOUS
 70
0
 71
3
 72
11
 73
7
 74
0
 42
0.0000001
 43
0.0000001
 44
0.0000000001
 40
0.0
 40
0.0
 40
0.0
 40
0.0
 40
0.1162102124
 40
0.3317882747
 40
0.5431267096
 40
1.0
 40
1.0
 40
1.0
 40
1.0
 10
-6.4112795831
 20
8.7549001895
 30
0.0
 10
-6.4044539787
 20
8.7828306462
 30
0.0
 10
-6.3810270976
 20
8.8615663622
 30
0.0
 10
-6.3223112858
 20
8.9838269509
 30
0.0
 10
-6.1649129826
 20
9.1408339601
 30
0.0
 10
-5.9912035829
 20
9.1835432295
 30
0.0
 10
-5.8785620729
 20
9.1835432295
 30
0.0
  0
SPLINE
  5
7EF
100
AcDbEntity
  8
0
100
AcDbSpline
 62
7
  6
CONTINUOUS
 70
0
 71
3
 72
11
 73
7
 74
0
 42
0.0000001
 43
0.0000001
 44
0.0000000001
 40
0.0
 40
0.0
 40
0.0
 40
0.0
 40
0.0866582146
 40
0.3116844198
 40
0.5231858397
 40
1.0
 40
1.0
 40
1.0
 40
1.0
 10
-6.6061740523
 20
8.1310191989
 30
0.0
 10
-6.5972744909
 20
8.1044753578
 30
0.0
 10
-6.5616270012
 20
8.0102204354
 30
0.0
 10
-6.4770878578
 20
7.8614224559
 30
0.0
 10
-6.2558843485
 20
7.6573979887
 30
0.0
 10
-6.0193616
 20
7.6148497474
 30
0.0
 10
-5.8653390778
 20
7.6148497474
 30
0.0
  0
SPLINE
  5
7F0
100
AcDbEntity
  8
0
100
AcDbSpline
 62
7
  6
CONTINUOUS
 70
0
 71
3
 72
12
 73
8
 74
0
 42
0.0000001
 43
0.0000001
 44
0.0000000001
 40
0.0
 40
0.0
 40
0.0
 40
0.0
 40
0.0187751415
 40
0.2723568662
 40
0.4981981867
 40
0.7309919311
 40
1.0
 40
1.0
 40
1.0
 40
1.0
 10
-21.2236705769
 20
7.85923676
 30
0.0
 10
-21.226274272
 20
7.8603707711
 30
0.0
 10
-21.2639219303
 20
7.8771144247
 30
0.0
 10
-21.3294219309
 20
7.9155191525
 30
0.0
 10
-21.4031415699
 20
7.9962693175
 30
0.0
 10
-21.4471033292
 20
8.098368423
 30
0.0
 10
-21.4613238786
 20
8.173123282
 30
0.0
 10
-21.4658410503
 20
8.2134301551
 30
0.0
  0
SPLINE
  5
7F1
100
AcDbEntity
  8
0
100
AcDbSpline
 62
7
  6
CONTINUOUS
 70
0
 71
3
 72
10
 73
6
 74
0
 42
0.0000001
 43
0.0000001
 44
0.0000000001
 40
0.0
 40
0.0
 40
0.0
 40
0.0
 40
0.1442436565
 40
0.4110007853
 40
1.0
 40
1.0
 40
1.0
 40
1.0
 10
-21.617406818
 20
8.8549563429
 30
0.0
 10
-21.6148894801
 20
8.8351116607
 30
0.0
 10
-21.6035100093
 20
8.7791995249
 30
0.0
 10
-21.5459046316
 20
8.6511010063
 30
0.0
 10
-21.4466295001
 20
8.5736280825
 30
0.0
 10
-21.3742477898
 20
8.5362637059
 30
0.0
  0
ELLIPSE
  5
7F2
100
AcDbEntity
  8
RACCORDO
100
AcDbEllipse
 62
7
  6
CONTINUOUS
 10
7.4414092261
 20
12.045810803
 30
0.0
 11
0.0
 21
0.3
 31
0.0
 40
0.0174550649
 41
0.0
 42
1.5707963268
  0
ELLIPSE
  5
7F3
100
AcDbEntity
  8
RACCORDO
100
AcDbEllipse
 62
7
  6
CONTINUOUS
 10
-1.3271716571
 20
12.045810803
 30
0.0
 11
0.0
 21
0.3
 31
0.0
 40
0.0174550649
 41
-1.5707963268
 42
0.0
  0
ELLIPSE
  5
7F4
100
AcDbEntity
  8
RACCORDO
100
AcDbEllipse
 62
7
  6
CONTINUOUS
 10
6.9570426205
 20
45.245734639
 30
0.0
 11
0.3536610946
 21
0.3536610946
 31
0.0
 40
0.9996954599
 41
-0.7852458701
 42
0.7852458701
  0
ELLIPSE
  5
7F5
100
AcDbEntity
  8
RACCORDO
100
AcDbEllipse
 62
7
  6
CONTINUOUS
 10
-0.8428050515
 20
45.245734639
 30
0.0
 11
0.3536610946
 21
-0.3536610946
 31
0.0
 40
0.9996954599
 41
2.3563467834
 42
3.9268385237
  0
ELLIPSE
  5
7F6
100
AcDbEntity
  8
RACCORDO
100
AcDbEllipse
 62
7
  6
CONTINUOUS
 10
6.8819858413
 20
45.1706778598
 30
0.0
 11
0.3536610946
 21
0.3536610946
 31
0.0
 40
0.9996954599
 41
-0.7852458701
 42
0.7852458701
  0
ELLIPSE
  5
7F7
100
AcDbEntity
  8
RACCORDO
100
AcDbEllipse
 62
7
  6
CONTINUOUS
 10
-0.7677482723
 20
45.1706778598
 30
0.0
 11
-0.3536610946
 21
0.3536610946
 31
0.0
 40
0.9996954599
 41
-0.7852458701
 42
0.7852458701
  0
ELLIPSE
  5
7F8
100
AcDbEntity
  8
RACCORDO
100
AcDbEllipse
 62
7
  6
CONTINUOUS
 10
37.6718160831
 20
-39.254189197
 30
0.0
 11
-0.0
 21
1.0
 31
0.0
 40
0.0174550649
 41
-3.1415926536
 42
-1.5707963268
  0
ELLIPSE
  5
7F9
100
AcDbEntity
  8
RACCORDO
100
AcDbEllipse
 62
7
  6
CONTINUOUS
 10
37.6718160831
 20
-29.454189197
 30
0.0
 11
0.0
 21
1.0
 31
0.0
 40
0.0174550649
 41
-1.5707963268
 42
0.0
  0
ELLIPSE
  5
7FA
100
AcDbEntity
  8
RACCORDO
100
AcDbEllipse
 62
7
  6
CONTINUOUS
 10
37.6718160831
 20
20.745810803
 30
0.0
 11
0.0
 21
1.0
 31
0.0
 40
0.0174550649
 41
-3.1415926536
 42
-1.5707963268
  0
ELLIPSE
  5
7FB
100
AcDbEntity
  8
RACCORDO
100
AcDbEllipse
 62
7
  6
CONTINUOUS
 10
37.6718160831
 20
30.545810803
 30
0.0
 11
-0.0
 21
1.0
 31
0.0
 40
0.0174550649
 41
-1.5707963268
 42
0.0
  0
ELLIPSE
  5
7FC
100
AcDbEntity
  8
RACCORDO
100
AcDbEllipse
 62
7
  6
CONTINUOUS
 10
-31.5575785141
 20
20.745810803
 30
0.0
 11
0.0
 21
1.0
 31
0.0
 40
0.0174550649
 41
-4.7123889804
 42
-3.1415926536
  0
ELLIPSE
  5
7FD
100
AcDbEntity
  8
RACCORDO
100
AcDbEllipse
 62
7
  6
CONTINUOUS
 10
-31.5575785141
 20
-29.454189197
 30
0.0
 11
-0.0
 21
1.0
 31
0.0
 40
0.0174550649
 41
0.0
 42
1.5707963268
  0
ELLIPSE
  5
7FE
100
AcDbEntity
  8
RACCORDO
100
AcDbEllipse
 62
7
  6
CONTINUOUS
 10
-31.5575785141
 20
-39.254189197
 30
0.0
 11
0.0
 21
1.0
 31
0.0
 40
0.0174550649
 41
-4.7123889804
 42
-3.1415926536
  0
ELLIPSE
  5
7FF
100
AcDbEntity
  8
RACCORDO
100
AcDbEllipse
 62
7
  6
CONTINUOUS
 10
-31.5575785141
 20
30.545810803
 30
0.0
 11
0.0
 21
1.0
 31
0.0
 40
0.0174550649
 41
0.0
 42
1.5707963268
  0
ELLIPSE
  5
800
100
AcDbEntity
  8
RACCORDO
100
AcDbEllipse
 62
7
  6
CONTINUOUS
 10
38.8733344729
 20
-39.254189197
 30
0.0
 11
-0.0
 21
1.0
 31
0.0
 40
0.0174550649
 41
1.5707963268
 42
3.1415926536
  0
ELLIPSE
  5
801
100
AcDbEntity
  8
RACCORDO
100
AcDbEllipse
 62
7
  6
CONTINUOUS
 10
38.8733344729
 20
-29.454189197
 30
0.0
 11
0.0
 21
1.0
 31
0.0
 40
0.0174550649
 41
-0.0
 42
1.5707963268
  0
ELLIPSE
  5
802
100
AcDbEntity
  8
RACCORDO
100
AcDbEllipse
 62
7
  6
CONTINUOUS
 10
38.8733344729
 20
20.745810803
 30
0.0
 11
-0.0
 21
1.0
 31
0.0
 40
0.0174550649
 41
1.5707963268
 42
3.1415926536
  0
ELLIPSE
  5
803
100
AcDbEntity
  8
RACCORDO
100
AcDbEllipse
 62
7
  6
CONTINUOUS
 10
38.8733344729
 20
30.545810803
 30
0.0
 11
-0.0
 21
1.0
 31
0.0
 40
0.0174550649
 41
-0.0
 42
1.5707963268
  0
ELLIPSE
  5
804
100
AcDbEntity
  8
RACCORDO
100
AcDbEllipse
 62
7
  6
CONTINUOUS
 10
-32.7590969038
 20
-29.454189197
 30
0.0
 11
-0.0
 21
1.0
 31
0.0
 40
0.0174550649
 41
-1.5707963268
 42
0.0
  0
ELLIPSE
  5
805
100
AcDbEntity
  8
RACCORDO
100
AcDbEllipse
 62
7
  6
CONTINUOUS
 10
-32.7590969038
 20
-39.254189197
 30
0.0
 11
-0.0
 21
1.0
 31
0.0
 40
0.0174550649
 41
-3.1415926536
 42
-1.5707963268
  0
ELLIPSE
  5
806
100
AcDbEntity
  8
RACCORDO
100
AcDbEllipse
 62
7
  6
CONTINUOUS
 10
-32.7590969038
 20
20.745810803
 30
0.0
 11
0.0
 21
1.0
 31
0.0
 40
0.0174550649
 41
-3.1415926536
 42
-1.5707963268
  0
ELLIPSE
  5
807
100
AcDbEntity
  8
RACCORDO
100
AcDbEllipse
 62
7
  6
CONTINUOUS
 10
-32.7590969038
 20
30.545810803
 30
0.0
 11
-0.0
 21
1.0
 31
0.0
 40
0.0174550649
 41
-1.5707963268
 42
0.0
  0
ELLIPSE
  5
808
100
AcDbEntity
  8
RACCORDO
100
AcDbEllipse
 62
7
  6
CONTINUOUS
 10
37.9569664565
 20
49.545658475
 30
0.0
 11
0.7073221892
 21
0.7073221892
 31
0.0
 40
0.9996954599
 41
-0.7852458701
 42
0.7852458701
  0
ELLIPSE
  5
809
100
AcDbEntity
  8
RACCORDO
100
AcDbEllipse
 62
7
  6
CONTINUOUS
 10
-31.8427288875
 20
49.545658475
 30
0.0
 11
0.7073221892
 21
-0.7073221892
 31
0.0
 40
0.9996954599
 41
2.3563467834
 42
3.9268385237
  0
ELLIPSE
  5
80A
100
AcDbEntity
  8
RACCORDO
100
AcDbEllipse
 62
7
  6
CONTINUOUS
 10
37.9569664565
 20
-58.2540368689
 30
0.0
 11
0.7073221892
 21
-0.7073221892
 31
0.0
 40
0.9996954599
 41
-0.7852458701
 42
0.7852458701
  0
ELLIPSE
  5
80B
100
AcDbEntity
  8
RACCORDO
100
AcDbEllipse
 62
7
  6
CONTINUOUS
 10
-31.8427288875
 20
-58.2540368689
 30
0.0
 11
0.7073221892
 21
0.7073221892
 31
0.0
 40
0.9996954599
 41
-3.9268385237
 42
-2.3563467834
  0
ELLIPSE
  5
80C
100
AcDbEntity
  8
RACCORDO
100
AcDbEllipse
 62
7
  6
CONTINUOUS
 10
37.8522360669
 20
49.4409280854
 30
0.0
 11
-0.7073221892
 21
-0.7073221892
 31
0.0
 40
0.9996954599
 41
2.3563467834
 42
3.9268385237
  0
ELLIPSE
  5
80D
100
AcDbEntity
  8
RACCORDO
100
AcDbEllipse
 62
7
  6
CONTINUOUS
 10
9.0117217842
 20
-5.3084874245
 30
0.0
 11
0.0
 21
0.5
 31
0.0
 40
0.0349207695
 41
1.5707963268
 42
3.1066860685
  0
ELLIPSE
  5
80E
100
AcDbEntity
  8
RACCORDO
100
AcDbEllipse
 62
7
  6
CONTINUOUS
 10
9.0117217842
 20
-3.3998909695
 30
0.0
 11
-0.0
 21
0.5
 31
0.0
 40
0.0349207695
 41
0.034906585
 42
1.5707963268
  0
ELLIPSE
  5
80F
100
AcDbEntity
  8
RACCORDO
100
AcDbEllipse
 62
7
  6
CONTINUOUS
 10
-2.8974842152
 20
-3.3998909695
 30
0.0
 11
-0.0
 21
0.5
 31
0.0
 40
0.0349207695
 41
-1.5707963268
 42
-0.034906585
  0
ELLIPSE
  5
810
100
AcDbEntity
  8
RACCORDO
100
AcDbEllipse
 62
7
  6
CONTINUOUS
 10
-2.8974842152
 20
-5.3084874245
 30
0.0
 11
0.0
 21
0.5
 31
0.0
 40
0.0349207695
 41
-3.1066860685
 42
-1.5707963268
  0
ELLIPSE
  5
811
100
AcDbEntity
  8
RACCORDO
100
AcDbEllipse
 62
7
  6
CONTINUOUS
 10
7.9054527347
 20
-5.3084874245
 30
0.0
 11
-0.0
 21
0.5
 31
0.0
 40
0.2679491924
 41
-3.1066860685
 42
-1.5707963268
  0
ELLIPSE
  5
812
100
AcDbEntity
  8
RACCORDO
100
AcDbEllipse
 62
7
  6
CONTINUOUS
 10
7.9054527347
 20
-3.3998909695
 30
0.0
 11
-0.0
 21
0.5
 31
0.0
 40
0.2679491924
 41
-1.5707963268
 42
-0.034906585
  0
ELLIPSE
  5
813
100
AcDbEntity
  8
RACCORDO
100
AcDbEllipse
 62
7
  6
CONTINUOUS
 10
-1.7912151657
 20
-3.3998909695
 30
0.0
 11
-0.0
 21
0.5
 31
0.0
 40
0.2679491924
 41
0.034906585
 42
1.5707963268
  0
ELLIPSE
  5
814
100
AcDbEntity
  8
RACCORDO
100
AcDbEllipse
 62
7
  6
CONTINUOUS
 10
-1.7912151657
 20
-5.3084874245
 30
0.0
 11
0.0
 21
0.5
 31
0.0
 40
0.2679491924
 41
-4.7123889804
 42
-3.1764992386
  0
ELLIPSE
  5
815
100
AcDbEntity
  8
RACCORDO
100
AcDbEllipse
 62
7
  6
CONTINUOUS
 10
-31.7379984979
 20
49.4409280854
 30
0.0
 11
-0.7073221892
 21
0.7073221892
 31
0.0
 40
0.9996954599
 41
-0.7852458701
 42
0.7852458701
  0
ELLIPSE
  5
816
100
AcDbEntity
  8
RACCORDO
100
AcDbEllipse
 62
7
  6
CONTINUOUS
 10
37.8522360669
 20
-58.1493064794
 30
0.0
 11
0.7073221892
 21
-0.7073221892
 31
0.0
 40
0.9996954599
 41
-0.7852458701
 42
0.7852458701
  0
ELLIPSE
  5
817
100
AcDbEntity
  8
RACCORDO
100
AcDbEllipse
 62
7
  6
CONTINUOUS
 10
-31.7379984979
 20
-58.1493064794
 30
0.0
 11
0.7073221892
 21
0.7073221892
 31
0.0
 40
0.9996954599
 41
2.3563467834
 42
3.9268385237
  0
ENDSEC
  0
SECTION
  2
OBJECTS
  0
DICTIONARY
  5
C
100
AcDbDictionary
280
0
281
1
  3
ACAD_GROUP
350
D
  3
ACAD_MLINESTYLE
350
17
  3
ACAD_LAYOUT
350
1A
  3
ACAD_PLOTSETTINGS
350
19
  3
ACAD_PLOTSTYLENAME
350
E
  0
DICTIONARY
  5
D
102
{ACAD_REACTORS
330
C
102
}
100
AcDbDictionary
280
0
281
1
  0
ACDBDICTIONARYWDFLT
  5
E
102
{ACAD_REACTORS
330
C
102
}
100
AcDbDictionary
281
1
  3
Normal
350
F
100
AcDbDictionaryWithDefault
340
F
  0
DICTIONARY
  5
17
102
{ACAD_REACTORS
330
C
102
}
100
AcDbDictionary
280
0
281
1
  3
Standard
350
18
  0
DICTIONARY
  5
19
102
{ACAD_REACTORS
330
C
102
}
100
AcDbDictionary
281
1
  0
DICTIONARY
  5
1A
102
{ACAD_REACTORS
330
C
102
}
100
AcDbDictionary
281
1
  3
Model
350
818
  3
Layout1
350
819
  0
ACDBPLACEHOLDER
  5
F
102
{ACAD_REACTORS
330
E
102
}
  0
MLINESTYLE
  5
18
102
{ACAD_REACTORS
330
17
102
}
100
AcDbMlineStyle
  2
STANDARD
 70
0
  3

 62
256
 51
90.0
 52
90.0
 71
2
 49
0.5
 62
256
  6
BYLAYER
 49
-0.5
 62
256
  6
BYLAYER
  0
LAYOUT
  5
818
102
{ACAD_REACTORS
330
1A
102
}
100
AcDbPlotSettings
  1

  2
none_device
  4
ANSI_C_(22.00_x_17.00_Inches)
  6

 40
0.0
 41
0.0
 42
0.0
 43
0.0
 44
558.8
 45
431.8
 46
0.0
 47
0.0
 48
0.0
 49
0.0
140
0.0
141
0.0
142
1.0
143
1.0
 70
1024
 72
1
 73
0
 74
0
  7

 75
0
147
1.0
148
0.0
149
0.0
100
AcDbLayout
  1
Model
 70
0
 71
0
 10
0.0
 20
0.0
 11
558.8
 21
431.8
 12
0.0
 22
0.0
 32
0.0
 14
0.0
 24
0.0
 34
0.0
 15
0.0
 25
0.0
 35
0.0
146
0.0
 13
0.0
 23
0.0
 33
0.0
 16
1.0
 26
0.0
 36
0.0
 17
0.0
 27
1.0
 37
0.0
 76
0
330
432
345
0
346
0
  0
LAYOUT
  5
819
102
{ACAD_REACTORS
330
1A
102
}
100
AcDbPlotSettings
  1

  2
none_device
  4
ANSI_C_(22.00_x_17.00_Inches)
  6

 40
0.0
 41
0.0
 42
0.0
 43
0.0
 44
558.8
 45
431.8
 46
0.0
 47
0.0
 48
0.0
 49
0.0
140
0.0
141
0.0
142
1.0
143
1.0
 70
0
 72
1
 73
0
 74
0
  7

 75
0
147
1.0
148
0.0
149
0.0
100
AcDbLayout
  1
Layout1
 70
0
 71
1
 10
0.0
 20
0.0
 11
558.8
 21
431.8
 12
0.0
 22
0.0
 32
0.0
 14
0.0
 24
0.0
 34
0.0
 15
0.0
 25
0.0
 35
0.0
146
0.0
 13
0.0
 23
0.0
 33
0.0
 16
1.0
 26
0.0
 36
0.0
 17
0.0
 27
1.0
 37
0.0
 76
0
330
433
345
0
346
0
  0
ENDSEC
  0
EOF
