  0
SECTION
  2
HEADER
  9
$ACADVER
  1
AC1021
  9
$DWGCODEPAGE
  3
ANSI_1252
  9
$EXTMAX
 10
297.0
 20
210.0
 30
0.0
  9
$EXTMIN
 10
0.0
 20
0.0
 30
0.0
  9
$LIMMIN
 10
0.0
 20
0.0
  9
$LIMMAX
 10
297.0
 20
210.0
  9
$VIEWCTR
 10
148.5
 20
105.0
  9
$VIEWSIZE
 40
210.0
  9
$CLAYER
  8
0
  9
$LTSCALE
 40
16.335
  9
$CELTYPE
  6
BYLAYER
  9
$DIMSCALE
 40
1.0
  9
$DIMASZ
 40
3.0
  9
$DIMEXO
 40
0.5
  9
$DIMDLI
 40
11.286
  9
$DIMEXE
 40
1.5
  9
$DIMCEN
 40
2.673
  9
$DIMLFAC
 40
1.0
  9
$DIMBLK
  1
_FILLED
  9
$DIMALT
 70
0
  9
$DIMALTF
 40
0.0393700787
  9
$DIMTXT
 40
3.0
  9
$DIMTOL
 70
1
  9
$DIMLIM
 70
0
  9
$DIMTFAC
 40
1.0
  9
$DIMTP
 40
0.01
  9
$DIMTM
 40
0.01
  9
$DIMGAP
 40
0.625
  9
$DIMDSEP
 70
44
  9
$AUNITS
 70
0
  9
$PDMODE
 70
3
  9
$PDSIZE
 40
3.0
  9
$HANDSEED
  5
3D2
  9
$TILEMODE
 70
1
  9
$MEASUREMENT
 70
1
  9
$INSUNITS
 70
4
  0
ENDSEC
  0
SECTION
  2
CLASSES
  0
CLASS
  1
ACDBDICTIONARYWDFLT
  2
AcDbDictionaryWithDefault
  3
AutoCAD 2000
 90
0
 91
1
280
0
281
0
  0
CLASS
  1
ACDBPLACEHOLDER
  2
AcDbPlaceHolder
  3
AutoCAD 2000
 90
0
 91
1
280
0
281
0
  0
CLASS
  1
LAYOUT
  2
AcDbLayout
  3
AutoCAD 2000
 90
0
 91
0
280
0
281
0
  0
ENDSEC
  0
SECTION
  2
TABLES
  0
TABLE
  2
VPORT
  5
8
100
AcDbSymbolTable
 70
2
  0
VPORT
  5
1F4
100
AcDbSymbolTableRecord
100
AcDbViewportTableRecord
  2
*ACTIVE
 70
0
 10
0.0
 20
0.0
 11
1.0
 21
1.0
 12
148.5
 22
105.0
 13
0.0
 23
0.0
 14
1.0
 24
1.0
 15
0.0
 25
0.0
 16
0.0
 26
0.0
 36
1.0
 17
0.0
 27
0.0
 37
0.0
 40
210.0
 41
1.4142857143
 42
50.0
 43
0.0
 44
0.0
 50
0.0
 51
0.0
 71
0
 72
100
 73
1
 74
1
 75
0
 76
0
 77
0
 78
0
  0
ENDTAB
  0
TABLE
  2
LTYPE
  5
5
100
AcDbSymbolTable
 70
6
  0
LTYPE
  5
14
100
AcDbSymbolTableRecord
100
AcDbLinetypeTableRecord
  2
BYBLOCK
 70
0
  3

 72
65
 73
0
 40
0.0
  0
LTYPE
  5
15
100
AcDbSymbolTableRecord
100
AcDbLinetypeTableRecord
  2
BYLAYER
 70
0
  3

 72
65
 73
0
 40
0.0
  0
LTYPE
  5
16
100
AcDbSymbolTableRecord
100
AcDbLinetypeTableRecord
  2
CONTINUOUS
 70
64
  3
Solid line
 72
65
 73
0
 40
0.0
  0
LTYPE
  5
1F5
100
AcDbSymbolTableRecord
100
AcDbLinetypeTableRecord
  2
CENTER
 70
64
  3
____ _ ____ _ ____ _ ____ _ ____ _ ____ _ ____
 72
65
 73
4
 40
0.6
 49
0.375
 74
0
 49
-0.075
 74
0
 49
0.075
 74
0
 49
-0.075
 74
0
  0
LTYPE
  5
1F6
100
AcDbSymbolTableRecord
100
AcDbLinetypeTableRecord
  2
HIDDEN
 70
64
  3
- - - - - - - - - - - - - - - - - - - -
 72
65
 73
2
 40
0.2
 49
0.1
 74
0
 49
-0.1
 74
0
  0
LTYPE
  5
1F7
100
AcDbSymbolTableRecord
100
AcDbLinetypeTableRecord
  2
PHANTOM
 70
64
  3
_____ _ _ _____ _ _ _____ _ _ _____
 72
65
 73
6
 40
0.8
 49
0.45
 74
0
 49
-0.05
 74
0
 49
0.1
 74
0
 49
-0.05
 74
0
 49
0.1
 74
0
 49
-0.05
 74
0
  0
LTYPE
  5
1F8
100
AcDbSymbolTableRecord
100
AcDbLinetypeTableRecord
  2
DOT
 70
64
  3
. . . . . . . . . . . . . . . . . . . .
 72
65
 73
2
 40
0.2
 49
0.1
 74
0
 49
-0.1
 74
0
  0
LTYPE
  5
1F9
100
AcDbSymbolTableRecord
100
AcDbLinetypeTableRecord
  2
DASHED
 70
64
  3
- - - - - - - - - - - - - - - - - - - -
 72
65
 73
2
 40
0.2
 49
0.1
 74
0
 49
-0.1
 74
0
  0
ENDTAB
  0
TABLE
  2
LAYER
  5
2
100
AcDbSymbolTable
 70
36
  0
LAYER
  5
10
100
AcDbSymbolTableRecord
100
AcDbLayerTableRecord
  2
0
 70
0
 62
7
  6
CONTINUOUS
370
-3
390
F
  0
LAYER
  5
1FA
100
AcDbSymbolTableRecord
100
AcDbLayerTableRecord
  2
DEFAULT_1
 70
0
 62
7
  6
CENTER
370
-3
390
F
  0
LAYER
  5
1FB
100
AcDbSymbolTableRecord
100
AcDbLayerTableRecord
  2
DEFAULT_2
 70
0
 62
7
  6
HIDDEN
370
-3
390
F
  0
LAYER
  5
1FC
100
AcDbSymbolTableRecord
100
AcDbLayerTableRecord
  2
DEFAULT_3
 70
0
 62
7
  6
PHANTOM
370
-3
390
F
  0
LAYER
  5
1FD
100
AcDbSymbolTableRecord
100
AcDbLayerTableRecord
  2
LAYER_32060
 70
0
 62
7
  6
CONTINUOUS
370
-3
390
F
  0
LAYER
  5
1FE
100
AcDbSymbolTableRecord
100
AcDbLayerTableRecord
  2
NONE
 70
0
 62
7
  6
CONTINUOUS
370
-3
390
F
  0
LAYER
  5
1FF
100
AcDbSymbolTableRecord
100
AcDbLayerTableRecord
  2
SNAPLINE
 70
0
 62
7
  6
CONTINUOUS
370
-3
390
F
  0
LAYER
  5
200
100
AcDbSymbolTableRecord
100
AcDbLayerTableRecord
  2
_33604
 70
0
 62
7
  6
CONTINUOUS
370
-3
390
F
  0
LAYER
  5
201
100
AcDbSymbolTableRecord
100
AcDbLayerTableRecord
  2
_51241
 70
0
 62
7
  6
CONTINUOUS
370
-3
390
F
  0
LAYER
  5
202
100
AcDbSymbolTableRecord
100
AcDbLayerTableRecord
  2
_56286
 70
0
 62
7
  6
CONTINUOUS
370
-3
390
F
  0
LAYER
  5
203
100
AcDbSymbolTableRecord
100
AcDbLayerTableRecord
  2
_57286
 70
0
 62
7
  6
CONTINUOUS
370
-3
390
F
  0
LAYER
  5
204
100
AcDbSymbolTableRecord
100
AcDbLayerTableRecord
  2
_58100
 70
0
 62
7
  6
CONTINUOUS
370
-3
390
F
  0
LAYER
  5
205
100
AcDbSymbolTableRecord
100
AcDbLayerTableRecord
  2
_62181
 70
0
 62
7
  6
CONTINUOUS
370
-3
390
F
  0
LAYER
  5
206
100
AcDbSymbolTableRecord
100
AcDbLayerTableRecord
  2
_62602
 70
0
 62
7
  6
CONTINUOUS
370
-3
390
F
  0
LAYER
  5
207
100
AcDbSymbolTableRecord
100
AcDbLayerTableRecord
  2
_63407
 70
0
 62
7
  6
CONTINUOUS
370
-3
390
F
  0
LAYER
  5
208
100
AcDbSymbolTableRecord
100
AcDbLayerTableRecord
  2
_64839
 70
0
 62
7
  6
CONTINUOUS
370
-3
390
F
  0
ENDTAB
  0
TABLE
  2
STYLE
  5
3
100
AcDbSymbolTable
 70
1
  0
STYLE
  5
11
100
AcDbSymbolTableRecord
100
AcDbTextStyleTableRecord
  2
STANDARD
 70
0
 40
0.0
 41
0.8
 50
0.0
 71
0
 42
0.2
  3
txt
  4

  0
STYLE
  5
209
100
AcDbSymbolTableRecord
100
AcDbTextStyleTableRecord
  2
TEXTSTYLE_1
 70
0
 40
0.0
 41
0.8
 50
0.0
 71
0
 42
0.2
  3
gdt
  4

  0
ENDTAB
  0
TABLE
  2
VIEW
  5
6
100
AcDbSymbolTable
 70
0
  0
ENDTAB
  0
TABLE
  2
UCS
  5
7
100
AcDbSymbolTable
 70
0
  0
ENDTAB
  0
TABLE
  2
APPID
  5
9
100
AcDbSymbolTable
 70
1
  0
APPID
  5
20A
100
AcDbSymbolTableRecord
100
AcDbRegAppTableRecord
  2
ACAD
 70
0
  0
ENDTAB
  0
TABLE
  2
BLOCK_RECORD
  5
1
100
AcDbSymbolTable
 70
0
  0
BLOCK_RECORD
  5
20B
100
AcDbSymbolTableRecord
100
AcDbBlockTableRecord
  2
*Model_Space
  0
BLOCK_RECORD
  5
20C
100
AcDbSymbolTableRecord
100
AcDbBlockTableRecord
  2
*Paper_Space
  0
ENDTAB
  0
TABLE
  2
DIMSTYLE
  5
A
100
AcDbSymbolTable
 70
1
100
AcDbDimStyleTable
 71
0
  0
DIMSTYLE
105
20D
100
AcDbSymbolTableRecord
100
AcDbDimStyleTableRecord
  2
STANDARD
 70
0
  3

  4

 40
1.0
 41
3.0
 42
0.5
 43
0.38
 44
1.5
 45
0.0
 46
0.0
 47
0.01
 48
0.01
140
3.0
141
0.09
142
0.0
143
25.4
144
1.0
145
0.0
146
1.0
147
0.625
 71
1.0
 72
0.0
 73
0
 74
0
 75
0
 76
0
 77
1
 78
8
170
0
171
2
172
0
173
0
174
0
175
0
176
0
177
0
178
0
270
2
271
2
272
2
273
2
274
2
275
0
280
0
281
0
282
0
283
1
284
8
285
0
286
0
287
3
288
0
340
11
278
44
  0
ENDTAB
  0
ENDSEC
  0
SECTION
  2
BLOCKS
  0
BLOCK
  5
20
100
AcDbEntity
  8
0
100
AcDbBlockBegin
  2
*Model_Space
 70
0
 10
0.0
 20
0.0
 30
0.0
  3
*Model_Space
  1

  0
ENDBLK
  5
21
100
AcDbEntity
  8
0
100
AcDbBlockEnd
  0
BLOCK
  5
1C
100
AcDbEntity
  8
0
100
AcDbBlockBegin
  2
*Paper_Space
 70
0
 10
0.0
 20
0.0
 30
0.0
  3
*Paper_Space
  1

  0
ENDBLK
  5
1D
100
AcDbEntity
  8
0
100
AcDbBlockEnd
  0
ENDSEC
  0
SECTION
  2
ENTITIES
  0
LWPOLYLINE
  5
20E
100
AcDbEntity
  8
_62181
100
AcDbPolyline
 62
7
  6
CONTINUOUS
 90
22
 70
0
 10
22.7748116475
 20
-57.3179445828
 10
23.3006805105
 20
-57.1907510605
 10
23.8118552387
 20
-57.030978154
 10
24.308335832
 20
-56.8386258632
 10
24.7920600522
 20
-56.6124967062
 10
25.2610901376
 20
-56.353788165
 10
25.7096128024
 20
-56.066092685
 10
26.1373834766
 20
-55.7490969222
 10
26.5446467302
 20
-55.4031142205
 10
26.9263229878
 20
-55.0326770581
 10
27.282118416
 20
-54.6375180212
 10
27.612326848
 20
-54.2179045235
 10
27.9127502085
 20
-53.7791712838
 10
28.1830594926
 20
-53.3210955828
 10
28.4235837051
 20
-52.8439001398
 10
28.631111785
 20
-52.3535878318
 10
28.8052814196
 20
-51.8499984003
 10
28.9464549215
 20
-51.3332921036
 10
29.0525081681
 20
-50.8099525939
 10
29.1227331184
 20
-50.2821410883
 10
29.1578378132
 20
-49.7476963696
 10
29.1578222527
 20
-49.2066184378
  0
LWPOLYLINE
  5
20F
100
AcDbEntity
  8
_58100
100
AcDbPolyline
 62
7
  6
CONTINUOUS
 90
22
 70
0
 10
22.7535985951
 20
-57.3044661326
 10
23.278144529
 20
-57.1779761043
 10
23.7884133688
 20
-57.018806946
 10
24.2844051144
 20
-56.8269586576
 10
24.7681341011
 20
-56.601271845
 10
25.2375859937
 20
-56.3429059025
 10
25.6867177863
 20
-56.0553390121
 10
26.1152831479
 20
-55.7382053227
 10
26.5235284095
 20
-55.3918706854
 10
26.9061495585
 20
-55.0209108366
 10
27.2628218449
 20
-54.6250171374
 10
27.5938700188
 20
-54.2044982266
 10
27.8949643165
 20
-53.7648557567
 10
28.1657283436
 20
-53.305846793
 10
28.4065384946
 20
-52.8277142702
 10
28.6141941898
 20
-52.3366886452
 10
28.7882813825
 20
-51.832615467
 10
28.9292141193
 20
-51.3156491865
 10
29.0350339607
 20
-50.7924836134
 10
29.1050880935
 20
-50.2653500175
 10
29.1400293308
 20
-49.7320171289
 10
29.1398576727
 20
-49.1924849477
  0
LINE
  5
210
100
AcDbEntity
  8
_58100
100
AcDbLine
 62
253
  6
CONTINUOUS
 10
22.5084067257
 20
-57.0818361198
 11
22.5465687702
 21
-57.0735775264
  0
LINE
  5
211
100
AcDbEntity
  8
_58100
100
AcDbLine
 62
253
  6
CONTINUOUS
 10
-25.0920268023
 20
-57.0735775269
 11
-25.0538641832
 21
-57.0818362432
  0
LWPOLYLINE
  5
212
100
AcDbEntity
  8
_58100
100
AcDbPolyline
 62
253
  6
CONTINUOUS
 90
13
 70
0
 10
-25.0920268023
 20
-57.0735775269
 10
-25.3802844235
 20
-57.0050664834
 10
-25.6666712152
 20
-56.9261589558
 10
-25.9507803217
 20
-56.8369261361
 10
-26.232985207
 20
-56.7371609599
 10
-26.5120808847
 20
-56.6272015232
 10
-26.7853993353
 20
-56.508220008
 10
-27.0546419794
 20
-56.3796137588
 10
-27.317495852
 20
-56.242616985
 10
-27.5658780348
 20
-56.1023082235
 10
-27.7975201414
 20
-55.9615479976
 10
-28.0154349515
 20
-55.8199963829
 10
-28.2200080088
 20
-55.6787073537
  0
LWPOLYLINE
  5
213
100
AcDbEntity
  8
_58100
100
AcDbPolyline
 62
253
  6
CONTINUOUS
 90
16
 70
0
 10
-24.4652621803
 20
-56.2629837171
 10
-24.7473189706
 20
-56.1515843618
 10
-25.0431775961
 20
-56.0223603633
 10
-25.3514360702
 20
-55.8740717798
 10
-25.6747636527
 20
-55.7033989529
 10
-26.0065033331
 20
-55.5113781206
 10
-26.3315611781
 20
-55.3054691033
 10
-26.6474113038
 20
-55.0878262329
 10
-26.9534019369
 20
-54.8592405233
 10
-27.239195386
 20
-54.6280554437
 10
-27.5004478822
 20
-54.4002296478
 10
-27.7418250273
 20
-54.17435788
 10
-27.9672725824
 20
-53.9481091731
 10
-28.1777227074
 20
-53.7214850869
 10
-28.3718126103
 20
-53.4971269053
 10
-28.5495799141
 20
-53.276233639
  0
LINE
  5
214
100
AcDbEntity
  8
_64839
100
AcDbLine
 62
7
  6
CONTINUOUS
 10
-13.0152066261
 20
57.5068961245
 11
-22.0797337546
 21
54.8963123115
  0
LINE
  5
215
100
AcDbEntity
  8
_64839
100
AcDbLine
 62
7
  6
CONTINUOUS
 10
-21.6922820965
 20
53.5509940545
 11
-12.6277549682
 21
56.1615778674
  0
LINE
  5
216
100
AcDbEntity
  8
_64839
100
AcDbLine
 62
253
  6
CONTINUOUS
 10
-12.4617042576
 20
55.5850129001
 11
-21.5262313859
 21
52.9744290872
  0
LINE
  5
217
100
AcDbEntity
  8
_58100
100
AcDbLine
 62
253
  6
CONTINUOUS
 10
21.8960601199
 20
-56.2681867595
 11
21.9198043656
 21
-56.2629839378
  0
LINE
  5
218
100
AcDbEntity
  8
_58100
100
AcDbLine
 62
253
  6
CONTINUOUS
 10
21.8722652627
 20
-56.2732735914
 11
21.8960601199
 21
-56.2681867595
  0
LINE
  5
219
100
AcDbEntity
  8
_58100
100
AcDbLine
 62
253
  6
CONTINUOUS
 10
22.4702405002
 20
-57.0898998751
 11
22.5084067257
 21
-57.0818361198
  0
LINE
  5
21A
100
AcDbEntity
  8
_58100
100
AcDbLine
 62
253
  6
CONTINUOUS
 10
21.8484212963
 20
-56.2782441102
 11
21.8722652627
 21
-56.2732735914
  0
LINE
  5
21B
100
AcDbEntity
  8
_58100
100
AcDbLine
 62
253
  6
CONTINUOUS
 10
22.4320710576
 20
-57.097769121
 11
22.4702405002
 21
-57.0898998751
  0
LWPOLYLINE
  5
21C
100
AcDbEntity
  8
_58100
100
AcDbPolyline
 62
7
  6
CONTINUOUS
 90
12
 70
0
 10
-2.361834124
 20
-58.0917162016
 10
-2.4940014019
 20
-58.0952564835
 10
-2.6160003635
 20
-58.0991521009
 10
-2.7275985182
 20
-58.103410963
 10
-2.8290283568
 20
-58.1080251606
 10
-2.9180053999
 20
-58.1128912059
 10
-2.9942518947
 20
-58.1180188511
 10
-3.0580455942
 20
-58.123398344
 10
-3.1079352782
 20
-58.1288969399
 10
-3.1434372067
 20
-58.1344703906
 10
-3.1650351197
 20
-58.1401629443
 10
-3.1727290173
 20
-58.1459746011
  0
LINE
  5
21D
100
AcDbEntity
  8
_58100
100
AcDbLine
 62
7
  6
CONTINUOUS
 10
-2.0757875571
 20
-58.0859507698
 11
-2.361834124
 21
-58.0917162016
  0
LWPOLYLINE
  5
21E
100
AcDbEntity
  8
_58100
100
AcDbPolyline
 62
253
  6
CONTINUOUS
 90
10
 70
0
 10
13.7272709827
 20
-57.9820689863
 10
14.6958197171
 20
-57.9712200743
 10
15.6655313708
 20
-57.9386289518
 10
16.6359003128
 20
-57.8842052262
 10
17.6068314451
 20
-57.8078378082
 10
18.5773943335
 20
-57.7094749704
 10
19.5458318915
 20
-57.5892148316
 10
20.5112219626
 20
-57.4471565864
 10
21.4734692165
 20
-57.2833101937
 10
22.4320651799
 20
-57.0977395056
  0
LINE
  5
21F
100
AcDbEntity
  8
_58100
100
AcDbLine
 62
7
  6
CONTINUOUS
 10
-1.7642833145
 20
-58.0819857951
 11
-2.0757875571
 21
-58.0859507698
  0
LWPOLYLINE
  5
220
100
AcDbEntity
  8
_58100
100
AcDbPolyline
 62
253
  6
CONTINUOUS
 90
10
 70
0
 10
13.7272754917
 20
-57.1052168488
 10
14.628524469
 20
-57.0953704955
 10
15.5307224565
 20
-57.0650317135
 10
16.4338694543
 20
-57.0142005028
 10
17.3388639571
 20
-56.9429001273
 10
18.2448074701
 20
-56.851107323
 10
19.149004509
 20
-56.7387522983
 10
20.0505565789
 20
-56.6058117893
 10
20.9503621747
 20
-56.4523090599
 10
21.8484212963
 20
-56.2782441102
  0
LINE
  5
221
100
AcDbEntity
  8
_58100
100
AcDbLine
 62
7
  6
CONTINUOUS
 10
-1.4400902136
 20
-58.0799956071
 11
-1.7642833145
 21
-58.0819857951
  0
LINE
  5
222
100
AcDbEntity
  8
_62181
100
AcDbLine
 62
7
  6
CONTINUOUS
 10
-16.2727290172
 20
-58.2368703242
 11
13.7272709825
 21
-58.2368703242
  0
LINE
  5
223
100
AcDbEntity
  8
_58100
100
AcDbLine
 62
7
  6
CONTINUOUS
 10
1.4772709827
 20
-58.2368703242
 11
-4.0227290173
 21
-58.2368703242
  0
LINE
  5
224
100
AcDbEntity
  8
_58100
100
AcDbLine
 62
7
  6
CONTINUOUS
 10
-3.1727290173
 20
-58.2194099394
 11
0.6272709827
 21
-58.2194099394
  0
LINE
  5
225
100
AcDbEntity
  8
_58100
100
AcDbLine
 62
7
  6
CONTINUOUS
 10
13.7272709827
 20
-58.2194099394
 11
1.4772709827
 21
-58.2194099394
  0
LINE
  5
226
100
AcDbEntity
  8
_58100
100
AcDbLine
 62
7
  6
CONTINUOUS
 10
-4.0227290173
 20
-58.2194099394
 11
-16.2727290173
 21
-58.2194099394
  0
LINE
  5
227
100
AcDbEntity
  8
_58100
100
AcDbLine
 62
7
  6
CONTINUOUS
 10
-4.0227290173
 20
-58.0622664767
 11
1.4772709827
 21
-58.0622664767
  0
LINE
  5
228
100
AcDbEntity
  8
_58100
100
AcDbLine
 62
7
  6
CONTINUOUS
 10
-4.0227290173
 20
-57.9924249377
 11
1.4772709827
 21
-57.9924249377
  0
LINE
  5
229
100
AcDbEntity
  8
_58100
100
AcDbLine
 62
253
  6
CONTINUOUS
 10
-16.2727290173
 20
-57.9820689863
 11
13.7272709827
 21
-57.9820689863
  0
LINE
  5
22A
100
AcDbEntity
  8
_58100
100
AcDbLine
 62
253
  6
CONTINUOUS
 10
13.7272754917
 20
-57.1052168488
 11
-16.2727290173
 21
-57.1052168488
  0
LINE
  5
22B
100
AcDbEntity
  8
_58100
100
AcDbLine
 62
7
  6
CONTINUOUS
 10
-1.1042303685
 20
-58.0799873713
 11
-1.4400902136
 21
-58.0799956071
  0
LINE
  5
22C
100
AcDbEntity
  8
_58100
100
AcDbLine
 62
7
  6
CONTINUOUS
 10
-0.7773348469
 20
-58.0820218082
 11
-1.1042303685
 21
-58.0799873713
  0
LINE
  5
22D
100
AcDbEntity
  8
_58100
100
AcDbLine
 62
7
  6
CONTINUOUS
 10
-0.4594812761
 20
-58.0861327705
 11
-0.7773348469
 21
-58.0820218082
  0
LWPOLYLINE
  5
22E
100
AcDbEntity
  8
_58100
100
AcDbPolyline
 62
253
  6
CONTINUOUS
 90
10
 70
0
 10
-24.9775247142
 20
-57.0977391953
 10
-24.0188987498
 20
-57.283315355
 10
-23.0566287162
 20
-57.4471647118
 10
-22.0912232066
 20
-57.5892238952
 10
-21.122777601
 20
-57.7094834192
 10
-20.1522141806
 20
-57.8078445891
 10
-19.1812902278
 20
-57.8842098221
 10
-18.2109362525
 20
-57.9386313627
 10
-17.2412473108
 20
-57.9712207868
 10
-16.2727290173
 20
-57.9820689863
  0
LWPOLYLINE
  5
22F
100
AcDbEntity
  8
_58100
100
AcDbPolyline
 62
253
  6
CONTINUOUS
 90
10
 70
0
 10
-24.3938791804
 20
-56.2782438504
 10
-23.4958195448
 20
-56.452308682
 10
-22.5960135285
 20
-56.6058113161
 10
-21.6944611314
 20
-56.7387517528
 10
-20.7902639735
 20
-56.8511067096
 10
-19.8843204349
 20
-56.942899469
 10
-18.979325656
 20
-57.0141998779
 10
-18.0761780168
 20
-57.0650312187
 10
-17.1739791372
 20
-57.095370209
 10
-16.2727290173
 20
-57.1052168488
  0
LINE
  5
230
100
AcDbEntity
  8
_58100
100
AcDbLine
 62
253
  6
CONTINUOUS
 10
-25.0156984584
 20
-57.0898998895
 11
-24.9775305919
 21
-57.0977688107
  0
LINE
  5
231
100
AcDbEntity
  8
_58100
100
AcDbLine
 62
253
  6
CONTINUOUS
 10
-24.4177228482
 20
-56.2732729073
 11
-24.3938791804
 21
-56.2782438504
  0
LINE
  5
232
100
AcDbEntity
  8
_58100
100
AcDbLine
 62
253
  6
CONTINUOUS
 10
-25.0538641832
 20
-57.0818362432
 11
-25.0156984584
 21
-57.0898998895
  0
LINE
  5
233
100
AcDbEntity
  8
_58100
100
AcDbLine
 62
253
  6
CONTINUOUS
 10
-24.4415175917
 20
-56.2681861034
 11
-24.4177228482
 21
-56.2732729073
  0
LINE
  5
234
100
AcDbEntity
  8
_58100
100
AcDbLine
 62
253
  6
CONTINUOUS
 10
-24.465262167
 20
-56.2629837053
 11
-24.4415175917
 21
-56.2681861034
  0
LWPOLYLINE
  5
235
100
AcDbEntity
  8
_58100
100
AcDbPolyline
 62
253
  6
CONTINUOUS
 90
16
 70
0
 10
-27.0556352524
 20
48.9580006621
 10
-27.1701727845
 20
48.8516654991
 10
-27.2796718789
 20
48.738808483
 10
-27.3837238627
 20
48.6196350574
 10
-27.4819649069
 20
48.4943241274
 10
-27.5739537283
 20
48.3631835119
 10
-27.6592022186
 20
48.2266702781
 10
-27.7372935548
 20
48.0852442955
 10
-27.807975901
 20
47.9391331456
 10
-27.8710203588
 20
47.7884818095
 10
-27.9261238528
 20
47.633566372
 10
-27.9729190851
 20
47.4748999166
 10
-28.0110858557
 20
47.3130087915
 10
-28.0403548265
 20
47.1483866469
 10
-28.0604930311
 20
46.9814886849
 10
-28.0712852066
 20
46.8128209931
  0
LWPOLYLINE
  5
236
100
AcDbEntity
  8
_58100
100
AcDbPolyline
 62
253
  6
CONTINUOUS
 90
10
 70
0
 10
-27.3926168363
 20
48.0146610942
 10
-27.2517413297
 20
48.1236965893
 10
-27.0999110133
 20
48.2256084944
 10
-26.9378899769
 20
48.3198839354
 10
-26.7664935948
 20
48.4060484689
 10
-26.5865844239
 20
48.4836684698
 10
-26.3990678626
 20
48.5523533132
 10
-26.204887593
 20
48.611757341
 10
-26.0050208319
 20
48.6615816014
 10
-25.8004734136
 20
48.7015753527
  0
LWPOLYLINE
  5
237
100
AcDbEntity
  8
_58100
100
AcDbPolyline
 62
253
  6
CONTINUOUS
 90
10
 70
0
 10
-26.1003745174
 20
49.525546842
 10
-26.2286115404
 20
49.4753894579
 10
-26.3513534661
 20
49.420845692
 10
-26.4685382018
 20
49.3624406035
 10
-26.5801387836
 20
49.3006828282
 10
-26.6861628155
 20
49.2360615912
 10
-26.7866492388
 20
49.1690450672
 10
-26.8816621124
 20
49.1000813809
 10
-26.9712879401
 20
49.0295982037
 10
-27.0556352524
 20
48.9580006621
  0
LINE
  5
238
100
AcDbEntity
  8
_62181
100
AcDbLine
 62
7
  6
CONTINUOUS
 10
-24.9727290173
 20
50.2326184034
 11
-26.3723953271
 21
49.7231815288
  0
LINE
  5
239
100
AcDbEntity
  8
_58100
100
AcDbLine
 62
7
  6
CONTINUOUS
 10
-26.3553565963
 20
49.7108021663
 11
-24.9727290173
 21
50.2140374501
  0
LINE
  5
23A
100
AcDbEntity
  8
_58100
100
AcDbLine
 62
253
  6
CONTINUOUS
 10
-24.9727290173
 20
49.9359762278
 11
-26.1003745073
 21
49.5255468346
  0
LINE
  5
23B
100
AcDbEntity
  8
_58100
100
AcDbLine
 62
253
  6
CONTINUOUS
 10
-24.9727290173
 20
49.0028496733
 11
-25.8005074852
 21
48.7015629504
  0
LWPOLYLINE
  5
23C
100
AcDbEntity
  8
_58100
100
AcDbPolyline
 62
253
  6
CONTINUOUS
 90
16
 70
0
 10
15.5009823028
 20
-49.8441618738
 10
15.8234124427
 20
-49.7534289277
 10
16.1433602738
 20
-49.6374304255
 10
16.4594538741
 20
-49.4959717246
 10
16.7745741077
 20
-49.326332909
 10
17.0824664047
 20
-49.1308967814
 10
17.3686742325
 20
-48.9192130928
 10
17.6238804015
 20
-48.7010103914
 10
17.8566176924
 20
-48.4712029012
 10
18.0788439606
 20
-48.2172371416
 10
18.2953235666
 20
-47.9305560411
 10
18.4962709695
 20
-47.620259025
 10
18.6718330161
 20
-47.2999423839
 10
18.819250122
 20
-46.975596266
 10
18.9408734281
 20
-46.6446648337
 10
19.0365158053
 20
-46.3086275647
  0
LWPOLYLINE
  5
23D
100
AcDbEntity
  8
_58100
100
AcDbPolyline
 62
253
  6
CONTINUOUS
 90
10
 70
0
 10
-24.9775179223
 20
-57.0977247727
 10
-24.924592474
 20
-57.088462829
 10
-24.8673867304
 20
-57.0579012609
 10
-24.8064504797
 20
-57.0059632032
 10
-24.7427067705
 20
-56.9334011432
 10
-24.6766083596
 20
-56.8408903787
 10
-24.6080122773
 20
-56.7281383034
 10
-24.5373508948
 20
-56.5955278183
 10
-24.4657048081
 20
-56.444947826
 10
-24.3938828984
 20
-56.2782433853
  0
LWPOLYLINE
  5
23E
100
AcDbEntity
  8
_58100
100
AcDbPolyline
 62
253
  6
CONTINUOUS
 90
10
 70
0
 10
-25.0920053426
 20
-57.0735065478
 10
-25.0351238019
 20
-57.0655840567
 10
-24.9736320227
 20
-57.0362129069
 10
-24.9081476422
 20
-56.9853499547
 10
-24.8397265895
 20
-56.9138426619
 10
-24.7688569992
 20
-56.8224355088
 10
-24.6952843347
 20
-56.7107350935
 10
-24.6194201626
 20
-56.5790103311
 10
-24.5424587955
 20
-56.4291634036
 10
-24.4652661404
 20
-56.2630040378
  0
LINE
  5
23F
100
AcDbEntity
  8
_58100
100
AcDbLine
 62
253
  6
CONTINUOUS
 10
-5.7727290173
 20
-55.551267968
 11
3.2272690568
 21
-55.551267968
  0
LINE
  5
240
100
AcDbEntity
  8
_58100
100
AcDbLine
 62
253
  6
CONTINUOUS
 10
1.7173709019
 20
-54.1370546563
 11
-4.2628290423
 21
-54.1370546563
  0
LINE
  5
241
100
AcDbEntity
  8
_58100
100
AcDbLine
 62
253
  6
CONTINUOUS
 10
-3.9727290173
 20
-52.7512683871
 11
-4.7727290173
 21
-52.7512683871
  0
LINE
  5
242
100
AcDbEntity
  8
_58100
100
AcDbLine
 62
253
  6
CONTINUOUS
 10
2.2272709827
 20
-52.7512680559
 11
1.4272709832
 21
-52.7512680559
  0
LINE
  5
243
100
AcDbEntity
  8
_58100
100
AcDbLine
 62
253
  6
CONTINUOUS
 10
-19.2556637499
 20
44.0865256607
 11
-15.8900634901
 21
45.3115039757
  0
LWPOLYLINE
  5
244
100
AcDbEntity
  8
_58100
100
AcDbPolyline
 62
253
  6
CONTINUOUS
 90
3
 70
0
 10
-15.563842116
 20
45.4250756642
 10
-15.6603739218
 20
45.3930670652
 10
-15.8901108504
 20
45.3116347137
  0
LWPOLYLINE
  5
245
100
AcDbEntity
  8
_58100
100
AcDbPolyline
 62
253
  6
CONTINUOUS
 90
16
 70
0
 10
-5.7727290173
 20
-49.8441614735
 10
-5.667436586
 20
-49.8402308807
 10
-5.5644011252
 20
-49.8286468732
 10
-5.4646899345
 20
-49.8097774894
 10
-5.3698579413
 20
-49.7842389381
 10
-5.2801409969
 20
-49.7524232981
 10
-5.1947382791
 20
-49.7140844604
 10
-5.1142141607
 20
-49.6692004353
 10
-5.0400727475
 20
-49.6183107521
 10
-4.9731816953
 20
-49.5617452148
 10
-4.9144311891
 20
-49.4999078569
 10
-4.8648080085
 20
-49.4334323583
 10
-4.8252109237
 20
-49.3631182479
 10
-4.7963266005
 20
-49.2897608161
 10
-4.7786856619
 20
-49.2141189755
 10
-4.7727290173
 20
-49.1370546925
  0
LWPOLYLINE
  5
246
100
AcDbEntity
  8
_58100
100
AcDbPolyline
 62
253
  6
CONTINUOUS
 90
31
 70
0
 10
15.5009797699
 20
-47.7228411299
 10
15.5919592947
 20
-47.7206401206
 10
15.6798727627
 20
-47.7147856426
 10
15.7647201739
 20
-47.7052776959
 10
15.8465870756
 20
-47.6919611023
 10
15.9253879205
 20
-47.6749910401
 10
16.0008660666
 20
-47.6548330436
 10
16.0729170888
 20
-47.6314915993
 10
16.1416454121
 20
-47.6049622207
 10
16.20710767
 20
-47.575696983
 10
16.2692325626
 20
-47.5437445035
 10
16.3280913899
 20
-47.5090561649
 10
16.3839546853
 20
-47.4719381906
 10
16.4367891012
 20
-47.4325415459
 10
16.4866279853
 20
-47.3907152654
 10
16.5338419139
 20
-47.3463126775
 10
16.5784882408
 20
-47.2994131372
 10
16.6205096121
 20
-47.2499372894
 10
16.6601045425
 20
-47.1975003968
 10
16.6974221338
 20
-47.1421111641
 10
16.7323132843
 20
-47.0837608867
 10
16.7645292031
 20
-47.0220387135
 10
16.7941467461
 20
-46.9568806793
 10
16.8210890576
 20
-46.8883507494
 10
16.8448767793
 20
-46.8162299679
 10
16.8655428117
 20
-46.7404094945
 10
16.8830542543
 20
-46.6609981694
 10
16.8968330469
 20
-46.5781035577
 10
16.9066865028
 20
-46.4917615143
 10
16.9128073087
 20
-46.4019361843
 10
16.9151954645
 20
-46.3086275675
  0
LINE
  5
247
100
AcDbEntity
  8
_58100
100
AcDbLine
 62
253
  6
CONTINUOUS
 10
-18.0464399371
 20
-49.8441614726
 11
-5.7727290173
 21
-49.8441614726
  0
LINE
  5
248
100
AcDbEntity
  8
_58100
100
AcDbLine
 62
253
  6
CONTINUOUS
 10
3.2272690568
 20
-49.8441614735
 11
15.5009819036
 21
-49.8441614735
  0
LINE
  5
249
100
AcDbEntity
  8
_58100
100
AcDbLine
 62
253
  6
CONTINUOUS
 10
15.5009797699
 20
-47.7228411299
 11
2.2272709827
 21
-47.7228411299
  0
LINE
  5
24A
100
AcDbEntity
  8
_58100
100
AcDbLine
 62
253
  6
CONTINUOUS
 10
-4.7727290173
 20
-47.7228411299
 11
-18.0464399368
 21
-47.7228411299
  0
LWPOLYLINE
  5
24B
100
AcDbEntity
  8
_58100
100
AcDbPolyline
 62
253
  6
CONTINUOUS
 90
10
 70
0
 10
-30.6303107941
 20
-49.1555176824
 10
-30.7991480036
 20
-49.1427670752
 10
-30.952095452
 20
-49.130106826
 10
-31.0881017189
 20
-49.1176245551
 10
-31.2061235604
 20
-49.1054187508
 10
-31.3055004468
 20
-49.0935608797
 10
-31.3857680434
 20
-49.0820987215
 10
-31.4462503704
 20
-49.0711051636
 10
-31.4862595167
 20
-49.0606736469
 10
-31.505336526
 20
-49.0508829718
  0
LINE
  5
24C
100
AcDbEntity
  8
_58100
100
AcDbLine
 62
253
  6
CONTINUOUS
 10
-4.262830276
 20
-54.1370565731
 11
-4.9338836064
 21
-53.8291101987
  0
LWPOLYLINE
  5
24D
100
AcDbEntity
  8
_58100
100
AcDbPolyline
 62
253
  6
CONTINUOUS
 90
13
 70
0
 10
-25.8005415585
 20
48.6692984398
 10
-25.95456331
 20
48.3766688812
 10
-26.1034733467
 20
48.0752176669
 10
-26.2463610244
 20
47.7666292135
 10
-26.3801729797
 20
47.4562928292
 10
-26.5067760421
 20
47.1423607613
 10
-26.631617315
 20
46.8144199075
 10
-26.7560565114
 20
46.4637911286
 10
-26.8741755815
 20
46.1001165891
 10
-26.981033951
 20
45.740549442
 10
-27.0758499756
 20
45.3924079053
 10
-27.1598808206
 20
45.0521537112
 10
-27.2333617811
 20
44.7213549745
  0
LWPOLYLINE
  5
24E
100
AcDbEntity
  8
_58100
100
AcDbPolyline
 62
253
  6
CONTINUOUS
 90
5
 70
0
 10
-19.2556637492
 20
44.0865256611
 10
-19.5514766412
 20
43.8955692154
 10
-19.8316551394
 20
43.6850512826
 10
-20.0950825235
 20
43.4562944344
 10
-20.0992851025
 20
43.4520923991
  0
LINE
  5
24F
100
AcDbEntity
  8
_58100
100
AcDbLine
 62
253
  6
CONTINUOUS
 10
-16.3036230212
 20
42.9035767537
 11
-18.0544904035
 21
42.2662674579
  0
LINE
  5
250
100
AcDbEntity
  8
_58100
100
AcDbLine
 62
253
  6
CONTINUOUS
 10
19.0365158075
 20
-46.3086318026
 11
16.9151954645
 21
-46.3086318026
  0
LINE
  5
251
100
AcDbEntity
  8
_58100
100
AcDbLine
 62
253
  6
CONTINUOUS
 10
-19.4606534992
 20
-46.3086311974
 11
-21.5819738427
 21
-46.3086311974
  0
LWPOLYLINE
  5
252
100
AcDbEntity
  8
_58100
100
AcDbPolyline
 62
7
  6
CONTINUOUS
 90
13
 70
0
 10
0.6272709827
 20
-58.1460763235
 10
0.6208640318
 20
-58.1404352082
 10
0.600422804
 20
-58.1348616098
 10
0.5659472994
 20
-58.1293555285
 10
0.5168153815
 20
-58.123850697
 10
0.4536491867
 20
-58.1184133824
 10
0.3783151242
 20
-58.1132423869
 10
0.2908795928
 20
-58.1083795891
 10
0.1912761937
 20
-58.1037831102
 10
0.0811721388
 20
-58.0995261157
 10
-0.0395915268
 20
-58.0956047657
 10
-0.1708558482
 20
-58.0920229
 10
-0.4594812761
 20
-58.0861327705
  0
LINE
  5
253
100
AcDbEntity
  8
_58100
100
AcDbLine
 62
253
  6
CONTINUOUS
 10
22.4320710576
 20
-57.097769121
 11
22.754012629
 21
-57.3043864127
  0
LWPOLYLINE
  5
254
100
AcDbEntity
  8
_62181
100
AcDbPolyline
 62
7
  6
CONTINUOUS
 90
22
 70
0
 10
-31.7032804745
 20
-49.2066237967
 10
-31.7032961865
 20
-49.7476993652
 10
-31.6681916008
 20
-50.2821423166
 10
-31.5979667174
 20
-50.8099526508
 10
-31.491913482
 20
-51.3332917845
 10
-31.3507399489
 20
-51.8499983011
 10
-31.1765702805
 20
-52.3535879505
 10
-30.9690421771
 20
-52.8439002752
 10
-30.7285179385
 20
-53.3210957327
 10
-30.4582086262
 20
-53.7791714453
 10
-30.1577852354
 20
-54.2179046938
 10
-29.8275767709
 20
-54.6375181975
 10
-29.4717813092
 20
-55.032677237
 10
-29.0901050168
 20
-55.4031143985
 10
-28.682841727
 20
-55.7490970958
 10
-28.2550710164
 20
-56.0660928506
 10
-27.8065483074
 20
-56.353788321
 10
-27.3375181776
 20
-56.6124968489
 10
-26.8537939356
 20
-56.8386259816
 10
-26.357313351
 20
-57.030978235
 10
-25.8461386544
 20
-57.1907510932
 10
-25.3202698455
 20
-57.3179445564
  0
LWPOLYLINE
  5
255
100
AcDbEntity
  8
_58100
100
AcDbPolyline
 62
7
  6
CONTINUOUS
 90
22
 70
0
 10
-31.6853095231
 20
-49.1923078535
 10
-31.6854812511
 20
-49.7319577857
 10
-31.6505363529
 20
-50.2653838541
 10
-31.5804748285
 20
-50.7925860587
 10
-31.4746427986
 20
-51.315789135
 10
-31.3336941425
 20
-51.8327683475
 10
-31.1595904982
 20
-52.33684949
 10
-30.951918083
 20
-52.827884446
 10
-30.7110906795
 20
-53.306021332
 10
-30.4403112738
 20
-53.7650302919
 10
-30.1392036296
 20
-54.2046680836
 10
-29.8081439832
 20
-54.6251779493
 10
-29.4514640299
 20
-55.0210597595
 10
-29.0688392822
 20
-55.3920046499
 10
-28.6605942275
 20
-55.7383214848
 10
-28.2320340233
 20
-56.0554367271
 10
-27.7829076536
 20
-56.3429852692
 10
-27.3134661343
 20
-56.6013322187
 10
-26.8297676709
 20
-56.8269993613
 10
-26.3338316652
 20
-57.0188272921
 10
-25.8236387154
 20
-57.1779754159
 10
-25.2991888214
 20
-57.3044437328
  0
LWPOLYLINE
  5
256
100
AcDbEntity
  8
_58100
100
AcDbPolyline
 62
253
  6
CONTINUOUS
 90
10
 70
0
 10
-28.0712852009
 20
46.812820989
 10
-28.0532566757
 20
46.9579554354
 10
-28.0202396951
 20
47.1018329124
 10
-27.972400418
 20
47.2437293528
 10
-27.9099795967
 20
47.3829306597
 10
-27.8332913656
 20
47.518736299
 10
-27.7427216605
 20
47.6504628251
 10
-27.6387262758
 20
47.7774473213
 10
-27.5218285708
 20
47.899050735
 10
-27.3926168363
 20
48.0146610942
  0
LINE
  5
257
100
AcDbEntity
  8
_58100
100
AcDbLine
 62
253
  6
CONTINUOUS
 10
-25.5669245578
 20
21.9242745231
 11
-25.8748671434
 21
21.2532297297
  0
LINE
  5
258
100
AcDbEntity
  8
0
100
AcDbLine
 62
7
  6
CONTINUOUS
 10
5.5272709827
 20
49.0631296758
 11
5.0272709827
 21
48.5631296758
  0
LWPOLYLINE
  5
259
100
AcDbEntity
  8
_58100
100
AcDbPolyline
 62
253
  6
CONTINUOUS
 90
16
 70
0
 10
-21.5819738394
 20
-46.3086275642
 10
-21.4925152993
 20
-46.6264822038
 10
-21.3787119749
 20
-46.9417398863
 10
-21.2404162017
 20
-47.2530965357
 10
-21.075375188
 20
-47.5630122163
 10
-20.8856196556
 20
-47.8658666261
 10
-20.6792319081
 20
-48.1487422189
 10
-20.4653926393
 20
-48.4026242586
 10
-20.239118119
 20
-48.6355683444
 10
-19.9870916381
 20
-48.8596974656
 10
-19.7004502793
 20
-49.0799475264
 10
-19.3882510146
 20
-49.2859067447
 10
-19.0637683431
 20
-49.4666383859
 10
-18.7329246939
 20
-49.6188491605
 10
-18.393292449
 20
-49.7448556916
 10
-18.0464399351
 20
-49.844161472
  0
LINE
  5
25A
100
AcDbEntity
  8
_58100
100
AcDbLine
 62
253
  6
CONTINUOUS
 10
-27.289080579
 20
22.7631296758
 11
-27.289080579
 21
13.7631315943
  0
LINE
  5
25B
100
AcDbEntity
  8
_58100
100
AcDbLine
 62
253
  6
CONTINUOUS
 10
-28.0725432517
 20
46.5262528964
 11
-28.071285201
 21
46.812820989
  0
LWPOLYLINE
  5
25C
100
AcDbEntity
  8
_58100
100
AcDbPolyline
 62
253
  6
CONTINUOUS
 90
19
 70
0
 10
-31.505308644
 20
-49.0508173737
 10
-31.5092347208
 20
-49.4528718811
 10
-31.4917343108
 20
-49.8642705017
 10
-31.4512919213
 20
-50.2838563272
 10
-31.3849289364
 20
-50.7184448792
 10
-31.2917971821
 20
-51.1582255132
 10
-31.1777323744
 20
-51.5776872098
 10
-31.0511605961
 20
-51.9601722447
 10
-30.9104827876
 20
-52.3219051932
 10
-30.746820389
 20
-52.6865133131
 10
-30.5529219755
 20
-53.0635671397
 10
-30.3325592843
 20
-53.4394361008
 10
-30.0915797361
 20
-53.8022914813
 10
-29.8348333206
 20
-54.1458579339
 10
-29.5595962079
 20
-54.4747961181
 10
-29.2611240521
 20
-54.7939010159
 10
-28.9374063031
 20
-55.1031812883
 10
-28.5902875715
 20
-55.3987605859
 10
-28.2200080088
 20
-55.6787073537
  0
LINE
  5
25D
100
AcDbEntity
  8
_58100
100
AcDbLine
 62
253
  6
CONTINUOUS
 10
-28.074758988
 20
46.2783757014
 11
-28.0725432517
 21
46.5262528964
  0
LWPOLYLINE
  5
25E
100
AcDbEntity
  8
_58100
100
AcDbPolyline
 62
253
  6
CONTINUOUS
 90
16
 70
0
 10
-30.6303107891
 20
-49.155517542
 10
-30.6338337718
 20
-49.4498201382
 10
-30.6167979581
 20
-49.747430494
 10
-30.579203348
 20
-50.0483486095
 10
-30.521065391
 20
-50.3557338362
 10
-30.4423686376
 20
-50.6664268225
 10
-30.3430667387
 20
-50.9709495135
 10
-30.2230543912
 20
-51.2672078137
 10
-30.0824368982
 20
-51.5572958186
 10
-29.9214838201
 20
-51.8380177602
 10
-29.739532311
 20
-52.1099023537
 10
-29.5372452168
 20
-52.3724208837
 10
-29.3168806362
 20
-52.6207914367
 10
-29.0791912687
 20
-52.8534200412
 10
-28.8234244147
 20
-53.0719006685
 10
-28.5495800742
 20
-53.2762333187
  0
LINE
  5
25F
100
AcDbEntity
  8
_58100
100
AcDbLine
 62
253
  6
CONTINUOUS
 10
-28.079806318
 20
45.9208796304
 11
-28.074758988
 21
46.2783757014
  0
LINE
  5
260
100
AcDbEntity
  8
_58100
100
AcDbLine
 62
253
  6
CONTINUOUS
 10
-28.0863829796
 20
45.5863436247
 11
-28.079806318
 21
45.9208796304
  0
LINE
  5
261
100
AcDbEntity
  8
_58100
100
AcDbLine
 62
253
  6
CONTINUOUS
 10
-28.0940498994
 20
45.2783209637
 11
-28.0863829796
 21
45.5863436247
  0
LINE
  5
262
100
AcDbEntity
  8
_58100
100
AcDbLine
 62
253
  6
CONTINUOUS
 10
-28.1024625746
 20
44.9979703877
 11
-28.0940498994
 21
45.2783209637
  0
LINE
  5
263
100
AcDbEntity
  8
_62181
100
AcDbLine
 62
7
  6
CONTINUOUS
 10
-28.3433060208
 20
47.0104556831
 11
-31.7032804745
 21
-49.2066237967
  0
LINE
  5
264
100
AcDbEntity
  8
_58100
100
AcDbLine
 62
7
  6
CONTINUOUS
 10
-28.32626729
 20
46.9980763206
 11
-31.6853293703
 21
-49.1928762032
  0
LINE
  5
265
100
AcDbEntity
  8
_58100
100
AcDbLine
 62
253
  6
CONTINUOUS
 10
-31.5053365633
 20
-49.0508840036
 11
-28.1024625746
 21
44.9979703877
  0
LINE
  5
266
100
AcDbEntity
  8
_58100
100
AcDbLine
 62
253
  6
CONTINUOUS
 10
-27.2333617838
 20
44.7213549665
 11
-30.6303107891
 21
-49.155517542
  0
LINE
  5
267
100
AcDbEntity
  8
_64839
100
AcDbLine
 62
253
  6
CONTINUOUS
 10
-21.6922820965
 20
35.9752652972
 11
-21.5262313859
 21
36.5518302645
  0
LINE
  5
268
100
AcDbEntity
  8
0
100
AcDbLine
 62
7
  6
CONTINUOUS
 10
5.5272709827
 20
43.2631296758
 11
5.0272709827
 21
42.7631296758
  0
LWPOLYLINE
  5
269
100
AcDbEntity
  8
_58100
100
AcDbPolyline
 62
253
  6
CONTINUOUS
 90
10
 70
0
 10
-25.8748670615
 20
15.2730296543
 10
-26.0665709253
 20
15.1330560967
 10
-26.250655159
 20
14.9858637496
 10
-26.4257612269
 20
14.831452613
 10
-26.5888535524
 20
14.6694618188
 10
-26.7412996748
 20
14.5002522351
 10
-26.8881414832
 20
14.3249064663
 10
-27.0300507573
 20
14.1437853807
 10
-27.1640391323
 20
13.9565281099
 10
-27.289080579
 20
13.7631346541
  0
LINE
  5
26A
100
AcDbEntity
  8
_58100
100
AcDbLine
 62
253
  6
CONTINUOUS
 10
23.5549164867
 20
49.5255468449
 11
23.8098985617
 21
49.7108021662
  0
LINE
  5
26B
100
AcDbEntity
  8
_58100
100
AcDbLine
 62
253
  6
CONTINUOUS
 10
16.7102057117
 20
44.086525662
 11
18.4652093156
 21
45.315392415
  0
LINE
  5
26C
100
AcDbEntity
  8
_58100
100
AcDbLine
 62
253
  6
CONTINUOUS
 10
23.0272709827
 20
48.5097823841
 11
23.2550494506
 21
48.6692745844
  0
LINE
  5
26D
100
AcDbEntity
  8
_64839
100
AcDbLine
 62
253
  6
CONTINUOUS
 10
10.516246223
 20
33.9412464515
 11
19.5807733513
 21
36.5518302645
  0
LINE
  5
26E
100
AcDbEntity
  8
_64839
100
AcDbLine
 62
7
  6
CONTINUOUS
 10
19.7468240619
 20
35.9752652972
 11
10.6822969335
 21
33.3646814842
  0
LINE
  5
26F
100
AcDbEntity
  8
_64839
100
AcDbLine
 62
7
  6
CONTINUOUS
 10
11.0697485914
 20
32.0193632271
 11
20.1342757199
 21
34.6299470401
  0
LWPOLYLINE
  5
270
100
AcDbEntity
  8
_58100
100
AcDbPolyline
 62
253
  6
CONTINUOUS
 90
10
 70
0
 10
1.7173714073
 20
-54.1370546563
 10
1.8573439268
 20
-54.328757591
 10
2.0045355492
 20
-54.5128412214
 10
2.1589462745
 20
-54.6879470139
 10
2.3209370705
 20
-54.8510394786
 10
2.4901469695
 20
-55.0034860208
 10
2.6654930679
 20
-55.150328213
 10
2.8466143979
 20
-55.2922377417
 10
3.0338719273
 20
-55.4262263369
 10
3.2272656561
 20
-55.551267968
  0
LINE
  5
271
100
AcDbEntity
  8
_58100
100
AcDbLine
 62
253
  6
CONTINUOUS
 10
-25.8748670812
 20
15.2730296307
 11
-25.8748670812
 21
21.2532296962
  0
LINE
  5
272
100
AcDbEntity
  8
_58100
100
AcDbLine
 62
253
  6
CONTINUOUS
 10
-25.8005074852
 20
48.6692745823
 11
-25.8005074852
 21
48.7015629504
  0
LINE
  5
273
100
AcDbEntity
  8
_64839
100
AcDbLine
 62
7
  6
CONTINUOUS
 10
-24.9727290173
 20
51.0525458628
 11
-24.9727290173
 21
38.4737134888
  0
LINE
  5
274
100
AcDbEntity
  8
_58100
100
AcDbLine
 62
253
  6
CONTINUOUS
 10
-24.4890803862
 20
14.7631296758
 11
-24.4890803862
 21
15.5631296756
  0
LINE
  5
275
100
AcDbEntity
  8
_58100
100
AcDbLine
 62
253
  6
CONTINUOUS
 10
-24.4890807393
 20
20.9631296758
 11
-24.4890807393
 21
21.7631296758
  0
LINE
  5
276
100
AcDbEntity
  8
_64839
100
AcDbLine
 62
7
  6
CONTINUOUS
 10
-23.5727290173
 20
51.0525458628
 11
-23.5727290173
 21
38.4737134888
  0
LINE
  5
277
100
AcDbEntity
  8
_64839
100
AcDbLine
 62
253
  6
CONTINUOUS
 10
-22.9727290173
 20
38.4737134888
 11
-22.9727290173
 21
42.2412256332
  0
LINE
  5
278
100
AcDbEntity
  8
_64839
100
AcDbLine
 62
253
  6
CONTINUOUS
 10
-22.9727290173
 20
47.2850337184
 11
-22.9727290173
 21
51.0525458628
  0
LINE
  5
279
100
AcDbEntity
  8
_58100
100
AcDbLine
 62
253
  6
CONTINUOUS
 10
25.7808092554
 20
46.9980763206
 11
25.5258271663
 21
46.812820989
  0
LINE
  5
27A
100
AcDbEntity
  8
_58100
100
AcDbLine
 62
253
  6
CONTINUOUS
 10
24.6879037491
 20
44.7213549701
 11
23.0272709827
 21
43.5585673895
  0
LWPOLYLINE
  5
27B
100
AcDbEntity
  8
_58100
100
AcDbPolyline
 62
253
  6
CONTINUOUS
 90
10
 70
0
 10
-5.1084521156
 20
21.9349877021
 10
-4.9731858659
 20
22.0005453229
 10
-4.9088520394
 20
22.0299805029
 10
-4.8424043454
 20
22.0578681376
 10
-4.7720207193
 20
22.0842869003
 10
-4.6973759352
 20
22.1084282782
 10
-4.6171227207
 20
22.1301250596
 10
-4.5302052354
 20
22.1491827518
 10
-4.4359349764
 20
22.1653626644
 10
-4.3337431261
 20
22.1785084273
  0
LWPOLYLINE
  5
27C
100
AcDbEntity
  8
_58100
100
AcDbPolyline
 62
253
  6
CONTINUOUS
 90
16
 70
0
 10
-25.5669145143
 20
14.6019630052
 10
-25.6779442048
 20
14.5641307471
 10
-25.7945448329
 20
14.5215317783
 10
-25.9163672902
 20
14.4740557256
 10
-26.0487358355
 20
14.419459492
 10
-26.1853175725
 20
14.359632798
 10
-26.3093226282
 20
14.3019732461
 10
-26.4111842384
 20
14.2527323846
 10
-26.5022312514
 20
14.2079177993
 10
-26.5972053128
 20
14.159824179
 10
-26.6990049429
 20
14.1063866005
 10
-26.8039799745
 20
14.0495833459
 10
-26.9158322451
 20
13.9870239751
 10
-27.0351705464
 20
13.9178999189
 10
-27.1598568527
 20
13.8431693959
 10
-27.289087194
 20
13.7631296758
  0
LINE
  5
27D
100
AcDbEntity
  8
_58100
100
AcDbLine
 62
253
  6
CONTINUOUS
 10
21.9198043656
 20
-56.2629839378
 11
15.5009819036
 21
-49.8441614735
  0
LWPOLYLINE
  5
27E
100
AcDbEntity
  8
_58100
100
AcDbPolyline
 62
253
  6
CONTINUOUS
 90
16
 70
0
 10
-21.5819738427
 20
22.7631296758
 10
-21.57804325
 20
22.6578372445
 10
-21.5664592424
 20
22.5548017837
 10
-21.5475898586
 20
22.455090593
 10
-21.5220513074
 20
22.3602585998
 10
-21.4902356674
 20
22.2705416554
 10
-21.4518968296
 20
22.1851389376
 10
-21.4070128045
 20
22.1046148191
 10
-21.3561231214
 20
22.0304734059
 10
-21.299557584
 20
21.9635823538
 10
-21.2377202261
 20
21.9048318476
 10
-21.1712447275
 20
21.855208667
 10
-21.1009306171
 20
21.8156115822
 10
-21.0275731853
 20
21.786727259
 10
-20.9519313447
 20
21.7690863203
 10
-20.8748670616
 20
21.7631296758
  0
LWPOLYLINE
  5
27F
100
AcDbEntity
  8
_58100
100
AcDbPolyline
 62
253
  6
CONTINUOUS
 90
31
 70
0
 10
-19.4606534992
 20
-46.3086344579
 10
-19.4584506076
 20
-46.3996774761
 10
-19.4525894095
 20
-46.4876464845
 10
-19.443069905
 20
-46.572541483
 10
-19.4297346114
 20
-46.6544478153
 10
-19.4127410115
 20
-46.7332801377
 10
-19.3925615526
 20
-46.8087824194
 10
-19.3692041825
 20
-46.880850357
 10
-19.3426609534
 20
-46.9495882539
 10
-19.3133804697
 20
-47.0150529895
 10
-19.2814089051
 20
-47.0771712638
 10
-19.2467000858
 20
-47.1360163767
 10
-19.2095640949
 20
-47.1918651081
 10
-19.1701535962
 20
-47.2446860232
 10
-19.1283159258
 20
-47.2945105568
 10
-19.0839031747
 20
-47.3417097924
 10
-19.0369950881
 20
-47.386341493
 10
-18.9875119209
 20
-47.4283478958
 10
-18.935066529
 20
-47.4679267958
 10
-18.8796646515
 20
-47.5052260037
 10
-18.8213005493
 20
-47.540097709
 10
-18.7595698615
 20
-47.5722962753
 10
-18.6944100205
 20
-47.6019012979
 10
-18.6258835938
 20
-47.6288331816
 10
-18.5537739231
 20
-47.6526075045
 10
-18.4779715489
 20
-47.6732529665
 10
-18.3985859308
 20
-47.6907408677
 10
-18.3157287885
 20
-47.7045006868
 10
-18.2294373621
 20
-47.7143422499
 10
-18.1396744115
 20
-47.720455731
 10
-18.0464399368
 20
-47.7228411299
  0
LINE
  5
280
100
AcDbEntity
  8
_58100
100
AcDbLine
 62
253
  6
CONTINUOUS
 10
-21.5819738426
 20
34.4865921855
 11
-21.5819738426
 21
22.7631296758
  0
LINE
  5
281
100
AcDbEntity
  8
_58100
100
AcDbLine
 62
253
  6
CONTINUOUS
 10
-21.5819738427
 20
13.7631315943
 11
-21.5819738427
 21
-46.3086275624
  0
LINE
  5
282
100
AcDbEntity
  8
_58100
100
AcDbLine
 62
253
  6
CONTINUOUS
 10
-19.4606534992
 20
-46.3086344579
 11
-19.4606534992
 21
14.7631296758
  0
LINE
  5
283
100
AcDbEntity
  8
_58100
100
AcDbLine
 62
253
  6
CONTINUOUS
 10
-19.4606534992
 20
21.7631296758
 11
-19.4606534992
 21
33.8756519266
  0
LINE
  5
284
100
AcDbEntity
  8
_64839
100
AcDbLine
 62
253
  6
CONTINUOUS
 10
-12.4617042576
 20
33.9412464515
 11
-12.6277549682
 21
33.3646814842
  0
LINE
  5
285
100
AcDbEntity
  8
_58100
100
AcDbLine
 62
253
  6
CONTINUOUS
 10
-4.3007383095
 20
21.5663290615
 11
-4.3640382958
 21
21.5149284719
  0
LWPOLYLINE
  5
286
100
AcDbEntity
  8
_58100
100
AcDbPolyline
 62
253
  6
CONTINUOUS
 90
24
 70
0
 10
-4.3640382958
 20
21.5149284719
 10
-4.4314113756
 20
21.461074429
 10
-4.4669946885
 20
21.433459183
 10
-4.5039255906
 20
21.4054933563
 10
-4.5422432305
 20
21.3771540933
 10
-4.5824317211
 20
21.3486289676
 10
-4.6244201249
 20
21.3199156306
 10
-4.6682793794
 20
21.2910164309
 10
-4.71470641
 20
21.2621259873
 10
-4.7638065362
 20
21.2331139232
 10
-4.8154744384
 20
21.2041106153
 10
-4.8700910826
 20
21.1757018118
 10
-4.9277908402
 20
21.1477935297
 10
-4.9884393398
 20
21.1204797522
 10
-5.0520144331
 20
21.0946281771
 10
-5.1185904698
 20
21.0702217778
 10
-5.1880931003
 20
21.0472775809
 10
-5.2602771275
 20
21.0267143649
 10
-5.3352258708
 20
21.0085437057
 10
-5.4128560108
 20
20.9927540274
 10
-5.4926723931
 20
20.9802293802
 10
-5.5745099661
 20
20.9712644476
 10
-5.6585337814
 20
20.9655645461
 10
-5.744743839
 20
20.9631296758
  0
LWPOLYLINE
  5
287
100
AcDbEntity
  8
_58100
100
AcDbPolyline
 62
253
  6
CONTINUOUS
 90
8
 70
0
 10
-4.0967491454
 20
21.7108114508
 10
-4.1250894928
 20
21.6946404685
 10
-4.1536612607
 20
21.6769325538
 10
-4.1824644491
 20
21.6576877068
 10
-4.211354803
 20
21.6367212821
 10
-4.2404765773
 20
21.614217925
 10
-4.2702625372
 20
21.5907315719
 10
-4.3007383095
 20
21.5663290615
  0
LINE
  5
288
100
AcDbEntity
  8
_58100
100
AcDbLine
 62
253
  6
CONTINUOUS
 10
28.9598784862
 20
-49.0508828311
 11
29.1398713357
 21
-49.1928762033
  0
LINE
  5
289
100
AcDbEntity
  8
_58100
100
AcDbLine
 62
253
  6
CONTINUOUS
 10
19.0365158075
 20
-46.3086275634
 11
26.0041217597
 21
-53.2762335122
  0
LINE
  5
28A
100
AcDbEntity
  8
_58100
100
AcDbLine
 62
253
  6
CONTINUOUS
 10
-18.0464399369
 20
-49.8441614726
 11
-18.0464399369
 21
-47.7228411299
  0
LINE
  5
28B
100
AcDbEntity
  8
_58100
100
AcDbLine
 62
253
  6
CONTINUOUS
 10
-16.2727290173
 20
-58.2194099394
 11
-16.2727290173
 21
-57.1052168488
  0
LWPOLYLINE
  5
28C
100
AcDbEntity
  8
_58100
100
AcDbPolyline
 62
253
  6
CONTINUOUS
 90
16
 70
0
 10
23.0214564844
 20
21.9242963485
 10
23.1324860598
 20
21.9621285666
 10
23.2490865883
 20
22.0047274946
 10
23.3709089615
 20
22.052203507
 10
23.5032775741
 20
22.1067997584
 10
23.6398593867
 20
22.1666264817
 10
23.7638641339
 20
22.2242858883
 10
23.8657247099
 20
22.2735262315
 10
23.9567703591
 20
22.3183400818
 10
24.0517434383
 20
22.3664330984
 10
24.1535426365
 20
22.4198703073
 10
24.2585175806
 20
22.4766733577
 10
24.3703702165
 20
22.5392328072
 10
24.4897093368
 20
22.6083572759
 10
24.6143968232
 20
22.6830885198
 10
24.7436286508
 20
22.7631292672
  0
LINE
  5
28D
100
AcDbEntity
  8
_58100
100
AcDbLine
 62
253
  6
CONTINUOUS
 10
-25.56692076
 20
14.6019760477
 11
-25.8748673491
 21
15.2730294463
  0
LWPOLYLINE
  5
28E
100
AcDbEntity
  8
_58100
100
AcDbPolyline
 62
253
  6
CONTINUOUS
 90
16
 70
0
 10
2.3884376517
 20
-53.8291021415
 10
2.4262698221
 20
-53.9401315152
 10
2.4688687273
 20
-54.0567319616
 10
2.5163447503
 20
-54.1785543679
 10
2.5709410193
 20
-54.3109230445
 10
2.6307678043
 20
-54.4475050279
 10
2.688427436
 20
-54.5715102718
 10
2.7376683294
 20
-54.6733719521
 10
2.7824829238
 20
-54.7644189874
 10
2.8305765464
 20
-54.8593930555
 10
2.8840141242
 20
-54.9611926848
 10
2.9408173703
 20
-55.0661677016
 10
3.0033767298
 20
-55.1780199519
 10
3.0725007733
 20
-55.2973582304
 10
3.1472312808
 20
-55.4220445095
 10
3.2272709827
 20
-55.5512748195
  0
LINE
  5
28F
100
AcDbEntity
  8
_64839
100
AcDbLine
 62
253
  6
CONTINUOUS
 10
-11.908201889
 20
33.2631296758
 11
-11.908201889
 21
33.8631296758
  0
LINE
  5
290
100
AcDbEntity
  8
_64839
100
AcDbLine
 62
253
  6
CONTINUOUS
 10
-11.908201889
 20
55.6631296758
 11
-11.908201889
 21
56.2631296758
  0
LINE
  5
291
100
AcDbEntity
  8
_64839
100
AcDbLine
 62
7
  6
CONTINUOUS
 10
-10.5727290173
 20
52.1881296758
 11
-10.5727290173
 21
55.0881296758
  0
LINE
  5
292
100
AcDbEntity
  8
_64839
100
AcDbLine
 62
7
  6
CONTINUOUS
 10
-9.4727290173
 20
52.1881296758
 11
-9.4727290173
 21
53.6557646059
  0
LWPOLYLINE
  5
293
100
AcDbEntity
  8
_58100
100
AcDbPolyline
 62
253
  6
CONTINUOUS
 90
16
 70
0
 10
-28.5495547572
 20
-53.2762277913
 10
-28.6120297903
 20
-53.4736764242
 10
-28.6627992881
 20
-53.6701747127
 10
-28.7014676092
 20
-53.8640577885
 10
-28.7277357613
 20
-54.0525975897
 10
-28.7419120287
 20
-54.2354536409
 10
-28.7441868614
 20
-54.4145296101
 10
-28.7343026318
 20
-54.5889121552
 10
-28.7122144975
 20
-54.7565828082
 10
-28.6777591031
 20
-54.9175261842
 10
-28.6310099408
 20
-55.0702942041
 10
-28.5722439702
 20
-55.2135618388
 10
-28.5013143087
 20
-55.3471952644
 10
-28.4184081458
 20
-55.4701842907
 10
-28.3243548507
 20
-55.5809998168
 10
-28.2200072735
 20
-55.6787156206
  0
LWPOLYLINE
  5
294
100
AcDbEntity
  8
_58100
100
AcDbPolyline
 62
253
  6
CONTINUOUS
 90
10
 70
0
 10
-27.289080579
 20
22.7631296354
 10
-27.1600518579
 20
22.5642673446
 10
-27.0236729436
 20
22.3742256418
 10
-26.8814284432
 20
22.1930045269
 10
-26.7382496203
 20
22.0219995751
 10
-26.5922423538
 20
21.8598152112
 10
-26.4334465524
 20
21.7022647097
 10
-26.2584846711
 20
21.5479524953
 10
-26.0718539584
 20
21.3982741433
 10
-25.8748670615
 20
21.2532296536
  0
LINE
  5
295
100
AcDbEntity
  8
_64839
100
AcDbLine
 62
7
  6
CONTINUOUS
 10
-9.1727290173
 20
54.0312211252
 11
-9.1727290173
 21
53.6557646059
  0
LINE
  5
296
100
AcDbEntity
  8
_64839
100
AcDbLine
 62
7
  6
CONTINUOUS
 10
-8.0727290173
 20
38.1631296758
 11
-8.0727290173
 21
50.1631296758
  0
LINE
  5
297
100
AcDbEntity
  8
_58100
100
AcDbLine
 62
253
  6
CONTINUOUS
 10
-5.7727290173
 20
31.8631296758
 11
-5.7727290173
 21
21.7631296758
  0
LINE
  5
298
100
AcDbEntity
  8
_58100
100
AcDbLine
 62
253
  6
CONTINUOUS
 10
-5.7727290173
 20
15.5631296756
 11
-5.7727290173
 21
-55.551267968
  0
LINE
  5
299
100
AcDbEntity
  8
_58100
100
AcDbLine
 62
253
  6
CONTINUOUS
 10
-5.744739136
 20
21.7631296758
 11
-5.744739136
 21
20.9631296758
  0
LINE
  5
29A
100
AcDbEntity
  8
_64839
100
AcDbLine
 62
7
  6
CONTINUOUS
 10
-5.5727290173
 20
50.1631296758
 11
-5.5727290173
 21
38.1631296758
  0
LINE
  5
29B
100
AcDbEntity
  8
_64839
100
AcDbLine
 62
253
  6
CONTINUOUS
 10
10.5162462229
 20
55.5850129001
 11
10.6822969335
 21
56.1615778674
  0
LINE
  5
29C
100
AcDbEntity
  8
_58100
100
AcDbLine
 62
253
  6
CONTINUOUS
 10
1.5512912545
 20
21.710811378
 11
1.7882849979
 21
22.1785082891
  0
LINE
  5
29D
100
AcDbEntity
  8
_58100
100
AcDbLine
 62
253
  6
CONTINUOUS
 10
-25.8004734135
 20
48.7015753515
 11
-26.1003745073
 21
49.5255468346
  0
LINE
  5
29E
100
AcDbEntity
  8
_64839
100
AcDbLine
 62
253
  6
CONTINUOUS
 10
-21.5262313859
 20
52.9744290872
 11
-21.6922820965
 21
53.5509940545
  0
LWPOLYLINE
  5
29F
100
AcDbEntity
  8
_58100
100
AcDbPolyline
 62
253
  6
CONTINUOUS
 90
16
 70
0
 10
2.2272709827
 20
-49.1370542747
 10
2.2328296202
 20
-49.2115072833
 10
2.249211826
 20
-49.2843643763
 10
2.2758971153
 20
-49.3548708585
 10
2.3120140376
 20
-49.4219272291
 10
2.3570081095
 20
-49.485366716
 10
2.4112273817
 20
-49.5457555862
 10
2.4747029523
 20
-49.6026947677
 10
2.5466718121
 20
-49.6551206963
 10
2.6266675481
 20
-49.7024198462
 10
2.7141187615
 20
-49.7439627569
 10
2.8081293016
 20
-49.7790516748
 10
2.9075684949
 20
-49.8070510801
 10
3.0113116444
 20
-49.8274754206
 10
3.1182854759
 20
-49.8399494779
 10
3.2272709827
 20
-49.8441614735
  0
LINE
  5
2A0
100
AcDbEntity
  8
_64839
100
AcDbLine
 62
253
  6
CONTINUOUS
 10
-1.2727290173
 20
32.6131296758
 11
-1.2729380577
 21
33.2631296758
  0
LINE
  5
2A1
100
AcDbEntity
  8
_58100
100
AcDbLine
 62
7
  6
CONTINUOUS
 10
-4.7727290173
 20
-52.7512682551
 11
-4.7727290173
 21
13.7631296758
  0
LINE
  5
2A2
100
AcDbEntity
  8
_58100
100
AcDbLine
 62
7
  6
CONTINUOUS
 10
-4.7727290173
 20
22.7631296758
 11
-4.7727290173
 21
31.8631296758
  0
LINE
  5
2A3
100
AcDbEntity
  8
_64839
100
AcDbLine
 62
7
  6
CONTINUOUS
 10
-4.2727290173
 20
32.6131296758
 11
-4.2727290173
 21
33.2631296758
  0
LINE
  5
2A4
100
AcDbEntity
  8
_64839
100
AcDbLine
 62
7
  6
CONTINUOUS
 10
-4.2727290173
 20
56.2631296758
 11
-4.2727290173
 21
56.9131296758
  0
LINE
  5
2A5
100
AcDbEntity
  8
_58100
100
AcDbLine
 62
253
  6
CONTINUOUS
 10
-4.2648430335
 20
31.8631296758
 11
-4.2648430335
 21
22.763129677
  0
LINE
  5
2A6
100
AcDbEntity
  8
_64839
100
AcDbLine
 62
7
  6
CONTINUOUS
 10
-4.1727290173
 20
36.3631296758
 11
-4.1727290173
 21
43.8631296758
  0
LINE
  5
2A7
100
AcDbEntity
  8
_64839
100
AcDbLine
 62
7
  6
CONTINUOUS
 10
-4.1727290173
 20
45.7631296758
 11
-4.1727290173
 21
50.3631296758
  0
LINE
  5
2A8
100
AcDbEntity
  8
_64839
100
AcDbLine
 62
7
  6
CONTINUOUS
 10
-4.1727290173
 20
52.1881296758
 11
-4.1727290173
 21
54.0312211252
  0
LINE
  5
2A9
100
AcDbEntity
  8
_58100
100
AcDbLine
 62
7
  6
CONTINUOUS
 10
-4.0227290173
 20
-58.2368703242
 11
-4.0227290173
 21
-58.2194099394
  0
LINE
  5
2AA
100
AcDbEntity
  8
_58100
100
AcDbLine
 62
7
  6
CONTINUOUS
 10
-4.0227290173
 20
-57.9924249378
 11
-4.0227290173
 21
-58.0622664767
  0
LINE
  5
2AB
100
AcDbEntity
  8
_58100
100
AcDbLine
 62
253
  6
CONTINUOUS
 10
-3.9727292578
 20
-52.7512725826
 11
-3.9727292578
 21
13.7631919015
  0
LINE
  5
2AC
100
AcDbEntity
  8
_58100
100
AcDbLine
 62
7
  6
CONTINUOUS
 10
-3.1727290173
 20
-58.1460763235
 11
-3.1727290173
 21
-58.2194099394
  0
LINE
  5
2AD
100
AcDbEntity
  8
_58100
100
AcDbLine
 62
253
  6
CONTINUOUS
 10
-2.9569951408
 20
22.7631305535
 11
-2.9569951408
 21
31.8631296758
  0
LINE
  5
2AE
100
AcDbEntity
  8
_58100
100
AcDbLine
 62
253
  6
CONTINUOUS
 10
-2.9569951408
 20
36.3631296758
 11
-2.9569951408
 21
40.0645521193
  0
LINE
  5
2AF
100
AcDbEntity
  8
_58100
100
AcDbLine
 62
7
  6
CONTINUOUS
 10
-2.6132057498
 20
40.1342723959
 11
-2.6132057498
 21
40.2476949583
  0
LINE
  5
2B0
100
AcDbEntity
  8
_58100
100
AcDbLine
 62
7
  6
CONTINUOUS
 10
-2.3201831048
 20
40.1342723959
 11
-2.3201831048
 21
40.3787599863
  0
LINE
  5
2B1
100
AcDbEntity
  8
_58100
100
AcDbLine
 62
7
  6
CONTINUOUS
 10
-1.8217753268
 20
40.1342723959
 11
-1.8217753268
 21
40.5136425856
  0
LINE
  5
2B2
100
AcDbEntity
  8
_58100
100
AcDbLine
 62
7
  6
CONTINUOUS
 10
-1.5226999287
 20
40.1342723959
 11
-1.5226999287
 21
40.5512888185
  0
LINE
  5
2B3
100
AcDbEntity
  8
_58100
100
AcDbLine
 62
7
  6
CONTINUOUS
 10
-1.022758106
 20
40.5513478284
 11
-1.022758106
 21
40.1342723959
  0
LINE
  5
2B4
100
AcDbEntity
  8
_58100
100
AcDbLine
 62
7
  6
CONTINUOUS
 10
-0.7236827078
 20
40.1342723959
 11
-0.7236827078
 21
40.5134891512
  0
LINE
  5
2B5
100
AcDbEntity
  8
_64839
100
AcDbLine
 62
253
  6
CONTINUOUS
 10
-1.2729380577
 20
56.2631296758
 11
-1.2727290173
 21
56.9131296758
  0
LINE
  5
2B6
100
AcDbEntity
  8
_58100
100
AcDbLine
 62
7
  6
CONTINUOUS
 10
-3.1118231561
 20
39.9574420036
 11
-3.1175648933
 21
36.3631296758
  0
LINE
  5
2B7
100
AcDbEntity
  8
_58100
100
AcDbLine
 62
7
  6
CONTINUOUS
 10
-3.1247426144
 20
31.8631296758
 11
-3.1392165274
 21
22.7631298444
  0
LWPOLYLINE
  5
2B8
100
AcDbEntity
  8
_58100
100
AcDbPolyline
 62
253
  6
CONTINUOUS
 90
10
 70
0
 10
-4.2648430492
 20
22.7631296758
 10
-4.2657153747
 20
22.6940478916
 10
-4.2683302293
 20
22.6252559224
 10
-4.2726781625
 20
22.5570837147
 10
-4.2787387272
 20
22.4898848007
 10
-4.2864872127
 20
22.4239568157
 10
-4.2959011413
 20
22.3595455683
 10
-4.3069482121
 20
22.2969468702
 10
-4.3195799763
 20
22.2364992589
 10
-4.3337431239
 20
22.1785084273
  0
LWPOLYLINE
  5
2B9
100
AcDbEntity
  8
_58100
100
AcDbPolyline
 62
253
  6
CONTINUOUS
 90
31
 70
0
 10
-2.9569951408
 20
22.7631305535
 10
-2.9577851666
 20
22.7332290119
 10
-2.9611913958
 20
22.7025672201
 10
-2.9672138285
 20
22.671145178
 10
-2.9758004882
 20
22.6388521916
 10
-2.9870033513
 20
22.605798955
 10
-3.0009783474
 20
22.57231755
 10
-3.017807945
 20
22.5384281229
 10
-3.0374096756
 20
22.5041105275
 10
-3.0596920639
 20
22.4696364065
 10
-3.0846930846
 20
22.4350766461
 10
-3.112374763
 20
22.4003603601
 10
-3.1425316999
 20
22.3655465335
 10
-3.1751337754
 20
22.3306599632
 10
-3.2102111094
 20
22.2956758523
 10
-3.2476486622
 20
22.2605787952
 10
-3.2874137358
 20
22.2253885026
 10
-3.3295390282
 20
22.1900852639
 10
-3.3740075944
 20
22.154594542
 10
-3.4207972363
 20
22.1189076712
 10
-3.469930152
 20
22.0830333172
 10
-3.5214559907
 20
22.0469229398
 10
-3.5753581856
 20
22.0105677927
 10
-3.6316533035
 20
21.9739766222
 10
-3.6904406938
 20
21.9371271269
 10
-3.7517146694
 20
21.9000025874
 10
-3.8154809173
 20
21.8626197231
 10
-3.8818558478
 20
21.8250063915
 10
-3.9508782644
 20
21.7871718786
 10
-4.0225093636
 20
21.7491068983
 10
-4.0967491454
 20
21.7108114508
  0
LWPOLYLINE
  5
2BA
100
AcDbEntity
  8
_58100
100
AcDbPolyline
 62
253
  6
CONTINUOUS
 90
10
 70
0
 10
23.3294090313
 20
21.2532297044
 10
23.5211192882
 20
21.3932091634
 10
23.7052080414
 20
21.5404059409
 10
23.8803167159
 20
21.694820037
 10
24.0434096472
 20
21.8568123421
 10
24.1958546634
 20
22.0260219658
 10
24.3426942398
 20
22.2013662365
 10
24.4846004669
 20
22.3824842636
 10
24.6185850736
 20
22.5697369377
 10
24.7436223025
 20
22.7631242588
  0
LWPOLYLINE
  5
2BB
100
AcDbEntity
  8
_58100
100
AcDbPolyline
 62
253
  6
CONTINUOUS
 90
10
 70
0
 10
21.9198103916
 20
-56.2630034422
 10
21.9957176361
 20
-56.4265251473
 10
22.0717738935
 20
-56.5749673431
 10
22.147136282
 20
-56.7063410156
 10
22.2206625409
 20
-56.818574641
 10
22.2918544684
 20
-56.9110050218
 10
22.3607670769
 20
-56.9835823056
 10
22.4268246724
 20
-57.0353553183
 10
22.4889753193
 20
-57.0653652044
 10
22.5465488263
 20
-57.0735062125
  0
LWPOLYLINE
  5
2BC
100
AcDbEntity
  8
_58100
100
AcDbPolyline
 62
253
  6
CONTINUOUS
 90
10
 70
0
 10
21.8484232333
 20
-56.2782439693
 10
21.9192490422
 20
-56.4427427834
 10
21.9901477148
 20
-56.5920527345
 10
22.0603357576
 20
-56.7242253227
 10
22.1287400776
 20
-56.8372108194
 10
22.1949191319
 20
-56.9304298312
 10
22.2589919398
 20
-57.0039580073
 10
22.3204650641
 20
-57.0568778334
 10
22.3783598655
 20
-57.0881864594
 10
22.4320626552
 20
-57.0977309272
  0
LINE
  5
2BD
100
AcDbEntity
  8
_58100
100
AcDbLine
 62
253
  6
CONTINUOUS
 10
-18.6241029074
 20
42.3513265068
 11
-19.2556637499
 21
44.0865256607
  0
LWPOLYLINE
  5
2BE
100
AcDbEntity
  8
_58100
100
AcDbPolyline
 62
253
  6
CONTINUOUS
 90
10
 70
0
 10
1.4272709832
 20
-52.7512682731
 10
1.4315438709
 20
-52.9207260952
 10
1.4430348431
 20
-53.0866802692
 10
1.4617438997
 20
-53.249130795
 10
1.487975008
 20
-53.408566661
 10
1.5214242006
 20
-53.5644988788
 10
1.5611795765
 20
-53.7154604838
 10
1.6069371685
 20
-53.8609624875
 10
1.6590009436
 20
-54.0014938784
 10
1.7173709019
 20
-54.1370546563
  0
LWPOLYLINE
  5
2BF
100
AcDbEntity
  8
_58100
100
AcDbPolyline
 62
253
  6
CONTINUOUS
 90
10
 70
0
 10
2.2272709827
 20
-52.7512673591
 10
2.2296263108
 20
-52.8876238254
 10
2.2365234162
 20
-53.0204050517
 10
2.2476979891
 20
-53.1494117533
 10
2.2628786961
 20
-53.2747210549
 10
2.2817786721
 20
-53.3959262587
 10
2.3040878252
 20
-53.5121385834
 10
2.3294972643
 20
-53.6229991013
 10
2.3577127395
 20
-53.7286753661
 10
2.3884376517
 20
-53.8291021415
  0
LWPOLYLINE
  5
2C0
100
AcDbEntity
  8
_58100
100
AcDbPolyline
 62
253
  6
CONTINUOUS
 90
10
 70
0
 10
1.7193849997
 20
22.7631296758
 10
1.7202689637
 20
22.6935891336
 10
1.7229098011
 20
22.6245177825
 10
1.7272846684
 20
22.5562458682
 10
1.7333519631
 20
22.4891984484
 10
1.7410782862
 20
22.4235839141
 10
1.7504641252
 20
22.3594150044
 10
1.7614955594
 20
22.296918823
 10
1.7741188751
 20
22.2365127498
 10
1.7882850717
 20
22.1785084375
  0
LINE
  5
2C1
100
AcDbEntity
  8
_58100
100
AcDbLine
 62
7
  6
CONTINUOUS
 10
0.593758433
 20
22.7631286052
 11
0.5792849287
 21
31.8631296758
  0
LINE
  5
2C2
100
AcDbEntity
  8
_58100
100
AcDbLine
 62
7
  6
CONTINUOUS
 10
0.5721071054
 20
36.3631296758
 11
0.5663637078
 21
39.9583348651
  0
LINE
  5
2C3
100
AcDbEntity
  8
_64839
100
AcDbLine
 62
253
  6
CONTINUOUS
 10
-0.672519977
 20
56.2631296758
 11
-0.6727290173
 21
56.9131296758
  0
LINE
  5
2C4
100
AcDbEntity
  8
_58100
100
AcDbLine
 62
7
  6
CONTINUOUS
 10
-0.2252749299
 20
40.3787616166
 11
-0.2252749299
 21
40.1342723959
  0
LINE
  5
2C5
100
AcDbEntity
  8
_58100
100
AcDbLine
 62
7
  6
CONTINUOUS
 10
0.0677477152
 20
40.1342723959
 11
0.0677477152
 21
40.2476689447
  0
LINE
  5
2C6
100
AcDbEntity
  8
_58100
100
AcDbLine
 62
253
  6
CONTINUOUS
 10
0.411537467
 20
40.0653924149
 11
0.411537467
 21
36.3631296758
  0
LINE
  5
2C7
100
AcDbEntity
  8
_58100
100
AcDbLine
 62
253
  6
CONTINUOUS
 10
0.411537467
 20
31.8631296758
 11
0.411537467
 21
22.76313072
  0
LINE
  5
2C8
100
AcDbEntity
  8
_58100
100
AcDbLine
 62
7
  6
CONTINUOUS
 10
0.6272709827
 20
-58.2194099394
 11
0.6272709827
 21
-58.1460763235
  0
LINE
  5
2C9
100
AcDbEntity
  8
_58100
100
AcDbLine
 62
253
  6
CONTINUOUS
 10
1.4272709832
 20
13.7631835382
 11
1.4272709832
 21
-52.7512682731
  0
LINE
  5
2CA
100
AcDbEntity
  8
_58100
100
AcDbLine
 62
7
  6
CONTINUOUS
 10
1.4772709827
 20
-58.0622664767
 11
1.4772709827
 21
-57.9924249378
  0
LINE
  5
2CB
100
AcDbEntity
  8
_58100
100
AcDbLine
 62
7
  6
CONTINUOUS
 10
1.4772709827
 20
-58.2194099394
 11
1.4772709827
 21
-58.2368703242
  0
LINE
  5
2CC
100
AcDbEntity
  8
0
100
AcDbLine
 62
7
  6
CONTINUOUS
 10
1.5272709827
 20
50.7131296758
 11
1.5272709827
 21
49.2131296758
  0
LINE
  5
2CD
100
AcDbEntity
  8
0
100
AcDbLine
 62
7
  6
CONTINUOUS
 10
1.5272709827
 20
45.5131296758
 11
1.5272709827
 21
44.0131296758
  0
LINE
  5
2CE
100
AcDbEntity
  8
0
100
AcDbLine
 62
7
  6
CONTINUOUS
 10
1.5272709827
 20
40.3131296758
 11
1.5272709827
 21
38.8131296758
  0
LINE
  5
2CF
100
AcDbEntity
  8
_58100
100
AcDbLine
 62
253
  6
CONTINUOUS
 10
1.7193849988
 20
22.7631296758
 11
1.7193849988
 21
31.8631296758
  0
LINE
  5
2D0
100
AcDbEntity
  8
_58100
100
AcDbLine
 62
253
  6
CONTINUOUS
 10
1.7193849988
 20
36.6550444654
 11
1.7193849988
 21
38.2724592594
  0
LINE
  5
2D1
100
AcDbEntity
  8
_64839
100
AcDbLine
 62
7
  6
CONTINUOUS
 10
1.8272709827
 20
49.2131296758
 11
1.8272709827
 21
45.7631296758
  0
LINE
  5
2D2
100
AcDbEntity
  8
_64839
100
AcDbLine
 62
7
  6
CONTINUOUS
 10
1.8272709827
 20
43.8631296758
 11
1.8272709827
 21
40.3131296758
  0
LINE
  5
2D3
100
AcDbEntity
  8
_64839
100
AcDbLine
 62
7
  6
CONTINUOUS
 10
1.8272709827
 20
38.8131296758
 11
1.8272709827
 21
36.3631296758
  0
LINE
  5
2D4
100
AcDbEntity
  8
_64839
100
AcDbLine
 62
7
  6
CONTINUOUS
 10
1.8272709827
 20
52.1881296758
 11
1.8272709827
 21
54.0312211252
  0
LINE
  5
2D5
100
AcDbEntity
  8
_58100
100
AcDbLine
 62
7
  6
CONTINUOUS
 10
2.2272709827
 20
31.8631296758
 11
2.2272709827
 21
22.7631296758
  0
LINE
  5
2D6
100
AcDbEntity
  8
_58100
100
AcDbLine
 62
7
  6
CONTINUOUS
 10
2.2272709827
 20
-52.7512674195
 11
2.2272709827
 21
13.7631296758
  0
LINE
  5
2D7
100
AcDbEntity
  8
_64839
100
AcDbLine
 62
7
  6
CONTINUOUS
 10
2.3272709827
 20
56.9131296758
 11
2.3272709827
 21
56.2631296758
  0
LINE
  5
2D8
100
AcDbEntity
  8
_64839
100
AcDbLine
 62
7
  6
CONTINUOUS
 10
2.3272709827
 20
33.2631296758
 11
2.3272709827
 21
32.6131296758
  0
LINE
  5
2D9
100
AcDbEntity
  8
_58100
100
AcDbLine
 62
253
  6
CONTINUOUS
 10
3.1992810996
 20
20.9631296758
 11
3.1992810996
 21
21.7631296758
  0
LINE
  5
2DA
100
AcDbEntity
  8
_58100
100
AcDbLine
 62
253
  6
CONTINUOUS
 10
3.2272690568
 20
-55.551267968
 11
3.2272709827
 21
15.5631296758
  0
LINE
  5
2DB
100
AcDbEntity
  8
_58100
100
AcDbLine
 62
253
  6
CONTINUOUS
 10
3.2272709827
 20
21.7631296758
 11
3.2272709827
 21
31.8631296758
  0
LINE
  5
2DC
100
AcDbEntity
  8
_64839
100
AcDbLine
 62
253
  6
CONTINUOUS
 10
-0.672519977
 20
33.2631296758
 11
-0.6727290173
 21
32.6131296758
  0
LINE
  5
2DD
100
AcDbEntity
  8
0
100
AcDbLine
 62
7
  6
CONTINUOUS
 10
14.3445903739
 20
52.5195695933
 11
13.4849235908
 21
48.4751553614
  0
LINE
  5
2DE
100
AcDbEntity
  8
0
100
AcDbLine
 62
7
  6
CONTINUOUS
 10
12.4272709827
 20
43.4992910559
 11
11.5272709827
 21
39.2651239573
  0
LINE
  5
2DF
100
AcDbEntity
  8
0
100
AcDbLine
 62
7
  6
CONTINUOUS
 10
11.7272709827
 20
38.7631296758
 11
12.4286455336
 21
42.062837506
  0
LINE
  5
2E0
100
AcDbEntity
  8
0
100
AcDbLine
 62
7
  6
CONTINUOUS
 10
13.8376785985
 20
48.6918168885
 11
14.6380346541
 21
52.4571960861
  0
LINE
  5
2E1
100
AcDbEntity
  8
_58100
100
AcDbLine
 62
253
  6
CONTINUOUS
 10
16.0467621104
 20
42.2636780185
 11
16.7102222088
 21
44.0865196575
  0
LINE
  5
2E2
100
AcDbEntity
  8
_58100
100
AcDbLine
 62
253
  6
CONTINUOUS
 10
-15.8900634901
 20
45.3115039757
 11
-16.4303866309
 21
46.730106538
  0
LINE
  5
2E3
100
AcDbEntity
  8
_58100
100
AcDbLine
 62
253
  6
CONTINUOUS
 10
-15.8900639225
 20
45.3115038183
 11
-15.5192265565
 21
44.2926365288
  0
LINE
  5
2E4
100
AcDbEntity
  8
_64839
100
AcDbLine
 62
253
  6
CONTINUOUS
 10
-12.6277549682
 20
56.1615778674
 11
-12.4617042576
 21
55.5850129001
  0
LINE
  5
2E5
100
AcDbEntity
  8
_64839
100
AcDbLine
 62
7
  6
CONTINUOUS
 10
5.0272709827
 20
55.0881296758
 11
5.0272709827
 21
52.1881296758
  0
LINE
  5
2E6
100
AcDbEntity
  8
0
100
AcDbLine
 62
7
  6
CONTINUOUS
 10
5.0272709827
 20
48.5631296758
 11
5.0272709827
 21
46.7631296758
  0
LINE
  5
2E7
100
AcDbEntity
  8
0
100
AcDbLine
 62
7
  6
CONTINUOUS
 10
5.0272709827
 20
42.7631296758
 11
5.0272709827
 21
40.9631296758
  0
LINE
  5
2E8
100
AcDbEntity
  8
0
100
AcDbLine
 62
7
  6
CONTINUOUS
 10
5.5272709827
 20
51.1631296758
 11
5.5272709827
 21
49.0631296758
  0
LINE
  5
2E9
100
AcDbEntity
  8
0
100
AcDbLine
 62
7
  6
CONTINUOUS
 10
5.5272709827
 20
46.2631296758
 11
5.5272709827
 21
43.2631296758
  0
LINE
  5
2EA
100
AcDbEntity
  8
0
100
AcDbLine
 62
7
  6
CONTINUOUS
 10
5.5272709827
 20
40.4631296758
 11
5.5272709827
 21
38.3631296758
  0
LINE
  5
2EB
100
AcDbEntity
  8
_64839
100
AcDbLine
 62
253
  6
CONTINUOUS
 10
19.7468240619
 20
53.5509940545
 11
19.5807733513
 21
52.9744290872
  0
LINE
  5
2EC
100
AcDbEntity
  8
_58100
100
AcDbLine
 62
253
  6
CONTINUOUS
 10
23.5549467397
 20
49.5255358337
 11
23.2550455032
 21
48.7015639584
  0
LWPOLYLINE
  5
2ED
100
AcDbEntity
  8
_58100
100
AcDbPolyline
 62
253
  6
CONTINUOUS
 90
10
 70
0
 10
-27.2890806424
 20
22.7631296758
 10
-27.1246019301
 20
22.6629777415
 10
-26.9564997511
 20
22.5638497613
 10
-26.7848845409
 20
22.4667414209
 10
-26.6136916494
 20
22.3757962575
 10
-26.4398459351
 20
22.2884949592
 10
-26.251100752
 20
22.1971157022
 10
-26.0415107728
 20
22.1018537283
 10
-25.813738421
 20
22.00942801
 10
-25.5669145276
 20
21.924296379
  0
LINE
  5
2EE
100
AcDbEntity
  8
_58100
100
AcDbLine
 62
253
  6
CONTINUOUS
 10
-4.0967491454
 20
21.7108114508
 11
-4.333765643
 21
22.1785527755
  0
LINE
  5
2EF
100
AcDbEntity
  8
_64839
100
AcDbLine
 62
253
  6
CONTINUOUS
 10
9.9627438543
 20
56.2631296758
 11
9.9627438543
 21
55.6631296758
  0
LINE
  5
2F0
100
AcDbEntity
  8
_64839
100
AcDbLine
 62
253
  6
CONTINUOUS
 10
9.9627438543
 20
33.8631296758
 11
9.9627438543
 21
33.2631296758
  0
LINE
  5
2F1
100
AcDbEntity
  8
0
100
AcDbLine
 62
7
  6
CONTINUOUS
 10
11.5272709827
 20
38.3631296758
 11
11.5272709827
 21
51.1631296758
  0
LWPOLYLINE
  5
2F2
100
AcDbEntity
  8
_58100
100
AcDbPolyline
 62
253
  6
CONTINUOUS
 90
10
 70
0
 10
-4.9338966118
 20
-53.8291029787
 10
-4.903310989
 20
-53.7291731832
 10
-4.8751922065
 20
-53.6239629019
 10
-4.8498393312
 20
-53.5135341719
 10
-4.8275679849
 20
-53.3978294744
 10
-4.8086655075
 20
-53.2770932597
 10
-4.7934117731
 20
-53.1518678731
 10
-4.7821234611
 20
-53.0224382986
 10
-4.7751270627
 20
-52.8888383517
 10
-4.7727290173
 20
-52.7512682542
  0
LWPOLYLINE
  5
2F3
100
AcDbEntity
  8
_58100
100
AcDbPolyline
 62
253
  6
CONTINUOUS
 90
10
 70
0
 10
-25.8748670812
 20
21.2532296962
 10
-25.7400980282
 20
21.1949775566
 10
-25.5999654249
 20
21.1429848256
 10
-25.4544692713
 20
21.0972515031
 10
-25.3028605438
 20
21.0574505326
 10
-25.1458882659
 20
21.0239089706
 10
-24.9857995082
 20
20.997607987
 10
-24.8233432942
 20
20.9788746383
 10
-24.6577706002
 20
20.9673818679
 10
-24.4890814264
 20
20.9631296758
  0
LWPOLYLINE
  5
2F4
100
AcDbEntity
  8
_58100
100
AcDbPolyline
 62
253
  6
CONTINUOUS
 90
16
 70
0
 10
26.0041240289
 20
-53.2762319448
 10
26.0665994061
 20
-53.4736814041
 10
26.1173692354
 20
-53.6701806554
 10
26.1560378481
 20
-53.8640648276
 10
26.1823062243
 20
-54.05260587
 10
26.1964826136
 20
-54.2354632692
 10
26.1987574369
 20
-54.4145406052
 10
26.1888730516
 20
-54.5889244826
 10
26.1667846031
 20
-54.7565964326
 10
26.132328721
 20
-54.9175410531
 10
26.0855788875
 20
-55.0703102331
 10
26.0268120599
 20
-55.213578907
 10
25.9558813536
 20
-55.3472132196
 10
25.8729739648
 20
-55.4702029485
 10
25.7789192797
 20
-55.5810189668
 10
25.6745701706
 20
-55.6787350337
  0
LINE
  5
2F5
100
AcDbEntity
  8
_64839
100
AcDbLine
 62
7
  6
CONTINUOUS
 10
12.4272709827
 20
42.0631296758
 11
12.4272709827
 21
47.4631296758
  0
LINE
  5
2F6
100
AcDbEntity
  8
_58100
100
AcDbLine
 62
253
  6
CONTINUOUS
 10
13.7272709827
 20
-57.1052168488
 11
13.7272709827
 21
-58.2194099394
  0
LINE
  5
2F7
100
AcDbEntity
  8
_58100
100
AcDbLine
 62
253
  6
CONTINUOUS
 10
15.5009821177
 20
-47.7228411299
 11
15.5009821177
 21
-49.8441614735
  0
LINE
  5
2F8
100
AcDbEntity
  8
_58100
100
AcDbLine
 62
253
  6
CONTINUOUS
 10
23.0214673762
 20
14.6019862294
 11
23.3294090273
 21
15.273029633
  0
LWPOLYLINE
  5
2F9
100
AcDbEntity
  8
_58100
100
AcDbPolyline
 62
253
  6
CONTINUOUS
 90
16
 70
0
 10
-20.874866644
 20
14.7631296758
 10
-20.9493196525
 20
14.7575710383
 10
-21.0221767456
 20
14.7411888325
 10
-21.0926832277
 20
14.7145035432
 10
-21.1597395984
 20
14.6783866209
 10
-21.2231790852
 20
14.6333925489
 10
-21.2835679554
 20
14.5791732768
 10
-21.340507137
 20
14.5156977062
 10
-21.3929330655
 20
14.4437288464
 10
-21.4402322154
 20
14.3637331103
 10
-21.4817751262
 20
14.276281897
 10
-21.5168640441
 20
14.1822713569
 10
-21.5448634493
 20
14.0828321636
 10
-21.5652877899
 20
13.9790890141
 10
-21.5777618472
 20
13.8721151826
 10
-21.5819738427
 20
13.7631296758
  0
LWPOLYLINE
  5
2FA
100
AcDbEntity
  8
_58100
100
AcDbPolyline
 62
253
  6
CONTINUOUS
 90
10
 70
0
 10
-24.4890806397
 20
15.5631296756
 10
-24.6595659231
 20
15.558616427
 10
-24.8261481921
 20
15.5469775655
 10
-24.9888274468
 20
15.5282130911
 10
-25.1479026719
 20
15.5020622165
 10
-25.3030748826
 20
15.4687857289
 10
-25.4534471244
 20
15.4291659903
 10
-25.5987204123
 20
15.3834637881
 10
-25.7391937313
 20
15.3314183349
 10
-25.8748670812
 20
15.2730296307
  0
LWPOLYLINE
  5
2FB
100
AcDbEntity
  8
_58100
100
AcDbPolyline
 62
253
  6
CONTINUOUS
 90
10
 70
0
 10
-24.4890797753
 20
14.7631296758
 10
-24.6254942129
 20
14.7607720516
 10
-24.7583139246
 20
14.7538697681
 10
-24.8873396037
 20
14.7426896396
 10
-25.0126423925
 20
14.7275066297
 10
-25.1338223161
 20
14.7086091948
 10
-25.2500093729
 20
14.6863040942
 10
-25.3608506224
 20
14.6608976628
 10
-25.4665074428
 20
14.6326852353
 10
-25.5669145143
 20
14.6019630052
  0
LINE
  5
2FC
100
AcDbEntity
  8
_58100
100
AcDbLine
 62
253
  6
CONTINUOUS
 10
1.4272709832
 20
13.7631296758
 11
24.7436223025
 21
13.7631297594
  0
LINE
  5
2FD
100
AcDbEntity
  8
_58100
100
AcDbLine
 62
253
  6
CONTINUOUS
 10
-27.289080579
 20
13.7631315943
 11
-3.9727290173
 21
13.7631296758
  0
LINE
  5
2FE
100
AcDbEntity
  8
_58100
100
AcDbLine
 62
7
  6
CONTINUOUS
 10
3.2272709827
 20
14.7631296758
 11
21.9436225892
 21
14.7631296758
  0
LINE
  5
2FF
100
AcDbEntity
  8
_58100
100
AcDbLine
 62
7
  6
CONTINUOUS
 10
-5.7727290173
 20
14.7631296758
 11
-24.4890797888
 21
14.7631296758
  0
LINE
  5
300
100
AcDbEntity
  8
_58100
100
AcDbLine
 62
253
  6
CONTINUOUS
 10
21.9436234389
 20
15.5631296758
 11
3.2272096375
 21
15.5631296758
  0
LINE
  5
301
100
AcDbEntity
  8
_58100
100
AcDbLine
 62
253
  6
CONTINUOUS
 10
-5.7726765278
 20
15.5631296756
 11
-24.4890806397
 21
15.5631296756
  0
LWPOLYLINE
  5
302
100
AcDbEntity
  8
_58100
100
AcDbPolyline
 62
253
  6
CONTINUOUS
 90
10
 70
0
 10
-25.5669145276
 20
21.924296379
 10
-25.4670014757
 20
21.8937010347
 10
-25.3618162656
 20
21.8655821452
 10
-25.2514219658
 20
21.8402360883
 10
-25.1357800035
 20
21.8179807501
 10
-25.0151177229
 20
21.7990930771
 10
-24.8899221404
 20
21.7838396491
 10
-24.7604583164
 20
21.7725406271
 10
-24.6267777542
 20
21.7655329727
 10
-24.4890806234
 20
21.7631296758
  0
LWPOLYLINE
  5
303
100
AcDbEntity
  8
_58100
100
AcDbPolyline
 62
253
  6
CONTINUOUS
 90
16
 70
0
 10
19.0365158081
 20
13.7631296758
 10
19.0325852153
 20
13.8684221077
 10
19.0210012076
 20
13.971457569
 10
19.0021318236
 20
14.0711687601
 10
18.9765932722
 20
14.1660007535
 10
18.944777632
 20
14.255717698
 10
18.9064387942
 20
14.3411204157
 10
18.8615547691
 20
14.4216445338
 10
18.8106650861
 20
14.4957859465
 10
18.754099549
 20
14.5626769983
 10
18.6922621913
 20
14.6214275042
 10
18.6257866929
 20
14.6710506846
 10
18.5554725827
 20
14.7106477693
 10
18.4821151509
 20
14.7395320925
 10
18.4064733102
 20
14.7571730312
 10
18.3294090269
 20
14.7631296758
  0
LINE
  5
304
100
AcDbEntity
  8
_58100
100
AcDbLine
 62
253
  6
CONTINUOUS
 10
16.9151954645
 20
33.7028519266
 11
16.9151954645
 21
21.7631296758
  0
LINE
  5
305
100
AcDbEntity
  8
_58100
100
AcDbLine
 62
253
  6
CONTINUOUS
 10
16.9151954645
 20
14.7631296758
 11
16.9151954645
 21
-46.3086275675
  0
LINE
  5
306
100
AcDbEntity
  8
_58100
100
AcDbLine
 62
253
  6
CONTINUOUS
 10
19.0365158075
 20
-46.3086275634
 11
19.0365158075
 21
13.7631297594
  0
LINE
  5
307
100
AcDbEntity
  8
_58100
100
AcDbLine
 62
253
  6
CONTINUOUS
 10
19.0365158081
 20
22.7631292672
 11
19.0365158081
 21
34.3137921855
  0
LINE
  5
308
100
AcDbEntity
  8
_64839
100
AcDbLine
 62
253
  6
CONTINUOUS
 10
21.0272709827
 20
51.0525458628
 11
21.0272709827
 21
47.2850337184
  0
LINE
  5
309
100
AcDbEntity
  8
_64839
100
AcDbLine
 62
253
  6
CONTINUOUS
 10
21.0272709827
 20
42.2412256332
 11
21.0272709827
 21
38.4737134888
  0
LWPOLYLINE
  5
30A
100
AcDbEntity
  8
_58100
100
AcDbPolyline
 62
253
  6
CONTINUOUS
 90
10
 70
0
 10
-4.2628290423
 20
-54.1370546563
 10
-4.2042617301
 20
-54.000869541
 10
-4.152079387
 20
-53.8599280621
 10
-4.106282013
 20
-53.7142302198
 10
-4.0666048991
 20
-53.5633644195
 10
-4.0333127543
 20
-53.4077422557
 10
-4.0071997051
 20
-53.2485985118
 10
-3.9885304604
 20
-53.0863447822
 10
-3.9770403113
 20
-52.9205694725
 10
-3.9727292578
 20
-52.7512725826
  0
LINE
  5
30B
100
AcDbEntity
  8
_58100
100
AcDbLine
 62
253
  6
CONTINUOUS
 10
-28.5495800742
 20
-53.2762333187
 11
-21.5819738427
 21
-46.3086275624
  0
LINE
  5
30C
100
AcDbEntity
  8
_58100
100
AcDbLine
 62
253
  6
CONTINUOUS
 10
-31.6853293703
 20
-49.1928762032
 11
-31.5053365633
 21
-49.0508840036
  0
LWPOLYLINE
  5
30D
100
AcDbEntity
  8
_58100
100
AcDbPolyline
 62
253
  6
CONTINUOUS
 90
3
 70
0
 10
-5.678297522
 20
21.7652039081
 10
-5.6055186986
 20
21.772060557
 10
-5.5267047216
 20
21.7846804049
  0
LWPOLYLINE
  5
30E
100
AcDbEntity
  8
_58100
100
AcDbPolyline
 62
253
  6
CONTINUOUS
 90
16
 70
0
 10
18.3294086093
 20
21.7631296758
 10
18.4038616179
 20
21.7686883133
 10
18.4767187109
 20
21.7850705191
 10
18.5472251931
 20
21.8117558084
 10
18.6142815637
 20
21.8478727307
 10
18.6777210505
 20
21.8928668027
 10
18.7381099208
 20
21.9470860748
 10
18.7950491023
 20
22.0105616455
 10
18.8474750309
 20
22.0825305052
 10
18.8947741808
 20
22.1625262413
 10
18.936317097
 20
22.2499774676
 10
18.9714060184
 20
22.3439880222
 10
18.9994054147
 20
22.443427188
 10
19.0198297413
 20
22.5471702489
 10
19.032303795
 20
22.6541439434
 10
19.0365158081
 20
22.7631292672
  0
LINE
  5
30F
100
AcDbEntity
  8
_58100
100
AcDbLine
 62
253
  6
CONTINUOUS
 10
-5.7447391344
 20
21.7631296758
 11
-5.678297522
 21
21.7652039081
  0
LWPOLYLINE
  5
310
100
AcDbEntity
  8
_58100
100
AcDbPolyline
 62
253
  6
CONTINUOUS
 90
10
 70
0
 10
21.9436225967
 20
20.9631296758
 10
22.1139094426
 20
20.9676593582
 10
22.2803942546
 20
20.9793164474
 10
22.4430770327
 20
20.9981009436
 10
22.6023252569
 20
21.024281504
 10
22.7577714472
 20
21.0575894714
 10
22.9083131638
 20
21.0972188729
 10
23.0535829267
 20
21.1429010511
 10
23.1939482158
 20
21.1949046635
 10
23.3294090313
 20
21.2532297102
  0
LWPOLYLINE
  5
311
100
AcDbEntity
  8
_58100
100
AcDbPolyline
 62
253
  6
CONTINUOUS
 90
10
 70
0
 10
21.9436215958
 20
21.7631296758
 10
22.0800850933
 20
21.7654896109
 10
22.2129366397
 20
21.7723967225
 10
22.3419769729
 20
21.7835811223
 10
22.4672714785
 20
21.7987626813
 10
22.5884270555
 20
21.8176514
 10
22.7045920456
 20
21.8399478009
 10
22.8154188469
 20
21.8653513183
 10
22.9210623244
 20
21.8935656832
 10
23.0214564844
 20
21.9242963485
  0
LINE
  5
312
100
AcDbEntity
  8
_58100
100
AcDbLine
 62
253
  6
CONTINUOUS
 10
-24.4890814264
 20
20.9631296758
 11
-5.744743839
 21
20.9631296758
  0
LINE
  5
313
100
AcDbEntity
  8
_58100
100
AcDbLine
 62
253
  6
CONTINUOUS
 10
3.1992811
 20
20.9631296758
 11
21.9436225967
 21
20.9631296758
  0
LINE
  5
314
100
AcDbEntity
  8
_58100
100
AcDbLine
 62
7
  6
CONTINUOUS
 10
3.2272709827
 20
21.7631296758
 11
21.9436217541
 21
21.7631296758
  0
LINE
  5
315
100
AcDbEntity
  8
_58100
100
AcDbLine
 62
7
  6
CONTINUOUS
 10
-5.7727290173
 20
21.7631296758
 11
-24.489080624
 21
21.7631296758
  0
LWPOLYLINE
  5
316
100
AcDbEntity
  8
_58100
100
AcDbPolyline
 62
253
  6
CONTINUOUS
 90
23
 70
0
 10
3.1992811
 20
20.9631296758
 10
3.1110814828
 20
20.9656229329
 10
3.0248810873
 20
20.9716229645
 10
2.9406799135
 20
20.9811297707
 10
2.8580182065
 20
20.9945364847
 10
2.7773557213
 20
21.0114499733
 10
2.7000717223
 20
21.0306908364
 10
2.6265457569
 20
21.0522605794
 10
2.5563982779
 20
21.0761576968
 10
2.4898699076
 20
21.1011982735
 10
2.4273133952
 20
21.1271803034
 10
2.3683759916
 20
21.1543057925
 10
2.3122400716
 20
21.1819968429
 10
2.2587905014
 20
21.2102165364
 10
2.2081424147
 20
21.2390017913
 10
2.1598235882
 20
21.2678854647
 10
2.1137972116
 20
21.2968428409
 10
2.0701000951
 20
21.3258986357
 10
2.0283704454
 20
21.3546598539
 10
1.98867004
 20
21.3830458163
 10
1.9509371014
 20
21.411137202
 10
1.914624504
 20
21.438783054
 10
1.879699697
 20
21.4659916374
  0
LWPOLYLINE
  5
317
100
AcDbEntity
  8
_58100
100
AcDbPolyline
 62
253
  6
CONTINUOUS
 90
3
 70
0
 10
3.1992811011
 20
21.7631296758
 10
3.0972724271
 20
21.767972925
 10
2.9958103043
 20
21.7820690598
  0
LWPOLYLINE
  5
318
100
AcDbEntity
  8
_58100
100
AcDbPolyline
 62
253
  6
CONTINUOUS
 90
10
 70
0
 10
23.0214565617
 20
14.6019626643
 10
22.9215499499
 20
14.6325563495
 10
22.8163715164
 20
14.6606738307
 10
22.7059843233
 20
14.6860188013
 10
22.5903522735
 20
14.7082729566
 10
22.4697002437
 20
14.7271600997
 10
22.3445076391
 20
14.7424146546
 10
22.2150368277
 20
14.7537158673
 10
22.0813417503
 20
14.7607255083
 10
21.9436225888
 20
14.7631296758
  0
LWPOLYLINE
  5
319
100
AcDbEntity
  8
_58100
100
AcDbPolyline
 62
253
  6
CONTINUOUS
 90
9
 70
0
 10
2.6024065723
 20
21.9163864688
 10
2.4401270635
 20
21.9943952754
 10
2.3615554371
 20
22.0305423739
 10
2.2817049649
 20
22.0639744419
 10
2.1988802568
 20
22.093730037
 10
2.1096972427
 20
22.1203177743
 10
2.0120734335
 20
22.1437109823
 10
1.9052562036
 20
22.163195687
 10
1.7882850717
 20
22.1785084375
  0
LWPOLYLINE
  5
31A
100
AcDbEntity
  8
_58100
100
AcDbPolyline
 62
253
  6
CONTINUOUS
 90
22
 70
0
 10
1.5512912545
 20
21.710811378
 10
1.4486138442
 20
21.7641846325
 10
1.351916786
 20
21.8163887251
 10
1.2612000799
 20
21.8674236558
 10
1.1767152214
 20
21.9172921468
 10
1.0982107151
 20
21.9659914758
 10
1.0249320739
 20
22.0135134759
 10
0.9571514272
 20
22.059559865
 10
0.8945966456
 20
22.1044289251
 10
0.8356968541
 20
22.1490073359
 10
0.7801529623
 20
22.1932378831
 10
0.7282640607
 20
22.2371777809
 10
0.6793565454
 20
22.2818853509
 10
0.633110815
 20
22.3271892563
 10
0.589846471
 20
22.3732608337
 10
0.5498487136
 20
22.4216724155
 10
0.5120086622
 20
22.4729961098
 10
0.4774351974
 20
22.5266598083
 10
0.4497401613
 20
22.5825195179
 10
0.4301275012
 20
22.6405272408
 10
0.4173932698
 20
22.7007309749
 10
0.411537467
 20
22.76313072
  0
LINE
  5
31B
100
AcDbEntity
  8
_58100
100
AcDbLine
 62
253
  6
CONTINUOUS
 10
-24.9727290173
 20
43.1384428652
 11
-27.2333617838
 21
44.7213549665
  0
LINE
  5
31C
100
AcDbEntity
  8
_58100
100
AcDbLine
 62
253
  6
CONTINUOUS
 10
-28.071285201
 20
46.812820989
 11
-28.32626729
 21
46.9980763206
  0
LINE
  5
31D
100
AcDbEntity
  8
_58100
100
AcDbLine
 62
253
  6
CONTINUOUS
 10
1.879699697
 20
21.4659916374
 11
1.8136616326
 21
21.5188964492
  0
LWPOLYLINE
  5
31E
100
AcDbEntity
  8
_58100
100
AcDbPolyline
 62
253
  6
CONTINUOUS
 90
9
 70
0
 10
1.8136616326
 20
21.5188964492
 10
1.7514259787
 20
21.5694383202
 10
1.7214365675
 20
21.5934182598
 10
1.6920940172
 20
21.6164900472
 10
1.663394449
 20
21.6385814823
 10
1.6349983408
 20
21.6591168995
 10
1.6067925186
 20
21.6779044102
 10
1.5788901565
 20
21.6951359031
 10
1.5512912545
 20
21.710811378
  0
LINE
  5
31F
100
AcDbEntity
  8
_64839
100
AcDbLine
 62
253
  6
CONTINUOUS
 10
10.6822969335
 20
33.3646814842
 11
10.5162462229
 21
33.9412464515
  0
LINE
  5
320
100
AcDbEntity
  8
_64839
100
AcDbLine
 62
7
  6
CONTINUOUS
 10
21.6272709827
 20
38.4737134888
 11
21.6272709827
 21
51.0525458628
  0
LINE
  5
321
100
AcDbEntity
  8
_58100
100
AcDbLine
 62
253
  6
CONTINUOUS
 10
21.9436224366
 20
21.7631296758
 11
21.9436224366
 21
20.9631296758
  0
LINE
  5
322
100
AcDbEntity
  8
_58100
100
AcDbLine
 62
253
  6
CONTINUOUS
 10
21.9436227107
 20
15.5631296758
 11
21.9436227107
 21
14.7631296758
  0
LINE
  5
323
100
AcDbEntity
  8
_64839
100
AcDbLine
 62
7
  6
CONTINUOUS
 10
23.0272709827
 20
38.4737134888
 11
23.0272709827
 21
51.0525458628
  0
LINE
  5
324
100
AcDbEntity
  8
_58100
100
AcDbLine
 62
253
  6
CONTINUOUS
 10
23.2550494506
 20
48.7015625216
 11
23.2550494506
 21
48.6692745844
  0
LINE
  5
325
100
AcDbEntity
  8
_58100
100
AcDbLine
 62
253
  6
CONTINUOUS
 10
23.3294090313
 20
21.2532297102
 11
23.3294090313
 21
15.2730296442
  0
LINE
  5
326
100
AcDbEntity
  8
_58100
100
AcDbLine
 62
253
  6
CONTINUOUS
 10
24.7436223025
 20
13.7631297594
 11
24.7436223025
 21
22.7631292672
  0
LWPOLYLINE
  5
327
100
AcDbEntity
  8
_58100
100
AcDbPolyline
 62
253
  6
CONTINUOUS
 90
16
 70
0
 10
-5.7727290173
 20
-55.5512683781
 10
-5.6951864469
 20
-55.4254355155
 10
-5.6202477114
 20
-55.3002578269
 10
-5.5482836043
 20
-55.1761134191
 10
-5.4798262417
 20
-55.053576484
 10
-5.4148585751
 20
-54.932858042
 10
-5.3528744723
 20
-54.8136882509
 10
-5.293981586
 20
-54.6962859551
 10
-5.238374685
 20
-54.5809665307
 10
-5.1857190561
 20
-54.4674377501
 10
-5.1361078065
 20
-54.35586195
 10
-5.0896589266
 20
-54.2464784312
 10
-5.0461417994
 20
-54.1390037914
 10
-5.0055672033
 20
-54.033431277
 10
-4.9681284644
 20
-53.9300774806
 10
-4.9338966118
 20
-53.8291029787
  0
LINE
  5
328
100
AcDbEntity
  8
_58100
100
AcDbLine
 62
253
  6
CONTINUOUS
 10
-18.0464399371
 20
-49.8441614726
 11
-24.465262167
 21
-56.2629837053
  0
LWPOLYLINE
  5
329
100
AcDbEntity
  8
_58100
100
AcDbPolyline
 62
253
  6
CONTINUOUS
 90
37
 70
0
 10
-4.3337431239
 20
22.1785084273
 10
-4.260125326
 20
22.1992534742
 10
-4.190241709
 20
22.21950563
 10
-4.1240694327
 20
22.2392117419
 10
-4.0617045379
 20
22.2582970754
 10
-4.0030081021
 20
22.2767424647
 10
-3.9476077804
 20
22.2945872515
 10
-3.8954835426
 20
22.311799088
 10
-3.8466221752
 20
22.3283446818
 10
-3.8006654436
 20
22.3442714889
 10
-3.7575933523
 20
22.359552908
 10
-3.7174005204
 20
22.3741697284
 10
-3.6797539855
 20
22.3881876258
 10
-3.6446756083
 20
22.4015772962
 10
-3.6121249732
 20
22.4143368208
 10
-3.5816790535
 20
22.4265789591
 10
-3.5540389956
 20
22.4379593557
 10
-3.5284890043
 20
22.4487999482
 10
-3.5024936494
 20
22.4602296225
 10
-3.4745354322
 20
22.4729367541
 10
-3.4461479581
 20
22.4862477331
 10
-3.4193736987
 20
22.4992503455
 10
-3.3953888132
 20
22.5113379831
 10
-3.3730056503
 20
22.5231009891
 10
-3.3507199395
 20
22.535420446
 10
-3.3283010981
 20
22.5481940489
 10
-3.3059890711
 20
22.5615287039
 10
-3.2830076779
 20
22.5766376715
 10
-3.2579844568
 20
22.5945135342
 10
-3.2323430527
 20
22.6141932291
 10
-3.2094940649
 20
22.6339489315
 10
-3.1905212443
 20
22.6527145569
 10
-3.1743318589
 20
22.6715365358
 10
-3.161068635
 20
22.6918477419
 10
-3.1508025471
 20
22.7141274475
 10
-3.1435106759
 20
22.7378913081
 10
-3.1392165276
 20
22.7631296758
  0
LWPOLYLINE
  5
32A
100
AcDbEntity
  8
_58100
100
AcDbPolyline
 62
253
  6
CONTINUOUS
 90
6
 70
0
 10
-5.5267047216
 20
21.7846804049
 10
-5.4385987108
 20
21.8051632511
 10
-5.3457154965
 20
21.8340435221
 10
-5.2591103722
 20
21.8671395274
 10
-5.1814787498
 20
21.90076955
 10
-5.1084521156
 20
21.9349877021
  0
LINE
  5
32B
100
AcDbEntity
  8
_58100
100
AcDbLine
 62
253
  6
CONTINUOUS
 10
24.7436223025
 20
22.7631292672
 11
0.411537467
 21
22.7631286052
  0
LINE
  5
32C
100
AcDbEntity
  8
_58100
100
AcDbLine
 62
253
  6
CONTINUOUS
 10
-2.9569951408
 20
22.7631298444
 11
-27.289080579
 21
22.7631296758
  0
LWPOLYLINE
  5
32D
100
AcDbEntity
  8
_58100
100
AcDbPolyline
 62
253
  6
CONTINUOUS
 90
5
 70
0
 10
2.9958103043
 20
21.7820690598
 10
2.8953854568
 20
21.8047201638
 10
2.7940610431
 20
21.8360923201
 10
2.6944129009
 20
21.8749004033
 10
2.6024065723
 20
21.9163864688
  0
LWPOLYLINE
  5
32E
100
AcDbEntity
  8
_58100
100
AcDbPolyline
 62
253
  6
CONTINUOUS
 90
37
 70
0
 10
1.7882850715
 20
22.1785084375
 10
1.7169934907
 20
22.1985564783
 10
1.649362445
 20
22.2180816481
 10
1.5853695898
 20
22.2370330335
 10
1.5251279213
 20
22.2553237549
 10
1.4684824815
 20
22.2729505749
 10
1.4150131619
 20
22.2899984134
 10
1.3646677488
 20
22.3064578856
 10
1.3174687374
 20
22.3222787047
 10
1.2731126366
 20
22.3374944235
 10
1.2316138415
 20
22.3520741553
 10
1.1929345069
 20
22.3660059697
 10
1.1566956144
 20
22.379358232
 10
1.1231651905
 20
22.3919990768
 10
1.0920571615
 20
22.4040302301
 10
1.0621680729
 20
22.4158809944
 10
1.033675994
 20
22.4274254027
 10
1.0063967489
 20
22.4387780021
 10
0.9785970218
 20
22.4507463097
 10
0.9488957995
 20
22.4639649042
 10
0.9186911059
 20
22.4778150408
 10
0.890414476
 20
22.4912200587
 10
0.865688
 20
22.5033387524
 10
0.8428730656
 20
22.5149901853
 10
0.8195122548
 20
22.527588838
 10
0.7947490162
 20
22.5413701883
 10
0.7694602275
 20
22.556113273
 10
0.7438130297
 20
22.5725683516
 10
0.7167066931
 20
22.5916175316
 10
0.6892944269
 20
22.612407649
 10
0.6651093711
 20
22.6330720155
 10
0.645356139
 20
22.6524928614
 10
0.6288143208
 20
22.671762579
 10
0.6153734718
 20
22.692320099
 10
0.6050184305
 20
22.7146460311
 10
0.5978067156
 20
22.7382525441
 10
0.5937584314
 20
22.7631296758
  0
LWPOLYLINE
  5
32F
100
AcDbEntity
  8
_58100
100
AcDbPolyline
 62
253
  6
CONTINUOUS
 90
10
 70
0
 10
23.3294090313
 20
15.2730296442
 10
23.1946744017
 20
15.3312693466
 10
23.0545804264
 20
15.3832518569
 10
22.9091271054
 20
15.4289771753
 10
22.7575824934
 20
15.4687711676
 10
22.6006785357
 20
15.5023079678
 10
22.4406110678
 20
15.5286099786
 10
22.278112035
 20
15.5473513339
 10
22.112449492
 20
15.5588578996
 10
21.9436234389
 20
15.5631296758
  0
LWPOLYLINE
  5
330
100
AcDbEntity
  8
_58100
100
AcDbPolyline
 62
253
  6
CONTINUOUS
 90
16
 70
0
 10
24.7436225662
 20
13.7631296758
 10
24.6177895539
 20
13.8406723762
 10
24.4926117166
 20
13.9156112236
 10
24.3684671646
 20
13.9875754231
 10
24.245930089
 20
14.0560328578
 10
24.125211517
 20
14.1210005764
 10
24.006041621
 20
14.1829847133
 10
23.8886392538
 20
14.2418776166
 10
23.7733197874
 20
14.2974845185
 10
23.659790989
 20
14.3501401345
 10
23.5482151951
 20
14.3997513407
 10
23.4388317113
 20
14.4462001686
 10
23.3313571289
 20
14.4897172869
 10
23.2257846862
 20
14.530291925
 10
23.1224309728
 20
14.5677307303
 10
23.0214565617
 20
14.6019626643
  0
LWPOLYLINE
  5
331
100
AcDbEntity
  8
_58100
100
AcDbPolyline
 62
253
  6
CONTINUOUS
 90
19
 70
0
 10
23.3294090313
 20
15.2730296437
 10
23.40176294
 20
15.2250193529
 10
23.4755043371
 20
15.1728719851
 10
23.5505236256
 20
15.1165875403
 10
23.6266502122
 20
15.0562009281
 10
23.70379877
 20
14.991677239
 10
23.7819656475
 20
14.9229117442
 10
23.8608624092
 20
14.8499954587
 10
23.9404347234
 20
14.7728373676
 10
24.0209854431
 20
14.6910596964
 10
24.1023954122
 20
14.6044777622
 10
24.1842837268
 20
14.5132762481
 10
24.2664994963
 20
14.4176314283
 10
24.3489355565
 20
14.3171456092
 10
24.4310266987
 20
14.2122164845
 10
24.5119328616
 20
14.1042134099
 10
24.5911607427
 20
13.9935928374
 10
24.6685147677
 20
13.8798983151
 10
24.7436223025
 20
13.7631298429
  0
LINE
  5
332
100
AcDbEntity
  8
_58100
100
AcDbLine
 62
253
  6
CONTINUOUS
 10
-25.8005074852
 20
48.6692745823
 11
-24.9727290173
 21
48.0896578589
  0
LINE
  5
333
100
AcDbEntity
  8
_58100
100
AcDbLine
 62
253
  6
CONTINUOUS
 10
-20.4660041919
 20
44.9340151623
 11
-19.2556637499
 21
44.0865256607
  0
LINE
  5
334
100
AcDbEntity
  8
_58100
100
AcDbLine
 62
253
  6
CONTINUOUS
 10
-26.3553565963
 20
49.7108021662
 11
-26.1003745073
 21
49.5255468346
  0
LWPOLYLINE
  5
335
100
AcDbEntity
  8
_58100
100
AcDbPolyline
 62
253
  6
CONTINUOUS
 90
16
 70
0
 10
25.525827172
 20
46.8128209931
 10
25.5150348881
 20
46.9814898587
 10
25.4948964693
 20
47.1483888091
 10
25.4656272094
 20
47.313011751
 10
25.4274601063
 20
47.4749034765
 10
25.380664528
 20
47.63357034
 10
25.3255607001
 20
47.7884860077
 10
25.2625159444
 20
47.9391374088
 10
25.191833364
 20
48.0852484613
 10
25.1137418861
 20
48.2266741873
 10
25.0284933721
 20
48.3631870169
 10
24.9365046656
 20
48.4943271012
 10
24.8382638947
 20
48.6196373932
 10
24.73421236
 20
48.7388100952
 10
24.624713906
 20
48.8516663248
 10
24.510177218
 20
48.9580006623
  0
LINE
  5
336
100
AcDbEntity
  8
_58100
100
AcDbLine
 62
253
  6
CONTINUOUS
 10
28.0848527296
 20
-49.1555168529
 11
24.6879037491
 21
44.7213549701
  0
LINE
  5
337
100
AcDbEntity
  8
_58100
100
AcDbLine
 62
7
  6
CONTINUOUS
 10
29.1398713357
 20
-49.1928762033
 11
25.7808092554
 21
46.9980763206
  0
LINE
  5
338
100
AcDbEntity
  8
_62181
100
AcDbLine
 62
7
  6
CONTINUOUS
 10
29.1578222527
 20
-49.2066184378
 11
25.7978479861
 21
47.0104556831
  0
LINE
  5
339
100
AcDbEntity
  8
_58100
100
AcDbLine
 62
253
  6
CONTINUOUS
 10
25.5570030216
 20
44.9980184969
 11
28.9598784862
 21
-49.0508828311
  0
LINE
  5
33A
100
AcDbEntity
  8
_58100
100
AcDbLine
 62
253
  6
CONTINUOUS
 10
25.5485904427
 20
45.2783725227
 11
25.5570030216
 21
44.9980184969
  0
LINE
  5
33B
100
AcDbEntity
  8
_58100
100
AcDbLine
 62
253
  6
CONTINUOUS
 10
25.5409247448
 20
45.5863520913
 11
25.5485904427
 21
45.2783725227
  0
LINE
  5
33C
100
AcDbEntity
  8
_58100
100
AcDbLine
 62
253
  6
CONTINUOUS
 10
25.5343487987
 20
45.9208485867
 11
25.5409247448
 21
45.5863520913
  0
LINE
  5
33D
100
AcDbEntity
  8
_58100
100
AcDbLine
 62
253
  6
CONTINUOUS
 10
25.5293014357
 20
46.2783309777
 11
25.5343487987
 21
45.9208485867
  0
LWPOLYLINE
  5
33E
100
AcDbEntity
  8
_58100
100
AcDbPolyline
 62
253
  6
CONTINUOUS
 90
19
 70
0
 10
28.9598528544
 20
-49.0508837258
 10
28.9637888292
 20
-49.4521337821
 10
28.9463733619
 20
-49.8628603525
 10
28.9060733413
 20
-50.2819113678
 10
28.8398972514
 20
-50.7160908329
 10
28.7469733011
 20
-51.1556047165
 10
28.6330916352
 20
-51.5749826501
 10
28.506615829
 20
-51.9576336489
 10
28.365947701
 20
-52.3196956069
 10
28.2022761201
 20
-52.6846098667
 10
28.0084032428
 20
-53.0618565917
 10
27.7880604352
 20
-53.4378993287
 10
27.5470307737
 20
-53.8010017414
 10
27.2900823038
 20
-54.1449670193
 10
27.0145415075
 20
-54.4743484359
 10
26.7158115426
 20
-54.7937654351
 10
26.3919543796
 20
-55.1031864249
 10
26.0447818031
 20
-55.3988057183
 10
25.6745491655
 20
-55.6787079121
  0
LINE
  5
33F
100
AcDbEntity
  8
_58100
100
AcDbLine
 62
253
  6
CONTINUOUS
 10
25.5270854869
 20
46.5262205779
 11
25.5293014357
 21
46.2783309777
  0
LINE
  5
340
100
AcDbEntity
  8
_58100
100
AcDbLine
 62
253
  6
CONTINUOUS
 10
25.5258271663
 20
46.812820989
 11
25.5270854869
 21
46.5262205779
  0
LWPOLYLINE
  5
341
100
AcDbEntity
  8
_58100
100
AcDbPolyline
 62
253
  6
CONTINUOUS
 90
19
 70
0
 10
-4.2628290523
 20
-54.1370546563
 10
-4.3108393208
 20
-54.2094085544
 10
-4.362986671
 20
-54.2831499433
 10
-4.4192711028
 20
-54.358169226
 10
-4.4796577081
 20
-54.4342958101
 10
-4.5441813952
 20
-54.5114443678
 10
-4.6129468884
 20
-54.5896112458
 10
-4.6858631711
 20
-54.6685080077
 10
-4.76302126
 20
-54.7480803228
 10
-4.8447989298
 20
-54.8286310441
 10
-4.9313808637
 20
-54.9100410158
 10
-5.0225823785
 20
-54.9919293337
 10
-5.1182271999
 20
-55.0741451071
 10
-5.2187130237
 20
-55.1565811709
 10
-5.3236421542
 20
-55.2386723172
 10
-5.431645229
 20
-55.3195784875
 10
-5.5422657941
 20
-55.3988063796
 10
-5.6559603036
 20
-55.476160418
 10
-5.7727287574
 20
-55.551267968
  0
LINE
  5
342
100
AcDbEntity
  8
_64839
100
AcDbLine
 62
7
  6
CONTINUOUS
 10
-22.0797337546
 20
34.6299470401
 11
-13.0152066261
 21
32.0193632271
  0
LINE
  5
343
100
AcDbEntity
  8
_64839
100
AcDbLine
 62
7
  6
CONTINUOUS
 10
-12.6277549682
 20
33.3646814842
 11
-21.6922820965
 21
35.9752652972
  0
LINE
  5
344
100
AcDbEntity
  8
_64839
100
AcDbLine
 62
253
  6
CONTINUOUS
 10
-21.5262313859
 20
36.5518302645
 11
-12.4617042576
 21
33.9412464515
  0
LINE
  5
345
100
AcDbEntity
  8
_64839
100
AcDbLine
 62
253
  6
CONTINUOUS
 10
19.5807733513
 20
36.5518302645
 11
19.7468240619
 21
35.9752652972
  0
LINE
  5
346
100
AcDbEntity
  8
_58100
100
AcDbLine
 62
253
  6
CONTINUOUS
 10
-25.2994706636
 20
-57.3043864127
 11
-24.9775305919
 21
-57.0977688107
  0
LINE
  5
347
100
AcDbEntity
  8
_64839
100
AcDbLine
 62
7
  6
CONTINUOUS
 10
-11.908201889
 20
31.8631296758
 11
9.9627438543
 21
31.8631296758
  0
LINE
  5
348
100
AcDbEntity
  8
_64839
100
AcDbLine
 62
7
  6
CONTINUOUS
 10
2.3272709827
 20
32.6131296758
 11
-4.2727290173
 21
32.6131296758
  0
LINE
  5
349
100
AcDbEntity
  8
_64839
100
AcDbLine
 62
7
  6
CONTINUOUS
 10
-11.908201889
 20
33.2631296758
 11
9.9627438543
 21
33.2631296758
  0
LINE
  5
34A
100
AcDbEntity
  8
_64839
100
AcDbLine
 62
253
  6
CONTINUOUS
 10
9.9627438543
 20
33.8631296758
 11
-11.908201889
 21
33.8631296758
  0
LINE
  5
34B
100
AcDbEntity
  8
0
100
AcDbLine
 62
7
  6
CONTINUOUS
 10
5.0272709827
 20
40.9631296758
 11
5.5272709827
 21
40.4631296758
  0
LINE
  5
34C
100
AcDbEntity
  8
_58100
100
AcDbLine
 62
253
  6
CONTINUOUS
 10
23.3294090425
 20
21.2532297272
 11
23.0214673742
 21
21.9242726195
  0
LWPOLYLINE
  5
34D
100
AcDbEntity
  8
_58100
100
AcDbPolyline
 62
253
  6
CONTINUOUS
 90
13
 70
0
 10
24.6879037474
 20
44.7213549752
 10
24.6143249758
 20
45.0526999676
 10
24.5302136852
 20
45.3931818513
 10
24.4353777729
 20
45.741235216
 10
24.3286641219
 20
46.1001725904
 10
24.2108499582
 20
46.4629414744
 10
24.0866600731
 20
46.8130970302
 10
23.96181444
 20
47.1413810583
 10
23.8350336746
 20
47.4560093076
 10
23.7010426924
 20
47.7668243095
 10
23.5580642151
 20
48.0755157734
 10
23.4091039091
 20
48.3768947437
 10
23.2550835235
 20
48.6692984425
  0
LWPOLYLINE
  5
34E
100
AcDbEntity
  8
_58100
100
AcDbPolyline
 62
253
  6
CONTINUOUS
 90
16
 70
0
 10
25.5258953042
 20
46.7805466399
 10
25.5022534958
 20
46.9556139889
 10
25.4572280719
 20
47.1273695249
 10
25.3916172171
 20
47.2946308331
 10
25.3067527203
 20
47.4556159249
 10
25.2034347651
 20
47.61002859
 10
25.0811123681
 20
47.7588093959
 10
24.9397439595
 20
47.9013743104
 10
24.780511403
 20
48.0359736046
 10
24.6041693737
 20
48.1615842315
 10
24.4116112363
 20
48.2771798558
 10
24.2040820915
 20
48.3816514714
 10
23.9830975929
 20
48.4739377897
 10
23.7502106124
 20
48.5531405011
 10
23.5069630297
 20
48.6184960081
 10
23.2550835167
 20
48.6693010025
  0
LINE
  5
34F
100
AcDbEntity
  8
_64839
100
AcDbLine
 62
7
  6
CONTINUOUS
 10
1.8272709827
 20
36.3631296758
 11
-4.1727290173
 21
36.3631296758
  0
LINE
  5
350
100
AcDbEntity
  8
_64839
100
AcDbLine
 62
7
  6
CONTINUOUS
 10
-5.5727290173
 20
38.1631296758
 11
-8.0727290173
 21
38.1631296758
  0
LINE
  5
351
100
AcDbEntity
  8
0
100
AcDbLine
 62
7
  6
CONTINUOUS
 10
5.5272709827
 20
38.3631296758
 11
11.5272709827
 21
38.3631296758
  0
LINE
  5
352
100
AcDbEntity
  8
_64839
100
AcDbLine
 62
253
  6
CONTINUOUS
 10
21.6272709827
 20
38.4737134888
 11
21.0272709827
 21
38.4737134888
  0
LINE
  5
353
100
AcDbEntity
  8
_64839
100
AcDbLine
 62
253
  6
CONTINUOUS
 10
-22.9727290173
 20
38.4737134888
 11
-23.5727290173
 21
38.4737134888
  0
LINE
  5
354
100
AcDbEntity
  8
0
100
AcDbLine
 62
7
  6
CONTINUOUS
 10
11.7272709827
 20
38.7631296758
 11
11.5272709827
 21
38.7631296758
  0
LINE
  5
355
100
AcDbEntity
  8
0
100
AcDbLine
 62
7
  6
CONTINUOUS
 10
1.5272709827
 20
38.8131296758
 11
5.5272709827
 21
38.8131296758
  0
LINE
  5
356
100
AcDbEntity
  8
0
100
AcDbLine
 62
7
  6
CONTINUOUS
 10
5.0272709827
 20
46.7631296758
 11
5.5272709827
 21
46.2631296758
  0
LINE
  5
357
100
AcDbEntity
  8
_58100
100
AcDbLine
 62
7
  6
CONTINUOUS
 10
0.0355214929
 20
40.0813198612
 11
0.3201231347
 21
40.1127703173
  0
LINE
  5
358
100
AcDbEntity
  8
_58100
100
AcDbLine
 62
7
  6
CONTINUOUS
 10
-0.3396065197
 20
40.0501538921
 11
0.0355214929
 21
40.0813198612
  0
LWPOLYLINE
  5
359
100
AcDbEntity
  8
_58100
100
AcDbPolyline
 62
253
  6
CONTINUOUS
 90
10
 70
0
 10
24.6879037489
 20
44.7213549754
 10
24.857106266
 20
44.7341344336
 10
25.0103694063
 20
44.746825102
 10
25.1466259092
 20
44.759338652
 10
25.2649243221
 20
44.7715877056
 10
25.3644439776
 20
44.7834872902
 10
25.4444963575
 20
44.794955342
 10
25.5045205861
 20
44.8059121615
 10
25.5440918032
 20
44.8162810615
 10
25.5629294806
 20
44.825989686
  0
LWPOLYLINE
  5
35A
100
AcDbEntity
  8
_58100
100
AcDbPolyline
 62
7
  6
CONTINUOUS
 90
3
 70
0
 10
-1.0865929033
 20
40.0189789185
 10
-0.713846571
 20
40.029374328
 10
-0.3396065197
 20
40.0501538921
  0
LINE
  5
35B
100
AcDbEntity
  8
_58100
100
AcDbLine
 62
7
  6
CONTINUOUS
 10
-1.4584512742
 20
40.0189699139
 11
-1.0865929033
 21
40.0189789185
  0
LINE
  5
35C
100
AcDbEntity
  8
_58100
100
AcDbLine
 62
7
  6
CONTINUOUS
 10
0.3000448182
 20
40.1342723959
 11
-2.8440242395
 21
40.1342723959
  0
LINE
  5
35D
100
AcDbEntity
  8
0
100
AcDbLine
 62
7
  6
CONTINUOUS
 10
1.5272709827
 20
40.3131296758
 11
5.5272709827
 21
40.3131296758
  0
LINE
  5
35E
100
AcDbEntity
  8
_33604
100
AcDbLine
 62
7
  6
CONTINUOUS
 10
0.2052402533
 20
40.8631296758
 11
-4.1727290173
 21
40.8631296758
  0
LINE
  5
35F
100
AcDbEntity
  8
_33604
100
AcDbLine
 62
7
  6
CONTINUOUS
 10
-4.1727290173
 20
41.1514333303
 11
-0.6421061073
 21
41.1514333303
  0
LINE
  5
360
100
AcDbEntity
  8
_33604
100
AcDbLine
 62
7
  6
CONTINUOUS
 10
-4.1727290173
 20
41.2131296758
 11
-1.2727290173
 21
41.2131296758
  0
LINE
  5
361
100
AcDbEntity
  8
_64839
100
AcDbLine
 62
7
  6
CONTINUOUS
 10
-4.1727290173
 20
43.8631296758
 11
1.8272709827
 21
43.8631296758
  0
LINE
  5
362
100
AcDbEntity
  8
_58100
100
AcDbLine
 62
7
  6
CONTINUOUS
 10
-1.8312389561
 20
40.0293540653
 11
-1.4584512742
 21
40.0189699139
  0
LINE
  5
363
100
AcDbEntity
  8
_58100
100
AcDbLine
 62
7
  6
CONTINUOUS
 10
-2.2055617066
 20
40.0501336227
 11
-1.8312389561
 21
40.0293540653
  0
LWPOLYLINE
  5
364
100
AcDbEntity
  8
_58100
100
AcDbPolyline
 62
253
  6
CONTINUOUS
 90
10
 70
0
 10
-27.2333635287
 20
44.7213067435
 10
-27.402584804
 20
44.7340876833
 10
-27.555861146
 20
44.7467796524
 10
-27.6921255662
 20
44.7592942993
 10
-27.8104295
 20
44.7715445069
 10
-27.9099494093
 20
44.7834449991
 10
-27.9899925154
 20
44.7949129341
 10
-28.0500016217
 20
44.8058684812
 10
-28.0895589925
 20
44.8162353766
 10
-28.1083892606
 20
44.8259414541
  0
LINE
  5
365
100
AcDbEntity
  8
_58100
100
AcDbLine
 62
7
  6
CONTINUOUS
 10
-2.5808137682
 20
40.0813063361
 11
-2.2055617066
 21
40.0501336227
  0
LINE
  5
366
100
AcDbEntity
  8
_58100
100
AcDbLine
 62
7
  6
CONTINUOUS
 10
-2.8655745654
 20
40.1127707597
 11
-2.5808137682
 21
40.0813063361
  0
LWPOLYLINE
  5
367
100
AcDbEntity
  8
_58100
100
AcDbPolyline
 62
253
  6
CONTINUOUS
 90
6
 70
0
 10
17.891749189
 20
43.099582136
 10
17.7952195947
 20
43.2107134229
 10
17.5499550377
 20
43.4560227783
 10
17.2864857177
 20
43.6848468646
 10
17.0061980303
 20
43.8954585835
 10
16.7102057125
 20
44.0865256625
  0
LINE
  5
368
100
AcDbEntity
  8
0
100
AcDbLine
 62
7
  6
CONTINUOUS
 10
1.5272709827
 20
44.0131296758
 11
5.5272709827
 21
44.0131296758
  0
LINE
  5
369
100
AcDbEntity
  8
0
100
AcDbLine
 62
7
  6
CONTINUOUS
 10
5.5272709827
 20
45.5131296758
 11
1.5272709827
 21
45.5131296758
  0
LINE
  5
36A
100
AcDbEntity
  8
_64839
100
AcDbLine
 62
7
  6
CONTINUOUS
 10
1.8272709827
 20
45.7631296758
 11
-4.1727290173
 21
45.7631296758
  0
LINE
  5
36B
100
AcDbEntity
  8
_58100
100
AcDbLine
 62
253
  6
CONTINUOUS
 10
13.5727893343
 20
45.2284518359
 11
16.7102057117
 21
44.086525662
  0
LINE
  5
36C
100
AcDbEntity
  8
_58100
100
AcDbLine
 62
253
  6
CONTINUOUS
 10
1.7173694991
 20
-54.1370513321
 11
2.3884177353
 21
-53.8291125498
  0
LWPOLYLINE
  5
36D
100
AcDbEntity
  8
_58100
100
AcDbPolyline
 62
253
  6
CONTINUOUS
 90
16
 70
0
 10
-25.8005415517
 20
48.6693008984
 10
-26.0468996823
 20
48.6197880258
 10
-26.2844056305
 20
48.5565429027
 10
-26.5115181361
 20
48.4803287303
 10
-26.7259388194
 20
48.3923825498
 10
-26.9273970537
 20
48.2932986233
 10
-27.1171355652
 20
48.1825254264
 10
-27.294309184
 20
48.0601467904
 10
-27.456636668
 20
47.9272927773
 10
-27.6027964315
 20
47.784666636
 10
-27.7314886782
 20
47.6330654718
 10
-27.8413623874
 20
47.4735389469
 10
-27.931186856
 20
47.3073095915
 10
-27.999972296
 20
47.13559355
 10
-28.0469199607
 20
46.9595735802
 10
-28.0713533391
 20
46.7805465359
  0
LINE
  5
36E
100
AcDbEntity
  8
0
100
AcDbLine
 62
7
  6
CONTINUOUS
 10
1.5272709827
 20
49.2131296758
 11
5.5272709827
 21
49.2131296758
  0
LINE
  5
36F
100
AcDbEntity
  8
_64839
100
AcDbLine
 62
7
  6
CONTINUOUS
 10
-8.0727290173
 20
50.1631296758
 11
-5.5727290173
 21
50.1631296758
  0
LINE
  5
370
100
AcDbEntity
  8
_64839
100
AcDbLine
 62
7
  6
CONTINUOUS
 10
-4.1727290173
 20
50.3631296758
 11
1.5272709827
 21
50.3631296758
  0
LINE
  5
371
100
AcDbEntity
  8
0
100
AcDbLine
 62
7
  6
CONTINUOUS
 10
5.5272709827
 20
50.7131296758
 11
1.5272709827
 21
50.7131296758
  0
LINE
  5
372
100
AcDbEntity
  8
_64839
100
AcDbLine
 62
253
  6
CONTINUOUS
 10
-23.5727290173
 20
51.0525458628
 11
-22.9727290173
 21
51.0525458628
  0
LINE
  5
373
100
AcDbEntity
  8
_64839
100
AcDbLine
 62
253
  6
CONTINUOUS
 10
21.0272709827
 20
51.0525458628
 11
21.6272709827
 21
51.0525458628
  0
LINE
  5
374
100
AcDbEntity
  8
0
100
AcDbLine
 62
7
  6
CONTINUOUS
 10
11.5272709827
 20
51.1631296758
 11
5.5272709827
 21
51.1631296758
  0
LINE
  5
375
100
AcDbEntity
  8
_64839
100
AcDbLine
 62
7
  6
CONTINUOUS
 10
5.0272709827
 20
52.1881296758
 11
-10.5727290173
 21
52.1881296758
  0
LINE
  5
376
100
AcDbEntity
  8
_64839
100
AcDbLine
 62
7
  6
CONTINUOUS
 10
-4.1727290173
 20
52.5894124962
 11
-9.4727290173
 21
52.5894124962
  0
LINE
  5
377
100
AcDbEntity
  8
_58100
100
AcDbLine
 62
253
  6
CONTINUOUS
 10
-10.5727290173
 20
52.6075246723
 11
-9.4727290173
 21
52.6075246723
  0
LINE
  5
378
100
AcDbEntity
  8
_58100
100
AcDbLine
 62
253
  6
CONTINUOUS
 10
-4.1727290173
 20
52.6075246723
 11
1.8272709827
 21
52.6075246723
  0
LWPOLYLINE
  5
379
100
AcDbEntity
  8
_58100
100
AcDbPolyline
 62
253
  6
CONTINUOUS
 90
10
 70
0
 10
23.2550153789
 20
48.7015753224
 10
23.4595627874
 20
48.6615815867
 10
23.6594295426
 20
48.6117573387
 10
23.8536098098
 20
48.5523533193
 10
24.0411263735
 20
48.4836684789
 10
24.2210355497
 20
48.406048476
 10
24.3924319363
 20
48.3198839386
 10
24.5544529754
 20
48.2256084932
 10
24.7062832937
 20
48.1236965822
 10
24.8471588016
 20
48.0146610797
  0
LWPOLYLINE
  5
37A
100
AcDbEntity
  8
_58100
100
AcDbPolyline
 62
253
  6
CONTINUOUS
 90
16
 70
0
 10
26.0041217574
 20
-53.2762335169
 10
25.8264579044
 20
-53.4969992303
 10
25.6324676989
 20
-53.7212543846
 10
25.4221086864
 20
-53.947801089
 10
25.1967295786
 20
-54.1740070699
 10
24.9554020974
 20
-54.3998616165
 10
24.6942073761
 20
-54.6276706059
 10
24.4085099663
 20
-54.8588217752
 10
24.1026257876
 20
-55.0873787878
 10
23.7868305142
 20
-55.305028948
 10
23.4617375162
 20
-55.510986673
 10
23.1299007173
 20
-55.7030770624
 10
22.8064502003
 20
-55.8738279093
 10
22.4980568618
 20
-56.0221978868
 10
22.2020403589
 20
-56.1515044931
 10
21.9198044041
 20
-56.2629839751
  0
LWPOLYLINE
  5
37B
100
AcDbEntity
  8
_58100
100
AcDbPolyline
 62
253
  6
CONTINUOUS
 90
10
 70
0
 10
28.9598784489
 20
-49.0508818003
 10
28.9412748708
 20
-49.0605097489
 10
28.9021726236
 20
-49.070808404
 10
28.8427280319
 20
-49.0817103449
 10
28.7632534046
 20
-49.0931416447
 10
28.6641836791
 20
-49.1050272466
 10
28.5460475914
 20
-49.1172920134
 10
28.4095243201
 20
-49.1298541939
 10
28.2554682465
 20
-49.1426254004
 10
28.0848527172
 20
-49.1555165109
  0
LINE
  5
37C
100
AcDbEntity
  8
_64839
100
AcDbLine
 62
7
  6
CONTINUOUS
 10
-4.1727290173
 20
52.9004698914
 11
-9.4727290173
 21
52.9004698914
  0
LINE
  5
37D
100
AcDbEntity
  8
_64839
100
AcDbLine
 62
7
  6
CONTINUOUS
 10
-4.1727290173
 20
53.1588731112
 11
-9.4727290173
 21
53.1588731112
  0
LINE
  5
37E
100
AcDbEntity
  8
_64839
100
AcDbLine
 62
7
  6
CONTINUOUS
 10
-4.1727290173
 20
53.3629501093
 11
-9.4727290173
 21
53.3629501093
  0
LINE
  5
37F
100
AcDbEntity
  8
_58100
100
AcDbLine
 62
253
  6
CONTINUOUS
 10
1.8272709827
 20
53.4843772268
 11
-4.1727290173
 21
53.4843772268
  0
LINE
  5
380
100
AcDbEntity
  8
_58100
100
AcDbLine
 62
253
  6
CONTINUOUS
 10
-9.4727290173
 20
53.4843772268
 11
-10.5727290173
 21
53.4843772268
  0
LINE
  5
381
100
AcDbEntity
  8
_64839
100
AcDbLine
 62
7
  6
CONTINUOUS
 10
-9.4727290173
 20
53.5113803676
 11
-4.1727290173
 21
53.5113803676
  0
LINE
  5
382
100
AcDbEntity
  8
_64839
100
AcDbLine
 62
7
  6
CONTINUOUS
 10
-4.1727290173
 20
53.6381296758
 11
-9.4727290173
 21
53.6381296758
  0
LINE
  5
383
100
AcDbEntity
  8
_64839
100
AcDbLine
 62
7
  6
CONTINUOUS
 10
-9.4727290173
 20
53.6557646059
 11
-9.1727290173
 21
53.6557646059
  0
LINE
  5
384
100
AcDbEntity
  8
_58100
100
AcDbLine
 62
7
  6
CONTINUOUS
 10
1.8272709827
 20
53.7456692911
 11
-4.1727290173
 21
53.7456692911
  0
LINE
  5
385
100
AcDbEntity
  8
_58100
100
AcDbLine
 62
7
  6
CONTINUOUS
 10
-9.1727290173
 20
53.7456692911
 11
-10.5727290173
 21
53.7456692911
  0
LINE
  5
386
100
AcDbEntity
  8
_62181
100
AcDbLine
 62
7
  6
CONTINUOUS
 10
1.8272709827
 20
53.7631296758
 11
-4.1727290173
 21
53.7631296758
  0
LINE
  5
387
100
AcDbEntity
  8
_62181
100
AcDbLine
 62
7
  6
CONTINUOUS
 10
-9.1727290173
 20
53.7631296758
 11
-10.5727290173
 21
53.7631296758
  0
LINE
  5
388
100
AcDbEntity
  8
_64839
100
AcDbLine
 62
7
  6
CONTINUOUS
 10
1.8272709827
 20
54.0312211252
 11
5.0272709827
 21
54.0312211252
  0
LINE
  5
389
100
AcDbEntity
  8
_64839
100
AcDbLine
 62
7
  6
CONTINUOUS
 10
-4.1727290173
 20
54.0312211252
 11
-9.1727290173
 21
54.0312211252
  0
LINE
  5
38A
100
AcDbEntity
  8
_64839
100
AcDbLine
 62
7
  6
CONTINUOUS
 10
-10.5727290173
 20
55.0881296758
 11
5.0272709827
 21
55.0881296758
  0
LINE
  5
38B
100
AcDbEntity
  8
_64839
100
AcDbLine
 62
253
  6
CONTINUOUS
 10
-11.908201889
 20
55.6631296758
 11
9.9627438543
 21
55.6631296758
  0
LINE
  5
38C
100
AcDbEntity
  8
_64839
100
AcDbLine
 62
7
  6
CONTINUOUS
 10
9.9627438543
 20
56.2631296758
 11
-11.908201889
 21
56.2631296758
  0
LINE
  5
38D
100
AcDbEntity
  8
_64839
100
AcDbLine
 62
7
  6
CONTINUOUS
 10
-4.2727290173
 20
56.9131296758
 11
2.3272709827
 21
56.9131296758
  0
LINE
  5
38E
100
AcDbEntity
  8
0
100
AcDbLine
 62
7
  6
CONTINUOUS
 10
14.6380346541
 20
52.4571960861
 11
14.3445903739
 21
52.5195695933
  0
LINE
  5
38F
100
AcDbEntity
  8
_64839
100
AcDbLine
 62
253
  6
CONTINUOUS
 10
19.5807733513
 20
52.9744290872
 11
10.5162462229
 21
55.5850129001
  0
LINE
  5
390
100
AcDbEntity
  8
_58100
100
AcDbLine
 62
253
  6
CONTINUOUS
 10
23.2550494506
 20
48.7015625216
 11
23.0272709827
 21
48.784467104
  0
LINE
  5
391
100
AcDbEntity
  8
_58100
100
AcDbLine
 62
253
  6
CONTINUOUS
 10
23.5549164867
 20
49.5255468449
 11
23.0272709827
 21
49.7175941026
  0
LINE
  5
392
100
AcDbEntity
  8
_58100
100
AcDbLine
 62
7
  6
CONTINUOUS
 10
23.0272709827
 20
49.9956553095
 11
23.8098985617
 21
49.7108021663
  0
LINE
  5
393
100
AcDbEntity
  8
_62181
100
AcDbLine
 62
7
  6
CONTINUOUS
 10
23.8269372924
 20
49.7231815288
 11
23.0272709827
 21
50.0142362629
  0
LWPOLYLINE
  5
394
100
AcDbEntity
  8
_58100
100
AcDbPolyline
 62
253
  6
CONTINUOUS
 90
10
 70
0
 10
24.510177218
 20
48.9580006623
 10
24.4258304327
 20
49.0295977732
 10
24.3362050281
 20
49.100080663
 10
24.241192461
 20
49.1690441927
 10
24.1407062149
 20
49.2360606767
 10
24.0346822191
 20
49.300681974
 10
23.9230815214
 20
49.3624398918
 10
23.8058965079
 20
49.4208451851
 10
23.6831541334
 20
49.4753891963
 10
23.5549164833
 20
49.5255468424
  0
LWPOLYLINE
  5
395
100
AcDbEntity
  8
_58100
100
AcDbPolyline
 62
253
  6
CONTINUOUS
 90
10
 70
0
 10
24.8471588016
 20
48.0146610797
 10
24.9763705388
 20
47.8990507243
 10
25.0932682453
 20
47.7774473133
 10
25.1972636306
 20
47.6504628188
 10
25.2878333355
 20
47.5187362927
 10
25.3645215658
 20
47.3829306527
 10
25.426942386
 20
47.2437293459
 10
25.474781662
 20
47.1018329071
 10
25.5077986416
 20
46.9579554329
 10
25.5258271663
 20
46.8128209901
  0
LWPOLYLINE
  5
396
100
AcDbEntity
  8
_58100
100
AcDbPolyline
 62
253
  6
CONTINUOUS
 90
16
 70
0
 10
26.0041217597
 20
-53.2762335122
 10
26.2810473023
 20
-53.0692042956
 10
26.5392499566
 20
-52.848153823
 10
26.7787297225
 20
-52.6130820943
 10
27.000182827
 20
-52.3622766986
 10
27.2029130432
 20
-52.0974500469
 10
27.3848316903
 20
-51.8237393721
 10
27.5452249405
 20
-51.5417165121
 10
27.6848066216
 20
-51.2508096291
 10
27.8036295361
 20
-50.9544404427
 10
27.901558907
 20
-50.6505215091
 10
27.9787295113
 20
-50.3411402721
 10
28.0355984824
 20
-50.0359807828
 10
28.072318198
 20
-49.7382710584
 10
28.0887362804
 20
-49.4447830818
 10
28.0848527296
 20
-49.1555168529
  0
LWPOLYLINE
  5
397
100
AcDbEntity
  8
_58100
100
AcDbPolyline
 62
253
  6
CONTINUOUS
 90
13
 70
0
 10
25.6745491655
 20
-55.6787079121
 10
25.4698284751
 20
-55.8200926844
 10
25.2517519459
 20
-55.9617379826
 10
25.0199335136
 20
-56.1025879564
 10
24.7713270802
 20
-56.242999008
 10
24.5082323116
 20
-56.3800873043
 10
24.2388348936
 20
-56.5087243516
 10
23.9654970452
 20
-56.6276679314
 10
23.6864798211
 20
-56.7375523693
 10
23.4044277621
 20
-56.8372246743
 10
23.1205387209
 20
-56.9263573121
 10
22.8344497943
 20
-57.0051625364
 10
22.5465687702
 20
-57.0735775264
  0
LINE
  5
398
100
AcDbEntity
  8
_64839
100
AcDbLine
 62
7
  6
CONTINUOUS
 10
9.9627438543
 20
57.6631296758
 11
-11.908201889
 21
57.6631296758
  0
LINE
  5
399
100
AcDbEntity
  8
_64839
100
AcDbLine
 62
7
  6
CONTINUOUS
 10
10.6822969335
 20
56.1615778674
 11
19.7468240616
 21
53.5509940545
  0
LINE
  5
39A
100
AcDbEntity
  8
_64839
100
AcDbLine
 62
7
  6
CONTINUOUS
 10
20.1342757196
 20
54.8963123116
 11
11.0697485914
 21
57.5068961245
  0
ARC
  5
39B
100
AcDbEntity
  8
_62181
100
AcDbCircle
 62
7
  6
CONTINUOUS
 10
-16.2727290173
 20
-13.2368703242
 40
45.0
100
AcDbArc
 50
258.4012524904
 51
270.0000000001
  0
ARC
  5
39C
100
AcDbEntity
  8
_58100
100
AcDbCircle
 62
7
  6
CONTINUOUS
 10
-16.2727290173
 20
-13.2368703242
 40
44.9825401087
100
AcDbArc
 50
258.4240983295
 51
270.0
  0
ARC
  5
39D
100
AcDbEntity
  8
_58100
100
AcDbCircle
 62
253
  6
CONTINUOUS
 10
-5.7727290173
 20
13.7631296758
 40
1.8000924535
100
AcDbArc
 50
0.0019807071
 51
89.9983292067
  0
ARC
  5
39E
100
AcDbEntity
  8
_58100
100
AcDbCircle
 62
7
  6
CONTINUOUS
 10
-5.7727290173
 20
13.7631296758
 40
1.0
100
AcDbArc
 50
0.0
 51
90.0
  0
CIRCLE
  5
39F
100
AcDbEntity
  8
_64839
100
AcDbCircle
 62
7
  6
CONTINUOUS
 10
-17.9727290173
 20
44.7631296758
 40
5.6
  0
CIRCLE
  5
3A0
100
AcDbEntity
  8
_64839
100
AcDbCircle
 62
7
  6
CONTINUOUS
 10
-17.9727290173
 20
44.7631296758
 40
4.5
  0
ARC
  5
3A1
100
AcDbEntity
  8
_64839
100
AcDbCircle
 62
7
  6
CONTINUOUS
 10
-11.908201889
 20
53.6631296758
 40
4.0
100
AcDbArc
 50
90.0
 51
106.0664005341
  0
ARC
  5
3A2
100
AcDbEntity
  8
_64839
100
AcDbCircle
 62
7
  6
CONTINUOUS
 10
-20.9727290173
 20
51.0525458628
 40
4.0
100
AcDbArc
 50
106.0664005357
 51
180.0
  0
ARC
  5
3A3
100
AcDbEntity
  8
_64839
100
AcDbCircle
 62
7
  6
CONTINUOUS
 10
-20.9727290173
 20
38.4737134888
 40
4.0
100
AcDbArc
 50
180.0
 51
253.9335994643
  0
ARC
  5
3A4
100
AcDbEntity
  8
_64839
100
AcDbCircle
 62
7
  6
CONTINUOUS
 10
-11.908201889
 20
35.8631296758
 40
4.0
100
AcDbArc
 50
253.9335994659
 51
270.0
  0
ARC
  5
3A5
100
AcDbEntity
  8
_33604
100
AcDbCircle
 62
7
  6
CONTINUOUS
 10
-1.2727290173
 20
37.9131296758
 40
3.3
100
AcDbArc
 50
31.9134856847
 51
90.0
  0
ARC
  5
3A6
100
AcDbEntity
  8
_33604
100
AcDbCircle
 62
7
  6
CONTINUOUS
 10
-1.2727290173
 20
37.4631296758
 40
3.1
100
AcDbArc
 50
339.2003106131
 51
356.1013368111
  0
ARC
  5
3A7
100
AcDbEntity
  8
_33604
100
AcDbCircle
 62
7
  6
CONTINUOUS
 10
-1.2727290173
 20
37.4631296758
 40
3.1
100
AcDbArc
 50
0.0
 51
159.3578113822
  0
ARC
  5
3A8
100
AcDbEntity
  8
_64839
100
AcDbCircle
 62
7
  6
CONTINUOUS
 10
-11.908201889
 20
35.8631296758
 40
2.6
100
AcDbArc
 50
253.9335994646
 51
270.0
  0
ARC
  5
3A9
100
AcDbEntity
  8
_64839
100
AcDbCircle
 62
7
  6
CONTINUOUS
 10
-20.9727290173
 20
38.4737134888
 40
2.6
100
AcDbArc
 50
180.0
 51
253.9335994647
  0
ARC
  5
3AA
100
AcDbEntity
  8
_64839
100
AcDbCircle
 62
7
  6
CONTINUOUS
 10
-20.9727290173
 20
51.0525458628
 40
2.6
100
AcDbArc
 50
106.0664005351
 51
180.0
  0
ARC
  5
3AB
100
AcDbEntity
  8
_64839
100
AcDbCircle
 62
7
  6
CONTINUOUS
 10
-11.908201889
 20
53.6631296758
 40
2.6
100
AcDbArc
 50
90.0
 51
106.0664005358
  0
CIRCLE
  5
3AC
100
AcDbEntity
  8
_64839
100
AcDbCircle
 62
7
  6
CONTINUOUS
 10
-17.9727290173
 20
44.7631296758
 40
2.5
  0
ARC
  5
3AD
100
AcDbEntity
  8
_64839
100
AcDbCircle
 62
253
  6
CONTINUOUS
 10
-11.908201889
 20
35.8631296758
 40
2.0
100
AcDbArc
 50
253.9335994639
 51
269.9999999993
  0
ARC
  5
3AE
100
AcDbEntity
  8
_64839
100
AcDbCircle
 62
253
  6
CONTINUOUS
 10
-11.908201889
 20
53.6631296758
 40
2.0
100
AcDbArc
 50
90.0
 51
106.0664005367
  0
ARC
  5
3AF
100
AcDbEntity
  8
_64839
100
AcDbCircle
 62
253
  6
CONTINUOUS
 10
-20.9727290173
 20
51.0525458628
 40
2.0
100
AcDbArc
 50
106.0664005355
 51
180.0
  0
ARC
  5
3B0
100
AcDbEntity
  8
_64839
100
AcDbCircle
 62
253
  6
CONTINUOUS
 10
-20.9727290173
 20
38.4737134888
 40
2.0
100
AcDbArc
 50
180.0
 51
253.9335994648
  0
ARC
  5
3B1
100
AcDbEntity
  8
_58100
100
AcDbCircle
 62
7
  6
CONTINUOUS
 10
-5.7727290173
 20
22.7631296758
 40
1.0
100
AcDbArc
 50
270.0
 51
360.0
  0
ARC
  5
3B2
100
AcDbEntity
  8
_62181
100
AcDbCircle
 62
7
  6
CONTINUOUS
 10
13.7272709827
 20
-13.2368703242
 40
45.0
100
AcDbArc
 50
269.9999999998
 51
281.5987472991
  0
ARC
  5
3B3
100
AcDbEntity
  8
_58100
100
AcDbCircle
 62
7
  6
CONTINUOUS
 10
13.7272709827
 20
-13.2368703242
 40
44.9825394343
100
AcDbArc
 50
270.0
 51
281.5757309931
  0
ARC
  5
3B4
100
AcDbEntity
  8
_58100
100
AcDbCircle
 62
253
  6
CONTINUOUS
 10
3.2272709827
 20
13.7631296758
 40
1.8000924458
100
AcDbArc
 50
90.0019526762
 51
179.9982855079
  0
ARC
  5
3B5
100
AcDbEntity
  8
_58100
100
AcDbCircle
 62
7
  6
CONTINUOUS
 10
3.2272709827
 20
13.7631296758
 40
1.0
100
AcDbArc
 50
90.0
 51
180.0
  0
ARC
  5
3B6
100
AcDbEntity
  8
_64839
100
AcDbCircle
 62
7
  6
CONTINUOUS
 10
16.0272709827
 20
44.7631296758
 40
5.6
100
AcDbArc
 50
216.4945724403
 51
222.3942806923
  0
ARC
  5
3B7
100
AcDbEntity
  8
_64839
100
AcDbCircle
 62
7
  6
CONTINUOUS
 10
16.0272709827
 20
44.7631296758
 40
5.6
100
AcDbArc
 50
113.603675191
 51
143.5054218251
  0
ARC
  5
3B8
100
AcDbEntity
  8
_64839
100
AcDbCircle
 62
7
  6
CONTINUOUS
 10
16.0272709827
 20
44.7631296758
 40
5.6
100
AcDbArc
 50
226.0913700189
 51
109.9075828783
  0
ARC
  5
3B9
100
AcDbEntity
  8
_64839
100
AcDbCircle
 62
7
  6
CONTINUOUS
 10
16.0272709827
 20
44.7631296758
 40
4.5
100
AcDbArc
 50
216.8698976458
 51
143.1301023542
  0
ARC
  5
3BA
100
AcDbEntity
  8
_64839
100
AcDbCircle
 62
7
  6
CONTINUOUS
 10
9.9627438543
 20
35.8631296758
 40
4.0
100
AcDbArc
 50
270.0
 51
286.0664005341
  0
ARC
  5
3BB
100
AcDbEntity
  8
_64839
100
AcDbCircle
 62
7
  6
CONTINUOUS
 10
19.0272709827
 20
38.4737134888
 40
4.0
100
AcDbArc
 50
286.0664005357
 51
360.0
  0
ARC
  5
3BC
100
AcDbEntity
  8
_64839
100
AcDbCircle
 62
7
  6
CONTINUOUS
 10
19.0272709827
 20
51.0525458628
 40
4.0
100
AcDbArc
 50
0.0
 51
73.9335994684
  0
ARC
  5
3BD
100
AcDbEntity
  8
_64839
100
AcDbCircle
 62
7
  6
CONTINUOUS
 10
9.9627438543
 20
53.6631296758
 40
4.0
100
AcDbArc
 50
73.9335994659
 51
90.0
  0
ARC
  5
3BE
100
AcDbEntity
  8
_64839
100
AcDbCircle
 62
7
  6
CONTINUOUS
 10
9.9627438543
 20
53.6631296758
 40
2.6
100
AcDbArc
 50
73.9335994646
 51
90.0
  0
ARC
  5
3BF
100
AcDbEntity
  8
_64839
100
AcDbCircle
 62
7
  6
CONTINUOUS
 10
19.0272709827
 20
51.0525458628
 40
2.6
100
AcDbArc
 50
0.0
 51
73.93359947
  0
ARC
  5
3C0
100
AcDbEntity
  8
_64839
100
AcDbCircle
 62
7
  6
CONTINUOUS
 10
19.0272709827
 20
38.4737134888
 40
2.6
100
AcDbArc
 50
286.0664005351
 51
360.0
  0
ARC
  5
3C1
100
AcDbEntity
  8
_64839
100
AcDbCircle
 62
7
  6
CONTINUOUS
 10
9.9627438543
 20
35.8631296758
 40
2.6
100
AcDbArc
 50
270.0
 51
286.0664005358
  0
CIRCLE
  5
3C2
100
AcDbEntity
  8
_64839
100
AcDbCircle
 62
7
  6
CONTINUOUS
 10
16.0272709827
 20
44.7631296758
 40
2.5
  0
ARC
  5
3C3
100
AcDbEntity
  8
_64839
100
AcDbCircle
 62
253
  6
CONTINUOUS
 10
9.9627438543
 20
35.8631296758
 40
2.0
100
AcDbArc
 50
270.0
 51
286.0664005367
  0
ARC
  5
3C4
100
AcDbEntity
  8
_64839
100
AcDbCircle
 62
253
  6
CONTINUOUS
 10
19.0272709827
 20
38.4737134888
 40
2.0
100
AcDbArc
 50
286.0664005355
 51
360.0
  0
ARC
  5
3C5
100
AcDbEntity
  8
_64839
100
AcDbCircle
 62
253
  6
CONTINUOUS
 10
19.0272709827
 20
51.0525458628
 40
2.0
100
AcDbArc
 50
0.0
 51
73.9335994648
  0
ARC
  5
3C6
100
AcDbEntity
  8
_64839
100
AcDbCircle
 62
253
  6
CONTINUOUS
 10
9.9627438543
 20
53.6631296758
 40
2.0
100
AcDbArc
 50
73.9335994639
 51
89.9999999993
  0
CIRCLE
  5
3C7
100
AcDbEntity
  8
0
100
AcDbCircle
 62
7
  6
CONTINUOUS
 10
6.5272709827
 20
41.8631296758
 40
1.0
  0
CIRCLE
  5
3C8
100
AcDbEntity
  8
0
100
AcDbCircle
 62
7
  6
CONTINUOUS
 10
6.5272709827
 20
47.6631296758
 40
1.0
  0
ARC
  5
3C9
100
AcDbEntity
  8
_58100
100
AcDbCircle
 62
7
  6
CONTINUOUS
 10
3.2272709827
 20
22.7631296758
 40
1.0
100
AcDbArc
 50
180.0
 51
270.0
  0
CIRCLE
  5
3CA
100
AcDbEntity
  8
_64839
100
AcDbCircle
 62
7
  6
CONTINUOUS
 10
6.5272709827
 20
47.6631296758
 40
0.9
  0
CIRCLE
  5
3CB
100
AcDbEntity
  8
_64839
100
AcDbCircle
 62
7
  6
CONTINUOUS
 10
6.5272709827
 20
41.8631296758
 40
0.9
  0
ELLIPSE
  5
3CC
100
AcDbEntity
  8
_62181
100
AcDbEllipse
 62
7
  6
CONTINUOUS
 10
-25.3433920866
 20
46.9032287713
 30
0.0
 11
2.4292031482
 21
-1.7649193963
 31
0.0
 40
0.9991140448
 41
8.8317768506
 42
10.017779071
  0
ELLIPSE
  5
3CD
100
AcDbEntity
  8
_62181
100
AcDbEllipse
 62
7
  6
CONTINUOUS
 10
22.797934052
 20
46.9032287713
 30
0.0
 11
-2.4292031482
 21
-1.7649193963
 31
0.0
 40
0.9991140448
 41
8.8317768505
 42
10.017779071
  0
ELLIPSE
  5
3CE
100
AcDbEntity
  8
_58100
100
AcDbEllipse
 62
7
  6
CONTINUOUS
 10
-25.3263533559
 20
46.8908494088
 30
0.0
 11
2.4292031482
 21
-1.7649193963
 31
0.0
 40
0.9991140448
 41
2.5485915434
 42
3.7345937638
  0
ELLIPSE
  5
3CF
100
AcDbEntity
  8
_58100
100
AcDbEllipse
 62
7
  6
CONTINUOUS
 10
22.7808953212
 20
46.8908494088
 30
0.0
 11
-2.4292031482
 21
-1.7649193963
 31
0.0
 40
0.9991140448
 41
2.5485915434
 42
3.7345937638
  0
ENDSEC
  0
SECTION
  2
OBJECTS
  0
DICTIONARY
  5
C
100
AcDbDictionary
280
0
281
1
  3
ACAD_GROUP
350
D
  3
ACAD_MLINESTYLE
350
17
  3
ACAD_LAYOUT
350
1A
  3
ACAD_PLOTSETTINGS
350
19
  3
ACAD_PLOTSTYLENAME
350
E
  0
DICTIONARY
  5
D
102
{ACAD_REACTORS
330
C
102
}
100
AcDbDictionary
280
0
281
1
  0
ACDBDICTIONARYWDFLT
  5
E
102
{ACAD_REACTORS
330
C
102
}
100
AcDbDictionary
281
1
  3
Normal
350
F
100
AcDbDictionaryWithDefault
340
F
  0
DICTIONARY
  5
17
102
{ACAD_REACTORS
330
C
102
}
100
AcDbDictionary
280
0
281
1
  3
Standard
350
18
  0
DICTIONARY
  5
19
102
{ACAD_REACTORS
330
C
102
}
100
AcDbDictionary
281
1
  0
DICTIONARY
  5
1A
102
{ACAD_REACTORS
330
C
102
}
100
AcDbDictionary
281
1
  3
Model
350
3D0
  3
Layout1
350
3D1
  0
ACDBPLACEHOLDER
  5
F
102
{ACAD_REACTORS
330
E
102
}
  0
MLINESTYLE
  5
18
102
{ACAD_REACTORS
330
17
102
}
100
AcDbMlineStyle
  2
STANDARD
 70
0
  3

 62
256
 51
90.0
 52
90.0
 71
2
 49
0.5
 62
256
  6
BYLAYER
 49
-0.5
 62
256
  6
BYLAYER
  0
LAYOUT
  5
3D0
102
{ACAD_REACTORS
330
1A
102
}
100
AcDbPlotSettings
  1

  2
none_device
  4
ISO_A4_(297.00_x_210.00_MM)
  6

 40
0.0
 41
0.0
 42
0.0
 43
0.0
 44
297.0
 45
210.0
 46
0.0
 47
0.0
 48
0.0
 49
0.0
140
0.0
141
0.0
142
1.0
143
1.0
 70
1024
 72
1
 73
0
 74
0
  7

 75
0
147
1.0
148
0.0
149
0.0
100
AcDbLayout
  1
Model
 70
0
 71
0
 10
0.0
 20
0.0
 11
297.0
 21
210.0
 12
0.0
 22
0.0
 32
0.0
 14
0.0
 24
0.0
 34
0.0
 15
0.0
 25
0.0
 35
0.0
146
0.0
 13
0.0
 23
0.0
 33
0.0
 16
1.0
 26
0.0
 36
0.0
 17
0.0
 27
1.0
 37
0.0
 76
0
330
20B
345
0
346
0
  0
LAYOUT
  5
3D1
102
{ACAD_REACTORS
330
1A
102
}
100
AcDbPlotSettings
  1

  2
none_device
  4
ISO_A4_(297.00_x_210.00_MM)
  6

 40
0.0
 41
0.0
 42
0.0
 43
0.0
 44
297.0
 45
210.0
 46
0.0
 47
0.0
 48
0.0
 49
0.0
140
0.0
141
0.0
142
1.0
143
1.0
 70
0
 72
1
 73
0
 74
0
  7

 75
0
147
1.0
148
0.0
149
0.0
100
AcDbLayout
  1
Layout1
 70
0
 71
1
 10
0.0
 20
0.0
 11
297.0
 21
210.0
 12
0.0
 22
0.0
 32
0.0
 14
0.0
 24
0.0
 34
0.0
 15
0.0
 25
0.0
 35
0.0
146
0.0
 13
0.0
 23
0.0
 33
0.0
 16
1.0
 26
0.0
 36
0.0
 17
0.0
 27
1.0
 37
0.0
 76
0
330
20C
345
0
346
0
  0
ENDSEC
  0
EOF
