  0
SECTION
  2
HEADER
  9
$ACADVER
  1
AC1015
  9
$DWGCODEPAGE
  3
ANSI_1252
  9
$EXTMAX
 10
297.0
 20
210.0
 30
0.0
  9
$EXTMIN
 10
0.0
 20
0.0
 30
0.0
  9
$LIMMIN
 10
0.0
 20
0.0
  9
$LIMMAX
 10
297.0
 20
210.0
  9
$VIEWCTR
 10
148.5
 20
105.0
  9
$VIEWSIZE
 40
210.0
  9
$CLAYER
  8
0
  9
$LTSCALE
 40
16.335
  9
$CELTYPE
  6
BYLAYER
  9
$DIMSCALE
 40
1.0
  9
$DIMASZ
 40
3.0
  9
$DIMEXO
 40
0.5
  9
$DIMDLI
 40
11.286
  9
$DIMEXE
 40
1.5
  9
$DIMCEN
 40
2.673
  9
$DIMLFAC
 40
1.0
  9
$DIMBLK
  1
_FILLED
  9
$DIMTXT
 40
3.0
  9
$DIMTOL
 70
1
  9
$DIMLIM
 70
0
  9
$DIMTFAC
 40
1.0
  9
$DIMTP
 40
0.01
  9
$DIMTM
 40
0.01
  9
$DIMGAP
 40
0.625
  9
$DIMDSEP
 70
44
  9
$PDMODE
 70
3
  9
$PDSIZE
 40
3.0
  9
$HANDSEED
  5
5AD
  9
$TILEMODE
 70
1
  9
$MEASUREMENT
 70
1
  9
$INSUNITS
 70
4
  0
ENDSEC
  0
SECTION
  2
CLASSES
  0
CLASS
  1
ACDBDICTIONARYWDFLT
  2
AcDbDictionaryWithDefault
  3
AutoCAD 2000
 90
0
280
0
281
0
  0
CLASS
  1
ACDBPLACEHOLDER
  2
AcDbPlaceHolder
  3
AutoCAD 2000
 90
0
280
0
281
0
  0
CLASS
  1
LAYOUT
  2
AcDbLayout
  3
AutoCAD 2000
 90
0
280
0
281
0
  0
ENDSEC
  0
SECTION
  2
TABLES
  0
TABLE
  2
VPORT
  5
8
100
AcDbSymbolTable
 70
2
  0
VPORT
  5
1F4
100
AcDbSymbolTableRecord
100
AcDbViewportTableRecord
  2
*ACTIVE
 70
0
 10
0.0
 20
0.0
 11
1.0
 21
1.0
 12
148.5
 22
105.0
 13
0.0
 23
0.0
 14
1.0
 24
1.0
 15
0.0
 25
0.0
 16
0.0
 26
0.0
 36
1.0
 17
0.0
 27
0.0
 37
0.0
 40
210.0
 41
1.4142857143
 42
50.0
 43
0.0
 44
0.0
 50
0.0
 51
0.0
 71
0
 72
100
 73
1
 74
1
 75
0
 76
0
 77
0
 78
0
  0
ENDTAB
  0
TABLE
  2
LTYPE
  5
5
100
AcDbSymbolTable
 70
6
  0
LTYPE
  5
14
100
AcDbSymbolTableRecord
100
AcDbLinetypeTableRecord
  2
BYBLOCK
 70
0
  3

 72
65
 73
0
 40
0.0
  0
LTYPE
  5
15
100
AcDbSymbolTableRecord
100
AcDbLinetypeTableRecord
  2
BYLAYER
 70
0
  3

 72
65
 73
0
 40
0.0
  0
LTYPE
  5
16
100
AcDbSymbolTableRecord
100
AcDbLinetypeTableRecord
  2
CONTINUOUS
 70
64
  3
Solid line
 72
65
 73
0
 40
0.0
  0
LTYPE
  5
1F5
100
AcDbSymbolTableRecord
100
AcDbLinetypeTableRecord
  2
CENTER
 70
64
  3
____ _ ____ _ ____ _ ____ _ ____ _ ____ _ ____
 72
65
 73
4
 40
0.6
 49
0.375
 74
0
 49
-0.075
 74
0
 49
0.075
 74
0
 49
-0.075
 74
0
  0
LTYPE
  5
1F6
100
AcDbSymbolTableRecord
100
AcDbLinetypeTableRecord
  2
HIDDEN
 70
64
  3
- - - - - - - - - - - - - - - - - - - -
 72
65
 73
2
 40
0.2
 49
0.1
 74
0
 49
-0.1
 74
0
  0
LTYPE
  5
1F7
100
AcDbSymbolTableRecord
100
AcDbLinetypeTableRecord
  2
PHANTOM
 70
64
  3
_____ _ _ _____ _ _ _____ _ _ _____
 72
65
 73
6
 40
0.8
 49
0.45
 74
0
 49
-0.05
 74
0
 49
0.1
 74
0
 49
-0.05
 74
0
 49
0.1
 74
0
 49
-0.05
 74
0
  0
LTYPE
  5
1F8
100
AcDbSymbolTableRecord
100
AcDbLinetypeTableRecord
  2
DOT
 70
64
  3
. . . . . . . . . . . . . . . . . . . .
 72
65
 73
2
 40
0.2
 49
0.1
 74
0
 49
-0.1
 74
0
  0
LTYPE
  5
1F9
100
AcDbSymbolTableRecord
100
AcDbLinetypeTableRecord
  2
DASHED
 70
64
  3
- - - - - - - - - - - - - - - - - - - -
 72
65
 73
2
 40
0.2
 49
0.1
 74
0
 49
-0.1
 74
0
  0
ENDTAB
  0
TABLE
  2
LAYER
  5
2
100
AcDbSymbolTable
 70
36
  0
LAYER
  5
10
100
AcDbSymbolTableRecord
100
AcDbLayerTableRecord
  2
0
 70
0
 62
7
  6
CONTINUOUS
370
-3
390
F
  0
LAYER
  5
1FA
100
AcDbSymbolTableRecord
100
AcDbLayerTableRecord
  2
DEFAULT_1
 70
0
 62
7
  6
CENTER
370
-3
390
F
  0
LAYER
  5
1FB
100
AcDbSymbolTableRecord
100
AcDbLayerTableRecord
  2
DEFAULT_2
 70
0
 62
7
  6
HIDDEN
370
-3
390
F
  0
LAYER
  5
1FC
100
AcDbSymbolTableRecord
100
AcDbLayerTableRecord
  2
DEFAULT_3
 70
0
 62
7
  6
PHANTOM
370
-3
390
F
  0
LAYER
  5
1FD
100
AcDbSymbolTableRecord
100
AcDbLayerTableRecord
  2
200A_170000
 70
0
 62
7
  6
CONTINUOUS
370
-3
390
F
  0
LAYER
  5
1FE
100
AcDbSymbolTableRecord
100
AcDbLayerTableRecord
  2
200A_170000_1
 70
0
 62
7
  6
CONTINUOUS
370
-3
390
F
  0
LAYER
  5
1FF
100
AcDbSymbolTableRecord
100
AcDbLayerTableRecord
  2
200A_170000_2
 70
0
 62
7
  6
CONTINUOUS
370
-3
390
F
  0
LAYER
  5
200
100
AcDbSymbolTableRecord
100
AcDbLayerTableRecord
  2
200A_170000_3
 70
0
 62
7
  6
CONTINUOUS
370
-3
390
F
  0
LAYER
  5
201
100
AcDbSymbolTableRecord
100
AcDbLayerTableRecord
  2
200A_170000_4
 70
0
 62
7
  6
CONTINUOUS
370
-3
390
F
  0
LAYER
  5
202
100
AcDbSymbolTableRecord
100
AcDbLayerTableRecord
  2
200A_170000_5
 70
0
 62
7
  6
CONTINUOUS
370
-3
390
F
  0
LAYER
  5
203
100
AcDbSymbolTableRecord
100
AcDbLayerTableRecord
  2
2125-CC-RF-VIMAR_110000
 70
0
 62
7
  6
CONTINUOUS
370
-3
390
F
  0
LAYER
  5
204
100
AcDbSymbolTableRecord
100
AcDbLayerTableRecord
  2
2125-CC-RF-VIMAR_110000_1
 70
0
 62
7
  6
CONTINUOUS
370
-3
390
F
  0
LAYER
  5
205
100
AcDbSymbolTableRecord
100
AcDbLayerTableRecord
  2
2125-CC-RF-VIMAR_110000_10
 70
0
 62
7
  6
CONTINUOUS
370
-3
390
F
  0
LAYER
  5
206
100
AcDbSymbolTableRecord
100
AcDbLayerTableRecord
  2
2125-CC-RF-VIMAR_110000_11
 70
0
 62
7
  6
CONTINUOUS
370
-3
390
F
  0
LAYER
  5
207
100
AcDbSymbolTableRecord
100
AcDbLayerTableRecord
  2
2125-CC-RF-VIMAR_110000_12
 70
0
 62
7
  6
CONTINUOUS
370
-3
390
F
  0
LAYER
  5
208
100
AcDbSymbolTableRecord
100
AcDbLayerTableRecord
  2
2125-CC-RF-VIMAR_110000_13
 70
0
 62
7
  6
CONTINUOUS
370
-3
390
F
  0
LAYER
  5
209
100
AcDbSymbolTableRecord
100
AcDbLayerTableRecord
  2
2125-CC-RF-VIMAR_110000_14
 70
0
 62
7
  6
CONTINUOUS
370
-3
390
F
  0
LAYER
  5
20A
100
AcDbSymbolTableRecord
100
AcDbLayerTableRecord
  2
2125-CC-RF-VIMAR_110000_15
 70
0
 62
7
  6
CONTINUOUS
370
-3
390
F
  0
LAYER
  5
20B
100
AcDbSymbolTableRecord
100
AcDbLayerTableRecord
  2
2125-CC-RF-VIMAR_110000_16
 70
0
 62
7
  6
CONTINUOUS
370
-3
390
F
  0
LAYER
  5
20C
100
AcDbSymbolTableRecord
100
AcDbLayerTableRecord
  2
2125-CC-RF-VIMAR_110000_17
 70
0
 62
7
  6
CONTINUOUS
370
-3
390
F
  0
LAYER
  5
20D
100
AcDbSymbolTableRecord
100
AcDbLayerTableRecord
  2
2125-CC-RF-VIMAR_110000_18
 70
0
 62
7
  6
CONTINUOUS
370
-3
390
F
  0
LAYER
  5
20E
100
AcDbSymbolTableRecord
100
AcDbLayerTableRecord
  2
2125-CC-RF-VIMAR_110000_19
 70
0
 62
7
  6
CONTINUOUS
370
-3
390
F
  0
LAYER
  5
20F
100
AcDbSymbolTableRecord
100
AcDbLayerTableRecord
  2
2125-CC-RF-VIMAR_110000_2
 70
0
 62
7
  6
CONTINUOUS
370
-3
390
F
  0
LAYER
  5
210
100
AcDbSymbolTableRecord
100
AcDbLayerTableRecord
  2
2125-CC-RF-VIMAR_110000_20
 70
0
 62
7
  6
CONTINUOUS
370
-3
390
F
  0
LAYER
  5
211
100
AcDbSymbolTableRecord
100
AcDbLayerTableRecord
  2
2125-CC-RF-VIMAR_110000_21
 70
0
 62
7
  6
CONTINUOUS
370
-3
390
F
  0
LAYER
  5
212
100
AcDbSymbolTableRecord
100
AcDbLayerTableRecord
  2
2125-CC-RF-VIMAR_110000_22
 70
0
 62
7
  6
CONTINUOUS
370
-3
390
F
  0
LAYER
  5
213
100
AcDbSymbolTableRecord
100
AcDbLayerTableRecord
  2
2125-CC-RF-VIMAR_110000_3
 70
0
 62
7
  6
CONTINUOUS
370
-3
390
F
  0
LAYER
  5
214
100
AcDbSymbolTableRecord
100
AcDbLayerTableRecord
  2
2125-CC-RF-VIMAR_110000_4
 70
0
 62
7
  6
CONTINUOUS
370
-3
390
F
  0
LAYER
  5
215
100
AcDbSymbolTableRecord
100
AcDbLayerTableRecord
  2
2125-CC-RF-VIMAR_110000_5
 70
0
 62
7
  6
CONTINUOUS
370
-3
390
F
  0
LAYER
  5
216
100
AcDbSymbolTableRecord
100
AcDbLayerTableRecord
  2
2125-CC-RF-VIMAR_110000_6
 70
0
 62
7
  6
CONTINUOUS
370
-3
390
F
  0
LAYER
  5
217
100
AcDbSymbolTableRecord
100
AcDbLayerTableRecord
  2
2125-CC-RF-VIMAR_110000_7
 70
0
 62
7
  6
CONTINUOUS
370
-3
390
F
  0
LAYER
  5
218
100
AcDbSymbolTableRecord
100
AcDbLayerTableRecord
  2
2125-CC-RF-VIMAR_110000_8
 70
0
 62
7
  6
CONTINUOUS
370
-3
390
F
  0
LAYER
  5
219
100
AcDbSymbolTableRecord
100
AcDbLayerTableRecord
  2
2125-CC-RF-VIMAR_110000_9
 70
0
 62
7
  6
CONTINUOUS
370
-3
390
F
  0
LAYER
  5
21A
100
AcDbSymbolTableRecord
100
AcDbLayerTableRecord
  2
2125-CC-RF-VIMAR_65000
 70
0
 62
7
  6
CONTINUOUS
370
-3
390
F
  0
LAYER
  5
21B
100
AcDbSymbolTableRecord
100
AcDbLayerTableRecord
  2
2125-CC-RF-VIMAR_65000_1
 70
0
 62
7
  6
CONTINUOUS
370
-3
390
F
  0
LAYER
  5
21C
100
AcDbSymbolTableRecord
100
AcDbLayerTableRecord
  2
2125-CC-RF-VIMAR_65000_10
 70
0
 62
7
  6
CONTINUOUS
370
-3
390
F
  0
LAYER
  5
21D
100
AcDbSymbolTableRecord
100
AcDbLayerTableRecord
  2
2125-CC-RF-VIMAR_65000_11
 70
0
 62
7
  6
CONTINUOUS
370
-3
390
F
  0
LAYER
  5
21E
100
AcDbSymbolTableRecord
100
AcDbLayerTableRecord
  2
2125-CC-RF-VIMAR_65000_12
 70
0
 62
7
  6
CONTINUOUS
370
-3
390
F
  0
LAYER
  5
21F
100
AcDbSymbolTableRecord
100
AcDbLayerTableRecord
  2
2125-CC-RF-VIMAR_65000_13
 70
0
 62
7
  6
CONTINUOUS
370
-3
390
F
  0
LAYER
  5
220
100
AcDbSymbolTableRecord
100
AcDbLayerTableRecord
  2
2125-CC-RF-VIMAR_65000_14
 70
0
 62
7
  6
CONTINUOUS
370
-3
390
F
  0
LAYER
  5
221
100
AcDbSymbolTableRecord
100
AcDbLayerTableRecord
  2
2125-CC-RF-VIMAR_65000_15
 70
0
 62
7
  6
CONTINUOUS
370
-3
390
F
  0
LAYER
  5
222
100
AcDbSymbolTableRecord
100
AcDbLayerTableRecord
  2
2125-CC-RF-VIMAR_65000_16
 70
0
 62
7
  6
CONTINUOUS
370
-3
390
F
  0
LAYER
  5
223
100
AcDbSymbolTableRecord
100
AcDbLayerTableRecord
  2
2125-CC-RF-VIMAR_65000_17
 70
0
 62
7
  6
CONTINUOUS
370
-3
390
F
  0
LAYER
  5
224
100
AcDbSymbolTableRecord
100
AcDbLayerTableRecord
  2
2125-CC-RF-VIMAR_65000_18
 70
0
 62
7
  6
CONTINUOUS
370
-3
390
F
  0
LAYER
  5
225
100
AcDbSymbolTableRecord
100
AcDbLayerTableRecord
  2
2125-CC-RF-VIMAR_65000_19
 70
0
 62
7
  6
CONTINUOUS
370
-3
390
F
  0
LAYER
  5
226
100
AcDbSymbolTableRecord
100
AcDbLayerTableRecord
  2
2125-CC-RF-VIMAR_65000_2
 70
0
 62
7
  6
CONTINUOUS
370
-3
390
F
  0
LAYER
  5
227
100
AcDbSymbolTableRecord
100
AcDbLayerTableRecord
  2
2125-CC-RF-VIMAR_65000_20
 70
0
 62
7
  6
CONTINUOUS
370
-3
390
F
  0
LAYER
  5
228
100
AcDbSymbolTableRecord
100
AcDbLayerTableRecord
  2
2125-CC-RF-VIMAR_65000_21
 70
0
 62
7
  6
CONTINUOUS
370
-3
390
F
  0
LAYER
  5
229
100
AcDbSymbolTableRecord
100
AcDbLayerTableRecord
  2
2125-CC-RF-VIMAR_65000_22
 70
0
 62
7
  6
CONTINUOUS
370
-3
390
F
  0
LAYER
  5
22A
100
AcDbSymbolTableRecord
100
AcDbLayerTableRecord
  2
2125-CC-RF-VIMAR_65000_3
 70
0
 62
7
  6
CONTINUOUS
370
-3
390
F
  0
LAYER
  5
22B
100
AcDbSymbolTableRecord
100
AcDbLayerTableRecord
  2
2125-CC-RF-VIMAR_65000_4
 70
0
 62
7
  6
CONTINUOUS
370
-3
390
F
  0
LAYER
  5
22C
100
AcDbSymbolTableRecord
100
AcDbLayerTableRecord
  2
2125-CC-RF-VIMAR_65000_5
 70
0
 62
7
  6
CONTINUOUS
370
-3
390
F
  0
LAYER
  5
22D
100
AcDbSymbolTableRecord
100
AcDbLayerTableRecord
  2
2125-CC-RF-VIMAR_65000_6
 70
0
 62
7
  6
CONTINUOUS
370
-3
390
F
  0
LAYER
  5
22E
100
AcDbSymbolTableRecord
100
AcDbLayerTableRecord
  2
2125-CC-RF-VIMAR_65000_7
 70
0
 62
7
  6
CONTINUOUS
370
-3
390
F
  0
LAYER
  5
22F
100
AcDbSymbolTableRecord
100
AcDbLayerTableRecord
  2
2125-CC-RF-VIMAR_65000_8
 70
0
 62
7
  6
CONTINUOUS
370
-3
390
F
  0
LAYER
  5
230
100
AcDbSymbolTableRecord
100
AcDbLayerTableRecord
  2
2125-CC-RF-VIMAR_65000_9
 70
0
 62
7
  6
CONTINUOUS
370
-3
390
F
  0
LAYER
  5
231
100
AcDbSymbolTableRecord
100
AcDbLayerTableRecord
  2
2125-DL-RF-FINE_VIMAR_110000
 70
0
 62
7
  6
CONTINUOUS
370
-3
390
F
  0
LAYER
  5
232
100
AcDbSymbolTableRecord
100
AcDbLayerTableRecord
  2
2125-DL-RF-FINE_VIMAR_110000_1
 70
0
 62
7
  6
CONTINUOUS
370
-3
390
F
  0
LAYER
  5
233
100
AcDbSymbolTableRecord
100
AcDbLayerTableRecord
  2
2125-DL-RF-FINE_VIMAR_110000_2
 70
0
 62
7
  6
CONTINUOUS
370
-3
390
F
  0
LAYER
  5
234
100
AcDbSymbolTableRecord
100
AcDbLayerTableRecord
  2
2125-R1-RF-VIMAR_60000
 70
0
 62
7
  6
CONTINUOUS
370
-3
390
F
  0
LAYER
  5
235
100
AcDbSymbolTableRecord
100
AcDbLayerTableRecord
  2
2125-R1-RF-VIMAR_60000_1
 70
0
 62
7
  6
CONTINUOUS
370
-3
390
F
  0
LAYER
  5
236
100
AcDbSymbolTableRecord
100
AcDbLayerTableRecord
  2
2125-R1-RF-VIMAR_60000_10
 70
0
 62
7
  6
CONTINUOUS
370
-3
390
F
  0
LAYER
  5
237
100
AcDbSymbolTableRecord
100
AcDbLayerTableRecord
  2
2125-R1-RF-VIMAR_60000_11
 70
0
 62
7
  6
CONTINUOUS
370
-3
390
F
  0
LAYER
  5
238
100
AcDbSymbolTableRecord
100
AcDbLayerTableRecord
  2
2125-R1-RF-VIMAR_60000_12
 70
0
 62
7
  6
CONTINUOUS
370
-3
390
F
  0
LAYER
  5
239
100
AcDbSymbolTableRecord
100
AcDbLayerTableRecord
  2
2125-R1-RF-VIMAR_60000_13
 70
0
 62
7
  6
CONTINUOUS
370
-3
390
F
  0
LAYER
  5
23A
100
AcDbSymbolTableRecord
100
AcDbLayerTableRecord
  2
2125-R1-RF-VIMAR_60000_14
 70
0
 62
7
  6
CONTINUOUS
370
-3
390
F
  0
LAYER
  5
23B
100
AcDbSymbolTableRecord
100
AcDbLayerTableRecord
  2
2125-R1-RF-VIMAR_60000_15
 70
0
 62
7
  6
CONTINUOUS
370
-3
390
F
  0
LAYER
  5
23C
100
AcDbSymbolTableRecord
100
AcDbLayerTableRecord
  2
2125-R1-RF-VIMAR_60000_16
 70
0
 62
7
  6
CONTINUOUS
370
-3
390
F
  0
LAYER
  5
23D
100
AcDbSymbolTableRecord
100
AcDbLayerTableRecord
  2
2125-R1-RF-VIMAR_60000_17
 70
0
 62
7
  6
CONTINUOUS
370
-3
390
F
  0
LAYER
  5
23E
100
AcDbSymbolTableRecord
100
AcDbLayerTableRecord
  2
2125-R1-RF-VIMAR_60000_18
 70
0
 62
7
  6
CONTINUOUS
370
-3
390
F
  0
LAYER
  5
23F
100
AcDbSymbolTableRecord
100
AcDbLayerTableRecord
  2
2125-R1-RF-VIMAR_60000_19
 70
0
 62
7
  6
CONTINUOUS
370
-3
390
F
  0
LAYER
  5
240
100
AcDbSymbolTableRecord
100
AcDbLayerTableRecord
  2
2125-R1-RF-VIMAR_60000_2
 70
0
 62
7
  6
CONTINUOUS
370
-3
390
F
  0
LAYER
  5
241
100
AcDbSymbolTableRecord
100
AcDbLayerTableRecord
  2
2125-R1-RF-VIMAR_60000_20
 70
0
 62
7
  6
CONTINUOUS
370
-3
390
F
  0
LAYER
  5
242
100
AcDbSymbolTableRecord
100
AcDbLayerTableRecord
  2
2125-R1-RF-VIMAR_60000_21
 70
0
 62
7
  6
CONTINUOUS
370
-3
390
F
  0
LAYER
  5
243
100
AcDbSymbolTableRecord
100
AcDbLayerTableRecord
  2
2125-R1-RF-VIMAR_60000_22
 70
0
 62
7
  6
CONTINUOUS
370
-3
390
F
  0
LAYER
  5
244
100
AcDbSymbolTableRecord
100
AcDbLayerTableRecord
  2
2125-R1-RF-VIMAR_60000_23
 70
0
 62
7
  6
CONTINUOUS
370
-3
390
F
  0
LAYER
  5
245
100
AcDbSymbolTableRecord
100
AcDbLayerTableRecord
  2
2125-R1-RF-VIMAR_60000_24
 70
0
 62
7
  6
CONTINUOUS
370
-3
390
F
  0
LAYER
  5
246
100
AcDbSymbolTableRecord
100
AcDbLayerTableRecord
  2
2125-R1-RF-VIMAR_60000_25
 70
0
 62
7
  6
CONTINUOUS
370
-3
390
F
  0
LAYER
  5
247
100
AcDbSymbolTableRecord
100
AcDbLayerTableRecord
  2
2125-R1-RF-VIMAR_60000_26
 70
0
 62
7
  6
CONTINUOUS
370
-3
390
F
  0
LAYER
  5
248
100
AcDbSymbolTableRecord
100
AcDbLayerTableRecord
  2
2125-R1-RF-VIMAR_60000_27
 70
0
 62
7
  6
CONTINUOUS
370
-3
390
F
  0
LAYER
  5
249
100
AcDbSymbolTableRecord
100
AcDbLayerTableRecord
  2
2125-R1-RF-VIMAR_60000_28
 70
0
 62
7
  6
CONTINUOUS
370
-3
390
F
  0
LAYER
  5
24A
100
AcDbSymbolTableRecord
100
AcDbLayerTableRecord
  2
2125-R1-RF-VIMAR_60000_29
 70
0
 62
7
  6
CONTINUOUS
370
-3
390
F
  0
LAYER
  5
24B
100
AcDbSymbolTableRecord
100
AcDbLayerTableRecord
  2
2125-R1-RF-VIMAR_60000_3
 70
0
 62
7
  6
CONTINUOUS
370
-3
390
F
  0
LAYER
  5
24C
100
AcDbSymbolTableRecord
100
AcDbLayerTableRecord
  2
2125-R1-RF-VIMAR_60000_30
 70
0
 62
7
  6
CONTINUOUS
370
-3
390
F
  0
LAYER
  5
24D
100
AcDbSymbolTableRecord
100
AcDbLayerTableRecord
  2
2125-R1-RF-VIMAR_60000_31
 70
0
 62
7
  6
CONTINUOUS
370
-3
390
F
  0
LAYER
  5
24E
100
AcDbSymbolTableRecord
100
AcDbLayerTableRecord
  2
2125-R1-RF-VIMAR_60000_32
 70
0
 62
7
  6
CONTINUOUS
370
-3
390
F
  0
LAYER
  5
24F
100
AcDbSymbolTableRecord
100
AcDbLayerTableRecord
  2
2125-R1-RF-VIMAR_60000_33
 70
0
 62
7
  6
CONTINUOUS
370
-3
390
F
  0
LAYER
  5
250
100
AcDbSymbolTableRecord
100
AcDbLayerTableRecord
  2
2125-R1-RF-VIMAR_60000_34
 70
0
 62
7
  6
CONTINUOUS
370
-3
390
F
  0
LAYER
  5
251
100
AcDbSymbolTableRecord
100
AcDbLayerTableRecord
  2
2125-R1-RF-VIMAR_60000_35
 70
0
 62
7
  6
CONTINUOUS
370
-3
390
F
  0
LAYER
  5
252
100
AcDbSymbolTableRecord
100
AcDbLayerTableRecord
  2
2125-R1-RF-VIMAR_60000_36
 70
0
 62
7
  6
CONTINUOUS
370
-3
390
F
  0
LAYER
  5
253
100
AcDbSymbolTableRecord
100
AcDbLayerTableRecord
  2
2125-R1-RF-VIMAR_60000_4
 70
0
 62
7
  6
CONTINUOUS
370
-3
390
F
  0
LAYER
  5
254
100
AcDbSymbolTableRecord
100
AcDbLayerTableRecord
  2
2125-R1-RF-VIMAR_60000_5
 70
0
 62
7
  6
CONTINUOUS
370
-3
390
F
  0
LAYER
  5
255
100
AcDbSymbolTableRecord
100
AcDbLayerTableRecord
  2
2125-R1-RF-VIMAR_60000_6
 70
0
 62
7
  6
CONTINUOUS
370
-3
390
F
  0
LAYER
  5
256
100
AcDbSymbolTableRecord
100
AcDbLayerTableRecord
  2
2125-R1-RF-VIMAR_60000_7
 70
0
 62
7
  6
CONTINUOUS
370
-3
390
F
  0
LAYER
  5
257
100
AcDbSymbolTableRecord
100
AcDbLayerTableRecord
  2
2125-R1-RF-VIMAR_60000_8
 70
0
 62
7
  6
CONTINUOUS
370
-3
390
F
  0
LAYER
  5
258
100
AcDbSymbolTableRecord
100
AcDbLayerTableRecord
  2
2125-R1-RF-VIMAR_60000_9
 70
0
 62
7
  6
CONTINUOUS
370
-3
390
F
  0
LAYER
  5
259
100
AcDbSymbolTableRecord
100
AcDbLayerTableRecord
  2
3216-CF-RF-VIMAR_100000
 70
0
 62
7
  6
CONTINUOUS
370
-3
390
F
  0
LAYER
  5
25A
100
AcDbSymbolTableRecord
100
AcDbLayerTableRecord
  2
3216-CF-RF-VIMAR_100000_1
 70
0
 62
7
  6
CONTINUOUS
370
-3
390
F
  0
LAYER
  5
25B
100
AcDbSymbolTableRecord
100
AcDbLayerTableRecord
  2
3216-CF-RF-VIMAR_100000_2
 70
0
 62
7
  6
CONTINUOUS
370
-3
390
F
  0
LAYER
  5
25C
100
AcDbSymbolTableRecord
100
AcDbLayerTableRecord
  2
3216-CF-RF-VIMAR_100000_3
 70
0
 62
7
  6
CONTINUOUS
370
-3
390
F
  0
LAYER
  5
25D
100
AcDbSymbolTableRecord
100
AcDbLayerTableRecord
  2
3216-CF-RF-VIMAR_100000_4
 70
0
 62
7
  6
CONTINUOUS
370
-3
390
F
  0
LAYER
  5
25E
100
AcDbSymbolTableRecord
100
AcDbLayerTableRecord
  2
3216-CF-RF-VIMAR_100000_5
 70
0
 62
7
  6
CONTINUOUS
370
-3
390
F
  0
LAYER
  5
25F
100
AcDbSymbolTableRecord
100
AcDbLayerTableRecord
  2
3216-CS2-RF_1_180000
 70
0
 62
7
  6
CONTINUOUS
370
-3
390
F
  0
LAYER
  5
260
100
AcDbSymbolTableRecord
100
AcDbLayerTableRecord
  2
3216-CS2-RF_1_180000_1
 70
0
 62
7
  6
CONTINUOUS
370
-3
390
F
  0
LAYER
  5
261
100
AcDbSymbolTableRecord
100
AcDbLayerTableRecord
  2
3216-R1-RF-VIMAR_60000
 70
0
 62
7
  6
CONTINUOUS
370
-3
390
F
  0
LAYER
  5
262
100
AcDbSymbolTableRecord
100
AcDbLayerTableRecord
  2
3216-R1-RF-VIMAR_60000_1
 70
0
 62
7
  6
CONTINUOUS
370
-3
390
F
  0
LAYER
  5
263
100
AcDbSymbolTableRecord
100
AcDbLayerTableRecord
  2
3216-R1-RF-VIMAR_60000_10
 70
0
 62
7
  6
CONTINUOUS
370
-3
390
F
  0
LAYER
  5
264
100
AcDbSymbolTableRecord
100
AcDbLayerTableRecord
  2
3216-R1-RF-VIMAR_60000_11
 70
0
 62
7
  6
CONTINUOUS
370
-3
390
F
  0
LAYER
  5
265
100
AcDbSymbolTableRecord
100
AcDbLayerTableRecord
  2
3216-R1-RF-VIMAR_60000_12
 70
0
 62
7
  6
CONTINUOUS
370
-3
390
F
  0
LAYER
  5
266
100
AcDbSymbolTableRecord
100
AcDbLayerTableRecord
  2
3216-R1-RF-VIMAR_60000_13
 70
0
 62
7
  6
CONTINUOUS
370
-3
390
F
  0
LAYER
  5
267
100
AcDbSymbolTableRecord
100
AcDbLayerTableRecord
  2
3216-R1-RF-VIMAR_60000_14
 70
0
 62
7
  6
CONTINUOUS
370
-3
390
F
  0
LAYER
  5
268
100
AcDbSymbolTableRecord
100
AcDbLayerTableRecord
  2
3216-R1-RF-VIMAR_60000_15
 70
0
 62
7
  6
CONTINUOUS
370
-3
390
F
  0
LAYER
  5
269
100
AcDbSymbolTableRecord
100
AcDbLayerTableRecord
  2
3216-R1-RF-VIMAR_60000_16
 70
0
 62
7
  6
CONTINUOUS
370
-3
390
F
  0
LAYER
  5
26A
100
AcDbSymbolTableRecord
100
AcDbLayerTableRecord
  2
3216-R1-RF-VIMAR_60000_17
 70
0
 62
7
  6
CONTINUOUS
370
-3
390
F
  0
LAYER
  5
26B
100
AcDbSymbolTableRecord
100
AcDbLayerTableRecord
  2
3216-R1-RF-VIMAR_60000_18
 70
0
 62
7
  6
CONTINUOUS
370
-3
390
F
  0
LAYER
  5
26C
100
AcDbSymbolTableRecord
100
AcDbLayerTableRecord
  2
3216-R1-RF-VIMAR_60000_2
 70
0
 62
7
  6
CONTINUOUS
370
-3
390
F
  0
LAYER
  5
26D
100
AcDbSymbolTableRecord
100
AcDbLayerTableRecord
  2
3216-R1-RF-VIMAR_60000_3
 70
0
 62
7
  6
CONTINUOUS
370
-3
390
F
  0
LAYER
  5
26E
100
AcDbSymbolTableRecord
100
AcDbLayerTableRecord
  2
3216-R1-RF-VIMAR_60000_4
 70
0
 62
7
  6
CONTINUOUS
370
-3
390
F
  0
LAYER
  5
26F
100
AcDbSymbolTableRecord
100
AcDbLayerTableRecord
  2
3216-R1-RF-VIMAR_60000_5
 70
0
 62
7
  6
CONTINUOUS
370
-3
390
F
  0
LAYER
  5
270
100
AcDbSymbolTableRecord
100
AcDbLayerTableRecord
  2
3216-R1-RF-VIMAR_60000_6
 70
0
 62
7
  6
CONTINUOUS
370
-3
390
F
  0
LAYER
  5
271
100
AcDbSymbolTableRecord
100
AcDbLayerTableRecord
  2
3216-R1-RF-VIMAR_60000_7
 70
0
 62
7
  6
CONTINUOUS
370
-3
390
F
  0
LAYER
  5
272
100
AcDbSymbolTableRecord
100
AcDbLayerTableRecord
  2
3216-R1-RF-VIMAR_60000_8
 70
0
 62
7
  6
CONTINUOUS
370
-3
390
F
  0
LAYER
  5
273
100
AcDbSymbolTableRecord
100
AcDbLayerTableRecord
  2
3216-R1-RF-VIMAR_60000_9
 70
0
 62
7
  6
CONTINUOUS
370
-3
390
F
  0
LAYER
  5
274
100
AcDbSymbolTableRecord
100
AcDbLayerTableRecord
  2
43000644A0
 70
0
 62
7
  6
CONTINUOUS
370
-3
390
F
  0
LAYER
  5
275
100
AcDbSymbolTableRecord
100
AcDbLayerTableRecord
  2
43000645A0
 70
0
 62
7
  6
CONTINUOUS
370
-3
390
F
  0
LAYER
  5
276
100
AcDbSymbolTableRecord
100
AcDbLayerTableRecord
  2
ASM0001
 70
0
 62
7
  6
CONTINUOUS
370
-3
390
F
  0
LAYER
  5
277
100
AcDbSymbolTableRecord
100
AcDbLayerTableRecord
  2
ASSI
 70
0
 62
7
  6
CONTINUOUS
370
-3
390
F
  0
LAYER
  5
278
100
AcDbSymbolTableRecord
100
AcDbLayerTableRecord
  2
AX-D100-1-VIMAR_300000
 70
0
 62
7
  6
CONTINUOUS
370
-3
390
F
  0
LAYER
  5
279
100
AcDbSymbolTableRecord
100
AcDbLayerTableRecord
  2
AX-D100-1-VIMAR_300000_1
 70
0
 62
7
  6
CONTINUOUS
370
-3
390
F
  0
LAYER
  5
27A
100
AcDbSymbolTableRecord
100
AcDbLayerTableRecord
  2
CN-MSM02001-VIMAR_1520000
 70
0
 62
7
  6
CONTINUOUS
370
-3
390
F
  0
LAYER
  5
27B
100
AcDbSymbolTableRecord
100
AcDbLayerTableRecord
  2
CN-MSM02001-VIMAR_1520000_1
 70
0
 62
7
  6
CONTINUOUS
370
-3
390
F
  0
LAYER
  5
27C
100
AcDbSymbolTableRecord
100
AcDbLayerTableRecord
  2
CN-MSM02001-VIMAR_1520000_2
 70
0
 62
7
  6
CONTINUOUS
370
-3
390
F
  0
LAYER
  5
27D
100
AcDbSymbolTableRecord
100
AcDbLayerTableRecord
  2
CN-MSM02001-VIMAR_1520000_3
 70
0
 62
7
  6
CONTINUOUS
370
-3
390
F
  0
LAYER
  5
27E
100
AcDbSymbolTableRecord
100
AcDbLayerTableRecord
  2
CN2-HEADER-PIH-P2_54-1_254000
 70
0
 62
7
  6
CONTINUOUS
370
-3
390
F
  0
LAYER
  5
27F
100
AcDbSymbolTableRecord
100
AcDbLayerTableRecord
  2
CN2-HEADER-PIH-P2_54-1_254000_1
 70
0
 62
7
  6
CONTINUOUS
370
-3
390
F
  0
LAYER
  5
280
100
AcDbSymbolTableRecord
100
AcDbLayerTableRecord
  2
CN2-HEADER-PIH-P2_54-1_254000_2
 70
0
 62
7
  6
CONTINUOUS
370
-3
390
F
  0
LAYER
  5
281
100
AcDbSymbolTableRecord
100
AcDbLayerTableRecord
  2
CN2-HEADER-PIH-P2_54-1_254000_3
 70
0
 62
7
  6
CONTINUOUS
370
-3
390
F
  0
LAYER
  5
282
100
AcDbSymbolTableRecord
100
AcDbLayerTableRecord
  2
CN6-FSN-1_2540000
 70
0
 62
7
  6
CONTINUOUS
370
-3
390
F
  0
LAYER
  5
283
100
AcDbSymbolTableRecord
100
AcDbLayerTableRecord
  2
COLOR5
 70
0
 62
7
  6
CONTINUOUS
370
-3
390
F
  0
LAYER
  5
284
100
AcDbSymbolTableRecord
100
AcDbLayerTableRecord
  2
COLOR6
 70
0
 62
7
  6
CONTINUOUS
370
-3
390
F
  0
LAYER
  5
285
100
AcDbSymbolTableRecord
100
AcDbLayerTableRecord
  2
COORDINATE
 70
0
 62
7
  6
CONTINUOUS
370
-3
390
F
  0
LAYER
  5
286
100
AcDbSymbolTableRecord
100
AcDbLayerTableRecord
  2
COORD_ORIGINE
 70
0
 62
7
  6
CONTINUOUS
370
-3
390
F
  0
LAYER
  5
287
100
AcDbSymbolTableRecord
100
AcDbLayerTableRecord
  2
COPY_PUBLISH
 70
0
 62
7
  6
CONTINUOUS
370
-3
390
F
  0
LAYER
  5
288
100
AcDbSymbolTableRecord
100
AcDbLayerTableRecord
  2
COSMETICI
 70
0
 62
7
  6
CONTINUOUS
370
-3
390
F
  0
LAYER
  5
289
100
AcDbSymbolTableRecord
100
AcDbLayerTableRecord
  2
CP-DO-214AB-D-VIMAR_260000
 70
0
 62
7
  6
CONTINUOUS
370
-3
390
F
  0
LAYER
  5
28A
100
AcDbSymbolTableRecord
100
AcDbLayerTableRecord
  2
CP-DO-214AB-D-VIMAR_260000_1
 70
0
 62
7
  6
CONTINUOUS
370
-3
390
F
  0
LAYER
  5
28B
100
AcDbSymbolTableRecord
100
AcDbLayerTableRecord
  2
CP-DO-214AB-D-VIMAR_260000_2
 70
0
 62
7
  6
CONTINUOUS
370
-3
390
F
  0
LAYER
  5
28C
100
AcDbSymbolTableRecord
100
AcDbLayerTableRecord
  2
CP-DO-214AB-D-VIMAR_260000_3
 70
0
 62
7
  6
CONTINUOUS
370
-3
390
F
  0
LAYER
  5
28D
100
AcDbSymbolTableRecord
100
AcDbLayerTableRecord
  2
CP-DO-214AC-D-VIMAR_240000
 70
0
 62
7
  6
CONTINUOUS
370
-3
390
F
  0
LAYER
  5
28E
100
AcDbSymbolTableRecord
100
AcDbLayerTableRecord
  2
CP-DO-214AC-VIMAR_240000
 70
0
 62
7
  6
CONTINUOUS
370
-3
390
F
  0
LAYER
  5
28F
100
AcDbSymbolTableRecord
100
AcDbLayerTableRecord
  2
CURVE
 70
0
 62
7
  6
CONTINUOUS
370
-3
390
F
  0
LAYER
  5
290
100
AcDbSymbolTableRecord
100
AcDbLayerTableRecord
  2
DRAFT
 70
0
 62
7
  6
CONTINUOUS
370
-3
390
F
  0
LAYER
  5
291
100
AcDbSymbolTableRecord
100
AcDbLayerTableRecord
  2
E2_MARK_10000
 70
0
 62
7
  6
CONTINUOUS
370
-3
390
F
  0
LAYER
  5
292
100
AcDbSymbolTableRecord
100
AcDbLayerTableRecord
  2
FUSE-2A-250V_800000
 70
0
 62
7
  6
CONTINUOUS
370
-3
390
F
  0
LAYER
  5
293
100
AcDbSymbolTableRecord
100
AcDbLayerTableRecord
  2
I3-TO-H12-VIMAR_1080000
 70
0
 62
7
  6
CONTINUOUS
370
-3
390
F
  0
LAYER
  5
294
100
AcDbSymbolTableRecord
100
AcDbLayerTableRecord
  2
I3-TO-H2-7C-VIMAR-2_2040000
 70
0
 62
7
  6
CONTINUOUS
370
-3
390
F
  0
LAYER
  5
295
100
AcDbSymbolTableRecord
100
AcDbLayerTableRecord
  2
I3-TO-H2-7C-VIMAR_2040000
 70
0
 62
7
  6
CONTINUOUS
370
-3
390
F
  0
LAYER
  5
296
100
AcDbSymbolTableRecord
100
AcDbLayerTableRecord
  2
I3-TO-H2-VIMAR_1130000
 70
0
 62
7
  6
CONTINUOUS
370
-3
390
F
  0
LAYER
  5
297
100
AcDbSymbolTableRecord
100
AcDbLayerTableRecord
  2
IMPORT_IGES
 70
0
 62
7
  6
CONTINUOUS
370
-3
390
F
  0
LAYER
  5
298
100
AcDbSymbolTableRecord
100
AcDbLayerTableRecord
  2
INDC3216X130N_130000
 70
0
 62
7
  6
CONTINUOUS
370
-3
390
F
  0
LAYER
  5
299
100
AcDbSymbolTableRecord
100
AcDbLayerTableRecord
  2
INDC3216X130N_130000_1
 70
0
 62
7
  6
CONTINUOUS
370
-3
390
F
  0
LAYER
  5
29A
100
AcDbSymbolTableRecord
100
AcDbLayerTableRecord
  2
INDC3216X130N_130000_2
 70
0
 62
7
  6
CONTINUOUS
370
-3
390
F
  0
LAYER
  5
29B
100
AcDbSymbolTableRecord
100
AcDbLayerTableRecord
  2
INDC3216X130N_130000_3
 70
0
 62
7
  6
CONTINUOUS
370
-3
390
F
  0
LAYER
  5
29C
100
AcDbSymbolTableRecord
100
AcDbLayerTableRecord
  2
INDC3216X130N_130000_4
 70
0
 62
7
  6
CONTINUOUS
370
-3
390
F
  0
LAYER
  5
29D
100
AcDbSymbolTableRecord
100
AcDbLayerTableRecord
  2
INTFCLR_3
 70
0
 62
7
  6
CONTINUOUS
370
-3
390
F
  0
LAYER
  5
29E
100
AcDbSymbolTableRecord
100
AcDbLayerTableRecord
  2
INTFCLR_4
 70
0
 62
7
  6
CONTINUOUS
370
-3
390
F
  0
LAYER
  5
29F
100
AcDbSymbolTableRecord
100
AcDbLayerTableRecord
  2
INTFCLR_5
 70
0
 62
7
  6
CONTINUOUS
370
-3
390
F
  0
LAYER
  5
2A0
100
AcDbSymbolTableRecord
100
AcDbLayerTableRecord
  2
INTF_1
 70
0
 62
7
  6
CONTINUOUS
370
-3
390
F
  0
LAYER
  5
2A1
100
AcDbSymbolTableRecord
100
AcDbLayerTableRecord
  2
INTF_BLANK
 70
0
 62
7
  6
CONTINUOUS
370
-3
390
F
  0
LAYER
  5
2A2
100
AcDbSymbolTableRecord
100
AcDbLayerTableRecord
  2
LOGO_RESIST-RESTYLING_10000
 70
0
 62
7
  6
CONTINUOUS
370
-3
390
F
  0
LAYER
  5
2A3
100
AcDbSymbolTableRecord
100
AcDbLayerTableRecord
  2
L_PCX13204_3770000
 70
0
 62
7
  6
CONTINUOUS
370
-3
390
F
  0
LAYER
  5
2A4
100
AcDbSymbolTableRecord
100
AcDbLayerTableRecord
  2
MM3-MPAK-RF-VIMAR_120000
 70
0
 62
7
  6
CONTINUOUS
370
-3
390
F
  0
LAYER
  5
2A5
100
AcDbSymbolTableRecord
100
AcDbLayerTableRecord
  2
MM3-MPAK-RF-VIMAR_120000_1
 70
0
 62
7
  6
CONTINUOUS
370
-3
390
F
  0
LAYER
  5
2A6
100
AcDbSymbolTableRecord
100
AcDbLayerTableRecord
  2
MM3-MPAK-RF-VIMAR_120000_2
 70
0
 62
7
  6
CONTINUOUS
370
-3
390
F
  0
LAYER
  5
2A7
100
AcDbSymbolTableRecord
100
AcDbLayerTableRecord
  2
MM3-MPAK-RF-VIMAR_120000_3
 70
0
 62
7
  6
CONTINUOUS
370
-3
390
F
  0
LAYER
  5
2A8
100
AcDbSymbolTableRecord
100
AcDbLayerTableRecord
  2
MM3-MPAK-RF-VIMAR_120000_4
 70
0
 62
7
  6
CONTINUOUS
370
-3
390
F
  0
LAYER
  5
2A9
100
AcDbSymbolTableRecord
100
AcDbLayerTableRecord
  2
MM3-MPAK-RF-VIMAR_120000_5
 70
0
 62
7
  6
CONTINUOUS
370
-3
390
F
  0
LAYER
  5
2AA
100
AcDbSymbolTableRecord
100
AcDbLayerTableRecord
  2
MM4-LSOP-1-VIMAR_230000
 70
0
 62
7
  6
CONTINUOUS
370
-3
390
F
  0
LAYER
  5
2AB
100
AcDbSymbolTableRecord
100
AcDbLayerTableRecord
  2
NO-PB_MARK_10000
 70
0
 62
7
  6
CONTINUOUS
370
-3
390
F
  0
LAYER
  5
2AC
100
AcDbSymbolTableRecord
100
AcDbLayerTableRecord
  2
NOTE
 70
0
 62
7
  6
CONTINUOUS
370
-3
390
F
  0
LAYER
  5
2AD
100
AcDbSymbolTableRecord
100
AcDbLayerTableRecord
  2
PIANI
 70
0
 62
7
  6
CONTINUOUS
370
-3
390
F
  0
LAYER
  5
2AE
100
AcDbSymbolTableRecord
100
AcDbLayerTableRecord
  2
PIANI_ORIGINE
 70
0
 62
7
  6
CONTINUOUS
370
-3
390
F
  0
LAYER
  5
2AF
100
AcDbSymbolTableRecord
100
AcDbLayerTableRecord
  2
PUNTI
 70
0
 62
7
  6
CONTINUOUS
370
-3
390
F
  0
LAYER
  5
2B0
100
AcDbSymbolTableRecord
100
AcDbLayerTableRecord
  2
RACCORDO
 70
0
 62
7
  6
CONTINUOUS
370
-3
390
F
  0
LAYER
  5
2B1
100
AcDbSymbolTableRecord
100
AcDbLayerTableRecord
  2
RD-3266W_790000
 70
0
 62
7
  6
CONTINUOUS
370
-3
390
F
  0
LAYER
  5
2B2
100
AcDbSymbolTableRecord
100
AcDbLayerTableRecord
  2
RD-C100-5-VIMAR_1250000
 70
0
 62
7
  6
CONTINUOUS
370
-3
390
F
  0
LAYER
  5
2B3
100
AcDbSymbolTableRecord
100
AcDbLayerTableRecord
  2
RD-C100-5-VIMAR_1250000_1
 70
0
 62
7
  6
CONTINUOUS
370
-3
390
F
  0
LAYER
  5
2B4
100
AcDbSymbolTableRecord
100
AcDbLayerTableRecord
  2
RD-C100-5-VIMAR_1250000_2
 70
0
 62
7
  6
CONTINUOUS
370
-3
390
F
  0
LAYER
  5
2B5
100
AcDbSymbolTableRecord
100
AcDbLayerTableRecord
  2
RD-C150-10-VIMAR_1400000
 70
0
 62
7
  6
CONTINUOUS
370
-3
390
F
  0
LAYER
  5
2B6
100
AcDbSymbolTableRecord
100
AcDbLayerTableRecord
  2
RD-C150-10-VIMAR_1400000_1
 70
0
 62
7
  6
CONTINUOUS
370
-3
390
F
  0
LAYER
  5
2B7
100
AcDbSymbolTableRecord
100
AcDbLayerTableRecord
  2
RD-C50-4-VIMAR_1600000
 70
0
 62
7
  6
CONTINUOUS
370
-3
390
F
  0
LAYER
  5
2B8
100
AcDbSymbolTableRecord
100
AcDbLayerTableRecord
  2
RD-CE20-1-VIMAR_1100000
 70
0
 62
7
  6
CONTINUOUS
370
-3
390
F
  0
LAYER
  5
2B9
100
AcDbSymbolTableRecord
100
AcDbLayerTableRecord
  2
RD-CE20-1-VIMAR_1100000_1
 70
0
 62
7
  6
CONTINUOUS
370
-3
390
F
  0
LAYER
  5
2BA
100
AcDbSymbolTableRecord
100
AcDbLayerTableRecord
  2
RD-CE20-1-VIMAR_1100000_2
 70
0
 62
7
  6
CONTINUOUS
370
-3
390
F
  0
LAYER
  5
2BB
100
AcDbSymbolTableRecord
100
AcDbLayerTableRecord
  2
RD-CE50-4-VIMAR_2000000
 70
0
 62
7
  6
CONTINUOUS
370
-3
390
F
  0
LAYER
  5
2BC
100
AcDbSymbolTableRecord
100
AcDbLayerTableRecord
  2
RD-CE50-4-VIMAR_2000000_1
 70
0
 62
7
  6
CONTINUOUS
370
-3
390
F
  0
LAYER
  5
2BD
100
AcDbSymbolTableRecord
100
AcDbLayerTableRecord
  2
RD-CE75-5-VIMAR_2000000
 70
0
 62
7
  6
CONTINUOUS
370
-3
390
F
  0
LAYER
  5
2BE
100
AcDbSymbolTableRecord
100
AcDbLayerTableRecord
  2
RD-L2-1-VIMAR_2030000
 70
0
 62
7
  6
CONTINUOUS
370
-3
390
F
  0
LAYER
  5
2BF
100
AcDbSymbolTableRecord
100
AcDbLayerTableRecord
  2
RD-L50-10-VIMAR_0
 70
0
 62
7
  6
CONTINUOUS
370
-3
390
F
  0
LAYER
  5
2C0
100
AcDbSymbolTableRecord
100
AcDbLayerTableRecord
  2
RUBBERPAD-R-06X22_0
 70
0
 62
7
  6
CONTINUOUS
370
-3
390
F
  0
LAYER
  5
2C1
100
AcDbSymbolTableRecord
100
AcDbLayerTableRecord
  2
RUBBERPAD-R-06X22_0_1
 70
0
 62
7
  6
CONTINUOUS
370
-3
390
F
  0
LAYER
  5
2C2
100
AcDbSymbolTableRecord
100
AcDbLayerTableRecord
  2
RUBBERPAD-R-06X22_0_10
 70
0
 62
7
  6
CONTINUOUS
370
-3
390
F
  0
LAYER
  5
2C3
100
AcDbSymbolTableRecord
100
AcDbLayerTableRecord
  2
RUBBERPAD-R-06X22_0_11
 70
0
 62
7
  6
CONTINUOUS
370
-3
390
F
  0
LAYER
  5
2C4
100
AcDbSymbolTableRecord
100
AcDbLayerTableRecord
  2
RUBBERPAD-R-06X22_0_2
 70
0
 62
7
  6
CONTINUOUS
370
-3
390
F
  0
LAYER
  5
2C5
100
AcDbSymbolTableRecord
100
AcDbLayerTableRecord
  2
RUBBERPAD-R-06X22_0_3
 70
0
 62
7
  6
CONTINUOUS
370
-3
390
F
  0
LAYER
  5
2C6
100
AcDbSymbolTableRecord
100
AcDbLayerTableRecord
  2
RUBBERPAD-R-06X22_0_4
 70
0
 62
7
  6
CONTINUOUS
370
-3
390
F
  0
LAYER
  5
2C7
100
AcDbSymbolTableRecord
100
AcDbLayerTableRecord
  2
RUBBERPAD-R-06X22_0_5
 70
0
 62
7
  6
CONTINUOUS
370
-3
390
F
  0
LAYER
  5
2C8
100
AcDbSymbolTableRecord
100
AcDbLayerTableRecord
  2
RUBBERPAD-R-06X22_0_6
 70
0
 62
7
  6
CONTINUOUS
370
-3
390
F
  0
LAYER
  5
2C9
100
AcDbSymbolTableRecord
100
AcDbLayerTableRecord
  2
RUBBERPAD-R-06X22_0_7
 70
0
 62
7
  6
CONTINUOUS
370
-3
390
F
  0
LAYER
  5
2CA
100
AcDbSymbolTableRecord
100
AcDbLayerTableRecord
  2
RUBBERPAD-R-06X22_0_8
 70
0
 62
7
  6
CONTINUOUS
370
-3
390
F
  0
LAYER
  5
2CB
100
AcDbSymbolTableRecord
100
AcDbLayerTableRecord
  2
RUBBERPAD-R-06X22_0_9
 70
0
 62
7
  6
CONTINUOUS
370
-3
390
F
  0
LAYER
  5
2CC
100
AcDbSymbolTableRecord
100
AcDbLayerTableRecord
  2
SIMBOLI
 70
0
 62
7
  6
CONTINUOUS
370
-3
390
F
  0
LAYER
  5
2CD
100
AcDbSymbolTableRecord
100
AcDbLayerTableRecord
  2
SMUSSO
 70
0
 62
7
  6
CONTINUOUS
370
-3
390
F
  0
LAYER
  5
2CE
100
AcDbSymbolTableRecord
100
AcDbLayerTableRecord
  2
SNAPLINE
 70
0
 62
7
  6
CONTINUOUS
370
-3
390
F
  0
LAYER
  5
2CF
100
AcDbSymbolTableRecord
100
AcDbLayerTableRecord
  2
SOP8-T1-RF-FINE-VIMAR_150000
 70
0
 62
7
  6
CONTINUOUS
370
-3
390
F
  0
LAYER
  5
2D0
100
AcDbSymbolTableRecord
100
AcDbLayerTableRecord
  2
SOP8-T1-RF-FINE-VIMAR_150000_1
 70
0
 62
7
  6
CONTINUOUS
370
-3
390
F
  0
LAYER
  5
2D1
100
AcDbSymbolTableRecord
100
AcDbLayerTableRecord
  2
SOP8-T1-RF-FINE-VIMAR_150000_2
 70
0
 62
7
  6
CONTINUOUS
370
-3
390
F
  0
LAYER
  5
2D2
100
AcDbSymbolTableRecord
100
AcDbLayerTableRecord
  2
SUPERFICI
 70
0
 62
7
  6
CONTINUOUS
370
-3
390
F
  0
LAYER
  5
2D3
100
AcDbSymbolTableRecord
100
AcDbLayerTableRecord
  2
TR-PCX13227_3220000
 70
0
 62
7
  6
CONTINUOUS
370
-3
390
F
  0
LAYER
  5
2D4
100
AcDbSymbolTableRecord
100
AcDbLayerTableRecord
  2
TRASH
 70
0
 62
7
  6
CONTINUOUS
370
-3
390
F
  0
LAYER
  5
2D5
100
AcDbSymbolTableRecord
100
AcDbLayerTableRecord
  2
TR_T7YA_625000
 70
0
 62
7
  6
CONTINUOUS
370
-3
390
F
  0
LAYER
  5
2D6
100
AcDbSymbolTableRecord
100
AcDbLayerTableRecord
  2
WHITE
 70
0
 62
7
  6
CONTINUOUS
370
-3
390
F
  0
LAYER
  5
2D7
100
AcDbSymbolTableRecord
100
AcDbLayerTableRecord
  2
___SHELL
 70
0
 62
7
  6
CONTINUOUS
370
-3
390
F
  0
ENDTAB
  0
TABLE
  2
STYLE
  5
3
100
AcDbSymbolTable
 70
1
  0
STYLE
  5
11
100
AcDbSymbolTableRecord
100
AcDbTextStyleTableRecord
  2
STANDARD
 70
0
 40
0.0
 41
0.8
 50
0.0
 71
0
 42
0.2
  3
txt
  4

  0
STYLE
  5
2D8
100
AcDbSymbolTableRecord
100
AcDbTextStyleTableRecord
  2
TEXTSTYLE_1
 70
0
 40
0.0
 41
0.8
 50
0.0
 71
0
 42
0.2
  3
gdt
  4

  0
ENDTAB
  0
TABLE
  2
VIEW
  5
6
100
AcDbSymbolTable
 70
0
  0
ENDTAB
  0
TABLE
  2
UCS
  5
7
100
AcDbSymbolTable
 70
0
  0
ENDTAB
  0
TABLE
  2
APPID
  5
9
100
AcDbSymbolTable
 70
1
  0
APPID
  5
2D9
100
AcDbSymbolTableRecord
100
AcDbRegAppTableRecord
  2
ACAD
 70
0
  0
ENDTAB
  0
TABLE
  2
BLOCK_RECORD
  5
1
100
AcDbSymbolTable
 70
0
  0
BLOCK_RECORD
  5
2DA
100
AcDbSymbolTableRecord
100
AcDbBlockTableRecord
  2
*Model_Space
  0
BLOCK_RECORD
  5
2DB
100
AcDbSymbolTableRecord
100
AcDbBlockTableRecord
  2
*Paper_Space
  0
ENDTAB
  0
TABLE
  2
DIMSTYLE
  5
A
100
AcDbSymbolTable
 70
1
100
AcDbDimStyleTable
 71
0
  0
DIMSTYLE
105
2DC
100
AcDbSymbolTableRecord
100
AcDbDimStyleTableRecord
  2
STANDARD
 70
0
  3

  4

 40
1.0
 41
3.0
 42
0.5
 43
0.38
 44
1.5
 45
0.0
 46
0.0
 47
0.01
 48
0.01
140
3.0
141
0.09
142
0.0
143
25.4
144
1.0
145
0.0
146
1.0
147
0.625
 71
1.0
 72
0.0
 73
0
 74
0
 75
0
 76
0
 77
1
 78
8
170
0
171
2
172
0
173
0
174
0
175
0
176
0
177
0
178
0
270
2
271
2
272
2
273
2
274
2
275
0
280
0
281
0
282
0
283
1
284
8
285
0
286
0
287
3
288
0
340
11
278
44
  0
ENDTAB
  0
ENDSEC
  0
SECTION
  2
BLOCKS
  0
BLOCK
  5
20
100
AcDbEntity
  8
0
100
AcDbBlockBegin
  2
*Model_Space
 70
0
 10
0.0
 20
0.0
 30
0.0
  3
*Model_Space
  1

  0
ENDBLK
  5
21
100
AcDbEntity
  8
0
100
AcDbBlockEnd
  0
BLOCK
  5
1C
100
AcDbEntity
  8
0
100
AcDbBlockBegin
  2
*Paper_Space
 70
0
 10
0.0
 20
0.0
 30
0.0
  3
*Paper_Space
  1

  0
ENDBLK
  5
1D
100
AcDbEntity
  8
0
100
AcDbBlockEnd
  0
ENDSEC
  0
SECTION
  2
ENTITIES
  0
LWPOLYLINE
  5
2DD
100
AcDbEntity
  8
RACCORDO
100
AcDbPolyline
 62
7
  6
CONTINUOUS
 90
28
 70
0
 10
-69.7276175657
 20
19.5193114654
 10
-69.7266345638
 20
19.4959371843
 10
-69.7244934727
 20
19.4723511259
 10
-69.7211596766
 20
19.4486116519
 10
-69.7166000826
 20
19.4247820033
 10
-69.7107868604
 20
19.400926183
 10
-69.7036976649
 20
19.3771088837
 10
-69.6953136252
 20
19.3534114671
 10
-69.6856140584
 20
19.3298993384
 10
-69.67457533
 20
19.3066196193
 10
-69.6621903967
 20
19.283667705
 10
-69.6484449706
 20
19.2611163617
 10
-69.6332976729
 20
19.2389908007
 10
-69.6167488965
 20
19.2173996395
 10
-69.598791182
 20
19.196433093
 10
-69.5793569778
 20
19.1761114291
 10
-69.5584560872
 20
19.1565647292
 10
-69.536089949
 20
19.1379073868
 10
-69.5121608282
 20
19.1201739032
 10
-69.4866926913
 20
19.1035247771
 10
-69.4597056549
 20
19.08811028
 10
-69.4310818969
 20
19.0740062186
 10
-69.4008421293
 20
19.0614023558
 10
-69.3690737962
 20
19.0505117537
 10
-69.3357649436
 20
19.0415026758
 10
-69.3009879209
 20
19.0345942869
 10
-69.2649094897
 20
19.0300302668
 10
-69.2276937182
 20
19.0280363628
  0
LWPOLYLINE
  5
2DE
100
AcDbEntity
  8
RACCORDO
100
AcDbPolyline
 62
253
  6
CONTINUOUS
 90
18
 70
0
 10
-67.2555014473
 20
15.5299792188
 10
-67.2537655125
 20
15.4862828329
 10
-67.2482186543
 20
15.4429052337
 10
-67.2389032915
 20
15.4001782427
 10
-67.225890672
 20
15.3584287101
 10
-67.2092803247
 20
15.3179760031
 10
-67.1891992948
 20
15.2791295637
 10
-67.165801179
 20
15.2421865573
 10
-67.1392649535
 20
15.207429597
 10
-67.1097935988
 20
15.1751245715
 10
-67.0776125474
 20
15.1455186125
 10
-67.0429679673
 20
15.1188382125
 10
-67.0061248812
 20
15.0952874878
 10
-66.9673651198
 20
15.0750466054
 10
-66.9269851837
 20
15.058270417
 10
-66.8852939877
 20
15.0450872745
 10
-66.8426104663
 20
15.0355980346
 10
-66.7992611323
 20
15.0298752927
  0
LWPOLYLINE
  5
2DF
100
AcDbEntity
  8
RACCORDO
100
AcDbPolyline
 62
253
  6
CONTINUOUS
 90
22
 70
0
 10
-69.6228871762
 20
-43.2048985087
 10
-69.6214738396
 20
-43.2423119033
 10
-69.6172646018
 20
-43.2795151056
 10
-69.6102831502
 20
-43.3162994699
 10
-69.6005690324
 20
-43.3524576952
 10
-69.588176644
 20
-43.3877880779
 10
-69.5731741708
 20
-43.4220953857
 10
-69.5556426788
 20
-43.4551912613
 10
-69.5356818035
 20
-43.4868850646
 10
-69.5134103794
 20
-43.516989398
 10
-69.4889611388
 20
-43.5453299336
 10
-69.462467478
 20
-43.5717566741
 10
-69.43406707
 20
-43.5961326718
 10
-69.4039046983
 20
-43.618329331
 10
-69.3721605819
 20
-43.6382099485
 10
-69.3390418957
 20
-43.6556474128
 10
-69.304728977
 20
-43.6705523953
 10
-69.2694237616
 20
-43.6828425984
 10
-69.2333830245
 20
-43.6924418911
 10
-69.1968316626
 20
-43.6993123786
 10
-69.1599566859
 20
-43.703440493
 10
-69.1229633286
 20
-43.7048223563
  0
LWPOLYLINE
  5
2E0
100
AcDbEntity
  8
RACCORDO
100
AcDbPolyline
 62
253
  6
CONTINUOUS
 90
40
 70
0
 10
-69.6228871762
 20
19.624041855
 10
-69.622474388
 20
19.6038819817
 10
-69.6212491184
 20
19.5837566619
 10
-69.6192135731
 20
19.5636986176
 10
-69.6163709608
 20
19.5437385234
 10
-69.6127262729
 20
19.5239107531
 10
-69.6082870484
 20
19.5042531855
 10
-69.6030609274
 20
19.4847959402
 10
-69.5970576222
 20
19.4655720244
 10
-69.5902916222
 20
19.4466225465
 10
-69.5827830973
 20
19.4279941088
 10
-69.5745404852
 20
19.4096987616
 10
-69.5655588977
 20
19.3917265963
 10
-69.5558393044
 20
19.3740891968
 10
-69.5454041391
 20
19.356836218
 10
-69.5342800787
 20
19.3400150642
 10
-69.522488814
 20
19.3236585456
 10
-69.5100457013
 20
19.3077879738
 10
-69.4969720001
 20
19.2924309171
 10
-69.4832837682
 20
19.2776071675
 10
-69.4690078296
 20
19.2633466626
 10
-69.4541853375
 20
19.249688679
 10
-69.4388547397
 20
19.236663583
 10
-69.4230309897
 20
19.2242792025
 10
-69.4067213025
 20
19.2125395655
 10
-69.3899470262
 20
19.2014607026
 10
-69.3727397933
 20
19.1910641529
 10
-69.3551211326
 20
19.18136364
 10
-69.3371129605
 20
19.1723728761
 10
-69.3187498413
 20
19.1641107299
 10
-69.3000735177
 20
19.1565962418
 10
-69.281119715
 20
19.1498428205
 10
-69.2619142406
 20
19.1438587105
 10
-69.2424851301
 20
19.1386522677
 10
-69.2228637247
 20
19.1342317325
 10
-69.2030819626
 20
19.1306041435
 10
-69.1831690443
 20
19.1277748661
 10
-69.163156222
 20
19.1257485836
 10
-69.1430768168
 20
19.1245289115
 10
-69.1229633286
 20
19.1241180074
  0
LINE
  5
2E1
100
AcDbEntity
  8
RACCORDO
100
AcDbLine
 62
7
  6
CONTINUOUS
 10
-69.890101986
 20
-43.4720562046
 11
-69.890101986
 21
45.5279818723
  0
LINE
  5
2E2
100
AcDbEntity
  8
RACCORDO
100
AcDbLine
 62
253
  6
CONTINUOUS
 10
-69.7276175657
 20
-17.4633857977
 11
-69.7276175657
 21
19.5193114654
  0
LINE
  5
2E3
100
AcDbEntity
  8
RACCORDO
100
AcDbLine
 62
253
  6
CONTINUOUS
 10
-69.6228871762
 20
-43.2048985087
 11
-69.6228871762
 21
-17.5681161873
  0
LINE
  5
2E4
100
AcDbEntity
  8
RACCORDO
100
AcDbLine
 62
253
  6
CONTINUOUS
 10
-69.6228871762
 20
19.624041855
 11
-69.6228871762
 21
45.2608241764
  0
LINE
  5
2E5
100
AcDbEntity
  8
RACCORDO
100
AcDbLine
 62
253
  6
CONTINUOUS
 10
-69.2276937182
 20
-16.9721106951
 11
-69.2276937182
 21
19.0280363628
  0
LINE
  5
2E6
100
AcDbEntity
  8
RACCORDO
100
AcDbLine
 62
253
  6
CONTINUOUS
 10
-69.1229633286
 20
-43.7048223563
 11
-69.1229633286
 21
-17.0681923397
  0
LINE
  5
2E7
100
AcDbEntity
  8
RACCORDO
100
AcDbLine
 62
253
  6
CONTINUOUS
 10
-69.1229633286
 20
19.1241180074
 11
-69.1229633286
 21
45.760748024
  0
LINE
  5
2E8
100
AcDbEntity
  8
DRAFT
100
AcDbLine
 62
7
  6
CONTINUOUS
 10
-67.6045786817
 20
19.0279628338
 11
-67.6045786817
 21
14.747161943
  0
LINE
  5
2E9
100
AcDbEntity
  8
DRAFT
100
AcDbLine
 62
7
  6
CONTINUOUS
 10
-67.491284128
 20
19.0331993533
 11
-67.491284128
 21
14.747161943
  0
LINE
  5
2EA
100
AcDbEntity
  8
RACCORDO
100
AcDbLine
 62
7
  6
CONTINUOUS
 10
-67.290101986
 20
15.5299792188
 11
-67.290101986
 21
19.0522990371
  0
LINE
  5
2EB
100
AcDbEntity
  8
IMPORT_IGES
100
AcDbLine
 62
7
  6
CONTINUOUS
 10
-66.890101986
 20
15.0387142157
 11
-66.890101986
 21
14.747161943
  0
LINE
  5
2EC
100
AcDbEntity
  8
0
100
AcDbLine
 62
7
  6
CONTINUOUS
 10
-66.890101986
 20
14.747161943
 11
-66.890101986
 21
15.0387142157
  0
LINE
  5
2ED
100
AcDbEntity
  8
RACCORDO
100
AcDbLine
 62
253
  6
CONTINUOUS
 10
-66.745765379
 20
15.796890403
 11
-66.7201606751
 21
18.9709871511
  0
LINE
  5
2EE
100
AcDbEntity
  8
RACCORDO
100
AcDbLine
 62
253
  6
CONTINUOUS
 10
-66.7482201568
 20
15.3999057766
 11
-66.745765379
 21
15.796890403
  0
LINE
  5
2EF
100
AcDbEntity
  8
RACCORDO
100
AcDbLine
 62
253
  6
CONTINUOUS
 10
-67.2467476765
 20
15.8099327833
 11
-67.2197958061
 21
19.1243306111
  0
LINE
  5
2F0
100
AcDbEntity
  8
RACCORDO
100
AcDbLine
 62
253
  6
CONTINUOUS
 10
-66.7503238996
 20
15.2100889867
 11
-66.7482201568
 21
15.3999057766
  0
LINE
  5
2F1
100
AcDbEntity
  8
RACCORDO
100
AcDbLine
 62
253
  6
CONTINUOUS
 10
-67.2481425776
 20
15.7160227985
 11
-67.2467476765
 21
15.8099327833
  0
LINE
  5
2F2
100
AcDbEntity
  8
RACCORDO
100
AcDbLine
 62
253
  6
CONTINUOUS
 10
-66.7517181309
 20
15.125734941
 11
-66.7503238996
 21
15.2100889867
  0
LWPOLYLINE
  5
2F3
100
AcDbEntity
  8
RACCORDO
100
AcDbPolyline
 62
253
  6
CONTINUOUS
 90
40
 70
0
 10
-69.6228871762
 20
-17.5681161873
 10
-69.622474388
 20
-17.547956314
 10
-69.6212491184
 20
-17.5278309942
 10
-69.6192135731
 20
-17.5077729499
 10
-69.6163709608
 20
-17.4878128557
 10
-69.6127262729
 20
-17.4679850854
 10
-69.6082870484
 20
-17.4483275178
 10
-69.6030609274
 20
-17.4288702726
 10
-69.5970576222
 20
-17.4096463567
 10
-69.5902916222
 20
-17.3906968789
 10
-69.5827830973
 20
-17.3720684411
 10
-69.5745404852
 20
-17.3537730939
 10
-69.5655588977
 20
-17.3358009287
 10
-69.5558393044
 20
-17.3181635291
 10
-69.5454041391
 20
-17.3009105504
 10
-69.5342800787
 20
-17.2840893966
 10
-69.522488814
 20
-17.267732878
 10
-69.5100457013
 20
-17.2518623061
 10
-69.4969720001
 20
-17.2365052494
 10
-69.4832837682
 20
-17.2216814999
 10
-69.4690078296
 20
-17.2074209949
 10
-69.4541853375
 20
-17.1937630113
 10
-69.4388547397
 20
-17.1807379154
 10
-69.4230309897
 20
-17.1683535348
 10
-69.4067213025
 20
-17.1566138978
 10
-69.3899470262
 20
-17.145535035
 10
-69.3727397933
 20
-17.1351384853
 10
-69.3551211326
 20
-17.1254379724
 10
-69.3371129605
 20
-17.1164472085
 10
-69.3187498413
 20
-17.1081850622
 10
-69.3000735177
 20
-17.1006705742
 10
-69.281119715
 20
-17.0939171528
 10
-69.2619142406
 20
-17.0879330428
 10
-69.2424851301
 20
-17.0827266001
 10
-69.2228637247
 20
-17.0783060649
 10
-69.2030819626
 20
-17.0746784758
 10
-69.1831690443
 20
-17.0718491984
 10
-69.163156222
 20
-17.0698229159
 10
-69.1430768168
 20
-17.0686032439
 10
-69.1229633286
 20
-17.0681923397
  0
LINE
  5
2F4
100
AcDbEntity
  8
RACCORDO
100
AcDbLine
 62
253
  6
CONTINUOUS
 10
-67.2493664936
 20
15.6556014621
 11
-67.2481425776
 21
15.7160227985
  0
LINE
  5
2F5
100
AcDbEntity
  8
RACCORDO
100
AcDbLine
 62
253
  6
CONTINUOUS
 10
-67.250247951
 20
15.6210616604
 11
-67.2493664936
 21
15.6556014621
  0
LWPOLYLINE
  5
2F6
100
AcDbEntity
  8
RACCORDO
100
AcDbPolyline
 62
253
  6
CONTINUOUS
 90
3
 70
0
 10
-66.7531638044
 20
15.0665407702
 10
-66.7526793029
 20
15.0833562108
 10
-66.7517181309
 20
15.125734941
  0
LWPOLYLINE
  5
2F7
100
AcDbEntity
  8
RACCORDO
100
AcDbPolyline
 62
7
  6
CONTINUOUS
 90
28
 70
0
 10
-69.7276175657
 20
-17.4633857977
 10
-69.7266363321
 20
-17.4399084104
 10
-69.7244949074
 20
-17.4163418059
 10
-69.7211596766
 20
-17.3926859842
 10
-69.7165997853
 20
-17.3688736691
 10
-69.7107873471
 20
-17.3449721368
 10
-69.7036976649
 20
-17.3211832161
 10
-69.6953132826
 20
-17.2975057778
 10
-69.6856146195
 20
-17.2739409511
 10
-69.67457533
 20
-17.2506939516
 10
-69.6621900333
 20
-17.2277632218
 10
-69.6484456631
 20
-17.2051503192
 10
-69.6332976729
 20
-17.183065133
 10
-69.6167485114
 20
-17.1614964262
 10
-69.5987920737
 20
-17.1404554357
 10
-69.5793569778
 20
-17.1201857614
 10
-69.5584556618
 20
-17.1006638627
 10
-69.5360911228
 20
-17.0819132802
 10
-69.5121608282
 20
-17.0642482356
 10
-69.4866921746
 20
-17.0476292361
 10
-69.4597071785
 20
-17.0320957745
 10
-69.4310818969
 20
-17.0180805509
 10
-69.4008412356
 20
-17.0055287954
 10
-69.3690753536
 20
-16.9944952779
 10
-69.3357649436
 20
-16.9855770081
 10
-69.3009827008
 20
-16.9789729894
 10
-69.264902979
 20
-16.9744842184
 10
-69.2276937182
 20
-16.9721106951
  0
LWPOLYLINE
  5
2F8
100
AcDbEntity
  8
RACCORDO
100
AcDbPolyline
 62
253
  6
CONTINUOUS
 90
6
 70
0
 10
-66.7555775997
 20
15.0279628338
 10
-66.7550989374
 20
15.0295158848
 10
-66.7546185202
 20
15.0341699512
 10
-66.7541363482
 20
15.0419101854
 10
-66.7536509537
 20
15.0527116882
 10
-66.7531638044
 20
15.0665407702
  0
LINE
  5
2F9
100
AcDbEntity
  8
DRAFT
100
AcDbLine
 62
7
  6
CONTINUOUS
 10
-67.6045786817
 20
19.0279628338
 11
-67.6019606213
 21
19.0331993533
  0
LWPOLYLINE
  5
2FA
100
AcDbEntity
  8
RACCORDO
100
AcDbPolyline
 62
7
  6
CONTINUOUS
 90
4
 70
0
 10
-67.2197958061
 20
19.1243306111
 10
-67.2187316205
 20
19.126099942
 10
-67.2158591789
 20
19.1296826903
 10
-67.2045427178
 20
19.1433385778
  0
LWPOLYLINE
  5
2FB
100
AcDbEntity
  8
RACCORDO
100
AcDbPolyline
 62
7
  6
CONTINUOUS
 90
25
 70
0
 10
-58.720419795
 20
19.624041855
 10
-58.7268626773
 20
19.5935708119
 10
-58.731344368
 20
19.5633118082
 10
-58.7337928377
 20
19.533247467
 10
-58.7341434732
 20
19.5031926464
 10
-58.7324120961
 20
19.4733202723
 10
-58.7286938749
 20
19.4441611931
 10
-58.7229873755
 20
19.4159240728
 10
-58.7154275665
 20
19.3884323649
 10
-58.7063474063
 20
19.3616458221
 10
-58.695888395
 20
19.3355092976
 10
-58.6842004313
 20
19.3101345954
 10
-58.6716432749
 20
19.2857298237
 10
-58.6583684746
 20
19.2621803333
 10
-58.6446767775
 20
19.2396599623
 10
-58.6311191761
 20
19.2187954229
 10
-58.6178727141
 20
19.1995989771
 10
-58.6052675998
 20
19.1820853616
 10
-58.5939171188
 20
19.1668551675
 10
-58.5839222836
 20
19.1540659214
 10
-58.5754919786
 20
19.1435340427
 10
-58.5690254906
 20
19.135315372
 10
-58.5644814101
 20
19.1294045931
 10
-58.5616450195
 20
19.1257503936
 10
-58.5604081659
 20
19.1243306111
  0
LWPOLYLINE
  5
2FC
100
AcDbEntity
  8
RACCORDO
100
AcDbPolyline
 62
253
  6
CONTINUOUS
 90
19
 70
0
 10
-58.5345147454
 20
15.9144430034
 10
-58.5370520855
 20
15.9044617092
 10
-58.5433000489
 20
15.8945398234
 10
-58.553212037
 20
15.8847513659
 10
-58.566714115
 20
15.8751693627
 10
-58.5837055667
 20
15.865865298
 10
-58.6040596498
 20
15.8569085811
 10
-58.6276245333
 20
15.848366033
 10
-58.6542244274
 20
15.8403013865
 10
-58.6836609015
 20
15.8327748089
 10
-58.7157143642
 20
15.8258424531
 10
-58.7501456921
 20
15.819556041
 10
-58.7866980131
 20
15.8139624763
 10
-58.8250986416
 20
15.8091034917
 10
-58.8650610941
 20
15.8050153408
 10
-58.906287215
 20
15.8017285278
 10
-58.9484694318
 20
15.799267576
 10
-58.9912930528
 20
15.7976508466
 10
-59.034438593
 20
15.7968904029
  0
LWPOLYLINE
  5
2FD
100
AcDbEntity
  8
RACCORDO
100
AcDbPolyline
 62
253
  6
CONTINUOUS
 90
11
 70
0
 10
-67.2555014473
 20
15.5299792188
 10
-67.2550245439
 20
15.5307618222
 10
-67.254545355
 20
15.5330742289
 10
-67.2540638806
 20
15.5369164388
 10
-67.253578483
 20
15.5423090226
 10
-67.2530908
 20
15.5492314097
 10
-67.2526057443
 20
15.5576218879
 10
-67.2521234359
 20
15.5674951568
 10
-67.251643755
 20
15.5788365168
 10
-67.2511712551
 20
15.5915401565
 10
-67.250247951
 20
15.6210616604
  0
LWPOLYLINE
  5
2FE
100
AcDbEntity
  8
RACCORDO
100
AcDbPolyline
 62
7
  6
CONTINUOUS
 90
21
 70
0
 10
-67.2045427178
 20
19.1433385778
 10
-67.1960986983
 20
19.1539303229
 10
-67.1862868533
 20
19.1668551675
 10
-67.1749210897
 20
19.1820303579
 10
-67.1621875007
 20
19.1994864117
 10
-67.1490847959
 20
19.2187954229
 10
-67.1356072858
 20
19.2397011589
 10
-67.1217606599
 20
19.2621209193
 10
-67.1085606971
 20
19.2857298237
 10
-67.0961038534
 20
19.3102105784
 10
-67.0842936727
 20
19.3354963049
 10
-67.0738565657
 20
19.3616458221
 10
-67.0648535639
 20
19.3884829095
 10
-67.0572236358
 20
19.4159074815
 10
-67.0515100971
 20
19.4441611931
 10
-67.0478487015
 20
19.4733349224
 10
-67.0461036954
 20
19.5031360333
 10
-67.0464111343
 20
19.533247467
 10
-67.0488163702
 20
19.5634796657
 10
-67.0532740511
 20
19.5937827358
 10
-67.059784177
 20
19.624041855
  0
LINE
  5
2FF
100
AcDbEntity
  8
RACCORDO
100
AcDbLine
 62
7
  6
CONTINUOUS
 10
-67.2199370113
 20
19.1241180074
 11
-67.290101986
 21
19.0522990371
  0
LINE
  5
300
100
AcDbEntity
  8
RACCORDO
100
AcDbLine
 62
253
  6
CONTINUOUS
 10
-69.7276175657
 20
19.5193114654
 11
-69.6228871762
 21
19.624041855
  0
LINE
  5
301
100
AcDbEntity
  8
RACCORDO
100
AcDbLine
 62
253
  6
CONTINUOUS
 10
-69.2191185021
 20
19.0279628338
 11
-69.1229633286
 21
19.1241180074
  0
LINE
  5
302
100
AcDbEntity
  8
RACCORDO
100
AcDbLine
 62
253
  6
CONTINUOUS
 10
-69.6228871762
 20
-17.5681161873
 11
-69.7276175657
 21
-17.4633857977
  0
LINE
  5
303
100
AcDbEntity
  8
RACCORDO
100
AcDbLine
 62
253
  6
CONTINUOUS
 10
-69.1229633286
 20
-17.0681923397
 11
-69.2191185021
 21
-16.9720371662
  0
LWPOLYLINE
  5
304
100
AcDbEntity
  8
RACCORDO
100
AcDbPolyline
 62
253
  6
CONTINUOUS
 90
19
 70
0
 10
-67.2456892266
 20
15.9144430034
 10
-67.2431518386
 20
15.9044615987
 10
-67.2369037564
 20
15.894539616
 10
-67.226991593
 20
15.8847510773
 10
-67.213489297
 20
15.8751690088
 10
-67.1964976007
 20
15.8658648963
 10
-67.1761432686
 20
15.8569081522
 10
-67.152578152
 20
15.8483655973
 10
-67.1259780556
 20
15.8403009621
 10
-67.0965414264
 20
15.8327744121
 10
-67.064487873
 20
15.8258420982
 10
-67.0300565272
 20
15.8195557381
 10
-66.9935042601
 20
15.8139622305
 10
-66.9551037657
 20
15.8091033051
 10
-66.9151415264
 20
15.8050152114
 10
-66.8739156759
 20
15.801728448
 10
-66.8317337749
 20
15.7992675357
 10
-66.7889105166
 20
15.7976508336
 10
-66.745765379
 20
15.796890403
  0
LWPOLYLINE
  5
305
100
AcDbEntity
  8
RACCORDO
100
AcDbPolyline
 62
253
  6
CONTINUOUS
 90
9
 70
0
 10
-58.528560217
 20
15.5788365168
 10
-58.5280805361
 20
15.5674951568
 10
-58.5275982277
 20
15.5576218879
 10
-58.5271131721
 20
15.5492314098
 10
-58.526625489
 20
15.5423090226
 10
-58.5261400914
 20
15.5369164387
 10
-58.525658617
 20
15.5330742289
 10
-58.5251794281
 20
15.5307618222
 10
-58.5247025247
 20
15.5299792188
  0
LINE
  5
306
100
AcDbEntity
  8
RACCORDO
100
AcDbLine
 62
253
  6
CONTINUOUS
 10
-58.5294979595
 20
15.6056197686
 11
-58.528560217
 21
15.5788365168
  0
LWPOLYLINE
  5
307
100
AcDbEntity
  8
RACCORDO
100
AcDbPolyline
 62
253
  6
CONTINUOUS
 90
7
 70
0
 10
-59.0275246691
 20
15.0833562108
 10
-59.0270401676
 20
15.0665407702
 10
-59.0265530183
 20
15.0527116882
 10
-59.0260676238
 20
15.0419101854
 10
-59.0255854518
 20
15.0341699512
 10
-59.0251050346
 20
15.0295158848
 10
-59.0246263723
 20
15.0279628338
  0
LINE
  5
308
100
AcDbEntity
  8
RACCORDO
100
AcDbLine
 62
253
  6
CONTINUOUS
 10
-58.5304025771
 20
15.6377189433
 11
-58.5294979595
 21
15.6056197686
  0
LINE
  5
309
100
AcDbEntity
  8
RACCORDO
100
AcDbLine
 62
253
  6
CONTINUOUS
 10
-59.0284858412
 20
15.125734941
 11
-59.0275246691
 21
15.0833562108
  0
LINE
  5
30A
100
AcDbEntity
  8
RACCORDO
100
AcDbLine
 62
253
  6
CONTINUOUS
 10
-58.5316688877
 20
15.6948362493
 11
-58.5304025771
 21
15.6377189433
  0
LINE
  5
30B
100
AcDbEntity
  8
RACCORDO
100
AcDbLine
 62
253
  6
CONTINUOUS
 10
-59.0298800724
 20
15.2100889867
 11
-59.0284858412
 21
15.125734941
  0
LINE
  5
30C
100
AcDbEntity
  8
RACCORDO
100
AcDbLine
 62
253
  6
CONTINUOUS
 10
-58.5331359692
 20
15.7852033075
 11
-58.5316688877
 21
15.6948362493
  0
LINE
  5
30D
100
AcDbEntity
  8
RACCORDO
100
AcDbLine
 62
253
  6
CONTINUOUS
 10
-58.5342833552
 20
15.8874601646
 11
-58.5331359692
 21
15.7852033075
  0
LINE
  5
30E
100
AcDbEntity
  8
RACCORDO
100
AcDbLine
 62
253
  6
CONTINUOUS
 10
-59.0319838152
 20
15.3999057766
 11
-59.0298800724
 21
15.2100889867
  0
LINE
  5
30F
100
AcDbEntity
  8
RACCORDO
100
AcDbLine
 62
253
  6
CONTINUOUS
 10
-58.5604081659
 20
19.1243306111
 11
-58.5342833552
 21
15.8874601646
  0
LWPOLYLINE
  5
310
100
AcDbEntity
  8
RACCORDO
100
AcDbPolyline
 62
253
  6
CONTINUOUS
 90
3
 70
0
 10
-59.0600432969
 20
18.9709871511
 10
-59.034206466
 20
15.7430529826
 10
-59.0319838152
 20
15.3999057766
  0
LINE
  5
311
100
AcDbEntity
  8
RACCORDO
100
AcDbLine
 62
7
  6
CONTINUOUS
 10
-58.490101986
 20
15.5299792188
 11
-58.490101986
 21
19.0522990371
  0
LINE
  5
312
100
AcDbEntity
  8
DRAFT
100
AcDbLine
 62
7
  6
CONTINUOUS
 10
-58.2093010951
 20
19.0279628338
 11
-58.2093010951
 21
14.747161943
  0
LWPOLYLINE
  5
313
100
AcDbEntity
  8
RACCORDO
100
AcDbPolyline
 62
253
  6
CONTINUOUS
 90
19
 70
0
 10
-58.5247025247
 20
15.5299792188
 10
-58.5264384961
 20
15.486282396
 10
-58.5319854588
 20
15.4429044164
 10
-58.5413009802
 20
15.4001771087
 10
-58.5543137994
 20
15.3584273244
 10
-58.570924372
 20
15.3179744371
 10
-58.591005632
 20
15.2791278995
 10
-58.6144039637
 20
15.2421848764
 10
-58.6409403767
 20
15.2074279709
 10
-58.6704118753
 20
15.1751230632
 10
-58.7025930109
 20
15.1455172765
 10
-58.7372376075
 20
15.1188370862
 10
-58.774080644
 20
15.0952865882
 10
-58.812840282
 20
15.0750459367
 10
-58.8532200215
 20
15.0582699668
 10
-58.8949109694
 20
15.0450870098
 10
-58.9375942021
 20
15.0355979115
 10
-58.9809432055
 20
15.0298752606
 10
-59.0246263723
 20
15.0279628338
  0
LINE
  5
314
100
AcDbEntity
  8
RACCORDO
100
AcDbLine
 62
7
  6
CONTINUOUS
 10
-58.9454103038
 20
19.0865233665
 11
-58.9707266447
 21
19.0604713895
  0
LINE
  5
315
100
AcDbEntity
  8
RACCORDO
100
AcDbLine
 62
7
  6
CONTINUOUS
 10
-58.9707266447
 20
19.0604713895
 11
-58.9961528475
 21
19.0345973344
  0
LWPOLYLINE
  5
316
100
AcDbEntity
  8
RACCORDO
100
AcDbPolyline
 62
7
  6
CONTINUOUS
 90
3
 70
0
 10
-58.9961528475
 20
19.0345973344
 10
-59.0216755184
 20
19.0089567514
 10
-59.0344518225
 20
18.9962246618
  0
LINE
  5
317
100
AcDbEntity
  8
RACCORDO
100
AcDbLine
 62
7
  6
CONTINUOUS
 10
-59.0344518225
 20
18.9962246618
 11
-59.0600432969
 21
18.9709871511
  0
LWPOLYLINE
  5
318
100
AcDbEntity
  8
RACCORDO
100
AcDbPolyline
 62
7
  6
CONTINUOUS
 90
28
 70
0
 10
10.2256449668
 20
-43.8619179407
 10
10.2490192479
 20
-43.8609349387
 10
10.2726053063
 20
-43.8587938477
 10
10.2963447803
 20
-43.8554600516
 10
10.3201744289
 20
-43.8509004575
 10
10.3440302492
 20
-43.8450872353
 10
10.3678475484
 20
-43.8379980399
 10
10.3915449651
 20
-43.8296140002
 10
10.4150570938
 20
-43.8199144333
 10
10.4383368129
 20
-43.8088757049
 10
10.4612887272
 20
-43.7964907716
 10
10.4838400705
 20
-43.7827453456
 10
10.5059656315
 20
-43.7675980478
 10
10.5275567927
 20
-43.7510492715
 10
10.5485233392
 20
-43.733091557
 10
10.5688450031
 20
-43.7136573528
 10
10.588391703
 20
-43.6927564621
 10
10.6070490454
 20
-43.6703903239
 10
10.624782529
 20
-43.6464612032
 10
10.6414316551
 20
-43.6209930662
 10
10.6568461521
 20
-43.5940060298
 10
10.6709502136
 20
-43.5653822719
 10
10.6835540764
 20
-43.5351425043
 10
10.6944446785
 20
-43.5033741711
 10
10.7034537564
 20
-43.4700653185
 10
10.7103621453
 20
-43.4352882958
 10
10.7149261654
 20
-43.3992098646
 10
10.7169200694
 20
-43.3619940931
  0
LWPOLYLINE
  5
319
100
AcDbEntity
  8
RACCORDO
100
AcDbPolyline
 62
7
  6
CONTINUOUS
 90
28
 70
0
 10
10.0685493824
 20
-43.7048223563
 10
10.0920267697
 20
-43.7038411227
 10
10.1155933742
 20
-43.701699698
 10
10.1392491959
 20
-43.6983644672
 10
10.163061511
 20
-43.6938045759
 10
10.1869630433
 20
-43.6879921377
 10
10.2107519641
 20
-43.6809024555
 10
10.2344294024
 20
-43.6725180732
 10
10.2579942291
 20
-43.6628194101
 10
10.2812412285
 20
-43.6517801206
 10
10.3041719584
 20
-43.6393948239
 10
10.3267848609
 20
-43.6256504536
 10
10.3488700471
 20
-43.6105024635
 10
10.370438754
 20
-43.593953302
 10
10.3914797445
 20
-43.5759968643
 10
10.4117494187
 20
-43.5565617684
 10
10.4312713175
 20
-43.5356604524
 10
10.4500219
 20
-43.5132959134
 10
10.4676869446
 20
-43.4893656188
 10
10.4843059441
 20
-43.4638969652
 10
10.4998394057
 20
-43.4369119691
 10
10.5138546292
 20
-43.4082866875
 10
10.5264063847
 20
-43.3780460262
 10
10.5374399023
 20
-43.3462801441
 10
10.546358172
 20
-43.3129697342
 10
10.5529621908
 20
-43.2781874914
 10
10.5574509618
 20
-43.2421077696
 10
10.5598244851
 20
-43.2048985087
  0
LWPOLYLINE
  5
31A
100
AcDbEntity
  8
RACCORDO
100
AcDbPolyline
 62
253
  6
CONTINUOUS
 90
22
 70
0
 10
69.3427593566
 20
-43.7048223563
 10
69.3801114835
 20
-43.7034136327
 10
69.4172548032
 20
-43.6992180909
 10
69.4539816756
 20
-43.6922591849
 10
69.4900867888
 20
-43.6825758167
 10
69.5253683065
 20
-43.6702221187
 10
69.5596289968
 20
-43.6552671509
 10
69.5926773341
 20
-43.6377945152
 10
69.6243285704
 20
-43.6179018877
 10
69.6544057678
 20
-43.5957004731
 10
69.6827407876
 20
-43.5713143824
 10
69.7091752302
 20
-43.5448799398
 10
69.7335613209
 20
-43.51654492
 10
69.7557627355
 20
-43.4864677226
 10
69.775655363
 20
-43.4548164863
 10
69.7931279987
 20
-43.4217681489
 10
69.8080829665
 20
-43.3875074587
 10
69.8204366646
 20
-43.352225941
 10
69.8301200327
 20
-43.3161208278
 10
69.8370789387
 20
-43.2793939554
 10
69.8412744805
 20
-43.2422506357
 10
69.8426832041
 20
-43.2048985087
  0
LINE
  5
31B
100
AcDbEntity
  8
RACCORDO
100
AcDbLine
 62
7
  6
CONTINUOUS
 10
20.609928475
 20
-45.9720371662
 11
11.009867553
 21
-45.9720371662
  0
LINE
  5
31C
100
AcDbEntity
  8
RACCORDO
100
AcDbLine
 62
7
  6
CONTINUOUS
 10
69.6099170525
 20
-43.9720371662
 11
20.809898014
 21
-43.9720371662
  0
LINE
  5
31D
100
AcDbEntity
  8
RACCORDO
100
AcDbLine
 62
7
  6
CONTINUOUS
 10
-69.3901781384
 20
-43.9720371662
 11
-3.690101986
 21
-43.9720371662
  0
LINE
  5
31E
100
AcDbEntity
  8
DRAFT
100
AcDbLine
 62
7
  6
CONTINUOUS
 10
-3.690101986
 20
-43.9720371662
 11
3.909898014
 21
-43.9720371662
  0
LINE
  5
31F
100
AcDbEntity
  8
RACCORDO
100
AcDbLine
 62
7
  6
CONTINUOUS
 10
3.909898014
 20
-43.9720371662
 11
10.809898014
 21
-43.9720371662
  0
LINE
  5
320
100
AcDbEntity
  8
RACCORDO
100
AcDbLine
 62
253
  6
CONTINUOUS
 10
21.3941510612
 20
-43.8619179407
 11
20.809898014
 21
-43.8619179407
  0
LINE
  5
321
100
AcDbEntity
  8
RACCORDO
100
AcDbLine
 62
253
  6
CONTINUOUS
 10
10.809898014
 20
-43.8619179407
 11
10.2256449668
 21
-43.8619179407
  0
LINE
  5
322
100
AcDbEntity
  8
RACCORDO
100
AcDbLine
 62
253
  6
CONTINUOUS
 10
69.3427593566
 20
-43.7048223563
 11
21.5512466455
 21
-43.7048223563
  0
LINE
  5
323
100
AcDbEntity
  8
RACCORDO
100
AcDbLine
 62
253
  6
CONTINUOUS
 10
10.0685493824
 20
-43.7048223563
 11
-69.1229633286
 21
-43.7048223563
  0
LINE
  5
324
100
AcDbEntity
  8
DRAFT
100
AcDbLine
 62
7
  6
CONTINUOUS
 10
12.659898014
 20
-43.4720371662
 11
18.959898014
 21
-43.4720371662
  0
LINE
  5
325
100
AcDbEntity
  8
RACCORDO
100
AcDbLine
 62
253
  6
CONTINUOUS
 10
20.9028759586
 20
-43.3619940931
 11
20.809898014
 21
-43.3619940931
  0
LINE
  5
326
100
AcDbEntity
  8
RACCORDO
100
AcDbLine
 62
253
  6
CONTINUOUS
 10
18.959898014
 20
-43.3619940931
 11
12.659898014
 21
-43.3619940931
  0
LINE
  5
327
100
AcDbEntity
  8
RACCORDO
100
AcDbLine
 62
253
  6
CONTINUOUS
 10
10.809898014
 20
-43.3619940931
 11
10.7169200694
 21
-43.3619940931
  0
LINE
  5
328
100
AcDbEntity
  8
RACCORDO
100
AcDbLine
 62
253
  6
CONTINUOUS
 10
69.8426832041
 20
-43.2048985087
 11
21.0599715429
 21
-43.2048985087
  0
LINE
  5
329
100
AcDbEntity
  8
RACCORDO
100
AcDbLine
 62
253
  6
CONTINUOUS
 10
10.5598244851
 20
-43.2048985087
 11
-69.6228871762
 21
-43.2048985087
  0
LINE
  5
32A
100
AcDbEntity
  8
RACCORDO
100
AcDbLine
 62
7
  6
CONTINUOUS
 10
10.563389027
 20
-41.6720371662
 11
21.056407001
 21
-41.6720371662
  0
LINE
  5
32B
100
AcDbEntity
  8
RACCORDO
100
AcDbLine
 62
253
  6
CONTINUOUS
 10
10.559898014
 20
-41.4720371662
 11
21.059898014
 21
-41.4720371662
  0
LINE
  5
32C
100
AcDbEntity
  8
RACCORDO
100
AcDbLine
 62
7
  6
CONTINUOUS
 10
19.809898014
 20
-39.0720371662
 11
11.809898014
 21
-39.0720371662
  0
LINE
  5
32D
100
AcDbEntity
  8
DRAFT
100
AcDbLine
 62
7
  6
CONTINUOUS
 10
32.109898014
 20
-38.9720371662
 11
33.9714968711
 21
-38.9720371662
  0
LINE
  5
32E
100
AcDbEntity
  8
0
100
AcDbLine
 62
7
  6
CONTINUOUS
 10
37.109898014
 20
-38.9720371662
 11
39.609898014
 21
-38.9720371662
  0
LINE
  5
32F
100
AcDbEntity
  8
0
100
AcDbLine
 62
7
  6
CONTINUOUS
 10
42.109898014
 20
-38.9720371662
 11
44.609898014
 21
-38.9720371662
  0
LINE
  5
330
100
AcDbEntity
  8
0
100
AcDbLine
 62
7
  6
CONTINUOUS
 10
47.109898014
 20
-38.9720371662
 11
49.609898014
 21
-38.9720371662
  0
LINE
  5
331
100
AcDbEntity
  8
0
100
AcDbLine
 62
7
  6
CONTINUOUS
 10
52.109898014
 20
-38.9720371662
 11
54.609898014
 21
-38.9720371662
  0
LWPOLYLINE
  5
332
100
AcDbEntity
  8
RACCORDO
100
AcDbPolyline
 62
7
  6
CONTINUOUS
 90
28
 70
0
 10
21.3941510612
 20
-43.8619179407
 10
21.3706736739
 20
-43.860936707
 10
21.3471070694
 20
-43.8587952824
 10
21.3234512477
 20
-43.8554600516
 10
21.2996389326
 20
-43.8509001602
 10
21.2757374003
 20
-43.845087722
 10
21.2519484795
 20
-43.8379980399
 10
21.2282710413
 20
-43.8296136575
 10
21.2047062145
 20
-43.8199149945
 10
21.1814592151
 20
-43.8088757049
 10
21.1585284852
 20
-43.7964904083
 10
21.1359155827
 20
-43.782746038
 10
21.1138303965
 20
-43.7675980478
 10
21.0922616897
 20
-43.7510488864
 10
21.0712206992
 20
-43.7330924486
 10
21.0509510249
 20
-43.7136573528
 10
21.0314291262
 20
-43.6927560368
 10
21.0126785436
 20
-43.6703914977
 10
20.995013499
 20
-43.6464612032
 10
20.9783944995
 20
-43.6209925495
 10
20.962861038
 20
-43.5940075534
 10
20.9488458144
 20
-43.5653822719
 10
20.9362940589
 20
-43.5351416106
 10
20.9252605414
 20
-43.5033757285
 10
20.9163422716
 20
-43.4700653185
 10
20.9097382528
 20
-43.4352830757
 10
20.9052494818
 20
-43.399203354
 10
20.9028759586
 20
-43.3619940931
  0
LWPOLYLINE
  5
333
100
AcDbEntity
  8
RACCORDO
100
AcDbPolyline
 62
7
  6
CONTINUOUS
 90
28
 70
0
 10
21.5512466455
 20
-43.7048223563
 10
21.5278723645
 20
-43.7038393544
 10
21.504286306
 20
-43.7016982633
 10
21.4805468321
 20
-43.6983644672
 10
21.4567171835
 20
-43.6938048732
 10
21.4328613631
 20
-43.687991651
 10
21.4090440639
 20
-43.6809024555
 10
21.3853466473
 20
-43.6725184158
 10
21.3618345185
 20
-43.662818849
 10
21.3385547995
 20
-43.6517801206
 10
21.3156028851
 20
-43.6393951872
 10
21.2930515419
 20
-43.6256497612
 10
21.2709259808
 20
-43.6105024635
 10
21.2493348197
 20
-43.5939536871
 10
21.2283682731
 20
-43.5759959726
 10
21.2080466092
 20
-43.5565617684
 10
21.1884999094
 20
-43.5356608778
 10
21.169842567
 20
-43.5132947396
 10
21.1521090834
 20
-43.4893656188
 10
21.1354599572
 20
-43.4638974818
 10
21.1200454602
 20
-43.4369104455
 10
21.1059413987
 20
-43.4082866875
 10
21.093337536
 20
-43.3780469199
 10
21.0824469339
 20
-43.3462785867
 10
21.0734378559
 20
-43.3129697342
 10
21.066529467
 20
-43.2781927115
 10
21.0619654469
 20
-43.2421142803
 10
21.0599715429
 20
-43.2048985087
  0
LINE
  5
334
100
AcDbEntity
  8
DRAFT
100
AcDbLine
 62
7
  6
CONTINUOUS
 10
-58.2093010951
 20
19.0279628338
 11
-58.2119191555
 21
19.0331993533
  0
LWPOLYLINE
  5
335
100
AcDbEntity
  8
0
100
AcDbPolyline
 62
7
  6
CONTINUOUS
 90
31
 70
0
 10
16.6000178481
 20
-31.7587069857
 10
16.7730535403
 20
-31.7156830029
 10
16.9454234299
 20
-31.6721698781
 10
17.115939234
 20
-31.6283203039
 10
17.2826770983
 20
-31.5844915149
 10
17.4454115127
 20
-31.5406136885
 10
17.6034833998
 20
-31.4967356592
 10
17.7546328262
 20
-31.4533853368
 10
17.8982713004
 20
-31.4106729423
 10
18.034713017
 20
-31.3684578019
 10
18.1634005841
 20
-31.3268787423
 10
18.2841394262
 20
-31.2859925842
 10
18.3972705865
 20
-31.2456903432
 10
18.5031907891
 20
-31.2058346539
 10
18.6020036937
 20
-31.1663925138
 10
18.6939109689
 20
-31.1272974625
 10
18.7794888699
 20
-31.0883065651
 10
18.8589062792
 20
-31.0493288967
 10
18.9323461922
 20
-31.0102589251
 10
19.0004055235
 20
-30.9707284348
 10
19.0631716499
 20
-30.9305921636
 10
19.1208106514
 20
-30.8896223942
 10
19.1739474919
 20
-30.8471362656
 10
19.2225402531
 20
-30.802761161
 10
19.266360327
 20
-30.7561798904
 10
19.3055608568
 20
-30.7065435188
 10
19.3403142248
 20
-30.6523951981
 10
19.3691323783
 20
-30.5944094958
 10
19.3902809349
 20
-30.5354293586
 10
19.4036142047
 20
-30.4768952952
 10
19.4095529578
 20
-30.4183398319
  0
LWPOLYLINE
  5
336
100
AcDbEntity
  8
0
100
AcDbPolyline
 62
7
  6
CONTINUOUS
 90
31
 70
0
 10
15.0435754441
 20
-31.5366373085
 10
14.871976904
 20
-31.5792235092
 10
14.7019623639
 20
-31.6220330724
 10
14.5344931056
 20
-31.6649526325
 10
14.3699939501
 20
-31.7080014768
 10
14.2089739122
 20
-31.7511764006
 10
14.0524156945
 20
-31.7943392198
 10
13.9006869707
 20
-31.8375080945
 10
13.7541677095
 20
-31.8806940473
 10
13.6136817931
 20
-31.9237640118
 10
13.4793992274
 20
-31.9667662728
 10
13.3516059228
 20
-32.0097075386
 10
13.2310310095
 20
-32.0524218759
 10
13.1177286789
 20
-32.0949484372
 10
13.0116664636
 20
-32.1373535378
 10
12.9131107092
 20
-32.1795685389
 10
12.8219611923
 20
-32.2216533006
 10
12.7379328979
 20
-32.263755308
 10
12.6607433028
 20
-32.3060424761
 10
12.5902236799
 20
-32.3486397571
 10
12.5260138553
 20
-32.3918158483
 10
12.4674868669
 20
-32.4361351885
 10
12.4146660969
 20
-32.4818225724
 10
12.3674213454
 20
-32.5293287382
 10
12.3251675947
 20
-32.5798590373
 10
12.2877907655
 20
-32.6346913279
 10
12.2565803415
 20
-32.6934370019
 10
12.2329755032
 20
-32.7544270651
 10
12.217503399
 20
-32.8166709564
 10
12.2103525679
 20
-32.8802549043
 10
12.2099565736
 20
-32.8993247527
  0
LINE
  5
337
100
AcDbEntity
  8
0
100
AcDbLine
 62
7
  6
CONTINUOUS
 10
16.5845191188
 20
-31.161565466
 11
16.2496709392
 21
-31.2440935639
  0
LINE
  5
338
100
AcDbEntity
  8
0
100
AcDbLine
 62
7
  6
CONTINUOUS
 10
15.0433220851
 20
-32.1376467466
 11
15.382499238
 21
-32.054106049
  0
LINE
  5
339
100
AcDbEntity
  8
0
100
AcDbLine
 62
7
  6
CONTINUOUS
 10
16.2517100093
 20
-31.8438982431
 11
16.6000178481
 21
-31.7587069857
  0
LINE
  5
33A
100
AcDbEntity
  8
0
100
AcDbLine
 62
7
  6
CONTINUOUS
 10
15.3890832152
 20
-31.4522269439
 11
15.0435754441
 21
-31.5366373085
  0
LINE
  5
33B
100
AcDbEntity
  8
0
100
AcDbLine
 62
7
  6
CONTINUOUS
 10
15.382499238
 20
-32.054106049
 11
16.2517100093
 21
-31.8438982431
  0
LINE
  5
33C
100
AcDbEntity
  8
0
100
AcDbLine
 62
7
  6
CONTINUOUS
 10
16.2496709392
 20
-31.2440935639
 11
15.3890832152
 21
-31.4522269439
  0
LWPOLYLINE
  5
33D
100
AcDbEntity
  8
0
100
AcDbPolyline
 62
7
  6
CONTINUOUS
 90
14
 70
0
 10
19.0180214085
 20
-34.3345659582
 10
19.0181223241
 20
-34.3345437918
 10
19.0178662299
 20
-34.3345967057
 10
19.0167263892
 20
-34.3348194278
 10
19.0149158732
 20
-34.3351519684
 10
19.0124627922
 20
-34.3355772304
 10
19.009326722
 20
-34.3360915253
 10
19.0056259196
 20
-34.3366670057
 10
19.001372573
 20
-34.337295859
 10
18.9965425685
 20
-34.3379762427
 10
18.9911993742
 20
-34.3386947635
 10
18.9853463233
 20
-34.3394476007
 10
18.9789684818
 20
-34.3402335517
 10
18.9721012969
 20
-34.3410455952
  0
LWPOLYLINE
  5
33E
100
AcDbEntity
  8
0
100
AcDbPolyline
 62
7
  6
CONTINUOUS
 90
36
 70
0
 10
12.5998291861
 20
-34.5907588182
 10
12.5880464508
 20
-34.5920579714
 10
12.576701108
 20
-34.5933663378
 10
12.5657865642
 20
-34.5946850738
 10
12.5552798003
 20
-34.5960174674
 10
12.5451017563
 20
-34.5973748733
 10
12.5352541744
 20
-34.598759103
 10
12.5257066286
 20
-34.6001767796
 10
12.5163318428
 20
-34.6016511497
 10
12.50715053
 20
-34.6031850022
 10
12.4981156977
 20
-34.604793056
 10
12.4889996398
 20
-34.6065281211
 10
12.479829297
 20
-34.6084026925
 10
12.4705601756
 20
-34.6104460579
 10
12.4608538353
 20
-34.6127657887
 10
12.4507395168
 20
-34.6154021263
 10
12.4401761019
 20
-34.6184208973
 10
12.4287135649
 20
-34.6220355638
 10
12.4163159964
 20
-34.6263818192
 10
12.4030544355
 20
-34.631581823
 10
12.3886596109
 20
-34.6379332147
 10
12.3729933507
 20
-34.6457684819
 10
12.3564174405
 20
-34.6552287782
 10
12.3394431965
 20
-34.6663359431
 10
12.3222534556
 20
-34.6792943342
 10
12.3051017803
 20
-34.6942973078
 10
12.2885806022
 20
-34.7112133725
 10
12.2729864991
 20
-34.7300199949
 10
12.2584665924
 20
-34.7508032574
 10
12.2453264773
 20
-34.773439179
 10
12.2338487906
 20
-34.7977824546
 10
12.2242636546
 20
-34.8237949676
 10
12.2168411204
 20
-34.8514511237
 10
12.211929745
 20
-34.8806140467
 10
12.2099241737
 20
-34.9110220702
 10
12.2098980249
 20
-34.914901752
  0
LINE
  5
33F
100
AcDbEntity
  8
0
100
AcDbLine
 62
7
  6
CONTINUOUS
 10
18.9721012969
 20
-34.3410455952
 11
18.9568859056
 21
-34.3427410382
  0
LWPOLYLINE
  5
340
100
AcDbEntity
  8
0
100
AcDbPolyline
 62
7
  6
CONTINUOUS
 90
36
 70
0
 10
19.0171087625
 20
-34.9393365464
 10
19.0287814658
 20
-34.9380633486
 10
19.0400659496
 20
-34.9367774936
 10
19.0509633932
 20
-34.935477932
 10
19.0614916805
 20
-34.9341614885
 10
19.071723385
 20
-34.9328172412
 10
19.0816533724
 20
-34.9314432974
 10
19.0913059956
 20
-34.9300333956
 10
19.1007996007
 20
-34.9285654494
 10
19.1101279716
 20
-34.9270337199
 10
19.119315733
 20
-34.9254265852
 10
19.1285339534
 20
-34.9237024395
 10
19.1377529261
 20
-34.9218511929
 10
19.1470277022
 20
-34.9198438504
 10
19.1566669134
 20
-34.9175842375
 10
19.1666041874
 20
-34.9150475444
 10
19.1769283247
 20
-34.9121641726
 10
19.1881798477
 20
-34.9087035983
 10
19.2003752594
 20
-34.9045401401
 10
19.2134590612
 20
-34.8995497696
 10
19.22783375
 20
-34.8933813287
 10
19.243668749
 20
-34.8856693766
 10
19.2605553164
 20
-34.8762626284
 10
19.2779898446
 20
-34.8650930054
 10
19.2958116266
 20
-34.8518861982
 10
19.3136852951
 20
-34.8364398094
 10
19.3308783794
 20
-34.8189487175
 10
19.3471099279
 20
-34.7993740503
 10
19.3621594028
 20
-34.7776784967
 10
19.3755376676
 20
-34.7542979435
 10
19.3870066758
 20
-34.7294509614
 10
19.3964089075
 20
-34.7031978231
 10
19.4034864981
 20
-34.6758615384
 10
19.4080369224
 20
-34.6476990123
 10
19.4098702469
 20
-34.6188839756
 10
19.4098980042
 20
-34.6148872769
  0
LINE
  5
341
100
AcDbEntity
  8
0
100
AcDbLine
 62
7
  6
CONTINUOUS
 10
18.9568859056
 20
-34.3427410382
 11
18.9397227546
 21
-34.3445167299
  0
LINE
  5
342
100
AcDbEntity
  8
0
100
AcDbLine
 62
7
  6
CONTINUOUS
 10
12.6248888394
 20
-34.5881682359
 11
12.5998291861
 21
-34.5907588182
  0
LINE
  5
343
100
AcDbEntity
  8
0
100
AcDbLine
 62
7
  6
CONTINUOUS
 10
18.9924453463
 20
-34.9418636922
 11
19.0171087625
 21
-34.9393365464
  0
LINE
  5
344
100
AcDbEntity
  8
0
100
AcDbLine
 62
7
  6
CONTINUOUS
 10
18.9397227546
 20
-34.3445167299
 11
18.920606608
 21
-34.3463614864
  0
LINE
  5
345
100
AcDbEntity
  8
0
100
AcDbLine
 62
7
  6
CONTINUOUS
 10
12.6520644163
 20
-34.585577558
 11
12.6248888394
 21
-34.5881682359
  0
LINE
  5
346
100
AcDbEntity
  8
0
100
AcDbLine
 62
7
  6
CONTINUOUS
 10
18.9659426471
 20
-34.9443747642
 11
18.9924453463
 21
-34.9418636922
  0
LINE
  5
347
100
AcDbEntity
  8
0
100
AcDbLine
 62
7
  6
CONTINUOUS
 10
18.920606608
 20
-34.3463614864
 11
18.8995393691
 21
-34.3482655538
  0
LINE
  5
348
100
AcDbEntity
  8
0
100
AcDbLine
 62
7
  6
CONTINUOUS
 10
12.6815566804
 20
-34.5829717981
 11
12.6520644163
 21
-34.585577558
  0
LINE
  5
349
100
AcDbEntity
  8
0
100
AcDbLine
 62
7
  6
CONTINUOUS
 10
18.9374616254
 20
-34.9468830252
 11
18.9659426471
 21
-34.9443747642
  0
LINE
  5
34A
100
AcDbEntity
  8
0
100
AcDbLine
 62
7
  6
CONTINUOUS
 10
18.8995393691
 20
-34.3482655538
 11
18.8765025365
 21
-34.3502226756
  0
LINE
  5
34B
100
AcDbEntity
  8
0
100
AcDbLine
 62
7
  6
CONTINUOUS
 10
18.906897634
 20
-34.9493964529
 11
18.9374616254
 21
-34.9468830252
  0
LINE
  5
34C
100
AcDbEntity
  8
0
100
AcDbLine
 62
7
  6
CONTINUOUS
 10
12.7135092621
 20
-34.5803435688
 11
12.6815566804
 21
-34.5829717981
  0
LINE
  5
34D
100
AcDbEntity
  8
0
100
AcDbLine
 62
7
  6
CONTINUOUS
 10
18.8765025365
 20
-34.3502226756
 11
18.8514648282
 21
-34.3522286765
  0
LINE
  5
34E
100
AcDbEntity
  8
0
100
AcDbLine
 62
7
  6
CONTINUOUS
 10
18.8741645807
 20
-34.9519203213
 11
18.906897634
 21
-34.9493964529
  0
LINE
  5
34F
100
AcDbEntity
  8
0
100
AcDbLine
 62
7
  6
CONTINUOUS
 10
12.748051871
 20
-34.5776877086
 11
12.7135092621
 21
-34.5803435688
  0
LINE
  5
350
100
AcDbEntity
  8
0
100
AcDbLine
 62
7
  6
CONTINUOUS
 10
18.8514648282
 20
-34.3522286765
 11
18.8100883179
 21
-34.3553218515
  0
LINE
  5
351
100
AcDbEntity
  8
0
100
AcDbLine
 62
7
  6
CONTINUOUS
 10
18.8208183347
 20
-34.9557348493
 11
18.8741645807
 21
-34.9519203213
  0
LINE
  5
352
100
AcDbEntity
  8
0
100
AcDbLine
 62
7
  6
CONTINUOUS
 10
12.8049871757
 20
-34.5736438158
 11
12.748051871
 21
-34.5776877086
  0
LINE
  5
353
100
AcDbEntity
  8
0
100
AcDbLine
 62
7
  6
CONTINUOUS
 10
18.8100883179
 20
-34.3553218515
 11
18.7639700141
 21
-34.3585121587
  0
LINE
  5
354
100
AcDbEntity
  8
0
100
AcDbLine
 62
7
  6
CONTINUOUS
 10
12.8445707024
 20
-35.1720371662
 11
12.8873564149
 21
-35.1692207507
  0
LINE
  5
355
100
AcDbEntity
  8
0
100
AcDbLine
 62
7
  6
CONTINUOUS
 10
18.7621849856
 20
-34.9595909329
 11
18.8208183347
 21
-34.9557348493
  0
LINE
  5
356
100
AcDbEntity
  8
0
100
AcDbLine
 62
7
  6
CONTINUOUS
 10
12.8683759455
 20
-34.5695215125
 11
12.8049871757
 21
-34.5736438158
  0
LINE
  5
357
100
AcDbEntity
  8
0
100
AcDbLine
 62
7
  6
CONTINUOUS
 10
18.7639700141
 20
-34.3585121587
 11
18.7129003614
 21
-34.3617981317
  0
LINE
  5
358
100
AcDbEntity
  8
0
100
AcDbLine
 62
7
  6
CONTINUOUS
 10
18.6980777389
 20
-34.9634940397
 11
18.7621849856
 21
-34.9595909329
  0
LINE
  5
359
100
AcDbEntity
  8
0
100
AcDbLine
 62
7
  6
CONTINUOUS
 10
12.8873564149
 20
-35.1692207507
 11
12.9670307544
 21
-35.1643830837
  0
LINE
  5
35A
100
AcDbEntity
  8
0
100
AcDbLine
 62
7
  6
CONTINUOUS
 10
12.9385357921
 20
-34.5653158259
 11
12.8683759455
 21
-34.5695215125
  0
LINE
  5
35B
100
AcDbEntity
  8
0
100
AcDbLine
 62
7
  6
CONTINUOUS
 10
18.7129003614
 20
-34.3617981317
 11
18.6366927716
 21
-34.3663293501
  0
LINE
  5
35C
100
AcDbEntity
  8
0
100
AcDbLine
 62
7
  6
CONTINUOUS
 10
18.6037943311
 20
-34.9687785558
 11
18.6980777389
 21
-34.9634940397
  0
LINE
  5
35D
100
AcDbEntity
  8
0
100
AcDbLine
 62
7
  6
CONTINUOUS
 10
12.9670307544
 20
-35.1643830837
 11
13.0573267117
 21
-35.1593777254
  0
LINE
  5
35E
100
AcDbEntity
  8
0
100
AcDbLine
 62
7
  6
CONTINUOUS
 10
13.0430892478
 20
-34.5595737331
 11
12.9385357921
 21
-34.5653158259
  0
LINE
  5
35F
100
AcDbEntity
  8
0
100
AcDbLine
 62
7
  6
CONTINUOUS
 10
18.6366927716
 20
-34.3663293501
 11
18.527510895
 21
-34.37224122
  0
LINE
  5
360
100
AcDbEntity
  8
0
100
AcDbLine
 62
7
  6
CONTINUOUS
 10
18.4715081136
 20
-34.9755134054
 11
18.6037943311
 21
-34.9687785558
  0
LINE
  5
361
100
AcDbEntity
  8
0
100
AcDbLine
 62
7
  6
CONTINUOUS
 10
13.0573267117
 20
-35.1593777254
 11
13.1855141023
 21
-35.1529030873
  0
LINE
  5
362
100
AcDbEntity
  8
0
100
AcDbLine
 62
7
  6
CONTINUOUS
 10
18.527510895
 20
-34.37224122
 11
18.4016812446
 21
-34.3784389318
  0
LINE
  5
363
100
AcDbEntity
  8
0
100
AcDbLine
 62
7
  6
CONTINUOUS
 10
13.1921935376
 20
-34.5521770637
 11
13.0430892478
 21
-34.5595737331
  0
LINE
  5
364
100
AcDbEntity
  8
0
100
AcDbLine
 62
7
  6
CONTINUOUS
 10
18.2914731721
 20
-34.9837759298
 11
18.4715081136
 21
-34.9755134054
  0
LINE
  5
365
100
AcDbEntity
  8
0
100
AcDbLine
 62
7
  6
CONTINUOUS
 10
13.1855141023
 20
-35.1529030873
 11
13.3622629128
 21
-35.1448365617
  0
LINE
  5
366
100
AcDbEntity
  8
0
100
AcDbLine
 62
7
  6
CONTINUOUS
 10
18.4016812446
 20
-34.3784389318
 11
18.1955380655
 21
-34.387602409
  0
LINE
  5
367
100
AcDbEntity
  8
0
100
AcDbLine
 62
7
  6
CONTINUOUS
 10
13.3990032497
 20
-34.5429832258
 11
13.1921935376
 21
-34.5521770637
  0
LINE
  5
368
100
AcDbEntity
  8
0
100
AcDbLine
 62
7
  6
CONTINUOUS
 10
13.3622629128
 20
-35.1448365617
 11
13.6005166903
 21
-35.1350404243
  0
LINE
  5
369
100
AcDbEntity
  8
0
100
AcDbLine
 62
7
  6
CONTINUOUS
 10
18.0159860413
 20
-34.9950694987
 11
18.2914731721
 21
-34.9837759298
  0
LINE
  5
36A
100
AcDbEntity
  8
0
100
AcDbLine
 62
7
  6
CONTINUOUS
 10
18.1955380655
 20
-34.387602409
 11
17.9521855131
 21
-34.3973409152
  0
LINE
  5
36B
100
AcDbEntity
  8
0
100
AcDbLine
 62
7
  6
CONTINUOUS
 10
13.723637713
 20
-34.530169806
 11
13.3990032497
 21
-34.5429832258
  0
LINE
  5
36C
100
AcDbEntity
  8
0
100
AcDbLine
 62
7
  6
CONTINUOUS
 10
13.6005166903
 20
-35.1350404243
 11
13.8750634533
 21
-35.1247833725
  0
LINE
  5
36D
100
AcDbEntity
  8
0
100
AcDbLine
 62
7
  6
CONTINUOUS
 10
17.9521855131
 20
-34.3973409152
 11
17.6705788367
 21
-34.4076352939
  0
LINE
  5
36E
100
AcDbEntity
  8
0
100
AcDbLine
 62
7
  6
CONTINUOUS
 10
17.5719930829
 20
-35.0111516662
 11
18.0159860413
 21
-34.9950694987
  0
LINE
  5
36F
100
AcDbEntity
  8
0
100
AcDbLine
 62
7
  6
CONTINUOUS
 10
13.8750634533
 20
-35.1247833725
 11
14.2368803271
 21
-35.1123765288
  0
LINE
  5
370
100
AcDbEntity
  8
0
100
AcDbLine
 62
7
  6
CONTINUOUS
 10
14.2708947284
 20
-34.5111922809
 11
13.723637713
 21
-34.530169806
  0
LINE
  5
371
100
AcDbEntity
  8
0
100
AcDbLine
 62
7
  6
CONTINUOUS
 10
17.6705788367
 20
-34.4076352939
 11
17.303077486
 21
-34.4200255391
  0
LINE
  5
372
100
AcDbEntity
  8
0
100
AcDbLine
 62
7
  6
CONTINUOUS
 10
14.2368803271
 20
-35.1123765288
 11
14.7069344576
 21
-35.0974523007
  0
LINE
  5
373
100
AcDbEntity
  8
0
100
AcDbLine
 62
7
  6
CONTINUOUS
 10
17.303077486
 20
-34.4200255391
 11
16.8333637444
 21
-34.434768729
  0
LINE
  5
374
100
AcDbEntity
  8
0
100
AcDbLine
 62
7
  6
CONTINUOUS
 10
14.7069344576
 20
-35.0974523007
 11
14.9928219617
 21
-35.0887945254
  0
LINE
  5
375
100
AcDbEntity
  8
0
100
AcDbLine
 62
7
  6
CONTINUOUS
 10
16.5666577696
 20
-35.0428057148
 11
17.5719930829
 21
-35.0111516662
  0
LINE
  5
376
100
AcDbEntity
  8
0
100
AcDbLine
 62
7
  6
CONTINUOUS
 10
16.8333637444
 20
-34.434768729
 11
16.5435549403
 21
-34.4434791943
  0
LINE
  5
377
100
AcDbEntity
  8
0
100
AcDbLine
 62
7
  6
CONTINUOUS
 10
15.1378832839
 20
-34.4844724087
 11
14.2708947284
 21
-34.5111922809
  0
LINE
  5
378
100
AcDbEntity
  8
0
100
AcDbLine
 62
7
  6
CONTINUOUS
 10
16.3942683753
 20
-35.0478984202
 11
16.5666577696
 21
-35.0428057148
  0
LINE
  5
379
100
AcDbEntity
  8
0
100
AcDbLine
 62
7
  6
CONTINUOUS
 10
14.9928219617
 20
-35.0887945254
 11
15.2313768351
 21
-35.0817258541
  0
LINE
  5
37A
100
AcDbEntity
  8
0
100
AcDbLine
 62
7
  6
CONTINUOUS
 10
16.5435549403
 20
-34.4434791943
 11
16.3585448765
 21
-34.4489405165
  0
LINE
  5
37B
100
AcDbEntity
  8
0
100
AcDbLine
 62
7
  6
CONTINUOUS
 10
15.2313768351
 20
-35.0817258541
 11
16.3942683753
 21
-35.0478984202
  0
LINE
  5
37C
100
AcDbEntity
  8
0
100
AcDbLine
 62
7
  6
CONTINUOUS
 10
16.3585448765
 20
-34.4489405165
 11
15.1378832839
 21
-34.4844724087
  0
LINE
  5
37D
100
AcDbEntity
  8
RACCORDO
100
AcDbLine
 62
7
  6
CONTINUOUS
 10
34.1714664102
 20
-35.6836360233
 11
34.609898014
 21
-35.6836360233
  0
LINE
  5
37E
100
AcDbEntity
  8
RACCORDO
100
AcDbLine
 62
253
  6
CONTINUOUS
 10
7.2950432996
 20
-35.5720371662
 11
12.309898014
 21
-35.5720371662
  0
LINE
  5
37F
100
AcDbEntity
  8
RACCORDO
100
AcDbLine
 62
253
  6
CONTINUOUS
 10
19.309898014
 20
-35.5720371662
 11
24.3247527284
 21
-35.5720371662
  0
LINE
  5
380
100
AcDbEntity
  8
RACCORDO
100
AcDbLine
 62
253
  6
CONTINUOUS
 10
12.2630519075
 20
-35.3607280353
 11
19.3567441205
 21
-35.3607280353
  0
LINE
  5
381
100
AcDbEntity
  8
RACCORDO
100
AcDbLine
 62
7
  6
CONTINUOUS
 10
11.809898014
 20
-35.0720371662
 11
7.7950623387
 21
-35.0720371662
  0
LINE
  5
382
100
AcDbEntity
  8
RACCORDO
100
AcDbLine
 62
7
  6
CONTINUOUS
 10
15.563322257
 20
-35.0720371662
 11
23.8247336892
 21
-35.0720371662
  0
LINE
  5
383
100
AcDbEntity
  8
RACCORDO
100
AcDbLine
 62
7
  6
CONTINUOUS
 10
23.7767359164
 20
-34.9720371662
 11
23.609898014
 21
-34.9720371662
  0
LINE
  5
384
100
AcDbEntity
  8
RACCORDO
100
AcDbLine
 62
7
  6
CONTINUOUS
 10
20.059898014
 20
-34.9720371662
 11
19.5328001078
 21
-34.9720371662
  0
LINE
  5
385
100
AcDbEntity
  8
RACCORDO
100
AcDbLine
 62
7
  6
CONTINUOUS
 10
12.0869959202
 20
-34.9720371662
 11
11.559898014
 21
-34.9720371662
  0
LINE
  5
386
100
AcDbEntity
  8
RACCORDO
100
AcDbLine
 62
7
  6
CONTINUOUS
 10
8.009898014
 20
-34.9720371662
 11
7.8430601116
 21
-34.9720371662
  0
LINE
  5
387
100
AcDbEntity
  8
DRAFT
100
AcDbLine
 62
7
  6
CONTINUOUS
 10
13.559898014
 20
-33.3720371662
 11
18.059898014
 21
-33.3720371662
  0
LWPOLYLINE
  5
388
100
AcDbEntity
  8
0
100
AcDbPolyline
 62
253
  6
CONTINUOUS
 90
11
 70
0
 10
18.7984757116
 20
-34.2725475254
 10
18.770233413
 20
-34.2723943733
 10
18.7446452846
 20
-34.2752096603
 10
18.7194404241
 20
-34.2807273143
 10
18.6948109628
 20
-34.2888398197
 10
18.6709454022
 20
-34.2994536511
 10
18.6480586183
 20
-34.3124736594
 10
18.62637864
 20
-34.3277980725
 10
18.6061185847
 20
-34.3453358342
 10
18.5874897889
 20
-34.3650048876
 10
18.5842015839
 20
-34.3692420221
  0
LWPOLYLINE
  5
389
100
AcDbEntity
  8
0
100
AcDbPolyline
 62
7
  6
CONTINUOUS
 90
5
 70
0
 10
18.8443544159
 20
-34.2756959401
 10
18.7375220265
 20
-34.2682303649
 10
18.658350726
 20
-34.2619363892
 10
18.5715321535
 20
-34.2543289705
 10
18.559898014
 20
-34.2532260712
  0
LWPOLYLINE
  5
38A
100
AcDbEntity
  8
0
100
AcDbPolyline
 62
7
  6
CONTINUOUS
 90
3
 70
0
 10
18.8965603801
 20
-34.2795778709
 10
18.879794253
 20
-34.2782913614
 10
18.8443544159
 20
-34.2756959401
  0
LINE
  5
38B
100
AcDbEntity
  8
RACCORDO
100
AcDbLine
 62
7
  6
CONTINUOUS
 10
-66.7201606751
 20
18.9709871511
 11
-66.7457405889
 21
18.9962358217
  0
LINE
  5
38C
100
AcDbEntity
  8
RACCORDO
100
AcDbLine
 62
7
  6
CONTINUOUS
 10
-66.7457405889
 20
18.9962358217
 11
-66.7712990361
 21
19.0217463485
  0
LINE
  5
38D
100
AcDbEntity
  8
RACCORDO
100
AcDbLine
 62
7
  6
CONTINUOUS
 10
-66.7712990361
 20
19.0217463485
 11
-66.7967796329
 21
19.0475061775
  0
LWPOLYLINE
  5
38E
100
AcDbEntity
  8
RACCORDO
100
AcDbPolyline
 62
7
  6
CONTINUOUS
 90
3
 70
0
 10
-66.7967796329
 20
19.0475061775
 10
-66.8221636458
 20
19.0734655783
 10
-66.8347936682
 20
19.0865233665
  0
LWPOLYLINE
  5
38F
100
AcDbEntity
  8
0
100
AcDbPolyline
 62
7
  6
CONTINUOUS
 90
23
 70
0
 10
16.5977911703
 20
-26.7592560146
 10
16.7707308131
 20
-26.7162635574
 10
16.9430440864
 20
-26.6727747005
 10
17.1135440649
 20
-26.6289416123
 10
17.2803468024
 20
-26.5851104452
 10
17.4432514659
 20
-26.5412031868
 10
17.6015611198
 20
-26.4972766843
 10
17.7529618233
 20
-26.4538720244
 10
17.8968729296
 20
-26.4110958322
 10
18.0335926152
 20
-26.3688108536
 10
18.1624868377
 20
-26.3271798433
 10
18.2833419461
 20
-26.2862684395
 10
18.3965332236
 20
-26.2459591743
 10
18.5024694198
 20
-26.2061130733
 10
18.601256306
 20
-26.1666992958
 10
18.6931070518
 20
-26.1276500966
 10
18.7786193836
 20
-26.0887163371
 10
18.8579609801
 20
-26.0498103721
 10
18.9313235731
 20
-26.0108255002
 10
18.9993307813
 20
-25.9713812128
 10
19.0620670128
 20
-25.9313342147
 10
19.1196976938
 20
-25.8904578451
 10
19.1427955543
 20
-25.8720371662
  0
LWPOLYLINE
  5
390
100
AcDbEntity
  8
0
100
AcDbPolyline
 62
7
  6
CONTINUOUS
 90
31
 70
0
 10
15.0257553127
 20
-26.5410340046
 10
14.8546959514
 20
-26.5835434035
 10
14.6852844174
 20
-26.6262703485
 10
14.5185005696
 20
-26.669095314
 10
14.3547736534
 20
-26.7120346658
 10
14.1945930747
 20
-26.7550882252
 10
14.0389217621
 20
-26.7981205761
 10
13.8881130551
 20
-26.8411516095
 10
13.7425437953
 20
-26.8841908054
 10
13.6030339299
 20
-26.9271029506
 10
13.4697489181
 20
-26.9699345013
 10
13.3429573066
 20
-27.0126941389
 10
13.2233660114
 20
-27.0552193715
 10
13.1110243486
 20
-27.097547798
 10
13.0058871238
 20
-27.1397472181
 10
12.9081941947
 20
-27.1817566336
 10
12.8178469901
 20
-27.2236333324
 10
12.7345536424
 20
-27.2655264565
 10
12.6580062354
 20
-27.307617259
 10
12.588038683
 20
-27.3500320518
 10
12.5243026917
 20
-27.39303591
 10
12.4661711061
 20
-27.4371986347
 10
12.4136729919
 20
-27.4827467236
 10
12.3666914562
 20
-27.5301264161
 10
12.3246531178
 20
-27.5805366193
 10
12.2874516151
 20
-27.6352504528
 10
12.2563782319
 20
-27.6938776173
 10
12.2328729766
 20
-27.7547499168
 10
12.2174655468
 20
-27.8168795342
 10
12.2103480775
 20
-27.8803546461
 10
12.209955495
 20
-27.8993526601
  0
LINE
  5
391
100
AcDbEntity
  8
0
100
AcDbLine
 62
7
  6
CONTINUOUS
 10
15.0421725312
 20
-27.1379323274
 11
15.3811261268
 21
-27.0544399475
  0
LINE
  5
392
100
AcDbEntity
  8
0
100
AcDbLine
 62
7
  6
CONTINUOUS
 10
16.5642959608
 20
-26.1666043667
 11
16.2297022678
 21
-26.2489629149
  0
LINE
  5
393
100
AcDbEntity
  8
0
100
AcDbLine
 62
7
  6
CONTINUOUS
 10
16.2497604101
 20
-26.8443702972
 11
16.5977911703
 21
-26.7592560146
  0
LINE
  5
394
100
AcDbEntity
  8
0
100
AcDbLine
 62
7
  6
CONTINUOUS
 10
15.3703911042
 20
-26.4567596856
 11
15.0257553127
 21
-26.5410340046
  0
LINE
  5
395
100
AcDbEntity
  8
0
100
AcDbLine
 62
7
  6
CONTINUOUS
 10
15.3811261268
 20
-27.0544399475
 11
16.2497604101
 21
-26.8443702972
  0
LINE
  5
396
100
AcDbEntity
  8
0
100
AcDbLine
 62
7
  6
CONTINUOUS
 10
16.2297022678
 20
-26.2489629149
 11
15.3703911042
 21
-26.4567596856
  0
LWPOLYLINE
  5
397
100
AcDbEntity
  8
0
100
AcDbPolyline
 62
7
  6
CONTINUOUS
 90
10
 70
0
 10
9.7996660423
 20
-29.6266073642
 10
9.7447619044
 20
-29.6362605595
 10
9.6937426506
 20
-29.64857059
 10
9.6466082808
 20
-29.6635374558
 10
9.60376439
 20
-29.6811886169
 10
9.5648053831
 20
-29.7014966132
 10
9.5285144753
 20
-29.7243790649
 10
9.4944860717
 20
-29.7498085122
 10
9.4631257671
 20
-29.7778124149
 10
9.4344335617
 20
-29.8083907731
  0
LWPOLYLINE
  5
398
100
AcDbEntity
  8
0
100
AcDbPolyline
 62
7
  6
CONTINUOUS
 90
10
 70
0
 10
9.8569648217
 20
-31.1668530164
 10
9.8036871217
 20
-31.1694545169
 10
9.7530577229
 20
-31.1759596192
 10
9.7050766255
 20
-31.1863683233
 10
9.6601687864
 20
-31.2005376531
 10
9.6179092487
 20
-31.2186105847
 10
9.577023141
 20
-31.2410160464
 10
9.5370855062
 20
-31.2678970144
 10
9.4985213014
 20
-31.2991105126
 10
9.4613305267
 20
-31.3346565409
  0
LWPOLYLINE
  5
399
100
AcDbEntity
  8
0
100
AcDbPolyline
 62
7
  6
CONTINUOUS
 90
10
 70
0
 10
10.6605119061
 20
-29.5911368785
 10
10.5935841448
 20
-29.5942819951
 10
10.5308056386
 20
-29.6014968218
 10
10.4721763875
 20
-29.6127813585
 10
10.4182000591
 20
-29.6281932044
 10
10.3683729858
 20
-29.6476747603
 10
10.3211841645
 20
-29.6710532289
 10
10.2761299275
 20
-29.6982710112
 10
10.2337139426
 20
-29.7293857062
 10
10.1939362097
 20
-29.764397314
  0
LWPOLYLINE
  5
39A
100
AcDbEntity
  8
0
100
AcDbPolyline
 62
7
  6
CONTINUOUS
 90
10
 70
0
 10
10.3740180682
 20
-30.9117370306
 10
10.5014203778
 20
-30.9075205105
 10
10.6169762542
 20
-30.8985890986
 10
10.7206856974
 20
-30.8849427947
 10
10.8116201334
 20
-30.8660499953
 10
10.8907081363
 20
-30.8424423039
 10
10.9607354278
 20
-30.8157145315
 10
11.0226305819
 20
-30.7863982815
 10
11.0754650247
 20
-30.7539619503
 10
11.1192387562
 20
-30.7184055381
  0
LINE
  5
39B
100
AcDbEntity
  8
0
100
AcDbLine
 62
7
  6
CONTINUOUS
 10
11.309898014
 20
-31.1641245542
 11
11.0738816362
 21
-31.1641245542
  0
LINE
  5
39C
100
AcDbEntity
  8
0
100
AcDbLine
 62
7
  6
CONTINUOUS
 10
9.3358188819
 20
-29.3305637298
 11
9.5718352746
 21
-29.3305637298
  0
LINE
  5
39D
100
AcDbEntity
  8
0
100
AcDbLine
 62
7
  6
CONTINUOUS
 10
9.5268148135
 20
-28.0358843265
 11
9.3358188819
 21
-28.0358843265
  0
LINE
  5
39E
100
AcDbEntity
  8
0
100
AcDbLine
 62
7
  6
CONTINUOUS
 10
10.4626947593
 20
-27.8203319965
 11
10.7096251797
 21
-27.8203319965
  0
LINE
  5
39F
100
AcDbEntity
  8
DRAFT
100
AcDbLine
 62
7
  6
CONTINUOUS
 10
18.059898014
 20
-27.3720371662
 11
14.153681655
 21
-27.3720371662
  0
LWPOLYLINE
  5
3A0
100
AcDbEntity
  8
0
100
AcDbPolyline
 62
7
  6
CONTINUOUS
 90
10
 70
0
 10
10.2785201024
 20
-30.667535132
 10
10.2083380472
 20
-30.6658677405
 10
10.1430402043
 20
-30.6626114862
 10
10.0826265738
 20
-30.657766369
 10
10.0273496293
 20
-30.6512222302
 10
9.9769568972
 20
-30.6430892286
 10
9.930690956
 20
-30.6336978403
 10
9.888299332
 20
-30.6231582242
 10
9.850034499
 20
-30.6113602213
 10
9.8158964569
 20
-30.5983038319
  0
LWPOLYLINE
  5
3A1
100
AcDbEntity
  8
0
100
AcDbPolyline
 62
7
  6
CONTINUOUS
 90
10
 70
0
 10
9.8515077781
 20
-31.4192404209
 10
9.8791805946
 20
-31.4199955858
 10
9.9081365191
 20
-31.4235617278
 10
9.9383755519
 20
-31.4299388467
 10
9.969868193
 20
-31.4388822786
 10
10.0026439423
 20
-31.4506366874
 10
10.0367912988
 20
-31.4659360656
 10
10.0723397622
 20
-31.4850250772
 10
10.1092598329
 20
-31.5076590581
 10
10.1475515107
 20
-31.5338380083
  0
LWPOLYLINE
  5
3A2
100
AcDbEntity
  8
0
100
AcDbPolyline
 62
7
  6
CONTINUOUS
 90
10
 70
0
 10
10.6755187463
 20
-29.8421599327
 10
10.7273311024
 20
-29.8444139529
 10
10.7753936961
 20
-29.8493336015
 10
10.8197065275
 20
-29.8569188787
 10
10.8599101216
 20
-29.8673303858
 10
10.8963639533
 20
-29.8804075213
 10
10.9301464475
 20
-29.8956684809
 10
10.961617079
 20
-29.9129526631
 10
10.9904163729
 20
-29.9324206693
 10
11.0165443293
 20
-29.9540724996
  0
LWPOLYLINE
  5
3A3
100
AcDbEntity
  8
0
100
AcDbPolyline
 62
7
  6
CONTINUOUS
 90
10
 70
0
 10
10.6618761968
 20
-30.6293359457
 10
10.6162514058
 20
-30.6272182057
 10
10.5735724529
 20
-30.6223615811
 10
10.533839338
 20
-30.6147660718
 10
10.4973550958
 20
-30.6043558062
 10
10.4638166917
 20
-30.5912066559
 10
10.4323150216
 20
-30.5755462364
 10
10.4025470511
 20
-30.5574504197
 10
10.3748158146
 20
-30.5368433338
 10
10.3491213122
 20
-30.5137249789
  0
LWPOLYLINE
  5
3A4
100
AcDbEntity
  8
0
100
AcDbPolyline
 62
7
  6
CONTINUOUS
 90
10
 70
0
 10
9.9060780954
 20
-32.1873168705
 10
9.8614105835
 20
-32.1851852549
 10
9.8199703835
 20
-32.180505089
 10
9.7817574953
 20
-32.1732763728
 10
9.7470998827
 20
-32.1633822141
 10
9.7156695819
 20
-32.150939505
 10
9.6864827015
 20
-32.136298923
 10
9.6592112779
 20
-32.1195773604
 10
9.6341832747
 20
-32.1006579247
 10
9.6113986921
 20
-32.0795406161
  0
LWPOLYLINE
  5
3A5
100
AcDbEntity
  8
0
100
AcDbPolyline
 62
7
  6
CONTINUOUS
 90
10
 70
0
 10
11.309898014
 20
-28.7985038219
 10
11.2404912034
 20
-28.792856876
 10
11.1732299997
 20
-28.7859809732
 10
11.1081144027
 20
-28.7778761136
 10
11.045237574
 20
-28.7684899105
 10
10.9845063521
 20
-28.7578747506
 10
10.9256412525
 20
-28.7461877935
 10
10.8685491139
 20
-28.7334814259
 10
10.8133230976
 20
-28.7197032611
 10
10.7599632037
 20
-28.7048532992
  0
LINE
  5
3A6
100
AcDbEntity
  8
0
100
AcDbLine
 62
7
  6
CONTINUOUS
 10
18.928253973
 20
-34.2821306017
 11
18.8965603801
 21
-34.2795778709
  0
LINE
  5
3A7
100
AcDbEntity
  8
0
100
AcDbLine
 62
7
  6
CONTINUOUS
 10
18.9576193454
 20
-34.284662225
 11
18.928253973
 21
-34.2821306017
  0
LINE
  5
3A8
100
AcDbEntity
  8
0
100
AcDbLine
 62
7
  6
CONTINUOUS
 10
18.9847911236
 20
-34.2871799139
 11
18.9576193454
 21
-34.284662225
  0
LWPOLYLINE
  5
3A9
100
AcDbEntity
  8
0
100
AcDbPolyline
 62
7
  6
CONTINUOUS
 90
16
 70
0
 10
13.9570028868
 20
-33.3720371662
 10
13.911130068
 20
-33.3584449408
 10
13.7852218827
 20
-33.31970027
 10
13.6659814716
 20
-33.2814492657
 10
13.5535943681
 20
-33.243713575
 10
13.4486773477
 20
-33.2066837279
 10
13.3512983592
 20
-33.1703916133
 10
13.261557489
 20
-33.1348983983
 10
13.1800205745
 20
-33.1004920226
 10
13.1066053919
 20
-33.0672479411
 10
13.0412527182
 20
-33.0352807372
 10
12.9844387426
 20
-33.0050424668
 10
12.9359610259
 20
-32.9767435161
 10
12.8954485145
 20
-32.9505553826
 10
12.8629928266
 20
-32.9270614157
 10
12.8378756664
 20
-32.906420404
  0
LINE
  5
3AA
100
AcDbEntity
  8
RACCORDO
100
AcDbLine
 62
7
  6
CONTINUOUS
 10
-58.5602669607
 20
19.1241180074
 11
-58.490101986
 21
19.0522990371
  0
LINE
  5
3AB
100
AcDbEntity
  8
0
100
AcDbLine
 62
7
  6
CONTINUOUS
 10
10.7096251797
 20
-27.0658978878
 11
10.4626947593
 21
-27.0658978878
  0
LINE
  5
3AC
100
AcDbEntity
  8
RACCORDO
100
AcDbLine
 62
7
  6
CONTINUOUS
 10
23.7767359164
 20
-25.9720371662
 11
23.609898014
 21
-25.9720371662
  0
LINE
  5
3AD
100
AcDbEntity
  8
RACCORDO
100
AcDbLine
 62
7
  6
CONTINUOUS
 10
20.059898014
 20
-25.9720371662
 11
19.5328001078
 21
-25.9720371662
  0
LINE
  5
3AE
100
AcDbEntity
  8
RACCORDO
100
AcDbLine
 62
7
  6
CONTINUOUS
 10
12.0869959202
 20
-25.9720371662
 11
11.559898014
 21
-25.9720371662
  0
LINE
  5
3AF
100
AcDbEntity
  8
RACCORDO
100
AcDbLine
 62
7
  6
CONTINUOUS
 10
8.009898014
 20
-25.9720371662
 11
7.8430601116
 21
-25.9720371662
  0
LINE
  5
3B0
100
AcDbEntity
  8
RACCORDO
100
AcDbLine
 62
7
  6
CONTINUOUS
 10
7.7950623387
 20
-25.8720371662
 11
23.8247336892
 21
-25.8720371662
  0
LINE
  5
3B1
100
AcDbEntity
  8
RACCORDO
100
AcDbLine
 62
253
  6
CONTINUOUS
 10
7.2950432996
 20
-25.3720371662
 11
24.3247527284
 21
-25.3720371662
  0
LINE
  5
3B2
100
AcDbEntity
  8
0
100
AcDbLine
 62
7
  6
CONTINUOUS
 10
54.609898014
 20
-21.9720371662
 11
52.109898014
 21
-21.9720371662
  0
LINE
  5
3B3
100
AcDbEntity
  8
0
100
AcDbLine
 62
7
  6
CONTINUOUS
 10
49.609898014
 20
-21.9720371662
 11
47.109898014
 21
-21.9720371662
  0
LINE
  5
3B4
100
AcDbEntity
  8
0
100
AcDbLine
 62
7
  6
CONTINUOUS
 10
44.609898014
 20
-21.9720371662
 11
42.109898014
 21
-21.9720371662
  0
LINE
  5
3B5
100
AcDbEntity
  8
0
100
AcDbLine
 62
7
  6
CONTINUOUS
 10
39.609898014
 20
-21.9720371662
 11
37.109898014
 21
-21.9720371662
  0
LINE
  5
3B6
100
AcDbEntity
  8
0
100
AcDbLine
 62
7
  6
CONTINUOUS
 10
34.609898014
 20
-21.9720371662
 11
32.109898014
 21
-21.9720371662
  0
LINE
  5
3B7
100
AcDbEntity
  8
RACCORDO
100
AcDbLine
 62
253
  6
CONTINUOUS
 10
23.32471465
 20
-21.7720371662
 11
8.2950813779
 21
-21.7720371662
  0
LWPOLYLINE
  5
3B8
100
AcDbEntity
  8
0
100
AcDbPolyline
 62
7
  6
CONTINUOUS
 90
10
 70
0
 10
9.9060780954
 20
-26.5952295719
 10
9.8614104996
 20
-26.5930979584
 10
9.8199702389
 20
-26.5884177961
 10
9.7817573134
 20
-26.5811890851
 10
9.7470996899
 20
-26.5712949324
 10
9.7156694015
 20
-26.5588522309
 10
9.6864825476
 20
-26.5442116597
 10
9.6592111613
 20
-26.5274901118
 10
9.6341832095
 20
-26.5085706942
 10
9.6113986921
 20
-26.4874534069
  0
LWPOLYLINE
  5
3B9
100
AcDbEntity
  8
0
100
AcDbPolyline
 62
7
  6
CONTINUOUS
 90
24
 70
0
 10
15.5615154895
 20
-28.7906087549
 10
15.2191499807
 20
-28.7071047202
 10
15.0510178665
 20
-28.6654885565
 10
14.8856986381
 20
-28.6240059932
 10
14.7236143467
 20
-28.5826536494
 10
14.5650645857
 20
-28.5413992168
 10
14.4106374553
 20
-28.5002887028
 10
14.2611653321
 20
-28.4594444274
 10
14.1170046299
 20
-28.4188725097
 10
13.9785296628
 20
-28.3785916796
 10
13.8465261061
 20
-28.338756754
 10
13.7212458829
 20
-28.2993848204
 10
13.6029411196
 20
-28.2605050059
 10
13.492302209
 20
-28.2223162044
 10
13.3894299573
 20
-28.1848502278
 10
13.2944499995
 20
-28.1481658259
 10
13.2079813966
 20
-28.1125556303
 10
13.1299497589
 20
-28.0780885307
 10
13.0603272834
 20
-28.0448831476
 10
12.9996642213
 20
-28.0134138977
 10
12.9477682286
 20
-27.9838960271
 10
12.9042581939
 20
-27.9564988535
 10
12.8692545407
 20
-27.9318228643
 10
12.8420239386
 20
-27.9100341608
  0
LWPOLYLINE
  5
3BA
100
AcDbEntity
  8
0
100
AcDbPolyline
 62
7
  6
CONTINUOUS
 90
25
 70
0
 10
16.0854677825
 20
-29.5171963639
 10
16.4233038971
 20
-29.5996921934
 10
16.589216131
 20
-29.6408240845
 10
16.7527631499
 20
-29.6819362744
 10
16.9133060896
 20
-29.7229782147
 10
17.0700565603
 20
-29.7638539434
 10
17.2228621433
 20
-29.8046270943
 10
17.3710415641
 20
-29.8452170916
 10
17.513126515
 20
-29.8853038695
 10
17.6487499582
 20
-29.9248439222
 10
17.7777927175
 20
-29.9638535771
 10
17.8993533134
 20
-30.002090466
 10
18.0130786533
 20
-30.0394421686
 10
18.1192199058
 20
-30.0759753332
 10
18.2178423578
 20
-30.1116902668
 10
18.3089665977
 20
-30.1465600686
 10
18.3925582189
 20
-30.1805199464
 10
18.4685278017
 20
-30.2134563874
 10
18.5371017191
 20
-30.2453702167
 10
18.5981266707
 20
-30.2760637135
 10
18.651013608
 20
-30.3050214297
 10
18.6960401886
 20
-30.3320754945
 10
18.7334917205
 20
-30.3570075407
 10
18.7631179163
 20
-30.3790945911
 10
18.7855919777
 20
-30.3980817327
  0
LWPOLYLINE
  5
3BB
100
AcDbEntity
  8
0
100
AcDbPolyline
 62
7
  6
CONTINUOUS
 90
10
 70
0
 10
10.739513893
 20
-28.9585892371
 10
10.8153735966
 20
-28.9778887954
 10
10.8882224574
 20
-28.9948861703
 10
10.9580604753
 20
-29.0095813616
 10
11.0250344233
 20
-29.0219193897
 10
11.0889975284
 20
-29.0319552344
 10
11.1495094719
 20
-29.0398538346
 10
11.2064234809
 20
-29.0456701699
 10
11.2598863282
 20
-29.0493492608
 10
11.309898014
 20
-29.0508911071
  0
LWPOLYLINE
  5
3BC
100
AcDbEntity
  8
0
100
AcDbPolyline
 62
7
  6
CONTINUOUS
 90
10
 70
0
 10
10.7599632037
 20
-28.7048532992
 10
10.6801326818
 20
-28.6806386475
 10
10.6011003911
 20
-28.6544641571
 10
10.5228663318
 20
-28.6263298282
 10
10.4455416806
 20
-28.5962915867
 10
10.3690152606
 20
-28.5642935066
 10
10.2929535413
 20
-28.5301678096
 10
10.2172453456
 20
-28.4938585696
 10
10.1420018505
 20
-28.4554217127
 10
10.0672230559
 20
-28.4148572389
  0
LWPOLYLINE
  5
3BD
100
AcDbEntity
  8
0
100
AcDbPolyline
 62
7
  6
CONTINUOUS
 90
10
 70
0
 10
11.1389471837
 20
-32.4585171764
 10
11.1579588291
 20
-32.4651830971
 10
11.1769488804
 20
-32.4709383851
 10
11.1959173375
 20
-32.4757830401
 10
11.2148411113
 20
-32.4797036788
 10
11.233743291
 20
-32.4827136847
 10
11.2526931443
 20
-32.4848532081
 10
11.2717137605
 20
-32.4861356326
 10
11.2907820504
 20
-32.4865475746
 10
11.309898014
 20
-32.4860890342
  0
LWPOLYLINE
  5
3BE
100
AcDbEntity
  8
0
100
AcDbPolyline
 62
7
  6
CONTINUOUS
 90
10
 70
0
 10
11.1389471529
 20
-26.86642971
 10
11.1579591068
 20
-26.8730957261
 10
11.1769493898
 20
-26.8788510904
 10
11.1959180019
 20
-26.8836958031
 10
11.2148418531
 20
-26.8876164744
 10
11.2337440333
 20
-26.8906264941
 10
11.2526938125
 20
-26.8927660303
 10
11.2717142807
 20
-26.8940484726
 10
11.2907823479
 20
-26.8944604314
 10
11.309898014
 20
-26.8940019069
  0
LWPOLYLINE
  5
3BF
100
AcDbEntity
  8
0
100
AcDbPolyline
 62
7
  6
CONTINUOUS
 90
10
 70
0
 10
10.0930858737
 20
-31.215720999
 10
10.0668821408
 20
-31.2053064478
 10
10.0406952285
 20
-31.1961554263
 10
10.0145251366
 20
-31.1882679343
 10
9.9884049391
 20
-31.1816670861
 10
9.9623015622
 20
-31.1763297675
 10
9.9361157841
 20
-31.1721866355
 10
9.9098145311
 20
-31.1692145759
 10
9.883430877
 20
-31.1674367028
 10
9.8569648217
 20
-31.1668530164
  0
LWPOLYLINE
  5
3C0
100
AcDbEntity
  8
0
100
AcDbPolyline
 62
7
  6
CONTINUOUS
 90
10
 70
0
 10
9.8158964569
 20
-30.5983038319
 10
9.7783805199
 20
-30.5814817953
 10
9.7435378049
 20
-30.5637740957
 10
9.7113683118
 20
-30.5451807332
 10
9.6820772544
 20
-30.5256926828
 10
9.655459419
 20
-30.5053189694
 10
9.6308991644
 20
-30.4840866681
 10
9.6081912769
 20
-30.4620048036
 10
9.5875409702
 20
-30.4390643512
 10
9.5689482443
 20
-30.4152653107
  0
LWPOLYLINE
  5
3C1
100
AcDbEntity
  8
0
100
AcDbPolyline
 62
7
  6
CONTINUOUS
 90
10
 70
0
 10
11.0111258547
 20
-29.6729921816
 10
10.9754253439
 20
-29.6560543922
 10
10.9389960775
 20
-29.64106915
 10
10.9018380557
 20
-29.628036455
 10
10.8640651361
 20
-29.6169454517
 10
10.8255634609
 20
-29.6078069956
 10
10.7859914576
 20
-29.6006536536
 10
10.7452352686
 20
-29.5954962812
 10
10.7034087514
 20
-29.5923240229
 10
10.6605119061
 20
-29.5911368785
  0
LINE
  5
3C2
100
AcDbEntity
  8
RACCORDO
100
AcDbLine
 62
253
  6
CONTINUOUS
 10
10.2256449668
 20
-43.8619179407
 11
10.0685493824
 21
-43.7048223563
  0
LINE
  5
3C3
100
AcDbEntity
  8
RACCORDO
100
AcDbLine
 62
253
  6
CONTINUOUS
 10
10.7169935983
 20
-43.3534188771
 11
10.559898014
 21
-43.1963232927
  0
LINE
  5
3C4
100
AcDbEntity
  8
RACCORDO
100
AcDbLine
 62
253
  6
CONTINUOUS
 10
-69.890101986
 20
-43.4721133186
 11
-69.6228871762
 21
-43.2048985087
  0
LINE
  5
3C5
100
AcDbEntity
  8
RACCORDO
100
AcDbLine
 62
253
  6
CONTINUOUS
 10
-69.3901781384
 20
-43.9720371662
 11
-69.1229633286
 21
-43.7048223563
  0
LWPOLYLINE
  5
3C6
100
AcDbEntity
  8
RACCORDO
100
AcDbPolyline
 62
253
  6
CONTINUOUS
 90
22
 70
0
 10
24.3247527284
 20
-17.0681923397
 10
24.2873304213
 20
-17.0696003275
 10
24.2501183235
 20
-17.073804954
 10
24.2133251853
 20
-17.0807825706
 10
24.1771584162
 20
-17.0904936596
 10
24.1418198235
 20
-17.102883847
 10
24.1075047379
 20
-17.117884962
 10
24.0744015197
 20
-17.1354160006
 10
24.0427010219
 20
-17.1553772784
 10
24.0125910111
 20
-17.17764973
 10
23.984246046
 20
-17.2021003647
 10
23.9578159404
 20
-17.2285958447
 10
23.9334373944
 20
-17.2569987402
 10
23.9112388518
 20
-17.2871645765
 10
23.8913573683
 20
-17.3189127932
 10
23.8739204682
 20
-17.352035439
 10
23.8590173283
 20
-17.386352161
 10
23.8467301863
 20
-17.4216607917
 10
23.8371352878
 20
-17.4577032959
 10
23.8302701669
 20
-17.4942542527
 10
23.8261478466
 20
-17.5311269635
 10
23.8247717669
 20
-17.5681161873
  0
LINE
  5
3C7
100
AcDbEntity
  8
RACCORDO
100
AcDbLine
 62
7
  6
CONTINUOUS
 10
23.32471465
 20
-21.2720371662
 11
8.2950813779
 21
-21.2720371662
  0
LINE
  5
3C8
100
AcDbEntity
  8
RACCORDO
100
AcDbLine
 62
253
  6
CONTINUOUS
 10
24.3247527284
 20
-20.7720371665
 11
23.809898014
 21
-20.7720371662
  0
LINE
  5
3C9
100
AcDbEntity
  8
RACCORDO
100
AcDbLine
 62
253
  6
CONTINUOUS
 10
7.2950432996
 20
-20.7720371662
 11
7.809898014
 21
-20.7720371662
  0
LINE
  5
3CA
100
AcDbEntity
  8
DRAFT
100
AcDbLine
 62
7
  6
CONTINUOUS
 10
8.009898014
 20
-18.1720371662
 11
23.609898014
 21
-18.1720371662
  0
LINE
  5
3CB
100
AcDbEntity
  8
RACCORDO
100
AcDbLine
 62
253
  6
CONTINUOUS
 10
-69.6228871762
 20
-17.5681161873
 11
7.7950242611
 21
-17.5681161873
  0
LINE
  5
3CC
100
AcDbEntity
  8
RACCORDO
100
AcDbLine
 62
253
  6
CONTINUOUS
 10
23.8247717669
 20
-17.5681161873
 11
69.8426832041
 21
-17.5681161873
  0
LINE
  5
3CD
100
AcDbEntity
  8
RACCORDO
100
AcDbLine
 62
253
  6
CONTINUOUS
 10
-69.1229633286
 20
-17.0681923397
 11
7.2950432996
 21
-17.0681923397
  0
LINE
  5
3CE
100
AcDbEntity
  8
RACCORDO
100
AcDbLine
 62
253
  6
CONTINUOUS
 10
69.3427593566
 20
-17.0681923397
 11
24.3247527284
 21
-17.0681923397
  0
LINE
  5
3CF
100
AcDbEntity
  8
RACCORDO
100
AcDbLine
 62
7
  6
CONTINUOUS
 10
69.4389145301
 20
-16.9720371662
 11
24.2766788032
 21
-16.9720371662
  0
LINE
  5
3D0
100
AcDbEntity
  8
RACCORDO
100
AcDbLine
 62
7
  6
CONTINUOUS
 10
7.3431172248
 20
-16.9720371662
 11
-69.2191185021
 21
-16.9720371662
  0
LINE
  5
3D1
100
AcDbEntity
  8
DRAFT
100
AcDbLine
 62
7
  6
CONTINUOUS
 10
23.5714968711
 20
-16.5720371662
 11
8.0482991568
 21
-16.5720371662
  0
LWPOLYLINE
  5
3D2
100
AcDbEntity
  8
RACCORDO
100
AcDbPolyline
 62
253
  6
CONTINUOUS
 90
28
 70
0
 10
8.2950813779
 20
-21.7720371662
 10
8.2378970734
 20
-21.770477422
 10
8.1809305599
 20
-21.7655737863
 10
8.1241818372
 20
-21.757326259
 10
8.0673706296
 20
-21.7457021696
 10
8.0107772129
 20
-21.7307341886
 10
7.9552424145
 20
-21.7125203278
 10
7.9007956832
 20
-21.6909753246
 10
7.8474075702
 20
-21.6661844417
 10
7.7958305559
 20
-21.6385014783
 10
7.7461637607
 20
-21.6079100309
 10
7.6983080643
 20
-21.5744265031
 10
7.6527185856
 20
-21.5384539045
 10
7.6094605304
 20
-21.500030258
 10
7.568468693
 20
-21.4591175407
 10
7.5300025753
 20
-21.4160046942
 10
7.4940445657
 20
-21.370678193
 10
7.4606122759
 20
-21.3231515625
 10
7.4300180423
 20
-21.273754321
 10
7.402239556
 20
-21.2223702256
 10
7.3772991258
 20
-21.1691155191
 10
7.3555760148
 20
-21.1146684485
 10
7.3371416911
 20
-21.0589686409
 10
7.3219246864
 20
-21.0020764693
 10
7.3100898591
 20
-20.9448512994
 10
7.3016921619
 20
-20.8875795866
 10
7.296676642
 20
-20.8299748755
 10
7.2950432996
 20
-20.7720371662
  0
LWPOLYLINE
  5
3D3
100
AcDbEntity
  8
RACCORDO
100
AcDbPolyline
 62
7
  6
CONTINUOUS
 90
28
 70
0
 10
8.2950813779
 20
-21.2720371662
 10
8.2666355336
 20
-21.2712275309
 10
8.2381041802
 20
-21.2687809058
 10
8.2095834953
 20
-21.2646747429
 10
8.1811327033
 20
-21.2588827932
 10
8.1528945933
 20
-21.2513987605
 10
8.1250890628
 20
-21.2422596818
 10
8.0978150257
 20
-21.2314877873
 10
8.0711692556
 20
-21.2191107792
 10
8.0453526052
 20
-21.2052227912
 10
8.0204801893
 20
-21.1899024661
 10
7.9965969186
 20
-21.1731947161
 10
7.9737826297
 20
-21.1551699042
 10
7.9521323618
 20
-21.1359229115
 10
7.9316822542
 20
-21.115506589
 10
7.9124281566
 20
-21.0939221741
 10
7.8944318348
 20
-21.0712304267
 10
7.877764501
 20
-21.0475120425
 10
7.8624520483
 20
-21.02278528
 10
7.84853674
 20
-20.9970781176
 10
7.836109775
 20
-20.9705143342
 10
7.8252598445
 20
-20.9432625954
 10
7.8160211365
 20
-20.9154027976
 10
7.8084320027
 20
-20.8870436038
 10
7.8025423643
 20
-20.8584127173
 10
7.798355692
 20
-20.8296562265
 10
7.7958541599
 20
-20.8008315694
 10
7.7950242611
 20
-20.7720371662
  0
LWPOLYLINE
  5
3D4
100
AcDbEntity
  8
0
100
AcDbPolyline
 62
7
  6
CONTINUOUS
 90
5
 70
0
 10
10.0327482038
 20
-25.8720371662
 10
10.03679131
 20
-25.8738486348
 10
10.0723397707
 20
-25.8929376169
 10
10.1092598376
 20
-25.9155715724
 10
10.1475515107
 20
-25.9417505011
  0
LWPOLYLINE
  5
3D5
100
AcDbEntity
  8
0
100
AcDbPolyline
 62
7
  6
CONTINUOUS
 90
10
 70
0
 10
10.0957097332
 20
-28.7043700856
 10
10.1661593609
 20
-28.7407340943
 10
10.2368168665
 20
-28.7750294827
 10
10.3076822502
 20
-28.8072562508
 10
10.3786712933
 20
-28.8373620503
 10
10.4498682144
 20
-28.8653992294
 10
10.5215256693
 20
-28.8915248332
 10
10.5937278767
 20
-28.9157912099
 10
10.666390618
 20
-28.9381460112
 10
10.739513893
 20
-28.9585892371
  0
LWPOLYLINE
  5
3D6
100
AcDbEntity
  8
0
100
AcDbPolyline
 62
7
  6
CONTINUOUS
 90
10
 70
0
 10
10.0672230559
 20
-28.4148572389
 10
9.9892301434
 20
-28.3700244526
 10
9.9158788354
 20
-28.325897824
 10
9.8471691318
 20
-28.2824773532
 10
9.7833073212
 20
-28.2397963553
 10
9.724087115
 20
-28.1978215153
 10
9.6688896478
 20
-28.1564528869
 10
9.6175086308
 20
-28.115657155
 10
9.5701503527
 20
-28.0754676349
 10
9.5268148135
 20
-28.0358843265
  0
LWPOLYLINE
  5
3D7
100
AcDbEntity
  8
0
100
AcDbPolyline
 62
7
  6
CONTINUOUS
 90
10
 70
0
 10
11.0738816362
 20
-32.1450249014
 10
11.0586508798
 20
-32.1352729955
 10
11.0435290257
 20
-32.1250841015
 10
11.0285160741
 20
-32.1144582194
 10
11.0135940894
 20
-32.103388902
 10
10.9987810072
 20
-32.0918825965
 10
10.9841306334
 20
-32.0799586448
 10
10.9696609036
 20
-32.0676234942
 10
10.9553538822
 20
-32.0548706973
 10
10.9412095694
 20
-32.0417002543
  0
LWPOLYLINE
  5
3D8
100
AcDbEntity
  8
0
100
AcDbPolyline
 62
7
  6
CONTINUOUS
 90
10
 70
0
 10
11.0738816362
 20
-26.5529374538
 10
11.0586507202
 20
-26.5431854541
 10
11.0435287495
 20
-26.5329964967
 10
11.0285157241
 20
-26.5223705817
 10
11.0135937169
 20
-26.5113012664
 10
10.9987806549
 20
-26.4997949935
 10
10.9841303193
 20
-26.4878710909
 10
10.969660637
 20
-26.4755360013
 10
10.955353681
 20
-26.462783282
 10
10.9412094513
 20
-26.4496129331
  0
LWPOLYLINE
  5
3D9
100
AcDbEntity
  8
0
100
AcDbPolyline
 62
7
  6
CONTINUOUS
 90
10
 70
0
 10
9.5308493636
 20
-30.6976202753
 10
9.5819880523
 20
-30.737027019
 10
9.6430113526
 20
-30.772968409
 10
9.7139192645
 20
-30.8054444452
 10
9.7937090292
 20
-30.8350399869
 10
9.8833834055
 20
-30.8611701749
 10
9.9859506699
 20
-30.8820804311
 10
10.1024135812
 20
-30.8971858961
 10
10.2317693807
 20
-30.9070714292
 10
10.3740180682
 20
-30.9117370306
  0
LWPOLYLINE
  5
3DA
100
AcDbEntity
  8
0
100
AcDbPolyline
 62
7
  6
CONTINUOUS
 90
9
 70
0
 10
10.1475515107
 20
-31.5338380083
 10
10.1822594264
 20
-31.5607245979
 10
10.2201526641
 20
-31.5932176315
 10
10.2612312239
 20
-31.6313171091
 10
10.3056517567
 20
-31.6751367256
 10
10.3532576115
 20
-31.7245627861
 10
10.4035788354
 20
-31.7792542064
 10
10.4564587774
 20
-31.839097292
 10
10.5120540884
 20
-31.9042057375
  0
LWPOLYLINE
  5
3DB
100
AcDbEntity
  8
0
100
AcDbPolyline
 62
7
  6
CONTINUOUS
 90
10
 70
0
 10
10.8733359527
 20
-32.2964573858
 10
10.9046105343
 20
-32.3218570154
 10
10.9354459319
 20
-32.3453564232
 10
10.9658421455
 20
-32.3669556093
 10
10.9958010039
 20
-32.3865852734
 10
11.0253206782
 20
-32.4043147157
 10
11.054395682
 20
-32.4203518371
 10
11.0830241864
 20
-32.4347659378
 10
11.1112080203
 20
-32.4474877176
 10
11.1389471837
 20
-32.4585171764
  0
LWPOLYLINE
  5
3DC
100
AcDbEntity
  8
0
100
AcDbPolyline
 62
7
  6
CONTINUOUS
 90
10
 70
0
 10
10.3374875907
 20
-31.3793386131
 10
10.3073390547
 20
-31.3532600824
 10
10.2779449777
 20
-31.3292202621
 10
10.2493053597
 20
-31.3072191522
 10
10.2214285495
 20
-31.2873421013
 10
10.1943061983
 20
-31.2695037608
 10
10.1679132598
 20
-31.2534480849
 10
10.1422413851
 20
-31.239089725
 10
10.1172989231
 20
-31.2265140297
 10
10.0930858737
 20
-31.215720999
  0
LINE
  5
3DD
100
AcDbEntity
  8
RACCORDO
100
AcDbLine
 62
253
  6
CONTINUOUS
 10
-69.6228871762
 20
45.2608241764
 11
-69.890101986
 21
45.5280389863
  0
LINE
  5
3DE
100
AcDbEntity
  8
RACCORDO
100
AcDbLine
 62
253
  6
CONTINUOUS
 10
-69.1229633286
 20
45.760748024
 11
-69.3901781384
 21
46.0279628338
  0
LINE
  5
3DF
100
AcDbEntity
  8
RACCORDO
100
AcDbLine
 62
253
  6
CONTINUOUS
 10
8.0229734805
 20
-13.7488774229
 11
23.5968225475
 21
-13.7488774229
  0
LINE
  5
3E0
100
AcDbEntity
  8
RACCORDO
100
AcDbLine
 62
253
  6
CONTINUOUS
 10
8.0153633866
 20
-13.4775025388
 11
23.6044326413
 21
-13.4775025388
  0
LINE
  5
3E1
100
AcDbEntity
  8
DRAFT
100
AcDbLine
 62
7
  6
CONTINUOUS
 10
23.609898014
 20
-13.4720371662
 11
8.009898014
 21
-13.4720371662
  0
LWPOLYLINE
  5
3E2
100
AcDbEntity
  8
0
100
AcDbPolyline
 62
7
  6
CONTINUOUS
 90
9
 70
0
 10
10.1475515107
 20
-25.9417505011
 10
10.1822593931
 20
-25.9686370659
 10
10.2201526103
 20
-26.0011300902
 10
10.2612311625
 20
-26.0392295742
 10
10.3056517024
 20
-26.0830492152
 10
10.3532575772
 20
-26.1324753157
 10
10.4035788287
 20
-26.1871667835
 10
10.4564588042
 20
-26.247009921
 10
10.5120541564
 20
-26.3121184259
  0
LWPOLYLINE
  5
3E3
100
AcDbEntity
  8
0
100
AcDbPolyline
 62
7
  6
CONTINUOUS
 90
10
 70
0
 10
10.8733359527
 20
-26.704369968
 10
10.9046105369
 20
-26.729769613
 10
10.9354459356
 20
-26.75326903
 10
10.9658421488
 20
-26.7748682189
 10
10.9958010055
 20
-26.7944978782
 10
11.0253206766
 20
-26.8122273094
 10
11.0543956756
 20
-26.8282644177
 10
11.0830241735
 20
-26.8426785048
 10
11.1112079993
 20
-26.8554002688
 10
11.1389471529
 20
-26.86642971
  0
LWPOLYLINE
  5
3E4
100
AcDbEntity
  8
0
100
AcDbPolyline
 62
7
  6
CONTINUOUS
 90
10
 70
0
 10
9.5718352746
 20
-28.3510274349
 10
9.6169258164
 20
-28.389909282
 10
9.6651978502
 20
-28.4288921219
 10
9.7166513761
 20
-28.4679759544
 10
9.7711558063
 20
-28.5071692873
 10
9.8288417285
 20
-28.5464636128
 10
9.890100906
 20
-28.5858334078
 10
9.9550639265
 20
-28.6252701643
 10
10.0236002022
 20
-28.6647823903
 10
10.0957097332
 20
-28.7043700856
  0
LINE
  5
3E5
100
AcDbEntity
  8
0
100
AcDbLine
 62
7
  6
CONTINUOUS
 10
12.8420239386
 20
-27.9100341608
 11
12.8318294349
 21
-27.9006070958
  0
LINE
  5
3E6
100
AcDbEntity
  8
0
100
AcDbLine
 62
7
  6
CONTINUOUS
 10
12.8378756664
 20
-32.906420404
 11
12.8317919048
 21
-32.9006425146
  0
LWPOLYLINE
  5
3E7
100
AcDbEntity
  8
0
100
AcDbPolyline
 62
7
  6
CONTINUOUS
 90
10
 70
0
 10
11.0165443293
 20
-29.9540724996
 10
11.04406464
 20
-29.9810224468
 10
11.0680335806
 20
-30.0084442824
 10
11.0884511511
 20
-30.0363380064
 10
11.105105623
 20
-30.0644142365
 10
11.1182087248
 20
-30.0929623549
 10
11.1283956422
 20
-30.1228505091
 10
11.1358781036
 20
-30.1543680815
 10
11.1404443806
 20
-30.1872256897
 10
11.1420944732
 20
-30.2214233337
  0
LWPOLYLINE
  5
3E8
100
AcDbEntity
  8
0
100
AcDbPolyline
 62
7
  6
CONTINUOUS
 90
8
 70
0
 10
10.9412095694
 20
-32.0417002543
 10
10.9253636066
 20
-32.0260500198
 10
10.9064824182
 20
-32.0064294529
 10
10.8845660042
 20
-31.9828385537
 10
10.8596246386
 20
-31.9552864508
 10
10.8316480473
 20
-31.9237640155
 10
10.8006054088
 20
-31.8882438621
 10
10.7664864493
 20
-31.8487168618
  0
LWPOLYLINE
  5
3E9
100
AcDbEntity
  8
0
100
AcDbPolyline
 62
7
  6
CONTINUOUS
 90
8
 70
0
 10
10.9412094513
 20
-26.4496129331
 10
10.925363541
 20
-26.4339627612
 10
10.9064823959
 20
-26.4143422404
 10
10.8845660161
 20
-26.3907513706
 10
10.859624677
 20
-26.3631992811
 10
10.8316481032
 20
-26.3316768425
 10
10.8006054682
 20
-26.2961566674
 10
10.7664864966
 20
-26.2566296264
  0
LINE
  5
3EA
100
AcDbEntity
  8
RACCORDO
100
AcDbLine
 62
7
  6
CONTINUOUS
 10
7.3189615099
 20
-25.3960597837
 11
7.2950432996
 21
-25.3720371662
  0
LINE
  5
3EB
100
AcDbEntity
  8
RACCORDO
100
AcDbLine
 62
7
  6
CONTINUOUS
 10
7.6843605675
 20
-25.7614275177
 11
7.3189615099
 21
-25.3960597837
  0
LWPOLYLINE
  5
3EC
100
AcDbEntity
  8
0
100
AcDbPolyline
 62
7
  6
CONTINUOUS
 90
10
 70
0
 10
9.4500780779
 20
-32.2449100579
 10
9.4813594717
 20
-32.2782583629
 10
9.5163599935
 20
-32.3087902072
 10
9.5550796434
 20
-32.3365055906
 10
9.5969755326
 20
-32.3615507317
 10
9.64259055
 20
-32.3837794119
 10
9.6935533615
 20
-32.4027529763
 10
9.750406856
 20
-32.4183252066
 10
9.8126081446
 20
-32.430642321
 10
9.8801572274
 20
-32.4397043196
  0
LWPOLYLINE
  5
3ED
100
AcDbEntity
  8
0
100
AcDbPolyline
 62
7
  6
CONTINUOUS
 90
10
 70
0
 10
9.4500779595
 20
-26.6528227426
 10
9.4813593074
 20
-26.686171025
 10
9.5163597935
 20
-26.7167028532
 10
9.555079418
 20
-26.7444182272
 10
9.596975286
 20
-26.7694633631
 10
9.6425902923
 20
-26.7916920447
 10
9.6935531212
 20
-26.8106656237
 10
9.7504066674
 20
-26.8262378837
 10
9.8126080361
 20
-26.838555041
 10
9.8801572274
 20
-26.8476170955
  0
LWPOLYLINE
  5
3EE
100
AcDbEntity
  8
0
100
AcDbPolyline
 62
7
  6
CONTINUOUS
 90
10
 70
0
 10
10.3491213122
 20
-30.5137249789
 10
10.3235156841
 20
-30.4862926881
 10
10.3010808141
 20
-30.4580758285
 10
10.2818167022
 20
-30.4290744001
 10
10.2658496862
 20
-30.3995705027
 10
10.2530534282
 20
-30.3692820365
 10
10.2430489148
 20
-30.337362702
 10
10.2357098082
 20
-30.3035303995
 10
10.2311624462
 20
-30.2680672288
 10
10.2294068288
 20
-30.2309731899
  0
LWPOLYLINE
  5
3EF
100
AcDbEntity
  8
0
100
AcDbPolyline
 62
7
  6
CONTINUOUS
 90
10
 70
0
 10
9.6113986921
 20
-32.0795406161
 10
9.5900153359
 20
-32.0563577074
 10
9.5709823607
 20
-32.0313308581
 10
9.5542997665
 20
-32.0044600682
 10
9.5399147964
 20
-31.9760689428
 10
9.5278802072
 20
-31.9458338768
 10
9.5183542697
 20
-31.9127840551
 10
9.511389741
 20
-31.8765958726
 10
9.5069338641
 20
-31.8375929344
 10
9.5049866389
 20
-31.7957752405
  0
LWPOLYLINE
  5
3F0
100
AcDbEntity
  8
0
100
AcDbPolyline
 62
7
  6
CONTINUOUS
 90
10
 70
0
 10
9.6113986921
 20
-26.4874534069
 10
9.5900153383
 20
-26.4642704605
 10
9.5709823643
 20
-26.4392435798
 10
9.5542997701
 20
-26.4123727648
 10
9.539914798
 20
-26.383981614
 10
9.5278802057
 20
-26.3537465289
 10
9.5183542663
 20
-26.3206967135
 10
9.5113897376
 20
-26.2845085695
 10
9.5069338618
 20
-26.2455056952
 10
9.5049866389
 20
-26.2036880908
  0
LWPOLYLINE
  5
3F1
100
AcDbEntity
  8
0
100
AcDbPolyline
 62
7
  6
CONTINUOUS
 90
9
 70
0
 10
10.6410791527
 20
-31.7013335897
 10
10.595328461
 20
-31.6485723974
 10
10.5517983133
 20
-31.5993861297
 10
10.5104798672
 20
-31.5537749099
 10
10.4713819651
 20
-31.5117386148
 10
10.4345311337
 20
-31.4732768745
 10
10.3999362153
 20
-31.4383895659
 10
10.3675883677
 20
-31.4070768121
 10
10.3374875907
 20
-31.3793386131
  0
LINE
  5
3F2
100
AcDbEntity
  8
0
100
AcDbLine
 62
7
  6
CONTINUOUS
 10
10.7664864493
 20
-31.8487168618
 11
10.6410791527
 21
-31.7013335897
  0
LWPOLYLINE
  5
3F3
100
AcDbEntity
  8
RACCORDO
100
AcDbPolyline
 62
7
  6
CONTINUOUS
 90
10
 70
0
 10
7.7950242611
 20
-25.8720371662
 10
7.7933288596
 20
-25.8700117335
 10
7.7890171951
 20
-25.8657563706
 10
7.7822772109
 20
-25.8592710775
 10
7.7732913829
 20
-25.8503373845
 10
7.7622635194
 20
-25.8391737611
 10
7.7494417503
 20
-25.8264356169
 10
7.7350963692
 20
-25.8121873705
 10
7.7194000967
 20
-25.7963646031
 10
7.6843605675
 20
-25.7614275177
  0
LWPOLYLINE
  5
3F4
100
AcDbEntity
  8
0
100
AcDbPolyline
 62
7
  6
CONTINUOUS
 90
10
 70
0
 10
10.5120540884
 20
-31.9042057375
 10
10.6080093369
 20
-32.0201122644
 10
10.6446840905
 20
-32.0632389231
 10
10.6803890294
 20
-32.103959519
 10
10.7151581016
 20
-32.1423221407
 10
10.7489573591
 20
-32.1782786997
 10
10.7816849574
 20
-32.2116849302
 10
10.8133069483
 20
-32.2424927438
 10
10.8438572801
 20
-32.270750229
 10
10.8733359527
 20
-32.2964573858
  0
LINE
  5
3F5
100
AcDbEntity
  8
0
100
AcDbLine
 62
7
  6
CONTINUOUS
 10
32.199898014
 20
-5.7720371662
 11
39.199898014
 21
-5.7720371662
  0
LINE
  5
3F6
100
AcDbEntity
  8
0
100
AcDbLine
 62
7
  6
CONTINUOUS
 10
18.7855919777
 20
-30.3980817327
 11
18.7881745479
 21
-30.4005903062
  0
LINE
  5
3F7
100
AcDbEntity
  8
RACCORDO
100
AcDbLine
 62
7
  6
CONTINUOUS
 10
23.9354354605
 20
-35.1826468146
 11
24.3247527284
 21
-35.5720371662
  0
LWPOLYLINE
  5
3F8
100
AcDbEntity
  8
0
100
AcDbPolyline
 62
7
  6
CONTINUOUS
 90
7
 70
0
 10
10.6410791326
 20
-26.1092461848
 10
10.5953284403
 20
-26.0564849643
 10
10.5517982931
 20
-26.007298673
 10
10.5104798487
 20
-25.9616874341
 10
10.4713819493
 20
-25.9196511243
 10
10.4345311212
 20
-25.8811893736
 10
10.4254556209
 20
-25.8720371662
  0
LINE
  5
3F9
100
AcDbEntity
  8
0
100
AcDbLine
 62
7
  6
CONTINUOUS
 10
10.7664864966
 20
-26.2566296264
 11
10.6410791326
 21
-26.1092461848
  0
LWPOLYLINE
  5
3FA
100
AcDbEntity
  8
0
100
AcDbPolyline
 62
7
  6
CONTINUOUS
 90
10
 70
0
 10
10.5120541564
 20
-26.3121184259
 10
10.6080093963
 20
-26.4280249436
 10
10.6446840995
 20
-26.4711515359
 10
10.6803889949
 20
-26.5118720749
 10
10.715158025
 20
-26.5502346427
 10
10.7489572473
 20
-26.5861911571
 10
10.781684834
 20
-26.6195973715
 10
10.8133068425
 20
-26.6504052037
 10
10.8438572154
 20
-26.6786627358
 10
10.8733359527
 20
-26.704369968
  0
LWPOLYLINE
  5
3FB
100
AcDbEntity
  8
0
100
AcDbPolyline
 62
7
  6
CONTINUOUS
 90
10
 70
0
 10
9.5689482443
 20
-30.4152653107
 10
9.555411197
 20
-30.3955641279
 10
9.5434500872
 20
-30.3751916752
 10
9.533064915
 20
-30.3541479527
 10
9.5242640565
 20
-30.3326049578
 10
9.5170391356
 20
-30.3103906931
 10
9.5113650232
 20
-30.2869891657
 10
9.5072333429
 20
-30.2622283782
 10
9.5046524711
 20
-30.236280328
 10
9.5036224078
 20
-30.2091450153
  0
LWPOLYLINE
  5
3FC
100
AcDbEntity
  8
0
100
AcDbPolyline
 62
7
  6
CONTINUOUS
 90
10
 70
0
 10
11.257754564
 20
-29.8955488837
 10
11.2386278828
 20
-29.865910805
 10
11.2175909415
 20
-29.837559365
 10
11.1946437402
 20
-29.8104945636
 10
11.1699981018
 20
-29.7847954006
 10
11.1434422033
 20
-29.7603828762
 10
11.1143405762
 20
-29.737019992
 10
11.0824813977
 20
-29.7146277484
 10
11.0480764905
 20
-29.6932851449
 10
11.0111258547
 20
-29.6729921816
  0
LWPOLYLINE
  5
3FD
100
AcDbEntity
  8
0
100
AcDbPolyline
 62
7
  6
CONTINUOUS
 90
10
 70
0
 10
10.0776975474
 20
-30.4507596547
 10
10.0924452688
 20
-30.4777488199
 10
10.1089678748
 20
-30.5039733727
 10
10.1272653655
 20
-30.5294333132
 10
10.1471822885
 20
-30.5540768253
 10
10.1688740962
 20
-30.5779557251
 10
10.1928071457
 20
-30.6012254608
 10
10.2191368894
 20
-30.6239378486
 10
10.247707875
 20
-30.6460410723
 10
10.2785201024
 20
-30.667535132
  0
LINE
  5
3FE
100
AcDbEntity
  8
0
100
AcDbLine
 62
7
  6
CONTINUOUS
 10
39.199898014
 20
-3.7720371662
 11
32.199898014
 21
-3.7720371662
  0
LINE
  5
3FF
100
AcDbEntity
  8
ASSI
100
AcDbLine
 62
7
  6
CONTINUOUS
 10
33.950764014
 20
-1.4870711662
 11
34.591618014
 21
-1.4870711662
  0
LINE
  5
400
100
AcDbEntity
  8
0
100
AcDbLine
 62
7
  6
CONTINUOUS
 10
34.381404014
 20
-1.2768571662
 11
34.160978014
 21
-1.2768571662
  0
LINE
  5
401
100
AcDbEntity
  8
0
100
AcDbLine
 62
7
  6
CONTINUOUS
 10
34.160978014
 20
-0.7360031662
 11
34.381404014
 21
-0.7360031662
  0
LINE
  5
402
100
AcDbEntity
  8
ASSI
100
AcDbLine
 62
7
  6
CONTINUOUS
 10
34.591618014
 20
-0.6325971662
 11
36.368982014
 21
-0.6325971662
  0
LINE
  5
403
100
AcDbEntity
  8
0
100
AcDbLine
 62
7
  6
CONTINUOUS
 10
36.4024636413
 20
-0.3257891662
 11
34.2318997411
 21
-0.3257891662
  0
LINE
  5
404
100
AcDbEntity
  8
RACCORDO
100
AcDbLine
 62
7
  6
CONTINUOUS
 10
8.0153633866
 20
-13.4775025388
 11
8.009898014
 21
-13.4720371662
  0
LWPOLYLINE
  5
405
100
AcDbEntity
  8
RACCORDO
100
AcDbPolyline
 62
7
  6
CONTINUOUS
 90
10
 70
0
 10
23.8247717669
 20
-35.0720371662
 10
23.8264671684
 20
-35.0740625988
 10
23.8307788329
 20
-35.0783179617
 10
23.8375188171
 20
-35.0848032548
 10
23.8465046451
 20
-35.0937369479
 10
23.8575325086
 20
-35.1049005712
 10
23.8703542777
 20
-35.1176387154
 10
23.8846996588
 20
-35.1318869619
 10
23.9003959313
 20
-35.1477097292
 10
23.9354354605
 20
-35.1826468146
  0
LINE
  5
406
100
AcDbEntity
  8
DRAFT
100
AcDbLine
 62
7
  6
CONTINUOUS
 10
7.8430601116
 20
-25.9720371662
 11
7.809898014
 21
-25.9057079194
  0
LINE
  5
407
100
AcDbEntity
  8
0
100
AcDbLine
 62
7
  6
CONTINUOUS
 10
38.0807134927
 20
4.9748788338
 11
38.850766014
 21
4.9748788338
  0
LINE
  5
408
100
AcDbEntity
  8
0
100
AcDbLine
 62
7
  6
CONTINUOUS
 10
37.4978980901
 20
4.9770148338
 11
33.901896014
 21
4.9770148338
  0
LINE
  5
409
100
AcDbEntity
  8
ASSI
100
AcDbLine
 62
7
  6
CONTINUOUS
 10
38.670664014
 20
6.1497788338
 11
37.997960014
 21
6.1497788338
  0
LINE
  5
40A
100
AcDbEntity
  8
0
100
AcDbLine
 62
7
  6
CONTINUOUS
 10
37.6899788495
 20
6.1497788338
 11
37.569056014
 21
6.1497788338
  0
LINE
  5
40B
100
AcDbEntity
  8
0
100
AcDbLine
 62
7
  6
CONTINUOUS
 10
9.8187656354
 20
-29.8708092628
 11
9.7996660423
 21
-29.6266073642
  0
LWPOLYLINE
  5
40C
100
AcDbEntity
  8
0
100
AcDbPolyline
 62
7
  6
CONTINUOUS
 90
10
 70
0
 10
9.3017123889
 20
-30.1941382347
 10
9.3056221069
 20
-30.2669643018
 10
9.3148121116
 20
-30.3350570128
 10
9.3292824029
 20
-30.3984163676
 10
9.3488900479
 20
-30.4563590974
 10
9.3737779796
 20
-30.5095684711
 10
9.4043749971
 20
-30.5600942951
 10
9.4408240334
 20
-30.6086198382
 10
9.4829821556
 20
-30.6544618316
 10
9.5308493636
 20
-30.6976202753
  0
LWPOLYLINE
  5
40D
100
AcDbEntity
  8
0
100
AcDbPolyline
 62
7
  6
CONTINUOUS
 90
10
 70
0
 10
9.3017123889
 20
-31.7903182564
 10
9.3047568085
 20
-31.8592676493
 10
9.3113256413
 20
-31.9232396905
 10
9.3214188874
 20
-31.9822343799
 10
9.3352555453
 20
-32.0357616462
 10
9.3526166166
 20
-32.0843115609
 10
9.372845105
 20
-32.1293543379
 10
9.3957220121
 20
-32.1713800488
 10
9.4214663364
 20
-32.2098986221
 10
9.4500780779
 20
-32.2449100579
  0
LWPOLYLINE
  5
40E
100
AcDbEntity
  8
0
100
AcDbPolyline
 62
7
  6
CONTINUOUS
 90
10
 70
0
 10
9.3017123889
 20
-26.1982306896
 10
9.3047568125
 20
-26.2671801935
 10
9.3113256463
 20
-26.3311523227
 10
9.3214188903
 20
-26.3901470774
 10
9.3352555449
 20
-26.4436743831
 10
9.3526166097
 20
-26.4922243142
 10
9.3728450837
 20
-26.5372670934
 10
9.3957219665
 20
-26.579292795
 10
9.4214662584
 20
-26.6178113447
 10
9.4500779595
 20
-26.6528227426
  0
LWPOLYLINE
  5
40F
100
AcDbEntity
  8
RACCORDO
100
AcDbPolyline
 62
253
  6
CONTINUOUS
 90
22
 70
0
 10
7.7950242611
 20
-17.5681161873
 10
7.793620794
 20
-17.5307604464
 10
7.7894296197
 20
-17.4936135735
 10
7.7824741724
 20
-17.4568832687
 10
7.7727933423
 20
-17.4207749029
 10
7.7604412579
 20
-17.3854903697
 10
7.7454869839
 20
-17.3512269561
 10
7.7280141342
 20
-17.3181762401
 10
7.7081204053
 20
-17.2865230186
 10
7.6859170295
 20
-17.2564442753
 10
7.6615281528
 20
-17.2281081898
 10
7.6350901414
 20
-17.2016731985
 10
7.6067508186
 20
-17.1772871078
 10
7.5766686389
 20
-17.1550862682
 10
7.5450118013
 20
-17.1351948119
 10
7.5119573093
 20
-17.1177239582
 10
7.4776899813
 20
-17.1027713924
 10
7.442401417
 20
-17.090420719
 10
7.406288926
 20
-17.0807409948
 10
7.3695544249
 20
-17.073786342
 10
7.3324033081
 20
-17.0695956465
 10
7.2950432996
 20
-17.0681923397
  0
LWPOLYLINE
  5
410
100
AcDbEntity
  8
0
100
AcDbPolyline
 62
7
  6
CONTINUOUS
 90
10
 70
0
 10
11.344004425
 20
-30.2173304019
 10
11.342648781
 20
-30.1759034765
 10
11.3392346893
 20
-30.1360738125
 10
11.3337621498
 20
-30.0978414101
 10
11.3262291236
 20
-30.06144481
 10
11.3166376496
 20
-30.0266454715
 10
11.3049938449
 20
-29.9927277718
 10
11.2912997486
 20
-29.9594531702
 10
11.2755533216
 20
-29.9270602075
 10
11.257754564
 20
-29.8955488837
  0
LWPOLYLINE
  5
411
100
AcDbEntity
  8
0
100
AcDbPolyline
 62
7
  6
CONTINUOUS
 90
10
 70
0
 10
10.0124901485
 20
-30.1818599163
 10
10.0133277293
 20
-30.2131737677
 10
10.0157485537
 20
-30.2440748937
 10
10.0197526218
 20
-30.2745632942
 10
10.0253150297
 20
-30.3045673696
 10
10.0324606813
 20
-30.3341587197
 10
10.0412642877
 20
-30.3635521433
 10
10.0517507528
 20
-30.3928192401
 10
10.0638951727
 20
-30.4218884106
 10
10.0776975474
 20
-30.4507596547
  0
LWPOLYLINE
  5
412
100
AcDbEntity
  8
0
100
AcDbPolyline
 62
7
  6
CONTINUOUS
 90
18
 70
0
 10
12.2099027101
 20
-32.8993236342
 10
12.2105732989
 20
-32.9254612102
 10
12.2184720701
 20
-32.9897404556
 10
12.2348191031
 20
-33.0524873697
 10
12.2593679342
 20
-33.1137668627
 10
12.2915482456
 20
-33.1726396776
 10
12.3299256908
 20
-33.2275495122
 10
12.3732165808
 20
-33.2781499838
 10
12.4215439994
 20
-33.3257264604
 10
12.4755379198
 20
-33.3715229574
 10
12.535352513
 20
-33.4159946503
 10
12.6009663637
 20
-33.4593578989
 10
12.6730217397
 20
-33.5021742649
 10
12.7518824616
 20
-33.5447080062
 10
12.8377241283
 20
-33.5870844645
 10
12.9308456363
 20
-33.6294754618
 10
13.0315377779
 20
-33.6720273103
 10
13.0922135479
 20
-33.6959760206
  0
LWPOLYLINE
  5
413
100
AcDbEntity
  8
0
100
AcDbPolyline
 62
7
  6
CONTINUOUS
 90
33
 70
0
 10
12.2099025035
 20
-27.8993515651
 10
12.210536503
 20
-27.9247731654
 10
12.2182208152
 20
-27.9884230471
 10
12.2342048138
 20
-28.0506135145
 10
12.2582630412
 20
-28.1114159627
 10
12.2898464041
 20
-28.1698904295
 10
12.3275441832
 20
-28.224468853
 10
12.3700911135
 20
-28.2747900236
 10
12.4176052824
 20
-28.322116092
 10
12.470701155
 20
-28.3676680181
 10
12.5295266824
 20
-28.4118952143
 10
12.5940605277
 20
-28.4550122531
 10
12.6649403903
 20
-28.4975799728
 10
12.7425425745
 20
-28.5398686471
 10
12.827034382
 20
-28.5819963122
 10
12.918679046
 20
-28.6241178343
 10
13.0177680002
 20
-28.6663819007
 10
13.1243952621
 20
-28.7088447311
 10
13.2382433612
 20
-28.7514191096
 10
13.3593325807
 20
-28.7941697398
 10
13.4876028166
 20
-28.8371365006
 10
13.6222701998
 20
-28.8801392237
 10
13.7630111896
 20
-28.9231771127
 10
13.9096668072
 20
-28.9663055959
 10
14.061431176
 20
-29.0093995921
 10
14.2179059455
 20
-29.052466511
 10
14.3787310818
 20
-29.0955277987
 10
14.5429918179
 20
-29.1384636253
 10
14.7101902936
 20
-29.1812727678
 10
14.8798964743
 20
-29.2239722251
 10
15.0512009011
 20
-29.2664606011
 10
15.2234174936
 20
-29.3086954517
 10
16.0854677825
 20
-29.5171963639
  0
LWPOLYLINE
  5
414
100
AcDbEntity
  8
0
100
AcDbPolyline
 62
7
  6
CONTINUOUS
 90
8
 70
0
 10
12.2098980253
 20
-34.9148867433
 10
12.2099492794
 20
-34.9203172352
 10
12.2120575255
 20
-34.9502394135
 10
12.2170223724
 20
-34.9791595609
 10
12.2245417967
 20
-35.0068619759
 10
12.2343271768
 20
-35.0331394169
 10
12.246092228
 20
-35.0577976765
 10
12.2544748923
 20
-35.0720371662
  0
LINE
  5
415
100
AcDbEntity
  8
RACCORDO
100
AcDbLine
 62
7
  6
CONTINUOUS
 10
8.0482991568
 20
-16.5720371662
 11
8.0229734805
 21
-13.7488774229
  0
LINE
  5
416
100
AcDbEntity
  8
RACCORDO
100
AcDbLine
 62
253
  6
CONTINUOUS
 10
7.2950432996
 20
-35.5720371662
 11
7.2950432996
 21
-25.3720371662
  0
LINE
  5
417
100
AcDbEntity
  8
RACCORDO
100
AcDbLine
 62
253
  6
CONTINUOUS
 10
7.2950432996
 20
-20.7720371662
 11
7.2950432996
 21
-17.0681923397
  0
LINE
  5
418
100
AcDbEntity
  8
RACCORDO
100
AcDbLine
 62
7
  6
CONTINUOUS
 10
7.7950242611
 20
-35.0720371662
 11
7.7950242611
 21
-25.8720371662
  0
LINE
  5
419
100
AcDbEntity
  8
RACCORDO
100
AcDbLine
 62
7
  6
CONTINUOUS
 10
7.7950242611
 20
-20.7720371662
 11
7.7950242611
 21
-17.5681161873
  0
LINE
  5
41A
100
AcDbEntity
  8
DRAFT
100
AcDbLine
 62
7
  6
CONTINUOUS
 10
7.809898014
 20
-25.9057079194
 11
7.809898014
 21
-25.8720371662
  0
LINE
  5
41B
100
AcDbEntity
  8
RACCORDO
100
AcDbLine
 62
7
  6
CONTINUOUS
 10
7.8430601116
 20
-17.4720371691
 11
7.8430601116
 21
-20.9506219014
  0
LINE
  5
41C
100
AcDbEntity
  8
DRAFT
100
AcDbLine
 62
7
  6
CONTINUOUS
 10
7.8430601116
 20
-25.9720371662
 11
7.8430601116
 21
-34.9720371662
  0
LINE
  5
41D
100
AcDbEntity
  8
DRAFT
100
AcDbLine
 62
7
  6
CONTINUOUS
 10
8.009898014
 20
-13.4720371662
 11
8.009898014
 21
-18.1720371662
  0
LINE
  5
41E
100
AcDbEntity
  8
RACCORDO
100
AcDbLine
 62
7
  6
CONTINUOUS
 10
8.009898014
 20
-35.0720371662
 11
8.009898014
 21
-25.8720371662
  0
LINE
  5
41F
100
AcDbEntity
  8
RACCORDO
100
AcDbLine
 62
7
  6
CONTINUOUS
 10
8.009898014
 20
-21.1716052755
 11
8.009898014
 21
-18.1720371662
  0
LINE
  5
420
100
AcDbEntity
  8
DRAFT
100
AcDbLine
 62
7
  6
CONTINUOUS
 10
8.0482991568
 20
-18.1720371662
 11
8.0482991568
 21
-16.5720371662
  0
LINE
  5
421
100
AcDbEntity
  8
RACCORDO
100
AcDbLine
 62
253
  6
CONTINUOUS
 10
8.2950813776
 20
-21.7720371662
 11
8.2950813777
 21
-21.2720371662
  0
LINE
  5
422
100
AcDbEntity
  8
0
100
AcDbLine
 62
7
  6
CONTINUOUS
 10
9.3358188819
 20
-28.0358843265
 11
9.3358188819
 21
-29.3305637298
  0
LINE
  5
423
100
AcDbEntity
  8
0
100
AcDbLine
 62
7
  6
CONTINUOUS
 10
9.5718352746
 20
-29.3305637298
 11
9.5718352746
 21
-28.3510274349
  0
LINE
  5
424
100
AcDbEntity
  8
0
100
AcDbLine
 62
7
  6
CONTINUOUS
 10
10.4626947593
 20
-27.0658978878
 11
10.4626947593
 21
-27.8203319965
  0
LINE
  5
425
100
AcDbEntity
  8
RACCORDO
100
AcDbLine
 62
7
  6
CONTINUOUS
 10
10.559898014
 20
-43.1963232927
 11
10.559898014
 21
-41.4720371662
  0
LINE
  5
426
100
AcDbEntity
  8
0
100
AcDbLine
 62
7
  6
CONTINUOUS
 10
10.7096251797
 20
-27.8203319965
 11
10.7096251797
 21
-27.0658978878
  0
LINE
  5
427
100
AcDbEntity
  8
RACCORDO
100
AcDbLine
 62
7
  6
CONTINUOUS
 10
10.7169935983
 20
-41.6720371662
 11
10.7169935983
 21
-43.3534188771
  0
LINE
  5
428
100
AcDbEntity
  8
RACCORDO
100
AcDbLine
 62
7
  6
CONTINUOUS
 10
10.809898014
 20
-45.7720676271
 11
10.809898014
 21
-41.6720371662
  0
LINE
  5
429
100
AcDbEntity
  8
0
100
AcDbLine
 62
7
  6
CONTINUOUS
 10
11.0738816362
 20
-25.8720371662
 11
11.0738816362
 21
-26.5529374538
  0
LINE
  5
42A
100
AcDbEntity
  8
0
100
AcDbLine
 62
7
  6
CONTINUOUS
 10
11.0738816362
 20
-31.1641245542
 11
11.0738816362
 21
-32.1450249014
  0
LINE
  5
42B
100
AcDbEntity
  8
0
100
AcDbLine
 62
7
  6
CONTINUOUS
 10
11.309898014
 20
-32.4860890342
 11
11.309898014
 21
-31.1641245542
  0
LINE
  5
42C
100
AcDbEntity
  8
0
100
AcDbLine
 62
7
  6
CONTINUOUS
 10
11.309898014
 20
-29.0508911071
 11
11.309898014
 21
-28.7985038219
  0
LINE
  5
42D
100
AcDbEntity
  8
0
100
AcDbLine
 62
7
  6
CONTINUOUS
 10
11.309898014
 20
-26.8940019069
 11
11.309898014
 21
-25.8720371662
  0
LINE
  5
42E
100
AcDbEntity
  8
DRAFT
100
AcDbLine
 62
7
  6
CONTINUOUS
 10
11.559898014
 20
-25.8720371662
 11
11.559898014
 21
-35.0720371662
  0
LINE
  5
42F
100
AcDbEntity
  8
RACCORDO
100
AcDbLine
 62
253
  6
CONTINUOUS
 10
11.809898014
 20
-35.0720371662
 11
11.809898014
 21
-39.0720371662
  0
LWPOLYLINE
  5
430
100
AcDbEntity
  8
0
100
AcDbPolyline
 62
7
  6
CONTINUOUS
 90
10
 70
0
 10
9.5049866389
 20
-26.2036880908
 10
9.5067766265
 20
-26.164733667
 10
9.5109451329
 20
-26.1281932728
 10
9.5174921583
 20
-26.0940669084
 10
9.5264466481
 20
-26.0626435539
 10
9.5377796568
 20
-26.0336342291
 10
9.5514043479
 20
-26.0061719938
 10
9.5672917759
 20
-25.9799678679
 10
9.5854708865
 20
-25.9553108315
 10
9.6059416794
 20
-25.9322008846
  0
LWPOLYLINE
  5
431
100
AcDbEntity
  8
0
100
AcDbPolyline
 62
7
  6
CONTINUOUS
 90
10
 70
0
 10
9.5049866389
 20
-31.7957752405
 10
9.5067766367
 20
-31.7568208176
 10
9.5109451562
 20
-31.7202804215
 10
9.5174921973
 20
-31.6861540524
 10
9.5264467134
 20
-31.6547306783
 10
9.5377797512
 20
-31.625721331
 10
9.5514044512
 20
-31.5982591059
 10
9.5672918601
 20
-31.5720550346
 10
9.5854709312
 20
-31.5473980854
 10
9.6059416645
 20
-31.5242882583
  0
LWPOLYLINE
  5
432
100
AcDbEntity
  8
0
100
AcDbPolyline
 62
7
  6
CONTINUOUS
 90
10
 70
0
 10
9.5036224078
 20
-30.2091450153
 10
9.5052076944
 20
-30.1765931116
 10
9.509253911
 20
-30.1455703837
 10
9.5157610575
 20
-30.1160768318
 10
9.5246213662
 20
-30.0883667496
 10
9.5359426049
 20
-30.0621858434
 10
9.550048077
 20
-30.0367712314
 10
9.5670455502
 20
-30.0118686197
 10
9.5868272568
 20
-29.9877323023
 10
9.6093931967
 20
-29.9643622792
  0
LWPOLYLINE
  5
433
100
AcDbEntity
  8
0
100
AcDbPolyline
 62
7
  6
CONTINUOUS
 90
10
 70
0
 10
10.2294068288
 20
-30.2309731899
 10
10.2312629073
 20
-30.1934460738
 10
10.2359094254
 20
-30.15779505
 10
10.243346383
 20
-30.1240201186
 10
10.2534665918
 20
-30.0924214149
 10
10.2663772402
 20
-30.0626988034
 10
10.2823998932
 20
-30.0339518782
 10
10.3016417392
 20
-30.0058805037
 10
10.3239955899
 20
-29.9787848153
 10
10.3494614453
 20
-29.9526648132
  0
LINE
  5
434
100
AcDbEntity
  8
0
100
AcDbLine
 62
7
  6
CONTINUOUS
 10
33.6454836094
 20
6.3770148338
 11
37.7098594372
 21
6.3770148338
  0
LINE
  5
435
100
AcDbEntity
  8
ASSI
100
AcDbLine
 62
7
  6
CONTINUOUS
 10
32.442222014
 20
6.5770148338
 11
33.320004014
 21
6.5770148338
  0
LINE
  5
436
100
AcDbEntity
  8
ASSI
100
AcDbLine
 62
7
  6
CONTINUOUS
 10
38.035338014
 20
6.5770148338
 11
38.370124014
 21
6.5770148338
  0
LINE
  5
437
100
AcDbEntity
  8
ASSI
100
AcDbLine
 62
7
  6
CONTINUOUS
 10
33.282626014
 20
7.0042508338
 11
32.442222014
 21
7.0042508338
  0
LINE
  5
438
100
AcDbEntity
  8
ASSI
100
AcDbLine
 62
7
  6
CONTINUOUS
 10
34.097762014
 20
7.9121288338
 11
33.563716014
 21
7.9121288338
  0
LINE
  5
439
100
AcDbEntity
  8
ASSI
100
AcDbLine
 62
7
  6
CONTINUOUS
 10
36.661180014
 20
8.0723428338
 11
35.219258014
 21
8.0723428338
  0
LINE
  5
43A
100
AcDbEntity
  8
DRAFT
100
AcDbLine
 62
7
  6
CONTINUOUS
 10
23.809898014
 20
-35.0720371662
 11
23.7767359164
 21
-34.9720371662
  0
LWPOLYLINE
  5
43B
100
AcDbEntity
  8
0
100
AcDbPolyline
 62
7
  6
CONTINUOUS
 90
8
 70
0
 10
19.0373353341
 20
-35.0720371662
 10
19.03379475
 20
-35.0607250811
 10
19.0230862208
 20
-35.0346111929
 10
19.0103341548
 20
-35.0099468846
 10
18.9954818817
 20
-34.9867532568
 10
18.9785860718
 20
-34.9650092089
 10
18.9600719684
 20
-34.9453459177
 10
18.9596061254
 20
-34.9449428509
  0
LWPOLYLINE
  5
43C
100
AcDbEntity
  8
0
100
AcDbPolyline
 62
7
  6
CONTINUOUS
 90
33
 70
0
 10
19.4096776126
 20
-30.3864812921
 10
19.4041789679
 20
-30.3278390473
 10
19.3912505681
 20
-30.2691528834
 10
19.3704561294
 20
-30.2099385811
 10
19.3419290046
 20
-30.1516762092
 10
19.3074299625
 20
-30.0972965105
 10
19.2684873292
 20
-30.0475070638
 10
19.2249401971
 20
-30.0008232174
 10
19.1766373984
 20
-29.9563822882
 10
19.1238302786
 20
-29.9138745742
 10
19.0665586077
 20
-29.8729126773
 10
19.0041368247
 20
-29.832766917
 10
18.9363741149
 20
-29.7932011774
 10
18.8631851413
 20
-29.7540785136
 10
18.7839260517
 20
-29.7150121738
 10
18.6983156923
 20
-29.6758614936
 10
18.6062327688
 20
-29.636569437
 10
18.5073003428
 20
-29.5969768947
 10
18.4012920947
 20
-29.5570005955
 10
18.2881558553
 20
-29.5166208304
 10
18.1678997846
 20
-29.4758279248
 10
18.0404311173
 20
-29.4345688117
 10
17.9058367805
 20
-29.3928409684
 10
17.7645771455
 20
-29.3507387518
 10
17.6167040152
 20
-29.3082158041
 10
17.4625131217
 20
-29.2652872814
 10
17.3030482354
 20
-29.2221550348
 10
17.1386378319
 20
-29.1788045494
 10
16.9696766266
 20
-29.13523201
 10
16.7975058156
 20
-29.0916641569
 10
16.6226029387
 20
-29.0480944023
 10
16.4454653701
 20
-29.0045187419
 10
15.5615154895
 20
-28.7906087549
  0
LWPOLYLINE
  5
43D
100
AcDbEntity
  8
0
100
AcDbPolyline
 62
7
  6
CONTINUOUS
 90
38
 70
0
 10
19.4098980059
 20
-34.6149007202
 10
19.408160678
 20
-34.5832024283
 10
19.4037295751
 20
-34.5550938803
 10
19.3969270592
 20
-34.5282884858
 10
19.3880535843
 20
-34.5029275214
 10
19.3773569998
 20
-34.4790734232
 10
19.3650493708
 20
-34.4567776333
 10
19.3513797206
 20
-34.4361727634
 10
19.3366238207
 20
-34.4173863719
 10
19.3209229664
 20
-34.4003571548
 10
19.3045279404
 20
-34.3851290122
 10
19.2879542858
 20
-34.371835977
 10
19.2714288847
 20
-34.3603046376
 10
19.2551461523
 20
-34.3503707639
 10
19.2396099162
 20
-34.3420452956
 10
19.2251347248
 20
-34.335191207
 10
19.2116422848
 20
-34.3295116465
 10
19.1990228336
 20
-34.3247643456
 10
19.1873997375
 20
-34.3208337026
 10
19.176705304
 20
-34.3175592922
 10
19.1665192317
 20
-34.314718421
 10
19.1568080863
 20
-34.3122388872
 10
19.1475958915
 20
-34.3100728489
 10
19.1385500073
 20
-34.3081039717
 10
19.1296312857
 20
-34.3062995582
 10
19.1208620542
 20
-34.3046430432
 10
19.1120066731
 20
-34.3030751484
 10
19.1030191969
 20
-34.3015791585
 10
19.0939210962
 20
-34.3001510824
 10
19.0845781633
 20
-34.298764343
 10
19.0749596102
 20
-34.2974112124
 10
19.0650698153
 20
-34.2960895292
 10
19.0548282934
 20
-34.2947865894
 10
19.0442124131
 20
-34.2934985238
 10
19.0332183985
 20
-34.2922240326
 10
19.0217955562
 20
-34.2909567463
 10
19.0099283181
 20
-34.2896948332
 10
18.9847911236
 20
-34.2871799139
  0
LINE
  5
43E
100
AcDbEntity
  8
RACCORDO
100
AcDbLine
 62
253
  6
CONTINUOUS
 10
12.0869959202
 20
-34.9720371662
 11
12.0869959202
 21
-25.9720371662
  0
LINE
  5
43F
100
AcDbEntity
  8
CURVE
100
AcDbLine
 62
7
  6
CONTINUOUS
 10
12.209898014
 20
-25.8720371662
 11
12.209898014
 21
-27.4720371662
  0
LINE
  5
440
100
AcDbEntity
  8
RACCORDO
100
AcDbLine
 62
253
  6
CONTINUOUS
 10
12.305990161
 20
-34.6935202203
 11
12.305990161
 21
-33.1933029391
  0
LINE
  5
441
100
AcDbEntity
  8
RACCORDO
100
AcDbLine
 62
253
  6
CONTINUOUS
 10
12.305990161
 20
-32.6079925799
 11
12.305990161
 21
-28.1932631804
  0
LINE
  5
442
100
AcDbEntity
  8
RACCORDO
100
AcDbLine
 62
253
  6
CONTINUOUS
 10
12.305990161
 20
-27.6079850242
 11
12.305990161
 21
-25.9742960569
  0
LINE
  5
443
100
AcDbEntity
  8
RACCORDO
100
AcDbLine
 62
7
  6
CONTINUOUS
 10
12.309898014
 20
-37.9997837059
 11
12.309898014
 21
-35.5720371662
  0
LINE
  5
444
100
AcDbEntity
  8
DRAFT
100
AcDbLine
 62
7
  6
CONTINUOUS
 10
12.659898014
 20
-41.6720371662
 11
12.659898014
 21
-43.4720371662
  0
LINE
  5
445
100
AcDbEntity
  8
DRAFT
100
AcDbLine
 62
7
  6
CONTINUOUS
 10
13.059898014
 20
-34.5587023854
 11
13.059898014
 21
-33.8720371662
  0
LINE
  5
446
100
AcDbEntity
  8
DRAFT
100
AcDbLine
 62
7
  6
CONTINUOUS
 10
13.059898014
 20
-26.8720371662
 11
13.059898014
 21
-25.8720371662
  0
LWPOLYLINE
  5
447
100
AcDbEntity
  8
0
100
AcDbPolyline
 62
7
  6
CONTINUOUS
 90
10
 70
0
 10
11.1420944732
 20
-30.2214233337
 10
11.1413334109
 20
-30.2453956313
 10
11.1391375721
 20
-30.2689562198
 10
11.135506957
 20
-30.2921050993
 10
11.1304866527
 20
-30.3147482374
 10
11.124031572
 20
-30.3369796665
 10
11.1160064531
 20
-30.3590814834
 10
11.1063662087
 20
-30.3811477206
 10
11.095155926
 20
-30.4030843455
 10
11.0823756052
 20
-30.4248913584
  0
LINE
  5
448
100
AcDbEntity
  8
0
100
AcDbLine
 62
7
  6
CONTINUOUS
 10
9.8801572274
 20
-26.8476170955
 11
9.9060780954
 21
-26.5952295719
  0
LINE
  5
449
100
AcDbEntity
  8
0
100
AcDbLine
 62
7
  6
CONTINUOUS
 10
9.8801572274
 20
-32.4397043196
 11
9.9060780954
 21
-32.1873168705
  0
LINE
  5
44A
100
AcDbEntity
  8
RACCORDO
100
AcDbLine
 62
253
  6
CONTINUOUS
 10
7.2950432996
 20
-17.0681923397
 11
7.3431172248
 21
-16.9720371662
  0
LINE
  5
44B
100
AcDbEntity
  8
RACCORDO
100
AcDbLine
 62
253
  6
CONTINUOUS
 10
7.7950242611
 20
-17.5681161873
 11
7.8430601116
 21
-17.4720371691
  0
LINE
  5
44C
100
AcDbEntity
  8
0
100
AcDbLine
 62
7
  6
CONTINUOUS
 10
30.6010199602
 20
7.6929527801
 11
30.893490014
 21
7.9854228338
  0
LINE
  5
44D
100
AcDbEntity
  8
RACCORDO
100
AcDbLine
 62
253
  6
CONTINUOUS
 10
69.6099741664
 20
46.0279628338
 11
69.3427593566
 21
45.760748024
  0
LINE
  5
44E
100
AcDbEntity
  8
RACCORDO
100
AcDbLine
 62
253
  6
CONTINUOUS
 10
70.109898014
 20
45.5280389863
 11
69.8426832041
 21
45.2608241764
  0
LINE
  5
44F
100
AcDbEntity
  8
DRAFT
100
AcDbLine
 62
7
  6
CONTINUOUS
 10
67.8243747096
 20
14.747161943
 11
58.4290971231
 21
14.747161943
  0
LINE
  5
450
100
AcDbEntity
  8
DRAFT
100
AcDbLine
 62
7
  6
CONTINUOUS
 10
-58.2093010951
 20
14.747161943
 11
-67.6045786817
 21
14.747161943
  0
LINE
  5
451
100
AcDbEntity
  8
RACCORDO
100
AcDbLine
 62
7
  6
CONTINUOUS
 10
-58.9921948422
 20
15.0279628338
 11
-66.7880091298
 21
15.0279628338
  0
LINE
  5
452
100
AcDbEntity
  8
RACCORDO
100
AcDbLine
 62
7
  6
CONTINUOUS
 10
59.2119908702
 20
15.0279628338
 11
67.0078051578
 21
15.0279628338
  0
LINE
  5
453
100
AcDbEntity
  8
RACCORDO
100
AcDbLine
 62
253
  6
CONTINUOUS
 10
-67.290101986
 20
15.5299792188
 11
-67.2555014473
 21
15.5299792188
  0
LINE
  5
454
100
AcDbEntity
  8
RACCORDO
100
AcDbLine
 62
253
  6
CONTINUOUS
 10
-58.5247025247
 20
15.5299792188
 11
-58.490101986
 21
15.5299792188
  0
LINE
  5
455
100
AcDbEntity
  8
RACCORDO
100
AcDbLine
 62
253
  6
CONTINUOUS
 10
58.709898014
 20
15.5299792188
 11
58.7444985527
 21
15.5299792188
  0
LINE
  5
456
100
AcDbEntity
  8
RACCORDO
100
AcDbLine
 62
253
  6
CONTINUOUS
 10
67.4752974753
 20
15.5299792188
 11
67.509898014
 21
15.5299792188
  0
LINE
  5
457
100
AcDbEntity
  8
RACCORDO
100
AcDbLine
 62
253
  6
CONTINUOUS
 10
66.965561407
 20
15.796890403
 11
59.254234621
 21
15.796890403
  0
LINE
  5
458
100
AcDbEntity
  8
RACCORDO
100
AcDbLine
 62
253
  6
CONTINUOUS
 10
-59.034438593
 20
15.796890403
 11
-66.745765379
 21
15.796890403
  0
LINE
  5
459
100
AcDbEntity
  8
RACCORDO
100
AcDbLine
 62
253
  6
CONTINUOUS
 10
-66.7992611323
 20
15.0298752927
 11
-66.7555775997
 21
15.0279628338
  0
LINE
  5
45A
100
AcDbEntity
  8
RACCORDO
100
AcDbLine
 62
253
  6
CONTINUOUS
 10
23.7767359164
 20
-17.4720371691
 11
23.8247717669
 21
-17.5681161873
  0
LINE
  5
45B
100
AcDbEntity
  8
RACCORDO
100
AcDbLine
 62
253
  6
CONTINUOUS
 10
24.2766788032
 20
-16.9720371662
 11
24.3247527284
 21
-17.0681923397
  0
LINE
  5
45C
100
AcDbEntity
  8
0
100
AcDbLine
 62
7
  6
CONTINUOUS
 10
19.4098940576
 20
-30.4017887317
 11
19.4096776126
 21
-30.3864812921
  0
LINE
  5
45D
100
AcDbEntity
  8
DRAFT
100
AcDbLine
 62
7
  6
CONTINUOUS
 10
18.559898014
 20
-26.1832003374
 11
18.559898014
 21
-26.8720371662
  0
LINE
  5
45E
100
AcDbEntity
  8
DRAFT
100
AcDbLine
 62
7
  6
CONTINUOUS
 10
18.559898014
 20
-33.8720371662
 11
18.559898014
 21
-34.3705445515
  0
LINE
  5
45F
100
AcDbEntity
  8
DRAFT
100
AcDbLine
 62
7
  6
CONTINUOUS
 10
18.559898014
 20
-34.9710874085
 11
18.559898014
 21
-35.0720371662
  0
LINE
  5
460
100
AcDbEntity
  8
DRAFT
100
AcDbLine
 62
7
  6
CONTINUOUS
 10
18.959898014
 20
-43.4720371662
 11
18.959898014
 21
-41.6720371662
  0
LINE
  5
461
100
AcDbEntity
  8
RACCORDO
100
AcDbLine
 62
7
  6
CONTINUOUS
 10
19.309898014
 20
-35.5720371662
 11
19.309898014
 21
-37.9997837059
  0
LINE
  5
462
100
AcDbEntity
  8
RACCORDO
100
AcDbLine
 62
253
  6
CONTINUOUS
 10
19.313805867
 20
-34.9697782754
 11
19.313805867
 21
-34.8363171477
  0
LINE
  5
463
100
AcDbEntity
  8
RACCORDO
100
AcDbLine
 62
253
  6
CONTINUOUS
 10
19.313805867
 20
-34.3937466008
 11
19.313805867
 21
-30.6936971824
  0
LINE
  5
464
100
AcDbEntity
  8
RACCORDO
100
AcDbLine
 62
253
  6
CONTINUOUS
 10
19.313805867
 20
-30.1073466378
 11
19.313805867
 21
-25.9742960569
  0
LINE
  5
465
100
AcDbEntity
  8
CURVE
100
AcDbLine
 62
252
  6
CONTINUOUS
 10
19.409898014
 20
-25.8720371662
 11
19.409898014
 21
-31.4720371662
  0
LINE
  5
466
100
AcDbEntity
  8
RACCORDO
100
AcDbLine
 62
253
  6
CONTINUOUS
 10
19.5328001078
 20
-34.9720371662
 11
19.5328001078
 21
-25.9720371662
  0
LINE
  5
467
100
AcDbEntity
  8
RACCORDO
100
AcDbLine
 62
253
  6
CONTINUOUS
 10
19.809898014
 20
-35.0720371662
 11
19.809898014
 21
-39.0720371662
  0
LINE
  5
468
100
AcDbEntity
  8
DRAFT
100
AcDbLine
 62
7
  6
CONTINUOUS
 10
20.059898014
 20
-35.0720371662
 11
20.059898014
 21
-25.8720371662
  0
LINE
  5
469
100
AcDbEntity
  8
RACCORDO
100
AcDbLine
 62
7
  6
CONTINUOUS
 10
20.809898014
 20
-45.7720676271
 11
20.809898014
 21
-41.6720371662
  0
LINE
  5
46A
100
AcDbEntity
  8
RACCORDO
100
AcDbLine
 62
7
  6
CONTINUOUS
 10
20.9028024296
 20
-43.3534188771
 11
20.9028024296
 21
-41.6720371662
  0
LINE
  5
46B
100
AcDbEntity
  8
RACCORDO
100
AcDbLine
 62
7
  6
CONTINUOUS
 10
21.059898014
 20
-41.4720371662
 11
21.059898014
 21
-43.1963232927
  0
LINE
  5
46C
100
AcDbEntity
  8
0
100
AcDbLine
 62
7
  6
CONTINUOUS
 10
19.4095529578
 20
-30.4183398319
 11
19.4098757056
 21
-30.4004908456
  0
LINE
  5
46D
100
AcDbEntity
  8
DRAFT
100
AcDbLine
 62
7
  6
CONTINUOUS
 10
7.809898014
 20
-35.0720371662
 11
7.8430601116
 21
-34.9720371662
  0
LWPOLYLINE
  5
46E
100
AcDbEntity
  8
0
100
AcDbPolyline
 62
7
  6
CONTINUOUS
 90
6
 70
0
 10
12.8058766678
 20
-27.9253144606
 10
12.8056230173
 20
-27.9260470141
 10
12.8040281976
 20
-27.9301783192
 10
12.8045202772
 20
-27.9298189221
 10
12.8096499243
 20
-27.9231891123
 10
12.8218097406
 20
-27.9099031508
  0
LWPOLYLINE
  5
46F
100
AcDbEntity
  8
0
100
AcDbPolyline
 62
7
  6
CONTINUOUS
 90
28
 70
0
 10
12.8058641816
 20
-32.9253519981
 10
12.8056104969
 20
-32.9260832488
 10
12.8040227788
 20
-32.9301917003
 10
12.804533648
 20
-32.9298006005
 10
12.8096847654
 20
-32.9231478765
 10
12.8218592797
 20
-32.9098538787
 10
12.8415754916
 20
-32.8915693663
 10
12.8686049079
 20
-32.8698827917
 10
12.9033553498
 20
-32.8453206263
 10
12.9465578991
 20
-32.8180461835
 10
12.9981020965
 20
-32.7886526986
 10
13.0583726783
 20
-32.7573072455
 10
13.1275590657
 20
-32.7242268461
 10
13.2051184484
 20
-32.6898836522
 10
13.2910800041
 20
-32.6543965561
 10
13.3855202114
 20
-32.6178344513
 10
13.4878311964
 20
-32.5804874095
 10
13.5978876468
 20
-32.5424154763
 10
13.7155958495
 20
-32.5036493768
 10
13.8402910761
 20
-32.4643817965
 10
13.9717159751
 20
-32.4246454895
 10
14.1096364175
 20
-32.3844540065
 10
14.2533356732
 20
-32.3439450722
 10
14.4024503337
 20
-32.3031375467
 10
14.5566346705
 20
-32.2620373389
 10
14.7151340486
 20
-32.2207490277
 10
14.8775029384
 20
-32.179285206
 10
15.0433220851
 20
-32.1376467466
  0
LWPOLYLINE
  5
470
100
AcDbEntity
  8
0
100
AcDbPolyline
 62
7
  6
CONTINUOUS
 90
7
 70
0
 10
9.371104944
 20
-25.8720371662
 10
9.3559754695
 20
-25.9034668682
 10
9.3374362834
 20
-25.9520989987
 10
9.3226800933
 20
-26.0057416772
 10
9.3119078626
 20
-26.0648941333
 10
9.3049186278
 20
-26.1290571374
 10
9.3017123889
 20
-26.1982306896
  0
LINE
  5
471
100
AcDbEntity
  8
0
100
AcDbLine
 62
7
  6
CONTINUOUS
 10
35.4074272496
 20
2.8865422393
 11
34.0680391931
 21
1.5471557912
  0
LINE
  5
472
100
AcDbEntity
  8
ASSI
100
AcDbLine
 62
7
  6
CONTINUOUS
 10
33.784838014
 20
1.2639528338
 11
30.742438014
 21
-1.7784451662
  0
LINE
  5
473
100
AcDbEntity
  8
0
100
AcDbLine
 62
7
  6
CONTINUOUS
 10
37.569056014
 20
5.0481728338
 11
37.4978980901
 21
4.9770148338
  0
LINE
  5
474
100
AcDbEntity
  8
ASSI
100
AcDbLine
 62
7
  6
CONTINUOUS
 10
40.506306014
 20
7.9854228338
 11
38.670664014
 21
6.1497788338
  0
LINE
  5
475
100
AcDbEntity
  8
RACCORDO
100
AcDbLine
 62
253
  6
CONTINUOUS
 10
-66.7201606751
 20
18.9709871511
 11
-59.0600432969
 21
18.9709871511
  0
LINE
  5
476
100
AcDbEntity
  8
RACCORDO
100
AcDbLine
 62
253
  6
CONTINUOUS
 10
59.2798393249
 20
18.9709871511
 11
66.9399567031
 21
18.9709871511
  0
LINE
  5
477
100
AcDbEntity
  8
RACCORDO
100
AcDbLine
 62
7
  6
CONTINUOUS
 10
-69.2191185021
 20
19.0279628338
 11
-67.6045786817
 21
19.0279628338
  0
LINE
  5
478
100
AcDbEntity
  8
DRAFT
100
AcDbLine
 62
7
  6
CONTINUOUS
 10
-58.2093010951
 20
19.0279628338
 11
58.4290971231
 21
19.0279628338
  0
LINE
  5
479
100
AcDbEntity
  8
RACCORDO
100
AcDbLine
 62
7
  6
CONTINUOUS
 10
67.8243747096
 20
19.0279628338
 11
69.4389145301
 21
19.0279628338
  0
LINE
  5
47A
100
AcDbEntity
  8
DRAFT
100
AcDbLine
 62
7
  6
CONTINUOUS
 10
67.8217566493
 20
19.0331993533
 11
67.509898014
 21
19.0331993533
  0
LINE
  5
47B
100
AcDbEntity
  8
DRAFT
100
AcDbLine
 62
7
  6
CONTINUOUS
 10
58.709898014
 20
19.0331993533
 11
58.4317151835
 21
19.0331993533
  0
LINE
  5
47C
100
AcDbEntity
  8
DRAFT
100
AcDbLine
 62
7
  6
CONTINUOUS
 10
-58.2119191555
 20
19.0331993533
 11
-58.490101986
 21
19.0331993533
  0
LINE
  5
47D
100
AcDbEntity
  8
DRAFT
100
AcDbLine
 62
7
  6
CONTINUOUS
 10
-67.290101986
 20
19.0331993533
 11
-67.6019606213
 21
19.0331993533
  0
LINE
  5
47E
100
AcDbEntity
  8
RACCORDO
100
AcDbLine
 62
253
  6
CONTINUOUS
 10
-66.8347936682
 20
19.0865233665
 11
-58.9454103038
 21
19.0865233665
  0
LINE
  5
47F
100
AcDbEntity
  8
RACCORDO
100
AcDbLine
 62
253
  6
CONTINUOUS
 10
59.1652063318
 20
19.0865233665
 11
67.0545896962
 21
19.0865233665
  0
LINE
  5
480
100
AcDbEntity
  8
RACCORDO
100
AcDbLine
 62
253
  6
CONTINUOUS
 10
-69.1229633286
 20
19.1241180074
 11
-67.2199370113
 21
19.1241180074
  0
LINE
  5
481
100
AcDbEntity
  8
RACCORDO
100
AcDbLine
 62
253
  6
CONTINUOUS
 10
69.3427593566
 20
19.1241180074
 11
67.4397330393
 21
19.1241180074
  0
LINE
  5
482
100
AcDbEntity
  8
RACCORDO
100
AcDbLine
 62
253
  6
CONTINUOUS
 10
58.7800629887
 20
19.1241180074
 11
-58.5602669607
 21
19.1241180074
  0
LINE
  5
483
100
AcDbEntity
  8
RACCORDO
100
AcDbLine
 62
253
  6
CONTINUOUS
 10
-69.6228871762
 20
19.624041855
 11
-67.059784177
 21
19.624041855
  0
LINE
  5
484
100
AcDbEntity
  8
RACCORDO
100
AcDbLine
 62
253
  6
CONTINUOUS
 10
-58.720419795
 20
19.624041855
 11
58.940215823
 21
19.624041855
  0
LINE
  5
485
100
AcDbEntity
  8
RACCORDO
100
AcDbLine
 62
253
  6
CONTINUOUS
 10
67.279580205
 20
19.624041855
 11
69.8426832041
 21
19.624041855
  0
LINE
  5
486
100
AcDbEntity
  8
RACCORDO
100
AcDbLine
 62
253
  6
CONTINUOUS
 10
69.3427593566
 20
-43.7048223563
 11
69.6099741664
 21
-43.9720371662
  0
LINE
  5
487
100
AcDbEntity
  8
RACCORDO
100
AcDbLine
 62
253
  6
CONTINUOUS
 10
69.8426832041
 20
-43.2048985087
 11
70.109898014
 21
-43.4721133186
  0
LINE
  5
488
100
AcDbEntity
  8
0
100
AcDbLine
 62
7
  6
CONTINUOUS
 10
31.0349113702
 20
-2.0709185224
 11
30.742438014
 21
-1.7784451662
  0
LINE
  5
489
100
AcDbEntity
  8
RACCORDO
100
AcDbLine
 62
253
  6
CONTINUOUS
 10
23.32471465
 20
-21.2720371662
 11
23.32471465
 21
-21.7720371662
  0
LINE
  5
48A
100
AcDbEntity
  8
DRAFT
100
AcDbLine
 62
7
  6
CONTINUOUS
 10
23.5714968711
 20
-18.1720371662
 11
23.5714968711
 21
-16.5720371662
  0
LINE
  5
48B
100
AcDbEntity
  8
DRAFT
100
AcDbLine
 62
7
  6
CONTINUOUS
 10
23.609898014
 20
-13.4720371662
 11
23.609898014
 21
-18.1720371662
  0
LINE
  5
48C
100
AcDbEntity
  8
RACCORDO
100
AcDbLine
 62
7
  6
CONTINUOUS
 10
23.609898014
 20
-35.0720371662
 11
23.609898014
 21
-25.8720371662
  0
LINE
  5
48D
100
AcDbEntity
  8
RACCORDO
100
AcDbLine
 62
7
  6
CONTINUOUS
 10
23.609898014
 20
-21.1716052755
 11
23.609898014
 21
-18.1720371662
  0
LINE
  5
48E
100
AcDbEntity
  8
RACCORDO
100
AcDbLine
 62
7
  6
CONTINUOUS
 10
23.7767359164
 20
-17.4720371691
 11
23.7767359164
 21
-20.9506219011
  0
LINE
  5
48F
100
AcDbEntity
  8
DRAFT
100
AcDbLine
 62
7
  6
CONTINUOUS
 10
23.7767359164
 20
-25.9720371662
 11
23.7767359164
 21
-34.9720371662
  0
LINE
  5
490
100
AcDbEntity
  8
DRAFT
100
AcDbLine
 62
7
  6
CONTINUOUS
 10
23.809898014
 20
-25.9057079194
 11
23.809898014
 21
-25.8720371662
  0
LINE
  5
491
100
AcDbEntity
  8
RACCORDO
100
AcDbLine
 62
7
  6
CONTINUOUS
 10
23.8247717669
 20
-17.5681161873
 11
23.8247717669
 21
-20.7720371662
  0
LINE
  5
492
100
AcDbEntity
  8
RACCORDO
100
AcDbLine
 62
7
  6
CONTINUOUS
 10
23.8247717669
 20
-25.8720371662
 11
23.8247717669
 21
-35.0720371662
  0
LINE
  5
493
100
AcDbEntity
  8
RACCORDO
100
AcDbLine
 62
253
  6
CONTINUOUS
 10
24.3247527284
 20
-20.7720371662
 11
24.3247527284
 21
-17.0681923397
  0
LINE
  5
494
100
AcDbEntity
  8
RACCORDO
100
AcDbLine
 62
253
  6
CONTINUOUS
 10
24.3247527284
 20
-25.3720371662
 11
24.3247527284
 21
-35.5720371662
  0
LINE
  5
495
100
AcDbEntity
  8
RACCORDO
100
AcDbLine
 62
7
  6
CONTINUOUS
 10
23.5714968711
 20
-16.5720371662
 11
23.5968225475
 21
-13.7488774229
  0
LWPOLYLINE
  5
496
100
AcDbEntity
  8
RACCORDO
100
AcDbPolyline
 62
253
  6
CONTINUOUS
 90
28
 70
0
 10
24.3247527284
 20
-20.7720371662
 10
24.3231931972
 20
-20.8292158205
 10
24.318289916
 20
-20.8861770306
 10
24.3100428847
 20
-20.9429207966
 10
24.2984194843
 20
-20.9997273662
 10
24.2834523338
 20
-21.0563164917
 10
24.2652392905
 20
-21.1118474295
 10
24.243695091
 20
-21.1662907586
 10
24.2189049987
 20
-21.2196759
 10
24.1912226603
 20
-21.2712503734
 10
24.1606316629
 20
-21.3209150764
 10
24.1271484194
 20
-21.3687691113
 10
24.0911758159
 20
-21.4143573046
 10
24.0527518614
 20
-21.457614467
 10
24.011838547
 20
-21.4986057879
 10
23.9687247322
 20
-21.5370716612
 10
23.923396871
 20
-21.5730297077
 10
23.8758685094
 20
-21.6064623066
 10
23.8264691442
 20
-21.6370569908
 10
23.7750825379
 20
-21.6648360644
 10
23.721824928
 20
-21.6897772232
 10
23.6673745241
 20
-21.7115010876
 10
23.6116709215
 20
-21.7299362041
 10
23.5547745249
 20
-21.7451540262
 10
23.4975447571
 20
-21.7569895354
 10
23.4402680926
 20
-21.7653877253
 10
23.3826580569
 20
-21.7704036022
 10
23.32471465
 20
-21.7720371662
  0
LWPOLYLINE
  5
497
100
AcDbEntity
  8
RACCORDO
100
AcDbPolyline
 62
7
  6
CONTINUOUS
 90
28
 70
0
 10
23.8247717669
 20
-20.7720371662
 10
23.8239621422
 20
-20.8004780022
 10
23.8215155182
 20
-20.8290045175
 10
23.8174093245
 20
-20.8575205451
 10
23.8116172876
 20
-20.8859668468
 10
23.8041330881
 20
-20.9142006602
 10
23.7949937398
 20
-20.9420021527
 10
23.7842214368
 20
-20.9692724138
 10
23.7718438599
 20
-20.9959146611
 10
23.7579551381
 20
-21.0217280847
 10
23.7426338842
 20
-21.0465975643
 10
23.7259249847
 20
-21.0704781722
 10
23.7078988067
 20
-21.0932900925
 10
23.6886502059
 20
-21.1149382742
 10
23.6682320108
 20
-21.1353865531
 10
23.6466454694
 20
-21.1546390777
 10
23.6239513205
 20
-21.172634061
 10
23.6002302469
 20
-21.1893002658
 10
23.5755005353
 20
-21.2046117925
 10
23.5497901587
 20
-21.2185263479
 10
23.5232228838
 20
-21.2309527149
 10
23.4959673978
 20
-21.2418022098
 10
23.4681035825
 20
-21.2510406233
 10
23.4397401093
 20
-21.2586295669
 10
23.4111047412
 20
-21.2645191015
 10
23.3823435905
 20
-21.2687057337
 10
23.3535140834
 20
-21.2712072609
 10
23.32471465
 20
-21.2720371662
  0
LWPOLYLINE
  5
498
100
AcDbEntity
  8
0
100
AcDbPolyline
 62
7
  6
CONTINUOUS
 90
6
 70
0
 10
18.8144601411
 20
-30.3743706632
 10
18.814719708
 20
-30.3736785703
 10
18.8161830877
 20
-30.370189537
 10
18.815589858
 20
-30.3709249474
 10
18.8111334142
 20
-30.3768247424
 10
18.8010180252
 20
-30.388201537
  0
LWPOLYLINE
  5
499
100
AcDbEntity
  8
0
100
AcDbPolyline
 62
7
  6
CONTINUOUS
 90
10
 70
0
 10
11.0823756052
 20
-30.4248913584
 10
11.0683559074
 20
-30.4456454609
 10
11.0530236611
 20
-30.4653769697
 10
11.0363788664
 20
-30.4840858849
 10
11.0185738603
 20
-30.5017157654
 10
10.9994563058
 20
-30.5183230522
 10
10.9785691916
 20
-30.5340770688
 10
10.9557601805
 20
-30.5490342565
 10
10.9311816096
 20
-30.563138174
 10
10.904833479
 20
-30.5763888213
  0
LWPOLYLINE
  5
49A
100
AcDbEntity
  8
0
100
AcDbPolyline
 62
7
  6
CONTINUOUS
 90
10
 70
0
 10
9.4344335617
 20
-29.8083907731
 10
9.4078163869
 20
-29.8413037315
 10
9.3841099256
 20
-29.8764165278
 10
9.3633141776
 20
-29.913729162
 10
9.3453533015
 20
-29.9528587943
 10
9.3303031388
 20
-29.9941882645
 10
9.3183912137
 20
-30.0388660917
 10
9.3096933678
 20
-30.0872751157
 10
9.3041337595
 20
-30.1390324967
 10
9.3017123889
 20
-30.1941382347
  0
LWPOLYLINE
  5
49B
100
AcDbEntity
  8
0
100
AcDbPolyline
 62
7
  6
CONTINUOUS
 90
10
 70
0
 10
9.4613305267
 20
-31.3346565409
 10
9.4302718265
 20
-31.3697365117
 10
9.4023932442
 20
-31.4083293326
 10
9.3776947795
 20
-31.4504350034
 10
9.3559754725
 20
-31.4955542879
 10
9.3374362832
 20
-31.5441864224
 10
9.3226800921
 20
-31.5978291156
 10
9.3119078594
 20
-31.6569816038
 10
9.3049186251
 20
-31.7211446507
 10
9.3017123889
 20
-31.7903182564
  0
LWPOLYLINE
  5
49C
100
AcDbEntity
  8
0
100
AcDbPolyline
 62
7
  6
CONTINUOUS
 90
10
 70
0
 10
10.1939362097
 20
-29.764397314
 10
10.154743915
 20
-29.8056522891
 10
10.1204878601
 20
-29.8478742646
 10
10.091168045
 20
-29.8910632404
 10
10.0670222489
 20
-29.9347986309
 10
10.0478126926
 20
-29.9795010218
 10
10.0328260382
 20
-30.02643217
 10
10.0218245064
 20
-30.0760126614
 10
10.0150458765
 20
-30.1278219101
 10
10.0124901485
 20
-30.1818599163
  0
LINE
  5
49D
100
AcDbEntity
  8
RACCORDO
100
AcDbLine
 62
7
  6
CONTINUOUS
 10
58.7800629887
 20
19.1241180074
 11
58.709898014
 21
19.0522990371
  0
LINE
  5
49E
100
AcDbEntity
  8
0
100
AcDbLine
 62
7
  6
CONTINUOUS
 10
31.0349113702
 20
-2.0709185224
 11
33.8318968482
 21
0.7260650635
  0
LINE
  5
49F
100
AcDbEntity
  8
0
100
AcDbLine
 62
7
  6
CONTINUOUS
 10
34.1150981752
 20
1.009266199
 11
35.6999011697
 21
2.5940681214
  0
LINE
  5
4A0
100
AcDbEntity
  8
0
100
AcDbLine
 62
7
  6
CONTINUOUS
 10
35.992372047
 20
2.8865388008
 11
37.5398707375
 21
4.4340364445
  0
LINE
  5
4A1
100
AcDbEntity
  8
0
100
AcDbLine
 62
7
  6
CONTINUOUS
 10
37.8773806989
 20
4.7715461775
 11
38.0807134927
 21
4.9748788338
  0
LINE
  5
4A2
100
AcDbEntity
  8
0
100
AcDbLine
 62
7
  6
CONTINUOUS
 10
38.850766014
 20
5.7449308342
 11
40.7987826727
 21
7.6929461751
  0
LINE
  5
4A3
100
AcDbEntity
  8
RACCORDO
100
AcDbLine
 62
7
  6
CONTINUOUS
 10
23.6044326413
 20
-13.4775025388
 11
23.609898014
 21
-13.4720371662
  0
LWPOLYLINE
  5
4A4
100
AcDbEntity
  8
0
100
AcDbPolyline
 62
7
  6
CONTINUOUS
 90
5
 70
0
 10
9.6059416794
 20
-25.9322008846
 10
9.6297222583
 20
-25.9097123376
 10
9.654190512
 20
-25.8900137112
 10
9.6793464407
 20
-25.8731050056
 10
9.6812978602
 20
-25.8720371662
  0
LINE
  5
4A5
100
AcDbEntity
  8
0
100
AcDbLine
 62
7
  6
CONTINUOUS
 10
32.109898014
 20
24.0279628338
 11
34.609898014
 21
24.0279628338
  0
LINE
  5
4A6
100
AcDbEntity
  8
0
100
AcDbLine
 62
7
  6
CONTINUOUS
 10
37.109898014
 20
24.0279628338
 11
39.609898014
 21
24.0279628338
  0
LINE
  5
4A7
100
AcDbEntity
  8
0
100
AcDbLine
 62
7
  6
CONTINUOUS
 10
42.109898014
 20
24.0279628338
 11
44.609898014
 21
24.0279628338
  0
LINE
  5
4A8
100
AcDbEntity
  8
0
100
AcDbLine
 62
7
  6
CONTINUOUS
 10
47.109898014
 20
24.0279628338
 11
49.609898014
 21
24.0279628338
  0
LINE
  5
4A9
100
AcDbEntity
  8
0
100
AcDbLine
 62
7
  6
CONTINUOUS
 10
52.109898014
 20
24.0279628338
 11
54.609898014
 21
24.0279628338
  0
LINE
  5
4AA
100
AcDbEntity
  8
IMPORT_IGES
100
AcDbLine
 62
7
  6
CONTINUOUS
 10
54.259898014
 20
24.1029628339
 11
54.609898014
 21
24.1029628339
  0
LINE
  5
4AB
100
AcDbEntity
  8
IMPORT_IGES
100
AcDbLine
 62
7
  6
CONTINUOUS
 10
52.109898014
 20
24.1279628339
 11
54.259898014
 21
24.1279628339
  0
LINE
  5
4AC
100
AcDbEntity
  8
IMPORT_IGES
100
AcDbLine
 62
7
  6
CONTINUOUS
 10
54.259898014
 20
25.9279628338
 11
52.109898014
 21
25.9279628338
  0
LINE
  5
4AD
100
AcDbEntity
  8
IMPORT_IGES
100
AcDbLine
 62
7
  6
CONTINUOUS
 10
54.609898014
 20
25.9529628338
 11
54.259898014
 21
25.9529628338
  0
LINE
  5
4AE
100
AcDbEntity
  8
0
100
AcDbLine
 62
7
  6
CONTINUOUS
 10
30.6010199602
 20
7.6929527801
 11
33.4736998717
 21
4.8202709254
  0
LINE
  5
4AF
100
AcDbEntity
  8
0
100
AcDbLine
 62
7
  6
CONTINUOUS
 10
33.8112083233
 20
4.4827622454
 11
35.4074272496
 21
2.8865422393
  0
LINE
  5
4B0
100
AcDbEntity
  8
0
100
AcDbLine
 62
7
  6
CONTINUOUS
 10
35.6999011697
 20
2.5940681214
 11
37.243818784
 21
1.0501494626
  0
LINE
  5
4B1
100
AcDbEntity
  8
0
100
AcDbLine
 62
7
  6
CONTINUOUS
 10
37.5270235088
 20
0.7669445463
 11
40.3648846578
 21
-2.0709185224
  0
LINE
  5
4B2
100
AcDbEntity
  8
ASSI
100
AcDbLine
 62
7
  6
CONTINUOUS
 10
40.657358014
 20
-1.7784451662
 11
37.574082014
 21
1.3048288338
  0
LINE
  5
4B3
100
AcDbEntity
  8
0
100
AcDbLine
 62
7
  6
CONTINUOUS
 10
37.290877554
 20
1.5880332939
 11
35.992372047
 21
2.8865388008
  0
LINE
  5
4B4
100
AcDbEntity
  8
0
100
AcDbLine
 62
7
  6
CONTINUOUS
 10
33.901896014
 20
4.9770148338
 11
33.755126462
 21
5.1237843858
  0
LINE
  5
4B5
100
AcDbEntity
  8
ASSI
100
AcDbLine
 62
7
  6
CONTINUOUS
 10
33.417618014
 20
5.4612948338
 11
30.893490014
 21
7.9854228338
  0
LINE
  5
4B6
100
AcDbEntity
  8
0
100
AcDbLine
 62
7
  6
CONTINUOUS
 10
33.4736998717
 20
4.8202709254
 11
33.784838014
 21
1.2639528338
  0
LINE
  5
4B7
100
AcDbEntity
  8
ASSI
100
AcDbLine
 62
7
  6
CONTINUOUS
 10
33.2502501424
 20
7.3743073667
 11
33.282626014
 21
7.0042508338
  0
LINE
  5
4B8
100
AcDbEntity
  8
ASSI
100
AcDbLine
 62
7
  6
CONTINUOUS
 10
33.320004014
 20
6.5770148338
 11
33.417618014
 21
5.4612948338
  0
LINE
  5
4B9
100
AcDbEntity
  8
0
100
AcDbLine
 62
7
  6
CONTINUOUS
 10
33.8318968482
 20
0.7260650635
 11
33.950764014
 21
-0.6325971662
  0
LINE
  5
4BA
100
AcDbEntity
  8
0
100
AcDbLine
 62
7
  6
CONTINUOUS
 10
34.2318997411
 20
-0.3257891662
 11
34.1150981752
 21
1.009266199
  0
LINE
  5
4BB
100
AcDbEntity
  8
0
100
AcDbLine
 62
7
  6
CONTINUOUS
 10
34.0680391931
 20
1.5471557912
 11
33.8112083233
 21
4.4827622454
  0
LINE
  5
4BC
100
AcDbEntity
  8
0
100
AcDbLine
 62
7
  6
CONTINUOUS
 10
33.755126462
 20
5.1237843858
 11
33.6454836094
 21
6.3770148338
  0
LINE
  5
4BD
100
AcDbEntity
  8
0
100
AcDbLine
 62
7
  6
CONTINUOUS
 10
32.109898014
 20
41.0279628338
 11
32.109898014
 21
24.0279628338
  0
LINE
  5
4BE
100
AcDbEntity
  8
0
100
AcDbLine
 62
7
  6
CONTINUOUS
 10
32.109898014
 20
-21.9720371662
 11
32.109898014
 21
-38.9720371662
  0
LINE
  5
4BF
100
AcDbEntity
  8
0
100
AcDbLine
 62
7
  6
CONTINUOUS
 10
32.199898014
 20
-3.7720371662
 11
32.199898014
 21
-5.7720371662
  0
LINE
  5
4C0
100
AcDbEntity
  8
ASSI
100
AcDbLine
 62
7
  6
CONTINUOUS
 10
32.442222014
 20
7.0042508338
 11
32.442222014
 21
6.5770148338
  0
LINE
  5
4C1
100
AcDbEntity
  8
ASSI
100
AcDbLine
 62
7
  6
CONTINUOUS
 10
32.809898014
 20
36.5279628338
 11
32.809898014
 21
37.5279628338
  0
LINE
  5
4C2
100
AcDbEntity
  8
ASSI
100
AcDbLine
 62
7
  6
CONTINUOUS
 10
33.563716014
 20
7.9121288338
 11
33.563716014
 21
7.4939868338
  0
LINE
  5
4C3
100
AcDbEntity
  8
ASSI
100
AcDbLine
 62
7
  6
CONTINUOUS
 10
33.950764014
 20
-0.6325971662
 11
33.950764014
 21
-1.4870711662
  0
LINE
  5
4C4
100
AcDbEntity
  8
RACCORDO
100
AcDbLine
 62
7
  6
CONTINUOUS
 10
33.9714968711
 20
-38.9720371662
 11
33.9714968711
 21
-35.8836055624
  0
LINE
  5
4C5
100
AcDbEntity
  8
RACCORDO
100
AcDbLine
 62
7
  6
CONTINUOUS
 10
33.9714968711
 20
37.93953123
 11
33.9714968711
 21
41.0279628338
  0
LINE
  5
4C6
100
AcDbEntity
  8
ASSI
100
AcDbLine
 62
7
  6
CONTINUOUS
 10
34.097762014
 20
7.6505345238
 11
34.097762014
 21
7.9121288338
  0
LINE
  5
4C7
100
AcDbEntity
  8
0
100
AcDbLine
 62
7
  6
CONTINUOUS
 10
34.160978014
 20
-1.2768571662
 11
34.160978014
 21
-0.7360031662
  0
LINE
  5
4C8
100
AcDbEntity
  8
DRAFT
100
AcDbLine
 62
7
  6
CONTINUOUS
 10
23.7767359164
 20
-25.9720371662
 11
23.809898014
 21
-25.9057079194
  0
LWPOLYLINE
  5
4C9
100
AcDbEntity
  8
RACCORDO
100
AcDbPolyline
 62
7
  6
CONTINUOUS
 90
21
 70
0
 10
58.7954572822
 20
19.1433385778
 10
58.8039013017
 20
19.1539303229
 10
58.8137131467
 20
19.1668551675
 10
58.8250789103
 20
19.1820303579
 10
58.8378124993
 20
19.1994864117
 10
58.8509152041
 20
19.2187954229
 10
58.8643927142
 20
19.2397011589
 10
58.8782393401
 20
19.2621209193
 10
58.8914393029
 20
19.2857298237
 10
58.9038961466
 20
19.3102105784
 10
58.9157063273
 20
19.3354963049
 10
58.9261434343
 20
19.3616458221
 10
58.9351464361
 20
19.3884829095
 10
58.9427763642
 20
19.4159074815
 10
58.9484899029
 20
19.4441611931
 10
58.9521512985
 20
19.4733349224
 10
58.9538963046
 20
19.5031360333
 10
58.9535888657
 20
19.533247467
 10
58.9511836298
 20
19.5634796657
 10
58.9467259489
 20
19.5937827358
 10
58.940215823
 20
19.624041855
  0
LINE
  5
4CA
100
AcDbEntity
  8
RACCORDO
100
AcDbLine
 62
7
  6
CONTINUOUS
 10
67.0038471525
 20
19.0345973344
 11
66.9783244816
 21
19.0089567514
  0
LINE
  5
4CB
100
AcDbEntity
  8
0
100
AcDbLine
 62
7
  6
CONTINUOUS
 10
40.657358014
 20
-1.7784451662
 11
40.3648846578
 21
-2.0709185224
  0
LINE
  5
4CC
100
AcDbEntity
  8
RACCORDO
100
AcDbLine
 62
7
  6
CONTINUOUS
 10
7.3188619413
 20
-35.5483225294
 11
7.2950432996
 21
-35.5720371662
  0
LINE
  5
4CD
100
AcDbEntity
  8
RACCORDO
100
AcDbLine
 62
7
  6
CONTINUOUS
 10
7.6847237067
 20
-35.1824278489
 11
7.3188619413
 21
-35.5483225294
  0
LWPOLYLINE
  5
4CE
100
AcDbEntity
  8
RACCORDO
100
AcDbPolyline
 62
7
  6
CONTINUOUS
 90
3
 70
0
 10
7.7355426128
 20
-35.1316301864
 10
7.7197232975
 20
-35.1473259437
 10
7.6847237067
 20
-35.1824278489
  0
LWPOLYLINE
  5
4CF
100
AcDbEntity
  8
RACCORDO
100
AcDbPolyline
 62
7
  6
CONTINUOUS
 90
3
 70
0
 10
66.9783244816
 20
19.0089567514
 10
66.9527589181
 20
18.9835653824
 10
66.9399567031
 20
18.9709871511
  0
LWPOLYLINE
  5
4D0
100
AcDbEntity
  8
0
100
AcDbPolyline
 62
7
  6
CONTINUOUS
 90
10
 70
0
 10
11.1192387562
 20
-30.7184055381
 10
11.1665332027
 20
-30.6734554533
 10
11.2081168847
 20
-30.6262898354
 10
11.2439898021
 20
-30.5769086843
 10
11.2739777635
 20
-30.5259329329
 10
11.2982549603
 20
-30.4727416483
 10
11.3173439673
 20
-30.4154720327
 10
11.3314189763
 20
-30.3535031535
 10
11.3403057955
 20
-30.2874559432
 10
11.344004425
 20
-30.2173304019
  0
LWPOLYLINE
  5
4D1
100
AcDbEntity
  8
0
100
AcDbPolyline
 62
7
  6
CONTINUOUS
 90
10
 70
0
 10
9.6059416645
 20
-31.5242882583
 10
9.629722322
 20
-31.5017996793
 10
9.6541906422
 20
-31.4821010257
 10
9.6793466251
 20
-31.4651922974
 10
9.7049389989
 20
-31.4511878626
 10
9.7312190355
 20
-31.4399733531
 10
9.7589405501
 20
-31.4312056647
 10
9.7883548147
 20
-31.4247704291
 10
9.8192105573
 20
-31.4207820145
 10
9.8515077781
 20
-31.4192404209
  0
LINE
  5
4D2
100
AcDbEntity
  8
0
100
AcDbLine
 62
7
  6
CONTINUOUS
 10
12.8218097406
 20
-27.9099031508
 11
12.8415190816
 21
-27.8916172519
  0
LWPOLYLINE
  5
4D3
100
AcDbEntity
  8
0
100
AcDbPolyline
 62
7
  6
CONTINUOUS
 90
10
 70
0
 10
9.6093931967
 20
-29.9643622792
 10
9.6229830864
 20
-29.9523952522
 10
9.6389048635
 20
-29.9407813764
 10
9.6571585279
 20
-29.9295206518
 10
9.6776286913
 20
-29.918559864
 10
9.7004307421
 20
-29.9079522275
 10
9.7259108454
 20
-29.8978573848
 10
9.7541843895
 20
-29.8883285502
 10
9.7851359862
 20
-29.8793125096
 10
9.8187656354
 20
-29.8708092628
  0
LWPOLYLINE
  5
4D4
100
AcDbEntity
  8
0
100
AcDbPolyline
 62
7
  6
CONTINUOUS
 90
10
 70
0
 10
10.3494614453
 20
-29.9526648132
 10
10.3742354432
 20
-29.9311788582
 10
10.4016346479
 20
-29.9118814859
 10
10.4316590595
 20
-29.8947726964
 10
10.4639907566
 20
-29.8797013883
 10
10.4989476604
 20
-29.8668186629
 10
10.5374835349
 20
-29.8565778243
 10
10.5799163014
 20
-29.8491299737
 10
10.6259280385
 20
-29.8443240098
 10
10.6755187463
 20
-29.8421599327
  0
LWPOLYLINE
  5
4D5
100
AcDbEntity
  8
0
100
AcDbPolyline
 62
7
  6
CONTINUOUS
 90
22
 70
0
 10
12.8415190816
 20
-27.8916172519
 10
12.8685455709
 20
-27.8699266739
 10
12.9032926382
 20
-27.8453617124
 10
12.9464924123
 20
-27.8180846493
 10
12.9980347816
 20
-27.7886885241
 10
13.0583044916
 20
-27.757340404
 10
13.1274901923
 20
-27.7242576777
 10
13.2050501008
 20
-27.6899120072
 10
13.2910173456
 20
-27.6544207314
 10
13.3854648257
 20
-27.6178543885
 10
13.4877728515
 20
-27.5805072492
 10
13.5978109663
 20
-27.5424404531
 10
13.7154862111
 20
-27.5036837645
 10
13.8401286561
 20
-27.4644309771
 10
13.9714746375
 20
-27.4247161713
 10
14.1092924547
 20
-27.3845516159
 10
14.2528744356
 20
-27.3440721869
 10
14.4018551617
 20
-27.3032972833
 10
14.5558910248
 20
-27.2622322621
 10
14.7142453494
 20
-27.2209771845
 10
14.8764803991
 20
-27.1795430701
 10
15.0421725312
 20
-27.1379323274
  0
LWPOLYLINE
  5
4D6
100
AcDbEntity
  8
RACCORDO
100
AcDbPolyline
 62
7
  6
CONTINUOUS
 90
7
 70
0
 10
7.7950623387
 20
-35.0720371662
 10
7.7930718084
 20
-35.0735360448
 10
7.7888578652
 20
-35.0778406789
 10
7.7824205091
 20
-35.0846599566
 10
7.7735499241
 20
-35.0936683876
 10
7.7624559262
 20
-35.1045971721
 10
7.7355426128
 20
-35.1316301864
  0
LWPOLYLINE
  5
4D7
100
AcDbEntity
  8
0
100
AcDbPolyline
 62
7
  6
CONTINUOUS
 90
10
 70
0
 10
10.904833479
 20
-30.5763888213
 10
10.8791971988
 20
-30.5874415803
 10
10.8532336792
 20
-30.5972033108
 10
10.82694292
 20
-30.6056740127
 10
10.8003415933
 20
-30.6128555632
 10
10.7734130271
 20
-30.6187460851
 10
10.7461072059
 20
-30.6233399474
 10
10.7184074578
 20
-30.6266352731
 10
10.6903304548
 20
-30.6286339392
 10
10.6618761968
 20
-30.6293359457
  0
LWPOLYLINE
  5
4D8
100
AcDbEntity
  8
0
100
AcDbPolyline
 62
7
  6
CONTINUOUS
 90
9
 70
0
 10
17.6628566574
 20
-25.8720371662
 10
17.6280196695
 20
-25.8825068835
 10
17.4913546438
 20
-25.9221382689
 10
17.3484798735
 20
-25.9622546368
 10
17.1997408052
 20
-26.0028249951
 10
17.0464392314
 20
-26.0435787386
 10
16.8891992457
 20
-26.0844505396
 10
16.7282277789
 20
-26.1254894635
 10
16.5642959608
 20
-26.1666043667
  0
LINE
  5
4D9
100
AcDbEntity
  8
0
100
AcDbLine
 62
7
  6
CONTINUOUS
 10
40.506306014
 20
7.9854228338
 11
40.7987826727
 21
7.6929461751
  0
LINE
  5
4DA
100
AcDbEntity
  8
0
100
AcDbLine
 62
7
  6
CONTINUOUS
 10
34.381404014
 20
-0.7360031662
 11
34.381404014
 21
-1.2768571662
  0
LINE
  5
4DB
100
AcDbEntity
  8
ASSI
100
AcDbLine
 62
7
  6
CONTINUOUS
 10
34.591618014
 20
-1.4870711662
 11
34.591618014
 21
-0.6325971662
  0
LINE
  5
4DC
100
AcDbEntity
  8
DRAFT
100
AcDbLine
 62
7
  6
CONTINUOUS
 10
34.609898014
 20
-35.6836360233
 11
34.609898014
 21
-21.9720371662
  0
LINE
  5
4DD
100
AcDbEntity
  8
DRAFT
100
AcDbLine
 62
7
  6
CONTINUOUS
 10
34.609898014
 20
24.0279628338
 11
34.609898014
 21
37.739561691
  0
LINE
  5
4DE
100
AcDbEntity
  8
ASSI
100
AcDbLine
 62
7
  6
CONTINUOUS
 10
35.219258014
 20
8.0723428338
 11
35.219258014
 21
7.8022028338
  0
LINE
  5
4DF
100
AcDbEntity
  8
ASSI
100
AcDbLine
 62
7
  6
CONTINUOUS
 10
36.661180014
 20
7.6630742052
 11
36.661180014
 21
8.0723428338
  0
LINE
  5
4E0
100
AcDbEntity
  8
0
100
AcDbLine
 62
7
  6
CONTINUOUS
 10
37.109898014
 20
41.0279628338
 11
37.109898014
 21
24.0279628338
  0
LINE
  5
4E1
100
AcDbEntity
  8
0
100
AcDbLine
 62
7
  6
CONTINUOUS
 10
37.109898014
 20
-21.9720371662
 11
37.109898014
 21
-38.9720371662
  0
LINE
  5
4E2
100
AcDbEntity
  8
ASSI
100
AcDbLine
 62
7
  6
CONTINUOUS
 10
37.569056014
 20
6.1497788338
 11
37.569056014
 21
5.0481728338
  0
LINE
  5
4E3
100
AcDbEntity
  8
ASSI
100
AcDbLine
 62
7
  6
CONTINUOUS
 10
38.370124014
 20
6.5770148338
 11
38.370124014
 21
6.7114168338
  0
LINE
  5
4E4
100
AcDbEntity
  8
0
100
AcDbLine
 62
7
  6
CONTINUOUS
 10
38.850766014
 20
4.9748788338
 11
38.850766014
 21
5.7449308342
  0
LINE
  5
4E5
100
AcDbEntity
  8
0
100
AcDbLine
 62
7
  6
CONTINUOUS
 10
39.199898014
 20
-5.7720371662
 11
39.199898014
 21
-3.7720371662
  0
LINE
  5
4E6
100
AcDbEntity
  8
0
100
AcDbLine
 62
7
  6
CONTINUOUS
 10
39.609898014
 20
-38.9720371662
 11
39.609898014
 21
-21.9720371662
  0
LINE
  5
4E7
100
AcDbEntity
  8
0
100
AcDbLine
 62
7
  6
CONTINUOUS
 10
39.609898014
 20
24.0279628338
 11
39.609898014
 21
41.0279628338
  0
LINE
  5
4E8
100
AcDbEntity
  8
0
100
AcDbLine
 62
7
  6
CONTINUOUS
 10
37.7098594372
 20
6.3770148338
 11
37.6899788495
 21
6.1497788338
  0
LINE
  5
4E9
100
AcDbEntity
  8
0
100
AcDbLine
 62
7
  6
CONTINUOUS
 10
37.5398707375
 20
4.4340364445
 11
37.290877554
 21
1.5880332939
  0
LINE
  5
4EA
100
AcDbEntity
  8
0
100
AcDbLine
 62
7
  6
CONTINUOUS
 10
37.243818784
 20
1.0501494626
 11
37.1823618138
 21
0.3476935622
  0
LINE
  5
4EB
100
AcDbEntity
  8
0
100
AcDbLine
 62
7
  6
CONTINUOUS
 10
37.574082014
 20
1.3048288338
 11
37.8773806989
 21
4.7715461775
  0
LINE
  5
4EC
100
AcDbEntity
  8
0
100
AcDbLine
 62
7
  6
CONTINUOUS
 10
37.4893579543
 20
0.3364201512
 11
37.5270235088
 21
0.7669445463
  0
LINE
  5
4ED
100
AcDbEntity
  8
ASSI
100
AcDbLine
 62
7
  6
CONTINUOUS
 10
37.997960014
 20
6.1497788338
 11
38.035338014
 21
6.5770148338
  0
LWPOLYLINE
  5
4EE
100
AcDbEntity
  8
0
100
AcDbPolyline
 62
7
  6
CONTINUOUS
 90
3
 70
0
 10
18.5838533144
 20
-34.9698367753
 10
18.570708666
 20
-34.9867532706
 10
18.559898014
 20
-35.0036354173
  0
LINE
  5
4EF
100
AcDbEntity
  8
RACCORDO
100
AcDbLine
 62
7
  6
CONTINUOUS
 10
67.0545896962
 20
19.0865233665
 11
67.0292733553
 21
19.0604713895
  0
LINE
  5
4F0
100
AcDbEntity
  8
RACCORDO
100
AcDbLine
 62
7
  6
CONTINUOUS
 10
67.0292733553
 20
19.0604713895
 11
67.0038471525
 21
19.0345973344
  0
LINE
  5
4F1
100
AcDbEntity
  8
RACCORDO
100
AcDbLine
 62
7
  6
CONTINUOUS
 10
24.3009340867
 20
-25.3957518029
 11
24.3247527284
 21
-25.3720371662
  0
LINE
  5
4F2
100
AcDbEntity
  8
RACCORDO
100
AcDbLine
 62
7
  6
CONTINUOUS
 10
23.9350723212
 20
-25.7616464834
 11
24.3009340867
 21
-25.3957518029
  0
LWPOLYLINE
  5
4F3
100
AcDbEntity
  8
RACCORDO
100
AcDbPolyline
 62
7
  6
CONTINUOUS
 90
3
 70
0
 10
23.8842534151
 20
-25.8124441459
 10
23.9000727305
 20
-25.7967483886
 10
23.9350723212
 20
-25.7616464834
  0
LINE
  5
4F4
100
AcDbEntity
  8
0
100
AcDbLine
 62
7
  6
CONTINUOUS
 10
18.8010180252
 20
-30.388201537
 11
18.7846986701
 21
-30.4039431246
  0
LWPOLYLINE
  5
4F5
100
AcDbEntity
  8
0
100
AcDbPolyline
 62
7
  6
CONTINUOUS
 90
23
 70
0
 10
18.7846986701
 20
-30.4039431246
 10
18.7619850273
 20
-30.4230199772
 10
18.7321396427
 20
-30.4451605744
 10
18.6944987833
 20
-30.4701147554
 10
18.649312384
 20
-30.4971700938
 10
18.5962975749
 20
-30.5261122279
 10
18.5351810105
 20
-30.5567752026
 10
18.4665516843
 20
-30.5886476737
 10
18.390570827
 20
-30.6215308406
 10
18.3070074541
 20
-30.655429309
 10
18.2159284295
 20
-30.690239298
 10
18.1173698894
 20
-30.7258950489
 10
18.0113039304
 20
-30.7623718784
 10
17.8976205232
 20
-30.7996839101
 10
17.7760546477
 20
-30.8378998276
 10
17.6469567801
 20
-30.8769058584
 10
17.511193059
 20
-30.9164680754
 10
17.3688530205
 20
-30.956608711
 10
17.2203154227
 20
-30.9972787233
 10
17.0670774604
 20
-31.0381491191
 10
16.9097943349
 20
-31.0791456557
 10
16.7486410555
 20
-31.1203257448
 10
16.5845191188
 20
-31.161565466
  0
LWPOLYLINE
  5
4F6
100
AcDbEntity
  8
RACCORDO
100
AcDbPolyline
 62
7
  6
CONTINUOUS
 90
7
 70
0
 10
23.8247336892
 20
-25.8720371662
 10
23.8267242196
 20
-25.8705382875
 10
23.8309381628
 20
-25.8662336534
 10
23.8373755188
 20
-25.8594143758
 10
23.8462461039
 20
-25.8504059447
 10
23.8573401018
 20
-25.8394771603
 10
23.8842534151
 20
-25.8124441459
  0
LINE
  5
4F7
100
AcDbEntity
  8
ASSI
100
AcDbLine
 62
7
  6
CONTINUOUS
 10
32.109898014
 20
36.5279628338
 11
32.809898014
 21
36.5279628338
  0
LINE
  5
4F8
100
AcDbEntity
  8
ASSI
100
AcDbLine
 62
7
  6
CONTINUOUS
 10
42.109898014
 20
36.5279628338
 11
42.809898014
 21
36.5279628338
  0
LINE
  5
4F9
100
AcDbEntity
  8
ASSI
100
AcDbLine
 62
7
  6
CONTINUOUS
 10
47.109898014
 20
36.5279628338
 11
47.809898014
 21
36.5279628338
  0
LINE
  5
4FA
100
AcDbEntity
  8
ASSI
100
AcDbLine
 62
7
  6
CONTINUOUS
 10
47.809898014
 20
37.5279628338
 11
47.109898014
 21
37.5279628338
  0
LINE
  5
4FB
100
AcDbEntity
  8
ASSI
100
AcDbLine
 62
7
  6
CONTINUOUS
 10
42.809898014
 20
37.5279628338
 11
42.109898014
 21
37.5279628338
  0
LINE
  5
4FC
100
AcDbEntity
  8
ASSI
100
AcDbLine
 62
7
  6
CONTINUOUS
 10
32.809898014
 20
37.5279628338
 11
32.109898014
 21
37.5279628338
  0
LINE
  5
4FD
100
AcDbEntity
  8
RACCORDO
100
AcDbLine
 62
7
  6
CONTINUOUS
 10
34.609898014
 20
37.739561691
 11
34.1714664102
 21
37.739561691
  0
LINE
  5
4FE
100
AcDbEntity
  8
0
100
AcDbLine
 62
7
  6
CONTINUOUS
 10
42.109898014
 20
41.0279628338
 11
42.109898014
 21
24.0279628338
  0
LINE
  5
4FF
100
AcDbEntity
  8
0
100
AcDbLine
 62
7
  6
CONTINUOUS
 10
42.109898014
 20
-21.9720371662
 11
42.109898014
 21
-38.9720371662
  0
LINE
  5
500
100
AcDbEntity
  8
ASSI
100
AcDbLine
 62
7
  6
CONTINUOUS
 10
42.809898014
 20
36.5279628338
 11
42.809898014
 21
37.5279628338
  0
LINE
  5
501
100
AcDbEntity
  8
0
100
AcDbLine
 62
7
  6
CONTINUOUS
 10
44.609898014
 20
-38.9720371662
 11
44.609898014
 21
-21.9720371662
  0
LINE
  5
502
100
AcDbEntity
  8
0
100
AcDbLine
 62
7
  6
CONTINUOUS
 10
44.609898014
 20
24.0279628338
 11
44.609898014
 21
41.0279628338
  0
LINE
  5
503
100
AcDbEntity
  8
DRAFT
100
AcDbLine
 62
7
  6
CONTINUOUS
 10
58.4290971231
 20
19.0279628338
 11
58.4317151835
 21
19.0331993533
  0
LWPOLYLINE
  5
504
100
AcDbEntity
  8
RACCORDO
100
AcDbPolyline
 62
7
  6
CONTINUOUS
 90
4
 70
0
 10
58.7802041939
 20
19.1243306111
 10
58.7812683795
 20
19.126099942
 10
58.7841408211
 20
19.1296826903
 10
58.7954572822
 20
19.1433385778
  0
LWPOLYLINE
  5
505
100
AcDbEntity
  8
RACCORDO
100
AcDbPolyline
 62
253
  6
CONTINUOUS
 90
11
 70
0
 10
58.7444985527
 20
15.5299792188
 10
58.7449754561
 20
15.5307618222
 10
58.745454645
 20
15.5330742289
 10
58.7459361194
 20
15.5369164388
 10
58.746421517
 20
15.5423090226
 10
58.7469092
 20
15.5492314097
 10
58.7473942557
 20
15.5576218879
 10
58.7478765641
 20
15.5674951568
 10
58.748356245
 20
15.5788365168
 10
58.7488287449
 20
15.5915401565
 10
58.749752049
 20
15.6210616604
  0
LINE
  5
506
100
AcDbEntity
  8
RACCORDO
100
AcDbLine
 62
253
  6
CONTINUOUS
 10
21.059898014
 20
-43.1963232927
 11
20.9028024296
 21
-43.3534188771
  0
LINE
  5
507
100
AcDbEntity
  8
0
100
AcDbLine
 62
7
  6
CONTINUOUS
 10
54.609898014
 20
41.0279628338
 11
52.109898014
 21
41.0279628338
  0
LINE
  5
508
100
AcDbEntity
  8
0
100
AcDbLine
 62
7
  6
CONTINUOUS
 10
49.609898014
 20
41.0279628338
 11
47.109898014
 21
41.0279628338
  0
LINE
  5
509
100
AcDbEntity
  8
0
100
AcDbLine
 62
7
  6
CONTINUOUS
 10
44.609898014
 20
41.0279628338
 11
42.109898014
 21
41.0279628338
  0
LINE
  5
50A
100
AcDbEntity
  8
0
100
AcDbLine
 62
7
  6
CONTINUOUS
 10
39.609898014
 20
41.0279628338
 11
37.109898014
 21
41.0279628338
  0
LINE
  5
50B
100
AcDbEntity
  8
DRAFT
100
AcDbLine
 62
7
  6
CONTINUOUS
 10
33.9714968711
 20
41.0279628338
 11
32.109898014
 21
41.0279628338
  0
LINE
  5
50C
100
AcDbEntity
  8
RACCORDO
100
AcDbLine
 62
253
  6
CONTINUOUS
 10
-69.6228871762
 20
45.2608241764
 11
69.8426832041
 21
45.2608241764
  0
LINE
  5
50D
100
AcDbEntity
  8
0
100
AcDbLine
 62
7
  6
CONTINUOUS
 10
47.109898014
 20
41.0279628338
 11
47.109898014
 21
24.0279628338
  0
LINE
  5
50E
100
AcDbEntity
  8
0
100
AcDbLine
 62
7
  6
CONTINUOUS
 10
47.109898014
 20
-21.9720371662
 11
47.109898014
 21
-38.9720371662
  0
LINE
  5
50F
100
AcDbEntity
  8
ASSI
100
AcDbLine
 62
7
  6
CONTINUOUS
 10
47.809898014
 20
36.5279628338
 11
47.809898014
 21
37.5279628338
  0
LINE
  5
510
100
AcDbEntity
  8
0
100
AcDbLine
 62
7
  6
CONTINUOUS
 10
49.609898014
 20
-38.9720371662
 11
49.609898014
 21
-21.9720371662
  0
LINE
  5
511
100
AcDbEntity
  8
0
100
AcDbLine
 62
7
  6
CONTINUOUS
 10
49.609898014
 20
24.0279628338
 11
49.609898014
 21
41.0279628338
  0
LINE
  5
512
100
AcDbEntity
  8
RACCORDO
100
AcDbLine
 62
253
  6
CONTINUOUS
 10
21.5512466455
 20
-43.7048223563
 11
21.3941510612
 21
-43.8619179407
  0
LWPOLYLINE
  5
513
100
AcDbEntity
  8
RACCORDO
100
AcDbPolyline
 62
253
  6
CONTINUOUS
 90
22
 70
0
 10
-69.1229633286
 20
45.760748024
 10
-69.1603154555
 20
45.7593393004
 10
-69.1974587752
 20
45.7551437585
 10
-69.2341856476
 20
45.7481848526
 10
-69.2702907608
 20
45.7385014844
 10
-69.3055722785
 20
45.7261477864
 10
-69.3398329688
 20
45.7111928186
 10
-69.3728813061
 20
45.6937201828
 10
-69.4045325424
 20
45.6738275554
 10
-69.4346097398
 20
45.6516261407
 10
-69.4629447596
 20
45.6272400501
 10
-69.4893792022
 20
45.6008056074
 10
-69.5137652929
 20
45.5724705877
 10
-69.5359667076
 20
45.5423933903
 10
-69.555859335
 20
45.5107421539
 10
-69.5733319707
 20
45.4776938166
 10
-69.5882869385
 20
45.4434331264
 10
-69.6006406366
 20
45.4081516086
 10
-69.6103240047
 20
45.3720464955
 10
-69.6172829107
 20
45.3353196231
 10
-69.6214784525
 20
45.2981763034
 10
-69.6228871762
 20
45.2608241764
  0
LINE
  5
514
100
AcDbEntity
  8
RACCORDO
100
AcDbLine
 62
253
  6
CONTINUOUS
 10
69.3427593566
 20
45.760748024
 11
-69.1229633286
 21
45.760748024
  0
LINE
  5
515
100
AcDbEntity
  8
RACCORDO
100
AcDbLine
 62
7
  6
CONTINUOUS
 10
-69.3901781384
 20
46.0279628338
 11
-3.690101986
 21
46.0279628338
  0
LINE
  5
516
100
AcDbEntity
  8
DRAFT
100
AcDbLine
 62
7
  6
CONTINUOUS
 10
-3.690101986
 20
46.0279628338
 11
3.909898014
 21
46.0279628338
  0
LINE
  5
517
100
AcDbEntity
  8
RACCORDO
100
AcDbLine
 62
7
  6
CONTINUOUS
 10
3.909898014
 20
46.0279628338
 11
69.6099170525
 21
46.0279628338
  0
LINE
  5
518
100
AcDbEntity
  8
0
100
AcDbLine
 62
7
  6
CONTINUOUS
 10
52.109898014
 20
41.0279628338
 11
52.109898014
 21
24.0279628338
  0
LINE
  5
519
100
AcDbEntity
  8
0
100
AcDbLine
 62
7
  6
CONTINUOUS
 10
52.109898014
 20
-21.9720371662
 11
52.109898014
 21
-38.9720371662
  0
LINE
  5
51A
100
AcDbEntity
  8
IMPORT_IGES
100
AcDbLine
 62
7
  6
CONTINUOUS
 10
54.259898014
 20
25.9529628338
 11
54.259898014
 21
24.1029628338
  0
LINE
  5
51B
100
AcDbEntity
  8
0
100
AcDbLine
 62
7
  6
CONTINUOUS
 10
54.609898014
 20
-38.9720371662
 11
54.609898014
 21
-21.9720371662
  0
LINE
  5
51C
100
AcDbEntity
  8
0
100
AcDbLine
 62
7
  6
CONTINUOUS
 10
54.609898014
 20
24.0279628338
 11
54.609898014
 21
41.0279628338
  0
LWPOLYLINE
  5
51D
100
AcDbEntity
  8
RACCORDO
100
AcDbPolyline
 62
253
  6
CONTINUOUS
 90
6
 70
0
 10
59.2444224003
 20
15.0279628338
 10
59.2449010626
 20
15.0295158848
 10
59.2453814798
 20
15.0341699512
 10
59.2458636518
 20
15.0419101854
 10
59.2463490463
 20
15.0527116882
 10
59.2468361956
 20
15.0665407702
  0
LINE
  5
51E
100
AcDbEntity
  8
RACCORDO
100
AcDbLine
 62
7
  6
CONTINUOUS
 10
59.2798393249
 20
18.9709871511
 11
59.2542594111
 21
18.9962358217
  0
LINE
  5
51F
100
AcDbEntity
  8
RACCORDO
100
AcDbLine
 62
7
  6
CONTINUOUS
 10
59.2542594111
 20
18.9962358217
 11
59.2287009639
 21
19.0217463485
  0
LINE
  5
520
100
AcDbEntity
  8
RACCORDO
100
AcDbLine
 62
7
  6
CONTINUOUS
 10
59.2287009639
 20
19.0217463485
 11
59.2032203671
 21
19.0475061775
  0
LWPOLYLINE
  5
521
100
AcDbEntity
  8
RACCORDO
100
AcDbPolyline
 62
7
  6
CONTINUOUS
 90
3
 70
0
 10
59.2032203671
 20
19.0475061775
 10
59.1778363542
 20
19.0734655783
 10
59.1652063318
 20
19.0865233665
  0
LWPOLYLINE
  5
522
100
AcDbEntity
  8
RACCORDO
100
AcDbPolyline
 62
253
  6
CONTINUOUS
 90
19
 70
0
 10
58.7444985527
 20
15.5299792188
 10
58.7462344875
 20
15.4862828329
 10
58.7517813457
 20
15.4429052337
 10
58.7610967085
 20
15.4001782427
 10
58.774109328
 20
15.3584287101
 10
58.7907196753
 20
15.3179760031
 10
58.8108007052
 20
15.2791295637
 10
58.834198821
 20
15.2421865573
 10
58.8607350465
 20
15.207429597
 10
58.8902064012
 20
15.1751245715
 10
58.9223874526
 20
15.1455186125
 10
58.9570320327
 20
15.1188382125
 10
58.9938751188
 20
15.0952874878
 10
59.0326348802
 20
15.0750466054
 10
59.0730148163
 20
15.058270417
 10
59.1147060123
 20
15.0450872745
 10
59.1573895337
 20
15.0355980346
 10
59.2007388677
 20
15.0298752927
 10
59.2444224003
 20
15.0279628338
  0
LINE
  5
523
100
AcDbEntity
  8
DRAFT
100
AcDbLine
 62
7
  6
CONTINUOUS
 10
58.4290971231
 20
19.0279628338
 11
58.4290971231
 21
14.747161943
  0
LINE
  5
524
100
AcDbEntity
  8
RACCORDO
100
AcDbLine
 62
7
  6
CONTINUOUS
 10
58.709898014
 20
15.5299792188
 11
58.709898014
 21
19.0522990371
  0
LINE
  5
525
100
AcDbEntity
  8
RACCORDO
100
AcDbLine
 62
253
  6
CONTINUOUS
 10
59.254234621
 20
15.796890403
 11
59.2798393249
 21
18.9709871511
  0
LINE
  5
526
100
AcDbEntity
  8
RACCORDO
100
AcDbLine
 62
253
  6
CONTINUOUS
 10
59.2517798432
 20
15.3999057766
 11
59.254234621
 21
15.796890403
  0
LINE
  5
527
100
AcDbEntity
  8
RACCORDO
100
AcDbLine
 62
253
  6
CONTINUOUS
 10
58.7532523235
 20
15.8099327833
 11
58.7802041939
 21
19.1243306111
  0
LINE
  5
528
100
AcDbEntity
  8
RACCORDO
100
AcDbLine
 62
253
  6
CONTINUOUS
 10
59.2496761004
 20
15.2100889867
 11
59.2517798432
 21
15.3999057766
  0
LINE
  5
529
100
AcDbEntity
  8
RACCORDO
100
AcDbLine
 62
253
  6
CONTINUOUS
 10
58.7518574224
 20
15.7160227985
 11
58.7532523235
 21
15.8099327833
  0
LINE
  5
52A
100
AcDbEntity
  8
RACCORDO
100
AcDbLine
 62
253
  6
CONTINUOUS
 10
59.2482818691
 20
15.125734941
 11
59.2496761004
 21
15.2100889867
  0
LINE
  5
52B
100
AcDbEntity
  8
RACCORDO
100
AcDbLine
 62
253
  6
CONTINUOUS
 10
58.7506335064
 20
15.6556014621
 11
58.7518574224
 21
15.7160227985
  0
LINE
  5
52C
100
AcDbEntity
  8
RACCORDO
100
AcDbLine
 62
253
  6
CONTINUOUS
 10
58.749752049
 20
15.6210616604
 11
58.7506335064
 21
15.6556014621
  0
LWPOLYLINE
  5
52D
100
AcDbEntity
  8
RACCORDO
100
AcDbPolyline
 62
253
  6
CONTINUOUS
 90
3
 70
0
 10
59.2468361956
 20
15.0665407702
 10
59.2473206971
 20
15.0833562108
 10
59.2482818691
 20
15.125734941
  0
LWPOLYLINE
  5
52E
100
AcDbEntity
  8
RACCORDO
100
AcDbPolyline
 62
7
  6
CONTINUOUS
 90
25
 70
0
 10
67.279580205
 20
19.624041855
 10
67.2731373227
 20
19.5935708119
 10
67.268655632
 20
19.5633118082
 10
67.2662071623
 20
19.533247467
 10
67.2658565268
 20
19.5031926464
 10
67.2675879039
 20
19.4733202723
 10
67.2713061251
 20
19.4441611931
 10
67.2770126245
 20
19.4159240728
 10
67.2845724335
 20
19.3884323649
 10
67.2936525937
 20
19.3616458221
 10
67.304111605
 20
19.3355092976
 10
67.3157995687
 20
19.3101345954
 10
67.3283567251
 20
19.2857298237
 10
67.3416315254
 20
19.2621803333
 10
67.3553232225
 20
19.2396599623
 10
67.3688808239
 20
19.2187954229
 10
67.3821272859
 20
19.1995989771
 10
67.3947324002
 20
19.1820853616
 10
67.4060828812
 20
19.1668551675
 10
67.4160777164
 20
19.1540659214
 10
67.4245080214
 20
19.1435340427
 10
67.4309745094
 20
19.135315372
 10
67.4355185899
 20
19.1294045931
 10
67.4383549805
 20
19.1257503936
 10
67.4395918341
 20
19.1243306111
  0
LWPOLYLINE
  5
52F
100
AcDbEntity
  8
RACCORDO
100
AcDbPolyline
 62
253
  6
CONTINUOUS
 90
19
 70
0
 10
67.4654852546
 20
15.9144430034
 10
67.4629479145
 20
15.9044617092
 10
67.4566999511
 20
15.8945398234
 10
67.446787963
 20
15.8847513659
 10
67.433285885
 20
15.8751693627
 10
67.4162944333
 20
15.865865298
 10
67.3959403502
 20
15.8569085811
 10
67.3723754667
 20
15.848366033
 10
67.3457755726
 20
15.8403013865
 10
67.3163390985
 20
15.8327748089
 10
67.2842856358
 20
15.8258424531
 10
67.2498543079
 20
15.819556041
 10
67.2133019869
 20
15.8139624763
 10
67.1749013584
 20
15.8091034917
 10
67.1349389059
 20
15.8050153408
 10
67.093712785
 20
15.8017285278
 10
67.0515305682
 20
15.799267576
 10
67.0087069472
 20
15.7976508466
 10
66.965561407
 20
15.7968904029
  0
LINE
  5
530
100
AcDbEntity
  8
RACCORDO
100
AcDbLine
 62
253
  6
CONTINUOUS
 10
69.4389145301
 20
-16.9720371662
 11
69.3427593566
 21
-17.0681923397
  0
LINE
  5
531
100
AcDbEntity
  8
RACCORDO
100
AcDbLine
 62
253
  6
CONTINUOUS
 10
69.9474135937
 20
-17.4633857977
 11
69.8426832041
 21
-17.5681161873
  0
LINE
  5
532
100
AcDbEntity
  8
RACCORDO
100
AcDbLine
 62
7
  6
CONTINUOUS
 10
67.4397330393
 20
19.1241180074
 11
67.509898014
 21
19.0522990371
  0
LWPOLYLINE
  5
533
100
AcDbEntity
  8
RACCORDO
100
AcDbPolyline
 62
253
  6
CONTINUOUS
 90
19
 70
0
 10
58.7543107734
 20
15.9144430034
 10
58.7568481614
 20
15.9044615987
 10
58.7630962436
 20
15.894539616
 10
58.773008407
 20
15.8847510773
 10
58.786510703
 20
15.8751690088
 10
58.8035023993
 20
15.8658648963
 10
58.8238567314
 20
15.8569081522
 10
58.847421848
 20
15.8483655973
 10
58.8740219444
 20
15.8403009621
 10
58.9034585736
 20
15.8327744121
 10
58.935512127
 20
15.8258420982
 10
58.9699434728
 20
15.8195557381
 10
59.0064957399
 20
15.8139622305
 10
59.0448962343
 20
15.8091033051
 10
59.0848584736
 20
15.8050152114
 10
59.1260843241
 20
15.801728448
 10
59.1682662251
 20
15.7992675357
 10
59.2110894834
 20
15.7976508336
 10
59.254234621
 20
15.796890403
  0
LWPOLYLINE
  5
534
100
AcDbEntity
  8
RACCORDO
100
AcDbPolyline
 62
253
  6
CONTINUOUS
 90
7
 70
0
 10
66.9724753309
 20
15.0833562108
 10
66.9729598324
 20
15.0665407702
 10
66.9734469817
 20
15.0527116882
 10
66.9739323762
 20
15.0419101854
 10
66.9744145482
 20
15.0341699512
 10
66.9748949654
 20
15.0295158848
 10
66.9753736277
 20
15.0279628338
  0
LINE
  5
535
100
AcDbEntity
  8
RACCORDO
100
AcDbLine
 62
253
  6
CONTINUOUS
 10
67.4691625216
 20
15.6556014621
 11
67.4700439789
 21
15.6210616604
  0
LINE
  5
536
100
AcDbEntity
  8
RACCORDO
100
AcDbLine
 62
253
  6
CONTINUOUS
 10
66.9715141588
 20
15.125734941
 11
66.9724753309
 21
15.0833562108
  0
LINE
  5
537
100
AcDbEntity
  8
RACCORDO
100
AcDbLine
 62
253
  6
CONTINUOUS
 10
67.4679386056
 20
15.7160227985
 11
67.4691625216
 21
15.6556014621
  0
LINE
  5
538
100
AcDbEntity
  8
RACCORDO
100
AcDbLine
 62
253
  6
CONTINUOUS
 10
66.9701199276
 20
15.2100889867
 11
66.9715141588
 21
15.125734941
  0
LINE
  5
539
100
AcDbEntity
  8
RACCORDO
100
AcDbLine
 62
253
  6
CONTINUOUS
 10
67.4665437045
 20
15.8099327833
 11
67.4679386056
 21
15.7160227985
  0
LINE
  5
53A
100
AcDbEntity
  8
RACCORDO
100
AcDbLine
 62
253
  6
CONTINUOUS
 10
66.9680161848
 20
15.3999057766
 11
66.9701199276
 21
15.2100889867
  0
LINE
  5
53B
100
AcDbEntity
  8
RACCORDO
100
AcDbLine
 62
253
  6
CONTINUOUS
 10
67.4395918341
 20
19.1243306111
 11
67.4665437045
 21
15.8099327833
  0
LWPOLYLINE
  5
53C
100
AcDbEntity
  8
RACCORDO
100
AcDbPolyline
 62
253
  6
CONTINUOUS
 90
3
 70
0
 10
66.9399567031
 20
18.9709871511
 10
66.965793534
 20
15.7430529826
 10
66.9680161848
 20
15.3999057766
  0
LINE
  5
53D
100
AcDbEntity
  8
0
100
AcDbLine
 62
7
  6
CONTINUOUS
 10
67.109898014
 20
15.0387142157
 11
67.109898014
 21
14.747161943
  0
LINE
  5
53E
100
AcDbEntity
  8
IMPORT_IGES
100
AcDbLine
 62
7
  6
CONTINUOUS
 10
67.109898014
 20
14.747161943
 11
67.109898014
 21
15.0387142157
  0
LINE
  5
53F
100
AcDbEntity
  8
RACCORDO
100
AcDbLine
 62
7
  6
CONTINUOUS
 10
67.509898014
 20
15.5299792188
 11
67.509898014
 21
19.0522990371
  0
LINE
  5
540
100
AcDbEntity
  8
DRAFT
100
AcDbLine
 62
7
  6
CONTINUOUS
 10
67.711080156
 20
19.0331993533
 11
67.711080156
 21
14.747161943
  0
LINE
  5
541
100
AcDbEntity
  8
DRAFT
100
AcDbLine
 62
7
  6
CONTINUOUS
 10
67.8243747096
 20
19.0279628338
 11
67.8243747096
 21
14.747161943
  0
LWPOLYLINE
  5
542
100
AcDbEntity
  8
RACCORDO
100
AcDbPolyline
 62
253
  6
CONTINUOUS
 90
19
 70
0
 10
67.4752974753
 20
15.5299792188
 10
67.4735615039
 20
15.486282396
 10
67.4680145412
 20
15.4429044164
 10
67.4586990198
 20
15.4001771087
 10
67.4456862006
 20
15.3584273244
 10
67.429075628
 20
15.3179744371
 10
67.408994368
 20
15.2791278995
 10
67.3855960363
 20
15.2421848764
 10
67.3590596233
 20
15.2074279709
 10
67.3295881247
 20
15.1751230632
 10
67.2974069891
 20
15.1455172765
 10
67.2627623925
 20
15.1188370862
 10
67.225919356
 20
15.0952865882
 10
67.187159718
 20
15.0750459367
 10
67.1467799785
 20
15.0582699668
 10
67.1050890306
 20
15.0450870098
 10
67.0624057979
 20
15.0355979115
 10
67.0190567945
 20
15.0298752606
 10
66.9753736277
 20
15.0279628338
  0
LINE
  5
543
100
AcDbEntity
  8
RACCORDO
100
AcDbLine
 62
253
  6
CONTINUOUS
 10
69.3427593566
 20
19.1241180074
 11
69.4389145301
 21
19.0279628338
  0
LINE
  5
544
100
AcDbEntity
  8
RACCORDO
100
AcDbLine
 62
253
  6
CONTINUOUS
 10
69.8426832041
 20
19.624041855
 11
69.9474135937
 21
19.5193114654
  0
LWPOLYLINE
  5
545
100
AcDbEntity
  8
RACCORDO
100
AcDbPolyline
 62
253
  6
CONTINUOUS
 90
9
 70
0
 10
67.471439783
 20
15.5788365168
 10
67.4719194639
 20
15.5674951568
 10
67.4724017723
 20
15.5576218879
 10
67.4728868279
 20
15.5492314098
 10
67.473374511
 20
15.5423090226
 10
67.4738599086
 20
15.5369164387
 10
67.474341383
 20
15.5330742289
 10
67.4748205719
 20
15.5307618222
 10
67.4752974753
 20
15.5299792188
  0
LWPOLYLINE
  5
546
100
AcDbEntity
  8
RACCORDO
100
AcDbPolyline
 62
7
  6
CONTINUOUS
 90
28
 70
0
 10
69.9474135937
 20
-17.4633857977
 10
69.9464305918
 20
-17.4400115167
 10
69.9442895007
 20
-17.4164254582
 10
69.9409557046
 20
-17.3926859842
 10
69.9363961105
 20
-17.3688563356
 10
69.9305828884
 20
-17.3450005153
 10
69.9234936929
 20
-17.3211832161
 10
69.9151096532
 20
-17.2974857994
 10
69.9054100864
 20
-17.2739736707
 10
69.894371358
 20
-17.2506939516
 10
69.8819864246
 20
-17.2277420373
 10
69.8682409986
 20
-17.205190694
 10
69.8530937009
 20
-17.183065133
 10
69.8365449245
 20
-17.1614739718
 10
69.81858721
 20
-17.1405074253
 10
69.7991530058
 20
-17.1201857614
 10
69.7782521152
 20
-17.1006390615
 10
69.755885977
 20
-17.0819817191
 10
69.7319568562
 20
-17.0642482356
 10
69.7064887192
 20
-17.0475991094
 10
69.6795016829
 20
-17.0321846124
 10
69.6508779249
 20
-17.0180805509
 10
69.6206381573
 20
-17.0054766882
 10
69.5888698241
 20
-16.9945860861
 10
69.5555609715
 20
-16.9855770081
 10
69.5207839489
 20
-16.9786686192
 10
69.4847055177
 20
-16.9741045991
 10
69.4474897461
 20
-16.9721106951
  0
LWPOLYLINE
  5
547
100
AcDbEntity
  8
RACCORDO
100
AcDbPolyline
 62
253
  6
CONTINUOUS
 90
22
 70
0
 10
69.8426832041
 20
45.2608241764
 10
69.8412698676
 20
45.298237571
 10
69.8370606298
 20
45.3354407732
 10
69.8300791781
 20
45.3722251376
 10
69.8203650604
 20
45.4083833629
 10
69.807972672
 20
45.4437137455
 10
69.7929701987
 20
45.4780210534
 10
69.7754387068
 20
45.511116929
 10
69.7554778314
 20
45.5428107323
 10
69.7332064074
 20
45.5729150656
 10
69.7087571668
 20
45.6012556013
 10
69.682263506
 20
45.6276823418
 10
69.653863098
 20
45.6520583394
 10
69.6237007263
 20
45.6742549987
 10
69.5919566099
 20
45.6941356161
 10
69.5588379237
 20
45.7115730804
 10
69.524525005
 20
45.726478063
 10
69.4892197896
 20
45.7387682661
 10
69.4531790525
 20
45.7483675588
 10
69.4166276906
 20
45.7552380462
 10
69.3797527138
 20
45.7593661607
 10
69.3427593566
 20
45.760748024
  0
LWPOLYLINE
  5
548
100
AcDbEntity
  8
RACCORDO
100
AcDbPolyline
 62
253
  6
CONTINUOUS
 90
3
 70
0
 10
67.4700439789
 20
15.6210616604
 10
67.4705020405
 20
15.6056197686
 10
67.471439783
 20
15.5788365168
  0
LWPOLYLINE
  5
549
100
AcDbEntity
  8
RACCORDO
100
AcDbPolyline
 62
253
  6
CONTINUOUS
 90
40
 70
0
 10
69.8426832041
 20
-17.5681161873
 10
69.842270416
 20
-17.547956314
 10
69.8410451464
 20
-17.5278309942
 10
69.8390096011
 20
-17.5077729499
 10
69.8361669887
 20
-17.4878128557
 10
69.8325223009
 20
-17.4679850854
 10
69.8280830764
 20
-17.4483275178
 10
69.8228569554
 20
-17.4288702726
 10
69.8168536502
 20
-17.4096463567
 10
69.8100876501
 20
-17.3906968789
 10
69.8025791253
 20
-17.3720684411
 10
69.7943365132
 20
-17.3537730939
 10
69.7853549257
 20
-17.3358009287
 10
69.7756353324
 20
-17.3181635291
 10
69.7652001671
 20
-17.3009105504
 10
69.7540761067
 20
-17.2840893966
 10
69.742284842
 20
-17.267732878
 10
69.7298417293
 20
-17.2518623061
 10
69.7167680281
 20
-17.2365052494
 10
69.7030797961
 20
-17.2216814999
 10
69.6888038576
 20
-17.2074209949
 10
69.6739813655
 20
-17.1937630113
 10
69.6586507677
 20
-17.1807379154
 10
69.6428270176
 20
-17.1683535348
 10
69.6265173305
 20
-17.1566138978
 10
69.6097430542
 20
-17.145535035
 10
69.5925358213
 20
-17.1351384853
 10
69.5749171606
 20
-17.1254379724
 10
69.5569089885
 20
-17.1164472085
 10
69.5385458693
 20
-17.1081850622
 10
69.5198695457
 20
-17.1006705742
 10
69.500915743
 20
-17.0939171528
 10
69.4817102686
 20
-17.0879330428
 10
69.4622811581
 20
-17.0827266001
 10
69.4426597527
 20
-17.0783060649
 10
69.4228779906
 20
-17.0746784758
 10
69.4029650723
 20
-17.0718491984
 10
69.38295225
 20
-17.0698229159
 10
69.3628728448
 20
-17.0686032439
 10
69.3427593566
 20
-17.0681923397
  0
LINE
  5
54A
100
AcDbEntity
  8
RACCORDO
100
AcDbLine
 62
253
  6
CONTINUOUS
 10
69.3427593566
 20
-17.0681923397
 11
69.3427593566
 21
-43.7048223563
  0
LINE
  5
54B
100
AcDbEntity
  8
RACCORDO
100
AcDbLine
 62
253
  6
CONTINUOUS
 10
69.3427593566
 20
19.1241180074
 11
69.3427593566
 21
45.760748024
  0
LINE
  5
54C
100
AcDbEntity
  8
RACCORDO
100
AcDbLine
 62
253
  6
CONTINUOUS
 10
69.4474897461
 20
19.0280363628
 11
69.4474897461
 21
-16.9721106951
  0
LINE
  5
54D
100
AcDbEntity
  8
RACCORDO
100
AcDbLine
 62
253
  6
CONTINUOUS
 10
69.8426832041
 20
45.2608241764
 11
69.8426832041
 21
19.624041855
  0
LINE
  5
54E
100
AcDbEntity
  8
RACCORDO
100
AcDbLine
 62
253
  6
CONTINUOUS
 10
69.8426832041
 20
-17.5681161873
 11
69.8426832041
 21
-43.2048985087
  0
LINE
  5
54F
100
AcDbEntity
  8
RACCORDO
100
AcDbLine
 62
253
  6
CONTINUOUS
 10
69.9474135937
 20
19.5193114654
 11
69.9474135937
 21
-17.4633857977
  0
LINE
  5
550
100
AcDbEntity
  8
RACCORDO
100
AcDbLine
 62
7
  6
CONTINUOUS
 10
70.109898014
 20
-43.4720562046
 11
70.109898014
 21
45.5279818723
  0
LWPOLYLINE
  5
551
100
AcDbEntity
  8
RACCORDO
100
AcDbPolyline
 62
253
  6
CONTINUOUS
 90
40
 70
0
 10
69.8426832041
 20
19.624041855
 10
69.842270416
 20
19.6038819817
 10
69.8410451464
 20
19.5837566619
 10
69.8390096011
 20
19.5636986176
 10
69.8361669887
 20
19.5437385234
 10
69.8325223009
 20
19.5239107531
 10
69.8280830764
 20
19.5042531855
 10
69.8228569554
 20
19.4847959402
 10
69.8168536502
 20
19.4655720244
 10
69.8100876501
 20
19.4466225465
 10
69.8025791253
 20
19.4279941088
 10
69.7943365132
 20
19.4096987616
 10
69.7853549257
 20
19.3917265963
 10
69.7756353324
 20
19.3740891968
 10
69.7652001671
 20
19.356836218
 10
69.7540761067
 20
19.3400150642
 10
69.742284842
 20
19.3236585456
 10
69.7298417293
 20
19.3077879738
 10
69.7167680281
 20
19.2924309171
 10
69.7030797961
 20
19.2776071675
 10
69.6888038576
 20
19.2633466626
 10
69.6739813655
 20
19.249688679
 10
69.6586507677
 20
19.236663583
 10
69.6428270176
 20
19.2242792025
 10
69.6265173305
 20
19.2125395655
 10
69.6097430542
 20
19.2014607026
 10
69.5925358213
 20
19.1910641529
 10
69.5749171606
 20
19.18136364
 10
69.5569089885
 20
19.1723728761
 10
69.5385458693
 20
19.1641107299
 10
69.5198695457
 20
19.1565962418
 10
69.500915743
 20
19.1498428205
 10
69.4817102686
 20
19.1438587105
 10
69.4622811581
 20
19.1386522677
 10
69.4426597527
 20
19.1342317325
 10
69.4228779906
 20
19.1306041435
 10
69.4029650723
 20
19.1277748661
 10
69.38295225
 20
19.1257485836
 10
69.3628728448
 20
19.1245289115
 10
69.3427593566
 20
19.1241180074
  0
LWPOLYLINE
  5
552
100
AcDbEntity
  8
RACCORDO
100
AcDbPolyline
 62
7
  6
CONTINUOUS
 90
28
 70
0
 10
69.9474135937
 20
19.5193114654
 10
69.9464323601
 20
19.4958340781
 10
69.9442909354
 20
19.4722674736
 10
69.9409557046
 20
19.4486116519
 10
69.9363958133
 20
19.4247993368
 10
69.9305833751
 20
19.4008978045
 10
69.9234936929
 20
19.3771088837
 10
69.9151093106
 20
19.3534314455
 10
69.9054106475
 20
19.3298666187
 10
69.894371358
 20
19.3066196193
 10
69.8819860613
 20
19.2836888894
 10
69.868241691
 20
19.2610759869
 10
69.8530937009
 20
19.2389908007
 10
69.8365445394
 20
19.2174220939
 10
69.8185881017
 20
19.1963811034
 10
69.7991530058
 20
19.1761114291
 10
69.7782516898
 20
19.1565895304
 10
69.7558871507
 20
19.1378389478
 10
69.7319568562
 20
19.1201739032
 10
69.7064882025
 20
19.1035549037
 10
69.6795032065
 20
19.0880214422
 10
69.6508779249
 20
19.0740062186
 10
69.6206372636
 20
19.0614544631
 10
69.5888713815
 20
19.0504209456
 10
69.5555609715
 20
19.0415026758
 10
69.5207787288
 20
19.034898657
 10
69.484699007
 20
19.030409886
 10
69.4474897461
 20
19.0280363628
  0
LINE
  5
553
100
AcDbEntity
  8
DRAFT
100
AcDbLine
 62
7
  6
CONTINUOUS
 10
67.8243747096
 20
19.0279628338
 11
67.8217566493
 21
19.0331993533
  0
ARC
  5
554
100
AcDbEntity
  8
ASSI
100
AcDbCircle
 62
7
  6
CONTINUOUS
 10
-65.340101986
 20
14.9979628338
 40
0.5
100
AcDbArc
 50
329.8920204575
 51
3.4525338204
  0
ARC
  5
555
100
AcDbEntity
  8
ASSI
100
AcDbCircle
 62
7
  6
CONTINUOUS
 10
-65.340101986
 20
14.9979628338
 40
0.5
100
AcDbArc
 50
176.5474661796
 51
210.1079795425
  0
CIRCLE
  5
556
100
AcDbEntity
  8
RACCORDO
100
AcDbCircle
 62
253
  6
CONTINUOUS
 10
0.109898014
 20
-40.0220371662
 40
2.4
  0
CIRCLE
  5
557
100
AcDbEntity
  8
RACCORDO
100
AcDbCircle
 62
7
  6
CONTINUOUS
 10
0.109898014
 20
-40.0220371662
 40
2.2
  0
CIRCLE
  5
558
100
AcDbEntity
  8
RACCORDO
100
AcDbCircle
 62
253
  6
CONTINUOUS
 10
4.109898014
 20
-22.3720371662
 40
2.1982622421
  0
CIRCLE
  5
559
100
AcDbEntity
  8
RACCORDO
100
AcDbCircle
 62
253
  6
CONTINUOUS
 10
61.609898014
 20
-22.3720371662
 40
2.1982622421
  0
CIRCLE
  5
55A
100
AcDbEntity
  8
RACCORDO
100
AcDbCircle
 62
7
  6
CONTINUOUS
 10
4.109898014
 20
-22.3720371662
 40
1.9982698575
  0
CIRCLE
  5
55B
100
AcDbEntity
  8
RACCORDO
100
AcDbCircle
 62
7
  6
CONTINUOUS
 10
61.609898014
 20
-22.3720371662
 40
1.9982698575
  0
CIRCLE
  5
55C
100
AcDbEntity
  8
DRAFT
100
AcDbCircle
 62
7
  6
CONTINUOUS
 10
4.109898014
 20
-22.3720371662
 40
1.9476387933
  0
CIRCLE
  5
55D
100
AcDbEntity
  8
DRAFT
100
AcDbCircle
 62
7
  6
CONTINUOUS
 10
61.609898014
 20
-22.3720371662
 40
1.9476387933
  0
ARC
  5
55E
100
AcDbEntity
  8
0
100
AcDbCircle
 62
7
  6
CONTINUOUS
 10
37.302034014
 20
-0.5791931662
 40
0.9345803565
100
AcDbArc
 50
97.3568734265
 51
164.2677653708
  0
ARC
  5
55F
100
AcDbEntity
  8
ASSI
100
AcDbCircle
 62
7
  6
CONTINUOUS
 10
37.302034014
 20
-0.5791931662
 40
0.9345790614
100
AcDbArc
 50
183.2757971638
 51
78.4375028422
  0
CIRCLE
  5
560
100
AcDbEntity
  8
ASSI
100
AcDbCircle
 62
7
  6
CONTINUOUS
 10
37.302034014
 20
-0.5791931662
 40
0.534046
  0
ARC
  5
561
100
AcDbEntity
  8
DRAFT
100
AcDbCircle
 62
7
  6
CONTINUOUS
 10
18.059898014
 20
-26.8720371662
 40
0.5
100
AcDbArc
 50
270.0
 51
360.0
  0
ARC
  5
562
100
AcDbEntity
  8
DRAFT
100
AcDbCircle
 62
7
  6
CONTINUOUS
 10
13.559898014
 20
-26.8720371662
 40
0.5
100
AcDbArc
 50
180.0
 51
206.7044566734
  0
ARC
  5
563
100
AcDbEntity
  8
DRAFT
100
AcDbCircle
 62
7
  6
CONTINUOUS
 10
13.559898014
 20
-33.8720371662
 40
0.5
100
AcDbArc
 50
90.0
 51
180.0
  0
ARC
  5
564
100
AcDbEntity
  8
DRAFT
100
AcDbCircle
 62
7
  6
CONTINUOUS
 10
18.059898014
 20
-33.8720371662
 40
0.5
100
AcDbArc
 50
0.0
 51
90.0
  0
ARC
  5
565
100
AcDbEntity
  8
RACCORDO
100
AcDbCircle
 62
7
  6
CONTINUOUS
 10
11.809898014
 20
-35.5720371662
 40
0.5
100
AcDbArc
 50
0.0
 51
90.0
  0
ARC
  5
566
100
AcDbEntity
  8
RACCORDO
100
AcDbCircle
 62
7
  6
CONTINUOUS
 10
19.809898014
 20
-35.5720371662
 40
0.5
100
AcDbArc
 50
90.0
 51
180.0
  0
CIRCLE
  5
567
100
AcDbEntity
  8
RACCORDO
100
AcDbCircle
 62
253
  6
CONTINUOUS
 10
0.109898014
 20
42.0779628338
 40
2.4
  0
CIRCLE
  5
568
100
AcDbEntity
  8
RACCORDO
100
AcDbCircle
 62
7
  6
CONTINUOUS
 10
0.109898014
 20
42.0779628338
 40
2.2
  0
CIRCLE
  5
569
100
AcDbEntity
  8
RACCORDO
100
AcDbCircle
 62
253
  6
CONTINUOUS
 10
4.109898014
 20
24.4279628338
 40
2.1982622421
  0
CIRCLE
  5
56A
100
AcDbEntity
  8
RACCORDO
100
AcDbCircle
 62
7
  6
CONTINUOUS
 10
4.109898014
 20
24.4279628338
 40
1.9982698575
  0
CIRCLE
  5
56B
100
AcDbEntity
  8
DRAFT
100
AcDbCircle
 62
7
  6
CONTINUOUS
 10
4.109898014
 20
24.4279628338
 40
1.9476387933
  0
ARC
  5
56C
100
AcDbEntity
  8
ASSI
100
AcDbCircle
 62
7
  6
CONTINUOUS
 10
35.406174014
 20
2.1978428338
 40
5.6074766208
100
AcDbArc
 50
66.1507510581
 51
77.0671232762
  0
ARC
  5
56D
100
AcDbEntity
  8
ASSI
100
AcDbCircle
 62
7
  6
CONTINUOUS
 10
35.406174014
 20
2.1978428338
 40
5.6074765047
100
AcDbArc
 50
109.1821054584
 51
112.6110335093
  0
ARC
  5
56E
100
AcDbEntity
  8
ASSI
100
AcDbCircle
 62
7
  6
CONTINUOUS
 10
35.406174014
 20
2.1978428338
 40
5.6074761346
100
AcDbArc
 50
91.9102144889
 51
103.4934082927
  0
ARC
  5
56F
100
AcDbEntity
  8
ASSI
100
AcDbCircle
 62
7
  6
CONTINUOUS
 10
38.103102014
 20
7.1110608338
 40
0.4806413166
100
AcDbArc
 50
303.7488518717
 51
153.3682031718
  0
CIRCLE
  5
570
100
AcDbEntity
  8
RACCORDO
100
AcDbCircle
 62
253
  6
CONTINUOUS
 10
61.609898014
 20
24.4279628338
 40
2.1982622421
  0
CIRCLE
  5
571
100
AcDbEntity
  8
RACCORDO
100
AcDbCircle
 62
7
  6
CONTINUOUS
 10
61.609898014
 20
24.4279628338
 40
1.9982698575
  0
CIRCLE
  5
572
100
AcDbEntity
  8
DRAFT
100
AcDbCircle
 62
7
  6
CONTINUOUS
 10
61.609898014
 20
24.4279628338
 40
1.9476387933
  0
ARC
  5
573
100
AcDbEntity
  8
ASSI
100
AcDbCircle
 62
7
  6
CONTINUOUS
 10
47.309898014
 20
37.0279628338
 40
0.65
100
AcDbArc
 50
50.3271364409
 51
107.9289446864
  0
ARC
  5
574
100
AcDbEntity
  8
ASSI
100
AcDbCircle
 62
7
  6
CONTINUOUS
 10
47.309898014
 20
37.0279628338
 40
0.65
100
AcDbArc
 50
320.3271364409
 51
39.6728635591
  0
ARC
  5
575
100
AcDbEntity
  8
ASSI
100
AcDbCircle
 62
7
  6
CONTINUOUS
 10
47.309898014
 20
37.0279628338
 40
0.65
100
AcDbArc
 50
252.0710553136
 51
309.6728635591
  0
ARC
  5
576
100
AcDbEntity
  8
ASSI
100
AcDbCircle
 62
7
  6
CONTINUOUS
 10
42.309898014
 20
37.0279628338
 40
0.65
100
AcDbArc
 50
50.3271364409
 51
107.9289446864
  0
ARC
  5
577
100
AcDbEntity
  8
ASSI
100
AcDbCircle
 62
7
  6
CONTINUOUS
 10
42.309898014
 20
37.0279628338
 40
0.65
100
AcDbArc
 50
320.3271364409
 51
39.6728635591
  0
ARC
  5
578
100
AcDbEntity
  8
ASSI
100
AcDbCircle
 62
7
  6
CONTINUOUS
 10
42.309898014
 20
37.0279628338
 40
0.65
100
AcDbArc
 50
252.0710553136
 51
309.6728635591
  0
ARC
  5
579
100
AcDbEntity
  8
ASSI
100
AcDbCircle
 62
7
  6
CONTINUOUS
 10
32.309898014
 20
37.0279628338
 40
0.65
100
AcDbArc
 50
50.3271364409
 51
107.9289446864
  0
ARC
  5
57A
100
AcDbEntity
  8
ASSI
100
AcDbCircle
 62
7
  6
CONTINUOUS
 10
32.309898014
 20
37.0279628338
 40
0.65
100
AcDbArc
 50
320.3271364409
 51
39.6728635591
  0
ARC
  5
57B
100
AcDbEntity
  8
ASSI
100
AcDbCircle
 62
7
  6
CONTINUOUS
 10
32.309898014
 20
37.0279628338
 40
0.65
100
AcDbArc
 50
252.0710553136
 51
309.6728635591
  0
ELLIPSE
  5
57C
100
AcDbEntity
  8
RACCORDO
100
AcDbEllipse
 62
7
  6
CONTINUOUS
 10
11.0099284796
 20
-45.7720067006
 30
0.0
 11
0.1414644378
 21
0.1414644378
 31
0.0
 40
0.9996954599
 41
2.3563467834
 42
3.9268385237
  0
ELLIPSE
  5
57D
100
AcDbEntity
  8
RACCORDO
100
AcDbEllipse
 62
7
  6
CONTINUOUS
 10
20.6098675484
 20
-45.7720067006
 30
0.0
 11
0.1414644378
 21
-0.1414644378
 31
0.0
 40
0.9996954599
 41
-0.7852458701
 42
0.7852458701
  0
ELLIPSE
  5
57E
100
AcDbEntity
  8
RACCORDO
100
AcDbEllipse
 62
7
  6
CONTINUOUS
 10
23.6045849578
 20
-13.9774263864
 30
0.0
 11
-0.0
 21
0.5
 31
0.0
 40
0.0174550649
 41
0.0174532925
 42
1.0960667703
  0
ELLIPSE
  5
57F
100
AcDbEntity
  8
RACCORDO
100
AcDbEllipse
 62
7
  6
CONTINUOUS
 10
8.0152110702
 20
-13.9774263864
 30
0.0
 11
0.0
 21
0.5
 31
0.0
 40
0.0174550649
 41
-1.0960667703
 42
-0.0174532925
  0
ELLIPSE
  5
580
100
AcDbEntity
  8
RACCORDO
100
AcDbEllipse
 62
7
  6
CONTINUOUS
 10
69.6098789748
 20
-43.472018127
 30
0.0
 11
-0.3535803156
 21
0.3535803156
 31
0.0
 40
0.9999238505
 41
2.3562325664
 42
3.9269527408
  0
ELLIPSE
  5
581
100
AcDbEntity
  8
RACCORDO
100
AcDbEllipse
 62
7
  6
CONTINUOUS
 10
-69.3900829468
 20
-43.472018127
 30
0.0
 11
-0.3535803156
 21
-0.3535803156
 31
0.0
 40
0.9999238505
 41
-0.7853600872
 42
0.7853600872
  0
ELLIPSE
  5
582
100
AcDbEntity
  8
RACCORDO
100
AcDbEllipse
 62
7
  6
CONTINUOUS
 10
34.1715273368
 20
-35.8836664889
 30
0.0
 11
-0.1414644378
 21
0.1414644378
 31
0.0
 40
0.9996954599
 41
-0.7852458701
 42
0.7852458701
  0
ELLIPSE
  5
583
100
AcDbEntity
  8
RACCORDO
100
AcDbEllipse
 62
7
  6
CONTINUOUS
 10
34.1715273368
 20
37.9395921566
 30
0.0
 11
-0.1414644378
 21
-0.1414644378
 31
0.0
 40
0.9996954599
 41
-0.7852458701
 42
0.7852458701
  0
ELLIPSE
  5
584
100
AcDbEntity
  8
RACCORDO
100
AcDbEllipse
 62
7
  6
CONTINUOUS
 10
-66.790025822
 20
15.5279628338
 30
0.0
 11
-0.3609171409
 21
0.3475427561
 31
0.0
 40
0.9959724651
 41
0.7645060574
 42
2.3393351651
  0
ELLIPSE
  5
585
100
AcDbEntity
  8
RACCORDO
100
AcDbEllipse
 62
7
  6
CONTINUOUS
 10
69.60982185
 20
-43.4719610021
 30
0.0
 11
0.3536610946
 21
-0.3536610946
 31
0.0
 40
0.9996954599
 41
-0.7852458701
 42
0.7852458701
  0
ELLIPSE
  5
586
100
AcDbEntity
  8
RACCORDO
100
AcDbEllipse
 62
7
  6
CONTINUOUS
 10
69.60982185
 20
45.5278866698
 30
0.0
 11
0.3536610946
 21
0.3536610946
 31
0.0
 40
0.9996954599
 41
-0.7852458701
 42
0.7852458701
  0
ELLIPSE
  5
587
100
AcDbEntity
  8
RACCORDO
100
AcDbEllipse
 62
7
  6
CONTINUOUS
 10
-69.390025822
 20
45.5278866698
 30
0.0
 11
0.3536610946
 21
-0.3536610946
 31
0.0
 40
0.9996954599
 41
2.3563467834
 42
3.9268385237
  0
ELLIPSE
  5
588
100
AcDbEntity
  8
RACCORDO
100
AcDbEllipse
 62
7
  6
CONTINUOUS
 10
-69.390025822
 20
-43.4719610021
 30
0.0
 11
0.3536610946
 21
0.3536610946
 31
0.0
 40
0.9996954599
 41
-3.9268385237
 42
-2.3563467834
  0
ELLIPSE
  5
589
100
AcDbEntity
  8
RACCORDO
100
AcDbEllipse
 62
7
  6
CONTINUOUS
 10
8.3099170532
 20
-20.7720371662
 30
0.0
 11
0.5000190392
 21
-0.0
 31
0.0
 40
0.9999619231
 41
3.1415926536
 42
4.6827379486
  0
ELLIPSE
  5
58A
100
AcDbEntity
  8
RACCORDO
100
AcDbEllipse
 62
7
  6
CONTINUOUS
 10
23.3098789748
 20
-20.7720371662
 30
0.0
 11
-0.5000190392
 21
0.0
 31
0.0
 40
0.9999619231
 41
7.853981634
 42
9.4247779608
  0
ELLIPSE
  5
58B
100
AcDbEntity
  8
RACCORDO
100
AcDbEllipse
 62
7
  6
CONTINUOUS
 10
67.00982185
 20
15.5279628338
 30
0.0
 11
0.3609171409
 21
0.3475427561
 31
0.0
 40
0.9959724651
 41
-2.3393351651
 42
-0.7645060574
  0
ELLIPSE
  5
58C
100
AcDbEntity
  8
RACCORDO
100
AcDbEllipse
 62
7
  6
CONTINUOUS
 10
59.209974178
 20
15.5279628338
 30
0.0
 11
-0.3609171409
 21
0.3475427561
 31
0.0
 40
0.9959724651
 41
0.7645060574
 42
2.3393351651
  0
ELLIPSE
  5
58D
100
AcDbEntity
  8
RACCORDO
100
AcDbEllipse
 62
7
  6
CONTINUOUS
 10
-58.99017815
 20
15.5279628338
 30
0.0
 11
0.3609171409
 21
0.3475427561
 31
0.0
 40
0.9959724651
 41
-2.3393351651
 42
-0.7645060574
  0
ELLIPSE
  5
58E
100
AcDbEntity
  8
RACCORDO
100
AcDbEllipse
 62
7
  6
CONTINUOUS
 10
19.5328001078
 20
-34.9676733999
 30
0.0
 11
0.25
 21
-0.0
 31
0.0
 40
0.0174550649
 41
-2.6382538449
 42
-1.5707963268
  0
ELLIPSE
  5
58F
100
AcDbEntity
  8
RACCORDO
100
AcDbEllipse
 62
7
  6
CONTINUOUS
 10
15.809898014
 20
-35.003456283
 30
0.0
 11
4.0
 21
-0.0
 31
0.0
 40
0.0174550649
 41
0.5033388086
 42
0.6577821084
  0
ELLIPSE
  5
590
100
AcDbEntity
  8
RACCORDO
100
AcDbEllipse
 62
7
  6
CONTINUOUS
 10
12.0869959202
 20
-34.9676733999
 30
0.0
 11
0.25
 21
0.0
 31
0.0
 40
0.0174550649
 41
-1.5707963268
 42
-1.0298563249
  0
ELLIPSE
  5
591
100
AcDbEntity
  8
RACCORDO
100
AcDbEllipse
 62
7
  6
CONTINUOUS
 10
12.0869959202
 20
-25.9764009324
 30
0.0
 11
0.25
 21
-0.0
 31
0.0
 40
0.0174550649
 41
0.5033388086
 42
1.5707963268
  0
ELLIPSE
  5
592
100
AcDbEntity
  8
RACCORDO
100
AcDbEllipse
 62
7
  6
CONTINUOUS
 10
15.809898014
 20
-25.9406180493
 30
0.0
 11
4.0
 21
-0.0
 31
0.0
 40
0.0174550649
 41
-0.6560284327
 42
-0.5033388086
  0
ELLIPSE
  5
593
100
AcDbEntity
  8
RACCORDO
100
AcDbEllipse
 62
7
  6
CONTINUOUS
 10
15.809898014
 20
-25.9406180493
 30
0.0
 11
4.0
 21
-0.0
 31
0.0
 40
0.0174550649
 41
-2.6382538449
 42
-2.3291040079
  0
ELLIPSE
  5
594
100
AcDbEntity
  8
RACCORDO
100
AcDbEllipse
 62
7
  6
CONTINUOUS
 10
19.5328001078
 20
-25.9764009324
 30
0.0
 11
0.25
 21
0.0
 31
0.0
 40
0.0174550649
 41
1.5707963268
 42
2.6382538449
  0
ELLIPSE
  5
595
100
AcDbEntity
  8
RACCORDO
100
AcDbEllipse
 62
7
  6
CONTINUOUS
 10
21.559974178
 20
-43.1961709763
 30
0.0
 11
-0.3536610946
 21
-0.3536610946
 31
0.0
 40
0.9996954599
 41
-0.7852458701
 42
-0.7680971641
  0
ELLIPSE
  5
596
100
AcDbEntity
  8
RACCORDO
100
AcDbEllipse
 62
7
  6
CONTINUOUS
 10
59.2968219955
 20
21.1917865244
 30
0.0
 11
0.0174550346
 21
2.1638199317
 31
0.0
 40
0.2310653143
 41
2.383005471
 42
2.9102768012
  0
ELLIPSE
  5
597
100
AcDbEntity
  8
RACCORDO
100
AcDbEllipse
 62
7
  6
CONTINUOUS
 10
-59.0770259675
 20
21.1917865244
 30
0.0
 11
0.0174550346
 21
-2.1638199317
 31
0.0
 40
0.2310653143
 41
0.2313158524
 42
0.7585871826
  0
ELLIPSE
  5
598
100
AcDbEntity
  8
RACCORDO
100
AcDbEllipse
 62
7
  6
CONTINUOUS
 10
-66.7031780045
 20
21.1917865244
 30
0.0
 11
0.0174550346
 21
2.1638199317
 31
0.0
 40
0.2310653143
 41
2.383005471
 42
2.9102768012
  0
ELLIPSE
  5
599
100
AcDbEntity
  8
RACCORDO
100
AcDbEllipse
 62
7
  6
CONTINUOUS
 10
21.4028785937
 20
-43.3532665606
 30
0.0
 11
0.3536610946
 21
0.3536610946
 31
0.0
 40
0.9996954599
 41
-3.9268385237
 42
-3.9096898177
  0
ELLIPSE
  5
59A
100
AcDbEntity
  8
RACCORDO
100
AcDbEllipse
 62
7
  6
CONTINUOUS
 10
10.2169174343
 20
-43.3532665606
 30
0.0
 11
0.3536610946
 21
-0.3536610946
 31
0.0
 40
0.9996954599
 41
0.7680971641
 42
0.7852458701
  0
ELLIPSE
  5
59B
100
AcDbEntity
  8
RACCORDO
100
AcDbEllipse
 62
7
  6
CONTINUOUS
 10
66.9229740325
 20
21.1917865244
 30
0.0
 11
0.0174550346
 21
-2.1638199317
 31
0.0
 40
0.2310653143
 41
0.2313158524
 42
0.7585871826
  0
ELLIPSE
  5
59C
100
AcDbEntity
  8
RACCORDO
100
AcDbEllipse
 62
7
  6
CONTINUOUS
 10
21.056407001
 20
-41.4720371662
 30
0.0
 11
-0.0
 21
0.2
 31
0.0
 40
0.0174550649
 41
-3.1415926536
 42
-1.5707963268
  0
ELLIPSE
  5
59D
100
AcDbEntity
  8
RACCORDO
100
AcDbEllipse
 62
7
  6
CONTINUOUS
 10
10.563389027
 20
-41.4720371662
 30
0.0
 11
0.0
 21
0.2
 31
0.0
 40
0.0174550649
 41
-4.7123889804
 42
-3.1415926536
  0
ELLIPSE
  5
59E
100
AcDbEntity
  8
RACCORDO
100
AcDbEllipse
 62
7
  6
CONTINUOUS
 10
19.809898014
 20
-37.9997837059
 30
0.0
 11
0.0
 21
1.0722534603
 31
0.0
 40
0.4663076582
 41
1.5707963268
 42
3.1415926536
  0
ELLIPSE
  5
59F
100
AcDbEntity
  8
RACCORDO
100
AcDbEllipse
 62
7
  6
CONTINUOUS
 10
11.809898014
 20
-37.9997837059
 30
0.0
 11
0.0
 21
1.0722534603
 31
0.0
 40
0.4663076582
 41
-3.1415926536
 42
-1.5707963268
  0
ELLIPSE
  5
5A0
100
AcDbEntity
  8
RACCORDO
100
AcDbEllipse
 62
7
  6
CONTINUOUS
 10
-69.2189661857
 20
-17.4721133302
 30
0.0
 11
-0.3536610946
 21
0.3536610946
 31
0.0
 40
0.9996954599
 41
-0.7852458701
 42
-0.7680971641
  0
ELLIPSE
  5
5A1
100
AcDbEntity
  8
RACCORDO
100
AcDbEllipse
 62
7
  6
CONTINUOUS
 10
-69.2189661857
 20
19.5280389979
 30
0.0
 11
0.3536610946
 21
0.3536610946
 31
0.0
 40
0.9996954599
 41
-2.3734954895
 42
-2.3563467834
  0
ELLIPSE
  5
5A2
100
AcDbEntity
  8
RACCORDO
100
AcDbEllipse
 62
7
  6
CONTINUOUS
 10
10.05982185
 20
-43.1961709763
 30
0.0
 11
-0.3536610946
 21
0.3536610946
 31
0.0
 40
0.9996954599
 41
-2.3734954895
 42
-2.3563467834
  0
ELLIPSE
  5
5A3
100
AcDbEntity
  8
RACCORDO
100
AcDbEllipse
 62
7
  6
CONTINUOUS
 10
69.4387622137
 20
19.5280389979
 30
0.0
 11
-0.3536610946
 21
0.3536610946
 31
0.0
 40
0.9996954599
 41
-3.9268385237
 42
-3.9096898177
  0
ELLIPSE
  5
5A4
100
AcDbEntity
  8
RACCORDO
100
AcDbEllipse
 62
7
  6
CONTINUOUS
 10
69.4387622137
 20
-17.4721133302
 30
0.0
 11
0.3536610946
 21
0.3536610946
 31
0.0
 40
0.9996954599
 41
0.7680971641
 42
0.7852458701
  0
ELLIPSE
  5
5A5
100
AcDbEntity
  8
RACCORDO
100
AcDbEllipse
 62
7
  6
CONTINUOUS
 10
24.2767549556
 20
-17.4721133302
 30
0.0
 11
-0.2236357461
 21
0.4473055582
 31
0.0
 40
0.9998096356
 41
-0.4635410001
 42
1.1071030277
  0
ELLIPSE
  5
5A6
100
AcDbEntity
  8
RACCORDO
100
AcDbEllipse
 62
7
  6
CONTINUOUS
 10
7.3430410724
 20
-17.4721133302
 30
0.0
 11
0.2236357461
 21
0.4473055582
 31
0.0
 40
0.9998096356
 41
-1.1071030277
 42
0.4635410001
  0
ELLIPSE
  5
5A7
100
AcDbEntity
  8
RACCORDO
100
AcDbEllipse
 62
7
  6
CONTINUOUS
 10
-67.2180688205
 20
19.624041855
 30
0.0
 11
0.0020172739
 21
0.4999999988
 31
0.0
 40
0.0169823943
 41
-3.1240708448
 42
-3.107536852
  0
ELLIPSE
  5
5A8
100
AcDbEntity
  8
RACCORDO
100
AcDbEllipse
 62
7
  6
CONTINUOUS
 10
67.4378648485
 20
19.624041855
 30
0.0
 11
-0.0020172739
 21
0.4999999988
 31
0.0
 40
0.0169823943
 41
-3.1756484552
 42
-3.1591144624
  0
ELLIPSE
  5
5A9
100
AcDbEntity
  8
RACCORDO
100
AcDbEllipse
 62
7
  6
CONTINUOUS
 10
-58.5621351515
 20
19.624041855
 30
0.0
 11
-0.0020172739
 21
0.4999999988
 31
0.0
 40
0.0169823943
 41
-3.1756484552
 42
-3.1591144624
  0
ELLIPSE
  5
5AA
100
AcDbEntity
  8
RACCORDO
100
AcDbEllipse
 62
7
  6
CONTINUOUS
 10
58.7819311795
 20
19.624041855
 30
0.0
 11
0.0020172739
 21
0.4999999988
 31
0.0
 40
0.0169823943
 41
-3.1240708448
 42
-3.107536852
  0
ENDSEC
  0
SECTION
  2
OBJECTS
  0
DICTIONARY
  5
C
100
AcDbDictionary
280
0
281
1
  3
ACAD_GROUP
350
D
  3
ACAD_MLINESTYLE
350
17
  3
ACAD_LAYOUT
350
1A
  3
ACAD_PLOTSETTINGS
350
19
  3
ACAD_PLOTSTYLENAME
350
E
  0
DICTIONARY
  5
D
102
{ACAD_REACTORS
330
C
102
}
100
AcDbDictionary
280
0
281
1
  0
ACDBDICTIONARYWDFLT
  5
E
102
{ACAD_REACTORS
330
C
102
}
100
AcDbDictionary
281
1
  3
Normal
350
F
100
AcDbDictionaryWithDefault
340
F
  0
DICTIONARY
  5
17
102
{ACAD_REACTORS
330
C
102
}
100
AcDbDictionary
280
0
281
1
  3
Standard
350
18
  0
DICTIONARY
  5
19
102
{ACAD_REACTORS
330
C
102
}
100
AcDbDictionary
281
1
  0
DICTIONARY
  5
1A
102
{ACAD_REACTORS
330
C
102
}
100
AcDbDictionary
281
1
  3
Model
350
5AB
  3
Layout1
350
5AC
  0
ACDBPLACEHOLDER
  5
F
102
{ACAD_REACTORS
330
E
102
}
  0
MLINESTYLE
  5
18
102
{ACAD_REACTORS
330
17
102
}
100
AcDbMlineStyle
  2
STANDARD
 70
0
  3

 62
256
 51
90.0
 52
90.0
 71
2
 49
0.5
 62
256
  6
BYLAYER
 49
-0.5
 62
256
  6
BYLAYER
  0
LAYOUT
  5
5AB
102
{ACAD_REACTORS
330
1A
102
}
100
AcDbPlotSettings
  1

  2
none_device
  4
ISO_A4_(297.00_x_210.00_MM)
  6

 40
0.0
 41
0.0
 42
0.0
 43
0.0
 44
297.0
 45
210.0
 46
0.0
 47
0.0
 48
0.0
 49
0.0
140
0.0
141
0.0
142
1.0
143
1.0
 70
1024
 72
1
 73
0
 74
0
  7

 75
0
147
1.0
148
0.0
149
0.0
100
AcDbLayout
  1
Model
 70
0
 71
0
 10
0.0
 20
0.0
 11
297.0
 21
210.0
 12
0.0
 22
0.0
 32
0.0
 14
0.0
 24
0.0
 34
0.0
 15
0.0
 25
0.0
 35
0.0
146
0.0
 13
0.0
 23
0.0
 33
0.0
 16
1.0
 26
0.0
 36
0.0
 17
0.0
 27
1.0
 37
0.0
 76
0
330
2DA
345
0
346
0
  0
LAYOUT
  5
5AC
102
{ACAD_REACTORS
330
1A
102
}
100
AcDbPlotSettings
  1

  2
none_device
  4
ISO_A4_(297.00_x_210.00_MM)
  6

 40
0.0
 41
0.0
 42
0.0
 43
0.0
 44
297.0
 45
210.0
 46
0.0
 47
0.0
 48
0.0
 49
0.0
140
0.0
141
0.0
142
1.0
143
1.0
 70
0
 72
1
 73
0
 74
0
  7

 75
0
147
1.0
148
0.0
149
0.0
100
AcDbLayout
  1
Layout1
 70
0
 71
1
 10
0.0
 20
0.0
 11
297.0
 21
210.0
 12
0.0
 22
0.0
 32
0.0
 14
0.0
 24
0.0
 34
0.0
 15
0.0
 25
0.0
 35
0.0
146
0.0
 13
0.0
 23
0.0
 33
0.0
 16
1.0
 26
0.0
 36
0.0
 17
0.0
 27
1.0
 37
0.0
 76
0
330
2DB
345
0
346
0
  0
ENDSEC
  0
EOF
