  0
SECTION
  2
HEADER
  9
$ACADVER
  1
AC1027
  9
$DWGCODEPAGE
  3
ANSI_1252
  9
$EXTMAX
 10
297.0
 20
210.0
 30
0.0
  9
$EXTMIN
 10
0.0
 20
0.0
 30
0.0
  9
$LIMMIN
 10
0.0
 20
0.0
  9
$LIMMAX
 10
297.0
 20
210.0
  9
$VIEWCTR
 10
148.5
 20
105.0
  9
$VIEWSIZE
 40
210.0
  9
$CLAYER
  8
0
  9
$LTSCALE
 40
16.335
  9
$CELTYPE
  6
BYLAYER
  9
$DIMSCALE
 40
1.0
  9
$DIMASZ
 40
3.0
  9
$DIMEXO
 40
0.5
  9
$DIMDLI
 40
11.286
  9
$DIMEXE
 40
1.5
  9
$DIMCEN
 40
2.673
  9
$DIMLFAC
 40
1.0
  9
$DIMBLK
  1
_FILLED
  9
$DIMALT
 70
0
  9
$DIMALTF
 40
0.0393700787
  9
$DIMTXT
 40
3.0
  9
$DIMTOL
 70
1
  9
$DIMLIM
 70
0
  9
$DIMTFAC
 40
1.0
  9
$DIMTP
 40
0.01
  9
$DIMTM
 40
0.01
  9
$DIMGAP
 40
0.625
  9
$DIMDSEP
 70
44
  9
$AUNITS
 70
0
  9
$PDMODE
 70
3
  9
$PDSIZE
 40
3.0
  9
$HANDSEED
  5
410
  9
$TILEMODE
 70
1
  9
$MEASUREMENT
 70
1
  9
$INSUNITS
 70
4
  0
ENDSEC
  0
SECTION
  2
CLASSES
  0
CLASS
  1
ACDBDICTIONARYWDFLT
  2
AcDbDictionaryWithDefault
  3
AutoCAD 2000
 90
0
 91
1
280
0
281
0
  0
CLASS
  1
ACDBPLACEHOLDER
  2
AcDbPlaceHolder
  3
AutoCAD 2000
 90
0
 91
1
280
0
281
0
  0
CLASS
  1
LAYOUT
  2
AcDbLayout
  3
AutoCAD 2000
 90
0
 91
0
280
0
281
0
  0
ENDSEC
  0
SECTION
  2
TABLES
  0
TABLE
  2
VPORT
  5
8
100
AcDbSymbolTable
 70
2
  0
VPORT
  5
1F4
100
AcDbSymbolTableRecord
100
AcDbViewportTableRecord
  2
*ACTIVE
 70
0
 10
0.0
 20
0.0
 11
1.0
 21
1.0
 12
148.5
 22
105.0
 13
0.0
 23
0.0
 14
1.0
 24
1.0
 15
0.0
 25
0.0
 16
0.0
 26
0.0
 36
1.0
 17
0.0
 27
0.0
 37
0.0
 40
210.0
 41
1.4142857143
 42
50.0
 43
0.0
 44
0.0
 50
0.0
 51
0.0
 71
0
 72
100
 73
1
 74
1
 75
0
 76
0
 77
0
 78
0
  0
ENDTAB
  0
TABLE
  2
LTYPE
  5
5
100
AcDbSymbolTable
 70
6
  0
LTYPE
  5
14
100
AcDbSymbolTableRecord
100
AcDbLinetypeTableRecord
  2
BYBLOCK
 70
0
  3

 72
65
 73
0
 40
0.0
  0
LTYPE
  5
15
100
AcDbSymbolTableRecord
100
AcDbLinetypeTableRecord
  2
BYLAYER
 70
0
  3

 72
65
 73
0
 40
0.0
  0
LTYPE
  5
16
100
AcDbSymbolTableRecord
100
AcDbLinetypeTableRecord
  2
CONTINUOUS
 70
64
  3
Solid line
 72
65
 73
0
 40
0.0
  0
LTYPE
  5
1F5
100
AcDbSymbolTableRecord
100
AcDbLinetypeTableRecord
  2
CENTER
 70
64
  3
____ _ ____ _ ____ _ ____ _ ____ _ ____ _ ____
 72
65
 73
4
 40
0.6
 49
0.375
 74
0
 49
-0.075
 74
0
 49
0.075
 74
0
 49
-0.075
 74
0
  0
LTYPE
  5
1F6
100
AcDbSymbolTableRecord
100
AcDbLinetypeTableRecord
  2
HIDDEN
 70
64
  3
- - - - - - - - - - - - - - - - - - - -
 72
65
 73
2
 40
0.2
 49
0.1
 74
0
 49
-0.1
 74
0
  0
LTYPE
  5
1F7
100
AcDbSymbolTableRecord
100
AcDbLinetypeTableRecord
  2
PHANTOM
 70
64
  3
_____ _ _ _____ _ _ _____ _ _ _____
 72
65
 73
6
 40
0.8
 49
0.45
 74
0
 49
-0.05
 74
0
 49
0.1
 74
0
 49
-0.05
 74
0
 49
0.1
 74
0
 49
-0.05
 74
0
  0
LTYPE
  5
1F8
100
AcDbSymbolTableRecord
100
AcDbLinetypeTableRecord
  2
DOT
 70
64
  3
. . . . . . . . . . . . . . . . . . . .
 72
65
 73
2
 40
0.2
 49
0.1
 74
0
 49
-0.1
 74
0
  0
LTYPE
  5
1F9
100
AcDbSymbolTableRecord
100
AcDbLinetypeTableRecord
  2
DASHED
 70
64
  3
- - - - - - - - - - - - - - - - - - - -
 72
65
 73
2
 40
0.2
 49
0.1
 74
0
 49
-0.1
 74
0
  0
ENDTAB
  0
TABLE
  2
LAYER
  5
2
100
AcDbSymbolTable
 70
36
  0
LAYER
  5
10
100
AcDbSymbolTableRecord
100
AcDbLayerTableRecord
  2
0
 70
0
 62
7
  6
CONTINUOUS
370
-3
390
F
  0
LAYER
  5
1FA
100
AcDbSymbolTableRecord
100
AcDbLayerTableRecord
  2
DEFAULT_1
 70
0
 62
7
  6
CENTER
370
-3
390
F
  0
LAYER
  5
1FB
100
AcDbSymbolTableRecord
100
AcDbLayerTableRecord
  2
DEFAULT_2
 70
0
 62
7
  6
HIDDEN
370
-3
390
F
  0
LAYER
  5
1FC
100
AcDbSymbolTableRecord
100
AcDbLayerTableRecord
  2
DEFAULT_3
 70
0
 62
7
  6
PHANTOM
370
-3
390
F
  0
LAYER
  5
1FD
100
AcDbSymbolTableRecord
100
AcDbLayerTableRecord
  2
ASM0001_ASM_20
 70
0
 62
7
  6
CONTINUOUS
370
-3
390
F
  0
LAYER
  5
1FE
100
AcDbSymbolTableRecord
100
AcDbLayerTableRecord
  2
ASSI
 70
0
 62
7
  6
CONTINUOUS
370
-3
390
F
  0
LAYER
  5
1FF
100
AcDbSymbolTableRecord
100
AcDbLayerTableRecord
  2
COORDINATE
 70
0
 62
7
  6
CONTINUOUS
370
-3
390
F
  0
LAYER
  5
200
100
AcDbSymbolTableRecord
100
AcDbLayerTableRecord
  2
COPY_PUBLISH
 70
0
 62
7
  6
CONTINUOUS
370
-3
390
F
  0
LAYER
  5
201
100
AcDbSymbolTableRecord
100
AcDbLayerTableRecord
  2
COSMETICI
 70
0
 62
7
  6
CONTINUOUS
370
-3
390
F
  0
LAYER
  5
202
100
AcDbSymbolTableRecord
100
AcDbLayerTableRecord
  2
CURVE
 70
0
 62
7
  6
CONTINUOUS
370
-3
390
F
  0
LAYER
  5
203
100
AcDbSymbolTableRecord
100
AcDbLayerTableRecord
  2
DRAFT
 70
0
 62
7
  6
CONTINUOUS
370
-3
390
F
  0
LAYER
  5
204
100
AcDbSymbolTableRecord
100
AcDbLayerTableRecord
  2
IMPORT_IGES
 70
0
 62
7
  6
CONTINUOUS
370
-3
390
F
  0
LAYER
  5
205
100
AcDbSymbolTableRecord
100
AcDbLayerTableRecord
  2
INTFCLR_14
 70
0
 62
7
  6
CONTINUOUS
370
-3
390
F
  0
LAYER
  5
206
100
AcDbSymbolTableRecord
100
AcDbLayerTableRecord
  2
INTFCLR_14_1
 70
0
 62
7
  6
CONTINUOUS
370
-3
390
F
  0
LAYER
  5
207
100
AcDbSymbolTableRecord
100
AcDbLayerTableRecord
  2
INTFCLR_15
 70
0
 62
7
  6
CONTINUOUS
370
-3
390
F
  0
LAYER
  5
208
100
AcDbSymbolTableRecord
100
AcDbLayerTableRecord
  2
INTFCLR_7
 70
0
 62
7
  6
CONTINUOUS
370
-3
390
F
  0
LAYER
  5
209
100
AcDbSymbolTableRecord
100
AcDbLayerTableRecord
  2
INTFCLR_8
 70
0
 62
7
  6
CONTINUOUS
370
-3
390
F
  0
LAYER
  5
20A
100
AcDbSymbolTableRecord
100
AcDbLayerTableRecord
  2
INTF_CYAN
 70
0
 62
7
  6
CONTINUOUS
370
-3
390
F
  0
LAYER
  5
20B
100
AcDbSymbolTableRecord
100
AcDbLayerTableRecord
  2
INTF_GREEN
 70
0
 62
7
  6
CONTINUOUS
370
-3
390
F
  0
LAYER
  5
20C
100
AcDbSymbolTableRecord
100
AcDbLayerTableRecord
  2
NOTE
 70
0
 62
7
  6
CONTINUOUS
370
-3
390
F
  0
LAYER
  5
20D
100
AcDbSymbolTableRecord
100
AcDbLayerTableRecord
  2
P2LJ-3X6_5
 70
0
 62
7
  6
CONTINUOUS
370
-3
390
F
  0
LAYER
  5
20E
100
AcDbSymbolTableRecord
100
AcDbLayerTableRecord
  2
P2LJ-3X6_5_1
 70
0
 62
7
  6
CONTINUOUS
370
-3
390
F
  0
LAYER
  5
20F
100
AcDbSymbolTableRecord
100
AcDbLayerTableRecord
  2
P2LJ-3X6_5_2
 70
0
 62
7
  6
CONTINUOUS
370
-3
390
F
  0
LAYER
  5
210
100
AcDbSymbolTableRecord
100
AcDbLayerTableRecord
  2
PIANI
 70
0
 62
7
  6
CONTINUOUS
370
-3
390
F
  0
LAYER
  5
211
100
AcDbSymbolTableRecord
100
AcDbLayerTableRecord
  2
PRT0001_35
 70
0
 62
7
  6
CONTINUOUS
370
-3
390
F
  0
LAYER
  5
212
100
AcDbSymbolTableRecord
100
AcDbLayerTableRecord
  2
PRT0002_12
 70
0
 62
7
  6
CONTINUOUS
370
-3
390
F
  0
LAYER
  5
213
100
AcDbSymbolTableRecord
100
AcDbLayerTableRecord
  2
PRT0003_14
 70
0
 62
7
  6
CONTINUOUS
370
-3
390
F
  0
LAYER
  5
214
100
AcDbSymbolTableRecord
100
AcDbLayerTableRecord
  2
PRT0004_18
 70
0
 62
7
  6
CONTINUOUS
370
-3
390
F
  0
LAYER
  5
215
100
AcDbSymbolTableRecord
100
AcDbLayerTableRecord
  2
PRT0004_18_1
 70
0
 62
7
  6
CONTINUOUS
370
-3
390
F
  0
LAYER
  5
216
100
AcDbSymbolTableRecord
100
AcDbLayerTableRecord
  2
PRT0004_18_2
 70
0
 62
7
  6
CONTINUOUS
370
-3
390
F
  0
LAYER
  5
217
100
AcDbSymbolTableRecord
100
AcDbLayerTableRecord
  2
PRT0004_18_3
 70
0
 62
7
  6
CONTINUOUS
370
-3
390
F
  0
LAYER
  5
218
100
AcDbSymbolTableRecord
100
AcDbLayerTableRecord
  2
PRT0005_28
 70
0
 62
7
  6
CONTINUOUS
370
-3
390
F
  0
LAYER
  5
219
100
AcDbSymbolTableRecord
100
AcDbLayerTableRecord
  2
PRT0020_2
 70
0
 62
7
  6
CONTINUOUS
370
-3
390
F
  0
LAYER
  5
21A
100
AcDbSymbolTableRecord
100
AcDbLayerTableRecord
  2
PRT0022_1
 70
0
 62
7
  6
CONTINUOUS
370
-3
390
F
  0
LAYER
  5
21B
100
AcDbSymbolTableRecord
100
AcDbLayerTableRecord
  2
PUNTI
 70
0
 62
7
  6
CONTINUOUS
370
-3
390
F
  0
LAYER
  5
21C
100
AcDbSymbolTableRecord
100
AcDbLayerTableRecord
  2
RACCORDO
 70
0
 62
7
  6
CONTINUOUS
370
-3
390
F
  0
LAYER
  5
21D
100
AcDbSymbolTableRecord
100
AcDbLayerTableRecord
  2
SIMBOLI
 70
0
 62
7
  6
CONTINUOUS
370
-3
390
F
  0
LAYER
  5
21E
100
AcDbSymbolTableRecord
100
AcDbLayerTableRecord
  2
SMUSSO
 70
0
 62
7
  6
CONTINUOUS
370
-3
390
F
  0
LAYER
  5
21F
100
AcDbSymbolTableRecord
100
AcDbLayerTableRecord
  2
SNAPLINE
 70
0
 62
7
  6
CONTINUOUS
370
-3
390
F
  0
LAYER
  5
220
100
AcDbSymbolTableRecord
100
AcDbLayerTableRecord
  2
ST701XUANNIU-20140315_1
 70
0
 62
7
  6
CONTINUOUS
370
-3
390
F
  0
LAYER
  5
221
100
AcDbSymbolTableRecord
100
AcDbLayerTableRecord
  2
ST701XUANNIU-20140315_1_1
 70
0
 62
7
  6
CONTINUOUS
370
-3
390
F
  0
LAYER
  5
222
100
AcDbSymbolTableRecord
100
AcDbLayerTableRecord
  2
SUPERFICI
 70
0
 62
7
  6
CONTINUOUS
370
-3
390
F
  0
LAYER
  5
223
100
AcDbSymbolTableRecord
100
AcDbLayerTableRecord
  2
TRASH
 70
0
 62
7
  6
CONTINUOUS
370
-3
390
F
  0
LAYER
  5
224
100
AcDbSymbolTableRecord
100
AcDbLayerTableRecord
  2
WHITE
 70
0
 62
7
  6
CONTINUOUS
370
-3
390
F
  0
LAYER
  5
225
100
AcDbSymbolTableRecord
100
AcDbLayerTableRecord
  2
___SHELL
 70
0
 62
7
  6
CONTINUOUS
370
-3
390
F
  0
ENDTAB
  0
TABLE
  2
STYLE
  5
3
100
AcDbSymbolTable
 70
1
  0
STYLE
  5
11
100
AcDbSymbolTableRecord
100
AcDbTextStyleTableRecord
  2
STANDARD
 70
0
 40
0.0
 41
0.8
 50
0.0
 71
0
 42
0.2
  3
txt
  4

  0
STYLE
  5
226
100
AcDbSymbolTableRecord
100
AcDbTextStyleTableRecord
  2
TEXTSTYLE_1
 70
0
 40
0.0
 41
0.8
 50
0.0
 71
0
 42
0.2
  3
gdt
  4

  0
ENDTAB
  0
TABLE
  2
VIEW
  5
6
100
AcDbSymbolTable
 70
0
  0
ENDTAB
  0
TABLE
  2
UCS
  5
7
100
AcDbSymbolTable
 70
0
  0
ENDTAB
  0
TABLE
  2
APPID
  5
9
100
AcDbSymbolTable
 70
1
  0
APPID
  5
227
100
AcDbSymbolTableRecord
100
AcDbRegAppTableRecord
  2
ACAD
 70
0
  0
ENDTAB
  0
TABLE
  2
BLOCK_RECORD
  5
1
100
AcDbSymbolTable
 70
0
  0
BLOCK_RECORD
  5
228
100
AcDbSymbolTableRecord
100
AcDbBlockTableRecord
  2
*Model_Space
  0
BLOCK_RECORD
  5
229
100
AcDbSymbolTableRecord
100
AcDbBlockTableRecord
  2
*Paper_Space
  0
BLOCK_RECORD
  5
22A
100
AcDbSymbolTableRecord
100
AcDbBlockTableRecord
  2
_FILLED
  0
ENDTAB
  0
TABLE
  2
DIMSTYLE
  5
A
100
AcDbSymbolTable
 70
1
100
AcDbDimStyleTable
 71
0
  0
DIMSTYLE
105
22B
100
AcDbSymbolTableRecord
100
AcDbDimStyleTableRecord
  2
STANDARD
 70
0
  3

  4

 40
1.0
 41
3.0
 42
0.5
 43
0.38
 44
1.5
 45
0.0
 46
0.0
 47
0.01
 48
0.01
140
3.0
141
0.09
142
0.0
143
25.4
144
1.0
145
0.0
146
1.0
147
0.625
 71
1.0
 72
0.0
 73
0
 74
0
 75
0
 76
0
 77
1
 78
8
 79
2
170
0
171
1
172
0
173
0
174
0
175
0
176
0
177
0
178
0
270
2
179
2
271
2
272
2
273
2
274
2
275
0
280
0
281
0
282
0
283
1
284
8
285
0
286
0
287
3
288
0
340
11
278
44
341
22A
342
22A
343
22A
344
22A
  0
ENDTAB
  0
ENDSEC
  0
SECTION
  2
BLOCKS
  0
BLOCK
  5
20
100
AcDbEntity
  8
0
100
AcDbBlockBegin
  2
*Model_Space
 70
0
 10
0.0
 20
0.0
 30
0.0
  3
*Model_Space
  1

  0
ENDBLK
  5
21
100
AcDbEntity
  8
0
100
AcDbBlockEnd
  0
BLOCK
  5
1C
100
AcDbEntity
  8
0
100
AcDbBlockBegin
  2
*Paper_Space
 70
0
 10
0.0
 20
0.0
 30
0.0
  3
*Paper_Space
  1

  0
ENDBLK
  5
1D
100
AcDbEntity
  8
0
100
AcDbBlockEnd
  0
BLOCK
  5
22C
100
AcDbEntity
  8
0
100
AcDbBlockBegin
  2
_FILLED
 70
64
 10
0.0
 20
0.0
  3
_FILLED
  1

  0
SOLID
  5
22D
100
AcDbEntity
  8
0
  6
BYBLOCK
 62
0
100
AcDbTrace
 10
0.0
 20
0.0
 11
-1.0
 21
0.3166666667
 12
-1.0
 22
-0.3166666667
 13
-1.0
 23
-0.3166666667
  0
ENDBLK
  5
22E
100
AcDbEntity
  8
0
  6
BYBLOCK
 62
0
100
AcDbBlockEnd
  0
ENDSEC
  0
SECTION
  2
ENTITIES
  0
LINE
  5
22F
100
AcDbEntity
  8
IMPORT_IGES
100
AcDbLine
 62
7
  6
CONTINUOUS
 10
-38.15
 20
-17.35
 11
-38.15
 21
-16.65
  0
LINE
  5
230
100
AcDbEntity
  8
IMPORT_IGES
100
AcDbLine
 62
7
  6
CONTINUOUS
 10
-36.95
 20
-15.45
 11
-36.95
 21
-16.65
  0
LINE
  5
231
100
AcDbEntity
  8
IMPORT_IGES
100
AcDbLine
 62
7
  6
CONTINUOUS
 10
-36.95
 20
-18.55
 11
-36.95
 21
-17.35
  0
LINE
  5
232
100
AcDbEntity
  8
IMPORT_IGES
100
AcDbLine
 62
7
  6
CONTINUOUS
 10
-36.25
 20
-17.35
 11
-36.25
 21
-18.55
  0
LINE
  5
233
100
AcDbEntity
  8
IMPORT_IGES
100
AcDbLine
 62
7
  6
CONTINUOUS
 10
-36.25
 20
-16.65
 11
-36.25
 21
-15.45
  0
LINE
  5
234
100
AcDbEntity
  8
IMPORT_IGES
100
AcDbLine
 62
7
  6
CONTINUOUS
 10
-35.05
 20
-16.65
 11
-35.05
 21
-17.35
  0
LINE
  5
235
100
AcDbEntity
  8
IMPORT_IGES
100
AcDbLine
 62
7
  6
CONTINUOUS
 10
-46.4563491139
 20
-29.2
 11
-42.4823673653
 21
-29.2
  0
LINE
  5
236
100
AcDbEntity
  8
IMPORT_IGES
100
AcDbLine
 62
7
  6
CONTINUOUS
 10
42.4823673653
 20
-29.2
 11
46.4563490731
 21
-29.2
  0
LINE
  5
237
100
AcDbEntity
  8
IMPORT_IGES
100
AcDbLine
 62
250
  6
CONTINUOUS
 10
12.6000000035
 20
-28.4999999996
 11
-12.6000000059
 21
-28.5
  0
LINE
  5
238
100
AcDbEntity
  8
IMPORT_IGES
100
AcDbLine
 62
250
  6
CONTINUOUS
 10
-34.5343109396
 20
-41.2204811526
 11
-34.41919657
 21
-40.7339128821
  0
LINE
  5
239
100
AcDbEntity
  8
IMPORT_IGES
100
AcDbLine
 62
250
  6
CONTINUOUS
 10
-41.2204811526
 20
-34.5343109395
 11
-40.7339128821
 21
-34.41919657
  0
LINE
  5
23A
100
AcDbEntity
  8
IMPORT_IGES
100
AcDbLine
 62
7
  6
CONTINUOUS
 10
46.6831526825
 20
-28.0
 11
42.7152840502
 21
-28.0
  0
LINE
  5
23B
100
AcDbEntity
  8
IMPORT_IGES
100
AcDbLine
 62
7
  6
CONTINUOUS
 10
12.5999999995
 20
-28.0
 11
-12.5999999996
 21
-28.0
  0
LINE
  5
23C
100
AcDbEntity
  8
IMPORT_IGES
100
AcDbLine
 62
7
  6
CONTINUOUS
 10
-42.7152840502
 20
-28.0
 11
-46.6831535695
 21
-28.0
  0
LINE
  5
23D
100
AcDbEntity
  8
IMPORT_IGES
100
AcDbLine
 62
7
  6
CONTINUOUS
 10
11.8678936534
 20
-27.04
 11
10.3678936534
 21
-27.04
  0
LINE
  5
23E
100
AcDbEntity
  8
IMPORT_IGES
100
AcDbLine
 62
7
  6
CONTINUOUS
 10
2.9024979649
 20
-27.04
 11
2.5274979649
 21
-27.04
  0
LINE
  5
23F
100
AcDbEntity
  8
IMPORT_IGES
100
AcDbLine
 62
7
  6
CONTINUOUS
 10
1.485831338
 20
-27.04
 11
1.235831338
 21
-27.04
  0
LINE
  5
240
100
AcDbEntity
  8
IMPORT_IGES
100
AcDbLine
 62
7
  6
CONTINUOUS
 10
10.6178936534
 20
-26.7846808517
 11
11.8678936534
 21
-26.7846808517
  0
LINE
  5
241
100
AcDbEntity
  8
IMPORT_IGES
100
AcDbLine
 62
250
  6
CONTINUOUS
 10
-15.099999999
 20
-26.0
 11
-14.6
 21
-25.9999999993
  0
LINE
  5
242
100
AcDbEntity
  8
IMPORT_IGES
100
AcDbLine
 62
250
  6
CONTINUOUS
 10
14.6
 20
-25.9999999996
 11
15.0999999993
 21
-26.000000002
  0
LINE
  5
243
100
AcDbEntity
  8
IMPORT_IGES
100
AcDbLine
 62
7
  6
CONTINUOUS
 10
1.235831338
 20
-25.04
 11
1.610831338
 21
-25.04
  0
LINE
  5
244
100
AcDbEntity
  8
IMPORT_IGES
100
AcDbLine
 62
7
  6
CONTINUOUS
 10
2.6524979649
 20
-25.04
 11
2.9024979649
 21
-25.04
  0
LINE
  5
245
100
AcDbEntity
  8
IMPORT_IGES
100
AcDbLine
 62
7
  6
CONTINUOUS
 10
10.3678936534
 20
-25.04
 11
10.6178936534
 21
-25.04
  0
LINE
  5
246
100
AcDbEntity
  8
IMPORT_IGES
100
AcDbLine
 62
7
  6
CONTINUOUS
 10
-12.6808511019
 20
-23.7168615457
 11
-13.3191489578
 21
-23.7168615457
  0
LINE
  5
247
100
AcDbEntity
  8
IMPORT_IGES
100
AcDbLine
 62
7
  6
CONTINUOUS
 10
-13.3191489578
 20
-23.7168615457
 11
-13.5319148898
 21
-23.675195038
  0
LINE
  5
248
100
AcDbEntity
  8
IMPORT_IGES
100
AcDbLine
 62
250
  6
CONTINUOUS
 10
41.2204811526
 20
-34.5343109396
 11
40.7339128821
 21
-34.41919657
  0
LINE
  5
249
100
AcDbEntity
  8
IMPORT_IGES
100
AcDbLine
 62
7
  6
CONTINUOUS
 10
-13.4893617034
 20
-23.425195038
 11
-13.3191489578
 21
-23.4668615457
  0
LINE
  5
24A
100
AcDbEntity
  8
IMPORT_IGES
100
AcDbLine
 62
7
  6
CONTINUOUS
 10
-13.4893617034
 20
-20.4668615457
 11
-14.0
 21
-20.300195038
  0
LINE
  5
24B
100
AcDbEntity
  8
IMPORT_IGES
100
AcDbLine
 62
7
  6
CONTINUOUS
 10
-12.1702127457
 20
-20.8835280534
 11
-13.3191489578
 21
-20.5085280534
  0
LINE
  5
24C
100
AcDbEntity
  8
IMPORT_IGES
100
AcDbLine
 62
7
  6
CONTINUOUS
 10
-13.5319148898
 20
-23.675195038
 11
-13.7021276653
 21
-23.5918615457
  0
LINE
  5
24D
100
AcDbEntity
  8
IMPORT_IGES
100
AcDbLine
 62
7
  6
CONTINUOUS
 10
-13.5319148898
 20
-19.6751947995
 11
-13.7021276653
 21
-19.5918615457
  0
LINE
  5
24E
100
AcDbEntity
  8
IMPORT_IGES
100
AcDbLine
 62
7
  6
CONTINUOUS
 10
-13.6170212627
 20
-23.3418615457
 11
-13.4893617034
 21
-23.425195038
  0
LINE
  5
24F
100
AcDbEntity
  8
IMPORT_IGES
100
AcDbLine
 62
7
  6
CONTINUOUS
 10
-13.6170212627
 20
-19.3418615457
 11
-13.4893617034
 21
-19.4251947995
  0
LINE
  5
250
100
AcDbEntity
  8
IMPORT_IGES
100
AcDbLine
 62
7
  6
CONTINUOUS
 10
-13.7021276653
 20
-23.5918615457
 11
-13.8723404259
 21
-23.425195038
  0
LINE
  5
251
100
AcDbEntity
  8
IMPORT_IGES
100
AcDbLine
 62
7
  6
CONTINUOUS
 10
-13.7021276653
 20
-19.5918615457
 11
-13.8723404259
 21
-19.4251947995
  0
LINE
  5
252
100
AcDbEntity
  8
IMPORT_IGES
100
AcDbLine
 62
7
  6
CONTINUOUS
 10
-13.7021276653
 20
-23.2168615457
 11
-13.6170212627
 21
-23.3418615457
  0
LINE
  5
253
100
AcDbEntity
  8
IMPORT_IGES
100
AcDbLine
 62
250
  6
CONTINUOUS
 10
-34.41919657
 20
40.7339128821
 11
-34.5343109398
 21
41.2204811526
  0
LINE
  5
254
100
AcDbEntity
  8
IMPORT_IGES
100
AcDbLine
 62
7
  6
CONTINUOUS
 10
-23.0
 20
41.9580434059
 11
-23.0
 21
40.7432644489
  0
LINE
  5
255
100
AcDbEntity
  8
IMPORT_IGES
100
AcDbLine
 62
7
  6
CONTINUOUS
 10
-23.0
 20
-40.7432644489
 11
-23.0
 21
-41.9580434059
  0
LINE
  5
256
100
AcDbEntity
  8
IMPORT_IGES
100
AcDbLine
 62
7
  6
CONTINUOUS
 10
-12.6808511019
 20
-23.4668615457
 11
-12.5106383562
 21
-23.425195038
  0
LINE
  5
257
100
AcDbEntity
  8
IMPORT_IGES
100
AcDbLine
 62
7
  6
CONTINUOUS
 10
-12.4680850506
 20
-23.675195038
 11
-12.6808511019
 21
-23.7168615457
  0
LINE
  5
258
100
AcDbEntity
  8
IMPORT_IGES
100
AcDbLine
 62
7
  6
CONTINUOUS
 10
-12.6808511019
 20
-23.4668615457
 11
-13.3191489578
 21
-23.4668615457
  0
LINE
  5
259
100
AcDbEntity
  8
IMPORT_IGES
100
AcDbLine
 62
7
  6
CONTINUOUS
 10
-0.4769696007
 20
-23.39
 11
-9.15
 21
-23.39
  0
LINE
  5
25A
100
AcDbEntity
  8
IMPORT_IGES
100
AcDbLine
 62
7
  6
CONTINUOUS
 10
-8.85
 20
-23.09
 11
-0.4769696007
 21
-23.09
  0
LINE
  5
25B
100
AcDbEntity
  8
IMPORT_IGES
100
AcDbLine
 62
7
  6
CONTINUOUS
 10
40.7432644489
 20
-23.0
 11
41.9580434059
 21
-23.0
  0
LINE
  5
25C
100
AcDbEntity
  8
IMPORT_IGES
100
AcDbLine
 62
7
  6
CONTINUOUS
 10
-40.7432644489
 20
-23.0
 11
-41.9580434059
 21
-23.0
  0
LINE
  5
25D
100
AcDbEntity
  8
IMPORT_IGES
100
AcDbLine
 62
7
  6
CONTINUOUS
 10
-13.7446808517
 20
-22.300195038
 11
-12.2553191185
 21
-22.300195038
  0
LINE
  5
25E
100
AcDbEntity
  8
IMPORT_IGES
100
AcDbLine
 62
7
  6
CONTINUOUS
 10
-14.0
 20
-22.050195038
 11
-12.0
 21
-22.050195038
  0
LINE
  5
25F
100
AcDbEntity
  8
IMPORT_IGES
100
AcDbLine
 62
7
  6
CONTINUOUS
 10
43.7715545908
 20
-21.0
 11
45.1865199009
 21
-21.0
  0
LINE
  5
260
100
AcDbEntity
  8
IMPORT_IGES
100
AcDbLine
 62
7
  6
CONTINUOUS
 10
-43.7714767404
 20
-21.0
 11
-45.1865199009
 21
-21.0
  0
LINE
  5
261
100
AcDbEntity
  8
IMPORT_IGES
100
AcDbLine
 62
7
  6
CONTINUOUS
 10
-12.6808511019
 20
-19.7168615457
 11
-13.3191489578
 21
-19.7168615457
  0
LINE
  5
262
100
AcDbEntity
  8
IMPORT_IGES
100
AcDbLine
 62
7
  6
CONTINUOUS
 10
-12.6808511019
 20
-19.4668615457
 11
-13.3191489578
 21
-19.4668615457
  0
LINE
  5
263
100
AcDbEntity
  8
IMPORT_IGES
100
AcDbLine
 62
7
  6
CONTINUOUS
 10
-13.3191489578
 20
-19.7168615457
 11
-13.5319148898
 21
-19.6751947995
  0
LINE
  5
264
100
AcDbEntity
  8
IMPORT_IGES
100
AcDbLine
 62
7
  6
CONTINUOUS
 10
-12.6808511019
 20
-18.0501949188
 11
-12.4680850506
 21
-18.0918615457
  0
LINE
  5
265
100
AcDbEntity
  8
IMPORT_IGES
100
AcDbLine
 62
7
  6
CONTINUOUS
 10
-13.4893617034
 20
-19.4251947995
 11
-13.3191489578
 21
-19.4668615457
  0
LINE
  5
266
100
AcDbEntity
  8
IMPORT_IGES
100
AcDbLine
 62
7
  6
CONTINUOUS
 10
-12.5106383562
 20
-18.3418615457
 11
-12.6808511019
 21
-18.3001947995
  0
LINE
  5
267
100
AcDbEntity
  8
IMPORT_IGES
100
AcDbLine
 62
7
  6
CONTINUOUS
 10
-14.0
 20
-20.0501947995
 11
-12.0
 21
-20.7168615457
  0
LINE
  5
268
100
AcDbEntity
  8
IMPORT_IGES
100
AcDbLine
 62
7
  6
CONTINUOUS
 10
-12.4680850506
 20
-18.0918615457
 11
-12.2978723049
 21
-18.1751949188
  0
LINE
  5
269
100
AcDbEntity
  8
IMPORT_IGES
100
AcDbLine
 62
7
  6
CONTINUOUS
 10
-12.3829786778
 20
-18.4251947995
 11
-12.5106383562
 21
-18.3418615457
  0
LINE
  5
26A
100
AcDbEntity
  8
IMPORT_IGES
100
AcDbLine
 62
7
  6
CONTINUOUS
 10
-12.2978723049
 20
-18.1751949188
 11
-12.1276595593
 21
-18.3418615457
  0
LINE
  5
26B
100
AcDbEntity
  8
IMPORT_IGES
100
AcDbLine
 62
7
  6
CONTINUOUS
 10
-10.0203220155
 20
-20.7324540498
 11
-10.2324540498
 21
-20.5203220154
  0
LINE
  5
26C
100
AcDbEntity
  8
IMPORT_IGES
100
AcDbLine
 62
7
  6
CONTINUOUS
 10
-7.9796779846
 20
-20.7324540498
 11
-9.0
 21
-19.7121320343
  0
LINE
  5
26D
100
AcDbEntity
  8
IMPORT_IGES
100
AcDbLine
 62
7
  6
CONTINUOUS
 10
-9.2121320344
 20
-19.5
 11
-10.2324540498
 21
-18.4796779846
  0
LINE
  5
26E
100
AcDbEntity
  8
IMPORT_IGES
100
AcDbLine
 62
7
  6
CONTINUOUS
 10
-10.0203220155
 20
-18.2675459502
 11
-9.0
 21
-19.2878679656
  0
LINE
  5
26F
100
AcDbEntity
  8
IMPORT_IGES
100
AcDbLine
 62
7
  6
CONTINUOUS
 10
-8.7878679657
 20
-19.5
 11
-7.7675459502
 21
-20.5203220154
  0
LINE
  5
270
100
AcDbEntity
  8
IMPORT_IGES
100
AcDbLine
 62
7
  6
CONTINUOUS
 10
-13.7021276653
 20
-19.2168615457
 11
-13.6170212627
 21
-19.3418615457
  0
LINE
  5
271
100
AcDbEntity
  8
IMPORT_IGES
100
AcDbLine
 62
7
  6
CONTINUOUS
 10
-12.2978723049
 20
-18.5501947995
 11
-12.3829786778
 21
-18.4251947995
  0
LINE
  5
272
100
AcDbEntity
  8
IMPORT_IGES
100
AcDbLine
 62
7
  6
CONTINUOUS
 10
-13.8723404259
 20
-23.425195038
 11
-13.9574468099
 21
-23.2585280534
  0
LINE
  5
273
100
AcDbEntity
  8
IMPORT_IGES
100
AcDbLine
 62
7
  6
CONTINUOUS
 10
-13.8723404259
 20
-19.4251947995
 11
-13.9574468099
 21
-19.2585282918
  0
LINE
  5
274
100
AcDbEntity
  8
IMPORT_IGES
100
AcDbLine
 62
7
  6
CONTINUOUS
 10
-12.1276595593
 20
-18.3418615457
 11
-12.0425531864
 21
-18.5085282918
  0
LINE
  5
275
100
AcDbEntity
  8
IMPORT_IGES
100
AcDbLine
 62
7
  6
CONTINUOUS
 10
-13.7446808517
 20
-23.050195038
 11
-13.7021276653
 21
-23.2168615457
  0
LINE
  5
276
100
AcDbEntity
  8
IMPORT_IGES
100
AcDbLine
 62
250
  6
CONTINUOUS
 10
-15.0999999993
 20
-26.0000000035
 11
-15.1
 21
27.2000000052
  0
LINE
  5
277
100
AcDbEntity
  8
IMPORT_IGES
100
AcDbLine
 62
7
  6
CONTINUOUS
 10
-14.6
 20
-25.9999999995
 11
-14.6
 21
27.1999999993
  0
LINE
  5
278
100
AcDbEntity
  8
IMPORT_IGES
100
AcDbLine
 62
7
  6
CONTINUOUS
 10
-14.0
 20
-23.050195038
 11
-14.0
 21
-22.050195038
  0
LINE
  5
279
100
AcDbEntity
  8
IMPORT_IGES
100
AcDbLine
 62
7
  6
CONTINUOUS
 10
-14.0
 20
-21.7168615457
 11
-14.0
 21
-21.4668615457
  0
LINE
  5
27A
100
AcDbEntity
  8
IMPORT_IGES
100
AcDbLine
 62
7
  6
CONTINUOUS
 10
-14.0
 20
-20.300195038
 11
-14.0
 21
-20.0501947995
  0
LINE
  5
27B
100
AcDbEntity
  8
IMPORT_IGES
100
AcDbLine
 62
7
  6
CONTINUOUS
 10
-14.0
 20
-19.0501947995
 11
-14.0
 21
-18.7168615457
  0
LINE
  5
27C
100
AcDbEntity
  8
IMPORT_IGES
100
AcDbLine
 62
7
  6
CONTINUOUS
 10
-14.0
 20
-17.7168615457
 11
-14.0
 21
-16.2168615457
  0
LINE
  5
27D
100
AcDbEntity
  8
IMPORT_IGES
100
AcDbLine
 62
250
  6
CONTINUOUS
 10
7.5937420725
 20
29.4432466702
 11
7.6124792356
 21
29.4618081705
  0
LWPOLYLINE
  5
27E
100
AcDbEntity
  8
IMPORT_IGES
100
AcDbPolyline
 62
250
  6
CONTINUOUS
 90
7
 70
0
 10
7.6767231337
 20
29.5247670476
 10
7.7248921844
 20
29.5718184326
 10
7.7500022612
 20
29.5965934579
 10
7.7758723604
 20
29.6218878969
 10
7.802370367
 20
29.6475534718
 10
7.8290368975
 20
29.6736135406
 10
7.8555712714
 20
29.7
  0
LWPOLYLINE
  5
27F
100
AcDbEntity
  8
IMPORT_IGES
100
AcDbPolyline
 62
250
  6
CONTINUOUS
 90
3
 70
0
 10
7.6124792356
 20
29.4618081705
 10
7.654253034
 20
29.5025595972
 10
7.6767231337
 20
29.5247670476
  0
LINE
  5
280
100
AcDbEntity
  8
IMPORT_IGES
100
AcDbLine
 62
7
  6
CONTINUOUS
 10
-12.6808511019
 20
-19.4668615457
 11
-12.5106383562
 21
-19.4251947995
  0
LINE
  5
281
100
AcDbEntity
  8
IMPORT_IGES
100
AcDbLine
 62
7
  6
CONTINUOUS
 10
-13.3191489578
 20
-18.3001947995
 11
-13.4893617034
 21
-18.3418615457
  0
LINE
  5
282
100
AcDbEntity
  8
IMPORT_IGES
100
AcDbLine
 62
7
  6
CONTINUOUS
 10
-12.4680850506
 20
-19.6751947995
 11
-12.6808511019
 21
-19.7168615457
  0
LINE
  5
283
100
AcDbEntity
  8
IMPORT_IGES
100
AcDbLine
 62
7
  6
CONTINUOUS
 10
-13.5319148898
 20
-18.0918615457
 11
-13.3191489578
 21
-18.0501949188
  0
LINE
  5
284
100
AcDbEntity
  8
IMPORT_IGES
100
AcDbLine
 62
7
  6
CONTINUOUS
 10
36.25
 20
-18.55
 11
36.95
 21
-18.55
  0
LINE
  5
285
100
AcDbEntity
  8
IMPORT_IGES
100
AcDbLine
 62
7
  6
CONTINUOUS
 10
-36.25
 20
-18.55
 11
-36.95
 21
-18.55
  0
LINE
  5
286
100
AcDbEntity
  8
IMPORT_IGES
100
AcDbLine
 62
7
  6
CONTINUOUS
 10
-13.3191489578
 20
-18.3001947995
 11
-12.6808511019
 21
-18.3001947995
  0
LINE
  5
287
100
AcDbEntity
  8
IMPORT_IGES
100
AcDbLine
 62
7
  6
CONTINUOUS
 10
-13.3191489578
 20
-18.0501949188
 11
-12.6808511019
 21
-18.0501949188
  0
LINE
  5
288
100
AcDbEntity
  8
IMPORT_IGES
100
AcDbLine
 62
7
  6
CONTINUOUS
 10
-13.7446808517
 20
-17.7168615457
 11
-14.0
 21
-17.7168615457
  0
LINE
  5
289
100
AcDbEntity
  8
IMPORT_IGES
100
AcDbLine
 62
7
  6
CONTINUOUS
 10
-38.15
 20
-17.35
 11
-36.95
 21
-17.35
  0
LINE
  5
28A
100
AcDbEntity
  8
IMPORT_IGES
100
AcDbLine
 62
7
  6
CONTINUOUS
 10
-36.25
 20
-17.35
 11
-35.05
 21
-17.35
  0
LINE
  5
28B
100
AcDbEntity
  8
IMPORT_IGES
100
AcDbLine
 62
7
  6
CONTINUOUS
 10
35.05
 20
-17.35
 11
36.25
 21
-17.35
  0
LINE
  5
28C
100
AcDbEntity
  8
IMPORT_IGES
100
AcDbLine
 62
7
  6
CONTINUOUS
 10
36.95
 20
-17.35
 11
38.15
 21
-17.35
  0
LINE
  5
28D
100
AcDbEntity
  8
IMPORT_IGES
100
AcDbLine
 62
7
  6
CONTINUOUS
 10
38.15
 20
-16.65
 11
36.95
 21
-16.65
  0
LINE
  5
28E
100
AcDbEntity
  8
IMPORT_IGES
100
AcDbLine
 62
7
  6
CONTINUOUS
 10
36.25
 20
-16.65
 11
35.05
 21
-16.65
  0
LINE
  5
28F
100
AcDbEntity
  8
IMPORT_IGES
100
AcDbLine
 62
7
  6
CONTINUOUS
 10
-35.05
 20
-16.65
 11
-36.25
 21
-16.65
  0
LINE
  5
290
100
AcDbEntity
  8
IMPORT_IGES
100
AcDbLine
 62
7
  6
CONTINUOUS
 10
-36.95
 20
-16.65
 11
-38.15
 21
-16.65
  0
LINE
  5
291
100
AcDbEntity
  8
IMPORT_IGES
100
AcDbLine
 62
7
  6
CONTINUOUS
 10
-12.0
 20
-16.4668615457
 11
-13.7446808517
 21
-16.4668615457
  0
LINE
  5
292
100
AcDbEntity
  8
IMPORT_IGES
100
AcDbLine
 62
7
  6
CONTINUOUS
 10
-14.0
 20
-16.2168615457
 11
-12.0
 21
-16.2168615457
  0
LINE
  5
293
100
AcDbEntity
  8
IMPORT_IGES
100
AcDbLine
 62
7
  6
CONTINUOUS
 10
36.25
 20
-15.45
 11
36.95
 21
-15.45
  0
LINE
  5
294
100
AcDbEntity
  8
IMPORT_IGES
100
AcDbLine
 62
7
  6
CONTINUOUS
 10
-36.25
 20
-15.45
 11
-36.95
 21
-15.45
  0
LINE
  5
295
100
AcDbEntity
  8
IMPORT_IGES
100
AcDbLine
 62
7
  6
CONTINUOUS
 10
-7.9796779846
 20
-18.2675459502
 11
-7.7675459502
 21
-18.4796779846
  0
LINE
  5
296
100
AcDbEntity
  8
IMPORT_IGES
100
AcDbLine
 62
7
  6
CONTINUOUS
 10
-13.7446808517
 20
-19.0501947995
 11
-13.7021276653
 21
-19.2168615457
  0
LINE
  5
297
100
AcDbEntity
  8
IMPORT_IGES
100
AcDbLine
 62
7
  6
CONTINUOUS
 10
-12.2553191185
 20
-18.7168615457
 11
-12.2978723049
 21
-18.5501947995
  0
LINE
  5
298
100
AcDbEntity
  8
IMPORT_IGES
100
AcDbLine
 62
7
  6
CONTINUOUS
 10
-13.9574468099
 20
-23.2585280534
 11
-14.0
 21
-23.050195038
  0
LINE
  5
299
100
AcDbEntity
  8
IMPORT_IGES
100
AcDbLine
 62
7
  6
CONTINUOUS
 10
-13.9574468099
 20
-19.2585282918
 11
-14.0
 21
-19.0501947995
  0
LINE
  5
29A
100
AcDbEntity
  8
IMPORT_IGES
100
AcDbLine
 62
7
  6
CONTINUOUS
 10
-12.0425531864
 20
-18.5085282918
 11
-12.0
 21
-18.7168615457
  0
LINE
  5
29B
100
AcDbEntity
  8
IMPORT_IGES
100
AcDbLine
 62
7
  6
CONTINUOUS
 10
-13.7446808517
 20
-16.4668615457
 11
-13.7446808517
 21
-17.7168615457
  0
LINE
  5
29C
100
AcDbEntity
  8
IMPORT_IGES
100
AcDbLine
 62
7
  6
CONTINUOUS
 10
-13.7446808517
 20
-23.050195038
 11
-13.7446808517
 21
-22.300195038
  0
LINE
  5
29D
100
AcDbEntity
  8
IMPORT_IGES
100
AcDbLine
 62
7
  6
CONTINUOUS
 10
-13.7446808517
 20
-19.0501947995
 11
-13.7446808517
 21
-18.7168615457
  0
LINE
  5
29E
100
AcDbEntity
  8
IMPORT_IGES
100
AcDbLine
 62
7
  6
CONTINUOUS
 10
-13.5
 20
-10.2
 11
-13.5
 21
10.2
  0
LINE
  5
29F
100
AcDbEntity
  8
IMPORT_IGES
100
AcDbLine
 62
7
  6
CONTINUOUS
 10
-13.4893617034
 20
-21.300195038
 11
-13.4893617034
 21
-20.4668615457
  0
LINE
  5
2A0
100
AcDbEntity
  8
IMPORT_IGES
100
AcDbLine
 62
7
  6
CONTINUOUS
 10
-13.3191489578
 20
-21.2585280534
 11
-13.3191489578
 21
-20.5085280534
  0
LINE
  5
2A1
100
AcDbEntity
  8
IMPORT_IGES
100
AcDbLine
 62
250
  6
CONTINUOUS
 10
-12.5999999996
 20
29.2
 11
-12.6
 21
29.6999999993
  0
LINE
  5
2A2
100
AcDbEntity
  8
IMPORT_IGES
100
AcDbLine
 62
250
  6
CONTINUOUS
 10
-12.5999999996
 20
-28.0
 11
-12.600000002
 21
-28.4999999998
  0
LINE
  5
2A3
100
AcDbEntity
  8
IMPORT_IGES
100
AcDbLine
 62
7
  6
CONTINUOUS
 10
-12.2553191185
 20
-18.7168615457
 11
-12.2553191185
 21
-19.0501947995
  0
LINE
  5
2A4
100
AcDbEntity
  8
IMPORT_IGES
100
AcDbLine
 62
7
  6
CONTINUOUS
 10
-12.2553191185
 20
-22.300195038
 11
-12.2553191185
 21
-23.050195038
  0
LINE
  5
2A5
100
AcDbEntity
  8
IMPORT_IGES
100
AcDbLine
 62
7
  6
CONTINUOUS
 10
-12.0
 20
-16.2168615457
 11
-12.0
 21
-16.4668615457
  0
LINE
  5
2A6
100
AcDbEntity
  8
IMPORT_IGES
100
AcDbLine
 62
7
  6
CONTINUOUS
 10
-12.0
 20
-18.7168615457
 11
-12.0
 21
-19.0501947995
  0
LINE
  5
2A7
100
AcDbEntity
  8
IMPORT_IGES
100
AcDbLine
 62
7
  6
CONTINUOUS
 10
-12.0
 20
-20.7168615457
 11
-12.0
 21
-21.050195038
  0
LINE
  5
2A8
100
AcDbEntity
  8
IMPORT_IGES
100
AcDbLine
 62
7
  6
CONTINUOUS
 10
-12.0
 20
-22.050195038
 11
-12.0
 21
-23.050195038
  0
LINE
  5
2A9
100
AcDbEntity
  8
IMPORT_IGES
100
AcDbLine
 62
7
  6
CONTINUOUS
 10
-9.15
 20
-23.39
 11
-9.15
 21
-21.644761059
  0
LINE
  5
2AA
100
AcDbEntity
  8
IMPORT_IGES
100
AcDbLine
 62
7
  6
CONTINUOUS
 10
-9.15
 20
-17.355238941
 11
-9.15
 21
-15.6274119675
  0
LINE
  5
2AB
100
AcDbEntity
  8
IMPORT_IGES
100
AcDbLine
 62
7
  6
CONTINUOUS
 10
-14.0
 20
-18.7168615457
 11
-13.9574468099
 21
-18.5085282918
  0
LWPOLYLINE
  5
2AC
100
AcDbEntity
  8
IMPORT_IGES
100
AcDbPolyline
 62
250
  6
CONTINUOUS
 90
10
 70
0
 10
7.4984998509
 20
29.349999999
 10
7.4994015507
 20
29.3511363771
 10
7.5024468809
 20
29.3540499337
 10
7.5074671152
 20
29.3587819586
 10
7.5143273037
 20
29.3655326557
 10
7.5231077792
 20
29.3742597536
 10
7.5338616917
 20
29.3846483164
 10
7.5463114004
 20
29.3967990202
 10
7.5604147941
 20
29.4108016934
 10
7.5937420725
 20
29.4432466702
  0
LINE
  5
2AD
100
AcDbEntity
  8
IMPORT_IGES
100
AcDbLine
 62
7
  6
CONTINUOUS
 10
9.65
 20
-13.15
 11
8.15
 21
-13.15
  0
LINE
  5
2AE
100
AcDbEntity
  8
IMPORT_IGES
100
AcDbLine
 62
7
  6
CONTINUOUS
 10
0.8666666269
 20
-13.15
 11
0.4916666269
 21
-13.15
  0
LINE
  5
2AF
100
AcDbEntity
  8
IMPORT_IGES
100
AcDbLine
 62
7
  6
CONTINUOUS
 10
-0.55
 20
-13.15
 11
-0.8
 21
-13.15
  0
LINE
  5
2B0
100
AcDbEntity
  8
IMPORT_IGES
100
AcDbLine
 62
7
  6
CONTINUOUS
 10
-8.1333333731
 20
-13.15
 11
-8.3833333731
 21
-13.15
  0
LINE
  5
2B1
100
AcDbEntity
  8
IMPORT_IGES
100
AcDbLine
 62
7
  6
CONTINUOUS
 10
-9.55
 20
-13.15
 11
-9.8
 21
-13.15
  0
LINE
  5
2B2
100
AcDbEntity
  8
IMPORT_IGES
100
AcDbLine
 62
7
  6
CONTINUOUS
 10
-46.0908432753
 20
-13.0
 11
-44.6813032787
 21
-13.0
  0
LINE
  5
2B3
100
AcDbEntity
  8
IMPORT_IGES
100
AcDbLine
 62
7
  6
CONTINUOUS
 10
44.6812775403
 20
-13.0
 11
46.0908411508
 21
-13.0
  0
LINE
  5
2B4
100
AcDbEntity
  8
IMPORT_IGES
100
AcDbLine
 62
7
  6
CONTINUOUS
 10
8.4
 20
-12.8946808517
 11
9.65
 21
-12.8946808517
  0
LINE
  5
2B5
100
AcDbEntity
  8
IMPORT_IGES
100
AcDbLine
 62
7
  6
CONTINUOUS
 10
-8.55
 20
-12.6393617034
 11
-9.3833333433
 21
-12.6393617034
  0
LINE
  5
2B6
100
AcDbEntity
  8
IMPORT_IGES
100
AcDbLine
 62
7
  6
CONTINUOUS
 10
-8.591666627
 20
-12.4691489577
 11
-9.3416666568
 21
-12.4691489577
  0
LINE
  5
2B7
100
AcDbEntity
  8
IMPORT_IGES
100
AcDbLine
 62
7
  6
CONTINUOUS
 10
-9.1333333135
 20
-11.15
 11
-8.8
 21
-11.15
  0
LINE
  5
2B8
100
AcDbEntity
  8
IMPORT_IGES
100
AcDbLine
 62
7
  6
CONTINUOUS
 10
-0.8
 20
-11.15
 11
-0.425
 21
-11.15
  0
LINE
  5
2B9
100
AcDbEntity
  8
IMPORT_IGES
100
AcDbLine
 62
7
  6
CONTINUOUS
 10
0.6166666269
 20
-11.15
 11
0.8666666269
 21
-11.15
  0
LINE
  5
2BA
100
AcDbEntity
  8
IMPORT_IGES
100
AcDbLine
 62
7
  6
CONTINUOUS
 10
8.15
 20
-11.15
 11
8.4
 21
-11.15
  0
LINE
  5
2BB
100
AcDbEntity
  8
IMPORT_IGES
100
AcDbLine
 62
7
  6
CONTINUOUS
 10
14.6
 20
-10.6
 11
-14.6
 21
-10.6
  0
LINE
  5
2BC
100
AcDbEntity
  8
IMPORT_IGES
100
AcDbLine
 62
7
  6
CONTINUOUS
 10
13.5
 20
-10.2
 11
6.9
 21
-10.2
  0
LINE
  5
2BD
100
AcDbEntity
  8
IMPORT_IGES
100
AcDbLine
 62
7
  6
CONTINUOUS
 10
3.3
 20
-10.2
 11
-3.3
 21
-10.2
  0
LINE
  5
2BE
100
AcDbEntity
  8
IMPORT_IGES
100
AcDbLine
 62
7
  6
CONTINUOUS
 10
-6.9
 20
-10.2
 11
-13.5
 21
-10.2
  0
LINE
  5
2BF
100
AcDbEntity
  8
IMPORT_IGES
100
AcDbLine
 62
7
  6
CONTINUOUS
 10
1.610831338
 20
-25.04
 11
2.6524979649
 21
-26.7421276653
  0
LINE
  5
2C0
100
AcDbEntity
  8
IMPORT_IGES
100
AcDbLine
 62
7
  6
CONTINUOUS
 10
2.5274979649
 20
-27.04
 11
1.485831338
 21
-25.2953191185
  0
LINE
  5
2C1
100
AcDbEntity
  8
IMPORT_IGES
100
AcDbLine
 62
7
  6
CONTINUOUS
 10
-8.8
 20
-11.15
 11
-8.1333333731
 21
-13.15
  0
LINE
  5
2C2
100
AcDbEntity
  8
IMPORT_IGES
100
AcDbLine
 62
7
  6
CONTINUOUS
 10
-8.3833333731
 20
-13.15
 11
-8.55
 21
-12.6393617034
  0
LINE
  5
2C3
100
AcDbEntity
  8
IMPORT_IGES
100
AcDbLine
 62
7
  6
CONTINUOUS
 10
-8.591666627
 20
-12.4691489577
 11
-8.9666666866
 21
-11.3202127457
  0
LINE
  5
2C4
100
AcDbEntity
  8
IMPORT_IGES
100
AcDbLine
 62
7
  6
CONTINUOUS
 10
-8.85
 20
-15.6274119675
 11
-8.85
 21
-17.355238941
  0
LINE
  5
2C5
100
AcDbEntity
  8
IMPORT_IGES
100
AcDbLine
 62
7
  6
CONTINUOUS
 10
-8.85
 20
-21.644761059
 11
-8.85
 21
-23.09
  0
LINE
  5
2C6
100
AcDbEntity
  8
IMPORT_IGES
100
AcDbLine
 62
250
  6
CONTINUOUS
 10
-7.8555712705
 20
29.6999999993
 11
-7.8555712705
 21
29.2
  0
LINE
  5
2C7
100
AcDbEntity
  8
IMPORT_IGES
100
AcDbLine
 62
7
  6
CONTINUOUS
 10
-6.9
 20
10.2
 11
-6.9
 21
2.7
  0
LINE
  5
2C8
100
AcDbEntity
  8
IMPORT_IGES
100
AcDbLine
 62
7
  6
CONTINUOUS
 10
-6.9
 20
-2.7
 11
-6.9
 21
-10.2
  0
LINE
  5
2C9
100
AcDbEntity
  8
IMPORT_IGES
100
AcDbLine
 62
250
  6
CONTINUOUS
 10
-5.0000074414
 20
-44.1660929815
 11
-5.0
 21
-28.0
  0
LINE
  5
2CA
100
AcDbEntity
  8
IMPORT_IGES
100
AcDbLine
 62
7
  6
CONTINUOUS
 10
-4.5
 20
-50.1846636489
 11
-4.5
 21
-49.1842392062
  0
LINE
  5
2CB
100
AcDbEntity
  8
IMPORT_IGES
100
AcDbLine
 62
7
  6
CONTINUOUS
 10
-4.5
 20
-44.1820315443
 11
-4.5
 21
-28.5
  0
LINE
  5
2CC
100
AcDbEntity
  8
IMPORT_IGES
100
AcDbLine
 62
7
  6
CONTINUOUS
 10
-4.5
 20
49.1842392062
 11
-4.5
 21
50.1846636489
  0
LINE
  5
2CD
100
AcDbEntity
  8
IMPORT_IGES
100
AcDbLine
 62
7
  6
CONTINUOUS
 10
-12.0
 20
-19.0501947995
 11
-12.0425531864
 21
-19.2585282918
  0
LINE
  5
2CE
100
AcDbEntity
  8
IMPORT_IGES
100
AcDbLine
 62
7
  6
CONTINUOUS
 10
-12.0
 20
-23.050195038
 11
-12.0425531864
 21
-23.2585280534
  0
LINE
  5
2CF
100
AcDbEntity
  8
IMPORT_IGES
100
AcDbLine
 62
7
  6
CONTINUOUS
 10
-2.8286774477
 20
10.9165159399
 11
-2.7050505743
 21
11.4009091231
  0
LINE
  5
2D0
100
AcDbEntity
  8
IMPORT_IGES
100
AcDbLine
 62
7
  6
CONTINUOUS
 10
-13.7021276653
 20
-18.5501947995
 11
-13.7446808517
 21
-18.7168615457
  0
LINE
  5
2D1
100
AcDbEntity
  8
IMPORT_IGES
100
AcDbLine
 62
7
  6
CONTINUOUS
 10
-12.2978723049
 20
-19.2168615457
 11
-12.2553191185
 21
-19.0501947995
  0
LINE
  5
2D2
100
AcDbEntity
  8
IMPORT_IGES
100
AcDbLine
 62
7
  6
CONTINUOUS
 10
-12.2978723049
 20
-23.2168615457
 11
-12.2553191185
 21
-23.050195038
  0
LINE
  5
2D3
100
AcDbEntity
  8
IMPORT_IGES
100
AcDbLine
 62
7
  6
CONTINUOUS
 10
-8.9666666866
 20
-11.3202127457
 11
-9.3416666568
 21
-12.4691489577
  0
LINE
  5
2D4
100
AcDbEntity
  8
IMPORT_IGES
100
AcDbLine
 62
7
  6
CONTINUOUS
 10
-9.3833333433
 20
-12.6393617034
 11
-9.55
 21
-13.15
  0
LINE
  5
2D5
100
AcDbEntity
  8
IMPORT_IGES
100
AcDbLine
 62
7
  6
CONTINUOUS
 10
-9.8
 20
-13.15
 11
-9.1333333135
 21
-11.15
  0
LINE
  5
2D6
100
AcDbEntity
  8
IMPORT_IGES
100
AcDbLine
 62
7
  6
CONTINUOUS
 10
-0.425
 20
-11.15
 11
0.6166666269
 21
-12.8521276653
  0
LINE
  5
2D7
100
AcDbEntity
  8
IMPORT_IGES
100
AcDbLine
 62
7
  6
CONTINUOUS
 10
0.4916666269
 20
-13.15
 11
-0.55
 21
-11.4053191185
  0
LWPOLYLINE
  5
2D8
100
AcDbEntity
  8
IMPORT_IGES
100
AcDbPolyline
 62
250
  6
CONTINUOUS
 90
10
 70
0
 10
-2.8286783343
 20
10.9165124658
 10
-2.828259802
 20
10.909333147
 10
-2.8281589937
 20
10.9022476214
 10
-2.8283759577
 20
10.8952556999
 10
-2.8291235291
 20
10.8884114138
 10
-2.8301889187
 20
10.8816605516
 10
-2.8309337244
 20
10.874840612
 10
-2.8311451341
 20
10.8678974722
 10
-2.8310359142
 20
10.8608854346
 10
-2.8306060166
 20
10.8538046884
  0
LINE
  5
2D9
100
AcDbEntity
  8
IMPORT_IGES
100
AcDbLine
 62
7
  6
CONTINUOUS
 10
-3.3
 20
-10.2
 11
-3.3
 21
-2.7
  0
LINE
  5
2DA
100
AcDbEntity
  8
IMPORT_IGES
100
AcDbLine
 62
7
  6
CONTINUOUS
 10
-3.3
 20
2.7
 11
-3.3
 21
10.2
  0
LINE
  5
2DB
100
AcDbEntity
  8
IMPORT_IGES
100
AcDbLine
 62
250
  6
CONTINUOUS
 10
-2.5
 20
50.2298373983
 11
-2.5
 21
49.2297064551
  0
LINE
  5
2DC
100
AcDbEntity
  8
IMPORT_IGES
100
AcDbLine
 62
250
  6
CONTINUOUS
 10
-2.5
 20
-50.2298373983
 11
-2.5
 21
-49.2297064551
  0
LINE
  5
2DD
100
AcDbEntity
  8
IMPORT_IGES
100
AcDbLine
 62
250
  6
CONTINUOUS
 10
-2.5000000021
 20
-28.0
 11
-2.5
 21
-44.2290253694
  0
LINE
  5
2DE
100
AcDbEntity
  8
IMPORT_IGES
100
AcDbLine
 62
250
  6
CONTINUOUS
 10
-1.5924216128
 20
10.7612450437
 11
-1.592423574
 21
11.2611688912
  0
LINE
  5
2DF
100
AcDbEntity
  8
IMPORT_IGES
100
AcDbLine
 62
7
  6
CONTINUOUS
 10
-1.55
 20
37.15
 11
-1.55
 21
37.85
  0
LINE
  5
2E0
100
AcDbEntity
  8
IMPORT_IGES
100
AcDbLine
 62
7
  6
CONTINUOUS
 10
-0.8
 20
-13.15
 11
-0.8
 21
-11.15
  0
LINE
  5
2E1
100
AcDbEntity
  8
IMPORT_IGES
100
AcDbLine
 62
7
  6
CONTINUOUS
 10
-0.55
 20
-11.4053191185
 11
-0.55
 21
-13.15
  0
LINE
  5
2E2
100
AcDbEntity
  8
IMPORT_IGES
100
AcDbLine
 62
7
  6
CONTINUOUS
 10
-0.35
 20
39.05
 11
-0.35
 21
37.85
  0
LINE
  5
2E3
100
AcDbEntity
  8
IMPORT_IGES
100
AcDbLine
 62
7
  6
CONTINUOUS
 10
-0.35
 20
35.95
 11
-0.35
 21
37.15
  0
LINE
  5
2E4
100
AcDbEntity
  8
IMPORT_IGES
100
AcDbLine
 62
7
  6
CONTINUOUS
 10
-0.15
 20
-25.1525880325
 11
-0.15
 21
-23.7169696007
  0
LINE
  5
2E5
100
AcDbEntity
  8
IMPORT_IGES
100
AcDbLine
 62
7
  6
CONTINUOUS
 10
-0.15
 20
-22.7630303993
 11
-0.15
 21
-15.6274119675
  0
LINE
  5
2E6
100
AcDbEntity
  8
IMPORT_IGES
100
AcDbLine
 62
250
  6
CONTINUOUS
 10
0.0000018313
 20
49.2497936216
 11
0.0000016619
 21
45.25
  0
LINE
  5
2E7
100
AcDbEntity
  8
IMPORT_IGES
100
AcDbLine
 62
250
  6
CONTINUOUS
 10
-0.0000018267
 20
-49.2497775321
 11
-0.0000016578
 21
-45.25
  0
LINE
  5
2E8
100
AcDbEntity
  8
IMPORT_IGES
100
AcDbLine
 62
7
  6
CONTINUOUS
 10
0.15
 20
-15.6274119675
 11
0.15
 21
-22.7630303993
  0
LINE
  5
2E9
100
AcDbEntity
  8
IMPORT_IGES
100
AcDbLine
 62
7
  6
CONTINUOUS
 10
0.15
 20
-23.7169696007
 11
0.15
 21
-25.1525880325
  0
LINE
  5
2EA
100
AcDbEntity
  8
IMPORT_IGES
100
AcDbLine
 62
7
  6
CONTINUOUS
 10
0.35
 20
37.15
 11
0.35
 21
35.95
  0
LINE
  5
2EB
100
AcDbEntity
  8
IMPORT_IGES
100
AcDbLine
 62
7
  6
CONTINUOUS
 10
0.35
 20
37.85
 11
0.35
 21
39.05
  0
LINE
  5
2EC
100
AcDbEntity
  8
IMPORT_IGES
100
AcDbLine
 62
7
  6
CONTINUOUS
 10
0.6166666269
 20
-12.8521276653
 11
0.6166666269
 21
-11.15
  0
LINE
  5
2ED
100
AcDbEntity
  8
IMPORT_IGES
100
AcDbLine
 62
250
  6
CONTINUOUS
 10
-1.6000951877
 20
10.7
 11
-1.5924216128
 21
10.7612450437
  0
LINE
  5
2EE
100
AcDbEntity
  8
IMPORT_IGES
100
AcDbLine
 62
7
  6
CONTINUOUS
 10
-13.9574468099
 20
-18.5085282918
 11
-13.8723404259
 21
-18.3418615457
  0
LINE
  5
2EF
100
AcDbEntity
  8
IMPORT_IGES
100
AcDbLine
 62
7
  6
CONTINUOUS
 10
-12.0425531864
 20
-19.2585282918
 11
-12.1276595593
 21
-19.4251947995
  0
LINE
  5
2F0
100
AcDbEntity
  8
IMPORT_IGES
100
AcDbLine
 62
7
  6
CONTINUOUS
 10
-12.0425531864
 20
-23.2585280534
 11
-12.1276595593
 21
-23.425195038
  0
LINE
  5
2F1
100
AcDbEntity
  8
IMPORT_IGES
100
AcDbLine
 62
7
  6
CONTINUOUS
 10
-13.6170212627
 20
-18.4251947995
 11
-13.7021276653
 21
-18.5501947995
  0
LINE
  5
2F2
100
AcDbEntity
  8
IMPORT_IGES
100
AcDbLine
 62
250
  6
CONTINUOUS
 10
34.8197733711
 20
45.2620397716
 11
32.0571167907
 21
41.7843634495
  0
LWPOLYLINE
  5
2F3
100
AcDbEntity
  8
IMPORT_IGES
100
AcDbPolyline
 62
250
  6
CONTINUOUS
 90
3
 70
0
 10
-45.264750016
 20
-34.8076800245
 10
-43.446278004
 20
-33.345507339
 10
-41.7922505535
 20
-32.0182613249
  0
LINE
  5
2F4
100
AcDbEntity
  8
IMPORT_IGES
100
AcDbLine
 62
7
  6
CONTINUOUS
 10
41.7
 20
-3.55
 11
39.8
 21
-3.55
  0
LINE
  5
2F5
100
AcDbEntity
  8
IMPORT_IGES
100
AcDbLine
 62
7
  6
CONTINUOUS
 10
6.9
 20
-2.7
 11
3.3
 21
-2.7
  0
LINE
  5
2F6
100
AcDbEntity
  8
IMPORT_IGES
100
AcDbLine
 62
7
  6
CONTINUOUS
 10
-3.3
 20
-2.7
 11
-6.9
 21
-2.7
  0
LINE
  5
2F7
100
AcDbEntity
  8
IMPORT_IGES
100
AcDbLine
 62
7
  6
CONTINUOUS
 10
41.7
 20
-2.55
 11
39.8
 21
-2.55
  0
LINE
  5
2F8
100
AcDbEntity
  8
IMPORT_IGES
100
AcDbLine
 62
7
  6
CONTINUOUS
 10
41.7
 20
-1.85
 11
39.8
 21
-1.85
  0
LWPOLYLINE
  5
2F9
100
AcDbEntity
  8
IMPORT_IGES
100
AcDbPolyline
 62
250
  6
CONTINUOUS
 90
3
 70
0
 10
-45.2641029566
 20
34.8071652973
 10
-43.4459165301
 20
33.3452223706
 10
-41.7927651189
 20
32.0186790744
  0
LINE
  5
2FA
100
AcDbEntity
  8
IMPORT_IGES
100
AcDbLine
 62
250
  6
CONTINUOUS
 10
34.8198752154
 20
-45.2619142103
 11
32.0572677207
 21
-41.7843303599
  0
LINE
  5
2FB
100
AcDbEntity
  8
IMPORT_IGES
100
AcDbLine
 62
7
  6
CONTINUOUS
 10
0.8666666269
 20
-11.15
 11
0.8666666269
 21
-13.15
  0
LINE
  5
2FC
100
AcDbEntity
  8
IMPORT_IGES
100
AcDbLine
 62
7
  6
CONTINUOUS
 10
1.235831338
 20
-27.04
 11
1.235831338
 21
-25.04
  0
LINE
  5
2FD
100
AcDbEntity
  8
IMPORT_IGES
100
AcDbLine
 62
7
  6
CONTINUOUS
 10
1.485831338
 20
-25.2953191185
 11
1.485831338
 21
-27.04
  0
LINE
  5
2FE
100
AcDbEntity
  8
IMPORT_IGES
100
AcDbLine
 62
7
  6
CONTINUOUS
 10
1.55
 20
37.85
 11
1.55
 21
37.15
  0
LINE
  5
2FF
100
AcDbEntity
  8
IMPORT_IGES
100
AcDbLine
 62
250
  6
CONTINUOUS
 10
1.5924205879
 20
10.7612450437
 11
1.5924216115
 21
11.2611688913
  0
LINE
  5
300
100
AcDbEntity
  8
IMPORT_IGES
100
AcDbLine
 62
250
  6
CONTINUOUS
 10
2.5
 20
-49.2297064551
 11
2.5
 21
-50.2298373983
  0
LINE
  5
301
100
AcDbEntity
  8
IMPORT_IGES
100
AcDbLine
 62
250
  6
CONTINUOUS
 10
2.5
 20
49.2297064551
 11
2.5
 21
50.2298373983
  0
LINE
  5
302
100
AcDbEntity
  8
IMPORT_IGES
100
AcDbLine
 62
250
  6
CONTINUOUS
 10
2.4999999995
 20
-44.2290253694
 11
2.5000000021
 21
-28.0
  0
LINE
  5
303
100
AcDbEntity
  8
IMPORT_IGES
100
AcDbLine
 62
7
  6
CONTINUOUS
 10
2.6524979649
 20
-26.7421276653
 11
2.6524979649
 21
-25.04
  0
LINE
  5
304
100
AcDbEntity
  8
IMPORT_IGES
100
AcDbLine
 62
7
  6
CONTINUOUS
 10
2.9024979649
 20
-25.04
 11
2.9024979649
 21
-27.04
  0
LINE
  5
305
100
AcDbEntity
  8
IMPORT_IGES
100
AcDbLine
 62
7
  6
CONTINUOUS
 10
3.3
 20
10.2
 11
3.3
 21
2.7
  0
LINE
  5
306
100
AcDbEntity
  8
IMPORT_IGES
100
AcDbLine
 62
7
  6
CONTINUOUS
 10
3.3
 20
-2.7
 11
3.3
 21
-10.2
  0
LINE
  5
307
100
AcDbEntity
  8
IMPORT_IGES
100
AcDbLine
 62
7
  6
CONTINUOUS
 10
4.5
 20
50.1846636489
 11
4.5
 21
49.1842392062
  0
LINE
  5
308
100
AcDbEntity
  8
IMPORT_IGES
100
AcDbLine
 62
7
  6
CONTINUOUS
 10
4.5
 20
-28.5
 11
4.5
 21
-44.1820219087
  0
LINE
  5
309
100
AcDbEntity
  8
IMPORT_IGES
100
AcDbLine
 62
7
  6
CONTINUOUS
 10
4.5
 20
-49.1842392062
 11
4.5
 21
-50.1846636489
  0
LINE
  5
30A
100
AcDbEntity
  8
IMPORT_IGES
100
AcDbLine
 62
250
  6
CONTINUOUS
 10
5.0
 20
-28.0
 11
5.0
 21
-44.1660837519
  0
LWPOLYLINE
  5
30B
100
AcDbEntity
  8
IMPORT_IGES
100
AcDbPolyline
 62
250
  6
CONTINUOUS
 90
10
 70
0
 10
2.8306060399
 20
10.8538045965
 10
2.8310344468
 20
10.8608936345
 10
2.8311425402
 20
10.8679118908
 10
2.8309303681
 20
10.8748591764
 10
2.8301851537
 20
10.8816811863
 10
2.8291197194
 20
10.8884320459
 10
2.8283724995
 20
10.8952742645
 10
2.8281562938
 20
10.9022620564
 10
2.8282582566
 20
10.9093413876
 10
2.8286783394
 20
10.9165124475
  0
LINE
  5
30C
100
AcDbEntity
  8
IMPORT_IGES
100
AcDbLine
 62
7
  6
CONTINUOUS
 10
-12.3829786778
 20
-19.3418615457
 11
-12.2978723049
 21
-19.2168615457
  0
LINE
  5
30D
100
AcDbEntity
  8
IMPORT_IGES
100
AcDbLine
 62
7
  6
CONTINUOUS
 10
-12.3829786778
 20
-23.3418615457
 11
-12.2978723049
 21
-23.2168615457
  0
LINE
  5
30E
100
AcDbEntity
  8
IMPORT_IGES
100
AcDbLine
 62
250
  6
CONTINUOUS
 10
-32.0575428661
 20
-41.7842703504
 11
-34.8202003303
 21
-45.2618392674
  0
LINE
  5
30F
100
AcDbEntity
  8
IMPORT_IGES
100
AcDbLine
 62
7
  6
CONTINUOUS
 10
-13.8723404259
 20
-18.3418615457
 11
-13.7021276653
 21
-18.1751949188
  0
LINE
  5
310
100
AcDbEntity
  8
IMPORT_IGES
100
AcDbLine
 62
7
  6
CONTINUOUS
 10
-12.1276595593
 20
-19.4251947995
 11
-12.2978723049
 21
-19.5918615457
  0
LWPOLYLINE
  5
311
100
AcDbEntity
  8
IMPORT_IGES
100
AcDbPolyline
 62
250
  6
CONTINUOUS
 90
3
 70
0
 10
45.2647500245
 20
34.8076799888
 10
43.4462630789
 20
33.3454953092
 10
41.7927659249
 20
32.0186748568
  0
LINE
  5
312
100
AcDbEntity
  8
IMPORT_IGES
100
AcDbLine
 62
7
  6
CONTINUOUS
 10
39.8
 20
1.85
 11
41.7
 21
1.85
  0
LINE
  5
313
100
AcDbEntity
  8
IMPORT_IGES
100
AcDbLine
 62
7
  6
CONTINUOUS
 10
39.8
 20
2.55
 11
41.7
 21
2.55
  0
LINE
  5
314
100
AcDbEntity
  8
IMPORT_IGES
100
AcDbLine
 62
7
  6
CONTINUOUS
 10
-6.9
 20
2.7
 11
-3.3
 21
2.7
  0
LINE
  5
315
100
AcDbEntity
  8
IMPORT_IGES
100
AcDbLine
 62
7
  6
CONTINUOUS
 10
3.3
 20
2.7
 11
6.9
 21
2.7
  0
LINE
  5
316
100
AcDbEntity
  8
IMPORT_IGES
100
AcDbLine
 62
7
  6
CONTINUOUS
 10
39.8
 20
3.55
 11
41.7
 21
3.55
  0
LWPOLYLINE
  5
317
100
AcDbEntity
  8
IMPORT_IGES
100
AcDbPolyline
 62
250
  6
CONTINUOUS
 90
3
 70
0
 10
41.7927660336
 20
-32.0186748839
 10
43.446732225
 20
-33.3458724953
 10
45.2647499535
 20
-34.8076802878
  0
LINE
  5
318
100
AcDbEntity
  8
IMPORT_IGES
100
AcDbLine
 62
250
  6
CONTINUOUS
 10
-34.8197801906
 20
45.2620483942
 11
-32.0571246481
 21
41.7843616226
  0
LINE
  5
319
100
AcDbEntity
  8
IMPORT_IGES
100
AcDbLine
 62
250
  6
CONTINUOUS
 10
2.8286783123
 20
10.9165125544
 11
2.7050507742
 21
11.4009091742
  0
LINE
  5
31A
100
AcDbEntity
  8
IMPORT_IGES
100
AcDbLine
 62
250
  6
CONTINUOUS
 10
1.6000951877
 20
10.7
 11
1.5924205879
 21
10.7612450437
  0
LINE
  5
31B
100
AcDbEntity
  8
IMPORT_IGES
100
AcDbLine
 62
7
  6
CONTINUOUS
 10
6.9
 20
-10.2
 11
6.9
 21
-2.7
  0
LINE
  5
31C
100
AcDbEntity
  8
IMPORT_IGES
100
AcDbLine
 62
7
  6
CONTINUOUS
 10
6.9
 20
2.7
 11
6.9
 21
10.2
  0
LINE
  5
31D
100
AcDbEntity
  8
IMPORT_IGES
100
AcDbLine
 62
250
  6
CONTINUOUS
 10
7.8555712714
 20
29.6999999995
 11
7.8555712714
 21
29.2
  0
LINE
  5
31E
100
AcDbEntity
  8
IMPORT_IGES
100
AcDbLine
 62
7
  6
CONTINUOUS
 10
8.15
 20
-13.15
 11
8.15
 21
-11.15
  0
LINE
  5
31F
100
AcDbEntity
  8
IMPORT_IGES
100
AcDbLine
 62
7
  6
CONTINUOUS
 10
8.4
 20
-11.15
 11
8.4
 21
-12.8946808517
  0
LINE
  5
320
100
AcDbEntity
  8
IMPORT_IGES
100
AcDbLine
 62
7
  6
CONTINUOUS
 10
8.85
 20
-25.1525880325
 11
8.85
 21
-15.6274119675
  0
LINE
  5
321
100
AcDbEntity
  8
IMPORT_IGES
100
AcDbLine
 62
7
  6
CONTINUOUS
 10
9.15
 20
-15.6274119675
 11
9.15
 21
-25.1525880325
  0
LINE
  5
322
100
AcDbEntity
  8
IMPORT_IGES
100
AcDbLine
 62
7
  6
CONTINUOUS
 10
9.65
 20
-12.8946808517
 11
9.65
 21
-13.15
  0
LINE
  5
323
100
AcDbEntity
  8
IMPORT_IGES
100
AcDbLine
 62
7
  6
CONTINUOUS
 10
-10.2324540498
 20
-18.4796779846
 11
-10.0203220155
 21
-18.2675459502
  0
LINE
  5
324
100
AcDbEntity
  8
IMPORT_IGES
100
AcDbLine
 62
7
  6
CONTINUOUS
 10
-10.2324540498
 20
-20.5203220154
 11
-9.2121320344
 21
-19.5
  0
LINE
  5
325
100
AcDbEntity
  8
IMPORT_IGES
100
AcDbLine
 62
7
  6
CONTINUOUS
 10
-9.0
 20
-19.2878679656
 11
-7.9796779846
 21
-18.2675459502
  0
LINE
  5
326
100
AcDbEntity
  8
IMPORT_IGES
100
AcDbLine
 62
7
  6
CONTINUOUS
 10
-7.7675459502
 20
-18.4796779846
 11
-8.7878679657
 21
-19.5
  0
LINE
  5
327
100
AcDbEntity
  8
IMPORT_IGES
100
AcDbLine
 62
7
  6
CONTINUOUS
 10
-9.0
 20
-19.7121320343
 11
-10.0203220155
 21
-20.7324540498
  0
LINE
  5
328
100
AcDbEntity
  8
IMPORT_IGES
100
AcDbLine
 62
7
  6
CONTINUOUS
 10
-7.7675459502
 20
-20.5203220154
 11
-7.9796779846
 21
-20.7324540498
  0
LINE
  5
329
100
AcDbEntity
  8
IMPORT_IGES
100
AcDbLine
 62
7
  6
CONTINUOUS
 10
-12.1276595593
 20
-23.425195038
 11
-12.2978723049
 21
-23.5918615457
  0
LINE
  5
32A
100
AcDbEntity
  8
IMPORT_IGES
100
AcDbLine
 62
7
  6
CONTINUOUS
 10
-13.4893617034
 20
-18.3418615457
 11
-13.6170212627
 21
-18.4251947995
  0
LINE
  5
32B
100
AcDbEntity
  8
IMPORT_IGES
100
AcDbLine
 62
7
  6
CONTINUOUS
 10
-12.5106383562
 20
-19.4251947995
 11
-12.3829786778
 21
-19.3418615457
  0
LINE
  5
32C
100
AcDbEntity
  8
IMPORT_IGES
100
AcDbLine
 62
7
  6
CONTINUOUS
 10
-13.7021276653
 20
-18.1751949188
 11
-13.5319148898
 21
-18.0918615457
  0
LWPOLYLINE
  5
32D
100
AcDbEntity
  8
IMPORT_IGES
100
AcDbPolyline
 62
7
  6
CONTINUOUS
 90
10
 70
0
 10
2.8306060219
 20
10.8538046675
 10
2.6960865059
 20
10.8216247754
 10
2.5609378077
 20
10.7932077386
 10
2.4251599273
 20
10.7685535571
 10
2.2886485917
 20
10.7476492068
 10
2.1515080739
 20
10.7305077119
 10
2.0140511927
 20
10.7171681442
 10
1.8763822211
 20
10.7076435277
 10
1.7383968861
 20
10.7019208385
 10
1.6000951877
 20
10.7000000765
  0
LINE
  5
32E
100
AcDbEntity
  8
IMPORT_IGES
100
AcDbLine
 62
7
  6
CONTINUOUS
 10
-13.5
 20
10.2
 11
-6.9
 21
10.2
  0
LINE
  5
32F
100
AcDbEntity
  8
IMPORT_IGES
100
AcDbLine
 62
7
  6
CONTINUOUS
 10
-3.3
 20
10.2
 11
3.3
 21
10.2
  0
LINE
  5
330
100
AcDbEntity
  8
IMPORT_IGES
100
AcDbLine
 62
7
  6
CONTINUOUS
 10
6.9
 20
10.2
 11
13.5
 21
10.2
  0
LWPOLYLINE
  5
331
100
AcDbEntity
  8
IMPORT_IGES
100
AcDbPolyline
 62
7
  6
CONTINUOUS
 90
10
 70
0
 10
-2.8306060141
 20
10.853804698
 10
-2.6960892088
 20
10.8216253347
 10
-2.560941859
 20
10.7932086008
 10
-2.4251639648
 20
10.7685544962
 10
-2.2886503402
 20
10.7476498736
 10
-2.1515061711
 20
10.7305078803
 10
-2.0140470155
 20
10.7171679588
 10
-1.8763780594
 20
10.7076432564
 10
-1.7383941168
 20
10.7019206259
 10
-1.6000951877
 20
10.7000000671
  0
LWPOLYLINE
  5
332
100
AcDbEntity
  8
IMPORT_IGES
100
AcDbPolyline
 62
7
  6
CONTINUOUS
 90
10
 70
0
 10
-2.8286783343
 20
10.9165124658
 10
-2.6937271916
 20
10.8840599
 10
-2.5579276793
 20
10.8553662348
 10
-2.4213844514
 20
10.8304535434
 10
-2.284203019
 20
10.8093410262
 10
-2.1464888134
 20
10.7920448598
 10
-2.0083470948
 20
10.7785782642
 10
-1.8698840205
 20
10.7689516373
 10
-1.7312065724
 20
10.7631724669
 10
-1.5924216128
 20
10.7612452446
  0
LINE
  5
333
100
AcDbEntity
  8
IMPORT_IGES
100
AcDbLine
 62
7
  6
CONTINUOUS
 10
10.3678936534
 20
-27.04
 11
10.3678936534
 21
-25.04
  0
LINE
  5
334
100
AcDbEntity
  8
IMPORT_IGES
100
AcDbLine
 62
7
  6
CONTINUOUS
 10
10.6178936534
 20
-25.04
 11
10.6178936534
 21
-26.7846808517
  0
LINE
  5
335
100
AcDbEntity
  8
IMPORT_IGES
100
AcDbLine
 62
7
  6
CONTINUOUS
 10
11.8678936534
 20
-26.7846808517
 11
11.8678936534
 21
-27.04
  0
LINE
  5
336
100
AcDbEntity
  8
IMPORT_IGES
100
AcDbLine
 62
250
  6
CONTINUOUS
 10
12.600000002
 20
29.6999999997
 11
12.6
 21
29.2
  0
LINE
  5
337
100
AcDbEntity
  8
IMPORT_IGES
100
AcDbLine
 62
250
  6
CONTINUOUS
 10
12.5999999993
 20
-28.0
 11
12.6
 21
-28.4999999993
  0
LINE
  5
338
100
AcDbEntity
  8
IMPORT_IGES
100
AcDbLine
 62
7
  6
CONTINUOUS
 10
13.5
 20
10.2
 11
13.5
 21
-10.2
  0
LINE
  5
339
100
AcDbEntity
  8
IMPORT_IGES
100
AcDbLine
 62
7
  6
CONTINUOUS
 10
14.6
 20
-25.9999999996
 11
14.6
 21
27.1999999995
  0
LINE
  5
33A
100
AcDbEntity
  8
IMPORT_IGES
100
AcDbLine
 62
250
  6
CONTINUOUS
 10
15.0999999993
 20
27.2000000035
 11
15.1
 21
-26.0000000059
  0
LINE
  5
33B
100
AcDbEntity
  8
IMPORT_IGES
100
AcDbLine
 62
7
  6
CONTINUOUS
 10
-12.5106383562
 20
-23.425195038
 11
-12.3829786778
 21
-23.3418615457
  0
LINE
  5
33C
100
AcDbEntity
  8
IMPORT_IGES
100
AcDbLine
 62
7
  6
CONTINUOUS
 10
-12.2978723049
 20
-19.5918615457
 11
-12.4680850506
 21
-19.6751947995
  0
LWPOLYLINE
  5
33D
100
AcDbEntity
  8
IMPORT_IGES
100
AcDbPolyline
 62
7
  6
CONTINUOUS
 90
10
 70
0
 10
1.5924210986
 20
10.7612453016
 10
1.7312059457
 20
10.7631724979
 10
1.8698833384
 20
10.7689516394
 10
2.0083464147
 20
10.778578239
 10
2.1464882107
 20
10.7920448157
 10
2.2842025498
 20
10.8093409753
 10
2.4213841156
 20
10.8304534931
 10
2.5579274579
 20
10.8553661888
 10
2.6937270838
 20
10.8840598648
 10
2.8286783394
 20
10.9165124475
  0
LINE
  5
33E
100
AcDbEntity
  8
IMPORT_IGES
100
AcDbLine
 62
7
  6
CONTINUOUS
 10
-14.6
 20
10.6
 11
14.6
 21
10.6
  0
LINE
  5
33F
100
AcDbEntity
  8
IMPORT_IGES
100
AcDbLine
 62
7
  6
CONTINUOUS
 10
1.6000951877
 20
10.7
 11
-1.6000951877
 21
10.7
  0
LINE
  5
340
100
AcDbEntity
  8
IMPORT_IGES
100
AcDbLine
 62
250
  6
CONTINUOUS
 10
1.5924205879
 20
10.7612450437
 11
-1.5924216128
 21
10.7612450437
  0
LINE
  5
341
100
AcDbEntity
  8
IMPORT_IGES
100
AcDbLine
 62
250
  6
CONTINUOUS
 10
-1.5924216129
 20
11.2611688913
 11
1.5924216126
 21
11.2611698325
  0
LINE
  5
342
100
AcDbEntity
  8
IMPORT_IGES
100
AcDbLine
 62
7
  6
CONTINUOUS
 10
44.6812698553
 20
13.0
 11
46.0908432753
 21
13.0
  0
LINE
  5
343
100
AcDbEntity
  8
IMPORT_IGES
100
AcDbLine
 62
7
  6
CONTINUOUS
 10
-44.6812970861
 20
13.0
 11
-46.0908432753
 21
13.0
  0
LINE
  5
344
100
AcDbEntity
  8
IMPORT_IGES
100
AcDbLine
 62
7
  6
CONTINUOUS
 10
-12.2978723049
 20
-23.5918615457
 11
-12.4680850506
 21
-23.675195038
  0
LINE
  5
345
100
AcDbEntity
  8
IMPORT_IGES
100
AcDbLine
 62
7
  6
CONTINUOUS
 10
-12.0
 20
-21.050195038
 11
-14.0
 21
-21.7168615457
  0
LINE
  5
346
100
AcDbEntity
  8
IMPORT_IGES
100
AcDbLine
 62
7
  6
CONTINUOUS
 10
-14.0
 20
-21.4668615457
 11
-13.4893617034
 21
-21.300195038
  0
LINE
  5
347
100
AcDbEntity
  8
IMPORT_IGES
100
AcDbLine
 62
7
  6
CONTINUOUS
 10
-13.3191489578
 20
-21.2585280534
 11
-12.1702127457
 21
-20.8835280534
  0
LWPOLYLINE
  5
348
100
AcDbEntity
  8
IMPORT_IGES
100
AcDbPolyline
 62
250
  6
CONTINUOUS
 90
4
 70
0
 10
-7.6542523929
 20
29.5025589976
 10
-7.6124855979
 20
29.4618142284
 10
-7.5937513134
 20
29.4432555989
 10
-7.5604270218
 20
29.410813496
  0
LWPOLYLINE
  5
349
100
AcDbEntity
  8
IMPORT_IGES
100
AcDbPolyline
 62
250
  6
CONTINUOUS
 90
3
 70
0
 10
-7.72488193
 20
29.5718084894
 10
-7.6767187746
 20
29.5247626644
 10
-7.6542523929
 20
29.5025589976
  0
LWPOLYLINE
  5
34A
100
AcDbEntity
  8
IMPORT_IGES
100
AcDbPolyline
 62
250
  6
CONTINUOUS
 90
9
 70
0
 10
-7.5604270218
 20
29.410813496
 10
-7.5463239703
 20
29.3968109602
 10
-7.5338731753
 20
29.3846595975
 10
-7.5231176052
 20
29.3742693284
 10
-7.5143352214
 20
29.3655398493
 10
-7.5074722196
 20
29.3587869523
 10
-7.5024488452
 20
29.3540531522
 10
-7.4994014727
 20
29.3511379395
 10
-7.49849985
 20
29.35
  0
LWPOLYLINE
  5
34B
100
AcDbEntity
  8
IMPORT_IGES
100
AcDbPolyline
 62
250
  6
CONTINUOUS
 90
6
 70
0
 10
-7.85557127
 20
29.7
 10
-7.8290310685
 20
29.6736079152
 10
-7.8023605838
 20
29.6475439848
 10
-7.7758605439
 20
29.6218763216
 10
-7.7499904052
 20
29.596581848
 10
-7.72488193
 20
29.5718084894
  0
LINE
  5
34C
100
AcDbEntity
  8
IMPORT_IGES
100
AcDbLine
 62
7
  6
CONTINUOUS
 10
23.0
 20
-41.9580434059
 11
23.0
 21
-40.7432644489
  0
LINE
  5
34D
100
AcDbEntity
  8
IMPORT_IGES
100
AcDbLine
 62
7
  6
CONTINUOUS
 10
23.0
 20
40.7432644489
 11
23.0
 21
41.9580434059
  0
LINE
  5
34E
100
AcDbEntity
  8
IMPORT_IGES
100
AcDbLine
 62
250
  6
CONTINUOUS
 10
34.41919657
 20
40.7339128821
 11
34.5343109398
 21
41.2204811526
  0
LINE
  5
34F
100
AcDbEntity
  8
IMPORT_IGES
100
AcDbLine
 62
250
  6
CONTINUOUS
 10
41.2204811526
 20
34.5343109395
 11
40.7339128821
 21
34.41919657
  0
LINE
  5
350
100
AcDbEntity
  8
IMPORT_IGES
100
AcDbLine
 62
7
  6
CONTINUOUS
 10
-45.1865199009
 20
21.0
 11
-43.7715014069
 21
21.0
  0
LINE
  5
351
100
AcDbEntity
  8
IMPORT_IGES
100
AcDbLine
 62
7
  6
CONTINUOUS
 10
43.7715912036
 20
21.0
 11
45.1865219774
 21
21.0
  0
LINE
  5
352
100
AcDbEntity
  8
IMPORT_IGES
100
AcDbLine
 62
7
  6
CONTINUOUS
 10
40.7432644489
 20
23.0
 11
41.9580434059
 21
23.0
  0
LINE
  5
353
100
AcDbEntity
  8
IMPORT_IGES
100
AcDbLine
 62
7
  6
CONTINUOUS
 10
-40.7432644489
 20
23.0
 11
-41.9580434059
 21
23.0
  0
LINE
  5
354
100
AcDbEntity
  8
IMPORT_IGES
100
AcDbLine
 62
250
  6
CONTINUOUS
 10
-40.7339128821
 20
34.41919657
 11
-41.2204811526
 21
34.5343109398
  0
LINE
  5
355
100
AcDbEntity
  8
IMPORT_IGES
100
AcDbLine
 62
250
  6
CONTINUOUS
 10
34.5343109395
 20
-41.2204811526
 11
34.41919657
 21
-40.7339128821
  0
LINE
  5
356
100
AcDbEntity
  8
IMPORT_IGES
100
AcDbLine
 62
250
  6
CONTINUOUS
 10
-15.0999999993
 20
27.2000000017
 11
-14.6
 21
27.1999999993
  0
LINE
  5
357
100
AcDbEntity
  8
IMPORT_IGES
100
AcDbLine
 62
250
  6
CONTINUOUS
 10
14.6
 20
27.1999999993
 11
15.0999999989
 21
27.2
  0
LINE
  5
358
100
AcDbEntity
  8
IMPORT_IGES
100
AcDbLine
 62
7
  6
CONTINUOUS
 10
-46.6831502861
 20
28.0
 11
-42.7152840502
 21
28.0
  0
LINE
  5
359
100
AcDbEntity
  8
IMPORT_IGES
100
AcDbLine
 62
7
  6
CONTINUOUS
 10
42.7152840502
 20
28.0
 11
46.6831535695
 21
28.0
  0
LINE
  5
35A
100
AcDbEntity
  8
IMPORT_IGES
100
AcDbLine
 62
7
  6
CONTINUOUS
 10
46.4563491138
 20
29.2
 11
42.4823673653
 21
29.2
  0
LINE
  5
35B
100
AcDbEntity
  8
IMPORT_IGES
100
AcDbLine
 62
7
  6
CONTINUOUS
 10
12.5999999996
 20
29.2
 11
7.8555712572
 21
29.2
  0
LINE
  5
35C
100
AcDbEntity
  8
IMPORT_IGES
100
AcDbLine
 62
7
  6
CONTINUOUS
 10
-7.8555712714
 20
29.2
 11
-12.5999999998
 21
29.2
  0
LINE
  5
35D
100
AcDbEntity
  8
IMPORT_IGES
100
AcDbLine
 62
7
  6
CONTINUOUS
 10
-42.4823673653
 20
29.2
 11
-46.456349073
 21
29.2
  0
LINE
  5
35E
100
AcDbEntity
  8
IMPORT_IGES
100
AcDbLine
 62
250
  6
CONTINUOUS
 10
-12.6000000039
 20
29.6999999995
 11
-7.8555712713
 21
29.7000000001
  0
LINE
  5
35F
100
AcDbEntity
  8
IMPORT_IGES
100
AcDbLine
 62
250
  6
CONTINUOUS
 10
7.8555712715
 20
29.6999999998
 11
12.6000000059
 21
29.7
  0
LINE
  5
360
100
AcDbEntity
  8
IMPORT_IGES
100
AcDbLine
 62
7
  6
CONTINUOUS
 10
35.05
 20
-17.35
 11
35.05
 21
-16.65
  0
LINE
  5
361
100
AcDbEntity
  8
IMPORT_IGES
100
AcDbLine
 62
7
  6
CONTINUOUS
 10
36.25
 20
-15.45
 11
36.25
 21
-16.65
  0
LINE
  5
362
100
AcDbEntity
  8
IMPORT_IGES
100
AcDbLine
 62
7
  6
CONTINUOUS
 10
36.25
 20
-18.55
 11
36.25
 21
-17.35
  0
LINE
  5
363
100
AcDbEntity
  8
IMPORT_IGES
100
AcDbLine
 62
7
  6
CONTINUOUS
 10
36.95
 20
-17.35
 11
36.95
 21
-18.55
  0
LINE
  5
364
100
AcDbEntity
  8
IMPORT_IGES
100
AcDbLine
 62
7
  6
CONTINUOUS
 10
36.95
 20
-16.65
 11
36.95
 21
-15.45
  0
LINE
  5
365
100
AcDbEntity
  8
IMPORT_IGES
100
AcDbLine
 62
7
  6
CONTINUOUS
 10
38.15
 20
-16.65
 11
38.15
 21
-17.35
  0
LINE
  5
366
100
AcDbEntity
  8
IMPORT_IGES
100
AcDbLine
 62
7
  6
CONTINUOUS
 10
0.35
 20
35.95
 11
-0.35
 21
35.95
  0
LINE
  5
367
100
AcDbEntity
  8
IMPORT_IGES
100
AcDbLine
 62
7
  6
CONTINUOUS
 10
-1.55
 20
37.15
 11
-0.35
 21
37.15
  0
LINE
  5
368
100
AcDbEntity
  8
IMPORT_IGES
100
AcDbLine
 62
7
  6
CONTINUOUS
 10
0.35
 20
37.15
 11
1.55
 21
37.15
  0
LINE
  5
369
100
AcDbEntity
  8
IMPORT_IGES
100
AcDbLine
 62
7
  6
CONTINUOUS
 10
1.55
 20
37.85
 11
0.35
 21
37.85
  0
LINE
  5
36A
100
AcDbEntity
  8
IMPORT_IGES
100
AcDbLine
 62
7
  6
CONTINUOUS
 10
-0.35
 20
37.85
 11
-1.55
 21
37.85
  0
LINE
  5
36B
100
AcDbEntity
  8
IMPORT_IGES
100
AcDbLine
 62
7
  6
CONTINUOUS
 10
0.35
 20
39.05
 11
-0.35
 21
39.05
  0
ARC
  5
36C
100
AcDbEntity
  8
IMPORT_IGES
100
AcDbCircle
 62
7
  6
CONTINUOUS
 10
-32.4622522834
 20
-32.4622522834
 40
15.0
100
AcDbArc
 50
193.310538973
 51
256.689461027
  0
ARC
  5
36D
100
AcDbEntity
  8
IMPORT_IGES
100
AcDbCircle
 62
7
  6
CONTINUOUS
 10
-32.4622522834
 20
-32.4622522834
 40
13.0
100
AcDbArc
 50
193.310538973
 51
256.689461027
  0
ARC
  5
36E
100
AcDbEntity
  8
IMPORT_IGES
100
AcDbCircle
 62
7
  6
CONTINUOUS
 10
-32.4622522834
 20
-32.4622522834
 40
9.0
100
AcDbArc
 50
193.310538971
 51
256.6894610287
  0
ARC
  5
36F
100
AcDbEntity
  8
IMPORT_IGES
100
AcDbCircle
 62
250
  6
CONTINUOUS
 10
-32.4622522834
 20
-32.4622522834
 40
8.5
100
AcDbArc
 50
193.3105389731
 51
256.6894610269
  0
ARC
  5
370
100
AcDbEntity
  8
IMPORT_IGES
100
AcDbCircle
 62
7
  6
CONTINUOUS
 10
-32.4622522834
 20
-32.4622522834
 40
7.5
100
AcDbArc
 50
193.310538973
 51
256.689461027
  0
ARC
  5
371
100
AcDbEntity
  8
IMPORT_IGES
100
AcDbCircle
 62
7
  6
CONTINUOUS
 10
-32.4622522834
 20
-32.4622522834
 40
6.3
100
AcDbArc
 50
193.3105389732
 51
256.6894610268
  0
CIRCLE
  5
372
100
AcDbEntity
  8
IMPORT_IGES
100
AcDbCircle
 62
7
  6
CONTINUOUS
 10
-36.6
 20
-17.0
 40
3.0
  0
CIRCLE
  5
373
100
AcDbEntity
  8
IMPORT_IGES
100
AcDbCircle
 62
7
  6
CONTINUOUS
 10
-10.2
 20
-4.0
 40
2.8
  0
ARC
  5
374
100
AcDbEntity
  8
IMPORT_IGES
100
AcDbCircle
 62
250
  6
CONTINUOUS
 10
-12.6
 20
-26.0
 40
2.5
100
AcDbArc
 50
180.0000000795
 51
269.9999998648
  0
CIRCLE
  5
375
100
AcDbEntity
  8
IMPORT_IGES
100
AcDbCircle
 62
7
  6
CONTINUOUS
 10
-36.6
 20
-17.0
 40
2.425
  0
ARC
  5
376
100
AcDbEntity
  8
IMPORT_IGES
100
AcDbCircle
 62
7
  6
CONTINUOUS
 10
-9.0
 20
-19.5
 40
2.15
100
AcDbArc
 50
94.0006299616
 51
265.9993700384
  0
ARC
  5
377
100
AcDbEntity
  8
IMPORT_IGES
100
AcDbCircle
 62
7
  6
CONTINUOUS
 10
-9.0
 20
-19.5
 40
2.15
100
AcDbArc
 50
274.0006299616
 51
85.9993700384
  0
CIRCLE
  5
378
100
AcDbEntity
  8
IMPORT_IGES
100
AcDbCircle
 62
250
  6
CONTINUOUS
 10
-36.6
 20
-17.0
 40
2.0089415886
  0
CIRCLE
  5
379
100
AcDbEntity
  8
IMPORT_IGES
100
AcDbCircle
 62
7
  6
CONTINUOUS
 10
-10.2
 20
-4.0
 40
2.0
  0
ARC
  5
37A
100
AcDbEntity
  8
IMPORT_IGES
100
AcDbCircle
 62
7
  6
CONTINUOUS
 10
-12.6
 20
-26.0
 40
2.0
100
AcDbArc
 50
179.9999999745
 51
269.9999999999
  0
CIRCLE
  5
37B
100
AcDbEntity
  8
IMPORT_IGES
100
AcDbCircle
 62
7
  6
CONTINUOUS
 10
-9.0
 20
-19.5
 40
1.85
  0
ARC
  5
37C
100
AcDbEntity
  8
IMPORT_IGES
100
AcDbCircle
 62
7
  6
CONTINUOUS
 10
-9.0
 20
-14.74
 40
0.9
100
AcDbArc
 50
279.5940682269
 51
260.4059317731
  0
CIRCLE
  5
37D
100
AcDbEntity
  8
IMPORT_IGES
100
AcDbCircle
 62
7
  6
CONTINUOUS
 10
-9.0
 20
-14.74
 40
0.6
  0
ARC
  5
37E
100
AcDbEntity
  8
IMPORT_IGES
100
AcDbCircle
 62
7
  6
CONTINUOUS
 10
-5.0
 20
-28.5
 40
0.5
100
AcDbArc
 50
0.0
 51
89.9999999799
  0
ARC
  5
37F
100
AcDbEntity
  8
IMPORT_IGES
100
AcDbCircle
 62
7
  6
CONTINUOUS
 10
-104.7499999999
 20
-0.0
 40
155.9999999999
100
AcDbArc
 50
346.6894610272
 51
13.3105389728
  0
ARC
  5
380
100
AcDbEntity
  8
IMPORT_IGES
100
AcDbCircle
 62
7
  6
CONTINUOUS
 10
-104.75
 20
-0.0
 40
154.0
100
AcDbArc
 50
349.5243183036
 51
10.4756816964
  0
ARC
  5
381
100
AcDbEntity
  8
IMPORT_IGES
100
AcDbCircle
 62
7
  6
CONTINUOUS
 10
-104.7499999996
 20
0.0000000001
 40
153.9999999996
100
AcDbArc
 50
10.9300478614
 51
13.3105389728
  0
ARC
  5
382
100
AcDbEntity
  8
IMPORT_IGES
100
AcDbCircle
 62
7
  6
CONTINUOUS
 10
-104.7499999996
 20
-0.0000000001
 40
153.9999999996
100
AcDbArc
 50
346.6894610272
 51
349.0699521386
  0
ARC
  5
383
100
AcDbEntity
  8
IMPORT_IGES
100
AcDbCircle
 62
7
  6
CONTINUOUS
 10
-104.7499999277
 20
-0.0000000133
 40
153.0999999227
100
AcDbArc
 50
349.0049016621
 51
349.4620351277
  0
ARC
  5
384
100
AcDbEntity
  8
IMPORT_IGES
100
AcDbCircle
 62
7
  6
CONTINUOUS
 10
-104.7499999277
 20
0.0000000133
 40
153.0999999228
100
AcDbArc
 50
10.5379648723
 51
10.9950983379
  0
ARC
  5
385
100
AcDbEntity
  8
IMPORT_IGES
100
AcDbCircle
 62
7
  6
CONTINUOUS
 10
-104.7500000041
 20
-0.0000000003
 40
151.4000000041
100
AcDbArc
 50
4.9257823956
 51
7.9729411859
  0
ARC
  5
386
100
AcDbEntity
  8
IMPORT_IGES
100
AcDbCircle
 62
7
  6
CONTINUOUS
 10
-104.7500000041
 20
0.0000000003
 40
151.4000000041
100
AcDbArc
 50
352.0270588141
 51
355.0742176044
  0
ARC
  5
387
100
AcDbEntity
  8
IMPORT_IGES
100
AcDbCircle
 62
7
  6
CONTINUOUS
 10
-104.7500000003
 20
0.0
 40
150.1999963075
100
AcDbArc
 50
351.9629408178
 51
355.0347654006
  0
ARC
  5
388
100
AcDbEntity
  8
IMPORT_IGES
100
AcDbCircle
 62
7
  6
CONTINUOUS
 10
-104.7500000001
 20
-0.0
 40
150.1999963071
100
AcDbArc
 50
4.9652345994
 51
8.0370591822
  0
ARC
  5
389
100
AcDbEntity
  8
IMPORT_IGES
100
AcDbCircle
 62
7
  6
CONTINUOUS
 10
-104.7499997963
 20
-0.0000000394
 40
150.0999997925
100
AcDbArc
 50
348.7823237428
 51
349.2489345568
  0
ARC
  5
38A
100
AcDbEntity
  8
IMPORT_IGES
100
AcDbCircle
 62
7
  6
CONTINUOUS
 10
-104.7499997963
 20
0.0000000394
 40
150.0999997925
100
AcDbArc
 50
10.7510654432
 51
11.2176762572
  0
ARC
  5
38B
100
AcDbEntity
  8
IMPORT_IGES
100
AcDbCircle
 62
7
  6
CONTINUOUS
 10
-104.75
 20
-0.0
 40
150.0
100
AcDbArc
 50
346.6894610272
 51
13.3105389727
  0
ARC
  5
38C
100
AcDbEntity
  8
IMPORT_IGES
100
AcDbCircle
 62
7
  6
CONTINUOUS
 10
-104.7499999999
 20
-0.0
 40
149.4978144865
100
AcDbArc
 50
346.6894610272
 51
359.2965762209
  0
ARC
  5
38D
100
AcDbEntity
  8
IMPORT_IGES
100
AcDbCircle
 62
7
  6
CONTINUOUS
 10
-104.7499999999
 20
0.0
 40
149.4978144865
100
AcDbArc
 50
0.7034237791
 51
13.3105389728
  0
ARC
  5
38E
100
AcDbEntity
  8
IMPORT_IGES
100
AcDbCircle
 62
7
  6
CONTINUOUS
 10
-104.7499999993
 20
-0.0000000001
 40
148.4999999993
100
AcDbArc
 50
346.6894610272
 51
351.0900383111
  0
ARC
  5
38F
100
AcDbEntity
  8
IMPORT_IGES
100
AcDbCircle
 62
7
  6
CONTINUOUS
 10
-104.7499999993
 20
0.0000000001
 40
148.4999999993
100
AcDbArc
 50
8.9099616889
 51
13.3105389728
  0
ARC
  5
390
100
AcDbEntity
  8
IMPORT_IGES
100
AcDbCircle
 62
7
  6
CONTINUOUS
 10
-104.7499999984
 20
-0.0000000002
 40
147.2999999984
100
AcDbArc
 50
346.6894610271
 51
351.0168538892
  0
ARC
  5
391
100
AcDbEntity
  8
IMPORT_IGES
100
AcDbCircle
 62
7
  6
CONTINUOUS
 10
-104.7499999984
 20
0.0000000002
 40
147.2999999984
100
AcDbArc
 50
8.9831461108
 51
13.3105389729
  0
ARC
  5
392
100
AcDbEntity
  8
IMPORT_IGES
100
AcDbCircle
 62
250
  6
CONTINUOUS
 10
-1.5924676339
 20
15.7600992909
 40
4.4988078336
100
AcDbArc
 50
255.6822107023
 51
270.0005860978
  0
CIRCLE
  5
393
100
AcDbEntity
  8
IMPORT_IGES
100
AcDbCircle
 62
7
  6
CONTINUOUS
 10
-41.7
 20
-0.0
 40
3.55
  0
CIRCLE
  5
394
100
AcDbEntity
  8
IMPORT_IGES
100
AcDbCircle
 62
7
  6
CONTINUOUS
 10
-10.2
 20
4.0
 40
2.8
  0
CIRCLE
  5
395
100
AcDbEntity
  8
IMPORT_IGES
100
AcDbCircle
 62
7
  6
CONTINUOUS
 10
-41.7
 20
-0.0
 40
2.55
  0
CIRCLE
  5
396
100
AcDbEntity
  8
IMPORT_IGES
100
AcDbCircle
 62
7
  6
CONTINUOUS
 10
-10.2
 20
4.0
 40
2.0
  0
CIRCLE
  5
397
100
AcDbEntity
  8
IMPORT_IGES
100
AcDbCircle
 62
7
  6
CONTINUOUS
 10
-41.7
 20
0.0
 40
1.85
  0
ARC
  5
398
100
AcDbEntity
  8
IMPORT_IGES
100
AcDbCircle
 62
7
  6
CONTINUOUS
 10
-5.1
 20
-0.0
 40
1.7
100
AcDbArc
 50
42.4078360409
 51
317.5921639591
  0
ARC
  5
399
100
AcDbEntity
  8
IMPORT_IGES
100
AcDbCircle
 62
7
  6
CONTINUOUS
 10
-4.6
 20
-0.0
 40
1.55
100
AcDbArc
 50
81.1860866814
 51
278.8139133187
  0
ARC
  5
39A
100
AcDbEntity
  8
IMPORT_IGES
100
AcDbCircle
 62
250
  6
CONTINUOUS
 10
-4.6
 20
-0.0
 40
1.4187823591
100
AcDbArc
 50
63.7704616259
 51
296.2295241746
  0
ARC
  5
39B
100
AcDbEntity
  8
IMPORT_IGES
100
AcDbCircle
 62
7
  6
CONTINUOUS
 10
-4.6
 20
-0.0
 40
1.3728738864
100
AcDbArc
 50
303.3738420274
 51
56.6261579726
  0
CIRCLE
  5
39C
100
AcDbEntity
  8
IMPORT_IGES
100
AcDbCircle
 62
250
  6
CONTINUOUS
 10
-4.6
 20
-0.0
 40
0.4189299043
  0
ARC
  5
39D
100
AcDbEntity
  8
IMPORT_IGES
100
AcDbCircle
 62
7
  6
CONTINUOUS
 10
-32.4622522834
 20
32.4622522834
 40
15.0
100
AcDbArc
 50
103.310538973
 51
166.689461027
  0
ARC
  5
39E
100
AcDbEntity
  8
IMPORT_IGES
100
AcDbCircle
 62
7
  6
CONTINUOUS
 10
-32.4622522834
 20
32.4622522834
 40
13.0
100
AcDbArc
 50
103.310538973
 51
166.689461027
  0
ARC
  5
39F
100
AcDbEntity
  8
IMPORT_IGES
100
AcDbCircle
 62
7
  6
CONTINUOUS
 10
-32.4622522834
 20
32.4622522834
 40
9.0
100
AcDbArc
 50
103.3105389711
 51
166.6894610286
  0
ARC
  5
3A0
100
AcDbEntity
  8
IMPORT_IGES
100
AcDbCircle
 62
250
  6
CONTINUOUS
 10
-32.4622522834
 20
32.4622522834
 40
8.5
100
AcDbArc
 50
103.3105389731
 51
166.6894610269
  0
ARC
  5
3A1
100
AcDbEntity
  8
IMPORT_IGES
100
AcDbCircle
 62
7
  6
CONTINUOUS
 10
-32.4622522834
 20
32.4622522834
 40
7.5
100
AcDbArc
 50
103.310538973
 51
166.689461027
  0
ARC
  5
3A2
100
AcDbEntity
  8
IMPORT_IGES
100
AcDbCircle
 62
7
  6
CONTINUOUS
 10
-32.4622522834
 20
32.4622522834
 40
6.3
100
AcDbArc
 50
103.3105389732
 51
166.6894610268
  0
ARC
  5
3A3
100
AcDbEntity
  8
IMPORT_IGES
100
AcDbCircle
 62
250
  6
CONTINUOUS
 10
-12.6
 20
27.2
 40
2.5
100
AcDbArc
 50
90.0000000894
 51
179.9999998804
  0
ARC
  5
3A4
100
AcDbEntity
  8
IMPORT_IGES
100
AcDbCircle
 62
7
  6
CONTINUOUS
 10
-12.6
 20
27.2
 40
2.0
100
AcDbArc
 50
90.0000000001
 51
180.0000000251
  0
ARC
  5
3A5
100
AcDbEntity
  8
IMPORT_IGES
100
AcDbCircle
 62
7
  6
CONTINUOUS
 10
-7.8555712714
 20
29.7
 40
0.5
100
AcDbArc
 50
270.0000000014
 51
315.5729958113
  0
ARC
  5
3A6
100
AcDbEntity
  8
IMPORT_IGES
100
AcDbCircle
 62
7
  6
CONTINUOUS
 10
-0.0
 20
-104.7499999999
 40
155.9999999999
100
AcDbArc
 50
76.6894610272
 51
103.3105389728
  0
ARC
  5
3A7
100
AcDbEntity
  8
IMPORT_IGES
100
AcDbCircle
 62
7
  6
CONTINUOUS
 10
0.0
 20
-104.749999995
 40
154.999999995
100
AcDbArc
 50
88.3363403786
 51
91.6636596214
  0
ARC
  5
3A8
100
AcDbEntity
  8
IMPORT_IGES
100
AcDbCircle
 62
7
  6
CONTINUOUS
 10
0.0
 20
-104.7499999999
 40
153.9999999999
100
AcDbArc
 50
76.6894610272
 51
103.3105389728
  0
ARC
  5
3A9
100
AcDbEntity
  8
IMPORT_IGES
100
AcDbCircle
 62
7
  6
CONTINUOUS
 10
-0.0
 20
-104.7499999999
 40
149.9999999999
100
AcDbArc
 50
76.6894610273
 51
103.3105389727
  0
ARC
  5
3AA
100
AcDbEntity
  8
IMPORT_IGES
100
AcDbCircle
 62
250
  6
CONTINUOUS
 10
0.0
 20
-104.7500000001
 40
149.5000000001
100
AcDbArc
 50
76.6894610272
 51
103.3105389728
  0
ARC
  5
3AB
100
AcDbEntity
  8
IMPORT_IGES
100
AcDbCircle
 62
7
  6
CONTINUOUS
 10
0.0000000001
 20
-104.7499999993
 40
148.4999999993
100
AcDbArc
 50
76.6894610272
 51
81.0900383111
  0
ARC
  5
3AC
100
AcDbEntity
  8
IMPORT_IGES
100
AcDbCircle
 62
7
  6
CONTINUOUS
 10
-0.0000000001
 20
-104.7499999993
 40
148.4999999993
100
AcDbArc
 50
98.9099616889
 51
103.3105389728
  0
ARC
  5
3AD
100
AcDbEntity
  8
IMPORT_IGES
100
AcDbCircle
 62
7
  6
CONTINUOUS
 10
0.0000000002
 20
-104.7499999984
 40
147.2999999984
100
AcDbArc
 50
76.6894610271
 51
81.0168538892
  0
ARC
  5
3AE
100
AcDbEntity
  8
IMPORT_IGES
100
AcDbCircle
 62
7
  6
CONTINUOUS
 10
-0.0000000002
 20
-104.7499999984
 40
147.2999999984
100
AcDbArc
 50
98.9831461108
 51
103.3105389729
  0
CIRCLE
  5
3AF
100
AcDbEntity
  8
IMPORT_IGES
100
AcDbCircle
 62
7
  6
CONTINUOUS
 10
0.0
 20
-4.0
 40
2.8
  0
CIRCLE
  5
3B0
100
AcDbEntity
  8
IMPORT_IGES
100
AcDbCircle
 62
7
  6
CONTINUOUS
 10
10.2
 20
-4.0
 40
2.8
  0
ARC
  5
3B1
100
AcDbEntity
  8
IMPORT_IGES
100
AcDbCircle
 62
250
  6
CONTINUOUS
 10
12.6
 20
-26.0
 40
2.5
100
AcDbArc
 50
270.0000000795
 51
359.9999998648
  0
CIRCLE
  5
3B2
100
AcDbEntity
  8
IMPORT_IGES
100
AcDbCircle
 62
7
  6
CONTINUOUS
 10
0.0
 20
-4.0
 40
2.0
  0
CIRCLE
  5
3B3
100
AcDbEntity
  8
IMPORT_IGES
100
AcDbCircle
 62
7
  6
CONTINUOUS
 10
10.2
 20
-4.0
 40
2.0
  0
ARC
  5
3B4
100
AcDbEntity
  8
IMPORT_IGES
100
AcDbCircle
 62
7
  6
CONTINUOUS
 10
12.6
 20
-26.0
 40
2.0
100
AcDbArc
 50
269.9999999745
 51
359.9999999999
  0
ARC
  5
3B5
100
AcDbEntity
  8
IMPORT_IGES
100
AcDbCircle
 62
7
  6
CONTINUOUS
 10
9.0
 20
-14.74
 40
0.9
100
AcDbArc
 50
279.5940682269
 51
260.4059317731
  0
ARC
  5
3B6
100
AcDbEntity
  8
IMPORT_IGES
100
AcDbCircle
 62
7
  6
CONTINUOUS
 10
9.0
 20
-26.04
 40
0.9
100
AcDbArc
 50
99.5940682269
 51
80.4059317732
  0
ARC
  5
3B7
100
AcDbEntity
  8
IMPORT_IGES
100
AcDbCircle
 62
7
  6
CONTINUOUS
 10
-0.0
 20
-26.04
 40
0.9
100
AcDbArc
 50
99.5940682269
 51
80.4059317732
  0
ARC
  5
3B8
100
AcDbEntity
  8
IMPORT_IGES
100
AcDbCircle
 62
7
  6
CONTINUOUS
 10
-0.0
 20
-14.74
 40
0.9
100
AcDbArc
 50
279.594068227
 51
260.4059317731
  0
CIRCLE
  5
3B9
100
AcDbEntity
  8
IMPORT_IGES
100
AcDbCircle
 62
7
  6
CONTINUOUS
 10
9.0
 20
-14.74
 40
0.6
  0
CIRCLE
  5
3BA
100
AcDbEntity
  8
IMPORT_IGES
100
AcDbCircle
 62
7
  6
CONTINUOUS
 10
9.0
 20
-26.04
 40
0.6
  0
CIRCLE
  5
3BB
100
AcDbEntity
  8
IMPORT_IGES
100
AcDbCircle
 62
7
  6
CONTINUOUS
 10
0.0
 20
-14.74
 40
0.6
  0
CIRCLE
  5
3BC
100
AcDbEntity
  8
IMPORT_IGES
100
AcDbCircle
 62
7
  6
CONTINUOUS
 10
0.0
 20
-26.04
 40
0.6
  0
ARC
  5
3BD
100
AcDbEntity
  8
IMPORT_IGES
100
AcDbCircle
 62
7
  6
CONTINUOUS
 10
0.0
 20
-23.24
 40
0.5
100
AcDbArc
 50
197.4576031235
 51
252.5423968761
  0
ARC
  5
3BE
100
AcDbEntity
  8
IMPORT_IGES
100
AcDbCircle
 62
7
  6
CONTINUOUS
 10
-0.0
 20
-23.24
 40
0.5
100
AcDbArc
 50
287.457603124
 51
72.5423968759
  0
ARC
  5
3BF
100
AcDbEntity
  8
IMPORT_IGES
100
AcDbCircle
 62
7
  6
CONTINUOUS
 10
0.0
 20
-23.24
 40
0.5
100
AcDbArc
 50
107.4576031239
 51
162.5423968765
  0
ARC
  5
3C0
100
AcDbEntity
  8
IMPORT_IGES
100
AcDbCircle
 62
7
  6
CONTINUOUS
 10
5.0
 20
-28.5
 40
0.5
100
AcDbArc
 50
90.0000000202
 51
180.0000000002
  0
ARC
  5
3C1
100
AcDbEntity
  8
IMPORT_IGES
100
AcDbCircle
 62
7
  6
CONTINUOUS
 10
32.4622522834
 20
-32.4622522834
 40
15.0
100
AcDbArc
 50
283.310538973
 51
346.689461027
  0
ARC
  5
3C2
100
AcDbEntity
  8
IMPORT_IGES
100
AcDbCircle
 62
7
  6
CONTINUOUS
 10
32.4622522834
 20
-32.4622522834
 40
13.0
100
AcDbArc
 50
283.310538973
 51
346.689461027
  0
ARC
  5
3C3
100
AcDbEntity
  8
IMPORT_IGES
100
AcDbCircle
 62
7
  6
CONTINUOUS
 10
32.4622522834
 20
-32.4622522834
 40
9.0
100
AcDbArc
 50
283.310538971
 51
346.6894610287
  0
ARC
  5
3C4
100
AcDbEntity
  8
IMPORT_IGES
100
AcDbCircle
 62
250
  6
CONTINUOUS
 10
32.4622522834
 20
-32.4622522834
 40
8.5
100
AcDbArc
 50
283.3105389731
 51
346.6894610269
  0
ARC
  5
3C5
100
AcDbEntity
  8
IMPORT_IGES
100
AcDbCircle
 62
7
  6
CONTINUOUS
 10
32.4622522834
 20
-32.4622522834
 40
7.5
100
AcDbArc
 50
283.310538973
 51
346.689461027
  0
ARC
  5
3C6
100
AcDbEntity
  8
IMPORT_IGES
100
AcDbCircle
 62
7
  6
CONTINUOUS
 10
32.4622522834
 20
-32.4622522834
 40
6.3
100
AcDbArc
 50
283.3105389732
 51
346.6894610268
  0
CIRCLE
  5
3C7
100
AcDbEntity
  8
IMPORT_IGES
100
AcDbCircle
 62
7
  6
CONTINUOUS
 10
36.6
 20
-17.0
 40
3.0
  0
CIRCLE
  5
3C8
100
AcDbEntity
  8
IMPORT_IGES
100
AcDbCircle
 62
7
  6
CONTINUOUS
 10
36.6
 20
-17.0
 40
2.425
  0
CIRCLE
  5
3C9
100
AcDbEntity
  8
IMPORT_IGES
100
AcDbCircle
 62
250
  6
CONTINUOUS
 10
36.6
 20
-17.0
 40
2.0089415886
  0
ARC
  5
3CA
100
AcDbEntity
  8
IMPORT_IGES
100
AcDbCircle
 62
250
  6
CONTINUOUS
 10
1.5924625706
 20
15.760139729
 40
4.4988483917
100
AcDbArc
 50
269.9994784119
 51
284.317724453
  0
CIRCLE
  5
3CB
100
AcDbEntity
  8
IMPORT_IGES
100
AcDbCircle
 62
7
  6
CONTINUOUS
 10
0.0
 20
4.0
 40
2.8
  0
CIRCLE
  5
3CC
100
AcDbEntity
  8
IMPORT_IGES
100
AcDbCircle
 62
7
  6
CONTINUOUS
 10
10.2
 20
4.0
 40
2.8
  0
CIRCLE
  5
3CD
100
AcDbEntity
  8
IMPORT_IGES
100
AcDbCircle
 62
7
  6
CONTINUOUS
 10
0.0
 20
4.0
 40
2.0
  0
CIRCLE
  5
3CE
100
AcDbEntity
  8
IMPORT_IGES
100
AcDbCircle
 62
7
  6
CONTINUOUS
 10
10.2
 20
4.0
 40
2.0
  0
ARC
  5
3CF
100
AcDbEntity
  8
IMPORT_IGES
100
AcDbCircle
 62
7
  6
CONTINUOUS
 10
5.1
 20
-0.0
 40
1.7
100
AcDbArc
 50
222.4078360409
 51
137.5921639591
  0
ARC
  5
3D0
100
AcDbEntity
  8
IMPORT_IGES
100
AcDbCircle
 62
7
  6
CONTINUOUS
 10
4.6
 20
-0.0
 40
1.55
100
AcDbArc
 50
261.1860866814
 51
98.8139133186
  0
ARC
  5
3D1
100
AcDbEntity
  8
IMPORT_IGES
100
AcDbCircle
 62
250
  6
CONTINUOUS
 10
4.6
 20
-0.0
 40
1.4187823591
100
AcDbArc
 50
243.7704616259
 51
116.2295241746
  0
ARC
  5
3D2
100
AcDbEntity
  8
IMPORT_IGES
100
AcDbCircle
 62
7
  6
CONTINUOUS
 10
4.6
 20
-0.0
 40
1.3728738864
100
AcDbArc
 50
123.3738420274
 51
236.6261579726
  0
CIRCLE
  5
3D3
100
AcDbEntity
  8
IMPORT_IGES
100
AcDbCircle
 62
250
  6
CONTINUOUS
 10
4.6
 20
-0.0
 40
0.4189299043
  0
ARC
  5
3D4
100
AcDbEntity
  8
IMPORT_IGES
100
AcDbCircle
 62
7
  6
CONTINUOUS
 10
-0.0
 20
22.0
 40
11.5
100
AcDbArc
 50
141.2379882842
 51
255.7508063074
  0
ARC
  5
3D5
100
AcDbEntity
  8
IMPORT_IGES
100
AcDbCircle
 62
7
  6
CONTINUOUS
 10
0.0
 20
22.0
 40
11.5
100
AcDbArc
 50
284.2491936927
 51
38.7620117158
  0
ARC
  5
3D6
100
AcDbEntity
  8
IMPORT_IGES
100
AcDbCircle
 62
250
  6
CONTINUOUS
 10
0.0
 20
22.0
 40
11.4387549563
100
AcDbArc
 50
140.9912451169
 51
255.6828528387
  0
ARC
  5
3D7
100
AcDbEntity
  8
IMPORT_IGES
100
AcDbCircle
 62
250
  6
CONTINUOUS
 10
-0.0
 20
22.0
 40
11.4387549563
100
AcDbArc
 50
284.3171471636
 51
39.0087548831
  0
ARC
  5
3D8
100
AcDbEntity
  8
IMPORT_IGES
100
AcDbCircle
 62
250
  6
CONTINUOUS
 10
0.0
 20
22.0
 40
11.0
100
AcDbArc
 50
44.4270039997
 51
135.5729959985
  0
ARC
  5
3D9
100
AcDbEntity
  8
IMPORT_IGES
100
AcDbCircle
 62
250
  6
CONTINUOUS
 10
-0.0
 20
22.0
 40
10.9388311087
100
AcDbArc
 50
284.3171471661
 51
41.163165554
  0
ARC
  5
3DA
100
AcDbEntity
  8
IMPORT_IGES
100
AcDbCircle
 62
250
  6
CONTINUOUS
 10
-0.0
 20
22.0
 40
10.9388311087
100
AcDbArc
 50
138.836834446
 51
255.6828528339
  0
ARC
  5
3DB
100
AcDbEntity
  8
IMPORT_IGES
100
AcDbCircle
 62
7
  6
CONTINUOUS
 10
0.0
 20
22.0
 40
10.5
100
AcDbArc
 50
44.4270039931
 51
135.5729960044
  0
CIRCLE
  5
3DC
100
AcDbEntity
  8
IMPORT_IGES
100
AcDbCircle
 62
7
  6
CONTINUOUS
 10
0.0
 20
22.0
 40
10.0
  0
CIRCLE
  5
3DD
100
AcDbEntity
  8
IMPORT_IGES
100
AcDbCircle
 62
250
  6
CONTINUOUS
 10
0.0
 20
22.0
 40
7.9999867358
  0
CIRCLE
  5
3DE
100
AcDbEntity
  8
IMPORT_IGES
100
AcDbCircle
 62
7
  6
CONTINUOUS
 10
0.0
 20
22.0
 40
3.0
  0
CIRCLE
  5
3DF
100
AcDbEntity
  8
IMPORT_IGES
100
AcDbCircle
 62
7
  6
CONTINUOUS
 10
0.0
 20
37.5
 40
3.0
  0
ARC
  5
3E0
100
AcDbEntity
  8
IMPORT_IGES
100
AcDbCircle
 62
250
  6
CONTINUOUS
 10
12.6
 20
27.2
 40
2.5
100
AcDbArc
 50
0.0000000798
 51
89.9999998648
  0
CIRCLE
  5
3E1
100
AcDbEntity
  8
IMPORT_IGES
100
AcDbCircle
 62
7
  6
CONTINUOUS
 10
-0.0
 20
37.5
 40
2.425
  0
CIRCLE
  5
3E2
100
AcDbEntity
  8
IMPORT_IGES
100
AcDbCircle
 62
250
  6
CONTINUOUS
 10
-0.0
 20
37.5
 40
2.0089415886
  0
ARC
  5
3E3
100
AcDbEntity
  8
IMPORT_IGES
100
AcDbCircle
 62
7
  6
CONTINUOUS
 10
12.6
 20
27.2
 40
2.0
100
AcDbArc
 50
0.0
 51
89.9999999999
  0
ARC
  5
3E4
100
AcDbEntity
  8
IMPORT_IGES
100
AcDbCircle
 62
7
  6
CONTINUOUS
 10
7.8555712714
 20
29.7
 40
0.5
100
AcDbArc
 50
224.4270040945
 51
270.0000000002
  0
ARC
  5
3E5
100
AcDbEntity
  8
IMPORT_IGES
100
AcDbCircle
 62
7
  6
CONTINUOUS
 10
41.7
 20
-0.0
 40
3.55
100
AcDbArc
 50
270.0
 51
90.0
  0
ARC
  5
3E6
100
AcDbEntity
  8
IMPORT_IGES
100
AcDbCircle
 62
7
  6
CONTINUOUS
 10
39.8
 20
-0.0
 40
3.55
100
AcDbArc
 50
90.0
 51
270.0
  0
ARC
  5
3E7
100
AcDbEntity
  8
IMPORT_IGES
100
AcDbCircle
 62
7
  6
CONTINUOUS
 10
41.7
 20
-0.0
 40
2.55
100
AcDbArc
 50
270.0
 51
90.0
  0
ARC
  5
3E8
100
AcDbEntity
  8
IMPORT_IGES
100
AcDbCircle
 62
7
  6
CONTINUOUS
 10
39.8
 20
-0.0
 40
2.55
100
AcDbArc
 50
90.0
 51
270.0
  0
ARC
  5
3E9
100
AcDbEntity
  8
IMPORT_IGES
100
AcDbCircle
 62
7
  6
CONTINUOUS
 10
41.7
 20
-0.0
 40
1.85
100
AcDbArc
 50
270.0
 51
90.0
  0
ARC
  5
3EA
100
AcDbEntity
  8
IMPORT_IGES
100
AcDbCircle
 62
7
  6
CONTINUOUS
 10
39.8
 20
-0.0
 40
1.85
100
AcDbArc
 50
90.0
 51
270.0
  0
ARC
  5
3EB
100
AcDbEntity
  8
IMPORT_IGES
100
AcDbCircle
 62
7
  6
CONTINUOUS
 10
32.4622522834
 20
32.4622522834
 40
15.0
100
AcDbArc
 50
13.310538973
 51
76.6894610271
  0
ARC
  5
3EC
100
AcDbEntity
  8
IMPORT_IGES
100
AcDbCircle
 62
7
  6
CONTINUOUS
 10
32.4622522834
 20
32.4622522834
 40
13.0
100
AcDbArc
 50
13.310538973
 51
76.689461027
  0
ARC
  5
3ED
100
AcDbEntity
  8
IMPORT_IGES
100
AcDbCircle
 62
7
  6
CONTINUOUS
 10
32.4622522834
 20
32.4622522834
 40
9.0
100
AcDbArc
 50
13.3105389711
 51
76.6894610286
  0
ARC
  5
3EE
100
AcDbEntity
  8
IMPORT_IGES
100
AcDbCircle
 62
250
  6
CONTINUOUS
 10
32.4622522834
 20
32.4622522834
 40
8.5
100
AcDbArc
 50
13.3105389731
 51
76.6894610269
  0
ARC
  5
3EF
100
AcDbEntity
  8
IMPORT_IGES
100
AcDbCircle
 62
7
  6
CONTINUOUS
 10
32.4622522834
 20
32.4622522834
 40
7.5
100
AcDbArc
 50
13.310538973
 51
76.689461027
  0
ARC
  5
3F0
100
AcDbEntity
  8
IMPORT_IGES
100
AcDbCircle
 62
7
  6
CONTINUOUS
 10
32.4622522834
 20
32.4622522834
 40
6.3
100
AcDbArc
 50
13.3105389732
 51
76.6894610268
  0
ARC
  5
3F1
100
AcDbEntity
  8
IMPORT_IGES
100
AcDbCircle
 62
7
  6
CONTINUOUS
 10
0.0
 20
104.7499999999
 40
155.9999999999
100
AcDbArc
 50
256.6894610272
 51
283.3105389728
  0
ARC
  5
3F2
100
AcDbEntity
  8
IMPORT_IGES
100
AcDbCircle
 62
7
  6
CONTINUOUS
 10
0.0
 20
104.749999995
 40
154.999999995
100
AcDbArc
 50
268.3363403786
 51
271.6636596214
  0
ARC
  5
3F3
100
AcDbEntity
  8
IMPORT_IGES
100
AcDbCircle
 62
7
  6
CONTINUOUS
 10
0.0
 20
104.7499999999
 40
153.9999999999
100
AcDbArc
 50
256.6894610272
 51
283.3105389728
  0
ARC
  5
3F4
100
AcDbEntity
  8
IMPORT_IGES
100
AcDbCircle
 62
7
  6
CONTINUOUS
 10
-0.0
 20
104.75
 40
150.0
100
AcDbArc
 50
256.6894610273
 51
283.3105389727
  0
ARC
  5
3F5
100
AcDbEntity
  8
IMPORT_IGES
100
AcDbCircle
 62
250
  6
CONTINUOUS
 10
0.0
 20
104.7500000001
 40
149.5000000001
100
AcDbArc
 50
256.6894610272
 51
283.3105389728
  0
ARC
  5
3F6
100
AcDbEntity
  8
IMPORT_IGES
100
AcDbCircle
 62
7
  6
CONTINUOUS
 10
0.0
 20
104.7500000005
 40
149.0000000005
100
AcDbArc
 50
268.0769590648
 51
271.9230381944
  0
ARC
  5
3F7
100
AcDbEntity
  8
IMPORT_IGES
100
AcDbCircle
 62
7
  6
CONTINUOUS
 10
-0.0000000001
 20
104.7499999993
 40
148.4999999993
100
AcDbArc
 50
256.6894610272
 51
261.0900383111
  0
ARC
  5
3F8
100
AcDbEntity
  8
IMPORT_IGES
100
AcDbCircle
 62
7
  6
CONTINUOUS
 10
0.0000000001
 20
104.7499999993
 40
148.4999999993
100
AcDbArc
 50
278.9099616889
 51
283.3105389728
  0
ARC
  5
3F9
100
AcDbEntity
  8
IMPORT_IGES
100
AcDbCircle
 62
7
  6
CONTINUOUS
 10
-0.0000000002
 20
104.7499999984
 40
147.2999999984
100
AcDbArc
 50
256.6894610271
 51
261.0168538892
  0
ARC
  5
3FA
100
AcDbEntity
  8
IMPORT_IGES
100
AcDbCircle
 62
7
  6
CONTINUOUS
 10
0.0000000002
 20
104.7499999984
 40
147.2999999984
100
AcDbArc
 50
278.9831461108
 51
283.3105389729
  0
ARC
  5
3FB
100
AcDbEntity
  8
IMPORT_IGES
100
AcDbCircle
 62
7
  6
CONTINUOUS
 10
104.7499999999
 20
-0.0
 40
155.9999999999
100
AcDbArc
 50
166.6894610272
 51
193.3105389728
  0
ARC
  5
3FC
100
AcDbEntity
  8
IMPORT_IGES
100
AcDbCircle
 62
7
  6
CONTINUOUS
 10
104.75
 20
-0.0
 40
154.0
100
AcDbArc
 50
169.5243183036
 51
190.4756816964
  0
ARC
  5
3FD
100
AcDbEntity
  8
IMPORT_IGES
100
AcDbCircle
 62
7
  6
CONTINUOUS
 10
104.7499999996
 20
0.0000000001
 40
153.9999999996
100
AcDbArc
 50
166.6894610272
 51
169.0699521386
  0
ARC
  5
3FE
100
AcDbEntity
  8
IMPORT_IGES
100
AcDbCircle
 62
7
  6
CONTINUOUS
 10
104.7499999996
 20
-0.0000000001
 40
153.9999999996
100
AcDbArc
 50
190.9300478614
 51
193.3105389728
  0
ARC
  5
3FF
100
AcDbEntity
  8
IMPORT_IGES
100
AcDbCircle
 62
7
  6
CONTINUOUS
 10
104.7499999277
 20
0.0000000133
 40
153.0999999228
100
AcDbArc
 50
169.0049016621
 51
169.4620351277
  0
ARC
  5
400
100
AcDbEntity
  8
IMPORT_IGES
100
AcDbCircle
 62
7
  6
CONTINUOUS
 10
104.7499999277
 20
-0.0000000133
 40
153.0999999227
100
AcDbArc
 50
190.5379648723
 51
190.9950983379
  0
ARC
  5
401
100
AcDbEntity
  8
IMPORT_IGES
100
AcDbCircle
 62
7
  6
CONTINUOUS
 10
104.7500000041
 20
0.0000000003
 40
151.4000000041
100
AcDbArc
 50
184.9257823956
 51
187.9729411859
  0
ARC
  5
402
100
AcDbEntity
  8
IMPORT_IGES
100
AcDbCircle
 62
7
  6
CONTINUOUS
 10
104.7500000041
 20
-0.0000000003
 40
151.4000000041
100
AcDbArc
 50
172.0270588141
 51
175.0742176044
  0
ARC
  5
403
100
AcDbEntity
  8
IMPORT_IGES
100
AcDbCircle
 62
7
  6
CONTINUOUS
 10
104.7500000006
 20
0.0000000001
 40
150.1999963078
100
AcDbArc
 50
184.9652345994
 51
188.0370591822
  0
ARC
  5
404
100
AcDbEntity
  8
IMPORT_IGES
100
AcDbCircle
 62
7
  6
CONTINUOUS
 10
104.7500000002
 20
-0.0
 40
150.1999963073
100
AcDbArc
 50
171.9629408178
 51
175.0347654006
  0
ARC
  5
405
100
AcDbEntity
  8
IMPORT_IGES
100
AcDbCircle
 62
7
  6
CONTINUOUS
 10
104.7499997963
 20
0.0000000394
 40
150.0999997925
100
AcDbArc
 50
168.7823237428
 51
169.2489345568
  0
ARC
  5
406
100
AcDbEntity
  8
IMPORT_IGES
100
AcDbCircle
 62
7
  6
CONTINUOUS
 10
104.7499997963
 20
-0.0000000394
 40
150.0999997925
100
AcDbArc
 50
190.7510654432
 51
191.2176762572
  0
ARC
  5
407
100
AcDbEntity
  8
IMPORT_IGES
100
AcDbCircle
 62
7
  6
CONTINUOUS
 10
104.75
 20
-0.0
 40
150.0
100
AcDbArc
 50
166.6894610273
 51
193.3105389727
  0
ARC
  5
408
100
AcDbEntity
  8
IMPORT_IGES
100
AcDbCircle
 62
7
  6
CONTINUOUS
 10
104.7499999999
 20
-0.0
 40
149.4978144865
100
AcDbArc
 50
180.7034237791
 51
193.3105389728
  0
ARC
  5
409
100
AcDbEntity
  8
IMPORT_IGES
100
AcDbCircle
 62
7
  6
CONTINUOUS
 10
104.7499999999
 20
0.0
 40
149.4978144865
100
AcDbArc
 50
166.6894610272
 51
179.2965762209
  0
ARC
  5
40A
100
AcDbEntity
  8
IMPORT_IGES
100
AcDbCircle
 62
7
  6
CONTINUOUS
 10
104.7499999993
 20
-0.0000000001
 40
148.4999999993
100
AcDbArc
 50
188.9099616889
 51
193.3105389728
  0
ARC
  5
40B
100
AcDbEntity
  8
IMPORT_IGES
100
AcDbCircle
 62
7
  6
CONTINUOUS
 10
104.7499999993
 20
0.0000000001
 40
148.4999999993
100
AcDbArc
 50
166.6894610272
 51
171.0900383111
  0
ARC
  5
40C
100
AcDbEntity
  8
IMPORT_IGES
100
AcDbCircle
 62
7
  6
CONTINUOUS
 10
104.7499999984
 20
-0.0000000002
 40
147.2999999984
100
AcDbArc
 50
188.9831461108
 51
193.3105389729
  0
ARC
  5
40D
100
AcDbEntity
  8
IMPORT_IGES
100
AcDbCircle
 62
7
  6
CONTINUOUS
 10
104.7499999984
 20
0.0000000002
 40
147.2999999984
100
AcDbArc
 50
166.6894610271
 51
171.0168538892
  0
ENDSEC
  0
SECTION
  2
OBJECTS
  0
DICTIONARY
  5
C
100
AcDbDictionary
280
0
281
1
  3
ACAD_GROUP
350
D
  3
ACAD_MLINESTYLE
350
17
  3
ACAD_LAYOUT
350
1A
  3
ACAD_PLOTSETTINGS
350
19
  3
ACAD_PLOTSTYLENAME
350
E
  0
DICTIONARY
  5
D
102
{ACAD_REACTORS
330
C
102
}
100
AcDbDictionary
280
0
281
1
  0
ACDBDICTIONARYWDFLT
  5
E
102
{ACAD_REACTORS
330
C
102
}
100
AcDbDictionary
281
1
  3
Normal
350
F
100
AcDbDictionaryWithDefault
340
F
  0
DICTIONARY
  5
17
102
{ACAD_REACTORS
330
C
102
}
100
AcDbDictionary
280
0
281
1
  3
Standard
350
18
  0
DICTIONARY
  5
19
102
{ACAD_REACTORS
330
C
102
}
100
AcDbDictionary
281
1
  0
DICTIONARY
  5
1A
102
{ACAD_REACTORS
330
C
102
}
100
AcDbDictionary
281
1
  3
Model
350
40E
  3
Layout1
350
40F
  0
ACDBPLACEHOLDER
  5
F
102
{ACAD_REACTORS
330
E
102
}
  0
MLINESTYLE
  5
18
102
{ACAD_REACTORS
330
17
102
}
100
AcDbMlineStyle
  2
STANDARD
 70
0
  3

 62
256
 51
90.0
 52
90.0
 71
2
 49
0.5
 62
256
  6
BYLAYER
 49
-0.5
 62
256
  6
BYLAYER
  0
LAYOUT
  5
40E
102
{ACAD_REACTORS
330
1A
102
}
100
AcDbPlotSettings
  1

  2
none_device
  4
ISO_A4_(297.00_x_210.00_MM)
  6

 40
0.0
 41
0.0
 42
0.0
 43
0.0
 44
297.0
 45
210.0
 46
0.0
 47
0.0
 48
0.0
 49
0.0
140
0.0
141
0.0
142
1.0
143
1.0
 70
1024
 72
1
 73
0
 74
0
  7

 75
0
147
1.0
148
0.0
149
0.0
100
AcDbLayout
  1
Model
 70
0
 71
0
 10
0.0
 20
0.0
 11
297.0
 21
210.0
 12
0.0
 22
0.0
 32
0.0
 14
0.0
 24
0.0
 34
0.0
 15
0.0
 25
0.0
 35
0.0
146
0.0
 13
0.0
 23
0.0
 33
0.0
 16
1.0
 26
0.0
 36
0.0
 17
0.0
 27
1.0
 37
0.0
 76
0
330
228
345
0
346
0
  0
LAYOUT
  5
40F
102
{ACAD_REACTORS
330
1A
102
}
100
AcDbPlotSettings
  1

  2
none_device
  4
ISO_A4_(297.00_x_210.00_MM)
  6

 40
0.0
 41
0.0
 42
0.0
 43
0.0
 44
297.0
 45
210.0
 46
0.0
 47
0.0
 48
0.0
 49
0.0
140
0.0
141
0.0
142
1.0
143
1.0
 70
0
 72
1
 73
0
 74
0
  7

 75
0
147
1.0
148
0.0
149
0.0
100
AcDbLayout
  1
Layout1
 70
0
 71
1
 10
0.0
 20
0.0
 11
297.0
 21
210.0
 12
0.0
 22
0.0
 32
0.0
 14
0.0
 24
0.0
 34
0.0
 15
0.0
 25
0.0
 35
0.0
146
0.0
 13
0.0
 23
0.0
 33
0.0
 16
1.0
 26
0.0
 36
0.0
 17
0.0
 27
1.0
 37
0.0
 76
0
330
229
345
0
346
0
  0
ENDSEC
  0
EOF
