  0
SECTION
  2
HEADER
  9
$ACADVER
  1
AC1024
  9
$DWGCODEPAGE
  3
ANSI_1252
  9
$EXTMAX
 10
297.0
 20
210.0
 30
0.0
  9
$EXTMIN
 10
0.0
 20
0.0
 30
0.0
  9
$LIMMIN
 10
0.0
 20
0.0
  9
$LIMMAX
 10
297.0
 20
210.0
  9
$VIEWCTR
 10
148.5
 20
105.0
  9
$VIEWSIZE
 40
210.0
  9
$CLAYER
  8
0
  9
$LTSCALE
 40
16.335
  9
$CELTYPE
  6
BYLAYER
  9
$DIMSCALE
 40
1.0
  9
$DIMASZ
 40
3.0
  9
$DIMEXO
 40
0.5
  9
$DIMDLI
 40
11.286
  9
$DIMEXE
 40
1.5
  9
$DIMCEN
 40
2.673
  9
$DIMLFAC
 40
1.0
  9
$DIMBLK
  1
_FILLED
  9
$DIMALT
 70
0
  9
$DIMALTF
 40
0.0393700787
  9
$DIMTXT
 40
3.0
  9
$DIMTOL
 70
1
  9
$DIMLIM
 70
0
  9
$DIMTFAC
 40
1.0
  9
$DIMTP
 40
0.01
  9
$DIMTM
 40
0.01
  9
$DIMGAP
 40
0.625
  9
$DIMDSEP
 70
44
  9
$AUNITS
 70
0
  9
$PDMODE
 70
3
  9
$PDSIZE
 40
3.0
  9
$HANDSEED
  5
3A9
  9
$TILEMODE
 70
1
  9
$MEASUREMENT
 70
1
  9
$INSUNITS
 70
4
  0
ENDSEC
  0
SECTION
  2
CLASSES
  0
CLASS
  1
ACDBDICTIONARYWDFLT
  2
AcDbDictionaryWithDefault
  3
AutoCAD 2000
 90
0
 91
1
280
0
281
0
  0
CLASS
  1
ACDBPLACEHOLDER
  2
AcDbPlaceHolder
  3
AutoCAD 2000
 90
0
 91
1
280
0
281
0
  0
CLASS
  1
LAYOUT
  2
AcDbLayout
  3
AutoCAD 2000
 90
0
 91
0
280
0
281
0
  0
ENDSEC
  0
SECTION
  2
TABLES
  0
TABLE
  2
VPORT
  5
8
100
AcDbSymbolTable
 70
2
  0
VPORT
  5
1F4
100
AcDbSymbolTableRecord
100
AcDbViewportTableRecord
  2
*ACTIVE
 70
0
 10
0.0
 20
0.0
 11
1.0
 21
1.0
 12
148.5
 22
105.0
 13
0.0
 23
0.0
 14
1.0
 24
1.0
 15
0.0
 25
0.0
 16
0.0
 26
0.0
 36
1.0
 17
0.0
 27
0.0
 37
0.0
 40
210.0
 41
1.4142857143
 42
50.0
 43
0.0
 44
0.0
 50
0.0
 51
0.0
 71
0
 72
100
 73
1
 74
1
 75
0
 76
0
 77
0
 78
0
  0
ENDTAB
  0
TABLE
  2
LTYPE
  5
5
100
AcDbSymbolTable
 70
6
  0
LTYPE
  5
14
100
AcDbSymbolTableRecord
100
AcDbLinetypeTableRecord
  2
BYBLOCK
 70
0
  3

 72
65
 73
0
 40
0.0
  0
LTYPE
  5
15
100
AcDbSymbolTableRecord
100
AcDbLinetypeTableRecord
  2
BYLAYER
 70
0
  3

 72
65
 73
0
 40
0.0
  0
LTYPE
  5
16
100
AcDbSymbolTableRecord
100
AcDbLinetypeTableRecord
  2
CONTINUOUS
 70
64
  3
Solid line
 72
65
 73
0
 40
0.0
  0
LTYPE
  5
1F5
100
AcDbSymbolTableRecord
100
AcDbLinetypeTableRecord
  2
CENTER
 70
64
  3
____ _ ____ _ ____ _ ____ _ ____ _ ____ _ ____
 72
65
 73
4
 40
0.6
 49
0.375
 74
0
 49
-0.075
 74
0
 49
0.075
 74
0
 49
-0.075
 74
0
  0
LTYPE
  5
1F6
100
AcDbSymbolTableRecord
100
AcDbLinetypeTableRecord
  2
HIDDEN
 70
64
  3
- - - - - - - - - - - - - - - - - - - -
 72
65
 73
2
 40
0.2
 49
0.1
 74
0
 49
-0.1
 74
0
  0
LTYPE
  5
1F7
100
AcDbSymbolTableRecord
100
AcDbLinetypeTableRecord
  2
PHANTOM
 70
64
  3
_____ _ _ _____ _ _ _____ _ _ _____
 72
65
 73
6
 40
0.8
 49
0.45
 74
0
 49
-0.05
 74
0
 49
0.1
 74
0
 49
-0.05
 74
0
 49
0.1
 74
0
 49
-0.05
 74
0
  0
LTYPE
  5
1F8
100
AcDbSymbolTableRecord
100
AcDbLinetypeTableRecord
  2
DOT
 70
64
  3
. . . . . . . . . . . . . . . . . . . .
 72
65
 73
2
 40
0.2
 49
0.1
 74
0
 49
-0.1
 74
0
  0
LTYPE
  5
1F9
100
AcDbSymbolTableRecord
100
AcDbLinetypeTableRecord
  2
DASHED
 70
64
  3
- - - - - - - - - - - - - - - - - - - -
 72
65
 73
2
 40
0.2
 49
0.1
 74
0
 49
-0.1
 74
0
  0
ENDTAB
  0
TABLE
  2
LAYER
  5
2
100
AcDbSymbolTable
 70
36
  0
LAYER
  5
10
100
AcDbSymbolTableRecord
100
AcDbLayerTableRecord
  2
0
 70
0
 62
7
  6
CONTINUOUS
370
-3
390
F
  0
LAYER
  5
1FA
100
AcDbSymbolTableRecord
100
AcDbLayerTableRecord
  2
DEFAULT_1
 70
0
 62
7
  6
CENTER
370
-3
390
F
  0
LAYER
  5
1FB
100
AcDbSymbolTableRecord
100
AcDbLayerTableRecord
  2
DEFAULT_2
 70
0
 62
7
  6
HIDDEN
370
-3
390
F
  0
LAYER
  5
1FC
100
AcDbSymbolTableRecord
100
AcDbLayerTableRecord
  2
DEFAULT_3
 70
0
 62
7
  6
PHANTOM
370
-3
390
F
  0
LAYER
  5
1FD
100
AcDbSymbolTableRecord
100
AcDbLayerTableRecord
  2
ASSI
 70
0
 62
7
  6
CONTINUOUS
370
-3
390
F
  0
LAYER
  5
1FE
100
AcDbSymbolTableRecord
100
AcDbLayerTableRecord
  2
B4B-PH-K-S
 70
0
 62
7
  6
CONTINUOUS
370
-3
390
F
  0
LAYER
  5
1FF
100
AcDbSymbolTableRecord
100
AcDbLayerTableRecord
  2
BASE-DT-23-04-2019
 70
0
 62
7
  6
CONTINUOUS
370
-3
390
F
  0
LAYER
  5
200
100
AcDbSymbolTableRecord
100
AcDbLayerTableRecord
  2
BATTERIA_LITIO
 70
0
 62
7
  6
CONTINUOUS
370
-3
390
F
  0
LAYER
  5
201
100
AcDbSymbolTableRecord
100
AcDbLayerTableRecord
  2
CAPACITOR_0603
 70
0
 62
7
  6
CONTINUOUS
370
-3
390
F
  0
LAYER
  5
202
100
AcDbSymbolTableRecord
100
AcDbLayerTableRecord
  2
CAPACITOR_0603_1
 70
0
 62
7
  6
CONTINUOUS
370
-3
390
F
  0
LAYER
  5
203
100
AcDbSymbolTableRecord
100
AcDbLayerTableRecord
  2
CAPACITOR_0603_2
 70
0
 62
7
  6
CONTINUOUS
370
-3
390
F
  0
LAYER
  5
204
100
AcDbSymbolTableRecord
100
AcDbLayerTableRecord
  2
CAPACITOR_0603_3
 70
0
 62
7
  6
CONTINUOUS
370
-3
390
F
  0
LAYER
  5
205
100
AcDbSymbolTableRecord
100
AcDbLayerTableRecord
  2
CAPACITOR_0603_4
 70
0
 62
7
  6
CONTINUOUS
370
-3
390
F
  0
LAYER
  5
206
100
AcDbSymbolTableRecord
100
AcDbLayerTableRecord
  2
CAPACITOR_0603_5
 70
0
 62
7
  6
CONTINUOUS
370
-3
390
F
  0
LAYER
  5
207
100
AcDbSymbolTableRecord
100
AcDbLayerTableRecord
  2
CLIP_BATTERIA
 70
0
 62
7
  6
CONTINUOUS
370
-3
390
F
  0
LAYER
  5
208
100
AcDbSymbolTableRecord
100
AcDbLayerTableRecord
  2
CLIP_BATTERIA_1
 70
0
 62
7
  6
CONTINUOUS
370
-3
390
F
  0
LAYER
  5
209
100
AcDbSymbolTableRecord
100
AcDbLayerTableRecord
  2
CLIP_BATTERIA_2
 70
0
 62
7
  6
CONTINUOUS
370
-3
390
F
  0
LAYER
  5
20A
100
AcDbSymbolTableRecord
100
AcDbLayerTableRecord
  2
COLOR4
 70
0
 62
7
  6
CONTINUOUS
370
-3
390
F
  0
LAYER
  5
20B
100
AcDbSymbolTableRecord
100
AcDbLayerTableRecord
  2
COLOR43
 70
0
 62
7
  6
CONTINUOUS
370
-3
390
F
  0
LAYER
  5
20C
100
AcDbSymbolTableRecord
100
AcDbLayerTableRecord
  2
COLOR58
 70
0
 62
7
  6
CONTINUOUS
370
-3
390
F
  0
LAYER
  5
20D
100
AcDbSymbolTableRecord
100
AcDbLayerTableRecord
  2
COLOR64
 70
0
 62
7
  6
CONTINUOUS
370
-3
390
F
  0
LAYER
  5
20E
100
AcDbSymbolTableRecord
100
AcDbLayerTableRecord
  2
COLOR65
 70
0
 62
7
  6
CONTINUOUS
370
-3
390
F
  0
LAYER
  5
20F
100
AcDbSymbolTableRecord
100
AcDbLayerTableRecord
  2
COLOR68
 70
0
 62
7
  6
CONTINUOUS
370
-3
390
F
  0
LAYER
  5
210
100
AcDbSymbolTableRecord
100
AcDbLayerTableRecord
  2
COLOR69
 70
0
 62
7
  6
CONTINUOUS
370
-3
390
F
  0
LAYER
  5
211
100
AcDbSymbolTableRecord
100
AcDbLayerTableRecord
  2
COLOR72
 70
0
 62
7
  6
CONTINUOUS
370
-3
390
F
  0
LAYER
  5
212
100
AcDbSymbolTableRecord
100
AcDbLayerTableRecord
  2
COLOR73
 70
0
 62
7
  6
CONTINUOUS
370
-3
390
F
  0
LAYER
  5
213
100
AcDbSymbolTableRecord
100
AcDbLayerTableRecord
  2
COLOR74
 70
0
 62
7
  6
CONTINUOUS
370
-3
390
F
  0
LAYER
  5
214
100
AcDbSymbolTableRecord
100
AcDbLayerTableRecord
  2
COORDINATE
 70
0
 62
7
  6
CONTINUOUS
370
-3
390
F
  0
LAYER
  5
215
100
AcDbSymbolTableRecord
100
AcDbLayerTableRecord
  2
COPERTURA_LENTE-AGGIORNATAMARCO
 70
0
 62
7
  6
CONTINUOUS
370
-3
390
F
  0
LAYER
  5
216
100
AcDbSymbolTableRecord
100
AcDbLayerTableRecord
  2
COPY_PUBLISH
 70
0
 62
7
  6
CONTINUOUS
370
-3
390
F
  0
LAYER
  5
217
100
AcDbSymbolTableRecord
100
AcDbLayerTableRecord
  2
COSMETICI
 70
0
 62
7
  6
CONTINUOUS
370
-3
390
F
  0
LAYER
  5
218
100
AcDbSymbolTableRecord
100
AcDbLayerTableRecord
  2
COVER-DT-23-04-2019
 70
0
 62
7
  6
CONTINUOUS
370
-3
390
F
  0
LAYER
  5
219
100
AcDbSymbolTableRecord
100
AcDbLayerTableRecord
  2
CURVE
 70
0
 62
7
  6
CONTINUOUS
370
-3
390
F
  0
LAYER
  5
21A
100
AcDbSymbolTableRecord
100
AcDbLayerTableRecord
  2
DADO_QUADRO_M3
 70
0
 62
7
  6
CONTINUOUS
370
-3
390
F
  0
LAYER
  5
21B
100
AcDbSymbolTableRecord
100
AcDbLayerTableRecord
  2
DOPPIAT-PORTASENSORE
 70
0
 62
7
  6
CONTINUOUS
370
-3
390
F
  0
LAYER
  5
21C
100
AcDbSymbolTableRecord
100
AcDbLayerTableRecord
  2
DRAFT
 70
0
 62
7
  6
CONTINUOUS
370
-3
390
F
  0
LAYER
  5
21D
100
AcDbSymbolTableRecord
100
AcDbLayerTableRecord
  2
GUIDALUCE-FOTODIODO
 70
0
 62
7
  6
CONTINUOUS
370
-3
390
F
  0
LAYER
  5
21E
100
AcDbSymbolTableRecord
100
AcDbLayerTableRecord
  2
GUIDALUCE-TRASMETTITORE
 70
0
 62
7
  6
CONTINUOUS
370
-3
390
F
  0
LAYER
  5
21F
100
AcDbSymbolTableRecord
100
AcDbLayerTableRecord
  2
IMPORT_IGES
 70
0
 62
7
  6
CONTINUOUS
370
-3
390
F
  0
LAYER
  5
220
100
AcDbSymbolTableRecord
100
AcDbLayerTableRecord
  2
LENTE_REV02
 70
0
 62
7
  6
CONTINUOUS
370
-3
390
F
  0
LAYER
  5
221
100
AcDbSymbolTableRecord
100
AcDbLayerTableRecord
  2
LIGHT-PIPE
 70
0
 62
7
  6
CONTINUOUS
370
-3
390
F
  0
LAYER
  5
222
100
AcDbSymbolTableRecord
100
AcDbLayerTableRecord
  2
MICROONDA-MICROWAVE
 70
0
 62
7
  6
CONTINUOUS
370
-3
390
F
  0
LAYER
  5
223
100
AcDbSymbolTableRecord
100
AcDbLayerTableRecord
  2
MICROONDA-ROMA
 70
0
 62
7
  6
CONTINUOUS
370
-3
390
F
  0
LAYER
  5
224
100
AcDbSymbolTableRecord
100
AcDbLayerTableRecord
  2
MICROSW-PTS-5232R
 70
0
 62
7
  6
CONTINUOUS
370
-3
390
F
  0
LAYER
  5
225
100
AcDbSymbolTableRecord
100
AcDbLayerTableRecord
  2
MOLLA_DOPPIA
 70
0
 62
7
  6
CONTINUOUS
370
-3
390
F
  0
LAYER
  5
226
100
AcDbSymbolTableRecord
100
AcDbLayerTableRecord
  2
MORSETTIERA-PXC_1751303_04_MKDS
 70
0
 62
7
  6
CONTINUOUS
370
-3
390
F
  0
LAYER
  5
227
100
AcDbSymbolTableRecord
100
AcDbLayerTableRecord
  2
NOTE
 70
0
 62
7
  6
CONTINUOUS
370
-3
390
F
  0
LAYER
  5
228
100
AcDbSymbolTableRecord
100
AcDbLayerTableRecord
  2
P441_03835_03836_RIVELATORE_IR_
 70
0
 62
7
  6
CONTINUOUS
370
-3
390
F
  0
LAYER
  5
229
100
AcDbSymbolTableRecord
100
AcDbLayerTableRecord
  2
PCB-IN263-R1
 70
0
 62
7
  6
CONTINUOUS
370
-3
390
F
  0
LAYER
  5
22A
100
AcDbSymbolTableRecord
100
AcDbLayerTableRecord
  2
PCB-IN263R1
 70
0
 62
7
  6
CONTINUOUS
370
-3
390
F
  0
LAYER
  5
22B
100
AcDbSymbolTableRecord
100
AcDbLayerTableRecord
  2
PIANI
 70
0
 62
7
  6
CONTINUOUS
370
-3
390
F
  0
LAYER
  5
22C
100
AcDbSymbolTableRecord
100
AcDbLayerTableRecord
  2
PULSANTE-KSC421J70SHLFS
 70
0
 62
7
  6
CONTINUOUS
370
-3
390
F
  0
LAYER
  5
22D
100
AcDbSymbolTableRecord
100
AcDbLayerTableRecord
  2
PULSANTE-KSC421J70SHLFS_1
 70
0
 62
7
  6
CONTINUOUS
370
-3
390
F
  0
LAYER
  5
22E
100
AcDbSymbolTableRecord
100
AcDbLayerTableRecord
  2
PUNTI
 70
0
 62
7
  6
CONTINUOUS
370
-3
390
F
  0
LAYER
  5
22F
100
AcDbSymbolTableRecord
100
AcDbLayerTableRecord
  2
RACCORDO
 70
0
 62
7
  6
CONTINUOUS
370
-3
390
F
  0
LAYER
  5
230
100
AcDbSymbolTableRecord
100
AcDbLayerTableRecord
  2
SENSORE
 70
0
 62
7
  6
CONTINUOUS
370
-3
390
F
  0
LAYER
  5
231
100
AcDbSymbolTableRecord
100
AcDbLayerTableRecord
  2
SIMBOLI
 70
0
 62
7
  6
CONTINUOUS
370
-3
390
F
  0
LAYER
  5
232
100
AcDbSymbolTableRecord
100
AcDbLayerTableRecord
  2
SMUSSO
 70
0
 62
7
  6
CONTINUOUS
370
-3
390
F
  0
LAYER
  5
233
100
AcDbSymbolTableRecord
100
AcDbLayerTableRecord
  2
SOIC-8
 70
0
 62
7
  6
CONTINUOUS
370
-3
390
F
  0
LAYER
  5
234
100
AcDbSymbolTableRecord
100
AcDbLayerTableRecord
  2
STRIP2
 70
0
 62
7
  6
CONTINUOUS
370
-3
390
F
  0
LAYER
  5
235
100
AcDbSymbolTableRecord
100
AcDbLayerTableRecord
  2
STRIP2X4
 70
0
 62
7
  6
CONTINUOUS
370
-3
390
F
  0
LAYER
  5
236
100
AcDbSymbolTableRecord
100
AcDbLayerTableRecord
  2
STRIP2_1
 70
0
 62
7
  6
CONTINUOUS
370
-3
390
F
  0
LAYER
  5
237
100
AcDbSymbolTableRecord
100
AcDbLayerTableRecord
  2
STRIP2_2
 70
0
 62
7
  6
CONTINUOUS
370
-3
390
F
  0
LAYER
  5
238
100
AcDbSymbolTableRecord
100
AcDbLayerTableRecord
  2
STRIP2_3
 70
0
 62
7
  6
CONTINUOUS
370
-3
390
F
  0
LAYER
  5
239
100
AcDbSymbolTableRecord
100
AcDbLayerTableRecord
  2
SUPERFICI
 70
0
 62
7
  6
CONTINUOUS
370
-3
390
F
  0
LAYER
  5
23A
100
AcDbSymbolTableRecord
100
AcDbLayerTableRecord
  2
SUPPORTO_MICROONDA-MICROWAVE
 70
0
 62
7
  6
CONTINUOUS
370
-3
390
F
  0
LAYER
  5
23B
100
AcDbSymbolTableRecord
100
AcDbLayerTableRecord
  2
SUPPORTO_MICROONDA-MICROWAVE_1
 70
0
 62
7
  6
CONTINUOUS
370
-3
390
F
  0
LAYER
  5
23C
100
AcDbSymbolTableRecord
100
AcDbLayerTableRecord
  2
TRASH
 70
0
 62
7
  6
CONTINUOUS
370
-3
390
F
  0
LAYER
  5
23D
100
AcDbSymbolTableRecord
100
AcDbLayerTableRecord
  2
VITE2_9X6_5SP
 70
0
 62
7
  6
CONTINUOUS
370
-3
390
F
  0
LAYER
  5
23E
100
AcDbSymbolTableRecord
100
AcDbLayerTableRecord
  2
VITEM3XCON_INCASSO
 70
0
 62
7
  6
CONTINUOUS
370
-3
390
F
  0
LAYER
  5
23F
100
AcDbSymbolTableRecord
100
AcDbLayerTableRecord
  2
XIR200NEW-01-10-2019
 70
0
 62
7
  6
CONTINUOUS
370
-3
390
F
  0
LAYER
  5
240
100
AcDbSymbolTableRecord
100
AcDbLayerTableRecord
  2
_KSC41J_PIN
 70
0
 62
7
  6
CONTINUOUS
370
-3
390
F
  0
LAYER
  5
241
100
AcDbSymbolTableRecord
100
AcDbLayerTableRecord
  2
_KSC41J_PIN_1
 70
0
 62
7
  6
CONTINUOUS
370
-3
390
F
  0
LAYER
  5
242
100
AcDbSymbolTableRecord
100
AcDbLayerTableRecord
  2
_KSC41J_PIN_2
 70
0
 62
7
  6
CONTINUOUS
370
-3
390
F
  0
LAYER
  5
243
100
AcDbSymbolTableRecord
100
AcDbLayerTableRecord
  2
_KSC41J_PIN_3
 70
0
 62
7
  6
CONTINUOUS
370
-3
390
F
  0
LAYER
  5
244
100
AcDbSymbolTableRecord
100
AcDbLayerTableRecord
  2
_KSC41J_PIN_4
 70
0
 62
7
  6
CONTINUOUS
370
-3
390
F
  0
LAYER
  5
245
100
AcDbSymbolTableRecord
100
AcDbLayerTableRecord
  2
_KSC41J_PIN_5
 70
0
 62
7
  6
CONTINUOUS
370
-3
390
F
  0
LAYER
  5
246
100
AcDbSymbolTableRecord
100
AcDbLayerTableRecord
  2
_KSC41J_PIN_6
 70
0
 62
7
  6
CONTINUOUS
370
-3
390
F
  0
LAYER
  5
247
100
AcDbSymbolTableRecord
100
AcDbLayerTableRecord
  2
_KSC41J_PIN_7
 70
0
 62
7
  6
CONTINUOUS
370
-3
390
F
  0
LAYER
  5
248
100
AcDbSymbolTableRecord
100
AcDbLayerTableRecord
  2
_KSC4_-_BODY
 70
0
 62
7
  6
CONTINUOUS
370
-3
390
F
  0
LAYER
  5
249
100
AcDbSymbolTableRecord
100
AcDbLayerTableRecord
  2
_KSC4_-_BODY_1
 70
0
 62
7
  6
CONTINUOUS
370
-3
390
F
  0
LAYER
  5
24A
100
AcDbSymbolTableRecord
100
AcDbLayerTableRecord
  2
_KSC4_-_COVER
 70
0
 62
7
  6
CONTINUOUS
370
-3
390
F
  0
LAYER
  5
24B
100
AcDbSymbolTableRecord
100
AcDbLayerTableRecord
  2
_KSC4_-_COVER_1
 70
0
 62
7
  6
CONTINUOUS
370
-3
390
F
  0
LAYER
  5
24C
100
AcDbSymbolTableRecord
100
AcDbLayerTableRecord
  2
_KSC4__-_BUTTON
 70
0
 62
7
  6
CONTINUOUS
370
-3
390
F
  0
LAYER
  5
24D
100
AcDbSymbolTableRecord
100
AcDbLayerTableRecord
  2
_KSC4__-_BUTTON_1
 70
0
 62
7
  6
CONTINUOUS
370
-3
390
F
  0
LAYER
  5
24E
100
AcDbSymbolTableRecord
100
AcDbLayerTableRecord
  2
___SHELL
 70
0
 62
7
  6
CONTINUOUS
370
-3
390
F
  0
ENDTAB
  0
TABLE
  2
STYLE
  5
3
100
AcDbSymbolTable
 70
1
  0
STYLE
  5
11
100
AcDbSymbolTableRecord
100
AcDbTextStyleTableRecord
  2
STANDARD
 70
0
 40
0.0
 41
0.8
 50
0.0
 71
0
 42
0.2
  3
txt
  4

  0
STYLE
  5
24F
100
AcDbSymbolTableRecord
100
AcDbTextStyleTableRecord
  2
TEXTSTYLE_1
 70
0
 40
0.0
 41
0.8
 50
0.0
 71
0
 42
0.2
  3
gdt
  4

  0
ENDTAB
  0
TABLE
  2
VIEW
  5
6
100
AcDbSymbolTable
 70
0
  0
ENDTAB
  0
TABLE
  2
UCS
  5
7
100
AcDbSymbolTable
 70
0
  0
ENDTAB
  0
TABLE
  2
APPID
  5
9
100
AcDbSymbolTable
 70
1
  0
APPID
  5
250
100
AcDbSymbolTableRecord
100
AcDbRegAppTableRecord
  2
ACAD
 70
0
  0
ENDTAB
  0
TABLE
  2
BLOCK_RECORD
  5
1
100
AcDbSymbolTable
 70
0
  0
BLOCK_RECORD
  5
251
100
AcDbSymbolTableRecord
100
AcDbBlockTableRecord
  2
*Model_Space
  0
BLOCK_RECORD
  5
252
100
AcDbSymbolTableRecord
100
AcDbBlockTableRecord
  2
*Paper_Space
  0
BLOCK_RECORD
  5
253
100
AcDbSymbolTableRecord
100
AcDbBlockTableRecord
  2
_FILLED
  0
ENDTAB
  0
TABLE
  2
DIMSTYLE
  5
A
100
AcDbSymbolTable
 70
1
100
AcDbDimStyleTable
 71
0
  0
DIMSTYLE
105
254
100
AcDbSymbolTableRecord
100
AcDbDimStyleTableRecord
  2
STANDARD
 70
0
  3

  4

 40
1.0
 41
3.0
 42
0.5
 43
0.38
 44
1.5
 45
0.0
 46
0.0
 47
0.01
 48
0.01
140
3.0
141
0.09
142
0.0
143
25.4
144
1.0
145
0.0
146
1.0
147
0.625
 71
1
 72
0
 73
0
 74
0
 75
0
 76
0
 77
1
 78
8
 79
2
170
0
171
1
172
0
173
0
174
0
175
0
176
0
177
0
178
0
270
2
179
2
271
2
272
2
273
2
274
2
275
0
280
0
281
0
282
0
283
1
284
8
285
0
286
0
287
3
288
0
340
11
278
44
341
253
342
253
343
253
344
253
  0
ENDTAB
  0
ENDSEC
  0
SECTION
  2
BLOCKS
  0
BLOCK
  5
20
100
AcDbEntity
  8
0
100
AcDbBlockBegin
  2
*Model_Space
 70
0
 10
0.0
 20
0.0
 30
0.0
  3
*Model_Space
  1

  0
ENDBLK
  5
21
100
AcDbEntity
  8
0
100
AcDbBlockEnd
  0
BLOCK
  5
1C
100
AcDbEntity
  8
0
100
AcDbBlockBegin
  2
*Paper_Space
 70
0
 10
0.0
 20
0.0
 30
0.0
  3
*Paper_Space
  1

  0
ENDBLK
  5
1D
100
AcDbEntity
  8
0
100
AcDbBlockEnd
  0
BLOCK
  5
255
100
AcDbEntity
  8
0
100
AcDbBlockBegin
  2
_FILLED
 70
64
 10
0.0
 20
0.0
  3
_FILLED
  1

  0
SOLID
  5
256
100
AcDbEntity
  8
0
  6
BYBLOCK
 62
0
100
AcDbTrace
 10
0.0
 20
0.0
 11
-1.0
 21
0.3166666667
 12
-1.0
 22
-0.3166666667
 13
-1.0
 23
-0.3166666667
  0
ENDBLK
  5
257
100
AcDbEntity
  8
0
  6
BYBLOCK
 62
0
100
AcDbBlockEnd
  0
ENDSEC
  0
SECTION
  2
ENTITIES
  0
LWPOLYLINE
  5
258
100
AcDbEntity
  8
IMPORT_IGES
100
AcDbPolyline
 62
7
  6
CONTINUOUS
 90
10
 70
0
 10
-29.2633121226
 20
55.8456983172
 10
-29.2683247377
 20
55.8441883713
 10
-29.2733277226
 20
55.84265087
 10
-29.2783209398
 20
55.8410858539
 10
-29.2833047255
 20
55.8394932114
 10
-29.2882784674
 20
55.8378731322
 10
-29.2932406127
 20
55.8362261314
 10
-29.298190561
 20
55.8345524349
 10
-29.3031286563
 20
55.8328519534
 10
-29.3080547702
 20
55.831124754
  0
LWPOLYLINE
  5
259
100
AcDbEntity
  8
IMPORT_IGES
100
AcDbPolyline
 62
7
  6
CONTINUOUS
 90
5
 70
0
 10
1.3628430672
 20
-60.1445121421
 10
1.2823347401
 20
-60.1665505188
 10
1.1941460402
 20
-60.1889798508
 10
1.1089679076
 20
-60.2085005344
 10
1.0268003423
 20
-60.2251125694
  0
LINE
  5
25A
100
AcDbEntity
  8
IMPORT_IGES
100
AcDbLine
 62
7
  6
CONTINUOUS
 10
0.7310305444
 20
-60.2085005107
 11
0.7794303774
 21
-60.1977290659
  0
LINE
  5
25B
100
AcDbEntity
  8
IMPORT_IGES
100
AcDbLine
 62
7
  6
CONTINUOUS
 10
0.6467055365
 20
-60.2251125694
 11
0.7310305444
 21
-60.2085005107
  0
LWPOLYLINE
  5
25C
100
AcDbEntity
  8
IMPORT_IGES
100
AcDbPolyline
 62
7
  6
CONTINUOUS
 90
20
 70
0
 10
1.0268003423
 20
-60.2251125694
 10
1.0033392615
 20
-60.2296130866
 10
0.9811394072
 20
-60.2336969935
 10
0.9602331538
 20
-60.2373642902
 10
0.9408227686
 20
-60.2405888378
 10
0.9227144714
 20
-60.2433967752
 10
0.9054130904
 20
-60.2458665186
 10
0.8888649571
 20
-60.2480376028
 10
0.8733029028
 20
-60.249870493
 10
0.8587557242
 20
-60.2513250012
 10
0.8452685305
 20
-60.2523995734
 10
0.8329884224
 20
-60.2530957637
 10
0.8220752463
 20
-60.2533780453
 10
0.8125764506
 20
-60.2532296186
 10
0.8045517433
 20
-60.2526672833
 10
0.7980989633
 20
-60.2517059119
 10
0.7932292451
 20
-60.2503405241
 10
0.7899102732
 20
-60.2485761001
 10
0.7881328807
 20
-60.2464424536
 10
0.7878622988
 20
-60.2455488686
  0
LWPOLYLINE
  5
25D
100
AcDbEntity
  8
IMPORT_IGES
100
AcDbPolyline
 62
7
  6
CONTINUOUS
 90
7
 70
0
 10
-4.990168593
 20
-58.5145819956
 10
-4.938818312
 20
-58.5119028519
 10
-4.8762692057
 20
-58.5102639928
 10
-4.8026514204
 20
-58.5096711192
 10
-4.7181336495
 20
-58.5101185301
 10
-4.6229885271
 20
-58.5113949086
 10
-4.5175600936
 20
-58.5134972509
  0
LINE
  5
25E
100
AcDbEntity
  8
IMPORT_IGES
100
AcDbLine
 62
7
  6
CONTINUOUS
 10
2.5663240605
 20
-58.576237312
 11
4.1717426075
 21
-58.5213317281
  0
LWPOLYLINE
  5
25F
100
AcDbEntity
  8
IMPORT_IGES
100
AcDbPolyline
 62
7
  6
CONTINUOUS
 90
9
 70
0
 10
4.1717426075
 20
-58.5213317281
 10
4.4341254306
 20
-58.5133716186
 10
4.5503302409
 20
-58.5103359111
 10
4.6564254681
 20
-58.5081325098
 10
4.7522258483
 20
-58.5067569869
 10
4.8373626473
 20
-58.5062137701
 10
4.9115160512
 20
-58.5067202692
 10
4.9745154042
 20
-58.5082819808
 10
5.0262265872
 20
-58.5108934083
  0
LINE
  5
260
100
AcDbEntity
  8
IMPORT_IGES
100
AcDbLine
 62
7
  6
CONTINUOUS
 10
1.9120726007
 20
-58.5947932694
 11
2.5663240605
 21
-58.576237312
  0
LINE
  5
261
100
AcDbEntity
  8
IMPORT_IGES
100
AcDbLine
 62
7
  6
CONTINUOUS
 10
1.4533529839
 20
-58.6054038978
 11
1.9120726007
 21
-58.5947932694
  0
LINE
  5
262
100
AcDbEntity
  8
IMPORT_IGES
100
AcDbLine
 62
7
  6
CONTINUOUS
 10
0.9814266834
 20
-58.6138398676
 11
1.4533529839
 21
-58.6054038978
  0
LINE
  5
263
100
AcDbEntity
  8
IMPORT_IGES
100
AcDbLine
 62
7
  6
CONTINUOUS
 10
0.5009822375
 20
-58.6193358023
 11
0.9814266834
 21
-58.6138398676
  0
LINE
  5
264
100
AcDbEntity
  8
IMPORT_IGES
100
AcDbLine
 62
7
  6
CONTINUOUS
 10
0.0163485864
 20
-58.6214883339
 11
0.5009822375
 21
-58.6193358023
  0
LINE
  5
265
100
AcDbEntity
  8
IMPORT_IGES
100
AcDbLine
 62
7
  6
CONTINUOUS
 10
3.0000000008
 20
-59.3339303386
 11
1.4304118356
 21
-59.3339278289
  0
LINE
  5
266
100
AcDbEntity
  8
IMPORT_IGES
100
AcDbLine
 62
7
  6
CONTINUOUS
 10
-2.999999999
 20
-59.3339303386
 11
0.763248646
 21
-59.3339278306
  0
LINE
  5
267
100
AcDbEntity
  8
IMPORT_IGES
100
AcDbLine
 62
7
  6
CONTINUOUS
 10
0.8016630368
 20
-58.9695219005
 11
1.349612327
 21
-58.9695219005
  0
LINE
  5
268
100
AcDbEntity
  8
IMPORT_IGES
100
AcDbLine
 62
7
  6
CONTINUOUS
 10
-2.1061112528
 20
-59.7913075289
 11
-2.2276615976
 21
-59.7914886475
  0
LINE
  5
269
100
AcDbEntity
  8
IMPORT_IGES
100
AcDbLine
 62
7
  6
CONTINUOUS
 10
-1.9038749672
 20
-59.7914685008
 11
-2.1061112528
 21
-59.7913075289
  0
LINE
  5
26A
100
AcDbEntity
  8
IMPORT_IGES
100
AcDbLine
 62
7
  6
CONTINUOUS
 10
-0.4685817031
 20
-58.6196376462
 11
0.0163485864
 21
-58.6214883339
  0
LINE
  5
26B
100
AcDbEntity
  8
IMPORT_IGES
100
AcDbLine
 62
7
  6
CONTINUOUS
 10
-0.9496995299
 20
-58.6144457632
 11
-0.4685817031
 21
-58.6196376462
  0
LINE
  5
26C
100
AcDbEntity
  8
IMPORT_IGES
100
AcDbLine
 62
7
  6
CONTINUOUS
 10
-1.4224927181
 20
-58.6063173343
 11
-0.9496995299
 21
-58.6144457632
  0
LINE
  5
26D
100
AcDbEntity
  8
IMPORT_IGES
100
AcDbLine
 62
7
  6
CONTINUOUS
 10
-1.8818868386
 20
-58.5960211117
 11
-1.4224927181
 21
-58.6063173343
  0
LINE
  5
26E
100
AcDbEntity
  8
IMPORT_IGES
100
AcDbLine
 62
7
  6
CONTINUOUS
 10
-4.5175600936
 20
-58.5134972509
 11
-4.2763949732
 21
-58.5199865327
  0
LINE
  5
26F
100
AcDbEntity
  8
IMPORT_IGES
100
AcDbLine
 62
7
  6
CONTINUOUS
 10
-2.5366280189
 20
-58.5779355913
 11
-1.8818868386
 21
-58.5960211117
  0
LINE
  5
270
100
AcDbEntity
  8
IMPORT_IGES
100
AcDbLine
 62
7
  6
CONTINUOUS
 10
-4.2763949732
 20
-58.5199865327
 11
-2.5366280189
 21
-58.5779355913
  0
LWPOLYLINE
  5
271
100
AcDbEntity
  8
IMPORT_IGES
100
AcDbPolyline
 62
7
  6
CONTINUOUS
 90
20
 70
0
 10
-1.0268003406
 20
-60.2251125694
 10
-1.0033392598
 20
-60.2296130866
 10
-0.9811394054
 20
-60.2336969935
 10
-0.960233152
 20
-60.2373642902
 10
-0.9408227668
 20
-60.2405888378
 10
-0.9227144697
 20
-60.2433967752
 10
-0.9054130887
 20
-60.2458665186
 10
-0.8888649554
 20
-60.2480376028
 10
-0.8733029011
 20
-60.249870493
 10
-0.8587557224
 20
-60.2513250012
 10
-0.8452685288
 20
-60.2523995734
 10
-0.8329884207
 20
-60.2530957637
 10
-0.8220752446
 20
-60.2533780453
 10
-0.8125764489
 20
-60.2532296186
 10
-0.8045517415
 20
-60.2526672833
 10
-0.7980989615
 20
-60.2517059119
 10
-0.7932292433
 20
-60.2503405241
 10
-0.7899102715
 20
-60.2485761001
 10
-0.7881328789
 20
-60.2464424536
 10
-0.7878622971
 20
-60.2455488686
  0
LWPOLYLINE
  5
272
100
AcDbEntity
  8
IMPORT_IGES
100
AcDbPolyline
 62
7
  6
CONTINUOUS
 90
13
 70
0
 10
-0.6467055347
 20
-60.2251125694
 10
-0.7331035476
 20
-60.2080884869
 10
-0.8230249298
 20
-60.1880061369
 10
-0.9164696814
 20
-60.1648655195
 10
-1.0135389901
 20
-60.1389178931
 10
-1.1141316682
 20
-60.1099119991
 10
-1.2179441519
 20
-60.0770940623
 10
-1.3250215385
 20
-60.0404771197
 10
-1.4353187308
 20
-60.0000481343
 10
-1.548396874
 20
-59.9550142189
 10
-1.6641096831
 20
-59.9051110776
 10
-1.782603443
 20
-59.8506030064
 10
-1.9038781538
 20
-59.791490005
  0
LWPOLYLINE
  5
273
100
AcDbEntity
  8
IMPORT_IGES
100
AcDbPolyline
 62
7
  6
CONTINUOUS
 90
5
 70
0
 10
-1.3628383497
 20
-60.1444971053
 10
-1.2887401795
 20
-60.1648655892
 10
-1.198300675
 20
-60.1880061857
 10
-1.1109873954
 20
-60.2080885125
 10
-1.0268003406
 20
-60.2251125694
  0
LWPOLYLINE
  5
274
100
AcDbEntity
  8
IMPORT_IGES
100
AcDbPolyline
 62
7
  6
CONTINUOUS
 90
25
 70
0
 10
2.7416712277
 20
-57.1689445824
 10
2.5354868567
 20
-57.1825009757
 10
2.3239089125
 20
-57.1950821993
 10
2.1074212309
 20
-57.2066882535
 10
1.8865654936
 20
-57.2173745287
 10
1.6617942802
 20
-57.2270856343
 10
1.4334613641
 20
-57.2356553985
 10
1.2020425096
 20
-57.2430914755
 10
0.968078576
 20
-57.249386211
 10
0.7320204272
 20
-57.2543504707
 10
0.4943529026
 20
-57.257947736
 10
0.2556333745
 20
-57.2602145254
 10
0.0164251738
 20
-57.26107126
 10
-0.2227341662
 20
-57.2604732162
 10
-0.4613294359
 20
-57.2584651176
 10
-0.6988311506
 20
-57.2551015569
 10
-0.9346999704
 20
-57.2503352903
 10
-1.1684363387
 20
-57.2442135615
 10
-1.3995749985
 20
-57.2369326942
 10
-1.627578454
 20
-57.2284941038
 10
-1.8519753914
 20
-57.2188963748
 10
-2.0724015702
 20
-57.2083315839
 10
-2.2884059025
 20
-57.1968637564
 10
-2.4994592164
 20
-57.1844288669
 10
-2.7050857165
 20
-57.1710269154
  0
LINE
  5
275
100
AcDbEntity
  8
IMPORT_IGES
100
AcDbLine
 62
7
  6
CONTINUOUS
 10
2.7000000009
 20
-56.0060950067
 11
2.7416544852
 21
-56.0060950067
  0
LINE
  5
276
100
AcDbEntity
  8
IMPORT_IGES
100
AcDbLine
 62
7
  6
CONTINUOUS
 10
-2.7050831027
 20
-55.861301244
 11
2.7416544852
 21
-55.861301244
  0
LWPOLYLINE
  5
277
100
AcDbEntity
  8
IMPORT_IGES
100
AcDbPolyline
 62
7
  6
CONTINUOUS
 90
5
 70
0
 10
5.0262265872
 20
-58.5108934083
 10
5.0664991998
 20
-58.5147554711
 10
5.0952721042
 20
-58.5199351426
 10
5.1125344041
 20
-58.5263654495
 10
5.118285691
 20
-58.5340463918
  0
LWPOLYLINE
  5
278
100
AcDbEntity
  8
IMPORT_IGES
100
AcDbPolyline
 62
7
  6
CONTINUOUS
 90
25
 70
0
 10
0.1483827651
 20
-60.2251125694
 10
0.1604527469
 20
-60.229955904
 10
0.1738809561
 20
-60.2343063799
 10
0.1884660992
 20
-60.2381639971
 10
0.2038575602
 20
-60.2414937188
 10
0.2200081233
 20
-60.2443305818
 10
0.2372965335
 20
-60.2467796965
 10
0.2558445039
 20
-60.2488828785
 10
0.2754208976
 20
-60.2505983124
 10
0.2959841401
 20
-60.2519056614
 10
0.3175410346
 20
-60.2527989019
 10
0.339943876
 20
-60.2532840576
 10
0.362896831
 20
-60.2533588633
 10
0.3862712769
 20
-60.253007767
 10
0.4099955997
 20
-60.2522463207
 10
0.43383095
 20
-60.2511189148
 10
0.4575960543
 20
-60.2496260946
 10
0.48127653
 20
-60.2477673147
 10
0.5048837579
 20
-60.2455853297
 10
0.5281393083
 20
-60.2431195412
 10
0.551161766
 20
-60.2403305477
 10
0.5745586519
 20
-60.2371428987
 10
0.5984654423
 20
-60.2335314443
 10
0.6225521282
 20
-60.2295213345
 10
0.6467055365
 20
-60.2251125694
  0
LWPOLYLINE
  5
279
100
AcDbEntity
  8
IMPORT_IGES
100
AcDbPolyline
 62
7
  6
CONTINUOUS
 90
10
 70
0
 10
-2.2276601329
 20
-59.791490005
 10
-2.1140620902
 20
-59.8506030538
 10
-2.0026469918
 20
-59.9051111614
 10
-1.8934148378
 20
-59.9550143279
 10
-1.7861850195
 20
-60.0000482559
 10
-1.6811381455
 20
-60.0404772428
 10
-1.5788160419
 20
-60.0770941804
 10
-1.4792654992
 20
-60.1099121061
 10
-1.382439727
 20
-60.1389179826
 10
-1.3628383497
 20
-60.1444971053
  0
LINE
  5
27A
100
AcDbEntity
  8
IMPORT_IGES
100
AcDbLine
 62
7
  6
CONTINUOUS
 10
-27.8582909584
 20
-50.1042966412
 11
-27.7816545319
 21
-50.1565375168
  0
LWPOLYLINE
  5
27B
100
AcDbEntity
  8
IMPORT_IGES
100
AcDbPolyline
 62
7
  6
CONTINUOUS
 90
12
 70
0
 10
1.2632927545
 20
-49.7957503427
 10
1.3225710633
 20
-49.7916512314
 10
1.3768581573
 20
-49.7873734079
 10
1.4262268223
 20
-49.7829064944
 10
1.4706042726
 20
-49.7782608687
 10
1.5093208686
 20
-49.773496107
 10
1.5422688615
 20
-49.7686114737
 10
1.5695560002
 20
-49.7636077044
 10
1.5908358919
 20
-49.7585465823
 10
1.6059930721
 20
-49.7534487016
 10
1.6151430052
 20
-49.748293468
 10
1.6182856912
 20
-49.7430808815
  0
LWPOLYLINE
  5
27C
100
AcDbEntity
  8
IMPORT_IGES
100
AcDbPolyline
 62
7
  6
CONTINUOUS
 90
3
 70
0
 10
0.9621918814
 20
-51.3068939623
 10
0.9098046337
 20
-51.3104716394
 10
0.8527395982
 20
-51.3140356687
  0
LWPOLYLINE
  5
27D
100
AcDbEntity
  8
IMPORT_IGES
100
AcDbPolyline
 62
7
  6
CONTINUOUS
 90
7
 70
0
 10
-1.3237183291
 20
-49.7737957058
 10
-1.3537658717
 20
-49.7757282002
 10
-1.3792562164
 20
-49.7776108973
 10
-1.4000955324
 20
-49.7794437971
 10
-1.4162052744
 20
-49.7812221825
 10
-1.4275233042
 20
-49.7829507706
 10
-1.4340181249
 20
-49.7846437128
  0
LWPOLYLINE
  5
27E
100
AcDbEntity
  8
IMPORT_IGES
100
AcDbPolyline
 62
7
  6
CONTINUOUS
 90
10
 70
0
 10
1.169256021
 20
-50.8570675722
 10
1.2234239385
 20
-50.8537662379
 10
1.2727397732
 20
-50.8504516471
 10
1.3170222934
 20
-50.8471215664
 10
1.3553744792
 20
-50.8438258867
 10
1.3870666622
 20
-50.8406416599
 10
1.4120637091
 20
-50.8376114503
 10
1.4306296954
 20
-50.8346898723
 10
1.4429749957
 20
-50.8318082816
 10
1.4478991188
 20
-50.829813994
  0
LINE
  5
27F
100
AcDbEntity
  8
IMPORT_IGES
100
AcDbLine
 62
7
  6
CONTINUOUS
 10
1.2284464766
 20
-49.7978754428
 11
1.2632927545
 21
-49.7957503427
  0
LWPOLYLINE
  5
280
100
AcDbEntity
  8
IMPORT_IGES
100
AcDbPolyline
 62
7
  6
CONTINUOUS
 90
10
 70
0
 10
1.1664533568
 20
-51.1572304838
 10
1.2215381186
 20
-51.1538865343
 10
1.2719601874
 20
-51.1505068823
 10
1.3168115102
 20
-51.1471384507
 10
1.355198156
 20
-51.1438422268
 10
1.3868999087
 20
-51.1406599614
 10
1.4119974029
 20
-51.1376204832
 10
1.4305904713
 20
-51.1346972208
 10
1.4430101884
 20
-51.1317973204
 10
1.4478991188
 20
-51.129813994
  0
LWPOLYLINE
  5
281
100
AcDbEntity
  8
IMPORT_IGES
100
AcDbPolyline
 62
7
  6
CONTINUOUS
 90
10
 70
0
 10
1.1630685785
 20
-50.2574262933
 10
1.2184957911
 20
-50.2540797136
 10
1.2684597055
 20
-50.2507536471
 10
1.3127107004
 20
-50.2474646939
 10
1.3510520817
 20
-50.2442228238
 10
1.3833227633
 20
-50.2410478871
 10
1.4092094117
 20
-50.2379940901
 10
1.4285911808
 20
-50.2350626563
 10
1.4417879253
 20
-50.2321628639
 10
1.4478991188
 20
-50.229813994
  0
LWPOLYLINE
  5
282
100
AcDbEntity
  8
IMPORT_IGES
100
AcDbPolyline
 62
7
  6
CONTINUOUS
 90
10
 70
0
 10
1.1582963018
 20
-49.9577006525
 10
1.2138766579
 20
-49.9543709521
 10
1.2642126667
 20
-49.9510503528
 10
1.308972333
 20
-49.9477584929
 10
1.3477787432
 20
-49.9445185568
 10
1.3803821451
 20
-49.9413604017
 10
1.4067445796
 20
-49.9383150156
 10
1.4267847392
 20
-49.9353788221
 10
1.4405850967
 20
-49.9324964598
 10
1.4478991188
 20
-49.929813994
  0
LWPOLYLINE
  5
283
100
AcDbEntity
  8
IMPORT_IGES
100
AcDbPolyline
 62
7
  6
CONTINUOUS
 90
11
 70
0
 10
1.1521049341
 20
-50.5580536629
 10
1.2069532452
 20
-50.5548029437
 10
1.2565694134
 20
-50.551577187
 10
1.3012906886
 20
-50.5483519678
 10
1.3409138217
 20
-50.5451259695
 10
1.3746773618
 20
-50.5419515447
 10
1.4021275641
 20
-50.538895365
 10
1.4233057105
 20
-50.5359559541
 10
1.4383481211
 20
-50.5330639503
 10
1.4472323367
 20
-50.5301722724
 10
1.4478991188
 20
-50.529813994
  0
LWPOLYLINE
  5
284
100
AcDbEntity
  8
IMPORT_IGES
100
AcDbPolyline
 62
7
  6
CONTINUOUS
 90
12
 70
0
 10
-0.8527021572
 20
-50.7896904912
 10
-0.9068809377
 20
-50.7928497364
 10
-0.9571163719
 20
-50.796106489
 10
-1.0032503738
 20
-50.7994470344
 10
-1.0449839356
 20
-50.8028532682
 10
-1.0818861551
 20
-50.8062962661
 10
-1.1136837585
 20
-50.8097609217
 10
-1.1400720949
 20
-50.813221455
 10
-1.1609765842
 20
-50.8166588367
 10
-1.1763715359
 20
-50.8200673951
 10
-1.1860935871
 20
-50.8234275551
 10
-1.1873170163
 20
-50.8240741908
  0
LWPOLYLINE
  5
285
100
AcDbEntity
  8
IMPORT_IGES
100
AcDbPolyline
 62
7
  6
CONTINUOUS
 90
12
 70
0
 10
-0.8509987382
 20
-50.1895964131
 10
-0.9061125196
 20
-50.1928025329
 10
-0.9573480273
 20
-50.1961223506
 10
-1.0040740064
 20
-50.1995103288
 10
-1.04601436
 20
-50.2029431463
 10
-1.0830274437
 20
-50.2064112363
 10
-1.1147677419
 20
-50.2098904239
 10
-1.1410127729
 20
-50.2133593416
 10
-1.1617900703
 20
-50.2168132129
 10
-1.1769605944
 20
-50.2202275873
 10
-1.1863999654
 20
-50.2235794303
 10
-1.1873170163
 20
-50.2240741908
  0
LWPOLYLINE
  5
286
100
AcDbEntity
  8
IMPORT_IGES
100
AcDbPolyline
 62
7
  6
CONTINUOUS
 90
12
 70
0
 10
-0.8470690063
 20
-51.0893805273
 10
-0.9027734233
 20
-51.092598261
 10
-0.9543731241
 20
-51.0959192928
 10
-1.0010539017
 20
-51.0992789296
 10
-1.0428535711
 20
-51.1026684385
 10
-1.0800195684
 20
-51.1061094947
 10
-1.1122876861
 20
-51.1095954439
 10
-1.139156215
 20
-51.1130883838
 10
-1.160474052
 20
-51.1165644864
 10
-1.1761001783
 20
-51.119994703
 10
-1.1859547124
 20
-51.1233605495
 10
-1.1873170163
 20
-51.1240741908
  0
LWPOLYLINE
  5
287
100
AcDbEntity
  8
IMPORT_IGES
100
AcDbPolyline
 62
7
  6
CONTINUOUS
 90
12
 70
0
 10
-0.846873291
 20
-50.4893698168
 10
-0.9017457715
 20
-50.4925356688
 10
-0.9529865075
 20
-50.4958251148
 10
-1.0000088733
 20
-50.499199298
 10
-1.0424331173
 20
-50.5026321159
 10
-1.0798881178
 20
-50.5060963999
 10
-1.1120984316
 20
-50.509573123
 10
-1.1389055804
 20
-50.5130521672
 10
-1.1601960382
 20
-50.5165126139
 10
-1.1758542131
 20
-50.5199293904
 10
-1.185796097
 20
-50.5232853217
 10
-1.1873170163
 20
-50.5240741908
  0
LINE
  5
288
100
AcDbEntity
  8
IMPORT_IGES
100
AcDbLine
 62
7
  6
CONTINUOUS
 10
0.8533111964
 20
-51.013981285
 11
0.7288188782
 21
-51.0208955056
  0
LINE
  5
289
100
AcDbEntity
  8
IMPORT_IGES
100
AcDbLine
 62
7
  6
CONTINUOUS
 10
0.849844044
 20
-50.714188504
 11
0.7274775103
 21
-50.7209647817
  0
LWPOLYLINE
  5
28A
100
AcDbEntity
  8
IMPORT_IGES
100
AcDbPolyline
 62
7
  6
CONTINUOUS
 90
12
 70
0
 10
-0.8053135806
 20
-49.8871751872
 10
-0.8627770233
 20
-49.8902531912
 10
-0.9164641619
 20
-49.8934446618
 10
-0.9660474535
 20
-49.8967241965
 10
-1.0113341267
 20
-49.9000745034
 10
-1.052049889
 20
-49.9034760539
 10
-1.0878331013
 20
-49.9069020139
 10
-1.1184580901
 20
-49.9103382317
 10
-1.1436261738
 20
-49.913749158
 10
-1.1634106727
 20
-49.917127133
 10
-1.1779282755
 20
-49.9204983692
 10
-1.1873170163
 20
-49.9240741908
  0
LINE
  5
28B
100
AcDbEntity
  8
IMPORT_IGES
100
AcDbLine
 62
7
  6
CONTINUOUS
 10
0.848140611
 20
-50.4142899616
 11
0.7238252173
 21
-50.4211529041
  0
LINE
  5
28C
100
AcDbEntity
  8
IMPORT_IGES
100
AcDbLine
 62
7
  6
CONTINUOUS
 10
0.8527395982
 20
-51.3140356687
 11
0.7268405996
 21
-51.3209896816
  0
LINE
  5
28D
100
AcDbEntity
  8
IMPORT_IGES
100
AcDbLine
 62
7
  6
CONTINUOUS
 10
0.845888034
 20
-50.1144237755
 11
0.7215554334
 21
-50.1212694473
  0
LINE
  5
28E
100
AcDbEntity
  8
IMPORT_IGES
100
AcDbLine
 62
7
  6
CONTINUOUS
 10
0.8295865587
 20
-49.8153805371
 11
0.7014643127
 21
-49.8222889302
  0
LINE
  5
28F
100
AcDbEntity
  8
IMPORT_IGES
100
AcDbLine
 62
7
  6
CONTINUOUS
 10
1.0463723788
 20
-50.863646077
 11
1.169256021
 21
-50.8570675722
  0
LINE
  5
290
100
AcDbEntity
  8
IMPORT_IGES
100
AcDbLine
 62
7
  6
CONTINUOUS
 10
1.042619933
 20
-51.1638315987
 11
1.1664533568
 21
-51.1572304838
  0
LINE
  5
291
100
AcDbEntity
  8
IMPORT_IGES
100
AcDbLine
 62
7
  6
CONTINUOUS
 10
1.0374497528
 20
-50.2640859527
 11
1.1630685785
 21
-50.2574262933
  0
LINE
  5
292
100
AcDbEntity
  8
IMPORT_IGES
100
AcDbLine
 62
7
  6
CONTINUOUS
 10
1.0329922518
 20
-49.9643040893
 11
1.1582963018
 21
-49.9577006525
  0
LINE
  5
293
100
AcDbEntity
  8
IMPORT_IGES
100
AcDbLine
 62
7
  6
CONTINUOUS
 10
1.02784181
 20
-50.5645548237
 11
1.1521049341
 21
-50.5580536629
  0
LINE
  5
294
100
AcDbEntity
  8
IMPORT_IGES
100
AcDbLine
 62
7
  6
CONTINUOUS
 10
-0.7330693598
 20
-50.7836426378
 11
-0.8527021572
 21
-50.7896904912
  0
LINE
  5
295
100
AcDbEntity
  8
IMPORT_IGES
100
AcDbLine
 62
7
  6
CONTINUOUS
 10
-0.7302403367
 20
-50.1835093957
 11
-0.8509987382
 21
-50.1895964131
  0
LINE
  5
296
100
AcDbEntity
  8
IMPORT_IGES
100
AcDbLine
 62
7
  6
CONTINUOUS
 10
-0.7252947204
 20
-51.0832771569
 11
-0.8470690063
 21
-51.0893805273
  0
LINE
  5
297
100
AcDbEntity
  8
IMPORT_IGES
100
AcDbLine
 62
7
  6
CONTINUOUS
 10
-0.7278743169
 20
-50.4833981832
 11
-0.846873291
 21
-50.4893698168
  0
LINE
  5
298
100
AcDbEntity
  8
IMPORT_IGES
100
AcDbLine
 62
7
  6
CONTINUOUS
 10
0.7268405996
 20
-51.3209896816
 11
0.5872517948
 21
-51.3276778648
  0
LINE
  5
299
100
AcDbEntity
  8
IMPORT_IGES
100
AcDbLine
 62
7
  6
CONTINUOUS
 10
0.7288188782
 20
-51.0208955056
 11
0.5892727429
 21
-51.0276075904
  0
LINE
  5
29A
100
AcDbEntity
  8
IMPORT_IGES
100
AcDbLine
 62
7
  6
CONTINUOUS
 10
0.7274775103
 20
-50.7209647817
 11
0.5894316302
 21
-50.7276004868
  0
LINE
  5
29B
100
AcDbEntity
  8
IMPORT_IGES
100
AcDbLine
 62
7
  6
CONTINUOUS
 10
0.7238252173
 20
-50.4211529041
 11
0.5850445496
 21
-50.4277961891
  0
LINE
  5
29C
100
AcDbEntity
  8
IMPORT_IGES
100
AcDbLine
 62
7
  6
CONTINUOUS
 10
0.7215554334
 20
-50.1212694473
 11
0.5818645301
 21
-50.1279374815
  0
LWPOLYLINE
  5
29D
100
AcDbEntity
  8
IMPORT_IGES
100
AcDbPolyline
 62
7
  6
CONTINUOUS
 90
3
 70
0
 10
-1.2455101723
 20
-49.7699962235
 10
-1.287047313
 20
-49.7718941928
 10
-1.3237183291
 20
-49.7737957058
  0
LINE
  5
29E
100
AcDbEntity
  8
IMPORT_IGES
100
AcDbLine
 62
7
  6
CONTINUOUS
 10
0.7014643127
 20
-49.8222889302
 11
0.5606231059
 21
-49.8288692518
  0
LINE
  5
29F
100
AcDbEntity
  8
IMPORT_IGES
100
AcDbLine
 62
7
  6
CONTINUOUS
 10
-0.5369573252
 20
-49.8747387823
 11
-0.8053135806
 21
-49.8871751872
  0
LINE
  5
2A0
100
AcDbEntity
  8
IMPORT_IGES
100
AcDbLine
 62
7
  6
CONTINUOUS
 10
0.9066656762
 20
-50.8700933256
 11
1.0463723788
 21
-50.863646077
  0
LINE
  5
2A1
100
AcDbEntity
  8
IMPORT_IGES
100
AcDbLine
 62
7
  6
CONTINUOUS
 10
0.9025841294
 20
-51.1702690643
 11
1.042619933
 21
-51.1638315987
  0
LWPOLYLINE
  5
2A2
100
AcDbEntity
  8
IMPORT_IGES
100
AcDbPolyline
 62
7
  6
CONTINUOUS
 90
13
 70
0
 10
-1.2072186094
 20
-51.8997032127
 10
-1.2648461481
 20
-51.9022487377
 10
-1.3183423739
 20
-51.9049155154
 10
-1.3671680298
 20
-51.9076768556
 10
-1.4112769906
 20
-51.9105336894
 10
-1.4507153814
 20
-51.9134850857
 10
-1.4850823203
 20
-51.9165015599
 10
-1.5143281571
 20
-51.9195837765
 10
-1.5385025418
 20
-51.9227310711
 10
-1.5573535426
 20
-51.925911966
 10
-1.570797182
 20
-51.9291159686
 10
-1.5789174374
 20
-51.9323535715
 10
-1.5817143088
 20
-51.9356247747
  0
LINE
  5
2A3
100
AcDbEntity
  8
IMPORT_IGES
100
AcDbLine
 62
7
  6
CONTINUOUS
 10
0.8962256802
 20
-50.2705415662
 11
1.0374497528
 21
-50.2640859527
  0
LINE
  5
2A4
100
AcDbEntity
  8
IMPORT_IGES
100
AcDbLine
 62
7
  6
CONTINUOUS
 10
0.89102988
 20
-49.9707631009
 11
1.0329922518
 21
-49.9643040893
  0
LINE
  5
2A5
100
AcDbEntity
  8
IMPORT_IGES
100
AcDbLine
 62
7
  6
CONTINUOUS
 10
0.8832845988
 20
-50.5710914583
 11
1.02784181
 21
-50.5645548237
  0
LINE
  5
2A6
100
AcDbEntity
  8
IMPORT_IGES
100
AcDbLine
 62
7
  6
CONTINUOUS
 10
-1.0881564797
 20
-51.2420190959
 11
-0.9516673466
 21
-51.2359609378
  0
LINE
  5
2A7
100
AcDbEntity
  8
IMPORT_IGES
100
AcDbLine
 62
7
  6
CONTINUOUS
 10
-0.0374812592
 20
-51.0531986716
 11
-0.7252947204
 21
-51.0832771569
  0
LINE
  5
2A8
100
AcDbEntity
  8
IMPORT_IGES
100
AcDbLine
 62
7
  6
CONTINUOUS
 10
-0.045023279
 20
-50.7535135839
 11
-0.7330693598
 21
-50.7836426378
  0
LINE
  5
2A9
100
AcDbEntity
  8
IMPORT_IGES
100
AcDbLine
 62
7
  6
CONTINUOUS
 10
-0.0451755812
 20
-50.453519946
 11
-0.7278743169
 21
-50.4833981832
  0
LINE
  5
2AA
100
AcDbEntity
  8
IMPORT_IGES
100
AcDbLine
 62
7
  6
CONTINUOUS
 10
-0.0423730158
 20
-50.1534028924
 11
-0.7302403367
 21
-50.1835093957
  0
LINE
  5
2AB
100
AcDbEntity
  8
IMPORT_IGES
100
AcDbLine
 62
7
  6
CONTINUOUS
 10
-1.0795263141
 20
-50.9415983023
 11
-0.9424363714
 21
-50.9355878023
  0
LINE
  5
2AC
100
AcDbEntity
  8
IMPORT_IGES
100
AcDbLine
 62
7
  6
CONTINUOUS
 10
0.5872517948
 20
-51.3276778648
 11
0.4382923131
 21
-51.3339303386
  0
LINE
  5
2AD
100
AcDbEntity
  8
IMPORT_IGES
100
AcDbLine
 62
7
  6
CONTINUOUS
 10
1.162781474
 20
-49.7064743549
 11
1.0704282336
 21
-49.7104140177
  0
LINE
  5
2AE
100
AcDbEntity
  8
IMPORT_IGES
100
AcDbLine
 62
7
  6
CONTINUOUS
 10
0.2576733889
 20
-49.8410922797
 11
-0.5369573252
 21
-49.8747387823
  0
LINE
  5
2AF
100
AcDbEntity
  8
IMPORT_IGES
100
AcDbLine
 62
7
  6
CONTINUOUS
 10
-1.0378734223
 20
-50.0396466857
 11
-0.897399547
 21
-50.0338096089
  0
LINE
  5
2B0
100
AcDbEntity
  8
IMPORT_IGES
100
AcDbLine
 62
7
  6
CONTINUOUS
 10
-1.0326847997
 20
-50.639412386
 11
-0.8904060031
 21
-50.6335387972
  0
LINE
  5
2B1
100
AcDbEntity
  8
IMPORT_IGES
100
AcDbLine
 62
7
  6
CONTINUOUS
 10
-1.0292385205
 20
-50.3392577901
 11
-0.8865528699
 21
-50.3333901098
  0
LINE
  5
2B2
100
AcDbEntity
  8
IMPORT_IGES
100
AcDbLine
 62
7
  6
CONTINUOUS
 10
0.5892727429
 20
-51.0276075904
 11
-0.0374812592
 21
-51.0531986716
  0
LINE
  5
2B3
100
AcDbEntity
  8
IMPORT_IGES
100
AcDbLine
 62
7
  6
CONTINUOUS
 10
0.5894316302
 20
-50.7276004868
 11
-0.045023279
 21
-50.7535135839
  0
LINE
  5
2B4
100
AcDbEntity
  8
IMPORT_IGES
100
AcDbLine
 62
7
  6
CONTINUOUS
 10
0.5850445496
 20
-50.4277961891
 11
-0.0451755812
 21
-50.453519946
  0
LINE
  5
2B5
100
AcDbEntity
  8
IMPORT_IGES
100
AcDbLine
 62
7
  6
CONTINUOUS
 10
0.5818645301
 20
-50.1279374815
 11
-0.0423730158
 21
-50.1534028924
  0
LINE
  5
2B6
100
AcDbEntity
  8
IMPORT_IGES
100
AcDbLine
 62
7
  6
CONTINUOUS
 10
0.5606231059
 20
-49.8288692518
 11
0.2576733889
 21
-49.8410922797
  0
LINE
  5
2B7
100
AcDbEntity
  8
IMPORT_IGES
100
AcDbLine
 62
7
  6
CONTINUOUS
 10
0.7524069063
 20
-50.8763226614
 11
0.9066656762
 21
-50.8700933256
  0
LINE
  5
2B8
100
AcDbEntity
  8
IMPORT_IGES
100
AcDbLine
 62
7
  6
CONTINUOUS
 10
0.7467361316
 20
-51.176536465
 11
0.9025841294
 21
-51.1702690643
  0
LINE
  5
2B9
100
AcDbEntity
  8
IMPORT_IGES
100
AcDbLine
 62
7
  6
CONTINUOUS
 10
0.739913743
 20
-50.2767923228
 11
0.8962256802
 21
-50.2705415662
  0
LINE
  5
2BA
100
AcDbEntity
  8
IMPORT_IGES
100
AcDbLine
 62
7
  6
CONTINUOUS
 10
0.7310609723
 20
-49.9771221112
 11
0.89102988
 21
-49.9707631009
  0
LINE
  5
2BB
100
AcDbEntity
  8
IMPORT_IGES
100
AcDbLine
 62
7
  6
CONTINUOUS
 10
0.7214796467
 20
-50.5774762319
 11
0.8832845988
 21
-50.5710914583
  0
LINE
  5
2BC
100
AcDbEntity
  8
IMPORT_IGES
100
AcDbLine
 62
7
  6
CONTINUOUS
 10
-1.148441421
 20
-49.7661980567
 11
-1.2455101723
 21
-49.7699962235
  0
LINE
  5
2BD
100
AcDbEntity
  8
IMPORT_IGES
100
AcDbLine
 62
7
  6
CONTINUOUS
 10
-0.9516673466
 20
-51.2359609378
 11
-0.2687870977
 21
-51.2109272051
  0
LINE
  5
2BE
100
AcDbEntity
  8
IMPORT_IGES
100
AcDbLine
 62
7
  6
CONTINUOUS
 10
-1.0794878745
 20
-51.8949783278
 11
-1.2072186094
 21
-51.8997032127
  0
LINE
  5
2BF
100
AcDbEntity
  8
IMPORT_IGES
100
AcDbLine
 62
7
  6
CONTINUOUS
 10
-0.9424363714
 20
-50.9355878023
 11
-0.1698954997
 21
-50.9074803029
  0
LINE
  5
2C0
100
AcDbEntity
  8
IMPORT_IGES
100
AcDbLine
 62
7
  6
CONTINUOUS
 10
1.0704282336
 20
-49.7104140177
 11
0.9616435558
 21
-49.7143104903
  0
LINE
  5
2C1
100
AcDbEntity
  8
IMPORT_IGES
100
AcDbLine
 62
7
  6
CONTINUOUS
 10
-0.8865528699
 20
-50.3333901098
 11
0.0123118993
 21
-50.3012179853
  0
LINE
  5
2C2
100
AcDbEntity
  8
IMPORT_IGES
100
AcDbLine
 62
7
  6
CONTINUOUS
 10
-0.897399547
 20
-50.0338096089
 11
-0.0039240702
 21
-50.0017715934
  0
LINE
  5
2C3
100
AcDbEntity
  8
IMPORT_IGES
100
AcDbLine
 62
7
  6
CONTINUOUS
 10
-0.8904060031
 20
-50.6335387972
 11
0.0900637967
 21
-50.5985783652
  0
LINE
  5
2C4
100
AcDbEntity
  8
IMPORT_IGES
100
AcDbLine
 62
7
  6
CONTINUOUS
 10
-0.2687870977
 20
-51.2109272051
 11
0.7467361316
 21
-51.176536465
  0
LINE
  5
2C5
100
AcDbEntity
  8
IMPORT_IGES
100
AcDbLine
 62
7
  6
CONTINUOUS
 10
-0.1698954997
 20
-50.9074803029
 11
0.7524069063
 21
-50.8763226614
  0
LINE
  5
2C6
100
AcDbEntity
  8
IMPORT_IGES
100
AcDbLine
 62
7
  6
CONTINUOUS
 10
0.0900637967
 20
-50.5985783652
 11
0.7214796467
 21
-50.5774762319
  0
LINE
  5
2C7
100
AcDbEntity
  8
IMPORT_IGES
100
AcDbLine
 62
7
  6
CONTINUOUS
 10
0.0123118993
 20
-50.3012179853
 11
0.739913743
 21
-50.2767923228
  0
LINE
  5
2C8
100
AcDbEntity
  8
IMPORT_IGES
100
AcDbLine
 62
7
  6
CONTINUOUS
 10
-0.0039240702
 20
-50.0017715934
 11
0.7310609723
 21
-49.9771221112
  0
LINE
  5
2C9
100
AcDbEntity
  8
IMPORT_IGES
100
AcDbLine
 62
7
  6
CONTINUOUS
 10
-1.0341113284
 20
-49.7624397839
 11
-1.148441421
 21
-49.7661980567
  0
LINE
  5
2CA
100
AcDbEntity
  8
IMPORT_IGES
100
AcDbLine
 62
7
  6
CONTINUOUS
 10
0.9616435558
 20
-49.7143104903
 11
0.7718488036
 21
-49.7199990343
  0
LINE
  5
2CB
100
AcDbEntity
  8
IMPORT_IGES
100
AcDbLine
 62
7
  6
CONTINUOUS
 10
-0.9999999991
 20
-51.892542495
 11
-1.0794878745
 21
-51.8949783278
  0
LINE
  5
2CC
100
AcDbEntity
  8
IMPORT_IGES
100
AcDbLine
 62
7
  6
CONTINUOUS
 10
-0.7628010945
 20
-49.7553794279
 11
-1.0341113284
 21
-49.7624397839
  0
LWPOLYLINE
  5
2CD
100
AcDbEntity
  8
IMPORT_IGES
100
AcDbPolyline
 62
7
  6
CONTINUOUS
 90
3
 70
0
 10
0.7718488036
 20
-49.7199990343
 10
0.4786318111
 20
-49.7270412613
 10
-0.7628010945
 20
-49.7553794279
  0
LINE
  5
2CE
100
AcDbEntity
  8
IMPORT_IGES
100
AcDbLine
 62
7
  6
CONTINUOUS
 10
1.7020700029
 20
-52.0207441695
 11
-1.6654986204
 21
-52.0207441695
  0
LINE
  5
2CF
100
AcDbEntity
  8
IMPORT_IGES
100
AcDbLine
 62
7
  6
CONTINUOUS
 10
1.2905345068
 20
-51.3339303386
 11
-1.3529730658
 21
-51.3339303386
  0
LINE
  5
2D0
100
AcDbEntity
  8
IMPORT_IGES
100
AcDbLine
 62
7
  6
CONTINUOUS
 10
1.7020700029
 20
-49.491523541
 11
-1.6654986204
 21
-49.491523541
  0
LINE
  5
2D1
100
AcDbEntity
  8
IMPORT_IGES
100
AcDbLine
 62
7
  6
CONTINUOUS
 10
1.1160518719
 20
-51.8949780848
 11
1.0000000009
 21
-51.8915333521
  0
LWPOLYLINE
  5
2D2
100
AcDbEntity
  8
IMPORT_IGES
100
AcDbPolyline
 62
7
  6
CONTINUOUS
 90
3
 70
0
 10
-1.4737778116
 20
-49.7733572842
 10
-1.4353379545
 20
-49.7781122233
 10
-1.4287776106
 20
-49.7788026247
  0
LWPOLYLINE
  5
2D3
100
AcDbEntity
  8
IMPORT_IGES
100
AcDbPolyline
 62
7
  6
CONTINUOUS
 90
5
 70
0
 10
0.0000000009
 20
-60.1443841055
 10
0.0073846817
 20
-60.1492089821
 10
0.0567870905
 20
-60.1789887349
 10
0.1037864516
 20
-60.2042899306
 10
0.1483827651
 20
-60.2251125694
  0
LWPOLYLINE
  5
2D4
100
AcDbEntity
  8
IMPORT_IGES
100
AcDbPolyline
 62
250
  6
CONTINUOUS
 90
10
 70
0
 10
29.3080551401
 20
55.8311256546
 10
28.4119751583
 20
55.5595544411
 10
27.5198982541
 20
55.2830227154
 10
26.6318630392
 20
55.0015505578
 10
25.747944048
 20
54.7151372482
 10
24.868143284
 20
54.4238261699
 10
23.9923905248
 20
54.1277014884
 10
23.1206877863
 20
53.8268031699
 10
22.2531089992
 20
53.521130296
 10
21.3896917758
 20
53.2107036447
  0
LINE
  5
2D5
100
AcDbEntity
  8
IMPORT_IGES
100
AcDbLine
 62
250
  6
CONTINUOUS
 10
30.1146427072
 20
-46.0897570529
 11
29.9771640919
 21
-46.089757053
  0
LINE
  5
2D6
100
AcDbEntity
  8
IMPORT_IGES
100
AcDbLine
 62
250
  6
CONTINUOUS
 10
-29.9771640902
 20
-46.0897570531
 11
-30.1146427054
 21
-46.089757053
  0
LINE
  5
2D7
100
AcDbEntity
  8
IMPORT_IGES
100
AcDbLine
 62
7
  6
CONTINUOUS
 10
-1.4478991187
 20
-51.2798139914
 11
-1.3543116688
 21
-51.3339303386
  0
LINE
  5
2D8
100
AcDbEntity
  8
IMPORT_IGES
100
AcDbLine
 62
7
  6
CONTINUOUS
 10
-1.4478991171
 20
-50.979813994
 11
-1.1928915135
 21
-51.1273003313
  0
LINE
  5
2D9
100
AcDbEntity
  8
IMPORT_IGES
100
AcDbLine
 62
7
  6
CONTINUOUS
 10
-1.4478991171
 20
-50.679813994
 11
-1.1928915135
 21
-50.8273003313
  0
LINE
  5
2DA
100
AcDbEntity
  8
IMPORT_IGES
100
AcDbLine
 62
7
  6
CONTINUOUS
 10
-1.4478991171
 20
-50.379813994
 11
-1.1928915135
 21
-50.5273003313
  0
LWPOLYLINE
  5
2DB
100
AcDbEntity
  8
IMPORT_IGES
100
AcDbPolyline
 62
7
  6
CONTINUOUS
 90
19
 70
0
 10
-29.9615864792
 20
55.0602123305
 10
-29.9495947175
 20
55.1167533143
 10
-29.934381764
 20
55.1725639335
 10
-29.9159971243
 20
55.227455826
 10
-29.8944966663
 20
55.2812609339
 10
-29.8699540816
 20
55.333779783
 10
-29.8424695401
 20
55.3847862204
 10
-29.8122383698
 20
55.4339669871
 10
-29.7792893457
 20
55.4813179122
 10
-29.7434275184
 20
55.5270429659
 10
-29.7044840961
 20
55.5711932651
 10
-29.6627391283
 20
55.6132891531
 10
-29.6186945192
 20
55.652761722
 10
-29.5729462562
 20
55.6891738083
 10
-29.5252791227
 20
55.7227823802
 10
-29.4749519773
 20
55.753996068
 10
-29.4217422059
 20
55.7827173403
 10
-29.3660627367
 20
55.8085100471
 10
-29.3080547702
 20
55.831124754
  0
LWPOLYLINE
  5
2DC
100
AcDbEntity
  8
IMPORT_IGES
100
AcDbPolyline
 62
250
  6
CONTINUOUS
 90
10
 70
0
 10
22.1146426415
 20
52.4416539773
 10
22.9825746194
 20
52.7559101885
 10
23.8515089781
 20
53.0643449843
 10
24.7214457176
 20
53.3669583647
 10
25.5924045491
 20
53.66375691
 10
26.4643657614
 20
53.9547340399
 10
27.3372702202
 20
54.2398700141
 10
28.2110982142
 20
54.5191582524
 10
29.0858694548
 20
54.792605335
 10
29.961583942
 20
55.0602112618
  0
LINE
  5
2DD
100
AcDbEntity
  8
IMPORT_IGES
100
AcDbLine
 62
7
  6
CONTINUOUS
 10
-1.4478991171
 20
-50.079813994
 11
-1.1928915135
 21
-50.2273003313
  0
LINE
  5
2DE
100
AcDbEntity
  8
IMPORT_IGES
100
AcDbLine
 62
7
  6
CONTINUOUS
 10
-1.4350744232
 20
-49.7872291718
 11
-1.1928915135
 21
-49.9273003313
  0
LINE
  5
2DF
100
AcDbEntity
  8
IMPORT_IGES
100
AcDbLine
 62
7
  6
CONTINUOUS
 10
1.4476534441
 20
-51.1246773312
 11
1.1928915153
 21
-50.9773003313
  0
LINE
  5
2E0
100
AcDbEntity
  8
IMPORT_IGES
100
AcDbLine
 62
7
  6
CONTINUOUS
 10
1.4476534441
 20
-50.8246773312
 11
1.1928915153
 21
-50.6773003313
  0
LINE
  5
2E1
100
AcDbEntity
  8
IMPORT_IGES
100
AcDbLine
 62
7
  6
CONTINUOUS
 10
1.4476534441
 20
-50.5246773312
 11
1.1928915153
 21
-50.3773003313
  0
LINE
  5
2E2
100
AcDbEntity
  8
IMPORT_IGES
100
AcDbLine
 62
7
  6
CONTINUOUS
 10
1.4476534441
 20
-50.2246773312
 11
1.1928915153
 21
-50.0773003313
  0
LINE
  5
2E3
100
AcDbEntity
  8
IMPORT_IGES
100
AcDbLine
 62
7
  6
CONTINUOUS
 10
1.290760757
 20
-51.3339303386
 11
1.1928915537
 21
-51.277300309
  0
LINE
  5
2E4
100
AcDbEntity
  8
IMPORT_IGES
100
AcDbLine
 62
7
  6
CONTINUOUS
 10
1.4476534441
 20
-49.9246773312
 11
1.1928915153
 21
-49.7773003313
  0
LWPOLYLINE
  5
2E5
100
AcDbEntity
  8
IMPORT_IGES
100
AcDbPolyline
 62
7
  6
CONTINUOUS
 90
4
 70
0
 10
-1.4478991171
 20
-50.379813994
 10
-1.4494747639
 20
-50.3785886851
 10
-1.4489440176
 20
-50.3755682402
 10
-1.4476534423
 20
-50.3746773312
  0
LWPOLYLINE
  5
2E6
100
AcDbEntity
  8
IMPORT_IGES
100
AcDbPolyline
 62
7
  6
CONTINUOUS
 90
4
 70
0
 10
-1.4478991171
 20
-50.079813994
 10
-1.4494954696
 20
-50.0785640213
 10
-1.4488474427
 20
-50.0754872313
 10
-1.4476534423
 20
-50.0746773312
  0
LINE
  5
2E7
100
AcDbEntity
  8
IMPORT_IGES
100
AcDbLine
 62
7
  6
CONTINUOUS
 10
5.5000000009
 20
59.6050503174
 11
4.4540176489
 21
58.5590679655
  0
LINE
  5
2E8
100
AcDbEntity
  8
IMPORT_IGES
100
AcDbLine
 62
7
  6
CONTINUOUS
 10
7.1372282258
 20
59.8668319989
 11
7.0000000009
 21
59.7387765453
  0
LWPOLYLINE
  5
2E9
100
AcDbEntity
  8
IMPORT_IGES
100
AcDbPolyline
 62
7
  6
CONTINUOUS
 90
3
 70
0
 10
-1.4478991171
 20
-50.679813994
 10
-1.4498566775
 20
-50.677991716
 10
-1.4476534423
 20
-50.6746773312
  0
LINE
  5
2EA
100
AcDbEntity
  8
IMPORT_IGES
100
AcDbLine
 62
7
  6
CONTINUOUS
 10
4.8224233933
 20
-57.0126787979
 11
5.5000000009
 21
-57.6902554055
  0
LWPOLYLINE
  5
2EB
100
AcDbEntity
  8
IMPORT_IGES
100
AcDbPolyline
 62
7
  6
CONTINUOUS
 90
3
 70
0
 10
-1.4478991167
 20
-51.2798139926
 10
-1.4499771906
 20
-51.2775789202
 10
-1.4476534439
 20
-51.2746773311
  0
LWPOLYLINE
  5
2EC
100
AcDbEntity
  8
IMPORT_IGES
100
AcDbPolyline
 62
7
  6
CONTINUOUS
 90
22
 70
0
 10
-29.9771640902
 20
-46.089757053
 10
-29.971982734
 20
-46.3160571537
 10
-29.9562809311
 20
-46.5415260792
 10
-29.9301409626
 20
-46.7656763968
 10
-29.8936655792
 20
-46.9879993382
 10
-29.8469858492
 20
-47.2080494975
 10
-29.790247705
 20
-47.4254463918
 10
-29.7236212039
 20
-47.6397007156
 10
-29.6472740857
 20
-47.850401444
 10
-29.5613421833
 20
-48.0572933194
 10
-29.4660153815
 20
-48.2599589424
 10
-29.3615052122
 20
-48.4579580605
 10
-29.2479661443
 20
-48.6509996536
 10
-29.1256441365
 20
-48.8386604551
 10
-28.994777124
 20
-49.0205500795
 10
-28.8554979866
 20
-49.1964161416
 10
-28.7080565447
 20
-49.3658839405
 10
-28.5527571389
 20
-49.5285432633
 10
-28.3898142107
 20
-49.6840760942
 10
-28.2195134701
 20
-49.8321264539
 10
-28.0422209037
 20
-49.9723149446
 10
-27.8582909583
 20
-50.1042966413
  0
LWPOLYLINE
  5
2ED
100
AcDbEntity
  8
IMPORT_IGES
100
AcDbPolyline
 62
7
  6
CONTINUOUS
 90
19
 70
0
 10
-30.1146408323
 20
54.9904237401
 10
-30.1119963512
 20
55.0621175188
 10
-30.1044340672
 20
55.1327171027
 10
-30.0919539801
 20
55.2022224918
 10
-30.0744416347
 20
55.2709669149
 10
-30.0520114863
 20
55.3386171431
 10
-30.0250069012
 20
55.4041734898
 10
-29.9933620112
 20
55.467605846
 10
-29.9571426844
 20
55.5289443207
 10
-29.9168898915
 20
55.5872795534
 10
-29.8725452296
 20
55.6425680447
 10
-29.8241671014
 20
55.694853294
 10
-29.7724716866
 20
55.7433564384
 10
-29.7174112468
 20
55.7880229149
 10
-29.6590335202
 20
55.8289072865
 10
-29.5981979014
 20
55.8653943788
 10
-29.5351908551
 20
55.8972791337
 10
-29.4697259165
 20
55.9247666094
 10
-29.4018030855
 20
55.9478568059
  0
LWPOLYLINE
  5
2EE
100
AcDbEntity
  8
IMPORT_IGES
100
AcDbPolyline
 62
250
  6
CONTINUOUS
 90
10
 70
0
 10
19.4460910787
 20
-46.0152990372
 10
20.3272625896
 20
-46.4748511259
 10
21.2200046211
 20
-46.9343172283
 10
22.1240868201
 20
-47.393864277
 10
23.0389659027
 20
-47.8539463518
 10
23.9646961849
 20
-48.314520923
 10
24.9019633538
 20
-48.774971116
 10
25.8508559915
 20
-49.2351853864
 10
26.810832415
 20
-49.6956353597
 10
27.7816545646
 20
-50.1565375623
  0
LWPOLYLINE
  5
2EF
100
AcDbEntity
  8
IMPORT_IGES
100
AcDbPolyline
 62
7
  6
CONTINUOUS
 90
14
 70
0
 10
1.6182542029
 20
-51.9356247743
 10
1.6154711528
 20
-51.9323535043
 10
1.6073610972
 20
-51.929115843
 10
1.5939240361
 20
-51.9259117902
 10
1.5750747925
 20
-51.9227308536
 10
1.5508985434
 20
-51.9195835257
 10
1.5216508196
 20
-51.9165012835
 10
1.4872831446
 20
-51.9134847918
 10
1.447843995
 20
-51.9105333858
 10
1.4037343311
 20
-51.9076765484
 10
1.354908037
 20
-51.9049152112
 10
1.3014112286
 20
-51.9022484426
 10
1.2437832149
 20
-51.8997029308
 10
1.1160518719
 20
-51.8949780848
  0
LWPOLYLINE
  5
2F0
100
AcDbEntity
  8
IMPORT_IGES
100
AcDbPolyline
 62
7
  6
CONTINUOUS
 90
3
 70
0
 10
-1.4478991171
 20
-50.979813994
 10
-1.4499576051
 20
-50.9770229647
 10
-1.4476534423
 20
-50.9746773312
  0
LINE
  5
2F1
100
AcDbEntity
  8
IMPORT_IGES
100
AcDbLine
 62
7
  6
CONTINUOUS
 10
-30.1146427054
 20
-46.089757053
 11
-30.1146427073
 21
54.9904237399
  0
LINE
  5
2F2
100
AcDbEntity
  8
IMPORT_IGES
100
AcDbLine
 62
7
  6
CONTINUOUS
 10
-29.9771640902
 20
-46.0897570531
 11
-29.9771421564
 21
54.8879998135
  0
LWPOLYLINE
  5
2F3
100
AcDbEntity
  8
IMPORT_IGES
100
AcDbPolyline
 62
7
  6
CONTINUOUS
 90
10
 70
0
 10
-29.9771421564
 20
54.8879998135
 10
-29.9769425274
 20
54.9073641124
 10
-29.9763596158
 20
54.926682455
 10
-29.9753934215
 20
54.9459548414
 10
-29.9740424682
 20
54.9651965168
 10
-29.9723082323
 20
54.984392236
 10
-29.9701951429
 20
55.0034962626
 10
-29.9677046763
 20
55.022493351
 10
-29.9648353562
 20
55.0413987469
 10
-29.9615871826
 20
55.0602124501
  0
LINE
  5
2F4
100
AcDbEntity
  8
IMPORT_IGES
100
AcDbLine
 62
7
  6
CONTINUOUS
 10
29.3554797341
 20
55.9138529417
 11
29.3096377682
 21
55.8797038488
  0
LWPOLYLINE
  5
2F5
100
AcDbEntity
  8
IMPORT_IGES
100
AcDbPolyline
 62
7
  6
CONTINUOUS
 90
3
 70
0
 10
29.3096377682
 20
55.8797038488
 10
29.2788071964
 20
55.8570177507
 10
29.263311116
 20
55.8456986365
  0
LWPOLYLINE
  5
2F6
100
AcDbEntity
  8
IMPORT_IGES
100
AcDbPolyline
 62
7
  6
CONTINUOUS
 90
3
 70
0
 10
29.4018039746
 20
55.9478560848
 10
29.3863089841
 20
55.9365379506
 10
29.3554797341
 20
55.9138529417
  0
LINE
  5
2F7
100
AcDbEntity
  8
IMPORT_IGES
100
AcDbLine
 62
7
  6
CONTINUOUS
 10
-7.4407697839
 20
-26.5469473728
 11
-19.9407697839
 21
-26.5469473728
  0
LWPOLYLINE
  5
2F8
100
AcDbEntity
  8
IMPORT_IGES
100
AcDbPolyline
 62
250
  6
CONTINUOUS
 90
10
 70
0
 10
29.977142185
 20
-46.0062916207
 10
29.0967500886
 20
-45.5388128476
 10
28.2180372985
 20
-45.0652370478
 10
27.3410038148
 20
-44.5855642213
 10
26.4656283647
 20
-44.0997823912
 10
25.591932221
 20
-43.6079035345
 10
24.7199792016
 20
-43.1099635814
 10
23.8497905792
 20
-42.6059745086
 10
22.981345081
 20
-42.0959243394
 10
22.1146427072
 20
-41.5798130739
  0
LWPOLYLINE
  5
2F9
100
AcDbEntity
  8
IMPORT_IGES
100
AcDbPolyline
 62
7
  6
CONTINUOUS
 90
25
 70
0
 10
-22.1146427054
 20
-41.5798130739
 10
-22.1078353279
 20
-41.8367740699
 10
-22.0913616605
 20
-42.0855458827
 10
-22.0652217034
 20
-42.3261285123
 10
-22.0291931753
 20
-42.557628594
 10
-21.9834983574
 20
-42.7809394925
 10
-21.9288040933
 20
-42.998741302
 10
-21.8655603772
 20
-43.2113355167
 10
-21.7933172147
 20
-43.4184206425
 10
-21.7113914669
 20
-43.6217722903
 10
-21.6192733385
 20
-43.8226507998
 10
-21.5174726248
 20
-44.0197958314
 10
-21.4068355718
 20
-44.211201978
 10
-21.2869503901
 20
-44.3968275142
 10
-21.1582288691
 20
-44.5767141653
 10
-21.0227526242
 20
-44.7489817006
 10
-20.8817153848
 20
-44.9122712394
 10
-20.7339234214
 20
-45.0679416624
 10
-20.5778771601
 20
-45.2181893805
 10
-20.4137867099
 20
-45.3635573703
 10
-20.2414419617
 20
-45.5035026552
 10
-20.0587130145
 20
-45.6385927163
 10
-19.8648899011
 20
-45.7690167138
 10
-19.6606825886
 20
-45.8945854874
 10
-19.446091077
 20
-46.0152990372
  0
LINE
  5
2FA
100
AcDbEntity
  8
IMPORT_IGES
100
AcDbLine
 62
7
  6
CONTINUOUS
 10
-22.1146426397
 20
52.4416539772
 11
-22.1146426397
 21
-41.5798130739
  0
LWPOLYLINE
  5
2FB
100
AcDbEntity
  8
IMPORT_IGES
100
AcDbPolyline
 62
7
  6
CONTINUOUS
 90
37
 70
0
 10
-22.1146426396
 20
52.4416539772
 10
-22.1140808998
 20
52.4702068646
 10
-22.1124620147
 20
52.4984205823
 10
-22.1097859843
 20
52.5262951302
 10
-22.1060476061
 20
52.5538280846
 10
-22.1012520826
 20
52.5810218692
 10
-22.0954150212
 20
52.6078837554
 10
-22.0885412925
 20
52.6344211863
 10
-22.080626026
 20
52.6606267188
 10
-22.0716702171
 20
52.6864852957
 10
-22.0616738326
 20
52.712005985
 10
-22.0506369057
 20
52.7371797186
 10
-22.0385605314
 20
52.7619642354
 10
-22.0254471214
 20
52.7863586946
 10
-22.011294264
 20
52.8103639368
 10
-21.9960958188
 20
52.8339402229
 10
-21.9798698152
 20
52.8570742216
 10
-21.9625982239
 20
52.8797792641
 10
-21.9442208164
 20
52.9020556041
 10
-21.9247591625
 20
52.9239028198
 10
-21.9041916925
 20
52.945321333
 10
-21.8823934688
 20
52.9663126637
 10
-21.8593591188
 20
52.9869025937
 10
-21.8350940152
 20
53.0070653411
 10
-21.809489338
 20
53.0267250797
 10
-21.7825392126
 20
53.0458972885
 10
-21.7542495137
 20
53.0645664885
 10
-21.7245290455
 20
53.0826104163
 10
-21.6933716329
 20
53.1000397299
 10
-21.660783451
 20
53.1168437713
 10
-21.6266918297
 20
53.1328683025
 10
-21.5910992515
 20
53.1481198057
 10
-21.5540032339
 20
53.1625917987
 10
-21.515323659
 20
53.1761105966
 10
-21.4750338207
 20
53.1886183045
 10
-21.433160425
 20
53.2001728172
 10
-21.389703472
 20
53.2107741349
  0
LINE
  5
2FC
100
AcDbEntity
  8
IMPORT_IGES
100
AcDbLine
 62
250
  6
CONTINUOUS
 10
29.9771421599
 20
54.8879958184
 11
30.1146427072
 21
54.9904277324
  0
LWPOLYLINE
  5
2FD
100
AcDbEntity
  8
IMPORT_IGES
100
AcDbPolyline
 62
7
  6
CONTINUOUS
 90
7
 70
0
 10
-1.5814911687
 20
-49.7430808972
 10
-1.5784978399
 20
-49.7482628499
 10
-1.5695209522
 20
-49.7533904472
 10
-1.5545605055
 20
-49.7584636894
 10
-1.5335061227
 20
-49.7635027009
 10
-1.5064681808
 20
-49.7684873572
 10
-1.4737778116
 20
-49.7733572842
  0
LINE
  5
2FE
100
AcDbEntity
  8
IMPORT_IGES
100
AcDbLine
 62
7
  6
CONTINUOUS
 10
-21.4407697839
 20
-25.0469473728
 11
-21.4407697839
 21
37.9530526272
  0
LINE
  5
2FF
100
AcDbEntity
  8
IMPORT_IGES
100
AcDbLine
 62
7
  6
CONTINUOUS
 10
7.0000000009
 20
-57.9383535807
 11
7.1372404393
 21
-58.1958828359
  0
LINE
  5
300
100
AcDbEntity
  8
IMPORT_IGES
100
AcDbLine
 62
7
  6
CONTINUOUS
 10
1.6182542029
 20
-51.9356247743
 11
1.6608324216
 21
-52.0207441695
  0
LINE
  5
301
100
AcDbEntity
  8
IMPORT_IGES
100
AcDbLine
 62
7
  6
CONTINUOUS
 10
-1.5814911687
 20
-49.7430808972
 11
-1.6654986204
 21
-49.491523541
  0
LINE
  5
302
100
AcDbEntity
  8
IMPORT_IGES
100
AcDbLine
 62
7
  6
CONTINUOUS
 10
1.349612327
 20
-58.9695219005
 11
1.3766294892
 21
-59.0909726843
  0
LINE
  5
303
100
AcDbEntity
  8
IMPORT_IGES
100
AcDbLine
 62
7
  6
CONTINUOUS
 10
1.3766294892
 20
-59.0909726843
 11
1.412587257
 21
-59.2529361905
  0
LINE
  5
304
100
AcDbEntity
  8
IMPORT_IGES
100
AcDbLine
 62
7
  6
CONTINUOUS
 10
1.412587257
 20
-59.2529361905
 11
1.4305382648
 21
-59.3339303386
  0
LINE
  5
305
100
AcDbEntity
  8
IMPORT_IGES
100
AcDbLine
 62
7
  6
CONTINUOUS
 10
0.7878609569
 20
-60.2455412578
 11
0.6543645879
 21
-59.4884457277
  0
LINE
  5
306
100
AcDbEntity
  8
IMPORT_IGES
100
AcDbLine
 62
250
  6
CONTINUOUS
 10
0.1212264107
 20
-60.0594600826
 11
0.1483827651
 21
-60.2251125694
  0
LINE
  5
307
100
AcDbEntity
  8
IMPORT_IGES
100
AcDbLine
 62
250
  6
CONTINUOUS
 10
0.6838489338
 20
-59.4480405662
 11
0.8112387673
 21
-60.2251125694
  0
LINE
  5
308
100
AcDbEntity
  8
IMPORT_IGES
100
AcDbLine
 62
7
  6
CONTINUOUS
 10
-7.1372282241
 20
59.8668319989
 11
-6.9999999991
 21
55.3261777441
  0
LINE
  5
309
100
AcDbEntity
  8
IMPORT_IGES
100
AcDbLine
 62
7
  6
CONTINUOUS
 10
-6.9999999991
 20
59.7387765453
 11
-6.9999999991
 21
55.3261777441
  0
LINE
  5
30A
100
AcDbEntity
  8
IMPORT_IGES
100
AcDbLine
 62
7
  6
CONTINUOUS
 10
-6.9999999991
 20
-50.257508314
 11
-6.9999999991
 21
-57.9383535807
  0
LINE
  5
30B
100
AcDbEntity
  8
IMPORT_IGES
100
AcDbLine
 62
7
  6
CONTINUOUS
 10
-5.9407697839
 20
37.9530526272
 11
-5.9407697839
 21
-25.0469473728
  0
LINE
  5
30C
100
AcDbEntity
  8
IMPORT_IGES
100
AcDbLine
 62
7
  6
CONTINUOUS
 10
-5.4999999991
 20
-57.690255469
 11
-5.4999999991
 21
59.6050475004
  0
LINE
  5
30D
100
AcDbEntity
  8
IMPORT_IGES
100
AcDbLine
 62
7
  6
CONTINUOUS
 10
-5.403997142
 20
59.5090446433
 11
-5.403997142
 21
-57.5942526119
  0
LINE
  5
30E
100
AcDbEntity
  8
IMPORT_IGES
100
AcDbLine
 62
7
  6
CONTINUOUS
 10
-5.0817143088
 20
-58.590497337
 11
-5.0817143088
 21
-58.5378377718
  0
LINE
  5
30F
100
AcDbEntity
  8
IMPORT_IGES
100
AcDbLine
 62
7
  6
CONTINUOUS
 10
-4.9999999991
 20
-58.5970009154
 11
-4.9999999991
 21
-58.5155434298
  0
LINE
  5
310
100
AcDbEntity
  8
IMPORT_IGES
100
AcDbLine
 62
7
  6
CONTINUOUS
 10
-6.9999999991
 20
-50.257508314
 11
-7.1372404375
 21
-58.1958828359
  0
LINE
  5
311
100
AcDbEntity
  8
IMPORT_IGES
100
AcDbLine
 62
250
  6
CONTINUOUS
 10
27.9358612571
 20
-50.2177984642
 11
27.8582909601
 21
-50.1042966412
  0
LINE
  5
312
100
AcDbEntity
  8
IMPORT_IGES
100
AcDbLine
 62
7
  6
CONTINUOUS
 10
2.8998415891
 20
-58.7659037589
 11
3.0000000009
 21
-59.3339303386
  0
LINE
  5
313
100
AcDbEntity
  8
IMPORT_IGES
100
AcDbLine
 62
7
  6
CONTINUOUS
 10
-2.7050831027
 20
-57.1795519629
 11
-2.7050831027
 21
-55.861301244
  0
LINE
  5
314
100
AcDbEntity
  8
IMPORT_IGES
100
AcDbLine
 62
7
  6
CONTINUOUS
 10
-2.6999999991
 20
-55.861301244
 11
-2.6999999991
 21
-56.0833652064
  0
LINE
  5
315
100
AcDbEntity
  8
IMPORT_IGES
100
AcDbLine
 62
7
  6
CONTINUOUS
 10
-1.6654986204
 20
-49.491523541
 11
-1.6654986204
 21
-52.0207441695
  0
LINE
  5
316
100
AcDbEntity
  8
IMPORT_IGES
100
AcDbLine
 62
7
  6
CONTINUOUS
 10
-1.5817143088
 20
-51.9356247747
 11
-1.5817143088
 21
-49.7430808815
  0
LINE
  5
317
100
AcDbEntity
  8
IMPORT_IGES
100
AcDbLine
 62
7
  6
CONTINUOUS
 10
-0.9999999991
 20
-51.3339303386
 11
-0.9999999991
 21
-52.0207441695
  0
LINE
  5
318
100
AcDbEntity
  8
IMPORT_IGES
100
AcDbLine
 62
7
  6
CONTINUOUS
 10
10.0757851771
 20
-0.5364292669
 11
11.5781725464
 21
-0.539272774
  0
LINE
  5
319
100
AcDbEntity
  8
IMPORT_IGES
100
AcDbLine
 62
7
  6
CONTINUOUS
 10
19.0614554954
 20
-0.5534360776
 11
20.5638428647
 21
-0.5562795847
  0
LINE
  5
31A
100
AcDbEntity
  8
IMPORT_IGES
100
AcDbLine
 62
7
  6
CONTINUOUS
 10
1.0000000009
 20
-51.3339303386
 11
1.0000000009
 21
-52.0207441695
  0
LINE
  5
31B
100
AcDbEntity
  8
IMPORT_IGES
100
AcDbLine
 62
7
  6
CONTINUOUS
 10
1.6182856912
 20
-49.7430808815
 11
1.6182856912
 21
-51.9356247747
  0
LINE
  5
31C
100
AcDbEntity
  8
IMPORT_IGES
100
AcDbLine
 62
7
  6
CONTINUOUS
 10
1.7020700029
 20
-52.0207441695
 11
1.7020700029
 21
-49.491523541
  0
LINE
  5
31D
100
AcDbEntity
  8
IMPORT_IGES
100
AcDbLine
 62
7
  6
CONTINUOUS
 10
2.7000000009
 20
-56.0833652064
 11
2.7000000009
 21
-55.861301244
  0
LINE
  5
31E
100
AcDbEntity
  8
IMPORT_IGES
100
AcDbLine
 62
7
  6
CONTINUOUS
 10
2.7416544852
 20
-55.861301244
 11
2.7416544852
 21
-57.1774698159
  0
LINE
  5
31F
100
AcDbEntity
  8
IMPORT_IGES
100
AcDbLine
 62
7
  6
CONTINUOUS
 10
5.0000000009
 20
-58.5095689592
 11
5.0000000009
 21
-58.5970009154
  0
LWPOLYLINE
  5
320
100
AcDbEntity
  8
IMPORT_IGES
100
AcDbPolyline
 62
7
  6
CONTINUOUS
 90
7
 70
0
 10
0.7878622988
 20
-60.2455488686
 10
0.7878855528
 20
-60.2439804095
 10
0.7891262663
 20
-60.2411491428
 10
0.7919414365
 20
-60.2378559917
 10
0.7965001012
 20
-60.2340700687
 10
0.8028966404
 20
-60.2298222613
 10
0.8112387673
 20
-60.2251125694
  0
LINE
  5
321
100
AcDbEntity
  8
IMPORT_IGES
100
AcDbLine
 62
250
  6
CONTINUOUS
 10
-1.0210625941
 20
-60.1367484622
 11
-1.0268003406
 21
-60.2251125694
  0
LINE
  5
322
100
AcDbEntity
  8
IMPORT_IGES
100
AcDbLine
 62
250
  6
CONTINUOUS
 10
0.6837267934
 20
-59.6549670698
 11
0.6467055365
 21
-60.2251125694
  0
LINE
  5
323
100
AcDbEntity
  8
IMPORT_IGES
100
AcDbLine
 62
7
  6
CONTINUOUS
 10
7.1372404393
 20
-58.1958828359
 11
7.0000000009
 21
-50.257508314
  0
LINE
  5
324
100
AcDbEntity
  8
IMPORT_IGES
100
AcDbLine
 62
7
  6
CONTINUOUS
 10
5.1182856912
 20
-58.5340463918
 11
5.1182856912
 21
-58.5867100113
  0
LINE
  5
325
100
AcDbEntity
  8
IMPORT_IGES
100
AcDbLine
 62
7
  6
CONTINUOUS
 10
5.4039971438
 20
-57.5942525483
 11
5.4039971438
 21
59.5090474603
  0
LINE
  5
326
100
AcDbEntity
  8
IMPORT_IGES
100
AcDbLine
 62
7
  6
CONTINUOUS
 10
5.5000000009
 20
59.6050503174
 11
5.5000000009
 21
-57.6902554055
  0
LINE
  5
327
100
AcDbEntity
  8
IMPORT_IGES
100
AcDbLine
 62
7
  6
CONTINUOUS
 10
7.0000000009
 20
-57.9383535807
 11
7.0000000009
 21
-50.257508314
  0
LINE
  5
328
100
AcDbEntity
  8
IMPORT_IGES
100
AcDbLine
 62
7
  6
CONTINUOUS
 10
7.0000000009
 20
55.3261777441
 11
7.0000000009
 21
59.7387765453
  0
LINE
  5
329
100
AcDbEntity
  8
IMPORT_IGES
100
AcDbLine
 62
7
  6
CONTINUOUS
 10
7.0000000009
 20
55.3261777441
 11
7.1372282258
 21
59.8668319989
  0
LINE
  5
32A
100
AcDbEntity
  8
IMPORT_IGES
100
AcDbLine
 62
7
  6
CONTINUOUS
 10
0.7888598113
 20
-59.0909727435
 11
0.8016631584
 21
-58.9695218527
  0
LINE
  5
32B
100
AcDbEntity
  8
IMPORT_IGES
100
AcDbLine
 62
7
  6
CONTINUOUS
 10
0.7717144153
 20
-59.2529362365
 11
0.7888598113
 21
-59.0909727435
  0
LINE
  5
32C
100
AcDbEntity
  8
IMPORT_IGES
100
AcDbLine
 62
7
  6
CONTINUOUS
 10
0.7631098784
 20
-59.3339303386
 11
0.7717144153
 21
-59.2529362365
  0
LINE
  5
32D
100
AcDbEntity
  8
IMPORT_IGES
100
AcDbLine
 62
7
  6
CONTINUOUS
 10
-2.8998415596
 20
-58.7659036014
 11
-2.9999999883
 21
-59.3339302773
  0
LINE
  5
32E
100
AcDbEntity
  8
IMPORT_IGES
100
AcDbLine
 62
250
  6
CONTINUOUS
 10
-27.8582909583
 20
-50.1042966413
 11
-27.9358612639
 21
-50.2177984584
  0
LINE
  5
32F
100
AcDbEntity
  8
IMPORT_IGES
100
AcDbLine
 62
7
  6
CONTINUOUS
 10
14.5851623917
 20
7.4550503479
 11
16.0851597055
 21
7.4522113643
  0
LINE
  5
330
100
AcDbEntity
  8
IMPORT_IGES
100
AcDbLine
 62
7
  6
CONTINUOUS
 10
19.0787139198
 20
8.4465473778
 11
20.5809633041
 21
8.4437041318
  0
LINE
  5
331
100
AcDbEntity
  8
IMPORT_IGES
100
AcDbLine
 62
7
  6
CONTINUOUS
 10
10.0931815126
 20
8.463553956
 11
11.5954308956
 21
8.4607106843
  0
LINE
  5
332
100
AcDbEntity
  8
IMPORT_IGES
100
AcDbLine
 62
7
  6
CONTINUOUS
 10
-0.7878609551
 20
-60.2455412578
 11
-0.7794326054
 21
-60.1977417114
  0
LWPOLYLINE
  5
333
100
AcDbEntity
  8
IMPORT_IGES
100
AcDbPolyline
 62
7
  6
CONTINUOUS
 90
3
 70
0
 10
-1.4354484427
 20
-49.7854734568
 10
-1.4356616295
 20
-49.7862856276
 10
-1.4348427294
 20
-49.7869976221
  0
LINE
  5
334
100
AcDbEntity
  8
IMPORT_IGES
100
AcDbLine
 62
7
  6
CONTINUOUS
 10
14.5795546562
 20
4.5307025666
 11
14.5851623917
 21
7.4550503479
  0
LINE
  5
335
100
AcDbEntity
  8
IMPORT_IGES
100
AcDbLine
 62
7
  6
CONTINUOUS
 10
16.0851597055
 20
7.4522113643
 11
16.0795518983
 21
4.5278261689
  0
LINE
  5
336
100
AcDbEntity
  8
IMPORT_IGES
100
AcDbLine
 62
7
  6
CONTINUOUS
 10
1.6182856912
 20
-49.7430808815
 11
1.7020700029
 21
-49.491523541
  0
LINE
  5
337
100
AcDbEntity
  8
IMPORT_IGES
100
AcDbLine
 62
7
  6
CONTINUOUS
 10
22.1146427072
 20
-41.5798130739
 11
22.1146426415
 21
52.4416539773
  0
LINE
  5
338
100
AcDbEntity
  8
IMPORT_IGES
100
AcDbLine
 62
7
  6
CONTINUOUS
 10
-1.6242610391
 20
-52.0207441695
 11
-1.5817143088
 21
-51.9356247747
  0
LINE
  5
339
100
AcDbEntity
  8
IMPORT_IGES
100
AcDbLine
 62
7
  6
CONTINUOUS
 10
-7.1372404375
 20
-58.1958828359
 11
-6.9999999991
 21
-57.9383535807
  0
LWPOLYLINE
  5
33A
100
AcDbEntity
  8
IMPORT_IGES
100
AcDbPolyline
 62
7
  6
CONTINUOUS
 90
37
 70
0
 10
22.1146426415
 20
52.4416539773
 10
22.1140758509
 20
52.4702720775
 10
22.1124509657
 20
52.4985373909
 10
22.1097679857
 20
52.5264499175
 10
22.1060197095
 20
52.5540082378
 10
22.1012133387
 20
52.5812137712
 10
22.0953704774
 20
52.6080707763
 10
22.0884961727
 20
52.6345847329
 10
22.0805853776
 20
52.6607501612
 10
22.0716445556
 20
52.6865548804
 10
22.0616760563
 20
52.7120045203
 10
22.0506775301
 20
52.737093451
 10
22.0386483908
 20
52.7617926017
 10
22.0255939499
 20
52.7861006387
 10
22.0115088959
 20
52.8100188957
 10
21.996376708
 20
52.833522303
 10
21.9802150213
 20
52.8566014798
 10
21.9630062007
 20
52.8792658069
 10
21.9446808205
 20
52.901518357
 10
21.9252579688
 20
52.9233618911
 10
21.9047185575
 20
52.9447936482
 10
21.8829358973
 20
52.9658084179
 10
21.8599017721
 20
52.9864330247
 10
21.8356243981
 20
53.006640644
 10
21.810001734
 20
53.0263455923
 10
21.7830296271
 20
53.0455607939
 10
21.7547122301
 20
53.0642733244
 10
21.7249599597
 20
53.0823587263
 10
21.6937665197
 20
53.0998273623
 10
21.6611382063
 20
53.1166688697
 10
21.6270043247
 20
53.1327277024
 10
21.5913685457
 20
53.1480098003
 10
21.5542271985
 20
53.1625092235
 10
21.5154985755
 20
53.176052607
 10
21.4751554408
 20
53.1885821623
 10
21.4332250303
 20
53.2001556777
 10
21.389707344
 20
53.2107731534
  0
LWPOLYLINE
  5
33B
100
AcDbEntity
  8
IMPORT_IGES
100
AcDbPolyline
 62
7
  6
CONTINUOUS
 90
3
 70
0
 10
1.4478991188
 20
-49.929813994
 10
1.4497782881
 20
-49.9265481631
 10
1.4476534441
 20
-49.9246773312
  0
LWPOLYLINE
  5
33C
100
AcDbEntity
  8
IMPORT_IGES
100
AcDbPolyline
 62
250
  6
CONTINUOUS
 90
10
 70
0
 10
-22.1146426397
 20
-41.5798130739
 10
-22.9813450456
 20
-42.0959243295
 10
-23.8497905678
 20
-42.6059744912
 10
-24.7199792062
 20
-43.109963559
 10
-25.5919322322
 20
-43.6079035097
 10
-26.4656283744
 20
-44.0997823664
 10
-27.3410038193
 20
-44.5855641988
 10
-28.2180372957
 20
-45.0652370304
 10
-29.0967500747
 20
-45.5388128376
 10
-29.9771421564
 20
-46.0062916207
  0
LINE
  5
33D
100
AcDbEntity
  8
IMPORT_IGES
100
AcDbLine
 62
250
  6
CONTINUOUS
 10
-30.1146427073
 20
54.9904237399
 11
-29.9771421564
 21
54.8879998135
  0
LINE
  5
33E
100
AcDbEntity
  8
IMPORT_IGES
100
AcDbLine
 62
7
  6
CONTINUOUS
 10
-29.3096377652
 20
55.8797038391
 11
-29.3554797311
 21
55.9138529372
  0
LWPOLYLINE
  5
33F
100
AcDbEntity
  8
IMPORT_IGES
100
AcDbPolyline
 62
7
  6
CONTINUOUS
 90
10
 70
0
 10
29.9771415414
 20
54.8879958181
 10
29.9769489006
 20
54.9072675806
 10
29.9763717463
 20
54.9265166571
 10
29.9754100784
 20
54.9457430478
 10
29.9740632059
 20
54.9649620757
 10
29.9723318199
 20
54.9841584178
 10
29.9702179932
 20
55.0032861044
 10
29.9677224168
 20
55.0223298123
 10
29.9648443997
 20
55.0413048648
 10
29.961583942
 20
55.0602112618
  0
LINE
  5
340
100
AcDbEntity
  8
IMPORT_IGES
100
AcDbLine
 62
7
  6
CONTINUOUS
 10
29.9771640919
 20
-46.089757053
 11
29.9771421599
 21
54.8879958184
  0
LINE
  5
341
100
AcDbEntity
  8
IMPORT_IGES
100
AcDbLine
 62
7
  6
CONTINUOUS
 10
30.1146427072
 20
54.9904277324
 11
30.1146427072
 21
-46.0897570529
  0
LWPOLYLINE
  5
342
100
AcDbEntity
  8
IMPORT_IGES
100
AcDbPolyline
 62
7
  6
CONTINUOUS
 90
22
 70
0
 10
29.9771640919
 20
-46.089757053
 10
29.9719635688
 20
-46.3163303508
 10
29.9562222911
 20
-46.5420293001
 10
29.9300284737
 20
-46.7663655437
 10
29.8934921174
 20
-46.9888219033
 10
29.8467496067
 20
-47.2089613127
 10
29.7899465057
 20
-47.426427674
 10
29.7232536997
 20
-47.6407405842
 10
29.6468420839
 20
-47.8514808463
 10
29.5608475167
 20
-48.0583913295
 10
29.4654617967
 20
-48.2610543467
 10
29.3608996837
 20
-48.459031294
 10
29.2473178667
 20
-48.6520321549
 10
29.1249632972
 20
-48.8396349313
 10
28.9940774311
 20
-49.0214505219
 10
28.8547990059
 20
-49.1972283765
 10
28.7073754312
 20
-49.3666025867
 10
28.5521164654
 20
-49.5291586219
 10
28.3892564319
 20
-49.6845638072
 10
28.2190910507
 20
-49.8324621054
 10
28.0419835518
 20
-49.9724859819
 10
27.8582909601
 20
-50.1042966412
  0
LWPOLYLINE
  5
343
100
AcDbEntity
  8
IMPORT_IGES
100
AcDbPolyline
 62
7
  6
CONTINUOUS
 90
5
 70
0
 10
-5.0817143086
 20
-58.5378377718
 10
-5.0759866199
 20
-58.5301558951
 10
-5.0588059191
 20
-58.5237085172
 10
-5.0301886023
 20
-58.518495638
 10
-4.990168593
 20
-58.5145819956
  0
LWPOLYLINE
  5
344
100
AcDbEntity
  8
IMPORT_IGES
100
AcDbPolyline
 62
7
  6
CONTINUOUS
 90
3
 70
0
 10
-29.2633121226
 20
55.8456983172
 10
-29.2942496324
 20
55.8683527333
 10
-29.3096377652
 20
55.8797038391
  0
LWPOLYLINE
  5
345
100
AcDbEntity
  8
IMPORT_IGES
100
AcDbPolyline
 62
7
  6
CONTINUOUS
 90
3
 70
0
 10
-29.3554797311
 20
55.9138529372
 10
-29.37086734
 20
55.9252036244
 10
-29.4018029601
 20
55.9478563862
  0
LWPOLYLINE
  5
346
100
AcDbEntity
  8
IMPORT_IGES
100
AcDbPolyline
 62
7
  6
CONTINUOUS
 90
16
 70
0
 10
0.7631098784
 20
-59.3339303386
 10
0.6876439731
 20
-59.4428398683
 10
0.6140890824
 20
-59.5436390262
 10
0.5424452064
 20
-59.6363278123
 10
0.4726187312
 20
-59.7205041652
 10
0.4047032706
 20
-59.7965701464
 10
0.3389796662
 20
-59.8657319402
 10
0.2754901757
 20
-59.9279811694
 10
0.2141925415
 20
-59.9833262112
 10
0.1552408319
 20
-60.0329983818
 10
0.0986673623
 20
-60.077010015
 10
0.0444398173
 20
-60.1153487771
 10
-0.00738468
 20
-60.1492089821
 10
-0.0567870887
 20
-60.1789887349
 10
-0.1037864499
 20
-60.2042899306
 10
-0.1483827634
 20
-60.2251125694
  0
LWPOLYLINE
  5
347
100
AcDbEntity
  8
IMPORT_IGES
100
AcDbPolyline
 62
7
  6
CONTINUOUS
 90
3
 70
0
 10
1.4478991188
 20
-50.529813994
 10
1.4499879675
 20
-50.5272172648
 10
1.4476534441
 20
-50.5246773312
  0
LINE
  5
348
100
AcDbEntity
  8
IMPORT_IGES
100
AcDbLine
 62
7
  6
CONTINUOUS
 10
-1.3963508509
 20
-49.746375865
 11
-1.4356203403
 21
-49.7856453544
  0
LWPOLYLINE
  5
349
100
AcDbEntity
  8
IMPORT_IGES
100
AcDbPolyline
 62
250
  6
CONTINUOUS
 90
10
 70
0
 10
-27.7816545628
 20
-50.1565375623
 10
-26.8108324291
 20
-49.6956353613
 10
-25.8508560171
 20
-49.2351853896
 10
-24.9019633869
 20
-48.7749711208
 10
-23.9646962216
 20
-48.3145209288
 10
-23.0389659393
 20
-47.8539463581
 10
-22.1240868526
 20
-47.3938642831
 10
-21.2200046457
 20
-46.9343172335
 10
-20.3272626027
 20
-46.4748511291
 10
-19.446091077
 20
-46.0152990372
  0
LINE
  5
34A
100
AcDbEntity
  8
IMPORT_IGES
100
AcDbLine
 62
7
  6
CONTINUOUS
 10
-5.4999999991
 20
-57.690255469
 11
-4.8224233339
 21
-57.0126788038
  0
LINE
  5
34B
100
AcDbEntity
  8
IMPORT_IGES
100
AcDbLine
 62
7
  6
CONTINUOUS
 10
-1.3962872631
 20
-49.7463122772
 11
-1.3914916901
 21
-49.7423954679
  0
LWPOLYLINE
  5
34C
100
AcDbEntity
  8
IMPORT_IGES
100
AcDbPolyline
 62
7
  6
CONTINUOUS
 90
10
 70
0
 10
1.2591049927
 20
-49.7390004944
 10
1.2626465279
 20
-49.7363299783
 10
1.2641174651
 20
-49.7324641427
 10
1.2614653792
 20
-49.728613907
 10
1.2546240879
 20
-49.7247723784
 10
1.2436597734
 20
-49.7209464498
 10
1.2289550894
 20
-49.7171975412
 10
1.2106375871
 20
-49.7135461258
 10
1.1885797153
 20
-49.7099717304
 10
1.162781474
 20
-49.7064743549
  0
LINE
  5
34D
100
AcDbEntity
  8
IMPORT_IGES
100
AcDbLine
 62
7
  6
CONTINUOUS
 10
-19.9407697839
 20
39.4530526272
 11
-7.4407697839
 21
39.4530526272
  0
LINE
  5
34E
100
AcDbEntity
  8
IMPORT_IGES
100
AcDbLine
 62
7
  6
CONTINUOUS
 10
-6.9999999991
 20
59.7387765453
 11
-7.1372282241
 21
59.8668319989
  0
LINE
  5
34F
100
AcDbEntity
  8
IMPORT_IGES
100
AcDbLine
 62
7
  6
CONTINUOUS
 10
-4.4540181376
 20
58.5590656388
 11
-5.4999999991
 21
59.6050475004
  0
LWPOLYLINE
  5
350
100
AcDbEntity
  8
IMPORT_IGES
100
AcDbPolyline
 62
7
  6
CONTINUOUS
 90
19
 70
0
 10
29.9615864601
 20
55.0602117072
 10
29.9497793332
 20
55.1159885837
 10
29.9347522097
 20
55.1713469372
 10
29.9165030069
 20
55.2260897309
 10
29.8949969514
 20
55.2801266442
 10
29.870288665
 20
55.333140501
 10
29.8425849415
 20
55.3846169317
 10
29.8121351408
 20
55.4341628265
 10
29.7789284818
 20
55.4818511752
 10
29.742788511
 20
55.527858362
 10
29.7035512045
 20
55.5722347836
 10
29.6615044372
 20
55.614501592
 10
29.6171809428
 20
55.6540724304
 10
29.5711264725
 20
55.6905626959
 10
29.5231893002
 20
55.7241838397
 10
29.4728583452
 20
55.7552221901
 10
29.420016782
 20
55.7835905917
 10
29.3650295435
 20
55.8089550716
 10
29.3080548371
 20
55.8311247521
  0
LWPOLYLINE
  5
351
100
AcDbEntity
  8
IMPORT_IGES
100
AcDbPolyline
 62
7
  6
CONTINUOUS
 90
4
 70
0
 10
1.4478991188
 20
-51.129813994
 10
1.4492397489
 20
-51.128839558
 10
1.4491770308
 20
-51.1257803402
 10
1.4476534441
 20
-51.1246773312
  0
LWPOLYLINE
  5
352
100
AcDbEntity
  8
IMPORT_IGES
100
AcDbPolyline
 62
7
  6
CONTINUOUS
 90
4
 70
0
 10
1.4478991188
 20
-50.829813994
 10
1.4491928115
 20
-50.8288846167
 10
1.4492409094
 20
-50.825843557
 10
1.4476534441
 20
-50.8246773312
  0
LWPOLYLINE
  5
353
100
AcDbEntity
  8
IMPORT_IGES
100
AcDbPolyline
 62
7
  6
CONTINUOUS
 90
4
 70
0
 10
1.4478991188
 20
-50.229813994
 10
1.4488073108
 20
-50.2292127122
 10
1.4495347613
 20
-50.2261763119
 10
1.4476534441
 20
-50.2246773312
  0
LINE
  5
354
100
AcDbEntity
  8
IMPORT_IGES
100
AcDbLine
 62
7
  6
CONTINUOUS
 10
-1.4340181249
 20
-49.7846437128
 11
-1.4354484427
 21
-49.7854734568
  0
LINE
  5
355
100
AcDbEntity
  8
IMPORT_IGES
100
AcDbLine
 62
7
  6
CONTINUOUS
 10
-1.1873170163
 20
-49.9240741908
 11
-1.4476534423
 21
-50.0746773312
  0
LINE
  5
356
100
AcDbEntity
  8
IMPORT_IGES
100
AcDbLine
 62
7
  6
CONTINUOUS
 10
-1.1873170163
 20
-50.2240741908
 11
-1.4476534423
 21
-50.3746773312
  0
LINE
  5
357
100
AcDbEntity
  8
IMPORT_IGES
100
AcDbLine
 62
7
  6
CONTINUOUS
 10
-1.1873170163
 20
-50.5240741908
 11
-1.4476534423
 21
-50.6746773312
  0
LINE
  5
358
100
AcDbEntity
  8
IMPORT_IGES
100
AcDbLine
 62
7
  6
CONTINUOUS
 10
-1.1873170163
 20
-50.8240741908
 11
-1.4476534423
 21
-50.9746773312
  0
LINE
  5
359
100
AcDbEntity
  8
IMPORT_IGES
100
AcDbLine
 62
7
  6
CONTINUOUS
 10
-1.1873170163
 20
-51.1240741908
 11
-1.447653443
 21
-51.2746773316
  0
LINE
  5
35A
100
AcDbEntity
  8
IMPORT_IGES
100
AcDbLine
 62
7
  6
CONTINUOUS
 10
1.1876644973
 20
-49.7803245329
 11
1.2590962083
 21
-49.7390004528
  0
LINE
  5
35B
100
AcDbEntity
  8
IMPORT_IGES
100
AcDbLine
 62
7
  6
CONTINUOUS
 10
1.1876644973
 20
-50.0803245329
 11
1.4478991188
 21
-49.929813994
  0
LINE
  5
35C
100
AcDbEntity
  8
IMPORT_IGES
100
AcDbLine
 62
7
  6
CONTINUOUS
 10
1.1876644973
 20
-50.3803245329
 11
1.4478991188
 21
-50.229813994
  0
LINE
  5
35D
100
AcDbEntity
  8
IMPORT_IGES
100
AcDbLine
 62
7
  6
CONTINUOUS
 10
1.1876644973
 20
-50.6803245329
 11
1.4478991188
 21
-50.529813994
  0
LINE
  5
35E
100
AcDbEntity
  8
IMPORT_IGES
100
AcDbLine
 62
7
  6
CONTINUOUS
 10
1.1876644973
 20
-50.9803245329
 11
1.4478991188
 21
-50.829813994
  0
LINE
  5
35F
100
AcDbEntity
  8
IMPORT_IGES
100
AcDbLine
 62
7
  6
CONTINUOUS
 10
1.1876643585
 20
-51.2803246132
 11
1.4478991188
 21
-51.129813994
  0
LINE
  5
360
100
AcDbEntity
  8
IMPORT_IGES
100
AcDbLine
 62
7
  6
CONTINUOUS
 10
-1.3914916901
 20
-49.7423954679
 11
-1.3820533455
 21
-49.7369770923
  0
LWPOLYLINE
  5
361
100
AcDbEntity
  8
IMPORT_IGES
100
AcDbPolyline
 62
7
  6
CONTINUOUS
 90
12
 70
0
 10
-1.4476534423
 20
-50.9746773312
 10
-1.4461950673
 20
-50.973933677
 10
-1.4363525859
 20
-50.9708076644
 10
-1.4205697931
 20
-50.9676553237
 10
-1.3987851294
 20
-50.964450059
 10
-1.3709919363
 20
-50.9612043249
 10
-1.3372751948
 20
-50.957942436
 10
-1.2973878166
 20
-50.9546523997
 10
-1.2513120958
 20
-50.9513411369
 10
-1.1994071253
 20
-50.948042842
 10
-1.142054315
 20
-50.9447878255
 10
-1.0795263141
 20
-50.9415983023
  0
LWPOLYLINE
  5
362
100
AcDbEntity
  8
IMPORT_IGES
100
AcDbPolyline
 62
250
  6
CONTINUOUS
 90
10
 70
0
 10
-29.9615871826
 20
55.0602124501
 10
-29.0858712599
 20
54.7926059972
 10
-28.2110989421
 20
54.5191585199
 10
-27.3372702294
 20
54.2398700182
 10
-26.4643655298
 20
53.9547339559
 10
-25.5924044351
 20
53.6637568692
 10
-24.7214457212
 20
53.3669583671
 10
-23.8515089799
 20
53.0643449859
 10
-22.9825746194
 20
52.7559101893
 10
-22.1146426397
 20
52.4416539772
  0
LWPOLYLINE
  5
363
100
AcDbEntity
  8
IMPORT_IGES
100
AcDbPolyline
 62
250
  6
CONTINUOUS
 90
10
 70
0
 10
-21.389691774
 20
53.2107036447
 10
-22.2531089885
 20
53.5211302933
 10
-23.1206877672
 20
53.8268031647
 10
-23.9923904979
 20
54.1277014808
 10
-24.8681432505
 20
54.4238261613
 10
-25.7479440085
 20
54.7151372388
 10
-26.631862992
 20
55.0015505439
 10
-27.5198981963
 20
55.2830226921
 10
-28.411975088
 20
55.5595544047
 10
-29.3080550551
 20
55.8311256016
  0
LWPOLYLINE
  5
364
100
AcDbEntity
  8
IMPORT_IGES
100
AcDbPolyline
 62
7
  6
CONTINUOUS
 90
25
 70
0
 10
19.4460910976
 20
-46.0152990727
 10
19.6692243402
 20
-45.8893174593
 10
19.8807121566
 20
-45.7586070684
 10
20.0805545468
 20
-45.6231679002
 10
20.267876562
 20
-45.4832148821
 10
20.443553151
 20
-45.3385330866
 10
20.6102091602
 20
-45.1884777311
 10
20.7683155749
 20
-45.0333023964
 10
20.9174014098
 20
-44.8727535017
 10
21.0586785559
 20
-44.7054255213
 10
21.1929913496
 20
-44.5303384949
 10
21.3194954545
 20
-44.3484723827
 10
21.4368697524
 20
-44.1613615402
 10
21.5449337229
 20
-43.9685800787
 10
21.6438678864
 20
-43.7705538869
 10
21.7328926863
 20
-43.5700949865
 10
21.811334899
 20
-43.3689458049
 10
21.8798677481
 20
-43.1653639147
 10
21.9397313476
 20
-42.9569340556
 10
21.9915130053
 20
-42.7435883247
 10
22.0346254133
 20
-42.5253946248
 10
22.068546762
 20
-42.3001414049
 10
22.0931031146
 20
-42.0670914812
 10
22.1084684077
 20
-41.8269820376
 10
22.1146426415
 20
-41.5798130739
  0
LWPOLYLINE
  5
365
100
AcDbEntity
  8
IMPORT_IGES
100
AcDbPolyline
 62
7
  6
CONTINUOUS
 90
10
 70
0
 10
1.1876646541
 20
-51.2803244422
 10
1.186856579
 20
-51.2807587183
 10
1.1779827199
 20
-51.283792965
 10
1.1637103559
 20
-51.2868102764
 10
1.1438561216
 20
-51.2899152854
 10
1.1183570975
 20
-51.2931570158
 10
1.0874454956
 20
-51.2964855579
 10
1.0511820505
 20
-51.2998777122
 10
1.0094390243
 20
-51.3033479365
 10
0.9621918814
 20
-51.3068939623
  0
LWPOLYLINE
  5
366
100
AcDbEntity
  8
IMPORT_IGES
100
AcDbPolyline
 62
7
  6
CONTINUOUS
 90
12
 70
0
 10
1.1876644973
 20
-50.9803245329
 10
1.1853368137
 20
-50.9814480003
 10
1.1752212456
 20
-50.9844747406
 10
1.1597607518
 20
-50.9874933995
 10
1.138959917
 20
-50.9905847555
 10
1.1127361287
 20
-50.993801647
 10
1.0813163528
 20
-50.9970947016
 10
1.0452739421
 20
-51.0004014317
 10
1.0047873111
 20
-51.0037215505
 10
0.9592978297
 20
-51.0070997522
 10
0.9086569349
 20
-51.0105325037
 10
0.8533111964
 20
-51.013981285
  0
LWPOLYLINE
  5
367
100
AcDbEntity
  8
IMPORT_IGES
100
AcDbPolyline
 62
7
  6
CONTINUOUS
 90
12
 70
0
 10
1.1876644973
 20
-50.6803245329
 10
1.1853153861
 20
-50.6814568563
 10
1.1752675932
 20
-50.6844638328
 10
1.1598968023
 20
-50.6874705508
 10
1.1391050724
 20
-50.6905652587
 10
1.1128965061
 20
-50.6937835041
 10
1.0813491768
 20
-50.6970914936
 10
1.0445345623
 20
-50.7004653523
 10
1.0027445401
 20
-50.7038804226
 10
0.9562595712
 20
-50.7073145759
 10
0.9051329328
 20
-50.7107606752
 10
0.849844044
 20
-50.714188504
  0
LWPOLYLINE
  5
368
100
AcDbEntity
  8
IMPORT_IGES
100
AcDbPolyline
 62
7
  6
CONTINUOUS
 90
12
 70
0
 10
1.1876644973
 20
-50.0803245329
 10
1.184844558
 20
-50.0816466504
 10
1.1744299164
 20
-50.0846584946
 10
1.1586035138
 20
-50.0876859084
 10
1.1371339857
 20
-50.0908280972
 10
1.1099179408
 20
-50.0941179134
 10
1.0773623276
 20
-50.0974781652
 10
1.040131577
 20
-50.1008431908
 10
0.998421191
 20
-50.1042142413
 10
0.9519698459
 20
-50.1076158107
 10
0.9010128767
 20
-50.1110258484
 10
0.845888034
 20
-50.1144237755
  0
LWPOLYLINE
  5
369
100
AcDbEntity
  8
IMPORT_IGES
100
AcDbPolyline
 62
7
  6
CONTINUOUS
 90
12
 70
0
 10
1.1876644973
 20
-50.3803245329
 10
1.1844863481
 20
-50.3817853879
 10
1.1739015538
 20
-50.3847786867
 10
1.1580627963
 20
-50.387774765
 10
1.136798445
 20
-50.3908724374
 10
1.1101529754
 20
-50.3940917182
 10
1.0783954442
 20
-50.3973785352
 10
1.0416987625
 20
-50.4007092487
 10
1.0001023626
 20
-50.4040848193
 10
0.9539579544
 20
-50.4074765001
 10
0.9034381191
 20
-50.410869962
 10
0.848140611
 20
-50.4142899616
  0
LWPOLYLINE
  5
36A
100
AcDbEntity
  8
IMPORT_IGES
100
AcDbPolyline
 62
7
  6
CONTINUOUS
 90
12
 70
0
 10
1.1876644973
 20
-49.7803245329
 10
1.1831908382
 20
-49.7822532961
 10
1.1716265168
 20
-49.785275758
 10
1.1544895022
 20
-49.7883459629
 10
1.1318291501
 20
-49.7915162018
 10
1.1039881034
 20
-49.7947683964
 10
1.0710084926
 20
-49.7980825485
 10
1.0327220445
 20
-49.8014686036
 10
0.9892475608
 20
-49.8049120627
 10
0.9408938593
 20
-49.8083827153
 10
0.8876036916
 20
-49.8118774043
 10
0.8295865587
 20
-49.8153805371
  0
LWPOLYLINE
  5
36B
100
AcDbEntity
  8
IMPORT_IGES
100
AcDbPolyline
 62
7
  6
CONTINUOUS
 90
12
 70
0
 10
-1.4476534423
 20
-50.3746773312
 10
-1.4423002374
 20
-50.3724612747
 10
-1.4292665832
 20
-50.3692496686
 10
-1.4095807668
 20
-50.3659346023
 10
-1.3832706255
 20
-50.3625569083
 10
-1.3503768026
 20
-50.3591443487
 10
-1.3109537084
 20
-50.3557183375
 10
-1.2652768063
 20
-50.352300525
 10
-1.2138034292
 20
-50.3489197432
 10
-1.1569358027
 20
-50.3455989474
 10
-1.0951354173
 20
-50.3423637111
 10
-1.0292385205
 20
-50.3392577901
  0
LWPOLYLINE
  5
36C
100
AcDbEntity
  8
IMPORT_IGES
100
AcDbPolyline
 62
7
  6
CONTINUOUS
 90
12
 70
0
 10
-1.4476534423
 20
-50.0746773312
 10
-1.4419083486
 20
-50.0723362412
 10
-1.4286786438
 20
-50.0691328678
 10
-1.4091313415
 20
-50.065869296
 10
-1.3832799325
 20
-50.0625579768
 10
-1.351240164
 20
-50.0592261964
 10
-1.3129842776
 20
-50.0558821759
 10
-1.2687621584
 20
-50.0525455176
 10
-1.2189116071
 20
-50.049237446
 10
-1.1636020704
 20
-50.0459694999
 10
-1.1029824842
 20
-50.0427559267
 10
-1.0378734223
 20
-50.0396466857
  0
LWPOLYLINE
  5
36D
100
AcDbEntity
  8
IMPORT_IGES
100
AcDbPolyline
 62
7
  6
CONTINUOUS
 90
12
 70
0
 10
-1.4476534423
 20
-50.6746773312
 10
-1.4399058329
 20
-50.6717391975
 10
-1.4255567173
 20
-50.6685368223
 10
-1.4051925454
 20
-50.6653108903
 10
-1.3788227066
 20
-50.6620541448
 10
-1.3466016404
 20
-50.6587904735
 10
-1.3086502953
 20
-50.6555338883
 10
-1.2647142832
 20
-50.6522611987
 10
-1.2147057912
 20
-50.6489756087
 10
-1.1590568777
 20
-50.6457163546
 10
-1.0982609028
 20
-50.6425193242
 10
-1.0326847997
 20
-50.639412386
  0
LWPOLYLINE
  5
36E
100
AcDbEntity
  8
IMPORT_IGES
100
AcDbPolyline
 62
7
  6
CONTINUOUS
 90
11
 70
0
 10
-1.4476534439
 20
-51.2746773311
 10
-1.4387258215
 20
-51.271414388
 10
-1.4238352646
 20
-51.2682236393
 10
-1.4027763858
 20
-51.2649798248
 10
-1.3756574114
 20
-51.2617054813
 10
-1.3423394668
 20
-51.2583984711
 10
-1.3028150775
 20
-51.2550730713
 10
-1.2573897022
 20
-51.251754424
 10
-1.2062651186
 20
-51.2484572494
 10
-1.1497173437
 20
-51.2452027817
 10
-1.0881564797
 20
-51.2420190959
  0
LWPOLYLINE
  5
36F
100
AcDbEntity
  8
IMPORT_IGES
100
AcDbPolyline
 62
7
  6
CONTINUOUS
 90
16
 70
0
 10
0.8112387673
 20
-60.2251125694
 10
0.8490079435
 20
-60.2042899242
 10
0.887711775
 20
-60.178988722
 10
0.9273502618
 20
-60.1492089629
 10
0.9680729719
 20
-60.1153487513
 10
1.0097303374
 20
-60.0770099827
 10
1.0518736541
 20
-60.0329983438
 10
1.094539281
 20
-59.9833261686
 10
1.1376908591
 20
-59.9279811232
 10
1.1807706069
 20
-59.8657318925
 10
1.2238180354
 20
-59.7965700992
 10
1.2667936336
 20
-59.7205041206
 10
1.309021087
 20
-59.6363277736
 10
1.3502749577
 20
-59.543638997
 10
1.3907806836
 20
-59.4428398521
 10
1.4305382648
 20
-59.3339303386
  0
LINE
  5
370
100
AcDbEntity
  8
IMPORT_IGES
100
AcDbLine
 62
7
  6
CONTINUOUS
 10
27.8582909602
 20
-50.1042966411
 11
27.7816545646
 21
-50.1565375623
  0
LWPOLYLINE
  5
371
100
AcDbEntity
  8
IMPORT_IGES
100
AcDbPolyline
 62
7
  6
CONTINUOUS
 90
25
 70
0
 10
-0.1483827634
 20
-60.2251125694
 10
-0.1604527451
 20
-60.229955904
 10
-0.1738809543
 20
-60.2343063799
 10
-0.1884660975
 20
-60.2381639971
 10
-0.2038575585
 20
-60.2414937188
 10
-0.2200081216
 20
-60.2443305818
 10
-0.2372965318
 20
-60.2467796965
 10
-0.2558445022
 20
-60.2488828786
 10
-0.2754208959
 20
-60.2505983124
 10
-0.2959841385
 20
-60.2519056614
 10
-0.317541033
 20
-60.2527989019
 10
-0.3399438743
 20
-60.2532840576
 10
-0.3628968294
 20
-60.2533588633
 10
-0.3862712752
 20
-60.253007767
 10
-0.409995598
 20
-60.2522463207
 10
-0.4338309483
 20
-60.2511189148
 10
-0.4575960526
 20
-60.2496260946
 10
-0.4812765283
 20
-60.2477673147
 10
-0.5048837563
 20
-60.2455853297
 10
-0.5281393067
 20
-60.2431195412
 10
-0.5511617643
 20
-60.2403305477
 10
-0.5745586502
 20
-60.2371428987
 10
-0.5984654406
 20
-60.2335314443
 10
-0.6225521265
 20
-60.2295213345
 10
-0.6467055347
 20
-60.2251125694
  0
LWPOLYLINE
  5
372
100
AcDbEntity
  8
IMPORT_IGES
100
AcDbPolyline
 62
7
  6
CONTINUOUS
 90
10
 70
0
 10
29.263311116
 20
55.8456986365
 10
29.2683249165
 20
55.8441883266
 10
29.2733288157
 20
55.8426505338
 10
29.2783226775
 20
55.8410853029
 10
29.2833068372
 20
55.8394925268
 10
29.2882806858
 20
55.8378723991
 10
29.2932426781
 20
55.8362254384
 10
29.2981922168
 20
55.8345518742
 10
29.3031296454
 20
55.8328516218
 10
29.3080548371
 20
55.8311247521
  0
LWPOLYLINE
  5
373
100
AcDbEntity
  8
IMPORT_IGES
100
AcDbPolyline
 62
7
  6
CONTINUOUS
 90
19
 70
0
 10
29.4018035709
 20
55.9478547353
 10
29.4697283182
 20
55.9247645069
 10
29.5351947925
 20
55.8972767853
 10
29.5982029936
 20
55.8653915706
 10
29.6590393454
 20
55.8289036875
 10
29.717417424
 20
55.7880183113
 10
29.7724779585
 20
55.7433509681
 10
29.8241732121
 20
55.6948471738
 10
29.8725509215
 20
55.6425614126
 10
29.9168950259
 20
55.5872726621
 10
29.9571471097
 20
55.5289374423
 10
29.9933655885
 20
55.4675992332
 10
30.0250096481
 20
55.4041674538
 10
30.0520133452
 20
55.3386120179
 10
30.0744426231
 20
55.2709630115
 10
30.0919544967
 20
55.202220112
 10
30.1044346377
 20
55.1327165452
 10
30.1119973746
 20
55.0621190853
 10
30.1146427072
 20
54.9904277324
  0
ARC
  5
374
100
AcDbEntity
  8
IMPORT_IGES
100
AcDbCircle
 62
7
  6
CONTINUOUS
 10
-0.0000260939
 20
-42.2899637767
 40
102.5433216231
100
AcDbArc
 50
80.0850189424
 51
83.2678798757
  0
ARC
  5
375
100
AcDbEntity
  8
IMPORT_IGES
100
AcDbCircle
 62
7
  6
CONTINUOUS
 10
-0.0000260938
 20
-42.2899637741
 40
102.268588611
100
AcDbArc
 50
86.0751801373
 51
93.9247906923
  0
ARC
  5
376
100
AcDbEntity
  8
IMPORT_IGES
100
AcDbCircle
 62
7
  6
CONTINUOUS
 10
-0.0000260939
 20
-42.2899637763
 40
97.8667334103
100
AcDbArc
 50
77.3755522881
 51
85.8983567311
  0
ARC
  5
377
100
AcDbEntity
  8
IMPORT_IGES
100
AcDbCircle
 62
7
  6
CONTINUOUS
 10
-0.0182856896
 20
-9.3417053534
 40
49.5102750161
100
AcDbArc
 50
270.0211611209
 51
275.8174025433
  0
ARC
  5
378
100
AcDbEntity
  8
IMPORT_IGES
100
AcDbCircle
 62
7
  6
CONTINUOUS
 10
-25.1146427055
 20
-46.0897570529
 40
5.0
100
AcDbArc
 50
180.0
 51
235.6502103496
  0
CIRCLE
  5
379
100
AcDbEntity
  8
IMPORT_IGES
100
AcDbCircle
 62
7
  6
CONTINUOUS
 10
-14.9449796943
 20
-33.1223302232
 40
4.25
  0
CIRCLE
  5
37A
100
AcDbEntity
  8
IMPORT_IGES
100
AcDbCircle
 62
7
  6
CONTINUOUS
 10
-14.9449796943
 20
-33.1223302232
 40
3.25
  0
ARC
  5
37B
100
AcDbEntity
  8
IMPORT_IGES
100
AcDbCircle
 62
7
  6
CONTINUOUS
 10
-7.4407697839
 20
-25.0469473728
 40
1.5
100
AcDbArc
 50
270.0000000002
 51
359.9999999999
  0
ARC
  5
37C
100
AcDbEntity
  8
IMPORT_IGES
100
AcDbCircle
 62
7
  6
CONTINUOUS
 10
-19.9407697839
 20
-25.0469473728
 40
1.5
100
AcDbArc
 50
180.0000000003
 51
269.9999999997
  0
CIRCLE
  5
37D
100
AcDbEntity
  8
IMPORT_IGES
100
AcDbCircle
 62
7
  6
CONTINUOUS
 10
-14.9449796943
 20
46.0284355221
 40
4.25
  0
CIRCLE
  5
37E
100
AcDbEntity
  8
IMPORT_IGES
100
AcDbCircle
 62
7
  6
CONTINUOUS
 10
-14.9449796943
 20
46.0284355221
 40
3.25
  0
ARC
  5
37F
100
AcDbEntity
  8
IMPORT_IGES
100
AcDbCircle
 62
7
  6
CONTINUOUS
 10
-19.9407697839
 20
37.9530526272
 40
1.5
100
AcDbArc
 50
89.9999999999
 51
179.9999999998
  0
ARC
  5
380
100
AcDbEntity
  8
IMPORT_IGES
100
AcDbCircle
 62
7
  6
CONTINUOUS
 10
-7.4407697839
 20
37.9530526272
 40
1.5
100
AcDbArc
 50
0.0
 51
90.0000000002
  0
ARC
  5
381
100
AcDbEntity
  8
IMPORT_IGES
100
AcDbCircle
 62
7
  6
CONTINUOUS
 10
0.0000260957
 20
-42.2899637765
 40
102.5433418217
100
AcDbArc
 50
73.3379873939
 51
106.6620399519
  0
ARC
  5
382
100
AcDbEntity
  8
IMPORT_IGES
100
AcDbCircle
 62
7
  6
CONTINUOUS
 10
0.0000260956
 20
-42.2899637763
 40
102.4058151496
100
AcDbArc
 50
73.3958040647
 51
106.6041959353
  0
ARC
  5
383
100
AcDbEntity
  8
IMPORT_IGES
100
AcDbCircle
 62
7
  6
CONTINUOUS
 10
0.0000260957
 20
-42.2899637744
 40
101.0433418076
100
AcDbArc
 50
87.4213658907
 51
92.5786639865
  0
ARC
  5
384
100
AcDbEntity
  8
IMPORT_IGES
100
AcDbCircle
 62
7
  6
CONTINUOUS
 10
0.0000260957
 20
-42.289963777
 40
100.947338954
100
AcDbArc
 50
87.4711786054
 51
92.5288513239
  0
ARC
  5
385
100
AcDbEntity
  8
IMPORT_IGES
100
AcDbCircle
 62
7
  6
CONTINUOUS
 10
0.0000260957
 20
-42.2899637763
 40
97.8667334103
100
AcDbArc
 50
94.1016432689
 51
102.6244453753
  0
ARC
  5
386
100
AcDbEntity
  8
IMPORT_IGES
100
AcDbCircle
 62
7
  6
CONTINUOUS
 10
0.0000000009
 20
-55.3339303388
 40
4.9999999999
100
AcDbArc
 50
233.1301023533
 51
244.7176400257
  0
ARC
  5
387
100
AcDbEntity
  8
IMPORT_IGES
100
AcDbCircle
 62
7
  6
CONTINUOUS
 10
0.0000000009
 20
-55.3339303388
 40
4.9999999999
100
AcDbArc
 50
285.8175126805
 51
306.8698976465
  0
CIRCLE
  5
388
100
AcDbEntity
  8
IMPORT_IGES
100
AcDbCircle
 62
7
  6
CONTINUOUS
 10
0.0201060009
 20
-40.8753078526
 40
1.3273471932
  0
CIRCLE
  5
389
100
AcDbEntity
  8
IMPORT_IGES
100
AcDbCircle
 62
7
  6
CONTINUOUS
 10
0.0201060009
 20
-40.8753078526
 40
0.7499994965
  0
ARC
  5
38A
100
AcDbEntity
  8
IMPORT_IGES
100
AcDbCircle
 62
7
  6
CONTINUOUS
 10
0.0182856913
 20
-9.3417053534
 40
49.5102750161
100
AcDbArc
 50
264.1826249793
 51
269.9788388791
  0
ARC
  5
38B
100
AcDbEntity
  8
IMPORT_IGES
100
AcDbCircle
 62
7
  6
CONTINUOUS
 10
0.0000000009
 20
-9.3417053556
 40
49.5102750139
100
AcDbArc
 50
235.6502103495
 51
264.1088098245
  0
ARC
  5
38C
100
AcDbEntity
  8
IMPORT_IGES
100
AcDbCircle
 62
7
  6
CONTINUOUS
 10
0.0000000009
 20
-9.3417053556
 40
49.5102750139
100
AcDbArc
 50
275.933738757
 51
304.3497896505
  0
ARC
  5
38D
100
AcDbEntity
  8
IMPORT_IGES
100
AcDbCircle
 62
7
  6
CONTINUOUS
 10
0.0000000009
 20
-9.3417053556
 40
49.5102750139
100
AcDbArc
 50
275.7962680941
 51
275.933738757
  0
ARC
  5
38E
100
AcDbEntity
  8
IMPORT_IGES
100
AcDbCircle
 62
7
  6
CONTINUOUS
 10
0.0000000009
 20
-9.3417053556
 40
49.5102750139
100
AcDbArc
 50
264.1088098245
 51
264.2037319059
  0
ARC
  5
38F
100
AcDbEntity
  8
IMPORT_IGES
100
AcDbCircle
 62
7
  6
CONTINUOUS
 10
0.0000000009
 20
-9.3417053556
 40
49.3727744649
100
AcDbArc
 50
278.311697584
 51
304.2421577396
  0
ARC
  5
390
100
AcDbEntity
  8
IMPORT_IGES
100
AcDbCircle
 62
7
  6
CONTINUOUS
 10
0.0000000009
 20
-9.3417053556
 40
49.3727744648
100
AcDbArc
 50
235.7578422604
 51
261.688302416
  0
ARC
  5
391
100
AcDbEntity
  8
IMPORT_IGES
100
AcDbCircle
 62
7
  6
CONTINUOUS
 10
0.0000000009
 20
-9.3417053556
 40
49.0982076233
100
AcDbArc
 50
261.8033310969
 51
278.1966689031
  0
ARC
  5
392
100
AcDbEntity
  8
IMPORT_IGES
100
AcDbCircle
 62
7
  6
CONTINUOUS
 10
0.0000000009
 20
-9.3417053556
 40
48.0102748608
100
AcDbArc
 50
264.1301187577
 51
275.8698813114
  0
ARC
  5
393
100
AcDbEntity
  8
IMPORT_IGES
100
AcDbCircle
 62
7
  6
CONTINUOUS
 10
0.0000000009
 20
-9.3417053559
 40
47.9142721562
100
AcDbArc
 50
273.2802559619
 51
275.7764235834
  0
ARC
  5
394
100
AcDbEntity
  8
IMPORT_IGES
100
AcDbCircle
 62
7
  6
CONTINUOUS
 10
0.0000000009
 20
-9.3417053559
 40
47.9142721562
100
AcDbArc
 50
264.223576486
 51
266.7634986692
  0
ARC
  5
395
100
AcDbEntity
  8
IMPORT_IGES
100
AcDbCircle
 62
7
  6
CONTINUOUS
 10
0.0000000008
 20
-9.3417053557
 40
41.508897589
100
AcDbArc
 50
242.0653286832
 51
260.2916547907
  0
ARC
  5
396
100
AcDbEntity
  8
IMPORT_IGES
100
AcDbCircle
 62
7
  6
CONTINUOUS
 10
0.0000000009
 20
-9.3417053557
 40
41.508897589
100
AcDbArc
 50
279.7083452093
 51
297.9346713168
  0
ARC
  5
397
100
AcDbEntity
  8
IMPORT_IGES
100
AcDbCircle
 62
7
  6
CONTINUOUS
 10
25.1146427072
 20
-46.0897570529
 40
5.0
100
AcDbArc
 50
304.3497896504
 51
360.0
  0
CIRCLE
  5
398
100
AcDbEntity
  8
IMPORT_IGES
100
AcDbCircle
 62
7
  6
CONTINUOUS
 10
14.944979696
 20
-33.1223302232
 40
4.25
  0
CIRCLE
  5
399
100
AcDbEntity
  8
IMPORT_IGES
100
AcDbCircle
 62
7
  6
CONTINUOUS
 10
14.944979696
 20
-33.1223302232
 40
3.25
  0
CIRCLE
  5
39A
100
AcDbEntity
  8
IMPORT_IGES
100
AcDbCircle
 62
7
  6
CONTINUOUS
 10
20.0201060009
 20
-39.3753078526
 40
1.2593324377
  0
CIRCLE
  5
39B
100
AcDbEntity
  8
IMPORT_IGES
100
AcDbCircle
 62
7
  6
CONTINUOUS
 10
20.0201060009
 20
-39.3753078526
 40
0.6819844845
  0
CIRCLE
  5
39C
100
AcDbEntity
  8
IMPORT_IGES
100
AcDbCircle
 62
7
  6
CONTINUOUS
 10
20.0201060009
 20
-24.3753078526
 40
1.2593324377
  0
CIRCLE
  5
39D
100
AcDbEntity
  8
IMPORT_IGES
100
AcDbCircle
 62
7
  6
CONTINUOUS
 10
20.0201060009
 20
-24.3753078526
 40
0.6819844845
  0
ARC
  5
39E
100
AcDbEntity
  8
IMPORT_IGES
100
AcDbCircle
 62
7
  6
CONTINUOUS
 10
15.3193405961
 20
-0.7964917922
 40
5.2500005666
100
AcDbArc
 50
177.1761481036
 51
2.6224668372
  0
ARC
  5
39F
100
AcDbEntity
  8
IMPORT_IGES
100
AcDbCircle
 62
7
  6
CONTINUOUS
 10
15.3365989839
 20
8.2034922265
 40
5.2498627489
100
AcDbArc
 50
177.1760813237
 51
2.6225324279
  0
CIRCLE
  5
3A0
100
AcDbEntity
  8
IMPORT_IGES
100
AcDbCircle
 62
7
  6
CONTINUOUS
 10
14.944979696
 20
46.0284355221
 40
4.25
  0
ARC
  5
3A1
100
AcDbEntity
  8
IMPORT_IGES
100
AcDbCircle
 62
7
  6
CONTINUOUS
 10
15.3193405961
 20
-0.7964917922
 40
3.75
100
AcDbArc
 50
176.0668946747
 51
3.6945451775
  0
ARC
  5
3A2
100
AcDbEntity
  8
IMPORT_IGES
100
AcDbCircle
 62
7
  6
CONTINUOUS
 10
15.3365989839
 20
8.2034922265
 40
3.75
100
AcDbArc
 50
176.066903257
 51
258.3531706006
  0
ARC
  5
3A3
100
AcDbEntity
  8
IMPORT_IGES
100
AcDbCircle
 62
7
  6
CONTINUOUS
 10
15.3365989839
 20
8.2034922265
 40
3.75
100
AcDbArc
 50
281.4270886663
 51
3.6945385428
  0
CIRCLE
  5
3A4
100
AcDbEntity
  8
IMPORT_IGES
100
AcDbCircle
 62
7
  6
CONTINUOUS
 10
14.944979696
 20
46.0284355221
 40
3.25
  0
ELLIPSE
  5
3A5
100
AcDbEntity
  8
IMPORT_IGES
100
AcDbEllipse
 62
7
  6
CONTINUOUS
 10
0.0000000009
 20
-49.7469175521
 30
0.0
 11
1.3949728846
 21
0.0
 31
0.0
 40
0.0524798988
 41
0.5852910945
 42
3.005388182
  0
ELLIPSE
  5
3A6
100
AcDbEntity
  8
IMPORT_IGES
100
AcDbEllipse
 62
7
  6
CONTINUOUS
 10
0.0000000009
 20
-56.0423489278
 30
0.0
 11
5.0
 21
0.0
 31
0.0
 40
0.0087268678
 41
4.14111344
 42
5.2928727636
  0
ENDSEC
  0
SECTION
  2
OBJECTS
  0
DICTIONARY
  5
C
100
AcDbDictionary
280
0
281
1
  3
ACAD_GROUP
350
D
  3
ACAD_MLINESTYLE
350
17
  3
ACAD_LAYOUT
350
1A
  3
ACAD_PLOTSETTINGS
350
19
  3
ACAD_PLOTSTYLENAME
350
E
  0
DICTIONARY
  5
D
102
{ACAD_REACTORS
330
C
102
}
100
AcDbDictionary
280
0
281
1
  0
ACDBDICTIONARYWDFLT
  5
E
102
{ACAD_REACTORS
330
C
102
}
100
AcDbDictionary
281
1
  3
Normal
350
F
100
AcDbDictionaryWithDefault
340
F
  0
DICTIONARY
  5
17
102
{ACAD_REACTORS
330
C
102
}
100
AcDbDictionary
280
0
281
1
  3
Standard
350
18
  0
DICTIONARY
  5
19
102
{ACAD_REACTORS
330
C
102
}
100
AcDbDictionary
281
1
  0
DICTIONARY
  5
1A
102
{ACAD_REACTORS
330
C
102
}
100
AcDbDictionary
281
1
  3
Model
350
3A7
  3
Layout1
350
3A8
  0
ACDBPLACEHOLDER
  5
F
102
{ACAD_REACTORS
330
E
102
}
  0
MLINESTYLE
  5
18
102
{ACAD_REACTORS
330
17
102
}
100
AcDbMlineStyle
  2
STANDARD
 70
0
  3

 62
256
 51
90.0
 52
90.0
 71
2
 49
0.5
 62
256
  6
BYLAYER
 49
-0.5
 62
256
  6
BYLAYER
  0
LAYOUT
  5
3A7
102
{ACAD_REACTORS
330
1A
102
}
100
AcDbPlotSettings
  1

  2
none_device
  4
ISO_A4_(297.00_x_210.00_MM)
  6

 40
0.0
 41
0.0
 42
0.0
 43
0.0
 44
297.0
 45
210.0
 46
0.0
 47
0.0
 48
0.0
 49
0.0
140
0.0
141
0.0
142
1.0
143
1.0
 70
1024
 72
1
 73
0
 74
0
  7

 75
0
147
1.0
148
0.0
149
0.0
100
AcDbLayout
  1
Model
 70
0
 71
0
 10
0.0
 20
0.0
 11
297.0
 21
210.0
 12
0.0
 22
0.0
 32
0.0
 14
0.0
 24
0.0
 34
0.0
 15
0.0
 25
0.0
 35
0.0
146
0.0
 13
0.0
 23
0.0
 33
0.0
 16
1.0
 26
0.0
 36
0.0
 17
0.0
 27
1.0
 37
0.0
 76
0
330
251
345
0
346
0
  0
LAYOUT
  5
3A8
102
{ACAD_REACTORS
330
1A
102
}
100
AcDbPlotSettings
  1

  2
none_device
  4
ISO_A4_(297.00_x_210.00_MM)
  6

 40
0.0
 41
0.0
 42
0.0
 43
0.0
 44
297.0
 45
210.0
 46
0.0
 47
0.0
 48
0.0
 49
0.0
140
0.0
141
0.0
142
1.0
143
1.0
 70
0
 72
1
 73
0
 74
0
  7

 75
0
147
1.0
148
0.0
149
0.0
100
AcDbLayout
  1
Layout1
 70
0
 71
1
 10
0.0
 20
0.0
 11
297.0
 21
210.0
 12
0.0
 22
0.0
 32
0.0
 14
0.0
 24
0.0
 34
0.0
 15
0.0
 25
0.0
 35
0.0
146
0.0
 13
0.0
 23
0.0
 33
0.0
 16
1.0
 26
0.0
 36
0.0
 17
0.0
 27
1.0
 37
0.0
 76
0
330
252
345
0
346
0
  0
ENDSEC
  0
EOF
