  0
SECTION
  2
HEADER
  9
$ACADVER
  1
AC1021
  9
$DWGCODEPAGE
  3
ANSI_1252
  9
$EXTMAX
 10
297.0
 20
210.0
 30
0.0
  9
$EXTMIN
 10
0.0
 20
0.0
 30
0.0
  9
$LIMMIN
 10
0.0
 20
0.0
  9
$LIMMAX
 10
297.0
 20
210.0
  9
$VIEWCTR
 10
148.5
 20
105.0
  9
$VIEWSIZE
 40
210.0
  9
$CLAYER
  8
0
  9
$LTSCALE
 40
16.335
  9
$CELTYPE
  6
BYLAYER
  9
$DIMSCALE
 40
1.0
  9
$DIMASZ
 40
3.0
  9
$DIMEXO
 40
0.5
  9
$DIMDLI
 40
11.286
  9
$DIMEXE
 40
1.5
  9
$DIMCEN
 40
2.673
  9
$DIMLFAC
 40
1.0
  9
$DIMBLK
  1
_FILLED
  9
$DIMALT
 70
0
  9
$DIMALTF
 40
0.0393700787
  9
$DIMTXT
 40
3.0
  9
$DIMTOL
 70
1
  9
$DIMLIM
 70
0
  9
$DIMTFAC
 40
1.0
  9
$DIMTP
 40
0.01
  9
$DIMTM
 40
0.01
  9
$DIMGAP
 40
0.625
  9
$DIMDSEP
 70
44
  9
$AUNITS
 70
0
  9
$PDMODE
 70
3
  9
$PDSIZE
 40
3.0
  9
$HANDSEED
  5
4F4
  9
$TILEMODE
 70
1
  9
$MEASUREMENT
 70
1
  9
$INSUNITS
 70
4
  0
ENDSEC
  0
SECTION
  2
CLASSES
  0
CLASS
  1
ACDBDICTIONARYWDFLT
  2
AcDbDictionaryWithDefault
  3
AutoCAD 2000
 90
0
 91
1
280
0
281
0
  0
CLASS
  1
ACDBPLACEHOLDER
  2
AcDbPlaceHolder
  3
AutoCAD 2000
 90
0
 91
1
280
0
281
0
  0
CLASS
  1
LAYOUT
  2
AcDbLayout
  3
AutoCAD 2000
 90
0
 91
0
280
0
281
0
  0
ENDSEC
  0
SECTION
  2
TABLES
  0
TABLE
  2
VPORT
  5
8
100
AcDbSymbolTable
 70
2
  0
VPORT
  5
1F4
100
AcDbSymbolTableRecord
100
AcDbViewportTableRecord
  2
*ACTIVE
 70
0
 10
0.0
 20
0.0
 11
1.0
 21
1.0
 12
148.5
 22
105.0
 13
0.0
 23
0.0
 14
1.0
 24
1.0
 15
0.0
 25
0.0
 16
0.0
 26
0.0
 36
1.0
 17
0.0
 27
0.0
 37
0.0
 40
210.0
 41
1.4142857143
 42
50.0
 43
0.0
 44
0.0
 50
0.0
 51
0.0
 71
0
 72
100
 73
1
 74
1
 75
0
 76
0
 77
0
 78
0
  0
ENDTAB
  0
TABLE
  2
LTYPE
  5
5
100
AcDbSymbolTable
 70
6
  0
LTYPE
  5
14
100
AcDbSymbolTableRecord
100
AcDbLinetypeTableRecord
  2
BYBLOCK
 70
0
  3

 72
65
 73
0
 40
0.0
  0
LTYPE
  5
15
100
AcDbSymbolTableRecord
100
AcDbLinetypeTableRecord
  2
BYLAYER
 70
0
  3

 72
65
 73
0
 40
0.0
  0
LTYPE
  5
16
100
AcDbSymbolTableRecord
100
AcDbLinetypeTableRecord
  2
CONTINUOUS
 70
64
  3
Solid line
 72
65
 73
0
 40
0.0
  0
LTYPE
  5
1F5
100
AcDbSymbolTableRecord
100
AcDbLinetypeTableRecord
  2
CENTER
 70
64
  3
____ _ ____ _ ____ _ ____ _ ____ _ ____ _ ____
 72
65
 73
4
 40
0.6
 49
0.375
 74
0
 49
-0.075
 74
0
 49
0.075
 74
0
 49
-0.075
 74
0
  0
LTYPE
  5
1F6
100
AcDbSymbolTableRecord
100
AcDbLinetypeTableRecord
  2
HIDDEN
 70
64
  3
- - - - - - - - - - - - - - - - - - - -
 72
65
 73
2
 40
0.2
 49
0.1
 74
0
 49
-0.1
 74
0
  0
LTYPE
  5
1F7
100
AcDbSymbolTableRecord
100
AcDbLinetypeTableRecord
  2
PHANTOM
 70
64
  3
_____ _ _ _____ _ _ _____ _ _ _____
 72
65
 73
6
 40
0.8
 49
0.45
 74
0
 49
-0.05
 74
0
 49
0.1
 74
0
 49
-0.05
 74
0
 49
0.1
 74
0
 49
-0.05
 74
0
  0
LTYPE
  5
1F8
100
AcDbSymbolTableRecord
100
AcDbLinetypeTableRecord
  2
DOT
 70
64
  3
. . . . . . . . . . . . . . . . . . . .
 72
65
 73
2
 40
0.2
 49
0.1
 74
0
 49
-0.1
 74
0
  0
LTYPE
  5
1F9
100
AcDbSymbolTableRecord
100
AcDbLinetypeTableRecord
  2
DASHED
 70
64
  3
- - - - - - - - - - - - - - - - - - - -
 72
65
 73
2
 40
0.2
 49
0.1
 74
0
 49
-0.1
 74
0
  0
ENDTAB
  0
TABLE
  2
LAYER
  5
2
100
AcDbSymbolTable
 70
36
  0
LAYER
  5
10
100
AcDbSymbolTableRecord
100
AcDbLayerTableRecord
  2
0
 70
0
 62
7
  6
CONTINUOUS
370
-3
390
F
  0
LAYER
  5
1FA
100
AcDbSymbolTableRecord
100
AcDbLayerTableRecord
  2
DEFAULT_1
 70
0
 62
7
  6
CENTER
370
-3
390
F
  0
LAYER
  5
1FB
100
AcDbSymbolTableRecord
100
AcDbLayerTableRecord
  2
DEFAULT_2
 70
0
 62
7
  6
HIDDEN
370
-3
390
F
  0
LAYER
  5
1FC
100
AcDbSymbolTableRecord
100
AcDbLayerTableRecord
  2
DEFAULT_3
 70
0
 62
7
  6
PHANTOM
370
-3
390
F
  0
LAYER
  5
1FD
100
AcDbSymbolTableRecord
100
AcDbLayerTableRecord
  2
ASSI
 70
0
 62
7
  6
CONTINUOUS
370
-3
390
F
  0
LAYER
  5
1FE
100
AcDbSymbolTableRecord
100
AcDbLayerTableRecord
  2
COLOR5
 70
0
 62
7
  6
CONTINUOUS
370
-3
390
F
  0
LAYER
  5
1FF
100
AcDbSymbolTableRecord
100
AcDbLayerTableRecord
  2
COORDINATE
 70
0
 62
7
  6
CONTINUOUS
370
-3
390
F
  0
LAYER
  5
200
100
AcDbSymbolTableRecord
100
AcDbLayerTableRecord
  2
COORD_ORIGINE
 70
0
 62
7
  6
CONTINUOUS
370
-3
390
F
  0
LAYER
  5
201
100
AcDbSymbolTableRecord
100
AcDbLayerTableRecord
  2
COPY_PUBLISH
 70
0
 62
7
  6
CONTINUOUS
370
-3
390
F
  0
LAYER
  5
202
100
AcDbSymbolTableRecord
100
AcDbLayerTableRecord
  2
COSMETICI
 70
0
 62
7
  6
CONTINUOUS
370
-3
390
F
  0
LAYER
  5
203
100
AcDbSymbolTableRecord
100
AcDbLayerTableRecord
  2
CURVE
 70
0
 62
7
  6
CONTINUOUS
370
-3
390
F
  0
LAYER
  5
204
100
AcDbSymbolTableRecord
100
AcDbLayerTableRecord
  2
DRAFT
 70
0
 62
7
  6
CONTINUOUS
370
-3
390
F
  0
LAYER
  5
205
100
AcDbSymbolTableRecord
100
AcDbLayerTableRecord
  2
IMPORT_IGES
 70
0
 62
7
  6
CONTINUOUS
370
-3
390
F
  0
LAYER
  5
206
100
AcDbSymbolTableRecord
100
AcDbLayerTableRecord
  2
NOTE
 70
0
 62
7
  6
CONTINUOUS
370
-3
390
F
  0
LAYER
  5
207
100
AcDbSymbolTableRecord
100
AcDbLayerTableRecord
  2
PIANI
 70
0
 62
7
  6
CONTINUOUS
370
-3
390
F
  0
LAYER
  5
208
100
AcDbSymbolTableRecord
100
AcDbLayerTableRecord
  2
PIANI_ORIGINE
 70
0
 62
7
  6
CONTINUOUS
370
-3
390
F
  0
LAYER
  5
209
100
AcDbSymbolTableRecord
100
AcDbLayerTableRecord
  2
PUNTI
 70
0
 62
7
  6
CONTINUOUS
370
-3
390
F
  0
LAYER
  5
20A
100
AcDbSymbolTableRecord
100
AcDbLayerTableRecord
  2
RACCORDO
 70
0
 62
7
  6
CONTINUOUS
370
-3
390
F
  0
LAYER
  5
20B
100
AcDbSymbolTableRecord
100
AcDbLayerTableRecord
  2
SIMBOLI
 70
0
 62
7
  6
CONTINUOUS
370
-3
390
F
  0
LAYER
  5
20C
100
AcDbSymbolTableRecord
100
AcDbLayerTableRecord
  2
SMUSSO
 70
0
 62
7
  6
CONTINUOUS
370
-3
390
F
  0
LAYER
  5
20D
100
AcDbSymbolTableRecord
100
AcDbLayerTableRecord
  2
SNAPLINE
 70
0
 62
7
  6
CONTINUOUS
370
-3
390
F
  0
LAYER
  5
20E
100
AcDbSymbolTableRecord
100
AcDbLayerTableRecord
  2
SUPERFICI
 70
0
 62
7
  6
CONTINUOUS
370
-3
390
F
  0
LAYER
  5
20F
100
AcDbSymbolTableRecord
100
AcDbLayerTableRecord
  2
TRASH
 70
0
 62
7
  6
CONTINUOUS
370
-3
390
F
  0
ENDTAB
  0
TABLE
  2
STYLE
  5
3
100
AcDbSymbolTable
 70
1
  0
STYLE
  5
11
100
AcDbSymbolTableRecord
100
AcDbTextStyleTableRecord
  2
STANDARD
 70
0
 40
0.0
 41
0.8
 50
0.0
 71
0
 42
0.2
  3
txt
  4

  0
STYLE
  5
210
100
AcDbSymbolTableRecord
100
AcDbTextStyleTableRecord
  2
TEXTSTYLE_1
 70
0
 40
0.0
 41
0.8
 50
0.0
 71
0
 42
0.2
  3
gdt
  4

  0
ENDTAB
  0
TABLE
  2
VIEW
  5
6
100
AcDbSymbolTable
 70
0
  0
ENDTAB
  0
TABLE
  2
UCS
  5
7
100
AcDbSymbolTable
 70
0
  0
ENDTAB
  0
TABLE
  2
APPID
  5
9
100
AcDbSymbolTable
 70
1
  0
APPID
  5
211
100
AcDbSymbolTableRecord
100
AcDbRegAppTableRecord
  2
ACAD
 70
0
  0
ENDTAB
  0
TABLE
  2
BLOCK_RECORD
  5
1
100
AcDbSymbolTable
 70
0
  0
BLOCK_RECORD
  5
212
100
AcDbSymbolTableRecord
100
AcDbBlockTableRecord
  2
*Model_Space
  0
BLOCK_RECORD
  5
213
100
AcDbSymbolTableRecord
100
AcDbBlockTableRecord
  2
*Paper_Space
  0
ENDTAB
  0
TABLE
  2
DIMSTYLE
  5
A
100
AcDbSymbolTable
 70
1
100
AcDbDimStyleTable
 71
0
  0
DIMSTYLE
105
214
100
AcDbSymbolTableRecord
100
AcDbDimStyleTableRecord
  2
STANDARD
 70
0
  3

  4

 40
1.0
 41
3.0
 42
0.5
 43
0.38
 44
1.5
 45
0.0
 46
0.0
 47
0.01
 48
0.01
140
3.0
141
0.09
142
0.0
143
25.4
144
1.0
145
0.0
146
1.0
147
0.625
 71
1.0
 72
0.0
 73
0
 74
0
 75
0
 76
0
 77
1
 78
8
170
0
171
2
172
0
173
0
174
0
175
0
176
0
177
0
178
0
270
2
271
2
272
2
273
2
274
2
275
0
280
0
281
0
282
0
283
1
284
8
285
0
286
0
287
3
288
0
340
11
278
44
  0
ENDTAB
  0
ENDSEC
  0
SECTION
  2
BLOCKS
  0
BLOCK
  5
20
100
AcDbEntity
  8
0
100
AcDbBlockBegin
  2
*Model_Space
 70
0
 10
0.0
 20
0.0
 30
0.0
  3
*Model_Space
  1

  0
ENDBLK
  5
21
100
AcDbEntity
  8
0
100
AcDbBlockEnd
  0
BLOCK
  5
1C
100
AcDbEntity
  8
0
100
AcDbBlockBegin
  2
*Paper_Space
 70
0
 10
0.0
 20
0.0
 30
0.0
  3
*Paper_Space
  1

  0
ENDBLK
  5
1D
100
AcDbEntity
  8
0
100
AcDbBlockEnd
  0
ENDSEC
  0
SECTION
  2
ENTITIES
  0
LWPOLYLINE
  5
215
100
AcDbEntity
  8
IMPORT_IGES
100
AcDbPolyline
 62
253
  6
CONTINUOUS
 90
19
 70
0
 10
18.1530329338
 20
-39.1064769637
 10
18.2511459968
 20
-39.0865963822
 10
18.3486703903
 20
-39.0599108736
 10
18.4448995848
 20
-39.0264308628
 10
18.5393566129
 20
-38.9861589864
 10
18.6311040812
 20
-38.9393765509
 10
18.7188128903
 20
-38.8868084911
 10
18.8012191434
 20
-38.8295260939
 10
18.8786569125
 20
-38.7676873319
 10
18.9521463187
 20
-38.7005790894
 10
19.0211678517
 20
-38.6285878173
 10
19.0852444524
 20
-38.5521870264
 10
19.1450214053
 20
-38.4703591353
 10
19.2002505926
 20
-38.3827888315
 10
19.2497850452
 20
-38.2906655052
 10
19.2928327697
 20
-38.1952004523
 10
19.3290060282
 20
-38.0973138884
 10
19.3581857491
 20
-37.997565089
 10
19.3802679627
 20
-37.8967227135
  0
LWPOLYLINE
  5
216
100
AcDbEntity
  8
IMPORT_IGES
100
AcDbPolyline
 62
253
  6
CONTINUOUS
 90
10
 70
0
 10
18.1530329338
 20
-39.1064769638
 10
17.7267110565
 20
-39.1768891785
 10
17.3000625718
 20
-39.2456251229
 10
16.8730940859
 20
-39.3126831082
 10
16.4458106535
 20
-39.3780541403
 10
16.0182205172
 20
-39.4417439017
 10
15.5903348204
 20
-39.503772812
 10
15.16216142
 20
-39.5641466889
 10
14.7337051746
 20
-39.6228566874
 10
14.3049724829
 20
-39.6799013241
  0
LINE
  5
217
100
AcDbEntity
  8
RACCORDO
100
AcDbLine
 62
7
  6
CONTINUOUS
 10
7.0
 20
-42.2467267598
 11
-7.0
 21
-42.2467267598
  0
LINE
  5
218
100
AcDbEntity
  8
RACCORDO
100
AcDbLine
 62
253
  6
CONTINUOUS
 10
7.5
 20
-41.7467267598
 11
-7.5
 21
-41.7467267598
  0
LWPOLYLINE
  5
219
100
AcDbEntity
  8
IMPORT_IGES
100
AcDbPolyline
 62
253
  6
CONTINUOUS
 90
37
 70
0
 10
-18.1530328948
 20
-39.1064769651
 10
-18.2004745593
 20
-39.097741857
 10
-18.2481184637
 20
-39.0873686883
 10
-18.2958859487
 20
-39.0753235328
 10
-18.3436959815
 20
-39.0615766343
 10
-18.3914614605
 20
-39.0461040324
 10
-18.4390896427
 20
-39.0288884557
 10
-18.4865405729
 20
-39.0098956822
 10
-18.5336685333
 20
-38.9891369518
 10
-18.5802231945
 20
-38.9666902617
 10
-18.6260804903
 20
-38.9425978004
 10
-18.6711859196
 20
-38.9168738305
 10
-18.7154020397
 20
-38.8895872263
 10
-18.7586050064
 20
-38.8608152976
 10
-18.8007609382
 20
-38.8305854959
 10
-18.8418699678
 20
-38.7988976372
 10
-18.8818568788
 20
-38.7658075331
 10
-18.9206506143
 20
-38.7313760586
 10
-18.9582522476
 20
-38.6956023163
 10
-18.9945927663
 20
-38.6585493639
 10
-19.0296081207
 20
-38.6202848805
 10
-19.0632999105
 20
-38.5808077805
 10
-19.0956060752
 20
-38.5401879798
 10
-19.1264695005
 20
-38.4984995904
 10
-19.155891022
 20
-38.455742274
 10
-19.1838424981
 20
-38.4119493261
 10
-19.2102446085
 20
-38.3672429805
 10
-19.2350270529
 20
-38.3217588942
 10
-19.2581745301
 20
-38.2755509585
 10
-19.2796426339
 20
-38.2287422662
 10
-19.2993499176
 20
-38.1815812301
 10
-19.3172827301
 20
-38.1342126774
 10
-19.3334741329
 20
-38.0866771357
 10
-19.3479397989
 20
-38.0390680026
 10
-19.3607021018
 20
-37.9914726543
 10
-19.3717891783
 20
-37.94397205
 10
-19.3812334302
 20
-37.8966450939
  0
LINE
  5
21A
100
AcDbEntity
  8
IMPORT_IGES
100
AcDbLine
 62
7
  6
CONTINUOUS
 10
-18.5312051576
 20
-39.3720555119
 11
-18.4374052071
 21
-39.3912524847
  0
LWPOLYLINE
  5
21B
100
AcDbEntity
  8
IMPORT_IGES
100
AcDbPolyline
 62
7
  6
CONTINUOUS
 90
18
 70
0
 10
-18.5312188842
 20
-39.3720527026
 10
-18.6242513018
 20
-39.3458786806
 10
-18.716499836
 20
-39.3127308547
 10
-18.8086974124
 20
-39.2723888399
 10
-18.9001111052
 20
-39.2250730213
 10
-18.9885421376
 20
-39.1714445538
 10
-19.0738888694
 20
-39.1112627628
 10
-19.1562529408
 20
-39.0447683229
 10
-19.2337404954
 20
-38.9733444124
 10
-19.3061868885
 20
-38.8968252465
 10
-19.3737567647
 20
-38.81537661
 10
-19.435050202
 20
-38.7308790358
 10
-19.4898272911
 20
-38.6432283931
 10
-19.5383279412
 20
-38.5525288127
 10
-19.5798719573
 20
-38.4609732195
 10
-19.6142326077
 20
-38.3692925886
 10
-19.641636624
 20
-38.2767559449
 10
-19.6620840063
 20
-38.1833632885
  0
LWPOLYLINE
  5
21C
100
AcDbEntity
  8
IMPORT_IGES
100
AcDbPolyline
 62
253
  6
CONTINUOUS
 90
10
 70
0
 10
17.4770814887
 20
-37.2267230254
 10
15.5484938179
 20
-37.5246796594
 10
13.6161018896
 20
-37.7876851296
 10
11.6799057036
 20
-38.0157394361
 10
9.7392696741
 20
-38.2088942914
 10
7.794829387
 20
-38.3670979829
 10
5.8484916002
 20
-38.4901953729
 10
3.9008918998
 20
-38.5781347488
 10
1.9513946997
 20
-38.6309678231
 10
-0.0
 20
-38.6486945959
  0
LINE
  5
21D
100
AcDbEntity
  8
IMPORT_IGES
100
AcDbLine
 62
7
  6
CONTINUOUS
 10
13.6728721047
 20
-39.8700015114
 11
15.0586258337
 21
-39.6928346544
  0
LWPOLYLINE
  5
21E
100
AcDbEntity
  8
IMPORT_IGES
100
AcDbPolyline
 62
253
  6
CONTINUOUS
 90
10
 70
0
 10
13.9079041406
 20
-39.6280297785
 10
12.3691311328
 20
-39.8131467532
 10
10.8278948512
 20
-39.9765663759
 10
9.2845013077
 20
-40.1182558941
 10
7.7391114899
 20
-40.2381967217
 10
6.1921774313
 20
-40.3363507876
 10
4.6444433909
 20
-40.4126810456
 10
3.0963631857
 20
-40.467186805
 10
1.5480988875
 20
-40.499883217
 10
-0.0000422377
 20
-40.510781962
  0
LINE
  5
21F
100
AcDbEntity
  8
IMPORT_IGES
100
AcDbLine
 62
7
  6
CONTINUOUS
 10
12.1505329413
 20
-39.8636078294
 11
14.0028832234
 21
-39.6418273473
  0
LINE
  5
220
100
AcDbEntity
  8
IMPORT_IGES
100
AcDbLine
 62
253
  6
CONTINUOUS
 10
19.3802679627
 20
-37.8967227135
 11
19.3812334467
 21
-37.8966450038
  0
LWPOLYLINE
  5
221
100
AcDbEntity
  8
IMPORT_IGES
100
AcDbPolyline
 62
7
  6
CONTINUOUS
 90
5
 70
0
 10
7.5
 20
-40.4504897847
 10
8.9344082543
 20
-40.3469813531
 10
10.5715889141
 20
-40.204660569
 10
12.1512744328
 20
-40.0448485258
 10
13.6728721047
 20
-39.8700015114
  0
LWPOLYLINE
  5
222
100
AcDbEntity
  8
IMPORT_IGES
100
AcDbPolyline
 62
7
  6
CONTINUOUS
 90
10
 70
0
 10
-14.3049393313
 20
-39.6799005333
 10
-14.3001573476
 20
-39.6797252432
 10
-14.2942905087
 20
-39.6793735351
 10
-14.2873388147
 20
-39.6788454091
 10
-14.2793759321
 20
-39.6781524269
 10
-14.2703281943
 20
-39.6772830268
 10
-14.2599746015
 20
-39.6762025228
 10
-14.2483204944
 20
-39.6749121247
 10
-14.2353605322
 20
-39.6734106228
 10
-14.2048106841
 20
-39.6696598878
  0
LINE
  5
223
100
AcDbEntity
  8
IMPORT_IGES
100
AcDbLine
 62
7
  6
CONTINUOUS
 10
-14.3049393313
 20
-39.6799005333
 11
-14.7902633375
 21
-39.6885527637
  0
LINE
  5
224
100
AcDbEntity
  8
IMPORT_IGES
100
AcDbLine
 62
7
  6
CONTINUOUS
 10
-14.7902633375
 20
-39.6885527637
 11
-15.2696344364
 21
-39.6961064956
  0
LINE
  5
225
100
AcDbEntity
  8
IMPORT_IGES
100
AcDbLine
 62
7
  6
CONTINUOUS
 10
-15.2696344364
 20
-39.6961064956
 11
-15.7430569559
 21
-39.7025624964
  0
LWPOLYLINE
  5
226
100
AcDbEntity
  8
IMPORT_IGES
100
AcDbPolyline
 62
7
  6
CONTINUOUS
 90
3
 70
0
 10
-15.7430569559
 20
-39.7025624964
 10
-16.210548207
 20
-39.7079238355
 10
-16.4420685249
 20
-39.7101938151
  0
LWPOLYLINE
  5
227
100
AcDbEntity
  8
IMPORT_IGES
100
AcDbPolyline
 62
253
  6
CONTINUOUS
 90
10
 70
0
 10
-0.0000422377
 20
-40.510781962
 10
-1.5482048563
 20
-40.4998914684
 10
-3.0964843768
 20
-40.4672004477
 10
-4.644573422
 20
-40.4126974904
 10
-6.1923087578
 20
-40.3363669655
 10
-7.7392375075
 20
-40.2382106242
 10
-9.2846185655
 20
-40.1182679635
 10
-10.828001006
 20
-39.9765779074
 10
-12.3692227916
 20
-39.8131584473
 10
-13.9079779345
 20
-39.6280424787
  0
LWPOLYLINE
  5
228
100
AcDbEntity
  8
IMPORT_IGES
100
AcDbPolyline
 62
253
  6
CONTINUOUS
 90
10
 70
0
 10
-0.0
 20
-38.6486945959
 10
-1.9513946997
 20
-38.6309678231
 10
-3.9008918998
 20
-38.5781347488
 10
-5.8484916002
 20
-38.4901953729
 10
-7.794829387
 20
-38.3670979829
 10
-9.7392696741
 20
-38.2088942914
 10
-11.6799057037
 20
-38.0157394361
 10
-13.6161018896
 20
-37.7876851296
 10
-15.5484938179
 20
-37.5246796594
 10
-17.4770814887
 20
-37.2267230254
  0
LINE
  5
229
100
AcDbEntity
  8
IMPORT_IGES
100
AcDbLine
 62
7
  6
CONTINUOUS
 10
16.4420843857
 20
-39.7101965074
 11
15.9775393492
 21
-39.7053789099
  0
LINE
  5
22A
100
AcDbEntity
  8
IMPORT_IGES
100
AcDbLine
 62
7
  6
CONTINUOUS
 10
15.9775393492
 20
-39.7053789099
 11
15.5070734657
 21
-39.6994686278
  0
LINE
  5
22B
100
AcDbEntity
  8
IMPORT_IGES
100
AcDbLine
 62
7
  6
CONTINUOUS
 10
15.5070734657
 20
-39.6994686278
 11
15.030682598
 21
-39.6924647895
  0
LWPOLYLINE
  5
22C
100
AcDbEntity
  8
IMPORT_IGES
100
AcDbPolyline
 62
7
  6
CONTINUOUS
 90
3
 70
0
 10
15.030682598
 20
-39.6924647895
 10
14.5483501972
 20
-39.6843639091
 10
14.3049569562
 20
-39.6799022959
  0
LINE
  5
22D
100
AcDbEntity
  8
IMPORT_IGES
100
AcDbLine
 62
253
  6
CONTINUOUS
 10
-19.3812334302
 20
-37.8966450939
 11
-19.3802679462
 21
-37.8967228036
  0
LWPOLYLINE
  5
22E
100
AcDbEntity
  8
IMPORT_IGES
100
AcDbPolyline
 62
7
  6
CONTINUOUS
 90
15
 70
0
 10
-14.0028832426
 20
-39.6418273447
 10
-12.1505340975
 20
-39.8636077006
 10
-10.2871879792
 20
-40.0545969614
 10
-8.4208597944
 20
-40.2138393392
 10
-6.5520905537
 20
-40.3412886728
 10
-4.6814219795
 20
-40.4369080167
 10
-2.809396349
 20
-40.5006696524
 10
-0.9365563266
 20
-40.5325550965
 10
0.9365551876
 20
-40.5325551063
 10
2.8093952088
 20
-40.5006696815
 10
4.6814208367
 20
-40.4369080655
 10
6.5520894072
 20
-40.3412887413
 10
8.4208586442
 20
-40.2138394277
 10
10.2871868259
 20
-40.05459707
 10
12.1505329413
 20
-39.8636078294
  0
LWPOLYLINE
  5
22F
100
AcDbEntity
  8
IMPORT_IGES
100
AcDbPolyline
 62
7
  6
CONTINUOUS
 90
6
 70
0
 10
-15.0586258038
 20
-39.6928346552
 10
-13.672854269
 20
-39.8700043655
 10
-12.151259911
 20
-40.0448517837
 10
-10.5715930121
 20
-40.2046621138
 10
-8.9344228839
 20
-40.3469812482
 10
-7.5
 20
-40.4504897632
  0
LWPOLYLINE
  5
230
100
AcDbEntity
  8
IMPORT_IGES
100
AcDbPolyline
 62
253
  6
CONTINUOUS
 90
10
 70
0
 10
-14.3049562778
 20
-39.6799034475
 10
-14.7336961721
 20
-39.6228579018
 10
-15.1621578139
 20
-39.5641471883
 10
-15.5903348072
 20
-39.5037728114
 10
-16.0182216976
 20
-39.4417437255
 10
-16.4458112304
 20
-39.3780540507
 10
-16.87309406
 20
-39.3126831096
 10
-17.3000625415
 20
-39.2456251246
 10
-17.7267110219
 20
-39.1768891802
 10
-18.1530328948
 20
-39.1064769652
  0
LINE
  5
231
100
AcDbEntity
  8
IMPORT_IGES
100
AcDbLine
 62
7
  6
CONTINUOUS
 10
-14.0433270273
 20
-39.6476452038
 11
-13.9079715128
 21
-39.6279377233
  0
LINE
  5
232
100
AcDbEntity
  8
IMPORT_IGES
100
AcDbLine
 62
7
  6
CONTINUOUS
 10
-14.123738461
 20
-39.6589194091
 11
-14.0433270273
 21
-39.6476452038
  0
LINE
  5
233
100
AcDbEntity
  8
IMPORT_IGES
100
AcDbLine
 62
7
  6
CONTINUOUS
 10
-14.1678548977
 20
-39.6648721137
 11
-14.123738461
 21
-39.6589194091
  0
LINE
  5
234
100
AcDbEntity
  8
IMPORT_IGES
100
AcDbLine
 62
7
  6
CONTINUOUS
 10
-14.2048106841
 20
-39.6696598878
 11
-14.1678548977
 21
-39.6648721137
  0
LWPOLYLINE
  5
235
100
AcDbEntity
  8
IMPORT_IGES
100
AcDbPolyline
 62
7
  6
CONTINUOUS
 90
9
 70
0
 10
14.2353435651
 20
-39.6734086149
 10
14.2483051033
 20
-39.6749103852
 10
14.2599611938
 20
-39.6762010802
 10
14.2703167761
 20
-39.6772818682
 10
14.2793669107
 20
-39.6781515808
 10
14.287333778
 20
-39.6788450015
 10
14.2942914381
 20
-39.6793737249
 10
14.3001658308
 20
-39.6797261564
 10
14.3049569562
 20
-39.6799022959
  0
LWPOLYLINE
  5
236
100
AcDbEntity
  8
IMPORT_IGES
100
AcDbPolyline
 62
253
  6
CONTINUOUS
 90
8
 70
0
 10
19.3802678788
 20
-37.8967226966
 10
19.3717331403
 20
-37.8956828497
 10
19.3560077757
 20
-37.8919717454
 10
19.3329825163
 20
-37.8855574605
 10
19.3026386071
 20
-37.8763901807
 10
19.2650516544
 20
-37.8645060077
 10
19.220408885
 20
-37.8500303138
 10
19.1695131077
 20
-37.8331883514
  0
LINE
  5
237
100
AcDbEntity
  8
IMPORT_IGES
100
AcDbLine
 62
7
  6
CONTINUOUS
 10
14.2047918142
 20
-39.6696575059
 11
14.2353435651
 21
-39.6734086149
  0
LINE
  5
238
100
AcDbEntity
  8
IMPORT_IGES
100
AcDbLine
 62
7
  6
CONTINUOUS
 10
14.1678359488
 20
-39.664869605
 11
14.2047918142
 21
-39.6696575059
  0
LINE
  5
239
100
AcDbEntity
  8
IMPORT_IGES
100
AcDbLine
 62
7
  6
CONTINUOUS
 10
14.1237224135
 20
-39.6589172118
 11
14.1678359488
 21
-39.664869605
  0
LINE
  5
23A
100
AcDbEntity
  8
IMPORT_IGES
100
AcDbLine
 62
7
  6
CONTINUOUS
 10
14.0433142034
 20
-39.6476433723
 11
14.1237224135
 21
-39.6589172118
  0
LINE
  5
23B
100
AcDbEntity
  8
IMPORT_IGES
100
AcDbLine
 62
7
  6
CONTINUOUS
 10
13.9079518229
 20
-39.627934854
 11
14.0433142034
 21
-39.6476433723
  0
LWPOLYLINE
  5
23C
100
AcDbEntity
  8
IMPORT_IGES
100
AcDbPolyline
 62
253
  6
CONTINUOUS
 90
22
 70
0
 10
-5.522582415
 20
35.1028591339
 10
-5.658083573
 20
35.0532001412
 10
-5.7896241611
 20
34.9963548399
 10
-5.9172041794
 20
34.9323232299
 10
-6.0412078819
 20
34.8608349404
 10
-6.1612510145
 20
34.7821603422
 10
-6.276180815
 20
34.6971105483
 10
-6.3859339758
 20
34.6056429827
 10
-6.4905738045
 20
34.5078002213
 10
-6.5891374612
 20
34.404521105
 10
-6.6815738215
 20
34.2957617894
 10
-6.7679340099
 20
34.1815661189
 10
-6.8474085592
 20
34.0630044664
 10
-6.9199413596
 20
33.9400395805
 10
-6.985588521
 20
33.8127087127
 10
-7.0437089063
 20
33.6821939906
 10
-7.094241397
 20
33.5484680034
 10
-7.1372471116
 20
33.4115581619
 10
-7.1722682685
 20
33.2727288261
 10
-7.199152274
 20
33.1324014492
 10
-7.2180517218
 20
32.990154578
 10
-7.228966612
 20
32.8459882123
  0
LWPOLYLINE
  5
23D
100
AcDbEntity
  8
IMPORT_IGES
100
AcDbPolyline
 62
253
  6
CONTINUOUS
 90
22
 70
0
 10
-5.2101065074
 20
34.5258884479
 10
-5.3165710776
 20
34.4876452569
 10
-5.4211745278
 20
34.4432275421
 10
-5.5235445991
 20
34.3926974335
 10
-5.6233678536
 20
34.3361040849
 10
-5.7202085973
 20
34.2735851546
 10
-5.8135320271
 20
34.2054006974
 10
-5.9029959667
 20
34.1317339615
 10
-5.9882644383
 20
34.0527916035
 10
-6.0688697383
 20
33.9689582475
 10
-6.1445272303
 20
33.8805054003
 10
-6.2149675724
 20
33.7877217986
 10
-6.2798243025
 20
33.6910928739
 10
-6.3388943381
 20
33.5909576999
 10
-6.3919959273
 20
33.4876644075
 10
-6.4388879105
 20
33.3817666764
 10
-6.4794646577
 20
33.2736439714
 10
-6.513644628
 20
33.1636755283
 10
-6.5413242446
 20
33.052445661
 10
-6.5624909891
 20
32.9404103198
 10
-6.5771846405
 20
32.8278839452
 10
-6.5854482319
 20
32.7152406286
  0
LINE
  5
23E
100
AcDbEntity
  8
IMPORT_IGES
100
AcDbLine
 62
253
  6
CONTINUOUS
 10
19.1695131077
 20
-37.8331883514
 11
19.0474327485
 21
-37.7916514384
  0
LINE
  5
23F
100
AcDbEntity
  8
IMPORT_IGES
100
AcDbLine
 62
253
  6
CONTINUOUS
 10
19.0474327485
 20
-37.7916514384
 11
18.8036300664
 21
-37.7067071306
  0
LINE
  5
240
100
AcDbEntity
  8
IMPORT_IGES
100
AcDbLine
 62
253
  6
CONTINUOUS
 10
18.8036300664
 20
-37.7067071306
 11
18.5158198854
 21
-37.6044574567
  0
LINE
  5
241
100
AcDbEntity
  8
IMPORT_IGES
100
AcDbLine
 62
253
  6
CONTINUOUS
 10
18.5158198854
 20
-37.6044574567
 11
18.1908213999
 21
-37.4874732565
  0
LWPOLYLINE
  5
242
100
AcDbEntity
  8
IMPORT_IGES
100
AcDbPolyline
 62
253
  6
CONTINUOUS
 90
3
 70
0
 10
18.1908213999
 20
-37.4874732565
 10
17.595717132
 20
-37.2706216728
 10
17.4766150114
 20
-37.2265485519
  0
LINE
  5
243
100
AcDbEntity
  8
IMPORT_IGES
100
AcDbLine
 62
253
  6
CONTINUOUS
 10
5.3639788474
 20
34.6285802266
 11
5.21010651
 21
34.525888448
  0
LWPOLYLINE
  5
244
100
AcDbEntity
  8
IMPORT_IGES
100
AcDbPolyline
 62
253
  6
CONTINUOUS
 90
19
 70
0
 10
-19.3802679462
 20
-37.8967228036
 10
-19.3589305986
 20
-37.9946353182
 10
-19.3307974544
 20
-38.091858827
 10
-19.2958890276
 20
-38.1876806861
 10
-19.254215057
 20
-38.2816140574
 10
-19.2060719617
 20
-38.372722677
 10
-19.1522058495
 20
-38.4596955769
 10
-19.093706656
 20
-38.5412852915
 10
-19.0307288511
 20
-38.6178244074
 10
-18.9625476292
 20
-38.6903284268
 10
-18.8895569304
 20
-38.7582863306
 10
-18.812239662
 20
-38.8212275933
 10
-18.7295745961
 20
-38.879785156
 10
-18.6412459672
 20
-38.9337074334
 10
-18.5484615287
 20
-38.9818655952
 10
-18.4524530746
 20
-39.0234877481
 10
-18.3541433234
 20
-39.0582012985
 10
-18.2540822144
 20
-39.085895378
 10
-18.1530328948
 20
-39.1064769651
  0
LWPOLYLINE
  5
245
100
AcDbEntity
  8
IMPORT_IGES
100
AcDbPolyline
 62
253
  6
CONTINUOUS
 90
10
 70
0
 10
-22.6392086346
 20
-10.0357561191
 10
-22.4524408486
 20
-13.148988021
 10
-22.221727205
 20
-16.2592685145
 10
-21.9471141452
 20
-19.3659773012
 10
-21.6286573577
 20
-22.4684929022
 10
-21.266420344
 20
-25.5661985208
 10
-20.8604741361
 20
-28.658482095
 10
-20.410899307
 20
-31.7447287942
 10
-19.9177862228
 20
-34.8243212132
 10
-19.3812334135
 20
-37.8966451852
  0
LINE
  5
246
100
AcDbEntity
  8
IMPORT_IGES
100
AcDbLine
 62
7
  6
CONTINUOUS
 10
-23.2397614705
 20
31.7642126562
 11
-23.2307616428
 21
31.4877582915
  0
LINE
  5
247
100
AcDbEntity
  8
IMPORT_IGES
100
AcDbLine
 62
7
  6
CONTINUOUS
 10
-23.2307616428
 20
31.4877582915
 11
-23.2226273042
 21
31.1746341681
  0
LINE
  5
248
100
AcDbEntity
  8
IMPORT_IGES
100
AcDbLine
 62
7
  6
CONTINUOUS
 10
-23.2226273042
 20
31.1746341681
 11
-23.2154672174
 21
30.8294370011
  0
LINE
  5
249
100
AcDbEntity
  8
IMPORT_IGES
100
AcDbLine
 62
7
  6
CONTINUOUS
 10
-23.2154672174
 20
30.8294370011
 11
-23.2093479412
 21
30.4553794628
  0
LINE
  5
24A
100
AcDbEntity
  8
IMPORT_IGES
100
AcDbLine
 62
7
  6
CONTINUOUS
 10
-23.2093479412
 20
30.4553794628
 11
-23.2043616573
 21
30.0575628613
  0
LINE
  5
24B
100
AcDbEntity
  8
IMPORT_IGES
100
AcDbLine
 62
7
  6
CONTINUOUS
 10
-23.2043616573
 20
30.0575628613
 11
-23.2005714637
 21
29.6416797182
  0
LINE
  5
24C
100
AcDbEntity
  8
IMPORT_IGES
100
AcDbLine
 62
7
  6
CONTINUOUS
 10
-23.2005714637
 20
29.6416797182
 11
-23.1980125216
 21
29.211652892
  0
LINE
  5
24D
100
AcDbEntity
  8
IMPORT_IGES
100
AcDbLine
 62
7
  6
CONTINUOUS
 10
-23.1980125216
 20
29.211652892
 11
-23.1967308227
 21
28.7750313866
  0
LINE
  5
24E
100
AcDbEntity
  8
IMPORT_IGES
100
AcDbLine
 62
7
  6
CONTINUOUS
 10
-23.3
 20
5.9532194774
 11
-23.3
 21
32.1533270533
  0
LINE
  5
24F
100
AcDbEntity
  8
IMPORT_IGES
100
AcDbLine
 62
7
  6
CONTINUOUS
 10
-23.2934535197
 20
39.1392187501
 11
-23.2934535197
 21
32.4953539091
  0
LINE
  5
250
100
AcDbEntity
  8
IMPORT_IGES
100
AcDbLine
 62
7
  6
CONTINUOUS
 10
-23.2934535196
 20
5.6111925713
 11
-23.2934535196
 21
1.732590286
  0
LINE
  5
251
100
AcDbEntity
  8
IMPORT_IGES
100
AcDbLine
 62
7
  6
CONTINUOUS
 10
-23.1967308227
 20
28.7750313866
 11
-23.1965656098
 21
9.5532732402
  0
LINE
  5
252
100
AcDbEntity
  8
IMPORT_IGES
100
AcDbLine
 62
253
  6
CONTINUOUS
 10
-22.9529749003
 20
1.7325902855
 11
-22.9529749003
 21
38.845237858
  0
LINE
  5
253
100
AcDbEntity
  8
IMPORT_IGES
100
AcDbLine
 62
7
  6
CONTINUOUS
 10
-23.1965656098
 20
9.5528098096
 11
-23.1972131235
 21
9.1122105482
  0
LINE
  5
254
100
AcDbEntity
  8
IMPORT_IGES
100
AcDbLine
 62
7
  6
CONTINUOUS
 10
-23.1972131235
 20
9.1122105482
 11
-23.1991334396
 21
8.6788868202
  0
LINE
  5
255
100
AcDbEntity
  8
IMPORT_IGES
100
AcDbLine
 62
7
  6
CONTINUOUS
 10
-23.1991334396
 20
8.6788868202
 11
-23.2023132409
 21
8.2548824963
  0
LINE
  5
256
100
AcDbEntity
  8
IMPORT_IGES
100
AcDbLine
 62
7
  6
CONTINUOUS
 10
-23.2023132409
 20
8.2548824963
 11
-23.2067138203
 21
7.8471203518
  0
LINE
  5
257
100
AcDbEntity
  8
IMPORT_IGES
100
AcDbLine
 62
7
  6
CONTINUOUS
 10
-23.2067138203
 20
7.8471203518
 11
-23.2122666026
 21
7.4611828973
  0
LINE
  5
258
100
AcDbEntity
  8
IMPORT_IGES
100
AcDbLine
 62
7
  6
CONTINUOUS
 10
-23.2122666026
 20
7.4611828973
 11
-23.2189199915
 21
7.1006626647
  0
LINE
  5
259
100
AcDbEntity
  8
IMPORT_IGES
100
AcDbLine
 62
7
  6
CONTINUOUS
 10
-23.2189199915
 20
7.1006626647
 11
-23.2265867923
 21
6.7707876711
  0
LINE
  5
25A
100
AcDbEntity
  8
IMPORT_IGES
100
AcDbLine
 62
7
  6
CONTINUOUS
 10
-23.2265867923
 20
6.7707876711
 11
-23.2351538867
 21
6.4759981087
  0
LWPOLYLINE
  5
25B
100
AcDbEntity
  8
IMPORT_IGES
100
AcDbPolyline
 62
253
  6
CONTINUOUS
 90
22
 70
0
 10
-22.9522687021
 20
38.8452379348
 10
-22.9487607804
 20
38.9470307904
 10
-22.9384377017
 20
39.0477297237
 10
-22.9214733797
 20
39.1468888627
 10
-22.8981335428
 20
39.2438500074
 10
-22.8686107504
 20
39.3384535611
 10
-22.8328693548
 20
39.4309921183
 10
-22.7909801987
 20
39.5211884927
 10
-22.7431598488
 20
39.6084960473
 10
-22.6894471483
 20
39.6927476205
 10
-22.6300421502
 20
39.7734994226
 10
-22.5651309451
 20
39.8503801459
 10
-22.4946682906
 20
39.923267302
 10
-22.4186480397
 20
39.9919043417
 10
-22.3375112059
 20
40.0556448209
 10
-22.2519367081
 20
40.1138171712
 10
-22.1623720434
 20
40.1660535987
 10
-22.0691457649
 20
40.212101442
 10
-21.9728740441
 20
40.2516117238
 10
-21.8740800101
 20
40.2843576261
 10
-21.773170353
 20
40.3101925213
 10
-21.6706273134
 20
40.3289738953
  0
LWPOLYLINE
  5
25C
100
AcDbEntity
  8
IMPORT_IGES
100
AcDbPolyline
 62
7
  6
CONTINUOUS
 90
4
 70
0
 10
-23.2351538867
 20
6.4759981087
 10
-23.2445416552
 20
6.2190368924
 10
-23.2494959837
 20
6.1062055475
 10
-23.25462287
 20
6.0037427261
  0
LINE
  5
25D
100
AcDbEntity
  8
IMPORT_IGES
100
AcDbLine
 62
7
  6
CONTINUOUS
 10
-23.25462287
 20
6.0037427261
 11
-23.2598746772
 21
5.9126026462
  0
LWPOLYLINE
  5
25E
100
AcDbEntity
  8
IMPORT_IGES
100
AcDbPolyline
 62
7
  6
CONTINUOUS
 90
7
 70
0
 10
-23.2598746772
 20
5.9126026462
 10
-23.2652525659
 20
5.8328891722
 10
-23.2707553755
 20
5.7644984397
 10
-23.2763319876
 20
5.7080730728
 10
-23.2819653625
 20
5.6638272797
 10
-23.2876725399
 20
5.6315468523
 10
-23.2934535196
 20
5.6112317905
  0
LINE
  5
25F
100
AcDbEntity
  8
IMPORT_IGES
100
AcDbLine
 62
253
  6
CONTINUOUS
 10
6.5854482285
 20
32.7152406827
 11
6.7324952094
 21
32.823258005
  0
LWPOLYLINE
  5
260
100
AcDbEntity
  8
IMPORT_IGES
100
AcDbPolyline
 62
7
  6
CONTINUOUS
 90
10
 70
0
 10
-11.07092852
 20
-19.6666817615
 10
-11.0487759677
 20
-19.6849711045
 10
-11.0252251226
 20
-19.7013035378
 10
-11.0002759846
 20
-19.7156790616
 10
-10.9737808585
 20
-19.728197444
 10
-10.9458874396
 20
-19.7387589168
 10
-10.9170388138
 20
-19.7470641749
 10
-10.8873826764
 20
-19.75301345
 10
-10.856771332
 20
-19.7567065105
 10
-10.8252047807
 20
-19.7581433563
  0
LWPOLYLINE
  5
261
100
AcDbEntity
  8
IMPORT_IGES
100
AcDbPolyline
 62
7
  6
CONTINUOUS
 90
10
 70
0
 10
-11.2604945495
 20
-19.80640042
 10
-11.2947980143
 20
-19.7736864389
 10
-11.3259800007
 20
-19.7380065511
 10
-11.3540405087
 20
-19.6993607567
 10
-11.3791701737
 20
-19.6575352793
 10
-11.4011783603
 20
-19.6127438951
 10
-11.4194931627
 20
-19.5656279335
 10
-11.4339239457
 20
-19.5164011706
 10
-11.4446613444
 20
-19.4648498301
 10
-11.4517053589
 20
-19.410973912
  0
LWPOLYLINE
  5
262
100
AcDbEntity
  8
IMPORT_IGES
100
AcDbPolyline
 62
253
  6
CONTINUOUS
 90
10
 70
0
 10
-17.4770814887
 20
-37.2267230254
 10
-17.9977715645
 20
-34.2170154855
 10
-18.4762760194
 20
-31.2015123289
 10
-18.9125948532
 20
-28.1802135557
 10
-19.3067968998
 20
-25.1525259946
 10
-19.6588133254
 20
-22.1190428168
 10
-19.9684376287
 20
-19.0815435361
 10
-20.235600976
 20
-16.0406213237
 10
-20.4603722011
 20
-12.9956830084
 10
-20.6427513039
 20
-9.9467285901
  0
LINE
  5
263
100
AcDbEntity
  8
IMPORT_IGES
100
AcDbLine
 62
7
  6
CONTINUOUS
 10
-23.25987464
 20
32.1939432372
 11
-23.2546228348
 21
32.1028031057
  0
LWPOLYLINE
  5
264
100
AcDbEntity
  8
IMPORT_IGES
100
AcDbPolyline
 62
7
  6
CONTINUOUS
 90
4
 70
0
 10
-23.2546228348
 20
32.1028031057
 10
-23.2494959523
 20
32.000340262
 10
-23.2445416283
 20
31.8875089358
 10
-23.2397614705
 20
31.7642126562
  0
LINE
  5
265
100
AcDbEntity
  8
IMPORT_IGES
100
AcDbLine
 62
253
  6
CONTINUOUS
 10
-20.9536602503
 20
38.4125955821
 11
-20.9536602503
 21
1.7325902866
  0
LWPOLYLINE
  5
266
100
AcDbEntity
  8
IMPORT_IGES
100
AcDbPolyline
 62
7
  6
CONTINUOUS
 90
10
 70
0
 10
-10.8252047807
 20
-19.7581433563
 10
-10.7883957707
 20
-19.7567990695
 10
-10.7524614549
 20
-19.7521167715
 10
-10.7174018333
 20
-19.7440964622
 10
-10.6829640484
 20
-19.7326561014
 10
-10.6494009576
 20
-19.7178777294
 10
-10.6174711337
 20
-19.7000074667
 10
-10.5874274345
 20
-19.6791273536
 10
-10.5590170023
 20
-19.6551553499
 10
-10.5322398371
 20
-19.6280914556
  0
LWPOLYLINE
  5
267
100
AcDbEntity
  8
IMPORT_IGES
100
AcDbPolyline
 62
7
  6
CONTINUOUS
 90
10
 70
0
 10
-5.4979537341
 20
-18.9999578099
 10
-5.5155055671
 20
-19.0003615454
 10
-5.5331764125
 20
-19.0016918881
 10
-5.5509662703
 20
-19.003948838
 10
-5.5689234006
 20
-19.0071230354
 10
-5.5869995433
 20
-19.0112238399
 10
-5.6050499186
 20
-19.0162793306
 10
-5.6230262664
 20
-19.0222988673
 10
-5.6409768469
 20
-19.0292730903
 10
-5.6589016599
 20
-19.0372019995
  0
LWPOLYLINE
  5
268
100
AcDbEntity
  8
IMPORT_IGES
100
AcDbPolyline
 62
7
  6
CONTINUOUS
 90
55
 70
0
 10
4.3962375455
 20
-21.4448299543
 10
4.2451077834
 20
-21.4460611945
 10
4.0952994737
 20
-21.4384001314
 10
3.9468126164
 20
-21.4218467651
 10
3.799020154
 20
-21.3961965845
 10
3.652549144
 20
-21.3616541007
 10
3.5092807587
 20
-21.3188328463
 10
3.3694655342
 20
-21.2677562272
 10
3.2328529344
 20
-21.2084008376
 10
3.1005725227
 20
-21.1413099925
 10
2.9726994584
 20
-21.0664501615
 10
2.8491585823
 20
-20.9838548751
 10
2.7308539804
 20
-20.8941680394
 10
2.6175654379
 20
-20.7971699678
 10
2.5095131696
 20
-20.693080347
 10
2.4082619069
 20
-20.5832021428
 10
2.3140634757
 20
-20.4676156387
 10
2.2266660501
 20
-20.3462405513
 10
2.1468788836
 20
-20.2201389961
 10
2.074706757
 20
-20.0890603643
 10
2.0101448895
 20
-19.9532552648
 10
1.9539881927
 20
-19.8145376391
 10
1.9063744465
 20
-19.6729401127
 10
1.8671658709
 20
-19.5284300603
 10
1.8367440381
 20
-19.3827235478
 10
1.8152303363
 20
-19.2360555412
 10
1.8025033773
 20
-19.0881910746
 10
1.7985805687
 20
-18.9401413164
 10
1.8035435758
 20
-18.7915417808
 10
1.8173107333
 20
-18.6427569537
 10
1.839654453
 20
-18.4958914607
 10
1.8706239165
 20
-18.3512669588
 10
1.9101699421
 20
-18.2085617911
 10
1.9579173972
 20
-18.0689156126
 10
2.0140281078
 20
-17.9321885941
 10
2.0783402479
 20
-17.7985205648
 10
2.1499932061
 20
-17.6694706677
 10
2.22886822
 20
-17.545305834
 10
2.3150840521
 20
-17.4257591324
 10
2.4081363785
 20
-17.3115889114
 10
2.5082701728
 20
-17.2025417706
 10
2.6152404613
 20
-17.0988711104
 10
2.7278079992
 20
-17.0020954808
 10
2.8457803785
 20
-16.9125410784
 10
2.9693500071
 20
-16.8298817068
 10
3.0978548634
 20
-16.7546573263
 10
3.231821595
 20
-16.6866328164
 10
3.3707235543
 20
-16.6260432977
 10
3.5123187769
 20
-16.5741340933
 10
3.656516503
 20
-16.531237217
 10
3.8034074925
 20
-16.497020655
 10
3.9510220605
 20
-16.4717336889
 10
4.0987036455
 20
-16.4554594127
 10
4.247108809
 20
-16.4481147325
 10
4.3962375511
 20
-16.4496996483
  0
LWPOLYLINE
  5
269
100
AcDbEntity
  8
IMPORT_IGES
100
AcDbPolyline
 62
7
  6
CONTINUOUS
 90
52
 70
0
 10
0.0976871139
 20
-21.4448297606
 10
-0.0588237854
 20
-21.4459669252
 10
-0.2140407744
 20
-21.437512217
 10
-0.3679638531
 20
-21.4194656359
 10
-0.5213472846
 20
-21.3916140704
 10
-0.6734368057
 20
-21.354170632
 10
-0.8219696269
 20
-21.3077746557
 10
-0.9666081058
 20
-21.252417116
 10
-1.1076898848
 20
-21.1881070382
 10
-1.2439651012
 20
-21.1155108333
 10
-1.3754110449
 20
-21.0345862052
 10
-1.502050426
 20
-20.9453754498
 10
-1.6227015132
 20
-20.8486718666
 10
-1.7374952261
 20
-20.7442358256
 10
-1.846300645
 20
-20.6323069567
 10
-1.9475432788
 20
-20.5143974486
 10
-2.0409785111
 20
-20.3906201985
 10
-2.1268509583
 20
-20.2608623092
 10
-2.2043199785
 20
-20.1262972773
 10
-2.2734014226
 20
-19.9866080194
 10
-2.3340794397
 20
-19.8421116188
 10
-2.3854658355
 20
-19.6949328226
 10
-2.4273775727
 20
-19.5452565865
 10
-2.4599976886
 20
-19.3928979547
 10
-2.4829871008
 20
-19.2394268069
 10
-2.496207038
 20
-19.0847656119
 10
-2.4997962715
 20
-18.9289919009
 10
-2.4938320328
 20
-18.7739081476
 10
-2.4782726583
 20
-18.6195378122
 10
-2.4531598115
 20
-18.4658574345
 10
-2.4186957136
 20
-18.3145991078
 10
-2.3747176447
 20
-18.1657510886
 10
-2.3213883247
 20
-18.0193251204
 10
-2.2593981342
 20
-17.877088527
 10
-2.1887837261
 20
-17.7392450034
 10
-2.1095084475
 20
-17.6055908547
 10
-2.0221527211
 20
-17.4772823203
 10
-1.9263887364
 20
-17.3540705353
 10
-1.8225443038
 20
-17.2362043646
 10
-1.712183277
 20
-17.1255866418
 10
-1.5956271881
 20
-17.0226495019
 10
-1.472554505
 20
-16.92696081
 10
-1.3435644848
 20
-16.8391269939
 10
-1.2080596241
 20
-16.7588561309
 10
-1.0666374263
 20
-16.6864401438
 10
-0.9216896588
 20
-16.6233612294
 10
-0.7733746747
 20
-16.5699776252
 10
-0.6215341208
 20
-16.5259310937
 10
-0.4680847052
 20
-16.4916291202
 10
-0.3136653308
 20
-16.4672075332
 10
-0.1576370947
 20
-16.4525305043
 10
0.0000000031
 20
-16.4475980335
  0
LINE
  5
26A
100
AcDbEntity
  8
IMPORT_IGES
100
AcDbLine
 62
7
  6
CONTINUOUS
 10
12.5979995355
 20
-21.1692289765
 11
7.4020000175
 21
-21.1692289765
  0
LINE
  5
26B
100
AcDbEntity
  8
IMPORT_IGES
100
AcDbLine
 62
7
  6
CONTINUOUS
 10
7.4020000175
 20
-20.1692269499
 11
12.5979995355
 21
-20.1692269499
  0
LINE
  5
26C
100
AcDbEntity
  8
IMPORT_IGES
100
AcDbLine
 62
7
  6
CONTINUOUS
 10
-6.7456346005
 20
-19.9217532515
 11
-7.0103341714
 21
-19.9217532515
  0
LINE
  5
26D
100
AcDbEntity
  8
IMPORT_IGES
100
AcDbLine
 62
7
  6
CONTINUOUS
 10
-11.7084244266
 20
-19.9217532515
 11
-12.9973396992
 21
-19.9217532515
  0
LINE
  5
26E
100
AcDbEntity
  8
IMPORT_IGES
100
AcDbLine
 62
7
  6
CONTINUOUS
 10
-12.6648021698
 20
-19.6916372831
 11
-11.7084244266
 21
-19.6916372831
  0
LINE
  5
26F
100
AcDbEntity
  8
IMPORT_IGES
100
AcDbLine
 62
7
  6
CONTINUOUS
 10
2.5724482052
 20
-19.3146868086
 11
4.0041329339
 21
-19.3146868086
  0
LWPOLYLINE
  5
270
100
AcDbEntity
  8
IMPORT_IGES
100
AcDbPolyline
 62
7
  6
CONTINUOUS
 90
10
 70
0
 10
-9.3008527379
 20
-19.9550055594
 10
-9.3194973403
 20
-19.9547816372
 10
-9.3377778237
 20
-19.9541349062
 10
-9.3556941882
 20
-19.9530653664
 10
-9.3732568574
 20
-19.951562316
 10
-9.3904554077
 20
-19.9496364568
 10
-9.4072585675
 20
-19.9473198942
 10
-9.4236559131
 20
-19.9446233301
 10
-9.4396578682
 20
-19.9415360627
 10
-9.4552644329
 20
-19.9380580918
  0
LWPOLYLINE
  5
271
100
AcDbEntity
  8
IMPORT_IGES
100
AcDbPolyline
 62
7
  6
CONTINUOUS
 90
10
 70
0
 10
-4.8528308664
 20
-19.1781979169
 10
-4.871633251
 20
-19.177969318
 10
-4.8899954445
 20
-19.1772941794
 10
-4.907917447
 20
-19.1761725009
 10
-4.9254081047
 20
-19.1745994194
 10
-4.9424585713
 20
-19.172579798
 10
-4.959042308
 20
-19.1701282266
 10
-4.9751504684
 20
-19.1672495686
 10
-4.9907918989
 20
-19.1639389607
 10
-5.0059665995
 20
-19.1601964028
  0
LWPOLYLINE
  5
272
100
AcDbEntity
  8
IMPORT_IGES
100
AcDbPolyline
 62
7
  6
CONTINUOUS
 90
13
 70
0
 10
-9.3008527324
 20
-19.7581433563
 10
-9.3268455664
 20
-19.7572824174
 10
-9.352846146
 20
-19.7540094146
 10
-9.378854471
 20
-19.7483243481
 10
-9.4053604613
 20
-19.7400839312
 10
-9.4318741971
 20
-19.7294314506
 10
-9.4569259188
 20
-19.7167967659
 10
-9.479830906
 20
-19.7023367415
 10
-9.5012738791
 20
-19.6858945132
 10
-9.521839239
 20
-19.6674293474
 10
-9.5417217861
 20
-19.6469276665
 10
-9.56072672
 20
-19.6244030482
 10
-9.5788540408
 20
-19.5998554925
  0
LWPOLYLINE
  5
273
100
AcDbEntity
  8
IMPORT_IGES
100
AcDbPolyline
 62
7
  6
CONTINUOUS
 90
10
 70
0
 10
-10.7653479297
 20
-18.6288459266
 10
-10.7103333892
 20
-18.6308765204
 10
-10.6568886746
 20
-18.6374415628
 10
-10.6050137859
 20
-18.6485410537
 10
-10.5544131483
 20
-18.6643333029
 10
-10.5053823367
 20
-18.6846600006
 10
-10.4588080753
 20
-18.7090462181
 10
-10.414985939
 20
-18.7373336458
 10
-10.373620353
 20
-18.7696805933
 10
-10.3347113172
 20
-18.8060870605
  0
LWPOLYLINE
  5
274
100
AcDbEntity
  8
IMPORT_IGES
100
AcDbPolyline
 62
7
  6
CONTINUOUS
 90
10
 70
0
 10
-10.8252049334
 20
-19.9550053761
 10
-10.887436633
 20
-19.952674499
 10
-10.9463163847
 20
-19.9465022742
 10
-11.0018441885
 20
-19.9364887016
 10
-11.0541728428
 20
-19.9222389124
 10
-11.1031495492
 20
-19.9041477754
 10
-11.1483159126
 20
-19.8833998971
 10
-11.1895191346
 20
-19.8603901461
 10
-11.2269120136
 20
-19.8347236537
 10
-11.2604945495
 20
-19.80640042
  0
LWPOLYLINE
  5
275
100
AcDbEntity
  8
IMPORT_IGES
100
AcDbPolyline
 62
7
  6
CONTINUOUS
 90
10
 70
0
 10
-5.4979537341
 20
-18.9999578099
 10
-5.472226107
 20
-19.0010674136
 10
-5.445653182
 20
-19.0039475545
 10
-5.4182349591
 20
-19.0085982326
 10
-5.3899643991
 20
-19.0151185327
 10
-5.3608485412
 20
-19.02340937
 10
-5.330908503
 20
-19.0331734899
 10
-5.3001513236
 20
-19.0443118076
 10
-5.2685699639
 20
-19.056923408
 10
-5.2361644238
 20
-19.0710082911
  0
LINE
  5
276
100
AcDbEntity
  8
IMPORT_IGES
100
AcDbLine
 62
7
  6
CONTINUOUS
 10
-12.7060366795
 20
-18.5530298232
 11
-12.9521146025
 21
-18.5277559846
  0
LINE
  5
277
100
AcDbEntity
  8
IMPORT_IGES
100
AcDbLine
 62
7
  6
CONTINUOUS
 10
-11.1843451872
 20
-19.0292210902
 11
-11.409140192
 21
-18.9999589081
  0
LWPOLYLINE
  5
278
100
AcDbEntity
  8
IMPORT_IGES
100
AcDbPolyline
 62
7
  6
CONTINUOUS
 90
10
 70
0
 10
-4.9206651775
 20
-18.9148292895
 10
-4.9104991257
 20
-18.9173406968
 10
-4.9002817826
 20
-18.9195576391
 10
-4.8900131482
 20
-18.9214801165
 10
-4.8796842313
 20
-18.9231092684
 10
-4.8693040231
 20
-18.9244439554
 10
-4.8588994974
 20
-18.9254807589
 10
-4.8484796454
 20
-18.9262185395
 10
-4.8380354759
 20
-18.9266584366
 10
-4.8275669889
 20
-18.9268004502
  0
LWPOLYLINE
  5
279
100
AcDbEntity
  8
IMPORT_IGES
100
AcDbPolyline
 62
7
  6
CONTINUOUS
 90
10
 70
0
 10
-9.4552644329
 20
-19.9380580918
 10
-9.4925840681
 20
-19.9276817007
 10
-9.5287242156
 20
-19.9146994514
 10
-9.5636848752
 20
-19.8991113438
 10
-9.5976288781
 20
-19.8808303665
 10
-9.6303933932
 20
-19.8599435309
 10
-9.6614899274
 20
-19.8367118719
 10
-9.6907556498
 20
-19.811222401
 10
-9.7183533914
 20
-19.7833881068
 10
-9.7442831521
 20
-19.753208989
  0
LWPOLYLINE
  5
27A
100
AcDbEntity
  8
IMPORT_IGES
100
AcDbPolyline
 62
7
  6
CONTINUOUS
 90
9
 70
0
 10
-5.3077421341
 20
-18.7725021868
 10
-5.2823040116
 20
-18.7800367365
 10
-5.2563919503
 20
-18.7882628392
 10
-5.23000595
 20
-18.7971804949
 10
-5.2032861051
 20
-18.8067991546
 10
-5.1760923213
 20
-18.8171093672
 10
-5.1480043157
 20
-18.8280827801
 10
-5.1188819941
 20
-18.8397099423
 10
-5.0888654506
 20
-18.8520003047
  0
LWPOLYLINE
  5
27B
100
AcDbEntity
  8
IMPORT_IGES
100
AcDbPolyline
 62
7
  6
CONTINUOUS
 90
10
 70
0
 10
-5.0059665995
 20
-19.1601964028
 10
-5.0292913337
 20
-19.1532667486
 10
-5.0530507942
 20
-19.1455851803
 10
-5.0772449811
 20
-19.1371516978
 10
-5.1017025956
 20
-19.1279571274
 10
-5.1265949364
 20
-19.1180106429
 10
-5.1524359
 20
-19.1073397649
 10
-5.1793967851
 20
-19.0959536671
 10
-5.2073062931
 20
-19.0838431758
 10
-5.2361644238
 20
-19.0710082911
  0
LWPOLYLINE
  5
27C
100
AcDbEntity
  8
IMPORT_IGES
100
AcDbPolyline
 62
7
  6
CONTINUOUS
 90
10
 70
0
 10
-5.0888654506
 20
-18.8520003047
 10
-5.0419648438
 20
-18.8716560704
 10
-5.026168988
 20
-18.8780992837
 10
-5.010567118
 20
-18.8842835073
 10
-4.9951727306
 20
-18.8902502511
 10
-4.9799723289
 20
-18.8959580051
 10
-4.9649254218
 20
-18.901282239
 10
-4.9500185124
 20
-18.9061814426
 10
-4.9352650976
 20
-18.9106971261
 10
-4.9206651775
 20
-18.9148292895
  0
LWPOLYLINE
  5
27D
100
AcDbEntity
  8
IMPORT_IGES
100
AcDbPolyline
 62
7
  6
CONTINUOUS
 90
10
 70
0
 10
-9.0256604237
 20
-18.0278958003
 10
-8.9997475349
 20
-18.0427764987
 10
-8.974940297
 20
-18.0589335911
 10
-8.9512387102
 20
-18.0763670775
 10
-8.9287093712
 20
-18.0949888078
 10
-8.9072856831
 20
-18.1148869321
 10
-8.8867678553
 20
-18.1363259009
 10
-8.8670892909
 20
-18.1593938643
 10
-8.8483165866
 20
-18.1840026723
 10
-8.8304497426
 20
-18.2101523247
  0
LWPOLYLINE
  5
27E
100
AcDbEntity
  8
IMPORT_IGES
100
AcDbPolyline
 62
7
  6
CONTINUOUS
 90
10
 70
0
 10
-12.0595838834
 20
-18.2603958678
 10
-12.0822825013
 20
-18.2402271878
 10
-12.1067820381
 20
-18.2222919573
 10
-12.1330824939
 20
-18.2065901761
 10
-12.1613476023
 20
-18.1930224838
 10
-12.1914136296
 20
-18.181688241
 10
-12.2227893749
 20
-18.1728855291
 10
-12.2553111046
 20
-18.1667137087
 10
-12.2891425522
 20
-18.1630734192
 10
-12.3242837178
 20
-18.1619646608
  0
LWPOLYLINE
  5
27F
100
AcDbEntity
  8
IMPORT_IGES
100
AcDbPolyline
 62
7
  6
CONTINUOUS
 90
13
 70
0
 10
-11.8746930183
 20
-18.1193999513
 10
-11.9009060442
 20
-18.0957042993
 10
-11.9298486678
 20
-18.0735919079
 10
-11.9615208891
 20
-18.0530627772
 10
-11.9967460388
 20
-18.0337383735
 10
-12.0347007862
 20
-18.0159972306
 10
-12.0729151393
 20
-18.000974949
 10
-12.1099639082
 20
-17.9892884431
 10
-12.1472722828
 20
-17.9803207985
 10
-12.1866458406
 20
-17.9733568729
 10
-12.2286864409
 20
-17.9681582853
 10
-12.2727922245
 20
-17.9649634167
 10
-12.3189631914
 20
-17.963772267
  0
LWPOLYLINE
  5
280
100
AcDbEntity
  8
IMPORT_IGES
100
AcDbPolyline
 62
7
  6
CONTINUOUS
 90
10
 70
0
 10
-10.5289142635
 20
-18.9590465197
 10
-10.5543897547
 20
-18.9348602506
 10
-10.5819921783
 20
-18.9133139834
 10
-10.6117215346
 20
-18.8944077179
 10
-10.6437840531
 20
-18.877995912
 10
-10.6779735041
 20
-18.8642241078
 10
-10.7136711986
 20
-18.8535289325
 10
-10.7506709067
 20
-18.8460559283
 10
-10.7891788583
 20
-18.8416595528
 10
-10.8291950533
 20
-18.8403398062
  0
LWPOLYLINE
  5
281
100
AcDbEntity
  8
IMPORT_IGES
100
AcDbPolyline
 62
7
  6
CONTINUOUS
 90
10
 70
0
 10
-11.8746930183
 20
-18.1193999513
 10
-11.8411914468
 20
-18.153629557
 10
-11.8113933406
 20
-18.190257034
 10
-11.7852986995
 20
-18.2292823822
 10
-11.7627378339
 20
-18.2709934601
 10
-11.7438804335
 20
-18.3151024092
 10
-11.7292355673
 20
-18.3607456544
 10
-11.7189729248
 20
-18.4076353373
 10
-11.7129228164
 20
-18.4560593163
 10
-11.7110852422
 20
-18.5060175913
  0
LWPOLYLINE
  5
282
100
AcDbEntity
  8
IMPORT_IGES
100
AcDbPolyline
 62
7
  6
CONTINUOUS
 90
13
 70
0
 10
-10.3347113172
 20
-18.8060870605
 10
-10.3081988998
 20
-18.8340284721
 10
-10.2834740483
 20
-18.8643268379
 10
-10.2605367626
 20
-18.8969821577
 10
-10.2390366868
 20
-18.9325240096
 10
-10.2193241769
 20
-18.9704228157
 10
-10.2024503008
 20
-19.0090898422
 10
-10.1889180285
 20
-19.0477138315
 10
-10.1782243901
 20
-19.0871060414
 10
-10.1699115438
 20
-19.1281115115
 10
-10.1638268756
 20
-19.1710119218
 10
-10.1601229994
 20
-19.2155255923
 10
-10.1587999152
 20
-19.2616525232
  0
LWPOLYLINE
  5
283
100
AcDbEntity
  8
IMPORT_IGES
100
AcDbPolyline
 62
7
  6
CONTINUOUS
 90
22
 70
0
 10
-9.7442831521
 20
-19.753208989
 10
-9.7597664698
 20
-19.7329062919
 10
-9.774830557
 20
-19.7109795569
 10
-9.7894754138
 20
-19.6874287842
 10
-9.8037564681
 20
-19.6622839386
 10
-9.817618292
 20
-19.6355150552
 10
-9.8308946014
 20
-19.6070322388
 10
-9.8435822749
 20
-19.5768389646
 10
-9.8556844338
 20
-19.5449317573
 10
-9.867044158
 20
-19.5112102957
 10
-9.8776386654
 20
-19.4756602715
 10
-9.887490738
 20
-19.438295993
 10
-9.8965118012
 20
-19.3990600646
 10
-9.9047051955
 20
-19.3579460636
 10
-9.9120675804
 20
-19.3149604128
 10
-9.9185003604
 20
-19.2700649849
 10
-9.9239971017
 20
-19.2232640172
 10
-9.928564238
 20
-19.1745532725
 10
-9.932122475
 20
-19.1238819119
 10
-9.9346453814
 20
-19.071232989
 10
-9.9361593885
 20
-19.0166234501
 10
-9.9366644964
 20
-18.9600532953
  0
LINE
  5
284
100
AcDbEntity
  8
IMPORT_IGES
100
AcDbLine
 62
7
  6
CONTINUOUS
 10
22.0140335584
 20
40.6224121295
 11
21.6706311438
 21
40.3289733251
  0
LINE
  5
285
100
AcDbEntity
  8
IMPORT_IGES
100
AcDbLine
 62
7
  6
CONTINUOUS
 10
-11.4517053589
 20
-19.410973912
 11
-11.2003069237
 21
-19.3896917964
  0
LWPOLYLINE
  5
286
100
AcDbEntity
  8
IMPORT_IGES
100
AcDbPolyline
 62
7
  6
CONTINUOUS
 90
10
 70
0
 10
-12.3242837178
 20
-18.1619646608
 10
-12.3636134489
 20
-18.1634215599
 10
-12.4008990311
 20
-18.1675822091
 10
-12.4361404644
 20
-18.1744466084
 10
-12.4694750434
 20
-18.1842627336
 10
-12.5007654736
 20
-18.1967826088
 10
-12.5295998713
 20
-18.2112623066
 10
-12.5558409421
 20
-18.227453851
 10
-12.5796259804
 20
-18.245605218
 10
-12.6009549864
 20
-18.2657164074
  0
LWPOLYLINE
  5
287
100
AcDbEntity
  8
IMPORT_IGES
100
AcDbPolyline
 62
7
  6
CONTINUOUS
 90
10
 70
0
 10
-10.8291950533
 20
-18.8403398062
 10
-10.8548006118
 20
-18.8411205543
 10
-10.8798550771
 20
-18.8432093332
 10
-10.9043584491
 20
-18.8466061429
 10
-10.9283706532
 20
-18.8513551611
 10
-10.9518317641
 20
-18.8574122101
 10
-10.9745620052
 20
-18.8646447569
 10
-10.9965014509
 20
-18.8730086238
 10
-11.0177100268
 20
-18.8825479884
 10
-11.038187733
 20
-18.8932628508
  0
LWPOLYLINE
  5
288
100
AcDbEntity
  8
IMPORT_IGES
100
AcDbPolyline
 62
7
  6
CONTINUOUS
 90
10
 70
0
 10
-4.8275669889
 20
-18.9268004502
 10
-4.8089856152
 20
-18.9262446156
 10
-4.7900586427
 20
-18.9243940333
 10
-4.7707860713
 20
-18.9212487033
 10
-4.7511151384
 20
-18.916818385
 10
-4.7310986066
 20
-18.911093319
 10
-4.7108947643
 20
-18.9040442276
 10
-4.690556374
 20
-18.8956613516
 10
-4.670030673
 20
-18.8859544501
 10
-4.6493176614
 20
-18.8749235233
  0
LINE
  5
289
100
AcDbEntity
  8
IMPORT_IGES
100
AcDbLine
 62
7
  6
CONTINUOUS
 10
-6.2458184954
 20
-17.9726144338
 11
-5.9821279719
 21
-17.9717538137
  0
LINE
  5
28A
100
AcDbEntity
  8
IMPORT_IGES
100
AcDbLine
 62
7
  6
CONTINUOUS
 10
2.5724444758
 20
-18.5794907768
 11
4.0041329339
 21
-18.5794907768
  0
LINE
  5
28B
100
AcDbEntity
  8
IMPORT_IGES
100
AcDbLine
 62
7
  6
CONTINUOUS
 10
8.9505201606
 20
-18.3057726506
 11
9.3350318537
 21
-18.3057726506
  0
LINE
  5
28C
100
AcDbEntity
  8
IMPORT_IGES
100
AcDbLine
 62
7
  6
CONTINUOUS
 10
-10.2505795658
 20
-18.2271399851
 11
-11.028717272
 21
-18.2271399851
  0
LINE
  5
28D
100
AcDbEntity
  8
IMPORT_IGES
100
AcDbLine
 62
7
  6
CONTINUOUS
 10
9.2389043421
 20
-18.2096422965
 11
9.0466476977
 21
-18.2096422965
  0
LINE
  5
28E
100
AcDbEntity
  8
IMPORT_IGES
100
AcDbLine
 62
7
  6
CONTINUOUS
 10
-11.2202595919
 20
-17.9983550067
 11
-10.2505795658
 21
-17.9983550067
  0
LINE
  5
28F
100
AcDbEntity
  8
IMPORT_IGES
100
AcDbLine
 62
7
  6
CONTINUOUS
 10
-7.4862707403
 20
-17.97175377
 11
-7.7658593655
 21
-17.97175377
  0
LINE
  5
290
100
AcDbEntity
  8
IMPORT_IGES
100
AcDbLine
 62
7
  6
CONTINUOUS
 10
9.0466476977
 20
-17.8251327331
 11
9.2389043421
 21
-17.8251327331
  0
LINE
  5
291
100
AcDbEntity
  8
IMPORT_IGES
100
AcDbLine
 62
7
  6
CONTINUOUS
 10
9.3350318537
 20
-17.7930886506
 11
10.4014501208
 21
-17.7930886506
  0
LINE
  5
292
100
AcDbEntity
  8
IMPORT_IGES
100
AcDbLine
 62
7
  6
CONTINUOUS
 10
10.4014319262
 20
-17.7296534397
 11
9.0092491853
 21
-17.7290011157
  0
LWPOLYLINE
  5
293
100
AcDbEntity
  8
IMPORT_IGES
100
AcDbPolyline
 62
7
  6
CONTINUOUS
 90
10
 70
0
 10
-5.4753411546
 20
-18.7485594149
 10
-5.4580066511
 20
-18.7488188598
 10
-5.4403379746
 20
-18.7496722599
 10
-5.422335125
 20
-18.7511196151
 10
-5.4039817417
 20
-18.753152578
 10
-5.3852941853
 20
-18.7557794961
 10
-5.3663215381
 20
-18.7590254117
 10
-5.3470801609
 20
-18.7628986725
 10
-5.3275536929
 20
-18.7673909309
 10
-5.3077421341
 20
-18.7725021868
  0
LWPOLYLINE
  5
294
100
AcDbEntity
  8
IMPORT_IGES
100
AcDbPolyline
 62
7
  6
CONTINUOUS
 90
10
 70
0
 10
-9.3008527324
 20
-17.9637708242
 10
-9.264618671
 20
-17.9648363468
 10
-9.2297496456
 20
-17.9675021423
 10
-9.1962456561
 20
-17.9717682106
 10
-9.1640410377
 20
-17.9777484242
 10
-9.1332014552
 20
-17.9853289107
 10
-9.1039239031
 20
-17.9941680532
 10
-9.0762740463
 20
-18.0041519795
 10
-9.0501862198
 20
-18.0153945619
 10
-9.0256604237
 20
-18.0278958003
  0
LWPOLYLINE
  5
295
100
AcDbEntity
  8
IMPORT_IGES
100
AcDbPolyline
 62
7
  6
CONTINUOUS
 90
13
 70
0
 10
-9.303512983
 20
-18.161963218
 10
-9.2775283923
 20
-18.1628211635
 10
-9.2515129313
 20
-18.1660959531
 10
-9.2254666001
 20
-18.1717875868
 10
-9.1988924451
 20
-18.180042452
 10
-9.1722874199
 20
-18.1907141612
 10
-9.1471423851
 20
-18.2033635519
 10
-9.1241549876
 20
-18.2178235562
 10
-9.1026275805
 20
-18.2342612419
 10
-9.0819580847
 20
-18.2527386499
 10
-9.0619458071
 20
-18.2732764607
 10
-9.0427914408
 20
-18.2958539938
 10
-9.0244949857
 20
-18.3204712492
  0
LWPOLYLINE
  5
296
100
AcDbEntity
  8
IMPORT_IGES
100
AcDbPolyline
 62
7
  6
CONTINUOUS
 90
10
 70
0
 10
-8.8304497426
 20
-18.2101523247
 10
-8.8139019513
 20
-18.2369698023
 10
-8.7980861549
 20
-18.2651443922
 10
-8.7830023535
 20
-18.2946760943
 10
-8.7686111258
 20
-18.325585069
 10
-8.7549518931
 20
-18.3578511559
 10
-8.7421429193
 20
-18.391413874
 10
-8.7302236257
 20
-18.4262530628
 10
-8.719154591
 20
-18.4623888828
 10
-8.7089358152
 20
-18.499821334
  0
LWPOLYLINE
  5
297
100
AcDbEntity
  8
0
100
AcDbPolyline
 62
253
  6
CONTINUOUS
 90
13
 70
0
 10
-14.4130434783
 20
-2.5952961612
 10
-14.4134499756
 20
-2.5863975262
 10
-14.4145872976
 20
-2.5776963146
 10
-14.4164626234
 20
-2.5691805494
 10
-14.419118117
 20
-2.5607689125
 10
-14.4225246845
 20
-2.552524114
 10
-14.4265878669
 20
-2.5446580908
 10
-14.4313414034
 20
-2.5371970727
 10
-14.4367758775
 20
-2.5301198769
 10
-14.4427393328
 20
-2.5235787328
 10
-14.4491906029
 20
-2.5176336779
 10
-14.4561964814
 20
-2.5122488241
 10
-14.4637681159
 20
-2.5074385115
  0
LWPOLYLINE
  5
298
100
AcDbEntity
  8
IMPORT_IGES
100
AcDbPolyline
 62
7
  6
CONTINUOUS
 90
10
 70
0
 10
-11.9571623012
 20
-18.4998227794
 10
-11.9582556873
 20
-18.4697143968
 10
-11.9619754009
 20
-18.4403388017
 10
-11.9683214421
 20
-18.4116959943
 10
-11.9773666508
 20
-18.3835945603
 10
-11.989038187
 20
-18.3562259139
 10
-12.0031175304
 20
-18.3301642973
 10
-12.0195318409
 20
-18.3056011244
 10
-12.0383539586
 20
-18.2823449812
 10
-12.0595838834
 20
-18.2603958678
  0
LWPOLYLINE
  5
299
100
AcDbEntity
  8
IMPORT_IGES
100
AcDbPolyline
 62
7
  6
CONTINUOUS
 90
10
 70
0
 10
-12.9973396992
 20
-19.9217532515
 10
-12.9977898026
 20
-19.9032933744
 10
-12.9973820998
 20
-19.8847888826
 10
-12.9961165906
 20
-19.8662397761
 10
-12.9939952184
 20
-19.8476065008
 10
-12.9910160399
 20
-19.8289286108
 10
-12.9871732255
 20
-19.8103247683
 10
-12.9824648318
 20
-19.7918345275
 10
-12.9768928022
 20
-19.7734183342
 10
-12.9704571365
 20
-19.7550761884
  0
LWPOLYLINE
  5
29A
100
AcDbEntity
  8
0
100
AcDbPolyline
 62
7
  6
CONTINUOUS
 90
8
 70
0
 10
-14.3969071777
 20
-1.4015125363
 10
-14.3968404557
 20
-1.4150300407
 10
-14.3964777597
 20
-1.4284400921
 10
-14.3958311208
 20
-1.4415763506
 10
-14.3950840303
 20
-1.4542312864
 10
-14.3942308497
 20
-1.4662126558
 10
-14.3930944793
 20
-1.477355943
 10
-14.3915920599
 20
-1.4874782528
  0
LINE
  5
29B
100
AcDbEntity
  8
0
100
AcDbLine
 62
7
  6
CONTINUOUS
 10
-14.3
 20
-2.6003165983
 11
-14.3
 21
-4.4057669384
  0
LINE
  5
29C
100
AcDbEntity
  8
0
100
AcDbLine
 62
7
  6
CONTINUOUS
 10
-13.5
 20
-3.9859572443
 11
-13.5
 21
-4.6199679265
  0
LINE
  5
29D
100
AcDbEntity
  8
0
100
AcDbLine
 62
253
  6
CONTINUOUS
 10
-13.3985507246
 20
-4.0010185557
 11
-13.3985507246
 21
-4.7537058213
  0
LINE
  5
29E
100
AcDbEntity
  8
0
100
AcDbLine
 62
253
  6
CONTINUOUS
 10
-14.4130434783
 20
-4.5093581594
 11
-14.4130638243
 21
-3.1854737702
  0
LINE
  5
29F
100
AcDbEntity
  8
0
100
AcDbLine
 62
253
  6
CONTINUOUS
 10
-14.4130638243
 20
-3.1854737702
 11
-14.4130434783
 21
-2.7106244706
  0
LWPOLYLINE
  5
2A0
100
AcDbEntity
  8
0
100
AcDbPolyline
 62
253
  6
CONTINUOUS
 90
3
 70
0
 10
-14.4130434783
 20
-2.7106244706
 10
-14.412959384
 20
-2.671949546
 10
-14.4130434783
 20
-2.5952961612
  0
LINE
  5
2A1
100
AcDbEntity
  8
0
100
AcDbLine
 62
7
  6
CONTINUOUS
 10
-14.3967567497
 20
-1.374692213
 11
-14.3969071777
 21
-1.4015125363
  0
LWPOLYLINE
  5
2A2
100
AcDbEntity
  8
0
100
AcDbPolyline
 62
7
  6
CONTINUOUS
 90
10
 70
0
 10
-14.3
 20
-4.4057669384
 10
-14.3002797645
 20
-4.4120000552
 10
-14.3009936327
 20
-4.4178725222
 10
-14.3021483763
 20
-4.4233841279
 10
-14.3037763735
 20
-4.4285466478
 10
-14.3058573991
 20
-4.4333465129
 10
-14.3083185866
 20
-4.4377456939
 10
-14.3111386583
 20
-4.4417311458
 10
-14.3143479647
 20
-4.4453139043
 10
-14.3179502476
 20
-4.448492387
  0
LINE
  5
2A3
100
AcDbEntity
  8
IMPORT_IGES
100
AcDbLine
 62
253
  6
CONTINUOUS
 10
22.9529749002
 20
38.8452381151
 11
23.2934535197
 21
39.139210681
  0
LWPOLYLINE
  5
2A4
100
AcDbEntity
  8
IMPORT_IGES
100
AcDbPolyline
 62
7
  6
CONTINUOUS
 90
10
 70
0
 10
9.0387177413
 20
-12.8232089744
 10
9.1142354279
 20
-12.8064626296
 10
9.1891597595
 20
-12.7914298547
 10
9.263490736
 20
-12.7781106497
 10
9.3366876314
 20
-12.7665780731
 10
9.4092911718
 20
-12.7567590664
 10
9.4829235352
 20
-12.7484344542
 10
9.5581254476
 20
-12.7415311779
 10
9.6343561829
 20
-12.7361222961
 10
9.7116157413
 20
-12.7322078086
  0
LINE
  5
2A5
100
AcDbEntity
  8
IMPORT_IGES
100
AcDbLine
 62
7
  6
CONTINUOUS
 10
1.0654501384
 20
-13.9819854255
 11
1.3049169933
 21
-13.9502622294
  0
LINE
  5
2A6
100
AcDbEntity
  8
IMPORT_IGES
100
AcDbLine
 62
7
  6
CONTINUOUS
 10
-0.4495905014
 20
-13.9819854255
 11
-0.2101238872
 21
-13.9502622294
  0
LWPOLYLINE
  5
2A7
100
AcDbEntity
  8
IMPORT_IGES
100
AcDbPolyline
 62
7
  6
CONTINUOUS
 90
10
 70
0
 10
1.6813097914
 20
-12.7356330926
 10
1.6499498662
 20
-12.7371269268
 10
1.6198516458
 20
-12.7407825584
 10
1.5910151301
 20
-12.7465999877
 10
1.5633022927
 20
-12.7547203481
 10
1.5368511599
 20
-12.7650025062
 10
1.5120758112
 20
-12.7770230608
 10
1.489114273
 20
-12.7906408784
 10
1.4678285188
 20
-12.8059970925
 10
1.4482185486
 20
-12.8230917032
  0
LWPOLYLINE
  5
2A8
100
AcDbEntity
  8
IMPORT_IGES
100
AcDbPolyline
 62
7
  6
CONTINUOUS
 90
10
 70
0
 10
0.1662689109
 20
-12.7356330926
 10
0.134909002
 20
-12.7371269261
 10
0.1048107902
 20
-12.7407825598
 10
0.0759742753
 20
-12.7465999937
 10
0.0482614306
 20
-12.7547203604
 10
0.0218102829
 20
-12.7650025272
 10
-0.0029650875
 20
-12.7770230963
 10
-0.0259266536
 20
-12.7906409349
 10
-0.0472124424
 20
-12.8059971757
 10
-0.0668224538
 20
-12.8230918186
  0
LWPOLYLINE
  5
2A9
100
AcDbEntity
  8
IMPORT_IGES
100
AcDbPolyline
 62
7
  6
CONTINUOUS
 90
10
 70
0
 10
3.2698500142
 20
-12.5387708242
 10
3.2221211123
 20
-12.5406023779
 10
3.1763984037
 20
-12.5452788552
 10
3.1326818881
 20
-12.5528002559
 10
3.0908291829
 20
-12.5633188711
 10
3.0509826708
 20
-12.5766824098
 10
3.0135695003
 20
-12.5924339995
 10
2.9787320543
 20
-12.6104213494
 10
2.94632795
 20
-12.6307967503
 10
2.9163571872
 20
-12.6535602023
  0
LWPOLYLINE
  5
2AA
100
AcDbEntity
  8
IMPORT_IGES
100
AcDbPolyline
 62
7
  6
CONTINUOUS
 90
10
 70
0
 10
1.6866302406
 20
-14.3331433563
 10
1.7233660241
 20
-14.3317854231
 10
1.7589835591
 20
-14.3274305268
 10
1.7934828458
 20
-14.3200786676
 10
1.8270631238
 20
-14.3096043688
 10
1.8595251535
 20
-14.296133107
 10
1.8902712155
 20
-14.2800413121
 10
1.91910207
 20
-14.2614544608
 10
1.9462169568
 20
-14.2402470763
 10
1.9716158759
 20
-14.2164191587
  0
LWPOLYLINE
  5
2AB
100
AcDbEntity
  8
IMPORT_IGES
100
AcDbPolyline
 62
7
  6
CONTINUOUS
 90
10
 70
0
 10
0.1715893602
 20
-14.3331433563
 10
0.2083250687
 20
-14.3317854234
 10
0.2439425416
 20
-14.3274305288
 10
0.2784417788
 20
-14.3200786726
 10
0.3120220207
 20
-14.30960438
 10
0.344484027
 20
-14.2961331259
 10
0.3752300765
 20
-14.2800413342
 10
0.4040609288
 20
-14.2614544799
 10
0.4311758243
 20
-14.240247088
 10
0.456574763
 20
-14.2164191586
  0
LWPOLYLINE
  5
2AC
100
AcDbEntity
  8
IMPORT_IGES
100
AcDbPolyline
 62
7
  6
CONTINUOUS
 90
13
 70
0
 10
3.2698500141
 20
-14.3331434796
 10
3.2949629297
 20
-14.332221759
 10
3.3198297518
 20
-14.3291681697
 10
3.3444504806
 20
-14.3239827118
 10
3.3689176113
 20
-14.3167475501
 10
3.3931386486
 20
-14.3073805198
 10
3.4168361066
 20
-14.295635126
 10
3.4399526573
 20
-14.281473599
 10
3.4625456287
 20
-14.2649337085
 10
3.4845095186
 20
-14.2458822681
 10
3.5058091596
 20
-14.2242748824
 10
3.5264797192
 20
-14.2001559469
 10
3.5465211973
 20
-14.1735254614
  0
LWPOLYLINE
  5
2AD
100
AcDbEntity
  8
IMPORT_IGES
100
AcDbPolyline
 62
7
  6
CONTINUOUS
 90
10
 70
0
 10
1.6028310054
 20
-13.3661242391
 10
1.6364071552
 20
-13.3649637561
 10
1.6693110162
 20
-13.3618243892
 10
1.7015425884
 20
-13.3567061383
 10
1.7332070203
 20
-13.3495508244
 10
1.7641991634
 20
-13.3404166264
 10
1.7942035723
 20
-13.3294780818
 10
1.8231150987
 20
-13.3167933695
 10
1.8510388909
 20
-13.3023043104
 10
1.877974949
 20
-13.2860109047
  0
LWPOLYLINE
  5
2AE
100
AcDbEntity
  8
IMPORT_IGES
100
AcDbPolyline
 62
7
  6
CONTINUOUS
 90
10
 70
0
 10
0.0877901249
 20
-13.3661242391
 10
0.1213661564
 20
-13.3649637648
 10
0.1542699243
 20
-13.3618244093
 10
0.1865014284
 20
-13.3567061725
 10
0.2181658174
 20
-13.3495508779
 10
0.2491579428
 20
-13.3404167019
 10
0.2791623588
 20
-13.3294781744
 10
0.308073917
 20
-13.3167934717
 10
0.335997766
 20
-13.3023044174
 10
0.3629339056
 20
-13.2860110115
  0
LWPOLYLINE
  5
2AF
100
AcDbEntity
  8
IMPORT_IGES
100
AcDbPolyline
 62
7
  6
CONTINUOUS
 90
10
 70
0
 10
3.2698500142
 20
-14.5300055594
 10
3.3189593972
 20
-14.5284088908
 10
3.3657430436
 20
-14.5238419093
 10
3.4102009534
 20
-14.5163046149
 10
3.4524974981
 20
-14.5055411398
 10
3.4924683062
 20
-14.4918073518
 10
3.5296202627
 20
-14.4758708544
 10
3.5637889961
 20
-14.4579875154
 10
3.5951388779
 20
-14.437901467
 10
3.6236699082
 20
-14.4156127091
  0
LWPOLYLINE
  5
2B0
100
AcDbEntity
  8
IMPORT_IGES
100
AcDbPolyline
 62
7
  6
CONTINUOUS
 90
10
 70
0
 10
1.7065826897
 20
-13.5470246549
 10
1.6893442319
 20
-13.5475281729
 10
1.671720571
 20
-13.5486794951
 10
1.6537117071
 20
-13.5504786217
 10
1.63531452
 20
-13.5529718755
 10
1.6165321299
 20
-13.5561129336
 10
1.5973738969
 20
-13.5597628273
 10
1.5778429411
 20
-13.5638752337
 10
1.5579361426
 20
-13.5684964758
 10
1.5376535011
 20
-13.5736265535
  0
LWPOLYLINE
  5
2B1
100
AcDbEntity
  8
IMPORT_IGES
100
AcDbPolyline
 62
7
  6
CONTINUOUS
 90
10
 70
0
 10
0.1915418092
 20
-13.5470246549
 10
0.1743033464
 20
-13.5475281732
 10
0.1566796808
 20
-13.5486794961
 10
0.1386708124
 20
-13.5504786235
 10
0.1202736212
 20
-13.5529718786
 10
0.1014912272
 20
-13.5561129382
 10
0.0823329904
 20
-13.5597628325
 10
0.0628020308
 20
-13.5638752382
 10
0.0428952283
 20
-13.5684964785
 10
0.0226125831
 20
-13.5736265535
  0
LWPOLYLINE
  5
2B2
100
AcDbEntity
  8
IMPORT_IGES
100
AcDbPolyline
 62
7
  6
CONTINUOUS
 90
13
 70
0
 10
3.2671897635
 20
-12.7369633413
 10
3.2413277936
 20
-12.7376787966
 10
3.2158494578
 20
-12.7404681623
 10
3.1907547562
 20
-12.7453314383
 10
3.1657819564
 20
-12.7522926397
 10
3.1411927907
 20
-12.7613277515
 10
3.1177724561
 20
-12.7723647283
 10
3.0957513513
 20
-12.7855121163
 10
3.0748990775
 20
-12.8006613694
 10
3.0553096354
 20
-12.8174148037
 10
3.0370143587
 20
-12.8356398581
 10
3.0199819137
 20
-12.8554690939
 10
3.0042123006
 20
-12.8769025109
  0
LINE
  5
2B3
100
AcDbEntity
  8
IMPORT_IGES
100
AcDbLine
 62
7
  6
CONTINUOUS
 10
10.7049405313
 20
-14.7490297703
 11
9.5834446809
 21
-14.7490297703
  0
LINE
  5
2B4
100
AcDbEntity
  8
IMPORT_IGES
100
AcDbLine
 62
7
  6
CONTINUOUS
 10
10.640854016
 20
-14.6849439795
 11
9.6475295722
 21
-14.6849439795
  0
LINE
  5
2B5
100
AcDbEntity
  8
IMPORT_IGES
100
AcDbLine
 62
7
  6
CONTINUOUS
 10
9.6475295722
 20
-14.4926854725
 11
10.640854016
 21
-14.4926854725
  0
LINE
  5
2B6
100
AcDbEntity
  8
IMPORT_IGES
100
AcDbLine
 62
7
  6
CONTINUOUS
 10
9.5834446809
 20
-14.4286026506
 11
10.7049405313
 21
-14.4286026506
  0
LINE
  5
2B7
100
AcDbEntity
  8
IMPORT_IGES
100
AcDbLine
 62
7
  6
CONTINUOUS
 10
11.3171631208
 20
-14.4286026506
 11
11.8905213463
 21
-14.4286026506
  0
LINE
  5
2B8
100
AcDbEntity
  8
IMPORT_IGES
100
AcDbLine
 62
7
  6
CONTINUOUS
 10
11.8264341727
 20
-14.3645154628
 11
11.322864797
 21
-14.3645154628
  0
LINE
  5
2B9
100
AcDbEntity
  8
IMPORT_IGES
100
AcDbLine
 62
7
  6
CONTINUOUS
 10
11.1855802029
 20
-13.7877469503
 11
11.3088994049
 21
-13.7877469503
  0
LINE
  5
2BA
100
AcDbEntity
  8
IMPORT_IGES
100
AcDbLine
 62
7
  6
CONTINUOUS
 10
11.3732304879
 20
-13.7877469503
 11
11.7183721527
 21
-13.7877469503
  0
LINE
  5
2BB
100
AcDbEntity
  8
IMPORT_IGES
100
AcDbLine
 62
7
  6
CONTINUOUS
 10
11.7824603463
 20
-13.7236626506
 11
11.3788371644
 21
-13.7236626506
  0
LINE
  5
2BC
100
AcDbEntity
  8
IMPORT_IGES
100
AcDbLine
 62
7
  6
CONTINUOUS
 10
11.3145060575
 20
-13.7236626506
 11
11.1214940339
 21
-13.7236626506
  0
LINE
  5
2BD
100
AcDbEntity
  8
IMPORT_IGES
100
AcDbLine
 62
7
  6
CONTINUOUS
 10
8.0453932016
 20
-13.4673215982
 11
8.5720631839
 21
-13.4673215982
  0
LINE
  5
2BE
100
AcDbEntity
  8
IMPORT_IGES
100
AcDbLine
 62
7
  6
CONTINUOUS
 10
8.6363945898
 20
-13.4673215982
 11
11.3369330053
 21
-13.4673215982
  0
LINE
  5
2BF
100
AcDbEntity
  8
IMPORT_IGES
100
AcDbLine
 62
7
  6
CONTINUOUS
 10
11.4012642075
 20
-13.4673215982
 11
11.602135228
 21
-13.4673215982
  0
LINE
  5
2C0
100
AcDbEntity
  8
IMPORT_IGES
100
AcDbLine
 62
7
  6
CONTINUOUS
 10
11.1607470189
 20
-13.2109762608
 11
9.0387177413
 21
-13.2109762608
  0
LINE
  5
2C1
100
AcDbEntity
  8
IMPORT_IGES
100
AcDbLine
 62
7
  6
CONTINUOUS
 10
8.7182913212
 20
-13.2109762608
 11
8.6139674961
 21
-13.2109762608
  0
LINE
  5
2C2
100
AcDbEntity
  8
IMPORT_IGES
100
AcDbLine
 62
7
  6
CONTINUOUS
 10
8.5496363892
 20
-13.2109762608
 11
8.0453932016
 21
-13.2109762608
  0
LINE
  5
2C3
100
AcDbEntity
  8
IMPORT_IGES
100
AcDbLine
 62
7
  6
CONTINUOUS
 10
8.9746314961
 20
-13.1468945498
 11
8.782377
 21
-13.1468945498
  0
LINE
  5
2C4
100
AcDbEntity
  8
IMPORT_IGES
100
AcDbLine
 62
7
  6
CONTINUOUS
 10
9.7116157413
 20
-12.9546353101
 11
10.576768228
 21
-12.9546353101
  0
LINE
  5
2C5
100
AcDbEntity
  8
IMPORT_IGES
100
AcDbLine
 62
7
  6
CONTINUOUS
 10
10.512683
 20
-12.8905535991
 11
9.775701
 21
-12.8905535991
  0
LINE
  5
2C6
100
AcDbEntity
  8
IMPORT_IGES
100
AcDbLine
 62
7
  6
CONTINUOUS
 10
8.782377
 20
-12.730336314
 11
8.9746314961
 21
-12.730336314
  0
LINE
  5
2C7
100
AcDbEntity
  8
IMPORT_IGES
100
AcDbLine
 62
7
  6
CONTINUOUS
 10
9.0387177413
 20
-12.666250145
 11
8.7182913212
 21
-12.666250145
  0
LINE
  5
2C8
100
AcDbEntity
  8
IMPORT_IGES
100
AcDbLine
 62
7
  6
CONTINUOUS
 10
9.775701
 20
-12.6342089231
 11
10.512683
 21
-12.6342089231
  0
LINE
  5
2C9
100
AcDbEntity
  8
IMPORT_IGES
100
AcDbLine
 62
7
  6
CONTINUOUS
 10
10.576768228
 20
-12.5701220214
 11
9.7116157413
 21
-12.5701220214
  0
LWPOLYLINE
  5
2CA
100
AcDbEntity
  8
IMPORT_IGES
100
AcDbPolyline
 62
7
  6
CONTINUOUS
 90
10
 70
0
 10
0.1702560678
 20
-14.5313355903
 10
0.1555981233
 20
-14.53120615
 10
0.1411451606
 20
-14.5308367162
 10
0.1268971795
 20
-14.5302272887
 10
0.1128498061
 20
-14.529373609
 10
0.0990074144
 20
-14.5282799357
 10
0.0853831269
 20
-14.5269590447
 10
0.0719813176
 20
-14.5254151947
 10
0.0587976124
 20
-14.5236441269
 10
0.0458320113
 20
-14.5216458416
  0
LWPOLYLINE
  5
2CB
100
AcDbEntity
  8
IMPORT_IGES
100
AcDbPolyline
 62
7
  6
CONTINUOUS
 90
10
 70
0
 10
1.6852969168
 20
-14.5313355903
 10
1.6706381258
 20
-14.5312061335
 10
1.6561843406
 20
-14.5308366558
 10
1.641935561
 20
-14.5302271572
 10
1.6278874123
 20
-14.5293733782
 10
1.6140442694
 20
-14.5282795783
 10
1.6004192568
 20
-14.5269585357
 10
1.5870167494
 20
-14.5254145097
 10
1.5738323725
 20
-14.5236432411
 10
1.5608661259
 20
-14.5216447297
  0
LWPOLYLINE
  5
2CC
100
AcDbEntity
  8
IMPORT_IGES
100
AcDbPolyline
 62
7
  6
CONTINUOUS
 90
10
 70
0
 10
0.1609481492
 20
-12.5387708242
 10
0.1958940071
 20
-12.5396888019
 10
0.23018542
 20
-12.5422926646
 10
0.2638223877
 20
-12.5465824124
 10
0.2966941241
 20
-12.5525380637
 10
0.3289114154
 20
-12.5601796
 10
0.3608066208
 20
-12.5695669661
 10
0.3924905267
 20
-12.5807201437
 10
0.4238523467
 20
-12.5936191512
 10
0.4548920808
 20
-12.6082639886
  0
LWPOLYLINE
  5
2CD
100
AcDbEntity
  8
IMPORT_IGES
100
AcDbPolyline
 62
7
  6
CONTINUOUS
 90
10
 70
0
 10
1.6759892621
 20
-12.5387708242
 10
1.7109351219
 20
-12.539688805
 10
1.7452265458
 20
-12.542292676
 10
1.7788635338
 20
-12.5465824373
 10
1.8117353142
 20
-12.5525381117
 10
1.8439526587
 20
-12.5601796764
 10
1.8758478826
 20
-12.5695670627
 10
1.9075317578
 20
-12.5807202477
 10
1.9388935124
 20
-12.5936192544
 10
1.9699331464
 20
-12.6082640827
  0
LWPOLYLINE
  5
2CE
100
AcDbEntity
  8
IMPORT_IGES
100
AcDbPolyline
 62
7
  6
CONTINUOUS
 90
10
 70
0
 10
-2.8451909488
 20
-12.5387708242
 10
-2.8089393216
 20
-12.5398374869
 10
-2.7740537479
 20
-12.5425060187
 10
-2.7405342277
 20
-12.5467764197
 10
-2.7083150047
 20
-12.5527627
 10
-2.6774618352
 20
-12.5603508495
 10
-2.6481719884
 20
-12.5691988371
 10
-2.6205112208
 20
-12.5791926527
 10
-2.5944137758
 20
-12.5904463066
 10
-2.5698796536
 20
-12.6029597987
  0
LWPOLYLINE
  5
2CF
100
AcDbEntity
  8
IMPORT_IGES
100
AcDbPolyline
 62
7
  6
CONTINUOUS
 90
10
 70
0
 10
-1.3301500681
 20
-12.5387708242
 10
-1.2938983843
 20
-12.5398374885
 10
-1.2590127677
 20
-12.5425060218
 10
-1.2254932185
 20
-12.5467764241
 10
-1.1932739802
 20
-12.5527627071
 10
-1.1624208093
 20
-12.5603508591
 10
-1.1331309749
 20
-12.5691988453
 10
-1.1054702335
 20
-12.5791926541
 10
-1.0793728286
 20
-12.5904462972
 10
-1.0548387604
 20
-12.6029597746
  0
LWPOLYLINE
  5
2D0
100
AcDbEntity
  8
IMPORT_IGES
100
AcDbPolyline
 62
7
  6
CONTINUOUS
 90
13
 70
0
 10
-2.8478511751
 20
-12.736963218
 10
-2.8218664923
 20
-12.737821162
 10
-2.7958509606
 20
-12.7410959576
 10
-2.76980458
 20
-12.7467876047
 10
-2.7432304007
 20
-12.7550424945
 10
-2.7166253724
 20
-12.7657142359
 10
-2.6914803442
 20
-12.7783636549
 10
-2.6684929602
 20
-12.7928236865
 10
-2.6469655762
 20
-12.8092613957
 10
-2.6262961085
 20
-12.8277388044
 10
-2.6062838626
 20
-12.8482765865
 10
-2.587129533
 20
-12.8708540681
 10
-2.5688331197
 20
-12.8954712492
  0
LWPOLYLINE
  5
2D1
100
AcDbEntity
  8
IMPORT_IGES
100
AcDbPolyline
 62
7
  6
CONTINUOUS
 90
13
 70
0
 10
-1.3328102365
 20
-12.736963218
 10
-1.3068255546
 20
-12.7378211624
 10
-1.2808100248
 20
-12.7410959585
 10
-1.2547636472
 20
-12.7467876063
 10
-1.2281894724
 20
-12.7550424971
 10
-1.2015844499
 20
-12.7657142394
 10
-1.1764394275
 20
-12.7783636597
 10
-1.1534520492
 20
-12.7928236931
 10
-1.131924671
 20
-12.8092614043
 10
-1.1112552093
 20
-12.8277388136
 10
-1.0912429695
 20
-12.8482765942
 10
-1.0720886462
 20
-12.8708540727
 10
-1.0537922392
 20
-12.8954712492
  0
LWPOLYLINE
  5
2D2
100
AcDbEntity
  8
IMPORT_IGES
100
AcDbPolyline
 62
7
  6
CONTINUOUS
 90
13
 70
0
 10
-2.8451908663
 20
-14.3331433563
 10
-2.8711838175
 20
-14.3322824192
 10
-2.897184487
 20
-14.3290094084
 10
-2.9231928748
 20
-14.323324324
 10
-2.9496988958
 20
-14.3150838745
 10
-2.9762126351
 20
-14.3044313513
 10
-3.0012643478
 20
-14.2917966288
 10
-3.0241693165
 20
-14.277336568
 10
-3.0456122586
 20
-14.2608943078
 10
-3.0661775816
 20
-14.2424291397
 10
-3.0860600877
 20
-14.221927494
 10
-3.1050649747
 20
-14.1994029404
 10
-3.1231922424
 20
-14.1748554789
  0
LWPOLYLINE
  5
2D3
100
AcDbEntity
  8
IMPORT_IGES
100
AcDbPolyline
 62
7
  6
CONTINUOUS
 90
13
 70
0
 10
-1.3301499858
 20
-14.3331433563
 10
-1.3561429352
 20
-14.3322824189
 10
-1.3821436017
 20
-14.3290094079
 10
-1.4081519854
 20
-14.3233243234
 10
-1.4346580008
 20
-14.315083874
 10
-1.4611717334
 20
-14.304431351
 10
-1.4862234394
 20
-14.2917966286
 10
-1.5091284018
 20
-14.2773365673
 10
-1.5305713376
 20
-14.2608943066
 10
-1.551136654
 20
-14.2424291395
 10
-1.5710191535
 20
-14.221927497
 10
-1.5900240336
 20
-14.199402948
 10
-1.6081512943
 20
-14.1748554925
  0
LWPOLYLINE
  5
2D4
100
AcDbEntity
  8
IMPORT_IGES
100
AcDbPolyline
 62
7
  6
CONTINUOUS
 90
10
 70
0
 10
0.0492225878
 20
-13.3634651606
 10
0.0532980073
 20
-13.3641072331
 10
0.0574274552
 20
-13.3646583164
 10
0.0616109315
 20
-13.3651184105
 10
0.0658505199
 20
-13.3654817363
 10
0.0701441367
 20
-13.365754073
 10
0.0744855307
 20
-13.3659527578
 10
0.0788726182
 20
-13.36608357
 10
0.083307483
 20
-13.3661407305
 10
0.0877901249
 20
-13.3661242391
  0
LWPOLYLINE
  5
2D5
100
AcDbEntity
  8
IMPORT_IGES
100
AcDbPolyline
 62
7
  6
CONTINUOUS
 90
10
 70
0
 10
1.5642634682
 20
-13.3634651606
 10
1.5683388929
 20
-13.3641072354
 10
1.5724683447
 20
-13.3646583204
 10
1.5766518236
 20
-13.3651184154
 10
1.5808914135
 20
-13.3654817414
 10
1.5851850304
 20
-13.3657540774
 10
1.5895264232
 20
-13.3659527615
 10
1.5939135081
 20
-13.3660835727
 10
1.5983483688
 20
-13.3661407319
 10
1.6028310054
 20
-13.3661242391
  0
LINE
  5
2D6
100
AcDbEntity
  8
IMPORT_IGES
100
AcDbLine
 62
7
  6
CONTINUOUS
 10
-0.1861627097
 20
-13.086801892
 11
-0.4256480232
 21
-13.0442279811
  0
LINE
  5
2D7
100
AcDbEntity
  8
IMPORT_IGES
100
AcDbLine
 62
7
  6
CONTINUOUS
 10
1.3288782211
 20
-13.086801892
 11
1.0893928573
 21
-13.0442279811
  0
LWPOLYLINE
  5
2D8
100
AcDbEntity
  8
IMPORT_IGES
100
AcDbPolyline
 62
7
  6
CONTINUOUS
 90
10
 70
0
 10
0.0458320113
 20
-14.5216458416
 10
0.0069499277
 20
-14.5139188256
 10
-0.0307026126
 20
-14.5040831664
 10
-0.0671256096
 20
-14.4921388642
 10
-0.1024225082
 20
-14.4779917043
 10
-0.1364898636
 20
-14.4617359013
 10
-0.1690173411
 20
-14.4436540988
 10
-0.1999014959
 20
-14.4238405116
 10
-0.2292457729
 20
-14.402200925
 10
-0.2570501721
 20
-14.378735339
  0
LWPOLYLINE
  5
2D9
100
AcDbEntity
  8
IMPORT_IGES
100
AcDbPolyline
 62
7
  6
CONTINUOUS
 90
10
 70
0
 10
1.5608661259
 20
-14.5216447297
 10
1.5219851369
 20
-14.5139175537
 10
1.4843336116
 20
-14.5040818091
 10
1.4479115498
 20
-14.4921374959
 10
1.4126155111
 20
-14.4779904088
 10
1.3785489361
 20
-14.4617347531
 10
1.3460221465
 20
-14.4436531451
 10
1.3151385831
 20
-14.4238397903
 10
1.2857948052
 20
-14.4022004832
 10
1.2579908127
 20
-14.3787352238
  0
LWPOLYLINE
  5
2DA
100
AcDbEntity
  8
IMPORT_IGES
100
AcDbPolyline
 62
7
  6
CONTINUOUS
 90
10
 70
0
 10
0.4631634551
 20
-13.4406757994
 10
0.50166984
 20
-13.4513956879
 10
0.5380790416
 20
-13.4641942366
 10
0.5723910597
 20
-13.4790714458
 10
0.6047036608
 20
-13.496216396
 10
0.6349190784
 20
-13.5154400065
 10
0.6627440138
 20
-13.5361750354
 10
0.6880807005
 20
-13.5582324018
 10
0.7110269049
 20
-13.5818011865
 10
0.731582627
 20
-13.6068813895
  0
LWPOLYLINE
  5
2DB
100
AcDbEntity
  8
IMPORT_IGES
100
AcDbPolyline
 62
7
  6
CONTINUOUS
 90
34
 70
0
 10
11.073676109
 20
-17.211677786
 10
11.0959866841
 20
-17.2182737457
 10
11.1177916028
 20
-17.2251211209
 10
11.1390908649
 20
-17.2322199114
 10
11.1598683063
 20
-17.2394465179
 10
11.1801400911
 20
-17.2469245398
 10
11.1999547123
 20
-17.2550247752
 10
11.2193164027
 20
-17.2637707986
 10
11.2382209294
 20
-17.2731390353
 10
11.2567040866
 20
-17.2834295593
 10
11.2747608594
 20
-17.2947342726
 10
11.2923962627
 20
-17.3069612732
 10
11.3096611354
 20
-17.3201349276
 10
11.3265784961
 20
-17.334275347
 10
11.3431253261
 20
-17.3493624202
 10
11.3592834087
 20
-17.365360181
 10
11.3751420578
 20
-17.3823494293
 10
11.3906119595
 20
-17.4002493651
 10
11.405406955
 20
-17.4187816226
 10
11.4195011726
 20
-17.4379078975
 10
11.4329204841
 20
-17.4576664941
 10
11.4454563463
 20
-17.4778939599
 10
11.4570539793
 20
-17.4985297802
 10
11.4677681629
 20
-17.5196344698
 10
11.4775546941
 20
-17.5412261203
 10
11.4864110468
 20
-17.5632759486
 10
11.494339747
 20
-17.5858127378
 10
11.5013041696
 20
-17.6089409286
 10
11.5073194136
 20
-17.6326691026
 10
11.5123703801
 20
-17.6569886782
 10
11.5163751474
 20
-17.6819783511
 10
11.5193064085
 20
-17.7076643534
 10
11.5211914705
 20
-17.7340204531
 10
11.5220303335
 20
-17.7610466502
  0
LWPOLYLINE
  5
2DC
100
AcDbEntity
  8
IMPORT_IGES
100
AcDbPolyline
 62
7
  6
CONTINUOUS
 90
10
 70
0
 10
0.3279609949
 20
-13.5684328035
 10
0.3143242042
 20
-13.5640301283
 10
0.3002937453
 20
-13.5601240508
 10
0.2858696184
 20
-13.5567145707
 10
0.2710338981
 20
-13.5537891542
 10
0.2558045097
 20
-13.5513603353
 10
0.240235229
 20
-13.5494657157
 10
0.2243439813
 20
-13.5481178294
 10
0.2081128414
 20
-13.5473041425
 10
0.1915418092
 20
-13.5470246549
  0
LINE
  5
2DD
100
AcDbEntity
  8
IMPORT_IGES
100
AcDbLine
 62
253
  6
CONTINUOUS
 10
18.1530329338
 20
-39.1064769638
 11
18.4374234218
 21
-39.3912494594
  0
LINE
  5
2DE
100
AcDbEntity
  8
IMPORT_IGES
100
AcDbLine
 62
253
  6
CONTINUOUS
 10
19.6620813554
 20
-38.1833794035
 11
19.3812334465
 21
-37.8966450049
  0
LWPOLYLINE
  5
2DF
100
AcDbEntity
  8
0
100
AcDbPolyline
 62
7
  6
CONTINUOUS
 90
8
 70
0
 10
-13.4721102018
 20
-4.6770536688
 10
-13.4631157136
 20
-4.6880726458
 10
-13.4533141831
 20
-4.6992178481
 10
-13.4428316554
 20
-4.7103259783
 10
-13.432068569
 20
-4.7214625527
 10
-13.4211629826
 20
-4.7325524451
 10
-13.4099871892
 20
-4.7433482218
 10
-13.3985507246
 20
-4.7537058213
  0
LINE
  5
2E0
100
AcDbEntity
  8
0
100
AcDbLine
 62
7
  6
CONTINUOUS
 10
-13.488129474
 20
-4.6567564955
 11
-13.4721102018
 21
-4.6770536688
  0
LWPOLYLINE
  5
2E1
100
AcDbEntity
  8
0
100
AcDbPolyline
 62
7
  6
CONTINUOUS
 90
10
 70
0
 10
-13.488129474
 20
-4.6567564955
 10
-13.4905260695
 20
-4.6531079131
 10
-13.4926780594
 20
-4.6493334194
 10
-13.4945739411
 20
-4.6454362758
 10
-13.4962040085
 20
-4.6414094999
 10
-13.4975560713
 20
-4.6372671996
 10
-13.4986180192
 20
-4.6330446398
 10
-13.4993825914
 20
-4.6287563472
 10
-13.4998449248
 20
-4.6243960238
 10
-13.5
 20
-4.6199679265
  0
LWPOLYLINE
  5
2E2
100
AcDbEntity
  8
0
100
AcDbPolyline
 62
253
  6
CONTINUOUS
 90
13
 70
0
 10
-13.347826087
 20
-3.913160906
 10
-13.3549342339
 20
-3.900935097
 10
-13.3619434214
 20
-3.8886774379
 10
-13.3687129567
 20
-3.8766339653
 10
-13.3751069481
 20
-3.8650464319
 10
-13.3809970386
 20
-3.8541474459
 10
-13.3862649814
 20
-3.8441558026
 10
-13.3908050159
 20
-3.8352720876
 10
-13.3945259663
 20
-3.8276746961
 10
-13.3973530935
 20
-3.8215162185
 10
-13.3992296241
 20
-3.8169203189
 10
-13.400117876
 20
-3.8139792764
 10
-13.3999999997
 20
-3.8127521634
  0
LINE
  5
2E3
100
AcDbEntity
  8
IMPORT_IGES
100
AcDbLine
 62
7
  6
CONTINUOUS
 10
-7.0103341714
 20
-19.9217532515
 11
-7.7658576242
 21
-17.9717582643
  0
LINE
  5
2E4
100
AcDbEntity
  8
IMPORT_IGES
100
AcDbLine
 62
7
  6
CONTINUOUS
 10
-6.9797901916
 20
-19.3883839479
 11
-7.4863210311
 21
-17.9717807436
  0
LWPOLYLINE
  5
2E5
100
AcDbEntity
  8
IMPORT_IGES
100
AcDbPolyline
 62
7
  6
CONTINUOUS
 90
7
 70
0
 10
-23.2934535197
 20
32.4953146905
 10
-23.2876725268
 20
32.47499954
 10
-23.2819653391
 20
32.4427190194
 10
-23.2763319565
 20
32.3984731289
 10
-23.27075534
 20
32.342047649
 10
-23.2652525286
 20
32.2736567992
 10
-23.25987464
 20
32.1939432372
  0
LWPOLYLINE
  5
2E6
100
AcDbEntity
  8
IMPORT_IGES
100
AcDbPolyline
 62
7
  6
CONTINUOUS
 90
16
 70
0
 10
-11.2003069237
 20
-19.3896917964
 10
-11.1957323121
 20
-19.4165527134
 10
-11.1904814527
 20
-19.4421302953
 10
-11.1845543454
 20
-19.4664245421
 10
-11.1779153749
 20
-19.489401464
 10
-11.1706001566
 20
-19.5110950508
 10
-11.1627155361
 20
-19.5316072722
 10
-11.1542524671
 20
-19.5509441405
 10
-11.1452199958
 20
-19.5690996433
 10
-11.1357521067
 20
-19.5861577136
 10
-11.125861626
 20
-19.6021072977
 10
-11.1155357274
 20
-19.6169594492
 10
-11.104869917
 20
-19.630831262
 10
-11.0938960299
 20
-19.6437617672
 10
-11.0825822309
 20
-19.6557119337
 10
-11.07092852
 20
-19.6666817615
  0
LWPOLYLINE
  5
2E7
100
AcDbEntity
  8
IMPORT_IGES
100
AcDbPolyline
 62
7
  6
CONTINUOUS
 90
19
 70
0
 10
-10.4128581986
 20
-19.2819496343
 10
-10.4133136684
 20
-19.2575401887
 10
-10.4145555224
 20
-19.2339668911
 10
-10.4165837605
 20
-19.2112297413
 10
-10.41941823
 20
-19.1893512052
 10
-10.4230390836
 20
-19.1683088169
 10
-10.4273867799
 20
-19.148035179
 10
-10.4324704631
 20
-19.1285247438
 10
-10.438280989
 20
-19.109783059
 10
-10.4447313836
 20
-19.09175937
 10
-10.4518203284
 20
-19.0744624215
 10
-10.4595491418
 20
-19.0578834689
 10
-10.4678348051
 20
-19.0419455235
 10
-10.4766556576
 20
-19.0266443482
 10
-10.48603336
 20
-19.0119841802
 10
-10.4959498754
 20
-18.9979007411
 10
-10.5063991917
 20
-18.9843726049
 10
-10.5173873211
 20
-18.9714211978
 10
-10.5289142635
 20
-18.9590465197
  0
LWPOLYLINE
  5
2E8
100
AcDbEntity
  8
0
100
AcDbPolyline
 62
253
  6
CONTINUOUS
 90
10
 70
0
 10
-11.6913993252
 20
-2.8801769032
 10
-11.6913559341
 20
-2.8872751861
 10
-11.6918192691
 20
-2.8944768682
 10
-11.6927905945
 20
-2.9017760319
 10
-11.6942590866
 20
-2.9091865538
 10
-11.6962382477
 20
-2.916682313
 10
-11.6987650842
 20
-2.924196932
 10
-11.7018519221
 20
-2.9317037177
 10
-11.7054872235
 20
-2.9392159202
 10
-11.7096714284
 20
-2.9467267598
  0
LWPOLYLINE
  5
2E9
100
AcDbEntity
  8
IMPORT_IGES
100
AcDbPolyline
 62
7
  6
CONTINUOUS
 90
25
 70
0
 10
-9.6905866608
 20
-18.9600531711
 10
-9.6904529266
 20
-18.9994851826
 10
-9.6899276101
 20
-19.0377337865
 10
-9.6890107112
 20
-19.0747989829
 10
-9.6877052934
 20
-19.1106657581
 10
-9.6860082933
 20
-19.1453491257
 10
-9.6839105204
 20
-19.1788941272
 10
-9.6813987077
 20
-19.21129961
 10
-9.6784861222
 20
-19.2425667266
 10
-9.6752033735
 20
-19.2727439769
 10
-9.6715612471
 20
-19.3018296436
 10
-9.6675489575
 20
-19.3298254438
 10
-9.6631647577
 20
-19.3567850291
 10
-9.658407378
 20
-19.3827144206
 10
-9.6532780882
 20
-19.4076075972
 10
-9.6477789495
 20
-19.4315001463
 10
-9.6419448411
 20
-19.45441889
 10
-9.635740884
 20
-19.4763370063
 10
-9.6290645018
 20
-19.4972096168
 10
-9.6218824688
 20
-19.5170419252
 10
-9.6142280108
 20
-19.5358287277
 10
-9.6060982289
 20
-19.5535095347
 10
-9.5974921568
 20
-19.5700641829
 10
-9.5884107607
 20
-19.5855128355
 10
-9.5788540408
 20
-19.5998554925
  0
LINE
  5
2EA
100
AcDbEntity
  8
IMPORT_IGES
100
AcDbLine
 62
7
  6
CONTINUOUS
 10
-11.7084244266
 20
-19.9217532515
 11
-11.7084244266
 21
-19.6916372831
  0
LINE
  5
2EB
100
AcDbEntity
  8
IMPORT_IGES
100
AcDbLine
 62
7
  6
CONTINUOUS
 10
-10.2505795658
 20
-18.2271399851
 11
-10.2505795658
 21
-17.9983550067
  0
LWPOLYLINE
  5
2EC
100
AcDbEntity
  8
IMPORT_IGES
100
AcDbPolyline
 62
7
  6
CONTINUOUS
 90
25
 70
0
 10
-9.6905866608
 20
-18.9600531711
 10
-9.6904096506
 20
-18.9198334834
 10
-9.6897832071
 20
-18.8807900472
 10
-9.6887073304
 20
-18.8429228623
 10
-9.6871820929
 20
-18.8062462477
 10
-9.6852074221
 20
-18.7707458846
 10
-9.6827831006
 20
-18.7363788161
 10
-9.6798968953
 20
-18.7031419167
 10
-9.6765610393
 20
-18.671038312
 10
-9.6728120146
 20
-18.6400344224
 10
-9.6686639683
 20
-18.6101328313
 10
-9.6641027533
 20
-18.5813309552
 10
-9.6591224102
 20
-18.5535874639
 10
-9.6537150469
 20
-18.5268943217
 10
-9.6478885555
 20
-18.5012595643
 10
-9.6416606534
 20
-18.4766659682
 10
-9.6350537964
 20
-18.453116164
 10
-9.6280455286
 20
-18.4306075212
 10
-9.6205861997
 20
-18.4091149245
 10
-9.6126506742
 20
-18.3886131019
 10
-9.6042640877
 20
-18.3691273256
 10
-9.5954521959
 20
-18.3507082959
 10
-9.5862235844
 20
-18.3333729131
 10
-9.5765696678
 20
-18.317104277
 10
-9.566490446
 20
-18.3019023876
  0
LWPOLYLINE
  5
2ED
100
AcDbEntity
  8
IMPORT_IGES
100
AcDbPolyline
 62
7
  6
CONTINUOUS
 90
10
 70
0
 10
-9.9366644964
 20
-18.9600532953
 10
-9.9360046908
 20
-18.8878257987
 10
-9.9336223074
 20
-18.8181762716
 10
-9.9295173461
 20
-18.7511047142
 10
-9.9237841405
 20
-18.6865652806
 10
-9.916328357
 20
-18.6246038167
 10
-9.9068669953
 20
-18.5653578593
 10
-9.8953057219
 20
-18.5088732544
 10
-9.8817388702
 20
-18.455104156
 10
-9.8661664403
 20
-18.4040505644
  0
LWPOLYLINE
  5
2EE
100
AcDbEntity
  8
IMPORT_IGES
100
AcDbPolyline
 62
7
  6
CONTINUOUS
 90
10
 70
0
 10
-11.7110852422
 20
-18.5060175913
 10
-11.7116792939
 20
-18.5314098441
 10
-11.7134508487
 20
-18.5568807216
 10
-11.7163999066
 20
-18.5824302238
 10
-11.7205181703
 20
-18.6081056415
 10
-11.7258139371
 20
-18.6338596839
 10
-11.7323120993
 20
-18.6595504781
 10
-11.7400209545
 20
-18.6851307333
 10
-11.7489322052
 20
-18.7106477402
 10
-11.7590458514
 20
-18.736101499
  0
LWPOLYLINE
  5
2EF
100
AcDbEntity
  8
IMPORT_IGES
100
AcDbPolyline
 62
7
  6
CONTINUOUS
 90
10
 70
0
 10
-10.1587999152
 20
-19.2616525232
 10
-10.1609231609
 20
-19.3206589502
 10
-10.1669203396
 20
-19.377734391
 10
-10.1767914515
 20
-19.4328788456
 10
-10.1907142627
 20
-19.4862603096
 10
-10.2085110071
 20
-19.5377107874
 10
-10.2296483859
 20
-19.5867262922
 10
-10.253948633
 20
-19.6331388281
 10
-10.2815895145
 20
-19.677116391
 10
-10.3125710306
 20
-19.7186589807
  0
LWPOLYLINE
  5
2F0
100
AcDbEntity
  8
0
100
AcDbPolyline
 62
7
  6
CONTINUOUS
 90
8
 70
0
 10
-12.0154378147
 20
-2.0574099571
 10
-12.0103923351
 20
-2.0441109886
 10
-12.0056410684
 20
-2.0300499991
 10
-12.001262412
 20
-2.0154177966
 10
-11.9969994048
 20
-2.0005284134
 10
-11.9928480776
 20
-1.9855389751
 10
-11.9890865675
 20
-1.970462601
 10
-11.9858348663
 20
-1.9553795794
  0
LINE
  5
2F1
100
AcDbEntity
  8
0
100
AcDbLine
 62
7
  6
CONTINUOUS
 10
-12.0250060706
 20
-2.0814317148
 11
-12.0154378147
 21
-2.0574099571
  0
LWPOLYLINE
  5
2F2
100
AcDbEntity
  8
0
100
AcDbPolyline
 62
7
  6
CONTINUOUS
 90
10
 70
0
 10
-12.0250060706
 20
-2.0814317148
 10
-12.026967538
 20
-2.0853315186
 10
-12.0291603504
 20
-2.0890824434
 10
-12.0315874349
 20
-2.092672897
 10
-12.0342596915
 20
-2.0960979647
 10
-12.0371709974
 20
-2.0993400356
 10
-12.0402968675
 20
-2.1023709893
 10
-12.0436283517
 20
-2.1051772745
 10
-12.0471733358
 20
-2.1077578287
 10
-12.050930643
 20
-2.1101061764
  0
LWPOLYLINE
  5
2F3
100
AcDbEntity
  8
0
100
AcDbPolyline
 62
253
  6
CONTINUOUS
 90
13
 70
0
 10
-12.7391304348
 20
-2.3317232122
 10
-12.7461642218
 20
-2.3439919512
 10
-12.7532750715
 20
-2.3561909141
 10
-12.7603202568
 20
-2.3680752392
 10
-12.7671583591
 20
-2.3794063646
 10
-12.7736521126
 20
-2.3899568256
 10
-12.7796711582
 20
-2.3995148199
 10
-12.7850946642
 20
-2.4078884631
 10
-12.7898137234
 20
-2.4149095972
 10
-12.7937335583
 20
-2.4204372006
 10
-12.7967754592
 20
-2.4243602743
 10
-12.798878351
 20
-2.4266000446
 10
-12.8000000003
 20
-2.4271115173
  0
LWPOLYLINE
  5
2F4
100
AcDbEntity
  8
0
100
AcDbPolyline
 62
253
  6
CONTINUOUS
 90
13
 70
0
 10
-14.4637681159
 20
-2.5074385115
 10
-14.4570875651
 20
-2.4960724206
 10
-14.4502834992
 20
-2.4850137708
 10
-14.4434744927
 20
-2.4744552814
 10
-14.4367792064
 20
-2.4645809555
 10
-14.430314319
 20
-2.4555628729
 10
-14.4241924944
 20
-2.4475581921
 10
-14.4185204175
 20
-2.4407064106
 10
-14.4133969359
 20
-2.4351269345
 10
-14.4089113365
 20
-2.4309169974
 10
-14.4051417901
 20
-2.4281499658
 10
-14.4021539884
 20
-2.4268740608
 10
-14.4
 20
-2.4271115175
  0
LWPOLYLINE
  5
2F5
100
AcDbEntity
  8
IMPORT_IGES
100
AcDbPolyline
 62
253
  6
CONTINUOUS
 90
6
 70
0
 10
22.6392058329
 20
-10.0358086231
 10
22.6316533217
 20
-10.0365355661
 10
22.6158705807
 20
-10.0368097598
 10
22.5919227498
 20
-10.0366345592
 10
22.5599085345
 20
-10.0360194558
 10
22.5199604742
 20
-10.0349670695
  0
LWPOLYLINE
  5
2F6
100
AcDbEntity
  8
IMPORT_IGES
100
AcDbPolyline
 62
253
  6
CONTINUOUS
 90
7
 70
0
 10
-22.4169575269
 20
-10.0315478833
 10
-22.5199604828
 20
-10.0349671884
 10
-22.559908552
 20
-10.0360195783
 10
-22.5919227658
 20
-10.0366346841
 10
-22.6158705883
 20
-10.0368098865
 10
-22.6316533201
 20
-10.0365356938
 10
-22.6392058261
 20
-10.0358087516
  0
LINE
  5
2F7
100
AcDbEntity
  8
IMPORT_IGES
100
AcDbLine
 62
7
  6
CONTINUOUS
 10
-20.6427513039
 20
-9.9467285901
 11
20.6427513039
 21
-9.9467285901
  0
LINE
  5
2F8
100
AcDbEntity
  8
IMPORT_IGES
100
AcDbLine
 62
253
  6
CONTINUOUS
 10
22.5199604742
 20
-10.0349670695
 11
22.4169575571
 21
-10.0315477749
  0
LWPOLYLINE
  5
2F9
100
AcDbEntity
  8
IMPORT_IGES
100
AcDbPolyline
 62
7
  6
CONTINUOUS
 90
10
 70
0
 10
10.576768228
 20
-12.8156839249
 10
10.6456036566
 20
-12.8339745046
 10
10.7141082241
 20
-12.8533039468
 10
10.7822819304
 20
-12.8736722515
 10
10.8501338259
 20
-12.8950822625
 10
10.9176548602
 20
-12.9175311359
 10
10.9848178826
 20
-12.9410103408
 10
11.0516138427
 20
-12.9655170333
 10
11.1180517909
 20
-12.9910540572
 10
11.1841317272
 20
-13.0176214124
  0
LWPOLYLINE
  5
2FA
100
AcDbEntity
  8
IMPORT_IGES
100
AcDbPolyline
 62
7
  6
CONTINUOUS
 90
10
 70
0
 10
1.9782045667
 20
-13.4406757994
 10
2.016711076
 20
-13.4513957609
 10
2.0531203654
 20
-13.4641943708
 10
2.0874324349
 20
-13.4790716291
 10
2.1197450491
 20
-13.4962166208
 10
2.1499604433
 20
-13.5154402608
 10
2.1777853242
 20
-13.5361752944
 10
2.2031219271
 20
-13.5582326366
 10
2.2260680167
 20
-13.5818013723
 10
2.2466235928
 20
-13.6068815016
  0
LWPOLYLINE
  5
2FB
100
AcDbEntity
  8
IMPORT_IGES
100
AcDbPolyline
 62
7
  6
CONTINUOUS
 90
10
 70
0
 10
1.8430014689
 20
-13.5684327301
 10
1.8293647052
 20
-13.5640300701
 10
1.8153342779
 20
-13.5601240059
 10
1.8009101871
 20
-13.5567145376
 10
1.7860745076
 20
-13.5537891312
 10
1.7708451645
 20
-13.5513603206
 10
1.7552759335
 20
-13.5494657075
 10
1.73938474
 20
-13.5481178258
 10
1.7231536588
 20
-13.5473041416
 10
1.7065826897
 20
-13.5470246549
  0
LWPOLYLINE
  5
2FC
100
AcDbEntity
  8
IMPORT_IGES
100
AcDbPolyline
 62
7
  6
CONTINUOUS
 90
10
 70
0
 10
3.5450423464
 20
-12.6028958129
 10
3.5187173492
 20
-12.5897253831
 10
3.4912877125
 20
-12.5780412127
 10
3.4627534362
 20
-12.5678433017
 10
3.4330589771
 20
-12.5590981856
 10
3.4022598785
 20
-12.5518393288
 10
3.3705227699
 20
-12.546167125
 10
3.3379031946
 20
-12.5421150385
 10
3.3043456094
 20
-12.5396496049
 10
3.2698500142
 20
-12.5387708242
  0
LWPOLYLINE
  5
2FD
100
AcDbEntity
  8
IMPORT_IGES
100
AcDbPolyline
 62
7
  6
CONTINUOUS
 90
10
 70
0
 10
0.4548920808
 20
-12.6082639886
 10
0.4840107551
 20
-12.6241955315
 10
0.5115689102
 20
-12.6413918013
 10
0.5375665462
 20
-12.659852798
 10
0.5620525965
 20
-12.6796836897
 10
0.5849781275
 20
-12.7007793084
 10
0.6061963391
 20
-12.7228241495
 10
0.6256582978
 20
-12.7457130449
 10
0.6434129371
 20
-12.7695511628
 10
0.6594602569
 20
-12.7943385032
  0
LWPOLYLINE
  5
2FE
100
AcDbEntity
  8
IMPORT_IGES
100
AcDbPolyline
 62
7
  6
CONTINUOUS
 90
10
 70
0
 10
1.9699331464
 20
-12.6082640827
 10
1.9990519682
 20
-12.6241957455
 10
2.0266102328
 20
-12.6413921052
 10
2.0526079402
 20
-12.6598531616
 10
2.0770940206
 20
-12.6796840863
 10
2.1000195437
 20
-12.7007797077
 10
2.1212377192
 20
-12.7228245116
 10
2.140699617
 20
-12.7457133264
 10
2.1584541672
 20
-12.7695513236
 10
2.1745013698
 20
-12.7943385032
  0
LWPOLYLINE
  5
2FF
100
AcDbEntity
  8
IMPORT_IGES
100
AcDbPolyline
 62
7
  6
CONTINUOUS
 90
10
 70
0
 10
-2.5698796536
 20
-12.6029597987
 10
-2.5439856402
 20
-12.6178375822
 10
-2.5191957488
 20
-12.6339907672
 10
-2.4955099796
 20
-12.6514193537
 10
-2.4729947745
 20
-12.6700352669
 10
-2.4515836915
 20
-12.6899265816
 10
-2.4310774044
 20
-12.7113575224
 10
-2.4114094712
 20
-12.7344161638
 10
-2.392646334
 20
-12.7590144313
 10
-2.3747879928
 20
-12.7851523247
  0
LWPOLYLINE
  5
300
100
AcDbEntity
  8
IMPORT_IGES
100
AcDbPolyline
 62
7
  6
CONTINUOUS
 90
10
 70
0
 10
-1.0548387604
 20
-12.6029597746
 10
-1.0289446908
 20
-12.6178376017
 10
-1.0041547531
 20
-12.633990823
 10
-0.9804689473
 20
-12.6514194385
 10
-0.9579537137
 20
-12.6700353771
 10
-0.9365426119
 20
-12.6899267098
 10
-0.9160363213
 20
-12.7113576497
 10
-0.8963684017
 20
-12.7344162676
 10
-0.8776052933
 20
-12.7590144926
 10
-0.8597469961
 20
-12.7851523247
  0
LINE
  5
301
100
AcDbEntity
  8
0
100
AcDbLine
 62
7
  6
CONTINUOUS
 10
-14.4
 20
-2.4271115175
 11
-14.949069357
 21
-2.1101061764
  0
LINE
  5
302
100
AcDbEntity
  8
0
100
AcDbLine
 62
253
  6
CONTINUOUS
 10
-14.4637681159
 20
-2.5074385115
 11
-15.1156144091
 21
-2.1310948787
  0
LWPOLYLINE
  5
303
100
AcDbEntity
  8
IMPORT_IGES
100
AcDbPolyline
 62
7
  6
CONTINUOUS
 90
10
 70
0
 10
-0.0702912762
 20
-14.2442090468
 10
-0.0484558488
 20
-14.262519134
 10
-0.0252574554
 20
-14.2787804086
 10
-0.0006960959
 20
-14.2929928705
 10
0.0253654514
 20
-14.3052342688
 10
0.0527899647
 20
-14.3154268545
 10
0.0811657788
 20
-14.3233373808
 10
0.1103556718
 20
-14.3288880987
 10
0.1404968656
 20
-14.3321567572
 10
0.1715893602
 20
-14.3331433563
  0
LWPOLYLINE
  5
304
100
AcDbEntity
  8
IMPORT_IGES
100
AcDbPolyline
 62
7
  6
CONTINUOUS
 90
10
 70
0
 10
1.4447497326
 20
-14.2442091624
 10
1.4665851623
 20
-14.2625192515
 10
1.4897835544
 20
-14.2787805226
 10
1.5143449087
 20
-14.2929929758
 10
1.5404064477
 20
-14.3052343577
 10
1.5678309489
 20
-14.3154269218
 10
1.5962067456
 20
-14.3233374276
 10
1.6253966152
 20
-14.3288881287
 10
1.6555377802
 20
-14.3321567716
 10
1.6866302406
 20
-14.3331433563
  0
LWPOLYLINE
  5
305
100
AcDbEntity
  8
IMPORT_IGES
100
AcDbPolyline
 62
7
  6
CONTINUOUS
 90
10
 70
0
 10
0.3957237139
 20
-12.8227618415
 10
0.3769126363
 20
-12.8058328495
 10
0.3563241678
 20
-12.7906011626
 10
0.3339583083
 20
-12.777066781
 10
0.3096731702
 20
-12.7650767716
 10
0.2836106411
 20
-12.7547840675
 10
0.2561963843
 20
-12.7466474676
 10
0.2275722876
 20
-12.740819905
 10
0.1975964631
 20
-12.7371484467
 10
0.1662689109
 20
-12.7356330926
  0
LWPOLYLINE
  5
306
100
AcDbEntity
  8
IMPORT_IGES
100
AcDbPolyline
 62
7
  6
CONTINUOUS
 90
10
 70
0
 10
0.4655526221
 20
-13.6547667766
 10
0.4519809326
 20
-13.6418637515
 10
0.4379458072
 20
-13.6297763093
 10
0.4234472458
 20
-13.61850445
 10
0.4084394236
 20
-13.6080321637
 10
0.3929681654
 20
-13.5983754603
 10
0.3771709459
 20
-13.5895823696
 10
0.3610935901
 20
-13.5816689015
 10
0.3446902731
 20
-13.5746190462
 10
0.3279609949
 20
-13.5684328035
  0
LWPOLYLINE
  5
307
100
AcDbEntity
  8
IMPORT_IGES
100
AcDbPolyline
 62
7
  6
CONTINUOUS
 90
10
 70
0
 10
-0.2570501721
 20
-14.378735339
 10
-0.2913458813
 20
-14.3456757411
 10
-0.3225732833
 20
-14.3097065841
 10
-0.350732378
 20
-14.270827868
 10
-0.3760328689
 20
-14.228834756
 10
-0.3982650525
 20
-14.1839320848
 10
-0.4167998186
 20
-14.1367343651
 10
-0.4314274637
 20
-14.0874464338
 10
-0.4423576913
 20
-14.0358634539
 10
-0.4495905014
 20
-13.9819854255
  0
LWPOLYLINE
  5
308
100
AcDbEntity
  8
IMPORT_IGES
100
AcDbPolyline
 62
7
  6
CONTINUOUS
 90
10
 70
0
 10
1.2579908127
 20
-14.3787352238
 10
1.2236951187
 20
-14.3456756433
 10
1.1924677181
 20
-14.309706504
 10
1.164308611
 20
-14.2708278059
 10
1.1390080934
 20
-14.228834714
 10
1.1167758692
 20
-14.1839320632
 10
1.0982410505
 20
-14.1367343585
 10
1.0836133411
 20
-14.0874464348
 10
1.072683037
 20
-14.0358634571
 10
1.0654501384
 20
-13.9819854255
  0
LWPOLYLINE
  5
309
100
AcDbEntity
  8
IMPORT_IGES
100
AcDbPolyline
 62
7
  6
CONTINUOUS
 90
13
 70
0
 10
-3.2886213873
 20
-14.3282089777
 10
-3.2626726537
 20
-14.3591660396
 10
-3.2341270426
 20
-14.3879585135
 10
-3.2029845539
 20
-14.4145863994
 10
-3.1687013339
 20
-14.4394526342
 10
-3.1318212364
 20
-14.462154281
 10
-3.0939758232
 20
-14.4814825291
 10
-3.0558831692
 20
-14.4968191626
 10
-3.0168251996
 20
-14.5087823975
 10
-2.9762792508
 20
-14.5180180709
 10
-2.9340711018
 20
-14.5247414618
 10
-2.8903749736
 20
-14.5287372914
 10
-2.8451908663
 20
-14.5300055594
  0
LWPOLYLINE
  5
30A
100
AcDbEntity
  8
IMPORT_IGES
100
AcDbPolyline
 62
7
  6
CONTINUOUS
 90
13
 70
0
 10
-1.7735804826
 20
-14.3282089584
 10
-1.7476317641
 20
-14.3591660137
 10
-1.7190861649
 20
-14.3879584835
 10
-1.6879436849
 20
-14.4145863678
 10
-1.6536604689
 20
-14.4394526044
 10
-1.6167803721
 20
-14.4621542554
 10
-1.57893496
 20
-14.4814825079
 10
-1.5408423103
 20
-14.4968191452
 10
-1.5017843452
 20
-14.5087823838
 10
-1.461238397
 20
-14.5180180609
 10
-1.4190302431
 20
-14.5247414553
 10
-1.375334106
 20
-14.5287372881
 10
-1.3301499858
 20
-14.5300055594
  0
LWPOLYLINE
  5
30B
100
AcDbEntity
  8
IMPORT_IGES
100
AcDbPolyline
 62
7
  6
CONTINUOUS
 90
22
 70
0
 10
-3.2886213873
 20
-14.3282089777
 10
-3.3041046748
 20
-14.3079063193
 10
-3.3191687375
 20
-14.2859796237
 10
-3.3338135755
 20
-14.2624288909
 10
-3.3480946178
 20
-14.2372840873
 10
-3.3619564353
 20
-14.2105152465
 10
-3.3752327414
 20
-14.1820324693
 10
-3.3879204156
 20
-14.151839231
 10
-3.4000225783
 20
-14.1199320563
 10
-3.4113823041
 20
-14.0862106202
 10
-3.421976808
 20
-14.050660613
 10
-3.431828875
 20
-14.0132963444
 10
-3.440849934
 20
-13.9740604189
 10
-3.4490433272
 20
-13.932946414
 10
-3.4564057124
 20
-13.8899607521
 10
-3.4628384927
 20
-13.8450653045
 10
-3.4683352338
 20
-13.7982643084
 10
-3.4729023699
 20
-13.7495535266
 10
-3.4764606063
 20
-13.6988821188
 10
-3.4789835116
 20
-13.6462331382
 10
-3.4804975171
 20
-13.5916235315
 10
-3.481002623
 20
-13.5350532988
  0
LWPOLYLINE
  5
30C
100
AcDbEntity
  8
IMPORT_IGES
100
AcDbPolyline
 62
7
  6
CONTINUOUS
 90
22
 70
0
 10
-1.7735804826
 20
-14.3282089584
 10
-1.7890637684
 20
-14.3079062946
 10
-1.8041278298
 20
-14.2859795945
 10
-1.8187726665
 20
-14.2624288579
 10
-1.8330537075
 20
-14.2372840513
 10
-1.8469155239
 20
-14.2105152084
 10
-1.8601918294
 20
-14.1820324298
 10
-1.8728795036
 20
-14.1518391909
 10
-1.8849816669
 20
-14.1199320164
 10
-1.8963413939
 20
-14.0862105813
 10
-1.9069358999
 20
-14.0506605758
 10
-1.9167879697
 20
-14.0132963097
 10
-1.925809032
 20
-13.9740603871
 10
-1.9340024288
 20
-13.9329463857
 10
-1.9413648181
 20
-13.8899607277
 10
-1.9477976023
 20
-13.8450652841
 10
-1.9532943475
 20
-13.798264292
 10
-1.9578614876
 20
-13.7495535142
 10
-1.9614197274
 20
-13.6988821101
 10
-1.9639426352
 20
-13.6462331328
 10
-1.9654566427
 20
-13.5916235292
 10
-1.9659617499
 20
-13.5350532992
  0
LWPOLYLINE
  5
30D
100
AcDbEntity
  8
0
100
AcDbPolyline
 62
253
  6
CONTINUOUS
 90
13
 70
0
 10
-12.6376811594
 20
-2.3317232122
 10
-12.6311781113
 20
-2.3431917844
 10
-12.6250030727
 20
-2.3546136032
 10
-12.6192636559
 20
-2.3657896204
 10
-12.614059882
 20
-2.3765250715
 10
-12.6094824371
 20
-2.3866328695
 10
-12.6056110924
 20
-2.3959368655
 10
-12.602513314
 20
-2.4042749189
 10
-12.6002430868
 20
-2.4115017222
 10
-12.598839974
 20
-2.4174913338
 10
-12.5983284276
 20
-2.4221393725
 10
-12.5987173622
 20
-2.4253648372
 10
-12.6
 20
-2.4271115175
  0
LWPOLYLINE
  5
30E
100
AcDbEntity
  8
0
100
AcDbPolyline
 62
253
  6
CONTINUOUS
 90
16
 70
0
 10
-11.7615998524
 20
-2.9973527625
 10
-11.767098115
 20
-2.9874715172
 10
-11.7728449454
 20
-2.9777079609
 10
-11.778766474
 20
-2.9681875988
 10
-11.7847865801
 20
-2.9590328188
 10
-11.7908278834
 20
-2.9503612972
 10
-11.796812739
 20
-2.9422844902
 10
-11.8026642174
 20
-2.9349062261
 10
-11.8083070904
 20
-2.9283213709
 10
-11.8136688121
 20
-2.9226145895
 10
-11.8186804571
 20
-2.9178592517
 10
-11.8232775891
 20
-2.9141165079
 10
-11.8274010906
 20
-2.9114344945
 10
-11.8309979469
 20
-2.9098476946
 10
-11.8340219222
 20
-2.9093765072
 10
-11.8364341402
 20
-2.9100269935
  0
LWPOLYLINE
  5
30F
100
AcDbEntity
  8
IMPORT_IGES
100
AcDbPolyline
 62
253
  6
CONTINUOUS
 90
22
 70
0
 10
-7.2289424609
 20
5.2597694898
 10
-7.2180672035
 20
5.1159525643
 10
-7.1991958842
 20
4.9739682743
 10
-7.1723285029
 20
4.8338166198
 10
-7.1373085813
 20
4.6950470772
 10
-7.0942925977
 20
4.5581101701
 10
-7.0437499869
 20
4.4243574694
 10
-6.9856234965
 20
4.2938454662
 10
-6.9199703789
 20
4.1665176693
 10
-6.8474318266
 20
4.0435561765
 10
-6.7679517312
 20
3.9249982417
 10
-6.6815862012
 20
3.810806611
 10
-6.5891447534
 20
3.7020516195
 10
-6.4905762657
 20
3.5987771138
 10
-6.3859318602
 20
3.5009392474
 10
-6.2761744209
 20
3.4094768159
 10
-6.161260196
 20
3.3244408473
 10
-6.0412329372
 20
3.2457803137
 10
-5.9171867829
 20
3.1742809265
 10
-5.7894864458
 20
3.1102045896
 10
-5.6577672131
 20
3.053289399
 10
-5.5220290849
 20
3.0035353549
  0
LWPOLYLINE
  5
310
100
AcDbEntity
  8
IMPORT_IGES
100
AcDbPolyline
 62
253
  6
CONTINUOUS
 90
22
 70
0
 10
-6.5854482285
 20
5.3913057977
 10
-6.5771834998
 20
5.2786513657
 10
-6.5624877277
 20
5.1661157525
 10
-6.5413181788
 20
5.0540731029
 10
-6.5136355025
 20
4.9428383272
 10
-6.479452448
 20
4.8328668964
 10
-6.438872367
 20
4.7247417749
 10
-6.3919765654
 20
4.6188415672
 10
-6.3388709791
 20
4.5155464212
 10
-6.2797972403
 20
4.4154106398
 10
-6.2149374245
 20
4.3187824746
 10
-6.1444946656
 20
4.2260006852
 10
-6.0688355896
 20
4.1375505831
 10
-5.9882298558
 20
4.0537209392
 10
-5.9029620715
 20
3.9747829161
 10
-5.8134994724
 20
3.9011205184
 10
-5.7201774595
 20
3.832939922
 10
-5.6233387568
 20
3.7704247712
 10
-5.5235194184
 20
3.7138357043
 10
-5.4211556671
 20
3.6633102838
 10
-5.3165606014
 20
3.6188971188
 10
-5.21010651
 20
3.5806580324
  0
LWPOLYLINE
  5
311
100
AcDbEntity
  8
IMPORT_IGES
100
AcDbPolyline
 62
7
  6
CONTINUOUS
 90
10
 70
0
 10
-8.6650407359
 20
-18.9600532944
 10
-8.6654118682
 20
-18.9018424373
 10
-8.6668439066
 20
-18.8453922192
 10
-8.6693368511
 20
-18.79070264
 10
-8.6728032104
 20
-18.7377632275
 10
-8.6773304759
 20
-18.6865844539
 10
-8.6831811216
 20
-18.637197736
 10
-8.6904426392
 20
-18.5896135462
 10
-8.699027537
 20
-18.5438214122
 10
-8.7089358152
 20
-18.499821334
  0
LWPOLYLINE
  5
312
100
AcDbEntity
  8
IMPORT_IGES
100
AcDbPolyline
 62
7
  6
CONTINUOUS
 90
25
 70
0
 10
-8.9111185715
 20
-18.9600534225
 10
-8.9112616439
 20
-18.9205869478
 10
-8.9118072059
 20
-18.8823096457
 10
-8.9127552573
 20
-18.8452215163
 10
-8.9141039037
 20
-18.8093379427
 10
-8.9158550395
 20
-18.7746435418
 10
-8.9180143488
 20
-18.7410921635
 10
-8.9205949371
 20
-18.7086849851
 10
-8.9235836989
 20
-18.6774208293
 10
-8.926947001
 20
-18.6472500135
 10
-8.9306740756
 20
-18.6181741412
 10
-8.9347756905
 20
-18.5901916089
 10
-8.9392505166
 20
-18.5632479244
 10
-8.9440996162
 20
-18.5373370908
 10
-8.9493219269
 20
-18.5124651049
 10
-8.9549129328
 20
-18.4885954653
 10
-8.9608381189
 20
-18.4657014189
 10
-8.967132
 20
-18.4438097186
 10
-8.9738936047
 20
-18.4229641218
 10
-8.9811555163
 20
-18.4031597693
 10
-8.9888851515
 20
-18.3844015203
 10
-8.9970837882
 20
-18.3667477103
 10
-9.0057518525
 20
-18.3502177843
 10
-9.0148889184
 20
-18.3347922973
 10
-9.0244949857
 20
-18.3204712492
  0
LINE
  5
313
100
AcDbEntity
  8
RACCORDO
100
AcDbLine
 62
7
  6
CONTINUOUS
 10
-7.5
 20
-41.7467267598
 11
-7.5
 21
-40.2766416181
  0
LINE
  5
314
100
AcDbEntity
  8
RACCORDO
100
AcDbLine
 62
253
  6
CONTINUOUS
 10
-7.0
 20
-42.2467267598
 11
-7.0
 21
-40.3107414232
  0
LWPOLYLINE
  5
315
100
AcDbEntity
  8
IMPORT_IGES
100
AcDbPolyline
 62
7
  6
CONTINUOUS
 90
10
 70
0
 10
-8.6650407359
 20
-18.9600532944
 10
-8.6657886522
 20
-19.0320693166
 10
-8.6682826309
 20
-19.1015391878
 10
-8.6725226719
 20
-19.1684629079
 10
-8.6784421346
 20
-19.2328826094
 10
-8.6861076597
 20
-19.2947561599
 10
-8.695719169
 20
-19.3539571622
 10
-8.7073433033
 20
-19.4104434839
 10
-8.7209134219
 20
-19.4642572574
 10
-8.7364295247
 20
-19.5153984828
  0
LWPOLYLINE
  5
316
100
AcDbEntity
  8
IMPORT_IGES
100
AcDbPolyline
 62
253
  6
CONTINUOUS
 90
22
 70
0
 10
-6.7324952097
 20
32.8232579988
 10
-6.7240892158
 20
32.9356066312
 10
-6.7092885754
 20
33.0478107539
 10
-6.6880542723
 20
33.1594996738
 10
-6.6603503674
 20
33.2703623322
 10
-6.6261928137
 20
33.3799475987
 10
-6.5856877652
 20
33.4876773058
 10
-6.5389189179
 20
33.5931775562
 10
-6.485993898
 20
33.6960738986
 10
-6.4271549899
 20
33.7958186128
 10
-6.3625848427
 20
33.8920690205
 10
-6.2924865617
 20
33.9844922555
 10
-6.2172251308
 20
34.0726098653
 10
-6.1370689295
 20
34.1561386324
 10
-6.0523006478
 20
34.2348130701
 10
-5.9633835492
 20
34.3082554981
 10
-5.8706507465
 20
34.3762640891
 10
-5.7744406473
 20
34.4386605895
 10
-5.6752808589
 20
34.4951906426
 10
-5.5736013299
 20
34.5457204026
 10
-5.4697116266
 20
34.5902033876
 10
-5.3639788465
 20
34.6285802269
  0
LWPOLYLINE
  5
317
100
AcDbEntity
  8
IMPORT_IGES
100
AcDbPolyline
 62
253
  6
CONTINUOUS
 90
19
 70
0
 10
-5.5895130591
 20
32.6698167123
 10
-5.5840547017
 20
32.7374717796
 10
-5.5742331612
 20
32.8039799612
 10
-5.5600484379
 20
32.8693412572
 10
-5.5413933174
 20
32.9338313573
 10
-5.5183750141
 20
32.9971745717
 10
-5.49131517
 20
33.0585438313
 10
-5.4601655237
 20
33.1179126498
 10
-5.4249743368
 20
33.1753075134
 10
-5.3862080356
 20
33.229980812
 10
-5.3438233099
 20
33.281899593
 10
-5.2978634699
 20
33.3310968089
 10
-5.2489248735
 20
33.3769237071
 10
-5.1969691179
 20
33.4193408338
 10
-5.1420346058
 20
33.4583876427
 10
-5.0848329027
 20
33.4935337426
 10
-5.0256011973
 20
33.5246023364
 10
-4.964102301
 20
33.5517702212
 10
-4.9003362138
 20
33.5750373969
  0
LINE
  5
318
100
AcDbEntity
  8
IMPORT_IGES
100
AcDbLine
 62
7
  6
CONTINUOUS
 10
-11.409140192
 20
-18.9999589081
 11
-11.2202595919
 21
-17.9983550067
  0
LINE
  5
319
100
AcDbEntity
  8
IMPORT_IGES
100
AcDbLine
 62
7
  6
CONTINUOUS
 10
-11.028717272
 20
-18.2271399851
 11
-11.1337994948
 21
-18.7512197818
  0
LINE
  5
31A
100
AcDbEntity
  8
IMPORT_IGES
100
AcDbLine
 62
253
  6
CONTINUOUS
 10
-4.9003362138
 20
4.5315090835
 11
-5.2100829301
 21
3.5807300244
  0
LINE
  5
31B
100
AcDbEntity
  8
IMPORT_IGES
100
AcDbLine
 62
253
  6
CONTINUOUS
 10
-5.3640061051
 20
3.4778840053
 11
-5.5220841649
 21
3.0035504846
  0
LWPOLYLINE
  5
31C
100
AcDbEntity
  8
0
100
AcDbPolyline
 62
253
  6
CONTINUOUS
 90
10
 70
0
 10
-11.7096714284
 20
-2.9467267598
 10
-11.7139563159
 20
-2.9533937487
 10
-11.7186432997
 20
-2.9598352363
 10
-11.7237303081
 20
-2.9660485218
 10
-11.7292497611
 20
-2.9720718435
 10
-11.7351655924
 20
-2.9778618272
 10
-11.7413718532
 20
-2.9832959793
 10
-11.7478308005
 20
-2.9883349753
 10
-11.7545742982
 20
-2.9930201631
 10
-11.7615998524
 20
-2.9973527625
  0
LINE
  5
31D
100
AcDbEntity
  8
IMPORT_IGES
100
AcDbLine
 62
253
  6
CONTINUOUS
 10
-6.5854482285
 20
5.3913057977
 11
-6.7324952094
 21
5.2832884754
  0
LINE
  5
31E
100
AcDbEntity
  8
IMPORT_IGES
100
AcDbLine
 62
253
  6
CONTINUOUS
 10
-20.6418021231
 20
-9.9466789447
 11
-21.1511418888
 21
-9.9731637768
  0
LINE
  5
31F
100
AcDbEntity
  8
IMPORT_IGES
100
AcDbLine
 62
253
  6
CONTINUOUS
 10
-21.1511418888
 20
-9.9731637768
 11
-21.6259203724
 21
-9.9967002903
  0
LINE
  5
320
100
AcDbEntity
  8
IMPORT_IGES
100
AcDbLine
 62
253
  6
CONTINUOUS
 10
-21.6259203724
 20
-9.9967002903
 11
-22.0360099007
 21
-10.0158016242
  0
LINE
  5
321
100
AcDbEntity
  8
IMPORT_IGES
100
AcDbLine
 62
253
  6
CONTINUOUS
 10
-22.0360099007
 20
-10.0158016242
 11
-22.2846169924
 21
-10.0264418443
  0
LINE
  5
322
100
AcDbEntity
  8
IMPORT_IGES
100
AcDbLine
 62
253
  6
CONTINUOUS
 10
-22.2846169924
 20
-10.0264418443
 11
-22.4169575269
 21
-10.0315478833
  0
LINE
  5
323
100
AcDbEntity
  8
IMPORT_IGES
100
AcDbLine
 62
253
  6
CONTINUOUS
 10
22.4169575571
 20
-10.0315477749
 11
22.2081113142
 21
-10.0232776471
  0
LINE
  5
324
100
AcDbEntity
  8
IMPORT_IGES
100
AcDbLine
 62
253
  6
CONTINUOUS
 10
22.2081113142
 20
-10.0232776471
 11
21.8408707839
 21
-10.0068938881
  0
LINE
  5
325
100
AcDbEntity
  8
IMPORT_IGES
100
AcDbLine
 62
253
  6
CONTINUOUS
 10
21.8408707839
 20
-10.0068938881
 11
21.3947138337
 21
-9.9853947655
  0
LINE
  5
326
100
AcDbEntity
  8
IMPORT_IGES
100
AcDbLine
 62
253
  6
CONTINUOUS
 10
21.3947138337
 20
-9.9853947655
 11
20.8988215367
 21
-9.9601876154
  0
LINE
  5
327
100
AcDbEntity
  8
IMPORT_IGES
100
AcDbLine
 62
253
  6
CONTINUOUS
 10
20.8988215367
 20
-9.9601876154
 11
20.641802121
 21
-9.9466789835
  0
LWPOLYLINE
  5
328
100
AcDbEntity
  8
0
100
AcDbPolyline
 62
253
  6
CONTINUOUS
 90
13
 70
0
 10
-12.7391304348
 20
-2.3317232122
 10
-12.7312195996
 20
-2.3358207595
 10
-12.7231148261
 20
-2.3391865964
 10
-12.7148021522
 20
-2.341820478
 10
-12.7061903909
 20
-2.3437264821
 10
-12.697348083
 20
-2.3448984783
 10
-12.6885050481
 20
-2.3453124584
 10
-12.6796665745
 20
-2.3449261601
 10
-12.6708195758
 20
-2.343758293
 10
-12.6621725736
 20
-2.341864345
 10
-12.6537983848
 20
-2.3392499393
 10
-12.6456322979
 20
-2.3358751709
 10
-12.6376811594
 20
-2.3317232122
  0
LINE
  5
329
100
AcDbEntity
  8
0
100
AcDbLine
 62
7
  6
CONTINUOUS
 10
-14.3635658598
 20
-1.5243863475
 11
-12.8
 21
-2.4271115175
  0
LINE
  5
32A
100
AcDbEntity
  8
0
100
AcDbLine
 62
253
  6
CONTINUOUS
 10
-14.3967567497
 20
-1.374692213
 11
-12.7391304348
 21
-2.3317232122
  0
LWPOLYLINE
  5
32B
100
AcDbEntity
  8
0
100
AcDbPolyline
 62
253
  6
CONTINUOUS
 90
13
 70
0
 10
-11.7096711744
 20
-2.9467267595
 10
-11.7191177136
 20
-2.940719176
 10
-11.7287717891
 20
-2.9347888536
 10
-11.7385091671
 20
-2.929012114
 10
-11.7482045422
 20
-2.9234633033
 10
-11.75773315
 20
-2.9182138352
 10
-11.7669723725
 20
-2.9133312718
 10
-11.7758033163
 20
-2.9088784541
 10
-11.7841123423
 20
-2.9049126934
 10
-11.7917925282
 20
-2.9014850337
 10
-11.7987450445
 20
-2.8986395944
 10
-11.8048804261
 20
-2.8964130032
 10
-11.8101197239
 20
-2.8948339239
  0
LWPOLYLINE
  5
32C
100
AcDbEntity
  8
0
100
AcDbPolyline
 62
7
  6
CONTINUOUS
 90
10
 70
0
 10
-14.3635658598
 20
-1.5243863475
 10
-14.3688240151
 20
-1.5210275059
 10
-14.3735527866
 20
-1.5174730444
 10
-14.3777486053
 20
-1.5137172042
 10
-14.3814054801
 20
-1.5097260574
 10
-14.3845217724
 20
-1.5055239037
 10
-14.3871009812
 20
-1.5011928624
 10
-14.3891424479
 20
-1.4967578827
 10
-14.3906405545
 20
-1.4921871626
 10
-14.3915920599
 20
-1.4874782528
  0
LWPOLYLINE
  5
32D
100
AcDbEntity
  8
IMPORT_IGES
100
AcDbPolyline
 62
7
  6
CONTINUOUS
 90
10
 70
0
 10
1.9107645917
 20
-12.8227616117
 10
1.8919536057
 20
-12.805832691
 10
1.8713652065
 20
-12.7906010619
 10
1.8489993941
 20
-12.7770667243
 10
1.8247142814
 20
-12.7650767422
 10
1.7986517555
 20
-12.7547840516
 10
1.7712374775
 20
-12.7466474606
 10
1.7426133343
 20
-12.7408199051
 10
1.7126374389
 20
-12.7371484491
 10
1.6813097914
 20
-12.7356330926
  0
LWPOLYLINE
  5
32E
100
AcDbEntity
  8
IMPORT_IGES
100
AcDbPolyline
 62
7
  6
CONTINUOUS
 90
10
 70
0
 10
1.9805936187
 20
-13.6547668929
 10
1.9670218259
 20
-13.6418638113
 10
1.9529866079
 20
-13.6297763221
 10
1.9384879648
 20
-13.6185044255
 10
1.9234800712
 20
-13.6080321125
 10
1.9080087524
 20
-13.598375392
 10
1.8922114852
 20
-13.5895822908
 10
1.8761340949
 20
-13.5816688179
 10
1.8597307561
 20
-13.5746189643
 10
1.8430014689
 20
-13.5684327301
  0
LINE
  5
32F
100
AcDbEntity
  8
IMPORT_IGES
100
AcDbLine
 62
7
  6
CONTINUOUS
 10
7.1161549281
 20
-18.5712272655
 11
7.0255231839
 21
-18.4805975982
  0
LWPOLYLINE
  5
330
100
AcDbEntity
  8
IMPORT_IGES
100
AcDbPolyline
 62
7
  6
CONTINUOUS
 90
13
 70
0
 10
2.8264194902
 20
-14.3282089239
 10
2.8521675253
 20
-14.3589720439
 10
2.8805781652
 20
-14.3876414103
 10
2.9116514097
 20
-14.4142170232
 10
2.9459612366
 20
-14.4391318528
 10
2.9829336681
 20
-14.4619529288
 10
3.0208467714
 20
-14.4813813404
 10
3.0589334433
 20
-14.4967656904
 10
3.0979607869
 20
-14.508757376
 10
3.1385081782
 20
-14.5180116776
 10
3.1807687425
 20
-14.5247470222
 10
3.2245493545
 20
-14.5287449828
 10
3.2698500142
 20
-14.5300055594
  0
LWPOLYLINE
  5
331
100
AcDbEntity
  8
IMPORT_IGES
100
AcDbPolyline
 62
7
  6
CONTINUOUS
 90
13
 70
0
 10
2.9918487057
 20
-14.1748556158
 10
3.0109271148
 20
-14.2004189687
 10
3.0307498375
 20
-14.223695394
 10
3.0513168737
 20
-14.2446848919
 10
3.0724363163
 20
-14.2633187193
 10
3.0943000724
 20
-14.2796656193
 10
3.1174838635
 20
-14.2939318209
 10
3.1427576993
 20
-14.3063010059
 10
3.16935157
 20
-14.3165894925
 10
3.1955311677
 20
-14.3244524648
 10
3.2207183896
 20
-14.3297749841
 10
3.2454913384
 20
-14.3326719891
 10
3.2698500141
 20
-14.3331434796
  0
LWPOLYLINE
  5
332
100
AcDbEntity
  8
IMPORT_IGES
100
AcDbPolyline
 62
7
  6
CONTINUOUS
 90
10
 70
0
 10
0.731582627
 20
-13.6068813895
 10
0.7506136433
 20
-13.6337867714
 10
0.7676430592
 20
-13.6627934713
 10
0.7826708749
 20
-13.6939014894
 10
0.7958248967
 20
-13.7272387421
 10
0.8069773182
 20
-13.7626773128
 10
0.8157447199
 20
-13.7998334522
 10
0.8219992953
 20
-13.8385792436
 10
0.8258688509
 20
-13.8790426035
 10
0.8273533868
 20
-13.921223532
  0
LWPOLYLINE
  5
333
100
AcDbEntity
  8
IMPORT_IGES
100
AcDbPolyline
 62
7
  6
CONTINUOUS
 90
10
 70
0
 10
2.2466235928
 20
-13.6068815016
 10
2.2656545525
 20
-13.6337868994
 10
2.2826839163
 20
-13.6627936075
 10
2.2977116843
 20
-13.6939016258
 10
2.3108656618
 20
-13.72723887
 10
2.3220180434
 20
-13.7626774244
 10
2.3307854131
 20
-13.7998335425
 10
2.3370399656
 20
-13.8385793087
 10
2.3409095061
 20
-13.8790426385
 10
2.3423940348
 20
-13.9212235319
  0
LWPOLYLINE
  5
334
100
AcDbEntity
  8
IMPORT_IGES
100
AcDbPolyline
 62
7
  6
CONTINUOUS
 90
10
 70
0
 10
-2.3747879928
 20
-12.7851523247
 10
-2.3582402338
 20
-12.811969753
 10
-2.3424244638
 20
-12.840144306
 10
-2.327340683
 20
-12.8696759836
 10
-2.3129494709
 20
-12.9005849458
 10
-2.2992902479
 20
-12.9328510326
 10
-2.2864812752
 20
-12.9664137642
 10
-2.2745619732
 20
-13.0012529807
 10
-2.2634929214
 20
-13.0373888419
 10
-2.2532741199
 20
-13.0748213479
  0
LWPOLYLINE
  5
335
100
AcDbEntity
  8
IMPORT_IGES
100
AcDbPolyline
 62
7
  6
CONTINUOUS
 90
10
 70
0
 10
-0.8597469961
 20
-12.7851523247
 10
-0.8431992705
 20
-12.8119697016
 10
-0.8273835282
 20
-12.8401442146
 10
-0.8122997692
 20
-12.8696758636
 10
-0.797908574
 20
-12.9005848083
 10
-0.7842493621
 20
-12.932850889
 10
-0.7714403921
 20
-12.966413627
 10
-0.7595210835
 20
-13.0012528627
 10
-0.7484520168
 20
-13.0373887558
 10
-0.738233192
 20
-13.0748213061
  0
LINE
  5
336
100
AcDbEntity
  8
IMPORT_IGES
100
AcDbLine
 62
253
  6
CONTINUOUS
 10
-21.6564460245
 20
40.2913670196
 11
-21.6681802231
 21
40.3227280587
  0
LWPOLYLINE
  5
337
100
AcDbEntity
  8
IMPORT_IGES
100
AcDbPolyline
 62
253
  6
CONTINUOUS
 90
3
 70
0
 10
-20.9536602503
 20
38.4125955821
 10
-21.038976581
 20
38.6416350162
 10
-21.6564460245
 20
40.2913670196
  0
LWPOLYLINE
  5
338
100
AcDbEntity
  8
IMPORT_IGES
100
AcDbPolyline
 62
7
  6
CONTINUOUS
 90
25
 70
0
 10
-3.2349248528
 20
-13.5350534195
 10
-3.2347911152
 20
-13.5744854659
 10
-3.2342657947
 20
-13.6127340988
 10
-3.2333488913
 20
-13.6497993182
 10
-3.2320434681
 20
-13.6856661099
 10
-3.2303464621
 20
-13.7203494882
 10
-3.2282486836
 20
-13.7538944959
 10
-3.2257368659
 20
-13.7862999804
 10
-3.2228242757
 20
-13.8175670944
 10
-3.2195415233
 20
-13.8477443388
 10
-3.2158993949
 20
-13.8768299968
 10
-3.2118871041
 20
-13.9048257853
 10
-3.2075029027
 20
-13.9317853549
 10
-3.2027455208
 20
-13.9577147267
 10
-3.1976162282
 20
-13.9826078797
 10
-3.1921170853
 20
-14.0065004021
 10
-3.1862829687
 20
-14.0294191146
 10
-3.180079002
 20
-14.0513371963
 10
-3.1734026157
 20
-14.0722097728
 10
-3.1662205869
 20
-14.0920420483
 10
-3.1585661386
 20
-14.1108288184
 10
-3.15043637
 20
-14.1285095953
 10
-3.1418303144
 20
-14.1450642164
 10
-3.1327489385
 20
-14.1605128443
 10
-3.1231922424
 20
-14.1748554789
  0
LINE
  5
339
100
AcDbEntity
  8
IMPORT_IGES
100
AcDbLine
 62
7
  6
CONTINUOUS
 10
-5.8451229706
 20
-18.9081774766
 11
-5.8451229706
 21
-19.180859005
  0
LINE
  5
33A
100
AcDbEntity
  8
IMPORT_IGES
100
AcDbLine
 62
7
  6
CONTINUOUS
 10
-4.4843791768
 20
-19.0265608395
 11
-4.4843791768
 21
-18.744567945
  0
LWPOLYLINE
  5
33B
100
AcDbEntity
  8
IMPORT_IGES
100
AcDbPolyline
 62
7
  6
CONTINUOUS
 90
25
 70
0
 10
-3.2349248528
 20
-13.5350534195
 10
-3.2347478438
 20
-13.4948336834
 10
-3.2341214005
 20
-13.4557902038
 10
-3.2330455232
 20
-13.4179229806
 10
-3.2315202839
 20
-13.3812463331
 10
-3.2295456106
 20
-13.345745942
 10
-3.2271212862
 20
-13.3113788498
 10
-3.2242350776
 20
-13.2781419311
 10
-3.220899218
 20
-13.2460383113
 10
-3.2171501897
 20
-13.2150344096
 10
-3.2130021399
 20
-13.1851328093
 10
-3.2084409214
 20
-13.1563309271
 10
-3.2034605752
 20
-13.128587432
 10
-3.1980532096
 20
-13.1018942883
 10
-3.1922267162
 20
-13.0762595317
 10
-3.185998811
 20
-13.0516659387
 10
-3.179391948
 20
-13.0281161405
 10
-3.1723836732
 20
-13.0056075059
 10
-3.1649243406
 20
-12.9841149172
 10
-3.1569888165
 20
-12.9636131018
 10
-3.1486022346
 20
-12.9441273324
 10
-3.1397903495
 20
-12.9257083088
 10
-3.1305617462
 20
-12.9083729311
 10
-3.1209078398
 20
-12.8921042992
 10
-3.1108286303
 20
-12.8769024132
  0
LWPOLYLINE
  5
33C
100
AcDbEntity
  8
IMPORT_IGES
100
AcDbPolyline
 62
7
  6
CONTINUOUS
 90
10
 70
0
 10
-3.481002623
 20
-13.5350532988
 10
-3.4803419562
 20
-13.4628201422
 10
-3.4779592025
 20
-13.3931663453
 10
-3.473854362
 20
-13.3260919082
 10
-3.4681221329
 20
-13.2615509522
 10
-3.4606678169
 20
-13.1995893559
 10
-3.4512073198
 20
-13.1403447554
 10
-3.4396459434
 20
-13.0838630293
 10
-3.4260783857
 20
-13.030098299
 10
-3.4105046469
 20
-12.9790505644
  0
LINE
  5
33D
100
AcDbEntity
  8
IMPORT_IGES
100
AcDbLine
 62
253
  6
CONTINUOUS
 10
4.9003362138
 20
33.5750373969
 11
5.2100829301
 21
34.525816456
  0
LINE
  5
33E
100
AcDbEntity
  8
IMPORT_IGES
100
AcDbLine
 62
253
  6
CONTINUOUS
 10
5.3640061051
 20
34.6286624751
 11
5.5220841649
 21
35.1029959959
  0
LINE
  5
33F
100
AcDbEntity
  8
IMPORT_IGES
100
AcDbLine
 62
253
  6
CONTINUOUS
 10
-18.0077820713
 20
-38.7182294142
 11
-17.4770796144
 21
-37.2267177603
  0
LWPOLYLINE
  5
340
100
AcDbEntity
  8
IMPORT_IGES
100
AcDbPolyline
 62
7
  6
CONTINUOUS
 90
10
 70
0
 10
-9.8661664403
 20
-18.4040505644
 10
-9.8481338926
 20
-18.3558689119
 10
-9.8285650613
 20
-18.3106652521
 10
-9.8074599464
 20
-18.268439585
 10
-9.7846045399
 20
-18.2291572148
 10
-9.7602128498
 20
-18.1928528373
 10
-9.7349269002
 20
-18.15963054
 10
-9.7089606992
 20
-18.1295250186
 10
-9.6821002387
 20
-18.1025015775
 10
-9.6543455187
 20
-18.0785602165
  0
LWPOLYLINE
  5
341
100
AcDbEntity
  8
IMPORT_IGES
100
AcDbPolyline
 62
7
  6
CONTINUOUS
 90
10
 70
0
 10
-12.9704571365
 20
-19.7550761884
 10
-12.9593151545
 20
-19.7271788934
 10
-12.9465749548
 20
-19.6990312871
 10
-12.9322365376
 20
-19.6706333695
 10
-12.9163071109
 20
-19.6419438102
 10
-12.8987794667
 20
-19.6130039395
 10
-12.8796319803
 20
-19.5839377483
 10
-12.8588574433
 20
-19.5547865669
 10
-12.8364630641
 20
-19.5255090649
 10
-12.8124488427
 20
-19.4961052424
  0
LWPOLYLINE
  5
342
100
AcDbEntity
  8
IMPORT_IGES
100
AcDbPolyline
 62
7
  6
CONTINUOUS
 90
10
 70
0
 10
-11.7590458514
 20
-18.736101499
 10
-11.7706228612
 20
-18.7615598275
 10
-11.7837405329
 20
-18.7872706608
 10
-11.7983988667
 20
-18.8132339989
 10
-11.8146143331
 20
-18.8394744165
 10
-11.8323704616
 20
-18.8659673388
 10
-11.8516178396
 20
-18.892639042
 10
-11.8723399966
 20
-18.9194649512
 10
-11.8945534032
 20
-18.9464696412
 10
-11.9182580595
 20
-18.973653112
  0
LINE
  5
343
100
AcDbEntity
  8
IMPORT_IGES
100
AcDbLine
 62
253
  6
CONTINUOUS
 10
-5.3639788474
 20
3.4779662538
 11
-5.21010651
 21
3.5806580324
  0
LWPOLYLINE
  5
344
100
AcDbEntity
  8
0
100
AcDbPolyline
 62
253
  6
CONTINUOUS
 90
13
 70
0
 10
-13.347826087
 20
-3.913160906
 10
-13.355329297
 20
-3.9179622739
 10
-13.3622961169
 20
-3.9232978399
 10
-13.368733329
 20
-3.9291798098
 10
-13.3746902737
 20
-3.9356853579
 10
-13.3801271903
 20
-3.9427579334
 10
-13.3849077697
 20
-3.9502097635
 10
-13.3889924273
 20
-3.9580569511
 10
-13.3924042151
 20
-3.9663019341
 10
-13.3950872792
 20
-3.9747370025
 10
-13.3970102098
 20
-3.9832964876
 10
-13.3981706891
 20
-3.9920561772
 10
-13.3985507246
 20
-4.0010185557
  0
LWPOLYLINE
  5
345
100
AcDbEntity
  8
0
100
AcDbPolyline
 62
7
  6
CONTINUOUS
 90
8
 70
0
 10
-14.389741183
 20
-4.4960782723
 10
-14.3780680417
 20
-4.4892617371
 10
-14.3666359446
 20
-4.4822426075
 10
-14.3555829305
 20
-4.4751144725
 10
-14.3449969798
 20
-4.4681400053
 10
-14.3350473998
 20
-4.4614104445
 10
-14.3259652153
 20
-4.4548546753
 10
-14.3179502476
 20
-4.448492387
  0
LINE
  5
346
100
AcDbEntity
  8
0
100
AcDbLine
 62
253
  6
CONTINUOUS
 10
-12.6376811594
 20
-2.3317232122
 11
-11.9858348663
 21
-1.9553795794
  0
LINE
  5
347
100
AcDbEntity
  8
0
100
AcDbLine
 62
7
  6
CONTINUOUS
 10
-12.6
 20
-2.4271115175
 11
-12.050930643
 21
-2.1101061764
  0
LINE
  5
348
100
AcDbEntity
  8
0
100
AcDbLine
 62
7
  6
CONTINUOUS
 10
-11.7910855815
 20
-2.883844991
 11
-13.4
 21
-3.8127521636
  0
LINE
  5
349
100
AcDbEntity
  8
0
100
AcDbLine
 62
253
  6
CONTINUOUS
 10
-11.7615998524
 20
-2.9973527625
 11
-13.1314393851
 21
-3.7882299855
  0
LINE
  5
34A
100
AcDbEntity
  8
0
100
AcDbLine
 62
253
  6
CONTINUOUS
 10
-13.1314393851
 20
-3.7882299855
 11
-13.347826087
 21
-3.913160906
  0
LINE
  5
34B
100
AcDbEntity
  8
0
100
AcDbLine
 62
7
  6
CONTINUOUS
 10
-14.4130434783
 20
-4.5093581594
 11
-14.389741183
 21
-4.4960782723
  0
LWPOLYLINE
  5
34C
100
AcDbEntity
  8
0
100
AcDbPolyline
 62
7
  6
CONTINUOUS
 90
8
 70
0
 10
11.9875479642
 20
-2.1057165952
 10
11.9735079799
 20
-2.1079965659
 10
11.9589551724
 20
-2.110912343
 10
11.9440939851
 20
-2.1144364165
 10
11.9290678974
 20
-2.1181892357
 10
11.9140109994
 20
-2.1220888
 10
11.8990737214
 20
-2.1263694237
 10
11.8843855909
 20
-2.1310948787
  0
LINE
  5
34D
100
AcDbEntity
  8
0
100
AcDbLine
 62
7
  6
CONTINUOUS
 10
12.0131355446
 20
-2.101992069
 11
11.9875479642
 21
-2.1057165952
  0
LWPOLYLINE
  5
34E
100
AcDbEntity
  8
0
100
AcDbPolyline
 62
7
  6
CONTINUOUS
 90
10
 70
0
 10
12.0131355446
 20
-2.101992069
 10
12.0174936075
 20
-2.1017408477
 10
12.0218384098
 20
-2.1017644166
 10
12.0261613761
 20
-2.1020711066
 10
12.0304637
 20
-2.1026728148
 10
12.0347270687
 20
-2.1035730442
 10
12.0389148867
 20
-2.1047646503
 10
12.043010943
 20
-2.1062466576
 10
12.0470182606
 20
-2.1080264268
 10
12.050930643
 20
-2.1101061764
  0
LINE
  5
34F
100
AcDbEntity
  8
0
100
AcDbLine
 62
253
  6
CONTINUOUS
 10
15.3086006748
 20
-2.8801769032
 11
15.2089144185
 21
-2.883844991
  0
LWPOLYLINE
  5
350
100
AcDbEntity
  8
0
100
AcDbPolyline
 62
253
  6
CONTINUOUS
 90
13
 70
0
 10
-13.3985507246
 20
-4.0010185557
 10
-13.4117343235
 20
-4.0009160744
 10
-13.4247134281
 20
-4.0005529054
 10
-13.4372618514
 20
-3.9999353775
 10
-13.4491609117
 20
-3.9990742524
 10
-13.4602032439
 20
-3.997984537
 10
-13.4701964132
 20
-3.9966852217
 10
-13.4789662685
 20
-3.9951989499
 10
-13.4863599773
 20
-3.9935516226
 10
-13.4922486895
 20
-3.9917719482
 10
-13.4965297824
 20
-3.989890941
 10
-13.4991286493
 20
-3.9879413814
 10
-13.5
 20
-3.9859572443
  0
LWPOLYLINE
  5
351
100
AcDbEntity
  8
0
100
AcDbPolyline
 62
253
  6
CONTINUOUS
 90
13
 70
0
 10
13.6014492754
 20
-4.0010185557
 10
13.5882656765
 20
-4.0009160744
 10
13.5752865719
 20
-4.0005529054
 10
13.5627381486
 20
-3.9999353775
 10
13.5508390883
 20
-3.9990742524
 10
13.5397967561
 20
-3.997984537
 10
13.5298035868
 20
-3.9966852217
 10
13.5210337315
 20
-3.9951989499
 10
13.5136400227
 20
-3.9935516226
 10
13.5077513105
 20
-3.9917719482
 10
13.5034702176
 20
-3.989890941
 10
13.5008713507
 20
-3.9879413814
 10
13.5
 20
-3.9859572443
  0
LINE
  5
352
100
AcDbEntity
  8
IMPORT_IGES
100
AcDbLine
 62
7
  6
CONTINUOUS
 10
8.6480091839
 20
-14.3353925982
 11
7.0255232264
 21
-12.7129064702
  0
LINE
  5
353
100
AcDbEntity
  8
IMPORT_IGES
100
AcDbLine
 62
7
  6
CONTINUOUS
 10
8.7185078173
 20
-14.4058891754
 11
9.9093688725
 21
-15.5967502305
  0
LINE
  5
354
100
AcDbEntity
  8
IMPORT_IGES
100
AcDbLine
 62
7
  6
CONTINUOUS
 10
9.9999994508
 20
-15.6873808089
 11
11.0507733061
 21
-16.7381546642
  0
LINE
  5
355
100
AcDbEntity
  8
IMPORT_IGES
100
AcDbLine
 62
7
  6
CONTINUOUS
 10
12.8838451208
 20
-18.5712286506
 11
11.1099280659
 21
-16.7973112789
  0
LINE
  5
356
100
AcDbEntity
  8
IMPORT_IGES
100
AcDbLine
 62
7
  6
CONTINUOUS
 10
12.9744765626
 20
-18.4805984031
 11
11.1245101208
 21
-16.6306326506
  0
LINE
  5
357
100
AcDbEntity
  8
IMPORT_IGES
100
AcDbLine
 62
7
  6
CONTINUOUS
 10
7.1161541839
 20
-12.6222765982
 11
8.6306311839
 21
-14.1367535982
  0
LINE
  5
358
100
AcDbEntity
  8
IMPORT_IGES
100
AcDbLine
 62
7
  6
CONTINUOUS
 10
11.0653545708
 20
-16.5714756901
 11
10.0906295702
 21
-15.5967506896
  0
LINE
  5
359
100
AcDbEntity
  8
IMPORT_IGES
100
AcDbLine
 62
7
  6
CONTINUOUS
 10
9.9999989918
 20
-15.5061201112
 11
8.7011293508
 21
-14.2072504702
  0
LWPOLYLINE
  5
35A
100
AcDbEntity
  8
IMPORT_IGES
100
AcDbPolyline
 62
7
  6
CONTINUOUS
 90
13
 70
0
 10
3.5462077608
 20
-12.8954713725
 10
3.5269361829
 20
-12.8698206415
 10
3.5069439108
 20
-12.8464777624
 10
3.4862309445
 20
-12.825442735
 10
3.464994935
 20
-12.806791694
 10
3.4430382312
 20
-12.7904485048
 10
3.41976788
 20
-12.7761847641
 10
3.394400434
 20
-12.7638076929
 10
3.3677193404
 20
-12.7535100702
 10
3.3414819878
 20
-12.7456418303
 10
3.3162741721
 20
-12.7403196179
 10
3.2915100974
 20
-12.7374267882
 10
3.2671897635
 20
-12.7369633413
  0
LWPOLYLINE
  5
35B
100
AcDbEntity
  8
IMPORT_IGES
100
AcDbPolyline
 62
7
  6
CONTINUOUS
 90
10
 70
0
 10
3.740253008
 20
-12.7851523311
 10
3.7228123283
 20
-12.7596505069
 10
3.7042581873
 20
-12.7354251898
 10
3.6845905852
 20
-12.71247638
 10
3.6637413716
 20
-12.6907557204
 10
3.6417786968
 20
-12.6703115681
 10
3.6189070117
 20
-12.651288994
 10
3.5951944668
 20
-12.6337363553
 10
3.5705729117
 20
-12.617605295
 10
3.5450423464
 20
-12.6028958129
  0
LWPOLYLINE
  5
35C
100
AcDbEntity
  8
IMPORT_IGES
100
AcDbPolyline
 62
7
  6
CONTINUOUS
 90
10
 70
0
 10
0.6594602569
 20
-12.7943385032
 10
0.6749892362
 20
-12.8219331841
 10
0.6885958776
 20
-12.849549573
 10
0.700280181
 20
-12.8771876699
 10
0.7099841564
 20
-12.9047702173
 10
0.7177657939
 20
-12.9323744727
 10
0.7237990634
 20
-12.9602322084
 10
0.7281419549
 20
-12.9884206817
 10
0.7307364785
 20
-13.0168626352
 10
0.7315826342
 20
-13.045558069
  0
LWPOLYLINE
  5
35D
100
AcDbEntity
  8
IMPORT_IGES
100
AcDbPolyline
 62
7
  6
CONTINUOUS
 90
10
 70
0
 10
2.1745013698
 20
-12.7943385032
 10
2.1900303491
 20
-12.8219331841
 10
2.2036369905
 20
-12.849549573
 10
2.2153212939
 20
-12.8771876699
 10
2.2250252693
 20
-12.9047702173
 10
2.2328069068
 20
-12.9323744727
 10
2.2388401763
 20
-12.9602322084
 10
2.2431830678
 20
-12.9884206817
 10
2.2457775914
 20
-13.0168626352
 10
2.2466237471
 20
-13.045558069
  0
LINE
  5
35E
100
AcDbEntity
  8
IMPORT_IGES
100
AcDbLine
 62
253
  6
CONTINUOUS
 10
-21.6681802231
 20
40.3227280587
 11
-21.6706231939
 21
40.3289194042
  0
LWPOLYLINE
  5
35F
100
AcDbEntity
  8
IMPORT_IGES
100
AcDbPolyline
 62
7
  6
CONTINUOUS
 90
19
 70
0
 10
-0.2101238872
 20
-13.9502622294
 10
-0.205206412
 20
-13.9739295447
 10
-0.199900823
 20
-13.9967205467
 10
-0.1942071204
 20
-14.0186352356
 10
-0.1881141799
 20
-14.0396661611
 10
-0.1816331257
 20
-14.0598207735
 10
-0.1747973304
 20
-14.0791214228
 10
-0.1676001775
 20
-14.097578967
 10
-0.1600482836
 20
-14.1151825482
 10
-0.1521948712
 20
-14.1319219421
 10
-0.1440431447
 20
-14.1477883766
 10
-0.1355898997
 20
-14.1627906239
 10
-0.1268787453
 20
-14.1769447762
 10
-0.1178868722
 20
-14.1902518582
 10
-0.1086370897
 20
-14.2027108453
 10
-0.0992414351
 20
-14.2143347558
 10
-0.0897372543
 20
-14.2251279294
 10
-0.0800872013
 20
-14.2350860264
 10
-0.0702912762
 20
-14.2442090468
  0
LWPOLYLINE
  5
360
100
AcDbEntity
  8
IMPORT_IGES
100
AcDbPolyline
 62
7
  6
CONTINUOUS
 90
10
 70
0
 10
0.5732949302
 20
-13.9261174385
 10
0.5719354506
 20
-13.8899106375
 10
0.567802909
 20
-13.8550963384
 10
0.5608973051
 20
-13.8216745412
 10
0.551058519
 20
-13.7894830059
 10
0.5384466706
 20
-13.7586839725
 10
0.5235421207
 20
-13.7297641609
 10
0.5065049894
 20
-13.7028858111
 10
0.4871751565
 20
-13.677886683
 10
0.4655526221
 20
-13.6547667766
  0
LWPOLYLINE
  5
361
100
AcDbEntity
  8
IMPORT_IGES
100
AcDbPolyline
 62
7
  6
CONTINUOUS
 90
10
 70
0
 10
0.4855047986
 20
-13.0402374425
 10
0.4844927854
 20
-13.0120385687
 10
0.4811634774
 20
-12.9847338613
 10
0.4755168745
 20
-12.9583233201
 10
0.4674511378
 20
-12.9326541943
 10
0.4570681063
 20
-12.9078792349
 10
0.4446732965
 20
-12.8844566946
 10
0.4303685472
 20
-12.8625393244
 10
0.4140520197
 20
-12.8419743734
 10
0.3957237139
 20
-12.8227618415
  0
LWPOLYLINE
  5
362
100
AcDbEntity
  8
IMPORT_IGES
100
AcDbPolyline
 62
7
  6
CONTINUOUS
 90
10
 70
0
 10
-2.2093791249
 20
-13.535438553
 10
-2.2097437916
 20
-13.4772015254
 10
-2.2111704539
 20
-13.4207212208
 10
-2.2136591118
 20
-13.3659976392
 10
-2.2171215744
 20
-13.3130206318
 10
-2.2216460327
 20
-13.2618003474
 10
-2.2274970591
 20
-13.2123672322
 10
-2.2347628445
 20
-13.1647314349
 10
-2.2433551981
 20
-13.1188828068
 10
-2.2532741199
 20
-13.0748213479
  0
LWPOLYLINE
  5
363
100
AcDbEntity
  8
IMPORT_IGES
100
AcDbPolyline
 62
7
  6
CONTINUOUS
 90
10
 70
0
 10
-0.6943382445
 20
-13.535438553
 10
-0.6947029053
 20
-13.4772015012
 10
-0.6961295603
 20
-13.420721177
 10
-0.6986182096
 20
-13.3659975806
 10
-0.7020806603
 20
-13.313020563
 10
-0.7066051052
 20
-13.2618002731
 10
-0.712456123
 20
-13.2123671578
 10
-0.7197219065
 20
-13.164731366
 10
-0.7283142628
 20
-13.1188827488
 10
-0.738233192
 20
-13.0748213061
  0
LWPOLYLINE
  5
364
100
AcDbEntity
  8
IMPORT_IGES
100
AcDbPolyline
 62
7
  6
CONTINUOUS
 90
25
 70
0
 10
-2.4554569378
 20
-13.5350534225
 10
-2.4556000105
 20
-13.4955868979
 10
-2.4561455714
 20
-13.457309552
 10
-2.4570936205
 20
-13.4202213846
 10
-2.4584422634
 20
-13.3843377797
 10
-2.4601933945
 20
-13.3496433533
 10
-2.4623526977
 20
-13.3160919541
 10
-2.4649332785
 20
-13.2836847595
 10
-2.4679220314
 20
-13.2524205921
 10
-2.4712853237
 20
-13.2222497684
 10
-2.4750123869
 20
-13.193173891
 10
-2.4791139896
 20
-13.1651913574
 10
-2.4835888041
 20
-13.1382476759
 10
-2.4884378931
 20
-13.1123368498
 10
-2.493660194
 20
-13.0874648758
 10
-2.4992511919
 20
-13.063595252
 10
-2.5051763744
 20
-13.0407012265
 10
-2.5114702539
 20
-13.0188095511
 10
-2.5182318527
 20
-12.9979639798
 10
-2.5254937515
 20
-12.9781596522
 10
-2.5332233697
 20
-12.9594014285
 10
-2.5414219876
 20
-12.941747643
 10
-2.5500900319
 20
-12.9252177403
 10
-2.5592270759
 20
-12.9097922757
 10
-2.5688331197
 20
-12.8954712492
  0
LWPOLYLINE
  5
365
100
AcDbEntity
  8
IMPORT_IGES
100
AcDbPolyline
 62
7
  6
CONTINUOUS
 90
25
 70
0
 10
-0.9404160574
 20
-13.5350534225
 10
-0.94055913
 20
-13.4955868979
 10
-0.9411046909
 20
-13.457309552
 10
-0.9420527401
 20
-13.4202213846
 10
-0.9434013829
 20
-13.3843377797
 10
-0.945152514
 20
-13.3496433533
 10
-0.9473118172
 20
-13.3160919541
 10
-0.949892398
 20
-13.2836847595
 10
-0.952881151
 20
-13.2524205921
 10
-0.9562444432
 20
-13.2222497684
 10
-0.9599715065
 20
-13.193173891
 10
-0.9640731091
 20
-13.1651913574
 10
-0.9685479237
 20
-13.1382476759
 10
-0.9733970127
 20
-13.1123368498
 10
-0.9786193135
 20
-13.0874648758
 10
-0.9842103114
 20
-13.063595252
 10
-0.9901354939
 20
-13.0407012265
 10
-0.9964293734
 20
-13.0188095511
 10
-1.0031909723
 20
-12.9979639798
 10
-1.0104528711
 20
-12.9781596522
 10
-1.0181824893
 20
-12.9594014285
 10
-1.0263811071
 20
-12.941747643
 10
-1.0350491515
 20
-12.9252177403
 10
-1.0441861955
 20
-12.9097922757
 10
-1.0537922392
 20
-12.8954712492
  0
LWPOLYLINE
  5
366
100
AcDbEntity
  8
IMPORT_IGES
100
AcDbPolyline
 62
7
  6
CONTINUOUS
 90
25
 70
0
 10
-1.7198839143
 20
-13.5350531711
 10
-1.719750179
 20
-13.574485235
 10
-1.7192248606
 20
-13.6127338848
 10
-1.718307959
 20
-13.6497991205
 10
-1.7170025375
 20
-13.6856659279
 10
-1.7153055329
 20
-13.7203493212
 10
-1.7132077556
 20
-13.7538943433
 10
-1.7106959388
 20
-13.7862998417
 10
-1.7077833493
 20
-13.8175669689
 10
-1.7045005973
 20
-13.847744226
 10
-1.7008584691
 20
-13.8768298962
 10
-1.6968461783
 20
-13.9048256961
 10
-1.6924619766
 20
-13.9317852768
 10
-1.6877045943
 20
-13.9577146591
 10
-1.6825753009
 20
-13.982607822
 10
-1.6770761571
 20
-14.0065003538
 10
-1.6712420394
 20
-14.0294190752
 10
-1.6650380712
 20
-14.0513371655
 10
-1.6583616832
 20
-14.0722097498
 10
-1.6511796525
 20
-14.0920420327
 10
-1.6435252019
 20
-14.1108288098
 10
-1.6353954308
 20
-14.128509593
 10
-1.6267893724
 20
-14.14506422
 10
-1.6177079936
 20
-14.1605128531
 10
-1.6081512943
 20
-14.1748554925
  0
LINE
  5
367
100
AcDbEntity
  8
IMPORT_IGES
100
AcDbLine
 62
253
  6
CONTINUOUS
 10
-0.0000001613
 20
-40.5106588273
 11
-0.0000001585
 21
-38.6486476122
  0
LINE
  5
368
100
AcDbEntity
  8
IMPORT_IGES
100
AcDbLine
 62
7
  6
CONTINUOUS
 10
0.0
 20
-17.1826055078
 11
0.0
 21
-16.4475980334
  0
LINE
  5
369
100
AcDbEntity
  8
IMPORT_IGES
100
AcDbLine
 62
7
  6
CONTINUOUS
 10
0.0976879965
 20
-21.4448298086
 11
0.0976879965
 21
-20.7088234325
  0
LWPOLYLINE
  5
36A
100
AcDbEntity
  8
IMPORT_IGES
100
AcDbPolyline
 62
7
  6
CONTINUOUS
 90
25
 70
0
 10
-1.7198839143
 20
-13.5350531711
 10
-1.7197069032
 20
-13.494833466
 10
-1.7190804588
 20
-13.4557900156
 10
-1.7180045812
 20
-13.4179228199
 10
-1.7164793428
 20
-13.3812461981
 10
-1.7145046711
 20
-13.345745831
 10
-1.7120803491
 20
-13.3113787612
 10
-1.7091941435
 20
-13.2781418634
 10
-1.7058582876
 20
-13.246038263
 10
-1.7021092634
 20
-13.2150343793
 10
-1.6979612181
 20
-13.1851327956
 10
-1.6934000046
 20
-13.1563309288
 10
-1.6884196635
 20
-13.1285874479
 10
-1.6830123032
 20
-13.1018943173
 10
-1.6771858153
 20
-13.0762595726
 10
-1.6709579157
 20
-13.0516659906
 10
-1.6643510582
 20
-13.0281162024
 10
-1.657342789
 20
-13.0056075768
 10
-1.6498834621
 20
-12.9841149962
 10
-1.641947944
 20
-12.9636131881
 10
-1.6335613684
 20
-12.944127425
 10
-1.6247494899
 20
-12.9257084067
 10
-1.6155208934
 20
-12.9083730333
 10
-1.6058669942
 20
-12.8921044048
 10
-1.5957877921
 20
-12.8769025211
  0
LWPOLYLINE
  5
36B
100
AcDbEntity
  8
IMPORT_IGES
100
AcDbPolyline
 62
7
  6
CONTINUOUS
 90
10
 70
0
 10
-1.9659617499
 20
-13.5350532992
 10
-1.9653010809
 20
-13.4628201433
 10
-1.9629183244
 20
-13.3931663465
 10
-1.9588134802
 20
-13.3260919088
 10
-1.9530812459
 20
-13.2615509518
 10
-1.945626924
 20
-13.1995893539
 10
-1.9361664223
 20
-13.1403447508
 10
-1.9246050433
 20
-13.0838630212
 10
-1.9110374845
 20
-13.0300982865
 10
-1.8954637459
 20
-12.9790505467
  0
LWPOLYLINE
  5
36C
100
AcDbEntity
  8
IMPORT_IGES
100
AcDbPolyline
 62
7
  6
CONTINUOUS
 90
10
 70
0
 10
-2.2093791249
 20
-13.535438553
 10
-2.2101363494
 20
-13.6073425428
 10
-2.2126321243
 20
-13.6767042345
 10
-2.2168664497
 20
-13.7435236281
 10
-2.2227717509
 20
-13.8078427233
 10
-2.2304156025
 20
-13.8696195204
 10
-2.2400007288
 20
-13.9287280204
 10
-2.2515947043
 20
-13.9851262235
 10
-2.2651299545
 20
-14.0388561296
 10
-2.2806064792
 20
-14.0899177385
  0
LWPOLYLINE
  5
36D
100
AcDbEntity
  8
IMPORT_IGES
100
AcDbPolyline
 62
7
  6
CONTINUOUS
 90
10
 70
0
 10
-0.6943382445
 20
-13.535438553
 10
-0.6950954692
 20
-13.6073425355
 10
-0.6975912432
 20
-13.6767042221
 10
-0.7018255663
 20
-13.7435236128
 10
-0.7077308643
 20
-13.8078427071
 10
-0.7153747116
 20
-13.8696195055
 10
-0.7249598311
 20
-13.9287280094
 10
-0.7365537972
 20
-13.9851262195
 10
-0.7500890357
 20
-14.0388561351
 10
-0.7655655465
 20
-14.0899177562
  0
LWPOLYLINE
  5
36E
100
AcDbEntity
  8
IMPORT_IGES
100
AcDbPolyline
 62
7
  6
CONTINUOUS
 90
9
 70
0
 10
-6.7859935845
 20
-19.4254428898
 10
-6.7992124452
 20
-19.4620557325
 10
-6.8119227139
 20
-19.4982781511
 10
-6.8241309113
 20
-19.5341021811
 10
-6.8358305167
 20
-19.5695357871
 10
-6.8470019677
 20
-19.6046028625
 10
-6.8576387435
 20
-19.639311372
 10
-6.8677473649
 20
-19.6736533509
 10
-6.8773278319
 20
-19.7076287993
  0
LWPOLYLINE
  5
36F
100
AcDbEntity
  8
IMPORT_IGES
100
AcDbPolyline
 62
7
  6
CONTINUOUS
 90
10
 70
0
 10
-8.7364295247
 20
-19.5153984828
 10
-8.7542517226
 20
-19.5634013422
 10
-8.7736326967
 20
-19.6084639779
 10
-8.7945724469
 20
-19.6505863896
 10
-8.8172899523
 20
-19.6898042582
 10
-8.8415662339
 20
-19.7260819029
 10
-8.8667443544
 20
-19.7593122819
 10
-8.8926053347
 20
-19.7894597148
 10
-8.9193681538
 20
-19.816559882
 10
-8.9470328118
 20
-19.8406127835
  0
LINE
  5
370
100
AcDbEntity
  8
IMPORT_IGES
100
AcDbLine
 62
7
  6
CONTINUOUS
 10
-6.7859935845
 20
-19.4254428898
 11
-6.2458184954
 21
-17.9726144338
  0
LWPOLYLINE
  5
371
100
AcDbEntity
  8
IMPORT_IGES
100
AcDbPolyline
 62
253
  6
CONTINUOUS
 90
22
 70
0
 10
5.5225813922
 20
3.0036870656
 10
5.6580829769
 20
3.0533462424
 10
5.7896238836
 20
3.1101916806
 10
5.9172041122
 20
3.17422338
 10
6.0412078809
 20
3.2457116962
 10
6.1612509715
 20
3.3243862737
 10
6.2761807303
 20
3.4094360466
 10
6.3859338861
 20
3.5009036064
 10
6.49057371
 20
3.5987463617
 10
6.5891373624
 20
3.7020254716
 10
6.6815737189
 20
3.8107847804
 10
6.7679339038
 20
3.924980444
 10
6.8474084502
 20
4.0435420893
 10
6.9199412481
 20
4.1665069678
 10
6.9855884076
 20
4.293837828
 10
7.0437087914
 20
4.4243525424
 10
7.0942412441
 20
4.5580782421
 10
7.1372469211
 20
4.6949877959
 10
7.1722681525
 20
4.8338176832
 10
7.1991523816
 20
4.9741467302
 10
7.2180521651
 20
5.1163961106
 10
7.2289675029
 20
5.2605658243
  0
LWPOLYLINE
  5
372
100
AcDbEntity
  8
IMPORT_IGES
100
AcDbPolyline
 62
253
  6
CONTINUOUS
 90
22
 70
0
 10
5.2101065074
 20
3.5806580325
 10
5.3165710776
 20
3.6189012235
 10
5.4211745278
 20
3.6633189383
 10
5.5235445991
 20
3.713849047
 10
5.6233678536
 20
3.7704423956
 10
5.7202085973
 20
3.8329613258
 10
5.8135320271
 20
3.901145783
 10
5.9029959667
 20
3.974812519
 10
5.9882644383
 20
4.0537548769
 10
6.0688697383
 20
4.137588233
 10
6.1445272303
 20
4.2260410801
 10
6.2149675724
 20
4.3188246818
 10
6.2798243025
 20
4.4154536065
 10
6.3388943381
 20
4.5155887805
 10
6.3919959273
 20
4.618882073
 10
6.4388879105
 20
4.724779804
 10
6.4794646577
 20
4.832902509
 10
6.513644628
 20
4.9428709521
 10
6.5413242446
 20
5.0541008194
 10
6.5624909891
 20
5.1661361606
 10
6.5771846405
 20
5.2786625352
 10
6.5854482319
 20
5.3913058519
  0
LWPOLYLINE
  5
373
100
AcDbEntity
  8
0
100
AcDbPolyline
 62
7
  6
CONTINUOUS
 90
8
 70
0
 10
-15.0124520358
 20
-2.1057165952
 10
-15.0264920201
 20
-2.1079965659
 10
-15.0410448276
 20
-2.110912343
 10
-15.0559060149
 20
-2.1144364165
 10
-15.0709321026
 20
-2.1181892357
 10
-15.0859890006
 20
-2.1220888
 10
-15.1009262786
 20
-2.1263694237
 10
-15.1156144091
 20
-2.1310948787
  0
LINE
  5
374
100
AcDbEntity
  8
0
100
AcDbLine
 62
7
  6
CONTINUOUS
 10
-14.9868644554
 20
-2.101992069
 11
-15.0124520358
 21
-2.1057165952
  0
LWPOLYLINE
  5
375
100
AcDbEntity
  8
0
100
AcDbPolyline
 62
7
  6
CONTINUOUS
 90
10
 70
0
 10
-14.9868644554
 20
-2.101992069
 10
-14.9825063925
 20
-2.1017408477
 10
-14.9781615902
 20
-2.1017644166
 10
-14.9738386239
 20
-2.1020711066
 10
-14.9695363
 20
-2.1026728148
 10
-14.9652729313
 20
-2.1035730442
 10
-14.9610851133
 20
-2.1047646503
 10
-14.956989057
 20
-2.1062466576
 10
-14.9529817394
 20
-2.1080264268
 10
-14.949069357
 20
-2.1101061764
  0
LINE
  5
376
100
AcDbEntity
  8
0
100
AcDbLine
 62
253
  6
CONTINUOUS
 10
-11.6913993252
 20
-2.8801769032
 11
-11.7910855815
 21
-2.883844991
  0
LWPOLYLINE
  5
377
100
AcDbEntity
  8
0
100
AcDbPolyline
 62
253
  6
CONTINUOUS
 90
13
 70
0
 10
12.5869565217
 20
-2.5952961612
 10
12.6010987485
 20
-2.5952532295
 10
12.6152190258
 20
-2.5953119282
 10
12.6290339203
 20
-2.5954710816
 10
12.6422661244
 20
-2.5957274979
 10
12.6546500037
 20
-2.5960760321
 10
12.6659369347
 20
-2.596509689
 10
12.6759003284
 20
-2.5970197649
 10
12.6843401502
 20
-2.5975960221
 10
12.691086934
 20
-2.5982268923
 10
12.6960052205
 20
-2.598899711
 10
12.6989962642
 20
-2.5996009723
 10
12.7
 20
-2.6003165986
  0
LWPOLYLINE
  5
378
100
AcDbEntity
  8
0
100
AcDbPolyline
 62
253
  6
CONTINUOUS
 90
13
 70
0
 10
-14.4130434783
 20
-2.5952961612
 10
-14.3989012515
 20
-2.5952532295
 10
-14.3847809742
 20
-2.5953119282
 10
-14.3709660797
 20
-2.5954710816
 10
-14.3577338756
 20
-2.5957274979
 10
-14.3453499963
 20
-2.5960760321
 10
-14.3340630653
 20
-2.596509689
 10
-14.3240996716
 20
-2.5970197649
 10
-14.3156598498
 20
-2.5975960221
 10
-14.308913066
 20
-2.5982268923
 10
-14.3039947795
 20
-2.598899711
 10
-14.3010037358
 20
-2.5996009723
 10
-14.3
 20
-2.6003165986
  0
LINE
  5
379
100
AcDbEntity
  8
IMPORT_IGES
100
AcDbLine
 62
7
  6
CONTINUOUS
 10
12.8838451317
 20
-12.6222776602
 11
12.9744763463
 21
-12.7129076506
  0
LWPOLYLINE
  5
37A
100
AcDbEntity
  8
IMPORT_IGES
100
AcDbPolyline
 62
7
  6
CONTINUOUS
 90
10
 70
0
 10
3.8617668075
 20
-13.0748213043
 10
3.8513608432
 20
-13.0368498188
 10
3.8401455843
 20
-13.0003230803
 10
3.8281210309
 20
-12.9652410887
 10
3.8152399799
 20
-12.9316014922
 10
3.8015496344
 20
-12.8994066426
 10
3.7871916035
 20
-12.8686635961
 10
3.7722130903
 20
-12.8393747047
 10
3.7565668918
 20
-12.8115376164
 10
3.740253008
 20
-12.7851523311
  0
LWPOLYLINE
  5
37B
100
AcDbEntity
  8
IMPORT_IGES
100
AcDbPolyline
 62
7
  6
CONTINUOUS
 90
19
 70
0
 10
1.3049169933
 20
-13.9502622294
 10
1.3098344705
 20
-13.9739295533
 10
1.3151400616
 20
-13.9967205625
 10
1.3208337666
 20
-14.0186352573
 10
1.3269267095
 20
-14.0396661871
 10
1.3334077664
 20
-14.0598208024
 10
1.340243565
 20
-14.0791214542
 10
1.3474407221
 20
-14.0975790005
 10
1.3549926208
 20
-14.1151825833
 10
1.3628460389
 20
-14.1319219794
 10
1.3709977718
 20
-14.1477884164
 10
1.379451024
 20
-14.1627906667
 10
1.3881621864
 20
-14.1769448236
 10
1.3971540681
 20
-14.1902519117
 10
1.4064038601
 20
-14.2027109065
 10
1.4157995262
 20
-14.214334827
 10
1.4253037209
 20
-14.225128013
 10
1.4349537897
 20
-14.2350861248
 10
1.4447497326
 20
-14.2442091624
  0
LWPOLYLINE
  5
37C
100
AcDbEntity
  8
IMPORT_IGES
100
AcDbPolyline
 62
7
  6
CONTINUOUS
 90
10
 70
0
 10
2.0883355781
 20
-13.9261174385
 10
2.0869760892
 20
-13.8899103879
 10
2.0828435423
 20
-13.8550959068
 10
2.0759379374
 20
-13.8216739953
 10
2.0660991441
 20
-13.7894824159
 10
2.0534872929
 20
-13.7586834061
 10
2.0385827755
 20
-13.7297636777
 10
2.0215457227
 20
-13.702885468
 10
2.0022160038
 20
-13.6778865397
 10
1.9805936187
 20
-13.6547668929
  0
LWPOLYLINE
  5
37D
100
AcDbEntity
  8
IMPORT_IGES
100
AcDbPolyline
 62
7
  6
CONTINUOUS
 90
10
 70
0
 10
2.0005459115
 20
-13.0402374424
 10
1.9995339062
 20
-13.0120385992
 10
1.9962045993
 20
-12.9847339074
 10
1.990557991
 20
-12.958323367
 10
1.9824922448
 20
-12.932654226
 10
1.9721091971
 20
-12.9078792365
 10
1.959714357
 20
-12.8844566547
 10
1.9454095609
 20
-12.8625392326
 10
1.9290929725
 20
-12.8419742183
 10
1.9107645917
 20
-12.8227616117
  0
LWPOLYLINE
  5
37E
100
AcDbEntity
  8
IMPORT_IGES
100
AcDbPolyline
 62
7
  6
CONTINUOUS
 90
22
 70
0
 10
2.6340382501
 20
-13.5350532944
 10
2.6345376427
 20
-13.5910613361
 10
2.6360308265
 20
-13.6451608607
 10
2.6385178017
 20
-13.6973518682
 10
2.642031214
 20
-13.7476240834
 10
2.6465384175
 20
-13.7959877816
 10
2.6519414753
 20
-13.8424737885
 10
2.6582458766
 20
-13.8870825751
 10
2.6654461321
 20
-13.9298136704
 10
2.6734278372
 20
-13.9706964872
 10
2.6821569299
 20
-14.0097093702
 10
2.6916674723
 20
-14.0468739746
 10
2.7019472456
 20
-14.0822846789
 10
2.7130134623
 20
-14.1159199551
 10
2.7248489099
 20
-14.1478013312
 10
2.7373897323
 20
-14.17808777
 10
2.7506479898
 20
-14.2067738045
 10
2.764611622
 20
-14.2338649018
 10
2.7791805919
 20
-14.259536426
 10
2.7943215537
 20
-14.2838468318
 10
2.8100678531
 20
-14.3067376644
 10
2.8264194902
 20
-14.3282089239
  0
LWPOLYLINE
  5
37F
100
AcDbEntity
  8
IMPORT_IGES
100
AcDbPolyline
 62
7
  6
CONTINUOUS
 90
25
 70
0
 10
3.6595839426
 20
-13.5350534177
 10
3.6594426621
 20
-13.4956322793
 10
3.6588995413
 20
-13.4573943761
 10
3.65795458
 20
-13.4203397083
 10
3.6566101064
 20
-13.3844831073
 10
3.6548637925
 20
-13.3498097416
 10
3.652708654
 20
-13.3162751169
 10
3.650131272
 20
-13.283880503
 10
3.6471450655
 20
-13.2526246301
 10
3.6437833076
 20
-13.2224591943
 10
3.6400558625
 20
-13.193386609
 10
3.635952866
 20
-13.1654044607
 10
3.6314779981
 20
-13.1384572052
 10
3.6266309865
 20
-13.1125380994
 10
3.6214121035
 20
-13.0876538864
 10
3.6158258453
 20
-13.0637692512
 10
3.6099085222
 20
-13.040857049
 10
3.6036238239
 20
-13.0189444246
 10
3.5968673162
 20
-12.9980774978
 10
3.5896043226
 20
-12.9782515105
 10
3.5818695196
 20
-12.9594712209
 10
3.5736625024
 20
-12.9417970229
 10
3.564983136
 20
-12.9252490478
 10
3.5558315555
 20
-12.9098071643
 10
3.5462077608
 20
-12.8954713725
  0
LWPOLYLINE
  5
380
100
AcDbEntity
  8
IMPORT_IGES
100
AcDbPolyline
 62
7
  6
CONTINUOUS
 90
25
 70
0
 10
2.8801160857
 20
-13.5350534177
 10
2.8802480046
 20
-13.5744398357
 10
2.8807708768
 20
-13.6126488187
 10
2.8816847023
 20
-13.6496803667
 10
2.8829859848
 20
-13.6855200234
 10
2.8846782206
 20
-13.720182245
 10
2.8867718991
 20
-13.7537104006
 10
2.8892806106
 20
-13.7861032422
 10
2.8921907647
 20
-13.8173620177
 10
2.8954720796
 20
-13.8475338397
 10
2.89911467
 20
-13.8766161748
 10
2.9031284212
 20
-13.9046115563
 10
2.9075127072
 20
-13.9315746971
 10
2.9122679965
 20
-13.957512366
 10
2.9173938206
 20
-13.9824177941
 10
2.9228881483
 20
-14.0063253879
 10
2.9287142933
 20
-14.029262365
 10
2.9349089419
 20
-14.0512015078
 10
2.9415801215
 20
-14.0720955699
 10
2.9487631637
 20
-14.0919496594
 10
2.9564227369
 20
-14.1107586682
 10
2.9645608744
 20
-14.1284600253
 10
2.9731782539
 20
-14.1450328738
 10
2.9822741977
 20
-14.1604980707
 10
2.9918487057
 20
-14.1748556158
  0
LINE
  5
381
100
AcDbEntity
  8
IMPORT_IGES
100
AcDbLine
 62
7
  6
CONTINUOUS
 10
1.5
 20
8.2303975847
 11
1.5
 21
8.2628818529
  0
LINE
  5
382
100
AcDbEntity
  8
IMPORT_IGES
100
AcDbLine
 62
7
  6
CONTINUOUS
 10
1.5
 20
10.844248918
 11
1.5
 21
10.8761488957
  0
LINE
  5
383
100
AcDbEntity
  8
IMPORT_IGES
100
AcDbLine
 62
7
  6
CONTINUOUS
 10
1.5
 20
27.2303975847
 11
1.5
 21
27.2628818529
  0
LINE
  5
384
100
AcDbEntity
  8
IMPORT_IGES
100
AcDbLine
 62
7
  6
CONTINUOUS
 10
1.5
 20
29.844248918
 11
1.5
 21
29.8761488957
  0
LWPOLYLINE
  5
385
100
AcDbEntity
  8
IMPORT_IGES
100
AcDbPolyline
 62
7
  6
CONTINUOUS
 90
25
 70
0
 10
2.8801160857
 20
-13.5350534177
 10
2.8802819931
 20
-13.4949894332
 10
2.8808955285
 20
-13.4560827984
 10
2.8819566918
 20
-13.4183335132
 10
2.8834634189
 20
-13.3817547529
 10
2.8854177739
 20
-13.3463333423
 10
2.8878259498
 20
-13.3120297554
 10
2.8907022243
 20
-13.2788415612
 10
2.8940323196
 20
-13.2467711907
 10
2.8977795958
 20
-13.2157864102
 10
2.9019332702
 20
-13.1858896984
 10
2.9065041254
 20
-13.1570785766
 10
2.911487869
 20
-13.1293133748
 10
2.916888355
 20
-13.1025843282
 10
2.9227017294
 20
-13.0769012016
 10
2.9289121379
 20
-13.0522536194
 10
2.93549155
 20
-13.028645476
 10
2.942467996
 20
-13.0060728771
 10
2.9499097133
 20
-12.9845137635
 10
2.9578488878
 20
-12.9639421025
 10
2.9662533335
 20
-12.9443839267
 10
2.9750947297
 20
-12.9258952758
 10
2.9843636361
 20
-12.9084948294
 10
2.9940694931
 20
-12.8921639077
 10
3.0042123006
 20
-12.8769025109
  0
LWPOLYLINE
  5
386
100
AcDbEntity
  8
IMPORT_IGES
100
AcDbPolyline
 62
7
  6
CONTINUOUS
 90
13
 70
0
 10
0.8273533868
 20
-13.921223532
 10
0.826202842
 20
-13.9618336739
 10
0.8223976989
 20
-14.001912209
 10
0.8159379576
 20
-14.0414591373
 10
0.8068339258
 20
-14.0806853921
 10
0.7950752958
 20
-14.1193800402
 10
0.780631144
 20
-14.1569102814
 10
0.7633686731
 20
-14.1931496087
 10
0.7434206803
 20
-14.2282245292
 10
0.7211546332
 20
-14.261881764
 10
0.696693021
 20
-14.2940368868
 10
0.6699133545
 20
-14.3247743238
 10
0.6408156336
 20
-14.3540940751
  0
LWPOLYLINE
  5
387
100
AcDbEntity
  8
IMPORT_IGES
100
AcDbPolyline
 62
7
  6
CONTINUOUS
 90
13
 70
0
 10
2.3423940348
 20
-13.9212235319
 10
2.3412434786
 20
-13.9618338598
 10
2.3374383342
 20
-14.0019125296
 10
2.3309786017
 20
-14.0414595413
 10
2.3218745933
 20
-14.0806858091
 10
2.3101159967
 20
-14.1193804188
 10
2.2956718752
 20
-14.1569106277
 10
2.2784094154
 20
-14.1931499631
 10
2.2584614307
 20
-14.2282248975
 10
2.236195424
 20
-14.2618821058
 10
2.2117338964
 20
-14.294037146
 10
2.1849543469
 20
-14.3247744599
 10
2.1558567754
 20
-14.3540940476
  0
LWPOLYLINE
  5
388
100
AcDbEntity
  8
IMPORT_IGES
100
AcDbPolyline
 62
7
  6
CONTINUOUS
 90
10
 70
0
 10
0.7315826342
 20
-13.045558069
 10
0.7306275103
 20
-13.0732909211
 10
0.727996702
 20
-13.1005511609
 10
0.7236902093
 20
-13.1273387885
 10
0.7176679156
 20
-13.1537451201
 10
0.7099699375
 20
-13.1796788394
 10
0.700716625
 20
-13.2048659981
 10
0.689948095
 20
-13.2292152802
 10
0.6776242306
 20
-13.2528180018
 10
0.6637450319
 20
-13.2756741628
  0
LWPOLYLINE
  5
389
100
AcDbEntity
  8
IMPORT_IGES
100
AcDbPolyline
 62
7
  6
CONTINUOUS
 90
10
 70
0
 10
2.2466237471
 20
-13.045558069
 10
2.245668615
 20
-13.0732909879
 10
2.2430377946
 20
-13.100551275
 10
2.2387312858
 20
-13.1273389305
 10
2.23270897
 20
-13.1537452705
 10
2.2250109659
 20
-13.1796789789
 10
2.2157576294
 20
-13.2048661065
 10
2.2049890792
 20
-13.2292153371
 10
2.1926651967
 20
-13.2528179871
 10
2.1787859819
 20
-13.2756740563
  0
LINE
  5
38A
100
AcDbEntity
  8
IMPORT_IGES
100
AcDbLine
 62
7
  6
CONTINUOUS
 10
0.0226125831
 20
-13.5736265535
 11
0.0492225878
 21
-13.3634651606
  0
LINE
  5
38B
100
AcDbEntity
  8
IMPORT_IGES
100
AcDbLine
 62
7
  6
CONTINUOUS
 10
1.5376535011
 20
-13.5736265535
 11
1.5642634682
 21
-13.3634651606
  0
LWPOLYLINE
  5
38C
100
AcDbEntity
  8
IMPORT_IGES
100
AcDbPolyline
 62
7
  6
CONTINUOUS
 90
19
 70
0
 10
-0.4256480232
 20
-13.0442279811
 10
-0.4197641687
 20
-13.0151155736
 10
-0.4131892956
 20
-12.9871172807
 10
-0.4059234039
 20
-12.9602331025
 10
-0.3979424366
 20
-12.9344981698
 10
-0.3892704507
 20
-12.9098773516
 10
-0.3799796168
 20
-12.8862652555
 10
-0.3700677673
 20
-12.8636606488
 10
-0.3595370697
 20
-12.8420647641
 10
-0.3484661977
 20
-12.8213759066
 10
-0.3368640193
 20
-12.8015991465
 10
-0.3247216664
 20
-12.7827294135
 10
-0.312091209
 20
-12.7646498028
 10
-0.2989913794
 20
-12.7473489416
 10
-0.2854034452
 20
-12.7308382026
 10
-0.2713232791
 20
-12.7150347984
 10
-0.2567495052
 20
-12.6999111333
 10
-0.2416834994
 20
-12.685494803
 10
-0.2261252615
 20
-12.6717858075
  0
LWPOLYLINE
  5
38D
100
AcDbEntity
  8
IMPORT_IGES
100
AcDbPolyline
 62
7
  6
CONTINUOUS
 90
10
 70
0
 10
-2.2806064792
 20
-14.0899177385
 10
-2.2984435749
 20
-14.1380162847
 10
-2.317847192
 20
-14.1831689541
 10
-2.3388173304
 20
-14.2253757468
 10
-2.3615745595
 20
-14.2646724981
 10
-2.38589831
 20
-14.3010233726
 10
-2.4111268737
 20
-14.3343208642
 10
-2.4370396814
 20
-14.3645291375
 10
-2.4638573023
 20
-14.3916840278
 10
-2.4915797364
 20
-14.4157855352
  0
LWPOLYLINE
  5
38E
100
AcDbEntity
  8
IMPORT_IGES
100
AcDbPolyline
 62
7
  6
CONTINUOUS
 90
10
 70
0
 10
-3.4105046469
 20
-12.9790505644
 10
-3.3924721072
 20
-12.9308688909
 10
-3.3729032823
 20
-12.885665215
 10
-3.3517981723
 20
-12.8434395367
 10
-3.328942769
 20
-12.8041571597
 10
-3.3045510806
 20
-12.7678527803
 10
-3.2792651316
 20
-12.7346304868
 10
-3.2532989302
 20
-12.7045249752
 10
-3.2264384682
 20
-12.6775015495
 10
-3.1986837457
 20
-12.6535602097
  0
LWPOLYLINE
  5
38F
100
AcDbEntity
  8
IMPORT_IGES
100
AcDbPolyline
 62
7
  6
CONTINUOUS
 90
10
 70
0
 10
-1.8954637459
 20
-12.9790505467
 10
-1.8774312104
 20
-12.930868889
 10
-1.8578623866
 20
-12.8856652248
 10
-1.8367572745
 20
-12.8434395539
 10
-1.8139018648
 20
-12.8041571802
 10
-1.7895101668
 20
-12.7678527999
 10
-1.7642242082
 20
-12.7346305017
 10
-1.738257998
 20
-12.7045249818
 10
-1.7113975272
 20
-12.677501544
 10
-1.6836427957
 20
-12.6535601882
  0
LINE
  5
390
100
AcDbEntity
  8
IMPORT_IGES
100
AcDbLine
 62
7
  6
CONTINUOUS
 10
-5.9821279719
 20
-17.9717538137
 11
-6.7456346005
 21
-19.9217532515
  0
LWPOLYLINE
  5
391
100
AcDbEntity
  8
IMPORT_IGES
100
AcDbPolyline
 62
253
  6
CONTINUOUS
 90
8
 70
0
 10
-18.1530326913
 20
-39.1064757469
 10
-18.1499782565
 20
-39.1000916851
 10
-18.1443369065
 20
-39.0864339585
 10
-18.1360964844
 20
-39.0654094554
 10
-18.1252308692
 20
-39.0370341615
 10
-18.1117925516
 20
-39.001398246
 10
-18.0959089335
 20
-38.9586450706
 10
-18.0077820713
 20
-38.7182294142
  0
LWPOLYLINE
  5
392
100
AcDbEntity
  8
IMPORT_IGES
100
AcDbPolyline
 62
7
  6
CONTINUOUS
 90
25
 70
0
 10
-9.0241815323
 20
-19.5985253139
 10
-9.0146537091
 20
-19.5842110657
 10
-9.0055853347
 20
-19.5688016568
 10
-8.9969764092
 20
-19.5522970874
 10
-8.9888283321
 20
-19.5346795027
 10
-8.9811397039
 20
-19.5159667574
 10
-8.9739063254
 20
-19.4962124158
 10
-8.9671556597
 20
-19.4754209607
 10
-8.9608602437
 20
-19.4535879094
 10
-8.9549334897
 20
-19.4307533779
 10
-8.9493441574
 20
-19.4069441413
 10
-8.944123487
 20
-19.3821334245
 10
-8.9392786111
 20
-19.3562810189
 10
-8.9348132443
 20
-19.3293902261
 10
-8.930723672
 20
-19.3014577446
 10
-8.9270058824
 20
-19.2724334606
 10
-8.9236478739
 20
-19.2423182198
 10
-8.9206616481
 20
-19.2111111766
 10
-8.9180791986
 20
-19.1787596807
 10
-8.9159115314
 20
-19.1452631624
 10
-8.9141476405
 20
-19.1106221913
 10
-8.9127865015
 20
-19.074785826
 10
-8.911827773
 20
-19.0377370858
 10
-8.9112717963
 20
-18.9994929513
 10
-8.9111185715
 20
-18.9600534225
  0
LWPOLYLINE
  5
393
100
AcDbEntity
  8
IMPORT_IGES
100
AcDbPolyline
 62
7
  6
CONTINUOUS
 90
16
 70
0
 10
-12.0688949803
 20
-18.7884654532
 10
-12.0531876453
 20
-18.7663735661
 10
-12.0387700139
 20
-18.7447164626
 10
-12.0256420861
 20
-18.7234941428
 10
-12.0138471343
 20
-18.7027201338
 10
-12.0033418861
 20
-18.6823809085
 10
-11.9939965241
 20
-18.6624358856
 10
-11.9858093778
 20
-18.6428753664
 10
-11.9787821176
 20
-18.6237090496
 10
-11.9727899383
 20
-18.6049254507
 10
-11.9678342621
 20
-18.5865361184
 10
-11.9639136668
 20
-18.568529504
 10
-11.9608990802
 20
-18.550859476
 10
-11.9587474784
 20
-18.5335106573
 10
-11.9575018854
 20
-18.5164984251
 10
-11.9571623012
 20
-18.4998227794
  0
LWPOLYLINE
  5
394
100
AcDbEntity
  8
IMPORT_IGES
100
AcDbPolyline
 62
7
  6
CONTINUOUS
 90
13
 70
0
 10
-9.566490446
 20
-18.3019023876
 10
-9.5506582381
 20
-18.2804534763
 10
-9.5336024004
 20
-18.2606217465
 10
-9.515322933
 20
-18.2424071981
 10
-9.4958090922
 20
-18.2256846312
 10
-9.4750716217
 20
-18.2105792458
 10
-9.4531427518
 20
-18.1974666415
 10
-9.4297777305
 20
-18.1864508111
 10
-9.4052213099
 20
-18.1774277619
 10
-9.3802399762
 20
-18.1704611158
 10
-9.3550892249
 20
-18.1655720801
 10
-9.3295135605
 20
-18.1627394475
 10
-9.303512983
 20
-18.161963218
  0
LWPOLYLINE
  5
395
100
AcDbEntity
  8
IMPORT_IGES
100
AcDbPolyline
 62
7
  6
CONTINUOUS
 90
9
 70
0
 10
-12.8124488427
 20
-19.4961052424
 10
-12.7839167161
 20
-19.4638042636
 10
-12.75375926
 20
-19.4314136825
 10
-12.7219764743
 20
-19.3989334991
 10
-12.6885139105
 20
-19.3664178769
 10
-12.6534260172
 20
-19.3338126523
 10
-12.6168761395
 20
-19.3009553352
 10
-12.5789187259
 20
-19.2677917619
 10
-12.5394993279
 20
-19.2343760959
  0
LWPOLYLINE
  5
396
100
AcDbEntity
  8
IMPORT_IGES
100
AcDbPolyline
 62
7
  6
CONTINUOUS
 90
10
 70
0
 10
-12.6009549864
 20
-18.2657164074
 10
-12.6224466302
 20
-18.2891897498
 10
-12.6415677929
 20
-18.314910335
 10
-12.6583184747
 20
-18.3428781629
 10
-12.6728100008
 20
-18.373272767
 10
-12.6849310458
 20
-18.4059146138
 10
-12.6943476338
 20
-18.4402651028
 10
-12.7009484394
 20
-18.4761447007
 10
-12.704844788
 20
-18.5137329408
 10
-12.7060366795
 20
-18.5530298232
  0
LINE
  5
397
100
AcDbEntity
  8
IMPORT_IGES
100
AcDbLine
 62
253
  6
CONTINUOUS
 10
-23.2934535196
 20
1.7325902855
 11
-20.9536602503
 21
1.7325902855
  0
LINE
  5
398
100
AcDbEntity
  8
IMPORT_IGES
100
AcDbLine
 62
253
  6
CONTINUOUS
 10
20.9536602503
 20
1.7325902855
 11
23.2934535196
 21
1.7325902855
  0
LWPOLYLINE
  5
399
100
AcDbEntity
  8
IMPORT_IGES
100
AcDbPolyline
 62
253
  6
CONTINUOUS
 90
22
 70
0
 10
-5.3639788474
 20
3.4779662538
 10
-5.4697236952
 20
3.5163478644
 10
-5.5736234928
 20
3.560836323
 10
-5.6753111417
 20
3.6113719815
 10
-5.7744769496
 20
3.6679079899
 10
-5.8706911915
 20
3.7303103077
 10
-5.963426778
 20
3.798324645
 10
-6.0523455666
 20
3.8717727501
 10
-6.1371142961
 20
3.9504524682
 10
-6.2172696143
 20
4.0339857444
 10
-6.2925289221
 20
4.1221068371
 10
-6.362624077
 20
4.214532432
 10
-6.4271902889
 20
4.310783931
 10
-6.4860246098
 20
4.4105282662
 10
-6.5389446603
 20
4.5134227403
 10
-6.5857084941
 20
4.6189198224
 10
-6.6262087599
 20
4.7266452932
 10
-6.660361831
 20
4.8362249994
 10
-6.6880616291
 20
4.9470802593
 10
-6.7092924483
 20
5.0587597808
 10
-6.7240905475
 20
5.1709527252
 10
-6.7324952094
 20
5.2832884754
  0
LWPOLYLINE
  5
39A
100
AcDbEntity
  8
IMPORT_IGES
100
AcDbPolyline
 62
253
  6
CONTINUOUS
 90
19
 70
0
 10
-4.9003362138
 20
4.5315090836
 10
-4.9640991127
 20
4.5547748206
 10
-5.0255953622
 20
4.5819412002
 10
-5.0848249623
 20
4.6130082224
 10
-5.1420251299
 20
4.6481526011
 10
-5.1969586481
 20
4.6871976223
 10
-5.248913866
 20
4.7296131445
 10
-5.2978524091
 20
4.7754386403
 10
-5.343812652
 20
4.8246346369
 10
-5.386198067
 20
4.8765525748
 10
-5.4249653643
 20
4.9312254333
 10
-5.4601578338
 20
4.9886202331
 10
-5.4913088177
 20
5.0479894761
 10
-5.5183700653
 20
5.109359681
 10
-5.5413898274
 20
5.1727043293
 10
-5.5600461984
 20
5.2371963675
 10
-5.5742318764
 20
5.3025601111
 10
-5.5840541633
 20
5.3690712446
 10
-5.5895130591
 20
5.4367297681
  0
LWPOLYLINE
  5
39B
100
AcDbEntity
  8
IMPORT_IGES
100
AcDbPolyline
 62
253
  6
CONTINUOUS
 90
4
 70
0
 10
18.1350483164
 20
-39.0626958434
 10
18.1436864861
 20
-39.0849852451
 10
18.149691458
 20
-39.099631568
 10
18.1530327302
 20
-39.1064757453
  0
LINE
  5
39C
100
AcDbEntity
  8
IMPORT_IGES
100
AcDbLine
 62
253
  6
CONTINUOUS
 10
18.1100208004
 20
-38.9966436574
 11
18.1350483164
 21
-39.0626958434
  0
LINE
  5
39D
100
AcDbEntity
  8
IMPORT_IGES
100
AcDbLine
 62
253
  6
CONTINUOUS
 10
18.0327436876
 20
-38.7866356503
 11
18.1100208004
 21
-38.9966436574
  0
LWPOLYLINE
  5
39E
100
AcDbEntity
  8
IMPORT_IGES
100
AcDbPolyline
 62
7
  6
CONTINUOUS
 90
10
 70
0
 10
3.9056617782
 20
-13.5350532944
 10
3.9052889759
 20
-13.476811028
 10
3.9038562116
 20
-13.4203437082
 10
3.9013634855
 20
-13.365651335
 10
3.8978989871
 20
-13.3127320444
 10
3.8933745268
 20
-13.2615877003
 10
3.8875255356
 20
-13.212223895
 10
3.8802638238
 20
-13.1646424926
 10
3.8716775811
 20
-13.1188416291
 10
3.8617668075
 20
-13.0748213043
  0
LINE
  5
39F
100
AcDbEntity
  8
IMPORT_IGES
100
AcDbLine
 62
7
  6
CONTINUOUS
 10
4.0041329339
 20
-19.3146868086
 11
4.0041329339
 21
-18.5794928427
  0
LINE
  5
3A0
100
AcDbEntity
  8
IMPORT_IGES
100
AcDbLine
 62
7
  6
CONTINUOUS
 10
4.396237
 20
-21.4448299264
 11
4.396237
 21
-20.7088542525
  0
LINE
  5
3A1
100
AcDbEntity
  8
IMPORT_IGES
100
AcDbLine
 62
7
  6
CONTINUOUS
 10
4.396237
 20
-17.1853261425
 11
4.396237
 21
-16.4496996756
  0
LWPOLYLINE
  5
3A2
100
AcDbEntity
  8
IMPORT_IGES
100
AcDbPolyline
 62
253
  6
CONTINUOUS
 90
22
 70
0
 10
6.7324952097
 20
5.2832884816
 10
6.7240892158
 20
5.1709398492
 10
6.7092885754
 20
5.0587357266
 10
6.6880542723
 20
4.9470468067
 10
6.6603503674
 20
4.8361841482
 10
6.6261928137
 20
4.7265988817
 10
6.5856877652
 20
4.6188691746
 10
6.5389189179
 20
4.5133689243
 10
6.485993898
 20
4.4104725819
 10
6.4271549899
 20
4.3107278676
 10
6.3625848427
 20
4.2144774599
 10
6.2924865617
 20
4.1220542249
 10
6.2172251308
 20
4.0339366151
 10
6.1370689295
 20
3.950407848
 10
6.0523006478
 20
3.8717334103
 10
5.9633835492
 20
3.7982909824
 10
5.8706507465
 20
3.7302823914
 10
5.7744406473
 20
3.667885891
 10
5.6752808589
 20
3.6113558379
 10
5.5736013299
 20
3.5608260778
 10
5.4697116266
 20
3.5163430928
 10
5.3639788465
 20
3.4779662535
  0
LWPOLYLINE
  5
3A3
100
AcDbEntity
  8
IMPORT_IGES
100
AcDbPolyline
 62
253
  6
CONTINUOUS
 90
19
 70
0
 10
5.5895130591
 20
5.4367297681
 10
5.5840547017
 20
5.3690747008
 10
5.5742331612
 20
5.3025665192
 10
5.5600484379
 20
5.2372052232
 10
5.5413933174
 20
5.1727151232
 10
5.5183750141
 20
5.1093719087
 10
5.49131517
 20
5.0480026491
 10
5.4601655237
 20
4.9886338306
 10
5.4249743368
 20
4.931238967
 10
5.3862080356
 20
4.8765656684
 10
5.3438233099
 20
4.8246468874
 10
5.2978634699
 20
4.7754496715
 10
5.2489248735
 20
4.7296227733
 10
5.1969691179
 20
4.6872056466
 10
5.1420346058
 20
4.6481588377
 10
5.0848329027
 20
4.6130127378
 10
5.0256011973
 20
4.581944144
 10
4.964102301
 20
4.5547762593
 10
4.9003362138
 20
4.5315090836
  0
LWPOLYLINE
  5
3A4
100
AcDbEntity
  8
IMPORT_IGES
100
AcDbPolyline
 62
7
  6
CONTINUOUS
 90
19
 70
0
 10
1.0893928573
 20
-13.0442279811
 10
1.0952767538
 20
-13.0151155418
 10
1.1018516631
 20
-12.9871172192
 10
1.1091175851
 20
-12.9602330134
 10
1.1170985761
 20
-12.9344980546
 10
1.1257705798
 20
-12.9098772127
 10
1.1350614275
 20
-12.8862650962
 10
1.1449732875
 20
-12.8636604729
 10
1.1555039914
 20
-12.8420645751
 10
1.1665748655
 20
-12.8213757089
 10
1.1781770421
 20
-12.8015989446
 10
1.1903193887
 20
-12.7827292118
 10
1.2029498344
 20
-12.7646496064
 10
1.2160496468
 20
-12.747348756
 10
1.2296375582
 20
-12.7308380328
 10
1.2437176937
 20
-12.7150346494
 10
1.2582914285
 20
-12.6999110099
 10
1.2733573874
 20
-12.6854947102
 10
1.2889155704
 20
-12.6717857502
  0
LWPOLYLINE
  5
3A5
100
AcDbEntity
  8
IMPORT_IGES
100
AcDbPolyline
 62
7
  6
CONTINUOUS
 90
10
 70
0
 10
2.7045362531
 20
-12.9790505496
 10
2.6889668118
 20
-13.0299157815
 10
2.6754066399
 20
-13.0835453447
 10
2.6638557375
 20
-13.1399392391
 10
2.654414354
 20
-13.1991456229
 10
2.6469822398
 20
-13.2611163379
 10
2.6412586472
 20
-13.32570691
 10
2.6371433267
 20
-13.3928691811
 10
2.6347365277
 20
-13.4626513092
 10
2.6340382501
 20
-13.5350532944
  0
LWPOLYLINE
  5
3A6
100
AcDbEntity
  8
IMPORT_IGES
100
AcDbPolyline
 62
7
  6
CONTINUOUS
 90
10
 70
0
 10
-0.7655655465
 20
-14.0899177562
 10
-0.7834026302
 20
-14.1380163087
 10
-0.8028062398
 20
-14.1831689833
 10
-0.8237763754
 20
-14.22537578
 10
-0.8465336074
 20
-14.2646725343
 10
-0.8708573652
 20
-14.3010234106
 10
-0.8960859378
 20
-14.3343209024
 10
-0.9219987546
 20
-14.364529174
 10
-0.9488163861
 20
-14.3916840611
 10
-0.9765388323
 20
-14.4157855637
  0
LINE
  5
3A7
100
AcDbEntity
  8
IMPORT_IGES
100
AcDbLine
 62
253
  6
CONTINUOUS
 10
21.5496819052
 20
40.0075086798
 11
20.9536602503
 21
38.4125955821
  0
LINE
  5
3A8
100
AcDbEntity
  8
IMPORT_IGES
100
AcDbLine
 62
253
  6
CONTINUOUS
 10
21.6706232256
 20
40.3289193996
 11
21.5496819052
 21
40.0075086798
  0
LWPOLYLINE
  5
3A9
100
AcDbEntity
  8
IMPORT_IGES
100
AcDbPolyline
 62
7
  6
CONTINUOUS
 90
25
 70
0
 10
-2.5685196832
 20
-14.1735253381
 10
-2.5589918857
 20
-14.159211116
 10
-2.5499235345
 20
-14.1438017342
 10
-2.5413146294
 20
-14.1272971926
 10
-2.5331665708
 20
-14.109679637
 10
-2.5254779584
 20
-14.0909669218
 10
-2.5182445914
 20
-14.0712126094
 10
-2.5114939299
 20
-14.0504211832
 10
-2.5051985137
 20
-14.02858816
 10
-2.4992717617
 20
-14.005753652
 10
-2.4936824363
 20
-13.9819444331
 10
-2.4884617751
 20
-13.9571337295
 10
-2.4836169091
 20
-13.931281332
 10
-2.4791515533
 20
-13.9043905418
 10
-2.4750619928
 20
-13.8764580579
 10
-2.4713442137
 20
-13.847433767
 10
-2.4679862132
 20
-13.8173185157
 10
-2.4649999942
 20
-13.7861114574
 10
-2.4624175503
 20
-13.7537599408
 10
-2.4602498877
 20
-13.7202633962
 10
-2.4584860002
 20
-13.6856223932
 10
-2.4571248639
 20
-13.6497859886
 10
-2.4561661374
 20
-13.6127372014
 10
-2.4556101621
 20
-13.5744930127
 10
-2.4554569378
 20
-13.5350534225
  0
LWPOLYLINE
  5
3AA
100
AcDbEntity
  8
IMPORT_IGES
100
AcDbPolyline
 62
7
  6
CONTINUOUS
 90
13
 70
0
 10
-3.1108286303
 20
-12.8769024132
 10
-3.0949965172
 20
-12.8554536185
 10
-3.0779407575
 20
-12.8356219682
 10
-3.0596613513
 20
-12.8174074622
 10
-3.0401475514
 20
-12.8006848895
 10
-3.019410105
 20
-12.7855794611
 10
-2.9974812531
 20
-12.7724668101
 10
-2.9741162592
 20
-12.7614509355
 10
-2.9495598598
 20
-12.7524278383
 10
-2.9245785066
 20
-12.7454611543
 10
-2.8994276833
 20
-12.7405720956
 10
-2.8738519061
 20
-12.7377394501
 10
-2.8478511751
 20
-12.736963218
  0
LWPOLYLINE
  5
3AB
100
AcDbEntity
  8
IMPORT_IGES
100
AcDbPolyline
 62
7
  6
CONTINUOUS
 90
13
 70
0
 10
-1.5957877921
 20
-12.8769025211
 10
-1.5799556715
 20
-12.8554537079
 10
-1.5628999045
 20
-12.835622041
 10
-1.544620491
 20
-12.8174075206
 10
-1.5251066847
 20
-12.8006849357
 10
-1.5043692318
 20
-12.7855794973
 10
-1.4824403721
 20
-12.7724668372
 10
-1.4590753672
 20
-12.7614509541
 10
-1.4345189554
 20
-12.7524278494
 10
-1.409537591
 20
-12.7454611597
 10
-1.3843867588
 20
-12.7405720974
 10
-1.358810974
 20
-12.7377394501
 10
-1.3328102365
 20
-12.736963218
  0
LWPOLYLINE
  5
3AC
100
AcDbEntity
  8
IMPORT_IGES
100
AcDbPolyline
 62
7
  6
CONTINUOUS
 90
13
 70
0
 10
-9.0241815323
 20
-19.5985253139
 10
-9.0434700596
 20
-19.6243386343
 10
-9.0634015999
 20
-19.6478042203
 10
-9.0839761531
 20
-19.6689220719
 10
-9.1049495795
 20
-19.6875863312
 10
-9.1265660188
 20
-19.703902856
 10
-9.1495578908
 20
-19.7181892205
 10
-9.1747991616
 20
-19.7306907576
 10
-9.2014158649
 20
-19.7411621344
 10
-9.2275185216
 20
-19.7491849252
 10
-9.2524773052
 20
-19.7546196549
 10
-9.2769220421
 20
-19.7576057986
 10
-9.3008527324
 20
-19.7581433563
  0
LWPOLYLINE
  5
3AD
100
AcDbEntity
  8
IMPORT_IGES
100
AcDbPolyline
 62
7
  6
CONTINUOUS
 90
13
 70
0
 10
-2.5685196832
 20
-14.1735253381
 10
-2.5878081111
 20
-14.1993384976
 10
-2.6077395657
 20
-14.222803972
 10
-2.6283140468
 20
-14.2439217613
 10
-2.6492874157
 20
-14.2625860227
 10
-2.6709038112
 20
-14.2789025991
 10
-2.6938956498
 20
-14.2931890191
 10
-2.7191368832
 20
-14.3056906059
 10
-2.7457535596
 20
-14.3161620364
 10
-2.77185624
 20
-14.3241848707
 10
-2.7968151114
 20
-14.3296196288
 10
-2.8212599868
 20
-14.3326057907
 10
-2.8451908663
 20
-14.3331433563
  0
LWPOLYLINE
  5
3AE
100
AcDbEntity
  8
IMPORT_IGES
100
AcDbPolyline
 62
7
  6
CONTINUOUS
 90
13
 70
0
 10
-10.3125710306
 20
-19.7186589807
 10
-10.339133005
 20
-19.7502992138
 10
-10.367614807
 20
-19.7799585023
 10
-10.3980164366
 20
-19.8076368461
 10
-10.4305111021
 20
-19.8335506404
 10
-10.4649255952
 20
-19.85748349
 10
-10.5007402915
 20
-19.8787862091
 10
-10.5378666792
 20
-19.8972133933
 10
-10.57639327
 20
-19.9130104471
 10
-10.6160659749
 20
-19.9262643984
 10
-10.6568000976
 20
-19.9370042567
 10
-10.6986803344
 20
-19.9452010126
 10
-10.7417066852
 20
-19.9508546661
  0
LWPOLYLINE
  5
3AF
100
AcDbEntity
  8
IMPORT_IGES
100
AcDbPolyline
 62
7
  6
CONTINUOUS
 90
10
 70
0
 10
-10.5322398371
 20
-19.6280914556
 10
-10.5078603507
 20
-19.5991750459
 10
-10.4861668554
 20
-19.5677395253
 10
-10.4671593512
 20
-19.5337848937
 10
-10.4507142062
 20
-19.4971336007
 10
-10.4369550522
 20
-19.4579631968
 10
-10.426252785
 20
-19.416806333
 10
-10.4187310362
 20
-19.3738405599
 10
-10.4142661741
 20
-19.328888327
 10
-10.4128581986
 20
-19.2819496343
  0
LWPOLYLINE
  5
3B0
100
AcDbEntity
  8
IMPORT_IGES
100
AcDbPolyline
 62
7
  6
CONTINUOUS
 90
10
 70
0
 10
-12.5640597714
 20
-19.5622827594
 10
-12.5769161926
 20
-19.5760919741
 10
-12.5893580323
 20
-19.5900504992
 10
-12.6013852906
 20
-19.6041583349
 10
-12.6129994659
 20
-19.618426725
 10
-12.6241990597
 20
-19.6328444255
 10
-12.6349795765
 20
-19.6473777048
 10
-12.6453395179
 20
-19.6620153188
 10
-12.6552803823
 20
-19.6767685116
 10
-12.6648021698
 20
-19.6916372831
  0
LWPOLYLINE
  5
3B1
100
AcDbEntity
  8
IMPORT_IGES
100
AcDbPolyline
 62
7
  6
CONTINUOUS
 90
9
 70
0
 10
-11.9182580595
 20
-18.973653112
 10
-11.9529249037
 20
-19.010498183
 10
-11.9890205071
 20
-19.0474213642
 10
-12.0265448696
 20
-19.0844226557
 10
-12.0652966631
 20
-19.1211925723
 10
-12.1054772157
 20
-19.1580405992
 10
-12.1476905127
 20
-19.1958951915
 10
-12.1921378824
 20
-19.2350658344
 10
-12.2386179964
 20
-19.2752430427
  0
LWPOLYLINE
  5
3B2
100
AcDbEntity
  8
IMPORT_IGES
100
AcDbPolyline
 62
7
  6
CONTINUOUS
 90
9
 70
0
 10
-12.2462114078
 20
-18.9812473026
 10
-12.220551824
 20
-18.9568168085
 10
-12.1958459542
 20
-18.9325332289
 10
-12.172047271
 20
-18.9084503228
 10
-12.1492023019
 20
-18.8845143312
 10
-12.1274506299
 20
-18.8605639762
 10
-12.1068387828
 20
-18.8365454986
 10
-12.087320233
 20
-18.8125126576
 10
-12.0688949803
 20
-18.7884654532
  0
LWPOLYLINE
  5
3B3
100
AcDbEntity
  8
IMPORT_IGES
100
AcDbPolyline
 62
7
  6
CONTINUOUS
 90
6
 70
0
 10
-12.5243697195
 20
-19.5233002812
 10
-12.5325924944
 20
-19.5310186485
 10
-12.5406778829
 20
-19.5387733715
 10
-12.5486092321
 20
-19.5465734784
 10
-12.556403195
 20
-19.554409941
 10
-12.5640597714
 20
-19.5622827594
  0
LWPOLYLINE
  5
3B4
100
AcDbEntity
  8
IMPORT_IGES
100
AcDbPolyline
 62
7
  6
CONTINUOUS
 90
13
 70
0
 10
-12.7621901978
 20
-18.1084288143
 10
-12.7876470048
 20
-18.1318282136
 10
-12.8117769655
 20
-18.1580458638
 10
-12.83458008
 20
-18.1870817647
 10
-12.856498248
 20
-18.2197097014
 10
-12.8770895699
 20
-18.2551558889
 10
-12.8950283459
 20
-18.2910989726
 10
-12.9095834739
 20
-18.3262019674
 10
-12.9214860561
 20
-18.3618018585
 10
-12.9316036994
 20
-18.3995882457
 10
-12.9402256061
 20
-18.4401243291
 10
-12.9470625738
 20
-18.4828469087
 10
-12.9521146025
 20
-18.5277559846
  0
LWPOLYLINE
  5
3B5
100
AcDbEntity
  8
IMPORT_IGES
100
AcDbPolyline
 62
7
  6
CONTINUOUS
 90
3
 70
0
 10
-12.4992101341
 20
-19.5001827517
 10
-12.5076785394
 20
-19.5078823328
 10
-12.5243697195
 20
-19.5233002812
  0
LWPOLYLINE
  5
3B6
100
AcDbEntity
  8
IMPORT_IGES
100
AcDbPolyline
 62
7
  6
CONTINUOUS
 90
5
 70
0
 10
-12.4030655562
 20
-19.4151998477
 10
-12.4254435601
 20
-19.4346508693
 10
-12.447491593
 20
-19.4540195952
 10
-12.4692285066
 20
-19.4733001195
 10
-12.4992101341
 20
-19.5001827517
  0
LINE
  5
3B7
100
AcDbEntity
  8
IMPORT_IGES
100
AcDbLine
 62
7
  6
CONTINUOUS
 10
-12.3574327459
 20
-19.3760154814
 11
-12.4030655562
 21
-19.4151998477
  0
LINE
  5
3B8
100
AcDbEntity
  8
IMPORT_IGES
100
AcDbLine
 62
7
  6
CONTINUOUS
 10
-12.2386179964
 20
-19.2752430427
 11
-12.3574327459
 21
-19.3760154814
  0
LWPOLYLINE
  5
3B9
100
AcDbEntity
  8
IMPORT_IGES
100
AcDbPolyline
 62
7
  6
CONTINUOUS
 90
19
 70
0
 10
-12.7621901978
 20
-18.1084288143
 10
-12.7453990642
 20
-18.0943708727
 10
-12.7278227175
 20
-18.080936013
 10
-12.7094611579
 20
-18.0681242352
 10
-12.6903451449
 20
-18.0559233205
 10
-12.6704439189
 20
-18.0443454877
 10
-12.6496652006
 20
-18.0334273935
 10
-12.6280075855
 20
-18.0231466151
 10
-12.6054724781
 20
-18.0135255752
 10
-12.581971813
 20
-18.0046681985
 10
-12.5575455969
 20
-17.9965727982
 10
-12.5321538231
 20
-17.9892410611
 10
-12.5055884062
 20
-17.9827819721
 10
-12.477860356
 20
-17.977187369
 10
-12.4489586627
 20
-17.972465414
 10
-12.4186422111
 20
-17.9687495791
 10
-12.3868306295
 20
-17.966084355
 10
-12.3536042896
 20
-17.964425251
 10
-12.3189631914
 20
-17.963772267
  0
LINE
  5
3BA
100
AcDbEntity
  8
IMPORT_IGES
100
AcDbLine
 62
253
  6
CONTINUOUS
 10
-7.2289642075
 20
5.2604797373
 11
-6.7295101392
 21
5.2834274075
  0
LINE
  5
3BB
100
AcDbEntity
  8
IMPORT_IGES
100
AcDbLine
 62
253
  6
CONTINUOUS
 10
-6.5884366208
 20
5.3911713937
 11
-5.5895130591
 21
5.4367297682
  0
LINE
  5
3BC
100
AcDbEntity
  8
IMPORT_IGES
100
AcDbLine
 62
253
  6
CONTINUOUS
 10
5.5895130591
 20
5.4367297682
 11
6.5884366208
 21
5.3911713937
  0
LINE
  5
3BD
100
AcDbEntity
  8
IMPORT_IGES
100
AcDbLine
 62
253
  6
CONTINUOUS
 10
6.7295101392
 20
5.2834274075
 11
7.2289642075
 21
5.2604797373
  0
LWPOLYLINE
  5
3BE
100
AcDbEntity
  8
0
100
AcDbPolyline
 62
253
  6
CONTINUOUS
 90
13
 70
0
 10
14.2608695652
 20
-2.3317232122
 10
14.2687804004
 20
-2.3358207595
 10
14.2768851739
 20
-2.3391865964
 10
14.2851978478
 20
-2.341820478
 10
14.2938096091
 20
-2.3437264821
 10
14.302651917
 20
-2.3448984783
 10
14.3114949519
 20
-2.3453124584
 10
14.3203334255
 20
-2.3449261601
 10
14.3291804242
 20
-2.343758293
 10
14.3378274264
 20
-2.341864345
 10
14.3462016152
 20
-2.3392499393
 10
14.3543677021
 20
-2.3358751709
 10
14.3623188406
 20
-2.3317232122
  0
LINE
  5
3BF
100
AcDbEntity
  8
0
100
AcDbLine
 62
7
  6
CONTINUOUS
 10
12.6
 20
-2.4271115175
 11
12.050930643
 21
-2.1101061764
  0
LINE
  5
3C0
100
AcDbEntity
  8
0
100
AcDbLine
 62
7
  6
CONTINUOUS
 10
12.6364341402
 20
-1.5243863475
 11
14.2
 21
-2.4271115175
  0
LINE
  5
3C1
100
AcDbEntity
  8
0
100
AcDbLine
 62
253
  6
CONTINUOUS
 10
14.0976625073
 20
-2.2374955733
 11
14.2319885952
 21
-2.3149158787
  0
LINE
  5
3C2
100
AcDbEntity
  8
0
100
AcDbLine
 62
253
  6
CONTINUOUS
 10
12.6032432503
 20
-1.374692213
 11
14.0976625073
 21
-2.2374955733
  0
LINE
  5
3C3
100
AcDbEntity
  8
0
100
AcDbLine
 62
253
  6
CONTINUOUS
 10
12.5362318841
 20
-2.5074385115
 11
11.8843855909
 21
-2.1310948787
  0
LINE
  5
3C4
100
AcDbEntity
  8
0
100
AcDbLine
 62
253
  6
CONTINUOUS
 10
14.2319885952
 20
-2.3149158787
 11
14.2608695652
 21
-2.3317232122
  0
LWPOLYLINE
  5
3C5
100
AcDbEntity
  8
0
100
AcDbPolyline
 62
253
  6
CONTINUOUS
 90
13
 70
0
 10
15.2903288256
 20
-2.9467267595
 10
15.2808822864
 20
-2.940719176
 10
15.2712282109
 20
-2.9347888536
 10
15.2614908329
 20
-2.929012114
 10
15.2517954578
 20
-2.9234633033
 10
15.24226685
 20
-2.9182138352
 10
15.2330276275
 20
-2.9133312718
 10
15.2241966837
 20
-2.9088784541
 10
15.2158876577
 20
-2.9049126934
 10
15.2082074718
 20
-2.9014850337
 10
15.2012549555
 20
-2.8986395944
 10
15.1951195739
 20
-2.8964130032
 10
15.1898802761
 20
-2.8948339239
  0
LWPOLYLINE
  5
3C6
100
AcDbEntity
  8
0
100
AcDbPolyline
 62
7
  6
CONTINUOUS
 90
10
 70
0
 10
12.6364341402
 20
-1.5243863475
 10
12.6311759849
 20
-1.5210275059
 10
12.6264472134
 20
-1.5174730444
 10
12.6222513947
 20
-1.5137172042
 10
12.6185945199
 20
-1.5097260574
 10
12.6154782276
 20
-1.5055239037
 10
12.6128990188
 20
-1.5011928624
 10
12.6108575521
 20
-1.4967578827
 10
12.6093594455
 20
-1.4921871626
 10
12.6084079401
 20
-1.4874782528
  0
LINE
  5
3C7
100
AcDbEntity
  8
IMPORT_IGES
100
AcDbLine
 62
253
  6
CONTINUOUS
 10
5.2101065074
 20
3.5806580325
 11
5.3639788465
 21
3.4779662535
  0
LINE
  5
3C8
100
AcDbEntity
  8
IMPORT_IGES
100
AcDbLine
 62
253
  6
CONTINUOUS
 10
17.883254859
 20
-38.3729284323
 11
18.0327436876
 21
-38.7866356503
  0
LWPOLYLINE
  5
3C9
100
AcDbEntity
  8
IMPORT_IGES
100
AcDbPolyline
 62
253
  6
CONTINUOUS
 90
3
 70
0
 10
17.4770796137
 20
-37.2267177604
 10
17.5654433923
 20
-37.4775673231
 10
17.883254859
 20
-38.3729284323
  0
LINE
  5
3CA
100
AcDbEntity
  8
IMPORT_IGES
100
AcDbLine
 62
253
  6
CONTINUOUS
 10
-5.5220841649
 20
35.1029959959
 11
-5.3640061051
 21
34.6286624751
  0
LINE
  5
3CB
100
AcDbEntity
  8
IMPORT_IGES
100
AcDbLine
 62
253
  6
CONTINUOUS
 10
5.5220841649
 20
3.0035504846
 11
5.3640061051
 21
3.4778840053
  0
LINE
  5
3CC
100
AcDbEntity
  8
IMPORT_IGES
100
AcDbLine
 62
253
  6
CONTINUOUS
 10
-5.2100829301
 20
34.525816456
 11
-4.9003362138
 21
33.5750373969
  0
LINE
  5
3CD
100
AcDbEntity
  8
IMPORT_IGES
100
AcDbLine
 62
253
  6
CONTINUOUS
 10
5.2100829301
 20
3.5807300244
 11
4.9003362138
 21
4.5315090835
  0
LINE
  5
3CE
100
AcDbEntity
  8
IMPORT_IGES
100
AcDbLine
 62
7
  6
CONTINUOUS
 10
8.5496363892
 20
-13.2109762608
 11
8.5302107273
 21
-12.9889451641
  0
LINE
  5
3CF
100
AcDbEntity
  8
IMPORT_IGES
100
AcDbLine
 62
7
  6
CONTINUOUS
 10
8.9505201606
 20
-17.7930886506
 11
8.8655461606
 21
-16.8218376506
  0
LINE
  5
3D0
100
AcDbEntity
  8
IMPORT_IGES
100
AcDbLine
 62
7
  6
CONTINUOUS
 10
8.6306311839
 20
-14.1367535982
 11
8.5720631839
 21
-13.4673215982
  0
LINE
  5
3D1
100
AcDbEntity
  8
IMPORT_IGES
100
AcDbLine
 62
7
  6
CONTINUOUS
 10
8.8509631839
 20
-16.6551585982
 11
8.6480091839
 21
-14.3353925982
  0
LINE
  5
3D2
100
AcDbEntity
  8
IMPORT_IGES
100
AcDbLine
 62
7
  6
CONTINUOUS
 10
8.5981710785
 20
-13.030420637
 11
8.6139674961
 21
-13.2109762608
  0
LINE
  5
3D3
100
AcDbEntity
  8
IMPORT_IGES
100
AcDbLine
 62
7
  6
CONTINUOUS
 10
9.0092491347
 20
-17.7291098312
 11
8.9246984571
 21
-16.7626818026
  0
LINE
  5
3D4
100
AcDbEntity
  8
IMPORT_IGES
100
AcDbLine
 62
7
  6
CONTINUOUS
 10
8.9101160935
 20
-16.5960030095
 11
8.7185078173
 21
-14.4058891754
  0
LINE
  5
3D5
100
AcDbEntity
  8
IMPORT_IGES
100
AcDbLine
 62
7
  6
CONTINUOUS
 10
8.7011293508
 20
-14.2072504702
 11
8.6363945898
 21
-13.4673215982
  0
LWPOLYLINE
  5
3D6
100
AcDbEntity
  8
IMPORT_IGES
100
AcDbPolyline
 62
253
  6
CONTINUOUS
 90
22
 70
0
 10
7.2289348789
 20
32.8468329103
 10
7.2180629265
 20
32.9906249719
 10
7.1991940866
 20
33.1325906122
 10
7.1723283594
 20
33.2727298312
 10
7.1373089912
 20
33.4114952239
 10
7.0942927355
 20
33.5484341952
 10
7.0437498531
 20
33.6821889605
 10
6.9856233669
 20
33.8127009572
 10
6.9199702539
 20
33.9400287478
 10
6.8474317066
 20
34.0629902347
 10
6.7679516167
 20
34.1815481639
 10
6.6815860925
 20
34.2957397894
 10
6.5891446509
 20
34.4044947761
 10
6.4905761696
 20
34.5077692774
 10
6.385931771
 20
34.6056071399
 10
6.2761743387
 20
34.6970695679
 10
6.1612601486
 20
34.7821055216
 10
6.0412329249
 20
34.8607660408
 10
5.9171867233
 20
34.9322654497
 10
5.7894862291
 20
34.9963418565
 10
5.6577667571
 20
35.0532571529
 10
5.5220283071
 20
35.1030113392
  0
LWPOLYLINE
  5
3D7
100
AcDbEntity
  8
IMPORT_IGES
100
AcDbPolyline
 62
253
  6
CONTINUOUS
 90
22
 70
0
 10
6.5854482285
 20
32.7152406827
 10
6.5771834998
 20
32.8278951147
 10
6.5624877277
 20
32.9404307279
 10
6.5413181788
 20
33.0524733775
 10
6.5136355025
 20
33.1637081532
 10
6.479452448
 20
33.273679584
 10
6.438872367
 20
33.3818047055
 10
6.3919765654
 20
33.4877049133
 10
6.3388709791
 20
33.5910000593
 10
6.2797972403
 20
33.6911358407
 10
6.2149374245
 20
33.7877640058
 10
6.1444946656
 20
33.8805457952
 10
6.0688355896
 20
33.9689958974
 10
5.9882298558
 20
34.0528255412
 10
5.9029620716
 20
34.1317635643
 10
5.8134994725
 20
34.205425962
 10
5.7201774595
 20
34.2736065585
 10
5.6233387568
 20
34.3361217092
 10
5.5235194184
 20
34.3927107761
 10
5.4211556671
 20
34.4432361967
 10
5.3165606014
 20
34.4876493616
 10
5.21010651
 20
34.525888448
  0
LINE
  5
3D8
100
AcDbEntity
  8
RACCORDO
100
AcDbLine
 62
253
  6
CONTINUOUS
 10
7.0
 20
-40.3107414183
 11
7.0
 21
-42.2467267598
  0
LINE
  5
3D9
100
AcDbEntity
  8
IMPORT_IGES
100
AcDbLine
 62
7
  6
CONTINUOUS
 10
7.4020000175
 20
-20.1692269499
 11
7.4020000175
 21
-21.1692289765
  0
LINE
  5
3DA
100
AcDbEntity
  8
RACCORDO
100
AcDbLine
 62
7
  6
CONTINUOUS
 10
7.5
 20
-41.7467267598
 11
7.5
 21
-40.2766416185
  0
LINE
  5
3DB
100
AcDbEntity
  8
IMPORT_IGES
100
AcDbLine
 62
7
  6
CONTINUOUS
 10
8.0453932016
 20
-13.2109762608
 11
8.0453932016
 21
-13.4673215982
  0
LINE
  5
3DC
100
AcDbEntity
  8
IMPORT_IGES
100
AcDbLine
 62
7
  6
CONTINUOUS
 10
8.7182913212
 20
-12.666250145
 11
8.7182913212
 21
-12.9171364683
  0
LINE
  5
3DD
100
AcDbEntity
  8
IMPORT_IGES
100
AcDbLine
 62
7
  6
CONTINUOUS
 10
8.7182913212
 20
-12.9850708626
 11
8.7182913212
 21
-13.2109762608
  0
LINE
  5
3DE
100
AcDbEntity
  8
IMPORT_IGES
100
AcDbLine
 62
7
  6
CONTINUOUS
 10
8.782377
 20
-13.1468945498
 11
8.782377
 21
-12.9630282346
  0
LINE
  5
3DF
100
AcDbEntity
  8
IMPORT_IGES
100
AcDbLine
 62
7
  6
CONTINUOUS
 10
8.782377
 20
-12.8955613835
 11
8.782377
 21
-12.730336314
  0
LINE
  5
3E0
100
AcDbEntity
  8
IMPORT_IGES
100
AcDbLine
 62
7
  6
CONTINUOUS
 10
8.9505201606
 20
-17.7930886506
 11
8.9505201606
 21
-18.3057726506
  0
LINE
  5
3E1
100
AcDbEntity
  8
IMPORT_IGES
100
AcDbLine
 62
7
  6
CONTINUOUS
 10
8.9746314961
 20
-12.730336314
 11
8.9746314961
 21
-12.8392529356
  0
LINE
  5
3E2
100
AcDbEntity
  8
IMPORT_IGES
100
AcDbLine
 62
7
  6
CONTINUOUS
 10
8.9746314961
 20
-12.9055255348
 11
8.9746314961
 21
-13.1468945498
  0
LINE
  5
3E3
100
AcDbEntity
  8
IMPORT_IGES
100
AcDbLine
 62
7
  6
CONTINUOUS
 10
9.0387177413
 20
-13.2109762608
 11
9.0387177413
 21
-12.8891490584
  0
LINE
  5
3E4
100
AcDbEntity
  8
IMPORT_IGES
100
AcDbLine
 62
7
  6
CONTINUOUS
 10
9.0387177413
 20
-12.8232089744
 11
9.0387177413
 21
-12.666250145
  0
LINE
  5
3E5
100
AcDbEntity
  8
IMPORT_IGES
100
AcDbLine
 62
7
  6
CONTINUOUS
 10
9.0466476977
 20
-18.2096422965
 11
9.0466476977
 21
-17.8251327331
  0
LINE
  5
3E6
100
AcDbEntity
  8
IMPORT_IGES
100
AcDbLine
 62
7
  6
CONTINUOUS
 10
9.2389043421
 20
-17.8251327331
 11
9.2389043421
 21
-18.2096422965
  0
LINE
  5
3E7
100
AcDbEntity
  8
IMPORT_IGES
100
AcDbLine
 62
7
  6
CONTINUOUS
 10
9.3350318537
 20
-18.3057726506
 11
9.3350318537
 21
-17.7930886506
  0
LINE
  5
3E8
100
AcDbEntity
  8
IMPORT_IGES
100
AcDbLine
 62
7
  6
CONTINUOUS
 10
9.5834446809
 20
-14.4286026506
 11
9.5834446809
 21
-14.7490297703
  0
LINE
  5
3E9
100
AcDbEntity
  8
IMPORT_IGES
100
AcDbLine
 62
7
  6
CONTINUOUS
 10
9.6475295722
 20
-14.6849439795
 11
9.6475295722
 21
-14.4926854725
  0
LINE
  5
3EA
100
AcDbEntity
  8
IMPORT_IGES
100
AcDbLine
 62
7
  6
CONTINUOUS
 10
9.7116157413
 20
-12.5701220214
 11
9.7116157413
 21
-12.7322078086
  0
LINE
  5
3EB
100
AcDbEntity
  8
IMPORT_IGES
100
AcDbLine
 62
7
  6
CONTINUOUS
 10
9.7116157413
 20
-12.7963310528
 11
9.7116157413
 21
-12.9546353101
  0
LINE
  5
3EC
100
AcDbEntity
  8
IMPORT_IGES
100
AcDbLine
 62
7
  6
CONTINUOUS
 10
9.7757009939
 20
-12.6342089231
 11
9.7757009939
 21
-12.7306812346
  0
LINE
  5
3ED
100
AcDbEntity
  8
IMPORT_IGES
100
AcDbLine
 62
7
  6
CONTINUOUS
 10
9.775701
 20
-12.8905535991
 11
9.775701
 21
-12.7947727777
  0
LWPOLYLINE
  5
3EE
100
AcDbEntity
  8
IMPORT_IGES
100
AcDbPolyline
 62
7
  6
CONTINUOUS
 90
10
 70
0
 10
3.8345654291
 20
-14.0895269363
 10
3.8500184659
 20
-14.0386289279
 10
3.8635283492
 20
-13.9850212053
 10
3.875095079
 20
-13.9287037686
 10
3.8846455981
 20
-13.8696337235
 10
3.8922529638
 20
-13.8078539642
 10
3.8981363475
 20
-13.7434931734
 10
3.9023688063
 20
-13.6765942453
 10
3.9048772832
 20
-13.6071142856
 10
3.9056617782
 20
-13.5350532944
  0
LWPOLYLINE
  5
3EF
100
AcDbEntity
  8
IMPORT_IGES
100
AcDbPolyline
 62
7
  6
CONTINUOUS
 90
25
 70
0
 10
-1.0534788027
 20
-14.1735253381
 10
-1.0439510053
 20
-14.159211116
 10
-1.034882654
 20
-14.1438017342
 10
-1.026273749
 20
-14.1272971926
 10
-1.0181256903
 20
-14.109679637
 10
-1.0104370779
 20
-14.0909669218
 10
-1.0032037109
 20
-14.0712126094
 10
-0.9964530494
 20
-14.0504211832
 10
-0.9901576333
 20
-14.02858816
 10
-0.9842308813
 20
-14.005753652
 10
-0.9786415559
 20
-13.9819444331
 10
-0.9734208946
 20
-13.9571337295
 10
-0.9685760286
 20
-13.931281332
 10
-0.9641106729
 20
-13.9043905418
 10
-0.9600211124
 20
-13.8764580579
 10
-0.9563033332
 20
-13.847433767
 10
-0.9529453328
 20
-13.8173185156
 10
-0.9499591137
 20
-13.7861114574
 10
-0.9473766699
 20
-13.7537599408
 10
-0.9452090072
 20
-13.7202633962
 10
-0.9434451198
 20
-13.6856223932
 10
-0.9420839835
 20
-13.6497859886
 10
-0.941125257
 20
-13.6127372014
 10
-0.9405692816
 20
-13.5744930127
 10
-0.9404160574
 20
-13.5350534225
  0
LWPOLYLINE
  5
3F0
100
AcDbEntity
  8
IMPORT_IGES
100
AcDbPolyline
 62
7
  6
CONTINUOUS
 90
10
 70
0
 10
0.6637450319
 20
-13.2756741628
 10
0.6481205291
 20
-13.2978383078
 10
0.6309599305
 20
-13.3189865188
 10
0.6122632363
 20
-13.3391187958
 10
0.5922030984
 20
-13.3581574367
 10
0.5706068648
 20
-13.3761801435
 10
0.5469565793
 20
-13.3934200226
 10
0.5210795898
 20
-13.409954776
 10
0.4931485484
 20
-13.4257067016
 10
0.4631634551
 20
-13.4406757994
  0
LWPOLYLINE
  5
3F1
100
AcDbEntity
  8
IMPORT_IGES
100
AcDbPolyline
 62
7
  6
CONTINUOUS
 90
10
 70
0
 10
2.1787859819
 20
-13.2756740563
 10
2.163161431
 20
-13.2978381871
 10
2.1460007967
 20
-13.3189863938
 10
2.1273040789
 20
-13.3391186765
 10
2.1072439241
 20
-13.3581573375
 10
2.0856476859
 20
-13.3761800745
 10
2.061997425
 20
-13.3934199799
 10
2.036120495
 20
-13.4099547513
 10
2.0081895422
 20
-13.4257066911
 10
1.9782045667
 20
-13.4406757994
  0
LWPOLYLINE
  5
3F2
100
AcDbEntity
  8
IMPORT_IGES
100
AcDbPolyline
 62
7
  6
CONTINUOUS
 90
13
 70
0
 10
-1.0534788027
 20
-14.1735253381
 10
-1.0727672181
 20
-14.1993384872
 10
-1.0926986626
 20
-14.2228039548
 10
-1.1132731361
 20
-14.2439217409
 10
-1.1342465005
 20
-14.2625860039
 10
-1.1558628939
 20
-14.2789025853
 10
-1.1788547312
 20
-14.2931890098
 10
-1.2040959625
 20
-14.3056905985
 10
-1.2307126375
 20
-14.3161620301
 10
-1.2568153209
 20
-14.3241848657
 10
-1.2817742009
 20
-14.3296196254
 10
-1.3062190892
 20
-14.3326057889
 10
-1.3301499858
 20
-14.3331433563
  0
LWPOLYLINE
  5
3F3
100
AcDbEntity
  8
IMPORT_IGES
100
AcDbPolyline
 62
7
  6
CONTINUOUS
 90
13
 70
0
 10
-5.8451229706
 20
-18.9081774766
 10
-5.8229162884
 20
-18.8840694484
 10
-5.7987399277
 20
-18.8616152421
 10
-5.7725938887
 20
-18.8408148575
 10
-5.7441114276
 20
-18.821379024
 10
-5.7136592881
 20
-18.8035970123
 10
-5.6823377014
 20
-18.7883366347
 10
-5.6506248595
 20
-18.7759947508
 10
-5.6180425703
 20
-18.766174501
 10
-5.5842564897
 20
-18.7585531191
 10
-5.5491551695
 20
-18.7530230164
 10
-5.5128500578
 20
-18.7496917817
 10
-5.4753411546
 20
-18.7485594149
  0
LWPOLYLINE
  5
3F4
100
AcDbEntity
  8
IMPORT_IGES
100
AcDbPolyline
 62
7
  6
CONTINUOUS
 90
10
 70
0
 10
0.456574763
 20
-14.2164191586
 10
0.4802620204
 20
-14.1907850553
 10
0.5013735898
 20
-14.1633496244
 10
0.5199094714
 20
-14.1341128661
 10
0.5360081979
 20
-14.1028802248
 10
0.5495312365
 20
-14.0698462561
 10
0.5600629889
 20
-14.0355946264
 10
0.5674649222
 20
-14.0003198914
 10
0.5718755693
 20
-13.9638274954
 10
0.5732949302
 20
-13.9261174385
  0
LWPOLYLINE
  5
3F5
100
AcDbEntity
  8
IMPORT_IGES
100
AcDbPolyline
 62
7
  6
CONTINUOUS
 90
10
 70
0
 10
-0.0668224538
 20
-12.8230918186
 10
-0.0865446651
 20
-12.8434237566
 10
-0.1046936694
 20
-12.8660771757
 10
-0.1212694666
 20
-12.8910520759
 10
-0.1363285084
 20
-12.9184540384
 10
-0.1498143432
 20
-12.948177482
 10
-0.1615576163
 20
-12.9799056636
 10
-0.1715018759
 20
-13.0135330018
 10
-0.1797035737
 20
-13.049165078
 10
-0.1861627097
 20
-13.086801892
  0
LWPOLYLINE
  5
3F6
100
AcDbEntity
  8
IMPORT_IGES
100
AcDbPolyline
 62
7
  6
CONTINUOUS
 90
10
 70
0
 10
1.4482185486
 20
-12.8230917032
 10
1.4284963476
 20
-12.8434236344
 10
1.4103473509
 20
-12.8660770518
 10
1.3937715587
 20
-12.8910519552
 10
1.3787125219
 20
-12.9184539258
 10
1.3652266896
 20
-12.9481773825
 10
1.3534834087
 20
-12.9799055818
 10
1.3435391281
 20
-13.0135329426
 10
1.3353373989
 20
-13.049165046
 10
1.3288782211
 20
-13.086801892
  0
LWPOLYLINE
  5
3F7
100
AcDbEntity
  8
IMPORT_IGES
100
AcDbPolyline
 62
7
  6
CONTINUOUS
 90
10
 70
0
 10
-12.5394993279
 20
-19.2343760959
 10
-12.4718474505
 20
-19.1787635682
 10
-12.4454938521
 20
-19.1568991635
 10
-12.4195571505
 20
-19.1351151233
 10
-12.3940324223
 20
-19.1134215894
 10
-12.3689245909
 20
-19.0918084199
 10
-12.3442484265
 20
-19.0702451898
 10
-12.3200088526
 20
-19.0487217575
 10
-12.2962009457
 20
-19.0272482646
 10
-12.2462114078
 20
-18.9812473026
  0
LWPOLYLINE
  5
3F8
100
AcDbEntity
  8
IMPORT_IGES
100
AcDbPolyline
 62
7
  6
CONTINUOUS
 90
10
 70
0
 10
-0.2261252615
 20
-12.6717858075
 10
-0.1919635562
 20
-12.6448330544
 10
-0.1554547013
 20
-12.6208086241
 10
-0.1165986969
 20
-12.5997125166
 10
-0.0752148274
 20
-12.5813913922
 10
-0.0314838085
 20
-12.5659985906
 10
0.0140522133
 20
-12.5539941311
 10
0.0612125224
 20
-12.5455313534
 10
0.1101778344
 20
-12.5404569178
 10
0.1609481492
 20
-12.5387708242
  0
LWPOLYLINE
  5
3F9
100
AcDbEntity
  8
IMPORT_IGES
100
AcDbPolyline
 62
7
  6
CONTINUOUS
 90
10
 70
0
 10
-2.4915797364
 20
-14.4157855352
 10
-2.521009597
 20
-14.4383430441
 10
-2.5530288816
 20
-14.4585606747
 10
-2.5876375902
 20
-14.4764384272
 10
-2.6250015332
 20
-14.4921452621
 10
-2.6649549001
 20
-14.5055122188
 10
-2.70700026
 20
-14.5160324152
 10
-2.7509718025
 20
-14.5235368903
 10
-2.7970353379
 20
-14.5281946051
 10
-2.8451908663
 20
-14.5300055594
  0
LWPOLYLINE
  5
3FA
100
AcDbEntity
  8
IMPORT_IGES
100
AcDbPolyline
 62
7
  6
CONTINUOUS
 90
10
 70
0
 10
-3.1986837457
 20
-12.6535602097
 10
-3.1690699778
 20
-12.6309879698
 10
-3.1369162754
 20
-12.6107360465
 10
-3.1022226387
 20
-12.5928044398
 10
-3.0648235581
 20
-12.5770142839
 10
-3.0248845432
 20
-12.5635444445
 10
-2.9829021219
 20
-12.5529315191
 10
-2.9390418038
 20
-12.5453543735
 10
-2.8931380794
 20
-12.5406341419
 10
-2.8451909488
 20
-12.5387708242
  0
LWPOLYLINE
  5
3FB
100
AcDbEntity
  8
IMPORT_IGES
100
AcDbPolyline
 62
7
  6
CONTINUOUS
 90
10
 70
0
 10
-9.6543455187
 20
-18.0785602165
 10
-9.6247317721
 20
-18.0559879713
 10
-9.5925780857
 20
-18.0357360439
 10
-9.5578844595
 20
-18.0178044345
 10
-9.5204853837
 20
-18.0020142774
 10
-9.4805463681
 20
-17.9885444382
 10
-9.4385639423
 20
-17.9779315136
 10
-9.3947036159
 20
-17.9703543692
 10
-9.3487998793
 20
-17.9656341394
 10
-9.3008527324
 20
-17.9637708242
  0
LWPOLYLINE
  5
3FC
100
AcDbEntity
  8
IMPORT_IGES
100
AcDbPolyline
 62
7
  6
CONTINUOUS
 90
10
 70
0
 10
-1.6836427957
 20
-12.6535601882
 10
-1.6540290419
 20
-12.63098795
 10
-1.621875352
 20
-12.6107360288
 10
-1.5871817261
 20
-12.5928044245
 10
-1.5497826546
 20
-12.5770142716
 10
-1.5098436472
 20
-12.5635444357
 10
-1.4678612319
 20
-12.5529315133
 10
-1.4240009184
 20
-12.54535437
 10
-1.3780971972
 20
-12.5406341403
 10
-1.3301500681
 20
-12.5387708242
  0
LWPOLYLINE
  5
3FD
100
AcDbEntity
  8
IMPORT_IGES
100
AcDbPolyline
 62
7
  6
CONTINUOUS
 90
10
 70
0
 10
-11.1337994948
 20
-18.7512197818
 10
-11.0926050653
 20
-18.7248578354
 10
-11.0513214065
 20
-18.7017328985
 10
-11.0099485182
 20
-18.6818449712
 10
-10.9682823059
 20
-18.6652551158
 10
-10.9265268641
 20
-18.65190227
 10
-10.8852944772
 20
-18.6416032468
 10
-10.8447892399
 20
-18.6342969841
 10
-10.8048070574
 20
-18.630044544
 10
-10.7653479297
 20
-18.6288459266
  0
LINE
  5
3FE
100
AcDbEntity
  8
0
100
AcDbLine
 62
253
  6
CONTINUOUS
 10
14.3623188406
 20
-2.3317232122
 11
15.0141651337
 21
-1.9553795794
  0
LINE
  5
3FF
100
AcDbEntity
  8
0
100
AcDbLine
 62
7
  6
CONTINUOUS
 10
14.4
 20
-2.4271115175
 11
14.949069357
 21
-2.1101061764
  0
LINE
  5
400
100
AcDbEntity
  8
IMPORT_IGES
100
AcDbLine
 62
253
  6
CONTINUOUS
 10
-23.3
 20
9.6532732402
 11
-23.1965656098
 21
9.6532732402
  0
LINE
  5
401
100
AcDbEntity
  8
IMPORT_IGES
100
AcDbLine
 62
253
  6
CONTINUOUS
 10
23.1965656098
 20
9.6532732402
 11
23.3
 21
9.6532732402
  0
LINE
  5
402
100
AcDbEntity
  8
IMPORT_IGES
100
AcDbLine
 62
253
  6
CONTINUOUS
 10
6.7324952097
 20
5.2832884816
 11
6.5854482319
 21
5.3913058519
  0
LWPOLYLINE
  5
403
100
AcDbEntity
  8
0
100
AcDbPolyline
 62
7
  6
CONTINUOUS
 90
8
 70
0
 10
13.5278897982
 20
-4.6770536688
 10
13.5368842864
 20
-4.6880726458
 10
13.5466858169
 20
-4.6992178481
 10
13.5571683446
 20
-4.7103259783
 10
13.567931431
 20
-4.7214625527
 10
13.5788370174
 20
-4.7325524451
 10
13.5900128108
 20
-4.7433482218
 10
13.6014492754
 20
-4.7537058213
  0
LINE
  5
404
100
AcDbEntity
  8
0
100
AcDbLine
 62
7
  6
CONTINUOUS
 10
13.511870526
 20
-4.6567564955
 11
13.5278897982
 21
-4.6770536688
  0
LWPOLYLINE
  5
405
100
AcDbEntity
  8
0
100
AcDbPolyline
 62
7
  6
CONTINUOUS
 90
10
 70
0
 10
13.511870526
 20
-4.6567564955
 10
13.5094739305
 20
-4.6531079131
 10
13.5073219406
 20
-4.6493334194
 10
13.5054260589
 20
-4.6454362758
 10
13.5037959915
 20
-4.6414094999
 10
13.5024439287
 20
-4.6372671996
 10
13.5013819808
 20
-4.6330446398
 10
13.5006174086
 20
-4.6287563472
 10
13.5001550752
 20
-4.6243960238
 10
13.5
 20
-4.6199679265
  0
LWPOLYLINE
  5
406
100
AcDbEntity
  8
0
100
AcDbPolyline
 62
253
  6
CONTINUOUS
 90
13
 70
0
 10
13.652173913
 20
-3.913160906
 10
13.6450657661
 20
-3.900935097
 10
13.6380565786
 20
-3.8886774379
 10
13.6312870433
 20
-3.8766339653
 10
13.6248930519
 20
-3.8650464319
 10
13.6190029614
 20
-3.8541474459
 10
13.6137350186
 20
-3.8441558026
 10
13.6091949841
 20
-3.8352720876
 10
13.6054740337
 20
-3.8276746961
 10
13.6026469065
 20
-3.8215162185
 10
13.6007703759
 20
-3.8169203189
 10
13.599882124
 20
-3.8139792764
 10
13.6000000003
 20
-3.8127521634
  0
LWPOLYLINE
  5
407
100
AcDbEntity
  8
0
100
AcDbPolyline
 62
253
  6
CONTINUOUS
 90
13
 70
0
 10
12.5869565217
 20
-2.5952961612
 10
12.5865500244
 20
-2.5863975262
 10
12.5854127024
 20
-2.5776963146
 10
12.5835373766
 20
-2.5691805494
 10
12.580881883
 20
-2.5607689125
 10
12.5774753155
 20
-2.552524114
 10
12.5734121331
 20
-2.5446580908
 10
12.5686585966
 20
-2.5371970727
 10
12.5632241225
 20
-2.5301198769
 10
12.5572606672
 20
-2.5235787328
 10
12.5508093971
 20
-2.5176336779
 10
12.5438035186
 20
-2.5122488241
 10
12.5362318841
 20
-2.5074385115
  0
LWPOLYLINE
  5
408
100
AcDbEntity
  8
0
100
AcDbPolyline
 62
7
  6
CONTINUOUS
 90
8
 70
0
 10
12.6030928223
 20
-1.4015125363
 10
12.6031595443
 20
-1.4150300407
 10
12.6035222403
 20
-1.4284400921
 10
12.6041688792
 20
-1.4415763506
 10
12.6049159697
 20
-1.4542312864
 10
12.6057691503
 20
-1.4662126558
 10
12.6069055207
 20
-1.477355943
 10
12.6084079401
 20
-1.4874782528
  0
LINE
  5
409
100
AcDbEntity
  8
IMPORT_IGES
100
AcDbLine
 62
7
  6
CONTINUOUS
 10
10.512683
 20
-12.8671249137
 11
10.512683
 21
-12.8905535991
  0
LINE
  5
40A
100
AcDbEntity
  8
IMPORT_IGES
100
AcDbLine
 62
7
  6
CONTINUOUS
 10
10.512683
 20
-12.6342089231
 11
10.512683
 21
-12.801624964
  0
LINE
  5
40B
100
AcDbEntity
  8
IMPORT_IGES
100
AcDbLine
 62
7
  6
CONTINUOUS
 10
10.5767682785
 20
-12.8814712297
 11
10.5767682785
 21
-12.9546353101
  0
LINE
  5
40C
100
AcDbEntity
  8
IMPORT_IGES
100
AcDbLine
 62
7
  6
CONTINUOUS
 10
10.576768228
 20
-12.8156839249
 11
10.576768228
 21
-12.5701220214
  0
LINE
  5
40D
100
AcDbEntity
  8
IMPORT_IGES
100
AcDbLine
 62
7
  6
CONTINUOUS
 10
10.640854016
 20
-14.4926854725
 11
10.640854016
 21
-14.6849439795
  0
LINE
  5
40E
100
AcDbEntity
  8
IMPORT_IGES
100
AcDbLine
 62
7
  6
CONTINUOUS
 10
10.7049405313
 20
-14.7490297703
 11
10.7049405313
 21
-14.4286026506
  0
LINE
  5
40F
100
AcDbEntity
  8
IMPORT_IGES
100
AcDbLine
 62
7
  6
CONTINUOUS
 10
11.1214940339
 20
-13.7236626506
 11
11.1214940339
 21
-14.3846250691
  0
LINE
  5
410
100
AcDbEntity
  8
IMPORT_IGES
100
AcDbLine
 62
7
  6
CONTINUOUS
 10
11.1855802029
 20
-14.3205389001
 11
11.1855802029
 21
-13.7877469503
  0
LINE
  5
411
100
AcDbEntity
  8
IMPORT_IGES
100
AcDbLine
 62
7
  6
CONTINUOUS
 10
11.602135228
 20
-13.3866790759
 11
11.602135228
 21
-13.4673215982
  0
LINE
  5
412
100
AcDbEntity
  8
IMPORT_IGES
100
AcDbLine
 62
7
  6
CONTINUOUS
 10
11.8264341727
 20
-13.8609460871
 11
11.8264341727
 21
-14.3645154628
  0
LINE
  5
413
100
AcDbEntity
  8
IMPORT_IGES
100
AcDbLine
 62
7
  6
CONTINUOUS
 10
11.8905213463
 20
-14.4286026506
 11
11.8905213463
 21
-13.7968626506
  0
LINE
  5
414
100
AcDbEntity
  8
IMPORT_IGES
100
AcDbLine
 62
7
  6
CONTINUOUS
 10
12.5979995355
 20
-21.1692289765
 11
12.5979995355
 21
-20.1692269499
  0
LINE
  5
415
100
AcDbEntity
  8
0
100
AcDbLine
 62
7
  6
CONTINUOUS
 10
12.7
 20
-2.6003165983
 11
12.7
 21
-4.4057669384
  0
LINE
  5
416
100
AcDbEntity
  8
0
100
AcDbLine
 62
253
  6
CONTINUOUS
 10
12.5869565217
 20
-4.5093581594
 11
12.5869361757
 21
-3.1854737702
  0
LINE
  5
417
100
AcDbEntity
  8
0
100
AcDbLine
 62
253
  6
CONTINUOUS
 10
12.5869361757
 20
-3.1854737702
 11
12.5869565217
 21
-2.7106244706
  0
LWPOLYLINE
  5
418
100
AcDbEntity
  8
0
100
AcDbPolyline
 62
253
  6
CONTINUOUS
 90
3
 70
0
 10
12.5869565217
 20
-2.7106244706
 10
12.587040616
 20
-2.671949546
 10
12.5869565217
 20
-2.5952961612
  0
LINE
  5
419
100
AcDbEntity
  8
0
100
AcDbLine
 62
7
  6
CONTINUOUS
 10
12.6032432503
 20
-1.374692213
 11
12.6030928223
 21
-1.4015125363
  0
LWPOLYLINE
  5
41A
100
AcDbEntity
  8
IMPORT_IGES
100
AcDbPolyline
 62
7
  6
CONTINUOUS
 90
61
 70
0
 10
10.640854
 20
-17.7610458086
 10
10.6415633172
 20
-17.7415419652
 10
10.6432496811
 20
-17.7226086524
 10
10.6459130916
 20
-17.7042458704
 10
10.6496176784
 20
-17.6864427306
 10
10.6542993119
 20
-17.6692101215
 10
10.6597656032
 20
-17.6525807084
 10
10.6659844629
 20
-17.6365837908
 10
10.6729879804
 20
-17.6211900692
 10
10.6806800356
 20
-17.6063443114
 10
10.6890523408
 20
-17.5920208979
 10
10.6981131836
 20
-17.5782454481
 10
10.7077913065
 20
-17.5650395877
 10
10.7180777632
 20
-17.5524028361
 10
10.7289815
 20
-17.5403356739
 10
10.7404580985
 20
-17.528861169
 10
10.7525315285
 20
-17.5179560101
 10
10.7651778203
 20
-17.5076435085
 10
10.7782806458
 20
-17.4980166653
 10
10.7918286797
 20
-17.4890907455
 10
10.8058332474
 20
-17.4808504841
 10
10.820211996
 20
-17.4733430872
 10
10.8349837755
 20
-17.4665656161
 10
10.850129736
 20
-17.4605210096
 10
10.8655109752
 20
-17.4552652909
 10
10.8811149072
 20
-17.4508094211
 10
10.8969541179
 20
-17.4471424391
 10
10.912927463
 20
-17.4442874842
 10
10.9290506674
 20
-17.4422487946
 10
10.9453080061
 20
-17.4410221322
 10
10.9615511602
 20
-17.440617922
 10
10.9777650873
 20
-17.4410427326
 10
10.9939648299
 20
-17.4422899954
 10
11.010047196
 20
-17.4443504298
 10
11.0260225661
 20
-17.4472311731
 10
11.0418805599
 20
-17.4509250881
 10
11.0574868443
 20
-17.4554014823
 10
11.0728319531
 20
-17.4606642624
 10
11.0879253526
 20
-17.4667095218
 10
11.1026611084
 20
-17.4734948481
 10
11.1170435516
 20
-17.4810295744
 10
11.1310683511
 20
-17.4893043676
 10
11.1446165795
 20
-17.4982488156
 10
11.1576752614
 20
-17.5078609764
 10
11.1702573723
 20
-17.518142792
 10
11.1822829102
 20
-17.5290296759
 10
11.1937488595
 20
-17.5405173089
 10
11.2046582359
 20
-17.5526100103
 10
11.2149400845
 20
-17.5652561513
 10
11.2245887446
 20
-17.5784384096
 10
11.233609877
 20
-17.5921741075
 10
11.241949509
 20
-17.6064635837
 10
11.2496240703
 20
-17.6212943073
 10
11.2566171312
 20
-17.6366788091
 10
11.2628254307
 20
-17.6526550213
 10
11.2682767227
 20
-17.6692344125
 10
11.2729432531
 20
-17.686405514
 10
11.2766384985
 20
-17.7041718517
 10
11.2793002841
 20
-17.7225346011
 10
11.2809907846
 20
-17.7414925867
 10
11.28171
 20
-17.7610458086
  0
LWPOLYLINE
  5
41B
100
AcDbEntity
  8
IMPORT_IGES
100
AcDbPolyline
 62
7
  6
CONTINUOUS
 90
61
 70
0
 10
11.28171
 20
-17.7610458086
 10
11.281000625
 20
-17.7805506368
 10
11.2793141071
 20
-17.7994848683
 10
11.2766504464
 20
-17.8178485032
 10
11.2729455004
 20
-17.8356524255
 10
11.2682634115
 20
-17.8528857511
 10
11.2627966072
 20
-17.8695158282
 10
11.2565771903
 20
-17.8855133645
 10
11.2495730579
 20
-17.9009076522
 10
11.2418803292
 20
-17.9157539169
 10
11.2335072894
 20
-17.930077774
 10
11.2244456533
 20
-17.9438536079
 10
11.2147666838
 20
-17.9570597976
 10
11.204479322
 20
-17.9696968344
 10
11.1935746268
 20
-17.9817642268
 10
11.1820970374
 20
-17.9932388799
 10
11.1700225862
 20
-18.0041440968
 10
11.1573752408
 20
-18.0144565743
 10
11.1442713424
 20
-18.0240833086
 10
11.1307222114
 20
-18.0330090372
 10
11.1167165275
 20
-18.0412490225
 10
11.1023366705
 20
-18.0487560476
 10
11.0875637978
 20
-18.0555330461
 10
11.0724167521
 20
-18.0615770844
 10
11.0570344419
 20
-18.0668321451
 10
11.0414294407
 20
-18.0712872697
 10
11.025589175
 20
-18.0749534167
 10
11.0096148325
 20
-18.0778074448
 10
10.9934907044
 20
-18.0798451111
 10
10.9772324995
 20
-18.0810706584
 10
10.9609885321
 20
-18.0814736739
 10
10.9447738309
 20
-18.0810475895
 10
10.9285733672
 20
-18.0797989732
 10
10.9124903696
 20
-18.0777371169
 10
10.8965144805
 20
-18.0748548877
 10
10.8806560574
 20
-18.0711594183
 10
10.8650494017
 20
-18.066681399
 10
10.8497039332
 20
-18.061416902
 10
10.8346102322
 20
-18.055369855
 10
10.8198743407
 20
-18.0485827307
 10
10.8054919759
 20
-18.0410462105
 10
10.7914674207
 20
-18.0327696131
 10
10.7779195657
 20
-18.0238233675
 10
10.7648614045
 20
-18.0142094504
 10
10.7522799435
 20
-18.0039258852
 10
10.7402550922
 20
-17.9930371708
 10
10.728789844
 20
-17.9815476548
 10
10.7178812055
 20
-17.9694529896
 10
10.7076001064
 20
-17.9568046314
 10
10.6979520687
 20
-17.9436195906
 10
10.6889315703
 20
-17.9298808569
 10
10.6805929748
 20
-17.9155888561
 10
10.6729199662
 20
-17.9007560541
 10
10.6659288606
 20
-17.885369985
 10
10.6597229694
 20
-17.8693936764
 10
10.6542748685
 20
-17.8528155839
 10
10.6496119821
 20
-17.835647252
 10
10.6459198936
 20
-17.8178863424
 10
10.6432604644
 20
-17.7995320756
 10
10.6415718332
 20
-17.780585231
 10
10.640854
 20
-17.7610458086
  0
LWPOLYLINE
  5
41C
100
AcDbEntity
  8
0
100
AcDbPolyline
 62
7
  6
CONTINUOUS
 90
10
 70
0
 10
12.7
 20
-4.4057669384
 10
12.6997202355
 20
-4.4120000552
 10
12.6990063673
 20
-4.4178725222
 10
12.6978516237
 20
-4.4233841279
 10
12.6962236265
 20
-4.4285466478
 10
12.6941426009
 20
-4.4333465129
 10
12.6916814134
 20
-4.4377456939
 10
12.6888613417
 20
-4.4417311458
 10
12.6856520353
 20
-4.4453139043
 10
12.6820497524
 20
-4.448492387
  0
LWPOLYLINE
  5
41D
100
AcDbEntity
  8
IMPORT_IGES
100
AcDbPolyline
 62
7
  6
CONTINUOUS
 90
70
 70
0
 10
11.5220303335
 20
-17.7610466502
 10
11.5205917182
 20
-17.7879580962
 10
11.518421286
 20
-17.8142527532
 10
11.5155190369
 20
-17.8399306211
 10
11.512019891
 20
-17.8649898813
 10
11.5077889282
 20
-17.8894323524
 10
11.5024213885
 20
-17.9132634908
 10
11.4957547457
 20
-17.936429918
 10
11.487951526
 20
-17.9589850123
 10
11.479094548
 20
-17.9810943649
 10
11.4692027822
 20
-18.0027838779
 10
11.4582572581
 20
-18.0240276492
 10
11.4462838833
 20
-18.0449135626
 10
11.4333055415
 20
-18.0654768563
 10
11.419299349
 20
-18.0856822921
 10
11.4042225623
 20
-18.1055120398
 10
11.3879647245
 20
-18.1250853248
 10
11.3706362925
 20
-18.1442829217
 10
11.352525893
 20
-18.1627293235
 10
11.3335903768
 20
-18.1804166452
 10
11.3138728932
 20
-18.1973527717
 10
11.293791516
 20
-18.213185851
 10
11.2734859421
 20
-18.2277905332
 10
11.2528164746
 20
-18.2412921681
 10
11.2317820976
 20
-18.2537149532
 10
11.2104243317
 20
-18.2650504007
 10
11.1887016562
 20
-18.2753069983
 10
11.1664884932
 20
-18.284534407
 10
11.1437438926
 20
-18.2927430251
 10
11.1205088044
 20
-18.2999224543
 10
11.0967805012
 20
-18.3060911606
 10
11.0725167495
 20
-18.3112671949
 10
11.0477597828
 20
-18.3154325063
 10
11.0226335735
 20
-18.3185514091
 10
10.9970160865
 20
-18.3206257453
 10
10.9710293569
 20
-18.3216536729
 10
10.9451634628
 20
-18.3215939798
 10
10.919448943
 20
-18.3204186335
 10
10.8938552587
 20
-18.3181556665
 10
10.8687808718
 20
-18.3148479649
 10
10.8443833373
 20
-18.3105131628
 10
10.8205051001
 20
-18.3051336259
 10
10.7970719572
 20
-18.2986993377
 10
10.7741018377
 20
-18.2912225436
 10
10.7515768124
 20
-18.2826909981
 10
10.7293688908
 20
-18.2730579472
 10
10.707414168
 20
-18.2622916543
 10
10.6857765489
 20
-18.250423856
 10
10.6645197572
 20
-18.2375030079
 10
10.6436046047
 20
-18.2235073942
 10
10.6230702797
 20
-18.2084587306
 10
10.6030980709
 20
-18.1924706201
 10
10.5836234694
 20
-18.1754750228
 10
10.564710984
 20
-18.1575399785
 10
10.5467354306
 20
-18.1389832106
 10
10.5297778738
 20
-18.119859328
 10
10.5137572489
 20
-18.1001137217
 10
10.498805178
 20
-18.0799002875
 10
10.4849744753
 20
-18.0592864014
 10
10.4722123267
 20
-18.0382046875
 10
10.4604919123
 20
-18.0166069135
 10
10.4498187706
 20
-17.9945334243
 10
10.440187363
 20
-17.9719438749
 10
10.4315542538
 20
-17.9486689984
 10
10.4238747002
 20
-17.9246968421
 10
10.4171934449
 20
-17.9000393586
 10
10.41160128
 20
-17.8745631386
 10
10.4071284698
 20
-17.8482237124
 10
10.4037447501
 20
-17.8210655498
 10
10.4014501208
 20
-17.7930886506
  0
LINE
  5
41E
100
AcDbEntity
  8
IMPORT_IGES
100
AcDbLine
 62
7
  6
CONTINUOUS
 10
11.2522616982
 20
-14.4351185615
 11
11.0653545707
 21
-16.5714756901
  0
LINE
  5
41F
100
AcDbEntity
  8
IMPORT_IGES
100
AcDbLine
 62
7
  6
CONTINUOUS
 10
11.2696404472
 20
-14.2364786558
 11
11.3088994049
 21
-13.7877469503
  0
LINE
  5
420
100
AcDbEntity
  8
IMPORT_IGES
100
AcDbLine
 62
7
  6
CONTINUOUS
 10
11.3145060575
 20
-13.7236626506
 11
11.3369330053
 21
-13.4673215982
  0
LINE
  5
421
100
AcDbEntity
  8
IMPORT_IGES
100
AcDbLine
 62
7
  6
CONTINUOUS
 10
11.1099280659
 20
-16.7973112789
 11
11.073676109
 21
-17.211677786
  0
LINE
  5
422
100
AcDbEntity
  8
IMPORT_IGES
100
AcDbLine
 62
7
  6
CONTINUOUS
 10
11.3171631208
 20
-14.4286026506
 11
11.1245101208
 21
-16.6306326506
  0
LINE
  5
423
100
AcDbEntity
  8
IMPORT_IGES
100
AcDbLine
 62
7
  6
CONTINUOUS
 10
11.4012642075
 20
-13.4673215982
 11
11.3788371644
 21
-13.7236626506
  0
LINE
  5
424
100
AcDbEntity
  8
IMPORT_IGES
100
AcDbLine
 62
7
  6
CONTINUOUS
 10
11.3732304879
 20
-13.7877469503
 11
11.3401392378
 21
-14.1659798652
  0
LINE
  5
425
100
AcDbEntity
  8
IMPORT_IGES
100
AcDbLine
 62
7
  6
CONTINUOUS
 10
11.0100578208
 20
-17.2024241048
 11
11.0507733061
 21
-16.7381546642
  0
LWPOLYLINE
  5
426
100
AcDbEntity
  8
IMPORT_IGES
100
AcDbPolyline
 62
7
  6
CONTINUOUS
 90
37
 70
0
 10
10.4014615252
 20
-17.7293272712
 10
10.404144729
 20
-17.7021251716
 10
10.4077247012
 20
-17.6756911134
 10
10.4122014418
 20
-17.6500250968
 10
10.4175368372
 20
-17.6251357581
 10
10.423769001
 20
-17.601014461
 10
10.4310122738
 20
-17.5776352961
 10
10.439374451
 20
-17.5550614235
 10
10.4487477372
 20
-17.5332296831
 10
10.458923086
 20
-17.5119246851
 10
10.469810718
 20
-17.4910895359
 10
10.4815004126
 20
-17.4707811291
 10
10.4940524618
 20
-17.4509547557
 10
10.5074791675
 20
-17.4315679465
 10
10.5217682279
 20
-17.4126631707
 10
10.53694303
 20
-17.3943231266
 10
10.5530733845
 20
-17.3765132198
 10
10.5700894806
 20
-17.3592680448
 10
10.5878052739
 20
-17.342774083
 10
10.6061915243
 20
-17.3270597027
 10
10.6252774717
 20
-17.3120965358
 10
10.6449647919
 20
-17.2979859594
 10
10.6652530005
 20
-17.2847319659
 10
10.6861425819
 20
-17.272330563
 10
10.7075366636
 20
-17.2608711513
 10
10.7293854302
 20
-17.2503753899
 10
10.7517386972
 20
-17.2408216197
 10
10.7746490398
 20
-17.2322342643
 10
10.7981025784
 20
-17.2246014857
 10
10.8221131925
 20
-17.2179351219
 10
10.8467750957
 20
-17.2122951102
 10
10.8720661439
 20
-17.2076164002
 10
10.8980084812
 20
-17.2039640422
 10
10.924762753
 20
-17.2015931249
 10
10.9523825078
 20
-17.2005886776
 10
10.980814197
 20
-17.2008656709
 10
11.0100578208
 20
-17.2024241048
  0
LWPOLYLINE
  5
427
100
AcDbEntity
  8
0
100
AcDbPolyline
 62
253
  6
CONTINUOUS
 90
13
 70
0
 10
12.5362318841
 20
-2.5074385115
 10
12.5429124349
 20
-2.4960724206
 10
12.5497165008
 20
-2.4850137708
 10
12.5565255073
 20
-2.4744552814
 10
12.5632207936
 20
-2.4645809555
 10
12.569685681
 20
-2.4555628729
 10
12.5758075056
 20
-2.4475581921
 10
12.5814795825
 20
-2.4407064106
 10
12.5866030641
 20
-2.4351269345
 10
12.5910886635
 20
-2.4309169974
 10
12.5948582099
 20
-2.4281499658
 10
12.5978460116
 20
-2.4268740608
 10
12.6
 20
-2.4271115175
  0
LWPOLYLINE
  5
428
100
AcDbEntity
  8
IMPORT_IGES
100
AcDbPolyline
 62
7
  6
CONTINUOUS
 90
25
 70
0
 10
3.5465211973
 20
-14.1735254614
 10
3.5561167215
 20
-14.1591505414
 10
3.5652404615
 20
-14.1436753538
 10
3.5738924173
 20
-14.1270998985
 10
3.5820721902
 20
-14.1094040403
 10
3.5897801788
 20
-14.0906079145
 10
3.5970175792
 20
-14.0707719273
 10
3.6037494618
 20
-14.0498996966
 10
3.6100107562
 20
-14.0279876044
 10
3.6159074472
 20
-14.005085203
 10
3.621476351
 20
-13.981220995
 10
3.6266806513
 20
-13.9563664778
 10
3.6315158843
 20
-13.9304856959
 10
3.6359824857
 20
-13.9035853253
 10
3.6400800199
 20
-13.87565869
 10
3.643802716
 20
-13.8466498065
 10
3.6471597755
 20
-13.8165555802
 10
3.6501419969
 20
-13.7853791057
 10
3.6527160048
 20
-13.7530736832
 10
3.6548683359
 20
-13.7196380582
 10
3.6566124535
 20
-13.6850734851
 10
3.6579553716
 20
-13.6493370282
 10
3.6588994281
 20
-13.6124143753
 10
3.6594422851
 20
-13.5743198385
 10
3.6595839426
 20
-13.5350534177
  0
LWPOLYLINE
  5
429
100
AcDbEntity
  8
IMPORT_IGES
100
AcDbPolyline
 62
7
  6
CONTINUOUS
 90
10
 70
0
 10
1.9716158759
 20
-14.2164191587
 10
1.9953029743
 20
-14.1907852464
 10
2.0164144179
 20
-14.1633499612
 10
2.0349502068
 20
-14.134113303
 10
2.051048882
 20
-14.1028807192
 10
2.0645719025
 20
-14.0698467624
 10
2.0751036447
 20
-14.0355950902
 10
2.0825055674
 20
-14.0003202551
 10
2.0869162119
 20
-13.9638277045
 10
2.0883355781
 20
-13.9261174385
  0
LINE
  5
42A
100
AcDbEntity
  8
IMPORT_IGES
100
AcDbLine
 62
253
  6
CONTINUOUS
 10
-19.3812334135
 20
-37.8966451852
 11
-19.6620813554
 21
-38.1833794035
  0
LWPOLYLINE
  5
42B
100
AcDbEntity
  8
IMPORT_IGES
100
AcDbPolyline
 62
7
  6
CONTINUOUS
 90
10
 70
0
 10
-4.4843791768
 20
-19.0265608395
 10
-4.5038455994
 20
-19.0441166666
 10
-4.5232666028
 20
-19.0604972866
 10
-4.5426421871
 20
-19.0757026993
 10
-4.5619961575
 20
-19.0897318601
 10
-4.5813047089
 20
-19.1025858137
 10
-4.600496425
 20
-19.1142676947
 10
-4.6195475006
 20
-19.1247785481
 10
-4.6384817409
 20
-19.1341173289
 10
-4.6572991461
 20
-19.1422840371
  0
LWPOLYLINE
  5
42C
100
AcDbEntity
  8
IMPORT_IGES
100
AcDbPolyline
 62
7
  6
CONTINUOUS
 90
10
 70
0
 10
0.6408156336
 20
-14.3540940751
 10
0.6062764143
 20
-14.3849907351
 10
0.5695061106
 20
-14.4130855794
 10
0.5305047225
 20
-14.438378608
 10
0.489122262
 20
-14.4610171052
 10
0.4455087171
 20
-14.4808537867
 10
0.4001140521
 20
-14.4974468
 10
0.3530882549
 20
-14.5106488607
 10
0.3042813376
 20
-14.5206072532
 10
0.2536933001
 20
-14.5273219774
  0
LWPOLYLINE
  5
42D
100
AcDbEntity
  8
IMPORT_IGES
100
AcDbPolyline
 62
7
  6
CONTINUOUS
 90
10
 70
0
 10
2.1558567754
 20
-14.3540940476
 10
2.1213176627
 20
-14.3849906209
 10
2.0845474793
 20
-14.4130853955
 10
2.0455462251
 20
-14.4383783714
 10
2.0041639139
 20
-14.4610168313
 10
1.9605505319
 20
-14.4808534924
 10
1.9151560379
 20
-14.4974465069
 10
1.8681304183
 20
-14.510648592
 10
1.8193236868
 20
-14.5206070303
 10
1.7687358434
 20
-14.527321822
  0
LWPOLYLINE
  5
42E
100
AcDbEntity
  8
IMPORT_IGES
100
AcDbPolyline
 62
7
  6
CONTINUOUS
 90
10
 70
0
 10
3.6236699082
 20
-14.4156127091
 10
3.6538197118
 20
-14.388721846
 10
3.6823220048
 20
-14.3594501379
 10
3.7091767872
 20
-14.3277975848
 10
3.7344263675
 20
-14.2937033567
 10
3.7580284372
 20
-14.2572282835
 10
3.7798560708
 20
-14.2185548558
 10
3.7998669597
 20
-14.1777439038
 10
3.8181034125
 20
-14.1347345973
 10
3.8345654291
 20
-14.0895269363
  0
LWPOLYLINE
  5
42F
100
AcDbEntity
  8
IMPORT_IGES
100
AcDbPolyline
 62
7
  6
CONTINUOUS
 90
10
 70
0
 10
2.9163571872
 20
-12.6535602023
 10
2.8861060955
 20
-12.6803509365
 10
2.8575102767
 20
-12.709529889
 10
2.8305697307
 20
-12.7410970597
 10
2.8052530106
 20
-12.7751117862
 10
2.7815915633
 20
-12.8115147309
 10
2.7596797298
 20
-12.8501278809
 10
2.7395489571
 20
-12.8908918985
 10
2.7211677982
 20
-12.9338661214
 10
2.7045362531
 20
-12.9790505496
  0
LWPOLYLINE
  5
430
100
AcDbEntity
  8
IMPORT_IGES
100
AcDbPolyline
 62
7
  6
CONTINUOUS
 90
10
 70
0
 10
1.2889155704
 20
-12.6717857502
 10
1.3230771796
 20
-12.644833056
 10
1.3595859697
 20
-12.6208086685
 10
1.3984419407
 20
-12.5997125879
 10
1.4398258074
 20
-12.5813914704
 10
1.483556855
 20
-12.5659986598
 10
1.5290929387
 20
-12.5539941868
 10
1.5762533437
 20
-12.545531395
 10
1.6252187848
 20
-12.5404569408
 10
1.6759892621
 20
-12.5387708242
  0
LWPOLYLINE
  5
431
100
AcDbEntity
  8
IMPORT_IGES
100
AcDbPolyline
 62
7
  6
CONTINUOUS
 90
10
 70
0
 10
-8.9470328118
 20
-19.8406127835
 10
-8.9764696711
 20
-19.863201671
 10
-9.0085003376
 20
-19.8834480505
 10
-9.0431248115
 20
-19.9013519221
 10
-9.0805093472
 20
-19.9170828016
 10
-9.1204876902
 20
-19.9304711731
 10
-9.1625610771
 20
-19.9410084894
 10
-9.2065632535
 20
-19.9485252347
 10
-9.2526604737
 20
-19.9531909247
 10
-9.3008527379
 20
-19.9550055594
  0
LWPOLYLINE
  5
432
100
AcDbEntity
  8
IMPORT_IGES
100
AcDbPolyline
 62
7
  6
CONTINUOUS
 90
10
 70
0
 10
-0.9765388323
 20
-14.4157855637
 10
-1.005968702
 20
-14.4383430664
 10
-1.037987994
 20
-14.4585606917
 10
-1.0725967083
 20
-14.4764384395
 10
-1.1099606551
 20
-14.4921452705
 10
-1.1499140241
 20
-14.505512224
 10
-1.1919593848
 20
-14.5160324179
 10
-1.2359309268
 20
-14.5235368914
 10
-1.2819944605
 20
-14.5281946052
 10
-1.3301499858
 20
-14.5300055594
  0
LWPOLYLINE
  5
433
100
AcDbEntity
  8
IMPORT_IGES
100
AcDbPolyline
 62
7
  6
CONTINUOUS
 90
13
 70
0
 10
0.3629339056
 20
-13.2860110115
 10
0.3810841944
 20
-13.2733282582
 10
0.3979773104
 20
-13.2592182047
 10
0.4136132538
 20
-13.2436808509
 10
0.4281288207
 20
-13.2267248578
 10
0.4413872148
 20
-13.2083415644
 10
0.4529780477
 20
-13.1885049884
 10
0.4628081778
 20
-13.1671574759
 10
0.4709707467
 20
-13.1443566808
 10
0.4773347896
 20
-13.1202495819
 10
0.4818566518
 20
-13.0948851724
 10
0.4845799881
 20
-13.0682144593
 10
0.4855047986
 20
-13.0402374425
  0
LWPOLYLINE
  5
434
100
AcDbEntity
  8
IMPORT_IGES
100
AcDbPolyline
 62
7
  6
CONTINUOUS
 90
13
 70
0
 10
1.877974949
 20
-13.2860109047
 10
1.8961252009
 20
-13.2733281477
 10
1.9130182914
 20
-13.2592180897
 10
1.9286542206
 20
-13.2436807308
 10
1.9431697867
 20
-13.2267247294
 10
1.9564281914
 20
-13.2083414271
 10
1.9680190398
 20
-13.1885048481
 10
1.9778491909
 20
-13.1671573402
 10
1.9860117856
 20
-13.1443565556
 10
1.9923758522
 20
-13.1202494754
 10
1.9968977334
 20
-13.0948850933
 10
1.9996210865
 20
-13.0682144157
 10
2.0005459115
 20
-13.0402374424
  0
LWPOLYLINE
  5
435
100
AcDbEntity
  8
0
100
AcDbPolyline
 62
253
  6
CONTINUOUS
 90
13
 70
0
 10
13.652173913
 20
-3.913160906
 10
13.644670703
 20
-3.9179622739
 10
13.6377038831
 20
-3.9232978399
 10
13.631266671
 20
-3.9291798098
 10
13.6253097263
 20
-3.9356853579
 10
13.6198728097
 20
-3.9427579334
 10
13.6150922303
 20
-3.9502097635
 10
13.6110075727
 20
-3.9580569511
 10
13.6075957849
 20
-3.9663019341
 10
13.6049127208
 20
-3.9747370025
 10
13.6029897902
 20
-3.9832964876
 10
13.6018293109
 20
-3.9920561772
 10
13.6014492754
 20
-4.0010185557
  0
LWPOLYLINE
  5
436
100
AcDbEntity
  8
IMPORT_IGES
100
AcDbPolyline
 62
7
  6
CONTINUOUS
 90
10
 70
0
 10
-11.038187733
 20
-18.8932628508
 10
-11.0595467175
 20
-18.9060762837
 10
-11.0796345029
 20
-18.9195253731
 10
-11.0984510891
 20
-18.9336101191
 10
-11.1160079663
 20
-18.9484137177
 10
-11.1322936444
 20
-18.9638529729
 10
-11.1472736526
 20
-18.9796782965
 10
-11.1609365007
 20
-18.9958064926
 10
-11.1732936789
 20
-19.0123207572
 10
-11.1843451872
 20
-19.0292210902
  0
LWPOLYLINE
  5
437
100
AcDbEntity
  8
0
100
AcDbPolyline
 62
7
  6
CONTINUOUS
 90
8
 70
0
 10
12.610258817
 20
-4.4960782723
 10
12.6219319583
 20
-4.4892617371
 10
12.6333640554
 20
-4.4822426075
 10
12.6444170695
 20
-4.4751144725
 10
12.6550030202
 20
-4.4681400053
 10
12.6649526002
 20
-4.4614104445
 10
12.6740347847
 20
-4.4548546753
 10
12.6820497524
 20
-4.448492387
  0
LINE
  5
438
100
AcDbEntity
  8
0
100
AcDbLine
 62
7
  6
CONTINUOUS
 10
15.2089144185
 20
-2.883844991
 11
13.6
 21
-3.8127521636
  0
LINE
  5
439
100
AcDbEntity
  8
0
100
AcDbLine
 62
253
  6
CONTINUOUS
 10
15.2384001476
 20
-2.9973527625
 11
13.7958702949
 21
-3.8301977613
  0
LINE
  5
43A
100
AcDbEntity
  8
0
100
AcDbLine
 62
253
  6
CONTINUOUS
 10
13.7958702949
 20
-3.8301977613
 11
13.652173913
 21
-3.913160906
  0
LINE
  5
43B
100
AcDbEntity
  8
0
100
AcDbLine
 62
7
  6
CONTINUOUS
 10
12.5869565217
 20
-4.5093581594
 11
12.610258817
 21
-4.4960782723
  0
LWPOLYLINE
  5
43C
100
AcDbEntity
  8
0
100
AcDbPolyline
 62
253
  6
CONTINUOUS
 90
13
 70
0
 10
14.3623188406
 20
-2.3317232122
 10
14.3688218887
 20
-2.3431917844
 10
14.3749969273
 20
-2.3546136032
 10
14.3807363441
 20
-2.3657896204
 10
14.385940118
 20
-2.3765250715
 10
14.3905175629
 20
-2.3866328695
 10
14.3943889076
 20
-2.3959368655
 10
14.397486686
 20
-2.4042749189
 10
14.3997569132
 20
-2.4115017222
 10
14.401160026
 20
-2.4174913338
 10
14.4016715724
 20
-2.4221393725
 10
14.4012826378
 20
-2.4253648372
 10
14.4
 20
-2.4271115175
  0
LWPOLYLINE
  5
43D
100
AcDbEntity
  8
0
100
AcDbPolyline
 62
253
  6
CONTINUOUS
 90
16
 70
0
 10
15.2384001476
 20
-2.9973527625
 10
15.232901885
 20
-2.9874715172
 10
15.2271550546
 20
-2.9777079609
 10
15.221233526
 20
-2.9681875988
 10
15.2152134199
 20
-2.9590328188
 10
15.2091721166
 20
-2.9503612972
 10
15.203187261
 20
-2.9422844902
 10
15.1973357826
 20
-2.9349062261
 10
15.1916929096
 20
-2.9283213709
 10
15.1863311879
 20
-2.9226145895
 10
15.1813195429
 20
-2.9178592517
 10
15.1767224109
 20
-2.9141165079
 10
15.1725989094
 20
-2.9114344945
 10
15.1690020531
 20
-2.9098476946
 10
15.1659780778
 20
-2.9093765072
 10
15.1635658598
 20
-2.9100269935
  0
LWPOLYLINE
  5
43E
100
AcDbEntity
  8
0
100
AcDbPolyline
 62
253
  6
CONTINUOUS
 90
10
 70
0
 10
15.3086006748
 20
-2.8801769032
 10
15.3086440659
 20
-2.8872751861
 10
15.3081807309
 20
-2.8944768682
 10
15.3072094055
 20
-2.9017760319
 10
15.3057409134
 20
-2.9091865538
 10
15.3037617523
 20
-2.916682313
 10
15.3012349158
 20
-2.924196932
 10
15.2981480779
 20
-2.9317037177
 10
15.2945127765
 20
-2.9392159202
 10
15.2903285716
 20
-2.9467267598
  0
LINE
  5
43F
100
AcDbEntity
  8
0
100
AcDbLine
 62
7
  6
CONTINUOUS
 10
13.5
 20
-3.9859572443
 11
13.5
 21
-4.6199679265
  0
LINE
  5
440
100
AcDbEntity
  8
0
100
AcDbLine
 62
253
  6
CONTINUOUS
 10
13.6014492754
 20
-4.0010185557
 11
13.6014492754
 21
-4.7537058213
  0
LWPOLYLINE
  5
441
100
AcDbEntity
  8
0
100
AcDbPolyline
 62
7
  6
CONTINUOUS
 90
8
 70
0
 10
14.9845621853
 20
-2.0574099571
 10
14.9896076649
 20
-2.0441109886
 10
14.9943589316
 20
-2.0300499991
 10
14.998737588
 20
-2.0154177966
 10
15.0030005952
 20
-2.0005284134
 10
15.0071519224
 20
-1.9855389751
 10
15.0109134325
 20
-1.970462601
 10
15.0141651337
 20
-1.9553795794
  0
LINE
  5
442
100
AcDbEntity
  8
0
100
AcDbLine
 62
7
  6
CONTINUOUS
 10
14.9749939294
 20
-2.0814317148
 11
14.9845621853
 21
-2.0574099571
  0
LWPOLYLINE
  5
443
100
AcDbEntity
  8
0
100
AcDbPolyline
 62
7
  6
CONTINUOUS
 90
10
 70
0
 10
14.9749939294
 20
-2.0814317148
 10
14.973032462
 20
-2.0853315186
 10
14.9708396496
 20
-2.0890824434
 10
14.9684125651
 20
-2.092672897
 10
14.9657403085
 20
-2.0960979647
 10
14.9628290026
 20
-2.0993400356
 10
14.9597031325
 20
-2.1023709893
 10
14.9563716483
 20
-2.1051772745
 10
14.9528266642
 20
-2.1077578287
 10
14.949069357
 20
-2.1101061764
  0
LWPOLYLINE
  5
444
100
AcDbEntity
  8
0
100
AcDbPolyline
 62
253
  6
CONTINUOUS
 90
13
 70
0
 10
14.2608695652
 20
-2.3317232122
 10
14.2538357782
 20
-2.3439919512
 10
14.2467249285
 20
-2.3561909141
 10
14.2396797432
 20
-2.3680752392
 10
14.2328416409
 20
-2.3794063646
 10
14.2263478874
 20
-2.3899568256
 10
14.2203288418
 20
-2.3995148199
 10
14.2149053358
 20
-2.4078884631
 10
14.2101862766
 20
-2.4149095972
 10
14.2062664417
 20
-2.4204372006
 10
14.2032245408
 20
-2.4243602743
 10
14.201121649
 20
-2.4266000446
 10
14.1999999997
 20
-2.4271115173
  0
LWPOLYLINE
  5
445
100
AcDbEntity
  8
0
100
AcDbPolyline
 62
253
  6
CONTINUOUS
 90
10
 70
0
 10
15.2903285716
 20
-2.9467267598
 10
15.2860436841
 20
-2.9533937487
 10
15.2813567003
 20
-2.9598352363
 10
15.2762696919
 20
-2.9660485218
 10
15.2707502389
 20
-2.9720718435
 10
15.2648344076
 20
-2.9778618272
 10
15.2586281468
 20
-2.9832959793
 10
15.2521691995
 20
-2.9883349753
 10
15.2454257018
 20
-2.9930201631
 10
15.2384001476
 20
-2.9973527625
  0
LINE
  5
446
100
AcDbEntity
  8
IMPORT_IGES
100
AcDbLine
 62
253
  6
CONTINUOUS
 10
-18.4374234218
 20
-39.3912494594
 11
-18.1530328948
 21
-39.1064769652
  0
LINE
  5
447
100
AcDbEntity
  8
IMPORT_IGES
100
AcDbLine
 62
7
  6
CONTINUOUS
 10
7.0255232264
 20
-12.7129064702
 11
7.1161541839
 21
-12.6222765982
  0
LWPOLYLINE
  5
448
100
AcDbEntity
  8
IMPORT_IGES
100
AcDbPolyline
 62
7
  6
CONTINUOUS
 90
10
 70
0
 10
-4.6493176614
 20
-18.8749235233
 10
-4.627249584
 20
-18.8619145753
 10
-4.6061115411
 20
-18.848501161
 10
-4.5859035329
 20
-18.8346832802
 10
-4.5666184125
 20
-18.8204133129
 10
-4.5482633267
 20
-18.8057388792
 10
-4.5308597161
 20
-18.7908028395
 10
-4.5144147278
 20
-18.775652814
 10
-4.4989212146
 20
-18.7602411825
 10
-4.4843791768
 20
-18.744567945
  0
LWPOLYLINE
  5
449
100
AcDbEntity
  8
IMPORT_IGES
100
AcDbPolyline
 62
7
  6
CONTINUOUS
 90
10
 70
0
 10
-5.6589016599
 20
-19.0372019995
 10
-5.6790236127
 20
-19.047908104
 10
-5.6992445971
 20
-19.0600013587
 10
-5.7195646132
 20
-19.0734817634
 10
-5.7399259352
 20
-19.0884469233
 10
-5.7603862889
 20
-19.1047992334
 10
-5.7811188516
 20
-19.1222458781
 10
-5.8021813489
 20
-19.1406892523
 10
-5.8235160553
 20
-19.1602269613
 10
-5.8451229706
 20
-19.180859005
  0
LWPOLYLINE
  5
44A
100
AcDbEntity
  8
IMPORT_IGES
100
AcDbPolyline
 62
7
  6
CONTINUOUS
 90
10
 70
0
 10
-4.6572991461
 20
-19.1422840371
 10
-4.6762147068
 20
-19.1495725958
 10
-4.6958581786
 20
-19.1560600555
 10
-4.7162295616
 20
-19.161746416
 10
-4.7373626752
 20
-19.1666629212
 10
-4.7592237
 20
-19.1707783272
 10
-4.7817111774
 20
-19.1739989029
 10
-4.8047912878
 20
-19.1762934046
 10
-4.8284978508
 20
-19.1776930759
 10
-4.8528308664
 20
-19.1781979169
  0
LINE
  5
44B
100
AcDbEntity
  8
IMPORT_IGES
100
AcDbLine
 62
7
  6
CONTINUOUS
 10
8.5302107273
 20
-12.9889451641
 11
8.7182913212
 21
-12.9171364683
  0
LINE
  5
44C
100
AcDbEntity
  8
IMPORT_IGES
100
AcDbLine
 62
253
  6
CONTINUOUS
 10
-23.2934535197
 20
39.1392187491
 11
-22.9529749003
 21
38.845237858
  0
LWPOLYLINE
  5
44D
100
AcDbEntity
  8
IMPORT_IGES
100
AcDbPolyline
 62
7
  6
CONTINUOUS
 90
64
 70
0
 10
11.1841317272
 20
-13.0176214124
 10
11.1948877604
 20
-13.002652488
 10
11.2057062029
 20
-12.9883558974
 10
11.2165870547
 20
-12.9747316406
 10
11.2274601892
 20
-12.9617463004
 10
11.2383957331
 20
-12.9494332942
 10
11.249604066
 20
-12.9378928734
 10
11.2611322551
 20
-12.9271591704
 10
11.2729332333
 20
-12.9171980529
 10
11.2850761797
 20
-12.908007376
 10
11.2976005433
 20
-12.8995744984
 10
11.3104668751
 20
-12.8919120615
 10
11.3236260076
 20
-12.8850558439
 10
11.3370821015
 20
-12.8790406928
 10
11.3508309961
 20
-12.873831761
 10
11.3648110418
 20
-12.8693602865
 10
11.3790669076
 20
-12.8656061065
 10
11.3935539245
 20
-12.8625893837
 10
11.4080764359
 20
-12.8603018439
 10
11.4226094563
 20
-12.8587404609
 10
11.4371779712
 20
-12.8579082608
 10
11.4516612812
 20
-12.8578060487
 10
11.4660452159
 20
-12.8584274078
 10
11.4803439457
 20
-12.8597787548
 10
11.4944792822
 20
-12.8618801443
 10
11.5084305746
 20
-12.864732452
 10
11.5222184737
 20
-12.8683348021
 10
11.5358267433
 20
-12.8727046223
 10
11.5492519926
 20
-12.8778495304
 10
11.5624976124
 20
-12.8837619085
 10
11.5755575394
 20
-12.8904363303
 10
11.5884649442
 20
-12.8978836828
 10
11.6011866561
 20
-12.906093079
 10
11.6136171011
 20
-12.915026431
 10
11.6258327829
 20
-12.9247622806
 10
11.6377571977
 20
-12.935222086
 10
11.6490552595
 20
-12.9461321335
 10
11.6596618099
 20
-12.9574659627
 10
11.6696420073
 20
-12.9692500341
 10
11.678856242
 20
-12.9812900156
 10
11.6872524876
 20
-12.9935189851
 10
11.6948827704
 20
-13.0060038647
 10
11.70176356
 20
-13.0187510891
 10
11.7078938248
 20
-13.0317578841
 10
11.7132745963
 20
-13.045027024
 10
11.7179254377
 20
-13.0585732663
 10
11.7218525932
 20
-13.0724609992
 10
11.7250498186
 20
-13.0866258345
 10
11.7275179448
 20
-13.1008893655
 10
11.7292513156
 20
-13.1152301465
 10
11.7302555872
 20
-13.1296696231
 10
11.7305485583
 20
-13.1440937255
 10
11.7301452508
 20
-13.1584998109
 10
11.7290306428
 20
-13.172890522
 10
11.7271774685
 20
-13.187159717
 10
11.7245959067
 20
-13.2012793603
 10
11.7212757786
 20
-13.2152774875
 10
11.7171592811
 20
-13.229132064
 10
11.7122262303
 20
-13.2428279419
 10
11.7064968101
 20
-13.2563802691
 10
11.6999737699
 20
-13.2698124548
 10
11.6926973436
 20
-13.2831273237
 10
11.6846272971
 20
-13.2963220511
 10
11.6756456778
 20
-13.309411572
  0
LWPOLYLINE
  5
44E
100
AcDbEntity
  8
IMPORT_IGES
100
AcDbPolyline
 62
7
  6
CONTINUOUS
 90
7
 70
0
 10
11.6756456778
 20
-13.309411572
 10
11.6657221236
 20
-13.3223671668
 10
11.6548869965
 20
-13.3352175553
 10
11.64311343
 20
-13.348063831
 10
11.6303924687
 20
-13.360939692
 10
11.6167330681
 20
-13.3738114403
 10
11.602135228
 20
-13.3866790759
  0
LINE
  5
44F
100
AcDbEntity
  8
IMPORT_IGES
100
AcDbLine
 62
7
  6
CONTINUOUS
 10
11.1214940339
 20
-14.3846250691
 11
9.9999989918
 21
-15.5061201112
  0
LINE
  5
450
100
AcDbEntity
  8
IMPORT_IGES
100
AcDbLine
 62
7
  6
CONTINUOUS
 10
9.9093688725
 20
-15.5967502305
 11
8.9101160935
 21
-16.5960030095
  0
LINE
  5
451
100
AcDbEntity
  8
IMPORT_IGES
100
AcDbLine
 62
7
  6
CONTINUOUS
 10
11.1855802029
 20
-14.3205389001
 11
11.2696404472
 21
-14.2364786558
  0
LINE
  5
452
100
AcDbEntity
  8
IMPORT_IGES
100
AcDbLine
 62
7
  6
CONTINUOUS
 10
11.3401392378
 20
-14.1659798652
 11
11.7183721527
 21
-13.7877469503
  0
LINE
  5
453
100
AcDbEntity
  8
IMPORT_IGES
100
AcDbLine
 62
7
  6
CONTINUOUS
 10
11.7824603463
 20
-13.7236626506
 11
12.8838451317
 21
-12.6222776602
  0
LINE
  5
454
100
AcDbEntity
  8
IMPORT_IGES
100
AcDbLine
 62
7
  6
CONTINUOUS
 10
7.0255231839
 20
-18.4805975982
 11
8.8509631839
 21
-16.6551585982
  0
LINE
  5
455
100
AcDbEntity
  8
IMPORT_IGES
100
AcDbLine
 62
7
  6
CONTINUOUS
 10
11.8264341727
 20
-13.8609460871
 11
11.322864797
 21
-14.3645154628
  0
LINE
  5
456
100
AcDbEntity
  8
IMPORT_IGES
100
AcDbLine
 62
7
  6
CONTINUOUS
 10
8.9246984571
 20
-16.7626818026
 11
9.9999994508
 21
-15.6873808089
  0
LINE
  5
457
100
AcDbEntity
  8
IMPORT_IGES
100
AcDbLine
 62
7
  6
CONTINUOUS
 10
10.0906295702
 20
-15.5967506896
 11
11.2522616982
 21
-14.4351185615
  0
LINE
  5
458
100
AcDbEntity
  8
IMPORT_IGES
100
AcDbLine
 62
7
  6
CONTINUOUS
 10
12.9744763463
 20
-12.7129076506
 11
11.8905213463
 21
-13.7968626506
  0
LINE
  5
459
100
AcDbEntity
  8
IMPORT_IGES
100
AcDbLine
 62
7
  6
CONTINUOUS
 10
7.1161549281
 20
-18.5712272655
 11
8.8655461606
 21
-16.8218376506
  0
LINE
  5
45A
100
AcDbEntity
  8
IMPORT_IGES
100
AcDbLine
 62
7
  6
CONTINUOUS
 10
-21.6706273134
 20
40.3289738953
 11
-22.0140302322
 21
40.6224126248
  0
LINE
  5
45B
100
AcDbEntity
  8
IMPORT_IGES
100
AcDbLine
 62
253
  6
CONTINUOUS
 10
20.9536602503
 20
1.7325902855
 11
20.9536602503
 21
38.4125955821
  0
LINE
  5
45C
100
AcDbEntity
  8
IMPORT_IGES
100
AcDbLine
 62
7
  6
CONTINUOUS
 10
23.2023132409
 20
29.8516639841
 11
23.2067138203
 21
30.2594261286
  0
LINE
  5
45D
100
AcDbEntity
  8
IMPORT_IGES
100
AcDbLine
 62
7
  6
CONTINUOUS
 10
23.2067138203
 20
30.2594261286
 11
23.2122666026
 21
30.6453635832
  0
LINE
  5
45E
100
AcDbEntity
  8
IMPORT_IGES
100
AcDbLine
 62
7
  6
CONTINUOUS
 10
23.2122666026
 20
30.6453635832
 11
23.2189199915
 21
31.0058838157
  0
LINE
  5
45F
100
AcDbEntity
  8
IMPORT_IGES
100
AcDbLine
 62
7
  6
CONTINUOUS
 10
23.2189199915
 20
31.0058838157
 11
23.2265867923
 21
31.3357588093
  0
LINE
  5
460
100
AcDbEntity
  8
IMPORT_IGES
100
AcDbLine
 62
7
  6
CONTINUOUS
 10
23.2265867923
 20
31.3357588093
 11
23.2351538867
 21
31.6305483717
  0
LWPOLYLINE
  5
461
100
AcDbEntity
  8
IMPORT_IGES
100
AcDbPolyline
 62
7
  6
CONTINUOUS
 90
4
 70
0
 10
23.2351538867
 20
31.6305483717
 10
23.2445416552
 20
31.887509588
 10
23.2494959837
 20
32.000340933
 10
23.25462287
 20
32.1028037543
  0
LINE
  5
462
100
AcDbEntity
  8
IMPORT_IGES
100
AcDbLine
 62
7
  6
CONTINUOUS
 10
23.25462287
 20
32.1028037543
 11
23.2598746772
 21
32.1939438342
  0
LWPOLYLINE
  5
463
100
AcDbEntity
  8
IMPORT_IGES
100
AcDbPolyline
 62
253
  6
CONTINUOUS
 90
10
 70
0
 10
20.6427513039
 20
-9.9467285901
 10
20.4603722009
 20
-12.9956830087
 10
20.2356009756
 20
-16.0406213242
 10
19.9684376282
 20
-19.0815435367
 10
19.6588133248
 20
-22.1190428174
 10
19.3067968992
 20
-25.152525995
 10
18.9125948527
 20
-28.180213556
 10
18.476276019
 20
-31.2015123291
 10
17.9977715643
 20
-34.2170154856
 10
17.4770814887
 20
-37.2267230254
  0
LWPOLYLINE
  5
464
100
AcDbEntity
  8
IMPORT_IGES
100
AcDbPolyline
 62
7
  6
CONTINUOUS
 90
7
 70
0
 10
23.2598746772
 20
32.1939438342
 10
23.2652525659
 20
32.2736573082
 10
23.2707553755
 20
32.3420480407
 10
23.2763319876
 20
32.3984734076
 10
23.2819653625
 20
32.4427192009
 10
23.2876725399
 20
32.4749996285
 10
23.2934535197
 20
32.4953146905
  0
LINE
  5
465
100
AcDbEntity
  8
IMPORT_IGES
100
AcDbLine
 62
7
  6
CONTINUOUS
 10
12.9744765626
 20
-18.4805984031
 11
12.8838451208
 21
-18.5712286506
  0
LINE
  5
466
100
AcDbEntity
  8
IMPORT_IGES
100
AcDbLine
 62
7
  6
CONTINUOUS
 10
1.3228756555
 20
20.5532732402
 11
1.2903514296
 21
20.5532732402
  0
LINE
  5
467
100
AcDbEntity
  8
IMPORT_IGES
100
AcDbLine
 62
7
  6
CONTINUOUS
 10
-1.2900365456
 20
20.5532732402
 11
-1.3228756555
 21
20.5532732402
  0
LINE
  5
468
100
AcDbEntity
  8
IMPORT_IGES
100
AcDbLine
 62
253
  6
CONTINUOUS
 10
-6.7324952097
 20
32.8232579988
 11
-6.5854482319
 21
32.7152406286
  0
LINE
  5
469
100
AcDbEntity
  8
IMPORT_IGES
100
AcDbLine
 62
7
  6
CONTINUOUS
 10
23.25987464
 20
5.9126032433
 11
23.2546228348
 21
6.0037433747
  0
LWPOLYLINE
  5
46A
100
AcDbEntity
  8
IMPORT_IGES
100
AcDbPolyline
 62
7
  6
CONTINUOUS
 90
3
 70
0
 10
23.2546228348
 20
6.0037433747
 10
23.2494959523
 20
6.1062062184
 10
23.2445416283
 20
6.2190375446
  0
LWPOLYLINE
  5
46B
100
AcDbEntity
  8
IMPORT_IGES
100
AcDbPolyline
 62
7
  6
CONTINUOUS
 90
22
 70
0
 10
23.2934535197
 20
39.1392106821
 10
23.2898018675
 20
39.2420897646
 10
23.2794256175
 20
39.3434397836
 10
23.2623247699
 20
39.4432607389
 10
23.2383436382
 20
39.5419726412
 10
23.2076379089
 20
39.6391554798
 10
23.1706746407
 20
39.733549223
 10
23.1273836217
 20
39.8251161466
 10
23.0778350638
 20
39.9138939747
 10
23.0227066619
 20
39.9987358478
 10
22.9619351308
 20
40.0795947373
 10
22.8955837556
 20
40.1565176718
 10
22.8245200864
 20
40.2284988772
 10
22.7486883155
 20
40.2954826562
 10
22.6681442505
 20
40.357524706
 10
22.5839228645
 20
40.4137863445
 10
22.4959767379
 20
40.4642036055
 10
22.4043532903
 20
40.5088404552
 10
22.3102297531
 20
40.5470501092
 10
22.2139985369
 20
40.5786169727
 10
22.1152672311
 20
40.6037566406
 10
22.0140358358
 20
40.6224691128
  0
LINE
  5
46C
100
AcDbEntity
  8
IMPORT_IGES
100
AcDbLine
 62
7
  6
CONTINUOUS
 10
23.2445416283
 20
6.2190375446
 11
23.2351538711
 21
6.4759985865
  0
LINE
  5
46D
100
AcDbEntity
  8
IMPORT_IGES
100
AcDbLine
 62
7
  6
CONTINUOUS
 10
23.2351538711
 20
6.4759985865
 11
23.226586788
 21
6.7707878305
  0
LINE
  5
46E
100
AcDbEntity
  8
IMPORT_IGES
100
AcDbLine
 62
7
  6
CONTINUOUS
 10
23.226586788
 20
6.7707878305
 11
23.218919997
 21
7.1006623958
  0
LINE
  5
46F
100
AcDbEntity
  8
IMPORT_IGES
100
AcDbLine
 62
7
  6
CONTINUOUS
 10
23.218919997
 20
7.1006623958
 11
23.2122666144
 21
7.4611821646
  0
LINE
  5
470
100
AcDbEntity
  8
IMPORT_IGES
100
AcDbLine
 62
7
  6
CONTINUOUS
 10
23.2122666144
 20
7.4611821646
 11
23.2067138343
 21
7.8471192345
  0
LINE
  5
471
100
AcDbEntity
  8
IMPORT_IGES
100
AcDbLine
 62
7
  6
CONTINUOUS
 10
23.2067138343
 20
7.8471192345
 11
23.2023132532
 21
8.2548811491
  0
LINE
  5
472
100
AcDbEntity
  8
IMPORT_IGES
100
AcDbLine
 62
7
  6
CONTINUOUS
 10
23.2023132532
 20
8.2548811491
 11
23.1991334471
 21
8.6788855207
  0
LINE
  5
473
100
AcDbEntity
  8
IMPORT_IGES
100
AcDbLine
 62
7
  6
CONTINUOUS
 10
23.1991334471
 20
8.6788855207
 11
23.1972131266
 21
9.1122096865
  0
LINE
  5
474
100
AcDbEntity
  8
IMPORT_IGES
100
AcDbLine
 62
7
  6
CONTINUOUS
 10
23.1972131266
 20
9.1122096865
 11
23.1965656098
 21
9.5528098104
  0
LINE
  5
475
100
AcDbEntity
  8
IMPORT_IGES
100
AcDbLine
 62
253
  6
CONTINUOUS
 10
22.9529749002
 20
38.8452381151
 11
22.9529749002
 21
1.7325902855
  0
LINE
  5
476
100
AcDbEntity
  8
IMPORT_IGES
100
AcDbLine
 62
7
  6
CONTINUOUS
 10
23.2934535196
 20
1.732590286
 11
23.2934535196
 21
5.6111925713
  0
LINE
  5
477
100
AcDbEntity
  8
IMPORT_IGES
100
AcDbLine
 62
7
  6
CONTINUOUS
 10
23.2934535197
 20
32.4953539091
 11
23.2934535197
 21
39.1392106821
  0
LINE
  5
478
100
AcDbEntity
  8
IMPORT_IGES
100
AcDbLine
 62
7
  6
CONTINUOUS
 10
23.3
 20
5.9532732402
 11
23.3
 21
32.1533270533
  0
LINE
  5
479
100
AcDbEntity
  8
IMPORT_IGES
100
AcDbLine
 62
7
  6
CONTINUOUS
 10
23.1965656098
 20
9.5532732402
 11
23.1967308212
 21
28.7750309045
  0
LINE
  5
47A
100
AcDbEntity
  8
IMPORT_IGES
100
AcDbLine
 62
7
  6
CONTINUOUS
 10
23.1967308212
 20
28.7750309045
 11
23.1980125166
 21
29.211651754
  0
LWPOLYLINE
  5
47B
100
AcDbEntity
  8
IMPORT_IGES
100
AcDbPolyline
 62
7
  6
CONTINUOUS
 90
3
 70
0
 10
23.1980125166
 20
29.211651754
 10
23.2005714535
 20
29.6416783605
 10
23.2023132409
 20
29.8516639841
  0
LWPOLYLINE
  5
47C
100
AcDbEntity
  8
IMPORT_IGES
100
AcDbPolyline
 62
253
  6
CONTINUOUS
 90
10
 70
0
 10
19.3812334465
 20
-37.8966450049
 10
19.9177862498
 20
-34.8243210527
 10
20.4108993287
 20
-31.7447286536
 10
20.8604741529
 20
-28.6584819744
 10
21.2664203565
 20
-25.5661984204
 10
21.6286573666
 20
-22.4684928221
 10
21.9471141509
 20
-19.3659772414
 10
22.2217272082
 20
-16.2592684749
 10
22.4524408499
 20
-13.1489880016
 10
22.6392086346
 20
-10.0357561199
  0
LINE
  5
47D
100
AcDbEntity
  8
IMPORT_IGES
100
AcDbLine
 62
253
  6
CONTINUOUS
 10
-5.2101065074
 20
34.5258884479
 11
-5.3639788465
 21
34.6285802269
  0
LWPOLYLINE
  5
47E
100
AcDbEntity
  8
IMPORT_IGES
100
AcDbPolyline
 62
7
  6
CONTINUOUS
 90
7
 70
0
 10
23.2934535196
 20
5.6112317905
 10
23.2876725267
 20
5.6315469408
 10
23.281965339
 20
5.6638274611
 10
23.2763319565
 20
5.7080733516
 10
23.27075534
 20
5.7644988314
 10
23.2652525286
 20
5.8328896812
 10
23.25987464
 20
5.9126032433
  0
LWPOLYLINE
  5
47F
100
AcDbEntity
  8
IMPORT_IGES
100
AcDbPolyline
 62
253
  6
CONTINUOUS
 90
37
 70
0
 10
19.3812334467
 20
-37.8966450038
 10
19.3717892056
 20
-37.9439719207
 10
19.3607021403
 20
-37.9914724966
 10
19.3479398477
 20
-38.0390678274
 10
19.3334741891
 20
-38.0866769575
 10
19.3172827903
 20
-38.1342125073
 10
19.2993499816
 20
-38.181581068
 10
19.2796427029
 20
-38.2287421085
 10
19.2581746039
 20
-38.275550805
 10
19.2350271314
 20
-38.321758745
 10
19.2102446917
 20
-38.3672428347
 10
19.1838425857
 20
-38.4119491836
 10
19.1558911128
 20
-38.4557421367
 10
19.126469592
 20
-38.4984994609
 10
19.0956061655
 20
-38.5401878598
 10
19.0632999995
 20
-38.5808076699
 10
19.0296082083
 20
-38.6202847797
 10
18.9945928522
 20
-38.6585492729
 10
18.958252333
 20
-38.6956022332
 10
18.9206507018
 20
-38.7313759803
 10
18.88185697
 20
-38.765807458
 10
18.8418700622
 20
-38.7988975652
 10
18.8007610349
 20
-38.8305854273
 10
18.7586051048
 20
-38.860815232
 10
18.715402139
 20
-38.8895871649
 10
18.6711860182
 20
-38.9168737743
 10
18.6260805869
 20
-38.9425977499
 10
18.580223289
 20
-38.9666902171
 10
18.5336686258
 20
-38.9891369129
 10
18.486540663
 20
-39.0098956489
 10
18.4390897296
 20
-39.0288884279
 10
18.3914615434
 20
-39.04610401
 10
18.3436960594
 20
-39.0615766168
 10
18.2958860199
 20
-39.0753235201
 10
18.2481185261
 20
-39.0873686801
 10
18.200474611
 20
-39.0977418527
 10
18.1530329338
 20
-39.1064769637
  0
LWPOLYLINE
  5
480
100
AcDbEntity
  8
IMPORT_IGES
100
AcDbPolyline
 62
7
  6
CONTINUOUS
 90
19
 70
0
 10
19.66208402
 20
-38.1833632325
 10
19.6415914923
 20
-38.2769036467
 10
19.6141364381
 20
-38.369564479
 10
19.5797188575
 20
-38.4613457292
 10
19.5381082002
 20
-38.5529773733
 10
19.4895350164
 20
-38.6437294353
 10
19.4346909573
 20
-38.7314119878
 10
19.3733368429
 20
-38.8159199188
 10
19.3057118533
 20
-38.8973583403
 10
19.2332251795
 20
-38.9738526608
 10
19.1557133275
 20
-39.0452359598
 10
19.0733397915
 20
-39.1116751578
 10
18.9880042446
 20
-39.1717964248
 10
18.8996060437
 20
-39.2253583687
 10
18.8082458319
 20
-39.2726023816
 10
18.7161252125
 20
-39.3128788098
 10
18.6239780532
 20
-39.345971102
 10
18.5310704861
 20
-39.3720958096
 10
18.4374025114
 20
-39.3912529325
  0
LINE
  5
481
100
AcDbEntity
  8
IMPORT_IGES
100
AcDbLine
 62
253
  6
CONTINUOUS
 10
-17.4766150238
 20
-37.226548486
 11
-17.7265646544
 21
-37.3186060291
  0
LINE
  5
482
100
AcDbEntity
  8
IMPORT_IGES
100
AcDbLine
 62
253
  6
CONTINUOUS
 10
-17.7265646544
 20
-37.3186060291
 11
-18.2071115197
 21
-37.4933663004
  0
LINE
  5
483
100
AcDbEntity
  8
IMPORT_IGES
100
AcDbLine
 62
253
  6
CONTINUOUS
 10
-18.2071115197
 20
-37.4933663004
 11
-18.5256937821
 21
-37.6079893126
  0
LINE
  5
484
100
AcDbEntity
  8
IMPORT_IGES
100
AcDbLine
 62
253
  6
CONTINUOUS
 10
-18.5256937821
 20
-37.6079893126
 11
-18.8054761164
 21
-37.707357746
  0
LINE
  5
485
100
AcDbEntity
  8
IMPORT_IGES
100
AcDbLine
 62
253
  6
CONTINUOUS
 10
23.3
 20
28.4532732402
 11
23.1965656098
 21
28.4532732402
  0
LINE
  5
486
100
AcDbEntity
  8
IMPORT_IGES
100
AcDbLine
 62
253
  6
CONTINUOUS
 10
-23.1965656098
 20
28.4532732402
 11
-23.3
 21
28.4532732402
  0
LINE
  5
487
100
AcDbEntity
  8
IMPORT_IGES
100
AcDbLine
 62
253
  6
CONTINUOUS
 10
-18.8054761164
 20
-37.707357746
 11
-19.0430561667
 21
-37.7901465605
  0
LWPOLYLINE
  5
488
100
AcDbEntity
  8
IMPORT_IGES
100
AcDbPolyline
 62
253
  6
CONTINUOUS
 90
9
 70
0
 10
-19.0430561667
 20
-37.7901465605
 10
-19.1638101648
 20
-37.8312920784
 10
-19.2148690444
 20
-37.8482062593
 10
-19.260064389
 20
-37.8629090839
 10
-19.2985157624
 20
-37.875142907
 10
-19.3300672075
 20
-37.8847025773
 10
-19.354398321
 20
-37.8914795494
 10
-19.371177927
 20
-37.8954898577
 10
-19.3802678788
 20
-37.8967226966
  0
LINE
  5
489
100
AcDbEntity
  8
IMPORT_IGES
100
AcDbLine
 62
253
  6
CONTINUOUS
 10
7.2289642075
 20
32.8460667431
 11
6.7295101392
 21
32.8231190729
  0
LINE
  5
48A
100
AcDbEntity
  8
IMPORT_IGES
100
AcDbLine
 62
253
  6
CONTINUOUS
 10
6.5884366208
 20
32.7153750867
 11
5.5895130591
 21
32.6698167122
  0
LINE
  5
48B
100
AcDbEntity
  8
IMPORT_IGES
100
AcDbLine
 62
253
  6
CONTINUOUS
 10
-5.5895130591
 20
32.6698167122
 11
-6.5884366208
 21
32.7153750867
  0
LINE
  5
48C
100
AcDbEntity
  8
IMPORT_IGES
100
AcDbLine
 62
253
  6
CONTINUOUS
 10
-6.7295101392
 20
32.8231190729
 11
-7.2289642075
 21
32.8460667431
  0
LINE
  5
48D
100
AcDbEntity
  8
IMPORT_IGES
100
AcDbLine
 62
253
  6
CONTINUOUS
 10
22.9464922982
 20
38.8437306533
 11
22.9529749002
 21
38.8452381151
  0
LINE
  5
48E
100
AcDbEntity
  8
IMPORT_IGES
100
AcDbLine
 62
253
  6
CONTINUOUS
 10
20.9536602503
 20
38.4125955821
 11
22.9137493877
 21
38.8367267872
  0
LINE
  5
48F
100
AcDbEntity
  8
IMPORT_IGES
100
AcDbLine
 62
253
  6
CONTINUOUS
 10
22.9137493877
 20
38.8367267872
 11
22.9464922982
 21
38.8437306533
  0
LINE
  5
490
100
AcDbEntity
  8
IMPORT_IGES
100
AcDbLine
 62
253
  6
CONTINUOUS
 10
-22.1597510737
 20
38.6737146134
 11
-21.5856138194
 21
38.5495012824
  0
LINE
  5
491
100
AcDbEntity
  8
IMPORT_IGES
100
AcDbLine
 62
253
  6
CONTINUOUS
 10
-21.5856138194
 20
38.5495012824
 11
-21.0791556133
 21
38.4400003827
  0
LINE
  5
492
100
AcDbEntity
  8
IMPORT_IGES
100
AcDbLine
 62
253
  6
CONTINUOUS
 10
-22.9529749003
 20
38.845237858
 11
-22.1597510737
 21
38.6737146134
  0
LINE
  5
493
100
AcDbEntity
  8
IMPORT_IGES
100
AcDbLine
 62
253
  6
CONTINUOUS
 10
-21.0791556133
 20
38.4400003827
 11
-20.9536602503
 21
38.4125955821
  0
LWPOLYLINE
  5
494
100
AcDbEntity
  8
IMPORT_IGES
100
AcDbPolyline
 62
253
  6
CONTINUOUS
 90
22
 70
0
 10
5.3639788474
 20
34.6285802266
 10
5.4697236952
 20
34.590198616
 10
5.5736234928
 20
34.5457101574
 10
5.6753111417
 20
34.4951744989
 10
5.7744769496
 20
34.4386384906
 10
5.8706911915
 20
34.3762361727
 10
5.963426778
 20
34.3082218354
 10
6.0523455666
 20
34.2347737303
 10
6.1371142961
 20
34.1560940122
 10
6.2172696143
 20
34.0725607361
 10
6.2925289221
 20
33.9844396434
 10
6.362624077
 20
33.8920140485
 10
6.4271902889
 20
33.7957625494
 10
6.4860246098
 20
33.6960182143
 10
6.5389446603
 20
33.5931237401
 10
6.5857084941
 20
33.4876266581
 10
6.6262087599
 20
33.3799011872
 10
6.660361831
 20
33.270321481
 10
6.6880616291
 20
33.1594662211
 10
6.7092924483
 20
33.0477866996
 10
6.7240905475
 20
32.9355937552
 10
6.7324952094
 20
32.823258005
  0
LWPOLYLINE
  5
495
100
AcDbEntity
  8
IMPORT_IGES
100
AcDbPolyline
 62
253
  6
CONTINUOUS
 90
19
 70
0
 10
4.9003362138
 20
33.5750373969
 10
4.9640991127
 20
33.5517716598
 10
5.0255953622
 20
33.5246052802
 10
5.0848249623
 20
33.493538258
 10
5.1420251299
 20
33.4583938793
 10
5.1969586481
 20
33.4193488581
 10
5.248913866
 20
33.3769333359
 10
5.2978524091
 20
33.3311078402
 10
5.343812652
 20
33.2819118435
 10
5.386198067
 20
33.2299939056
 10
5.4249653643
 20
33.1753210471
 10
5.4601578338
 20
33.1179262474
 10
5.4913088177
 20
33.0585570043
 10
5.5183700653
 20
32.9971867994
 10
5.5413898274
 20
32.9338421511
 10
5.5600461984
 20
32.869350113
 10
5.5742318764
 20
32.8039863693
 10
5.5840541633
 20
32.7374752358
 10
5.5895130591
 20
32.6698167123
  0
LWPOLYLINE
  5
496
100
AcDbEntity
  8
IMPORT_IGES
100
AcDbPolyline
 62
7
  6
CONTINUOUS
 90
22
 70
0
 10
-22.0140248369
 20
40.6224710072
 10
-22.1152582002
 20
40.6037585651
 10
-22.2139910245
 20
40.5786190409
 10
-22.3102233098
 20
40.5470524348
 10
-22.4043473065
 20
40.508843195
 10
-22.4959707641
 20
40.4642068731
 10
-22.5839169316
 20
40.4137901244
 10
-22.6681385508
 20
40.3575289415
 10
-22.7486828799
 20
40.2954873317
 10
-22.8245149421
 20
40.2285039718
 10
-22.8955789299
 20
40.156523164
 10
-22.9619306509
 20
40.0796006061
 10
-23.0227025503
 20
39.9987420673
 10
-23.0778313433
 20
39.9139005188
 10
-23.1273803146
 20
39.8251229894
 10
-23.1706717642
 20
39.7335563348
 10
-23.2076354803
 20
39.6391628305
 10
-23.2383416746
 20
39.5419802011
 10
-23.2623232821
 20
39.4432684755
 10
-23.2794246147
 20
39.3434476632
 10
-23.2898013606
 20
39.2420977548
 10
-23.2934535197
 20
39.1392187501
  0
LWPOLYLINE
  5
497
100
AcDbEntity
  8
IMPORT_IGES
100
AcDbPolyline
 62
253
  6
CONTINUOUS
 90
22
 70
0
 10
21.6706311438
 20
40.3289733251
 10
21.7708813111
 20
40.3106926902
 10
21.8690520756
 20
40.2858231426
 10
21.964727254
 20
40.2546027422
 10
22.0572941475
 20
40.2173912625
 10
22.1466227644
 20
40.1744035608
 10
22.232997328
 20
40.1255629112
 10
22.3161540886
 20
40.0709807593
 10
22.3955840626
 20
40.0109518886
 10
22.4711278528
 20
39.94554004
 10
22.542376094
 20
39.8750085583
 10
22.6089891433
 20
39.7995964044
 10
22.670839835
 20
39.7192775249
 10
22.7276743368
 20
39.6340838269
 10
22.7789183019
 20
39.5445462003
 10
22.8240071385
 20
39.451434578
 10
22.862643185
 20
39.3552456423
 10
22.8946255773
 20
39.2563411231
 10
22.919700027
 20
39.1553808897
 10
22.937719398
 20
39.052915095
 10
22.9485988757
 20
38.9493671718
 10
22.9522687099
 20
38.8452344033
  0
ARC
  5
498
100
AcDbEntity
  8
IMPORT_IGES
100
AcDbCircle
 62
7
  6
CONTINUOUS
 10
-11.7530810234
 20
-21.0955937773
 40
5.069458059
100
AcDbArc
 50
15.8898897896
 51
19.6800792559
  0
ARC
  5
499
100
AcDbEntity
  8
IMPORT_IGES
100
AcDbCircle
 62
7
  6
CONTINUOUS
 10
-10.8241172352
 20
-19.1351856783
 40
0.8198204864
100
AcDbArc
 50
269.9240019677
 51
275.7692104928
  0
ARC
  5
49A
100
AcDbEntity
  8
RACCORDO
100
AcDbCircle
 62
7
  6
CONTINUOUS
 10
-7.0
 20
-41.7467267598
 40
0.5
100
AcDbArc
 50
180.0
 51
270.0
  0
ARC
  5
49B
100
AcDbEntity
  8
IMPORT_IGES
100
AcDbCircle
 62
7
  6
CONTINUOUS
 10
-197.9
 20
1.7325902855
 40
221.1934535196
100
AcDbArc
 50
349.6036078593
 51
360.0
  0
ARC
  5
49C
100
AcDbEntity
  8
IMPORT_IGES
100
AcDbCircle
 62
253
  6
CONTINUOUS
 10
-197.9
 20
1.7325902855
 40
220.8529749003
100
AcDbArc
 50
356.9454969845
 51
360.0
  0
ARC
  5
49D
100
AcDbEntity
  8
IMPORT_IGES
100
AcDbCircle
 62
253
  6
CONTINUOUS
 10
-197.9
 20
1.7325902855
 40
218.8536602503
100
AcDbArc
 50
356.9409069418
 51
360.0
  0
ARC
  5
49E
100
AcDbEntity
  8
IMPORT_IGES
100
AcDbCircle
 62
253
  6
CONTINUOUS
 10
-292.97
 20
19.0532732402
 40
300.5156556053
100
AcDbArc
 50
357.3693828459
 51
2.6307797576
  0
ARC
  5
49F
100
AcDbEntity
  8
IMPORT_IGES
100
AcDbCircle
 62
7
  6
CONTINUOUS
 10
-292.97
 20
19.0532732402
 40
300.0156746438
100
AcDbArc
 50
357.3693664237
 51
2.6306335763
  0
ARC
  5
4A0
100
AcDbEntity
  8
IMPORT_IGES
100
AcDbCircle
 62
253
  6
CONTINUOUS
 10
-292.97
 20
19.0532732402
 40
299.8698217187
100
AcDbArc
 50
357.3886941011
 51
2.6113059013
  0
ARC
  5
4A1
100
AcDbEntity
  8
IMPORT_IGES
100
AcDbCircle
 62
253
  6
CONTINUOUS
 10
-292.97
 20
19.0532732402
 40
298.8698597956
100
AcDbArc
 50
357.3886941008
 51
2.6113058992
  0
CIRCLE
  5
4A2
100
AcDbEntity
  8
IMPORT_IGES
100
AcDbCircle
 62
253
  6
CONTINUOUS
 10
-13.5
 20
-2.9467267598
 40
3.9
  0
CIRCLE
  5
4A3
100
AcDbEntity
  8
IMPORT_IGES
100
AcDbCircle
 62
7
  6
CONTINUOUS
 10
-13.5
 20
-2.9467267598
 40
2.9
  0
CIRCLE
  5
4A4
100
AcDbEntity
  8
0
100
AcDbCircle
 62
7
  6
CONTINUOUS
 10
-13.5
 20
-2.9467267598
 40
2.6226074497
  0
CIRCLE
  5
4A5
100
AcDbEntity
  8
0
100
AcDbCircle
 62
253
  6
CONTINUOUS
 10
-13.5
 20
-2.9467267598
 40
2.6214658591
  0
CIRCLE
  5
4A6
100
AcDbEntity
  8
0
100
AcDbCircle
 62
253
  6
CONTINUOUS
 10
-13.5
 20
-2.9467267598
 40
2.5325156041
  0
CIRCLE
  5
4A7
100
AcDbEntity
  8
0
100
AcDbCircle
 62
253
  6
CONTINUOUS
 10
-13.5
 20
-2.9467267598
 40
2.3336716959
  0
ARC
  5
4A8
100
AcDbEntity
  8
0
100
AcDbCircle
 62
253
  6
CONTINUOUS
 10
-13.5
 20
-2.9467267598
 40
1.8098246557
100
AcDbArc
 50
2.1073233327
 51
33.2133851259
  0
ARC
  5
4A9
100
AcDbEntity
  8
0
100
AcDbCircle
 62
253
  6
CONTINUOUS
 10
-13.5
 20
-2.9467267598
 40
1.8098246557
100
AcDbArc
 50
239.702312008
 51
273.2133851259
  0
ARC
  5
4AA
100
AcDbEntity
  8
0
100
AcDbCircle
 62
253
  6
CONTINUOUS
 10
-13.5
 20
-2.9467267598
 40
1.8098246557
100
AcDbArc
 50
119.702312008
 51
153.2133851259
  0
ARC
  5
4AB
100
AcDbEntity
  8
IMPORT_IGES
100
AcDbCircle
 62
7
  6
CONTINUOUS
 10
-0.0003371707
 20
-18.9470904448
 40
1.7643744866
100
AcDbArc
 50
89.9789091752
 51
273.1847081939
  0
ARC
  5
4AC
100
AcDbEntity
  8
0
100
AcDbCircle
 62
253
  6
CONTINUOUS
 10
-13.5
 20
-2.9467267598
 40
1.7100709361
100
AcDbArc
 50
2.1073233326
 51
30.3977241472
  0
ARC
  5
4AD
100
AcDbEntity
  8
0
100
AcDbCircle
 62
253
  6
CONTINUOUS
 10
-13.5
 20
-2.9467267598
 40
1.7100709361
100
AcDbArc
 50
241.4246792562
 51
270.3977241472
  0
ARC
  5
4AE
100
AcDbEntity
  8
0
100
AcDbCircle
 62
253
  6
CONTINUOUS
 10
-13.5
 20
-2.9467267598
 40
1.7100709361
100
AcDbArc
 50
121.4246792562
 51
150.3977241472
  0
CIRCLE
  5
4AF
100
AcDbEntity
  8
0
100
AcDbCircle
 62
7
  6
CONTINUOUS
 10
-13.5
 20
-2.9467267598
 40
0.8
  0
ARC
  5
4B0
100
AcDbEntity
  8
0
100
AcDbCircle
 62
7
  6
CONTINUOUS
 10
-12.7
 20
-2.2539064368
 40
0.2
100
AcDbArc
 50
240.0
 51
300.0
  0
ARC
  5
4B1
100
AcDbEntity
  8
0
100
AcDbCircle
 62
7
  6
CONTINUOUS
 10
-14.5
 20
-2.6003165983
 40
0.2
100
AcDbArc
 50
0.0
 51
60.0
  0
ARC
  5
4B2
100
AcDbEntity
  8
0
100
AcDbCircle
 62
7
  6
CONTINUOUS
 10
-13.3
 20
-3.9859572443
 40
0.2
100
AcDbArc
 50
120.0
 51
180.0
  0
ARC
  5
4B3
100
AcDbEntity
  8
IMPORT_IGES
100
AcDbCircle
 62
7
  6
CONTINUOUS
 10
-23.1
 20
5.9532732402
 40
0.2
100
AcDbArc
 50
180.0186178754
 51
214.3717648633
  0
ARC
  5
4B4
100
AcDbEntity
  8
IMPORT_IGES
100
AcDbCircle
 62
7
  6
CONTINUOUS
 10
-23.1
 20
32.1532732402
 40
0.2
100
AcDbArc
 50
145.6282341052
 51
179.9813677983
  0
ARC
  5
4B5
100
AcDbEntity
  8
IMPORT_IGES
100
AcDbCircle
 62
7
  6
CONTINUOUS
 10
0.0
 20
-107.7467267598
 40
149.9934535196
100
AcDbArc
 50
81.560404933
 51
98.4395908049
  0
ARC
  5
4B6
100
AcDbEntity
  8
IMPORT_IGES
100
AcDbCircle
 62
253
  6
CONTINUOUS
 10
0.0
 20
-107.7467267598
 40
149.6529749003
100
AcDbArc
 50
81.6739646074
 51
98.3260353803
  0
ARC
  5
4B7
100
AcDbEntity
  8
IMPORT_IGES
100
AcDbCircle
 62
253
  6
CONTINUOUS
 10
0.0
 20
-107.7467267598
 40
147.6536602503
100
AcDbArc
 50
81.8415644829
 51
98.1584355171
  0
ARC
  5
4B8
100
AcDbEntity
  8
RACCORDO
100
AcDbCircle
 62
7
  6
CONTINUOUS
 10
7.0
 20
-41.7467267598
 40
0.5
100
AcDbArc
 50
270.0
 51
360.0
  0
ARC
  5
4B9
100
AcDbEntity
  8
IMPORT_IGES
100
AcDbCircle
 62
7
  6
CONTINUOUS
 10
9.823439035
 20
-16.098220407
 40
3.3678792475
100
AcDbArc
 50
78.1908496868
 51
90.8121673701
  0
ARC
  5
4BA
100
AcDbEntity
  8
IMPORT_IGES
100
AcDbCircle
 62
7
  6
CONTINUOUS
 10
9.823835876
 20
-16.095062387
 40
3.3647352535
100
AcDbArc
 50
104.6186131128
 51
108.0304137383
  0
ARC
  5
4BB
100
AcDbEntity
  8
IMPORT_IGES
100
AcDbCircle
 62
7
  6
CONTINUOUS
 10
9.8234259354
 20
-16.0982877224
 40
3.3038614914
100
AcDbArc
 50
77.9583996924
 51
90.8276783887
  0
ARC
  5
4BC
100
AcDbEntity
  8
IMPORT_IGES
100
AcDbCircle
 62
7
  6
CONTINUOUS
 10
9.8241418342
 20
-16.0976533647
 40
3.3032408009
100
AcDbArc
 50
91.952180311
 51
103.7551933014
  0
ARC
  5
4BD
100
AcDbEntity
  8
IMPORT_IGES
100
AcDbCircle
 62
7
  6
CONTINUOUS
 10
9.8230018006
 20
-16.0970940193
 40
3.3027866503
100
AcDbArc
 50
66.0844267229
 51
76.807616847
  0
ARC
  5
4BE
100
AcDbEntity
  8
IMPORT_IGES
100
AcDbCircle
 62
7
  6
CONTINUOUS
 10
9.823928966
 20
-16.0952094005
 40
3.3008164807
100
AcDbArc
 50
104.9098670007
 51
108.393641893
  0
ARC
  5
4BF
100
AcDbEntity
  8
IMPORT_IGES
100
AcDbCircle
 62
7
  6
CONTINUOUS
 10
9.8224640727
 20
-16.0915089813
 40
3.2968401963
100
AcDbArc
 50
109.5675816718
 51
111.7991126321
  0
ARC
  5
4C0
100
AcDbEntity
  8
IMPORT_IGES
100
AcDbCircle
 62
7
  6
CONTINUOUS
 10
4.2982109053
 20
-18.9470893652
 40
1.764528126
100
AcDbArc
 50
86.8152592297
 51
167.9753374893
  0
ARC
  5
4C1
100
AcDbEntity
  8
IMPORT_IGES
100
AcDbCircle
 62
7
  6
CONTINUOUS
 10
4.298213655
 20
-18.9470884576
 40
1.764526886
100
AcDbArc
 50
192.0247640604
 51
273.1846522492
  0
ARC
  5
4C2
100
AcDbEntity
  8
IMPORT_IGES
100
AcDbCircle
 62
7
  6
CONTINUOUS
 10
1.6863454037
 20
-13.6840658186
 40
0.847270423
100
AcDbArc
 50
269.929314567
 51
275.5803397494
  0
ARC
  5
4C3
100
AcDbEntity
  8
IMPORT_IGES
100
AcDbCircle
 62
7
  6
CONTINUOUS
 10
0.1713044785
 20
-13.6840663384
 40
0.8472699032
100
AcDbArc
 50
269.9293196752
 51
275.5802332413
  0
ARC
  5
4C4
100
AcDbEntity
  8
IMPORT_IGES
100
AcDbCircle
 62
7
  6
CONTINUOUS
 10
11.4432231325
 20
-13.1469025061
 40
0.2896540383
100
AcDbArc
 50
166.2125495388
 51
192.7801383509
  0
CIRCLE
  5
4C5
100
AcDbEntity
  8
IMPORT_IGES
100
AcDbCircle
 62
7
  6
CONTINUOUS
 10
10.9613013025
 20
-17.7609639288
 40
0.1922883044
  0
ARC
  5
4C6
100
AcDbEntity
  8
IMPORT_IGES
100
AcDbCircle
 62
253
  6
CONTINUOUS
 10
0.0
 20
19.5732732402
 40
17.4656556053
100
AcDbArc
 50
251.5688382679
 51
288.4330379747
  0
ARC
  5
4C7
100
AcDbEntity
  8
IMPORT_IGES
100
AcDbCircle
 62
253
  6
CONTINUOUS
 10
0.0
 20
18.5332732402
 40
17.4656556053
100
AcDbArc
 50
71.5688409099
 51
108.4330414492
  0
ARC
  5
4C8
100
AcDbEntity
  8
IMPORT_IGES
100
AcDbCircle
 62
7
  6
CONTINUOUS
 10
0.0
 20
19.5732732402
 40
16.9656746438
100
AcDbArc
 50
251.568651153
 51
288.431348847
  0
ARC
  5
4C9
100
AcDbEntity
  8
IMPORT_IGES
100
AcDbCircle
 62
7
  6
CONTINUOUS
 10
0.0
 20
18.5332732402
 40
16.9656746438
100
AcDbArc
 50
71.568651153
 51
108.431348847
  0
ARC
  5
4CA
100
AcDbEntity
  8
IMPORT_IGES
100
AcDbCircle
 62
253
  6
CONTINUOUS
 10
0.0
 20
19.5732732402
 40
16.8198217187
100
AcDbArc
 50
251.9553221583
 51
288.0446778353
  0
ARC
  5
4CB
100
AcDbEntity
  8
IMPORT_IGES
100
AcDbCircle
 62
253
  6
CONTINUOUS
 10
0.0
 20
18.5332732402
 40
16.8198217187
100
AcDbArc
 50
71.9553221583
 51
108.0446778353
  0
ARC
  5
4CC
100
AcDbEntity
  8
IMPORT_IGES
100
AcDbCircle
 62
253
  6
CONTINUOUS
 10
0.0
 20
19.5732732402
 40
15.8198597956
100
AcDbArc
 50
251.9553221529
 51
288.0446778471
  0
ARC
  5
4CD
100
AcDbEntity
  8
IMPORT_IGES
100
AcDbCircle
 62
253
  6
CONTINUOUS
 10
0.0
 20
18.5332732402
 40
15.8198597956
100
AcDbArc
 50
71.9553221529
 51
108.0446778471
  0
CIRCLE
  5
4CE
100
AcDbEntity
  8
IMPORT_IGES
100
AcDbCircle
 62
7
  6
CONTINUOUS
 10
0.0
 20
19.0532732402
 40
2.0
  0
CIRCLE
  5
4CF
100
AcDbEntity
  8
IMPORT_IGES
100
AcDbCircle
 62
7
  6
CONTINUOUS
 10
0.0
 20
9.5532732402
 40
2.0
  0
CIRCLE
  5
4D0
100
AcDbEntity
  8
IMPORT_IGES
100
AcDbCircle
 62
7
  6
CONTINUOUS
 10
0.0
 20
9.5532732402
 40
1.98
  0
CIRCLE
  5
4D1
100
AcDbEntity
  8
IMPORT_IGES
100
AcDbCircle
 62
7
  6
CONTINUOUS
 10
0.0
 20
19.0532732402
 40
1.98
  0
CIRCLE
  5
4D2
100
AcDbEntity
  8
IMPORT_IGES
100
AcDbCircle
 62
253
  6
CONTINUOUS
 10
0.0
 20
9.5532732402
 40
0.0300002222
  0
CIRCLE
  5
4D3
100
AcDbEntity
  8
IMPORT_IGES
100
AcDbCircle
 62
253
  6
CONTINUOUS
 10
0.0
 20
19.0532732402
 40
0.0300002222
  0
CIRCLE
  5
4D4
100
AcDbEntity
  8
IMPORT_IGES
100
AcDbCircle
 62
253
  6
CONTINUOUS
 10
13.5
 20
-2.9467267598
 40
3.9
  0
CIRCLE
  5
4D5
100
AcDbEntity
  8
IMPORT_IGES
100
AcDbCircle
 62
7
  6
CONTINUOUS
 10
13.5
 20
-2.9467267598
 40
2.9
  0
CIRCLE
  5
4D6
100
AcDbEntity
  8
0
100
AcDbCircle
 62
7
  6
CONTINUOUS
 10
13.5
 20
-2.9467267598
 40
2.6226074497
  0
CIRCLE
  5
4D7
100
AcDbEntity
  8
0
100
AcDbCircle
 62
253
  6
CONTINUOUS
 10
13.5
 20
-2.9467267598
 40
2.6214658591
  0
CIRCLE
  5
4D8
100
AcDbEntity
  8
0
100
AcDbCircle
 62
253
  6
CONTINUOUS
 10
13.5
 20
-2.9467267598
 40
2.5325156041
  0
CIRCLE
  5
4D9
100
AcDbEntity
  8
0
100
AcDbCircle
 62
253
  6
CONTINUOUS
 10
13.5
 20
-2.9467267598
 40
2.3336716959
  0
ARC
  5
4DA
100
AcDbEntity
  8
0
100
AcDbCircle
 62
253
  6
CONTINUOUS
 10
13.5
 20
-2.9467267598
 40
1.8098246557
100
AcDbArc
 50
2.1073233327
 51
33.2133851259
  0
ARC
  5
4DB
100
AcDbEntity
  8
0
100
AcDbCircle
 62
253
  6
CONTINUOUS
 10
13.5
 20
-2.9467267598
 40
1.8098246557
100
AcDbArc
 50
239.702312008
 51
273.2133851259
  0
ARC
  5
4DC
100
AcDbEntity
  8
0
100
AcDbCircle
 62
253
  6
CONTINUOUS
 10
13.5
 20
-2.9467267598
 40
1.8098246557
100
AcDbArc
 50
119.702312008
 51
153.2133851259
  0
ARC
  5
4DD
100
AcDbEntity
  8
0
100
AcDbCircle
 62
253
  6
CONTINUOUS
 10
13.5
 20
-2.9467267598
 40
1.7100709361
100
AcDbArc
 50
2.1073233326
 51
30.3977241472
  0
ARC
  5
4DE
100
AcDbEntity
  8
0
100
AcDbCircle
 62
253
  6
CONTINUOUS
 10
13.5
 20
-2.9467267598
 40
1.7100709361
100
AcDbArc
 50
241.4246792562
 51
270.3977241472
  0
ARC
  5
4DF
100
AcDbEntity
  8
0
100
AcDbCircle
 62
253
  6
CONTINUOUS
 10
13.5
 20
-2.9467267598
 40
1.7100709361
100
AcDbArc
 50
121.4246792562
 51
150.3977241472
  0
CIRCLE
  5
4E0
100
AcDbEntity
  8
0
100
AcDbCircle
 62
7
  6
CONTINUOUS
 10
13.5
 20
-2.9467267598
 40
0.8
  0
ARC
  5
4E1
100
AcDbEntity
  8
0
100
AcDbCircle
 62
7
  6
CONTINUOUS
 10
14.3
 20
-2.2539064368
 40
0.2
100
AcDbArc
 50
240.0
 51
300.0
  0
ARC
  5
4E2
100
AcDbEntity
  8
0
100
AcDbCircle
 62
7
  6
CONTINUOUS
 10
12.5
 20
-2.6003165983
 40
0.2
100
AcDbArc
 50
0.0
 51
60.0
  0
ARC
  5
4E3
100
AcDbEntity
  8
0
100
AcDbCircle
 62
7
  6
CONTINUOUS
 10
13.7
 20
-3.9859572443
 40
0.2
100
AcDbArc
 50
120.0
 51
180.0
  0
ARC
  5
4E4
100
AcDbEntity
  8
IMPORT_IGES
100
AcDbCircle
 62
7
  6
CONTINUOUS
 10
23.1
 20
5.9532732402
 40
0.2
100
AcDbArc
 50
325.6282340458
 51
359.9813821246
  0
ARC
  5
4E5
100
AcDbEntity
  8
IMPORT_IGES
100
AcDbCircle
 62
7
  6
CONTINUOUS
 10
0.0
 20
69.5530697512
 40
110.4934535197
100
AcDbArc
 50
278.5577348577
 51
279.6055472105
  0
ARC
  5
4E6
100
AcDbEntity
  8
IMPORT_IGES
100
AcDbCircle
 62
7
  6
CONTINUOUS
 10
0.0
 20
69.5530697512
 40
110.4934535197
100
AcDbArc
 50
260.3944527519
 51
261.4422651423
  0
CIRCLE
  5
4E7
100
AcDbEntity
  8
IMPORT_IGES
100
AcDbCircle
 62
7
  6
CONTINUOUS
 10
0.0
 20
28.5532732402
 40
2.0
  0
CIRCLE
  5
4E8
100
AcDbEntity
  8
IMPORT_IGES
100
AcDbCircle
 62
7
  6
CONTINUOUS
 10
0.0
 20
28.5532732402
 40
1.98
  0
ARC
  5
4E9
100
AcDbEntity
  8
IMPORT_IGES
100
AcDbCircle
 62
7
  6
CONTINUOUS
 10
23.1
 20
32.1532732402
 40
0.2
100
AcDbArc
 50
0.0186322017
 51
34.3717648039
  0
CIRCLE
  5
4EA
100
AcDbEntity
  8
IMPORT_IGES
100
AcDbCircle
 62
253
  6
CONTINUOUS
 10
0.0
 20
28.5532732402
 40
0.0300002222
  0
ARC
  5
4EB
100
AcDbEntity
  8
IMPORT_IGES
100
AcDbCircle
 62
253
  6
CONTINUOUS
 10
292.97
 20
19.0532732402
 40
300.5156556053
100
AcDbArc
 50
177.369381399
 51
182.630769041
  0
ARC
  5
4EC
100
AcDbEntity
  8
IMPORT_IGES
100
AcDbCircle
 62
7
  6
CONTINUOUS
 10
292.97
 20
19.0532732402
 40
300.0156746438
100
AcDbArc
 50
177.3693664237
 51
182.6306335763
  0
ARC
  5
4ED
100
AcDbEntity
  8
IMPORT_IGES
100
AcDbCircle
 62
253
  6
CONTINUOUS
 10
292.97
 20
19.0532732402
 40
299.8698217187
100
AcDbArc
 50
177.3886941011
 51
182.6113059013
  0
ARC
  5
4EE
100
AcDbEntity
  8
IMPORT_IGES
100
AcDbCircle
 62
253
  6
CONTINUOUS
 10
292.97
 20
19.0532732402
 40
298.8698597956
100
AcDbArc
 50
177.3886941008
 51
182.6113058992
  0
ARC
  5
4EF
100
AcDbEntity
  8
IMPORT_IGES
100
AcDbCircle
 62
7
  6
CONTINUOUS
 10
197.9
 20
1.7325902855
 40
221.1934535196
100
AcDbArc
 50
179.9999999999
 51
190.3963921557
  0
ARC
  5
4F0
100
AcDbEntity
  8
IMPORT_IGES
100
AcDbCircle
 62
253
  6
CONTINUOUS
 10
197.9
 20
1.7325902855
 40
220.8529749003
100
AcDbArc
 50
180.0
 51
183.0545030153
  0
ARC
  5
4F1
100
AcDbEntity
  8
IMPORT_IGES
100
AcDbCircle
 62
253
  6
CONTINUOUS
 10
197.9
 20
1.7325902855
 40
218.8536602503
100
AcDbArc
 50
179.9999999997
 51
183.0590930521
  0
ENDSEC
  0
SECTION
  2
OBJECTS
  0
DICTIONARY
  5
C
100
AcDbDictionary
280
0
281
1
  3
ACAD_GROUP
350
D
  3
ACAD_MLINESTYLE
350
17
  3
ACAD_LAYOUT
350
1A
  3
ACAD_PLOTSETTINGS
350
19
  3
ACAD_PLOTSTYLENAME
350
E
  0
DICTIONARY
  5
D
102
{ACAD_REACTORS
330
C
102
}
100
AcDbDictionary
280
0
281
1
  0
ACDBDICTIONARYWDFLT
  5
E
102
{ACAD_REACTORS
330
C
102
}
100
AcDbDictionary
281
1
  3
Normal
350
F
100
AcDbDictionaryWithDefault
340
F
  0
DICTIONARY
  5
17
102
{ACAD_REACTORS
330
C
102
}
100
AcDbDictionary
280
0
281
1
  3
Standard
350
18
  0
DICTIONARY
  5
19
102
{ACAD_REACTORS
330
C
102
}
100
AcDbDictionary
281
1
  0
DICTIONARY
  5
1A
102
{ACAD_REACTORS
330
C
102
}
100
AcDbDictionary
281
1
  3
Model
350
4F2
  3
Layout1
350
4F3
  0
ACDBPLACEHOLDER
  5
F
102
{ACAD_REACTORS
330
E
102
}
  0
MLINESTYLE
  5
18
102
{ACAD_REACTORS
330
17
102
}
100
AcDbMlineStyle
  2
STANDARD
 70
0
  3

 62
256
 51
90.0
 52
90.0
 71
2
 49
0.5
 62
256
  6
BYLAYER
 49
-0.5
 62
256
  6
BYLAYER
  0
LAYOUT
  5
4F2
102
{ACAD_REACTORS
330
1A
102
}
100
AcDbPlotSettings
  1

  2
none_device
  4
ISO_A4_(297.00_x_210.00_MM)
  6

 40
0.0
 41
0.0
 42
0.0
 43
0.0
 44
297.0
 45
210.0
 46
0.0
 47
0.0
 48
0.0
 49
0.0
140
0.0
141
0.0
142
1.0
143
1.0
 70
1024
 72
1
 73
0
 74
0
  7

 75
0
147
1.0
148
0.0
149
0.0
100
AcDbLayout
  1
Model
 70
0
 71
0
 10
0.0
 20
0.0
 11
297.0
 21
210.0
 12
0.0
 22
0.0
 32
0.0
 14
0.0
 24
0.0
 34
0.0
 15
0.0
 25
0.0
 35
0.0
146
0.0
 13
0.0
 23
0.0
 33
0.0
 16
1.0
 26
0.0
 36
0.0
 17
0.0
 27
1.0
 37
0.0
 76
0
330
212
345
0
346
0
  0
LAYOUT
  5
4F3
102
{ACAD_REACTORS
330
1A
102
}
100
AcDbPlotSettings
  1

  2
none_device
  4
ISO_A4_(297.00_x_210.00_MM)
  6

 40
0.0
 41
0.0
 42
0.0
 43
0.0
 44
297.0
 45
210.0
 46
0.0
 47
0.0
 48
0.0
 49
0.0
140
0.0
141
0.0
142
1.0
143
1.0
 70
0
 72
1
 73
0
 74
0
  7

 75
0
147
1.0
148
0.0
149
0.0
100
AcDbLayout
  1
Layout1
 70
0
 71
1
 10
0.0
 20
0.0
 11
297.0
 21
210.0
 12
0.0
 22
0.0
 32
0.0
 14
0.0
 24
0.0
 34
0.0
 15
0.0
 25
0.0
 35
0.0
146
0.0
 13
0.0
 23
0.0
 33
0.0
 16
1.0
 26
0.0
 36
0.0
 17
0.0
 27
1.0
 37
0.0
 76
0
330
213
345
0
346
0
  0
ENDSEC
  0
EOF
