  0
SECTION
  2
HEADER
  9
$ACADVER
  1
AC1021
  9
$DWGCODEPAGE
  3
ANSI_1252
  9
$EXTMAX
 10
297.0
 20
210.0
 30
0.0
  9
$EXTMIN
 10
0.0
 20
0.0
 30
0.0
  9
$LIMMIN
 10
0.0
 20
0.0
  9
$LIMMAX
 10
297.0
 20
210.0
  9
$VIEWCTR
 10
148.5
 20
105.0
  9
$VIEWSIZE
 40
210.0
  9
$CLAYER
  8
0
  9
$LTSCALE
 40
16.335
  9
$CELTYPE
  6
BYLAYER
  9
$DIMSCALE
 40
1.0
  9
$DIMASZ
 40
3.0
  9
$DIMEXO
 40
0.5
  9
$DIMDLI
 40
11.286
  9
$DIMEXE
 40
1.5
  9
$DIMCEN
 40
2.673
  9
$DIMLFAC
 40
1.0
  9
$DIMBLK
  1
_FILLED
  9
$DIMALT
 70
0
  9
$DIMALTF
 40
0.0393700787
  9
$DIMTXT
 40
3.0
  9
$DIMTOL
 70
1
  9
$DIMLIM
 70
0
  9
$DIMTFAC
 40
1.0
  9
$DIMTP
 40
0.01
  9
$DIMTM
 40
0.01
  9
$DIMGAP
 40
0.625
  9
$DIMDSEP
 70
44
  9
$AUNITS
 70
0
  9
$PDMODE
 70
3
  9
$PDSIZE
 40
3.0
  9
$HANDSEED
  5
5AC
  9
$TILEMODE
 70
1
  9
$MEASUREMENT
 70
1
  9
$INSUNITS
 70
4
  0
ENDSEC
  0
SECTION
  2
CLASSES
  0
CLASS
  1
ACDBDICTIONARYWDFLT
  2
AcDbDictionaryWithDefault
  3
AutoCAD 2000
 90
0
 91
1
280
0
281
0
  0
CLASS
  1
ACDBPLACEHOLDER
  2
AcDbPlaceHolder
  3
AutoCAD 2000
 90
0
 91
1
280
0
281
0
  0
CLASS
  1
LAYOUT
  2
AcDbLayout
  3
AutoCAD 2000
 90
0
 91
0
280
0
281
0
  0
ENDSEC
  0
SECTION
  2
TABLES
  0
TABLE
  2
VPORT
  5
8
100
AcDbSymbolTable
 70
2
  0
VPORT
  5
1F4
100
AcDbSymbolTableRecord
100
AcDbViewportTableRecord
  2
*ACTIVE
 70
0
 10
0.0
 20
0.0
 11
1.0
 21
1.0
 12
148.5
 22
105.0
 13
0.0
 23
0.0
 14
1.0
 24
1.0
 15
0.0
 25
0.0
 16
0.0
 26
0.0
 36
1.0
 17
0.0
 27
0.0
 37
0.0
 40
210.0
 41
1.4142857143
 42
50.0
 43
0.0
 44
0.0
 50
0.0
 51
0.0
 71
0
 72
100
 73
1
 74
1
 75
0
 76
0
 77
0
 78
0
  0
ENDTAB
  0
TABLE
  2
LTYPE
  5
5
100
AcDbSymbolTable
 70
6
  0
LTYPE
  5
14
100
AcDbSymbolTableRecord
100
AcDbLinetypeTableRecord
  2
BYBLOCK
 70
0
  3

 72
65
 73
0
 40
0.0
  0
LTYPE
  5
15
100
AcDbSymbolTableRecord
100
AcDbLinetypeTableRecord
  2
BYLAYER
 70
0
  3

 72
65
 73
0
 40
0.0
  0
LTYPE
  5
16
100
AcDbSymbolTableRecord
100
AcDbLinetypeTableRecord
  2
CONTINUOUS
 70
64
  3
Solid line
 72
65
 73
0
 40
0.0
  0
LTYPE
  5
1F5
100
AcDbSymbolTableRecord
100
AcDbLinetypeTableRecord
  2
CENTER
 70
64
  3
____ _ ____ _ ____ _ ____ _ ____ _ ____ _ ____
 72
65
 73
4
 40
0.6
 49
0.375
 74
0
 49
-0.075
 74
0
 49
0.075
 74
0
 49
-0.075
 74
0
  0
LTYPE
  5
1F6
100
AcDbSymbolTableRecord
100
AcDbLinetypeTableRecord
  2
HIDDEN
 70
64
  3
- - - - - - - - - - - - - - - - - - - -
 72
65
 73
2
 40
0.2
 49
0.1
 74
0
 49
-0.1
 74
0
  0
LTYPE
  5
1F7
100
AcDbSymbolTableRecord
100
AcDbLinetypeTableRecord
  2
PHANTOM
 70
64
  3
_____ _ _ _____ _ _ _____ _ _ _____
 72
65
 73
6
 40
0.8
 49
0.45
 74
0
 49
-0.05
 74
0
 49
0.1
 74
0
 49
-0.05
 74
0
 49
0.1
 74
0
 49
-0.05
 74
0
  0
LTYPE
  5
1F8
100
AcDbSymbolTableRecord
100
AcDbLinetypeTableRecord
  2
DOT
 70
64
  3
. . . . . . . . . . . . . . . . . . . .
 72
65
 73
2
 40
0.2
 49
0.1
 74
0
 49
-0.1
 74
0
  0
LTYPE
  5
1F9
100
AcDbSymbolTableRecord
100
AcDbLinetypeTableRecord
  2
DASHED
 70
64
  3
- - - - - - - - - - - - - - - - - - - -
 72
65
 73
2
 40
0.2
 49
0.1
 74
0
 49
-0.1
 74
0
  0
ENDTAB
  0
TABLE
  2
LAYER
  5
2
100
AcDbSymbolTable
 70
36
  0
LAYER
  5
10
100
AcDbSymbolTableRecord
100
AcDbLayerTableRecord
  2
0
 70
0
 62
7
  6
CONTINUOUS
370
-3
390
F
  0
LAYER
  5
1FA
100
AcDbSymbolTableRecord
100
AcDbLayerTableRecord
  2
DEFAULT_1
 70
0
 62
7
  6
CENTER
370
-3
390
F
  0
LAYER
  5
1FB
100
AcDbSymbolTableRecord
100
AcDbLayerTableRecord
  2
DEFAULT_2
 70
0
 62
7
  6
HIDDEN
370
-3
390
F
  0
LAYER
  5
1FC
100
AcDbSymbolTableRecord
100
AcDbLayerTableRecord
  2
DEFAULT_3
 70
0
 62
7
  6
PHANTOM
370
-3
390
F
  0
LAYER
  5
1FD
100
AcDbSymbolTableRecord
100
AcDbLayerTableRecord
  2
ASSI
 70
0
 62
7
  6
CONTINUOUS
370
-3
390
F
  0
LAYER
  5
1FE
100
AcDbSymbolTableRecord
100
AcDbLayerTableRecord
  2
COLOR5
 70
0
 62
7
  6
CONTINUOUS
370
-3
390
F
  0
LAYER
  5
1FF
100
AcDbSymbolTableRecord
100
AcDbLayerTableRecord
  2
COORDINATE
 70
0
 62
7
  6
CONTINUOUS
370
-3
390
F
  0
LAYER
  5
200
100
AcDbSymbolTableRecord
100
AcDbLayerTableRecord
  2
COORD_ORIGINE
 70
0
 62
7
  6
CONTINUOUS
370
-3
390
F
  0
LAYER
  5
201
100
AcDbSymbolTableRecord
100
AcDbLayerTableRecord
  2
COPY_PUBLISH
 70
0
 62
7
  6
CONTINUOUS
370
-3
390
F
  0
LAYER
  5
202
100
AcDbSymbolTableRecord
100
AcDbLayerTableRecord
  2
COSMETICI
 70
0
 62
7
  6
CONTINUOUS
370
-3
390
F
  0
LAYER
  5
203
100
AcDbSymbolTableRecord
100
AcDbLayerTableRecord
  2
CURVE
 70
0
 62
7
  6
CONTINUOUS
370
-3
390
F
  0
LAYER
  5
204
100
AcDbSymbolTableRecord
100
AcDbLayerTableRecord
  2
DRAFT
 70
0
 62
7
  6
CONTINUOUS
370
-3
390
F
  0
LAYER
  5
205
100
AcDbSymbolTableRecord
100
AcDbLayerTableRecord
  2
IMPORT_IGES
 70
0
 62
7
  6
CONTINUOUS
370
-3
390
F
  0
LAYER
  5
206
100
AcDbSymbolTableRecord
100
AcDbLayerTableRecord
  2
NOTE
 70
0
 62
7
  6
CONTINUOUS
370
-3
390
F
  0
LAYER
  5
207
100
AcDbSymbolTableRecord
100
AcDbLayerTableRecord
  2
PIANI
 70
0
 62
7
  6
CONTINUOUS
370
-3
390
F
  0
LAYER
  5
208
100
AcDbSymbolTableRecord
100
AcDbLayerTableRecord
  2
PIANI_ORIGINE
 70
0
 62
7
  6
CONTINUOUS
370
-3
390
F
  0
LAYER
  5
209
100
AcDbSymbolTableRecord
100
AcDbLayerTableRecord
  2
PUNTI
 70
0
 62
7
  6
CONTINUOUS
370
-3
390
F
  0
LAYER
  5
20A
100
AcDbSymbolTableRecord
100
AcDbLayerTableRecord
  2
RACCORDO
 70
0
 62
7
  6
CONTINUOUS
370
-3
390
F
  0
LAYER
  5
20B
100
AcDbSymbolTableRecord
100
AcDbLayerTableRecord
  2
SIMBOLI
 70
0
 62
7
  6
CONTINUOUS
370
-3
390
F
  0
LAYER
  5
20C
100
AcDbSymbolTableRecord
100
AcDbLayerTableRecord
  2
SMUSSO
 70
0
 62
7
  6
CONTINUOUS
370
-3
390
F
  0
LAYER
  5
20D
100
AcDbSymbolTableRecord
100
AcDbLayerTableRecord
  2
SNAPLINE
 70
0
 62
7
  6
CONTINUOUS
370
-3
390
F
  0
LAYER
  5
20E
100
AcDbSymbolTableRecord
100
AcDbLayerTableRecord
  2
SUPERFICI
 70
0
 62
7
  6
CONTINUOUS
370
-3
390
F
  0
LAYER
  5
20F
100
AcDbSymbolTableRecord
100
AcDbLayerTableRecord
  2
TRASH
 70
0
 62
7
  6
CONTINUOUS
370
-3
390
F
  0
ENDTAB
  0
TABLE
  2
STYLE
  5
3
100
AcDbSymbolTable
 70
1
  0
STYLE
  5
11
100
AcDbSymbolTableRecord
100
AcDbTextStyleTableRecord
  2
STANDARD
 70
0
 40
0.0
 41
0.8
 50
0.0
 71
0
 42
0.2
  3
txt
  4

  0
STYLE
  5
210
100
AcDbSymbolTableRecord
100
AcDbTextStyleTableRecord
  2
TEXTSTYLE_1
 70
0
 40
0.0
 41
0.8
 50
0.0
 71
0
 42
0.2
  3
gdt
  4

  0
ENDTAB
  0
TABLE
  2
VIEW
  5
6
100
AcDbSymbolTable
 70
0
  0
ENDTAB
  0
TABLE
  2
UCS
  5
7
100
AcDbSymbolTable
 70
0
  0
ENDTAB
  0
TABLE
  2
APPID
  5
9
100
AcDbSymbolTable
 70
1
  0
APPID
  5
211
100
AcDbSymbolTableRecord
100
AcDbRegAppTableRecord
  2
ACAD
 70
0
  0
ENDTAB
  0
TABLE
  2
BLOCK_RECORD
  5
1
100
AcDbSymbolTable
 70
0
  0
BLOCK_RECORD
  5
212
100
AcDbSymbolTableRecord
100
AcDbBlockTableRecord
  2
*Model_Space
  0
BLOCK_RECORD
  5
213
100
AcDbSymbolTableRecord
100
AcDbBlockTableRecord
  2
*Paper_Space
  0
ENDTAB
  0
TABLE
  2
DIMSTYLE
  5
A
100
AcDbSymbolTable
 70
1
100
AcDbDimStyleTable
 71
0
  0
DIMSTYLE
105
214
100
AcDbSymbolTableRecord
100
AcDbDimStyleTableRecord
  2
STANDARD
 70
0
  3

  4

 40
1.0
 41
3.0
 42
0.5
 43
0.38
 44
1.5
 45
0.0
 46
0.0
 47
0.01
 48
0.01
140
3.0
141
0.09
142
0.0
143
25.4
144
1.0
145
0.0
146
1.0
147
0.625
 71
1.0
 72
0.0
 73
0
 74
0
 75
0
 76
0
 77
1
 78
8
170
0
171
2
172
0
173
0
174
0
175
0
176
0
177
0
178
0
270
2
271
2
272
2
273
2
274
2
275
0
280
0
281
0
282
0
283
1
284
8
285
0
286
0
287
3
288
0
340
11
278
44
  0
ENDTAB
  0
ENDSEC
  0
SECTION
  2
BLOCKS
  0
BLOCK
  5
20
100
AcDbEntity
  8
0
100
AcDbBlockBegin
  2
*Model_Space
 70
0
 10
0.0
 20
0.0
 30
0.0
  3
*Model_Space
  1

  0
ENDBLK
  5
21
100
AcDbEntity
  8
0
100
AcDbBlockEnd
  0
BLOCK
  5
1C
100
AcDbEntity
  8
0
100
AcDbBlockBegin
  2
*Paper_Space
 70
0
 10
0.0
 20
0.0
 30
0.0
  3
*Paper_Space
  1

  0
ENDBLK
  5
1D
100
AcDbEntity
  8
0
100
AcDbBlockEnd
  0
ENDSEC
  0
SECTION
  2
ENTITIES
  0
LINE
  5
215
100
AcDbEntity
  8
IMPORT_IGES
100
AcDbLine
 62
253
  6
CONTINUOUS
 10
18.7017673978
 20
-51.6088985398
 11
18.795503389
 21
-51.5857800305
  0
LWPOLYLINE
  5
216
100
AcDbEntity
  8
IMPORT_IGES
100
AcDbPolyline
 62
7
  6
CONTINUOUS
 90
22
 70
0
 10
18.8429948619
 20
-51.8444981304
 10
18.9367670547
 20
-51.8273444969
 10
19.0284731868
 20
-51.8046286593
 10
19.1181132583
 20
-51.7763506173
 10
19.2060047876
 20
-51.7423460357
 10
19.2918302563
 20
-51.7027792498
 10
19.3746371092
 20
-51.6581432657
 10
19.4543918384
 20
-51.6083895122
 10
19.5311279518
 20
-51.5535665605
 10
19.6039934186
 20
-51.4943131298
 10
19.6729487482
 20
-51.4305860623
 10
19.7380334312
 20
-51.3624285157
 10
19.7985139089
 20
-51.2906086826
 10
19.854345249
 20
-51.2150891038
 10
19.9055723837
 20
-51.1359072385
 10
19.9515965515
 20
-51.0539436565
 10
19.9923677053
 20
-50.9691670394
 10
20.0279358922
 20
-50.8816087058
 10
20.0578524923
 20
-50.7922431805
 10
20.0819679655
 20
-50.7013953052
 10
20.1004318518
 20
-50.6087402384
 10
20.1132441513
 20
-50.5142779799
  0
LINE
  5
217
100
AcDbEntity
  8
IMPORT_IGES
100
AcDbLine
 62
253
  6
CONTINUOUS
 10
18.7038298264
 20
-51.6083992074
 11
18.6109038546
 21
-51.6252112219
  0
LINE
  5
218
100
AcDbEntity
  8
IMPORT_IGES
100
AcDbLine
 62
253
  6
CONTINUOUS
 10
-18.7048997102
 20
-51.6082293364
 11
-18.6109021302
 21
-51.6252956642
  0
LINE
  5
219
100
AcDbEntity
  8
IMPORT_IGES
100
AcDbLine
 62
253
  6
CONTINUOUS
 10
-18.798305206
 20
-51.5850105829
 11
-18.7039093621
 21
-51.6083822155
  0
LWPOLYLINE
  5
21A
100
AcDbEntity
  8
IMPORT_IGES
100
AcDbPolyline
 62
253
  6
CONTINUOUS
 90
17
 70
0
 10
-18.885787742
 20
-51.5573674623
 10
-18.9739301925
 20
-51.5233964104
 10
-19.0597400375
 20
-51.4839614468
 10
-19.1428720164
 20
-51.4392240491
 10
-19.2229997579
 20
-51.3893670143
 10
-19.2998095973
 20
-51.3345930189
 10
-19.3729949872
 20
-51.275124959
 10
-19.4422528838
 20
-51.2112203743
 10
-19.5073353559
 20
-51.1431223468
 10
-19.5680335736
 20
-51.0710494147
 10
-19.6241171307
 20
-50.9952610888
 10
-19.6753437172
 20
-50.9160725443
 10
-19.7215048197
 20
-50.8337998682
 10
-19.7624139016
 20
-50.7487654102
 10
-19.7979043145
 20
-50.6613043025
 10
-19.8278303194
 20
-50.571769915
 10
-19.8520700665
 20
-50.4805188508
  0
LINE
  5
21B
100
AcDbEntity
  8
IMPORT_IGES
100
AcDbLine
 62
253
  6
CONTINUOUS
 10
19.8825766665
 20
-50.2945533176
 11
19.8836549137
 21
-50.2943431652
  0
LWPOLYLINE
  5
21C
100
AcDbEntity
  8
IMPORT_IGES
100
AcDbPolyline
 62
253
  6
CONTINUOUS
 90
10
 70
0
 10
17.9339853066
 20
-49.738570211
 10
15.9520044897
 20
-50.0090037
 10
13.9669697971
 20
-50.2476944554
 10
11.9788812287
 20
-50.4546424771
 10
9.987228356
 20
-50.6298844854
 10
7.9925216075
 20
-50.7733837601
 10
5.996292269
 20
-50.8850301403
 10
3.9990507693
 20
-50.9647869059
 10
2.0002866796
 20
-51.0126907771
 10
0.0
 20
-51.0287417538
  0
LWPOLYLINE
  5
21D
100
AcDbEntity
  8
IMPORT_IGES
100
AcDbPolyline
 62
253
  6
CONTINUOUS
 90
10
 70
0
 10
0.0
 20
-52.9930879827
 10
2.075222548
 20
-52.976177648
 10
4.1498948194
 20
-52.9254378114
 10
6.2234651266
 20
-52.8408819085
 10
8.2953822374
 20
-52.722532348
 10
10.36509503
 20
-52.5704205821
 10
12.4320526451
 20
-52.3845871242
 10
14.4957052859
 20
-52.165081425
 10
16.5555043595
 20
-51.911961832
 10
18.6109021358
 20
-51.625295669
  0
LWPOLYLINE
  5
21E
100
AcDbEntity
  8
IMPORT_IGES
100
AcDbPolyline
 62
253
  6
CONTINUOUS
 90
10
 70
0
 10
0.0
 20
-51.0287417538
 10
-2.0002866796
 20
-51.0126907771
 10
-3.9990507693
 20
-50.9647869059
 10
-5.9962922691
 20
-50.8850301404
 10
-7.9925216075
 20
-50.7733837601
 10
-9.9872283561
 20
-50.6298844855
 10
-11.9788812288
 20
-50.4546424772
 10
-13.9669697972
 20
-50.2476944555
 10
-15.9520044899
 20
-50.0090037001
 10
-17.9339853068
 20
-49.738570211
  0
LWPOLYLINE
  5
21F
100
AcDbEntity
  8
IMPORT_IGES
100
AcDbPolyline
 62
253
  6
CONTINUOUS
 90
10
 70
0
 10
-18.6109021302
 20
-51.6252956642
 10
-16.5555043545
 20
-51.9119618277
 10
-14.4957052815
 20
-52.1650814212
 10
-12.4320526414
 20
-52.3845871209
 10
-10.3650950269
 20
-52.5704205792
 10
-8.2953822349
 20
-52.7225323457
 10
-6.2234651248
 20
-52.8408819067
 10
-4.1498948182
 20
-52.9254378102
 10
-2.0752225474
 20
-52.9761776474
 10
0.0
 20
-52.9930879827
  0
LINE
  5
220
100
AcDbEntity
  8
IMPORT_IGES
100
AcDbLine
 62
253
  6
CONTINUOUS
 10
-19.8836549002
 20
-50.2943432961
 11
-19.8825766665
 21
-50.2945533176
  0
LWPOLYLINE
  5
221
100
AcDbEntity
  8
IMPORT_IGES
100
AcDbPolyline
 62
253
  6
CONTINUOUS
 90
22
 70
0
 10
-6.7520395301
 20
49.7877411448
 10
-6.8739258199
 20
49.7326819723
 10
-6.9920089363
 20
49.6716827845
 10
-7.1062888791
 20
49.6047435816
 10
-7.2170516154
 20
49.5316369481
 10
-7.3240111782
 20
49.4525902993
 10
-7.4263096666
 20
49.3682858817
 10
-7.5239062423
 20
49.2786909982
 10
-7.6168417437
 20
49.1838383458
 10
-7.704380785
 20
49.0845082622
 10
-7.7864844297
 20
48.980669702
 10
-7.8631916144
 20
48.8723537106
 10
-7.9338837632
 20
48.7604337609
 10
-7.9985186653
 20
48.6448834312
 10
-8.0571385316
 20
48.5257291432
 10
-8.1092514185
 20
48.4039236352
 10
-8.1548119939
 20
48.2794459282
 10
-8.1938655901
 20
48.1523170012
 10
-8.2260562595
 20
48.0235525304
 10
-8.2512653533
 20
47.8934910744
 10
-8.2696115204
 20
47.7617940745
 10
-8.2810947608
 20
47.6284615307
  0
LWPOLYLINE
  5
222
100
AcDbEntity
  8
IMPORT_IGES
100
AcDbPolyline
 62
253
  6
CONTINUOUS
 90
37
 70
0
 10
-6.4070012042
 20
49.2317418163
 10
-6.4616125932
 20
49.2080947747
 10
-6.5158528628
 20
49.1825017073
 10
-6.5696689649
 20
49.1549605199
 10
-6.6230513936
 20
49.1254449586
 10
-6.6758964074
 20
49.0939798603
 10
-6.7280145955
 20
49.0606554936
 10
-6.7793616866
 20
49.0254843037
 10
-6.8298759153
 20
48.9884909615
 10
-6.8793576878
 20
48.9498134089
 10
-6.927770301
 20
48.9094804833
 10
-6.9750590365
 20
48.8675358651
 10
-7.0210199344
 20
48.8241705556
 10
-7.0655755339
 20
48.779483479
 10
-7.1087403051
 20
48.7334840234
 10
-7.1504635486
 20
48.6862456956
 10
-7.1906947606
 20
48.6378470457
 10
-7.2294251337
 20
48.5883178845
 10
-7.2666639317
 20
48.5376561014
 10
-7.3023798654
 20
48.4859057748
 10
-7.3365344303
 20
48.4331211126
 10
-7.3691176411
 20
48.3793090636
 10
-7.4000995876
 20
48.3245008223
 10
-7.4294318957
 20
48.2687590714
 10
-7.4570733895
 20
48.2121361647
 10
-7.483009813
 20
48.1546237204
 10
-7.507174505
 20
48.0963248227
 10
-7.5294641611
 20
48.0374660534
 10
-7.5498562082
 20
47.9781026109
 10
-7.5683291907
 20
47.9182871941
 10
-7.58481528
 20
47.8582531606
 10
-7.5993142797
 20
47.7980418793
 10
-7.6118192623
 20
47.7377228671
 10
-7.6222923309
 20
47.6775790226
 10
-7.6307452911
 20
47.6177425016
 10
-7.6372153926
 20
47.5581896369
 10
-7.6417266128
 20
47.498970343
  0
LINE
  5
223
100
AcDbEntity
  8
IMPORT_IGES
100
AcDbLine
 62
7
  6
CONTINUOUS
 10
-9.0000000006
 20
-48.9796765907
 11
9.0000000006
 21
-48.9796765901
  0
LINE
  5
224
100
AcDbEntity
  8
IMPORT_IGES
100
AcDbLine
 62
7
  6
CONTINUOUS
 10
9.1118839641
 20
-46.0897910397
 11
6.8881160359
 21
-46.0897910397
  0
LINE
  5
225
100
AcDbEntity
  8
IMPORT_IGES
100
AcDbLine
 62
7
  6
CONTINUOUS
 10
5.1118839641
 20
-46.0897910397
 11
2.8881160359
 21
-46.0897910397
  0
LINE
  5
226
100
AcDbEntity
  8
IMPORT_IGES
100
AcDbLine
 62
7
  6
CONTINUOUS
 10
1.1118839641
 20
-46.0897910397
 11
-1.1118839641
 21
-46.0897910397
  0
LINE
  5
227
100
AcDbEntity
  8
IMPORT_IGES
100
AcDbLine
 62
7
  6
CONTINUOUS
 10
-2.8881160359
 20
-46.0897910397
 11
-5.1118839641
 21
-46.0897910397
  0
LINE
  5
228
100
AcDbEntity
  8
IMPORT_IGES
100
AcDbLine
 62
7
  6
CONTINUOUS
 10
-6.8881160359
 20
-46.0897910397
 11
-9.1118839641
 21
-46.0897910397
  0
LWPOLYLINE
  5
229
100
AcDbEntity
  8
IMPORT_IGES
100
AcDbPolyline
 62
253
  6
CONTINUOUS
 90
9
 70
0
 10
19.8825766241
 20
-50.2945533133
 10
19.8738654407
 20
-50.2940219704
 10
19.8578223714
 20
-50.2912653111
 10
19.8343290558
 20
-50.2862590006
 10
19.8033364159
 20
-50.2789442008
 10
19.7649229184
 20
-50.2693575593
 10
19.7193554622
 20
-50.2576377135
 10
19.6676024321
 20
-50.243996923
 10
19.6095800366
 20
-50.228291529
  0
LINE
  5
22A
100
AcDbEntity
  8
IMPORT_IGES
100
AcDbLine
 62
253
  6
CONTINUOUS
 10
-19.3340486366
 20
-50.1513181951
 11
-19.5433217264
 21
-50.210025629
  0
LWPOLYLINE
  5
22B
100
AcDbEntity
  8
IMPORT_IGES
100
AcDbPolyline
 62
253
  6
CONTINUOUS
 90
10
 70
0
 10
-19.5433217264
 20
-50.210025629
 10
-19.6550380682
 20
-50.2405763013
 10
-19.7020266746
 20
-50.2531358368
 10
-19.7443149723
 20
-50.2641259169
 10
-19.7817604339
 20
-50.2736191346
 10
-19.8137135652
 20
-50.2814772441
 10
-19.8400035147
 20
-50.2875296084
 10
-19.8603837182
 20
-50.2917067052
 10
-19.8746150957
 20
-50.2940484907
 10
-19.8825766241
 20
-50.2945533133
  0
LINE
  5
22C
100
AcDbEntity
  8
IMPORT_IGES
100
AcDbLine
 62
7
  6
CONTINUOUS
 10
8.9440585504
 20
-45.8801051454
 11
7.0559414496
 21
-45.8801051454
  0
LINE
  5
22D
100
AcDbEntity
  8
IMPORT_IGES
100
AcDbLine
 62
7
  6
CONTINUOUS
 10
4.9440585504
 20
-45.8801051454
 11
3.0559414496
 21
-45.8801051454
  0
LINE
  5
22E
100
AcDbEntity
  8
IMPORT_IGES
100
AcDbLine
 62
7
  6
CONTINUOUS
 10
0.9440585504
 20
-45.8801051454
 11
-0.9440585504
 21
-45.8801051454
  0
LINE
  5
22F
100
AcDbEntity
  8
IMPORT_IGES
100
AcDbLine
 62
7
  6
CONTINUOUS
 10
-3.0559414496
 20
-45.8801051454
 11
-4.9440585504
 21
-45.8801051454
  0
LINE
  5
230
100
AcDbEntity
  8
IMPORT_IGES
100
AcDbLine
 62
7
  6
CONTINUOUS
 10
-7.0559414496
 20
-45.8801051454
 11
-8.9440585504
 21
-45.8801051454
  0
LINE
  5
231
100
AcDbEntity
  8
RACCORDO
100
AcDbLine
 62
253
  6
CONTINUOUS
 10
4.9440585504
 20
-45.25
 11
5.0
 21
-45.25
  0
LINE
  5
232
100
AcDbEntity
  8
RACCORDO
100
AcDbLine
 62
7
  6
CONTINUOUS
 10
4.9440585504
 20
-44.95
 11
5.0
 21
-44.95
  0
LINE
  5
233
100
AcDbEntity
  8
0
100
AcDbLine
 62
7
  6
CONTINUOUS
 10
1.0
 20
-44.45
 11
-1.0
 21
-44.45
  0
LINE
  5
234
100
AcDbEntity
  8
IMPORT_IGES
100
AcDbLine
 62
253
  6
CONTINUOUS
 10
19.6095800366
 20
-50.228291529
 11
19.4674645406
 21
-50.1888441619
  0
LINE
  5
235
100
AcDbEntity
  8
IMPORT_IGES
100
AcDbLine
 62
253
  6
CONTINUOUS
 10
19.4674645406
 20
-50.1888441619
 11
19.1984058337
 21
-50.1126227232
  0
LINE
  5
236
100
AcDbEntity
  8
IMPORT_IGES
100
AcDbLine
 62
253
  6
CONTINUOUS
 10
19.1984058337
 20
-50.1126227232
 11
18.8897119147
 21
-50.0230839784
  0
LINE
  5
237
100
AcDbEntity
  8
IMPORT_IGES
100
AcDbLine
 62
253
  6
CONTINUOUS
 10
18.8897119147
 20
-50.0230839784
 11
18.5450537696
 21
-49.9215699793
  0
LWPOLYLINE
  5
238
100
AcDbEntity
  8
IMPORT_IGES
100
AcDbPolyline
 62
253
  6
CONTINUOUS
 90
3
 70
0
 10
18.5450537696
 20
-49.9215699793
 10
18.0552101996
 20
-49.775405122
 10
17.9338094018
 20
-49.7385160101
  0
LINE
  5
239
100
AcDbEntity
  8
IMPORT_IGES
100
AcDbLine
 62
253
  6
CONTINUOUS
 10
6.5586015027
 20
49.3266885457
 11
6.407001946
 21
49.2317435908
  0
LINE
  5
23A
100
AcDbEntity
  8
0
100
AcDbLine
 62
7
  6
CONTINUOUS
 10
-9.0
 20
-39.5
 11
-8.9440585504
 21
-39.5
  0
LINE
  5
23B
100
AcDbEntity
  8
0
100
AcDbLine
 62
7
  6
CONTINUOUS
 10
-7.0559414496
 20
-39.5
 11
-7.0
 21
-39.5
  0
LINE
  5
23C
100
AcDbEntity
  8
0
100
AcDbLine
 62
7
  6
CONTINUOUS
 10
-5.0
 20
-39.3
 11
-4.9440585504
 21
-39.3
  0
LINE
  5
23D
100
AcDbEntity
  8
0
100
AcDbLine
 62
7
  6
CONTINUOUS
 10
-5.0
 20
-38.8
 11
-4.9440585504
 21
-38.8
  0
LINE
  5
23E
100
AcDbEntity
  8
0
100
AcDbLine
 62
7
  6
CONTINUOUS
 10
-5.0
 20
-37.52
 11
-4.9440585504
 21
-37.52
  0
LINE
  5
23F
100
AcDbEntity
  8
0
100
AcDbLine
 62
7
  6
CONTINUOUS
 10
-5.0
 20
-36.92
 11
-4.9440585504
 21
-36.92
  0
LINE
  5
240
100
AcDbEntity
  8
0
100
AcDbLine
 62
7
  6
CONTINUOUS
 10
-5.0
 20
-35.64
 11
-4.9440585504
 21
-35.64
  0
LINE
  5
241
100
AcDbEntity
  8
0
100
AcDbLine
 62
7
  6
CONTINUOUS
 10
-5.0
 20
-35.04
 11
-4.9440585504
 21
-35.04
  0
LINE
  5
242
100
AcDbEntity
  8
IMPORT_IGES
100
AcDbLine
 62
7
  6
CONTINUOUS
 10
-8.9440585504
 20
-34.9919710042
 11
-7.0559414496
 21
-34.9919710042
  0
LINE
  5
243
100
AcDbEntity
  8
IMPORT_IGES
100
AcDbLine
 62
7
  6
CONTINUOUS
 10
-4.9440585504
 20
-34.9919710042
 11
-3.0559414496
 21
-34.9919710042
  0
LINE
  5
244
100
AcDbEntity
  8
IMPORT_IGES
100
AcDbLine
 62
7
  6
CONTINUOUS
 10
-0.9440585504
 20
-34.9919710042
 11
0.9440585504
 21
-34.9919710042
  0
LINE
  5
245
100
AcDbEntity
  8
IMPORT_IGES
100
AcDbLine
 62
7
  6
CONTINUOUS
 10
3.0559414496
 20
-34.9919710042
 11
4.9440585504
 21
-34.9919710042
  0
LINE
  5
246
100
AcDbEntity
  8
IMPORT_IGES
100
AcDbLine
 62
7
  6
CONTINUOUS
 10
7.0559414496
 20
-34.9919710042
 11
8.9440585504
 21
-34.9919710042
  0
LINE
  5
247
100
AcDbEntity
  8
IMPORT_IGES
100
AcDbLine
 62
7
  6
CONTINUOUS
 10
-9.1118839641
 20
-34.8660571924
 11
-6.8881160359
 21
-34.8660571924
  0
LINE
  5
248
100
AcDbEntity
  8
IMPORT_IGES
100
AcDbLine
 62
7
  6
CONTINUOUS
 10
-5.1118839641
 20
-34.8660571924
 11
-2.8881160359
 21
-34.8660571924
  0
LINE
  5
249
100
AcDbEntity
  8
IMPORT_IGES
100
AcDbLine
 62
7
  6
CONTINUOUS
 10
-1.1118839641
 20
-34.8660571924
 11
1.1118839641
 21
-34.8660571924
  0
LINE
  5
24A
100
AcDbEntity
  8
IMPORT_IGES
100
AcDbLine
 62
7
  6
CONTINUOUS
 10
2.8881160359
 20
-34.8660571924
 11
5.1118839641
 21
-34.8660571924
  0
LINE
  5
24B
100
AcDbEntity
  8
IMPORT_IGES
100
AcDbLine
 62
7
  6
CONTINUOUS
 10
6.8881160359
 20
-34.8660571924
 11
9.1118839641
 21
-34.8660571924
  0
LINE
  5
24C
100
AcDbEntity
  8
IMPORT_IGES
100
AcDbLine
 62
253
  6
CONTINUOUS
 10
7.6417266989
 20
47.4989703262
 11
7.7819690965
 21
47.5992318712
  0
LINE
  5
24D
100
AcDbEntity
  8
IMPORT_IGES
100
AcDbLine
 62
7
  6
CONTINUOUS
 10
-8.9440585504
 20
-34.9919710042
 11
-9.1118839641
 21
-34.8660571924
  0
LINE
  5
24E
100
AcDbEntity
  8
IMPORT_IGES
100
AcDbLine
 62
7
  6
CONTINUOUS
 10
-4.9440585504
 20
-34.9919710042
 11
-5.1118839641
 21
-34.8660571924
  0
LINE
  5
24F
100
AcDbEntity
  8
IMPORT_IGES
100
AcDbLine
 62
7
  6
CONTINUOUS
 10
-7.0559414496
 20
-45.8801051454
 11
-6.8881160359
 21
-46.0897910397
  0
LINE
  5
250
100
AcDbEntity
  8
IMPORT_IGES
100
AcDbLine
 62
7
  6
CONTINUOUS
 10
-3.0559414496
 20
-45.8801051454
 11
-2.8881160359
 21
-46.0897910397
  0
LWPOLYLINE
  5
251
100
AcDbEntity
  8
IMPORT_IGES
100
AcDbPolyline
 62
253
  6
CONTINUOUS
 90
18
 70
0
 10
-19.8521368426
 20
-50.4777577374
 10
-19.82813674
 20
-50.5687479422
 10
-19.7982272362
 20
-50.6587531709
 10
-19.7625516518
 20
-50.7470143979
 10
-19.7215611635
 20
-50.8324395703
 10
-19.6758902591
 20
-50.9140686279
 10
-19.625729463
 20
-50.9919636299
 10
-19.5708880191
 20
-51.0665809376
 10
-19.5117485025
 20
-51.1374536505
 10
-19.4486517614
 20
-51.2042724711
 10
-19.3810747506
 20
-51.267552136
 10
-19.3093242877
 20
-51.3268506388
 10
-19.2337783811
 20
-51.3817618957
 10
-19.153815502
 20
-51.4325552296
 10
-19.0692524063
 20
-51.4789982807
 10
-18.9810892706
 20
-51.5202502535
 10
-18.8905022748
 20
-51.5556746673
 10
-18.7956629758
 20
-51.5857352774
  0
LINE
  5
252
100
AcDbEntity
  8
IMPORT_IGES
100
AcDbLine
 62
7
  6
CONTINUOUS
 10
9.1118839641
 20
-29.0897910397
 11
6.8881160359
 21
-29.0897910397
  0
LINE
  5
253
100
AcDbEntity
  8
IMPORT_IGES
100
AcDbLine
 62
7
  6
CONTINUOUS
 10
5.1118839641
 20
-29.0897910397
 11
3.0
 21
-29.0897910397
  0
LINE
  5
254
100
AcDbEntity
  8
IMPORT_IGES
100
AcDbLine
 62
7
  6
CONTINUOUS
 10
1.1118839641
 20
-29.0897910397
 11
-1.1118839641
 21
-29.0897910397
  0
LINE
  5
255
100
AcDbEntity
  8
IMPORT_IGES
100
AcDbLine
 62
7
  6
CONTINUOUS
 10
-2.8881160359
 20
-29.0897910397
 11
-5.1118839641
 21
-29.0897910397
  0
LINE
  5
256
100
AcDbEntity
  8
IMPORT_IGES
100
AcDbLine
 62
7
  6
CONTINUOUS
 10
-6.8881160359
 20
-29.0897910397
 11
-9.1118839641
 21
-29.0897910397
  0
LINE
  5
257
100
AcDbEntity
  8
IMPORT_IGES
100
AcDbLine
 62
7
  6
CONTINUOUS
 10
8.9440585504
 20
-28.8801051454
 11
7.0559414496
 21
-28.8801051454
  0
LINE
  5
258
100
AcDbEntity
  8
IMPORT_IGES
100
AcDbLine
 62
7
  6
CONTINUOUS
 10
4.9440585504
 20
-28.8801051454
 11
3.0559414496
 21
-28.8801051454
  0
LINE
  5
259
100
AcDbEntity
  8
IMPORT_IGES
100
AcDbLine
 62
7
  6
CONTINUOUS
 10
0.9440585504
 20
-28.8801051454
 11
-0.9440585504
 21
-28.8801051454
  0
LINE
  5
25A
100
AcDbEntity
  8
IMPORT_IGES
100
AcDbLine
 62
7
  6
CONTINUOUS
 10
-3.0559414496
 20
-28.8801051454
 11
-4.9440585504
 21
-28.8801051454
  0
LINE
  5
25B
100
AcDbEntity
  8
IMPORT_IGES
100
AcDbLine
 62
7
  6
CONTINUOUS
 10
-7.0559414496
 20
-28.8801051454
 11
-8.9440585504
 21
-28.8801051454
  0
LINE
  5
25C
100
AcDbEntity
  8
IMPORT_IGES
100
AcDbLine
 62
7
  6
CONTINUOUS
 10
-0.9440585504
 20
-34.9919710042
 11
-1.1118839641
 21
-34.8660571924
  0
LINE
  5
25D
100
AcDbEntity
  8
IMPORT_IGES
100
AcDbLine
 62
7
  6
CONTINUOUS
 10
0.9440585504
 20
-45.8801051454
 11
1.1118839641
 21
-46.0897910397
  0
LINE
  5
25E
100
AcDbEntity
  8
IMPORT_IGES
100
AcDbLine
 62
253
  6
CONTINUOUS
 10
-19.8702682315
 20
-50.3861720917
 11
-19.8520700665
 21
-50.4805188508
  0
LWPOLYLINE
  5
25F
100
AcDbEntity
  8
IMPORT_IGES
100
AcDbPolyline
 62
7
  6
CONTINUOUS
 90
22
 70
0
 10
-20.1132441473
 20
-50.5142780004
 10
-20.1004318388
 20
-50.6087402452
 10
-20.0819679445
 20
-50.7013953006
 10
-20.0578524642
 20
-50.7922431665
 10
-20.0279358579
 20
-50.8816086853
 10
-19.9923676657
 20
-50.9691670147
 10
-19.9515965079
 20
-51.0539436277
 10
-19.9055723374
 20
-51.1359072053
 10
-19.8543452013
 20
-51.2150890666
 10
-19.798513861
 20
-51.2906086421
 10
-19.7380333841
 20
-51.3624284725
 10
-19.6729487029
 20
-51.4305860172
 10
-19.6039933759
 20
-51.4943130838
 10
-19.5311279124
 20
-51.5535665147
 10
-19.4543918031
 20
-51.6083894675
 10
-19.3746370785
 20
-51.6581432234
 10
-19.2918302304
 20
-51.7027792112
 10
-19.2060047671
 20
-51.742346002
 10
-19.1181132431
 20
-51.7763505899
 10
-19.0284731766
 20
-51.8046286396
 10
-18.9367670496
 20
-51.8273444864
 10
-18.8429948619
 20
-51.8444981304
  0
LWPOLYLINE
  5
260
100
AcDbEntity
  8
IMPORT_IGES
100
AcDbPolyline
 62
253
  6
CONTINUOUS
 90
13
 70
0
 10
-22.9076111596
 20
0.0291586322
 10
-22.8145166637
 20
-4.1721885672
 10
-22.6925012284
 20
-8.3727937315
 10
-22.5415707602
 20
-12.5724577793
 10
-22.3617326707
 20
-16.7709807239
 10
-22.1529954848
 20
-20.9681645409
 10
-21.9153687746
 20
-25.1638131682
 10
-21.648863805
 20
-29.3577286784
 10
-21.3534933201
 20
-33.5497113884
 10
-21.0292711033
 20
-37.7395627134
 10
-20.6762124899
 20
-41.927084108
 10
-20.2943343686
 20
-46.1120770822
 10
-19.8836549006
 20
-50.2943432961
  0
LINE
  5
261
100
AcDbEntity
  8
IMPORT_IGES
100
AcDbLine
 62
7
  6
CONTINUOUS
 10
-23.2072035373
 20
44.5546682473
 11
-23.2037200752
 21
44.1918291878
  0
LINE
  5
262
100
AcDbEntity
  8
IMPORT_IGES
100
AcDbLine
 62
7
  6
CONTINUOUS
 10
-23.2037200752
 20
44.1918291878
 11
-23.2012086638
 21
43.8174783387
  0
LINE
  5
263
100
AcDbEntity
  8
IMPORT_IGES
100
AcDbLine
 62
7
  6
CONTINUOUS
 10
-23.2012086638
 20
43.8174783387
 11
-23.1996937284
 21
43.4363950182
  0
LINE
  5
264
100
AcDbEntity
  8
IMPORT_IGES
100
AcDbLine
 62
7
  6
CONTINUOUS
 10
-23.3
 20
13.5000004983
 11
-23.3
 21
46.6
  0
LINE
  5
265
100
AcDbEntity
  8
IMPORT_IGES
100
AcDbLine
 62
7
  6
CONTINUOUS
 10
-23.2934535197
 20
50.1359456233
 11
-23.2934535197
 21
46.8918745425
  0
LINE
  5
266
100
AcDbEntity
  8
IMPORT_IGES
100
AcDbLine
 62
7
  6
CONTINUOUS
 10
-23.2934535196
 20
13.2081254576
 11
-23.2934535196
 21
11.7293170461
  0
LINE
  5
267
100
AcDbEntity
  8
IMPORT_IGES
100
AcDbLine
 62
7
  6
CONTINUOUS
 10
-23.1996937284
 20
43.4363950182
 11
-23.199184202
 21
17.05
  0
LINE
  5
268
100
AcDbEntity
  8
IMPORT_IGES
100
AcDbLine
 62
253
  6
CONTINUOUS
 10
-23.0197490003
 20
11.7293170453
 11
-23.0197490003
 21
49.8996663735
  0
LINE
  5
269
100
AcDbEntity
  8
IMPORT_IGES
100
AcDbLine
 62
7
  6
CONTINUOUS
 10
-23.1991837068
 20
17.0499999969
 11
-23.1996937505
 21
16.663597984
  0
LINE
  5
26A
100
AcDbEntity
  8
IMPORT_IGES
100
AcDbLine
 62
7
  6
CONTINUOUS
 10
-23.1996937505
 20
16.663597984
 11
-23.2012087214
 21
16.2825106156
  0
LINE
  5
26B
100
AcDbEntity
  8
IMPORT_IGES
100
AcDbLine
 62
7
  6
CONTINUOUS
 10
-23.2012087214
 20
16.2825106156
 11
-23.2037201756
 21
15.9081584742
  0
LINE
  5
26C
100
AcDbEntity
  8
IMPORT_IGES
100
AcDbLine
 62
7
  6
CONTINUOUS
 10
-23.2037201756
 20
15.9081584742
 11
-23.2072036653
 21
15.5453202543
  0
LINE
  5
26D
100
AcDbEntity
  8
IMPORT_IGES
100
AcDbLine
 62
7
  6
CONTINUOUS
 10
-23.2072036653
 20
15.5453202543
 11
-23.2116152376
 21
15.1980507911
  0
LINE
  5
26E
100
AcDbEntity
  8
IMPORT_IGES
100
AcDbLine
 62
7
  6
CONTINUOUS
 10
-23.2116152376
 20
15.1980507911
 11
-23.2169217333
 21
14.8689652999
  0
LINE
  5
26F
100
AcDbEntity
  8
IMPORT_IGES
100
AcDbLine
 62
7
  6
CONTINUOUS
 10
-23.2169217333
 20
14.8689652999
 11
-23.2230670814
 21
14.5618941517
  0
LINE
  5
270
100
AcDbEntity
  8
IMPORT_IGES
100
AcDbLine
 62
7
  6
CONTINUOUS
 10
-23.2230670814
 20
14.5618941517
 11
-23.2299778325
 21
14.2802102698
  0
LINE
  5
271
100
AcDbEntity
  8
IMPORT_IGES
100
AcDbLine
 62
7
  6
CONTINUOUS
 10
-23.2299778325
 20
14.2802102698
 11
-23.2376020168
 21
14.0260341562
  0
LWPOLYLINE
  5
272
100
AcDbEntity
  8
IMPORT_IGES
100
AcDbPolyline
 62
253
  6
CONTINUOUS
 90
22
 70
0
 10
-23.0191777018
 20
49.8996664209
 10
-23.0156684892
 20
50.0014403304
 10
-23.0053466551
 20
50.1021206526
 10
-22.9883860159
 20
50.2012617631
 10
-22.9650521074
 20
50.2982059446
 10
-22.9355373908
 20
50.3927935504
 10
-22.8998064083
 20
50.4853166564
 10
-22.8579300969
 20
50.575498163
 10
-22.8101249266
 20
50.6627918781
 10
-22.7564298218
 20
50.7470307502
 10
-22.697044747
 20
50.8277713429
 10
-22.6321557595
 20
50.9046425904
 10
-22.5617178486
 20
50.977522052
 10
-22.4857250103
 20
51.0461534316
 10
-22.4046179358
 20
51.1098908457
 10
-22.3190750333
 20
51.1680632322
 10
-22.2295434014
 20
51.2203031492
 10
-22.1363514235
 20
51.2663581379
 10
-22.040115013
 20
51.3058793964
 10
-21.9413569709
 20
51.3386403134
 10
-21.8404835785
 20
51.3644944919
 10
-21.7379766611
 20
51.3832995878
  0
LWPOLYLINE
  5
273
100
AcDbEntity
  8
IMPORT_IGES
100
AcDbPolyline
 62
7
  6
CONTINUOUS
 90
5
 70
0
 10
-23.2376020168
 20
14.0260341562
 10
-23.2458563812
 20
13.802386025
 10
-23.250187383
 20
13.702780268
 10
-23.2546446703
 20
13.6116544421
 10
-23.2592272997
 20
13.5289452532
  0
LINE
  5
274
100
AcDbEntity
  8
IMPORT_IGES
100
AcDbLine
 62
7
  6
CONTINUOUS
 10
-23.2592272997
 20
13.5289452532
 11
-23.2639008271
 21
13.4552761141
  0
LWPOLYLINE
  5
275
100
AcDbEntity
  8
IMPORT_IGES
100
AcDbPolyline
 62
7
  6
CONTINUOUS
 90
7
 70
0
 10
-23.2639008271
 20
13.4552761141
 10
-23.2686659357
 20
13.3907135547
 10
-23.2735219422
 20
13.335191045
 10
-23.2784323532
 20
13.2891324077
 10
-23.2833850042
 20
13.2526789168
 10
-23.2883920597
 20
13.2256892983
 10
-23.2934535196
 20
13.2081635521
  0
LINE
  5
276
100
AcDbEntity
  8
IMPORT_IGES
100
AcDbLine
 62
253
  6
CONTINUOUS
 10
23.0197490002
 20
49.8996665452
 11
23.2934535197
 21
50.1359375546
  0
LINE
  5
277
100
AcDbEntity
  8
IMPORT_IGES
100
AcDbLine
 62
7
  6
CONTINUOUS
 10
22.0140363204
 20
51.6191578194
 11
21.7379802987
 21
51.3832990441
  0
LINE
  5
278
100
AcDbEntity
  8
ASSI
100
AcDbLine
 62
7
  6
CONTINUOUS
 10
9.0
 20
-24.8
 11
8.9440585504
 21
-24.8
  0
LINE
  5
279
100
AcDbEntity
  8
ASSI
100
AcDbLine
 62
7
  6
CONTINUOUS
 10
7.0559414496
 20
-24.8
 11
7.0
 21
-24.8
  0
LINE
  5
27A
100
AcDbEntity
  8
ASSI
100
AcDbLine
 62
7
  6
CONTINUOUS
 10
7.0
 20
-23.2
 11
7.0559414496
 21
-23.2
  0
LINE
  5
27B
100
AcDbEntity
  8
ASSI
100
AcDbLine
 62
7
  6
CONTINUOUS
 10
8.9440585504
 20
-23.2
 11
9.0
 21
-23.2
  0
LINE
  5
27C
100
AcDbEntity
  8
IMPORT_IGES
100
AcDbLine
 62
7
  6
CONTINUOUS
 10
3.0559414496
 20
-34.9919710042
 11
2.8881160359
 21
-34.8660571924
  0
LINE
  5
27D
100
AcDbEntity
  8
IMPORT_IGES
100
AcDbLine
 62
7
  6
CONTINUOUS
 10
7.0559414496
 20
-34.9919710042
 11
6.8881160359
 21
-34.8660571924
  0
LINE
  5
27E
100
AcDbEntity
  8
IMPORT_IGES
100
AcDbLine
 62
7
  6
CONTINUOUS
 10
18.6109038546
 20
-51.6252112219
 11
18.8429959923
 21
-51.8445807441
  0
LINE
  5
27F
100
AcDbEntity
  8
IMPORT_IGES
100
AcDbLine
 62
7
  6
CONTINUOUS
 10
4.9440585504
 20
-45.8801051454
 11
5.1118839641
 21
-46.0897910397
  0
LINE
  5
280
100
AcDbEntity
  8
IMPORT_IGES
100
AcDbLine
 62
7
  6
CONTINUOUS
 10
-7.0559414496
 20
-28.8801051454
 11
-6.8881160359
 21
-29.0897910397
  0
LINE
  5
281
100
AcDbEntity
  8
IMPORT_IGES
100
AcDbLine
 62
253
  6
CONTINUOUS
 10
-19.8705246045
 20
-50.3879089468
 11
-19.8831174454
 21
-50.2943066719
  0
LWPOLYLINE
  5
282
100
AcDbEntity
  8
IMPORT_IGES
100
AcDbPolyline
 62
253
  6
CONTINUOUS
 90
13
 70
0
 10
-17.9339853068
 20
-49.738570211
 10
-18.3377144174
 20
-45.6002920045
 10
-18.7131298574
 20
-41.4597380417
 10
-19.060231627
 20
-37.3169083226
 10
-19.3790333317
 20
-33.1716087824
 10
-19.6695213658
 20
-29.0240334859
 10
-19.9316549127
 20
-24.8747646281
 10
-20.1654299653
 20
-20.7238019486
 10
-20.3708505306
 20
-16.5711457077
 10
-20.5478878127
 20
-12.4173788814
 10
-20.6965322128
 20
-8.262695795
 10
-20.8167933296
 20
-4.1069021231
 10
-20.9086711632
 20
0.0500021342
  0
LINE
  5
283
100
AcDbEntity
  8
IMPORT_IGES
100
AcDbLine
 62
7
  6
CONTINUOUS
 10
-23.2639010993
 20
46.6447278728
 11
-23.2592275627
 21
46.571059146
  0
LWPOLYLINE
  5
284
100
AcDbEntity
  8
IMPORT_IGES
100
AcDbPolyline
 62
7
  6
CONTINUOUS
 90
4
 70
0
 10
-23.2592275627
 20
46.571059146
 10
-23.2546449115
 20
46.4883501995
 10
-23.2501875959
 20
46.3972243535
 10
-23.2458565597
 20
46.2976182767
  0
LINE
  5
285
100
AcDbEntity
  8
IMPORT_IGES
100
AcDbLine
 62
7
  6
CONTINUOUS
 10
-23.2458565597
 20
46.2976182767
 11
-23.237602113
 21
46.0739687386
  0
LINE
  5
286
100
AcDbEntity
  8
IMPORT_IGES
100
AcDbLine
 62
7
  6
CONTINUOUS
 10
-23.237602113
 20
46.0739687386
 11
-23.2299778453
 21
45.8197901828
  0
LINE
  5
287
100
AcDbEntity
  8
IMPORT_IGES
100
AcDbLine
 62
7
  6
CONTINUOUS
 10
-23.2299778453
 20
45.8197901828
 11
-23.2230670235
 21
45.5381032147
  0
LINE
  5
288
100
AcDbEntity
  8
IMPORT_IGES
100
AcDbLine
 62
7
  6
CONTINUOUS
 10
-23.2230670235
 20
45.5381032147
 11
-23.2169216243
 21
45.2310286434
  0
LINE
  5
289
100
AcDbEntity
  8
IMPORT_IGES
100
AcDbLine
 62
7
  6
CONTINUOUS
 10
-23.2169216243
 20
45.2310286434
 11
-23.2116151056
 21
44.9019399585
  0
LINE
  5
28A
100
AcDbEntity
  8
IMPORT_IGES
100
AcDbLine
 62
7
  6
CONTINUOUS
 10
-23.2116151056
 20
44.9019399585
 11
-23.2072035373
 21
44.5546682473
  0
LINE
  5
28B
100
AcDbEntity
  8
IMPORT_IGES
100
AcDbLine
 62
253
  6
CONTINUOUS
 10
-21.0204343503
 20
49.4671948314
 11
-21.0204343503
 21
11.7293170483
  0
LINE
  5
28C
100
AcDbEntity
  8
0
100
AcDbLine
 62
7
  6
CONTINUOUS
 10
-9.0
 20
-20.95
 11
-8.9440585504
 21
-20.95
  0
LINE
  5
28D
100
AcDbEntity
  8
0
100
AcDbLine
 62
7
  6
CONTINUOUS
 10
-7.0559414496
 20
-20.95
 11
-7.0
 21
-20.95
  0
LINE
  5
28E
100
AcDbEntity
  8
0
100
AcDbLine
 62
7
  6
CONTINUOUS
 10
-5.0
 20
-20.95
 11
-4.9440585504
 21
-20.95
  0
LINE
  5
28F
100
AcDbEntity
  8
0
100
AcDbLine
 62
7
  6
CONTINUOUS
 10
-3.0559414496
 20
-20.95
 11
-3.0
 21
-20.95
  0
LINE
  5
290
100
AcDbEntity
  8
0
100
AcDbLine
 62
7
  6
CONTINUOUS
 10
3.0
 20
-20.95
 11
3.0559414496
 21
-20.95
  0
LINE
  5
291
100
AcDbEntity
  8
0
100
AcDbLine
 62
7
  6
CONTINUOUS
 10
4.9440585504
 20
-20.95
 11
5.0
 21
-20.95
  0
LINE
  5
292
100
AcDbEntity
  8
0
100
AcDbLine
 62
7
  6
CONTINUOUS
 10
7.0
 20
-20.95
 11
7.0559414496
 21
-20.95
  0
LINE
  5
293
100
AcDbEntity
  8
0
100
AcDbLine
 62
7
  6
CONTINUOUS
 10
8.9440585504
 20
-20.95
 11
9.0
 21
-20.95
  0
LINE
  5
294
100
AcDbEntity
  8
IMPORT_IGES
100
AcDbLine
 62
7
  6
CONTINUOUS
 10
-8.9440585504
 20
-17.9919710042
 11
-9.1118839641
 21
-17.8660571924
  0
LINE
  5
295
100
AcDbEntity
  8
IMPORT_IGES
100
AcDbLine
 62
7
  6
CONTINUOUS
 10
20.1137801355
 20
-50.5143152903
 11
19.8831193106
 21
-50.2942884968
  0
LINE
  5
296
100
AcDbEntity
  8
IMPORT_IGES
100
AcDbLine
 62
7
  6
CONTINUOUS
 10
8.9440585504
 20
-45.8801051454
 11
9.1118839641
 21
-46.0897910397
  0
LINE
  5
297
100
AcDbEntity
  8
IMPORT_IGES
100
AcDbLine
 62
7
  6
CONTINUOUS
 10
-3.0559414496
 20
-28.8801051454
 11
-2.8881160359
 21
-29.0897910397
  0
LWPOLYLINE
  5
298
100
AcDbEntity
  8
0
100
AcDbPolyline
 62
7
  6
CONTINUOUS
 90
10
 70
0
 10
-14.8
 20
7.0909598214
 10
-14.8002797645
 20
7.0847267046
 10
-14.8009936327
 20
7.0788542376
 10
-14.8021483763
 20
7.0733426319
 10
-14.8037763735
 20
7.068180112
 10
-14.8058573991
 20
7.0633802469
 10
-14.8083185866
 20
7.058981066
 10
-14.8111386583
 20
7.054995614
 10
-14.8143479647
 20
7.0514128555
 10
-14.8179502476
 20
7.0482343728
  0
LWPOLYLINE
  5
299
100
AcDbEntity
  8
0
100
AcDbPolyline
 62
7
  6
CONTINUOUS
 90
8
 70
0
 10
-12.5154378147
 20
9.4393168027
 10
-12.5103923351
 20
9.4526157712
 10
-12.5056410684
 20
9.4666767608
 10
-12.501262412
 20
9.4813089632
 10
-12.4969994048
 20
9.4961983465
 10
-12.4928480776
 20
9.5111877847
 10
-12.4890865675
 20
9.5262641588
 10
-12.4858348663
 20
9.5413471805
  0
LINE
  5
29A
100
AcDbEntity
  8
0
100
AcDbLine
 62
7
  6
CONTINUOUS
 10
-12.5250060706
 20
9.415295045
 11
-12.5154378147
 21
9.4393168027
  0
LWPOLYLINE
  5
29B
100
AcDbEntity
  8
0
100
AcDbPolyline
 62
7
  6
CONTINUOUS
 90
10
 70
0
 10
-12.5250060706
 20
9.415295045
 10
-12.526967538
 20
9.4113952412
 10
-12.5291603504
 20
9.4076443164
 10
-12.5315874349
 20
9.4040538628
 10
-12.5342596915
 20
9.4006287952
 10
-12.5371709974
 20
9.3973867242
 10
-12.5402968675
 20
9.3943557705
 10
-12.5436283517
 20
9.3915494853
 10
-12.5471733358
 20
9.3889689311
 10
-12.550930643
 20
9.3866205834
  0
LWPOLYLINE
  5
29C
100
AcDbEntity
  8
0
100
AcDbPolyline
 62
253
  6
CONTINUOUS
 90
13
 70
0
 10
-13.2391304348
 20
9.1650035476
 10
-13.2461642218
 20
9.1527348086
 10
-13.2532750715
 20
9.1405358457
 10
-13.2603202568
 20
9.1286515206
 10
-13.2671583591
 20
9.1173203952
 10
-13.2736521126
 20
9.1067699342
 10
-13.2796711582
 20
9.09721194
 10
-13.2850946642
 20
9.0888382967
 10
-13.2898137234
 20
9.0818171626
 10
-13.2937335583
 20
9.0762895592
 10
-13.2967754592
 20
9.0723664856
 10
-13.298878351
 20
9.0701267152
 10
-13.3000000003
 20
9.0696152425
  0
LWPOLYLINE
  5
29D
100
AcDbEntity
  8
0
100
AcDbPolyline
 62
253
  6
CONTINUOUS
 90
13
 70
0
 10
-14.9637681159
 20
8.9892882483
 10
-14.9570875651
 20
9.0006543393
 10
-14.9502834992
 20
9.011712989
 10
-14.9434744927
 20
9.0222714784
 10
-14.9367792064
 20
9.0321458043
 10
-14.930314319
 20
9.0411638869
 10
-14.9241924944
 20
9.0491685677
 10
-14.9185204175
 20
9.0560203492
 10
-14.9133969359
 20
9.0615998253
 10
-14.9089113365
 20
9.0658097624
 10
-14.9051417901
 20
9.068576794
 10
-14.9021539884
 20
9.069852699
 10
-14.9
 20
9.0696152423
  0
LINE
  5
29E
100
AcDbEntity
  8
IMPORT_IGES
100
AcDbLine
 62
7
  6
CONTINUOUS
 10
-8.9440585504
 20
-17.9919710042
 11
-7.0559414496
 21
-17.9919710042
  0
LINE
  5
29F
100
AcDbEntity
  8
IMPORT_IGES
100
AcDbLine
 62
7
  6
CONTINUOUS
 10
-4.9440585504
 20
-17.9919710042
 11
-3.0559414496
 21
-17.9919710042
  0
LINE
  5
2A0
100
AcDbEntity
  8
IMPORT_IGES
100
AcDbLine
 62
7
  6
CONTINUOUS
 10
-0.9440585504
 20
-17.9919710042
 11
0.9440585504
 21
-17.9919710042
  0
LINE
  5
2A1
100
AcDbEntity
  8
IMPORT_IGES
100
AcDbLine
 62
7
  6
CONTINUOUS
 10
3.0559414496
 20
-17.9919710042
 11
4.9440585504
 21
-17.9919710042
  0
LINE
  5
2A2
100
AcDbEntity
  8
IMPORT_IGES
100
AcDbLine
 62
7
  6
CONTINUOUS
 10
7.0559414496
 20
-17.9919710042
 11
8.9440585504
 21
-17.9919710042
  0
LINE
  5
2A3
100
AcDbEntity
  8
IMPORT_IGES
100
AcDbLine
 62
7
  6
CONTINUOUS
 10
-9.1118839641
 20
-17.8660571924
 11
-6.8881160359
 21
-17.8660571924
  0
LINE
  5
2A4
100
AcDbEntity
  8
IMPORT_IGES
100
AcDbLine
 62
7
  6
CONTINUOUS
 10
-5.1118839641
 20
-17.8660571924
 11
-2.8881160359
 21
-17.8660571924
  0
LINE
  5
2A5
100
AcDbEntity
  8
IMPORT_IGES
100
AcDbLine
 62
7
  6
CONTINUOUS
 10
-1.1118839641
 20
-17.8660571924
 11
1.1118839641
 21
-17.8660571924
  0
LINE
  5
2A6
100
AcDbEntity
  8
IMPORT_IGES
100
AcDbLine
 62
7
  6
CONTINUOUS
 10
3.0
 20
-17.8660571924
 11
5.1118839641
 21
-17.8660571924
  0
LINE
  5
2A7
100
AcDbEntity
  8
IMPORT_IGES
100
AcDbLine
 62
7
  6
CONTINUOUS
 10
6.8881160359
 20
-17.8660571924
 11
9.1118839641
 21
-17.8660571924
  0
LINE
  5
2A8
100
AcDbEntity
  8
IMPORT_IGES
100
AcDbLine
 62
7
  6
CONTINUOUS
 10
9.0000000006
 20
-14.9796615912
 11
-9.0000000006
 21
-14.9796615917
  0
LINE
  5
2A9
100
AcDbEntity
  8
IMPORT_IGES
100
AcDbLine
 62
7
  6
CONTINUOUS
 10
-4.9440585504
 20
-17.9919710042
 11
-5.1118839641
 21
-17.8660571924
  0
LWPOLYLINE
  5
2AA
100
AcDbEntity
  8
IMPORT_IGES
100
AcDbPolyline
 62
7
  6
CONTINUOUS
 90
10
 70
0
 10
-12.05958426
 20
-9.2636429786
 10
-12.0384568959
 20
-9.285631549
 10
-12.0196928619
 20
-9.3088561978
 10
-12.0032921579
 20
-9.3333169251
 10
-11.9891568509
 20
-9.3591236503
 10
-11.9773848738
 20
-9.386166454
 10
-11.9682700263
 20
-9.4141155778
 10
-11.9619102413
 20
-9.4428611023
 10
-11.9582075858
 20
-9.4725129468
 10
-11.9571620598
 20
-9.5030711114
  0
LWPOLYLINE
  5
2AB
100
AcDbEntity
  8
IMPORT_IGES
100
AcDbPolyline
 62
7
  6
CONTINUOUS
 90
10
 70
0
 10
-11.1190304837
 20
-10.6922938895
 10
-11.1446649219
 20
-10.6648429046
 10
-11.1675414679
 20
-10.6358498672
 10
-11.1876601215
 20
-10.6053147774
 10
-11.2047157021
 20
-10.5729187428
 10
-11.2190133904
 20
-10.5389806558
 10
-11.2314687287
 20
-10.5044571935
 10
-11.2423868979
 20
-10.4696672483
 10
-11.251462717
 20
-10.4342919278
 10
-11.2586961862
 20
-10.3983312321
  0
LINE
  5
2AC
100
AcDbEntity
  8
IMPORT_IGES
100
AcDbLine
 62
7
  6
CONTINUOUS
 10
0.9440585504
 20
-28.8801051454
 11
1.1118839641
 21
-29.0897910397
  0
LWPOLYLINE
  5
2AD
100
AcDbEntity
  8
0
100
AcDbPolyline
 62
253
  6
CONTINUOUS
 90
13
 70
0
 10
-14.9130434783
 20
8.9014305987
 10
-14.9134499756
 20
8.9103292336
 10
-14.9145872976
 20
8.9190304452
 10
-14.9164626234
 20
8.9275462104
 10
-14.919118117
 20
8.9359578473
 10
-14.9225246845
 20
8.9442026458
 10
-14.9265878669
 20
8.952068669
 10
-14.9313414034
 20
8.9595296872
 10
-14.9367758775
 20
8.966606883
 10
-14.9427393328
 20
8.973148027
 10
-14.9491906029
 20
8.9790930819
 10
-14.9561964814
 20
8.9844779357
 10
-14.9637681159
 20
8.9892882483
  0
LWPOLYLINE
  5
2AE
100
AcDbEntity
  8
IMPORT_IGES
100
AcDbPolyline
 62
7
  6
CONTINUOUS
 90
13
 70
0
 10
-11.7110842839
 20
-9.508390826
 10
-11.7127348914
 20
-9.4719800271
 10
-11.7163893834
 20
-9.4360962694
 10
-11.7220477597
 20
-9.4007395529
 10
-11.729499519
 20
-9.3657277139
 10
-11.7389551626
 20
-9.331242916
 10
-11.7510461948
 20
-9.2978316501
 10
-11.7661870096
 20
-9.2656150802
 10
-11.7839632129
 20
-9.2344720422
 10
-11.803763126
 20
-9.2045855345
 10
-11.8253828561
 20
-9.1760165565
 10
-11.8490262961
 20
-9.1487041088
 10
-11.8746934459
 20
-9.1226481914
  0
LWPOLYLINE
  5
2AF
100
AcDbEntity
  8
0
100
AcDbPolyline
 62
253
  6
CONTINUOUS
 90
10
 70
0
 10
-12.1913993252
 20
8.6165498567
 10
-12.1913559341
 20
8.6094515737
 10
-12.1918192691
 20
8.6022498916
 10
-12.1927905945
 20
8.5949507279
 10
-12.1942590866
 20
8.5875402061
 10
-12.1962382477
 20
8.5800444468
 10
-12.1987650842
 20
8.5725298278
 10
-12.2018519221
 20
8.5650230421
 10
-12.2054872235
 20
8.5575108396
 10
-12.2096714284
 20
8.55
  0
LWPOLYLINE
  5
2B0
100
AcDbEntity
  8
0
100
AcDbPolyline
 62
7
  6
CONTINUOUS
 90
8
 70
0
 10
-14.8969071777
 20
10.0952142235
 10
-14.8968404557
 20
10.0816967191
 10
-14.8964777597
 20
10.0682866677
 10
-14.8958311208
 20
10.0551504092
 10
-14.8950840303
 20
10.0424954734
 10
-14.8942308497
 20
10.030514104
 10
-14.8930944793
 20
10.0193708168
 10
-14.8915920599
 20
10.0092485071
  0
LINE
  5
2B1
100
AcDbEntity
  8
0
100
AcDbLine
 62
7
  6
CONTINUOUS
 10
-14.8
 20
8.8964101615
 11
-14.8
 21
7.0909598214
  0
LINE
  5
2B2
100
AcDbEntity
  8
0
100
AcDbLine
 62
7
  6
CONTINUOUS
 10
-14.0
 20
7.5107695155
 11
-14.0
 21
6.8767588333
  0
LINE
  5
2B3
100
AcDbEntity
  8
0
100
AcDbLine
 62
253
  6
CONTINUOUS
 10
-13.8985507246
 20
7.4957082041
 11
-13.8985507246
 21
6.7430209385
  0
LINE
  5
2B4
100
AcDbEntity
  8
IMPORT_IGES
100
AcDbLine
 62
7
  6
CONTINUOUS
 10
-12.0
 20
-45.9796690909
 11
-12.0
 21
-17.9796690909
  0
LINE
  5
2B5
100
AcDbEntity
  8
IMPORT_IGES
100
AcDbLine
 62
7
  6
CONTINUOUS
 10
-11.7084244266
 20
-10.9249995172
 11
-11.7084244266
 21
-10.6948846102
  0
LINE
  5
2B6
100
AcDbEntity
  8
0
100
AcDbLine
 62
253
  6
CONTINUOUS
 10
-14.9130434783
 20
6.9873686004
 11
-14.9130638243
 21
8.3112529896
  0
LWPOLYLINE
  5
2B7
100
AcDbEntity
  8
0
100
AcDbPolyline
 62
253
  6
CONTINUOUS
 90
3
 70
0
 10
-14.9130638243
 20
8.3112529896
 10
-14.912959384
 20
8.8247772138
 10
-14.9130434783
 20
8.9014305987
  0
LINE
  5
2B8
100
AcDbEntity
  8
0
100
AcDbLine
 62
7
  6
CONTINUOUS
 10
-14.8967567497
 20
10.1220345468
 11
-14.8969071777
 21
10.0952142235
  0
LWPOLYLINE
  5
2B9
100
AcDbEntity
  8
IMPORT_IGES
100
AcDbPolyline
 62
7
  6
CONTINUOUS
 90
10
 70
0
 10
-12.7060366795
 20
-9.5562757075
 10
-12.7053045531
 20
-9.5210782121
 10
-12.7019843537
 20
-9.4864632393
 10
-12.6960760812
 20
-9.452430789
 10
-12.6877768574
 20
-9.4186662825
 10
-12.6768895605
 20
-9.3854842985
 10
-12.6628228251
 20
-9.3538285739
 10
-12.6453795293
 20
-9.3240136876
 10
-12.6247567949
 20
-9.2957250607
 10
-12.600954622
 20
-9.2689626932
  0
LWPOLYLINE
  5
2BA
100
AcDbEntity
  8
IMPORT_IGES
100
AcDbPolyline
 62
253
  6
CONTINUOUS
 90
37
 70
0
 10
-7.7819690124
 20
47.5992318357
 10
-7.7774714607
 20
47.6581542815
 10
-7.7710406979
 20
47.7173700966
 10
-7.7626566136
 20
47.7768306181
 10
-7.7522876658
 20
47.8365511315
 10
-7.739924479
 20
47.8964111825
 10
-7.7256007885
 20
47.9561589475
 10
-7.7093236143
 20
48.0157278485
 10
-7.6910940261
 20
48.0750764448
 10
-7.6709714072
 20
48.1339966752
 10
-7.6489759762
 20
48.1924348853
 10
-7.6251278276
 20
48.2503383967
 10
-7.5995148462
 20
48.307509188
 10
-7.5721939604
 20
48.3638535862
 10
-7.5431797272
 20
48.4193687483
 10
-7.5125106694
 20
48.4739986127
 10
-7.4802268467
 20
48.527686539
 10
-7.446358623
 20
48.5803925579
 10
-7.410929076
 20
48.6320850156
 10
-7.3739829655
 20
48.6826994198
 10
-7.335543323
 20
48.7322019939
 10
-7.2955937521
 20
48.7806018404
 10
-7.2541261459
 20
48.8278851169
 10
-7.2112032835
 20
48.8739545613
 10
-7.1669157905
 20
48.9186946315
 10
-7.1212557477
 20
48.9620947807
 10
-7.0742982129
 20
49.0040631164
 10
-7.026279765
 20
49.0443854959
 10
-6.9772892069
 20
49.0830012895
 10
-6.9273381685
 20
49.1199130646
 10
-6.8765681198
 20
49.155029745
 10
-6.8250372099
 20
49.1883295
 10
-6.7727917447
 20
49.2197990536
 10
-6.7199643105
 20
49.2493785029
 10
-6.6666360422
 20
49.2770477571
 10
-6.6128315201
 20
49.3028180725
 10
-6.558600742
 20
49.3266867157
  0
LWPOLYLINE
  5
2BB
100
AcDbEntity
  8
IMPORT_IGES
100
AcDbPolyline
 62
253
  6
CONTINUOUS
 90
16
 70
0
 10
-6.6434619363
 20
47.4407255771
 10
-6.6361064475
 20
47.5160350134
 10
-6.6234162792
 20
47.5897227432
 10
-6.6053914315
 20
47.6617887665
 10
-6.5818694556
 20
47.7325975868
 10
-6.5530128002
 20
47.8017847006
 10
-6.5193088113
 20
47.8682565979
 10
-6.4806869458
 20
47.9319756033
 10
-6.4372177467
 20
47.9929793921
 10
-6.3896001903
 20
48.0502874807
 10
-6.3377713583
 20
48.1038478218
 10
-6.2817941688
 20
48.1537124627
 10
-6.2225563523
 20
48.1990570619
 10
-6.1603538187
 20
48.2396068389
 10
-6.0948906581
 20
48.2756365742
 10
-6.0261668705
 20
48.3071462678
  0
LINE
  5
2BC
100
AcDbEntity
  8
IMPORT_IGES
100
AcDbLine
 62
253
  6
CONTINUOUS
 10
6.0260967205
 20
48.3071706857
 11
6.4070019462
 21
49.2317435907
  0
LINE
  5
2BD
100
AcDbEntity
  8
IMPORT_IGES
100
AcDbLine
 62
253
  6
CONTINUOUS
 10
6.558601501
 20
49.3266885465
 11
6.7518844652
 21
49.7877987911
  0
LWPOLYLINE
  5
2BE
100
AcDbEntity
  8
0
100
AcDbPolyline
 62
253
  6
CONTINUOUS
 90
10
 70
0
 10
-12.2096714284
 20
8.55
 10
-12.2139563159
 20
8.5433330111
 10
-12.2186432997
 20
8.5368915235
 10
-12.2237303081
 20
8.530678238
 10
-12.2292497611
 20
8.5246549163
 10
-12.2351655924
 20
8.5188649326
 10
-12.2413718532
 20
8.5134307806
 10
-12.2478308005
 20
8.5083917845
 10
-12.2545742982
 20
8.5037065967
 10
-12.2615998524
 20
8.4993739973
  0
LINE
  5
2BF
100
AcDbEntity
  8
IMPORT_IGES
100
AcDbLine
 62
253
  6
CONTINUOUS
 10
-7.6417266989
 20
12.6010296738
 11
-7.7819690965
 21
12.5007681298
  0
LWPOLYLINE
  5
2C0
100
AcDbEntity
  8
0
100
AcDbPolyline
 62
253
  6
CONTINUOUS
 90
13
 70
0
 10
-13.847826087
 20
7.5835658538
 10
-13.855329297
 20
7.5787644859
 10
-13.8622961169
 20
7.5734289199
 10
-13.868733329
 20
7.56754695
 10
-13.8746902737
 20
7.5610414019
 10
-13.8801271903
 20
7.5539688264
 10
-13.8849077697
 20
7.5465169964
 10
-13.8889924273
 20
7.5386698087
 10
-13.8924042151
 20
7.5304248258
 10
-13.8950872792
 20
7.5219897573
 10
-13.8970102098
 20
7.5134302722
 10
-13.8981706891
 20
7.5046705826
 10
-13.8985507246
 20
7.4957082041
  0
LINE
  5
2C1
100
AcDbEntity
  8
IMPORT_IGES
100
AcDbLine
 62
253
  6
CONTINUOUS
 10
-6.5586015018
 20
10.7733114539
 11
-6.407001946
 21
10.8682564093
  0
LWPOLYLINE
  5
2C2
100
AcDbEntity
  8
0
100
AcDbPolyline
 62
7
  6
CONTINUOUS
 90
8
 70
0
 10
-14.889741183
 20
7.0006484875
 10
-14.8780680417
 20
7.0074650227
 10
-14.8666359446
 20
7.0144841523
 10
-14.8555829305
 20
7.0216122873
 10
-14.8449969798
 20
7.0285867546
 10
-14.8350473998
 20
7.0353163153
 10
-14.8259652153
 20
7.0418720845
 10
-14.8179502476
 20
7.0482343728
  0
LINE
  5
2C3
100
AcDbEntity
  8
0
100
AcDbLine
 62
253
  6
CONTINUOUS
 10
-13.1376811594
 20
9.1650035476
 11
-12.4858348663
 21
9.5413471805
  0
LINE
  5
2C4
100
AcDbEntity
  8
0
100
AcDbLine
 62
7
  6
CONTINUOUS
 10
-13.1
 20
9.0696152423
 11
-12.550930643
 21
9.3866205834
  0
LINE
  5
2C5
100
AcDbEntity
  8
0
100
AcDbLine
 62
7
  6
CONTINUOUS
 10
-12.2910855815
 20
8.6128817689
 11
-13.9
 21
7.6839745962
  0
LINE
  5
2C6
100
AcDbEntity
  8
0
100
AcDbLine
 62
253
  6
CONTINUOUS
 10
-12.2615998524
 20
8.4993739973
 11
-13.7041297051
 21
7.6665289985
  0
LINE
  5
2C7
100
AcDbEntity
  8
0
100
AcDbLine
 62
253
  6
CONTINUOUS
 10
-13.7041297051
 20
7.6665289985
 11
-13.847826087
 21
7.5835658538
  0
LINE
  5
2C8
100
AcDbEntity
  8
0
100
AcDbLine
 62
7
  6
CONTINUOUS
 10
-14.9130434783
 20
6.9873686004
 11
-14.889741183
 21
7.0006484875
  0
LWPOLYLINE
  5
2C9
100
AcDbEntity
  8
IMPORT_IGES
100
AcDbPolyline
 62
7
  6
CONTINUOUS
 90
46
 70
0
 10
4.3962369673
 20
-11.7120788514
 10
4.3342461581
 20
-11.7144237409
 10
4.2735037415
 20
-11.7148345698
 10
4.2140097176
 20
-11.7133113384
 10
4.1558214821
 20
-11.7097807254
 10
4.0988816391
 20
-11.7043160519
 10
4.0430180013
 20
-11.6971372813
 10
3.9882899776
 20
-11.6882667094
 10
3.934638159
 20
-11.6776820404
 10
3.8817121309
 20
-11.6655363501
 10
3.8294673064
 20
-11.6518805291
 10
3.7779482724
 20
-11.6366636867
 10
3.7269383743
 20
-11.6198862274
 10
3.67640733
 20
-11.6015762974
 10
3.6263854216
 20
-11.5817057503
 10
3.5767468408
 20
-11.5601905515
 10
3.5273644708
 20
-11.5369783131
 10
3.4783654285
 20
-11.5121214229
 10
3.4300052561
 20
-11.4856930101
 10
3.382256417
 20
-11.4576471789
 10
3.3351464478
 20
-11.4280298251
 10
3.2890135007
 20
-11.3970517645
 10
3.2437852161
 20
-11.3646072809
 10
3.1995339535
 20
-11.3308020905
 10
3.1568149434
 20
-11.2961641581
 10
3.1157208928
 20
-11.2607261431
 10
3.0761590946
 20
-11.2244553862
 10
3.0384066579
 20
-11.187781873
 10
3.0026790169
 20
-11.1509519078
 10
2.9687607374
 20
-11.1137191865
 10
2.9362826264
 20
-11.0757747818
 10
2.9052118877
 20
-11.0372223553
 10
2.8755813175
 20
-10.9979582455
 10
2.8471201111
 20
-10.9573625415
 10
2.8197846405
 20
-10.915419732
 10
2.7936185336
 20
-10.8721453283
 10
2.7684818689
 20
-10.8269659536
 10
2.7444517402
 20
-10.7798209956
 10
2.7214510537
 20
-10.7307710668
 10
2.6991086058
 20
-10.6794246273
 10
2.6775107568
 20
-10.6258140827
 10
2.6565711464
 20
-10.5699070275
 10
2.6356594902
 20
-10.5112147058
 10
2.6145656935
 20
-10.449574199
 10
2.593499851
 20
-10.3851484257
 10
2.5724619627
 20
-10.317937386
  0
LINE
  5
2CA
100
AcDbEntity
  8
IMPORT_IGES
100
AcDbLine
 62
7
  6
CONTINUOUS
 10
7.4020000175
 20
-12.932275337
 11
12.5979995355
 21
-12.932275337
  0
LINE
  5
2CB
100
AcDbEntity
  8
IMPORT_IGES
100
AcDbLine
 62
7
  6
CONTINUOUS
 10
12.5979995355
 20
-11.9322770357
 11
7.4020000175
 21
-11.9322770357
  0
LWPOLYLINE
  5
2CC
100
AcDbEntity
  8
IMPORT_IGES
100
AcDbPolyline
 62
7
  6
CONTINUOUS
 90
103
 70
0
 10
0.0976879965
 20
-11.7120825767
 10
0.0384640004
 20
-11.7119845959
 10
-0.0196604017
 20
-11.7109431787
 10
-0.0766852099
 20
-11.7089583249
 10
-0.1325257989
 20
-11.7062616919
 10
-0.1872667939
 20
-11.7026216223
 10
-0.2411620707
 20
-11.6973431449
 10
-0.2941849363
 20
-11.690235233
 10
-0.3463620836
 20
-11.6814889132
 10
-0.3980274673
 20
-11.6709822936
 10
-0.4492016217
 20
-11.6586643938
 10
-0.4998640125
 20
-11.6445861941
 10
-0.550286991
 20
-11.6287787437
 10
-0.6005051281
 20
-11.6112846308
 10
-0.650483853
 20
-11.5920612672
 10
-0.700391804
 20
-11.5710119377
 10
-0.7503720703
 20
-11.5481018997
 10
-0.8002815628
 20
-11.5233658958
 10
-0.8498596526
 20
-11.4968114391
 10
-0.8992686332
 20
-11.468318813
 10
-0.9483462112
 20
-11.438007734
 10
-0.9963448779
 20
-11.4062448643
 10
-1.043114219
 20
-11.3730692385
 10
-1.0888046488
 20
-11.3384418219
 10
-1.1331199018
 20
-11.3026121727
 10
-1.1759642706
 20
-11.2656484429
 10
-1.2174334625
 20
-11.2274824804
 10
-1.2575183343
 20
-11.1881593879
 10
-1.2962106235
 20
-11.1476924373
 10
-1.3335185925
 20
-11.1060683566
 10
-1.3694578857
 20
-11.0632924322
 10
-1.4040640265
 20
-11.0193207165
 10
-1.4373014914
 20
-10.9741971571
 10
-1.4690793541
 20
-10.9280588834
 10
-1.4993950192
 20
-10.8809156415
 10
-1.5282510821
 20
-10.8327576854
 10
-1.555564402
 20
-10.7836929057
 10
-1.5813502955
 20
-10.7336801074
 10
-1.605593446
 20
-10.6827604857
 10
-1.6281647634
 20
-10.6311655171
 10
-1.6490336512
 20
-10.5789250562
 10
-1.6682307059
 20
-10.5260092484
 10
-1.6857186267
 20
-10.4725600063
 10
-1.7014986418
 20
-10.4185665969
 10
-1.715569523
 20
-10.3640397532
 10
-1.7278902861
 20
-10.3091535868
 10
-1.7384594076
 20
-10.2539223237
 10
-1.7472784109
 20
-10.198331738
 10
-1.7543108819
 20
-10.1425132637
 10
-1.7595496635
 20
-10.0864322207
 10
-1.7630019128
 20
-10.0301232892
 10
-1.7646526865
 20
-9.9738219439
 10
-1.7644906745
 20
-9.9175644676
 10
-1.7625271869
 20
-9.8613145775
 10
-1.7587812112
 20
-9.8051989004
 10
-1.7532533058
 20
-9.7492012871
 10
-1.7459429123
 20
-9.6933378868
 10
-1.7368673424
 20
-9.6377837737
 10
-1.7260242484
 20
-9.5825422762
 10
-1.713415978
 20
-9.5276100659
 10
-1.699066886
 20
-9.4731522318
 10
-1.6829529219
 20
-9.4191450561
 10
-1.6650981364
 20
-9.3656122565
 10
-1.6455990357
 20
-9.3127900754
 10
-1.6244615363
 20
-9.2607115619
 10
-1.6016797218
 20
-9.2093436669
 10
-1.5773323489
 20
-9.158823485
 10
-1.5514230619
 20
-9.1091514517
 10
-1.5239482164
 20
-9.0603271316
 10
-1.4949756364
 20
-9.0124863128
 10
-1.4645503024
 20
-8.965691528
 10
-1.4326272339
 20
-8.9198802444
 10
-1.3991393133
 20
-8.8750006523
 10
-1.364075172
 20
-8.8310249375
 10
-1.3274461787
 20
-8.7879809141
 10
-1.2892193225
 20
-8.7459002143
 10
-1.2492439865
 20
-8.7046533983
 10
-1.2076707875
 20
-8.664369906
 10
-1.1649185654
 20
-8.6254696887
 10
-1.1209443681
 20
-8.5879842822
 10
-1.0757911476
 20
-8.5518821508
 10
-1.0300066
 20
-8.5174886386
 10
-0.9837159088
 20
-8.4848949969
 10
-0.9367938906
 20
-8.4540099744
 10
-0.889412691
 20
-8.4248851607
 10
-0.8416416326
 20
-8.3975327509
 10
-0.7934113928
 20
-8.3719405499
 10
-0.7446861492
 20
-8.3481235621
 10
-0.6955492777
 20
-8.3260704112
 10
-0.6459174025
 20
-8.3057924735
 10
-0.5955045731
 20
-8.2873388824
 10
-0.544293711
 20
-8.2707395559
 10
-0.4923018948
 20
-8.255964576
 10
-0.4392944096
 20
-8.2429733223
 10
-0.3853145675
 20
-8.2319047926
 10
-0.3303190564
 20
-8.222619989
 10
-0.2739432253
 20
-8.214661298
 10
-0.2162010874
 20
-8.2080705261
 10
-0.1570786296
 20
-8.2028058668
 10
-0.0961691614
 20
-8.1982842859
 10
-0.0333371192
 20
-8.1943114385
 10
0.0312819334
 20
-8.1910816696
 10
0.0976879965
 20
-8.188594979
  0
LWPOLYLINE
  5
2CD
100
AcDbEntity
  8
IMPORT_IGES
100
AcDbPolyline
 62
7
  6
CONTINUOUS
 90
13
 70
0
 10
-10.878273359
 20
-10.9796069038
 10
-10.917357514
 20
-10.9785865902
 10
-10.9560239735
 20
-10.9756766403
 10
-10.9942727375
 20
-10.9708770539
 10
-11.0322688939
 20
-10.9644348121
 10
-11.0698473549
 20
-10.9561029339
 10
-11.1065128567
 20
-10.9451404767
 10
-11.1421284754
 20
-10.9311387506
 10
-11.1768311349
 20
-10.9145064456
 10
-11.2105363441
 20
-10.8957286891
 10
-11.2432159389
 20
-10.87496719
 10
-11.2748980833
 20
-10.8520602395
 10
-11.3055827773
 20
-10.8270078373
  0
LINE
  5
2CE
100
AcDbEntity
  8
IMPORT_IGES
100
AcDbLine
 62
7
  6
CONTINUOUS
 10
-11.2347534545
 20
-9.5350659859
 11
-11.4741806559
 21
-9.492500819
  0
LWPOLYLINE
  5
2CF
100
AcDbEntity
  8
IMPORT_IGES
100
AcDbPolyline
 62
7
  6
CONTINUOUS
 90
6
 70
0
 10
-5.1353548495
 20
-10.1175599199
 10
-5.1099650398
 20
-10.1280194626
 10
-5.0843453699
 20
-10.1378790684
 10
-5.0584489089
 20
-10.1470012732
 10
-5.0323225877
 20
-10.1555235411
 10
-5.0059664063
 20
-10.163445872
  0
LWPOLYLINE
  5
2D0
100
AcDbEntity
  8
IMPORT_IGES
100
AcDbPolyline
 62
7
  6
CONTINUOUS
 90
4
 70
0
 10
-5.2361642011
 20
-10.074258697
 10
-5.2110837324
 20
-10.0853309534
 10
-5.1859141958
 20
-10.0962156653
 10
-5.1353548495
 20
-10.1175599199
  0
LWPOLYLINE
  5
2D1
100
AcDbEntity
  8
IMPORT_IGES
100
AcDbPolyline
 62
7
  6
CONTINUOUS
 90
10
 70
0
 10
-10.593755413
 20
-9.0564779413
 10
-10.6248019841
 20
-9.0425548387
 10
-10.6562545092
 20
-9.0300810374
 10
-10.6881129883
 20
-9.0190565374
 10
-10.7203849926
 20
-9.0093443982
 10
-10.7530629509
 20
-9.0010815602
 10
-10.7861241498
 20
-8.9946788448
 10
-10.8195610182
 20
-8.9902731924
 10
-10.8533811271
 20
-8.9877276626
 10
-10.8875844766
 20
-8.9870422554
  0
LWPOLYLINE
  5
2D2
100
AcDbEntity
  8
IMPORT_IGES
100
AcDbPolyline
 62
7
  6
CONTINUOUS
 90
10
 70
0
 10
-9.0256603435
 20
-9.0311438858
 10
-9.0546406392
 20
-9.0177167485
 10
-9.0840362315
 20
-9.0058100734
 10
-9.1138471204
 20
-8.9954238606
 10
-9.1440948078
 20
-8.9864846223
 10
-9.1747577919
 20
-8.9790658463
 10
-9.2057715663
 20
-8.9733879961
 10
-9.2371146291
 20
-8.9695245595
 10
-9.2688084822
 20
-8.9674020488
 10
-9.3008531258
 20
-8.9670204639
  0
LINE
  5
2D3
100
AcDbEntity
  8
IMPORT_IGES
100
AcDbLine
 62
7
  6
CONTINUOUS
 10
-0.9440585504
 20
-17.9919710042
 11
-1.1118839641
 21
-17.8660571924
  0
LINE
  5
2D4
100
AcDbEntity
  8
IMPORT_IGES
100
AcDbLine
 62
7
  6
CONTINUOUS
 10
3.0559414496
 20
-17.9919710042
 11
3.0
 21
-17.95
  0
LWPOLYLINE
  5
2D5
100
AcDbEntity
  8
IMPORT_IGES
100
AcDbPolyline
 62
7
  6
CONTINUOUS
 90
13
 70
0
 10
-11.8746934459
 20
-9.1226481914
 10
-11.9058811297
 20
-9.0959668307
 10
-11.9383614379
 20
-9.0718139779
 10
-11.9721343704
 20
-9.0501896329
 10
-12.0073316118
 20
-9.031038512
 10
-12.0438214775
 20
-9.0144158989
 10
-12.0812089141
 20
-9.0004876455
 10
-12.11953369
 20
-8.9895612921
 10
-12.1587560367
 20
-8.9813292983
 10
-12.1983615954
 20
-8.9750348955
 10
-12.2381789133
 20
-8.9704258273
 10
-12.2783794431
 20
-8.9677543502
 10
-12.3189631849
 20
-8.9670204639
  0
LWPOLYLINE
  5
2D6
100
AcDbEntity
  8
IMPORT_IGES
100
AcDbPolyline
 62
7
  6
CONTINUOUS
 90
10
 70
0
 10
-10.6528089331
 20
-9.2710323107
 10
-10.633932723
 20
-9.291126223
 10
-10.617246981
 20
-9.3123240783
 10
-10.602751707
 20
-9.3346258765
 10
-10.5904006803
 20
-9.3581467449
 10
-10.5802401216
 20
-9.3827715562
 10
-10.5724086931
 20
-9.4081549288
 10
-10.5669526155
 20
-9.4341817356
 10
-10.563825668
 20
-9.4609671037
 10
-10.5630278507
 20
-9.4885110331
  0
LWPOLYLINE
  5
2D7
100
AcDbEntity
  8
IMPORT_IGES
100
AcDbPolyline
 62
7
  6
CONTINUOUS
 90
10
 70
0
 10
-10.5829800399
 20
-10.103038646
 10
-10.5599374269
 20
-10.1283127594
 10
-10.5396587686
 20
-10.1549253519
 10
-10.522144065
 20
-10.1828764237
 10
-10.5073881743
 20
-10.2123253128
 10
-10.4953962383
 20
-10.243112681
 10
-10.4861836821
 20
-10.2747605144
 10
-10.4797556475
 20
-10.3071094749
 10
-10.4761069927
 20
-10.3403189005
 10
-10.4752377177
 20
-10.3743887913
  0
LWPOLYLINE
  5
2D8
100
AcDbEntity
  8
IMPORT_IGES
100
AcDbPolyline
 62
7
  6
CONTINUOUS
 90
13
 70
0
 10
-9.7442828119
 20
-10.7564562082
 10
-9.7156125443
 20
-10.7881414961
 10
-9.6852801768
 20
-10.8174906709
 10
-9.6532857095
 20
-10.8445037327
 10
-9.6196149476
 20
-10.869566623
 10
-9.5842820859
 20
-10.8922934002
 10
-9.5473297084
 20
-10.9115262397
 10
-9.508432664
 20
-10.9266191906
 10
-9.4679161039
 20
-10.9382182038
 10
-9.4267980662
 20
-10.9471033069
 10
-9.385417897
 20
-10.9535345092
 10
-9.3434362501
 20
-10.9572518015
 10
-9.3008531258
 20
-10.9582551837
  0
LWPOLYLINE
  5
2D9
100
AcDbEntity
  8
IMPORT_IGES
100
AcDbPolyline
 62
7
  6
CONTINUOUS
 90
10
 70
0
 10
-10.3169500165
 20
-10.0551537645
 10
-10.3412158256
 20
-10.0281540979
 10
-10.366879714
 20
-10.0031781652
 10
-10.3939416818
 20
-9.9802259664
 10
-10.4224029402
 20
-9.9591539673
 10
-10.452262278
 20
-9.9401057021
 10
-10.4835160613
 20
-9.9235117734
 10
-10.5161630788
 20
-9.9095157151
 10
-10.5502045417
 20
-9.8979739933
 10
-10.5856404501
 20
-9.8888866079
  0
LINE
  5
2DA
100
AcDbEntity
  8
IMPORT_IGES
100
AcDbLine
 62
7
  6
CONTINUOUS
 10
4.9440585504
 20
-28.8801051454
 11
5.1118839641
 21
-29.0897910397
  0
LWPOLYLINE
  5
2DB
100
AcDbEntity
  8
IMPORT_IGES
100
AcDbPolyline
 62
7
  6
CONTINUOUS
 90
13
 70
0
 10
-9.0244952589
 20
-9.3237207353
 10
-9.0414715534
 20
-9.3015165355
 10
-9.0595735144
 20
-9.2805394541
 10
-9.078801142
 20
-9.2607894911
 10
-9.0991027165
 20
-9.2419275395
 10
-9.1205299576
 20
-9.2242927064
 10
-9.1432380242
 20
-9.2089023124
 10
-9.1673964543
 20
-9.1961145185
 10
-9.1928357098
 20
-9.1855711638
 10
-9.2192023359
 20
-9.1772150866
 10
-9.2463785143
 20
-9.171027233
 10
-9.2744820634
 20
-9.1670266569
 10
-9.303512983
 20
-9.1652133584
  0
LWPOLYLINE
  5
2DC
100
AcDbEntity
  8
IMPORT_IGES
100
AcDbPolyline
 62
7
  6
CONTINUOUS
 90
13
 70
0
 10
-9.5788538456
 20
-10.6031046331
 10
-9.5619800865
 20
-10.6253000954
 10
-9.5439766188
 20
-10.646265649
 10
-9.5248434425
 20
-10.6660012941
 10
-9.5046320343
 20
-10.6848452996
 10
-9.4832909176
 20
-10.7024593965
 10
-9.4606656621
 20
-10.7178287774
 10
-9.4365857257
 20
-10.7305960692
 10
-9.4112216506
 20
-10.741118645
 10
-9.3849306334
 20
-10.7494538166
 10
-9.3578317396
 20
-10.7556206879
 10
-9.3298059038
 20
-10.759600155
 10
-9.3008531258
 20
-10.7613922178
  0
LWPOLYLINE
  5
2DD
100
AcDbEntity
  8
IMPORT_IGES
100
AcDbPolyline
 62
7
  6
CONTINUOUS
 90
10
 70
0
 10
-8.8304495439
 20
-9.2133999884
 10
-8.8478627257
 20
-9.1887643933
 10
-8.8662940707
 20
-9.165124518
 10
-8.8857435787
 20
-9.1424803622
 10
-8.9061431649
 20
-9.1206979134
 10
-8.9275609142
 20
-9.0999111842
 10
-8.9502010812
 20
-9.080522213
 10
-8.9741317509
 20
-9.0626650126
 10
-8.9992848383
 20
-9.0462055702
 10
-9.0256603435
 20
-9.0311438858
  0
LWPOLYLINE
  5
2DE
100
AcDbEntity
  8
IMPORT_IGES
100
AcDbPolyline
 62
7
  6
CONTINUOUS
 90
10
 70
0
 10
-10.3890723934
 20
-9.242612071
 10
-10.4068868034
 20
-9.2167476395
 10
-10.4259043954
 20
-9.1920911456
 10
-10.4461251697
 20
-9.1686425895
 10
-10.467510653
 20
-9.1462849342
 10
-10.4900993185
 20
-9.1251352166
 10
-10.5140065853
 20
-9.1055445475
 10
-10.5392709265
 20
-9.0876299636
 10
-10.5658538691
 20
-9.0712744282
 10
-10.593755413
 20
-9.0564779413
  0
LWPOLYLINE
  5
2DF
100
AcDbEntity
  8
IMPORT_IGES
100
AcDbPolyline
 62
7
  6
CONTINUOUS
 90
13
 70
0
 10
-11.4981231549
 20
-10.4302569699
 10
-11.49315319
 20
-10.4679788076
 10
-11.486346961
 20
-10.5050912699
 10
-11.4777044681
 20
-10.5415943568
 10
-11.4674148459
 20
-10.5776623863
 10
-11.4552889596
 20
-10.6131210405
 10
-11.4407594054
 20
-10.6474473654
 10
-11.4235032512
 20
-10.6805252896
 10
-11.4038434291
 20
-10.7124708845
 10
-11.3821813314
 20
-10.7431094107
 10
-11.3586507556
 20
-10.7723826217
 10
-11.3331179042
 20
-10.8003487639
 10
-11.3055827773
 20
-10.8270078373
  0
LWPOLYLINE
  5
2E0
100
AcDbEntity
  8
IMPORT_IGES
100
AcDbPolyline
 62
7
  6
CONTINUOUS
 90
10
 70
0
 10
-10.3169500165
 20
-9.4938307476
 10
-10.3186301875
 20
-9.4642473752
 10
-10.3218254586
 20
-9.4350269023
 10
-10.3265358299
 20
-9.4061693289
 10
-10.3326702929
 20
-9.3776017925
 10
-10.3403198561
 20
-9.3493971556
 10
-10.3497575452
 20
-9.3217740062
 10
-10.3610743687
 20
-9.2948052069
 10
-10.3741793181
 20
-9.2684178952
 10
-10.3890723934
 20
-9.242612071
  0
LWPOLYLINE
  5
2E1
100
AcDbEntity
  8
IMPORT_IGES
100
AcDbPolyline
 62
7
  6
CONTINUOUS
 90
10
 70
0
 10
-10.2211791476
 20
-10.3690690768
 10
-10.2218929573
 20
-10.3314812774
 10
-10.2249873848
 20
-10.2944514748
 10
-10.2304624302
 20
-10.2579796688
 10
-10.2381831178
 20
-10.2219070818
 10
-10.2482844232
 20
-10.1863924915
 10
-10.2611712732
 20
-10.1519122312
 10
-10.2769786431
 20
-10.1186250789
 10
-10.2955715576
 20
-10.0863722567
 10
-10.3169500165
 20
-10.0551537645
  0
LWPOLYLINE
  5
2E2
100
AcDbEntity
  8
IMPORT_IGES
100
AcDbPolyline
 62
7
  6
CONTINUOUS
 90
13
 70
0
 10
-9.9366642535
 20
-9.9633009255
 10
-9.9358901447
 20
-10.0323576623
 10
-9.9333474592
 20
-10.1012639986
 10
-9.9290361969
 20
-10.1700199345
 10
-9.923668257
 20
-10.2388589403
 10
-9.9165317403
 20
-10.3075475457
 10
-9.9054909493
 20
-10.3753853396
 10
-9.89015629
 20
-10.4423865568
 10
-9.8709173563
 20
-10.5085369626
 10
-9.8468072332
 20
-10.5730934422
 10
-9.8175036155
 20
-10.6358082905
 10
-9.7833288084
 20
-10.6969292125
 10
-9.7442828119
 20
-10.7564562082
  0
LWPOLYLINE
  5
2E3
100
AcDbEntity
  8
IMPORT_IGES
100
AcDbPolyline
 62
7
  6
CONTINUOUS
 90
10
 70
0
 10
-8.9111188427
 20
-9.9633009255
 10
-8.9113275745
 20
-9.8897155108
 10
-8.9137774506
 20
-9.8165039122
 10
-8.918468471
 20
-9.7436661297
 10
-8.9242592787
 20
-9.6708602685
 10
-8.9322912306
 20
-9.5984282233
 10
-8.9459883976
 20
-9.527395679
 10
-8.9664921364
 20
-9.4581045303
 10
-8.9926610902
 20
-9.3902128824
 10
-9.0244952589
 20
-9.3237207353
  0
LWPOLYLINE
  5
2E4
100
AcDbEntity
  8
IMPORT_IGES
100
AcDbPolyline
 62
7
  6
CONTINUOUS
 90
10
 70
0
 10
-9.6905864775
 20
-9.9633009255
 10
-9.6903954618
 20
-10.0368482613
 10
-9.6880143029
 20
-10.1100351744
 10
-9.6834430007
 20
-10.1828616648
 10
-9.6778359379
 20
-10.2556665137
 10
-9.6700387319
 20
-10.3281109399
 10
-9.6565882345
 20
-10.3991785993
 10
-9.636330063
 20
-10.4685307106
 10
-9.6104186
 20
-10.5365060552
 10
-9.5788538456
 20
-10.6031046331
  0
LWPOLYLINE
  5
2E5
100
AcDbEntity
  8
IMPORT_IGES
100
AcDbPolyline
 62
7
  6
CONTINUOUS
 90
10
 70
0
 10
-8.6649269163
 20
-10.0258923461
 10
-8.66512314
 20
-9.9118380429
 10
-8.6661860328
 20
-9.8604200662
 10
-8.668229745
 20
-9.8090469954
 10
-8.6709636493
 20
-9.7576699596
 10
-8.6746783731
 20
-9.7063378297
 10
-8.6802457981
 20
-9.6551972186
 10
-8.6879565516
 20
-9.6042969974
 10
-8.6975200063
 20
-9.553588295
 10
-8.7089361623
 20
-9.5030711114
  0
LINE
  5
2E6
100
AcDbEntity
  8
IMPORT_IGES
100
AcDbLine
 62
7
  6
CONTINUOUS
 10
-9.1118839641
 20
-46.0897910397
 11
-9.1118839641
 21
-34.8660571924
  0
LINE
  5
2E7
100
AcDbEntity
  8
IMPORT_IGES
100
AcDbLine
 62
7
  6
CONTINUOUS
 10
-9.1118839641
 20
-29.0897910397
 11
-9.1118839641
 21
-17.8660571924
  0
LINE
  5
2E8
100
AcDbEntity
  8
IMPORT_IGES
100
AcDbLine
 62
7
  6
CONTINUOUS
 10
-9.0
 20
-17.95
 11
-9.0
 21
-28.95
  0
LINE
  5
2E9
100
AcDbEntity
  8
IMPORT_IGES
100
AcDbLine
 62
7
  6
CONTINUOUS
 10
-9.0
 20
-34.95
 11
-9.0
 21
-45.95
  0
LINE
  5
2EA
100
AcDbEntity
  8
IMPORT_IGES
100
AcDbLine
 62
7
  6
CONTINUOUS
 10
-8.9440585504
 20
-17.9919710042
 11
-8.9440585504
 21
-28.8801051454
  0
LINE
  5
2EB
100
AcDbEntity
  8
IMPORT_IGES
100
AcDbLine
 62
7
  6
CONTINUOUS
 10
-8.9440585504
 20
-34.9919710042
 11
-8.9440585504
 21
-45.8801051454
  0
LWPOLYLINE
  5
2EC
100
AcDbEntity
  8
IMPORT_IGES
100
AcDbPolyline
 62
7
  6
CONTINUOUS
 90
10
 70
0
 10
-10.4752377177
 20
-10.3743887913
 10
-10.4765253947
 20
-10.4108249468
 10
-10.480714916
 20
-10.4463507993
 10
-10.4878062817
 20
-10.4809663486
 10
-10.4977748735
 20
-10.514851227
 10
-10.5106453096
 20
-10.5478258023
 10
-10.5264914451
 20
-10.5793511782
 10
-10.5453378981
 20
-10.6092477227
 10
-10.5671600505
 20
-10.6376950679
 10
-10.5919579022
 20
-10.6646932137
  0
LWPOLYLINE
  5
2ED
100
AcDbEntity
  8
IMPORT_IGES
100
AcDbPolyline
 62
7
  6
CONTINUOUS
 90
13
 70
0
 10
-10.5630278507
 20
-9.4885110331
 10
-10.5639735753
 20
-9.51273713
 10
-10.5663948819
 20
-9.5365728845
 10
-10.5702917704
 20
-9.5600182965
 10
-10.5754437083
 20
-9.5832901395
 10
-10.5820712281
 20
-9.60617164
 10
-10.5908359279
 20
-9.6280124781
 10
-10.6021075753
 20
-9.6486558663
 10
-10.6155164027
 20
-9.6682585921
 10
-10.6306147043
 20
-9.6866406977
 10
-10.647253245
 20
-9.7037421971
 10
-10.6655812599
 20
-9.7196230763
 10
-10.6855987491
 20
-9.7342833352
  0
LWPOLYLINE
  5
2EE
100
AcDbEntity
  8
IMPORT_IGES
100
AcDbPolyline
 62
7
  6
CONTINUOUS
 90
10
 70
0
 10
-11.9571620598
 20
-9.5030711114
 10
-11.960592129
 20
-9.5384274973
 10
-11.9663134458
 20
-9.5729833625
 10
-11.9743260103
 20
-9.6067387072
 10
-11.9846899302
 20
-9.639721153
 10
-11.9973450979
 20
-9.6719030781
 10
-12.0121111902
 20
-9.7032016174
 10
-12.0289280994
 20
-9.7335891489
 10
-12.0478559333
 20
-9.7630932946
 10
-12.0688946918
 20
-9.7917140543
  0
LINE
  5
2EF
100
AcDbEntity
  8
IMPORT_IGES
100
AcDbLine
 62
7
  6
CONTINUOUS
 10
-11.0259200686
 20
-10.021898098
 11
-10.9993160535
 21
-9.8117358458
  0
LWPOLYLINE
  5
2F0
100
AcDbEntity
  8
IMPORT_IGES
100
AcDbPolyline
 62
7
  6
CONTINUOUS
 90
10
 70
0
 10
-11.2347534545
 20
-9.5350659859
 10
-11.2296428566
 20
-9.5023912989
 10
-11.2226697437
 20
-9.4703982786
 10
-11.2138341156
 20
-9.4390869253
 10
-11.2033712472
 20
-9.408241311
 10
-11.1910458637
 20
-9.3780773635
 10
-11.1761521404
 20
-9.3492428664
 10
-11.1584548023
 20
-9.3219537477
 10
-11.1381891243
 20
-9.2959940794
 10
-11.1153551064
 20
-9.2713638616
  0
LWPOLYLINE
  5
2F1
100
AcDbEntity
  8
IMPORT_IGES
100
AcDbPolyline
 62
7
  6
CONTINUOUS
 90
10
 70
0
 10
-12.9704568535
 20
-10.7583225786
 10
-12.9765085518
 20
-10.7762418082
 10
-12.9818523432
 20
-10.7943229394
 10
-12.9864882277
 20
-10.8125659721
 10
-12.9904939095
 20
-10.8309866318
 10
-12.9937916845
 20
-10.8495691931
 10
-12.9961484403
 20
-10.8682664799
 10
-12.9974864726
 20
-10.8870627669
 10
-12.9978834857
 20
-10.9059737793
 10
-12.9973394796
 20
-10.9249995172
  0
LWPOLYLINE
  5
2F2
100
AcDbEntity
  8
IMPORT_IGES
100
AcDbPolyline
 62
7
  6
CONTINUOUS
 90
10
 70
0
 10
-11.7587307468
 20
-9.7386100411
 10
-11.7492868707
 20
-9.7139685912
 10
-11.7408013486
 20
-9.6890914013
 10
-11.7332741805
 20
-9.6639784715
 10
-11.7265998967
 20
-9.6386283028
 10
-11.720883967
 20
-9.6130423941
 10
-11.7164427999
 20
-9.5872252424
 10
-11.7133818652
 20
-9.5611783466
 10
-11.7115956932
 20
-9.5349002078
 10
-11.7110842839
 20
-9.508390826
  0
LINE
  5
2F3
100
AcDbEntity
  8
IMPORT_IGES
100
AcDbLine
 62
253
  6
CONTINUOUS
 10
-6.0260967205
 20
11.7928293144
 11
-6.4070019462
 21
10.8682564094
  0
LINE
  5
2F4
100
AcDbEntity
  8
IMPORT_IGES
100
AcDbLine
 62
253
  6
CONTINUOUS
 10
-6.558601501
 20
10.7733114536
 11
-6.7518844652
 21
10.312201209
  0
LWPOLYLINE
  5
2F5
100
AcDbEntity
  8
IMPORT_IGES
100
AcDbPolyline
 62
253
  6
CONTINUOUS
 90
37
 70
0
 10
6.4070012042
 20
10.8682581838
 10
6.4616125932
 20
10.8919052254
 10
6.5158528629
 20
10.9174982928
 10
6.569668965
 20
10.9450394802
 10
6.6230513936
 20
10.9745550415
 10
6.6758964075
 20
11.0060201398
 10
6.7280145956
 20
11.0393445065
 10
6.7793616867
 20
11.0745156965
 10
6.8298759154
 20
11.1115090386
 10
6.8793576879
 20
11.1501865912
 10
6.9277703011
 20
11.1905195169
 10
6.9750590366
 20
11.232464135
 10
7.0210199345
 20
11.2758294446
 10
7.065575534
 20
11.3205165212
 10
7.1087403051
 20
11.3665159768
 10
7.1504635487
 20
11.4137543046
 10
7.1906947607
 20
11.4621529544
 10
7.2294251338
 20
11.5116821156
 10
7.2666639318
 20
11.5623438987
 10
7.3023798655
 20
11.6140942253
 10
7.3365344304
 20
11.6668788875
 10
7.3691176412
 20
11.7206909365
 10
7.4000995876
 20
11.7754991779
 10
7.4294318957
 20
11.8312409288
 10
7.4570733895
 20
11.8878638354
 10
7.4830098131
 20
11.9453762797
 10
7.5071745051
 20
12.0036751775
 10
7.5294641611
 20
12.0625339468
 10
7.5498562082
 20
12.1218973893
 10
7.5683291907
 20
12.181712806
 10
7.58481528
 20
12.2417468395
 10
7.5993142797
 20
12.3019581208
 10
7.6118192623
 20
12.362277133
 10
7.622292331
 20
12.4224209775
 10
7.6307452911
 20
12.4822574985
 10
7.6372153926
 20
12.5418103632
 10
7.6417266128
 20
12.601029657
  0
LINE
  5
2F6
100
AcDbEntity
  8
IMPORT_IGES
100
AcDbLine
 62
7
  6
CONTINUOUS
 10
-11.4981231549
 20
-10.4302569699
 11
-11.2586961862
 21
-10.3983312321
  0
LWPOLYLINE
  5
2F7
100
AcDbEntity
  8
IMPORT_IGES
100
AcDbPolyline
 62
7
  6
CONTINUOUS
 90
13
 70
0
 10
-9.3008531258
 20
-10.7613922178
 10
-9.2716647761
 20
-10.7598571517
 10
-9.2435034011
 20
-10.7559239499
 10
-9.2163690007
 20
-10.7495926125
 10
-9.1901633095
 20
-10.7407816133
 10
-9.1649845929
 20
-10.7295724786
 10
-9.1411276471
 20
-10.7162097864
 10
-9.1187704168
 20
-10.7003870398
 10
-9.0977349573
 20
-10.6824107359
 10
-9.07778223
 20
-10.6634449435
 10
-9.0588325555
 20
-10.6438776856
 10
-9.0409656132
 20
-10.6233209392
 10
-9.0241814032
 20
-10.6017747044
  0
LWPOLYLINE
  5
2F8
100
AcDbEntity
  8
IMPORT_IGES
100
AcDbPolyline
 62
7
  6
CONTINUOUS
 90
13
 70
0
 10
-5.4753413424
 20
-9.7518087446
 10
-5.5102808307
 20
-9.7533801897
 10
-5.5447757517
 20
-9.7568248804
 10
-5.5788261055
 20
-9.7621428168
 10
-5.6126547493
 20
-9.7690684357
 10
-5.6460388257
 20
-9.7778673003
 10
-5.6783097629
 20
-9.7893361
 10
-5.7093224569
 20
-9.8039027925
 10
-5.7392220116
 20
-9.8211394202
 10
-5.7677751663
 20
-9.8405587989
 10
-5.7949041677
 20
-9.8619985342
 10
-5.8206867691
 20
-9.8856210206
 10
-5.8451229706
 20
-9.9114262581
  0
LWPOLYLINE
  5
2F9
100
AcDbEntity
  8
IMPORT_IGES
100
AcDbPolyline
 62
7
  6
CONTINUOUS
 90
13
 70
0
 10
-9.303512983
 20
-9.1652133584
 10
-9.3301697535
 20
-9.1663883844
 10
-9.3561936557
 20
-9.1695083735
 10
-9.3815846897
 20
-9.1745733256
 10
-9.4065173824
 20
-9.1815566229
 10
-9.4308172068
 20
-9.1904848833
 10
-9.4539605823
 20
-9.2014379603
 10
-9.475809934
 20
-9.2146160686
 10
-9.4965028367
 20
-9.2298189936
 10
-9.5159284341
 20
-9.2465259447
 10
-9.5340497742
 20
-9.2645633248
 10
-9.5509038089
 20
-9.284104731
 10
-9.5664905384
 20
-9.3051501631
  0
LWPOLYLINE
  5
2FA
100
AcDbEntity
  8
IMPORT_IGES
100
AcDbPolyline
 62
7
  6
CONTINUOUS
 90
13
 70
0
 10
-10.878273359
 20
-10.9796069038
 10
-10.834903692
 20
-10.9781399138
 10
-10.792009434
 20
-10.9745221768
 10
-10.7495905851
 20
-10.9687536927
 10
-10.7074495995
 20
-10.9611008985
 10
-10.665784023
 20
-10.9512973572
 10
-10.625186493
 20
-10.9385437584
 10
-10.5857619102
 20
-10.922429491
 10
-10.5474053739
 20
-10.9033651661
 10
-10.5103948189
 20
-10.8817833065
 10
-10.4748228902
 20
-10.8578280864
 10
-10.4405969427
 20
-10.8313553316
 10
-10.4077169766
 20
-10.802365042
  0
LWPOLYLINE
  5
2FB
100
AcDbEntity
  8
IMPORT_IGES
100
AcDbPolyline
 62
7
  6
CONTINUOUS
 90
10
 70
0
 10
-4.852830898
 20
-10.1814464748
 10
-4.8305502021
 20
-10.1808476447
 10
-4.8083795426
 20
-10.179478224
 10
-4.7863189196
 20
-10.1773382128
 10
-4.7643300621
 20
-10.1745306135
 10
-4.742451241
 20
-10.1709524236
 10
-4.7207972688
 20
-10.1662946356
 10
-4.6994064162
 20
-10.1604542472
 10
-4.6782404126
 20
-10.1535342608
 10
-4.6572992578
 20
-10.1455346763
  0
LWPOLYLINE
  5
2FC
100
AcDbEntity
  8
IMPORT_IGES
100
AcDbPolyline
 62
7
  6
CONTINUOUS
 90
10
 70
0
 10
-10.8875844766
 20
-8.9870422554
 10
-10.9345959387
 20
-8.9881289649
 10
-10.9808087941
 20
-8.9925667506
 10
-11.0262230428
 20
-9.0003556125
 10
-11.0711083044
 20
-9.0113993991
 10
-11.1151949592
 20
-9.0257942619
 10
-11.1576741486
 20
-9.0438286551
 10
-11.198276253
 20
-9.06559873
 10
-11.2372708921
 20
-9.0910083352
 10
-11.2746580656
 20
-9.1200574708
  0
LWPOLYLINE
  5
2FD
100
AcDbEntity
  8
IMPORT_IGES
100
AcDbPolyline
 62
7
  6
CONTINUOUS
 90
10
 70
0
 10
-9.3008531258
 20
-8.9670204639
 10
-9.34347517
 20
-8.9679594581
 10
-9.3854221517
 20
-8.9717350364
 10
-9.4266940708
 20
-8.9783471986
 10
-9.4675058661
 20
-8.9876396709
 10
-9.5076425988
 20
-8.9997687272
 10
-9.5464594524
 20
-9.0152031894
 10
-9.5837414881
 20
-9.0340993316
 10
-9.6197036447
 20
-9.0563008798
 10
-9.6543459222
 20
-9.0818078339
  0
LWPOLYLINE
  5
2FE
100
AcDbEntity
  8
IMPORT_IGES
100
AcDbPolyline
 62
7
  6
CONTINUOUS
 90
10
 70
0
 10
-9.3008531258
 20
-10.9582551837
 10
-9.2582270932
 20
-10.957509452
 10
-9.216246896
 20
-10.9539154145
 10
-9.174912534
 20
-10.9474730712
 10
-9.1339809109
 20
-10.9383728627
 10
-9.093695123
 20
-10.9264243484
 10
-9.0547844595
 20
-10.9110562066
 10
-9.0174920166
 20
-10.8920779968
 10
-8.981574698
 20
-10.8696801594
 10
-8.9470325038
 20
-10.8438626945
  0
LWPOLYLINE
  5
2FF
100
AcDbEntity
  8
IMPORT_IGES
100
AcDbPolyline
 62
7
  6
CONTINUOUS
 90
10
 70
0
 10
-12.3189631849
 20
-8.9670204639
 10
-12.3724127472
 20
-8.9678895527
 10
-12.4250752308
 20
-8.9723134892
 10
-12.4769506358
 20
-8.9802922735
 10
-12.5283902427
 20
-8.9914977416
 10
-12.579042771
 20
-9.0062580574
 10
-12.6278543793
 20
-9.0255577131
 10
-12.6744737872
 20
-9.0497248727
 10
-12.719252275
 20
-9.0784313722
 10
-12.7621898428
 20
-9.1116772115
  0
LWPOLYLINE
  5
300
100
AcDbEntity
  8
IMPORT_IGES
100
AcDbPolyline
 62
7
  6
CONTINUOUS
 90
109
 70
0
 10
4.3962369673
 20
-7.4526005506
 10
4.3161069468
 20
-7.4532708289
 10
4.2375046167
 20
-7.4552807144
 10
4.1604299771
 20
-7.4586302072
 10
4.0849834454
 20
-7.4630384183
 10
4.0110646042
 20
-7.4687862366
 10
3.9383722007
 20
-7.476716329
 10
3.8669537794
 20
-7.4871200644
 10
3.7967617958
 20
-7.4997060738
 10
3.7273523639
 20
-7.5144429164
 10
3.6587026915
 20
-7.5313350548
 10
3.5908355709
 20
-7.5503780264
 10
3.5233754928
 20
-7.5715270035
 10
3.4562800775
 20
-7.5947285632
 10
3.3895917047
 20
-7.6200361282
 10
3.3230620044
 20
-7.6475651387
 10
3.2565202471
 20
-7.6773526521
 10
3.1901371622
 20
-7.7093616108
 10
3.1241765682
 20
-7.7435962833
 10
3.0584341646
 20
-7.7801990176
 10
2.9931142519
 20
-7.8190274655
 10
2.92909355
 20
-7.8596588506
 10
2.8665423075
 20
-7.9020533416
 10
2.8052902759
 20
-7.9462507698
 10
2.7457034291
 20
-7.9919478521
 10
2.6879085329
 20
-8.0390554797
 10
2.6317788217
 20
-8.0876627615
 10
2.5772999725
 20
-8.1377337416
 10
2.5244753824
 20
-8.1892513379
 10
2.4733016544
 20
-8.2422326325
 10
2.4237542744
 20
-8.296692916
 10
2.3757873937
 20
-8.3526916855
 10
2.3294468611
 20
-8.4101694438
 10
2.2848457084
 20
-8.4689629896
 10
2.2419921852
 20
-8.5290582509
 10
2.200878042
 20
-8.5904692997
 10
2.1615915619
 20
-8.6530751505
 10
2.1241124729
 20
-8.7169119501
 10
2.0884610471
 20
-8.7819435518
 10
2.0547863833
 20
-8.847940529
 10
2.0231147376
 20
-8.9148791602
 10
1.993419854
 20
-8.982783167
 10
1.9657720635
 20
-9.0514942871
 10
1.9401742458
 20
-9.121035984
 10
1.9166235211
 20
-9.1913847942
 10
1.8951815812
 20
-9.2623120657
 10
1.8758565791
 20
-9.3337905221
 10
1.8586403617
 20
-9.4058474396
 10
1.8435701617
 20
-9.478335995
 10
1.8306418653
 20
-9.5512855357
 10
1.8198595861
 20
-9.6246667141
 10
1.8112728978
 20
-9.6982446642
 10
1.8048978978
 20
-9.7719898405
 10
1.8007184887
 20
-9.8459317885
 10
1.7987359506
 20
-9.9199242775
 10
1.7989561931
 20
-9.9939919256
 10
1.8013733067
 20
-10.0681101148
 10
1.805970843
 20
-10.142058761
 10
1.8127470553
 20
-10.2158179351
 10
1.8217036902
 20
-10.2894075663
 10
1.8328295397
 20
-10.3626673573
 10
1.8461334737
 20
-10.4356255223
 10
1.8616066223
 20
-10.508253847
 10
1.8792111684
 20
-10.5803073918
 10
1.8989594799
 20
-10.6517668915
 10
1.9208391889
 20
-10.7226516112
 10
1.9447753743
 20
-10.7927744065
 10
1.9707806586
 20
-10.8621502762
 10
1.9988424193
 20
-10.9307642215
 10
2.028847868
 20
-10.9983841013
 10
2.0607804769
 20
-11.0649758547
 10
2.0946567739
 20
-11.1305735428
 10
2.1304135537
 20
-11.1950472069
 10
2.1680455389
 20
-11.2583888407
 10
2.2075580069
 20
-11.3206064506
 10
2.2489035854
 20
-11.3815940976
 10
2.2920391995
 20
-11.4412883637
 10
2.3370079242
 20
-11.4997526669
 10
2.3838916122
 20
-11.5570713226
 10
2.4327161389
 20
-11.6133022848
 10
2.483455629
 20
-11.6683875994
 10
2.5361143096
 20
-11.7222377199
 10
2.5909306947
 20
-11.7750329609
 10
2.6476662702
 20
-11.8265930077
 10
2.7056097208
 20
-11.876287369
 10
2.7647627906
 20
-11.9240369597
 10
2.8251237354
 20
-11.9699208649
 10
2.885976007
 20
-12.0135458483
 10
2.9470745461
 20
-12.0547515519
 10
3.008664412
 20
-12.0936983337
 10
3.0707642333
 20
-12.1304740318
 10
3.1332770335
 20
-12.1650826893
 10
3.1962997893
 20
-12.197520263
 10
3.2601420597
 20
-12.2278624616
 10
3.3247506402
 20
-12.2561651269
 10
3.3901787354
 20
-12.282372417
 10
3.4568955175
 20
-12.3063925145
 10
3.5249453287
 20
-12.328170972
 10
3.5942838269
 20
-12.3477622369
 10
3.6652471574
 20
-12.3652378346
 10
3.7377825845
 20
-12.3804461192
 10
3.811942844
 20
-12.3935387366
 10
3.8882222885
 20
-12.4050421506
 10
3.9666062055
 20
-12.414897092
 10
4.0471093075
 20
-12.4231628299
 10
4.1302700856
 20
-12.4305436356
 10
4.2162680367
 20
-12.4372742661
 10
4.304923664
 20
-12.4431199644
 10
4.3962369673
 20
-12.4480807304
  0
LWPOLYLINE
  5
301
100
AcDbEntity
  8
IMPORT_IGES
100
AcDbPolyline
 62
7
  6
CONTINUOUS
 90
109
 70
0
 10
0.0976879965
 20
-7.4526005506
 10
0.0175578628
 20
-7.4532708337
 10
-0.0610445745
 20
-7.4552807283
 10
-0.1381193154
 20
-7.4586302345
 10
-0.2135659414
 20
-7.4630384632
 10
-0.2874848711
 20
-7.4687863035
 10
-0.3601773602
 20
-7.4767164224
 10
-0.4315958643
 20
-7.4871201894
 10
-0.5017879277
 20
-7.4997062349
 10
-0.5711974398
 20
-7.5144431179
 10
-0.6398471941
 20
-7.5313353
 10
-0.7077143969
 20
-7.5503783195
 10
-0.7751745572
 20
-7.5715273501
 10
-0.8422700544
 20
-7.5947289688
 10
-0.9089585091
 20
-7.6200365985
 10
-0.9754882906
 20
-7.6475656816
 10
-1.0420301331
 20
-7.6773532781
 10
-1.1084133026
 20
-7.7093623279
 10
-1.1743739669
 20
-7.7435970933
 10
-1.2401164213
 20
-7.7801999213
 10
-1.3054363705
 20
-7.8190284649
 10
-1.3694570973
 20
-7.8596599455
 10
-1.432008349
 20
-7.9020545281
 10
-1.4932603783
 20
-7.9462520477
 10
-1.5528472251
 20
-7.9919492305
 10
-1.610642129
 20
-8.0390569701
 10
-1.6667718505
 20
-8.0876643729
 10
-1.7212507109
 20
-8.1377354848
 10
-1.7740753138
 20
-8.1892532246
 10
-1.8252490557
 20
-8.2422346734
 10
-1.8747964473
 20
-8.2966951204
 10
-1.9227633365
 20
-8.3526940618
 10
-1.9691038754
 20
-8.4101720014
 10
-2.0137050321
 20
-8.4689657391
 10
-2.0565585576
 20
-8.5290612038
 10
-2.0976727009
 20
-8.5904724666
 10
-2.1369591767
 20
-8.6530785414
 10
-2.1744382578
 20
-8.716915578
 10
-2.2100896715
 20
-8.7819474267
 10
-2.243764314
 20
-8.8479446521
 10
-2.2754359288
 20
-8.9148835331
 10
-2.3051307726
 20
-8.9827877909
 10
-2.3327785116
 20
-9.0514991535
 10
-2.3583762663
 20
-9.1210410854
 10
-2.3819269162
 20
-9.1913901221
 10
-2.4033687673
 20
-9.2623175982
 10
-2.4226936647
 20
-9.3337962336
 10
-2.4399097633
 20
-9.4058533084
 10
-2.454979833
 20
-9.4783419975
 10
-2.467907987
 20
-9.5512916438
 10
-2.4786901121
 20
-9.6246729045
 10
-2.4872766387
 20
-9.6982509257
 10
-2.4936514695
 20
-9.7719961634
 10
-2.4978307019
 20
-9.8459381617
 10
-2.4998130577
 20
-9.9199306992
 10
-2.4995926285
 20
-9.9939983936
 10
-2.4971753227
 20
-10.0681166272
 10
-2.4925775877
 20
-10.1420653254
 10
-2.4858011703
 20
-10.2158245642
 10
-2.4768443237
 20
-10.2894142676
 10
-2.4657182549
 20
-10.3626741325
 10
-2.4524140936
 20
-10.4356323724
 10
-2.4369407101
 20
-10.5082607739
 10
-2.4193359226
 20
-10.5803143928
 10
-2.399587362
 20
-10.6517739668
 10
-2.3777073974
 20
-10.7226587582
 10
-2.3537709551
 20
-10.7927816099
 10
-2.3277654143
 20
-10.8621575161
 10
-2.2997033958
 20
-10.9307714825
 10
-2.2696976888
 20
-10.9983913693
 10
-2.2377648207
 20
-11.0649831166
 10
-2.2038882641
 20
-11.1305807843
 10
-2.1681312256
 20
-11.195054412
 10
-2.1304989874
 20
-11.2583959861
 10
-2.0909862673
 20
-11.3206135203
 10
-2.0496404256
 20
-11.3816010952
 10
-2.00650454
 20
-11.4412952936
 10
-1.9615355327
 20
-11.4997595328
 10
-1.9146515312
 20
-11.5570781457
 10
-1.8658266511
 20
-11.6133090976
 10
-1.8150867767
 20
-11.6683944233
 10
-1.7624276885
 20
-11.722244559
 10
-1.7076108473
 20
-11.7750398334
 10
-1.6508747924
 20
-11.8265999178
 10
-1.5929309215
 20
-11.8762942634
 10
-1.5337775186
 20
-11.9240437606
 10
-1.4734162997
 20
-11.9699275189
 10
-1.4125638108
 20
-12.0135523176
 10
-1.3514651093
 20
-12.0547578041
 10
-1.2898751378
 20
-12.093704331
 10
-1.2277752697
 20
-12.1304797352
 10
-1.1652624841
 20
-12.1650880585
 10
-1.1022398019
 20
-12.1975252592
 10
-1.0383976596
 20
-12.2278670489
 10
-0.9737892553
 20
-12.2561692702
 10
-0.9083613908
 20
-12.2823760805
 10
-0.8416449089
 20
-12.3063956627
 10
-0.7735954725
 20
-12.3281735576
 10
-0.7042574187
 20
-12.3477642243
 10
-0.6332946008
 20
-12.3652392237
 10
-0.5607597595
 20
-12.3804469184
 10
-0.4866001542
 20
-12.3935389456
 10
-0.4103214173
 20
-12.4050417787
 10
-0.3319382595
 20
-12.4148961545
 10
-0.2514359701
 20
-12.4231613361
 10
-0.1682760498
 20
-12.4305415857
 10
-0.0822789987
 20
-12.4372716574
 10
0.0063756834
 20
-12.4431167972
 10
0.0976879965
 20
-12.4480770051
  0
LWPOLYLINE
  5
302
100
AcDbEntity
  8
IMPORT_IGES
100
AcDbPolyline
 62
7
  6
CONTINUOUS
 90
10
 70
0
 10
-10.9607425278
 20
-9.8143957031
 10
-10.9650442592
 20
-9.8144074418
 10
-10.9693435947
 20
-9.8143505542
 10
-10.9736405342
 20
-9.8142250404
 10
-10.9779371446
 20
-9.8140418247
 10
-10.982231359
 20
-9.8137899828
 10
-10.9865169772
 20
-9.8134367413
 10
-10.9907919322
 20
-9.8129711757
 10
-10.995058291
 20
-9.8124042106
 10
-10.9993160535
 20
-9.8117358458
  0
LINE
  5
303
100
AcDbEntity
  8
IMPORT_IGES
100
AcDbLine
 62
7
  6
CONTINUOUS
 10
-12.9973394796
 20
-10.9249995172
 11
-11.7084244266
 21
-10.9249995172
  0
LINE
  5
304
100
AcDbEntity
  8
IMPORT_IGES
100
AcDbLine
 62
7
  6
CONTINUOUS
 10
-7.0103341714
 20
-10.9249995172
 11
-6.7456346005
 21
-10.9249995172
  0
LINE
  5
305
100
AcDbEntity
  8
IMPORT_IGES
100
AcDbLine
 62
7
  6
CONTINUOUS
 10
-11.7084244266
 20
-10.6948846102
 11
-12.6648023725
 21
-10.6948846102
  0
LINE
  5
306
100
AcDbEntity
  8
IMPORT_IGES
100
AcDbLine
 62
7
  6
CONTINUOUS
 10
2.5724619627
 20
-10.317937386
 11
4.0041329339
 21
-10.317937386
  0
LINE
  5
307
100
AcDbEntity
  8
IMPORT_IGES
100
AcDbLine
 62
7
  6
CONTINUOUS
 10
8.9505203068
 20
-9.809021753
 11
9.3350317329
 21
-9.809021753
  0
LINE
  5
308
100
AcDbEntity
  8
IMPORT_IGES
100
AcDbLine
 62
7
  6
CONTINUOUS
 10
9.0466476977
 20
-9.7128943622
 11
9.2389043421
 21
-9.7128943622
  0
LINE
  5
309
100
AcDbEntity
  8
IMPORT_IGES
100
AcDbLine
 62
7
  6
CONTINUOUS
 10
4.0041329339
 20
-9.5827401697
 11
2.5724582374
 21
-9.5827401697
  0
LINE
  5
30A
100
AcDbEntity
  8
IMPORT_IGES
100
AcDbLine
 62
7
  6
CONTINUOUS
 10
9.2389043421
 20
-9.3283810734
 11
9.0466476977
 21
-9.3283810734
  0
LINE
  5
30B
100
AcDbEntity
  8
IMPORT_IGES
100
AcDbLine
 62
7
  6
CONTINUOUS
 10
9.3350317329
 20
-9.2963361263
 11
10.4014500976
 21
-9.2963361263
  0
LINE
  5
30C
100
AcDbEntity
  8
IMPORT_IGES
100
AcDbLine
 62
7
  6
CONTINUOUS
 10
9.0092429891
 20
-9.2322536826
 11
10.4014491662
 21
-9.2322536826
  0
LINE
  5
30D
100
AcDbEntity
  8
IMPORT_IGES
100
AcDbLine
 62
7
  6
CONTINUOUS
 10
-6.2454980798
 20
-8.9750000357
 11
-5.9821279719
 21
-8.9750000357
  0
LINE
  5
30E
100
AcDbEntity
  8
IMPORT_IGES
100
AcDbLine
 62
7
  6
CONTINUOUS
 10
-7.4865277857
 20
-8.9750000357
 11
-7.7658593655
 21
-8.9750000357
  0
LWPOLYLINE
  5
30F
100
AcDbEntity
  8
IMPORT_IGES
100
AcDbPolyline
 62
7
  6
CONTINUOUS
 90
10
 70
0
 10
-4.827558063
 20
-9.9300489843
 10
-4.8380199463
 20
-9.9298082223
 10
-4.848459492
 20
-9.9293117859
 10
-4.8588767001
 20
-9.9285596751
 10
-4.8692805322
 20
-9.9275741843
 10
-4.8796620267
 20
-9.9263330191
 10
-4.8899942992
 20
-9.9247692964
 10
-4.9002683882
 20
-9.9228607221
 10
-4.9104932551
 20
-9.9206295904
 10
-4.9206689
 20
-9.9180759012
  0
LWPOLYLINE
  5
310
100
AcDbEntity
  8
IMPORT_IGES
100
AcDbPolyline
 62
7
  6
CONTINUOUS
 90
10
 70
0
 10
-12.3242838308
 20
-9.1652133584
 10
-12.2915628497
 20
-9.1660473931
 10
-12.2595273634
 20
-9.1693151938
 10
-12.2281773721
 20
-9.1750167604
 10
-12.1973235629
 20
-9.1830295844
 10
-12.1671552487
 20
-9.1934761743
 10
-12.1382403675
 20
-9.206724056
 10
-12.1107682319
 20
-9.2228957383
 10
-12.0845495295
 20
-9.2418687126
 10
-12.05958426
 20
-9.2636429786
  0
LWPOLYLINE
  5
311
100
AcDbEntity
  8
IMPORT_IGES
100
AcDbPolyline
 62
7
  6
CONTINUOUS
 90
10
 70
0
 10
-10.8769432903
 20
-10.7814140093
 10
-10.9068203222
 20
-10.7806012906
 10
-10.9360559145
 20
-10.7775487641
 10
-10.9646500675
 20
-10.77225643
 10
-10.9927403466
 20
-10.7647677168
 10
-11.0201891863
 20
-10.755039196
 10
-11.0465838895
 20
-10.7429405814
 10
-11.0717868907
 20
-10.7284284445
 10
-11.0959357554
 20
-10.7115462139
 10
-11.1190304837
 20
-10.6922938895
  0
LWPOLYLINE
  5
312
100
AcDbEntity
  8
IMPORT_IGES
100
AcDbPolyline
 62
7
  6
CONTINUOUS
 90
10
 70
0
 10
-10.8569908415
 20
-9.9952958
 10
-10.8227519525
 20
-9.9963604056
 10
-10.7893173494
 20
-10.0000915367
 10
-10.7566870321
 20
-10.0064891932
 10
-10.724668967
 20
-10.0154731351
 10
-10.6934551877
 20
-10.0271236025
 10
-10.6636217953
 20
-10.0416813152
 10
-10.6353608233
 20
-10.0592265134
 10
-10.6084802382
 20
-10.079678957
 10
-10.5829800399
 20
-10.103038646
  0
LWPOLYLINE
  5
313
100
AcDbEntity
  8
IMPORT_IGES
100
AcDbPolyline
 62
7
  6
CONTINUOUS
 90
10
 70
0
 10
-10.8822637397
 20
-9.1839052212
 10
-10.8538344589
 20
-9.1848884435
 10
-10.826023013
 20
-9.1879829596
 10
-10.7988294019
 20
-9.1931887696
 10
-10.7720993047
 20
-9.2004217432
 10
-10.7459870424
 20
-9.2097660107
 10
-10.7209555778
 20
-9.2214739622
 10
-10.6971592319
 20
-9.2356297277
 10
-10.6744436836
 20
-9.2521491772
 10
-10.6528089331
 20
-9.2710323107
  0
LWPOLYLINE
  5
314
100
AcDbEntity
  8
IMPORT_IGES
100
AcDbPolyline
 62
7
  6
CONTINUOUS
 90
10
 70
0
 10
-5.4979538545
 20
-10.0032062351
 10
-5.4675786454
 20
-10.0061152858
 10
-5.4375200207
 20
-10.010302408
 10
-5.4077779804
 20
-10.0157676015
 10
-5.3783454804
 20
-10.0225530727
 10
-5.3492295647
 20
-10.0306166152
 10
-5.3204513657
 20
-10.0398316108
 10
-5.2920179275
 20
-10.0501558532
 10
-5.2639222059
 20
-10.0616315486
 10
-5.2361642011
 20
-10.074258697
  0
LINE
  5
315
100
AcDbEntity
  8
IMPORT_IGES
100
AcDbLine
 62
7
  6
CONTINUOUS
 10
-12.7060366795
 20
-9.5562757075
 11
-12.9521144554
 21
-9.5310033381
  0
LWPOLYLINE
  5
316
100
AcDbEntity
  8
IMPORT_IGES
100
AcDbPolyline
 62
7
  6
CONTINUOUS
 90
10
 70
0
 10
-5.0059664063
 20
-10.163445872
 10
-4.9892002907
 20
-10.1672580108
 10
-4.9723666793
 20
-10.1706319862
 10
-4.9554655722
 20
-10.1735677985
 10
-4.9384899553
 20
-10.1760852536
 10
-4.9214468427
 20
-10.1781645455
 10
-4.9043572764
 20
-10.1797462555
 10
-4.8872282706
 20
-10.1808105772
 10
-4.8700528111
 20
-10.181377317
 10
-4.852830898
 20
-10.1814464748
  0
LWPOLYLINE
  5
317
100
AcDbEntity
  8
IMPORT_IGES
100
AcDbPolyline
 62
7
  6
CONTINUOUS
 90
10
 70
0
 10
-5.3077419288
 20
-9.7757511854
 10
-5.3260291514
 20
-9.7711330876
 10
-5.3444022347
 20
-9.7669549942
 10
-5.3628611789
 20
-9.7632169054
 10
-5.38140882
 20
-9.7598528849
 10
-5.4000423219
 20
-9.7569288689
 10
-5.4187531759
 20
-9.754642666
 10
-5.4375385459
 20
-9.7530602124
 10
-5.4564012681
 20
-9.752115572
 10
-5.4753413424
 20
-9.7518087446
  0
LWPOLYLINE
  5
318
100
AcDbEntity
  8
IMPORT_IGES
100
AcDbPolyline
 62
7
  6
CONTINUOUS
 90
10
 70
0
 10
-4.9206689
 20
-9.9180759012
 10
-4.936224219
 20
-9.9133846272
 10
-4.9517034745
 20
-9.9084744749
 10
-4.9671066665
 20
-9.9033454446
 10
-4.9824328242
 20
-9.8979891325
 10
-4.9976829184
 20
-9.8924139424
 10
-5.0128598614
 20
-9.8866450845
 10
-5.0279646238
 20
-9.8806909623
 10
-5.0429962351
 20
-9.8745431724
 10
-5.0579546951
 20
-9.8682017147
  0
LWPOLYLINE
  5
319
100
AcDbEntity
  8
IMPORT_IGES
100
AcDbPolyline
 62
7
  6
CONTINUOUS
 90
6
 70
0
 10
-5.1676399496
 20
-9.8237232608
 10
-5.1952468942
 20
-9.8130018751
 10
-5.2230495249
 20
-9.8028102919
 10
-5.25108464
 20
-9.7932607873
 10
-5.2793154413
 20
-9.7842410851
 10
-5.3077419288
 20
-9.7757511854
  0
LWPOLYLINE
  5
31A
100
AcDbEntity
  8
IMPORT_IGES
100
AcDbPolyline
 62
7
  6
CONTINUOUS
 90
4
 70
0
 10
-5.0579546951
 20
-9.8682017147
 10
-5.0852572706
 20
-9.8568207093
 10
-5.1126451379
 20
-9.8456326779
 10
-5.1676399496
 20
-9.8237232608
  0
LINE
  5
31B
100
AcDbEntity
  8
IMPORT_IGES
100
AcDbLine
 62
7
  6
CONTINUOUS
 10
7.0559414496
 20
-17.9919710042
 11
6.8881160359
 21
-17.8660571924
  0
LINE
  5
31C
100
AcDbEntity
  8
IMPORT_IGES
100
AcDbLine
 62
7
  6
CONTINUOUS
 10
8.9440585504
 20
-28.8801051454
 11
9.1118839641
 21
-29.0897910397
  0
LWPOLYLINE
  5
31D
100
AcDbEntity
  8
0
100
AcDbPolyline
 62
7
  6
CONTINUOUS
 90
10
 70
0
 10
-13.988129474
 20
6.8399702643
 10
-13.9905260695
 20
6.8436188467
 10
-13.9926780594
 20
6.8473933404
 10
-13.9945739411
 20
6.851290484
 10
-13.9962040085
 20
6.8553172599
 10
-13.9975560713
 20
6.8594595603
 10
-13.9986180192
 20
6.8636821201
 10
-13.9993825914
 20
6.8679704126
 10
-13.9998449248
 20
6.872330736
 10
-14.0
 20
6.8767588333
  0
LWPOLYLINE
  5
31E
100
AcDbEntity
  8
0
100
AcDbPolyline
 62
253
  6
CONTINUOUS
 90
13
 70
0
 10
-13.847826087
 20
7.5835658538
 10
-13.8549342339
 20
7.5957916629
 10
-13.8619434214
 20
7.6080493219
 10
-13.8687129567
 20
7.6200927945
 10
-13.8751069481
 20
7.6316803279
 10
-13.8809970386
 20
7.6425793139
 10
-13.8862649814
 20
7.6525709572
 10
-13.8908050159
 20
7.6614546722
 10
-13.8945259663
 20
7.6690520637
 10
-13.8973530935
 20
7.6752105413
 10
-13.8992296241
 20
7.6798064409
 10
-13.900117876
 20
7.6827474834
 10
-13.8999999997
 20
7.6839745964
  0
LINE
  5
31F
100
AcDbEntity
  8
IMPORT_IGES
100
AcDbLine
 62
7
  6
CONTINUOUS
 10
-7.7658593655
 20
-8.9750000357
 11
-7.0103341714
 21
-10.9249995172
  0
LINE
  5
320
100
AcDbEntity
  8
IMPORT_IGES
100
AcDbLine
 62
7
  6
CONTINUOUS
 10
-7.4865277857
 20
-8.9750000357
 11
-6.9797406904
 21
-10.3916124522
  0
LWPOLYLINE
  5
321
100
AcDbEntity
  8
IMPORT_IGES
100
AcDbPolyline
 62
7
  6
CONTINUOUS
 90
10
 70
0
 10
-6.9797406904
 20
-10.3916124522
 10
-6.9674378587
 20
-10.426707029
 10
-6.9553495163
 20
-10.4618915888
 10
-6.9434756631
 20
-10.4971661319
 10
-6.9317941522
 20
-10.5325251704
 10
-6.9203271306
 20
-10.5679741921
 10
-6.9091410393
 20
-10.60352966
 10
-6.8982580254
 20
-10.6391970619
 10
-6.8876559417
 20
-10.67497091
 10
-6.8773347884
 20
-10.7108512044
  0
LWPOLYLINE
  5
322
100
AcDbEntity
  8
IMPORT_IGES
100
AcDbPolyline
 62
7
  6
CONTINUOUS
 90
7
 70
0
 10
-23.2934535197
 20
46.8918364483
 10
-23.2883921505
 20
46.8743112713
 10
-23.2833851677
 20
46.84732226
 10
-23.2784325711
 20
46.8108694146
 10
-23.2735221945
 20
46.76481153
 10
-23.2686662042
 20
46.7092898113
 10
-23.2639010993
 20
46.6447278728
  0
LWPOLYLINE
  5
323
100
AcDbEntity
  8
IMPORT_IGES
100
AcDbPolyline
 62
7
  6
CONTINUOUS
 90
10
 70
0
 10
-8.7089361623
 20
-9.5030711114
 10
-8.7183317761
 20
-9.4692512114
 10
-8.7286530374
 20
-9.4357807833
 10
-8.7398999461
 20
-9.402659827
 10
-8.7519380747
 20
-9.3698095651
 10
-8.7649018508
 20
-9.3373087752
 10
-8.7791945574
 20
-9.3053937893
 10
-8.7949506224
 20
-9.2741433849
 10
-8.8120356178
 20
-9.2434787846
 10
-8.8304495439
 20
-9.2133999884
  0
LWPOLYLINE
  5
324
100
AcDbEntity
  8
IMPORT_IGES
100
AcDbPolyline
 62
253
  6
CONTINUOUS
 90
22
 70
0
 10
-8.2810830946
 20
12.4712994659
 10
-8.2696127374
 20
12.3380727451
 10
-8.2512757958
 20
12.2064552465
 10
-8.2260722698
 20
12.0764469703
 10
-8.1938822789
 20
11.947700554
 10
-8.1548257036
 20
11.82056336
 10
-8.1092621854
 20
11.6960774757
 10
-8.0571476195
 20
11.5742726861
 10
-7.9985261107
 20
11.4551192061
 10
-7.9338896158
 20
11.3395697673
 10
-7.8631959242
 20
11.2276507921
 10
-7.7864872464
 20
11.1193358581
 10
-7.7043821704
 20
11.0154984298
 10
-7.6168417598
 20
10.9161695528
 10
-7.5239049509
 20
10.8213181816
 10
-7.4263071402
 20
10.7317246434
 10
-7.3240133221
 20
10.6474246488
 10
-7.2170585022
 20
10.5683824873
 10
-7.1062830932
 20
10.4952713549
 10
-6.9919672326
 20
10.4283156502
 10
-6.8738307828
 20
10.3672909747
 10
-6.751873744
 20
10.3121973282
  0
LWPOLYLINE
  5
325
100
AcDbEntity
  8
IMPORT_IGES
100
AcDbPolyline
 62
253
  6
CONTINUOUS
 90
37
 70
0
 10
-7.6417266141
 20
12.6010296515
 10
-7.6372043212
 20
12.5416905327
 10
-7.6307214716
 20
12.4820668685
 10
-7.6222587666
 20
12.4222081168
 10
-7.6117882863
 20
12.3621146895
 10
-7.5992996377
 20
12.3018927542
 10
-7.5848163067
 20
12.241750819
 10
-7.5683356035
 20
12.1817347934
 10
-7.5498606821
 20
12.1219111119
 10
-7.5294567648
 20
12.0625134674
 10
-7.5071391262
 20
12.0035859665
 10
-7.4829311895
 20
11.94519459
 10
-7.4569469038
 20
11.8875944801
 10
-7.429254484
 20
11.8308911488
 10
-7.3998675281
 20
11.7750739844
 10
-7.3688389648
 20
11.7202149083
 10
-7.3362265524
 20
11.6663873019
 10
-7.3020555929
 20
11.6136092217
 10
-7.2663271168
 20
11.5618712239
 10
-7.2290725735
 20
11.5112172745
 10
-7.1903306296
 20
11.4617014642
 10
-7.1501045919
 20
11.4133354977
 10
-7.1084141809
 20
11.3661578305
 10
-7.065302852
 20
11.32023465
 10
-7.0208066459
 20
11.2756219659
 10
-6.9749129852
 20
11.2323305162
 10
-6.9276975431
 20
11.1904569641
 10
-6.8793407596
 20
11.1501729256
 10
-6.8298874391
 20
11.1115177575
 10
-6.7793803881
 20
11.0745289447
 10
-6.728018033
 20
11.0393467834
 10
-6.6758394129
 20
11.0059849659
 10
-6.6229079728
 20
10.9744727347
 10
-6.5694787334
 20
10.9449382662
 10
-6.5156804615
 20
10.9174135466
 10
-6.4615029491
 20
10.8918556421
 10
-6.4070012035
 20
10.8682581852
  0
LWPOLYLINE
  5
326
100
AcDbEntity
  8
IMPORT_IGES
100
AcDbPolyline
 62
7
  6
CONTINUOUS
 90
13
 70
0
 10
-3.6692190915
 20
-5.0383032381
 10
-3.6684448971
 20
-5.1073599823
 10
-3.6659020726
 20
-5.1762663012
 10
-3.6615906183
 20
-5.2450221949
 10
-3.6562223938
 20
-5.3138611217
 10
-3.6490855394
 20
-5.3825496233
 10
-3.6380444757
 20
-5.4503873242
 10
-3.6227095898
 20
-5.5173884492
 10
-3.6034704946
 20
-5.5835387735
 10
-3.5793604504
 20
-5.6480952478
 10
-3.5500572103
 20
-5.7108101889
 10
-3.5158830211
 20
-5.7719312799
 10
-3.4768378828
 20
-5.8314585209
  0
LWPOLYLINE
  5
327
100
AcDbEntity
  8
IMPORT_IGES
100
AcDbPolyline
 62
7
  6
CONTINUOUS
 90
10
 70
0
 10
-3.4231413156
 20
-5.0383032381
 10
-3.4229499645
 20
-5.1118500513
 10
-3.4205686469
 20
-5.1850364832
 10
-3.415997363
 20
-5.257862534
 10
-3.4103906194
 20
-5.3306670042
 10
-3.4025939093
 20
-5.4031110932
 10
-3.3891437127
 20
-5.4741783995
 10
-3.3688855229
 20
-5.5435301225
 10
-3.3429738465
 20
-5.6115050628
 10
-3.3114086837
 20
-5.6781032204
  0
LINE
  5
328
100
AcDbEntity
  8
IMPORT_IGES
100
AcDbLine
 62
7
  6
CONTINUOUS
 10
-7.0559414496
 20
-45.8801051454
 11
-7.0559414496
 21
-34.9919710042
  0
LINE
  5
329
100
AcDbEntity
  8
IMPORT_IGES
100
AcDbLine
 62
7
  6
CONTINUOUS
 10
-7.0559414496
 20
-28.8801051454
 11
-7.0559414496
 21
-17.9919710042
  0
LINE
  5
32A
100
AcDbEntity
  8
IMPORT_IGES
100
AcDbLine
 62
7
  6
CONTINUOUS
 10
-7.0
 20
-45.95
 11
-7.0
 21
-34.95
  0
LINE
  5
32B
100
AcDbEntity
  8
IMPORT_IGES
100
AcDbLine
 62
7
  6
CONTINUOUS
 10
-7.0
 20
-28.95
 11
-7.0
 21
-17.95
  0
LINE
  5
32C
100
AcDbEntity
  8
IMPORT_IGES
100
AcDbLine
 62
7
  6
CONTINUOUS
 10
-6.8881160359
 20
-17.8660571924
 11
-6.8881160359
 21
-29.0897910397
  0
LINE
  5
32D
100
AcDbEntity
  8
IMPORT_IGES
100
AcDbLine
 62
7
  6
CONTINUOUS
 10
-6.8881160359
 20
-34.8660571924
 11
-6.8881160359
 21
-46.0897910397
  0
LINE
  5
32E
100
AcDbEntity
  8
IMPORT_IGES
100
AcDbLine
 62
7
  6
CONTINUOUS
 10
-5.8451229706
 20
-9.9114262581
 11
-5.8451229706
 21
-10.184106332
  0
LINE
  5
32F
100
AcDbEntity
  8
IMPORT_IGES
100
AcDbLine
 62
7
  6
CONTINUOUS
 10
-5.1118839641
 20
-46.0897910397
 11
-5.1118839641
 21
-34.8660571924
  0
LINE
  5
330
100
AcDbEntity
  8
IMPORT_IGES
100
AcDbLine
 62
7
  6
CONTINUOUS
 10
-5.1118839641
 20
-29.0897910397
 11
-5.1118839641
 21
-17.8660571924
  0
LINE
  5
331
100
AcDbEntity
  8
IMPORT_IGES
100
AcDbLine
 62
7
  6
CONTINUOUS
 10
-5.0
 20
-17.95
 11
-5.0
 21
-28.95
  0
LINE
  5
332
100
AcDbEntity
  8
IMPORT_IGES
100
AcDbLine
 62
7
  6
CONTINUOUS
 10
-5.0
 20
-34.95
 11
-5.0
 21
-45.95
  0
LINE
  5
333
100
AcDbEntity
  8
IMPORT_IGES
100
AcDbLine
 62
7
  6
CONTINUOUS
 10
-4.9440585504
 20
-17.9919710042
 11
-4.9440585504
 21
-28.8801051454
  0
LINE
  5
334
100
AcDbEntity
  8
IMPORT_IGES
100
AcDbLine
 62
7
  6
CONTINUOUS
 10
-4.9440585504
 20
-34.9919710042
 11
-4.9440585504
 21
-45.8801051454
  0
LINE
  5
335
100
AcDbEntity
  8
IMPORT_IGES
100
AcDbLine
 62
7
  6
CONTINUOUS
 10
-4.4843791984
 20
-10.0298085332
 11
-4.4843791984
 21
-9.7478189587
  0
LINE
  5
336
100
AcDbEntity
  8
IMPORT_IGES
100
AcDbLine
 62
253
  6
CONTINUOUS
 10
2.6261723873
 20
50.9470884725
 11
2.5509942076
 21
50.4527917972
  0
LWPOLYLINE
  5
337
100
AcDbEntity
  8
IMPORT_IGES
100
AcDbPolyline
 62
7
  6
CONTINUOUS
 90
9
 70
0
 10
-8.7361373007
 20
-10.5177768588
 10
-8.7201224388
 20
-10.4573092313
 10
-8.7061490905
 20
-10.3965366732
 10
-8.6942172559
 20
-10.3354591845
 10
-8.6843438596
 20
-10.2740504608
 10
-8.676511977
 20
-10.2123368064
 10
-8.6706708339
 20
-10.1503971344
 10
-8.6668035054
 20
-10.0882577491
 10
-8.6649269163
 20
-10.0258923461
  0
LWPOLYLINE
  5
338
100
AcDbEntity
  8
IMPORT_IGES
100
AcDbPolyline
 62
7
  6
CONTINUOUS
 90
10
 70
0
 10
-9.8661668599
 20
-9.4073013484
 10
-9.8822495614
 20
-9.4679356652
 10
-9.8962426731
 20
-9.5288771633
 10
-9.9081461951
 20
-9.5901258425
 10
-9.9179238936
 20
-9.6517101398
 10
-9.9256120024
 20
-9.7136016184
 10
-9.9313192226
 20
-9.7757149673
 10
-9.9350817881
 20
-9.8380217497
 10
-9.936863465
 20
-9.9005504024
 10
-9.9366642535
 20
-9.9633009255
  0
LWPOLYLINE
  5
339
100
AcDbEntity
  8
IMPORT_IGES
100
AcDbPolyline
 62
7
  6
CONTINUOUS
 90
10
 70
0
 10
-6.8773347884
 20
-10.7108512044
 10
-6.8670039194
 20
-10.6749877398
 10
-6.8563422631
 20
-10.6392185581
 10
-6.8453498195
 20
-10.6035436592
 10
-6.8340344132
 20
-10.5679579231
 10
-6.8223882196
 20
-10.5324664698
 10
-6.8103877653
 20
-10.49708466
 10
-6.7980252257
 20
-10.4618176138
 10
-6.7853084253
 20
-10.4266602112
 10
-6.2454980798
 20
-8.9750000357
  0
LWPOLYLINE
  5
33A
100
AcDbEntity
  8
IMPORT_IGES
100
AcDbPolyline
 62
7
  6
CONTINUOUS
 90
10
 70
0
 10
-10.3847876111
 20
-9.7239456546
 10
-10.3711807731
 20
-9.7003187688
 10
-10.3589949451
 20
-9.676197486
 10
-10.3482301272
 20
-9.6515818063
 10
-10.3387578902
 20
-9.6264596793
 10
-10.3307066632
 20
-9.6008431553
 10
-10.3244617336
 20
-9.5747683851
 10
-10.3201515305
 20
-9.5482474188
 10
-10.3176476249
 20
-9.5212682064
 10
-10.3169500165
 20
-9.4938307476
  0
LWPOLYLINE
  5
33B
100
AcDbEntity
  8
IMPORT_IGES
100
AcDbPolyline
 62
7
  6
CONTINUOUS
 90
22
 70
0
 10
-9.5664905384
 20
-9.3051501631
 10
-9.5821163594
 20
-9.3309919714
 10
-9.5963452437
 20
-9.3571618083
 10
-9.6091771911
 20
-9.3836596736
 10
-9.6205401099
 20
-9.4104632237
 10
-9.630506092
 20
-9.4375948024
 10
-9.6392914124
 20
-9.465121441
 10
-9.646797049
 20
-9.4930155852
 10
-9.653122024
 20
-9.5213047895
 10
-9.6587796795
 20
-9.5501387489
 10
-9.6638403208
 20
-9.5794890182
 10
-9.6682336426
 20
-9.6093840427
 10
-9.6722620716
 20
-9.6400588532
 10
-9.6760604777
 20
-9.6714859981
 10
-9.679493991
 20
-9.7036929292
 10
-9.6824604293
 20
-9.7369970324
 10
-9.6849131259
 20
-9.7714002554
 10
-9.6868987474
 20
-9.8069006506
 10
-9.6884551116
 20
-9.8438097609
 10
-9.6895948243
 20
-9.882231434
 10
-9.6903052796
 20
-9.9220618221
 10
-9.6905864775
 20
-9.9633009255
  0
LWPOLYLINE
  5
33C
100
AcDbEntity
  8
IMPORT_IGES
100
AcDbPolyline
 62
7
  6
CONTINUOUS
 90
10
 70
0
 10
-12.6648023725
 20
-10.6948846102
 10
-12.654811659
 20
-10.6796123902
 10
-12.6445355881
 20
-10.6645469794
 10
-12.6339741596
 20
-10.6496883779
 10
-12.6231478479
 20
-10.6350124526
 10
-12.6120361787
 20
-10.6205433366
 10
-12.6005777294
 20
-10.6063534289
 10
-12.5887520258
 20
-10.5924668626
 10
-12.5765795421
 20
-10.5788595047
 10
-12.5640602782
 20
-10.5655313551
  0
LWPOLYLINE
  5
33D
100
AcDbEntity
  8
IMPORT_IGES
100
AcDbPolyline
 62
253
  6
CONTINUOUS
 90
22
 70
0
 10
6.7520297254
 20
10.3122537902
 10
6.8739203729
 20
10.3673152138
 10
6.9920067575
 20
10.4283160898
 10
7.1062888791
 20
10.4952564183
 10
7.2170523417
 20
10.5683634271
 10
7.3240115413
 20
10.6474098883
 10
7.4263096666
 20
10.7317141183
 10
7.5239062423
 20
10.8213090018
 10
7.6168417437
 20
10.9161616542
 10
7.704380785
 20
11.0154917379
 10
7.7864844297
 20
11.119330298
 10
7.8631916144
 20
11.2276462894
 10
7.9338837631
 20
11.3395662391
 10
7.9985186653
 20
11.4551165689
 10
8.0571385315
 20
11.5742708569
 10
8.1092514184
 20
11.6960763648
 10
8.1548119939
 20
11.8205540718
 10
8.19386559
 20
11.9476829987
 10
8.2260562595
 20
12.0764474697
 10
8.2512653532
 20
12.206508926
 10
8.2696115203
 20
12.3382059263
 10
8.2810947609
 20
12.4715384706
  0
LWPOLYLINE
  5
33E
100
AcDbEntity
  8
IMPORT_IGES
100
AcDbPolyline
 62
7
  6
CONTINUOUS
 90
10
 70
0
 10
8.9746322483
 20
-4.4087738812
 10
8.9531484737
 20
-4.4146219048
 10
8.9316929941
 20
-4.420599432
 10
8.9102658097
 20
-4.4267064627
 10
8.8888639536
 20
-4.4329353797
 10
8.8674903926
 20
-4.4392938003
 10
8.8461540269
 20
-4.4458045761
 10
8.824857823
 20
-4.4524753243
 10
8.8035988143
 20
-4.4592984277
 10
8.7823770009
 20
-4.4662738864
  0
LWPOLYLINE
  5
33F
100
AcDbEntity
  8
IMPORT_IGES
100
AcDbPolyline
 62
7
  6
CONTINUOUS
 90
10
 70
0
 10
-11.0259200686
 20
-10.021898098
 10
-11.0074735857
 20
-10.0172914165
 10
-10.9889507631
 20
-10.0130159538
 10
-10.9703516008
 20
-10.0090717099
 10
-10.9516821229
 20
-10.0053500195
 10
-10.9329363053
 20
-10.001959548
 10
-10.9140960756
 20
-9.9992262907
 10
-10.8951554097
 20
-9.9972589129
 10
-10.8761203316
 20
-9.9959487493
 10
-10.8569908415
 20
-9.9952958
  0
LWPOLYLINE
  5
340
100
AcDbEntity
  8
IMPORT_IGES
100
AcDbPolyline
 62
7
  6
CONTINUOUS
 90
10
 70
0
 10
2.864478156
 20
-5.0768748939
 10
2.8829246258
 20
-5.0722682148
 10
2.9014474352
 20
-5.0679927535
 10
2.9200465843
 20
-5.0640485099
 10
2.9387160488
 20
-5.0603268182
 10
2.9574618529
 20
-5.0569363443
 10
2.9763020693
 20
-5.0542030854
 10
2.9952427223
 20
-5.0522357072
 10
3.0142777877
 20
-5.050925544
 10
3.0334072653
 20
-5.0502725959
  0
LWPOLYLINE
  5
341
100
AcDbEntity
  8
IMPORT_IGES
100
AcDbPolyline
 62
7
  6
CONTINUOUS
 90
10
 70
0
 10
1.3494370505
 20
-5.0768748939
 10
1.3678835328
 20
-5.072268208
 10
1.386406355
 20
-5.0679927424
 10
1.4050055172
 20
-5.0640484973
 10
1.4236749952
 20
-5.0603268081
 10
1.4424208131
 20
-5.0569363393
 10
1.461261043
 20
-5.0542030844
 10
1.4802017088
 20
-5.0522357077
 10
1.4992367866
 20
-5.0509255449
 10
1.5183662763
 20
-5.0502725959
  0
LWPOLYLINE
  5
342
100
AcDbEntity
  8
IMPORT_IGES
100
AcDbPolyline
 62
7
  6
CONTINUOUS
 90
10
 70
0
 10
-0.1656038658
 20
-5.0768748939
 10
-0.1471573828
 20
-5.0722682124
 10
-0.1286345602
 20
-5.0679927497
 10
-0.1100353979
 20
-5.0640485057
 10
-0.09136592
 20
-5.0603268154
 10
-0.0726201024
 20
-5.0569363439
 10
-0.0537798727
 20
-5.0542030866
 10
-0.0348392068
 20
-5.0522357088
 10
-0.0158041288
 20
-5.0509255452
 10
0.0033253614
 20
-5.0502725959
  0
LINE
  5
343
100
AcDbEntity
  8
IMPORT_IGES
100
AcDbLine
 62
7
  6
CONTINUOUS
 10
2.3922747932
 20
-5.4852337658
 11
2.6317019947
 21
-5.453308028
  0
LINE
  5
344
100
AcDbEntity
  8
IMPORT_IGES
100
AcDbLine
 62
7
  6
CONTINUOUS
 10
0.8772336878
 20
-5.4852337658
 11
1.1166608892
 21
-5.453308028
  0
LINE
  5
345
100
AcDbEntity
  8
IMPORT_IGES
100
AcDbLine
 62
7
  6
CONTINUOUS
 10
-0.637806952
 20
-5.4852337658
 11
-0.3983799834
 21
-5.453308028
  0
LWPOLYLINE
  5
346
100
AcDbEntity
  8
IMPORT_IGES
100
AcDbPolyline
 62
7
  6
CONTINUOUS
 90
13
 70
0
 10
-1.5183663927
 20
-5.8363908052
 10
-1.4891781164
 20
-5.8348556958
 10
-1.4610168019
 20
-5.830922475
 10
-1.4338824494
 20
-5.8245911429
 10
-1.4076767874
 20
-5.8157801841
 10
-1.3824980872
 20
-5.804571114
 10
-1.3586411629
 20
-5.7912084782
 10
-1.3362839631
 20
-5.7753857765
 10
-1.3152485392
 20
-5.757409509
 10
-1.2952958593
 20
-5.7384437222
 10
-1.2763462462
 20
-5.7188764314
 10
-1.2584793772
 20
-5.6983196213
 10
-1.2416952522
 20
-5.6767732918
  0
LWPOLYLINE
  5
347
100
AcDbEntity
  8
IMPORT_IGES
100
AcDbPolyline
 62
7
  6
CONTINUOUS
 90
13
 70
0
 10
-3.0334074982
 20
-5.8363908052
 10
-3.0042192152
 20
-5.8348557053
 10
-2.9760578913
 20
-5.8309224957
 10
-2.9489235265
 20
-5.8245911766
 10
-2.9227178476
 20
-5.8157802352
 10
-2.8975391279
 20
-5.8045711841
 10
-2.8736821861
 20
-5.7912085617
 10
-2.8513249718
 20
-5.7753858663
 10
-2.8302895356
 20
-5.7574095994
 10
-2.8103368474
 20
-5.7384438042
 10
-2.7913872306
 20
-5.7188764951
 10
-2.7735203619
 20
-5.6983196576
 10
-2.7567362413
 20
-5.6767732918
  0
LWPOLYLINE
  5
348
100
AcDbEntity
  8
IMPORT_IGES
100
AcDbPolyline
 62
7
  6
CONTINUOUS
 90
10
 70
0
 10
9.7116157413
 20
-4.2354584753
 10
9.6361064611
 20
-4.2394119375
 10
9.5607567453
 20
-4.2448026184
 10
9.4855665938
 20
-4.2516305181
 10
9.4105011223
 20
-4.2597594649
 10
9.3355952151
 20
-4.2693256305
 10
9.2609535257
 20
-4.2807375294
 10
9.1866109385
 20
-4.2941313334
 10
9.112532569
 20
-4.3093708707
 10
9.0387184173
 20
-4.3264561414
  0
LWPOLYLINE
  5
349
100
AcDbEntity
  8
IMPORT_IGES
100
AcDbPolyline
 62
7
  6
CONTINUOUS
 90
10
 70
0
 10
9.7116157413
 20
-4.2995781719
 10
9.6364078555
 20
-4.3034742577
 10
9.561290028
 20
-4.3089138396
 10
9.4862622588
 20
-4.3158969174
 10
9.4112974532
 20
-4.3243424282
 10
9.3364227059
 20
-4.3343314351
 10
9.2617193003
 20
-4.3461071272
 10
9.1872143309
 20
-4.3597505678
 10
9.1128807032
 20
-4.3751806937
 10
9.0387184173
 20
-4.392397505
  0
LWPOLYLINE
  5
34A
100
AcDbEntity
  8
IMPORT_IGES
100
AcDbPolyline
 62
7
  6
CONTINUOUS
 90
13
 70
0
 10
-1.5210267156
 20
-4.2402119457
 10
-1.5476829619
 20
-4.2413877306
 10
-1.5737065523
 20
-4.2445083502
 10
-1.5990974867
 20
-4.2495738046
 10
-1.6240303584
 20
-4.2565574819
 10
-1.6483305742
 20
-4.265485994
 10
-1.6714743543
 20
-4.2764391765
 10
-1.6933241488
 20
-4.2896171061
 10
-1.7140175075
 20
-4.3048197063
 10
-1.7334433005
 20
-4.3215265827
 10
-1.7515644843
 20
-4.3395642708
 10
-1.7684181024
 20
-4.3591062351
 10
-1.7840041546
 20
-4.3801524758
  0
LWPOLYLINE
  5
34B
100
AcDbEntity
  8
IMPORT_IGES
100
AcDbPolyline
 62
7
  6
CONTINUOUS
 90
13
 70
0
 10
-3.0360675883
 20
-4.2402119457
 10
-3.0627238519
 20
-4.2413877139
 10
-3.0887474577
 20
-4.2445083197
 10
-3.1141384058
 20
-4.2495737633
 10
-3.1390712891
 20
-4.2565574321
 10
-3.1633715146
 20
-4.2654859387
 10
-3.186515303
 20
-4.2764391204
 10
-3.2083651039
 20
-4.2896170562
 10
-3.2290584677
 20
-4.3048196671
 10
-3.2484842664
 20
-4.3215265544
 10
-3.2666054573
 20
-4.3395642518
 10
-3.283459083
 20
-4.3591062256
 10
-3.2990451436
 20
-4.3801524758
  0
LWPOLYLINE
  5
34C
100
AcDbEntity
  8
IMPORT_IGES
100
AcDbPolyline
 62
7
  6
CONTINUOUS
 90
13
 70
0
 10
3.0121249147
 20
-6.0345836997
 10
3.0554945875
 20
-6.0331166853
 10
3.0983888532
 20
-6.0294989312
 10
3.1408077118
 20
-6.0237304373
 10
3.1829487089
 20
-6.0160776417
 10
3.224614299
 20
-6.0062741063
 10
3.2652118447
 20
-5.9935205172
 10
3.3046364464
 20
-5.9774062658
 10
3.3429930039
 20
-5.9583419607
 10
3.3800035784
 20
-5.9367601142
 10
3.4155755239
 20
-5.9128048969
 10
3.4498014865
 20
-5.8863321381
 10
3.4826814663
 20
-5.8573418379
  0
LWPOLYLINE
  5
34D
100
AcDbEntity
  8
IMPORT_IGES
100
AcDbPolyline
 62
7
  6
CONTINUOUS
 90
13
 70
0
 10
1.4970836928
 20
-6.0345836997
 10
1.5404533829
 20
-6.0331167175
 10
1.5833476642
 20
-6.0294989873
 10
1.6257665369
 20
-6.0237305093
 10
1.6679075468
 20
-6.0160777207
 10
1.709573148
 20
-6.0062741841
 10
1.7501707027
 20
-5.9935205879
 10
1.78959531
 20
-5.9774063202
 10
1.8279518707
 20
-5.9583419928
 10
1.8649624497
 20
-5.9367601286
 10
1.9005344018
 20
-5.9128049018
 10
1.9347603722
 20
-5.8863321383
 10
1.9676403608
 20
-5.8573418379
  0
LWPOLYLINE
  5
34E
100
AcDbEntity
  8
IMPORT_IGES
100
AcDbPolyline
 62
7
  6
CONTINUOUS
 90
13
 70
0
 10
-0.0179571562
 20
-6.0345836997
 10
0.0254125109
 20
-6.0331167097
 10
0.0683067689
 20
-6.0294989727
 10
0.1107256178
 20
-6.0237304886
 10
0.1528666034
 20
-6.0160776943
 10
0.1945321799
 20
-6.006274153
 10
0.2351297099
 20
-5.9935205542
 10
0.2745542927
 20
-5.9774062869
 10
0.312910829
 20
-5.958341962
 10
0.349921384
 20
-5.9367601024
 10
0.3854933127
 20
-5.9128048823
 10
0.4197192601
 20
-5.8863321274
 10
0.4525992263
 20
-5.8573418379
  0
LWPOLYLINE
  5
34F
100
AcDbEntity
  8
IMPORT_IGES
100
AcDbPolyline
 62
7
  6
CONTINUOUS
 90
10
 70
0
 10
3.0028135516
 20
-4.0420190513
 10
2.9558020984
 20
-4.0431057533
 10
2.9095892515
 20
-4.0475435325
 10
2.8641750108
 20
-4.0553323889
 10
2.8192897555
 20
-4.0663761699
 10
2.7752031065
 20
-4.080771028
 10
2.7327239259
 20
-4.098805421
 10
2.6921218345
 20
-4.1205755014
 10
2.6531272116
 20
-4.1459851166
 10
2.6157400571
 20
-4.1750342667
  0
LWPOLYLINE
  5
350
100
AcDbEntity
  8
IMPORT_IGES
100
AcDbPolyline
 62
7
  6
CONTINUOUS
 90
10
 70
0
 10
1.4877727954
 20
-4.0420190513
 10
1.4407613075
 20
-4.043105768
 10
1.394548427
 20
-4.0475435604
 10
1.3491341538
 20
-4.0553324284
 10
1.3042488702
 20
-4.0663762224
 10
1.2601621938
 20
-4.0807710921
 10
1.2176829784
 20
-4.0988054865
 10
1.1770808419
 20
-4.1205755552
 10
1.1380861663
 20
-4.1459851486
 10
1.1006989516
 20
-4.1750342667
  0
LWPOLYLINE
  5
351
100
AcDbEntity
  8
IMPORT_IGES
100
AcDbPolyline
 62
7
  6
CONTINUOUS
 90
10
 70
0
 10
-0.0272682737
 20
-4.0420190513
 10
-0.0742797358
 20
-4.0431057608
 10
-0.1204925913
 20
-4.0475435465
 10
-0.16590684
 20
-4.0553324083
 10
-0.2107921015
 20
-4.066376195
 10
-0.2548787563
 20
-4.0807710578
 10
-0.2973579457
 20
-4.098805451
 10
-0.3379600502
 20
-4.1205755259
 10
-0.3769546892
 20
-4.1459851311
 10
-0.4143418628
 20
-4.1750342667
  0
LWPOLYLINE
  5
352
100
AcDbEntity
  8
IMPORT_IGES
100
AcDbPolyline
 62
7
  6
CONTINUOUS
 90
10
 70
0
 10
-1.5183663927
 20
-4.0420190513
 10
-1.5609883497
 20
-4.0429599904
 10
-1.6029353085
 20
-4.0467367227
 10
-1.6442072692
 20
-4.0533492484
 10
-1.6850192272
 20
-4.0626407493
 10
-1.7251561871
 20
-4.0747680436
 10
-1.7639731619
 20
-4.090201585
 10
-1.801255156
 20
-4.1090981917
 10
-1.8372171651
 20
-4.1313010455
 10
-1.8718591891
 20
-4.1568101465
  0
LWPOLYLINE
  5
353
100
AcDbEntity
  8
IMPORT_IGES
100
AcDbPolyline
 62
7
  6
CONTINUOUS
 90
10
 70
0
 10
-3.0334072653
 20
-4.0420190513
 10
-3.076029247
 20
-4.0429599918
 10
-3.1179762288
 20
-4.04673673
 10
-3.1592482108
 20
-4.053349266
 10
-3.2000601858
 20
-4.0626407881
 10
-3.240197161
 20
-4.074768108
 10
-3.2790141574
 20
-4.0902016603
 10
-3.3162961819
 20
-4.1090982566
 10
-3.3522582277
 20
-4.1313010853
 10
-3.3869002946
 20
-4.1568101465
  0
LWPOLYLINE
  5
354
100
AcDbEntity
  8
IMPORT_IGES
100
AcDbPolyline
 62
7
  6
CONTINUOUS
 90
10
 70
0
 10
-1.5183665091
 20
-6.033253771
 10
-1.4757402442
 20
-6.0325100085
 10
-1.4337598727
 20
-6.0289171613
 10
-1.3924253945
 20
-6.0224752294
 10
-1.3514936917
 20
-6.0133742714
 10
-1.3112078822
 20
-6.0014242288
 10
-1.2722973199
 20
-5.9860549261
 10
-1.2350051225
 20
-5.9670763048
 10
-1.1990881723
 20
-5.9446784234
 10
-1.1645464692
 20
-5.9188612818
  0
LWPOLYLINE
  5
355
100
AcDbEntity
  8
IMPORT_IGES
100
AcDbPolyline
 62
7
  6
CONTINUOUS
 90
10
 70
0
 10
-3.0334072653
 20
-6.033253771
 10
-2.9907810109
 20
-6.0325100166
 10
-2.9488006517
 20
-6.0289171697
 10
-2.9074661877
 20
-6.0224752303
 10
-2.8665345027
 20
-6.0133742494
 10
-2.8262487129
 20
-6.001424176
 10
-2.7873381671
 20
-5.9860548579
 10
-2.7500459814
 20
-5.967076244
 10
-2.7141290396
 20
-5.9446783853
 10
-2.6795873418
 20
-5.9188612818
  0
LWPOLYLINE
  5
356
100
AcDbEntity
  8
IMPORT_IGES
100
AcDbPolyline
 62
7
  6
CONTINUOUS
 90
10
 70
0
 10
2.9296551365
 20
-4.869372499
 10
2.9253534566
 20
-4.8693842449
 10
2.921054173
 20
-4.8693273607
 10
2.9167572857
 20
-4.8692018464
 10
2.9124607283
 20
-4.8690186237
 10
2.9081665672
 20
-4.868766771
 10
2.9038810023
 20
-4.8684135229
 10
2.8996061
 20
-4.8679479578
 10
2.8953397939
 20
-4.8673809974
 10
2.8910820838
 20
-4.8667126417
  0
LWPOLYLINE
  5
357
100
AcDbEntity
  8
IMPORT_IGES
100
AcDbPolyline
 62
7
  6
CONTINUOUS
 90
10
 70
0
 10
1.4146144968
 20
-4.869372499
 10
1.4103127661
 20
-4.8693842369
 10
1.4060134314
 20
-4.8693273485
 10
1.4017164927
 20
-4.8692018337
 10
1.3974198833
 20
-4.8690186168
 10
1.3931256698
 20
-4.8687667736
 10
1.3888400526
 20
-4.8684135316
 10
1.3845650983
 20
-4.867947967
 10
1.3802987402
 20
-4.8673810037
 10
1.3760409784
 20
-4.8667126417
  0
LWPOLYLINE
  5
358
100
AcDbEntity
  8
IMPORT_IGES
100
AcDbPolyline
 62
7
  6
CONTINUOUS
 90
10
 70
0
 10
-0.1004263249
 20
-4.869372499
 10
-0.1047280564
 20
-4.8693842377
 10
-0.1090273918
 20
-4.8693273501
 10
-0.1133243314
 20
-4.8692018362
 10
-0.1176209417
 20
-4.8690186206
 10
-0.1219151562
 20
-4.8687667786
 10
-0.1262007743
 20
-4.8684135371
 10
-0.1304757294
 20
-4.8679479716
 10
-0.1347420881
 20
-4.8673810064
 10
-0.1389998506
 20
-4.8667126417
  0
LINE
  5
359
100
AcDbEntity
  8
IMPORT_IGES
100
AcDbLine
 62
7
  6
CONTINUOUS
 10
9.5834443346
 20
-6.2522784888
 11
10.704940185
 21
-6.2522784888
  0
LINE
  5
35A
100
AcDbEntity
  8
IMPORT_IGES
100
AcDbLine
 62
7
  6
CONTINUOUS
 10
9.6475295722
 20
-6.1881923198
 11
10.640854016
 21
-6.1881923198
  0
LINE
  5
35B
100
AcDbEntity
  8
IMPORT_IGES
100
AcDbLine
 62
7
  6
CONTINUOUS
 10
10.640854016
 20
-5.9959375381
 11
9.6475295722
 21
-5.9959375381
  0
LINE
  5
35C
100
AcDbEntity
  8
IMPORT_IGES
100
AcDbLine
 62
7
  6
CONTINUOUS
 10
10.704940185
 20
-5.9318513691
 11
9.5834443346
 21
-5.9318513691
  0
LINE
  5
35D
100
AcDbEntity
  8
IMPORT_IGES
100
AcDbLine
 62
7
  6
CONTINUOUS
 10
11.3171627745
 20
-5.9318513691
 11
11.890521273
 21
-5.9318513691
  0
LINE
  5
35E
100
AcDbEntity
  8
IMPORT_IGES
100
AcDbLine
 62
7
  6
CONTINUOUS
 10
11.322866194
 20
-5.8677652001
 11
11.826435104
 21
-5.8677652001
  0
LINE
  5
35F
100
AcDbEntity
  8
IMPORT_IGES
100
AcDbLine
 62
7
  6
CONTINUOUS
 10
11.7183737457
 20
-5.2909971297
 11
11.3732311875
 21
-5.2909971297
  0
LINE
  5
360
100
AcDbEntity
  8
IMPORT_IGES
100
AcDbLine
 62
7
  6
CONTINUOUS
 10
11.3089000806
 20
-5.2909971297
 11
11.1855808646
 21
-5.2909971297
  0
LINE
  5
361
100
AcDbEntity
  8
IMPORT_IGES
100
AcDbLine
 62
7
  6
CONTINUOUS
 10
11.7824599147
 20
-5.2269109606
 11
11.378836818
 21
-5.2269109606
  0
LINE
  5
362
100
AcDbEntity
  8
IMPORT_IGES
100
AcDbLine
 62
7
  6
CONTINUOUS
 10
11.1214946955
 20
-5.2269109606
 11
11.3145057112
 21
-5.2269109606
  0
LINE
  5
363
100
AcDbEntity
  8
IMPORT_IGES
100
AcDbLine
 62
7
  6
CONTINUOUS
 10
11.3369338214
 20
-4.9705700099
 11
8.6363935843
 21
-4.9705700099
  0
LINE
  5
364
100
AcDbEntity
  8
IMPORT_IGES
100
AcDbLine
 62
7
  6
CONTINUOUS
 10
8.0453939736
 20
-4.9705700099
 11
8.5720643401
 21
-4.9705700099
  0
LINE
  5
365
100
AcDbEntity
  8
IMPORT_IGES
100
AcDbLine
 62
7
  6
CONTINUOUS
 10
11.401263997
 20
-4.9705700099
 11
11.6021363065
 21
-4.9705700099
  0
LINE
  5
366
100
AcDbEntity
  8
IMPORT_IGES
100
AcDbLine
 62
7
  6
CONTINUOUS
 10
8.5496371612
 20
-4.7142290592
 11
8.0453939736
 21
-4.7142290592
  0
LINE
  5
367
100
AcDbEntity
  8
IMPORT_IGES
100
AcDbLine
 62
7
  6
CONTINUOUS
 10
8.613968268
 20
-4.7142290592
 11
8.7182912976
 21
-4.7142290592
  0
LINE
  5
368
100
AcDbEntity
  8
IMPORT_IGES
100
AcDbLine
 62
7
  6
CONTINUOUS
 10
9.0387184173
 20
-4.7142290592
 11
11.1607490107
 21
-4.7142290592
  0
LINE
  5
369
100
AcDbEntity
  8
IMPORT_IGES
100
AcDbLine
 62
7
  6
CONTINUOUS
 10
8.7823770009
 20
-4.6501428902
 11
8.9746322483
 21
-4.6501428902
  0
LINE
  5
36A
100
AcDbEntity
  8
IMPORT_IGES
100
AcDbLine
 62
7
  6
CONTINUOUS
 10
10.5767687783
 20
-4.4578843832
 11
9.7116157413
 21
-4.4578843832
  0
LINE
  5
36B
100
AcDbEntity
  8
IMPORT_IGES
100
AcDbLine
 62
7
  6
CONTINUOUS
 10
9.7757009789
 20
-4.3938019395
 11
10.5236480013
 21
-4.3938019395
  0
LINE
  5
36C
100
AcDbEntity
  8
IMPORT_IGES
100
AcDbLine
 62
7
  6
CONTINUOUS
 10
8.9746322483
 20
-4.2335883796
 11
8.7823770009
 21
-4.2335883796
  0
LINE
  5
36D
100
AcDbEntity
  8
IMPORT_IGES
100
AcDbLine
 62
7
  6
CONTINUOUS
 10
9.0387184173
 20
-4.1695022106
 11
8.7182912976
 21
-4.1695022106
  0
LINE
  5
36E
100
AcDbEntity
  8
IMPORT_IGES
100
AcDbLine
 62
7
  6
CONTINUOUS
 10
10.5126826093
 20
-4.1374572634
 11
9.7757009789
 21
-4.1374572634
  0
LINE
  5
36F
100
AcDbEntity
  8
IMPORT_IGES
100
AcDbLine
 62
7
  6
CONTINUOUS
 10
10.5767687783
 20
-4.0733710944
 11
9.7116157413
 21
-4.0733710944
  0
LWPOLYLINE
  5
370
100
AcDbEntity
  8
IMPORT_IGES
100
AcDbPolyline
 62
7
  6
CONTINUOUS
 90
10
 70
0
 10
9.7757009789
 20
-4.2339311063
 10
9.8577939875
 20
-4.2343140931
 10
9.9398572187
 20
-4.2364999079
 10
10.0218906724
 20
-4.2404885508
 10
10.1039233656
 20
-4.2461838832
 10
10.1859262814
 20
-4.2536820436
 10
10.2678123687
 20
-4.2632714474
 10
10.3495526107
 20
-4.2750482331
 10
10.4311760242
 20
-4.2889162622
 10
10.5126826093
 20
-4.3048755347
  0
LWPOLYLINE
  5
371
100
AcDbEntity
  8
IMPORT_IGES
100
AcDbPolyline
 62
7
  6
CONTINUOUS
 90
13
 70
0
 10
-0.0179571562
 20
-6.0345836997
 10
-0.0570413111
 20
-6.0335633861
 10
-0.0957077706
 20
-6.0306534361
 10
-0.1339565346
 20
-6.0258538498
 10
-0.171952691
 20
-6.019411608
 10
-0.209531152
 20
-6.0110797297
 10
-0.2461966538
 20
-6.0001172726
 10
-0.2818122725
 20
-5.9861155465
 10
-0.3165149321
 20
-5.9694832415
 10
-0.3502201412
 20
-5.9507054849
 10
-0.382899736
 20
-5.9299439859
 10
-0.4145818804
 20
-5.9070370353
 10
-0.4452665744
 20
-5.8819846332
  0
LWPOLYLINE
  5
372
100
AcDbEntity
  8
IMPORT_IGES
100
AcDbPolyline
 62
7
  6
CONTINUOUS
 90
13
 70
0
 10
1.4970836928
 20
-6.0345836997
 10
1.4579995253
 20
-6.0335633936
 10
1.419333062
 20
-6.0306534384
 10
1.3810843029
 20
-6.0258538342
 10
1.3430881626
 20
-6.0194115546
 10
1.3055097266
 20
-6.0110796259
 10
1.268844251
 20
-6.0001171272
 10
1.2332286618
 20
-5.9861153698
 10
1.1985260329
 20
-5.9694830424
 10
1.1648208431
 20
-5.9507052905
 10
1.1321412516
 20
-5.9299438292
 10
1.1004590991
 20
-5.9070369435
 10
1.0697743855
 20
-5.8819846332
  0
LWPOLYLINE
  5
373
100
AcDbEntity
  8
IMPORT_IGES
100
AcDbPolyline
 62
7
  6
CONTINUOUS
 90
13
 70
0
 10
3.0121249147
 20
-6.0345836997
 10
2.9730407572
 20
-6.0335633773
 10
2.9343742888
 20
-6.0306534283
 10
2.8961255096
 20
-6.0258538526
 10
2.8581293299
 20
-6.0194116363
 10
2.8205508394
 20
-6.0110797933
 10
2.7838853065
 20
-6.0001173656
 10
2.7482696539
 20
-5.9861156625
 10
2.7135669588
 20
-5.9694833747
 10
2.6798617217
 20
-5.9507056165
 10
2.6471821093
 20
-5.9299440925
 10
2.6154999548
 20
-5.9070370981
 10
2.5848152582
 20
-5.8819846332
  0
LWPOLYLINE
  5
374
100
AcDbEntity
  8
IMPORT_IGES
100
AcDbPolyline
 62
7
  6
CONTINUOUS
 90
10
 70
0
 10
-0.0166270875
 20
-5.8363908052
 10
-0.0465041193
 20
-5.8355780864
 10
-0.0757397117
 20
-5.83252556
 10
-0.1043338646
 20
-5.8272332258
 10
-0.1324241437
 20
-5.8197445127
 10
-0.1598729834
 20
-5.8100159918
 10
-0.1862676867
 20
-5.7979173773
 10
-0.2114706878
 20
-5.7834052404
 10
-0.2356195525
 20
-5.7665230097
 10
-0.2587142808
 20
-5.7472706854
  0
LWPOLYLINE
  5
375
100
AcDbEntity
  8
IMPORT_IGES
100
AcDbPolyline
 62
7
  6
CONTINUOUS
 90
10
 70
0
 10
1.4984137379
 20
-5.8363908052
 10
1.4685367142
 20
-5.8355780995
 10
1.4393011333
 20
-5.8325255784
 10
1.4107069953
 20
-5.8272332421
 10
1.3826167366
 20
-5.8197445133
 10
1.3551679207
 20
-5.8100159692
 10
1.328773238
 20
-5.7979173412
 10
1.3035702518
 20
-5.7834052065
 10
1.2794213989
 20
-5.7665229879
 10
1.2563266791
 20
-5.7472706854
  0
LWPOLYLINE
  5
376
100
AcDbEntity
  8
IMPORT_IGES
100
AcDbPolyline
 62
7
  6
CONTINUOUS
 90
10
 70
0
 10
3.0134548433
 20
-5.8363908052
 10
2.983577811
 20
-5.8355780613
 10
2.9543422132
 20
-5.8325255226
 10
2.9257480497
 20
-5.8272331889
 10
2.8976577518
 20
-5.8197444977
 10
2.8702088884
 20
-5.8100160116
 10
2.843814166
 20
-5.7979174185
 10
2.8186111535
 20
-5.7834052811
 10
2.7944622821
 20
-5.7665230367
 10
2.7713675518
 20
-5.7472706854
  0
LWPOLYLINE
  5
377
100
AcDbEntity
  8
IMPORT_IGES
100
AcDbPolyline
 62
7
  6
CONTINUOUS
 90
10
 70
0
 10
0.0033253614
 20
-5.0502725959
 10
0.0375642503
 20
-5.0513372015
 10
0.0709988535
 20
-5.0550683326
 10
0.1036291708
 20
-5.0614659891
 10
0.1356472359
 20
-5.070449931
 10
0.1668610151
 20
-5.0821003983
 10
0.1966944076
 20
-5.0966581111
 10
0.2249553795
 20
-5.1142033093
 10
0.2518359647
 20
-5.1346557528
 10
0.277336163
 20
-5.1580154419
  0
LWPOLYLINE
  5
378
100
AcDbEntity
  8
IMPORT_IGES
100
AcDbPolyline
 62
7
  6
CONTINUOUS
 90
10
 70
0
 10
1.5183662763
 20
-5.0502725959
 10
1.5526051637
 20
-5.0513372427
 10
1.5860397699
 20
-5.0550684016
 10
1.6186700949
 20
-5.0614660725
 10
1.6506881731
 20
-5.0704500113
 10
1.68190197
 20
-5.082100462
 10
1.7117353825
 20
-5.0966581572
 10
1.7399963762
 20
-5.114203341
 10
1.7668769854
 20
-5.1346557692
 10
1.7923772102
 20
-5.1580154419
  0
LWPOLYLINE
  5
379
100
AcDbEntity
  8
IMPORT_IGES
100
AcDbPolyline
 62
7
  6
CONTINUOUS
 90
10
 70
0
 10
3.0334072653
 20
-5.0502725959
 10
3.0676461625
 20
-5.0513372109
 10
3.1010807768
 20
-5.055068346
 10
3.133711108
 20
-5.0614660011
 10
3.1657291916
 20
-5.0704499322
 10
3.1969429921
 20
-5.0821003835
 10
3.2267764037
 20
-5.0966580868
 10
3.2550373911
 20
-5.1142032863
 10
3.2819179897
 20
-5.134655738
 10
3.3074181993
 20
-5.1580154419
  0
LWPOLYLINE
  5
37A
100
AcDbEntity
  8
IMPORT_IGES
100
AcDbPolyline
 62
7
  6
CONTINUOUS
 90
10
 70
0
 10
-0.0219475369
 20
-4.2388820171
 10
0.0064817439
 20
-4.2398652394
 10
0.0342931899
 20
-4.2429597555
 10
0.061486801
 20
-4.2481655654
 10
0.0882168981
 20
-4.2553985391
 10
0.1143291604
 20
-4.2647428066
 10
0.1393606251
 20
-4.2764507581
 10
0.163156971
 20
-4.2906065236
 10
0.1858725193
 20
-4.3071259731
 10
0.2075072698
 20
-4.3260091066
  0
LWPOLYLINE
  5
37B
100
AcDbEntity
  8
IMPORT_IGES
100
AcDbPolyline
 62
7
  6
CONTINUOUS
 90
10
 70
0
 10
1.4930933248
 20
-4.2388820171
 10
1.5215226139
 20
-4.239865223
 10
1.5493340655
 20
-4.2429597302
 10
1.5765276797
 20
-4.2481655386
 10
1.6032577759
 20
-4.2553985227
 10
1.6293700347
 20
-4.264742808
 10
1.654401498
 20
-4.2764507714
 10
1.6781978465
 20
-4.2906065384
 10
1.7009133995
 20
-4.3071259835
 10
1.722548157
 20
-4.3260091066
  0
LWPOLYLINE
  5
37C
100
AcDbEntity
  8
IMPORT_IGES
100
AcDbPolyline
 62
7
  6
CONTINUOUS
 90
10
 70
0
 10
3.0081344303
 20
-4.2388820171
 10
3.0365636897
 20
-4.2398652412
 10
3.0643751143
 20
-4.2429597581
 10
3.091568704
 20
-4.2481655678
 10
3.1182987803
 20
-4.2553985394
 10
3.1444110217
 20
-4.2647428037
 10
3.1694424638
 20
-4.2764507534
 10
3.193238785
 20
-4.2906065192
 10
3.215954307
 20
-4.3071259702
 10
3.2375890296
 20
-4.3260091066
  0
LINE
  5
37D
100
AcDbEntity
  8
IMPORT_IGES
100
AcDbLine
 62
7
  6
CONTINUOUS
 10
-0.3744372516
 20
-4.5900427818
 11
-0.613864453
 21
-4.5474776149
  0
LINE
  5
37E
100
AcDbEntity
  8
IMPORT_IGES
100
AcDbLine
 62
7
  6
CONTINUOUS
 10
1.1406035628
 20
-4.5900427818
 11
0.9011764196
 21
-4.5474776149
  0
LINE
  5
37F
100
AcDbEntity
  8
IMPORT_IGES
100
AcDbLine
 62
7
  6
CONTINUOUS
 10
2.6556446683
 20
-4.5900427818
 11
2.4162174668
 21
-4.5474776149
  0
LWPOLYLINE
  5
380
100
AcDbEntity
  8
IMPORT_IGES
100
AcDbPolyline
 62
7
  6
CONTINUOUS
 90
40
 70
0
 10
11.073675938
 20
-8.7149263441
 10
11.1201370732
 20
-8.7287748443
 10
11.1640242419
 20
-8.7445415175
 10
11.2053374438
 20
-8.7622263636
 10
11.2439274494
 20
-8.7814548428
 10
11.2799434884
 20
-8.802601495
 10
11.3138332498
 20
-8.8267899401
 10
11.3458060181
 20
-8.8545695061
 10
11.3756525089
 20
-8.8853908651
 10
11.4031925582
 20
-8.9187296538
 10
11.4286026773
 20
-8.9545832571
 10
11.4517063548
 20
-8.9929542902
 10
11.4717938935
 20
-9.0333262351
 10
11.4889071117
 20
-9.0757693812
 10
11.5030041909
 20
-9.1202134392
 10
11.513249978
 20
-9.1659310231
 10
11.5194041172
 20
-9.2133405432
 10
11.5217069642
 20
-9.2620235893
 10
11.5200444322
 20
-9.3099975445
 10
11.5142607872
 20
-9.35685407
 10
11.5045117631
 20
-9.4030015046
 10
11.4911504754
 20
-9.4476822487
 10
11.4741680693
 20
-9.4908357222
 10
11.4535733996
 20
-9.5325225051
 10
11.4297461456
 20
-9.5721667375
 10
11.4026058583
 20
-9.6098362659
 10
11.3722329867
 20
-9.6454632439
 10
11.3392485578
 20
-9.6782682727
 10
11.3035946054
 20
-9.7081932632
 10
11.2653290956
 20
-9.7352963046
 10
11.2252469539
 20
-9.7589722655
 10
11.1833362499
 20
-9.7791298279
 10
11.139608914
 20
-9.7958603099
 10
11.0948956625
 20
-9.8088325347
 10
11.0491595154
 20
-9.8179815613
 10
11.0024374527
 20
-9.8233723308
 10
10.9556711308
 20
-9.8248684899
 10
10.9087496325
 20
-9.8223583846
 10
10.861783875
 20
-9.815953669
 10
10.8160482659
 20
-9.8058529521
  0
LWPOLYLINE
  5
381
100
AcDbEntity
  8
IMPORT_IGES
100
AcDbPolyline
 62
7
  6
CONTINUOUS
 90
16
 70
0
 10
10.8160482659
 20
-9.8058529521
 10
10.7716730187
 20
-9.7919257195
 10
10.7285279201
 20
-9.7743024857
 10
10.6874967371
 20
-9.7535734027
 10
10.6487759125
 20
-9.7298216675
 10
10.6121690037
 20
-9.7029640831
 10
10.5779704502
 20
-9.6733412109
 10
10.5460143227
 20
-9.6407974478
 10
10.5164665506
 20
-9.6054883969
 10
10.490119362
 20
-9.568221429
 10
10.4672139751
 20
-9.5295909263
 10
10.4475091718
 20
-9.4890025066
 10
10.431073525
 20
-9.4454803943
 10
10.4179298926
 20
-9.3986993308
 10
10.4080554168
 20
-9.3489845749
 10
10.4014500976
 20
-9.2963361263
  0
LWPOLYLINE
  5
382
100
AcDbEntity
  8
IMPORT_IGES
100
AcDbPolyline
 62
7
  6
CONTINUOUS
 90
10
 70
0
 10
0.2665607899
 20
-4.1114547372
 10
0.2355142188
 20
-4.0975316346
 10
0.2040616937
 20
-4.0850578333
 10
0.1722032145
 20
-4.0740333333
 10
0.1399312102
 20
-4.064321194
 10
0.1072532519
 20
-4.056058356
 10
0.074192053
 20
-4.0496556406
 10
0.0407551847
 20
-4.0452499883
 10
0.0069350758
 20
-4.0427044585
 10
-0.0272682737
 20
-4.0420190513
  0
LWPOLYLINE
  5
383
100
AcDbEntity
  8
IMPORT_IGES
100
AcDbPolyline
 62
7
  6
CONTINUOUS
 90
10
 70
0
 10
-2.7582149487
 20
-4.1061461985
 10
-2.7871953823
 20
-4.0927199565
 10
-2.8165910215
 20
-4.0808136381
 10
-2.8464018665
 20
-4.0704272431
 10
-2.8766493611
 20
-4.0614870017
 10
-2.9073120615
 20
-4.0540666837
 10
-2.9383256353
 20
-4.0483875987
 10
-2.9696686385
 20
-4.0445235166
 10
-3.0013625152
 20
-4.0424006675
 10
-3.0334072653
 20
-4.0420190513
  0
LWPOLYLINE
  5
384
100
AcDbEntity
  8
IMPORT_IGES
100
AcDbPolyline
 62
7
  6
CONTINUOUS
 90
10
 70
0
 10
-1.2431740761
 20
-4.1061461985
 10
-1.272154509
 20
-4.0927199534
 10
-1.301550148
 20
-4.0808136336
 10
-1.331360993
 20
-4.0704272392
 10
-1.3616084883
 20
-4.0614870017
 10
-1.3922711897
 20
-4.0540666896
 10
-1.4232847641
 20
-4.048387608
 10
-1.4546277672
 20
-4.0445235253
 10
-1.4863216434
 20
-4.0424006731
 10
-1.5183663927
 20
-4.0420190513
  0
LWPOLYLINE
  5
385
100
AcDbEntity
  8
IMPORT_IGES
100
AcDbPolyline
 62
7
  6
CONTINUOUS
 90
10
 70
0
 10
-0.2587142808
 20
-5.7472706854
 10
-0.284348719
 20
-5.7198197005
 10
-0.307225265
 20
-5.6908266631
 10
-0.3273439186
 20
-5.6602915733
 10
-0.3443994992
 20
-5.6278955387
 10
-0.3586971875
 20
-5.5939574517
 10
-0.3711525258
 20
-5.5594339894
 10
-0.382070695
 20
-5.5246440442
 10
-0.3911465142
 20
-5.4892687237
 10
-0.3983799834
 20
-5.453308028
  0
LWPOLYLINE
  5
386
100
AcDbEntity
  8
IMPORT_IGES
100
AcDbPolyline
 62
7
  6
CONTINUOUS
 90
13
 70
0
 10
-3.4768378828
 20
-5.8314585209
 10
-3.4481676403
 20
-5.8631441061
 10
-3.4178352367
 20
-5.8924933758
 10
-3.3858406722
 20
-5.91950633
 10
-3.3521697304
 20
-5.9445688712
 10
-3.3168366275
 20
-5.9672950969
 10
-3.2798840124
 20
-5.9865272989
 10
-3.2409867158
 20
-6.001619457
 10
-3.200469907
 20
-6.0132175915
 10
-3.1593517419
 20
-6.0221020549
 10
-3.117971606
 20
-6.0285329647
 10
-3.0759901138
 20
-6.0322502034
 10
-3.0334072653
 20
-6.033253771
  0
LWPOLYLINE
  5
387
100
AcDbEntity
  8
IMPORT_IGES
100
AcDbPolyline
 62
7
  6
CONTINUOUS
 90
13
 70
0
 10
-1.9617970102
 20
-5.8314585209
 10
-1.9331267618
 20
-5.8631440735
 10
-1.9027943572
 20
-5.8924933193
 10
-1.8707997965
 20
-5.9195062582
 10
-1.8371288645
 20
-5.9445687941
 10
-1.8017957763
 20
-5.967295023
 10
-1.7648431773
 20
-5.9865272333
 10
-1.7259458991
 20
-6.0016194065
 10
-1.68542911
 20
-6.0132175609
 10
-1.6443109614
 20
-6.0221020403
 10
-1.6029308369
 20
-6.028532959
 10
-1.5609493528
 20
-6.0322502026
 10
-1.5183665091
 20
-6.033253771
  0
LWPOLYLINE
  5
388
100
AcDbEntity
  8
0
100
AcDbPolyline
 62
7
  6
CONTINUOUS
 90
8
 70
0
 10
-13.9721102018
 20
6.819673091
 10
-13.9631157136
 20
6.808654114
 10
-13.9533141831
 20
6.7975089117
 10
-13.9428316554
 20
6.7864007815
 10
-13.932068569
 20
6.7752642071
 10
-13.9211629826
 20
6.7641743147
 10
-13.9099871892
 20
6.753378538
 10
-13.8985507246
 20
6.7430209385
  0
LINE
  5
389
100
AcDbEntity
  8
0
100
AcDbLine
 62
7
  6
CONTINUOUS
 10
-13.988129474
 20
6.8399702643
 11
-13.9721102018
 21
6.819673091
  0
LWPOLYLINE
  5
38A
100
AcDbEntity
  8
IMPORT_IGES
100
AcDbPolyline
 62
7
  6
CONTINUOUS
 90
13
 70
0
 10
-2.7570496313
 20
-4.3987193227
 10
-2.7740261327
 20
-4.3765145778
 10
-2.7921283382
 20
-4.3555372588
 10
-2.8113562479
 20
-4.3357873655
 10
-2.8316581811
 20
-4.3169259211
 10
-2.8530858185
 20
-4.2992919026
 10
-2.8757942022
 20
-4.2839022403
 10
-2.8999528897
 20
-4.2711150842
 10
-2.9253923234
 20
-4.2605722844
 10
-2.9517588732
 20
-4.2522163225
 10
-2.9789346622
 20
-4.2460280257
 10
-3.0070375672
 20
-4.2420265668
 10
-3.0360675883
 20
-4.2402119457
  0
LWPOLYLINE
  5
38B
100
AcDbEntity
  8
IMPORT_IGES
100
AcDbPolyline
 62
7
  6
CONTINUOUS
 90
13
 70
0
 10
-1.2420086423
 20
-4.3987193227
 10
-1.2589851618
 20
-4.3765145933
 10
-1.277087383
 20
-4.3555372854
 10
-1.2963153061
 20
-4.3357873989
 10
-1.3166172498
 20
-4.3169259561
 10
-1.3380448953
 20
-4.2992919347
 10
-1.3607532859
 20
-4.2839022682
 10
-1.3849119786
 20
-4.2711151062
 10
-1.4103514164
 20
-4.2605722991
 10
-1.4367179718
 20
-4.252216331
 10
-1.4638937689
 20
-4.2460280302
 10
-1.4919966835
 20
-4.2420265684
 10
-1.5210267156
 20
-4.2402119457
  0
LWPOLYLINE
  5
38C
100
AcDbEntity
  8
IMPORT_IGES
100
AcDbPolyline
 62
7
  6
CONTINUOUS
 90
13
 70
0
 10
-3.3114086837
 20
-5.6781032204
 10
-3.294534872
 20
-5.700298682
 10
-3.276531354
 20
-5.7212642337
 10
-3.2573981297
 20
-5.7409998757
 10
-3.2371866755
 20
-5.7598438763
 10
-3.2158455149
 20
-5.7774579672
 10
-3.1932202186
 20
-5.792827343
 10
-3.1691402446
 20
-5.8055946305
 10
-3.1437761349
 20
-5.8161172031
 10
-3.1174850857
 20
-5.8244523754
 10
-3.0903861626
 20
-5.8306192523
 10
-3.0623603001
 20
-5.8345987289
 10
-3.0334074982
 20
-5.8363908052
  0
LWPOLYLINE
  5
38D
100
AcDbEntity
  8
IMPORT_IGES
100
AcDbPolyline
 62
7
  6
CONTINUOUS
 90
13
 70
0
 10
-1.7963676946
 20
-5.6781032204
 10
-1.7794938673
 20
-5.7002986552
 10
-1.7614903373
 20
-5.7212641908
 10
-1.7423571047
 20
-5.7409998272
 10
-1.7221456473
 20
-5.7598438366
 10
-1.7008044872
 20
-5.7774579469
 10
-1.6781791908
 20
-5.7928273419
 10
-1.6540992171
 20
-5.8055946475
 10
-1.628735107
 20
-5.8161172378
 10
-1.6024440506
 20
-5.8244524182
 10
-1.5753451111
 20
-5.8306192904
 10
-1.5473192251
 20
-5.8345987528
 10
-1.5183663927
 20
-5.8363908052
  0
LWPOLYLINE
  5
38E
100
AcDbEntity
  8
IMPORT_IGES
100
AcDbPolyline
 62
7
  6
CONTINUOUS
 90
10
 70
0
 10
-2.563004382
 20
-4.288402301
 10
-2.5804169378
 20
-4.2637661634
 10
-2.5988477483
 20
-4.2401257968
 10
-2.6182968134
 20
-4.2174812014
 10
-2.6386959704
 20
-4.1956982521
 10
-2.6601133821
 20
-4.174911074
 10
-2.682753537
 20
-4.1555220421
 10
-2.7066845977
 20
-4.1376652813
 10
-2.7318384016
 20
-4.1212066668
 10
-2.7582149487
 20
-4.1061461985
  0
LWPOLYLINE
  5
38F
100
AcDbEntity
  8
0
100
AcDbPolyline
 62
253
  6
CONTINUOUS
 90
13
 70
0
 10
-13.1376811594
 20
9.1650035476
 10
-13.1311781113
 20
9.1535349754
 10
-13.1250030727
 20
9.1421131566
 10
-13.1192636559
 20
9.1309371394
 10
-13.114059882
 20
9.1202016883
 10
-13.1094824371
 20
9.1100938904
 10
-13.1056110924
 20
9.1007898943
 10
-13.102513314
 20
9.0924518409
 10
-13.1002430868
 20
9.0852250376
 10
-13.098839974
 20
9.0792354261
 10
-13.0983284276
 20
9.0745873873
 10
-13.0987173622
 20
9.0713619226
 10
-13.1
 20
9.0696152423
  0
LWPOLYLINE
  5
390
100
AcDbEntity
  8
0
100
AcDbPolyline
 62
253
  6
CONTINUOUS
 90
16
 70
0
 10
-12.2615998524
 20
8.4993739973
 10
-12.267098115
 20
8.5092552426
 10
-12.2728449454
 20
8.5190187989
 10
-12.278766474
 20
8.528539161
 10
-12.2847865801
 20
8.537693941
 10
-12.2908278834
 20
8.5463654627
 10
-12.296812739
 20
8.5544422696
 10
-12.3026642174
 20
8.5618205338
 10
-12.3083070904
 20
8.5684053889
 10
-12.3136688121
 20
8.5741121703
 10
-12.3186804571
 20
8.5788675081
 10
-12.3232775891
 20
8.5826102519
 10
-12.3274010906
 20
8.5852922653
 10
-12.3309979469
 20
8.5868790652
 10
-12.3340219222
 20
8.5873502526
 10
-12.3364341402
 20
8.5866997663
  0
LWPOLYLINE
  5
391
100
AcDbEntity
  8
IMPORT_IGES
100
AcDbPolyline
 62
7
  6
CONTINUOUS
 90
10
 70
0
 10
-2.4414905347
 20
-4.5780696988
 10
-2.4508857649
 20
-4.5442499711
 10
-2.4612068482
 20
-4.5107798178
 10
-2.4724537845
 20
-4.4776592391
 10
-2.4844922752
 20
-4.4448095136
 10
-2.497456619
 20
-4.4123093627
 10
-2.5117497119
 20
-4.3803949496
 10
-2.5275058528
 20
-4.3491449955
 10
-2.5445907428
 20
-4.3184807793
 10
-2.563004382
 20
-4.288402301
  0
LWPOLYLINE
  5
392
100
AcDbEntity
  8
IMPORT_IGES
100
AcDbPolyline
 62
7
  6
CONTINUOUS
 90
10
 70
0
 10
0.5433661863
 20
-4.5488075435
 10
0.5416860154
 20
-4.5192241711
 10
0.5384907443
 20
-4.4900036982
 10
0.5337803729
 20
-4.4611461248
 10
0.52764591
 20
-4.4325785884
 10
0.5199963468
 20
-4.4043739514
 10
0.5105586577
 20
-4.376750802
 10
0.4992418342
 20
-4.3497820028
 10
0.4861368848
 20
-4.3233946911
 10
0.4712438094
 20
-4.2975888669
  0
LWPOLYLINE
  5
393
100
AcDbEntity
  8
IMPORT_IGES
100
AcDbPolyline
 62
7
  6
CONTINUOUS
 90
13
 70
0
 10
-2.1541782189
 20
-5.0383032381
 10
-2.1534040244
 20
-5.1073599823
 10
-2.1508612
 20
-5.1762663012
 10
-2.1465497457
 20
-5.2450221949
 10
-2.1411815212
 20
-5.3138611217
 10
-2.1340446668
 20
-5.3825496233
 10
-2.1230036031
 20
-5.4503873242
 10
-2.1076687172
 20
-5.5173884492
 10
-2.088429622
 20
-5.5835387735
 10
-2.0643195777
 20
-5.6480952478
 10
-2.0350163377
 20
-5.7108101889
 10
-2.0008421485
 20
-5.7719312799
 10
-1.9617970102
 20
-5.8314585209
  0
LWPOLYLINE
  5
394
100
AcDbEntity
  8
IMPORT_IGES
100
AcDbPolyline
 62
7
  6
CONTINUOUS
 90
10
 70
0
 10
-2.6436734479
 20
-5.0383032381
 10
-2.6438823564
 20
-4.9647171465
 10
-2.6463323444
 20
-4.8915049433
 10
-2.6510234118
 20
-4.8186666285
 10
-2.6568141829
 20
-4.7458603159
 10
-2.6648460334
 20
-4.6734278917
 10
-2.6785430908
 20
-4.6023950144
 10
-2.6990467308
 20
-4.5331035703
 10
-2.7252155776
 20
-4.465211673
 10
-2.7570496313
 20
-4.3987193227
  0
LWPOLYLINE
  5
395
100
AcDbEntity
  8
IMPORT_IGES
100
AcDbPolyline
 62
7
  6
CONTINUOUS
 90
10
 70
0
 10
-1.1286324589
 20
-5.0383032381
 10
-1.1288414096
 20
-4.9647171399
 10
-1.1312914311
 20
-4.8915049328
 10
-1.1359825233
 20
-4.8186666167
 10
-1.1417733128
 20
-4.745860307
 10
-1.149805173
 20
-4.6734278884
 10
-1.163502224
 20
-4.6023950152
 10
-1.1840058393
 20
-4.5331035723
 10
-1.2101746454
 20
-4.4652116747
 10
-1.2420086423
 20
-4.3987193227
  0
LWPOLYLINE
  5
396
100
AcDbEntity
  8
IMPORT_IGES
100
AcDbPolyline
 62
7
  6
CONTINUOUS
 90
10
 70
0
 10
-1.9081003265
 20
-5.0383032381
 10
-1.9079090171
 20
-5.1118500601
 10
-1.9055277323
 20
-5.1850364993
 10
-1.9009564722
 20
-5.2578625559
 10
-1.8953497454
 20
-5.3306670312
 10
-1.8875530432
 20
-5.4031111238
 10
-1.8741028396
 20
-5.4741784294
 10
-1.853844626
 20
-5.5435301467
 10
-1.827932911
 20
-5.611505077
 10
-1.7963676946
 20
-5.6781032204
  0
LWPOLYLINE
  5
397
100
AcDbEntity
  8
IMPORT_IGES
100
AcDbPolyline
 62
7
  6
CONTINUOUS
 90
10
 70
0
 10
-2.3974815953
 20
-5.100894184
 10
-2.3976774651
 20
-4.9868399039
 10
-2.3987403849
 20
-4.9354214932
 10
-2.4007841986
 20
-4.8840480062
 10
-2.4035183625
 20
-4.8326705826
 10
-2.4072334202
 20
-4.7813380827
 10
-2.4128010031
 20
-4.7301970863
 10
-2.4205116551
 20
-4.6792964535
 10
-2.4300748323
 20
-4.6285873244
 10
-2.4414905347
 20
-4.5780696988
  0
LWPOLYLINE
  5
398
100
AcDbEntity
  8
IMPORT_IGES
100
AcDbPolyline
 62
7
  6
CONTINUOUS
 90
10
 70
0
 10
-0.8824408096
 20
-5.1008941841
 10
-0.8826366874
 20
-4.986839911
 10
-0.883699576
 20
-4.9354215041
 10
-0.8857433488
 20
-4.8840480175
 10
-0.888477446
 20
-4.832670589
 10
-0.8921924274
 20
-4.7813380808
 10
-0.8977599717
 20
-4.7301970791
 10
-0.9054706388
 20
-4.6792964459
 10
-0.9150338689
 20
-4.6285873191
 10
-0.9264496621
 20
-4.5780696988
  0
LINE
  5
399
100
AcDbEntity
  8
IMPORT_IGES
100
AcDbLine
 62
7
  6
CONTINUOUS
 10
-3.0559414496
 20
-45.8801051454
 11
-3.0559414496
 21
-34.9919710042
  0
LINE
  5
39A
100
AcDbEntity
  8
IMPORT_IGES
100
AcDbLine
 62
7
  6
CONTINUOUS
 10
-3.0559414496
 20
-28.8801051454
 11
-3.0559414496
 21
-17.9919710042
  0
LINE
  5
39B
100
AcDbEntity
  8
IMPORT_IGES
100
AcDbLine
 62
7
  6
CONTINUOUS
 10
-3.0
 20
-45.95
 11
-3.0
 21
-34.95
  0
LINE
  5
39C
100
AcDbEntity
  8
IMPORT_IGES
100
AcDbLine
 62
7
  6
CONTINUOUS
 10
-3.0
 20
-28.95
 11
-3.0
 21
-17.95
  0
LINE
  5
39D
100
AcDbEntity
  8
IMPORT_IGES
100
AcDbLine
 62
7
  6
CONTINUOUS
 10
-2.8881160359
 20
-17.8660571924
 11
-2.8881160359
 21
-29.0897910397
  0
LINE
  5
39E
100
AcDbEntity
  8
IMPORT_IGES
100
AcDbLine
 62
7
  6
CONTINUOUS
 10
-2.8881160359
 20
-34.8660571924
 11
-2.8881160359
 21
-46.0897910397
  0
LINE
  5
39F
100
AcDbEntity
  8
IMPORT_IGES
100
AcDbLine
 62
7
  6
CONTINUOUS
 10
-1.1118839641
 20
-46.0897910397
 11
-1.1118839641
 21
-34.8660571924
  0
LINE
  5
3A0
100
AcDbEntity
  8
IMPORT_IGES
100
AcDbLine
 62
7
  6
CONTINUOUS
 10
-1.1118839641
 20
-29.0897910397
 11
-1.1118839641
 21
-17.8660571924
  0
LINE
  5
3A1
100
AcDbEntity
  8
IMPORT_IGES
100
AcDbLine
 62
7
  6
CONTINUOUS
 10
-1.0
 20
-17.95
 11
-1.0
 21
-28.95
  0
LINE
  5
3A2
100
AcDbEntity
  8
IMPORT_IGES
100
AcDbLine
 62
7
  6
CONTINUOUS
 10
-1.0
 20
-34.95
 11
-1.0
 21
-45.95
  0
LINE
  5
3A3
100
AcDbEntity
  8
IMPORT_IGES
100
AcDbLine
 62
7
  6
CONTINUOUS
 10
-0.9440585504
 20
-17.9919710042
 11
-0.9440585504
 21
-28.8801051454
  0
LINE
  5
3A4
100
AcDbEntity
  8
IMPORT_IGES
100
AcDbLine
 62
7
  6
CONTINUOUS
 10
-0.9440585504
 20
-44.45
 11
-0.9440585504
 21
-45.8801051454
  0
LINE
  5
3A5
100
AcDbEntity
  8
IMPORT_IGES
100
AcDbLine
 62
253
  6
CONTINUOUS
 10
-0.0
 20
-52.9930879827
 11
-0.0
 21
-51.0287064741
  0
LINE
  5
3A6
100
AcDbEntity
  8
IMPORT_IGES
100
AcDbLine
 62
7
  6
CONTINUOUS
 10
0.0976879965
 20
-12.4480770051
 11
0.0976879965
 21
-11.7120825767
  0
LINE
  5
3A7
100
AcDbEntity
  8
IMPORT_IGES
100
AcDbLine
 62
7
  6
CONTINUOUS
 10
0.0976879965
 20
-8.188594979
 11
0.0976879965
 21
-7.4526005506
  0
LWPOLYLINE
  5
3A8
100
AcDbEntity
  8
IMPORT_IGES
100
AcDbPolyline
 62
7
  6
CONTINUOUS
 90
13
 70
0
 10
0.2972883522
 20
-4.5434878289
 10
0.2963426276
 20
-4.5677139259
 10
0.293921321
 20
-4.5915496803
 10
0.2900244324
 20
-4.6149950924
 10
0.2848724946
 20
-4.6382669354
 10
0.2782449747
 20
-4.6611484359
 10
0.269480275
 20
-4.682989274
 10
0.2582086275
 20
-4.7036326622
 10
0.2447998002
 20
-4.723235388
 10
0.2297014986
 20
-4.7416174935
 10
0.2130629579
 20
-4.7587189929
 10
0.194734943
 20
-4.7745998721
 10
0.1747174538
 20
-4.7892601311
  0
LINE
  5
3A9
100
AcDbEntity
  8
IMPORT_IGES
100
AcDbLine
 62
7
  6
CONTINUOUS
 10
-0.1656038658
 20
-5.0768748939
 11
-0.1389998506
 21
-4.8667126417
  0
LWPOLYLINE
  5
3AA
100
AcDbEntity
  8
IMPORT_IGES
100
AcDbPolyline
 62
7
  6
CONTINUOUS
 90
10
 70
0
 10
-0.3744372516
 20
-4.5900427818
 10
-0.3693266538
 20
-4.5573680947
 10
-0.3623535408
 20
-4.5253750745
 10
-0.3535179127
 20
-4.4940637212
 10
-0.3430550444
 20
-4.4632181068
 10
-0.3307296609
 20
-4.4330541594
 10
-0.3158359375
 20
-4.4042196623
 10
-0.2981385994
 20
-4.3769305436
 10
-0.2778729214
 20
-4.3509708753
 10
-0.2550389036
 20
-4.3263406574
  0
LWPOLYLINE
  5
3AB
100
AcDbEntity
  8
IMPORT_IGES
100
AcDbPolyline
 62
7
  6
CONTINUOUS
 90
9
 70
0
 10
-2.468691906
 20
-5.5927754462
 10
-2.4526766166
 20
-5.5323082399
 10
-2.4387030266
 20
-5.4715360927
 10
-2.4267711359
 20
-5.4104590046
 10
-2.416897983
 20
-5.3490506597
 10
-2.4090665294
 20
-5.2873373738
 10
-2.4032256597
 20
-5.225398094
 10
-2.3993583355
 20
-5.163259136
 10
-2.3974815953
 20
-5.100894184
  0
LWPOLYLINE
  5
3AC
100
AcDbEntity
  8
IMPORT_IGES
100
AcDbPolyline
 62
7
  6
CONTINUOUS
 90
9
 70
0
 10
-0.9536510333
 20
-5.5927754462
 10
-0.9376357319
 20
-5.5323082416
 10
-0.9236621371
 20
-5.4715360954
 10
-0.9117302489
 20
-5.4104590077
 10
-0.9018571073
 20
-5.3490506624
 10
-0.8940256722
 20
-5.2873373755
 10
-0.8881848242
 20
-5.2253980949
 10
-0.8843175234
 20
-5.1632591364
 10
-0.8824408096
 20
-5.1008941841
  0
LWPOLYLINE
  5
3AD
100
AcDbEntity
  8
IMPORT_IGES
100
AcDbPolyline
 62
7
  6
CONTINUOUS
 90
10
 70
0
 10
-3.5987209994
 20
-4.4822999358
 10
-3.6148036379
 20
-4.5429346737
 10
-3.6287967553
 20
-4.6038765882
 10
-3.6407003516
 20
-4.6651256791
 10
-3.6504782378
 20
-4.7267103796
 10
-3.6581666028
 20
-4.7886022565
 10
-3.663874014
 20
-4.8507160108
 10
-3.6676366604
 20
-4.9130232093
 10
-3.6694183529
 20
-4.975552285
 10
-3.6692190915
 20
-5.0383032381
  0
LWPOLYLINE
  5
3AE
100
AcDbEntity
  8
IMPORT_IGES
100
AcDbPolyline
 62
7
  6
CONTINUOUS
 90
10
 70
0
 10
-2.0836801268
 20
-4.4822999358
 10
-2.0997627653
 20
-4.5429346737
 10
-2.1137558827
 20
-4.6038765882
 10
-2.125659479
 20
-4.6651256791
 10
-2.1354373651
 20
-4.7267103796
 10
-2.1431257302
 20
-4.7886022565
 10
-2.1488331414
 20
-4.8507160108
 10
-2.1525957878
 20
-4.9130232093
 10
-2.1543774803
 20
-4.975552285
 10
-2.1541782189
 20
-5.0383032381
  0
LINE
  5
3AF
100
AcDbEntity
  8
IMPORT_IGES
100
AcDbLine
 62
253
  6
CONTINUOUS
 10
-18.465937539
 20
-51.2370148971
 11
-17.9339846219
 21
-49.7385682863
  0
LINE
  5
3B0
100
AcDbEntity
  8
IMPORT_IGES
100
AcDbLine
 62
7
  6
CONTINUOUS
 10
-6.7456346005
 20
-10.9249995172
 11
-5.9821279719
 21
-8.9750000357
  0
LWPOLYLINE
  5
3B1
100
AcDbEntity
  8
IMPORT_IGES
100
AcDbPolyline
 62
7
  6
CONTINUOUS
 90
22
 70
0
 10
-9.0241814032
 20
-10.6017747044
 10
-9.009372542
 20
-10.5764338393
 10
-8.9959352244
 20
-10.5508089201
 10
-8.9838694504
 20
-10.5248999469
 10
-8.9732338213
 20
-10.4987332644
 10
-8.9639697358
 20
-10.4722825279
 10
-8.9559013904
 20
-10.445468703
 10
-8.9491585924
 20
-10.4183105883
 10
-8.9436115344
 20
-10.3907893851
 10
-8.9386949907
 20
-10.3627696628
 10
-8.9343340225
 20
-10.3342838656
 10
-8.9306035686
 20
-10.3052995494
 10
-8.9271632204
 20
-10.2755839514
 10
-8.9238623353
 20
-10.2451641187
 10
-8.9208515559
 20
-10.2140130042
 10
-8.918242401
 20
-10.1818167034
 10
-8.9160767024
 20
-10.14857285
 10
-8.9143126284
 20
-10.1142838103
 10
-8.912936203
 20
-10.0786427785
 10
-8.9119427676
 20
-10.0415474862
 10
-8.9113369808
 20
-10.0031002018
 10
-8.9111188427
 20
-9.9633009255
  0
LWPOLYLINE
  5
3B2
100
AcDbEntity
  8
IMPORT_IGES
100
AcDbPolyline
 62
7
  6
CONTINUOUS
 90
22
 70
0
 10
-2.7567362413
 20
-5.6767732918
 10
-2.7419273778
 20
-5.6514325841
 10
-2.7284900591
 20
-5.6258078238
 10
-2.7164242854
 20
-5.5998990111
 10
-2.7057886553
 20
-5.573732491
 10
-2.69652457
 20
-5.5472819183
 10
-2.6884562335
 20
-5.5204682581
 10
-2.6817134552
 20
-5.4933103085
 10
-2.6761664256
 20
-5.4657892714
 10
-2.6712499205
 20
-5.4377697169
 10
-2.6668890059
 20
-5.4092840894
 10
-2.6631586157
 20
-5.3802999446
 10
-2.6597183271
 20
-5.3505845197
 10
-2.6564175027
 20
-5.3201648603
 10
-2.6534067799
 20
-5.2890139208
 10
-2.6507976481
 20
-5.256817802
 10
-2.6486319293
 20
-5.2235741406
 10
-2.6468678015
 20
-5.1892852998
 10
-2.6454912872
 20
-5.15364447
 10
-2.6444977272
 20
-5.1165493816
 10
-2.6438917808
 20
-5.0781023043
 10
-2.6436734479
 20
-5.0383032381
  0
LWPOLYLINE
  5
3B3
100
AcDbEntity
  8
IMPORT_IGES
100
AcDbPolyline
 62
7
  6
CONTINUOUS
 90
22
 70
0
 10
-3.2990451436
 20
-4.3801524758
 10
-3.3146710325
 20
-4.4059942735
 10
-3.3288999855
 20
-4.432164095
 10
-3.3417320027
 20
-4.4586619401
 10
-3.3530949964
 20
-4.485465463
 10
-3.3630610543
 20
-4.5125970096
 10
-3.3718464391
 20
-4.5401236177
 10
-3.3793521307
 20
-4.5680177333
 10
-3.3856771493
 20
-4.5963069105
 10
-3.3913348174
 20
-4.6251408492
 10
-3.396395434
 20
-4.6544911046
 10
-3.4007887001
 20
-4.6843861216
 10
-3.4048170425
 20
-4.7150609342
 10
-3.4086153089
 20
-4.7464880956
 10
-3.4120486515
 20
-4.7786950527
 10
-3.4150149533
 20
-4.8119991805
 10
-3.4174675588
 20
-4.8464024204
 10
-3.4194531236
 20
-4.881902831
 10
-3.4210094967
 20
-4.9188119631
 10
-3.4221492946
 20
-4.9572336667
 10
-3.4228599009
 20
-4.9970640917
 10
-3.4231413156
 20
-5.0383032381
  0
LWPOLYLINE
  5
3B4
100
AcDbEntity
  8
IMPORT_IGES
100
AcDbPolyline
 62
7
  6
CONTINUOUS
 90
10
 70
0
 10
-12.8124486655
 20
-10.499351573
 10
-12.8338095472
 20
-10.525702573
 10
-12.8543367675
 20
-10.5526079541
 10
-12.8740303264
 20
-10.5800677162
 10
-12.8930468142
 20
-10.6080131819
 10
-12.9112296407
 20
-10.6365130287
 10
-12.9281090349
 20
-10.6657732885
 10
-12.9435284067
 20
-10.6958626388
 10
-12.9576443462
 20
-10.7267124022
 10
-12.9704568535
 20
-10.7583225786
  0
LWPOLYLINE
  5
3B5
100
AcDbEntity
  8
IMPORT_IGES
100
AcDbPolyline
 62
7
  6
CONTINUOUS
 90
10
 70
0
 10
-12.0688946918
 20
-9.7917140543
 10
-12.1123434646
 20
-9.8419465988
 10
-12.156920416
 20
-9.8910271
 10
-12.2026255459
 20
-9.9389555581
 10
-12.2495303348
 20
-9.9856719255
 10
-12.2975633023
 20
-10.0312362498
 10
-12.346510007
 20
-10.075828673
 10
-12.3962989686
 20
-10.1195092426
 10
-12.4470016674
 20
-10.1622179112
 10
-12.4986181036
 20
-10.2039546787
  0
LWPOLYLINE
  5
3B6
100
AcDbEntity
  8
IMPORT_IGES
100
AcDbPolyline
 62
7
  6
CONTINUOUS
 90
10
 70
0
 10
-11.9182579219
 20
-9.9769019603
 10
-11.8972080548
 20
-9.952754782
 10
-11.87686703
 20
-9.9280880271
 10
-11.8572348474
 20
-9.9029016955
 10
-11.8381484219
 20
-9.8772795857
 10
-11.8197708386
 20
-9.8511378991
 10
-11.8025913538
 20
-9.8242252409
 10
-11.786773053
 20
-9.7964578127
 10
-11.7721528506
 20
-9.7679194127
 10
-11.7587307468
 20
-9.7386100411
  0
LWPOLYLINE
  5
3B7
100
AcDbEntity
  8
IMPORT_IGES
100
AcDbPolyline
 62
7
  6
CONTINUOUS
 90
13
 70
0
 10
-10.4077169766
 20
-10.802365042
 10
-10.3793118212
 20
-10.7727013134
 10
-10.3529195836
 20
-10.7418108309
 10
-10.3285402637
 20
-10.7096935944
 10
-10.305870297
 20
-10.676377356
 10
-10.285213248
 20
-10.6418343636
 10
-10.2674798106
 20
-10.6059813608
 10
-10.2530890038
 20
-10.5685727265
 10
-10.2416218086
 20
-10.5298540817
 10
-10.2327318617
 20
-10.4904790336
 10
-10.2263037087
 20
-10.4506654513
 10
-10.222452804
 20
-10.4101954657
 10
-10.2211791476
 20
-10.3690690768
  0
LWPOLYLINE
  5
3B8
100
AcDbEntity
  8
IMPORT_IGES
100
AcDbPolyline
 62
7
  6
CONTINUOUS
 90
13
 70
0
 10
-11.2746580656
 20
-9.1200574708
 10
-11.3000202143
 20
-9.1462131489
 10
-11.3240764284
 20
-9.1731355372
 10
-11.346826708
 20
-9.2008246356
 10
-11.368570127
 20
-9.2291352804
 10
-11.3890076115
 20
-9.2582126354
 10
-11.4072419394
 20
-9.2884921917
 10
-11.4227668707
 20
-9.3202593321
 10
-11.4360886454
 20
-9.3532286738
 10
-11.4478287614
 20
-9.3869795591
 10
-11.4581943849
 20
-9.4213717687
 10
-11.4669783497
 20
-9.4565455221
 10
-11.4741806559
 20
-9.492500819
  0
LWPOLYLINE
  5
3B9
100
AcDbEntity
  8
IMPORT_IGES
100
AcDbPolyline
 62
7
  6
CONTINUOUS
 90
13
 70
0
 10
-12.7621898428
 20
-9.1116772115
 10
-12.7909867083
 20
-9.1396771779
 10
-12.8174118606
 20
-9.1691761177
 10
-12.8414652997
 20
-9.200174031
 10
-12.8632148738
 20
-9.2327955203
 10
-12.8825927347
 20
-9.2669159831
 10
-12.8993953378
 20
-9.3021616111
 10
-12.9133181311
 20
-9.3386119831
 10
-12.9246656666
 20
-9.3761875205
 10
-12.9341480557
 20
-9.414275679
 10
-12.9420020021
 20
-9.4526722775
 10
-12.947990802
 20
-9.4915814971
 10
-12.9521144554
 20
-9.5310033381
  0
LWPOLYLINE
  5
3BA
100
AcDbEntity
  8
IMPORT_IGES
100
AcDbPolyline
 62
7
  6
CONTINUOUS
 90
10
 70
0
 10
-9.6543459222
 20
-9.0818078339
 10
-9.6863359716
 20
-9.1122241083
 10
-9.7162750446
 20
-9.1440938051
 10
-9.7441631412
 20
-9.1774169243
 10
-9.7700837563
 20
-9.2122148052
 10
-9.7939533949
 20
-9.2484661085
 10
-9.815521573
 20
-9.2861068163
 10
-9.8347047959
 20
-9.3251155892
 10
-9.8515865581
 20
-9.3655137666
 10
-9.8661668599
 20
-9.4073013484
  0
LWPOLYLINE
  5
3BB
100
AcDbEntity
  8
IMPORT_IGES
100
AcDbPolyline
 62
7
  6
CONTINUOUS
 90
10
 70
0
 10
-12.5640602782
 20
-10.5655313551
 10
-12.5341838927
 20
-10.5372020272
 10
-12.5040667346
 20
-10.5091435785
 10
-12.4737088039
 20
-10.4813560091
 10
-12.4430869308
 20
-10.4538632331
 10
-12.4122242851
 20
-10.4266413363
 10
-12.3811903762
 20
-10.399618576
 10
-12.3500083739
 20
-10.372771038
 10
-12.3186551082
 20
-10.3461226364
 10
-12.2871305793
 20
-10.3196733713
  0
LWPOLYLINE
  5
3BC
100
AcDbEntity
  8
IMPORT_IGES
100
AcDbPolyline
 62
7
  6
CONTINUOUS
 90
6
 70
0
 10
-12.1184661521
 20
-10.1727901048
 10
-12.0768415608
 20
-10.1353558279
 10
-12.0359605366
 20
-10.0970987327
 10
-11.9959827646
 20
-10.0578559603
 10
-11.9567485597
 20
-10.0177903695
 10
-11.9182579219
 20
-9.9769019603
  0
LWPOLYLINE
  5
3BD
100
AcDbEntity
  8
IMPORT_IGES
100
AcDbPolyline
 62
7
  6
CONTINUOUS
 90
10
 70
0
 10
-12.600954622
 20
-9.2689626932
 10
-12.575098573
 20
-9.2458648713
 10
-12.5478664192
 20
-9.2257388661
 10
-12.5192581606
 20
-9.2085846774
 10
-12.489067374
 20
-9.1945080216
 10
-12.4575004826
 20
-9.1834031825
 10
-12.4251767557
 20
-9.1749530114
 10
-12.3923026163
 20
-9.1690517923
 10
-12.3586716413
 20
-9.1658052413
 10
-12.3242838308
 20
-9.1652133584
  0
LWPOLYLINE
  5
3BE
100
AcDbEntity
  8
IMPORT_IGES
100
AcDbPolyline
 62
7
  6
CONTINUOUS
 90
4
 70
0
 10
-12.2871305793
 20
-10.3196733713
 10
-12.2446076262
 20
-10.2834132026
 10
-12.2023491849
 20
-10.2468187921
 10
-12.1184661521
 20
-10.1727901048
  0
LWPOLYLINE
  5
3BF
100
AcDbEntity
  8
IMPORT_IGES
100
AcDbPolyline
 62
7
  6
CONTINUOUS
 90
10
 70
0
 10
-11.1153551064
 20
-9.2713638616
 10
-11.0932390558
 20
-9.2525685654
 10
-11.0700704123
 20
-9.2360788174
 10
-11.0458491757
 20
-9.2218946175
 10
-11.0204328856
 20
-9.2100641402
 10
-10.9939640025
 20
-9.2005392111
 10
-10.9668699081
 20
-9.193175307
 10
-10.9392930632
 20
-9.1879242534
 10
-10.9110910071
 20
-9.1848342248
 10
-10.8822637397
 20
-9.1839052212
  0
LWPOLYLINE
  5
3C0
100
AcDbEntity
  8
IMPORT_IGES
100
AcDbPolyline
 62
7
  6
CONTINUOUS
 90
10
 70
0
 10
-12.4986181036
 20
-10.2039546787
 10
-12.5356989217
 20
-10.2343102845
 10
-12.5723367899
 20
-10.265177641
 10
-12.6085317082
 20
-10.2965567484
 10
-12.6444299953
 20
-10.3283078506
 10
-12.6798853325
 20
-10.3605707037
 10
-12.7144587637
 20
-10.3937645756
 10
-12.7480039703
 20
-10.4280292225
 10
-12.7806672709
 20
-10.4632248883
 10
-12.8124486655
 20
-10.499351573
  0
LINE
  5
3C1
100
AcDbEntity
  8
0
100
AcDbLine
 62
253
  6
CONTINUOUS
 10
14.8623188406
 20
9.1650035476
 11
15.5141651337
 21
9.5413471805
  0
LINE
  5
3C2
100
AcDbEntity
  8
0
100
AcDbLine
 62
7
  6
CONTINUOUS
 10
14.9
 20
9.0696152423
 11
15.449069357
 21
9.3866205834
  0
LINE
  5
3C3
100
AcDbEntity
  8
0
100
AcDbLine
 62
7
  6
CONTINUOUS
 10
15.7089144185
 20
8.6128817689
 11
14.1
 21
7.6839745962
  0
LINE
  5
3C4
100
AcDbEntity
  8
0
100
AcDbLine
 62
253
  6
CONTINUOUS
 10
15.0651785564
 20
8.1106893304
 11
14.6800791783
 21
7.8883521008
  0
LINE
  5
3C5
100
AcDbEntity
  8
0
100
AcDbLine
 62
253
  6
CONTINUOUS
 10
14.6535568827
 20
7.8730138351
 11
14.4184615337
 21
7.7373119219
  0
LINE
  5
3C6
100
AcDbEntity
  8
0
100
AcDbLine
 62
253
  6
CONTINUOUS
 10
15.6974839334
 20
8.4756888923
 11
15.3726726261
 21
8.2882199119
  0
LINE
  5
3C7
100
AcDbEntity
  8
0
100
AcDbLine
 62
253
  6
CONTINUOUS
 10
15.2505335327
 20
8.2176940968
 11
15.0905711569
 21
8.125375485
  0
LINE
  5
3C8
100
AcDbEntity
  8
0
100
AcDbLine
 62
253
  6
CONTINUOUS
 10
14.2012377822
 20
7.6118605756
 11
14.152173913
 21
7.5835658538
  0
LINE
  5
3C9
100
AcDbEntity
  8
0
100
AcDbLine
 62
253
  6
CONTINUOUS
 10
14.3198520546
 20
7.6803638459
 11
14.2488749543
 21
7.639434392
  0
LINE
  5
3CA
100
AcDbEntity
  8
0
100
AcDbLine
 62
7
  6
CONTINUOUS
 10
13.0869565217
 20
6.9873686004
 11
13.110258817
 21
7.0006484875
  0
LWPOLYLINE
  5
3CB
100
AcDbEntity
  8
IMPORT_IGES
100
AcDbPolyline
 62
253
  6
CONTINUOUS
 90
6
 70
0
 10
22.9076106684
 20
0.0291330075
 10
22.9013292149
 20
0.028249709
 10
22.8885292959
 20
0.0275010578
 10
22.8692527787
 20
0.0268862822
 10
22.8435626644
 20
0.0264010804
 10
22.8115430431
 20
0.0260469936
  0
LINE
  5
3CC
100
AcDbEntity
  8
IMPORT_IGES
100
AcDbLine
 62
253
  6
CONTINUOUS
 10
-20.9083286362
 20
0.0500095981
 11
-21.472820237
 21
0.0400270226
  0
LINE
  5
3CD
100
AcDbEntity
  8
IMPORT_IGES
100
AcDbLine
 62
253
  6
CONTINUOUS
 10
-21.472820237
 20
0.0400270226
 11
-21.8932274677
 21
0.0336163746
  0
LINE
  5
3CE
100
AcDbEntity
  8
IMPORT_IGES
100
AcDbLine
 62
253
  6
CONTINUOUS
 10
-21.8932274677
 20
0.0336163746
 11
-22.2623298604
 21
0.0289694629
  0
LINE
  5
3CF
100
AcDbEntity
  8
IMPORT_IGES
100
AcDbLine
 62
253
  6
CONTINUOUS
 10
-22.2623298604
 20
0.0289694629
 11
-22.5608744789
 21
0.0263308919
  0
LINE
  5
3D0
100
AcDbEntity
  8
IMPORT_IGES
100
AcDbLine
 62
253
  6
CONTINUOUS
 10
22.8115430431
 20
0.0260469936
 11
22.7289550354
 21
0.0257521355
  0
LINE
  5
3D1
100
AcDbEntity
  8
IMPORT_IGES
100
AcDbLine
 62
253
  6
CONTINUOUS
 10
-22.5608744789
 20
0.0263308919
 11
-22.7289551964
 21
0.0257542603
  0
LINE
  5
3D2
100
AcDbEntity
  8
IMPORT_IGES
100
AcDbLine
 62
7
  6
CONTINUOUS
 10
-20.9086711632
 20
0.0500021342
 11
20.9086711743
 21
0.0500021342
  0
LINE
  5
3D3
100
AcDbEntity
  8
IMPORT_IGES
100
AcDbLine
 62
253
  6
CONTINUOUS
 10
22.7289550354
 20
0.0257521355
 11
22.5608742325
 21
0.0263283817
  0
LWPOLYLINE
  5
3D4
100
AcDbEntity
  8
IMPORT_IGES
100
AcDbPolyline
 62
253
  6
CONTINUOUS
 90
7
 70
0
 10
-22.7289551964
 20
0.0257542603
 10
-22.8115431336
 20
0.0260487833
 10
-22.8435627314
 20
0.02640268
 10
-22.8692528265
 20
0.0268876785
 10
-22.8885293283
 20
0.0275022383
 10
-22.901329236
 20
0.0282506606
 10
-22.907610682
 20
0.029133717
  0
LINE
  5
3D5
100
AcDbEntity
  8
IMPORT_IGES
100
AcDbLine
 62
253
  6
CONTINUOUS
 10
22.5608742325
 20
0.0263283817
 11
22.262329698
 21
0.0289666724
  0
LINE
  5
3D6
100
AcDbEntity
  8
IMPORT_IGES
100
AcDbLine
 62
253
  6
CONTINUOUS
 10
22.262329698
 20
0.0289666724
 11
21.893227252
 21
0.0336135855
  0
LINE
  5
3D7
100
AcDbEntity
  8
IMPORT_IGES
100
AcDbLine
 62
253
  6
CONTINUOUS
 10
21.893227252
 20
0.0336135855
 11
21.3622351082
 21
0.0418645619
  0
LINE
  5
3D8
100
AcDbEntity
  8
IMPORT_IGES
100
AcDbLine
 62
253
  6
CONTINUOUS
 10
21.3622351082
 20
0.0418645619
 11
20.9083286017
 21
0.0500078026
  0
LWPOLYLINE
  5
3D9
100
AcDbEntity
  8
IMPORT_IGES
100
AcDbPolyline
 62
7
  6
CONTINUOUS
 90
10
 70
0
 10
10.5236480013
 20
-4.3727354228
 10
10.4418597365
 20
-4.3566585464
 10
10.359733997
 20
-4.3424464389
 10
10.2772707826
 20
-4.3300991003
 10
10.1944591136
 20
-4.3195111313
 10
10.1113099699
 20
-4.3107879313
 10
10.0278562906
 20
-4.3042456984
 10
9.9441090555
 20
-4.299989832
 10
9.860057285
 20
-4.2979149327
 10
9.7757009789
 20
-4.2980210006
  0
LWPOLYLINE
  5
3DA
100
AcDbEntity
  8
IMPORT_IGES
100
AcDbPolyline
 62
7
  6
CONTINUOUS
 90
10
 70
0
 10
11.184132658
 20
-4.5208715915
 10
11.1184577814
 20
-4.493234495
 10
11.0523501429
 20
-4.466805527
 10
10.9858097425
 20
-4.4415846874
 10
10.9188628973
 20
-4.4174495899
 10
10.8514832901
 20
-4.3945226208
 10
10.7835919698
 20
-4.3731709395
 10
10.7151626191
 20
-4.3535169321
 10
10.6462215553
 20
-4.3354382124
 10
10.5767687783
 20
-4.3189347803
  0
LWPOLYLINE
  5
3DB
100
AcDbEntity
  8
IMPORT_IGES
100
AcDbPolyline
 62
7
  6
CONTINUOUS
 90
10
 70
0
 10
11.1619187519
 20
-4.5811244368
 10
11.0989328716
 20
-4.5543984999
 10
11.0354473665
 20
-4.52884649
 10
10.9714622367
 20
-4.5044684072
 10
10.9069882435
 20
-4.4811950919
 10
10.8420146255
 20
-4.4590957037
 10
10.7765090984
 20
-4.4383777207
 10
10.7104609008
 20
-4.4191103024
 10
10.6438807941
 20
-4.4012242894
 10
10.5767687783
 20
-4.3847196817
  0
LWPOLYLINE
  5
3DC
100
AcDbEntity
  8
IMPORT_IGES
100
AcDbPolyline
 62
7
  6
CONTINUOUS
 90
10
 70
0
 10
1.7816019244
 20
-4.1114547372
 10
1.7505553483
 20
-4.097531624
 10
1.7191028172
 20
-4.0850578159
 10
1.6872443314
 20
-4.0740333128
 10
1.6549723191
 20
-4.064321176
 10
1.622294352
 20
-4.0560583442
 10
1.5892331446
 20
-4.0496556342
 10
1.5557962685
 20
-4.0452499848
 10
1.5219761521
 20
-4.0427044572
 10
1.4877727954
 20
-4.0420190513
  0
LWPOLYLINE
  5
3DD
100
AcDbEntity
  8
IMPORT_IGES
100
AcDbPolyline
 62
7
  6
CONTINUOUS
 90
10
 70
0
 10
3.2966425642
 20
-4.1114547372
 10
3.2655960002
 20
-4.0975316298
 10
3.2341434816
 20
-4.0850578259
 10
3.2022850084
 20
-4.0740333256
 10
3.1700130092
 20
-4.0643211898
 10
3.1373350554
 20
-4.0560583575
 10
3.1042738613
 20
-4.0496556458
 10
3.0708369983
 20
-4.0452499937
 10
3.0370168951
 20
-4.0427044622
 10
3.0028135516
 20
-4.0420190513
  0
LINE
  5
3DE
100
AcDbEntity
  8
0
100
AcDbLine
 62
7
  6
CONTINUOUS
 10
-14.9
 20
9.0696152423
 11
-15.449069357
 21
9.3866205834
  0
LINE
  5
3DF
100
AcDbEntity
  8
0
100
AcDbLine
 62
253
  6
CONTINUOUS
 10
-14.9637681159
 20
8.9892882483
 11
-15.6156144091
 21
9.3656318811
  0
LWPOLYLINE
  5
3E0
100
AcDbEntity
  8
0
100
AcDbPolyline
 62
7
  6
CONTINUOUS
 90
10
 70
0
 10
-14.8635658598
 20
9.9723404124
 10
-14.8688240151
 20
9.9756992539
 10
-14.8735527866
 20
9.9792537154
 10
-14.8777486053
 20
9.9830095556
 10
-14.8814054801
 20
9.9870007024
 10
-14.8845217724
 20
9.9912028561
 10
-14.8871009812
 20
9.9955338974
 10
-14.8891424479
 20
9.9999688771
 10
-14.8906405545
 20
10.0045395972
 10
-14.8915920599
 20
10.0092485071
  0
LINE
  5
3E1
100
AcDbEntity
  8
IMPORT_IGES
100
AcDbLine
 62
7
  6
CONTINUOUS
 10
7.1161547676
 20
-10.0744784891
 11
7.0255240425
 21
-9.9838459015
  0
LWPOLYLINE
  5
3E2
100
AcDbEntity
  8
IMPORT_IGES
100
AcDbPolyline
 62
7
  6
CONTINUOUS
 90
10
 70
0
 10
0.2075072698
 20
-4.3260091066
 10
0.2263834799
 20
-4.3461030189
 10
0.2430692219
 20
-4.3673008742
 10
0.2575644959
 20
-4.3896026724
 10
0.2699155226
 20
-4.4131235407
 10
0.2800760813
 20
-4.4377483521
 10
0.2879075098
 20
-4.4631317247
 10
0.2933635874
 20
-4.4891585315
 10
0.2964905349
 20
-4.5159438995
 10
0.2972883522
 20
-4.5434878289
  0
LWPOLYLINE
  5
3E3
100
AcDbEntity
  8
IMPORT_IGES
100
AcDbPolyline
 62
7
  6
CONTINUOUS
 90
10
 70
0
 10
1.722548157
 20
-4.3260091066
 10
1.7414244267
 20
-4.3461029933
 10
1.7581102199
 20
-4.3673008304
 10
1.7726055365
 20
-4.3896026179
 10
1.7849565956
 20
-4.4131234845
 10
1.7951171782
 20
-4.4377483015
 10
1.8029486272
 20
-4.4631316831
 10
1.8084047236
 20
-4.4891585005
 10
1.8115316865
 20
-4.5159438825
 10
1.8123295158
 20
-4.5434878289
  0
LWPOLYLINE
  5
3E4
100
AcDbEntity
  8
IMPORT_IGES
100
AcDbPolyline
 62
7
  6
CONTINUOUS
 90
10
 70
0
 10
3.2375890296
 20
-4.3260091066
 10
3.2564652209
 20
-4.3461030281
 10
3.273150952
 20
-4.3673008893
 10
3.2876462227
 20
-4.38960269
 10
3.2999972562
 20
-4.4131235561
 10
3.3101578293
 20
-4.4377483618
 10
3.3179892728
 20
-4.4631317296
 10
3.3234453635
 20
-4.4891585339
 10
3.3265723244
 20
-4.5159439003
 10
3.3273701556
 20
-4.5434878289
  0
LWPOLYLINE
  5
3E5
100
AcDbEntity
  8
IMPORT_IGES
100
AcDbPolyline
 62
7
  6
CONTINUOUS
 90
10
 70
0
 10
1.2563266791
 20
-5.7472706854
 10
1.230692282
 20
-5.7198196775
 10
1.2078157544
 20
-5.6908266282
 10
1.1876970964
 20
-5.6602915377
 10
1.1706414753
 20
-5.6278955208
 10
1.1563437237
 20
-5.5939574625
 10
1.1438883396
 20
-5.5594340186
 10
1.1329701554
 20
-5.5246440741
 10
1.1238943386
 20
-5.4892687439
 10
1.1166608892
 20
-5.453308028
  0
LWPOLYLINE
  5
3E6
100
AcDbEntity
  8
IMPORT_IGES
100
AcDbPolyline
 62
7
  6
CONTINUOUS
 90
10
 70
0
 10
2.7713675518
 20
-5.7472706854
 10
2.7457329607
 20
-5.7198198145
 10
2.7228563265
 20
-5.6908268444
 10
2.7027376492
 20
-5.6602917752
 10
2.6856821393
 20
-5.62789569
 10
2.6713845864
 20
-5.5939575057
 10
2.6589293586
 20
-5.5594339724
 10
2.6480112455
 20
-5.5246440066
 10
2.6389354575
 20
-5.4892686918
 10
2.6317019947
 20
-5.453308028
  0
LWPOLYLINE
  5
3E7
100
AcDbEntity
  8
IMPORT_IGES
100
AcDbPolyline
 62
7
  6
CONTINUOUS
 90
10
 70
0
 10
0.277336163
 20
-5.1580154419
 10
0.3003787759
 20
-5.1832895552
 10
0.3206574342
 20
-5.2099021478
 10
0.3381721379
 20
-5.2378532196
 10
0.3529280286
 20
-5.2673021086
 10
0.3649199646
 20
-5.2980894769
 10
0.3741325208
 20
-5.3297373103
 10
0.3805605554
 20
-5.3620862708
 10
0.3842092102
 20
-5.3952956964
 10
0.3850784851
 20
-5.4293655872
  0
LWPOLYLINE
  5
3E8
100
AcDbEntity
  8
IMPORT_IGES
100
AcDbPolyline
 62
7
  6
CONTINUOUS
 90
10
 70
0
 10
1.7923772102
 20
-5.1580154419
 10
1.8154197676
 20
-5.1832895763
 10
1.8356983753
 20
-5.2099021837
 10
1.8532130333
 20
-5.237853264
 10
1.8679688867
 20
-5.267302154
 10
1.8799607904
 20
-5.2980895168
 10
1.8891733096
 20
-5.3297373426
 10
1.8956012993
 20
-5.3620862945
 10
1.8992499044
 20
-5.3952957094
 10
1.9001191249
 20
-5.4293655872
  0
LWPOLYLINE
  5
3E9
100
AcDbEntity
  8
IMPORT_IGES
100
AcDbPolyline
 62
7
  6
CONTINUOUS
 90
10
 70
0
 10
3.3074181993
 20
-5.1580154419
 10
3.3304607012
 20
-5.183289603
 10
3.3507392803
 20
-5.2099022268
 10
3.3682539366
 20
-5.2378533132
 10
3.3830098238
 20
-5.2673021942
 10
3.3950017882
 20
-5.2980895377
 10
3.4042143688
 20
-5.3297373484
 10
3.4106424119
 20
-5.3620862942
 10
3.4142910712
 20
-5.3952957072
 10
3.4151603468
 20
-5.4293655872
  0
LWPOLYLINE
  5
3EA
100
AcDbEntity
  8
IMPORT_IGES
100
AcDbPolyline
 62
7
  6
CONTINUOUS
 90
10
 70
0
 10
0.5433661863
 20
-5.1101305604
 10
0.5191003773
 20
-5.0831308938
 10
0.4934364888
 20
-5.0581549611
 10
0.4663745211
 20
-5.0352027623
 10
0.4379132626
 20
-5.0141307632
 10
0.4080539248
 20
-4.995082498
 10
0.3768001416
 20
-4.9784885692
 10
0.3441531241
 20
-4.964492511
 10
0.3101116612
 20
-4.9529507892
 10
0.2746757527
 20
-4.9438634038
  0
LWPOLYLINE
  5
3EB
100
AcDbEntity
  8
IMPORT_IGES
100
AcDbPolyline
 62
7
  6
CONTINUOUS
 90
10
 70
0
 10
2.0584070589
 20
-5.1101305604
 10
2.0341413123
 20
-5.0831308495
 10
2.008477474
 20
-5.0581548895
 10
1.981415544
 20
-5.0352026803
 10
1.9529543056
 20
-5.0141306957
 10
1.9230949755
 20
-4.9950824619
 10
1.8918412036
 20
-4.9784885579
 10
1.8591942066
 20
-4.9644925101
 10
1.8251527678
 20
-4.952950792
 10
1.7897168873
 20
-4.9438634038
  0
LWPOLYLINE
  5
3EC
100
AcDbEntity
  8
IMPORT_IGES
100
AcDbPolyline
 62
7
  6
CONTINUOUS
 90
10
 70
0
 10
3.5734481644
 20
-5.1101305604
 10
3.5491823236
 20
-5.0831308798
 10
3.5235184034
 20
-5.0581549344
 10
3.4964564037
 20
-5.0352027242
 10
3.4679951144
 20
-5.014130712
 10
3.4381357457
 20
-4.995082435
 10
3.4068819279
 20
-4.9784885045
 10
3.3742348712
 20
-4.9644924577
 10
3.3401933655
 20
-4.9529507575
 10
3.3047574107
 20
-4.9438634038
  0
LWPOLYLINE
  5
3ED
100
AcDbEntity
  8
IMPORT_IGES
100
AcDbPolyline
 62
7
  6
CONTINUOUS
 90
10
 70
0
 10
-1.0479633929
 20
-4.288402301
 10
-1.0653759561
 20
-4.2637661562
 10
-1.0838067741
 20
-4.2401257825
 10
-1.1032558469
 20
-4.2174811801
 10
-1.1236550101
 20
-4.1956982215
 10
-1.1450724281
 20
-4.1749110342
 10
-1.1677125944
 20
-4.155522
 10
-1.1916436734
 20
-4.1376652463
 10
-1.2167975006
 20
-4.1212066458
 10
-1.2431740761
 20
-4.1061461985
  0
LWPOLYLINE
  5
3EE
100
AcDbEntity
  8
IMPORT_IGES
100
AcDbPolyline
 62
7
  6
CONTINUOUS
 90
10
 70
0
 10
0.4712438094
 20
-4.2975888669
 10
0.4534293995
 20
-4.2717244354
 10
0.4344118074
 20
-4.2470679415
 10
0.4141910332
 20
-4.2236193854
 10
0.3928055499
 20
-4.2012617301
 10
0.3702168844
 20
-4.1801120125
 10
0.3463096176
 20
-4.1605213433
 10
0.3210452763
 20
-4.1426067595
 10
0.2944623338
 20
-4.1262512241
 10
0.2665607899
 20
-4.1114547372
  0
LWPOLYLINE
  5
3EF
100
AcDbEntity
  8
IMPORT_IGES
100
AcDbPolyline
 62
7
  6
CONTINUOUS
 90
10
 70
0
 10
1.9862849731
 20
-4.2975888669
 10
1.9684705381
 20
-4.2717244576
 10
1.9494529275
 20
-4.2470679796
 10
1.9292321413
 20
-4.2236194328
 10
1.9078466539
 20
-4.2012617791
 10
1.885257991
 20
-4.1801120567
 10
1.8613507289
 20
-4.1605213798
 10
1.8360863932
 20
-4.1426067867
 10
1.8095034584
 20
-4.1262512391
 10
1.7816019244
 20
-4.1114547372
  0
LWPOLYLINE
  5
3F0
100
AcDbEntity
  8
IMPORT_IGES
100
AcDbPolyline
 62
7
  6
CONTINUOUS
 90
10
 70
0
 10
3.5013256129
 20
-4.2975888669
 10
3.4835111779
 20
-4.2717244576
 10
3.4644935673
 20
-4.2470679796
 10
3.4442727811
 20
-4.2236194328
 10
3.4228872937
 20
-4.2012617791
 10
3.4002986308
 20
-4.1801120567
 10
3.3763913687
 20
-4.1605213798
 10
3.351127033
 20
-4.1426067867
 10
3.3245440982
 20
-4.1262512391
 10
3.2966425642
 20
-4.1114547372
  0
LINE
  5
3F1
100
AcDbEntity
  8
IMPORT_IGES
100
AcDbLine
 62
253
  6
CONTINUOUS
 10
-21.7355302392
 20
51.3770727794
 11
-21.7379750113
 21
51.3832632568
  0
LWPOLYLINE
  5
3F2
100
AcDbEntity
  8
IMPORT_IGES
100
AcDbPolyline
 62
253
  6
CONTINUOUS
 90
4
 70
0
 10
18.5959712726
 20
-51.5893615137
 10
18.603052576
 20
-51.6074955401
 10
18.6080369629
 20
-51.6195182567
 10
18.6109019258
 20
-51.6252942474
  0
LINE
  5
3F3
100
AcDbEntity
  8
IMPORT_IGES
100
AcDbLine
 62
253
  6
CONTINUOUS
 10
18.5755842459
 20
-51.5358212639
 11
18.5959712726
 21
-51.5893615137
  0
LINE
  5
3F4
100
AcDbEntity
  8
IMPORT_IGES
100
AcDbLine
 62
253
  6
CONTINUOUS
 10
-21.2696850931
 20
50.1357166648
 11
-21.7237865394
 21
51.3457157702
  0
LINE
  5
3F5
100
AcDbEntity
  8
IMPORT_IGES
100
AcDbLine
 62
253
  6
CONTINUOUS
 10
-21.7237865394
 20
51.3457157702
 11
-21.7355302392
 21
51.3770727794
  0
LINE
  5
3F6
100
AcDbEntity
  8
IMPORT_IGES
100
AcDbLine
 62
253
  6
CONTINUOUS
 10
-21.0204343503
 20
49.4671948314
 11
-21.2696850931
 21
50.1357166648
  0
LINE
  5
3F7
100
AcDbEntity
  8
IMPORT_IGES
100
AcDbLine
 62
253
  6
CONTINUOUS
 10
18.5478650255
 20
-51.4609838534
 11
18.5755842459
 21
-51.5358212639
  0
LINE
  5
3F8
100
AcDbEntity
  8
IMPORT_IGES
100
AcDbLine
 62
253
  6
CONTINUOUS
 10
18.4924983747
 20
-51.3099400813
 11
18.5478650255
 21
-51.4609838534
  0
LINE
  5
3F9
100
AcDbEntity
  8
IMPORT_IGES
100
AcDbLine
 62
253
  6
CONTINUOUS
 10
18.3919560802
 20
-51.0318147214
 11
18.4924983747
 21
-51.3099400813
  0
LINE
  5
3FA
100
AcDbEntity
  8
IMPORT_IGES
100
AcDbLine
 62
253
  6
CONTINUOUS
 10
17.9339846223
 20
-49.7385682862
 11
18.3919560802
 21
-51.0318147214
  0
LWPOLYLINE
  5
3FB
100
AcDbEntity
  8
IMPORT_IGES
100
AcDbPolyline
 62
7
  6
CONTINUOUS
 90
10
 70
0
 10
-0.9264496621
 20
-4.5780696988
 10
-0.9358448274
 20
-4.5442499505
 10
-0.9461658633
 20
-4.5107797837
 10
-0.9574127698
 20
-4.4776591983
 10
-0.969451254
 20
-4.4448094756
 10
-0.9824156088
 20
-4.4123093344
 10
-0.9967087123
 20
-4.3803949307
 10
-1.0124648571
 20
-4.3491449833
 10
-1.0295497507
 20
-4.3184807734
 10
-1.0479633929
 20
-4.288402301
  0
LWPOLYLINE
  5
3FC
100
AcDbEntity
  8
IMPORT_IGES
100
AcDbPolyline
 62
7
  6
CONTINUOUS
 90
13
 70
0
 10
-0.637806952
 20
-5.4852337658
 10
-0.6328369871
 20
-5.5229556035
 10
-0.6260307582
 20
-5.5600680658
 10
-0.6173882653
 20
-5.5965711527
 10
-0.607098643
 20
-5.6326391822
 10
-0.5949727567
 20
-5.6680978364
 10
-0.5804432026
 20
-5.7024241613
 10
-0.5631870484
 20
-5.7355020855
 10
-0.5435272263
 20
-5.7674476804
 10
-0.5218651286
 20
-5.7980862066
 10
-0.4983345527
 20
-5.8273594176
 10
-0.4728017014
 20
-5.8553255597
 10
-0.4452665744
 20
-5.8819846332
  0
LWPOLYLINE
  5
3FD
100
AcDbEntity
  8
IMPORT_IGES
100
AcDbPolyline
 62
7
  6
CONTINUOUS
 90
13
 70
0
 10
0.8772336878
 20
-5.4852337658
 10
0.8822036588
 20
-5.5229556216
 10
0.8890099024
 20
-5.5600680967
 10
0.8976524187
 20
-5.5965711913
 10
0.9079420757
 20
-5.6326392224
 10
0.9200680053
 20
-5.6680978729
 10
0.9345976033
 20
-5.7024241915
 10
0.9518538027
 20
-5.7355021056
 10
0.9715136704
 20
-5.7674476879
 10
0.9931758029
 20
-5.7980862051
 10
1.016706399
 20
-5.8273594128
 10
1.0422392599
 20
-5.8553255555
 10
1.0697743855
 20
-5.8819846332
  0
LWPOLYLINE
  5
3FE
100
AcDbEntity
  8
IMPORT_IGES
100
AcDbPolyline
 62
7
  6
CONTINUOUS
 90
10
 70
0
 10
2.0584072918
 20
-4.5488075435
 10
2.0567270739
 20
-4.5192241861
 10
2.05353177
 20
-4.4900037248
 10
2.0488213801
 20
-4.4611461595
 10
2.0426869138
 20
-4.4325786279
 10
2.0350373616
 20
-4.4043739923
 10
2.0255996943
 20
-4.3767508398
 10
2.0142829023
 20
-4.3497820325
 10
2.0011779952
 20
-4.3233947082
 10
1.9862849731
 20
-4.2975888669
  0
LWPOLYLINE
  5
3FF
100
AcDbEntity
  8
IMPORT_IGES
100
AcDbPolyline
 62
7
  6
CONTINUOUS
 90
10
 70
0
 10
3.5734479316
 20
-4.5488075435
 10
3.5717678399
 20
-4.51922415
 10
3.5685726156
 20
-4.490003666
 10
3.5638622586
 20
-4.4611460915
 10
3.5577277586
 20
-4.4325785701
 10
3.550078126
 20
-4.4043739583
 10
3.5406403919
 20
-4.3767508251
 10
3.529323567
 20
-4.349782027
 10
3.5162186406
 20
-4.3233947076
 10
3.5013256129
 20
-4.2975888669
  0
LWPOLYLINE
  5
400
100
AcDbEntity
  8
IMPORT_IGES
100
AcDbPolyline
 62
7
  6
CONTINUOUS
 90
10
 70
0
 10
0.6391370553
 20
-5.4240458727
 10
0.6384232456
 20
-5.3864580733
 10
0.635328818
 20
-5.3494282706
 10
0.6298537727
 20
-5.3129564647
 10
0.6221330851
 20
-5.2768838777
 10
0.6120317796
 20
-5.2413692874
 10
0.5991449297
 20
-5.2068890271
 10
0.5833375597
 20
-5.1736018748
 10
0.5647446453
 20
-5.1413490525
 10
0.5433661863
 20
-5.1101305604
  0
LWPOLYLINE
  5
401
100
AcDbEntity
  8
IMPORT_IGES
100
AcDbPolyline
 62
7
  6
CONTINUOUS
 90
10
 70
0
 10
2.1541777533
 20
-5.4240458727
 10
2.1534639398
 20
-5.3864580874
 10
2.1503695239
 20
-5.3494282923
 10
2.1448945055
 20
-5.3129564876
 10
2.1371738729
 20
-5.2768838915
 10
2.1270726378
 20
-5.2413692857
 10
2.1141858353
 20
-5.2068890151
 10
2.0983784772
 20
-5.1736018616
 10
2.0797855518
 20
-5.1413490433
 10
2.0584070589
 20
-5.1101305604
  0
LWPOLYLINE
  5
402
100
AcDbEntity
  8
IMPORT_IGES
100
AcDbPolyline
 62
7
  6
CONTINUOUS
 90
10
 70
0
 10
3.6692188587
 20
-5.4240458727
 10
3.6685050471
 20
-5.3864580828
 10
3.6654106186
 20
-5.3494282892
 10
3.6599355732
 20
-5.3129564919
 10
3.6522148806
 20
-5.2768839157
 10
3.6421135711
 20
-5.2413693357
 10
3.6292267356
 20
-5.2068890777
 10
3.6134194045
 20
-5.1736019167
 10
3.5948265474
 20
-5.1413490776
 10
3.5734481644
 20
-5.1101305604
  0
LINE
  5
403
100
AcDbEntity
  8
IMPORT_IGES
100
AcDbLine
 62
7
  6
CONTINUOUS
 10
0.9440585504
 20
-45.8801051454
 11
0.9440585504
 21
-44.45
  0
LINE
  5
404
100
AcDbEntity
  8
IMPORT_IGES
100
AcDbLine
 62
7
  6
CONTINUOUS
 10
0.9440585504
 20
-28.8801051454
 11
0.9440585504
 21
-17.9919710042
  0
LINE
  5
405
100
AcDbEntity
  8
IMPORT_IGES
100
AcDbLine
 62
7
  6
CONTINUOUS
 10
1.0
 20
-45.95
 11
1.0
 21
-34.95
  0
LINE
  5
406
100
AcDbEntity
  8
IMPORT_IGES
100
AcDbLine
 62
7
  6
CONTINUOUS
 10
1.0
 20
-28.95
 11
1.0
 21
-17.95
  0
LINE
  5
407
100
AcDbEntity
  8
IMPORT_IGES
100
AcDbLine
 62
7
  6
CONTINUOUS
 10
1.1118839641
 20
-17.8660571924
 11
1.1118839641
 21
-29.0897910397
  0
LINE
  5
408
100
AcDbEntity
  8
IMPORT_IGES
100
AcDbLine
 62
7
  6
CONTINUOUS
 10
1.1118839641
 20
-34.8660571924
 11
1.1118839641
 21
-46.0897910397
  0
LINE
  5
409
100
AcDbEntity
  8
IMPORT_IGES
100
AcDbLine
 62
7
  6
CONTINUOUS
 10
1.8
 20
15.3150648427
 11
1.8
 21
15.3526349891
  0
LINE
  5
40A
100
AcDbEntity
  8
IMPORT_IGES
100
AcDbLine
 62
7
  6
CONTINUOUS
 10
1.8
 20
18.747909859
 11
1.8
 21
18.7849351573
  0
LINE
  5
40B
100
AcDbEntity
  8
IMPORT_IGES
100
AcDbLine
 62
7
  6
CONTINUOUS
 10
1.8
 20
28.3150648427
 11
1.8
 21
28.3533587956
  0
LINE
  5
40C
100
AcDbEntity
  8
IMPORT_IGES
100
AcDbLine
 62
7
  6
CONTINUOUS
 10
1.8
 20
31.7478074006
 11
1.8
 21
31.7849351573
  0
LINE
  5
40D
100
AcDbEntity
  8
IMPORT_IGES
100
AcDbLine
 62
7
  6
CONTINUOUS
 10
1.8
 20
41.3150648427
 11
1.8
 21
41.3526349891
  0
LINE
  5
40E
100
AcDbEntity
  8
IMPORT_IGES
100
AcDbLine
 62
7
  6
CONTINUOUS
 10
1.8
 20
44.747909859
 11
1.8
 21
44.7849351573
  0
LINE
  5
40F
100
AcDbEntity
  8
IMPORT_IGES
100
AcDbLine
 62
7
  6
CONTINUOUS
 10
2.8881160359
 20
-46.0897910397
 11
2.8881160359
 21
-34.8660571924
  0
LINE
  5
410
100
AcDbEntity
  8
IMPORT_IGES
100
AcDbLine
 62
7
  6
CONTINUOUS
 10
3.0
 20
-29.0897910397
 11
3.0
 21
-17.8660571924
  0
LINE
  5
411
100
AcDbEntity
  8
IMPORT_IGES
100
AcDbLine
 62
7
  6
CONTINUOUS
 10
3.0
 20
-34.95
 11
3.0
 21
-45.95
  0
LINE
  5
412
100
AcDbEntity
  8
IMPORT_IGES
100
AcDbLine
 62
7
  6
CONTINUOUS
 10
3.0559414496
 20
-17.9919710042
 11
3.0559414496
 21
-28.8801051454
  0
LINE
  5
413
100
AcDbEntity
  8
IMPORT_IGES
100
AcDbLine
 62
7
  6
CONTINUOUS
 10
3.0559414496
 20
-34.9919710042
 11
3.0559414496
 21
-45.8801051454
  0
LINE
  5
414
100
AcDbEntity
  8
IMPORT_IGES
100
AcDbLine
 62
7
  6
CONTINUOUS
 10
4.0041329339
 20
-10.317937386
 11
4.0041329339
 21
-9.5827401697
  0
LWPOLYLINE
  5
415
100
AcDbEntity
  8
IMPORT_IGES
100
AcDbPolyline
 62
7
  6
CONTINUOUS
 90
10
 70
0
 10
0.3850784851
 20
-5.4293655872
 10
0.3837908082
 20
-5.4658017427
 10
0.3796012869
 20
-5.5013275951
 10
0.3725099212
 20
-5.5359431445
 10
0.3625413294
 20
-5.5698280229
 10
0.3496708933
 20
-5.6028025981
 10
0.3338247578
 20
-5.6343279741
 10
0.3149783047
 20
-5.6642245186
 10
0.2931561524
 20
-5.6926718637
 10
0.2683583007
 20
-5.7196700096
  0
LWPOLYLINE
  5
416
100
AcDbEntity
  8
IMPORT_IGES
100
AcDbPolyline
 62
7
  6
CONTINUOUS
 90
10
 70
0
 10
1.9001191249
 20
-5.4293655872
 10
1.8988314575
 20
-5.4658017021
 10
1.8946419692
 20
-5.50132753
 10
1.8875506602
 20
-5.535943071
 10
1.8775821672
 20
-5.5698279651
 10
1.8647118535
 20
-5.6028025723
 10
1.8488658086
 20
-5.6343279723
 10
1.8300193958
 20
-5.6642245252
 10
1.808197252
 20
-5.6926718709
 10
1.783399377
 20
-5.7196700096
  0
LWPOLYLINE
  5
417
100
AcDbEntity
  8
IMPORT_IGES
100
AcDbPolyline
 62
7
  6
CONTINUOUS
 90
10
 70
0
 10
3.4151603468
 20
-5.4293655872
 10
3.4138725968
 20
-5.4658017198
 10
3.4096830295
 20
-5.5013275604
 10
3.4025916451
 20
-5.5359431089
 10
3.392623079
 20
-5.5698280044
 10
3.3797526958
 20
-5.6028026079
 10
3.3639065886
 20
-5.6343280018
 10
3.3450601219
 20
-5.6642245472
 10
3.3232379313
 20
-5.6926718831
 10
3.2984400168
 20
-5.7196700096
  0
LWPOLYLINE
  5
418
100
AcDbEntity
  8
IMPORT_IGES
100
AcDbPolyline
 62
7
  6
CONTINUOUS
 90
13
 70
0
 10
1.8123295158
 20
-4.5434878289
 10
1.8113837985
 20
-4.5677139341
 10
1.8089624971
 20
-4.5915496969
 10
1.8050656116
 20
-4.6149951174
 10
1.7999136755
 20
-4.6382669699
 10
1.7932861553
 20
-4.6611484801
 10
1.784521451
 20
-4.6829893247
 10
1.7732497941
 20
-4.7036327161
 10
1.759840953
 20
-4.723235442
 10
1.7447426327
 20
-4.7416175424
 10
1.7281040681
 20
-4.7587190308
 10
1.7097760242
 20
-4.7745998937
 10
1.689758501
 20
-4.7892601311
  0
LWPOLYLINE
  5
419
100
AcDbEntity
  8
IMPORT_IGES
100
AcDbPolyline
 62
7
  6
CONTINUOUS
 90
13
 70
0
 10
3.3273701556
 20
-4.5434878289
 10
3.3264244514
 20
-4.5677139408
 10
3.3240031565
 20
-4.5915497041
 10
3.3201062707
 20
-4.614995119
 10
3.3149543241
 20
-4.6382669569
 10
3.3083267867
 20
-4.6611484463
 10
3.2995620685
 20
-4.6829892729
 10
3.2882903996
 20
-4.7036326489
 10
3.27488155
 20
-4.7232353621
 10
3.259783239
 20
-4.7416174619
 10
3.2431447065
 20
-4.758718965
 10
3.2248167125
 20
-4.7745998547
 10
3.2047992572
 20
-4.7892601311
  0
LINE
  5
41A
100
AcDbEntity
  8
IMPORT_IGES
100
AcDbLine
 62
7
  6
CONTINUOUS
 10
1.3494370505
 20
-5.0768748939
 11
1.3760409784
 21
-4.8667126417
  0
LINE
  5
41B
100
AcDbEntity
  8
IMPORT_IGES
100
AcDbLine
 62
7
  6
CONTINUOUS
 10
2.864478156
 20
-5.0768748939
 11
2.8910820838
 21
-4.8667126417
  0
LWPOLYLINE
  5
41C
100
AcDbEntity
  8
IMPORT_IGES
100
AcDbPolyline
 62
7
  6
CONTINUOUS
 90
10
 70
0
 10
1.1406035628
 20
-4.5900427818
 10
1.1457142152
 20
-4.5573681003
 10
1.1526873695
 20
-4.5253750815
 10
1.1615230255
 20
-4.4940637254
 10
1.1719859003
 20
-4.4632181004
 10
1.1843112768
 20
-4.4330541381
 10
1.1992050045
 20
-4.4042196332
 10
1.2169023665
 20
-4.3769305173
 10
1.2371680795
 20
-4.3509708587
 10
1.2600021437
 20
-4.3263406574
  0
LWPOLYLINE
  5
41D
100
AcDbEntity
  8
IMPORT_IGES
100
AcDbPolyline
 62
7
  6
CONTINUOUS
 90
10
 70
0
 10
2.6556446683
 20
-4.5900427818
 10
2.6607552125
 20
-4.5573680742
 10
2.6677282865
 20
-4.5253750382
 10
2.6765638903
 20
-4.4940636738
 10
2.6870267505
 20
-4.4632180525
 10
2.6993521404
 20
-4.4330541028
 10
2.71424588
 20
-4.4042196099
 10
2.7319432425
 20
-4.3769305022
 10
2.7522089546
 20
-4.3509708514
 10
2.7750430163
 20
-4.3263406574
  0
LINE
  5
41E
100
AcDbEntity
  8
IMPORT_IGES
100
AcDbLine
 62
253
  6
CONTINUOUS
 10
21.6169324591
 20
51.061882535
 11
21.0204387779
 21
49.4671941949
  0
LINE
  5
41F
100
AcDbEntity
  8
IMPORT_IGES
100
AcDbLine
 62
253
  6
CONTINUOUS
 10
21.7379750326
 20
51.3832632537
 11
21.6169324591
 21
51.061882535
  0
LWPOLYLINE
  5
420
100
AcDbEntity
  8
IMPORT_IGES
100
AcDbPolyline
 62
7
  6
CONTINUOUS
 90
10
 70
0
 10
0.4755285918
 20
-4.7789224505
 10
0.4891354298
 20
-4.7552955647
 10
0.5013212577
 20
-4.7311742819
 10
0.5120860756
 20
-4.7065586021
 10
0.5215583127
 20
-4.6814364752
 10
0.5296095396
 20
-4.6558199512
 10
0.5358544692
 20
-4.629745181
 10
0.5401646723
 20
-4.6032242147
 10
0.542668578
 20
-4.5762450022
 10
0.5433661863
 20
-4.5488075435
  0
LWPOLYLINE
  5
421
100
AcDbEntity
  8
IMPORT_IGES
100
AcDbPolyline
 62
7
  6
CONTINUOUS
 90
10
 70
0
 10
1.9905695226
 20
-4.7789224505
 10
2.004176368
 20
-4.7552955655
 10
2.016362207
 20
-4.7311742837
 10
2.0271270394
 20
-4.7065586049
 10
2.0365992952
 20
-4.6814364794
 10
2.0446505444
 20
-4.655819957
 10
2.0508954977
 20
-4.6297451873
 10
2.0552057251
 20
-4.60322422
 10
2.0577096564
 20
-4.5762450054
 10
2.0584072918
 20
-4.5488075435
  0
LWPOLYLINE
  5
422
100
AcDbEntity
  8
IMPORT_IGES
100
AcDbPolyline
 62
7
  6
CONTINUOUS
 90
22
 70
0
 10
-1.2416952522
 20
-5.6767732918
 10
-1.2268863888
 20
-5.6514325802
 10
-1.2134490691
 20
-5.625807817
 10
-1.2013832933
 20
-5.5998990024
 10
-1.1907476593
 20
-5.5737324815
 10
-1.1814835692
 20
-5.547281909
 10
-1.1734152285
 20
-5.5204682493
 10
-1.166672446
 20
-5.4933103004
 10
-1.161125413
 20
-5.4657892642
 10
-1.1562089089
 20
-5.4377697102
 10
-1.1518480012
 20
-5.4092840825
 10
-1.1481176224
 20
-5.380299937
 10
-1.1446773502
 20
-5.3505845113
 10
-1.1413765514
 20
-5.3201648505
 10
-1.1383658591
 20
-5.2890139095
 10
-1.1357567505
 20
-5.2568177901
 10
-1.1335910457
 20
-5.2235741299
 10
-1.1318269245
 20
-5.1892852913
 10
-1.1304504035
 20
-5.1536444639
 10
-1.1294568217
 20
-5.1165493775
 10
-1.1288508401
 20
-5.0781023022
 10
-1.1286324589
 20
-5.0383032381
  0
LWPOLYLINE
  5
423
100
AcDbEntity
  8
IMPORT_IGES
100
AcDbPolyline
 62
7
  6
CONTINUOUS
 90
22
 70
0
 10
-1.7840041546
 20
-4.3801524758
 10
-1.7996301205
 20
-4.4059942319
 10
-1.813859134
 20
-4.4321640185
 10
-1.8266911949
 20
-4.4586618354
 10
-1.8380542141
 20
-4.4854653382
 10
-1.8480202808
 20
-4.5125968714
 10
-1.8568056632
 20
-4.5401234685
 10
-1.864311339
 20
-4.5680175746
 10
-1.8706363306
 20
-4.5963067445
 10
-1.8762939729
 20
-4.6251406769
 10
-1.8813545663
 20
-4.6544909261
 10
-1.8857478105
 20
-4.6843859378
 10
-1.8897761389
 20
-4.7150607472
 10
-1.8935744054
 20
-4.7464879067
 10
-1.8970077561
 20
-4.7786948639
 10
-1.8999740638
 20
-4.8119989978
 10
-1.9024266719
 20
-4.8464022504
 10
-1.9044122369
 20
-4.8819026797
 10
-1.9059686006
 20
-4.9188118378
 10
-1.9071083772
 20
-4.9572335757
 10
-1.9078189525
 20
-4.9970640424
 10
-1.9081003265
 20
-5.0383032381
  0
LWPOLYLINE
  5
424
100
AcDbEntity
  8
IMPORT_IGES
100
AcDbPolyline
 62
7
  6
CONTINUOUS
 90
13
 70
0
 10
0.4525992263
 20
-5.8573418379
 10
0.4810043817
 20
-5.8276781093
 10
0.5073966193
 20
-5.7967876268
 10
0.5317759392
 20
-5.7646703903
 10
0.5544459059
 20
-5.7313541519
 10
0.5751029549
 20
-5.6968111595
 10
0.5928363923
 20
-5.6609581567
 10
0.6072271991
 20
-5.6235495223
 10
0.6186943943
 20
-5.5848308776
 10
0.6275843412
 20
-5.5454558295
 10
0.6340124942
 20
-5.5056422472
 10
0.6378633989
 20
-5.4651722616
 10
0.6391370553
 20
-5.4240458727
  0
LWPOLYLINE
  5
425
100
AcDbEntity
  8
IMPORT_IGES
100
AcDbPolyline
 62
7
  6
CONTINUOUS
 90
10
 70
0
 10
-4.4843791984
 20
-9.7478189587
 10
-4.5006977844
 20
-9.7647111835
 10
-4.5175080266
 20
-9.7810397887
 10
-4.5348099251
 20
-9.7968047742
 10
-4.5525897122
 20
-9.8120574126
 10
-4.5708611555
 20
-9.8267464314
 10
-4.589665558
 20
-9.840718013
 10
-4.6090166873
 20
-9.8539208849
 10
-4.6289007757
 20
-9.8664063195
 10
-4.6493178233
 20
-9.8781743169
  0
LWPOLYLINE
  5
426
100
AcDbEntity
  8
IMPORT_IGES
100
AcDbPolyline
 62
7
  6
CONTINUOUS
 90
13
 70
0
 10
-0.4143418628
 20
-4.1750342667
 10
-0.4397040115
 20
-4.2011899448
 10
-0.4637602256
 20
-4.228112333
 10
-0.4865105051
 20
-4.2558014315
 10
-0.5082539241
 20
-4.2841120763
 10
-0.5286914086
 20
-4.3131894313
 10
-0.5469257365
 20
-4.3434689876
 10
-0.5624506678
 20
-4.375236128
 10
-0.5757724425
 20
-4.4082054696
 10
-0.5875125586
 20
-4.4419563549
 10
-0.597878182
 20
-4.4763485646
 10
-0.6066621468
 20
-4.5115223179
 10
-0.613864453
 20
-4.5474776149
  0
LWPOLYLINE
  5
427
100
AcDbEntity
  8
IMPORT_IGES
100
AcDbPolyline
 62
7
  6
CONTINUOUS
 90
13
 70
0
 10
1.1006989516
 20
-4.1750342667
 10
1.07533681
 20
-4.2011899513
 10
1.0512806065
 20
-4.2281123463
 10
1.0285303411
 20
-4.2558014519
 10
1.006786941
 20
-4.2841121047
 10
0.9863494791
 20
-4.313189468
 10
0.9681151734
 20
-4.3434690314
 10
0.9525902687
 20
-4.3752361795
 10
0.9392685203
 20
-4.4082055278
 10
0.9275284128
 20
-4.4419564119
 10
0.9171627742
 20
-4.4763486103
 10
0.9083787765
 20
-4.5115223447
 10
0.9011764196
 20
-4.5474776149
  0
LWPOLYLINE
  5
428
100
AcDbEntity
  8
IMPORT_IGES
100
AcDbPolyline
 62
7
  6
CONTINUOUS
 90
10
 70
0
 10
-8.9470325038
 20
-10.8438626945
 10
-8.9151452341
 20
-10.8133478588
 10
-8.8853041859
 20
-10.7813903403
 10
-8.8575093594
 20
-10.747990139
 10
-8.8316708935
 20
-10.713129319
 10
-8.8078786492
 20
-10.6768258161
 10
-8.7864022094
 20
-10.6391334379
 10
-8.7673314353
 20
-10.6000701202
 10
-8.7505764657
 20
-10.5596179272
 10
-8.7361373007
 20
-10.5177768588
  0
LWPOLYLINE
  5
429
100
AcDbEntity
  8
IMPORT_IGES
100
AcDbPolyline
 62
7
  6
CONTINUOUS
 90
10
 70
0
 10
-2.6795873418
 20
-5.9188612818
 10
-2.6476992164
 20
-5.8883469761
 10
-2.617857605
 20
-5.8563897996
 10
-2.5900625077
 20
-5.8229897524
 10
-2.5642241767
 20
-5.7881288249
 10
-2.5404323598
 20
-5.7518250267
 10
-2.5189563
 20
-5.7141323868
 10
-2.4998857449
 20
-5.6750689149
 10
-2.4831309469
 20
-5.6346166014
 10
-2.468691906
 20
-5.5927754462
  0
LWPOLYLINE
  5
42A
100
AcDbEntity
  8
IMPORT_IGES
100
AcDbPolyline
 62
7
  6
CONTINUOUS
 90
10
 70
0
 10
-1.1645464692
 20
-5.9188612818
 10
-1.1326583438
 20
-5.8883469761
 10
-1.1028167324
 20
-5.8563897996
 10
-1.075021635
 20
-5.8229897524
 10
-1.0491833041
 20
-5.7881288249
 10
-1.0253914872
 20
-5.7518250267
 10
-1.0039154274
 20
-5.7141323868
 10
-0.9848448723
 20
-5.6750689149
 10
-0.9680900743
 20
-5.6346166014
 10
-0.9536510333
 20
-5.5927754462
  0
LWPOLYLINE
  5
42B
100
AcDbEntity
  8
IMPORT_IGES
100
AcDbPolyline
 62
7
  6
CONTINUOUS
 90
10
 70
0
 10
-3.3869002946
 20
-4.1568101465
 10
-3.4188913033
 20
-4.187225341
 10
-3.4488309137
 20
-4.2190942295
 10
-3.4767191258
 20
-4.2524168121
 10
-3.5026392003
 20
-4.2872145684
 10
-3.5265078764
 20
-4.3234660187
 10
-3.5480753726
 20
-4.3611067245
 10
-3.5672584282
 20
-4.4001152062
 10
-3.5841403038
 20
-4.4405129433
 10
-3.5987209994
 20
-4.4822999358
  0
LWPOLYLINE
  5
42C
100
AcDbEntity
  8
IMPORT_IGES
100
AcDbPolyline
 62
7
  6
CONTINUOUS
 90
10
 70
0
 10
-1.8718591891
 20
-4.1568101465
 10
-1.9038502548
 20
-4.1872253135
 10
-1.9337899135
 20
-4.2190941823
 10
-1.9616781652
 20
-4.2524167528
 10
-1.9875982692
 20
-4.2872145059
 10
-2.0114669661
 20
-4.3234659608
 10
-2.0330344782
 20
-4.3611066754
 10
-2.052217546
 20
-4.4001151691
 10
-2.0690994289
 20
-4.4405129226
 10
-2.0836801268
 20
-4.4822999358
  0
LWPOLYLINE
  5
42D
100
AcDbEntity
  8
IMPORT_IGES
100
AcDbPolyline
 62
7
  6
CONTINUOUS
 90
10
 70
0
 10
-5.8451229706
 20
-10.184106332
 10
-5.8261379593
 20
-10.1660674299
 10
-5.806823975
 20
-10.1484022365
 10
-5.7871810175
 20
-10.1311107518
 10
-5.767339201
 20
-10.1139988291
 10
-5.7471684114
 20
-10.0972606151
 10
-5.7262783069
 20
-10.0814785499
 10
-5.7045387736
 20
-10.0668467803
 10
-5.6820799253
 20
-10.0531711595
 10
-5.6589017622
 20
-10.0404516875
  0
LWPOLYLINE
  5
42E
100
AcDbEntity
  8
IMPORT_IGES
100
AcDbPolyline
 62
7
  6
CONTINUOUS
 90
10
 70
0
 10
-10.5919579022
 20
-10.6646932137
 10
-10.6183961646
 20
-10.6891716542
 10
-10.6462514866
 20
-10.7108184975
 10
-10.675523868
 20
-10.7296337435
 10
-10.7063604613
 20
-10.7456784171
 10
-10.7386141141
 20
-10.7588914935
 10
-10.7718433692
 20
-10.7690898983
 10
-10.805901074
 20
-10.7762126069
 10
-10.8409343811
 20
-10.7803206439
 10
-10.8769432903
 20
-10.7814140093
  0
LWPOLYLINE
  5
42F
100
AcDbEntity
  8
IMPORT_IGES
100
AcDbPolyline
 62
7
  6
CONTINUOUS
 90
10
 70
0
 10
0.2683583007
 20
-5.7196700096
 10
0.2419200382
 20
-5.7441484501
 10
0.2140647163
 20
-5.7657952933
 10
0.1847923349
 20
-5.7846105394
 10
0.1539557416
 20
-5.800655213
 10
0.1217020887
 20
-5.8138682894
 10
0.0884728337
 20
-5.8240666942
 10
0.0544151289
 20
-5.8311894027
 10
0.0193818218
 20
-5.8352974397
 10
-0.0166270875
 20
-5.8363908052
  0
LWPOLYLINE
  5
430
100
AcDbEntity
  8
IMPORT_IGES
100
AcDbPolyline
 62
7
  6
CONTINUOUS
 90
10
 70
0
 10
-0.2550389036
 20
-4.3263406574
 10
-0.232922853
 20
-4.3075453613
 10
-0.2097542094
 20
-4.2910556133
 10
-0.1855329728
 20
-4.2768714134
 10
-0.1601166827
 20
-4.2650409361
 10
-0.1336477996
 20
-4.255516007
 10
-0.1065537053
 20
-4.2481521028
 10
-0.0789768603
 20
-4.2429010493
 10
-0.0507748042
 20
-4.2398110207
 10
-0.0219475369
 20
-4.2388820171
  0
LWPOLYLINE
  5
431
100
AcDbEntity
  8
IMPORT_IGES
100
AcDbPolyline
 62
7
  6
CONTINUOUS
 90
10
 70
0
 10
1.2600021437
 20
-4.3263406574
 10
1.2821181617
 20
-4.3075453416
 10
1.3052867772
 20
-4.2910555816
 10
1.32950799
 20
-4.2768713775
 10
1.3549242628
 20
-4.2650409074
 10
1.3813931329
 20
-4.2555159931
 10
1.4084872129
 20
-4.2481521003
 10
1.4360640403
 20
-4.242901051
 10
1.4642660776
 20
-4.2398110233
 10
1.4930933248
 20
-4.2388820171
  0
LWPOLYLINE
  5
432
100
AcDbEntity
  8
0
100
AcDbPolyline
 62
253
  6
CONTINUOUS
 90
13
 70
0
 10
14.152173913
 20
7.5835658538
 10
14.144670703
 20
7.5787644859
 10
14.1377038831
 20
7.5734289199
 10
14.131266671
 20
7.56754695
 10
14.1253097263
 20
7.5610414019
 10
14.1198728097
 20
7.5539688264
 10
14.1150922303
 20
7.5465169964
 10
14.1110075727
 20
7.5386698087
 10
14.1075957849
 20
7.5304248258
 10
14.1049127208
 20
7.5219897573
 10
14.1029897902
 20
7.5134302722
 10
14.1018293109
 20
7.5046705826
 10
14.1014492754
 20
7.4957082041
  0
LWPOLYLINE
  5
433
100
AcDbEntity
  8
0
100
AcDbPolyline
 62
7
  6
CONTINUOUS
 90
8
 70
0
 10
13.110258817
 20
7.0006484875
 10
13.1219319583
 20
7.0074650227
 10
13.1333640554
 20
7.0144841523
 10
13.1444170695
 20
7.0216122873
 10
13.1550030202
 20
7.0285867546
 10
13.1649526002
 20
7.0353163153
 10
13.1740347847
 20
7.0418720845
 10
13.1820497524
 20
7.0482343728
  0
LINE
  5
434
100
AcDbEntity
  8
0
100
AcDbLine
 62
253
  6
CONTINUOUS
 10
14.2488749543
 20
7.639434392
 11
14.2012377822
 21
7.6118605756
  0
LINE
  5
435
100
AcDbEntity
  8
0
100
AcDbLine
 62
253
  6
CONTINUOUS
 10
15.7384001476
 20
8.4993739973
 11
15.6974839334
 21
8.4756888923
  0
LWPOLYLINE
  5
436
100
AcDbEntity
  8
0
100
AcDbPolyline
 62
253
  6
CONTINUOUS
 90
5
 70
0
 10
14.4184615337
 20
7.7373119219
 10
14.393360083
 20
7.7227960506
 10
14.3685606149
 20
7.7084967743
 10
14.3440805003
 20
7.6943762618
 10
14.3198520546
 20
7.6803638459
  0
LWPOLYLINE
  5
437
100
AcDbEntity
  8
0
100
AcDbPolyline
 62
253
  6
CONTINUOUS
 90
5
 70
0
 10
15.3726726261
 20
8.2882199119
 10
15.3406747064
 20
8.2697167922
 10
15.3096161047
 20
8.2518154147
 10
15.2795973556
 20
8.2345075136
 10
15.2505335327
 20
8.2176940968
  0
LINE
  5
438
100
AcDbEntity
  8
0
100
AcDbLine
 62
253
  6
CONTINUOUS
 10
14.6800791783
 20
7.8883521008
 11
14.6535568827
 21
7.8730138351
  0
LINE
  5
439
100
AcDbEntity
  8
0
100
AcDbLine
 62
253
  6
CONTINUOUS
 10
15.0905711569
 20
8.125375485
 11
15.0651785564
 21
8.1106893304
  0
LWPOLYLINE
  5
43A
100
AcDbEntity
  8
IMPORT_IGES
100
AcDbPolyline
 62
7
  6
CONTINUOUS
 90
10
 70
0
 10
-10.6855987491
 20
-9.7342833352
 10
-10.7138785151
 20
-9.7504284372
 10
-10.742743496
 20
-9.7648713626
 10
-10.7721936917
 20
-9.7776121116
 10
-10.8022454672
 20
-9.7887956914
 10
-10.8328824575
 20
-9.7982770947
 10
-10.8640555682
 20
-9.8056212997
 10
-10.8957484343
 20
-9.8106832991
 10
-10.9279774209
 20
-9.8136081002
 10
-10.9607425278
 20
-9.8143957031
  0
LWPOLYLINE
  5
43B
100
AcDbEntity
  8
IMPORT_IGES
100
AcDbPolyline
 62
7
  6
CONTINUOUS
 90
10
 70
0
 10
0.1747174538
 20
-4.7892601311
 10
0.1464376878
 20
-4.805405233
 10
0.1175727069
 20
-4.8198481585
 10
0.0881225111
 20
-4.8325889075
 10
0.0580707357
 20
-4.8437724873
 10
0.0274337454
 20
-4.8532538906
 10
-0.0037393653
 20
-4.8605980956
 10
-0.0354322315
 20
-4.865660095
 10
-0.067661218
 20
-4.8685848961
 10
-0.1004263249
 20
-4.869372499
  0
LWPOLYLINE
  5
43C
100
AcDbEntity
  8
IMPORT_IGES
100
AcDbPolyline
 62
7
  6
CONTINUOUS
 90
10
 70
0
 10
-10.5856404501
 20
-9.8888866079
 10
-10.5593133896
 20
-9.8757051313
 10
-10.5338560452
 20
-9.8613353253
 10
-10.5092684169
 20
-9.8457771897
 10
-10.4853734335
 20
-9.8291613841
 10
-10.4623481661
 20
-9.8113572491
 10
-10.4407238289
 20
-9.7919728064
 10
-10.4206774929
 20
-9.7708773968
 10
-10.402032087
 20
-9.7482016795
 10
-10.3847876111
 20
-9.7239456546
  0
LWPOLYLINE
  5
43D
100
AcDbEntity
  8
0
100
AcDbPolyline
 62
253
  6
CONTINUOUS
 90
13
 70
0
 10
-13.2391304348
 20
9.1650035476
 10
-13.2312195996
 20
9.1609060003
 10
-13.2231148261
 20
9.1575401635
 10
-13.2148021522
 20
9.1549062818
 10
-13.2061903909
 20
9.1530002777
 10
-13.197348083
 20
9.1518282815
 10
-13.1885050481
 20
9.1514143015
 10
-13.1796665745
 20
9.1518005997
 10
-13.1708195758
 20
9.1529684668
 10
-13.1621725736
 20
9.1548624148
 10
-13.1537983848
 20
9.1574768205
 10
-13.1456322979
 20
9.1608515889
 10
-13.1376811594
 20
9.1650035476
  0
LINE
  5
43E
100
AcDbEntity
  8
0
100
AcDbLine
 62
7
  6
CONTINUOUS
 10
-14.8635658598
 20
9.9723404124
 11
-13.3
 21
9.0696152423
  0
LINE
  5
43F
100
AcDbEntity
  8
0
100
AcDbLine
 62
253
  6
CONTINUOUS
 10
-14.8967567497
 20
10.1220345468
 11
-13.2391304348
 21
9.1650035476
  0
LWPOLYLINE
  5
440
100
AcDbEntity
  8
0
100
AcDbPolyline
 62
253
  6
CONTINUOUS
 90
13
 70
0
 10
-12.2096711744
 20
8.5500000004
 10
-12.2191177136
 20
8.5560075838
 10
-12.2287717891
 20
8.5619379062
 10
-12.2385091671
 20
8.5677146459
 10
-12.2482045422
 20
8.5732634565
 10
-12.25773315
 20
8.5785129246
 10
-12.2669723725
 20
8.583395488
 10
-12.2758033163
 20
8.5878483057
 10
-12.2841123423
 20
8.5918140664
 10
-12.2917925282
 20
8.5952417261
 10
-12.2987450445
 20
8.5980871654
 10
-12.3048804261
 20
8.6003137566
 10
-12.3101197239
 20
8.6018928359
  0
LINE
  5
441
100
AcDbEntity
  8
IMPORT_IGES
100
AcDbLine
 62
7
  6
CONTINUOUS
 10
8.6480099708
 20
-5.8386408805
 11
7.0255240425
 21
-4.216154021
  0
LINE
  5
442
100
AcDbEntity
  8
IMPORT_IGES
100
AcDbLine
 62
7
  6
CONTINUOUS
 10
11.0507728532
 20
-8.2414046943
 11
9.9999997765
 21
-7.1906306862
  0
LINE
  5
443
100
AcDbEntity
  8
IMPORT_IGES
100
AcDbLine
 62
7
  6
CONTINUOUS
 10
9.9093699828
 20
-7.1000018239
 11
8.7185082957
 21
-5.9091382742
  0
LINE
  5
444
100
AcDbEntity
  8
IMPORT_IGES
100
AcDbLine
 62
7
  6
CONTINUOUS
 10
11.1099276692
 20
-8.3005585789
 11
12.8838447854
 21
-10.0744784891
  0
LINE
  5
445
100
AcDbEntity
  8
IMPORT_IGES
100
AcDbLine
 62
7
  6
CONTINUOUS
 10
10.0906295702
 20
-7.1000018239
 11
11.0653545708
 21
-8.0747240305
  0
LINE
  5
446
100
AcDbEntity
  8
IMPORT_IGES
100
AcDbLine
 62
7
  6
CONTINUOUS
 10
8.7011298165
 20
-5.7105020702
 11
9.9999997765
 21
-7.0093692362
  0
LINE
  5
447
100
AcDbEntity
  8
IMPORT_IGES
100
AcDbLine
 62
7
  6
CONTINUOUS
 10
12.9744764417
 20
-9.9838459015
 11
11.124510318
 21
-8.1338816404
  0
LINE
  5
448
100
AcDbEntity
  8
IMPORT_IGES
100
AcDbLine
 62
7
  6
CONTINUOUS
 10
7.1161547676
 20
-4.1255251586
 11
8.6306314915
 21
-5.6400009513
  0
LWPOLYLINE
  5
449
100
AcDbEntity
  8
IMPORT_IGES
100
AcDbPolyline
 62
7
  6
CONTINUOUS
 90
13
 70
0
 10
2.3922747932
 20
-5.4852337658
 10
2.3972447688
 20
-5.5229556072
 10
2.4040510113
 20
-5.5600680702
 10
2.4126935207
 20
-5.596571155
 10
2.4229831646
 20
-5.6326391783
 10
2.4351090754
 20
-5.6680978232
 10
2.4496386506
 20
-5.7024241396
 10
2.4668948225
 20
-5.7355020553
 10
2.4865546588
 20
-5.7674476425
 10
2.5082167605
 20
-5.7980861673
 10
2.5317473277
 20
-5.827359385
 10
2.5572801603
 20
-5.8553255403
 10
2.5848152582
 20
-5.8819846332
  0
LINE
  5
44A
100
AcDbEntity
  8
IMPORT_IGES
100
AcDbLine
 62
7
  6
CONTINUOUS
 10
8.9505203068
 20
-9.2963361263
 11
8.8655464351
 21
-8.3250858903
  0
LINE
  5
44B
100
AcDbEntity
  8
IMPORT_IGES
100
AcDbLine
 62
7
  6
CONTINUOUS
 10
8.8509637862
 20
-8.1584052264
 11
8.6480099708
 21
-5.8386408805
  0
LINE
  5
44C
100
AcDbEntity
  8
IMPORT_IGES
100
AcDbLine
 62
7
  6
CONTINUOUS
 10
8.5496371612
 20
-4.7142290592
 11
8.5302116349
 21
-4.4921943068
  0
LINE
  5
44D
100
AcDbEntity
  8
IMPORT_IGES
100
AcDbLine
 62
7
  6
CONTINUOUS
 10
8.6306314915
 20
-5.6400009513
 11
8.5720643401
 21
-4.9705700099
  0
LINE
  5
44E
100
AcDbEntity
  8
IMPORT_IGES
100
AcDbLine
 62
7
  6
CONTINUOUS
 10
8.5981711745
 20
-4.533671689
 11
8.613968268
 21
-4.7142290592
  0
LINE
  5
44F
100
AcDbEntity
  8
IMPORT_IGES
100
AcDbLine
 62
7
  6
CONTINUOUS
 10
8.6363935843
 20
-4.9705700099
 11
8.7011298165
 21
-5.7105020702
  0
LINE
  5
450
100
AcDbEntity
  8
IMPORT_IGES
100
AcDbLine
 62
7
  6
CONTINUOUS
 10
8.9247003198
 20
-8.2659320056
 11
9.0092429891
 21
-9.2322536826
  0
LINE
  5
451
100
AcDbEntity
  8
IMPORT_IGES
100
AcDbLine
 62
7
  6
CONTINUOUS
 10
8.7185082957
 20
-5.9091382742
 11
8.9101176709
 21
-8.0992513418
  0
LINE
  5
452
100
AcDbEntity
  8
IMPORT_IGES
100
AcDbLine
 62
7
  6
CONTINUOUS
 10
4.3962369673
 20
-12.4480807304
 11
4.3962369673
 21
-11.7120788514
  0
LINE
  5
453
100
AcDbEntity
  8
IMPORT_IGES
100
AcDbLine
 62
7
  6
CONTINUOUS
 10
4.3962369673
 20
-8.188594979
 11
4.3962369673
 21
-7.4526005506
  0
LINE
  5
454
100
AcDbEntity
  8
IMPORT_IGES
100
AcDbLine
 62
7
  6
CONTINUOUS
 10
4.9440585504
 20
-45.8801051454
 11
4.9440585504
 21
-34.9919710042
  0
LINE
  5
455
100
AcDbEntity
  8
IMPORT_IGES
100
AcDbLine
 62
7
  6
CONTINUOUS
 10
4.9440585504
 20
-28.8801051454
 11
4.9440585504
 21
-17.9919710042
  0
LINE
  5
456
100
AcDbEntity
  8
IMPORT_IGES
100
AcDbLine
 62
7
  6
CONTINUOUS
 10
5.0
 20
-45.95
 11
5.0
 21
-34.95
  0
LINE
  5
457
100
AcDbEntity
  8
IMPORT_IGES
100
AcDbLine
 62
7
  6
CONTINUOUS
 10
5.0
 20
-28.95
 11
5.0
 21
-17.95
  0
LINE
  5
458
100
AcDbEntity
  8
IMPORT_IGES
100
AcDbLine
 62
7
  6
CONTINUOUS
 10
5.1118839641
 20
-17.8660571924
 11
5.1118839641
 21
-29.0897910397
  0
LINE
  5
459
100
AcDbEntity
  8
IMPORT_IGES
100
AcDbLine
 62
7
  6
CONTINUOUS
 10
5.1118839641
 20
-34.8660571924
 11
5.1118839641
 21
-46.0897910397
  0
LINE
  5
45A
100
AcDbEntity
  8
IMPORT_IGES
100
AcDbLine
 62
7
  6
CONTINUOUS
 10
6.8881160359
 20
-46.0897910397
 11
6.8881160359
 21
-34.8660571924
  0
LINE
  5
45B
100
AcDbEntity
  8
IMPORT_IGES
100
AcDbLine
 62
7
  6
CONTINUOUS
 10
6.8881160359
 20
-29.0897910397
 11
6.8881160359
 21
-17.8660571924
  0
LINE
  5
45C
100
AcDbEntity
  8
IMPORT_IGES
100
AcDbLine
 62
7
  6
CONTINUOUS
 10
7.0
 20
-17.95
 11
7.0
 21
-28.95
  0
LINE
  5
45D
100
AcDbEntity
  8
IMPORT_IGES
100
AcDbLine
 62
7
  6
CONTINUOUS
 10
7.0
 20
-34.95
 11
7.0
 21
-45.95
  0
LINE
  5
45E
100
AcDbEntity
  8
IMPORT_IGES
100
AcDbLine
 62
7
  6
CONTINUOUS
 10
7.0559414496
 20
-17.9919710042
 11
7.0559414496
 21
-28.8801051454
  0
LINE
  5
45F
100
AcDbEntity
  8
IMPORT_IGES
100
AcDbLine
 62
7
  6
CONTINUOUS
 10
7.0559414496
 20
-34.9919710042
 11
7.0559414496
 21
-45.8801051454
  0
LINE
  5
460
100
AcDbEntity
  8
IMPORT_IGES
100
AcDbLine
 62
7
  6
CONTINUOUS
 10
7.4020000175
 20
-11.9322770357
 11
7.4020000175
 21
-12.932275337
  0
LINE
  5
461
100
AcDbEntity
  8
IMPORT_IGES
100
AcDbLine
 62
7
  6
CONTINUOUS
 10
8.0453939736
 20
-4.7142290592
 11
8.0453939736
 21
-4.9705700099
  0
LWPOLYLINE
  5
462
100
AcDbEntity
  8
IMPORT_IGES
100
AcDbPolyline
 62
253
  6
CONTINUOUS
 90
37
 70
0
 10
7.7819690124
 20
12.5007681643
 10
7.7774714607
 20
12.4418457186
 10
7.7710406979
 20
12.3826299034
 10
7.7626566136
 20
12.323169382
 10
7.7522876658
 20
12.2634488686
 10
7.739924479
 20
12.2035888176
 10
7.7256007885
 20
12.1438410525
 10
7.7093236143
 20
12.0842721516
 10
7.6910940261
 20
12.0249235552
 10
7.6709714072
 20
11.9660033249
 10
7.6489759762
 20
11.9075651148
 10
7.6251278276
 20
11.8496616033
 10
7.5995148462
 20
11.7924908121
 10
7.5721939604
 20
11.7361464138
 10
7.5431797272
 20
11.6806312518
 10
7.5125106694
 20
11.6260013874
 10
7.4802268467
 20
11.5723134611
 10
7.446358623
 20
11.5196074422
 10
7.410929076
 20
11.4679149845
 10
7.3739829655
 20
11.4173005803
 10
7.335543323
 20
11.3677980062
 10
7.2955937521
 20
11.3193981597
 10
7.2541261459
 20
11.2721148832
 10
7.2112032835
 20
11.2260454387
 10
7.1669157905
 20
11.1813053685
 10
7.1212557477
 20
11.1379052194
 10
7.0742982129
 20
11.0959368837
 10
7.026279765
 20
11.0556145042
 10
6.9772892069
 20
11.0169987105
 10
6.9273381685
 20
10.9800869355
 10
6.8765681198
 20
10.944970255
 10
6.8250372099
 20
10.9116705
 10
6.7727917447
 20
10.8802009464
 10
6.7199643105
 20
10.8506214971
 10
6.6666360422
 20
10.822952243
 10
6.6128315201
 20
10.7971819276
 10
6.558600742
 20
10.7733132844
  0
LWPOLYLINE
  5
463
100
AcDbEntity
  8
IMPORT_IGES
100
AcDbPolyline
 62
253
  6
CONTINUOUS
 90
16
 70
0
 10
6.6434619208
 20
12.6592741034
 10
6.6361064565
 20
12.5839648054
 10
6.6234163063
 20
12.5102771787
 10
6.6053914702
 20
12.4382112232
 10
6.5818694974
 20
12.367402424
 10
6.5530128387
 20
12.298215296
 10
6.5193088462
 20
12.2317433848
 10
6.4806869787
 20
12.1680243776
 10
6.4372177774
 20
12.1070205871
 10
6.3896002184
 20
12.0497124971
 10
6.3377713789
 20
11.9961521524
 10
6.2817941818
 20
11.9462875082
 10
6.2225563716
 20
11.9009429139
 10
6.1603538632
 20
11.8603931527
 10
6.0948907419
 20
11.8243634413
 10
6.0261670075
 20
11.7928537799
  0
LWPOLYLINE
  5
464
100
AcDbEntity
  8
IMPORT_IGES
100
AcDbPolyline
 62
7
  6
CONTINUOUS
 90
46
 70
0
 10
2.5724582374
 20
-9.5827401697
 10
2.5864577755
 20
-9.5223089748
 10
2.6019959044
 20
-9.4635889598
 10
2.6190726242
 20
-9.4065801247
 10
2.6377432978
 20
-9.3513569306
 10
2.6579525623
 20
-9.2978449164
 10
2.6795343286
 20
-9.2458206992
 10
2.702451929
 20
-9.1953358622
 10
2.7267420313
 20
-9.1463388223
 10
2.7523485497
 20
-9.0984514471
 10
2.7792340453
 20
-9.051617399
 10
2.8074359571
 20
-9.0058930156
 10
2.8370105154
 20
-8.9610691774
 10
2.8679384739
 20
-8.917109212
 10
2.9002390791
 20
-8.8740497919
 10
2.9340263005
 20
-8.8317918147
 10
2.9693840875
 20
-8.7902263401
 10
3.0062284908
 20
-8.7494623084
 10
3.0444216316
 20
-8.709727439
 10
3.0840150429
 20
-8.6710072561
 10
3.1249571918
 20
-8.6333162353
 10
3.1669556006
 20
-8.5969255231
 10
3.2101312032
 20
-8.5617931574
 10
3.2543630657
 20
-8.5279611001
 10
3.2989959085
 20
-8.4958263833
 10
3.3439737942
 20
-8.4654699148
 10
3.3893526602
 20
-8.4368107867
 10
3.4346450389
 20
-8.4100033074
 10
3.479556718
 20
-8.3851907003
 10
3.52438191
 20
-8.362229742
 10
3.5695157843
 20
-8.3408450708
 10
3.6148668975
 20
-8.3209778237
 10
3.6605266931
 20
-8.3026868637
 10
3.7071646708
 20
-8.2858734177
 10
3.7548072583
 20
-8.2704993309
 10
3.8034280278
 20
-8.2566027581
 10
3.853617196
 20
-8.2441993907
 10
3.9054130541
 20
-8.2333795878
 10
3.9587773108
 20
-8.2240529903
 10
4.0141853085
 20
-8.2159642113
 10
4.0715831087
 20
-8.2091881212
 10
4.13102465
 20
-8.2036498497
 10
4.1931470907
 20
-8.1988693994
 10
4.2581628168
 20
-8.1946867713
 10
4.3258594424
 20
-8.1912619645
 10
4.3962369673
 20
-8.188594979
  0
LWPOLYLINE
  5
465
100
AcDbEntity
  8
IMPORT_IGES
100
AcDbPolyline
 62
253
  6
CONTINUOUS
 90
8
 70
0
 10
-18.6109019202
 20
-51.6252942428
 10
-18.6078463421
 20
-51.6189087084
 10
-18.6022100738
 20
-51.6052511114
 10
-18.5939814722
 20
-51.5842218645
 10
-18.5831215384
 20
-51.5558137273
 10
-18.5696894089
 20
-51.5201168353
 10
-18.553844982
 20
-51.4773379497
 10
-18.465937539
 20
-51.2370148971
  0
LWPOLYLINE
  5
466
100
AcDbEntity
  8
0
100
AcDbPolyline
 62
253
  6
CONTINUOUS
 90
13
 70
0
 10
14.7608695652
 20
9.1650035476
 10
14.7538357782
 20
9.1527348086
 10
14.7467249285
 20
9.1405358457
 10
14.7396797432
 20
9.1286515206
 10
14.7328416409
 20
9.1173203952
 10
14.7263478874
 20
9.1067699342
 10
14.7203288418
 20
9.09721194
 10
14.7149053358
 20
9.0888382967
 10
14.7101862766
 20
9.0818171626
 10
14.7062664417
 20
9.0762895592
 10
14.7032245408
 20
9.0723664856
 10
14.701121649
 20
9.0701267152
 10
14.6999999997
 20
9.0696152425
  0
LWPOLYLINE
  5
467
100
AcDbEntity
  8
IMPORT_IGES
100
AcDbPolyline
 62
7
  6
CONTINUOUS
 90
10
 70
0
 10
3.5056103952
 20
-4.7789224505
 10
3.5192172926
 20
-4.7552955815
 10
3.5314031511
 20
-4.7311743082
 10
3.5421679706
 20
-4.7065586304
 10
3.5516401637
 20
-4.6814364938
 10
3.5596913179
 20
-4.6558199528
 10
3.5659361956
 20
-4.6297451709
 10
3.5702463841
 20
-4.6032242026
 10
3.5727502961
 20
-4.5762449935
 10
3.5734479316
 20
-4.5488075435
  0
LWPOLYLINE
  5
468
100
AcDbEntity
  8
0
100
AcDbPolyline
 62
253
  6
CONTINUOUS
 90
13
 70
0
 10
13.0362318841
 20
8.9892882483
 10
13.0429124349
 20
9.0006543393
 10
13.0497165008
 20
9.011712989
 10
13.0565255073
 20
9.0222714784
 10
13.0632207936
 20
9.0321458043
 10
13.069685681
 20
9.0411638869
 10
13.0758075056
 20
9.0491685677
 10
13.0814795825
 20
9.0560203492
 10
13.0866030641
 20
9.0615998253
 10
13.0910886635
 20
9.0658097624
 10
13.0948582099
 20
9.068576794
 10
13.0978460116
 20
9.069852699
 10
13.1
 20
9.0696152423
  0
LWPOLYLINE
  5
469
100
AcDbEntity
  8
IMPORT_IGES
100
AcDbPolyline
 62
7
  6
CONTINUOUS
 90
13
 70
0
 10
1.9676403608
 20
-5.8573418379
 10
1.9960454128
 20
-5.8276780666
 10
2.0224375665
 20
-5.7967875524
 10
2.046816822
 20
-5.7646702953
 10
2.0694867471
 20
-5.7313540489
 10
2.090143774
 20
-5.6968110595
 10
2.107877199
 20
-5.6609580665
 10
2.122268008
 20
-5.6235494511
 10
2.1337352152
 20
-5.5848308321
 10
2.1426251594
 20
-5.5454558051
 10
2.149053287
 20
-5.5056422355
 10
2.1529041516
 20
-5.465172258
 10
2.1541777533
 20
-5.4240458727
  0
LWPOLYLINE
  5
46A
100
AcDbEntity
  8
IMPORT_IGES
100
AcDbPolyline
 62
7
  6
CONTINUOUS
 90
13
 70
0
 10
3.4826814663
 20
-5.8573418379
 10
3.5110865183
 20
-5.8276780666
 10
3.537478672
 20
-5.7967875524
 10
3.5618579275
 20
-5.7646702953
 10
3.5845278526
 20
-5.7313540489
 10
3.6051848794
 20
-5.6968110595
 10
3.6229183044
 20
-5.6609580665
 10
3.6373091134
 20
-5.6235494511
 10
3.6487763206
 20
-5.5848308321
 10
3.6576662648
 20
-5.5454558051
 10
3.6640943924
 20
-5.5056422355
 10
3.667945257
 20
-5.465172258
 10
3.6692188587
 20
-5.4240458727
  0
LWPOLYLINE
  5
46B
100
AcDbEntity
  8
IMPORT_IGES
100
AcDbPolyline
 62
7
  6
CONTINUOUS
 90
13
 70
0
 10
2.6157400571
 20
-4.1750342667
 10
2.590377878
 20
-4.2011899316
 10
2.5663216427
 20
-4.2281123106
 10
2.5435713513
 20
-4.2558014037
 10
2.5218279299
 20
-4.2841120472
 10
2.5013904523
 20
-4.3131894048
 10
2.4831561397
 20
-4.3434689675
 10
2.46763124
 20
-4.375236122
 10
2.4543095052
 20
-4.4082054815
 10
2.4425694128
 20
-4.4419563774
 10
2.4322037884
 20
-4.4763485869
 10
2.4234198065
 20
-4.5115223327
 10
2.4162174668
 20
-4.5474776149
  0
LINE
  5
46C
100
AcDbEntity
  8
IMPORT_IGES
100
AcDbLine
 62
7
  6
CONTINUOUS
 10
7.0255240425
 20
-4.216154021
 11
7.1161547676
 21
-4.1255251586
  0
LWPOLYLINE
  5
46D
100
AcDbEntity
  8
IMPORT_IGES
100
AcDbPolyline
 62
7
  6
CONTINUOUS
 90
10
 70
0
 10
1.783399377
 20
-5.7196700096
 10
1.7569610905
 20
-5.7441484685
 10
1.7291057428
 20
-5.7657953245
 10
1.6998333342
 20
-5.7846105775
 10
1.6689967112
 20
-5.8006552507
 10
1.6367430271
 20
-5.813868321
 10
1.6035137417
 20
-5.8240667186
 10
1.5694560084
 20
-5.8311894202
 10
1.5344226737
 20
-5.835297449
 10
1.4984137379
 20
-5.8363908052
  0
LWPOLYLINE
  5
46E
100
AcDbEntity
  8
IMPORT_IGES
100
AcDbPolyline
 62
7
  6
CONTINUOUS
 90
10
 70
0
 10
3.2984400168
 20
-5.7196700096
 10
3.2720017718
 20
-5.7441484258
 10
3.2441464701
 20
-5.7657952538
 10
3.2148741119
 20
-5.7846104934
 10
3.1840375465
 20
-5.8006551733
 10
3.1517839245
 20
-5.8138682649
 10
3.1185546979
 20
-5.8240666825
 10
3.0844970176
 20
-5.8311893974
 10
3.0494637327
 20
-5.8352974383
 10
3.0134548433
 20
-5.8363908052
  0
LWPOLYLINE
  5
46F
100
AcDbEntity
  8
IMPORT_IGES
100
AcDbPolyline
 62
7
  6
CONTINUOUS
 90
10
 70
0
 10
2.7750430163
 20
-4.3263406574
 10
2.797159083
 20
-4.3075453837
 10
2.8203277387
 20
-4.2910556504
 10
2.8445489835
 20
-4.2768714574
 10
2.8699652763
 20
-4.2650409763
 10
2.8964341582
 20
-4.2555160356
 10
2.9235282523
 20
-4.2481521208
 10
2.9511050995
 20
-4.2429010604
 10
2.9793071588
 20
-4.2398110258
 10
3.0081344303
 20
-4.2388820171
  0
LWPOLYLINE
  5
470
100
AcDbEntity
  8
IMPORT_IGES
100
AcDbPolyline
 62
7
  6
CONTINUOUS
 90
10
 70
0
 10
1.689758501
 20
-4.7892601311
 10
1.6614787133
 20
-4.8054052505
 10
1.6326137093
 20
-4.8198481872
 10
1.6031634891
 20
-4.8325889412
 10
1.573111687
 20
-4.8437725173
 10
1.5424746686
 20
-4.8532539106
 10
1.5113015308
 20
-4.8605981069
 10
1.4796086389
 20
-4.8656601014
 10
1.4473796276
 20
-4.8685848987
 10
1.4146144968
 20
-4.869372499
  0
LWPOLYLINE
  5
471
100
AcDbEntity
  8
IMPORT_IGES
100
AcDbPolyline
 62
7
  6
CONTINUOUS
 90
10
 70
0
 10
3.2047992572
 20
-4.7892601311
 10
3.1765194456
 20
-4.8054052166
 10
3.1476544219
 20
-4.8198481328
 10
3.1182041859
 20
-4.8325888796
 10
3.0881523741
 20
-4.8437724683
 10
3.05751535
 20
-4.8532538877
 10
3.0263422051
 20
-4.8605981038
 10
2.9946493031
 20
-4.8656601054
 10
2.9624202803
 20
-4.8685849038
 10
2.9296551365
 20
-4.869372499
  0
LWPOLYLINE
  5
472
100
AcDbEntity
  8
IMPORT_IGES
100
AcDbPolyline
 62
7
  6
CONTINUOUS
 90
10
 70
0
 10
-4.6493178233
 20
-9.8781743169
 10
-4.6678515513
 20
-9.8879329531
 10
-4.6866933645
 20
-9.8968127289
 10
-4.705843263
 20
-9.9048136445
 10
-4.7252884461
 20
-9.9120954808
 10
-4.7450417146
 20
-9.9184984568
 10
-4.7651414703
 20
-9.9235432294
 10
-4.7856005139
 20
-9.9270700177
 10
-4.8064060448
 20
-9.9292386027
 10
-4.827558063
 20
-9.9300489843
  0
LWPOLYLINE
  5
473
100
AcDbEntity
  8
IMPORT_IGES
100
AcDbPolyline
 62
7
  6
CONTINUOUS
 90
10
 70
0
 10
0.2746757527
 20
-4.9438634038
 10
0.3010028133
 20
-4.9306819272
 10
0.3264601577
 20
-4.9163121211
 10
0.351047786
 20
-4.9007539856
 10
0.3749427694
 20
-4.88413818
 10
0.3979680367
 20
-4.8663340449
 10
0.419592374
 20
-4.8469496023
 10
0.43963871
 20
-4.8258541926
 10
0.4582841159
 20
-4.8031784754
 10
0.4755285918
 20
-4.7789224505
  0
LWPOLYLINE
  5
474
100
AcDbEntity
  8
IMPORT_IGES
100
AcDbPolyline
 62
7
  6
CONTINUOUS
 90
10
 70
0
 10
1.7897168873
 20
-4.9438634038
 10
1.8160439343
 20
-4.9306819288
 10
1.8415012588
 20
-4.9163121194
 10
1.8660888606
 20
-4.9007539756
 10
1.8899838056
 20
-4.8841381505
 10
1.9130090279
 20
-4.8663339911
 10
1.9346333305
 20
-4.8469495373
 10
1.9546796476
 20
-4.825854136
 10
1.973325045
 20
-4.8031784404
 10
1.9905695226
 20
-4.7789224505
  0
LWPOLYLINE
  5
475
100
AcDbEntity
  8
IMPORT_IGES
100
AcDbPolyline
 62
7
  6
CONTINUOUS
 90
10
 70
0
 10
3.3047574107
 20
-4.9438634038
 10
3.3310845195
 20
-4.9306819666
 10
3.3565418996
 20
-4.9163121848
 10
3.3811295509
 20
-4.9007540583
 10
3.4050245387
 20
-4.8841382394
 10
3.4280497977
 20
-4.8663340758
 10
3.4496741324
 20
-4.8469496107
 10
3.4697204777
 20
-4.8258541921
 10
3.4883658986
 20
-4.803178472
 10
3.5056103952
 20
-4.7789224505
  0
LWPOLYLINE
  5
476
100
AcDbEntity
  8
IMPORT_IGES
100
AcDbPolyline
 62
7
  6
CONTINUOUS
 90
10
 70
0
 10
-4.6572992578
 20
-10.1455346763
 10
-4.6362138919
 20
-10.1356286321
 10
-4.6155718519
 20
-10.1249886536
 10
-4.5953731378
 20
-10.1136147408
 10
-4.5755848423
 20
-10.1015124533
 10
-4.5562398727
 20
-10.0886762315
 10
-4.5374369512
 20
-10.0750893965
 10
-4.5192089854
 20
-10.0607463886
 10
-4.5015230678
 20
-10.0456527675
 10
-4.4843791984
 20
-10.0298085332
  0
LWPOLYLINE
  5
477
100
AcDbEntity
  8
IMPORT_IGES
100
AcDbPolyline
 62
7
  6
CONTINUOUS
 90
10
 70
0
 10
-5.6589017622
 20
-10.0404516875
 10
-5.6418357835
 20
-10.0330745975
 10
-5.6245648945
 20
-10.0264430132
 10
-5.6070890951
 20
-10.0205569346
 10
-5.5894075457
 20
-10.0153308005
 10
-5.571521086
 20
-10.0108501721
 10
-5.5534322351
 20
-10.0073717331
 10
-5.5351418327
 20
-10.0049810445
 10
-5.5166490392
 20
-10.0035925452
 10
-5.4979538545
 20
-10.0032062351
  0
LWPOLYLINE
  5
478
100
AcDbEntity
  8
IMPORT_IGES
100
AcDbPolyline
 62
7
  6
CONTINUOUS
 90
5
 70
0
 10
8.6512915658
 20
-4.5129755437
 10
8.6379681933
 20
-4.51806036
 10
8.6246742864
 20
-4.5232061829
 10
8.6114086134
 20
-4.5284099593
 10
8.5981711745
 20
-4.533671689
  0
LINE
  5
479
100
AcDbEntity
  8
IMPORT_IGES
100
AcDbLine
 62
7
  6
CONTINUOUS
 10
8.6780193181
 20
-4.5029706114
 11
8.6512915658
 21
-4.5129755437
  0
LWPOLYLINE
  5
47A
100
AcDbEntity
  8
IMPORT_IGES
100
AcDbPolyline
 62
7
  6
CONTINUOUS
 90
3
 70
0
 10
8.7182912976
 20
-4.4883200049
 10
8.704842765
 20
-4.4931547468
 10
8.6780193181
 20
-4.5029706114
  0
LWPOLYLINE
  5
47B
100
AcDbEntity
  8
IMPORT_IGES
100
AcDbPolyline
 62
7
  6
CONTINUOUS
 90
10
 70
0
 10
8.7182912976
 20
-4.420385611
 10
8.6972066813
 20
-4.4278552596
 10
8.6761650427
 20
-4.4354438522
 10
8.6551663816
 20
-4.4431513889
 10
8.6342057094
 20
-4.4509667631
 10
8.6132880148
 20
-4.4589010813
 10
8.5924282635
 20
-4.4669876628
 10
8.571631444
 20
-4.4752376141
 10
8.5508925678
 20
-4.4836398288
 10
8.5302116349
 20
-4.4921943068
  0
LWPOLYLINE
  5
47C
100
AcDbEntity
  8
IMPORT_IGES
100
AcDbPolyline
 62
7
  6
CONTINUOUS
 90
10
 70
0
 10
8.7823770009
 20
-4.3988088754
 10
8.8035502762
 20
-4.3920447086
 10
8.8247693881
 20
-4.3854014635
 10
8.8460343368
 20
-4.3788791401
 10
8.8673434314
 20
-4.3724697231
 10
8.8886983627
 20
-4.3661812279
 10
8.9101042029
 20
-4.3600377001
 10
8.9315626425
 20
-4.3540471549
 10
8.953071991
 20
-4.3482015771
 10
8.9746322483
 20
-4.3425009668
  0
LWPOLYLINE
  5
47D
100
AcDbEntity
  8
0
100
AcDbPolyline
 62
7
  6
CONTINUOUS
 90
8
 70
0
 10
12.4875479642
 20
9.3910101647
 10
12.4735079799
 20
9.3887301939
 10
12.4589551724
 20
9.3858144168
 10
12.4440939851
 20
9.3822903433
 10
12.4290678974
 20
9.3785375241
 10
12.4140109994
 20
9.3746379599
 10
12.3990737214
 20
9.3703573361
 10
12.3843855909
 20
9.3656318811
  0
LINE
  5
47E
100
AcDbEntity
  8
0
100
AcDbLine
 62
7
  6
CONTINUOUS
 10
12.5131355446
 20
9.3947346908
 11
12.4875479642
 21
9.3910101647
  0
LINE
  5
47F
100
AcDbEntity
  8
0
100
AcDbLine
 62
253
  6
CONTINUOUS
 10
15.8086006748
 20
8.6165498567
 11
15.7089144185
 21
8.6128817689
  0
LWPOLYLINE
  5
480
100
AcDbEntity
  8
0
100
AcDbPolyline
 62
253
  6
CONTINUOUS
 90
13
 70
0
 10
-13.8985507246
 20
7.4957082041
 10
-13.9117343235
 20
7.4958106854
 10
-13.9247134281
 20
7.4961738544
 10
-13.9372618514
 20
7.4967913823
 10
-13.9491609117
 20
7.4976525074
 10
-13.9602032439
 20
7.4987422228
 10
-13.9701964132
 20
7.5000415381
 10
-13.9789662685
 20
7.50152781
 10
-13.9863599773
 20
7.5031751372
 10
-13.9922486895
 20
7.5049548116
 10
-13.9965297824
 20
7.5068358188
 10
-13.9991286493
 20
7.5087853784
 10
-14.0
 20
7.5107695155
  0
LWPOLYLINE
  5
481
100
AcDbEntity
  8
0
100
AcDbPolyline
 62
253
  6
CONTINUOUS
 90
13
 70
0
 10
14.1014492754
 20
7.4957082041
 10
14.0882656765
 20
7.4958106854
 10
14.0752865719
 20
7.4961738544
 10
14.0627381486
 20
7.4967913823
 10
14.0508390883
 20
7.4976525074
 10
14.0397967561
 20
7.4987422228
 10
14.0298035868
 20
7.5000415381
 10
14.0210337315
 20
7.50152781
 10
14.0136400227
 20
7.5031751372
 10
14.0077513105
 20
7.5049548116
 10
14.0034702176
 20
7.5068358188
 10
14.0008713507
 20
7.5087853784
 10
14.0
 20
7.5107695155
  0
LWPOLYLINE
  5
482
100
AcDbEntity
  8
IMPORT_IGES
100
AcDbPolyline
 62
253
  6
CONTINUOUS
 90
37
 70
0
 10
-6.5586007421
 20
10.7733132853
 10
-6.6126886115
 20
10.7971162786
 10
-6.6664114447
 20
10.822840239
 10
-6.7197166621
 20
10.8504879819
 10
-6.7726082116
 20
10.8800943355
 10
-6.8249693567
 20
10.911628156
 10
-6.876573753
 20
10.944974023
 10
-6.9273609272
 20
10.9801032116
 10
-6.9772921452
 20
11.0170009564
 10
-7.0261908604
 20
11.0555421734
 10
-7.0740131737
 20
11.0956899793
 10
-7.1207160645
 20
11.1374079314
 10
-7.1661419177
 20
11.1805473929
 10
-7.2102212716
 20
11.225023568
 10
-7.2529562762
 20
11.270821781
 10
-7.2943068377
 20
11.3178870829
 10
-7.3342328262
 20
11.366162883
 10
-7.3727066191
 20
11.4156072706
 10
-7.4097060189
 20
11.4661879689
 10
-7.4451850493
 20
11.5178413466
 10
-7.4791194953
 20
11.5705344656
 10
-7.5115125003
 20
11.624285815
 10
-7.5423483156
 20
11.6790984468
 10
-7.5715560356
 20
11.7348808538
 10
-7.5990567554
 20
11.7915091932
 10
-7.6248378973
 20
11.8489874346
 10
-7.6488376967
 20
11.9072142706
 10
-7.670932691
 20
11.9658954474
 10
-7.6910951688
 20
12.024927071
 10
-7.7093314123
 20
12.0842990232
 10
-7.7256024732
 20
12.1438476191
 10
-7.7399070624
 20
12.2035107589
 10
-7.7522480292
 20
12.2632403566
 10
-7.7626128827
 20
12.3228914592
 10
-7.7710096057
 20
12.3823808636
 10
-7.777456976
 20
12.4416891201
 10
-7.7819690129
 20
12.5007681593
  0
LWPOLYLINE
  5
483
100
AcDbEntity
  8
IMPORT_IGES
100
AcDbPolyline
 62
253
  6
CONTINUOUS
 90
16
 70
0
 10
-6.0260565088
 20
11.7928153174
 10
-6.0948318393
 20
11.8243507976
 10
-6.1603342645
 20
11.860400073
 10
-6.2225637845
 20
11.9009631439
 10
-6.2818124184
 20
11.946312846
 10
-6.3377881472
 20
11.9961763435
 10
-6.3896149129
 20
12.0497351284
 10
-6.4372335509
 20
12.1070432906
 10
-6.4807032259
 20
12.1680467403
 10
-6.519325375
 20
12.2317646993
 10
-6.5530304384
 20
12.2982406731
 10
-6.5818879759
 20
12.3674311564
 10
-6.6054081036
 20
12.4382248552
 10
-6.623427527
 20
12.5102513383
 10
-6.6361095406
 20
12.5838810369
 10
-6.6434541444
 20
12.6591139512
  0
LINE
  5
484
100
AcDbEntity
  8
IMPORT_IGES
100
AcDbLine
 62
7
  6
CONTINUOUS
 10
12.8838447854
 20
-4.1255251586
 11
12.9744764417
 21
-4.216154021
  0
LINE
  5
485
100
AcDbEntity
  8
IMPORT_IGES
100
AcDbLine
 62
253
  6
CONTINUOUS
 10
-2.5509942076
 20
50.4527917972
 11
-2.6261723873
 21
50.9470884725
  0
LWPOLYLINE
  5
486
100
AcDbEntity
  8
IMPORT_IGES
100
AcDbPolyline
 62
253
  6
CONTINUOUS
 90
37
 70
0
 10
7.641726614
 20
47.4989703492
 10
7.6372043211
 20
47.5583094677
 10
7.6307214716
 20
47.6179331317
 10
7.6222587666
 20
47.6777918833
 10
7.6117882862
 20
47.7378853106
 10
7.5992996377
 20
47.7981072459
 10
7.5848163067
 20
47.8582491812
 10
7.5683356034
 20
47.9182652067
 10
7.5498606821
 20
47.9780888883
 10
7.5294567647
 20
48.0374865328
 10
7.5071391262
 20
48.0964140337
 10
7.4829311895
 20
48.1548054102
 10
7.4569469037
 20
48.2124055201
 10
7.4292544839
 20
48.2691088514
 10
7.3998675281
 20
48.3249260157
 10
7.3688389647
 20
48.3797850918
 10
7.3362265523
 20
48.4336126983
 10
7.3020555928
 20
48.4863907785
 10
7.2663271168
 20
48.5381287762
 10
7.2290725735
 20
48.5887827256
 10
7.1903306296
 20
48.6382985359
 10
7.1501045918
 20
48.6866645024
 10
7.1084141808
 20
48.7338421696
 10
7.065302852
 20
48.7797653501
 10
7.0208066458
 20
48.8243780342
 10
6.9749129852
 20
48.8676694839
 10
6.9276975431
 20
48.909543036
 10
6.8793407596
 20
48.9498270745
 10
6.829887439
 20
48.9884822426
 10
6.7793803881
 20
49.0254710554
 10
6.7280180329
 20
49.0606532167
 10
6.6758394128
 20
49.0940150342
 10
6.6229079727
 20
49.1255272654
 10
6.5694787333
 20
49.1550617339
 10
6.5156804616
 20
49.1825864534
 10
6.4615029493
 20
49.2081443579
 10
6.4070012039
 20
49.2317418147
  0
LWPOLYLINE
  5
487
100
AcDbEntity
  8
IMPORT_IGES
100
AcDbPolyline
 62
7
  6
CONTINUOUS
 90
67
 70
0
 10
10.640854016
 20
-9.2642949044
 10
10.6413791502
 20
-9.2819522813
 10
10.6427532286
 20
-9.2991737548
 10
10.6449762512
 20
-9.315959325
 10
10.6480942188
 20
-9.332310466
 10
10.6520611307
 20
-9.3482257037
 10
10.6567389842
 20
-9.3637006152
 10
10.6621132917
 20
-9.3787239852
 10
10.6681985408
 20
-9.3933070289
 10
10.6749001916
 20
-9.4074789704
 10
10.6821875476
 20
-9.4212547954
 10
10.6900913053
 20
-9.4346195181
 10
10.6986090141
 20
-9.4475574046
 10
10.7077478002
 20
-9.4600935673
 10
10.7175005373
 20
-9.4722028938
 10
10.7278433967
 20
-9.4837943127
 10
10.7387977856
 20
-9.4948610274
 10
10.7503422967
 20
-9.5054098346
 10
10.7623888787
 20
-9.5153700533
 10
10.7749528118
 20
-9.5247396387
 10
10.7880188158
 20
-9.5335206355
 10
10.8014529987
 20
-9.5416484967
 10
10.815249251
 20
-9.5491178697
 10
10.8294136823
 20
-9.5559341071
 10
10.8438307296
 20
-9.5620487201
 10
10.8585022036
 20
-9.567460697
 10
10.8734262936
 20
-9.5721710495
 10
10.8884820039
 20
-9.5761343234
 10
10.9036570072
 20
-9.5793395407
 10
10.9189636308
 20
-9.5817976793
 10
10.9343178609
 20
-9.5834962193
 10
10.9497242933
 20
-9.5844251411
 10
10.9651783323
 20
-9.5845944642
 10
10.9805821762
 20
-9.5840217263
 10
10.9959196726
 20
-9.5827129402
 10
11.011206974
 20
-9.580662093
 10
11.0263947364
 20
-9.5778686842
 10
11.0414948614
 20
-9.5743338491
 10
11.0564954474
 20
-9.5700564523
 10
11.0713114458
 20
-9.5650325868
 10
11.0859816548
 20
-9.5592388732
 10
11.1004672763
 20
-9.552698691
 10
11.1145668673
 20
-9.5454782715
 10
11.1283001234
 20
-9.5375184288
 10
11.1416473491
 20
-9.5288783488
 10
11.1543480151
 20
-9.5198018202
 10
11.1663241872
 20
-9.5103038018
 10
11.1776537996
 20
-9.5003693348
 10
11.1883101257
 20
-9.4901973327
 10
11.19826105
 20
-9.4798288114
 10
11.207538688
 20
-9.4692227548
 10
11.2162126584
 20
-9.4584550283
 10
11.2242877296
 20
-9.4475674402
 10
11.2317591333
 20
-9.436518182
 10
11.238682183
 20
-9.425257694
 10
11.2450804321
 20
-9.413806762
 10
11.2509303272
 20
-9.4021446001
 10
11.2562165219
 20
-9.3901592908
 10
11.2609186838
 20
-9.377840521
 10
11.2650571452
 20
-9.3651986039
 10
11.2686775573
 20
-9.3521525617
 10
11.2717174398
 20
-9.3387099507
 10
11.274239273
 20
-9.3248632145
 10
11.2764761483
 20
-9.3105087065
 10
11.2785057628
 20
-9.2956118777
 10
11.2802504194
 20
-9.280207277
 10
11.2817101181
 20
-9.2642949044
  0
LWPOLYLINE
  5
488
100
AcDbEntity
  8
IMPORT_IGES
100
AcDbPolyline
 62
7
  6
CONTINUOUS
 90
67
 70
0
 10
11.2817101181
 20
-9.2642949044
 10
11.2811843807
 20
-9.2466375287
 10
11.2798100175
 20
-9.2294161652
 10
11.2775870284
 20
-9.2126308139
 10
11.2744695132
 20
-9.1962800348
 10
11.2705033722
 20
-9.180365268
 10
11.2658263062
 20
-9.1648908336
 10
11.2604527745
 20
-9.1498679291
 10
11.2543683179
 20
-9.1352853569
 10
11.2476672595
 20
-9.1211138444
 10
11.2403802006
 20
-9.1073384164
 10
11.23247654
 20
-9.093974048
 10
11.2239587974
 20
-9.0810363918
 10
11.2148198378
 20
-9.0685003182
 10
11.2050667963
 20
-9.0563909569
 10
11.1947235978
 20
-9.0447993491
 10
11.1837688507
 20
-9.033732235
 10
11.1722239466
 20
-9.0231828744
 10
11.1601769855
 20
-9.0132220879
 10
11.1476126981
 20
-9.0038519308
 10
11.1345463537
 20
-8.9950703477
 10
11.1211118593
 20
-8.9869419938
 10
11.1073153141
 20
-8.9794722575
 10
11.0931506189
 20
-8.9726557503
 10
11.078733384
 20
-8.9665409623
 10
11.064061847
 20
-8.9611289369
 10
11.0491377704
 20
-8.9564186308
 10
11.0340820511
 20
-8.952455404
 10
11.0189070035
 20
-8.9492502045
 10
11.0036003131
 20
-8.9467920842
 10
10.9882459337
 20
-8.9450935587
 10
10.972839208
 20
-8.9441646366
 10
10.9573847932
 20
-8.9439953093
 10
10.941980614
 20
-8.9445680664
 10
10.9266428473
 20
-8.9458769105
 10
10.9113553162
 20
-8.947927839
 10
10.8961674146
 20
-8.9507213332
 10
10.8810672977
 20
-8.9542562438
 10
10.8660668102
 20
-8.95853372
 10
10.8512508798
 20
-8.9635576916
 10
10.8365806719
 20
-8.969351537
 10
10.8220950211
 20
-8.9758918777
 10
10.8079953584
 20
-8.9831125077
 10
10.7942619623
 20
-8.9910726391
 10
10.7809145543
 20
-8.9997130597
 10
10.7682137307
 20
-9.0087899263
 10
10.7562374472
 20
-9.0182882804
 10
10.744907748
 20
-9.0282230805
 10
10.7342513615
 20
-9.03839536
 10
10.7243004081
 20
-9.0487640883
 10
10.7150227673
 20
-9.0593702959
 10
10.7063488064
 20
-9.0701381076
 10
10.6982737475
 20
-9.0810257047
 10
10.6908023685
 20
-9.0920749059
 10
10.6838793698
 20
-9.1033352924
 10
10.6774811981
 20
-9.1147860787
 10
10.6716314067
 20
-9.1264480503
 10
10.6663453563
 20
-9.1384331442
 10
10.6616433943
 20
-9.1507516778
 10
10.6575051734
 20
-9.1633933337
 10
10.6538850117
 20
-9.1764390972
 10
10.6508453821
 20
-9.1898814079
 10
10.6483238117
 20
-9.2037278262
 10
10.6460871999
 20
-9.2180820184
 10
10.6440578466
 20
-9.2329785399
 10
10.642313452
 20
-9.2483828352
 10
10.640854016
 20
-9.2642949044
  0
LINE
  5
489
100
AcDbEntity
  8
IMPORT_IGES
100
AcDbLine
 62
7
  6
CONTINUOUS
 10
8.7182912976
 20
-4.1695022106
 11
8.7182912976
 21
-4.420385611
  0
LINE
  5
48A
100
AcDbEntity
  8
IMPORT_IGES
100
AcDbLine
 62
7
  6
CONTINUOUS
 10
8.7182912976
 20
-4.7142290592
 11
8.7182912976
 21
-4.4883200049
  0
LINE
  5
48B
100
AcDbEntity
  8
IMPORT_IGES
100
AcDbLine
 62
7
  6
CONTINUOUS
 10
8.7823770009
 20
-4.2335883796
 11
8.7823770009
 21
-4.3988088754
  0
LINE
  5
48C
100
AcDbEntity
  8
IMPORT_IGES
100
AcDbLine
 62
7
  6
CONTINUOUS
 10
8.7823770009
 20
-4.4662738864
 11
8.7823770009
 21
-4.6501428902
  0
LINE
  5
48D
100
AcDbEntity
  8
IMPORT_IGES
100
AcDbLine
 62
7
  6
CONTINUOUS
 10
8.9440585504
 20
-45.8801051454
 11
8.9440585504
 21
-34.9919710042
  0
LINE
  5
48E
100
AcDbEntity
  8
IMPORT_IGES
100
AcDbLine
 62
7
  6
CONTINUOUS
 10
8.9440585504
 20
-28.8801051454
 11
8.9440585504
 21
-17.9919710042
  0
LINE
  5
48F
100
AcDbEntity
  8
IMPORT_IGES
100
AcDbLine
 62
7
  6
CONTINUOUS
 10
8.9505203068
 20
-9.2963361263
 11
8.9505203068
 21
-9.809021753
  0
LINE
  5
490
100
AcDbEntity
  8
IMPORT_IGES
100
AcDbLine
 62
7
  6
CONTINUOUS
 10
8.9746322483
 20
-4.6501428902
 11
8.9746322483
 21
-4.4087738812
  0
LINE
  5
491
100
AcDbEntity
  8
IMPORT_IGES
100
AcDbLine
 62
7
  6
CONTINUOUS
 10
8.9746322483
 20
-4.3425009668
 11
8.9746322483
 21
-4.2335883796
  0
LINE
  5
492
100
AcDbEntity
  8
IMPORT_IGES
100
AcDbLine
 62
7
  6
CONTINUOUS
 10
9.0
 20
-45.95
 11
9.0
 21
-34.95
  0
LINE
  5
493
100
AcDbEntity
  8
IMPORT_IGES
100
AcDbLine
 62
7
  6
CONTINUOUS
 10
9.0
 20
-28.95
 11
9.0
 21
-17.95
  0
LINE
  5
494
100
AcDbEntity
  8
IMPORT_IGES
100
AcDbLine
 62
7
  6
CONTINUOUS
 10
9.0387184173
 20
-4.392397505
 11
9.0387184173
 21
-4.7142290592
  0
LINE
  5
495
100
AcDbEntity
  8
IMPORT_IGES
100
AcDbLine
 62
7
  6
CONTINUOUS
 10
9.0387184173
 20
-4.3264561414
 11
9.0387184173
 21
-4.1695022106
  0
LINE
  5
496
100
AcDbEntity
  8
IMPORT_IGES
100
AcDbLine
 62
7
  6
CONTINUOUS
 10
9.0466476977
 20
-9.3283810734
 11
9.0466476977
 21
-9.7128943622
  0
LINE
  5
497
100
AcDbEntity
  8
IMPORT_IGES
100
AcDbLine
 62
7
  6
CONTINUOUS
 10
9.1118839641
 20
-17.8660571924
 11
9.1118839641
 21
-29.0897910397
  0
LINE
  5
498
100
AcDbEntity
  8
IMPORT_IGES
100
AcDbLine
 62
7
  6
CONTINUOUS
 10
9.1118839641
 20
-34.8660571924
 11
9.1118839641
 21
-46.0897910397
  0
LINE
  5
499
100
AcDbEntity
  8
IMPORT_IGES
100
AcDbLine
 62
7
  6
CONTINUOUS
 10
9.2389043421
 20
-9.7128943622
 11
9.2389043421
 21
-9.3283810734
  0
LINE
  5
49A
100
AcDbEntity
  8
IMPORT_IGES
100
AcDbLine
 62
7
  6
CONTINUOUS
 10
9.3350317329
 20
-9.809021753
 11
9.3350317329
 21
-9.2963361263
  0
LINE
  5
49B
100
AcDbEntity
  8
IMPORT_IGES
100
AcDbLine
 62
7
  6
CONTINUOUS
 10
9.5834443346
 20
-5.9318513691
 11
9.5834443346
 21
-6.2522784888
  0
LINE
  5
49C
100
AcDbEntity
  8
IMPORT_IGES
100
AcDbLine
 62
7
  6
CONTINUOUS
 10
9.6475295722
 20
-5.9959375381
 11
9.6475295722
 21
-6.1881923198
  0
LINE
  5
49D
100
AcDbEntity
  8
IMPORT_IGES
100
AcDbLine
 62
7
  6
CONTINUOUS
 10
9.7116157413
 20
-4.0733710944
 11
9.7116157413
 21
-4.2354584753
  0
LINE
  5
49E
100
AcDbEntity
  8
IMPORT_IGES
100
AcDbLine
 62
7
  6
CONTINUOUS
 10
9.7116157413
 20
-4.4578843832
 11
9.7116157413
 21
-4.2995781719
  0
LINE
  5
49F
100
AcDbEntity
  8
IMPORT_IGES
100
AcDbLine
 62
7
  6
CONTINUOUS
 10
9.7757009789
 20
-4.1374572634
 11
9.7757009789
 21
-4.2339311063
  0
LINE
  5
4A0
100
AcDbEntity
  8
IMPORT_IGES
100
AcDbLine
 62
7
  6
CONTINUOUS
 10
9.7757009789
 20
-4.2980210006
 11
9.7757009789
 21
-4.3938019395
  0
LINE
  5
4A1
100
AcDbEntity
  8
IMPORT_IGES
100
AcDbLine
 62
7
  6
CONTINUOUS
 10
10.5126826093
 20
-4.3048755347
 11
10.5126826093
 21
-4.1374572634
  0
LINE
  5
4A2
100
AcDbEntity
  8
IMPORT_IGES
100
AcDbLine
 62
7
  6
CONTINUOUS
 10
10.5236480013
 20
-4.3938019395
 11
10.5236480013
 21
-4.3727354228
  0
LINE
  5
4A3
100
AcDbEntity
  8
IMPORT_IGES
100
AcDbLine
 62
7
  6
CONTINUOUS
 10
10.5767687783
 20
-4.3847196817
 11
10.5767687783
 21
-4.4578843832
  0
LINE
  5
4A4
100
AcDbEntity
  8
IMPORT_IGES
100
AcDbLine
 62
7
  6
CONTINUOUS
 10
10.5767687783
 20
-4.3189347803
 11
10.5767687783
 21
-4.0733710944
  0
LINE
  5
4A5
100
AcDbEntity
  8
IMPORT_IGES
100
AcDbLine
 62
7
  6
CONTINUOUS
 10
10.640854016
 20
-6.1881923198
 11
10.640854016
 21
-5.9959375381
  0
LINE
  5
4A6
100
AcDbEntity
  8
IMPORT_IGES
100
AcDbLine
 62
7
  6
CONTINUOUS
 10
10.704940185
 20
-6.2522784888
 11
10.704940185
 21
-5.9318513691
  0
LINE
  5
4A7
100
AcDbEntity
  8
IMPORT_IGES
100
AcDbLine
 62
7
  6
CONTINUOUS
 10
11.1214946955
 20
-5.2269109606
 11
11.1214946955
 21
-5.8878743171
  0
LINE
  5
4A8
100
AcDbEntity
  8
IMPORT_IGES
100
AcDbLine
 62
7
  6
CONTINUOUS
 10
11.1855808646
 20
-5.2909971297
 11
11.1855808646
 21
-5.8237881481
  0
LINE
  5
4A9
100
AcDbEntity
  8
IMPORT_IGES
100
AcDbLine
 62
7
  6
CONTINUOUS
 10
11.6021363065
 20
-4.9705700099
 11
11.6021363065
 21
-4.8899286508
  0
LINE
  5
4AA
100
AcDbEntity
  8
IMPORT_IGES
100
AcDbLine
 62
7
  6
CONTINUOUS
 10
11.826435104
 20
-5.8677652001
 11
11.826435104
 21
-5.3641953587
  0
LINE
  5
4AB
100
AcDbEntity
  8
IMPORT_IGES
100
AcDbLine
 62
7
  6
CONTINUOUS
 10
11.890521273
 20
-5.9318513691
 11
11.890521273
 21
-5.3001091897
  0
LINE
  5
4AC
100
AcDbEntity
  8
IMPORT_IGES
100
AcDbLine
 62
7
  6
CONTINUOUS
 10
12.0
 20
-17.9796690909
 11
12.0
 21
-45.9796690909
  0
LWPOLYLINE
  5
4AD
100
AcDbEntity
  8
IMPORT_IGES
100
AcDbPolyline
 62
7
  6
CONTINUOUS
 90
61
 70
0
 10
10.7690254226
 20
-9.2642949044
 10
10.7697998029
 20
-9.2539379798
 10
10.7708483193
 20
-9.2438605302
 10
10.7721709719
 20
-9.2340625555
 10
10.7737066102
 20
-9.2245468233
 10
10.7755163847
 20
-9.215310566
 10
10.7777837466
 20
-9.2063454815
 10
10.7805833419
 20
-9.1976617301
 10
10.7838405247
 20
-9.1892491515
 10
10.7875148083
 20
-9.181068962
 10
10.7916065656
 20
-9.1731272257
 10
10.7961154237
 20
-9.1654178785
 10
10.8009997773
 20
-9.1578839453
 10
10.8062402159
 20
-9.1505031363
 10
10.81185615
 20
-9.1432977412
 10
10.8178642054
 20
-9.1362776542
 10
10.8242653957
 20
-9.12940986
 10
10.8310587073
 20
-9.1227273739
 10
10.8382577256
 20
-9.1163391363
 10
10.8458771184
 20
-9.1102437309
 10
10.8539022178
 20
-9.1044425739
 10
10.8623026054
 20
-9.099048854
 10
10.8710974057
 20
-9.094071469
 10
10.8802674942
 20
-9.0895015211
 10
10.8897250791
 20
-9.0854255053
 10
10.8994693614
 20
-9.0818492637
 10
10.9095011401
 20
-9.0787669541
 10
10.9197350194
 20
-9.0762475454
 10
10.9302113821
 20
-9.0743097455
 10
10.9408898454
 20
-9.0729348464
 10
10.9515638653
 20
-9.0721356932
 10
10.9621954113
 20
-9.0719289683
 10
10.9728225139
 20
-9.0722979894
 10
10.9833527201
 20
-9.0732055541
 10
10.9937778959
 20
-9.0746348011
 10
11.0041061753
 20
-9.0766025918
 10
11.0142695077
 20
-9.0791223078
 10
11.024271822
 20
-9.0821897378
 10
11.0341091894
 20
-9.0858090931
 10
11.0437017725
 20
-9.0900063886
 10
11.0530345177
 20
-9.094811717
 10
11.0621224786
 20
-9.1001949856
 10
11.0709309779
 20
-9.1060919307
 10
11.0794837897
 20
-9.1125401181
 10
11.0877571398
 20
-9.1195019821
 10
11.0956450291
 20
-9.1268005612
 10
11.1031729982
 20
-9.134424355
 10
11.1103155063
 20
-9.142384864
 10
11.1168899323
 20
-9.1505396281
 10
11.1228556265
 20
-9.1588302424
 10
11.1282532385
 20
-9.1673151118
 10
11.1330220962
 20
-9.1760269905
 10
11.1370954719
 20
-9.1849898009
 10
11.1405400933
 20
-9.1941796207
 10
11.1434954706
 20
-9.2035574365
 10
11.1459226968
 20
-9.2130879969
 10
11.1478606789
 20
-9.2228065534
 10
11.1495656483
 20
-9.2327798481
 10
11.1511230154
 20
-9.2430301286
 10
11.1524473698
 20
-9.2535351474
 10
11.1535387114
 20
-9.2642949044
  0
LWPOLYLINE
  5
4AE
100
AcDbEntity
  8
IMPORT_IGES
100
AcDbPolyline
 62
7
  6
CONTINUOUS
 90
61
 70
0
 10
11.1535387114
 20
-9.2642949044
 10
11.1527643481
 20
-9.2746516401
 10
11.1517158477
 20
-9.2847289557
 10
11.1503932101
 20
-9.2945268512
 10
11.1488575889
 20
-9.3040425715
 10
11.1470478306
 20
-9.3132788717
 10
11.1447804748
 20
-9.3222440169
 10
11.1419808692
 20
-9.3309278465
 10
11.1387236662
 20
-9.3393405211
 10
11.1350493622
 20
-9.3475207883
 10
11.1309575771
 20
-9.3554625794
 10
11.1264486911
 20
-9.3631719632
 10
11.1215643406
 20
-9.3707058936
 10
11.1163239504
 20
-9.3780866404
 10
11.1107080958
 20
-9.3852919338
 10
11.1047001395
 20
-9.3923119187
 10
11.0982990971
 20
-9.3991796021
 10
11.0915059531
 20
-9.4058619769
 10
11.0843070226
 20
-9.4122501672
 10
11.0766876011
 20
-9.4183456304
 10
11.0686623933
 20
-9.4241469089
 10
11.0602618287
 20
-9.4295407546
 10
11.0514666944
 20
-9.4345182712
 10
11.0422962033
 20
-9.4390883549
 10
11.0328384236
 20
-9.4431644455
 10
11.0230942233
 20
-9.4467406394
 10
11.0130627343
 20
-9.4498228402
 10
11.0028294212
 20
-9.4523421987
 10
10.9923540481
 20
-9.4542800621
 10
10.9816768507
 20
-9.4556550832
 10
10.9710040014
 20
-9.4564543714
 10
10.960373467
 20
-9.4566612876
 10
10.9497472807
 20
-9.456292471
 10
10.9392177136
 20
-9.4553849483
 10
10.9287928612
 20
-9.4539554963
 10
10.918464628
 20
-9.4519873382
 10
10.9083009998
 20
-9.4494671705
 10
10.8982979432
 20
-9.4463991542
 10
10.8884594915
 20
-9.4427791283
 10
10.8788657296
 20
-9.4385813067
 10
10.8695316299
 20
-9.4337756089
 10
10.8604422199
 20
-9.4283921154
 10
10.8516326671
 20
-9.422495281
 10
10.8430793974
 20
-9.4160476813
 10
10.8348059848
 20
-9.4090867408
 10
10.8269183191
 20
-9.4017891882
 10
10.8193909692
 20
-9.3941665468
 10
10.8122493663
 20
-9.3862072933
 10
10.8056756937
 20
-9.3780535863
 10
10.7997104667
 20
-9.3697637331
 10
10.7943131701
 20
-9.3612794265
 10
10.7895444412
 20
-9.3525679036
 10
10.7854709409
 20
-9.3436052361
 10
10.7820260084
 20
-9.3344153523
 10
10.7790702988
 20
-9.3250372753
 10
10.7766427568
 20
-9.3155062311
 10
10.7747044377
 20
-9.3057869937
 10
10.7729991626
 20
-9.2958129078
 10
10.7714415386
 20
-9.2855617551
 10
10.7701169586
 20
-9.275055754
 10
10.7690254226
 20
-9.2642949044
  0
LINE
  5
4AF
100
AcDbEntity
  8
IMPORT_IGES
100
AcDbLine
 62
7
  6
CONTINUOUS
 10
11.0101541504
 20
-8.7056801736
 11
11.0507728532
 21
-8.2414046943
  0
LINE
  5
4B0
100
AcDbEntity
  8
IMPORT_IGES
100
AcDbLine
 62
7
  6
CONTINUOUS
 10
11.0653545708
 20
-8.0747240305
 11
11.2522616982
 21
-5.9383706271
  0
LINE
  5
4B1
100
AcDbEntity
  8
IMPORT_IGES
100
AcDbLine
 62
7
  6
CONTINUOUS
 10
11.2696411088
 20
-5.7397269726
 11
11.3089000806
 21
-5.2909971297
  0
LINE
  5
4B2
100
AcDbEntity
  8
IMPORT_IGES
100
AcDbLine
 62
7
  6
CONTINUOUS
 10
11.3145057112
 20
-5.2269109606
 11
11.3369338214
 21
-4.9705700099
  0
LINE
  5
4B3
100
AcDbEntity
  8
IMPORT_IGES
100
AcDbLine
 62
7
  6
CONTINUOUS
 10
11.1099276692
 20
-8.3005585789
 11
11.073675938
 21
-8.7149263441
  0
LINE
  5
4B4
100
AcDbEntity
  8
IMPORT_IGES
100
AcDbLine
 62
7
  6
CONTINUOUS
 10
11.3732311875
 20
-5.2909971297
 11
11.3401403651
 21
-5.6692295789
  0
LINE
  5
4B5
100
AcDbEntity
  8
IMPORT_IGES
100
AcDbLine
 62
7
  6
CONTINUOUS
 10
11.3171627745
 20
-5.9318513691
 11
11.124510318
 21
-8.1338816404
  0
LINE
  5
4B6
100
AcDbEntity
  8
IMPORT_IGES
100
AcDbLine
 62
7
  6
CONTINUOUS
 10
11.401263997
 20
-4.9705700099
 11
11.378836818
 21
-5.2269109606
  0
LWPOLYLINE
  5
4B7
100
AcDbEntity
  8
IMPORT_IGES
100
AcDbPolyline
 62
7
  6
CONTINUOUS
 90
43
 70
0
 10
10.4014491662
 20
-9.2322536826
 10
10.4043204632
 20
-9.2095615442
 10
10.4075391756
 20
-9.1875472286
 10
10.4111053034
 20
-9.1662107358
 10
10.4149200273
 20
-9.1456056516
 10
10.4190821667
 20
-9.1256783901
 10
10.423888179
 20
-9.1062681939
 10
10.4294254863
 20
-9.0873759885
 10
10.4356066666
 20
-9.0690008483
 10
10.4424659116
 20
-9.0509792388
 10
10.4500013585
 20
-9.0333182532
 10
10.4582148701
 20
-9.0160107983
 10
10.4671462261
 20
-8.9988720599
 10
10.476755784
 20
-8.9818866318
 10
10.4870831862
 20
-8.9650699203
 10
10.4982871404
 20
-8.9482833302
 10
10.5103579489
 20
-8.9314665212
 10
10.5233053094
 20
-8.9146798336
 10
10.5373170219
 20
-8.8979656929
 10
10.552608129
 20
-8.8811283591
 10
10.5689635882
 20
-8.8643635721
 10
10.5859260722
 20
-8.8483009771
 10
10.6035749362
 20
-8.833016717
 10
10.621830825
 20
-8.8184346488
 10
10.6399983459
 20
-8.8049559889
 10
10.6578151449
 20
-8.7927958063
 10
10.6755435759
 20
-8.7817390319
 10
10.6932753084
 20
-8.7715416745
 10
10.7109310713
 20
-8.762176293
 10
10.7285901355
 20
-8.7536703284
 10
10.7465819833
 20
-8.7458621135
 10
10.7649312211
 20
-8.7386782573
 10
10.7836132424
 20
-8.7321921506
 10
10.8028837093
 20
-8.7264622993
 10
10.8227717255
 20
-8.7215214858
 10
10.8432481873
 20
-8.7173369276
 10
10.8644814464
 20
-8.7138687834
 10
10.8864519271
 20
-8.7111906151
 10
10.909179205
 20
-8.7092288608
 10
10.9328903585
 20
-8.7077229922
 10
10.9576610803
 20
-8.7065861668
 10
10.9834156776
 20
-8.7059052273
 10
11.0101541504
 20
-8.7056801736
  0
LWPOLYLINE
  5
4B8
100
AcDbEntity
  8
0
100
AcDbPolyline
 62
7
  6
CONTINUOUS
 90
8
 70
0
 10
15.4845621853
 20
9.4393168027
 10
15.4896076649
 20
9.4526157712
 10
15.4943589316
 20
9.4666767608
 10
15.498737588
 20
9.4813089632
 10
15.5030005952
 20
9.4961983465
 10
15.5071519224
 20
9.5111877847
 10
15.5109134325
 20
9.5262641588
 10
15.5141651337
 20
9.5413471805
  0
LINE
  5
4B9
100
AcDbEntity
  8
0
100
AcDbLine
 62
7
  6
CONTINUOUS
 10
15.4749939294
 20
9.415295045
 11
15.4845621853
 21
9.4393168027
  0
LWPOLYLINE
  5
4BA
100
AcDbEntity
  8
0
100
AcDbPolyline
 62
7
  6
CONTINUOUS
 90
10
 70
0
 10
15.4749939294
 20
9.415295045
 10
15.473032462
 20
9.4113952412
 10
15.4708396496
 20
9.4076443164
 10
15.4684125651
 20
9.4040538628
 10
15.4657403085
 20
9.4006287952
 10
15.4628290026
 20
9.3973867242
 10
15.4597031325
 20
9.3943557705
 10
15.4563716483
 20
9.3915494853
 10
15.4528266642
 20
9.3889689311
 10
15.449069357
 20
9.3866205834
  0
LWPOLYLINE
  5
4BB
100
AcDbEntity
  8
IMPORT_IGES
100
AcDbPolyline
 62
7
  6
CONTINUOUS
 90
33
 70
0
 10
11.184132658
 20
-4.5208715915
 10
11.202091081
 20
-4.4926664181
 10
11.221075216
 20
-4.4673101683
 10
11.2410850631
 20
-4.444802842
 10
11.2621425427
 20
-4.4251952866
 10
11.2842257343
 20
-4.4084366547
 10
11.3072688766
 20
-4.3943744046
 10
11.3313296272
 20
-4.3830631571
 10
11.3563503285
 20
-4.3744482913
 10
11.3820922462
 20
-4.3682134031
 10
11.4087336174
 20
-4.3642026496
 10
11.436096205
 20
-4.3625718735
 10
11.4634065639
 20
-4.3634721985
 10
11.4906884192
 20
-4.3669925388
 10
11.5179180458
 20
-4.37304398
 10
11.5442508233
 20
-4.3815109034
 10
11.5696682699
 20
-4.3924307266
 10
11.5941888675
 20
-4.4057660318
 10
11.617023441
 20
-4.4212889469
 10
11.6380498494
 20
-4.4390882948
 10
11.6573902338
 20
-4.4590752526
 10
11.6746218425
 20
-4.4807554788
 10
11.6897278236
 20
-4.5041341947
 10
11.702725029
 20
-4.5292061791
 10
11.7132412621
 20
-4.5554614266
 10
11.7212835001
 20
-4.583033194
 10
11.726844766
 20
-4.6117882244
 10
11.7295319316
 20
-4.6408167423
 10
11.7294561838
 20
-4.6699762833
 10
11.7265063358
 20
-4.6994093117
 10
11.7199556991
 20
-4.7286334454
 10
11.7096155863
 20
-4.7578100401
 10
11.6956746847
 20
-4.78677774
  0
LWPOLYLINE
  5
4BC
100
AcDbEntity
  8
0
100
AcDbPolyline
 62
253
  6
CONTINUOUS
 90
10
 70
0
 10
15.7903285716
 20
8.55
 10
15.7860436841
 20
8.5433330111
 10
15.7813567003
 20
8.5368915235
 10
15.7762696919
 20
8.530678238
 10
15.7707502389
 20
8.5246549163
 10
15.7648344076
 20
8.5188649326
 10
15.7586281468
 20
8.5134307806
 10
15.7521691995
 20
8.5083917845
 10
15.7454257018
 20
8.5037065967
 10
15.7384001476
 20
8.4993739973
  0
LINE
  5
4BD
100
AcDbEntity
  8
IMPORT_IGES
100
AcDbLine
 62
7
  6
CONTINUOUS
 10
-8.9440585504
 20
-28.8801051454
 11
-9.1118839641
 21
-29.0897910397
  0
LINE
  5
4BE
100
AcDbEntity
  8
IMPORT_IGES
100
AcDbLine
 62
7
  6
CONTINUOUS
 10
11.3401403651
 20
-5.6692295789
 11
11.7183737457
 21
-5.2909971297
  0
LINE
  5
4BF
100
AcDbEntity
  8
IMPORT_IGES
100
AcDbLine
 62
7
  6
CONTINUOUS
 10
8.9101176709
 20
-8.0992513418
 11
9.9093699828
 21
-7.1000018239
  0
LINE
  5
4C0
100
AcDbEntity
  8
IMPORT_IGES
100
AcDbLine
 62
7
  6
CONTINUOUS
 10
8.8509637862
 20
-8.1584052264
 11
7.0255240425
 21
-9.9838459015
  0
LINE
  5
4C1
100
AcDbEntity
  8
IMPORT_IGES
100
AcDbLine
 62
7
  6
CONTINUOUS
 10
9.9999997765
 20
-7.0093692362
 11
11.1214946955
 21
-5.8878743171
  0
LINE
  5
4C2
100
AcDbEntity
  8
IMPORT_IGES
100
AcDbLine
 62
7
  6
CONTINUOUS
 10
11.7824599147
 20
-5.2269109606
 11
12.8838447854
 21
-4.1255251586
  0
LINE
  5
4C3
100
AcDbEntity
  8
IMPORT_IGES
100
AcDbLine
 62
7
  6
CONTINUOUS
 10
11.1855808646
 20
-5.8237881481
 11
11.2696411088
 21
-5.7397269726
  0
LINE
  5
4C4
100
AcDbEntity
  8
IMPORT_IGES
100
AcDbLine
 62
7
  6
CONTINUOUS
 10
-7.0559414496
 20
-17.9919710042
 11
-6.8881160359
 21
-17.8660571924
  0
LWPOLYLINE
  5
4C5
100
AcDbEntity
  8
0
100
AcDbPolyline
 62
7
  6
CONTINUOUS
 90
8
 70
0
 10
-15.5124520358
 20
9.3910101647
 10
-15.5264920201
 20
9.3887301939
 10
-15.5410448276
 20
9.3858144168
 10
-15.5559060149
 20
9.3822903433
 10
-15.5709321026
 20
9.3785375241
 10
-15.5859890006
 20
9.3746379599
 10
-15.6009262786
 20
9.3703573361
 10
-15.6156144091
 20
9.3656318811
  0
LINE
  5
4C6
100
AcDbEntity
  8
0
100
AcDbLine
 62
7
  6
CONTINUOUS
 10
-15.4868644554
 20
9.3947346908
 11
-15.5124520358
 21
9.3910101647
  0
LWPOLYLINE
  5
4C7
100
AcDbEntity
  8
0
100
AcDbPolyline
 62
7
  6
CONTINUOUS
 90
10
 70
0
 10
12.5131355446
 20
9.3947346908
 10
12.5174936075
 20
9.3949859122
 10
12.5218384098
 20
9.3949623432
 10
12.5261613761
 20
9.3946556532
 10
12.5304637
 20
9.394053945
 10
12.5347270687
 20
9.3931537156
 10
12.5389148867
 20
9.3919621095
 10
12.543010943
 20
9.3904801022
 10
12.5470182606
 20
9.388700333
 10
12.550930643
 20
9.3866205834
  0
LWPOLYLINE
  5
4C8
100
AcDbEntity
  8
0
100
AcDbPolyline
 62
7
  6
CONTINUOUS
 90
10
 70
0
 10
-15.4868644554
 20
9.3947346908
 10
-15.4825063925
 20
9.3949859122
 10
-15.4781615902
 20
9.3949623432
 10
-15.4738386239
 20
9.3946556532
 10
-15.4695363
 20
9.394053945
 10
-15.4652729313
 20
9.3931537156
 10
-15.4610851133
 20
9.3919621095
 10
-15.456989057
 20
9.3904801022
 10
-15.4529817394
 20
9.388700333
 10
-15.449069357
 20
9.3866205834
  0
LINE
  5
4C9
100
AcDbEntity
  8
0
100
AcDbLine
 62
253
  6
CONTINUOUS
 10
-12.1913993252
 20
8.6165498567
 11
-12.2910855815
 21
8.6128817689
  0
LWPOLYLINE
  5
4CA
100
AcDbEntity
  8
0
100
AcDbPolyline
 62
253
  6
CONTINUOUS
 90
13
 70
0
 10
13.0869565217
 20
8.9014305987
 10
13.1010987485
 20
8.9014735303
 10
13.1152190258
 20
8.9014148316
 10
13.1290339203
 20
8.9012556782
 10
13.1422661244
 20
8.9009992619
 10
13.1546500037
 20
8.9006507277
 10
13.1659369347
 20
8.9002170709
 10
13.1759003284
 20
8.8997069949
 10
13.1843401502
 20
8.8991307377
 10
13.191086934
 20
8.8984998675
 10
13.1960052205
 20
8.8978270488
 10
13.1989962642
 20
8.8971257875
 10
13.2
 20
8.8964101612
  0
LWPOLYLINE
  5
4CB
100
AcDbEntity
  8
0
100
AcDbPolyline
 62
253
  6
CONTINUOUS
 90
13
 70
0
 10
-14.9130434783
 20
8.9014305987
 10
-14.8989012515
 20
8.9014735303
 10
-14.8847809742
 20
8.9014148316
 10
-14.8709660797
 20
8.9012556782
 10
-14.8577338756
 20
8.9009992619
 10
-14.8453499963
 20
8.9006507277
 10
-14.8340630653
 20
8.9002170709
 10
-14.8240996716
 20
8.8997069949
 10
-14.8156598498
 20
8.8991307377
 10
-14.808913066
 20
8.8984998675
 10
-14.8039947795
 20
8.8978270488
 10
-14.8010037358
 20
8.8971257875
 10
-14.8
 20
8.8964101612
  0
LINE
  5
4CC
100
AcDbEntity
  8
IMPORT_IGES
100
AcDbLine
 62
253
  6
CONTINUOUS
 10
-23.2934535196
 20
11.7293170453
 11
-21.0204343503
 21
11.7293170453
  0
LINE
  5
4CD
100
AcDbEntity
  8
IMPORT_IGES
100
AcDbLine
 62
253
  6
CONTINUOUS
 10
21.0204343503
 20
11.7293170453
 11
23.2934535196
 21
11.7293170453
  0
LINE
  5
4CE
100
AcDbEntity
  8
IMPORT_IGES
100
AcDbLine
 62
253
  6
CONTINUOUS
 10
6.7518844652
 20
10.312201209
 11
6.558601501
 21
10.7733114536
  0
LINE
  5
4CF
100
AcDbEntity
  8
IMPORT_IGES
100
AcDbLine
 62
253
  6
CONTINUOUS
 10
6.4070019462
 20
10.8682564094
 11
6.0260967205
 21
11.7928293144
  0
LWPOLYLINE
  5
4D0
100
AcDbEntity
  8
IMPORT_IGES
100
AcDbPolyline
 62
7
  6
CONTINUOUS
 90
10
 70
0
 10
11.1607490107
 20
-4.7142290592
 10
11.1580342406
 20
-4.6993506941
 10
11.1560017393
 20
-4.6844762373
 10
11.1546515067
 20
-4.6696056888
 10
11.1539449876
 20
-4.6547146057
 10
11.1539207372
 20
-4.6398274308
 10
11.1546944219
 20
-4.6250174936
 10
11.1563045969
 20
-4.610309237
 10
11.1587127069
 20
-4.5956782181
 10
11.1619187519
 20
-4.5811244368
  0
LWPOLYLINE
  5
4D1
100
AcDbEntity
  8
IMPORT_IGES
100
AcDbPolyline
 62
253
  6
CONTINUOUS
 90
22
 70
0
 10
8.2810830945
 20
47.628700535
 10
8.2696127374
 20
47.7619272555
 10
8.2512757958
 20
47.8935447537
 10
8.2260722698
 20
48.0235530297
 10
8.1938822788
 20
48.1522994459
 10
8.1548257035
 20
48.27943664
 10
8.1092621854
 20
48.4039225244
 10
8.0571476194
 20
48.5257273139
 10
7.9985261106
 20
48.6448807939
 10
7.9338896157
 20
48.7604302326
 10
7.8631959241
 20
48.8723492079
 10
7.7864872463
 20
48.9806641419
 10
7.7043821703
 20
49.0845015702
 10
7.6168417597
 20
49.1838304472
 10
7.5239049508
 20
49.2786818184
 10
7.4263071401
 20
49.3682753566
 10
7.3240133488
 20
49.4525753374
 10
7.2170585557
 20
49.5316174851
 10
7.1062830931
 20
49.6047286452
 10
6.9919670719
 20
49.6716844329
 10
6.8738303812
 20
49.732709233
 10
6.751873021
 20
49.7878030455
  0
LWPOLYLINE
  5
4D2
100
AcDbEntity
  8
0
100
AcDbPolyline
 62
253
  6
CONTINUOUS
 90
13
 70
0
 10
13.0869565217
 20
8.9014305987
 10
13.0865500244
 20
8.9103292336
 10
13.0854127024
 20
8.9190304452
 10
13.0835373766
 20
8.9275462104
 10
13.080881883
 20
8.9359578473
 10
13.0774753155
 20
8.9442026458
 10
13.0734121331
 20
8.952068669
 10
13.0686585966
 20
8.9595296872
 10
13.0632241225
 20
8.966606883
 10
13.0572606672
 20
8.973148027
 10
13.0508093971
 20
8.9790930819
 10
13.0438035186
 20
8.9844779357
 10
13.0362318841
 20
8.9892882483
  0
LWPOLYLINE
  5
4D3
100
AcDbEntity
  8
0
100
AcDbPolyline
 62
253
  6
CONTINUOUS
 90
10
 70
0
 10
15.8086006748
 20
8.6165498567
 10
15.8086440659
 20
8.6094515737
 10
15.8081807309
 20
8.6022498916
 10
15.8072094055
 20
8.5949507279
 10
15.8057409134
 20
8.5875402061
 10
15.8037617523
 20
8.5800444468
 10
15.8012349158
 20
8.5725298278
 10
15.7981480779
 20
8.5650230421
 10
15.7945127765
 20
8.5575108396
 10
15.7903285716
 20
8.55
  0
LWPOLYLINE
  5
4D4
100
AcDbEntity
  8
0
100
AcDbPolyline
 62
7
  6
CONTINUOUS
 90
8
 70
0
 10
13.1030928223
 20
10.0952142235
 10
13.1031595443
 20
10.0816967191
 10
13.1035222403
 20
10.0682866677
 10
13.1041688792
 20
10.0551504092
 10
13.1049159697
 20
10.0424954734
 10
13.1057691503
 20
10.030514104
 10
13.1069055207
 20
10.0193708168
 10
13.1084079401
 20
10.0092485071
  0
LINE
  5
4D5
100
AcDbEntity
  8
IMPORT_IGES
100
AcDbLine
 62
7
  6
CONTINUOUS
 10
12.5979995355
 20
-12.932275337
 11
12.5979995355
 21
-11.9322770357
  0
LINE
  5
4D6
100
AcDbEntity
  8
0
100
AcDbLine
 62
7
  6
CONTINUOUS
 10
13.2
 20
8.8964101615
 11
13.2
 21
7.0909598214
  0
LINE
  5
4D7
100
AcDbEntity
  8
0
100
AcDbLine
 62
7
  6
CONTINUOUS
 10
14.0
 20
7.5107695155
 11
14.0
 21
6.8767588333
  0
LINE
  5
4D8
100
AcDbEntity
  8
0
100
AcDbLine
 62
253
  6
CONTINUOUS
 10
14.1014492754
 20
7.4957082041
 11
14.1014492754
 21
6.7430209385
  0
LINE
  5
4D9
100
AcDbEntity
  8
0
100
AcDbLine
 62
253
  6
CONTINUOUS
 10
13.0869565217
 20
6.9873686004
 11
13.0869361757
 21
8.3112529896
  0
LWPOLYLINE
  5
4DA
100
AcDbEntity
  8
0
100
AcDbPolyline
 62
253
  6
CONTINUOUS
 90
3
 70
0
 10
13.0869361757
 20
8.3112529896
 10
13.087040616
 20
8.8247772138
 10
13.0869565217
 20
8.9014305987
  0
LINE
  5
4DB
100
AcDbEntity
  8
0
100
AcDbLine
 62
7
  6
CONTINUOUS
 10
13.1032432503
 20
10.1220345468
 11
13.1030928223
 21
10.0952142235
  0
LWPOLYLINE
  5
4DC
100
AcDbEntity
  8
0
100
AcDbPolyline
 62
7
  6
CONTINUOUS
 90
10
 70
0
 10
13.2
 20
7.0909598214
 10
13.1997202355
 20
7.0847267046
 10
13.1990063673
 20
7.0788542376
 10
13.1978516237
 20
7.0733426319
 10
13.1962236265
 20
7.068180112
 10
13.1941426009
 20
7.0633802469
 10
13.1916814134
 20
7.058981066
 10
13.1888613417
 20
7.054995614
 10
13.1856520353
 20
7.0514128555
 10
13.1820497524
 20
7.0482343728
  0
LWPOLYLINE
  5
4DD
100
AcDbEntity
  8
IMPORT_IGES
100
AcDbPolyline
 62
7
  6
CONTINUOUS
 90
5
 70
0
 10
11.6956746847
 20
-4.78677774
 10
11.6779723686
 20
-4.814570096
 10
11.6564550958
 20
-4.8408649582
 10
11.6311764084
 20
-4.8659844765
 10
11.6021363065
 20
-4.8899286508
  0
LINE
  5
4DE
100
AcDbEntity
  8
IMPORT_IGES
100
AcDbLine
 62
7
  6
CONTINUOUS
 10
-4.9440585504
 20
-28.8801051454
 11
-5.1118839641
 21
-29.0897910397
  0
LINE
  5
4DF
100
AcDbEntity
  8
IMPORT_IGES
100
AcDbLine
 62
7
  6
CONTINUOUS
 10
11.2522616982
 20
-5.9383706271
 11
10.0906295702
 21
-7.1000018239
  0
LINE
  5
4E0
100
AcDbEntity
  8
IMPORT_IGES
100
AcDbLine
 62
7
  6
CONTINUOUS
 10
12.9744764417
 20
-4.216154021
 11
11.890521273
 21
-5.3001091897
  0
LINE
  5
4E1
100
AcDbEntity
  8
IMPORT_IGES
100
AcDbLine
 62
7
  6
CONTINUOUS
 10
9.9999997765
 20
-7.1906306862
 11
8.9247003198
 21
-8.2659320056
  0
LINE
  5
4E2
100
AcDbEntity
  8
IMPORT_IGES
100
AcDbLine
 62
7
  6
CONTINUOUS
 10
7.1161547676
 20
-10.0744784891
 11
8.8655464351
 21
-8.3250858903
  0
LINE
  5
4E3
100
AcDbEntity
  8
IMPORT_IGES
100
AcDbLine
 62
7
  6
CONTINUOUS
 10
11.826435104
 20
-5.3641953587
 11
11.322866194
 21
-5.8677652001
  0
LINE
  5
4E4
100
AcDbEntity
  8
IMPORT_IGES
100
AcDbLine
 62
7
  6
CONTINUOUS
 10
-3.0559414496
 20
-17.9919710042
 11
-2.8881160359
 21
-17.8660571924
  0
LINE
  5
4E5
100
AcDbEntity
  8
IMPORT_IGES
100
AcDbLine
 62
7
  6
CONTINUOUS
 10
0.9440585504
 20
-17.9919710042
 11
1.1118839641
 21
-17.8660571924
  0
LINE
  5
4E6
100
AcDbEntity
  8
IMPORT_IGES
100
AcDbLine
 62
253
  6
CONTINUOUS
 10
-8.2810939589
 20
12.4715220417
 11
-7.781969096
 21
12.5007681197
  0
LINE
  5
4E7
100
AcDbEntity
  8
IMPORT_IGES
100
AcDbLine
 62
253
  6
CONTINUOUS
 10
-7.6417266994
 20
12.6010296827
 11
-6.6434590971
 21
12.659215951
  0
LINE
  5
4E8
100
AcDbEntity
  8
IMPORT_IGES
100
AcDbLine
 62
253
  6
CONTINUOUS
 10
6.6434590971
 20
12.659215951
 11
7.6417266994
 21
12.6010296827
  0
LINE
  5
4E9
100
AcDbEntity
  8
IMPORT_IGES
100
AcDbLine
 62
253
  6
CONTINUOUS
 10
7.781969096
 20
12.5007681197
 11
8.2810939589
 21
12.4715220417
  0
LWPOLYLINE
  5
4EA
100
AcDbEntity
  8
0
100
AcDbPolyline
 62
253
  6
CONTINUOUS
 90
13
 70
0
 10
14.7608695652
 20
9.1650035476
 10
14.7687804004
 20
9.1609060003
 10
14.7768851739
 20
9.1575401635
 10
14.7851978478
 20
9.1549062818
 10
14.7938096091
 20
9.1530002777
 10
14.802651917
 20
9.1518282815
 10
14.8114949519
 20
9.1514143015
 10
14.8203334255
 20
9.1518005997
 10
14.8291804242
 20
9.1529684668
 10
14.8378274264
 20
9.1548624148
 10
14.8462016152
 20
9.1574768205
 10
14.8543677021
 20
9.1608515889
 10
14.8623188406
 20
9.1650035476
  0
LINE
  5
4EB
100
AcDbEntity
  8
0
100
AcDbLine
 62
7
  6
CONTINUOUS
 10
13.1
 20
9.0696152423
 11
12.550930643
 21
9.3866205834
  0
LINE
  5
4EC
100
AcDbEntity
  8
0
100
AcDbLine
 62
7
  6
CONTINUOUS
 10
13.1364341402
 20
9.9723404124
 11
14.7
 21
9.0696152423
  0
LINE
  5
4ED
100
AcDbEntity
  8
0
100
AcDbLine
 62
253
  6
CONTINUOUS
 10
14.5976625073
 20
9.2592311865
 11
14.7319885952
 21
9.1818108811
  0
LINE
  5
4EE
100
AcDbEntity
  8
0
100
AcDbLine
 62
253
  6
CONTINUOUS
 10
13.1032432503
 20
10.1220345468
 11
14.5976625073
 21
9.2592311865
  0
LINE
  5
4EF
100
AcDbEntity
  8
0
100
AcDbLine
 62
253
  6
CONTINUOUS
 10
13.0362318841
 20
8.9892882483
 11
12.3843855909
 21
9.3656318811
  0
LINE
  5
4F0
100
AcDbEntity
  8
0
100
AcDbLine
 62
253
  6
CONTINUOUS
 10
14.7319885952
 20
9.1818108811
 11
14.7608695652
 21
9.1650035476
  0
LINE
  5
4F1
100
AcDbEntity
  8
IMPORT_IGES
100
AcDbLine
 62
253
  6
CONTINUOUS
 10
6.4070019441
 20
10.8682564085
 11
6.5586015018
 21
10.7733114539
  0
LWPOLYLINE
  5
4F2
100
AcDbEntity
  8
0
100
AcDbPolyline
 62
253
  6
CONTINUOUS
 90
13
 70
0
 10
15.7903288256
 20
8.5500000004
 10
15.7808822864
 20
8.5560075838
 10
15.7712282109
 20
8.5619379062
 10
15.7614908329
 20
8.5677146459
 10
15.7517954578
 20
8.5732634565
 10
15.74226685
 20
8.5785129246
 10
15.7330276275
 20
8.583395488
 10
15.7241966837
 20
8.5878483057
 10
15.7158876577
 20
8.5918140664
 10
15.7082074718
 20
8.5952417261
 10
15.7012549555
 20
8.5980871654
 10
15.6951195739
 20
8.6003137566
 10
15.6898802761
 20
8.6018928359
  0
LWPOLYLINE
  5
4F3
100
AcDbEntity
  8
0
100
AcDbPolyline
 62
7
  6
CONTINUOUS
 90
10
 70
0
 10
13.1364341402
 20
9.9723404124
 10
13.1311759849
 20
9.9756992539
 10
13.1264472134
 20
9.9792537154
 10
13.1222513947
 20
9.9830095556
 10
13.1185945199
 20
9.9870007024
 10
13.1154782276
 20
9.9912028561
 10
13.1128990188
 20
9.9955338974
 10
13.1108575521
 20
9.9999688771
 10
13.1093594455
 20
10.0045395972
 10
13.1084079401
 20
10.0092485071
  0
LINE
  5
4F4
100
AcDbEntity
  8
IMPORT_IGES
100
AcDbLine
 62
253
  6
CONTINUOUS
 10
7.7819690965
 20
12.5007681298
 11
7.6417266994
 21
12.6010296828
  0
LWPOLYLINE
  5
4F5
100
AcDbEntity
  8
0
100
AcDbPolyline
 62
7
  6
CONTINUOUS
 90
8
 70
0
 10
14.0278897982
 20
6.819673091
 10
14.0368842864
 20
6.808654114
 10
14.0466858169
 20
6.7975089117
 10
14.0571683446
 20
6.7864007815
 10
14.067931431
 20
6.7752642071
 10
14.0788370174
 20
6.7641743147
 10
14.0900128108
 20
6.753378538
 10
14.1014492754
 20
6.7430209385
  0
LINE
  5
4F6
100
AcDbEntity
  8
0
100
AcDbLine
 62
7
  6
CONTINUOUS
 10
14.011870526
 20
6.8399702643
 11
14.0278897982
 21
6.819673091
  0
LWPOLYLINE
  5
4F7
100
AcDbEntity
  8
0
100
AcDbPolyline
 62
7
  6
CONTINUOUS
 90
10
 70
0
 10
14.011870526
 20
6.8399702643
 10
14.0094739305
 20
6.8436188467
 10
14.0073219406
 20
6.8473933404
 10
14.0054260589
 20
6.851290484
 10
14.0037959915
 20
6.8553172599
 10
14.0024439287
 20
6.8594595603
 10
14.0013819808
 20
6.8636821201
 10
14.0006174086
 20
6.8679704126
 10
14.0001550752
 20
6.872330736
 10
14.0
 20
6.8767588333
  0
LINE
  5
4F8
100
AcDbEntity
  8
IMPORT_IGES
100
AcDbLine
 62
253
  6
CONTINUOUS
 10
-6.7518844652
 20
49.7877987911
 11
-6.558601501
 21
49.3266885465
  0
LINE
  5
4F9
100
AcDbEntity
  8
IMPORT_IGES
100
AcDbLine
 62
253
  6
CONTINUOUS
 10
-6.4070019462
 20
49.2317435907
 11
-6.0260967205
 21
48.3071706857
  0
LWPOLYLINE
  5
4FA
100
AcDbEntity
  8
IMPORT_IGES
100
AcDbPolyline
 62
7
  6
CONTINUOUS
 90
7
 70
0
 10
23.2639008271
 20
46.6447238859
 10
23.2686659357
 20
46.7092864453
 10
23.2735219422
 20
46.764808955
 10
23.2784323532
 20
46.8108675924
 10
23.2833850042
 20
46.8473210833
 10
23.2883920597
 20
46.874310702
 10
23.2934535197
 20
46.8918364483
  0
LINE
  5
4FB
100
AcDbEntity
  8
IMPORT_IGES
100
AcDbLine
 62
7
  6
CONTINUOUS
 10
-0.9440585504
 20
-28.8801051454
 11
-1.1118839641
 21
-29.0897910397
  0
LINE
  5
4FC
100
AcDbEntity
  8
IMPORT_IGES
100
AcDbLine
 62
7
  6
CONTINUOUS
 10
12.9744764417
 20
-9.9838459015
 11
12.8838447854
 21
-10.0744784891
  0
LINE
  5
4FD
100
AcDbEntity
  8
IMPORT_IGES
100
AcDbLine
 62
7
  6
CONTINUOUS
 10
4.9440585504
 20
-17.9919710042
 11
5.1118839641
 21
-17.8660571924
  0
LINE
  5
4FE
100
AcDbEntity
  8
IMPORT_IGES
100
AcDbLine
 62
7
  6
CONTINUOUS
 10
8.9440585504
 20
-17.9919710042
 11
9.1118839641
 21
-17.8660571924
  0
LINE
  5
4FF
100
AcDbEntity
  8
IMPORT_IGES
100
AcDbLine
 62
253
  6
CONTINUOUS
 10
-23.3
 20
17.05
 11
-23.1991837068
 21
17.05
  0
LINE
  5
500
100
AcDbEntity
  8
IMPORT_IGES
100
AcDbLine
 62
253
  6
CONTINUOUS
 10
23.1991837068
 20
17.05
 11
23.3
 21
17.05
  0
LWPOLYLINE
  5
501
100
AcDbEntity
  8
0
100
AcDbPolyline
 62
253
  6
CONTINUOUS
 90
13
 70
0
 10
14.152173913
 20
7.5835658538
 10
14.1450657661
 20
7.5957916629
 10
14.1380565786
 20
7.6080493219
 10
14.1312870433
 20
7.6200927945
 10
14.1248930519
 20
7.6316803279
 10
14.1190029614
 20
7.6425793139
 10
14.1137350186
 20
7.6525709572
 10
14.1091949841
 20
7.6614546722
 10
14.1054740337
 20
7.6690520637
 10
14.1026469065
 20
7.6752105413
 10
14.1007703759
 20
7.6798064409
 10
14.099882124
 20
7.6827474834
 10
14.1000000003
 20
7.6839745964
  0
LWPOLYLINE
  5
502
100
AcDbEntity
  8
0
100
AcDbPolyline
 62
253
  6
CONTINUOUS
 90
13
 70
0
 10
14.8623188406
 20
9.1650035476
 10
14.8688218887
 20
9.1535349754
 10
14.8749969273
 20
9.1421131566
 10
14.8807363441
 20
9.1309371394
 10
14.885940118
 20
9.1202016883
 10
14.8905175629
 20
9.1100938904
 10
14.8943889076
 20
9.1007898943
 10
14.897486686
 20
9.0924518409
 10
14.8997569132
 20
9.0852250376
 10
14.901160026
 20
9.0792354261
 10
14.9016715724
 20
9.0745873873
 10
14.9012826378
 20
9.0713619226
 10
14.9
 20
9.0696152423
  0
LWPOLYLINE
  5
503
100
AcDbEntity
  8
0
100
AcDbPolyline
 62
253
  6
CONTINUOUS
 90
16
 70
0
 10
15.7384001476
 20
8.4993739973
 10
15.732901885
 20
8.5092552426
 10
15.7271550546
 20
8.5190187989
 10
15.721233526
 20
8.528539161
 10
15.7152134199
 20
8.537693941
 10
15.7091721166
 20
8.5463654627
 10
15.703187261
 20
8.5544422696
 10
15.6973357826
 20
8.5618205338
 10
15.6916929096
 20
8.5684053889
 10
15.6863311879
 20
8.5741121703
 10
15.6813195429
 20
8.5788675081
 10
15.6767224109
 20
8.5826102519
 10
15.6725989094
 20
8.5852922653
 10
15.6690020531
 20
8.5868790652
 10
15.6659780778
 20
8.5873502526
 10
15.6635658598
 20
8.5866997663
  0
LINE
  5
504
100
AcDbEntity
  8
IMPORT_IGES
100
AcDbLine
 62
7
  6
CONTINUOUS
 10
23.2458565597
 20
13.8023817234
 11
23.237602113
 21
14.0260312615
  0
LINE
  5
505
100
AcDbEntity
  8
IMPORT_IGES
100
AcDbLine
 62
7
  6
CONTINUOUS
 10
23.237602113
 20
14.0260312615
 11
23.2299778453
 21
14.2802098173
  0
LINE
  5
506
100
AcDbEntity
  8
IMPORT_IGES
100
AcDbLine
 62
7
  6
CONTINUOUS
 10
23.2299778453
 20
14.2802098173
 11
23.2230670235
 21
14.5618967853
  0
LINE
  5
507
100
AcDbEntity
  8
IMPORT_IGES
100
AcDbLine
 62
7
  6
CONTINUOUS
 10
23.2230670235
 20
14.5618967853
 11
23.2169216243
 21
14.8689713567
  0
LINE
  5
508
100
AcDbEntity
  8
IMPORT_IGES
100
AcDbLine
 62
7
  6
CONTINUOUS
 10
23.2169216243
 20
14.8689713567
 11
23.2116151056
 21
15.1980600416
  0
LINE
  5
509
100
AcDbEntity
  8
IMPORT_IGES
100
AcDbLine
 62
7
  6
CONTINUOUS
 10
23.2116151056
 20
15.1980600416
 11
23.2072035373
 21
15.5453317527
  0
LINE
  5
50A
100
AcDbEntity
  8
IMPORT_IGES
100
AcDbLine
 62
7
  6
CONTINUOUS
 10
23.2072035373
 20
15.5453317527
 11
23.2037200752
 21
15.9081708123
  0
LINE
  5
50B
100
AcDbEntity
  8
IMPORT_IGES
100
AcDbLine
 62
7
  6
CONTINUOUS
 10
23.2037200752
 20
15.9081708123
 11
23.2012086638
 21
16.2825216613
  0
LINE
  5
50C
100
AcDbEntity
  8
IMPORT_IGES
100
AcDbLine
 62
7
  6
CONTINUOUS
 10
23.2012086638
 20
16.2825216613
 11
23.1996937284
 21
16.6636049819
  0
LINE
  5
50D
100
AcDbEntity
  8
IMPORT_IGES
100
AcDbLine
 62
253
  6
CONTINUOUS
 10
21.0204343503
 20
11.7293170484
 11
21.0204343503
 21
49.467194681
  0
LINE
  5
50E
100
AcDbEntity
  8
IMPORT_IGES
100
AcDbLine
 62
253
  6
CONTINUOUS
 10
23.0197490002
 20
49.8996665452
 11
23.0197490002
 21
11.7293170453
  0
LINE
  5
50F
100
AcDbEntity
  8
IMPORT_IGES
100
AcDbLine
 62
7
  6
CONTINUOUS
 10
23.1996937284
 20
16.6636049819
 11
23.199184202
 21
43.05
  0
LINE
  5
510
100
AcDbEntity
  8
IMPORT_IGES
100
AcDbLine
 62
7
  6
CONTINUOUS
 10
23.2934535196
 20
11.7293170461
 11
23.2934535196
 21
13.2081254576
  0
LINE
  5
511
100
AcDbEntity
  8
IMPORT_IGES
100
AcDbLine
 62
7
  6
CONTINUOUS
 10
23.2934535197
 20
46.8918745425
 11
23.2934535197
 21
50.1359375553
  0
LINE
  5
512
100
AcDbEntity
  8
IMPORT_IGES
100
AcDbLine
 62
7
  6
CONTINUOUS
 10
23.3
 20
13.5
 11
23.3
 21
46.5999995017
  0
LINE
  5
513
100
AcDbEntity
  8
IMPORT_IGES
100
AcDbLine
 62
7
  6
CONTINUOUS
 10
23.1991837068
 20
43.0500000032
 11
23.1996937505
 21
43.4364020161
  0
LINE
  5
514
100
AcDbEntity
  8
IMPORT_IGES
100
AcDbLine
 62
7
  6
CONTINUOUS
 10
23.1996937505
 20
43.4364020161
 11
23.2012087214
 21
43.8174893845
  0
LINE
  5
515
100
AcDbEntity
  8
IMPORT_IGES
100
AcDbLine
 62
7
  6
CONTINUOUS
 10
23.2012087214
 20
43.8174893845
 11
23.2037201756
 21
44.1918415259
  0
LINE
  5
516
100
AcDbEntity
  8
IMPORT_IGES
100
AcDbLine
 62
7
  6
CONTINUOUS
 10
23.2037201756
 20
44.1918415259
 11
23.2072036653
 21
44.5546797458
  0
LINE
  5
517
100
AcDbEntity
  8
IMPORT_IGES
100
AcDbLine
 62
7
  6
CONTINUOUS
 10
23.2072036653
 20
44.5546797458
 11
23.2116152376
 21
44.9019492089
  0
LINE
  5
518
100
AcDbEntity
  8
IMPORT_IGES
100
AcDbLine
 62
7
  6
CONTINUOUS
 10
23.2116152376
 20
44.9019492089
 11
23.2169217333
 21
45.2310347002
  0
LINE
  5
519
100
AcDbEntity
  8
IMPORT_IGES
100
AcDbLine
 62
7
  6
CONTINUOUS
 10
23.2169217333
 20
45.2310347002
 11
23.2230670814
 21
45.5381058483
  0
LWPOLYLINE
  5
51A
100
AcDbEntity
  8
IMPORT_IGES
100
AcDbPolyline
 62
253
  6
CONTINUOUS
 90
13
 70
0
 10
20.9086711743
 20
0.0500021342
 10
20.816793314
 20
-4.1069025315
 10
20.6965321766
 20
-8.262696486
 10
20.5478877621
 20
-12.4173797293
 10
20.3708504731
 20
-16.5711465447
 10
20.1654299069
 20
-20.7238026489
 10
19.931654856
 20
-24.8747651919
 10
19.6695213123
 20
-29.0240339552
 10
19.3790332837
 20
-33.1716091574
 10
19.0602315872
 20
-37.3169086035
 10
18.7131298283
 20
-41.4597382287
 10
18.3377144014
 20
-45.6002920978
 10
17.9339853066
 20
-49.738570211
  0
LINE
  5
51B
100
AcDbEntity
  8
IMPORT_IGES
100
AcDbLine
 62
7
  6
CONTINUOUS
 10
23.2230670814
 20
45.5381058483
 11
23.2299778325
 21
45.8197897303
  0
LINE
  5
51C
100
AcDbEntity
  8
IMPORT_IGES
100
AcDbLine
 62
7
  6
CONTINUOUS
 10
23.2299778325
 20
45.8197897303
 11
23.2376020168
 21
46.0739658438
  0
LWPOLYLINE
  5
51D
100
AcDbEntity
  8
IMPORT_IGES
100
AcDbPolyline
 62
7
  6
CONTINUOUS
 90
5
 70
0
 10
23.2376020168
 20
46.0739658438
 10
23.2458563812
 20
46.297613975
 10
23.250187383
 20
46.397219732
 10
23.2546446703
 20
46.488345558
 10
23.2592272997
 20
46.5710547468
  0
LINE
  5
51E
100
AcDbEntity
  8
IMPORT_IGES
100
AcDbLine
 62
7
  6
CONTINUOUS
 10
23.2592272997
 20
46.5710547468
 11
23.2639008271
 21
46.6447238859
  0
LINE
  5
51F
100
AcDbEntity
  8
IMPORT_IGES
100
AcDbLine
 62
7
  6
CONTINUOUS
 10
3.0559414496
 20
-28.8801051454
 11
3.0
 21
-28.95
  0
LINE
  5
520
100
AcDbEntity
  8
IMPORT_IGES
100
AcDbLine
 62
7
  6
CONTINUOUS
 10
-8.9440585504
 20
-45.8801051454
 11
-9.1118839641
 21
-46.0897910397
  0
LINE
  5
521
100
AcDbEntity
  8
IMPORT_IGES
100
AcDbLine
 62
7
  6
CONTINUOUS
 10
7.0559414496
 20
-28.8801051454
 11
6.8881160359
 21
-29.0897910397
  0
LINE
  5
522
100
AcDbEntity
  8
IMPORT_IGES
100
AcDbLine
 62
7
  6
CONTINUOUS
 10
-19.8831174454
 20
-50.2943066719
 11
-20.1137801286
 21
-50.5143153557
  0
LINE
  5
523
100
AcDbEntity
  8
IMPORT_IGES
100
AcDbLine
 62
7
  6
CONTINUOUS
 10
-7.0559414496
 20
-34.9919710042
 11
-6.8881160359
 21
-34.8660571924
  0
LINE
  5
524
100
AcDbEntity
  8
IMPORT_IGES
100
AcDbLine
 62
253
  6
CONTINUOUS
 10
-23.2934535197
 20
50.1359456226
 11
-23.0197490003
 21
49.8996663735
  0
LINE
  5
525
100
AcDbEntity
  8
IMPORT_IGES
100
AcDbLine
 62
7
  6
CONTINUOUS
 10
23.2639010993
 20
13.4552721272
 11
23.2592275627
 21
13.528940854
  0
LWPOLYLINE
  5
526
100
AcDbEntity
  8
IMPORT_IGES
100
AcDbPolyline
 62
7
  6
CONTINUOUS
 90
4
 70
0
 10
23.2592275627
 20
13.528940854
 10
23.2546449115
 20
13.6116498006
 10
23.2501875959
 20
13.7027756466
 10
23.2458565597
 20
13.8023817234
  0
LWPOLYLINE
  5
527
100
AcDbEntity
  8
IMPORT_IGES
100
AcDbPolyline
 62
7
  6
CONTINUOUS
 90
22
 70
0
 10
23.2934535197
 20
50.1359375553
 10
23.289801853
 20
50.2388166339
 10
23.2794255909
 20
50.3401666487
 10
23.2623247334
 20
50.4399875997
 10
23.2383435942
 20
50.5386994974
 10
23.2076378596
 20
50.6358823312
 10
23.1706745882
 20
50.7302760703
 10
23.1273835682
 20
50.8218429905
 10
23.0778350113
 20
50.9106208159
 10
23.022706612
 20
50.9954626877
 10
22.9619350853
 20
51.0763215773
 10
22.8955837161
 20
51.1532445133
 10
22.8245200539
 20
51.2252257221
 10
22.7486882911
 20
51.2922095065
 10
22.6681442354
 20
51.3542515637
 10
22.583922859
 20
51.4105132118
 10
22.4959766792
 20
51.460930501
 10
22.4043531787
 20
51.5055673812
 10
22.3102297778
 20
51.5437770199
 10
22.2139989497
 20
51.5753438065
 10
22.1152682212
 20
51.6004833517
 10
22.0140375922
 20
51.6191956555
  0
LWPOLYLINE
  5
528
100
AcDbEntity
  8
IMPORT_IGES
100
AcDbPolyline
 62
253
  6
CONTINUOUS
 90
13
 70
0
 10
19.883654914
 20
-50.2943431653
 10
20.2943343752
 20
-46.1120770129
 10
20.6762124907
 20
-41.9270841004
 10
21.029271099
 20
-37.7395627676
 10
21.3534933116
 20
-33.5497115044
 10
21.6488637931
 20
-29.3577288563
 10
21.9153687602
 20
-25.1638134079
 10
22.1529954681
 20
-20.968164854
 10
22.3617326527
 20
-16.7709811103
 10
22.5415707433
 20
-12.572458205
 10
22.6925012147
 20
-8.3727941511
 10
22.8145166538
 20
-4.1721889466
 10
22.9076111538
 20
0.029158327
  0
LINE
  5
529
100
AcDbEntity
  8
IMPORT_IGES
100
AcDbLine
 62
7
  6
CONTINUOUS
 10
-4.9440585504
 20
-45.8801051454
 11
-5.1118839641
 21
-46.0897910397
  0
LINE
  5
52A
100
AcDbEntity
  8
IMPORT_IGES
100
AcDbLine
 62
7
  6
CONTINUOUS
 10
-18.842995992
 20
-51.8445807441
 11
-18.6108899323
 21
-51.6252132855
  0
LINE
  5
52B
100
AcDbEntity
  8
IMPORT_IGES
100
AcDbLine
 62
7
  6
CONTINUOUS
 10
-3.0559414496
 20
-34.9919710042
 11
-2.8881160359
 21
-34.8660571924
  0
LINE
  5
52C
100
AcDbEntity
  8
IMPORT_IGES
100
AcDbLine
 62
7
  6
CONTINUOUS
 10
-21.7379766611
 20
51.3832995878
 11
-22.0140331345
 21
51.619158295
  0
LWPOLYLINE
  5
52D
100
AcDbEntity
  8
IMPORT_IGES
100
AcDbPolyline
 62
7
  6
CONTINUOUS
 90
7
 70
0
 10
23.2934535196
 20
13.2081635521
 10
23.2883921505
 20
13.225688729
 10
23.2833851676
 20
13.2526777401
 10
23.2784325711
 20
13.2891305855
 10
23.2735221945
 20
13.33518847
 10
23.2686662042
 20
13.3907101888
 10
23.2639010993
 20
13.4552721272
  0
LWPOLYLINE
  5
52E
100
AcDbEntity
  8
IMPORT_IGES
100
AcDbPolyline
 62
253
  6
CONTINUOUS
 90
12
 70
0
 10
19.8705127321
 20
-50.3879801535
 10
19.8520354776
 20
-50.4806677799
 10
19.82776606
 20
-50.5719843312
 10
19.7978056681
 20
-50.6615711208
 10
19.762278063
 20
-50.7490720065
 10
19.7213302203
 20
-50.8341352561
 10
19.6751301328
 20
-50.9164265317
 10
19.6238662208
 20
-50.9956233277
 10
19.5677487097
 20
-51.0714099687
 10
19.5070213847
 20
-51.1434721271
 10
19.4419160333
 20
-51.2115512635
 10
19.372642972
 20
-51.2754297582
  0
LINE
  5
52F
100
AcDbEntity
  8
IMPORT_IGES
100
AcDbLine
 62
7
  6
CONTINUOUS
 10
-0.9440585504
 20
-45.8801051454
 11
-1.1118839641
 21
-46.0897910397
  0
LINE
  5
530
100
AcDbEntity
  8
IMPORT_IGES
100
AcDbLine
 62
7
  6
CONTINUOUS
 10
3.0559414496
 20
-45.8801051454
 11
2.8881160359
 21
-46.0897910397
  0
LINE
  5
531
100
AcDbEntity
  8
IMPORT_IGES
100
AcDbLine
 62
7
  6
CONTINUOUS
 10
0.9440585504
 20
-34.9919710042
 11
1.1118839641
 21
-34.8660571924
  0
LINE
  5
532
100
AcDbEntity
  8
IMPORT_IGES
100
AcDbLine
 62
7
  6
CONTINUOUS
 10
4.9440585504
 20
-34.9919710042
 11
5.1118839641
 21
-34.8660571924
  0
LINE
  5
533
100
AcDbEntity
  8
IMPORT_IGES
100
AcDbLine
 62
7
  6
CONTINUOUS
 10
7.0559414496
 20
-45.8801051454
 11
6.8881160359
 21
-46.0897910397
  0
LINE
  5
534
100
AcDbEntity
  8
IMPORT_IGES
100
AcDbLine
 62
7
  6
CONTINUOUS
 10
8.9440585504
 20
-34.9919710042
 11
9.1118839641
 21
-34.8660571924
  0
LINE
  5
535
100
AcDbEntity
  8
IMPORT_IGES
100
AcDbLine
 62
253
  6
CONTINUOUS
 10
-7.7819690965
 20
47.5992318702
 11
-7.6417266994
 21
47.4989703173
  0
LINE
  5
536
100
AcDbEntity
  8
IMPORT_IGES
100
AcDbLine
 62
253
  6
CONTINUOUS
 10
-6.4070019441
 20
49.2317435916
 11
-6.5586015018
 21
49.3266885462
  0
LINE
  5
537
100
AcDbEntity
  8
IMPORT_IGES
100
AcDbLine
 62
253
  6
CONTINUOUS
 10
-17.9338094141
 20
-49.7385160654
 11
-18.162297214
 21
-49.8075063718
  0
LINE
  5
538
100
AcDbEntity
  8
IMPORT_IGES
100
AcDbLine
 62
253
  6
CONTINUOUS
 10
-18.162297214
 20
-49.8075063718
 11
-18.7077164341
 21
-49.9695592925
  0
LINE
  5
539
100
AcDbEntity
  8
IMPORT_IGES
100
AcDbLine
 62
253
  6
CONTINUOUS
 10
-18.7077164341
 20
-49.9695592925
 11
-18.9983785511
 21
-50.0547161392
  0
LWPOLYLINE
  5
53A
100
AcDbEntity
  8
IMPORT_IGES
100
AcDbPolyline
 62
253
  6
CONTINUOUS
 90
3
 70
0
 10
-18.9983785511
 20
-50.0547161392
 10
-19.2548218446
 20
-50.128675
 10
-19.3340486366
 20
-50.1513181951
  0
LINE
  5
53B
100
AcDbEntity
  8
IMPORT_IGES
100
AcDbLine
 62
253
  6
CONTINUOUS
 10
23.3
 20
43.05
 11
23.1991837068
 21
43.05
  0
LINE
  5
53C
100
AcDbEntity
  8
IMPORT_IGES
100
AcDbLine
 62
253
  6
CONTINUOUS
 10
-23.1991837068
 20
43.05
 11
-23.3
 21
43.05
  0
LINE
  5
53D
100
AcDbEntity
  8
IMPORT_IGES
100
AcDbLine
 62
253
  6
CONTINUOUS
 10
23.0132663789
 20
49.8981597062
 11
23.0197490002
 21
49.8996665452
  0
LINE
  5
53E
100
AcDbEntity
  8
IMPORT_IGES
100
AcDbLine
 62
253
  6
CONTINUOUS
 10
21.0204343503
 20
49.4671822427
 11
22.3025721286
 21
49.7446684079
  0
LINE
  5
53F
100
AcDbEntity
  8
IMPORT_IGES
100
AcDbLine
 62
253
  6
CONTINUOUS
 10
22.3025721286
 20
49.7446684079
 11
23.0132663789
 21
49.8981597062
  0
LINE
  5
540
100
AcDbEntity
  8
IMPORT_IGES
100
AcDbLine
 62
253
  6
CONTINUOUS
 10
7.6417266994
 20
47.4989703174
 11
6.6434590971
 21
47.440784049
  0
LINE
  5
541
100
AcDbEntity
  8
IMPORT_IGES
100
AcDbLine
 62
253
  6
CONTINUOUS
 10
-6.6434590971
 20
47.440784049
 11
-7.6417266994
 21
47.4989703174
  0
LINE
  5
542
100
AcDbEntity
  8
IMPORT_IGES
100
AcDbLine
 62
253
  6
CONTINUOUS
 10
-23.0197490003
 20
49.8996663735
 11
-21.0204343503
 21
49.4671948314
  0
LWPOLYLINE
  5
543
100
AcDbEntity
  8
IMPORT_IGES
100
AcDbPolyline
 62
253
  6
CONTINUOUS
 90
16
 70
0
 10
6.0260567286
 20
48.3071846061
 10
6.0948319707
 20
48.2756491754
 10
6.1603343302
 20
48.2395999365
 10
6.2225638069
 20
48.1990368894
 10
6.2818124277
 20
48.1536871939
 10
6.3377881658
 20
48.1038236903
 10
6.3896149407
 20
48.050264899
 10
6.4372335798
 20
47.9929567343
 10
6.4807032557
 20
47.931953282
 10
6.5193254052
 20
47.8682353201
 10
6.55303047
 20
47.801759336
 10
6.5818880084
 20
47.7325688424
 10
6.6054081328
 20
47.6617751552
 10
6.6234275474
 20
47.5897487131
 10
6.6361095481
 20
47.5161190774
 10
6.6434541348
 20
47.4408862482
  0
LWPOLYLINE
  5
544
100
AcDbEntity
  8
IMPORT_IGES
100
AcDbPolyline
 62
253
  6
CONTINUOUS
 90
10
 70
0
 10
-2.5509923342
 20
50.4527920821
 10
-1.985182821
 20
50.5291473098
 10
-1.4180800056
 20
50.586336529
 10
-0.8503341161
 20
50.6243913292
 10
-0.2832304918
 20
50.6433545049
 10
0.2832304918
 20
50.6433545049
 10
0.8503341161
 20
50.6243913292
 10
1.4180800056
 20
50.586336529
 10
1.985182821
 20
50.5291473098
 10
2.5509923342
 20
50.4527920821
  0
LINE
  5
545
100
AcDbEntity
  8
IMPORT_IGES
100
AcDbLine
 62
253
  6
CONTINUOUS
 10
8.2810939589
 20
47.6284779583
 11
7.781969096
 21
47.5992318803
  0
LINE
  5
546
100
AcDbEntity
  8
IMPORT_IGES
100
AcDbLine
 62
253
  6
CONTINUOUS
 10
-7.781969096
 20
47.5992318803
 11
-8.2810939589
 21
47.6284779583
  0
LWPOLYLINE
  5
547
100
AcDbEntity
  8
IMPORT_IGES
100
AcDbPolyline
 62
253
  6
CONTINUOUS
 90
37
 70
0
 10
6.55860074
 20
49.326686713
 10
6.6126886142
 20
49.3028837169
 10
6.6664114516
 20
49.2771597539
 10
6.7197166725
 20
49.2495120087
 10
6.7726082248
 20
49.2199056535
 10
6.8249693723
 20
49.1883718317
 10
6.8765737704
 20
49.1550259638
 10
6.9273609459
 20
49.1198967745
 10
6.9772921646
 20
49.0829990294
 10
7.02619088
 20
49.0444578125
 10
7.0740131928
 20
49.0043100073
 10
7.1207160824
 20
48.9625920564
 10
7.1661419339
 20
48.9194525967
 10
7.2102212855
 20
48.874976424
 10
7.2529562873
 20
48.829178214
 10
7.294306846
 20
48.7821129153
 10
7.3342328318
 20
48.7338371185
 10
7.372706622
 20
48.6843927344
 10
7.4097060195
 20
48.6338120393
 10
7.4451850482
 20
48.5821586643
 10
7.4791194929
 20
48.5294655475
 10
7.5115124968
 20
48.4757141999
 10
7.5423483116
 20
48.4209015693
 10
7.5715560313
 20
48.365119163
 10
7.599056751
 20
48.3084908236
 10
7.6248378932
 20
48.2510125816
 10
7.648837693
 20
48.1927857444
 10
7.6709326877
 20
48.1341045662
 10
7.6910951659
 20
48.0750729407
 10
7.7093314098
 20
48.0157009863
 10
7.7256024709
 20
47.9561523882
 10
7.7399070601
 20
47.8964892464
 10
7.7522480269
 20
47.8367596467
 10
7.7626128804
 20
47.7771085425
 10
7.7710096035
 20
47.7176191371
 10
7.7774569741
 20
47.6583108798
 10
7.7819690115
 20
47.5992318403
  0
LWPOLYLINE
  5
548
100
AcDbEntity
  8
IMPORT_IGES
100
AcDbPolyline
 62
253
  6
CONTINUOUS
 90
13
 70
0
 10
19.3674988673
 20
-51.2793571555
 10
19.4356273915
 20
-51.2170884464
 10
19.4995342039
 20
-51.1510409342
 10
19.5597107868
 20
-51.0806702962
 10
19.6157304515
 20
-51.0063068416
 10
19.6672023362
 20
-50.9283407003
 10
19.7143635052
 20
-50.8461277748
 10
19.7569718197
 20
-50.7594962753
 10
19.7942325505
 20
-50.6694884546
 10
19.8255616777
 20
-50.5773079143
 10
19.850734794
 20
-50.4837835263
 10
19.8697419901
 20
-50.3893245129
 10
19.8825766665
 20
-50.2945533176
  0
LINE
  5
549
100
AcDbEntity
  8
IMPORT_IGES
100
AcDbLine
 62
253
  6
CONTINUOUS
 10
19.2954382213
 20
-51.3374917574
 11
19.372642972
 21
-51.2754297582
  0
LINE
  5
54A
100
AcDbEntity
  8
IMPORT_IGES
100
AcDbLine
 62
253
  6
CONTINUOUS
 10
19.2199008271
 20
-51.3910911253
 11
19.2994512441
 21
-51.3348658807
  0
LINE
  5
54B
100
AcDbEntity
  8
IMPORT_IGES
100
AcDbLine
 62
253
  6
CONTINUOUS
 10
19.1404517855
 20
-51.4403697179
 11
19.2226448807
 21
-51.3896035501
  0
LINE
  5
54C
100
AcDbEntity
  8
IMPORT_IGES
100
AcDbLine
 62
253
  6
CONTINUOUS
 10
19.057020173
 20
-51.4851422822
 11
19.1425315736
 21
-51.4394212517
  0
LINE
  5
54D
100
AcDbEntity
  8
IMPORT_IGES
100
AcDbLine
 62
253
  6
CONTINUOUS
 10
18.9705305264
 20
-51.5247316948
 11
19.059425181
 21
-51.4841182818
  0
LINE
  5
54E
100
AcDbEntity
  8
IMPORT_IGES
100
AcDbLine
 62
253
  6
CONTINUOUS
 10
18.8820535515
 20
-51.5586385403
 11
18.9736529042
 21
-51.5235134005
  0
LINE
  5
54F
100
AcDbEntity
  8
IMPORT_IGES
100
AcDbLine
 62
253
  6
CONTINUOUS
 10
18.7923375645
 20
-51.5866862761
 11
18.8855619809
 21
-51.557446394
  0
LWPOLYLINE
  5
550
100
AcDbEntity
  8
IMPORT_IGES
100
AcDbPolyline
 62
7
  6
CONTINUOUS
 90
22
 70
0
 10
-22.014026675
 20
51.6191975176
 10
-22.1152593336
 20
51.6004852052
 10
-22.2139916218
 20
51.575345773
 10
-22.3102235394
 20
51.5437792209
 10
-22.4043473927
 20
51.505569983
 10
-22.4959708755
 20
51.4609336252
 10
-22.583917069
 20
51.4105168453
 10
-22.6681386587
 20
51.3542556505
 10
-22.7486829592
 20
51.2922140336
 10
-22.8245149949
 20
51.2252306706
 10
-22.8955789586
 20
51.153249864
 10
-22.9619306577
 20
51.0763273112
 10
-23.0227025385
 20
50.9954687806
 10
-23.0778313162
 20
50.9106272435
 10
-23.1273802757
 20
50.8218497284
 10
-23.1706717176
 20
50.73028309
 10
-23.2076354302
 20
50.6358896038
 10
-23.2383416251
 20
50.5387069941
 10
-23.262323238
 20
50.4399952884
 10
-23.2794245806
 20
50.340174496
 10
-23.2898013412
 20
50.2388246076
 10
-23.2934535197
 20
50.1359456233
  0
LWPOLYLINE
  5
551
100
AcDbEntity
  8
IMPORT_IGES
100
AcDbPolyline
 62
253
  6
CONTINUOUS
 90
10
 70
0
 10
2.6260967604
 20
50.9470898171
 10
2.0427044317
 20
51.0117793593
 10
1.459016838
 20
51.0602696628
 10
0.8752081854
 20
51.0925724245
 10
0.2916606986
 20
51.10871293
 10
-0.2916606982
 20
51.10871293
 10
-0.875208185
 20
51.0925724245
 10
-1.4590168377
 20
51.0602696628
 10
-2.0427044316
 20
51.0117793593
 10
-2.6260967604
 20
50.9470898171
  0
LWPOLYLINE
  5
552
100
AcDbEntity
  8
IMPORT_IGES
100
AcDbPolyline
 62
253
  6
CONTINUOUS
 90
22
 70
0
 10
21.7379802987
 20
51.3832990441
 10
21.8381967262
 20
51.3649948443
 10
21.936333926
 20
51.3401058057
 10
22.0319760778
 20
51.3088697333
 10
22.1245110558
 20
51.2716460699
 10
22.2138088808
 20
51.2286493883
 10
22.300153286
 20
51.1798029296
 10
22.3832806128
 20
51.1252180791
 10
22.4626823121
 20
51.0651893878
 10
22.5381990562
 20
50.9997804992
 10
22.6094217629
 20
50.9292545491
 10
22.6760109542
 20
50.8538503487
 10
22.7378394164
 20
50.7735419187
 10
22.794653419
 20
50.6883612004
 10
22.8458790427
 20
50.5988387232
 10
22.8909520998
 20
50.5057438758
 10
22.9295751135
 20
50.4095728984
 10
22.9615472306
 20
50.3106873767
 10
22.9866142052
 20
50.2097470186
 10
23.0046289544
 20
50.1073017243
 10
23.0155067054
 20
50.0037745791
 10
23.0191777114
 20
49.899662563
  0
ARC
  5
553
100
AcDbEntity
  8
IMPORT_IGES
100
AcDbCircle
 62
7
  6
CONTINUOUS
 10
-9.0
 20
-45.9796690909
 40
3.0
100
AcDbArc
 50
180.0
 51
270.0
  0
ARC
  5
554
100
AcDbEntity
  8
IMPORT_IGES
100
AcDbCircle
 62
7
  6
CONTINUOUS
 10
-9.0
 20
-17.9796690909
 40
3.0
100
AcDbArc
 50
90.0
 51
180.0
  0
ARC
  5
555
100
AcDbEntity
  8
IMPORT_IGES
100
AcDbCircle
 62
7
  6
CONTINUOUS
 10
-587.4177315311
 20
11.7293170453
 40
610.7111850507
100
AcDbArc
 50
354.1502650239
 51
360.0
  0
ARC
  5
556
100
AcDbEntity
  8
IMPORT_IGES
100
AcDbCircle
 62
253
  6
CONTINUOUS
 10
-587.4177315311
 20
11.7293170453
 40
610.4374805314
100
AcDbArc
 50
358.9017535985
 51
360.0
  0
ARC
  5
557
100
AcDbEntity
  8
IMPORT_IGES
100
AcDbCircle
 62
253
  6
CONTINUOUS
 10
-587.4177315311
 20
11.7293170453
 40
608.4381658814
100
AcDbArc
 50
358.9001075352
 51
360.0
  0
CIRCLE
  5
558
100
AcDbEntity
  8
IMPORT_IGES
100
AcDbCircle
 62
253
  6
CONTINUOUS
 10
-14.0
 20
8.55
 40
3.9
  0
CIRCLE
  5
559
100
AcDbEntity
  8
IMPORT_IGES
100
AcDbCircle
 62
7
  6
CONTINUOUS
 10
-14.0
 20
8.55
 40
2.9
  0
CIRCLE
  5
55A
100
AcDbEntity
  8
0
100
AcDbCircle
 62
7
  6
CONTINUOUS
 10
-14.0
 20
8.55
 40
2.6226074497
  0
CIRCLE
  5
55B
100
AcDbEntity
  8
0
100
AcDbCircle
 62
253
  6
CONTINUOUS
 10
-14.0
 20
8.55
 40
2.6214658591
  0
CIRCLE
  5
55C
100
AcDbEntity
  8
0
100
AcDbCircle
 62
253
  6
CONTINUOUS
 10
-14.0
 20
8.55
 40
2.5325156041
  0
CIRCLE
  5
55D
100
AcDbEntity
  8
0
100
AcDbCircle
 62
253
  6
CONTINUOUS
 10
-14.0
 20
8.55
 40
2.3336716959
  0
ARC
  5
55E
100
AcDbEntity
  8
0
100
AcDbCircle
 62
253
  6
CONTINUOUS
 10
-14.0
 20
8.55
 40
1.8098246557
100
AcDbArc
 50
2.1073233327
 51
33.2133851259
  0
ARC
  5
55F
100
AcDbEntity
  8
0
100
AcDbCircle
 62
253
  6
CONTINUOUS
 10
-14.0
 20
8.55
 40
1.8098246557
100
AcDbArc
 50
239.702312008
 51
273.2133851259
  0
ARC
  5
560
100
AcDbEntity
  8
0
100
AcDbCircle
 62
253
  6
CONTINUOUS
 10
-14.0
 20
8.55
 40
1.8098246557
100
AcDbArc
 50
119.702312008
 51
153.2133851259
  0
ARC
  5
561
100
AcDbEntity
  8
IMPORT_IGES
100
AcDbCircle
 62
7
  6
CONTINUOUS
 10
-0.0005504333
 20
20.5
 40
1.8
100
AcDbArc
 50
225.7541144302
 51
226.6047426982
  0
ARC
  5
562
100
AcDbEntity
  8
IMPORT_IGES
100
AcDbCircle
 62
7
  6
CONTINUOUS
 10
-0.0005504333
 20
20.5
 40
1.8
100
AcDbArc
 50
313.4225693035
 51
314.2639516749
  0
ARC
  5
563
100
AcDbEntity
  8
0
100
AcDbCircle
 62
253
  6
CONTINUOUS
 10
-14.0
 20
8.55
 40
1.7100709361
100
AcDbArc
 50
2.1073233326
 51
30.3977241472
  0
ARC
  5
564
100
AcDbEntity
  8
0
100
AcDbCircle
 62
253
  6
CONTINUOUS
 10
-14.0
 20
8.55
 40
1.7100709361
100
AcDbArc
 50
241.4246792562
 51
270.3977241472
  0
ARC
  5
565
100
AcDbEntity
  8
0
100
AcDbCircle
 62
253
  6
CONTINUOUS
 10
-14.0
 20
8.55
 40
1.7100709361
100
AcDbArc
 50
121.4246792562
 51
150.3977241472
  0
ARC
  5
566
100
AcDbEntity
  8
IMPORT_IGES
100
AcDbCircle
 62
253
  6
CONTINUOUS
 10
-0.0005504333
 20
20.5
 40
1.300058514
100
AcDbArc
 50
303.5172511384
 51
304.9322377161
  0
ARC
  5
567
100
AcDbEntity
  8
IMPORT_IGES
100
AcDbCircle
 62
253
  6
CONTINUOUS
 10
-0.0005504333
 20
20.5
 40
1.3000506285
100
AcDbArc
 50
235.0827960486
 51
236.5084881581
  0
CIRCLE
  5
568
100
AcDbEntity
  8
0
100
AcDbCircle
 62
7
  6
CONTINUOUS
 10
-14.0
 20
8.55
 40
0.8
  0
ARC
  5
569
100
AcDbEntity
  8
0
100
AcDbCircle
 62
7
  6
CONTINUOUS
 10
-13.2
 20
9.2428203231
 40
0.2
100
AcDbArc
 50
240.0
 51
300.0
  0
ARC
  5
56A
100
AcDbEntity
  8
0
100
AcDbCircle
 62
7
  6
CONTINUOUS
 10
-15.0
 20
8.8964101615
 40
0.2
100
AcDbArc
 50
0.0
 51
60.0
  0
ARC
  5
56B
100
AcDbEntity
  8
0
100
AcDbCircle
 62
7
  6
CONTINUOUS
 10
-13.8
 20
7.5107695155
 40
0.2
100
AcDbArc
 50
120.0
 51
180.0
  0
ARC
  5
56C
100
AcDbEntity
  8
IMPORT_IGES
100
AcDbCircle
 62
7
  6
CONTINUOUS
 10
-23.1
 20
13.5
 40
0.2
100
AcDbArc
 50
180.0
 51
212.4277780234
  0
ARC
  5
56D
100
AcDbEntity
  8
IMPORT_IGES
100
AcDbCircle
 62
253
  6
CONTINUOUS
 10
-291.72
 20
30.05
 40
300.5156556053
100
AcDbArc
 50
356.6466076625
 51
3.353437958
  0
ARC
  5
56E
100
AcDbEntity
  8
IMPORT_IGES
100
AcDbCircle
 62
7
  6
CONTINUOUS
 10
-291.72
 20
30.05
 40
300.0156746438
100
AcDbArc
 50
356.6466045285
 51
3.3533954716
  0
ARC
  5
56F
100
AcDbEntity
  8
IMPORT_IGES
100
AcDbCircle
 62
253
  6
CONTINUOUS
 10
-291.72
 20
30.05
 40
299.8698217187
100
AcDbArc
 50
356.6641611733
 51
3.3358388284
  0
ARC
  5
570
100
AcDbEntity
  8
IMPORT_IGES
100
AcDbCircle
 62
253
  6
CONTINUOUS
 10
-291.72
 20
30.05
 40
298.8698597956
100
AcDbArc
 50
356.6641723342
 51
3.3358584413
  0
ARC
  5
571
100
AcDbEntity
  8
IMPORT_IGES
100
AcDbCircle
 62
7
  6
CONTINUOUS
 10
-23.1
 20
46.6
 40
0.2
100
AcDbArc
 50
147.572227394
 51
180.0
  0
ARC
  5
572
100
AcDbEntity
  8
IMPORT_IGES
100
AcDbCircle
 62
7
  6
CONTINUOUS
 10
0.0
 20
-96.75
 40
149.9934535196
100
AcDbArc
 50
81.5604042571
 51
98.4395915134
  0
ARC
  5
573
100
AcDbEntity
  8
IMPORT_IGES
100
AcDbCircle
 62
253
  6
CONTINUOUS
 10
0.0
 20
-96.75
 40
149.7197490003
100
AcDbArc
 50
81.6516544862
 51
98.3483455056
  0
ARC
  5
574
100
AcDbEntity
  8
IMPORT_IGES
100
AcDbCircle
 62
253
  6
CONTINUOUS
 10
0.0
 20
-96.75
 40
147.7204343503
100
AcDbArc
 50
81.8191126105
 51
88.9813425477
  0
ARC
  5
575
100
AcDbEntity
  8
IMPORT_IGES
100
AcDbCircle
 62
253
  6
CONTINUOUS
 10
0.0
 20
-96.75
 40
147.7204343503
100
AcDbArc
 50
91.0186574523
 51
98.1808873812
  0
ARC
  5
576
100
AcDbEntity
  8
IMPORT_IGES
100
AcDbCircle
 62
7
  6
CONTINUOUS
 10
9.0
 20
-17.9796690909
 40
3.0
100
AcDbArc
 50
0.0
 51
90.0
  0
ARC
  5
577
100
AcDbEntity
  8
IMPORT_IGES
100
AcDbCircle
 62
7
  6
CONTINUOUS
 10
9.0
 20
-45.9796690909
 40
3.0
100
AcDbArc
 50
270.0
 51
360.0
  0
ARC
  5
578
100
AcDbEntity
  8
ASSI
100
AcDbCircle
 62
7
  6
CONTINUOUS
 10
5.0
 20
-24.0
 40
0.8
100
AcDbArc
 50
90.0
 51
94.0196182478
  0
CIRCLE
  5
579
100
AcDbEntity
  8
IMPORT_IGES
100
AcDbCircle
 62
253
  6
CONTINUOUS
 10
14.0
 20
8.55
 40
3.9
  0
CIRCLE
  5
57A
100
AcDbEntity
  8
IMPORT_IGES
100
AcDbCircle
 62
7
  6
CONTINUOUS
 10
14.0
 20
8.55
 40
2.9
  0
CIRCLE
  5
57B
100
AcDbEntity
  8
0
100
AcDbCircle
 62
7
  6
CONTINUOUS
 10
14.0
 20
8.55
 40
2.6226074497
  0
CIRCLE
  5
57C
100
AcDbEntity
  8
0
100
AcDbCircle
 62
253
  6
CONTINUOUS
 10
14.0
 20
8.55
 40
2.6214658591
  0
CIRCLE
  5
57D
100
AcDbEntity
  8
0
100
AcDbCircle
 62
253
  6
CONTINUOUS
 10
14.0
 20
8.55
 40
2.5325156041
  0
CIRCLE
  5
57E
100
AcDbEntity
  8
IMPORT_IGES
100
AcDbCircle
 62
7
  6
CONTINUOUS
 10
0.0
 20
17.05
 40
2.5
  0
CIRCLE
  5
57F
100
AcDbEntity
  8
IMPORT_IGES
100
AcDbCircle
 62
7
  6
CONTINUOUS
 10
0.0
 20
17.05
 40
2.475
  0
CIRCLE
  5
580
100
AcDbEntity
  8
0
100
AcDbCircle
 62
253
  6
CONTINUOUS
 10
14.0
 20
8.55
 40
2.3336716959
  0
ARC
  5
581
100
AcDbEntity
  8
0
100
AcDbCircle
 62
253
  6
CONTINUOUS
 10
14.0
 20
8.55
 40
1.8098246557
100
AcDbArc
 50
2.1073233327
 51
33.2133851259
  0
ARC
  5
582
100
AcDbEntity
  8
0
100
AcDbCircle
 62
253
  6
CONTINUOUS
 10
14.0
 20
8.55
 40
1.8098246557
100
AcDbArc
 50
239.702312008
 51
273.2133851259
  0
ARC
  5
583
100
AcDbEntity
  8
0
100
AcDbCircle
 62
253
  6
CONTINUOUS
 10
14.0
 20
8.55
 40
1.8098246557
100
AcDbArc
 50
119.702312008
 51
153.2133851259
  0
ARC
  5
584
100
AcDbEntity
  8
0
100
AcDbCircle
 62
253
  6
CONTINUOUS
 10
14.0
 20
8.55
 40
1.7100709361
100
AcDbArc
 50
2.1073233326
 51
30.3977241472
  0
ARC
  5
585
100
AcDbEntity
  8
0
100
AcDbCircle
 62
253
  6
CONTINUOUS
 10
14.0
 20
8.55
 40
1.7100709361
100
AcDbArc
 50
241.4246792562
 51
270.3977241472
  0
ARC
  5
586
100
AcDbEntity
  8
0
100
AcDbCircle
 62
253
  6
CONTINUOUS
 10
14.0
 20
8.55
 40
1.7100709361
100
AcDbArc
 50
121.4246792562
 51
150.3977241472
  0
CIRCLE
  5
587
100
AcDbEntity
  8
0
100
AcDbCircle
 62
7
  6
CONTINUOUS
 10
14.0
 20
8.55
 40
0.8
  0
ARC
  5
588
100
AcDbEntity
  8
0
100
AcDbCircle
 62
7
  6
CONTINUOUS
 10
14.8
 20
9.2428203231
 40
0.2
100
AcDbArc
 50
240.0
 51
300.0
  0
ARC
  5
589
100
AcDbEntity
  8
0
100
AcDbCircle
 62
7
  6
CONTINUOUS
 10
13.0
 20
8.8964101615
 40
0.2
100
AcDbArc
 50
0.0
 51
60.0
  0
ARC
  5
58A
100
AcDbEntity
  8
0
100
AcDbCircle
 62
7
  6
CONTINUOUS
 10
14.2
 20
7.5107695155
 40
0.2
100
AcDbArc
 50
120.0
 51
180.0
  0
ARC
  5
58B
100
AcDbEntity
  8
IMPORT_IGES
100
AcDbCircle
 62
7
  6
CONTINUOUS
 10
23.1
 20
13.5
 40
0.2
100
AcDbArc
 50
327.5722273947
 51
360.0
  0
CIRCLE
  5
58C
100
AcDbEntity
  8
IMPORT_IGES
100
AcDbCircle
 62
253
  6
CONTINUOUS
 10
0.0
 20
17.05
 40
0.0250000449
  0
ARC
  5
58D
100
AcDbEntity
  8
IMPORT_IGES
100
AcDbCircle
 62
253
  6
CONTINUOUS
 10
0.0
 20
26.42
 40
17.4656556053
100
AcDbArc
 50
247.2581334118
 51
292.7424101044
  0
ARC
  5
58E
100
AcDbEntity
  8
IMPORT_IGES
100
AcDbCircle
 62
253
  6
CONTINUOUS
 10
0.0
 20
33.68
 40
17.4656556053
100
AcDbArc
 50
67.2581360727
 51
81.3520895276
  0
ARC
  5
58F
100
AcDbEntity
  8
IMPORT_IGES
100
AcDbCircle
 62
253
  6
CONTINUOUS
 10
0.0
 20
33.68
 40
17.4656556053
100
AcDbArc
 50
98.6479104724
 51
112.7424461916
  0
ARC
  5
590
100
AcDbEntity
  8
IMPORT_IGES
100
AcDbCircle
 62
7
  6
CONTINUOUS
 10
0.0
 20
33.68
 40
16.9656746438
100
AcDbArc
 50
67.2580960474
 51
81.3520959273
  0
ARC
  5
591
100
AcDbEntity
  8
IMPORT_IGES
100
AcDbCircle
 62
7
  6
CONTINUOUS
 10
0.0
 20
33.68
 40
16.9656746438
100
AcDbArc
 50
98.6479040727
 51
112.7419039491
  0
ARC
  5
592
100
AcDbEntity
  8
IMPORT_IGES
100
AcDbCircle
 62
7
  6
CONTINUOUS
 10
0.0
 20
26.42
 40
16.9656746438
100
AcDbArc
 50
247.2580960509
 51
292.7419039491
  0
ARC
  5
593
100
AcDbEntity
  8
IMPORT_IGES
100
AcDbCircle
 62
253
  6
CONTINUOUS
 10
0.0
 20
33.68
 40
16.8198217187
100
AcDbArc
 50
67.6093355179
 51
112.390664475
  0
ARC
  5
594
100
AcDbEntity
  8
IMPORT_IGES
100
AcDbCircle
 62
253
  6
CONTINUOUS
 10
0.0
 20
26.42
 40
16.8198217187
100
AcDbArc
 50
247.6093355179
 51
292.390664475
  0
ARC
  5
595
100
AcDbEntity
  8
IMPORT_IGES
100
AcDbCircle
 62
253
  6
CONTINUOUS
 10
0.0
 20
33.68
 40
15.8198597956
100
AcDbArc
 50
67.6094886436
 51
112.3909330813
  0
ARC
  5
596
100
AcDbEntity
  8
IMPORT_IGES
100
AcDbCircle
 62
253
  6
CONTINUOUS
 10
0.0
 20
26.42
 40
15.8198597956
100
AcDbArc
 50
247.609489485
 51
292.3909336061
  0
CIRCLE
  5
597
100
AcDbEntity
  8
IMPORT_IGES
100
AcDbCircle
 62
7
  6
CONTINUOUS
 10
0.0
 20
30.05
 40
2.5
  0
CIRCLE
  5
598
100
AcDbEntity
  8
IMPORT_IGES
100
AcDbCircle
 62
7
  6
CONTINUOUS
 10
-0.0
 20
30.05
 40
2.475
  0
ARC
  5
599
100
AcDbEntity
  8
IMPORT_IGES
100
AcDbCircle
 62
7
  6
CONTINUOUS
 10
0.0005504333
 20
39.6
 40
1.8
100
AcDbArc
 50
45.7541144302
 51
46.6047426982
  0
ARC
  5
59A
100
AcDbEntity
  8
IMPORT_IGES
100
AcDbCircle
 62
7
  6
CONTINUOUS
 10
0.0005504333
 20
39.6
 40
1.8
100
AcDbArc
 50
133.4225693035
 51
134.2639516749
  0
ARC
  5
59B
100
AcDbEntity
  8
IMPORT_IGES
100
AcDbCircle
 62
253
  6
CONTINUOUS
 10
0.0005504333
 20
39.6
 40
1.300058514
100
AcDbArc
 50
123.5172511384
 51
124.9322377161
  0
ARC
  5
59C
100
AcDbEntity
  8
IMPORT_IGES
100
AcDbCircle
 62
253
  6
CONTINUOUS
 10
0.0005504333
 20
39.6
 40
1.3000506285
100
AcDbArc
 50
55.0827960486
 51
56.5084881581
  0
CIRCLE
  5
59D
100
AcDbEntity
  8
IMPORT_IGES
100
AcDbCircle
 62
253
  6
CONTINUOUS
 10
0.0
 20
30.05
 40
0.0250000449
  0
ARC
  5
59E
100
AcDbEntity
  8
IMPORT_IGES
100
AcDbCircle
 62
253
  6
CONTINUOUS
 10
291.72
 20
30.05
 40
300.5156556053
100
AcDbArc
 50
176.6466076622
 51
183.3534379578
  0
ARC
  5
59F
100
AcDbEntity
  8
IMPORT_IGES
100
AcDbCircle
 62
7
  6
CONTINUOUS
 10
291.72
 20
30.05
 40
300.0156746438
100
AcDbArc
 50
176.6466045285
 51
183.3533954715
  0
ARC
  5
5A0
100
AcDbEntity
  8
IMPORT_IGES
100
AcDbCircle
 62
253
  6
CONTINUOUS
 10
291.72
 20
30.05
 40
299.8698217187
100
AcDbArc
 50
176.6641611733
 51
183.3358388284
  0
ARC
  5
5A1
100
AcDbEntity
  8
IMPORT_IGES
100
AcDbCircle
 62
253
  6
CONTINUOUS
 10
291.72
 20
30.05
 40
298.8698597956
100
AcDbArc
 50
176.6641723955
 51
183.335858403
  0
ARC
  5
5A2
100
AcDbEntity
  8
IMPORT_IGES
100
AcDbCircle
 62
7
  6
CONTINUOUS
 10
0.0
 20
74.3573096315
 40
127.6007631511
100
AcDbArc
 50
261.5079899552
 51
278.4920100448
  0
CIRCLE
  5
5A3
100
AcDbEntity
  8
IMPORT_IGES
100
AcDbCircle
 62
7
  6
CONTINUOUS
 10
0.0
 20
43.05
 40
2.5
  0
CIRCLE
  5
5A4
100
AcDbEntity
  8
IMPORT_IGES
100
AcDbCircle
 62
7
  6
CONTINUOUS
 10
0.0
 20
43.05
 40
2.475
  0
ARC
  5
5A5
100
AcDbEntity
  8
IMPORT_IGES
100
AcDbCircle
 62
7
  6
CONTINUOUS
 10
23.1
 20
46.6
 40
0.2
100
AcDbArc
 50
0.0
 51
32.427778024
  0
CIRCLE
  5
5A6
100
AcDbEntity
  8
IMPORT_IGES
100
AcDbCircle
 62
253
  6
CONTINUOUS
 10
0.0
 20
43.05
 40
0.0250000449
  0
ARC
  5
5A7
100
AcDbEntity
  8
IMPORT_IGES
100
AcDbCircle
 62
7
  6
CONTINUOUS
 10
587.4177315311
 20
11.7293170453
 40
610.7111850507
100
AcDbArc
 50
179.9999999999
 51
185.849734978
  0
ARC
  5
5A8
100
AcDbEntity
  8
IMPORT_IGES
100
AcDbCircle
 62
253
  6
CONTINUOUS
 10
587.4177315311
 20
11.7293170453
 40
610.4374805314
100
AcDbArc
 50
180.0
 51
181.0982463729
  0
ARC
  5
5A9
100
AcDbEntity
  8
IMPORT_IGES
100
AcDbCircle
 62
253
  6
CONTINUOUS
 10
587.4177315311
 20
11.7293170453
 40
608.4381658814
100
AcDbArc
 50
179.9999999997
 51
181.0998924648
  0
ENDSEC
  0
SECTION
  2
OBJECTS
  0
DICTIONARY
  5
C
100
AcDbDictionary
280
0
281
1
  3
ACAD_GROUP
350
D
  3
ACAD_MLINESTYLE
350
17
  3
ACAD_LAYOUT
350
1A
  3
ACAD_PLOTSETTINGS
350
19
  3
ACAD_PLOTSTYLENAME
350
E
  0
DICTIONARY
  5
D
102
{ACAD_REACTORS
330
C
102
}
100
AcDbDictionary
280
0
281
1
  0
ACDBDICTIONARYWDFLT
  5
E
102
{ACAD_REACTORS
330
C
102
}
100
AcDbDictionary
281
1
  3
Normal
350
F
100
AcDbDictionaryWithDefault
340
F
  0
DICTIONARY
  5
17
102
{ACAD_REACTORS
330
C
102
}
100
AcDbDictionary
280
0
281
1
  3
Standard
350
18
  0
DICTIONARY
  5
19
102
{ACAD_REACTORS
330
C
102
}
100
AcDbDictionary
281
1
  0
DICTIONARY
  5
1A
102
{ACAD_REACTORS
330
C
102
}
100
AcDbDictionary
281
1
  3
Model
350
5AA
  3
Layout1
350
5AB
  0
ACDBPLACEHOLDER
  5
F
102
{ACAD_REACTORS
330
E
102
}
  0
MLINESTYLE
  5
18
102
{ACAD_REACTORS
330
17
102
}
100
AcDbMlineStyle
  2
STANDARD
 70
0
  3

 62
256
 51
90.0
 52
90.0
 71
2
 49
0.5
 62
256
  6
BYLAYER
 49
-0.5
 62
256
  6
BYLAYER
  0
LAYOUT
  5
5AA
102
{ACAD_REACTORS
330
1A
102
}
100
AcDbPlotSettings
  1

  2
none_device
  4
ISO_A4_(297.00_x_210.00_MM)
  6

 40
0.0
 41
0.0
 42
0.0
 43
0.0
 44
297.0
 45
210.0
 46
0.0
 47
0.0
 48
0.0
 49
0.0
140
0.0
141
0.0
142
1.0
143
1.0
 70
1024
 72
1
 73
0
 74
0
  7

 75
0
147
1.0
148
0.0
149
0.0
100
AcDbLayout
  1
Model
 70
0
 71
0
 10
0.0
 20
0.0
 11
297.0
 21
210.0
 12
0.0
 22
0.0
 32
0.0
 14
0.0
 24
0.0
 34
0.0
 15
0.0
 25
0.0
 35
0.0
146
0.0
 13
0.0
 23
0.0
 33
0.0
 16
1.0
 26
0.0
 36
0.0
 17
0.0
 27
1.0
 37
0.0
 76
0
330
212
345
0
346
0
  0
LAYOUT
  5
5AB
102
{ACAD_REACTORS
330
1A
102
}
100
AcDbPlotSettings
  1

  2
none_device
  4
ISO_A4_(297.00_x_210.00_MM)
  6

 40
0.0
 41
0.0
 42
0.0
 43
0.0
 44
297.0
 45
210.0
 46
0.0
 47
0.0
 48
0.0
 49
0.0
140
0.0
141
0.0
142
1.0
143
1.0
 70
0
 72
1
 73
0
 74
0
  7

 75
0
147
1.0
148
0.0
149
0.0
100
AcDbLayout
  1
Layout1
 70
0
 71
1
 10
0.0
 20
0.0
 11
297.0
 21
210.0
 12
0.0
 22
0.0
 32
0.0
 14
0.0
 24
0.0
 34
0.0
 15
0.0
 25
0.0
 35
0.0
146
0.0
 13
0.0
 23
0.0
 33
0.0
 16
1.0
 26
0.0
 36
0.0
 17
0.0
 27
1.0
 37
0.0
 76
0
330
213
345
0
346
0
  0
ENDSEC
  0
EOF
