0
SECTION
2
HEADER
9
$ACADVER
1
AC1015
9
$DWGCODEPAGE
3
ANSI_1252
9
$EXTMAX
10
210.0000000000
20
297.0000000000
30
0.0000000000
9
$EXTMIN
10
0.0000000000
20
0.0000000000
30
0.0000000000
9
$LIMMIN
10
0.0000000000
20
0.0000000000
9
$LIMMAX
10
210.0000000000
20
297.0000000000
9
$VIEWCTR
10
105.0000000000
20
148.5000000000
9
$VIEWSIZE
40
297.0000000000
9
$CLAYER
8
0
9
$LTSCALE
40
19.3600000000
9
$CELTYPE
6
BYLAYER
9
$DIMSCALE
40
1
9
$DIMASZ
40
3.0000000000
9
$DIMEXO
40
2.2000000000
9
$DIMDLI
40
13.3760000000
9
$DIMEXE
40
6.3360000000
9
$DIMCEN
40
3.1680000000
9
$DIMLFAC
40
1.0000000000
9
$DIMBLK
1
_FILLED
9
$DIMTXT
40
3.0000000000
9
$DIMTOL
70
1
9
$DIMLIM
70
0
9
$DIMTFAC
40
1.0000000000
9
$DIMTP
40
0.0100000000
9
$DIMTM
40
0.0100000000
9
$PDMODE
70
3
9
$PDSIZE
40
3.0000000000
9
$HANDSEED
5
3C4
9
$MEASUREMENT
70
1
9
$INSUNITS
70
4
0
ENDSEC
0
SECTION
2
CLASSES
0
CLASS
1
ACDBDICTIONARYWDFLT
2
AcDbDictionaryWithDefault
3
AutoCAD 2000
90
0
280
0
281
0
0
CLASS
1
ACDBPLACEHOLDER
2
AcDbPlaceHolder
3
AutoCAD 2000
90
0
280
0
281
0
0
CLASS
1
LAYOUT
2
AcDbLayout
3
AutoCAD 2000
90
0
280
0
281
0
0
ENDSEC
0
SECTION
2
TABLES
0
TABLE
2
VPORT
5
8
100
AcDbSymbolTable
70
2
0
VPORT
5
1F4
100
AcDbSymbolTableRecord
100
AcDbViewportTableRecord
2
*ACTIVE
70
0
10
0.0
20
0.0
11
1.0
21
1.0
12
105.0000000000
22
148.5000000000
13
0.0
23
0.0
14
1.0
24
1.0
15
0.0
25
0.0
16
0.0
26
0.0
36
1.0
17
0.0
27
0.0
37
0.0
40
297.0000000000
41
0.7070707071
42
50.0
43
0.0
44
0.0
50
0.0
51
0.0
71
0
72
100
73
1
74
1
75
0
76
0
77
0
78
0
0
ENDTAB
0
TABLE
2
LTYPE
5
5
100
AcDbSymbolTable
70
6
0
LTYPE
5
14
100
AcDbSymbolTableRecord
100
AcDbLinetypeTableRecord
2
BYBLOCK
70
0
3

72
65
73
0
40
0.0
0
LTYPE
5
15
100
AcDbSymbolTableRecord
100
AcDbLinetypeTableRecord
2
BYLAYER
70
0
3

72
65
73
0
40
0.0
0
LTYPE
5
16
100
AcDbSymbolTableRecord
100
AcDbLinetypeTableRecord
2
CONTINUOUS
70
64
3
Solid line
72
65
73
0
40
0
0
LTYPE
5
1F5
100
AcDbSymbolTableRecord
100
AcDbLinetypeTableRecord
2
CENTER
70
64
3
____ _ ____ _ ____ _ ____ _ ____ _ ____ _ ____
72
65
73
4
40
0.6
49
0.375
74
0
49
-0.075
74
0
49
0.075
74
0
49
-0.075
74
0
0
LTYPE
5
1F6
100
AcDbSymbolTableRecord
100
AcDbLinetypeTableRecord
2
HIDDEN
70
64
3
- - - - - - - - - - - - - - - - - - - -
72
65
73
2
40
0.2
49
0.1
74
0
49
-0.1
74
0
0
LTYPE
5
1F7
100
AcDbSymbolTableRecord
100
AcDbLinetypeTableRecord
2
PHANTOM
70
64
3
_____ _ _ _____ _ _ _____ _ _ _____
72
65
73
6
40
0.8
49
0.45
74
0
49
-0.05
74
0
49
0.1
74
0
49
-0.05
74
0
49
0.1
74
0
49
-0.05
74
0
0
LTYPE
5
1F8
100
AcDbSymbolTableRecord
100
AcDbLinetypeTableRecord
2
DOT
70
64
3
. . . . . . . . . . . . . . . . . . . .
72
65
73
2
40
0.2
49
0.1
74
0
49
-0.1
74
0
0
LTYPE
5
1F9
100
AcDbSymbolTableRecord
100
AcDbLinetypeTableRecord
2
DASHED
70
64
3
- - - - - - - - - - - - - - - - - - - -
72
65
73
2
40
0.2
49
0.1
74
0
49
-0.1
74
0
0
ENDTAB
0
TABLE
2
LAYER
5
2
100
AcDbSymbolTable
70
36
0
LAYER
5
10
100
AcDbSymbolTableRecord
100
AcDbLayerTableRecord
2
0
70
0
62
7
6
CONTINUOUS
370
-3
390
F
0
LAYER
5
1FA
100
AcDbSymbolTableRecord
100
AcDbLayerTableRecord
2
DEFAULT_1
70
0
62
7
6
CENTER
370
-3
390
F
0
LAYER
5
1FB
100
AcDbSymbolTableRecord
100
AcDbLayerTableRecord
2
DEFAULT_2
70
0
62
0
6
HIDDEN
370
-3
390
F
0
LAYER
5
1FC
100
AcDbSymbolTableRecord
100
AcDbLayerTableRecord
2
DEFAULT_3
70
0
62
7
6
PHANTOM
370
-3
390
F
0
LAYER
5
1FD
100
AcDbSymbolTableRecord
100
AcDbLayerTableRecord
2
_BLACK_HOLE
70
0
62
7
6
CONTINUOUS
370
-3
390
F
0
LAYER
5
1FE
100
AcDbSymbolTableRecord
100
AcDbLayerTableRecord
2
ASSI
70
0
62
7
6
CONTINUOUS
370
-3
390
F
0
LAYER
5
1FF
100
AcDbSymbolTableRecord
100
AcDbLayerTableRecord
2
COLOR5
70
0
62
7
6
CONTINUOUS
370
-3
390
F
0
LAYER
5
200
100
AcDbSymbolTableRecord
100
AcDbLayerTableRecord
2
COORDINATE
70
0
62
7
6
CONTINUOUS
370
-3
390
F
0
LAYER
5
201
100
AcDbSymbolTableRecord
100
AcDbLayerTableRecord
2
COORD_ORIGINE
70
0
62
7
6
CONTINUOUS
370
-3
390
F
0
LAYER
5
202
100
AcDbSymbolTableRecord
100
AcDbLayerTableRecord
2
COPY_PUBLISH
70
0
62
7
6
CONTINUOUS
370
-3
390
F
0
LAYER
5
203
100
AcDbSymbolTableRecord
100
AcDbLayerTableRecord
2
COSMETIC
70
0
62
7
6
CONTINUOUS
370
-3
390
F
0
LAYER
5
204
100
AcDbSymbolTableRecord
100
AcDbLayerTableRecord
2
CURVE
70
0
62
7
6
CONTINUOUS
370
-3
390
F
0
LAYER
5
205
100
AcDbSymbolTableRecord
100
AcDbLayerTableRecord
2
DRAFT
70
0
62
7
6
CONTINUOUS
370
-3
390
F
0
LAYER
5
206
100
AcDbSymbolTableRecord
100
AcDbLayerTableRecord
2
IMPORT_IGES
70
0
62
7
6
CONTINUOUS
370
-3
390
F
0
LAYER
5
207
100
AcDbSymbolTableRecord
100
AcDbLayerTableRecord
2
INTF_1
70
0
62
7
6
CONTINUOUS
370
-3
390
F
0
LAYER
5
208
100
AcDbSymbolTableRecord
100
AcDbLayerTableRecord
2
INTF_2
70
0
62
7
6
CONTINUOUS
370
-3
390
F
0
LAYER
5
209
100
AcDbSymbolTableRecord
100
AcDbLayerTableRecord
2
NOTE
70
0
62
7
6
CONTINUOUS
370
-3
390
F
0
LAYER
5
20A
100
AcDbSymbolTableRecord
100
AcDbLayerTableRecord
2
PIANI
70
0
62
7
6
CONTINUOUS
370
-3
390
F
0
LAYER
5
20B
100
AcDbSymbolTableRecord
100
AcDbLayerTableRecord
2
PIANI_ORIGINE
70
0
62
7
6
CONTINUOUS
370
-3
390
F
0
LAYER
5
20C
100
AcDbSymbolTableRecord
100
AcDbLayerTableRecord
2
PUNTI
70
0
62
7
6
CONTINUOUS
370
-3
390
F
0
LAYER
5
20D
100
AcDbSymbolTableRecord
100
AcDbLayerTableRecord
2
PUNZONI
70
0
62
7
6
CONTINUOUS
370
-3
390
F
0
LAYER
5
20E
100
AcDbSymbolTableRecord
100
AcDbLayerTableRecord
2
RACCORDO
70
0
62
7
6
CONTINUOUS
370
-3
390
F
0
LAYER
5
20F
100
AcDbSymbolTableRecord
100
AcDbLayerTableRecord
2
RGB____0____0____0__
70
0
62
7
6
CONTINUOUS
370
-3
390
F
0
LAYER
5
210
100
AcDbSymbolTableRecord
100
AcDbLayerTableRecord
2
RGB__255__255__255__
70
0
62
7
6
CONTINUOUS
370
-3
390
F
0
LAYER
5
211
100
AcDbSymbolTableRecord
100
AcDbLayerTableRecord
2
RGB____0____0____0__
70
0
62
7
6
CONTINUOUS
370
-3
390
F
0
LAYER
5
212
100
AcDbSymbolTableRecord
100
AcDbLayerTableRecord
2
SMUSSO
70
0
62
7
6
CONTINUOUS
370
-3
390
F
0
LAYER
5
213
100
AcDbSymbolTableRecord
100
AcDbLayerTableRecord
2
SNAPLINE
70
0
62
7
6
CONTINUOUS
370
-3
390
F
0
LAYER
5
214
100
AcDbSymbolTableRecord
100
AcDbLayerTableRecord
2
SUPERFICI
70
0
62
7
6
CONTINUOUS
370
-3
390
F
0
LAYER
5
215
100
AcDbSymbolTableRecord
100
AcDbLayerTableRecord
2
TRASH
70
0
62
7
6
CONTINUOUS
370
-3
390
F
0
LAYER
5
216
100
AcDbSymbolTableRecord
100
AcDbLayerTableRecord
2
XSEC_DATUMS
70
0
62
7
6
CONTINUOUS
370
-3
390
F
0
ENDTAB
0
TABLE
2
STYLE
5
3
100
AcDbSymbolTable
70
1
0
STYLE
5
11
100
AcDbSymbolTableRecord
100
AcDbTextStyleTableRecord
2
STANDARD
70
0
40
0.0
41
0.8000000000
50
0.0
71
0
42
0.2
3
txt
4

0
ENDTAB
0
TABLE
2
VIEW
5
6
100
AcDbSymbolTable
70
0
0
ENDTAB
0
TABLE
2
UCS
5
7
100
AcDbSymbolTable
70
0
0
ENDTAB
0
TABLE
2
APPID
5
9
100
AcDbSymbolTable
70
1
0
APPID
5
217
100
AcDbSymbolTableRecord
100
AcDbRegAppTableRecord
2
ACAD
70
0
0
ENDTAB
0
TABLE
2
BLOCK_RECORD
5
1
100
AcDbSymbolTable
70
0
0
BLOCK_RECORD
5
1F
100
AcDbSymbolTableRecord
100
AcDbBlockTableRecord
2
*MODEL_SPACE
0
BLOCK_RECORD
5
1B
100
AcDbSymbolTableRecord
100
AcDbBlockTableRecord
2
*PAPER_SPACE
0
ENDTAB
0
TABLE
2
DIMSTYLE
5
A
100
AcDbSymbolTable
70
1
100
AcDbDimStyleTable
71
0
0
DIMSTYLE
105
218
100
AcDbSymbolTableRecord
100
AcDbDimStyleTableRecord
2
STANDARD
70
0
3

4

40
1.0
41
3.0000000000
42
0.0625
43
0.38
44
0.18
45
0.0
46
0.0
47
0.0100000000
48
0.0100000000
140
3.0000000000
141
0.09
142
0.0
143
25.4
144
1.0000000000
145
0.0
146
1.0000000000
147
0.09
71
1
72
0
73
0
74
0
75
0
76
0
77
1
78
8
170
0
171
2
172
0
173
0
174
0
175
0
176
0
177
0
178
0
270
2
271
2
272
2
273
2
274
2
275
0
280
0
281
0
282
0
283
1
284
8
285
0
286
0
287
3
288
0
340
11
0
ENDTAB
0
ENDSEC
0
SECTION
2
BLOCKS
0
BLOCK
5
20
100
AcDbEntity
8
0
100
AcDbBlockBegin
2
*MODEL_SPACE
70
0
10
0.0
20
0.0
30
0.0
3
*MODEL_SPACE
1

0
ENDBLK
5
21
100
AcDbEntity
8
0
100
AcDbBlockEnd
0
BLOCK
5
1C
100
AcDbEntity
8
0
100
AcDbBlockBegin
2
*PAPER_SPACE
70
0
10
0.0
20
0.0
30
0.0
3
*PAPER_SPACE
1

0
ENDBLK
5
1D
100
AcDbEntity
8
0
100
AcDbBlockEnd
0
ENDSEC
0
SECTION
2
ENTITIES
0
LINE
5
219
100
AcDbEntity
8
0
100
AcDbLine
62
0
6
CONTINUOUS
10
22.2500000000
20
-44.4000000000
11
26.0500000000
21
-43.4000000000
0
LINE
5
21A
100
AcDbEntity
8
0
100
AcDbLine
62
0
6
CONTINUOUS
10
32.5000000000
20
-46.5000000000
11
-32.5000000000
21
-46.5000000000
0
LINE
5
21B
100
AcDbEntity
8
0
100
AcDbLine
62
0
6
CONTINUOUS
10
20.0000000000
20
-46.2032864951
11
15.0000000000
21
-46.2032864951
0
LINE
5
21C
100
AcDbEntity
8
0
100
AcDbLine
62
0
6
CONTINUOUS
10
-32.1596257422
20
-46.1595760008
11
15.0000000000
21
-46.1595760008
0
LINE
5
21D
100
AcDbEntity
8
0
100
AcDbLine
62
0
6
CONTINUOUS
10
20.0000000000
20
-46.1595760008
11
32.1596268489
21
-46.1595760008
0
LINE
5
21E
100
AcDbEntity
8
0
100
AcDbLine
62
0
6
CONTINUOUS
10
-26.0500000000
20
-43.4000000000
11
-22.2500000000
21
-44.4000000000
0
LINE
5
21F
100
AcDbEntity
8
0
100
AcDbLine
62
0
6
CONTINUOUS
10
15.0000000000
20
-45.2500000000
11
20.0000000000
21
-45.2500000000
0
LINE
5
220
100
AcDbEntity
8
0
100
AcDbLine
62
0
6
CONTINUOUS
10
-32.1596331162
20
-45.1596140778
11
15.0000000000
21
-45.1596140778
0
LINE
5
221
100
AcDbEntity
8
0
100
AcDbLine
62
0
6
CONTINUOUS
10
20.0000000000
20
-45.1596140778
11
32.1596331162
21
-45.1596140778
0
LINE
5
222
100
AcDbEntity
8
0
100
AcDbLine
62
0
6
CONTINUOUS
10
-26.7500000000
20
-45.0000000000
11
-26.2500000000
21
-45.0000000000
0
LINE
5
223
100
AcDbEntity
8
0
100
AcDbLine
62
0
6
CONTINUOUS
10
26.2500000000
20
-45.0000000000
11
26.7500000000
21
-45.0000000000
0
LINE
5
224
100
AcDbEntity
8
0
100
AcDbLine
62
0
6
CONTINUOUS
10
-32.6596140778
20
-44.6596331162
11
-33.6595760008
21
-44.6596331162
0
LINE
5
225
100
AcDbEntity
8
0
100
AcDbLine
62
0
6
CONTINUOUS
10
32.6596140778
20
-44.6596331162
11
33.6595760008
21
-44.6596331162
0
LINE
5
226
100
AcDbEntity
8
0
100
AcDbLine
62
0
6
CONTINUOUS
10
15.0000000000
20
-44.2500000000
11
20.0000000000
21
-44.2500000000
0
LINE
5
227
100
AcDbEntity
8
0
100
AcDbLine
62
0
6
CONTINUOUS
10
22.2500000000
20
-43.5500000000
11
-22.2500000000
21
-43.5500000000
0
LINE
5
228
100
AcDbEntity
8
0
100
AcDbLine
62
0
6
CONTINUOUS
10
22.2500000000
20
-43.3500000000
11
-22.2500000000
21
-43.3500000000
0
LINE
5
229
100
AcDbEntity
8
0
100
AcDbLine
62
0
6
CONTINUOUS
10
22.2500000000
20
-43.2500000000
11
-22.2500000000
21
-43.2500000000
0
LINE
5
22A
100
AcDbEntity
8
0
100
AcDbLine
62
0
6
CONTINUOUS
10
22.2500000000
20
-43.0500000000
11
-22.2500000000
21
-43.0500000000
0
LINE
5
22B
100
AcDbEntity
8
0
100
AcDbLine
62
0
6
CONTINUOUS
10
-28.0000000000
20
-41.2500000000
11
-25.0000000000
21
-41.2500000000
0
LINE
5
22C
100
AcDbEntity
8
0
100
AcDbLine
62
0
6
CONTINUOUS
10
-28.0000000000
20
-40.5000000000
11
-25.0000000000
21
-40.5000000000
0
LINE
5
22D
100
AcDbEntity
8
0
100
AcDbLine
62
0
6
CONTINUOUS
10
-28.0000000000
20
-40.2000000000
11
-25.0000000000
21
-40.2000000000
0
LINE
5
22E
100
AcDbEntity
8
0
100
AcDbLine
62
0
6
CONTINUOUS
10
1.1717239618
20
-39.7682758987
11
1.3020689487
21
-39.7682758987
0
LINE
5
22F
100
AcDbEntity
8
0
100
AcDbLine
62
0
6
CONTINUOUS
10
1.3289654255
20
-39.4931035161
11
1.1717239618
21
-39.4931035161
0
LINE
5
230
100
AcDbEntity
8
0
100
AcDbLine
62
0
6
CONTINUOUS
10
-30.2360679775
20
-39.2500000000
11
-32.5000000000
21
-39.2500000000
0
LINE
5
231
100
AcDbEntity
8
0
100
AcDbLine
62
0
6
CONTINUOUS
10
-32.5000000000
20
-39.0500000000
11
-30.2494443758
21
-39.0500000000
0
LINE
5
232
100
AcDbEntity
8
0
100
AcDbLine
62
0
6
CONTINUOUS
10
-32.5000000000
20
-38.9500000000
11
-30.2494443758
21
-38.9500000000
0
LINE
5
233
100
AcDbEntity
8
0
100
AcDbLine
62
0
6
CONTINUOUS
10
-30.2360679775
20
-38.7500000000
11
-32.5000000000
21
-38.7500000000
0
LINE
5
234
100
AcDbEntity
8
0
100
AcDbLine
62
0
6
CONTINUOUS
10
-31.1000000000
20
-38.5500000000
11
-30.9000000000
21
-38.5500000000
0
LINE
5
235
100
AcDbEntity
8
0
100
AcDbLine
62
0
6
CONTINUOUS
10
-1.2862069160
20
-38.4772413492
11
-0.0944827199
21
-38.4772413492
0
LINE
5
236
100
AcDbEntity
8
0
100
AcDbLine
62
0
6
CONTINUOUS
10
-0.0944827199
20
-38.2000000000
11
-1.5737930983
21
-38.2000000000
0
LINE
5
237
100
AcDbEntity
8
0
100
AcDbLine
62
0
6
CONTINUOUS
10
-32.1000000000
20
-34.7500946387
11
-31.1000000000
21
-38.5500000000
0
LINE
5
238
100
AcDbEntity
8
0
100
AcDbLine
62
0
6
CONTINUOUS
10
-31.1000000000
20
28.5500000000
11
-32.1000000000
21
24.7500946387
0
LINE
5
239
100
AcDbEntity
8
0
100
AcDbLine
62
0
6
CONTINUOUS
10
-22.2500000000
20
-42.2000000000
11
-26.0500000000
21
-43.2000000000
0
LINE
5
23A
100
AcDbEntity
8
0
100
AcDbLine
62
0
6
CONTINUOUS
10
-25.0000000000
20
-37.8000000000
11
-28.0000000000
21
-37.8000000000
0
LINE
5
23B
100
AcDbEntity
8
0
100
AcDbLine
62
0
6
CONTINUOUS
10
-25.0000000000
20
-37.5000000000
11
-28.0000000000
21
-37.5000000000
0
LINE
5
23C
100
AcDbEntity
8
0
100
AcDbLine
62
0
6
CONTINUOUS
10
-25.0000000000
20
-36.7500000000
11
-28.0000000000
21
-36.7500000000
0
LINE
5
23D
100
AcDbEntity
8
0
100
AcDbLine
62
0
6
CONTINUOUS
10
-29.9000000000
20
-34.7500946387
11
-30.9500000000
21
-34.7500946387
0
LINE
5
23E
100
AcDbEntity
8
0
100
AcDbLine
62
0
6
CONTINUOUS
10
-31.0500000000
20
-34.7500946387
11
-32.1000000000
21
-34.7500946387
0
LINE
5
23F
100
AcDbEntity
8
0
100
AcDbLine
62
0
6
CONTINUOUS
10
26.0500000000
20
-43.2000000000
11
22.2500000000
21
-42.2000000000
0
LINE
5
240
100
AcDbEntity
8
0
100
AcDbLine
62
0
6
CONTINUOUS
10
0.6089655757
20
-38.6241378903
11
0.8717240691
21
-38.7586206317
0
LINE
5
241
100
AcDbEntity
8
0
100
AcDbLine
62
0
6
CONTINUOUS
10
-34.0000000000
20
-45.0000000000
11
-34.0000000000
21
35.0000000000
0
LINE
5
242
100
AcDbEntity
8
0
100
AcDbLine
62
0
6
CONTINUOUS
10
-33.6595760008
20
34.6596257422
11
-33.6595760008
21
-44.6596268489
0
LINE
5
243
100
AcDbEntity
8
0
100
AcDbLine
62
0
6
CONTINUOUS
10
-32.6596140778
20
34.6596331162
11
-32.6596140778
21
-44.6596331162
0
LINE
5
244
100
AcDbEntity
8
0
100
AcDbLine
62
0
6
CONTINUOUS
10
-32.5000000000
20
29.2500000000
11
-32.5000000000
21
28.7500000000
0
LINE
5
245
100
AcDbEntity
8
0
100
AcDbLine
62
0
6
CONTINUOUS
10
-32.5000000000
20
-38.7500000000
11
-32.5000000000
21
-39.2500000000
0
LINE
5
246
100
AcDbEntity
8
0
100
AcDbLine
62
0
6
CONTINUOUS
10
-32.1596331162
20
35.1596140778
11
-32.1596331162
21
36.1595760008
0
LINE
5
247
100
AcDbEntity
8
0
100
AcDbLine
62
0
6
CONTINUOUS
10
-32.1596331162
20
-45.1596140778
11
-32.1596331162
21
-46.1595760008
0
LINE
5
248
100
AcDbEntity
8
0
100
AcDbLine
62
0
6
CONTINUOUS
10
-31.2500000000
20
-34.7500946387
11
-31.2500000000
21
24.7500946387
0
LINE
5
249
100
AcDbEntity
8
0
100
AcDbLine
62
0
6
CONTINUOUS
10
-31.0500000000
20
-34.7500946387
11
-31.0500000000
21
24.7500946387
0
LINE
5
24A
100
AcDbEntity
8
0
100
AcDbLine
62
0
6
CONTINUOUS
10
-30.9500000000
20
-34.7500946387
11
-30.9500000000
21
24.7500946387
0
LINE
5
24B
100
AcDbEntity
8
0
100
AcDbLine
62
0
6
CONTINUOUS
10
-30.7500000000
20
-34.7500946387
11
-30.7500000000
21
24.7500946387
0
LINE
5
24C
100
AcDbEntity
8
0
100
AcDbLine
62
0
6
CONTINUOUS
10
-28.0000000000
20
-37.8000000000
11
-28.0000000000
21
-37.5000000000
0
LINE
5
24D
100
AcDbEntity
8
0
100
AcDbLine
62
0
6
CONTINUOUS
10
-28.0000000000
20
-40.2000000000
11
-28.0000000000
21
-40.5000000000
0
LINE
5
24E
100
AcDbEntity
8
0
100
AcDbLine
62
0
6
CONTINUOUS
10
-26.7500000000
20
-45.0000000000
11
-26.7500000000
21
-41.2500000000
0
LINE
5
24F
100
AcDbEntity
8
0
100
AcDbLine
62
0
6
CONTINUOUS
10
-26.5500000000
20
-45.0000000000
11
-26.5500000000
21
-41.2500000000
0
LINE
5
250
100
AcDbEntity
8
0
100
AcDbLine
62
0
6
CONTINUOUS
10
-26.4500000000
20
-45.0000000000
11
-26.4500000000
21
-41.2500000000
0
LINE
5
251
100
AcDbEntity
8
0
100
AcDbLine
62
0
6
CONTINUOUS
10
-26.2500000000
20
-45.0000000000
11
-26.2500000000
21
-41.2500000000
0
LINE
5
252
100
AcDbEntity
8
0
100
AcDbLine
62
0
6
CONTINUOUS
10
-26.0500000000
20
-43.2000000000
11
-26.0500000000
21
-43.4000000000
0
LINE
5
253
100
AcDbEntity
8
0
100
AcDbLine
62
0
6
CONTINUOUS
10
-26.0000000000
20
-3.0786207318
11
-26.0000000000
21
-2.7289655507
0
LINE
5
254
100
AcDbEntity
8
0
100
AcDbLine
62
0
6
CONTINUOUS
10
-25.0000000000
20
-37.8000000000
11
-25.0000000000
21
-37.5000000000
0
LINE
5
255
100
AcDbEntity
8
0
100
AcDbLine
62
0
6
CONTINUOUS
10
-25.0000000000
20
-40.2000000000
11
-25.0000000000
21
-40.5000000000
0
LINE
5
256
100
AcDbEntity
8
0
100
AcDbLine
62
0
6
CONTINUOUS
10
-29.9000000000
20
24.7500946387
11
-30.9000000000
21
28.5500000000
0
LINE
5
257
100
AcDbEntity
8
0
100
AcDbLine
62
0
6
CONTINUOUS
10
-22.2500000000
20
-42.2000000000
11
-22.2500000000
21
-43.2500000000
0
LINE
5
258
100
AcDbEntity
8
0
100
AcDbLine
62
0
6
CONTINUOUS
10
-22.2500000000
20
-43.3500000000
11
-22.2500000000
21
-44.4000000000
0
LINE
5
259
100
AcDbEntity
8
0
100
AcDbLine
62
0
6
CONTINUOUS
10
-20.0000000000
20
34.2500000000
11
-20.0000000000
21
36.2032864951
0
LINE
5
25A
100
AcDbEntity
8
0
100
AcDbLine
62
0
6
CONTINUOUS
10
-30.9000000000
20
-38.5500000000
11
-29.9000000000
21
-34.7500946387
0
LINE
5
25B
100
AcDbEntity
8
0
100
AcDbLine
62
0
6
CONTINUOUS
10
-15.0000000000
20
34.2500000000
11
-15.0000000000
21
36.2032864951
0
LINE
5
25C
100
AcDbEntity
8
0
100
AcDbLine
62
0
6
CONTINUOUS
10
-26.0000000000
20
-2.7289655507
11
-27.3179311156
21
-1.9468965679
0
LINE
5
25D
100
AcDbEntity
8
0
100
AcDbLine
62
0
6
CONTINUOUS
10
-27.2910344601
20
-2.2841379046
11
-26.0000000000
21
-3.0786207318
0
LINE
5
25E
100
AcDbEntity
8
0
100
AcDbLine
62
0
6
CONTINUOUS
10
-14.0000000000
20
37.7226076521
11
-14.0000000000
21
36.3000000000
0
LINE
5
25F
100
AcDbEntity
8
0
100
AcDbLine
62
0
6
CONTINUOUS
10
-11.8500000000
20
40.1267238418
11
-11.8500000000
21
39.7000000000
0
LINE
5
260
100
AcDbEntity
8
0
100
AcDbLine
62
0
6
CONTINUOUS
10
-11.5000000000
20
36.3000000000
11
-11.5000000000
21
36.2608401829
0
LINE
5
261
100
AcDbEntity
8
0
100
AcDbLine
62
0
6
CONTINUOUS
10
-11.3500000000
20
39.7000000000
11
-11.3500000000
21
39.2000000000
0
LINE
5
262
100
AcDbEntity
8
0
100
AcDbLine
62
0
6
CONTINUOUS
10
-10.1000000000
20
41.9669162206
11
-10.1000000000
21
41.5000000000
0
LINE
5
263
100
AcDbEntity
8
0
100
AcDbLine
62
0
6
CONTINUOUS
10
-9.4500000000
20
41.5000000000
11
-9.4500000000
21
41.0000000000
0
LINE
5
264
100
AcDbEntity
8
0
100
AcDbLine
62
0
6
CONTINUOUS
10
-8.3500000000
20
43.7401213014
11
-8.3500000000
21
43.3000000000
0
LINE
5
265
100
AcDbEntity
8
0
100
AcDbLine
62
0
6
CONTINUOUS
10
-7.8500000000
20
43.3000000000
11
-7.8500000000
21
42.8000000000
0
LINE
5
266
100
AcDbEntity
8
0
100
AcDbLine
62
0
6
CONTINUOUS
10
32.5000571154
20
-46.5000000000
11
32.1596268489
21
-46.1595760008
0
LINE
5
267
100
AcDbEntity
8
0
100
AcDbLine
62
0
6
CONTINUOUS
10
34.0000000000
20
-45.0000571154
11
33.6595760008
21
-44.6596257422
0
LINE
5
268
100
AcDbEntity
8
0
100
AcDbLine
62
0
6
CONTINUOUS
10
-4.1000000000
20
45.4391594071
11
-4.1000000000
21
45.1000000000
0
LINE
5
269
100
AcDbEntity
8
0
100
AcDbLine
62
0
6
CONTINUOUS
10
-3.6000000000
20
45.1000000000
11
-3.6000000000
21
44.6000000000
0
LINE
5
26A
100
AcDbEntity
8
0
100
AcDbLine
62
0
6
CONTINUOUS
10
-11.4755174175
20
-5.7500000000
11
-10.8198921711
21
-5.7500000000
0
LINE
5
26B
100
AcDbEntity
8
0
100
AcDbLine
62
0
6
CONTINUOUS
10
10.8198921711
20
-5.7500000000
11
11.4755174175
21
-5.7500000000
0
LINE
5
26C
100
AcDbEntity
8
0
100
AcDbLine
62
0
6
CONTINUOUS
10
11.4755174175
20
-4.2500000000
11
10.8198921711
21
-4.2500000000
0
LINE
5
26D
100
AcDbEntity
8
0
100
AcDbLine
62
0
6
CONTINUOUS
10
-10.8198921711
20
-4.2500000000
11
-11.4755174175
21
-4.2500000000
0
LINE
5
26E
100
AcDbEntity
8
0
100
AcDbLine
62
0
6
CONTINUOUS
10
-0.7500000000
20
6.4755174175
11
-0.7500000000
21
5.8198921711
0
LINE
5
26F
100
AcDbEntity
8
0
100
AcDbLine
62
0
6
CONTINUOUS
10
-0.7500000000
20
-15.8198921711
11
-0.7500000000
21
-16.4755174175
0
LINE
5
270
100
AcDbEntity
8
0
100
AcDbLine
62
0
6
CONTINUOUS
10
-0.0944827199
20
-38.4772413492
11
-0.0944827199
21
-38.2000000000
0
LINE
5
271
100
AcDbEntity
8
0
100
AcDbLine
62
0
6
CONTINUOUS
10
-1.3006896377
20
-39.3855172515
11
-1.2862069160
21
-38.4772413492
0
LINE
5
272
100
AcDbEntity
8
0
100
AcDbLine
62
0
6
CONTINUOUS
10
-1.5737930983
20
-38.2000000000
11
-1.6027586311
21
-39.7579310656
0
LINE
5
273
100
AcDbEntity
8
0
100
AcDbLine
62
0
6
CONTINUOUS
10
32.5000571154
20
36.5000000000
11
32.1596257422
21
36.1595760008
0
LINE
5
274
100
AcDbEntity
8
0
100
AcDbLine
62
0
6
CONTINUOUS
10
34.0000000000
20
35.0000571154
11
33.6595760008
21
34.6596268489
0
LINE
5
275
100
AcDbEntity
8
0
100
AcDbLine
62
0
6
CONTINUOUS
10
0.7500000000
20
-16.4755174175
11
0.7500000000
21
-15.8198921711
0
LINE
5
276
100
AcDbEntity
8
0
100
AcDbLine
62
0
6
CONTINUOUS
10
0.7500000000
20
5.8198921711
11
0.7500000000
21
6.4755174175
0
LINE
5
277
100
AcDbEntity
8
0
100
AcDbLine
62
0
6
CONTINUOUS
10
1.1717239618
20
-39.4931035161
11
1.1717239618
21
-39.7682758987
0
LINE
5
278
100
AcDbEntity
8
0
100
AcDbLine
62
0
6
CONTINUOUS
10
3.6000000000
20
45.1000000000
11
3.6000000000
21
44.6000000000
0
LINE
5
279
100
AcDbEntity
8
0
100
AcDbLine
62
0
6
CONTINUOUS
10
4.1000000000
20
45.4391594071
11
4.1000000000
21
45.1000000000
0
LINE
5
27A
100
AcDbEntity
8
0
100
AcDbLine
62
0
6
CONTINUOUS
10
-34.0000000000
20
35.0000571154
11
-33.6595760008
21
34.6596257422
0
LINE
5
27B
100
AcDbEntity
8
0
100
AcDbLine
62
0
6
CONTINUOUS
10
-32.5000571154
20
36.5000000000
11
-32.1596268489
21
36.1595760008
0
LINE
5
27C
100
AcDbEntity
8
0
100
AcDbLine
62
0
6
CONTINUOUS
10
7.8500000000
20
43.3000000000
11
7.8500000000
21
42.8000000000
0
LINE
5
27D
100
AcDbEntity
8
0
100
AcDbLine
62
0
6
CONTINUOUS
10
-34.0000000000
20
-45.0000571154
11
-33.6595760008
21
-44.6596268489
0
LINE
5
27E
100
AcDbEntity
8
0
100
AcDbLine
62
0
6
CONTINUOUS
10
8.3500000000
20
43.7401213014
11
8.3500000000
21
43.3000000000
0
LINE
5
27F
100
AcDbEntity
8
0
100
AcDbLine
62
0
6
CONTINUOUS
10
9.4500000000
20
41.5000000000
11
9.4500000000
21
41.0000000000
0
LINE
5
280
100
AcDbEntity
8
0
100
AcDbLine
62
0
6
CONTINUOUS
10
10.1000000000
20
41.9669162206
11
10.1000000000
21
41.5000000000
0
LINE
5
281
100
AcDbEntity
8
0
100
AcDbLine
62
0
6
CONTINUOUS
10
11.3500000000
20
39.7000000000
11
11.3500000000
21
39.2000000000
0
LINE
5
282
100
AcDbEntity
8
0
100
AcDbLine
62
0
6
CONTINUOUS
10
11.5000000000
20
36.3000000000
11
11.5000000000
21
36.2608399626
0
LINE
5
283
100
AcDbEntity
8
0
100
AcDbLine
62
0
6
CONTINUOUS
10
11.8500000000
20
40.1267238418
11
11.8500000000
21
39.7000000000
0
LINE
5
284
100
AcDbEntity
8
0
100
AcDbLine
62
0
6
CONTINUOUS
10
-32.5000571154
20
-46.5000000000
11
-32.1596257422
21
-46.1595760008
0
LINE
5
285
100
AcDbEntity
8
0
100
AcDbLine
62
0
6
CONTINUOUS
10
14.0000000000
20
37.7226076521
11
14.0000000000
21
36.3000000000
0
LINE
5
286
100
AcDbEntity
8
0
100
AcDbLine
62
0
6
CONTINUOUS
10
15.0000000000
20
-46.2032864951
11
15.0000000000
21
-44.2500000000
0
LINE
5
287
100
AcDbEntity
8
0
100
AcDbLine
62
0
6
CONTINUOUS
10
20.0000000000
20
-44.2500000000
11
20.0000000000
21
-46.2032864951
0
LINE
5
288
100
AcDbEntity
8
0
100
AcDbLine
62
0
6
CONTINUOUS
10
22.2500000000
20
-42.2000000000
11
22.2500000000
21
-43.2500000000
0
LINE
5
289
100
AcDbEntity
8
0
100
AcDbLine
62
0
6
CONTINUOUS
10
22.2500000000
20
-43.3500000000
11
22.2500000000
21
-44.4000000000
0
LINE
5
28A
100
AcDbEntity
8
0
100
AcDbLine
62
0
6
CONTINUOUS
10
24.2500000000
20
30.5000000000
11
24.2500000000
21
27.5000000000
0
LINE
5
28B
100
AcDbEntity
8
0
100
AcDbLine
62
0
6
CONTINUOUS
10
25.0000000000
20
30.5000000000
11
25.0000000000
21
27.5000000000
0
LINE
5
28C
100
AcDbEntity
8
0
100
AcDbLine
62
0
6
CONTINUOUS
10
25.3000000000
20
30.5000000000
11
25.3000000000
21
27.5000000000
0
LINE
5
28D
100
AcDbEntity
8
0
100
AcDbLine
62
0
6
CONTINUOUS
10
26.0500000000
20
-43.4000000000
11
26.0500000000
21
-43.2000000000
0
LINE
5
28E
100
AcDbEntity
8
0
100
AcDbLine
62
0
6
CONTINUOUS
10
26.2500000000
20
-45.0000000000
11
26.2500000000
21
-34.9812466511
0
LINE
5
28F
100
AcDbEntity
8
0
100
AcDbLine
62
0
6
CONTINUOUS
10
26.2500000000
20
-29.0187533489
11
26.2500000000
21
25.2639320225
0
LINE
5
290
100
AcDbEntity
8
0
100
AcDbLine
62
0
6
CONTINUOUS
10
26.4500000000
20
-29.8025936017
11
26.4500000000
21
25.2505556242
0
LINE
5
291
100
AcDbEntity
8
0
100
AcDbLine
62
0
6
CONTINUOUS
10
26.4500000000
20
-34.1974063983
11
26.4500000000
21
-45.0000000000
0
LINE
5
292
100
AcDbEntity
8
0
100
AcDbLine
62
0
6
CONTINUOUS
10
26.5500000000
20
-29.8719504519
11
26.5500000000
21
25.2505556242
0
LINE
5
293
100
AcDbEntity
8
0
100
AcDbLine
62
0
6
CONTINUOUS
10
26.5500000000
20
-34.1280495481
11
26.5500000000
21
-45.0000000000
0
LINE
5
294
100
AcDbEntity
8
0
100
AcDbLine
62
0
6
CONTINUOUS
10
26.7500000000
20
-45.0000000000
11
26.7500000000
21
-34.7180565842
0
LINE
5
295
100
AcDbEntity
8
0
100
AcDbLine
62
0
6
CONTINUOUS
10
26.7500000000
20
-29.2819434158
11
26.7500000000
21
25.2639320225
0
LINE
5
296
100
AcDbEntity
8
0
100
AcDbLine
62
0
6
CONTINUOUS
10
-32.1000000000
20
24.7500946387
11
-31.0500000000
21
24.7500946387
0
LINE
5
297
100
AcDbEntity
8
0
100
AcDbLine
62
0
6
CONTINUOUS
10
-30.9500000000
20
24.7500946387
11
-29.9000000000
21
24.7500946387
0
LINE
5
298
100
AcDbEntity
8
0
100
AcDbLine
62
0
6
CONTINUOUS
10
27.7000000000
20
27.5000000000
11
27.7000000000
21
30.5000000000
0
LINE
5
299
100
AcDbEntity
8
0
100
AcDbLine
62
0
6
CONTINUOUS
10
28.0000000000
20
27.5000000000
11
28.0000000000
21
30.5000000000
0
LINE
5
29A
100
AcDbEntity
8
0
100
AcDbLine
62
0
6
CONTINUOUS
10
28.7500000000
20
27.5000000000
11
28.7500000000
21
30.5000000000
0
LINE
5
29B
100
AcDbEntity
8
0
100
AcDbLine
62
0
6
CONTINUOUS
10
25.3000000000
20
27.5000000000
11
25.0000000000
21
27.5000000000
0
LINE
5
29C
100
AcDbEntity
8
0
100
AcDbLine
62
0
6
CONTINUOUS
10
27.7000000000
20
27.5000000000
11
28.0000000000
21
27.5000000000
0
LINE
5
29D
100
AcDbEntity
8
0
100
AcDbLine
62
0
6
CONTINUOUS
10
-30.9000000000
20
28.5500000000
11
-31.1000000000
21
28.5500000000
0
LINE
5
29E
100
AcDbEntity
8
0
100
AcDbLine
62
0
6
CONTINUOUS
10
24.2500000000
20
28.7500000000
11
-32.5000000000
21
28.7500000000
0
LINE
5
29F
100
AcDbEntity
8
0
100
AcDbLine
62
0
6
CONTINUOUS
10
-32.5000000000
20
28.9500000000
11
24.2500000000
21
28.9500000000
0
LINE
5
2A0
100
AcDbEntity
8
0
100
AcDbLine
62
0
6
CONTINUOUS
10
-32.5000000000
20
29.0500000000
11
24.2500000000
21
29.0500000000
0
LINE
5
2A1
100
AcDbEntity
8
0
100
AcDbLine
62
0
6
CONTINUOUS
10
24.2500000000
20
29.2500000000
11
-32.5000000000
21
29.2500000000
0
LINE
5
2A2
100
AcDbEntity
8
0
100
AcDbLine
62
0
6
CONTINUOUS
10
25.3000000000
20
30.5000000000
11
25.0000000000
21
30.5000000000
0
LINE
5
2A3
100
AcDbEntity
8
0
100
AcDbLine
62
0
6
CONTINUOUS
10
27.7000000000
20
30.5000000000
11
28.0000000000
21
30.5000000000
0
LINE
5
2A4
100
AcDbEntity
8
0
100
AcDbLine
62
0
6
CONTINUOUS
10
32.1596331162
20
35.1596140778
11
32.1596331162
21
36.1595760008
0
LINE
5
2A5
100
AcDbEntity
8
0
100
AcDbLine
62
0
6
CONTINUOUS
10
32.1596331162
20
-45.1596140778
11
32.1596331162
21
-46.1595760008
0
LINE
5
2A6
100
AcDbEntity
8
0
100
AcDbLine
62
0
6
CONTINUOUS
10
32.6596140778
20
-44.6596331162
11
32.6596140778
21
34.6596331162
0
LINE
5
2A7
100
AcDbEntity
8
0
100
AcDbLine
62
0
6
CONTINUOUS
10
33.6595760008
20
-44.6596257422
11
33.6595760008
21
34.6596268489
0
LINE
5
2A8
100
AcDbEntity
8
0
100
AcDbLine
62
0
6
CONTINUOUS
10
34.0000000000
20
35.0000000000
11
34.0000000000
21
-45.0000000000
0
LINE
5
2A9
100
AcDbEntity
8
0
100
AcDbLine
62
0
6
CONTINUOUS
10
11.9088139940
20
36.2793780645
11
11.9087362241
21
36.2793688128
0
LINE
5
2AA
100
AcDbEntity
8
0
100
AcDbLine
62
0
6
CONTINUOUS
10
11.9084924077
20
36.2793403925
11
11.9076390687
21
36.2792448019
0
LINE
5
2AB
100
AcDbEntity
8
0
100
AcDbLine
62
0
6
CONTINUOUS
10
11.9076390687
20
36.2792448019
11
11.9063267940
21
36.2791048262
0
LINE
5
2AC
100
AcDbEntity
8
0
100
AcDbLine
62
0
6
CONTINUOUS
10
11.9063267940
20
36.2791048262
11
11.9045790310
21
36.2789270614
0
LINE
5
2AD
100
AcDbEntity
8
0
100
AcDbLine
62
0
6
CONTINUOUS
10
11.9045790310
20
36.2789270614
11
11.9011736541
21
36.2786002167
0
LINE
5
2AE
100
AcDbEntity
8
0
100
AcDbLine
62
0
6
CONTINUOUS
10
11.9011736541
20
36.2786002167
11
11.8984060505
21
36.2783486371
0
LINE
5
2AF
100
AcDbEntity
8
0
100
AcDbLine
62
0
6
CONTINUOUS
10
-15.0000000000
20
34.2500000000
11
-20.0000000000
21
34.2500000000
0
LINE
5
2B0
100
AcDbEntity
8
0
100
AcDbLine
62
0
6
CONTINUOUS
10
-32.6596140778
20
34.6596331162
11
-33.6595760008
21
34.6596331162
0
LINE
5
2B1
100
AcDbEntity
8
0
100
AcDbLine
62
0
6
CONTINUOUS
10
32.6596140778
20
34.6596331162
11
33.6595760008
21
34.6596331162
0
LINE
5
2B2
100
AcDbEntity
8
0
100
AcDbLine
62
0
6
CONTINUOUS
10
-11.8984074303
20
36.2783487599
11
-11.9023143935
21
36.2787073041
0
LINE
5
2B3
100
AcDbEntity
8
0
100
AcDbLine
62
0
6
CONTINUOUS
10
-11.9023143935
20
36.2787073041
11
-11.9053512073
21
36.2790045777
0
LINE
5
2B4
100
AcDbEntity
8
0
100
AcDbLine
62
0
6
CONTINUOUS
10
-11.9053512073
20
36.2790045777
11
-11.9068742269
21
36.2791624023
0
LWPOLYLINE
5
2B5
100
AcDbEntity
8
0
100
AcDbPolyline
62
0
6
CONTINUOUS
90
3
70
0
10
-11.9068742269
20
36.2791624023
10
-11.9079831932
20
36.2792827878
10
-11.9082249214
20
36.2793098942
0
LINE
5
2B6
100
AcDbEntity
8
0
100
AcDbLine
62
0
6
CONTINUOUS
10
-1.5117241442
20
-40.5896551579
11
-1.8034482822
21
-40.7220689774
0
LINE
5
2B7
100
AcDbEntity
8
0
100
AcDbLine
62
0
6
CONTINUOUS
10
11.8984060505
20
36.2783486371
11
11.8935437592
21
36.2779294999
0
LINE
5
2B8
100
AcDbEntity
8
0
100
AcDbLine
62
0
6
CONTINUOUS
10
11.8935437592
20
36.2779294999
11
11.8878539083
21
36.2774678034
0
LINE
5
2B9
100
AcDbEntity
8
0
100
AcDbLine
62
0
6
CONTINUOUS
10
11.8878539083
20
36.2774678034
11
11.8790198306
21
36.2767977055
0
LINE
5
2BA
100
AcDbEntity
8
0
100
AcDbLine
62
0
6
CONTINUOUS
10
11.8790198306
20
36.2767977055
11
11.8687913805
21
36.2760762352
0
LINE
5
2BB
100
AcDbEntity
8
0
100
AcDbLine
62
0
6
CONTINUOUS
10
11.8687913805
20
36.2760762352
11
11.8540793020
21
36.2751158497
0
LINE
5
2BC
100
AcDbEntity
8
0
100
AcDbLine
62
0
6
CONTINUOUS
10
11.8540793020
20
36.2751158497
11
11.8372394219
21
36.2741019735
0
LINE
5
2BD
100
AcDbEntity
8
0
100
AcDbLine
62
0
6
CONTINUOUS
10
11.8372394219
20
36.2741019735
11
11.8142196033
21
36.2728275055
0
LINE
5
2BE
100
AcDbEntity
8
0
100
AcDbLine
62
0
6
CONTINUOUS
10
11.8142196033
20
36.2728275055
11
11.7834470281
21
36.2712749331
0
LINE
5
2BF
100
AcDbEntity
8
0
100
AcDbLine
62
0
6
CONTINUOUS
10
11.7834470281
20
36.2712749331
11
11.7429877267
21
36.2694280050
0
LINE
5
2C0
100
AcDbEntity
8
0
100
AcDbLine
62
0
6
CONTINUOUS
10
11.7429877267
20
36.2694280050
11
11.6901781225
21
36.2672596615
0
LINE
5
2C1
100
AcDbEntity
8
0
100
AcDbLine
62
0
6
CONTINUOUS
10
11.6901781225
20
36.2672596615
11
11.6137065729
21
36.2644670897
0
LINE
5
2C2
100
AcDbEntity
8
0
100
AcDbLine
62
0
6
CONTINUOUS
10
11.6137065729
20
36.2644670897
11
11.5032633537
21
36.2609368937
0
LINE
5
2C3
100
AcDbEntity
8
0
100
AcDbLine
62
0
6
CONTINUOUS
10
11.5032633537
20
36.2609368937
11
11.3412496677
21
36.2564770011
0
LINE
5
2C4
100
AcDbEntity
8
0
100
AcDbLine
62
0
6
CONTINUOUS
10
11.3412496677
20
36.2564770011
11
11.1338089916
21
36.2515896510
0
LINE
5
2C5
100
AcDbEntity
8
0
100
AcDbLine
62
0
6
CONTINUOUS
10
11.1338089916
20
36.2515896510
11
10.8979135606
21
36.2467868200
0
LINE
5
2C6
100
AcDbEntity
8
0
100
AcDbLine
62
0
6
CONTINUOUS
10
10.8979135606
20
36.2467868200
11
10.6405196781
21
36.2421905142
0
LINE
5
2C7
100
AcDbEntity
8
0
100
AcDbLine
62
0
6
CONTINUOUS
10
10.6405196781
20
36.2421905142
11
10.4621085881
21
36.2393050001
0
LINE
5
2C8
100
AcDbEntity
8
0
100
AcDbLine
62
0
6
CONTINUOUS
10
10.4621085881
20
36.2393050001
11
10.3423485169
21
36.2374821068
0
LINE
5
2C9
100
AcDbEntity
8
0
100
AcDbLine
62
0
6
CONTINUOUS
10
10.3423485169
20
36.2374821068
11
10.2159610188
21
36.2356458236
0
LINE
5
2CA
100
AcDbEntity
8
0
100
AcDbLine
62
0
6
CONTINUOUS
10
10.2159610188
20
36.2356458236
11
10.1368488095
21
36.2345382150
0
LINE
5
2CB
100
AcDbEntity
8
0
100
AcDbLine
62
0
6
CONTINUOUS
10
10.1368488095
20
36.2345382150
11
10.0274304626
21
36.2330552958
0
LINE
5
2CC
100
AcDbEntity
8
0
100
AcDbLine
62
0
6
CONTINUOUS
10
10.0274304626
20
36.2330552958
11
9.9423453412
21
36.2319389557
0
LINE
5
2CD
100
AcDbEntity
8
0
100
AcDbLine
62
0
6
CONTINUOUS
10
9.9423453412
20
36.2319389557
11
9.8546097386
21
36.2308194242
0
LINE
5
2CE
100
AcDbEntity
8
0
100
AcDbLine
62
0
6
CONTINUOUS
10
9.8546097386
20
36.2308194242
11
9.7641692234
21
36.2296970948
0
LINE
5
2CF
100
AcDbEntity
8
0
100
AcDbLine
62
0
6
CONTINUOUS
10
9.7641692234
20
36.2296970948
11
9.6709689441
21
36.2285723875
0
LINE
5
2D0
100
AcDbEntity
8
0
100
AcDbLine
62
0
6
CONTINUOUS
10
9.6709689441
20
36.2285723875
11
9.5749534887
21
36.2274457154
0
LINE
5
2D1
100
AcDbEntity
8
0
100
AcDbLine
62
0
6
CONTINUOUS
10
9.5749534887
20
36.2274457154
11
9.5093518157
21
36.2266937122
0
LINE
5
2D2
100
AcDbEntity
8
0
100
AcDbLine
62
0
6
CONTINUOUS
10
9.5093518157
20
36.2266937122
11
9.4085207503
21
36.2255647111
0
LINE
5
2D3
100
AcDbEntity
8
0
100
AcDbLine
62
0
6
CONTINUOUS
10
9.4085207503
20
36.2255647111
11
8.8977041897
21
36.2202927368
0
LINE
5
2D4
100
AcDbEntity
8
0
100
AcDbLine
62
0
6
CONTINUOUS
10
8.8977041897
20
36.2202927368
11
8.3549350901
21
36.2153838217
0
LINE
5
2D5
100
AcDbEntity
8
0
100
AcDbLine
62
0
6
CONTINUOUS
10
8.3549350901
20
36.2153838217
11
7.7287020781
21
36.2104394824
0
LINE
5
2D6
100
AcDbEntity
8
0
100
AcDbLine
62
0
6
CONTINUOUS
10
7.7287020781
20
36.2104394824
11
7.0602450128
21
36.2058672781
0
LINE
5
2D7
100
AcDbEntity
8
0
100
AcDbLine
62
0
6
CONTINUOUS
10
7.0602450128
20
36.2058672781
11
6.3603129438
21
36.2017409081
0
LINE
5
2D8
100
AcDbEntity
8
0
100
AcDbLine
62
0
6
CONTINUOUS
10
6.3603129438
20
36.2017409081
11
5.5734323579
21
36.1977994199
0
LINE
5
2D9
100
AcDbEntity
8
0
100
AcDbLine
62
0
6
CONTINUOUS
10
5.5734323579
20
36.1977994199
11
4.7817938889
21
36.1944908480
0
LINE
5
2DA
100
AcDbEntity
8
0
100
AcDbLine
62
0
6
CONTINUOUS
10
4.7817938889
20
36.1944908480
11
3.9062420522
21
36.1915196690
0
LINE
5
2DB
100
AcDbEntity
8
0
100
AcDbLine
62
0
6
CONTINUOUS
10
3.9062420522
20
36.1915196690
11
3.0301767964
21
36.1892087392
0
LINE
5
2DC
100
AcDbEntity
8
0
100
AcDbLine
62
0
6
CONTINUOUS
10
3.0301767964
20
36.1892087392
11
2.0629064659
21
36.1873733107
0
LINE
5
2DD
100
AcDbEntity
8
0
100
AcDbLine
62
0
6
CONTINUOUS
10
2.0629064659
20
36.1873733107
11
1.1251316993
21
36.1862752176
0
LINE
5
2DE
100
AcDbEntity
8
0
100
AcDbLine
62
0
6
CONTINUOUS
10
1.1251316993
20
36.1862752176
11
0.1146715967
21
36.1858184872
0
LINE
5
2DF
100
AcDbEntity
8
0
100
AcDbLine
62
0
6
CONTINUOUS
10
32.1596331162
20
35.1596140778
11
-15.0000000000
21
35.1596140778
0
LINE
5
2E0
100
AcDbEntity
8
0
100
AcDbLine
62
0
6
CONTINUOUS
10
-20.0000000000
20
35.1596140778
11
-32.1596331162
21
35.1596140778
0
LINE
5
2E1
100
AcDbEntity
8
0
100
AcDbLine
62
0
6
CONTINUOUS
10
-15.0000000000
20
35.2500000000
11
-20.0000000000
21
35.2500000000
0
LINE
5
2E2
100
AcDbEntity
8
0
100
AcDbLine
62
0
6
CONTINUOUS
10
32.1596257422
20
36.1595760008
11
-15.0000000000
21
36.1595760008
0
LINE
5
2E3
100
AcDbEntity
8
0
100
AcDbLine
62
0
6
CONTINUOUS
10
-20.0000000000
20
36.1595760008
11
-32.1596268489
21
36.1595760008
0
LINE
5
2E4
100
AcDbEntity
8
0
100
AcDbLine
62
0
6
CONTINUOUS
10
-15.0000000000
20
36.2032864951
11
-20.0000000000
21
36.2032864951
0
LINE
5
2E5
100
AcDbEntity
8
0
100
AcDbLine
62
0
6
CONTINUOUS
10
14.0000000000
20
36.3000000000
11
-14.0000000000
21
36.3000000000
0
LINE
5
2E6
100
AcDbEntity
8
0
100
AcDbLine
62
0
6
CONTINUOUS
10
-32.5000000000
20
36.5000000000
11
-14.0000000000
21
36.5000000000
0
LINE
5
2E7
100
AcDbEntity
8
0
100
AcDbLine
62
0
6
CONTINUOUS
10
14.0000000000
20
36.5000000000
11
32.5000000000
21
36.5000000000
0
LINE
5
2E8
100
AcDbEntity
8
0
100
AcDbLine
62
0
6
CONTINUOUS
10
-14.0000000000
20
37.7226076521
11
14.0000000000
21
37.7226076521
0
LINE
5
2E9
100
AcDbEntity
8
0
100
AcDbLine
62
0
6
CONTINUOUS
10
-13.2588190451
20
38.6885334784
11
13.2588190451
21
38.6885334784
0
LINE
5
2EA
100
AcDbEntity
8
0
100
AcDbLine
62
0
6
CONTINUOUS
10
0.1146715967
20
36.1858184872
11
-1.0345301545
21
36.1862037490
0
LINE
5
2EB
100
AcDbEntity
8
0
100
AcDbLine
62
0
6
CONTINUOUS
10
-1.0345301545
20
36.1862037490
11
-2.2295684024
21
36.1876378019
0
LINE
5
2EC
100
AcDbEntity
8
0
100
AcDbLine
62
0
6
CONTINUOUS
10
-2.2295684024
20
36.1876378019
11
-3.3287835486
21
36.1899251398
0
LINE
5
2ED
100
AcDbEntity
8
0
100
AcDbLine
62
0
6
CONTINUOUS
10
-3.3287835486
20
36.1899251398
11
-4.3363727575
21
36.1928932273
0
LINE
5
2EE
100
AcDbEntity
8
0
100
AcDbLine
62
0
6
CONTINUOUS
10
-4.3363727575
20
36.1928932273
11
-5.2586502967
21
36.1964090868
0
LINE
5
2EF
100
AcDbEntity
8
0
100
AcDbLine
62
0
6
CONTINUOUS
10
-5.2586502967
20
36.1964090868
11
-6.2430425740
21
36.2011090175
0
LINE
5
2F0
100
AcDbEntity
8
0
100
AcDbLine
62
0
6
CONTINUOUS
10
-6.2430425740
20
36.2011090175
11
-7.0502781152
21
36.2058040141
0
LINE
5
2F1
100
AcDbEntity
8
0
100
AcDbLine
62
0
6
CONTINUOUS
10
-7.0502781152
20
36.2058040141
11
-7.7632417708
21
36.2106944417
0
LINE
5
2F2
100
AcDbEntity
8
0
100
AcDbLine
62
0
6
CONTINUOUS
10
-7.7632417708
20
36.2106944417
11
-8.4390326572
21
36.2161034169
0
LINE
5
2F3
100
AcDbEntity
8
0
100
AcDbLine
62
0
6
CONTINUOUS
10
-8.4390326572
20
36.2161034169
11
-9.6463596570
21
36.2282805901
0
LINE
5
2F4
100
AcDbEntity
8
0
100
AcDbLine
62
0
6
CONTINUOUS
10
-9.6463596570
20
36.2282805901
11
-10.0475678236
21
36.2333241153
0
LINE
5
2F5
100
AcDbEntity
8
0
100
AcDbLine
62
0
6
CONTINUOUS
10
-10.0475678236
20
36.2333241153
11
-10.4267595798
21
36.2387580343
0
LINE
5
2F6
100
AcDbEntity
8
0
100
AcDbLine
62
0
6
CONTINUOUS
10
-10.4267595798
20
36.2387580343
11
-10.7526237886
21
36.2441225729
0
LINE
5
2F7
100
AcDbEntity
8
0
100
AcDbLine
62
0
6
CONTINUOUS
10
-10.7526237886
20
36.2441225729
11
-11.0097148266
21
36.2489803903
0
LINE
5
2F8
100
AcDbEntity
8
0
100
AcDbLine
62
0
6
CONTINUOUS
10
-11.0097148266
20
36.2489803903
11
-11.2269496008
21
36.2536916009
0
LINE
5
2F9
100
AcDbEntity
8
0
100
AcDbLine
62
0
6
CONTINUOUS
10
-11.2269496008
20
36.2536916009
11
-11.4064041798
21
36.2581875641
0
LINE
5
2FA
100
AcDbEntity
8
0
100
AcDbLine
62
0
6
CONTINUOUS
10
-11.4064041798
20
36.2581875641
11
-11.5504420468
21
36.2623849488
0
LINE
5
2FB
100
AcDbEntity
8
0
100
AcDbLine
62
0
6
CONTINUOUS
10
-11.5504420468
20
36.2623849488
11
-11.6450579312
21
36.2655702733
0
LINE
5
2FC
100
AcDbEntity
8
0
100
AcDbLine
62
0
6
CONTINUOUS
10
-11.6450579312
20
36.2655702733
11
-11.7138512972
21
36.2682027677
0
LINE
5
2FD
100
AcDbEntity
8
0
100
AcDbLine
62
0
6
CONTINUOUS
10
-11.7138512972
20
36.2682027677
11
-11.7644756939
21
36.2703851560
0
LINE
5
2FE
100
AcDbEntity
8
0
100
AcDbLine
62
0
6
CONTINUOUS
10
-11.7644756939
20
36.2703851560
11
-11.8014678200
21
36.2721657790
0
LINE
5
2FF
100
AcDbEntity
8
0
100
AcDbLine
62
0
6
CONTINUOUS
10
-11.8014678200
20
36.2721657790
11
-11.8281276579
21
36.2735838775
0
LINE
5
300
100
AcDbEntity
8
0
100
AcDbLine
62
0
6
CONTINUOUS
10
-11.8281276579
20
36.2735838775
11
-11.8470395982
21
36.2746822578
0
LINE
5
301
100
AcDbEntity
8
0
100
AcDbLine
62
0
6
CONTINUOUS
10
-11.8470395982
20
36.2746822578
11
-11.8632070483
21
36.2757021562
0
LINE
5
302
100
AcDbEntity
8
0
100
AcDbLine
62
0
6
CONTINUOUS
10
-11.8632070483
20
36.2757021562
11
-11.8743031600
21
36.2764586483
0
LINE
5
303
100
AcDbEntity
8
0
100
AcDbLine
62
0
6
CONTINUOUS
10
-11.8743031600
20
36.2764586483
11
-11.8838460973
21
36.2771575580
0
LINE
5
304
100
AcDbEntity
8
0
100
AcDbLine
62
0
6
CONTINUOUS
10
-11.8838460973
20
36.2771575580
11
-11.8900092327
21
36.2776395150
0
LINE
5
305
100
AcDbEntity
8
0
100
AcDbLine
62
0
6
CONTINUOUS
10
-11.8900092327
20
36.2776395150
11
-11.8953289686
21
36.2780804079
0
LINE
5
306
100
AcDbEntity
8
0
100
AcDbLine
62
0
6
CONTINUOUS
10
-11.8953289686
20
36.2780804079
11
-11.8984074303
21
36.2783487599
0
LINE
5
307
100
AcDbEntity
8
0
100
AcDbLine
62
0
6
CONTINUOUS
10
0.8055173159
20
-40.5524138033
11
0.4910345674
21
-40.6496551901
0
LINE
5
308
100
AcDbEntity
8
0
100
AcDbLine
62
0
6
CONTINUOUS
10
-11.3500000000
20
39.2000000000
11
-13.2588190451
21
38.6885334784
0
LINE
5
309
100
AcDbEntity
8
0
100
AcDbLine
62
0
6
CONTINUOUS
10
-9.4500000000
20
41.0000000000
11
-11.6276457135
21
40.4165015897
0
LINE
5
30A
100
AcDbEntity
8
0
100
AcDbLine
62
0
6
CONTINUOUS
10
11.3500000000
20
39.2000000000
11
-11.3500000000
21
39.2000000000
0
LINE
5
30B
100
AcDbEntity
8
0
100
AcDbLine
62
0
6
CONTINUOUS
10
11.8500000000
20
39.7000000000
11
-11.8500000000
21
39.7000000000
0
LINE
5
30C
100
AcDbEntity
8
0
100
AcDbLine
62
0
6
CONTINUOUS
10
-11.8500000000
20
40.1267238418
11
11.8500000000
21
40.1267238418
0
LINE
5
30D
100
AcDbEntity
8
0
100
AcDbLine
62
0
6
CONTINUOUS
10
-11.6276457135
20
40.4165015897
11
11.6276457135
21
40.4165015897
0
LINE
5
30E
100
AcDbEntity
8
0
100
AcDbLine
62
0
6
CONTINUOUS
10
9.4500000000
20
41.0000000000
11
-9.4500000000
21
41.0000000000
0
LINE
5
30F
100
AcDbEntity
8
0
100
AcDbLine
62
0
6
CONTINUOUS
10
10.1000000000
20
41.5000000000
11
-10.1000000000
21
41.5000000000
0
LINE
5
310
100
AcDbEntity
8
0
100
AcDbLine
62
0
6
CONTINUOUS
10
-10.1000000000
20
41.9669162206
11
10.1000000000
21
41.9669162206
0
LINE
5
311
100
AcDbEntity
8
0
100
AcDbLine
62
0
6
CONTINUOUS
10
-9.8776457135
20
42.2566939685
11
9.8776457135
21
42.2566939685
0
LINE
5
312
100
AcDbEntity
8
0
100
AcDbLine
62
0
6
CONTINUOUS
10
11.3500000000
20
39.2000000000
11
13.2588190451
21
38.6885334784
0
LINE
5
313
100
AcDbEntity
8
0
100
AcDbLine
62
0
6
CONTINUOUS
10
9.4500000000
20
41.0000000000
11
11.6276457135
21
40.4165015897
0
LINE
5
314
100
AcDbEntity
8
0
100
AcDbLine
62
0
6
CONTINUOUS
10
-7.8500000000
20
42.8000000000
11
-9.8776457135
21
42.2566939685
0
LINE
5
315
100
AcDbEntity
8
0
100
AcDbLine
62
0
6
CONTINUOUS
10
-6.0000000000
20
44.6000000000
11
-8.1276457135
21
44.0298990493
0
LINE
5
316
100
AcDbEntity
8
0
100
AcDbLine
62
0
6
CONTINUOUS
10
-1.0000000000
20
46.5000000000
11
-3.8776457135
21
45.7289371550
0
LINE
5
317
100
AcDbEntity
8
0
100
AcDbLine
62
0
6
CONTINUOUS
10
7.8500000000
20
42.8000000000
11
-7.8500000000
21
42.8000000000
0
LINE
5
318
100
AcDbEntity
8
0
100
AcDbLine
62
0
6
CONTINUOUS
10
8.3500000000
20
43.3000000000
11
-8.3500000000
21
43.3000000000
0
LINE
5
319
100
AcDbEntity
8
0
100
AcDbLine
62
0
6
CONTINUOUS
10
-8.3500000000
20
43.7401213014
11
8.3500000000
21
43.7401213014
0
LINE
5
31A
100
AcDbEntity
8
0
100
AcDbLine
62
0
6
CONTINUOUS
10
-8.1276457135
20
44.0298990493
11
8.1276457135
21
44.0298990493
0
LINE
5
31B
100
AcDbEntity
8
0
100
AcDbLine
62
0
6
CONTINUOUS
10
6.0000000000
20
44.6000000000
11
-6.0000000000
21
44.6000000000
0
LINE
5
31C
100
AcDbEntity
8
0
100
AcDbLine
62
0
6
CONTINUOUS
10
4.1000000000
20
45.1000000000
11
-4.1000000000
21
45.1000000000
0
LINE
5
31D
100
AcDbEntity
8
0
100
AcDbLine
62
0
6
CONTINUOUS
10
-4.1000000000
20
45.4391594071
11
4.1000000000
21
45.4391594071
0
LINE
5
31E
100
AcDbEntity
8
0
100
AcDbLine
62
0
6
CONTINUOUS
10
-3.8776457135
20
45.7289371550
11
3.8776457135
21
45.7289371550
0
LINE
5
31F
100
AcDbEntity
8
0
100
AcDbLine
62
0
6
CONTINUOUS
10
1.0000000000
20
46.5000000000
11
-1.0000000000
21
46.5000000000
0
LINE
5
320
100
AcDbEntity
8
0
100
AcDbLine
62
0
6
CONTINUOUS
10
7.8500000000
20
42.8000000000
11
9.8776457135
21
42.2566939685
0
LINE
5
321
100
AcDbEntity
8
0
100
AcDbLine
62
0
6
CONTINUOUS
10
6.0000000000
20
44.6000000000
11
8.1276457135
21
44.0298990493
0
LINE
5
322
100
AcDbEntity
8
0
100
AcDbLine
62
0
6
CONTINUOUS
10
1.0000000000
20
46.5000000000
11
3.8776457135
21
45.7289371550
0
ARC
5
323
100
AcDbEntity
8
0
100
AcDbCircle
62
0
6
CONTINUOUS
10
3.8000000000
20
45.4391594071
40
0.3000000000
100
AcDbArc
50
0.0000000000
51
75.0000000076
0
ARC
5
324
100
AcDbEntity
8
0
100
AcDbCircle
62
0
6
CONTINUOUS
10
-3.8000000000
20
45.4391594071
40
0.3000000000
100
AcDbArc
50
104.9999999977
51
180.0000000000
0
ARC
5
325
100
AcDbEntity
8
0
100
AcDbCircle
62
0
6
CONTINUOUS
10
8.0500000000
20
43.7401213014
40
0.3000000000
100
AcDbArc
50
0.0000000000
51
75.0000000002
0
ARC
5
326
100
AcDbEntity
8
0
100
AcDbCircle
62
0
6
CONTINUOUS
10
-8.0500000000
20
43.7401213014
40
0.3000000000
100
AcDbArc
50
104.9999999999
51
180.0000000000
0
ARC
5
327
100
AcDbEntity
8
0
100
AcDbCircle
62
0
6
CONTINUOUS
10
9.8000000000
20
41.9669162206
40
0.3000000000
100
AcDbArc
50
0.0000000000
51
75.0000000001
0
ARC
5
328
100
AcDbEntity
8
0
100
AcDbCircle
62
0
6
CONTINUOUS
10
-9.8000000000
20
41.9669162206
40
0.3000000000
100
AcDbArc
50
105.0000000000
51
180.0000000000
0
ARC
5
329
100
AcDbEntity
8
0
100
AcDbCircle
62
0
6
CONTINUOUS
10
11.5500000000
20
40.1267238418
40
0.3000000000
100
AcDbArc
50
0.0000000000
51
75.0000000001
0
ARC
5
32A
100
AcDbEntity
8
0
100
AcDbCircle
62
0
6
CONTINUOUS
10
-11.5500000000
20
40.1267238418
40
0.3000000000
100
AcDbArc
50
104.9999999999
51
180.0000000000
0
ARC
5
32B
100
AcDbEntity
8
0
100
AcDbCircle
62
0
6
CONTINUOUS
10
13.0000000000
20
37.7226076521
40
1.0000000000
100
AcDbArc
50
0.0000000000
51
75.0000000000
0
ARC
5
32C
100
AcDbEntity
8
0
100
AcDbCircle
62
0
6
CONTINUOUS
10
-13.0000000000
20
37.7226076521
40
1.0000000000
100
AcDbArc
50
105.0000000000
51
180.0000000000
0
ARC
5
32D
100
AcDbEntity
8
0
100
AcDbCircle
62
0
6
CONTINUOUS
10
-28.0000000000
20
-39.0000000000
40
2.2500000000
100
AcDbArc
50
90.0000000000
51
270.0000000000
0
ARC
5
32E
100
AcDbEntity
8
0
100
AcDbCircle
62
0
6
CONTINUOUS
10
-25.0000000000
20
-39.0000000000
40
2.2500000000
100
AcDbArc
50
270.0000000000
51
90.0000000000
0
ARC
5
32F
100
AcDbEntity
8
0
100
AcDbCircle
62
0
6
CONTINUOUS
10
26.5000000000
20
30.5000000000
40
2.2500000000
100
AcDbArc
50
0.0000000000
51
180.0000000000
0
ARC
5
330
100
AcDbEntity
8
0
100
AcDbCircle
62
0
6
CONTINUOUS
10
26.5000000000
20
27.5000000000
40
2.2500000000
100
AcDbArc
50
180.0000000000
51
360.0000000000
0
CIRCLE
5
331
100
AcDbEntity
8
0
100
AcDbCircle
62
0
6
CONTINUOUS
10
0.0000000000
20
-5.0000000000
40
11.5000000000
0
CIRCLE
5
332
100
AcDbEntity
8
0
100
AcDbCircle
62
0
6
CONTINUOUS
10
0.0000000000
20
-32.0000000000
40
2.2500000000
0
CIRCLE
5
333
100
AcDbEntity
8
0
100
AcDbCircle
62
0
6
CONTINUOUS
10
0.0000000000
20
22.0000000000
40
2.2500000000
0
CIRCLE
5
334
100
AcDbEntity
8
0
100
AcDbCircle
62
0
6
CONTINUOUS
10
-20.0000000000
20
-5.0000000000
40
2.2500000000
0
CIRCLE
5
335
100
AcDbEntity
8
0
100
AcDbCircle
62
0
6
CONTINUOUS
10
20.0000000000
20
-5.0000000000
40
2.2500000000
0
ARC
5
336
100
AcDbEntity
8
0
100
AcDbCircle
62
0
6
CONTINUOUS
10
25.0000000000
20
-32.0000000000
40
2.6326972631
100
AcDbArc
50
303.4195759809
51
306.0683406692
0
ARC
5
337
100
AcDbEntity
8
0
100
AcDbCircle
62
0
6
CONTINUOUS
10
26.5000000000
20
30.5000000000
40
1.4999997289
100
AcDbArc
50
0.0000000000
51
180.0000000000
0
ARC
5
338
100
AcDbEntity
8
0
100
AcDbCircle
62
0
6
CONTINUOUS
10
26.5000000000
20
27.5000000000
40
1.4999997289
100
AcDbArc
50
180.0000000000
51
360.0000000000
0
ARC
5
339
100
AcDbEntity
8
0
100
AcDbCircle
62
0
6
CONTINUOUS
10
-28.0000000000
20
-39.0000000000
40
1.4999997289
100
AcDbArc
50
90.0000000000
51
270.0000000000
0
ARC
5
33A
100
AcDbEntity
8
0
100
AcDbCircle
62
0
6
CONTINUOUS
10
-25.0000000000
20
-39.0000000000
40
1.4999997289
100
AcDbArc
50
270.0000000000
51
90.0000000000
0
CIRCLE
5
33B
100
AcDbEntity
8
0
100
AcDbCircle
62
0
6
CONTINUOUS
10
25.0000000000
20
-32.0000000000
40
1.9008987014
0
CIRCLE
5
33C
100
AcDbEntity
8
0
100
AcDbCircle
62
0
6
CONTINUOUS
10
-25.0000000000
20
22.0000000000
40
1.9008987014
0
CIRCLE
5
33D
100
AcDbEntity
8
0
100
AcDbCircle
62
0
6
CONTINUOUS
10
0.0000000000
20
-5.0000000000
40
3.8405728739
0
CIRCLE
5
33E
100
AcDbEntity
8
0
100
AcDbCircle
62
0
6
CONTINUOUS
10
25.0000000000
20
-32.0000000000
40
2.2328495680
0
CIRCLE
5
33F
100
AcDbEntity
8
0
100
AcDbCircle
62
0
6
CONTINUOUS
10
-25.0000000000
20
22.0000000000
40
2.2328495680
0
ARC
5
340
100
AcDbEntity
8
0
100
AcDbCircle
62
0
6
CONTINUOUS
10
25.0000000000
20
-32.0000000000
40
3.2326972631
100
AcDbArc
50
67.2522960293
51
292.7477039707
0
ARC
5
341
100
AcDbEntity
8
0
100
AcDbCircle
62
0
6
CONTINUOUS
10
25.0000000000
20
-32.0000000000
40
3.2326972631
100
AcDbArc
50
302.7751509834
51
57.2248490166
0
ARC
5
342
100
AcDbEntity
8
0
100
AcDbCircle
62
0
6
CONTINUOUS
10
25.0000000000
20
-32.0000000000
40
2.6326972631
100
AcDbArc
50
53.9316593308
51
56.5804240191
0
ARC
5
343
100
AcDbEntity
8
0
100
AcDbCircle
62
0
6
CONTINUOUS
10
-25.0000000000
20
-39.0000000000
40
1.1999998741
100
AcDbArc
50
270.0000000000
51
90.0000000000
0
ARC
5
344
100
AcDbEntity
8
0
100
AcDbCircle
62
0
6
CONTINUOUS
10
-28.0000000000
20
-39.0000000000
40
1.1999998741
100
AcDbArc
50
90.0000000000
51
270.0000000000
0
ARC
5
345
100
AcDbEntity
8
0
100
AcDbCircle
62
0
6
CONTINUOUS
10
26.5000000000
20
30.5000000000
40
1.1999998741
100
AcDbArc
50
0.0000000000
51
180.0000000000
0
ARC
5
346
100
AcDbEntity
8
0
100
AcDbCircle
62
0
6
CONTINUOUS
10
26.5000000000
20
27.5000000000
40
1.1999998741
100
AcDbArc
50
180.0000000000
51
360.0000000000
0
CIRCLE
5
347
100
AcDbEntity
8
0
100
AcDbCircle
62
0
6
CONTINUOUS
10
0.0000000000
20
22.0000000000
40
1.1999998741
0
CIRCLE
5
348
100
AcDbEntity
8
0
100
AcDbCircle
62
0
6
CONTINUOUS
10
-20.0000000000
20
-5.0000000000
40
1.1999998741
0
CIRCLE
5
349
100
AcDbEntity
8
0
100
AcDbCircle
62
0
6
CONTINUOUS
10
20.0000000000
20
-5.0000000000
40
1.1999998741
0
CIRCLE
5
34A
100
AcDbEntity
8
0
100
AcDbCircle
62
0
6
CONTINUOUS
10
0.0000000000
20
-32.0000000000
40
1.1999998741
0
CIRCLE
5
34B
100
AcDbEntity
8
0
100
AcDbCircle
62
0
6
CONTINUOUS
10
0.0000000000
20
22.0000000000
40
1.4999997289
0
CIRCLE
5
34C
100
AcDbEntity
8
0
100
AcDbCircle
62
0
6
CONTINUOUS
10
-20.0000000000
20
-5.0000000000
40
1.4999997289
0
CIRCLE
5
34D
100
AcDbEntity
8
0
100
AcDbCircle
62
0
6
CONTINUOUS
10
20.0000000000
20
-5.0000000000
40
1.4999997289
0
CIRCLE
5
34E
100
AcDbEntity
8
0
100
AcDbCircle
62
0
6
CONTINUOUS
10
0.0000000000
20
-32.0000000000
40
1.4999997289
0
ARC
5
34F
100
AcDbEntity
8
0
100
AcDbCircle
62
0
6
CONTINUOUS
10
0.0000000000
20
-5.0000000000
40
10.8458548116
100
AcDbArc
50
273.9652158992
51
356.0347841008
0
ARC
5
350
100
AcDbEntity
8
0
100
AcDbCircle
62
0
6
CONTINUOUS
10
0.0000000000
20
-5.0000000000
40
10.8458548116
100
AcDbArc
50
183.9652158992
51
266.0347841008
0
ARC
5
351
100
AcDbEntity
8
0
100
AcDbCircle
62
0
6
CONTINUOUS
10
0.0000000000
20
-5.0000000000
40
11.2500000000
100
AcDbArc
50
3.8225537293
51
86.1774462707
0
ARC
5
352
100
AcDbEntity
8
0
100
AcDbCircle
62
0
6
CONTINUOUS
10
0.0000000000
20
-5.0000000000
40
11.2500000000
100
AcDbArc
50
273.8225537293
51
356.1774462707
0
ARC
5
353
100
AcDbEntity
8
0
100
AcDbCircle
62
0
6
CONTINUOUS
10
0.0000000000
20
-5.0000000000
40
11.2500000000
100
AcDbArc
50
183.8225537293
51
266.1774462707
0
ARC
5
354
100
AcDbEntity
8
0
100
AcDbCircle
62
0
6
CONTINUOUS
10
0.0000000000
20
-5.0000000000
40
11.2500000000
100
AcDbArc
50
93.8225537293
51
176.1774462707
0
ARC
5
355
100
AcDbEntity
8
0
100
AcDbCircle
62
0
6
CONTINUOUS
10
0.0000000000
20
-5.0000000000
40
10.8458548116
100
AcDbArc
50
3.9652158992
51
86.0347841008
0
ARC
5
356
100
AcDbEntity
8
0
100
AcDbCircle
62
0
6
CONTINUOUS
10
0.0000000000
20
-5.0000000000
40
10.8458548116
100
AcDbArc
50
93.9652158992
51
176.0347841008
0
CIRCLE
5
357
100
AcDbEntity
8
0
100
AcDbCircle
62
0
6
CONTINUOUS
10
-25.0000000000
20
22.0000000000
40
3.2326972483
0
SPLINE
5
358
100
AcDbEntity
8
0
100
AcDbSpline
62
0
6
CONTINUOUS
70
0
71
3
72
36
73
32
74
30
42
0.0000001000
43
0.0000001000
44
0.0000000001
12
-0.0000012573
22
11.8780461403
32
0.0000000000
13
11.4997829995
23
-0.0000000000
33
0.0000000000
40
0.0000000000
40
0.0000000000
40
0.0000000000
40
0.0000000000
40
0.0002404733
40
0.0033142320
40
0.0093958532
40
0.0184794244
40
0.0305405437
40
0.0455438627
40
0.0634444564
40
0.0841883235
40
0.1077126875
40
0.1339462489
40
0.1628094332
40
0.1942146496
40
0.2280665677
40
0.2642624140
40
0.3026922882
40
0.3432395002
40
0.3857809272
40
0.4301873885
40
0.4763240399
40
0.5240507838
40
0.5732226954
40
0.6236904629
40
0.6753008418
40
0.7278971199
40
0.7813195934
40
0.8354060513
40
0.8899922684
40
0.9449125030
40
1.0000000000
40
1.0000000000
40
1.0000000000
40
1.0000000000
10
-11.4959129863
20
-46.2905551726
30
0.0000000000
10
-11.4959129864
20
-46.2896030549
30
0.0000000000
10
-11.4946282060
20
-46.2764808550
30
0.0000000000
10
-11.4407864191
20
-46.2882624899
30
0.0000000000
10
-11.3839409865
20
-46.2718347608
30
0.0000000000
10
-11.2734275729
20
-46.2722243517
30
0.0000000000
10
-11.1375264224
20
-46.2647111699
30
0.0000000000
10
-10.9642880300
20
-46.2603451309
30
0.0000000000
10
-10.7590388973
20
-46.2548962894
30
0.0000000000
10
-10.5206717042
20
-46.2499296245
30
0.0000000000
10
-10.2505010910
20
-46.2449417983
30
0.0000000000
10
-9.9491529326
20
-46.2401247911
30
0.0000000000
10
-9.6176047315
20
-46.2354404883
30
0.0000000000
10
-9.2568440926
20
-46.2309220888
30
0.0000000000
10
-8.8679728026
20
-46.2265791753
30
0.0000000000
10
-8.4521702495
20
-46.2224273733
30
0.0000000000
10
-8.0106999478
20
-46.2184794227
30
0.0000000000
10
-7.5449026482
20
-46.2147479108
30
0.0000000000
10
-7.0561931599
20
-46.2112444766
30
0.0000000000
10
-6.5460557821
20
-46.2079800412
30
0.0000000000
10
-6.0160398691
20
-46.2049647261
30
0.0000000000
10
-5.4677550992
20
-46.2022078563
30
0.0000000000
10
-4.9028665906
20
-46.1997179369
30
0.0000000000
10
-4.3230898428
20
-46.1975026357
30
0.0000000000
10
-3.7301855277
20
-46.1955687651
30
0.0000000000
10
-3.1259541446
20
-46.1939222656
30
0.0000000000
10
-2.5122305560
20
-46.1925681904
30
0.0000000000
10
-1.8908784191
20
-46.1915106926
30
0.0000000000
10
-1.2637845312
20
-46.1907530139
30
0.0000000000
10
-0.6328531080
20
-46.1902974762
30
0.0000000000
10
-0.2111647538
20
-46.1901961934
30
0.0000000000
10
0.0000000000
20
-46.1901961934
30
0.0000000000
11
-11.4959129863
21
-46.2905551726
31
0.0000000000
11
-11.4956333239
21
-46.2877897818
31
0.0000000000
11
-11.4607198144
21
-46.2822673988
31
0.0000000000
11
-11.3909988709
21
-46.2767701890
31
0.0000000000
11
-11.2866823224
21
-46.2713148496
31
0.0000000000
11
-11.1480871047
21
-46.2659179502
31
0.0000000000
11
-10.9756342951
21
-46.2605958832
31
0.0000000000
11
-10.7698478281
21
-46.2553648128
31
0.0000000000
11
-10.5313528992
21
-46.2502406272
31
0.0000000000
11
-10.2608740603
21
-46.2452388892
31
0.0000000000
11
-9.9592330117
21
-46.2403747894
31
0.0000000000
11
-9.6273460994
21
-46.2356631003
31
0.0000000000
11
-9.2662215259
21
-46.2311181309
31
0.0000000000
11
-8.8769562800
21
-46.2267536835
31
0.0000000000
11
-8.4607327969
21
-46.2225830118
31
0.0000000000
11
-8.0188153631
21
-46.2186187807
31
0.0000000000
11
-7.5525462687
21
-46.2148730279
31
0.0000000000
11
-7.0633417248
21
-46.2113571271
31
0.0000000000
11
-6.5526875601
21
-46.2080817541
31
0.0000000000
11
-6.0221347035
21
-46.2050568536
31
0.0000000000
11
-5.4732944712
21
-46.2022916099
31
0.0000000000
11
-4.9078336728
21
-46.1997944186
31
0.0000000000
11
-4.3274695498
21
-46.1975728611
31
0.0000000000
11
-3.7339645598
21
-46.1956336821
31
0.0000000000
11
-3.1291210276
21
-46.1939827686
31
0.0000000000
11
-2.5147756757
21
-46.1926251325
31
0.0000000000
11
-1.8927940496
21
-46.1915648954
31
0.0000000000
11
-1.2650648578
21
-46.1908052758
31
0.0000000000
11
-0.6334942432
21
-46.1903485797
31
0.0000000000
11
0.0000000000
21
-46.1901961934
31
0.0000000000
0
SPLINE
5
359
100
AcDbEntity
8
0
100
AcDbSpline
62
0
6
CONTINUOUS
70
0
71
3
72
24
73
20
74
18
42
0.0000001000
43
0.0000001000
44
0.0000000001
12
0.0000000000
22
-2.3552747897
32
0.0000000000
13
-2.3552747897
23
-0.0000000000
33
0.0000000000
40
0.0000000000
40
0.0000000000
40
0.0000000000
40
0.0000000000
40
0.0588262653
40
0.1176516199
40
0.1764761107
40
0.2352998147
40
0.2941228347
40
0.3529452966
40
0.4117673458
40
0.4705891420
40
0.5294108528
40
0.5882326492
40
0.6470546990
40
0.7058771617
40
0.7647001827
40
0.8235238876
40
0.8823483792
40
0.9411737344
40
1.0000000000
40
1.0000000000
40
1.0000000000
40
1.0000000000
10
34.0000000000
20
-45.0000571154
30
0.0000000000
10
34.0000000000
20
-45.0462411220
30
0.0000000000
10
33.9957281964
20
-45.1386652824
30
0.0000000000
10
33.9765597196
20
-45.2760723416
30
0.0000000000
10
33.9447943532
20
-45.4111348724
30
0.0000000000
10
33.9007033492
20
-45.5426853143
30
0.0000000000
10
33.8446630469
20
-45.6696057907
30
0.0000000000
10
33.7771516489
20
-45.7908126967
30
0.0000000000
10
33.6987451324
20
-45.9052726001
30
0.0000000000
10
33.6101123350
20
-46.0120092432
30
0.0000000000
10
33.5120092522
20
-46.1101123268
30
0.0000000000
10
33.4052726092
20
-46.1987451255
30
0.0000000000
10
33.2908127053
20
-46.2771516437
30
0.0000000000
10
33.1696057981
20
-46.3446630433
30
0.0000000000
10
33.0426853200
20
-46.4007033470
30
0.0000000000
10
32.9111348763
20
-46.4447943522
30
0.0000000000
10
32.7760723438
20
-46.4765597193
30
0.0000000000
10
32.6386652833
20
-46.4957281963
30
0.0000000000
10
32.5462411222
20
-46.5000000000
30
0.0000000000
10
32.5000571154
20
-46.5000000000
30
0.0000000000
11
34.0000000000
21
-45.0000571154
31
0.0000000000
11
33.9936013113
21
-45.1384613022
31
0.0000000000
11
33.9744600525
21
-45.2756825834
31
0.0000000000
11
33.9427398286
21
-45.4105504129
31
0.0000000000
11
33.8987115108
21
-45.5419144024
31
0.0000000000
11
33.8427509072
21
-45.6686541160
31
0.0000000000
11
33.7753355424
21
-45.7896886090
31
0.0000000000
11
33.6970405748
21
-45.9039856283
31
0.0000000000
11
33.6085338882
21
-46.0105703920
31
0.0000000000
11
33.5105704011
21
-46.1085338798
31
0.0000000000
11
33.4039856375
21
-46.1970405678
31
0.0000000000
11
33.2896886177
21
-46.2753355371
31
0.0000000000
11
33.1686541234
21
-46.3427509035
31
0.0000000000
11
33.0419144081
21
-46.3987115086
31
0.0000000000
11
32.9105504166
21
-46.4427398275
31
0.0000000000
11
32.7756825854
21
-46.4744600521
31
0.0000000000
11
32.6384613029
21
-46.4936013112
31
0.0000000000
11
32.5000571154
21
-46.5000000000
31
0.0000000000
0
SPLINE
5
35A
100
AcDbEntity
8
0
100
AcDbSpline
62
0
6
CONTINUOUS
70
0
71
3
72
24
73
20
74
18
42
0.0000001000
43
0.0000001000
44
0.0000000001
12
2.3552747897
22
0.0000000000
32
0.0000000000
13
0.0000000000
23
-2.3552747897
33
0.0000000000
40
0.0000000000
40
0.0000000000
40
0.0000000000
40
0.0000000000
40
0.0588262653
40
0.1176516199
40
0.1764761107
40
0.2352998147
40
0.2941228347
40
0.3529452966
40
0.4117673458
40
0.4705891420
40
0.5294108528
40
0.5882326492
40
0.6470546990
40
0.7058771617
40
0.7647001827
40
0.8235238876
40
0.8823483792
40
0.9411737344
40
1.0000000000
40
1.0000000000
40
1.0000000000
40
1.0000000000
10
32.5000571154
20
36.5000000000
30
0.0000000000
10
32.5462411220
20
36.5000000000
30
0.0000000000
10
32.6386652824
20
36.4957281964
30
0.0000000000
10
32.7760723416
20
36.4765597196
30
0.0000000000
10
32.9111348724
20
36.4447943532
30
0.0000000000
10
33.0426853143
20
36.4007033492
30
0.0000000000
10
33.1696057907
20
36.3446630469
30
0.0000000000
10
33.2908126967
20
36.2771516489
30
0.0000000000
10
33.4052726001
20
36.1987451324
30
0.0000000000
10
33.5120092432
20
36.1101123350
30
0.0000000000
10
33.6101123268
20
36.0120092522
30
0.0000000000
10
33.6987451255
20
35.9052726092
30
0.0000000000
10
33.7771516437
20
35.7908127053
30
0.0000000000
10
33.8446630433
20
35.6696057981
30
0.0000000000
10
33.9007033470
20
35.5426853200
30
0.0000000000
10
33.9447943522
20
35.4111348763
30
0.0000000000
10
33.9765597193
20
35.2760723438
30
0.0000000000
10
33.9957281963
20
35.1386652833
30
0.0000000000
10
34.0000000000
20
35.0462411222
30
0.0000000000
10
34.0000000000
20
35.0000571154
30
0.0000000000
11
32.5000571154
21
36.5000000000
31
0.0000000000
11
32.6384613022
21
36.4936013113
31
0.0000000000
11
32.7756825834
21
36.4744600525
31
0.0000000000
11
32.9105504129
21
36.4427398286
31
0.0000000000
11
33.0419144024
21
36.3987115108
31
0.0000000000
11
33.1686541160
21
36.3427509072
31
0.0000000000
11
33.2896886090
21
36.2753355424
31
0.0000000000
11
33.4039856283
21
36.1970405748
31
0.0000000000
11
33.5105703920
21
36.1085338882
31
0.0000000000
11
33.6085338798
21
36.0105704011
31
0.0000000000
11
33.6970405678
21
35.9039856375
31
0.0000000000
11
33.7753355371
21
35.7896886177
31
0.0000000000
11
33.8427509035
21
35.6686541234
31
0.0000000000
11
33.8987115086
21
35.5419144081
31
0.0000000000
11
33.9427398275
21
35.4105504166
31
0.0000000000
11
33.9744600521
21
35.2756825854
31
0.0000000000
11
33.9936013112
21
35.1384613029
31
0.0000000000
11
34.0000000000
21
35.0000571154
31
0.0000000000
0
SPLINE
5
35B
100
AcDbEntity
8
0
100
AcDbSpline
62
0
6
CONTINUOUS
70
0
71
3
72
24
73
20
74
18
42
0.0000001000
43
0.0000001000
44
0.0000000001
12
0.0000000000
22
2.3552747897
32
0.0000000000
13
2.3552747897
23
-0.0000000000
33
0.0000000000
40
0.0000000000
40
0.0000000000
40
0.0000000000
40
0.0000000000
40
0.0588262653
40
0.1176516199
40
0.1764761107
40
0.2352998147
40
0.2941228347
40
0.3529452966
40
0.4117673458
40
0.4705891420
40
0.5294108528
40
0.5882326492
40
0.6470546990
40
0.7058771617
40
0.7647001827
40
0.8235238876
40
0.8823483792
40
0.9411737344
40
1.0000000000
40
1.0000000000
40
1.0000000000
40
1.0000000000
10
-34.0000000000
20
35.0000571154
30
0.0000000000
10
-34.0000000000
20
35.0462411220
30
0.0000000000
10
-33.9957281964
20
35.1386652824
30
0.0000000000
10
-33.9765597196
20
35.2760723416
30
0.0000000000
10
-33.9447943532
20
35.4111348724
30
0.0000000000
10
-33.9007033492
20
35.5426853143
30
0.0000000000
10
-33.8446630469
20
35.6696057907
30
0.0000000000
10
-33.7771516489
20
35.7908126967
30
0.0000000000
10
-33.6987451324
20
35.9052726001
30
0.0000000000
10
-33.6101123350
20
36.0120092432
30
0.0000000000
10
-33.5120092522
20
36.1101123268
30
0.0000000000
10
-33.4052726092
20
36.1987451255
30
0.0000000000
10
-33.2908127053
20
36.2771516437
30
0.0000000000
10
-33.1696057981
20
36.3446630433
30
0.0000000000
10
-33.0426853200
20
36.4007033470
30
0.0000000000
10
-32.9111348763
20
36.4447943522
30
0.0000000000
10
-32.7760723438
20
36.4765597193
30
0.0000000000
10
-32.6386652833
20
36.4957281963
30
0.0000000000
10
-32.5462411222
20
36.5000000000
30
0.0000000000
10
-32.5000571154
20
36.5000000000
30
0.0000000000
11
-34.0000000000
21
35.0000571154
31
0.0000000000
11
-33.9936013113
21
35.1384613022
31
0.0000000000
11
-33.9744600525
21
35.2756825834
31
0.0000000000
11
-33.9427398286
21
35.4105504129
31
0.0000000000
11
-33.8987115108
21
35.5419144024
31
0.0000000000
11
-33.8427509072
21
35.6686541160
31
0.0000000000
11
-33.7753355424
21
35.7896886090
31
0.0000000000
11
-33.6970405748
21
35.9039856283
31
0.0000000000
11
-33.6085338882
21
36.0105703920
31
0.0000000000
11
-33.5105704011
21
36.1085338798
31
0.0000000000
11
-33.4039856375
21
36.1970405678
31
0.0000000000
11
-33.2896886177
21
36.2753355371
31
0.0000000000
11
-33.1686541234
21
36.3427509035
31
0.0000000000
11
-33.0419144081
21
36.3987115086
31
0.0000000000
11
-32.9105504166
21
36.4427398275
31
0.0000000000
11
-32.7756825854
21
36.4744600521
31
0.0000000000
11
-32.6384613029
21
36.4936013112
31
0.0000000000
11
-32.5000571154
21
36.5000000000
31
0.0000000000
0
SPLINE
5
35C
100
AcDbEntity
8
0
100
AcDbSpline
62
0
6
CONTINUOUS
70
0
71
3
72
24
73
20
74
18
42
0.0000001000
43
0.0000001000
44
0.0000000001
12
-2.3552747897
22
0.0000000000
32
0.0000000000
13
-0.0000000000
23
2.3552747897
33
0.0000000000
40
0.0000000000
40
0.0000000000
40
0.0000000000
40
0.0000000000
40
0.0588262653
40
0.1176516199
40
0.1764761107
40
0.2352998147
40
0.2941228347
40
0.3529452966
40
0.4117673458
40
0.4705891420
40
0.5294108528
40
0.5882326492
40
0.6470546990
40
0.7058771617
40
0.7647001827
40
0.8235238876
40
0.8823483792
40
0.9411737344
40
1.0000000000
40
1.0000000000
40
1.0000000000
40
1.0000000000
10
-32.5000571154
20
-46.5000000000
30
0.0000000000
10
-32.5462411220
20
-46.5000000000
30
0.0000000000
10
-32.6386652824
20
-46.4957281964
30
0.0000000000
10
-32.7760723416
20
-46.4765597196
30
0.0000000000
10
-32.9111348724
20
-46.4447943532
30
0.0000000000
10
-33.0426853143
20
-46.4007033492
30
0.0000000000
10
-33.1696057907
20
-46.3446630469
30
0.0000000000
10
-33.2908126967
20
-46.2771516489
30
0.0000000000
10
-33.4052726001
20
-46.1987451324
30
0.0000000000
10
-33.5120092432
20
-46.1101123350
30
0.0000000000
10
-33.6101123268
20
-46.0120092522
30
0.0000000000
10
-33.6987451255
20
-45.9052726092
30
0.0000000000
10
-33.7771516437
20
-45.7908127053
30
0.0000000000
10
-33.8446630433
20
-45.6696057981
30
0.0000000000
10
-33.9007033470
20
-45.5426853200
30
0.0000000000
10
-33.9447943522
20
-45.4111348763
30
0.0000000000
10
-33.9765597193
20
-45.2760723438
30
0.0000000000
10
-33.9957281963
20
-45.1386652833
30
0.0000000000
10
-34.0000000000
20
-45.0462411222
30
0.0000000000
10
-34.0000000000
20
-45.0000571154
30
0.0000000000
11
-32.5000571154
21
-46.5000000000
31
0.0000000000
11
-32.6384613022
21
-46.4936013113
31
0.0000000000
11
-32.7756825834
21
-46.4744600525
31
0.0000000000
11
-32.9105504129
21
-46.4427398286
31
0.0000000000
11
-33.0419144024
21
-46.3987115108
31
0.0000000000
11
-33.1686541160
21
-46.3427509072
31
0.0000000000
11
-33.2896886090
21
-46.2753355424
31
0.0000000000
11
-33.4039856283
21
-46.1970405748
31
0.0000000000
11
-33.5105703920
21
-46.1085338882
31
0.0000000000
11
-33.6085338798
21
-46.0105704011
31
0.0000000000
11
-33.6970405678
21
-45.9039856375
31
0.0000000000
11
-33.7753355371
21
-45.7896886177
31
0.0000000000
11
-33.8427509035
21
-45.6686541234
31
0.0000000000
11
-33.8987115086
21
-45.5419144081
31
0.0000000000
11
-33.9427398275
21
-45.4105504166
31
0.0000000000
11
-33.9744600521
21
-45.2756825854
31
0.0000000000
11
-33.9936013112
21
-45.1384613029
31
0.0000000000
11
-34.0000000000
21
-45.0000571154
31
0.0000000000
0
SPLINE
5
35D
100
AcDbEntity
8
0
100
AcDbSpline
62
0
6
CONTINUOUS
70
0
71
3
72
36
73
32
74
30
42
0.0000001000
43
0.0000001000
44
0.0000000001
12
11.4997829998
22
0.0000000000
32
0.0000000000
13
0.0000012573
23
-11.8780461405
33
0.0000000000
40
0.0000000000
40
0.0000000000
40
0.0000000000
40
0.0000000000
40
0.0550874970
40
0.1100077315
40
0.1645939486
40
0.2186804065
40
0.2721028799
40
0.3246991580
40
0.3763095368
40
0.4267773042
40
0.4759492157
40
0.5236759595
40
0.5698126109
40
0.6142190721
40
0.6567604989
40
0.6973077109
40
0.7357375851
40
0.7719334314
40
0.8057853495
40
0.8371905658
40
0.8660537501
40
0.8922873116
40
0.9158116757
40
0.9365555428
40
0.9544561366
40
0.9694594557
40
0.9815205752
40
0.9906041465
40
0.9966857678
40
0.9997595266
40
1.0000000000
40
1.0000000000
40
1.0000000000
40
1.0000000000
10
0.0000000000
20
-46.1901961934
30
0.0000000000
10
0.2111647538
20
-46.1901961934
30
0.0000000000
10
0.6328531079
20
-46.1902974762
30
0.0000000000
10
1.2637845308
20
-46.1907530139
30
0.0000000000
10
1.8908784183
20
-46.1915106926
30
0.0000000000
10
2.5122305546
20
-46.1925681904
30
0.0000000000
10
3.1259541425
20
-46.1939222656
30
0.0000000000
10
3.7301855248
20
-46.1955687651
30
0.0000000000
10
4.3230898391
20
-46.1975026356
30
0.0000000000
10
4.9028665859
20
-46.1997179369
30
0.0000000000
10
5.4677550935
20
-46.2022078563
30
0.0000000000
10
6.0160398625
20
-46.2049647261
30
0.0000000000
10
6.5460557745
20
-46.2079800412
30
0.0000000000
10
7.0561931514
20
-46.2112444766
30
0.0000000000
10
7.5449026390
20
-46.2147479107
30
0.0000000000
10
8.0106999379
20
-46.2184794226
30
0.0000000000
10
8.4521702391
20
-46.2224273732
30
0.0000000000
10
8.8679727919
20
-46.2265791752
30
0.0000000000
10
9.2568440817
20
-46.2309220887
30
0.0000000000
10
9.6176047206
20
-46.2354404881
30
0.0000000000
10
9.9491529220
20
-46.2401247909
30
0.0000000000
10
10.2505010808
20
-46.2449417981
30
0.0000000000
10
10.5206716947
20
-46.2499296243
30
0.0000000000
10
10.7590388885
20
-46.2548962892
30
0.0000000000
10
10.9642880224
20
-46.2603451307
30
0.0000000000
10
11.1375264156
20
-46.2647111697
30
0.0000000000
10
11.2734275682
20
-46.2722243515
30
0.0000000000
10
11.3839409813
20
-46.2718347604
30
0.0000000000
10
11.4407864195
20
-46.2882624901
30
0.0000000000
10
11.4946282025
20
-46.2764808541
30
0.0000000000
10
11.4959129862
20
-46.2896030554
30
0.0000000000
10
11.4959129863
20
-46.2905551735
30
0.0000000000
11
0.0000000000
21
-46.1901961934
31
0.0000000000
11
0.6334942431
21
-46.1903485797
31
0.0000000000
11
1.2650648575
21
-46.1908052758
31
0.0000000000
11
1.8927940489
21
-46.1915648954
31
0.0000000000
11
2.5147756744
21
-46.1926251325
31
0.0000000000
11
3.1291210256
21
-46.1939827686
31
0.0000000000
11
3.7339645570
21
-46.1956336821
31
0.0000000000
11
4.3274695460
21
-46.1975728611
31
0.0000000000
11
4.9078336681
21
-46.1997944186
31
0.0000000000
11
5.4732944655
21
-46.2022916099
31
0.0000000000
11
6.0221346969
21
-46.2050568536
31
0.0000000000
11
6.5526875525
21
-46.2080817540
31
0.0000000000
11
7.0633417163
21
-46.2113571271
31
0.0000000000
11
7.5525462594
21
-46.2148730278
31
0.0000000000
11
8.0188153531
21
-46.2186187806
31
0.0000000000
11
8.4607327864
21
-46.2225830117
31
0.0000000000
11
8.8769562692
21
-46.2267536834
31
0.0000000000
11
9.2662215150
21
-46.2311181308
31
0.0000000000
11
9.6273460884
21
-46.2356631002
31
0.0000000000
11
9.9592330010
21
-46.2403747893
31
0.0000000000
11
10.2608740500
21
-46.2452388890
31
0.0000000000
11
10.5313528896
21
-46.2502406270
31
0.0000000000
11
10.7698478193
21
-46.2553648126
31
0.0000000000
11
10.9756342873
21
-46.2605958829
31
0.0000000000
11
11.1480870981
21
-46.2659179500
31
0.0000000000
11
11.2866823171
21
-46.2713148493
31
0.0000000000
11
11.3909988671
21
-46.2767701888
31
0.0000000000
11
11.4607198121
21
-46.2822673986
31
0.0000000000
11
11.4956333231
21
-46.2877897816
31
0.0000000000
11
11.4959129863
21
-46.2905551735
31
0.0000000000
0
SPLINE
5
35E
100
AcDbEntity
8
0
100
AcDbSpline
62
0
6
CONTINUOUS
70
0
71
3
72
8
73
4
74
2
42
0.0000001000
43
0.0000001000
44
0.0000000001
12
0.0000000000
22
-0.8440452122
32
0.0000000000
13
0.5119653664
23
-0.5245290804
33
0.0000000000
40
0.0000000000
40
0.0000000000
40
0.0000000000
40
0.0000000000
40
1.0000000000
40
1.0000000000
40
1.0000000000
40
1.0000000000
10
-29.0475862045
20
-2.6400308641
30
0.0000000000
10
-29.0475862045
20
-2.9213792682
30
0.0000000000
10
-28.9627586203
20
-3.1468965411
30
0.0000000000
10
-28.7921034981
20
-3.3217395679
30
0.0000000000
11
-29.0475862045
21
-2.6400308641
31
0.0000000000
11
-28.7921034981
21
-3.3217395679
31
0.0000000000
0
SPLINE
5
35F
100
AcDbEntity
8
0
100
AcDbSpline
62
0
6
CONTINUOUS
70
0
71
3
72
8
73
4
74
2
42
0.0000001000
43
0.0000001000
44
0.0000000001
12
0.4997587694
22
-0.5120229316
32
0.0000000000
13
0.8379540719
23
0.0000000000
33
0.0000000000
40
0.0000000000
40
0.0000000000
40
0.0000000000
40
0.0000000000
40
1.0000000000
40
1.0000000000
40
1.0000000000
40
1.0000000000
10
-28.7921034981
20
-3.3217395679
30
0.0000000000
10
-28.6255172417
20
-3.4924138784
30
0.0000000000
10
-28.4041379243
20
-3.5793102980
30
0.0000000000
10
-28.1248199004
20
-3.5793102980
30
0.0000000000
11
-28.7921034981
21
-3.3217395679
31
0.0000000000
11
-28.1248199004
21
-3.5793102980
31
0.0000000000
0
SPLINE
5
360
100
AcDbEntity
8
0
100
AcDbSpline
62
0
6
CONTINUOUS
70
0
71
3
72
8
73
4
74
2
42
0.0000001000
43
0.0000001000
44
0.0000000001
12
0.8317010575
22
0.0000000000
32
0.0000000000
13
0.5090034544
23
0.4965128320
33
0.0000000000
40
0.0000000000
40
0.0000000000
40
0.0000000000
40
0.0000000000
40
1.0000000000
40
1.0000000000
40
1.0000000000
40
1.0000000000
10
-28.1248199004
20
-3.5793102980
30
0.0000000000
10
-27.8475862145
20
-3.5793102980
30
0.0000000000
10
-27.6262068748
20
-3.4965518117
30
0.0000000000
10
-27.4565390567
20
-3.3310475344
30
0.0000000000
11
-28.1248199004
21
-3.5793102980
31
0.0000000000
11
-27.4565390567
21
-3.3310475344
31
0.0000000000
0
SPLINE
5
361
100
AcDbEntity
8
0
100
AcDbSpline
62
0
6
CONTINUOUS
70
0
71
3
72
8
73
4
74
2
42
0.0000001000
43
0.0000001000
44
0.0000000001
12
0.5027204216
22
0.4903839809
32
0.0000000000
13
0.0049189449
23
0.7820780120
33
0.0000000000
40
0.0000000000
40
0.0000000000
40
0.0000000000
40
0.0000000000
40
1.0000000000
40
1.0000000000
40
1.0000000000
40
1.0000000000
10
-27.4565390567
20
-3.3310475344
30
0.0000000000
10
-27.2889655828
20
-3.1675862074
30
0.0000000000
10
-27.2020689845
20
-2.9565517008
30
0.0000000000
10
-27.2004293362
20
-2.6958590302
30
0.0000000000
11
-27.4565390567
21
-3.3310475344
31
0.0000000000
11
-27.2004293362
21
-2.6958590302
31
0.0000000000
0
SPLINE
5
362
100
AcDbEntity
8
0
100
AcDbSpline
62
0
6
CONTINUOUS
70
0
71
3
72
8
73
4
74
2
42
0.0000001000
43
0.0000001000
44
0.0000000001
12
0.0012882232
22
0.2048185327
32
0.0000000000
13
-0.0451849467
23
0.2168869893
33
0.0000000000
40
0.0000000000
40
0.0000000000
40
0.0000000000
40
0.0000000000
40
1.0000000000
40
1.0000000000
40
1.0000000000
40
1.0000000000
10
-27.2004293362
20
-2.6958590302
30
0.0000000000
10
-27.1999999285
20
-2.6275861859
30
0.0000000000
10
-27.2082757950
20
-2.5593103766
30
0.0000000000
10
-27.2233374439
20
-2.4870147136
30
0.0000000000
11
-27.2004293362
21
-2.6958590302
31
0.0000000000
11
-27.2233374439
21
-2.4870147136
31
0.0000000000
0
SPLINE
5
363
100
AcDbEntity
8
0
100
AcDbSpline
62
0
6
CONTINUOUS
70
0
71
3
72
8
73
4
74
2
42
0.0000001000
43
0.0000001000
44
0.0000000001
12
-0.0479188197
22
0.2300095340
32
0.0000000000
13
-0.0744827986
23
0.1800000966
33
0.0000000000
40
0.0000000000
40
0.0000000000
40
0.0000000000
40
0.0000000000
40
1.0000000000
40
1.0000000000
40
1.0000000000
40
1.0000000000
10
-27.2233374439
20
-2.4870147136
30
0.0000000000
10
-27.2393103838
20
-2.4103448689
30
0.0000000000
10
-27.2662068605
20
-2.3441379368
30
0.0000000000
10
-27.2910344601
20
-2.2841379046
30
0.0000000000
11
-27.2233374439
21
-2.4870147136
31
0.0000000000
11
-27.2910344601
21
-2.2841379046
31
0.0000000000
0
SPLINE
5
364
100
AcDbEntity
8
0
100
AcDbSpline
62
0
6
CONTINUOUS
70
0
71
3
72
8
73
4
74
2
42
0.0000001000
43
0.0000001000
44
0.0000000001
12
0.3793768588
22
-0.1407365756
32
0.0000000000
13
0.3524989450
23
-0.2091751899
33
0.0000000000
40
0.0000000000
40
0.0000000000
40
0.0000000000
40
0.0000000000
40
1.0000000000
40
1.0000000000
40
1.0000000000
40
1.0000000000
10
-27.6823210519
20
-1.7696395233
30
0.0000000000
10
-27.5558620989
20
-1.8165517151
30
0.0000000000
10
-27.4354307640
20
-1.8771715046
30
0.0000000000
10
-27.3179311156
20
-1.9468965679
30
0.0000000000
11
-27.6823210519
21
-1.7696395233
31
0.0000000000
11
-27.3179311156
21
-1.9468965679
31
0.0000000000
0
SPLINE
5
365
100
AcDbEntity
8
0
100
AcDbSpline
62
0
6
CONTINUOUS
70
0
71
3
72
8
73
4
74
2
42
0.0000001000
43
0.0000001000
44
0.0000000001
12
0.4903395186
22
0.0022806501
32
0.0000000000
13
0.3902781901
23
-0.1447806178
33
0.0000000000
40
0.0000000000
40
0.0000000000
40
0.0000000000
40
0.0000000000
40
1.0000000000
40
1.0000000000
40
1.0000000000
40
1.0000000000
10
-28.1227568292
20
-1.6973119345
30
0.0000000000
10
-27.9593103230
20
-1.6965517178
30
0.0000000000
10
-27.8124137819
20
-1.7213793173
30
0.0000000000
10
-27.6823210519
20
-1.7696395233
30
0.0000000000
11
-28.1227568292
21
-1.6973119345
31
0.0000000000
11
-27.6823210519
21
-1.7696395233
31
0.0000000000
0
SPLINE
5
366
100
AcDbEntity
8
0
100
AcDbSpline
62
0
6
CONTINUOUS
70
0
71
3
72
8
73
4
74
2
42
0.0000001000
43
0.0000001000
44
0.0000000001
12
0.5016448378
22
0.5231878502
32
0.0000000000
13
0.8441432853
23
0.0039262498
33
0.0000000000
40
0.0000000000
40
0.0000000000
40
0.0000000000
40
0.0000000000
40
1.0000000000
40
1.0000000000
40
1.0000000000
40
1.0000000000
10
-28.7927321876
20
-1.9619821548
30
0.0000000000
10
-28.6255172417
20
-1.7875862047
30
0.0000000000
10
-28.4041379243
20
-1.6986206844
30
0.0000000000
10
-28.1227568292
20
-1.6973119345
30
0.0000000000
11
-28.7927321876
21
-1.9619821548
31
0.0000000000
11
-28.1227568292
21
-1.6973119345
31
0.0000000000
0
SPLINE
5
367
100
AcDbEntity
8
0
100
AcDbSpline
62
0
6
CONTINUOUS
70
0
71
3
72
8
73
4
74
2
42
0.0000001000
43
0.0000001000
44
0.0000000001
12
0.0000000000
22
0.8318166829
32
0.0000000000
13
0.5100792980
23
0.5319845261
33
0.0000000000
40
0.0000000000
40
0.0000000000
40
0.0000000000
40
0.0000000000
40
1.0000000000
40
1.0000000000
40
1.0000000000
40
1.0000000000
10
-29.0475862045
20
-2.6400308641
30
0.0000000000
10
-29.0475862045
20
-2.3627586365
30
0.0000000000
10
-28.9627586203
20
-2.1393103302
30
0.0000000000
10
-28.7927321876
20
-1.9619821548
30
0.0000000000
11
-29.0475862045
21
-2.6400308641
31
0.0000000000
11
-28.7927321876
21
-1.9619821548
31
0.0000000000
0
SPLINE
5
368
100
AcDbEntity
8
0
100
AcDbSpline
62
0
6
CONTINUOUS
70
0
71
3
72
8
73
4
74
2
42
0.0000001000
43
0.0000001000
44
0.0000000001
12
1.2478098739
22
-0.0076552794
32
0.0000000000
13
0.3289656937
23
-1.0551724434
33
0.0000000000
40
0.0000000000
40
0.0000000000
40
0.0000000000
40
0.0000000000
40
1.0000000000
40
1.0000000000
40
1.0000000000
40
1.0000000000
10
-28.2014538404
20
-4.0795171603
30
0.0000000000
10
-27.7855172157
20
-4.0820689201
30
0.0000000000
10
-27.5227586329
20
-4.2641379833
30
0.0000000000
10
-27.4131034017
20
-4.6158621311
30
0.0000000000
11
-28.2014538404
21
-4.0795171603
31
0.0000000000
11
-27.4131034017
21
-4.6158621311
31
0.0000000000
0
SPLINE
5
369
100
AcDbEntity
8
0
100
AcDbSpline
62
0
6
CONTINUOUS
70
0
71
3
72
8
73
4
74
2
42
0.0000001000
43
0.0000001000
44
0.0000000001
12
0.4639170974
22
0.5485507818
32
0.0000000000
13
0.7756384145
23
-0.0047585204
33
0.0000000000
40
0.0000000000
40
0.0000000000
40
0.0000000000
40
0.0000000000
40
1.0000000000
40
1.0000000000
40
1.0000000000
40
1.0000000000
10
-28.8215355843
20
-4.3538846563
30
0.0000000000
10
-28.6668965518
20
-4.1710343957
30
0.0000000000
10
-28.4599999785
20
-4.0779309869
30
0.0000000000
10
-28.2014538404
20
-4.0795171603
30
0.0000000000
11
-28.8215355843
21
-4.3538846563
31
0.0000000000
11
-28.2014538404
21
-4.0795171603
31
0.0000000000
0
SPLINE
5
36A
100
AcDbEntity
8
0
100
AcDbSpline
62
0
6
CONTINUOUS
70
0
71
3
72
8
73
4
74
2
42
0.0000001000
43
0.0000001000
44
0.0000000001
12
0.0000000000
22
0.7511372038
32
0.0000000000
13
0.4547035905
23
0.5376564292
33
0.0000000000
40
0.0000000000
40
0.0000000000
40
0.0000000000
40
0.0000000000
40
1.0000000000
40
1.0000000000
40
1.0000000000
40
1.0000000000
10
-29.0475862045
20
-4.9965858284
30
0.0000000000
10
-29.0475862045
20
-4.7462067604
30
0.0000000000
10
-28.9731034478
20
-4.5331034660
30
0.0000000000
10
-28.8215355843
20
-4.3538846563
30
0.0000000000
11
-29.0475862045
21
-4.9965858284
31
0.0000000000
11
-28.8215355843
21
-4.3538846563
31
0.0000000000
0
SPLINE
5
36B
100
AcDbEntity
8
0
100
AcDbSpline
62
0
6
CONTINUOUS
70
0
71
3
72
8
73
4
74
2
42
0.0000001000
43
0.0000001000
44
0.0000000001
12
-0.4562493860
22
0.5302355206
32
0.0000000000
13
0.0000000000
23
0.7695529989
33
0.0000000000
40
0.0000000000
40
0.0000000000
40
0.0000000000
40
0.0000000000
40
1.0000000000
40
1.0000000000
40
1.0000000000
40
1.0000000000
10
-28.8189513553
20
-5.6450211974
30
0.0000000000
10
-28.9710344840
20
-5.4682760239
30
0.0000000000
10
-29.0475862045
20
-5.2531034946
30
0.0000000000
10
-29.0475862045
20
-4.9965858284
30
0.0000000000
11
-28.8189513553
21
-5.6450211974
31
0.0000000000
11
-29.0475862045
21
-4.9965858284
31
0.0000000000
0
SPLINE
5
36C
100
AcDbEntity
8
0
100
AcDbSpline
62
0
6
CONTINUOUS
70
0
71
3
72
8
73
4
74
2
42
0.0000001000
43
0.0000001000
44
0.0000000001
12
-0.7822573757
22
-0.0071987950
32
0.0000000000
13
-0.4623713103
23
0.5373501861
33
0.0000000000
40
0.0000000000
40
0.0000000000
40
0.0000000000
40
0.0000000000
40
1.0000000000
40
1.0000000000
40
1.0000000000
40
1.0000000000
10
-28.1992475200
20
-5.9127728594
30
0.0000000000
10
-28.4599999785
20
-5.9151724577
30
0.0000000000
10
-28.6648275852
20
-5.8241379261
30
0.0000000000
10
-28.8189513553
20
-5.6450211974
30
0.0000000000
11
-28.1992475200
21
-5.9127728594
31
0.0000000000
11
-28.8189513553
21
-5.6450211974
31
0.0000000000
0
SPLINE
5
36D
100
AcDbEntity
8
0
100
AcDbSpline
62
0
6
CONTINUOUS
70
0
71
3
72
8
73
4
74
2
42
0.0000001000
43
0.0000001000
44
0.0000000001
12
-0.3599999249
22
-1.0551724434
32
0.0000000000
13
-1.2411909128
23
-0.0114221728
33
0.0000000000
40
0.0000000000
40
0.0000000000
40
0.0000000000
40
0.0000000000
40
1.0000000000
40
1.0000000000
40
1.0000000000
40
1.0000000000
10
-27.4027586579
20
-5.3772414923
30
0.0000000000
10
-27.5227586329
20
-5.7289656401
30
0.0000000000
10
-27.7855172157
20
-5.9089654684
30
0.0000000000
10
-28.1992475200
20
-5.9127728594
30
0.0000000000
11
-27.4027586579
21
-5.3772414923
31
0.0000000000
11
-28.1992475200
21
-5.9127728594
31
0.0000000000
0
SPLINE
5
36E
100
AcDbEntity
8
0
100
AcDbSpline
62
0
6
CONTINUOUS
70
0
71
3
72
8
73
4
74
2
42
0.0000001000
43
0.0000001000
44
0.0000000001
12
-0.1328299568
22
0.1644564755
32
0.0000000000
13
-0.0744827986
23
0.1924130917
33
0.0000000000
40
0.0000000000
40
0.0000000000
40
0.0000000000
40
0.0000000000
40
1.0000000000
40
1.0000000000
40
1.0000000000
40
1.0000000000
10
-27.2984818841
20
-5.5561979574
30
0.0000000000
10
-27.3427585363
20
-5.5013791323
30
0.0000000000
10
-27.3779310584
20
-5.4413791895
30
0.0000000000
10
-27.4027586579
20
-5.3772414923
30
0.0000000000
11
-27.2984818841
21
-5.5561979574
31
0.0000000000
11
-27.4027586579
21
-5.3772414923
31
0.0000000000
0
SPLINE
5
36F
100
AcDbEntity
8
0
100
AcDbSpline
62
0
6
CONTINUOUS
70
0
71
3
72
8
73
4
74
2
42
0.0000001000
43
0.0000001000
44
0.0000000001
12
-0.1767015138
22
0.1109520472
32
0.0000000000
13
-0.1278593017
23
0.1583023184
33
0.0000000000
40
0.0000000000
40
0.0000000000
40
0.0000000000
40
0.0000000000
40
1.0000000000
40
1.0000000000
40
1.0000000000
40
1.0000000000
10
-27.1452373571
20
-5.6914668572
30
0.0000000000
10
-27.2041378617
20
-5.6544828415
30
0.0000000000
10
-27.2558621168
20
-5.6089653969
30
0.0000000000
10
-27.2984818841
20
-5.5561979574
30
0.0000000000
11
-27.1452373571
21
-5.6914668572
31
0.0000000000
11
-27.2984818841
21
-5.5561979574
31
0.0000000000
0
SPLINE
5
370
100
AcDbEntity
8
0
100
AcDbSpline
62
0
6
CONTINUOUS
70
0
71
3
72
8
73
4
74
2
42
0.0000001000
43
0.0000001000
44
0.0000000001
12
-0.4717646842
22
0.0000000000
32
0.0000000000
13
-0.3570913395
23
0.2242200099
33
0.0000000000
40
0.0000000000
40
0.0000000000
40
0.0000000000
40
0.0000000000
40
1.0000000000
40
1.0000000000
40
1.0000000000
40
1.0000000000
10
-26.7324002185
20
-5.8055173159
30
0.0000000000
10
-26.8896551132
20
-5.8055173159
30
0.0000000000
10
-27.0262069106
20
-5.7662068605
30
0.0000000000
10
-27.1452373571
20
-5.6914668572
30
0.0000000000
11
-26.7324002185
21
-5.8055173159
31
0.0000000000
11
-27.1452373571
21
-5.6914668572
31
0.0000000000
0
SPLINE
5
371
100
AcDbEntity
8
0
100
AcDbSpline
62
0
6
CONTINUOUS
70
0
71
3
72
8
73
4
74
2
42
0.0000001000
43
0.0000001000
44
0.0000000001
12
-0.4171821091
22
-0.4767791660
32
0.0000000000
13
-0.7261661883
23
0.0000000000
33
0.0000000000
40
0.0000000000
40
0.0000000000
40
0.0000000000
40
0.0000000000
40
1.0000000000
40
1.0000000000
40
1.0000000000
40
1.0000000000
10
-26.1609393685
20
-5.5659011393
30
0.0000000000
10
-26.3000000715
20
-5.7248275280
30
0.0000000000
10
-26.4903448224
20
-5.8055173159
30
0.0000000000
10
-26.7324002185
20
-5.8055173159
30
0.0000000000
11
-26.1609393685
21
-5.5659011393
31
0.0000000000
11
-26.7324002185
21
-5.8055173159
31
0.0000000000
0
SPLINE
5
372
100
AcDbEntity
8
0
100
AcDbSpline
62
0
6
CONTINUOUS
70
0
71
3
72
8
73
4
74
2
42
0.0000001000
43
0.0000001000
44
0.0000000001
12
0.0000000000
22
-0.6704601299
32
0.0000000000
13
-0.4083353069
23
-0.4666685431
33
0.0000000000
40
0.0000000000
40
0.0000000000
40
0.0000000000
40
0.0000000000
40
1.0000000000
40
1.0000000000
40
1.0000000000
40
1.0000000000
10
-25.9544829130
20
-4.9965133187
30
0.0000000000
10
-25.9544829130
20
-5.2200000286
30
0.0000000000
10
-26.0248275995
20
-5.4103449583
30
0.0000000000
10
-26.1609393685
20
-5.5659011393
30
0.0000000000
11
-25.9544829130
21
-4.9965133187
31
0.0000000000
11
-26.1609393685
21
-5.5659011393
31
0.0000000000
0
SPLINE
5
373
100
AcDbEntity
8
0
100
AcDbSpline
62
0
6
CONTINUOUS
70
0
71
3
72
8
73
4
74
2
42
0.0000001000
43
0.0000001000
44
0.0000000001
12
0.4065029761
22
-0.4615184344
32
0.0000000000
13
0.0000000000
23
-0.6764368762
33
0.0000000000
40
0.0000000000
40
0.0000000000
40
0.0000000000
40
0.0000000000
40
1.0000000000
40
1.0000000000
40
1.0000000000
40
1.0000000000
10
-26.1603285916
20
-4.4289191870
30
0.0000000000
10
-26.0248275995
20
-4.5827586651
30
0.0000000000
10
-25.9544829130
20
-4.7710343599
30
0.0000000000
10
-25.9544829130
20
-4.9965133187
30
0.0000000000
11
-26.1603285916
21
-4.4289191870
31
0.0000000000
11
-25.9544829130
21
-4.9965133187
31
0.0000000000
0
SPLINE
5
374
100
AcDbEntity
8
0
100
AcDbSpline
62
0
6
CONTINUOUS
70
0
71
3
72
8
73
4
74
2
42
0.0000001000
43
0.0000001000
44
0.0000000001
12
0.7324301166
22
-0.0037948133
32
0.0000000000
13
0.4190144399
23
-0.4757231795
33
0.0000000000
40
0.0000000000
40
0.0000000000
40
0.0000000000
40
0.0000000000
40
1.0000000000
40
1.0000000000
40
1.0000000000
40
1.0000000000
10
-26.7344881946
20
-4.1863211910
30
0.0000000000
10
-26.4903448224
20
-4.1875861287
30
0.0000000000
10
-26.3000000715
20
-4.2703447938
30
0.0000000000
10
-26.1603285916
20
-4.4289191870
30
0.0000000000
11
-26.7344881946
21
-4.1863211910
31
0.0000000000
11
-26.1603285916
21
-4.4289191870
31
0.0000000000
0
SPLINE
5
375
100
AcDbEntity
8
0
100
AcDbSpline
62
0
6
CONTINUOUS
70
0
71
3
72
8
73
4
74
2
42
0.0000001000
43
0.0000001000
44
0.0000000001
12
0.3557378017
22
0.2392030046
32
0.0000000000
13
0.4655007558
23
-0.0024118184
33
0.0000000000
40
0.0000000000
40
0.0000000000
40
0.0000000000
40
0.0000000000
40
1.0000000000
40
1.0000000000
40
1.0000000000
40
1.0000000000
10
-27.1468550550
20
-4.3045618629
30
0.0000000000
10
-27.0282757878
20
-4.2248275280
30
0.0000000000
10
-26.8896551132
20
-4.1855172515
30
0.0000000000
10
-26.7344881946
20
-4.1863211910
30
0.0000000000
11
-27.1468550550
21
-4.3045618629
31
0.0000000000
11
-26.7344881946
21
-4.1863211910
31
0.0000000000
0
SPLINE
5
376
100
AcDbEntity
8
0
100
AcDbSpline
62
0
6
CONTINUOUS
70
0
71
3
72
8
73
4
74
2
42
0.0000001000
43
0.0000001000
44
0.0000000001
12
0.1799998283
22
0.3786206245
32
0.0000000000
13
0.3642625846
23
0.2449351862
33
0.0000000000
40
0.0000000000
40
0.0000000000
40
0.0000000000
40
0.0000000000
40
1.0000000000
40
1.0000000000
40
1.0000000000
40
1.0000000000
10
-27.4131034017
20
-4.6158621311
30
0.0000000000
10
-27.3531034589
20
-4.4896552563
30
0.0000000000
10
-27.2682759166
20
-4.3862069249
30
0.0000000000
10
-27.1468550550
20
-4.3045618629
30
0.0000000000
11
-27.4131034017
21
-4.6158621311
31
0.0000000000
11
-27.1468550550
21
-4.3045618629
31
0.0000000000
0
SPLINE
5
377
100
AcDbEntity
8
0
100
AcDbSpline
62
0
6
CONTINUOUS
70
0
71
3
72
8
73
4
74
2
42
0.0000001000
43
0.0000001000
44
0.0000000001
12
0.2899413358
22
-0.2749960286
32
0.0000000000
13
0.4655172229
23
-0.0124132633
33
0.0000000000
40
0.0000000000
40
0.0000000000
40
0.0000000000
40
0.0000000000
40
1.0000000000
40
1.0000000000
40
1.0000000000
40
1.0000000000
10
-27.1373366995
20
-5.3724725689
30
0.0000000000
10
-27.0406895876
20
-5.4641379118
30
0.0000000000
10
-26.9144827127
20
-5.5117242336
30
0.0000000000
10
-26.7593103051
20
-5.5158619881
30
0.0000000000
11
-27.1373366995
21
-5.3724725689
31
0.0000000000
11
-26.7593103051
21
-5.5158619881
31
0.0000000000
0
SPLINE
5
378
100
AcDbEntity
8
0
100
AcDbSpline
62
0
6
CONTINUOUS
70
0
71
3
72
8
73
4
74
2
42
0.0000001000
43
0.0000001000
44
0.0000000001
12
0.0000000000
22
-0.4531034231
32
0.0000000000
13
0.3121276845
23
-0.2960387605
33
0.0000000000
40
0.0000000000
40
0.0000000000
40
0.0000000000
40
0.0000000000
40
1.0000000000
40
1.0000000000
40
1.0000000000
40
1.0000000000
10
-27.2931035161
20
-4.9965516329
30
0.0000000000
10
-27.2931035161
20
-5.1475861073
30
0.0000000000
10
-27.2413792610
20
-5.2737929821
30
0.0000000000
10
-27.1373366995
20
-5.3724725689
30
0.0000000000
11
-27.2931035161
21
-4.9965516329
31
0.0000000000
11
-27.1373366995
21
-5.3724725689
31
0.0000000000
0
SPLINE
5
379
100
AcDbEntity
8
0
100
AcDbSpline
62
0
6
CONTINUOUS
70
0
71
3
72
8
73
4
74
2
42
0.0000001000
43
0.0000001000
44
0.0000000001
12
-0.3042006243
22
-0.3042006243
32
0.0000000000
13
0.0000000000
23
-0.4344824553
33
0.0000000000
40
0.0000000000
40
0.0000000000
40
0.0000000000
40
0.0000000000
40
1.0000000000
40
1.0000000000
40
1.0000000000
40
1.0000000000
10
-27.1399790529
20
-4.6282548193
30
0.0000000000
10
-27.2413792610
20
-4.7296550274
30
0.0000000000
10
-27.2931035161
20
-4.8517241478
30
0.0000000000
10
-27.2931035161
20
-4.9965516329
30
0.0000000000
11
-27.1399790529
21
-4.6282548193
31
0.0000000000
11
-27.2931035161
21
-4.9965516329
31
0.0000000000
0
SPLINE
5
37A
100
AcDbEntity
8
0
100
AcDbSpline
62
0
6
CONTINUOUS
70
0
71
3
72
8
73
4
74
2
42
0.0000001000
43
0.0000001000
44
0.0000000001
12
-0.4655172229
22
0.0000000000
32
0.0000000000
13
-0.2978683960
23
-0.2978683960
33
0.0000000000
40
0.0000000000
40
0.0000000000
40
0.0000000000
40
0.0000000000
40
1.0000000000
40
1.0000000000
40
1.0000000000
40
1.0000000000
10
-26.7593103051
20
-4.4772414565
30
0.0000000000
10
-26.9144827127
20
-4.4772414565
30
0.0000000000
10
-27.0406895876
20
-4.5289653540
30
0.0000000000
10
-27.1399790529
20
-4.6282548193
30
0.0000000000
11
-26.7593103051
21
-4.4772414565
31
0.0000000000
11
-27.1399790529
21
-4.6282548193
31
0.0000000000
0
SPLINE
5
37B
100
AcDbEntity
8
0
100
AcDbSpline
62
0
6
CONTINUOUS
70
0
71
3
72
8
73
4
74
2
42
0.0000001000
43
0.0000001000
44
0.0000000001
12
-0.2916578902
22
0.3042023214
32
0.0000000000
13
-0.4717238545
23
0.0000000000
33
0.0000000000
40
0.0000000000
40
0.0000000000
40
0.0000000000
40
0.0000000000
40
1.0000000000
40
1.0000000000
40
1.0000000000
40
1.0000000000
10
-26.3765737927
20
-4.6303661278
30
0.0000000000
10
-26.4737930894
20
-4.5289653540
30
0.0000000000
10
-26.6020690203
20
-4.4772414565
30
0.0000000000
10
-26.7593103051
20
-4.4772414565
30
0.0000000000
11
-26.3765737927
21
-4.6303661278
31
0.0000000000
11
-26.7593103051
21
-4.4772414565
31
0.0000000000
0
SPLINE
5
37C
100
AcDbEntity
8
0
100
AcDbSpline
62
0
6
CONTINUOUS
70
0
71
3
72
8
73
4
74
2
42
0.0000001000
43
0.0000001000
44
0.0000000001
12
0.0000000000
22
0.4346597593
32
0.0000000000
13
-0.2855835306
23
0.2978666989
33
0.0000000000
40
0.0000000000
40
0.0000000000
40
0.0000000000
40
0.0000000000
40
1.0000000000
40
1.0000000000
40
1.0000000000
40
1.0000000000
10
-26.2317240834
20
-4.9966107342
30
0.0000000000
10
-26.2317240834
20
-4.8517241478
30
0.0000000000
10
-26.2813792825
20
-4.7296550274
30
0.0000000000
10
-26.3765737927
20
-4.6303661278
30
0.0000000000
11
-26.2317240834
21
-4.9966107342
31
0.0000000000
11
-26.3765737927
21
-4.6303661278
31
0.0000000000
0
SPLINE
5
37D
100
AcDbEntity
8
0
100
AcDbSpline
62
0
6
CONTINUOUS
70
0
71
3
72
8
73
4
74
2
42
0.0000001000
43
0.0000001000
44
0.0000000001
12
0.2933632096
22
0.2902089013
32
0.0000000000
13
0.0000000000
23
0.4529261191
33
0.0000000000
40
0.0000000000
40
0.0000000000
40
0.0000000000
40
0.0000000000
40
1.0000000000
40
1.0000000000
40
1.0000000000
40
1.0000000000
10
-26.3791670190
20
-5.3705292825
30
0.0000000000
10
-26.2813792825
20
-5.2737929821
30
0.0000000000
10
-26.2317240834
20
-5.1475861073
30
0.0000000000
10
-26.2317240834
20
-4.9966107342
30
0.0000000000
11
-26.3791670190
21
-5.3705292825
31
0.0000000000
11
-26.2317240834
21
-4.9966107342
31
0.0000000000
0
SPLINE
5
37E
100
AcDbEntity
8
0
100
AcDbSpline
62
0
6
CONTINUOUS
70
0
71
3
72
8
73
4
74
2
42
0.0000001000
43
0.0000001000
44
0.0000000001
12
0.4717238545
22
0.0124132633
32
0.0000000000
13
0.2838782112
23
0.2808258878
33
0.0000000000
40
0.0000000000
40
0.0000000000
40
0.0000000000
40
0.0000000000
40
1.0000000000
40
1.0000000000
40
1.0000000000
40
1.0000000000
10
-26.7593103051
20
-5.5158619881
30
0.0000000000
10
-26.6020690203
20
-5.5117242336
30
0.0000000000
10
-26.4737930894
20
-5.4641379118
30
0.0000000000
10
-26.3791670190
20
-5.3705292825
30
0.0000000000
11
-26.7593103051
21
-5.5158619881
31
0.0000000000
11
-26.3791670190
21
-5.3705292825
31
0.0000000000
0
SPLINE
5
37F
100
AcDbEntity
8
0
100
AcDbSpline
62
0
6
CONTINUOUS
70
0
71
3
72
8
73
4
74
2
42
0.0000001000
43
0.0000001000
44
0.0000000001
12
-0.3553061136
22
0.3647390944
32
0.0000000000
13
-0.5834483206
23
0.0124137998
33
0.0000000000
40
0.0000000000
40
0.0000000000
40
0.0000000000
40
0.0000000000
40
1.0000000000
40
1.0000000000
40
1.0000000000
40
1.0000000000
10
-27.6546680448
20
-2.1739934746
30
0.0000000000
10
-27.7731034160
20
-2.0524137765
30
0.0000000000
10
-27.9303447902
20
-1.9924137890
30
0.0000000000
10
-28.1248275638
20
-1.9882758558
30
0.0000000000
11
-27.6546680448
21
-2.1739934746
31
0.0000000000
11
-28.1248275638
21
-1.9882758558
31
0.0000000000
0
SPLINE
5
380
100
AcDbEntity
8
0
100
AcDbSpline
62
0
6
CONTINUOUS
70
0
71
3
72
8
73
4
74
2
42
0.0000001000
43
0.0000001000
44
0.0000000001
12
0.0000000000
22
0.5773748871
32
0.0000000000
13
-0.3460730366
23
0.3552608895
33
0.0000000000
40
0.0000000000
40
0.0000000000
40
0.0000000000
40
0.0000000000
40
1.0000000000
40
1.0000000000
40
1.0000000000
40
1.0000000000
10
-27.4793103337
20
-2.6379755079
30
0.0000000000
10
-27.4793103337
20
-2.4455172122
30
0.0000000000
10
-27.5393103659
20
-2.2924137712
30
0.0000000000
10
-27.6546680448
20
-2.1739934746
30
0.0000000000
11
-27.4793103337
21
-2.6379755079
31
0.0000000000
11
-27.6546680448
21
-2.1739934746
31
0.0000000000
0
SPLINE
5
381
100
AcDbEntity
8
0
100
AcDbSpline
62
0
6
CONTINUOUS
70
0
71
3
72
8
73
4
74
2
42
0.0000001000
43
0.0000001000
44
0.0000000001
12
0.3507034422
22
0.3507034422
32
0.0000000000
13
0.0000000000
23
0.5957286540
33
0.0000000000
40
0.0000000000
40
0.0000000000
40
0.0000000000
40
0.0000000000
40
1.0000000000
40
1.0000000000
40
1.0000000000
40
1.0000000000
10
-27.6562115133
20
-3.1106942475
30
0.0000000000
10
-27.5393103659
20
-2.9937931001
30
0.0000000000
10
-27.4793103337
20
-2.8365517259
30
0.0000000000
10
-27.4793103337
20
-2.6379755079
30
0.0000000000
11
-27.6562115133
21
-3.1106942475
31
0.0000000000
11
-27.4793103337
21
-2.6379755079
31
0.0000000000
0
SPLINE
5
382
100
AcDbEntity
8
0
100
AcDbSpline
62
0
6
CONTINUOUS
70
0
71
3
72
8
73
4
74
2
42
0.0000001000
43
0.0000001000
44
0.0000000001
12
0.5835803674
22
0.0000000000
32
0.0000000000
13
0.3506757080
23
0.3506757080
33
0.0000000000
40
0.0000000000
40
0.0000000000
40
0.0000000000
40
0.0000000000
40
1.0000000000
40
1.0000000000
40
1.0000000000
40
1.0000000000
10
-28.1248715794
20
-3.2855172157
30
0.0000000000
10
-27.9303447902
20
-3.2855172157
30
0.0000000000
10
-27.7731034160
20
-3.2275861502
30
0.0000000000
10
-27.6562115133
20
-3.1106942475
30
0.0000000000
11
-28.1248715794
21
-3.2855172157
31
0.0000000000
11
-27.6562115133
21
-3.1106942475
31
0.0000000000
0
SPLINE
5
383
100
AcDbEntity
8
0
100
AcDbSpline
62
0
6
CONTINUOUS
70
0
71
3
72
8
73
4
74
2
42
0.0000001000
43
0.0000001000
44
0.0000000001
12
0.3552671746
22
-0.3460791269
32
0.0000000000
13
0.5771093739
23
0.0000000000
33
0.0000000000
40
0.0000000000
40
0.0000000000
40
0.0000000000
40
0.0000000000
40
1.0000000000
40
1.0000000000
40
1.0000000000
40
1.0000000000
10
-28.5929051365
20
-3.1122264412
30
0.0000000000
10
-28.4744827449
20
-3.2275861502
30
0.0000000000
10
-28.3172413707
20
-3.2855172157
30
0.0000000000
10
-28.1248715794
20
-3.2855172157
30
0.0000000000
11
-28.5929051365
21
-3.1122264412
31
0.0000000000
11
-28.1248715794
21
-3.2855172157
31
0.0000000000
0
SPLINE
5
384
100
AcDbEntity
8
0
100
AcDbSpline
62
0
6
CONTINUOUS
70
0
71
3
72
8
73
4
74
2
42
0.0000001000
43
0.0000001000
44
0.0000000001
12
0.0000000000
22
-0.5958621204
32
0.0000000000
13
0.3647328764
23
-0.3553000233
33
0.0000000000
40
0.0000000000
40
0.0000000000
40
0.0000000000
40
0.0000000000
40
1.0000000000
40
1.0000000000
40
1.0000000000
40
1.0000000000
10
-28.7765517160
20
-2.6379310191
30
0.0000000000
10
-28.7765517160
20
-2.8365517259
30
0.0000000000
10
-28.7144827619
20
-2.9937931001
30
0.0000000000
10
-28.5929051365
20
-3.1122264412
30
0.0000000000
11
-28.7765517160
21
-2.6379310191
31
0.0000000000
11
-28.5929051365
21
-3.1122264412
31
0.0000000000
0
SPLINE
5
385
100
AcDbEntity
8
0
100
AcDbSpline
62
0
6
CONTINUOUS
70
0
71
3
72
8
73
4
74
2
42
0.0000001000
43
0.0000001000
44
0.0000000001
12
-0.3600534796
22
-0.3600534461
32
0.0000000000
13
0.0000000000
23
-0.5772414207
33
0.0000000000
40
0.0000000000
40
0.0000000000
40
0.0000000000
40
0.0000000000
40
1.0000000000
40
1.0000000000
40
1.0000000000
40
1.0000000000
10
-28.5944649354
20
-2.1723959558
30
0.0000000000
10
-28.7144827619
20
-2.2924137712
30
0.0000000000
10
-28.7765517160
20
-2.4455172122
30
0.0000000000
10
-28.7765517160
20
-2.6379310191
30
0.0000000000
11
-28.5944649354
21
-2.1723959558
31
0.0000000000
11
-28.7765517160
21
-2.6379310191
31
0.0000000000
0
SPLINE
5
386
100
AcDbEntity
8
0
100
AcDbSpline
62
0
6
CONTINUOUS
70
0
71
3
72
8
73
4
74
2
42
0.0000001000
43
0.0000001000
44
0.0000000001
12
-0.5772414207
22
-0.0124137998
32
0.0000000000
13
-0.3599465714
23
-0.3599465379
33
0.0000000000
40
0.0000000000
40
0.0000000000
40
0.0000000000
40
0.0000000000
40
1.0000000000
40
1.0000000000
40
1.0000000000
40
1.0000000000
10
-28.1248275638
20
-1.9882758558
30
0.0000000000
10
-28.3172413707
20
-1.9924137890
30
0.0000000000
10
-28.4744827449
20
-2.0524137765
30
0.0000000000
10
-28.5944649354
20
-2.1723959558
30
0.0000000000
11
-28.1248275638
21
-1.9882758558
31
0.0000000000
11
-28.5944649354
21
-2.1723959558
31
0.0000000000
0
SPLINE
5
387
100
AcDbEntity
8
0
100
AcDbSpline
62
0
6
CONTINUOUS
70
0
71
3
72
8
73
4
74
2
42
0.0000001000
43
0.0000001000
44
0.0000000001
12
0.3397903543
22
-0.3306064629
32
0.0000000000
13
0.5400000215
23
-0.0124143362
33
0.0000000000
40
0.0000000000
40
0.0000000000
40
0.0000000000
40
0.0000000000
40
1.0000000000
40
1.0000000000
40
1.0000000000
40
1.0000000000
10
-28.5960220629
20
-5.4573839100
30
0.0000000000
10
-28.4827586114
20
-5.5675860643
30
0.0000000000
10
-28.3379310369
20
-5.6234482527
30
0.0000000000
10
-28.1579310298
20
-5.6275863647
30
0.0000000000
11
-28.5960220629
21
-5.4573839100
31
0.0000000000
11
-28.1579310298
21
-5.6275863647
31
0.0000000000
0
SPLINE
5
388
100
AcDbEntity
8
0
100
AcDbSpline
62
0
6
CONTINUOUS
70
0
71
3
72
8
73
4
74
2
42
0.0000001000
43
0.0000001000
44
0.0000000001
12
0.0000000000
22
-0.5835800993
32
0.0000000000
13
0.3491751973
23
-0.3397376514
33
0.0000000000
40
0.0000000000
40
0.0000000000
40
0.0000000000
40
0.0000000000
40
1.0000000000
40
1.0000000000
40
1.0000000000
40
1.0000000000
10
-28.7724137828
20
-4.9965076173
30
0.0000000000
10
-28.7724137828
20
-5.1910343170
30
0.0000000000
10
-28.7124137953
20
-5.3441380262
30
0.0000000000
10
-28.5960220629
20
-5.4573839100
30
0.0000000000
11
-28.7724137828
21
-4.9965076173
31
0.0000000000
11
-28.5960220629
21
-5.4573839100
31
0.0000000000
0
SPLINE
5
389
100
AcDbEntity
8
0
100
AcDbSpline
62
0
6
CONTINUOUS
70
0
71
3
72
8
73
4
74
2
42
0.0000001000
43
0.0000001000
44
0.0000000001
12
-0.3429770464
22
-0.3398870615
32
0.0000000000
13
0.0000000000
23
-0.5771093739
33
0.0000000000
40
0.0000000000
40
0.0000000000
40
0.0000000000
40
0.0000000000
40
1.0000000000
40
1.0000000000
40
1.0000000000
40
1.0000000000
10
-28.5980881132
20
-4.5398076644
30
0.0000000000
10
-28.7124137953
20
-4.6531033516
30
0.0000000000
10
-28.7724137828
20
-4.8041378260
30
0.0000000000
10
-28.7724137828
20
-4.9965076173
30
0.0000000000
11
-28.5980881132
21
-4.5398076644
31
0.0000000000
11
-28.7724137828
21
-4.9965076173
31
0.0000000000
0
SPLINE
5
38A
100
AcDbEntity
8
0
100
AcDbSpline
62
0
6
CONTINUOUS
70
0
71
3
72
8
73
4
74
2
42
0.0000001000
43
0.0000001000
44
0.0000000001
12
-0.5400000215
22
0.0000000000
32
0.0000000000
13
-0.3459885052
23
-0.3428713891
33
0.0000000000
40
0.0000000000
40
0.0000000000
40
0.0000000000
40
0.0000000000
40
1.0000000000
40
1.0000000000
40
1.0000000000
40
1.0000000000
10
-28.1579310298
20
-4.3675861359
30
0.0000000000
10
-28.3379310369
20
-4.3675861359
30
0.0000000000
10
-28.4827586114
20
-4.4255172014
30
0.0000000000
10
-28.5980881132
20
-4.5398076644
30
0.0000000000
11
-28.1579310298
21
-4.3675861359
31
0.0000000000
11
-28.5980881132
21
-4.5398076644
31
0.0000000000
0
SPLINE
5
38B
100
AcDbEntity
8
0
100
AcDbSpline
62
0
6
CONTINUOUS
70
0
71
3
72
8
73
4
74
2
42
0.0000001000
43
0.0000001000
44
0.0000000001
12
-0.3398732396
22
0.3429912092
32
0.0000000000
13
-0.5400000215
23
0.0000000000
33
0.0000000000
40
0.0000000000
40
0.0000000000
40
0.0000000000
40
0.0000000000
40
1.0000000000
40
1.0000000000
40
1.0000000000
40
1.0000000000
10
-27.7177434017
20
-4.5398476045
30
0.0000000000
10
-27.8310344815
20
-4.4255172014
30
0.0000000000
10
-27.9779310226
20
-4.3675861359
30
0.0000000000
10
-28.1579310298
20
-4.3675861359
30
0.0000000000
11
-27.7177434017
21
-4.5398476045
31
0.0000000000
11
-28.1579310298
21
-4.3675861359
31
0.0000000000
0
SPLINE
5
38C
100
AcDbEntity
8
0
100
AcDbSpline
62
0
6
CONTINUOUS
70
0
71
3
72
8
73
4
74
2
42
0.0000001000
43
0.0000001000
44
0.0000000001
12
0.0000000000
22
0.5773748871
32
0.0000000000
13
-0.3366785793
23
0.3397672413
33
0.0000000000
40
0.0000000000
40
0.0000000000
40
0.0000000000
40
0.0000000000
40
1.0000000000
40
1.0000000000
40
1.0000000000
40
1.0000000000
10
-27.5475862324
20
-4.9965961217
30
0.0000000000
10
-27.5475862324
20
-4.8041378260
30
0.0000000000
10
-27.6055172086
20
-4.6531033516
30
0.0000000000
10
-27.7177434017
20
-4.5398476045
30
0.0000000000
11
-27.5475862324
21
-4.9965961217
31
0.0000000000
11
-27.7177434017
21
-4.5398476045
31
0.0000000000
0
SPLINE
5
38D
100
AcDbEntity
8
0
100
AcDbSpline
62
0
6
CONTINUOUS
70
0
71
3
72
8
73
4
74
2
42
0.0000001000
43
0.0000001000
44
0.0000000001
12
0.3429488298
22
0.3398021011
32
0.0000000000
13
0.0000000000
23
0.5833145861
33
0.0000000000
40
0.0000000000
40
0.0000000000
40
0.0000000000
40
0.0000000000
40
1.0000000000
40
1.0000000000
40
1.0000000000
40
1.0000000000
10
-27.7198334852
20
-5.4574053933
30
0.0000000000
10
-27.6055172086
20
-5.3441380262
30
0.0000000000
10
-27.5475862324
20
-5.1910343170
30
0.0000000000
10
-27.5475862324
20
-4.9965961217
30
0.0000000000
11
-27.7198334852
21
-5.4574053933
31
0.0000000000
11
-27.5475862324
21
-4.9965961217
31
0.0000000000
0
SPLINE
5
38E
100
AcDbEntity
8
0
100
AcDbSpline
62
0
6
CONTINUOUS
70
0
71
3
72
8
73
4
74
2
42
0.0000001000
43
0.0000001000
44
0.0000000001
12
0.5400000215
22
0.0124143362
32
0.0000000000
13
0.3336029891
23
0.3305420132
33
0.0000000000
40
0.0000000000
40
0.0000000000
40
0.0000000000
40
0.0000000000
40
1.0000000000
40
1.0000000000
40
1.0000000000
40
1.0000000000
10
-28.1579310298
20
-5.6275863647
30
0.0000000000
10
-27.9779310226
20
-5.6234482527
30
0.0000000000
10
-27.8310344815
20
-5.5675860643
30
0.0000000000
10
-27.7198334852
20
-5.4574053933
30
0.0000000000
11
-28.1579310298
21
-5.6275863647
31
0.0000000000
11
-27.7198334852
21
-5.4574053933
31
0.0000000000
0
SPLINE
5
38F
100
AcDbEntity
8
0
100
AcDbSpline
62
0
6
CONTINUOUS
70
0
71
3
72
8
73
4
74
2
42
0.0000001000
43
0.0000001000
44
0.0000000001
12
0.5383932125
22
0.5292160179
32
0.0000000000
13
0.0000000000
23
0.8751943588
33
0.0000000000
40
0.0000000000
40
0.0000000000
40
0.0000000000
40
0.0000000000
40
1.0000000000
40
1.0000000000
40
1.0000000000
40
1.0000000000
10
-0.2656712576
20
-40.9770950038
30
0.0000000000
10
-0.0862068534
20
-40.8006896645
30
0.0000000000
10
0.0048274994
20
-40.5668965697
30
0.0000000000
10
0.0048274994
20
-40.2751651168
30
0.0000000000
11
-0.2656712576
21
-40.9770950038
31
0.0000000000
11
0.0048274994
21
-40.2751651168
31
0.0000000000
0
SPLINE
5
390
100
AcDbEntity
8
0
100
AcDbSpline
62
0
6
CONTINUOUS
70
0
71
3
72
8
73
4
74
2
42
0.0000001000
43
0.0000001000
44
0.0000000001
12
0.0000000000
22
0.8441161037
32
0.0000000000
13
-0.4952235455
23
0.5292703164
33
0.0000000000
40
0.0000000000
40
0.0000000000
40
0.0000000000
40
0.0000000000
40
1.0000000000
40
1.0000000000
40
1.0000000000
40
1.0000000000
10
0.0048274994
20
-40.2751651168
30
0.0000000000
10
0.0048274994
20
-39.9937930822
30
0.0000000000
10
-0.0779309869
20
-39.7620689988
30
0.0000000000
10
-0.2430055021
20
-39.5856455600
30
0.0000000000
11
0.0048274994
21
-40.2751651168
31
0.0000000000
11
-0.2430055021
21
-39.5856455600
31
0.0000000000
0
SPLINE
5
391
100
AcDbEntity
8
0
100
AcDbSpline
62
0
6
CONTINUOUS
70
0
71
3
72
8
73
4
74
2
42
0.0000001000
43
0.0000001000
44
0.0000000001
12
-0.4978798991
22
0.5321092951
32
0.0000000000
13
-0.8379438348
23
0.0041690567
33
0.0000000000
40
0.0000000000
40
0.0000000000
40
0.0000000000
40
0.0000000000
40
1.0000000000
40
1.0000000000
40
1.0000000000
40
1.0000000000
10
-0.2430055021
20
-39.5856455600
30
0.0000000000
10
-0.4089654684
20
-39.4082757950
30
0.0000000000
10
-0.6303448081
20
-39.3172414422
30
0.0000000000
10
-0.9096594197
20
-39.3158517566
30
0.0000000000
11
-0.2430055021
21
-39.5856455600
31
0.0000000000
11
-0.9096594197
21
-39.3158517566
31
0.0000000000
0
SPLINE
5
392
100
AcDbEntity
8
0
100
AcDbSpline
62
0
6
CONTINUOUS
70
0
71
3
72
8
73
4
74
2
42
0.0000001000
43
0.0000001000
44
0.0000000001
12
-0.4096425049
22
0.0020381114
32
0.0000000000
13
-0.3724137247
23
-0.1427584291
33
0.0000000000
40
0.0000000000
40
0.0000000000
40
0.0000000000
40
0.0000000000
40
1.0000000000
40
1.0000000000
40
1.0000000000
40
1.0000000000
10
-0.9096594197
20
-39.3158517566
30
0.0000000000
10
-1.0462069213
20
-39.3151723862
30
0.0000000000
10
-1.1765517294
20
-39.3379311085
30
0.0000000000
10
-1.3006896377
20
-39.3855172515
30
0.0000000000
11
-0.9096594197
21
-39.3158517566
31
0.0000000000
11
-1.3006896377
21
-39.3855172515
31
0.0000000000
0
SPLINE
5
393
100
AcDbEntity
8
0
100
AcDbSpline
62
0
6
CONTINUOUS
70
0
71
3
72
8
73
4
74
2
42
0.0000001000
43
0.0000001000
44
0.0000000001
12
-0.6394309306
22
0.0000000000
32
0.0000000000
13
-0.5648276210
23
-0.3289654255
33
0.0000000000
40
0.0000000000
40
0.0000000000
40
0.0000000000
40
0.0000000000
40
1.0000000000
40
1.0000000000
40
1.0000000000
40
1.0000000000
10
-0.9985805186
20
-39.5944827914
30
0.0000000000
10
-1.2117241621
20
-39.5944827914
30
0.0000000000
10
-1.4144827574
20
-39.6482759237
30
0.0000000000
10
-1.6027586311
20
-39.7579310656
30
0.0000000000
11
-0.9985805186
21
-39.5944827914
31
0.0000000000
11
-1.6027586311
21
-39.7579310656
31
0.0000000000
0
SPLINE
5
394
100
AcDbEntity
8
0
100
AcDbSpline
62
0
6
CONTINUOUS
70
0
71
3
72
8
73
4
74
2
42
0.0000001000
43
0.0000001000
44
0.0000000001
12
-0.3926384655
22
0.3895224198
32
0.0000000000
13
-0.6391899085
23
0.0000000000
33
0.0000000000
40
0.0000000000
40
0.0000000000
40
0.0000000000
40
0.0000000000
40
1.0000000000
40
1.0000000000
40
1.0000000000
40
1.0000000000
10
-0.4829135866
20
-39.7884614740
30
0.0000000000
10
-0.6137930751
20
-39.6586206675
30
0.0000000000
10
-0.7855172157
20
-39.5944827914
30
0.0000000000
10
-0.9985805186
20
-39.5944827914
30
0.0000000000
11
-0.4829135866
21
-39.7884614740
31
0.0000000000
11
-0.9985805186
21
-39.5944827914
31
0.0000000000
0
SPLINE
5
395
100
AcDbEntity
8
0
100
AcDbSpline
62
0
6
CONTINUOUS
70
0
71
3
72
8
73
4
74
2
42
0.0000001000
43
0.0000001000
44
0.0000000001
12
0.0000000000
22
0.6518421671
32
0.0000000000
13
-0.3894303831
23
0.3863397972
33
0.0000000000
40
0.0000000000
40
0.0000000000
40
0.0000000000
40
0.0000000000
40
1.0000000000
40
1.0000000000
40
1.0000000000
40
1.0000000000
10
-0.2889655828
20
-40.3062462695
30
0.0000000000
10
-0.2889655828
20
-40.0889655471
30
0.0000000000
10
-0.3531034589
20
-39.9172414064
30
0.0000000000
10
-0.4829135866
20
-39.7884614740
30
0.0000000000
11
-0.2889655828
21
-40.3062462695
31
0.0000000000
11
-0.4829135866
21
-39.7884614740
31
0.0000000000
0
SPLINE
5
396
100
AcDbEntity
8
0
100
AcDbSpline
62
0
6
CONTINUOUS
70
0
71
3
72
8
73
4
74
2
42
0.0000001000
43
0.0000001000
44
0.0000000001
12
0.3631694989
22
0.3753767825
32
0.0000000000
13
0.0000000000
23
0.5647094049
33
0.0000000000
40
0.0000000000
40
0.0000000000
40
0.0000000000
40
0.0000000000
40
1.0000000000
40
1.0000000000
40
1.0000000000
40
1.0000000000
10
-0.4720909025
20
-40.7768497509
30
0.0000000000
10
-0.3510344028
20
-40.6517241567
30
0.0000000000
10
-0.2889655828
20
-40.4944827378
30
0.0000000000
10
-0.2889655828
20
-40.3062462695
30
0.0000000000
11
-0.4720909025
21
-40.7768497509
31
0.0000000000
11
-0.2889655828
21
-40.3062462695
31
0.0000000000
0
SPLINE
5
397
100
AcDbEntity
8
0
100
AcDbSpline
62
0
6
CONTINUOUS
70
0
71
3
72
8
73
4
74
2
42
0.0000001000
43
0.0000001000
44
0.0000000001
12
0.5711634833
22
-0.0026080253
32
0.0000000000
13
0.3754513188
23
0.3880714335
33
0.0000000000
40
0.0000000000
40
0.0000000000
40
0.0000000000
40
0.0000000000
40
1.0000000000
40
1.0000000000
40
1.0000000000
40
1.0000000000
10
-0.9428015775
20
-40.9715444410
30
0.0000000000
10
-0.7524137497
20
-40.9724137828
30
0.0000000000
10
-0.5972413421
20
-40.9062068954
30
0.0000000000
10
-0.4720909025
20
-40.7768497509
30
0.0000000000
11
-0.9428015775
21
-40.9715444410
31
0.0000000000
11
-0.4720909025
21
-40.7768497509
31
0.0000000000
0
SPLINE
5
398
100
AcDbEntity
8
0
100
AcDbSpline
62
0
6
CONTINUOUS
70
0
71
3
72
8
73
4
74
2
42
0.0000001000
43
0.0000001000
44
0.0000000001
12
0.3537931591
22
-0.7572414503
32
0.0000000000
13
0.7881470543
23
-0.0035988075
33
0.0000000000
40
0.0000000000
40
0.0000000000
40
0.0000000000
40
0.0000000000
40
1.0000000000
40
1.0000000000
40
1.0000000000
40
1.0000000000
10
-1.5117241442
20
-40.5896551579
30
0.0000000000
10
-1.3937930912
20
-40.8420689747
30
0.0000000000
10
-1.2055172622
20
-40.9703448385
30
0.0000000000
10
-0.9428015775
20
-40.9715444410
30
0.0000000000
11
-1.5117241442
21
-40.5896551579
31
0.0000000000
11
-0.9428015775
21
-40.9715444410
31
0.0000000000
0
SPLINE
5
399
100
AcDbEntity
8
0
100
AcDbSpline
62
0
6
CONTINUOUS
70
0
71
3
72
8
73
4
74
2
42
0.0000001000
43
0.0000001000
44
0.0000000001
12
-1.1483430413
22
0.0000000000
32
0.0000000000
13
-0.5213793218
23
1.0551723763
33
0.0000000000
40
0.0000000000
40
0.0000000000
40
0.0000000000
40
0.0000000000
40
1.0000000000
40
1.0000000000
40
1.0000000000
40
1.0000000000
10
-0.9675638229
20
-41.2475862045
30
0.0000000000
10
-1.3503448367
20
-41.2475862045
30
0.0000000000
10
-1.6296551749
20
-41.0737931028
30
0.0000000000
10
-1.8034482822
20
-40.7220689774
30
0.0000000000
11
-0.9675638229
21
-41.2475862045
31
0.0000000000
11
-1.8034482822
21
-40.7220689774
31
0.0000000000
0
SPLINE
5
39A
100
AcDbEntity
8
0
100
AcDbSpline
62
0
6
CONTINUOUS
70
0
71
3
72
8
73
4
74
2
42
0.0000001000
43
0.0000001000
44
0.0000000001
12
-0.5540206302
22
-0.5445770580
32
0.0000000000
13
-0.8564845475
23
0.0000000000
33
0.0000000000
40
0.0000000000
40
0.0000000000
40
0.0000000000
40
0.0000000000
40
1.0000000000
40
1.0000000000
40
1.0000000000
40
1.0000000000
10
-0.2656712576
20
-40.9770950038
30
0.0000000000
10
-0.4503448009
20
-41.1586206898
30
0.0000000000
10
-0.6820689738
20
-41.2475862045
30
0.0000000000
10
-0.9675638229
20
-41.2475862045
30
0.0000000000
11
-0.2656712576
21
-40.9770950038
31
0.0000000000
11
-0.9675638229
21
-41.2475862045
31
0.0000000000
0
SPLINE
5
39B
100
AcDbEntity
8
0
100
AcDbSpline
62
0
6
CONTINUOUS
70
0
71
3
72
8
73
4
74
2
42
0.0000001000
43
0.0000001000
44
0.0000000001
12
-0.4441581203
22
0.2714298291
32
0.0000000000
13
-0.6144822836
23
0.0000000000
33
0.0000000000
40
0.0000000000
40
0.0000000000
40
0.0000000000
40
0.0000000000
40
1.0000000000
40
1.0000000000
40
1.0000000000
40
1.0000000000
10
1.8308111573
20
-39.9022007182
30
0.0000000000
10
1.6827584505
20
-39.8117241085
30
0.0000000000
10
1.5068963766
20
-39.7682758987
30
0.0000000000
10
1.3020689487
20
-39.7682758987
30
0.0000000000
11
1.8308111573
21
-39.9022007182
31
0.0000000000
11
1.3020689487
21
-39.7682758987
31
0.0000000000
0
SPLINE
5
39C
100
AcDbEntity
8
0
100
AcDbSpline
62
0
6
CONTINUOUS
70
0
71
3
72
8
73
4
74
2
42
0.0000001000
43
0.0000001000
44
0.0000000001
12
0.0000000000
22
0.6828715524
32
0.0000000000
13
-0.4496354626
23
0.2747770922
33
0.0000000000
40
0.0000000000
40
0.0000000000
40
0.0000000000
40
0.0000000000
40
1.0000000000
40
1.0000000000
40
1.0000000000
40
1.0000000000
10
2.0551724434
20
-40.3827962406
30
0.0000000000
10
2.0551724434
20
-40.1551723897
30
0.0000000000
10
1.9806896448
20
-39.9937930822
30
0.0000000000
10
1.8308111573
20
-39.9022007182
30
0.0000000000
11
2.0551724434
21
-40.3827962406
31
0.0000000000
11
1.8308111573
21
-39.9022007182
31
0.0000000000
0
SPLINE
5
39D
100
AcDbEntity
8
0
100
AcDbSpline
62
0
6
CONTINUOUS
70
0
71
3
72
8
73
4
74
2
42
0.0000001000
43
0.0000001000
44
0.0000000001
12
0.3429767105
22
0.3215405007
32
0.0000000000
13
0.0000000000
23
0.5336802879
33
0.0000000000
40
0.0000000000
40
0.0000000000
40
0.0000000000
40
0.0000000000
40
1.0000000000
40
1.0000000000
40
1.0000000000
40
1.0000000000
10
1.8808469304
20
-40.8085594780
30
0.0000000000
10
1.9951725006
20
-40.7013793111
30
0.0000000000
10
2.0551724434
20
-40.5606896698
30
0.0000000000
10
2.0551724434
20
-40.3827962406
30
0.0000000000
11
1.8808469304
21
-40.8085594780
31
0.0000000000
11
2.0551724434
21
-40.3827962406
31
0.0000000000
0
SPLINE
5
39E
100
AcDbEntity
8
0
100
AcDbSpline
62
0
6
CONTINUOUS
70
0
71
3
72
8
73
4
74
2
42
0.0000001000
43
0.0000001000
44
0.0000000001
12
0.5275862217
22
0.0000000000
32
0.0000000000
13
0.3521960762
23
0.3301836516
33
0.0000000000
40
0.0000000000
40
0.0000000000
40
0.0000000000
40
0.0000000000
40
1.0000000000
40
1.0000000000
40
1.0000000000
40
1.0000000000
10
1.4427586794
20
-40.9765517160
30
0.0000000000
10
1.6186207533
20
-40.9765517160
30
0.0000000000
10
1.7634482384
20
-40.9186206952
30
0.0000000000
10
1.8808469304
20
-40.8085594780
30
0.0000000000
11
1.4427586794
21
-40.9765517160
31
0.0000000000
11
1.8808469304
21
-40.8085594780
31
0.0000000000
0
SPLINE
5
39F
100
AcDbEntity
8
0
100
AcDbSpline
62
0
6
CONTINUOUS
70
0
71
3
72
8
73
4
74
2
42
0.0000001000
43
0.0000001000
44
0.0000000001
12
0.2606892586
22
-0.8441379145
32
0.0000000000
13
1.0117238760
23
0.0000000000
33
0.0000000000
40
0.0000000000
40
0.0000000000
40
0.0000000000
40
0.0000000000
40
1.0000000000
40
1.0000000000
40
1.0000000000
40
1.0000000000
10
0.8055173159
20
-40.5524138033
30
0.0000000000
10
0.8924137354
20
-40.8337931082
30
0.0000000000
10
1.1055173874
20
-40.9765517160
30
0.0000000000
10
1.4427586794
20
-40.9765517160
30
0.0000000000
11
0.8055173159
21
-40.5524138033
31
0.0000000000
11
1.4427586794
21
-40.9765517160
31
0.0000000000
0
SPLINE
5
3A0
100
AcDbEntity
8
0
100
AcDbSpline
62
0
6
CONTINUOUS
70
0
71
3
72
8
73
4
74
2
42
0.0000001000
43
0.0000001000
44
0.0000000001
12
-1.3220320416
22
-0.0115967811
32
0.0000000000
13
-0.5213790536
23
1.2165516727
33
0.0000000000
40
0.0000000000
40
0.0000000000
40
0.0000000000
40
0.0000000000
40
1.0000000000
40
1.0000000000
40
1.0000000000
40
1.0000000000
10
1.4137808705
20
-41.2499275107
30
0.0000000000
10
0.9731035233
20
-41.2537931044
30
0.0000000000
10
0.6648275852
20
-41.0551724143
30
0.0000000000
10
0.4910345674
20
-40.6496551901
30
0.0000000000
11
1.4137808705
21
-41.2499275107
31
0.0000000000
11
0.4910345674
21
-40.6496551901
31
0.0000000000
0
SPLINE
5
3A1
100
AcDbEntity
8
0
100
AcDbSpline
62
0
6
CONTINUOUS
70
0
71
3
72
8
73
4
74
2
42
0.0000001000
43
0.0000001000
44
0.0000000001
12
-0.5347683119
22
-0.4446040863
32
0.0000000000
13
-0.8007261085
23
-0.0070239186
33
0.0000000000
40
0.0000000000
40
0.0000000000
40
0.0000000000
40
0.0000000000
40
1.0000000000
40
1.0000000000
40
1.0000000000
40
1.0000000000
10
2.0803251958
20
-41.0249020857
30
0.0000000000
10
1.9020690918
20
-41.1731034478
30
0.0000000000
10
1.6806895733
20
-41.2475862045
30
0.0000000000
10
1.4137808705
20
-41.2499275107
30
0.0000000000
11
2.0803251958
21
-41.0249020857
31
0.0000000000
11
1.4137808705
21
-41.2499275107
31
0.0000000000
0
SPLINE
5
3A2
100
AcDbEntity
8
0
100
AcDbSpline
62
0
6
CONTINUOUS
70
0
71
3
72
8
73
4
74
2
42
0.0000001000
43
0.0000001000
44
0.0000000001
12
-0.0036478234
22
-0.8317392062
32
0.0000000000
13
-0.5328173948
23
-0.4429821022
33
0.0000000000
40
0.0000000000
40
0.0000000000
40
0.0000000000
40
0.0000000000
40
1.0000000000
40
1.0000000000
40
1.0000000000
40
1.0000000000
10
2.3501814668
20
-40.3868915097
30
0.0000000000
10
2.3489655256
20
-40.6641379118
30
0.0000000000
10
2.2579309940
20
-40.8772413850
30
0.0000000000
10
2.0803251958
20
-41.0249020857
30
0.0000000000
11
2.3501814668
21
-40.3868915097
31
0.0000000000
11
2.0803251958
21
-41.0249020857
31
0.0000000000
0
SPLINE
5
3A3
100
AcDbEntity
8
0
100
AcDbSpline
62
0
6
CONTINUOUS
70
0
71
3
72
8
73
4
74
2
42
0.0000001000
43
0.0000001000
44
0.0000000001
12
0.3148348485
22
-0.4187300764
32
0.0000000000
13
-0.0025588083
23
-0.5834331621
33
0.0000000000
40
0.0000000000
40
0.0000000000
40
0.0000000000
40
0.0000000000
40
1.0000000000
40
1.0000000000
40
1.0000000000
40
1.0000000000
10
2.1943653771
20
-39.8873198561
30
0.0000000000
10
2.2993103266
20
-40.0268965483
30
0.0000000000
10
2.3510344028
20
-40.1924137890
30
0.0000000000
10
2.3501814668
20
-40.3868915097
30
0.0000000000
11
2.1943653771
21
-39.8873198561
31
0.0000000000
11
2.3501814668
21
-40.3868915097
31
0.0000000000
0
SPLINE
5
3A4
100
AcDbEntity
8
0
100
AcDbSpline
62
0
6
CONTINUOUS
70
0
71
3
72
8
73
4
74
2
42
0.0000001000
43
0.0000001000
44
0.0000000001
12
0.5648281574
22
-0.1489655972
32
0.0000000000
13
0.3058551396
23
-0.4067870714
33
0.0000000000
40
0.0000000000
40
0.0000000000
40
0.0000000000
40
0.0000000000
40
1.0000000000
40
1.0000000000
40
1.0000000000
40
1.0000000000
10
1.7634482384
20
-39.6151724577
30
0.0000000000
10
1.9517242908
20
-39.6648276567
30
0.0000000000
10
2.0924136639
20
-39.7517241657
30
0.0000000000
10
2.1943653771
20
-39.8873198561
30
0.0000000000
11
1.7634482384
21
-39.6151724577
31
0.0000000000
11
2.1943653771
21
-39.8873198561
31
0.0000000000
0
SPLINE
5
3A5
100
AcDbEntity
8
0
100
AcDbSpline
62
0
6
CONTINUOUS
70
0
71
3
72
8
73
4
74
2
42
0.0000001000
43
0.0000001000
44
0.0000000001
12
-0.2885361409
22
-0.3700796587
32
0.0000000000
13
-0.4344824553
23
-0.1427589655
33
0.0000000000
40
0.0000000000
40
0.0000000000
40
0.0000000000
40
0.0000000000
40
1.0000000000
40
1.0000000000
40
1.0000000000
40
1.0000000000
10
2.1244546803
20
-39.3573298301
30
0.0000000000
10
2.0282759666
20
-39.4806897163
30
0.0000000000
10
1.9082757235
20
-39.5675861359
30
0.0000000000
10
1.7634482384
20
-39.6151724577
30
0.0000000000
11
2.1244546803
21
-39.3573298301
31
0.0000000000
11
1.7634482384
21
-39.6151724577
31
0.0000000000
0
SPLINE
5
3A6
100
AcDbEntity
8
0
100
AcDbSpline
62
0
6
CONTINUOUS
70
0
71
3
72
8
73
4
74
2
42
0.0000001000
43
0.0000001000
44
0.0000000001
12
0.0000000000
22
-0.4965902558
32
0.0000000000
13
-0.2824975753
23
-0.3623345273
33
0.0000000000
40
0.0000000000
40
0.0000000000
40
0.0000000000
40
0.0000000000
40
1.0000000000
40
1.0000000000
40
1.0000000000
40
1.0000000000
10
2.2682757378
20
-38.9282629612
30
0.0000000000
10
2.2682757378
20
-39.0937930465
30
0.0000000000
10
2.2186205387
20
-39.2365516543
30
0.0000000000
10
2.1244546803
20
-39.3573298301
30
0.0000000000
11
2.2682757378
21
-38.9282629612
31
0.0000000000
11
2.1244546803
21
-39.3573298301
31
0.0000000000
0
SPLINE
5
3A7
100
AcDbEntity
8
0
100
AcDbSpline
62
0
6
CONTINUOUS
70
0
71
3
72
8
73
4
74
2
42
0.0000001000
43
0.0000001000
44
0.0000000001
12
0.4884765399
22
-0.4044713081
32
0.0000000000
13
0.0000000000
23
-0.7509958157
33
0.0000000000
40
0.0000000000
40
0.0000000000
40
0.0000000000
40
0.0000000000
40
1.0000000000
40
1.0000000000
40
1.0000000000
40
1.0000000000
10
2.0226915594
20
-38.3506934464
30
0.0000000000
10
2.1855170727
20
-38.4855172157
30
0.0000000000
10
2.2682757378
20
-38.6779310226
30
0.0000000000
10
2.2682757378
20
-38.9282629612
30
0.0000000000
11
2.0226915594
21
-38.3506934464
31
0.0000000000
11
2.2682757378
21
-38.9282629612
31
0.0000000000
0
SPLINE
5
3A8
100
AcDbEntity
8
0
100
AcDbSpline
62
0
6
CONTINUOUS
70
0
71
3
72
8
73
4
74
2
42
0.0000001000
43
0.0000001000
44
0.0000000001
12
0.7137937546
22
0.0000000000
32
0.0000000000
13
0.4860054003
23
-0.4024251401
33
0.0000000000
40
0.0000000000
40
0.0000000000
40
0.0000000000
40
0.0000000000
40
1.0000000000
40
1.0000000000
40
1.0000000000
40
1.0000000000
10
1.4220688343
20
-38.1503448009
30
0.0000000000
10
1.6600000858
20
-38.1503448009
30
0.0000000000
10
1.8606897593
20
-38.2165517330
30
0.0000000000
10
2.0226915594
20
-38.3506934464
30
0.0000000000
11
1.4220688343
21
-38.1503448009
31
0.0000000000
11
2.0226915594
21
-38.3506934464
31
0.0000000000
0
SPLINE
5
3A9
100
AcDbEntity
8
0
100
AcDbSpline
62
0
6
CONTINUOUS
70
0
71
3
72
8
73
4
74
2
42
0.0000001000
43
0.0000001000
44
0.0000000001
12
0.5400000215
22
0.9434482455
32
0.0000000000
13
1.0862066746
23
0.0000000000
33
0.0000000000
40
0.0000000000
40
0.0000000000
40
0.0000000000
40
0.0000000000
40
1.0000000000
40
1.0000000000
40
1.0000000000
40
1.0000000000
10
0.6089655757
20
-38.6241378903
30
0.0000000000
10
0.7889655828
20
-38.3096551418
30
0.0000000000
10
1.0599999428
20
-38.1503448009
30
0.0000000000
10
1.4220688343
20
-38.1503448009
30
0.0000000000
11
0.6089655757
21
-38.6241378903
31
0.0000000000
11
1.4220688343
21
-38.1503448009
31
0.0000000000
0
SPLINE
5
3AA
100
AcDbEntity
8
0
100
AcDbSpline
62
0
6
CONTINUOUS
70
0
71
3
72
8
73
4
74
2
42
0.0000001000
43
0.0000001000
44
0.0000000001
12
-0.7511328584
22
0.0025549863
32
0.0000000000
13
-0.3724139929
23
-0.6517242193
33
0.0000000000
40
0.0000000000
40
0.0000000000
40
0.0000000000
40
0.0000000000
40
1.0000000000
40
1.0000000000
40
1.0000000000
40
1.0000000000
10
1.4324466827
20
-38.4325757455
30
0.0000000000
10
1.1820690632
20
-38.4317240834
30
0.0000000000
10
0.9958620667
20
-38.5413792253
30
0.0000000000
10
0.8717240691
20
-38.7586206317
30
0.0000000000
11
1.4324466827
21
-38.4325757455
31
0.0000000000
11
0.8717240691
21
-38.7586206317
31
0.0000000000
0
SPLINE
5
3AB
100
AcDbEntity
8
0
100
AcDbSpline
62
0
6
CONTINUOUS
70
0
71
3
72
8
73
4
74
2
42
0.0000001000
43
0.0000001000
44
0.0000000001
12
-0.0038884727
22
0.9993801560
32
0.0000000000
13
-1.0736940973
23
0.0036521818
33
0.0000000000
40
0.0000000000
40
0.0000000000
40
0.0000000000
40
0.0000000000
40
1.0000000000
40
1.0000000000
40
1.0000000000
40
1.0000000000
10
1.9737099359
20
-38.9365749427
30
0.0000000000
10
1.9724137783
20
-38.6034482241
30
0.0000000000
10
1.7903447151
20
-38.4337931395
30
0.0000000000
10
1.4324466827
20
-38.4325757455
30
0.0000000000
11
1.9737099359
21
-38.9365749427
31
0.0000000000
11
1.4324466827
21
-38.4325757455
31
0.0000000000
0
SPLINE
5
3AC
100
AcDbEntity
8
0
100
AcDbSpline
62
0
6
CONTINUOUS
70
0
71
3
72
8
73
4
74
2
42
0.0000001000
43
0.0000001000
44
0.0000000001
12
0.3709559885
22
0.2627603583
32
0.0000000000
13
-0.0023181590
23
0.5957923089
33
0.0000000000
40
0.0000000000
40
0.0000000000
40
0.0000000000
40
0.0000000000
40
1.0000000000
40
1.0000000000
40
1.0000000000
40
1.0000000000
10
1.7887618393
20
-39.3634488958
30
0.0000000000
10
1.9124138355
20
-39.2758621097
30
0.0000000000
10
1.9744826555
20
-39.1351723790
30
0.0000000000
10
1.9737099359
20
-38.9365749427
30
0.0000000000
11
1.7887618393
21
-39.3634488958
31
0.0000000000
11
1.9737099359
21
-38.9365749427
31
0.0000000000
0
SPLINE
5
3AD
100
AcDbEntity
8
0
100
AcDbSpline
62
0
6
CONTINUOUS
70
0
71
3
72
8
73
4
74
2
42
0.0000001000
43
0.0000001000
44
0.0000000001
12
0.5400005579
22
-0.0062066317
32
0.0000000000
13
0.3738719972
23
0.2648258634
33
0.0000000000
40
0.0000000000
40
0.0000000000
40
0.0000000000
40
0.0000000000
40
1.0000000000
40
1.0000000000
40
1.0000000000
40
1.0000000000
10
1.3289654255
20
-39.4931035161
30
0.0000000000
10
1.5089656115
20
-39.4951723933
30
0.0000000000
10
1.6641378403
20
-39.4517241836
30
0.0000000000
10
1.7887618393
20
-39.3634488958
30
0.0000000000
11
1.3289654255
21
-39.4931035161
31
0.0000000000
11
1.7887618393
21
-39.3634488958
31
0.0000000000
0
SPLINE
5
3AE
100
AcDbEntity
8
0
100
AcDbSpline
62
0
6
CONTINUOUS
70
0
71
3
72
14
73
10
74
8
42
0.0000001000
43
0.0000001000
44
0.0000000001
12
-0.3299909042
22
-0.7448971113
32
0.0000000000
13
0.0000000000
23
-0.8147181741
33
0.0000000000
40
0.0000000000
40
0.0000000000
40
0.0000000000
40
0.0000000000
40
0.1869212002
40
0.3567127798
40
0.5108522072
40
0.6510251115
40
0.7782622516
40
0.8942630257
40
1.0000000000
40
1.0000000000
40
1.0000000000
40
1.0000000000
10
26.4500000000
20
-34.1974063983
30
0.0000000000
10
26.4294392347
20
-34.2438187523
30
0.0000000000
10
26.3917944680
20
-34.3331155560
30
0.0000000000
10
26.3439691952
20
-34.4634075226
30
0.0000000000
10
26.3070305817
20
-34.5839842888
30
0.0000000000
10
26.2801236631
20
-34.6953348906
30
0.0000000000
10
26.2622079422
20
-34.7979834405
30
0.0000000000
10
26.2522061286
20
-34.8922963474
30
0.0000000000
10
26.2500000000
20
-34.9525313729
30
0.0000000000
10
26.2500000000
20
-34.9812466511
30
0.0000000000
11
26.4500000000
21
-34.1974063983
31
0.0000000000
11
26.3911536803
21
-34.3378655586
31
0.0000000000
11
26.3437522674
21
-34.4678229645
31
0.0000000000
11
26.3071914400
21
-34.5879632606
31
0.0000000000
11
26.2805545476
21
-34.6990147739
31
0.0000000000
11
26.2628853687
21
-34.8011602361
31
0.0000000000
11
26.2530474588
21
-34.8951547362
31
0.0000000000
11
26.2500000000
21
-34.9812466511
31
0.0000000000
0
SPLINE
5
3AF
100
AcDbEntity
8
0
100
AcDbSpline
62
0
6
CONTINUOUS
70
0
71
3
72
17
73
13
74
11
42
0.0000001000
43
0.0000001000
44
0.0000000001
12
0.0000000000
22
0.6400618096
32
0.0000000000
13
-0.4707703667
23
0.4336523745
33
0.0000000000
40
0.0000000000
40
0.0000000000
40
0.0000000000
40
0.0000000000
40
0.1347065673
40
0.2594995783
40
0.3748448925
40
0.4821277340
40
0.5815746329
40
0.6738377617
40
0.7605329861
40
0.8427623696
40
0.9221305581
40
1.0000000000
40
1.0000000000
40
1.0000000000
40
1.0000000000
10
26.7500000000
20
-34.7180565842
30
0.0000000000
10
26.7500000000
20
-34.6893164078
30
0.0000000000
10
26.7483160888
20
-34.6339322239
30
0.0000000000
10
26.7407103559
20
-34.5542645044
30
0.0000000000
10
26.7287157495
20
-34.4810581470
30
0.0000000000
10
26.7128309100
20
-34.4141411886
30
0.0000000000
10
26.6934686142
20
-34.3532926474
30
0.0000000000
10
26.6709773955
20
-34.2982441873
30
0.0000000000
10
26.6455486690
20
-34.2485778938
30
0.0000000000
10
26.6171460047
20
-34.2037657144
30
0.0000000000
10
26.5856241239
20
-34.1634511879
30
0.0000000000
10
26.5622195419
20
-34.1393056376
30
0.0000000000
10
26.5500000000
20
-34.1280495481
30
0.0000000000
11
26.7500000000
21
-34.7180565842
31
0.0000000000
11
26.7472866861
21
-34.6318787588
31
0.0000000000
11
26.7395955428
21
-34.5523746687
31
0.0000000000
11
26.7275531902
21
-34.4795352933
31
0.0000000000
11
26.7115849289
21
-34.4127501098
31
0.0000000000
11
26.6921765985
21
-34.3521290371
31
0.0000000000
11
26.6697393028
21
-34.2975034470
31
0.0000000000
11
26.6443559897
21
-34.2481591357
31
0.0000000000
11
26.6160972697
21
-34.2037568792
31
0.0000000000
11
26.5847371661
21
-34.1637914015
31
0.0000000000
11
26.5500000000
21
-34.1280495481
31
0.0000000000
0
SPLINE
5
3B0
100
AcDbEntity
8
0
100
AcDbSpline
62
0
6
CONTINUOUS
70
0
71
3
72
25
73
21
74
19
42
0.0000001000
43
0.0000001000
44
0.0000000001
12
-2.3553355856
22
-0.0001245368
32
0.0000000000
13
-0.0001253859
23
-2.3553355856
33
0.0000000000
40
0.0000000000
40
0.0000000000
40
0.0000000000
40
0.0000000000
40
0.0555532121
40
0.1111086493
40
0.1666645255
40
0.2222203041
40
0.2777761625
40
0.3333321860
40
0.3888882081
40
0.4444442093
40
0.5000002468
40
0.5555562847
40
0.6111122856
40
0.6666683056
40
0.7222243302
40
0.7777801931
40
0.8333359694
40
0.8888918452
40
0.9444472896
40
1.0000000000
40
1.0000000000
40
1.0000000000
40
1.0000000000
10
-32.1596268492
20
36.1595760012
30
0.0000000000
10
-32.2032423350
20
36.1595736950
30
0.0000000000
10
-32.2905227716
20
36.1557604534
30
0.0000000000
10
-32.4204095933
20
36.1386543136
30
0.0000000000
10
-32.5483236410
20
36.1102924558
30
0.0000000000
10
-32.6732767595
20
36.0708906476
30
0.0000000000
10
-32.7943213832
20
36.0207488884
30
0.0000000000
10
-32.9105355252
20
35.9602486981
30
0.0000000000
10
-33.0210350090
20
35.8898505086
30
0.0000000000
10
-33.1249788296
20
35.8100901002
30
0.0000000000
10
-33.2215760412
20
35.7215744333
30
0.0000000000
10
-33.3100915616
20
35.6249770880
30
0.0000000000
10
-33.3898518117
20
35.5210331478
30
0.0000000000
10
-33.4602498335
20
35.4105335584
30
0.0000000000
10
-33.5207498496
20
35.2943193226
30
0.0000000000
10
-33.5708914259
20
35.1732746203
30
0.0000000000
10
-33.6102930468
20
35.0483214408
30
0.0000000000
10
-33.6386547041
20
34.9204073468
30
0.0000000000
10
-33.6557606236
20
34.7905208843
30
0.0000000000
10
-33.6595736794
20
34.7032408344
30
0.0000000000
10
-33.6595760012
20
34.6596257426
30
0.0000000000
11
-32.1596268492
21
36.1595760012
31
0.0000000000
11
-32.2903485235
21
36.1538629194
31
0.0000000000
11
-32.4200801250
21
36.1367784657
31
0.0000000000
11
-32.5478301731
21
36.1084524565
31
0.0000000000
11
-32.6726252671
21
36.0691006852
31
0.0000000000
11
-32.7935161564
21
36.0190225510
31
0.0000000000
11
-32.9095830664
21
35.9585990394
31
0.0000000000
11
-33.0199424105
21
35.8882901306
31
0.0000000000
11
-33.1237543715
21
35.8086309101
31
0.0000000000
11
-33.2202290921
21
35.7202274869
31
0.0000000000
11
-33.3086323701
21
35.6237526315
31
0.0000000000
11
-33.3882914329
21
35.5199405506
31
0.0000000000
11
-33.4586001722
21
35.4095811044
31
0.0000000000
11
-33.5190235096
21
35.2935141006
31
0.0000000000
11
-33.5691014646
21
35.1726231258
31
0.0000000000
11
-33.6084530449
21
35.0478279771
31
0.0000000000
11
-33.6367788604
21
34.9200778871
31
0.0000000000
11
-33.6538631189
21
34.7903462428
31
0.0000000000
11
-33.6595760012
21
34.6596257426
31
0.0000000000
0
SPLINE
5
3B1
100
AcDbEntity
8
0
100
AcDbSpline
62
0
6
CONTINUOUS
70
0
71
3
72
25
73
21
74
19
42
0.0000001000
43
0.0000001000
44
0.0000000001
12
-0.0001245368
22
2.3553355856
32
0.0000000000
13
-2.3553355856
23
0.0001253859
33
0.0000000000
40
0.0000000000
40
0.0000000000
40
0.0000000000
40
0.0000000000
40
0.0555532121
40
0.1111086493
40
0.1666645255
40
0.2222203041
40
0.2777761625
40
0.3333321860
40
0.3888882081
40
0.4444442093
40
0.5000002468
40
0.5555562847
40
0.6111122856
40
0.6666683056
40
0.7222243302
40
0.7777801931
40
0.8333359694
40
0.8888918452
40
0.9444472896
40
1.0000000000
40
1.0000000000
40
1.0000000000
40
1.0000000000
10
33.6595760012
20
34.6596268492
30
0.0000000000
10
33.6595736950
20
34.7032423350
30
0.0000000000
10
33.6557604534
20
34.7905227716
30
0.0000000000
10
33.6386543136
20
34.9204095933
30
0.0000000000
10
33.6102924558
20
35.0483236410
30
0.0000000000
10
33.5708906476
20
35.1732767595
30
0.0000000000
10
33.5207488884
20
35.2943213832
30
0.0000000000
10
33.4602486981
20
35.4105355252
30
0.0000000000
10
33.3898505086
20
35.5210350090
30
0.0000000000
10
33.3100901002
20
35.6249788296
30
0.0000000000
10
33.2215744333
20
35.7215760412
30
0.0000000000
10
33.1249770880
20
35.8100915616
30
0.0000000000
10
33.0210331478
20
35.8898518117
30
0.0000000000
10
32.9105335584
20
35.9602498335
30
0.0000000000
10
32.7943193226
20
36.0207498496
30
0.0000000000
10
32.6732746203
20
36.0708914259
30
0.0000000000
10
32.5483214408
20
36.1102930468
30
0.0000000000
10
32.4204073468
20
36.1386547041
30
0.0000000000
10
32.2905208843
20
36.1557606236
30
0.0000000000
10
32.2032408344
20
36.1595736794
30
0.0000000000
10
32.1596257426
20
36.1595760012
30
0.0000000000
11
33.6595760012
21
34.6596268492
31
0.0000000000
11
33.6538629194
21
34.7903485235
31
0.0000000000
11
33.6367784657
21
34.9200801250
31
0.0000000000
11
33.6084524565
21
35.0478301731
31
0.0000000000
11
33.5691006852
21
35.1726252671
31
0.0000000000
11
33.5190225510
21
35.2935161564
31
0.0000000000
11
33.4585990394
21
35.4095830664
31
0.0000000000
11
33.3882901306
21
35.5199424105
31
0.0000000000
11
33.3086309101
21
35.6237543715
31
0.0000000000
11
33.2202274869
21
35.7202290921
31
0.0000000000
11
33.1237526315
21
35.8086323701
31
0.0000000000
11
33.0199405506
21
35.8882914329
31
0.0000000000
11
32.9095811044
21
35.9586001722
31
0.0000000000
11
32.7935141006
21
36.0190235096
31
0.0000000000
11
32.6726231258
21
36.0691014646
31
0.0000000000
11
32.5478279771
21
36.1084530449
31
0.0000000000
11
32.4200778871
21
36.1367788604
31
0.0000000000
11
32.2903462428
21
36.1538631189
31
0.0000000000
11
32.1596257426
21
36.1595760012
31
0.0000000000
0
SPLINE
5
3B2
100
AcDbEntity
8
0
100
AcDbSpline
62
0
6
CONTINUOUS
70
0
71
3
72
25
73
21
74
19
42
0.0000001000
43
0.0000001000
44
0.0000000001
12
0.0001245368
22
-2.3553355856
32
0.0000000000
13
2.3553355856
23
-0.0001253859
33
0.0000000000
40
0.0000000000
40
0.0000000000
40
0.0000000000
40
0.0000000000
40
0.0555532121
40
0.1111086493
40
0.1666645255
40
0.2222203041
40
0.2777761625
40
0.3333321860
40
0.3888882081
40
0.4444442093
40
0.5000002468
40
0.5555562847
40
0.6111122856
40
0.6666683056
40
0.7222243302
40
0.7777801931
40
0.8333359694
40
0.8888918452
40
0.9444472896
40
1.0000000000
40
1.0000000000
40
1.0000000000
40
1.0000000000
10
-33.6595760012
20
-44.6596268492
30
0.0000000000
10
-33.6595736950
20
-44.7032423350
30
0.0000000000
10
-33.6557604534
20
-44.7905227716
30
0.0000000000
10
-33.6386543136
20
-44.9204095933
30
0.0000000000
10
-33.6102924558
20
-45.0483236410
30
0.0000000000
10
-33.5708906476
20
-45.1732767595
30
0.0000000000
10
-33.5207488884
20
-45.2943213832
30
0.0000000000
10
-33.4602486981
20
-45.4105355252
30
0.0000000000
10
-33.3898505086
20
-45.5210350090
30
0.0000000000
10
-33.3100901002
20
-45.6249788296
30
0.0000000000
10
-33.2215744333
20
-45.7215760412
30
0.0000000000
10
-33.1249770880
20
-45.8100915616
30
0.0000000000
10
-33.0210331478
20
-45.8898518117
30
0.0000000000
10
-32.9105335584
20
-45.9602498335
30
0.0000000000
10
-32.7943193226
20
-46.0207498496
30
0.0000000000
10
-32.6732746203
20
-46.0708914259
30
0.0000000000
10
-32.5483214408
20
-46.1102930468
30
0.0000000000
10
-32.4204073468
20
-46.1386547041
30
0.0000000000
10
-32.2905208843
20
-46.1557606236
30
0.0000000000
10
-32.2032408344
20
-46.1595736794
30
0.0000000000
10
-32.1596257426
20
-46.1595760012
30
0.0000000000
11
-33.6595760012
21
-44.6596268492
31
0.0000000000
11
-33.6538629194
21
-44.7903485235
31
0.0000000000
11
-33.6367784657
21
-44.9200801250
31
0.0000000000
11
-33.6084524565
21
-45.0478301731
31
0.0000000000
11
-33.5691006852
21
-45.1726252671
31
0.0000000000
11
-33.5190225510
21
-45.2935161564
31
0.0000000000
11
-33.4585990394
21
-45.4095830664
31
0.0000000000
11
-33.3882901306
21
-45.5199424105
31
0.0000000000
11
-33.3086309101
21
-45.6237543715
31
0.0000000000
11
-33.2202274869
21
-45.7202290921
31
0.0000000000
11
-33.1237526315
21
-45.8086323701
31
0.0000000000
11
-33.0199405506
21
-45.8882914329
31
0.0000000000
11
-32.9095811044
21
-45.9586001722
31
0.0000000000
11
-32.7935141006
21
-46.0190235096
31
0.0000000000
11
-32.6726231258
21
-46.0691014646
31
0.0000000000
11
-32.5478279771
21
-46.1084530449
31
0.0000000000
11
-32.4200778871
21
-46.1367788604
31
0.0000000000
11
-32.2903462428
21
-46.1538631189
31
0.0000000000
11
-32.1596257426
21
-46.1595760012
31
0.0000000000
0
SPLINE
5
3B3
100
AcDbEntity
8
0
100
AcDbSpline
62
0
6
CONTINUOUS
70
0
71
3
72
25
73
21
74
19
42
0.0000001000
43
0.0000001000
44
0.0000000001
12
2.3553355856
22
0.0001245368
32
0.0000000000
13
0.0001253859
23
2.3553355856
33
0.0000000000
40
0.0000000000
40
0.0000000000
40
0.0000000000
40
0.0000000000
40
0.0555532121
40
0.1111086493
40
0.1666645255
40
0.2222203041
40
0.2777761625
40
0.3333321860
40
0.3888882081
40
0.4444442093
40
0.5000002468
40
0.5555562847
40
0.6111122856
40
0.6666683056
40
0.7222243302
40
0.7777801931
40
0.8333359694
40
0.8888918452
40
0.9444472896
40
1.0000000000
40
1.0000000000
40
1.0000000000
40
1.0000000000
10
32.1596268492
20
-46.1595760012
30
0.0000000000
10
32.2032423350
20
-46.1595736950
30
0.0000000000
10
32.2905227716
20
-46.1557604534
30
0.0000000000
10
32.4204095933
20
-46.1386543136
30
0.0000000000
10
32.5483236410
20
-46.1102924558
30
0.0000000000
10
32.6732767595
20
-46.0708906476
30
0.0000000000
10
32.7943213832
20
-46.0207488884
30
0.0000000000
10
32.9105355252
20
-45.9602486981
30
0.0000000000
10
33.0210350090
20
-45.8898505086
30
0.0000000000
10
33.1249788296
20
-45.8100901002
30
0.0000000000
10
33.2215760412
20
-45.7215744333
30
0.0000000000
10
33.3100915616
20
-45.6249770880
30
0.0000000000
10
33.3898518117
20
-45.5210331478
30
0.0000000000
10
33.4602498335
20
-45.4105335584
30
0.0000000000
10
33.5207498496
20
-45.2943193226
30
0.0000000000
10
33.5708914259
20
-45.1732746203
30
0.0000000000
10
33.6102930468
20
-45.0483214408
30
0.0000000000
10
33.6386547041
20
-44.9204073468
30
0.0000000000
10
33.6557606236
20
-44.7905208843
30
0.0000000000
10
33.6595736794
20
-44.7032408344
30
0.0000000000
10
33.6595760012
20
-44.6596257426
30
0.0000000000
11
32.1596268492
21
-46.1595760012
31
0.0000000000
11
32.2903485235
21
-46.1538629194
31
0.0000000000
11
32.4200801250
21
-46.1367784657
31
0.0000000000
11
32.5478301731
21
-46.1084524565
31
0.0000000000
11
32.6726252671
21
-46.0691006852
31
0.0000000000
11
32.7935161564
21
-46.0190225510
31
0.0000000000
11
32.9095830664
21
-45.9585990394
31
0.0000000000
11
33.0199424105
21
-45.8882901306
31
0.0000000000
11
33.1237543715
21
-45.8086309101
31
0.0000000000
11
33.2202290921
21
-45.7202274869
31
0.0000000000
11
33.3086323701
21
-45.6237526315
31
0.0000000000
11
33.3882914329
21
-45.5199405506
31
0.0000000000
11
33.4586001722
21
-45.4095811044
31
0.0000000000
11
33.5190235096
21
-45.2935141006
31
0.0000000000
11
33.5691014646
21
-45.1726231258
31
0.0000000000
11
33.6084530449
21
-45.0478279771
31
0.0000000000
11
33.6367788604
21
-44.9200778871
31
0.0000000000
11
33.6538631189
21
-44.7903462428
31
0.0000000000
11
33.6595760012
21
-44.6596257426
31
0.0000000000
0
SPLINE
5
3B4
100
AcDbEntity
8
0
100
AcDbSpline
62
0
6
CONTINUOUS
70
0
71
3
72
36
73
32
74
30
42
0.0000001000
43
0.0000001000
44
0.0000000001
12
-11.4997829998
22
0.0000000000
32
0.0000000000
13
-0.0000012573
23
11.8780461404
33
0.0000000000
40
0.0000000000
40
0.0000000000
40
0.0000000000
40
0.0000000000
40
0.0550874970
40
0.1100077315
40
0.1645939486
40
0.2186804065
40
0.2721028799
40
0.3246991580
40
0.3763095368
40
0.4267773042
40
0.4759492157
40
0.5236759595
40
0.5698126109
40
0.6142190721
40
0.6567604989
40
0.6973077109
40
0.7357375851
40
0.7719334314
40
0.8057853495
40
0.8371905658
40
0.8660537501
40
0.8922873116
40
0.9158116757
40
0.9365555428
40
0.9544561366
40
0.9694594557
40
0.9815205752
40
0.9906041465
40
0.9966857678
40
0.9997595266
40
1.0000000000
40
1.0000000000
40
1.0000000000
40
1.0000000000
10
0.0000000000
20
-46.3909141526
30
0.0000000000
10
-0.2111647538
20
-46.3909141526
30
0.0000000000
10
-0.6328531079
20
-46.3908128699
30
0.0000000000
10
-1.2637845308
20
-46.3903573322
30
0.0000000000
10
-1.8908784183
20
-46.3895996535
30
0.0000000000
10
-2.5122305546
20
-46.3885421557
30
0.0000000000
10
-3.1259541425
20
-46.3871880805
30
0.0000000000
10
-3.7301855248
20
-46.3855415810
30
0.0000000000
10
-4.3230898391
20
-46.3836077104
30
0.0000000000
10
-4.9028665859
20
-46.3813924092
30
0.0000000000
10
-5.4677550935
20
-46.3789024897
30
0.0000000000
10
-6.0160398625
20
-46.3761456200
30
0.0000000000
10
-6.5460557745
20
-46.3731303048
30
0.0000000000
10
-7.0561931514
20
-46.3698658695
30
0.0000000000
10
-7.5449026390
20
-46.3663624354
30
0.0000000000
10
-8.0106999379
20
-46.3626309234
30
0.0000000000
10
-8.4521702391
20
-46.3586829728
30
0.0000000000
10
-8.8679727919
20
-46.3545311708
30
0.0000000000
10
-9.2568440817
20
-46.3501882574
30
0.0000000000
10
-9.6176047206
20
-46.3456698579
30
0.0000000000
10
-9.9491529220
20
-46.3409855551
30
0.0000000000
10
-10.2505010808
20
-46.3361685479
30
0.0000000000
10
-10.5206716947
20
-46.3311807218
30
0.0000000000
10
-10.7590388885
20
-46.3262140568
30
0.0000000000
10
-10.9642880224
20
-46.3207652153
30
0.0000000000
10
-11.1375264156
20
-46.3163991763
30
0.0000000000
10
-11.2734275682
20
-46.3088859945
30
0.0000000000
10
-11.3839409813
20
-46.3092755856
30
0.0000000000
10
-11.4407864195
20
-46.2928478560
30
0.0000000000
10
-11.4946282025
20
-46.3046294920
30
0.0000000000
10
-11.4959129862
20
-46.2915072906
30
0.0000000000
10
-11.4959129863
20
-46.2905551726
30
0.0000000000
11
0.0000000000
21
-46.3909141526
31
0.0000000000
11
-0.6334942431
21
-46.3907617664
31
0.0000000000
11
-1.2650648575
21
-46.3903050703
31
0.0000000000
11
-1.8927940489
21
-46.3895454506
31
0.0000000000
11
-2.5147756744
21
-46.3884852135
31
0.0000000000
11
-3.1291210256
21
-46.3871275775
31
0.0000000000
11
-3.7339645570
21
-46.3854766640
31
0.0000000000
11
-4.3274695460
21
-46.3835374849
31
0.0000000000
11
-4.9078336681
21
-46.3813159275
31
0.0000000000
11
-5.4732944655
21
-46.3788187362
31
0.0000000000
11
-6.0221346969
21
-46.3760534925
31
0.0000000000
11
-6.5526875525
21
-46.3730285920
31
0.0000000000
11
-7.0633417163
21
-46.3697532190
31
0.0000000000
11
-7.5525462594
21
-46.3662373182
31
0.0000000000
11
-8.0188153531
21
-46.3624915654
31
0.0000000000
11
-8.4607327864
21
-46.3585273344
31
0.0000000000
11
-8.8769562692
21
-46.3543566627
31
0.0000000000
11
-9.2662215150
21
-46.3499922153
31
0.0000000000
11
-9.6273460884
21
-46.3454472459
31
0.0000000000
11
-9.9592330010
21
-46.3407355568
31
0.0000000000
11
-10.2608740500
21
-46.3358714571
31
0.0000000000
11
-10.5313528896
21
-46.3308697190
31
0.0000000000
11
-10.7698478193
21
-46.3257455334
31
0.0000000000
11
-10.9756342873
21
-46.3205144631
31
0.0000000000
11
-11.1480870981
21
-46.3151923960
31
0.0000000000
11
-11.2866823171
21
-46.3097954967
31
0.0000000000
11
-11.3909988671
21
-46.3043401573
31
0.0000000000
11
-11.4607198121
21
-46.2988429475
31
0.0000000000
11
-11.4956333231
21
-46.2933205645
31
0.0000000000
11
-11.4959129863
21
-46.2905551726
31
0.0000000000
0
SPLINE
5
3B5
100
AcDbEntity
8
0
100
AcDbSpline
62
0
6
CONTINUOUS
70
0
71
3
72
31
73
27
74
25
42
0.0000001000
43
0.0000001000
44
0.0000000001
12
11.5031528360
22
-0.0000002560
32
0.0000000000
13
11.5030786030
23
0.3393113460
33
0.0000000000
40
0.0000000000
40
0.0000000000
40
0.0000000000
40
0.0000000000
40
0.0562753270
40
0.1125322978
40
0.1685429360
40
0.2240806387
40
0.2789284111
40
0.3329303142
40
0.3859624649
40
0.4378765731
40
0.4885061956
40
0.5376974356
40
0.5853105354
40
0.6312085127
40
0.6752553915
40
0.7173209603
40
0.7572820949
40
0.7950219242
40
0.8304297129
40
0.8634014729
40
0.8938405430
40
0.9216576662
40
0.9467713583
40
0.9691080102
40
0.9886023101
40
1.0000000000
40
1.0000000000
40
1.0000000000
40
1.0000000000
10
0.0000000000
20
36.1857946819
30
0.0000000000
10
0.2157812291
20
36.1857946771
30
0.0000000000
10
0.6472733094
20
36.1858961775
30
0.0000000000
10
1.2935315549
20
36.1863534840
30
0.0000000000
10
1.9369611773
20
36.1871160523
30
0.0000000000
10
2.5749869539
20
36.1881816970
30
0.0000000000
10
3.2053098809
20
36.1895465922
30
0.0000000000
10
3.8260248191
20
36.1912062286
30
0.0000000000
10
4.4354900628
20
36.1931559811
30
0.0000000000
10
5.0320236228
20
36.1953904940
30
0.0000000000
10
5.6138284171
20
36.1979030666
30
0.0000000000
10
6.1791400707
20
36.2006859711
30
0.0000000000
10
6.7263071598
20
36.2037309075
30
0.0000000000
10
7.2537469570
20
36.2070289096
30
0.0000000000
10
7.7599133193
20
36.2105701361
30
0.0000000000
10
8.2433132056
20
36.2143439018
30
0.0000000000
10
8.7025268180
20
36.2183388102
30
0.0000000000
10
9.1362089076
20
36.2225427306
30
0.0000000000
10
9.5430878169
20
36.2269428646
30
0.0000000000
10
9.9219683480
20
36.2315253495
30
0.0000000000
10
10.2717407019
20
36.2362764674
30
0.0000000000
10
10.5913707911
20
36.2411784299
30
0.0000000000
10
10.8799464116
20
36.2462225608
30
0.0000000000
10
11.1365396022
20
36.2513661069
30
0.0000000000
10
11.3407128481
20
36.2561935750
30
0.0000000000
10
11.4589095322
20
36.2593627511
30
0.0000000000
10
11.5026123732
20
36.2606518729
30
0.0000000000
11
0.0000000000
21
36.1857946819
31
0.0000000000
11
0.6473436693
21
36.1859471688
31
0.0000000000
11
1.2944760397
21
36.1864057706
31
0.0000000000
11
1.9387745182
21
36.1871705095
31
0.0000000000
11
2.5776323067
21
36.1882391685
31
0.0000000000
11
3.2085531317
21
36.1896074862
31
0.0000000000
11
3.8297430480
21
36.1912710554
31
0.0000000000
11
4.4397768513
21
36.1932258723
31
0.0000000000
11
5.0369485681
21
36.1954666614
31
0.0000000000
11
5.6193434029
21
36.1979863752
31
0.0000000000
11
6.1851908722
21
36.2007773030
31
0.0000000000
11
6.7328831201
21
36.2038314501
31
0.0000000000
11
7.2608442013
21
36.2071400408
31
0.0000000000
11
7.7675097209
21
36.2106933021
31
0.0000000000
11
8.2513815654
21
36.2144807310
31
0.0000000000
11
8.7110431090
21
36.2184912319
31
0.0000000000
11
9.1451496047
21
36.2227130736
31
0.0000000000
11
9.5524268176
21
36.2271338709
31
0.0000000000
11
9.9316780336
21
36.2317406389
31
0.0000000000
11
10.2817906910
21
36.2365198661
31
0.0000000000
11
10.6017372116
21
36.2414575288
31
0.0000000000
11
10.8905791534
21
36.2465391487
31
0.0000000000
11
11.1474682335
21
36.2517498065
31
0.0000000000
11
11.3716509253
21
36.2570742222
31
0.0000000000
11
11.5026123732
21
36.2606518729
31
0.0000000000
0
SPLINE
5
3B6
100
AcDbEntity
8
0
100
AcDbSpline
62
0
6
CONTINUOUS
70
0
71
3
72
11
73
7
74
5
42
0.0000001000
43
0.0000001000
44
0.0000000001
12
0.4002152330
22
0.0118053240
32
0.0000000000
13
0.3923323905
23
0.0252276713
33
0.0000000000
40
0.0000000000
40
0.0000000000
40
0.0000000000
40
0.0000000000
40
0.1493827304
40
0.5416442374
40
0.8480646345
40
1.0000000000
40
1.0000000000
40
1.0000000000
40
1.0000000000
10
11.5026123732
20
36.2606518729
30
0.0000000000
10
11.5225407880
20
36.2612397101
30
0.0000000000
10
11.5948696215
20
36.2634614953
30
0.0000000000
10
11.7087804662
20
36.2675894348
30
0.0000000000
10
11.8193720892
20
36.2717076531
30
0.0000000000
10
11.8843647454
20
36.2764255895
30
0.0000000000
10
11.9042344671
20
36.2777032480
30
0.0000000000
11
11.5026123732
21
36.2606518729
31
0.0000000000
11
11.5624688929
21
36.2624967644
31
0.0000000000
11
11.7193623960
21
36.2680015312
31
0.0000000000
11
11.8418707020
21
36.2735723623
31
0.0000000000
11
11.9042344671
21
36.2777032480
31
0.0000000000
0
SPLINE
5
3B7
100
AcDbEntity
8
0
100
AcDbSpline
62
0
6
CONTINUOUS
70
0
71
3
72
8
73
4
74
2
42
0.0000001000
43
0.0000001000
44
0.0000000001
12
0.0047178468
22
0.0003033660
32
0.0000000000
13
0.0046515579
23
0.0002917736
33
0.0000000000
40
0.0000000000
40
0.0000000000
40
0.0000000000
40
0.0000000000
40
1.0000000000
40
1.0000000000
40
1.0000000000
40
1.0000000000
10
11.9042344671
20
36.2777032480
30
0.0000000000
10
11.9058070827
20
36.2778043700
30
0.0000000000
10
11.9073692122
20
36.2779036989
30
0.0000000000
10
11.9089197315
20
36.2780009568
30
0.0000000000
11
11.9042344671
21
36.2777032480
31
0.0000000000
11
11.9089197315
21
36.2780009568
31
0.0000000000
0
SPLINE
5
3B8
100
AcDbEntity
8
0
100
AcDbSpline
62
0
6
CONTINUOUS
70
0
71
3
72
12
73
8
74
6
42
0.0000001000
43
0.0000001000
44
0.0000000001
12
0.1367092536
22
0.0085752236
32
0.0000000000
13
-0.1298672945
23
0.0107512294
33
0.0000000000
40
0.0000000000
40
0.0000000000
40
0.0000000000
40
0.0000000000
40
0.1578257932
40
0.5329799567
40
0.6637377118
40
0.7944977513
40
1.0000000000
40
1.0000000000
40
1.0000000000
40
1.0000000000
10
11.9089197315
20
36.2780009568
30
0.0000000000
10
11.9161118137
20
36.2784520873
30
0.0000000000
10
11.9395559944
20
36.2798250793
30
0.0000000000
10
11.9636108205
20
36.2805079741
30
0.0000000000
10
12.0094052400
20
36.2905171874
30
0.0000000000
10
11.9758132335
20
36.2978590726
30
0.0000000000
10
11.9596024989
20
36.2998617611
30
0.0000000000
10
11.9507064919
20
36.3005982283
30
0.0000000000
11
11.9089197315
21
36.2780009568
31
0.0000000000
11
11.9296343856
21
36.2791929178
31
0.0000000000
11
11.9823957599
21
36.2848467003
31
0.0000000000
11
12.0000000000
21
36.2905171227
31
0.0000000000
11
11.9823954204
21
36.2961875451
31
0.0000000000
11
11.9507064919
21
36.3005982283
31
0.0000000000
0
SPLINE
5
3B9
100
AcDbEntity
8
0
100
AcDbSpline
62
0
6
CONTINUOUS
70
0
71
3
72
25
73
21
74
19
42
0.0000001000
43
0.0000001000
44
0.0000000001
12
0.7851217653
22
0.0000085759
32
0.0000000000
13
0.0000092899
23
0.7851217653
33
0.0000000000
40
0.0000000000
40
0.0000000000
40
0.0000000000
40
0.0000000000
40
0.0555471102
40
0.1111045087
40
0.1666619718
40
0.2222190046
40
0.2777758362
40
0.3333326157
40
0.3888892501
40
0.4444457670
40
0.5000021500
40
0.5555584318
40
0.6111146634
40
0.6666709869
40
0.7222274689
40
0.7777840164
40
0.8333407688
40
0.8888979633
40
0.9444551116
40
1.0000000000
40
1.0000000000
40
1.0000000000
40
1.0000000000
10
32.1596331162
20
-45.1596140778
30
0.0000000000
10
32.1741701980
20
-45.1596139190
30
0.0000000000
10
32.2032630170
20
-45.1583445532
30
0.0000000000
10
32.2465588294
20
-45.1526448827
30
0.0000000000
10
32.2891991301
20
-45.1431928703
30
0.0000000000
10
32.3308522787
20
-45.1300604328
30
0.0000000000
10
32.3712024104
20
-45.1133476529
30
0.0000000000
10
32.4099421557
20
-45.0931816376
30
0.0000000000
10
32.4467767536
20
-45.0697158628
30
0.0000000000
10
32.4814257966
20
-45.0431289362
30
0.0000000000
10
32.5136255745
20
-45.0136232221
30
0.0000000000
10
32.5431310216
20
-44.9814233014
30
0.0000000000
10
32.5697176148
20
-44.9467742337
30
0.0000000000
10
32.5931830442
20
-44.9099396943
30
0.0000000000
10
32.6133487418
20
-44.8712000476
30
0.0000000000
10
32.6300612290
20
-44.8308500403
30
0.0000000000
10
32.6431934223
20
-44.7891970433
30
0.0000000000
10
32.6526451903
20
-44.7465569047
30
0.0000000000
10
32.6583446467
20
-44.7032617876
30
0.0000000000
10
32.6596139058
20
-44.6741696165
30
0.0000000000
10
32.6596140778
20
-44.6596331162
30
0.0000000000
11
32.1596331162
21
-45.1596140778
31
0.0000000000
11
32.2032028721
21
-45.1577122139
31
0.0000000000
11
32.2464491309
21
-45.1520195504
31
0.0000000000
11
32.2890347373
21
-45.1425794301
31
0.0000000000
11
32.3306351870
21
-45.1294636816
31
0.0000000000
11
32.3709340408
21
-45.1127721007
31
0.0000000000
11
32.4096246758
21
-45.0926316517
31
0.0000000000
11
32.4464125338
21
-45.0691956432
31
0.0000000000
11
32.4810176244
21
-45.0426424392
31
0.0000000000
11
32.5131765470
21
-45.0131741603
31
0.0000000000
11
32.5426445564
21
-44.9810150985
31
0.0000000000
11
32.5691974024
21
-44.9464100155
31
0.0000000000
11
32.5926330612
21
-44.9096222242
31
0.0000000000
11
32.6127731917
21
-44.8709316867
31
0.0000000000
11
32.6294644850
21
-44.8306329552
31
0.0000000000
11
32.6425799809
21
-44.7890326567
31
0.0000000000
11
32.6520198732
21
-44.7464472157
31
0.0000000000
11
32.6577123669
21
-44.7032011327
31
0.0000000000
11
32.6596140778
21
-44.6596331162
31
0.0000000000
0
SPLINE
5
3BA
100
AcDbEntity
8
0
100
AcDbSpline
62
0
6
CONTINUOUS
70
0
71
3
72
12
73
8
74
6
42
0.0000001000
43
0.0000001000
44
0.0000000001
12
-0.1304281901
22
-0.0107972651
32
0.0000000000
13
0.1375594131
23
-0.0086584549
33
0.0000000000
40
0.0000000000
40
0.0000000000
40
0.0000000000
40
0.0000000000
40
0.2046213681
40
0.3348162919
40
0.4650134902
40
0.8385552186
40
1.0000000000
40
1.0000000000
40
1.0000000000
40
1.0000000000
10
-11.9507064391
20
36.3005982709
30
0.0000000000
10
-11.9596025707
20
36.2998618205
30
0.0000000000
10
-11.9758132453
20
36.2978591521
30
0.0000000000
10
-12.0094052400
20
36.2905170033
30
0.0000000000
10
-11.9636102706
20
36.2805080326
30
0.0000000000
10
-11.9393989621
20
36.2798205901
30
0.0000000000
10
-11.9157311139
20
36.2784297209
30
0.0000000000
10
-11.9083283641
20
36.2779637668
30
0.0000000000
11
-11.9507064391
21
36.3005982709
31
0.0000000000
11
-11.9823957599
21
36.2961874905
31
0.0000000000
11
-12.0000000000
21
36.2905170680
31
0.0000000000
11
-11.9823954204
21
36.2848466456
31
0.0000000000
11
-11.9296337073
21
36.2791928634
31
0.0000000000
11
-11.9083283641
21
36.2779637668
31
0.0000000000
0
SPLINE
5
3BB
100
AcDbEntity
8
0
100
AcDbSpline
62
0
6
CONTINUOUS
70
0
71
3
72
8
73
4
74
2
42
0.0000001000
43
0.0000001000
44
0.0000000001
12
0.0040692054
22
-0.0002561296
32
0.0000000000
13
0.0041194188
23
-0.0002648861
33
0.0000000000
40
0.0000000000
40
0.0000000000
40
0.0000000000
40
0.0000000000
40
1.0000000000
40
1.0000000000
40
1.0000000000
40
1.0000000000
10
-11.9083283641
20
36.2779637668
30
0.0000000000
10
-11.9069719623
20
36.2778783903
30
0.0000000000
10
-11.9056068175
20
36.2777914618
30
0.0000000000
10
-11.9042336779
20
36.2777031664
30
0.0000000000
11
-11.9083283641
21
36.2779637668
31
0.0000000000
11
-11.9042336779
21
36.2777031664
31
0.0000000000
0
SPLINE
5
3BC
100
AcDbEntity
8
0
100
AcDbSpline
62
0
6
CONTINUOUS
70
0
71
3
72
11
73
7
74
5
42
0.0000001000
43
0.0000001000
44
0.0000000001
12
0.3923332643
22
-0.0252277431
32
0.0000000000
13
0.4002161978
23
-0.0118053269
33
0.0000000000
40
0.0000000000
40
0.0000000000
40
0.0000000000
40
0.0000000000
40
0.1519354721
40
0.4583559685
40
0.8506173598
40
1.0000000000
40
1.0000000000
40
1.0000000000
40
1.0000000000
10
-11.9042336779
20
36.2777031664
30
0.0000000000
10
-11.8843638980
20
36.2764255034
30
0.0000000000
10
-11.8193709854
20
36.2717076309
30
0.0000000000
10
-11.7087791339
20
36.2675893693
30
0.0000000000
10
-11.5948680150
20
36.2634614426
30
0.0000000000
10
-11.5225390333
20
36.2612396590
30
0.0000000000
10
-11.5026105826
20
36.2606518220
30
0.0000000000
11
-11.9042336779
21
36.2777031664
31
0.0000000000
11
-11.8418696864
21
36.2735723082
31
0.0000000000
11
-11.7193610458
21
36.2680014777
31
0.0000000000
11
-11.5624672117
21
36.2624967115
31
0.0000000000
11
-11.5026105826
21
36.2606518220
31
0.0000000000
0
SPLINE
5
3BD
100
AcDbEntity
8
0
100
AcDbSpline
62
0
6
CONTINUOUS
70
0
71
3
72
31
73
27
74
25
42
0.0000001000
43
0.0000001000
44
0.0000000001
12
11.5030769139
22
-0.3393105630
32
0.0000000000
13
11.5031510464
23
0.0000002406
33
0.0000000000
40
0.0000000000
40
0.0000000000
40
0.0000000000
40
0.0000000000
40
0.0113977107
40
0.0308920415
40
0.0532287242
40
0.0783424470
40
0.1061596004
40
0.1365987004
40
0.1695704899
40
0.2049783074
40
0.2427181646
40
0.2826793268
40
0.3247449230
40
0.3687918276
40
0.4146898273
40
0.4623029496
40
0.5114942187
40
0.5621238687
40
0.6140379826
40
0.6670701291
40
0.7210720703
40
0.7759199243
40
0.8314576564
40
0.8874681949
40
0.9437249312
40
1.0000000000
40
1.0000000000
40
1.0000000000
40
1.0000000000
10
-11.5026105826
20
36.2606518220
30
0.0000000000
10
-11.4589076682
20
36.2593627008
30
0.0000000000
10
-11.3407108081
20
36.2561935221
30
0.0000000000
10
-11.1365372750
20
36.2513660570
30
0.0000000000
10
-10.8799437712
20
36.2462225112
30
0.0000000000
10
-10.5913678437
20
36.2411783818
30
0.0000000000
10
-10.2717374562
20
36.2362764206
30
0.0000000000
10
-9.9219648127
20
36.2315253043
30
0.0000000000
10
-9.5430840024
20
36.2269428210
30
0.0000000000
10
-9.1362048257
20
36.2225426888
30
0.0000000000
10
-8.7025224803
20
36.2183387704
30
0.0000000000
10
-8.2433086213
20
36.2143438640
30
0.0000000000
10
-7.7599085007
20
36.2105701005
30
0.0000000000
10
-7.2537419275
20
36.2070288763
30
0.0000000000
10
-6.7263019413
20
36.2037308767
30
0.0000000000
10
-6.1791346536
20
36.2006859427
30
0.0000000000
10
-5.6138227841
20
36.1979030405
30
0.0000000000
10
-5.0320178412
20
36.1953904707
30
0.0000000000
10
-4.4354842632
20
36.1931559610
30
0.0000000000
10
-3.8260189626
20
36.1912062114
30
0.0000000000
10
-3.2053036782
20
36.1895465771
30
0.0000000000
10
-2.5749802770
20
36.1881816842
30
0.0000000000
10
-1.9369545564
20
36.1871160430
30
0.0000000000
10
-1.2935262028
20
36.1863534792
30
0.0000000000
10
-0.6472703296
20
36.1858961764
30
0.0000000000
10
-0.2157802054
20
36.1857946774
30
0.0000000000
10
0.0000000000
20
36.1857946819
30
0.0000000000
11
-11.5026105826
21
36.2606518220
31
0.0000000000
11
-11.3716489176
21
36.2570741702
31
0.0000000000
11
-11.1474659048
21
36.2517497555
31
0.0000000000
11
-10.8905765103
21
36.2465390989
31
0.0000000000
11
-10.6017342615
21
36.2414574802
31
0.0000000000
11
-10.2817874424
21
36.2365198190
31
0.0000000000
11
-9.9316744951
21
36.2317405934
31
0.0000000000
11
-9.5524229991
21
36.2271338271
31
0.0000000000
11
-9.1451455182
21
36.2227130316
31
0.0000000000
11
-8.7110387683
21
36.2184911919
31
0.0000000000
11
-8.2513769794
21
36.2144806931
31
0.0000000000
11
-7.7675048949
21
36.2106932663
31
0.0000000000
11
-7.2608391575
21
36.2071400074
31
0.0000000000
11
-6.7328779013
21
36.2038314193
31
0.0000000000
11
-6.1851854792
21
36.2007772747
31
0.0000000000
11
-5.6193377631
21
36.1979863491
31
0.0000000000
11
-5.0369427020
21
36.1954666377
31
0.0000000000
11
-4.4397710125
21
36.1932258520
31
0.0000000000
11
-3.8297373539
21
36.1912710387
31
0.0000000000
11
-3.2085470950
21
36.1896074716
31
0.0000000000
11
-2.5776254291
21
36.1882391553
31
0.0000000000
11
-1.9387674015
21
36.1871704993
31
0.0000000000
11
-1.2944701712
21
36.1864057650
31
0.0000000000
11
-0.6473405983
21
36.1859471674
31
0.0000000000
11
0.0000000000
21
36.1857946819
31
0.0000000000
0
SPLINE
5
3BE
100
AcDbEntity
8
0
100
AcDbSpline
62
0
6
CONTINUOUS
70
0
71
3
72
36
73
32
74
30
42
0.0000001000
43
0.0000001000
44
0.0000000001
12
0.0000012575
22
-11.8780461403
32
0.0000000000
13
-11.4997829995
23
0.0000000000
33
0.0000000000
40
0.0000000000
40
0.0000000000
40
0.0000000000
40
0.0000000000
40
0.0002404733
40
0.0033142320
40
0.0093958532
40
0.0184794244
40
0.0305405437
40
0.0455438627
40
0.0634444564
40
0.0841883235
40
0.1077126875
40
0.1339462489
40
0.1628094332
40
0.1942146496
40
0.2280665677
40
0.2642624140
40
0.3026922882
40
0.3432395002
40
0.3857809272
40
0.4301873885
40
0.4763240399
40
0.5240507838
40
0.5732226954
40
0.6236904629
40
0.6753008418
40
0.7278971199
40
0.7813195934
40
0.8354060513
40
0.8899922684
40
0.9449125030
40
1.0000000000
40
1.0000000000
40
1.0000000000
40
1.0000000000
10
11.4959129863
20
-46.2905551735
30
0.0000000000
10
11.4959129864
20
-46.2915072911
30
0.0000000000
10
11.4946282060
20
-46.3046294910
30
0.0000000000
10
11.4407864191
20
-46.2928478561
30
0.0000000000
10
11.3839409865
20
-46.3092755853
30
0.0000000000
10
11.2734275729
20
-46.3088859943
30
0.0000000000
10
11.1375264224
20
-46.3163991761
30
0.0000000000
10
10.9642880300
20
-46.3207652151
30
0.0000000000
10
10.7590388973
20
-46.3262140566
30
0.0000000000
10
10.5206717042
20
-46.3311807216
30
0.0000000000
10
10.2505010910
20
-46.3361685477
30
0.0000000000
10
9.9491529326
20
-46.3409855549
30
0.0000000000
10
9.6176047315
20
-46.3456698578
30
0.0000000000
10
9.2568440926
20
-46.3501882573
30
0.0000000000
10
8.8679728026
20
-46.3545311707
30
0.0000000000
10
8.4521702495
20
-46.3586829727
30
0.0000000000
10
8.0106999478
20
-46.3626309233
30
0.0000000000
10
7.5449026482
20
-46.3663624353
30
0.0000000000
10
7.0561931599
20
-46.3698658694
30
0.0000000000
10
6.5460557821
20
-46.3731303048
30
0.0000000000
10
6.0160398691
20
-46.3761456199
30
0.0000000000
10
5.4677550992
20
-46.3789024897
30
0.0000000000
10
4.9028665906
20
-46.3813924092
30
0.0000000000
10
4.3230898428
20
-46.3836077104
30
0.0000000000
10
3.7301855277
20
-46.3855415810
30
0.0000000000
10
3.1259541446
20
-46.3871880805
30
0.0000000000
10
2.5122305560
20
-46.3885421557
30
0.0000000000
10
1.8908784191
20
-46.3895996535
30
0.0000000000
10
1.2637845312
20
-46.3903573322
30
0.0000000000
10
0.6328531080
20
-46.3908128699
30
0.0000000000
10
0.2111647538
20
-46.3909141526
30
0.0000000000
10
0.0000000000
20
-46.3909141526
30
0.0000000000
11
11.4959129863
21
-46.2905551735
31
0.0000000000
11
11.4956333239
21
-46.2933205642
31
0.0000000000
11
11.4607198144
21
-46.2988429472
31
0.0000000000
11
11.3909988709
21
-46.3043401570
31
0.0000000000
11
11.2866823224
21
-46.3097954965
31
0.0000000000
11
11.1480871047
21
-46.3151923958
31
0.0000000000
11
10.9756342951
21
-46.3205144629
31
0.0000000000
11
10.7698478281
21
-46.3257455332
31
0.0000000000
11
10.5313528992
21
-46.3308697189
31
0.0000000000
11
10.2608740603
21
-46.3358714569
31
0.0000000000
11
9.9592330117
21
-46.3407355566
31
0.0000000000
11
9.6273460994
21
-46.3454472457
31
0.0000000000
11
9.2662215259
21
-46.3499922151
31
0.0000000000
11
8.8769562800
21
-46.3543566626
31
0.0000000000
11
8.4607327969
21
-46.3585273343
31
0.0000000000
11
8.0188153631
21
-46.3624915653
31
0.0000000000
11
7.5525462687
21
-46.3662373182
31
0.0000000000
11
7.0633417248
21
-46.3697532189
31
0.0000000000
11
6.5526875601
21
-46.3730285920
31
0.0000000000
11
6.0221347035
21
-46.3760534924
31
0.0000000000
11
5.4732944712
21
-46.3788187361
31
0.0000000000
11
4.9078336728
21
-46.3813159275
31
0.0000000000
11
4.3274695498
21
-46.3835374849
31
0.0000000000
11
3.7339645598
21
-46.3854766640
31
0.0000000000
11
3.1291210276
21
-46.3871275775
31
0.0000000000
11
2.5147756757
21
-46.3884852135
31
0.0000000000
11
1.8927940496
21
-46.3895454506
31
0.0000000000
11
1.2650648578
21
-46.3903050703
31
0.0000000000
11
0.6334942432
21
-46.3907617664
31
0.0000000000
11
0.0000000000
21
-46.3909141526
31
0.0000000000
0
SPLINE
5
3BF
100
AcDbEntity
8
0
100
AcDbSpline
62
0
6
CONTINUOUS
70
0
71
3
72
17
73
13
74
11
42
0.0000001000
43
0.0000001000
44
0.0000000001
12
0.4707703667
22
0.4336523745
32
0.0000000000
13
-0.0000000000
23
0.6400618096
33
0.0000000000
40
0.0000000000
40
0.0000000000
40
0.0000000000
40
0.0000000000
40
0.0778694419
40
0.1572376304
40
0.2394670139
40
0.3261622383
40
0.4184253671
40
0.5178722660
40
0.6251551075
40
0.7405004217
40
0.8652934327
40
1.0000000000
40
1.0000000000
40
1.0000000000
40
1.0000000000
10
26.5500000000
20
-29.8719504519
30
0.0000000000
10
26.5622195419
20
-29.8606943624
30
0.0000000000
10
26.5856241239
20
-29.8365488121
30
0.0000000000
10
26.6171460047
20
-29.7962342856
30
0.0000000000
10
26.6455486690
20
-29.7514221062
30
0.0000000000
10
26.6709773955
20
-29.7017558127
30
0.0000000000
10
26.6934686142
20
-29.6467073526
30
0.0000000000
10
26.7128309100
20
-29.5858588114
30
0.0000000000
10
26.7287157495
20
-29.5189418530
30
0.0000000000
10
26.7407103559
20
-29.4457354956
30
0.0000000000
10
26.7483160888
20
-29.3660677761
30
0.0000000000
10
26.7500000000
20
-29.3106835922
30
0.0000000000
10
26.7500000000
20
-29.2819434158
30
0.0000000000
11
26.5500000000
21
-29.8719504519
31
0.0000000000
11
26.5847371661
21
-29.8362085985
31
0.0000000000
11
26.6160972697
21
-29.7962431208
31
0.0000000000
11
26.6443559897
21
-29.7518408643
31
0.0000000000
11
26.6697393028
21
-29.7024965530
31
0.0000000000
11
26.6921765985
21
-29.6478709629
31
0.0000000000
11
26.7115849289
21
-29.5872498902
31
0.0000000000
11
26.7275531902
21
-29.5204647067
31
0.0000000000
11
26.7395955428
21
-29.4476253313
31
0.0000000000
11
26.7472866861
21
-29.3681212412
31
0.0000000000
11
26.7500000000
21
-29.2819434158
31
0.0000000000
0
SPLINE
5
3C0
100
AcDbEntity
8
0
100
AcDbSpline
62
0
6
CONTINUOUS
70
0
71
3
72
14
73
10
74
8
42
0.0000001000
43
0.0000001000
44
0.0000000001
12
0.0000000000
22
-0.8147180591
32
0.0000000000
13
0.3299908577
23
-0.7448970061
33
0.0000000000
40
0.0000000000
40
0.0000000000
40
0.0000000000
40
0.0000000000
40
0.1063787140
40
0.2229890352
40
0.3506774718
40
0.4910440135
40
0.6450203780
40
0.8142108618
40
1.0000000000
40
1.0000000000
40
1.0000000000
40
1.0000000000
10
26.2500000000
20
-29.0187533489
30
0.0000000000
10
26.2500000000
20
-29.0476429020
30
0.0000000000
10
26.2522320442
20
-29.1082180149
30
0.0000000000
10
26.2623363409
20
-29.2029859215
30
0.0000000000
10
26.2803899205
20
-29.3059567485
30
0.0000000000
10
26.3074169111
20
-29.4174128690
30
0.0000000000
10
26.3443907435
20
-29.5378161481
30
0.0000000000
10
26.3920924503
20
-29.6676039362
30
0.0000000000
10
26.4295637610
20
-29.7564623441
30
0.0000000000
10
26.4500000000
20
-29.8025936017
30
0.0000000000
11
26.2500000000
21
-29.0187533489
31
0.0000000000
11
26.2530839095
21
-29.1053671238
31
0.0000000000
11
26.2630256973
21
-29.1998500453
31
0.0000000000
11
26.2808354244
21
-29.3023442899
31
0.0000000000
11
26.3075979338
21
-29.4135278532
31
0.0000000000
11
26.3442013014
21
-29.5335162893
31
0.0000000000
11
26.3914910713
21
-29.6629930988
31
0.0000000000
11
26.4500000000
21
-29.8025936017
31
0.0000000000
0
SPLINE
5
3C1
100
AcDbEntity
8
0
100
AcDbSpline
62
0
6
CONTINUOUS
70
0
71
3
72
25
73
21
74
19
42
0.0000001000
43
0.0000001000
44
0.0000000001
12
0.0000085759
22
-0.7851217653
32
0.0000000000
13
0.7851217653
23
-0.0000092899
33
0.0000000000
40
0.0000000000
40
0.0000000000
40
0.0000000000
40
0.0000000000
40
0.0555471102
40
0.1111045087
40
0.1666619718
40
0.2222190046
40
0.2777758362
40
0.3333326157
40
0.3888892501
40
0.4444457670
40
0.5000021500
40
0.5555584318
40
0.6111146634
40
0.6666709869
40
0.7222274689
40
0.7777840164
40
0.8333407688
40
0.8888979633
40
0.9444551116
40
1.0000000000
40
1.0000000000
40
1.0000000000
40
1.0000000000
10
-32.6596140778
20
-44.6596331162
30
0.0000000000
10
-32.6596139190
20
-44.6741701980
30
0.0000000000
10
-32.6583445532
20
-44.7032630170
30
0.0000000000
10
-32.6526448827
20
-44.7465588294
30
0.0000000000
10
-32.6431928703
20
-44.7891991301
30
0.0000000000
10
-32.6300604328
20
-44.8308522787
30
0.0000000000
10
-32.6133476529
20
-44.8712024104
30
0.0000000000
10
-32.5931816376
20
-44.9099421557
30
0.0000000000
10
-32.5697158628
20
-44.9467767536
30
0.0000000000
10
-32.5431289362
20
-44.9814257966
30
0.0000000000
10
-32.5136232221
20
-45.0136255745
30
0.0000000000
10
-32.4814233014
20
-45.0431310216
30
0.0000000000
10
-32.4467742337
20
-45.0697176148
30
0.0000000000
10
-32.4099396943
20
-45.0931830442
30
0.0000000000
10
-32.3712000476
20
-45.1133487418
30
0.0000000000
10
-32.3308500403
20
-45.1300612290
30
0.0000000000
10
-32.2891970433
20
-45.1431934223
30
0.0000000000
10
-32.2465569047
20
-45.1526451903
30
0.0000000000
10
-32.2032617876
20
-45.1583446467
30
0.0000000000
10
-32.1741696165
20
-45.1596139058
30
0.0000000000
10
-32.1596331162
20
-45.1596140778
30
0.0000000000
11
-32.6596140778
21
-44.6596331162
31
0.0000000000
11
-32.6577122139
21
-44.7032028721
31
0.0000000000
11
-32.6520195504
21
-44.7464491309
31
0.0000000000
11
-32.6425794301
21
-44.7890347373
31
0.0000000000
11
-32.6294636816
21
-44.8306351870
31
0.0000000000
11
-32.6127721007
21
-44.8709340408
31
0.0000000000
11
-32.5926316517
21
-44.9096246758
31
0.0000000000
11
-32.5691956432
21
-44.9464125338
31
0.0000000000
11
-32.5426424392
21
-44.9810176244
31
0.0000000000
11
-32.5131741603
21
-45.0131765470
31
0.0000000000
11
-32.4810150985
21
-45.0426445564
31
0.0000000000
11
-32.4464100155
21
-45.0691974024
31
0.0000000000
11
-32.4096222242
21
-45.0926330612
31
0.0000000000
11
-32.3709316867
21
-45.1127731917
31
0.0000000000
11
-32.3306329552
21
-45.1294644850
31
0.0000000000
11
-32.2890326567
21
-45.1425799809
31
0.0000000000
11
-32.2464472157
21
-45.1520198732
31
0.0000000000
11
-32.2032011327
21
-45.1577123669
31
0.0000000000
11
-32.1596331162
21
-45.1596140778
31
0.0000000000
0
SPLINE
5
3C2
100
AcDbEntity
8
0
100
AcDbSpline
62
0
6
CONTINUOUS
70
0
71
3
72
25
73
21
74
19
42
0.0000001000
43
0.0000001000
44
0.0000000001
12
-0.7851217653
22
-0.0000085759
32
0.0000000000
13
-0.0000092899
23
-0.7851217653
33
0.0000000000
40
0.0000000000
40
0.0000000000
40
0.0000000000
40
0.0000000000
40
0.0555471102
40
0.1111045087
40
0.1666619718
40
0.2222190046
40
0.2777758362
40
0.3333326157
40
0.3888892501
40
0.4444457670
40
0.5000021500
40
0.5555584318
40
0.6111146634
40
0.6666709869
40
0.7222274689
40
0.7777840164
40
0.8333407688
40
0.8888979633
40
0.9444551116
40
1.0000000000
40
1.0000000000
40
1.0000000000
40
1.0000000000
10
-32.1596331162
20
35.1596140778
30
0.0000000000
10
-32.1741701980
20
35.1596139190
30
0.0000000000
10
-32.2032630170
20
35.1583445532
30
0.0000000000
10
-32.2465588294
20
35.1526448827
30
0.0000000000
10
-32.2891991301
20
35.1431928703
30
0.0000000000
10
-32.3308522787
20
35.1300604328
30
0.0000000000
10
-32.3712024104
20
35.1133476529
30
0.0000000000
10
-32.4099421557
20
35.0931816376
30
0.0000000000
10
-32.4467767536
20
35.0697158628
30
0.0000000000
10
-32.4814257966
20
35.0431289362
30
0.0000000000
10
-32.5136255745
20
35.0136232221
30
0.0000000000
10
-32.5431310216
20
34.9814233014
30
0.0000000000
10
-32.5697176148
20
34.9467742337
30
0.0000000000
10
-32.5931830442
20
34.9099396943
30
0.0000000000
10
-32.6133487418
20
34.8712000476
30
0.0000000000
10
-32.6300612290
20
34.8308500403
30
0.0000000000
10
-32.6431934223
20
34.7891970433
30
0.0000000000
10
-32.6526451903
20
34.7465569047
30
0.0000000000
10
-32.6583446467
20
34.7032617876
30
0.0000000000
10
-32.6596139058
20
34.6741696165
30
0.0000000000
10
-32.6596140778
20
34.6596331162
30
0.0000000000
11
-32.1596331162
21
35.1596140778
31
0.0000000000
11
-32.2032028721
21
35.1577122139
31
0.0000000000
11
-32.2464491309
21
35.1520195504
31
0.0000000000
11
-32.2890347373
21
35.1425794301
31
0.0000000000
11
-32.3306351870
21
35.1294636816
31
0.0000000000
11
-32.3709340408
21
35.1127721007
31
0.0000000000
11
-32.4096246758
21
35.0926316517
31
0.0000000000
11
-32.4464125338
21
35.0691956432
31
0.0000000000
11
-32.4810176244
21
35.0426424392
31
0.0000000000
11
-32.5131765470
21
35.0131741603
31
0.0000000000
11
-32.5426445564
21
34.9810150985
31
0.0000000000
11
-32.5691974024
21
34.9464100155
31
0.0000000000
11
-32.5926330612
21
34.9096222242
31
0.0000000000
11
-32.6127731917
21
34.8709316867
31
0.0000000000
11
-32.6294644850
21
34.8306329552
31
0.0000000000
11
-32.6425799809
21
34.7890326567
31
0.0000000000
11
-32.6520198732
21
34.7464472157
31
0.0000000000
11
-32.6577123669
21
34.7032011327
31
0.0000000000
11
-32.6596140778
21
34.6596331162
31
0.0000000000
0
SPLINE
5
3C3
100
AcDbEntity
8
0
100
AcDbSpline
62
0
6
CONTINUOUS
70
0
71
3
72
25
73
21
74
19
42
0.0000001000
43
0.0000001000
44
0.0000000001
12
-0.0000085759
22
0.7851217653
32
0.0000000000
13
-0.7851217653
23
0.0000092899
33
0.0000000000
40
0.0000000000
40
0.0000000000
40
0.0000000000
40
0.0000000000
40
0.0555471102
40
0.1111045087
40
0.1666619718
40
0.2222190046
40
0.2777758362
40
0.3333326157
40
0.3888892501
40
0.4444457670
40
0.5000021500
40
0.5555584318
40
0.6111146634
40
0.6666709869
40
0.7222274689
40
0.7777840164
40
0.8333407688
40
0.8888979633
40
0.9444551116
40
1.0000000000
40
1.0000000000
40
1.0000000000
40
1.0000000000
10
32.6596140778
20
34.6596331162
30
0.0000000000
10
32.6596139190
20
34.6741701980
30
0.0000000000
10
32.6583445532
20
34.7032630170
30
0.0000000000
10
32.6526448827
20
34.7465588294
30
0.0000000000
10
32.6431928703
20
34.7891991301
30
0.0000000000
10
32.6300604328
20
34.8308522787
30
0.0000000000
10
32.6133476529
20
34.8712024104
30
0.0000000000
10
32.5931816376
20
34.9099421557
30
0.0000000000
10
32.5697158628
20
34.9467767536
30
0.0000000000
10
32.5431289362
20
34.9814257966
30
0.0000000000
10
32.5136232221
20
35.0136255745
30
0.0000000000
10
32.4814233014
20
35.0431310216
30
0.0000000000
10
32.4467742337
20
35.0697176148
30
0.0000000000
10
32.4099396943
20
35.0931830442
30
0.0000000000
10
32.3712000476
20
35.1133487418
30
0.0000000000
10
32.3308500403
20
35.1300612290
30
0.0000000000
10
32.2891970433
20
35.1431934223
30
0.0000000000
10
32.2465569047
20
35.1526451903
30
0.0000000000
10
32.2032617876
20
35.1583446467
30
0.0000000000
10
32.1741696165
20
35.1596139058
30
0.0000000000
10
32.1596331162
20
35.1596140778
30
0.0000000000
11
32.6596140778
21
34.6596331162
31
0.0000000000
11
32.6577122139
21
34.7032028721
31
0.0000000000
11
32.6520195504
21
34.7464491309
31
0.0000000000
11
32.6425794301
21
34.7890347373
31
0.0000000000
11
32.6294636816
21
34.8306351870
31
0.0000000000
11
32.6127721007
21
34.8709340408
31
0.0000000000
11
32.5926316517
21
34.9096246758
31
0.0000000000
11
32.5691956432
21
34.9464125338
31
0.0000000000
11
32.5426424392
21
34.9810176244
31
0.0000000000
11
32.5131741603
21
35.0131765470
31
0.0000000000
11
32.4810150985
21
35.0426445564
31
0.0000000000
11
32.4464100155
21
35.0691974024
31
0.0000000000
11
32.4096222242
21
35.0926330612
31
0.0000000000
11
32.3709316867
21
35.1127731917
31
0.0000000000
11
32.3306329552
21
35.1294644850
31
0.0000000000
11
32.2890326567
21
35.1425799809
31
0.0000000000
11
32.2464472157
21
35.1520198732
31
0.0000000000
11
32.2032011327
21
35.1577123669
31
0.0000000000
11
32.1596331162
21
35.1596140778
31
0.0000000000
0
ENDSEC
0
SECTION
2
OBJECTS
0
DICTIONARY
5
C
100
AcDbDictionary
280
0
281
1
3
ACAD_GROUP
350
D
3
ACAD_MLINESTYLE
350
17
3
ACAD_LAYOUT
350
1A
3
ACAD_PLOTSETTINGS
350
19
3
ACAD_PLOTSTYLENAME
350
E
0
DICTIONARY
5
D
102
{ACAD_REACTORS
330
C
102
}
100
AcDbDictionary
280
0
281
1
0
ACDBDICTIONARYWDFLT
5
E
102
{ACAD_REACTORS
330
C
102
}
100
AcDbDictionary
281
1
3
Normal
350
F
100
AcDbDictionaryWithDefault
340
F
0
DICTIONARY
5
17
102
{ACAD_REACTORS
330
C
102
}
100
AcDbDictionary
280
0
281
1
3
Standard
350
18
0
DICTIONARY
5
19
102
{ACAD_REACTORS
330
C
102
}
100
AcDbDictionary
281
1
0
DICTIONARY
5
1A
102
{ACAD_REACTORS
330
C
102
}
100
AcDbDictionary
281
1
3
Layout1
350
1E
3
Model
350
22
0
ACDBPLACEHOLDER
5
F
102
{ACAD_REACTORS
330
E
102
}
0
MLINESTYLE
5
18
102
{ACAD_REACTORS
330
17
102
}
100
AcDbMlineStyle
2
STANDARD
70
0
3

62
256
51
90.0
52
90.0
71
2
49
0.5
62
256
6
BYLAYER
49
-0.5
62
256
6
BYLAYER
0
LAYOUT
5
1E
102
{ACAD_REACTORS
330
1A
102
}
100
AcDbPlotSettings
1

2

4

6

40
0.0
41
0.0
42
0.0
43
0.0
44
0.0
45
0.0
46
0.0
47
0.0
48
0.0
49
0.0
140
0.0
141
0.0
142
1.0
143
1.0
70
0
72
0
73
0
74
0
7

75
0
147
1.0
148
0.0
149
0.0
100
AcDbLayout
1
Layout1
70
0
71
0
10
0.0
20
0.0
11
0.0
21
0.0
12
0.0
22
0.0
32
0.0
14
0.0
24
0.0
34
0.0
15
0.0
25
0.0
35
0.0
146
0.0
13
0.0
23
0.0
33
0.0
16
0.0
26
0.0
36
0.0
17
0.0
27
0.0
37
0.0
76
0
330
1B
331
0
345
0
346
0
0
LAYOUT
5
22
102
{ACAD_REACTORS
330
1A
102
}
100
AcDbPlotSettings
1

2

4

6

40
0.0
41
0.0
42
0.0
43
0.0
44
0.0
45
0.0
46
0.0
47
0.0
48
0.0
49
0.0
140
0.0
141
0.0
142
1.0
143
1.0
70
0
72
0
73
0
74
0
7

75
0
147
1.0
148
0.0
149
0.0
100
AcDbLayout
1
Model
70
0
71
0
10
0.0
20
0.0
11
0.0
21
0.0
12
0.0
22
0.0
32
0.0
14
0.0
24
0.0
34
0.0
15
0.0
25
0.0
35
0.0
146
0.0
13
0.0
23
0.0
33
0.0
16
0.0
26
0.0
36
0.0
17
0.0
27
0.0
37
0.0
76
0
330
1F
331
0
345
0
346
0
0
ENDSEC
0
EOF
