  0
SECTION
  2
HEADER
  9
$ACADVER
  1
AC1015
  9
$DWGCODEPAGE
  3
ANSI_1252
  9
$EXTMAX
 10
297.0
 20
210.0
 30
0.0
  9
$EXTMIN
 10
0.0
 20
0.0
 30
0.0
  9
$LIMMIN
 10
0.0
 20
0.0
  9
$LIMMAX
 10
297.0
 20
210.0
  9
$VIEWCTR
 10
148.5
 20
105.0
  9
$VIEWSIZE
 40
210.0
  9
$CLAYER
  8
0
  9
$LTSCALE
 40
16.335
  9
$CELTYPE
  6
BYLAYER
  9
$DIMSCALE
 40
1.0
  9
$DIMASZ
 40
3.0
  9
$DIMEXO
 40
1.85625
  9
$DIMDLI
 40
11.286
  9
$DIMEXE
 40
5.346
  9
$DIMCEN
 40
2.673
  9
$DIMLFAC
 40
1.0
  9
$DIMBLK
  1
_FILLED
  9
$DIMTXT
 40
3.0
  9
$DIMTOL
 70
1
  9
$DIMLIM
 70
0
  9
$DIMTFAC
 40
1.0
  9
$DIMTP
 40
0.01
  9
$DIMTM
 40
0.01
  9
$PDMODE
 70
3
  9
$PDSIZE
 40
3.0
  9
$HANDSEED
  5
687
  9
$TILEMODE
 70
1
  9
$MEASUREMENT
 70
1
  9
$INSUNITS
 70
4
  0
ENDSEC
  0
SECTION
  2
CLASSES
  0
CLASS
  1
ACDBDICTIONARYWDFLT
  2
AcDbDictionaryWithDefault
  3
AutoCAD 2000
 90
0
280
0
281
0
  0
CLASS
  1
ACDBPLACEHOLDER
  2
AcDbPlaceHolder
  3
AutoCAD 2000
 90
0
280
0
281
0
  0
CLASS
  1
LAYOUT
  2
AcDbLayout
  3
AutoCAD 2000
 90
0
280
0
281
0
  0
ENDSEC
  0
SECTION
  2
TABLES
  0
TABLE
  2
VPORT
  5
8
100
AcDbSymbolTable
 70
2
  0
VPORT
  5
1F4
100
AcDbSymbolTableRecord
100
AcDbViewportTableRecord
  2
*ACTIVE
 70
0
 10
0.0
 20
0.0
 11
1.0
 21
1.0
 12
148.5
 22
105.0
 13
0.0
 23
0.0
 14
1.0
 24
1.0
 15
0.0
 25
0.0
 16
0.0
 26
0.0
 36
1.0
 17
0.0
 27
0.0
 37
0.0
 40
210.0
 41
1.4142857143
 42
50.0
 43
0.0
 44
0.0
 50
0.0
 51
0.0
 71
0
 72
100
 73
1
 74
1
 75
0
 76
0
 77
0
 78
0
  0
ENDTAB
  0
TABLE
  2
LTYPE
  5
5
100
AcDbSymbolTable
 70
6
  0
LTYPE
  5
14
100
AcDbSymbolTableRecord
100
AcDbLinetypeTableRecord
  2
BYBLOCK
 70
0
  3

 72
65
 73
0
 40
0.0
  0
LTYPE
  5
15
100
AcDbSymbolTableRecord
100
AcDbLinetypeTableRecord
  2
BYLAYER
 70
0
  3

 72
65
 73
0
 40
0.0
  0
LTYPE
  5
16
100
AcDbSymbolTableRecord
100
AcDbLinetypeTableRecord
  2
CONTINUOUS
 70
64
  3
Solid line
 72
65
 73
0
 40
0.0
  0
LTYPE
  5
1F5
100
AcDbSymbolTableRecord
100
AcDbLinetypeTableRecord
  2
CENTER
 70
64
  3
____ _ ____ _ ____ _ ____ _ ____ _ ____ _ ____
 72
65
 73
4
 40
0.6
 49
0.375
 74
0
 49
-0.075
 74
0
 49
0.075
 74
0
 49
-0.075
 74
0
  0
LTYPE
  5
1F6
100
AcDbSymbolTableRecord
100
AcDbLinetypeTableRecord
  2
HIDDEN
 70
64
  3
- - - - - - - - - - - - - - - - - - - -
 72
65
 73
2
 40
0.2
 49
0.1
 74
0
 49
-0.1
 74
0
  0
LTYPE
  5
1F7
100
AcDbSymbolTableRecord
100
AcDbLinetypeTableRecord
  2
PHANTOM
 70
64
  3
_____ _ _ _____ _ _ _____ _ _ _____
 72
65
 73
6
 40
0.8
 49
0.45
 74
0
 49
-0.05
 74
0
 49
0.1
 74
0
 49
-0.05
 74
0
 49
0.1
 74
0
 49
-0.05
 74
0
  0
LTYPE
  5
1F8
100
AcDbSymbolTableRecord
100
AcDbLinetypeTableRecord
  2
DOT
 70
64
  3
. . . . . . . . . . . . . . . . . . . .
 72
65
 73
2
 40
0.2
 49
0.1
 74
0
 49
-0.1
 74
0
  0
LTYPE
  5
1F9
100
AcDbSymbolTableRecord
100
AcDbLinetypeTableRecord
  2
DASHED
 70
64
  3
- - - - - - - - - - - - - - - - - - - -
 72
65
 73
2
 40
0.2
 49
0.1
 74
0
 49
-0.1
 74
0
  0
ENDTAB
  0
TABLE
  2
LAYER
  5
2
100
AcDbSymbolTable
 70
36
  0
LAYER
  5
10
100
AcDbSymbolTableRecord
100
AcDbLayerTableRecord
  2
0
 70
0
 62
7
  6
CONTINUOUS
370
-3
390
F
  0
LAYER
  5
1FA
100
AcDbSymbolTableRecord
100
AcDbLayerTableRecord
  2
DEFAULT_1
 70
0
 62
7
  6
CENTER
370
-3
390
F
  0
LAYER
  5
1FB
100
AcDbSymbolTableRecord
100
AcDbLayerTableRecord
  2
DEFAULT_2
 70
0
 62
7
  6
HIDDEN
370
-3
390
F
  0
LAYER
  5
1FC
100
AcDbSymbolTableRecord
100
AcDbLayerTableRecord
  2
DEFAULT_3
 70
0
 62
7
  6
PHANTOM
370
-3
390
F
  0
LAYER
  5
1FD
100
AcDbSymbolTableRecord
100
AcDbLayerTableRecord
  2
ASSI
 70
0
 62
7
  6
CONTINUOUS
370
-3
390
F
  0
LAYER
  5
1FE
100
AcDbSymbolTableRecord
100
AcDbLayerTableRecord
  2
COLORE_TOP
 70
0
 62
7
  6
CONTINUOUS
370
-3
390
F
  0
LAYER
  5
1FF
100
AcDbSymbolTableRecord
100
AcDbLayerTableRecord
  2
COORDINATE
 70
0
 62
7
  6
CONTINUOUS
370
-3
390
F
  0
LAYER
  5
200
100
AcDbSymbolTableRecord
100
AcDbLayerTableRecord
  2
COORD_ORIGINE
 70
0
 62
7
  6
CONTINUOUS
370
-3
390
F
  0
LAYER
  5
201
100
AcDbSymbolTableRecord
100
AcDbLayerTableRecord
  2
COPY_PUBLISH
 70
0
 62
7
  6
CONTINUOUS
370
-3
390
F
  0
LAYER
  5
202
100
AcDbSymbolTableRecord
100
AcDbLayerTableRecord
  2
COSMETIC
 70
0
 62
7
  6
CONTINUOUS
370
-3
390
F
  0
LAYER
  5
203
100
AcDbSymbolTableRecord
100
AcDbLayerTableRecord
  2
COSMETICHE
 70
0
 62
7
  6
CONTINUOUS
370
-3
390
F
  0
LAYER
  5
204
100
AcDbSymbolTableRecord
100
AcDbLayerTableRecord
  2
CURVE
 70
0
 62
7
  6
CONTINUOUS
370
-3
390
F
  0
LAYER
  5
205
100
AcDbSymbolTableRecord
100
AcDbLayerTableRecord
  2
DRAFT
 70
0
 62
7
  6
CONTINUOUS
370
-3
390
F
  0
LAYER
  5
206
100
AcDbSymbolTableRecord
100
AcDbLayerTableRecord
  2
IMPORT
 70
0
 62
7
  6
CONTINUOUS
370
-3
390
F
  0
LAYER
  5
207
100
AcDbSymbolTableRecord
100
AcDbLayerTableRecord
  2
IMPORTED
 70
0
 62
7
  6
CONTINUOUS
370
-3
390
F
  0
LAYER
  5
208
100
AcDbSymbolTableRecord
100
AcDbLayerTableRecord
  2
IMPORT_IGES
 70
0
 62
7
  6
CONTINUOUS
370
-3
390
F
  0
LAYER
  5
209
100
AcDbSymbolTableRecord
100
AcDbLayerTableRecord
  2
INCISIONI_LASER
 70
0
 62
7
  6
CONTINUOUS
370
-3
390
F
  0
LAYER
  5
20A
100
AcDbSymbolTableRecord
100
AcDbLayerTableRecord
  2
NOTE
 70
0
 62
7
  6
CONTINUOUS
370
-3
390
F
  0
LAYER
  5
20B
100
AcDbSymbolTableRecord
100
AcDbLayerTableRecord
  2
PIANI
 70
0
 62
7
  6
CONTINUOUS
370
-3
390
F
  0
LAYER
  5
20C
100
AcDbSymbolTableRecord
100
AcDbLayerTableRecord
  2
PIANI_DI_RIFERIMENTO
 70
0
 62
7
  6
CONTINUOUS
370
-3
390
F
  0
LAYER
  5
20D
100
AcDbSymbolTableRecord
100
AcDbLayerTableRecord
  2
PIANI_ORIGINE
 70
0
 62
7
  6
CONTINUOUS
370
-3
390
F
  0
LAYER
  5
20E
100
AcDbSymbolTableRecord
100
AcDbLayerTableRecord
  2
PIANI_RIFERIMENTO
 70
0
 62
7
  6
CONTINUOUS
370
-3
390
F
  0
LAYER
  5
20F
100
AcDbSymbolTableRecord
100
AcDbLayerTableRecord
  2
PIANI_SFORMO
 70
0
 62
7
  6
CONTINUOUS
370
-3
390
F
  0
LAYER
  5
210
100
AcDbSymbolTableRecord
100
AcDbLayerTableRecord
  2
PUNTI
 70
0
 62
7
  6
CONTINUOUS
370
-3
390
F
  0
LAYER
  5
211
100
AcDbSymbolTableRecord
100
AcDbLayerTableRecord
  2
RACCORDO
 70
0
 62
7
  6
CONTINUOUS
370
-3
390
F
  0
LAYER
  5
212
100
AcDbSymbolTableRecord
100
AcDbLayerTableRecord
  2
SMUSSO
 70
0
 62
7
  6
CONTINUOUS
370
-3
390
F
  0
LAYER
  5
213
100
AcDbSymbolTableRecord
100
AcDbLayerTableRecord
  2
SNAPLINE
 70
0
 62
7
  6
CONTINUOUS
370
-3
390
F
  0
LAYER
  5
214
100
AcDbSymbolTableRecord
100
AcDbLayerTableRecord
  2
SUPERFICI
 70
0
 62
7
  6
CONTINUOUS
370
-3
390
F
  0
LAYER
  5
215
100
AcDbSymbolTableRecord
100
AcDbLayerTableRecord
  2
TRASH
 70
0
 62
7
  6
CONTINUOUS
370
-3
390
F
  0
LAYER
  5
216
100
AcDbSymbolTableRecord
100
AcDbLayerTableRecord
  2
XSEC_DATUMS
 70
0
 62
7
  6
CONTINUOUS
370
-3
390
F
  0
ENDTAB
  0
TABLE
  2
STYLE
  5
3
100
AcDbSymbolTable
 70
1
  0
STYLE
  5
11
100
AcDbSymbolTableRecord
100
AcDbTextStyleTableRecord
  2
STANDARD
 70
0
 40
0.0
 41
0.8
 50
0.0
 71
0
 42
0.2
  3
txt
  4

  0
STYLE
  5
217
100
AcDbSymbolTableRecord
100
AcDbTextStyleTableRecord
  2
TEXTSTYLE_1
 70
0
 40
0.0
 41
0.8
 50
0.0
 71
0
 42
0.2
  3
gdt
  4

  0
ENDTAB
  0
TABLE
  2
VIEW
  5
6
100
AcDbSymbolTable
 70
0
  0
ENDTAB
  0
TABLE
  2
UCS
  5
7
100
AcDbSymbolTable
 70
0
  0
ENDTAB
  0
TABLE
  2
APPID
  5
9
100
AcDbSymbolTable
 70
1
  0
APPID
  5
218
100
AcDbSymbolTableRecord
100
AcDbRegAppTableRecord
  2
ACAD
 70
0
  0
ENDTAB
  0
TABLE
  2
BLOCK_RECORD
  5
1
100
AcDbSymbolTable
 70
0
  0
BLOCK_RECORD
  5
219
100
AcDbSymbolTableRecord
100
AcDbBlockTableRecord
  2
*Model_Space
  0
BLOCK_RECORD
  5
21A
100
AcDbSymbolTableRecord
100
AcDbBlockTableRecord
  2
*Paper_Space
  0
ENDTAB
  0
TABLE
  2
DIMSTYLE
  5
A
100
AcDbSymbolTable
 70
1
100
AcDbDimStyleTable
 71
0
  0
DIMSTYLE
105
21B
100
AcDbSymbolTableRecord
100
AcDbDimStyleTableRecord
  2
STANDARD
 70
0
  3

  4

 40
1.0
 41
3.0
 42
0.0625
 43
0.38
 44
0.18
 45
0.0
 46
0.0
 47
0.01
 48
0.01
140
3.0
141
0.09
142
0.0
143
25.4
144
1.0
145
0.0
146
1.0
147
0.09
 71
1.0
 72
0.0
 73
0
 74
0
 75
0
 76
0
 77
1
 78
8
170
0
171
2
172
0
173
0
174
0
175
0
176
0
177
0
178
0
270
2
271
2
272
2
273
2
274
2
275
0
280
0
281
0
282
0
283
1
284
8
285
0
286
0
287
3
288
0
340
11
  0
ENDTAB
  0
ENDSEC
  0
SECTION
  2
BLOCKS
  0
BLOCK
  5
20
100
AcDbEntity
  8
0
100
AcDbBlockBegin
  2
*Model_Space
 70
0
 10
0.0
 20
0.0
 30
0.0
  3
*Model_Space
  1

  0
ENDBLK
  5
21
100
AcDbEntity
  8
0
100
AcDbBlockEnd
  0
BLOCK
  5
1C
100
AcDbEntity
  8
0
100
AcDbBlockBegin
  2
*Paper_Space
 70
0
 10
0.0
 20
0.0
 30
0.0
  3
*Paper_Space
  1

  0
ENDBLK
  5
1D
100
AcDbEntity
  8
0
100
AcDbBlockEnd
  0
ENDSEC
  0
SECTION
  2
ENTITIES
  0
LINE
  5
21C
100
AcDbEntity
  8
RACCORDO
100
AcDbLine
 62
7
  6
CONTINUOUS
 10
-7.6189316705
 20
24.688381776
 11
-7.6233035045
 21
24.684009942
  0
LINE
  5
21D
100
AcDbEntity
  8
DRAFT
100
AcDbLine
 62
7
  6
CONTINUOUS
 10
-9.9189316705
 20
-24.111618224
 11
-7.6189316705
 21
-24.111618224
  0
LINE
  5
21E
100
AcDbEntity
  8
DRAFT
100
AcDbLine
 62
7
  6
CONTINUOUS
 10
8.9810683295
 20
-24.111618224
 11
11.2810683295
 21
-24.111618224
  0
LINE
  5
21F
100
AcDbEntity
  8
RACCORDO
100
AcDbLine
 62
253
  6
CONTINUOUS
 10
-9.9145598365
 20
-24.10724639
 11
-7.6233035045
 21
-24.10724639
  0
LINE
  5
220
100
AcDbEntity
  8
RACCORDO
100
AcDbLine
 62
253
  6
CONTINUOUS
 10
8.9854401635
 20
-24.10724639
 11
11.2766964955
 21
-24.10724639
  0
LINE
  5
221
100
AcDbEntity
  8
RACCORDO
100
AcDbLine
 62
253
  6
CONTINUOUS
 10
-9.9131138407
 20
-23.8572506208
 11
-7.6247495003
 21
-23.8572506208
  0
LINE
  5
222
100
AcDbEntity
  8
RACCORDO
100
AcDbLine
 62
253
  6
CONTINUOUS
 10
8.9868861593
 20
-23.8572506208
 11
11.2752504997
 21
-23.8572506208
  0
LINE
  5
223
100
AcDbEntity
  8
RACCORDO
100
AcDbLine
 62
253
  6
CONTINUOUS
 10
11.2752504997
 20
-23.5559557913
 11
8.9868861593
 21
-23.5559557913
  0
LINE
  5
224
100
AcDbEntity
  8
RACCORDO
100
AcDbLine
 62
253
  6
CONTINUOUS
 10
-7.6247495003
 20
-23.5559557913
 11
-9.9131138407
 21
-23.5559557913
  0
LINE
  5
225
100
AcDbEntity
  8
DRAFT
100
AcDbLine
 62
7
  6
CONTINUOUS
 10
-3.7189316705
 20
-23.511618224
 11
5.0810683295
 21
-23.511618224
  0
LINE
  5
226
100
AcDbEntity
  8
DRAFT
100
AcDbLine
 62
7
  6
CONTINUOUS
 10
-2.8189316705
 20
-23.5058003942
 11
4.1810683295
 21
-23.5058003942
  0
LINE
  5
227
100
AcDbEntity
  8
RACCORDO
100
AcDbLine
 62
7
  6
CONTINUOUS
 10
-3.374129304
 20
-23.4650755856
 11
-3.1189316705
 21
-23.4650755856
  0
LINE
  5
228
100
AcDbEntity
  8
RACCORDO
100
AcDbLine
 62
7
  6
CONTINUOUS
 10
4.4810683295
 20
-23.4650755856
 11
4.7362659629
 21
-23.4650755856
  0
LINE
  5
229
100
AcDbEntity
  8
RACCORDO
100
AcDbLine
 62
253
  6
CONTINUOUS
 10
11.2759777284
 20
-23.3394494404
 11
8.9861589306
 21
-23.3394494404
  0
LINE
  5
22A
100
AcDbEntity
  8
RACCORDO
100
AcDbLine
 62
253
  6
CONTINUOUS
 10
-7.6240222716
 20
-23.3394494404
 11
-9.9138410694
 21
-23.3394494404
  0
LINE
  5
22B
100
AcDbEntity
  8
RACCORDO
100
AcDbLine
 62
253
  6
CONTINUOUS
 10
11.2803411007
 20
-22.9064367385
 11
8.9817955582
 21
-22.9064367385
  0
LINE
  5
22C
100
AcDbEntity
  8
RACCORDO
100
AcDbLine
 62
253
  6
CONTINUOUS
 10
-7.6196588993
 20
-22.9064367385
 11
-9.9182044418
 21
-22.9064367385
  0
LINE
  5
22D
100
AcDbEntity
  8
RACCORDO
100
AcDbLine
 62
7
  6
CONTINUOUS
 10
-7.6189316705
 20
-24.111618224
 11
-7.6233035045
 21
-24.10724639
  0
LINE
  5
22E
100
AcDbEntity
  8
RACCORDO
100
AcDbLine
 62
253
  6
CONTINUOUS
 10
11.2810683295
 20
-22.6899303876
 11
8.9810683295
 21
-22.6899303876
  0
LINE
  5
22F
100
AcDbEntity
  8
RACCORDO
100
AcDbLine
 62
253
  6
CONTINUOUS
 10
-7.6189316705
 20
-22.6899303876
 11
-9.9189316705
 21
-22.6899303876
  0
LINE
  5
230
100
AcDbEntity
  8
RACCORDO
100
AcDbLine
 62
7
  6
CONTINUOUS
 10
-10.1189316705
 20
-22.111618224
 11
-9.9189316705
 21
-22.111618224
  0
LINE
  5
231
100
AcDbEntity
  8
DRAFT
100
AcDbLine
 62
7
  6
CONTINUOUS
 10
-9.9189316705
 20
-22.111618224
 11
-3.7189316705
 21
-22.111618224
  0
LINE
  5
232
100
AcDbEntity
  8
DRAFT
100
AcDbLine
 62
7
  6
CONTINUOUS
 10
5.0810683295
 20
-22.111618224
 11
11.2810683295
 21
-22.111618224
  0
LINE
  5
233
100
AcDbEntity
  8
RACCORDO
100
AcDbLine
 62
7
  6
CONTINUOUS
 10
11.2810683295
 20
-22.111618224
 11
11.4810683295
 21
-22.111618224
  0
LINE
  5
234
100
AcDbEntity
  8
RACCORDO
100
AcDbLine
 62
7
  6
CONTINUOUS
 10
11.4810683295
 20
-22.1028913563
 11
7.8155197055
 21
-22.1028913563
  0
LINE
  5
235
100
AcDbEntity
  8
RACCORDO
100
AcDbLine
 62
7
  6
CONTINUOUS
 10
-6.4533830465
 20
-22.1028913563
 11
-10.1189316705
 21
-22.1028913563
  0
LINE
  5
236
100
AcDbEntity
  8
DRAFT
100
AcDbLine
 62
7
  6
CONTINUOUS
 10
-2.8189316705
 20
-22.0496574627
 11
-2.3189316705
 21
-22.0496574627
  0
LINE
  5
237
100
AcDbEntity
  8
DRAFT
100
AcDbLine
 62
7
  6
CONTINUOUS
 10
3.6810683295
 20
-22.0496574627
 11
4.1810683295
 21
-22.0496574627
  0
LINE
  5
238
100
AcDbEntity
  8
RACCORDO
100
AcDbLine
 62
7
  6
CONTINUOUS
 10
-3.374129304
 20
-22.0418032817
 11
-3.1189316705
 21
-22.0418032817
  0
LINE
  5
239
100
AcDbEntity
  8
RACCORDO
100
AcDbLine
 62
7
  6
CONTINUOUS
 10
4.4810683295
 20
-22.0418032817
 11
4.7362659629
 21
-22.0418032817
  0
LINE
  5
23A
100
AcDbEntity
  8
RACCORDO
100
AcDbLine
 62
253
  6
CONTINUOUS
 10
-6.532001012
 20
-22.0242733908
 11
-2.3189316705
 21
-22.0242733908
  0
LINE
  5
23B
100
AcDbEntity
  8
RACCORDO
100
AcDbLine
 62
253
  6
CONTINUOUS
 10
3.6810683295
 20
-22.0242733908
 11
7.8941376709
 21
-22.0242733908
  0
LINE
  5
23C
100
AcDbEntity
  8
0
100
AcDbLine
 62
7
  6
CONTINUOUS
 10
3.6810683295
 20
-21.411618224
 11
-2.3189316705
 21
-21.411618224
  0
LINE
  5
23D
100
AcDbEntity
  8
RACCORDO
100
AcDbLine
 62
253
  6
CONTINUOUS
 10
-7.0995718423
 20
-21.0243114678
 11
-2.3189316705
 21
-21.0243114678
  0
LINE
  5
23E
100
AcDbEntity
  8
RACCORDO
100
AcDbLine
 62
253
  6
CONTINUOUS
 10
3.6810683295
 20
-21.0243114678
 11
8.4617085013
 21
-21.0243114678
  0
LINE
  5
23F
100
AcDbEntity
  8
RACCORDO
100
AcDbLine
 62
7
  6
CONTINUOUS
 10
-8.1189316705
 20
21.138381776
 11
-9.883234451
 21
19.3740789955
  0
LINE
  5
240
100
AcDbEntity
  8
RACCORDO
100
AcDbLine
 62
7
  6
CONTINUOUS
 10
-7.4810180065
 20
21.77629544
 11
-6.6655379275
 21
22.591775519
  0
LINE
  5
241
100
AcDbEntity
  8
RACCORDO
100
AcDbLine
 62
253
  6
CONTINUOUS
 10
-6.4533830465
 20
22.6796549082
 11
-6.532001012
 21
22.6010369427
  0
LINE
  5
242
100
AcDbEntity
  8
RACCORDO
100
AcDbLine
 62
253
  6
CONTINUOUS
 10
-7.5689316705
 20
21.5640720158
 11
-7.3995261509
 21
21.7334775355
  0
LINE
  5
243
100
AcDbEntity
  8
DRAFT
100
AcDbLine
 62
7
  6
CONTINUOUS
 10
-9.1111006061
 20
19.8993609448
 11
-8.0466304243
 21
20.9638311267
  0
LINE
  5
244
100
AcDbEntity
  8
RACCORDO
100
AcDbLine
 62
253
  6
CONTINUOUS
 10
-9.5163734546
 20
19.2221201953
 11
-9.0314430522
 21
19.7070505977
  0
LINE
  5
245
100
AcDbEntity
  8
DRAFT
100
AcDbLine
 62
7
  6
CONTINUOUS
 10
-6.7189316705
 20
21.0528519578
 11
-6.8079525017
 21
20.9638311267
  0
LINE
  5
246
100
AcDbEntity
  8
RACCORDO
100
AcDbLine
 62
253
  6
CONTINUOUS
 10
-8.8093743692
 20
18.5151211099
 11
-8.6172925765
 21
18.7072029026
  0
LINE
  5
247
100
AcDbEntity
  8
RACCORDO
100
AcDbLine
 62
253
  6
CONTINUOUS
 10
8.9310683295
 20
-20.911618224
 11
8.7616628098
 21
-20.911618224
  0
LINE
  5
248
100
AcDbEntity
  8
RACCORDO
100
AcDbLine
 62
253
  6
CONTINUOUS
 10
-7.5689316705
 20
-20.911618224
 11
-7.3995261509
 21
-20.911618224
  0
LINE
  5
249
100
AcDbEntity
  8
0
100
AcDbLine
 62
7
  6
CONTINUOUS
 10
-2.3189316705
 20
-20.711618224
 11
3.6810683295
 21
-20.711618224
  0
LINE
  5
24A
100
AcDbEntity
  8
RACCORDO
100
AcDbLine
 62
7
  6
CONTINUOUS
 10
8.6310226311
 20
-20.611618224
 11
8.4617085013
 21
-20.611618224
  0
LINE
  5
24B
100
AcDbEntity
  8
RACCORDO
100
AcDbLine
 62
7
  6
CONTINUOUS
 10
8.4564719818
 20
-20.611618224
 11
7.5964062884
 21
-20.611618224
  0
LINE
  5
24C
100
AcDbEntity
  8
RACCORDO
100
AcDbLine
 62
7
  6
CONTINUOUS
 10
-7.2688859721
 20
-20.611618224
 11
-7.0995718423
 21
-20.611618224
  0
LINE
  5
24D
100
AcDbEntity
  8
RACCORDO
100
AcDbLine
 62
7
  6
CONTINUOUS
 10
-6.2342696294
 20
-20.611618224
 11
-7.0943353228
 21
-20.611618224
  0
LINE
  5
24E
100
AcDbEntity
  8
DRAFT
100
AcDbLine
 62
7
  6
CONTINUOUS
 10
-8.1189316705
 20
-20.561618224
 11
-6.8044614887
 21
-20.561618224
  0
LINE
  5
24F
100
AcDbEntity
  8
DRAFT
100
AcDbLine
 62
7
  6
CONTINUOUS
 10
8.1665981476
 20
-20.561618224
 11
9.4810683295
 21
-20.561618224
  0
LINE
  5
250
100
AcDbEntity
  8
0
100
AcDbLine
 62
7
  6
CONTINUOUS
 10
-8.2189316705
 20
-20.461618224
 11
-9.0689316705
 21
-20.461618224
  0
LINE
  5
251
100
AcDbEntity
  8
0
100
AcDbLine
 62
7
  6
CONTINUOUS
 10
9.5810683295
 20
-20.461618224
 11
10.4310683295
 21
-20.461618224
  0
LINE
  5
252
100
AcDbEntity
  8
DRAFT
100
AcDbLine
 62
7
  6
CONTINUOUS
 10
-8.0466304243
 20
-20.3870675748
 11
-6.8079525017
 21
-20.3870675748
  0
LINE
  5
253
100
AcDbEntity
  8
DRAFT
100
AcDbLine
 62
7
  6
CONTINUOUS
 10
8.1700891606
 20
-20.3870675748
 11
9.4087670832
 21
-20.3870675748
  0
LINE
  5
254
100
AcDbEntity
  8
RACCORDO
100
AcDbLine
 62
7
  6
CONTINUOUS
 10
7.0310683295
 20
-19.798886902
 11
-5.6689316705
 21
-19.798886902
  0
LINE
  5
255
100
AcDbEntity
  8
DRAFT
100
AcDbLine
 62
7
  6
CONTINUOUS
 10
-2.8189316705
 20
-19.7648521176
 11
-1.7602427937
 21
-19.7648521176
  0
LINE
  5
256
100
AcDbEntity
  8
DRAFT
100
AcDbLine
 62
7
  6
CONTINUOUS
 10
3.1223794526
 20
-19.7648521176
 11
4.1810683295
 21
-19.7648521176
  0
LINE
  5
257
100
AcDbEntity
  8
RACCORDO
100
AcDbLine
 62
7
  6
CONTINUOUS
 10
-5.3689316705
 20
-19.711618224
 11
-2.8189316705
 21
-19.711618224
  0
LINE
  5
258
100
AcDbEntity
  8
RACCORDO
100
AcDbLine
 62
7
  6
CONTINUOUS
 10
4.1810683295
 20
-19.711618224
 11
6.7310683295
 21
-19.711618224
  0
LINE
  5
259
100
AcDbEntity
  8
RACCORDO
100
AcDbLine
 62
253
  6
CONTINUOUS
 10
-5.3689316705
 20
-19.711618224
 11
-6.6189316705
 21
-19.711618224
  0
LINE
  5
25A
100
AcDbEntity
  8
RACCORDO
100
AcDbLine
 62
253
  6
CONTINUOUS
 10
6.7310683295
 20
-19.711618224
 11
7.9810683295
 21
-19.711618224
  0
LINE
  5
25B
100
AcDbEntity
  8
RACCORDO
100
AcDbLine
 62
7
  6
CONTINUOUS
 10
-5.0689316705
 20
-19.611618224
 11
-2.7121332811
 21
-19.611618224
  0
LINE
  5
25C
100
AcDbEntity
  8
RACCORDO
100
AcDbLine
 62
7
  6
CONTINUOUS
 10
4.07426994
 20
-19.611618224
 11
6.4310683295
 21
-19.611618224
  0
LINE
  5
25D
100
AcDbEntity
  8
RACCORDO
100
AcDbLine
 62
7
  6
CONTINUOUS
 10
-1.7189316705
 20
-19.5960051752
 11
3.0810683295
 21
-19.5960051752
  0
LINE
  5
25E
100
AcDbEntity
  8
DRAFT
100
AcDbLine
 62
7
  6
CONTINUOUS
 10
-4.9799108394
 20
-19.5225973929
 11
6.3420474983
 21
-19.5225973929
  0
LINE
  5
25F
100
AcDbEntity
  8
DRAFT
100
AcDbLine
 62
7
  6
CONTINUOUS
 10
8.0810683295
 20
-19.411618224
 11
7.6382952538
 21
-19.411618224
  0
LINE
  5
260
100
AcDbEntity
  8
DRAFT
100
AcDbLine
 62
7
  6
CONTINUOUS
 10
7.0310683295
 20
-19.411618224
 11
6.4310683295
 21
-19.411618224
  0
LINE
  5
261
100
AcDbEntity
  8
DRAFT
100
AcDbLine
 62
7
  6
CONTINUOUS
 10
-5.0689316705
 20
-19.411618224
 11
-5.6689316705
 21
-19.411618224
  0
LINE
  5
262
100
AcDbEntity
  8
RACCORDO
100
AcDbLine
 62
7
  6
CONTINUOUS
 10
-5.6689316705
 20
-19.411618224
 11
-6.2761585948
 21
-19.411618224
  0
LINE
  5
263
100
AcDbEntity
  8
DRAFT
100
AcDbLine
 62
7
  6
CONTINUOUS
 10
-6.2761585948
 20
-19.411618224
 11
-6.7189316705
 21
-19.411618224
  0
LINE
  5
264
100
AcDbEntity
  8
RACCORDO
100
AcDbLine
 62
7
  6
CONTINUOUS
 10
7.0310683295
 20
-19.411618224
 11
7.6382952538
 21
-19.411618224
  0
LINE
  5
265
100
AcDbEntity
  8
DRAFT
100
AcDbLine
 62
7
  6
CONTINUOUS
 10
10.4732372651
 20
-19.3225973929
 11
8.1700891606
 21
-19.3225973929
  0
LINE
  5
266
100
AcDbEntity
  8
DRAFT
100
AcDbLine
 62
7
  6
CONTINUOUS
 10
6.3420474983
 20
-19.3225973929
 11
-4.9799108394
 21
-19.3225973929
  0
LINE
  5
267
100
AcDbEntity
  8
DRAFT
100
AcDbLine
 62
7
  6
CONTINUOUS
 10
-6.8079525017
 20
-19.3225973929
 11
-9.1111006061
 21
-19.3225973929
  0
LINE
  5
268
100
AcDbEntity
  8
RACCORDO
100
AcDbLine
 62
253
  6
CONTINUOUS
 10
-0.4795944319
 20
-19.2996011756
 11
-9.101575261
 21
-19.2996011756
  0
LINE
  5
269
100
AcDbEntity
  8
RACCORDO
100
AcDbLine
 62
7
  6
CONTINUOUS
 10
-9.883234451
 20
-18.7973154436
 11
-8.1189316705
 21
-20.561618224
  0
LINE
  5
26A
100
AcDbEntity
  8
RACCORDO
100
AcDbLine
 62
7
  6
CONTINUOUS
 10
-6.6655379275
 20
-22.0150119671
 11
-7.4810180065
 21
-21.1995318881
  0
LINE
  5
26B
100
AcDbEntity
  8
RACCORDO
100
AcDbLine
 62
253
  6
CONTINUOUS
 10
-6.4533830465
 20
-22.1028913563
 11
-6.532001012
 21
-22.0242733908
  0
LINE
  5
26C
100
AcDbEntity
  8
RACCORDO
100
AcDbLine
 62
253
  6
CONTINUOUS
 10
-7.5689316705
 20
-20.9873084639
 11
-7.3995261509
 21
-21.1567139836
  0
LINE
  5
26D
100
AcDbEntity
  8
DRAFT
100
AcDbLine
 62
7
  6
CONTINUOUS
 10
-9.1111006061
 20
-19.3225973929
 11
-8.0466304243
 21
-20.3870675748
  0
LINE
  5
26E
100
AcDbEntity
  8
RACCORDO
100
AcDbLine
 62
253
  6
CONTINUOUS
 10
-9.101575261
 20
-19.2996011756
 11
-9.6856875844
 21
-18.7154888522
  0
LINE
  5
26F
100
AcDbEntity
  8
DRAFT
100
AcDbLine
 62
7
  6
CONTINUOUS
 10
-6.7189316705
 20
-20.4760884059
 11
-6.8079525017
 21
-20.3870675748
  0
LINE
  5
270
100
AcDbEntity
  8
RACCORDO
100
AcDbLine
 62
253
  6
CONTINUOUS
 10
-8.6874247854
 20
-18.2997534805
 11
-8.978688499
 21
-18.0084897668
  0
LINE
  5
271
100
AcDbEntity
  8
DRAFT
100
AcDbLine
 62
7
  6
CONTINUOUS
 10
-6.7189316705
 20
19.988381776
 11
-6.8079525017
 21
19.8993609448
  0
LINE
  5
272
100
AcDbEntity
  8
0
100
AcDbLine
 62
253
  6
CONTINUOUS
 10
10.3935797111
 20
-19.1302870458
 11
9.227821908
 21
-19.1302870458
  0
LINE
  5
273
100
AcDbEntity
  8
RACCORDO
100
AcDbLine
 62
253
  6
CONTINUOUS
 10
2.6343147509
 20
-19.1302870458
 11
1.1637655926
 21
-19.1302870458
  0
LINE
  5
274
100
AcDbEntity
  8
RACCORDO
100
AcDbLine
 62
253
  6
CONTINUOUS
 10
-0.4795944319
 20
-18.2997534805
 11
-8.6874247854
 21
-18.2997534805
  0
LINE
  5
275
100
AcDbEntity
  8
ASSI
100
AcDbLine
 62
253
  6
CONTINUOUS
 10
9.9794292355
 20
-18.1304393507
 11
8.7335342518
 21
-18.1304393507
  0
LINE
  5
276
100
AcDbEntity
  8
RACCORDO
100
AcDbLine
 62
253
  6
CONTINUOUS
 10
3.1286024072
 20
-18.1304393507
 11
0.1639178974
 21
-18.1304393507
  0
LINE
  5
277
100
AcDbEntity
  8
DRAFT
100
AcDbLine
 62
7
  6
CONTINUOUS
 10
3.1286024072
 20
-17.7534732623
 11
8.7335342518
 21
-17.7534732623
  0
LINE
  5
278
100
AcDbEntity
  8
DRAFT
100
AcDbLine
 62
7
  6
CONTINUOUS
 10
-6.7189316705
 20
-19.411618224
 11
-6.8079525017
 21
-19.3225973929
  0
LINE
  5
279
100
AcDbEntity
  8
RACCORDO
100
AcDbLine
 62
253
  6
CONTINUOUS
 10
-10.271384804
 20
-17.3014906814
 11
-9.2715371088
 21
-17.3014906814
  0
LINE
  5
27A
100
AcDbEntity
  8
RACCORDO
100
AcDbLine
 62
253
  6
CONTINUOUS
 10
11.4642073331
 20
-17.2313584726
 11
10.4643596379
 21
-17.2313584726
  0
LINE
  5
27B
100
AcDbEntity
  8
RACCORDO
100
AcDbLine
 62
253
  6
CONTINUOUS
 10
9.6932136011
 20
18.588381776
 11
10.0510205223
 21
18.7064473759
  0
LINE
  5
27C
100
AcDbEntity
  8
0
100
AcDbLine
 62
7
  6
CONTINUOUS
 10
8.9858647166
 20
-13.4043947342
 11
8.902645451
 21
-13.4254524457
  0
LINE
  5
27D
100
AcDbEntity
  8
0
100
AcDbLine
 62
7
  6
CONTINUOUS
 10
8.3455060405
 20
-13.5664303898
 11
8.8715496236
 21
-13.4333208997
  0
LINE
  5
27E
100
AcDbEntity
  8
0
100
AcDbLine
 62
7
  6
CONTINUOUS
 10
3.1286688199
 20
-18.253574941
 11
3.1811483384
 21
-18.2885546394
  0
LINE
  5
27F
100
AcDbEntity
  8
RACCORDO
100
AcDbLine
 62
7
  6
CONTINUOUS
 10
5.0810683295
 20
24.088381776
 11
5.036260886
 21
24.0435743324
  0
LINE
  5
280
100
AcDbEntity
  8
RACCORDO
100
AcDbLine
 62
7
  6
CONTINUOUS
 10
4.7810683295
 20
18.588381776
 11
4.8700823809
 21
18.6471302082
  0
LINE
  5
281
100
AcDbEntity
  8
RACCORDO
100
AcDbLine
 62
253
  6
CONTINUOUS
 10
11.24537111
 20
19.3740789955
 11
10.8785101136
 21
19.2221201953
  0
LINE
  5
282
100
AcDbEntity
  8
RACCORDO
100
AcDbLine
 62
253
  6
CONTINUOUS
 10
10.1932394984
 20
18.0884237425
 11
10.5508512868
 21
18.2064249544
  0
LINE
  5
283
100
AcDbEntity
  8
0
100
AcDbLine
 62
7
  6
CONTINUOUS
 10
9.940878952
 20
-13.361618224
 11
9.3292950568
 21
-13.361618224
  0
LINE
  5
284
100
AcDbEntity
  8
0
100
AcDbLine
 62
7
  6
CONTINUOUS
 10
2.8724918077
 20
-13.361618224
 11
4.1810683295
 21
-13.361618224
  0
LINE
  5
285
100
AcDbEntity
  8
0
100
AcDbLine
 62
7
  6
CONTINUOUS
 10
7.9212577067
 20
-13.361618224
 11
8.9896395769
 21
-13.361618224
  0
LINE
  5
286
100
AcDbEntity
  8
RACCORDO
100
AcDbLine
 62
253
  6
CONTINUOUS
 10
11.1173375923
 20
-13.29679353
 11
11.4172919008
 21
-13.29679353
  0
LINE
  5
287
100
AcDbEntity
  8
0
100
AcDbLine
 62
253
  6
CONTINUOUS
 10
2.4512998392
 20
-13.261618224
 11
4.1810683295
 21
-13.261618224
  0
LINE
  5
288
100
AcDbEntity
  8
0
100
AcDbLine
 62
253
  6
CONTINUOUS
 10
7.7822916575
 20
-13.261618224
 11
9.9310683295
 21
-13.261618224
  0
LINE
  5
289
100
AcDbEntity
  8
0
100
AcDbLine
 62
253
  6
CONTINUOUS
 10
2.1120518204
 20
-12.961618224
 11
4.1810683295
 21
-12.961618224
  0
LINE
  5
28A
100
AcDbEntity
  8
0
100
AcDbLine
 62
253
  6
CONTINUOUS
 10
7.6810683295
 20
-12.961618224
 11
9.9310683295
 21
-12.961618224
  0
LINE
  5
28B
100
AcDbEntity
  8
0
100
AcDbLine
 62
7
  6
CONTINUOUS
 10
2.9594848355
 20
-13.4254508332
 11
2.8762719423
 21
-13.4043947342
  0
LINE
  5
28C
100
AcDbEntity
  8
0
100
AcDbLine
 62
7
  6
CONTINUOUS
 10
2.9905895064
 20
-13.433321525
 11
3.4928144942
 21
-13.5604039839
  0
LINE
  5
28D
100
AcDbEntity
  8
RACCORDO
100
AcDbLine
 62
253
  6
CONTINUOUS
 10
10.8785101136
 20
-18.6453566434
 11
11.24537111
 21
-18.7973154436
  0
LINE
  5
28E
100
AcDbEntity
  8
DRAFT
100
AcDbLine
 62
7
  6
CONTINUOUS
 10
3.1726730895
 20
-17.7828533029
 11
3.1286024072
 21
-17.7534732623
  0
LINE
  5
28F
100
AcDbEntity
  8
RACCORDO
100
AcDbLine
 62
7
  6
CONTINUOUS
 10
5.0810683295
 20
-23.511618224
 11
5.036260886
 21
-23.4668107805
  0
LINE
  5
290
100
AcDbEntity
  8
RACCORDO
100
AcDbLine
 62
7
  6
CONTINUOUS
 10
-9.9138410694
 20
-23.3394494404
 11
-9.9182044418
 21
-22.9064367385
  0
LINE
  5
291
100
AcDbEntity
  8
RACCORDO
100
AcDbLine
 62
7
  6
CONTINUOUS
 10
-10.4689316705
 20
22.3296415807
 11
-10.4689316705
 21
-21.7528780288
  0
LINE
  5
292
100
AcDbEntity
  8
RACCORDO
100
AcDbLine
 62
253
  6
CONTINUOUS
 10
-10.271384804
 20
-17.3014906814
 11
-10.271384804
 21
-9.7222809854
  0
LINE
  5
293
100
AcDbEntity
  8
RACCORDO
100
AcDbLine
 62
253
  6
CONTINUOUS
 10
-10.1189316705
 20
-22.111618224
 11
-10.1189316705
 21
-22.1028913563
  0
LINE
  5
294
100
AcDbEntity
  8
RACCORDO
100
AcDbLine
 62
253
  6
CONTINUOUS
 10
-10.1189316705
 20
22.6796549082
 11
-10.1189316705
 21
22.688381776
  0
LINE
  5
295
100
AcDbEntity
  8
RACCORDO
100
AcDbLine
 62
253
  6
CONTINUOUS
 10
-10.1020706741
 20
-8.0789209609
 11
-10.1020706741
 21
-2.8392674371
  0
LINE
  5
296
100
AcDbEntity
  8
RACCORDO
100
AcDbLine
 62
253
  6
CONTINUOUS
 10
-10.1020706741
 20
0.6160306533
 11
-10.1020706741
 21
17.8081220245
  0
LINE
  5
297
100
AcDbEntity
  8
RACCORDO
100
AcDbLine
 62
253
  6
CONTINUOUS
 10
-10.0551552419
 20
0.3735570483
 11
-10.0551552419
 21
0.1761847435
  0
LINE
  5
298
100
AcDbEntity
  8
RACCORDO
100
AcDbLine
 62
253
  6
CONTINUOUS
 10
-10.0551552419
 20
-2.3994211916
 11
-10.0551552419
 21
-2.5967934218
  0
LINE
  5
299
100
AcDbEntity
  8
RACCORDO
100
AcDbLine
 62
7
  6
CONTINUOUS
 10
-9.9189316705
 20
-22.111618224
 11
-9.9189316705
 21
-24.111618224
  0
LINE
  5
29A
100
AcDbEntity
  8
RACCORDO
100
AcDbLine
 62
7
  6
CONTINUOUS
 10
-9.9189316705
 20
22.688381776
 11
-9.9189316705
 21
24.688381776
  0
LINE
  5
29B
100
AcDbEntity
  8
RACCORDO
100
AcDbLine
 62
7
  6
CONTINUOUS
 10
-9.9131138407
 20
24.4340141727
 11
-9.9131138407
 21
24.1327193433
  0
LINE
  5
29C
100
AcDbEntity
  8
RACCORDO
100
AcDbLine
 62
7
  6
CONTINUOUS
 10
-9.9131138407
 20
-23.5559557913
 11
-9.9131138407
 21
-23.8572506208
  0
LINE
  5
29D
100
AcDbEntity
  8
RACCORDO
100
AcDbLine
 62
7
  6
CONTINUOUS
 10
-9.9182044418
 20
23.4832002904
 11
-9.9138410694
 21
23.9162129923
  0
LINE
  5
29E
100
AcDbEntity
  8
RACCORDO
100
AcDbLine
 62
253
  6
CONTINUOUS
 10
11.8310683295
 20
17.9600808247
 11
11.4642073331
 21
17.8081220245
  0
LINE
  5
29F
100
AcDbEntity
  8
RACCORDO
100
AcDbLine
 62
253
  6
CONTINUOUS
 10
9.9310683295
 20
-10.534025291
 11
10.2152786991
 21
-10.5340252924
  0
LINE
  5
2A0
100
AcDbEntity
  8
RACCORDO
100
AcDbLine
 62
253
  6
CONTINUOUS
 10
11.1173375923
 20
-10.3264427339
 11
11.4172919008
 21
-10.3264427339
  0
LINE
  5
2A1
100
AcDbEntity
  8
RACCORDO
100
AcDbLine
 62
253
  6
CONTINUOUS
 10
11.4642073331
 20
-17.2313584726
 11
11.8310683295
 21
-17.3833172728
  0
LINE
  5
2A2
100
AcDbEntity
  8
DRAFT
100
AcDbLine
 62
7
  6
CONTINUOUS
 10
-7.3716120601
 20
-7.6534732623
 11
-7.3275436152
 21
-7.6828533029
  0
LINE
  5
2A3
100
AcDbEntity
  8
RACCORDO
100
AcDbLine
 62
7
  6
CONTINUOUS
 10
-7.318926261
 20
-8.1887280952
 11
-7.3715114769
 21
-8.1536576708
  0
LINE
  5
2A4
100
AcDbEntity
  8
DRAFT
100
AcDbLine
 62
7
  6
CONTINUOUS
 10
-7.318826959
 20
-7.7021863306
 11
-7.3275419981
 21
-7.6934712915
  0
LINE
  5
2A5
100
AcDbEntity
  8
DRAFT
100
AcDbLine
 62
7
  6
CONTINUOUS
 10
3.1726730895
 20
-17.7934712915
 11
3.181173041
 21
-17.801971243
  0
LINE
  5
2A6
100
AcDbEntity
  8
RACCORDO
100
AcDbLine
 62
253
  6
CONTINUOUS
 10
-9.7552009333
 20
0.3735570483
 11
-9.7552009333
 21
0.1673390974
  0
LINE
  5
2A7
100
AcDbEntity
  8
RACCORDO
100
AcDbLine
 62
253
  6
CONTINUOUS
 10
-9.7552009333
 20
-2.3905755455
 11
-9.7552009333
 21
-2.5967934218
  0
LINE
  5
2A8
100
AcDbEntity
  8
RACCORDO
100
AcDbLine
 62
253
  6
CONTINUOUS
 10
-9.2715371088
 20
-17.3014906814
 11
-9.2715371088
 21
-9.7222809854
  0
LINE
  5
2A9
100
AcDbEntity
  8
RACCORDO
100
AcDbLine
 62
253
  6
CONTINUOUS
 10
-9.1022206996
 20
1.9003188444
 11
-9.102222979
 21
17.8081220245
  0
LINE
  5
2AA
100
AcDbEntity
  8
RACCORDO
100
AcDbLine
 62
253
  6
CONTINUOUS
 10
-9.102222979
 20
-9.0787686561
 11
-9.1022203859
 21
-4.1235554407
  0
LINE
  5
2AB
100
AcDbEntity
  8
0
100
AcDbLine
 62
7
  6
CONTINUOUS
 10
-9.0689316705
 20
-0.0289977059
 11
-9.0689316705
 21
-0.7007708101
  0
LINE
  5
2AC
100
AcDbEntity
  8
0
100
AcDbLine
 62
7
  6
CONTINUOUS
 10
-9.0689316705
 20
-0.7007708101
 11
-9.0689316705
 21
-0.7393003847
  0
LINE
  5
2AD
100
AcDbEntity
  8
ASSI
100
AcDbLine
 62
7
  6
CONTINUOUS
 10
-9.0689316705
 20
-20.461618224
 11
-9.0689316705
 21
-19.611618224
  0
LINE
  5
2AE
100
AcDbEntity
  8
DRAFT
100
AcDbLine
 62
7
  6
CONTINUOUS
 10
-9.0689316705
 20
-1.1198404907
 11
-9.0689316705
 21
-0.7393003847
  0
LINE
  5
2AF
100
AcDbEntity
  8
ASSI
100
AcDbLine
 62
7
  6
CONTINUOUS
 10
-9.0689316705
 20
20.188381776
 11
-9.0689316705
 21
21.038381776
  0
LINE
  5
2B0
100
AcDbEntity
  8
0
100
AcDbLine
 62
7
  6
CONTINUOUS
 10
-8.8189316705
 20
0.1465044732
 11
-8.8189316705
 21
0.2521275402
  0
LINE
  5
2B1
100
AcDbEntity
  8
0
100
AcDbLine
 62
7
  6
CONTINUOUS
 10
-8.7189316705
 20
-0.7393003847
 11
-8.7189316705
 21
-1.011618224
  0
LINE
  5
2B2
100
AcDbEntity
  8
0
100
AcDbLine
 62
253
  6
CONTINUOUS
 10
-8.3667944055
 20
-0.7393003847
 11
-8.3667944055
 21
-0.7007708101
  0
LINE
  5
2B3
100
AcDbEntity
  8
0
100
AcDbLine
 62
253
  6
CONTINUOUS
 10
-8.3357630432
 20
-1.011618224
 11
-8.3357630432
 21
-2.7950783437
  0
LINE
  5
2B4
100
AcDbEntity
  8
0
100
AcDbLine
 62
253
  6
CONTINUOUS
 10
-8.2841734939
 20
-0.7227564484
 11
-8.2841734939
 21
-0.6815440734
  0
LINE
  5
2B5
100
AcDbEntity
  8
0
100
AcDbLine
 62
253
  6
CONTINUOUS
 10
-8.1189316705
 20
-0.6431087793
 11
-8.1189316705
 21
-0.6896842187
  0
LINE
  5
2B6
100
AcDbEntity
  8
DRAFT
100
AcDbLine
 62
7
  6
CONTINUOUS
 10
-9.0430495965
 20
-0.7393003847
 11
-9.0458813789
 21
-1.0872734321
  0
LINE
  5
2B7
100
AcDbEntity
  8
RACCORDO
100
AcDbLine
 62
7
  6
CONTINUOUS
 10
-9.301783159
 20
-1.7593172373
 11
-9.1526608783
 21
-1.3045114429
  0
LINE
  5
2B8
100
AcDbEntity
  8
RACCORDO
100
AcDbLine
 62
7
  6
CONTINUOUS
 10
5.0810683295
 20
22.688381776
 11
5.036260886
 21
22.6211696628
  0
LINE
  5
2B9
100
AcDbEntity
  8
DRAFT
100
AcDbLine
 62
7
  6
CONTINUOUS
 10
6.4310683295
 20
20.188381776
 11
6.3420474983
 21
20.0993609448
  0
LINE
  5
2BA
100
AcDbEntity
  8
DRAFT
100
AcDbLine
 62
7
  6
CONTINUOUS
 10
6.4310683295
 20
19.988381776
 11
6.3420474983
 21
19.8993609448
  0
LINE
  5
2BB
100
AcDbEntity
  8
RACCORDO
100
AcDbLine
 62
253
  6
CONTINUOUS
 10
4.8681899261
 20
18.4254938533
 11
4.7810683295
 21
18.3383722567
  0
LINE
  5
2BC
100
AcDbEntity
  8
RACCORDO
100
AcDbLine
 62
253
  6
CONTINUOUS
 10
1.1440481447
 20
14.701352072
 11
1.2310778487
 21
14.788381776
  0
LINE
  5
2BD
100
AcDbEntity
  8
RACCORDO
100
AcDbLine
 62
7
  6
CONTINUOUS
 10
4.8686693766
 20
18.3942007363
 11
4.8378504163
 21
18.363381776
  0
LINE
  5
2BE
100
AcDbEntity
  8
RACCORDO
100
AcDbLine
 62
7
  6
CONTINUOUS
 10
1.2060683295
 20
14.7315996892
 11
1.1753412617
 21
14.7008726214
  0
LINE
  5
2BF
100
AcDbEntity
  8
RACCORDO
100
AcDbLine
 62
7
  6
CONTINUOUS
 10
11.2810683295
 20
24.688381776
 11
11.2766964955
 21
24.684009942
  0
LINE
  5
2C0
100
AcDbEntity
  8
RACCORDO
100
AcDbLine
 62
253
  6
CONTINUOUS
 10
5.084321174
 20
18.1416441397
 11
5.0310588102
 21
18.088381776
  0
LINE
  5
2C1
100
AcDbEntity
  8
RACCORDO
100
AcDbLine
 62
253
  6
CONTINUOUS
 10
1.4278059657
 20
14.4851289314
 11
1.4810683295
 21
14.5383912952
  0
LINE
  5
2C2
100
AcDbEntity
  8
DRAFT
100
AcDbLine
 62
7
  6
CONTINUOUS
 10
8.1665981476
 20
21.138381776
 11
8.0810683295
 21
21.0528519578
  0
LINE
  5
2C3
100
AcDbEntity
  8
RACCORDO
100
AcDbLine
 62
253
  6
CONTINUOUS
 10
0.0203294157
 20
-9.7222809854
 11
-10.271384804
 21
-9.7222809854
  0
LINE
  5
2C4
100
AcDbEntity
  8
RACCORDO
100
AcDbLine
 62
253
  6
CONTINUOUS
 10
0.9541751377
 20
-9.5786925037
 11
0.1639178974
 21
-9.5786925037
  0
LINE
  5
2C5
100
AcDbEntity
  8
RACCORDO
100
AcDbLine
 62
253
  6
CONTINUOUS
 10
-9.2458114607
 20
-9.2223571378
 11
-5.4774314559
 21
-9.2223571378
  0
LINE
  5
2C6
100
AcDbEntity
  8
RACCORDO
100
AcDbLine
 62
253
  6
CONTINUOUS
 10
-3.6604318851
 20
-9.2223571378
 11
-0.4795944319
 21
-9.2223571378
  0
LINE
  5
2C7
100
AcDbEntity
  8
RACCORDO
100
AcDbLine
 62
253
  6
CONTINUOUS
 10
-9.102222979
 20
-9.0787686561
 11
-7.8937473128
 21
-9.0787686561
  0
LINE
  5
2C8
100
AcDbEntity
  8
RACCORDO
100
AcDbLine
 62
253
  6
CONTINUOUS
 10
-1.2441160283
 20
-9.0787686561
 11
-0.3360059501
 21
-9.0787686561
  0
LINE
  5
2C9
100
AcDbEntity
  8
DRAFT
100
AcDbLine
 62
7
  6
CONTINUOUS
 10
6.3420474983
 20
-19.5225973929
 11
6.4310683295
 21
-19.611618224
  0
LINE
  5
2CA
100
AcDbEntity
  8
DRAFT
100
AcDbLine
 62
7
  6
CONTINUOUS
 10
6.4310683295
 20
-19.411618224
 11
6.3420474983
 21
-19.3225973929
  0
LINE
  5
2CB
100
AcDbEntity
  8
RACCORDO
100
AcDbLine
 62
7
  6
CONTINUOUS
 10
11.2810683295
 20
-24.111618224
 11
11.2766964955
 21
-24.10724639
  0
LINE
  5
2CC
100
AcDbEntity
  8
DRAFT
100
AcDbLine
 62
7
  6
CONTINUOUS
 10
8.1665981476
 20
-20.561618224
 11
8.0810683295
 21
-20.4760884059
  0
LINE
  5
2CD
100
AcDbEntity
  8
RACCORDO
100
AcDbLine
 62
7
  6
CONTINUOUS
 10
5.0810683295
 20
-22.111618224
 11
5.036260886
 21
-22.0444061109
  0
LINE
  5
2CE
100
AcDbEntity
  8
RACCORDO
100
AcDbLine
 62
7
  6
CONTINUOUS
 10
-7.8937473128
 20
-9.0787686561
 11
-7.8836094964
 21
-9.1668375158
  0
LINE
  5
2CF
100
AcDbEntity
  8
RACCORDO
100
AcDbLine
 62
7
  6
CONTINUOUS
 10
-7.6196588993
 20
23.4832002904
 11
-7.6240222716
 21
23.9162129923
  0
LINE
  5
2D0
100
AcDbEntity
  8
RACCORDO
100
AcDbLine
 62
7
  6
CONTINUOUS
 10
-7.3715472624
 20
-8.0789209609
 11
-7.3716120601
 21
-7.6534732623
  0
LINE
  5
2D1
100
AcDbEntity
  8
DRAFT
100
AcDbLine
 62
7
  6
CONTINUOUS
 10
-7.3275419981
 20
-7.6934712915
 11
-7.3275436152
 21
-7.6828533029
  0
LINE
  5
2D2
100
AcDbEntity
  8
0
100
AcDbLine
 62
253
  6
CONTINUOUS
 10
-7.9189316705
 20
-0.7007708101
 11
-7.9189316705
 21
-0.7393003847
  0
LINE
  5
2D3
100
AcDbEntity
  8
RACCORDO
100
AcDbLine
 62
7
  6
CONTINUOUS
 10
-7.9189316705
 20
-0.7393003847
 11
-7.9189316705
 21
-1.011618224
  0
LINE
  5
2D4
100
AcDbEntity
  8
0
100
AcDbLine
 62
7
  6
CONTINUOUS
 10
-7.9189316705
 20
-2.891618224
 11
-7.9189316705
 21
-2.9281327193
  0
LINE
  5
2D5
100
AcDbEntity
  8
0
100
AcDbLine
 62
7
  6
CONTINUOUS
 10
-7.7789316705
 20
-1.011618224
 11
-7.7789316705
 21
0.4146758816
  0
LINE
  5
2D6
100
AcDbEntity
  8
0
100
AcDbLine
 62
253
  6
CONTINUOUS
 10
-7.7689316705
 20
-1.011618224
 11
-7.7689316705
 21
-2.891618224
  0
LINE
  5
2D7
100
AcDbEntity
  8
0
100
AcDbLine
 62
7
  6
CONTINUOUS
 10
-7.7689316705
 20
-2.891618224
 11
-7.7689316705
 21
-2.9506608653
  0
LINE
  5
2D8
100
AcDbEntity
  8
RACCORDO
100
AcDbLine
 62
7
  6
CONTINUOUS
 10
-7.6247495003
 20
-23.8572506208
 11
-7.6247495003
 21
-23.5559557913
  0
LINE
  5
2D9
100
AcDbEntity
  8
RACCORDO
100
AcDbLine
 62
7
  6
CONTINUOUS
 10
-7.6247495003
 20
24.1327193433
 11
-7.6247495003
 21
24.4340141727
  0
LINE
  5
2DA
100
AcDbEntity
  8
RACCORDO
100
AcDbLine
 62
7
  6
CONTINUOUS
 10
-7.6189316705
 20
-22.111618224
 11
-7.6189316705
 21
-24.111618224
  0
LINE
  5
2DB
100
AcDbEntity
  8
RACCORDO
100
AcDbLine
 62
7
  6
CONTINUOUS
 10
-7.6189316705
 20
22.688381776
 11
-7.6189316705
 21
24.688381776
  0
LINE
  5
2DC
100
AcDbEntity
  8
RACCORDO
100
AcDbLine
 62
7
  6
CONTINUOUS
 10
-7.5689316705
 20
-20.9873084639
 11
-7.5689316705
 21
-20.911618224
  0
LINE
  5
2DD
100
AcDbEntity
  8
RACCORDO
100
AcDbLine
 62
7
  6
CONTINUOUS
 10
-7.5689316705
 20
21.488381776
 11
-7.5689316705
 21
21.5640720158
  0
LINE
  5
2DE
100
AcDbEntity
  8
RACCORDO
100
AcDbLine
 62
253
  6
CONTINUOUS
 10
-7.3995261509
 20
21.7334775355
 11
-7.3995261509
 21
21.488381776
  0
LINE
  5
2DF
100
AcDbEntity
  8
RACCORDO
100
AcDbLine
 62
253
  6
CONTINUOUS
 10
-7.3995261509
 20
-20.911618224
 11
-7.3995261509
 21
-21.1567139836
  0
LINE
  5
2E0
100
AcDbEntity
  8
0
100
AcDbLine
 62
253
  6
CONTINUOUS
 10
-7.318826959
 20
-7.7021863306
 11
-7.318826959
 21
-8.1888351082
  0
LINE
  5
2E1
100
AcDbEntity
  8
RACCORDO
100
AcDbLine
 62
253
  6
CONTINUOUS
 10
-7.0995718423
 20
21.6010750197
 11
-7.0995718423
 21
21.1884274674
  0
LINE
  5
2E2
100
AcDbEntity
  8
RACCORDO
100
AcDbLine
 62
253
  6
CONTINUOUS
 10
-7.0995718423
 20
-20.6116639155
 11
-7.0995718423
 21
-21.0243114678
  0
LINE
  5
2E3
100
AcDbEntity
  8
DRAFT
100
AcDbLine
 62
7
  6
CONTINUOUS
 10
-6.8079525017
 20
-20.3870675748
 11
-6.8079525017
 21
-19.3225973929
  0
LINE
  5
2E4
100
AcDbEntity
  8
DRAFT
100
AcDbLine
 62
7
  6
CONTINUOUS
 10
-6.8079525017
 20
19.8993609448
 11
-6.8079525017
 21
20.9638311267
  0
LINE
  5
2E5
100
AcDbEntity
  8
0
100
AcDbLine
 62
7
  6
CONTINUOUS
 10
-6.7689316705
 20
-0.0002933586
 11
-6.7689316705
 21
0.556368958
  0
LINE
  5
2E6
100
AcDbEntity
  8
DRAFT
100
AcDbLine
 62
7
  6
CONTINUOUS
 10
-6.7189316705
 20
21.0528519578
 11
-6.7189316705
 21
19.988381776
  0
LINE
  5
2E7
100
AcDbEntity
  8
DRAFT
100
AcDbLine
 62
7
  6
CONTINUOUS
 10
-6.7189316705
 20
-19.411618224
 11
-6.7189316705
 21
-20.4760884059
  0
LINE
  5
2E8
100
AcDbEntity
  8
RACCORDO
100
AcDbLine
 62
7
  6
CONTINUOUS
 10
-6.6189316705
 20
-20.611618224
 11
-6.6189316705
 21
-19.711618224
  0
LINE
  5
2E9
100
AcDbEntity
  8
RACCORDO
100
AcDbLine
 62
7
  6
CONTINUOUS
 10
-6.6189316705
 20
20.288381776
 11
-6.6189316705
 21
21.188381776
  0
LINE
  5
2EA
100
AcDbEntity
  8
RACCORDO
100
AcDbLine
 62
253
  6
CONTINUOUS
 10
-6.5342582064
 20
-20.611618224
 11
-6.5342582064
 21
-19.711618224
  0
LINE
  5
2EB
100
AcDbEntity
  8
RACCORDO
100
AcDbLine
 62
253
  6
CONTINUOUS
 10
-6.5342582064
 20
20.288381776
 11
-6.5342582064
 21
21.188381776
  0
LINE
  5
2EC
100
AcDbEntity
  8
0
100
AcDbLine
 62
7
  6
CONTINUOUS
 10
-6.3189316705
 20
0.2521275402
 11
-6.3189316705
 21
-2.4753639883
  0
LINE
  5
2ED
100
AcDbEntity
  8
RACCORDO
100
AcDbLine
 62
253
  6
CONTINUOUS
 10
-6.2342696294
 20
-20.611618224
 11
-6.2342696294
 21
-19.411618224
  0
LINE
  5
2EE
100
AcDbEntity
  8
RACCORDO
100
AcDbLine
 62
253
  6
CONTINUOUS
 10
-6.2342696294
 20
19.988381776
 11
-6.2342696294
 21
21.188381776
  0
LINE
  5
2EF
100
AcDbEntity
  8
RACCORDO
100
AcDbLine
 62
7
  6
CONTINUOUS
 10
-7.6240222716
 20
-23.3394494404
 11
-7.6196588993
 21
-22.9064367385
  0
LINE
  5
2F0
100
AcDbEntity
  8
0
100
AcDbLine
 62
7
  6
CONTINUOUS
 10
-7.9778290873
 20
-2.891618224
 11
-7.984078653
 21
-2.914333591
  0
LINE
  5
2F1
100
AcDbEntity
  8
RACCORDO
100
AcDbLine
 62
7
  6
CONTINUOUS
 10
0.8923198972
 20
14.6993677245
 11
0.9510683295
 21
14.788381776
  0
LINE
  5
2F2
100
AcDbEntity
  8
RACCORDO
100
AcDbLine
 62
253
  6
CONTINUOUS
 10
0.895183135
 20
10.3724881376
 11
0.9510683295
 21
10.4283734828
  0
LINE
  5
2F3
100
AcDbEntity
  8
RACCORDO
100
AcDbLine
 62
7
  6
CONTINUOUS
 10
10.1932394984
 20
13.788381776
 11
10.3643600636
 21
13.8739355424
  0
LINE
  5
2F4
100
AcDbEntity
  8
RACCORDO
100
AcDbLine
 62
253
  6
CONTINUOUS
 10
-10.1020706741
 20
-8.0789209609
 11
-7.3715472624
 21
-8.0789209609
  0
LINE
  5
2F5
100
AcDbEntity
  8
RACCORDO
100
AcDbLine
 62
253
  6
CONTINUOUS
 10
-1.7663160787
 20
-8.0789209609
 11
-0.3360059501
 21
-8.0789209609
  0
LINE
  5
2F6
100
AcDbEntity
  8
DRAFT
100
AcDbLine
 62
7
  6
CONTINUOUS
 10
-1.7662512809
 20
-7.6534732623
 11
-7.3716120601
 21
-7.6534732623
  0
LINE
  5
2F7
100
AcDbEntity
  8
DRAFT
100
AcDbLine
 62
7
  6
CONTINUOUS
 10
7.4612533871
 20
-6.711618224
 11
9.3008832718
 21
-6.711618224
  0
LINE
  5
2F8
100
AcDbEntity
  8
RACCORDO
100
AcDbLine
 62
253
  6
CONTINUOUS
 10
5.6790811666
 20
-13.2713919271
 11
5.9300746174
 21
-13.4343774764
  0
LINE
  5
2F9
100
AcDbEntity
  8
RACCORDO
100
AcDbLine
 62
253
  6
CONTINUOUS
 10
5.9375623609
 20
-13.6023938771
 11
6.1810683187
 21
-13.7763677718
  0
LINE
  5
2FA
100
AcDbEntity
  8
RACCORDO
100
AcDbLine
 62
253
  6
CONTINUOUS
 10
-9.102222979
 20
1.9003177677
 11
-8.9664536848
 21
1.6336180079
  0
LINE
  5
2FB
100
AcDbEntity
  8
0
100
AcDbLine
 62
7
  6
CONTINUOUS
 10
-5.9508706705
 20
-2.0082973083
 11
-5.9508706705
 21
-0.2149391397
  0
LINE
  5
2FC
100
AcDbEntity
  8
RACCORDO
100
AcDbLine
 62
253
  6
CONTINUOUS
 10
-5.6689316705
 20
-19.798886902
 11
-5.6689316705
 21
-19.411618224
  0
LINE
  5
2FD
100
AcDbEntity
  8
RACCORDO
100
AcDbLine
 62
253
  6
CONTINUOUS
 10
-5.6689316705
 20
19.988381776
 11
-5.6689316705
 21
20.3756504539
  0
LINE
  5
2FE
100
AcDbEntity
  8
RACCORDO
100
AcDbLine
 62
7
  6
CONTINUOUS
 10
-5.3689316705
 20
-19.7962688416
 11
-5.3689316705
 21
-19.711618224
  0
LINE
  5
2FF
100
AcDbEntity
  8
RACCORDO
100
AcDbLine
 62
7
  6
CONTINUOUS
 10
-5.3689316705
 20
20.288381776
 11
-5.3689316705
 21
20.3730323935
  0
LINE
  5
300
100
AcDbEntity
  8
DRAFT
100
AcDbLine
 62
7
  6
CONTINUOUS
 10
-5.0689316705
 20
-19.411618224
 11
-5.0689316705
 21
-19.611618224
  0
LINE
  5
301
100
AcDbEntity
  8
DRAFT
100
AcDbLine
 62
7
  6
CONTINUOUS
 10
-5.0689316705
 20
19.988381776
 11
-5.0689316705
 21
20.188381776
  0
LINE
  5
302
100
AcDbEntity
  8
DRAFT
100
AcDbLine
 62
7
  6
CONTINUOUS
 10
-4.9799108394
 20
20.0993609448
 11
-4.9799108394
 21
19.8993609448
  0
LINE
  5
303
100
AcDbEntity
  8
DRAFT
100
AcDbLine
 62
7
  6
CONTINUOUS
 10
-4.9799108394
 20
-19.3225973929
 11
-4.9799108394
 21
-19.5225973929
  0
LINE
  5
304
100
AcDbEntity
  8
RACCORDO
100
AcDbLine
 62
253
  6
CONTINUOUS
 10
-8.9664536848
 20
-3.856854456
 11
-9.102222979
 21
-4.1235542158
  0
LINE
  5
305
100
AcDbEntity
  8
RACCORDO
100
AcDbLine
 62
253
  6
CONTINUOUS
 10
1.3951773337
 20
9.8724965823
 11
1.4510600363
 21
9.928381776
  0
LINE
  5
306
100
AcDbEntity
  8
RACCORDO
100
AcDbLine
 62
253
  6
CONTINUOUS
 10
10.8785101136
 20
19.2221201953
 11
10.2975949711
 21
18.6412050528
  0
LINE
  5
307
100
AcDbEntity
  8
RACCORDO
100
AcDbLine
 62
7
  6
CONTINUOUS
 10
5.7810683295
 20
9.928381776
 11
5.6963925805
 21
9.8724965823
  0
LINE
  5
308
100
AcDbEntity
  8
0
100
AcDbLine
 62
7
  6
CONTINUOUS
 10
7.4734710021
 20
-6.361618224
 11
9.2886656569
 21
-6.361618224
  0
LINE
  5
309
100
AcDbEntity
  8
RACCORDO
100
AcDbLine
 62
253
  6
CONTINUOUS
 10
7.8810683295
 20
-6.2473781625
 11
7.4734710021
 21
-6.2473781625
  0
LINE
  5
30A
100
AcDbEntity
  8
ASSI
100
AcDbLine
 62
7
  6
CONTINUOUS
 10
7.8810683295
 20
-6.111618224
 11
8.6810683295
 21
-6.111618224
  0
LINE
  5
30B
100
AcDbEntity
  8
DRAFT
100
AcDbLine
 62
7
  6
CONTINUOUS
 10
8.8734710021
 20
-5.9540208966
 11
7.9886656569
 21
-5.9540208966
  0
LINE
  5
30C
100
AcDbEntity
  8
DRAFT
100
AcDbLine
 62
7
  6
CONTINUOUS
 10
9.2310683295
 20
-5.8540208966
 11
8.8734710021
 21
-5.8540208966
  0
LINE
  5
30D
100
AcDbEntity
  8
DRAFT
100
AcDbLine
 62
7
  6
CONTINUOUS
 10
7.9886656569
 20
-5.8540208966
 11
7.5310683295
 21
-5.8540208966
  0
LINE
  5
30E
100
AcDbEntity
  8
RACCORDO
100
AcDbLine
 62
7
  6
CONTINUOUS
 10
1.3329535334
 20
-5.111618224
 11
7.4612533871
 21
-5.111618224
  0
LINE
  5
30F
100
AcDbEntity
  8
RACCORDO
100
AcDbLine
 62
7
  6
CONTINUOUS
 10
9.3008832718
 20
-5.111618224
 11
10.0511444819
 21
-5.111618224
  0
LINE
  5
310
100
AcDbEntity
  8
DRAFT
100
AcDbLine
 62
7
  6
CONTINUOUS
 10
9.2310683295
 20
-4.9719777046
 11
7.5310683295
 21
-4.9719777046
  0
LINE
  5
311
100
AcDbEntity
  8
RACCORDO
100
AcDbLine
 62
7
  6
CONTINUOUS
 10
1.3922779307
 20
-4.9318310553
 11
9.8713573131
 21
-4.9318310553
  0
LINE
  5
312
100
AcDbEntity
  8
RACCORDO
100
AcDbLine
 62
253
  6
CONTINUOUS
 10
-5.3209187995
 20
-2.5713917885
 11
-5.0699253009
 21
-2.7343773618
  0
LINE
  5
313
100
AcDbEntity
  8
RACCORDO
100
AcDbLine
 62
253
  6
CONTINUOUS
 10
6.6830554924
 20
-10.3518445207
 11
6.4320620417
 21
-10.1888589715
  0
LINE
  5
314
100
AcDbEntity
  8
RACCORDO
100
AcDbLine
 62
253
  6
CONTINUOUS
 10
-5.0624376852
 20
-2.9023939347
 11
-4.8189317097
 21
-3.0763678572
  0
LINE
  5
315
100
AcDbEntity
  8
RACCORDO
100
AcDbLine
 62
253
  6
CONTINUOUS
 10
-9.7151672801
 20
0.4940509083
 11
-9.9547972295
 21
0.6733259118
  0
LINE
  5
316
100
AcDbEntity
  8
RACCORDO
100
AcDbLine
 62
253
  6
CONTINUOUS
 10
10.8785101136
 20
-18.6453566434
 11
10.1715110282
 21
-17.938357558
  0
LINE
  5
317
100
AcDbEntity
  8
RACCORDO
100
AcDbLine
 62
253
  6
CONTINUOUS
 10
1.3448263533
 20
-9.5451266177
 11
1.1421478355
 21
-9.3249365317
  0
LINE
  5
318
100
AcDbEntity
  8
0
100
AcDbLine
 62
253
  6
CONTINUOUS
 10
-1.81893708
 20
-8.1887280952
 11
-1.2542538447
 21
-9.1668375158
  0
LINE
  5
319
100
AcDbEntity
  8
DRAFT
100
AcDbLine
 62
7
  6
CONTINUOUS
 10
-3.7189316705
 20
24.088381776
 11
-3.7189316705
 21
22.688381776
  0
LINE
  5
31A
100
AcDbEntity
  8
DRAFT
100
AcDbLine
 62
7
  6
CONTINUOUS
 10
-3.7189316705
 20
-22.111618224
 11
-3.7189316705
 21
-23.511618224
  0
LINE
  5
31B
100
AcDbEntity
  8
RACCORDO
100
AcDbLine
 62
253
  6
CONTINUOUS
 10
-3.674124227
 20
24.0435743324
 11
-3.674124227
 21
22.6211696628
  0
LINE
  5
31C
100
AcDbEntity
  8
RACCORDO
100
AcDbLine
 62
253
  6
CONTINUOUS
 10
-3.674124227
 20
-22.0444061109
 11
-3.674124227
 21
-23.4668107805
  0
LINE
  5
31D
100
AcDbEntity
  8
RACCORDO
100
AcDbLine
 62
253
  6
CONTINUOUS
 10
-3.374129304
 20
24.0418391375
 11
-3.374129304
 21
22.6185668336
  0
LINE
  5
31E
100
AcDbEntity
  8
RACCORDO
100
AcDbLine
 62
253
  6
CONTINUOUS
 10
-3.374129304
 20
-22.0418032817
 11
-3.374129304
 21
-23.4650755856
  0
LINE
  5
31F
100
AcDbEntity
  8
0
100
AcDbLine
 62
7
  6
CONTINUOUS
 10
-3.1869926705
 20
-2.4578164634
 11
-3.1869926705
 21
0.2345800153
  0
LINE
  5
320
100
AcDbEntity
  8
RACCORDO
100
AcDbLine
 62
253
  6
CONTINUOUS
 10
-3.1189316705
 20
-23.4650755856
 11
-3.1189316705
 21
-22.0418032817
  0
LINE
  5
321
100
AcDbEntity
  8
RACCORDO
100
AcDbLine
 62
253
  6
CONTINUOUS
 10
-3.1189316705
 20
22.6185668336
 11
-3.1189316705
 21
24.0418391375
  0
LINE
  5
322
100
AcDbEntity
  8
0
100
AcDbLine
 62
7
  6
CONTINUOUS
 10
-2.8189316705
 20
0.4693903322
 11
-2.8189316705
 21
-2.6926267803
  0
LINE
  5
323
100
AcDbEntity
  8
DRAFT
100
AcDbLine
 62
7
  6
CONTINUOUS
 10
-2.8189316705
 20
-19.711618224
 11
-2.8189316705
 21
-19.7648521176
  0
LINE
  5
324
100
AcDbEntity
  8
RACCORDO
100
AcDbLine
 62
7
  6
CONTINUOUS
 10
-2.8189316705
 20
-22.0444213421
 11
-2.8189316705
 21
-23.5058003942
  0
LINE
  5
325
100
AcDbEntity
  8
DRAFT
100
AcDbLine
 62
7
  6
CONTINUOUS
 10
-2.8189316705
 20
20.288381776
 11
-2.8189316705
 21
20.3416156695
  0
LINE
  5
326
100
AcDbEntity
  8
RACCORDO
100
AcDbLine
 62
7
  6
CONTINUOUS
 10
-2.8189316705
 20
22.621184894
 11
-2.8189316705
 21
24.0825639461
  0
LINE
  5
327
100
AcDbEntity
  8
RACCORDO
100
AcDbLine
 62
7
  6
CONTINUOUS
 10
-2.7189316705
 20
20.3416156695
 11
-2.7189316705
 21
20.188381776
  0
LINE
  5
328
100
AcDbEntity
  8
RACCORDO
100
AcDbLine
 62
7
  6
CONTINUOUS
 10
-2.7189316705
 20
-19.611618224
 11
-2.7189316705
 21
-19.7648521176
  0
LINE
  5
329
100
AcDbEntity
  8
DRAFT
100
AcDbLine
 62
7
  6
CONTINUOUS
 10
0.6112533871
 20
6.5685668336
 11
0.6810683295
 21
6.638381776
  0
LINE
  5
32A
100
AcDbEntity
  8
RACCORDO
100
AcDbLine
 62
253
  6
CONTINUOUS
 10
9.1308116753
 20
14.0881156025
 11
9.0810683295
 21
14.0383722567
  0
LINE
  5
32B
100
AcDbEntity
  8
RACCORDO
100
AcDbLine
 62
253
  6
CONTINUOUS
 10
5.477815485
 20
10.4351194122
 11
5.5310778487
 21
10.488381776
  0
LINE
  5
32C
100
AcDbEntity
  8
DRAFT
100
AcDbLine
 62
7
  6
CONTINUOUS
 10
-0.3189316705
 20
4.3459791034
 11
-0.3765289979
 21
4.288381776
  0
LINE
  5
32D
100
AcDbEntity
  8
RACCORDO
100
AcDbLine
 62
7
  6
CONTINUOUS
 10
5.6945768145
 20
10.1836723478
 11
5.7242862427
 21
10.213381776
  0
LINE
  5
32E
100
AcDbEntity
  8
RACCORDO
100
AcDbLine
 62
253
  6
CONTINUOUS
 10
9.3829837068
 20
13.8403066725
 11
9.3310588102
 21
13.788381776
  0
LINE
  5
32F
100
AcDbEntity
  8
RACCORDO
100
AcDbLine
 62
253
  6
CONTINUOUS
 10
5.6948940361
 20
10.1522170018
 11
5.7810683295
 21
10.2383912952
  0
LINE
  5
330
100
AcDbEntity
  8
RACCORDO
100
AcDbLine
 62
253
  6
CONTINUOUS
 10
-9.7151673026
 20
-2.7172872818
 11
-9.9547972788
 21
-2.8965623072
  0
LINE
  5
331
100
AcDbEntity
  8
RACCORDO
100
AcDbLine
 62
253
  6
CONTINUOUS
 10
-4.8189317095
 20
0.8531314096
 11
-5.0624376854
 21
0.6791574868
  0
LINE
  5
332
100
AcDbEntity
  8
RACCORDO
100
AcDbLine
 62
253
  6
CONTINUOUS
 10
6.4245742978
 20
-10.0208425713
 11
6.1810683401
 21
-9.8468686767
  0
LINE
  5
333
100
AcDbEntity
  8
RACCORDO
100
AcDbLine
 62
253
  6
CONTINUOUS
 10
11.0773039297
 20
-13.4172873854
 11
11.3169338694
 21
-13.5965623867
  0
LINE
  5
334
100
AcDbEntity
  8
0
100
AcDbLine
 62
7
  6
CONTINUOUS
 10
-2.3689316705
 20
-0.0002933586
 11
-2.3689316705
 21
0.5770569105
  0
LINE
  5
335
100
AcDbEntity
  8
RACCORDO
100
AcDbLine
 62
7
  6
CONTINUOUS
 10
-2.3189316705
 20
-20.711618224
 11
-2.3189316705
 21
-22.0496574627
  0
LINE
  5
336
100
AcDbEntity
  8
RACCORDO
100
AcDbLine
 62
7
  6
CONTINUOUS
 10
-2.3189316705
 20
21.288381776
 11
-2.3189316705
 21
22.6264210146
  0
LINE
  5
337
100
AcDbEntity
  8
0
100
AcDbLine
 62
253
  6
CONTINUOUS
 10
-1.8190363821
 20
-7.7021863306
 11
-1.8190363821
 21
-8.1888351082
  0
LINE
  5
338
100
AcDbEntity
  8
RACCORDO
100
AcDbLine
 62
253
  6
CONTINUOUS
 10
-1.7189316705
 20
20.3415595669
 11
-1.7189316705
 21
20.1727687271
  0
LINE
  5
339
100
AcDbEntity
  8
RACCORDO
100
AcDbLine
 62
253
  6
CONTINUOUS
 10
-1.7189316705
 20
-19.5960051752
 11
-1.7189316705
 21
-19.7647960149
  0
LINE
  5
33A
100
AcDbEntity
  8
0
100
AcDbLine
 62
253
  6
CONTINUOUS
 10
-1.3689316705
 20
-1.011618224
 11
-1.3689316705
 21
-2.71540682
  0
LINE
  5
33B
100
AcDbEntity
  8
0
100
AcDbLine
 62
7
  6
CONTINUOUS
 10
-1.3589316705
 20
-1.011618224
 11
-1.3589316705
 21
0.4139109221
  0
LINE
  5
33C
100
AcDbEntity
  8
RACCORDO
100
AcDbLine
 62
7
  6
CONTINUOUS
 10
-1.3138274353
 20
-1.011618224
 11
-1.3138274353
 21
-0.8126405361
  0
LINE
  5
33D
100
AcDbEntity
  8
0
100
AcDbLine
 62
253
  6
CONTINUOUS
 10
-1.2189316705
 20
-0.7007708101
 11
-1.2189316705
 21
-0.7393003847
  0
LINE
  5
33E
100
AcDbEntity
  8
0
100
AcDbLine
 62
253
  6
CONTINUOUS
 10
-1.0189316705
 20
-0.6431087793
 11
-1.0189316705
 21
-0.6896842187
  0
LINE
  5
33F
100
AcDbEntity
  8
DRAFT
100
AcDbLine
 62
7
  6
CONTINUOUS
 10
-1.810321343
 20
-7.6934712915
 11
-1.8103197258
 21
-7.6828533029
  0
LINE
  5
340
100
AcDbEntity
  8
RACCORDO
100
AcDbLine
 62
7
  6
CONTINUOUS
 10
-1.7663160787
 20
-8.0789209609
 11
-1.7662512809
 21
-7.6534732623
  0
LINE
  5
341
100
AcDbEntity
  8
0
100
AcDbLine
 62
7
  6
CONTINUOUS
 10
-0.3382660083
 20
4.188381776
 11
-0.3107535069
 21
4.288381776
  0
LINE
  5
342
100
AcDbEntity
  8
0
100
AcDbLine
 62
253
  6
CONTINUOUS
 10
-7.318926261
 20
-8.1887280952
 11
-7.8836094964
 21
-9.1668375158
  0
LINE
  5
343
100
AcDbEntity
  8
DRAFT
100
AcDbLine
 62
7
  6
CONTINUOUS
 10
0.8329955
 20
6.5685668336
 11
0.8790727017
 21
6.638381776
  0
LINE
  5
344
100
AcDbEntity
  8
DRAFT
100
AcDbLine
 62
7
  6
CONTINUOUS
 10
0.8329955
 20
3.4685668336
 11
0.8790727017
 21
3.538381776
  0
LINE
  5
345
100
AcDbEntity
  8
DRAFT
100
AcDbLine
 62
7
  6
CONTINUOUS
 10
-0.3887466129
 20
3.4685668336
 11
-0.3189316705
 21
3.538381776
  0
LINE
  5
346
100
AcDbEntity
  8
RACCORDO
100
AcDbLine
 62
253
  6
CONTINUOUS
 10
-10.2456591559
 20
-8.2225094427
 11
-10.1020706741
 21
-8.0789209609
  0
LINE
  5
347
100
AcDbEntity
  8
RACCORDO
100
AcDbLine
 62
253
  6
CONTINUOUS
 10
-5.3209187994
 20
0.3481553419
 11
-5.0699253015
 21
0.5111409163
  0
LINE
  5
348
100
AcDbEntity
  8
0
100
AcDbLine
 62
7
  6
CONTINUOUS
 10
-8.0727849002
 20
-2.891618224
 11
-7.7689316705
 21
-2.891618224
  0
LINE
  5
349
100
AcDbEntity
  8
0
100
AcDbLine
 62
253
  6
CONTINUOUS
 10
-7.7689316705
 20
-2.891618224
 11
-7.0650784408
 21
-2.891618224
  0
LINE
  5
34A
100
AcDbEntity
  8
RACCORDO
100
AcDbLine
 62
253
  6
CONTINUOUS
 10
-9.7552009333
 20
-2.5967934218
 11
-10.0551552419
 21
-2.5967934218
  0
LINE
  5
34B
100
AcDbEntity
  8
RACCORDO
100
AcDbLine
 62
253
  6
CONTINUOUS
 10
0.5231991186
 20
-1.7658472981
 11
0.8231941427
 21
-1.7658472981
  0
LINE
  5
34C
100
AcDbEntity
  8
RACCORDO
100
AcDbLine
 62
253
  6
CONTINUOUS
 10
0.5156579447
 20
-1.8218275041
 11
0.8042306666
 21
-1.9011234024
  0
LINE
  5
34D
100
AcDbEntity
  8
RACCORDO
100
AcDbLine
 62
253
  6
CONTINUOUS
 10
0.795356823
 20
-2.245303031
 11
0.8321324483
 21
-2.2598588106
  0
LINE
  5
34E
100
AcDbEntity
  8
RACCORDO
100
AcDbLine
 62
253
  6
CONTINUOUS
 10
-4.3169445416
 20
0.3481553402
 11
-4.5679380403
 21
0.5111409135
  0
LINE
  5
34F
100
AcDbEntity
  8
RACCORDO
100
AcDbLine
 62
253
  6
CONTINUOUS
 10
-4.8189316863
 20
0.8531314264
 11
-4.575425716
 21
0.6791575273
  0
LINE
  5
350
100
AcDbEntity
  8
0
100
AcDbLine
 62
253
  6
CONTINUOUS
 10
8.6809883206
 20
-18.2885546394
 11
9.217705995
 21
-19.2182238023
  0
LINE
  5
351
100
AcDbEntity
  8
0
100
AcDbLine
 62
253
  6
CONTINUOUS
 10
-0.8536898472
 20
-0.7227564484
 11
-0.8536898472
 21
-0.6815440734
  0
LINE
  5
352
100
AcDbEntity
  8
0
100
AcDbLine
 62
253
  6
CONTINUOUS
 10
-0.8021002979
 20
-1.011618224
 11
-0.8021002979
 21
-2.3189346017
  0
LINE
  5
353
100
AcDbEntity
  8
0
100
AcDbLine
 62
253
  6
CONTINUOUS
 10
-0.7710689355
 20
-0.7393003847
 11
-0.7710689355
 21
-0.7007708101
  0
LINE
  5
354
100
AcDbEntity
  8
RACCORDO
100
AcDbLine
 62
253
  6
CONTINUOUS
 10
-0.4795944319
 20
-19.2996011756
 11
-0.4795944319
 21
-9.2223571378
  0
LINE
  5
355
100
AcDbEntity
  8
DRAFT
100
AcDbLine
 62
7
  6
CONTINUOUS
 10
-0.3887466129
 20
5.3081967183
 11
-0.3887466129
 21
3.4685668336
  0
LINE
  5
356
100
AcDbEntity
  8
DRAFT
100
AcDbLine
 62
7
  6
CONTINUOUS
 10
-0.3765289979
 20
3.688381776
 11
-0.3765289979
 21
4.288381776
  0
LINE
  5
357
100
AcDbEntity
  8
RACCORDO
100
AcDbLine
 62
253
  6
CONTINUOUS
 10
-0.3360059501
 20
-8.0789209609
 11
-0.3360059501
 21
-9.0787686561
  0
LINE
  5
358
100
AcDbEntity
  8
RACCORDO
100
AcDbLine
 62
7
  6
CONTINUOUS
 10
-0.3189316705
 20
16.9629026474
 11
-0.3189316705
 21
11.6138609045
  0
LINE
  5
359
100
AcDbEntity
  8
DRAFT
100
AcDbLine
 62
7
  6
CONTINUOUS
 10
-0.3189316705
 20
5.238381776
 11
-0.3189316705
 21
4.3459791034
  0
LINE
  5
35A
100
AcDbEntity
  8
DRAFT
100
AcDbLine
 62
7
  6
CONTINUOUS
 10
-0.3189316705
 20
3.6307844485
 11
-0.3189316705
 21
3.538381776
  0
LINE
  5
35B
100
AcDbEntity
  8
SMUSSO
100
AcDbLine
 62
7
  6
CONTINUOUS
 10
-0.0689316705
 20
4.188381776
 11
-0.0689316705
 21
3.688381776
  0
LINE
  5
35C
100
AcDbEntity
  8
RACCORDO
100
AcDbLine
 62
253
  6
CONTINUOUS
 10
0.0203294157
 20
-9.7222809854
 11
0.0203294157
 21
-18.2740278324
  0
LINE
  5
35D
100
AcDbEntity
  8
RACCORDO
100
AcDbLine
 62
7
  6
CONTINUOUS
 10
0.0810683295
 20
4.3459791034
 11
0.0810683295
 21
4.288381776
  0
LINE
  5
35E
100
AcDbEntity
  8
DRAFT
100
AcDbLine
 62
7
  6
CONTINUOUS
 10
0.1386656569
 20
4.3459791034
 11
0.1386656569
 21
3.6307844485
  0
LINE
  5
35F
100
AcDbEntity
  8
RACCORDO
100
AcDbLine
 62
253
  6
CONTINUOUS
 10
0.1639178974
 20
-18.1304393507
 11
0.1639178974
 21
-9.5786925037
  0
LINE
  5
360
100
AcDbEntity
  8
RACCORDO
100
AcDbLine
 62
253
  6
CONTINUOUS
 10
0.5231991186
 20
-1.7658472981
 11
0.5231991186
 21
-0.4573893451
  0
LINE
  5
361
100
AcDbEntity
  8
DRAFT
100
AcDbLine
 62
7
  6
CONTINUOUS
 10
0.6112533871
 20
8.4081967183
 11
0.6112533871
 21
6.5685668336
  0
LINE
  5
362
100
AcDbEntity
  8
DRAFT
100
AcDbLine
 62
7
  6
CONTINUOUS
 10
0.6810683295
 20
8.338381776
 11
0.6810683295
 21
6.638381776
  0
LINE
  5
363
100
AcDbEntity
  8
RACCORDO
100
AcDbLine
 62
253
  6
CONTINUOUS
 10
0.8231941427
 20
-1.7658453479
 11
0.8231941427
 21
-0.4573912951
  0
LINE
  5
364
100
AcDbEntity
  8
RACCORDO
100
AcDbLine
 62
7
  6
CONTINUOUS
 10
0.8329955
 20
18.2064628986
 11
0.8329955
 21
16.9612671749
  0
LINE
  5
365
100
AcDbEntity
  8
RACCORDO
100
AcDbLine
 62
7
  6
CONTINUOUS
 10
0.8329955
 20
11.6154963825
 11
0.8329955
 21
8.4081967183
  0
LINE
  5
366
100
AcDbEntity
  8
DRAFT
100
AcDbLine
 62
7
  6
CONTINUOUS
 10
0.8329955
 20
6.5685668336
 11
0.8329955
 21
5.3081967183
  0
LINE
  5
367
100
AcDbEntity
  8
RACCORDO
100
AcDbLine
 62
7
  6
CONTINUOUS
 10
0.8329955
 20
3.4685668336
 11
0.8329955
 21
0.6208826712
  0
LINE
  5
368
100
AcDbEntity
  8
RACCORDO
100
AcDbLine
 62
7
  6
CONTINUOUS
 10
0.8329955
 20
-2.8441191193
 11
0.8329955
 21
-4.6115923267
  0
LINE
  5
369
100
AcDbEntity
  8
DRAFT
100
AcDbLine
 62
7
  6
CONTINUOUS
 10
0.8790727017
 20
8.338381776
 11
0.8790727017
 21
6.638381776
  0
LINE
  5
36A
100
AcDbEntity
  8
DRAFT
100
AcDbLine
 62
7
  6
CONTINUOUS
 10
0.8790727017
 20
5.238381776
 11
0.8790727017
 21
3.538381776
  0
LINE
  5
36B
100
AcDbEntity
  8
RACCORDO
100
AcDbLine
 62
7
  6
CONTINUOUS
 10
0.8923198972
 20
-4.431805158
 11
0.8923198973
 21
9.5081340765
  0
LINE
  5
36C
100
AcDbEntity
  8
RACCORDO
100
AcDbLine
 62
7
  6
CONTINUOUS
 10
0.8923198972
 20
13.8773958274
 11
0.8923198972
 21
14.6993677245
  0
LINE
  5
36D
100
AcDbEntity
  8
RACCORDO
100
AcDbLine
 62
253
  6
CONTINUOUS
 10
-0.3215251971
 20
4.3433855768
 11
-0.3250476609
 21
4.2893129427
  0
LINE
  5
36E
100
AcDbEntity
  8
RACCORDO
100
AcDbLine
 62
253
  6
CONTINUOUS
 10
-0.0025248913
 20
4.3459791034
 11
-0.0062769649
 21
4.288381776
  0
LINE
  5
36F
100
AcDbEntity
  8
RACCORDO
100
AcDbLine
 62
7
  6
CONTINUOUS
 10
-1.2441160283
 20
-9.0787686561
 11
-1.2542538447
 21
-9.1668375158
  0
LINE
  5
370
100
AcDbEntity
  8
RACCORDO
100
AcDbLine
 62
7
  6
CONTINUOUS
 10
-9.101575261
 20
-19.2996011756
 11
-9.1111006061
 21
-19.3225973929
  0
LINE
  5
371
100
AcDbEntity
  8
DRAFT
100
AcDbLine
 62
7
  6
CONTINUOUS
 10
-8.1189316705
 20
-20.561618224
 11
-8.0466304243
 21
-20.3870675748
  0
LINE
  5
372
100
AcDbEntity
  8
DRAFT
100
AcDbLine
 62
7
  6
CONTINUOUS
 10
9.4810683295
 20
21.138381776
 11
9.4087670832
 21
20.9638311267
  0
LINE
  5
373
100
AcDbEntity
  8
RACCORDO
100
AcDbLine
 62
253
  6
CONTINUOUS
 10
-9.2458114607
 20
-9.2223571378
 11
-9.102222979
 21
-9.0787686561
  0
LINE
  5
374
100
AcDbEntity
  8
RACCORDO
100
AcDbLine
 62
253
  6
CONTINUOUS
 10
-4.5754257164
 20
-2.9023939769
 11
-4.8189316615
 21
-3.0763678577
  0
LINE
  5
375
100
AcDbEntity
  8
RACCORDO
100
AcDbLine
 62
253
  6
CONTINUOUS
 10
-4.3169445416
 20
-2.5713917902
 11
-4.5679380394
 21
-2.7343773646
  0
LINE
  5
376
100
AcDbEntity
  8
RACCORDO
100
AcDbLine
 62
253
  6
CONTINUOUS
 10
0.5156579774
 20
-0.4014091527
 11
0.8042307298
 21
-0.3221133489
  0
LINE
  5
377
100
AcDbEntity
  8
RACCORDO
100
AcDbLine
 62
7
  6
CONTINUOUS
 10
-8.9208138412
 20
-1.011618224
 11
-8.3357630432
 21
-1.011618224
  0
LINE
  5
378
100
AcDbEntity
  8
0
100
AcDbLine
 62
7
  6
CONTINUOUS
 10
-8.3357630432
 20
-1.011618224
 11
-7.7689316705
 21
-1.011618224
  0
LINE
  5
379
100
AcDbEntity
  8
0
100
AcDbLine
 62
7
  6
CONTINUOUS
 10
-1.3689316705
 20
-1.011618224
 11
-0.8021002979
 21
-1.011618224
  0
LINE
  5
37A
100
AcDbEntity
  8
RACCORDO
100
AcDbLine
 62
7
  6
CONTINUOUS
 10
-0.8021002979
 20
-1.011618224
 11
-0.321911041
 21
-1.011618224
  0
LINE
  5
37B
100
AcDbEntity
  8
0
100
AcDbLine
 62
7
  6
CONTINUOUS
 10
-0.7710689355
 20
-0.7393003847
 11
-0.3590000799
 21
-0.7393003847
  0
LINE
  5
37C
100
AcDbEntity
  8
0
100
AcDbLine
 62
7
  6
CONTINUOUS
 10
-8.3667944055
 20
-0.7393003847
 11
-9.0689316705
 21
-0.7393003847
  0
LINE
  5
37D
100
AcDbEntity
  8
0
100
AcDbLine
 62
7
  6
CONTINUOUS
 10
-0.7710689355
 20
-0.7007708101
 11
-0.3678635761
 21
-0.7007708101
  0
LINE
  5
37E
100
AcDbEntity
  8
0
100
AcDbLine
 62
7
  6
CONTINUOUS
 10
-8.3667944055
 20
-0.7007708101
 11
-9.0689316705
 21
-0.7007708101
  0
LINE
  5
37F
100
AcDbEntity
  8
RACCORDO
100
AcDbLine
 62
253
  6
CONTINUOUS
 10
0.5231991186
 20
-0.4573893451
 11
0.8231941427
 21
-0.4573893451
  0
LINE
  5
380
100
AcDbEntity
  8
0
100
AcDbLine
 62
253
  6
CONTINUOUS
 10
-9.0689316705
 20
-0.3042312284
 11
-7.7789316705
 21
-0.3042312284
  0
LINE
  5
381
100
AcDbEntity
  8
0
100
AcDbLine
 62
253
  6
CONTINUOUS
 10
-1.3589316705
 20
-0.3042312284
 11
-0.5163849077
 21
-0.3042312284
  0
LINE
  5
382
100
AcDbEntity
  8
0
100
AcDbLine
 62
7
  6
CONTINUOUS
 10
-1.3589316705
 20
-0.0002933586
 11
-2.3689316705
 21
-0.0002933586
  0
LINE
  5
383
100
AcDbEntity
  8
0
100
AcDbLine
 62
7
  6
CONTINUOUS
 10
-6.7689316705
 20
-0.0002933586
 11
-7.7789316705
 21
-0.0002933586
  0
LINE
  5
384
100
AcDbEntity
  8
0
100
AcDbLine
 62
253
  6
CONTINUOUS
 10
-7.7789316705
 20
0.1151766952
 11
-6.7689316705
 21
0.1151766952
  0
LINE
  5
385
100
AcDbEntity
  8
0
100
AcDbLine
 62
253
  6
CONTINUOUS
 10
-1.3589316705
 20
0.1151766952
 11
-2.3689316705
 21
0.1151766952
  0
LINE
  5
386
100
AcDbEntity
  8
RACCORDO
100
AcDbLine
 62
253
  6
CONTINUOUS
 10
-9.7552009333
 20
0.3735570483
 11
-10.0551552419
 21
0.3735570483
  0
LINE
  5
387
100
AcDbEntity
  8
0
100
AcDbLine
 62
253
  6
CONTINUOUS
 10
-7.6531541238
 20
0.4615868567
 11
-6.7689316705
 21
0.4615868567
  0
LINE
  5
388
100
AcDbEntity
  8
0
100
AcDbLine
 62
253
  6
CONTINUOUS
 10
-1.4872145087
 20
0.4615868567
 11
-2.3689316705
 21
0.4615868567
  0
LINE
  5
389
100
AcDbEntity
  8
RACCORDO
100
AcDbLine
 62
7
  6
CONTINUOUS
 10
-9.0314430522
 20
19.7070505977
 11
-9.1111006061
 21
19.8993609448
  0
LINE
  5
38A
100
AcDbEntity
  8
DRAFT
100
AcDbLine
 62
7
  6
CONTINUOUS
 10
-8.1189316705
 20
21.138381776
 11
-8.0466304243
 21
20.9638311267
  0
LINE
  5
38B
100
AcDbEntity
  8
DRAFT
100
AcDbLine
 62
7
  6
CONTINUOUS
 10
9.4810683295
 20
-20.561618224
 11
9.4087670832
 21
-20.3870675748
  0
LINE
  5
38C
100
AcDbEntity
  8
0
100
AcDbLine
 62
7
  6
CONTINUOUS
 10
2.6343147509
 20
-19.1302870458
 11
2.6444306639
 21
-19.2182238023
  0
LINE
  5
38D
100
AcDbEntity
  8
RACCORDO
100
AcDbLine
 62
7
  6
CONTINUOUS
 10
0.9510683295
 20
18.0883900691
 11
0.9510683295
 21
14.788381776
  0
LINE
  5
38E
100
AcDbEntity
  8
RACCORDO
100
AcDbLine
 62
7
  6
CONTINUOUS
 10
0.9510683295
 20
13.788381776
 11
0.9510683295
 21
10.4283734828
  0
LINE
  5
38F
100
AcDbEntity
  8
RACCORDO
100
AcDbLine
 62
253
  6
CONTINUOUS
 10
1.1637672571
 20
-14.3180272205
 11
1.1637655926
 21
-19.1302870458
  0
LINE
  5
390
100
AcDbEntity
  8
RACCORDO
100
AcDbLine
 62
253
  6
CONTINUOUS
 10
1.1753412617
 20
14.7008726214
 11
1.1753412617
 21
13.8758909305
  0
LINE
  5
391
100
AcDbEntity
  8
RACCORDO
100
AcDbLine
 62
7
  6
CONTINUOUS
 10
1.2060683295
 20
13.8451638627
 11
1.2060683295
 21
14.7315996892
  0
LINE
  5
392
100
AcDbEntity
  8
RACCORDO
100
AcDbLine
 62
7
  6
CONTINUOUS
 10
1.2310683295
 20
13.8494791207
 11
1.2310683295
 21
14.7272844313
  0
LINE
  5
393
100
AcDbEntity
  8
RACCORDO
100
AcDbLine
 62
253
  6
CONTINUOUS
 10
1.3951748426
 20
9.8724965823
 11
1.3951748426
 21
9.3725048755
  0
LINE
  5
394
100
AcDbEntity
  8
RACCORDO
100
AcDbLine
 62
7
  6
CONTINUOUS
 10
1.4278059657
 20
14.0916346205
 11
1.4278059657
 21
14.4851289314
  0
LINE
  5
395
100
AcDbEntity
  8
RACCORDO
100
AcDbLine
 62
7
  6
CONTINUOUS
 10
1.4810683295
 20
14.0383722567
 11
1.4810683295
 21
14.5383912952
  0
LINE
  5
396
100
AcDbEntity
  8
RACCORDO
100
AcDbLine
 62
253
  6
CONTINUOUS
 10
0.8329955
 20
-4.6115923267
 11
0.8923198972
 21
-4.431805158
  0
LINE
  5
397
100
AcDbEntity
  8
RACCORDO
100
AcDbLine
 62
7
  6
CONTINUOUS
 10
10.3935797111
 20
19.7070505977
 11
10.4732372651
 21
19.8993609448
  0
LINE
  5
398
100
AcDbEntity
  8
RACCORDO
100
AcDbLine
 62
253
  6
CONTINUOUS
 10
0.8321324481
 20
0.036622294
 11
0.7953568313
 21
0.0220665086
  0
LINE
  5
399
100
AcDbEntity
  8
0
100
AcDbLine
 62
7
  6
CONTINUOUS
 10
-7.2683732735
 20
0.5770569105
 11
-6.8134554481
 21
0.5770569105
  0
LINE
  5
39A
100
AcDbEntity
  8
0
100
AcDbLine
 62
7
  6
CONTINUOUS
 10
-2.3689316705
 20
0.5770569105
 11
-1.8724102798
 21
0.5770569105
  0
LINE
  5
39B
100
AcDbEntity
  8
DRAFT
100
AcDbLine
 62
7
  6
CONTINUOUS
 10
-0.3765289979
 20
3.688381776
 11
-0.3189316705
 21
3.6307844485
  0
LINE
  5
39C
100
AcDbEntity
  8
DRAFT
100
AcDbLine
 62
7
  6
CONTINUOUS
 10
9.2886656569
 20
-5.911618224
 11
9.2310683295
 21
-5.8540208966
  0
LINE
  5
39D
100
AcDbEntity
  8
RACCORDO
100
AcDbLine
 62
253
  6
CONTINUOUS
 10
10.3285903438
 20
-14.556854456
 11
10.4643596379
 21
-14.8235542158
  0
LINE
  5
39E
100
AcDbEntity
  8
RACCORDO
100
AcDbLine
 62
7
  6
CONTINUOUS
 10
10.3935797111
 20
-19.1302870458
 11
10.4732372651
 21
-19.3225973929
  0
LINE
  5
39F
100
AcDbEntity
  8
RACCORDO
100
AcDbLine
 62
253
  6
CONTINUOUS
 10
3.0810683295
 20
20.3415595669
 11
3.0810683295
 21
20.1727687271
  0
LINE
  5
3A0
100
AcDbEntity
  8
RACCORDO
100
AcDbLine
 62
253
  6
CONTINUOUS
 10
3.0810683295
 20
-19.5960051752
 11
3.0810683295
 21
-19.7647960149
  0
LINE
  5
3A1
100
AcDbEntity
  8
DRAFT
100
AcDbLine
 62
7
  6
CONTINUOUS
 10
3.1286024072
 20
-18.1304393507
 11
3.1286024072
 21
-17.7534732623
  0
LINE
  5
3A2
100
AcDbEntity
  8
DRAFT
100
AcDbLine
 62
7
  6
CONTINUOUS
 10
3.1726730895
 20
-17.7934712915
 11
3.1726730895
 21
-17.7828533029
  0
LINE
  5
3A3
100
AcDbEntity
  8
RACCORDO
100
AcDbLine
 62
7
  6
CONTINUOUS
 10
3.1810683295
 20
-17.7816133853
 11
3.1810683295
 21
-17.801971243
  0
LINE
  5
3A4
100
AcDbEntity
  8
0
100
AcDbLine
 62
253
  6
CONTINUOUS
 10
3.181173041
 20
-17.801971243
 11
3.181173041
 21
-18.2885736314
  0
LINE
  5
3A5
100
AcDbEntity
  8
RACCORDO
100
AcDbLine
 62
7
  6
CONTINUOUS
 10
3.6810683295
 20
-20.711618224
 11
3.6810683295
 21
-22.0496574627
  0
LINE
  5
3A6
100
AcDbEntity
  8
RACCORDO
100
AcDbLine
 62
7
  6
CONTINUOUS
 10
3.6810683295
 20
21.288381776
 11
3.6810683295
 21
22.6264210146
  0
LINE
  5
3A7
100
AcDbEntity
  8
RACCORDO
100
AcDbLine
 62
7
  6
CONTINUOUS
 10
4.0810683295
 20
20.3416156695
 11
4.0810683295
 21
20.188381776
  0
LINE
  5
3A8
100
AcDbEntity
  8
RACCORDO
100
AcDbLine
 62
7
  6
CONTINUOUS
 10
4.0810683295
 20
-19.611618224
 11
4.0810683295
 21
-19.7648521176
  0
LINE
  5
3A9
100
AcDbEntity
  8
0
100
AcDbLine
 62
7
  6
CONTINUOUS
 10
4.1810683295
 20
-10.2306096678
 11
4.1810683295
 21
-13.3926267803
  0
LINE
  5
3AA
100
AcDbEntity
  8
DRAFT
100
AcDbLine
 62
7
  6
CONTINUOUS
 10
4.1810683295
 20
-19.711618224
 11
4.1810683295
 21
-19.7648521176
  0
LINE
  5
3AB
100
AcDbEntity
  8
RACCORDO
100
AcDbLine
 62
7
  6
CONTINUOUS
 10
4.1810683295
 20
-22.0444213421
 11
4.1810683295
 21
-23.5058003942
  0
LINE
  5
3AC
100
AcDbEntity
  8
DRAFT
100
AcDbLine
 62
7
  6
CONTINUOUS
 10
4.1810683295
 20
20.288381776
 11
4.1810683295
 21
20.3416156695
  0
LINE
  5
3AD
100
AcDbEntity
  8
RACCORDO
100
AcDbLine
 62
7
  6
CONTINUOUS
 10
4.1810683295
 20
22.621184894
 11
4.1810683295
 21
24.0825639461
  0
LINE
  5
3AE
100
AcDbEntity
  8
RACCORDO
100
AcDbLine
 62
253
  6
CONTINUOUS
 10
4.4810683295
 20
24.0418391375
 11
4.4810683295
 21
22.6185668336
  0
LINE
  5
3AF
100
AcDbEntity
  8
RACCORDO
100
AcDbLine
 62
253
  6
CONTINUOUS
 10
4.4810683295
 20
-22.0418032817
 11
4.4810683295
 21
-23.4650755856
  0
LINE
  5
3B0
100
AcDbEntity
  8
RACCORDO
100
AcDbLine
 62
253
  6
CONTINUOUS
 10
1.3329535334
 20
-5.111618224
 11
1.3922779307
 21
-4.9318310553
  0
LINE
  5
3B1
100
AcDbEntity
  8
DRAFT
100
AcDbLine
 62
7
  6
CONTINUOUS
 10
-0.3887466129
 20
3.4685668336
 11
0.8329955
 21
3.4685668336
  0
LINE
  5
3B2
100
AcDbEntity
  8
DRAFT
100
AcDbLine
 62
7
  6
CONTINUOUS
 10
0.8790727017
 20
3.538381776
 11
-0.3189316705
 21
3.538381776
  0
LINE
  5
3B3
100
AcDbEntity
  8
DRAFT
100
AcDbLine
 62
7
  6
CONTINUOUS
 10
0.1386656569
 20
3.6307844485
 11
-0.3189316705
 21
3.6307844485
  0
LINE
  5
3B4
100
AcDbEntity
  8
SMUSSO
100
AcDbLine
 62
7
  6
CONTINUOUS
 10
-0.3765289979
 20
3.688381776
 11
-0.0689316705
 21
3.688381776
  0
LINE
  5
3B5
100
AcDbEntity
  8
DRAFT
100
AcDbLine
 62
7
  6
CONTINUOUS
 10
-0.3887466129
 20
5.3081967183
 11
-0.3189316705
 21
5.238381776
  0
LINE
  5
3B6
100
AcDbEntity
  8
RACCORDO
100
AcDbLine
 62
253
  6
CONTINUOUS
 10
10.0511444819
 20
-5.111618224
 11
9.8713573131
 21
-4.9318310553
  0
LINE
  5
3B7
100
AcDbEntity
  8
RACCORDO
100
AcDbLine
 62
253
  6
CONTINUOUS
 10
10.5510026883
 20
-4.6116287353
 11
10.3712811607
 21
-4.4319072077
  0
LINE
  5
3B8
100
AcDbEntity
  8
DRAFT
100
AcDbLine
 62
7
  6
CONTINUOUS
 10
0.8329955
 20
5.3081967183
 11
0.8790727017
 21
5.238381776
  0
LINE
  5
3B9
100
AcDbEntity
  8
0
100
AcDbLine
 62
7
  6
CONTINUOUS
 10
4.5491293295
 20
-13.1578164634
 11
4.5491293295
 21
-10.4654199847
  0
LINE
  5
3BA
100
AcDbEntity
  8
RACCORDO
100
AcDbLine
 62
253
  6
CONTINUOUS
 10
4.7362659629
 20
-23.4650755856
 11
4.7362659629
 21
-22.0418032817
  0
LINE
  5
3BB
100
AcDbEntity
  8
RACCORDO
100
AcDbLine
 62
253
  6
CONTINUOUS
 10
4.7362659629
 20
22.6185668336
 11
4.7362659629
 21
24.0418391375
  0
LINE
  5
3BC
100
AcDbEntity
  8
RACCORDO
100
AcDbLine
 62
7
  6
CONTINUOUS
 10
4.7810683295
 20
18.588381776
 11
4.7810683295
 21
18.3383722567
  0
LINE
  5
3BD
100
AcDbEntity
  8
RACCORDO
100
AcDbLine
 62
7
  6
CONTINUOUS
 10
4.7810683295
 20
9.928381776
 11
4.7810683295
 21
10.2383912952
  0
LINE
  5
3BE
100
AcDbEntity
  8
RACCORDO
100
AcDbLine
 62
7
  6
CONTINUOUS
 10
4.8700823809
 20
9.6836913863
 11
4.8700823809
 21
9.3725048755
  0
LINE
  5
3BF
100
AcDbEntity
  8
RACCORDO
100
AcDbLine
 62
253
  6
CONTINUOUS
 10
5.036260886
 20
-23.4668107805
 11
5.036260886
 21
-22.0444061109
  0
LINE
  5
3C0
100
AcDbEntity
  8
RACCORDO
100
AcDbLine
 62
253
  6
CONTINUOUS
 10
5.036260886
 20
22.6211696628
 11
5.036260886
 21
24.0435743324
  0
LINE
  5
3C1
100
AcDbEntity
  8
DRAFT
100
AcDbLine
 62
7
  6
CONTINUOUS
 10
5.0810683295
 20
-23.511618224
 11
5.0810683295
 21
-22.111618224
  0
LINE
  5
3C2
100
AcDbEntity
  8
DRAFT
100
AcDbLine
 62
7
  6
CONTINUOUS
 10
5.0810683295
 20
22.688381776
 11
5.0810683295
 21
24.088381776
  0
LINE
  5
3C3
100
AcDbEntity
  8
DRAFT
100
AcDbLine
 62
7
  6
CONTINUOUS
 10
5.6810683295
 20
16.3187041152
 11
5.6810683295
 21
11.5676779611
  0
LINE
  5
3C4
100
AcDbEntity
  8
RACCORDO
100
AcDbLine
 62
7
  6
CONTINUOUS
 10
5.692054278
 20
9.3725048755
 11
5.692054278
 21
9.6836913863
  0
LINE
  5
3C5
100
AcDbEntity
  8
RACCORDO
100
AcDbLine
 62
7
  6
CONTINUOUS
 10
5.7810683295
 20
18.588381776
 11
5.7810683295
 21
18.3383722567
  0
LINE
  5
3C6
100
AcDbEntity
  8
RACCORDO
100
AcDbLine
 62
7
  6
CONTINUOUS
 10
5.7810683295
 20
10.2383912952
 11
5.7810683295
 21
9.928381776
  0
LINE
  5
3C7
100
AcDbEntity
  8
0
100
AcDbLine
 62
7
  6
CONTINUOUS
 10
2.8762719423
 20
-13.4043947342
 11
2.8606764546
 21
-13.4660275017
  0
LINE
  5
3C8
100
AcDbEntity
  8
0
100
AcDbLine
 62
7
  6
CONTINUOUS
 10
2.9903932295
 20
-13.4332718593
 11
2.9733457723
 21
-13.5006427541
  0
LINE
  5
3C9
100
AcDbEntity
  8
DRAFT
100
AcDbLine
 62
7
  6
CONTINUOUS
 10
-1.8190363821
 20
-7.7021863306
 11
-1.810321343
 21
-7.6934712915
  0
LINE
  5
3CA
100
AcDbEntity
  8
DRAFT
100
AcDbLine
 62
7
  6
CONTINUOUS
 10
-1.8105457307
 20
-7.6828533029
 11
-1.7662512809
 21
-7.6534732623
  0
LINE
  5
3CB
100
AcDbEntity
  8
SMUSSO
100
AcDbLine
 62
7
  6
CONTINUOUS
 10
-0.3765289979
 20
4.188381776
 11
-0.0689316705
 21
4.188381776
  0
LINE
  5
3CC
100
AcDbEntity
  8
0
100
AcDbLine
 62
7
  6
CONTINUOUS
 10
-0.3765289979
 20
4.288381776
 11
0.1386656569
 21
4.288381776
  0
LINE
  5
3CD
100
AcDbEntity
  8
DRAFT
100
AcDbLine
 62
7
  6
CONTINUOUS
 10
-0.3189316705
 20
4.3459791034
 11
0.1386656569
 21
4.3459791034
  0
LINE
  5
3CE
100
AcDbEntity
  8
DRAFT
100
AcDbLine
 62
7
  6
CONTINUOUS
 10
0.8790727017
 20
5.238381776
 11
-0.3189316705
 21
5.238381776
  0
LINE
  5
3CF
100
AcDbEntity
  8
DRAFT
100
AcDbLine
 62
7
  6
CONTINUOUS
 10
0.8329955
 20
5.3081967183
 11
-0.3887466129
 21
5.3081967183
  0
LINE
  5
3D0
100
AcDbEntity
  8
DRAFT
100
AcDbLine
 62
7
  6
CONTINUOUS
 10
0.8329955
 20
8.4081967183
 11
0.8790727017
 21
8.338381776
  0
LINE
  5
3D1
100
AcDbEntity
  8
DRAFT
100
AcDbLine
 62
7
  6
CONTINUOUS
 10
9.3008832718
 20
-5.111618224
 11
9.2310683295
 21
-4.9719777046
  0
LINE
  5
3D2
100
AcDbEntity
  8
0
100
AcDbLine
 62
253
  6
CONTINUOUS
 10
8.6586751171
 20
-13.4871864309
 11
8.6990873351
 21
-13.6468939612
  0
LINE
  5
3D3
100
AcDbEntity
  8
0
100
AcDbLine
 62
7
  6
CONTINUOUS
 10
8.9296168772
 20
-13.6619854979
 11
8.8717434294
 21
-13.4332718593
  0
LINE
  5
3D4
100
AcDbEntity
  8
0
100
AcDbLine
 62
7
  6
CONTINUOUS
 10
8.9858647166
 20
-13.4043947342
 11
9.0499616197
 21
-13.6577032289
  0
LINE
  5
3D5
100
AcDbEntity
  8
DRAFT
100
AcDbLine
 62
7
  6
CONTINUOUS
 10
6.3420474983
 20
20.0993609448
 11
6.3420474983
 21
19.8993609448
  0
LINE
  5
3D6
100
AcDbEntity
  8
DRAFT
100
AcDbLine
 62
7
  6
CONTINUOUS
 10
6.3420474983
 20
-19.5225973929
 11
6.3420474983
 21
-19.3225973929
  0
LINE
  5
3D7
100
AcDbEntity
  8
DRAFT
100
AcDbLine
 62
7
  6
CONTINUOUS
 10
6.4310683295
 20
-19.411618224
 11
6.4310683295
 21
-19.611618224
  0
LINE
  5
3D8
100
AcDbEntity
  8
DRAFT
100
AcDbLine
 62
7
  6
CONTINUOUS
 10
6.4310683295
 20
19.988381776
 11
6.4310683295
 21
20.188381776
  0
LINE
  5
3D9
100
AcDbEntity
  8
RACCORDO
100
AcDbLine
 62
7
  6
CONTINUOUS
 10
6.7310683295
 20
20.3730323935
 11
6.7310683295
 21
20.288381776
  0
LINE
  5
3DA
100
AcDbEntity
  8
RACCORDO
100
AcDbLine
 62
7
  6
CONTINUOUS
 10
6.7310683295
 20
-19.711618224
 11
6.7310683295
 21
-19.7962688416
  0
LINE
  5
3DB
100
AcDbEntity
  8
RACCORDO
100
AcDbLine
 62
253
  6
CONTINUOUS
 10
7.0310683295
 20
20.3756504539
 11
7.0310683295
 21
19.988381776
  0
LINE
  5
3DC
100
AcDbEntity
  8
RACCORDO
100
AcDbLine
 62
253
  6
CONTINUOUS
 10
7.0310683295
 20
-19.798886902
 11
7.0310683295
 21
-19.411618224
  0
LINE
  5
3DD
100
AcDbEntity
  8
0
100
AcDbLine
 62
7
  6
CONTINUOUS
 10
7.3130073295
 20
-12.708296025
 11
7.3130073295
 21
-10.9149404231
  0
LINE
  5
3DE
100
AcDbEntity
  8
DRAFT
100
AcDbLine
 62
7
  6
CONTINUOUS
 10
7.4612533871
 20
-6.711618224
 11
7.4612533871
 21
-5.111618224
  0
LINE
  5
3DF
100
AcDbEntity
  8
DRAFT
100
AcDbLine
 62
7
  6
CONTINUOUS
 10
7.4734710021
 20
-6.711618224
 11
7.4734710021
 21
-5.911618224
  0
LINE
  5
3E0
100
AcDbEntity
  8
DRAFT
100
AcDbLine
 62
7
  6
CONTINUOUS
 10
7.5310683295
 20
-4.9719777046
 11
7.5310683295
 21
-5.8540208966
  0
LINE
  5
3E1
100
AcDbEntity
  8
RACCORDO
100
AcDbLine
 62
253
  6
CONTINUOUS
 10
7.5387649098
 20
16.3187041152
 11
7.5387639509
 21
16.4125323629
  0
LINE
  5
3E2
100
AcDbEntity
  8
DRAFT
100
AcDbLine
 62
7
  6
CONTINUOUS
 10
7.5650730803
 20
12.1925750973
 11
7.5650730803
 21
16.318627068
  0
LINE
  5
3E3
100
AcDbEntity
  8
RACCORDO
100
AcDbLine
 62
253
  6
CONTINUOUS
 10
7.5964062884
 20
21.188381776
 11
7.5964062884
 21
19.988381776
  0
LINE
  5
3E4
100
AcDbEntity
  8
RACCORDO
100
AcDbLine
 62
253
  6
CONTINUOUS
 10
7.5964062884
 20
-20.611618224
 11
7.5964062884
 21
-19.411618224
  0
LINE
  5
3E5
100
AcDbEntity
  8
0
100
AcDbLine
 62
7
  6
CONTINUOUS
 10
7.6810683295
 20
-10.4478714576
 11
7.6810683295
 21
-13.1753649905
  0
LINE
  5
3E6
100
AcDbEntity
  8
SMUSSO
100
AcDbLine
 62
7
  6
CONTINUOUS
 10
7.6810683295
 20
12.3263533496
 11
7.6810683295
 21
16.2504102023
  0
LINE
  5
3E7
100
AcDbEntity
  8
RACCORDO
100
AcDbLine
 62
7
  6
CONTINUOUS
 10
7.8810683295
 20
-6.111618224
 11
7.8810683295
 21
-6.361618224
  0
LINE
  5
3E8
100
AcDbEntity
  8
RACCORDO
100
AcDbLine
 62
253
  6
CONTINUOUS
 10
7.8963948653
 20
21.188381776
 11
7.8963948653
 21
20.288381776
  0
LINE
  5
3E9
100
AcDbEntity
  8
RACCORDO
100
AcDbLine
 62
253
  6
CONTINUOUS
 10
7.8963948653
 20
-19.711618224
 11
7.8963948653
 21
-20.611618224
  0
LINE
  5
3EA
100
AcDbEntity
  8
RACCORDO
100
AcDbLine
 62
7
  6
CONTINUOUS
 10
7.9810683295
 20
21.188381776
 11
7.9810683295
 21
20.288381776
  0
LINE
  5
3EB
100
AcDbEntity
  8
RACCORDO
100
AcDbLine
 62
7
  6
CONTINUOUS
 10
7.9810683295
 20
-19.711618224
 11
7.9810683295
 21
-20.611618224
  0
LINE
  5
3EC
100
AcDbEntity
  8
DRAFT
100
AcDbLine
 62
7
  6
CONTINUOUS
 10
7.9886656569
 20
-5.9540208966
 11
7.9886656569
 21
-5.8540208966
  0
LINE
  5
3ED
100
AcDbEntity
  8
0
100
AcDbLine
 62
253
  6
CONTINUOUS
 10
3.2034615418
 20
-13.4871864309
 11
3.1889052589
 21
-13.544712301
  0
LINE
  5
3EE
100
AcDbEntity
  8
RACCORDO
100
AcDbLine
 62
253
  6
CONTINUOUS
 10
-0.3360059501
 20
-9.0787686561
 11
-0.4795944319
 21
-9.2223571378
  0
LINE
  5
3EF
100
AcDbEntity
  8
RACCORDO
100
AcDbLine
 62
253
  6
CONTINUOUS
 10
-9.6856875844
 20
-18.7154888522
 11
-8.978688499
 21
-18.0084897668
  0
LINE
  5
3F0
100
AcDbEntity
  8
RACCORDO
100
AcDbLine
 62
253
  6
CONTINUOUS
 10
0.1639178974
 20
-9.5786925037
 11
0.0203294157
 21
-9.7222809854
  0
LINE
  5
3F1
100
AcDbEntity
  8
RACCORDO
100
AcDbLine
 62
7
  6
CONTINUOUS
 10
-1.7663518641
 20
-8.1536576708
 11
-1.81893708
 21
-8.1887280952
  0
LINE
  5
3F2
100
AcDbEntity
  8
DRAFT
100
AcDbLine
 62
7
  6
CONTINUOUS
 10
0.6112533871
 20
6.5685668336
 11
0.8329955
 21
6.5685668336
  0
LINE
  5
3F3
100
AcDbEntity
  8
DRAFT
100
AcDbLine
 62
7
  6
CONTINUOUS
 10
0.6810683295
 20
6.638381776
 11
0.8790727017
 21
6.638381776
  0
LINE
  5
3F4
100
AcDbEntity
  8
DRAFT
100
AcDbLine
 62
7
  6
CONTINUOUS
 10
0.6112533871
 20
8.4081967183
 11
0.6810683295
 21
8.338381776
  0
LINE
  5
3F5
100
AcDbEntity
  8
RACCORDO
100
AcDbLine
 62
253
  6
CONTINUOUS
 10
-9.5163734546
 20
19.2221201953
 11
-8.8093743692
 21
18.5151211099
  0
LINE
  5
3F6
100
AcDbEntity
  8
RACCORDO
100
AcDbLine
 62
7
  6
CONTINUOUS
 10
8.9861589306
 20
-23.3394494404
 11
8.9817955582
 21
-22.9064367385
  0
LINE
  5
3F7
100
AcDbEntity
  8
DRAFT
100
AcDbLine
 62
7
  6
CONTINUOUS
 10
8.0810683295
 20
-20.4760884059
 11
8.0810683295
 21
-19.411618224
  0
LINE
  5
3F8
100
AcDbEntity
  8
DRAFT
100
AcDbLine
 62
7
  6
CONTINUOUS
 10
8.0810683295
 20
19.988381776
 11
8.0810683295
 21
21.0528519578
  0
LINE
  5
3F9
100
AcDbEntity
  8
DRAFT
100
AcDbLine
 62
7
  6
CONTINUOUS
 10
8.1700891606
 20
20.9638311267
 11
8.1700891606
 21
19.8993609448
  0
LINE
  5
3FA
100
AcDbEntity
  8
DRAFT
100
AcDbLine
 62
7
  6
CONTINUOUS
 10
8.1700891606
 20
-19.3225973929
 11
8.1700891606
 21
-20.3870675748
  0
LINE
  5
3FB
100
AcDbEntity
  8
RACCORDO
100
AcDbLine
 62
253
  6
CONTINUOUS
 10
8.2346217201
 20
15.2293948533
 11
8.2346217201
 21
13.3473686986
  0
LINE
  5
3FC
100
AcDbEntity
  8
DRAFT
100
AcDbLine
 62
7
  6
CONTINUOUS
 10
8.3810683295
 20
-6.361618224
 11
8.3810683295
 21
-6.111618224
  0
LINE
  5
3FD
100
AcDbEntity
  8
RACCORDO
100
AcDbLine
 62
253
  6
CONTINUOUS
 10
8.4617085013
 20
-21.0243114678
 11
8.4617085013
 21
-20.6116639155
  0
LINE
  5
3FE
100
AcDbEntity
  8
RACCORDO
100
AcDbLine
 62
253
  6
CONTINUOUS
 10
8.4617085013
 20
21.1884274674
 11
8.4617085013
 21
21.6010750197
  0
LINE
  5
3FF
100
AcDbEntity
  8
0
100
AcDbLine
 62
253
  6
CONTINUOUS
 10
8.6809636179
 20
-17.801971243
 11
8.6809636179
 21
-18.2885736314
  0
LINE
  5
400
100
AcDbEntity
  8
DRAFT
100
AcDbLine
 62
7
  6
CONTINUOUS
 10
8.6810683295
 20
-6.361618224
 11
8.6810683295
 21
-6.111618224
  0
LINE
  5
401
100
AcDbEntity
  8
DRAFT
100
AcDbLine
 62
7
  6
CONTINUOUS
 10
8.6894635694
 20
-17.7934712915
 11
8.6894635694
 21
-17.7828533029
  0
LINE
  5
402
100
AcDbEntity
  8
DRAFT
100
AcDbLine
 62
7
  6
CONTINUOUS
 10
8.7335342518
 20
-18.1304393507
 11
8.7335342518
 21
-17.7534732623
  0
LINE
  5
403
100
AcDbEntity
  8
RACCORDO
100
AcDbLine
 62
253
  6
CONTINUOUS
 10
8.7616628098
 20
-21.1567139836
 11
8.7616628098
 21
-20.911618224
  0
LINE
  5
404
100
AcDbEntity
  8
RACCORDO
100
AcDbLine
 62
253
  6
CONTINUOUS
 10
8.7616628098
 20
21.488381776
 11
8.7616628098
 21
21.7334775355
  0
LINE
  5
405
100
AcDbEntity
  8
DRAFT
100
AcDbLine
 62
7
  6
CONTINUOUS
 10
8.8734710021
 20
-5.8540208966
 11
8.8734710021
 21
-5.9540208966
  0
LINE
  5
406
100
AcDbEntity
  8
RACCORDO
100
AcDbLine
 62
7
  6
CONTINUOUS
 10
8.9310683295
 20
21.5640720158
 11
8.9310683295
 21
21.488381776
  0
LINE
  5
407
100
AcDbEntity
  8
RACCORDO
100
AcDbLine
 62
7
  6
CONTINUOUS
 10
8.9310683295
 20
-20.911618224
 11
8.9310683295
 21
-20.9873084639
  0
LINE
  5
408
100
AcDbEntity
  8
RACCORDO
100
AcDbLine
 62
7
  6
CONTINUOUS
 10
8.9810683295
 20
-22.111618224
 11
8.9810683295
 21
-24.111618224
  0
LINE
  5
409
100
AcDbEntity
  8
RACCORDO
100
AcDbLine
 62
7
  6
CONTINUOUS
 10
8.9810683295
 20
22.688381776
 11
8.9810683295
 21
24.688381776
  0
LINE
  5
40A
100
AcDbEntity
  8
RACCORDO
100
AcDbLine
 62
7
  6
CONTINUOUS
 10
8.9868861593
 20
24.4340141727
 11
8.9868861593
 21
24.1327193433
  0
LINE
  5
40B
100
AcDbEntity
  8
RACCORDO
100
AcDbLine
 62
7
  6
CONTINUOUS
 10
8.9868861593
 20
-23.5559557913
 11
8.9868861593
 21
-23.8572506208
  0
LINE
  5
40C
100
AcDbEntity
  8
RACCORDO
100
AcDbLine
 62
7
  6
CONTINUOUS
 10
9.0810683295
 20
14.5383912952
 11
9.0810683295
 21
14.0383722567
  0
LINE
  5
40D
100
AcDbEntity
  8
RACCORDO
100
AcDbLine
 62
7
  6
CONTINUOUS
 10
9.1308116753
 20
14.0881156025
 11
9.1308116753
 21
14.4886479494
  0
LINE
  5
40E
100
AcDbEntity
  8
DRAFT
100
AcDbLine
 62
7
  6
CONTINUOUS
 10
9.2310683295
 20
-4.9719777046
 11
9.2310683295
 21
-5.8540208966
  0
LINE
  5
40F
100
AcDbEntity
  8
DRAFT
100
AcDbLine
 62
7
  6
CONTINUOUS
 10
9.2886656569
 20
-6.711618224
 11
9.2886656569
 21
-5.911618224
  0
LINE
  5
410
100
AcDbEntity
  8
DRAFT
100
AcDbLine
 62
7
  6
CONTINUOUS
 10
9.3008832718
 20
-6.711618224
 11
9.3008832718
 21
-5.111618224
  0
LINE
  5
411
100
AcDbEntity
  8
0
100
AcDbLine
 62
7
  6
CONTINUOUS
 10
9.3292950568
 20
-13.361618224
 11
9.3292950568
 21
-13.6181365752
  0
LINE
  5
412
100
AcDbEntity
  8
SMUSSO
100
AcDbLine
 62
7
  6
CONTINUOUS
 10
9.7360475966
 20
14.7334025089
 11
9.7360475966
 21
14.7286238235
  0
LINE
  5
413
100
AcDbEntity
  8
SMUSSO
100
AcDbLine
 62
7
  6
CONTINUOUS
 10
9.7360475966
 20
13.8481397284
 11
9.7360475966
 21
13.843361043
  0
LINE
  5
414
100
AcDbEntity
  8
RACCORDO
100
AcDbLine
 62
253
  6
CONTINUOUS
 10
9.8010890624
 20
14.3028432403
 11
9.8010890624
 21
14.7334025089
  0
LINE
  5
415
100
AcDbEntity
  8
RACCORDO
100
AcDbLine
 62
253
  6
CONTINUOUS
 10
9.8625779976
 20
9.3725048755
 11
9.8625779976
 21
9.8724965823
  0
LINE
  5
416
100
AcDbEntity
  8
RACCORDO
100
AcDbLine
 62
253
  6
CONTINUOUS
 10
9.8010890624
 20
14.2739203117
 11
9.8010890624
 21
13.843361043
  0
LINE
  5
417
100
AcDbEntity
  8
RACCORDO
100
AcDbLine
 62
7
  6
CONTINUOUS
 10
8.9817955582
 20
23.4832002904
 11
8.9861589306
 21
23.9162129923
  0
LINE
  5
418
100
AcDbEntity
  8
DRAFT
100
AcDbLine
 62
7
  6
CONTINUOUS
 10
7.4612533871
 20
-5.111618224
 11
7.5310683295
 21
-4.9719777046
  0
LINE
  5
419
100
AcDbEntity
  8
RACCORDO
100
AcDbLine
 62
7
  6
CONTINUOUS
 10
-3.7189316705
 20
-22.111618224
 11
-3.674124227
 21
-22.0444061109
  0
LINE
  5
41A
100
AcDbEntity
  8
DRAFT
100
AcDbLine
 62
7
  6
CONTINUOUS
 10
0.8790727017
 20
8.338381776
 11
0.6810683295
 21
8.338381776
  0
LINE
  5
41B
100
AcDbEntity
  8
DRAFT
100
AcDbLine
 62
7
  6
CONTINUOUS
 10
0.8329955
 20
8.4081967183
 11
0.6112533871
 21
8.4081967183
  0
LINE
  5
41C
100
AcDbEntity
  8
RACCORDO
100
AcDbLine
 62
253
  6
CONTINUOUS
 10
9.8625779976
 20
9.3725048755
 11
5.692054278
 21
9.3725048755
  0
LINE
  5
41D
100
AcDbEntity
  8
RACCORDO
100
AcDbLine
 62
253
  6
CONTINUOUS
 10
1.3951748426
 20
9.3725048755
 11
4.8700823809
 21
9.3725048755
  0
LINE
  5
41E
100
AcDbEntity
  8
RACCORDO
100
AcDbLine
 62
7
  6
CONTINUOUS
 10
-3.7189316705
 20
22.688381776
 11
-3.674124227
 21
22.6211696628
  0
LINE
  5
41F
100
AcDbEntity
  8
RACCORDO
100
AcDbLine
 62
7
  6
CONTINUOUS
 10
0.9510683295
 20
13.788381776
 11
0.8923198972
 21
13.8773958274
  0
LINE
  5
420
100
AcDbEntity
  8
RACCORDO
100
AcDbLine
 62
7
  6
CONTINUOUS
 10
11.2803411007
 20
23.4832002904
 11
11.2759777284
 21
23.9162129923
  0
LINE
  5
421
100
AcDbEntity
  8
0
100
AcDbLine
 62
7
  6
CONTINUOUS
 10
9.9310683295
 20
-13.361618224
 11
9.9310683295
 21
-10.2553278381
  0
LINE
  5
422
100
AcDbEntity
  8
RACCORDO
100
AcDbLine
 62
253
  6
CONTINUOUS
 10
10.0011897708
 20
-13.3205505513
 11
10.0011897708
 21
-10.5340252924
  0
LINE
  5
423
100
AcDbEntity
  8
DRAFT
100
AcDbLine
 62
7
  6
CONTINUOUS
 10
10.1932394984
 20
10.4283398094
 11
10.1932394984
 21
13.788381776
  0
LINE
  5
424
100
AcDbEntity
  8
DRAFT
100
AcDbLine
 62
7
  6
CONTINUOUS
 10
10.1932394984
 20
14.788381776
 11
10.1932394984
 21
18.0884237425
  0
LINE
  5
425
100
AcDbEntity
  8
RACCORDO
100
AcDbLine
 62
7
  6
CONTINUOUS
 10
10.3712811607
 20
14.3028432403
 11
10.3712811607
 21
14.2739203117
  0
LINE
  5
426
100
AcDbEntity
  8
RACCORDO
100
AcDbLine
 62
7
  6
CONTINUOUS
 10
10.3712811604
 20
9.5115276841
 11
10.3712811607
 21
-4.4319072077
  0
LINE
  5
427
100
AcDbEntity
  8
0
100
AcDbLine
 62
7
  6
CONTINUOUS
 10
10.4310683295
 20
21.038381776
 11
10.4310683295
 21
20.188381776
  0
LINE
  5
428
100
AcDbEntity
  8
ASSI
100
AcDbLine
 62
7
  6
CONTINUOUS
 10
10.4310683295
 20
-19.611618224
 11
10.4310683295
 21
-20.461618224
  0
LINE
  5
429
100
AcDbEntity
  8
RACCORDO
100
AcDbLine
 62
253
  6
CONTINUOUS
 10
10.4643570426
 20
-14.8235554417
 11
10.4643596379
 21
-17.2313584726
  0
LINE
  5
42A
100
AcDbEntity
  8
RACCORDO
100
AcDbLine
 62
253
  6
CONTINUOUS
 10
10.4643570448
 20
-8.7996810074
 11
10.4643596379
 21
-4.8930991215
  0
LINE
  5
42B
100
AcDbEntity
  8
RACCORDO
100
AcDbLine
 62
7
  6
CONTINUOUS
 10
10.5510026883
 20
17.8081220245
 11
10.5510026883
 21
-4.6116287353
  0
LINE
  5
42C
100
AcDbEntity
  8
RACCORDO
100
AcDbLine
 62
253
  6
CONTINUOUS
 10
11.1173375923
 20
-13.29679353
 11
11.1173375923
 21
-13.0905755455
  0
LINE
  5
42D
100
AcDbEntity
  8
RACCORDO
100
AcDbLine
 62
253
  6
CONTINUOUS
 10
11.1173375923
 20
-10.5326609026
 11
11.1173375923
 21
-10.3264427339
  0
LINE
  5
42E
100
AcDbEntity
  8
RACCORDO
100
AcDbLine
 62
7
  6
CONTINUOUS
 10
11.2752504997
 20
-23.8572506208
 11
11.2752504997
 21
-23.5559557913
  0
LINE
  5
42F
100
AcDbEntity
  8
RACCORDO
100
AcDbLine
 62
7
  6
CONTINUOUS
 10
11.2752504997
 20
24.1327193433
 11
11.2752504997
 21
24.4340141727
  0
LINE
  5
430
100
AcDbEntity
  8
RACCORDO
100
AcDbLine
 62
7
  6
CONTINUOUS
 10
11.2810683295
 20
-22.111618224
 11
11.2810683295
 21
-24.111618224
  0
LINE
  5
431
100
AcDbEntity
  8
RACCORDO
100
AcDbLine
 62
7
  6
CONTINUOUS
 10
11.2810683295
 20
22.688381776
 11
11.2810683295
 21
24.688381776
  0
LINE
  5
432
100
AcDbEntity
  8
RACCORDO
100
AcDbLine
 62
253
  6
CONTINUOUS
 10
11.4172919008
 20
-13.29679353
 11
11.4172919008
 21
-13.0994211916
  0
LINE
  5
433
100
AcDbEntity
  8
RACCORDO
100
AcDbLine
 62
253
  6
CONTINUOUS
 10
11.4172919008
 20
-10.5238152565
 11
11.4172919008
 21
-10.3264427339
  0
LINE
  5
434
100
AcDbEntity
  8
RACCORDO
100
AcDbLine
 62
253
  6
CONTINUOUS
 10
11.4642073331
 20
17.8081220245
 11
11.4642073331
 21
-10.0839692961
  0
LINE
  5
435
100
AcDbEntity
  8
RACCORDO
100
AcDbLine
 62
253
  6
CONTINUOUS
 10
11.4642073331
 20
-13.5392671232
 11
11.4642073331
 21
-17.2313584726
  0
LINE
  5
436
100
AcDbEntity
  8
RACCORDO
100
AcDbLine
 62
253
  6
CONTINUOUS
 10
11.4810683295
 20
22.688381776
 11
11.4810683295
 21
22.6796549082
  0
LINE
  5
437
100
AcDbEntity
  8
RACCORDO
100
AcDbLine
 62
253
  6
CONTINUOUS
 10
11.4810683295
 20
-22.1028913563
 11
11.4810683295
 21
-22.111618224
  0
LINE
  5
438
100
AcDbEntity
  8
RACCORDO
100
AcDbLine
 62
7
  6
CONTINUOUS
 10
10.2096752388
 20
-13.148539872
 11
10.2152786991
 21
-10.5340252924
  0
LINE
  5
439
100
AcDbEntity
  8
RACCORDO
100
AcDbLine
 62
7
  6
CONTINUOUS
 10
11.2759777284
 20
-23.3394494404
 11
11.2803411007
 21
-22.9064367385
  0
LINE
  5
43A
100
AcDbEntity
  8
0
100
AcDbLine
 62
7
  6
CONTINUOUS
 10
9.227821908
 20
-19.1302870458
 11
9.217705995
 21
-19.2182238023
  0
LINE
  5
43B
100
AcDbEntity
  8
RACCORDO
100
AcDbLine
 62
253
  6
CONTINUOUS
 10
1.3645298508
 20
-14.0960893808
 11
1.1637655926
 21
-14.3180258035
  0
LINE
  5
43C
100
AcDbEntity
  8
DRAFT
100
AcDbLine
 62
7
  6
CONTINUOUS
 10
7.4734710021
 20
-5.911618224
 11
7.5310683295
 21
-5.8540208966
  0
LINE
  5
43D
100
AcDbEntity
  8
DRAFT
100
AcDbLine
 62
7
  6
CONTINUOUS
 10
-6.8044614887
 20
-20.561618224
 11
-6.7189316705
 21
-20.4760884059
  0
LINE
  5
43E
100
AcDbEntity
  8
RACCORDO
100
AcDbLine
 62
7
  6
CONTINUOUS
 10
-9.9189316705
 20
-24.111618224
 11
-9.9145598365
 21
-24.10724639
  0
LINE
  5
43F
100
AcDbEntity
  8
DRAFT
100
AcDbLine
 62
7
  6
CONTINUOUS
 10
-5.0689316705
 20
-19.411618224
 11
-4.9799108394
 21
-19.3225973929
  0
LINE
  5
440
100
AcDbEntity
  8
DRAFT
100
AcDbLine
 62
7
  6
CONTINUOUS
 10
-5.0689316705
 20
-19.611618224
 11
-4.9799108394
 21
-19.5225973929
  0
LINE
  5
441
100
AcDbEntity
  8
RACCORDO
100
AcDbLine
 62
253
  6
CONTINUOUS
 10
5.692054278
 20
9.6836913863
 11
4.8700823809
 21
9.6836913863
  0
LINE
  5
442
100
AcDbEntity
  8
RACCORDO
100
AcDbLine
 62
253
  6
CONTINUOUS
 10
9.8625757578
 20
9.8724965823
 11
5.6963925805
 21
9.8724965823
  0
LINE
  5
443
100
AcDbEntity
  8
RACCORDO
100
AcDbLine
 62
253
  6
CONTINUOUS
 10
1.3951773337
 20
9.8724965823
 11
4.8657440785
 21
9.8724965823
  0
LINE
  5
444
100
AcDbEntity
  8
RACCORDO
100
AcDbLine
 62
7
  6
CONTINUOUS
 10
1.4510600363
 20
9.928381776
 11
4.7810683295
 21
9.928381776
  0
LINE
  5
445
100
AcDbEntity
  8
RACCORDO
100
AcDbLine
 62
7
  6
CONTINUOUS
 10
5.7810683295
 20
9.928381776
 11
9.6932136011
 21
9.928381776
  0
LINE
  5
446
100
AcDbEntity
  8
RACCORDO
100
AcDbLine
 62
253
  6
CONTINUOUS
 10
5.6945768145
 20
10.1836723478
 11
4.8675598444
 21
10.1836723478
  0
LINE
  5
447
100
AcDbEntity
  8
RACCORDO
100
AcDbLine
 62
7
  6
CONTINUOUS
 10
5.7242862427
 20
10.213381776
 11
4.8378504163
 21
10.213381776
  0
LINE
  5
448
100
AcDbEntity
  8
RACCORDO
100
AcDbLine
 62
7
  6
CONTINUOUS
 10
5.7199709848
 20
10.238381776
 11
4.8421656742
 21
10.238381776
  0
LINE
  5
449
100
AcDbEntity
  8
RACCORDO
100
AcDbLine
 62
7
  6
CONTINUOUS
 10
5.477815485
 20
10.4351194122
 11
5.084321174
 21
10.4351194122
  0
LINE
  5
44A
100
AcDbEntity
  8
RACCORDO
100
AcDbLine
 62
7
  6
CONTINUOUS
 10
5.5310778487
 20
10.488381776
 11
5.0310588102
 21
10.488381776
  0
LINE
  5
44B
100
AcDbEntity
  8
RACCORDO
100
AcDbLine
 62
7
  6
CONTINUOUS
 10
4.7810683295
 20
9.928381776
 11
4.8657440785
 21
9.8724965823
  0
LINE
  5
44C
100
AcDbEntity
  8
DRAFT
100
AcDbLine
 62
7
  6
CONTINUOUS
 10
-6.8044614887
 20
21.138381776
 11
-6.7189316705
 21
21.0528519578
  0
LINE
  5
44D
100
AcDbEntity
  8
RACCORDO
100
AcDbLine
 62
7
  6
CONTINUOUS
 10
-9.9189316705
 20
24.688381776
 11
-9.9145598365
 21
24.684009942
  0
LINE
  5
44E
100
AcDbEntity
  8
DRAFT
100
AcDbLine
 62
7
  6
CONTINUOUS
 10
-5.0689316705
 20
19.988381776
 11
-4.9799108394
 21
19.8993609448
  0
LINE
  5
44F
100
AcDbEntity
  8
RACCORDO
100
AcDbLine
 62
253
  6
CONTINUOUS
 10
1.1440481447
 20
13.8754114799
 11
1.2310778487
 21
13.788381776
  0
LINE
  5
450
100
AcDbEntity
  8
RACCORDO
100
AcDbLine
 62
253
  6
CONTINUOUS
 10
4.8672426229
 20
10.1522170018
 11
4.7810683295
 21
10.2383912952
  0
LINE
  5
451
100
AcDbEntity
  8
RACCORDO
100
AcDbLine
 62
7
  6
CONTINUOUS
 10
1.1753412617
 20
13.8758909305
 11
1.2060683295
 21
13.8451638627
  0
LINE
  5
452
100
AcDbEntity
  8
RACCORDO
100
AcDbLine
 62
7
  6
CONTINUOUS
 10
4.8378504163
 20
10.213381776
 11
4.8675598444
 21
10.1836723478
  0
LINE
  5
453
100
AcDbEntity
  8
DRAFT
100
AcDbLine
 62
7
  6
CONTINUOUS
 10
-4.9799108394
 20
20.0993609448
 11
-5.0689316705
 21
20.188381776
  0
LINE
  5
454
100
AcDbEntity
  8
RACCORDO
100
AcDbLine
 62
253
  6
CONTINUOUS
 10
1.4278059657
 20
14.0916346205
 11
1.4810683295
 21
14.0383722567
  0
LINE
  5
455
100
AcDbEntity
  8
RACCORDO
100
AcDbLine
 62
253
  6
CONTINUOUS
 10
5.084321174
 20
10.4351194122
 11
5.0310588102
 21
10.488381776
  0
LINE
  5
456
100
AcDbEntity
  8
RACCORDO
100
AcDbLine
 62
7
  6
CONTINUOUS
 10
11.8310683295
 20
22.3296415807
 11
11.8310683295
 21
-21.7528780288
  0
LINE
  5
457
100
AcDbEntity
  8
0
100
AcDbLine
 62
253
  6
CONTINUOUS
 10
3.1811483384
 20
-18.2885546394
 11
2.6444306639
 21
-19.2182238023
  0
LINE
  5
458
100
AcDbEntity
  8
RACCORDO
100
AcDbLine
 62
253
  6
CONTINUOUS
 10
0.1639178974
 20
-18.1304393507
 11
0.0203294157
 21
-18.2740278324
  0
LINE
  5
459
100
AcDbEntity
  8
RACCORDO
100
AcDbLine
 62
253
  6
CONTINUOUS
 10
5.9375623782
 20
-10.0208425537
 11
6.1810683277
 21
-9.8468686761
  0
LINE
  5
45A
100
AcDbEntity
  8
RACCORDO
100
AcDbLine
 62
253
  6
CONTINUOUS
 10
5.6790811667
 20
-10.3518445174
 11
5.9300746161
 21
-10.1888589623
  0
LINE
  5
45B
100
AcDbEntity
  8
RACCORDO
100
AcDbLine
 62
253
  6
CONTINUOUS
 10
-10.4689316705
 20
-17.3833172728
 11
-10.271384804
 21
-17.3014906814
  0
LINE
  5
45C
100
AcDbEntity
  8
RACCORDO
100
AcDbLine
 62
7
  6
CONTINUOUS
 10
-0.0209001728
 20
11.2883817843
 11
0.5336551065
 21
11.2883817764
  0
LINE
  5
45D
100
AcDbEntity
  8
RACCORDO
100
AcDbLine
 62
7
  6
CONTINUOUS
 10
7.3593651221
 20
11.988381776
 11
6.8810683295
 21
11.988381776
  0
LINE
  5
45E
100
AcDbEntity
  8
RACCORDO
100
AcDbLine
 62
253
  6
CONTINUOUS
 10
9.8625757578
 20
9.8724965823
 11
9.6932136011
 21
9.928381776
  0
LINE
  5
45F
100
AcDbEntity
  8
RACCORDO
100
AcDbLine
 62
253
  6
CONTINUOUS
 10
10.3627059579
 20
10.372420174
 11
10.1932394984
 21
10.4283398094
  0
LINE
  5
460
100
AcDbEntity
  8
RACCORDO
100
AcDbLine
 62
253
  6
CONTINUOUS
 10
-10.1020706741
 20
17.8081220245
 11
-10.4689316705
 21
17.9600808247
  0
LINE
  5
461
100
AcDbEntity
  8
RACCORDO
100
AcDbLine
 62
253
  6
CONTINUOUS
 10
10.3285903438
 20
-9.0663819921
 11
10.4643596379
 21
-8.7996822323
  0
LINE
  5
462
100
AcDbEntity
  8
RACCORDO
100
AcDbLine
 62
7
  6
CONTINUOUS
 10
-3.7189316705
 20
-23.511618224
 11
-3.674124227
 21
-23.4668107805
  0
LINE
  5
463
100
AcDbEntity
  8
RACCORDO
100
AcDbLine
 62
253
  6
CONTINUOUS
 10
1.1637655926
 20
-19.1302870458
 11
1.0201771108
 21
-19.2738755276
  0
LINE
  5
464
100
AcDbEntity
  8
RACCORDO
100
AcDbLine
 62
253
  6
CONTINUOUS
 10
-9.883234451
 20
-18.7973154436
 11
-9.6856875844
 21
-18.7154888522
  0
LINE
  5
465
100
AcDbEntity
  8
RACCORDO
100
AcDbLine
 62
7
  6
CONTINUOUS
 10
9.7360475966
 20
13.843361043
 11
9.3829837068
 21
13.8403066725
  0
LINE
  5
466
100
AcDbEntity
  8
RACCORDO
100
AcDbLine
 62
7
  6
CONTINUOUS
 10
10.1932394984
 20
13.788381776
 11
9.3310588102
 21
13.788381776
  0
LINE
  5
467
100
AcDbEntity
  8
RACCORDO
100
AcDbLine
 62
7
  6
CONTINUOUS
 10
0.9510683295
 20
13.788381776
 11
1.2310778487
 21
13.788381776
  0
LINE
  5
468
100
AcDbEntity
  8
SMUSSO
100
AcDbLine
 62
7
  6
CONTINUOUS
 10
9.8010890624
 20
13.843361043
 11
9.7360475966
 21
13.843361043
  0
LINE
  5
469
100
AcDbEntity
  8
RACCORDO
100
AcDbLine
 62
253
  6
CONTINUOUS
 10
9.8010920833
 20
13.8739355424
 11
10.3643600636
 21
13.8739355424
  0
LINE
  5
46A
100
AcDbEntity
  8
RACCORDO
100
AcDbLine
 62
253
  6
CONTINUOUS
 10
9.8010890624
 20
14.2739203117
 11
10.3712811607
 21
14.2739203117
  0
LINE
  5
46B
100
AcDbEntity
  8
RACCORDO
100
AcDbLine
 62
253
  6
CONTINUOUS
 10
10.3712811607
 20
14.3028432403
 11
9.8010890624
 21
14.3028432403
  0
LINE
  5
46C
100
AcDbEntity
  8
RACCORDO
100
AcDbLine
 62
253
  6
CONTINUOUS
 10
10.3643600636
 20
14.7028280095
 11
9.8010890624
 21
14.7028280095
  0
LINE
  5
46D
100
AcDbEntity
  8
SMUSSO
100
AcDbLine
 62
7
  6
CONTINUOUS
 10
9.7360475966
 20
14.7334025089
 11
9.8010890624
 21
14.7334025089
  0
LINE
  5
46E
100
AcDbEntity
  8
RACCORDO
100
AcDbLine
 62
7
  6
CONTINUOUS
 10
0.9510683295
 20
14.788381776
 11
1.2310778487
 21
14.788381776
  0
LINE
  5
46F
100
AcDbEntity
  8
RACCORDO
100
AcDbLine
 62
7
  6
CONTINUOUS
 10
9.3310588102
 20
14.788381776
 11
10.1932394984
 21
14.788381776
  0
LINE
  5
470
100
AcDbEntity
  8
RACCORDO
100
AcDbLine
 62
7
  6
CONTINUOUS
 10
9.3829837068
 20
14.7364568794
 11
9.7360475966
 21
14.7334025089
  0
LINE
  5
471
100
AcDbEntity
  8
RACCORDO
100
AcDbLine
 62
253
  6
CONTINUOUS
 10
-9.5163734546
 20
19.2221201953
 11
-9.883234451
 21
19.3740789955
  0
LINE
  5
472
100
AcDbEntity
  8
RACCORDO
100
AcDbLine
 62
253
  6
CONTINUOUS
 10
0.9510683295
 20
18.0883900691
 11
0.8329955
 21
18.2064628986
  0
LINE
  5
473
100
AcDbEntity
  8
RACCORDO
100
AcDbLine
 62
253
  6
CONTINUOUS
 10
1.4510600363
 20
18.588381776
 11
1.3329872068
 21
18.7064546055
  0
LINE
  5
474
100
AcDbEntity
  8
RACCORDO
100
AcDbLine
 62
7
  6
CONTINUOUS
 10
-3.7189316705
 20
24.088381776
 11
-3.674124227
 21
24.0435743324
  0
LINE
  5
475
100
AcDbEntity
  8
RACCORDO
100
AcDbLine
 62
253
  6
CONTINUOUS
 10
11.0773038782
 20
-10.2059489028
 11
11.3169337642
 21
-10.0266739145
  0
LINE
  5
476
100
AcDbEntity
  8
RACCORDO
100
AcDbLine
 62
253
  6
CONTINUOUS
 10
6.4245742808
 20
-13.6023938949
 11
6.1810683312
 21
-13.7763677724
  0
LINE
  5
477
100
AcDbEntity
  8
RACCORDO
100
AcDbLine
 62
253
  6
CONTINUOUS
 10
6.6830554922
 20
-13.2713919304
 11
6.4320620427
 21
-13.4343774855
  0
LINE
  5
478
100
AcDbEntity
  8
RACCORDO
100
AcDbLine
 62
7
  6
CONTINUOUS
 10
2.9386393633
 20
16.3187041152
 11
7.550291234
 21
16.3186922233
  0
LINE
  5
479
100
AcDbEntity
  8
RACCORDO
100
AcDbLine
 62
7
  6
CONTINUOUS
 10
7.550291234
 20
16.3186922233
 11
7.5896202174
 21
16.3184738814
  0
LINE
  5
47A
100
AcDbEntity
  8
RACCORDO
100
AcDbLine
 62
253
  6
CONTINUOUS
 10
5.477815485
 20
18.1416441397
 11
5.5310778487
 21
18.088381776
  0
LINE
  5
47B
100
AcDbEntity
  8
RACCORDO
100
AcDbLine
 62
253
  6
CONTINUOUS
 10
9.1308116753
 20
14.4886479494
 11
9.0810683295
 21
14.5383912952
  0
LINE
  5
47C
100
AcDbEntity
  8
RACCORDO
100
AcDbLine
 62
253
  6
CONTINUOUS
 10
3.3715761665
 20
16.7302978641
 11
7.1905604924
 21
16.7302978641
  0
LINE
  5
47D
100
AcDbEntity
  8
RACCORDO
100
AcDbLine
 62
7
  6
CONTINUOUS
 10
-0.0209001593
 20
17.2883817683
 11
0.5336551065
 21
17.2883817756
  0
LINE
  5
47E
100
AcDbEntity
  8
DRAFT
100
AcDbLine
 62
253
  6
CONTINUOUS
 10
11.4642073331
 20
17.8081220245
 11
10.5510026884
 21
17.8081220245
  0
LINE
  5
47F
100
AcDbEntity
  8
RACCORDO
100
AcDbLine
 62
253
  6
CONTINUOUS
 10
-10.1020706741
 20
17.8081220245
 11
-9.102222979
 21
17.8081220245
  0
LINE
  5
480
100
AcDbEntity
  8
RACCORDO
100
AcDbLine
 62
7
  6
CONTINUOUS
 10
5.0310588102
 20
18.088381776
 11
5.5310778487
 21
18.088381776
  0
LINE
  5
481
100
AcDbEntity
  8
RACCORDO
100
AcDbLine
 62
7
  6
CONTINUOUS
 10
5.084321174
 20
18.1416441397
 11
5.477815485
 21
18.1416441397
  0
LINE
  5
482
100
AcDbEntity
  8
RACCORDO
100
AcDbLine
 62
7
  6
CONTINUOUS
 10
4.8421656742
 20
18.338381776
 11
5.7199709848
 21
18.338381776
  0
LINE
  5
483
100
AcDbEntity
  8
RACCORDO
100
AcDbLine
 62
7
  6
CONTINUOUS
 10
4.8378504163
 20
18.363381776
 11
5.7242862427
 21
18.363381776
  0
LINE
  5
484
100
AcDbEntity
  8
RACCORDO
100
AcDbLine
 62
253
  6
CONTINUOUS
 10
4.8686693766
 20
18.3942007363
 11
5.6934672824
 21
18.3942007363
  0
LINE
  5
485
100
AcDbEntity
  8
RACCORDO
100
AcDbLine
 62
7
  6
CONTINUOUS
 10
10.1932394984
 20
14.788381776
 11
10.3643600636
 21
14.7028280095
  0
LINE
  5
486
100
AcDbEntity
  8
RACCORDO
100
AcDbLine
 62
7
  6
CONTINUOUS
 10
5.692054278
 20
18.6471302082
 11
5.7810683295
 21
18.588381776
  0
LINE
  5
487
100
AcDbEntity
  8
RACCORDO
100
AcDbLine
 62
7
  6
CONTINUOUS
 10
5.7242862427
 20
18.363381776
 11
5.6934672824
 21
18.3942007363
  0
LINE
  5
488
100
AcDbEntity
  8
RACCORDO
100
AcDbLine
 62
253
  6
CONTINUOUS
 10
5.6939467329
 20
18.4254938533
 11
5.7810683295
 21
18.3383722567
  0
LINE
  5
489
100
AcDbEntity
  8
RACCORDO
100
AcDbLine
 62
253
  6
CONTINUOUS
 10
9.3829837068
 20
14.7364568794
 11
9.3310588102
 21
14.788381776
  0
LINE
  5
48A
100
AcDbEntity
  8
DRAFT
100
AcDbLine
 62
7
  6
CONTINUOUS
 10
8.6894635694
 20
-17.7934712915
 11
8.6809636179
 21
-17.801971243
  0
LINE
  5
48B
100
AcDbEntity
  8
DRAFT
100
AcDbLine
 62
7
  6
CONTINUOUS
 10
8.0810683295
 20
-19.411618224
 11
8.1700891606
 21
-19.3225973929
  0
LINE
  5
48C
100
AcDbEntity
  8
RACCORDO
100
AcDbLine
 62
253
  6
CONTINUOUS
 10
10.1715110282
 20
-17.938357558
 11
9.9794292355
 21
-18.1304393507
  0
LINE
  5
48D
100
AcDbEntity
  8
DRAFT
100
AcDbLine
 62
7
  6
CONTINUOUS
 10
8.7335342518
 20
-17.7534732623
 11
8.6894635694
 21
-17.7828533029
  0
LINE
  5
48E
100
AcDbEntity
  8
0
100
AcDbLine
 62
7
  6
CONTINUOUS
 10
8.7334678391
 20
-18.253574941
 11
8.6809883206
 21
-18.2885546394
  0
LINE
  5
48F
100
AcDbEntity
  8
RACCORDO
100
AcDbLine
 62
7
  6
CONTINUOUS
 10
9.6932136011
 20
18.588381776
 11
5.7810683295
 21
18.588381776
  0
LINE
  5
490
100
AcDbEntity
  8
RACCORDO
100
AcDbLine
 62
7
  6
CONTINUOUS
 10
4.7810683295
 20
18.588381776
 11
1.4510600363
 21
18.588381776
  0
LINE
  5
491
100
AcDbEntity
  8
RACCORDO
100
AcDbLine
 62
7
  6
CONTINUOUS
 10
4.8700823809
 20
18.6471302082
 11
5.692054278
 21
18.6471302082
  0
LINE
  5
492
100
AcDbEntity
  8
RACCORDO
100
AcDbLine
 62
7
  6
CONTINUOUS
 10
9.9801775326
 20
18.7064546055
 11
1.3329872068
 21
18.7064546055
  0
LINE
  5
493
100
AcDbEntity
  8
RACCORDO
100
AcDbLine
 62
253
  6
CONTINUOUS
 10
-8.6172925765
 20
18.7072029026
 11
9.9794292355
 21
18.7072029026
  0
LINE
  5
494
100
AcDbEntity
  8
RACCORDO
100
AcDbLine
 62
253
  6
CONTINUOUS
 10
-9.0314430522
 20
19.7070505977
 11
10.3935797111
 21
19.7070505977
  0
LINE
  5
495
100
AcDbEntity
  8
DRAFT
100
AcDbLine
 62
7
  6
CONTINUOUS
 10
10.4732372651
 20
19.8993609448
 11
8.1700891606
 21
19.8993609448
  0
LINE
  5
496
100
AcDbEntity
  8
DRAFT
100
AcDbLine
 62
7
  6
CONTINUOUS
 10
6.3420474983
 20
19.8993609448
 11
-4.9799108394
 21
19.8993609448
  0
LINE
  5
497
100
AcDbEntity
  8
DRAFT
100
AcDbLine
 62
7
  6
CONTINUOUS
 10
-6.8079525017
 20
19.8993609448
 11
-9.1111006061
 21
19.8993609448
  0
LINE
  5
498
100
AcDbEntity
  8
DRAFT
100
AcDbLine
 62
7
  6
CONTINUOUS
 10
-6.7189316705
 20
19.988381776
 11
-6.2761585948
 21
19.988381776
  0
LINE
  5
499
100
AcDbEntity
  8
DRAFT
100
AcDbLine
 62
7
  6
CONTINUOUS
 10
-5.6689316705
 20
19.988381776
 11
-5.0689316705
 21
19.988381776
  0
LINE
  5
49A
100
AcDbEntity
  8
RACCORDO
100
AcDbLine
 62
7
  6
CONTINUOUS
 10
-5.6689316705
 20
19.988381776
 11
-6.2761585948
 21
19.988381776
  0
LINE
  5
49B
100
AcDbEntity
  8
DRAFT
100
AcDbLine
 62
7
  6
CONTINUOUS
 10
6.4310683295
 20
19.988381776
 11
7.0310683295
 21
19.988381776
  0
LINE
  5
49C
100
AcDbEntity
  8
RACCORDO
100
AcDbLine
 62
7
  6
CONTINUOUS
 10
7.0310683295
 20
19.988381776
 11
7.6382952538
 21
19.988381776
  0
LINE
  5
49D
100
AcDbEntity
  8
DRAFT
100
AcDbLine
 62
7
  6
CONTINUOUS
 10
7.6382952538
 20
19.988381776
 11
8.0810683295
 21
19.988381776
  0
LINE
  5
49E
100
AcDbEntity
  8
DRAFT
100
AcDbLine
 62
7
  6
CONTINUOUS
 10
6.3420474983
 20
20.0993609448
 11
-4.9799108394
 21
20.0993609448
  0
LINE
  5
49F
100
AcDbEntity
  8
RACCORDO
100
AcDbLine
 62
7
  6
CONTINUOUS
 10
-1.7189316705
 20
20.1727687271
 11
3.0810683295
 21
20.1727687271
  0
LINE
  5
4A0
100
AcDbEntity
  8
RACCORDO
100
AcDbLine
 62
7
  6
CONTINUOUS
 10
-5.0689316705
 20
20.188381776
 11
-2.7121332811
 21
20.188381776
  0
LINE
  5
4A1
100
AcDbEntity
  8
RACCORDO
100
AcDbLine
 62
7
  6
CONTINUOUS
 10
4.07426994
 20
20.188381776
 11
6.4310683295
 21
20.188381776
  0
LINE
  5
4A2
100
AcDbEntity
  8
DRAFT
100
AcDbLine
 62
7
  6
CONTINUOUS
 10
8.0810683295
 20
19.988381776
 11
8.1700891606
 21
19.8993609448
  0
LINE
  5
4A3
100
AcDbEntity
  8
RACCORDO
100
AcDbLine
 62
253
  6
CONTINUOUS
 10
9.9794292355
 20
18.7072029026
 11
9.9801775326
 21
18.7064546055
  0
LINE
  5
4A4
100
AcDbEntity
  8
DRAFT
100
AcDbLine
 62
7
  6
CONTINUOUS
 10
8.0810683295
 20
-20.4760884059
 11
8.1700891606
 21
-20.3870675748
  0
LINE
  5
4A5
100
AcDbEntity
  8
RACCORDO
100
AcDbLine
 62
253
  6
CONTINUOUS
 10
10.8785101136
 20
-18.6453566434
 11
10.3935797111
 21
-19.1302870458
  0
LINE
  5
4A6
100
AcDbEntity
  8
DRAFT
100
AcDbLine
 62
7
  6
CONTINUOUS
 10
10.4732372651
 20
-19.3225973929
 11
9.4087670832
 21
-20.3870675748
  0
LINE
  5
4A7
100
AcDbEntity
  8
RACCORDO
100
AcDbLine
 62
253
  6
CONTINUOUS
 10
8.9310683295
 20
-20.9873084639
 11
8.7616628098
 21
-21.1567139836
  0
LINE
  5
4A8
100
AcDbEntity
  8
RACCORDO
100
AcDbLine
 62
253
  6
CONTINUOUS
 10
7.8155197055
 20
-22.1028913563
 11
7.8941376709
 21
-22.0242733908
  0
LINE
  5
4A9
100
AcDbEntity
  8
RACCORDO
100
AcDbLine
 62
7
  6
CONTINUOUS
 10
8.0276745864
 20
-22.0150119671
 11
8.8431546654
 21
-21.1995318881
  0
LINE
  5
4AA
100
AcDbEntity
  8
RACCORDO
100
AcDbLine
 62
7
  6
CONTINUOUS
 10
9.4810683295
 20
-20.561618224
 11
11.24537111
 21
-18.7973154436
  0
LINE
  5
4AB
100
AcDbEntity
  8
RACCORDO
100
AcDbLine
 62
7
  6
CONTINUOUS
 10
6.7310683295
 20
20.288381776
 11
4.1810683295
 21
20.288381776
  0
LINE
  5
4AC
100
AcDbEntity
  8
RACCORDO
100
AcDbLine
 62
7
  6
CONTINUOUS
 10
-2.8189316705
 20
20.288381776
 11
-5.3689316705
 21
20.288381776
  0
LINE
  5
4AD
100
AcDbEntity
  8
RACCORDO
100
AcDbLine
 62
253
  6
CONTINUOUS
 10
-5.3689316705
 20
20.288381776
 11
-6.6189316705
 21
20.288381776
  0
LINE
  5
4AE
100
AcDbEntity
  8
RACCORDO
100
AcDbLine
 62
253
  6
CONTINUOUS
 10
6.7310683295
 20
20.288381776
 11
7.9810683295
 21
20.288381776
  0
LINE
  5
4AF
100
AcDbEntity
  8
DRAFT
100
AcDbLine
 62
7
  6
CONTINUOUS
 10
-2.8189316705
 20
20.3416156695
 11
-1.7602427937
 21
20.3416156695
  0
LINE
  5
4B0
100
AcDbEntity
  8
DRAFT
100
AcDbLine
 62
7
  6
CONTINUOUS
 10
3.1223794526
 20
20.3416156695
 11
4.1810683295
 21
20.3416156695
  0
LINE
  5
4B1
100
AcDbEntity
  8
RACCORDO
100
AcDbLine
 62
7
  6
CONTINUOUS
 10
-5.6689316705
 20
20.3756504539
 11
7.0310683295
 21
20.3756504539
  0
LINE
  5
4B2
100
AcDbEntity
  8
DRAFT
100
AcDbLine
 62
7
  6
CONTINUOUS
 10
9.4087670832
 20
20.9638311267
 11
8.1700891606
 21
20.9638311267
  0
LINE
  5
4B3
100
AcDbEntity
  8
DRAFT
100
AcDbLine
 62
7
  6
CONTINUOUS
 10
-6.8079525017
 20
20.9638311267
 11
-8.0466304243
 21
20.9638311267
  0
LINE
  5
4B4
100
AcDbEntity
  8
0
100
AcDbLine
 62
7
  6
CONTINUOUS
 10
-8.2189316705
 20
21.038381776
 11
-9.0689316705
 21
21.038381776
  0
LINE
  5
4B5
100
AcDbEntity
  8
0
100
AcDbLine
 62
7
  6
CONTINUOUS
 10
9.5810683295
 20
21.038381776
 11
10.4310683295
 21
21.038381776
  0
LINE
  5
4B6
100
AcDbEntity
  8
DRAFT
100
AcDbLine
 62
7
  6
CONTINUOUS
 10
9.4810683295
 20
21.138381776
 11
8.1665981476
 21
21.138381776
  0
LINE
  5
4B7
100
AcDbEntity
  8
DRAFT
100
AcDbLine
 62
7
  6
CONTINUOUS
 10
-6.8044614887
 20
21.138381776
 11
-8.1189316705
 21
21.138381776
  0
LINE
  5
4B8
100
AcDbEntity
  8
RACCORDO
100
AcDbLine
 62
7
  6
CONTINUOUS
 10
8.6310226311
 20
21.188381776
 11
8.4617085013
 21
21.188381776
  0
LINE
  5
4B9
100
AcDbEntity
  8
RACCORDO
100
AcDbLine
 62
7
  6
CONTINUOUS
 10
-7.2688859721
 20
21.188381776
 11
-7.0995718423
 21
21.188381776
  0
LINE
  5
4BA
100
AcDbEntity
  8
RACCORDO
100
AcDbLine
 62
7
  6
CONTINUOUS
 10
-7.0943353228
 20
21.188381776
 11
-6.2342696294
 21
21.188381776
  0
LINE
  5
4BB
100
AcDbEntity
  8
RACCORDO
100
AcDbLine
 62
7
  6
CONTINUOUS
 10
7.5964062884
 20
21.188381776
 11
8.4564719818
 21
21.188381776
  0
LINE
  5
4BC
100
AcDbEntity
  8
0
100
AcDbLine
 62
7
  6
CONTINUOUS
 10
-2.3189316705
 20
21.288381776
 11
3.6810683295
 21
21.288381776
  0
LINE
  5
4BD
100
AcDbEntity
  8
RACCORDO
100
AcDbLine
 62
253
  6
CONTINUOUS
 10
8.9310683295
 20
21.488381776
 11
8.7616628098
 21
21.488381776
  0
LINE
  5
4BE
100
AcDbEntity
  8
RACCORDO
100
AcDbLine
 62
253
  6
CONTINUOUS
 10
-7.5689316705
 20
21.488381776
 11
-7.3995261509
 21
21.488381776
  0
LINE
  5
4BF
100
AcDbEntity
  8
RACCORDO
100
AcDbLine
 62
253
  6
CONTINUOUS
 10
8.4617085013
 20
21.6010750197
 11
3.6810683295
 21
21.6010750197
  0
LINE
  5
4C0
100
AcDbEntity
  8
RACCORDO
100
AcDbLine
 62
253
  6
CONTINUOUS
 10
-2.3189316705
 20
21.6010750197
 11
-7.0995718423
 21
21.6010750197
  0
LINE
  5
4C1
100
AcDbEntity
  8
0
100
AcDbLine
 62
7
  6
CONTINUOUS
 10
-2.3189316705
 20
21.988381776
 11
3.6810683295
 21
21.988381776
  0
LINE
  5
4C2
100
AcDbEntity
  8
DRAFT
100
AcDbLine
 62
7
  6
CONTINUOUS
 10
8.0810683295
 20
21.0528519578
 11
8.1700891606
 21
20.9638311267
  0
LINE
  5
4C3
100
AcDbEntity
  8
RACCORDO
100
AcDbLine
 62
253
  6
CONTINUOUS
 10
10.3935797111
 20
19.7070505977
 11
10.8785101136
 21
19.2221201953
  0
LINE
  5
4C4
100
AcDbEntity
  8
DRAFT
100
AcDbLine
 62
7
  6
CONTINUOUS
 10
10.4732372651
 20
19.8993609448
 11
9.4087670832
 21
20.9638311267
  0
LINE
  5
4C5
100
AcDbEntity
  8
RACCORDO
100
AcDbLine
 62
253
  6
CONTINUOUS
 10
8.9310683295
 20
21.5640720158
 11
8.7616628098
 21
21.7334775355
  0
LINE
  5
4C6
100
AcDbEntity
  8
RACCORDO
100
AcDbLine
 62
253
  6
CONTINUOUS
 10
7.8155197055
 20
22.6796549082
 11
7.8941376709
 21
22.6010369427
  0
LINE
  5
4C7
100
AcDbEntity
  8
RACCORDO
100
AcDbLine
 62
7
  6
CONTINUOUS
 10
11.24537111
 20
19.3740789955
 11
9.4810683295
 21
21.138381776
  0
LINE
  5
4C8
100
AcDbEntity
  8
RACCORDO
100
AcDbLine
 62
7
  6
CONTINUOUS
 10
8.8431546654
 20
21.77629544
 11
8.0276745864
 21
22.591775519
  0
LINE
  5
4C9
100
AcDbEntity
  8
RACCORDO
100
AcDbLine
 62
7
  6
CONTINUOUS
 10
8.9810683295
 20
-24.111618224
 11
8.9854401635
 21
-24.10724639
  0
LINE
  5
4CA
100
AcDbEntity
  8
RACCORDO
100
AcDbLine
 62
253
  6
CONTINUOUS
 10
7.8941376709
 20
22.6010369427
 11
3.6810683295
 21
22.6010369427
  0
LINE
  5
4CB
100
AcDbEntity
  8
RACCORDO
100
AcDbLine
 62
253
  6
CONTINUOUS
 10
-2.3189316705
 20
22.6010369427
 11
-6.532001012
 21
22.6010369427
  0
LINE
  5
4CC
100
AcDbEntity
  8
RACCORDO
100
AcDbLine
 62
7
  6
CONTINUOUS
 10
-3.374129304
 20
22.6185668336
 11
-3.1189316705
 21
22.6185668336
  0
LINE
  5
4CD
100
AcDbEntity
  8
RACCORDO
100
AcDbLine
 62
7
  6
CONTINUOUS
 10
4.4810683295
 20
22.6185668336
 11
4.7362659629
 21
22.6185668336
  0
LINE
  5
4CE
100
AcDbEntity
  8
DRAFT
100
AcDbLine
 62
7
  6
CONTINUOUS
 10
-2.8189316705
 20
22.6264210146
 11
-2.3189316705
 21
22.6264210146
  0
LINE
  5
4CF
100
AcDbEntity
  8
DRAFT
100
AcDbLine
 62
7
  6
CONTINUOUS
 10
3.6810683295
 20
22.6264210146
 11
4.1810683295
 21
22.6264210146
  0
LINE
  5
4D0
100
AcDbEntity
  8
RACCORDO
100
AcDbLine
 62
7
  6
CONTINUOUS
 10
-10.1189316705
 20
22.6796549082
 11
-6.4533830465
 21
22.6796549082
  0
LINE
  5
4D1
100
AcDbEntity
  8
RACCORDO
100
AcDbLine
 62
7
  6
CONTINUOUS
 10
7.8155197055
 20
22.6796549082
 11
11.4810683295
 21
22.6796549082
  0
LINE
  5
4D2
100
AcDbEntity
  8
RACCORDO
100
AcDbLine
 62
7
  6
CONTINUOUS
 10
-10.1189316705
 20
22.688381776
 11
-9.9189316705
 21
22.688381776
  0
LINE
  5
4D3
100
AcDbEntity
  8
DRAFT
100
AcDbLine
 62
7
  6
CONTINUOUS
 10
-9.9189316705
 20
22.688381776
 11
-3.7189316705
 21
22.688381776
  0
LINE
  5
4D4
100
AcDbEntity
  8
DRAFT
100
AcDbLine
 62
7
  6
CONTINUOUS
 10
5.0810683295
 20
22.688381776
 11
11.2810683295
 21
22.688381776
  0
LINE
  5
4D5
100
AcDbEntity
  8
RACCORDO
100
AcDbLine
 62
7
  6
CONTINUOUS
 10
11.2810683295
 20
22.688381776
 11
11.4810683295
 21
22.688381776
  0
LINE
  5
4D6
100
AcDbEntity
  8
RACCORDO
100
AcDbLine
 62
253
  6
CONTINUOUS
 10
11.2810683295
 20
23.2666939395
 11
8.9810683295
 21
23.2666939395
  0
LINE
  5
4D7
100
AcDbEntity
  8
RACCORDO
100
AcDbLine
 62
253
  6
CONTINUOUS
 10
-7.6189316705
 20
23.2666939395
 11
-9.9189316705
 21
23.2666939395
  0
LINE
  5
4D8
100
AcDbEntity
  8
RACCORDO
100
AcDbLine
 62
253
  6
CONTINUOUS
 10
11.2803411007
 20
23.4832002904
 11
8.9817955582
 21
23.4832002904
  0
LINE
  5
4D9
100
AcDbEntity
  8
RACCORDO
100
AcDbLine
 62
253
  6
CONTINUOUS
 10
-7.6196588993
 20
23.4832002904
 11
-9.9182044418
 21
23.4832002904
  0
LINE
  5
4DA
100
AcDbEntity
  8
RACCORDO
100
AcDbLine
 62
7
  6
CONTINUOUS
 10
8.9810683295
 20
24.688381776
 11
8.9854401635
 21
24.684009942
  0
LINE
  5
4DB
100
AcDbEntity
  8
RACCORDO
100
AcDbLine
 62
253
  6
CONTINUOUS
 10
-9.9138410694
 20
23.9162129923
 11
-7.6240222716
 21
23.9162129923
  0
LINE
  5
4DC
100
AcDbEntity
  8
RACCORDO
100
AcDbLine
 62
253
  6
CONTINUOUS
 10
8.9861589306
 20
23.9162129923
 11
11.2759777284
 21
23.9162129923
  0
LINE
  5
4DD
100
AcDbEntity
  8
RACCORDO
100
AcDbLine
 62
7
  6
CONTINUOUS
 10
4.7362659629
 20
24.0418391375
 11
4.4810683295
 21
24.0418391375
  0
LINE
  5
4DE
100
AcDbEntity
  8
RACCORDO
100
AcDbLine
 62
7
  6
CONTINUOUS
 10
-3.1189316705
 20
24.0418391375
 11
-3.374129304
 21
24.0418391375
  0
LINE
  5
4DF
100
AcDbEntity
  8
DRAFT
100
AcDbLine
 62
7
  6
CONTINUOUS
 10
-2.8189316705
 20
24.0825639461
 11
4.1810683295
 21
24.0825639461
  0
LINE
  5
4E0
100
AcDbEntity
  8
DRAFT
100
AcDbLine
 62
7
  6
CONTINUOUS
 10
5.0810683295
 20
24.088381776
 11
-3.7189316705
 21
24.088381776
  0
LINE
  5
4E1
100
AcDbEntity
  8
RACCORDO
100
AcDbLine
 62
253
  6
CONTINUOUS
 10
-9.9131138407
 20
24.1327193433
 11
-7.6247495003
 21
24.1327193433
  0
LINE
  5
4E2
100
AcDbEntity
  8
RACCORDO
100
AcDbLine
 62
253
  6
CONTINUOUS
 10
8.9868861593
 20
24.1327193433
 11
11.2752504997
 21
24.1327193433
  0
LINE
  5
4E3
100
AcDbEntity
  8
RACCORDO
100
AcDbLine
 62
253
  6
CONTINUOUS
 10
11.2752504997
 20
24.4340141727
 11
8.9868861593
 21
24.4340141727
  0
LINE
  5
4E4
100
AcDbEntity
  8
RACCORDO
100
AcDbLine
 62
253
  6
CONTINUOUS
 10
-7.6247495003
 20
24.4340141727
 11
-9.9131138407
 21
24.4340141727
  0
LINE
  5
4E5
100
AcDbEntity
  8
RACCORDO
100
AcDbLine
 62
253
  6
CONTINUOUS
 10
11.2766964955
 20
24.684009942
 11
8.9854401635
 21
24.684009942
  0
LINE
  5
4E6
100
AcDbEntity
  8
RACCORDO
100
AcDbLine
 62
253
  6
CONTINUOUS
 10
-7.6233035045
 20
24.684009942
 11
-9.9145598365
 21
24.684009942
  0
LINE
  5
4E7
100
AcDbEntity
  8
DRAFT
100
AcDbLine
 62
7
  6
CONTINUOUS
 10
11.2810683295
 20
24.688381776
 11
8.9810683295
 21
24.688381776
  0
LINE
  5
4E8
100
AcDbEntity
  8
DRAFT
100
AcDbLine
 62
7
  6
CONTINUOUS
 10
-7.6189316705
 20
24.688381776
 11
-9.9189316705
 21
24.688381776
  0
ARC
  5
4E9
100
AcDbEntity
  8
RACCORDO
100
AcDbCircle
 62
7
  6
CONTINUOUS
 10
-182.7361383386
 20
-2.8231510894
 40
183.5691350361
100
AcDbArc
 50
359.9934554378
 51
0.1758156176
  0
ARC
  5
4EA
100
AcDbEntity
  8
RACCORDO
100
AcDbCircle
 62
7
  6
CONTINUOUS
 10
-182.7360955318
 20
0.5999145917
 40
183.5690922293
100
AcDbArc
 50
359.8241843355
 51
0.0065445792
  0
ARC
  5
4EB
100
AcDbEntity
  8
RACCORDO
100
AcDbCircle
 62
253
  6
CONTINUOUS
 10
-77.0685320344
 20
-2.1577425767
 40
77.8943946616
100
AcDbArc
 50
1.350335134
 51
1.6035839973
  0
ARC
  5
4EC
100
AcDbEntity
  8
RACCORDO
100
AcDbCircle
 62
253
  6
CONTINUOUS
 10
-66.7299347319
 20
-0.3319782594
 40
67.5523923916
100
AcDbArc
 50
358.3769604459
 51
358.6689817267
  0
ARC
  5
4ED
100
AcDbEntity
  8
RACCORDO
100
AcDbCircle
 62
253
  6
CONTINUOUS
 10
-30.2405191941
 20
-3.4062680678
 40
20.536211817
100
AcDbArc
 50
10.6061345097
 51
11.2951837794
  0
ARC
  5
4EE
100
AcDbEntity
  8
RACCORDO
100
AcDbCircle
 62
253
  6
CONTINUOUS
 10
-29.379422356
 20
1.0164143324
 40
19.6591599457
100
AcDbArc
 50
348.6894632795
 51
349.4092545958
  0
ARC
  5
4EF
100
AcDbEntity
  8
RACCORDO
100
AcDbCircle
 62
253
  6
CONTINUOUS
 10
-23.8156742224
 20
-0.6247218309
 40
13.9215243306
100
AcDbArc
 50
5.3500496315
 51
6.2017303292
  0
ARC
  5
4F0
100
AcDbEntity
  8
RACCORDO
100
AcDbCircle
 62
253
  6
CONTINUOUS
 10
-23.7012639744
 20
-1.6101031929
 40
13.8065319189
100
AcDbArc
 50
353.7947877744
 51
354.6535629534
  0
ARC
  5
4F1
100
AcDbEntity
  8
RACCORDO
100
AcDbCircle
 62
7
  6
CONTINUOUS
 10
-15.191995642
 20
-20.9294049797
 40
21.7217183221
100
AcDbArc
 50
75.5499392531
 51
76.320880105
  0
ARC
  5
4F2
100
AcDbEntity
  8
RACCORDO
100
AcDbCircle
 62
7
  6
CONTINUOUS
 10
-10.1189240495
 20
-21.7616121314
 40
0.350006664
100
AcDbArc
 50
179.99881568
 51
269.9987524488
  0
ARC
  5
4F3
100
AcDbEntity
  8
RACCORDO
100
AcDbCircle
 62
7
  6
CONTINUOUS
 10
-7.0861379448
 20
-21.1511452806
 40
0.3134405926
100
AcDbArc
 50
181.0180013055
 51
224.9572914863
  0
ARC
  5
4F4
100
AcDbEntity
  8
RACCORDO
100
AcDbCircle
 62
7
  6
CONTINUOUS
 10
-6.5268436531
 20
-21.7119671617
 40
0.3123543042
100
AcDbArc
 50
224.9965910816
 51
269.0539156391
  0
ARC
  5
4F5
100
AcDbEntity
  8
RACCORDO
100
AcDbCircle
 62
7
  6
CONTINUOUS
 10
7.88898032
 20
-21.7119671584
 40
0.3123543042
100
AcDbArc
 50
270.9460828933
 51
315.0034074575
  0
ARC
  5
4F6
100
AcDbEntity
  8
RACCORDO
100
AcDbCircle
 62
7
  6
CONTINUOUS
 10
7.0310683295
 20
-19.711618224
 40
0.3
100
AcDbArc
 50
90.0
 51
180.0
  0
ARC
  5
4F7
100
AcDbEntity
  8
RACCORDO
100
AcDbCircle
 62
7
  6
CONTINUOUS
 10
-5.6689316705
 20
-19.711618224
 40
0.3
100
AcDbArc
 50
0.0
 51
90.0
  0
ARC
  5
4F8
100
AcDbEntity
  8
RACCORDO
100
AcDbCircle
 62
253
  6
CONTINUOUS
 10
7.59639978
 20
-19.7116120001
 40
0.2999942886
100
AcDbArc
 50
359.9988112921
 51
89.998756955
  0
ARC
  5
4F9
100
AcDbEntity
  8
RACCORDO
100
AcDbCircle
 62
253
  6
CONTINUOUS
 10
-6.2342630594
 20
-19.7116119993
 40
0.2999942886
100
AcDbArc
 50
90.0012548145
 51
180.0011888612
  0
ARC
  5
4FA
100
AcDbEntity
  8
RACCORDO
100
AcDbCircle
 62
7
  6
CONTINUOUS
 10
-7.0943189279
 20
-20.9113048695
 40
0.2996869941
100
AcDbArc
 50
91.004331998
 51
93.7842073811
  0
ARC
  5
4FB
100
AcDbEntity
  8
RACCORDO
100
AcDbCircle
 62
7
  6
CONTINUOUS
 10
6.0763393022
 20
-11.8988960396
 40
5.2228597597
100
AcDbArc
 50
14.4586922146
 51
15.1642909044
  0
ARC
  5
4FC
100
AcDbEntity
  8
RACCORDO
100
AcDbCircle
 62
7
  6
CONTINUOUS
 10
6.0763393718
 20
-11.7243404269
 40
5.2228596878
100
AcDbArc
 50
344.8357090908
 51
345.5413077902
  0
ARC
  5
4FD
100
AcDbEntity
  8
0
100
AcDbCircle
 62
7
  6
CONTINUOUS
 10
2.4949275372
 20
-16.9984430484
 40
3.6367864649
100
AcDbArc
 50
84.0941030778
 51
85.2704951259
  0
ARC
  5
4FE
100
AcDbEntity
  8
RACCORDO
100
AcDbCircle
 62
253
  6
CONTINUOUS
 10
3.6560154664
 20
-12.0611485503
 40
3.416425249
100
AcDbArc
 50
132.5702284938
 51
138.026623417
  0
ARC
  5
4FF
100
AcDbEntity
  8
RACCORDO
100
AcDbCircle
 62
253
  6
CONTINUOUS
 10
3.4310683295
 20
-11.811618224
 40
3.3797545258
100
AcDbArc
 50
35.5440761467
 51
132.6285590753
  0
ARC
  5
500
100
AcDbEntity
  8
RACCORDO
100
AcDbCircle
 62
253
  6
CONTINUOUS
 10
3.4310683295
 20
-11.811618224
 40
3.3797545258
100
AcDbArc
 50
227.867462604
 51
324.4559238491
  0
ARC
  5
501
100
AcDbEntity
  8
RACCORDO
100
AcDbCircle
 62
253
  6
CONTINUOUS
 10
3.4310683295
 20
-11.811618224
 40
3.0804853108
100
AcDbArc
 50
227.8674255628
 51
324.4559234623
  0
ARC
  5
502
100
AcDbEntity
  8
RACCORDO
100
AcDbCircle
 62
253
  6
CONTINUOUS
 10
3.4310683295
 20
-11.811618224
 40
3.0804853108
100
AcDbArc
 50
35.5440765329
 51
132.6286980204
  0
ARC
  5
503
100
AcDbEntity
  8
RACCORDO
100
AcDbCircle
 62
253
  6
CONTINUOUS
 10
3.4310683295
 20
-11.811618224
 40
2.9796610653
100
AcDbArc
 50
32.9981809808
 51
327.0018621983
  0
ARC
  5
504
100
AcDbEntity
  8
RACCORDO
100
AcDbCircle
 62
253
  6
CONTINUOUS
 10
3.4310683295
 20
-11.811618224
 40
2.6803918503
100
AcDbArc
 50
32.998155288
 51
327.0018447757
  0
CIRCLE
  5
505
100
AcDbEntity
  8
RACCORDO
100
AcDbCircle
 62
253
  6
CONTINUOUS
 10
3.4310683295
 20
-11.811618224
 40
2.4328850864
  0
CIRCLE
  5
506
100
AcDbEntity
  8
RACCORDO
100
AcDbCircle
 62
253
  6
CONTINUOUS
 10
3.4310683295
 20
-11.811618224
 40
2.1351212409
  0
ARC
  5
507
100
AcDbEntity
  8
RACCORDO
100
AcDbCircle
 62
253
  6
CONTINUOUS
 10
-8.2713848373
 20
-17.3013645218
 40
1.9999999706
100
AcDbArc
 50
180.0036142072
 51
224.9963857928
  0
CIRCLE
  5
508
100
AcDbEntity
  8
DRAFT
100
AcDbCircle
 62
7
  6
CONTINUOUS
 10
3.4310683295
 20
-11.811618224
 40
1.75
  0
ARC
  5
509
100
AcDbEntity
  8
RACCORDO
100
AcDbCircle
 62
253
  6
CONTINUOUS
 10
-0.3359115745
 20
-9.5785989999
 40
1.4996734573
100
AcDbArc
 50
9.7383125002
 51
90.0036056582
  0
ARC
  5
50A
100
AcDbEntity
  8
0
100
AcDbCircle
 62
7
  6
CONTINUOUS
 10
2.5328416021
 20
-14.761618224
 40
1.4
100
AcDbArc
 50
75.8
 51
86.207915294
  0
ARC
  5
50B
100
AcDbEntity
  8
RACCORDO
100
AcDbCircle
 62
253
  6
CONTINUOUS
 10
1.1641311771
 20
-18.1300737661
 40
1.0002157485
100
AcDbArc
 50
180.0209419829
 51
269.9790580171
  0
ARC
  5
50C
100
AcDbEntity
  8
RACCORDO
100
AcDbCircle
 62
253
  6
CONTINUOUS
 10
1.0205426954
 20
-18.2736622479
 40
1.0002157485
100
AcDbArc
 50
180.0209419829
 51
269.9790580171
  0
ARC
  5
50D
100
AcDbEntity
  8
RACCORDO
100
AcDbCircle
 62
253
  6
CONTINUOUS
 10
-9.2454458762
 20
-8.2221438581
 40
1.0002157485
100
AcDbArc
 50
180.0209419829
 51
269.9790580171
  0
ARC
  5
50E
100
AcDbEntity
  8
RACCORDO
100
AcDbCircle
 62
253
  6
CONTINUOUS
 10
-9.1018573945
 20
-8.0785553764
 40
1.0002157485
100
AcDbArc
 50
180.0209419833
 51
269.9790580167
  0
ARC
  5
50F
100
AcDbEntity
  8
RACCORDO
100
AcDbCircle
 62
253
  6
CONTINUOUS
 10
-8.271701959
 20
-17.3014958779
 40
0.9998351499
100
AcDbArc
 50
179.9997022169
 51
225.0002977831
  0
ARC
  5
510
100
AcDbEntity
  8
RACCORDO
100
AcDbCircle
 62
253
  6
CONTINUOUS
 10
-0.4797771176
 20
-9.7224636712
 40
0.5001077272
100
AcDbArc
 50
0.0209297839
 51
89.9790702161
  0
ARC
  5
511
100
AcDbEntity
  8
RACCORDO
100
AcDbCircle
 62
253
  6
CONTINUOUS
 10
-0.3355502392
 20
-9.5782367927
 40
0.4994624521
100
AcDbArc
 50
359.9477237752
 51
90.0522762249
  0
ARC
  5
512
100
AcDbEntity
  8
RACCORDO
100
AcDbCircle
 62
7
  6
CONTINUOUS
 10
16.7066322763
 20
-32.2381247858
 40
22.3492362273
100
AcDbArc
 50
103.689943222
 51
104.4392374199
  0
ARC
  5
513
100
AcDbEntity
  8
RACCORDO
100
AcDbCircle
 62
7
  6
CONTINUOUS
 10
11.4810607359
 20
-21.7616121588
 40
0.350006664
100
AcDbArc
 50
270.0012430565
 51
0.0011888146
  0
ARC
  5
514
100
AcDbEntity
  8
RACCORDO
100
AcDbCircle
 62
7
  6
CONTINUOUS
 10
8.4482746076
 20
-21.1511452827
 40
0.3134405926
100
AcDbArc
 50
315.0427082899
 51
358.9819990691
  0
ARC
  5
515
100
AcDbEntity
  8
RACCORDO
100
AcDbCircle
 62
7
  6
CONTINUOUS
 10
8.4564555869
 20
-20.9113048695
 40
0.2996869941
100
AcDbArc
 50
86.2157926189
 51
88.995668002
  0
ARC
  5
516
100
AcDbEntity
  8
RACCORDO
100
AcDbCircle
 62
253
  6
CONTINUOUS
 10
31.6027894787
 20
-9.5169423635
 40
20.5363479545
100
AcDbArc
 50
190.6061373293
 51
191.2951819989
  0
ARC
  5
517
100
AcDbEntity
  8
RACCORDO
100
AcDbCircle
 62
253
  6
CONTINUOUS
 10
30.7417901238
 20
-13.9397043881
 40
19.6593970241
100
AcDbArc
 50
168.6894429944
 51
169.4092239779
  0
ARC
  5
518
100
AcDbEntity
  8
RACCORDO
100
AcDbCircle
 62
253
  6
CONTINUOUS
 10
25.1765557022
 20
-12.2986335744
 40
13.9202635546
100
AcDbArc
 50
185.3500439699
 51
186.2018013631
  0
ARC
  5
519
100
AcDbEntity
  8
RACCORDO
100
AcDbCircle
 62
253
  6
CONTINUOUS
 10
25.0733703313
 20
-11.3141813747
 40
13.8165561627
100
AcDbArc
 50
173.794936661
 51
174.6530865306
  0
ARC
  5
51A
100
AcDbEntity
  8
RACCORDO
100
AcDbCircle
 62
253
  6
CONTINUOUS
 10
8.9310683295
 20
-11.811618224
 40
3.3797545258
100
AcDbArc
 50
63.0206929645
 51
144.455923852
  0
ARC
  5
51B
100
AcDbEntity
  8
RACCORDO
100
AcDbCircle
 62
253
  6
CONTINUOUS
 10
8.9310683295
 20
-11.811618224
 40
3.3797545258
100
AcDbArc
 50
215.5440761498
 51
296.979306993
  0
ARC
  5
51C
100
AcDbEntity
  8
0
100
AcDbCircle
 62
7
  6
CONTINUOUS
 10
9.3409632512
 20
-16.7164751882
 40
3.3536109337
100
AcDbArc
 50
94.7125376574
 51
96.0079992824
  0
ARC
  5
51D
100
AcDbEntity
  8
RACCORDO
100
AcDbCircle
 62
253
  6
CONTINUOUS
 10
8.9310683295
 20
-11.811618224
 40
3.0804853108
100
AcDbArc
 50
215.5440765409
 51
296.9793556318
  0
ARC
  5
51E
100
AcDbEntity
  8
RACCORDO
100
AcDbCircle
 62
253
  6
CONTINUOUS
 10
8.9310683295
 20
-11.811618224
 40
3.0804853108
100
AcDbArc
 50
63.0206443682
 51
144.4559234703
  0
ARC
  5
51F
100
AcDbEntity
  8
RACCORDO
100
AcDbCircle
 62
253
  6
CONTINUOUS
 10
8.9310683295
 20
-11.811618224
 40
2.9796610653
100
AcDbArc
 50
212.9981809757
 51
323.1986333076
  0
ARC
  5
520
100
AcDbEntity
  8
RACCORDO
100
AcDbCircle
 62
253
  6
CONTINUOUS
 10
8.9310683295
 20
-11.811618224
 40
2.9796610653
100
AcDbArc
 50
36.8013709908
 51
147.0018621933
  0
ARC
  5
521
100
AcDbEntity
  8
RACCORDO
100
AcDbCircle
 62
7
  6
CONTINUOUS
 10
8.9310683295
 20
-11.811618224
 40
2.8
100
AcDbArc
 50
332.6192098778
 51
27.3807901222
  0
ARC
  5
522
100
AcDbEntity
  8
RACCORDO
100
AcDbCircle
 62
253
  6
CONTINUOUS
 10
8.9310683295
 20
-11.811618224
 40
2.6803918503
100
AcDbArc
 50
212.9981552821
 51
323.1986341589
  0
ARC
  5
523
100
AcDbEntity
  8
RACCORDO
100
AcDbCircle
 62
253
  6
CONTINUOUS
 10
8.9310683295
 20
-11.811618224
 40
2.6803918503
100
AcDbArc
 50
36.8013692377
 51
147.0018447698
  0
ARC
  5
524
100
AcDbEntity
  8
RACCORDO
100
AcDbCircle
 62
253
  6
CONTINUOUS
 10
8.9310683295
 20
-11.811618224
 40
2.5328850864
100
AcDbArc
 50
30.3274350156
 51
329.672564984
  0
ARC
  5
525
100
AcDbEntity
  8
RACCORDO
100
AcDbCircle
 62
7
  6
CONTINUOUS
 10
8.9310683295
 20
-11.811618224
 40
2.5164425432
100
AcDbArc
 50
331.0837798565
 51
28.9162201436
  0
CIRCLE
  5
526
100
AcDbEntity
  8
RACCORDO
100
AcDbCircle
 62
253
  6
CONTINUOUS
 10
8.9310683295
 20
-11.811618224
 40
2.2351212409
  0
ARC
  5
527
100
AcDbEntity
  8
RACCORDO
100
AcDbCircle
 62
253
  6
CONTINUOUS
 10
9.4642073665
 20
-17.2312323129
 40
1.9999999706
100
AcDbArc
 50
315.0036142072
 51
359.9963857928
  0
CIRCLE
  5
528
100
AcDbEntity
  8
DRAFT
100
AcDbCircle
 62
7
  6
CONTINUOUS
 10
8.9310683295
 20
-11.811618224
 40
1.85
  0
ARC
  5
529
100
AcDbEntity
  8
0
100
AcDbCircle
 62
7
  6
CONTINUOUS
 10
9.3292950568
 20
-14.761618224
 40
1.4
100
AcDbArc
 50
90.0
 51
104.2
  0
ARC
  5
52A
100
AcDbEntity
  8
RACCORDO
100
AcDbCircle
 62
253
  6
CONTINUOUS
 10
9.4645244881
 20
-17.231363669
 40
0.9998351499
100
AcDbArc
 50
314.9997022169
 51
0.0002977831
  0
ARC
  5
52B
100
AcDbEntity
  8
DRAFT
100
AcDbCircle
 62
7
  6
CONTINUOUS
 10
8.6791446478
 20
-5.5504626219
 40
0.7917429433
100
AcDbArc
 50
225.1360868082
 51
247.8823261189
  0
ARC
  5
52C
100
AcDbEntity
  8
RACCORDO
100
AcDbCircle
 62
253
  6
CONTINUOUS
 10
10.9178534765
 20
-13.2962697899
 40
0.4994395913
100
AcDbArc
 50
323.0399452512
 51
359.9399163452
  0
ARC
  5
52D
100
AcDbEntity
  8
RACCORDO
100
AcDbCircle
 62
253
  6
CONTINUOUS
 10
10.9178534811
 20
-10.3269664683
 40
0.4994395845
100
AcDbArc
 50
0.0600830024
 51
36.9600634103
  0
ARC
  5
52E
100
AcDbEntity
  8
RACCORDO
100
AcDbCircle
 62
253
  6
CONTINUOUS
 10
9.5586612612
 20
-10.5340252924
 40
0.4425285096
100
AcDbArc
 50
0.0
 51
32.6739449738
  0
ARC
  5
52F
100
AcDbEntity
  8
RACCORDO
100
AcDbCircle
 62
253
  6
CONTINUOUS
 10
10.9161955091
 20
-13.2968622254
 40
0.2011420949
100
AcDbArc
 50
323.2226578499
 51
0.0195680502
  0
ARC
  5
530
100
AcDbEntity
  8
RACCORDO
100
AcDbCircle
 62
253
  6
CONTINUOUS
 10
10.9161960485
 20
-10.3263739525
 40
0.2011415556
100
AcDbArc
 50
359.9804074026
 51
36.7774177571
  0
ARC
  5
531
100
AcDbEntity
  8
RACCORDO
100
AcDbCircle
 62
253
  6
CONTINUOUS
 10
-9.5557168554
 20
-2.5962696995
 40
0.4994395546
100
AcDbArc
 50
180.0600816131
 51
216.9600483944
  0
ARC
  5
532
100
AcDbEntity
  8
RACCORDO
100
AcDbCircle
 62
253
  6
CONTINUOUS
 10
-9.5540585289
 20
-2.5968620577
 40
0.2011424161
100
AcDbArc
 50
179.9804489233
 51
216.7772965611
  0
ARC
  5
533
100
AcDbEntity
  8
RACCORDO
100
AcDbCircle
 62
7
  6
CONTINUOUS
 10
-4.7142026411
 20
-1.024340408
 40
5.222859762
100
AcDbArc
 50
194.4586922147
 51
195.1642909042
  0
ARC
  5
534
100
AcDbEntity
  8
RACCORDO
100
AcDbCircle
 62
7
  6
CONTINUOUS
 10
-4.7142027143
 20
-1.1988960208
 40
5.2228596863
100
AcDbArc
 50
164.8357090907
 51
165.5413077904
  0
ARC
  5
535
100
AcDbEntity
  8
RACCORDO
100
AcDbCircle
 62
253
  6
CONTINUOUS
 10
-7.5689316705
 20
-1.111618224
 40
3.3797545258
100
AcDbArc
 50
243.0206929646
 51
324.4559231778
  0
ARC
  5
536
100
AcDbEntity
  8
RACCORDO
100
AcDbCircle
 62
253
  6
CONTINUOUS
 10
-2.0689316705
 20
-1.111618224
 40
3.3797545258
100
AcDbArc
 50
215.5440768148
 51
329.1620652596
  0
ARC
  5
537
100
AcDbEntity
  8
RACCORDO
100
AcDbCircle
 62
253
  6
CONTINUOUS
 10
-2.0689316705
 20
-1.111618224
 40
3.3797545258
100
AcDbArc
 50
30.8379347404
 51
144.4559231811
  0
ARC
  5
538
100
AcDbEntity
  8
RACCORDO
100
AcDbCircle
 62
253
  6
CONTINUOUS
 10
-7.5689316705
 20
-1.111618224
 40
3.3797545258
100
AcDbArc
 50
35.5440768123
 51
116.9793129153
  0
ARC
  5
539
100
AcDbEntity
  8
RACCORDO
100
AcDbCircle
 62
253
  6
CONTINUOUS
 10
-2.0689316705
 20
-1.111618224
 40
3.0804853108
100
AcDbArc
 50
21.5936609364
 51
144.4559216689
  0
ARC
  5
53A
100
AcDbEntity
  8
RACCORDO
100
AcDbCircle
 62
253
  6
CONTINUOUS
 10
-2.0689316705
 20
-1.111618224
 40
3.0804853108
100
AcDbArc
 50
215.5440783494
 51
338.4063130718
  0
ARC
  5
53B
100
AcDbEntity
  8
RACCORDO
100
AcDbCircle
 62
253
  6
CONTINUOUS
 10
-7.5689316705
 20
-1.111618224
 40
3.0804853108
100
AcDbArc
 50
35.5440783369
 51
116.9793556318
  0
ARC
  5
53C
100
AcDbEntity
  8
RACCORDO
100
AcDbCircle
 62
253
  6
CONTINUOUS
 10
-7.5689316705
 20
-1.111618224
 40
3.0804853108
100
AcDbArc
 50
243.0206443682
 51
324.4559216247
  0
ARC
  5
53D
100
AcDbEntity
  8
RACCORDO
100
AcDbCircle
 62
253
  6
CONTINUOUS
 10
-2.0689316705
 20
-1.111618224
 40
2.9796610653
100
AcDbArc
 50
15.3648504336
 51
147.0018647007
  0
ARC
  5
53E
100
AcDbEntity
  8
RACCORDO
100
AcDbCircle
 62
253
  6
CONTINUOUS
 10
-2.0689316705
 20
-1.111618224
 40
2.9796610653
100
AcDbArc
 50
212.9981784571
 51
344.6351455699
  0
ARC
  5
53F
100
AcDbEntity
  8
RACCORDO
100
AcDbCircle
 62
253
  6
CONTINUOUS
 10
-7.5689316705
 20
-1.111618224
 40
2.9796610653
100
AcDbArc
 50
32.9981784532
 51
143.198634081
  0
ARC
  5
540
100
AcDbEntity
  8
RACCORDO
100
AcDbCircle
 62
253
  6
CONTINUOUS
 10
-7.5689316705
 20
-1.111618224
 40
2.9796610653
100
AcDbArc
 50
216.8013636896
 51
327.0018646968
  0
ARC
  5
541
100
AcDbEntity
  8
RACCORDO
100
AcDbCircle
 62
7
  6
CONTINUOUS
 10
-7.5689316705
 20
-1.111618224
 40
2.8
100
AcDbArc
 50
152.6192098778
 51
207.3807901222
  0
ARC
  5
542
100
AcDbEntity
  8
RACCORDO
100
AcDbCircle
 62
253
  6
CONTINUOUS
 10
-2.0689316705
 20
-1.111618224
 40
2.6803918503
100
AcDbArc
 50
15.3648518152
 51
147.001847661
  0
ARC
  5
543
100
AcDbEntity
  8
RACCORDO
100
AcDbCircle
 62
253
  6
CONTINUOUS
 10
-2.0689316705
 20
-1.111618224
 40
2.6803918503
100
AcDbArc
 50
212.9981523733
 51
344.6351436973
  0
ARC
  5
544
100
AcDbEntity
  8
RACCORDO
100
AcDbCircle
 62
253
  6
CONTINUOUS
 10
-7.5689316705
 20
-1.111618224
 40
2.6803918503
100
AcDbArc
 50
216.8013636603
 51
327.0018476567
  0
ARC
  5
545
100
AcDbEntity
  8
RACCORDO
100
AcDbCircle
 62
253
  6
CONTINUOUS
 10
-7.5689316705
 20
-1.111618224
 40
2.6803918503
100
AcDbArc
 50
32.9981523689
 51
143.1986347747
  0
ARC
  5
546
100
AcDbEntity
  8
RACCORDO
100
AcDbCircle
 62
253
  6
CONTINUOUS
 10
-7.5689316705
 20
-1.111618224
 40
2.5328850864
100
AcDbArc
 50
210.3274350156
 51
149.672564984
  0
ARC
  5
547
100
AcDbEntity
  8
RACCORDO
100
AcDbCircle
 62
7
  6
CONTINUOUS
 10
-7.5689316705
 20
-1.111618224
 40
2.5164425432
100
AcDbArc
 50
151.0837798565
 51
208.9162201436
  0
CIRCLE
  5
548
100
AcDbEntity
  8
RACCORDO
100
AcDbCircle
 62
253
  6
CONTINUOUS
 10
-2.0689316705
 20
-1.111618224
 40
2.4328850864
  0
CIRCLE
  5
549
100
AcDbEntity
  8
RACCORDO
100
AcDbCircle
 62
253
  6
CONTINUOUS
 10
-7.5689316705
 20
-1.111618224
 40
2.2351212409
  0
CIRCLE
  5
54A
100
AcDbEntity
  8
RACCORDO
100
AcDbCircle
 62
253
  6
CONTINUOUS
 10
-2.0689316705
 20
-1.111618224
 40
2.1351212409
  0
CIRCLE
  5
54B
100
AcDbEntity
  8
DRAFT
100
AcDbCircle
 62
7
  6
CONTINUOUS
 10
-7.5689316705
 20
-1.111618224
 40
1.85
  0
CIRCLE
  5
54C
100
AcDbEntity
  8
DRAFT
100
AcDbCircle
 62
7
  6
CONTINUOUS
 10
-2.0689316705
 20
-1.111618224
 40
1.75
  0
ARC
  5
54D
100
AcDbEntity
  8
RACCORDO
100
AcDbCircle
 62
253
  6
CONTINUOUS
 10
-9.5557168167
 20
0.3730333092
 40
0.4994395931
100
AcDbArc
 50
143.0399469718
 51
179.9399164558
  0
ARC
  5
54E
100
AcDbEntity
  8
0
100
AcDbCircle
 62
7
  6
CONTINUOUS
 10
-8.1241242678
 20
-1.1038457108
 40
0.41333374
100
AcDbArc
 50
110.191868917
 51
112.7813495381
  0
ARC
  5
54F
100
AcDbEntity
  8
RACCORDO
100
AcDbCircle
 62
253
  6
CONTINUOUS
 10
-9.5540587518
 20
0.3736257282
 40
0.2011421932
100
AcDbArc
 50
143.222671621
 51
180.0195636214
  0
ARC
  5
550
100
AcDbEntity
  8
RACCORDO
100
AcDbCircle
 62
7
  6
CONTINUOUS
 10
10.0508082042
 20
-4.6117402679
 40
0.500191615
100
AcDbArc
 50
325.770669218
 51
0.0127757268
  0
ARC
  5
551
100
AcDbEntity
  8
RACCORDO
100
AcDbCircle
 62
253
  6
CONTINUOUS
 10
0.3000003534
 20
-2.0532674578
 40
0.5312774863
100
AcDbArc
 50
338.8098830878
 51
0.0594387071
  0
ARC
  5
552
100
AcDbEntity
  8
RACCORDO
100
AcDbCircle
 62
253
  6
CONTINUOUS
 10
0.300002763
 20
-0.1699686718
 40
0.5312750769
100
AcDbArc
 50
359.940533711
 51
21.1900193512
  0
ARC
  5
553
100
AcDbEntity
  8
RACCORDO
100
AcDbCircle
 62
253
  6
CONTINUOUS
 10
0.3281719283
 20
-1.7654209046
 40
0.4950223979
100
AcDbArc
 50
344.0895992307
 51
359.9508656801
  0
ARC
  5
554
100
AcDbEntity
  8
RACCORDO
100
AcDbCircle
 62
253
  6
CONTINUOUS
 10
0.3281719637
 20
-0.4578157533
 40
0.4950223626
100
AcDbArc
 50
0.0491360481
 51
15.9103990724
  0
ARC
  5
555
100
AcDbEntity
  8
RACCORDO
100
AcDbCircle
 62
253
  6
CONTINUOUS
 10
0.3117503808
 20
-0.4573757585
 40
0.2114487383
100
AcDbArc
 50
359.9963184744
 51
15.348038618
  0
ARC
  5
556
100
AcDbEntity
  8
RACCORDO
100
AcDbCircle
 62
253
  6
CONTINUOUS
 10
0.3120296222
 20
-1.7658983962
 40
0.2111695025
100
AcDbArc
 50
344.6417165894
 51
0.0138642434
  0
ARC
  5
557
100
AcDbEntity
  8
RACCORDO
100
AcDbCircle
 62
253
  6
CONTINUOUS
 10
33.2152731291
 20
-1.2265806467
 40
32.4012103681
100
AcDbArc
 50
178.1322151266
 51
178.6396976054
  0
ARC
  5
558
100
AcDbEntity
  8
RACCORDO
100
AcDbCircle
 62
253
  6
CONTINUOUS
 10
32.5583944247
 20
-1.015164462
 40
31.7440775379
100
AcDbArc
 50
181.3550513876
 51
181.8730389014
  0
ARC
  5
559
100
AcDbEntity
  8
RACCORDO
100
AcDbCircle
 62
7
  6
CONTINUOUS
 10
16.5541323009
 20
8.0061685315
 40
21.7217183219
100
AcDbArc
 50
255.5499392531
 51
256.320880105
  0
ARC
  5
55A
100
AcDbEntity
  8
RACCORDO
100
AcDbCircle
 62
7
  6
CONTINUOUS
 10
-15.344495618
 20
19.31488834
 40
22.3492362297
100
AcDbArc
 50
283.689943222
 51
284.4392374198
  0
ARC
  5
55B
100
AcDbEntity
  8
DRAFT
100
AcDbCircle
 62
7
  6
CONTINUOUS
 10
0.750070852
 20
13.2529272838
 40
4.9310058515
100
AcDbArc
 50
336.5334326922
 51
359.9940610901
  0
ARC
  5
55C
100
AcDbEntity
  8
0
100
AcDbCircle
 62
7
  6
CONTINUOUS
 10
0.756118636
 20
13.5692418331
 40
4.9249488557
100
AcDbArc
 50
356.3183233296
 51
358.1858528673
  0
CIRCLE
  5
55D
100
AcDbEntity
  8
0
100
AcDbCircle
 62
7
  6
CONTINUOUS
 10
5.2810683295
 20
14.288381776
 40
3.1
  0
ARC
  5
55E
100
AcDbEntity
  8
DRAFT
100
AcDbCircle
 62
7
  6
CONTINUOUS
 10
5.2810683295
 20
14.288381776
 40
2.75
100
AcDbArc
 50
275.9835833773
 51
303.1626682835
  0
ARC
  5
55F
100
AcDbEntity
  8
DRAFT
100
AcDbCircle
 62
7
  6
CONTINUOUS
 10
6.8810683295
 20
9.788381776
 40
2.2
100
AcDbArc
 50
126.6530786358
 51
140.4192907667
  0
ARC
  5
560
100
AcDbEntity
  8
DRAFT
100
AcDbCircle
 62
7
  6
CONTINUOUS
 10
6.8810683295
 20
9.788381776
 40
2.2
100
AcDbArc
 50
90.0
 51
92.493173025
  0
ARC
  5
561
100
AcDbEntity
  8
RACCORDO
100
AcDbCircle
 62
253
  6
CONTINUOUS
 10
9.4642073665
 20
17.8079958648
 40
1.9999999706
100
AcDbArc
 50
0.0036142072
 51
44.9963857928
  0
ARC
  5
562
100
AcDbEntity
  8
RACCORDO
100
AcDbCircle
 62
253
  6
CONTINUOUS
 10
-8.1020707075
 20
17.8079958648
 40
1.9999999706
100
AcDbArc
 50
135.0036142072
 51
179.9963857928
  0
ARC
  5
563
100
AcDbEntity
  8
RACCORDO
100
AcDbCircle
 62
253
  6
CONTINUOUS
 10
9.8625877944
 20
10.3726870926
 40
1.0001822171
100
AcDbArc
 50
269.999438789
 51
300.5706672996
  0
ARC
  5
564
100
AcDbEntity
  8
RACCORDO
100
AcDbCircle
 62
253
  6
CONTINUOUS
 10
1.395173117
 20
10.372498382
 40
0.9999935066
100
AcDbArc
 50
239.810835848
 51
270.000098874
  0
ARC
  5
565
100
AcDbEntity
  8
RACCORDO
100
AcDbCircle
 62
253
  6
CONTINUOUS
 10
-8.1023878291
 20
17.8081272209
 40
0.9998351499
100
AcDbArc
 50
134.9997022169
 51
180.0002977831
  0
ARC
  5
566
100
AcDbEntity
  8
RACCORDO
100
AcDbCircle
 62
7
  6
CONTINUOUS
 10
10.0500124929
 20
18.205839969
 40
0.5008413645
100
AcDbArc
 50
0.0669220891
 51
60.3740693529
  0
ARC
  5
567
100
AcDbEntity
  8
RACCORDO
100
AcDbCircle
 62
253
  6
CONTINUOUS
 10
1.3951484002
 20
10.3724618466
 40
0.4999648481
100
AcDbArc
 50
179.996986966
 51
270.0033157746
  0
ARC
  5
568
100
AcDbEntity
  8
RACCORDO
100
AcDbCircle
 62
253
  6
CONTINUOUS
 10
9.8627716807
 20
10.3724541648
 40
0.4999447577
100
AcDbArc
 50
269.977546905
 51
359.996104921
  0
ARC
  5
569
100
AcDbEntity
  8
RACCORDO
100
AcDbCircle
 62
7
  6
CONTINUOUS
 10
10.0508759649
 20
18.2073326544
 40
0.4991147424
100
AcDbArc
 50
60.375527744
 51
89.9834055614
  0
ARC
  5
56A
100
AcDbEntity
  8
SMUSSO
100
AcDbCircle
 62
7
  6
CONTINUOUS
 10
9.8010890624
 20
14.288381776
 40
0.4450207329
100
AcDbArc
 50
90.0
 51
98.4040982003
  0
ARC
  5
56B
100
AcDbEntity
  8
SMUSSO
100
AcDbCircle
 62
7
  6
CONTINUOUS
 10
9.8010890624
 20
14.288381776
 40
0.4450207329
100
AcDbArc
 50
261.5959017997
 51
270.0
  0
ARC
  5
56C
100
AcDbEntity
  8
SMUSSO
100
AcDbCircle
 62
7
  6
CONTINUOUS
 10
9.7972221915
 20
14.2883817732
 40
0.4444687583
100
AcDbArc
 50
97.9110385514
 51
262.0889614486
  0
ARC
  5
56D
100
AcDbEntity
  8
RACCORDO
100
AcDbCircle
 62
253
  6
CONTINUOUS
 10
9.8010890624
 20
14.288381776
 40
0.4144462335
100
AcDbArc
 50
90.0
 51
270.0004176261
  0
ARC
  5
56E
100
AcDbEntity
  8
RACCORDO
100
AcDbCircle
 62
7
  6
CONTINUOUS
 10
-10.1189240069
 20
22.3383757104
 40
0.350006664
100
AcDbArc
 50
90.001254533
 51
180.0011887604
  0
ARC
  5
56F
100
AcDbEntity
  8
RACCORDO
100
AcDbCircle
 62
7
  6
CONTINUOUS
 10
11.4810607358
 20
22.3383757109
 40
0.350006664
100
AcDbArc
 50
359.9988111601
 51
89.9987569182
  0
ARC
  5
570
100
AcDbEntity
  8
RACCORDO
100
AcDbCircle
 62
7
  6
CONTINUOUS
 10
-7.086137946
 20
21.7279088297
 40
0.3134405926
100
AcDbArc
 50
135.0427080004
 51
178.9819981814
  0
ARC
  5
571
100
AcDbEntity
  8
RACCORDO
100
AcDbCircle
 62
7
  6
CONTINUOUS
 10
8.4482746088
 20
21.7279088318
 40
0.3134405926
100
AcDbArc
 50
1.0180014439
 51
44.9572922232
  0
ARC
  5
572
100
AcDbEntity
  8
RACCORDO
100
AcDbCircle
 62
7
  6
CONTINUOUS
 10
7.8888434186
 20
22.288505789
 40
0.3126125459
100
AcDbArc
 50
45.0080026098
 51
65.3798661871
  0
ARC
  5
573
100
AcDbEntity
  8
RACCORDO
100
AcDbCircle
 62
7
  6
CONTINUOUS
 10
-6.5268436527
 20
22.2887307127
 40
0.3123543042
100
AcDbArc
 50
90.9460844322
 51
135.0034088472
  0
ARC
  5
574
100
AcDbEntity
  8
RACCORDO
100
AcDbCircle
 62
7
  6
CONTINUOUS
 10
7.8891283865
 20
22.2893589674
 40
0.3117182273
100
AcDbArc
 50
65.3621522379
 51
89.0792222522
  0
ARC
  5
575
100
AcDbEntity
  8
RACCORDO
100
AcDbCircle
 62
7
  6
CONTINUOUS
 10
7.0310683295
 20
20.288381776
 40
0.3
100
AcDbArc
 50
180.0
 51
270.0
  0
ARC
  5
576
100
AcDbEntity
  8
RACCORDO
100
AcDbCircle
 62
7
  6
CONTINUOUS
 10
-5.6689316705
 20
20.288381776
 40
0.3
100
AcDbArc
 50
270.0
 51
360.0
  0
ARC
  5
577
100
AcDbEntity
  8
RACCORDO
100
AcDbCircle
 62
253
  6
CONTINUOUS
 10
7.5963997791
 20
20.2883755511
 40
0.2999942886
100
AcDbArc
 50
270.0012432073
 51
0.0011888741
  0
ARC
  5
578
100
AcDbEntity
  8
RACCORDO
100
AcDbCircle
 62
253
  6
CONTINUOUS
 10
-6.2342630976
 20
20.2883755757
 40
0.2999942886
100
AcDbArc
 50
179.9988158112
 51
269.9987524864
  0
ARC
  5
579
100
AcDbEntity
  8
RACCORDO
100
AcDbCircle
 62
7
  6
CONTINUOUS
 10
-7.0943189279
 20
21.4880684214
 40
0.2996869941
100
AcDbArc
 50
266.2157926189
 51
268.995668002
  0
ARC
  5
57A
100
AcDbEntity
  8
RACCORDO
100
AcDbCircle
 62
7
  6
CONTINUOUS
 10
8.4564555869
 20
21.4880684214
 40
0.2996869941
100
AcDbArc
 50
271.004331998
 51
273.7842073811
  0
ARC
  5
57B
100
AcDbEntity
  8
RACCORDO
100
AcDbCircle
 62
253
  6
CONTINUOUS
 10
9.8010890665
 20
14.288381776
 40
0.0144614643
100
AcDbArc
 50
90.0000161446
 51
269.9999838554
  0
ARC
  5
57C
100
AcDbEntity
  8
RACCORDO
100
AcDbCircle
 62
7
  6
CONTINUOUS
 10
140.4051557309
 20
9.4781691038
 40
139.5128390516
100
AcDbArc
 50
179.6327143978
 51
179.9876938459
  0
SPLINE
  5
57D
100
AcDbEntity
  8
RACCORDO
100
AcDbSpline
 62
7
  6
CONTINUOUS
 70
0
 71
3
 72
14
 73
10
 74
8
 42
0.0000001
 43
0.0000001
 44
0.0000000001
 12
-0.3940320363
 22
0.0
 32
0.0
 13
-0.1227651272
 23
-0.3744195096
 33
0.0
 40
0.0
 40
0.0
 40
0.0
 40
0.0
 40
0.0824315749
 40
0.1711240556
 40
0.270826974
 40
0.3846122441
 40
0.5141638616
 40
0.6601285239
 40
1.0
 40
1.0
 40
1.0
 40
1.0
 10
-8.9208138412
 20
-1.011618224
 30
0.0
 10
-8.931640735
 20
-1.011618224
 30
0.0
 10
-8.954231669
 20
-1.0151511836
 30
0.0
 10
-8.9867791141
 20
-1.0303924918
 30
0.0
 10
-9.018202984
 20
-1.055068727
 30
0.0
 10
-9.048414863
 20
-1.0887189401
 30
0.0
 10
-9.0773033687
 20
-1.1310513213
 30
0.0
 10
-9.1157558502
 20
-1.2022609475
 30
0.0
 10
-9.1387527566
 20
-1.2620932724
 30
0.0
 10
-9.1526608783
 20
-1.3045114429
 30
0.0
 11
-8.9208138412
 21
-1.011618224
 31
0.0
 11
-8.9529351163
 21
-1.0164367656
 31
0.0
 11
-8.9847799937
 21
-1.0308327384
 31
0.0
 11
-9.0159973045
 21
-1.0546839567
 31
0.0
 11
-9.0462885931
 21
-1.0877387415
 31
0.0
 11
-9.0753714131
 21
-1.1296915195
 31
0.0
 11
-9.1029751957
 21
-1.1801492048
 31
0.0
 11
-9.1526608783
 21
-1.3045114429
 31
0.0
  0
SPLINE
  5
57E
100
AcDbEntity
  8
0
100
AcDbSpline
 62
7
  6
CONTINUOUS
 70
0
 71
3
 72
9
 73
5
 74
3
 42
0.0000001
 43
0.0000001
 44
0.0000000001
 12
0.1053978133
 22
0.1594475509
 32
0.0
 13
0.1685458162
 23
0.0901361659
 33
0.0
 40
0.0
 40
0.0
 40
0.0
 40
0.0
 40
0.2520465294
 40
1.0
 40
1.0
 40
1.0
 40
1.0
 10
-1.3593175003
 20
-0.8673984627
 30
0.0
 10
-1.3504624493
 20
-0.8540023954
 30
0.0
 10
-1.3120251431
 20
-0.8031121308
 30
0.0
 10
-1.2609531466
 20
-0.7617729374
 30
0.0
 10
-1.2189316705
 20
-0.7393003847
 30
0.0
 11
-1.3593175003
 21
-0.8673984627
 31
0.0
 11
-1.3302838203
 21
-0.8289557215
 31
0.0
 11
-1.2189316705
 21
-0.7393003847
 31
0.0
  0
SPLINE
  5
57F
100
AcDbEntity
  8
0
100
AcDbSpline
 62
7
  6
CONTINUOUS
 70
0
 71
3
 72
8
 73
4
 74
2
 42
0.0000001
 43
0.0000001
 44
0.0000000001
 12
0.0776856549
 22
-0.0326321297
 32
0.0
 13
0.0842610045
 23
0.0
 33
0.0
 40
0.0
 40
0.0
 40
0.0
 40
0.0
 40
1.0
 40
1.0
 40
1.0
 40
1.0
 10
-0.8536898472
 20
-0.7227564484
 30
0.0
 10
-0.8277946289
 20
-0.733633825
 30
0.0
 10
-0.799155937
 20
-0.7393003847
 30
0.0
 10
-0.7710689355
 20
-0.7393003847
 30
0.0
 11
-0.8536898472
 21
-0.7227564484
 31
0.0
 11
-0.7710689355
 21
-0.7393003847
 31
0.0
  0
SPLINE
  5
580
100
AcDbEntity
  8
0
100
AcDbSpline
 62
7
  6
CONTINUOUS
 70
0
 71
3
 72
8
 73
4
 74
2
 42
0.0000001
 43
0.0000001
 44
0.0000000001
 12
0.0842610045
 22
0.0
 32
0.0
 13
0.0776856549
 23
0.0326321297
 33
0.0
 40
0.0
 40
0.0
 40
0.0
 40
0.0
 40
1.0
 40
1.0
 40
1.0
 40
1.0
 10
-8.3667944055
 20
-0.7393003847
 30
0.0
 10
-8.338707404
 20
-0.7393003847
 30
0.0
 10
-8.3100687122
 20
-0.733633825
 30
0.0
 10
-8.2841734939
 20
-0.7227564484
 30
0.0
 11
-8.3667944055
 21
-0.7393003847
 31
0.0
 11
-8.2841734939
 21
-0.7227564484
 31
0.0
  0
SPLINE
  5
581
100
AcDbEntity
  8
0
100
AcDbSpline
 62
7
  6
CONTINUOUS
 70
0
 71
3
 72
8
 73
4
 74
2
 42
0.0000001
 43
0.0000001
 44
0.0000000001
 12
0.1409374155
 22
0.0518414647
 32
0.0
 13
0.150169546
 23
0.0
 33
0.0
 40
0.0
 40
0.0
 40
0.0
 40
0.0
 40
1.0
 40
1.0
 40
1.0
 40
1.0
 10
-8.2667926124
 20
-0.7159146291
 30
0.0
 10
-8.2198134739
 20
-0.6986341409
 30
0.0
 10
-8.1689881859
 20
-0.6896842187
 30
0.0
 10
-8.1189316705
 20
-0.6896842187
 30
0.0
 11
-8.2667926124
 21
-0.7159146291
 31
0.0
 11
-8.1189316705
 21
-0.6896842187
 31
0.0
  0
SPLINE
  5
582
100
AcDbEntity
  8
0
100
AcDbSpline
 62
7
  6
CONTINUOUS
 70
0
 71
3
 72
9
 73
5
 74
3
 42
0.0000001
 43
0.0000001
 44
0.0000000001
 12
0.2072137289
 22
0.0
 32
0.0
 13
0.1827252089
 23
-0.0977191253
 33
0.0
 40
0.0
 40
0.0
 40
0.0
 40
0.0
 40
0.2523895772
 40
1.0
 40
1.0
 40
1.0
 40
1.0
 10
-8.1189316705
 20
-0.6896842187
 30
0.0
 10
-8.1014988087
 20
-0.6896842187
 30
0.0
 10
-8.0325005983
 20
-0.6939142515
 30
0.0
 10
-7.9644674274
 20
-0.7149484392
 30
0.0
 10
-7.9189316705
 20
-0.7393003847
 30
0.0
 11
-8.1189316705
 21
-0.6896842187
 31
0.0
 11
-8.0667314239
 21
-0.6928898841
 31
0.0
 11
-7.9189316705
 21
-0.7393003847
 31
0.0
  0
SPLINE
  5
583
100
AcDbEntity
  8
0
100
AcDbSpline
 62
7
  6
CONTINUOUS
 70
0
 71
3
 72
9
 73
5
 74
3
 42
0.0000001
 43
0.0000001
 44
0.0000000001
 12
0.1685458162
 22
-0.0901361659
 32
0.0
 13
0.1053978133
 23
-0.1594475509
 33
0.0
 40
0.0
 40
0.0
 40
0.0
 40
0.0
 40
0.7479534706
 40
1.0
 40
1.0
 40
1.0
 40
1.0
 10
-7.9189316705
 20
-0.7393003847
 30
0.0
 10
-7.8769101945
 20
-0.7617729374
 30
0.0
 10
-7.8258381979
 20
-0.8031121308
 30
0.0
 10
-7.7874008918
 20
-0.8540023954
 30
0.0
 10
-7.7785458408
 20
-0.8673984627
 30
0.0
 11
-7.9189316705
 21
-0.7393003847
 31
0.0
 11
-7.8075795207
 21
-0.8289557215
 31
0.0
 11
-7.7785458408
 21
-0.8673984627
 31
0.0
  0
SPLINE
  5
584
100
AcDbEntity
  8
0
100
AcDbSpline
 62
7
  6
CONTINUOUS
 70
0
 71
3
 72
9
 73
5
 74
3
 42
0.0000001
 43
0.0000001
 44
0.0000000001
 12
0.1827252089
 22
0.0977191253
 32
0.0
 13
0.2072137289
 23
0.0
 33
0.0
 40
0.0
 40
0.0
 40
0.0
 40
0.0
 40
0.7476104228
 40
1.0
 40
1.0
 40
1.0
 40
1.0
 10
-1.2189316705
 20
-0.7393003847
 30
0.0
 10
-1.1733959136
 20
-0.7149484392
 30
0.0
 10
-1.1053627427
 20
-0.6939142515
 30
0.0
 10
-1.0363645323
 20
-0.6896842187
 30
0.0
 10
-1.0189316705
 20
-0.6896842187
 30
0.0
 11
-1.2189316705
 21
-0.7393003847
 31
0.0
 11
-1.0711319171
 21
-0.6928898841
 31
0.0
 11
-1.0189316705
 21
-0.6896842187
 31
0.0
  0
SPLINE
  5
585
100
AcDbEntity
  8
0
100
AcDbSpline
 62
7
  6
CONTINUOUS
 70
0
 71
3
 72
8
 73
4
 74
2
 42
0.0000001
 43
0.0000001
 44
0.0000000001
 12
0.1685189383
 22
0.0
 32
0.0
 13
0.1553684788
 23
-0.0652630703
 33
0.0
 40
0.0
 40
0.0
 40
0.0
 40
0.0
 40
1.0
 40
1.0
 40
1.0
 40
1.0
 10
-1.0189316705
 20
-0.6896842187
 30
0.0
 10
-0.9627586911
 20
-0.6896842187
 30
0.0
 10
-0.9054793401
 20
-0.7010020917
 30
0.0
 10
-0.8536898472
 20
-0.7227564484
 30
0.0
 11
-1.0189316705
 21
-0.6896842187
 31
0.0
 11
-0.8536898472
 21
-0.7227564484
 31
0.0
  0
SPLINE
  5
586
100
AcDbEntity
  8
0
100
AcDbSpline
 62
7
  6
CONTINUOUS
 70
0
 71
3
 72
9
 73
5
 74
3
 42
0.0000001
 43
0.0000001
 44
0.0000000001
 12
-0.0060923503
 22
-0.0349240865
 32
0.0
 13
-0.035384841
 23
0.0021729186
 33
0.0
 40
0.0
 40
0.0
 40
0.0
 40
0.0
 40
0.2952654954
 40
1.0
 40
1.0
 40
1.0
 40
1.0
 10
3.1311204709
 20
-13.4434278719
 30
0.0
 10
3.1305208506
 20
-13.4468651645
 30
0.0
 10
3.1147408835
 20
-13.4493098909
 30
0.0
 10
3.1050653428
 20
-13.4489217438
 30
0.0
 10
3.0967530367
 20
-13.4484113002
 30
0.0
 11
3.1311204709
 21
-13.4434278719
 31
0.0
 11
3.1217344853
 21
-13.4480618764
 31
0.0
 11
3.0967530367
 21
-13.4484113002
 31
0.0
  0
SPLINE
  5
587
100
AcDbEntity
  8
0
100
AcDbSpline
 62
7
  6
CONTINUOUS
 70
0
 71
3
 72
9
 73
5
 74
3
 42
0.0000001
 43
0.0000001
 44
0.0000000001
 12
-0.0109386747
 22
0.0015690127
 32
0.0
 13
-0.0018934343
 23
0.0108872087
 33
0.0
 40
0.0
 40
0.0
 40
0.0
 40
0.0
 40
0.3706957604
 40
1.0
 40
1.0
 40
1.0
 40
1.0
 10
8.7407461543
 20
-13.4481249359
 30
0.0
 10
8.7393945142
 20
-13.4479310604
 30
0.0
 10
8.7360309865
 20
-13.4473194653
 30
0.0
 10
8.731399837
 20
-13.4456694017
 30
0.0
 10
8.7310026549
 20
-13.4433856129
 30
0.0
 11
8.7407461543
 21
-13.4481249359
 31
0.0
 11
8.7367266326
 21
-13.4473349275
 31
0.0
 11
8.7310026549
 21
-13.4433856129
 31
0.0
  0
SPLINE
  5
588
100
AcDbEntity
  8
0
100
AcDbSpline
 62
7
  6
CONTINUOUS
 70
0
 71
3
 72
9
 73
5
 74
3
 42
0.0000001
 43
0.0000001
 44
0.0000000001
 12
0.0654670523
 22
-0.0068467064
 32
0.0
 13
0.0652448119
 23
-0.008713601
 33
0.0
 40
0.0
 40
0.0
 40
0.0
 40
0.0
 40
0.2620884677
 40
1.0
 40
1.0
 40
1.0
 40
1.0
 10
2.8691343596
 20
-13.380959801
 30
0.0
 10
2.874853746
 20
-13.3815579486
 30
0.0
 10
2.8966690276
 20
-13.3839063602
 30
0.0
 10
2.9184552511
 20
-13.3865316105
 30
0.0
 10
2.9345035508
 20
-13.3886748994
 30
0.0
 11
2.8691343596
 21
-13.380959801
 31
0.0
 11
2.8862868175
 21
-13.3828079479
 31
0.0
 11
2.9345035508
 21
-13.3886748994
 31
0.0
  0
SPLINE
  5
589
100
AcDbEntity
  8
0
100
AcDbSpline
 62
7
  6
CONTINUOUS
 70
0
 71
3
 72
9
 73
5
 74
3
 42
0.0000001
 43
0.0000001
 44
0.0000000001
 12
0.0572105852
 22
-0.0076406108
 32
0.0
 13
0.0568855251
 23
-0.0097707226
 33
0.0
 40
0.0
 40
0.0
 40
0.0
 40
0.0
 40
0.2635584767
 40
1.0
 40
1.0
 40
1.0
 40
1.0
 10
2.9345035508
 20
-13.3886748994
 30
0.0
 10
2.9395296624
 20
-13.3893461487
 30
0.0
 10
2.9585892371
 20
-13.3919709304
 30
0.0
 10
2.9776060037
 20
-13.3949139386
 30
0.0
 10
2.9915702913
 20
-13.3973124605
 30
0.0
 11
2.9345035508
 21
-13.3886748994
 31
0.0
 11
2.9495733138
 21
-13.3907518206
 31
0.0
 11
2.9915702913
 21
-13.3973124605
 31
0.0
  0
SPLINE
  5
58A
100
AcDbEntity
  8
0
100
AcDbSpline
 62
7
  6
CONTINUOUS
 70
0
 71
3
 72
9
 73
5
 74
3
 42
0.0000001
 43
0.0000001
 44
0.0000000001
 12
0.1189115903
 22
-0.0204243902
 32
0.0
 13
0.1111056288
 23
-0.0470389335
 33
0.0
 40
0.0
 40
0.0
 40
0.0
 40
0.0
 40
0.3124140615
 40
1.0
 40
1.0
 40
1.0
 40
1.0
 10
2.9915702913
 20
-13.3973124605
 30
0.0
 10
3.003953509
 20
-13.3994394161
 30
0.0
 10
3.0434054793
 20
-13.4069381166
 30
0.0
 10
3.082897151
 20
-13.4163696434
 30
0.0
 10
3.1083620404
 20
-13.4271507465
 30
0.0
 11
2.9915702913
 21
-13.3973124605
 31
0.0
 11
3.0286080845
 21
-13.4043134638
 31
0.0
 11
3.1083620404
 21
-13.4271507465
 31
0.0
  0
SPLINE
  5
58B
100
AcDbEntity
  8
0
100
AcDbSpline
 62
7
  6
CONTINUOUS
 70
0
 71
3
 72
9
 73
5
 74
3
 42
0.0000001
 43
0.0000001
 44
0.0000000001
 12
0.0188959755
 22
-0.0080000135
 32
0.0
 13
0.0163619815
 23
-0.0123832011
 33
0.0
 40
0.0
 40
0.0
 40
0.0
 40
0.0
 40
0.3040343161
 40
1.0
 40
1.0
 40
1.0
 40
1.0
 10
3.1083620404
 20
-13.4271507465
 30
0.0
 10
3.1102770487
 20
-13.4279615061
 30
0.0
 10
3.1165122907
 20
-13.4307475415
 30
0.0
 10
3.1226599541
 20
-13.4339100936
 30
0.0
 10
3.1264557467
 20
-13.4367828545
 30
0.0
 11
3.1083620404
 21
-13.4271507465
 31
0.0
 11
3.1140604083
 21
-13.4296904108
 31
0.0
 11
3.1264557467
 21
-13.4367828545
 31
0.0
  0
SPLINE
  5
58C
100
AcDbEntity
  8
0
100
AcDbSpline
 62
7
  6
CONTINUOUS
 70
0
 71
3
 72
9
 73
5
 74
3
 42
0.0000001
 43
0.0000001
 44
0.0000000001
 12
0.0065883582
 22
-0.0049862521
 32
0.0
 13
-0.0014199159
 23
-0.0081395953
 33
0.0
 40
0.0
 40
0.0
 40
0.0
 40
0.0
 40
0.3471155823
 40
1.0
 40
1.0
 40
1.0
 40
1.0
 10
3.1264557467
 20
-13.4367828545
 30
0.0
 10
3.1272180539
 20
-13.4373597898
 30
0.0
 10
3.1292491695
 20
-13.4390296481
 30
0.0
 10
3.1314294845
 20
-13.4416564669
 30
0.0
 10
3.1311204709
 20
-13.4434278719
 30
0.0
 11
3.1264557467
 21
-13.4367828545
 31
0.0
 11
3.1286460946
 21
-13.4386343609
 31
0.0
 11
3.1311204709
 21
-13.4434278719
 31
0.0
  0
SPLINE
  5
58D
100
AcDbEntity
  8
0
100
AcDbSpline
 62
7
  6
CONTINUOUS
 70
0
 71
3
 72
9
 73
5
 74
3
 42
0.0000001
 43
0.0000001
 44
0.0000000001
 12
-0.0047286267
 22
0.0271895073
 32
0.0
 13
0.0253676671
 23
0.0108678739
 33
0.0
 40
0.0
 40
0.0
 40
0.0
 40
0.0
 40
0.3174848174
 40
1.0
 40
1.0
 40
1.0
 40
1.0
 10
8.7310026549
 20
-13.4433856129
 30
0.0
 10
8.7305022325
 20
-13.4405081943
 30
0.0
 10
8.7397837007
 20
-13.4333108058
 30
0.0
 10
8.74706266
 20
-13.4299738962
 30
0.0
 10
8.7528339327
 20
-13.4275013999
 30
0.0
 11
8.7310026549
 21
-13.4433856129
 31
0.0
 11
8.7361938369
 21
-13.4363271943
 31
0.0
 11
8.7528339327
 21
-13.4275013999
 31
0.0
  0
SPLINE
  5
58E
100
AcDbEntity
  8
0
100
AcDbSpline
 62
7
  6
CONTINUOUS
 70
0
 71
3
 72
9
 73
5
 74
3
 42
0.0000001
 43
0.0000001
 44
0.0000000001
 12
0.0280291593
 22
0.0120080955
 32
0.0
 13
0.0291815316
 23
0.0088468266
 33
0.0
 40
0.0
 40
0.0
 40
0.0
 40
0.0
 40
0.2189756633
 40
1.0
 40
1.0
 40
1.0
 40
1.0
 10
8.7528339327
 20
-13.4275013999
 30
0.0
 10
8.7548798339
 20
-13.4266249063
 30
0.0
 10
8.7642992484
 20
-13.4228006762
 30
0.0
 10
8.7739552847
 20
-13.4195801477
 30
0.0
 10
8.7815524469
 20
-13.4172769521
 30
0.0
 11
8.7528339327
 21
-13.4275013999
 31
0.0
 11
8.7590164251
 21
-13.4249790274
 31
0.0
 11
8.7815524469
 21
-13.4172769521
 31
0.0
  0
SPLINE
  5
58F
100
AcDbEntity
  8
0
100
AcDbSpline
 62
7
  6
CONTINUOUS
 70
0
 71
3
 72
9
 73
5
 74
3
 42
0.0000001
 43
0.0000001
 44
0.0000000001
 12
0.0842394258
 22
0.0255384674
 32
0.0
 13
0.0867135942
 23
0.0151408968
 33
0.0
 40
0.0
 40
0.0
 40
0.0
 40
0.0
 40
0.2118613656
 40
1.0
 40
1.0
 40
1.0
 40
1.0
 10
8.7815524469
 20
-13.4172769521
 30
0.0
 10
8.7875014735
 20
-13.4154734139
 30
0.0
 10
8.8157800015
 20
-13.4076165584
 30
0.0
 10
8.8445996005
 20
-13.4018485572
 30
0.0
 10
8.8673803784
 20
-13.3978708486
 30
0.0
 11
8.7815524469
 21
-13.4172769521
 31
0.0
 11
8.7995080147
 21
-13.4122380444
 31
0.0
 11
8.8673803784
 21
-13.3978708486
 31
0.0
  0
SPLINE
  5
590
100
AcDbEntity
  8
0
100
AcDbSpline
 62
7
  6
CONTINUOUS
 70
0
 71
3
 72
9
 73
5
 74
3
 42
0.0000001
 43
0.0000001
 44
0.0000000001
 12
0.0566228584
 22
0.0098868103
 32
0.0
 13
0.0569594355
 23
0.0077149085
 33
0.0
 40
0.0
 40
0.0
 40
0.0
 40
0.0
 40
0.2355105786
 40
1.0
 40
1.0
 40
1.0
 40
1.0
 10
8.8673803784
 20
-13.3978708486
 30
0.0
 10
8.8718254725
 20
-13.3970946991
 30
0.0
 10
8.8907179023
 20
-13.3939032132
 30
0.0
 10
8.9096758564
 20
-13.3911052568
 30
0.0
 10
8.9241908183
 20
-13.3891392681
 30
0.0
 11
8.8673803784
 21
-13.3978708486
 31
0.0
 11
8.8807278409
 21
-13.395613269
 31
0.0
 11
8.9241908183
 21
-13.3891392681
 31
0.0
  0
SPLINE
  5
591
100
AcDbEntity
  8
0
100
AcDbSpline
 62
7
  6
CONTINUOUS
 70
0
 71
3
 72
9
 73
5
 74
3
 42
0.0000001
 43
0.0000001
 44
0.0000000001
 12
0.0656285514
 22
0.0088891027
 32
0.0
 13
0.0658612047
 23
0.0069587803
 33
0.0
 40
0.0
 40
0.0
 40
0.0
 40
0.0
 40
0.2372107769
 40
1.0
 40
1.0
 40
1.0
 40
1.0
 10
8.9241908183
 20
-13.3891392681
 30
0.0
 10
8.9293800849
 20
-13.3884364045
 30
0.0
 10
8.9512690898
 20
-13.3855681353
 30
0.0
 10
8.9732037394
 20
-13.3830540208
 30
0.0
 10
8.9899498118
 20
-13.3812846599
 30
0.0
 11
8.9241908183
 21
-13.3891392681
 31
0.0
 11
8.939767269
 21
-13.3870955637
 31
0.0
 11
8.9899498118
 21
-13.3812846599
 31
0.0
  0
SPLINE
  5
592
100
AcDbEntity
  8
0
100
AcDbSpline
 62
7
  6
CONTINUOUS
 70
0
 71
3
 72
11
 73
7
 74
5
 42
0.0000001
 43
0.0000001
 44
0.0000000001
 12
1.038687409
 22
1.8927611698
 32
0.0
 13
0.1386374368
 23
2.1545756057
 33
0.0
 40
0.0
 40
0.0
 40
0.0
 40
0.0
 40
0.2501794343
 40
0.5002152819
 40
0.7501421964
 40
1.0
 40
1.0
 40
1.0
 40
1.0
 10
5.0719856704
 20
11.195484992
 30
0.0
 10
5.1586050799
 20
11.3533282982
 30
0.0
 10
5.3146931295
 20
11.6786598752
 30
0.0
 10
5.4940403026
 20
12.1889609918
 30
0.0
 10
5.6165511145
 20
12.7155676424
 30
0.0
 10
5.6593568576
 20
13.0735494164
 30
0.0
 10
5.6709034061
 20
13.2529952593
 30
0.0
 11
5.0719856704
 21
11.195484992
 31
0.0
 11
5.3056090805
 21
11.6824931901
 31
0.0
 11
5.4846007536
 21
12.1917908054
 31
0.0
 11
5.6068465943
 21
12.7173611262
 31
0.0
 11
5.6709034061
 21
13.2529952593
 31
0.0
  0
SPLINE
  5
593
100
AcDbEntity
  8
DRAFT
100
AcDbSpline
 62
7
  6
CONTINUOUS
 70
0
 71
3
 72
11
 73
7
 74
5
 42
0.0000001
 43
0.0000001
 44
0.0000000001
 12
2.0516168098
 22
-2.5911555695
 32
0.0
 13
0.0000001678
 23
-3.3050293069
 33
0.0
 40
0.0
 40
0.0
 40
0.0
 40
0.0
 40
0.2503173806
 40
0.5003739748
 40
0.7502381822
 40
1.0
 40
1.0
 40
1.0
 40
1.0
 10
4.6123493534
 20
16.3188909016
 30
0.0
 10
4.7835344686
 20
16.1026871434
 30
0.0
 10
5.09026589
 20
15.6410208137
 30
0.0
 10
5.4281018319
 20
14.882609741
 30
0.0
 10
5.634732123
 20
14.0791049719
 30
0.0
 10
5.6810683155
 20
13.5275736284
 30
0.0
 10
5.6810683295
 20
13.2524169192
 30
0.0
 11
4.6123493534
 21
16.3188909016
 31
0.0
 11
5.0700518925
 21
15.6297290451
 31
0.0
 11
5.4063399638
 21
14.8747981648
 31
0.0
 11
5.6119078362
 21
14.0749847023
 31
0.0
 11
5.6810683295
 21
13.2524169192
 31
0.0
  0
SPLINE
  5
594
100
AcDbEntity
  8
RACCORDO
100
AcDbSpline
 62
7
  6
CONTINUOUS
 70
0
 71
3
 72
9
 73
5
 74
3
 42
0.0000001
 43
0.0000001
 44
0.0000000001
 12
0.0279141465
 22
-0.0002645154
 32
0.0
 13
0.024685914
 23
0.0130336179
 33
0.0
 40
0.0
 40
0.0
 40
0.0
 40
0.0
 40
0.426119949
 40
1.0
 40
1.0
 40
1.0
 40
1.0
 10
7.5896214965
 20
16.3184754894
 30
0.0
 10
7.5935864214
 20
16.3184379176
 30
0.0
 10
7.6028088472
 20
16.3208075531
 30
0.0
 10
7.6112198599
 20
16.3247465966
 30
0.0
 10
7.615942111
 20
16.327239841
 30
0.0
 11
7.5896214965
 21
16.3184754894
 31
0.0
 11
7.6012988057
 21
16.3207423858
 31
0.0
 11
7.615942111
 21
16.327239841
 31
0.0
  0
LINE
  5
595
100
AcDbEntity
  8
RACCORDO
100
AcDbLine
 62
253
  6
CONTINUOUS
 10
7.5786277721
 20
16.3252996271
 11
7.5786103321
 21
16.3185654836
  0
LINE
  5
596
100
AcDbEntity
  8
RACCORDO
100
AcDbLine
 62
253
  6
CONTINUOUS
 10
7.5786103321
 20
16.3185654836
 11
7.5784840233
 21
16.2515812868
  0
LINE
  5
597
100
AcDbEntity
  8
RACCORDO
100
AcDbLine
 62
253
  6
CONTINUOUS
 10
7.5784840233
 20
16.2515812868
 11
7.5733460031
 21
12.2016500613
  0
SPLINE
  5
598
100
AcDbEntity
  8
RACCORDO
100
AcDbSpline
 62
253
  6
CONTINUOUS
 70
0
 71
3
 72
14
 73
10
 74
8
 42
0.0000001
 43
0.0000001
 44
0.0000000001
 12
0.0039549047
 22
-0.1190082207
 32
0.0
 13
0.1173261304
 23
-0.0203267556
 33
0.0
 40
0.0
 40
0.0
 40
0.0
 40
0.0
 40
0.0631895786
 40
0.1381278062
 40
0.2311077382
 40
0.3447563058
 40
0.4795434537
 40
0.6347609864
 40
1.0
 40
1.0
 40
1.0
 40
1.0
 10
7.5784840233
 20
16.2515812868
 30
0.0
 10
7.5785673262
 20
16.2490745937
 30
0.0
 10
7.5801772716
 20
16.2436147473
 30
0.0
 10
7.5860010059
 20
16.2363536594
 30
0.0
 10
7.5949085539
 20
16.2294979674
 30
0.0
 10
7.6068485244
 20
16.2230093649
 30
0.0
 10
7.6216967572
 20
16.2169306348
 30
0.0
 10
7.6465054139
 20
16.2090608209
 30
0.0
 10
7.6667638995
 20
16.2047528074
 30
0.0
 10
7.6810479262
 20
16.2022780993
 30
0.0
 11
7.5784840233
 21
16.2515812868
 31
0.0
 11
7.5804318506
 21
16.2443135487
 31
0.0
 11
7.5857616248
 21
16.2371569576
 31
0.0
 11
7.5943942775
 21
16.2302247803
 31
0.0
 11
7.6062035068
 21
16.2236162381
 31
0.0
 11
7.6210127091
 21
16.2174292946
 31
0.0
 11
7.6386028331
 21
16.2117560979
 31
0.0
 11
7.6810479262
 21
16.2022780993
 31
0.0
  0
SPLINE
  5
599
100
AcDbEntity
  8
RACCORDO
100
AcDbSpline
 62
7
  6
CONTINUOUS
 70
0
 71
3
 72
9
 73
5
 74
3
 42
0.0000001
 43
0.0000001
 44
0.0000000001
 12
-0.1981005821
 22
0.3616805249
 32
0.0
 13
-0.1763505813
 23
0.3727695202
 33
0.0
 40
0.0
 40
0.0
 40
0.0
 40
0.0
 40
0.5071625321
 40
1.0
 40
1.0
 40
1.0
 40
1.0
 10
-7.0995718423
 20
21.6010750197
 30
0.0
 10
-7.1330615733
 20
21.6622186233
 30
0.0
 10
-7.1990949523
 20
21.7827687013
 30
0.0
 10
-7.2620895143
 20
21.9050149454
 30
0.0
 10
-7.291060239
 20
21.9662532075
 30
0.0
 11
-7.0995718423
 21
21.6010750197
 31
0.0
 11
-7.1992592589
 21
21.7849318663
 31
0.0
 11
-7.291060239
 21
21.9662532075
 31
0.0
  0
SPLINE
  5
59A
100
AcDbEntity
  8
RACCORDO
100
AcDbSpline
 62
7
  6
CONTINUOUS
 70
0
 71
3
 72
13
 73
9
 74
7
 42
0.0000001
 43
0.0000001
 44
0.0000000001
 12
-0.4516920964
 22
0.0298440407
 32
0.0
 13
-0.0078990991
 23
0.4526080213
 33
0.0
 40
0.0
 40
0.0
 40
0.0
 40
0.0
 40
0.1503961829
 40
0.2932715444
 40
0.426780211
 40
0.5517680595
 40
0.782436921
 40
1.0
 40
1.0
 40
1.0
 40
1.0
 10
-7.1140979311
 20
21.1890348356
 30
0.0
 10
-7.1367421868
 20
21.1905309788
 30
0.0
 10
-7.1807299238
 20
21.1984837602
 30
0.0
 10
-7.2405176246
 20
21.2236127981
 30
0.0
 10
-7.2907694239
 20
21.2581455699
 30
0.0
 10
-7.3428662087
 20
21.3109350469
 30
0.0
 10
-7.3865142089
 20
21.3876658245
 30
0.0
 10
-7.3989533001
 20
21.4555581777
 30
0.0
 10
-7.3995261509
 20
21.488381776
 30
0.0
 11
-7.1140979311
 21
21.1890348356
 31
0.0
 11
-7.181094445
 21
21.2011374789
 31
0.0
 11
-7.2407300468
 21
21.226170046
 31
0.0
 11
-7.2905468651
 21
21.2603874453
 31
0.0
 11
-7.3302776677
 21
21.3006696976
 31
0.0
 11
-7.3817674795
 21
21.3915103125
 31
0.0
 11
-7.3995261509
 21
21.488381776
 31
0.0
  0
SPLINE
  5
59B
100
AcDbEntity
  8
RACCORDO
100
AcDbSpline
 62
7
  6
CONTINUOUS
 70
0
 71
3
 72
9
 73
5
 74
3
 42
0.0000001
 43
0.0000001
 44
0.0000000001
 12
-0.1763505813
 22
-0.3727695202
 32
0.0
 13
-0.1981005821
 23
-0.3616805249
 33
0.0
 40
0.0
 40
0.0
 40
0.0
 40
0.0
 40
0.4928374652
 40
1.0
 40
1.0
 40
1.0
 40
1.0
 10
8.6531968979
 20
21.9662532075
 30
0.0
 10
8.6242261734
 20
21.9050149457
 30
0.0
 10
8.5612316114
 20
21.7827687016
 30
0.0
 10
8.4951982324
 20
21.6622186236
 30
0.0
 10
8.4617085013
 20
21.6010750197
 30
0.0
 11
8.6531968979
 21
21.9662532075
 31
0.0
 11
8.5613959184
 21
21.7849318672
 31
0.0
 11
8.4617085013
 21
21.6010750197
 31
0.0
  0
SPLINE
  5
59C
100
AcDbEntity
  8
RACCORDO
100
AcDbSpline
 62
7
  6
CONTINUOUS
 70
0
 71
3
 72
13
 73
9
 74
7
 42
0.0000001
 43
0.0000001
 44
0.0000000001
 12
0.4516920964
 22
0.0298440407
 32
0.0
 13
0.0078990991
 23
0.4526080213
 33
0.0
 40
0.0
 40
0.0
 40
0.0
 40
0.0
 40
0.1503961829
 40
0.2932715444
 40
0.426780211
 40
0.5517680595
 40
0.782436921
 40
1.0
 40
1.0
 40
1.0
 40
1.0
 10
8.47623459
 20
21.1890348356
 30
0.0
 10
8.4988788458
 20
21.1905309788
 30
0.0
 10
8.5428665827
 20
21.1984837602
 30
0.0
 10
8.6026542835
 20
21.2236127981
 30
0.0
 10
8.6529060828
 20
21.2581455699
 30
0.0
 10
8.7050028676
 20
21.3109350469
 30
0.0
 10
8.7486508678
 20
21.3876658245
 30
0.0
 10
8.761089959
 20
21.4555581777
 30
0.0
 10
8.7616628098
 20
21.488381776
 30
0.0
 11
8.47623459
 21
21.1890348356
 31
0.0
 11
8.543231104
 21
21.2011374789
 31
0.0
 11
8.6028667058
 21
21.226170046
 31
0.0
 11
8.652683524
 21
21.2603874453
 31
0.0
 11
8.6924143266
 21
21.3006696976
 31
0.0
 11
8.7439041384
 21
21.3915103125
 31
0.0
 11
8.7616628098
 21
21.488381776
 31
0.0
  0
SPLINE
  5
59D
100
AcDbEntity
  8
RACCORDO
100
AcDbSpline
 62
7
  6
CONTINUOUS
 70
0
 71
3
 72
13
 73
9
 74
7
 42
0.0000001
 43
0.0000001
 44
0.0000000001
 12
-0.4516920964
 22
-0.0298440407
 32
0.0
 13
-0.0078990991
 23
-0.4526080213
 33
0.0
 40
0.0
 40
0.0
 40
0.0
 40
0.0
 40
0.1503961829
 40
0.2932715444
 40
0.426780211
 40
0.5517680595
 40
0.782436921
 40
1.0
 40
1.0
 40
1.0
 40
1.0
 10
-7.1140979311
 20
-20.6122712837
 30
0.0
 10
-7.1367421868
 20
-20.6137674269
 30
0.0
 10
-7.1807299238
 20
-20.6217202083
 30
0.0
 10
-7.2405176246
 20
-20.6468492462
 30
0.0
 10
-7.2907694239
 20
-20.681382018
 30
0.0
 10
-7.3428662087
 20
-20.734171495
 30
0.0
 10
-7.3865142089
 20
-20.8109022726
 30
0.0
 10
-7.3989533001
 20
-20.8787946258
 30
0.0
 10
-7.3995261509
 20
-20.911618224
 30
0.0
 11
-7.1140979311
 21
-20.6122712837
 31
0.0
 11
-7.181094445
 21
-20.624373927
 31
0.0
 11
-7.2407300468
 21
-20.6494064941
 31
0.0
 11
-7.2905468651
 21
-20.6836238934
 31
0.0
 11
-7.3302776677
 21
-20.7239061457
 31
0.0
 11
-7.3817674795
 21
-20.8147467606
 31
0.0
 11
-7.3995261509
 21
-20.911618224
 31
0.0
  0
SPLINE
  5
59E
100
AcDbEntity
  8
RACCORDO
100
AcDbSpline
 62
7
  6
CONTINUOUS
 70
0
 71
3
 72
9
 73
5
 74
3
 42
0.0000001
 43
0.0000001
 44
0.0000000001
 12
0.1763505813
 22
0.3727695202
 32
0.0
 13
0.1981005821
 23
0.3616805249
 33
0.0
 40
0.0
 40
0.0
 40
0.0
 40
0.0
 40
0.4928374652
 40
1.0
 40
1.0
 40
1.0
 40
1.0
 10
-7.291060239
 20
-21.3894896556
 30
0.0
 10
-7.2620895145
 20
-21.3282513938
 30
0.0
 10
-7.1990949525
 20
-21.2060051497
 30
0.0
 10
-7.1330615734
 20
-21.0854550717
 30
0.0
 10
-7.0995718423
 20
-21.0243114678
 30
0.0
 11
-7.291060239
 21
-21.3894896556
 31
0.0
 11
-7.1992592594
 21
-21.2081683153
 31
0.0
 11
-7.0995718423
 21
-21.0243114678
 31
0.0
  0
SPLINE
  5
59F
100
AcDbEntity
  8
RACCORDO
100
AcDbSpline
 62
7
  6
CONTINUOUS
 70
0
 71
3
 72
9
 73
5
 74
3
 42
0.0000001
 43
0.0000001
 44
0.0000000001
 12
0.1981005821
 22
-0.3616805249
 32
0.0
 13
0.1763505813
 23
-0.3727695202
 33
0.0
 40
0.0
 40
0.0
 40
0.0
 40
0.0
 40
0.5071625321
 40
1.0
 40
1.0
 40
1.0
 40
1.0
 10
8.4617085013
 20
-21.0243114678
 30
0.0
 10
8.4951982322
 20
-21.0854550714
 30
0.0
 10
8.5612316112
 20
-21.2060051493
 30
0.0
 10
8.6242261733
 20
-21.3282513935
 30
0.0
 10
8.6531968979
 20
-21.3894896556
 30
0.0
 11
8.4617085013
 21
-21.0243114678
 31
0.0
 11
8.5613959179
 21
-21.2081683144
 31
0.0
 11
8.6531968979
 21
-21.3894896556
 31
0.0
  0
SPLINE
  5
5A0
100
AcDbEntity
  8
RACCORDO
100
AcDbSpline
 62
7
  6
CONTINUOUS
 70
0
 71
3
 72
13
 73
9
 74
7
 42
0.0000001
 43
0.0000001
 44
0.0000000001
 12
0.4516920964
 22
-0.0298440407
 32
0.0
 13
0.0078990991
 23
-0.4526080213
 33
0.0
 40
0.0
 40
0.0
 40
0.0
 40
0.0
 40
0.1503961829
 40
0.2932715444
 40
0.426780211
 40
0.5517680595
 40
0.782436921
 40
1.0
 40
1.0
 40
1.0
 40
1.0
 10
8.47623459
 20
-20.6122712837
 30
0.0
 10
8.4988788458
 20
-20.6137674269
 30
0.0
 10
8.5428665827
 20
-20.6217202083
 30
0.0
 10
8.6026542835
 20
-20.6468492462
 30
0.0
 10
8.6529060828
 20
-20.681382018
 30
0.0
 10
8.7050028676
 20
-20.734171495
 30
0.0
 10
8.7486508678
 20
-20.8109022726
 30
0.0
 10
8.761089959
 20
-20.8787946258
 30
0.0
 10
8.7616628098
 20
-20.911618224
 30
0.0
 11
8.47623459
 21
-20.6122712837
 31
0.0
 11
8.543231104
 21
-20.624373927
 31
0.0
 11
8.6028667058
 21
-20.6494064941
 31
0.0
 11
8.652683524
 21
-20.6836238934
 31
0.0
 11
8.6924143266
 21
-20.7239061457
 31
0.0
 11
8.7439041384
 21
-20.8147467606
 31
0.0
 11
8.7616628098
 21
-20.911618224
 31
0.0
  0
SPLINE
  5
5A1
100
AcDbEntity
  8
DRAFT
100
AcDbSpline
 62
7
  6
CONTINUOUS
 70
0
 71
3
 72
67
 73
63
 74
61
 42
0.0000001
 43
0.0000001
 44
0.0000000001
 12
0.0
 22
5.5175231698
 32
0.0
 13
0.0
 23
-5.5175231697
 33
0.0
 40
0.0
 40
0.0
 40
0.0
 40
0.0
 40
0.0000540575
 40
0.0001796488
 40
0.000380968
 40
0.000657038
 40
0.0010061495
 40
0.0014266236
 40
0.0024829839
 40
0.0038330274
 40
0.0054835024
 40
0.0074343674
 40
0.0096823542
 40
0.0122247525
 40
0.0150603078
 40
0.0216059645
 40
0.029304197
 40
0.0381360506
 40
0.0480805034
 40
0.0591135975
 40
0.0712087472
 40
0.0843368399
 40
0.0984662813
 40
0.1135630549
 40
0.1465108543
 40
0.1828630141
 40
0.2222694978
 40
0.264350829
 40
0.3087017858
 40
0.3548952374
 40
0.402486339
 40
0.5000190942
 40
0.5975518755
 40
0.6451430094
 40
0.6913365059
 40
0.7356875196
 40
0.7777689193
 40
0.8171754821
 40
0.8535277314
 40
0.8864756293
 40
0.9015724554
 40
0.9157019515
 40
0.9288300997
 40
0.9409253091
 40
0.9519584597
 40
0.9619029705
 40
0.9707349196
 40
0.9784331002
 40
0.9849790384
 40
0.9878148882
 40
0.9903570608
 40
0.9926039845
 40
0.9945543996
 40
0.9962071898
 40
0.9975614217
 40
0.9986165434
 40
0.9990318436
 40
0.9993723238
 40
0.9996381414
 40
0.9998296832
 40
0.9999481227
 40
1.0
 40
1.0
 40
1.0
 40
1.0
 10
-7.3275436152
 20
-7.6828533029
 30
0.0
 10
-7.3275436152
 20
-7.6827538816
 30
0.0
 10
-7.3271562397
 20
-7.6825756312
 30
0.0
 10
-7.3265477939
 20
-7.6824269486
 30
0.0
 10
-7.3254154333
 20
-7.6822292392
 30
0.0
 10
-7.3239234244
 20
-7.6820451674
 30
0.0
 10
-7.322003572
 20
-7.6818508111
 30
0.0
 10
-7.3186598418
 20
-7.6815715452
 30
0.0
 10
-7.3134694364
 20
-7.6812337213
 30
0.0
 10
-7.3060187274
 20
-7.680850189
 30
0.0
 10
-7.2969199532
 20
-7.6804664126
 30
0.0
 10
-7.2861689359
 20
-7.6800823593
 30
0.0
 10
-7.2737764659
 20
-7.6796987459
 30
0.0
 10
-7.25975624
 20
-7.6793160749
 30
0.0
 10
-7.2378331137
 20
-7.6787821094
 30
0.0
 10
-7.2064276468
 20
-7.678133128
 30
0.0
 10
-7.1639937124
 20
-7.6773945196
 30
0.0
 10
-7.1153078145
 20
-7.6766669572
 30
0.0
 10
-7.060487757
 20
-7.6759526154
 30
0.0
 10
-6.9996652955
 20
-7.6752537579
 30
0.0
 10
-6.932987037
 20
-7.6745723241
 30
0.0
 10
-6.860613606
 20
-7.6739101736
 30
0.0
 10
-6.7827192771
 20
-7.6732689992
 30
0.0
 10
-6.6683735684
 20
-7.6724193949
 30
0.0
 10
-6.5131563412
 20
-7.6714337744
 30
0.0
 10
-6.3132289356
 20
-7.6703885434
 30
0.0
 10
-6.0965026314
 20
-7.6694603314
 30
0.0
 10
-5.8650645517
 20
-7.6686584964
 30
0.0
 10
-5.6211435811
 20
-7.6679912441
 30
0.0
 10
-5.3670888153
 20
-7.6674651939
 30
0.0
 10
-5.0152232722
 20
-7.6669552293
 30
0.0
 10
-4.5689353638
 20
-7.666704847
 30
0.0
 10
-4.122647396
 20
-7.6669552224
 30
0.0
 10
-3.770781663
 20
-7.6674651813
 30
0.0
 10
-3.5167266508
 20
-7.6679912275
 30
0.0
 10
-3.2728053671
 20
-7.6686584761
 30
0.0
 10
-3.0413669113
 20
-7.6694603075
 30
0.0
 10
-2.8246401708
 20
-7.6703885161
 30
0.0
 10
-2.6247122739
 20
-7.6714337439
 30
0.0
 10
-2.4694946044
 20
-7.672419362
 30
0.0
 10
-2.3551485175
 20
-7.6732689644
 30
0.0
 10
-2.2772538893
 20
-7.6739101375
 30
0.0
 10
-2.2048801458
 20
-7.674572287
 30
0.0
 10
-2.1382015714
 20
-7.6752537198
 30
0.0
 10
-2.0773787893
 20
-7.6759525754
 30
0.0
 10
-2.0225583456
 20
-7.676666921
 30
0.0
 10
-1.9738722606
 20
-7.6773944691
 30
0.0
 10
-1.9314377286
 20
-7.6781331012
 30
0.0
 10
-1.9000312978
 20
-7.678782096
 30
0.0
 10
-1.878107526
 20
-7.679316
 30
0.0
 10
-1.8640891269
 20
-7.6796986177
 30
0.0
 10
-1.8516998628
 20
-7.6800823418
 30
0.0
 10
-1.840947369
 20
-7.6804666658
 30
0.0
 10
-1.8318374874
 20
-7.6808505699
 30
0.0
 10
-1.8243769579
 20
-7.6812331168
 30
0.0
 10
-1.8191907615
 20
-7.6815698584
 30
0.0
 10
-1.8158744598
 20
-7.681849418
 30
0.0
 10
-1.8139999577
 20
-7.6820441942
 30
0.0
 10
-1.8125584647
 20
-7.6822274553
 30
0.0
 10
-1.8114833918
 20
-7.6824273241
 30
0.0
 10
-1.8108985648
 20
-7.6825737317
 30
0.0
 10
-1.8105457307
 20
-7.6827578914
 30
0.0
 10
-1.8105457307
 20
-7.6828533029
 30
0.0
 11
-7.3275436152
 21
-7.6828533029
 31
0.0
 11
-7.3273195834
 21
-7.6826563995
 31
0.0
 11
-7.3266551893
 21
-7.6824595136
 31
0.0
 11
-7.3255619852
 21
-7.6822626781
 31
0.0
 11
-7.3240515231
 21
-7.6820659259
 31
0.0
 11
-7.3221353554
 21
-7.6818692899
 31
0.0
 11
-7.319823715
 21
-7.6816728027
 31
0.0
 11
-7.3140084472
 21
-7.6812803947
 31
0.0
 11
-7.3065698441
 21
-7.6808889359
 31
0.0
 11
-7.2974716771
 21
-7.6804986598
 31
0.0
 11
-7.2867147607
 21
-7.6801098008
 31
0.0
 11
-7.2743174865
 21
-7.679722594
 31
0.0
 11
-7.2602950381
 21
-7.6793372734
 31
0.0
 11
-7.2446544898
 21
-7.6789540706
 31
0.0
 11
-7.2085466563
 21
-7.6781949407
 31
0.0
 11
-7.1660780651
 21
-7.6774470324
 31
0.0
 11
-7.1173536501
 21
-7.6767121476
 31
0.0
 11
-7.0624896268
 21
-7.675992057
 31
0.0
 11
-7.0016183399
 21
-7.6752884953
 31
0.0
 11
-6.9348865908
 21
-7.6746031572
 31
0.0
 11
-6.8624550918
 21
-7.6739376935
 31
0.0
 11
-6.7844982311
 21
-7.6732937077
 31
0.0
 11
-6.7012037479
 21
-7.6726727517
 31
0.0
 11
-6.5194172463
 21
-7.6715058519
 31
0.0
 11
-6.3188461507
 21
-7.6704482326
 31
0.0
 11
-6.101421988
 21
-7.6695100802
 31
0.0
 11
-5.8692386799
 21
-7.6687004295
 31
0.0
 11
-5.6245321744
 21
-7.6680270798
 31
0.0
 11
-5.3696592872
 21
-7.6674965152
 31
0.0
 11
-5.10707456
 21
-7.6671138478
 31
0.0
 11
-4.5689354118
 21
-7.6668054836
 31
0.0
 11
-4.0307961197
 21
-7.6671138393
 31
0.0
 11
-3.7682112143
 21
-7.6674965025
 31
0.0
 11
-3.5133380795
 21
-7.6680270632
 31
0.0
 11
-3.2686312604
 21
-7.6687004089
 31
0.0
 11
-3.0364475741
 21
-7.669510056
 31
0.0
 11
-2.8190229747
 21
-7.670448205
 31
0.0
 11
-2.6184513852
 21
-7.6715058211
 31
0.0
 11
-2.4366643405
 21
-7.6726727181
 31
0.0
 11
-2.3533695673
 21
-7.6732936728
 31
0.0
 11
-2.2754124051
 21
-7.6739376573
 31
0.0
 11
-2.2029805998
 21
-7.6746031199
 31
0.0
 11
-2.1362485209
 21
-7.6752884569
 31
0.0
 11
-2.0753769224
 21
-7.6759920177
 31
0.0
 11
-2.020512579
 21
-7.6767121074
 31
0.0
 11
-1.9717876369
 21
-7.6774469914
 31
0.0
 11
-1.9293193323
 21
-7.6781948991
 31
0.0
 11
-1.8932099451
 21
-7.6789540283
 31
0.0
 11
-1.8775677712
 21
-7.6793372305
 31
0.0
 11
-1.8635465689
 21
-7.6797225511
 31
0.0
 11
-1.8511551634
 21
-7.6801097589
 31
0.0
 11
-1.840400731
 21
-7.6804986183
 31
0.0
 11
-1.8312897776
 21
-7.6808888918
 31
0.0
 11
-1.8238280328
 21
-7.6812803461
 31
0.0
 11
-1.8180196146
 21
-7.6816727556
 31
0.0
 11
-1.8157366262
 21
-7.6818692483
 31
0.0
 11
-1.8138683395
 21
-7.6820658935
 31
0.0
 11
-1.8124149432
 21
-7.6822626566
 31
0.0
 11
-1.8113766007
 21
-7.6824595026
 31
0.0
 11
-1.8107534754
 21
-7.6826563964
 31
0.0
 11
-1.8105457307
 21
-7.6828533029
 31
0.0
  0
LINE
  5
5A2
100
AcDbEntity
  8
RACCORDO
100
AcDbLine
 62
7
  6
CONTINUOUS
 10
11.4172919008
 20
-10.5238152565
 11
11.4173832907
 21
-10.523892355
  0
SPLINE
  5
5A3
100
AcDbEntity
  8
RACCORDO
100
AcDbSpline
 62
7
  6
CONTINUOUS
 70
0
 71
3
 72
15
 73
11
 74
9
 42
0.0000001
 43
0.0000001
 44
0.0000000001
 12
-0.4896184486
 22
-0.0000000107
 32
0.0
 13
-0.000000005
 23
0.4896184486
 33
0.0
 40
0.0
 40
0.0
 40
0.0
 40
0.0
 40
0.1249517982
 40
0.2499112288
 40
0.374885074
 40
0.4998766456
 40
0.6248867007
 40
0.7499127863
 40
0.8749511214
 40
1.0
 40
1.0
 40
1.0
 40
1.0
 10
-0.0209001728
 20
11.2883817843
 30
0.0
 10
-0.0412930747
 20
11.2883817839
 30
0.0
 10
-0.082223256
 20
11.2929311701
 30
0.0
 10
-0.1405188374
 20
11.3129840318
 30
0.0
 10
-0.1932059972
 20
11.3449991575
 30
0.0
 10
-0.2381769427
 20
11.3871164544
 30
0.0
 10
-0.2740285602
 20
11.4371872837
 30
0.0
 10
-0.2999289838
 20
11.4930320396
 30
0.0
 10
-0.3154961727
 20
11.552549575
 30
0.0
 10
-0.3189316703
 20
11.5934521585
 30
0.0
 10
-0.3189316705
 20
11.6138609045
 30
0.0
 11
-0.0209001728
 21
11.2883817843
 31
0.0
 11
-0.08170495
 21
11.295135531
 31
0.0
 11
-0.1395809984
 21
11.3149762543
 31
0.0
 11
-0.1919165612
 21
11.3466802571
 31
0.0
 11
-0.2366541212
 21
11.388438704
 31
0.0
 11
-0.2723680527
 21
11.4381462488
 31
0.0
 11
-0.2982057306
 21
11.4936412953
 31
0.0
 11
-0.3137601032
 21
11.5528534697
 31
0.0
 11
-0.3189316705
 21
11.6138609045
 31
0.0
  0
SPLINE
  5
5A4
100
AcDbEntity
  8
RACCORDO
100
AcDbSpline
 62
7
  6
CONTINUOUS
 70
0
 71
3
 72
15
 73
11
 74
9
 42
0.0000001
 43
0.0000001
 44
0.0000000001
 12
0.0000000024
 22
0.4896184671
 32
0.0
 13
0.4896184671
 23
-0.0000000115
 33
0.0
 40
0.0
 40
0.0
 40
0.0
 40
0.0
 40
0.1250488787
 40
0.2500872139
 40
0.3751132997
 40
0.500123355
 40
0.6251149267
 40
0.750088772
 40
0.8750482027
 40
1.0
 40
1.0
 40
1.0
 40
1.0
 10
-0.3189316705
 20
16.9629026474
 30
0.0
 10
-0.3189316704
 20
16.9833113942
 30
0.0
 10
-0.3154961718
 20
17.0242139793
 30
0.0
 10
-0.2999289809
 20
17.0837315166
 30
0.0
 10
-0.2740285562
 20
17.1395762745
 30
0.0
 10
-0.2381769382
 20
17.1896471062
 30
0.0
 10
-0.1932059916
 20
17.231764406
 30
0.0
 10
-0.1405188296
 20
17.2637795315
 30
0.0
 10
-0.0822232462
 20
17.2838323986
 30
0.0
 10
-0.0412930618
 20
17.2883817688
 30
0.0
 10
-0.0209001593
 20
17.2883817683
 30
0.0
 11
-0.3189316705
 21
16.9629026474
 31
0.0
 11
-0.3137601023
 21
17.0239100845
 31
0.0
 11
-0.2982057279
 21
17.0831222609
 31
0.0
 11
-0.2723680488
 21
17.1386173095
 31
0.0
 11
-0.2366541165
 21
17.1883248567
 31
0.0
 11
-0.1919165554
 21
17.2300833058
 31
0.0
 11
-0.1395809905
 21
17.2617873099
 31
0.0
 11
-0.0817049396
 21
17.2816280328
 31
0.0
 11
-0.0209001593
 21
17.2883817683
 31
0.0
  0
SPLINE
  5
5A5
100
AcDbEntity
  8
RACCORDO
100
AcDbSpline
 62
7
  6
CONTINUOUS
 70
0
 71
3
 72
18
 73
14
 74
12
 42
0.0000001
 43
0.0000001
 44
0.0000000001
 12
0.0313121379
 22
-0.0006494239
 32
0.0
 13
0.0221457866
 23
-0.0221457866
 33
0.0
 40
0.0
 40
0.0
 40
0.0
 40
0.0
 40
0.2271275298
 40
0.4258847769
 40
0.5957493643
 40
0.7363245549
 40
0.8472391626
 40
0.8914783607
 40
0.9281944166
 40
0.9573643607
 40
0.9789923769
 40
0.9931229412
 40
1.0
 40
1.0
 40
1.0
 40
1.0
 10
1.1440481447
 20
13.8754114799
 30
0.0
 10
1.1464187609
 20
13.8753623126
 30
0.0
 10
1.1508652094
 20
13.8753243355
 30
0.0
 10
1.1570843698
 20
13.875408707
 30
0.0
 10
1.1623980242
 20
13.8755690487
 30
0.0
 10
1.1667928168
 20
13.8757531274
 30
0.0
 10
1.1698773099
 20
13.8758939035
 30
0.0
 10
1.1718781594
 20
13.8759736206
 30
0.0
 10
1.1730285947
 20
13.8760104386
 30
0.0
 10
1.1739387072
 20
13.8760212854
 30
0.0
 10
1.1746249371
 20
13.8760161889
 30
0.0
 10
1.1750527112
 20
13.8759734158
 30
0.0
 10
1.1752904958
 20
13.8759416964
 30
0.0
 10
1.1753412617
 20
13.8758909305
 30
0.0
 11
1.1440481447
 21
13.8754114799
 31
0.0
 11
1.1511612549
 21
13.8753497615
 31
0.0
 11
1.1573855727
 21
13.8754313677
 31
0.0
 11
1.162703186
 21
13.8755896094
 31
0.0
 11
1.1671021795
 21
13.8757691622
 31
0.0
 11
1.1705725868
 21
13.8759208416
 31
0.0
 11
1.1719570581
 21
13.8759747846
 31
0.0
 11
1.1731064645
 21
13.8760086569
 31
0.0
 11
1.1740199776
 21
13.8760188293
 31
0.0
 11
1.1746971693
 21
13.8760035037
 31
0.0
 11
1.1751377079
 21
13.8759613231
 31
0.0
 11
1.1753412617
 21
13.8758909305
 31
0.0
  0
SPLINE
  5
5A6
100
AcDbEntity
  8
RACCORDO
100
AcDbSpline
 62
7
  6
CONTINUOUS
 70
0
 71
3
 72
18
 73
14
 74
12
 42
0.0000001
 43
0.0000001
 44
0.0000000001
 12
-0.0221457865
 22
-0.0221457865
 32
0.0
 13
-0.0313121378
 23
-0.0006494239
 33
0.0
 40
0.0
 40
0.0
 40
0.0
 40
0.0
 40
0.0068770603
 40
0.0210076317
 40
0.0426356553
 40
0.0718056009
 40
0.1085216551
 40
0.1527608544
 40
0.2636754607
 40
0.404250639
 40
0.5741152186
 40
0.7728724674
 40
1.0
 40
1.0
 40
1.0
 40
1.0
 10
1.1753412617
 20
14.7008726214
 30
0.0
 10
1.1752904958
 20
14.7008218555
 30
0.0
 10
1.175052711
 20
14.7007901365
 30
0.0
 10
1.1746249367
 20
14.7007473636
 30
0.0
 10
1.1739387066
 20
14.7007422673
 30
0.0
 10
1.1730285941
 20
14.7007531132
 30
0.0
 10
1.1718781588
 20
14.7007899305
 30
0.0
 10
1.1698773093
 20
14.7008696481
 30
0.0
 10
1.1667928164
 20
14.7010104247
 30
0.0
 10
1.1623980239
 20
14.701194503
 30
0.0
 10
1.1570843698
 20
14.701354845
 30
0.0
 10
1.1508652094
 20
14.7014392165
 30
0.0
 10
1.1464187609
 20
14.7014012393
 30
0.0
 10
1.1440481447
 20
14.701352072
 30
0.0
 11
1.1753412617
 21
14.7008726214
 31
0.0
 11
1.1751377078
 21
14.7008022291
 31
0.0
 11
1.1746971689
 21
14.7007600488
 31
0.0
 11
1.174019977
 21
14.7007447233
 31
0.0
 11
1.1731064639
 21
14.7007548951
 31
0.0
 11
1.1719570575
 21
14.7007887668
 31
0.0
 11
1.1705725861
 21
14.7008427098
 31
0.0
 11
1.167102179
 21
14.7009943898
 31
0.0
 11
1.1627031858
 21
14.7011739424
 31
0.0
 11
1.1573855728
 21
14.7013321842
 31
0.0
 11
1.151161255
 21
14.7014137904
 31
0.0
 11
1.1440481447
 21
14.701352072
 31
0.0
  0
SPLINE
  5
5A7
100
AcDbEntity
  8
RACCORDO
100
AcDbSpline
 62
7
  6
CONTINUOUS
 70
0
 71
3
 72
18
 73
14
 74
12
 42
0.0000001
 43
0.0000001
 44
0.0000000001
 12
-0.0006494239
 22
-0.0313121378
 32
0.0
 13
-0.0221457866
 23
-0.0221457866
 33
0.0
 40
0.0
 40
0.0
 40
0.0
 40
0.0
 40
0.2271275223
 40
0.4258847296
 40
0.5957492788
 40
0.7363244606
 40
0.847239101
 40
0.8914783257
 40
0.9281943995
 40
0.9573643525
 40
0.9789923745
 40
0.9931229413
 40
1.0
 40
1.0
 40
1.0
 40
1.0
 10
4.8681899261
 20
18.4254938533
 30
0.0
 10
4.8681407587
 20
18.4231232372
 30
0.0
 10
4.8681027821
 20
18.4186767892
 30
0.0
 10
4.8681871525
 20
18.4124576297
 30
0.0
 10
4.8683474959
 20
18.4071439763
 30
0.0
 10
4.8685315736
 20
18.4027491838
 30
0.0
 10
4.8686723482
 20
18.3996646901
 30
0.0
 10
4.8687520667
 20
18.3976638398
 30
0.0
 10
4.8687888848
 20
18.396513404
 30
0.0
 10
4.8687997311
 20
18.3956032912
 30
0.0
 10
4.8687946347
 20
18.3949170611
 30
0.0
 10
4.8687518617
 20
18.3944892869
 30
0.0
 10
4.8687201425
 20
18.3942515022
 30
0.0
 10
4.8686693766
 20
18.3942007363
 30
0.0
 11
4.8681899261
 21
18.4254938533
 31
0.0
 11
4.8681282078
 21
18.4183807433
 31
0.0
 11
4.8682098137
 21
18.4121564268
 31
0.0
 11
4.8683680562
 21
18.4068388147
 31
0.0
 11
4.8685476081
 21
18.4024398215
 31
0.0
 11
4.8686992869
 21
18.3989694132
 31
0.0
 11
4.8687532306
 21
18.3975849411
 31
0.0
 11
4.868787103
 21
18.3964355341
 31
0.0
 11
4.8687972751
 21
18.3955220207
 31
0.0
 11
4.8687819495
 21
18.3948448288
 31
0.0
 11
4.8687397691
 21
18.3944042902
 31
0.0
 11
4.8686693766
 21
18.3942007363
 31
0.0
  0
SPLINE
  5
5A8
100
AcDbEntity
  8
RACCORDO
100
AcDbSpline
 62
7
  6
CONTINUOUS
 70
0
 71
3
 72
15
 73
11
 74
9
 42
0.0000001
 43
0.0000001
 44
0.0000000001
 12
0.491845388
 22
0.0000000025
 32
0.0
 13
0.0
 23
-0.491845388
 33
0.0
 40
0.0
 40
0.0
 40
0.0
 40
0.0
 40
0.1249501535
 40
0.2499091434
 40
0.374883405
 40
0.4998757774
 40
0.6248866206
 40
0.749913286
 40
0.8749517356
 40
1.0
 40
1.0
 40
1.0
 40
1.0
 10
0.5336551065
 20
17.2883817756
 30
0.0
 10
0.5541404921
 20
17.2883817757
 30
0.0
 10
0.5952569855
 20
17.2837899062
 30
0.0
 10
0.6537976406
 20
17.2635861097
 30
0.0
 10
0.7066917649
 20
17.2313731638
 30
0.0
 10
0.7518386307
 20
17.1890359497
 30
0.0
 10
0.7878430078
 20
17.1387317774
 30
0.0
 10
0.8138723609
 20
17.082639163
 30
0.0
 10
0.8295336095
 20
17.0228572375
 30
0.0
 10
0.8329955
 20
16.9817686456
 30
0.0
 10
0.8329955
 20
16.9612671749
 30
0.0
 11
0.5336551065
 21
17.2883817756
 31
0.0
 11
0.5947327087
 21
17.2815710703
 31
0.0
 11
0.6528532484
 21
17.261586169
 31
0.0
 11
0.705397063
 21
17.2296884525
 31
0.0
 11
0.7503119343
 21
17.1877114796
 31
0.0
 11
0.7861785453
 21
17.137770362
 31
0.0
 11
0.8121433281
 21
17.0820270564
 31
0.0
 11
0.827788485
 21
17.0225507755
 31
0.0
 11
0.8329955
 21
16.9612671749
 31
0.0
  0
SPLINE
  5
5A9
100
AcDbEntity
  8
RACCORDO
100
AcDbSpline
 62
7
  6
CONTINUOUS
 70
0
 71
3
 72
18
 73
14
 74
12
 42
0.0000001
 43
0.0000001
 44
0.0000000001
 12
-0.0221457865
 22
0.0221457866
 32
0.0
 13
-0.0006494239
 23
0.0313121378
 33
0.0
 40
0.0
 40
0.0
 40
0.0
 40
0.0
 40
0.0068770589
 40
0.0210076267
 40
0.0426356497
 40
0.071805603
 40
0.1085216768
 40
0.1527609022
 40
0.2636755456
 40
0.4042507323
 40
0.5741152802
 40
0.7728724803
 40
1.0
 40
1.0
 40
1.0
 40
1.0
 10
5.6934672824
 20
18.3942007363
 30
0.0
 10
5.6934165164
 20
18.3942515022
 30
0.0
 10
5.6933847973
 20
18.3944892869
 30
0.0
 10
5.6933420243
 20
18.3949170612
 30
0.0
 10
5.6933369279
 20
18.3956032913
 30
0.0
 10
5.6933477741
 20
18.396513404
 30
0.0
 10
5.6933845921
 20
18.3976638399
 30
0.0
 10
5.6934643108
 20
18.3996646903
 30
0.0
 10
5.6936050854
 20
18.402749184
 30
0.0
 10
5.6937891631
 20
18.4071439766
 30
0.0
 10
5.6939495065
 20
18.41245763
 30
0.0
 10
5.6940338768
 20
18.4186767894
 30
0.0
 10
5.6939959002
 20
18.4231232372
 30
0.0
 10
5.6939467329
 20
18.4254938533
 30
0.0
 11
5.6934672824
 21
18.3942007363
 31
0.0
 11
5.6933968899
 21
18.3944042902
 31
0.0
 11
5.6933547095
 21
18.3948448289
 31
0.0
 11
5.693339384
 21
18.3955220208
 31
0.0
 11
5.693349556
 21
18.3964355342
 31
0.0
 11
5.6933834283
 21
18.3975849412
 31
0.0
 11
5.693437372
 21
18.3989694133
 31
0.0
 11
5.6935890509
 21
18.4024398217
 31
0.0
 11
5.6937686028
 21
18.4068388151
 31
0.0
 11
5.6939268452
 21
18.4121564271
 31
0.0
 11
5.6940084511
 21
18.4183807434
 31
0.0
 11
5.6939467329
 21
18.4254938533
 31
0.0
  0
SPLINE
  5
5AA
100
AcDbEntity
  8
RACCORDO
100
AcDbSpline
 62
7
  6
CONTINUOUS
 70
0
 71
3
 72
11
 73
7
 74
5
 42
0.0000001
 43
0.0000001
 44
0.0000000001
 12
0.0150214476
 22
-0.8608158483
 32
0.0
 13
-0.0000000307
 23
-0.8609469023
 33
0.0
 40
0.0
 40
0.0
 40
0.0
 40
0.0
 40
0.2131923296
 40
0.4461443235
 40
0.7099511491
 40
1.0
 40
1.0
 40
1.0
 40
1.0
 10
10.3627059579
 20
10.372420174
 30
0.0
 10
10.3637734437
 20
10.311247062
 30
0.0
 10
10.3659866664
 20
10.1832305908
 30
0.0
 10
10.3688036489
 20
9.9795059745
 30
0.0
 10
10.3707790718
 20
9.7537137154
 30
0.0
 10
10.3712811637
 20
9.5947665709
 30
0.0
 10
10.3712811607
 20
9.5115276844
 30
0.0
 11
10.3627059579
 21
10.372420174
 31
0.0
 11
10.365787489
 21
10.1888987676
 31
0.0
 11
10.3685220378
 21
9.9883581132
 31
0.0
 11
10.3705116201
 21
9.7612431583
 31
0.0
 11
10.3712811607
 21
9.5115276844
 31
0.0
  0
SPLINE
  5
5AB
100
AcDbEntity
  8
RACCORDO
100
AcDbSpline
 62
7
  6
CONTINUOUS
 70
0
 71
3
 72
15
 73
11
 74
9
 42
0.0000001
 43
0.0000001
 44
0.0000000001
 12
0.0
 22
-0.4918453925
 32
0.0
 13
-0.4918453925
 23
0.0000000025
 33
0.0
 40
0.0
 40
0.0
 40
0.0
 40
0.0
 40
0.125048444
 40
0.2500869686
 40
0.3751135049
 40
0.5001238773
 40
0.6251163215
 40
0.7500906753
 40
0.8750497546
 40
1.0
 40
1.0
 40
1.0
 40
1.0
 10
0.8329955
 20
11.6154963825
 30
0.0
 10
0.8329955
 20
11.5949948821
 30
0.0
 10
0.8295336011
 20
11.5539062475
 30
0.0
 10
0.8138723276
 20
11.4941243066
 30
0.0
 10
0.7878429995
 20
11.4380317756
 30
0.0
 10
0.7518386787
 20
11.3877276736
 30
0.0
 10
0.706691874
 20
11.3453904669
 30
0.0
 10
0.6537977252
 20
11.3131774781
 30
0.0
 10
0.5952570313
 20
11.2929736519
 30
0.0
 10
0.5541405073
 20
11.2883817763
 30
0.0
 10
0.5336551065
 20
11.2883817764
 30
0.0
 11
0.8329955
 21
11.6154963825
 31
0.0
 11
0.8277884699
 21
11.5542126939
 31
0.0
 11
0.8121432852
 21
11.4947363816
 31
0.0
 11
0.7861785156
 21
11.4389931393
 31
0.0
 11
0.7503120466
 21
11.3890522041
 31
0.0
 11
0.7053971717
 21
11.3470751823
 31
0.0
 11
0.6528533306
 21
11.3151774211
 31
0.0
 11
0.5947327537
 21
11.2951924913
 31
0.0
 11
0.5336551065
 21
11.2883817764
 31
0.0
  0
SPLINE
  5
5AC
100
AcDbEntity
  8
RACCORDO
100
AcDbSpline
 62
7
  6
CONTINUOUS
 70
0
 71
3
 72
17
 73
13
 74
11
 42
0.0000001
 43
0.0000001
 44
0.0000000001
 12
0.000737063
 22
0.0314736445
 32
0.0
 13
0.0222613293
 23
0.0222613293
 33
0.0
 40
0.0
 40
0.0
 40
0.0
 40
0.0
 40
0.2270674395
 40
0.4256018016
 40
0.5951985225
 40
0.7355413092
 40
0.8463292137
 40
0.9273225831
 40
0.9565942786
 40
0.9783890649
 40
0.9927644653
 40
1.0
 40
1.0
 40
1.0
 40
1.0
 10
5.6948940361
 20
10.1522170018
 30
0.0
 10
5.6949498238
 20
10.1545992151
 30
0.0
 10
5.6950006461
 20
10.1590657292
 30
0.0
 10
5.6949359269
 20
10.1653118667
 30
0.0
 10
5.6947957476
 20
10.1706459627
 30
0.0
 10
5.6946303821
 20
10.175058622
 30
0.0
 10
5.6944946042
 20
10.1785397962
 30
0.0
 10
5.6944175424
 20
10.1808615228
 30
0.0
 10
5.6944144891
 20
10.1822433826
 30
0.0
 10
5.6944306672
 20
10.1829373168
 30
0.0
 10
5.6944802849
 20
10.1833766155
 30
0.0
 10
5.6945231237
 20
10.1836186569
 30
0.0
 10
5.6945768145
 20
10.1836723478
 30
0.0
 11
5.6948940361
 21
10.1522170018
 31
0.0
 11
5.6949764143
 21
10.1593651264
 31
0.0
 11
5.6949149049
 21
10.1656151369
 31
0.0
 11
5.6947767914
 21
10.1709526407
 31
0.0
 11
5.6946175288
 21
10.1753680794
 31
0.0
 11
5.6944862768
 21
10.1788534641
 31
0.0
 11
5.6944188759
 21
10.1814024286
 31
0.0
 11
5.6944188521
 21
10.1823239681
 31
0.0
 11
5.694444267
 21
10.1830096467
 31
0.0
 11
5.6944964709
 21
10.183459196
 31
0.0
 11
5.6945768145
 21
10.1836723478
 31
0.0
  0
SPLINE
  5
5AD
100
AcDbEntity
  8
RACCORDO
100
AcDbSpline
 62
7
  6
CONTINUOUS
 70
0
 71
3
 72
17
 73
13
 74
11
 42
0.0000001
 43
0.0000001
 44
0.0000000001
 12
0.0222613292
 22
-0.0222613292
 32
0.0
 13
0.000737063
 23
-0.0314736445
 33
0.0
 40
0.0
 40
0.0
 40
0.0
 40
0.0
 40
0.007235535
 40
0.0216109379
 40
0.0434057265
 40
0.0726774208
 40
0.153670777
 40
0.2644586531
 40
0.4048013877
 40
0.5743981133
 40
0.7729325366
 40
1.0
 40
1.0
 40
1.0
 40
1.0
 10
4.8675598444
 20
10.1836723478
 30
0.0
 10
4.8676135353
 20
10.1836186569
 30
0.0
 10
4.8676563739
 20
10.1833766154
 30
0.0
 10
4.8677059914
 20
10.1829373167
 30
0.0
 10
4.8677221694
 20
10.1822433824
 30
0.0
 10
4.8677191168
 20
10.1808615227
 30
0.0
 10
4.8676420558
 20
10.1785397966
 30
0.0
 10
4.8675062764
 20
10.1750586234
 30
0.0
 10
4.8673409122
 20
10.1706459648
 30
0.0
 10
4.8672007323
 20
10.1653118688
 30
0.0
 10
4.8671360113
 20
10.1590657303
 30
0.0
 10
4.8671868352
 20
10.1545992153
 30
0.0
 10
4.8672426229
 20
10.1522170018
 30
0.0
 11
4.8675598444
 21
10.1836723478
 31
0.0
 11
4.8676401879
 21
10.183459196
 31
0.0
 11
4.8676923917
 21
10.1830096465
 31
0.0
 11
4.8677178065
 21
10.1823239679
 31
0.0
 11
4.8677177831
 21
10.1814024284
 31
0.0
 11
4.8676503829
 21
10.1788534643
 31
0.0
 11
4.8675191302
 21
10.1753680805
 31
0.0
 11
4.8673598681
 21
10.1709526435
 31
0.0
 11
4.8672217542
 21
10.1656151396
 31
0.0
 11
4.8671602439
 21
10.1593651272
 31
0.0
 11
4.8672426229
 21
10.1522170018
 31
0.0
  0
LINE
  5
5AE
100
AcDbEntity
  8
RACCORDO
100
AcDbLine
 62
7
  6
CONTINUOUS
 10
-10.0552466317
 20
0.176107645
 11
-10.0551552419
 21
0.1761847435
  0
LINE
  5
5AF
100
AcDbEntity
  8
RACCORDO
100
AcDbLine
 62
7
  6
CONTINUOUS
 10
11.4173832907
 20
-13.0993440931
 11
11.4172919008
 21
-13.0994211916
  0
LINE
  5
5B0
100
AcDbEntity
  8
RACCORDO
100
AcDbLine
 62
7
  6
CONTINUOUS
 10
0.8321324481
 20
0.036622294
 11
0.8312775308
 21
-0.1705207953
  0
SPLINE
  5
5B1
100
AcDbEntity
  8
RACCORDO
100
AcDbSpline
 62
253
  6
CONTINUOUS
 70
0
 71
3
 72
11
 73
7
 74
5
 42
0.0000001
 43
0.0000001
 44
0.0000000001
 12
0.0549528671
 22
-0.19090397
 32
0.0
 13
-0.1169073872
 23
-0.1606138418
 33
0.0
 40
0.0
 40
0.0
 40
0.0
 40
0.0
 40
0.2713731241
 40
0.5271298751
 40
0.7686358598
 40
1.0
 40
1.0
 40
1.0
 40
1.0
 10
-9.9514515458
 20
1.0699653528
 30
0.0
 10
-9.9464806354
 20
1.0526966172
 30
0.0
 10
-9.9397395646
 20
1.0181985301
 30
0.0
 10
-9.9401929299
 20
0.9669193071
 30
0.0
 10
-9.9516069735
 20
0.9195773704
 30
0.0
 10
-9.9666058389
 20
0.8915996621
 30
0.0
 10
-9.9756218979
 20
0.879212901
 30
0.0
 11
-9.9514515458
 21
1.0699653528
 31
0.0
 11
-9.9414088614
 21
1.0169991645
 31
0.0
 11
-9.9421843896
 21
0.9661975111
 31
0.0
 11
-9.9537459486
 21
0.9196348429
 31
0.0
 11
-9.9756218979
 21
0.879212901
 31
0.0
  0
LINE
  5
5B2
100
AcDbEntity
  8
RACCORDO
100
AcDbLine
 62
7
  6
CONTINUOUS
 10
0.8321324483
 20
-2.2598588106
 11
0.831277532
 21
-2.0527156207
  0
SPLINE
  5
5B3
100
AcDbEntity
  8
RACCORDO
100
AcDbSpline
 62
253
  6
CONTINUOUS
 70
0
 71
3
 72
11
 73
7
 74
5
 42
0.0000001
 43
0.0000001
 44
0.0000000001
 12
0.1169074452
 22
-0.1606138387
 32
0.0
 13
-0.0549529444
 23
-0.1909039807
 33
0.0
 40
0.0
 40
0.0
 40
0.0
 40
0.0
 40
0.2313641382
 40
0.4728701121
 40
0.7286268603
 40
1.0
 40
1.0
 40
1.0
 40
1.0
 10
-9.9756219021
 20
-3.1024492512
 30
0.0
 10
-9.9666058387
 20
-3.114836012
 30
0.0
 10
-9.9516069666
 20
-3.1428137221
 30
0.0
 10
-9.9401929235
 20
-3.1901556666
 30
0.0
 10
-9.9397395692
 20
-3.2414348986
 30
0.0
 10
-9.9464806527
 20
-3.2759329899
 30
0.0
 10
-9.9514515704
 20
-3.2932017275
 30
0.0
 11
-9.9756219021
 21
-3.1024492512
 31
0.0
 11
-9.9537459433
 21
-3.1428711959
 31
0.0
 11
-9.9421843849
 21
-3.1894338698
 31
0.0
 11
-9.9414088669
 21
-3.2402355309
 31
0.0
 11
-9.9514515704
 21
-3.2932017275
 31
0.0
  0
SPLINE
  5
5B4
100
AcDbEntity
  8
RACCORDO
100
AcDbSpline
 62
253
  6
CONTINUOUS
 70
0
 71
3
 72
11
 73
7
 74
5
 42
0.0000001
 43
0.0000001
 44
0.0000000001
 12
-0.1169068264
 22
-0.1606146036
 32
0.0
 13
0.0549532952
 23
-0.1909041443
 33
0.0
 40
0.0
 40
0.0
 40
0.0
 40
0.0
 40
0.2313640979
 40
0.4728701074
 40
0.728626889
 40
1.0
 40
1.0
 40
1.0
 40
1.0
 10
11.337758082
 20
-13.8024489486
 30
0.0
 10
11.3287420679
 20
-13.8148357662
 30
0.0
 10
11.3137433073
 20
-13.8428135797
 30
0.0
 10
11.3023294288
 20
-13.890155626
 30
0.0
 10
11.3018762153
 20
-13.941434924
 30
0.0
 10
11.3086173699
 20
-13.9759330454
 30
0.0
 10
11.3135883188
 20
-13.9932017959
 30
0.0
 11
11.337758082
 21
-13.8024489486
 31
0.0
 11
11.3158822824
 21
-13.8428710373
 31
0.0
 11
11.3043208821
 21
-13.889433821
 31
0.0
 11
11.3035455045
 21
-13.9402355559
 31
0.0
 11
11.3135883188
 21
-13.9932017959
 31
0.0
  0
SPLINE
  5
5B5
100
AcDbEntity
  8
RACCORDO
100
AcDbSpline
 62
253
  6
CONTINUOUS
 70
0
 71
3
 72
17
 73
13
 74
11
 42
0.0000001
 43
0.0000001
 44
0.0000000001
 12
0.0686551572
 22
0.2493346591
 32
0.0
 13
-0.1885926705
 23
0.1769579257
 33
0.0
 40
0.0
 40
0.0
 40
0.0
 40
0.0
 40
0.017536441
 40
0.0408747172
 40
0.0709152522
 40
0.1079429744
 40
0.2027692834
 40
0.3238099407
 40
0.4681404566
 40
0.6319752947
 40
0.8108898445
 40
1.0
 40
1.0
 40
1.0
 40
1.0
 10
1.1160547652
 20
-9.7762938509
 30
0.0
 10
1.1164560875
 20
-9.77483637
 30
0.0
 10
1.116489347
 20
-9.7712165578
 30
0.0
 10
1.1149728972
 20
-9.7652751639
 30
0.0
 10
1.1119634081
 20
-9.7580618829
 30
0.0
 10
1.1053619936
 20
-9.7457526427
 30
0.0
 10
1.0931258949
 20
-9.7276554014
 30
0.0
 10
1.0739861573
 20
-9.7031944943
 30
0.0
 10
1.0497761366
 20
-9.6751971332
 30
0.0
 10
1.021168657
 20
-9.6444531316
 30
0.0
 10
0.9889425139
 20
-9.6118320547
 30
0.0
 10
0.9660637277
 20
-9.5898478058
 30
0.0
 10
0.9541754646
 20
-9.5786929588
 30
0.0
 11
1.1160547652
 21
-9.7762938509
 31
0.0
 11
1.1163176188
 21
-9.771766302
 31
0.0
 11
1.1149947458
 21
-9.765877449
 31
0.0
 11
1.1120952512
 21
-9.7586698922
 31
0.0
 11
1.1076396778
 21
-9.7501937124
 31
0.0
 11
1.0941962818
 21
-9.7296833806
 31
0.0
 11
1.0750431871
 21
-9.7049240131
 31
0.0
 11
1.0507190689
 21
-9.6766121497
 31
0.0
 11
1.0219087566
 21
-9.6455447377
 31
0.0
 11
0.9894232897
 21
-9.6125964028
 31
0.0
 11
0.9541754646
 21
-9.5786929588
 31
0.0
  0
SPLINE
  5
5B6
100
AcDbEntity
  8
RACCORDO
100
AcDbSpline
 62
253
  6
CONTINUOUS
 70
0
 71
3
 72
11
 73
7
 74
5
 42
0.0000001
 43
0.0000001
 44
0.0000000001
 12
-0.1169073783
 22
0.160613816
 32
0.0
 13
0.0549528097
 23
0.1909039593
 33
0.0
 40
0.0
 40
0.0
 40
0.0
 40
0.0
 40
0.2313641403
 40
0.4728701284
 40
0.7286268803
 40
1.0
 40
1.0
 40
1.0
 40
1.0
 10
11.3377585444
 20
-9.820786941
 30
0.0
 10
11.328742486
 20
-9.8084001819
 30
0.0
 10
11.3137436207
 20
-9.7804224783
 30
0.0
 10
11.3023295718
 20
-9.7330805494
 30
0.0
 10
11.301876196
 20
-9.6818013334
 30
0.0
 10
11.3086172571
 20
-9.6473032495
 30
0.0
 10
11.3135881623
 20
-9.6300345152
 30
0.0
 11
11.3377585444
 21
-9.820786941
 31
0.0
 11
11.315882595
 21
-9.7803650059
 31
0.0
 11
11.3043210309
 21
-9.7338023449
 31
0.0
 11
11.3035454925
 21
-9.6830006981
 31
0.0
 11
11.3135881623
 21
-9.6300345152
 31
0.0
  0
SPLINE
  5
5B7
100
AcDbEntity
  8
RACCORDO
100
AcDbSpline
 62
253
  6
CONTINUOUS
 70
0
 71
3
 72
11
 73
7
 74
5
 42
0.0000001
 43
0.0000001
 44
0.0000000001
 12
0.2182356316
 22
-0.2044218786
 32
0.0
 13
0.0124944182
 23
-0.2987624221
 33
0.0
 40
0.0
 40
0.0
 40
0.0
 40
0.0
 40
0.2748690634
 40
0.5285173957
 40
0.7681350287
 40
1.0
 40
1.0
 40
1.0
 40
1.0
 10
11.3377598006
 20
-9.8207881121
 30
0.0
 10
11.3577552085
 20
-9.8395178622
 30
0.0
 10
11.3930154117
 20
-9.8791674086
 30
0.0
 10
11.4322485082
 20
-9.9454479511
 30
0.0
 10
11.4565224164
 20
-10.0139984076
 30
0.0
 10
11.4632416605
 20
-10.0608784493
 30
0.0
 10
11.4642073331
 20
-10.0839692961
 30
0.0
 11
11.3377598006
 21
-9.8207881121
 31
0.0
 11
11.3921954458
 21
-9.8823700852
 31
0.0
 11
11.4306694658
 21
-9.9477343826
 31
0.0
 11
11.4544408741
 21
-10.0153275169
 31
0.0
 11
11.4642073331
 21
-10.0839692961
 31
0.0
  0
SPLINE
  5
5B8
100
AcDbEntity
  8
RACCORDO
100
AcDbSpline
 62
253
  6
CONTINUOUS
 70
0
 71
3
 72
11
 73
7
 74
5
 42
0.0000001
 43
0.0000001
 44
0.0000000001
 12
-0.012494323
 22
-0.2987624949
 32
0.0
 13
-0.2182355852
 23
-0.2044220287
 33
0.0
 40
0.0
 40
0.0
 40
0.0
 40
0.0
 40
0.2318646292
 40
0.4714821393
 40
0.7251305672
 40
1.0
 40
1.0
 40
1.0
 40
1.0
 10
11.4642073331
 20
-13.5392671232
 30
0.0
 10
11.4632416692
 20
-13.5623579416
 30
0.0
 10
11.4565223857
 20
-13.609237945
 30
0.0
 10
11.4322484419
 20
-13.6777883637
 30
0.0
 10
11.3930153044
 20
-13.7440689403
 30
0.0
 10
11.3577550743
 20
-13.7837185392
 30
0.0
 10
11.3377596438
 20
-13.8024483282
 30
0.0
 11
11.4642073331
 21
-13.5392671232
 31
0.0
 11
11.4544408552
 21
-13.6079088125
 31
0.0
 11
11.4306694139
 21
-13.6755019137
 31
0.0
 11
11.392195358
 21
-13.7408662434
 31
0.0
 11
11.3377596438
 21
-13.8024483282
 31
0.0
  0
SPLINE
  5
5B9
100
AcDbEntity
  8
RACCORDO
100
AcDbSpline
 62
253
  6
CONTINUOUS
 70
0
 71
3
 72
11
 73
7
 74
5
 42
0.0000001
 43
0.0000001
 44
0.0000000001
 12
-0.2182354472
 22
0.2044221453
 32
0.0
 13
-0.0124944574
 23
0.2987624682
 33
0.0
 40
0.0
 40
0.0
 40
0.0
 40
0.0
 40
0.2748697639
 40
0.5285180581
 40
0.768135381
 40
1.0
 40
1.0
 40
1.0
 40
1.0
 10
-9.9756227199
 20
-3.1024484882
 30
0.0
 10
-9.9956181619
 20
-3.083718666
 30
0.0
 10
-10.0308784185
 20
-3.0440690793
 30
0.0
 10
-10.0701116805
 20
-2.9777885856
 30
0.0
 10
-10.0943857266
 20
-2.9092382361
 30
0.0
 10
-10.1011049999
 20
-2.8623582524
 30
0.0
 10
-10.1020706741
 20
-2.8392674371
 30
0.0
 11
-9.9756227199
 21
-3.1024484882
 31
0.0
 11
-10.0300585186
 21
-3.0408663537
 31
0.0
 11
-10.0685326577
 21
-2.9755021256
 31
0.0
 11
-10.0923041731
 21
-2.9079091151
 31
0.0
 11
-10.1020706741
 21
-2.8392674371
 31
0.0
  0
SPLINE
  5
5BA
100
AcDbEntity
  8
RACCORDO
100
AcDbSpline
 62
253
  6
CONTINUOUS
 70
0
 71
3
 72
11
 73
7
 74
5
 42
0.0000001
 43
0.0000001
 44
0.0000000001
 12
-0.218235772
 22
-0.2044220414
 32
0.0
 13
-0.0124944406
 23
-0.2987626351
 33
0.0
 40
0.0
 40
0.0
 40
0.0
 40
0.0
 40
0.2748693615
 40
0.5285177679
 40
0.7681353076
 40
1.0
 40
1.0
 40
1.0
 40
1.0
 10
-9.9756229044
 20
0.8792119632
 30
0.0
 10
-9.9956183468
 20
0.8604821779
 30
0.0
 10
-10.0308786087
 20
0.8208325844
 30
0.0
 10
-10.070111772
 20
0.7545519859
 30
0.0
 10
-10.094385731
 20
0.6860015252
 30
0.0
 10
-10.1011050009
 20
0.6391214888
 30
0.0
 10
-10.1020706741
 20
0.6160306533
 30
0.0
 11
-9.9756229044
 21
0.8792119632
 31
0.0
 11
-10.0300586564
 21
0.8176298871
 31
0.0
 11
-10.0685327397
 21
0.7522655383
 31
0.0
 11
-10.0923041934
 21
0.6846723952
 31
0.0
 11
-10.1020706741
 21
0.6160306533
 31
0.0
  0
LINE
  5
5BB
100
AcDbEntity
  8
RACCORDO
100
AcDbLine
 62
253
  6
CONTINUOUS
 10
-4.5754256414
 20
-2.902393955
 11
-4.5679372998
 21
-2.7343785036
  0
SPLINE
  5
5BC
100
AcDbEntity
  8
RACCORDO
100
AcDbSpline
 62
253
  6
CONTINUOUS
 70
0
 71
3
 72
15
 73
11
 74
9
 42
0.0000001
 43
0.0000001
 44
0.0000000001
 12
0.3214892324
 22
0.5031374492
 32
0.0
 13
0.3214921235
 23
-0.5031356019
 33
0.0
 40
0.0
 40
0.0
 40
0.0
 40
0.0
 40
0.1247104312
 40
0.249641424
 40
0.3747644403
 40
0.5000000733
 40
0.6252357095
 40
0.7503587073
 40
0.8752897011
 40
1.0
 40
1.0
 40
1.0
 40
1.0
 10
-5.0699247396
 20
-2.734376661
 30
0.0
 10
-5.056560386
 20
-2.7134611649
 30
0.0
 10
-5.0245851468
 20
-2.6746726131
 30
0.0
 10
-4.9639121758
 20
-2.6300249891
 30
0.0
 10
-4.8938844226
 20
-2.601792739
 30
0.0
 10
-4.8189304832
 20
-2.5921364602
 30
0.0
 10
-4.7439766072
 20
-2.6017933204
 30
0.0
 10
-4.6739491284
 20
-2.6300261671
 30
0.0
 10
-4.6132763888
 20
-2.674674164
 30
0.0
 10
-4.5813018417
 20
-2.713463174
 30
0.0
 10
-4.5679373821
 20
-2.7343785711
 30
0.0
 11
-5.0699247396
 21
-2.734376661
 31
0.0
 11
-5.0225069294
 21
-2.6769647581
 31
0.0
 11
-4.9624015341
 21
-2.6327884491
 31
0.0
 11
-4.8930947312
 21
-2.6048977733
 31
0.0
 11
-4.8189304938
 21
-2.5953562819
 31
0.0
 11
-4.7447663298
 21
-2.6048983585
 31
0.0
 11
-4.6754597628
 21
-2.6327895909
 31
0.0
 11
-4.6153547204
 21
-2.676966381
 31
0.0
 11
-4.5679373821
 21
-2.7343785711
 31
0.0
  0
LINE
  5
5BD
100
AcDbEntity
  8
RACCORDO
100
AcDbLine
 62
253
  6
CONTINUOUS
 10
-5.0624377005
 20
-2.9023939561
 11
-5.069924819
 21
-2.7343766214
  0
SPLINE
  5
5BE
100
AcDbEntity
  8
RACCORDO
100
AcDbSpline
 62
253
  6
CONTINUOUS
 70
0
 71
3
 72
15
 73
11
 74
9
 42
0.0000001
 43
0.0000001
 44
0.0000000001
 12
-0.3320980382
 22
0.4581977871
 32
0.0
 13
-0.3320980294
 23
-0.4581977935
 33
0.0
 40
0.0
 40
0.0
 40
0.0
 40
0.0
 40
0.1247349824
 40
0.2496780774
 40
0.3747912712
 40
0.5000000002
 40
0.6252087289
 40
0.7503219227
 40
0.8752650177
 40
1.0
 40
1.0
 40
1.0
 40
1.0
 10
-4.5754257164
 20
-2.9023939769
 30
0.0
 10
-4.5892337974
 20
-2.8833428793
 30
0.0
 10
-4.6215437618
 20
-2.848361882
 30
0.0
 10
-4.680882286
 20
-2.8087837043
 30
0.0
 10
-4.7479336572
 20
-2.7840997229
 30
0.0
 10
-4.8189316666
 20
-2.7757217109
 30
0.0
 10
-4.8899296757
 20
-2.7840997252
 30
0.0
 10
-4.9569810461
 20
-2.8087837088
 30
0.0
 10
-5.0163195692
 20
-2.8483618882
 30
0.0
 10
-5.0486295321
 20
-2.8833428868
 30
0.0
 10
-5.0624376127
 20
-2.9023939847
 30
0.0
 11
-4.5754257164
 21
-2.9023939769
 31
0.0
 11
-4.6233188515
 21
-2.8505411622
 31
0.0
 11
-4.6821259858
 21
-2.8112877865
 31
0.0
 11
-4.7485658713
 21
-2.7868241586
 31
0.0
 11
-4.8189316666
 21
-2.7785150924
 31
0.0
 11
-4.8892974615
 21
-2.7868241609
 31
0.0
 11
-4.9557373462
 21
-2.8112877909
 31
0.0
 11
-5.0145444792
 21
-2.8505411685
 31
0.0
 11
-5.0624376127
 21
-2.9023939847
 31
0.0
  0
LINE
  5
5BF
100
AcDbEntity
  8
RACCORDO
100
AcDbLine
 62
253
  6
CONTINUOUS
 10
-5.0624376993
 20
0.6791575063
 11
-5.0699260411
 21
0.5111420553
  0
SPLINE
  5
5C0
100
AcDbEntity
  8
RACCORDO
100
AcDbSpline
 62
253
  6
CONTINUOUS
 70
0
 71
3
 72
15
 73
11
 74
9
 42
0.0000001
 43
0.0000001
 44
0.0000000001
 12
-0.3214892324
 22
-0.5031374491
 32
0.0
 13
-0.3214921235
 23
0.5031356018
 33
0.0
 40
0.0
 40
0.0
 40
0.0
 40
0.0
 40
0.1247104312
 40
0.249641424
 40
0.3747644403
 40
0.5000000733
 40
0.6252357095
 40
0.7503587073
 40
0.8752897011
 40
1.0
 40
1.0
 40
1.0
 40
1.0
 10
-4.5679386015
 20
0.5111402126
 30
0.0
 10
-4.5813029551
 20
0.4902247165
 30
0.0
 10
-4.6132781943
 20
0.4514361648
 30
0.0
 10
-4.6739511653
 20
0.4067885408
 30
0.0
 10
-4.7439789185
 20
0.3785562907
 30
0.0
 10
-4.8189328578
 20
0.3689000119
 30
0.0
 10
-4.8938867338
 20
0.3785568721
 30
0.0
 10
-4.9639142126
 20
0.4067897188
 30
0.0
 10
-5.0245869523
 20
0.4514377157
 30
0.0
 10
-5.0565614994
 20
0.4902267257
 30
0.0
 10
-5.069925959
 20
0.5111421228
 30
0.0
 11
-4.5679386015
 21
0.5111402126
 31
0.0
 11
-4.6153564116
 21
0.4537283098
 31
0.0
 11
-4.6754618069
 21
0.4095520008
 31
0.0
 11
-4.7447686099
 21
0.3816613251
 31
0.0
 11
-4.8189328472
 21
0.3721198336
 31
0.0
 11
-4.8930970113
 21
0.3816619102
 31
0.0
 11
-4.9624035783
 21
0.4095531426
 31
0.0
 11
-5.0225086207
 21
0.4537299327
 31
0.0
 11
-5.069925959
 21
0.5111421228
 31
0.0
  0
LINE
  5
5C1
100
AcDbEntity
  8
RACCORDO
100
AcDbLine
 62
253
  6
CONTINUOUS
 10
-4.575425642
 20
0.6791575061
 11
-4.5679385222
 21
0.5111401731
  0
SPLINE
  5
5C2
100
AcDbEntity
  8
RACCORDO
100
AcDbSpline
 62
253
  6
CONTINUOUS
 70
0
 71
3
 72
15
 73
11
 74
9
 42
0.0000001
 43
0.0000001
 44
0.0000000001
 12
-0.3320980392
 22
-0.4581977875
 32
0.0
 13
-0.3320980303
 23
0.458197794
 33
0.0
 40
0.0
 40
0.0
 40
0.0
 40
0.0
 40
0.1247349824
 40
0.2496780774
 40
0.3747912712
 40
0.4999999999
 40
0.6252087289
 40
0.7503219226
 40
0.8752650176
 40
1.0
 40
1.0
 40
1.0
 40
1.0
 10
-4.575425716
 20
0.6791575273
 30
0.0
 10
-4.589233797
 20
0.6601064297
 30
0.0
 10
-4.6215437616
 20
0.6251254324
 30
0.0
 10
-4.680882286
 20
0.5855472548
 30
0.0
 10
-4.7479336574
 20
0.5608632735
 30
0.0
 10
-4.8189316669
 20
0.5524852618
 30
0.0
 10
-4.8899296761
 20
0.5608632763
 30
0.0
 10
-4.9569810465
 20
0.5855472602
 30
0.0
 10
-5.0163195695
 20
0.62512544
 30
0.0
 10
-5.0486295321
 20
0.660106439
 30
0.0
 10
-5.0624376128
 20
0.6791575369
 30
0.0
 11
-4.575425716
 21
0.6791575273
 31
0.0
 11
-4.6233188513
 21
0.6273047126
 31
0.0
 11
-4.6821259858
 21
0.588051337
 31
0.0
 11
-4.7485658715
 21
0.5635877093
 31
0.0
 11
-4.8189316668
 21
0.5552786433
 31
0.0
 11
-4.8892974619
 21
0.563587712
 31
0.0
 11
-4.9557373466
 21
0.5880513424
 31
0.0
 11
-5.0145444795
 21
0.6273047202
 31
0.0
 11
-5.0624376128
 21
0.6791575369
 31
0.0
  0
LINE
  5
5C3
100
AcDbEntity
  8
RACCORDO
100
AcDbLine
 62
253
  6
CONTINUOUS
 10
5.9375623604
 20
-10.0208425702
 11
5.9300738848
 21
-10.1888578361
  0
SPLINE
  5
5C4
100
AcDbEntity
  8
RACCORDO
100
AcDbSpline
 62
253
  6
CONTINUOUS
 70
0
 71
3
 72
15
 73
11
 74
9
 42
0.0000001
 43
0.0000001
 44
0.0000000001
 12
-0.321489212
 22
-0.5031374983
 32
0.0
 13
-0.3214920989
 23
0.5031356536
 33
0.0
 40
0.0
 40
0.0
 40
0.0
 40
0.0
 40
0.1247104215
 40
0.2496414149
 40
0.3747644349
 40
0.5000000733
 40
0.6252357149
 40
0.7503587165
 40
0.875289711
 40
1.0
 40
1.0
 40
1.0
 40
1.0
 10
6.4320613933
 20
-10.1888596341
 30
0.0
 10
6.4186970416
 20
-10.2097751306
 30
0.0
 10
6.3867218099
 20
-10.248563689
 30
0.0
 10
6.3260488432
 20
-10.2932113241
 30
0.0
 10
6.2560210885
 20
-10.3214435865
 30
0.0
 10
6.1810671422
 20
-10.33109987
 30
0.0
 10
6.1061132593
 20
-10.3214430045
 30
0.0
 10
6.0360857792
 20
-10.2932101448
 30
0.0
 10
5.9754130442
 20
-10.2485621364
 30
0.0
 10
5.9434385046
 20
-10.2097731198
 30
0.0
 10
5.9300740471
 20
-10.1888577222
 30
0.0
 11
6.4320613933
 21
-10.1888596341
 31
0.0
 11
6.3846435931
 21
-10.2462715426
 31
0.0
 11
6.3245382016
 21
-10.2904478637
 31
0.0
 11
6.2552313967
 21
-10.3183385508
 31
0.0
 11
6.1810671528
 21
-10.3278800466
 31
0.0
 11
6.1069029823
 21
-10.318337965
 31
0.0
 11
6.0375964135
 21
-10.2904467207
 31
0.0
 11
5.9774913752
 21
-10.246269918
 31
0.0
 11
5.9300740471
 21
-10.1888577222
 31
0.0
  0
LINE
  5
5C5
100
AcDbEntity
  8
RACCORDO
100
AcDbLine
 62
253
  6
CONTINUOUS
 10
6.4245742985
 20
-10.0208425704
 11
6.4320615513
 21
-10.1888597191
  0
SPLINE
  5
5C6
100
AcDbEntity
  8
RACCORDO
100
AcDbSpline
 62
253
  6
CONTINUOUS
 70
0
 71
3
 72
15
 73
11
 74
9
 42
0.0000001
 43
0.0000001
 44
0.0000000001
 12
0.332098068
 22
-0.4581977348
 32
0.0
 13
0.3320980656
 23
0.4581977366
 33
0.0
 40
0.0
 40
0.0
 40
0.0
 40
0.0
 40
0.1247349705
 40
0.2496780665
 40
0.3747912647
 40
0.5000000001
 40
0.6252087352
 40
0.7503219335
 40
0.8752650294
 40
1.0
 40
1.0
 40
1.0
 40
1.0
 10
5.9375623782
 20
-10.0208425537
 30
0.0
 10
5.9513704591
 20
-10.0398936474
 30
0.0
 10
5.9836804263
 20
-10.0748746362
 30
0.0
 10
6.0430189476
 20
-10.1144528095
 30
0.0
 10
6.1100703191
 20
-10.139136788
 30
0.0
 10
6.1810683284
 20
-10.1475147998
 30
0.0
 10
6.2520663376
 20
-10.1391367874
 30
0.0
 10
6.3191177089
 20
-10.1144528084
 30
0.0
 10
6.3784562299
 20
-10.0748746346
 30
0.0
 10
6.4107661966
 20
-10.0398936453
 30
0.0
 10
6.4245742774
 20
-10.0208425516
 30
0.0
 11
5.9375623782
 21
-10.0208425537
 31
0.0
 11
5.9854555128
 21
-10.0726953556
 31
0.0
 11
6.0442626469
 21
-10.1119487269
 31
0.0
 11
6.1107025326
 21
-10.1364123525
 31
0.0
 11
6.1810683285
 21
-10.1447214186
 31
0.0
 11
6.2514341241
 21
-10.136412352
 31
0.0
 11
6.3178740096
 21
-10.1119487258
 31
0.0
 11
6.3766811433
 21
-10.072695354
 31
0.0
 11
6.4245742774
 21
-10.0208425516
 31
0.0
  0
LINE
  5
5C7
100
AcDbEntity
  8
RACCORDO
100
AcDbLine
 62
253
  6
CONTINUOUS
 10
6.4245742988
 20
-13.6023938782
 11
6.432062774
 21
-13.4343786118
  0
SPLINE
  5
5C8
100
AcDbEntity
  8
RACCORDO
100
AcDbSpline
 62
253
  6
CONTINUOUS
 70
0
 71
3
 72
15
 73
11
 74
9
 42
0.0000001
 43
0.0000001
 44
0.0000000001
 12
0.321489212
 22
0.5031374981
 32
0.0
 13
0.321492099
 23
-0.5031356535
 33
0.0
 40
0.0
 40
0.0
 40
0.0
 40
0.0
 40
0.1247104215
 40
0.249641415
 40
0.3747644349
 40
0.5000000733
 40
0.6252357149
 40
0.7503587164
 40
0.8752897109
 40
1.0
 40
1.0
 40
1.0
 40
1.0
 10
5.9300752656
 20
-13.4343768136
 30
0.0
 10
5.9434396174
 20
-13.4134613172
 30
0.0
 10
5.9754148491
 20
-13.3746727588
 30
0.0
 10
6.0360878157
 20
-13.3300251237
 30
0.0
 10
6.1061155704
 20
-13.3017928614
 30
0.0
 10
6.1810695168
 20
-13.2921365779
 30
0.0
 10
6.2560233997
 20
-13.3017934433
 30
0.0
 10
6.3260508798
 20
-13.330026303
 30
0.0
 10
6.3867236147
 20
-13.3746743114
 30
0.0
 10
6.4186981543
 20
-13.413463328
 30
0.0
 10
6.4320626119
 20
-13.4343787256
 30
0.0
 11
5.9300752656
 21
-13.4343768136
 31
0.0
 11
5.9774930658
 21
-13.3769649052
 31
0.0
 11
6.0375984574
 21
-13.3327885841
 31
0.0
 11
6.1069052623
 21
-13.3048978971
 31
0.0
 11
6.1810695061
 21
-13.2953564013
 31
0.0
 11
6.2552336766
 21
-13.3048984829
 31
0.0
 11
6.3245402454
 21
-13.3327897271
 31
0.0
 11
6.3846452838
 21
-13.3769665298
 31
0.0
 11
6.4320626119
 21
-13.4343787256
 31
0.0
  0
LINE
  5
5C9
100
AcDbEntity
  8
RACCORDO
100
AcDbLine
 62
253
  6
CONTINUOUS
 10
5.9375623602
 20
-13.6023938781
 11
5.9300751078
 21
-13.4343767288
  0
SPLINE
  5
5CA
100
AcDbEntity
  8
RACCORDO
100
AcDbSpline
 62
253
  6
CONTINUOUS
 70
0
 71
3
 72
15
 73
11
 74
9
 42
0.0000001
 43
0.0000001
 44
0.0000000001
 12
-0.3320980681
 22
0.4581977347
 32
0.0
 13
-0.3320980656
 23
-0.4581977364
 33
0.0
 40
0.0
 40
0.0
 40
0.0
 40
0.0
 40
0.1247349704
 40
0.2496780664
 40
0.3747912647
 40
0.5000000001
 40
0.6252087353
 40
0.7503219335
 40
0.8752650295
 40
1.0
 40
1.0
 40
1.0
 40
1.0
 10
6.4245742808
 20
-13.6023938949
 30
0.0
 10
6.4107661999
 20
-13.5833428012
 30
0.0
 10
6.3784562326
 20
-13.5483618125
 30
0.0
 10
6.3191177113
 20
-13.5087836392
 30
0.0
 10
6.2520663398
 20
-13.4840996607
 30
0.0
 10
6.1810683305
 20
-13.4757216489
 30
0.0
 10
6.1100703213
 20
-13.4840996613
 30
0.0
 10
6.0430189501
 20
-13.5087836403
 30
0.0
 10
5.9836804291
 20
-13.5483618141
 30
0.0
 10
5.9513704623
 20
-13.5833428033
 30
0.0
 10
5.9375623815
 20
-13.602393897
 30
0.0
 11
6.4245742808
 21
-13.6023938949
 31
0.0
 11
6.3766811462
 21
-13.550541093
 31
0.0
 11
6.3178740121
 21
-13.5112877217
 31
0.0
 11
6.2514341264
 21
-13.4868240961
 31
0.0
 11
6.1810683305
 21
-13.4785150301
 31
0.0
 11
6.1107025349
 21
-13.4868240967
 31
0.0
 11
6.0442626494
 21
-13.5112877229
 31
0.0
 11
5.9854555156
 21
-13.5505410946
 31
0.0
 11
5.9375623815
 21
-13.602393897
 31
0.0
  0
SPLINE
  5
5CB
100
AcDbEntity
  8
RACCORDO
100
AcDbSpline
 62
253
  6
CONTINUOUS
 70
0
 71
3
 72
9
 73
5
 74
3
 42
0.0000001
 43
0.0000001
 44
0.0000000001
 12
0.1733762502
 22
0.2641306219
 32
0.0
 13
0.2039594007
 23
0.2412983058
 33
0.0
 40
0.0
 40
0.0
 40
0.0
 40
0.0
 40
0.4990184723
 40
1.0
 40
1.0
 40
1.0
 40
1.0
 10
0.9541757825
 20
-9.5786925037
 30
0.0
 10
0.9830150997
 20
-9.5347571505
 30
0.0
 10
1.0429121076
 20
-9.4480637979
 30
0.0
 10
1.108093482
 20
-9.3652242624
 30
0.0
 10
1.1421534461
 20
-9.3249289311
 30
0.0
 11
0.9541757825
 21
-9.5786925037
 31
0.0
 11
1.0441104364
 21
-9.4491936571
 31
0.0
 11
1.1421534461
 21
-9.3249289311
 31
0.0
  0
SPLINE
  5
5CC
100
AcDbEntity
  8
RACCORDO
100
AcDbSpline
 62
7
  6
CONTINUOUS
 70
0
 71
3
 72
31
 73
27
 74
25
 42
0.0000001
 43
0.0000001
 44
0.0000000001
 12
-2.4084790255
 22
0.0119799942
 32
0.0
 13
-0.2754303538
 23
2.3927082682
 33
0.0
 40
0.0
 40
0.0
 40
0.0
 40
0.0
 40
0.2077901844
 40
0.3063086696
 40
0.4003798445
 40
0.4893916166
 40
0.5727655751
 40
0.6499589961
 40
0.7204709402
 40
0.7838426653
 40
0.8396638155
 40
0.8646274553
 40
0.8875719487
 40
0.9084605369
 40
0.9272593947
 40
0.9439383657
 40
0.9584717044
 40
0.970837657
 40
0.9810182314
 40
0.9890013954
 40
0.994784334
 40
0.9968559406
 40
0.9983897568
 40
0.9989615019
 40
0.99941044
 40
1.0
 40
1.0
 40
1.0
 40
1.0
 10
-5.4774314559
 20
-9.2223571378
 30
0.0
 10
-5.6442508896
 20
-9.2215273628
 30
0.0
 10
-5.8901620772
 20
-9.2199445914
 30
0.0
 10
-6.2115885556
 20
-9.2170409629
 30
0.0
 10
-6.4376551333
 20
-9.2145779242
 30
0.0
 10
-6.6515586318
 20
-9.2118077969
 30
0.0
 10
-6.8519066921
 20
-9.2087494593
 30
0.0
 10
-7.0373959937
 20
-9.2054237879
 30
0.0
 10
-7.2068190974
 20
-9.2018547157
 30
0.0
 10
-7.359074299
 20
-9.1980669279
 30
0.0
 10
-7.4747582736
 20
-9.1946385961
 30
0.0
 10
-7.5579863881
 20
-9.1917626742
 30
0.0
 10
-7.6131785475
 20
-9.1896479305
 30
0.0
 10
-7.6634159715
 20
-9.1874984523
 30
0.0
 10
-7.7086167256
 20
-9.1853184578
 30
0.0
 10
-7.7487071885
 20
-9.183112397
 30
0.0
 10
-7.7836232669
 20
-9.1808869614
 30
0.0
 10
-7.8133083621
 20
-9.1786462003
 30
0.0
 10
-7.8377190108
 20
-9.1764090873
 30
0.0
 10
-7.8568136636
 20
-9.1741681102
 30
0.0
 10
-7.8693864853
 20
-9.172206642
 30
0.0
 10
-7.8767345326
 20
-9.1705002322
 30
0.0
 10
-7.8799389971
 20
-9.1695091498
 30
0.0
 10
-7.8818196465
 20
-9.1686515864
 30
0.0
 10
-7.882904076
 20
-9.1679972573
 30
0.0
 10
-7.8835553688
 20
-9.1673077309
 30
0.0
 10
-7.8836094964
 20
-9.1668375158
 30
0.0
 11
-5.4774314559
 21
-9.2223571378
 31
0.0
 11
-5.9778852577
 21
-9.2190860681
 31
0.0
 11
-6.2151581335
 21
-9.2169333994
 31
0.0
 11
-6.4417158206
 21
-9.2144539372
 31
0.0
 11
-6.6560833018
 21
-9.2116637971
 31
0.0
 11
-6.8568665537
 21
-9.2085811689
 31
0.0
 11
-7.0427573142
 21
-9.2052260882
 31
0.0
 11
-7.2125476728
 21
-9.2016204243
 31
0.0
 11
-7.3651309004
 21
-9.1977876194
 31
0.0
 11
-7.4995160707
 21
-9.1937526447
 31
0.0
 11
-7.5596050496
 21
-9.1916674903
 31
0.0
 11
-7.6148261635
 21
-9.1895417348
 31
0.0
 11
-7.6650899986
 21
-9.1873788412
 31
0.0
 11
-7.7103139026
 21
-9.1851823225
 31
0.0
 11
-7.750423598
 21
-9.1829557513
 31
0.0
 11
-7.7853546908
 21
-9.1807027575
 31
0.0
 11
-7.8150511249
 21
-9.1784270115
 31
0.0
 11
-7.8394635076
 21
-9.1761322042
 31
0.0
 11
-7.8585517482
 21
-9.1738220907
 31
0.0
 11
-7.8722851497
 21
-9.1715004369
 31
0.0
 11
-7.8771369532
 21
-9.170336418
 31
0.0
 11
-7.8806424824
 21
-9.169170892
 31
0.0
 11
-7.8818899603
 21
-9.1685877332
 31
0.0
 11
-7.8828003859
 21
-9.1680044041
 31
0.0
 11
-7.8836094964
 21
-9.1668375158
 31
0.0
  0
SPLINE
  5
5CD
100
AcDbEntity
  8
RACCORDO
100
AcDbSpline
 62
7
  6
CONTINUOUS
 70
0
 71
3
 72
31
 73
27
 74
25
 42
0.0000001
 43
0.0000001
 44
0.0000000001
 12
-0.2754303538
 22
-2.3927082682
 32
0.0
 13
-2.4084790255
 23
-0.0119799942
 33
0.0
 40
0.0
 40
0.0
 40
0.0
 40
0.0
 40
0.00058956
 40
0.0010384981
 40
0.0016102432
 40
0.0031440594
 40
0.005215666
 40
0.0109986047
 40
0.0189817686
 40
0.029162343
 40
0.0415282956
 40
0.0560616342
 40
0.0727406052
 40
0.0915394631
 40
0.1124280514
 40
0.1353725448
 40
0.1603361847
 40
0.2161573351
 40
0.2795290605
 40
0.3500410047
 40
0.4272344256
 40
0.5106083838
 40
0.5996201557
 40
0.6936913306
 40
0.7922098159
 40
1.0
 40
1.0
 40
1.0
 40
1.0
 10
-1.2542538447
 20
-9.1668375158
 30
0.0
 10
-1.2543079723
 20
-9.1673077309
 30
0.0
 10
-1.2549592651
 20
-9.1679972573
 30
0.0
 10
-1.2560436946
 20
-9.1686515864
 30
0.0
 10
-1.257924344
 20
-9.1695091498
 30
0.0
 10
-1.2611288086
 20
-9.1705002322
 30
0.0
 10
-1.2684768559
 20
-9.1722066421
 30
0.0
 10
-1.2810496776
 20
-9.1741681102
 30
0.0
 10
-1.3001443303
 20
-9.1764090873
 30
0.0
 10
-1.324554979
 20
-9.1786462003
 30
0.0
 10
-1.3542400741
 20
-9.1808869614
 30
0.0
 10
-1.3891561525
 20
-9.183112397
 30
0.0
 10
-1.4292466154
 20
-9.1853184578
 30
0.0
 10
-1.4744473696
 20
-9.1874984523
 30
0.0
 10
-1.5246847937
 20
-9.1896479305
 30
0.0
 10
-1.5798769533
 20
-9.1917626742
 30
0.0
 10
-1.6631050681
 20
-9.1946385961
 30
0.0
 10
-1.7787890432
 20
-9.1980669279
 30
0.0
 10
-1.9310442453
 20
-9.2018547157
 30
0.0
 10
-2.1004673491
 20
-9.2054237879
 30
0.0
 10
-2.2859566505
 20
-9.2087494593
 30
0.0
 10
-2.4863047103
 20
-9.2118077969
 30
0.0
 10
-2.7002082085
 20
-9.2145779243
 30
0.0
 10
-2.9262747861
 20
-9.2170409629
 30
0.0
 10
-3.2477012642
 20
-9.2199445914
 30
0.0
 10
-3.4936124517
 20
-9.2215273628
 30
0.0
 10
-3.6604318851
 20
-9.2223571378
 30
0.0
 11
-1.2542538447
 21
-9.1668375158
 31
0.0
 11
-1.2550629552
 21
-9.1680044041
 31
0.0
 11
-1.2559733808
 21
-9.1685877332
 31
0.0
 11
-1.2572208587
 21
-9.169170892
 31
0.0
 11
-1.260726388
 21
-9.170336418
 31
0.0
 11
-1.2655781915
 21
-9.171500437
 31
0.0
 11
-1.2793115931
 21
-9.1738220908
 31
0.0
 11
-1.2983998336
 21
-9.1761322042
 31
0.0
 11
-1.3228122162
 21
-9.1784270115
 31
0.0
 11
-1.3525086502
 21
-9.1807027575
 31
0.0
 11
-1.3874397429
 21
-9.1829557513
 31
0.0
 11
-1.4275494384
 21
-9.1851823224
 31
0.0
 11
-1.4727733424
 21
-9.1873788412
 31
0.0
 11
-1.5230371776
 21
-9.1895417348
 31
0.0
 11
-1.5782582917
 21
-9.1916674903
 31
0.0
 11
-1.6383472709
 21
-9.1937526447
 31
0.0
 11
-1.7727324418
 21
-9.1977876195
 31
0.0
 11
-1.92531567
 21
-9.2016204243
 31
0.0
 11
-2.0951060288
 21
-9.2052260882
 31
0.0
 11
-2.280996789
 21
-9.208581169
 31
0.0
 11
-2.4817800403
 21
-9.2116637971
 31
0.0
 11
-2.6961475211
 21
-9.2144539373
 31
0.0
 11
-2.9227052081
 21
-9.2169333995
 31
0.0
 11
-3.159978084
 21
-9.2190860681
 31
0.0
 11
-3.6604318851
 21
-9.2223571378
 31
0.0
  0
SPLINE
  5
5CE
100
AcDbEntity
  8
RACCORDO
100
AcDbSpline
 62
253
  6
CONTINUOUS
 70
0
 71
3
 72
15
 73
11
 74
9
 42
0.0000001
 43
0.0000001
 44
0.0000000001
 12
0.6474941529
 22
0.9971360343
 32
0.0
 13
0.6475077655
 23
-0.9971271947
 33
0.0
 40
0.0
 40
0.0
 40
0.0
 40
0.0
 40
0.1250045622
 40
0.2500059323
 40
0.3750038822
 40
0.5000000667
 40
0.6249962564
 40
0.7499942044
 40
0.8749956041
 40
1.0
 40
1.0
 40
1.0
 40
1.0
 10
5.6790811666
 20
-13.2713919271
 30
0.0
 10
5.7060610743
 20
-13.229843076
 30
0.0
 10
5.7705605384
 20
-13.1530707783
 30
0.0
 10
5.8923502947
 20
-13.065365311
 30
0.0
 10
6.032074547
 20
-13.0103079777
 30
0.0
 10
6.181068437
 20
-12.99155771
 30
0.0
 10
6.3300623657
 20
-13.010307932
 30
0.0
 10
6.4697865295
 20
-13.0653653603
 30
0.0
 10
6.5915765376
 20
-13.1530706479
 30
0.0
 10
6.6560750532
 20
-13.2298435029
 30
0.0
 10
6.6830554922
 20
-13.2713919304
 30
0.0
 11
5.6790811666
 21
-13.2713919271
 31
0.0
 11
5.7747351667
 21
-13.1576452159
 31
0.0
 11
5.8953410511
 21
-13.0708057395
 31
0.0
 11
6.0336204915
 21
-13.0163588689
 31
0.0
 11
6.1810684415
 21
-12.9978077622
 31
0.0
 11
6.3285164005
 21
-13.0163588467
 31
0.0
 11
6.466795828
 21
-13.0708057439
 31
0.0
 11
6.5874016909
 21
-13.1576453104
 31
0.0
 11
6.6830554922
 21
-13.2713919304
 31
0.0
  0
SPLINE
  5
5CF
100
AcDbEntity
  8
RACCORDO
100
AcDbSpline
 62
253
  6
CONTINUOUS
 70
0
 71
3
 72
15
 73
11
 74
9
 42
0.0000001
 43
0.0000001
 44
0.0000000001
 12
-0.6474941529
 22
-0.9971360343
 32
0.0
 13
-0.6475077655
 23
0.9971271948
 33
0.0
 40
0.0
 40
0.0
 40
0.0
 40
0.0
 40
0.1250045622
 40
0.2500059323
 40
0.3750038822
 40
0.5000000667
 40
0.6249962564
 40
0.7499942044
 40
0.8749956041
 40
1.0
 40
1.0
 40
1.0
 40
1.0
 10
6.6830554924
 20
-10.3518445207
 30
0.0
 10
6.6560755847
 20
-10.3933933718
 30
0.0
 10
6.5915761205
 20
-10.4701656695
 30
0.0
 10
6.4697863643
 20
-10.5578711367
 30
0.0
 10
6.330062112
 20
-10.6129284701
 30
0.0
 10
6.181068222
 20
-10.6316787378
 30
0.0
 10
6.0320742932
 20
-10.6129285158
 30
0.0
 10
5.8923501295
 20
-10.5578710874
 30
0.0
 10
5.7705601214
 20
-10.4701657998
 30
0.0
 10
5.7060616057
 20
-10.3933929449
 30
0.0
 10
5.6790811667
 20
-10.3518445174
 30
0.0
 11
6.6830554924
 21
-10.3518445207
 31
0.0
 11
6.5874014922
 21
-10.4655912318
 31
0.0
 11
6.4667956078
 21
-10.5524307083
 31
0.0
 11
6.3285161674
 21
-10.6068775788
 31
0.0
 11
6.1810682175
 21
-10.6254286856
 31
0.0
 11
6.0336202585
 21
-10.6068776011
 31
0.0
 11
5.8953408309
 21
-10.5524307039
 31
0.0
 11
5.7747349681
 21
-10.4655911374
 31
0.0
 11
5.6790811667
 21
-10.3518445174
 31
0.0
  0
SPLINE
  5
5D0
100
AcDbEntity
  8
RACCORDO
100
AcDbSpline
 62
253
  6
CONTINUOUS
 70
0
 71
3
 72
15
 73
11
 74
9
 42
0.0000001
 43
0.0000001
 44
0.0000000001
 12
-0.6474941417
 22
-0.9971360268
 32
0.0
 13
-0.6475077548
 23
0.997127187
 33
0.0
 40
0.0
 40
0.0
 40
0.0
 40
0.0
 40
0.1250045598
 40
0.2500059306
 40
0.3750038814
 40
0.5000000667
 40
0.6249962573
 40
0.7499942062
 40
0.8749956066
 40
1.0
 40
1.0
 40
1.0
 40
1.0
 10
-4.3169445416
 20
0.3481553402
 30
0.0
 10
-4.3439244483
 20
0.3066064901
 30
0.0
 10
-4.4084238611
 20
0.2298341511
 30
0.0
 10
-4.5302136395
 20
0.1421287065
 30
0.0
 10
-4.6699378875
 20
0.0870713732
 30
0.0
 10
-4.818931778
 20
0.0683211087
 30
0.0
 10
-4.9679257073
 20
0.0870713266
 30
0.0
 10
-5.1076498669
 20
0.1421287543
 30
0.0
 10
-5.229439898
 20
0.2298340184
 30
0.0
 10
-5.2939383613
 20
0.3066069155
 30
0.0
 10
-5.3209187994
 20
0.3481553419
 30
0.0
 11
-4.3169445416
 21
0.3481553402
 31
0.0
 11
-4.4125985049
 21
0.2344086037
 31
0.0
 11
-4.5332043913
 21
0.1475691313
 31
0.0
 11
-4.6714838329
 21
0.093122265
 31
0.0
 11
-4.8189317825
 21
0.0745711597
 31
0.0
 11
-4.9663797413
 21
0.0931222419
 31
0.0
 11
-5.1046591702
 21
0.1475691342
 31
0.0
 11
-5.2252650354
 21
0.2344086962
 31
0.0
 11
-5.3209187994
 21
0.3481553419
 31
0.0
  0
SPLINE
  5
5D1
100
AcDbEntity
  8
RACCORDO
100
AcDbSpline
 62
253
  6
CONTINUOUS
 70
0
 71
3
 72
15
 73
11
 74
9
 42
0.0000001
 43
0.0000001
 44
0.0000000001
 12
0.6474941418
 22
0.9971360268
 32
0.0
 13
0.6475077548
 23
-0.997127187
 33
0.0
 40
0.0
 40
0.0
 40
0.0
 40
0.0
 40
0.1250045598
 40
0.2500059306
 40
0.3750038814
 40
0.5000000667
 40
0.6249962573
 40
0.7499942062
 40
0.8749956066
 40
1.0
 40
1.0
 40
1.0
 40
1.0
 10
-5.3209187995
 20
-2.5713917885
 30
0.0
 10
-5.2939388928
 20
-2.5298429384
 30
0.0
 10
-5.2294394799
 20
-2.4530705995
 30
0.0
 10
-5.1076497015
 20
-2.3653651548
 30
0.0
 10
-4.9679254535
 20
-2.3103078215
 30
0.0
 10
-4.8189315631
 20
-2.291557557
 30
0.0
 10
-4.6699376337
 20
-2.310307775
 30
0.0
 10
-4.5302134741
 20
-2.3653652026
 30
0.0
 10
-4.4084234431
 20
-2.4530704668
 30
0.0
 10
-4.3439249797
 20
-2.5298433638
 30
0.0
 10
-4.3169445416
 20
-2.5713917902
 30
0.0
 11
-5.3209187995
 21
-2.5713917885
 31
0.0
 11
-5.2252648361
 21
-2.4576450521
 31
0.0
 11
-5.1046589497
 21
-2.3708055797
 31
0.0
 11
-4.9663795082
 21
-2.3163587133
 31
0.0
 11
-4.8189315586
 21
-2.2978076081
 31
0.0
 11
-4.6714835998
 21
-2.3163586902
 31
0.0
 11
-4.5332041708
 21
-2.3708055825
 31
0.0
 11
-4.4125983057
 21
-2.4576451446
 31
0.0
 11
-4.3169445416
 21
-2.5713917902
 31
0.0
  0
LINE
  5
5D2
100
AcDbEntity
  8
RACCORDO
100
AcDbLine
 62
7
  6
CONTINUOUS
 10
10.3935797111
 20
-19.1302870458
 11
9.9794292355
 21
-18.1304393507
  0
SPLINE
  5
5D3
100
AcDbEntity
  8
RACCORDO
100
AcDbSpline
 62
253
  6
CONTINUOUS
 70
0
 71
3
 72
13
 73
9
 74
7
 42
0.0000001
 43
0.0000001
 44
0.0000000001
 12
-0.7131644522
 22
-0.9571751306
 32
0.0
 13
-0.9954030572
 23
-0.6587567991
 33
0.0
 40
0.0
 40
0.0
 40
0.0
 40
0.0
 40
0.1048343797
 40
0.2186830041
 40
0.3390962143
 40
0.464634976
 40
0.7273531242
 40
1.0
 40
1.0
 40
1.0
 40
1.0
 10
11.3135881893
 20
-13.9932017959
 30
0.0
 10
11.2886668049
 20
-14.0266500829
 30
0.0
 10
11.2360628174
 20
-14.0959683501
 30
0.0
 10
11.1514562342
 20
-14.2010939752
 30
0.0
 10
11.0577513014
 20
-14.3093735306
 30
0.0
 10
10.9191027947
 20
-14.4568833975
 30
0.0
 10
10.7258626447
 20
-14.6358577911
 30
0.0
 10
10.5548215538
 20
-14.7636866583
 30
0.0
 10
10.4643570426
 20
-14.823555986
 30
0.0
 11
11.3135881893
 21
-13.9932017959
 31
0.0
 11
11.2377810335
 21
-14.0927610489
 31
0.0
 11
11.1524894126
 21
-14.198556792
 31
0.0
 11
11.0583708061
 21
-14.307185388
 31
0.0
 11
10.9556894487
 21
-14.4163236788
 31
0.0
 11
10.7252722228
 21
-14.6290392863
 31
0.0
 11
10.4643570426
 21
-14.823555986
 31
0.0
  0
SPLINE
  5
5D4
100
AcDbEntity
  8
RACCORDO
100
AcDbSpline
 62
253
  6
CONTINUOUS
 70
0
 71
3
 72
11
 73
7
 74
5
 42
0.0000001
 43
0.0000001
 44
0.0000000001
 12
-0.0093146547
 22
-0.4853626144
 32
0.0
 13
-0.2900408701
 23
-0.3892812915
 33
0.0
 40
0.0
 40
0.0
 40
0.0
 40
0.0
 40
0.244758876
 40
0.4917211941
 40
0.7426979153
 40
1.0
 40
1.0
 40
1.0
 40
1.0
 10
11.4642073331
 20
-13.5392671232
 30
0.0
 10
11.463447385
 20
-13.5788660592
 30
0.0
 10
11.4562112953
 20
-13.6584268339
 30
0.0
 10
11.4280519609
 20
-13.775697407
 30
0.0
 10
11.381759325
 20
-13.8893104801
 30
0.0
 10
11.3384642294
 20
-13.9598141666
 30
0.0
 10
11.3135881893
 20
-13.9932017959
 30
0.0
 11
11.4642073331
 21
-13.5392671232
 31
0.0
 11
11.453417352
 21
-13.6575948697
 31
0.0
 11
11.4253404215
 21
-13.7741491569
 31
0.0
 11
11.3791870943
 21
-13.8869062451
 31
0.0
 11
11.3135881893
 21
-13.9932017959
 31
0.0
  0
SPLINE
  5
5D5
100
AcDbEntity
  8
RACCORDO
100
AcDbSpline
 62
253
  6
CONTINUOUS
 70
0
 71
3
 72
11
 73
7
 74
5
 42
0.0000001
 43
0.0000001
 44
0.0000000001
 12
0.2900412012
 22
-0.3892812273
 32
0.0
 13
0.0093147371
 23
-0.4853627592
 33
0.0
 40
0.0
 40
0.0
 40
0.0
 40
0.0
 40
0.2573019231
 40
0.5082785906
 40
0.755240957
 40
1.0
 40
1.0
 40
1.0
 40
1.0
 10
11.313588144
 20
-9.6300345152
 30
0.0
 10
11.3384641969
 20
-9.663422118
 30
0.0
 10
11.3817593622
 20
-9.7339257527
 30
0.0
 10
11.4280519849
 20
-9.8475388472
 30
0.0
 10
11.4562113142
 20
-9.9648094862
 30
0.0
 10
11.4634473777
 20
-10.0443703213
 30
0.0
 10
11.4642073331
 20
-10.0839692961
 30
0.0
 11
11.313588144
 21
-9.6300345152
 31
0.0
 11
11.3791871029
 21
-9.7363299849
 31
0.0
 11
11.425340439
 21
-9.8490870809
 31
0.0
 11
11.453417361
 21
-9.9656414315
 31
0.0
 11
11.4642073331
 21
-10.0839692961
 31
0.0
  0
SPLINE
  5
5D6
100
AcDbEntity
  8
RACCORDO
100
AcDbSpline
 62
253
  6
CONTINUOUS
 70
0
 71
3
 72
13
 73
9
 74
7
 42
0.0000001
 43
0.0000001
 44
0.0000000001
 12
0.9954029843
 22
-0.6587566571
 32
0.0
 13
0.7131643879
 23
-0.9571750051
 33
0.0
 40
0.0
 40
0.0
 40
0.0
 40
0.0
 40
0.2726468765
 40
0.5353650273
 40
0.660903791
 40
0.7813170053
 40
0.8951656365
 40
1.0
 40
1.0
 40
1.0
 40
1.0
 10
10.4643570448
 20
-8.7996804636
 30
0.0
 10
10.5548215497
 20
-8.8595497786
 30
0.0
 10
10.7258626162
 20
-8.9873786397
 30
0.0
 10
10.9191027515
 20
-9.1663530066
 30
0.0
 10
11.0577512449
 20
-9.313862858
 30
0.0
 10
11.1514561797
 20
-9.4221423971
 30
0.0
 10
11.2360627283
 20
-9.5272680261
 30
0.0
 10
11.2886667657
 20
-9.5965862377
 30
0.0
 10
11.313588144
 20
-9.6300345152
 30
0.0
 11
10.4643570448
 21
-8.7996804636
 31
0.0
 11
10.7252721964
 21
-8.9941971397
 31
0.0
 11
10.9556894011
 21
-9.2069127209
 31
0.0
 11
11.0583707506
 21
-9.3160509985
 31
0.0
 11
11.1524893515
 21
-9.4246795836
 31
0.0
 11
11.2377809691
 21
-9.5304753194
 31
0.0
 11
11.313588144
 21
-9.6300345152
 31
0.0
  0
LINE
  5
5D7
100
AcDbEntity
  8
RACCORDO
100
AcDbLine
 62
7
  6
CONTINUOUS
 10
10.5508512868
 20
18.2064249544
 11
10.5510026883
 21
17.8081220245
  0
SPLINE
  5
5D8
100
AcDbEntity
  8
RACCORDO
100
AcDbSpline
 62
253
  6
CONTINUOUS
 70
0
 71
3
 72
12
 73
8
 74
6
 42
0.0000001
 43
0.0000001
 44
0.0000000001
 12
-0.0
 22
-3.0000298129
 32
0.0
 13
0.0376388109
 23
-2.9997936926
 33
0.0
 40
0.0
 40
0.0
 40
0.0
 40
0.0
 40
0.3139311073
 40
0.6009219036
 40
0.836344909
 40
0.9281822676
 40
1.0
 40
1.0
 40
1.0
 40
1.0
 10
0.5231991192
 20
14.2883817553
 30
0.0
 10
0.5231991192
 20
13.9744475282
 30
0.0
 10
0.5236415662
 20
13.3735194778
 30
0.0
 10
0.5256177743
 20
12.5371683858
 30
0.0
 10
0.5282892052
 20
11.922915876
 30
0.0
 10
0.5311485699
 20
11.5238439047
 30
0.0
 10
0.5327540543
 20
11.36019457
 30
0.0
 10
0.533655099
 20
11.2883817764
 30
0.0
 11
0.5231991192
 21
14.2883817553
 31
0.0
 11
0.5239281734
 21
13.3465793562
 31
0.0
 11
0.5260527646
 21
12.4856010329
 31
0.0
 11
0.5293905549
 21
11.7793328851
 31
0.0
 11
0.5314283339
 21
11.5038256075
 31
0.0
 11
0.533655099
 21
11.2883817764
 31
0.0
  0
SPLINE
  5
5D9
100
AcDbEntity
  8
RACCORDO
100
AcDbSpline
 62
253
  6
CONTINUOUS
 70
0
 71
3
 72
14
 73
10
 74
8
 42
0.0000001
 43
0.0000001
 44
0.0000000001
 12
0.1140036206
 22
2.9981099659
 32
0.0
 13
0.0
 23
3.0002766861
 33
0.0
 40
0.0
 40
0.0
 40
0.0
 40
0.0
 40
0.0718390288
 40
0.1636848454
 40
0.2735622672
 40
0.3991048831
 40
0.5376071777
 40
0.6860829489
 40
1.0
 40
1.0
 40
1.0
 40
1.0
 10
-0.0209000178
 20
11.2883817843
 30
0.0
 10
-0.018170048
 20
11.3601755537
 30
0.0
 10
-0.0133073148
 20
11.5238077635
 30
0.0
 10
-0.0073519999
 20
11.7973313285
 30
0.0
 10
-0.0020428432
 20
12.1245858587
 30
0.0
 10
0.0024930338
 20
12.4985158528
 30
0.0
 10
0.0061367891
 20
12.9110591872
 30
0.0
 10
0.0097546503
 20
13.5119993387
 30
0.0
 10
0.0107876364
 20
13.9744360237
 30
0.0
 10
0.0107876364
 20
14.2883820269
 30
0.0
 11
-0.0209000178
 21
11.2883817843
 31
0.0
 11
-0.0141519655
 21
11.5038130875
 31
0.0
 11
-0.0079764923
 21
11.7793067436
 31
0.0
 11
-0.0025068379
 21
12.1089240319
 31
0.0
 11
0.0021389892
 21
12.4855579632
 31
0.0
 11
0.00586072
 21
12.901086502
 31
0.0
 11
0.0085780248
 21
13.3465466092
 31
0.0
 11
0.0107876364
 21
14.2883820269
 31
0.0
  0
SPLINE
  5
5DA
100
AcDbEntity
  8
RACCORDO
100
AcDbSpline
 62
253
  6
CONTINUOUS
 70
0
 71
3
 72
14
 73
10
 74
8
 42
0.0000001
 43
0.0000001
 44
0.0000000001
 12
0.0
 22
3.000276185
 32
0.0
 13
-0.1140035663
 23
2.9981094665
 33
0.0
 40
0.0
 40
0.0
 40
0.0
 40
0.0
 40
0.3139171079
 40
0.4623929002
 40
0.60089521
 40
0.7264378344
 40
0.8363152576
 40
0.9281610711
 40
1.0
 40
1.0
 40
1.0
 40
1.0
 10
0.0107876364
 20
14.2883820269
 30
0.0
 10
0.0107876364
 20
14.6023280345
 30
0.0
 10
0.0097546481
 20
15.0647647201
 30
0.0
 10
0.0061367854
 20
15.6657048644
 30
0.0
 10
0.0024930288
 20
16.0782481747
 30
0.0
 10
-0.0020428491
 20
16.4521781314
 30
0.0
 10
-0.0073520073
 20
16.7794326137
 30
0.0
 10
-0.0133073206
 20
17.0529560314
 30
0.0
 10
-0.0181700531
 20
17.2165881107
 30
0.0
 10
-0.0209000178
 20
17.2883817683
 30
0.0
 11
0.0107876364
 21
14.2883820269
 31
0.0
 11
0.0085780222
 21
15.2302174578
 31
0.0
 11
0.0058607162
 21
15.6756775539
 31
0.0
 11
0.0021389841
 21
16.0912060688
 31
0.0
 11
-0.0025068441
 21
16.4678399627
 31
0.0
 11
-0.0079764998
 21
16.7974572002
 31
0.0
 11
-0.0141519743
 21
17.0729508009
 31
0.0
 11
-0.0209000178
 21
17.2883817683
 31
0.0
  0
SPLINE
  5
5DB
100
AcDbEntity
  8
RACCORDO
100
AcDbSpline
 62
253
  6
CONTINUOUS
 70
0
 71
3
 72
12
 73
8
 74
6
 42
0.0000001
 43
0.0000001
 44
0.0000000001
 12
-0.0376388146
 22
-2.9997937339
 32
0.0
 13
-0.0
 23
-3.0000298543
 33
0.0
 40
0.0
 40
0.0
 40
0.0
 40
0.0
 40
0.0718176787
 40
0.1636550346
 40
0.3990780474
 40
0.6860688648
 40
1.0
 40
1.0
 40
1.0
 40
1.0
 10
0.533655099
 20
17.2883817756
 30
0.0
 10
0.5327540549
 20
17.2165690347
 30
0.0
 10
0.5311485708
 20
17.0529197542
 30
0.0
 10
0.5282892059
 20
16.6538478264
 30
0.0
 10
0.5256177747
 20
16.0395952823
 30
0.0
 10
0.5236415662
 20
15.2032441223
 30
0.0
 10
0.5231991192
 20
14.6023160146
 30
0.0
 10
0.5231991192
 20
14.2883817553
 30
0.0
 11
0.533655099
 21
17.2883817756
 31
0.0
 11
0.5314283353
 21
17.0729381027
 31
0.0
 11
0.529390556
 21
16.7974308293
 31
0.0
 11
0.5260527651
 21
16.0911626496
 31
0.0
 11
0.5239281734
 21
15.230184251
 31
0.0
 11
0.5231991192
 21
14.2883817553
 31
0.0
  0
SPLINE
  5
5DC
100
AcDbEntity
  8
0
100
AcDbSpline
 62
7
  6
CONTINUOUS
 70
0
 71
3
 72
57
 73
53
 74
51
 42
0.0000001
 43
0.0000001
 44
0.0000000001
 12
-0.75173562
 22
-6.5347727079
 32
0.0
 13
-0.75173562
 23
6.5347727079
 33
0.0
 40
0.0
 40
0.0
 40
0.0
 40
0.0
 40
0.0002760544
 40
0.0005027159
 40
0.0007976136
 40
0.0016010038
 40
0.0026957256
 40
0.0040844921
 40
0.0057681692
 40
0.0100190871
 40
0.0154422631
 40
0.0220261522
 40
0.029756174
 40
0.03861434
 40
0.0485795857
 40
0.0596282966
 40
0.0717343659
 40
0.0848686571
 40
0.1140938244
 40
0.1470241846
 40
0.1833439414
 40
0.2227045929
 40
0.2647285453
 40
0.3090121385
 40
0.355130339
 40
0.4026400967
 40
0.5000000016
 40
0.5973599064
 40
0.6448696641
 40
0.6909878644
 40
0.7352714572
 40
0.7772954093
 40
0.8166560605
 40
0.852975817
 40
0.8859061769
 40
0.9151313439
 40
0.928265635
 40
0.9403717041
 40
0.9514204148
 40
0.9613856604
 40
0.9702438262
 40
0.977973848
 40
0.9845577371
 40
0.989980913
 40
0.9942318309
 40
0.995915508
 40
0.9973042744
 40
0.9983989962
 40
0.9992023864
 40
0.9994972841
 40
0.9997239456
 40
1.0
 40
1.0
 40
1.0
 40
1.0
 10
9.217705995
 20
-19.2182238023
 30
0.0
 10
9.2176368217
 20
-19.2188251199
 30
0.0
 10
9.216641712
 20
-19.2196534456
 30
0.0
 10
9.2151298515
 20
-19.2204141702
 30
0.0
 10
9.212383145
 20
-19.2214523845
 30
0.0
 10
9.2077328809
 20
-19.2226382052
 30
0.0
 10
9.2006472127
 20
-19.2240032045
 30
0.0
 10
9.1916134534
 20
-19.2253674902
 30
0.0
 10
9.1756773974
 20
-19.227355961
 30
0.0
 10
9.1508836006
 20
-19.2297243089
 30
0.0
 10
9.1153358562
 20
-19.232406155
 30
0.0
 10
9.0721407618
 20
-19.2350685219
 30
0.0
 10
9.0214010365
 20
-19.2377044334
 30
0.0
 10
8.9632368695
 20
-19.2403006969
 30
0.0
 10
8.8977879067
 20
-19.2428495405
 30
0.0
 10
8.8252107855
 20
-19.2453429411
 30
0.0
 10
8.7456795225
 20
-19.2477740824
 30
0.0
 10
8.6263016834
 20
-19.2510410436
 30
0.0
 10
8.4612630214
 20
-19.2548630663
 30
0.0
 10
8.2453824564
 20
-19.2589693393
 30
0.0
 10
8.0072687725
 20
-19.2626968077
 30
0.0
 10
7.7492084307
 20
-19.266007536
 30
0.0
 10
7.4736800439
 20
-19.2688670851
 30
0.0
 10
7.183329851
 20
-19.2712467384
 30
0.0
 10
6.880947438
 20
-19.2731226758
 30
0.0
 10
6.4621868052
 20
-19.2749412341
 30
0.0
 10
5.9310683191
 20
-19.2758341195
 30
0.0
 10
5.3999498332
 20
-19.2749412341
 30
0.0
 10
4.9811892009
 20
-19.2731226757
 30
0.0
 10
4.6788067895
 20
-19.2712467383
 30
0.0
 10
4.3884565987
 20
-19.268867085
 30
0.0
 10
4.112928214
 20
-19.2660075358
 30
0.0
 10
3.8548678739
 20
-19.2626968076
 30
0.0
 10
3.6167541918
 20
-19.2589693391
 30
0.0
 10
3.4008736287
 20
-19.2548630661
 30
0.0
 10
3.2358349685
 20
-19.2510410435
 30
0.0
 10
3.1164571309
 20
-19.2477740822
 30
0.0
 10
3.0369258691
 20
-19.245342941
 30
0.0
 10
2.9643487489
 20
-19.2428495404
 30
0.0
 10
2.8988997869
 20
-19.2403006968
 30
0.0
 10
2.8407356206
 20
-19.2377044333
 30
0.0
 10
2.7899958959
 20
-19.2350685218
 30
0.0
 10
2.7468008018
 20
-19.2324061549
 30
0.0
 10
2.7112530577
 20
-19.2297243088
 30
0.0
 10
2.6864592611
 20
-19.227355961
 30
0.0
 10
2.6705232052
 20
-19.2253674901
 30
0.0
 10
2.661489446
 20
-19.2240032044
 30
0.0
 10
2.6544037778
 20
-19.2226382052
 30
0.0
 10
2.6497535138
 20
-19.2214523844
 30
0.0
 10
2.6470068074
 20
-19.2204141702
 30
0.0
 10
2.6454949469
 20
-19.2196534456
 30
0.0
 10
2.6444998372
 20
-19.2188251199
 30
0.0
 10
2.6444306639
 20
-19.2182238023
 30
0.0
 11
9.217705995
 21
-19.2182238023
 31
0.0
 11
9.216556672
 21
-19.2196296353
 31
0.0
 11
9.215241699
 21
-19.2203323282
 31
0.0
 11
9.2134335275
 21
-19.2210347058
 31
0.0
 11
9.2083386615
 21
-19.2224380194
 31
0.0
 11
9.2012752593
 21
-19.2238386759
 31
0.0
 11
9.1922476165
 21
-19.2252358713
 31
0.0
 11
9.1812605542
 21
-19.2266287986
 31
0.0
 11
9.1534360827
 21
-19.2293984887
 31
0.0
 11
9.1178687226
 21
-19.2321410481
 31
0.0
 11
9.0746455631
 21
-19.2348499055
 31
0.0
 11
9.0238685701
 21
-19.2375185449
 31
0.0
 11
8.9656597387
 21
-19.2401405536
 31
0.0
 11
8.900160022
 21
-19.2427096409
 31
0.0
 11
8.8275264048
 21
-19.2452196335
 31
0.0
 11
8.7479318062
 21
-19.2476644856
 31
0.0
 11
8.6615687775
 21
-19.2500383371
 31
0.0
 11
8.4693824138
 21
-19.2545504001
 31
0.0
 11
8.2528108074
 21
-19.2587124564
 31
0.0
 11
8.0139339846
 21
-19.2624845176
 31
0.0
 11
7.7550463944
 21
-19.2658303471
 31
0.0
 11
7.4786334204
 21
-19.2687177568
 31
0.0
 11
7.1873516428
 21
-19.2711190347
 31
0.0
 11
6.8839980607
 21
-19.2730110504
 31
0.0
 11
6.5714880765
 21
-19.2743756432
 31
0.0
 11
5.9310683192
 21
-19.2754752399
 31
0.0
 11
5.2906485616
 21
-19.2743756431
 31
0.0
 11
4.9781385779
 21
-19.2730110503
 31
0.0
 11
4.6747849974
 21
-19.2711190345
 31
0.0
 11
4.3835032223
 21
-19.2687177566
 31
0.0
 11
4.1070902504
 21
-19.2658303469
 31
0.0
 11
3.848202662
 21
-19.2624845174
 31
0.0
 11
3.6093258407
 21
-19.2587124562
 31
0.0
 11
3.3927542362
 21
-19.2545503999
 31
0.0
 11
3.2005678748
 21
-19.2500383369
 31
0.0
 11
3.1142048472
 21
-19.2476644854
 31
0.0
 11
3.0346102498
 21
-19.2452196334
 31
0.0
 11
2.9619766337
 21
-19.2427096408
 31
0.0
 11
2.8964769177
 21
-19.2401405535
 31
0.0
 11
2.8382680871
 21
-19.2375185448
 31
0.0
 11
2.7874910947
 21
-19.2348499054
 31
0.0
 11
2.7442679355
 21
-19.232141048
 31
0.0
 11
2.7087005756
 21
-19.2293984886
 31
0.0
 11
2.6808761043
 21
-19.2266287985
 31
0.0
 11
2.6698890421
 21
-19.2252358712
 31
0.0
 11
2.6608613993
 21
-19.2238386759
 31
0.0
 11
2.6537979973
 21
-19.2224380194
 31
0.0
 11
2.6487031313
 21
-19.2210347057
 31
0.0
 11
2.6468949598
 21
-19.2203323282
 31
0.0
 11
2.6455799869
 21
-19.2196296352
 31
0.0
 11
2.6444306639
 21
-19.2182238023
 31
0.0
  0
SPLINE
  5
5DD
100
AcDbEntity
  8
RACCORDO
100
AcDbSpline
 62
253
  6
CONTINUOUS
 70
0
 71
3
 72
22
 73
18
 74
16
 42
0.0000001
 43
0.0000001
 44
0.0000000001
 12
-3.2930672064
 22
3.8726221599
 32
0.0
 13
2.8872013556
 23
4.183964908
 33
0.0
 40
0.0
 40
0.0
 40
0.0
 40
0.0
 40
0.06395541
 40
0.1272510319
 40
0.1897449853
 40
0.2515759507
 40
0.3744604114
 40
0.4366080575
 40
0.4999064296
 40
0.5639459687
 40
0.6273155538
 40
0.6895213447
 40
0.7510564936
 40
0.8125051967
 40
0.8743041983
 40
0.9367526034
 40
1.0
 40
1.0
 40
1.0
 40
1.0
 10
1.1637672571
 20
-14.3180278323
 30
0.0
 10
1.0935641026
 20
-14.2354694529
 30
0.0
 10
0.9618215899
 20
-14.0642788997
 30
0.0
 10
0.789811051
 20
-13.7921715577
 30
0.0
 10
0.6435731134
 20
-13.5094329336
 30
0.0
 10
0.4819317608
 20
-13.1226179632
 30
0.0
 10
0.3660017206
 20
-12.7186747028
 30
0.0
 10
0.2964777274
 20
-12.3033544263
 30
0.0
 10
0.2686736186
 20
-11.9830970021
 30
0.0
 10
0.2678436221
 20
-11.6595593937
 30
0.0
 10
0.2940844903
 20
-11.3389680167
 30
0.0
 10
0.3450253932
 20
-11.025711959
 30
0.0
 10
0.418915052
 20
-10.7204265387
 30
0.0
 10
0.5155228813
 20
-10.4222724076
 30
0.0
 10
0.6355906826
 20
-10.1310599436
 30
0.0
 10
0.7802806964
 20
-9.8478230136
 30
0.0
 10
0.8933058146
 20
-9.6669007996
 30
0.0
 10
0.9541751377
 20
-9.5786925037
 30
0.0
 11
1.1637672571
 21
-14.3180278323
 31
0.0
 11
0.9652773394
 21
-14.0605378854
 31
0.0
 11
0.7931324072
 21
-13.7887000227
 31
0.0
 11
0.6470009776
 21
-13.5066195189
 31
0.0
 11
0.5256659179
 21
-13.2166684894
 31
0.0
 11
0.3529561644
 21
-12.6163409417
 31
0.0
 11
0.3009019079
 21
-12.3047342508
 31
0.0
 11
0.2732624355
 21
-11.9841492264
 31
0.0
 11
0.2724353222
 21
-11.6586082923
 31
0.0
 11
0.2985261824
 21
-11.3375303172
 31
0.0
 11
0.3491714531
 21
-11.0253920804
 31
0.0
 11
0.422761973
 21
-10.7213605378
 31
0.0
 11
0.5191315017
 21
-10.4242260138
 31
0.0
 11
0.6390167051
 21
-10.1338482999
 31
0.0
 11
0.7836197131
 21
-9.8512413044
 31
0.0
 11
0.9541751377
 21
-9.5786925037
 31
0.0
  0
SPLINE
  5
5DE
100
AcDbEntity
  8
RACCORDO
100
AcDbSpline
 62
253
  6
CONTINUOUS
 70
0
 71
3
 72
30
 73
26
 74
24
 42
0.0000001
 43
0.0000001
 44
0.0000000001
 12
-1.0612613281
 22
-1.0608965236
 32
0.0
 13
-1.5005922299
 23
-0.000005731
 33
0.0
 40
0.0
 40
0.0
 40
0.0
 40
0.0
 40
0.0008331678
 40
0.0022057903
 40
0.004145585
 40
0.0066608469
 40
0.0097540412
 40
0.0134255684
 40
0.0224993115
 40
0.0338668215
 40
0.0475041049
 40
0.063380782
 40
0.0814604861
 40
0.1017012485
 40
0.1240560177
 40
0.1748935375
 40
0.2334967288
 40
0.2993152905
 40
0.3717307047
 40
0.4500617386
 40
0.5335713774
 40
0.6214736815
 40
0.7129410596
 40
0.8071122228
 40
1.0
 40
1.0
 40
1.0
 40
1.0
 10
1.0201771108
 20
-19.2738755276
 30
0.0
 10
1.0198823746
 20
-19.2741701625
 30
0.0
 10
1.0188498278
 20
-19.2746515531
 30
0.0
 10
1.0168800969
 20
-19.2752495864
 30
0.0
 10
1.0140187512
 20
-19.2758577815
 30
0.0
 10
1.0102966014
 20
-19.2764748974
 30
0.0
 10
1.0056945605
 20
-19.2770944914
 30
0.0
 10
0.997822677
 20
-19.2779859011
 30
0.0
 10
0.9858072213
 20
-19.2790548432
 30
0.0
 10
0.968804067
 20
-19.2802657631
 30
0.0
 10
0.9483900633
 20
-19.2814666585
 30
0.0
 10
0.9246132799
 20
-19.282654042
 30
0.0
 10
0.8975290355
 20
-19.2838226891
 30
0.0
 10
0.8672009955
 20
-19.2849692953
 30
0.0
 10
0.8204920297
 20
-19.2865316628
 30
0.0
 10
0.7545934203
 20
-19.288369665
 30
0.0
 10
0.6669516093
 20
-19.2903635955
 30
0.0
 10
0.5685111774
 20
-19.2922057633
 30
0.0
 10
0.4601986632
 20
-19.2938774797
 30
0.0
 10
0.3430336409
 20
-19.295361318
 30
0.0
 10
0.2181193136
 20
-19.2966424667
 30
0.0
 10
0.0866319863
 20
-19.2977081902
 30
0.0
 10
-0.0501899457
 20
-19.2985481116
 30
0.0
 10
-0.2395261516
 20
-19.2993621337
 30
0.0
 10
-0.3831124653
 20
-19.2996008071
 30
0.0
 10
-0.4795944319
 20
-19.2996011756
 30
0.0
 11
1.0201771108
 21
-19.2738755276
 31
0.0
 11
1.0191001375
 21
-19.2745105405
 31
0.0
 11
1.0171405657
 21
-19.2751450754
 31
0.0
 11
1.014299509
 21
-19.2757786297
 31
0.0
 11
1.0105784339
 21
-19.2764107392
 31
0.0
 11
1.0059798059
 21
-19.2770410477
 31
0.0
 11
1.0005062688
 21
-19.2776692178
 31
0.0
 11
0.9869476415
 21
-19.2789177231
 31
0.0
 11
0.969934451
 21
-19.2801532865
 31
0.0
 11
0.94950683
 21
-19.2813729823
 31
0.0
 11
0.9257127007
 21
-19.2825739488
 31
0.0
 11
0.8986080848
 21
-19.2837533539
 31
0.0
 11
0.8682569252
 21
-19.2849084204
 31
0.0
 11
0.8347305029
 21
-19.2860364271
 31
0.0
 11
0.7584748226
 21
-19.2882007027
 31
0.0
 11
0.6705586494
 21
-19.2902257991
 31
0.0
 11
0.5718094717
 21
-19.2920926412
 31
0.0
 11
0.4631566218
 21
-19.2937836366
 31
0.0
 11
0.3456232424
 21
-19.2952828543
 31
0.0
 11
0.2203160013
 21
-19.2965761631
 31
0.0
 11
0.088414869
 21
-19.2976513709
 31
0.0
 11
-0.0488377545
 21
-19.2984983451
 31
0.0
 11
-0.1901489504
 21
-19.2991090931
 31
0.0
 11
-0.4795944319
 21
-19.2996011756
 31
0.0
  0
SPLINE
  5
5DF
100
AcDbEntity
  8
RACCORDO
100
AcDbSpline
 62
253
  6
CONTINUOUS
 70
0
 71
3
 72
22
 73
18
 74
16
 42
0.0000001
 43
0.0000001
 44
0.0000000001
 12
-0.1587571066
 22
-0.4763705981
 32
0.0
 13
-0.5021282362
 23
-0.0000002162
 33
0.0
 40
0.0
 40
0.0
 40
0.0
 40
0.0
 40
0.0032312476
 40
0.008259023
 40
0.0153920945
 40
0.0247200331
 40
0.0500247474
 40
0.0841114913
 40
0.126722999
 40
0.1774919993
 40
0.2359616505
 40
0.301596142
 40
0.3737884464
 40
0.4518667066
 40
0.622712426
 40
0.8077402542
 40
1.0
 40
1.0
 40
1.0
 40
1.0
 10
0.0203294157
 20
-18.2740278324
 30
0.0
 10
0.0201584212
 20
-18.2745409229
 30
0.0
 10
0.0191207319
 20
-18.2755885811
 30
0.0
 10
0.0168429586
 20
-18.2767616988
 30
0.0
 10
0.0134431669
 20
-18.2779873886
 30
0.0
 10
0.0066894797
 20
-18.2797878507
 30
0.0
 10
-0.0046388732
 20
-18.2818711134
 30
0.0
 10
-0.0215555258
 20
-18.2841698166
 30
0.0
 10
-0.0427783279
 20
-18.286392295
 30
0.0
 10
-0.0681062483
 20
-18.2885155321
 30
0.0
 10
-0.0973089477
 20
-18.2905092596
 30
0.0
 10
-0.1301131071
 20
-18.2923523219
 30
0.0
 10
-0.1662122329
 20
-18.2940249534
 30
0.0
 10
-0.2199211337
 20
-18.2960659666
 30
0.0
 10
-0.292530205
 20
-18.2980242985
 30
0.0
 10
-0.3842652996
 20
-18.299437402
 30
0.0
 10
-0.4474147495
 20
-18.2997534666
 30
0.0
 10
-0.4795944319
 20
-18.2997534805
 30
0.0
 11
0.0203294157
 21
-18.2740278324
 31
0.0
 11
0.019318211
 21
-18.2752966797
 31
0.0
 11
0.0171332444
 21
-18.2765613795
 31
0.0
 11
0.0137796293
 21
-18.2778191392
 31
0.0
 11
0.0092650869
 21
-18.279066973
 31
0.0
 11
-0.0032018914
 21
-18.2815210034
 31
0.0
 11
-0.0201516069
 21
-18.2839004458
 31
0.0
 11
-0.0414259581
 21
-18.286182917
 31
0.0
 11
-0.0668264896
 21
-18.2883469486
 31
0.0
 11
-0.0961158198
 21
-18.2903721538
 31
0.0
 11
-0.1290198109
 21
-18.292239424
 31
0.0
 11
-0.1652301106
 21
-18.2939311088
 31
0.0
 11
-0.2044067007
 21
-18.2954311965
 31
0.0
 11
-0.290160405
 21
-18.2978016115
 31
0.0
 11
-0.3830566418
 21
-18.299260842
 31
0.0
 11
-0.4795944319
 21
-18.2997534805
 31
0.0
  0
SPLINE
  5
5E0
100
AcDbEntity
  8
RACCORDO
100
AcDbSpline
 62
253
  6
CONTINUOUS
 70
0
 71
3
 72
13
 73
9
 74
7
 42
0.0000001
 43
0.0000001
 44
0.0000000001
 12
-0.9954031545
 22
0.6587567696
 32
0.0
 13
-0.7131645188
 23
0.9571751619
 33
0.0
 40
0.0
 40
0.0
 40
0.0
 40
0.0
 40
0.2726468758
 40
0.5353650231
 40
0.6609037832
 40
0.7813169918
 40
0.8951656138
 40
1.0
 40
1.0
 40
1.0
 40
1.0
 10
-9.1022203859
 20
-4.1235559845
 30
0.0
 10
-9.192684906
 20
-4.0636866594
 30
0.0
 10
-9.3637259998
 20
-3.9358577762
 30
0.0
 10
-9.5569661593
 20
-3.7568833742
 30
0.0
 10
-9.6956146719
 20
-3.6093734996
 30
0.0
 10
-9.7893196032
 20
-3.501093936
 30
0.0
 10
-9.8739262043
 20
-3.3959683141
 30
0.0
 10
-9.9265301639
 20
-3.3266500177
 30
0.0
 10
-9.9514515521
 20
-3.2932017275
 30
0.0
 11
-9.1022203859
 21
-4.1235559845
 31
0.0
 11
-9.3631355796
 21
-3.9290392732
 31
0.0
 11
-9.5935528153
 21
-3.7163236528
 31
0.0
 11
-9.6962341758
 21
-3.6071853563
 31
0.0
 11
-9.790352785
 21
-3.4985567549
 31
0.0
 11
-9.8756444078
 21
-3.3927610075
 31
0.0
 11
-9.9514515521
 21
-3.2932017275
 31
0.0
  0
SPLINE
  5
5E1
100
AcDbEntity
  8
RACCORDO
100
AcDbSpline
 62
253
  6
CONTINUOUS
 70
0
 71
3
 72
11
 73
7
 74
5
 42
0.0000001
 43
0.0000001
 44
0.0000000001
 12
-0.2900404128
 22
0.3892811473
 32
0.0
 13
-0.0093147462
 23
0.4853622237
 33
0.0
 40
0.0
 40
0.0
 40
0.0
 40
0.0
 40
0.257302277
 40
0.5082789728
 40
0.7552411633
 40
1.0
 40
1.0
 40
1.0
 40
1.0
 10
-9.9514515521
 20
-3.2932017275
 30
0.0
 10
-9.9763275716
 20
-3.2598140856
 30
0.0
 10
-10.019622596
 20
-3.1893104067
 30
0.0
 10
-10.0659152814
 20
-3.0756974591
 30
0.0
 10
-10.094074648
 20
-2.9584270199
 30
0.0
 10
-10.1013107187
 20
-2.8788663348
 30
0.0
 10
-10.1020706741
 20
-2.8392674371
 30
0.0
 11
-9.9514515521
 21
-3.2932017275
 31
0.0
 11
-10.0170504092
 21
-3.1869061549
 31
0.0
 11
-10.0632037471
 21
-3.0741491899
 31
0.0
 11
-10.0912806928
 21
-2.9575950688
 31
0.0
 11
-10.1020706741
 21
-2.8392674371
 31
0.0
  0
SPLINE
  5
5E2
100
AcDbEntity
  8
RACCORDO
100
AcDbSpline
 62
253
  6
CONTINUOUS
 70
0
 71
3
 72
22
 73
18
 74
16
 42
0.0000001
 43
0.0000001
 44
0.0000000001
 12
0.0000002162
 22
0.5021282362
 32
0.0
 13
0.4763706216
 23
0.158757036
 33
0.0
 40
0.0
 40
0.0
 40
0.0
 40
0.0
 40
0.1922597458
 40
0.377287574
 40
0.5481332934
 40
0.6262115536
 40
0.698403858
 40
0.7640383495
 40
0.8225080007
 40
0.873277001
 40
0.9158885087
 40
0.9499752525
 40
0.9752799669
 40
0.9846079055
 40
0.991740977
 40
0.9967687524
 40
1.0
 40
1.0
 40
1.0
 40
1.0
 10
-9.2715371088
 20
-9.7222809854
 30
0.0
 10
-9.2715370949
 20
-9.6901013031
 30
0.0
 10
-9.2712210303
 20
-9.6269518532
 30
0.0
 10
-9.2698079268
 20
-9.5352167585
 30
0.0
 10
-9.2678495949
 20
-9.4626076872
 30
0.0
 10
-9.2658085817
 20
-9.4088987864
 30
0.0
 10
-9.2641359502
 20
-9.3727996606
 30
0.0
 10
-9.2622928879
 20
-9.3399955012
 30
0.0
 10
-9.2602991605
 20
-9.3107928018
 30
0.0
 10
-9.2581759233
 20
-9.2854648814
 30
0.0
 10
-9.2559534449
 20
-9.2642420793
 30
0.0
 10
-9.2536547418
 20
-9.2473254267
 30
0.0
 10
-9.2515714789
 20
-9.2359970738
 30
0.0
 10
-9.249771017
 20
-9.2292433866
 30
0.0
 10
-9.248545327
 20
-9.2258435949
 30
0.0
 10
-9.2473722095
 20
-9.2235658216
 30
0.0
 10
-9.2463245512
 20
-9.2225281323
 30
0.0
 10
-9.2458114607
 20
-9.2223571378
 30
0.0
 11
-9.2715371088
 21
-9.7222809854
 31
0.0
 11
-9.2710444704
 21
-9.6257431953
 31
0.0
 11
-9.2695852398
 21
-9.5328469585
 31
0.0
 11
-9.2672148249
 21
-9.4470932542
 31
0.0
 11
-9.2657147371
 21
-9.4079166641
 31
0.0
 11
-9.2640230523
 21
-9.3717063644
 31
0.0
 11
-9.2621557821
 21
-9.3388023733
 31
0.0
 11
-9.2601305769
 21
-9.3095130432
 31
0.0
 11
-9.2579665454
 21
-9.2841125117
 31
0.0
 11
-9.2556840741
 21
-9.2628381604
 31
0.0
 11
-9.2533046318
 21
-9.2458884449
 31
0.0
 11
-9.2508506013
 21
-9.2334214667
 31
0.0
 11
-9.2496027675
 21
-9.2289069242
 31
0.0
 11
-9.2483450078
 21
-9.2255533091
 31
0.0
 11
-9.247080308
 21
-9.2233683425
 31
0.0
 11
-9.2458114607
 21
-9.2223571378
 31
0.0
  0
SPLINE
  5
5E3
100
AcDbEntity
  8
RACCORDO
100
AcDbSpline
 62
253
  6
CONTINUOUS
 70
0
 71
3
 72
30
 73
26
 74
24
 42
0.0000001
 43
0.0000001
 44
0.0000000001
 12
0.0000057343
 22
1.5005922299
 32
0.0
 13
1.0608966513
 23
1.0612612005
 33
0.0
 40
0.0
 40
0.0
 40
0.0
 40
0.0
 40
0.1928877772
 40
0.2870589404
 40
0.3785263185
 40
0.4664286226
 40
0.5499382614
 40
0.6282692953
 40
0.7006847094
 40
0.7665032712
 40
0.8251064625
 40
0.8759439823
 40
0.8982987515
 40
0.9185395138
 40
0.936619218
 40
0.9524958951
 40
0.9661331785
 40
0.9775006885
 40
0.9865744316
 40
0.9902459588
 40
0.9933391531
 40
0.995854415
 40
0.9977942097
 40
0.9991668322
 40
1.0
 40
1.0
 40
1.0
 40
1.0
 10
-10.271384804
 20
-9.7222809854
 30
0.0
 10
-10.2713844353
 20
-9.6257990188
 30
0.0
 10
-10.2711457621
 20
-9.4822127051
 30
0.0
 10
-10.2703317399
 20
-9.2928764992
 30
0.0
 10
-10.2694918186
 20
-9.1560545672
 30
0.0
 10
-10.268426095
 20
-9.0245672399
 30
0.0
 10
-10.2671449464
 20
-8.8996529126
 30
0.0
 10
-10.2656611081
 20
-8.7824878903
 30
0.0
 10
-10.2639893917
 20
-8.6741753762
 30
0.0
 10
-10.2621472238
 20
-8.5757349442
 30
0.0
 10
-10.2601532934
 20
-8.4880931332
 30
0.0
 10
-10.2583152911
 20
-8.4221945238
 30
0.0
 10
-10.2567529236
 20
-8.375485558
 30
0.0
 10
-10.2556063175
 20
-8.3451575181
 30
0.0
 10
-10.2544376703
 20
-8.3180732736
 30
0.0
 10
-10.2532502868
 20
-8.2942964903
 30
0.0
 10
-10.2520493914
 20
-8.2738824865
 30
0.0
 10
-10.2508384715
 20
-8.2568793322
 30
0.0
 10
-10.2497695294
 20
-8.2448638765
 30
0.0
 10
-10.2488781197
 20
-8.2369919931
 30
0.0
 10
-10.2482585257
 20
-8.2323899521
 30
0.0
 10
-10.2476414098
 20
-8.2286678024
 30
0.0
 10
-10.2470332148
 20
-8.2258064566
 30
0.0
 10
-10.2464351815
 20
-8.2238367257
 30
0.0
 10
-10.2459537909
 20
-8.2228041789
 30
0.0
 10
-10.2456591559
 20
-8.2225094427
 30
0.0
 11
-10.271384804
 21
-9.7222809854
 31
0.0
 11
-10.2708927215
 21
-9.432835504
 31
0.0
 11
-10.2702819734
 21
-9.291524308
 31
0.0
 11
-10.2694349993
 21
-9.1542716845
 31
0.0
 11
-10.2683597914
 21
-9.0223705522
 31
0.0
 11
-10.2670664826
 21
-8.8970633111
 31
0.0
 11
-10.265567265
 21
-8.7795299317
 31
0.0
 11
-10.2638762696
 21
-8.6708770818
 31
0.0
 11
-10.2620094275
 21
-8.5721279041
 31
0.0
 11
-10.2599843311
 21
-8.484211731
 31
0.0
 11
-10.2578200555
 21
-8.4079560506
 31
0.0
 11
-10.2566920487
 21
-8.3744296283
 31
0.0
 11
-10.2555369823
 21
-8.3440784687
 31
0.0
 11
-10.2543575771
 21
-8.3169738528
 31
0.0
 11
-10.2531566107
 21
-8.2931797235
 31
0.0
 11
-10.2519369148
 21
-8.2727521026
 31
0.0
 11
-10.2507013514
 21
-8.255738912
 31
0.0
 11
-10.2494528462
 21
-8.2421802847
 31
0.0
 11
-10.248824676
 21
-8.2367067476
 31
0.0
 11
-10.2481943675
 21
-8.2321081197
 31
0.0
 11
-10.247562258
 21
-8.2283870446
 31
0.0
 11
-10.2469287037
 21
-8.2255459878
 31
0.0
 11
-10.2462941689
 21
-8.223586416
 31
0.0
 11
-10.2456591559
 21
-8.2225094427
 31
0.0
  0
LINE
  5
5E4
100
AcDbEntity
  8
RACCORDO
100
AcDbLine
 62
7
  6
CONTINUOUS
 10
-9.101575261
 20
-19.2996011756
 11
-8.6874247854
 21
-18.2997534805
  0
SPLINE
  5
5E5
100
AcDbEntity
  8
RACCORDO
100
AcDbSpline
 62
253
  6
CONTINUOUS
 70
0
 71
3
 72
13
 73
9
 74
7
 42
0.0000001
 43
0.0000001
 44
0.0000000001
 12
-0.9954050683
 22
-0.6587530566
 32
0.0
 13
-0.7131643035
 23
-0.9571747572
 33
0.0
 40
0.0
 40
0.0
 40
0.0
 40
0.0
 40
0.2726468871
 40
0.5353649851
 40
0.6609037867
 40
0.781316923
 40
0.8951655475
 40
1.0
 40
1.0
 40
1.0
 40
1.0
 10
-9.1022206996
 20
1.9003193224
 30
0.0
 10
-9.1926853974
 20
1.8404503323
 30
0.0
 10
-9.3637260957
 20
1.7126210265
 30
0.0
 10
-9.5569662726
 20
1.5336468347
 30
0.0
 10
-9.6956146796
 20
1.3861370033
 30
0.0
 10
-9.7893195859
 20
1.2778575063
 30
0.0
 10
-9.8739261404
 20
1.1727319144
 30
0.0
 10
-9.9265301325
 20
1.10341365
 30
0.0
 10
-9.9514515289
 20
1.0699653528
 30
0.0
 11
-9.1022206996
 21
1.9003193224
 31
0.0
 11
-9.36313579
 21
1.7058026566
 31
0.0
 11
-9.593552873
 21
1.4930871331
 31
0.0
 11
-9.6962342204
 21
1.3839488345
 31
0.0
 11
-9.7903527432
 21
1.2753203445
 31
0.0
 11
-9.8756443392
 21
1.169524638
 31
0.0
 11
-9.9514515289
 21
1.0699653528
 31
0.0
  0
SPLINE
  5
5E6
100
AcDbEntity
  8
RACCORDO
100
AcDbSpline
 62
253
  6
CONTINUOUS
 70
0
 71
3
 72
11
 73
7
 74
5
 42
0.0000001
 43
0.0000001
 44
0.0000000001
 12
-0.2900408228
 22
-0.3892813663
 32
0.0
 13
-0.009314741
 23
-0.4853626445
 33
0.0
 40
0.0
 40
0.0
 40
0.0
 40
0.0
 40
0.2573020424
 40
0.5082787365
 40
0.7552410647
 40
1.0
 40
1.0
 40
1.0
 40
1.0
 10
-9.9514515289
 20
1.0699653528
 30
0.0
 10
-9.9763275609
 20
1.0365777225
 30
0.0
 10
-10.0196226787
 20
0.9660740578
 30
0.0
 10
-10.0659153085
 20
0.8524609816
 30
0.0
 10
-10.0940746434
 20
0.7351903931
 30
0.0
 10
-10.1013107188
 20
0.6556296013
 30
0.0
 10
-10.1020706741
 20
0.6160306533
 30
0.0
 11
-9.9514515289
 21
1.0699653528
 31
0.0
 11
-10.01705044
 21
0.9636698202
 31
0.0
 11
-10.0632037676
 21
0.8509127378
 31
0.0
 11
-10.0912806948
 21
0.7343584366
 31
0.0
 11
-10.1020706741
 21
0.6160306533
 31
0.0
  0
LINE
  5
5E7
100
AcDbEntity
  8
RACCORDO
100
AcDbLine
 62
7
  6
CONTINUOUS
 10
-9.0314430522
 20
19.7070505977
 11
-8.6172925765
 21
18.7072029026
  0
LINE
  5
5E8
100
AcDbEntity
  8
RACCORDO
100
AcDbLine
 62
7
  6
CONTINUOUS
 10
10.3935797111
 20
19.7070505977
 11
9.9794292355
 21
18.7072029026
  0
SPLINE
  5
5E9
100
AcDbEntity
  8
RACCORDO
100
AcDbSpline
 62
7
  6
CONTINUOUS
 70
0
 71
3
 72
15
 73
11
 74
9
 42
0.0000001
 43
0.0000001
 44
0.0000000001
 12
1.8175820384
 22
-0.0090408187
 32
0.0
 13
1.8175820384
 23
0.0090408187
 33
0.0
 40
0.0
 40
0.0
 40
0.0
 40
0.0
 40
0.1228579595
 40
0.2473841753
 40
0.3732906789
 40
0.5
 40
0.6267093211
 40
0.7526158247
 40
0.8771420405
 40
1.0
 40
1.0
 40
1.0
 40
1.0
 10
-5.4774314559
 20
-9.2223571378
 30
0.0
 10
-5.4029966491
 20
-9.2227273833
 30
0.0
 10
-5.2531324229
 20
-9.2261175263
 30
0.0
 10
-5.027132789
 20
-9.2346599946
 30
0.0
 10
-4.798756666
 20
-9.2423107495
 30
0.0
 10
-4.5689316705
 20
-9.2453733995
 30
0.0
 10
-4.3391066751
 20
-9.2423107495
 30
0.0
 10
-4.1107305521
 20
-9.2346599946
 30
0.0
 10
-3.8847309181
 20
-9.2261175263
 30
0.0
 10
-3.7348666919
 20
-9.2227273833
 30
0.0
 10
-3.6604318851
 20
-9.2223571378
 30
0.0
 11
-5.4774314559
 21
-9.2223571378
 31
0.0
 11
-5.2541656322
 21
-9.226654796
 31
0.0
 11
-5.0279610986
 21
-9.2344675342
 31
0.0
 11
-4.7992218128
 21
-9.2415281095
 31
0.0
 11
-4.5689316705
 21
-9.2443503556
 31
0.0
 11
-4.3386415282
 21
-9.2415281095
 31
0.0
 11
-4.1099022425
 21
-9.2344675342
 31
0.0
 11
-3.8836977088
 21
-9.226654796
 31
0.0
 11
-3.6604318851
 21
-9.2223571378
 31
0.0
  0
SPLINE
  5
5EA
100
AcDbEntity
  8
0
100
AcDbSpline
 62
7
  6
CONTINUOUS
 70
0
 71
3
 72
29
 73
25
 74
23
 42
0.0000001
 43
0.0000001
 44
0.0000000001
 12
-0.1150389467
 22
1.0000236113
 32
0.0
 13
0.5023027285
 23
0.8723377508
 33
0.0
 40
0.0
 40
0.0
 40
0.0
 40
0.0
 40
0.0007088824
 40
0.0020518877
 40
0.0040416957
 40
0.0066800189
 40
0.009964748
 40
0.0138927134
 40
0.0236600961
 40
0.035935778
 40
0.0506609881
 40
0.0677668375
 40
0.0871750315
 40
0.1088000473
 40
0.1325507864
 40
0.1860432085
 40
0.2468575933
 40
0.3141860199
 40
0.3872344733
 40
0.4652404319
 40
0.5474825512
 40
0.6332842636
 40
0.8130757266
 40
1.0
 40
1.0
 40
1.0
 40
1.0
 10
2.6343147509
 20
-19.1302870458
 30
0.0
 10
2.6342875679
 20
-19.1300507461
 30
0.0
 10
2.634493289
 20
-19.1293666371
 30
0.0
 10
2.6349377837
 20
-19.1281037597
 30
0.0
 10
2.6357394811
 20
-19.1262569142
 30
0.0
 10
2.6368469468
 20
-19.1238479379
 30
0.0
 10
2.6382863215
 20
-19.1208706226
 30
0.0
 10
2.6408248946
 20
-19.1157705934
 30
0.0
 10
2.644814679
 20
-19.1080224344
 30
0.0
 10
2.6505682187
 20
-19.0971091024
 30
0.0
 10
2.6575585116
 20
-19.0840642769
 30
0.0
 10
2.6657516304
 20
-19.068949194
 30
0.0
 10
2.6751104738
 20
-19.0518327109
 30
0.0
 10
2.6855932635
 20
-19.0327897513
 30
0.0
 10
2.7016584732
 20
-19.0037649827
 30
0.0
 10
2.724210182
 20
-18.9633011648
 30
0.0
 10
2.7540233988
 20
-18.9101450801
 30
0.0
 10
2.7871696775
 20
-18.851335134
 30
0.0
 10
2.8232556734
 20
-18.7875606157
 30
0.0
 10
2.8619018486
 20
-18.7194851515
 30
0.0
 10
2.9027473785
 20
-18.6477376317
 30
0.0
 10
2.9605980875
 20
-18.5463714244
 30
0.0
 10
3.0360506901
 20
-18.4146081544
 30
0.0
 10
3.0973713137
 20
-18.3079286531
 30
0.0
 10
3.1286688379
 20
-18.253574953
 30
0.0
 11
2.6343147509
 21
-19.1302870458
 31
0.0
 11
2.6344320921
 21
-19.1295831855
 31
0.0
 11
2.6348797926
 21
-19.128307575
 31
0.0
 11
2.6356572826
 21
-19.1264616525
 31
0.0
 11
2.6367637126
 21
-19.1240473184
 31
0.0
 11
2.6381974046
 21
-19.1210678438
 31
0.0
 11
2.6399565271
 21
-19.1175267544
 31
0.0
 11
2.6444417066
 21
-19.1087773556
 31
0.0
 11
2.6501961023
 21
-19.0978420609
 31
0.0
 11
2.6571908423
 21
-19.0847735796
 31
0.0
 11
2.6653920951
 21
-19.0696330464
 31
0.0
 11
2.6747613181
 21
-19.0524895816
 31
0.0
 11
2.6852563018
 21
-19.0334184659
 31
0.0
 11
2.6968319833
 21
-19.01249974
 31
0.0
 11
2.7230338596
 21
-18.9654582245
 31
0.0
 11
2.7529718681
 21
-18.9120613703
 31
0.0
 11
2.7862431845
 21
-18.8530161191
 31
0.0
 11
2.8224509936
 21
-18.7890165839
 31
0.0
 11
2.8612135045
 21
-18.7207288661
 31
0.0
 11
2.9021689954
 21
-18.6487827421
 31
0.0
 11
2.9449777844
 21
-18.5737686326
 31
0.0
 11
3.0349033287
 21
-18.416709152
 31
0.0
 11
3.1286688379
 21
-18.253574953
 31
0.0
  0
SPLINE
  5
5EB
100
AcDbEntity
  8
0
100
AcDbSpline
 62
7
  6
CONTINUOUS
 70
0
 71
3
 72
29
 73
25
 74
23
 42
0.0000001
 43
0.0000001
 44
0.0000000001
 12
0.1150389467
 22
1.0000236113
 32
0.0
 13
-0.5023027285
 23
0.8723377508
 33
0.0
 40
0.0
 40
0.0
 40
0.0
 40
0.0
 40
0.0007088824
 40
0.0020518877
 40
0.0040416957
 40
0.0066800189
 40
0.009964748
 40
0.0138927134
 40
0.0236600961
 40
0.035935778
 40
0.0506609881
 40
0.0677668375
 40
0.0871750315
 40
0.1088000473
 40
0.1325507864
 40
0.1860432085
 40
0.2468575933
 40
0.3141860199
 40
0.3872344733
 40
0.4652404319
 40
0.5474825512
 40
0.6332842636
 40
0.8130757266
 40
1.0
 40
1.0
 40
1.0
 40
1.0
 10
9.227821908
 20
-19.1302870458
 30
0.0
 10
9.227849091
 20
-19.1300507461
 30
0.0
 10
9.22764337
 20
-19.1293666371
 30
0.0
 10
9.2271988752
 20
-19.1281037597
 30
0.0
 10
9.2263971779
 20
-19.1262569142
 30
0.0
 10
9.2252897121
 20
-19.1238479379
 30
0.0
 10
9.2238503375
 20
-19.1208706226
 30
0.0
 10
9.2213117643
 20
-19.1157705934
 30
0.0
 10
9.2173219799
 20
-19.1080224344
 30
0.0
 10
9.2115684403
 20
-19.0971091024
 30
0.0
 10
9.2045781474
 20
-19.0840642769
 30
0.0
 10
9.1963850285
 20
-19.068949194
 30
0.0
 10
9.1870261851
 20
-19.0518327109
 30
0.0
 10
9.1765433954
 20
-19.0327897513
 30
0.0
 10
9.1604781857
 20
-19.0037649827
 30
0.0
 10
9.137926477
 20
-18.9633011648
 30
0.0
 10
9.1081132601
 20
-18.9101450801
 30
0.0
 10
9.0749669815
 20
-18.851335134
 30
0.0
 10
9.0388809856
 20
-18.7875606157
 30
0.0
 10
9.0002348104
 20
-18.7194851515
 30
0.0
 10
8.9593892804
 20
-18.6477376317
 30
0.0
 10
8.9015385715
 20
-18.5463714244
 30
0.0
 10
8.8260859688
 20
-18.4146081544
 30
0.0
 10
8.7647653452
 20
-18.3079286531
 30
0.0
 10
8.7334678211
 20
-18.253574953
 30
0.0
 11
9.227821908
 21
-19.1302870458
 31
0.0
 11
9.2277045668
 21
-19.1295831855
 31
0.0
 11
9.2272568663
 21
-19.128307575
 31
0.0
 11
9.2264793763
 21
-19.1264616525
 31
0.0
 11
9.2253729464
 21
-19.1240473184
 31
0.0
 11
9.2239392543
 21
-19.1210678438
 31
0.0
 11
9.2221801319
 21
-19.1175267544
 31
0.0
 11
9.2176949523
 21
-19.1087773556
 31
0.0
 11
9.2119405567
 21
-19.0978420609
 31
0.0
 11
9.2049458166
 21
-19.0847735796
 31
0.0
 11
9.1967445638
 21
-19.0696330464
 31
0.0
 11
9.1873753409
 21
-19.0524895816
 31
0.0
 11
9.1768803572
 21
-19.0334184659
 31
0.0
 11
9.1653046757
 21
-19.01249974
 31
0.0
 11
9.1391027994
 21
-18.9654582245
 31
0.0
 11
9.1091647909
 21
-18.9120613703
 31
0.0
 11
9.0758934745
 21
-18.8530161191
 31
0.0
 11
9.0396856654
 21
-18.7890165839
 31
0.0
 11
9.0009231544
 21
-18.7207288661
 31
0.0
 11
8.9599676636
 21
-18.6487827421
 31
0.0
 11
8.9171588745
 21
-18.5737686326
 31
0.0
 11
8.8272333302
 21
-18.416709152
 31
0.0
 11
8.7334678211
 21
-18.253574953
 31
0.0
  0
SPLINE
  5
5EC
100
AcDbEntity
  8
RACCORDO
100
AcDbSpline
 62
253
  6
CONTINUOUS
 70
0
 71
3
 72
13
 73
9
 74
7
 42
0.0000001
 43
0.0000001
 44
0.0000000001
 12
-1.1278218908
 22
-0.5741442672
 32
0.0
 13
-0.8872483361
 23
-0.9024490274
 33
0.0
 40
0.0
 40
0.0
 40
0.0
 40
0.0
 40
0.2833780605
 40
0.5515235641
 40
0.6766667928
 40
0.7942647628
 40
0.9027839746
 40
1.0
 40
1.0
 40
1.0
 40
1.0
 10
-8.9664536848
 20
1.6336180079
 30
0.0
 10
-9.0729870115
 20
1.5793847116
 30
0.0
 10
-9.2752837742
 20
1.4635612089
 30
0.0
 10
-9.5084726101
 20
1.2981860507
 30
0.0
 10
-9.6755264641
 20
1.1619369479
 30
0.0
 10
-9.7865479705
 20
1.0637413949
 30
0.0
 10
-9.8855348872
 20
0.9698686965
 30
0.0
 10
-9.9468712159
 20
0.9084559659
 30
0.0
 10
-9.9756228015
 20
0.8792117967
 30
0.0
 11
-8.9664536848
 21
1.6336180079
 31
0.0
 11
-9.2776412312
 21
1.4553549661
 31
0.0
 11
-9.5545307801
 21
1.2591607918
 31
0.0
 11
-9.6772890257
 21
1.1590949715
 31
0.0
 11
-9.7888106995
 21
1.0605443494
 31
0.0
 11
-9.8885366414
 21
0.9661190844
 31
0.0
 11
-9.9756228015
 21
0.8792117967
 31
0.0
  0
SPLINE
  5
5ED
100
AcDbEntity
  8
RACCORDO
100
AcDbSpline
 62
253
  6
CONTINUOUS
 70
0
 71
3
 72
13
 73
9
 74
7
 42
0.0000001
 43
0.0000001
 44
0.0000000001
 12
-1.1278216011
 22
0.574144408
 32
0.0
 13
-0.8872477608
 23
0.9024493206
 33
0.0
 40
0.0
 40
0.0
 40
0.0
 40
0.0
 40
0.2833780153
 40
0.5515235532
 40
0.6766667241
 40
0.7942647969
 40
0.9027840008
 40
1.0
 40
1.0
 40
1.0
 40
1.0
 10
-8.9664536848
 20
-3.856854456
 30
0.0
 10
-9.0729869671
 20
-3.8026211551
 30
0.0
 10
-9.2752837114
 20
-3.6867977058
 30
0.0
 10
-9.5084724899
 20
-3.5214225897
 30
0.0
 10
-9.675526352
 20
-3.3851734967
 30
0.0
 10
-9.7865478519
 20
-3.2869779468
 30
0.0
 10
-9.8855347794
 20
-3.1931052486
 30
0.0
 10
-9.9468711015
 20
-3.1316925501
 30
0.0
 10
-9.9756226607
 20
-3.1024483793
 30
0.0
 11
-8.9664536848
 21
-3.856854456
 31
0.0
 11
-9.2776411363
 21
-3.6785914745
 31
0.0
 11
-9.5545306863
 21
-3.4823973166
 31
0.0
 11
-9.6772888605
 21
-3.3823315631
 31
0.0
 11
-9.7888106159
 21
-3.2837808712
 31
0.0
 11
-9.8885365416
 21
-3.1893556345
 31
0.0
 11
-9.9756226607
 21
-3.1024483793
 31
0.0
  0
SPLINE
  5
5EE
100
AcDbEntity
  8
RACCORDO
100
AcDbSpline
 62
253
  6
CONTINUOUS
 70
0
 71
3
 72
13
 73
9
 74
7
 42
0.0000001
 43
0.0000001
 44
0.0000000001
 12
-0.8872479524
 22
-0.9024495729
 32
0.0
 13
-1.1278218785
 23
-0.5741445558
 33
0.0
 40
0.0
 40
0.0
 40
0.0
 40
0.0
 40
0.0972159516
 40
0.2057351452
 40
0.3233332159
 40
0.4484763916
 40
0.7166219512
 40
1.0
 40
1.0
 40
1.0
 40
1.0
 10
11.3377595433
 20
-13.8024481581
 30
0.0
 10
11.309007992
 20
-13.8316923228
 30
0.0
 10
11.2476716706
 20
-13.893105018
 30
0.0
 10
11.1486847467
 20
-13.9869777321
 30
0.0
 10
11.0376632285
 20
-14.0851733123
 30
0.0
 10
10.8706093269
 20
-14.2214224577
 30
0.0
 10
10.6374204782
 20
-14.3867976419
 30
0.0
 10
10.4351236649
 20
-14.5026211347
 30
0.0
 10
10.3285903438
 20
-14.556854456
 30
0.0
 11
11.3377595433
 21
-13.8024481581
 31
0.0
 11
11.2506734467
 21
-13.8893553938
 31
0.0
 11
11.1509475129
 21
-13.9837806528
 31
0.0
 11
11.0394257396
 21
-14.0823313759
 31
0.0
 11
10.9166675372
 21
-14.1823971668
 31
0.0
 11
10.6397779061
 21
-14.3785914035
 31
0.0
 11
10.3285903438
 21
-14.556854456
 31
0.0
  0
SPLINE
  5
5EF
100
AcDbEntity
  8
RACCORDO
100
AcDbSpline
 62
253
  6
CONTINUOUS
 70
0
 71
3
 72
13
 73
9
 74
7
 42
0.0000001
 43
0.0000001
 44
0.0000000001
 12
1.1278219776
 22
-0.5741445996
 32
0.0
 13
0.8872480096
 23
-0.9024496683
 33
0.0
 40
0.0
 40
0.0
 40
0.0
 40
0.0
 40
0.2833780708
 40
0.5515236468
 40
0.6766668268
 40
0.7942649001
 40
0.902784094
 40
1.0
 40
1.0
 40
1.0
 40
1.0
 10
10.3285903438
 20
-9.0663819921
 30
0.0
 10
10.4351236825
 20
-9.1206153217
 30
0.0
 10
10.6374205259
 20
-9.2364388349
 30
0.0
 10
10.8706094059
 20
-9.4018140487
 30
0.0
 10
11.0376633247
 20
-9.5380632177
 30
0.0
 10
11.1486848523
 20
-9.6362588111
 30
0.0
 10
11.2476717648
 20
-9.7301315279
 30
0.0
 10
11.309008084
 20
-9.7915442087
 30
0.0
 10
11.3377596237
 20
-9.8207883627
 30
0.0
 11
10.3285903438
 21
-9.0663819921
 31
0.0
 11
10.6397779554
 21
-9.2446450761
 31
0.0
 11
10.9166676226
 21
-9.4408393479
 31
0.0
 11
11.0394258365
 21
-9.5409051546
 31
0.0
 11
11.1509476186
 21
-9.6394558923
 31
0.0
 11
11.2506735577
 21
-9.7338811631
 31
0.0
 11
11.3377596237
 21
-9.8207883627
 31
0.0
  0
SPLINE
  5
5F0
100
AcDbEntity
  8
RACCORDO
100
AcDbSpline
 62
253
  6
CONTINUOUS
 70
0
 71
3
 72
23
 73
19
 74
17
 42
0.0000001
 43
0.0000001
 44
0.0000000001
 12
-3.583935249
 22
3.2420524107
 32
0.0
 13
3.230640013
 23
3.5942260375
 33
0.0
 40
0.0
 40
0.0
 40
0.0
 40
0.0
 40
0.0652596858
 40
0.1294499465
 40
0.1922291328
 40
0.253733088
 40
0.374789852
 40
0.4362550129
 40
0.4998857541
 40
0.5325217994
 40
0.5652171087
 40
0.6291347159
 40
0.6907952091
 40
0.7513702571
 40
0.8119735531
 40
0.8733517915
 40
0.9359686161
 40
1.0
 40
1.0
 40
1.0
 40
1.0
 10
1.3645298508
 20
-14.0960893808
 30
0.0
 10
1.2865676881
 20
-14.0255642736
 30
0.0
 10
1.1382108573
 20
-13.8785138459
 30
0.0
 10
0.9391624522
 20
-13.6407520929
 30
0.0
 10
0.7663968159
 20
-13.3905118183
 30
0.0
 10
0.5725453856
 20
-13.045640427
 30
0.0
 10
0.427800188
 20
-12.6771765931
 30
0.0
 10
0.3377663075
 20
-12.2904781925
 30
0.0
 10
0.3064537597
 20
-12.037717353
 30
0.0
 10
0.2988401261
 20
-11.8300045801
 30
0.0
 10
0.3035880841
 20
-11.6217392969
 30
0.0
 10
0.3316876478
 20
-11.3677329473
 30
0.0
 10
0.3963643593
 20
-11.0744037627
 30
0.0
 10
0.4877778952
 20
-10.793938175
 30
0.0
 10
0.6048866823
 20
-10.5237214449
 30
0.0
 10
0.7479936402
 20
-10.2625620724
 30
0.0
 10
0.9176167485
 20
-10.0111221059
 30
0.0
 10
1.0471006349
 20
-9.8530082616
 30
0.0
 10
1.1160547519
 20
-9.7762938392
 30
0.0
 11
1.3645298508
 21
-14.0960893808
 31
0.0
 11
1.1406232813
 21
-13.8739793761
 31
0.0
 11
0.9415571415
 21
-13.6360583539
 31
0.0
 11
0.7692401464
 21
-13.3863462284
 31
0.0
 11
0.6236815815
 21
-13.1271930107
 31
0.0
 11
0.410710393
 21
-12.5822966971
 31
0.0
 11
0.3436093498
 21
-12.2929289055
 31
0.0
 11
0.3061671285
 21
-11.9877052588
 31
0.0
 11
0.300405029
 21
-11.8300886219
 31
0.0
 11
0.303999064
 21
-11.6721211676
 31
0.0
 11
0.3376157684
 21
-11.3650578637
 31
0.0
 11
0.401485769
 21
-11.0739932642
 31
0.0
 11
0.4920492229
 21
-10.7956096574
 31
0.0
 11
0.6084163916
 21
-10.5268387507
 31
0.0
 11
0.7508886741
 21
-10.2666685544
 31
0.0
 11
0.920063939
 21
-10.0157631627
 31
0.0
 11
1.1160547519
 21
-9.7762938392
 31
0.0
  0
SPLINE
  5
5F1
100
AcDbEntity
  8
RACCORDO
100
AcDbSpline
 62
253
  6
CONTINUOUS
 70
0
 71
3
 72
12
 73
8
 74
6
 42
0.0000001
 43
0.0000001
 44
0.0000000001
 12
-0.0329625725
 22
-2.6727108829
 32
0.0
 13
-0.0000000025
 23
-2.6729141391
 33
0.0
 40
0.0
 40
0.0
 40
0.0
 40
0.0
 40
0.0760012676
 40
0.1705322093
 40
0.4072681066
 40
0.691314514
 40
1.0
 40
1.0
 40
1.0
 40
1.0
 10
0.8329955
 20
16.9612671749
 30
0.0
 10
0.8321604342
 20
16.8935573699
 30
0.0
 10
0.8306520832
 20
16.7416251611
 30
0.0
 10
0.8279748004
 20
16.3787706459
 30
0.0
 10
0.8254590682
 20
15.8305489948
 30
0.0
 10
0.8236089378
 20
15.0915190024
 30
0.0
 10
0.8231941435
 20
14.5634116907
 30
0.0
 10
0.8231941433
 20
14.2883817573
 30
0.0
 11
0.8329955
 21
16.9612671749
 31
0.0
 11
0.8308929066
 21
16.7581331937
 31
0.0
 11
0.8289766618
 21
16.5054673694
 31
0.0
 11
0.8258524512
 21
15.8727003548
 31
0.0
 11
0.8238722537
 21
15.1134712787
 31
0.0
 11
0.8231941433
 21
14.2883817573
 31
0.0
  0
SPLINE
  5
5F2
100
AcDbEntity
  8
RACCORDO
100
AcDbSpline
 62
253
  6
CONTINUOUS
 70
0
 71
3
 72
12
 73
8
 74
6
 42
0.0000001
 43
0.0000001
 44
0.0000000001
 12
0.0000000017
 22
-2.6729140963
 32
0.0
 13
0.0329625752
 23
-2.6727108401
 33
0.0
 40
0.0
 40
0.0
 40
0.0
 40
0.0
 40
0.3086854803
 40
0.592731883
 40
0.8294677784
 40
0.9239987213
 40
1.0
 40
1.0
 40
1.0
 40
1.0
 10
0.8231941433
 20
14.2883817573
 30
0.0
 10
0.8231941434
 20
14.0133518334
 30
0.0
 10
0.8236089379
 20
13.4852445393
 30
0.0
 10
0.8254590682
 20
12.7462145698
 30
0.0
 10
0.8279748002
 20
12.1979929322
 30
0.0
 10
0.830652083
 20
11.8351384137
 30
0.0
 10
0.832160434
 20
11.6832061963
 30
0.0
 10
0.8329955
 20
11.6154963825
 30
0.0
 11
0.8231941433
 21
14.2883817573
 31
0.0
 11
0.8238722537
 21
13.4632922642
 31
0.0
 11
0.8258524512
 21
12.7040632129
 31
0.0
 11
0.8289766616
 21
12.0712962136
 31
0.0
 11
0.8308929064
 21
11.8186303901
 31
0.0
 11
0.8329955
 21
11.6154963825
 31
0.0
  0
SPLINE
  5
5F3
100
AcDbEntity
  8
RACCORDO
100
AcDbSpline
 62
253
  6
CONTINUOUS
 70
0
 71
3
 72
13
 73
9
 74
7
 42
0.0000001
 43
0.0000001
 44
0.0000000001
 12
0.1002451842
 22
2.6729082987
 32
0.0
 13
-0.000000002
 23
2.6747874439
 33
0.0
 40
0.0
 40
0.0
 40
0.0
 40
0.0
 40
0.0758960994
 40
0.1703542092
 40
0.2814813807
 40
0.407047665
 40
0.6911700777
 40
1.0
 40
1.0
 40
1.0
 40
1.0
 10
-0.3189316705
 20
11.6138609045
 30
0.0
 10
-0.3163955977
 20
11.6814820091
 30
0.0
 10
-0.3118175972
 20
11.8333035983
 30
0.0
 10
-0.3061829871
 20
12.0842089716
 30
0.0
 10
-0.3011795091
 20
12.3794212643
 30
0.0
 10
-0.2952602801
 20
12.8437417204
 30
0.0
 10
-0.2904398359
 20
13.4843560117
 30
0.0
 10
-0.2891666719
 20
14.0130305376
 30
0.0
 10
-0.2891666721
 20
14.2883820037
 30
0.0
 11
-0.3189316705
 21
11.6138609045
 31
0.0
 11
-0.3125482356
 21
11.8167664512
 31
0.0
 11
-0.3067296851
 21
12.0693548091
 31
0.0
 11
-0.3015930154
 21
12.3665519848
 31
0.0
 11
-0.2972415214
 21
12.7023869151
 31
0.0
 11
-0.2912266334
 21
13.4623301738
 31
0.0
 11
-0.2891666721
 21
14.2883820037
 31
0.0
  0
SPLINE
  5
5F4
100
AcDbEntity
  8
RACCORDO
100
AcDbSpline
 62
253
  6
CONTINUOUS
 70
0
 71
3
 72
13
 73
9
 74
7
 42
0.0000001
 43
0.0000001
 44
0.0000000001
 12
-0.0000000018
 22
2.6747869884
 32
0.0
 13
-0.1002452266
 23
2.6729078412
 33
0.0
 40
0.0
 40
0.0
 40
0.0
 40
0.0
 40
0.3088299578
 40
0.5929523919
 40
0.7185186812
 40
0.8296458545
 40
0.924103964
 40
1.0
 40
1.0
 40
1.0
 40
1.0
 10
-0.2891666721
 20
14.2883820037
 30
0.0
 10
-0.2891666723
 20
14.5637334546
 30
0.0
 10
-0.2904398382
 20
15.0924079412
 30
0.0
 10
-0.2952602834
 20
15.7330221786
 30
0.0
 10
-0.3011795137
 20
16.1973425807
 30
0.0
 10
-0.3061829917
 20
16.4925548289
 30
0.0
 10
-0.3118176022
 20
16.7434601042
 30
0.0
 10
-0.3163955987
 20
16.8952816108
 30
0.0
 10
-0.3189316705
 20
16.9629026474
 30
0.0
 11
-0.2891666721
 21
14.2883820037
 31
0.0
 11
-0.2912266356
 21
15.114433788
 31
0.0
 11
-0.2972415252
 21
15.8743769744
 31
0.0
 11
-0.3015930199
 21
16.2102118608
 31
0.0
 11
-0.3067296901
 21
16.507408991
 31
0.0
 11
-0.3125482412
 21
16.7599973047
 31
0.0
 11
-0.3189316705
 21
16.9629026474
 31
0.0
  0
LINE
  5
5F5
100
AcDbEntity
  8
RACCORDO
100
AcDbLine
 62
7
  6
CONTINUOUS
 10
-10.0551552419
 20
-2.3994211916
 11
-10.0552466317
 21
-2.3993440931
  0
SPLINE
  5
5F6
100
AcDbEntity
  8
0
100
AcDbSpline
 62
7
  6
CONTINUOUS
 70
0
 71
3
 72
61
 73
57
 74
55
 42
0.0000001
 43
0.0000001
 44
0.0000000001
 12
4.1477002986
 22
-3.6127248132
 32
0.0
 13
4.1477002977
 23
3.6127248143
 33
0.0
 40
0.0
 40
0.0
 40
0.0
 40
0.0
 40
0.000101658
 40
0.000272964
 40
0.0005167314
 40
0.0008338241
 40
0.0016891787
 40
0.002840053
 40
0.0042862436
 40
0.006027222
 40
0.0080620583
 40
0.0103896248
 40
0.015917536
 40
0.0225980942
 40
0.0304155423
 40
0.0393513707
 40
0.049384386
 40
0.0604907335
 40
0.0726439663
 40
0.0858151672
 40
0.1150837925
 40
0.1480179826
 40
0.1843041924
 40
0.2235969611
 40
0.2655220902
 40
0.309680353
 40
0.3556512198
 40
0.4029968681
 40
0.5000000436
 40
0.5970032176
 40
0.644348864
 40
0.6903197282
 40
0.7344779877
 40
0.7764031122
 40
0.8156958768
 40
0.8519820801
 40
0.884916265
 40
0.9141848828
 40
0.9273560802
 40
0.9395093098
 40
0.9506156538
 40
0.9606486644
 40
0.9695844887
 40
0.9774019334
 40
0.9840824874
 40
0.9896103915
 40
0.9919379551
 40
0.9939727868
 40
0.9957137622
 40
0.9971599504
 40
0.9983108227
 40
0.9991661764
 40
0.9994832688
 40
0.9997270361
 40
0.999898342
 40
1.0
 40
1.0
 40
1.0
 40
1.0
 10
3.181173041
 20
-18.2885736314
 30
0.0
 10
3.18131359
 20
-18.2886960522
 30
0.0
 10
3.1817928272
 20
-18.2888856488
 30
0.0
 10
3.1827016491
 20
-18.2891269652
 30
0.0
 10
3.1840263943
 20
-18.2893704347
 30
0.0
 10
3.1865948195
 20
-18.2897400966
 30
0.0
 10
3.1908353627
 20
-18.290172776
 30
0.0
 10
3.1971454067
 20
-18.2906667035
 30
0.0
 10
3.2050843117
 20
-18.2911621919
 30
0.0
 10
3.2146458438
 20
-18.2916599339
 30
0.0
 10
3.2258254024
 20
-18.292157349
 30
0.0
 10
3.24394563
 20
-18.29286019
 30
0.0
 10
3.2705840423
 20
-18.2937102469
 30
0.0
 10
3.3072887906
 20
-18.2946753911
 30
0.0
 10
3.3502440271
 20
-18.2956290527
 30
0.0
 10
3.3993475192
 20
-18.2965683872
 30
0.0
 10
3.4544824489
 20
-18.2974900014
 30
0.0
 10
3.5155174959
 20
-18.2983912537
 30
0.0
 10
3.5823072478
 20
-18.2992697128
 30
0.0
 10
3.6823961973
 20
-18.3004492261
 30
0.0
 10
3.8205869913
 20
-18.3018288537
 30
0.0
 10
4.0011597055
 20
-18.3033107665
 30
0.0
 10
4.2001131243
 20
-18.3046552892
 30
0.0
 10
4.415552569
 20
-18.3058489285
 30
0.0
 10
4.6454263404
 20
-18.3068795659
 30
0.0
 10
4.8875451301
 20
-18.3077369114
 30
0.0
 10
5.1396030018
 20
-18.3084126569
 30
0.0
 10
5.4885518299
 20
-18.3090675333
 30
0.0
 10
5.9310685666
 20
-18.3093890975
 30
0.0
 10
6.3735852997
 20
-18.3090675326
 30
0.0
 10
6.7225341169
 20
-18.3084126554
 30
0.0
 10
6.9745919743
 20
-18.3077369096
 30
0.0
 10
7.2167107446
 20
-18.3068795637
 30
0.0
 10
7.4465844939
 20
-18.3058489257
 30
0.0
 10
7.6620239107
 20
-18.3046552864
 30
0.0
 10
7.8609773007
 20
-18.3033107629
 30
0.0
 10
8.0415499796
 20
-18.3018288501
 30
0.0
 10
8.179740744
 20
-18.300449222
 30
0.0
 10
8.2798296675
 20
-18.2992697087
 30
0.0
 10
8.3466194007
 20
-18.2983912494
 30
0.0
 10
8.4076544266
 20
-18.2974899972
 30
0.0
 10
8.4627893337
 20
-18.2965683827
 30
0.0
 10
8.5118928034
 20
-18.2956290483
 30
0.0
 10
8.5548480186
 20
-18.2946753865
 30
0.0
 10
8.5915527399
 20
-18.2937102427
 30
0.0
 10
8.618191126
 20
-18.2928601854
 30
0.0
 10
8.636311327
 20
-18.2921573457
 30
0.0
 10
8.6474908664
 20
-18.2916599307
 30
0.0
 10
8.6570523802
 20
-18.2911621896
 30
0.0
 10
8.6649912714
 20
-18.290666702
 30
0.0
 10
8.6713013056
 20
-18.2901727749
 30
0.0
 10
8.6755418431
 20
-18.2897400962
 30
0.0
 10
8.6781102659
 20
-18.2893704345
 30
0.0
 10
8.6794350104
 20
-18.2891269651
 30
0.0
 10
8.680343832
 20
-18.2888856488
 30
0.0
 10
8.680823069
 20
-18.2886960522
 30
0.0
 10
8.6809636179
 20
-18.2885736314
 30
0.0
 11
3.181173041
 21
-18.2885736314
 31
0.0
 11
3.1816706654
 21
-18.2888286563
 31
0.0
 11
3.1825777792
 21
-18.2890836181
 31
0.0
 11
3.1838941719
 21
-18.289338475
 31
0.0
 11
3.1856196327
 21
-18.2895931852
 31
0.0
 11
3.190296893
 21
-18.2901019986
 31
0.0
 11
3.1966068506
 21
-18.290609741
 31
0.0
 11
3.2045454487
 21
-18.291116117
 31
0.0
 11
3.2141083429
 21
-18.2916208322
 31
0.0
 11
3.2252896066
 21
-18.2921235879
 31
0.0
 11
3.2380825358
 21
-18.2926240833
 31
0.0
 11
3.26847244
 21
-18.2936170988
 31
0.0
 11
3.3052055856
 21
-18.294597515
 31
0.0
 11
3.3481944038
 21
-18.2955630087
 31
0.0
 11
3.3973365339
 21
-18.2965112883
 31
0.0
 11
3.4525150428
 21
-18.2974400966
 31
0.0
 11
3.5135984671
 21
-18.2983472292
 31
0.0
 11
3.5804411545
 21
-18.2992305415
 31
0.0
 11
3.6528839096
 21
-18.3000879356
 31
0.0
 11
3.8138669386
 21
-18.3017169011
 31
0.0
 11
3.9950143218
 21
-18.3032187108
 31
0.0
 11
4.1946009864
 21
-18.3045791499
 31
0.0
 11
4.4107264164
 21
-18.3057853492
 31
0.0
 11
4.6413320911
 21
-18.3068259253
 31
0.0
 11
4.8842218631
 21
-18.3076910256
 31
0.0
 11
5.1370824361
 21
-18.3083725068
 31
0.0
 11
5.3975054117
 21
-18.3088639209
 31
0.0
 11
5.9310685692
 21
-18.3092598556
 31
0.0
 11
6.4646317189
 21
-18.3088639199
 31
0.0
 11
6.7250546839
 21
-18.3083725054
 31
0.0
 11
6.9779152423
 21
-18.3076910238
 31
0.0
 11
7.2208049965
 21
-18.306825923
 31
0.0
 11
7.4514106455
 21
-18.3057853465
 31
0.0
 11
7.6675360531
 21
-18.3045791469
 31
0.0
 11
7.8671226819
 21
-18.3032187072
 31
0.0
 11
8.0482700368
 21
-18.3017168973
 31
0.0
 11
8.209253024
 21
-18.3000879315
 31
0.0
 11
8.2816957602
 21
-18.2992305374
 31
0.0
 11
8.3485384302
 21
-18.2983472249
 31
0.0
 11
8.4096218349
 21
-18.2974400922
 31
0.0
 11
8.4648003177
 21
-18.2965112839
 31
0.0
 11
8.5139424256
 21
-18.2955630042
 31
0.0
 11
8.5569312251
 21
-18.2945975104
 31
0.0
 11
8.5936643473
 21
-18.2936170942
 31
0.0
 11
8.6240542127
 21
-18.2926240791
 31
0.0
 11
8.6368471258
 21
-18.2921235843
 31
0.0
 11
8.6480283646
 21
-18.2916208292
 31
0.0
 11
8.657591242
 21
-18.2911161147
 31
0.0
 11
8.6655298269
 21
-18.2906097395
 31
0.0
 11
8.6718397732
 21
-18.2901019978
 31
0.0
 11
8.6765170286
 21
-18.2895931849
 31
0.0
 11
8.6782424882
 21
-18.2893384748
 31
0.0
 11
8.6795588801
 21
-18.289083618
 31
0.0
 11
8.6804659936
 21
-18.2888286563
 31
0.0
 11
8.6809636179
 21
-18.2885736314
 31
0.0
  0
SPLINE
  5
5F7
100
AcDbEntity
  8
0
100
AcDbSpline
 62
7
  6
CONTINUOUS
 70
0
 71
3
 72
59
 73
55
 74
53
 42
0.0000001
 43
0.0000001
 44
0.0000000001
 12
3.0683359098
 22
-4.5666723041
 32
0.0
 13
3.0683359101
 23
4.566672304
 33
0.0
 40
0.0
 40
0.0
 40
0.0
 40
0.0
 40
0.0001202311
 40
0.0003031477
 40
0.00087827
 40
0.0017430118
 40
0.002900749
 40
0.0043522703
 40
0.0060975387
 40
0.0081359034
 40
0.0104664107
 40
0.0159988473
 40
0.0226825871
 40
0.0305021854
 40
0.039439324
 40
0.0494729364
 40
0.0605792571
 40
0.0727319056
 40
0.0859020149
 40
0.1151670815
 40
0.1480960946
 40
0.184375708
 40
0.2236606346
 40
0.2655768416
 40
0.3097252698
 40
0.3556855596
 40
0.4030200674
 40
0.4999999968
 40
0.5969799267
 40
0.6443144345
 40
0.690274725
 40
0.7344231534
 40
0.7763393611
 40
0.8156242883
 40
0.851903902
 40
0.8848329159
 40
0.9140979832
 40
0.9272680926
 40
0.9394207413
 40
0.9505270624
 40
0.9605606751
 40
0.9694978139
 40
0.9773174123
 40
0.9840011522
 40
0.9895335891
 40
0.9918640964
 40
0.9939024612
 40
0.9956477296
 40
0.9970992509
 40
0.9982569882
 40
0.99912173
 40
0.9996968523
 40
0.9998797689
 40
1.0
 40
1.0
 40
1.0
 40
1.0
 10
-7.318826959
 20
-8.1888351082
 30
0.0
 10
-7.3187039892
 20
-8.1890181269
 30
0.0
 10
-7.3182402017
 20
-8.1893601988
 30
0.0
 10
-7.3167717168
 20
-8.1900094312
 30
0.0
 10
-7.3138638163
 20
-8.1907366741
 30
0.0
 10
-7.3091808689
 20
-8.1915714791
 30
0.0
 10
-7.3028603841
 20
-8.1924113709
 30
0.0
 10
-7.2949209374
 20
-8.1932620295
 30
0.0
 10
-7.2853570529
 20
-8.1941135606
 30
0.0
 10
-7.274176637
 20
-8.1949658118
 30
0.0
 10
-7.256058144
 20
-8.1961697002
 30
0.0
 10
-7.2294198627
 20
-8.1976269906
 30
0.0
 10
-7.1927129605
 20
-8.1992826021
 30
0.0
 10
-7.1497560315
 20
-8.2009196195
 30
0.0
 10
-7.1006511572
 20
-8.202533064
 30
0.0
 10
-7.0455150012
 20
-8.2041170676
 30
0.0
 10
-6.9844788391
 20
-8.2056670281
 30
0.0
 10
-6.9176880573
 20
-8.2071787209
 30
0.0
 10
-6.8175991844
 20
-8.2092096457
 30
0.0
 10
-6.6794078327
 20
-8.2115873373
 30
0.0
 10
-6.498833397
 20
-8.2141439914
 30
0.0
 10
-6.2998788683
 20
-8.2164658319
 30
0.0
 10
-6.0844389682
 20
-8.218528821
 30
0.0
 10
-5.8545653893
 20
-8.2203114709
 30
0.0
 10
-5.6124474167
 20
-8.2217952484
 30
0.0
 10
-5.3603909204
 20
-8.2229653783
 30
0.0
 10
-5.0114450928
 20
-8.2240997847
 30
0.0
 10
-4.5689316871
 20
-8.2246571151
 30
0.0
 10
-4.1264182814
 20
-8.2240997848
 30
0.0
 10
-3.7774724515
 20
-8.2229653785
 30
0.0
 10
-3.5254159535
 20
-8.2217952486
 30
0.0
 10
-3.2832979783
 20
-8.2203114712
 30
0.0
 10
-3.0534243968
 20
-8.2185288214
 30
0.0
 10
-2.8379844938
 20
-8.2164658322
 30
0.0
 10
-2.6390299618
 20
-8.2141439918
 30
0.0
 10
-2.4584555229
 20
-8.2115873376
 30
0.0
 10
-2.3202641684
 20
-8.2092096461
 30
0.0
 10
-2.2201752938
 20
-8.2071787213
 30
0.0
 10
-2.1533845106
 20
-8.2056670284
 30
0.0
 10
-2.0923483468
 20
-8.2041170679
 30
0.0
 10
-2.0372121892
 20
-8.2025330643
 30
0.0
 10
-1.9881073137
 20
-8.2009196197
 30
0.0
 10
-1.945150384
 20
-8.1992826024
 30
0.0
 10
-1.9084434808
 20
-8.1976269908
 30
0.0
 10
-1.8818051988
 20
-8.1961697003
 30
0.0
 10
-1.8636867051
 20
-8.1949658119
 30
0.0
 10
-1.8525062889
 20
-8.1941135607
 30
0.0
 10
-1.8429424041
 20
-8.1932620296
 30
0.0
 10
-1.8350029572
 20
-8.1924113709
 30
0.0
 10
-1.8286824723
 20
-8.1915714791
 30
0.0
 10
-1.8239995248
 20
-8.1907366741
 30
0.0
 10
-1.8210916243
 20
-8.1900094312
 30
0.0
 10
-1.8196231394
 20
-8.1893601988
 30
0.0
 10
-1.8191593519
 20
-8.1890181269
 30
0.0
 10
-1.8190363821
 20
-8.1888351082
 30
0.0
 11
-7.318826959
 21
-8.1888351082
 31
0.0
 11
-7.318329328
 21
-8.1892709063
 31
0.0
 11
-7.3174222
 21
-8.1897066586
 31
0.0
 11
-7.3143802952
 21
-8.1905777604
 31
0.0
 11
-7.3097029532
 21
-8.191447883
 31
0.0
 11
-7.3033928845
 21
-8.1923165013
 31
0.0
 11
-7.2954541461
 21
-8.1931830981
 31
0.0
 11
-7.2858910831
 21
-8.1940471565
 31
0.0
 11
-7.2747096239
 21
-8.1949081603
 31
0.0
 11
-7.2619164727
 21
-8.1957655936
 31
0.0
 11
-7.2315260533
 21
-8.1974676872
 31
0.0
 11
-7.1947923036
 21
-8.1991493308
 31
0.0
 11
-7.1518028083
 21
-8.2008064976
 31
0.0
 11
-7.1026599464
 21
-8.2024351991
 31
0.0
 11
-7.0474806695
 21
-8.2040314807
 31
0.0
 11
-6.986396459
 21
-8.2055914867
 31
0.0
 11
-6.9195529841
 21
-8.2071114669
 31
0.0
 11
-6.8471094613
 21
-8.2085877213
 31
0.0
 11
-6.686125044
 21
-8.2113948126
 31
0.0
 11
-6.5049765857
 21
-8.2139855243
 31
0.0
 11
-6.3053892833
 21
-8.2163346209
 31
0.0
 11
-6.0892637479
 21
-8.218419158
 31
0.0
 11
-5.858658552
 21
-8.2202188329
 31
0.0
 11
-5.6157698391
 21
-8.2217159415
 31
0.0
 11
-5.362910868
 21
-8.2228959061
 31
0.0
 11
-5.1024899402
 21
-8.2237470996
 31
0.0
 11
-4.5689316879
 21
-8.2244331154
 31
0.0
 11
-4.0353734332
 21
-8.2237470998
 31
0.0
 11
-3.7749525051
 21
-8.2228959063
 31
0.0
 11
-3.5220935301
 21
-8.2217159417
 31
0.0
 11
-3.2792048164
 21
-8.2202188332
 31
0.0
 11
-3.0485996173
 21
-8.2184191583
 31
0.0
 11
-2.8324740782
 21
-8.2163346213
 31
0.0
 11
-2.6328867739
 21
-8.2139855246
 31
0.0
 11
-2.4517383112
 21
-8.2113948129
 31
0.0
 11
-2.2907538906
 21
-8.2085877216
 31
0.0
 11
-2.2183103672
 21
-8.2071114672
 31
0.0
 11
-2.151466891
 21
-8.205591487
 31
0.0
 11
-2.0903826783
 21
-8.204031481
 31
0.0
 11
-2.0352033998
 21
-8.2024351994
 31
0.0
 11
-1.9860605368
 21
-8.2008064978
 31
0.0
 11
-1.9430710409
 21
-8.199149331
 31
0.0
 11
-1.9063372905
 21
-8.1974676874
 31
0.0
 11
-1.8759468698
 21
-8.1957655937
 31
0.0
 11
-1.8631537182
 21
-8.1949081604
 31
0.0
 11
-1.8519722586
 21
-8.1940471566
 31
0.0
 11
-1.8424091954
 21
-8.1931830982
 31
0.0
 11
-1.8344704568
 21
-8.1923165014
 31
0.0
 11
-1.8281603879
 21
-8.191447883
 31
0.0
 11
-1.8234830459
 21
-8.1905777604
 31
0.0
 11
-1.8204411411
 21
-8.1897066586
 31
0.0
 11
-1.8195340131
 21
-8.1892709063
 31
0.0
 11
-1.8190363821
 21
-8.1888351082
 31
0.0
  0
LINE
  5
5F8
100
AcDbEntity
  8
0
100
AcDbLine
 62
7
  6
CONTINUOUS
 10
-7.318926261
 20
-8.1887280952
 11
-7.318826959
 21
-8.1888351082
  0
LINE
  5
5F9
100
AcDbEntity
  8
0
100
AcDbLine
 62
7
  6
CONTINUOUS
 10
-1.8190363821
 20
-8.1888351082
 11
-1.81893708
 21
-8.1887280952
  0
SPLINE
  5
5FA
100
AcDbEntity
  8
0
100
AcDbSpline
 62
7
  6
CONTINUOUS
 70
0
 71
3
 72
9
 73
5
 74
3
 42
0.0000001
 43
0.0000001
 44
0.0000000001
 12
0.2096527825
 22
0.0
 32
0.0
 13
0.1780639752
 23
-0.1106684685
 33
0.0
 40
0.0
 40
0.0
 40
0.0
 40
0.0
 40
0.7466433059
 40
1.0
 40
1.0
 40
1.0
 40
1.0
 10
-8.1189316705
 20
-0.6431087793
 30
0.0
 10
-8.066753055
 20
-0.6431087793
 30
0.0
 10
-7.995761125
 20
-0.6586105339
 30
0.0
 10
-7.9339695706
 20
-0.691424611
 30
0.0
 10
-7.9189316705
 20
-0.7007708101
 30
0.0
 11
-8.1189316705
 21
-0.6431087793
 31
0.0
 11
-7.965870747
 21
-0.6759085501
 31
0.0
 11
-7.9189316705
 21
-0.7007708101
 31
0.0
  0
SPLINE
  5
5FB
100
AcDbEntity
  8
0
100
AcDbSpline
 62
7
  6
CONTINUOUS
 70
0
 71
3
 72
9
 73
5
 74
3
 42
0.0000001
 43
0.0000001
 44
0.0000000001
 12
0.1531931612
 22
0.0747843455
 32
0.0
 13
0.1704724112
 23
0.0
 33
0.0
 40
0.0
 40
0.0
 40
0.0
 40
0.0
 40
0.2522711178
 40
1.0
 40
1.0
 40
1.0
 40
1.0
 10
-8.2841734939
 20
-0.6815440734
 30
0.0
 10
-8.2712914238
 20
-0.6752554299
 30
0.0
 10
-8.2188742655
 20
-0.6532003354
 30
0.0
 10
-8.161420719
 20
-0.6431087793
 30
0.0
 10
-8.1189316705
 20
-0.6431087793
 30
0.0
 11
-8.2841734939
 21
-0.6815440734
 31
0.0
 11
-8.2445242342
 21
-0.6648890713
 31
0.0
 11
-8.1189316705
 21
-0.6431087793
 31
0.0
  0
SPLINE
  5
5FC
100
AcDbEntity
  8
0
100
AcDbSpline
 62
7
  6
CONTINUOUS
 70
0
 71
3
 72
8
 73
4
 74
2
 42
0.0000001
 43
0.0000001
 44
0.0000000001
 12
-0.076230243
 22
-0.0372133377
 32
0.0
 13
-0.0848285474
 23
0.0
 33
0.0
 40
0.0
 40
0.0
 40
0.0
 40
0.0
 40
1.0
 40
1.0
 40
1.0
 40
1.0
 10
-8.2841734939
 20
-0.6815440734
 30
0.0
 10
-8.3095835749
 20
-0.6939485192
 30
0.0
 10
-8.3385182231
 20
-0.7007708101
 30
0.0
 10
-8.3667944055
 20
-0.7007708101
 30
0.0
 11
-8.2841734939
 21
-0.6815440734
 31
0.0
 11
-8.3667944055
 21
-0.7007708101
 31
0.0
  0
SPLINE
  5
5FD
100
AcDbEntity
  8
0
100
AcDbSpline
 62
7
  6
CONTINUOUS
 70
0
 71
3
 72
8
 73
4
 74
2
 42
0.0000001
 43
0.0000001
 44
0.0000000001
 12
-0.0848285474
 22
0.0
 32
0.0
 13
-0.076230243
 23
0.0372133377
 33
0.0
 40
0.0
 40
0.0
 40
0.0
 40
0.0
 40
1.0
 40
1.0
 40
1.0
 40
1.0
 10
-0.7710689355
 20
-0.7007708101
 30
0.0
 10
-0.799345118
 20
-0.7007708101
 30
0.0
 10
-0.8282797662
 20
-0.6939485192
 30
0.0
 10
-0.8536898472
 20
-0.6815440734
 30
0.0
 11
-0.7710689355
 21
-0.7007708101
 31
0.0
 11
-0.8536898472
 21
-0.6815440734
 31
0.0
  0
SPLINE
  5
5FE
100
AcDbEntity
  8
0
100
AcDbSpline
 62
7
  6
CONTINUOUS
 70
0
 71
3
 72
9
 73
5
 74
3
 42
0.0000001
 43
0.0000001
 44
0.0000000001
 12
0.1704724112
 22
0.0
 32
0.0
 13
0.1531931612
 23
-0.0747843455
 33
0.0
 40
0.0
 40
0.0
 40
0.0
 40
0.0
 40
0.7477288822
 40
1.0
 40
1.0
 40
1.0
 40
1.0
 10
-1.0189316705
 20
-0.6431087793
 30
0.0
 10
-0.976442622
 20
-0.6431087793
 30
0.0
 10
-0.9189890756
 20
-0.6532003354
 30
0.0
 10
-0.8665719172
 20
-0.6752554299
 30
0.0
 10
-0.8536898472
 20
-0.6815440734
 30
0.0
 11
-1.0189316705
 21
-0.6431087793
 31
0.0
 11
-0.8933391068
 21
-0.6648890713
 31
0.0
 11
-0.8536898472
 21
-0.6815440734
 31
0.0
  0
SPLINE
  5
5FF
100
AcDbEntity
  8
0
100
AcDbSpline
 62
7
  6
CONTINUOUS
 70
0
 71
3
 72
9
 73
5
 74
3
 42
0.0000001
 43
0.0000001
 44
0.0000000001
 12
0.1780639752
 22
0.1106684685
 32
0.0
 13
0.2096527825
 23
0.0
 33
0.0
 40
0.0
 40
0.0
 40
0.0
 40
0.0
 40
0.2533566941
 40
1.0
 40
1.0
 40
1.0
 40
1.0
 10
-1.2189316705
 20
-0.7007708101
 30
0.0
 10
-1.2038937705
 20
-0.691424611
 30
0.0
 10
-1.142102216
 20
-0.6586105339
 30
0.0
 10
-1.0711102861
 20
-0.6431087793
 30
0.0
 10
-1.0189316705
 20
-0.6431087793
 30
0.0
 11
-1.2189316705
 21
-0.7007708101
 31
0.0
 11
-1.171992594
 21
-0.6759085501
 31
0.0
 11
-1.0189316705
 21
-0.6431087793
 31
0.0
  0
SPLINE
  5
600
100
AcDbEntity
  8
0
100
AcDbSpline
 62
7
  6
CONTINUOUS
 70
0
 71
3
 72
9
 73
5
 74
3
 42
0.0000001
 43
0.0000001
 44
0.0000000001
 12
0.1015153029
 22
0.1783947692
 32
0.0
 13
0.1743297163
 23
0.1083475908
 33
0.0
 40
0.0
 40
0.0
 40
0.0
 40
0.0
 40
0.254393723
 40
1.0
 40
1.0
 40
1.0
 40
1.0
 10
-1.3597778498
 20
-0.8484624034
 30
0.0
 10
-1.3511695645
 20
-0.8333349002
 30
0.0
 10
-1.3137898697
 20
-0.7759728941
 30
0.0
 10
-1.2622587808
 20
-0.7276990247
 30
0.0
 10
-1.2189316705
 20
-0.7007708101
 30
0.0
 11
-1.3597778498
 21
-0.8484624034
 31
0.0
 11
-1.3312354211
 21
-0.804737981
 31
0.0
 11
-1.2189316705
 21
-0.7007708101
 31
0.0
  0
SPLINE
  5
601
100
AcDbEntity
  8
0
100
AcDbSpline
 62
7
  6
CONTINUOUS
 70
0
 71
3
 72
9
 73
5
 74
3
 42
0.0000001
 43
0.0000001
 44
0.0000000001
 12
0.1743460784
 22
-0.10835776
 32
0.0
 13
0.1015248309
 23
-0.1784115129
 33
0.0
 40
0.0
 40
0.0
 40
0.0
 40
0.0
 40
0.2475001939
 40
1.0
 40
1.0
 40
1.0
 40
1.0
 10
-7.9189316705
 20
-0.7007708101
 30
0.0
 10
-7.9045481078
 20
-0.7097103323
 30
0.0
 10
-7.8488287211
 20
-0.749595338
 30
0.0
 10
-7.8035512964
 20
-0.8037108604
 30
0.0
 10
-7.7780854913
 20
-0.8484624034
 30
0.0
 11
-7.9189316705
 21
-0.7007708101
 31
0.0
 11
-7.8776066262
 21
-0.7303251351
 31
0.0
 11
-7.7780854913
 21
-0.8484624034
 31
0.0
  0
ELLIPSE
  5
602
100
AcDbEntity
  8
0
100
AcDbEllipse
 62
7
  6
CONTINUOUS
 10
-10.6189316705
 20
0.324942579
 30
0.0
 11
1.7974937299
 21
-1.7974937299
 31
0.0
 40
0.8847252646
 41
6.5389251374
 42
6.6703845026
  0
ELLIPSE
  5
603
100
AcDbEntity
  8
DRAFT
100
AcDbEllipse
 62
7
  6
CONTINUOUS
 10
0.6810683295
 20
-19.8940097609
 30
0.0
 11
15.0
 21
-0.0
 31
0.0
 40
0.0087268678
 41
1.4073150204
 42
1.7342776332
  0
ELLIPSE
  5
604
100
AcDbEntity
  8
DRAFT
100
AcDbEllipse
 62
7
  6
CONTINUOUS
 10
0.6810683295
 20
20.4707733128
 30
0.0
 11
15.0
 21
-0.0
 31
0.0
 40
0.0087268678
 41
-1.7342776332
 42
-1.4073150204
  0
ELLIPSE
  5
605
100
AcDbEntity
  8
RACCORDO
100
AcDbEllipse
 62
7
  6
CONTINUOUS
 10
-7.0943353228
 20
-20.911618224
 30
0.0
 11
0.3000456984
 21
0.0
 31
0.0
 40
0.9998476952
 41
1.5707963268
 42
1.5882496193
  0
ELLIPSE
  5
606
100
AcDbEntity
  8
RACCORDO
100
AcDbEllipse
 62
7
  6
CONTINUOUS
 10
11.4810683295
 20
-21.7528780288
 30
0.0
 11
-0.0
 21
-0.3500133274
 31
0.0
 40
0.9999619231
 41
6.2831853072
 42
7.853981634
  0
ELLIPSE
  5
607
100
AcDbEntity
  8
RACCORDO
100
AcDbEllipse
 62
7
  6
CONTINUOUS
 10
11.4810683295
 20
22.3296415807
 30
0.0
 11
-0.0
 21
-0.3500133274
 31
0.0
 40
0.9999619231
 41
7.853981634
 42
9.4247779608
  0
ELLIPSE
  5
608
100
AcDbEntity
  8
RACCORDO
100
AcDbEllipse
 62
7
  6
CONTINUOUS
 10
-10.1189316705
 20
22.3296415807
 30
0.0
 11
0.0
 21
0.3500133274
 31
0.0
 40
0.9999619231
 41
-0.0
 42
1.5707963268
  0
ELLIPSE
  5
609
100
AcDbEntity
  8
RACCORDO
100
AcDbEllipse
 62
7
  6
CONTINUOUS
 10
11.2767049571
 20
24.4340141727
 30
0.0
 11
-0.0
 21
0.25
 31
0.0
 40
0.0058178298
 41
0.0058177642
 42
1.5707963268
  0
ELLIPSE
  5
60A
100
AcDbEntity
  8
RACCORDO
100
AcDbEllipse
 62
7
  6
CONTINUOUS
 10
8.9854317018
 20
24.4340141727
 30
0.0
 11
-0.0
 21
0.25
 31
0.0
 40
0.0058178298
 41
-1.5707963268
 42
-0.0058177642
  0
ELLIPSE
  5
60B
100
AcDbEntity
  8
RACCORDO
100
AcDbEllipse
 62
7
  6
CONTINUOUS
 10
8.9854317018
 20
24.1327193433
 30
0.0
 11
-0.0
 21
0.25
 31
0.0
 40
0.0058178298
 41
-2.617993878
 42
-1.5707963268
  0
ELLIPSE
  5
60C
100
AcDbEntity
  8
RACCORDO
100
AcDbEllipse
 62
7
  6
CONTINUOUS
 10
11.2767049571
 20
24.1327193433
 30
0.0
 11
-0.0
 21
0.25
 31
0.0
 40
0.0058178298
 41
-4.7123889804
 42
-3.6651914292
  0
ELLIPSE
  5
60D
100
AcDbEntity
  8
RACCORDO
100
AcDbEllipse
 62
7
  6
CONTINUOUS
 10
-7.6232950429
 20
24.4340141727
 30
0.0
 11
-0.0
 21
0.25
 31
0.0
 40
0.0058178298
 41
0.0058177642
 42
1.5707963268
  0
ELLIPSE
  5
60E
100
AcDbEntity
  8
RACCORDO
100
AcDbEllipse
 62
7
  6
CONTINUOUS
 10
-9.9145682982
 20
24.4340141727
 30
0.0
 11
-0.0
 21
0.25
 31
0.0
 40
0.0058178298
 41
-1.5707963268
 42
-0.0058177642
  0
ELLIPSE
  5
60F
100
AcDbEntity
  8
RACCORDO
100
AcDbEllipse
 62
7
  6
CONTINUOUS
 10
-9.9145682982
 20
24.1327193433
 30
0.0
 11
-0.0
 21
0.25
 31
0.0
 40
0.0058178298
 41
-2.617993878
 42
-1.5707963268
  0
ELLIPSE
  5
610
100
AcDbEntity
  8
RACCORDO
100
AcDbEllipse
 62
7
  6
CONTINUOUS
 10
-7.6232950429
 20
24.1327193433
 30
0.0
 11
-0.0
 21
0.25
 31
0.0
 40
0.0058178298
 41
-4.7123889804
 42
-3.6651914292
  0
ELLIPSE
  5
611
100
AcDbEntity
  8
RACCORDO
100
AcDbEllipse
 62
7
  6
CONTINUOUS
 10
-9.9145682982
 20
-23.8572506208
 30
0.0
 11
-0.0
 21
0.25
 31
0.0
 40
0.0058178298
 41
-3.1357748894
 42
-1.5707963268
  0
ELLIPSE
  5
612
100
AcDbEntity
  8
RACCORDO
100
AcDbEllipse
 62
7
  6
CONTINUOUS
 10
-7.6232950429
 20
-23.8572506208
 30
0.0
 11
-0.0
 21
0.25
 31
0.0
 40
0.0058178298
 41
1.5707963268
 42
3.1357748894
  0
ELLIPSE
  5
613
100
AcDbEntity
  8
RACCORDO
100
AcDbEllipse
 62
7
  6
CONTINUOUS
 10
-7.6232950429
 20
-23.5559557913
 30
0.0
 11
-0.0
 21
0.25
 31
0.0
 40
0.0058178298
 41
0.5235987756
 42
1.5707963268
  0
ELLIPSE
  5
614
100
AcDbEntity
  8
RACCORDO
100
AcDbEllipse
 62
7
  6
CONTINUOUS
 10
-9.9145682982
 20
-23.5559557913
 30
0.0
 11
-0.0
 21
0.25
 31
0.0
 40
0.0058178298
 41
-1.5707963268
 42
-0.5235987756
  0
ELLIPSE
  5
615
100
AcDbEntity
  8
RACCORDO
100
AcDbEllipse
 62
7
  6
CONTINUOUS
 10
8.9854317018
 20
-23.8572506208
 30
0.0
 11
-0.0
 21
0.25
 31
0.0
 40
0.0058178298
 41
-3.1357748894
 42
-1.5707963268
  0
ELLIPSE
  5
616
100
AcDbEntity
  8
RACCORDO
100
AcDbEllipse
 62
7
  6
CONTINUOUS
 10
11.2767049571
 20
-23.8572506208
 30
0.0
 11
-0.0
 21
0.25
 31
0.0
 40
0.0058178298
 41
1.5707963268
 42
3.1357748894
  0
ELLIPSE
  5
617
100
AcDbEntity
  8
RACCORDO
100
AcDbEllipse
 62
7
  6
CONTINUOUS
 10
11.2767049571
 20
-23.5559557913
 30
0.0
 11
-0.0
 21
0.25
 31
0.0
 40
0.0058178298
 41
0.5235987756
 42
1.5707963268
  0
ELLIPSE
  5
618
100
AcDbEntity
  8
RACCORDO
100
AcDbEllipse
 62
7
  6
CONTINUOUS
 10
8.9854317018
 20
-23.5559557913
 30
0.0
 11
-0.0
 21
0.25
 31
0.0
 40
0.0058178298
 41
-1.5707963268
 42
-0.5235987756
  0
ELLIPSE
  5
619
100
AcDbEntity
  8
RACCORDO
100
AcDbEllipse
 62
7
  6
CONTINUOUS
 10
8.9825227869
 20
23.2666939395
 30
0.0
 11
0.0
 21
0.25
 31
0.0
 40
0.0058178298
 41
0.5235987756
 42
1.5707884454
  0
ELLIPSE
  5
61A
100
AcDbEntity
  8
RACCORDO
100
AcDbEllipse
 62
7
  6
CONTINUOUS
 10
11.279613872
 20
23.2666939395
 30
0.0
 11
0.0
 21
0.25
 31
0.0
 40
0.0058178298
 41
-1.5707884454
 42
-0.5235987756
  0
ELLIPSE
  5
61B
100
AcDbEntity
  8
RACCORDO
100
AcDbEllipse
 62
7
  6
CONTINUOUS
 10
-9.9174772131
 20
23.2666939395
 30
0.0
 11
-0.0
 21
0.25
 31
0.0
 40
0.0058178298
 41
0.5235987756
 42
1.5707884454
  0
ELLIPSE
  5
61C
100
AcDbEntity
  8
RACCORDO
100
AcDbEllipse
 62
7
  6
CONTINUOUS
 10
-7.620386128
 20
23.2666939395
 30
0.0
 11
-0.0
 21
0.25
 31
0.0
 40
0.0058178298
 41
-1.5707884454
 42
-0.5235987756
  0
ELLIPSE
  5
61D
100
AcDbEntity
  8
RACCORDO
100
AcDbEllipse
 62
7
  6
CONTINUOUS
 10
-9.9174772131
 20
-22.6899303876
 30
0.0
 11
0.0
 21
0.25
 31
0.0
 40
0.0058178298
 41
-4.712381099
 42
-3.6651914292
  0
ELLIPSE
  5
61E
100
AcDbEntity
  8
RACCORDO
100
AcDbEllipse
 62
7
  6
CONTINUOUS
 10
-7.620386128
 20
-22.6899303876
 30
0.0
 11
0.0
 21
0.25
 31
0.0
 40
0.0058178298
 41
-2.617993878
 42
-1.5708042081
  0
ELLIPSE
  5
61F
100
AcDbEntity
  8
DRAFT
100
AcDbEllipse
 62
7
  6
CONTINUOUS
 10
9.5586612612
 20
-10.5326180152
 30
0.0
 11
0.0
 21
0.656620454
 31
0.0
 40
0.9999977033
 41
-1.5729395409
 42
-1.4871948644
  0
ELLIPSE
  5
620
100
AcDbEntity
  8
RACCORDO
100
AcDbEllipse
 62
7
  6
CONTINUOUS
 10
8.9825227869
 20
-22.6899303876
 30
0.0
 11
0.0
 21
0.25
 31
0.0
 40
0.0058178298
 41
-4.712381099
 42
-3.6651914292
  0
ELLIPSE
  5
621
100
AcDbEntity
  8
RACCORDO
100
AcDbEllipse
 62
7
  6
CONTINUOUS
 10
11.279613872
 20
-22.6899303876
 30
0.0
 11
-0.0
 21
0.25
 31
0.0
 40
0.0058178298
 41
-2.617993878
 42
-1.5708042081
  0
ELLIPSE
  5
622
100
AcDbEntity
  8
RACCORDO
100
AcDbEllipse
 62
7
  6
CONTINUOUS
 10
-6.4534058931
 20
22.3796434846
 30
0.0
 11
0.2121481894
 21
0.2121481893
 31
0.0
 40
0.9999238505
 41
0.7853600873
 42
1.5707963269
  0
ELLIPSE
  5
623
100
AcDbEntity
  8
RACCORDO
100
AcDbEllipse
 62
7
  6
CONTINUOUS
 10
-7.2688859721
 20
21.488381776
 30
0.0
 11
0.3000456984
 21
-0.0
 31
0.0
 40
0.9998476952
 41
-3.1415926536
 42
-1.5707963268
  0
ELLIPSE
  5
624
100
AcDbEntity
  8
RACCORDO
100
AcDbEllipse
 62
7
  6
CONTINUOUS
 10
-7.0943353228
 20
21.488381776
 30
0.0
 11
-0.3000456984
 21
0.0
 31
0.0
 40
0.9998476952
 41
1.5533430343
 42
1.5707963268
  0
ELLIPSE
  5
625
100
AcDbEntity
  8
RACCORDO
100
AcDbEllipse
 62
7
  6
CONTINUOUS
 10
-7.2688859721
 20
21.5641634057
 30
0.0
 11
0.2121966567
 21
0.2121966568
 31
0.0
 40
0.9996954599
 41
1.5707963268
 42
2.3563467834
  0
ELLIPSE
  5
626
100
AcDbEntity
  8
RACCORDO
100
AcDbEllipse
 62
7
  6
CONTINUOUS
 10
7.8155425521
 20
22.3796434846
 30
0.0
 11
0.2121481894
 21
-0.2121481893
 31
0.0
 40
0.9999238505
 41
1.5707963267
 42
2.3562325663
  0
ELLIPSE
  5
627
100
AcDbEntity
  8
RACCORDO
100
AcDbEllipse
 62
7
  6
CONTINUOUS
 10
8.6310226311
 20
21.488381776
 30
0.0
 11
0.3000456984
 21
0.0
 31
0.0
 40
0.9998476952
 41
-1.5707963268
 42
-0.0
  0
ELLIPSE
  5
628
100
AcDbEntity
  8
RACCORDO
100
AcDbEllipse
 62
7
  6
CONTINUOUS
 10
8.4564719818
 20
21.488381776
 30
0.0
 11
0.3000456984
 21
0.0
 31
0.0
 40
0.9998476952
 41
-1.5707963268
 42
-1.5533430343
  0
ELLIPSE
  5
629
100
AcDbEntity
  8
RACCORDO
100
AcDbEllipse
 62
7
  6
CONTINUOUS
 10
8.6310226311
 20
21.5641634057
 30
0.0
 11
-0.2121966567
 21
0.2121966568
 31
0.0
 40
0.9996954599
 41
-2.3563467834
 42
-1.5707963268
  0
ELLIPSE
  5
62A
100
AcDbEntity
  8
RACCORDO
100
AcDbEllipse
 62
7
  6
CONTINUOUS
 10
-6.4534058931
 20
-21.8028799327
 30
0.0
 11
0.2121481893
 21
-0.2121481893
 31
0.0
 40
0.9999238505
 41
-1.5707963268
 42
-0.7853600872
  0
ELLIPSE
  5
62B
100
AcDbEntity
  8
RACCORDO
100
AcDbEllipse
 62
7
  6
CONTINUOUS
 10
-10.1189316705
 20
-21.7528780288
 30
0.0
 11
0.0
 21
0.3500133274
 31
0.0
 40
0.9999619231
 41
1.5707963268
 42
3.1415926536
  0
ELLIPSE
  5
62C
100
AcDbEntity
  8
RACCORDO
100
AcDbEllipse
 62
7
  6
CONTINUOUS
 10
-7.2688859721
 20
-20.911618224
 30
0.0
 11
0.3000456984
 21
0.0
 31
0.0
 40
0.9998476952
 41
1.5707963268
 42
3.1415926536
  0
ELLIPSE
  5
62D
100
AcDbEntity
  8
RACCORDO
100
AcDbEllipse
 62
7
  6
CONTINUOUS
 10
-7.2688859721
 20
-20.9873998537
 30
0.0
 11
0.2121966567
 21
-0.2121966568
 31
0.0
 40
0.9996954599
 41
-2.3563467834
 42
-1.5707963268
  0
ELLIPSE
  5
62E
100
AcDbEntity
  8
RACCORDO
100
AcDbEllipse
 62
7
  6
CONTINUOUS
 10
4.7362659629
 20
-22.0444213421
 30
0.0
 11
0.3
 21
0.0
 31
0.0
 40
0.0087268678
 41
0.0058177642
 42
1.5707963268
  0
ELLIPSE
  5
62F
100
AcDbEntity
  8
RACCORDO
100
AcDbEllipse
 62
7
  6
CONTINUOUS
 10
4.7362659629
 20
-23.4668209345
 30
0.0
 11
0.3
 21
-0.0
 31
0.0
 40
0.0058178298
 41
0.0058177642
 42
1.5707963268
  0
ELLIPSE
  5
630
100
AcDbEntity
  8
RACCORDO
100
AcDbEllipse
 62
7
  6
CONTINUOUS
 10
-3.1189316705
 20
-22.0444213421
 30
0.0
 11
0.3
 21
0.0
 31
0.0
 40
0.0087268678
 41
-0.0
 42
1.5707963268
  0
ELLIPSE
  5
631
100
AcDbEntity
  8
RACCORDO
100
AcDbEllipse
 62
7
  6
CONTINUOUS
 10
-3.1189316705
 20
-23.4668209345
 30
0.0
 11
0.3
 21
0.0
 31
0.0
 40
0.0058178298
 41
0.0
 42
1.5707963268
  0
ELLIPSE
  5
632
100
AcDbEntity
  8
RACCORDO
100
AcDbEllipse
 62
7
  6
CONTINUOUS
 10
-3.374129304
 20
-23.4668209345
 30
0.0
 11
0.3
 21
0.0
 31
0.0
 40
0.0058178298
 41
1.5707963268
 42
3.1357748894
  0
ELLIPSE
  5
633
100
AcDbEntity
  8
RACCORDO
100
AcDbEllipse
 62
7
  6
CONTINUOUS
 10
-3.374129304
 20
-22.0444213421
 30
0.0
 11
0.3
 21
0.0
 31
0.0
 40
0.0087268678
 41
1.5707963268
 42
3.1357748894
  0
ELLIPSE
  5
634
100
AcDbEntity
  8
RACCORDO
100
AcDbEllipse
 62
7
  6
CONTINUOUS
 10
4.4810683295
 20
-23.4668209345
 30
0.0
 11
0.3
 21
0.0
 31
0.0
 40
0.0058178298
 41
1.5707963268
 42
3.1415926536
  0
ELLIPSE
  5
635
100
AcDbEntity
  8
RACCORDO
100
AcDbEllipse
 62
7
  6
CONTINUOUS
 10
4.4810683295
 20
-22.0444213421
 30
0.0
 11
0.3
 21
0.0
 31
0.0
 40
0.0087268678
 41
1.5707963268
 42
3.1415926536
  0
ELLIPSE
  5
636
100
AcDbEntity
  8
RACCORDO
100
AcDbEllipse
 62
7
  6
CONTINUOUS
 10
4.7362659629
 20
24.0435844864
 30
0.0
 11
0.3
 21
0.0
 31
0.0
 40
0.0058178298
 41
-1.5707963268
 42
-0.0058177642
  0
ELLIPSE
  5
637
100
AcDbEntity
  8
RACCORDO
100
AcDbEllipse
 62
7
  6
CONTINUOUS
 10
4.7362659629
 20
22.621184894
 30
0.0
 11
0.3
 21
0.0
 31
0.0
 40
0.0087268678
 41
-1.5707963268
 42
-0.0058177642
  0
ELLIPSE
  5
638
100
AcDbEntity
  8
RACCORDO
100
AcDbEllipse
 62
7
  6
CONTINUOUS
 10
4.4810683295
 20
22.621184894
 30
0.0
 11
0.3
 21
0.0
 31
0.0
 40
0.0087268678
 41
3.1415926536
 42
4.7123889804
  0
ELLIPSE
  5
639
100
AcDbEntity
  8
RACCORDO
100
AcDbEllipse
 62
7
  6
CONTINUOUS
 10
4.4810683295
 20
24.0435844864
 30
0.0
 11
0.3
 21
-0.0
 31
0.0
 40
0.0058178298
 41
3.1415926536
 42
4.7123889804
  0
ELLIPSE
  5
63A
100
AcDbEntity
  8
RACCORDO
100
AcDbEllipse
 62
7
  6
CONTINUOUS
 10
-3.1189316705
 20
24.0435844864
 30
0.0
 11
0.3
 21
-0.0
 31
0.0
 40
0.0058178298
 41
-1.5707963268
 42
-0.0
  0
ELLIPSE
  5
63B
100
AcDbEntity
  8
RACCORDO
100
AcDbEllipse
 62
7
  6
CONTINUOUS
 10
-3.1189316705
 20
22.621184894
 30
0.0
 11
0.3
 21
0.0
 31
0.0
 40
0.0087268678
 41
-1.5707963268
 42
-0.0
  0
ELLIPSE
  5
63C
100
AcDbEntity
  8
RACCORDO
100
AcDbEllipse
 62
7
  6
CONTINUOUS
 10
-3.374129304
 20
22.621184894
 30
0.0
 11
0.3
 21
-0.0
 31
0.0
 40
0.0087268678
 41
-3.1357748894
 42
-1.5707963268
  0
ELLIPSE
  5
63D
100
AcDbEntity
  8
RACCORDO
100
AcDbEllipse
 62
7
  6
CONTINUOUS
 10
-3.374129304
 20
24.0435844864
 30
0.0
 11
0.3
 21
0.0
 31
0.0
 40
0.0058178298
 41
-3.1357748894
 42
-1.5707963268
  0
ELLIPSE
  5
63E
100
AcDbEntity
  8
RACCORDO
100
AcDbEllipse
 62
7
  6
CONTINUOUS
 10
7.8155425521
 20
-21.8028799327
 30
0.0
 11
0.2121481893
 21
0.2121481893
 31
0.0
 40
0.9999238505
 41
-2.3562325664
 42
-1.5707963268
  0
ELLIPSE
  5
63F
100
AcDbEntity
  8
RACCORDO
100
AcDbEllipse
 62
7
  6
CONTINUOUS
 10
7.681056906
 20
-19.711618224
 30
0.0
 11
0.3000114235
 21
0.0
 31
0.0
 40
0.9999619231
 41
-0.0
 42
1.5707963268
  0
ELLIPSE
  5
640
100
AcDbEntity
  8
RACCORDO
100
AcDbEllipse
 62
7
  6
CONTINUOUS
 10
7.0310683295
 20
-19.7962688416
 30
0.0
 11
0.3
 21
-0.0
 31
0.0
 40
0.0087268678
 41
3.1415926536
 42
4.7123889804
  0
ELLIPSE
  5
641
100
AcDbEntity
  8
RACCORDO
100
AcDbEllipse
 62
7
  6
CONTINUOUS
 10
8.6310226311
 20
-20.9873998537
 30
0.0
 11
0.2121966568
 21
0.2121966568
 31
0.0
 40
0.9996954599
 41
-1.5707963268
 42
-0.7852458701
  0
ELLIPSE
  5
642
100
AcDbEntity
  8
RACCORDO
100
AcDbEllipse
 62
7
  6
CONTINUOUS
 10
-5.6689316705
 20
-19.7962688416
 30
0.0
 11
0.3
 21
-0.0
 31
0.0
 40
0.0087268678
 41
-1.5707963268
 42
0.0
  0
ELLIPSE
  5
643
100
AcDbEntity
  8
RACCORDO
100
AcDbEllipse
 62
7
  6
CONTINUOUS
 10
8.6310226311
 20
-20.911618224
 30
0.0
 11
0.3000456984
 21
0.0
 31
0.0
 40
0.9998476952
 41
-0.0
 42
1.5707963268
  0
ELLIPSE
  5
644
100
AcDbEntity
  8
RACCORDO
100
AcDbEllipse
 62
7
  6
CONTINUOUS
 10
-6.318920247
 20
-19.711618224
 30
0.0
 11
0.3000114235
 21
0.0
 31
0.0
 40
0.9999619231
 41
1.5707963268
 42
3.1415926536
  0
ELLIPSE
  5
645
100
AcDbEntity
  8
RACCORDO
100
AcDbEllipse
 62
7
  6
CONTINUOUS
 10
8.4564719818
 20
-20.911618224
 30
0.0
 11
0.3000456984
 21
-0.0
 31
0.0
 40
0.9998476952
 41
1.5533430343
 42
1.5707963268
  0
ELLIPSE
  5
646
100
AcDbEntity
  8
RACCORDO
100
AcDbEllipse
 62
7
  6
CONTINUOUS
 10
7.0310683295
 20
20.3730323935
 30
0.0
 11
0.3
 21
0.0
 31
0.0
 40
0.0087268678
 41
1.5707963268
 42
3.1415926536
  0
ELLIPSE
  5
647
100
AcDbEntity
  8
RACCORDO
100
AcDbEllipse
 62
7
  6
CONTINUOUS
 10
7.681056906
 20
20.288381776
 30
0.0
 11
0.3000114235
 21
-0.0
 31
0.0
 40
0.9999619231
 41
-1.5707963268
 42
0.0
  0
ELLIPSE
  5
648
100
AcDbEntity
  8
RACCORDO
100
AcDbEllipse
 62
7
  6
CONTINUOUS
 10
-6.318920247
 20
20.288381776
 30
0.0
 11
0.3000114235
 21
0.0
 31
0.0
 40
0.9999619231
 41
3.1415926536
 42
4.7123889804
  0
ELLIPSE
  5
649
100
AcDbEntity
  8
RACCORDO
100
AcDbEllipse
 62
7
  6
CONTINUOUS
 10
-5.6689316705
 20
20.3730323935
 30
0.0
 11
0.3
 21
-0.0
 31
0.0
 40
0.0087268678
 41
-0.0
 42
1.5707963268
  0
ELLIPSE
  5
64A
100
AcDbEntity
  8
DRAFT
100
AcDbEllipse
 62
7
  6
CONTINUOUS
 10
5.9310683295
 20
-17.7828533029
 30
0.0
 11
2.75839524
 21
-0.0
 31
0.0
 40
0.0058178298
 41
0.0
 42
3.1415926536
  0
ELLIPSE
  5
64B
100
AcDbEntity
  8
RACCORDO
100
AcDbEllipse
 62
7
  6
CONTINUOUS
 10
9.8307636734
 20
-17.3830649066
 30
0.0
 11
1.8480888181
 21
-0.7655034529
 31
0.0
 40
0.9998215708
 41
-0.3926359958
 42
0.3926359958
  0
ELLIPSE
  5
64C
100
AcDbEntity
  8
RACCORDO
100
AcDbEllipse
 62
7
  6
CONTINUOUS
 10
9.8307636734
 20
17.9598284585
 30
0.0
 11
1.8480888181
 21
0.7655034529
 31
0.0
 40
0.9998215708
 41
-0.3926359958
 42
0.3926359958
  0
ELLIPSE
  5
64D
100
AcDbEntity
  8
RACCORDO
100
AcDbEllipse
 62
7
  6
CONTINUOUS
 10
-8.4686270144
 20
17.9598284585
 30
0.0
 11
1.8480888181
 21
-0.7655034529
 31
0.0
 40
0.9998215708
 41
2.7489566578
 42
3.5342286494
  0
ELLIPSE
  5
64E
100
AcDbEntity
  8
RACCORDO
100
AcDbEllipse
 62
7
  6
CONTINUOUS
 10
-8.4686270144
 20
-17.3830649066
 30
0.0
 11
1.8480888181
 21
0.7655034529
 31
0.0
 40
0.9998215708
 41
2.7489566578
 42
3.5342286494
  0
ELLIPSE
  5
64F
100
AcDbEntity
  8
DRAFT
100
AcDbEllipse
 62
7
  6
CONTINUOUS
 10
-4.5689316705
 20
-7.7019769035
 30
0.0
 11
2.75
 21
0.0
 31
0.0
 40
0.0087268678
 41
-3.1328660073
 42
-0.0087266463
  0
ELLIPSE
  5
650
100
AcDbEntity
  8
DRAFT
100
AcDbEllipse
 62
7
  6
CONTINUOUS
 10
5.9310683295
 20
-17.8017618159
 30
0.0
 11
2.75
 21
-0.0
 31
0.0
 40
0.0087268678
 41
-3.1328660073
 42
-0.0087266463
  0
ELLIPSE
  5
651
100
AcDbEntity
  8
RACCORDO
100
AcDbEllipse
 62
7
  6
CONTINUOUS
 10
10.3642991347
 20
14.3028432403
 30
0.0
 11
-0.0
 21
0.4
 31
0.0
 40
0.0174550649
 41
-1.5707963268
 42
-0.0087266463
  0
ELLIPSE
  5
652
100
AcDbEntity
  8
RACCORDO
100
AcDbEllipse
 62
7
  6
CONTINUOUS
 10
10.3642991347
 20
14.2739203117
 30
0.0
 11
0.0
 21
0.4
 31
0.0
 40
0.0174550649
 41
-3.1328660073
 42
-1.5707963268
  0
ELLIPSE
  5
653
100
AcDbEntity
  8
RACCORDO
100
AcDbEllipse
 62
7
  6
CONTINUOUS
 10
5.6964177119
 20
9.3725048755
 30
0.0
 11
0.0
 21
0.5
 31
0.0
 40
0.0087268678
 41
0.0057595865
 42
1.5707963268
  0
ELLIPSE
  5
654
100
AcDbEntity
  8
RACCORDO
100
AcDbEllipse
 62
7
  6
CONTINUOUS
 10
4.865718947
 20
9.3725048755
 30
0.0
 11
-0.0
 21
0.5
 31
0.0
 40
0.0087268678
 41
-1.5707963268
 42
-0.0057595865
  0
ELLIPSE
  5
655
100
AcDbEntity
  8
RACCORDO
100
AcDbEllipse
 62
7
  6
CONTINUOUS
 10
3.0810683295
 20
-19.6136751281
 30
0.0
 11
1.0
 21
-0.0
 31
0.0
 40
0.0176699529
 41
0.1166713885
 42
1.5707963268
  0
ELLIPSE
  5
656
100
AcDbEntity
  8
RACCORDO
100
AcDbEllipse
 62
7
  6
CONTINUOUS
 10
-1.7189316705
 20
-19.6136751281
 30
0.0
 11
1.0
 21
-0.0
 31
0.0
 40
0.0176699529
 41
1.5707963268
 42
3.0249212651
  0
ELLIPSE
  5
657
100
AcDbEntity
  8
RACCORDO
100
AcDbEllipse
 62
7
  6
CONTINUOUS
 10
3.0810683295
 20
20.19043868
 30
0.0
 11
1.0
 21
-0.0
 31
0.0
 40
0.0176699529
 41
-1.5707963268
 42
-0.1166713885
  0
ELLIPSE
  5
658
100
AcDbEntity
  8
RACCORDO
100
AcDbEllipse
 62
7
  6
CONTINUOUS
 10
-1.7189316705
 20
20.19043868
 30
0.0
 11
1.0
 21
-0.0
 31
0.0
 40
0.0176699529
 41
-3.0249212651
 42
-1.5707963268
  0
ELLIPSE
  5
659
100
AcDbEntity
  8
RACCORDO
100
AcDbEllipse
 62
7
  6
CONTINUOUS
 10
9.3830029118
 20
14.0903163583
 30
0.0
 11
0.232996159
 21
0.0977033526
 31
0.0
 40
0.9877345005
 41
2.74891261
 42
4.3196327844
  0
ELLIPSE
  5
65A
100
AcDbEntity
  8
RACCORDO
100
AcDbEllipse
 62
7
  6
CONTINUOUS
 10
5.5310588099
 20
10.2383722564
 30
0.0
 11
0.1767901578
 21
0.1767901578
 31
0.0
 40
0.9999238505
 41
-0.7853600872
 42
0.7853600872
  0
ELLIPSE
  5
65B
100
AcDbEntity
  8
RACCORDO
100
AcDbEllipse
 62
7
  6
CONTINUOUS
 10
5.0310778491
 20
10.2383722564
 30
0.0
 11
0.1767901578
 21
-0.1767901578
 31
0.0
 40
0.9999238505
 41
2.3562325664
 42
3.9269527408
  0
ELLIPSE
  5
65C
100
AcDbEntity
  8
RACCORDO
100
AcDbEllipse
 62
7
  6
CONTINUOUS
 10
9.3830029118
 20
14.4864471936
 30
0.0
 11
0.232996159
 21
-0.0977033526
 31
0.0
 40
0.9877345005
 41
1.9635525228
 42
3.5342726972
  0
ELLIPSE
  5
65D
100
AcDbEntity
  8
RACCORDO
100
AcDbEllipse
 62
7
  6
CONTINUOUS
 10
1.2310588099
 20
14.0383912956
 30
0.0
 11
-0.1767901578
 21
0.1767901578
 31
0.0
 40
0.9999238505
 41
-3.9269527407
 42
-2.3562325663
  0
ELLIPSE
  5
65E
100
AcDbEntity
  8
RACCORDO
100
AcDbEllipse
 62
7
  6
CONTINUOUS
 10
1.2310588099
 20
14.5383722564
 30
0.0
 11
0.1767901578
 21
0.1767901578
 31
0.0
 40
0.9999238505
 41
-0.7853600872
 42
0.7853600872
  0
ELLIPSE
  5
65F
100
AcDbEntity
  8
RACCORDO
100
AcDbEllipse
 62
7
  6
CONTINUOUS
 10
-1.7750416173
 20
-8.0789209609
 30
0.0
 11
0.0001523164
 21
1.0
 31
0.0
 40
0.0087255384
 41
-1.6456014576
 42
-1.5707949978
  0
ELLIPSE
  5
660
100
AcDbEntity
  8
RACCORDO
100
AcDbEllipse
 62
7
  6
CONTINUOUS
 10
-1.8215507478
 20
-8.0789209609
 30
0.0
 11
-0.5773670611
 21
0.9999863041
 31
0.0
 40
0.0090647851
 41
-3.1293730933
 42
-1.6508365189
  0
ELLIPSE
  5
661
100
AcDbEntity
  8
RACCORDO
100
AcDbEllipse
 62
7
  6
CONTINUOUS
 10
-7.3163125932
 20
-8.0789209609
 30
0.0
 11
0.5773670611
 21
0.9999863041
 31
0.0
 40
0.0090647851
 41
-4.6323487883
 42
-3.1538122139
  0
ELLIPSE
  5
662
100
AcDbEntity
  8
RACCORDO
100
AcDbEllipse
 62
7
  6
CONTINUOUS
 10
-7.3628217237
 20
-8.0789209609
 30
0.0
 11
-0.0001523164
 21
1.0
 31
0.0
 40
0.0087255384
 41
1.5707949978
 42
1.6456014576
  0
ELLIPSE
  5
663
100
AcDbEntity
  8
RACCORDO
100
AcDbEllipse
 62
7
  6
CONTINUOUS
 10
9.6931633344
 20
18.0883734826
 30
0.0
 11
0.4748987463
 21
0.1567024058
 31
0.0
 40
0.9998311164
 41
-0.318670377
 42
1.2520254317
  0
ELLIPSE
  5
664
100
AcDbEntity
  8
RACCORDO
100
AcDbEllipse
 62
7
  6
CONTINUOUS
 10
9.6931633344
 20
10.4283900693
 30
0.0
 11
-0.4748987463
 21
0.1567024058
 31
0.0
 40
0.9998311164
 41
1.8895672219
 42
3.4602630306
  0
ELLIPSE
  5
665
100
AcDbEntity
  8
RACCORDO
100
AcDbEllipse
 62
7
  6
CONTINUOUS
 10
1.4510766228
 20
10.4283900693
 30
0.0
 11
0.353565119
 21
0.353565119
 31
0.0
 40
0.9999668281
 41
2.3562110764
 42
3.9269742308
  0
ELLIPSE
  5
666
100
AcDbEntity
  8
RACCORDO
100
AcDbEllipse
 62
7
  6
CONTINUOUS
 10
1.3923281906
 20
-4.4317548913
 30
0.0
 11
0.1567024058
 21
0.4748987463
 31
0.0
 40
0.9998311164
 41
1.8895672219
 42
3.4602630306
  0
ELLIPSE
  5
667
100
AcDbEntity
  8
RACCORDO
100
AcDbEllipse
 62
7
  6
CONTINUOUS
 10
1.3330037933
 20
-4.61154206
 30
0.0
 11
0.1567024058
 21
0.4748987463
 31
0.0
 40
0.9998311164
 41
-4.3936180852
 42
-2.8229222765
  0
ELLIPSE
  5
668
100
AcDbEntity
  8
RACCORDO
100
AcDbEllipse
 62
7
  6
CONTINUOUS
 10
1.3330037933
 20
18.2064463121
 30
0.0
 11
0.353565119
 21
-0.353565119
 31
0.0
 40
0.9999668281
 41
2.3562110764
 42
3.9269742307
  0
ELLIPSE
  5
669
100
AcDbEntity
  8
RACCORDO
100
AcDbEllipse
 62
7
  6
CONTINUOUS
 10
1.4510766228
 20
18.0883734826
 30
0.0
 11
-0.353565119
 21
0.353565119
 31
0.0
 40
0.9999668281
 41
-0.7853815772
 42
0.7853815772
  0
ELLIPSE
  5
66A
100
AcDbEntity
  8
RACCORDO
100
AcDbEllipse
 62
7
  6
CONTINUOUS
 10
9.8712049967
 20
-4.4317548913
 30
0.0
 11
-0.3536610946
 21
0.3536610946
 31
0.0
 40
0.9996954599
 41
2.3563467834
 42
3.9268385237
  0
ELLIPSE
  5
66B
100
AcDbEntity
  8
RACCORDO
100
AcDbEllipse
 62
7
  6
CONTINUOUS
 10
10.0509921655
 20
-4.61154206
 30
0.0
 11
0.3536610946
 21
-0.3536610946
 31
0.0
 40
0.9996954599
 41
-0.7852458701
 42
0.1875048594
  0
ELLIPSE
  5
66C
100
AcDbEntity
  8
RACCORDO
100
AcDbEllipse
 62
7
  6
CONTINUOUS
 10
5.0310778491
 20
18.3383912956
 30
0.0
 11
0.1767901578
 21
0.1767901578
 31
0.0
 40
0.9999238505
 41
-3.9269527408
 42
-2.3562325665
  0
ELLIPSE
  5
66D
100
AcDbEntity
  8
RACCORDO
100
AcDbEllipse
 62
7
  6
CONTINUOUS
 10
5.5310588099
 20
18.3383912956
 30
0.0
 11
-0.1767901578
 21
0.1767901578
 31
0.0
 40
0.9999238505
 41
-3.9269527408
 42
-2.3562325664
  0
ELLIPSE
  5
66E
100
AcDbEntity
  8
RACCORDO
100
AcDbEllipse
 62
7
  6
CONTINUOUS
 10
9.9859371828
 20
18.7006949552
 30
0.0
 11
1.414225291
 21
-0.0000234575
 31
0.0
 40
0.0040726202
 41
1.5247596455
 42
1.5748690596
  0
ELLIPSE
  5
66F
100
AcDbEntity
  8
RACCORDO
100
AcDbEllipse
 62
7
  6
CONTINUOUS
 10
1.1755954382
 20
14.0938546672
 30
0.0
 11
0.2330176564
 21
-0.0977124127
 31
0.0
 40
0.9876276632
 41
-0.9563944539
 42
0.3926419674
  0
ELLIPSE
  5
670
100
AcDbEntity
  8
RACCORDO
100
AcDbEllipse
 62
7
  6
CONTINUOUS
 10
1.1755954382
 20
14.4829088847
 30
0.0
 11
0.2330176564
 21
0.0977124127
 31
0.0
 40
0.9876276632
 41
-0.3926419674
 42
0.9563944539
  0
ELLIPSE
  5
671
100
AcDbEntity
  8
RACCORDO
100
AcDbEllipse
 62
7
  6
CONTINUOUS
 10
5.4755954382
 20
10.1829088847
 30
0.0
 11
0.0977124127
 21
0.2330176564
 31
0.0
 40
0.9876276632
 41
-0.9563944539
 42
0.3926419674
  0
ELLIPSE
  5
672
100
AcDbEntity
  8
RACCORDO
100
AcDbEllipse
 62
7
  6
CONTINUOUS
 10
5.0865412207
 20
10.1829088847
 30
0.0
 11
-0.0977124127
 21
0.2330176564
 31
0.0
 40
0.9876276632
 41
-0.3926419674
 42
0.9563944539
  0
ELLIPSE
  5
673
100
AcDbEntity
  8
RACCORDO
100
AcDbEllipse
 62
7
  6
CONTINUOUS
 10
5.0865412207
 20
18.3938546672
 30
0.0
 11
0.0977124127
 21
0.2330176564
 31
0.0
 40
0.9876276632
 41
-4.0979871075
 42
-2.7489506862
  0
ELLIPSE
  5
674
100
AcDbEntity
  8
RACCORDO
100
AcDbEllipse
 62
7
  6
CONTINUOUS
 10
5.4755954382
 20
18.3938546672
 30
0.0
 11
-0.0977124127
 21
0.2330176564
 31
0.0
 40
0.9876276632
 41
-3.534234621
 42
-2.1851981996
  0
ELLIPSE
  5
675
100
AcDbEntity
  8
RACCORDO
100
AcDbEllipse
 62
7
  6
CONTINUOUS
 10
4.865718947
 20
9.6836913863
 30
0.0
 11
-0.0
 21
0.5
 31
0.0
 40
0.0087268678
 41
-1.5707963268
 42
-0.35670859
  0
ELLIPSE
  5
676
100
AcDbEntity
  8
RACCORDO
100
AcDbEllipse
 62
7
  6
CONTINUOUS
 10
5.6964177119
 20
9.6836913863
 30
0.0
 11
0.0
 21
0.5
 31
0.0
 40
0.0087268678
 41
0.35670859
 42
1.5707963268
  0
ELLIPSE
  5
677
100
AcDbEntity
  8
RACCORDO
100
AcDbEllipse
 62
7
  6
CONTINUOUS
 10
0.7753564925
 20
14.7027059033
 30
0.0
 11
0.4
 21
0.0
 31
0.0
 40
0.0087268678
 41
-1.2740518649
 42
-0.3982807743
  0
ELLIPSE
  5
678
100
AcDbEntity
  8
RACCORDO
100
AcDbEllipse
 62
7
  6
CONTINUOUS
 10
0.7753564925
 20
13.8740576486
 30
0.0
 11
0.4
 21
0.0
 31
0.0
 40
0.0087268678
 41
0.3982807743
 42
1.2740518649
  0
ELLIPSE
  5
679
100
AcDbEntity
  8
RACCORDO
100
AcDbEllipse
 62
7
  6
CONTINUOUS
 10
9.3310778491
 20
14.0383912956
 30
0.0
 11
0.1767901578
 21
0.1767901578
 31
0.0
 40
0.9999238505
 41
2.3562325665
 42
3.9269527408
  0
ELLIPSE
  5
67A
100
AcDbEntity
  8
RACCORDO
100
AcDbEllipse
 62
7
  6
CONTINUOUS
 10
5.6953005642
 20
18.7941855055
 30
0.0
 11
-0.0
 21
0.4
 31
0.0
 40
0.0087268678
 41
-4.3359208469
 42
-3.5398734279
  0
ELLIPSE
  5
67B
100
AcDbEntity
  8
RACCORDO
100
AcDbEllipse
 62
7
  6
CONTINUOUS
 10
4.8668360947
 20
18.7941855055
 30
0.0
 11
0.0
 21
0.4
 31
0.0
 40
0.0087268678
 41
-2.7433118793
 42
-1.9472644603
  0
ELLIPSE
  5
67C
100
AcDbEntity
  8
0
100
AcDbEllipse
 62
7
  6
CONTINUOUS
 10
3.137329275
 20
-18.1304393507
 30
0.0
 11
0.0
 21
1.0
 31
0.0
 40
0.0087268678
 41
1.5707963268
 42
1.6942452309
  0
ELLIPSE
  5
67D
100
AcDbEntity
  8
RACCORDO
100
AcDbEllipse
 62
7
  6
CONTINUOUS
 10
9.3310778491
 20
14.5383722564
 30
0.0
 11
-0.1767901578
 21
0.1767901578
 31
0.0
 40
0.9999238505
 41
-0.7853600872
 42
0.7853600871
  0
ELLIPSE
  5
67E
100
AcDbEntity
  8
0
100
AcDbEllipse
 62
7
  6
CONTINUOUS
 10
8.724807384
 20
-18.1304393507
 30
0.0
 11
-0.0
 21
1.0
 31
0.0
 40
0.0087268678
 41
-1.6942452309
 42
-1.5707963268
  0
ELLIPSE
  5
67F
100
AcDbEntity
  8
RACCORDO
100
AcDbEllipse
 62
7
  6
CONTINUOUS
 10
5.4760795428
 20
10.1833929893
 30
0.0
 11
0.1767901578
 21
0.1767901578
 31
0.0
 40
0.9999238505
 41
-0.6651961376
 42
-0.5636763341
  0
ELLIPSE
  5
680
100
AcDbEntity
  8
RACCORDO
100
AcDbEllipse
 62
7
  6
CONTINUOUS
 10
5.0860571162
 20
10.1833929893
 30
0.0
 11
-0.1767901578
 21
0.1767901578
 31
0.0
 40
0.9999238505
 41
0.5636763341
 42
0.6651961376
  0
ELLIPSE
  5
681
100
AcDbEntity
  8
RACCORDO
100
AcDbEllipse
 62
7
  6
CONTINUOUS
 10
1.1760795428
 20
14.0933705626
 30
0.0
 11
0.1767901578
 21
-0.1767901578
 31
0.0
 40
0.9999238505
 41
-0.6651961376
 42
-0.5636763341
  0
ELLIPSE
  5
682
100
AcDbEntity
  8
RACCORDO
100
AcDbEllipse
 62
7
  6
CONTINUOUS
 10
1.1760795428
 20
14.4833929893
 30
0.0
 11
0.1767901578
 21
0.1767901578
 31
0.0
 40
0.9999238505
 41
0.5636763341
 42
0.6651961376
  0
ELLIPSE
  5
683
100
AcDbEntity
  8
RACCORDO
100
AcDbEllipse
 62
7
  6
CONTINUOUS
 10
5.4760795428
 20
18.3933705626
 30
0.0
 11
0.1767901578
 21
-0.1767901578
 31
0.0
 40
0.9999238505
 41
0.5636763341
 42
0.6651961376
  0
ELLIPSE
  5
684
100
AcDbEntity
  8
RACCORDO
100
AcDbEllipse
 62
7
  6
CONTINUOUS
 10
5.0860571162
 20
18.3933705626
 30
0.0
 11
-0.1767901578
 21
-0.1767901578
 31
0.0
 40
0.9999238505
 41
-0.6651961376
 42
-0.5636763341
  0
ENDSEC
  0
SECTION
  2
OBJECTS
  0
DICTIONARY
  5
C
100
AcDbDictionary
280
0
281
1
  3
ACAD_GROUP
350
D
  3
ACAD_MLINESTYLE
350
17
  3
ACAD_LAYOUT
350
1A
  3
ACAD_PLOTSETTINGS
350
19
  3
ACAD_PLOTSTYLENAME
350
E
  0
DICTIONARY
  5
D
102
{ACAD_REACTORS
330
C
102
}
100
AcDbDictionary
280
0
281
1
  0
ACDBDICTIONARYWDFLT
  5
E
102
{ACAD_REACTORS
330
C
102
}
100
AcDbDictionary
281
1
  3
Normal
350
F
100
AcDbDictionaryWithDefault
340
F
  0
DICTIONARY
  5
17
102
{ACAD_REACTORS
330
C
102
}
100
AcDbDictionary
280
0
281
1
  3
Standard
350
18
  0
DICTIONARY
  5
19
102
{ACAD_REACTORS
330
C
102
}
100
AcDbDictionary
281
1
  0
DICTIONARY
  5
1A
102
{ACAD_REACTORS
330
C
102
}
100
AcDbDictionary
281
1
  3
Model
350
685
  3
Layout1
350
686
  0
ACDBPLACEHOLDER
  5
F
102
{ACAD_REACTORS
330
E
102
}
  0
MLINESTYLE
  5
18
102
{ACAD_REACTORS
330
17
102
}
100
AcDbMlineStyle
  2
STANDARD
 70
0
  3

 62
256
 51
90.0
 52
90.0
 71
2
 49
0.5
 62
256
  6
BYLAYER
 49
-0.5
 62
256
  6
BYLAYER
  0
LAYOUT
  5
685
102
{ACAD_REACTORS
330
1A
102
}
100
AcDbPlotSettings
  1

  2
none_device
  4
ISO_A4_(297.00_x_210.00_MM)
  6

 40
0.0
 41
0.0
 42
0.0
 43
0.0
 44
297.0
 45
210.0
 46
0.0
 47
0.0
 48
0.0
 49
0.0
140
0.0
141
0.0
142
1.0
143
1.0
 70
1024
 72
1
 73
0
 74
0
  7

 75
0
147
1.0
148
0.0
149
0.0
100
AcDbLayout
  1
Model
 70
0
 71
0
 10
0.0
 20
0.0
 11
297.0
 21
210.0
 12
0.0
 22
0.0
 32
0.0
 14
0.0
 24
0.0
 34
0.0
 15
0.0
 25
0.0
 35
0.0
146
0.0
 13
0.0
 23
0.0
 33
0.0
 16
1.0
 26
0.0
 36
0.0
 17
0.0
 27
1.0
 37
0.0
 76
0
330
219
345
0
346
0
  0
LAYOUT
  5
686
102
{ACAD_REACTORS
330
1A
102
}
100
AcDbPlotSettings
  1

  2
none_device
  4
ISO_A4_(297.00_x_210.00_MM)
  6

 40
0.0
 41
0.0
 42
0.0
 43
0.0
 44
297.0
 45
210.0
 46
0.0
 47
0.0
 48
0.0
 49
0.0
140
0.0
141
0.0
142
1.0
143
1.0
 70
0
 72
1
 73
0
 74
0
  7

 75
0
147
1.0
148
0.0
149
0.0
100
AcDbLayout
  1
Layout1
 70
0
 71
1
 10
0.0
 20
0.0
 11
297.0
 21
210.0
 12
0.0
 22
0.0
 32
0.0
 14
0.0
 24
0.0
 34
0.0
 15
0.0
 25
0.0
 35
0.0
146
0.0
 13
0.0
 23
0.0
 33
0.0
 16
1.0
 26
0.0
 36
0.0
 17
0.0
 27
1.0
 37
0.0
 76
0
330
21A
345
0
346
0
  0
ENDSEC
  0
EOF
