  0
SECTION
  2
HEADER
  9
$ACADVER
  1
AC1015
  9
$DWGCODEPAGE
  3
ANSI_1252
  9
$EXTMAX
 10
297.0
 20
210.0
 30
0.0
  9
$EXTMIN
 10
0.0
 20
0.0
 30
0.0
  9
$LIMMIN
 10
0.0
 20
0.0
  9
$LIMMAX
 10
297.0
 20
210.0
  9
$VIEWCTR
 10
148.5
 20
105.0
  9
$VIEWSIZE
 40
210.0
  9
$CLAYER
  8
0
  9
$LTSCALE
 40
16.335
  9
$CELTYPE
  6
BYLAYER
  9
$DIMSCALE
 40
1.0
  9
$DIMASZ
 40
3.0
  9
$DIMEXO
 40
0.5
  9
$DIMDLI
 40
11.286
  9
$DIMEXE
 40
1.5
  9
$DIMCEN
 40
2.673
  9
$DIMLFAC
 40
1.0
  9
$DIMBLK
  1
_FILLED
  9
$DIMTXT
 40
3.0
  9
$DIMTOL
 70
1
  9
$DIMLIM
 70
0
  9
$DIMTFAC
 40
1.0
  9
$DIMTP
 40
0.01
  9
$DIMTM
 40
0.01
  9
$DIMGAP
 40
0.625
  9
$DIMDSEP
 70
44
  9
$PDMODE
 70
3
  9
$PDSIZE
 40
3.0
  9
$HANDSEED
  5
8C4
  9
$TILEMODE
 70
1
  9
$MEASUREMENT
 70
1
  9
$INSUNITS
 70
4
  0
ENDSEC
  0
SECTION
  2
CLASSES
  0
CLASS
  1
ACDBDICTIONARYWDFLT
  2
AcDbDictionaryWithDefault
  3
AutoCAD 2000
 90
0
280
0
281
0
  0
CLASS
  1
ACDBPLACEHOLDER
  2
AcDbPlaceHolder
  3
AutoCAD 2000
 90
0
280
0
281
0
  0
CLASS
  1
LAYOUT
  2
AcDbLayout
  3
AutoCAD 2000
 90
0
280
0
281
0
  0
ENDSEC
  0
SECTION
  2
TABLES
  0
TABLE
  2
VPORT
  5
8
100
AcDbSymbolTable
 70
2
  0
VPORT
  5
1F4
100
AcDbSymbolTableRecord
100
AcDbViewportTableRecord
  2
*ACTIVE
 70
0
 10
0.0
 20
0.0
 11
1.0
 21
1.0
 12
148.5
 22
105.0
 13
0.0
 23
0.0
 14
1.0
 24
1.0
 15
0.0
 25
0.0
 16
0.0
 26
0.0
 36
1.0
 17
0.0
 27
0.0
 37
0.0
 40
210.0
 41
1.4142857143
 42
50.0
 43
0.0
 44
0.0
 50
0.0
 51
0.0
 71
0
 72
100
 73
1
 74
1
 75
0
 76
0
 77
0
 78
0
  0
ENDTAB
  0
TABLE
  2
LTYPE
  5
5
100
AcDbSymbolTable
 70
6
  0
LTYPE
  5
14
100
AcDbSymbolTableRecord
100
AcDbLinetypeTableRecord
  2
BYBLOCK
 70
0
  3

 72
65
 73
0
 40
0.0
  0
LTYPE
  5
15
100
AcDbSymbolTableRecord
100
AcDbLinetypeTableRecord
  2
BYLAYER
 70
0
  3

 72
65
 73
0
 40
0.0
  0
LTYPE
  5
16
100
AcDbSymbolTableRecord
100
AcDbLinetypeTableRecord
  2
CONTINUOUS
 70
64
  3
Solid line
 72
65
 73
0
 40
0.0
  0
LTYPE
  5
1F5
100
AcDbSymbolTableRecord
100
AcDbLinetypeTableRecord
  2
CENTER
 70
64
  3
____ _ ____ _ ____ _ ____ _ ____ _ ____ _ ____
 72
65
 73
4
 40
0.6
 49
0.375
 74
0
 49
-0.075
 74
0
 49
0.075
 74
0
 49
-0.075
 74
0
  0
LTYPE
  5
1F6
100
AcDbSymbolTableRecord
100
AcDbLinetypeTableRecord
  2
HIDDEN
 70
64
  3
- - - - - - - - - - - - - - - - - - - -
 72
65
 73
2
 40
0.2
 49
0.1
 74
0
 49
-0.1
 74
0
  0
LTYPE
  5
1F7
100
AcDbSymbolTableRecord
100
AcDbLinetypeTableRecord
  2
PHANTOM
 70
64
  3
_____ _ _ _____ _ _ _____ _ _ _____
 72
65
 73
6
 40
0.8
 49
0.45
 74
0
 49
-0.05
 74
0
 49
0.1
 74
0
 49
-0.05
 74
0
 49
0.1
 74
0
 49
-0.05
 74
0
  0
LTYPE
  5
1F8
100
AcDbSymbolTableRecord
100
AcDbLinetypeTableRecord
  2
DOT
 70
64
  3
. . . . . . . . . . . . . . . . . . . .
 72
65
 73
2
 40
0.2
 49
0.1
 74
0
 49
-0.1
 74
0
  0
LTYPE
  5
1F9
100
AcDbSymbolTableRecord
100
AcDbLinetypeTableRecord
  2
DASHED
 70
64
  3
- - - - - - - - - - - - - - - - - - - -
 72
65
 73
2
 40
0.2
 49
0.1
 74
0
 49
-0.1
 74
0
  0
ENDTAB
  0
TABLE
  2
LAYER
  5
2
100
AcDbSymbolTable
 70
36
  0
LAYER
  5
10
100
AcDbSymbolTableRecord
100
AcDbLayerTableRecord
  2
0
 70
0
 62
7
  6
CONTINUOUS
370
-3
390
F
  0
LAYER
  5
1FA
100
AcDbSymbolTableRecord
100
AcDbLayerTableRecord
  2
DEFAULT_1
 70
0
 62
7
  6
CENTER
370
-3
390
F
  0
LAYER
  5
1FB
100
AcDbSymbolTableRecord
100
AcDbLayerTableRecord
  2
DEFAULT_2
 70
0
 62
7
  6
HIDDEN
370
-3
390
F
  0
LAYER
  5
1FC
100
AcDbSymbolTableRecord
100
AcDbLayerTableRecord
  2
DEFAULT_3
 70
0
 62
7
  6
PHANTOM
370
-3
390
F
  0
LAYER
  5
1FD
100
AcDbSymbolTableRecord
100
AcDbLayerTableRecord
  2
200A_170000__200A_170000_45
 70
0
 62
7
  6
CONTINUOUS
370
-3
390
F
  0
LAYER
  5
1FE
100
AcDbSymbolTableRecord
100
AcDbLayerTableRecord
  2
200A_170000__200A_170000_45_1
 70
0
 62
7
  6
CONTINUOUS
370
-3
390
F
  0
LAYER
  5
1FF
100
AcDbSymbolTableRecord
100
AcDbLayerTableRecord
  2
200A_170000__200A_170000_45_2
 70
0
 62
7
  6
CONTINUOUS
370
-3
390
F
  0
LAYER
  5
200
100
AcDbSymbolTableRecord
100
AcDbLayerTableRecord
  2
200A_170000__200A_170000_45_3
 70
0
 62
7
  6
CONTINUOUS
370
-3
390
F
  0
LAYER
  5
201
100
AcDbSymbolTableRecord
100
AcDbLayerTableRecord
  2
2125-CC-RF-VIMAR_65000__2125-CC
 70
0
 62
7
  6
CONTINUOUS
370
-3
390
F
  0
LAYER
  5
202
100
AcDbSymbolTableRecord
100
AcDbLayerTableRecord
  2
2125-CC-RF-VIMAR_65000__2125-_1
 70
0
 62
7
  6
CONTINUOUS
370
-3
390
F
  0
LAYER
  5
203
100
AcDbSymbolTableRecord
100
AcDbLayerTableRecord
  2
2125-DL-RF-FINE_VIMAR_110000__1
 70
0
 62
7
  6
CONTINUOUS
370
-3
390
F
  0
LAYER
  5
204
100
AcDbSymbolTableRecord
100
AcDbLayerTableRecord
  2
2125-DL-RF-FINE_VIMAR_110000__2
 70
0
 62
7
  6
CONTINUOUS
370
-3
390
F
  0
LAYER
  5
205
100
AcDbSymbolTableRecord
100
AcDbLayerTableRecord
  2
2125-R1-RF-VIMAR_60000__2125-R1
 70
0
 62
7
  6
CONTINUOUS
370
-3
390
F
  0
LAYER
  5
206
100
AcDbSymbolTableRecord
100
AcDbLayerTableRecord
  2
2125-R1-RF-VIMAR_60000__2125-_1
 70
0
 62
7
  6
CONTINUOUS
370
-3
390
F
  0
LAYER
  5
207
100
AcDbSymbolTableRecord
100
AcDbLayerTableRecord
  2
2125-R1-RF-VIMAR_60000__2125-_2
 70
0
 62
7
  6
CONTINUOUS
370
-3
390
F
  0
LAYER
  5
208
100
AcDbSymbolTableRecord
100
AcDbLayerTableRecord
  2
2125-R1-RF-VIMAR_60000__2125-_3
 70
0
 62
7
  6
CONTINUOUS
370
-3
390
F
  0
LAYER
  5
209
100
AcDbSymbolTableRecord
100
AcDbLayerTableRecord
  2
2125-R1-RF-VIMAR_60000__2125-_4
 70
0
 62
7
  6
CONTINUOUS
370
-3
390
F
  0
LAYER
  5
20A
100
AcDbSymbolTableRecord
100
AcDbLayerTableRecord
  2
2125-R1-RF-VIMAR_60000__2125-_5
 70
0
 62
7
  6
CONTINUOUS
370
-3
390
F
  0
LAYER
  5
20B
100
AcDbSymbolTableRecord
100
AcDbLayerTableRecord
  2
2125-R1-RF-VIMAR_60000__2125-_6
 70
0
 62
7
  6
CONTINUOUS
370
-3
390
F
  0
LAYER
  5
20C
100
AcDbSymbolTableRecord
100
AcDbLayerTableRecord
  2
2125-R1-RF-VIMAR_60000__2125-_7
 70
0
 62
7
  6
CONTINUOUS
370
-3
390
F
  0
LAYER
  5
20D
100
AcDbSymbolTableRecord
100
AcDbLayerTableRecord
  2
2125-R1-RF-VIMAR_60000__2125-_8
 70
0
 62
7
  6
CONTINUOUS
370
-3
390
F
  0
LAYER
  5
20E
100
AcDbSymbolTableRecord
100
AcDbLayerTableRecord
  2
3216-CF-RF-1-VIMAR_180000__3216
 70
0
 62
7
  6
CONTINUOUS
370
-3
390
F
  0
LAYER
  5
20F
100
AcDbSymbolTableRecord
100
AcDbLayerTableRecord
  2
3216-CF-RF-1-VIMAR_180000__32_1
 70
0
 62
7
  6
CONTINUOUS
370
-3
390
F
  0
LAYER
  5
210
100
AcDbSymbolTableRecord
100
AcDbLayerTableRecord
  2
3216-CF-RF-1-VIMAR_180000__32_2
 70
0
 62
7
  6
CONTINUOUS
370
-3
390
F
  0
LAYER
  5
211
100
AcDbSymbolTableRecord
100
AcDbLayerTableRecord
  2
3216-CF-RF-1-VIMAR_180000__32_3
 70
0
 62
7
  6
CONTINUOUS
370
-3
390
F
  0
LAYER
  5
212
100
AcDbSymbolTableRecord
100
AcDbLayerTableRecord
  2
3216-CF-RF-VIMAR_100000__3216-C
 70
0
 62
7
  6
CONTINUOUS
370
-3
390
F
  0
LAYER
  5
213
100
AcDbSymbolTableRecord
100
AcDbLayerTableRecord
  2
43000599A0
 70
0
 62
7
  6
CONTINUOUS
370
-3
390
F
  0
LAYER
  5
214
100
AcDbSymbolTableRecord
100
AcDbLayerTableRecord
  2
43000599A0_CONTORNO
 70
0
 62
7
  6
CONTINUOUS
370
-3
390
F
  0
LAYER
  5
215
100
AcDbSymbolTableRecord
100
AcDbLayerTableRecord
  2
43000600A0
 70
0
 62
7
  6
CONTINUOUS
370
-3
390
F
  0
LAYER
  5
216
100
AcDbSymbolTableRecord
100
AcDbLayerTableRecord
  2
43000600A0_CONTORNO
 70
0
 62
7
  6
CONTINUOUS
370
-3
390
F
  0
LAYER
  5
217
100
AcDbSymbolTableRecord
100
AcDbLayerTableRecord
  2
ASSI
 70
0
 62
7
  6
CONTINUOUS
370
-3
390
F
  0
LAYER
  5
218
100
AcDbSymbolTableRecord
100
AcDbLayerTableRecord
  2
CAPC1608N_80000__CAPC160-105767
 70
0
 62
7
  6
CONTINUOUS
370
-3
390
F
  0
LAYER
  5
219
100
AcDbSymbolTableRecord
100
AcDbLayerTableRecord
  2
CAPC1608N_80000__CAPC160-1057_1
 70
0
 62
7
  6
CONTINUOUS
370
-3
390
F
  0
LAYER
  5
21A
100
AcDbSymbolTableRecord
100
AcDbLayerTableRecord
  2
CAPC1608N_80000__CAPC160-1057_2
 70
0
 62
7
  6
CONTINUOUS
370
-3
390
F
  0
LAYER
  5
21B
100
AcDbSymbolTableRecord
100
AcDbLayerTableRecord
  2
CAPC1608N_80000__CAPC160-1057_3
 70
0
 62
7
  6
CONTINUOUS
370
-3
390
F
  0
LAYER
  5
21C
100
AcDbSymbolTableRecord
100
AcDbLayerTableRecord
  2
CAPC1608N_80000__CAPC160-1057_4
 70
0
 62
7
  6
CONTINUOUS
370
-3
390
F
  0
LAYER
  5
21D
100
AcDbSymbolTableRecord
100
AcDbLayerTableRecord
  2
CAPC1608N_80000__CAPC160-1057_5
 70
0
 62
7
  6
CONTINUOUS
370
-3
390
F
  0
LAYER
  5
21E
100
AcDbSymbolTableRecord
100
AcDbLayerTableRecord
  2
CAPC1608N_80000__CAPC160-1057_6
 70
0
 62
7
  6
CONTINUOUS
370
-3
390
F
  0
LAYER
  5
21F
100
AcDbSymbolTableRecord
100
AcDbLayerTableRecord
  2
CAPC1608N_80000__CAPC160-1057_7
 70
0
 62
7
  6
CONTINUOUS
370
-3
390
F
  0
LAYER
  5
220
100
AcDbSymbolTableRecord
100
AcDbLayerTableRecord
  2
CAPC1608N_80000__CAPC160-1057_8
 70
0
 62
7
  6
CONTINUOUS
370
-3
390
F
  0
LAYER
  5
221
100
AcDbSymbolTableRecord
100
AcDbLayerTableRecord
  2
CAPC1608N_80000__CAPC160-1057_9
 70
0
 62
7
  6
CONTINUOUS
370
-3
390
F
  0
LAYER
  5
222
100
AcDbSymbolTableRecord
100
AcDbLayerTableRecord
  2
CAPC1608N_80000__CAPC160-105_10
 70
0
 62
7
  6
CONTINUOUS
370
-3
390
F
  0
LAYER
  5
223
100
AcDbSymbolTableRecord
100
AcDbLayerTableRecord
  2
CAPC1608N_80000__CAPC160-105_11
 70
0
 62
7
  6
CONTINUOUS
370
-3
390
F
  0
LAYER
  5
224
100
AcDbSymbolTableRecord
100
AcDbLayerTableRecord
  2
CAPC1608N_80000__CAPC160-105_12
 70
0
 62
7
  6
CONTINUOUS
370
-3
390
F
  0
LAYER
  5
225
100
AcDbSymbolTableRecord
100
AcDbLayerTableRecord
  2
CAPC1608N_80000__CAPC160-105_13
 70
0
 62
7
  6
CONTINUOUS
370
-3
390
F
  0
LAYER
  5
226
100
AcDbSymbolTableRecord
100
AcDbLayerTableRecord
  2
CAPC1608N_80000__CAPC160-105_14
 70
0
 62
7
  6
CONTINUOUS
370
-3
390
F
  0
LAYER
  5
227
100
AcDbSymbolTableRecord
100
AcDbLayerTableRecord
  2
CAPC1608N_80000__CAPC160-105_15
 70
0
 62
7
  6
CONTINUOUS
370
-3
390
F
  0
LAYER
  5
228
100
AcDbSymbolTableRecord
100
AcDbLayerTableRecord
  2
CAPC1608N_80000__CAPC160-105_16
 70
0
 62
7
  6
CONTINUOUS
370
-3
390
F
  0
LAYER
  5
229
100
AcDbSymbolTableRecord
100
AcDbLayerTableRecord
  2
CAPC1608N_80000__CAPC160-105_17
 70
0
 62
7
  6
CONTINUOUS
370
-3
390
F
  0
LAYER
  5
22A
100
AcDbSymbolTableRecord
100
AcDbLayerTableRecord
  2
CAPC1608N_80000__CAPC160-105_18
 70
0
 62
7
  6
CONTINUOUS
370
-3
390
F
  0
LAYER
  5
22B
100
AcDbSymbolTableRecord
100
AcDbLayerTableRecord
  2
CAPC1608N_80000__CAPC160-105_19
 70
0
 62
7
  6
CONTINUOUS
370
-3
390
F
  0
LAYER
  5
22C
100
AcDbSymbolTableRecord
100
AcDbLayerTableRecord
  2
CAPC1608N_80000__CAPC160-105_20
 70
0
 62
7
  6
CONTINUOUS
370
-3
390
F
  0
LAYER
  5
22D
100
AcDbSymbolTableRecord
100
AcDbLayerTableRecord
  2
CAPC1608N_80000__CAPC160-105_21
 70
0
 62
7
  6
CONTINUOUS
370
-3
390
F
  0
LAYER
  5
22E
100
AcDbSymbolTableRecord
100
AcDbLayerTableRecord
  2
CAPC1608N_80000__CAPC160-118831
 70
0
 62
7
  6
CONTINUOUS
370
-3
390
F
  0
LAYER
  5
22F
100
AcDbSymbolTableRecord
100
AcDbLayerTableRecord
  2
CAPC1608N_80000__CAPC160-1188_1
 70
0
 62
7
  6
CONTINUOUS
370
-3
390
F
  0
LAYER
  5
230
100
AcDbSymbolTableRecord
100
AcDbLayerTableRecord
  2
CAPC1608N_80000__CAPC160-1188_2
 70
0
 62
7
  6
CONTINUOUS
370
-3
390
F
  0
LAYER
  5
231
100
AcDbSymbolTableRecord
100
AcDbLayerTableRecord
  2
CAPC1608N_80000__CAPC160-1188_3
 70
0
 62
7
  6
CONTINUOUS
370
-3
390
F
  0
LAYER
  5
232
100
AcDbSymbolTableRecord
100
AcDbLayerTableRecord
  2
CAPC1608N_80000__CAPC160-1188_4
 70
0
 62
7
  6
CONTINUOUS
370
-3
390
F
  0
LAYER
  5
233
100
AcDbSymbolTableRecord
100
AcDbLayerTableRecord
  2
CAPC1608N_80000__CAPC160-1188_5
 70
0
 62
7
  6
CONTINUOUS
370
-3
390
F
  0
LAYER
  5
234
100
AcDbSymbolTableRecord
100
AcDbLayerTableRecord
  2
CAPC1608N_80000__CAPC160-1188_6
 70
0
 62
7
  6
CONTINUOUS
370
-3
390
F
  0
LAYER
  5
235
100
AcDbSymbolTableRecord
100
AcDbLayerTableRecord
  2
CAPC1608N_80000__CAPC160-1188_7
 70
0
 62
7
  6
CONTINUOUS
370
-3
390
F
  0
LAYER
  5
236
100
AcDbSymbolTableRecord
100
AcDbLayerTableRecord
  2
CAPC1608N_80000__CAPC160-1188_8
 70
0
 62
7
  6
CONTINUOUS
370
-3
390
F
  0
LAYER
  5
237
100
AcDbSymbolTableRecord
100
AcDbLayerTableRecord
  2
CAPC1608N_80000__CAPC160-1188_9
 70
0
 62
7
  6
CONTINUOUS
370
-3
390
F
  0
LAYER
  5
238
100
AcDbSymbolTableRecord
100
AcDbLayerTableRecord
  2
CAPC1608N_80000__CAPC160-118_10
 70
0
 62
7
  6
CONTINUOUS
370
-3
390
F
  0
LAYER
  5
239
100
AcDbSymbolTableRecord
100
AcDbLayerTableRecord
  2
CAPC1608N_80000__CAPC160-118_11
 70
0
 62
7
  6
CONTINUOUS
370
-3
390
F
  0
LAYER
  5
23A
100
AcDbSymbolTableRecord
100
AcDbLayerTableRecord
  2
CAPC1608N_80000__CAPC160-118_12
 70
0
 62
7
  6
CONTINUOUS
370
-3
390
F
  0
LAYER
  5
23B
100
AcDbSymbolTableRecord
100
AcDbLayerTableRecord
  2
CAPC1608N_80000__CAPC160-118_13
 70
0
 62
7
  6
CONTINUOUS
370
-3
390
F
  0
LAYER
  5
23C
100
AcDbSymbolTableRecord
100
AcDbLayerTableRecord
  2
CAPC1608N_80000__CAPC160-118_14
 70
0
 62
7
  6
CONTINUOUS
370
-3
390
F
  0
LAYER
  5
23D
100
AcDbSymbolTableRecord
100
AcDbLayerTableRecord
  2
CAPC1608N_80000__CAPC160-118_15
 70
0
 62
7
  6
CONTINUOUS
370
-3
390
F
  0
LAYER
  5
23E
100
AcDbSymbolTableRecord
100
AcDbLayerTableRecord
  2
CAPC1608N_80000__CAPC160-118_16
 70
0
 62
7
  6
CONTINUOUS
370
-3
390
F
  0
LAYER
  5
23F
100
AcDbSymbolTableRecord
100
AcDbLayerTableRecord
  2
CN-CSF_CSM_2-VIMAR_900000__CN-C
 70
0
 62
7
  6
CONTINUOUS
370
-3
390
F
  0
LAYER
  5
240
100
AcDbSymbolTableRecord
100
AcDbLayerTableRecord
  2
CN-MKDSN2-VIMAR_1500000__CN-MKD
 70
0
 62
7
  6
CONTINUOUS
370
-3
390
F
  0
LAYER
  5
241
100
AcDbSymbolTableRecord
100
AcDbLayerTableRecord
  2
CN1-REF_SQUAREHOLE12_SPE-112392
 70
0
 62
7
  6
CONTINUOUS
370
-3
390
F
  0
LAYER
  5
242
100
AcDbSymbolTableRecord
100
AcDbLayerTableRecord
  2
CN1-REF_SQUAREHOLE12_SPE-1123_1
 70
0
 62
7
  6
CONTINUOUS
370
-3
390
F
  0
LAYER
  5
243
100
AcDbSymbolTableRecord
100
AcDbLayerTableRecord
  2
CN1-REF_SQUAREHOLE12_SPE-1123_2
 70
0
 62
7
  6
CONTINUOUS
370
-3
390
F
  0
LAYER
  5
244
100
AcDbSymbolTableRecord
100
AcDbLayerTableRecord
  2
CN1-REF_SQUAREHOLE12_SPE-1123_3
 70
0
 62
7
  6
CONTINUOUS
370
-3
390
F
  0
LAYER
  5
245
100
AcDbSymbolTableRecord
100
AcDbLayerTableRecord
  2
CN1-REF_SQUAREHOLE12_SPE-121063
 70
0
 62
7
  6
CONTINUOUS
370
-3
390
F
  0
LAYER
  5
246
100
AcDbSymbolTableRecord
100
AcDbLayerTableRecord
  2
CN1-REF_SQUAREHOLE12_SPE-1210_1
 70
0
 62
7
  6
CONTINUOUS
370
-3
390
F
  0
LAYER
  5
247
100
AcDbSymbolTableRecord
100
AcDbLayerTableRecord
  2
CN1-REF_SQUAREHOLE12_SPE-1210_2
 70
0
 62
7
  6
CONTINUOUS
370
-3
390
F
  0
LAYER
  5
248
100
AcDbSymbolTableRecord
100
AcDbLayerTableRecord
  2
CN1-REF_SQUAREHOLE12_SPE-1210_3
 70
0
 62
7
  6
CONTINUOUS
370
-3
390
F
  0
LAYER
  5
249
100
AcDbSymbolTableRecord
100
AcDbLayerTableRecord
  2
CN1-TP15_SMD-VIMAR_5000__CN1-TP
 70
0
 62
7
  6
CONTINUOUS
370
-3
390
F
  0
LAYER
  5
24A
100
AcDbSymbolTableRecord
100
AcDbLayerTableRecord
  2
CN1-TP15_SMD-VIMAR_5000__CN1-_1
 70
0
 62
7
  6
CONTINUOUS
370
-3
390
F
  0
LAYER
  5
24B
100
AcDbSymbolTableRecord
100
AcDbLayerTableRecord
  2
CN1-TP15_SMD-VIMAR_5000__CN1-_2
 70
0
 62
7
  6
CONTINUOUS
370
-3
390
F
  0
LAYER
  5
24C
100
AcDbSymbolTableRecord
100
AcDbLayerTableRecord
  2
CN1-TP15_SMD-VIMAR_5000__CN1-_3
 70
0
 62
7
  6
CONTINUOUS
370
-3
390
F
  0
LAYER
  5
24D
100
AcDbSymbolTableRecord
100
AcDbLayerTableRecord
  2
CN1-TP15_SMD-VIMAR_5000__CN1-_4
 70
0
 62
7
  6
CONTINUOUS
370
-3
390
F
  0
LAYER
  5
24E
100
AcDbSymbolTableRecord
100
AcDbLayerTableRecord
  2
CN1-TP15_SMD-VIMAR_5000__CN1-_5
 70
0
 62
7
  6
CONTINUOUS
370
-3
390
F
  0
LAYER
  5
24F
100
AcDbSymbolTableRecord
100
AcDbLayerTableRecord
  2
CN12-ZIF_P0_5-VIMAR_200000__CN1
 70
0
 62
7
  6
CONTINUOUS
370
-3
390
F
  0
LAYER
  5
250
100
AcDbSymbolTableRecord
100
AcDbLayerTableRecord
  2
COLOR1
 70
0
 62
7
  6
CONTINUOUS
370
-3
390
F
  0
LAYER
  5
251
100
AcDbSymbolTableRecord
100
AcDbLayerTableRecord
  2
COLOR10
 70
0
 62
7
  6
CONTINUOUS
370
-3
390
F
  0
LAYER
  5
252
100
AcDbSymbolTableRecord
100
AcDbLayerTableRecord
  2
COLOR12
 70
0
 62
7
  6
CONTINUOUS
370
-3
390
F
  0
LAYER
  5
253
100
AcDbSymbolTableRecord
100
AcDbLayerTableRecord
  2
COLOR13
 70
0
 62
7
  6
CONTINUOUS
370
-3
390
F
  0
LAYER
  5
254
100
AcDbSymbolTableRecord
100
AcDbLayerTableRecord
  2
COLOR15
 70
0
 62
7
  6
CONTINUOUS
370
-3
390
F
  0
LAYER
  5
255
100
AcDbSymbolTableRecord
100
AcDbLayerTableRecord
  2
COLOR17
 70
0
 62
7
  6
CONTINUOUS
370
-3
390
F
  0
LAYER
  5
256
100
AcDbSymbolTableRecord
100
AcDbLayerTableRecord
  2
COLOR18
 70
0
 62
7
  6
CONTINUOUS
370
-3
390
F
  0
LAYER
  5
257
100
AcDbSymbolTableRecord
100
AcDbLayerTableRecord
  2
COLOR19
 70
0
 62
7
  6
CONTINUOUS
370
-3
390
F
  0
LAYER
  5
258
100
AcDbSymbolTableRecord
100
AcDbLayerTableRecord
  2
COLOR2
 70
0
 62
7
  6
CONTINUOUS
370
-3
390
F
  0
LAYER
  5
259
100
AcDbSymbolTableRecord
100
AcDbLayerTableRecord
  2
COLOR20
 70
0
 62
7
  6
CONTINUOUS
370
-3
390
F
  0
LAYER
  5
25A
100
AcDbSymbolTableRecord
100
AcDbLayerTableRecord
  2
COLOR21
 70
0
 62
7
  6
CONTINUOUS
370
-3
390
F
  0
LAYER
  5
25B
100
AcDbSymbolTableRecord
100
AcDbLayerTableRecord
  2
COLOR22
 70
0
 62
7
  6
CONTINUOUS
370
-3
390
F
  0
LAYER
  5
25C
100
AcDbSymbolTableRecord
100
AcDbLayerTableRecord
  2
COLOR24
 70
0
 62
7
  6
CONTINUOUS
370
-3
390
F
  0
LAYER
  5
25D
100
AcDbSymbolTableRecord
100
AcDbLayerTableRecord
  2
COLOR25
 70
0
 62
7
  6
CONTINUOUS
370
-3
390
F
  0
LAYER
  5
25E
100
AcDbSymbolTableRecord
100
AcDbLayerTableRecord
  2
COLOR27
 70
0
 62
7
  6
CONTINUOUS
370
-3
390
F
  0
LAYER
  5
25F
100
AcDbSymbolTableRecord
100
AcDbLayerTableRecord
  2
COLOR3
 70
0
 62
7
  6
CONTINUOUS
370
-3
390
F
  0
LAYER
  5
260
100
AcDbSymbolTableRecord
100
AcDbLayerTableRecord
  2
COLOR31
 70
0
 62
7
  6
CONTINUOUS
370
-3
390
F
  0
LAYER
  5
261
100
AcDbSymbolTableRecord
100
AcDbLayerTableRecord
  2
COLOR33
 70
0
 62
7
  6
CONTINUOUS
370
-3
390
F
  0
LAYER
  5
262
100
AcDbSymbolTableRecord
100
AcDbLayerTableRecord
  2
COLOR36
 70
0
 62
7
  6
CONTINUOUS
370
-3
390
F
  0
LAYER
  5
263
100
AcDbSymbolTableRecord
100
AcDbLayerTableRecord
  2
COLOR37
 70
0
 62
7
  6
CONTINUOUS
370
-3
390
F
  0
LAYER
  5
264
100
AcDbSymbolTableRecord
100
AcDbLayerTableRecord
  2
COLOR39
 70
0
 62
7
  6
CONTINUOUS
370
-3
390
F
  0
LAYER
  5
265
100
AcDbSymbolTableRecord
100
AcDbLayerTableRecord
  2
COLOR4
 70
0
 62
7
  6
CONTINUOUS
370
-3
390
F
  0
LAYER
  5
266
100
AcDbSymbolTableRecord
100
AcDbLayerTableRecord
  2
COLOR40
 70
0
 62
7
  6
CONTINUOUS
370
-3
390
F
  0
LAYER
  5
267
100
AcDbSymbolTableRecord
100
AcDbLayerTableRecord
  2
COLOR41
 70
0
 62
7
  6
CONTINUOUS
370
-3
390
F
  0
LAYER
  5
268
100
AcDbSymbolTableRecord
100
AcDbLayerTableRecord
  2
COLOR42
 70
0
 62
7
  6
CONTINUOUS
370
-3
390
F
  0
LAYER
  5
269
100
AcDbSymbolTableRecord
100
AcDbLayerTableRecord
  2
COLOR43
 70
0
 62
7
  6
CONTINUOUS
370
-3
390
F
  0
LAYER
  5
26A
100
AcDbSymbolTableRecord
100
AcDbLayerTableRecord
  2
COLOR44
 70
0
 62
7
  6
CONTINUOUS
370
-3
390
F
  0
LAYER
  5
26B
100
AcDbSymbolTableRecord
100
AcDbLayerTableRecord
  2
COLOR45
 70
0
 62
7
  6
CONTINUOUS
370
-3
390
F
  0
LAYER
  5
26C
100
AcDbSymbolTableRecord
100
AcDbLayerTableRecord
  2
COLOR46
 70
0
 62
7
  6
CONTINUOUS
370
-3
390
F
  0
LAYER
  5
26D
100
AcDbSymbolTableRecord
100
AcDbLayerTableRecord
  2
COLOR47
 70
0
 62
7
  6
CONTINUOUS
370
-3
390
F
  0
LAYER
  5
26E
100
AcDbSymbolTableRecord
100
AcDbLayerTableRecord
  2
COLOR48
 70
0
 62
7
  6
CONTINUOUS
370
-3
390
F
  0
LAYER
  5
26F
100
AcDbSymbolTableRecord
100
AcDbLayerTableRecord
  2
COLOR49
 70
0
 62
7
  6
CONTINUOUS
370
-3
390
F
  0
LAYER
  5
270
100
AcDbSymbolTableRecord
100
AcDbLayerTableRecord
  2
COLOR50
 70
0
 62
7
  6
CONTINUOUS
370
-3
390
F
  0
LAYER
  5
271
100
AcDbSymbolTableRecord
100
AcDbLayerTableRecord
  2
COLOR51
 70
0
 62
7
  6
CONTINUOUS
370
-3
390
F
  0
LAYER
  5
272
100
AcDbSymbolTableRecord
100
AcDbLayerTableRecord
  2
COLOR52
 70
0
 62
7
  6
CONTINUOUS
370
-3
390
F
  0
LAYER
  5
273
100
AcDbSymbolTableRecord
100
AcDbLayerTableRecord
  2
COLOR53
 70
0
 62
7
  6
CONTINUOUS
370
-3
390
F
  0
LAYER
  5
274
100
AcDbSymbolTableRecord
100
AcDbLayerTableRecord
  2
COLOR54
 70
0
 62
7
  6
CONTINUOUS
370
-3
390
F
  0
LAYER
  5
275
100
AcDbSymbolTableRecord
100
AcDbLayerTableRecord
  2
COLOR55
 70
0
 62
7
  6
CONTINUOUS
370
-3
390
F
  0
LAYER
  5
276
100
AcDbSymbolTableRecord
100
AcDbLayerTableRecord
  2
COLOR56
 70
0
 62
7
  6
CONTINUOUS
370
-3
390
F
  0
LAYER
  5
277
100
AcDbSymbolTableRecord
100
AcDbLayerTableRecord
  2
COLOR57
 70
0
 62
7
  6
CONTINUOUS
370
-3
390
F
  0
LAYER
  5
278
100
AcDbSymbolTableRecord
100
AcDbLayerTableRecord
  2
COLOR58
 70
0
 62
7
  6
CONTINUOUS
370
-3
390
F
  0
LAYER
  5
279
100
AcDbSymbolTableRecord
100
AcDbLayerTableRecord
  2
COLOR59
 70
0
 62
7
  6
CONTINUOUS
370
-3
390
F
  0
LAYER
  5
27A
100
AcDbSymbolTableRecord
100
AcDbLayerTableRecord
  2
COLOR60
 70
0
 62
7
  6
CONTINUOUS
370
-3
390
F
  0
LAYER
  5
27B
100
AcDbSymbolTableRecord
100
AcDbLayerTableRecord
  2
COLOR61
 70
0
 62
7
  6
CONTINUOUS
370
-3
390
F
  0
LAYER
  5
27C
100
AcDbSymbolTableRecord
100
AcDbLayerTableRecord
  2
COLOR62
 70
0
 62
7
  6
CONTINUOUS
370
-3
390
F
  0
LAYER
  5
27D
100
AcDbSymbolTableRecord
100
AcDbLayerTableRecord
  2
COLOR63
 70
0
 62
7
  6
CONTINUOUS
370
-3
390
F
  0
LAYER
  5
27E
100
AcDbSymbolTableRecord
100
AcDbLayerTableRecord
  2
COLOR64
 70
0
 62
7
  6
CONTINUOUS
370
-3
390
F
  0
LAYER
  5
27F
100
AcDbSymbolTableRecord
100
AcDbLayerTableRecord
  2
COLOR65
 70
0
 62
7
  6
CONTINUOUS
370
-3
390
F
  0
LAYER
  5
280
100
AcDbSymbolTableRecord
100
AcDbLayerTableRecord
  2
COLORE_MATERIALE
 70
0
 62
7
  6
CONTINUOUS
370
-3
390
F
  0
LAYER
  5
281
100
AcDbSymbolTableRecord
100
AcDbLayerTableRecord
  2
COORDINATE
 70
0
 62
7
  6
CONTINUOUS
370
-3
390
F
  0
LAYER
  5
282
100
AcDbSymbolTableRecord
100
AcDbLayerTableRecord
  2
COORD_ORIGINE
 70
0
 62
7
  6
CONTINUOUS
370
-3
390
F
  0
LAYER
  5
283
100
AcDbSymbolTableRecord
100
AcDbLayerTableRecord
  2
COPY_PUBLISH
 70
0
 62
7
  6
CONTINUOUS
370
-3
390
F
  0
LAYER
  5
284
100
AcDbSymbolTableRecord
100
AcDbLayerTableRecord
  2
COSMETIC
 70
0
 62
7
  6
CONTINUOUS
370
-3
390
F
  0
LAYER
  5
285
100
AcDbSymbolTableRecord
100
AcDbLayerTableRecord
  2
CP-CE2-RF_570000__CP-CE2-RF_570
 70
0
 62
7
  6
CONTINUOUS
370
-3
390
F
  0
LAYER
  5
286
100
AcDbSymbolTableRecord
100
AcDbLayerTableRecord
  2
CP-CE2-RF_570000__CP-CE2-RF_5_1
 70
0
 62
7
  6
CONTINUOUS
370
-3
390
F
  0
LAYER
  5
287
100
AcDbSymbolTableRecord
100
AcDbLayerTableRecord
  2
CP-CE5-RF_650000__CP-CE5-RF_650
 70
0
 62
7
  6
CONTINUOUS
370
-3
390
F
  0
LAYER
  5
288
100
AcDbSymbolTableRecord
100
AcDbLayerTableRecord
  2
CP-CE5-RF_650000__CP-CE5-RF_6_1
 70
0
 62
7
  6
CONTINUOUS
370
-3
390
F
  0
LAYER
  5
289
100
AcDbSymbolTableRecord
100
AcDbLayerTableRecord
  2
CP-DO-214AC-D-VIMAR_240000__CP-
 70
0
 62
7
  6
CONTINUOUS
370
-3
390
F
  0
LAYER
  5
28A
100
AcDbSymbolTableRecord
100
AcDbLayerTableRecord
  2
CP-DO-214AC-VIMAR_240000__CP-DO
 70
0
 62
7
  6
CONTINUOUS
370
-3
390
F
  0
LAYER
  5
28B
100
AcDbSymbolTableRecord
100
AcDbLayerTableRecord
  2
CP-DO-214AC-VIMAR_240000__CP-_1
 70
0
 62
7
  6
CONTINUOUS
370
-3
390
F
  0
LAYER
  5
28C
100
AcDbSymbolTableRecord
100
AcDbLayerTableRecord
  2
CP-L3-RF-VIMAR_180000__CP-L3-RF
 70
0
 62
7
  6
CONTINUOUS
370
-3
390
F
  0
LAYER
  5
28D
100
AcDbSymbolTableRecord
100
AcDbLayerTableRecord
  2
CURVE
 70
0
 62
7
  6
CONTINUOUS
370
-3
390
F
  0
LAYER
  5
28E
100
AcDbSymbolTableRecord
100
AcDbLayerTableRecord
  2
DRAFT
 70
0
 62
7
  6
CONTINUOUS
370
-3
390
F
  0
LAYER
  5
28F
100
AcDbSymbolTableRecord
100
AcDbLayerTableRecord
  2
E4_MARK_10000__E4_MARK_10000_11
 70
0
 62
7
  6
CONTINUOUS
370
-3
390
F
  0
LAYER
  5
290
100
AcDbSymbolTableRecord
100
AcDbLayerTableRecord
  2
E4_MARK_10000__E4_MARK_10000_32
 70
0
 62
7
  6
CONTINUOUS
370
-3
390
F
  0
LAYER
  5
291
100
AcDbSymbolTableRecord
100
AcDbLayerTableRecord
  2
IGES_SCRITTE
 70
0
 62
7
  6
CONTINUOUS
370
-3
390
F
  0
LAYER
  5
292
100
AcDbSymbolTableRecord
100
AcDbLayerTableRecord
  2
IMPORT_IGES
 70
0
 62
7
  6
CONTINUOUS
370
-3
390
F
  0
LAYER
  5
293
100
AcDbSymbolTableRecord
100
AcDbLayerTableRecord
  2
INDC1711X100L_100000__INDC1711X
 70
0
 62
7
  6
CONTINUOUS
370
-3
390
F
  0
LAYER
  5
294
100
AcDbSymbolTableRecord
100
AcDbLayerTableRecord
  2
INTF_1
 70
0
 62
7
  6
CONTINUOUS
370
-3
390
F
  0
LAYER
  5
295
100
AcDbSymbolTableRecord
100
AcDbLayerTableRecord
  2
INTF_11
 70
0
 62
7
  6
CONTINUOUS
370
-3
390
F
  0
LAYER
  5
296
100
AcDbSymbolTableRecord
100
AcDbLayerTableRecord
  2
INTF_BLUE
 70
0
 62
7
  6
CONTINUOUS
370
-3
390
F
  0
LAYER
  5
297
100
AcDbSymbolTableRecord
100
AcDbLayerTableRecord
  2
INTF_CYAN
 70
0
 62
7
  6
CONTINUOUS
370
-3
390
F
  0
LAYER
  5
298
100
AcDbSymbolTableRecord
100
AcDbLayerTableRecord
  2
INTF_GREEN
 70
0
 62
7
  6
CONTINUOUS
370
-3
390
F
  0
LAYER
  5
299
100
AcDbSymbolTableRecord
100
AcDbLayerTableRecord
  2
INTF_MAGENTA
 70
0
 62
7
  6
CONTINUOUS
370
-3
390
F
  0
LAYER
  5
29A
100
AcDbSymbolTableRecord
100
AcDbLayerTableRecord
  2
LOGO_RESIST-RESTYLING_10000__LO
 70
0
 62
7
  6
CONTINUOUS
370
-3
390
F
  0
LAYER
  5
29B
100
AcDbSymbolTableRecord
100
AcDbLayerTableRecord
  2
L_SRR0604-RF-VIMAR_480000__L_SR
 70
0
 62
7
  6
CONTINUOUS
370
-3
390
F
  0
LAYER
  5
29C
100
AcDbSymbolTableRecord
100
AcDbLayerTableRecord
  2
MC-406_360000__MC-406_360000_74
 70
0
 62
7
  6
CONTINUOUS
370
-3
390
F
  0
LAYER
  5
29D
100
AcDbSymbolTableRecord
100
AcDbLayerTableRecord
  2
MM2-SWITCH-1-VIMAR_150000__MM2-
 70
0
 62
7
  6
CONTINUOUS
370
-3
390
F
  0
LAYER
  5
29E
100
AcDbSymbolTableRecord
100
AcDbLayerTableRecord
  2
MM3-MPAK-RF-VIMAR_120000-109521
 70
0
 62
7
  6
CONTINUOUS
370
-3
390
F
  0
LAYER
  5
29F
100
AcDbSymbolTableRecord
100
AcDbLayerTableRecord
  2
MM3-MPAK-RF-VIMAR_120000-1095_1
 70
0
 62
7
  6
CONTINUOUS
370
-3
390
F
  0
LAYER
  5
2A0
100
AcDbSymbolTableRecord
100
AcDbLayerTableRecord
  2
MM3-MPAK-RF-VIMAR_120000-1095_2
 70
0
 62
7
  6
CONTINUOUS
370
-3
390
F
  0
LAYER
  5
2A1
100
AcDbSymbolTableRecord
100
AcDbLayerTableRecord
  2
MM3-MPAK-RF-VIMAR_120000-1095_3
 70
0
 62
7
  6
CONTINUOUS
370
-3
390
F
  0
LAYER
  5
2A2
100
AcDbSymbolTableRecord
100
AcDbLayerTableRecord
  2
MM3-MPAK-RF-VIMAR_120000-1095_4
 70
0
 62
7
  6
CONTINUOUS
370
-3
390
F
  0
LAYER
  5
2A3
100
AcDbSymbolTableRecord
100
AcDbLayerTableRecord
  2
MM3-MPAK-RF-VIMAR_120000-1095_5
 70
0
 62
7
  6
CONTINUOUS
370
-3
390
F
  0
LAYER
  5
2A4
100
AcDbSymbolTableRecord
100
AcDbLayerTableRecord
  2
MM3-MPAK-RF-VIMAR_120000-1095_6
 70
0
 62
7
  6
CONTINUOUS
370
-3
390
F
  0
LAYER
  5
2A5
100
AcDbSymbolTableRecord
100
AcDbLayerTableRecord
  2
MM3-MPAK-RF-VIMAR_120000-1095_7
 70
0
 62
7
  6
CONTINUOUS
370
-3
390
F
  0
LAYER
  5
2A6
100
AcDbSymbolTableRecord
100
AcDbLayerTableRecord
  2
MM3-MPAK-RF-VIMAR_120000-1095_8
 70
0
 62
7
  6
CONTINUOUS
370
-3
390
F
  0
LAYER
  5
2A7
100
AcDbSymbolTableRecord
100
AcDbLayerTableRecord
  2
MM3-MPAK-RF-VIMAR_120000-1095_9
 70
0
 62
7
  6
CONTINUOUS
370
-3
390
F
  0
LAYER
  5
2A8
100
AcDbSymbolTableRecord
100
AcDbLayerTableRecord
  2
MM3-MPAK-RF-VIMAR_120000-109_10
 70
0
 62
7
  6
CONTINUOUS
370
-3
390
F
  0
LAYER
  5
2A9
100
AcDbSymbolTableRecord
100
AcDbLayerTableRecord
  2
MM3-MPAK-RF-VIMAR_120000-109_11
 70
0
 62
7
  6
CONTINUOUS
370
-3
390
F
  0
LAYER
  5
2AA
100
AcDbSymbolTableRecord
100
AcDbLayerTableRecord
  2
MM3-MPAK-RF-VIMAR_120000-109_12
 70
0
 62
7
  6
CONTINUOUS
370
-3
390
F
  0
LAYER
  5
2AB
100
AcDbSymbolTableRecord
100
AcDbLayerTableRecord
  2
MM3-MPAK-RF-VIMAR_120000-109_13
 70
0
 62
7
  6
CONTINUOUS
370
-3
390
F
  0
LAYER
  5
2AC
100
AcDbSymbolTableRecord
100
AcDbLayerTableRecord
  2
MM3-MPAK-RF-VIMAR_120000-121861
 70
0
 62
7
  6
CONTINUOUS
370
-3
390
F
  0
LAYER
  5
2AD
100
AcDbSymbolTableRecord
100
AcDbLayerTableRecord
  2
MM3-MPAK-RF-VIMAR_120000-1218_1
 70
0
 62
7
  6
CONTINUOUS
370
-3
390
F
  0
LAYER
  5
2AE
100
AcDbSymbolTableRecord
100
AcDbLayerTableRecord
  2
MM3-MPAK-RF-VIMAR_120000-1218_2
 70
0
 62
7
  6
CONTINUOUS
370
-3
390
F
  0
LAYER
  5
2AF
100
AcDbSymbolTableRecord
100
AcDbLayerTableRecord
  2
MM3-SOT-223-RF-VIMAR_180000__MM
 70
0
 62
7
  6
CONTINUOUS
370
-3
390
F
  0
LAYER
  5
2B0
100
AcDbSymbolTableRecord
100
AcDbLayerTableRecord
  2
MM3-SOT-89-RF-VIMAR_150000__MM3
 70
0
 62
7
  6
CONTINUOUS
370
-3
390
F
  0
LAYER
  5
2B1
100
AcDbSymbolTableRecord
100
AcDbLayerTableRecord
  2
MM4-X-7-VIMAR_130000__MM4-X-7-V
 70
0
 62
7
  6
CONTINUOUS
370
-3
390
F
  0
LAYER
  5
2B2
100
AcDbSymbolTableRecord
100
AcDbLayerTableRecord
  2
MM5-FMT-RF_120000__MM5-F-111658
 70
0
 62
7
  6
CONTINUOUS
370
-3
390
F
  0
LAYER
  5
2B3
100
AcDbSymbolTableRecord
100
AcDbLayerTableRecord
  2
MM5-FMT-RF_120000__MM5-F-120835
 70
0
 62
7
  6
CONTINUOUS
370
-3
390
F
  0
LAYER
  5
2B4
100
AcDbSymbolTableRecord
100
AcDbLayerTableRecord
  2
MSOP8-T1-RF-VIMAR_86000__MSOP8-
 70
0
 62
7
  6
CONTINUOUS
370
-3
390
F
  0
LAYER
  5
2B5
100
AcDbSymbolTableRecord
100
AcDbLayerTableRecord
  2
NO-PB_MARK_10000__NO-PB_-108041
 70
0
 62
7
  6
CONTINUOUS
370
-3
390
F
  0
LAYER
  5
2B6
100
AcDbSymbolTableRecord
100
AcDbLayerTableRecord
  2
NO-PB_MARK_10000__NO-PB_-119383
 70
0
 62
7
  6
CONTINUOUS
370
-3
390
F
  0
LAYER
  5
2B7
100
AcDbSymbolTableRecord
100
AcDbLayerTableRecord
  2
NOTE
 70
0
 62
7
  6
CONTINUOUS
370
-3
390
F
  0
LAYER
  5
2B8
100
AcDbSymbolTableRecord
100
AcDbLayerTableRecord
  2
PIANI
 70
0
 62
7
  6
CONTINUOUS
370
-3
390
F
  0
LAYER
  5
2B9
100
AcDbSymbolTableRecord
100
AcDbLayerTableRecord
  2
PIANI_DI_RIFERIMENTO
 70
0
 62
7
  6
CONTINUOUS
370
-3
390
F
  0
LAYER
  5
2BA
100
AcDbSymbolTableRecord
100
AcDbLayerTableRecord
  2
PIANI_ORIGINE
 70
0
 62
7
  6
CONTINUOUS
370
-3
390
F
  0
LAYER
  5
2BB
100
AcDbSymbolTableRecord
100
AcDbLayerTableRecord
  2
PIANI_RIFERIMENTO
 70
0
 62
7
  6
CONTINUOUS
370
-3
390
F
  0
LAYER
  5
2BC
100
AcDbSymbolTableRecord
100
AcDbLayerTableRecord
  2
PUBLISHED_GEOMETRY
 70
0
 62
7
  6
CONTINUOUS
370
-3
390
F
  0
LAYER
  5
2BD
100
AcDbSymbolTableRecord
100
AcDbLayerTableRecord
  2
PUNTI
 70
0
 62
7
  6
CONTINUOUS
370
-3
390
F
  0
LAYER
  5
2BE
100
AcDbSymbolTableRecord
100
AcDbLayerTableRecord
  2
RACCORDO
 70
0
 62
7
  6
CONTINUOUS
370
-3
390
F
  0
LAYER
  5
2BF
100
AcDbSymbolTableRecord
100
AcDbLayerTableRecord
  2
RD-C25-NTC-1-VIMAR_1800000__RD-
 70
0
 62
7
  6
CONTINUOUS
370
-3
390
F
  0
LAYER
  5
2C0
100
AcDbSymbolTableRecord
100
AcDbLayerTableRecord
  2
RESC1608N_45000__RESC160-112651
 70
0
 62
7
  6
CONTINUOUS
370
-3
390
F
  0
LAYER
  5
2C1
100
AcDbSymbolTableRecord
100
AcDbLayerTableRecord
  2
RESC1608N_45000__RESC160-1126_1
 70
0
 62
7
  6
CONTINUOUS
370
-3
390
F
  0
LAYER
  5
2C2
100
AcDbSymbolTableRecord
100
AcDbLayerTableRecord
  2
RESC1608N_45000__RESC160-1126_2
 70
0
 62
7
  6
CONTINUOUS
370
-3
390
F
  0
LAYER
  5
2C3
100
AcDbSymbolTableRecord
100
AcDbLayerTableRecord
  2
RESC1608N_45000__RESC160-1126_3
 70
0
 62
7
  6
CONTINUOUS
370
-3
390
F
  0
LAYER
  5
2C4
100
AcDbSymbolTableRecord
100
AcDbLayerTableRecord
  2
RESC1608N_45000__RESC160-1126_4
 70
0
 62
7
  6
CONTINUOUS
370
-3
390
F
  0
LAYER
  5
2C5
100
AcDbSymbolTableRecord
100
AcDbLayerTableRecord
  2
RESC1608N_45000__RESC160-1126_5
 70
0
 62
7
  6
CONTINUOUS
370
-3
390
F
  0
LAYER
  5
2C6
100
AcDbSymbolTableRecord
100
AcDbLayerTableRecord
  2
RESC1608N_45000__RESC160-1126_6
 70
0
 62
7
  6
CONTINUOUS
370
-3
390
F
  0
LAYER
  5
2C7
100
AcDbSymbolTableRecord
100
AcDbLayerTableRecord
  2
RESC1608N_45000__RESC160-1126_7
 70
0
 62
7
  6
CONTINUOUS
370
-3
390
F
  0
LAYER
  5
2C8
100
AcDbSymbolTableRecord
100
AcDbLayerTableRecord
  2
RESC1608N_45000__RESC160-1126_8
 70
0
 62
7
  6
CONTINUOUS
370
-3
390
F
  0
LAYER
  5
2C9
100
AcDbSymbolTableRecord
100
AcDbLayerTableRecord
  2
RESC1608N_45000__RESC160-1126_9
 70
0
 62
7
  6
CONTINUOUS
370
-3
390
F
  0
LAYER
  5
2CA
100
AcDbSymbolTableRecord
100
AcDbLayerTableRecord
  2
RESC1608N_45000__RESC160-112_10
 70
0
 62
7
  6
CONTINUOUS
370
-3
390
F
  0
LAYER
  5
2CB
100
AcDbSymbolTableRecord
100
AcDbLayerTableRecord
  2
RESC1608N_45000__RESC160-112_11
 70
0
 62
7
  6
CONTINUOUS
370
-3
390
F
  0
LAYER
  5
2CC
100
AcDbSymbolTableRecord
100
AcDbLayerTableRecord
  2
RESC1608N_45000__RESC160-112_12
 70
0
 62
7
  6
CONTINUOUS
370
-3
390
F
  0
LAYER
  5
2CD
100
AcDbSymbolTableRecord
100
AcDbLayerTableRecord
  2
RESC1608N_45000__RESC160-112_13
 70
0
 62
7
  6
CONTINUOUS
370
-3
390
F
  0
LAYER
  5
2CE
100
AcDbSymbolTableRecord
100
AcDbLayerTableRecord
  2
RESC1608N_45000__RESC160-112_14
 70
0
 62
7
  6
CONTINUOUS
370
-3
390
F
  0
LAYER
  5
2CF
100
AcDbSymbolTableRecord
100
AcDbLayerTableRecord
  2
RESC1608N_45000__RESC160-112_15
 70
0
 62
7
  6
CONTINUOUS
370
-3
390
F
  0
LAYER
  5
2D0
100
AcDbSymbolTableRecord
100
AcDbLayerTableRecord
  2
RESC1608N_45000__RESC160-112_16
 70
0
 62
7
  6
CONTINUOUS
370
-3
390
F
  0
LAYER
  5
2D1
100
AcDbSymbolTableRecord
100
AcDbLayerTableRecord
  2
RESC1608N_45000__RESC160-112_17
 70
0
 62
7
  6
CONTINUOUS
370
-3
390
F
  0
LAYER
  5
2D2
100
AcDbSymbolTableRecord
100
AcDbLayerTableRecord
  2
RESC1608N_45000__RESC160-112_18
 70
0
 62
7
  6
CONTINUOUS
370
-3
390
F
  0
LAYER
  5
2D3
100
AcDbSymbolTableRecord
100
AcDbLayerTableRecord
  2
RESC1608N_45000__RESC160-112_19
 70
0
 62
7
  6
CONTINUOUS
370
-3
390
F
  0
LAYER
  5
2D4
100
AcDbSymbolTableRecord
100
AcDbLayerTableRecord
  2
RESC1608N_45000__RESC160-112_20
 70
0
 62
7
  6
CONTINUOUS
370
-3
390
F
  0
LAYER
  5
2D5
100
AcDbSymbolTableRecord
100
AcDbLayerTableRecord
  2
RESC1608N_45000__RESC160-112_21
 70
0
 62
7
  6
CONTINUOUS
370
-3
390
F
  0
LAYER
  5
2D6
100
AcDbSymbolTableRecord
100
AcDbLayerTableRecord
  2
RESC1608N_45000__RESC160-112_22
 70
0
 62
7
  6
CONTINUOUS
370
-3
390
F
  0
LAYER
  5
2D7
100
AcDbSymbolTableRecord
100
AcDbLayerTableRecord
  2
RESC1608N_45000__RESC160-112_23
 70
0
 62
7
  6
CONTINUOUS
370
-3
390
F
  0
LAYER
  5
2D8
100
AcDbSymbolTableRecord
100
AcDbLayerTableRecord
  2
RESC1608N_45000__RESC160-112_24
 70
0
 62
7
  6
CONTINUOUS
370
-3
390
F
  0
LAYER
  5
2D9
100
AcDbSymbolTableRecord
100
AcDbLayerTableRecord
  2
RESC1608N_45000__RESC160-112_25
 70
0
 62
7
  6
CONTINUOUS
370
-3
390
F
  0
LAYER
  5
2DA
100
AcDbSymbolTableRecord
100
AcDbLayerTableRecord
  2
RESC1608N_45000__RESC160-112_26
 70
0
 62
7
  6
CONTINUOUS
370
-3
390
F
  0
LAYER
  5
2DB
100
AcDbSymbolTableRecord
100
AcDbLayerTableRecord
  2
RESC1608N_45000__RESC160-121327
 70
0
 62
7
  6
CONTINUOUS
370
-3
390
F
  0
LAYER
  5
2DC
100
AcDbSymbolTableRecord
100
AcDbLayerTableRecord
  2
RESC1608N_45000__RESC160-1213_1
 70
0
 62
7
  6
CONTINUOUS
370
-3
390
F
  0
LAYER
  5
2DD
100
AcDbSymbolTableRecord
100
AcDbLayerTableRecord
  2
RESC1608N_45000__RESC160-1213_2
 70
0
 62
7
  6
CONTINUOUS
370
-3
390
F
  0
LAYER
  5
2DE
100
AcDbSymbolTableRecord
100
AcDbLayerTableRecord
  2
RESC1608N_45000__RESC160-1213_3
 70
0
 62
7
  6
CONTINUOUS
370
-3
390
F
  0
LAYER
  5
2DF
100
AcDbSymbolTableRecord
100
AcDbLayerTableRecord
  2
RESC1608N_45000__RESC160-1213_4
 70
0
 62
7
  6
CONTINUOUS
370
-3
390
F
  0
LAYER
  5
2E0
100
AcDbSymbolTableRecord
100
AcDbLayerTableRecord
  2
RESC1608N_45000__RESC160-1213_5
 70
0
 62
7
  6
CONTINUOUS
370
-3
390
F
  0
LAYER
  5
2E1
100
AcDbSymbolTableRecord
100
AcDbLayerTableRecord
  2
RESC1608N_45000__RESC160-1213_6
 70
0
 62
7
  6
CONTINUOUS
370
-3
390
F
  0
LAYER
  5
2E2
100
AcDbSymbolTableRecord
100
AcDbLayerTableRecord
  2
RESC1608N_45000__RESC160-1213_7
 70
0
 62
7
  6
CONTINUOUS
370
-3
390
F
  0
LAYER
  5
2E3
100
AcDbSymbolTableRecord
100
AcDbLayerTableRecord
  2
RESC1608N_45000__RESC160-1213_8
 70
0
 62
7
  6
CONTINUOUS
370
-3
390
F
  0
LAYER
  5
2E4
100
AcDbSymbolTableRecord
100
AcDbLayerTableRecord
  2
RESC1608N_45000__RESC160-1213_9
 70
0
 62
7
  6
CONTINUOUS
370
-3
390
F
  0
LAYER
  5
2E5
100
AcDbSymbolTableRecord
100
AcDbLayerTableRecord
  2
RESC1608N_45000__RESC160-121_10
 70
0
 62
7
  6
CONTINUOUS
370
-3
390
F
  0
LAYER
  5
2E6
100
AcDbSymbolTableRecord
100
AcDbLayerTableRecord
  2
RESC1608N_45000__RESC160-121_11
 70
0
 62
7
  6
CONTINUOUS
370
-3
390
F
  0
LAYER
  5
2E7
100
AcDbSymbolTableRecord
100
AcDbLayerTableRecord
  2
RESC1608N_45000__RESC160-121_12
 70
0
 62
7
  6
CONTINUOUS
370
-3
390
F
  0
LAYER
  5
2E8
100
AcDbSymbolTableRecord
100
AcDbLayerTableRecord
  2
RESC1608N_45000__RESC160-121_13
 70
0
 62
7
  6
CONTINUOUS
370
-3
390
F
  0
LAYER
  5
2E9
100
AcDbSymbolTableRecord
100
AcDbLayerTableRecord
  2
RESC1608N_45000__RESC160-121_14
 70
0
 62
7
  6
CONTINUOUS
370
-3
390
F
  0
LAYER
  5
2EA
100
AcDbSymbolTableRecord
100
AcDbLayerTableRecord
  2
RESC1608N_45000__RESC160-121_15
 70
0
 62
7
  6
CONTINUOUS
370
-3
390
F
  0
LAYER
  5
2EB
100
AcDbSymbolTableRecord
100
AcDbLayerTableRecord
  2
RESC1608N_45000__RESC160-121_16
 70
0
 62
7
  6
CONTINUOUS
370
-3
390
F
  0
LAYER
  5
2EC
100
AcDbSymbolTableRecord
100
AcDbLayerTableRecord
  2
SMUSSO
 70
0
 62
7
  6
CONTINUOUS
370
-3
390
F
  0
LAYER
  5
2ED
100
AcDbSymbolTableRecord
100
AcDbLayerTableRecord
  2
SOP8-T1-RF-FINE-VIMAR_150000__S
 70
0
 62
7
  6
CONTINUOUS
370
-3
390
F
  0
LAYER
  5
2EE
100
AcDbSymbolTableRecord
100
AcDbLayerTableRecord
  2
SUPERFICI
 70
0
 62
7
  6
CONTINUOUS
370
-3
390
F
  0
LAYER
  5
2EF
100
AcDbSymbolTableRecord
100
AcDbLayerTableRecord
  2
TQFP48-F1-RF-VIMAR_160000__TQFP
 70
0
 62
7
  6
CONTINUOUS
370
-3
390
F
  0
LAYER
  5
2F0
100
AcDbSymbolTableRecord
100
AcDbLayerTableRecord
  2
TRASH
 70
0
 62
7
  6
CONTINUOUS
370
-3
390
F
  0
LAYER
  5
2F1
100
AcDbSymbolTableRecord
100
AcDbLayerTableRecord
  2
XSEC_DATUMS
 70
0
 62
7
  6
CONTINUOUS
370
-3
390
F
  0
LAYER
  5
2F2
100
AcDbSymbolTableRecord
100
AcDbLayerTableRecord
  2
___SHELL
 70
0
 62
7
  6
CONTINUOUS
370
-3
390
F
  0
ENDTAB
  0
TABLE
  2
STYLE
  5
3
100
AcDbSymbolTable
 70
1
  0
STYLE
  5
11
100
AcDbSymbolTableRecord
100
AcDbTextStyleTableRecord
  2
STANDARD
 70
0
 40
0.0
 41
0.8
 50
0.0
 71
0
 42
0.2
  3
txt
  4

  0
STYLE
  5
2F3
100
AcDbSymbolTableRecord
100
AcDbTextStyleTableRecord
  2
TEXTSTYLE_1
 70
0
 40
0.0
 41
0.8
 50
0.0
 71
0
 42
0.2
  3
gdt
  4

  0
ENDTAB
  0
TABLE
  2
VIEW
  5
6
100
AcDbSymbolTable
 70
0
  0
ENDTAB
  0
TABLE
  2
UCS
  5
7
100
AcDbSymbolTable
 70
0
  0
ENDTAB
  0
TABLE
  2
APPID
  5
9
100
AcDbSymbolTable
 70
1
  0
APPID
  5
2F4
100
AcDbSymbolTableRecord
100
AcDbRegAppTableRecord
  2
ACAD
 70
0
  0
ENDTAB
  0
TABLE
  2
BLOCK_RECORD
  5
1
100
AcDbSymbolTable
 70
0
  0
BLOCK_RECORD
  5
2F5
100
AcDbSymbolTableRecord
100
AcDbBlockTableRecord
  2
*Model_Space
  0
BLOCK_RECORD
  5
2F6
100
AcDbSymbolTableRecord
100
AcDbBlockTableRecord
  2
*Paper_Space
  0
ENDTAB
  0
TABLE
  2
DIMSTYLE
  5
A
100
AcDbSymbolTable
 70
1
100
AcDbDimStyleTable
 71
0
  0
DIMSTYLE
105
2F7
100
AcDbSymbolTableRecord
100
AcDbDimStyleTableRecord
  2
STANDARD
 70
0
  3

  4

 40
1.0
 41
3.0
 42
0.5
 43
0.38
 44
1.5
 45
0.0
 46
0.0
 47
0.01
 48
0.01
140
3.0
141
0.09
142
0.0
143
25.4
144
1.0
145
0.0
146
1.0
147
0.625
 71
1.0
 72
0.0
 73
0
 74
0
 75
0
 76
0
 77
1
 78
8
170
0
171
2
172
0
173
0
174
0
175
0
176
0
177
0
178
0
270
2
271
2
272
2
273
2
274
2
275
0
280
0
281
0
282
0
283
1
284
8
285
0
286
0
287
3
288
0
340
11
278
44
  0
ENDTAB
  0
ENDSEC
  0
SECTION
  2
BLOCKS
  0
BLOCK
  5
20
100
AcDbEntity
  8
0
100
AcDbBlockBegin
  2
*Model_Space
 70
0
 10
0.0
 20
0.0
 30
0.0
  3
*Model_Space
  1

  0
ENDBLK
  5
21
100
AcDbEntity
  8
0
100
AcDbBlockEnd
  0
BLOCK
  5
1C
100
AcDbEntity
  8
0
100
AcDbBlockBegin
  2
*Paper_Space
 70
0
 10
0.0
 20
0.0
 30
0.0
  3
*Paper_Space
  1

  0
ENDBLK
  5
1D
100
AcDbEntity
  8
0
100
AcDbBlockEnd
  0
ENDSEC
  0
SECTION
  2
ENTITIES
  0
LWPOLYLINE
  5
2F8
100
AcDbEntity
  8
RACCORDO
100
AcDbPolyline
 62
7
  6
CONTINUOUS
 90
10
 70
0
 10
125.2307913373
 20
71.7490561026
 10
125.2390176613
 20
71.7450383855
 10
125.2602877619
 20
71.7355091333
 10
125.2820435566
 20
71.7269813916
 10
125.3042157798
 20
71.7194898132
 10
125.3267754337
 20
71.7130513094
 10
125.3496529592
 20
71.7076927659
 10
125.3727123344
 20
71.7034452034
 10
125.3958710977
 20
71.700314643
 10
125.4191035919
 20
71.6982954449
  0
LINE
  5
2F9
100
AcDbEntity
  8
RACCORDO
100
AcDbLine
 62
253
  6
CONTINUOUS
 10
127.5879886076
 20
118.5929549732
 11
127.5923604416
 21
118.5973268072
  0
LINE
  5
2FA
100
AcDbEntity
  8
RACCORDO
100
AcDbLine
 62
253
  6
CONTINUOUS
 10
127.8379843768
 20
118.342959204
 11
127.8423562108
 21
118.347331038
  0
LINE
  5
2FB
100
AcDbEntity
  8
RACCORDO
100
AcDbLine
 62
253
  6
CONTINUOUS
 10
125.4325054895
 20
116.4885999394
 11
125.4499605544
 21
116.4973268072
  0
LINE
  5
2FC
100
AcDbEntity
  8
RACCORDO
100
AcDbLine
 62
7
  6
CONTINUOUS
 10
125.6923519801
 20
69.5973268072
 11
127.5923604416
 21
69.5973268072
  0
LINE
  5
2FD
100
AcDbEntity
  8
RACCORDO
100
AcDbLine
 62
7
  6
CONTINUOUS
 10
144.5923519801
 20
69.5973268072
 11
146.4923604416
 21
69.5973268072
  0
LINE
  5
2FE
100
AcDbEntity
  8
RACCORDO
100
AcDbLine
 62
253
  6
CONTINUOUS
 10
125.6967238141
 20
69.6016986412
 11
127.5879886076
 21
69.6016986412
  0
LINE
  5
2FF
100
AcDbEntity
  8
RACCORDO
100
AcDbLine
 62
253
  6
CONTINUOUS
 10
144.5967238141
 20
69.6016986412
 11
146.4879886076
 21
69.6016986412
  0
LWPOLYLINE
  5
300
100
AcDbEntity
  8
RACCORDO
100
AcDbPolyline
 62
7
  6
CONTINUOUS
 90
34
 70
0
 10
125.6923519801
 20
69.5973268072
 10
125.6804566948
 20
69.5976099575
 10
125.6685883553
 20
69.598458773
 10
125.6567738447
 20
69.5998713331
 10
125.6450399234
 20
69.6018444395
 10
125.633413172
 20
69.6043736255
 10
125.6219199318
 20
69.6074531655
 10
125.6105862371
 20
69.6110760859
 10
125.5994377615
 20
69.6152341814
 10
125.5884997645
 20
69.619918035
 10
125.5777970232
 20
69.6251170384
 10
125.5673537826
 20
69.6308194156
 10
125.5571937049
 20
69.6370122491
 10
125.5473398057
 20
69.6436815118
 10
125.537814407
 20
69.6508120965
 10
125.5286390918
 20
69.6583878484
 10
125.5198346448
 20
69.6663916067
 10
125.5114210104
 20
69.6748052411
 10
125.503417252
 20
69.6836096882
 10
125.4958415001
 20
69.6927850034
 10
125.4887109154
 20
69.7023104021
 10
125.4820416527
 20
69.7121643013
 10
125.4758488192
 20
69.722324379
 10
125.470146442
 20
69.7327676196
 10
125.4649474387
 20
69.7434703609
 10
125.4602635851
 20
69.7544083579
 10
125.4561054895
 20
69.7655568334
 10
125.4524825691
 20
69.7768905282
 10
125.4494030291
 20
69.7883837684
 10
125.4468738431
 20
69.8000105197
 10
125.4449007367
 20
69.8117444411
 10
125.4434881766
 20
69.8235589517
 10
125.4426393611
 20
69.8354272912
 10
125.4423562108
 20
69.8473225764
  0
LWPOLYLINE
  5
301
100
AcDbEntity
  8
RACCORDO
100
AcDbPolyline
 62
7
  6
CONTINUOUS
 90
34
 70
0
 10
144.5923519801
 20
69.5973268072
 10
144.5804566948
 20
69.5976099575
 10
144.5685883553
 20
69.598458773
 10
144.5567738447
 20
69.5998713331
 10
144.5450399234
 20
69.6018444395
 10
144.533413172
 20
69.6043736255
 10
144.5219199318
 20
69.6074531655
 10
144.5105862371
 20
69.6110760859
 10
144.4994377615
 20
69.6152341814
 10
144.4884997645
 20
69.619918035
 10
144.4777970232
 20
69.6251170384
 10
144.4673537826
 20
69.6308194156
 10
144.4571937049
 20
69.6370122491
 10
144.4473398057
 20
69.6436815118
 10
144.437814407
 20
69.6508120965
 10
144.4286390918
 20
69.6583878484
 10
144.4198346448
 20
69.6663916067
 10
144.4114210104
 20
69.6748052411
 10
144.403417252
 20
69.6836096882
 10
144.3958415001
 20
69.6927850034
 10
144.3887109154
 20
69.7023104021
 10
144.3820416527
 20
69.7121643013
 10
144.3758488192
 20
69.722324379
 10
144.370146442
 20
69.7327676196
 10
144.3649474387
 20
69.7434703609
 10
144.3602635851
 20
69.7544083579
 10
144.3561054895
 20
69.7655568334
 10
144.3524825691
 20
69.7768905282
 10
144.3494030291
 20
69.7883837684
 10
144.3468738431
 20
69.8000105197
 10
144.3449007367
 20
69.8117444411
 10
144.3434881766
 20
69.8235589517
 10
144.3426393611
 20
69.8354272912
 10
144.3423562108
 20
69.8473225764
  0
LWPOLYLINE
  5
302
100
AcDbEntity
  8
RACCORDO
100
AcDbPolyline
 62
253
  6
CONTINUOUS
 90
31
 70
0
 10
125.6967238141
 20
69.6016986412
 10
125.6836714741
 20
69.6020400484
 10
125.6706465797
 20
69.6030633111
 10
125.6576848051
 20
69.6047669153
 10
125.6448190864
 20
69.6071480454
 10
125.6320876212
 20
69.6102011588
 10
125.6195334366
 20
69.6139165986
 10
125.6071936327
 20
69.6182831497
 10
125.5950992766
 20
69.6232895796
 10
125.5832831983
 20
69.6289223281
 10
125.5717775979
 20
69.6351661298
 10
125.5606142795
 20
69.6420038116
 10
125.5498242003
 20
69.6494164416
 10
125.5394370744
 20
69.6573835839
 10
125.5294812373
 20
69.6658834808
 10
125.5199839028
 20
69.6748929026
 10
125.5109710837
 20
69.6843871958
 10
125.5024675422
 20
69.6943402992
 10
125.494496634
 20
69.7047248885
 10
125.4870802271
 20
69.7155124788
 10
125.4802386513
 20
69.7266735048
 10
125.4739906722
 20
69.7381773606
 10
125.4683534239
 20
69.7499925062
 10
125.4633423684
 20
69.7620865434
 10
125.4589712534
 20
69.7744262996
 10
125.4552520639
 20
69.786977947
 10
125.4521950027
 20
69.7997070609
 10
125.44980846
 20
69.8125787006
 10
125.4480989768
 20
69.825557558
 10
125.4470712338
 20
69.8386080563
 10
125.4467280448
 20
69.8516944104
  0
LWPOLYLINE
  5
303
100
AcDbEntity
  8
RACCORDO
100
AcDbPolyline
 62
253
  6
CONTINUOUS
 90
31
 70
0
 10
144.5967238141
 20
69.6016986412
 10
144.5836403281
 20
69.6020416798
 10
144.5705927015
 20
69.6030689697
 10
144.5576166953
 20
69.6047776952
 10
144.5447478745
 20
69.6071631732
 10
144.5320215099
 20
69.6102188654
 10
144.5194724823
 20
69.6139363968
 10
144.507135186
 20
69.6183055783
 10
144.4950434353
 20
69.6233144348
 10
144.4832303715
 20
69.628949238
 10
144.471728372
 20
69.6351945438
 10
144.4605689615
 20
69.6420332353
 10
144.4497827259
 20
69.6494465686
 10
144.4393992282
 20
69.6574142254
 10
144.4294469277
 20
69.6659143677
 10
144.4199531018
 20
69.6749236982
 10
144.4109437713
 20
69.6844175241
 10
144.402443629
 20
69.6943698246
 10
144.3944759722
 20
69.7047533222
 10
144.3870626389
 20
69.7155395578
 10
144.3802239475
 20
69.7266989684
 10
144.3739786416
 20
69.7382009679
 10
144.3683438384
 20
69.7500140317
 10
144.3633349819
 20
69.7621057824
 10
144.3589658004
 20
69.7744430786
 10
144.355248269
 20
69.7869921063
 10
144.3521925768
 20
69.7997184709
 10
144.3498070989
 20
69.8125872917
 10
144.3480983733
 20
69.8255632979
 10
144.3470710834
 20
69.8386109245
 10
144.3467280448
 20
69.8516944104
  0
LINE
  5
304
100
AcDbEntity
  8
RACCORDO
100
AcDbLine
 62
253
  6
CONTINUOUS
 10
125.4499605544
 20
71.6973268072
 11
125.4325054895
 21
71.706053675
  0
LINE
  5
305
100
AcDbEntity
  8
RACCORDO
100
AcDbLine
 62
253
  6
CONTINUOUS
 10
127.5879886076
 20
69.6016986412
 11
127.5923604416
 21
69.5973268072
  0
LINE
  5
306
100
AcDbEntity
  8
RACCORDO
100
AcDbLine
 62
253
  6
CONTINUOUS
 10
127.8379843768
 20
69.8516944104
 11
127.8423562108
 21
69.8473225764
  0
LINE
  5
307
100
AcDbEntity
  8
RACCORDO
100
AcDbLine
 62
7
  6
CONTINUOUS
 10
127.2923562108
 20
114.9473268072
 11
125.5280534304
 21
113.1830240267
  0
LINE
  5
308
100
AcDbEntity
  8
ASSI
100
AcDbLine
 62
7
  6
CONTINUOUS
 10
127.2923562108
 20
114.9473268072
 11
125.5280534304
 21
113.1830240267
  0
LINE
  5
309
100
AcDbEntity
  8
RACCORDO
100
AcDbLine
 62
7
  6
CONTINUOUS
 10
127.8423562108
 20
115.4973268072
 11
128.8336293431
 21
116.4885999394
  0
LINE
  5
30A
100
AcDbEntity
  8
RACCORDO
100
AcDbLine
 62
7
  6
CONTINUOUS
 10
126.0073386655
 20
113.4154573663
 11
127.5392081064
 21
114.9473268072
  0
LINE
  5
30B
100
AcDbEntity
  8
ASSI
100
AcDbLine
 62
7
  6
CONTINUOUS
 10
126.0073386655
 20
113.4154573663
 11
127.5392081064
 21
114.9473268072
  0
LINE
  5
30C
100
AcDbEntity
  8
RACCORDO
100
AcDbLine
 62
253
  6
CONTINUOUS
 10
126.2099083381
 20
112.9264109155
 11
126.191653302
 21
112.9081558794
  0
LINE
  5
30D
100
AcDbEntity
  8
ASSI
100
AcDbLine
 62
253
  6
CONTINUOUS
 10
126.2099083381
 20
112.9264109155
 11
126.191653302
 21
112.9081558794
  0
LWPOLYLINE
  5
30E
100
AcDbEntity
  8
RACCORDO
100
AcDbPolyline
 62
7
  6
CONTINUOUS
 90
11
 70
0
 10
146.7423558417
 20
71.6973852588
 10
146.7656088298
 20
71.6982954449
 10
146.788841324
 20
71.700314643
 10
146.8120000873
 20
71.7034452034
 10
146.8350594625
 20
71.7076927659
 10
146.857936988
 20
71.7130513094
 10
146.8804966419
 20
71.7194898132
 10
146.9026688651
 20
71.7269813916
 10
146.9244246598
 20
71.7355091333
 10
146.9456947604
 20
71.7450383855
 10
146.9539210844
 20
71.7490561026
  0
LINE
  5
30F
100
AcDbEntity
  8
RACCORDO
100
AcDbLine
 62
7
  6
CONTINUOUS
 10
146.7423562108
 20
71.6973858011
 11
146.7347518673
 21
71.6973268072
  0
LINE
  5
310
100
AcDbEntity
  8
RACCORDO
100
AcDbLine
 62
253
  6
CONTINUOUS
 10
125.4467280448
 20
69.8516944104
 11
127.8379843768
 21
69.8516944104
  0
LINE
  5
311
100
AcDbEntity
  8
RACCORDO
100
AcDbLine
 62
253
  6
CONTINUOUS
 10
144.3467280448
 20
69.8516944104
 11
146.7379843768
 21
69.8516944104
  0
LINE
  5
312
100
AcDbEntity
  8
RACCORDO
100
AcDbLine
 62
253
  6
CONTINUOUS
 10
125.4467280448
 20
70.2529892399
 11
127.8379843768
 21
70.2529892399
  0
LINE
  5
313
100
AcDbEntity
  8
RACCORDO
100
AcDbLine
 62
253
  6
CONTINUOUS
 10
144.3467280448
 20
70.2529892399
 11
146.7379843768
 21
70.2529892399
  0
LINE
  5
314
100
AcDbEntity
  8
DRAFT
100
AcDbLine
 62
7
  6
CONTINUOUS
 10
131.6923562108
 20
70.2973268072
 11
140.4923562108
 21
70.2973268072
  0
LINE
  5
315
100
AcDbEntity
  8
DRAFT
100
AcDbLine
 62
7
  6
CONTINUOUS
 10
139.5923562108
 20
70.303144637
 11
132.5923562108
 21
70.303144637
  0
LINE
  5
316
100
AcDbEntity
  8
ASSI
100
AcDbLine
 62
253
  6
CONTINUOUS
 10
140.448705564
 20
70.3409774541
 11
139.5923562108
 21
70.3409774541
  0
LINE
  5
317
100
AcDbEntity
  8
ASSI
100
AcDbLine
 62
253
  6
CONTINUOUS
 10
132.5923562108
 20
70.3409774541
 11
131.7360068577
 21
70.3409774541
  0
LINE
  5
318
100
AcDbEntity
  8
RACCORDO
100
AcDbLine
 62
253
  6
CONTINUOUS
 10
146.4879886076
 20
70.4694955909
 11
144.5967238141
 21
70.4694955909
  0
LINE
  5
319
100
AcDbEntity
  8
RACCORDO
100
AcDbLine
 62
253
  6
CONTINUOUS
 10
127.5879886076
 20
70.4694955909
 11
125.6967238141
 21
70.4694955909
  0
LINE
  5
31A
100
AcDbEntity
  8
RACCORDO
100
AcDbLine
 62
7
  6
CONTINUOUS
 10
125.691633213
 20
70.9746770764
 11
127.5930792087
 21
70.9746770764
  0
LINE
  5
31B
100
AcDbEntity
  8
RACCORDO
100
AcDbLine
 62
7
  6
CONTINUOUS
 10
144.591633213
 20
70.9746770764
 11
146.4930792087
 21
70.9746770764
  0
LINE
  5
31C
100
AcDbEntity
  8
DRAFT
100
AcDbLine
 62
7
  6
CONTINUOUS
 10
144.3423562108
 20
71.6973268072
 11
140.4923562108
 21
71.6973268072
  0
LINE
  5
31D
100
AcDbEntity
  8
DRAFT
100
AcDbLine
 62
7
  6
CONTINUOUS
 10
131.6923562108
 20
71.6973268072
 11
127.8423562108
 21
71.6973268072
  0
LINE
  5
31E
100
AcDbEntity
  8
RACCORDO
100
AcDbLine
 62
7
  6
CONTINUOUS
 10
125.4499605544
 20
71.6973268072
 11
127.8423562108
 21
71.6973268072
  0
LINE
  5
31F
100
AcDbEntity
  8
RACCORDO
100
AcDbLine
 62
7
  6
CONTINUOUS
 10
144.3423562108
 20
71.6973268072
 11
146.7347518673
 21
71.6973268072
  0
LINE
  5
320
100
AcDbEntity
  8
RACCORDO
100
AcDbLine
 62
7
  6
CONTINUOUS
 10
125.4325054895
 20
71.706053675
 11
128.8336293431
 21
71.706053675
  0
LINE
  5
321
100
AcDbEntity
  8
RACCORDO
100
AcDbLine
 62
7
  6
CONTINUOUS
 10
143.3510830786
 20
71.706053675
 11
146.7522069322
 21
71.706053675
  0
LINE
  5
322
100
AcDbEntity
  8
RACCORDO
100
AcDbLine
 62
7
  6
CONTINUOUS
 10
125.4499605544
 20
71.6973268072
 11
125.4423562108
 21
71.6973858011
  0
LINE
  5
323
100
AcDbEntity
  8
RACCORDO
100
AcDbLine
 62
7
  6
CONTINUOUS
 10
125.4191035919
 20
71.6982954449
 11
125.44235658
 21
71.6973852588
  0
LWPOLYLINE
  5
324
100
AcDbEntity
  8
RACCORDO
100
AcDbPolyline
 62
253
  6
CONTINUOUS
 90
31
 70
0
 10
126.2099083381
 20
75.268242699
 10
126.2286576253
 20
75.2499823814
 10
126.2478788664
 20
75.2322184254
 10
126.2675589296
 20
75.2149630387
 10
126.2876845402
 20
75.1982279418
 10
126.3082417776
 20
75.1820247898
 10
126.3292160485
 20
75.1663651184
 10
126.3505927984
 20
75.1512597832
 10
126.3723575578
 20
75.1367189978
 10
126.3944954148
 20
75.1227527252
 10
126.4169912016
 20
75.1093705342
 10
126.4398295053
 20
75.0965815936
 10
126.4629946782
 20
75.0843946657
 10
126.4864708487
 20
75.0728181003
 10
126.5102419322
 20
75.0618598292
 10
126.534291642
 20
75.0515273604
 10
126.5586035004
 20
75.0418277731
 10
126.5831608501
 20
75.032767713
 10
126.6079468659
 20
75.0243533876
 10
126.6329445654
 20
75.016590562
 10
126.6581368217
 20
75.0094845548
 10
126.6835063744
 20
75.0030402347
 10
126.7090358414
 20
74.9972620172
 10
126.7347077313
 20
74.992153861
 10
126.7605044551
 20
74.987719266
 10
126.7864085088
 20
74.9839612479
 10
126.8124019747
 20
74.980882413
 10
126.8384665283
 20
74.9784849115
 10
126.8645841362
 20
74.9767703548
 10
126.890737074
 20
74.9757398589
 10
126.9169074235
 20
74.9753940892
  0
LWPOLYLINE
  5
325
100
AcDbEntity
  8
ASSI
100
AcDbPolyline
 62
253
  6
CONTINUOUS
 90
31
 70
0
 10
126.2099083381
 20
75.268242699
 10
126.2286576253
 20
75.2499823814
 10
126.2478788664
 20
75.2322184254
 10
126.2675589296
 20
75.2149630387
 10
126.2876845402
 20
75.1982279418
 10
126.3082417776
 20
75.1820247898
 10
126.3292160485
 20
75.1663651184
 10
126.3505927984
 20
75.1512597832
 10
126.3723575578
 20
75.1367189978
 10
126.3944954148
 20
75.1227527252
 10
126.4169912016
 20
75.1093705342
 10
126.4398295053
 20
75.0965815936
 10
126.4629946782
 20
75.0843946657
 10
126.4864708487
 20
75.0728181003
 10
126.5102419322
 20
75.0618598292
 10
126.534291642
 20
75.0515273604
 10
126.5586035004
 20
75.0418277731
 10
126.5831608501
 20
75.032767713
 10
126.6079468659
 20
75.0243533876
 10
126.6329445654
 20
75.016590562
 10
126.6581368217
 20
75.0094845548
 10
126.6835063744
 20
75.0030402347
 10
126.7090358414
 20
74.9972620172
 10
126.7347077313
 20
74.992153861
 10
126.7605044551
 20
74.987719266
 10
126.7864085088
 20
74.9839612479
 10
126.8124019747
 20
74.980882413
 10
126.8384665283
 20
74.9784849115
 10
126.8645841362
 20
74.9767703548
 10
126.890737074
 20
74.9757398589
 10
126.9169074235
 20
74.9753940892
  0
LINE
  5
326
100
AcDbEntity
  8
RACCORDO
100
AcDbLine
 62
7
  6
CONTINUOUS
 10
125.5280534304
 20
75.0116295877
 11
127.2923562108
 21
73.2473268072
  0
LINE
  5
327
100
AcDbEntity
  8
ASSI
100
AcDbLine
 62
7
  6
CONTINUOUS
 10
125.5280534304
 20
75.0116295877
 11
127.2923562108
 21
73.2473268072
  0
LINE
  5
328
100
AcDbEntity
  8
RACCORDO
100
AcDbLine
 62
7
  6
CONTINUOUS
 10
127.8423562108
 20
72.6973268072
 11
128.8336293431
 21
71.706053675
  0
LINE
  5
329
100
AcDbEntity
  8
RACCORDO
100
AcDbLine
 62
7
  6
CONTINUOUS
 10
127.5392081064
 20
73.2473268072
 11
126.0073386655
 21
74.7791962481
  0
LINE
  5
32A
100
AcDbEntity
  8
ASSI
100
AcDbLine
 62
7
  6
CONTINUOUS
 10
127.5392081064
 20
73.2473268072
 11
126.0073386655
 21
74.7791962481
  0
LINE
  5
32B
100
AcDbEntity
  8
RACCORDO
100
AcDbLine
 62
253
  6
CONTINUOUS
 10
126.191653302
 20
75.286497735
 11
126.2099083381
 21
75.268242699
  0
LINE
  5
32C
100
AcDbEntity
  8
ASSI
100
AcDbLine
 62
253
  6
CONTINUOUS
 10
126.191653302
 20
75.286497735
 11
126.2099083381
 21
75.268242699
  0
LINE
  5
32D
100
AcDbEntity
  8
ASSI
100
AcDbLine
 62
7
  6
CONTINUOUS
 10
132.4985634385
 20
117.7224726098
 11
132.4720296378
 21
117.6922622185
  0
LINE
  5
32E
100
AcDbEntity
  8
ASSI
100
AcDbLine
 62
7
  6
CONTINUOUS
 10
132.4720296378
 20
117.6922622185
 11
132.4416323142
 21
117.6581700942
  0
LINE
  5
32F
100
AcDbEntity
  8
ASSI
100
AcDbLine
 62
7
  6
CONTINUOUS
 10
132.4416323142
 20
117.6581700942
 11
132.4073663528
 21
117.6202075644
  0
LINE
  5
330
100
AcDbEntity
  8
ASSI
100
AcDbLine
 62
7
  6
CONTINUOUS
 10
132.4073663528
 20
117.6202075644
 11
132.3488671715
 21
117.5561110203
  0
LINE
  5
331
100
AcDbEntity
  8
ASSI
100
AcDbLine
 62
7
  6
CONTINUOUS
 10
132.3488671715
 20
117.5561110203
 11
132.1643862232
 21
117.356585026
  0
LWPOLYLINE
  5
332
100
AcDbEntity
  8
RACCORDO
100
AcDbPolyline
 62
253
  6
CONTINUOUS
 90
34
 70
0
 10
126.1916533018
 20
112.9081558795
 10
126.1584067947
 20
112.8741045262
 10
126.1259796736
 20
112.8392715146
 10
126.0943903152
 20
112.803676552
 10
126.0636565547
 20
112.7673396972
 10
126.0337958833
 20
112.7302815876
 10
126.0048254194
 20
112.6925234431
 10
125.9767616124
 20
112.654086706
 10
125.9496203053
 20
112.6149930799
 10
125.9234169154
 20
112.5752647702
 10
125.8981663036
 20
112.5349243207
 10
125.873882733
 20
112.4939945322
 10
125.8505799149
 20
112.452498516
 10
125.8282710323
 20
112.4104597437
 10
125.8069687312
 20
112.3679020427
 10
125.7866850779
 20
112.3248495162
 10
125.7674315573
 20
112.2813265393
 10
125.7492190728
 20
112.2373577586
 10
125.7320579425
 20
112.1929680848
 10
125.7159578846
 20
112.1481826558
 10
125.7009280139
 20
112.1030268281
 10
125.6869768412
 20
112.0575261765
 10
125.674112273
 20
112.0117064912
 10
125.6623415847
 20
111.9655936913
 10
125.6516714232
 20
111.9192138147
 10
125.6421078256
 20
111.8725930697
 10
125.6336562246
 20
111.8257579053
 10
125.6263214201
 20
111.7787349251
 10
125.6201075595
 20
111.7315507067
 10
125.6150181686
 20
111.6842320154
 10
125.6110561417
 20
111.6368058761
 10
125.6082237081
 20
111.589299221
 10
125.6065224488
 20
111.5417388732
 10
125.6059533108
 20
111.4941517625
  0
LWPOLYLINE
  5
333
100
AcDbEntity
  8
ASSI
100
AcDbPolyline
 62
253
  6
CONTINUOUS
 90
34
 70
0
 10
126.1916533018
 20
112.9081558795
 10
126.1584067947
 20
112.8741045262
 10
126.1259796736
 20
112.8392715146
 10
126.0943903152
 20
112.803676552
 10
126.0636565547
 20
112.7673396972
 10
126.0337958833
 20
112.7302815876
 10
126.0048254194
 20
112.6925234431
 10
125.9767616124
 20
112.654086706
 10
125.9496203053
 20
112.6149930799
 10
125.9234169154
 20
112.5752647702
 10
125.8981663036
 20
112.5349243207
 10
125.873882733
 20
112.4939945322
 10
125.8505799149
 20
112.452498516
 10
125.8282710323
 20
112.4104597437
 10
125.8069687312
 20
112.3679020427
 10
125.7866850779
 20
112.3248495162
 10
125.7674315573
 20
112.2813265393
 10
125.7492190728
 20
112.2373577586
 10
125.7320579425
 20
112.1929680848
 10
125.7159578846
 20
112.1481826558
 10
125.7009280139
 20
112.1030268281
 10
125.6869768412
 20
112.0575261765
 10
125.674112273
 20
112.0117064912
 10
125.6623415847
 20
111.9655936913
 10
125.6516714232
 20
111.9192138147
 10
125.6421078256
 20
111.8725930697
 10
125.6336562246
 20
111.8257579053
 10
125.6263214201
 20
111.7787349251
 10
125.6201075595
 20
111.7315507067
 10
125.6150181686
 20
111.6842320154
 10
125.6110561417
 20
111.6368058761
 10
125.6082237081
 20
111.589299221
 10
125.6065224488
 20
111.5417388732
 10
125.6059533108
 20
111.4941517625
  0
LWPOLYLINE
  5
334
100
AcDbEntity
  8
RACCORDO
100
AcDbPolyline
 62
253
  6
CONTINUOUS
 90
34
 70
0
 10
126.8986496159
 20
112.2011540225
 10
126.8820116292
 20
112.1841139485
 10
126.8658009531
 20
112.1667026057
 10
126.8500175874
 20
112.1489199941
 10
126.8346528948
 20
112.1307554388
 10
126.8197155127
 20
112.1122196147
 10
126.8052313536
 20
112.0933445466
 10
126.7912013656
 20
112.074129837
 10
126.7776246005
 20
112.0545758834
 10
126.764524127
 20
112.0347159036
 10
126.75190077
 20
112.0145493989
 10
126.7397537044
 20
111.994076868
 10
126.7281035237
 20
111.9733330245
 10
126.7169510631
 20
111.9523173968
 10
126.7062954874
 20
111.9310304566
 10
126.6961548845
 20
111.9095083322
 10
126.6865301287
 20
111.8877506222
 10
126.6774203457
 20
111.865757728
 10
126.6688410005
 20
111.8435669827
 10
126.6607929944
 20
111.8211780492
 10
126.653275426
 20
111.7985912647
 10
126.6463010563
 20
111.7758449736
 10
126.6398708107
 20
111.752938921
 10
126.6339837637
 20
111.7298733618
 10
126.6286498997
 20
111.7066874059
 10
126.6238701538
 20
111.6833808231
 10
126.619643591
 20
111.6599538435
 10
126.6159773896
 20
111.6364462676
 10
126.6128725028
 20
111.6128577675
 10
126.6103279775
 20
111.5891886711
 10
126.6083481332
 20
111.5654797616
 10
126.6069344098
 20
111.5417446332
 10
126.6060853675
 20
111.5179696918
 10
126.6058010062
 20
111.4941549371
  0
LWPOLYLINE
  5
335
100
AcDbEntity
  8
ASSI
100
AcDbPolyline
 62
253
  6
CONTINUOUS
 90
34
 70
0
 10
126.8986496159
 20
112.2011540225
 10
126.8820116292
 20
112.1841139485
 10
126.8658009531
 20
112.1667026057
 10
126.8500175874
 20
112.1489199941
 10
126.8346528948
 20
112.1307554388
 10
126.8197155127
 20
112.1122196147
 10
126.8052313536
 20
112.0933445466
 10
126.7912013656
 20
112.074129837
 10
126.7776246005
 20
112.0545758834
 10
126.764524127
 20
112.0347159036
 10
126.75190077
 20
112.0145493989
 10
126.7397537044
 20
111.994076868
 10
126.7281035237
 20
111.9733330245
 10
126.7169510631
 20
111.9523173968
 10
126.7062954874
 20
111.9310304566
 10
126.6961548845
 20
111.9095083322
 10
126.6865301287
 20
111.8877506222
 10
126.6774203457
 20
111.865757728
 10
126.6688410005
 20
111.8435669827
 10
126.6607929944
 20
111.8211780492
 10
126.653275426
 20
111.7985912647
 10
126.6463010563
 20
111.7758449736
 10
126.6398708107
 20
111.752938921
 10
126.6339837637
 20
111.7298733618
 10
126.6286498997
 20
111.7066874059
 10
126.6238701538
 20
111.6833808231
 10
126.619643591
 20
111.6599538435
 10
126.6159773896
 20
111.6364462676
 10
126.6128725028
 20
111.6128577675
 10
126.6103279775
 20
111.5891886711
 10
126.6083481332
 20
111.5654797616
 10
126.6069344098
 20
111.5417446332
 10
126.6060853675
 20
111.5179696918
 10
126.6058010062
 20
111.4941549371
  0
LINE
  5
336
100
AcDbEntity
  8
RACCORDO
100
AcDbLine
 62
253
  6
CONTINUOUS
 10
126.9169074235
 20
112.2194118301
 11
126.8986496159
 21
112.2011540225
  0
LINE
  5
337
100
AcDbEntity
  8
ASSI
100
AcDbLine
 62
253
  6
CONTINUOUS
 10
126.9169074235
 20
112.2194118301
 11
126.8986496159
 21
112.2011540225
  0
LINE
  5
338
100
AcDbEntity
  8
DRAFT
100
AcDbLine
 62
7
  6
CONTINUOUS
 10
128.6923562108
 20
113.7973268072
 11
128.6033353797
 21
113.7083059761
  0
LINE
  5
339
100
AcDbEntity
  8
ASSI
100
AcDbLine
 62
7
  6
CONTINUOUS
 10
128.6923562108
 20
113.7973268072
 11
128.6033353797
 21
113.7083059761
  0
LINE
  5
33A
100
AcDbEntity
  8
RACCORDO
100
AcDbLine
 62
7
  6
CONTINUOUS
 10
128.8493777123
 20
113.8543483087
 11
128.7923562108
 21
113.7973268072
  0
LINE
  5
33B
100
AcDbEntity
  8
DRAFT
100
AcDbLine
 62
7
  6
CONTINUOUS
 10
132.5923562108
 20
71.7592875685
 11
133.0923562108
 21
71.7592875685
  0
LINE
  5
33C
100
AcDbEntity
  8
DRAFT
100
AcDbLine
 62
7
  6
CONTINUOUS
 10
139.0923562108
 20
71.7592875685
 11
139.5923562108
 21
71.7592875685
  0
LINE
  5
33D
100
AcDbEntity
  8
RACCORDO
100
AcDbLine
 62
253
  6
CONTINUOUS
 10
128.7550113776
 20
71.7846716405
 11
133.0923562108
 21
71.7846716405
  0
LINE
  5
33E
100
AcDbEntity
  8
RACCORDO
100
AcDbLine
 62
253
  6
CONTINUOUS
 10
139.0923562108
 20
71.7846716405
 11
143.4297010441
 21
71.7846716405
  0
LINE
  5
33F
100
AcDbEntity
  8
0
100
AcDbLine
 62
7
  6
CONTINUOUS
 10
139.0923562108
 20
72.3973268072
 11
133.0923562108
 21
72.3973268072
  0
LINE
  5
340
100
AcDbEntity
  8
RACCORDO
100
AcDbLine
 62
253
  6
CONTINUOUS
 10
128.5082554917
 20
72.7846335635
 11
133.0923562108
 21
72.7846335635
  0
LINE
  5
341
100
AcDbEntity
  8
RACCORDO
100
AcDbLine
 62
253
  6
CONTINUOUS
 10
139.0923562108
 20
72.7846335635
 11
143.67645693
 21
72.7846335635
  0
LINE
  5
342
100
AcDbEntity
  8
0
100
AcDbLine
 62
7
  6
CONTINUOUS
 10
139.0923562108
 20
73.0973268072
 11
133.0923562108
 21
73.0973268072
  0
LINE
  5
343
100
AcDbEntity
  8
DRAFT
100
AcDbLine
 62
7
  6
CONTINUOUS
 10
145.7423562108
 20
73.1973268072
 11
144.3423562108
 21
73.1973268072
  0
LINE
  5
344
100
AcDbEntity
  8
DRAFT
100
AcDbLine
 62
7
  6
CONTINUOUS
 10
127.8423562108
 20
73.1973268072
 11
126.4423562108
 21
73.1973268072
  0
LINE
  5
345
100
AcDbEntity
  8
RACCORDO
100
AcDbLine
 62
7
  6
CONTINUOUS
 10
127.8423562108
 20
73.1973268072
 11
128.850534509
 21
73.1973268072
  0
LINE
  5
346
100
AcDbEntity
  8
RACCORDO
100
AcDbLine
 62
7
  6
CONTINUOUS
 10
143.3341779127
 20
73.1973268072
 11
144.3423562108
 21
73.1973268072
  0
LINE
  5
347
100
AcDbEntity
  8
DRAFT
100
AcDbLine
 62
7
  6
CONTINUOUS
 10
127.2923562108
 20
73.2473268072
 11
128.6923562108
 21
73.2473268072
  0
LINE
  5
348
100
AcDbEntity
  8
ASSI
100
AcDbLine
 62
7
  6
CONTINUOUS
 10
127.2923562108
 20
73.2473268072
 11
128.6923562108
 21
73.2473268072
  0
LINE
  5
349
100
AcDbEntity
  8
DRAFT
100
AcDbLine
 62
7
  6
CONTINUOUS
 10
143.4923562108
 20
73.2473268072
 11
144.8923562108
 21
73.2473268072
  0
LINE
  5
34A
100
AcDbEntity
  8
ASSI
100
AcDbLine
 62
7
  6
CONTINUOUS
 10
143.4923562108
 20
73.2473268072
 11
144.8923562108
 21
73.2473268072
  0
LINE
  5
34B
100
AcDbEntity
  8
RACCORDO
100
AcDbLine
 62
253
  6
CONTINUOUS
 10
142.450534509
 20
73.514402524
 11
129.7341779127
 21
73.514402524
  0
LINE
  5
34C
100
AcDbEntity
  8
RACCORDO
100
AcDbLine
 62
253
  6
CONTINUOUS
 10
126.8986496159
 20
75.993499592
 11
126.9169074235
 21
75.9752417844
  0
LINE
  5
34D
100
AcDbEntity
  8
ASSI
100
AcDbLine
 62
253
  6
CONTINUOUS
 10
126.8986496159
 20
75.993499592
 11
126.9169074235
 21
75.9752417844
  0
LINE
  5
34E
100
AcDbEntity
  8
DRAFT
100
AcDbLine
 62
7
  6
CONTINUOUS
 10
128.6923562108
 20
74.3973268072
 11
128.6033353797
 21
74.4863476384
  0
LINE
  5
34F
100
AcDbEntity
  8
ASSI
100
AcDbLine
 62
7
  6
CONTINUOUS
 10
128.6923562108
 20
74.3973268072
 11
128.6033353797
 21
74.4863476384
  0
LINE
  5
350
100
AcDbEntity
  8
RACCORDO
100
AcDbLine
 62
7
  6
CONTINUOUS
 10
128.8493777123
 20
74.3403053058
 11
128.7923562108
 21
74.3973268072
  0
LINE
  5
351
100
AcDbEntity
  8
ASSI
100
AcDbLine
 62
7
  6
CONTINUOUS
 10
132.1643862232
 20
70.8409689925
 11
132.259699959
 21
70.7378814455
  0
LINE
  5
352
100
AcDbEntity
  8
ASSI
100
AcDbLine
 62
7
  6
CONTINUOUS
 10
132.259699959
 20
70.7378814455
 11
132.3486858048
 21
70.641033375
  0
LINE
  5
353
100
AcDbEntity
  8
ASSI
100
AcDbLine
 62
7
  6
CONTINUOUS
 10
132.3486858048
 20
70.641033375
 11
132.4071333531
 21
70.5767704383
  0
LINE
  5
354
100
AcDbEntity
  8
ASSI
100
AcDbLine
 62
7
  6
CONTINUOUS
 10
132.4071333531
 20
70.5767704383
 11
132.4413600015
 21
70.5387065286
  0
LWPOLYLINE
  5
355
100
AcDbEntity
  8
ASSI
100
AcDbPolyline
 62
7
  6
CONTINUOUS
 90
20
 70
0
 10
132.4413600015
 20
70.5387065286
 10
132.4717327105
 20
70.5045000526
 10
132.4854730326
 20
70.4888481144
 10
132.4982667181
 20
70.4741491468
 10
132.5101645207
 20
70.4603291677
 10
132.5211720996
 20
70.4473899286
 10
132.5313022624
 20
70.4353296781
 10
132.5406053727
 20
70.4240691793
 10
132.5490855616
 20
70.4136068824
 10
132.5567561291
 20
70.4039443373
 10
132.5636643597
 20
70.3950069566
 10
132.5698254152
 20
70.3867752096
 10
132.5752262151
 20
70.3792686271
 10
132.57986572
 20
70.3724712143
 10
132.5837539434
 20
70.3663910766
 10
132.5869016431
 20
70.3610201087
 10
132.5893177783
 20
70.3563179998
 10
132.5910189523
 20
70.3522713131
 10
132.5920252612
 20
70.3488934855
 10
132.5923562108
 20
70.3461845169
  0
LWPOLYLINE
  5
356
100
AcDbEntity
  8
SUPERFICI
100
AcDbPolyline
 62
253
  6
CONTINUOUS
 90
31
 70
0
 10
145.2678049982
 20
74.9753940892
 10
145.2939753477
 20
74.9757398589
 10
145.3201282855
 20
74.9767703548
 10
145.3462458934
 20
74.9784849115
 10
145.3723104469
 20
74.980882413
 10
145.3983039129
 20
74.9839612479
 10
145.4242079666
 20
74.987719266
 10
145.4500046904
 20
74.992153861
 10
145.4756765803
 20
74.9972620172
 10
145.5012060473
 20
75.0030402347
 10
145.5265755999
 20
75.0094845548
 10
145.5517678562
 20
75.016590562
 10
145.5767655558
 20
75.0243533876
 10
145.6015515716
 20
75.032767713
 10
145.6261089213
 20
75.0418277731
 10
145.6504207797
 20
75.0515273604
 10
145.6744704895
 20
75.0618598292
 10
145.6982415729
 20
75.0728181003
 10
145.7217177435
 20
75.0843946657
 10
145.7448829164
 20
75.0965815936
 10
145.76772122
 20
75.1093705342
 10
145.7902170069
 20
75.1227527252
 10
145.8123548639
 20
75.1367189978
 10
145.8341196233
 20
75.1512597832
 10
145.8554963732
 20
75.1663651184
 10
145.8764706441
 20
75.1820247898
 10
145.8970278815
 20
75.1982279418
 10
145.9171534921
 20
75.2149630387
 10
145.9368335553
 20
75.2322184254
 10
145.9560547964
 20
75.2499823814
 10
145.9748040836
 20
75.268242699
  0
LINE
  5
357
100
AcDbEntity
  8
DRAFT
100
AcDbLine
 62
7
  6
CONTINUOUS
 10
126.5977062887
 20
73.6637560428
 11
126.8759269752
 21
73.6637560428
  0
LINE
  5
358
100
AcDbEntity
  8
DRAFT
100
AcDbLine
 62
7
  6
CONTINUOUS
 10
128.6923562108
 20
73.6637560428
 11
128.7405775255
 21
73.6637560428
  0
LINE
  5
359
100
AcDbEntity
  8
DRAFT
100
AcDbLine
 62
7
  6
CONTINUOUS
 10
143.4441348962
 20
73.6637560428
 11
143.4923562108
 21
73.6637560428
  0
LINE
  5
35A
100
AcDbEntity
  8
DRAFT
100
AcDbLine
 62
7
  6
CONTINUOUS
 10
145.3087854465
 20
73.6637560428
 11
145.587006133
 21
73.6637560428
  0
LINE
  5
35B
100
AcDbEntity
  8
RACCORDO
100
AcDbLine
 62
253
  6
CONTINUOUS
 10
142.4476509788
 20
74.0143834856
 11
129.7370614429
 21
74.0143834856
  0
LINE
  5
35C
100
AcDbEntity
  8
DRAFT
100
AcDbLine
 62
7
  6
CONTINUOUS
 10
133.5923562108
 20
74.0440929137
 11
133.6510450877
 21
74.0440929137
  0
LINE
  5
35D
100
AcDbEntity
  8
DRAFT
100
AcDbLine
 62
7
  6
CONTINUOUS
 10
138.533667334
 20
74.0440929137
 11
138.5923562108
 21
74.0440929137
  0
LINE
  5
35E
100
AcDbEntity
  8
DRAFT
100
AcDbLine
 62
7
  6
CONTINUOUS
 10
139.5923562108
 20
74.0973268072
 11
138.5923562108
 21
74.0973268072
  0
LINE
  5
35F
100
AcDbEntity
  8
DRAFT
100
AcDbLine
 62
7
  6
CONTINUOUS
 10
133.5923562108
 20
74.0973268072
 11
132.5923562108
 21
74.0973268072
  0
LINE
  5
360
100
AcDbEntity
  8
RACCORDO
100
AcDbLine
 62
253
  6
CONTINUOUS
 10
143.3341779127
 20
74.1403086904
 11
142.450534509
 21
74.1403086904
  0
LINE
  5
361
100
AcDbEntity
  8
RACCORDO
100
AcDbLine
 62
253
  6
CONTINUOUS
 10
129.7341779127
 20
74.1403086904
 11
128.850534509
 21
74.1403086904
  0
LINE
  5
362
100
AcDbEntity
  8
DRAFT
100
AcDbLine
 62
7
  6
CONTINUOUS
 10
129.8441348962
 20
74.1749959306
 11
133.5923562108
 21
74.1749959306
  0
LINE
  5
363
100
AcDbEntity
  8
DRAFT
100
AcDbLine
 62
7
  6
CONTINUOUS
 10
138.5923562108
 20
74.1749959306
 11
142.3405775255
 21
74.1749959306
  0
LINE
  5
364
100
AcDbEntity
  8
DRAFT
100
AcDbLine
 62
7
  6
CONTINUOUS
 10
132.5923562108
 20
74.1973268072
 11
133.5923562108
 21
74.1973268072
  0
LINE
  5
365
100
AcDbEntity
  8
ASSI
100
AcDbLine
 62
7
  6
CONTINUOUS
 10
132.5923562108
 20
74.1973268072
 11
133.5923562108
 21
74.1973268072
  0
LINE
  5
366
100
AcDbEntity
  8
DRAFT
100
AcDbLine
 62
7
  6
CONTINUOUS
 10
138.5923562108
 20
74.1973268072
 11
139.5923562108
 21
74.1973268072
  0
LINE
  5
367
100
AcDbEntity
  8
ASSI
100
AcDbLine
 62
7
  6
CONTINUOUS
 10
138.5923562108
 20
74.1973268072
 11
139.5923562108
 21
74.1973268072
  0
LINE
  5
368
100
AcDbEntity
  8
RACCORDO
100
AcDbLine
 62
7
  6
CONTINUOUS
 10
134.4942388126
 20
74.2147818722
 11
137.6904736091
 21
74.2147818722
  0
LINE
  5
369
100
AcDbEntity
  8
ASSI
100
AcDbLine
 62
7
  6
CONTINUOUS
 10
134.4942388126
 20
74.2147818722
 11
137.6904736091
 21
74.2147818722
  0
LINE
  5
36A
100
AcDbEntity
  8
DRAFT
100
AcDbLine
 62
7
  6
CONTINUOUS
 10
132.681377042
 20
74.2863476384
 11
139.5033353797
 21
74.2863476384
  0
LINE
  5
36B
100
AcDbEntity
  8
ASSI
100
AcDbLine
 62
7
  6
CONTINUOUS
 10
132.681377042
 20
74.2863476384
 11
139.5033353797
 21
74.2863476384
  0
LINE
  5
36C
100
AcDbEntity
  8
RACCORDO
100
AcDbLine
 62
253
  6
CONTINUOUS
 10
143.3353347094
 20
74.3403053058
 11
142.4493777123
 21
74.3403053058
  0
LINE
  5
36D
100
AcDbEntity
  8
RACCORDO
100
AcDbLine
 62
253
  6
CONTINUOUS
 10
129.7353347094
 20
74.3403053058
 11
128.8493777123
 21
74.3403053058
  0
LINE
  5
36E
100
AcDbEntity
  8
DRAFT
100
AcDbLine
 62
7
  6
CONTINUOUS
 10
128.6923562108
 20
74.3973268072
 11
132.5923562108
 21
74.3973268072
  0
LINE
  5
36F
100
AcDbEntity
  8
ASSI
100
AcDbLine
 62
7
  6
CONTINUOUS
 10
128.6923562108
 20
74.3973268072
 11
132.5923562108
 21
74.3973268072
  0
LINE
  5
370
100
AcDbEntity
  8
DRAFT
100
AcDbLine
 62
7
  6
CONTINUOUS
 10
139.5923562108
 20
74.3973268072
 11
143.4923562108
 21
74.3973268072
  0
LINE
  5
371
100
AcDbEntity
  8
ASSI
100
AcDbLine
 62
7
  6
CONTINUOUS
 10
139.5923562108
 20
74.3973268072
 11
143.4923562108
 21
74.3973268072
  0
LINE
  5
372
100
AcDbEntity
  8
RACCORDO
100
AcDbLine
 62
7
  6
CONTINUOUS
 10
145.4703746708
 20
74.4863476384
 11
143.581377042
 21
74.4863476384
  0
LINE
  5
373
100
AcDbEntity
  8
ASSI
100
AcDbLine
 62
7
  6
CONTINUOUS
 10
145.4703746708
 20
74.4863476384
 11
143.581377042
 21
74.4863476384
  0
LINE
  5
374
100
AcDbEntity
  8
RACCORDO
100
AcDbLine
 62
7
  6
CONTINUOUS
 10
128.6033353797
 20
74.4863476384
 11
126.7143377509
 21
74.4863476384
  0
LINE
  5
375
100
AcDbEntity
  8
ASSI
100
AcDbLine
 62
7
  6
CONTINUOUS
 10
128.6033353797
 20
74.4863476384
 11
126.7143377509
 21
74.4863476384
  0
LINE
  5
376
100
AcDbEntity
  8
DRAFT
100
AcDbLine
 62
7
  6
CONTINUOUS
 10
132.681377042
 20
74.4863476384
 11
139.5033353797
 21
74.4863476384
  0
LINE
  5
377
100
AcDbEntity
  8
ASSI
100
AcDbLine
 62
7
  6
CONTINUOUS
 10
132.681377042
 20
74.4863476384
 11
139.5033353797
 21
74.4863476384
  0
LINE
  5
378
100
AcDbEntity
  8
RACCORDO
100
AcDbLine
 62
7
  6
CONTINUOUS
 10
145.3510776145
 20
74.7743562097
 11
129.8423562108
 21
74.7743562097
  0
LINE
  5
379
100
AcDbEntity
  8
ASSI
100
AcDbLine
 62
7
  6
CONTINUOUS
 10
145.3510776145
 20
74.7743562097
 11
129.8423562108
 21
74.7743562097
  0
LINE
  5
37A
100
AcDbEntity
  8
0
100
AcDbLine
 62
7
  6
CONTINUOUS
 10
145.350354602
 20
74.7761017162
 11
135.4423562108
 21
74.7761017162
  0
LINE
  5
37B
100
AcDbEntity
  8
0
100
AcDbLine
 62
253
  6
CONTINUOUS
 10
145.2678049982
 20
74.9753940892
 11
129.9423562108
 21
74.9753940892
  0
LINE
  5
37C
100
AcDbEntity
  8
RACCORDO
100
AcDbLine
 62
253
  6
CONTINUOUS
 10
126.9169074235
 20
74.9753940892
 11
129.3423562108
 21
74.9753940892
  0
LINE
  5
37D
100
AcDbEntity
  8
ASSI
100
AcDbLine
 62
253
  6
CONTINUOUS
 10
126.9169074235
 20
74.9753940892
 11
129.3423562108
 21
74.9753940892
  0
LINE
  5
37E
100
AcDbEntity
  8
RACCORDO
100
AcDbLine
 62
7
  6
CONTINUOUS
 10
129.7402518577
 20
74.9785804693
 11
129.3423562108
 21
74.9785804693
  0
LINE
  5
37F
100
AcDbEntity
  8
ASSI
100
AcDbLine
 62
7
  6
CONTINUOUS
 10
129.7402518577
 20
74.9785804693
 11
129.3423562108
 21
74.9785804693
  0
LINE
  5
380
100
AcDbEntity
  8
0
100
AcDbLine
 62
7
  6
CONTINUOUS
 10
129.4423562108
 20
75.021302583
 11
129.9423562108
 21
75.021302583
  0
LINE
  5
381
100
AcDbEntity
  8
0
100
AcDbLine
 62
253
  6
CONTINUOUS
 10
145.2690640361
 20
75.9752417844
 11
129.4423562108
 21
75.9752417844
  0
LINE
  5
382
100
AcDbEntity
  8
RACCORDO
100
AcDbLine
 62
253
  6
CONTINUOUS
 10
126.9169074235
 20
75.9752417844
 11
129.3423562108
 21
75.9752417844
  0
LINE
  5
383
100
AcDbEntity
  8
ASSI
100
AcDbLine
 62
253
  6
CONTINUOUS
 10
126.9169074235
 20
75.9752417844
 11
129.3423562108
 21
75.9752417844
  0
LINE
  5
384
100
AcDbEntity
  8
RACCORDO
100
AcDbLine
 62
253
  6
CONTINUOUS
 10
126.6058010062
 20
76.7004986773
 11
125.605953311
 21
76.7004986773
  0
LINE
  5
385
100
AcDbEntity
  8
ASSI
100
AcDbLine
 62
253
  6
CONTINUOUS
 10
126.6058010062
 20
76.7004986773
 11
125.605953311
 21
76.7004986773
  0
LINE
  5
386
100
AcDbEntity
  8
SUPERFICI
100
AcDbLine
 62
253
  6
CONTINUOUS
 10
145.5789114155
 20
76.7004986773
 11
146.5787591107
 21
76.7004986773
  0
LINE
  5
387
100
AcDbEntity
  8
0
100
AcDbLine
 62
253
  6
CONTINUOUS
 10
128.0494990616
 20
79.8830410163
 11
127.1923562108
 21
80.3116124193
  0
LINE
  5
388
100
AcDbEntity
  8
0
100
AcDbLine
 62
253
  6
CONTINUOUS
 10
127.8352133154
 20
81.4901840012
 11
128.0494990616
 21
81.2758983891
  0
LINE
  5
389
100
AcDbEntity
  8
DRAFT
100
AcDbLine
 62
7
  6
CONTINUOUS
 10
129.8423562108
 20
74.7743562097
 11
129.7402518577
 21
74.9785804693
  0
LINE
  5
38A
100
AcDbEntity
  8
ASSI
100
AcDbLine
 62
7
  6
CONTINUOUS
 10
129.8423562108
 20
74.7743562097
 11
129.7402518577
 21
74.9785804693
  0
LINE
  5
38B
100
AcDbEntity
  8
ASSI
100
AcDbLine
 62
7
  6
CONTINUOUS
 10
140.29672115
 20
117.6572217546
 11
140.243976097
 21
117.5989334889
  0
LINE
  5
38C
100
AcDbEntity
  8
ASSI
100
AcDbLine
 62
7
  6
CONTINUOUS
 10
140.243976097
 20
117.5989334889
 11
140.1829241363
 21
117.5322660622
  0
LWPOLYLINE
  5
38D
100
AcDbEntity
  8
ASSI
100
AcDbPolyline
 62
7
  6
CONTINUOUS
 90
3
 70
0
 10
140.1829241363
 20
117.5322660622
 10
140.09208522
 20
117.4339604452
 10
140.0203261985
 20
117.356585026
  0
LINE
  5
38E
100
AcDbEntity
  8
ASSI
100
AcDbLine
 62
7
  6
CONTINUOUS
 10
140.4923562108
 20
117.8973268072
 11
140.4486719149
 21
117.8536425113
  0
LINE
  5
38F
100
AcDbEntity
  8
0
100
AcDbLine
 62
253
  6
CONTINUOUS
 10
128.6923562108
 20
77.525898255
 11
127.1923562108
 21
77.525898255
  0
LINE
  5
390
100
AcDbEntity
  8
CURVE
100
AcDbLine
 62
253
  6
CONTINUOUS
 10
147.1012410389
 20
78.0973264496
 11
147.0917668755
 21
78.0973264496
  0
LINE
  5
391
100
AcDbEntity
  8
CURVE
100
AcDbLine
 62
253
  6
CONTINUOUS
 10
147.0345454206
 20
78.0973268072
 11
147.0214438006
 21
78.0973268072
  0
LINE
  5
392
100
AcDbEntity
  8
CURVE
100
AcDbLine
 62
253
  6
CONTINUOUS
 10
146.9587217271
 20
78.0973268072
 11
146.9456201071
 21
78.0973268072
  0
LINE
  5
393
100
AcDbEntity
  8
CURVE
100
AcDbLine
 62
253
  6
CONTINUOUS
 10
147.1154522843
 20
78.1878027479
 11
147.1083466611
 21
78.1878027479
  0
LINE
  5
394
100
AcDbEntity
  8
0
100
AcDbLine
 62
253
  6
CONTINUOUS
 10
128.6923562108
 20
78.3830411057
 11
127.1923562108
 21
78.3830411057
  0
LINE
  5
395
100
AcDbEntity
  8
CURVE
100
AcDbLine
 62
253
  6
CONTINUOUS
 10
146.9062727275
 20
78.3925654928
 11
146.8933080821
 21
78.3925654928
  0
LINE
  5
396
100
AcDbEntity
  8
CURVE
100
AcDbLine
 62
253
  6
CONTINUOUS
 10
146.9966264195
 20
78.4973268072
 11
146.9835391082
 21
78.4973268072
  0
LINE
  5
397
100
AcDbEntity
  8
CURVE
100
AcDbLine
 62
253
  6
CONTINUOUS
 10
147.1083466611
 20
78.9568506043
 11
147.1154522843
 21
78.9568506043
  0
LINE
  5
398
100
AcDbEntity
  8
CURVE
100
AcDbLine
 62
253
  6
CONTINUOUS
 10
147.0917668755
 20
79.0473264496
 11
147.1012410389
 21
79.0473264496
  0
LINE
  5
399
100
AcDbEntity
  8
0
100
AcDbLine
 62
253
  6
CONTINUOUS
 10
146.1923542642
 20
75.2039509027
 11
145.9839316016
 21
75.277370217
  0
LINE
  5
39A
100
AcDbEntity
  8
ASSI
100
AcDbLine
 62
7
  6
CONTINUOUS
 10
140.4923562108
 20
70.2973268072
 11
140.448705564
 21
70.3409774541
  0
LINE
  5
39B
100
AcDbEntity
  8
0
100
AcDbLine
 62
253
  6
CONTINUOUS
 10
127.8352133154
 20
83.7401836435
 11
128.0494990616
 21
83.5258980314
  0
LINE
  5
39C
100
AcDbEntity
  8
ASSI
100
AcDbLine
 62
7
  6
CONTINUOUS
 10
140.0203261985
 20
70.8409689925
 11
140.1153274133
 21
70.7382197428
  0
LINE
  5
39D
100
AcDbEntity
  8
ASSI
100
AcDbLine
 62
7
  6
CONTINUOUS
 10
140.1153274133
 20
70.7382197428
 11
140.2039841407
 21
70.6417347008
  0
LINE
  5
39E
100
AcDbEntity
  8
ASSI
100
AcDbLine
 62
7
  6
CONTINUOUS
 10
140.2039841407
 20
70.6417347008
 11
140.2622783606
 21
70.5776497991
  0
LINE
  5
39F
100
AcDbEntity
  8
ASSI
100
AcDbLine
 62
7
  6
CONTINUOUS
 10
140.2622783606
 20
70.5776497991
 11
140.2964569881
 21
70.5396495386
  0
LWPOLYLINE
  5
3A0
100
AcDbEntity
  8
RACCORDO
100
AcDbPolyline
 62
253
  6
CONTINUOUS
 90
34
 70
0
 10
125.6059533108
 20
76.700501852
 10
125.6065224488
 20
76.6529147412
 10
125.6082237081
 20
76.6053543935
 10
125.6110561417
 20
76.5578477384
 10
125.6150181686
 20
76.510421599
 10
125.6201075595
 20
76.4631029078
 10
125.6263214201
 20
76.4159186894
 10
125.6336562246
 20
76.3688957091
 10
125.6421078256
 20
76.3220605448
 10
125.6516714232
 20
76.2754397998
 10
125.6623415847
 20
76.2290599232
 10
125.674112273
 20
76.1829471233
 10
125.6869768412
 20
76.137127438
 10
125.7009280139
 20
76.0916267864
 10
125.7159578846
 20
76.0464709587
 10
125.7320579425
 20
76.0016855297
 10
125.7492190728
 20
75.9572958559
 10
125.7674315573
 20
75.9133270752
 10
125.7866850779
 20
75.8698040983
 10
125.8069687312
 20
75.8267515717
 10
125.8282710323
 20
75.7841938708
 10
125.8505799149
 20
75.7421550984
 10
125.873882733
 20
75.7006590822
 10
125.8981663035
 20
75.6597292938
 10
125.9234169154
 20
75.6193888443
 10
125.9496203053
 20
75.5796605346
 10
125.9767616124
 20
75.5405669085
 10
126.0048254194
 20
75.5021301714
 10
126.0337958833
 20
75.4643720269
 10
126.0636565547
 20
75.4273139173
 10
126.0943903152
 20
75.3909770625
 10
126.1259796736
 20
75.3553820999
 10
126.1584067947
 20
75.3205490883
 10
126.1916533018
 20
75.2864977349
  0
LWPOLYLINE
  5
3A1
100
AcDbEntity
  8
ASSI
100
AcDbPolyline
 62
253
  6
CONTINUOUS
 90
34
 70
0
 10
125.6059533108
 20
76.700501852
 10
125.6065224488
 20
76.6529147412
 10
125.6082237081
 20
76.6053543935
 10
125.6110561417
 20
76.5578477384
 10
125.6150181686
 20
76.510421599
 10
125.6201075595
 20
76.4631029078
 10
125.6263214201
 20
76.4159186894
 10
125.6336562246
 20
76.3688957091
 10
125.6421078256
 20
76.3220605448
 10
125.6516714232
 20
76.2754397998
 10
125.6623415847
 20
76.2290599232
 10
125.674112273
 20
76.1829471233
 10
125.6869768412
 20
76.137127438
 10
125.7009280139
 20
76.0916267864
 10
125.7159578846
 20
76.0464709587
 10
125.7320579425
 20
76.0016855297
 10
125.7492190728
 20
75.9572958559
 10
125.7674315573
 20
75.9133270752
 10
125.7866850779
 20
75.8698040983
 10
125.8069687312
 20
75.8267515717
 10
125.8282710323
 20
75.7841938708
 10
125.8505799149
 20
75.7421550984
 10
125.873882733
 20
75.7006590822
 10
125.8981663035
 20
75.6597292938
 10
125.9234169154
 20
75.6193888443
 10
125.9496203053
 20
75.5796605346
 10
125.9767616124
 20
75.5405669085
 10
126.0048254194
 20
75.5021301714
 10
126.0337958833
 20
75.4643720269
 10
126.0636565547
 20
75.4273139173
 10
126.0943903152
 20
75.3909770625
 10
126.1259796736
 20
75.3553820999
 10
126.1584067947
 20
75.3205490883
 10
126.1916533018
 20
75.2864977349
  0
LINE
  5
3A2
100
AcDbEntity
  8
RACCORDO
100
AcDbLine
 62
253
  6
CONTINUOUS
 10
125.4467280448
 20
70.2529892399
 11
125.4423562108
 21
70.686841659
  0
LINE
  5
3A3
100
AcDbEntity
  8
RACCORDO
100
AcDbLine
 62
253
  6
CONTINUOUS
 10
125.6967238141
 20
70.4694955909
 11
125.691633213
 21
70.9746770764
  0
LINE
  5
3A4
100
AcDbEntity
  8
ASSI
100
AcDbLine
 62
7
  6
CONTINUOUS
 10
124.9423562108
 20
111.7690258559
 11
124.9423562108
 21
76.4256277585
  0
LINE
  5
3A5
100
AcDbEntity
  8
RACCORDO
100
AcDbLine
 62
7
  6
CONTINUOUS
 10
124.9423562108
 20
72.1961469628
 11
124.9423562108
 21
115.9985066517
  0
LINE
  5
3A6
100
AcDbEntity
  8
RACCORDO
100
AcDbLine
 62
7
  6
CONTINUOUS
 10
125.4423562108
 20
69.8473225764
 11
125.4423562108
 21
71.6973858011
  0
LINE
  5
3A7
100
AcDbEntity
  8
RACCORDO
100
AcDbLine
 62
7
  6
CONTINUOUS
 10
125.4423562108
 20
116.4972678134
 11
125.4423562108
 21
118.347331038
  0
LINE
  5
3A8
100
AcDbEntity
  8
RACCORDO
100
AcDbLine
 62
253
  6
CONTINUOUS
 10
125.4467280448
 20
118.342959204
 11
125.4467280448
 21
117.9416643745
  0
LINE
  5
3A9
100
AcDbEntity
  8
RACCORDO
100
AcDbLine
 62
253
  6
CONTINUOUS
 10
125.4467280448
 20
70.2529892399
 11
125.4467280448
 21
69.8516944104
  0
LINE
  5
3AA
100
AcDbEntity
  8
RACCORDO
100
AcDbLine
 62
253
  6
CONTINUOUS
 10
125.605953311
 20
111.4941517624
 11
125.605953311
 21
76.7005018521
  0
LINE
  5
3AB
100
AcDbEntity
  8
ASSI
100
AcDbLine
 62
253
  6
CONTINUOUS
 10
125.605953311
 20
111.4941517624
 11
125.605953311
 21
76.7005018521
  0
LINE
  5
3AC
100
AcDbEntity
  8
RACCORDO
100
AcDbLine
 62
253
  6
CONTINUOUS
 10
125.6967238141
 20
69.6016986412
 11
125.6967238141
 21
70.4694955909
  0
LINE
  5
3AD
100
AcDbEntity
  8
RACCORDO
100
AcDbLine
 62
253
  6
CONTINUOUS
 10
125.6967238141
 20
117.7973268072
 11
125.6967238141
 21
118.5929549732
  0
LINE
  5
3AE
100
AcDbEntity
  8
RACCORDO
100
AcDbLine
 62
253
  6
CONTINUOUS
 10
125.4423562108
 20
117.5078119554
 11
125.4467280448
 21
117.9416643745
  0
LINE
  5
3AF
100
AcDbEntity
  8
RACCORDO
100
AcDbLine
 62
253
  6
CONTINUOUS
 10
125.691633213
 20
117.219976538
 11
125.6974510428
 21
117.7973268072
  0
LWPOLYLINE
  5
3B0
100
AcDbEntity
  8
RACCORDO
100
AcDbPolyline
 62
7
  6
CONTINUOUS
 90
34
 70
0
 10
125.4423562108
 20
118.347331038
 10
125.4426393611
 20
118.3592263232
 10
125.4434881766
 20
118.3710946628
 10
125.4449007367
 20
118.3829091734
 10
125.4468738431
 20
118.3946430947
 10
125.4494030291
 20
118.406269846
 10
125.4524825691
 20
118.4177630862
 10
125.4561054895
 20
118.429096781
 10
125.4602635851
 20
118.4402452565
 10
125.4649474387
 20
118.4511832535
 10
125.470146442
 20
118.4618859948
 10
125.4758488192
 20
118.4723292355
 10
125.4820416527
 20
118.4824893131
 10
125.4887109154
 20
118.4923432123
 10
125.4958415001
 20
118.5018686111
 10
125.503417252
 20
118.5110439263
 10
125.5114210104
 20
118.5198483733
 10
125.5198346448
 20
118.5282620077
 10
125.5286390918
 20
118.5362657661
 10
125.537814407
 20
118.5438415179
 10
125.5473398057
 20
118.5509721027
 10
125.5571937049
 20
118.5576413654
 10
125.5673537826
 20
118.5638341989
 10
125.5777970232
 20
118.5695365761
 10
125.5884997645
 20
118.5747355794
 10
125.5994377615
 20
118.579419433
 10
125.6105862371
 20
118.5835775286
 10
125.6219199318
 20
118.5872004489
 10
125.633413172
 20
118.5902799889
 10
125.6450399234
 20
118.5928091749
 10
125.6567738447
 20
118.5947822814
 10
125.6685883553
 20
118.5961948415
 10
125.6804566948
 20
118.597043657
 10
125.6923519801
 20
118.5973268072
  0
LWPOLYLINE
  5
3B1
100
AcDbEntity
  8
RACCORDO
100
AcDbPolyline
 62
253
  6
CONTINUOUS
 90
31
 70
0
 10
125.4467280448
 20
118.342959204
 10
125.4470694521
 20
118.356011544
 10
125.4480927147
 20
118.3690364384
 10
125.4497963189
 20
118.3819982129
 10
125.452177449
 20
118.3948639317
 10
125.4552305624
 20
118.4075953969
 10
125.4589460022
 20
118.4201495815
 10
125.4633125533
 20
118.4324893854
 10
125.4683189832
 20
118.4445837415
 10
125.4739517318
 20
118.4563998198
 10
125.4801955334
 20
118.4679054202
 10
125.4870332152
 20
118.4790687386
 10
125.4944458453
 20
118.4898588178
 10
125.5024129875
 20
118.5002459437
 10
125.5109128844
 20
118.5102017808
 10
125.5199223062
 20
118.5196991153
 10
125.5294165994
 20
118.5287119344
 10
125.5393697028
 20
118.5372154759
 10
125.5497542921
 20
118.5451863841
 10
125.5605418824
 20
118.5526027909
 10
125.5717029084
 20
118.5594443667
 10
125.5832067642
 20
118.5656923459
 10
125.5950219098
 20
118.5713295942
 10
125.607115947
 20
118.5763406496
 10
125.6194557032
 20
118.5807117647
 10
125.6320073506
 20
118.5844309542
 10
125.6447364645
 20
118.5874880154
 10
125.6576081042
 20
118.5898745581
 10
125.6705869616
 20
118.5915840412
 10
125.6836374599
 20
118.5926117842
 10
125.6967238141
 20
118.5929549732
  0
LINE
  5
3B2
100
AcDbEntity
  8
ASSI
100
AcDbLine
 62
7
  6
CONTINUOUS
 10
140.3536576003
 20
117.7215007146
 11
140.3271072201
 21
117.6912884468
  0
LINE
  5
3B3
100
AcDbEntity
  8
ASSI
100
AcDbLine
 62
7
  6
CONTINUOUS
 10
140.3271072201
 20
117.6912884468
 11
140.29672115
 21
117.6572217546
  0
LINE
  5
3B4
100
AcDbEntity
  8
RACCORDO
100
AcDbLine
 62
7
  6
CONTINUOUS
 10
138.5923562108
 20
113.9973268072
 11
138.5903365348
 21
113.9953071311
  0
LINE
  5
3B5
100
AcDbEntity
  8
ASSI
100
AcDbLine
 62
7
  6
CONTINUOUS
 10
138.5923562108
 20
113.9973268072
 11
138.5903365348
 21
113.9953071311
  0
LINE
  5
3B6
100
AcDbEntity
  8
SMUSSO
100
AcDbLine
 62
7
  6
CONTINUOUS
 10
130.8423562108
 20
106.2473268072
 11
130.2650059417
 21
105.669976538
  0
LINE
  5
3B7
100
AcDbEntity
  8
ASSI
100
AcDbLine
 62
7
  6
CONTINUOUS
 10
130.8423562108
 20
106.2473268072
 11
130.2650059417
 21
105.669976538
  0
LINE
  5
3B8
100
AcDbEntity
  8
DRAFT
100
AcDbLine
 62
7
  6
CONTINUOUS
 10
139.5923562108
 20
113.9973268072
 11
139.5033353797
 21
113.9083059761
  0
LINE
  5
3B9
100
AcDbEntity
  8
ASSI
100
AcDbLine
 62
7
  6
CONTINUOUS
 10
139.5923562108
 20
113.9973268072
 11
139.5033353797
 21
113.9083059761
  0
LINE
  5
3BA
100
AcDbEntity
  8
DRAFT
100
AcDbLine
 62
7
  6
CONTINUOUS
 10
139.5923562108
 20
113.7973268072
 11
139.5033353797
 21
113.7083059761
  0
LINE
  5
3BB
100
AcDbEntity
  8
ASSI
100
AcDbLine
 62
7
  6
CONTINUOUS
 10
139.5923562108
 20
113.7973268072
 11
139.5033353797
 21
113.7083059761
  0
LINE
  5
3BC
100
AcDbEntity
  8
RACCORDO
100
AcDbLine
 62
253
  6
CONTINUOUS
 10
146.6566589913
 20
113.1830240267
 11
145.9930591196
 21
112.9081558794
  0
LINE
  5
3BD
100
AcDbEntity
  8
ASSI
100
AcDbLine
 62
253
  6
CONTINUOUS
 10
146.6566589913
 20
113.1830240267
 11
145.9930591196
 21
112.9081558794
  0
LINE
  5
3BE
100
AcDbEntity
  8
RACCORDO
100
AcDbLine
 62
253
  6
CONTINUOUS
 10
147.2423562108
 20
111.7690258559
 11
146.5787591107
 21
111.4941517624
  0
LINE
  5
3BF
100
AcDbEntity
  8
ASSI
100
AcDbLine
 62
253
  6
CONTINUOUS
 10
147.2423562108
 20
111.7690258559
 11
146.5787591107
 21
111.4941517624
  0
LINE
  5
3C0
100
AcDbEntity
  8
0
100
AcDbLine
 62
253
  6
CONTINUOUS
 10
128.6923562108
 20
79.4544696133
 11
127.1923562108
 21
79.4544696133
  0
LINE
  5
3C1
100
AcDbEntity
  8
CURVE
100
AcDbLine
 62
253
  6
CONTINUOUS
 10
147.0893983345
 20
79.5901837866
 11
147.1012410389
 21
79.5901837866
  0
LINE
  5
3C2
100
AcDbEntity
  8
CURVE
100
AcDbLine
 62
253
  6
CONTINUOUS
 10
146.9159962105
 20
79.5997074644
 11
146.8933080821
 21
79.5997074644
  0
LINE
  5
3C3
100
AcDbEntity
  8
CURVE
100
AcDbLine
 62
253
  6
CONTINUOUS
 10
147.1083466611
 20
79.6354217093
 11
147.1154522843
 21
79.6354217093
  0
LINE
  5
3C4
100
AcDbEntity
  8
0
100
AcDbLine
 62
253
  6
CONTINUOUS
 10
127.1923562108
 20
80.3116124193
 11
128.6923562108
 21
80.3116124193
  0
LINE
  5
3C5
100
AcDbEntity
  8
0
100
AcDbLine
 62
253
  6
CONTINUOUS
 10
128.6923562108
 20
80.7401840012
 11
127.1923562108
 21
80.7401840012
  0
LINE
  5
3C6
100
AcDbEntity
  8
CURVE
100
AcDbLine
 62
253
  6
CONTINUOUS
 10
147.0917668755
 20
80.9473266761
 11
147.1012410389
 21
80.9473266761
  0
LINE
  5
3C7
100
AcDbEntity
  8
RACCORDO
100
AcDbLine
 62
253
  6
CONTINUOUS
 10
146.1940997707
 20
75.2032278903
 11
146.6566589913
 21
75.0116295877
  0
LINE
  5
3C8
100
AcDbEntity
  8
ASSI
100
AcDbLine
 62
253
  6
CONTINUOUS
 10
146.1940997707
 20
75.2032278903
 11
146.6566589913
 21
75.0116295877
  0
LINE
  5
3C9
100
AcDbEntity
  8
RACCORDO
100
AcDbLine
 62
253
  6
CONTINUOUS
 10
146.7797969902
 20
76.6172260611
 11
147.2423562108
 21
76.4256277585
  0
LINE
  5
3CA
100
AcDbEntity
  8
ASSI
100
AcDbLine
 62
253
  6
CONTINUOUS
 10
146.7797969902
 20
76.6172260611
 11
147.2423562108
 21
76.4256277585
  0
LINE
  5
3CB
100
AcDbEntity
  8
0
100
AcDbLine
 62
253
  6
CONTINUOUS
 10
146.7780514838
 20
76.6179490735
 11
146.5787591107
 21
76.7005018521
  0
LINE
  5
3CC
100
AcDbEntity
  8
RACCORDO
100
AcDbLine
 62
7
  6
CONTINUOUS
 10
138.5923562108
 20
74.1973268072
 11
138.5903365348
 21
74.1993464833
  0
LINE
  5
3CD
100
AcDbEntity
  8
ASSI
100
AcDbLine
 62
7
  6
CONTINUOUS
 10
138.5923562108
 20
74.1973268072
 11
138.5903365348
 21
74.1993464833
  0
LINE
  5
3CE
100
AcDbEntity
  8
DRAFT
100
AcDbLine
 62
7
  6
CONTINUOUS
 10
139.5033353797
 20
74.2863476384
 11
139.5923562108
 21
74.1973268072
  0
LINE
  5
3CF
100
AcDbEntity
  8
ASSI
100
AcDbLine
 62
7
  6
CONTINUOUS
 10
139.5033353797
 20
74.2863476384
 11
139.5923562108
 21
74.1973268072
  0
LINE
  5
3D0
100
AcDbEntity
  8
DRAFT
100
AcDbLine
 62
7
  6
CONTINUOUS
 10
139.5923562108
 20
74.3973268072
 11
139.5033353797
 21
74.4863476384
  0
LINE
  5
3D1
100
AcDbEntity
  8
ASSI
100
AcDbLine
 62
7
  6
CONTINUOUS
 10
139.5923562108
 20
74.3973268072
 11
139.5033353797
 21
74.4863476384
  0
LINE
  5
3D2
100
AcDbEntity
  8
ASSI
100
AcDbLine
 62
7
  6
CONTINUOUS
 10
140.2964569881
 20
70.5396495386
 11
140.3268183982
 21
70.5054689022
  0
LWPOLYLINE
  5
3D3
100
AcDbEntity
  8
ASSI
100
AcDbPolyline
 62
7
  6
CONTINUOUS
 90
18
 70
0
 10
140.3268183982
 20
70.5054689022
 10
140.3533682823
 20
70.4751172604
 10
140.3652827002
 20
70.4612885227
 10
140.376312919
 20
70.4483351083
 10
140.3864706773
 20
70.4362557233
 10
140.3958034246
 20
70.4249744083
 10
140.404314717
 20
70.4144914615
 10
140.4120197194
 20
70.4048065847
 10
140.4189671059
 20
70.3958429237
 10
140.4251723559
 20
70.3875808143
 10
140.4306230451
 20
70.3800399206
 10
140.4353194266
 20
70.3732023811
 10
140.4392715456
 20
70.3670755184
 10
140.4424898484
 20
70.3616520098
 10
140.4449832598
 20
70.3568920249
 10
140.4467679496
 20
70.352782287
 10
140.4478634954
 20
70.3493360729
 10
140.4482889436
 20
70.3465533825
  0
LWPOLYLINE
  5
3D4
100
AcDbEntity
  8
RACCORDO
100
AcDbPolyline
 62
253
  6
CONTINUOUS
 90
31
 70
0
 10
127.8379843768
 20
70.2529892399
 10
127.8376050223
 20
70.2642997476
 10
127.8365439746
 20
70.2755793668
 10
127.8348041313
 20
70.2867972931
 10
127.832390246
 20
70.2979228819
 10
127.82930891
 20
70.3089257588
 10
127.8255685282
 20
70.3197759015
 10
127.8211793019
 20
70.3304436977
 10
127.8161532197
 20
70.3408999912
 10
127.8105040234
 20
70.3511161905
 10
127.8042471516
 20
70.361064382
 10
127.797399686
 20
70.3707174126
 10
127.7899803219
 20
70.3800489288
 10
127.7820093183
 20
70.3890334497
 10
127.7735084468
 20
70.3976464352
 10
127.7645009265
 20
70.4058643604
 10
127.7550113627
 20
70.4136647786
 10
127.745065667
 20
70.4210263923
 10
127.7346909875
 20
70.4279291062
 10
127.723915635
 20
70.4343540797
 10
127.7127690555
 20
70.4402837513
 10
127.7012817412
 20
70.4457019026
 10
127.6894850992
 20
70.4505937298
 10
127.6774113184
 20
70.4549458944
 10
127.6650933298
 20
70.4587465293
 10
127.6525642975
 20
70.4619853665
 10
127.6398588997
 20
70.4646534065
 10
127.6270132483
 20
70.4667431658
 10
127.6140629336
 20
70.4682490844
 10
127.6010428696
 20
70.4691673304
 10
127.5879886076
 20
70.4694955909
  0
LWPOLYLINE
  5
3D5
100
AcDbEntity
  8
RACCORDO
100
AcDbPolyline
 62
253
  6
CONTINUOUS
 90
34
 70
0
 10
126.6058010062
 20
76.7004986773
 10
126.6060853675
 20
76.6766839227
 10
126.6069344098
 20
76.6529089812
 10
126.6083481332
 20
76.6291738529
 10
126.6103279775
 20
76.6054649433
 10
126.6128725028
 20
76.5817958469
 10
126.6159773896
 20
76.5582073469
 10
126.619643591
 20
76.5346997709
 10
126.6238701538
 20
76.5112727914
 10
126.6286498997
 20
76.4879662085
 10
126.6339837637
 20
76.4647802526
 10
126.6398708107
 20
76.4417146935
 10
126.6463010563
 20
76.4188086408
 10
126.653275426
 20
76.3960623498
 10
126.6607929944
 20
76.3734755652
 10
126.6688410005
 20
76.3510866318
 10
126.6774203457
 20
76.3288958865
 10
126.6865301287
 20
76.3069029923
 10
126.6961548845
 20
76.2851452822
 10
126.7062954874
 20
76.2636231579
 10
126.7169510631
 20
76.2423362176
 10
126.7281035237
 20
76.22132059
 10
126.7397537044
 20
76.2005767465
 10
126.75190077
 20
76.1801042155
 10
126.764524127
 20
76.1599377108
 10
126.7776246005
 20
76.140077731
 10
126.7912013655
 20
76.1205237775
 10
126.8052313536
 20
76.1013090679
 10
126.8197155127
 20
76.0824339998
 10
126.8346528948
 20
76.0638981757
 10
126.8500175874
 20
76.0457336204
 10
126.8658009531
 20
76.0279510088
 10
126.8820116292
 20
76.010539666
 10
126.8986496159
 20
75.993499592
  0
LWPOLYLINE
  5
3D6
100
AcDbEntity
  8
ASSI
100
AcDbPolyline
 62
253
  6
CONTINUOUS
 90
34
 70
0
 10
126.6058010062
 20
76.7004986773
 10
126.6060853675
 20
76.6766839227
 10
126.6069344098
 20
76.6529089812
 10
126.6083481332
 20
76.6291738529
 10
126.6103279775
 20
76.6054649433
 10
126.6128725028
 20
76.5817958469
 10
126.6159773896
 20
76.5582073469
 10
126.619643591
 20
76.5346997709
 10
126.6238701538
 20
76.5112727914
 10
126.6286498997
 20
76.4879662085
 10
126.6339837637
 20
76.4647802526
 10
126.6398708107
 20
76.4417146935
 10
126.6463010563
 20
76.4188086408
 10
126.653275426
 20
76.3960623498
 10
126.6607929944
 20
76.3734755652
 10
126.6688410005
 20
76.3510866318
 10
126.6774203457
 20
76.3288958865
 10
126.6865301287
 20
76.3069029923
 10
126.6961548845
 20
76.2851452822
 10
126.7062954874
 20
76.2636231579
 10
126.7169510631
 20
76.2423362176
 10
126.7281035237
 20
76.22132059
 10
126.7397537044
 20
76.2005767465
 10
126.75190077
 20
76.1801042155
 10
126.764524127
 20
76.1599377108
 10
126.7776246005
 20
76.140077731
 10
126.7912013655
 20
76.1205237775
 10
126.8052313536
 20
76.1013090679
 10
126.8197155127
 20
76.0824339998
 10
126.8346528948
 20
76.0638981757
 10
126.8500175874
 20
76.0457336204
 10
126.8658009531
 20
76.0279510088
 10
126.8820116292
 20
76.010539666
 10
126.8986496159
 20
75.993499592
  0
LINE
  5
3D7
100
AcDbEntity
  8
RACCORDO
100
AcDbLine
 62
253
  6
CONTINUOUS
 10
127.5872613789
 20
117.7973268072
 11
127.5930792087
 21
117.219976538
  0
LINE
  5
3D8
100
AcDbEntity
  8
DRAFT
100
AcDbLine
 62
7
  6
CONTINUOUS
 10
126.4423562108
 20
73.1973268072
 11
126.4423562108
 21
74.0973268072
  0
LINE
  5
3D9
100
AcDbEntity
  8
DRAFT
100
AcDbLine
 62
7
  6
CONTINUOUS
 10
126.4423562108
 20
114.0973268072
 11
126.4423562108
 21
114.9973268072
  0
LINE
  5
3DA
100
AcDbEntity
  8
DRAFT
100
AcDbLine
 62
7
  6
CONTINUOUS
 10
126.5977062887
 20
114.5308975716
 11
126.5977062887
 21
114.2526768851
  0
LINE
  5
3DB
100
AcDbEntity
  8
DRAFT
100
AcDbLine
 62
7
  6
CONTINUOUS
 10
126.5977062887
 20
73.9419767294
 11
126.5977062887
 21
73.6637560428
  0
LINE
  5
3DC
100
AcDbEntity
  8
RACCORDO
100
AcDbLine
 62
253
  6
CONTINUOUS
 10
126.6058010062
 20
111.4941549371
 11
126.6058010062
 21
76.7004986773
  0
LINE
  5
3DD
100
AcDbEntity
  8
ASSI
100
AcDbLine
 62
253
  6
CONTINUOUS
 10
126.6058010062
 20
111.4941549371
 11
126.6058010062
 21
76.7004986773
  0
LINE
  5
3DE
100
AcDbEntity
  8
RACCORDO
100
AcDbLine
 62
253
  6
CONTINUOUS
 10
126.9169074235
 20
75.9752417844
 11
126.9169074235
 21
74.9753940892
  0
LINE
  5
3DF
100
AcDbEntity
  8
ASSI
100
AcDbLine
 62
253
  6
CONTINUOUS
 10
126.9169074235
 20
75.9752417844
 11
126.9169074235
 21
74.9753940892
  0
LINE
  5
3E0
100
AcDbEntity
  8
RACCORDO
100
AcDbLine
 62
253
  6
CONTINUOUS
 10
126.9169074235
 20
112.2194118301
 11
126.9169074235
 21
113.2192595252
  0
LINE
  5
3E1
100
AcDbEntity
  8
ASSI
100
AcDbLine
 62
253
  6
CONTINUOUS
 10
126.9169074235
 20
112.2194118301
 11
126.9169074235
 21
113.2192595252
  0
LINE
  5
3E2
100
AcDbEntity
  8
0
100
AcDbLine
 62
253
  6
CONTINUOUS
 10
127.1923562108
 20
77.0973268072
 11
127.1923562108
 21
77.9544697027
  0
LINE
  5
3E3
100
AcDbEntity
  8
0
100
AcDbLine
 62
253
  6
CONTINUOUS
 10
127.1923562108
 20
78.3830411057
 11
127.1923562108
 21
79.0258982103
  0
LINE
  5
3E4
100
AcDbEntity
  8
0
100
AcDbLine
 62
253
  6
CONTINUOUS
 10
127.1923562108
 20
80.7401840012
 11
127.1923562108
 21
81.2758983891
  0
LINE
  5
3E5
100
AcDbEntity
  8
0
100
AcDbLine
 62
253
  6
CONTINUOUS
 10
127.1923562108
 20
81.9187552254
 11
127.1923562108
 21
82.5616124193
  0
LINE
  5
3E6
100
AcDbEntity
  8
0
100
AcDbLine
 62
253
  6
CONTINUOUS
 10
127.1923562108
 20
82.9901840012
 11
127.1923562108
 21
83.5258980314
  0
LINE
  5
3E7
100
AcDbEntity
  8
0
100
AcDbLine
 62
253
  6
CONTINUOUS
 10
127.1923562108
 20
85.4544699709
 11
127.1923562108
 21
86.3116124193
  0
LINE
  5
3E8
100
AcDbEntity
  8
0
100
AcDbLine
 62
253
  6
CONTINUOUS
 10
127.1923562108
 20
87.918755583
 11
127.1923562108
 21
88.4544699709
  0
LINE
  5
3E9
100
AcDbEntity
  8
0
100
AcDbLine
 62
253
  6
CONTINUOUS
 10
127.1923562108
 20
89.0973268072
 11
127.1923562108
 21
89.7401843588
  0
LINE
  5
3EA
100
AcDbEntity
  8
0
100
AcDbLine
 62
253
  6
CONTINUOUS
 10
127.1923562108
 20
91.5616131346
 11
127.1923562108
 21
91.9901843588
  0
LINE
  5
3EB
100
AcDbEntity
  8
0
100
AcDbLine
 62
253
  6
CONTINUOUS
 10
127.1923562108
 20
92.5258980314
 11
127.1923562108
 21
93.168755583
  0
LINE
  5
3EC
100
AcDbEntity
  8
0
100
AcDbLine
 62
253
  6
CONTINUOUS
 10
127.1923562108
 20
94.9901843588
 11
127.1923562108
 21
95.418755583
  0
LINE
  5
3ED
100
AcDbEntity
  8
0
100
AcDbLine
 62
253
  6
CONTINUOUS
 10
127.1923562108
 20
96.168755583
 11
127.1923562108
 21
96.4901843588
  0
LINE
  5
3EE
100
AcDbEntity
  8
0
100
AcDbLine
 62
253
  6
CONTINUOUS
 10
127.1923562108
 20
97.1330404799
 11
127.1923562108
 21
97.668755583
  0
LINE
  5
3EF
100
AcDbEntity
  8
RACCORDO
100
AcDbLine
 62
253
  6
CONTINUOUS
 10
127.5879886076
 20
69.6016986412
 11
127.5879886076
 21
70.4694955909
  0
LINE
  5
3F0
100
AcDbEntity
  8
RACCORDO
100
AcDbLine
 62
253
  6
CONTINUOUS
 10
127.5879886076
 20
117.7973268072
 11
127.5879886076
 21
118.5929549732
  0
LINE
  5
3F1
100
AcDbEntity
  8
0
100
AcDbLine
 62
253
  6
CONTINUOUS
 10
127.8352133154
 20
92.9544692557
 11
127.8352133154
 21
92.5258980314
  0
LINE
  5
3F2
100
AcDbEntity
  8
0
100
AcDbLine
 62
253
  6
CONTINUOUS
 10
127.8352133154
 20
89.5258980314
 11
127.8352133154
 21
89.0973268072
  0
LINE
  5
3F3
100
AcDbEntity
  8
0
100
AcDbLine
 62
253
  6
CONTINUOUS
 10
127.8352133154
 20
82.3473268072
 11
127.8352133154
 21
81.9187552254
  0
LINE
  5
3F4
100
AcDbEntity
  8
0
100
AcDbLine
 62
253
  6
CONTINUOUS
 10
127.8352133154
 20
78.8116125981
 11
127.8352133154
 21
78.3830411057
  0
LINE
  5
3F5
100
AcDbEntity
  8
RACCORDO
100
AcDbLine
 62
253
  6
CONTINUOUS
 10
127.8379843768
 20
69.8516944104
 11
127.8379843768
 21
70.2529892399
  0
LINE
  5
3F6
100
AcDbEntity
  8
RACCORDO
100
AcDbLine
 62
253
  6
CONTINUOUS
 10
127.8379843768
 20
117.9416643745
 11
127.8379843768
 21
118.342959204
  0
LINE
  5
3F7
100
AcDbEntity
  8
RACCORDO
100
AcDbLine
 62
7
  6
CONTINUOUS
 10
127.8423562108
 20
69.8473225764
 11
127.8423562108
 21
71.6973268072
  0
LINE
  5
3F8
100
AcDbEntity
  8
DRAFT
100
AcDbLine
 62
7
  6
CONTINUOUS
 10
127.8423562108
 20
72.6973268072
 11
127.8423562108
 21
73.1973268072
  0
LINE
  5
3F9
100
AcDbEntity
  8
DRAFT
100
AcDbLine
 62
7
  6
CONTINUOUS
 10
127.8423562108
 20
114.9973268072
 11
127.8423562108
 21
115.4973268072
  0
LINE
  5
3FA
100
AcDbEntity
  8
RACCORDO
100
AcDbLine
 62
7
  6
CONTINUOUS
 10
127.8423562108
 20
116.4973268072
 11
127.8423562108
 21
118.347331038
  0
LINE
  5
3FB
100
AcDbEntity
  8
RACCORDO
100
AcDbLine
 62
253
  6
CONTINUOUS
 10
128.0083316441
 20
115.6633022405
 11
128.0083316441
 21
114.9973268072
  0
LINE
  5
3FC
100
AcDbEntity
  8
RACCORDO
100
AcDbLine
 62
253
  6
CONTINUOUS
 10
128.0083316441
 20
73.1973268072
 11
128.0083316441
 21
72.531351374
  0
LINE
  5
3FD
100
AcDbEntity
  8
RACCORDO
100
AcDbLine
 62
253
  6
CONTINUOUS
 10
127.5930792087
 20
70.9746770764
 11
127.5879886076
 21
70.4694955909
  0
LWPOLYLINE
  5
3FE
100
AcDbEntity
  8
RACCORDO
100
AcDbPolyline
 62
253
  6
CONTINUOUS
 90
31
 70
0
 10
125.4467280448
 20
70.2529892399
 10
125.4471066005
 20
70.2642872122
 10
125.448165728
 20
70.2755575162
 10
125.4499031046
 20
70.286769386
 10
125.452314806
 20
70.2978931951
 10
125.4553946762
 20
70.3088974472
 10
125.4591337272
 20
70.319748987
 10
125.4635212716
 20
70.33041711
 10
125.4685456706
 20
70.3408737833
 10
125.4741933512
 20
70.3510907022
 10
125.4804490438
 20
70.3610401073
 10
125.4872956184
 20
70.3706946319
 10
125.4947142267
 20
70.3800276553
 10
125.5026845307
 20
70.3890136055
 10
125.5111848255
 20
70.3976280247
 10
125.520191916
 20
70.405847403
 10
125.5296812196
 20
70.4136492997
 10
125.5396268068
 20
70.4210123879
 10
125.5500014896
 20
70.4279165368
 10
125.560776922
 20
70.4343428834
 10
125.57192368
 20
70.4402738803
 10
125.5834113171
 20
70.4456933277
 10
125.5952084738
 20
70.4505864297
 10
125.6072829102
 20
70.4549398128
 10
125.6196015898
 20
70.4587415701
 10
125.6321308252
 20
70.4619813166
 10
125.6448364281
 20
70.464650223
 10
125.6576837489
 20
70.4667410154
 10
125.6706377161
 20
70.4682479854
 10
125.6836629299
 20
70.4691670138
 10
125.6967238141
 20
70.4694955909
  0
LWPOLYLINE
  5
3FF
100
AcDbEntity
  8
RACCORDO
100
AcDbPolyline
 62
7
  6
CONTINUOUS
 90
34
 70
0
 10
127.8379843768
 20
117.9416643745
 10
127.8376866505
 20
117.9354227954
 10
127.8369153991
 20
117.9291496844
 10
127.8356650363
 20
117.9228632684
 10
127.833930989
 20
117.9165892363
 10
127.8317095463
 20
117.9103396979
 10
127.8289975263
 20
117.9041132139
 10
127.8257930295
 20
117.8979302765
 10
127.8220951049
 20
117.8918106463
 10
127.8179028539
 20
117.8857524898
 10
127.8132173697
 20
117.8797773131
 10
127.8080407278
 20
117.8739059054
 10
127.802374357
 20
117.8681360835
 10
127.7962225732
 20
117.8624901025
 10
127.7895907908
 20
117.8569896094
 10
127.782482988
 20
117.8516322737
 10
127.7749069924
 20
117.8464408214
 10
127.7668719104
 20
117.8414375126
 10
127.7583846849
 20
117.8366200986
 10
127.7494569754
 20
117.8320114052
 10
127.7401019966
 20
117.8276339963
 10
127.730330322
 20
117.8234859484
 10
127.7201578108
 20
117.8195896895
 10
127.7096022237
 20
117.8159676467
 10
127.6986786229
 20
117.8126184105
 10
127.6874075654
 20
117.8095633774
 10
127.6758116409
 20
117.8068241711
 10
127.6639109432
 20
117.8043998896
 10
127.6517441154
 20
117.802313089
 10
127.6393260606
 20
117.80057963
 10
127.6266420665
 20
117.7991935089
 10
127.6137073559
 20
117.798170427
 10
127.6005688543
 20
117.7975412371
 10
127.5872613789
 20
117.7973268072
  0
LINE
  5
400
100
AcDbEntity
  8
DRAFT
100
AcDbLine
 62
7
  6
CONTINUOUS
 10
128.7923562108
 20
114.9973268072
 11
128.7405775255
 21
114.5308975716
  0
LINE
  5
401
100
AcDbEntity
  8
DRAFT
100
AcDbLine
 62
7
  6
CONTINUOUS
 10
140.4923562108
 20
116.4973268072
 11
140.4482889436
 21
116.4312249741
  0
LINE
  5
402
100
AcDbEntity
  8
RACCORDO
100
AcDbLine
 62
253
  6
CONTINUOUS
 10
146.4879886076
 20
118.5929549732
 11
146.4923604416
 21
118.5973268072
  0
LINE
  5
403
100
AcDbEntity
  8
SMUSSO
100
AcDbLine
 62
7
  6
CONTINUOUS
 10
137.8423562108
 20
109.5473268072
 11
138.41970648
 21
110.1246770764
  0
LINE
  5
404
100
AcDbEntity
  8
ASSI
100
AcDbLine
 62
7
  6
CONTINUOUS
 10
137.8423562108
 20
109.5473268072
 11
138.41970648
 21
110.1246770764
  0
LINE
  5
405
100
AcDbEntity
  8
RACCORDO
100
AcDbLine
 62
253
  6
CONTINUOUS
 10
146.7379843768
 20
118.342959204
 11
146.7423562108
 21
118.347331038
  0
LINE
  5
406
100
AcDbEntity
  8
RACCORDO
100
AcDbLine
 62
7
  6
CONTINUOUS
 10
142.4493777123
 20
113.8543483087
 11
142.3923562108
 21
113.7973268072
  0
LINE
  5
407
100
AcDbEntity
  8
CURVE
100
AcDbLine
 62
253
  6
CONTINUOUS
 10
147.1969653499
 20
81.1861288072
 11
147.1463533537
 21
81.1861288072
  0
LINE
  5
408
100
AcDbEntity
  8
CURVE
100
AcDbLine
 62
253
  6
CONTINUOUS
 10
146.8933080821
 20
81.4568506758
 11
146.9159962105
 21
81.4568506758
  0
LINE
  5
409
100
AcDbEntity
  8
0
100
AcDbLine
 62
253
  6
CONTINUOUS
 10
127.4066419124
 20
81.4901840012
 11
127.8352133154
 21
81.4901840012
  0
LINE
  5
40A
100
AcDbEntity
  8
CURVE
100
AcDbLine
 62
253
  6
CONTINUOUS
 10
147.1059781214
 20
81.7616124551
 11
147.1201893658
 21
81.7616124551
  0
LINE
  5
40B
100
AcDbEntity
  8
CURVE
100
AcDbLine
 62
253
  6
CONTINUOUS
 10
147.1568577303
 20
81.7685728072
 11
147.1969653499
 21
81.7685728072
  0
LINE
  5
40C
100
AcDbEntity
  8
0
100
AcDbLine
 62
253
  6
CONTINUOUS
 10
128.6923562108
 20
81.9187552254
 11
127.1923562108
 21
81.9187552254
  0
LINE
  5
40D
100
AcDbEntity
  8
CURVE
100
AcDbLine
 62
253
  6
CONTINUOUS
 10
146.8933080821
 20
82.4163745444
 11
146.9159962105
 21
82.4163745444
  0
LINE
  5
40E
100
AcDbEntity
  8
CURVE
100
AcDbLine
 62
253
  6
CONTINUOUS
 10
147.0345454206
 20
82.4824368072
 11
147.0214438006
 21
82.4824368072
  0
LINE
  5
40F
100
AcDbEntity
  8
CURVE
100
AcDbLine
 62
253
  6
CONTINUOUS
 10
146.9587217271
 20
82.4824368072
 11
146.9456201071
 21
82.4824368072
  0
LINE
  5
410
100
AcDbEntity
  8
CURVE
100
AcDbLine
 62
253
  6
CONTINUOUS
 10
147.0870297936
 20
82.6211361568
 11
147.1036095797
 21
82.6211361568
  0
LINE
  5
411
100
AcDbEntity
  8
0
100
AcDbLine
 62
253
  6
CONTINUOUS
 10
128.6923562108
 20
82.9901840012
 11
127.1923562108
 21
82.9901840012
  0
LINE
  5
412
100
AcDbEntity
  8
0
100
AcDbLine
 62
253
  6
CONTINUOUS
 10
128.6923562108
 20
84.168755583
 11
127.1923562108
 21
84.5973268072
  0
LINE
  5
413
100
AcDbEntity
  8
0
100
AcDbLine
 62
253
  6
CONTINUOUS
 10
128.6923562108
 20
87.2758980314
 11
128.478070487
 21
87.4901836435
  0
LINE
  5
414
100
AcDbEntity
  8
RACCORDO
100
AcDbLine
 62
253
  6
CONTINUOUS
 10
146.4879886076
 20
69.6016986412
 11
146.4923604416
 21
69.5973268072
  0
LINE
  5
415
100
AcDbEntity
  8
0
100
AcDbLine
 62
253
  6
CONTINUOUS
 10
127.8352133154
 20
88.668755583
 11
128.0494990616
 21
88.4544699709
  0
LINE
  5
416
100
AcDbEntity
  8
RACCORDO
100
AcDbLine
 62
253
  6
CONTINUOUS
 10
146.7379843768
 20
69.8516944104
 11
146.7423562108
 21
69.8473225764
  0
LINE
  5
417
100
AcDbEntity
  8
RACCORDO
100
AcDbLine
 62
7
  6
CONTINUOUS
 10
142.4493777123
 20
74.3403053058
 11
142.3923562108
 21
74.3973268072
  0
LINE
  5
418
100
AcDbEntity
  8
DRAFT
100
AcDbLine
 62
7
  6
CONTINUOUS
 10
140.4923562108
 20
71.6973268072
 11
140.4482889436
 21
71.7634286403
  0
LINE
  5
419
100
AcDbEntity
  8
DRAFT
100
AcDbLine
 62
7
  6
CONTINUOUS
 10
128.7405775255
 20
73.6637560428
 11
128.7923562108
 21
73.1973268072
  0
LINE
  5
41A
100
AcDbEntity
  8
RACCORDO
100
AcDbLine
 62
253
  6
CONTINUOUS
 10
127.8379843768
 20
117.9416643745
 11
127.8423562108
 21
117.5078119554
  0
LINE
  5
41B
100
AcDbEntity
  8
SMUSSO
100
AcDbLine
 62
7
  6
CONTINUOUS
 10
129.741996899
 20
91.1976861191
 11
129.7402518577
 21
91.3994006977
  0
LINE
  5
41C
100
AcDbEntity
  8
ASSI
100
AcDbLine
 62
7
  6
CONTINUOUS
 10
129.741996899
 20
91.1976861191
 11
129.7402518577
 21
91.3994006977
  0
LINE
  5
41D
100
AcDbEntity
  8
0
100
AcDbLine
 62
253
  6
CONTINUOUS
 10
128.0494990616
 20
97.668755583
 11
128.0494990616
 21
97.1330404799
  0
LINE
  5
41E
100
AcDbEntity
  8
0
100
AcDbLine
 62
253
  6
CONTINUOUS
 10
128.0494990616
 20
88.4544699709
 11
128.0494990616
 21
87.918755583
  0
LINE
  5
41F
100
AcDbEntity
  8
0
100
AcDbLine
 62
253
  6
CONTINUOUS
 10
128.0494990616
 20
83.5258980314
 11
128.0494990616
 21
82.9901840012
  0
LINE
  5
420
100
AcDbEntity
  8
0
100
AcDbLine
 62
253
  6
CONTINUOUS
 10
128.0494990616
 20
81.2758983891
 11
128.0494990616
 21
80.7401840012
  0
LINE
  5
421
100
AcDbEntity
  8
0
100
AcDbLine
 62
253
  6
CONTINUOUS
 10
128.2637847631
 20
84.3116121809
 11
128.2637847631
 21
84.8830414335
  0
LINE
  5
422
100
AcDbEntity
  8
RACCORDO
100
AcDbLine
 62
253
  6
CONTINUOUS
 10
128.5082554917
 20
115.4100200509
 11
128.5082554917
 21
114.9973268072
  0
LINE
  5
423
100
AcDbEntity
  8
RACCORDO
100
AcDbLine
 62
253
  6
CONTINUOUS
 10
128.5082554917
 20
73.1973268072
 11
128.5082554917
 21
72.7846335635
  0
LINE
  5
424
100
AcDbEntity
  8
DRAFT
100
AcDbLine
 62
7
  6
CONTINUOUS
 10
128.6033353797
 20
73.2473268072
 11
128.6033353797
 21
74.4863476384
  0
LINE
  5
425
100
AcDbEntity
  8
ASSI
100
AcDbLine
 62
7
  6
CONTINUOUS
 10
128.6033353797
 20
73.2473268072
 11
128.6033353797
 21
74.4863476384
  0
LINE
  5
426
100
AcDbEntity
  8
DRAFT
100
AcDbLine
 62
7
  6
CONTINUOUS
 10
128.6033353797
 20
113.7083059761
 11
128.6033353797
 21
114.9473268072
  0
LINE
  5
427
100
AcDbEntity
  8
ASSI
100
AcDbLine
 62
7
  6
CONTINUOUS
 10
128.6033353797
 20
113.7083059761
 11
128.6033353797
 21
114.9473268072
  0
LINE
  5
428
100
AcDbEntity
  8
0
100
AcDbLine
 62
253
  6
CONTINUOUS
 10
128.6923562108
 20
96.4901843588
 11
128.6923562108
 21
96.168755583
  0
LINE
  5
429
100
AcDbEntity
  8
DRAFT
100
AcDbLine
 62
7
  6
CONTINUOUS
 10
128.6923562108
 20
73.2473268072
 11
128.6923562108
 21
74.3973268072
  0
LINE
  5
42A
100
AcDbEntity
  8
ASSI
100
AcDbLine
 62
7
  6
CONTINUOUS
 10
128.6923562108
 20
73.2473268072
 11
128.6923562108
 21
74.3973268072
  0
LINE
  5
42B
100
AcDbEntity
  8
0
100
AcDbLine
 62
253
  6
CONTINUOUS
 10
128.6923562108
 20
78.3830411057
 11
128.6923562108
 21
79.0258982103
  0
LINE
  5
42C
100
AcDbEntity
  8
0
100
AcDbLine
 62
253
  6
CONTINUOUS
 10
128.6923562108
 20
81.9187552254
 11
128.6923562108
 21
82.5616124193
  0
LINE
  5
42D
100
AcDbEntity
  8
0
100
AcDbLine
 62
253
  6
CONTINUOUS
 10
128.6923562108
 20
86.9544699709
 11
128.6923562108
 21
87.2758980314
  0
LINE
  5
42E
100
AcDbEntity
  8
0
100
AcDbLine
 62
253
  6
CONTINUOUS
 10
128.6923562108
 20
89.0973268072
 11
128.6923562108
 21
89.7401843588
  0
LINE
  5
42F
100
AcDbEntity
  8
0
100
AcDbLine
 62
253
  6
CONTINUOUS
 10
128.6923562108
 20
91.4544692557
 11
128.6923562108
 21
91.8830404799
  0
LINE
  5
430
100
AcDbEntity
  8
0
100
AcDbLine
 62
253
  6
CONTINUOUS
 10
128.6923562108
 20
92.5258980314
 11
128.6923562108
 21
93.168755583
  0
LINE
  5
431
100
AcDbEntity
  8
0
100
AcDbLine
 62
253
  6
CONTINUOUS
 10
128.6923562108
 20
94.8830404799
 11
128.6923562108
 21
95.3116131346
  0
LINE
  5
432
100
AcDbEntity
  8
DRAFT
100
AcDbLine
 62
7
  6
CONTINUOUS
 10
128.6923562108
 20
113.7973268072
 11
128.6923562108
 21
114.9473268072
  0
LINE
  5
433
100
AcDbEntity
  8
ASSI
100
AcDbLine
 62
7
  6
CONTINUOUS
 10
128.6923562108
 20
113.7973268072
 11
128.6923562108
 21
114.9473268072
  0
LINE
  5
434
100
AcDbEntity
  8
DRAFT
100
AcDbLine
 62
7
  6
CONTINUOUS
 10
128.7405775255
 20
114.5308975716
 11
128.7405775255
 21
113.7973268072
  0
LINE
  5
435
100
AcDbEntity
  8
DRAFT
100
AcDbLine
 62
7
  6
CONTINUOUS
 10
128.7405775255
 20
73.6637560428
 11
128.7405775255
 21
74.3973268072
  0
LINE
  5
436
100
AcDbEntity
  8
RACCORDO
100
AcDbLine
 62
7
  6
CONTINUOUS
 10
128.850534509
 20
73.1973268072
 11
128.850534509
 21
74.1403086904
  0
LINE
  5
437
100
AcDbEntity
  8
RACCORDO
100
AcDbLine
 62
7
  6
CONTINUOUS
 10
128.850534509
 20
114.0543449241
 11
128.850534509
 21
114.9973268072
  0
LINE
  5
438
100
AcDbEntity
  8
RACCORDO
100
AcDbLine
 62
7
  6
CONTINUOUS
 10
129.3423562108
 20
74.9753940892
 11
129.3423562108
 21
92.2064126546
  0
LINE
  5
439
100
AcDbEntity
  8
ASSI
100
AcDbLine
 62
7
  6
CONTINUOUS
 10
129.3423562108
 20
74.9753940892
 11
129.3423562108
 21
92.2064126546
  0
LINE
  5
43A
100
AcDbEntity
  8
0
100
AcDbLine
 62
7
  6
CONTINUOUS
 10
129.4423562108
 20
75.021302583
 11
129.4423562108
 21
90.9973268072
  0
LINE
  5
43B
100
AcDbEntity
  8
RACCORDO
100
AcDbLine
 62
7
  6
CONTINUOUS
 10
129.7341779127
 20
73.514402524
 11
129.7341779127
 21
74.1403086904
  0
LINE
  5
43C
100
AcDbEntity
  8
RACCORDO
100
AcDbLine
 62
7
  6
CONTINUOUS
 10
129.7341779127
 20
114.0543449241
 11
129.7341779127
 21
114.6802510904
  0
LINE
  5
43D
100
AcDbEntity
  8
SMUSSO
100
AcDbLine
 62
7
  6
CONTINUOUS
 10
129.7402518577
 20
74.9785804693
 11
129.7402518577
 21
75.021302583
  0
LINE
  5
43E
100
AcDbEntity
  8
ASSI
100
AcDbLine
 62
7
  6
CONTINUOUS
 10
129.7402518577
 20
74.9785804693
 11
129.7402518577
 21
75.021302583
  0
LINE
  5
43F
100
AcDbEntity
  8
SMUSSO
100
AcDbLine
 62
7
  6
CONTINUOUS
 10
129.7402518577
 20
90.9973268072
 11
129.7402518577
 21
91.3994006977
  0
LINE
  5
440
100
AcDbEntity
  8
ASSI
100
AcDbLine
 62
7
  6
CONTINUOUS
 10
129.7402518577
 20
90.9973268072
 11
129.7402518577
 21
91.3994006977
  0
LINE
  5
441
100
AcDbEntity
  8
DRAFT
100
AcDbLine
 62
7
  6
CONTINUOUS
 10
129.7463606651
 20
90.9973268072
 11
129.7463606651
 21
91.1933223529
  0
LINE
  5
442
100
AcDbEntity
  8
ASSI
100
AcDbLine
 62
7
  6
CONTINUOUS
 10
129.7463606651
 20
90.9973268072
 11
129.7463606651
 21
91.1933223529
  0
LINE
  5
443
100
AcDbEntity
  8
DRAFT
100
AcDbLine
 62
7
  6
CONTINUOUS
 10
129.8423562108
 20
74.7743562097
 11
129.8423562108
 21
75.021302583
  0
LINE
  5
444
100
AcDbEntity
  8
ASSI
100
AcDbLine
 62
7
  6
CONTINUOUS
 10
129.8423562108
 20
74.7743562097
 11
129.8423562108
 21
75.021302583
  0
LINE
  5
445
100
AcDbEntity
  8
DRAFT
100
AcDbLine
 62
7
  6
CONTINUOUS
 10
129.8441348962
 20
114.0196576839
 11
129.8441348962
 21
113.7973268072
  0
LINE
  5
446
100
AcDbEntity
  8
DRAFT
100
AcDbLine
 62
7
  6
CONTINUOUS
 10
129.8441348962
 20
74.3973268072
 11
129.8441348962
 21
74.1749959306
  0
LINE
  5
447
100
AcDbEntity
  8
DRAFT
100
AcDbLine
 62
7
  6
CONTINUOUS
 10
129.8903530699
 20
90.9973268072
 11
129.8903530699
 21
91.0973268072
  0
LINE
  5
448
100
AcDbEntity
  8
ASSI
100
AcDbLine
 62
7
  6
CONTINUOUS
 10
129.8903530699
 20
90.9973268072
 11
129.8903530699
 21
91.0973268072
  0
LINE
  5
449
100
AcDbEntity
  8
RACCORDO
100
AcDbLine
 62
253
  6
CONTINUOUS
 10
127.8423562108
 20
70.686841659
 11
127.8379843768
 21
70.2529892399
  0
LWPOLYLINE
  5
44A
100
AcDbEntity
  8
RACCORDO
100
AcDbPolyline
 62
7
  6
CONTINUOUS
 90
34
 70
0
 10
127.8423562108
 20
69.8473225764
 10
127.8420730606
 20
69.8354272912
 10
127.8412242451
 20
69.8235589517
 10
127.839811685
 20
69.8117444411
 10
127.8378385786
 20
69.8000105197
 10
127.8353093926
 20
69.7883837684
 10
127.8322298525
 20
69.7768905282
 10
127.8286069322
 20
69.7655568334
 10
127.8244488366
 20
69.7544083579
 10
127.819764983
 20
69.7434703609
 10
127.8145659797
 20
69.7327676196
 10
127.8088636025
 20
69.722324379
 10
127.802670769
 20
69.7121643013
 10
127.7960015063
 20
69.7023104021
 10
127.7888709216
 20
69.6927850034
 10
127.7812951697
 20
69.6836096882
 10
127.7732914113
 20
69.6748052411
 10
127.7648777769
 20
69.6663916067
 10
127.7560733299
 20
69.6583878484
 10
127.7468980147
 20
69.6508120965
 10
127.737372616
 20
69.6436815118
 10
127.7275187168
 20
69.6370122491
 10
127.7173586391
 20
69.6308194156
 10
127.7069153984
 20
69.6251170384
 10
127.6962126571
 20
69.619918035
 10
127.6852746601
 20
69.6152341814
 10
127.6741261846
 20
69.6110760859
 10
127.6627924898
 20
69.6074531655
 10
127.6512992496
 20
69.6043736255
 10
127.6396724983
 20
69.6018444395
 10
127.627938577
 20
69.5998713331
 10
127.6161240664
 20
69.598458773
 10
127.6042557269
 20
69.5976099575
 10
127.5923604416
 20
69.5973268072
  0
LWPOLYLINE
  5
44B
100
AcDbEntity
  8
RACCORDO
100
AcDbPolyline
 62
253
  6
CONTINUOUS
 90
31
 70
0
 10
127.8379843768
 20
69.8516944104
 10
127.8376411878
 20
69.8386080563
 10
127.8366134449
 20
69.825557558
 10
127.8349039617
 20
69.8125787006
 10
127.832517419
 20
69.7997070609
 10
127.8294603578
 20
69.786977947
 10
127.8257411683
 20
69.7744262996
 10
127.8213700533
 20
69.7620865434
 10
127.8163589978
 20
69.7499925062
 10
127.8107217495
 20
69.7381773606
 10
127.8044737703
 20
69.7266735048
 10
127.7976321945
 20
69.7155124788
 10
127.7902157877
 20
69.7047248885
 10
127.7822448795
 20
69.6943402992
 10
127.773741338
 20
69.6843871958
 10
127.7647285189
 20
69.6748929026
 10
127.7552311844
 20
69.6658834808
 10
127.7452753473
 20
69.6573835839
 10
127.7348882214
 20
69.6494164416
 10
127.7240981422
 20
69.6420038116
 10
127.7129348238
 20
69.6351661298
 10
127.7014292234
 20
69.6289223281
 10
127.6896131451
 20
69.6232895796
 10
127.677518789
 20
69.6182831497
 10
127.6651789851
 20
69.6139165986
 10
127.6526248005
 20
69.6102011588
 10
127.6398933353
 20
69.6071480454
 10
127.6270276166
 20
69.6047669153
 10
127.614065842
 20
69.6030633111
 10
127.6010409476
 20
69.6020400484
 10
127.5879886076
 20
69.6016986412
  0
LWPOLYLINE
  5
44C
100
AcDbEntity
  8
ASSI
100
AcDbPolyline
 62
7
  6
CONTINUOUS
 90
17
 70
0
 10
132.5923562108
 20
117.8488470121
 10
132.5920238147
 20
117.8462137574
 10
132.5910147316
 20
117.842916502
 10
132.5893118367
 20
117.838955246
 10
132.5868979254
 20
117.834342604
 10
132.583758595
 20
117.8290659614
 10
132.5798851653
 20
117.8230874739
 10
132.5752690224
 20
117.8164020672
 10
132.5699008725
 20
117.8090148157
 10
132.5637766273
 20
117.800903098
 10
132.5569076653
 20
117.7920875399
 10
132.5492785794
 20
117.7825475156
 10
132.5408356451
 20
117.7721985272
 10
132.5315594116
 20
117.7610377843
 10
132.5214468986
 20
117.7490680773
 10
132.5104521984
 20
117.7362132798
 10
132.4985634385
 20
117.7224726098
  0
LINE
  5
44D
100
AcDbEntity
  8
0
100
AcDbLine
 62
253
  6
CONTINUOUS
 10
127.1923562108
 20
97.668755583
 11
127.4066419124
 21
97.8830404799
  0
LINE
  5
44E
100
AcDbEntity
  8
SMUSSO
100
AcDbLine
 62
7
  6
CONTINUOUS
 10
130.8423562108
 20
101.2473268072
 11
130.2650059417
 21
100.669976538
  0
LINE
  5
44F
100
AcDbEntity
  8
ASSI
100
AcDbLine
 62
7
  6
CONTINUOUS
 10
130.8423562108
 20
101.2473268072
 11
130.2650059417
 21
100.669976538
  0
LINE
  5
450
100
AcDbEntity
  8
0
100
AcDbLine
 62
253
  6
CONTINUOUS
 10
127.1923562108
 20
96.4901843588
 11
127.4066419124
 21
96.7044692557
  0
LINE
  5
451
100
AcDbEntity
  8
0
100
AcDbLine
 62
253
  6
CONTINUOUS
 10
127.1923562108
 20
95.418755583
 11
127.2994991063
 21
95.5258980314
  0
LINE
  5
452
100
AcDbEntity
  8
CURVE
100
AcDbLine
 62
253
  6
CONTINUOUS
 10
147.1887121592
 20
83.2225568072
 11
147.1463533537
 21
83.2225568072
  0
LINE
  5
453
100
AcDbEntity
  8
0
100
AcDbLine
 62
253
  6
CONTINUOUS
 10
127.4066419124
 20
83.7401836435
 11
127.8352133154
 21
83.7401836435
  0
LINE
  5
454
100
AcDbEntity
  8
CURVE
100
AcDbLine
 62
253
  6
CONTINUOUS
 10
147.1201893658
 20
83.7973266195
 11
147.0870297936
 21
83.7973266195
  0
LINE
  5
455
100
AcDbEntity
  8
CURVE
100
AcDbLine
 62
253
  6
CONTINUOUS
 10
147.1463533537
 20
83.8050018072
 11
147.1969653499
 21
83.8050018072
  0
LINE
  5
456
100
AcDbEntity
  8
CURVE
100
AcDbLine
 62
253
  6
CONTINUOUS
 10
146.8933080821
 20
84.0568506758
 11
146.9159962105
 21
84.0568506758
  0
LINE
  5
457
100
AcDbEntity
  8
CURVE
100
AcDbLine
 62
253
  6
CONTINUOUS
 10
146.8933080821
 20
84.7068506758
 11
146.9159962105
 21
84.7068506758
  0
LINE
  5
458
100
AcDbEntity
  8
0
100
AcDbLine
 62
253
  6
CONTINUOUS
 10
127.4066419124
 20
91.3473268072
 11
127.1923562108
 21
91.5616131346
  0
LINE
  5
459
100
AcDbEntity
  8
DRAFT
100
AcDbLine
 62
7
  6
CONTINUOUS
 10
129.8423562108
 20
91.1933223529
 11
129.8903530699
 21
91.0973268072
  0
LINE
  5
45A
100
AcDbEntity
  8
ASSI
100
AcDbLine
 62
7
  6
CONTINUOUS
 10
129.8423562108
 20
91.1933223529
 11
129.8903530699
 21
91.0973268072
  0
LINE
  5
45B
100
AcDbEntity
  8
0
100
AcDbLine
 62
7
  6
CONTINUOUS
 10
129.9423562108
 20
75.021302583
 11
129.9423562108
 21
74.9753940892
  0
LINE
  5
45C
100
AcDbEntity
  8
SMUSSO
100
AcDbLine
 62
7
  6
CONTINUOUS
 10
130.2650059417
 20
100.669976538
 11
130.2650059417
 21
105.1246770764
  0
LINE
  5
45D
100
AcDbEntity
  8
ASSI
100
AcDbLine
 62
7
  6
CONTINUOUS
 10
130.2650059417
 20
100.669976538
 11
130.2650059417
 21
105.1246770764
  0
LINE
  5
45E
100
AcDbEntity
  8
SMUSSO
100
AcDbLine
 62
7
  6
CONTINUOUS
 10
130.2650059417
 20
105.669976538
 11
130.2650059417
 21
110.1246770764
  0
LINE
  5
45F
100
AcDbEntity
  8
ASSI
100
AcDbLine
 62
7
  6
CONTINUOUS
 10
130.2650059417
 20
105.669976538
 11
130.2650059417
 21
110.1246770764
  0
LINE
  5
460
100
AcDbEntity
  8
SMUSSO
100
AcDbLine
 62
7
  6
CONTINUOUS
 10
130.8423562108
 20
101.2473268072
 11
130.8423562108
 21
104.5473268072
  0
LINE
  5
461
100
AcDbEntity
  8
ASSI
100
AcDbLine
 62
7
  6
CONTINUOUS
 10
130.8423562108
 20
101.2473268072
 11
130.8423562108
 21
104.5473268072
  0
LINE
  5
462
100
AcDbEntity
  8
SMUSSO
100
AcDbLine
 62
7
  6
CONTINUOUS
 10
130.8423562108
 20
106.2473268072
 11
130.8423562108
 21
109.5473268072
  0
LINE
  5
463
100
AcDbEntity
  8
ASSI
100
AcDbLine
 62
7
  6
CONTINUOUS
 10
130.8423562108
 20
106.2473268072
 11
130.8423562108
 21
109.5473268072
  0
LINE
  5
464
100
AcDbEntity
  8
0
100
AcDbLine
 62
253
  6
CONTINUOUS
 10
131.6432132108
 20
97.6973268072
 11
131.6432132108
 21
97.0187553908
  0
LINE
  5
465
100
AcDbEntity
  8
DRAFT
100
AcDbLine
 62
7
  6
CONTINUOUS
 10
131.6923562108
 20
117.8973268072
 11
131.6923562108
 21
116.4973268072
  0
LINE
  5
466
100
AcDbEntity
  8
DRAFT
100
AcDbLine
 62
7
  6
CONTINUOUS
 10
131.6923562108
 20
71.6973268072
 11
131.6923562108
 21
70.2973268072
  0
LINE
  5
467
100
AcDbEntity
  8
ASSI
100
AcDbLine
 62
253
  6
CONTINUOUS
 10
131.7364234781
 20
70.3465533825
 11
131.7364234781
 21
71.7634286403
  0
LINE
  5
468
100
AcDbEntity
  8
ASSI
100
AcDbLine
 62
253
  6
CONTINUOUS
 10
131.7364234781
 20
116.4312249741
 11
131.7364234781
 21
117.8484909785
  0
LINE
  5
469
100
AcDbEntity
  8
0
100
AcDbLine
 62
253
  6
CONTINUOUS
 10
131.9146417944
 20
98.2401839177
 11
131.6432132108
 21
97.6973268072
  0
LWPOLYLINE
  5
46A
100
AcDbEntity
  8
RACCORDO
100
AcDbPolyline
 62
7
  6
CONTINUOUS
 90
5
 70
0
 10
143.9832396845
 20
115.8564433336
 10
143.9597208284
 20
115.8203957675
 10
143.9357362718
 20
115.7839725711
 10
143.9112860148
 20
115.7472447914
 10
143.8863107677
 20
115.7103156917
  0
LINE
  5
46B
100
AcDbEntity
  8
RACCORDO
100
AcDbLine
 62
7
  6
CONTINUOUS
 10
142.4476509788
 20
114.1802701289
 11
142.3405775255
 21
114.0196576839
  0
LWPOLYLINE
  5
46C
100
AcDbEntity
  8
RACCORDO
100
AcDbPolyline
 62
7
  6
CONTINUOUS
 90
3
 70
0
 10
143.8863107677
 20
115.7103156917
 10
143.835141041
 20
115.6359170519
 10
143.8091327093
 20
115.5984650717
  0
LINE
  5
46D
100
AcDbEntity
  8
RACCORDO
100
AcDbLine
 62
7
  6
CONTINUOUS
 10
143.8091327093
 20
115.5984650717
 11
143.7298908317
 21
115.4855106944
  0
LINE
  5
46E
100
AcDbEntity
  8
RACCORDO
100
AcDbLine
 62
7
  6
CONTINUOUS
 10
143.7298908317
 20
115.4855106944
 11
143.67645693
 21
115.4100200509
  0
LINE
  5
46F
100
AcDbEntity
  8
0
100
AcDbLine
 62
253
  6
CONTINUOUS
 10
128.2637847631
 20
95.5258980314
 11
127.6209276139
 21
94.7758980314
  0
LINE
  5
470
100
AcDbEntity
  8
0
100
AcDbLine
 62
253
  6
CONTINUOUS
 10
128.6923562108
 20
96.168755583
 11
128.478070487
 21
95.9544692557
  0
LINE
  5
471
100
AcDbEntity
  8
RACCORDO
100
AcDbLine
 62
253
  6
CONTINUOUS
 10
145.2678049982
 20
112.2194118301
 11
145.9748040836
 21
112.9264109155
  0
LINE
  5
472
100
AcDbEntity
  8
ASSI
100
AcDbLine
 62
253
  6
CONTINUOUS
 10
145.2678049982
 20
112.2194118301
 11
145.9748040836
 21
112.9264109155
  0
LINE
  5
473
100
AcDbEntity
  8
RACCORDO
100
AcDbLine
 62
253
  6
CONTINUOUS
 10
145.2860628058
 20
112.2011540225
 11
145.9930618912
 21
112.9081531079
  0
LINE
  5
474
100
AcDbEntity
  8
ASSI
100
AcDbLine
 62
253
  6
CONTINUOUS
 10
145.2860628058
 20
112.2011540225
 11
145.9930618912
 21
112.9081531079
  0
LINE
  5
475
100
AcDbEntity
  8
SMUSSO
100
AcDbLine
 62
7
  6
CONTINUOUS
 10
137.8423562108
 20
104.5473268072
 11
138.41970648
 21
105.1246770764
  0
LINE
  5
476
100
AcDbEntity
  8
ASSI
100
AcDbLine
 62
7
  6
CONTINUOUS
 10
137.8423562108
 20
104.5473268072
 11
138.41970648
 21
105.1246770764
  0
LINE
  5
477
100
AcDbEntity
  8
0
100
AcDbLine
 62
253
  6
CONTINUOUS
 10
132.3217846556
 20
98.6473268072
 11
131.9146417944
 21
98.2401839177
  0
LINE
  5
478
100
AcDbEntity
  8
0
100
AcDbLine
 62
253
  6
CONTINUOUS
 10
128.5852133489
 20
94.7758980314
 11
128.6923562108
 21
94.8830404799
  0
LINE
  5
479
100
AcDbEntity
  8
0
100
AcDbLine
 62
253
  6
CONTINUOUS
 10
128.0494990616
 20
97.4544692557
 11
128.6923562108
 21
97.8830404799
  0
LWPOLYLINE
  5
47A
100
AcDbEntity
  8
0
100
AcDbPolyline
 62
253
  6
CONTINUOUS
 90
41
 70
0
 10
141.539412493
 20
105.0982296242
 10
141.5141262301
 20
105.0837139927
 10
141.489253535
 20
105.0684777055
 10
141.4648077734
 20
105.052548858
 10
141.4408023115
 20
105.0359555455
 10
141.4172505148
 20
105.0187258633
 10
141.3938856801
 20
105.0006650006
 10
141.3710058172
 20
104.9820008773
 10
141.3486173957
 20
104.9627534472
 10
141.3267268854
 20
104.9429426643
 10
141.3053407557
 20
104.9225884823
 10
141.2839954972
 20
104.9012276971
 10
141.263194114
 20
104.8793362129
 10
141.2429460481
 20
104.8569309405
 10
141.2232607414
 20
104.8340287908
 10
141.2041476358
 20
104.8106466745
 10
141.1853975252
 20
104.7865116378
 10
141.1672558035
 20
104.7619165593
 10
141.1497351525
 20
104.7368756496
 10
141.132848254
 20
104.7114031194
 10
141.1166077898
 20
104.6855131793
 10
141.100899422
 20
104.6589976395
 10
141.0858795432
 20
104.6320857973
 10
141.0715664203
 20
104.604791343
 10
141.0579783203
 20
104.577127967
 10
141.0451335101
 20
104.5491093598
 10
141.0330536438
 20
104.5207558384
 10
141.021759335
 20
104.4920795589
 10
141.0112748941
 20
104.4630991648
 10
141.0016246313
 20
104.4338333
 10
140.9928328569
 20
104.4043006082
 10
140.984985964
 20
104.374790357
 10
140.9779989712
 20
104.3450630027
 10
140.9718648067
 20
104.315145176
 10
140.9665763985
 20
104.2850635076
 10
140.9621266744
 20
104.2548446285
 10
140.9584738318
 20
104.2241953509
 10
140.9556565238
 20
104.1934591677
 10
140.9536610827
 20
104.1626620921
 10
140.952473841
 20
104.1318301376
 10
140.952081131
 20
104.1009893174
  0
LINE
  5
47B
100
AcDbEntity
  8
CURVE
100
AcDbLine
 62
253
  6
CONTINUOUS
 10
146.8933080821
 20
85.29494615
 11
146.9159962105
 21
85.29494615
  0
LINE
  5
47C
100
AcDbEntity
  8
0
100
AcDbLine
 62
253
  6
CONTINUOUS
 10
128.6923562108
 20
85.8830411951
 11
127.1923562108
 21
85.8830411951
  0
LINE
  5
47D
100
AcDbEntity
  8
0
100
AcDbLine
 62
253
  6
CONTINUOUS
 10
127.1923562108
 20
86.7401836435
 11
128.478070487
 21
86.7401836435
  0
LINE
  5
47E
100
AcDbEntity
  8
0
100
AcDbLine
 62
253
  6
CONTINUOUS
 10
128.6923562108
 20
91.8830404799
 11
128.478070487
 21
92.0973268072
  0
LINE
  5
47F
100
AcDbEntity
  8
SMUSSO
100
AcDbLine
 62
7
  6
CONTINUOUS
 10
129.7463606651
 20
91.1933223529
 11
129.741996899
 21
91.1976861191
  0
LINE
  5
480
100
AcDbEntity
  8
ASSI
100
AcDbLine
 62
7
  6
CONTINUOUS
 10
129.7463606651
 20
91.1933223529
 11
129.741996899
 21
91.1976861191
  0
LINE
  5
481
100
AcDbEntity
  8
SUPERFICI
100
AcDbLine
 62
253
  6
CONTINUOUS
 10
145.2860567226
 20
75.9934935088
 11
145.9928202494
 21
75.286729982
  0
LINE
  5
482
100
AcDbEntity
  8
0
100
AcDbLine
 62
253
  6
CONTINUOUS
 10
127.4066419124
 20
94.7758980314
 11
127.1923562108
 21
94.9901843588
  0
LINE
  5
483
100
AcDbEntity
  8
RACCORDO
100
AcDbLine
 62
7
  6
CONTINUOUS
 10
143.67645693
 20
72.7846335635
 11
143.7298908317
 21
72.70914292
  0
LINE
  5
484
100
AcDbEntity
  8
RACCORDO
100
AcDbLine
 62
7
  6
CONTINUOUS
 10
143.7298908317
 20
72.70914292
 11
143.8091327093
 21
72.5961885428
  0
LWPOLYLINE
  5
485
100
AcDbEntity
  8
RACCORDO
100
AcDbPolyline
 62
7
  6
CONTINUOUS
 90
7
 70
0
 10
143.8091327093
 20
72.5961885428
 10
143.8608698201
 20
72.5214341905
 10
143.8863107677
 20
72.4843379228
 10
143.9112860148
 20
72.447408823
 10
143.9357362718
 20
72.4106810434
 10
143.9597208284
 20
72.3742578469
 10
143.9832396845
 20
72.3382102809
  0
LINE
  5
486
100
AcDbEntity
  8
RACCORDO
100
AcDbLine
 62
7
  6
CONTINUOUS
 10
142.4476509788
 20
74.0143834856
 11
142.3405775255
 21
74.1749959306
  0
LINE
  5
487
100
AcDbEntity
  8
SMUSSO
100
AcDbLine
 62
7
  6
CONTINUOUS
 10
132.4746865947
 20
91.5252314774
 11
132.4775202033
 21
91.1976861191
  0
LINE
  5
488
100
AcDbEntity
  8
ASSI
100
AcDbLine
 62
7
  6
CONTINUOUS
 10
132.4746865947
 20
91.5252314774
 11
132.4775202033
 21
91.1976861191
  0
LINE
  5
489
100
AcDbEntity
  8
SMUSSO
100
AcDbLine
 62
7
  6
CONTINUOUS
 10
131.9923562108
 20
92.2064126546
 11
131.9923562108
 21
94.7973268072
  0
LINE
  5
48A
100
AcDbEntity
  8
ASSI
100
AcDbLine
 62
7
  6
CONTINUOUS
 10
131.9923562108
 20
92.2064126546
 11
131.9923562108
 21
94.7973268072
  0
LINE
  5
48B
100
AcDbEntity
  8
SMUSSO
100
AcDbLine
 62
7
  6
CONTINUOUS
 10
132.4746865947
 20
91.5252314774
 11
132.4746865947
 21
94.3149964234
  0
LINE
  5
48C
100
AcDbEntity
  8
ASSI
100
AcDbLine
 62
7
  6
CONTINUOUS
 10
132.4746865947
 20
91.5252314774
 11
132.4746865947
 21
94.3149964234
  0
LINE
  5
48D
100
AcDbEntity
  8
DRAFT
100
AcDbLine
 62
7
  6
CONTINUOUS
 10
132.4775205356
 20
92.5973268072
 11
132.4775205356
 21
94.3121624825
  0
LINE
  5
48E
100
AcDbEntity
  8
ASSI
100
AcDbLine
 62
7
  6
CONTINUOUS
 10
132.4775205356
 20
92.5973268072
 11
132.4775205356
 21
94.3121624825
  0
LINE
  5
48F
100
AcDbEntity
  8
DRAFT
100
AcDbLine
 62
7
  6
CONTINUOUS
 10
132.4923562108
 20
92.582491132
 11
132.4923562108
 21
91.1828501116
  0
LINE
  5
490
100
AcDbEntity
  8
ASSI
100
AcDbLine
 62
7
  6
CONTINUOUS
 10
132.4923562108
 20
92.582491132
 11
132.4923562108
 21
91.1828501116
  0
LINE
  5
491
100
AcDbEntity
  8
DRAFT
100
AcDbLine
 62
7
  6
CONTINUOUS
 10
132.5923562108
 20
113.9973268072
 11
132.5923562108
 21
113.7973268072
  0
LINE
  5
492
100
AcDbEntity
  8
ASSI
100
AcDbLine
 62
7
  6
CONTINUOUS
 10
132.5923562108
 20
113.9973268072
 11
132.5923562108
 21
113.7973268072
  0
LINE
  5
493
100
AcDbEntity
  8
0
100
AcDbLine
 62
7
  6
CONTINUOUS
 10
132.5923562108
 20
93.4973268072
 11
132.5923562108
 21
91.7973268072
  0
LINE
  5
494
100
AcDbEntity
  8
DRAFT
100
AcDbLine
 62
7
  6
CONTINUOUS
 10
132.5923562108
 20
74.3973268072
 11
132.5923562108
 21
74.1973268072
  0
LINE
  5
495
100
AcDbEntity
  8
ASSI
100
AcDbLine
 62
7
  6
CONTINUOUS
 10
132.5923562108
 20
74.3973268072
 11
132.5923562108
 21
74.1973268072
  0
LINE
  5
496
100
AcDbEntity
  8
DRAFT
100
AcDbLine
 62
7
  6
CONTINUOUS
 10
132.5923562108
 20
74.0973268072
 11
132.5923562108
 21
74.0528197815
  0
LINE
  5
497
100
AcDbEntity
  8
ASSI
100
AcDbLine
 62
7
  6
CONTINUOUS
 10
132.5923562108
 20
70.303144637
 11
132.5923562108
 21
71.7634069121
  0
LINE
  5
498
100
AcDbEntity
  8
SMUSSO
100
AcDbLine
 62
7
  6
CONTINUOUS
 10
132.5923562108
 20
90.9973268072
 11
132.5923562108
 21
91.7973268072
  0
LINE
  5
499
100
AcDbEntity
  8
DRAFT
100
AcDbLine
 62
7
  6
CONTINUOUS
 10
132.5923562108
 20
114.0973268072
 11
132.5923562108
 21
114.141833833
  0
LINE
  5
49A
100
AcDbEntity
  8
ASSI
100
AcDbLine
 62
7
  6
CONTINUOUS
 10
132.5923562108
 20
116.4312467024
 11
132.5923562108
 21
117.8915089774
  0
LINE
  5
49B
100
AcDbEntity
  8
0
100
AcDbLine
 62
253
  6
CONTINUOUS
 10
132.5932132108
 20
97.0187553908
 11
132.5932132108
 21
97.5616125296
  0
LINE
  5
49C
100
AcDbEntity
  8
DRAFT
100
AcDbLine
 62
7
  6
CONTINUOUS
 10
132.681377042
 20
113.9083059761
 11
132.681377042
 21
113.7083059761
  0
LINE
  5
49D
100
AcDbEntity
  8
ASSI
100
AcDbLine
 62
7
  6
CONTINUOUS
 10
132.681377042
 20
113.9083059761
 11
132.681377042
 21
113.7083059761
  0
LINE
  5
49E
100
AcDbEntity
  8
DRAFT
100
AcDbLine
 62
7
  6
CONTINUOUS
 10
132.681377042
 20
74.4863476384
 11
132.681377042
 21
74.2863476384
  0
LINE
  5
49F
100
AcDbEntity
  8
ASSI
100
AcDbLine
 62
7
  6
CONTINUOUS
 10
132.681377042
 20
74.4863476384
 11
132.681377042
 21
74.2863476384
  0
LINE
  5
4A0
100
AcDbEntity
  8
RACCORDO
100
AcDbLine
 62
7
  6
CONTINUOUS
 10
133.0923562108
 20
71.7592875685
 11
133.0923562108
 21
73.0973268072
  0
LINE
  5
4A1
100
AcDbEntity
  8
RACCORDO
100
AcDbLine
 62
7
  6
CONTINUOUS
 10
133.0923562108
 20
115.0973268072
 11
133.0923562108
 21
116.4353660459
  0
LINE
  5
4A2
100
AcDbEntity
  8
RACCORDO
100
AcDbLine
 62
7
  6
CONTINUOUS
 10
133.5923562108
 20
114.1505607008
 11
133.5923562108
 21
113.9973268072
  0
LINE
  5
4A3
100
AcDbEntity
  8
ASSI
100
AcDbLine
 62
7
  6
CONTINUOUS
 10
133.5923562108
 20
114.1505607008
 11
133.5923562108
 21
113.9973268072
  0
LINE
  5
4A4
100
AcDbEntity
  8
RACCORDO
100
AcDbLine
 62
7
  6
CONTINUOUS
 10
133.5923562108
 20
74.1973268072
 11
133.5923562108
 21
74.0440929137
  0
LINE
  5
4A5
100
AcDbEntity
  8
ASSI
100
AcDbLine
 62
7
  6
CONTINUOUS
 10
133.5923562108
 20
74.1973268072
 11
133.5923562108
 21
74.0440929137
  0
LINE
  5
4A6
100
AcDbEntity
  8
RACCORDO
100
AcDbLine
 62
253
  6
CONTINUOUS
 10
133.5943758869
 20
74.0440929137
 11
133.5943758869
 21
74.1993464833
  0
LINE
  5
4A7
100
AcDbEntity
  8
ASSI
100
AcDbLine
 62
253
  6
CONTINUOUS
 10
133.5943758869
 20
74.0440929137
 11
133.5943758869
 21
74.1993464833
  0
LINE
  5
4A8
100
AcDbEntity
  8
RACCORDO
100
AcDbLine
 62
253
  6
CONTINUOUS
 10
133.5943758869
 20
113.9953071311
 11
133.5943758869
 21
114.1505607008
  0
LINE
  5
4A9
100
AcDbEntity
  8
ASSI
100
AcDbLine
 62
253
  6
CONTINUOUS
 10
133.5943758869
 20
113.9953071311
 11
133.5943758869
 21
114.1505607008
  0
LINE
  5
4AA
100
AcDbEntity
  8
DRAFT
100
AcDbLine
 62
7
  6
CONTINUOUS
 10
126.5977062887
 20
73.6637560428
 11
126.4423562108
 21
73.1973268072
  0
LINE
  5
4AB
100
AcDbEntity
  8
0
100
AcDbLine
 62
253
  6
CONTINUOUS
 10
128.2637847631
 20
92.0973268072
 11
127.6209276139
 21
91.3473268072
  0
LINE
  5
4AC
100
AcDbEntity
  8
0
100
AcDbLine
 62
253
  6
CONTINUOUS
 10
127.1923562108
 20
91.9901843588
 11
127.2994991063
 21
92.0973268072
  0
LINE
  5
4AD
100
AcDbEntity
  8
0
100
AcDbLine
 62
253
  6
CONTINUOUS
 10
132.3217846556
 20
96.7473268072
 11
132.5932132108
 21
97.0187553908
  0
LINE
  5
4AE
100
AcDbEntity
  8
0
100
AcDbLine
 62
253
  6
CONTINUOUS
 10
128.5852133489
 20
91.3473268072
 11
128.6923562108
 21
91.4544692557
  0
LINE
  5
4AF
100
AcDbEntity
  8
CURVE
100
AcDbLine
 62
253
  6
CONTINUOUS
 10
147.1547642443
 20
87.2305888072
 11
147.1463533537
 21
87.2305888072
  0
LINE
  5
4B0
100
AcDbEntity
  8
0
100
AcDbLine
 62
253
  6
CONTINUOUS
 10
128.478070487
 20
87.4901836435
 11
127.1923562108
 21
87.4901836435
  0
LINE
  5
4B1
100
AcDbEntity
  8
CURVE
100
AcDbLine
 62
253
  6
CONTINUOUS
 10
146.8933080821
 20
87.4925648729
 11
146.9159962105
 21
87.4925648729
  0
LINE
  5
4B2
100
AcDbEntity
  8
0
100
AcDbLine
 62
253
  6
CONTINUOUS
 10
128.6923562108
 20
87.918755583
 11
127.1923562108
 21
87.918755583
  0
LINE
  5
4B3
100
AcDbEntity
  8
CURVE
100
AcDbLine
 62
253
  6
CONTINUOUS
 10
146.9127550495
 20
88.0187555115
 11
146.8965492434
 21
88.0187555115
  0
LINE
  5
4B4
100
AcDbEntity
  8
CURVE
100
AcDbLine
 62
253
  6
CONTINUOUS
 10
147.1969653499
 20
88.3035878072
 11
147.1547642443
 21
88.3035878072
  0
LINE
  5
4B5
100
AcDbEntity
  8
CURVE
100
AcDbLine
 62
253
  6
CONTINUOUS
 10
146.8933080821
 20
88.6687553565
 11
146.9159962105
 21
88.6687553565
  0
LINE
  5
4B6
100
AcDbEntity
  8
0
100
AcDbLine
 62
253
  6
CONTINUOUS
 10
127.4066419124
 20
88.668755583
 11
127.8352133154
 21
88.668755583
  0
LINE
  5
4B7
100
AcDbEntity
  8
0
100
AcDbLine
 62
253
  6
CONTINUOUS
 10
127.4066419124
 20
95.9544692557
 11
127.1923562108
 21
96.168755583
  0
LINE
  5
4B8
100
AcDbEntity
  8
SMUSSO
100
AcDbLine
 62
7
  6
CONTINUOUS
 10
132.4923562108
 20
91.1828501116
 11
132.4775202033
 21
91.1976861191
  0
LINE
  5
4B9
100
AcDbEntity
  8
ASSI
100
AcDbLine
 62
7
  6
CONTINUOUS
 10
132.4923562108
 20
91.1828501116
 11
132.4775202033
 21
91.1976861191
  0
LINE
  5
4BA
100
AcDbEntity
  8
0
100
AcDbLine
 62
253
  6
CONTINUOUS
 10
128.6923562108
 20
95.3116131346
 11
128.478070487
 21
95.5258980314
  0
LINE
  5
4BB
100
AcDbEntity
  8
DRAFT
100
AcDbLine
 62
7
  6
CONTINUOUS
 10
132.4923562108
 20
92.582491132
 11
132.4775205356
 21
92.5973268072
  0
LINE
  5
4BC
100
AcDbEntity
  8
ASSI
100
AcDbLine
 62
7
  6
CONTINUOUS
 10
132.4923562108
 20
92.582491132
 11
132.4775205356
 21
92.5973268072
  0
LINE
  5
4BD
100
AcDbEntity
  8
0
100
AcDbLine
 62
253
  6
CONTINUOUS
 10
128.478070487
 20
96.7044692557
 11
128.6923562108
 21
96.4901843588
  0
LINE
  5
4BE
100
AcDbEntity
  8
SMUSSO
100
AcDbLine
 62
7
  6
CONTINUOUS
 10
131.9923562108
 20
92.2064126546
 11
132.4746865947
 21
91.5252314774
  0
LINE
  5
4BF
100
AcDbEntity
  8
ASSI
100
AcDbLine
 62
7
  6
CONTINUOUS
 10
131.9923562108
 20
92.2064126546
 11
132.4746865947
 21
91.5252314774
  0
LINE
  5
4C0
100
AcDbEntity
  8
DRAFT
100
AcDbLine
 62
7
  6
CONTINUOUS
 10
126.4423562108
 20
114.9973268072
 11
126.5977062887
 21
114.5308975716
  0
LINE
  5
4C1
100
AcDbEntity
  8
RACCORDO
100
AcDbLine
 62
253
  6
CONTINUOUS
 10
134.4942388126
 20
74.0450908735
 11
134.4942388126
 21
74.2147818722
  0
LINE
  5
4C2
100
AcDbEntity
  8
ASSI
100
AcDbLine
 62
253
  6
CONTINUOUS
 10
134.4942388126
 20
74.0450908735
 11
134.4942388126
 21
74.2147818722
  0
LINE
  5
4C3
100
AcDbEntity
  8
RACCORDO
100
AcDbLine
 62
253
  6
CONTINUOUS
 10
134.4942388126
 20
113.9798717423
 11
134.4942388126
 21
114.149562741
  0
LINE
  5
4C4
100
AcDbEntity
  8
ASSI
100
AcDbLine
 62
253
  6
CONTINUOUS
 10
134.4942388126
 20
113.9798717423
 11
134.4942388126
 21
114.149562741
  0
LINE
  5
4C5
100
AcDbEntity
  8
0
100
AcDbLine
 62
253
  6
CONTINUOUS
 10
134.6289274318
 20
96.7473268072
 11
134.6289274318
 21
98.1044696967
  0
LINE
  5
4C6
100
AcDbEntity
  8
0
100
AcDbLine
 62
253
  6
CONTINUOUS
 10
135.2170226915
 20
98.1044696967
 11
135.2170226915
 21
96.7473268072
  0
LINE
  5
4C7
100
AcDbEntity
  8
0
100
AcDbLine
 62
7
  6
CONTINUOUS
 10
135.4423562108
 20
74.7761017162
 11
135.4423562108
 21
74.9593798979
  0
LWPOLYLINE
  5
4C8
100
AcDbEntity
  8
ASSI
100
AcDbPolyline
 62
7
  6
CONTINUOUS
 90
17
 70
0
 10
131.7364234781
 20
70.3465533825
 10
131.7368495794
 20
70.3493387775
 10
131.7379469079
 20
70.352788665
 10
131.7397344966
 20
70.3569030447
 10
131.7422320158
 20
70.3616689753
 10
131.7454555574
 20
70.3670993982
 10
131.749413528
 20
70.3732331383
 10
131.7541158345
 20
70.3800772751
 10
131.7595724397
 20
70.3876247291
 10
131.765783616
 20
70.3958930872
 10
131.7727370375
 20
70.4048630483
 10
131.7804477867
 20
70.4145539135
 10
131.7889637626
 20
70.4250411735
 10
131.7982991184
 20
70.4363242371
 10
131.808457689
 20
70.4484036955
 10
131.8194882458
 20
70.4613568127
 10
131.8314031197
 20
70.4751853416
  0
LINE
  5
4C9
100
AcDbEntity
  8
RACCORDO
100
AcDbLine
 62
253
  6
CONTINUOUS
 10
126.2099083381
 20
75.268242699
 11
126.0073386655
 21
74.7791962481
  0
LINE
  5
4CA
100
AcDbEntity
  8
ASSI
100
AcDbLine
 62
253
  6
CONTINUOUS
 10
126.2099083381
 20
75.268242699
 11
126.0073386655
 21
74.7791962481
  0
LINE
  5
4CB
100
AcDbEntity
  8
RACCORDO
100
AcDbLine
 62
253
  6
CONTINUOUS
 10
126.9169074235
 20
74.9753940892
 11
126.7143377509
 21
74.4863476384
  0
LINE
  5
4CC
100
AcDbEntity
  8
ASSI
100
AcDbLine
 62
253
  6
CONTINUOUS
 10
126.9169074235
 20
74.9753940892
 11
126.7143377509
 21
74.4863476384
  0
LINE
  5
4CD
100
AcDbEntity
  8
0
100
AcDbLine
 62
253
  6
CONTINUOUS
 10
127.1923562108
 20
88.4544699709
 11
127.4066419124
 21
88.668755583
  0
LINE
  5
4CE
100
AcDbEntity
  8
0
100
AcDbLine
 62
253
  6
CONTINUOUS
 10
127.1923562108
 20
93.5973268072
 11
128.6923562108
 21
94.3473268072
  0
LINE
  5
4CF
100
AcDbEntity
  8
CURVE
100
AcDbLine
 62
253
  6
CONTINUOUS
 10
147.1463533537
 20
88.9261938072
 11
147.1969653499
 21
88.9261938072
  0
LINE
  5
4D0
100
AcDbEntity
  8
0
100
AcDbLine
 62
253
  6
CONTINUOUS
 10
128.6923562108
 20
89.0973268072
 11
127.1923562108
 21
89.0973268072
  0
LINE
  5
4D1
100
AcDbEntity
  8
CURVE
100
AcDbLine
 62
253
  6
CONTINUOUS
 10
146.9159962105
 20
90.1544696312
 11
146.8933080821
 21
90.1544696312
  0
LINE
  5
4D2
100
AcDbEntity
  8
0
100
AcDbLine
 62
253
  6
CONTINUOUS
 10
127.8352133154
 20
97.8830404799
 11
128.0494990616
 21
97.668755583
  0
LINE
  5
4D3
100
AcDbEntity
  8
DRAFT
100
AcDbLine
 62
7
  6
CONTINUOUS
 10
131.9923562108
 20
94.7973268072
 11
132.4775205356
 21
94.3121624825
  0
LINE
  5
4D4
100
AcDbEntity
  8
ASSI
100
AcDbLine
 62
7
  6
CONTINUOUS
 10
131.9923562108
 20
94.7973268072
 11
132.4775205356
 21
94.3121624825
  0
LINE
  5
4D5
100
AcDbEntity
  8
RACCORDO
100
AcDbLine
 62
253
  6
CONTINUOUS
 10
126.0073386655
 20
113.4154573663
 11
126.2099083381
 21
112.9264109155
  0
LINE
  5
4D6
100
AcDbEntity
  8
ASSI
100
AcDbLine
 62
253
  6
CONTINUOUS
 10
126.0073386655
 20
113.4154573663
 11
126.2099083381
 21
112.9264109155
  0
LINE
  5
4D7
100
AcDbEntity
  8
RACCORDO
100
AcDbLine
 62
253
  6
CONTINUOUS
 10
126.7143377509
 20
113.7083059761
 11
126.9169074235
 21
113.2192595252
  0
LINE
  5
4D8
100
AcDbEntity
  8
ASSI
100
AcDbLine
 62
253
  6
CONTINUOUS
 10
126.7143377509
 20
113.7083059761
 11
126.9169074235
 21
113.2192595252
  0
LINE
  5
4D9
100
AcDbEntity
  8
0
100
AcDbLine
 62
253
  6
CONTINUOUS
 10
135.8503558738
 20
97.9687553625
 11
135.8503558738
 21
96.7473268072
  0
LINE
  5
4DA
100
AcDbEntity
  8
0
100
AcDbLine
 62
253
  6
CONTINUOUS
 10
136.3932132108
 20
96.7473268072
 11
136.3932132108
 21
98.1044696967
  0
LINE
  5
4DB
100
AcDbEntity
  8
0
100
AcDbLine
 62
253
  6
CONTINUOUS
 10
136.9813084705
 20
98.1044696967
 11
136.9813084705
 21
96.7473268072
  0
LWPOLYLINE
  5
4DC
100
AcDbEntity
  8
ASSI
100
AcDbPolyline
 62
7
  6
CONTINUOUS
 90
17
 70
0
 10
140.4482889436
 20
117.8484909785
 10
140.4478619228
 20
117.8457835678
 10
140.446763696
 20
117.8424174939
 10
140.4449775228
 20
117.8383927567
 10
140.4424866491
 20
117.8337218767
 10
140.439277012
 20
117.8283923334
 10
140.4353398665
 20
117.8223665657
 10
140.4306668718
 20
117.8156402925
 10
140.4252486169
 20
117.8082177949
 10
140.419079581
 20
117.8000743553
 10
140.412170234
 20
117.7912303848
 10
140.40450497
 20
117.7816654723
 10
140.3960292757
 20
117.7712936679
 10
140.3867223082
 20
117.7601106832
 10
140.3765814919
 20
117.7481208066
 10
140.3655635554
 20
117.7352509531
 10
140.3536576003
 20
117.7215007146
  0
LINE
  5
4DD
100
AcDbEntity
  8
0
100
AcDbLine
 62
253
  6
CONTINUOUS
 10
128.478070487
 20
86.7401836435
 11
128.6923562108
 21
86.9544699709
  0
LWPOLYLINE
  5
4DE
100
AcDbEntity
  8
CURVE
100
AcDbPolyline
 62
253
  6
CONTINUOUS
 90
16
 70
0
 10
147.1824495687
 20
99.5600468333
 10
147.1822149248
 20
99.5599626782
 10
147.1819795655
 20
99.5601324666
 10
147.1817437503
 20
99.5605683866
 10
147.1815077391
 20
99.561282626
 10
147.1812717914
 20
99.5622873729
 10
147.1810361669
 20
99.5635948149
 10
147.1808011253
 20
99.5652171402
 10
147.1805669263
 20
99.5671665365
 10
147.1803338295
 20
99.5694551919
 10
147.1801020947
 20
99.5720952941
 10
147.1798719814
 20
99.5750990311
 10
147.1796437494
 20
99.5784785909
 10
147.1794176584
 20
99.5822461613
 10
147.1791939679
 20
99.5864139302
 10
147.1789729377
 20
99.5909940855
  0
LINE
  5
4DF
100
AcDbEntity
  8
CURVE
100
AcDbLine
 62
253
  6
CONTINUOUS
 10
147.1742544286
 20
90.7739308072
 11
147.1885544593
 21
90.7739308072
  0
LINE
  5
4E0
100
AcDbEntity
  8
CURVE
100
AcDbLine
 62
253
  6
CONTINUOUS
 10
147.1463533537
 20
90.7739308072
 11
147.1658435381
 21
90.7739308072
  0
LINE
  5
4E1
100
AcDbEntity
  8
CURVE
100
AcDbLine
 62
253
  6
CONTINUOUS
 10
146.8933080821
 20
90.8973268072
 11
146.9159962105
 21
90.8973268072
  0
LINE
  5
4E2
100
AcDbEntity
  8
0
100
AcDbLine
 62
7
  6
CONTINUOUS
 10
132.5923562108
 20
90.9973268072
 11
129.4423562108
 21
90.9973268072
  0
LINE
  5
4E3
100
AcDbEntity
  8
0
100
AcDbLine
 62
7
  6
CONTINUOUS
 10
144.0923562108
 20
90.9973268072
 11
146.7780514838
 21
90.9973268072
  0
LINE
  5
4E4
100
AcDbEntity
  8
DRAFT
100
AcDbLine
 62
7
  6
CONTINUOUS
 10
129.8903530699
 20
91.0973268072
 11
132.5923562108
 21
91.0973268072
  0
LINE
  5
4E5
100
AcDbEntity
  8
ASSI
100
AcDbLine
 62
7
  6
CONTINUOUS
 10
129.8903530699
 20
91.0973268072
 11
132.5923562108
 21
91.0973268072
  0
LINE
  5
4E6
100
AcDbEntity
  8
DRAFT
100
AcDbLine
 62
7
  6
CONTINUOUS
 10
144.0923562108
 20
91.0973268072
 11
146.7797969902
 21
91.0973268072
  0
LINE
  5
4E7
100
AcDbEntity
  8
ASSI
100
AcDbLine
 62
7
  6
CONTINUOUS
 10
144.0923562108
 20
91.0973268072
 11
146.7797969902
 21
91.0973268072
  0
LINE
  5
4E8
100
AcDbEntity
  8
DRAFT
100
AcDbLine
 62
7
  6
CONTINUOUS
 10
144.1923562108
 20
91.1828501116
 11
144.0923562108
 21
91.1828501116
  0
LINE
  5
4E9
100
AcDbEntity
  8
ASSI
100
AcDbLine
 62
7
  6
CONTINUOUS
 10
144.1923562108
 20
91.1828501116
 11
144.0923562108
 21
91.1828501116
  0
LINE
  5
4EA
100
AcDbEntity
  8
DRAFT
100
AcDbLine
 62
7
  6
CONTINUOUS
 10
132.5923562108
 20
91.1828501116
 11
132.4923562108
 21
91.1828501116
  0
LINE
  5
4EB
100
AcDbEntity
  8
ASSI
100
AcDbLine
 62
7
  6
CONTINUOUS
 10
132.5923562108
 20
91.1828501116
 11
132.4923562108
 21
91.1828501116
  0
LINE
  5
4EC
100
AcDbEntity
  8
DRAFT
100
AcDbLine
 62
7
  6
CONTINUOUS
 10
129.8423562108
 20
91.1933223529
 11
129.7463606651
 21
91.1933223529
  0
LINE
  5
4ED
100
AcDbEntity
  8
ASSI
100
AcDbLine
 62
7
  6
CONTINUOUS
 10
129.8423562108
 20
91.1933223529
 11
129.7463606651
 21
91.1933223529
  0
LINE
  5
4EE
100
AcDbEntity
  8
SMUSSO
100
AcDbLine
 62
7
  6
CONTINUOUS
 10
129.741996899
 20
91.1976861191
 11
132.4775202033
 21
91.1976861191
  0
LINE
  5
4EF
100
AcDbEntity
  8
ASSI
100
AcDbLine
 62
7
  6
CONTINUOUS
 10
129.741996899
 20
91.1976861191
 11
132.4775202033
 21
91.1976861191
  0
LINE
  5
4F0
100
AcDbEntity
  8
SMUSSO
100
AcDbLine
 62
7
  6
CONTINUOUS
 10
144.2071922184
 20
91.1976861191
 11
146.5790630789
 21
91.1976861191
  0
LINE
  5
4F1
100
AcDbEntity
  8
ASSI
100
AcDbLine
 62
7
  6
CONTINUOUS
 10
144.2071922184
 20
91.1976861191
 11
146.5790630789
 21
91.1976861191
  0
LINE
  5
4F2
100
AcDbEntity
  8
SMUSSO
100
AcDbLine
 62
7
  6
CONTINUOUS
 10
144.0923562108
 20
91.2973268072
 11
132.5923562108
 21
91.2973268072
  0
LINE
  5
4F3
100
AcDbEntity
  8
0
100
AcDbLine
 62
253
  6
CONTINUOUS
 10
127.6209276139
 20
91.3473268072
 11
127.4066419124
 21
91.3473268072
  0
LINE
  5
4F4
100
AcDbEntity
  8
CURVE
100
AcDbLine
 62
253
  6
CONTINUOUS
 10
147.1969653499
 20
91.3965368072
 11
147.1463533537
 21
91.3965368072
  0
LINE
  5
4F5
100
AcDbEntity
  8
SMUSSO
100
AcDbLine
 62
7
  6
CONTINUOUS
 10
129.7402518577
 20
91.3994006977
 11
129.3423562108
 21
91.3994006977
  0
LINE
  5
4F6
100
AcDbEntity
  8
ASSI
100
AcDbLine
 62
7
  6
CONTINUOUS
 10
129.7402518577
 20
91.3994006977
 11
129.3423562108
 21
91.3994006977
  0
LINE
  5
4F7
100
AcDbEntity
  8
SMUSSO
100
AcDbLine
 62
7
  6
CONTINUOUS
 10
144.0923562108
 20
91.7973268072
 11
132.5923562108
 21
91.7973268072
  0
LINE
  5
4F8
100
AcDbEntity
  8
CURVE
100
AcDbLine
 62
253
  6
CONTINUOUS
 10
146.7362364242
 20
92.0973268072
 11
146.7187840177
 21
92.0973268072
  0
LINE
  5
4F9
100
AcDbEntity
  8
CURVE
100
AcDbLine
 62
253
  6
CONTINUOUS
 10
146.648974392
 20
92.0973268072
 11
146.6315219855
 21
92.0973268072
  0
LINE
  5
4FA
100
AcDbEntity
  8
0
100
AcDbLine
 62
253
  6
CONTINUOUS
 10
128.478070487
 20
92.0973268072
 11
128.2637847631
 21
92.0973268072
  0
LINE
  5
4FB
100
AcDbEntity
  8
SMUSSO
100
AcDbLine
 62
7
  6
CONTINUOUS
 10
129.3423562108
 20
92.2064126546
 11
131.9923562108
 21
92.2064126546
  0
LINE
  5
4FC
100
AcDbEntity
  8
ASSI
100
AcDbLine
 62
7
  6
CONTINUOUS
 10
129.3423562108
 20
92.2064126546
 11
131.9923562108
 21
92.2064126546
  0
LINE
  5
4FD
100
AcDbEntity
  8
RACCORDO
100
AcDbLine
 62
7
  6
CONTINUOUS
 10
144.6923562108
 20
92.2064126546
 11
145.5789114155
 21
92.2064126546
  0
LINE
  5
4FE
100
AcDbEntity
  8
ASSI
100
AcDbLine
 62
7
  6
CONTINUOUS
 10
144.6923562108
 20
92.2064126546
 11
145.5789114155
 21
92.2064126546
  0
LINE
  5
4FF
100
AcDbEntity
  8
DRAFT
100
AcDbLine
 62
7
  6
CONTINUOUS
 10
132.5923562108
 20
94.3077990486
 11
132.596544916
 21
94.3057048555
  0
LINE
  5
500
100
AcDbEntity
  8
ASSI
100
AcDbLine
 62
7
  6
CONTINUOUS
 10
132.5923562108
 20
94.3077990486
 11
132.596544916
 21
94.3057048555
  0
LINE
  5
501
100
AcDbEntity
  8
0
100
AcDbLine
 62
253
  6
CONTINUOUS
 10
131.6432132108
 20
97.0187553908
 11
131.9146417944
 21
96.7473268072
  0
LINE
  5
502
100
AcDbEntity
  8
0
100
AcDbLine
 62
253
  6
CONTINUOUS
 10
132.5932132108
 20
97.5616125296
 11
132.3217846556
 21
97.8330411415
  0
LINE
  5
503
100
AcDbEntity
  8
0
100
AcDbLine
 62
253
  6
CONTINUOUS
 10
137.6146416528
 20
97.9687553625
 11
137.6146416528
 21
96.7473268072
  0
LINE
  5
504
100
AcDbEntity
  8
RACCORDO
100
AcDbLine
 62
253
  6
CONTINUOUS
 10
137.6904736091
 20
114.149562741
 11
137.6904736091
 21
113.9798717423
  0
LINE
  5
505
100
AcDbEntity
  8
ASSI
100
AcDbLine
 62
253
  6
CONTINUOUS
 10
137.6904736091
 20
114.149562741
 11
137.6904736091
 21
113.9798717423
  0
LINE
  5
506
100
AcDbEntity
  8
RACCORDO
100
AcDbLine
 62
253
  6
CONTINUOUS
 10
137.6904736091
 20
74.2147818722
 11
137.6904736091
 21
74.0450908735
  0
LINE
  5
507
100
AcDbEntity
  8
ASSI
100
AcDbLine
 62
253
  6
CONTINUOUS
 10
137.6904736091
 20
74.2147818722
 11
137.6904736091
 21
74.0450908735
  0
LINE
  5
508
100
AcDbEntity
  8
SMUSSO
100
AcDbLine
 62
7
  6
CONTINUOUS
 10
137.8423562108
 20
109.5473268072
 11
137.8423562108
 21
106.2473268072
  0
LINE
  5
509
100
AcDbEntity
  8
ASSI
100
AcDbLine
 62
7
  6
CONTINUOUS
 10
137.8423562108
 20
109.5473268072
 11
137.8423562108
 21
106.2473268072
  0
LINE
  5
50A
100
AcDbEntity
  8
SMUSSO
100
AcDbLine
 62
7
  6
CONTINUOUS
 10
137.8423562108
 20
104.5473268072
 11
137.8423562108
 21
101.2473268072
  0
LINE
  5
50B
100
AcDbEntity
  8
ASSI
100
AcDbLine
 62
7
  6
CONTINUOUS
 10
137.8423562108
 20
104.5473268072
 11
137.8423562108
 21
101.2473268072
  0
LINE
  5
50C
100
AcDbEntity
  8
SMUSSO
100
AcDbLine
 62
7
  6
CONTINUOUS
 10
138.41970648
 20
110.1246770764
 11
138.41970648
 21
105.669976538
  0
LINE
  5
50D
100
AcDbEntity
  8
ASSI
100
AcDbLine
 62
7
  6
CONTINUOUS
 10
138.41970648
 20
110.1246770764
 11
138.41970648
 21
105.669976538
  0
LINE
  5
50E
100
AcDbEntity
  8
SMUSSO
100
AcDbLine
 62
7
  6
CONTINUOUS
 10
138.41970648
 20
105.1246770764
 11
138.41970648
 21
100.669976538
  0
LINE
  5
50F
100
AcDbEntity
  8
ASSI
100
AcDbLine
 62
7
  6
CONTINUOUS
 10
138.41970648
 20
105.1246770764
 11
138.41970648
 21
100.669976538
  0
LINE
  5
510
100
AcDbEntity
  8
RACCORDO
100
AcDbLine
 62
253
  6
CONTINUOUS
 10
138.5903365348
 20
114.1505607008
 11
138.5903365348
 21
113.9953071311
  0
LINE
  5
511
100
AcDbEntity
  8
ASSI
100
AcDbLine
 62
253
  6
CONTINUOUS
 10
138.5903365348
 20
114.1505607008
 11
138.5903365348
 21
113.9953071311
  0
LINE
  5
512
100
AcDbEntity
  8
RACCORDO
100
AcDbLine
 62
253
  6
CONTINUOUS
 10
138.5903365348
 20
74.1993464833
 11
138.5903365348
 21
74.0440929137
  0
LINE
  5
513
100
AcDbEntity
  8
ASSI
100
AcDbLine
 62
253
  6
CONTINUOUS
 10
138.5903365348
 20
74.1993464833
 11
138.5903365348
 21
74.0440929137
  0
LINE
  5
514
100
AcDbEntity
  8
RACCORDO
100
AcDbLine
 62
7
  6
CONTINUOUS
 10
138.5923562108
 20
114.1505607008
 11
138.5923562108
 21
113.9973268072
  0
LINE
  5
515
100
AcDbEntity
  8
ASSI
100
AcDbLine
 62
7
  6
CONTINUOUS
 10
138.5923562108
 20
114.1505607008
 11
138.5923562108
 21
113.9973268072
  0
LINE
  5
516
100
AcDbEntity
  8
RACCORDO
100
AcDbLine
 62
7
  6
CONTINUOUS
 10
138.5923562108
 20
74.1973268072
 11
138.5923562108
 21
74.0440929137
  0
LINE
  5
517
100
AcDbEntity
  8
ASSI
100
AcDbLine
 62
7
  6
CONTINUOUS
 10
138.5923562108
 20
74.1973268072
 11
138.5923562108
 21
74.0440929137
  0
LINE
  5
518
100
AcDbEntity
  8
RACCORDO
100
AcDbLine
 62
7
  6
CONTINUOUS
 10
139.0923562108
 20
71.7592875685
 11
139.0923562108
 21
73.0973268072
  0
LINE
  5
519
100
AcDbEntity
  8
RACCORDO
100
AcDbLine
 62
7
  6
CONTINUOUS
 10
139.0923562108
 20
115.0973268072
 11
139.0923562108
 21
116.4353660459
  0
LINE
  5
51A
100
AcDbEntity
  8
0
100
AcDbLine
 62
253
  6
CONTINUOUS
 10
139.1432132108
 20
99.0973268072
 11
139.1432132108
 21
96.0973268072
  0
LINE
  5
51B
100
AcDbEntity
  8
DRAFT
100
AcDbLine
 62
7
  6
CONTINUOUS
 10
145.7423562108
 20
114.9973268072
 11
145.587006133
 21
114.5308975716
  0
LINE
  5
51C
100
AcDbEntity
  8
RACCORDO
100
AcDbLine
 62
253
  6
CONTINUOUS
 10
145.2678049982
 20
113.2192595252
 11
145.4703746708
 21
113.7083059761
  0
LINE
  5
51D
100
AcDbEntity
  8
ASSI
100
AcDbLine
 62
253
  6
CONTINUOUS
 10
145.2678049982
 20
113.2192595252
 11
145.4703746708
 21
113.7083059761
  0
LINE
  5
51E
100
AcDbEntity
  8
RACCORDO
100
AcDbLine
 62
253
  6
CONTINUOUS
 10
145.9748040836
 20
112.9264109155
 11
146.1773737562
 21
113.4154573663
  0
LINE
  5
51F
100
AcDbEntity
  8
ASSI
100
AcDbLine
 62
253
  6
CONTINUOUS
 10
145.9748040836
 20
112.9264109155
 11
146.1773737562
 21
113.4154573663
  0
LINE
  5
520
100
AcDbEntity
  8
0
100
AcDbLine
 62
253
  6
CONTINUOUS
 10
127.1923562108
 20
83.5258980314
 11
127.4066419124
 21
83.7401836435
  0
LINE
  5
521
100
AcDbEntity
  8
0
100
AcDbLine
 62
253
  6
CONTINUOUS
 10
128.0494990616
 20
88.2401836435
 11
128.6923562108
 21
88.668755583
  0
LINE
  5
522
100
AcDbEntity
  8
0
100
AcDbLine
 62
253
  6
CONTINUOUS
 10
128.6923562108
 20
92.5258980314
 11
127.1923562108
 21
92.5258980314
  0
LINE
  5
523
100
AcDbEntity
  8
DRAFT
100
AcDbLine
 62
7
  6
CONTINUOUS
 10
144.1923562108
 20
92.582491132
 11
144.0923562108
 21
92.582491132
  0
LINE
  5
524
100
AcDbEntity
  8
ASSI
100
AcDbLine
 62
7
  6
CONTINUOUS
 10
144.1923562108
 20
92.582491132
 11
144.0923562108
 21
92.582491132
  0
LINE
  5
525
100
AcDbEntity
  8
DRAFT
100
AcDbLine
 62
7
  6
CONTINUOUS
 10
132.5923562108
 20
92.582491132
 11
132.4923562108
 21
92.582491132
  0
LINE
  5
526
100
AcDbEntity
  8
ASSI
100
AcDbLine
 62
7
  6
CONTINUOUS
 10
132.5923562108
 20
92.582491132
 11
132.4923562108
 21
92.582491132
  0
LINE
  5
527
100
AcDbEntity
  8
RACCORDO
100
AcDbLine
 62
7
  6
CONTINUOUS
 10
132.5923562108
 20
92.6973268072
 11
132.4775205356
 21
92.6973268072
  0
LINE
  5
528
100
AcDbEntity
  8
0
100
AcDbLine
 62
7
  6
CONTINUOUS
 10
132.4775205356
 20
92.6973268072
 11
132.5923562108
 21
92.6973268072
  0
LINE
  5
529
100
AcDbEntity
  8
0
100
AcDbLine
 62
7
  6
CONTINUOUS
 10
144.0923562108
 20
92.6973268072
 11
144.2071918861
 21
92.6973268072
  0
LINE
  5
52A
100
AcDbEntity
  8
RACCORDO
100
AcDbLine
 62
7
  6
CONTINUOUS
 10
144.0923562108
 20
92.6973268072
 11
144.2071918861
 21
92.6973268072
  0
LINE
  5
52B
100
AcDbEntity
  8
CURVE
100
AcDbLine
 62
253
  6
CONTINUOUS
 10
146.6625623373
 20
93.0973268072
 11
146.6507196326
 21
93.0973268072
  0
LINE
  5
52C
100
AcDbEntity
  8
CURVE
100
AcDbLine
 62
253
  6
CONTINUOUS
 10
146.7051960744
 20
93.0973268072
 11
146.7146702373
 21
93.0973268072
  0
LINE
  5
52D
100
AcDbEntity
  8
CURVE
100
AcDbLine
 62
253
  6
CONTINUOUS
 10
146.6815106631
 20
93.0973268072
 11
146.6886162883
 21
93.0973268072
  0
LINE
  5
52E
100
AcDbEntity
  8
0
100
AcDbLine
 62
253
  6
CONTINUOUS
 10
132.5923562108
 20
93.4973268072
 11
144.0923562108
 21
93.4973268072
  0
LINE
  5
52F
100
AcDbEntity
  8
0
100
AcDbLine
 62
253
  6
CONTINUOUS
 10
128.6923562108
 20
93.5973268072
 11
127.1923562108
 21
93.5973268072
  0
LINE
  5
530
100
AcDbEntity
  8
CURVE
100
AcDbLine
 62
253
  6
CONTINUOUS
 10
146.6507196326
 20
94.0473268072
 11
146.6625623373
 21
94.0473268072
  0
LINE
  5
531
100
AcDbEntity
  8
RACCORDO
100
AcDbLine
 62
7
  6
CONTINUOUS
 10
132.5923562108
 20
94.2973268072
 11
132.4775205356
 21
94.2973268072
  0
LINE
  5
532
100
AcDbEntity
  8
0
100
AcDbLine
 62
7
  6
CONTINUOUS
 10
132.4775205356
 20
94.2973268072
 11
144.2071918861
 21
94.2973268072
  0
LINE
  5
533
100
AcDbEntity
  8
RACCORDO
100
AcDbLine
 62
7
  6
CONTINUOUS
 10
144.0923562108
 20
94.2973268072
 11
144.2071918861
 21
94.2973268072
  0
LINE
  5
534
100
AcDbEntity
  8
DRAFT
100
AcDbLine
 62
7
  6
CONTINUOUS
 10
144.2071918861
 20
94.3077990486
 11
144.0923562108
 21
94.3077990486
  0
LINE
  5
535
100
AcDbEntity
  8
ASSI
100
AcDbLine
 62
7
  6
CONTINUOUS
 10
144.2071918861
 20
94.3077990486
 11
144.0923562108
 21
94.3077990486
  0
LINE
  5
536
100
AcDbEntity
  8
DRAFT
100
AcDbLine
 62
7
  6
CONTINUOUS
 10
132.5923562108
 20
94.3077990486
 11
132.4775205356
 21
94.3077990486
  0
LINE
  5
537
100
AcDbEntity
  8
ASSI
100
AcDbLine
 62
7
  6
CONTINUOUS
 10
132.5923562108
 20
94.3077990486
 11
132.4775205356
 21
94.3077990486
  0
LINE
  5
538
100
AcDbEntity
  8
DRAFT
100
AcDbLine
 62
7
  6
CONTINUOUS
 10
132.4746865947
 20
94.3149964234
 11
144.210025827
 21
94.3149964234
  0
LINE
  5
539
100
AcDbEntity
  8
ASSI
100
AcDbLine
 62
7
  6
CONTINUOUS
 10
132.4746865947
 20
94.3149964234
 11
144.210025827
 21
94.3149964234
  0
LINE
  5
53A
100
AcDbEntity
  8
0
100
AcDbLine
 62
253
  6
CONTINUOUS
 10
128.6923562108
 20
94.3473268072
 11
127.1923562108
 21
94.3473268072
  0
LWPOLYLINE
  5
53B
100
AcDbEntity
  8
CURVE
100
AcDbPolyline
 62
253
  6
CONTINUOUS
 90
15
 70
0
 10
147.1814044402
 20
89.9785669214
 10
147.1811509213
 20
89.9786748886
 10
147.1808972516
 20
89.9790179704
 10
147.1806436373
 20
89.9796249367
 10
147.1803902847
 20
89.9805245578
 10
147.1801374001
 20
89.9817456036
 10
147.1798851898
 20
89.9833168443
 10
147.1796338601
 20
89.9852670499
 10
147.1793836173
 20
89.9876249905
 10
147.1791902304
 20
89.9897548878
 10
147.1789978187
 20
89.9921595857
 10
147.1788065776
 20
89.9948507717
 10
147.1786167027
 20
89.9978401329
 10
147.1784283898
 20
90.001139357
 10
147.1782418343
 20
90.0047601312
  0
LINE
  5
53C
100
AcDbEntity
  8
0
100
AcDbLine
 62
253
  6
CONTINUOUS
 10
145.2678049982
 20
74.9753940892
 11
145.350354602
 21
74.7761017162
  0
LINE
  5
53D
100
AcDbEntity
  8
RACCORDO
100
AcDbLine
 62
253
  6
CONTINUOUS
 10
145.4703746708
 20
74.4863476384
 11
145.3510776145
 21
74.7743562097
  0
LINE
  5
53E
100
AcDbEntity
  8
ASSI
100
AcDbLine
 62
253
  6
CONTINUOUS
 10
145.4703746708
 20
74.4863476384
 11
145.3510776145
 21
74.7743562097
  0
LINE
  5
53F
100
AcDbEntity
  8
RACCORDO
100
AcDbLine
 62
253
  6
CONTINUOUS
 10
146.1773737562
 20
74.7791962481
 11
146.0580766999
 21
75.0672048194
  0
LINE
  5
540
100
AcDbEntity
  8
ASSI
100
AcDbLine
 62
253
  6
CONTINUOUS
 10
146.1773737562
 20
74.7791962481
 11
146.0580766999
 21
75.0672048194
  0
LINE
  5
541
100
AcDbEntity
  8
0
100
AcDbLine
 62
253
  6
CONTINUOUS
 10
145.9839316016
 20
75.277370217
 11
146.0573536874
 21
75.0689503259
  0
LINE
  5
542
100
AcDbEntity
  8
DRAFT
100
AcDbLine
 62
7
  6
CONTINUOUS
 10
145.587006133
 20
73.6637560428
 11
145.7423562108
 21
73.1973268072
  0
LWPOLYLINE
  5
543
100
AcDbEntity
  8
0
100
AcDbPolyline
 62
253
  6
CONTINUOUS
 90
80
 70
0
 10
140.952081131
 20
104.1009893174
 10
140.9529812108
 20
104.0583853103
 10
140.9556453197
 20
104.0158269469
 10
140.9600192619
 20
103.9733923294
 10
140.9660488416
 20
103.9311595603
 10
140.9738364752
 20
103.8884364103
 10
140.9832420556
 20
103.8460503554
 10
140.9942229581
 20
103.8040482034
 10
141.0067365582
 20
103.7624767621
 10
141.0212494772
 20
103.7199824522
 10
141.0373266568
 20
103.6780531836
 10
141.0549382901
 20
103.6367431526
 10
141.0740545699
 20
103.5961065552
 10
141.0950129436
 20
103.5555224978
 10
141.1174796152
 20
103.5157543905
 10
141.1414371479
 20
103.4768654441
 10
141.1668681051
 20
103.4389188694
 10
141.1940341808
 20
103.4016150522
 10
141.2226717726
 20
103.3654283128
 10
141.2527668984
 20
103.3304497651
 10
141.284305576
 20
103.2967705228
 10
141.3175427575
 20
103.2642131206
 10
141.3521592344
 20
103.2331188259
 10
141.3880809621
 20
103.2035372077
 10
141.4252338963
 20
103.175517835
 10
141.4564577929
 20
103.1538126604
 10
141.4884117098
 20
103.1331986897
 10
141.5210528787
 20
103.1136907069
 10
141.5543385312
 20
103.095303496
 10
141.588225899
 20
103.0780518409
 10
141.6315740238
 20
103.0580139639
 10
141.6757221407
 20
103.0398075368
 10
141.7205885488
 20
103.0234494433
 10
141.7660915476
 20
103.0089565669
 10
141.8113315624
 20
102.9965529742
 10
141.8570339063
 20
102.985985607
 10
141.9031254646
 20
102.9772745482
 10
141.9495331225
 20
102.9704398809
 10
141.9961105137
 20
102.9655068565
 10
142.0428508812
 20
102.9624785447
 10
142.089674966
 20
102.9613690352
 10
142.1365035092
 20
102.9621924172
 10
142.1838712279
 20
102.9650065625
 10
142.2310816688
 20
102.969799921
 10
142.2780543334
 20
102.9765532079
 10
142.3247087235
 20
102.9852471389
 10
142.3708269443
 20
102.9958294335
 10
142.4164659397
 20
103.00831098
 10
142.4615428889
 20
103.0226810818
 10
142.5059749708
 20
103.0389290422
 10
142.5488116249
 20
103.0566565902
 10
142.5908834533
 20
103.0761334367
 10
142.6321243934
 20
103.0973159362
 10
142.6724683828
 20
103.120160443
 10
142.7117712986
 20
103.1445718612
 10
142.7500549333
 20
103.170550806
 10
142.7872591111
 20
103.19805301
 10
142.8233236557
 20
103.227034206
 10
142.8587008457
 20
103.2579138022
 10
142.892784729
 20
103.290216391
 10
142.9255179303
 20
103.3238870459
 10
142.956843074
 20
103.3588708403
 10
142.9866645946
 20
103.3950609729
 10
143.0149778561
 20
103.4324430537
 10
143.0417360173
 20
103.4709542656
 10
143.0668922366
 20
103.5105317914
 10
143.0900127047
 20
103.5504117168
 10
143.1114951162
 20
103.5911963869
 10
143.1312944321
 20
103.6328209903
 10
143.1493656132
 20
103.6752207155
 10
143.1656561001
 20
103.7182892715
 10
143.1801707425
 20
103.7619907312
 10
143.1929036414
 20
103.806248981
 10
143.2038488974
 20
103.8509879077
 10
143.21311444
 20
103.8967667199
 10
143.2205192472
 20
103.9428805736
 10
143.2260467818
 20
103.9892485203
 10
143.2296805067
 20
104.0357896116
 10
143.2314092885
 20
104.0825108811
 10
143.231227888
 20
104.1292497682
  0
LINE
  5
544
100
AcDbEntity
  8
DRAFT
100
AcDbLine
 62
7
  6
CONTINUOUS
 10
139.5033353797
 20
113.9083059761
 11
139.5033353797
 21
113.7083059761
  0
LINE
  5
545
100
AcDbEntity
  8
ASSI
100
AcDbLine
 62
7
  6
CONTINUOUS
 10
139.5033353797
 20
113.9083059761
 11
139.5033353797
 21
113.7083059761
  0
LINE
  5
546
100
AcDbEntity
  8
DRAFT
100
AcDbLine
 62
7
  6
CONTINUOUS
 10
139.5033353797
 20
74.4863476384
 11
139.5033353797
 21
74.2863476384
  0
LINE
  5
547
100
AcDbEntity
  8
ASSI
100
AcDbLine
 62
7
  6
CONTINUOUS
 10
139.5033353797
 20
74.4863476384
 11
139.5033353797
 21
74.2863476384
  0
LINE
  5
548
100
AcDbEntity
  8
DRAFT
100
AcDbLine
 62
7
  6
CONTINUOUS
 10
139.5923562108
 20
114.141833833
 11
139.5923562108
 21
114.0973268072
  0
LINE
  5
549
100
AcDbEntity
  8
DRAFT
100
AcDbLine
 62
7
  6
CONTINUOUS
 10
139.5923562108
 20
113.9973268072
 11
139.5923562108
 21
113.7973268072
  0
LINE
  5
54A
100
AcDbEntity
  8
ASSI
100
AcDbLine
 62
7
  6
CONTINUOUS
 10
139.5923562108
 20
113.9973268072
 11
139.5923562108
 21
113.7973268072
  0
LINE
  5
54B
100
AcDbEntity
  8
DRAFT
100
AcDbLine
 62
7
  6
CONTINUOUS
 10
139.5923562108
 20
74.3973268072
 11
139.5923562108
 21
74.1973268072
  0
LINE
  5
54C
100
AcDbEntity
  8
ASSI
100
AcDbLine
 62
7
  6
CONTINUOUS
 10
139.5923562108
 20
74.3973268072
 11
139.5923562108
 21
74.1973268072
  0
LINE
  5
54D
100
AcDbEntity
  8
ASSI
100
AcDbLine
 62
7
  6
CONTINUOUS
 10
139.5923562108
 20
70.303144637
 11
139.5923562108
 21
71.7634069121
  0
LINE
  5
54E
100
AcDbEntity
  8
DRAFT
100
AcDbLine
 62
7
  6
CONTINUOUS
 10
139.5923562108
 20
74.0528197815
 11
139.5923562108
 21
74.0973268072
  0
LINE
  5
54F
100
AcDbEntity
  8
ASSI
100
AcDbLine
 62
7
  6
CONTINUOUS
 10
139.5923562108
 20
116.4312467024
 11
139.5923562108
 21
117.8915089774
  0
LINE
  5
550
100
AcDbEntity
  8
ASSI
100
AcDbLine
 62
253
  6
CONTINUOUS
 10
140.4482889436
 20
70.3465533825
 11
140.4482889436
 21
71.7634286403
  0
LINE
  5
551
100
AcDbEntity
  8
ASSI
100
AcDbLine
 62
253
  6
CONTINUOUS
 10
140.4482889436
 20
116.4312249741
 11
140.4482889436
 21
117.8484909785
  0
LINE
  5
552
100
AcDbEntity
  8
DRAFT
100
AcDbLine
 62
7
  6
CONTINUOUS
 10
140.4923562108
 20
70.2973268072
 11
140.4923562108
 21
71.6973268072
  0
LINE
  5
553
100
AcDbEntity
  8
DRAFT
100
AcDbLine
 62
7
  6
CONTINUOUS
 10
140.4923562108
 20
116.4973268072
 11
140.4923562108
 21
117.8973268072
  0
LINE
  5
554
100
AcDbEntity
  8
0
100
AcDbLine
 62
253
  6
CONTINUOUS
 10
127.1923562108
 20
81.2758983891
 11
127.4066419124
 21
81.4901840012
  0
LINE
  5
555
100
AcDbEntity
  8
DRAFT
100
AcDbLine
 62
7
  6
CONTINUOUS
 10
144.0923562108
 20
94.3077990486
 11
144.0881675057
 21
94.3057048555
  0
LINE
  5
556
100
AcDbEntity
  8
ASSI
100
AcDbLine
 62
7
  6
CONTINUOUS
 10
144.0923562108
 20
94.3077990486
 11
144.0881675057
 21
94.3057048555
  0
LINE
  5
557
100
AcDbEntity
  8
0
100
AcDbLine
 62
253
  6
CONTINUOUS
 10
127.6209276139
 20
94.7758980314
 11
127.4066419124
 21
94.7758980314
  0
LINE
  5
558
100
AcDbEntity
  8
SMUSSO
100
AcDbLine
 62
7
  6
CONTINUOUS
 10
131.9923562108
 20
94.7973268072
 11
144.6923562108
 21
94.7973268072
  0
LINE
  5
559
100
AcDbEntity
  8
ASSI
100
AcDbLine
 62
7
  6
CONTINUOUS
 10
131.9923562108
 20
94.7973268072
 11
144.6923562108
 21
94.7973268072
  0
LINE
  5
55A
100
AcDbEntity
  8
CURVE
100
AcDbLine
 62
253
  6
CONTINUOUS
 10
146.7075646142
 20
94.9973268072
 11
146.7170387771
 21
94.9973268072
  0
LINE
  5
55B
100
AcDbEntity
  8
CURVE
100
AcDbLine
 62
253
  6
CONTINUOUS
 10
146.6507196326
 20
94.9973268072
 11
146.6578252553
 21
94.9973268072
  0
LINE
  5
55C
100
AcDbEntity
  8
0
100
AcDbLine
 62
253
  6
CONTINUOUS
 10
128.478070487
 20
95.5258980314
 11
128.2637847631
 21
95.5258980314
  0
LINE
  5
55D
100
AcDbEntity
  8
0
100
AcDbLine
 62
253
  6
CONTINUOUS
 10
128.478070487
 20
95.9544692557
 11
127.4066419124
 21
95.9544692557
  0
LINE
  5
55E
100
AcDbEntity
  8
0
100
AcDbLine
 62
253
  6
CONTINUOUS
 10
139.1432132108
 20
96.0973268072
 11
129.8432132108
 21
96.0973268072
  0
LINE
  5
55F
100
AcDbEntity
  8
SMUSSO
100
AcDbLine
 62
7
  6
CONTINUOUS
 10
146.5790630789
 20
91.1976861191
 11
146.7797969902
 21
91.0973268072
  0
LINE
  5
560
100
AcDbEntity
  8
ASSI
100
AcDbLine
 62
7
  6
CONTINUOUS
 10
146.5790630789
 20
91.1976861191
 11
146.7797969902
 21
91.0973268072
  0
LINE
  5
561
100
AcDbEntity
  8
0
100
AcDbLine
 62
253
  6
CONTINUOUS
 10
135.7146416528
 20
98.1044696967
 11
135.8503558738
 21
97.9687553625
  0
LINE
  5
562
100
AcDbEntity
  8
SMUSSO
100
AcDbLine
 62
7
  6
CONTINUOUS
 10
130.8423562108
 20
104.5473268072
 11
130.2650059417
 21
105.1246770764
  0
LINE
  5
563
100
AcDbEntity
  8
ASSI
100
AcDbLine
 62
7
  6
CONTINUOUS
 10
130.8423562108
 20
104.5473268072
 11
130.2650059417
 21
105.1246770764
  0
LINE
  5
564
100
AcDbEntity
  8
0
100
AcDbLine
 62
253
  6
CONTINUOUS
 10
137.4789274318
 20
98.1044696967
 11
137.6146416528
 21
97.9687553625
  0
LWPOLYLINE
  5
565
100
AcDbEntity
  8
0
100
AcDbPolyline
 62
253
  6
CONTINUOUS
 90
83
 70
0
 10
142.6442546153
 20
107.4087282867
 10
142.6438153178
 20
107.4294683999
 10
142.6425137464
 20
107.450190141
 10
142.6403759289
 20
107.4708563824
 10
142.6374278929
 20
107.4914299965
 10
142.6336956662
 20
107.5118738558
 10
142.6291745928
 20
107.5322745321
 10
142.6239031994
 20
107.5524863834
 10
142.6178984272
 20
107.57248947
 10
142.6111772172
 20
107.5922638519
 10
142.6037565106
 20
107.6117895893
 10
142.5954305746
 20
107.6315465209
 10
142.5863968818
 20
107.6509913853
 10
142.5766664881
 20
107.670094967
 10
142.5662504497
 20
107.6888280503
 10
142.5551598225
 20
107.7071614195
 10
142.5452793036
 20
107.722306272
 10
142.5349291647
 20
107.7371285165
 10
142.5241126948
 20
107.7516112493
 10
142.5128812878
 20
107.7656772841
 10
142.5011898244
 20
107.7793662773
 10
142.4890373717
 20
107.7926545867
 10
142.4736037381
 20
107.8082808365
 10
142.4575184235
 20
107.8232517353
 10
142.4408162359
 20
107.8375425474
 10
142.4235319835
 20
107.8511285371
 10
142.4057004747
 20
107.8639849688
 10
142.387205872
 20
107.8761845956
 10
142.36822561
 20
107.8876080758
 10
142.3487948114
 20
107.8982458232
 10
142.3289485989
 20
107.9080882519
 10
142.3087220953
 20
107.9171257757
 10
142.2880272531
 20
107.9253955273
 10
142.2670190272
 20
107.932833196
 10
142.2457333164
 20
107.9394308976
 10
142.2242060194
 20
107.9451807483
 10
142.2024730352
 20
107.9500748638
 10
142.180491743
 20
107.9541171647
 10
142.158367193
 20
107.9572769771
 10
142.1361271095
 20
107.9595415017
 10
142.1137992165
 20
107.9608979392
 10
142.0914112381
 20
107.9613334904
 10
142.0691330214
 20
107.9608452919
 10
142.0468644955
 20
107.9594459416
 10
142.0246473104
 20
107.957146376
 10
142.0025231161
 20
107.9539575322
 10
141.9805335627
 20
107.9498903467
 10
141.9587203001
 20
107.9449557564
 10
141.9371249784
 20
107.9391646981
 10
141.9157892476
 20
107.9325281086
 10
141.8947547577
 20
107.9250569246
 10
141.8740631587
 20
107.916762083
 10
141.8538631102
 20
107.9077058439
 10
141.8340693308
 20
107.8978536019
 10
141.8147077274
 20
107.8872132433
 10
141.7958042071
 20
107.8757926545
 10
141.7773846766
 20
107.8635997219
 10
141.7596262616
 20
107.8507579997
 10
141.7424062018
 20
107.8371898002
 10
141.7257615438
 20
107.822920228
 10
141.7097293341
 20
107.807974388
 10
141.6943466191
 20
107.7923773846
 10
141.6822238883
 20
107.7791032008
 10
141.6705620845
 20
107.7654303077
 10
141.6593592736
 20
107.7513820802
 10
141.6485669778
 20
107.7369150109
 10
141.6382393926
 20
107.7221096541
 10
141.6283800355
 20
107.7069828657
 10
141.6173094123
 20
107.6886663115
 10
141.6069120862
 20
107.6699512458
 10
141.5971990229
 20
107.6508667822
 10
141.5881811882
 20
107.6314420339
 10
141.5798695477
 20
107.6117061145
 10
141.5724579613
 20
107.5921926602
 10
141.5657448825
 20
107.5724310332
 10
141.559747211
 20
107.5524411359
 10
141.5544818466
 20
107.5322428708
 10
141.549965689
 20
107.5118561404
 10
141.5462358284
 20
107.4914180461
 10
141.5432895948
 20
107.4708503346
 10
141.5411529718
 20
107.4501900891
 10
141.5398519433
 20
107.4294743932
 10
141.539412493
 20
107.4087403302
  0
LINE
  5
566
100
AcDbEntity
  8
0
100
AcDbLine
 62
253
  6
CONTINUOUS
 10
141.5394132108
 20
107.4087408072
 11
141.5394132108
 21
105.0982308072
  0
LINE
  5
567
100
AcDbEntity
  8
0
100
AcDbLine
 62
253
  6
CONTINUOUS
 10
142.0893652108
 20
104.6648368072
 11
142.0893652108
 21
106.2993058072
  0
LINE
  5
568
100
AcDbEntity
  8
DRAFT
100
AcDbLine
 62
7
  6
CONTINUOUS
 10
142.3405775255
 20
74.1749959306
 11
142.3405775255
 21
74.3973268072
  0
LINE
  5
569
100
AcDbEntity
  8
DRAFT
100
AcDbLine
 62
7
  6
CONTINUOUS
 10
142.3405775255
 20
113.7973268072
 11
142.3405775255
 21
114.0196576839
  0
LINE
  5
56A
100
AcDbEntity
  8
RACCORDO
100
AcDbLine
 62
7
  6
CONTINUOUS
 10
142.450534509
 20
114.6802510904
 11
142.450534509
 21
114.0543449241
  0
LINE
  5
56B
100
AcDbEntity
  8
RACCORDO
100
AcDbLine
 62
7
  6
CONTINUOUS
 10
142.450534509
 20
74.1403086904
 11
142.450534509
 21
73.514402524
  0
LINE
  5
56C
100
AcDbEntity
  8
0
100
AcDbLine
 62
253
  6
CONTINUOUS
 10
142.6442262108
 20
105.0982308072
 11
142.6442262108
 21
107.4087288072
  0
LWPOLYLINE
  5
56D
100
AcDbEntity
  8
ASSI
100
AcDbPolyline
 62
7
  6
CONTINUOUS
 90
17
 70
0
 10
139.5923562108
 20
70.3461845169
 10
139.5926877555
 20
70.3488962285
 10
139.5936958417
 20
70.3522778077
 10
139.5953999601
 20
70.3563292544
 10
139.597820297
 20
70.3610374757
 10
139.6009733771
 20
70.3664155646
 10
139.604867634
 20
70.3725028
 10
139.609513273
 20
70.3793070456
 10
139.6149202129
 20
70.3868204377
 10
139.6210874195
 20
70.3950586639
 10
139.6280018945
 20
70.404002549
 10
139.6356783976
 20
70.4136712681
 10
139.6441634427
 20
70.4241380348
 10
139.6534693046
 20
70.4354003956
 10
139.6636003883
 20
70.4474608039
 10
139.6746084098
 20
70.4603998326
 10
139.6865067801
 20
70.4742196962
  0
LWPOLYLINE
  5
56E
100
AcDbEntity
  8
RACCORDO
100
AcDbPolyline
 62
7
  6
CONTINUOUS
 90
5
 70
0
 10
128.2014727372
 20
72.3382102809
 10
128.2249915933
 20
72.3742578469
 10
128.2489761499
 20
72.4106810434
 10
128.2734264069
 20
72.447408823
 10
128.298401654
 20
72.4843379228
  0
LINE
  5
56F
100
AcDbEntity
  8
RACCORDO
100
AcDbLine
 62
7
  6
CONTINUOUS
 10
129.7370614429
 20
74.0143834856
 11
129.8441348962
 21
74.1749959306
  0
LWPOLYLINE
  5
570
100
AcDbEntity
  8
RACCORDO
100
AcDbPolyline
 62
7
  6
CONTINUOUS
 90
3
 70
0
 10
128.298401654
 20
72.4843379228
 10
128.3495713807
 20
72.5587365626
 10
128.3755797124
 20
72.5961885428
  0
LINE
  5
571
100
AcDbEntity
  8
RACCORDO
100
AcDbLine
 62
7
  6
CONTINUOUS
 10
128.3755797124
 20
72.5961885428
 11
128.45482159
 21
72.70914292
  0
LINE
  5
572
100
AcDbEntity
  8
RACCORDO
100
AcDbLine
 62
7
  6
CONTINUOUS
 10
128.45482159
 20
72.70914292
 11
128.5082554917
 21
72.7846335635
  0
LINE
  5
573
100
AcDbEntity
  8
DRAFT
100
AcDbLine
 62
7
  6
CONTINUOUS
 10
144.2071918861
 20
94.3121624825
 11
144.6923562108
 21
94.7973268072
  0
LINE
  5
574
100
AcDbEntity
  8
ASSI
100
AcDbLine
 62
7
  6
CONTINUOUS
 10
144.2071918861
 20
94.3121624825
 11
144.6923562108
 21
94.7973268072
  0
LINE
  5
575
100
AcDbEntity
  8
0
100
AcDbLine
 62
253
  6
CONTINUOUS
 10
128.0494990616
 20
83.3116124193
 11
128.6923562108
 21
83.7401836435
  0
LINE
  5
576
100
AcDbEntity
  8
0
100
AcDbLine
 62
253
  6
CONTINUOUS
 10
145.1432132108
 20
96.5973268072
 11
139.1432132108
 21
96.5973268072
  0
LINE
  5
577
100
AcDbEntity
  8
0
100
AcDbLine
 62
253
  6
CONTINUOUS
 10
127.4066419124
 20
96.7044692557
 11
128.478070487
 21
96.7044692557
  0
LINE
  5
578
100
AcDbEntity
  8
0
100
AcDbLine
 62
253
  6
CONTINUOUS
 10
131.9146417944
 20
96.7473268072
 11
132.3217846556
 21
96.7473268072
  0
LINE
  5
579
100
AcDbEntity
  8
0
100
AcDbLine
 62
253
  6
CONTINUOUS
 10
145.1432132108
 20
96.8473268072
 11
139.1432132108
 21
96.8473268072
  0
LINE
  5
57A
100
AcDbEntity
  8
0
100
AcDbLine
 62
253
  6
CONTINUOUS
 10
145.1432132108
 20
97.0973268072
 11
139.1432132108
 21
97.0973268072
  0
LINE
  5
57B
100
AcDbEntity
  8
0
100
AcDbLine
 62
253
  6
CONTINUOUS
 10
128.6923562108
 20
97.1330404799
 11
127.1923562108
 21
97.1330404799
  0
LINE
  5
57C
100
AcDbEntity
  8
0
100
AcDbLine
 62
253
  6
CONTINUOUS
 10
145.1432132108
 20
97.3473268072
 11
139.1432132108
 21
97.3473268072
  0
LINE
  5
57D
100
AcDbEntity
  8
0
100
AcDbLine
 62
253
  6
CONTINUOUS
 10
145.1432132108
 20
97.5973268072
 11
139.1432132108
 21
97.5973268072
  0
LINE
  5
57E
100
AcDbEntity
  8
0
100
AcDbLine
 62
253
  6
CONTINUOUS
 10
132.3217846556
 20
97.8330411415
 11
131.733689403
 21
97.8330411415
  0
LINE
  5
57F
100
AcDbEntity
  8
0
100
AcDbLine
 62
253
  6
CONTINUOUS
 10
145.1432132108
 20
97.8473268072
 11
139.1432132108
 21
97.8473268072
  0
LINE
  5
580
100
AcDbEntity
  8
0
100
AcDbLine
 62
253
  6
CONTINUOUS
 10
127.4066419124
 20
97.8830404799
 11
127.8352133154
 21
97.8830404799
  0
LINE
  5
581
100
AcDbEntity
  8
0
100
AcDbLine
 62
253
  6
CONTINUOUS
 10
145.1432132108
 20
98.0973268072
 11
139.1432132108
 21
98.0973268072
  0
LINE
  5
582
100
AcDbEntity
  8
0
100
AcDbLine
 62
253
  6
CONTINUOUS
 10
134.6289274318
 20
98.1044696967
 11
135.7146416528
 21
98.1044696967
  0
LINE
  5
583
100
AcDbEntity
  8
0
100
AcDbLine
 62
253
  6
CONTINUOUS
 10
136.3932132108
 20
98.1044696967
 11
137.4789274318
 21
98.1044696967
  0
LINE
  5
584
100
AcDbEntity
  8
RACCORDO
100
AcDbLine
 62
7
  6
CONTINUOUS
 10
128.5082554917
 20
115.4100200509
 11
128.45482159
 21
115.4855106944
  0
LINE
  5
585
100
AcDbEntity
  8
RACCORDO
100
AcDbLine
 62
7
  6
CONTINUOUS
 10
128.45482159
 20
115.4855106944
 11
128.3755797124
 21
115.5984650717
  0
LWPOLYLINE
  5
586
100
AcDbEntity
  8
RACCORDO
100
AcDbPolyline
 62
7
  6
CONTINUOUS
 90
7
 70
0
 10
128.3755797124
 20
115.5984650717
 10
128.3238426016
 20
115.6732194239
 10
128.298401654
 20
115.7103156917
 10
128.2734264069
 20
115.7472447914
 10
128.2489761499
 20
115.7839725711
 10
128.2249915933
 20
115.8203957675
 10
128.2014727372
 20
115.8564433336
  0
LINE
  5
587
100
AcDbEntity
  8
RACCORDO
100
AcDbLine
 62
7
  6
CONTINUOUS
 10
129.7370614429
 20
114.1802701289
 11
129.8441348962
 21
114.0196576839
  0
LINE
  5
588
100
AcDbEntity
  8
RACCORDO
100
AcDbLine
 62
253
  6
CONTINUOUS
 10
144.3467280448
 20
70.2529892399
 11
144.3423562108
 21
70.686841659
  0
LINE
  5
589
100
AcDbEntity
  8
RACCORDO
100
AcDbLine
 62
253
  6
CONTINUOUS
 10
144.5967238141
 20
70.4694955909
 11
144.591633213
 21
70.9746770764
  0
LINE
  5
58A
100
AcDbEntity
  8
RACCORDO
100
AcDbLine
 62
7
  6
CONTINUOUS
 10
143.3341779127
 20
114.9973268072
 11
143.3341779127
 21
114.0543449241
  0
LINE
  5
58B
100
AcDbEntity
  8
RACCORDO
100
AcDbLine
 62
7
  6
CONTINUOUS
 10
143.3341779127
 20
74.1403086904
 11
143.3341779127
 21
73.1973268072
  0
LINE
  5
58C
100
AcDbEntity
  8
DRAFT
100
AcDbLine
 62
7
  6
CONTINUOUS
 10
143.4441348962
 20
114.5308975716
 11
143.4441348962
 21
113.7973268072
  0
LINE
  5
58D
100
AcDbEntity
  8
DRAFT
100
AcDbLine
 62
7
  6
CONTINUOUS
 10
143.4441348962
 20
73.6637560428
 11
143.4441348962
 21
74.3973268072
  0
LINE
  5
58E
100
AcDbEntity
  8
DRAFT
100
AcDbLine
 62
7
  6
CONTINUOUS
 10
143.4923562108
 20
114.9473268072
 11
143.4923562108
 21
113.7973268072
  0
LINE
  5
58F
100
AcDbEntity
  8
ASSI
100
AcDbLine
 62
7
  6
CONTINUOUS
 10
143.4923562108
 20
114.9473268072
 11
143.4923562108
 21
113.7973268072
  0
LINE
  5
590
100
AcDbEntity
  8
DRAFT
100
AcDbLine
 62
7
  6
CONTINUOUS
 10
143.4923562108
 20
74.3973268072
 11
143.4923562108
 21
73.2473268072
  0
LINE
  5
591
100
AcDbEntity
  8
ASSI
100
AcDbLine
 62
7
  6
CONTINUOUS
 10
143.4923562108
 20
74.3973268072
 11
143.4923562108
 21
73.2473268072
  0
LINE
  5
592
100
AcDbEntity
  8
DRAFT
100
AcDbLine
 62
7
  6
CONTINUOUS
 10
143.581377042
 20
114.9473268072
 11
143.581377042
 21
113.7083059761
  0
LINE
  5
593
100
AcDbEntity
  8
ASSI
100
AcDbLine
 62
7
  6
CONTINUOUS
 10
143.581377042
 20
114.9473268072
 11
143.581377042
 21
113.7083059761
  0
LINE
  5
594
100
AcDbEntity
  8
DRAFT
100
AcDbLine
 62
7
  6
CONTINUOUS
 10
143.581377042
 20
74.4863476384
 11
143.581377042
 21
73.2473268072
  0
LINE
  5
595
100
AcDbEntity
  8
ASSI
100
AcDbLine
 62
7
  6
CONTINUOUS
 10
143.581377042
 20
74.4863476384
 11
143.581377042
 21
73.2473268072
  0
LINE
  5
596
100
AcDbEntity
  8
RACCORDO
100
AcDbLine
 62
253
  6
CONTINUOUS
 10
143.67645693
 20
72.7846335635
 11
143.67645693
 21
73.1973268072
  0
LINE
  5
597
100
AcDbEntity
  8
RACCORDO
100
AcDbLine
 62
253
  6
CONTINUOUS
 10
143.67645693
 20
114.9973268072
 11
143.67645693
 21
115.4100200509
  0
LINE
  5
598
100
AcDbEntity
  8
0
100
AcDbLine
 62
7
  6
CONTINUOUS
 10
144.0923562108
 20
93.4973268072
 11
144.0923562108
 21
91.7973268072
  0
LINE
  5
599
100
AcDbEntity
  8
SMUSSO
100
AcDbLine
 62
7
  6
CONTINUOUS
 10
144.0923562108
 20
91.7973268072
 11
144.0923562108
 21
90.9973268072
  0
LINE
  5
59A
100
AcDbEntity
  8
RACCORDO
100
AcDbLine
 62
253
  6
CONTINUOUS
 10
144.1763807776
 20
72.531351374
 11
144.1763807776
 21
73.1973268072
  0
LINE
  5
59B
100
AcDbEntity
  8
RACCORDO
100
AcDbLine
 62
253
  6
CONTINUOUS
 10
144.1763807776
 20
114.9973268072
 11
144.1763807776
 21
115.6633022405
  0
LINE
  5
59C
100
AcDbEntity
  8
DRAFT
100
AcDbLine
 62
7
  6
CONTINUOUS
 10
144.1923562108
 20
92.582491132
 11
144.1923562108
 21
91.1828501116
  0
LINE
  5
59D
100
AcDbEntity
  8
ASSI
100
AcDbLine
 62
7
  6
CONTINUOUS
 10
144.1923562108
 20
92.582491132
 11
144.1923562108
 21
91.1828501116
  0
LINE
  5
59E
100
AcDbEntity
  8
DRAFT
100
AcDbLine
 62
7
  6
CONTINUOUS
 10
144.2071918861
 20
94.3121624825
 11
144.2071918861
 21
92.5973268072
  0
LINE
  5
59F
100
AcDbEntity
  8
ASSI
100
AcDbLine
 62
7
  6
CONTINUOUS
 10
144.2071918861
 20
94.3121624825
 11
144.2071918861
 21
92.5973268072
  0
LINE
  5
5A0
100
AcDbEntity
  8
SMUSSO
100
AcDbLine
 62
7
  6
CONTINUOUS
 10
144.210025827
 20
91.5252314774
 11
144.210025827
 21
94.3149964234
  0
LINE
  5
5A1
100
AcDbEntity
  8
ASSI
100
AcDbLine
 62
7
  6
CONTINUOUS
 10
144.210025827
 20
91.5252314774
 11
144.210025827
 21
94.3149964234
  0
LINE
  5
5A2
100
AcDbEntity
  8
DRAFT
100
AcDbLine
 62
7
  6
CONTINUOUS
 10
144.3423562108
 20
115.4973268072
 11
144.3423562108
 21
114.9973268072
  0
LINE
  5
5A3
100
AcDbEntity
  8
DRAFT
100
AcDbLine
 62
7
  6
CONTINUOUS
 10
144.3423562108
 20
73.1973268072
 11
144.3423562108
 21
72.6973268072
  0
LINE
  5
5A4
100
AcDbEntity
  8
RACCORDO
100
AcDbLine
 62
7
  6
CONTINUOUS
 10
144.3423562108
 20
69.8473225764
 11
144.3423562108
 21
71.6973268072
  0
LINE
  5
5A5
100
AcDbEntity
  8
RACCORDO
100
AcDbLine
 62
7
  6
CONTINUOUS
 10
144.3423562108
 20
116.4973268072
 11
144.3423562108
 21
118.347331038
  0
LINE
  5
5A6
100
AcDbEntity
  8
RACCORDO
100
AcDbLine
 62
253
  6
CONTINUOUS
 10
144.3467280448
 20
118.342959204
 11
144.3467280448
 21
117.9416643745
  0
LINE
  5
5A7
100
AcDbEntity
  8
RACCORDO
100
AcDbLine
 62
253
  6
CONTINUOUS
 10
144.3467280448
 20
70.2529892399
 11
144.3467280448
 21
69.8516944104
  0
LINE
  5
5A8
100
AcDbEntity
  8
RACCORDO
100
AcDbLine
 62
253
  6
CONTINUOUS
 10
144.5967238141
 20
69.6016986412
 11
144.5967238141
 21
70.4694955909
  0
LINE
  5
5A9
100
AcDbEntity
  8
RACCORDO
100
AcDbLine
 62
253
  6
CONTINUOUS
 10
144.5967238141
 20
117.7251580236
 11
144.5967238141
 21
118.5929549732
  0
LINE
  5
5AA
100
AcDbEntity
  8
SMUSSO
100
AcDbLine
 62
7
  6
CONTINUOUS
 10
144.6923562108
 20
94.7973268072
 11
144.6923562108
 21
92.2064126546
  0
LINE
  5
5AB
100
AcDbEntity
  8
ASSI
100
AcDbLine
 62
7
  6
CONTINUOUS
 10
144.6923562108
 20
94.7973268072
 11
144.6923562108
 21
92.2064126546
  0
LINE
  5
5AC
100
AcDbEntity
  8
SMUSSO
100
AcDbLine
 62
7
  6
CONTINUOUS
 10
144.2071922184
 20
91.1976861191
 11
144.210025827
 21
91.5252314774
  0
LINE
  5
5AD
100
AcDbEntity
  8
ASSI
100
AcDbLine
 62
7
  6
CONTINUOUS
 10
144.2071922184
 20
91.1976861191
 11
144.210025827
 21
91.5252314774
  0
LINE
  5
5AE
100
AcDbEntity
  8
RACCORDO
100
AcDbLine
 62
253
  6
CONTINUOUS
 10
144.3423562108
 20
117.5078119554
 11
144.3467280448
 21
117.9416643745
  0
LINE
  5
5AF
100
AcDbEntity
  8
RACCORDO
100
AcDbLine
 62
253
  6
CONTINUOUS
 10
144.591633213
 20
117.219976538
 11
144.5967238141
 21
117.7251580236
  0
LWPOLYLINE
  5
5B0
100
AcDbEntity
  8
RACCORDO
100
AcDbPolyline
 62
7
  6
CONTINUOUS
 90
34
 70
0
 10
144.3423562108
 20
118.347331038
 10
144.3426393611
 20
118.3592263232
 10
144.3434881766
 20
118.3710946628
 10
144.3449007367
 20
118.3829091734
 10
144.3468738431
 20
118.3946430947
 10
144.3494030291
 20
118.406269846
 10
144.3524825691
 20
118.4177630862
 10
144.3561054895
 20
118.429096781
 10
144.3602635851
 20
118.4402452565
 10
144.3649474387
 20
118.4511832535
 10
144.370146442
 20
118.4618859948
 10
144.3758488192
 20
118.4723292355
 10
144.3820416527
 20
118.4824893131
 10
144.3887109154
 20
118.4923432123
 10
144.3958415001
 20
118.5018686111
 10
144.403417252
 20
118.5110439263
 10
144.4114210104
 20
118.5198483733
 10
144.4198346448
 20
118.5282620077
 10
144.4286390918
 20
118.5362657661
 10
144.437814407
 20
118.5438415179
 10
144.4473398057
 20
118.5509721027
 10
144.4571937049
 20
118.5576413654
 10
144.4673537826
 20
118.5638341989
 10
144.4777970232
 20
118.5695365761
 10
144.4884997645
 20
118.5747355794
 10
144.4994377615
 20
118.579419433
 10
144.5105862371
 20
118.5835775286
 10
144.5219199318
 20
118.5872004489
 10
144.533413172
 20
118.5902799889
 10
144.5450399234
 20
118.5928091749
 10
144.5567738447
 20
118.5947822814
 10
144.5685883553
 20
118.5961948415
 10
144.5804566948
 20
118.597043657
 10
144.5923519801
 20
118.5973268072
  0
LWPOLYLINE
  5
5B1
100
AcDbEntity
  8
RACCORDO
100
AcDbPolyline
 62
253
  6
CONTINUOUS
 90
31
 70
0
 10
144.3467280448
 20
118.342959204
 10
144.3470712338
 20
118.3560455581
 10
144.3480989768
 20
118.3690960565
 10
144.34980846
 20
118.3820749139
 10
144.3521950027
 20
118.3949465535
 10
144.3552520639
 20
118.4076756675
 10
144.3589712534
 20
118.4202273149
 10
144.3633423684
 20
118.432567071
 10
144.3683534239
 20
118.4446611083
 10
144.3739906722
 20
118.4564762539
 10
144.3802386513
 20
118.4679801097
 10
144.3870802271
 20
118.4791411357
 10
144.394496634
 20
118.489928726
 10
144.4024675422
 20
118.5003133152
 10
144.4109710837
 20
118.5102664187
 10
144.4199839028
 20
118.5197607118
 10
144.4294812373
 20
118.5287701336
 10
144.4394370744
 20
118.5372700306
 10
144.4498242003
 20
118.5452371728
 10
144.4606142795
 20
118.5526498028
 10
144.4717775979
 20
118.5594874847
 10
144.4832831983
 20
118.5657312863
 10
144.4950992766
 20
118.5713640349
 10
144.5071936327
 20
118.5763704648
 10
144.5195334366
 20
118.5807370159
 10
144.5320876212
 20
118.5844524556
 10
144.5448190864
 20
118.587505569
 10
144.5576848051
 20
118.5898866992
 10
144.5706465797
 20
118.5915903034
 10
144.5836714741
 20
118.592613566
 10
144.5967238141
 20
118.5929549732
  0
LINE
  5
5B2
100
AcDbEntity
  8
CURVE
100
AcDbLine
 62
253
  6
CONTINUOUS
 10
147.1464930428
 20
104.2085198072
 11
147.1794000089
 21
104.3328748072
  0
LINE
  5
5B3
100
AcDbEntity
  8
SMUSSO
100
AcDbLine
 62
7
  6
CONTINUOUS
 10
144.210025827
 20
91.5252314774
 11
144.6923562108
 21
92.2064126546
  0
LINE
  5
5B4
100
AcDbEntity
  8
ASSI
100
AcDbLine
 62
7
  6
CONTINUOUS
 10
144.210025827
 20
91.5252314774
 11
144.6923562108
 21
92.2064126546
  0
LINE
  5
5B5
100
AcDbEntity
  8
RACCORDO
100
AcDbLine
 62
253
  6
CONTINUOUS
 10
126.8986496159
 20
75.993499592
 11
126.1916505305
 21
75.2865005066
  0
LINE
  5
5B6
100
AcDbEntity
  8
ASSI
100
AcDbLine
 62
253
  6
CONTINUOUS
 10
126.8986496159
 20
75.993499592
 11
126.1916505305
 21
75.2865005066
  0
LINE
  5
5B7
100
AcDbEntity
  8
RACCORDO
100
AcDbLine
 62
253
  6
CONTINUOUS
 10
126.9169074235
 20
75.9752417844
 11
126.2099083381
 21
75.268242699
  0
LINE
  5
5B8
100
AcDbEntity
  8
ASSI
100
AcDbLine
 62
253
  6
CONTINUOUS
 10
126.9169074235
 20
75.9752417844
 11
126.2099083381
 21
75.268242699
  0
LINE
  5
5B9
100
AcDbEntity
  8
DRAFT
100
AcDbLine
 62
7
  6
CONTINUOUS
 10
144.1923562108
 20
92.582491132
 11
144.2071918861
 21
92.5973268072
  0
LINE
  5
5BA
100
AcDbEntity
  8
ASSI
100
AcDbLine
 62
7
  6
CONTINUOUS
 10
144.1923562108
 20
92.582491132
 11
144.2071918861
 21
92.5973268072
  0
LINE
  5
5BB
100
AcDbEntity
  8
SMUSSO
100
AcDbLine
 62
7
  6
CONTINUOUS
 10
144.1923562108
 20
91.1828501116
 11
144.2071922184
 21
91.1976861191
  0
LINE
  5
5BC
100
AcDbEntity
  8
ASSI
100
AcDbLine
 62
7
  6
CONTINUOUS
 10
144.1923562108
 20
91.1828501116
 11
144.2071922184
 21
91.1976861191
  0
LINE
  5
5BD
100
AcDbEntity
  8
0
100
AcDbLine
 62
253
  6
CONTINUOUS
 10
127.1923562108
 20
84.5973268072
 11
128.6923562108
 21
85.0258980314
  0
LINE
  5
5BE
100
AcDbEntity
  8
0
100
AcDbLine
 62
253
  6
CONTINUOUS
 10
145.1432132108
 20
98.3473268072
 11
139.1432132108
 21
98.3473268072
  0
LINE
  5
5BF
100
AcDbEntity
  8
0
100
AcDbLine
 62
253
  6
CONTINUOUS
 10
145.1432132108
 20
98.5973268072
 11
139.1432132108
 21
98.5973268072
  0
LINE
  5
5C0
100
AcDbEntity
  8
0
100
AcDbLine
 62
253
  6
CONTINUOUS
 10
139.1432132108
 20
99.0973268072
 11
129.8432132108
 21
99.0973268072
  0
LINE
  5
5C1
100
AcDbEntity
  8
CURVE
100
AcDbLine
 62
253
  6
CONTINUOUS
 10
147.1701154346
 20
99.4027710973
 11
147.1704144715
 21
99.4027710973
  0
LINE
  5
5C2
100
AcDbEntity
  8
SMUSSO
100
AcDbLine
 62
7
  6
CONTINUOUS
 10
137.8423562108
 20
101.2473268072
 11
138.41970648
 21
100.669976538
  0
LINE
  5
5C3
100
AcDbEntity
  8
ASSI
100
AcDbLine
 62
7
  6
CONTINUOUS
 10
137.8423562108
 20
101.2473268072
 11
138.41970648
 21
100.669976538
  0
LINE
  5
5C4
100
AcDbEntity
  8
RACCORDO
100
AcDbLine
 62
253
  6
CONTINUOUS
 10
126.8986496159
 20
112.2011540225
 11
126.1916505305
 21
112.9081531079
  0
LINE
  5
5C5
100
AcDbEntity
  8
ASSI
100
AcDbLine
 62
253
  6
CONTINUOUS
 10
126.8986496159
 20
112.2011540225
 11
126.1916505305
 21
112.9081531079
  0
LINE
  5
5C6
100
AcDbEntity
  8
RACCORDO
100
AcDbLine
 62
253
  6
CONTINUOUS
 10
126.9169074235
 20
112.2194118301
 11
126.2099083381
 21
112.9264109155
  0
LINE
  5
5C7
100
AcDbEntity
  8
ASSI
100
AcDbLine
 62
253
  6
CONTINUOUS
 10
126.9169074235
 20
112.2194118301
 11
126.2099083381
 21
112.9264109155
  0
LINE
  5
5C8
100
AcDbEntity
  8
SMUSSO
100
AcDbLine
 62
7
  6
CONTINUOUS
 10
130.8423562108
 20
109.5473268072
 11
130.2650059417
 21
110.1246770764
  0
LINE
  5
5C9
100
AcDbEntity
  8
ASSI
100
AcDbLine
 62
7
  6
CONTINUOUS
 10
130.8423562108
 20
109.5473268072
 11
130.2650059417
 21
110.1246770764
  0
LWPOLYLINE
  5
5CA
100
AcDbEntity
  8
CURVE
100
AcDbPolyline
 62
253
  6
CONTINUOUS
 90
5
 70
0
 10
146.9966264139
 20
79.9578309879
 10
146.997429811
 20
79.9473907225
 10
146.9982282921
 20
79.935744753
 10
146.9990212062
 20
79.9229023327
 10
146.9998079258
 20
79.908872862
  0
LINE
  5
5CB
100
AcDbEntity
  8
CURVE
100
AcDbLine
 62
253
  6
CONTINUOUS
 10
147.0941354162
 20
83.2544694523
 11
147.1201893658
 21
82.8473266761
  0
LINE
  5
5CC
100
AcDbEntity
  8
CURVE
100
AcDbLine
 62
253
  6
CONTINUOUS
 10
146.8933080821
 20
80.7139932673
 11
146.9159962105
 21
80.3425654928
  0
LINE
  5
5CD
100
AcDbEntity
  8
CURVE
100
AcDbLine
 62
253
  6
CONTINUOUS
 10
146.8933080821
 20
89.7830410819
 11
146.9159962105
 21
89.4116124551
  0
LINE
  5
5CE
100
AcDbEntity
  8
CURVE
100
AcDbLine
 62
253
  6
CONTINUOUS
 10
146.6578252553
 20
94.9973268072
 11
146.6601937965
 21
94.9520886581
  0
LINE
  5
5CF
100
AcDbEntity
  8
CURVE
100
AcDbLine
 62
253
  6
CONTINUOUS
 10
147.165491174
 20
79.9208358072
 11
147.1872910621
 21
79.4908778072
  0
LINE
  5
5D0
100
AcDbEntity
  8
CURVE
100
AcDbLine
 62
253
  6
CONTINUOUS
 10
147.165491174
 20
85.9458708072
 11
147.1872939243
 21
85.5158558072
  0
LWPOLYLINE
  5
5D1
100
AcDbEntity
  8
CURVE
100
AcDbPolyline
 62
253
  6
CONTINUOUS
 90
23
 70
0
 10
147.0053408624
 20
80.5927211227
 10
147.0038688288
 20
80.6218521602
 10
147.0023799102
 20
80.6480136772
 10
147.0008759271
 20
80.6711730181
 10
146.9993587248
 20
80.691302431
 10
146.9978301591
 20
80.7083766376
 10
146.9962921045
 20
80.7223753498
 10
146.9947464433
 20
80.7332807902
 10
146.99319507
 20
80.741080234
 10
146.9916398841
 20
80.745763492
 10
146.990082791
 20
80.7473254648
 10
146.9885256979
 20
80.745763601
 10
146.9869705119
 20
80.7410804519
 10
146.9854191385
 20
80.7332811167
 10
146.983873477
 20
80.7223757845
 10
146.9823354221
 20
80.70837718
 10
146.9808068561
 20
80.6913030804
 10
146.9792896533
 20
80.6711737738
 10
146.9777856698
 20
80.6480145382
 10
146.9762967506
 20
80.6218531254
 10
146.9748247164
 20
80.5927221909
 10
146.9733713737
 20
80.5606568143
 10
146.9705278515
 20
80.4878845883
  0
LWPOLYLINE
  5
5D2
100
AcDbEntity
  8
CURVE
100
AcDbPolyline
 62
253
  6
CONTINUOUS
 90
23
 70
0
 10
147.0053408318
 20
84.9778316379
 10
147.0038687984
 20
85.0069626036
 10
147.0023798801
 20
85.0331240504
 10
147.0008758974
 20
85.0562833229
 10
146.9993586955
 20
85.0764126692
 10
146.9978301302
 20
85.0934868111
 10
146.9962920761
 20
85.1074854606
 10
146.9947464153
 20
85.1183908405
 10
146.9931950427
 20
85.1261902261
 10
146.9916398573
 20
85.130873428
 10
146.9900827649
 20
85.1324353471
 10
146.9885256724
 20
85.1308734321
 10
146.9869704871
 20
85.1261902343
 10
146.9854191144
 20
85.1183908529
 10
146.9838734537
 20
85.107485477
 10
146.9823353995
 20
85.0934868315
 10
146.9808068343
 20
85.0764126937
 10
146.9792896323
 20
85.0562833514
 10
146.9777856496
 20
85.0331240829
 10
146.9762967313
 20
85.0069626401
 10
146.9748246979
 20
84.9778316782
 10
146.9733713561
 20
84.945766277
 10
146.9705278356
 20
84.8729940101
  0
LINE
  5
5D3
100
AcDbEntity
  8
CURVE
100
AcDbLine
 62
253
  6
CONTINUOUS
 10
147.1463533537
 20
80.2984378072
 11
147.1570802834
 21
80.0814808072
  0
LINE
  5
5D4
100
AcDbEntity
  8
CURVE
100
AcDbLine
 62
253
  6
CONTINUOUS
 10
147.1463533537
 20
86.3233628072
 11
147.1570802834
 21
86.1065148072
  0
LINE
  5
5D5
100
AcDbEntity
  8
CURVE
100
AcDbLine
 62
253
  6
CONTINUOUS
 10
147.1969653499
 20
79.8444428072
 11
147.1463533537
 21
80.8928868072
  0
LINE
  5
5D6
100
AcDbEntity
  8
CURVE
100
AcDbLine
 62
253
  6
CONTINUOUS
 10
147.1969653499
 20
85.8694778072
 11
147.1463533537
 21
86.9178128072
  0
LINE
  5
5D7
100
AcDbEntity
  8
CURVE
100
AcDbLine
 62
253
  6
CONTINUOUS
 10
146.9998079258
 20
79.908872862
 11
147.0013606722
 21
79.8772928682
  0
LINE
  5
5D8
100
AcDbEntity
  8
CURVE
100
AcDbLine
 62
253
  6
CONTINUOUS
 10
147.0082270784
 20
80.5256955979
 11
147.0053408624
 21
80.5927211227
  0
LINE
  5
5D9
100
AcDbEntity
  8
CURVE
100
AcDbLine
 62
253
  6
CONTINUOUS
 10
147.0082270474
 20
84.9108062611
 11
147.0053408318
 21
84.9778316379
  0
LINE
  5
5DA
100
AcDbEntity
  8
CURVE
100
AcDbLine
 62
253
  6
CONTINUOUS
 10
147.0013606722
 20
79.8772928682
 11
147.0028824055
 21
79.8410894476
  0
LINE
  5
5DB
100
AcDbEntity
  8
CURVE
100
AcDbLine
 62
253
  6
CONTINUOUS
 10
147.0016815021
 20
84.2552133697
 11
147.0038542868
 21
84.2001964046
  0
LINE
  5
5DC
100
AcDbEntity
  8
CURVE
100
AcDbLine
 62
253
  6
CONTINUOUS
 10
147.0028824055
 20
79.8410894476
 11
147.0043689301
 21
79.8003627585
  0
LINE
  5
5DD
100
AcDbEntity
  8
CURVE
100
AcDbLine
 62
253
  6
CONTINUOUS
 10
146.9030315658
 20
90.5258982192
 11
146.9159962105
 21
90.1544696312
  0
LINE
  5
5DE
100
AcDbEntity
  8
CURVE
100
AcDbLine
 62
253
  6
CONTINUOUS
 10
147.011024421
 20
80.447265403
 11
147.0082270784
 21
80.5256955979
  0
LINE
  5
5DF
100
AcDbEntity
  8
CURVE
100
AcDbLine
 62
253
  6
CONTINUOUS
 10
147.0110243899
 20
84.8323762193
 11
147.0082270474
 21
84.9108062611
  0
LWPOLYLINE
  5
5E0
100
AcDbEntity
  8
RACCORDO
100
AcDbPolyline
 62
253
  6
CONTINUOUS
 90
31
 70
0
 10
144.3467280448
 20
117.9416643745
 10
144.3471073766
 20
117.930354224
 10
144.3481683585
 20
117.9190749591
 10
144.3499080934
 20
117.9078573812
 10
144.3523218303
 20
117.8967321232
 10
144.3554029779
 20
117.8857295657
 10
144.3591431222
 20
117.8748797544
 10
144.3635320496
 20
117.864212318
 10
144.3685577749
 20
117.8537563869
 10
144.3742065738
 20
117.8435405141
 10
144.3804630208
 20
117.833592597
 10
144.3873100307
 20
117.8239398014
 10
144.3947289058
 20
117.8146084869
 10
144.4026993868
 20
117.8056241354
 10
144.4111997078
 20
117.7970112814
 10
144.4202066563
 20
117.7887934446
 10
144.4296956362
 20
117.7809930664
 10
144.4396407351
 20
117.7736314479
 10
144.450014795
 20
117.7667286921
 10
144.4607894866
 20
117.7603036491
 10
144.4719353863
 20
117.7543738642
 10
144.4834220571
 20
117.7489555305
 10
144.4952181312
 20
117.7440634443
 10
144.5072913962
 20
117.7397109648
 10
144.5196088823
 20
117.7359099779
 10
144.5321369532
 20
117.7326708631
 10
144.5448413973
 20
117.7300024659
 10
144.5576875213
 20
117.727912073
 10
144.5706402454
 20
117.7264053929
 10
144.5836641982
 20
117.72548654
 10
144.5967238141
 20
117.7251580236
  0
LWPOLYLINE
  5
5E1
100
AcDbEntity
  8
RACCORDO
100
AcDbPolyline
 62
253
  6
CONTINUOUS
 90
31
 70
0
 10
146.7379843768
 20
70.2529892399
 10
146.7376058212
 20
70.2642872122
 10
146.7365466936
 20
70.2755575162
 10
146.7348093171
 20
70.286769386
 10
146.7323976157
 20
70.2978931951
 10
146.7293177455
 20
70.3088974472
 10
146.7255786945
 20
70.319748987
 10
146.7211911501
 20
70.33041711
 10
146.7161667511
 20
70.3408737833
 10
146.7105190705
 20
70.3510907022
 10
146.7042633779
 20
70.3610401073
 10
146.6974168033
 20
70.3706946319
 10
146.689998195
 20
70.3800276553
 10
146.682027891
 20
70.3890136055
 10
146.6735275962
 20
70.3976280247
 10
146.6645205057
 20
70.405847403
 10
146.6550312021
 20
70.4136492997
 10
146.6450856149
 20
70.4210123879
 10
146.6347109321
 20
70.4279165368
 10
146.6239354997
 20
70.4343428834
 10
146.6127887417
 20
70.4402738803
 10
146.6013011046
 20
70.4456933277
 10
146.5895039479
 20
70.4505864297
 10
146.5774295114
 20
70.4549398128
 10
146.5651108318
 20
70.4587415701
 10
146.5525815965
 20
70.4619813166
 10
146.5398759936
 20
70.464650223
 10
146.5270286728
 20
70.4667410154
 10
146.5140747056
 20
70.4682479854
 10
146.5010494918
 20
70.4691670138
 10
146.4879886076
 20
70.4694955909
  0
LINE
  5
5E2
100
AcDbEntity
  8
CURVE
100
AcDbLine
 62
253
  6
CONTINUOUS
 10
147.0038542868
 20
84.2001964046
 11
147.0059483049
 21
84.1359266164
  0
LINE
  5
5E3
100
AcDbEntity
  8
CURVE
100
AcDbLine
 62
253
  6
CONTINUOUS
 10
147.0043689301
 20
79.8003627585
 11
147.0065237445
 21
79.731040256
  0
LINE
  5
5E4
100
AcDbEntity
  8
CURVE
100
AcDbLine
 62
253
  6
CONTINUOUS
 10
147.0137191885
 20
80.3578147
 11
147.011024421
 21
80.447265403
  0
LINE
  5
5E5
100
AcDbEntity
  8
CURVE
100
AcDbLine
 62
253
  6
CONTINUOUS
 10
147.0137191576
 20
84.7429256735
 11
147.0110243899
 21
84.8323762193
  0
LINE
  5
5E6
100
AcDbEntity
  8
CURVE
100
AcDbLine
 62
253
  6
CONTINUOUS
 10
146.9062727275
 20
78.3925654928
 11
146.9159962105
 21
78.0211358587
  0
LINE
  5
5E7
100
AcDbEntity
  8
CURVE
100
AcDbLine
 62
253
  6
CONTINUOUS
 10
147.1154522843
 20
78.9568506043
 11
147.1201893658
 21
78.7758980076
  0
LINE
  5
5E8
100
AcDbEntity
  8
CURVE
100
AcDbLine
 62
253
  6
CONTINUOUS
 10
147.0059483049
 20
84.1359266164
 11
147.0079515795
 21
84.062771598
  0
LINE
  5
5E9
100
AcDbEntity
  8
CURVE
100
AcDbLine
 62
253
  6
CONTINUOUS
 10
147.0162981816
 20
80.2577816307
 11
147.0137191885
 21
80.3578147
  0
LINE
  5
5EA
100
AcDbEntity
  8
CURVE
100
AcDbLine
 62
253
  6
CONTINUOUS
 10
147.016298151
 20
84.6428927642
 11
147.0137191576
 21
84.7429256735
  0
LINE
  5
5EB
100
AcDbEntity
  8
CURVE
100
AcDbLine
 62
253
  6
CONTINUOUS
 10
147.0065237445
 20
79.731040256
 11
147.0085767972
 21
79.6522244751
  0
LINE
  5
5EC
100
AcDbEntity
  8
CURVE
100
AcDbLine
 62
253
  6
CONTINUOUS
 10
147.0079515795
 20
84.062771598
 11
147.009852653
 21
83.9811497616
  0
LINE
  5
5ED
100
AcDbEntity
  8
CURVE
100
AcDbLine
 62
253
  6
CONTINUOUS
 10
147.018748768
 20
80.1476561707
 11
147.0162981816
 21
80.2577816307
  0
LINE
  5
5EE
100
AcDbEntity
  8
CURVE
100
AcDbLine
 62
253
  6
CONTINUOUS
 10
147.0187487379
 20
84.5327674661
 11
147.016298151
 21
84.6428927642
  0
LINE
  5
5EF
100
AcDbEntity
  8
CURVE
100
AcDbLine
 62
253
  6
CONTINUOUS
 10
146.6601937965
 20
94.9520886581
 11
146.664930878
 21
94.725898252
  0
LINE
  5
5F0
100
AcDbEntity
  8
CURVE
100
AcDbLine
 62
253
  6
CONTINUOUS
 10
147.0085767972
 20
79.6522244751
 11
147.0105153763
 21
79.5644033124
  0
LINE
  5
5F1
100
AcDbEntity
  8
CURVE
100
AcDbLine
 62
253
  6
CONTINUOUS
 10
146.7194073168
 20
93.6401839744
 11
146.7028275307
 21
94.4544696967
  0
LINE
  5
5F2
100
AcDbEntity
  8
CURVE
100
AcDbLine
 62
253
  6
CONTINUOUS
 10
147.009852653
 20
83.9811497616
 11
147.0116406519
 21
83.8915279457
  0
LINE
  5
5F3
100
AcDbEntity
  8
CURVE
100
AcDbLine
 62
253
  6
CONTINUOUS
 10
147.0105153763
 20
79.5644033124
 11
147.0123274838
 21
79.4681203419
  0
LINE
  5
5F4
100
AcDbEntity
  8
CURVE
100
AcDbLine
 62
253
  6
CONTINUOUS
 10
146.6625623373
 20
94.0473268072
 11
146.6672994187
 21
93.775898252
  0
LINE
  5
5F5
100
AcDbEntity
  8
CURVE
100
AcDbLine
 62
253
  6
CONTINUOUS
 10
146.6767735817
 20
93.3687553908
 11
146.6815106631
 21
93.0973268072
  0
LINE
  5
5F6
100
AcDbEntity
  8
CURVE
100
AcDbLine
 62
253
  6
CONTINUOUS
 10
146.7028275307
 20
93.233041099
 11
146.7051960744
 21
93.0973268072
  0
LINE
  5
5F7
100
AcDbEntity
  8
CURVE
100
AcDbLine
 62
253
  6
CONTINUOUS
 10
146.7170387771
 20
94.9973268072
 11
146.7194073168
 21
94.861612473
  0
LINE
  5
5F8
100
AcDbEntity
  8
CURVE
100
AcDbLine
 62
253
  6
CONTINUOUS
 10
146.8965492434
 20
88.0187555115
 11
146.8933080821
 21
88.2044697086
  0
LINE
  5
5F9
100
AcDbEntity
  8
CURVE
100
AcDbLine
 62
253
  6
CONTINUOUS
 10
147.0917668755
 20
78.0973264496
 11
147.0870297936
 21
78.3687553446
  0
LINE
  5
5FA
100
AcDbEntity
  8
CURVE
100
AcDbLine
 62
253
  6
CONTINUOUS
 10
147.0870297936
 20
79.7258980076
 11
147.0893983345
 21
79.5901837866
  0
LINE
  5
5FB
100
AcDbEntity
  8
CURVE
100
AcDbLine
 62
253
  6
CONTINUOUS
 10
147.1012410389
 20
79.0473264496
 11
147.1059781214
 21
78.7758980076
  0
LINE
  5
5FC
100
AcDbEntity
  8
CURVE
100
AcDbLine
 62
253
  6
CONTINUOUS
 10
147.0870297936
 20
81.2187551181
 11
147.0917668755
 21
80.9473266761
  0
LINE
  5
5FD
100
AcDbEntity
  8
RACCORDO
100
AcDbLine
 62
7
  6
CONTINUOUS
 10
146.5787591107
 20
91.2152530843
 11
146.5790630789
 21
91.1976861191
  0
LINE
  5
5FE
100
AcDbEntity
  8
ASSI
100
AcDbLine
 62
7
  6
CONTINUOUS
 10
146.5787591107
 20
91.2152530843
 11
146.5790630789
 21
91.1976861191
  0
LINE
  5
5FF
100
AcDbEntity
  8
CURVE
100
AcDbLine
 62
253
  6
CONTINUOUS
 10
147.0221578122
 20
79.9647374678
 11
147.018748768
 21
80.1476561707
  0
LINE
  5
600
100
AcDbEntity
  8
CURVE
100
AcDbLine
 62
253
  6
CONTINUOUS
 10
147.0221577835
 20
84.3498490069
 11
147.0187487379
 21
84.5327674661
  0
LINE
  5
601
100
AcDbEntity
  8
CURVE
100
AcDbLine
 62
253
  6
CONTINUOUS
 10
147.0116406519
 20
83.8915279457
 11
147.01330535
 21
83.7944187448
  0
LINE
  5
602
100
AcDbEntity
  8
CURVE
100
AcDbLine
 62
253
  6
CONTINUOUS
 10
147.0123274838
 20
79.4681203419
 11
147.0145276282
 21
79.3276173835
  0
LINE
  5
603
100
AcDbEntity
  8
CURVE
100
AcDbLine
 62
253
  6
CONTINUOUS
 10
147.0252135478
 20
79.7623506309
 11
147.0221578122
 21
79.9647374678
  0
LINE
  5
604
100
AcDbEntity
  8
CURVE
100
AcDbLine
 62
253
  6
CONTINUOUS
 10
147.0252135211
 20
84.1474624109
 11
147.0221577835
 21
84.3498490069
  0
LINE
  5
605
100
AcDbEntity
  8
CURVE
100
AcDbLine
 62
253
  6
CONTINUOUS
 10
147.01330535
 20
83.7944187448
 11
147.0155505884
 21
83.6359420985
  0
LINE
  5
606
100
AcDbEntity
  8
CURVE
100
AcDbLine
 62
253
  6
CONTINUOUS
 10
147.1083466611
 20
78.1878027479
 11
147.1059781214
 21
78.3687553446
  0
LINE
  5
607
100
AcDbEntity
  8
CURVE
100
AcDbLine
 62
253
  6
CONTINUOUS
 10
147.0270376001
 20
84.0028149882
 11
147.0252135211
 21
84.1474624109
  0
LWPOLYLINE
  5
608
100
AcDbEntity
  8
RACCORDO
100
AcDbPolyline
 62
253
  6
CONTINUOUS
 90
34
 70
0
 10
145.5789114155
 20
111.4941549371
 10
145.5786270542
 20
111.5179696918
 10
145.5777780119
 20
111.5417446332
 10
145.5763642885
 20
111.5654797616
 10
145.5743844442
 20
111.5891886711
 10
145.5718399189
 20
111.6128577675
 10
145.5687350321
 20
111.6364462675
 10
145.5650688307
 20
111.6599538435
 10
145.5608422679
 20
111.6833808231
 10
145.556062522
 20
111.7066874059
 10
145.550728658
 20
111.7298733618
 10
145.544841611
 20
111.752938921
 10
145.5384113654
 20
111.7758449736
 10
145.5314369957
 20
111.7985912647
 10
145.5239194273
 20
111.8211780492
 10
145.5158714212
 20
111.8435669827
 10
145.5072920759
 20
111.865757728
 10
145.498182293
 20
111.8877506222
 10
145.4885575372
 20
111.9095083322
 10
145.4784169343
 20
111.9310304566
 10
145.4677613586
 20
111.9523173968
 10
145.456608898
 20
111.9733330245
 10
145.4449587173
 20
111.994076868
 10
145.4328116517
 20
112.0145493989
 10
145.4201882947
 20
112.0347159036
 10
145.4070878211
 20
112.0545758834
 10
145.3935110561
 20
112.074129837
 10
145.3794810681
 20
112.0933445466
 10
145.364996909
 20
112.1122196146
 10
145.3500595269
 20
112.1307554388
 10
145.3346948342
 20
112.1489199941
 10
145.3189114686
 20
112.1667026057
 10
145.3027007924
 20
112.1841139485
 10
145.2860628058
 20
112.2011540225
  0
LWPOLYLINE
  5
609
100
AcDbEntity
  8
ASSI
100
AcDbPolyline
 62
253
  6
CONTINUOUS
 90
34
 70
0
 10
145.5789114155
 20
111.4941549371
 10
145.5786270542
 20
111.5179696918
 10
145.5777780119
 20
111.5417446332
 10
145.5763642885
 20
111.5654797616
 10
145.5743844442
 20
111.5891886711
 10
145.5718399189
 20
111.6128577675
 10
145.5687350321
 20
111.6364462675
 10
145.5650688307
 20
111.6599538435
 10
145.5608422679
 20
111.6833808231
 10
145.556062522
 20
111.7066874059
 10
145.550728658
 20
111.7298733618
 10
145.544841611
 20
111.752938921
 10
145.5384113654
 20
111.7758449736
 10
145.5314369957
 20
111.7985912647
 10
145.5239194273
 20
111.8211780492
 10
145.5158714212
 20
111.8435669827
 10
145.5072920759
 20
111.865757728
 10
145.498182293
 20
111.8877506222
 10
145.4885575372
 20
111.9095083322
 10
145.4784169343
 20
111.9310304566
 10
145.4677613586
 20
111.9523173968
 10
145.456608898
 20
111.9733330245
 10
145.4449587173
 20
111.994076868
 10
145.4328116517
 20
112.0145493989
 10
145.4201882947
 20
112.0347159036
 10
145.4070878211
 20
112.0545758834
 10
145.3935110561
 20
112.074129837
 10
145.3794810681
 20
112.0933445466
 10
145.364996909
 20
112.1122196146
 10
145.3500595269
 20
112.1307554388
 10
145.3346948342
 20
112.1489199941
 10
145.3189114686
 20
112.1667026057
 10
145.3027007924
 20
112.1841139485
 10
145.2860628058
 20
112.2011540225
  0
LWPOLYLINE
  5
60A
100
AcDbEntity
  8
RACCORDO
100
AcDbPolyline
 62
253
  6
CONTINUOUS
 90
34
 70
0
 10
146.5787591109
 20
111.4941517625
 10
146.5781899729
 20
111.5417388732
 10
146.5764887136
 20
111.589299221
 10
146.57365628
 20
111.6368058761
 10
146.5696942531
 20
111.6842320154
 10
146.5646048622
 20
111.7315507066
 10
146.5583910016
 20
111.7787349251
 10
146.5510561971
 20
111.8257579053
 10
146.5426045961
 20
111.8725930697
 10
146.5330409985
 20
111.9192138147
 10
146.522370837
 20
111.9655936913
 10
146.5106001487
 20
112.0117064911
 10
146.4977355805
 20
112.0575261765
 10
146.4837844078
 20
112.1030268281
 10
146.4687545371
 20
112.1481826557
 10
146.4526544792
 20
112.1929680848
 10
146.4354933489
 20
112.2373577586
 10
146.4172808643
 20
112.2813265392
 10
146.3980273438
 20
112.3248495162
 10
146.3777436905
 20
112.3679020427
 10
146.3564413894
 20
112.4104597437
 10
146.3341325068
 20
112.452498516
 10
146.3108296887
 20
112.4939945322
 10
146.2865461181
 20
112.5349243206
 10
146.2612955063
 20
112.5752647702
 10
146.2350921164
 20
112.6149930799
 10
146.2079508093
 20
112.654086706
 10
146.1798870023
 20
112.692523443
 10
146.1509165384
 20
112.7302815876
 10
146.121055867
 20
112.7673396972
 10
146.0903221065
 20
112.803676552
 10
146.0587327481
 20
112.8392715146
 10
146.026305627
 20
112.8741045261
 10
145.9930591199
 20
112.9081558795
  0
LWPOLYLINE
  5
60B
100
AcDbEntity
  8
ASSI
100
AcDbPolyline
 62
253
  6
CONTINUOUS
 90
34
 70
0
 10
146.5787591109
 20
111.4941517625
 10
146.5781899729
 20
111.5417388732
 10
146.5764887136
 20
111.589299221
 10
146.57365628
 20
111.6368058761
 10
146.5696942531
 20
111.6842320154
 10
146.5646048622
 20
111.7315507066
 10
146.5583910016
 20
111.7787349251
 10
146.5510561971
 20
111.8257579053
 10
146.5426045961
 20
111.8725930697
 10
146.5330409985
 20
111.9192138147
 10
146.522370837
 20
111.9655936913
 10
146.5106001487
 20
112.0117064911
 10
146.4977355805
 20
112.0575261765
 10
146.4837844078
 20
112.1030268281
 10
146.4687545371
 20
112.1481826557
 10
146.4526544792
 20
112.1929680848
 10
146.4354933489
 20
112.2373577586
 10
146.4172808643
 20
112.2813265392
 10
146.3980273438
 20
112.3248495162
 10
146.3777436905
 20
112.3679020427
 10
146.3564413894
 20
112.4104597437
 10
146.3341325068
 20
112.452498516
 10
146.3108296887
 20
112.4939945322
 10
146.2865461181
 20
112.5349243206
 10
146.2612955063
 20
112.5752647702
 10
146.2350921164
 20
112.6149930799
 10
146.2079508093
 20
112.654086706
 10
146.1798870023
 20
112.692523443
 10
146.1509165384
 20
112.7302815876
 10
146.121055867
 20
112.7673396972
 10
146.0903221065
 20
112.803676552
 10
146.0587327481
 20
112.8392715146
 10
146.026305627
 20
112.8741045261
 10
145.9930591199
 20
112.9081558795
  0
LINE
  5
60C
100
AcDbEntity
  8
CURVE
100
AcDbLine
 62
253
  6
CONTINUOUS
 10
147.0145276282
 20
79.3276173835
 11
147.0164588929
 21
79.1746818685
  0
LINE
  5
60D
100
AcDbEntity
  8
CURVE
100
AcDbLine
 62
253
  6
CONTINUOUS
 10
147.027882307
 20
79.5427245732
 11
147.0252135478
 21
79.7623506309
  0
LINE
  5
60E
100
AcDbEntity
  8
CURVE
100
AcDbLine
 62
253
  6
CONTINUOUS
 10
147.0155505884
 20
83.6359420985
 11
147.0168670541
 21
83.5226301877
  0
LINE
  5
60F
100
AcDbEntity
  8
RACCORDO
100
AcDbLine
 62
253
  6
CONTINUOUS
 10
146.4879886076
 20
117.7251580236
 11
146.4930792087
 21
117.219976538
  0
LINE
  5
610
100
AcDbEntity
  8
CURVE
100
AcDbLine
 62
253
  6
CONTINUOUS
 10
147.0164588929
 20
79.1746818685
 11
147.0181000291
 21
79.0109957727
  0
LINE
  5
611
100
AcDbEntity
  8
CURVE
100
AcDbLine
 62
253
  6
CONTINUOUS
 10
147.030134702
 20
79.3082788791
 11
147.027882307
 21
79.5427245732
  0
LINE
  5
612
100
AcDbEntity
  8
CURVE
100
AcDbLine
 62
253
  6
CONTINUOUS
 10
147.0181000291
 20
79.0109957727
 11
147.0191295036
 21
78.8822554967
  0
LINE
  5
613
100
AcDbEntity
  8
0
100
AcDbLine
 62
253
  6
CONTINUOUS
 10
145.1432132108
 20
98.5973268072
 11
145.1432132108
 21
96.5973268072
  0
LINE
  5
614
100
AcDbEntity
  8
SUPERFICI
100
AcDbLine
 62
253
  6
CONTINUOUS
 10
145.2678049982
 20
75.9752417844
 11
145.2678049982
 21
74.9753940892
  0
LINE
  5
615
100
AcDbEntity
  8
RACCORDO
100
AcDbLine
 62
253
  6
CONTINUOUS
 10
145.2678049982
 20
112.2194118301
 11
145.2678049982
 21
113.2192595252
  0
LINE
  5
616
100
AcDbEntity
  8
ASSI
100
AcDbLine
 62
253
  6
CONTINUOUS
 10
145.2678049982
 20
112.2194118301
 11
145.2678049982
 21
113.2192595252
  0
LINE
  5
617
100
AcDbEntity
  8
ASSI
100
AcDbLine
 62
7
  6
CONTINUOUS
 10
145.4423562108
 20
109.9973268072
 11
145.4423562108
 21
105.7973268072
  0
LINE
  5
618
100
AcDbEntity
  8
ASSI
100
AcDbLine
 62
7
  6
CONTINUOUS
 10
145.4423562108
 20
104.9973268072
 11
145.4423562108
 21
100.7973268072
  0
LINE
  5
619
100
AcDbEntity
  8
0
100
AcDbLine
 62
253
  6
CONTINUOUS
 10
145.5789114155
 20
90.9973268072
 11
145.5789114155
 21
76.7004986773
  0
LINE
  5
61A
100
AcDbEntity
  8
RACCORDO
100
AcDbLine
 62
253
  6
CONTINUOUS
 10
145.5789114155
 20
92.2064126546
 11
145.5789114155
 21
100.7973268072
  0
LINE
  5
61B
100
AcDbEntity
  8
ASSI
100
AcDbLine
 62
253
  6
CONTINUOUS
 10
145.5789114155
 20
92.2064126546
 11
145.5789114155
 21
100.7973268072
  0
LINE
  5
61C
100
AcDbEntity
  8
RACCORDO
100
AcDbLine
 62
253
  6
CONTINUOUS
 10
145.5789114155
 20
104.9973268072
 11
145.5789114155
 21
105.7973268072
  0
LINE
  5
61D
100
AcDbEntity
  8
ASSI
100
AcDbLine
 62
253
  6
CONTINUOUS
 10
145.5789114155
 20
104.9973268072
 11
145.5789114155
 21
105.7973268072
  0
LINE
  5
61E
100
AcDbEntity
  8
RACCORDO
100
AcDbLine
 62
253
  6
CONTINUOUS
 10
145.5789114155
 20
109.9973268072
 11
145.5789114155
 21
111.4941549371
  0
LINE
  5
61F
100
AcDbEntity
  8
ASSI
100
AcDbLine
 62
253
  6
CONTINUOUS
 10
145.5789114155
 20
109.9973268072
 11
145.5789114155
 21
111.4941549371
  0
LINE
  5
620
100
AcDbEntity
  8
DRAFT
100
AcDbLine
 62
7
  6
CONTINUOUS
 10
145.587006133
 20
114.5308975716
 11
145.587006133
 21
114.2526768851
  0
LINE
  5
621
100
AcDbEntity
  8
DRAFT
100
AcDbLine
 62
7
  6
CONTINUOUS
 10
145.587006133
 20
109.9973268072
 11
145.587006133
 21
105.7973268072
  0
LINE
  5
622
100
AcDbEntity
  8
DRAFT
100
AcDbLine
 62
7
  6
CONTINUOUS
 10
145.587006133
 20
104.9973268072
 11
145.587006133
 21
100.7973268072
  0
LINE
  5
623
100
AcDbEntity
  8
DRAFT
100
AcDbLine
 62
7
  6
CONTINUOUS
 10
145.587006133
 20
73.9419767294
 11
145.587006133
 21
73.6637560428
  0
LINE
  5
624
100
AcDbEntity
  8
DRAFT
100
AcDbLine
 62
7
  6
CONTINUOUS
 10
145.7423562108
 20
73.1973268072
 11
145.7423562108
 21
74.0973268072
  0
LINE
  5
625
100
AcDbEntity
  8
DRAFT
100
AcDbLine
 62
7
  6
CONTINUOUS
 10
145.7423562108
 20
114.0973268072
 11
145.7423562108
 21
114.9973268072
  0
LINE
  5
626
100
AcDbEntity
  8
RACCORDO
100
AcDbLine
 62
253
  6
CONTINUOUS
 10
146.4879886076
 20
69.6016986412
 11
146.4879886076
 21
70.4694955909
  0
LINE
  5
627
100
AcDbEntity
  8
RACCORDO
100
AcDbLine
 62
253
  6
CONTINUOUS
 10
146.4879886076
 20
117.7251580236
 11
146.4879886076
 21
118.5929549732
  0
LINE
  5
628
100
AcDbEntity
  8
0
100
AcDbLine
 62
253
  6
CONTINUOUS
 10
146.5787591107
 20
90.9973268072
 11
146.5787591107
 21
76.7005018521
  0
LINE
  5
629
100
AcDbEntity
  8
RACCORDO
100
AcDbLine
 62
253
  6
CONTINUOUS
 10
146.5787591107
 20
91.2152530843
 11
146.5787591107
 21
100.7973268072
  0
LINE
  5
62A
100
AcDbEntity
  8
ASSI
100
AcDbLine
 62
253
  6
CONTINUOUS
 10
146.5787591107
 20
91.2152530843
 11
146.5787591107
 21
100.7973268072
  0
LINE
  5
62B
100
AcDbEntity
  8
RACCORDO
100
AcDbLine
 62
253
  6
CONTINUOUS
 10
146.5787591107
 20
104.9973268072
 11
146.5787591107
 21
105.7973268072
  0
LINE
  5
62C
100
AcDbEntity
  8
ASSI
100
AcDbLine
 62
253
  6
CONTINUOUS
 10
146.5787591107
 20
104.9973268072
 11
146.5787591107
 21
105.7973268072
  0
LINE
  5
62D
100
AcDbEntity
  8
RACCORDO
100
AcDbLine
 62
253
  6
CONTINUOUS
 10
146.5787591107
 20
109.9973268072
 11
146.5787591107
 21
111.4941517624
  0
LINE
  5
62E
100
AcDbEntity
  8
ASSI
100
AcDbLine
 62
253
  6
CONTINUOUS
 10
146.5787591107
 20
109.9973268072
 11
146.5787591107
 21
111.4941517624
  0
LINE
  5
62F
100
AcDbEntity
  8
CURVE
100
AcDbLine
 62
253
  6
CONTINUOUS
 10
146.6402481888
 20
92.5973268072
 11
146.6402481888
 21
91.5973268072
  0
LINE
  5
630
100
AcDbEntity
  8
CURVE
100
AcDbLine
 62
253
  6
CONTINUOUS
 10
146.6507196326
 20
93.0973268072
 11
146.6507196326
 21
94.9973268072
  0
LINE
  5
631
100
AcDbEntity
  8
CURVE
100
AcDbLine
 62
253
  6
CONTINUOUS
 10
146.664930878
 20
94.725898252
 11
146.664930878
 21
94.3187553625
  0
LINE
  5
632
100
AcDbEntity
  8
CURVE
100
AcDbLine
 62
253
  6
CONTINUOUS
 10
146.6672994187
 20
93.775898252
 11
146.6672994187
 21
93.3687553908
  0
LINE
  5
633
100
AcDbEntity
  8
CURVE
100
AcDbLine
 62
253
  6
CONTINUOUS
 10
146.6767735817
 20
94.9973268072
 11
146.6767735817
 21
93.3687553908
  0
LINE
  5
634
100
AcDbEntity
  8
CURVE
100
AcDbLine
 62
253
  6
CONTINUOUS
 10
146.6933533678
 20
93.3687553908
 11
146.6933533678
 21
94.9973268072
  0
LINE
  5
635
100
AcDbEntity
  8
CURVE
100
AcDbLine
 62
253
  6
CONTINUOUS
 10
146.7028275307
 20
94.4544696967
 11
146.7028275307
 21
94.725898252
  0
LINE
  5
636
100
AcDbEntity
  8
CURVE
100
AcDbLine
 62
253
  6
CONTINUOUS
 10
146.7194073168
 20
93.3687553908
 11
146.7194073168
 21
93.6401839744
  0
LINE
  5
637
100
AcDbEntity
  8
RACCORDO
100
AcDbLine
 62
253
  6
CONTINUOUS
 10
146.7379843768
 20
69.8516944104
 11
146.7379843768
 21
70.2529892399
  0
LINE
  5
638
100
AcDbEntity
  8
RACCORDO
100
AcDbLine
 62
253
  6
CONTINUOUS
 10
146.7379843768
 20
117.9416643745
 11
146.7379843768
 21
118.342959204
  0
LINE
  5
639
100
AcDbEntity
  8
RACCORDO
100
AcDbLine
 62
7
  6
CONTINUOUS
 10
146.7423562108
 20
69.8473225764
 11
146.7423562108
 21
71.6973858011
  0
LINE
  5
63A
100
AcDbEntity
  8
RACCORDO
100
AcDbLine
 62
7
  6
CONTINUOUS
 10
146.7423562108
 20
116.4972678134
 11
146.7423562108
 21
118.347331038
  0
LINE
  5
63B
100
AcDbEntity
  8
0
100
AcDbLine
 62
7
  6
CONTINUOUS
 10
146.7780514838
 20
90.9973268072
 11
146.7780514838
 21
76.6179490735
  0
LINE
  5
63C
100
AcDbEntity
  8
RACCORDO
100
AcDbLine
 62
7
  6
CONTINUOUS
 10
146.7797969902
 20
91.0973268072
 11
146.7797969902
 21
76.6172260611
  0
LINE
  5
63D
100
AcDbEntity
  8
ASSI
100
AcDbLine
 62
7
  6
CONTINUOUS
 10
146.7797969902
 20
91.0973268072
 11
146.7797969902
 21
76.6172260611
  0
LINE
  5
63E
100
AcDbEntity
  8
CURVE
100
AcDbLine
 62
253
  6
CONTINUOUS
 10
146.8933080821
 20
87.4925648729
 11
146.8933080821
 21
86.9354219715
  0
LINE
  5
63F
100
AcDbEntity
  8
CURVE
100
AcDbLine
 62
253
  6
CONTINUOUS
 10
146.8933080821
 20
79.5997074644
 11
146.8933080821
 21
79.1354222815
  0
LINE
  5
640
100
AcDbEntity
  8
CURVE
100
AcDbLine
 62
253
  6
CONTINUOUS
 10
146.8933080821
 20
88.2044697086
 11
146.8933080821
 21
88.6687553565
  0
LINE
  5
641
100
AcDbEntity
  8
CURVE
100
AcDbLine
 62
253
  6
CONTINUOUS
 10
146.8997904048
 20
89.6592315654
 11
146.8997904048
 21
89.1639934222
  0
LINE
  5
642
100
AcDbEntity
  8
CURVE
100
AcDbLine
 62
253
  6
CONTINUOUS
 10
146.8997904048
 20
80.5901842158
 11
146.8997904048
 21
80.09494615
  0
LINE
  5
643
100
AcDbEntity
  8
CURVE
100
AcDbLine
 62
253
  6
CONTINUOUS
 10
146.9062727275
 20
87.1211364786
 11
146.9062727275
 21
87.4925648729
  0
LINE
  5
644
100
AcDbEntity
  8
RACCORDO
100
AcDbLine
 62
253
  6
CONTINUOUS
 10
146.4930792087
 20
70.9746770764
 11
146.4879886076
 21
70.4694955909
  0
LINE
  5
645
100
AcDbEntity
  8
CURVE
100
AcDbLine
 62
253
  6
CONTINUOUS
 10
146.664930878
 20
94.3187553625
 11
146.6601937965
 21
94.0473268072
  0
LINE
  5
646
100
AcDbEntity
  8
CURVE
100
AcDbLine
 62
253
  6
CONTINUOUS
 10
146.6672994187
 20
93.3687553908
 11
146.6625623373
 21
93.0973268072
  0
LINE
  5
647
100
AcDbEntity
  8
CURVE
100
AcDbLine
 62
253
  6
CONTINUOUS
 10
146.7028275307
 20
94.725898252
 11
146.7075646142
 21
94.9973268072
  0
LINE
  5
648
100
AcDbEntity
  8
CURVE
100
AcDbLine
 62
253
  6
CONTINUOUS
 10
146.6886162883
 20
93.0973268072
 11
146.6933533678
 21
93.3687553908
  0
LINE
  5
649
100
AcDbEntity
  8
CURVE
100
AcDbLine
 62
253
  6
CONTINUOUS
 10
146.7146702373
 20
93.0973268072
 11
146.7194073168
 21
93.3687553908
  0
LWPOLYLINE
  5
64A
100
AcDbEntity
  8
RACCORDO
100
AcDbPolyline
 62
253
  6
CONTINUOUS
 90
31
 70
0
 10
144.3467280448
 20
70.2529892399
 10
144.3471066005
 20
70.2642872122
 10
144.348165728
 20
70.2755575162
 10
144.3499031046
 20
70.286769386
 10
144.352314806
 20
70.2978931951
 10
144.3553946762
 20
70.3088974472
 10
144.3591337272
 20
70.319748987
 10
144.3635212716
 20
70.33041711
 10
144.3685456706
 20
70.3408737833
 10
144.3741933512
 20
70.3510907022
 10
144.3804490438
 20
70.3610401073
 10
144.3872956184
 20
70.3706946319
 10
144.3947142267
 20
70.3800276553
 10
144.4026845307
 20
70.3890136055
 10
144.4111848255
 20
70.3976280247
 10
144.420191916
 20
70.405847403
 10
144.4296812196
 20
70.4136492997
 10
144.4396268068
 20
70.4210123879
 10
144.4500014896
 20
70.4279165368
 10
144.460776922
 20
70.4343428834
 10
144.47192368
 20
70.4402738803
 10
144.4834113171
 20
70.4456933277
 10
144.4952084738
 20
70.4505864297
 10
144.5072829102
 20
70.4549398128
 10
144.5196015898
 20
70.4587415701
 10
144.5321308252
 20
70.4619813166
 10
144.5448364281
 20
70.464650223
 10
144.5576837489
 20
70.4667410154
 10
144.5706377161
 20
70.4682479854
 10
144.5836629299
 20
70.4691670138
 10
144.5967238141
 20
70.4694955909
  0
LWPOLYLINE
  5
64B
100
AcDbEntity
  8
RACCORDO
100
AcDbPolyline
 62
253
  6
CONTINUOUS
 90
31
 70
0
 10
146.7379843768
 20
117.9416643745
 10
146.7376058212
 20
117.9303664023
 10
146.7365466936
 20
117.9190960982
 10
146.7348093171
 20
117.9078842284
 10
146.7323976157
 20
117.8967604193
 10
146.7293177455
 20
117.8857561672
 10
146.7255786945
 20
117.8749046274
 10
146.7211911501
 20
117.8642365044
 10
146.7161667511
 20
117.8537798311
 10
146.7105190705
 20
117.8435629123
 10
146.7042633779
 20
117.8336135071
 10
146.6974168033
 20
117.8239589826
 10
146.689998195
 20
117.8146259592
 10
146.682027891
 20
117.805640009
 10
146.6735275962
 20
117.7970255898
 10
146.6645205057
 20
117.7888062114
 10
146.6550312021
 20
117.7810043148
 10
146.6450856149
 20
117.7736412265
 10
146.6347109321
 20
117.7667370777
 10
146.6239354997
 20
117.7603107311
 10
146.6127887417
 20
117.7543797341
 10
146.6013011046
 20
117.7489602868
 10
146.5895039479
 20
117.7440671848
 10
146.5774295114
 20
117.7397138017
 10
146.5651108318
 20
117.7359120443
 10
146.5525815965
 20
117.7326722979
 10
146.5398759936
 20
117.7300033914
 10
146.5270286728
 20
117.727912599
 10
146.5140747056
 20
117.7264056291
 10
146.5010494918
 20
117.7254866007
 10
146.4879886076
 20
117.7251580236
  0
LINE
  5
64C
100
AcDbEntity
  8
CURVE
100
AcDbLine
 62
253
  6
CONTINUOUS
 10
147.1464930428
 20
105.1374318072
 11
147.1795377607
 21
105.8474888072
  0
LINE
  5
64D
100
AcDbEntity
  8
CURVE
100
AcDbLine
 62
253
  6
CONTINUOUS
 10
147.1970989655
 20
105.6905608072
 11
147.1690024062
 21
105.0916818072
  0
LINE
  5
64E
100
AcDbEntity
  8
CURVE
100
AcDbLine
 62
253
  6
CONTINUOUS
 10
147.1620079075
 20
99.6975856405
 11
147.1615074274
 21
99.68694839
  0
LINE
  5
64F
100
AcDbEntity
  8
CURVE
100
AcDbLine
 62
253
  6
CONTINUOUS
 10
147.1632675356
 20
99.104814596
 11
147.1639189161
 21
99.1176094106
  0
LINE
  5
650
100
AcDbEntity
  8
CURVE
100
AcDbLine
 62
253
  6
CONTINUOUS
 10
147.1615074274
 20
99.68694839
 11
147.1605041747
 21
99.6679389202
  0
LINE
  5
651
100
AcDbEntity
  8
CURVE
100
AcDbLine
 62
253
  6
CONTINUOUS
 10
147.1464930428
 20
109.1783398072
 11
147.1970989655
 21
110.0975868072
  0
LINE
  5
652
100
AcDbEntity
  8
CURVE
100
AcDbLine
 62
253
  6
CONTINUOUS
 10
147.1624843114
 20
99.0907309028
 11
147.1632675356
 21
99.104814596
  0
LINE
  5
653
100
AcDbEntity
  8
CURVE
100
AcDbLine
 62
253
  6
CONTINUOUS
 10
147.1970989655
 20
102.0263168072
 11
147.1464930428
 21
101.1366308072
  0
LINE
  5
654
100
AcDbEntity
  8
CURVE
100
AcDbLine
 62
253
  6
CONTINUOUS
 10
147.1605041747
 20
99.6679389202
 11
147.1550078349
 21
99.5717012956
  0
LINE
  5
655
100
AcDbEntity
  8
CURVE
100
AcDbLine
 62
253
  6
CONTINUOUS
 10
147.1550078349
 20
99.5717012956
 11
147.1464930367
 21
99.4291685456
  0
LINE
  5
656
100
AcDbEntity
  8
CURVE
100
AcDbLine
 62
253
  6
CONTINUOUS
 10
147.1611095217
 20
99.0682470077
 11
147.1624843114
 21
99.0907309028
  0
LINE
  5
657
100
AcDbEntity
  8
CURVE
100
AcDbLine
 62
253
  6
CONTINUOUS
 10
147.1970989655
 20
109.4400748072
 11
147.162265341
 21
108.8873478072
  0
LINE
  5
658
100
AcDbEntity
  8
CURVE
100
AcDbLine
 62
253
  6
CONTINUOUS
 10
147.1464930428
 20
101.7745618072
 11
147.1565957871
 21
101.9313598072
  0
LWPOLYLINE
  5
659
100
AcDbEntity
  8
CURVE
100
AcDbPolyline
 62
253
  6
CONTINUOUS
 90
3
 70
0
 10
147.1464930367
 20
98.846967822
 10
147.1528687566
 20
98.9428368454
 10
147.1611095217
 20
99.0682470077
  0
LINE
  5
65A
100
AcDbEntity
  8
CURVE
100
AcDbLine
 62
253
  6
CONTINUOUS
 10
147.1644132435
 20
102.0523228072
 11
147.1831937432
 21
102.3304528072
  0
LINE
  5
65B
100
AcDbEntity
  8
DRAFT
100
AcDbLine
 62
7
  6
CONTINUOUS
 10
143.4441348962
 20
73.6637560428
 11
143.3923562108
 21
73.1973268072
  0
LINE
  5
65C
100
AcDbEntity
  8
CURVE
100
AcDbLine
 62
253
  6
CONTINUOUS
 10
147.1970989655
 20
103.8875538072
 11
147.1464930428
 21
103.6164038072
  0
LINE
  5
65D
100
AcDbEntity
  8
DRAFT
100
AcDbLine
 62
7
  6
CONTINUOUS
 10
131.6923562108
 20
71.6973268072
 11
131.7364234781
 21
71.7634286403
  0
LINE
  5
65E
100
AcDbEntity
  8
RACCORDO
100
AcDbLine
 62
7
  6
CONTINUOUS
 10
129.7353347094
 20
74.3403053058
 11
129.7923562108
 21
74.3973268072
  0
LINE
  5
65F
100
AcDbEntity
  8
RACCORDO
100
AcDbLine
 62
253
  6
CONTINUOUS
 10
125.4467280448
 20
69.8516944104
 11
125.4423562108
 21
69.8473225764
  0
LINE
  5
660
100
AcDbEntity
  8
CURVE
100
AcDbLine
 62
7
  6
CONTINUOUS
 10
147.1463533537
 20
91.3296594262
 11
147.1969653498
 21
91.3802714223
  0
LINE
  5
661
100
AcDbEntity
  8
CURVE
100
AcDbLine
 62
7
  6
CONTINUOUS
 10
147.1463533537
 20
91.1196487122
 11
147.1969653492
 21
91.1702607077
  0
LINE
  5
662
100
AcDbEntity
  8
0
100
AcDbLine
 62
253
  6
CONTINUOUS
 10
127.1923562108
 20
79.4544696133
 11
128.0494990616
 21
79.8830410163
  0
LINE
  5
663
100
AcDbEntity
  8
CURVE
100
AcDbLine
 62
253
  6
CONTINUOUS
 10
147.1464930367
 20
100.3560581905
 11
147.1662974012
 21
100.3560581905
  0
LINE
  5
664
100
AcDbEntity
  8
CURVE
100
AcDbLine
 62
253
  6
CONTINUOUS
 10
147.1745854293
 20
100.3761280791
 11
147.188477743
 21
100.3761280791
  0
LINE
  5
665
100
AcDbEntity
  8
SMUSSO
100
AcDbLine
 62
7
  6
CONTINUOUS
 10
138.41970648
 20
100.669976538
 11
130.2650059417
 21
100.669976538
  0
LINE
  5
666
100
AcDbEntity
  8
ASSI
100
AcDbLine
 62
7
  6
CONTINUOUS
 10
138.41970648
 20
100.669976538
 11
130.2650059417
 21
100.669976538
  0
LINE
  5
667
100
AcDbEntity
  8
RACCORDO
100
AcDbLine
 62
7
  6
CONTINUOUS
 10
145.4423562108
 20
100.7973268072
 11
146.6794303669
 21
100.7973268072
  0
LINE
  5
668
100
AcDbEntity
  8
ASSI
100
AcDbLine
 62
7
  6
CONTINUOUS
 10
145.4423562108
 20
100.7973268072
 11
146.6794303669
 21
100.7973268072
  0
LINE
  5
669
100
AcDbEntity
  8
CURVE
100
AcDbLine
 62
253
  6
CONTINUOUS
 10
147.1965077189
 20
100.9588941516
 11
147.1464930367
 21
100.9588941516
  0
LINE
  5
66A
100
AcDbEntity
  8
SMUSSO
100
AcDbLine
 62
7
  6
CONTINUOUS
 10
137.8423562108
 20
101.2473268072
 11
130.8423562108
 21
101.2473268072
  0
LINE
  5
66B
100
AcDbEntity
  8
ASSI
100
AcDbLine
 62
7
  6
CONTINUOUS
 10
137.8423562108
 20
101.2473268072
 11
130.8423562108
 21
101.2473268072
  0
LINE
  5
66C
100
AcDbEntity
  8
RACCORDO
100
AcDbLine
 62
7
  6
CONTINUOUS
 10
129.7353347094
 20
113.8543483087
 11
129.7923562108
 21
113.7973268072
  0
LINE
  5
66D
100
AcDbEntity
  8
RACCORDO
100
AcDbLine
 62
253
  6
CONTINUOUS
 10
125.4467280448
 20
118.342959204
 11
125.4423562108
 21
118.347331038
  0
LINE
  5
66E
100
AcDbEntity
  8
SMUSSO
100
AcDbLine
 62
7
  6
CONTINUOUS
 10
137.8423562108
 20
106.2473268072
 11
138.41970648
 21
105.669976538
  0
LINE
  5
66F
100
AcDbEntity
  8
ASSI
100
AcDbLine
 62
7
  6
CONTINUOUS
 10
137.8423562108
 20
106.2473268072
 11
138.41970648
 21
105.669976538
  0
LINE
  5
670
100
AcDbEntity
  8
DRAFT
100
AcDbLine
 62
7
  6
CONTINUOUS
 10
131.6923562108
 20
116.4973268072
 11
131.7364234781
 21
116.4312249741
  0
LINE
  5
671
100
AcDbEntity
  8
DRAFT
100
AcDbLine
 62
7
  6
CONTINUOUS
 10
143.3923562108
 20
114.9973268072
 11
143.4441348962
 21
114.5308975716
  0
LINE
  5
672
100
AcDbEntity
  8
CURVE
100
AcDbLine
 62
253
  6
CONTINUOUS
 10
147.1831937432
 20
102.3304528072
 11
147.1644132435
 21
102.6318268072
  0
LINE
  5
673
100
AcDbEntity
  8
CURVE
100
AcDbLine
 62
253
  6
CONTINUOUS
 10
147.162265341
 20
108.8873478072
 11
147.1970989655
 21
108.3177368072
  0
LINE
  5
674
100
AcDbEntity
  8
CURVE
100
AcDbLine
 62
253
  6
CONTINUOUS
 10
147.1565957871
 20
102.7556388072
 11
147.1464930428
 21
102.9226558072
  0
LINE
  5
675
100
AcDbEntity
  8
CURVE
100
AcDbLine
 62
253
  6
CONTINUOUS
 10
147.1464930428
 20
103.5213598072
 11
147.1970989655
 21
102.6118438072
  0
LINE
  5
676
100
AcDbEntity
  8
CURVE
100
AcDbLine
 62
253
  6
CONTINUOUS
 10
147.1970989655
 20
107.7128788072
 11
147.1464930428
 21
108.6449438072
  0
LWPOLYLINE
  5
677
100
AcDbEntity
  8
CURVE
100
AcDbPolyline
 62
253
  6
CONTINUOUS
 90
27
 70
0
 10
147.1774797327
 20
99.0468051381
 10
147.1779613231
 20
99.0369814767
 10
147.1784049266
 20
99.0289067254
 10
147.1788527486
 20
99.0216620381
 10
147.1793043515
 20
99.0152419039
 10
147.1797886527
 20
99.0093077524
 10
147.1802761512
 20
99.0042904802
 10
147.1807662572
 20
99.000179178
 10
147.1812923804
 20
98.996772338
 10
147.1818201661
 20
98.9943654715
 10
147.1823489715
 20
98.9929358248
 10
147.1827675805
 20
98.992480804
 10
147.1831862353
 20
98.9926034521
 10
147.1836205466
 20
98.9933253042
 10
147.1840544254
 20
98.9946543697
 10
147.18440265
 20
98.9961693059
 10
147.1847502379
 20
98.9980980556
 10
147.1850868693
 20
99.0003809147
 10
147.1854225937
 20
99.0030751688
 10
147.1858499949
 20
99.0071243
 10
147.1862752635
 20
99.0118644159
 10
147.1866979747
 20
99.0173068907
 10
147.1870960564
 20
99.0231257884
 10
147.1874910747
 20
99.0295902216
 10
147.1878826476
 20
99.0367039622
 10
147.1882518453
 20
99.0440819998
 10
147.1889786915
 20
99.0606208102
  0
LWPOLYLINE
  5
678
100
AcDbEntity
  8
CURVE
100
AcDbPolyline
 62
253
  6
CONTINUOUS
 90
13
 70
0
 10
147.1749229878
 20
89.3763111597
 10
147.1753606761
 20
89.3671780628
 10
147.1758028945
 20
89.3589076853
 10
147.176315754
 20
89.3504602549
 10
147.1768329346
 20
89.343091684
 10
147.1773538592
 20
89.3367383073
 10
147.1778779508
 20
89.3313364599
 10
147.1784046325
 20
89.3268224766
 10
147.1790019479
 20
89.3227186271
 10
147.179601209
 20
89.3196153655
 10
147.1802017931
 20
89.3174617817
 10
147.1808030777
 20
89.3162069656
 10
147.1814044402
 20
89.3158000069
  0
LINE
  5
679
100
AcDbEntity
  8
CURVE
100
AcDbLine
 62
253
  6
CONTINUOUS
 10
147.1690024062
 20
105.0916818072
 11
147.1970989655
 21
104.4864108072
  0
LINE
  5
67A
100
AcDbEntity
  8
CURVE
100
AcDbLine
 62
253
  6
CONTINUOUS
 10
147.1794000089
 20
104.3328748072
 11
147.1464930428
 21
105.0525428072
  0
LINE
  5
67B
100
AcDbEntity
  8
CURVE
100
AcDbLine
 62
253
  6
CONTINUOUS
 10
147.1782418343
 20
90.0047601312
 11
147.1778703883
 21
90.013110148
  0
LINE
  5
67C
100
AcDbEntity
  8
CURVE
100
AcDbLine
 62
253
  6
CONTINUOUS
 10
147.1765363238
 20
99.0694237481
 11
147.1774797327
 21
99.0468051381
  0
LINE
  5
67D
100
AcDbEntity
  8
CURVE
100
AcDbLine
 62
253
  6
CONTINUOUS
 10
147.1789729377
 20
99.5909940855
 11
147.1785507348
 21
99.6011517397
  0
LINE
  5
67E
100
AcDbEntity
  8
CURVE
100
AcDbLine
 62
253
  6
CONTINUOUS
 10
147.174064488
 20
89.3971562122
 11
147.1749229878
 21
89.3763111597
  0
LINE
  5
67F
100
AcDbEntity
  8
CURVE
100
AcDbLine
 62
253
  6
CONTINUOUS
 10
147.1778703883
 20
90.013110148
 11
147.1775092958
 21
90.0228372249
  0
LINE
  5
680
100
AcDbEntity
  8
CURVE
100
AcDbLine
 62
253
  6
CONTINUOUS
 10
147.1785507348
 20
99.6011517397
 11
147.1781524103
 21
99.6126361116
  0
LINE
  5
681
100
AcDbEntity
  8
CURVE
100
AcDbLine
 62
253
  6
CONTINUOUS
 10
147.1756241737
 20
99.095921061
 11
147.1765363238
 21
99.0694237481
  0
LINE
  5
682
100
AcDbEntity
  8
CURVE
100
AcDbLine
 62
253
  6
CONTINUOUS
 10
147.1732339678
 20
89.4214242443
 11
147.174064488
 21
89.3971562122
  0
LINE
  5
683
100
AcDbEntity
  8
CURVE
100
AcDbLine
 62
253
  6
CONTINUOUS
 10
147.1775092958
 20
90.0228372249
 11
147.1771609027
 21
90.0339521032
  0
LINE
  5
684
100
AcDbEntity
  8
CURVE
100
AcDbLine
 62
253
  6
CONTINUOUS
 10
147.1781524103
 20
99.6126361116
 11
147.1777693423
 21
99.6256881789
  0
LINE
  5
685
100
AcDbEntity
  8
CURVE
100
AcDbLine
 62
253
  6
CONTINUOUS
 10
147.1724380003
 20
89.449096657
 11
147.1732339678
 21
89.4214242443
  0
LINE
  5
686
100
AcDbEntity
  8
CURVE
100
AcDbLine
 62
253
  6
CONTINUOUS
 10
147.1744685562
 20
99.1369800719
 11
147.1756241737
 21
99.095921061
  0
LINE
  5
687
100
AcDbEntity
  8
CURVE
100
AcDbLine
 62
253
  6
CONTINUOUS
 10
147.1771609027
 20
90.0339521032
 11
147.1766459994
 21
90.0539747094
  0
LINE
  5
688
100
AcDbEntity
  8
CURVE
100
AcDbLine
 62
253
  6
CONTINUOUS
 10
147.1777693423
 20
99.6256881789
 11
147.1772384763
 21
99.6477446617
  0
LINE
  5
689
100
AcDbEntity
  8
CURVE
100
AcDbLine
 62
253
  6
CONTINUOUS
 10
147.1713476622
 20
89.4957568703
 11
147.1724380003
 21
89.449096657
  0
LINE
  5
68A
100
AcDbEntity
  8
CURVE
100
AcDbLine
 62
253
  6
CONTINUOUS
 10
147.1733596753
 20
99.1856863444
 11
147.1744685562
 21
99.1369800719
  0
LINE
  5
68B
100
AcDbEntity
  8
CURVE
100
AcDbLine
 62
253
  6
CONTINUOUS
 10
147.1766459994
 20
90.0539747094
 11
147.1760306891
 21
90.0837844875
  0
LINE
  5
68C
100
AcDbEntity
  8
CURVE
100
AcDbLine
 62
253
  6
CONTINUOUS
 10
147.1107152029
 20
84.3401837866
 11
147.1201893658
 21
83.7973266195
  0
LINE
  5
68D
100
AcDbEntity
  8
CURVE
100
AcDbLine
 62
253
  6
CONTINUOUS
 10
147.1772384763
 20
99.6477446617
 11
147.1766249739
 21
99.680737416
  0
LINE
  5
68E
100
AcDbEntity
  8
CURVE
100
AcDbLine
 62
253
  6
CONTINUOUS
 10
147.1720039503
 20
99.2616288974
 11
147.1733596753
 21
99.1856863444
  0
LINE
  5
68F
100
AcDbEntity
  8
CURVE
100
AcDbLine
 62
253
  6
CONTINUOUS
 10
147.1701178908
 20
89.5650759833
 11
147.1713476622
 21
89.4957568703
  0
LINE
  5
690
100
AcDbEntity
  8
CURVE
100
AcDbLine
 62
253
  6
CONTINUOUS
 10
147.1760306891
 20
90.0837844875
 11
147.1754430105
 21
90.1211431268
  0
LINE
  5
691
100
AcDbEntity
  8
CURVE
100
AcDbLine
 62
253
  6
CONTINUOUS
 10
147.1766249739
 20
99.680737416
 11
147.1759525495
 21
99.7307499123
  0
LINE
  5
692
100
AcDbEntity
  8
CURVE
100
AcDbLine
 62
253
  6
CONTINUOUS
 10
147.1708419419
 20
99.3510006557
 11
147.1720039503
 21
99.2616288974
  0
LINE
  5
693
100
AcDbEntity
  8
CURVE
100
AcDbLine
 62
253
  6
CONTINUOUS
 10
147.1688395313
 20
89.6673185696
 11
147.1701178908
 21
89.5650759833
  0
LINE
  5
694
100
AcDbEntity
  8
CURVE
100
AcDbLine
 62
253
  6
CONTINUOUS
 10
147.1059781214
 20
79.8616122286
 11
147.1083466611
 21
79.6354217093
  0
LINE
  5
695
100
AcDbEntity
  8
RACCORDO
100
AcDbLine
 62
253
  6
CONTINUOUS
 10
146.7379843768
 20
117.9416643745
 11
146.7423562108
 21
117.5078119554
  0
LINE
  5
696
100
AcDbEntity
  8
CURVE
100
AcDbLine
 62
253
  6
CONTINUOUS
 10
147.0294317721
 20
83.7730298491
 11
147.0270376001
 21
84.0028149882
  0
LINE
  5
697
100
AcDbEntity
  8
CURVE
100
AcDbLine
 62
253
  6
CONTINUOUS
 10
147.0168670541
 20
83.5226301877
 11
147.0185523978
 21
83.3427905541
  0
LINE
  5
698
100
AcDbEntity
  8
CURVE
100
AcDbLine
 62
253
  6
CONTINUOUS
 10
147.1754430105
 20
90.1211431268
 11
147.1750731287
 21
90.1564900752
  0
LINE
  5
699
100
AcDbEntity
  8
CURVE
100
AcDbLine
 62
253
  6
CONTINUOUS
 10
147.170477081
 20
99.38928673
 11
147.1708419419
 21
99.3510006557
  0
LINE
  5
69A
100
AcDbEntity
  8
CURVE
100
AcDbLine
 62
253
  6
CONTINUOUS
 10
147.0313925127
 20
83.5301302651
 11
147.0294317721
 21
83.7730298491
  0
LINE
  5
69B
100
AcDbEntity
  8
CURVE
100
AcDbLine
 62
253
  6
CONTINUOUS
 10
147.1759525495
 20
99.7307499123
 11
147.1752448773
 21
99.8127325028
  0
LINE
  5
69C
100
AcDbEntity
  8
CURVE
100
AcDbLine
 62
253
  6
CONTINUOUS
 10
147.0319459125
 20
79.0615957126
 11
147.030134702
 21
79.3082788791
  0
LINE
  5
69D
100
AcDbEntity
  8
CURVE
100
AcDbLine
 62
253
  6
CONTINUOUS
 10
147.0185523978
 20
83.3427905541
 11
147.0198715908
 21
83.1531719378
  0
LINE
  5
69E
100
AcDbEntity
  8
CURVE
100
AcDbLine
 62
253
  6
CONTINUOUS
 10
147.1669284205
 20
89.9310540728
 11
147.1688395313
 21
89.6673185696
  0
LINE
  5
69F
100
AcDbEntity
  8
CURVE
100
AcDbLine
 62
253
  6
CONTINUOUS
 10
147.0191295036
 20
78.8822554967
 11
147.0202215199
 21
78.7041485561
  0
LINE
  5
6A0
100
AcDbEntity
  8
CURVE
100
AcDbLine
 62
253
  6
CONTINUOUS
 10
147.0328982141
 20
83.2767915234
 11
147.0313925127
 21
83.5301302651
  0
LINE
  5
6A1
100
AcDbEntity
  8
CURVE
100
AcDbLine
 62
253
  6
CONTINUOUS
 10
147.033295998
 20
78.8053925567
 11
147.0319459125
 21
79.0615957126
  0
LINE
  5
6A2
100
AcDbEntity
  8
CURVE
100
AcDbLine
 62
253
  6
CONTINUOUS
 10
147.0198715908
 20
83.1531719378
 11
147.0208076565
 21
82.9562129424
  0
LINE
  5
6A3
100
AcDbEntity
  8
CURVE
100
AcDbLine
 62
253
  6
CONTINUOUS
 10
147.1704144715
 20
99.4027710973
 11
147.170477081
 21
99.38928673
  0
LINE
  5
6A4
100
AcDbEntity
  8
CURVE
100
AcDbLine
 62
253
  6
CONTINUOUS
 10
147.0202215199
 20
78.7041485561
 11
147.0209820271
 21
78.5204669296
  0
LINE
  5
6A5
100
AcDbEntity
  8
CURVE
100
AcDbLine
 62
253
  6
CONTINUOUS
 10
147.1750731287
 20
90.1564900752
 11
147.1746033481
 21
90.2594508981
  0
LINE
  5
6A6
100
AcDbEntity
  8
CURVE
100
AcDbLine
 62
253
  6
CONTINUOUS
 10
147.1752448773
 20
99.8127325028
 11
147.1747701523
 21
99.9148161001
  0
LINE
  5
6A7
100
AcDbEntity
  8
CURVE
100
AcDbLine
 62
253
  6
CONTINUOUS
 10
147.0341700673
 20
82.9276037554
 11
147.0328982141
 21
83.2767915234
  0
LINE
  5
6A8
100
AcDbEntity
  8
CURVE
100
AcDbLine
 62
253
  6
CONTINUOUS
 10
147.0343538437
 20
78.453868255
 11
147.033295998
 21
78.8053925567
  0
LINE
  5
6A9
100
AcDbEntity
  8
CURVE
100
AcDbLine
 62
253
  6
CONTINUOUS
 10
147.1746033481
 20
90.2594508981
 11
147.1742544223
 21
90.4107146763
  0
LINE
  5
6AA
100
AcDbEntity
  8
CURVE
100
AcDbLine
 62
253
  6
CONTINUOUS
 10
147.0208076565
 20
82.9562129424
 11
147.0213485662
 21
82.7544465781
  0
LINE
  5
6AB
100
AcDbEntity
  8
CURVE
100
AcDbLine
 62
253
  6
CONTINUOUS
 10
147.0209820271
 20
78.5204669296
 11
147.0214026538
 21
78.3332319495
  0
LINE
  5
6AC
100
AcDbEntity
  8
CURVE
100
AcDbLine
 62
253
  6
CONTINUOUS
 10
147.1661292289
 20
90.1898491124
 11
147.1669284205
 21
89.9310540728
  0
LINE
  5
6AD
100
AcDbEntity
  8
CURVE
100
AcDbLine
 62
253
  6
CONTINUOUS
 10
147.188477743
 20
100.3761280791
 11
147.1889102029
 21
100.1767796388
  0
LINE
  5
6AE
100
AcDbEntity
  8
CURVE
100
AcDbLine
 62
253
  6
CONTINUOUS
 10
147.1658435329
 20
90.5091067497
 11
147.1661292289
 21
90.1898491124
  0
LINE
  5
6AF
100
AcDbEntity
  8
CURVE
100
AcDbLine
 62
253
  6
CONTINUOUS
 10
147.1747701523
 20
99.9148161001
 11
147.1745854293
 21
100.030221483
  0
LINE
  5
6B0
100
AcDbEntity
  8
CURVE
100
AcDbLine
 62
253
  6
CONTINUOUS
 10
146.9159962105
 20
88.6687553565
 11
146.9159962105
 21
88.2044697086
  0
LINE
  5
6B1
100
AcDbEntity
  8
CURVE
100
AcDbLine
 62
253
  6
CONTINUOUS
 10
146.9159962105
 20
87.4925648729
 11
146.9159962105
 21
86.9354219715
  0
LINE
  5
6B2
100
AcDbEntity
  8
CURVE
100
AcDbLine
 62
253
  6
CONTINUOUS
 10
146.9159962105
 20
81.8282790701
 11
146.9159962105
 21
81.0854222815
  0
LINE
  5
6B3
100
AcDbEntity
  8
CURVE
100
AcDbLine
 62
253
  6
CONTINUOUS
 10
146.9835391082
 20
78.4973268072
 11
146.9835391082
 21
79.9578268072
  0
LINE
  5
6B4
100
AcDbEntity
  8
CURVE
100
AcDbLine
 62
253
  6
CONTINUOUS
 10
146.9966264195
 20
79.9578268072
 11
146.9966264195
 21
78.4973268072
  0
LWPOLYLINE
  5
6B5
100
AcDbEntity
  8
CURVE
100
AcDbPolyline
 62
253
  6
CONTINUOUS
 90
3
 70
0
 10
147.0213485662
 20
82.7544465781
 10
147.0214873477
 20
82.5504628859
 10
147.0214438006
 20
82.4824368072
  0
LINE
  5
6B6
100
AcDbEntity
  8
CURVE
100
AcDbLine
 62
253
  6
CONTINUOUS
 10
147.0870297936
 20
81.7616124551
 11
147.0870297936
 21
81.2187551181
  0
LINE
  5
6B7
100
AcDbEntity
  8
CURVE
100
AcDbLine
 62
253
  6
CONTINUOUS
 10
147.0870297936
 20
80.4044695656
 11
147.0870297936
 21
79.7258980076
  0
LINE
  5
6B8
100
AcDbEntity
  8
CURVE
100
AcDbLine
 62
253
  6
CONTINUOUS
 10
147.0870297936
 20
78.3687553446
 11
147.0870297936
 21
78.7758980076
  0
LINE
  5
6B9
100
AcDbEntity
  8
CURVE
100
AcDbLine
 62
253
  6
CONTINUOUS
 10
147.0941354162
 20
82.3044695656
 11
147.0941354162
 21
83.2544694523
  0
LINE
  5
6BA
100
AcDbEntity
  8
CURVE
100
AcDbLine
 62
253
  6
CONTINUOUS
 10
147.1059781214
 20
78.7758980076
 11
147.1059781214
 21
78.3687553446
  0
LINE
  5
6BB
100
AcDbEntity
  8
CURVE
100
AcDbLine
 62
253
  6
CONTINUOUS
 10
147.1059781214
 20
79.8616122286
 11
147.1059781214
 21
80.1330411236
  0
LINE
  5
6BC
100
AcDbEntity
  8
CURVE
100
AcDbLine
 62
253
  6
CONTINUOUS
 10
147.1059781214
 20
81.2187551181
 11
147.1059781214
 21
81.7616124551
  0
LINE
  5
6BD
100
AcDbEntity
  8
CURVE
100
AcDbLine
 62
253
  6
CONTINUOUS
 10
147.1201893658
 20
81.7616124551
 11
147.1201893658
 21
80.9473266761
  0
LINE
  5
6BE
100
AcDbEntity
  8
CURVE
100
AcDbLine
 62
253
  6
CONTINUOUS
 10
147.1201893658
 20
78.7758980076
 11
147.1201893658
 21
78.3687553446
  0
LINE
  5
6BF
100
AcDbEntity
  8
CURVE
100
AcDbLine
 62
253
  6
CONTINUOUS
 10
147.1201893658
 20
79.8616122286
 11
147.1201893658
 21
80.4044695656
  0
LINE
  5
6C0
100
AcDbEntity
  8
CURVE
100
AcDbLine
 62
253
  6
CONTINUOUS
 10
147.1463533537
 20
91.3965368072
 11
147.1463533537
 21
90.7739308072
  0
LINE
  5
6C1
100
AcDbEntity
  8
CURVE
100
AcDbLine
 62
253
  6
CONTINUOUS
 10
147.1463533537
 20
86.9178128072
 11
147.1463533537
 21
86.3233628072
  0
LINE
  5
6C2
100
AcDbEntity
  8
CURVE
100
AcDbLine
 62
253
  6
CONTINUOUS
 10
147.1463533537
 20
84.7488958072
 11
147.1463533537
 21
84.1222528072
  0
LINE
  5
6C3
100
AcDbEntity
  8
CURVE
100
AcDbLine
 62
253
  6
CONTINUOUS
 10
147.1463533537
 20
80.8928868072
 11
147.1463533537
 21
80.2984378072
  0
LINE
  5
6C4
100
AcDbEntity
  8
CURVE
100
AcDbLine
 62
253
  6
CONTINUOUS
 10
147.1463533537
 20
78.7237528072
 11
147.1463533537
 21
78.0973268072
  0
LINE
  5
6C5
100
AcDbEntity
  8
CURVE
100
AcDbLine
 62
253
  6
CONTINUOUS
 10
147.1463533537
 20
81.1861288072
 11
147.1463533537
 21
82.0697808072
  0
LINE
  5
6C6
100
AcDbEntity
  8
CURVE
100
AcDbLine
 62
253
  6
CONTINUOUS
 10
147.1463533537
 20
83.2225568072
 11
147.1463533537
 21
83.8050018072
  0
LINE
  5
6C7
100
AcDbEntity
  8
CURVE
100
AcDbLine
 62
253
  6
CONTINUOUS
 10
147.1463533537
 20
87.2305888072
 11
147.1463533537
 21
88.9261938072
  0
LINE
  5
6C8
100
AcDbEntity
  8
CURVE
100
AcDbLine
 62
253
  6
CONTINUOUS
 10
147.1464930428
 20
107.4882618072
 11
147.1464930428
 21
106.8829908072
  0
LINE
  5
6C9
100
AcDbEntity
  8
CURVE
100
AcDbLine
 62
253
  6
CONTINUOUS
 10
147.1464930367
 20
100.9588941516
 11
147.1464930367
 21
100.3560581905
  0
LINE
  5
6CA
100
AcDbEntity
  8
CURVE
100
AcDbLine
 62
253
  6
CONTINUOUS
 10
147.1464930367
 20
99.4291685456
 11
147.1464930367
 21
98.846967822
  0
LINE
  5
6CB
100
AcDbEntity
  8
CURVE
100
AcDbLine
 62
253
  6
CONTINUOUS
 10
147.1464930428
 20
101.1366308072
 11
147.1464930428
 21
101.7745618072
  0
LINE
  5
6CC
100
AcDbEntity
  8
CURVE
100
AcDbLine
 62
253
  6
CONTINUOUS
 10
147.1464930428
 20
102.9226558072
 11
147.1464930428
 21
103.5213598072
  0
LINE
  5
6CD
100
AcDbEntity
  8
CURVE
100
AcDbLine
 62
253
  6
CONTINUOUS
 10
147.1464930428
 20
103.6164038072
 11
147.1464930428
 21
104.2085198072
  0
LINE
  5
6CE
100
AcDbEntity
  8
CURVE
100
AcDbLine
 62
253
  6
CONTINUOUS
 10
147.1464930428
 20
105.0525428072
 11
147.1464930428
 21
105.1374318072
  0
LINE
  5
6CF
100
AcDbEntity
  8
CURVE
100
AcDbLine
 62
253
  6
CONTINUOUS
 10
147.1464930428
 20
105.9781058072
 11
147.1464930428
 21
106.5571538072
  0
LINE
  5
6D0
100
AcDbEntity
  8
CURVE
100
AcDbLine
 62
253
  6
CONTINUOUS
 10
147.1464930428
 20
108.6449438072
 11
147.1464930428
 21
109.1783398072
  0
LINE
  5
6D1
100
AcDbEntity
  8
CURVE
100
AcDbLine
 62
253
  6
CONTINUOUS
 10
147.1547642443
 20
88.3035878072
 11
147.1547642443
 21
87.2305888072
  0
LINE
  5
6D2
100
AcDbEntity
  8
CURVE
100
AcDbLine
 62
253
  6
CONTINUOUS
 10
147.1565957871
 20
101.9313598072
 11
147.1565957871
 21
102.7556388072
  0
LINE
  5
6D3
100
AcDbEntity
  8
CURVE
100
AcDbLine
 62
253
  6
CONTINUOUS
 10
147.1570802834
 20
86.1065148072
 11
147.1570802834
 21
84.9577778072
  0
LINE
  5
6D4
100
AcDbEntity
  8
CURVE
100
AcDbLine
 62
253
  6
CONTINUOUS
 10
147.1570802834
 20
80.0814808072
 11
147.1570802834
 21
78.9327428072
  0
LINE
  5
6D5
100
AcDbEntity
  8
CURVE
100
AcDbLine
 62
253
  6
CONTINUOUS
 10
147.1644132435
 20
102.6318268072
 11
147.1644132435
 21
102.0523228072
  0
LINE
  5
6D6
100
AcDbEntity
  8
CURVE
100
AcDbLine
 62
253
  6
CONTINUOUS
 10
147.165491174
 20
79.0894578072
 11
147.165491174
 21
79.9208358072
  0
LINE
  5
6D7
100
AcDbEntity
  8
CURVE
100
AcDbLine
 62
253
  6
CONTINUOUS
 10
147.165491174
 20
85.1143838072
 11
147.165491174
 21
85.9458708072
  0
LINE
  5
6D8
100
AcDbEntity
  8
CURVE
100
AcDbLine
 62
253
  6
CONTINUOUS
 10
147.1658435381
 20
90.5091068072
 11
147.1658435381
 21
90.7739308072
  0
LINE
  5
6D9
100
AcDbEntity
  8
CURVE
100
AcDbLine
 62
253
  6
CONTINUOUS
 10
147.1742544286
 20
90.7739308072
 11
147.1742544286
 21
90.4107148072
  0
LINE
  5
6DA
100
AcDbEntity
  8
CURVE
100
AcDbLine
 62
253
  6
CONTINUOUS
 10
147.1745854293
 20
100.030221483
 11
147.1745854293
 21
100.3761280791
  0
LINE
  5
6DB
100
AcDbEntity
  8
CURVE
100
AcDbLine
 62
253
  6
CONTINUOUS
 10
147.1969653499
 20
88.9261938072
 11
147.1969653499
 21
88.3035878072
  0
LINE
  5
6DC
100
AcDbEntity
  8
CURVE
100
AcDbLine
 62
253
  6
CONTINUOUS
 10
147.1969653499
 20
83.8050018072
 11
147.1969653499
 21
82.8811878072
  0
LINE
  5
6DD
100
AcDbEntity
  8
CURVE
100
AcDbLine
 62
253
  6
CONTINUOUS
 10
147.1969653499
 20
81.7685728072
 11
147.1969653499
 21
81.1861288072
  0
LINE
  5
6DE
100
AcDbEntity
  8
CURVE
100
AcDbLine
 62
253
  6
CONTINUOUS
 10
147.1969653499
 20
79.1053918072
 11
147.1969653499
 21
79.8444428072
  0
LINE
  5
6DF
100
AcDbEntity
  8
CURVE
100
AcDbLine
 62
253
  6
CONTINUOUS
 10
147.1969653499
 20
85.1304268072
 11
147.1969653499
 21
85.8694778072
  0
LINE
  5
6E0
100
AcDbEntity
  8
CURVE
100
AcDbLine
 62
253
  6
CONTINUOUS
 10
147.1970989655
 20
110.0975868072
 11
147.1970989655
 21
109.4400748072
  0
LINE
  5
6E1
100
AcDbEntity
  8
CURVE
100
AcDbLine
 62
253
  6
CONTINUOUS
 10
147.1970989655
 20
108.3177368072
 11
147.1970989655
 21
107.7128788072
  0
LINE
  5
6E2
100
AcDbEntity
  8
CURVE
100
AcDbLine
 62
253
  6
CONTINUOUS
 10
147.1970989655
 20
106.2953318072
 11
147.1970989655
 21
105.6905608072
  0
LINE
  5
6E3
100
AcDbEntity
  8
CURVE
100
AcDbLine
 62
253
  6
CONTINUOUS
 10
147.1970989655
 20
104.4864108072
 11
147.1970989655
 21
103.8875538072
  0
LINE
  5
6E4
100
AcDbEntity
  8
CURVE
100
AcDbLine
 62
253
  6
CONTINUOUS
 10
147.1970989655
 20
102.6118438072
 11
147.1970989655
 21
102.0263168072
  0
LINE
  5
6E5
100
AcDbEntity
  8
CURVE
100
AcDbLine
 62
253
  6
CONTINUOUS
 10
147.1971020022
 20
106.8829908072
 11
147.1971020022
 21
107.4882618072
  0
LINE
  5
6E6
100
AcDbEntity
  8
ASSI
100
AcDbLine
 62
7
  6
CONTINUOUS
 10
147.2423562108
 20
76.4256277585
 11
147.2423562108
 21
111.7690258559
  0
LINE
  5
6E7
100
AcDbEntity
  8
RACCORDO
100
AcDbLine
 62
7
  6
CONTINUOUS
 10
147.2423562108
 20
72.1961469628
 11
147.2423562108
 21
115.9985066517
  0
LWPOLYLINE
  5
6E8
100
AcDbEntity
  8
CURVE
100
AcDbPolyline
 62
253
  6
CONTINUOUS
 90
3
 70
0
 10
147.0214026538
 20
78.3332319495
 10
147.0214787714
 20
78.1444937576
 10
147.0214438006
 20
78.0973268072
  0
LWPOLYLINE
  5
6E9
100
AcDbEntity
  8
CURVE
100
AcDbPolyline
 62
253
  6
CONTINUOUS
 90
3
 70
0
 10
147.0345453683
 20
82.4824368072
 10
147.0345791927
 20
82.5716565956
 10
147.0341700673
 20
82.9276037554
  0
LINE
  5
6EA
100
AcDbEntity
  8
CURVE
100
AcDbLine
 62
253
  6
CONTINUOUS
 10
147.0345453683
 20
78.0973238072
 11
147.0343538437
 21
78.453868255
  0
LINE
  5
6EB
100
AcDbEntity
  8
CURVE
100
AcDbLine
 62
253
  6
CONTINUOUS
 10
146.958721727
 20
82.4824369182
 11
146.9587258251
 21
82.6865717192
  0
LINE
  5
6EC
100
AcDbEntity
  8
CURVE
100
AcDbLine
 62
253
  6
CONTINUOUS
 10
146.958721783
 20
78.0973240411
 11
146.958711498
 21
78.2861059524
  0
LINE
  5
6ED
100
AcDbEntity
  8
CURVE
100
AcDbLine
 62
253
  6
CONTINUOUS
 10
147.1976182118
 20
100.0102737151
 11
147.1965077189
 21
100.9588941516
  0
LINE
  5
6EE
100
AcDbEntity
  8
CURVE
100
AcDbLine
 62
253
  6
CONTINUOUS
 10
147.1889102029
 20
100.1767796388
 11
147.1889299814
 21
100.0064033096
  0
LINE
  5
6EF
100
AcDbEntity
  8
CURVE
100
AcDbLine
 62
253
  6
CONTINUOUS
 10
146.9458116913
 20
82.838981213
 11
146.9456201593
 21
82.4824369248
  0
LINE
  5
6F0
100
AcDbEntity
  8
CURVE
100
AcDbLine
 62
253
  6
CONTINUOUS
 10
146.9458116895
 20
78.4538713545
 11
146.9456201573
 21
78.0973269202
  0
LINE
  5
6F1
100
AcDbEntity
  8
CURVE
100
AcDbLine
 62
253
  6
CONTINUOUS
 10
147.1885544593
 20
90.7739308072
 11
147.1884348912
 21
90.3543125778
  0
LINE
  5
6F2
100
AcDbEntity
  8
CURVE
100
AcDbLine
 62
253
  6
CONTINUOUS
 10
146.958711498
 20
78.2861059524
 11
146.9590462831
 21
78.473907776
  0
LINE
  5
6F3
100
AcDbEntity
  8
CURVE
100
AcDbLine
 62
253
  6
CONTINUOUS
 10
146.9587258251
 20
82.6865717192
 11
146.9591332105
 21
82.8893644973
  0
LINE
  5
6F4
100
AcDbEntity
  8
CURVE
100
AcDbLine
 62
253
  6
CONTINUOUS
 10
147.1889299814
 20
100.0064033096
 11
147.1886393752
 21
99.856099444
  0
LINE
  5
6F5
100
AcDbEntity
  8
CURVE
100
AcDbLine
 62
253
  6
CONTINUOUS
 10
147.1662974012
 20
100.3560581905
 11
147.1661416518
 21
99.9524916384
  0
LINE
  5
6F6
100
AcDbEntity
  8
CURVE
100
AcDbLine
 62
253
  6
CONTINUOUS
 10
146.9468695436
 20
83.1905053009
 11
146.9458116913
 21
82.838981213
  0
LINE
  5
6F7
100
AcDbEntity
  8
CURVE
100
AcDbLine
 62
253
  6
CONTINUOUS
 10
146.9468695427
 20
78.8053955822
 11
146.9458116895
 21
78.4538713545
  0
LINE
  5
6F8
100
AcDbEntity
  8
CURVE
100
AcDbLine
 62
253
  6
CONTINUOUS
 10
147.1962213209
 20
90.0010443857
 11
147.1969653499
 21
91.3965368072
  0
LINE
  5
6F9
100
AcDbEntity
  8
CURVE
100
AcDbLine
 62
253
  6
CONTINUOUS
 10
146.9590462831
 20
78.473907776
 11
146.9597224502
 21
78.6586695991
  0
LINE
  5
6FA
100
AcDbEntity
  8
CURVE
100
AcDbLine
 62
253
  6
CONTINUOUS
 10
146.9591332105
 20
82.8893644973
 11
146.9599386505
 21
83.0882110923
  0
LINE
  5
6FB
100
AcDbEntity
  8
CURVE
100
AcDbLine
 62
253
  6
CONTINUOUS
 10
147.1963782694
 20
99.5355955241
 11
147.1976182118
 21
100.0102737151
  0
LINE
  5
6FC
100
AcDbEntity
  8
CURVE
100
AcDbLine
 62
253
  6
CONTINUOUS
 10
147.1884348912
 20
90.3543125778
 11
147.1879258252
 21
90.186477834
  0
LINE
  5
6FD
100
AcDbEntity
  8
CURVE
100
AcDbLine
 62
253
  6
CONTINUOUS
 10
146.9597224502
 20
78.6586695991
 11
146.9607325714
 21
78.8383565082
  0
LINE
  5
6FE
100
AcDbEntity
  8
CURVE
100
AcDbLine
 62
253
  6
CONTINUOUS
 10
146.9487730157
 20
83.5301303743
 11
146.9468695436
 21
83.1905053009
  0
LINE
  5
6FF
100
AcDbEntity
  8
CURVE
100
AcDbLine
 62
253
  6
CONTINUOUS
 10
146.9487730164
 20
79.145020781
 11
146.9468695427
 21
78.8053955822
  0
LINE
  5
700
100
AcDbEntity
  8
CURVE
100
AcDbLine
 62
253
  6
CONTINUOUS
 10
146.9599386505
 20
83.0882110923
 11
146.961131777
 21
83.2805529255
  0
LINE
  5
701
100
AcDbEntity
  8
CURVE
100
AcDbLine
 62
253
  6
CONTINUOUS
 10
147.1886393752
 20
99.856099444
 11
147.1881077595
 21
99.7680551654
  0
LINE
  5
702
100
AcDbEntity
  8
CURVE
100
AcDbLine
 62
253
  6
CONTINUOUS
 10
147.1661416518
 20
99.9524916384
 11
147.1656745657
 21
99.8773679718
  0
LINE
  5
703
100
AcDbEntity
  8
CURVE
100
AcDbLine
 62
253
  6
CONTINUOUS
 10
147.194419517
 20
89.7151824187
 11
147.1962213209
 21
90.0010443857
  0
LINE
  5
704
100
AcDbEntity
  8
CURVE
100
AcDbLine
 62
253
  6
CONTINUOUS
 10
146.9607325714
 20
78.8383565082
 11
146.9620655285
 21
79.0109924226
  0
LINE
  5
705
100
AcDbEntity
  8
CURVE
100
AcDbLine
 62
253
  6
CONTINUOUS
 10
146.9507337566
 20
83.7730299532
 11
146.9487730157
 21
83.5301303743
  0
LINE
  5
706
100
AcDbEntity
  8
CURVE
100
AcDbLine
 62
253
  6
CONTINUOUS
 10
146.9507337588
 20
79.3879204403
 11
146.9487730164
 21
79.145020781
  0
LINE
  5
707
100
AcDbEntity
  8
CURVE
100
AcDbLine
 62
253
  6
CONTINUOUS
 10
147.1953744955
 20
99.3900975245
 11
147.1963782694
 21
99.5355955241
  0
LINE
  5
708
100
AcDbEntity
  8
CURVE
100
AcDbLine
 62
253
  6
CONTINUOUS
 10
146.961131777
 20
83.2805529255
 11
146.9626972548
 21
83.4639159538
  0
LINE
  5
709
100
AcDbEntity
  8
CURVE
100
AcDbLine
 62
253
  6
CONTINUOUS
 10
147.1879258252
 20
90.186477834
 11
147.1876067513
 21
90.1420031611
  0
LINE
  5
70A
100
AcDbEntity
  8
RACCORDO
100
AcDbLine
 62
253
  6
CONTINUOUS
 10
146.7423562108
 20
70.686841659
 11
146.7379843768
 21
70.2529892399
  0
LINE
  5
70B
100
AcDbEntity
  8
CURVE
100
AcDbLine
 62
253
  6
CONTINUOUS
 10
146.9620655285
 20
79.0109924226
 11
146.9637066598
 21
79.1746784793
  0
LINE
  5
70C
100
AcDbEntity
  8
CURVE
100
AcDbLine
 62
253
  6
CONTINUOUS
 10
146.9531279288
 20
84.0028150859
 11
146.9507337566
 21
83.7730299532
  0
LINE
  5
70D
100
AcDbEntity
  8
CURVE
100
AcDbLine
 62
253
  6
CONTINUOUS
 10
146.9531279328
 20
79.6177056385
 11
146.9507337588
 21
79.3879204403
  0
LINE
  5
70E
100
AcDbEntity
  8
CURVE
100
AcDbLine
 62
253
  6
CONTINUOUS
 10
147.1694511667
 20
99.3318046806
 11
147.1701154346
 21
99.4027710973
  0
LINE
  5
70F
100
AcDbEntity
  8
CURVE
100
AcDbLine
 62
253
  6
CONTINUOUS
 10
146.9626972548
 20
83.4639159538
 11
146.9646149405
 21
83.6359421886
  0
LINE
  5
710
100
AcDbEntity
  8
CURVE
100
AcDbLine
 62
253
  6
CONTINUOUS
 10
147.1932422101
 20
89.6043100115
 11
147.194419517
 21
89.7151824187
  0
LINE
  5
711
100
AcDbEntity
  8
CURVE
100
AcDbLine
 62
253
  6
CONTINUOUS
 10
147.1656745657
 20
99.8773679718
 11
147.1651407585
 21
99.827965722
  0
LINE
  5
712
100
AcDbEntity
  8
CURVE
100
AcDbLine
 62
253
  6
CONTINUOUS
 10
147.1881077595
 20
99.7680551654
 11
147.1874012912
 21
99.7017482012
  0
LINE
  5
713
100
AcDbEntity
  8
CURVE
100
AcDbLine
 62
253
  6
CONTINUOUS
 10
147.1059781214
 20
78.7758980076
 11
147.1083466611
 21
78.9568506043
  0
LINE
  5
714
100
AcDbEntity
  8
CURVE
100
AcDbLine
 62
253
  6
CONTINUOUS
 10
147.1940734818
 20
99.2807942382
 11
147.1953744955
 21
99.3900975245
  0
LINE
  5
715
100
AcDbEntity
  8
CURVE
100
AcDbLine
 62
253
  6
CONTINUOUS
 10
146.9637066598
 20
79.1746784793
 11
146.9656379198
 21
79.3276139759
  0
LINE
  5
716
100
AcDbEntity
  8
CURVE
100
AcDbLine
 62
253
  6
CONTINUOUS
 10
146.9559291696
 20
84.2169543252
 11
146.9531279288
 21
84.0028150859
  0
LINE
  5
717
100
AcDbEntity
  8
CURVE
100
AcDbLine
 62
253
  6
CONTINUOUS
 10
146.9559291757
 20
79.8318449258
 11
146.9531279328
 21
79.6177056385
  0
LINE
  5
718
100
AcDbEntity
  8
CURVE
100
AcDbLine
 62
253
  6
CONTINUOUS
 10
147.1876067513
 20
90.1420031611
 11
147.1871831173
 21
90.1081082234
  0
LINE
  5
719
100
AcDbEntity
  8
CURVE
100
AcDbLine
 62
253
  6
CONTINUOUS
 10
146.9646149405
 20
83.6359421886
 11
146.966860179
 21
83.794418827
  0
LINE
  5
71A
100
AcDbEntity
  8
CURVE
100
AcDbLine
 62
253
  6
CONTINUOUS
 10
147.1687089945
 20
99.2792627793
 11
147.1694511667
 21
99.3318046806
  0
LINE
  5
71B
100
AcDbEntity
  8
CURVE
100
AcDbLine
 62
253
  6
CONTINUOUS
 10
147.1651407585
 20
99.827965722
 11
147.1645877271
 21
99.7913656671
  0
LINE
  5
71C
100
AcDbEntity
  8
CURVE
100
AcDbLine
 62
253
  6
CONTINUOUS
 10
146.9656379198
 20
79.3276139759
 11
146.9678380596
 21
79.4681169343
  0
LINE
  5
71D
100
AcDbEntity
  8
CURVE
100
AcDbLine
 62
253
  6
CONTINUOUS
 10
147.1920994352
 20
89.5290725362
 11
147.1932422101
 21
89.6043100115
  0
LINE
  5
71E
100
AcDbEntity
  8
CURVE
100
AcDbLine
 62
253
  6
CONTINUOUS
 10
146.9159962105
 20
88.2044697086
 11
146.9127550495
 21
88.0187555115
  0
LINE
  5
71F
100
AcDbEntity
  8
CURVE
100
AcDbLine
 62
253
  6
CONTINUOUS
 10
147.1874012912
 20
99.7017482012
 11
147.1867588974
 21
99.6602386311
  0
LINE
  5
720
100
AcDbEntity
  8
CURVE
100
AcDbLine
 62
253
  6
CONTINUOUS
 10
146.9591066141
 20
84.4130892696
 11
146.9559291696
 21
84.2169543252
  0
LINE
  5
721
100
AcDbEntity
  8
CURVE
100
AcDbLine
 62
253
  6
CONTINUOUS
 10
146.9591066224
 20
80.0279798984
 11
146.9559291757
 21
79.8318449258
  0
LINE
  5
722
100
AcDbEntity
  8
CURVE
100
AcDbLine
 62
253
  6
CONTINUOUS
 10
147.1012410389
 20
80.9473266761
 11
147.1059781214
 21
81.2187551181
  0
LINE
  5
723
100
AcDbEntity
  8
CURVE
100
AcDbLine
 62
253
  6
CONTINUOUS
 10
147.0870297936
 20
78.7758980076
 11
147.0917668755
 21
79.0473264496
  0
LINE
  5
724
100
AcDbEntity
  8
CURVE
100
AcDbLine
 62
253
  6
CONTINUOUS
 10
147.1012410389
 20
79.5901837866
 11
147.1059781214
 21
79.8616122286
  0
LINE
  5
725
100
AcDbEntity
  8
CURVE
100
AcDbLine
 62
253
  6
CONTINUOUS
 10
147.1059781214
 20
78.3687553446
 11
147.1012410389
 21
78.0973264496
  0
LINE
  5
726
100
AcDbEntity
  8
CURVE
100
AcDbLine
 62
253
  6
CONTINUOUS
 10
146.966860179
 20
83.794418827
 11
146.9685248772
 21
83.8915280219
  0
LINE
  5
727
100
AcDbEntity
  8
CURVE
100
AcDbLine
 62
253
  6
CONTINUOUS
 10
147.1928575927
 20
99.2062037643
 11
147.1940734818
 21
99.2807942382
  0
LINE
  5
728
100
AcDbEntity
  8
CURVE
100
AcDbLine
 62
253
  6
CONTINUOUS
 10
147.1871831173
 20
90.1081082234
 11
147.1866343868
 21
90.0761982439
  0
LINE
  5
729
100
AcDbEntity
  8
CURVE
100
AcDbLine
 62
253
  6
CONTINUOUS
 10
146.9678380596
 20
79.4681169343
 11
146.9696501638
 21
79.5643999155
  0
LINE
  5
72A
100
AcDbEntity
  8
CURVE
100
AcDbLine
 62
253
  6
CONTINUOUS
 10
147.1679881171
 20
99.240899909
 11
147.1687089945
 21
99.2792627793
  0
LINE
  5
72B
100
AcDbEntity
  8
CURVE
100
AcDbLine
 62
253
  6
CONTINUOUS
 10
146.9685248772
 20
83.8915280219
 11
146.9703128763
 21
83.9811498315
  0
LINE
  5
72C
100
AcDbEntity
  8
CURVE
100
AcDbLine
 62
253
  6
CONTINUOUS
 10
147.1154522843
 20
79.6354217093
 11
147.1201893658
 21
79.8616122286
  0
LINE
  5
72D
100
AcDbEntity
  8
CURVE
100
AcDbLine
 62
253
  6
CONTINUOUS
 10
147.1645877271
 20
99.7913656671
 11
147.1640645309
 21
99.7645022232
  0
LINE
  5
72E
100
AcDbEntity
  8
CURVE
100
AcDbLine
 62
253
  6
CONTINUOUS
 10
146.9626252701
 20
84.5890590265
 11
146.9591066141
 21
84.4130892696
  0
LINE
  5
72F
100
AcDbEntity
  8
CURVE
100
AcDbLine
 62
253
  6
CONTINUOUS
 10
146.9626252809
 20
80.203949662
 11
146.9591066224
 21
80.0279798984
  0
LINE
  5
730
100
AcDbEntity
  8
CURVE
100
AcDbLine
 62
253
  6
CONTINUOUS
 10
147.1911257217
 20
89.4801548518
 11
147.1920994352
 21
89.5290725362
  0
LINE
  5
731
100
AcDbEntity
  8
CURVE
100
AcDbLine
 62
253
  6
CONTINUOUS
 10
147.1917382913
 20
99.1522801644
 11
147.1928575927
 21
99.2062037643
  0
LINE
  5
732
100
AcDbEntity
  8
CURVE
100
AcDbLine
 62
253
  6
CONTINUOUS
 10
147.1867588974
 20
99.6602386311
 11
147.1861728613
 21
99.6315829486
  0
LINE
  5
733
100
AcDbEntity
  8
CURVE
100
AcDbLine
 62
253
  6
CONTINUOUS
 10
146.9696501638
 20
79.5643999155
 11
146.9715887398
 21
79.6522210968
  0
LINE
  5
734
100
AcDbEntity
  8
CURVE
100
AcDbLine
 62
253
  6
CONTINUOUS
 10
147.1866343868
 20
90.0761982439
 11
147.1859951812
 21
90.0469685764
  0
LWPOLYLINE
  5
735
100
AcDbEntity
  8
RACCORDO
100
AcDbPolyline
 62
7
  6
CONTINUOUS
 90
34
 70
0
 10
146.7423562108
 20
69.8473225764
 10
146.7420730606
 20
69.8354272912
 10
146.7412242451
 20
69.8235589517
 10
146.739811685
 20
69.8117444411
 10
146.7378385786
 20
69.8000105197
 10
146.7353093926
 20
69.7883837684
 10
146.7322298525
 20
69.7768905282
 10
146.7286069322
 20
69.7655568334
 10
146.7244488366
 20
69.7544083579
 10
146.719764983
 20
69.7434703609
 10
146.7145659797
 20
69.7327676196
 10
146.7088636025
 20
69.722324379
 10
146.702670769
 20
69.7121643013
 10
146.6960015063
 20
69.7023104021
 10
146.6888709216
 20
69.6927850034
 10
146.6812951697
 20
69.6836096882
 10
146.6732914113
 20
69.6748052411
 10
146.6648777769
 20
69.6663916067
 10
146.6560733299
 20
69.6583878484
 10
146.6468980147
 20
69.6508120965
 10
146.637372616
 20
69.6436815118
 10
146.6275187168
 20
69.6370122491
 10
146.6173586391
 20
69.6308194156
 10
146.6069153984
 20
69.6251170384
 10
146.5962126571
 20
69.619918035
 10
146.5852746601
 20
69.6152341814
 10
146.5741261846
 20
69.6110760859
 10
146.5627924898
 20
69.6074531655
 10
146.5512992496
 20
69.6043736255
 10
146.5396724983
 20
69.6018444395
 10
146.527938577
 20
69.5998713331
 10
146.5161240664
 20
69.598458773
 10
146.5042557269
 20
69.5976099575
 10
146.4923604416
 20
69.5973268072
  0
LINE
  5
736
100
AcDbEntity
  8
CURVE
100
AcDbLine
 62
253
  6
CONTINUOUS
 10
146.9703128763
 20
83.9811498315
 11
146.9722139498
 21
84.0627716612
  0
LINE
  5
737
100
AcDbEntity
  8
CURVE
100
AcDbLine
 62
253
  6
CONTINUOUS
 10
146.9651416014
 20
84.6942025125
 11
146.9626252701
 21
84.5890590265
  0
LINE
  5
738
100
AcDbEntity
  8
CURVE
100
AcDbLine
 62
253
  6
CONTINUOUS
 10
146.9651416139
 20
80.3090931396
 11
146.9626252809
 21
80.203949662
  0
LINE
  5
739
100
AcDbEntity
  8
CURVE
100
AcDbLine
 62
253
  6
CONTINUOUS
 10
147.1671622618
 20
99.2063325951
 11
147.1679881171
 21
99.240899909
  0
LINE
  5
73A
100
AcDbEntity
  8
CURVE
100
AcDbLine
 62
253
  6
CONTINUOUS
 10
146.9159962105
 20
78.7639938872
 11
146.9062727275
 21
78.3925654928
  0
LWPOLYLINE
  5
73B
100
AcDbEntity
  8
RACCORDO
100
AcDbPolyline
 62
253
  6
CONTINUOUS
 90
31
 70
0
 10
146.7379843768
 20
69.8516944104
 10
146.7376413383
 20
69.8386109245
 10
146.7366140484
 20
69.8255632979
 10
146.7349053228
 20
69.8125872917
 10
146.7325198449
 20
69.7997184709
 10
146.7294641527
 20
69.7869921063
 10
146.7257466213
 20
69.7744430786
 10
146.7213774398
 20
69.7621057824
 10
146.7163685833
 20
69.7500140317
 10
146.7107337801
 20
69.7382009679
 10
146.7044884742
 20
69.7266989684
 10
146.6976497828
 20
69.7155395578
 10
146.6902364494
 20
69.7047533222
 10
146.6822687927
 20
69.6943698246
 10
146.6737686504
 20
69.6844175241
 10
146.6647593198
 20
69.6749236982
 10
146.6552654939
 20
69.6659143677
 10
146.6453131935
 20
69.6574142254
 10
146.6349296958
 20
69.6494465686
 10
146.6241434602
 20
69.6420332353
 10
146.6129840497
 20
69.6351945438
 10
146.6014820501
 20
69.628949238
 10
146.5896689863
 20
69.6233144348
 10
146.5775772357
 20
69.6183055783
 10
146.5652399394
 20
69.6139363968
 10
146.5526909118
 20
69.6102188654
 10
146.5399645472
 20
69.6071631732
 10
146.5270957264
 20
69.6047776952
 10
146.5141197202
 20
69.6030689697
 10
146.5010720936
 20
69.6020416798
 10
146.4879886076
 20
69.6016986412
  0
LINE
  5
73C
100
AcDbEntity
  8
CURVE
100
AcDbLine
 62
253
  6
CONTINUOUS
 10
147.1201893658
 20
78.3687553446
 11
147.1154522843
 21
78.1878027479
  0
LINE
  5
73D
100
AcDbEntity
  8
CURVE
100
AcDbLine
 62
253
  6
CONTINUOUS
 10
147.1640645309
 20
99.7645022232
 11
147.1634713497
 21
99.7401438531
  0
LINE
  5
73E
100
AcDbEntity
  8
CURVE
100
AcDbLine
 62
253
  6
CONTINUOUS
 10
147.1861728613
 20
99.6315829486
 11
147.1856948804
 21
99.6129292625
  0
LINE
  5
73F
100
AcDbEntity
  8
CURVE
100
AcDbLine
 62
253
  6
CONTINUOUS
 10
147.1899776261
 20
89.4348360655
 11
147.1911257217
 21
89.4801548518
  0
LINE
  5
740
100
AcDbEntity
  8
CURVE
100
AcDbLine
 62
253
  6
CONTINUOUS
 10
146.9715887398
 20
79.6522210968
 11
146.9736417895
 21
79.7310369034
  0
LINE
  5
741
100
AcDbEntity
  8
CURVE
100
AcDbLine
 62
253
  6
CONTINUOUS
 10
147.1859951812
 20
90.0469685764
 11
147.1856479777
 21
90.0339521032
  0
LINE
  5
742
100
AcDbEntity
  8
CURVE
100
AcDbLine
 62
253
  6
CONTINUOUS
 10
147.1905401038
 20
99.1062340123
 11
147.1917382913
 21
99.1522801644
  0
LINE
  5
743
100
AcDbEntity
  8
CURVE
100
AcDbLine
 62
253
  6
CONTINUOUS
 10
146.9722139498
 20
84.0627716612
 11
146.9742172245
 21
84.1359266725
  0
LINE
  5
744
100
AcDbEntity
  8
CURVE
100
AcDbLine
 62
253
  6
CONTINUOUS
 10
146.9677800977
 20
84.7890022877
 11
146.9651416014
 21
84.6942025125
  0
LINE
  5
745
100
AcDbEntity
  8
CURVE
100
AcDbLine
 62
253
  6
CONTINUOUS
 10
146.967780112
 20
80.4038928958
 11
146.9651416139
 21
80.3090931396
  0
LINE
  5
746
100
AcDbEntity
  8
CURVE
100
AcDbLine
 62
253
  6
CONTINUOUS
 10
147.1665052569
 20
99.1836069047
 11
147.1671622618
 21
99.2063325951
  0
LINE
  5
747
100
AcDbEntity
  8
CURVE
100
AcDbLine
 62
253
  6
CONTINUOUS
 10
147.1634713497
 20
99.7401438531
 11
147.1629996441
 21
99.7241319159
  0
LINE
  5
748
100
AcDbEntity
  8
CURVE
100
AcDbLine
 62
253
  6
CONTINUOUS
 10
147.1856948804
 20
99.6129292625
 11
147.1853601442
 21
99.6019493682
  0
LINE
  5
749
100
AcDbEntity
  8
CURVE
100
AcDbLine
 62
253
  6
CONTINUOUS
 10
147.1856479777
 20
90.0339521032
 11
147.1852995845
 21
90.0228372249
  0
LINE
  5
74A
100
AcDbEntity
  8
CURVE
100
AcDbLine
 62
253
  6
CONTINUOUS
 10
147.1891635607
 20
89.4088635182
 11
147.1899776261
 21
89.4348360655
  0
LINE
  5
74B
100
AcDbEntity
  8
CURVE
100
AcDbLine
 62
253
  6
CONTINUOUS
 10
147.1897722177
 20
99.0819706588
 11
147.1905401038
 21
99.1062340123
  0
LINE
  5
74C
100
AcDbEntity
  8
CURVE
100
AcDbLine
 62
253
  6
CONTINUOUS
 10
146.9736417895
 20
79.7310369034
 11
146.9757966009
 21
79.8003594377
  0
LINE
  5
74D
100
AcDbEntity
  8
CURVE
100
AcDbLine
 62
253
  6
CONTINUOUS
 10
146.9705278356
 20
84.8729940101
 11
146.9677800977
 21
84.7890022877
  0
LINE
  5
74E
100
AcDbEntity
  8
CURVE
100
AcDbLine
 62
253
  6
CONTINUOUS
 10
146.9742172245
 20
84.1359266725
 11
146.9763112427
 21
84.2001964533
  0
LINE
  5
74F
100
AcDbEntity
  8
CURVE
100
AcDbLine
 62
253
  6
CONTINUOUS
 10
146.9705278515
 20
80.4878845883
 11
146.967780112
 21
80.4038928958
  0
LINE
  5
750
100
AcDbEntity
  8
CURVE
100
AcDbLine
 62
253
  6
CONTINUOUS
 10
147.1658250804
 20
99.1632343673
 11
147.1665052569
 21
99.1836069047
  0
LINE
  5
751
100
AcDbEntity
  8
CURVE
100
AcDbLine
 62
253
  6
CONTINUOUS
 10
146.9159962105
 20
90.8973268072
 11
146.9030315658
 21
90.5258982192
  0
LINE
  5
752
100
AcDbEntity
  8
CURVE
100
AcDbLine
 62
253
  6
CONTINUOUS
 10
146.9159962105
 20
84.7068506758
 11
146.8933080821
 21
84.0568506758
  0
LINE
  5
753
100
AcDbEntity
  8
CURVE
100
AcDbLine
 62
253
  6
CONTINUOUS
 10
147.1969653499
 20
82.8811878072
 11
147.1568577303
 21
81.7685728072
  0
LINE
  5
754
100
AcDbEntity
  8
CURVE
100
AcDbLine
 62
253
  6
CONTINUOUS
 10
147.1629996441
 20
99.7241319159
 11
147.1625102424
 21
99.7099708992
  0
LINE
  5
755
100
AcDbEntity
  8
CURVE
100
AcDbLine
 62
253
  6
CONTINUOUS
 10
147.1463533537
 20
82.0697808072
 11
147.1887121592
 21
83.2225568072
  0
LINE
  5
756
100
AcDbEntity
  8
CURVE
100
AcDbLine
 62
253
  6
CONTINUOUS
 10
147.1853601442
 20
99.6019493682
 11
147.1850139295
 21
99.592199171
  0
LINE
  5
757
100
AcDbEntity
  8
CURVE
100
AcDbLine
 62
253
  6
CONTINUOUS
 10
146.9757966009
 20
79.8003594377
 11
146.9772831236
 21
79.8410861511
  0
LINE
  5
758
100
AcDbEntity
  8
CURVE
100
AcDbLine
 62
253
  6
CONTINUOUS
 10
147.1889786915
 20
99.0606208102
 11
147.1897722177
 21
99.0819706588
  0
LINE
  5
759
100
AcDbEntity
  8
CURVE
100
AcDbLine
 62
253
  6
CONTINUOUS
 10
147.1852995845
 20
90.0228372249
 11
147.184938492
 21
90.013110148
  0
LWPOLYLINE
  5
75A
100
AcDbEntity
  8
CURVE
100
AcDbPolyline
 62
253
  6
CONTINUOUS
 90
3
 70
0
 10
147.1625102424
 20
99.7099708992
 10
147.1621764954
 20
99.7015213933
 10
147.1620079075
 20
99.6975856405
  0
LINE
  5
75B
100
AcDbEntity
  8
CURVE
100
AcDbLine
 62
253
  6
CONTINUOUS
 10
147.1648826614
 20
99.1388980495
 11
147.1658250804
 21
99.1632343673
  0
LWPOLYLINE
  5
75C
100
AcDbEntity
  8
CURVE
100
AcDbPolyline
 62
253
  6
CONTINUOUS
 90
22
 70
0
 10
146.9763112427
 20
84.2001964533
 10
146.9784840274
 20
84.2552134107
 10
146.9795960885
 20
84.2791517722
 10
146.9807231515
 20
84.3006628735
 10
146.9818636008
 20
84.3197165282
 10
146.9830158082
 20
84.3362848923
 10
146.9841781228
 20
84.3503448623
 10
146.9853488845
 20
84.3618757259
 10
146.9865264166
 20
84.3708615948
 10
146.9877090363
 20
84.3772890067
 10
146.988895051
 20
84.3811493795
 10
146.9900827648
 20
84.3824365781
 10
146.9912704786
 20
84.3811493753
 10
146.9924564933
 20
84.3772889983
 10
146.993639113
 20
84.3708615822
 10
146.9948166451
 20
84.3618757091
 10
146.9959874068
 20
84.3503448414
 10
146.9971497214
 20
84.3362848673
 10
146.9983019288
 20
84.3197164992
 10
146.999442378
 20
84.3006628404
 10
147.000569441
 20
84.2791517351
 10
147.0016815021
 20
84.2552133697
  0
LINE
  5
75D
100
AcDbEntity
  8
CURVE
100
AcDbLine
 62
253
  6
CONTINUOUS
 10
146.9772831236
 20
79.8410861511
 11
146.9788048551
 21
79.877289598
  0
LWPOLYLINE
  5
75E
100
AcDbEntity
  8
CURVE
100
AcDbPolyline
 62
253
  6
CONTINUOUS
 90
14
 70
0
 10
147.1850139295
 20
99.592199171
 10
147.1846615104
 20
99.583821195
 10
147.1844840171
 20
99.5801521661
 10
147.1843046105
 20
99.5767942555
 10
147.1841234918
 20
99.5737461912
 10
147.1839408621
 20
99.5710067014
 10
147.1837569225
 20
99.5685745142
 10
147.1835718743
 20
99.5664483576
 10
147.1833859186
 20
99.5646269596
 10
147.1831992566
 20
99.5631090485
 10
147.1830120894
 20
99.5618933522
 10
147.1828246183
 20
99.5609785988
 10
147.1826370443
 20
99.5603635165
 10
147.1824495687
 20
99.5600468333
  0
LWPOLYLINE
  5
75F
100
AcDbEntity
  8
CURVE
100
AcDbPolyline
 62
253
  6
CONTINUOUS
 90
16
 70
0
 10
147.184938492
 20
90.013110148
 10
147.184567046
 20
90.0047601312
 10
147.1843804905
 20
90.001139357
 10
147.1841921776
 20
89.9978401329
 10
147.1840023028
 20
89.9948507717
 10
147.1838110617
 20
89.9921595857
 10
147.1836186499
 20
89.9897548878
 10
147.183425263
 20
89.9876249905
 10
147.1831750202
 20
89.9852670499
 10
147.1829236905
 20
89.9833168443
 10
147.1826714802
 20
89.9817456036
 10
147.1824185956
 20
89.9805245578
 10
147.182165243
 20
89.9796249367
 10
147.1819116287
 20
89.9790179704
 10
147.181657959
 20
89.9786748886
 10
147.1814044402
 20
89.9785669214
  0
LWPOLYLINE
  5
760
100
AcDbEntity
  8
CURVE
100
AcDbPolyline
 62
253
  6
CONTINUOUS
 90
3
 70
0
 10
147.1639189161
 20
99.1176094106
 10
147.1642421635
 20
99.1244039356
 10
147.1648826614
 20
99.1388980495
  0
LINE
  5
761
100
AcDbEntity
  8
CURVE
100
AcDbLine
 62
253
  6
CONTINUOUS
 10
147.1463533537
 20
84.1222528072
 11
147.1969653499
 21
85.1304268072
  0
LINE
  5
762
100
AcDbEntity
  8
CURVE
100
AcDbLine
 62
253
  6
CONTINUOUS
 10
147.1463533537
 20
78.0973268072
 11
147.1969653499
 21
79.1053918072
  0
LINE
  5
763
100
AcDbEntity
  8
CURVE
100
AcDbLine
 62
253
  6
CONTINUOUS
 10
147.1570802834
 20
84.9577778072
 11
147.1463533537
 21
84.7488958072
  0
LWPOLYLINE
  5
764
100
AcDbEntity
  8
CURVE
100
AcDbPolyline
 62
253
  6
CONTINUOUS
 90
6
 70
0
 10
146.9788048551
 20
79.877289598
 10
146.9803575997
 20
79.90886962
 10
146.9811443184
 20
79.9228991055
 10
146.9819372316
 20
79.9357415409
 10
146.9827357119
 20
79.9473875259
 10
146.9835391082
 20
79.9578278072
  0
LINE
  5
765
100
AcDbEntity
  8
CURVE
100
AcDbLine
 62
253
  6
CONTINUOUS
 10
147.1570802834
 20
78.9327428072
 11
147.1463533537
 21
78.7237528072
  0
LINE
  5
766
100
AcDbEntity
  8
CURVE
100
AcDbLine
 62
253
  6
CONTINUOUS
 10
147.1872939243
 20
85.5158558072
 11
147.165491174
 21
85.1143838072
  0
LINE
  5
767
100
AcDbEntity
  8
CURVE
100
AcDbLine
 62
253
  6
CONTINUOUS
 10
147.1872910621
 20
79.4908778072
 11
147.165491174
 21
79.0894578072
  0
LINE
  5
768
100
AcDbEntity
  8
CURVE
100
AcDbLine
 62
253
  6
CONTINUOUS
 10
146.9159962105
 20
89.4116124551
 11
146.8933080821
 21
89.0401839058
  0
LINE
  5
769
100
AcDbEntity
  8
CURVE
100
AcDbLine
 62
253
  6
CONTINUOUS
 10
146.9159962105
 20
80.3425654928
 11
146.8933080821
 21
79.9711358587
  0
LINE
  5
76A
100
AcDbEntity
  8
RACCORDO
100
AcDbLine
 62
253
  6
CONTINUOUS
 10
125.6967238141
 20
69.6016986412
 11
125.6923519801
 21
69.5973268072
  0
LINE
  5
76B
100
AcDbEntity
  8
CURVE
100
AcDbLine
 62
7
  6
CONTINUOUS
 10
147.1463533537
 20
90.9096379982
 11
147.1969653487
 21
90.9602499931
  0
LINE
  5
76C
100
AcDbEntity
  8
CURVE
100
AcDbLine
 62
7
  6
CONTINUOUS
 10
147.1885544592
 20
90.7418283896
 11
147.1969653481
 21
90.7502392785
  0
LINE
  5
76D
100
AcDbEntity
  8
CURVE
100
AcDbLine
 62
7
  6
CONTINUOUS
 10
147.1658435381
 20
90.7191174685
 11
147.1742544286
 21
90.7275283591
  0
LINE
  5
76E
100
AcDbEntity
  8
CURVE
100
AcDbLine
 62
7
  6
CONTINUOUS
 10
147.1885544584
 20
90.5318176748
 11
147.1969653475
 21
90.5402285639
  0
LINE
  5
76F
100
AcDbEntity
  8
CURVE
100
AcDbLine
 62
7
  6
CONTINUOUS
 10
147.1658435329
 20
90.5091067493
 11
147.1742544286
 21
90.5175176451
  0
LINE
  5
770
100
AcDbEntity
  8
CURVE
100
AcDbLine
 62
7
  6
CONTINUOUS
 10
147.1883635422
 20
90.3216160446
 11
147.1968234263
 21
90.3300759287
  0
LINE
  5
771
100
AcDbEntity
  8
CURVE
100
AcDbLine
 62
7
  6
CONTINUOUS
 10
147.1660170399
 20
90.2992695423
 11
147.1744781822
 21
90.3077306846
  0
LINE
  5
772
100
AcDbEntity
  8
CURVE
100
AcDbLine
 62
7
  6
CONTINUOUS
 10
147.1872148973
 20
90.1104566857
 11
147.1965650212
 21
90.1198068096
  0
LINE
  5
773
100
AcDbEntity
  8
CURVE
100
AcDbLine
 62
7
  6
CONTINUOUS
 10
147.1663133315
 20
90.0895551199
 11
147.1757745799
 21
90.0990163683
  0
LINE
  5
774
100
AcDbEntity
  8
CURVE
100
AcDbLine
 62
7
  6
CONTINUOUS
 10
147.1672311272
 20
89.8804622016
 11
147.1957575853
 21
89.9089886597
  0
LINE
  5
775
100
AcDbEntity
  8
CURVE
100
AcDbLine
 62
7
  6
CONTINUOUS
 10
147.1687962004
 20
89.6720165608
 11
147.1942474239
 21
89.6974677842
  0
LINE
  5
776
100
AcDbEntity
  8
CURVE
100
AcDbLine
 62
7
  6
CONTINUOUS
 10
147.1720526999
 20
89.4652623462
 11
147.1912123101
 21
89.4844219564
  0
LINE
  5
777
100
AcDbEntity
  8
DRAFT
100
AcDbLine
 62
7
  6
CONTINUOUS
 10
132.5923562108
 20
74.3973268072
 11
132.681377042
 21
74.4863476384
  0
LINE
  5
778
100
AcDbEntity
  8
ASSI
100
AcDbLine
 62
7
  6
CONTINUOUS
 10
132.5923562108
 20
74.3973268072
 11
132.681377042
 21
74.4863476384
  0
LINE
  5
779
100
AcDbEntity
  8
CURVE
100
AcDbLine
 62
7
  6
CONTINUOUS
 10
147.1463533537
 20
88.8095308581
 11
147.1969653499
 21
88.8601428542
  0
LINE
  5
77A
100
AcDbEntity
  8
DRAFT
100
AcDbLine
 62
7
  6
CONTINUOUS
 10
132.681377042
 20
74.2863476384
 11
132.5923562108
 21
74.1973268072
  0
LINE
  5
77B
100
AcDbEntity
  8
ASSI
100
AcDbLine
 62
7
  6
CONTINUOUS
 10
132.681377042
 20
74.2863476384
 11
132.5923562108
 21
74.1973268072
  0
LINE
  5
77C
100
AcDbEntity
  8
CURVE
100
AcDbLine
 62
7
  6
CONTINUOUS
 10
147.1463533537
 20
88.599520144
 11
147.1969653499
 21
88.6501321402
  0
LWPOLYLINE
  5
77D
100
AcDbEntity
  8
CURVE
100
AcDbPolyline
 62
253
  6
CONTINUOUS
 90
15
 70
0
 10
147.1814044402
 20
89.3158000069
 10
147.1820058026
 20
89.3162069656
 10
147.1826070872
 20
89.3174617817
 10
147.1832076713
 20
89.3196153655
 10
147.1838069324
 20
89.3227186271
 10
147.1844042479
 20
89.3268224766
 10
147.1849309295
 20
89.3313364599
 10
147.1854550211
 20
89.3367383073
 10
147.1859759457
 20
89.343091684
 10
147.1864931263
 20
89.3504602549
 10
147.1870059858
 20
89.3589076853
 10
147.1874482042
 20
89.3671780628
 10
147.1878858925
 20
89.3763111597
 10
147.1883182291
 20
89.3863046511
 10
147.1891635607
 20
89.4088635182
  0
LINE
  5
77E
100
AcDbEntity
  8
RACCORDO
100
AcDbLine
 62
253
  6
CONTINUOUS
 10
125.6967238141
 20
118.5929549732
 11
125.6923519801
 21
118.5973268072
  0
LINE
  5
77F
100
AcDbEntity
  8
DRAFT
100
AcDbLine
 62
7
  6
CONTINUOUS
 10
132.5923562108
 20
113.7973268072
 11
132.681377042
 21
113.7083059761
  0
LINE
  5
780
100
AcDbEntity
  8
ASSI
100
AcDbLine
 62
7
  6
CONTINUOUS
 10
132.5923562108
 20
113.7973268072
 11
132.681377042
 21
113.7083059761
  0
LINE
  5
781
100
AcDbEntity
  8
DRAFT
100
AcDbLine
 62
7
  6
CONTINUOUS
 10
132.5923562108
 20
113.9973268072
 11
132.681377042
 21
113.9083059761
  0
LINE
  5
782
100
AcDbEntity
  8
ASSI
100
AcDbLine
 62
7
  6
CONTINUOUS
 10
132.5923562108
 20
113.9973268072
 11
132.681377042
 21
113.9083059761
  0
LINE
  5
783
100
AcDbEntity
  8
ASSI
100
AcDbLine
 62
7
  6
CONTINUOUS
 10
131.8314031197
 20
70.4751853416
 11
131.8579526571
 21
70.505535382
  0
LINE
  5
784
100
AcDbEntity
  8
ASSI
100
AcDbLine
 62
7
  6
CONTINUOUS
 10
131.8579526571
 20
70.505535382
 11
131.8883112183
 21
70.5397118258
  0
LINE
  5
785
100
AcDbEntity
  8
ASSI
100
AcDbLine
 62
7
  6
CONTINUOUS
 10
131.8883112183
 20
70.5397118258
 11
131.9224884952
 21
70.5777100869
  0
LINE
  5
786
100
AcDbEntity
  8
ASSI
100
AcDbLine
 62
7
  6
CONTINUOUS
 10
131.9224884952
 20
70.5777100869
 11
131.9807859681
 21
70.6417978637
  0
LINE
  5
787
100
AcDbEntity
  8
ASSI
100
AcDbLine
 62
7
  6
CONTINUOUS
 10
131.9807859681
 20
70.6417978637
 11
132.1643862232
 21
70.8409689925
  0
LINE
  5
788
100
AcDbEntity
  8
CURVE
100
AcDbLine
 62
7
  6
CONTINUOUS
 10
147.1463533537
 20
88.38950943
 11
147.1969653499
 21
88.4401214262
  0
LINE
  5
789
100
AcDbEntity
  8
CURVE
100
AcDbLine
 62
7
  6
CONTINUOUS
 10
147.1463533537
 20
88.179498716
 11
147.1547642443
 21
88.1879096066
  0
LINE
  5
78A
100
AcDbEntity
  8
CURVE
100
AcDbLine
 62
7
  6
CONTINUOUS
 10
147.1463533537
 20
87.969488002
 11
147.1547642443
 21
87.9778988926
  0
LINE
  5
78B
100
AcDbEntity
  8
CURVE
100
AcDbLine
 62
7
  6
CONTINUOUS
 10
147.1463533537
 20
87.759477288
 11
147.1547642443
 21
87.7678881786
  0
LINE
  5
78C
100
AcDbEntity
  8
RACCORDO
100
AcDbLine
 62
7
  6
CONTINUOUS
 10
133.5923562108
 20
74.1973268072
 11
133.5943758869
 21
74.1993464833
  0
LINE
  5
78D
100
AcDbEntity
  8
ASSI
100
AcDbLine
 62
7
  6
CONTINUOUS
 10
133.5923562108
 20
74.1973268072
 11
133.5943758869
 21
74.1993464833
  0
LINE
  5
78E
100
AcDbEntity
  8
CURVE
100
AcDbLine
 62
7
  6
CONTINUOUS
 10
147.1463533537
 20
87.549466574
 11
147.1547642443
 21
87.5578774646
  0
LINE
  5
78F
100
AcDbEntity
  8
CURVE
100
AcDbLine
 62
7
  6
CONTINUOUS
 10
147.1463533537
 20
87.33945586
 11
147.1547642443
 21
87.3478667506
  0
LINE
  5
790
100
AcDbEntity
  8
CURVE
100
AcDbLine
 62
7
  6
CONTINUOUS
 10
147.1463533537
 20
86.7094237179
 11
147.1559507118
 21
86.719021076
  0
LINE
  5
791
100
AcDbEntity
  8
CURVE
100
AcDbLine
 62
7
  6
CONTINUOUS
 10
147.1463533537
 20
86.4994130039
 11
147.1656227537
 21
86.5186824039
  0
LINE
  5
792
100
AcDbEntity
  8
CURVE
100
AcDbLine
 62
7
  6
CONTINUOUS
 10
147.1479541104
 20
86.2910030465
 11
147.1752947957
 21
86.3183437318
  0
LINE
  5
793
100
AcDbEntity
  8
CURVE
100
AcDbLine
 62
7
  6
CONTINUOUS
 10
147.1570802834
 20
86.0901185055
 11
147.1849668376
 21
86.1180050598
  0
LINE
  5
794
100
AcDbEntity
  8
CURVE
100
AcDbLine
 62
7
  6
CONTINUOUS
 10
147.1682587369
 20
85.8912862451
 11
147.1946388796
 21
85.9176663877
  0
LINE
  5
795
100
AcDbEntity
  8
CURVE
100
AcDbLine
 62
7
  6
CONTINUOUS
 10
147.1570802834
 20
85.8801077915
 11
147.165491174
 21
85.8885186821
  0
LINE
  5
796
100
AcDbEntity
  8
RACCORDO
100
AcDbLine
 62
253
  6
CONTINUOUS
 10
124.9423562108
 20
76.4256277585
 11
125.605953311
 21
76.7005018521
  0
LINE
  5
797
100
AcDbEntity
  8
ASSI
100
AcDbLine
 62
253
  6
CONTINUOUS
 10
124.9423562108
 20
76.4256277585
 11
125.605953311
 21
76.7005018521
  0
LINE
  5
798
100
AcDbEntity
  8
SMUSSO
100
AcDbLine
 62
7
  6
CONTINUOUS
 10
130.8423562108
 20
104.5473268072
 11
137.8423562108
 21
104.5473268072
  0
LINE
  5
799
100
AcDbEntity
  8
ASSI
100
AcDbLine
 62
7
  6
CONTINUOUS
 10
130.8423562108
 20
104.5473268072
 11
137.8423562108
 21
104.5473268072
  0
LINE
  5
79A
100
AcDbEntity
  8
RACCORDO
100
AcDbLine
 62
7
  6
CONTINUOUS
 10
145.4423562108
 20
104.9973268072
 11
146.6794303669
 21
104.9973268072
  0
LINE
  5
79B
100
AcDbEntity
  8
ASSI
100
AcDbLine
 62
7
  6
CONTINUOUS
 10
145.4423562108
 20
104.9973268072
 11
146.6794303669
 21
104.9973268072
  0
LINE
  5
79C
100
AcDbEntity
  8
SMUSSO
100
AcDbLine
 62
7
  6
CONTINUOUS
 10
130.2650059417
 20
105.1246770764
 11
138.41970648
 21
105.1246770764
  0
LINE
  5
79D
100
AcDbEntity
  8
ASSI
100
AcDbLine
 62
7
  6
CONTINUOUS
 10
130.2650059417
 20
105.1246770764
 11
138.41970648
 21
105.1246770764
  0
LINE
  5
79E
100
AcDbEntity
  8
SMUSSO
100
AcDbLine
 62
7
  6
CONTINUOUS
 10
138.41970648
 20
105.669976538
 11
130.2650059417
 21
105.669976538
  0
LINE
  5
79F
100
AcDbEntity
  8
ASSI
100
AcDbLine
 62
7
  6
CONTINUOUS
 10
138.41970648
 20
105.669976538
 11
130.2650059417
 21
105.669976538
  0
LINE
  5
7A0
100
AcDbEntity
  8
RACCORDO
100
AcDbLine
 62
253
  6
CONTINUOUS
 10
125.605953311
 20
111.4941517624
 11
124.9423562108
 21
111.7690258559
  0
LINE
  5
7A1
100
AcDbEntity
  8
ASSI
100
AcDbLine
 62
253
  6
CONTINUOUS
 10
125.605953311
 20
111.4941517624
 11
124.9423562108
 21
111.7690258559
  0
LINE
  5
7A2
100
AcDbEntity
  8
RACCORDO
100
AcDbLine
 62
7
  6
CONTINUOUS
 10
133.5923562108
 20
113.9973268072
 11
133.5943758869
 21
113.9953071311
  0
LINE
  5
7A3
100
AcDbEntity
  8
ASSI
100
AcDbLine
 62
7
  6
CONTINUOUS
 10
133.5923562108
 20
113.9973268072
 11
133.5943758869
 21
113.9953071311
  0
LINE
  5
7A4
100
AcDbEntity
  8
ASSI
100
AcDbLine
 62
7
  6
CONTINUOUS
 10
132.1643862232
 20
117.356585026
 11
132.0692599046
 21
117.459167099
  0
LINE
  5
7A5
100
AcDbEntity
  8
ASSI
100
AcDbLine
 62
7
  6
CONTINUOUS
 10
132.0692599046
 20
117.459167099
 11
131.9806065816
 21
117.5553468823
  0
LINE
  5
7A6
100
AcDbEntity
  8
ASSI
100
AcDbLine
 62
7
  6
CONTINUOUS
 10
131.9806065816
 20
117.5553468823
 11
131.9222582087
 21
117.6192683688
  0
LINE
  5
7A7
100
AcDbEntity
  8
ASSI
100
AcDbLine
 62
7
  6
CONTINUOUS
 10
131.9222582087
 20
117.6192683688
 11
131.8880417729
 21
117.6571655951
  0
LINE
  5
7A8
100
AcDbEntity
  8
ASSI
100
AcDbLine
 62
7
  6
CONTINUOUS
 10
131.8880417729
 20
117.6571655951
 11
131.8576582574
 21
117.6912285535
  0
LWPOLYLINE
  5
7A9
100
AcDbEntity
  8
ASSI
100
AcDbPolyline
 62
7
  6
CONTINUOUS
 90
18
 70
0
 10
131.8576582574
 20
117.6912285535
 10
131.8311081752
 20
117.721439425
 10
131.8192018228
 20
117.7351894783
 10
131.8081836094
 20
117.748059052
 10
131.7980420988
 20
117.7600489672
 10
131.7887328323
 20
117.7712334769
 10
131.7802530005
 20
117.7816090705
 10
131.772582643
 20
117.7911792586
 10
131.7656678924
 20
117.8000288263
 10
131.7594934927
 20
117.8081778909
 10
131.7540698546
 20
117.8156063351
 10
131.7493914547
 20
117.8223385924
 10
131.7454489674
 20
117.8283705887
 10
131.742234534
 20
117.8337063981
 10
131.7397398739
 20
117.8383826762
 10
131.7379510068
 20
117.8424116416
 10
131.7368511131
 20
117.8457810757
 10
131.7364234781
 20
117.8484909785
  0
LINE
  5
7AA
100
AcDbEntity
  8
CURVE
100
AcDbLine
 62
253
  6
CONTINUOUS
 10
147.1795377607
 20
105.8474888072
 11
147.1464930428
 21
105.9781058072
  0
LINE
  5
7AB
100
AcDbEntity
  8
CURVE
100
AcDbLine
 62
253
  6
CONTINUOUS
 10
147.1464930428
 20
106.5571538072
 11
147.1970989655
 21
106.2953318072
  0
LINE
  5
7AC
100
AcDbEntity
  8
ASSI
100
AcDbLine
 62
7
  6
CONTINUOUS
 10
131.6923562108
 20
70.2973268072
 11
131.7360068577
 21
70.3409774541
  0
LINE
  5
7AD
100
AcDbEntity
  8
CURVE
100
AcDbLine
 62
7
  6
CONTINUOUS
 10
147.1783929363
 20
85.6914097304
 11
147.1969653499
 21
85.709982144
  0
LINE
  5
7AE
100
AcDbEntity
  8
CURVE
100
AcDbLine
 62
7
  6
CONTINUOUS
 10
147.1570802834
 20
85.6700970775
 11
147.165491174
 21
85.6785079681
  0
LINE
  5
7AF
100
AcDbEntity
  8
CURVE
100
AcDbLine
 62
7
  6
CONTINUOUS
 10
147.1858263659
 20
85.488832446
 11
147.1969653499
 21
85.49997143
  0
LINE
  5
7B0
100
AcDbEntity
  8
CURVE
100
AcDbLine
 62
7
  6
CONTINUOUS
 10
147.1570802834
 20
85.4600863635
 11
147.165491174
 21
85.4684972541
  0
LINE
  5
7B1
100
AcDbEntity
  8
CURVE
100
AcDbLine
 62
7
  6
CONTINUOUS
 10
147.1737663659
 20
85.266761732
 11
147.1969653499
 21
85.289960716
  0
LINE
  5
7B2
100
AcDbEntity
  8
CURVE
100
AcDbLine
 62
7
  6
CONTINUOUS
 10
147.1570802834
 20
85.2500756495
 11
147.165491174
 21
85.2584865401
  0
LINE
  5
7B3
100
AcDbEntity
  8
CURVE
100
AcDbLine
 62
7
  6
CONTINUOUS
 10
147.1570802834
 20
85.0400649355
 11
147.1942973953
 21
85.0772820474
  0
LINE
  5
7B4
100
AcDbEntity
  8
CURVE
100
AcDbLine
 62
7
  6
CONTINUOUS
 10
147.1501660928
 20
84.8231400309
 11
147.1831972667
 21
84.8561712048
  0
LINE
  5
7B5
100
AcDbEntity
  8
CURVE
100
AcDbLine
 62
7
  6
CONTINUOUS
 10
147.1463533537
 20
84.6093165778
 11
147.172097138
 21
84.6350603621
  0
LINE
  5
7B6
100
AcDbEntity
  8
CURVE
100
AcDbLine
 62
7
  6
CONTINUOUS
 10
147.1463533537
 20
84.3993058638
 11
147.1609970094
 21
84.4139495194
  0
LINE
  5
7B7
100
AcDbEntity
  8
CURVE
100
AcDbLine
 62
7
  6
CONTINUOUS
 10
147.1463533537
 20
84.1892951498
 11
147.1498968807
 21
84.1928386767
  0
LINE
  5
7B8
100
AcDbEntity
  8
CURVE
100
AcDbLine
 62
7
  6
CONTINUOUS
 10
147.1463533537
 20
83.7692737218
 11
147.1820814392
 21
83.8050018072
  0
LINE
  5
7B9
100
AcDbEntity
  8
CURVE
100
AcDbLine
 62
7
  6
CONTINUOUS
 10
147.1463533537
 20
83.5592630077
 11
147.1969653499
 21
83.6098750039
  0
LINE
  5
7BA
100
AcDbEntity
  8
CURVE
100
AcDbLine
 62
7
  6
CONTINUOUS
 10
147.1463533537
 20
83.3492522937
 11
147.1969653499
 21
83.3998642899
  0
LINE
  5
7BB
100
AcDbEntity
  8
CURVE
100
AcDbLine
 62
7
  6
CONTINUOUS
 10
147.1871498049
 20
83.1800380309
 11
147.1969653499
 21
83.1898535758
  0
LINE
  5
7BC
100
AcDbEntity
  8
RACCORDO
100
AcDbLine
 62
253
  6
CONTINUOUS
 10
125.5280534304
 20
75.0116295877
 11
126.191653302
 21
75.286497735
  0
LINE
  5
7BD
100
AcDbEntity
  8
ASSI
100
AcDbLine
 62
253
  6
CONTINUOUS
 10
125.5280534304
 20
75.0116295877
 11
126.191653302
 21
75.286497735
  0
LINE
  5
7BE
100
AcDbEntity
  8
RACCORDO
100
AcDbLine
 62
7
  6
CONTINUOUS
 10
145.4423562108
 20
105.7973268072
 11
146.6794303669
 21
105.7973268072
  0
LINE
  5
7BF
100
AcDbEntity
  8
ASSI
100
AcDbLine
 62
7
  6
CONTINUOUS
 10
145.4423562108
 20
105.7973268072
 11
146.6794303669
 21
105.7973268072
  0
LINE
  5
7C0
100
AcDbEntity
  8
SMUSSO
100
AcDbLine
 62
7
  6
CONTINUOUS
 10
137.8423562108
 20
106.2473268072
 11
130.8423562108
 21
106.2473268072
  0
LINE
  5
7C1
100
AcDbEntity
  8
ASSI
100
AcDbLine
 62
7
  6
CONTINUOUS
 10
137.8423562108
 20
106.2473268072
 11
130.8423562108
 21
106.2473268072
  0
LINE
  5
7C2
100
AcDbEntity
  8
CURVE
100
AcDbLine
 62
253
  6
CONTINUOUS
 10
147.1464930428
 20
106.8829908072
 11
147.1971020022
 21
106.8829908072
  0
LINE
  5
7C3
100
AcDbEntity
  8
CURVE
100
AcDbLine
 62
253
  6
CONTINUOUS
 10
147.1971020022
 20
107.4882618072
 11
147.1464930428
 21
107.4882618072
  0
LINE
  5
7C4
100
AcDbEntity
  8
RACCORDO
100
AcDbLine
 62
253
  6
CONTINUOUS
 10
126.191653302
 20
112.9081558794
 11
125.5280534304
 21
113.1830240267
  0
LINE
  5
7C5
100
AcDbEntity
  8
ASSI
100
AcDbLine
 62
253
  6
CONTINUOUS
 10
126.191653302
 20
112.9081558794
 11
125.5280534304
 21
113.1830240267
  0
LINE
  5
7C6
100
AcDbEntity
  8
ASSI
100
AcDbLine
 62
7
  6
CONTINUOUS
 10
131.6923562108
 20
117.8973268072
 11
131.7360405068
 21
117.8536425113
  0
LINE
  5
7C7
100
AcDbEntity
  8
CURVE
100
AcDbLine
 62
7
  6
CONTINUOUS
 10
147.179138579
 20
82.962016091
 11
147.1969653499
 21
82.9798428618
  0
LINE
  5
7C8
100
AcDbEntity
  8
CURVE
100
AcDbLine
 62
7
  6
CONTINUOUS
 10
147.1711273531
 20
82.743994151
 11
147.1928010798
 21
82.7656678777
  0
LINE
  5
7C9
100
AcDbEntity
  8
CURVE
100
AcDbLine
 62
7
  6
CONTINUOUS
 10
147.1631161272
 20
82.5259722111
 11
147.1849474929
 21
82.5478035769
  0
LINE
  5
7CA
100
AcDbEntity
  8
CURVE
100
AcDbLine
 62
7
  6
CONTINUOUS
 10
147.1551049013
 20
82.3079502712
 11
147.1770939061
 21
82.3299392761
  0
LINE
  5
7CB
100
AcDbEntity
  8
CURVE
100
AcDbLine
 62
7
  6
CONTINUOUS
 10
147.1470936754
 20
82.0899283313
 11
147.1692403193
 21
82.1120749752
  0
LINE
  5
7CC
100
AcDbEntity
  8
CURVE
100
AcDbLine
 62
7
  6
CONTINUOUS
 10
147.1463533537
 20
81.8791772956
 11
147.1613867325
 21
81.8942106744
  0
LINE
  5
7CD
100
AcDbEntity
  8
CURVE
100
AcDbLine
 62
7
  6
CONTINUOUS
 10
147.1463533537
 20
81.6691665816
 11
147.1969653499
 21
81.7197785778
  0
LINE
  5
7CE
100
AcDbEntity
  8
CURVE
100
AcDbLine
 62
7
  6
CONTINUOUS
 10
147.1463533537
 20
81.4591558676
 11
147.1969653499
 21
81.5097678637
  0
LINE
  5
7CF
100
AcDbEntity
  8
CURVE
100
AcDbLine
 62
7
  6
CONTINUOUS
 10
147.1463533537
 20
81.2491451536
 11
147.1969653499
 21
81.2997571497
  0
LINE
  5
7D0
100
AcDbEntity
  8
CURVE
100
AcDbLine
 62
7
  6
CONTINUOUS
 10
147.1463533537
 20
80.8291237256
 11
147.1492896708
 21
80.8320600426
  0
LINE
  5
7D1
100
AcDbEntity
  8
CURVE
100
AcDbLine
 62
7
  6
CONTINUOUS
 10
147.1463533537
 20
80.6191130116
 11
147.1589607535
 21
80.6317204113
  0
LINE
  5
7D2
100
AcDbEntity
  8
ASSI
100
AcDbLine
 62
7
  6
CONTINUOUS
 10
139.6865067801
 20
70.4742196962
 11
139.7130406808
 21
70.5045692136
  0
LINE
  5
7D3
100
AcDbEntity
  8
ASSI
100
AcDbLine
 62
7
  6
CONTINUOUS
 10
139.7130406808
 20
70.5045692136
 11
139.7434108757
 21
70.5387718248
  0
LINE
  5
7D4
100
AcDbEntity
  8
ASSI
100
AcDbLine
 62
7
  6
CONTINUOUS
 10
139.7434108757
 20
70.5387718248
 11
139.7776365249
 21
70.5768340848
  0
LINE
  5
7D5
100
AcDbEntity
  8
ASSI
100
AcDbLine
 62
7
  6
CONTINUOUS
 10
139.7776365249
 20
70.5768340848
 11
139.8360877202
 21
70.6411002803
  0
LINE
  5
7D6
100
AcDbEntity
  8
ASSI
100
AcDbLine
 62
7
  6
CONTINUOUS
 10
139.8360877202
 20
70.6411002803
 11
140.0203261985
 21
70.8409689925
  0
LWPOLYLINE
  5
7D7
100
AcDbEntity
  8
SUPERFICI
100
AcDbPolyline
 62
253
  6
CONTINUOUS
 90
34
 70
0
 10
145.2690640361
 20
75.9752417844
 10
145.2932570315
 20
76.0003964395
 10
145.3151339642
 20
76.0238937182
 10
145.3346948342
 20
76.0457336203
 10
145.351318695
 20
76.0652506059
 10
145.3656264931
 20
76.0831102149
 10
145.3794810681
 20
76.1013090679
 10
145.3935110561
 20
76.1205237775
 10
145.4070878211
 20
76.140077731
 10
145.4201882947
 20
76.1599377108
 10
145.4328116517
 20
76.1801042155
 10
145.4449587173
 20
76.2005767465
 10
145.456608898
 20
76.22132059
 10
145.4677613586
 20
76.2423362176
 10
145.4784169343
 20
76.2636231579
 10
145.4885575372
 20
76.2851452822
 10
145.498182293
 20
76.3069029923
 10
145.5072920759
 20
76.3288958865
 10
145.5158714212
 20
76.3510866318
 10
145.5239194273
 20
76.3734755652
 10
145.5314369957
 20
76.3960623498
 10
145.5384113654
 20
76.4188086408
 10
145.544841611
 20
76.4417146935
 10
145.550728658
 20
76.4647802526
 10
145.556062522
 20
76.4879662085
 10
145.5608422679
 20
76.5112727914
 10
145.5650688307
 20
76.5346997709
 10
145.5687350321
 20
76.5582073469
 10
145.5718399189
 20
76.5817958469
 10
145.5743844442
 20
76.6054649433
 10
145.5763642885
 20
76.6291738529
 10
145.5777780119
 20
76.6529089812
 10
145.5786270542
 20
76.6766839227
 10
145.5789114155
 20
76.7004986773
  0
LINE
  5
7D8
100
AcDbEntity
  8
CURVE
100
AcDbLine
 62
7
  6
CONTINUOUS
 10
147.1463533537
 20
80.4091022976
 11
147.1686318362
 21
80.43138078
  0
LINE
  5
7D9
100
AcDbEntity
  8
CURVE
100
AcDbLine
 62
7
  6
CONTINUOUS
 10
147.1510338771
 20
80.2037721069
 11
147.1783029189
 21
80.2310411487
  0
LINE
  5
7DA
100
AcDbEntity
  8
CURVE
100
AcDbLine
 62
7
  6
CONTINUOUS
 10
147.1570802834
 20
79.9998077992
 11
147.1879740016
 21
80.0307015174
  0
LINE
  5
7DB
100
AcDbEntity
  8
CURVE
100
AcDbLine
 62
7
  6
CONTINUOUS
 10
147.1714086645
 20
79.8041254663
 11
147.1969653499
 21
79.8296821516
  0
LINE
  5
7DC
100
AcDbEntity
  8
CURVE
100
AcDbLine
 62
7
  6
CONTINUOUS
 10
147.1570802834
 20
79.7897970852
 11
147.165491174
 21
79.7982079758
  0
LINE
  5
7DD
100
AcDbEntity
  8
CURVE
100
AcDbLine
 62
7
  6
CONTINUOUS
 10
147.1815428762
 20
79.6042489639
 11
147.1969653499
 21
79.6196714376
  0
LINE
  5
7DE
100
AcDbEntity
  8
CURVE
100
AcDbLine
 62
7
  6
CONTINUOUS
 10
147.1570802834
 20
79.5797863712
 11
147.165491174
 21
79.5881972617
  0
LINE
  5
7DF
100
AcDbEntity
  8
CURVE
100
AcDbLine
 62
7
  6
CONTINUOUS
 10
147.1820715765
 20
79.3947669502
 11
147.1969653499
 21
79.4096607236
  0
LINE
  5
7E0
100
AcDbEntity
  8
CURVE
100
AcDbLine
 62
7
  6
CONTINUOUS
 10
147.1570802834
 20
79.3697756571
 11
147.165491174
 21
79.3781865477
  0
LINE
  5
7E1
100
AcDbEntity
  8
CURVE
100
AcDbLine
 62
7
  6
CONTINUOUS
 10
147.1700115988
 20
79.1726962585
 11
147.1969653499
 21
79.1996500096
  0
LINE
  5
7E2
100
AcDbEntity
  8
CURVE
100
AcDbLine
 62
7
  6
CONTINUOUS
 10
147.1570802834
 20
79.1597649431
 11
147.165491174
 21
79.1681758337
  0
LINE
  5
7E3
100
AcDbEntity
  8
CURVE
100
AcDbLine
 62
7
  6
CONTINUOUS
 10
147.1570802834
 20
78.9497542291
 11
147.1908465475
 21
78.9835204933
  0
LINE
  5
7E4
100
AcDbEntity
  8
CURVE
100
AcDbLine
 62
7
  6
CONTINUOUS
 10
147.146638148
 20
78.7293013797
 11
147.1797451552
 21
78.7624083869
  0
LINE
  5
7E5
100
AcDbEntity
  8
CURVE
100
AcDbLine
 62
7
  6
CONTINUOUS
 10
147.1463533537
 20
78.5190058714
 11
147.1686437629
 21
78.5412962806
  0
LINE
  5
7E6
100
AcDbEntity
  8
CURVE
100
AcDbLine
 62
7
  6
CONTINUOUS
 10
147.1463533537
 20
78.3089951574
 11
147.1575423705
 21
78.3201841742
  0
LINE
  5
7E7
100
AcDbEntity
  8
RACCORDO
100
AcDbLine
 62
7
  6
CONTINUOUS
 10
143.3353347094
 20
74.3403053058
 11
143.3923562108
 21
74.3973268072
  0
LINE
  5
7E8
100
AcDbEntity
  8
CURVE
100
AcDbLine
 62
7
  6
CONTINUOUS
 10
147.1463533537
 20
78.0989844434
 11
147.1464409782
 21
78.0990720679
  0
LINE
  5
7E9
100
AcDbEntity
  8
DRAFT
100
AcDbLine
 62
7
  6
CONTINUOUS
 10
143.4923562108
 20
74.3973268072
 11
143.581377042
 21
74.4863476384
  0
LINE
  5
7EA
100
AcDbEntity
  8
ASSI
100
AcDbLine
 62
7
  6
CONTINUOUS
 10
143.4923562108
 20
74.3973268072
 11
143.581377042
 21
74.4863476384
  0
LINE
  5
7EB
100
AcDbEntity
  8
SMUSSO
100
AcDbLine
 62
7
  6
CONTINUOUS
 10
130.8423562108
 20
109.5473268072
 11
137.8423562108
 21
109.5473268072
  0
LINE
  5
7EC
100
AcDbEntity
  8
ASSI
100
AcDbLine
 62
7
  6
CONTINUOUS
 10
130.8423562108
 20
109.5473268072
 11
137.8423562108
 21
109.5473268072
  0
LINE
  5
7ED
100
AcDbEntity
  8
RACCORDO
100
AcDbLine
 62
7
  6
CONTINUOUS
 10
145.4423562108
 20
109.9973268072
 11
146.6794303669
 21
109.9973268072
  0
LINE
  5
7EE
100
AcDbEntity
  8
ASSI
100
AcDbLine
 62
7
  6
CONTINUOUS
 10
145.4423562108
 20
109.9973268072
 11
146.6794303669
 21
109.9973268072
  0
LINE
  5
7EF
100
AcDbEntity
  8
SMUSSO
100
AcDbLine
 62
7
  6
CONTINUOUS
 10
130.2650059417
 20
110.1246770764
 11
138.41970648
 21
110.1246770764
  0
LINE
  5
7F0
100
AcDbEntity
  8
ASSI
100
AcDbLine
 62
7
  6
CONTINUOUS
 10
130.2650059417
 20
110.1246770764
 11
138.41970648
 21
110.1246770764
  0
LINE
  5
7F1
100
AcDbEntity
  8
RACCORDO
100
AcDbLine
 62
7
  6
CONTINUOUS
 10
143.3353347094
 20
113.8543483087
 11
143.3923562108
 21
113.7973268072
  0
LINE
  5
7F2
100
AcDbEntity
  8
DRAFT
100
AcDbLine
 62
7
  6
CONTINUOUS
 10
143.4923562108
 20
113.7973268072
 11
143.581377042
 21
113.7083059761
  0
LINE
  5
7F3
100
AcDbEntity
  8
ASSI
100
AcDbLine
 62
7
  6
CONTINUOUS
 10
143.4923562108
 20
113.7973268072
 11
143.581377042
 21
113.7083059761
  0
LINE
  5
7F4
100
AcDbEntity
  8
RACCORDO
100
AcDbLine
 62
253
  6
CONTINUOUS
 10
145.2860628058
 20
112.2011540225
 11
145.2678049982
 21
112.2194118301
  0
LINE
  5
7F5
100
AcDbEntity
  8
ASSI
100
AcDbLine
 62
253
  6
CONTINUOUS
 10
145.2860628058
 20
112.2011540225
 11
145.2678049982
 21
112.2194118301
  0
LINE
  5
7F6
100
AcDbEntity
  8
ASSI
100
AcDbLine
 62
7
  6
CONTINUOUS
 10
140.0203261985
 20
117.356585026
 11
139.9248848364
 21
117.4595071152
  0
LINE
  5
7F7
100
AcDbEntity
  8
ASSI
100
AcDbLine
 62
7
  6
CONTINUOUS
 10
139.9248848364
 20
117.4595071152
 11
139.8359018136
 21
117.5560492851
  0
LINE
  5
7F8
100
AcDbEntity
  8
ASSI
100
AcDbLine
 62
7
  6
CONTINUOUS
 10
139.8359018136
 20
117.5560492851
 11
139.7773984922
 21
117.6201497021
  0
LINE
  5
7F9
100
AcDbEntity
  8
ASSI
100
AcDbLine
 62
7
  6
CONTINUOUS
 10
139.7773984922
 20
117.6201497021
 11
139.7431331961
 21
117.658111033
  0
LINE
  5
7FA
100
AcDbEntity
  8
ASSI
100
AcDbLine
 62
7
  6
CONTINUOUS
 10
139.7431331961
 20
117.658111033
 11
139.712738083
 21
117.6921997639
  0
LWPOLYLINE
  5
7FB
100
AcDbEntity
  8
ASSI
100
AcDbPolyline
 62
7
  6
CONTINUOUS
 90
18
 70
0
 10
139.712738083
 20
117.6921997639
 10
139.6862042961
 20
117.722409025
 10
139.6743150151
 20
117.736149622
 10
139.6633199408
 20
117.7490042234
 10
139.65320664
 20
117.7609740391
 10
139.6439279769
 20
117.7721364089
 10
139.6354807334
 20
117.7824893437
 10
139.6278463655
 20
117.7920348325
 10
139.6209718048
 20
117.8008561827
 10
139.6148420047
 20
117.8089737206
 10
139.6094682851
 20
117.8163671198
 10
139.6048465527
 20
117.8230587085
 10
139.6009676088
 20
117.8290436282
 10
139.5978233427
 20
117.8343267373
 10
139.5954055509
 20
117.8389449398
 10
139.5936999153
 20
117.8429105371
 10
139.5926891675
 20
117.8462112279
 10
139.5923562108
 20
117.8488470121
  0
LWPOLYLINE
  5
7FC
100
AcDbEntity
  8
SUPERFICI
100
AcDbPolyline
 62
253
  6
CONTINUOUS
 90
34
 70
0
 10
145.9930591199
 20
75.2864977349
 10
146.026305627
 20
75.3205490883
 10
146.0587327481
 20
75.3553820999
 10
146.0903221064
 20
75.3909770625
 10
146.121055867
 20
75.4273139173
 10
146.1509165384
 20
75.4643720269
 10
146.1798870022
 20
75.5021301714
 10
146.2079508093
 20
75.5405669085
 10
146.2350921164
 20
75.5796605345
 10
146.2612955063
 20
75.6193888443
 10
146.2865461181
 20
75.6597292938
 10
146.3108296887
 20
75.7006590822
 10
146.3341325068
 20
75.7421550984
 10
146.3564413894
 20
75.7841938708
 10
146.3777436905
 20
75.8267515717
 10
146.3980273438
 20
75.8698040982
 10
146.4172808643
 20
75.9133270752
 10
146.4354933489
 20
75.9572958558
 10
146.4526544792
 20
76.0016855297
 10
146.4687545371
 20
76.0464709587
 10
146.4837844078
 20
76.0916267864
 10
146.4977355805
 20
76.137127438
 10
146.5106001487
 20
76.1829471233
 10
146.522370837
 20
76.2290599232
 10
146.5330409985
 20
76.2754397998
 10
146.5426045961
 20
76.3220605448
 10
146.5510561971
 20
76.3688957091
 10
146.5583910016
 20
76.4159186893
 10
146.5646048622
 20
76.4631029078
 10
146.5696942531
 20
76.510421599
 10
146.57365628
 20
76.5578477384
 10
146.5764887136
 20
76.6053543935
 10
146.5781899729
 20
76.6529147412
 10
146.5787591109
 20
76.700501852
  0
LINE
  5
7FD
100
AcDbEntity
  8
0
100
AcDbLine
 62
7
  6
CONTINUOUS
 10
146.1923542642
 20
75.2039509027
 11
146.0573536874
 21
75.0689503259
  0
LINE
  5
7FE
100
AcDbEntity
  8
RACCORDO
100
AcDbLine
 62
7
  6
CONTINUOUS
 10
146.0580766999
 20
75.0672048194
 11
146.1940997707
 21
75.2032278903
  0
LINE
  5
7FF
100
AcDbEntity
  8
ASSI
100
AcDbLine
 62
7
  6
CONTINUOUS
 10
146.0580766999
 20
75.0672048194
 11
146.1940997707
 21
75.2032278903
  0
LINE
  5
800
100
AcDbEntity
  8
RACCORDO
100
AcDbLine
 62
7
  6
CONTINUOUS
 10
146.1773737562
 20
74.7791962481
 11
144.6455043153
 21
73.2473268072
  0
LINE
  5
801
100
AcDbEntity
  8
ASSI
100
AcDbLine
 62
7
  6
CONTINUOUS
 10
146.1773737562
 20
74.7791962481
 11
144.6455043153
 21
73.2473268072
  0
LINE
  5
802
100
AcDbEntity
  8
RACCORDO
100
AcDbLine
 62
7
  6
CONTINUOUS
 10
143.3510830786
 20
71.706053675
 11
144.3423562108
 21
72.6973268072
  0
LINE
  5
803
100
AcDbEntity
  8
RACCORDO
100
AcDbLine
 62
7
  6
CONTINUOUS
 10
144.8923562108
 20
73.2473268072
 11
146.6566589913
 21
75.0116295877
  0
LINE
  5
804
100
AcDbEntity
  8
ASSI
100
AcDbLine
 62
7
  6
CONTINUOUS
 10
144.8923562108
 20
73.2473268072
 11
146.6566589913
 21
75.0116295877
  0
LINE
  5
805
100
AcDbEntity
  8
RACCORDO
100
AcDbLine
 62
253
  6
CONTINUOUS
 10
126.6058010062
 20
111.4941549371
 11
125.605953311
 21
111.4941549371
  0
LINE
  5
806
100
AcDbEntity
  8
ASSI
100
AcDbLine
 62
253
  6
CONTINUOUS
 10
126.6058010062
 20
111.4941549371
 11
125.605953311
 21
111.4941549371
  0
LINE
  5
807
100
AcDbEntity
  8
RACCORDO
100
AcDbLine
 62
253
  6
CONTINUOUS
 10
145.5789114155
 20
111.4941549371
 11
146.5787591107
 21
111.4941549371
  0
LINE
  5
808
100
AcDbEntity
  8
ASSI
100
AcDbLine
 62
253
  6
CONTINUOUS
 10
145.5789114155
 20
111.4941549371
 11
146.5787591107
 21
111.4941549371
  0
LINE
  5
809
100
AcDbEntity
  8
RACCORDO
100
AcDbLine
 62
253
  6
CONTINUOUS
 10
145.2678049982
 20
112.2194118301
 11
126.9169074235
 21
112.2194118301
  0
LINE
  5
80A
100
AcDbEntity
  8
ASSI
100
AcDbLine
 62
253
  6
CONTINUOUS
 10
145.2678049982
 20
112.2194118301
 11
126.9169074235
 21
112.2194118301
  0
LWPOLYLINE
  5
80B
100
AcDbEntity
  8
RACCORDO
100
AcDbPolyline
 62
253
  6
CONTINUOUS
 90
31
 70
0
 10
145.9748040836
 20
112.9264109155
 10
145.9560547964
 20
112.9446712331
 10
145.9368335553
 20
112.9624351891
 10
145.9171534921
 20
112.9796905758
 10
145.8970278815
 20
112.9964256726
 10
145.8764706441
 20
113.0126288246
 10
145.8554963732
 20
113.028288496
 10
145.8341196233
 20
113.0433938313
 10
145.8123548639
 20
113.0579346166
 10
145.7902170069
 20
113.0719008893
 10
145.76772122
 20
113.0852830803
 10
145.7448829164
 20
113.0980720209
 10
145.7217177435
 20
113.1102589488
 10
145.6982415729
 20
113.1218355141
 10
145.6744704895
 20
113.1327937852
 10
145.6504207797
 20
113.1431262541
 10
145.6261089213
 20
113.1528258414
 10
145.6015515716
 20
113.1618859014
 10
145.5767655558
 20
113.1703002268
 10
145.5517678562
 20
113.1780630525
 10
145.5265755999
 20
113.1851690597
 10
145.5012060473
 20
113.1916133797
 10
145.4756765803
 20
113.1973915973
 10
145.4500046904
 20
113.2024997534
 10
145.4242079666
 20
113.2069343485
 10
145.3983039129
 20
113.2106923666
 10
145.3723104469
 20
113.2137712015
 10
145.3462458934
 20
113.2161687029
 10
145.3201282855
 20
113.2178832597
 10
145.2939753477
 20
113.2189137556
 10
145.2678049982
 20
113.2192595252
  0
LWPOLYLINE
  5
80C
100
AcDbEntity
  8
ASSI
100
AcDbPolyline
 62
253
  6
CONTINUOUS
 90
31
 70
0
 10
145.9748040836
 20
112.9264109155
 10
145.9560547964
 20
112.9446712331
 10
145.9368335553
 20
112.9624351891
 10
145.9171534921
 20
112.9796905758
 10
145.8970278815
 20
112.9964256726
 10
145.8764706441
 20
113.0126288246
 10
145.8554963732
 20
113.028288496
 10
145.8341196233
 20
113.0433938313
 10
145.8123548639
 20
113.0579346166
 10
145.7902170069
 20
113.0719008893
 10
145.76772122
 20
113.0852830803
 10
145.7448829164
 20
113.0980720209
 10
145.7217177435
 20
113.1102589488
 10
145.6982415729
 20
113.1218355141
 10
145.6744704895
 20
113.1327937852
 10
145.6504207797
 20
113.1431262541
 10
145.6261089213
 20
113.1528258414
 10
145.6015515716
 20
113.1618859014
 10
145.5767655558
 20
113.1703002268
 10
145.5517678562
 20
113.1780630525
 10
145.5265755999
 20
113.1851690597
 10
145.5012060473
 20
113.1916133797
 10
145.4756765803
 20
113.1973915973
 10
145.4500046904
 20
113.2024997534
 10
145.4242079666
 20
113.2069343485
 10
145.3983039129
 20
113.2106923666
 10
145.3723104469
 20
113.2137712015
 10
145.3462458934
 20
113.2161687029
 10
145.3201282855
 20
113.2178832597
 10
145.2939753477
 20
113.2189137556
 10
145.2678049982
 20
113.2192595252
  0
LINE
  5
80D
100
AcDbEntity
  8
RACCORDO
100
AcDbLine
 62
253
  6
CONTINUOUS
 10
145.9930591196
 20
112.9081558794
 11
145.9748040836
 21
112.9264109155
  0
LINE
  5
80E
100
AcDbEntity
  8
ASSI
100
AcDbLine
 62
253
  6
CONTINUOUS
 10
145.9930591196
 20
112.9081558794
 11
145.9748040836
 21
112.9264109155
  0
LINE
  5
80F
100
AcDbEntity
  8
RACCORDO
100
AcDbLine
 62
7
  6
CONTINUOUS
 10
144.6455043153
 20
114.9473268072
 11
146.1773737562
 21
113.4154573663
  0
LINE
  5
810
100
AcDbEntity
  8
ASSI
100
AcDbLine
 62
7
  6
CONTINUOUS
 10
144.6455043153
 20
114.9473268072
 11
146.1773737562
 21
113.4154573663
  0
LINE
  5
811
100
AcDbEntity
  8
RACCORDO
100
AcDbLine
 62
7
  6
CONTINUOUS
 10
146.6566589913
 20
113.1830240267
 11
144.8923562108
 21
114.9473268072
  0
LINE
  5
812
100
AcDbEntity
  8
ASSI
100
AcDbLine
 62
7
  6
CONTINUOUS
 10
146.6566589913
 20
113.1830240267
 11
144.8923562108
 21
114.9473268072
  0
LINE
  5
813
100
AcDbEntity
  8
RACCORDO
100
AcDbLine
 62
7
  6
CONTINUOUS
 10
143.3510830786
 20
116.4885999394
 11
144.3423562108
 21
115.4973268072
  0
LINE
  5
814
100
AcDbEntity
  8
RACCORDO
100
AcDbLine
 62
253
  6
CONTINUOUS
 10
144.3467280448
 20
69.8516944104
 11
144.3423562108
 21
69.8473225764
  0
LWPOLYLINE
  5
815
100
AcDbEntity
  8
RACCORDO
100
AcDbPolyline
 62
253
  6
CONTINUOUS
 90
31
 70
0
 10
126.9169074235
 20
113.2192595252
 10
126.890737074
 20
113.2189137556
 10
126.8645841362
 20
113.2178832597
 10
126.8384665283
 20
113.2161687029
 10
126.8124019747
 20
113.2137712015
 10
126.7864085088
 20
113.2106923666
 10
126.7605044551
 20
113.2069343485
 10
126.7347077313
 20
113.2024997534
 10
126.7090358414
 20
113.1973915973
 10
126.6835063744
 20
113.1916133797
 10
126.6581368217
 20
113.1851690597
 10
126.6329445654
 20
113.1780630525
 10
126.6079468659
 20
113.1703002268
 10
126.5831608501
 20
113.1618859014
 10
126.5586035004
 20
113.1528258414
 10
126.534291642
 20
113.1431262541
 10
126.5102419322
 20
113.1327937852
 10
126.4864708487
 20
113.1218355141
 10
126.4629946782
 20
113.1102589488
 10
126.4398295053
 20
113.0980720209
 10
126.4169912016
 20
113.0852830803
 10
126.3944954148
 20
113.0719008893
 10
126.3723575578
 20
113.0579346166
 10
126.3505927984
 20
113.0433938313
 10
126.3292160485
 20
113.028288496
 10
126.3082417776
 20
113.0126288246
 10
126.2876845402
 20
112.9964256726
 10
126.2675589296
 20
112.9796905758
 10
126.2478788664
 20
112.9624351891
 10
126.2286576253
 20
112.9446712331
 10
126.2099083381
 20
112.9264109155
  0
LWPOLYLINE
  5
816
100
AcDbEntity
  8
ASSI
100
AcDbPolyline
 62
253
  6
CONTINUOUS
 90
31
 70
0
 10
126.9169074235
 20
113.2192595252
 10
126.890737074
 20
113.2189137556
 10
126.8645841362
 20
113.2178832597
 10
126.8384665283
 20
113.2161687029
 10
126.8124019747
 20
113.2137712015
 10
126.7864085088
 20
113.2106923666
 10
126.7605044551
 20
113.2069343485
 10
126.7347077313
 20
113.2024997534
 10
126.7090358414
 20
113.1973915973
 10
126.6835063744
 20
113.1916133797
 10
126.6581368217
 20
113.1851690597
 10
126.6329445654
 20
113.1780630525
 10
126.6079468659
 20
113.1703002268
 10
126.5831608501
 20
113.1618859014
 10
126.5586035004
 20
113.1528258414
 10
126.534291642
 20
113.1431262541
 10
126.5102419322
 20
113.1327937852
 10
126.4864708487
 20
113.1218355141
 10
126.4629946782
 20
113.1102589488
 10
126.4398295053
 20
113.0980720209
 10
126.4169912016
 20
113.0852830803
 10
126.3944954148
 20
113.0719008893
 10
126.3723575578
 20
113.0579346166
 10
126.3505927984
 20
113.0433938313
 10
126.3292160485
 20
113.028288496
 10
126.3082417776
 20
113.0126288246
 10
126.2876845402
 20
112.9964256726
 10
126.2675589296
 20
112.9796905758
 10
126.2478788664
 20
112.9624351891
 10
126.2286576253
 20
112.9446712331
 10
126.2099083381
 20
112.9264109155
  0
LINE
  5
817
100
AcDbEntity
  8
RACCORDO
100
AcDbLine
 62
253
  6
CONTINUOUS
 10
145.2678049982
 20
113.2192595252
 11
126.9169074235
 21
113.2192595252
  0
LINE
  5
818
100
AcDbEntity
  8
ASSI
100
AcDbLine
 62
253
  6
CONTINUOUS
 10
145.2678049982
 20
113.2192595252
 11
126.9169074235
 21
113.2192595252
  0
LINE
  5
819
100
AcDbEntity
  8
RACCORDO
100
AcDbLine
 62
7
  6
CONTINUOUS
 10
145.4703746708
 20
113.7083059761
 11
143.581377042
 21
113.7083059761
  0
LINE
  5
81A
100
AcDbEntity
  8
ASSI
100
AcDbLine
 62
7
  6
CONTINUOUS
 10
145.4703746708
 20
113.7083059761
 11
143.581377042
 21
113.7083059761
  0
LINE
  5
81B
100
AcDbEntity
  8
RACCORDO
100
AcDbLine
 62
7
  6
CONTINUOUS
 10
128.6033353797
 20
113.7083059761
 11
126.7143377509
 21
113.7083059761
  0
LINE
  5
81C
100
AcDbEntity
  8
ASSI
100
AcDbLine
 62
7
  6
CONTINUOUS
 10
128.6033353797
 20
113.7083059761
 11
126.7143377509
 21
113.7083059761
  0
LINE
  5
81D
100
AcDbEntity
  8
DRAFT
100
AcDbLine
 62
7
  6
CONTINUOUS
 10
132.681377042
 20
113.7083059761
 11
139.5033353797
 21
113.7083059761
  0
LINE
  5
81E
100
AcDbEntity
  8
ASSI
100
AcDbLine
 62
7
  6
CONTINUOUS
 10
132.681377042
 20
113.7083059761
 11
139.5033353797
 21
113.7083059761
  0
LINE
  5
81F
100
AcDbEntity
  8
DRAFT
100
AcDbLine
 62
7
  6
CONTINUOUS
 10
143.4923562108
 20
113.7973268072
 11
139.5923562108
 21
113.7973268072
  0
LINE
  5
820
100
AcDbEntity
  8
ASSI
100
AcDbLine
 62
7
  6
CONTINUOUS
 10
143.4923562108
 20
113.7973268072
 11
139.5923562108
 21
113.7973268072
  0
LINE
  5
821
100
AcDbEntity
  8
DRAFT
100
AcDbLine
 62
7
  6
CONTINUOUS
 10
132.5923562108
 20
113.7973268072
 11
128.6923562108
 21
113.7973268072
  0
LINE
  5
822
100
AcDbEntity
  8
ASSI
100
AcDbLine
 62
7
  6
CONTINUOUS
 10
132.5923562108
 20
113.7973268072
 11
128.6923562108
 21
113.7973268072
  0
LINE
  5
823
100
AcDbEntity
  8
RACCORDO
100
AcDbLine
 62
253
  6
CONTINUOUS
 10
128.8493777123
 20
113.8543483087
 11
129.7353347094
 21
113.8543483087
  0
LINE
  5
824
100
AcDbEntity
  8
RACCORDO
100
AcDbLine
 62
253
  6
CONTINUOUS
 10
142.4493777123
 20
113.8543483087
 11
143.3353347094
 21
113.8543483087
  0
LINE
  5
825
100
AcDbEntity
  8
DRAFT
100
AcDbLine
 62
7
  6
CONTINUOUS
 10
132.681377042
 20
113.9083059761
 11
139.5033353797
 21
113.9083059761
  0
LINE
  5
826
100
AcDbEntity
  8
ASSI
100
AcDbLine
 62
7
  6
CONTINUOUS
 10
132.681377042
 20
113.9083059761
 11
139.5033353797
 21
113.9083059761
  0
LINE
  5
827
100
AcDbEntity
  8
RACCORDO
100
AcDbLine
 62
7
  6
CONTINUOUS
 10
134.4942388126
 20
113.9798717423
 11
137.6904736091
 21
113.9798717423
  0
LINE
  5
828
100
AcDbEntity
  8
ASSI
100
AcDbLine
 62
7
  6
CONTINUOUS
 10
134.4942388126
 20
113.9798717423
 11
137.6904736091
 21
113.9798717423
  0
LINE
  5
829
100
AcDbEntity
  8
DRAFT
100
AcDbLine
 62
7
  6
CONTINUOUS
 10
132.5923562108
 20
113.9973268072
 11
133.5923562108
 21
113.9973268072
  0
LINE
  5
82A
100
AcDbEntity
  8
ASSI
100
AcDbLine
 62
7
  6
CONTINUOUS
 10
132.5923562108
 20
113.9973268072
 11
133.5923562108
 21
113.9973268072
  0
LINE
  5
82B
100
AcDbEntity
  8
DRAFT
100
AcDbLine
 62
7
  6
CONTINUOUS
 10
138.5923562108
 20
113.9973268072
 11
139.5923562108
 21
113.9973268072
  0
LINE
  5
82C
100
AcDbEntity
  8
ASSI
100
AcDbLine
 62
7
  6
CONTINUOUS
 10
138.5923562108
 20
113.9973268072
 11
139.5923562108
 21
113.9973268072
  0
LINE
  5
82D
100
AcDbEntity
  8
DRAFT
100
AcDbLine
 62
7
  6
CONTINUOUS
 10
142.3405775255
 20
114.0196576839
 11
138.5923562108
 21
114.0196576839
  0
LINE
  5
82E
100
AcDbEntity
  8
DRAFT
100
AcDbLine
 62
7
  6
CONTINUOUS
 10
133.5923562108
 20
114.0196576839
 11
129.8441348962
 21
114.0196576839
  0
LINE
  5
82F
100
AcDbEntity
  8
RACCORDO
100
AcDbLine
 62
253
  6
CONTINUOUS
 10
128.850534509
 20
114.0543449241
 11
129.7341779127
 21
114.0543449241
  0
LINE
  5
830
100
AcDbEntity
  8
RACCORDO
100
AcDbLine
 62
253
  6
CONTINUOUS
 10
142.450534509
 20
114.0543449241
 11
143.3341779127
 21
114.0543449241
  0
LINE
  5
831
100
AcDbEntity
  8
DRAFT
100
AcDbLine
 62
7
  6
CONTINUOUS
 10
139.5923562108
 20
114.0973268072
 11
138.5923562108
 21
114.0973268072
  0
LINE
  5
832
100
AcDbEntity
  8
DRAFT
100
AcDbLine
 62
7
  6
CONTINUOUS
 10
133.5923562108
 20
114.0973268072
 11
132.5923562108
 21
114.0973268072
  0
LINE
  5
833
100
AcDbEntity
  8
DRAFT
100
AcDbLine
 62
7
  6
CONTINUOUS
 10
133.5923562108
 20
114.1505607008
 11
133.6510450877
 21
114.1505607008
  0
LINE
  5
834
100
AcDbEntity
  8
DRAFT
100
AcDbLine
 62
7
  6
CONTINUOUS
 10
138.533667334
 20
114.1505607008
 11
138.5923562108
 21
114.1505607008
  0
LINE
  5
835
100
AcDbEntity
  8
RACCORDO
100
AcDbLine
 62
253
  6
CONTINUOUS
 10
129.7370614429
 20
114.1802701289
 11
142.4476509788
 21
114.1802701289
  0
LINE
  5
836
100
AcDbEntity
  8
DRAFT
100
AcDbLine
 62
7
  6
CONTINUOUS
 10
126.5977062887
 20
114.5308975716
 11
126.8759269752
 21
114.5308975716
  0
LINE
  5
837
100
AcDbEntity
  8
DRAFT
100
AcDbLine
 62
7
  6
CONTINUOUS
 10
128.6923562108
 20
114.5308975716
 11
128.7405775255
 21
114.5308975716
  0
LINE
  5
838
100
AcDbEntity
  8
DRAFT
100
AcDbLine
 62
7
  6
CONTINUOUS
 10
143.4441348962
 20
114.5308975716
 11
143.4923562108
 21
114.5308975716
  0
LINE
  5
839
100
AcDbEntity
  8
DRAFT
100
AcDbLine
 62
7
  6
CONTINUOUS
 10
145.3087854465
 20
114.5308975716
 11
145.587006133
 21
114.5308975716
  0
LINE
  5
83A
100
AcDbEntity
  8
RACCORDO
100
AcDbLine
 62
253
  6
CONTINUOUS
 10
129.7341779127
 20
114.6802510904
 11
142.450534509
 21
114.6802510904
  0
LINE
  5
83B
100
AcDbEntity
  8
DRAFT
100
AcDbLine
 62
7
  6
CONTINUOUS
 10
127.2923562108
 20
114.9473268072
 11
128.6923562108
 21
114.9473268072
  0
LINE
  5
83C
100
AcDbEntity
  8
ASSI
100
AcDbLine
 62
7
  6
CONTINUOUS
 10
127.2923562108
 20
114.9473268072
 11
128.6923562108
 21
114.9473268072
  0
LINE
  5
83D
100
AcDbEntity
  8
DRAFT
100
AcDbLine
 62
7
  6
CONTINUOUS
 10
143.4923562108
 20
114.9473268072
 11
144.8923562108
 21
114.9473268072
  0
LINE
  5
83E
100
AcDbEntity
  8
ASSI
100
AcDbLine
 62
7
  6
CONTINUOUS
 10
143.4923562108
 20
114.9473268072
 11
144.8923562108
 21
114.9473268072
  0
LINE
  5
83F
100
AcDbEntity
  8
DRAFT
100
AcDbLine
 62
7
  6
CONTINUOUS
 10
145.7423562108
 20
114.9973268072
 11
144.3423562108
 21
114.9973268072
  0
LINE
  5
840
100
AcDbEntity
  8
RACCORDO
100
AcDbLine
 62
7
  6
CONTINUOUS
 10
128.850534509
 20
114.9973268072
 11
127.8423562108
 21
114.9973268072
  0
LINE
  5
841
100
AcDbEntity
  8
DRAFT
100
AcDbLine
 62
7
  6
CONTINUOUS
 10
127.8423562108
 20
114.9973268072
 11
126.4423562108
 21
114.9973268072
  0
LINE
  5
842
100
AcDbEntity
  8
RACCORDO
100
AcDbLine
 62
7
  6
CONTINUOUS
 10
143.3341779127
 20
114.9973268072
 11
144.3423562108
 21
114.9973268072
  0
LINE
  5
843
100
AcDbEntity
  8
0
100
AcDbLine
 62
7
  6
CONTINUOUS
 10
139.0923562108
 20
115.0973268072
 11
133.0923562108
 21
115.0973268072
  0
LINE
  5
844
100
AcDbEntity
  8
RACCORDO
100
AcDbLine
 62
253
  6
CONTINUOUS
 10
144.3467280448
 20
118.342959204
 11
144.3423562108
 21
118.347331038
  0
LINE
  5
845
100
AcDbEntity
  8
RACCORDO
100
AcDbLine
 62
253
  6
CONTINUOUS
 10
144.5967238141
 20
69.6016986412
 11
144.5923519801
 21
69.5973268072
  0
LINE
  5
846
100
AcDbEntity
  8
RACCORDO
100
AcDbLine
 62
7
  6
CONTINUOUS
 10
125.4423562108
 20
116.4972678134
 11
125.4499605544
 21
116.4973268072
  0
LINE
  5
847
100
AcDbEntity
  8
RACCORDO
100
AcDbLine
 62
253
  6
CONTINUOUS
 10
143.67645693
 20
115.4100200509
 11
139.0923562108
 21
115.4100200509
  0
LINE
  5
848
100
AcDbEntity
  8
RACCORDO
100
AcDbLine
 62
253
  6
CONTINUOUS
 10
133.0923562108
 20
115.4100200509
 11
128.5082554917
 21
115.4100200509
  0
LINE
  5
849
100
AcDbEntity
  8
0
100
AcDbLine
 62
7
  6
CONTINUOUS
 10
133.0923562108
 20
115.7973268072
 11
139.0923562108
 21
115.7973268072
  0
LINE
  5
84A
100
AcDbEntity
  8
RACCORDO
100
AcDbLine
 62
253
  6
CONTINUOUS
 10
143.4297010441
 20
116.409981974
 11
139.0923562108
 21
116.409981974
  0
LINE
  5
84B
100
AcDbEntity
  8
RACCORDO
100
AcDbLine
 62
253
  6
CONTINUOUS
 10
133.0923562108
 20
116.409981974
 11
128.7550113776
 21
116.409981974
  0
LINE
  5
84C
100
AcDbEntity
  8
DRAFT
100
AcDbLine
 62
7
  6
CONTINUOUS
 10
132.5923562108
 20
116.4353660459
 11
133.0923562108
 21
116.4353660459
  0
LINE
  5
84D
100
AcDbEntity
  8
DRAFT
100
AcDbLine
 62
7
  6
CONTINUOUS
 10
139.0923562108
 20
116.4353660459
 11
139.5923562108
 21
116.4353660459
  0
LINE
  5
84E
100
AcDbEntity
  8
RACCORDO
100
AcDbLine
 62
7
  6
CONTINUOUS
 10
146.7522069322
 20
116.4885999394
 11
143.3510830786
 21
116.4885999394
  0
LINE
  5
84F
100
AcDbEntity
  8
RACCORDO
100
AcDbLine
 62
7
  6
CONTINUOUS
 10
128.8336293431
 20
116.4885999394
 11
125.4325054895
 21
116.4885999394
  0
LINE
  5
850
100
AcDbEntity
  8
DRAFT
100
AcDbLine
 62
7
  6
CONTINUOUS
 10
144.3423562108
 20
116.4973268072
 11
140.4923562108
 21
116.4973268072
  0
LINE
  5
851
100
AcDbEntity
  8
DRAFT
100
AcDbLine
 62
7
  6
CONTINUOUS
 10
131.6923562108
 20
116.4973268072
 11
127.8423562108
 21
116.4973268072
  0
LINE
  5
852
100
AcDbEntity
  8
RACCORDO
100
AcDbLine
 62
7
  6
CONTINUOUS
 10
125.4499605544
 20
116.4973268072
 11
127.8423562108
 21
116.4973268072
  0
LINE
  5
853
100
AcDbEntity
  8
RACCORDO
100
AcDbLine
 62
7
  6
CONTINUOUS
 10
144.3423562108
 20
116.4973268072
 11
146.7347518673
 21
116.4973268072
  0
LINE
  5
854
100
AcDbEntity
  8
RACCORDO
100
AcDbLine
 62
7
  6
CONTINUOUS
 10
146.7347518673
 20
116.4973268072
 11
146.7423562108
 21
116.4972678134
  0
LINE
  5
855
100
AcDbEntity
  8
RACCORDO
100
AcDbLine
 62
7
  6
CONTINUOUS
 10
146.7656088298
 20
116.4963581695
 11
146.7423558417
 21
116.4972683556
  0
LINE
  5
856
100
AcDbEntity
  8
RACCORDO
100
AcDbLine
 62
253
  6
CONTINUOUS
 10
144.5967238141
 20
118.5929549732
 11
144.5923519801
 21
118.5973268072
  0
LINE
  5
857
100
AcDbEntity
  8
RACCORDO
100
AcDbLine
 62
253
  6
CONTINUOUS
 10
146.7522069322
 20
71.706053675
 11
146.7347518673
 21
71.6973268072
  0
LWPOLYLINE
  5
858
100
AcDbEntity
  8
RACCORDO
100
AcDbPolyline
 62
7
  6
CONTINUOUS
 90
11
 70
0
 10
125.44235658
 20
116.4972683556
 10
125.4191035919
 20
116.4963581695
 10
125.3958710977
 20
116.4943389714
 10
125.3727123344
 20
116.4912084111
 10
125.3496529592
 20
116.4869608485
 10
125.3267754337
 20
116.481602305
 10
125.3042157798
 20
116.4751638013
 10
125.2820435566
 20
116.4676722228
 10
125.2602877619
 20
116.4591444812
 10
125.2390176613
 20
116.4496152289
 10
125.2307913373
 20
116.4455975119
  0
LINE
  5
859
100
AcDbEntity
  8
RACCORDO
100
AcDbLine
 62
7
  6
CONTINUOUS
 10
125.691633213
 20
117.219976538
 11
127.5930792087
 21
117.219976538
  0
LINE
  5
85A
100
AcDbEntity
  8
RACCORDO
100
AcDbLine
 62
7
  6
CONTINUOUS
 10
144.591633213
 20
117.219976538
 11
146.4930792087
 21
117.219976538
  0
LINE
  5
85B
100
AcDbEntity
  8
RACCORDO
100
AcDbLine
 62
253
  6
CONTINUOUS
 10
144.5967238141
 20
117.7251580236
 11
146.4879886076
 21
117.7251580236
  0
LINE
  5
85C
100
AcDbEntity
  8
RACCORDO
100
AcDbLine
 62
7
  6
CONTINUOUS
 10
127.5879886076
 20
117.7973268072
 11
125.6967238141
 21
117.7973268072
  0
LINE
  5
85D
100
AcDbEntity
  8
ASSI
100
AcDbLine
 62
7
  6
CONTINUOUS
 10
140.4486719149
 20
117.8536425113
 11
139.5923562108
 21
117.8536425113
  0
LINE
  5
85E
100
AcDbEntity
  8
ASSI
100
AcDbLine
 62
7
  6
CONTINUOUS
 10
132.5923562108
 20
117.8536425113
 11
131.7360405068
 21
117.8536425113
  0
LINE
  5
85F
100
AcDbEntity
  8
DRAFT
100
AcDbLine
 62
7
  6
CONTINUOUS
 10
139.5923562108
 20
117.8915089774
 11
132.5923562108
 21
117.8915089774
  0
LINE
  5
860
100
AcDbEntity
  8
DRAFT
100
AcDbLine
 62
7
  6
CONTINUOUS
 10
140.4923562108
 20
117.8973268072
 11
131.6923562108
 21
117.8973268072
  0
LINE
  5
861
100
AcDbEntity
  8
RACCORDO
100
AcDbLine
 62
253
  6
CONTINUOUS
 10
144.3467280448
 20
117.9416643745
 11
146.7379843768
 21
117.9416643745
  0
LINE
  5
862
100
AcDbEntity
  8
RACCORDO
100
AcDbLine
 62
253
  6
CONTINUOUS
 10
125.4467280448
 20
118.342959204
 11
127.8379843768
 21
118.342959204
  0
LINE
  5
863
100
AcDbEntity
  8
RACCORDO
100
AcDbLine
 62
253
  6
CONTINUOUS
 10
144.3467280448
 20
118.342959204
 11
146.7379843768
 21
118.342959204
  0
LINE
  5
864
100
AcDbEntity
  8
RACCORDO
100
AcDbLine
 62
253
  6
CONTINUOUS
 10
146.4879886076
 20
118.5929549732
 11
144.5967238141
 21
118.5929549732
  0
LINE
  5
865
100
AcDbEntity
  8
RACCORDO
100
AcDbLine
 62
253
  6
CONTINUOUS
 10
127.5879886076
 20
118.5929549732
 11
125.6967238141
 21
118.5929549732
  0
LINE
  5
866
100
AcDbEntity
  8
RACCORDO
100
AcDbLine
 62
7
  6
CONTINUOUS
 10
146.4923604416
 20
118.5973268072
 11
144.5923519801
 21
118.5973268072
  0
LINE
  5
867
100
AcDbEntity
  8
RACCORDO
100
AcDbLine
 62
7
  6
CONTINUOUS
 10
127.5923604416
 20
118.5973268072
 11
125.6923519801
 21
118.5973268072
  0
LWPOLYLINE
  5
868
100
AcDbEntity
  8
RACCORDO
100
AcDbPolyline
 62
7
  6
CONTINUOUS
 90
34
 70
0
 10
125.6967238141
 20
117.7973268072
 10
125.6836993389
 20
117.7975803846
 10
125.6707697667
 20
117.7982057834
 10
125.6579691683
 20
117.7992030035
 10
125.6453191112
 20
117.8005846689
 10
125.6328629609
 20
117.8023381556
 10
125.6206644474
 20
117.8044255921
 10
125.6087638251
 20
117.8068480608
 10
125.5971734261
 20
117.8096044793
 10
125.5859114411
 20
117.8126537287
 10
125.5750002686
 20
117.8159962876
 10
125.5644601638
 20
117.8196316775
 10
125.5543042705
 20
117.8235173435
 10
125.544550129
 20
117.8276533316
 10
125.5352134139
 20
117.8320395959
 10
125.5263030795
 20
117.8366334432
 10
125.5178322366
 20
117.8414346686
 10
125.5098125043
 20
117.8464434771
 10
125.5022496009
 20
117.8516177905
 10
125.4951527085
 20
117.8569572732
 10
125.4885297994
 20
117.8624622608
 10
125.4823840555
 20
117.8680916829
 10
125.4767211745
 20
117.8738451334
 10
125.4715458173
 20
117.8797230184
 10
125.4668590393
 20
117.8856854849
 10
125.4626634143
 20
117.8917320693
 10
125.4589605641
 20
117.8978632351
 10
125.455749587
 20
117.9040405202
 10
125.45303022
 20
117.910263379
 10
125.4508012736
 20
117.9165323571
 10
125.4490599108
 20
117.9228106283
 10
125.4478031721
 20
117.9290859173
 10
125.4470274673
 20
117.9353704994
 10
125.4467280448
 20
117.9416643745
  0
LWPOLYLINE
  5
869
100
AcDbEntity
  8
RACCORDO
100
AcDbPolyline
 62
7
  6
CONTINUOUS
 90
34
 70
0
 10
127.5923604416
 20
118.5973268072
 10
127.6042557269
 20
118.597043657
 10
127.6161240664
 20
118.5961948415
 10
127.627938577
 20
118.5947822814
 10
127.6396724983
 20
118.5928091749
 10
127.6512992496
 20
118.5902799889
 10
127.6627924898
 20
118.5872004489
 10
127.6741261846
 20
118.5835775286
 10
127.6852746601
 20
118.579419433
 10
127.6962126571
 20
118.5747355794
 10
127.7069153984
 20
118.5695365761
 10
127.7173586391
 20
118.5638341989
 10
127.7275187168
 20
118.5576413654
 10
127.737372616
 20
118.5509721027
 10
127.7468980147
 20
118.5438415179
 10
127.7560733299
 20
118.5362657661
 10
127.7648777769
 20
118.5282620077
 10
127.7732914113
 20
118.5198483733
 10
127.7812951697
 20
118.5110439263
 10
127.7888709216
 20
118.5018686111
 10
127.7960015063
 20
118.4923432123
 10
127.802670769
 20
118.4824893131
 10
127.8088636025
 20
118.4723292355
 10
127.8145659797
 20
118.4618859948
 10
127.819764983
 20
118.4511832535
 10
127.8244488366
 20
118.4402452565
 10
127.8286069322
 20
118.429096781
 10
127.8322298525
 20
118.4177630862
 10
127.8353093926
 20
118.406269846
 10
127.8378385786
 20
118.3946430947
 10
127.839811685
 20
118.3829091734
 10
127.8412242451
 20
118.3710946628
 10
127.8420730606
 20
118.3592263232
 10
127.8423562108
 20
118.347331038
  0
LWPOLYLINE
  5
86A
100
AcDbEntity
  8
RACCORDO
100
AcDbPolyline
 62
7
  6
CONTINUOUS
 90
34
 70
0
 10
146.4923604416
 20
118.5973268072
 10
146.5042557269
 20
118.597043657
 10
146.5161240664
 20
118.5961948415
 10
146.527938577
 20
118.5947822814
 10
146.5396724983
 20
118.5928091749
 10
146.5512992496
 20
118.5902799889
 10
146.5627924898
 20
118.5872004489
 10
146.5741261846
 20
118.5835775286
 10
146.5852746601
 20
118.579419433
 10
146.5962126571
 20
118.5747355794
 10
146.6069153984
 20
118.5695365761
 10
146.6173586391
 20
118.5638341989
 10
146.6275187168
 20
118.5576413654
 10
146.637372616
 20
118.5509721027
 10
146.6468980147
 20
118.5438415179
 10
146.6560733299
 20
118.5362657661
 10
146.6648777769
 20
118.5282620077
 10
146.6732914113
 20
118.5198483733
 10
146.6812951697
 20
118.5110439263
 10
146.6888709216
 20
118.5018686111
 10
146.6960015063
 20
118.4923432123
 10
146.702670769
 20
118.4824893131
 10
146.7088636025
 20
118.4723292355
 10
146.7145659797
 20
118.4618859948
 10
146.719764983
 20
118.4511832535
 10
146.7244488366
 20
118.4402452565
 10
146.7286069322
 20
118.429096781
 10
146.7322298525
 20
118.4177630862
 10
146.7353093926
 20
118.406269846
 10
146.7378385786
 20
118.3946430947
 10
146.739811685
 20
118.3829091734
 10
146.7412242451
 20
118.3710946628
 10
146.7420730606
 20
118.3592263232
 10
146.7423562108
 20
118.347331038
  0
LWPOLYLINE
  5
86B
100
AcDbEntity
  8
RACCORDO
100
AcDbPolyline
 62
253
  6
CONTINUOUS
 90
31
 70
0
 10
127.5879886076
 20
118.5929549732
 10
127.6010720936
 20
118.5926119347
 10
127.6141197202
 20
118.5915846448
 10
127.6270957264
 20
118.5898759192
 10
127.6399645472
 20
118.5874904412
 10
127.6526909118
 20
118.584434749
 10
127.6652399394
 20
118.5807172177
 10
127.6775772357
 20
118.5763480362
 10
127.6896689863
 20
118.5713391797
 10
127.7014820501
 20
118.5657043765
 10
127.7129840497
 20
118.5594590706
 10
127.7241434602
 20
118.5526203792
 10
127.7349296958
 20
118.5452070458
 10
127.7453131935
 20
118.5372393891
 10
127.7552654939
 20
118.5287392468
 10
127.7647593198
 20
118.5197299162
 10
127.7737686504
 20
118.5102360903
 10
127.7822687927
 20
118.5002837899
 10
127.7902364494
 20
118.4899002922
 10
127.7976497828
 20
118.4791140566
 10
127.8044884742
 20
118.4679546461
 10
127.8107337801
 20
118.4564526465
 10
127.8163685833
 20
118.4446395827
 10
127.8213774398
 20
118.4325478321
 10
127.8257466213
 20
118.4202105358
 10
127.8294641527
 20
118.4076615081
 10
127.8325198449
 20
118.3949351436
 10
127.8349053228
 20
118.3820663227
 10
127.8366140484
 20
118.3690903166
 10
127.8376413383
 20
118.35604269
 10
127.8379843768
 20
118.342959204
  0
LWPOLYLINE
  5
86C
100
AcDbEntity
  8
RACCORDO
100
AcDbPolyline
 62
253
  6
CONTINUOUS
 90
31
 70
0
 10
146.4879886076
 20
118.5929549732
 10
146.5010409476
 20
118.592613566
 10
146.514065842
 20
118.5915903034
 10
146.5270276166
 20
118.5898866992
 10
146.5398933353
 20
118.587505569
 10
146.5526248005
 20
118.5844524556
 10
146.5651789851
 20
118.5807370159
 10
146.577518789
 20
118.5763704648
 10
146.5896131451
 20
118.5713640349
 10
146.6014292234
 20
118.5657312863
 10
146.6129348238
 20
118.5594874847
 10
146.6240981422
 20
118.5526498028
 10
146.6348882214
 20
118.5452371728
 10
146.6452753473
 20
118.5372700306
 10
146.6552311844
 20
118.5287701336
 10
146.6647285189
 20
118.5197607118
 10
146.673741338
 20
118.5102664187
 10
146.6822448795
 20
118.5003133152
 10
146.6902157877
 20
118.489928726
 10
146.6976321945
 20
118.4791411357
 10
146.7044737703
 20
118.4679801097
 10
146.7107217495
 20
118.4564762539
 10
146.7163589978
 20
118.4446611083
 10
146.7213700533
 20
118.432567071
 10
146.7257411683
 20
118.4202273149
 10
146.7294603578
 20
118.4076756675
 10
146.732517419
 20
118.3949465535
 10
146.7349039617
 20
118.3820749139
 10
146.7366134449
 20
118.3690960565
 10
146.7376411878
 20
118.3560455581
 10
146.7379843768
 20
118.342959204
  0
LWPOLYLINE
  5
86D
100
AcDbEntity
  8
RACCORDO
100
AcDbPolyline
 62
7
  6
CONTINUOUS
 90
10
 70
0
 10
146.9539210844
 20
116.4455975119
 10
146.9456947604
 20
116.4496152289
 10
146.9244246598
 20
116.4591444812
 10
146.9026688651
 20
116.4676722228
 10
146.8804966419
 20
116.4751638013
 10
146.857936988
 20
116.481602305
 10
146.8350594625
 20
116.4869608485
 10
146.8120000873
 20
116.4912084111
 10
146.788841324
 20
116.4943389714
 10
146.7656088298
 20
116.4963581695
  0
LINE
  5
86E
100
AcDbEntity
  8
RACCORDO
100
AcDbLine
 62
253
  6
CONTINUOUS
 10
146.7347518673
 20
116.4973268072
 11
146.7522069322
 21
116.4885999394
  0
ARC
  5
86F
100
AcDbEntity
  8
0
100
AcDbCircle
 62
253
  6
CONTINUOUS
 10
142.0915252108
 20
104.1004838072
 40
1.1402490105
100
AcDbArc
 50
1.4458021996
 51
61.0169840352
  0
ARC
  5
870
100
AcDbEntity
  8
0
100
AcDbCircle
 62
253
  6
CONTINUOUS
 10
129.8432132108
 20
96.8473268072
 40
0.75
100
AcDbArc
 50
270.0
 51
90.0
  0
ARC
  5
871
100
AcDbEntity
  8
0
100
AcDbCircle
 62
253
  6
CONTINUOUS
 10
129.8432132108
 20
98.3473268072
 40
0.75
100
AcDbArc
 50
90.0
 51
270.0
  0
CIRCLE
  5
872
100
AcDbEntity
  8
0
100
AcDbCircle
 62
253
  6
CONTINUOUS
 10
142.0918052108
 20
104.0988068072
 40
0.591552
  0
CIRCLE
  5
873
100
AcDbEntity
  8
0
100
AcDbCircle
 62
253
  6
CONTINUOUS
 10
142.0918052108
 20
104.0988068072
 40
0.419297
  0
ELLIPSE
  5
874
100
AcDbEntity
  8
0
100
AcDbEllipse
 62
7
  6
CONTINUOUS
 10
145.3502284189
 20
75.7762540442
 30
0.0
 11
-0.3827517265
 21
0.924044409
 31
0.0
 40
0.9998215708
 41
-3.5342286494
 42
-2.7489566578
  0
ELLIPSE
  5
875
100
AcDbEntity
  8
0
100
AcDbEllipse
 62
7
  6
CONTINUOUS
 10
144.7777468277
 20
76.6182014397
 30
0.0
 11
-1.8480888181
 21
0.7655034529
 31
0.0
 40
0.9998215708
 41
9.032141965
 42
9.8174139566
  0
ELLIPSE
  5
876
100
AcDbEntity
  8
DRAFT
100
AcDbEllipse
 62
7
  6
CONTINUOUS
 10
133.5923562108
 20
114.141833833
 30
0.0
 11
1.0
 21
0.0
 31
0.0
 40
0.0087268678
 41
1.5707963268
 42
3.1415926536
  0
ELLIPSE
  5
877
100
AcDbEntity
  8
DRAFT
100
AcDbEllipse
 62
7
  6
CONTINUOUS
 10
133.5923562108
 20
74.0528197815
 30
0.0
 11
1.0
 21
0.0
 31
0.0
 40
0.0087268678
 41
3.1415926536
 42
4.7123889804
  0
ELLIPSE
  5
878
100
AcDbEntity
  8
DRAFT
100
AcDbEllipse
 62
7
  6
CONTINUOUS
 10
136.0923562108
 20
114.2797183441
 30
0.0
 11
15.0
 21
-0.0
 31
0.0
 40
0.0087268678
 41
-1.7342776332
 42
-1.4073150204
  0
ELLIPSE
  5
879
100
AcDbEntity
  8
DRAFT
100
AcDbEllipse
 62
7
  6
CONTINUOUS
 10
138.5923562108
 20
114.141833833
 30
0.0
 11
1.0
 21
0.0
 31
0.0
 40
0.0087268678
 41
-0.0
 42
1.5707963268
  0
ELLIPSE
  5
87A
100
AcDbEntity
  8
DRAFT
100
AcDbEllipse
 62
7
  6
CONTINUOUS
 10
136.0923562108
 20
73.9149352704
 30
0.0
 11
15.0
 21
0.0
 31
0.0
 40
0.0087268678
 41
1.4073150204
 42
1.7342776332
  0
ELLIPSE
  5
87B
100
AcDbEntity
  8
DRAFT
100
AcDbEllipse
 62
7
  6
CONTINUOUS
 10
138.5923562108
 20
74.0528197815
 30
0.0
 11
1.0
 21
0.0
 31
0.0
 40
0.0087268678
 41
-1.5707963268
 42
0.0
  0
ELLIPSE
  5
87C
100
AcDbEntity
  8
DRAFT
100
AcDbEllipse
 62
7
  6
CONTINUOUS
 10
140.0203261985
 20
71.7634069121
 30
0.0
 11
0.4279699877
 21
0.0
 31
0.0
 40
0.0087268678
 41
0.0058177642
 42
3.1415926536
  0
ELLIPSE
  5
87D
100
AcDbEntity
  8
DRAFT
100
AcDbEllipse
 62
7
  6
CONTINUOUS
 10
132.1643862232
 20
71.7634069121
 30
0.0
 11
0.4279699877
 21
0.0
 31
0.0
 40
0.0087268678
 41
0.0
 42
3.1357748894
  0
ELLIPSE
  5
87E
100
AcDbEntity
  8
DRAFT
100
AcDbEllipse
 62
7
  6
CONTINUOUS
 10
140.0203261985
 20
116.4312467024
 30
0.0
 11
0.4279699877
 21
0.0
 31
0.0
 40
0.0087268678
 41
-3.1415926536
 42
-0.0058177642
  0
ELLIPSE
  5
87F
100
AcDbEntity
  8
DRAFT
100
AcDbEllipse
 62
7
  6
CONTINUOUS
 10
132.1643862232
 20
116.4312467024
 30
0.0
 11
0.4279699877
 21
0.0
 31
0.0
 40
0.0087268678
 41
-3.1357748894
 42
-0.0
  0
ELLIPSE
  5
880
100
AcDbEntity
  8
RACCORDO
100
AcDbEllipse
 62
7
  6
CONTINUOUS
 10
125.4324308516
 20
72.1960723334
 30
0.0
 11
-0.4383594471
 21
0.2191630312
 31
0.0
 40
0.9998096356
 41
6.7467263073
 42
8.3176749331
  0
ELLIPSE
  5
881
100
AcDbEntity
  8
ASSI
100
AcDbEllipse
 62
7
  6
CONTINUOUS
 10
140.4487224873
 20
70.8409689925
 30
0.0
 11
0.0
 21
0.5
 31
0.0
 40
0.0058178298
 41
-3.2911896616
 42
-3.1474104178
  0
ELLIPSE
  5
882
100
AcDbEntity
  8
ASSI
100
AcDbEllipse
 62
7
  6
CONTINUOUS
 10
131.7359899344
 20
70.8409689925
 30
0.0
 11
-0.0
 21
0.5
 31
0.0
 40
0.0058178298
 41
-3.1357748894
 42
-2.9919956456
  0
ELLIPSE
  5
883
100
AcDbEntity
  8
ASSI
100
AcDbEllipse
 62
7
  6
CONTINUOUS
 10
131.7360068577
 20
117.356585026
 30
0.0
 11
-0.0
 21
0.4970911343
 31
0.0
 40
0.0058178298
 41
-0.144563023
 42
-0.0116355283
  0
ELLIPSE
  5
884
100
AcDbEntity
  8
ASSI
100
AcDbEllipse
 62
7
  6
CONTINUOUS
 10
140.448705564
 20
117.356585026
 30
0.0
 11
0.0
 21
0.4970911343
 31
0.0
 40
0.0058178298
 41
0.0116355283
 42
0.1445630231
  0
ELLIPSE
  5
885
100
AcDbEntity
  8
RACCORDO
100
AcDbEllipse
 62
7
  6
CONTINUOUS
 10
146.7522815701
 20
115.998581281
 30
0.0
 11
0.4383594471
 21
-0.2191630312
 31
0.0
 40
0.9998096356
 41
6.7467263073
 42
8.3176749331
  0
ELLIPSE
  5
886
100
AcDbEntity
  8
RACCORDO
100
AcDbEllipse
 62
7
  6
CONTINUOUS
 10
129.7370868276
 20
114.6802510904
 30
0.0
 11
0.0
 21
0.5
 31
0.0
 40
0.0058178298
 41
-4.7123889804
 42
-3.1503192998
  0
ELLIPSE
  5
887
100
AcDbEntity
  8
RACCORDO
100
AcDbEllipse
 62
7
  6
CONTINUOUS
 10
142.447625594
 20
114.6802510904
 30
0.0
 11
-0.0
 21
0.5
 31
0.0
 40
0.0058178298
 41
-3.1328660073
 42
-1.5707963268
  0
ELLIPSE
  5
888
100
AcDbEntity
  8
RACCORDO
100
AcDbEllipse
 62
7
  6
CONTINUOUS
 10
142.447625594
 20
73.514402524
 30
0.0
 11
0.0
 21
0.5
 31
0.0
 40
0.0058178298
 41
-1.5707963268
 42
-0.0087266463
  0
ELLIPSE
  5
889
100
AcDbEntity
  8
RACCORDO
100
AcDbEllipse
 62
7
  6
CONTINUOUS
 10
129.7370868276
 20
73.514402524
 30
0.0
 11
0.0
 21
0.5
 31
0.0
 40
0.0058178298
 41
0.0087266463
 42
1.5707963268
  0
ELLIPSE
  5
88A
100
AcDbEntity
  8
RACCORDO
100
AcDbEllipse
 62
7
  6
CONTINUOUS
 10
142.449370943
 20
114.0543449241
 30
0.0
 11
-0.0
 21
0.2
 31
0.0
 40
0.0058178298
 41
-3.1357748894
 42
-1.5707963268
  0
ELLIPSE
  5
88B
100
AcDbEntity
  8
RACCORDO
100
AcDbEllipse
 62
7
  6
CONTINUOUS
 10
143.3353414787
 20
114.0543449241
 30
0.0
 11
-0.0
 21
0.2
 31
0.0
 40
0.0058178298
 41
-4.7123889804
 42
-3.1474104178
  0
ELLIPSE
  5
88C
100
AcDbEntity
  8
RACCORDO
100
AcDbEllipse
 62
7
  6
CONTINUOUS
 10
128.849370943
 20
114.0543449241
 30
0.0
 11
-0.0
 21
0.2
 31
0.0
 40
0.0058178298
 41
-3.1357748894
 42
-1.5707963268
  0
ELLIPSE
  5
88D
100
AcDbEntity
  8
RACCORDO
100
AcDbEllipse
 62
7
  6
CONTINUOUS
 10
129.7353414787
 20
114.0543449241
 30
0.0
 11
-0.0
 21
0.2
 31
0.0
 40
0.0058178298
 41
-4.7123889804
 42
-3.1474104178
  0
ELLIPSE
  5
88E
100
AcDbEntity
  8
RACCORDO
100
AcDbEllipse
 62
7
  6
CONTINUOUS
 10
129.7353414787
 20
74.1403086904
 30
0.0
 11
0.0
 21
0.2
 31
0.0
 40
0.0058178298
 41
0.0058177642
 42
1.5707963268
  0
ELLIPSE
  5
88F
100
AcDbEntity
  8
RACCORDO
100
AcDbEllipse
 62
7
  6
CONTINUOUS
 10
128.849370943
 20
74.1403086904
 30
0.0
 11
0.0
 21
0.2
 31
0.0
 40
0.0058178298
 41
-1.5707963268
 42
-0.0058177642
  0
ELLIPSE
  5
890
100
AcDbEntity
  8
RACCORDO
100
AcDbEllipse
 62
7
  6
CONTINUOUS
 10
143.3353414787
 20
74.1403086904
 30
0.0
 11
0.0
 21
0.2
 31
0.0
 40
0.0058178298
 41
0.0058177642
 42
1.5707963268
  0
ELLIPSE
  5
891
100
AcDbEntity
  8
RACCORDO
100
AcDbEllipse
 62
7
  6
CONTINUOUS
 10
142.449370943
 20
74.1403086904
 30
0.0
 11
0.0
 21
0.2
 31
0.0
 40
0.0058178298
 41
-1.5707963268
 42
-0.0058177642
  0
ELLIPSE
  5
892
100
AcDbEntity
  8
RACCORDO
100
AcDbEllipse
 62
7
  6
CONTINUOUS
 10
144.5923604417
 20
117.5086516726
 30
0.0
 11
0.0029088041
 21
0.2886641433
 31
0.0
 40
0.8660144118
 41
-4.7007536982
 42
-3.1328662412
  0
ELLIPSE
  5
893
100
AcDbEntity
  8
RACCORDO
100
AcDbEllipse
 62
7
  6
CONTINUOUS
 10
146.7522815701
 20
72.1960723334
 30
0.0
 11
-0.4383594471
 21
-0.2191630312
 31
0.0
 40
0.9998096356
 41
1.1071030277
 42
2.6780516535
  0
ELLIPSE
  5
894
100
AcDbEntity
  8
RACCORDO
100
AcDbEllipse
 62
7
  6
CONTINUOUS
 10
146.49235198
 20
117.5086516726
 30
0.0
 11
-0.0029088041
 21
0.2886641433
 31
0.0
 40
0.8660144118
 41
-3.150319066
 42
-1.582431609
  0
ELLIPSE
  5
895
100
AcDbEntity
  8
RACCORDO
100
AcDbEllipse
 62
7
  6
CONTINUOUS
 10
125.4324308516
 20
115.998581281
 30
0.0
 11
0.4383594471
 21
0.2191630312
 31
0.0
 40
0.9998096356
 41
1.1071030277
 42
2.6780516535
  0
ELLIPSE
  5
896
100
AcDbEntity
  8
RACCORDO
100
AcDbEllipse
 62
7
  6
CONTINUOUS
 10
125.6923604417
 20
117.5086516726
 30
0.0
 11
0.0029088041
 21
0.2886641433
 31
0.0
 40
0.8660144118
 41
-4.7007536982
 42
-3.1328662411
  0
ELLIPSE
  5
897
100
AcDbEntity
  8
RACCORDO
100
AcDbEllipse
 62
7
  6
CONTINUOUS
 10
127.59235198
 20
117.5086516726
 30
0.0
 11
-0.0029088041
 21
0.2886641433
 31
0.0
 40
0.8660144118
 41
-3.150319066
 42
-1.582431609
  0
ELLIPSE
  5
898
100
AcDbEntity
  8
RACCORDO
100
AcDbEllipse
 62
7
  6
CONTINUOUS
 10
125.6923604417
 20
70.6860019418
 30
0.0
 11
-0.0029088041
 21
0.2886641433
 31
0.0
 40
0.8660144118
 41
-0.0087264124
 42
1.5591610446
  0
ELLIPSE
  5
899
100
AcDbEntity
  8
RACCORDO
100
AcDbEllipse
 62
7
  6
CONTINUOUS
 10
127.59235198
 20
70.6860019418
 30
0.0
 11
0.0029088041
 21
0.2886641433
 31
0.0
 40
0.8660144118
 41
-1.5591610446
 42
0.0087264124
  0
ELLIPSE
  5
89A
100
AcDbEntity
  8
RACCORDO
100
AcDbEllipse
 62
7
  6
CONTINUOUS
 10
146.49235198
 20
70.6860019418
 30
0.0
 11
0.0029088041
 21
0.2886641433
 31
0.0
 40
0.8660144118
 41
-1.5591610446
 42
0.0087264124
  0
ELLIPSE
  5
89B
100
AcDbEntity
  8
RACCORDO
100
AcDbEllipse
 62
7
  6
CONTINUOUS
 10
144.5923604417
 20
70.6860019418
 30
0.0
 11
-0.0029088041
 21
0.2886641433
 31
0.0
 40
0.8660144118
 41
-0.0087264124
 42
1.5591610446
  0
ELLIPSE
  5
89C
100
AcDbEntity
  8
DRAFT
100
AcDbEllipse
 62
7
  6
CONTINUOUS
 10
145.6359147246
 20
102.8973268072
 30
0.0
 11
0.0
 21
2.1
 31
0.0
 40
0.0087268678
 41
-3.1415926536
 42
-0.0
  0
ELLIPSE
  5
89D
100
AcDbEntity
  8
DRAFT
100
AcDbEllipse
 62
7
  6
CONTINUOUS
 10
145.6359147246
 20
107.8973268072
 30
0.0
 11
-0.0
 21
2.1
 31
0.0
 40
0.0087268678
 41
-3.1415926536
 42
-0.0
  0
ELLIPSE
  5
89E
100
AcDbEntity
  8
RACCORDO
100
AcDbEllipse
 62
7
  6
CONTINUOUS
 10
145.2420515548
 20
111.7687734898
 30
0.0
 11
1.8480888181
 21
0.7655034529
 31
0.0
 40
0.9998215708
 41
-0.3926359958
 42
0.3926359958
  0
ELLIPSE
  5
89F
100
AcDbEntity
  8
RACCORDO
100
AcDbEllipse
 62
7
  6
CONTINUOUS
 10
145.2420515548
 20
76.4258801247
 30
0.0
 11
1.8480888181
 21
-0.7655034529
 31
0.0
 40
0.9998215708
 41
-0.3926359958
 42
0.3926359958
  0
ELLIPSE
  5
8A0
100
AcDbEntity
  8
RACCORDO
100
AcDbEllipse
 62
7
  6
CONTINUOUS
 10
126.9426608669
 20
76.4258801247
 30
0.0
 11
1.8480888181
 21
0.7655034529
 31
0.0
 40
0.9998215708
 41
2.7489566578
 42
3.5342286494
  0
ELLIPSE
  5
8A1
100
AcDbEntity
  8
RACCORDO
100
AcDbEllipse
 62
7
  6
CONTINUOUS
 10
126.9426608669
 20
111.7687734898
 30
0.0
 11
1.8480888181
 21
-0.7655034529
 31
0.0
 40
0.9998215708
 41
2.7489566578
 42
3.5342286494
  0
ELLIPSE
  5
8A2
100
AcDbEntity
  8
RACCORDO
100
AcDbEllipse
 62
7
  6
CONTINUOUS
 10
144.7794923342
 20
76.6174784272
 30
0.0
 11
-1.8480888181
 21
0.7655034529
 31
0.0
 40
0.9998215708
 41
9.032141965
 42
9.8174139566
  0
ELLIPSE
  5
8A3
100
AcDbEntity
  8
DRAFT
100
AcDbEllipse
 62
7
  6
CONTINUOUS
 10
146.6794303669
 20
107.8973268072
 30
0.0
 11
0.0
 21
2.1
 31
0.0
 40
0.0174550649
 41
-3.1415926536
 42
0.0
  0
ELLIPSE
  5
8A4
100
AcDbEntity
  8
DRAFT
100
AcDbEllipse
 62
7
  6
CONTINUOUS
 10
146.6794303669
 20
102.8973268072
 30
0.0
 11
-0.0
 21
2.1
 31
0.0
 40
0.0174550649
 41
-3.1415926536
 42
0.0
  0
ELLIPSE
  5
8A5
100
AcDbEntity
  8
RACCORDO
100
AcDbEllipse
 62
7
  6
CONTINUOUS
 10
145.4702484877
 20
75.4864999664
 30
0.0
 11
-0.3827517265
 21
0.924044409
 31
0.0
 40
0.9998215708
 41
-3.5342286494
 42
-2.7489566578
  0
ELLIPSE
  5
8A6
100
AcDbEntity
  8
RACCORDO
100
AcDbEllipse
 62
7
  6
CONTINUOUS
 10
126.714463934
 20
75.4864999664
 30
0.0
 11
0.3827517265
 21
0.924044409
 31
0.0
 40
0.9998215708
 41
-3.5342286494
 42
-2.7489566578
  0
ELLIPSE
  5
8A7
100
AcDbEntity
  8
RACCORDO
100
AcDbEllipse
 62
7
  6
CONTINUOUS
 10
137.6904736091
 20
74.1990723137
 30
0.0
 11
0.9
 21
-0.0
 31
0.0
 40
0.0174550649
 41
0.0174532925
 42
1.5707963268
  0
ELLIPSE
  5
8A8
100
AcDbEntity
  8
RACCORDO
100
AcDbEllipse
 62
7
  6
CONTINUOUS
 10
145.5789114155
 20
91.1976477084
 30
0.0
 11
0.0
 21
1.0087649462
 31
0.0
 40
0.9913112106
 41
-1.5533430343
 42
-0.0
  0
ELLIPSE
  5
8A9
100
AcDbEntity
  8
RACCORDO
100
AcDbEllipse
 62
7
  6
CONTINUOUS
 10
126.714463934
 20
112.7081536481
 30
0.0
 11
-0.3827517265
 21
0.924044409
 31
0.0
 40
0.9998215708
 41
-0.3926359958
 42
0.3926359958
  0
ELLIPSE
  5
8AA
100
AcDbEntity
  8
RACCORDO
100
AcDbEllipse
 62
7
  6
CONTINUOUS
 10
134.4942388126
 20
113.9955813007
 30
0.0
 11
0.9
 21
-0.0
 31
0.0
 40
0.0174550649
 41
-3.1241393611
 42
-1.5707963268
  0
ELLIPSE
  5
8AB
100
AcDbEntity
  8
RACCORDO
100
AcDbEllipse
 62
7
  6
CONTINUOUS
 10
145.4702484877
 20
112.7081536481
 30
0.0
 11
0.3827517265
 21
0.924044409
 31
0.0
 40
0.9998215708
 41
-0.3926359958
 42
0.3926359958
  0
ELLIPSE
  5
8AC
100
AcDbEntity
  8
RACCORDO
100
AcDbEllipse
 62
7
  6
CONTINUOUS
 10
137.6904736091
 20
113.9955813007
 30
0.0
 11
0.9
 21
0.0
 31
0.0
 40
0.0174550649
 41
-1.5707963268
 42
-0.0174532925
  0
ELLIPSE
  5
8AD
100
AcDbEntity
  8
RACCORDO
100
AcDbEllipse
 62
7
  6
CONTINUOUS
 10
145.3509514314
 20
75.7745085377
 30
0.0
 11
0.3827517265
 21
-0.924044409
 31
0.0
 40
0.9998215708
 41
5.8905493114
 42
6.675821303
  0
ELLIPSE
  5
8AE
100
AcDbEntity
  8
RACCORDO
100
AcDbEllipse
 62
7
  6
CONTINUOUS
 10
134.4942388126
 20
74.1990723137
 30
0.0
 11
0.9
 21
0.0
 31
0.0
 40
0.0174550649
 41
1.5707963268
 42
3.1241393611
  0
ELLIPSE
  5
8AF
100
AcDbEntity
  8
ASSI
100
AcDbEllipse
 62
7
  6
CONTINUOUS
 10
126.9426608669
 20
111.7687734898
 30
0.0
 11
1.8480888181
 21
-0.7655034529
 31
0.0
 40
0.9998215708
 41
2.7489566578
 42
3.5342286494
  0
ELLIPSE
  5
8B0
100
AcDbEntity
  8
ASSI
100
AcDbEllipse
 62
7
  6
CONTINUOUS
 10
126.9426608669
 20
76.4258801247
 30
0.0
 11
1.8480888181
 21
0.7655034529
 31
0.0
 40
0.9998215708
 41
2.7489566578
 42
3.5342286494
  0
ELLIPSE
  5
8B1
100
AcDbEntity
  8
ASSI
100
AcDbEllipse
 62
7
  6
CONTINUOUS
 10
145.2420515548
 20
76.4258801247
 30
0.0
 11
1.8480888181
 21
-0.7655034529
 31
0.0
 40
0.9998215708
 41
-0.3926359958
 42
0.3926359958
  0
ELLIPSE
  5
8B2
100
AcDbEntity
  8
ASSI
100
AcDbEllipse
 62
7
  6
CONTINUOUS
 10
145.2420515548
 20
111.7687734898
 30
0.0
 11
1.8480888181
 21
0.7655034529
 31
0.0
 40
0.9998215708
 41
-0.3926359958
 42
0.3926359958
  0
ELLIPSE
  5
8B3
100
AcDbEntity
  8
ASSI
100
AcDbEllipse
 62
7
  6
CONTINUOUS
 10
145.6359147246
 20
107.8973268072
 30
0.0
 11
-0.0
 21
2.1
 31
0.0
 40
0.0087268678
 41
-3.1415926536
 42
-0.0
  0
ELLIPSE
  5
8B4
100
AcDbEntity
  8
ASSI
100
AcDbEllipse
 62
7
  6
CONTINUOUS
 10
145.6359147246
 20
102.8973268072
 30
0.0
 11
0.0
 21
2.1
 31
0.0
 40
0.0087268678
 41
-3.1415926536
 42
-0.0
  0
ELLIPSE
  5
8B5
100
AcDbEntity
  8
ASSI
100
AcDbEllipse
 62
7
  6
CONTINUOUS
 10
145.5789114155
 20
91.1976477084
 30
0.0
 11
0.0
 21
1.0087649462
 31
0.0
 40
0.9913112106
 41
-1.5533430343
 42
-0.0
  0
ELLIPSE
  5
8B6
100
AcDbEntity
  8
ASSI
100
AcDbEllipse
 62
7
  6
CONTINUOUS
 10
137.6904736091
 20
74.1990723137
 30
0.0
 11
0.9
 21
-0.0
 31
0.0
 40
0.0174550649
 41
0.0174532925
 42
1.5707963268
  0
ELLIPSE
  5
8B7
100
AcDbEntity
  8
ASSI
100
AcDbEllipse
 62
7
  6
CONTINUOUS
 10
134.4942388126
 20
74.1990723137
 30
0.0
 11
0.9
 21
0.0
 31
0.0
 40
0.0174550649
 41
1.5707963268
 42
3.1241393611
  0
ELLIPSE
  5
8B8
100
AcDbEntity
  8
ASSI
100
AcDbEllipse
 62
7
  6
CONTINUOUS
 10
137.6904736091
 20
113.9955813007
 30
0.0
 11
0.9
 21
0.0
 31
0.0
 40
0.0174550649
 41
-1.5707963268
 42
-0.0174532925
  0
ELLIPSE
  5
8B9
100
AcDbEntity
  8
ASSI
100
AcDbEllipse
 62
7
  6
CONTINUOUS
 10
134.4942388126
 20
113.9955813007
 30
0.0
 11
0.9
 21
-0.0
 31
0.0
 40
0.0174550649
 41
-3.1241393611
 42
-1.5707963268
  0
ELLIPSE
  5
8BA
100
AcDbEntity
  8
ASSI
100
AcDbEllipse
 62
7
  6
CONTINUOUS
 10
144.7794923342
 20
76.6174784272
 30
0.0
 11
-1.8480888181
 21
0.7655034529
 31
0.0
 40
0.9998215708
 41
9.032141965
 42
9.8174139566
  0
ELLIPSE
  5
8BB
100
AcDbEntity
  8
ASSI
100
AcDbEllipse
 62
7
  6
CONTINUOUS
 10
145.4702484877
 20
112.7081536481
 30
0.0
 11
0.3827517265
 21
0.924044409
 31
0.0
 40
0.9998215708
 41
-0.3926359958
 42
0.3926359958
  0
ELLIPSE
  5
8BC
100
AcDbEntity
  8
ASSI
100
AcDbEllipse
 62
7
  6
CONTINUOUS
 10
126.714463934
 20
112.7081536481
 30
0.0
 11
-0.3827517265
 21
0.924044409
 31
0.0
 40
0.9998215708
 41
-0.3926359958
 42
0.3926359958
  0
ELLIPSE
  5
8BD
100
AcDbEntity
  8
ASSI
100
AcDbEllipse
 62
7
  6
CONTINUOUS
 10
126.714463934
 20
75.4864999664
 30
0.0
 11
0.3827517265
 21
0.924044409
 31
0.0
 40
0.9998215708
 41
-3.5342286494
 42
-2.7489566578
  0
ELLIPSE
  5
8BE
100
AcDbEntity
  8
ASSI
100
AcDbEllipse
 62
7
  6
CONTINUOUS
 10
145.4702484877
 20
75.4864999664
 30
0.0
 11
-0.3827517265
 21
0.924044409
 31
0.0
 40
0.9998215708
 41
-3.5342286494
 42
-2.7489566578
  0
ELLIPSE
  5
8BF
100
AcDbEntity
  8
ASSI
100
AcDbEllipse
 62
7
  6
CONTINUOUS
 10
145.3509514314
 20
75.7745085377
 30
0.0
 11
0.3827517265
 21
-0.924044409
 31
0.0
 40
0.9998215708
 41
5.8905493114
 42
6.675821303
  0
ELLIPSE
  5
8C0
100
AcDbEntity
  8
ASSI
100
AcDbEllipse
 62
7
  6
CONTINUOUS
 10
146.6794303669
 20
107.8973268072
 30
0.0
 11
0.0
 21
2.1
 31
0.0
 40
0.0174550649
 41
-3.1415926536
 42
0.0
  0
ELLIPSE
  5
8C1
100
AcDbEntity
  8
ASSI
100
AcDbEllipse
 62
7
  6
CONTINUOUS
 10
146.6794303669
 20
102.8973268072
 30
0.0
 11
-0.0
 21
2.1
 31
0.0
 40
0.0174550649
 41
-3.1415926536
 42
0.0
  0
ENDSEC
  0
SECTION
  2
OBJECTS
  0
DICTIONARY
  5
C
100
AcDbDictionary
280
0
281
1
  3
ACAD_GROUP
350
D
  3
ACAD_MLINESTYLE
350
17
  3
ACAD_LAYOUT
350
1A
  3
ACAD_PLOTSETTINGS
350
19
  3
ACAD_PLOTSTYLENAME
350
E
  0
DICTIONARY
  5
D
102
{ACAD_REACTORS
330
C
102
}
100
AcDbDictionary
280
0
281
1
  0
ACDBDICTIONARYWDFLT
  5
E
102
{ACAD_REACTORS
330
C
102
}
100
AcDbDictionary
281
1
  3
Normal
350
F
100
AcDbDictionaryWithDefault
340
F
  0
DICTIONARY
  5
17
102
{ACAD_REACTORS
330
C
102
}
100
AcDbDictionary
280
0
281
1
  3
Standard
350
18
  0
DICTIONARY
  5
19
102
{ACAD_REACTORS
330
C
102
}
100
AcDbDictionary
281
1
  0
DICTIONARY
  5
1A
102
{ACAD_REACTORS
330
C
102
}
100
AcDbDictionary
281
1
  3
Model
350
8C2
  3
Layout1
350
8C3
  0
ACDBPLACEHOLDER
  5
F
102
{ACAD_REACTORS
330
E
102
}
  0
MLINESTYLE
  5
18
102
{ACAD_REACTORS
330
17
102
}
100
AcDbMlineStyle
  2
STANDARD
 70
0
  3

 62
256
 51
90.0
 52
90.0
 71
2
 49
0.5
 62
256
  6
BYLAYER
 49
-0.5
 62
256
  6
BYLAYER
  0
LAYOUT
  5
8C2
102
{ACAD_REACTORS
330
1A
102
}
100
AcDbPlotSettings
  1

  2
none_device
  4
ISO_A4_(297.00_x_210.00_MM)
  6

 40
0.0
 41
0.0
 42
0.0
 43
0.0
 44
297.0
 45
210.0
 46
0.0
 47
0.0
 48
0.0
 49
0.0
140
0.0
141
0.0
142
1.0
143
1.0
 70
1024
 72
1
 73
0
 74
0
  7

 75
0
147
1.0
148
0.0
149
0.0
100
AcDbLayout
  1
Model
 70
0
 71
0
 10
0.0
 20
0.0
 11
297.0
 21
210.0
 12
0.0
 22
0.0
 32
0.0
 14
0.0
 24
0.0
 34
0.0
 15
0.0
 25
0.0
 35
0.0
146
0.0
 13
0.0
 23
0.0
 33
0.0
 16
1.0
 26
0.0
 36
0.0
 17
0.0
 27
1.0
 37
0.0
 76
0
330
2F5
345
0
346
0
  0
LAYOUT
  5
8C3
102
{ACAD_REACTORS
330
1A
102
}
100
AcDbPlotSettings
  1

  2
none_device
  4
ISO_A4_(297.00_x_210.00_MM)
  6

 40
0.0
 41
0.0
 42
0.0
 43
0.0
 44
297.0
 45
210.0
 46
0.0
 47
0.0
 48
0.0
 49
0.0
140
0.0
141
0.0
142
1.0
143
1.0
 70
0
 72
1
 73
0
 74
0
  7

 75
0
147
1.0
148
0.0
149
0.0
100
AcDbLayout
  1
Layout1
 70
0
 71
1
 10
0.0
 20
0.0
 11
297.0
 21
210.0
 12
0.0
 22
0.0
 32
0.0
 14
0.0
 24
0.0
 34
0.0
 15
0.0
 25
0.0
 35
0.0
146
0.0
 13
0.0
 23
0.0
 33
0.0
 16
1.0
 26
0.0
 36
0.0
 17
0.0
 27
1.0
 37
0.0
 76
0
330
2F6
345
0
346
0
  0
ENDSEC
  0
EOF
