  0
SECTION
  2
HEADER
  9
$ACADVER
  1
AC1015
  9
$DWGCODEPAGE
  3
ANSI_1252
  9
$EXTMAX
 10
297.0
 20
210.0
 30
0.0
  9
$EXTMIN
 10
0.0
 20
0.0
 30
0.0
  9
$LIMMIN
 10
0.0
 20
0.0
  9
$LIMMAX
 10
297.0
 20
210.0
  9
$VIEWCTR
 10
148.5
 20
105.0
  9
$VIEWSIZE
 40
210.0
  9
$CLAYER
  8
0
  9
$LTSCALE
 40
16.335
  9
$CELTYPE
  6
BYLAYER
  9
$DIMSCALE
 40
1.0
  9
$DIMASZ
 40
3.0
  9
$DIMEXO
 40
1.85625
  9
$DIMDLI
 40
11.286
  9
$DIMEXE
 40
5.346
  9
$DIMCEN
 40
2.673
  9
$DIMLFAC
 40
1.0
  9
$DIMBLK
  1
_FILLED
  9
$DIMTXT
 40
3.0
  9
$DIMTOL
 70
1
  9
$DIMLIM
 70
0
  9
$DIMTFAC
 40
1.0
  9
$DIMTP
 40
0.01
  9
$DIMTM
 40
0.01
  9
$PDMODE
 70
3
  9
$PDSIZE
 40
3.0
  9
$HANDSEED
  5
927
  9
$TILEMODE
 70
1
  9
$MEASUREMENT
 70
1
  9
$INSUNITS
 70
4
  0
ENDSEC
  0
SECTION
  2
CLASSES
  0
CLASS
  1
ACDBDICTIONARYWDFLT
  2
AcDbDictionaryWithDefault
  3
AutoCAD 2000
 90
0
280
0
281
0
  0
CLASS
  1
ACDBPLACEHOLDER
  2
AcDbPlaceHolder
  3
AutoCAD 2000
 90
0
280
0
281
0
  0
CLASS
  1
LAYOUT
  2
AcDbLayout
  3
AutoCAD 2000
 90
0
280
0
281
0
  0
ENDSEC
  0
SECTION
  2
TABLES
  0
TABLE
  2
VPORT
  5
8
100
AcDbSymbolTable
 70
2
  0
VPORT
  5
1F4
100
AcDbSymbolTableRecord
100
AcDbViewportTableRecord
  2
*ACTIVE
 70
0
 10
0.0
 20
0.0
 11
1.0
 21
1.0
 12
148.5
 22
105.0
 13
0.0
 23
0.0
 14
1.0
 24
1.0
 15
0.0
 25
0.0
 16
0.0
 26
0.0
 36
1.0
 17
0.0
 27
0.0
 37
0.0
 40
210.0
 41
1.4142857143
 42
50.0
 43
0.0
 44
0.0
 50
0.0
 51
0.0
 71
0
 72
100
 73
1
 74
1
 75
0
 76
0
 77
0
 78
0
  0
ENDTAB
  0
TABLE
  2
LTYPE
  5
5
100
AcDbSymbolTable
 70
6
  0
LTYPE
  5
14
100
AcDbSymbolTableRecord
100
AcDbLinetypeTableRecord
  2
BYBLOCK
 70
0
  3

 72
65
 73
0
 40
0.0
  0
LTYPE
  5
15
100
AcDbSymbolTableRecord
100
AcDbLinetypeTableRecord
  2
BYLAYER
 70
0
  3

 72
65
 73
0
 40
0.0
  0
LTYPE
  5
16
100
AcDbSymbolTableRecord
100
AcDbLinetypeTableRecord
  2
CONTINUOUS
 70
64
  3
Solid line
 72
65
 73
0
 40
0.0
  0
LTYPE
  5
1F5
100
AcDbSymbolTableRecord
100
AcDbLinetypeTableRecord
  2
CENTER
 70
64
  3
____ _ ____ _ ____ _ ____ _ ____ _ ____ _ ____
 72
65
 73
4
 40
0.6
 49
0.375
 74
0
 49
-0.075
 74
0
 49
0.075
 74
0
 49
-0.075
 74
0
  0
LTYPE
  5
1F6
100
AcDbSymbolTableRecord
100
AcDbLinetypeTableRecord
  2
HIDDEN
 70
64
  3
- - - - - - - - - - - - - - - - - - - -
 72
65
 73
2
 40
0.2
 49
0.1
 74
0
 49
-0.1
 74
0
  0
LTYPE
  5
1F7
100
AcDbSymbolTableRecord
100
AcDbLinetypeTableRecord
  2
PHANTOM
 70
64
  3
_____ _ _ _____ _ _ _____ _ _ _____
 72
65
 73
6
 40
0.8
 49
0.45
 74
0
 49
-0.05
 74
0
 49
0.1
 74
0
 49
-0.05
 74
0
 49
0.1
 74
0
 49
-0.05
 74
0
  0
LTYPE
  5
1F8
100
AcDbSymbolTableRecord
100
AcDbLinetypeTableRecord
  2
DOT
 70
64
  3
. . . . . . . . . . . . . . . . . . . .
 72
65
 73
2
 40
0.2
 49
0.1
 74
0
 49
-0.1
 74
0
  0
LTYPE
  5
1F9
100
AcDbSymbolTableRecord
100
AcDbLinetypeTableRecord
  2
DASHED
 70
64
  3
- - - - - - - - - - - - - - - - - - - -
 72
65
 73
2
 40
0.2
 49
0.1
 74
0
 49
-0.1
 74
0
  0
ENDTAB
  0
TABLE
  2
LAYER
  5
2
100
AcDbSymbolTable
 70
36
  0
LAYER
  5
10
100
AcDbSymbolTableRecord
100
AcDbLayerTableRecord
  2
0
 70
0
 62
7
  6
CONTINUOUS
370
-3
390
F
  0
LAYER
  5
1FA
100
AcDbSymbolTableRecord
100
AcDbLayerTableRecord
  2
DEFAULT_1
 70
0
 62
7
  6
CENTER
370
-3
390
F
  0
LAYER
  5
1FB
100
AcDbSymbolTableRecord
100
AcDbLayerTableRecord
  2
DEFAULT_2
 70
0
 62
7
  6
HIDDEN
370
-3
390
F
  0
LAYER
  5
1FC
100
AcDbSymbolTableRecord
100
AcDbLayerTableRecord
  2
DEFAULT_3
 70
0
 62
7
  6
PHANTOM
370
-3
390
F
  0
LAYER
  5
1FD
100
AcDbSymbolTableRecord
100
AcDbLayerTableRecord
  2
ASSI
 70
0
 62
7
  6
CONTINUOUS
370
-3
390
F
  0
LAYER
  5
1FE
100
AcDbSymbolTableRecord
100
AcDbLayerTableRecord
  2
COORDINATE
 70
0
 62
7
  6
CONTINUOUS
370
-3
390
F
  0
LAYER
  5
1FF
100
AcDbSymbolTableRecord
100
AcDbLayerTableRecord
  2
COORD_ORIGINE
 70
0
 62
7
  6
CONTINUOUS
370
-3
390
F
  0
LAYER
  5
200
100
AcDbSymbolTableRecord
100
AcDbLayerTableRecord
  2
COPY_PUBLISH
 70
0
 62
7
  6
CONTINUOUS
370
-3
390
F
  0
LAYER
  5
201
100
AcDbSymbolTableRecord
100
AcDbLayerTableRecord
  2
COSMETIC
 70
0
 62
7
  6
CONTINUOUS
370
-3
390
F
  0
LAYER
  5
202
100
AcDbSymbolTableRecord
100
AcDbLayerTableRecord
  2
COSMETICHE
 70
0
 62
7
  6
CONTINUOUS
370
-3
390
F
  0
LAYER
  5
203
100
AcDbSymbolTableRecord
100
AcDbLayerTableRecord
  2
CURVE
 70
0
 62
7
  6
CONTINUOUS
370
-3
390
F
  0
LAYER
  5
204
100
AcDbSymbolTableRecord
100
AcDbLayerTableRecord
  2
DRAFT
 70
0
 62
7
  6
CONTINUOUS
370
-3
390
F
  0
LAYER
  5
205
100
AcDbSymbolTableRecord
100
AcDbLayerTableRecord
  2
IMPORT_IGES
 70
0
 62
7
  6
CONTINUOUS
370
-3
390
F
  0
LAYER
  5
206
100
AcDbSymbolTableRecord
100
AcDbLayerTableRecord
  2
NOTE
 70
0
 62
7
  6
CONTINUOUS
370
-3
390
F
  0
LAYER
  5
207
100
AcDbSymbolTableRecord
100
AcDbLayerTableRecord
  2
PIANI
 70
0
 62
7
  6
CONTINUOUS
370
-3
390
F
  0
LAYER
  5
208
100
AcDbSymbolTableRecord
100
AcDbLayerTableRecord
  2
PIANI_ORIGINE
 70
0
 62
7
  6
CONTINUOUS
370
-3
390
F
  0
LAYER
  5
209
100
AcDbSymbolTableRecord
100
AcDbLayerTableRecord
  2
PIANI_PUNZONI
 70
0
 62
7
  6
CONTINUOUS
370
-3
390
F
  0
LAYER
  5
20A
100
AcDbSymbolTableRecord
100
AcDbLayerTableRecord
  2
PUNTI
 70
0
 62
7
  6
CONTINUOUS
370
-3
390
F
  0
LAYER
  5
20B
100
AcDbSymbolTableRecord
100
AcDbLayerTableRecord
  2
RACCORDO
 70
0
 62
7
  6
CONTINUOUS
370
-3
390
F
  0
LAYER
  5
20C
100
AcDbSymbolTableRecord
100
AcDbLayerTableRecord
  2
SMUSSO
 70
0
 62
7
  6
CONTINUOUS
370
-3
390
F
  0
LAYER
  5
20D
100
AcDbSymbolTableRecord
100
AcDbLayerTableRecord
  2
SNAPLINE
 70
0
 62
7
  6
CONTINUOUS
370
-3
390
F
  0
LAYER
  5
20E
100
AcDbSymbolTableRecord
100
AcDbLayerTableRecord
  2
SUPERFICI
 70
0
 62
7
  6
CONTINUOUS
370
-3
390
F
  0
LAYER
  5
20F
100
AcDbSymbolTableRecord
100
AcDbLayerTableRecord
  2
TRASH
 70
0
 62
7
  6
CONTINUOUS
370
-3
390
F
  0
ENDTAB
  0
TABLE
  2
STYLE
  5
3
100
AcDbSymbolTable
 70
1
  0
STYLE
  5
11
100
AcDbSymbolTableRecord
100
AcDbTextStyleTableRecord
  2
STANDARD
 70
0
 40
0.0
 41
0.8
 50
0.0
 71
0
 42
0.2
  3
txt
  4

  0
STYLE
  5
210
100
AcDbSymbolTableRecord
100
AcDbTextStyleTableRecord
  2
TEXTSTYLE_1
 70
0
 40
0.0
 41
0.8
 50
0.0
 71
0
 42
0.2
  3
gdt
  4

  0
ENDTAB
  0
TABLE
  2
VIEW
  5
6
100
AcDbSymbolTable
 70
0
  0
ENDTAB
  0
TABLE
  2
UCS
  5
7
100
AcDbSymbolTable
 70
0
  0
ENDTAB
  0
TABLE
  2
APPID
  5
9
100
AcDbSymbolTable
 70
1
  0
APPID
  5
211
100
AcDbSymbolTableRecord
100
AcDbRegAppTableRecord
  2
ACAD
 70
0
  0
ENDTAB
  0
TABLE
  2
BLOCK_RECORD
  5
1
100
AcDbSymbolTable
 70
0
  0
BLOCK_RECORD
  5
212
100
AcDbSymbolTableRecord
100
AcDbBlockTableRecord
  2
*Model_Space
  0
BLOCK_RECORD
  5
213
100
AcDbSymbolTableRecord
100
AcDbBlockTableRecord
  2
*Paper_Space
  0
ENDTAB
  0
TABLE
  2
DIMSTYLE
  5
A
100
AcDbSymbolTable
 70
1
100
AcDbDimStyleTable
 71
0
  0
DIMSTYLE
105
214
100
AcDbSymbolTableRecord
100
AcDbDimStyleTableRecord
  2
STANDARD
 70
0
  3

  4

 40
1.0
 41
3.0
 42
0.0625
 43
0.38
 44
0.18
 45
0.0
 46
0.0
 47
0.01
 48
0.01
140
3.0
141
0.09
142
0.0
143
25.4
144
1.0
145
0.0
146
1.0
147
0.09
 71
1.0
 72
0.0
 73
0
 74
0
 75
0
 76
0
 77
1
 78
8
170
0
171
2
172
0
173
0
174
0
175
0
176
0
177
0
178
0
270
2
271
2
272
2
273
2
274
2
275
0
280
0
281
0
282
0
283
1
284
8
285
0
286
0
287
3
288
0
340
11
  0
ENDTAB
  0
ENDSEC
  0
SECTION
  2
BLOCKS
  0
BLOCK
  5
20
100
AcDbEntity
  8
0
100
AcDbBlockBegin
  2
*Model_Space
 70
0
 10
0.0
 20
0.0
 30
0.0
  3
*Model_Space
  1

  0
ENDBLK
  5
21
100
AcDbEntity
  8
0
100
AcDbBlockEnd
  0
BLOCK
  5
1C
100
AcDbEntity
  8
0
100
AcDbBlockBegin
  2
*Paper_Space
 70
0
 10
0.0
 20
0.0
 30
0.0
  3
*Paper_Space
  1

  0
ENDBLK
  5
1D
100
AcDbEntity
  8
0
100
AcDbBlockEnd
  0
ENDSEC
  0
SECTION
  2
ENTITIES
  0
LINE
  5
215
100
AcDbEntity
  8
ASSI
100
AcDbLine
 62
7
  6
CONTINUOUS
 10
-33.3948436858
 20
31.4437250087
 11
-31.2735233422
 21
33.5650453523
  0
LINE
  5
216
100
AcDbEntity
  8
RACCORDO
100
AcDbLine
 62
7
  6
CONTINUOUS
 10
-41.1699699516
 20
35.3401716181
 11
-41.1699699516
 21
-35.1598283819
  0
LINE
  5
217
100
AcDbEntity
  8
0
100
AcDbLine
 62
7
  6
CONTINUOUS
 10
-39.2491261492
 20
-30.4098283819
 11
-39.2491261492
 21
30.5901716181
  0
LINE
  5
218
100
AcDbEntity
  8
ASSI
100
AcDbLine
 62
7
  6
CONTINUOUS
 10
-28.4450962175
 20
30.7366182275
 11
-30.566416561
 21
28.615297884
  0
LINE
  5
219
100
AcDbEntity
  8
RACCORDO
100
AcDbLine
 62
7
  6
CONTINUOUS
 10
-35.1699699516
 20
-41.1598283819
 11
35.3300300484
 21
-41.1598283819
  0
LINE
  5
21A
100
AcDbEntity
  8
0
100
AcDbLine
 62
7
  6
CONTINUOUS
 10
30.5800300484
 20
-39.2389845795
 11
-30.4199699516
 21
-39.2389845795
  0
LINE
  5
21B
100
AcDbEntity
  8
0
100
AcDbLine
 62
7
  6
CONTINUOUS
 10
-31.4382729946
 20
-26.761226669
 11
-26.7713682387
 21
-31.4281314249
  0
LINE
  5
21C
100
AcDbEntity
  8
0
100
AcDbLine
 62
7
  6
CONTINUOUS
 10
-30.6082686264
 20
-25.9312223009
 11
-25.9413638706
 21
-30.5981270567
  0
LINE
  5
21D
100
AcDbEntity
  8
SMUSSO
100
AcDbLine
 62
7
  6
CONTINUOUS
 10
-30.5990067418
 20
-25.78053906
 11
-25.7906806297
 21
-30.5888651721
  0
LINE
  5
21E
100
AcDbEntity
  8
0
100
AcDbLine
 62
7
  6
CONTINUOUS
 10
-37.590813754
 20
-30.4098283819
 11
-37.590813754
 21
30.5901716181
  0
LINE
  5
21F
100
AcDbEntity
  8
0
100
AcDbLine
 62
7
  6
CONTINUOUS
 10
30.5800300484
 20
-37.5806721843
 11
-30.4199699516
 21
-37.5806721843
  0
LINE
  5
220
100
AcDbEntity
  8
0
100
AcDbLine
 62
7
  6
CONTINUOUS
 10
-26.2088060273
 20
-25.2209923062
 11
-26.1831552896
 21
-25.2466430439
  0
LINE
  5
221
100
AcDbEntity
  8
0
100
AcDbLine
 62
7
  6
CONTINUOUS
 10
-26.2396934358
 20
-25.1901048977
 11
-26.2199699516
 21
-25.2098283819
  0
LINE
  5
222
100
AcDbEntity
  8
0
100
AcDbLine
 62
7
  6
CONTINUOUS
 10
-25.2002464674
 20
-26.2295518661
 11
-25.2199699516
 21
-26.2098283819
  0
LINE
  5
223
100
AcDbEntity
  8
0
100
AcDbLine
 62
7
  6
CONTINUOUS
 10
-25.2311338759
 20
-26.1986644576
 11
-25.2567846136
 21
-26.1730137199
  0
LINE
  5
224
100
AcDbEntity
  8
0
100
AcDbLine
 62
7
  6
CONTINUOUS
 10
-33.5199699516
 20
-8.5411992318
 11
-33.5199699516
 21
8.721542468
  0
LINE
  5
225
100
AcDbEntity
  8
0
100
AcDbLine
 62
7
  6
CONTINUOUS
 10
-32.2746675896
 20
-10.078457532
 11
-32.2746675896
 21
-23.7411992318
  0
LINE
  5
226
100
AcDbEntity
  8
0
100
AcDbLine
 62
7
  6
CONTINUOUS
 10
-32.2746675896
 20
10.2588007682
 11
-32.2746675896
 21
23.921542468
  0
LINE
  5
227
100
AcDbEntity
  8
ASSI
100
AcDbLine
 62
7
  6
CONTINUOUS
 10
-32.0199699516
 20
-2.6598283819
 11
-32.0199699516
 21
2.8401716181
  0
LINE
  5
228
100
AcDbEntity
  8
0
100
AcDbLine
 62
253
  6
CONTINUOUS
 10
-31.5196841461
 20
-10.378457532
 11
-31.5196841461
 21
-23.4411992318
  0
LINE
  5
229
100
AcDbEntity
  8
0
100
AcDbLine
 62
253
  6
CONTINUOUS
 10
-31.5196841461
 20
10.5588007682
 11
-31.5196841461
 21
23.621542468
  0
LINE
  5
22A
100
AcDbEntity
  8
SMUSSO
100
AcDbLine
 62
7
  6
CONTINUOUS
 10
-30.5990067418
 20
-25.6391177038
 11
-30.5990067418
 21
-25.78053906
  0
LINE
  5
22B
100
AcDbEntity
  8
0
100
AcDbLine
 62
253
  6
CONTINUOUS
 10
-30.5202557572
 20
-10.378457532
 11
-30.5202557572
 21
-23.4411992318
  0
LINE
  5
22C
100
AcDbEntity
  8
0
100
AcDbLine
 62
253
  6
CONTINUOUS
 10
-30.5202557572
 20
10.5588007682
 11
-30.5202557572
 21
23.621542468
  0
LINE
  5
22D
100
AcDbEntity
  8
SMUSSO
100
AcDbLine
 62
7
  6
CONTINUOUS
 10
-24.723125181
 20
21.7303878966
 11
-24.7491583717
 21
21.6913331527
  0
LINE
  5
22E
100
AcDbEntity
  8
SMUSSO
100
AcDbLine
 62
7
  6
CONTINUOUS
 10
-24.4205174139
 20
21.4299818288
 11
-24.4474082378
 21
21.3896404718
  0
LINE
  5
22F
100
AcDbEntity
  8
RACCORDO
100
AcDbLine
 62
7
  6
CONTINUOUS
 10
-22.8755991656
 20
22.1579222974
 11
-22.5332333611
 21
22.5222465036
  0
LINE
  5
230
100
AcDbEntity
  8
SUPERFICI
100
AcDbLine
 62
7
  6
CONTINUOUS
 10
-23.6199699516
 20
21.2401716181
 11
-23.4301597409
 21
21.4299818288
  0
LINE
  5
231
100
AcDbEntity
  8
SMUSSO
100
AcDbLine
 62
7
  6
CONTINUOUS
 10
-17.7508837361
 20
25.8732218855
 11
-17.6199699516
 21
26.0041356701
  0
LINE
  5
232
100
AcDbEntity
  8
SMUSSO
100
AcDbLine
 62
253
  6
CONTINUOUS
 10
-22.8455328892
 20
21.3896404718
 11
-22.5437482818
 21
21.6913331527
  0
LINE
  5
233
100
AcDbEntity
  8
SMUSSO
100
AcDbLine
 62
7
  6
CONTINUOUS
 10
-22.85814543
 20
21.4299818288
 11
-22.5567638858
 21
21.7303878966
  0
LINE
  5
234
100
AcDbEntity
  8
0
100
AcDbLine
 62
7
  6
CONTINUOUS
 10
-21.0631769516
 20
-33.6357853819
 11
-20.7767629516
 21
-33.6357853819
  0
LINE
  5
235
100
AcDbEntity
  8
0
100
AcDbLine
 62
7
  6
CONTINUOUS
 10
25.2266930031
 20
-33.5098283819
 11
15.7333670937
 21
-33.5098283819
  0
LINE
  5
236
100
AcDbEntity
  8
0
100
AcDbLine
 62
7
  6
CONTINUOUS
 10
8.7114008983
 20
-33.5098283819
 11
-8.5513408015
 21
-33.5098283819
  0
LINE
  5
237
100
AcDbEntity
  8
0
100
AcDbLine
 62
7
  6
CONTINUOUS
 10
-20.3329539516
 20
-33.0655413819
 11
-20.0465419516
 21
-33.0655413819
  0
LINE
  5
238
100
AcDbEntity
  8
0
100
AcDbLine
 62
7
  6
CONTINUOUS
 10
-19.6027309516
 20
-32.4950383819
 11
-19.3137379516
 21
-32.4950383819
  0
LINE
  5
239
100
AcDbEntity
  8
0
100
AcDbLine
 62
7
  6
CONTINUOUS
 10
-22.4900769516
 20
-32.0710983819
 11
-21.0631769516
 21
-32.0710983819
  0
LINE
  5
23A
100
AcDbEntity
  8
ASSI
100
AcDbLine
 62
7
  6
CONTINUOUS
 10
2.8300300484
 20
-32.0098283819
 11
-2.6699699516
 21
-32.0098283819
  0
LINE
  5
23B
100
AcDbEntity
  8
0
100
AcDbLine
 62
7
  6
CONTINUOUS
 10
-21.0631769516
 20
-31.7485603819
 11
-22.4900769516
 21
-31.7485603819
  0
LINE
  5
23C
100
AcDbEntity
  8
0
100
AcDbLine
 62
7
  6
CONTINUOUS
 10
-19.3137379516
 20
-31.3243603819
 11
-19.6027309516
 21
-31.3243603819
  0
LINE
  5
23D
100
AcDbEntity
  8
0
100
AcDbLine
 62
7
  6
CONTINUOUS
 10
-20.0465419516
 20
-30.7541153819
 11
-20.3329539516
 21
-30.7541153819
  0
LINE
  5
23E
100
AcDbEntity
  8
SMUSSO
100
AcDbLine
 62
7
  6
CONTINUOUS
 10
-25.7906806297
 20
-30.5888651721
 11
-25.6492592735
 21
-30.5888651721
  0
LINE
  5
23F
100
AcDbEntity
  8
0
100
AcDbLine
 62
7
  6
CONTINUOUS
 10
-24.865100768
 20
-26.0591025838
 11
-24.8114163271
 21
-26.0737924338
  0
LINE
  5
240
100
AcDbEntity
  8
0
100
AcDbLine
 62
7
  6
CONTINUOUS
 10
-26.5748391352
 20
-25.3605541799
 11
-26.6285235761
 21
-25.3458643299
  0
LINE
  5
241
100
AcDbEntity
  8
0
100
AcDbLine
 62
7
  6
CONTINUOUS
 10
-26.3059876479
 20
-26.2098283819
 11
-26.2396934358
 21
-26.2295518661
  0
LINE
  5
242
100
AcDbEntity
  8
0
100
AcDbLine
 62
7
  6
CONTINUOUS
 10
-26.6285235761
 20
-26.0737924338
 11
-26.2088060273
 21
-26.1986644576
  0
LINE
  5
243
100
AcDbEntity
  8
0
100
AcDbLine
 62
7
  6
CONTINUOUS
 10
-24.8114163271
 20
-25.3458643299
 11
-25.2311338759
 21
-25.2209923062
  0
LINE
  5
244
100
AcDbEntity
  8
0
100
AcDbLine
 62
7
  6
CONTINUOUS
 10
-25.1339522553
 20
-25.2098283819
 11
-25.2002464674
 21
-25.1901048977
  0
LINE
  5
245
100
AcDbEntity
  8
SMUSSO
100
AcDbLine
 62
7
  6
CONTINUOUS
 10
-21.0199699516
 20
-26.3398283819
 11
-21.1863873101
 21
-26.1734110234
  0
LINE
  5
246
100
AcDbEntity
  8
SMUSSO
100
AcDbLine
 62
7
  6
CONTINUOUS
 10
-20.8409331614
 20
-25.6391177038
 11
-25.6492592735
 21
-20.8307915917
  0
LINE
  5
247
100
AcDbEntity
  8
SMUSSO
100
AcDbLine
 62
7
  6
CONTINUOUS
 10
-17.6199699516
 20
-25.8237924338
 11
-17.7508837361
 21
-25.6928786493
  0
LINE
  5
248
100
AcDbEntity
  8
0
100
AcDbLine
 62
7
  6
CONTINUOUS
 10
-26.2396934358
 20
-26.2295518661
 11
-26.103134575
 21
-26.6885509967
  0
LINE
  5
249
100
AcDbEntity
  8
0
100
AcDbLine
 62
7
  6
CONTINUOUS
 10
-26.2088060273
 20
-26.1986644576
 11
-26.2054845988
 21
-26.2098283819
  0
LINE
  5
24A
100
AcDbEntity
  8
0
100
AcDbLine
 62
7
  6
CONTINUOUS
 10
-25.2311338759
 20
-25.2209923062
 11
-25.2344553044
 21
-25.2098283819
  0
LINE
  5
24B
100
AcDbEntity
  8
0
100
AcDbLine
 62
7
  6
CONTINUOUS
 10
-25.2002464674
 20
-25.1901048977
 11
-25.3368053282
 21
-24.7311057671
  0
LINE
  5
24C
100
AcDbEntity
  8
0
100
AcDbLine
 62
7
  6
CONTINUOUS
 10
-26.0692441536
 20
-24.8549591983
 11
-26.103134575
 21
-24.7311057671
  0
LINE
  5
24D
100
AcDbEntity
  8
0
100
AcDbLine
 62
7
  6
CONTINUOUS
 10
-25.3706957497
 20
-26.5646975655
 11
-25.3368053282
 21
-26.6885509967
  0
LINE
  5
24E
100
AcDbEntity
  8
0
100
AcDbLine
 62
7
  6
CONTINUOUS
 10
-26.103134575
 20
-23.6838727886
 11
-26.0702670866
 21
-24.622690563
  0
LINE
  5
24F
100
AcDbEntity
  8
0
100
AcDbLine
 62
253
  6
CONTINUOUS
 10
-30.4199699516
 20
-37.5806721843
 11
-30.4199699516
 21
-39.2389845795
  0
LINE
  5
250
100
AcDbEntity
  8
0
100
AcDbLine
 62
253
  6
CONTINUOUS
 10
-30.4199699516
 20
37.7610154205
 11
-30.4199699516
 21
39.4193278157
  0
LINE
  5
251
100
AcDbEntity
  8
0
100
AcDbLine
 62
7
  6
CONTINUOUS
 10
-29.7652723136
 20
-10.078457532
 11
-29.7652723136
 21
-23.7411992318
  0
LINE
  5
252
100
AcDbEntity
  8
0
100
AcDbLine
 62
7
  6
CONTINUOUS
 10
-29.7652723136
 20
10.2588007682
 11
-29.7652723136
 21
23.921542468
  0
LINE
  5
253
100
AcDbEntity
  8
RACCORDO
100
AcDbLine
 62
7
  6
CONTINUOUS
 10
-28.0699699516
 20
-14.4269856694
 11
-28.0699699516
 21
-8.8240419443
  0
LINE
  5
254
100
AcDbEntity
  8
0
100
AcDbLine
 62
7
  6
CONTINUOUS
 10
-28.0699699516
 20
-8.8240419443
 11
-28.0699699516
 21
-8.3755138068
  0
LINE
  5
255
100
AcDbEntity
  8
0
100
AcDbLine
 62
7
  6
CONTINUOUS
 10
-28.0699699516
 20
8.5558570431
 11
-28.0699699516
 21
8.8043851805
  0
LINE
  5
256
100
AcDbEntity
  8
RACCORDO
100
AcDbLine
 62
7
  6
CONTINUOUS
 10
-28.0699699516
 20
8.8043851805
 11
-28.0699699516
 21
14.6073289056
  0
LINE
  5
257
100
AcDbEntity
  8
ASSI
100
AcDbLine
 62
7
  6
CONTINUOUS
 10
-28.0199699516
 20
2.8401716181
 11
-28.0199699516
 21
-2.6598283819
  0
LINE
  5
258
100
AcDbEntity
  8
RACCORDO
100
AcDbLine
 62
7
  6
CONTINUOUS
 10
-27.7699699516
 20
-8.3482429262
 11
-27.7699699516
 21
-10.9098283819
  0
LINE
  5
259
100
AcDbEntity
  8
DRAFT
100
AcDbLine
 62
7
  6
CONTINUOUS
 10
-27.7699699516
 20
-11.4098283819
 11
-27.7699699516
 21
-14.3855643132
  0
LINE
  5
25A
100
AcDbEntity
  8
RACCORDO
100
AcDbLine
 62
7
  6
CONTINUOUS
 10
-27.7699699516
 20
8.5285861625
 11
-27.7699699516
 21
11.0901716181
  0
LINE
  5
25B
100
AcDbEntity
  8
DRAFT
100
AcDbLine
 62
7
  6
CONTINUOUS
 10
-27.7699699516
 20
11.5901716181
 11
-27.7699699516
 21
14.5659075494
  0
LINE
  5
25C
100
AcDbEntity
  8
DRAFT
100
AcDbLine
 62
7
  6
CONTINUOUS
 10
-27.7210957698
 20
14.5418418291
 11
-27.7210957698
 21
11.3968541805
  0
LINE
  5
25D
100
AcDbEntity
  8
RACCORDO
100
AcDbLine
 62
7
  6
CONTINUOUS
 10
-27.7210957698
 20
11.2834890557
 11
-27.7210957698
 21
8.5488305114
  0
LINE
  5
25E
100
AcDbEntity
  8
RACCORDO
100
AcDbLine
 62
7
  6
CONTINUOUS
 10
-27.7210957698
 20
-8.3684872752
 11
-27.7210957698
 21
-11.1031458195
  0
LINE
  5
25F
100
AcDbEntity
  8
DRAFT
100
AcDbLine
 62
7
  6
CONTINUOUS
 10
-27.7210957698
 20
-11.2165109443
 11
-27.7210957698
 21
-14.3614985929
  0
LINE
  5
260
100
AcDbEntity
  8
DRAFT
100
AcDbLine
 62
7
  6
CONTINUOUS
 10
-27.2188441334
 20
-13.8300727308
 11
-27.2188441334
 21
-8.4895840329
  0
LINE
  5
261
100
AcDbEntity
  8
DRAFT
100
AcDbLine
 62
7
  6
CONTINUOUS
 10
-27.2188441334
 20
8.6699272692
 11
-27.2188441334
 21
14.0104159671
  0
LINE
  5
262
100
AcDbEntity
  8
0
100
AcDbLine
 62
7
  6
CONTINUOUS
 10
-27.197485776
 20
-26.0737924338
 11
-27.197485776
 21
-25.3458643299
  0
LINE
  5
263
100
AcDbEntity
  8
DRAFT
100
AcDbLine
 62
7
  6
CONTINUOUS
 10
-27.1664789386
 20
-13.808382357
 11
-27.1664789386
 21
-8.5112744068
  0
LINE
  5
264
100
AcDbEntity
  8
DRAFT
100
AcDbLine
 62
7
  6
CONTINUOUS
 10
-27.1664789386
 20
8.691617643
 11
-27.1664789386
 21
13.9887255932
  0
LINE
  5
265
100
AcDbEntity
  8
DRAFT
100
AcDbLine
 62
7
  6
CONTINUOUS
 10
-26.8060058997
 20
-12.2389279885
 11
-26.8060058997
 21
-10.0807287753
  0
LINE
  5
266
100
AcDbEntity
  8
DRAFT
100
AcDbLine
 62
7
  6
CONTINUOUS
 10
-26.8060058997
 20
10.2435250181
 11
-26.8060058997
 21
12.4192712247
  0
LINE
  5
267
100
AcDbEntity
  8
0
100
AcDbLine
 62
7
  6
CONTINUOUS
 10
-26.7699699516
 20
-6.5098283819
 11
-26.7699699516
 21
-4.3098283819
  0
LINE
  5
268
100
AcDbEntity
  8
0
100
AcDbLine
 62
253
  6
CONTINUOUS
 10
-26.7699699516
 20
-4.3098283819
 11
-26.7699699516
 21
4.4901716181
  0
LINE
  5
269
100
AcDbEntity
  8
0
100
AcDbLine
 62
7
  6
CONTINUOUS
 10
-26.7699699516
 20
4.4901716181
 11
-26.7699699516
 21
6.6901716181
  0
LINE
  5
26A
100
AcDbEntity
  8
DRAFT
100
AcDbLine
 62
7
  6
CONTINUOUS
 10
-26.8199694408
 20
10.2410099681
 11
-26.8182478119
 21
12.4349584654
  0
LINE
  5
26B
100
AcDbEntity
  8
DRAFT
100
AcDbLine
 62
7
  6
CONTINUOUS
 10
-26.8199696892
 20
-12.2554761679
 11
-26.8182478119
 21
-10.0650415346
  0
LINE
  5
26C
100
AcDbEntity
  8
DRAFT
100
AcDbLine
 62
7
  6
CONTINUOUS
 10
-27.7210957698
 20
11.2834890557
 11
-27.7699699516
 21
11.0901716181
  0
LINE
  5
26D
100
AcDbEntity
  8
SMUSSO
100
AcDbLine
 62
7
  6
CONTINUOUS
 10
-22.8589772772
 20
18.2503614074
 11
-22.8455328892
 21
18.2907027644
  0
LINE
  5
26E
100
AcDbEntity
  8
SMUSSO
100
AcDbLine
 62
7
  6
CONTINUOUS
 10
-22.5567638858
 20
17.9499553396
 11
-22.5437482818
 21
17.9890100835
  0
LINE
  5
26F
100
AcDbEntity
  8
DRAFT
100
AcDbLine
 62
7
  6
CONTINUOUS
 10
-15.3957058829
 20
26.6401716181
 11
-14.3957058829
 21
27.9401716181
  0
LINE
  5
270
100
AcDbEntity
  8
DRAFT
100
AcDbLine
 62
7
  6
CONTINUOUS
 10
-15.3468317011
 20
26.6235484363
 11
-14.3716401626
 21
27.8912974363
  0
LINE
  5
271
100
AcDbEntity
  8
SMUSSO
100
AcDbLine
 62
7
  6
CONTINUOUS
 10
-24.3872711051
 20
17.5224209389
 11
-24.6873114582
 21
17.2031732946
  0
LINE
  5
272
100
AcDbEntity
  8
DRAFT
100
AcDbLine
 62
7
  6
CONTINUOUS
 10
-12.5665246231
 20
26.6866806051
 11
-12.2656177376
 21
26.9901713557
  0
LINE
  5
273
100
AcDbEntity
  8
0
100
AcDbLine
 62
7
  6
CONTINUOUS
 10
-24.6199699516
 20
18.3401716181
 11
-24.9199699516
 21
18.0401716181
  0
LINE
  5
274
100
AcDbEntity
  8
SMUSSO
100
AcDbLine
 62
7
  6
CONTINUOUS
 10
-16.9369196842
 20
25.8732218855
 11
-16.8060058997
 21
26.0041356701
  0
LINE
  5
275
100
AcDbEntity
  8
RACCORDO
100
AcDbLine
 62
7
  6
CONTINUOUS
 10
-28.0113913078
 20
14.7487502619
 11
-26.0380820037
 21
16.722059566
  0
LINE
  5
276
100
AcDbEntity
  8
RACCORDO
100
AcDbLine
 62
7
  6
CONTINUOUS
 10
-16.2399699516
 20
26.5201716181
 11
-14.5785485954
 21
28.1815929744
  0
LINE
  5
277
100
AcDbEntity
  8
DRAFT
100
AcDbLine
 62
7
  6
CONTINUOUS
 10
-26.1699699516
 20
16.1659075494
 11
-25.679275275
 21
16.6566022261
  0
LINE
  5
278
100
AcDbEntity
  8
DRAFT
100
AcDbLine
 62
7
  6
CONTINUOUS
 10
-24.9199699516
 20
17.4159075494
 11
-24.8932812243
 21
17.4425962767
  0
LINE
  5
279
100
AcDbEntity
  8
DRAFT
100
AcDbLine
 62
7
  6
CONTINUOUS
 10
-16.8060058997
 20
25.5298716013
 11
-15.9957058829
 21
26.3401716181
  0
LINE
  5
27A
100
AcDbEntity
  8
DRAFT
100
AcDbLine
 62
7
  6
CONTINUOUS
 10
-15.9754615339
 20
26.2912974363
 11
-16.8548800815
 21
25.4118788888
  0
LINE
  5
27B
100
AcDbEntity
  8
DRAFT
100
AcDbLine
 62
7
  6
CONTINUOUS
 10
-24.8444070425
 20
17.4223519278
 11
-24.9199699516
 21
17.3467890187
  0
LINE
  5
27C
100
AcDbEntity
  8
DRAFT
100
AcDbLine
 62
7
  6
CONTINUOUS
 10
-25.6157173427
 20
16.6510416275
 11
-26.1210957698
 21
16.1456632005
  0
LINE
  5
27D
100
AcDbEntity
  8
SUPERFICI
100
AcDbLine
 62
7
  6
CONTINUOUS
 10
-23.6199699516
 20
18.4401716181
 11
-23.8097801623
 21
18.2503614074
  0
LINE
  5
27E
100
AcDbEntity
  8
DRAFT
100
AcDbLine
 62
7
  6
CONTINUOUS
 10
-16.8548800815
 20
24.9552614883
 11
-16.9421554061
 21
24.8679861636
  0
LINE
  5
27F
100
AcDbEntity
  8
DRAFT
100
AcDbLine
 62
7
  6
CONTINUOUS
 10
-27.2188441334
 20
14.0104159671
 11
-25.3890884824
 21
15.8401716181
  0
LINE
  5
280
100
AcDbEntity
  8
DRAFT
100
AcDbLine
 62
7
  6
CONTINUOUS
 10
-27.1664789386
 20
13.9887255932
 11
-26.5164789386
 21
14.6387255932
  0
LINE
  5
281
100
AcDbEntity
  8
DRAFT
100
AcDbLine
 62
7
  6
CONTINUOUS
 10
-26.5025148867
 20
14.6329414935
 11
-25.2952847621
 21
15.8401716181
  0
LINE
  5
282
100
AcDbEntity
  8
DRAFT
100
AcDbLine
 62
7
  6
CONTINUOUS
 10
-15.7188441334
 20
25.271938336
 11
-13.6017366695
 21
27.3890457999
  0
LINE
  5
283
100
AcDbEntity
  8
DRAFT
100
AcDbLine
 62
7
  6
CONTINUOUS
 10
-14.2300462956
 20
26.6866806051
 11
-13.5800462956
 21
27.3366806051
  0
LINE
  5
284
100
AcDbEntity
  8
DRAFT
100
AcDbLine
 62
7
  6
CONTINUOUS
 10
-15.6525148867
 20
25.2444638624
 11
-14.2242621959
 21
26.6727165532
  0
LINE
  5
285
100
AcDbEntity
  8
DRAFT
100
AcDbLine
 62
7
  6
CONTINUOUS
 10
-15.6839340036
 20
25.1290788909
 11
-15.6525148867
 21
25.1604980077
  0
LINE
  5
286
100
AcDbEntity
  8
DRAFT
100
AcDbLine
 62
7
  6
CONTINUOUS
 10
-15.6839340036
 20
24.9901716181
 11
-15.7188441334
 21
24.9552614883
  0
LINE
  5
287
100
AcDbEntity
  8
DRAFT
100
AcDbLine
 62
7
  6
CONTINUOUS
 10
-14.6699699516
 20
25.1604980077
 11
-14.6402963412
 21
25.1901716181
  0
LINE
  5
288
100
AcDbEntity
  8
DRAFT
100
AcDbLine
 62
7
  6
CONTINUOUS
 10
-11.1699699516
 20
28.1901716181
 11
-11.4199699516
 21
27.9401716181
  0
LINE
  5
289
100
AcDbEntity
  8
DRAFT
100
AcDbLine
 62
7
  6
CONTINUOUS
 10
-27.7699699516
 20
11.5901716181
 11
-28.0199699516
 21
11.3401716181
  0
LINE
  5
28A
100
AcDbEntity
  8
DRAFT
100
AcDbLine
 62
7
  6
CONTINUOUS
 10
-26.8182478119
 20
12.4349584654
 11
-26.5164789386
 21
12.7367262896
  0
LINE
  5
28B
100
AcDbEntity
  8
SMUSSO
100
AcDbLine
 62
7
  6
CONTINUOUS
 10
-12.2490695582
 20
26.9762075662
 11
-12.5525605712
 21
26.6727165532
  0
LINE
  5
28C
100
AcDbEntity
  8
SMUSSO
100
AcDbLine
 62
7
  6
CONTINUOUS
 10
-26.5025148867
 20
12.7227622377
 11
-26.8060058997
 21
12.4192712247
  0
LINE
  5
28D
100
AcDbEntity
  8
DRAFT
100
AcDbLine
 62
7
  6
CONTINUOUS
 10
-11.1699699516
 20
27.9479799987
 11
-11.226652514
 21
27.8912974363
  0
LINE
  5
28E
100
AcDbEntity
  8
DRAFT
100
AcDbLine
 62
7
  6
CONTINUOUS
 10
-27.7210957698
 20
11.3968541805
 11
-27.7777783322
 21
11.3401716181
  0
LINE
  5
28F
100
AcDbEntity
  8
SMUSSO
100
AcDbLine
 62
7
  6
CONTINUOUS
 10
-24.4474082378
 20
18.2907027644
 11
-24.7491583717
 21
17.9890100835
  0
LINE
  5
290
100
AcDbEntity
  8
SMUSSO
100
AcDbLine
 62
7
  6
CONTINUOUS
 10
-24.4221812349
 20
18.2503614074
 11
-24.723125181
 21
17.9499553396
  0
LINE
  5
291
100
AcDbEntity
  8
DRAFT
100
AcDbLine
 62
7
  6
CONTINUOUS
 10
-27.7699699516
 20
14.5659075494
 11
-26.4699699516
 21
15.5659075494
  0
LINE
  5
292
100
AcDbEntity
  8
DRAFT
100
AcDbLine
 62
7
  6
CONTINUOUS
 10
-27.7210957698
 20
14.5418418291
 11
-26.4533467698
 21
15.5170333676
  0
LINE
  5
293
100
AcDbEntity
  8
0
100
AcDbLine
 62
7
  6
CONTINUOUS
 10
-26.6230878036
 20
17.8981915969
 11
-26.614543486
 21
17.9024516365
  0
LINE
  5
294
100
AcDbEntity
  8
DRAFT
100
AcDbLine
 62
7
  6
CONTINUOUS
 10
11.273347486
 20
-27.7109542001
 11
11.0800300484
 21
-27.7598283819
  0
LINE
  5
295
100
AcDbEntity
  8
0
100
AcDbLine
 62
253
  6
CONTINUOUS
 10
37.7508738508
 20
-30.4098283819
 11
39.409186246
 21
-30.4098283819
  0
LINE
  5
296
100
AcDbEntity
  8
0
100
AcDbLine
 62
253
  6
CONTINUOUS
 10
-37.590813754
 20
-30.4098283819
 11
-39.2491261492
 21
-30.4098283819
  0
LINE
  5
297
100
AcDbEntity
  8
0
100
AcDbLine
 62
7
  6
CONTINUOUS
 10
-20.7767629516
 20
-30.1836133819
 11
-21.0631769516
 21
-30.1836133819
  0
LINE
  5
298
100
AcDbEntity
  8
DRAFT
100
AcDbLine
 62
7
  6
CONTINUOUS
 10
21.5954981209
 20
-28.3098283819
 11
19.3645619758
 21
-28.3098283819
  0
LINE
  5
299
100
AcDbEntity
  8
RACCORDO
100
AcDbLine
 62
7
  6
CONTINUOUS
 10
14.573252135
 20
-28.0598283819
 11
8.9942436108
 21
-28.0598283819
  0
LINE
  5
29A
100
AcDbEntity
  8
0
100
AcDbLine
 62
7
  6
CONTINUOUS
 10
8.9942436108
 20
-28.0598283819
 11
8.5457154733
 21
-28.0598283819
  0
LINE
  5
29B
100
AcDbEntity
  8
0
100
AcDbLine
 62
7
  6
CONTINUOUS
 10
-8.3856553766
 20
-28.0598283819
 11
-8.634183514
 21
-28.0598283819
  0
LINE
  5
29C
100
AcDbEntity
  8
RACCORDO
100
AcDbLine
 62
7
  6
CONTINUOUS
 10
-8.634183514
 20
-28.0598283819
 11
-14.4371272391
 21
-28.0598283819
  0
LINE
  5
29D
100
AcDbEntity
  8
ASSI
100
AcDbLine
 62
7
  6
CONTINUOUS
 10
-2.6699699516
 20
-28.0098283819
 11
2.8300300484
 21
-28.0098283819
  0
LINE
  5
29E
100
AcDbEntity
  8
DRAFT
100
AcDbLine
 62
7
  6
CONTINUOUS
 10
14.5557659797
 20
-27.7598283819
 11
11.5800300484
 21
-27.7598283819
  0
LINE
  5
29F
100
AcDbEntity
  8
RACCORDO
100
AcDbLine
 62
7
  6
CONTINUOUS
 10
11.0800300484
 20
-27.7598283819
 11
8.5184445927
 21
-27.7598283819
  0
LINE
  5
2A0
100
AcDbEntity
  8
RACCORDO
100
AcDbLine
 62
7
  6
CONTINUOUS
 10
-8.358384496
 20
-27.7598283819
 11
-10.9199699516
 21
-27.7598283819
  0
LINE
  5
2A1
100
AcDbEntity
  8
DRAFT
100
AcDbLine
 62
7
  6
CONTINUOUS
 10
-11.4199699516
 20
-27.7598283819
 11
-14.3957058829
 21
-27.7598283819
  0
LINE
  5
2A2
100
AcDbEntity
  8
0
100
AcDbLine
 62
7
  6
CONTINUOUS
 10
-25.3368053282
 20
-27.7357839752
 11
-26.103134575
 21
-27.7357839752
  0
LINE
  5
2A3
100
AcDbEntity
  8
DRAFT
100
AcDbLine
 62
7
  6
CONTINUOUS
 10
-14.3716401626
 20
-27.7109542001
 11
-11.226652514
 21
-27.7109542001
  0
LINE
  5
2A4
100
AcDbEntity
  8
RACCORDO
100
AcDbLine
 62
7
  6
CONTINUOUS
 10
-11.1132873892
 20
-27.7109542001
 11
-8.3786288449
 21
-27.7109542001
  0
LINE
  5
2A5
100
AcDbEntity
  8
RACCORDO
100
AcDbLine
 62
7
  6
CONTINUOUS
 10
8.5386889417
 20
-27.7109542001
 11
11.273347486
 21
-27.7109542001
  0
LINE
  5
2A6
100
AcDbEntity
  8
DRAFT
100
AcDbLine
 62
7
  6
CONTINUOUS
 10
11.3867126108
 20
-27.7109542001
 11
14.5317002594
 21
-27.7109542001
  0
LINE
  5
2A7
100
AcDbEntity
  8
DRAFT
100
AcDbLine
 62
7
  6
CONTINUOUS
 10
13.7617967663
 20
-27.2087025637
 11
8.8982633305
 21
-27.2087025637
  0
LINE
  5
2A8
100
AcDbEntity
  8
DRAFT
100
AcDbLine
 62
7
  6
CONTINUOUS
 10
-8.7382032337
 20
-27.2087025637
 11
-13.6017366695
 21
-27.2087025637
  0
LINE
  5
2A9
100
AcDbEntity
  8
DRAFT
100
AcDbLine
 62
7
  6
CONTINUOUS
 10
13.7401063924
 20
-27.1563373689
 11
8.9199537044
 21
-27.1563373689
  0
LINE
  5
2AA
100
AcDbEntity
  8
DRAFT
100
AcDbLine
 62
7
  6
CONTINUOUS
 10
-8.7598936076
 20
-27.1563373689
 11
-13.5800462956
 21
-27.1563373689
  0
LINE
  5
2AB
100
AcDbEntity
  8
DRAFT
100
AcDbLine
 62
7
  6
CONTINUOUS
 10
12.409129655
 20
-26.7958643299
 11
10.2509304418
 21
-26.7958643299
  0
LINE
  5
2AC
100
AcDbEntity
  8
DRAFT
100
AcDbLine
 62
7
  6
CONTINUOUS
 10
-10.090870345
 20
-26.7958643299
 11
-12.2490695582
 21
-26.7958643299
  0
LINE
  5
2AD
100
AcDbEntity
  8
RACCORDO
100
AcDbLine
 62
7
  6
CONTINUOUS
 10
6.5971873359
 20
-26.7598283819
 11
5.9800300484
 21
-26.7598283819
  0
LINE
  5
2AE
100
AcDbEntity
  8
RACCORDO
100
AcDbLine
 62
7
  6
CONTINUOUS
 10
-5.8199699516
 20
-26.7598283819
 11
-6.4371272391
 21
-26.7598283819
  0
LINE
  5
2AF
100
AcDbEntity
  8
0
100
AcDbLine
 62
253
  6
CONTINUOUS
 10
5.9800300484
 20
-26.7596663526
 11
-5.8199699516
 21
-26.7596663526
  0
LINE
  5
2B0
100
AcDbEntity
  8
0
100
AcDbLine
 62
253
  6
CONTINUOUS
 10
5.9800300484
 20
-26.6601275314
 11
-5.8199699516
 21
-26.6601275314
  0
LINE
  5
2B1
100
AcDbEntity
  8
DRAFT
100
AcDbLine
 62
7
  6
CONTINUOUS
 10
-5.6199699516
 20
-26.6598283819
 11
-4.4199699516
 21
-26.6598283819
  0
LINE
  5
2B2
100
AcDbEntity
  8
DRAFT
100
AcDbLine
 62
7
  6
CONTINUOUS
 10
4.5800300484
 20
-26.6598283819
 11
5.7800300484
 21
-26.6598283819
  0
LINE
  5
2B3
100
AcDbEntity
  8
DRAFT
100
AcDbLine
 62
7
  6
CONTINUOUS
 10
-5.6199699516
 20
-26.6525675309
 11
-4.4199699516
 21
-26.6525675309
  0
LINE
  5
2B4
100
AcDbEntity
  8
DRAFT
100
AcDbLine
 62
7
  6
CONTINUOUS
 10
4.5800300484
 20
-26.6525675309
 11
5.7800300484
 21
-26.6525675309
  0
LINE
  5
2B5
100
AcDbEntity
  8
DRAFT
100
AcDbLine
 62
7
  6
CONTINUOUS
 10
-10.0743221656
 20
-26.8098281195
 11
-12.2647567989
 21
-26.8081062422
  0
LINE
  5
2B6
100
AcDbEntity
  8
DRAFT
100
AcDbLine
 62
7
  6
CONTINUOUS
 10
12.4256778344
 20
-26.8098281195
 11
10.2352432011
 21
-26.8081062422
  0
LINE
  5
2B7
100
AcDbEntity
  8
0
100
AcDbLine
 62
7
  6
CONTINUOUS
 10
-24.6328321328
 20
-26.0601255169
 11
-24.2424541272
 21
-26.0737924338
  0
LINE
  5
2B8
100
AcDbEntity
  8
DRAFT
100
AcDbLine
 62
7
  6
CONTINUOUS
 10
-11.1132873892
 20
-27.7109542001
 11
-10.9199699516
 21
-27.7598283819
  0
LINE
  5
2B9
100
AcDbEntity
  8
DRAFT
100
AcDbLine
 62
7
  6
CONTINUOUS
 10
-26.4699699516
 20
-15.3855643132
 11
-27.7699699516
 21
-14.3855643132
  0
LINE
  5
2BA
100
AcDbEntity
  8
DRAFT
100
AcDbLine
 62
7
  6
CONTINUOUS
 10
-26.4533467698
 20
-15.3366901314
 11
-27.7210957698
 21
-14.3614985929
  0
LINE
  5
2BB
100
AcDbEntity
  8
DRAFT
100
AcDbLine
 62
7
  6
CONTINUOUS
 10
-26.5164789386
 20
-12.5563830534
 11
-26.8199696892
 21
-12.2554761679
  0
LINE
  5
2BC
100
AcDbEntity
  8
RACCORDO
100
AcDbLine
 62
7
  6
CONTINUOUS
 10
-14.5785485954
 20
-28.0012497381
 11
-16.2399699516
 21
-26.3398283819
  0
LINE
  5
2BD
100
AcDbEntity
  8
RACCORDO
100
AcDbLine
 62
7
  6
CONTINUOUS
 10
-25.0785485954
 20
-17.5012497381
 11
-28.0113913078
 21
-14.5684070256
  0
LINE
  5
2BE
100
AcDbEntity
  8
DRAFT
100
AcDbLine
 62
7
  6
CONTINUOUS
 10
-15.9957058829
 20
-26.1598283819
 11
-16.8199699516
 21
-25.3355643132
  0
LINE
  5
2BF
100
AcDbEntity
  8
DRAFT
100
AcDbLine
 62
7
  6
CONTINUOUS
 10
-24.8932812243
 20
-17.2622530405
 11
-26.1699699516
 21
-15.9855643132
  0
LINE
  5
2C0
100
AcDbEntity
  8
DRAFT
100
AcDbLine
 62
7
  6
CONTINUOUS
 10
-26.1210957698
 20
-15.9653199642
 11
-24.8444070425
 21
-17.2420086915
  0
LINE
  5
2C1
100
AcDbEntity
  8
DRAFT
100
AcDbLine
 62
7
  6
CONTINUOUS
 10
-16.8199699516
 20
-25.2664457824
 11
-15.9754615339
 21
-26.1109542001
  0
LINE
  5
2C2
100
AcDbEntity
  8
DRAFT
100
AcDbLine
 62
7
  6
CONTINUOUS
 10
-25.3890884824
 20
-15.6598283819
 11
-27.2188441334
 21
-13.8300727308
  0
LINE
  5
2C3
100
AcDbEntity
  8
DRAFT
100
AcDbLine
 62
7
  6
CONTINUOUS
 10
-26.5164789386
 20
-14.458382357
 11
-27.1664789386
 21
-13.808382357
  0
LINE
  5
2C4
100
AcDbEntity
  8
DRAFT
100
AcDbLine
 62
7
  6
CONTINUOUS
 10
-25.2952847621
 20
-15.6598283819
 11
-26.5025148867
 21
-14.4525982573
  0
LINE
  5
2C5
100
AcDbEntity
  8
DRAFT
100
AcDbLine
 62
7
  6
CONTINUOUS
 10
-13.6017366695
 20
-27.2087025637
 11
-15.7188441334
 21
-25.0915950998
  0
LINE
  5
2C6
100
AcDbEntity
  8
DRAFT
100
AcDbLine
 62
7
  6
CONTINUOUS
 10
-13.5800462956
 20
-27.1563373689
 11
-14.2300462956
 21
-26.5063373689
  0
LINE
  5
2C7
100
AcDbEntity
  8
DRAFT
100
AcDbLine
 62
7
  6
CONTINUOUS
 10
-14.2242621959
 20
-26.492373317
 11
-15.6525148867
 21
-25.0641206262
  0
LINE
  5
2C8
100
AcDbEntity
  8
DRAFT
100
AcDbLine
 62
7
  6
CONTINUOUS
 10
-15.6839340036
 20
-24.9487356546
 11
-15.6525148867
 21
-24.9801547715
  0
LINE
  5
2C9
100
AcDbEntity
  8
DRAFT
100
AcDbLine
 62
7
  6
CONTINUOUS
 10
-15.6839340036
 20
-24.8098283819
 11
-15.7188441334
 21
-24.774918252
  0
LINE
  5
2CA
100
AcDbEntity
  8
DRAFT
100
AcDbLine
 62
7
  6
CONTINUOUS
 10
-14.6699699516
 20
-24.9801547715
 11
-14.6402963412
 21
-25.0098283819
  0
LINE
  5
2CB
100
AcDbEntity
  8
DRAFT
100
AcDbLine
 62
7
  6
CONTINUOUS
 10
-28.0199699516
 20
-11.1598283819
 11
-27.7699699516
 21
-11.4098283819
  0
LINE
  5
2CC
100
AcDbEntity
  8
DRAFT
100
AcDbLine
 62
7
  6
CONTINUOUS
 10
-11.4199699516
 20
-27.7598283819
 11
-11.1699699516
 21
-28.0098283819
  0
LINE
  5
2CD
100
AcDbEntity
  8
DRAFT
100
AcDbLine
 62
7
  6
CONTINUOUS
 10
-12.2647567989
 20
-26.8081062422
 11
-12.5665246231
 21
-26.5063373689
  0
LINE
  5
2CE
100
AcDbEntity
  8
SMUSSO
100
AcDbLine
 62
7
  6
CONTINUOUS
 10
-26.8060058997
 20
-12.2389279885
 11
-26.5025148867
 21
-12.5424190015
  0
LINE
  5
2CF
100
AcDbEntity
  8
SMUSSO
100
AcDbLine
 62
7
  6
CONTINUOUS
 10
-12.5525605712
 20
-26.492373317
 11
-12.2490695582
 21
-26.7958643299
  0
LINE
  5
2D0
100
AcDbEntity
  8
DRAFT
100
AcDbLine
 62
7
  6
CONTINUOUS
 10
-27.7777783322
 20
-11.1598283819
 11
-27.7210957698
 21
-11.2165109443
  0
LINE
  5
2D1
100
AcDbEntity
  8
DRAFT
100
AcDbLine
 62
7
  6
CONTINUOUS
 10
-11.226652514
 20
-27.7109542001
 11
-11.1699699516
 21
-27.7676367625
  0
LINE
  5
2D2
100
AcDbEntity
  8
DRAFT
100
AcDbLine
 62
7
  6
CONTINUOUS
 10
-14.3957058829
 20
-27.7598283819
 11
-15.3957058829
 21
-26.4598283819
  0
LINE
  5
2D3
100
AcDbEntity
  8
DRAFT
100
AcDbLine
 62
7
  6
CONTINUOUS
 10
-14.3716401626
 20
-27.7109542001
 11
-15.3468317011
 21
-26.4432052
  0
LINE
  5
2D4
100
AcDbEntity
  8
DRAFT
100
AcDbLine
 62
7
  6
CONTINUOUS
 10
-27.7210957698
 20
-11.1031458195
 11
-27.7699699516
 21
-10.9098283819
  0
LINE
  5
2D5
100
AcDbEntity
  8
SMUSSO
100
AcDbLine
 62
7
  6
CONTINUOUS
 10
-24.723125181
 20
17.9499553396
 11
-24.6873114582
 21
17.2031732946
  0
LINE
  5
2D6
100
AcDbEntity
  8
SMUSSO
100
AcDbLine
 62
7
  6
CONTINUOUS
 10
-24.4221812349
 20
18.2503614074
 11
-24.3872711051
 21
17.5224209389
  0
LINE
  5
2D7
100
AcDbEntity
  8
0
100
AcDbLine
 62
7
  6
CONTINUOUS
 10
-25.3368053282
 20
-27.7357839752
 11
-25.3696728166
 21
-26.7969662007
  0
LINE
  5
2D8
100
AcDbEntity
  8
SMUSSO
100
AcDbLine
 62
7
  6
CONTINUOUS
 10
-24.7571317179
 20
25.5679861636
 11
-24.7623674398
 21
25.8732218855
  0
LINE
  5
2D9
100
AcDbEntity
  8
SMUSSO
100
AcDbLine
 62
7
  6
CONTINUOUS
 10
-23.8890561671
 20
25.8732218855
 11
-23.8842009933
 21
25.5901716181
  0
LINE
  5
2DA
100
AcDbEntity
  8
SMUSSO
100
AcDbLine
 62
7
  6
CONTINUOUS
 10
-26.5164789386
 20
14.6387255932
 11
-26.5164789386
 21
12.7367262896
  0
LINE
  5
2DB
100
AcDbEntity
  8
SMUSSO
100
AcDbLine
 62
7
  6
CONTINUOUS
 10
-26.5164789386
 20
9.9400802282
 11
-26.5164789386
 21
8.041617643
  0
LINE
  5
2DC
100
AcDbEntity
  8
SMUSSO
100
AcDbLine
 62
7
  6
CONTINUOUS
 10
-26.5164789386
 20
-7.8612744068
 11
-26.5164789386
 21
-9.7632737104
  0
LINE
  5
2DD
100
AcDbEntity
  8
SMUSSO
100
AcDbLine
 62
7
  6
CONTINUOUS
 10
-26.5164789386
 20
-12.5563830534
 11
-26.5164789386
 21
-14.458382357
  0
LINE
  5
2DE
100
AcDbEntity
  8
SMUSSO
100
AcDbLine
 62
7
  6
CONTINUOUS
 10
-26.5025148867
 20
14.6329414935
 11
-26.5025148867
 21
12.7227622377
  0
LINE
  5
2DF
100
AcDbEntity
  8
SMUSSO
100
AcDbLine
 62
7
  6
CONTINUOUS
 10
-26.5025148867
 20
9.9400802282
 11
-26.5025148867
 21
8.0474017427
  0
LINE
  5
2E0
100
AcDbEntity
  8
SMUSSO
100
AcDbLine
 62
7
  6
CONTINUOUS
 10
-26.5025148867
 20
-7.8670585065
 11
-26.5025148867
 21
-9.7772377623
  0
LINE
  5
2E1
100
AcDbEntity
  8
SMUSSO
100
AcDbLine
 62
7
  6
CONTINUOUS
 10
-26.5025148867
 20
-12.5424190015
 11
-26.5025148867
 21
-14.4525982573
  0
LINE
  5
2E2
100
AcDbEntity
  8
0
100
AcDbLine
 62
253
  6
CONTINUOUS
 10
-26.4349699955
 20
-4.3098283819
 11
-26.4349699955
 21
4.4901716181
  0
LINE
  5
2E3
100
AcDbEntity
  8
0
100
AcDbLine
 62
253
  6
CONTINUOUS
 10
-26.3329741423
 20
-4.3098283819
 11
-26.3329741423
 21
4.4901716181
  0
LINE
  5
2E4
100
AcDbEntity
  8
DRAFT
100
AcDbLine
 62
7
  6
CONTINUOUS
 10
-26.1699699516
 20
-15.9855643132
 11
-26.1699699516
 21
-15.3855643132
  0
LINE
  5
2E5
100
AcDbEntity
  8
DRAFT
100
AcDbLine
 62
7
  6
CONTINUOUS
 10
-26.1699699516
 20
15.5659075494
 11
-26.1699699516
 21
16.1659075494
  0
LINE
  5
2E6
100
AcDbEntity
  8
0
100
AcDbLine
 62
253
  6
CONTINUOUS
 10
-26.1599331675
 20
16.7901187858
 11
-26.1599331675
 21
19.2401716181
  0
LINE
  5
2E7
100
AcDbEntity
  8
0
100
AcDbLine
 62
253
  6
CONTINUOUS
 10
-26.1599331675
 20
20.4401716181
 11
-26.1599331675
 21
22.8902244504
  0
LINE
  5
2E8
100
AcDbEntity
  8
DRAFT
100
AcDbLine
 62
7
  6
CONTINUOUS
 10
-26.1210957698
 20
-15.9653199642
 11
-26.1210957698
 21
-15.3366901314
  0
LINE
  5
2E9
100
AcDbEntity
  8
DRAFT
100
AcDbLine
 62
7
  6
CONTINUOUS
 10
-26.1210957698
 20
15.5170333676
 11
-26.1210957698
 21
16.1456632005
  0
LINE
  5
2EA
100
AcDbEntity
  8
0
100
AcDbLine
 62
7
  6
CONTINUOUS
 10
-26.103134575
 20
-27.7357839752
 11
-26.103134575
 21
-26.6885509967
  0
LINE
  5
2EB
100
AcDbEntity
  8
0
100
AcDbLine
 62
7
  6
CONTINUOUS
 10
-26.103134575
 20
-24.7311057671
 11
-26.103134575
 21
-23.6838727886
  0
LINE
  5
2EC
100
AcDbEntity
  8
DRAFT
100
AcDbLine
 62
7
  6
CONTINUOUS
 10
-26.0199699516
 20
1.5849350986
 11
-26.0199699516
 21
-1.4045918624
  0
LINE
  5
2ED
100
AcDbEntity
  8
0
100
AcDbLine
 62
253
  6
CONTINUOUS
 10
-26.0007500633
 20
16.6847276257
 11
-26.0007500633
 21
19.2401716181
  0
LINE
  5
2EE
100
AcDbEntity
  8
0
100
AcDbLine
 62
253
  6
CONTINUOUS
 10
-26.0007500633
 20
20.4401716181
 11
-26.0007500633
 21
22.9956156106
  0
LINE
  5
2EF
100
AcDbEntity
  8
0
100
AcDbLine
 62
7
  6
CONTINUOUS
 10
-25.7199699516
 20
20.4401716181
 11
-25.7199699516
 21
19.2401716181
  0
LINE
  5
2F0
100
AcDbEntity
  8
RACCORDO
100
AcDbLine
 62
7
  6
CONTINUOUS
 10
-25.5870471456
 20
1.5901716181
 11
-25.5870471456
 21
3.9901716181
  0
LINE
  5
2F1
100
AcDbEntity
  8
0
100
AcDbLine
 62
7
  6
CONTINUOUS
 10
-25.3368053282
 20
-27.7357839752
 11
-25.3368053282
 21
-26.6885509967
  0
LINE
  5
2F2
100
AcDbEntity
  8
0
100
AcDbLine
 62
7
  6
CONTINUOUS
 10
-25.3368053282
 20
-24.7311057671
 11
-25.3368053282
 21
-23.6838727886
  0
LINE
  5
2F3
100
AcDbEntity
  8
0
100
AcDbLine
 62
7
  6
CONTINUOUS
 10
-25.3199699516
 20
14.2332619317
 11
-25.3199699516
 21
8.4470813045
  0
LINE
  5
2F4
100
AcDbEntity
  8
0
100
AcDbLine
 62
7
  6
CONTINUOUS
 10
-25.3199699516
 20
-8.2667380683
 11
-25.3199699516
 21
-14.0529186955
  0
LINE
  5
2F5
100
AcDbEntity
  8
SMUSSO
100
AcDbLine
 62
7
  6
CONTINUOUS
 10
-25.0199699516
 20
-21.4600809136
 11
-25.0199699516
 21
-17.6426710944
  0
LINE
  5
2F6
100
AcDbEntity
  8
RACCORDO
100
AcDbLine
 62
7
  6
CONTINUOUS
 10
-25.0199699516
 20
23.0901716181
 11
-25.0199699516
 21
26.4401716181
  0
LINE
  5
2F7
100
AcDbEntity
  8
0
100
AcDbLine
 62
7
  6
CONTINUOUS
 10
-25.0199699516
 20
26.4401716181
 11
-25.0199699516
 21
26.5201716181
  0
LINE
  5
2F8
100
AcDbEntity
  8
0
100
AcDbLine
 62
7
  6
CONTINUOUS
 10
-24.9199699516
 20
23.0901716181
 11
-24.9199699516
 21
16.5901716181
  0
LINE
  5
2F9
100
AcDbEntity
  8
DRAFT
100
AcDbLine
 62
7
  6
CONTINUOUS
 10
-24.8932812243
 20
-21.0969995965
 11
-24.8932812243
 21
-17.2622530405
  0
LINE
  5
2FA
100
AcDbEntity
  8
DRAFT
100
AcDbLine
 62
7
  6
CONTINUOUS
 10
-24.8932812243
 20
-5.0574037233
 11
-24.8932812243
 21
-4.2287362837
  0
LINE
  5
2FB
100
AcDbEntity
  8
DRAFT
100
AcDbLine
 62
7
  6
CONTINUOUS
 10
-24.8932812243
 20
4.40907952
 11
-24.8932812243
 21
5.2377469595
  0
LINE
  5
2FC
100
AcDbEntity
  8
DRAFT
100
AcDbLine
 62
7
  6
CONTINUOUS
 10
-24.8932812243
 20
17.4425962767
 11
-24.8932812243
 21
18.0668603454
  0
LINE
  5
2FD
100
AcDbEntity
  8
DRAFT
100
AcDbLine
 62
7
  6
CONTINUOUS
 10
-24.8932812243
 20
21.6134828908
 11
-24.8932812243
 21
26.0041356701
  0
LINE
  5
2FE
100
AcDbEntity
  8
0
100
AcDbLine
 62
7
  6
CONTINUOUS
 10
-24.8699699516
 20
14.7401716181
 11
-24.8699699516
 21
7.9401716181
  0
LINE
  5
2FF
100
AcDbEntity
  8
0
100
AcDbLine
 62
7
  6
CONTINUOUS
 10
-24.8699699516
 20
-7.7598283819
 11
-24.8699699516
 21
-14.5598283819
  0
LINE
  5
300
100
AcDbEntity
  8
DRAFT
100
AcDbLine
 62
7
  6
CONTINUOUS
 10
-24.8444070425
 20
-17.2420086915
 11
-24.8444070425
 21
-15.6598283819
  0
LINE
  5
301
100
AcDbEntity
  8
DRAFT
100
AcDbLine
 62
7
  6
CONTINUOUS
 10
-24.8444070425
 20
-6.6598283819
 11
-24.8444070425
 21
-5.0776480722
  0
LINE
  5
302
100
AcDbEntity
  8
DRAFT
100
AcDbLine
 62
7
  6
CONTINUOUS
 10
-24.8444070425
 20
5.2579913085
 11
-24.8444070425
 21
6.8401716181
  0
LINE
  5
303
100
AcDbEntity
  8
DRAFT
100
AcDbLine
 62
7
  6
CONTINUOUS
 10
-24.8444070425
 20
15.8401716181
 11
-24.8444070425
 21
17.4223519278
  0
LINE
  5
304
100
AcDbEntity
  8
RACCORDO
100
AcDbLine
 62
7
  6
CONTINUOUS
 10
-24.824073585
 20
2.0901716181
 11
-24.824073585
 21
3.9901716181
  0
LINE
  5
305
100
AcDbEntity
  8
DRAFT
100
AcDbLine
 62
7
  6
CONTINUOUS
 10
-24.8094969127
 20
15.8410878903
 11
-24.8094969127
 21
14.7295085897
  0
LINE
  5
306
100
AcDbEntity
  8
DRAFT
100
AcDbLine
 62
7
  6
CONTINUOUS
 10
-24.8094969127
 20
7.9508346465
 11
-24.8094969127
 21
6.8392553459
  0
LINE
  5
307
100
AcDbEntity
  8
DRAFT
100
AcDbLine
 62
7
  6
CONTINUOUS
 10
-24.8094969127
 20
-6.6589121097
 11
-24.8094969127
 21
-7.7704914103
  0
LINE
  5
308
100
AcDbEntity
  8
DRAFT
100
AcDbLine
 62
7
  6
CONTINUOUS
 10
-24.8094969127
 20
-14.5491653535
 11
-24.8094969127
 21
-15.6607446541
  0
LINE
  5
309
100
AcDbEntity
  8
DRAFT
100
AcDbLine
 62
7
  6
CONTINUOUS
 10
-24.764513687
 20
1.5347153535
 11
-24.764513687
 21
-1.3543721173
  0
LINE
  5
30A
100
AcDbEntity
  8
SMUSSO
100
AcDbLine
 62
7
  6
CONTINUOUS
 10
-24.7571317179
 20
25.5679861636
 11
-24.7571317179
 21
24.9901716181
  0
LINE
  5
30B
100
AcDbEntity
  8
DRAFT
100
AcDbLine
 62
7
  6
CONTINUOUS
 10
-24.7571317179
 20
14.7202751931
 11
-24.7571317179
 21
7.9600680432
  0
LINE
  5
30C
100
AcDbEntity
  8
DRAFT
100
AcDbLine
 62
7
  6
CONTINUOUS
 10
-24.7571317179
 20
-7.7797248069
 11
-24.7571317179
 21
-14.5399319568
  0
LINE
  5
30D
100
AcDbEntity
  8
0
100
AcDbLine
 62
7
  6
CONTINUOUS
 10
-24.6873114582
 20
-21.3374109496
 11
-24.6873114582
 21
-3.9098283819
  0
LINE
  5
30E
100
AcDbEntity
  8
SMUSSO
100
AcDbLine
 62
7
  6
CONTINUOUS
 10
-24.6873114582
 20
4.0901716181
 11
-24.6873114582
 21
17.2031732946
  0
LINE
  5
30F
100
AcDbEntity
  8
SMUSSO
100
AcDbLine
 62
7
  6
CONTINUOUS
 10
-24.6873114582
 20
22.4771699416
 11
-24.6873114582
 21
24.9901716181
  0
LINE
  5
310
100
AcDbEntity
  8
0
100
AcDbLine
 62
7
  6
CONTINUOUS
 10
-24.6199699516
 20
21.3401716181
 11
-24.6199699516
 21
18.3401716181
  0
LINE
  5
311
100
AcDbEntity
  8
0
100
AcDbLine
 62
7
  6
CONTINUOUS
 10
-24.5839340036
 20
-21.8961168616
 11
-24.5839340036
 21
-21.4563217682
  0
LINE
  5
312
100
AcDbEntity
  8
0
100
AcDbLine
 62
7
  6
CONTINUOUS
 10
-24.2424541272
 20
-26.0737924338
 11
-24.2424541272
 21
-25.3458643299
  0
LINE
  5
313
100
AcDbEntity
  8
DRAFT
100
AcDbLine
 62
7
  6
CONTINUOUS
 10
-24.0199699516
 20
26.0041356701
 11
-24.0199699516
 21
26.5201716181
  0
LINE
  5
314
100
AcDbEntity
  8
SMUSSO
100
AcDbLine
 62
7
  6
CONTINUOUS
 10
-22.8199699516
 20
25.5901716181
 11
-22.8199699516
 21
24.9901716181
  0
LINE
  5
315
100
AcDbEntity
  8
RACCORDO
100
AcDbLine
 62
7
  6
CONTINUOUS
 10
-22.7699699516
 20
25.7873369012
 11
-22.7699699516
 21
25.5901716181
  0
LINE
  5
316
100
AcDbEntity
  8
RACCORDO
100
AcDbLine
 62
7
  6
CONTINUOUS
 10
-22.7699699516
 20
25.7873369012
 11
-22.7699699516
 21
26.4020659523
  0
LINE
  5
317
100
AcDbEntity
  8
0
100
AcDbLine
 62
7
  6
CONTINUOUS
 10
-22.7699699516
 20
26.4020659523
 11
-22.7699699516
 21
26.6006174207
  0
LINE
  5
318
100
AcDbEntity
  8
SMUSSO
100
AcDbLine
 62
7
  6
CONTINUOUS
 10
-22.8755991656
 20
17.5224209389
 11
-22.85814543
 21
18.2503614074
  0
LINE
  5
319
100
AcDbEntity
  8
SMUSSO
100
AcDbLine
 62
7
  6
CONTINUOUS
 10
-22.5746923651
 20
17.2022148031
 11
-22.5567638858
 21
17.9499553396
  0
LINE
  5
31A
100
AcDbEntity
  8
0
100
AcDbLine
 62
7
  6
CONTINUOUS
 10
-26.0702670866
 20
-26.7969662007
 11
-26.103134575
 21
-27.7357839752
  0
LINE
  5
31B
100
AcDbEntity
  8
0
100
AcDbLine
 62
7
  6
CONTINUOUS
 10
-25.3696728166
 20
-24.622690563
 11
-25.3368053282
 21
-23.6838727886
  0
LINE
  5
31C
100
AcDbEntity
  8
SMUSSO
100
AcDbLine
 62
7
  6
CONTINUOUS
 10
-24.6873114582
 20
22.4771699416
 11
-24.723125181
 21
21.7303878966
  0
LINE
  5
31D
100
AcDbEntity
  8
SMUSSO
100
AcDbLine
 62
7
  6
CONTINUOUS
 10
-24.3872711051
 20
22.1579222974
 11
-24.4221812349
 21
21.4299818288
  0
LINE
  5
31E
100
AcDbEntity
  8
DRAFT
100
AcDbLine
 62
7
  6
CONTINUOUS
 10
-24.824073585
 20
-1.4378161197
 11
-24.8199699516
 21
-1.4098283819
  0
LINE
  5
31F
100
AcDbEntity
  8
DRAFT
100
AcDbLine
 62
7
  6
CONTINUOUS
 10
-27.7210957698
 20
-11.2165109443
 11
-27.7699699516
 21
-11.4098283819
  0
LINE
  5
320
100
AcDbEntity
  8
DRAFT
100
AcDbLine
 62
7
  6
CONTINUOUS
 10
-16.8548800815
 20
25.4118788888
 11
-16.8060058997
 21
25.5298716013
  0
LINE
  5
321
100
AcDbEntity
  8
DRAFT
100
AcDbLine
 62
7
  6
CONTINUOUS
 10
-10.0769057656
 20
26.9901721456
 11
-10.090870345
 21
26.9762075662
  0
LINE
  5
322
100
AcDbEntity
  8
DRAFT
100
AcDbLine
 62
7
  6
CONTINUOUS
 10
-12.4419282893
 20
24.0182132804
 11
-12.6199699516
 21
23.8401716181
  0
LINE
  5
323
100
AcDbEntity
  8
SMUSSO
100
AcDbLine
 62
7
  6
CONTINUOUS
 10
-9.787379332
 20
26.6727165532
 11
-9.7734152801
 21
26.6866806051
  0
LINE
  5
324
100
AcDbEntity
  8
DRAFT
100
AcDbLine
 62
7
  6
CONTINUOUS
 10
-6.6874250165
 20
25.2444638624
 11
-6.6210978192
 21
25.2865230673
  0
LINE
  5
325
100
AcDbEntity
  8
DRAFT
100
AcDbLine
 62
7
  6
CONTINUOUS
 10
-12.6199699516
 20
22.6558799801
 11
-12.4419282893
 21
22.7448940316
  0
LINE
  5
326
100
AcDbEntity
  8
DRAFT
100
AcDbLine
 62
7
  6
CONTINUOUS
 10
-11.226652514
 20
-27.7109542001
 11
-11.4199699516
 21
-27.7598283819
  0
LINE
  5
327
100
AcDbEntity
  8
0
100
AcDbLine
 62
7
  6
CONTINUOUS
 10
26.1608101601
 20
-22.8152723743
 11
25.0800300484
 21
-22.9098283819
  0
LINE
  5
328
100
AcDbEntity
  8
0
100
AcDbLine
 62
7
  6
CONTINUOUS
 10
-27.197485776
 20
-26.0737924338
 11
-26.8071077705
 21
-26.0601255169
  0
LINE
  5
329
100
AcDbEntity
  8
0
100
AcDbLine
 62
7
  6
CONTINUOUS
 10
-24.2424541272
 20
-25.3458643299
 11
-24.6328321328
 21
-25.3595312469
  0
LINE
  5
32A
100
AcDbEntity
  8
SMUSSO
100
AcDbLine
 62
7
  6
CONTINUOUS
 10
-14.2300462956
 20
-26.5063373689
 11
-12.5665246231
 21
-26.5063373689
  0
LINE
  5
32B
100
AcDbEntity
  8
SMUSSO
100
AcDbLine
 62
7
  6
CONTINUOUS
 10
-9.7734152801
 20
-26.5063373689
 11
-8.1098936076
 21
-26.5063373689
  0
LINE
  5
32C
100
AcDbEntity
  8
SMUSSO
100
AcDbLine
 62
7
  6
CONTINUOUS
 10
8.2699537044
 20
-26.5063373689
 11
9.9334753769
 21
-26.5063373689
  0
LINE
  5
32D
100
AcDbEntity
  8
SMUSSO
100
AcDbLine
 62
7
  6
CONTINUOUS
 10
12.7265847199
 20
-26.5063373689
 11
14.3901063924
 21
-26.5063373689
  0
LINE
  5
32E
100
AcDbEntity
  8
SMUSSO
100
AcDbLine
 62
7
  6
CONTINUOUS
 10
-14.2242621959
 20
-26.492373317
 11
-12.5525605712
 21
-26.492373317
  0
LINE
  5
32F
100
AcDbEntity
  8
SMUSSO
100
AcDbLine
 62
7
  6
CONTINUOUS
 10
-9.787379332
 20
-26.492373317
 11
-8.1156777073
 21
-26.492373317
  0
LINE
  5
330
100
AcDbEntity
  8
SMUSSO
100
AcDbLine
 62
7
  6
CONTINUOUS
 10
8.2757378041
 20
-26.492373317
 11
9.9474394288
 21
-26.492373317
  0
LINE
  5
331
100
AcDbEntity
  8
SMUSSO
100
AcDbLine
 62
7
  6
CONTINUOUS
 10
12.712620668
 20
-26.492373317
 11
14.3843222927
 21
-26.492373317
  0
LINE
  5
332
100
AcDbEntity
  8
RACCORDO
100
AcDbLine
 62
7
  6
CONTINUOUS
 10
-4.4199699516
 20
-26.4811560514
 11
4.5800300484
 21
-26.4811560514
  0
LINE
  5
333
100
AcDbEntity
  8
0
100
AcDbLine
 62
253
  6
CONTINUOUS
 10
-17.8699699516
 20
-26.4202741845
 11
-20.6199699516
 21
-26.4202741845
  0
LINE
  5
334
100
AcDbEntity
  8
0
100
AcDbLine
 62
253
  6
CONTINUOUS
 10
22.9300300484
 20
-26.3402741845
 11
18.0300300484
 21
-26.3402741845
  0
LINE
  5
335
100
AcDbEntity
  8
0
100
AcDbLine
 62
7
  6
CONTINUOUS
 10
-16.2399699516
 20
-26.3398283819
 11
-17.8699699516
 21
-26.3398283819
  0
LINE
  5
336
100
AcDbEntity
  8
SMUSSO
100
AcDbLine
 62
7
  6
CONTINUOUS
 10
-20.6199699516
 20
-26.3398283819
 11
-21.0199699516
 21
-26.3398283819
  0
LINE
  5
337
100
AcDbEntity
  8
0
100
AcDbLine
 62
7
  6
CONTINUOUS
 10
15.8800300484
 20
-26.2598283819
 11
18.0300300484
 21
-26.2598283819
  0
LINE
  5
338
100
AcDbEntity
  8
0
100
AcDbLine
 62
7
  6
CONTINUOUS
 10
22.9300300484
 20
-26.2598283819
 11
25.2266930031
 21
-26.2598283819
  0
LINE
  5
339
100
AcDbEntity
  8
0
100
AcDbLine
 62
253
  6
CONTINUOUS
 10
-17.8699699516
 20
-26.2217227161
 11
-20.6199699516
 21
-26.2217227161
  0
LINE
  5
33A
100
AcDbEntity
  8
0
100
AcDbLine
 62
7
  6
CONTINUOUS
 10
-26.3059876479
 20
-26.2098283819
 11
-26.2054845988
 21
-26.2098283819
  0
LINE
  5
33B
100
AcDbEntity
  8
RACCORDO
100
AcDbLine
 62
7
  6
CONTINUOUS
 10
-23.2704802088
 20
-26.2098283819
 11
-25.1339522553
 21
-26.2098283819
  0
LINE
  5
33C
100
AcDbEntity
  8
0
100
AcDbLine
 62
7
  6
CONTINUOUS
 10
-25.1339522553
 20
-26.2098283819
 11
-25.2344553044
 21
-26.2098283819
  0
LINE
  5
33D
100
AcDbEntity
  8
RACCORDO
100
AcDbLine
 62
7
  6
CONTINUOUS
 10
-26.3059876479
 20
-26.2098283819
 11
-28.1694596944
 21
-26.2098283819
  0
LINE
  5
33E
100
AcDbEntity
  8
DRAFT
100
AcDbLine
 62
7
  6
CONTINUOUS
 10
16.1557659797
 20
-26.1598283819
 11
15.5557659797
 21
-26.1598283819
  0
LINE
  5
33F
100
AcDbEntity
  8
DRAFT
100
AcDbLine
 62
7
  6
CONTINUOUS
 10
-15.3957058829
 20
-26.1598283819
 11
-15.9957058829
 21
-26.1598283819
  0
LINE
  5
340
100
AcDbEntity
  8
0
100
AcDbLine
 62
253
  6
CONTINUOUS
 10
22.9300300484
 20
-26.1417227161
 11
18.0300300484
 21
-26.1417227161
  0
LINE
  5
341
100
AcDbEntity
  8
DRAFT
100
AcDbLine
 62
7
  6
CONTINUOUS
 10
16.1355216307
 20
-26.1109542001
 11
15.5068917979
 21
-26.1109542001
  0
LINE
  5
342
100
AcDbEntity
  8
DRAFT
100
AcDbLine
 62
7
  6
CONTINUOUS
 10
-15.3468317011
 20
-26.1109542001
 11
-15.9754615339
 21
-26.1109542001
  0
LINE
  5
343
100
AcDbEntity
  8
0
100
AcDbLine
 62
7
  6
CONTINUOUS
 10
-24.2424541272
 20
-26.0737924338
 11
-24.8114163271
 21
-26.0737924338
  0
LINE
  5
344
100
AcDbEntity
  8
0
100
AcDbLine
 62
7
  6
CONTINUOUS
 10
-26.6285235761
 20
-26.0737924338
 11
-27.197485776
 21
-26.0737924338
  0
LINE
  5
345
100
AcDbEntity
  8
DRAFT
100
AcDbLine
 62
7
  6
CONTINUOUS
 10
-17.6199699516
 20
-25.8237924338
 11
-16.8199699516
 21
-25.8237924338
  0
LINE
  5
346
100
AcDbEntity
  8
DRAFT
100
AcDbLine
 62
7
  6
CONTINUOUS
 10
16.9800300484
 20
-25.8237924338
 11
17.7800300484
 21
-25.8237924338
  0
LINE
  5
347
100
AcDbEntity
  8
DRAFT
100
AcDbLine
 62
7
  6
CONTINUOUS
 10
24.1800300484
 20
-25.8237924338
 11
25.0533413211
 21
-25.8237924338
  0
LINE
  5
348
100
AcDbEntity
  8
SMUSSO
100
AcDbLine
 62
7
  6
CONTINUOUS
 10
-17.7508837361
 20
-25.6928786493
 11
-16.8199699516
 21
-25.6928786493
  0
LINE
  5
349
100
AcDbEntity
  8
SMUSSO
100
AcDbLine
 62
7
  6
CONTINUOUS
 10
16.9800300484
 20
-25.6928786493
 11
17.9109438329
 21
-25.6928786493
  0
LINE
  5
34A
100
AcDbEntity
  8
SMUSSO
100
AcDbLine
 62
7
  6
CONTINUOUS
 10
24.0491162639
 20
-25.6928786493
 11
24.9224275366
 21
-25.6928786493
  0
LINE
  5
34B
100
AcDbEntity
  8
RACCORDO
100
AcDbLine
 62
7
  6
CONTINUOUS
 10
-4.4199699516
 20
-25.686141716
 11
4.5800300484
 21
-25.686141716
  0
LINE
  5
34C
100
AcDbEntity
  8
DRAFT
100
AcDbLine
 62
7
  6
CONTINUOUS
 10
6.7800300484
 20
-25.6755379403
 11
6.0891222063
 21
-25.6755379403
  0
LINE
  5
34D
100
AcDbEntity
  8
DRAFT
100
AcDbLine
 62
7
  6
CONTINUOUS
 10
-5.9290621095
 20
-25.6755379403
 11
-6.6199699516
 21
-25.6755379403
  0
LINE
  5
34E
100
AcDbEntity
  8
DRAFT
100
AcDbLine
 62
7
  6
CONTINUOUS
 10
6.0956293184
 20
-25.6598283819
 11
5.7800300484
 21
-25.6598283819
  0
LINE
  5
34F
100
AcDbEntity
  8
DRAFT
100
AcDbLine
 62
7
  6
CONTINUOUS
 10
-5.6199699516
 20
-25.6598283819
 11
-5.9355692217
 21
-25.6598283819
  0
LINE
  5
350
100
AcDbEntity
  8
DRAFT
100
AcDbLine
 62
7
  6
CONTINUOUS
 10
-5.6199699516
 20
-25.6126328507
 11
-4.4199699516
 21
-25.6126328507
  0
LINE
  5
351
100
AcDbEntity
  8
DRAFT
100
AcDbLine
 62
7
  6
CONTINUOUS
 10
4.5800300484
 20
-25.6126328507
 11
5.7800300484
 21
-25.6126328507
  0
LINE
  5
352
100
AcDbEntity
  8
RACCORDO
100
AcDbLine
 62
7
  6
CONTINUOUS
 10
18.5300300484
 20
-25.5630347166
 11
22.4300300484
 21
-25.5630347166
  0
LINE
  5
353
100
AcDbEntity
  8
RACCORDO
100
AcDbLine
 62
7
  6
CONTINUOUS
 10
-20.1199699516
 20
-25.5469252456
 11
-18.3699699516
 21
-25.5469252456
  0
LINE
  5
354
100
AcDbEntity
  8
DRAFT
100
AcDbLine
 62
7
  6
CONTINUOUS
 10
-6.6199699516
 20
-25.518442356
 11
-4.4199699516
 21
-25.518442356
  0
LINE
  5
355
100
AcDbEntity
  8
DRAFT
100
AcDbLine
 62
7
  6
CONTINUOUS
 10
4.5800300484
 20
-25.518442356
 11
6.7800300484
 21
-25.518442356
  0
LINE
  5
356
100
AcDbEntity
  8
0
100
AcDbLine
 62
7
  6
CONTINUOUS
 10
-20.4702132592
 20
-25.4098283819
 11
-17.9199699516
 21
-25.4098283819
  0
LINE
  5
357
100
AcDbEntity
  8
SMUSSO
100
AcDbLine
 62
7
  6
CONTINUOUS
 10
-17.9199699516
 20
-25.4098283819
 11
-17.7561194581
 21
-25.4098283819
  0
LINE
  5
358
100
AcDbEntity
  8
SMUSSO
100
AcDbLine
 62
7
  6
CONTINUOUS
 10
17.9157990067
 20
-25.4098283819
 11
24.04426109
 21
-25.4098283819
  0
LINE
  5
359
100
AcDbEntity
  8
SMUSSO
100
AcDbLine
 62
7
  6
CONTINUOUS
 10
-17.7561194581
 20
-25.3876429274
 11
-16.8199699516
 21
-25.3876429274
  0
LINE
  5
35A
100
AcDbEntity
  8
SMUSSO
100
AcDbLine
 62
7
  6
CONTINUOUS
 10
16.9800300484
 20
-25.3876429274
 11
18.0800300484
 21
-25.3876429274
  0
LINE
  5
35B
100
AcDbEntity
  8
SMUSSO
100
AcDbLine
 62
7
  6
CONTINUOUS
 10
22.9800300484
 20
-25.3876429274
 11
24.9171918146
 21
-25.3876429274
  0
LINE
  5
35C
100
AcDbEntity
  8
0
100
AcDbLine
 62
7
  6
CONTINUOUS
 10
-24.2424541272
 20
-25.3458643299
 11
-24.8114163271
 21
-25.3458643299
  0
LINE
  5
35D
100
AcDbEntity
  8
0
100
AcDbLine
 62
7
  6
CONTINUOUS
 10
-26.6285235761
 20
-25.3458643299
 11
-27.197485776
 21
-25.3458643299
  0
LINE
  5
35E
100
AcDbEntity
  8
DRAFT
100
AcDbLine
 62
7
  6
CONTINUOUS
 10
-14.6402963412
 20
-25.3098283819
 11
-10.8310626789
 21
-25.3098283819
  0
LINE
  5
35F
100
AcDbEntity
  8
DRAFT
100
AcDbLine
 62
7
  6
CONTINUOUS
 10
10.9911227756
 20
-25.3098283819
 11
14.800356438
 21
-25.3098283819
  0
LINE
  5
360
100
AcDbEntity
  8
0
100
AcDbLine
 62
7
  6
CONTINUOUS
 10
-26.3059876479
 20
-25.2098283819
 11
-26.2054845988
 21
-25.2098283819
  0
LINE
  5
361
100
AcDbEntity
  8
RACCORDO
100
AcDbLine
 62
7
  6
CONTINUOUS
 10
-23.2704802088
 20
-25.2098283819
 11
-25.1339522553
 21
-25.2098283819
  0
LINE
  5
362
100
AcDbEntity
  8
0
100
AcDbLine
 62
7
  6
CONTINUOUS
 10
-25.1339522553
 20
-25.2098283819
 11
-25.2344553044
 21
-25.2098283819
  0
LINE
  5
363
100
AcDbEntity
  8
RACCORDO
100
AcDbLine
 62
7
  6
CONTINUOUS
 10
-26.3059876479
 20
-25.2098283819
 11
-28.1694596944
 21
-25.2098283819
  0
LINE
  5
364
100
AcDbEntity
  8
DRAFT
100
AcDbLine
 62
7
  6
CONTINUOUS
 10
-14.6402963412
 20
-25.0098283819
 11
-10.8310626789
 21
-25.0098283819
  0
LINE
  5
365
100
AcDbEntity
  8
DRAFT
100
AcDbLine
 62
7
  6
CONTINUOUS
 10
10.9911227756
 20
-25.0098283819
 11
14.800356438
 21
-25.0098283819
  0
LINE
  5
366
100
AcDbEntity
  8
DRAFT
100
AcDbLine
 62
7
  6
CONTINUOUS
 10
15.8125749835
 20
-24.9801547715
 11
14.8300300484
 21
-24.9801547715
  0
LINE
  5
367
100
AcDbEntity
  8
DRAFT
100
AcDbLine
 62
7
  6
CONTINUOUS
 10
10.9614491653
 20
-24.9801547715
 11
6.8474851133
 21
-24.9801547715
  0
LINE
  5
368
100
AcDbEntity
  8
DRAFT
100
AcDbLine
 62
7
  6
CONTINUOUS
 10
-6.6874250165
 20
-24.9801547715
 11
-10.8013890685
 21
-24.9801547715
  0
LINE
  5
369
100
AcDbEntity
  8
DRAFT
100
AcDbLine
 62
7
  6
CONTINUOUS
 10
-14.6699699516
 20
-24.9801547715
 11
-15.6525148867
 21
-24.9801547715
  0
LINE
  5
36A
100
AcDbEntity
  8
DRAFT
100
AcDbLine
 62
7
  6
CONTINUOUS
 10
-15.6839340036
 20
-24.9487356546
 11
-6.6560058997
 21
-24.9487356546
  0
LINE
  5
36B
100
AcDbEntity
  8
DRAFT
100
AcDbLine
 62
7
  6
CONTINUOUS
 10
6.8160659964
 20
-24.9487356546
 11
15.8439941003
 21
-24.9487356546
  0
LINE
  5
36C
100
AcDbEntity
  8
DRAFT
100
AcDbLine
 62
7
  6
CONTINUOUS
 10
-21.6702224833
 20
-24.8098283819
 11
-21.1932513158
 21
-24.8098283819
  0
LINE
  5
36D
100
AcDbEntity
  8
0
100
AcDbLine
 62
7
  6
CONTINUOUS
 10
-21.1932513158
 20
-24.8098283819
 11
-17.9199699516
 21
-24.8098283819
  0
LINE
  5
36E
100
AcDbEntity
  8
DRAFT
100
AcDbLine
 62
7
  6
CONTINUOUS
 10
-15.6839340036
 20
-24.8098283819
 11
-6.6560058997
 21
-24.8098283819
  0
LINE
  5
36F
100
AcDbEntity
  8
0
100
AcDbLine
 62
7
  6
CONTINUOUS
 10
-3.3111536026
 20
-24.8098283819
 11
3.4712136994
 21
-24.8098283819
  0
LINE
  5
370
100
AcDbEntity
  8
DRAFT
100
AcDbLine
 62
7
  6
CONTINUOUS
 10
6.8160659964
 20
-24.8098283819
 11
15.8439941003
 21
-24.8098283819
  0
LINE
  5
371
100
AcDbEntity
  8
DRAFT
100
AcDbLine
 62
7
  6
CONTINUOUS
 10
18.0800300484
 20
-24.8098283819
 11
24.9171918146
 21
-24.8098283819
  0
LINE
  5
372
100
AcDbEntity
  8
0
100
AcDbLine
 62
7
  6
CONTINUOUS
 10
4.5824734409
 20
-24.781900278
 11
3.4662892211
 21
-24.781900278
  0
LINE
  5
373
100
AcDbEntity
  8
0
100
AcDbLine
 62
7
  6
CONTINUOUS
 10
-3.3062291243
 20
-24.781900278
 11
-4.4224133441
 21
-24.781900278
  0
LINE
  5
374
100
AcDbEntity
  8
DRAFT
100
AcDbLine
 62
7
  6
CONTINUOUS
 10
-16.8199699516
 20
-24.774918252
 11
-15.7188441334
 21
-24.774918252
  0
LINE
  5
375
100
AcDbEntity
  8
DRAFT
100
AcDbLine
 62
7
  6
CONTINUOUS
 10
16.9800300484
 20
-24.774918252
 11
15.8789042302
 21
-24.774918252
  0
LINE
  5
376
100
AcDbEntity
  8
DRAFT
100
AcDbLine
 62
7
  6
CONTINUOUS
 10
18.0800300484
 20
-24.6876429274
 11
16.9800300484
 21
-24.6876429274
  0
LINE
  5
377
100
AcDbEntity
  8
DRAFT
100
AcDbLine
 62
7
  6
CONTINUOUS
 10
-16.8199699516
 20
-24.6876429274
 11
-17.9199699516
 21
-24.6876429274
  0
LINE
  5
378
100
AcDbEntity
  8
0
100
AcDbLine
 62
7
  6
CONTINUOUS
 10
-4.4199699516
 20
-24.6597148235
 11
4.5800300484
 21
-24.6597148235
  0
LINE
  5
379
100
AcDbEntity
  8
DRAFT
100
AcDbLine
 62
7
  6
CONTINUOUS
 10
18.0800300484
 20
-24.6178226677
 11
6.7800300484
 21
-24.6178226677
  0
LINE
  5
37A
100
AcDbEntity
  8
DRAFT
100
AcDbLine
 62
7
  6
CONTINUOUS
 10
-6.6199699516
 20
-24.6178226677
 11
-17.9199699516
 21
-24.6178226677
  0
LINE
  5
37B
100
AcDbEntity
  8
DRAFT
100
AcDbLine
 62
7
  6
CONTINUOUS
 10
-15.5980116139
 20
-23.8378700442
 11
-12.4419282893
 21
-23.8378700442
  0
LINE
  5
37C
100
AcDbEntity
  8
DRAFT
100
AcDbLine
 62
7
  6
CONTINUOUS
 10
12.6019883861
 20
-23.8378700442
 11
15.7580717107
 21
-23.8378700442
  0
LINE
  5
37D
100
AcDbEntity
  8
0
100
AcDbLine
 62
7
  6
CONTINUOUS
 10
-32.2746675896
 20
-23.7411992318
 11
-29.7652723136
 21
-23.7411992318
  0
LINE
  5
37E
100
AcDbEntity
  8
0
100
AcDbLine
 62
7
  6
CONTINUOUS
 10
32.4347276864
 20
-23.7411992318
 11
29.9253324104
 21
-23.7411992318
  0
LINE
  5
37F
100
AcDbEntity
  8
0
100
AcDbLine
 62
7
  6
CONTINUOUS
 10
-26.103134575
 20
-23.6838727886
 11
-25.3368053282
 21
-23.6838727886
  0
LINE
  5
380
100
AcDbEntity
  8
DRAFT
100
AcDbLine
 62
7
  6
CONTINUOUS
 10
-15.4199699516
 20
-23.6598283819
 11
-12.6199699516
 21
-23.6598283819
  0
LINE
  5
381
100
AcDbEntity
  8
DRAFT
100
AcDbLine
 62
7
  6
CONTINUOUS
 10
15.5800300484
 20
-23.6598283819
 11
12.7800300484
 21
-23.6598283819
  0
LINE
  5
382
100
AcDbEntity
  8
0
100
AcDbLine
 62
7
  6
CONTINUOUS
 10
31.6797442428
 20
-23.4411992318
 11
30.6803158539
 21
-23.4411992318
  0
LINE
  5
383
100
AcDbEntity
  8
0
100
AcDbLine
 62
7
  6
CONTINUOUS
 10
-30.5202557572
 20
-23.4411992318
 11
-31.5196841461
 21
-23.4411992318
  0
LINE
  5
384
100
AcDbEntity
  8
0
100
AcDbLine
 62
7
  6
CONTINUOUS
 10
-26.8071077705
 20
-25.3595312469
 11
-27.197485776
 21
-25.3458643299
  0
LINE
  5
385
100
AcDbEntity
  8
DRAFT
100
AcDbLine
 62
7
  6
CONTINUOUS
 10
11.3867126108
 20
-27.7109542001
 11
11.5800300484
 21
-27.7598283819
  0
LINE
  5
386
100
AcDbEntity
  8
DRAFT
100
AcDbLine
 62
7
  6
CONTINUOUS
 10
-6.6874250165
 20
-25.0641206262
 11
-6.6210957698
 21
-25.0915950998
  0
LINE
  5
387
100
AcDbEntity
  8
DRAFT
100
AcDbLine
 62
7
  6
CONTINUOUS
 10
-12.6199699516
 20
-22.4755367439
 11
-12.4419282893
 21
-22.5645507954
  0
LINE
  5
388
100
AcDbEntity
  8
DRAFT
100
AcDbLine
 62
7
  6
CONTINUOUS
 10
-26.8199704791
 20
-10.0667641958
 11
-26.8060058997
 21
-10.0807287753
  0
LINE
  5
389
100
AcDbEntity
  8
DRAFT
100
AcDbLine
 62
7
  6
CONTINUOUS
 10
-10.0769057655
 20
-26.8098289094
 11
-10.090870345
 21
-26.7958643299
  0
LINE
  5
38A
100
AcDbEntity
  8
DRAFT
100
AcDbLine
 62
7
  6
CONTINUOUS
 10
-12.4419282893
 20
-23.8378700442
 11
-12.6199699516
 21
-23.6598283819
  0
LINE
  5
38B
100
AcDbEntity
  8
SMUSSO
100
AcDbLine
 62
7
  6
CONTINUOUS
 10
-9.787379332
 20
-26.492373317
 11
-9.7734152801
 21
-26.5063373689
  0
LINE
  5
38C
100
AcDbEntity
  8
SMUSSO
100
AcDbLine
 62
7
  6
CONTINUOUS
 10
-26.5025148867
 20
-9.7772377623
 11
-26.5164789386
 21
-9.7632737104
  0
LINE
  5
38D
100
AcDbEntity
  8
DRAFT
100
AcDbLine
 62
7
  6
CONTINUOUS
 10
-27.7210957698
 20
11.3968541805
 11
-27.7699699516
 21
11.5901716181
  0
LINE
  5
38E
100
AcDbEntity
  8
DRAFT
100
AcDbLine
 62
7
  6
CONTINUOUS
 10
-24.824073585
 20
1.618159356
 11
-24.8199699516
 21
1.5901716181
  0
LINE
  5
38F
100
AcDbEntity
  8
SMUSSO
100
AcDbLine
 62
7
  6
CONTINUOUS
 10
-22.85814543
 20
21.4299818288
 11
-22.8755991656
 21
22.1579222974
  0
LINE
  5
390
100
AcDbEntity
  8
RACCORDO
100
AcDbLine
 62
7
  6
CONTINUOUS
 10
-22.5567638858
 20
21.7303878966
 11
-22.5714197182
 21
22.3416366155
  0
LINE
  5
391
100
AcDbEntity
  8
SMUSSO
100
AcDbLine
 62
7
  6
CONTINUOUS
 10
-22.5746923651
 20
17.2022148031
 11
-22.5746923651
 21
4.0901716181
  0
LINE
  5
392
100
AcDbEntity
  8
RACCORDO
100
AcDbLine
 62
7
  6
CONTINUOUS
 10
-22.5746923651
 20
-3.9098283819
 11
-22.5746923651
 21
-22.1645660261
  0
LINE
  5
393
100
AcDbEntity
  8
DRAFT
100
AcDbLine
 62
7
  6
CONTINUOUS
 10
-22.5397848939
 20
16.0396619614
 11
-22.5397848939
 21
14.3292971224
  0
LINE
  5
394
100
AcDbEntity
  8
DRAFT
100
AcDbLine
 62
7
  6
CONTINUOUS
 10
-22.5397848939
 20
13.3626190339
 11
-22.5397848939
 21
11.8524818761
  0
LINE
  5
395
100
AcDbEntity
  8
DRAFT
100
AcDbLine
 62
7
  6
CONTINUOUS
 10
-22.5397848939
 20
10.8278613601
 11
-22.5397848939
 21
9.3177242023
  0
LINE
  5
396
100
AcDbEntity
  8
DRAFT
100
AcDbLine
 62
7
  6
CONTINUOUS
 10
-22.5397848939
 20
8.3510461138
 11
-22.5397848939
 21
6.6406812748
  0
LINE
  5
397
100
AcDbEntity
  8
DRAFT
100
AcDbLine
 62
7
  6
CONTINUOUS
 10
-22.5397848939
 20
-6.4603380386
 11
-22.5397848939
 21
-8.1707028776
  0
LINE
  5
398
100
AcDbEntity
  8
DRAFT
100
AcDbLine
 62
7
  6
CONTINUOUS
 10
-22.5397848939
 20
-9.1373809661
 11
-22.5397848939
 21
-10.6475181239
  0
LINE
  5
399
100
AcDbEntity
  8
DRAFT
100
AcDbLine
 62
7
  6
CONTINUOUS
 10
-22.5397848939
 20
-11.6721386399
 11
-22.5397848939
 21
-13.1822757977
  0
LINE
  5
39A
100
AcDbEntity
  8
DRAFT
100
AcDbLine
 62
7
  6
CONTINUOUS
 10
-22.5397848939
 20
-14.1489538862
 11
-22.5397848939
 21
-15.8593187252
  0
LINE
  5
39B
100
AcDbEntity
  8
0
100
AcDbLine
 62
7
  6
CONTINUOUS
 10
-22.4900769516
 20
-31.7485603819
 11
-22.4900769516
 21
-32.0710983819
  0
LINE
  5
39C
100
AcDbEntity
  8
DRAFT
100
AcDbLine
 62
7
  6
CONTINUOUS
 10
-22.4805158319
 20
14.3188463876
 11
-22.4805158319
 21
8.3614968486
  0
LINE
  5
39D
100
AcDbEntity
  8
DRAFT
100
AcDbLine
 62
7
  6
CONTINUOUS
 10
-22.4805158319
 20
-8.1811536124
 11
-22.4805158319
 21
-14.1385031514
  0
LINE
  5
39E
100
AcDbEntity
  8
RACCORDO
100
AcDbLine
 62
7
  6
CONTINUOUS
 10
-22.4699699516
 20
9.6081154732
 11
-22.4700019025
 21
8.3633233151
  0
LINE
  5
39F
100
AcDbEntity
  8
RACCORDO
100
AcDbLine
 62
7
  6
CONTINUOUS
 10
-22.4699699516
 20
-22.0598436127
 11
-22.4699699516
 21
-22.0272834468
  0
LINE
  5
3A0
100
AcDbEntity
  8
DRAFT
100
AcDbLine
 62
7
  6
CONTINUOUS
 10
-22.4699699516
 20
-22.0272834468
 11
-22.4699699516
 21
-15.8654267412
  0
LINE
  5
3A1
100
AcDbEntity
  8
DRAFT
100
AcDbLine
 62
7
  6
CONTINUOUS
 10
-22.4699699516
 20
-6.4542300226
 11
-22.4699699516
 21
6.6345732588
  0
LINE
  5
3A2
100
AcDbEntity
  8
DRAFT
100
AcDbLine
 62
7
  6
CONTINUOUS
 10
-22.4699699516
 20
16.0457699774
 11
-22.4699699516
 21
18.3401716181
  0
LINE
  5
3A3
100
AcDbEntity
  8
RACCORDO
100
AcDbLine
 62
7
  6
CONTINUOUS
 10
-22.4699699516
 20
22.207626683
 11
-22.4699699516
 21
22.2401868489
  0
LINE
  5
3A4
100
AcDbEntity
  8
DRAFT
100
AcDbLine
 62
7
  6
CONTINUOUS
 10
-22.4699699516
 20
21.3401716181
 11
-22.4699699516
 21
22.207626683
  0
LINE
  5
3A5
100
AcDbEntity
  8
RACCORDO
100
AcDbLine
 62
7
  6
CONTINUOUS
 10
-22.4700019071
 20
-12.8917865492
 11
-22.4700019025
 21
-14.1366766849
  0
LINE
  5
3A6
100
AcDbEntity
  8
0
100
AcDbLine
 62
7
  6
CONTINUOUS
 10
-22.4199699516
 20
21.5901716181
 11
-22.4199699516
 21
18.0901716181
  0
LINE
  5
3A7
100
AcDbEntity
  8
RACCORDO
100
AcDbLine
 62
253
  6
CONTINUOUS
 10
-22.2699699516
 20
25.7272684818
 11
-22.2699699516
 21
25.5901716181
  0
LINE
  5
3A8
100
AcDbEntity
  8
0
100
AcDbLine
 62
7
  6
CONTINUOUS
 10
-21.0631769516
 20
-30.1836133819
 11
-21.0631769516
 21
-31.7485603819
  0
LINE
  5
3A9
100
AcDbEntity
  8
0
100
AcDbLine
 62
7
  6
CONTINUOUS
 10
-21.0631769516
 20
-32.0710983819
 11
-21.0631769516
 21
-33.6357853819
  0
LINE
  5
3AA
100
AcDbEntity
  8
SMUSSO
100
AcDbLine
 62
7
  6
CONTINUOUS
 10
-20.8409331614
 20
-25.78053906
 11
-20.8409331614
 21
-25.6391177038
  0
LINE
  5
3AB
100
AcDbEntity
  8
0
100
AcDbLine
 62
7
  6
CONTINUOUS
 10
-20.7767629516
 20
-33.6357853819
 11
-20.7767629516
 21
-30.1836133819
  0
LINE
  5
3AC
100
AcDbEntity
  8
RACCORDO
100
AcDbLine
 62
7
  6
CONTINUOUS
 10
-20.6199699516
 20
-26.2217227161
 11
-20.6199699516
 21
-25.606993665
  0
LINE
  5
3AD
100
AcDbEntity
  8
RACCORDO
100
AcDbLine
 62
7
  6
CONTINUOUS
 10
-20.6199699516
 20
-25.606993665
 11
-20.6199699516
 21
-25.2883888176
  0
LINE
  5
3AE
100
AcDbEntity
  8
0
100
AcDbLine
 62
7
  6
CONTINUOUS
 10
-20.6199699516
 20
-26.2217227161
 11
-20.6199699516
 21
-26.4202741845
  0
LINE
  5
3AF
100
AcDbEntity
  8
0
100
AcDbLine
 62
7
  6
CONTINUOUS
 10
-20.3329539516
 20
-30.7541153819
 11
-20.3329539516
 21
-33.0655413819
  0
LINE
  5
3B0
100
AcDbEntity
  8
RACCORDO
100
AcDbLine
 62
253
  6
CONTINUOUS
 10
-20.1199699516
 20
-25.5469252456
 11
-20.1199699516
 21
-25.4098283819
  0
LINE
  5
3B1
100
AcDbEntity
  8
0
100
AcDbLine
 62
7
  6
CONTINUOUS
 10
-20.0465419516
 20
-33.0655413819
 11
-20.0465419516
 21
-30.7541153819
  0
LINE
  5
3B2
100
AcDbEntity
  8
0
100
AcDbLine
 62
7
  6
CONTINUOUS
 10
-19.6027309516
 20
-31.3243603819
 11
-19.6027309516
 21
-32.4950383819
  0
LINE
  5
3B3
100
AcDbEntity
  8
0
100
AcDbLine
 62
7
  6
CONTINUOUS
 10
-19.3137379516
 20
-32.4950383819
 11
-19.3137379516
 21
-31.3243603819
  0
LINE
  5
3B4
100
AcDbEntity
  8
RACCORDO
100
AcDbLine
 62
7
  6
CONTINUOUS
 10
-22.4700019025
 20
14.3170199174
 11
-22.4700019071
 21
13.072129924
  0
LINE
  5
3B5
100
AcDbEntity
  8
RACCORDO
100
AcDbLine
 62
7
  6
CONTINUOUS
 10
-22.4700019025
 20
-8.1829800826
 11
-22.4700019071
 21
-9.427870076
  0
LINE
  5
3B6
100
AcDbEntity
  8
DRAFT
100
AcDbLine
 62
7
  6
CONTINUOUS
 10
-26.4699699516
 20
-15.3855643132
 11
-26.4533467698
 21
-15.3366901314
  0
LINE
  5
3B7
100
AcDbEntity
  8
0
100
AcDbLine
 62
7
  6
CONTINUOUS
 10
-27.3897677349
 20
-7.2725502906
 11
-28.0214418142
 21
-8.3269856694
  0
LINE
  5
3B8
100
AcDbEntity
  8
0
100
AcDbLine
 62
7
  6
CONTINUOUS
 10
-27.1729136768
 20
-6.912772107
 11
-27.3897677349
 21
-7.2725502906
  0
LINE
  5
3B9
100
AcDbEntity
  8
0
100
AcDbLine
 62
7
  6
CONTINUOUS
 10
8.3738411121
 20
28.1168216718
 11
8.4971873359
 21
28.1916434807
  0
LINE
  5
3BA
100
AcDbEntity
  8
0
100
AcDbLine
 62
7
  6
CONTINUOUS
 10
7.0829737735
 20
27.3431153433
 11
7.4427519143
 21
27.5599693804
  0
LINE
  5
3BB
100
AcDbEntity
  8
0
100
AcDbLine
 62
7
  6
CONTINUOUS
 10
7.4427519143
 20
27.5599693804
 11
8.3738411121
 21
28.1168216718
  0
LINE
  5
3BC
100
AcDbEntity
  8
DRAFT
100
AcDbLine
 62
7
  6
CONTINUOUS
 10
15.5557659797
 20
26.6401716181
 11
15.5068917979
 21
26.6235484363
  0
LINE
  5
3BD
100
AcDbEntity
  8
RACCORDO
100
AcDbLine
 62
7
  6
CONTINUOUS
 10
-22.1747075959
 20
-22.5645507954
 11
-15.5980116139
 21
-22.5645507954
  0
LINE
  5
3BE
100
AcDbEntity
  8
DRAFT
100
AcDbLine
 62
7
  6
CONTINUOUS
 10
-12.4419282893
 20
-22.5645507954
 11
12.6019883861
 21
-22.5645507954
  0
LINE
  5
3BF
100
AcDbEntity
  8
RACCORDO
100
AcDbLine
 62
7
  6
CONTINUOUS
 10
15.7580717107
 20
-22.5645507954
 11
22.3347676927
 21
-22.5645507954
  0
LINE
  5
3C0
100
AcDbEntity
  8
DRAFT
100
AcDbLine
 62
7
  6
CONTINUOUS
 10
4.7795203917
 20
-22.5296433242
 11
3.0691555527
 21
-22.5296433242
  0
LINE
  5
3C1
100
AcDbEntity
  8
DRAFT
100
AcDbLine
 62
7
  6
CONTINUOUS
 10
2.1024774642
 20
-22.5296433242
 11
0.5923403064
 21
-22.5296433242
  0
LINE
  5
3C2
100
AcDbEntity
  8
DRAFT
100
AcDbLine
 62
7
  6
CONTINUOUS
 10
-0.4322802096
 20
-22.5296433242
 11
-1.9424173674
 21
-22.5296433242
  0
LINE
  5
3C3
100
AcDbEntity
  8
DRAFT
100
AcDbLine
 62
7
  6
CONTINUOUS
 10
-2.9090954559
 20
-22.5296433242
 11
-4.6194602949
 21
-22.5296433242
  0
LINE
  5
3C4
100
AcDbEntity
  8
DRAFT
100
AcDbLine
 62
7
  6
CONTINUOUS
 10
15.5800300484
 20
-22.4755367439
 11
12.7800300484
 21
-22.4755367439
  0
LINE
  5
3C5
100
AcDbEntity
  8
DRAFT
100
AcDbLine
 62
7
  6
CONTINUOUS
 10
-12.6199699516
 20
-22.4755367439
 11
-15.4199699516
 21
-22.4755367439
  0
LINE
  5
3C6
100
AcDbEntity
  8
DRAFT
100
AcDbLine
 62
7
  6
CONTINUOUS
 10
-2.8986447211
 20
-22.4703742622
 11
3.0587048179
 21
-22.4703742622
  0
LINE
  5
3C7
100
AcDbEntity
  8
RACCORDO
100
AcDbLine
 62
7
  6
CONTINUOUS
 10
22.2300452792
 20
-22.4598283819
 11
18.9300300484
 21
-22.4598283819
  0
LINE
  5
3C8
100
AcDbEntity
  8
DRAFT
100
AcDbLine
 62
7
  6
CONTINUOUS
 10
18.9300300484
 20
-22.4598283819
 11
4.7856284077
 21
-22.4598283819
  0
LINE
  5
3C9
100
AcDbEntity
  8
RACCORDO
100
AcDbLine
 62
7
  6
CONTINUOUS
 10
-2.8967851979
 20
-22.4598283819
 11
-1.6520260965
 21
-22.4598283819
  0
LINE
  5
3CA
100
AcDbEntity
  8
RACCORDO
100
AcDbLine
 62
7
  6
CONTINUOUS
 10
1.8119882157
 20
-22.4598603374
 11
3.0568452947
 21
-22.4598283819
  0
LINE
  5
3CB
100
AcDbEntity
  8
DRAFT
100
AcDbLine
 62
7
  6
CONTINUOUS
 10
-4.6255683109
 20
-22.4598283819
 11
-18.7699699516
 21
-22.4598283819
  0
LINE
  5
3CC
100
AcDbEntity
  8
RACCORDO
100
AcDbLine
 62
7
  6
CONTINUOUS
 10
-18.7699699516
 20
-22.4598283819
 11
-22.0699851824
 21
-22.4598283819
  0
LINE
  5
3CD
100
AcDbEntity
  8
0
100
AcDbLine
 62
7
  6
CONTINUOUS
 10
-24.0764410082
 20
-22.0237924338
 11
-24.4562584314
 21
-22.0237924338
  0
LINE
  5
3CE
100
AcDbEntity
  8
SMUSSO
100
AcDbLine
 62
7
  6
CONTINUOUS
 10
24.5473312019
 20
-21.9775790611
 11
23.0356592624
 21
-21.9775790611
  0
LINE
  5
3CF
100
AcDbEntity
  8
0
100
AcDbLine
 62
7
  6
CONTINUOUS
 10
22.5800300484
 20
-21.4098283819
 11
0.9480910484
 21
-21.4098283819
  0
LINE
  5
3D0
100
AcDbEntity
  8
SMUSSO
100
AcDbLine
 62
7
  6
CONTINUOUS
 10
23.019037374
 20
-21.2496385926
 11
23.5902198377
 21
-21.2496385926
  0
LINE
  5
3D1
100
AcDbEntity
  8
0
100
AcDbLine
 62
7
  6
CONTINUOUS
 10
23.5902198377
 20
-21.2496385926
 11
23.9698402591
 21
-21.2496385926
  0
LINE
  5
3D2
100
AcDbEntity
  8
SMUSSO
100
AcDbLine
 62
7
  6
CONTINUOUS
 10
23.9698402591
 20
-21.2496385926
 11
24.5805775107
 21
-21.2496385926
  0
LINE
  5
3D3
100
AcDbEntity
  8
SMUSSO
100
AcDbLine
 62
253
  6
CONTINUOUS
 10
23.005592986
 20
-21.2092972356
 11
23.6305611947
 21
-21.2092972356
  0
LINE
  5
3D4
100
AcDbEntity
  8
SMUSSO
100
AcDbLine
 62
253
  6
CONTINUOUS
 10
23.9294989021
 20
-21.2092972356
 11
24.6074683346
 21
-21.2092972356
  0
LINE
  5
3D5
100
AcDbEntity
  8
0
100
AcDbLine
 62
7
  6
CONTINUOUS
 10
24.7800300484
 20
-21.1598283819
 11
23.8800300484
 21
-21.1598283819
  0
LINE
  5
3D6
100
AcDbEntity
  8
0
100
AcDbLine
 62
7
  6
CONTINUOUS
 10
23.6800300484
 20
-21.1598283819
 11
22.5800300484
 21
-21.1598283819
  0
LINE
  5
3D7
100
AcDbEntity
  8
0
100
AcDbLine
 62
7
  6
CONTINUOUS
 10
-0.7199699516
 20
-20.9098283819
 11
0.5800300484
 21
-20.9098283819
  0
LINE
  5
3D8
100
AcDbEntity
  8
SMUSSO
100
AcDbLine
 62
7
  6
CONTINUOUS
 10
-25.6492592735
 20
-20.8307915917
 11
-25.7906806297
 21
-20.8307915917
  0
LINE
  5
3D9
100
AcDbEntity
  8
0
100
AcDbLine
 62
7
  6
CONTINUOUS
 10
27.033257352
 20
-20.2598283819
 11
25.8800300484
 21
-20.2598283819
  0
LINE
  5
3DA
100
AcDbEntity
  8
0
100
AcDbLine
 62
7
  6
CONTINUOUS
 10
25.8800300484
 20
-19.0598283819
 11
27.033257352
 21
-19.0598283819
  0
LINE
  5
3DB
100
AcDbEntity
  8
DRAFT
100
AcDbLine
 62
7
  6
CONTINUOUS
 10
15.5557659797
 20
-26.4598283819
 11
15.5068917979
 21
-26.4432052
  0
LINE
  5
3DC
100
AcDbEntity
  8
0
100
AcDbLine
 62
7
  6
CONTINUOUS
 10
7.4427519571
 20
-27.3796261652
 11
8.4971873359
 21
-28.0113002445
  0
LINE
  5
3DD
100
AcDbEntity
  8
0
100
AcDbLine
 62
7
  6
CONTINUOUS
 10
7.0829737735
 20
-27.162772107
 11
7.4427519571
 21
-27.3796261652
  0
LINE
  5
3DE
100
AcDbEntity
  8
0
100
AcDbLine
 62
7
  6
CONTINUOUS
 10
-28.0214418142
 20
8.5073289056
 11
-27.9466198317
 21
8.3839824244
  0
LINE
  5
3DF
100
AcDbEntity
  8
0
100
AcDbLine
 62
7
  6
CONTINUOUS
 10
-27.7810522432
 20
8.1066795814
 11
-27.1729136768
 21
7.0931153433
  0
LINE
  5
3E0
100
AcDbEntity
  8
0
100
AcDbLine
 62
7
  6
CONTINUOUS
 10
-27.9466198317
 20
8.3839824244
 11
-27.7810522432
 21
8.1066795814
  0
LINE
  5
3E1
100
AcDbEntity
  8
DRAFT
100
AcDbLine
 62
7
  6
CONTINUOUS
 10
-26.4699699516
 20
15.5659075494
 11
-26.4533467698
 21
15.5170333676
  0
LINE
  5
3E2
100
AcDbEntity
  8
SMUSSO
100
AcDbLine
 62
7
  6
CONTINUOUS
 10
-17.7508837361
 20
-25.6928786493
 11
-17.7561194581
 21
-25.3876429274
  0
LINE
  5
3E3
100
AcDbEntity
  8
RACCORDO
100
AcDbLine
 62
253
  6
CONTINUOUS
 10
-18.3699699516
 20
25.7272684818
 11
-18.3699699516
 21
25.5901716181
  0
LINE
  5
3E4
100
AcDbEntity
  8
RACCORDO
100
AcDbLine
 62
253
  6
CONTINUOUS
 10
-18.3699699516
 20
-25.5469252456
 11
-18.3699699516
 21
-25.4098283819
  0
LINE
  5
3E5
100
AcDbEntity
  8
SMUSSO
100
AcDbLine
 62
7
  6
CONTINUOUS
 10
-17.9199699516
 20
25.5901716181
 11
-17.9199699516
 21
24.9901716181
  0
LINE
  5
3E6
100
AcDbEntity
  8
DRAFT
100
AcDbLine
 62
7
  6
CONTINUOUS
 10
-17.9199699516
 20
24.9901716181
 11
-17.9199699516
 21
24.7981659039
  0
LINE
  5
3E7
100
AcDbEntity
  8
DRAFT
100
AcDbLine
 62
7
  6
CONTINUOUS
 10
-17.9199699516
 20
-24.6178226677
 11
-17.9199699516
 21
-25.4098283819
  0
LINE
  5
3E8
100
AcDbEntity
  8
RACCORDO
100
AcDbLine
 62
7
  6
CONTINUOUS
 10
-17.8699699516
 20
26.4020659523
 11
-17.8699699516
 21
25.7873369012
  0
LINE
  5
3E9
100
AcDbEntity
  8
RACCORDO
100
AcDbLine
 62
7
  6
CONTINUOUS
 10
-17.8699699516
 20
25.7873369012
 11
-17.8699699516
 21
25.5901716181
  0
LINE
  5
3EA
100
AcDbEntity
  8
RACCORDO
100
AcDbLine
 62
7
  6
CONTINUOUS
 10
-17.8699699516
 20
-25.606993665
 11
-17.8699699516
 21
-25.4098283819
  0
LINE
  5
3EB
100
AcDbEntity
  8
RACCORDO
100
AcDbLine
 62
7
  6
CONTINUOUS
 10
-17.8699699516
 20
-25.606993665
 11
-17.8699699516
 21
-26.2217227161
  0
LINE
  5
3EC
100
AcDbEntity
  8
0
100
AcDbLine
 62
7
  6
CONTINUOUS
 10
-17.8699699516
 20
-26.2217227161
 11
-17.8699699516
 21
-26.4202741845
  0
LINE
  5
3ED
100
AcDbEntity
  8
0
100
AcDbLine
 62
7
  6
CONTINUOUS
 10
-17.8699699516
 20
26.4020659523
 11
-17.8699699516
 21
26.6006174207
  0
LINE
  5
3EE
100
AcDbEntity
  8
SMUSSO
100
AcDbLine
 62
7
  6
CONTINUOUS
 10
-17.7561194581
 20
-25.3876429274
 11
-17.7561194581
 21
-25.4098283819
  0
LINE
  5
3EF
100
AcDbEntity
  8
DRAFT
100
AcDbLine
 62
7
  6
CONTINUOUS
 10
-17.6199699516
 20
26.5201716181
 11
-17.6199699516
 21
26.0041356701
  0
LINE
  5
3F0
100
AcDbEntity
  8
DRAFT
100
AcDbLine
 62
7
  6
CONTINUOUS
 10
-17.6199699516
 20
-25.8237924338
 11
-17.6199699516
 21
-26.3398283819
  0
LINE
  5
3F1
100
AcDbEntity
  8
SMUSSO
100
AcDbLine
 62
7
  6
CONTINUOUS
 10
-16.9421554061
 20
25.5679861636
 11
-16.9421554061
 21
24.8679861636
  0
LINE
  5
3F2
100
AcDbEntity
  8
DRAFT
100
AcDbLine
 62
7
  6
CONTINUOUS
 10
-16.8548800815
 20
24.9552614883
 11
-16.8548800815
 21
25.4118788888
  0
LINE
  5
3F3
100
AcDbEntity
  8
SMUSSO
100
AcDbLine
 62
7
  6
CONTINUOUS
 10
-16.8199699516
 20
-24.6876429274
 11
-16.8199699516
 21
-25.8237924338
  0
LINE
  5
3F4
100
AcDbEntity
  8
DRAFT
100
AcDbLine
 62
7
  6
CONTINUOUS
 10
-16.8060058997
 20
25.5298716013
 11
-16.8060058997
 21
26.0041356701
  0
LINE
  5
3F5
100
AcDbEntity
  8
DRAFT
100
AcDbLine
 62
7
  6
CONTINUOUS
 10
-15.7188441334
 20
-25.0915950998
 11
-15.7188441334
 21
-24.774918252
  0
LINE
  5
3F6
100
AcDbEntity
  8
DRAFT
100
AcDbLine
 62
7
  6
CONTINUOUS
 10
-15.7188441334
 20
24.9552614883
 11
-15.7188441334
 21
25.271938336
  0
LINE
  5
3F7
100
AcDbEntity
  8
DRAFT
100
AcDbLine
 62
7
  6
CONTINUOUS
 10
-15.6839340036
 20
-24.9487356546
 11
-15.6839340036
 21
-24.8098283819
  0
LINE
  5
3F8
100
AcDbEntity
  8
DRAFT
100
AcDbLine
 62
7
  6
CONTINUOUS
 10
-15.6839340036
 20
24.9901716181
 11
-15.6839340036
 21
25.1290788909
  0
LINE
  5
3F9
100
AcDbEntity
  8
DRAFT
100
AcDbLine
 62
7
  6
CONTINUOUS
 10
-15.6525148867
 20
25.2444638624
 11
-15.6525148867
 21
25.1604980077
  0
LINE
  5
3FA
100
AcDbEntity
  8
DRAFT
100
AcDbLine
 62
7
  6
CONTINUOUS
 10
-15.6525148867
 20
-24.9801547715
 11
-15.6525148867
 21
-25.0641206262
  0
LINE
  5
3FB
100
AcDbEntity
  8
DRAFT
100
AcDbLine
 62
7
  6
CONTINUOUS
 10
-15.5980116139
 20
24.0182132804
 11
-15.5980116139
 21
22.7448940316
  0
LINE
  5
3FC
100
AcDbEntity
  8
DRAFT
100
AcDbLine
 62
7
  6
CONTINUOUS
 10
-15.5980116139
 20
-22.5645507954
 11
-15.5980116139
 21
-23.8378700442
  0
LINE
  5
3FD
100
AcDbEntity
  8
DRAFT
100
AcDbLine
 62
7
  6
CONTINUOUS
 10
-15.4199699516
 20
23.8401716181
 11
-15.4199699516
 21
22.6558799801
  0
LINE
  5
3FE
100
AcDbEntity
  8
DRAFT
100
AcDbLine
 62
7
  6
CONTINUOUS
 10
-15.4199699516
 20
-23.6598283819
 11
-15.4199699516
 21
-22.4755367439
  0
LINE
  5
3FF
100
AcDbEntity
  8
DRAFT
100
AcDbLine
 62
7
  6
CONTINUOUS
 10
-15.3957058829
 20
-26.4598283819
 11
-15.3957058829
 21
-26.1598283819
  0
LINE
  5
400
100
AcDbEntity
  8
DRAFT
100
AcDbLine
 62
7
  6
CONTINUOUS
 10
-15.3957058829
 20
26.3401716181
 11
-15.3957058829
 21
26.6401716181
  0
LINE
  5
401
100
AcDbEntity
  8
DRAFT
100
AcDbLine
 62
7
  6
CONTINUOUS
 10
-15.3468317011
 20
-26.4432052
 11
-15.3468317011
 21
-26.1109542001
  0
LINE
  5
402
100
AcDbEntity
  8
DRAFT
100
AcDbLine
 62
7
  6
CONTINUOUS
 10
-15.3468317011
 20
26.2912974363
 11
-15.3468317011
 21
26.6235484363
  0
LINE
  5
403
100
AcDbEntity
  8
SMUSSO
100
AcDbLine
 62
7
  6
CONTINUOUS
 10
-17.75573891
 20
25.5901716181
 11
-17.7508837361
 21
25.8732218855
  0
LINE
  5
404
100
AcDbEntity
  8
SMUSSO
100
AcDbLine
 62
7
  6
CONTINUOUS
 10
-16.9369196842
 20
25.8732218855
 11
-16.9421554061
 21
25.5679861636
  0
LINE
  5
405
100
AcDbEntity
  8
0
100
AcDbLine
 62
7
  6
CONTINUOUS
 10
-26.0692441536
 20
-26.5646975655
 11
-26.103134575
 21
-26.6885509967
  0
LINE
  5
406
100
AcDbEntity
  8
0
100
AcDbLine
 62
7
  6
CONTINUOUS
 10
-25.3706957497
 20
-24.8549591983
 11
-25.3368053282
 21
-24.7311057671
  0
LINE
  5
407
100
AcDbEntity
  8
0
100
AcDbLine
 62
7
  6
CONTINUOUS
 10
-26.103134575
 20
-24.7311057671
 11
-26.2396934358
 21
-25.1901048977
  0
LINE
  5
408
100
AcDbEntity
  8
0
100
AcDbLine
 62
7
  6
CONTINUOUS
 10
-26.2088060273
 20
-25.2209923062
 11
-26.2054845988
 21
-25.2098283819
  0
LINE
  5
409
100
AcDbEntity
  8
0
100
AcDbLine
 62
7
  6
CONTINUOUS
 10
-25.2311338759
 20
-26.1986644576
 11
-25.2344553044
 21
-26.2098283819
  0
LINE
  5
40A
100
AcDbEntity
  8
0
100
AcDbLine
 62
7
  6
CONTINUOUS
 10
-25.3368053282
 20
-26.6885509967
 11
-25.2002464674
 21
-26.2295518661
  0
LINE
  5
40B
100
AcDbEntity
  8
DRAFT
100
AcDbLine
 62
7
  6
CONTINUOUS
 10
-8.7598936076
 20
27.3366806051
 11
-8.7382032337
 21
27.3890457999
  0
LINE
  5
40C
100
AcDbEntity
  8
RACCORDO
100
AcDbLine
 62
253
  6
CONTINUOUS
 10
-8.3786288449
 20
27.8912974363
 11
-8.358384496
 21
27.9401716181
  0
LINE
  5
40D
100
AcDbEntity
  8
DRAFT
100
AcDbLine
 62
7
  6
CONTINUOUS
 10
-8.1156777073
 20
26.6727165532
 11
-8.1098936076
 21
26.6866806051
  0
LINE
  5
40E
100
AcDbEntity
  8
RACCORDO
100
AcDbLine
 62
253
  6
CONTINUOUS
 10
-7.6716297595
 20
27.5984488266
 11
-7.6513854106
 21
27.6473230084
  0
LINE
  5
40F
100
AcDbEntity
  8
DRAFT
100
AcDbLine
 62
7
  6
CONTINUOUS
 10
-5.9355692217
 20
25.8401716181
 11
-5.9290621095
 21
25.8558811765
  0
LINE
  5
410
100
AcDbEntity
  8
DRAFT
100
AcDbLine
 62
7
  6
CONTINUOUS
 10
-24.764513687
 20
-1.3543721173
 11
-24.8199699516
 21
-1.4098283819
  0
LINE
  5
411
100
AcDbEntity
  8
DRAFT
100
AcDbLine
 62
7
  6
CONTINUOUS
 10
-26.7699699516
 20
-5.2567160676
 11
-25.8374250165
 21
-4.3241711325
  0
LINE
  5
412
100
AcDbEntity
  8
DRAFT
100
AcDbLine
 62
7
  6
CONTINUOUS
 10
-26.7699699516
 20
-5.2814012571
 11
-25.8199699516
 21
-4.3314012571
  0
LINE
  5
413
100
AcDbEntity
  8
RACCORDO
100
AcDbLine
 62
253
  6
CONTINUOUS
 10
-27.7210957698
 20
8.5488305114
 11
-27.7699699516
 21
8.5285861625
  0
LINE
  5
414
100
AcDbEntity
  8
DRAFT
100
AcDbLine
 62
7
  6
CONTINUOUS
 10
-27.1664789386
 20
8.691617643
 11
-27.2188441334
 21
8.6699272692
  0
LINE
  5
415
100
AcDbEntity
  8
RACCORDO
100
AcDbLine
 62
253
  6
CONTINUOUS
 10
-27.4282471601
 20
7.841831426
 11
-27.4771213419
 21
7.8215870771
  0
LINE
  5
416
100
AcDbEntity
  8
DRAFT
100
AcDbLine
 62
7
  6
CONTINUOUS
 10
-26.5025148867
 20
8.0474017427
 11
-26.5164789386
 21
8.041617643
  0
LINE
  5
417
100
AcDbEntity
  8
DRAFT
100
AcDbLine
 62
7
  6
CONTINUOUS
 10
15.8125749835
 20
25.2444638624
 11
15.8789042302
 21
25.271938336
  0
LINE
  5
418
100
AcDbEntity
  8
0
100
AcDbLine
 62
7
  6
CONTINUOUS
 10
-26.5748391352
 20
-26.0591025838
 11
-26.6285235761
 21
-26.0737924338
  0
LINE
  5
419
100
AcDbEntity
  8
0
100
AcDbLine
 62
7
  6
CONTINUOUS
 10
-24.865100768
 20
-25.3605541799
 11
-24.8114163271
 21
-25.3458643299
  0
LINE
  5
41A
100
AcDbEntity
  8
DRAFT
100
AcDbLine
 62
7
  6
CONTINUOUS
 10
22.6998449907
 20
-13.1822757977
 11
22.6582924702
 21
-13.193409762
  0
LINE
  5
41B
100
AcDbEntity
  8
0
100
AcDbLine
 62
7
  6
CONTINUOUS
 10
22.6335161992
 20
-12.8938307611
 11
22.6405759287
 21
-12.8919391123
  0
LINE
  5
41C
100
AcDbEntity
  8
DRAFT
100
AcDbLine
 62
7
  6
CONTINUOUS
 10
22.6998449907
 20
-15.8593187252
 11
22.6806458617
 21
-15.8609984313
  0
LINE
  5
41D
100
AcDbEntity
  8
DRAFT
100
AcDbLine
 62
7
  6
CONTINUOUS
 10
22.6493670971
 20
-15.8637349686
 11
22.6300300484
 21
-15.8654267412
  0
LINE
  5
41E
100
AcDbEntity
  8
DRAFT
100
AcDbLine
 62
7
  6
CONTINUOUS
 10
22.6754097995
 20
-15.8614565274
 11
22.6543260552
 21
-15.863301116
  0
LINE
  5
41F
100
AcDbEntity
  8
DRAFT
100
AcDbLine
 62
7
  6
CONTINUOUS
 10
24.9695570094
 20
-15.6607446541
 11
24.9800300484
 21
-15.6598283819
  0
LINE
  5
420
100
AcDbEntity
  8
0
100
AcDbLine
 62
7
  6
CONTINUOUS
 10
-0.7199699516
 20
-18.4098283819
 11
0.5800300484
 21
-18.4098283819
  0
LINE
  5
421
100
AcDbEntity
  8
0
100
AcDbLine
 62
7
  6
CONTINUOUS
 10
24.7800300484
 20
-18.1598283819
 11
23.8800300484
 21
-18.1598283819
  0
LINE
  5
422
100
AcDbEntity
  8
0
100
AcDbLine
 62
7
  6
CONTINUOUS
 10
23.6800300484
 20
-18.1598283819
 11
22.5800300484
 21
-18.1598283819
  0
LINE
  5
423
100
AcDbEntity
  8
SMUSSO
100
AcDbLine
 62
253
  6
CONTINUOUS
 10
23.005592986
 20
-18.1103595282
 11
23.6305611947
 21
-18.1103595282
  0
LINE
  5
424
100
AcDbEntity
  8
SMUSSO
100
AcDbLine
 62
253
  6
CONTINUOUS
 10
23.9294989021
 20
-18.1103595282
 11
24.6074683346
 21
-18.1103595282
  0
LINE
  5
425
100
AcDbEntity
  8
SMUSSO
100
AcDbLine
 62
7
  6
CONTINUOUS
 10
23.019037374
 20
-18.0700181712
 11
23.5902198377
 21
-18.0700181712
  0
LINE
  5
426
100
AcDbEntity
  8
0
100
AcDbLine
 62
7
  6
CONTINUOUS
 10
23.5902198377
 20
-18.0700181712
 11
23.9698402591
 21
-18.0700181712
  0
LINE
  5
427
100
AcDbEntity
  8
SMUSSO
100
AcDbLine
 62
7
  6
CONTINUOUS
 10
23.9698402591
 20
-18.0700181712
 11
24.5805775107
 21
-18.0700181712
  0
LINE
  5
428
100
AcDbEntity
  8
0
100
AcDbLine
 62
7
  6
CONTINUOUS
 10
22.5800300484
 20
-17.9098283819
 11
0.9480910484
 21
-17.9098283819
  0
LINE
  5
429
100
AcDbEntity
  8
SMUSSO
100
AcDbLine
 62
7
  6
CONTINUOUS
 10
24.5473312019
 20
-17.3420777026
 11
23.0356592624
 21
-17.3420777026
  0
LINE
  5
42A
100
AcDbEntity
  8
ASSI
100
AcDbLine
 62
7
  6
CONTINUOUS
 10
-22.516020107
 20
-15.6598283819
 11
-22.4917871334
 21
-15.6598283819
  0
LINE
  5
42B
100
AcDbEntity
  8
ASSI
100
AcDbLine
 62
7
  6
CONTINUOUS
 10
22.6518472301
 20
-15.6598283819
 11
22.6760802038
 21
-15.6598283819
  0
LINE
  5
42C
100
AcDbEntity
  8
DRAFT
100
AcDbLine
 62
7
  6
CONTINUOUS
 10
24.9800300484
 20
-15.6598283819
 11
25.5491485791
 21
-15.6598283819
  0
LINE
  5
42D
100
AcDbEntity
  8
DRAFT
100
AcDbLine
 62
7
  6
CONTINUOUS
 10
-24.8199699516
 20
-15.6598283819
 11
-25.3890884824
 21
-15.6598283819
  0
LINE
  5
42E
100
AcDbEntity
  8
ASSI
100
AcDbLine
 62
7
  6
CONTINUOUS
 10
-22.5397848939
 20
-15.5598283819
 11
-22.5179677376
 21
-15.5598283819
  0
LINE
  5
42F
100
AcDbEntity
  8
ASSI
100
AcDbLine
 62
7
  6
CONTINUOUS
 10
22.6780278344
 20
-15.5598283819
 11
22.6998449907
 21
-15.5598283819
  0
LINE
  5
430
100
AcDbEntity
  8
DRAFT
100
AcDbLine
 62
7
  6
CONTINUOUS
 10
26.6300300484
 20
-15.3855643132
 11
26.3300300484
 21
-15.3855643132
  0
LINE
  5
431
100
AcDbEntity
  8
DRAFT
100
AcDbLine
 62
7
  6
CONTINUOUS
 10
-26.1699699516
 20
-15.3855643132
 11
-26.4699699516
 21
-15.3855643132
  0
LINE
  5
432
100
AcDbEntity
  8
DRAFT
100
AcDbLine
 62
7
  6
CONTINUOUS
 10
26.6134068665
 20
-15.3366901314
 11
26.2811558666
 21
-15.3366901314
  0
LINE
  5
433
100
AcDbEntity
  8
DRAFT
100
AcDbLine
 62
7
  6
CONTINUOUS
 10
-26.1210957698
 20
-15.3366901314
 11
-26.4533467698
 21
-15.3366901314
  0
LINE
  5
434
100
AcDbEntity
  8
DRAFT
100
AcDbLine
 62
7
  6
CONTINUOUS
 10
-22.5397848939
 20
-15.8593187252
 11
-22.5205857649
 21
-15.8609984313
  0
LINE
  5
435
100
AcDbEntity
  8
DRAFT
100
AcDbLine
 62
7
  6
CONTINUOUS
 10
-22.4893070003
 20
-15.8637349686
 11
-22.4699699516
 21
-15.8654267412
  0
LINE
  5
436
100
AcDbEntity
  8
DRAFT
100
AcDbLine
 62
7
  6
CONTINUOUS
 10
-22.5153497027
 20
-15.8614565274
 11
-22.4942659585
 21
-15.863301116
  0
LINE
  5
437
100
AcDbEntity
  8
DRAFT
100
AcDbLine
 62
7
  6
CONTINUOUS
 10
-24.8094969127
 20
-15.6607446541
 11
-24.8199699516
 21
-15.6598283819
  0
LINE
  5
438
100
AcDbEntity
  8
DRAFT
100
AcDbLine
 62
7
  6
CONTINUOUS
 10
-22.5397848939
 20
-13.1822757977
 11
-22.4982323734
 21
-13.193409762
  0
LINE
  5
439
100
AcDbEntity
  8
0
100
AcDbLine
 62
7
  6
CONTINUOUS
 10
-22.4805158319
 20
-12.8919391123
 11
-22.4734561024
 21
-12.8938307611
  0
LINE
  5
43A
100
AcDbEntity
  8
RACCORDO
100
AcDbLine
 62
253
  6
CONTINUOUS
 10
-27.7210957698
 20
-8.3684872752
 11
-27.7699699516
 21
-8.3482429262
  0
LINE
  5
43B
100
AcDbEntity
  8
DRAFT
100
AcDbLine
 62
7
  6
CONTINUOUS
 10
-27.1664789386
 20
-8.5112744068
 11
-27.2188441334
 21
-8.4895840329
  0
LINE
  5
43C
100
AcDbEntity
  8
RACCORDO
100
AcDbLine
 62
253
  6
CONTINUOUS
 10
-27.4282471601
 20
-7.6614881898
 11
-27.4771213419
 21
-7.6412438408
  0
LINE
  5
43D
100
AcDbEntity
  8
DRAFT
100
AcDbLine
 62
7
  6
CONTINUOUS
 10
-26.5025148867
 20
-7.8670585065
 11
-26.5164789386
 21
-7.8612744068
  0
LINE
  5
43E
100
AcDbEntity
  8
DRAFT
100
AcDbLine
 62
7
  6
CONTINUOUS
 10
15.8125749835
 20
-25.0641206262
 11
15.8789042302
 21
-25.0915950998
  0
LINE
  5
43F
100
AcDbEntity
  8
DRAFT
100
AcDbLine
 62
7
  6
CONTINUOUS
 10
-24.764513687
 20
1.5347153535
 11
-24.8199699516
 21
1.5901716181
  0
LINE
  5
440
100
AcDbEntity
  8
DRAFT
100
AcDbLine
 62
7
  6
CONTINUOUS
 10
-25.8374250165
 20
4.5045143687
 11
-26.7699699516
 21
5.4370593038
  0
LINE
  5
441
100
AcDbEntity
  8
DRAFT
100
AcDbLine
 62
7
  6
CONTINUOUS
 10
-25.8199699516
 20
4.5117444934
 11
-26.7699699516
 21
5.4617444934
  0
LINE
  5
442
100
AcDbEntity
  8
DRAFT
100
AcDbLine
 62
7
  6
CONTINUOUS
 10
-8.7598936076
 20
-27.1563373689
 11
-8.7382032337
 21
-27.2087025637
  0
LINE
  5
443
100
AcDbEntity
  8
RACCORDO
100
AcDbLine
 62
253
  6
CONTINUOUS
 10
-8.3786288449
 20
-27.7109542001
 11
-8.358384496
 21
-27.7598283819
  0
LINE
  5
444
100
AcDbEntity
  8
DRAFT
100
AcDbLine
 62
7
  6
CONTINUOUS
 10
-8.1156777073
 20
-26.492373317
 11
-8.1098936076
 21
-26.5063373689
  0
LINE
  5
445
100
AcDbEntity
  8
RACCORDO
100
AcDbLine
 62
253
  6
CONTINUOUS
 10
-7.6716297595
 20
-27.4181055903
 11
-7.6513854106
 21
-27.4669797721
  0
LINE
  5
446
100
AcDbEntity
  8
DRAFT
100
AcDbLine
 62
7
  6
CONTINUOUS
 10
-5.9290621095
 20
-25.6755379403
 11
-5.9355692217
 21
-25.6598283819
  0
LINE
  5
447
100
AcDbEntity
  8
DRAFT
100
AcDbLine
 62
7
  6
CONTINUOUS
 10
-14.6402963412
 20
25.4901716181
 11
-14.6402963412
 21
25.1901716181
  0
LINE
  5
448
100
AcDbEntity
  8
DRAFT
100
AcDbLine
 62
7
  6
CONTINUOUS
 10
-14.6402963412
 20
-25.3098283819
 11
-14.6402963412
 21
-25.0098283819
  0
LINE
  5
449
100
AcDbEntity
  8
DRAFT
100
AcDbLine
 62
7
  6
CONTINUOUS
 10
-12.6199699516
 20
23.8401716181
 11
-12.6199699516
 21
22.6558799801
  0
LINE
  5
44A
100
AcDbEntity
  8
DRAFT
100
AcDbLine
 62
7
  6
CONTINUOUS
 10
-12.6199699516
 20
-23.6598283819
 11
-12.6199699516
 21
-22.4755367439
  0
LINE
  5
44B
100
AcDbEntity
  8
DRAFT
100
AcDbLine
 62
7
  6
CONTINUOUS
 10
-12.4419282893
 20
-23.8378700442
 11
-12.4419282893
 21
-22.5645507954
  0
LINE
  5
44C
100
AcDbEntity
  8
DRAFT
100
AcDbLine
 62
7
  6
CONTINUOUS
 10
-12.4419282893
 20
22.7448940316
 11
-12.4419282893
 21
24.0182132804
  0
LINE
  5
44D
100
AcDbEntity
  8
DRAFT
100
AcDbLine
 62
7
  6
CONTINUOUS
 10
-11.1699699516
 20
28.1901716181
 11
-11.1699699516
 21
27.9479799987
  0
LINE
  5
44E
100
AcDbEntity
  8
DRAFT
100
AcDbLine
 62
7
  6
CONTINUOUS
 10
-11.1699699516
 20
-28.0098283819
 11
-11.1699699516
 21
-27.7676367625
  0
LINE
  5
44F
100
AcDbEntity
  8
DRAFT
100
AcDbLine
 62
7
  6
CONTINUOUS
 10
9.9334753769
 20
26.6866806051
 11
10.2343822624
 21
26.9901713557
  0
LINE
  5
450
100
AcDbEntity
  8
0
100
AcDbLine
 62
7
  6
CONTINUOUS
 10
-27.1729136768
 20
-6.912772107
 11
-26.7699699516
 21
-6.5098283819
  0
LINE
  5
451
100
AcDbEntity
  8
RACCORDO
100
AcDbLine
 62
7
  6
CONTINUOUS
 10
6.7386086922
 20
26.9987502619
 11
7.0829737735
 21
27.3431153433
  0
LINE
  5
452
100
AcDbEntity
  8
DRAFT
100
AcDbLine
 62
7
  6
CONTINUOUS
 10
5.9796089275
 20
25.8401716181
 11
7.0800300484
 21
26.940592739
  0
LINE
  5
453
100
AcDbEntity
  8
RACCORDO
100
AcDbLine
 62
7
  6
CONTINUOUS
 10
-27.4771213419
 20
-7.6412438408
 11
-24.8932812243
 21
-5.0574037233
  0
LINE
  5
454
100
AcDbEntity
  8
RACCORDO
100
AcDbLine
 62
7
  6
CONTINUOUS
 10
7.0800300484
 20
26.9159075494
 11
7.8114455073
 21
27.6473230084
  0
LINE
  5
455
100
AcDbEntity
  8
RACCORDO
100
AcDbLine
 62
7
  6
CONTINUOUS
 10
7.8316898563
 20
27.5984488266
 11
6.0891222063
 21
25.8558811765
  0
LINE
  5
456
100
AcDbEntity
  8
RACCORDO
100
AcDbLine
 62
7
  6
CONTINUOUS
 10
-24.8444070425
 20
-5.0776480722
 11
-27.4282471601
 21
-7.6614881898
  0
LINE
  5
457
100
AcDbEntity
  8
0
100
AcDbLine
 62
7
  6
CONTINUOUS
 10
-28.0699699516
 20
-8.3755138068
 11
-28.0214418142
 21
-8.3269856694
  0
LINE
  5
458
100
AcDbEntity
  8
0
100
AcDbLine
 62
7
  6
CONTINUOUS
 10
8.4971873359
 20
28.1916434807
 11
8.5457154733
 21
28.2401716181
  0
LINE
  5
459
100
AcDbEntity
  8
RACCORDO
100
AcDbLine
 62
7
  6
CONTINUOUS
 10
6.7957396068
 20
25.8558811765
 11
6.6557944545
 21
25.7159360242
  0
LINE
  5
45A
100
AcDbEntity
  8
0
100
AcDbLine
 62
7
  6
CONTINUOUS
 10
-0.4199699516
 20
18.4582326181
 11
-0.7880309516
 21
18.0901716181
  0
LINE
  5
45B
100
AcDbEntity
  8
DRAFT
100
AcDbLine
 62
7
  6
CONTINUOUS
 10
-27.2188441334
 20
-8.4895840329
 11
-25.3890884824
 21
-6.6598283819
  0
LINE
  5
45C
100
AcDbEntity
  8
DRAFT
100
AcDbLine
 62
7
  6
CONTINUOUS
 10
-27.1664789386
 20
-8.5112744068
 11
-26.5164789386
 21
-7.8612744068
  0
LINE
  5
45D
100
AcDbEntity
  8
DRAFT
100
AcDbLine
 62
7
  6
CONTINUOUS
 10
-26.5025148867
 20
-7.8670585065
 11
-25.2952847621
 21
-6.6598283819
  0
LINE
  5
45E
100
AcDbEntity
  8
DRAFT
100
AcDbLine
 62
7
  6
CONTINUOUS
 10
6.7811558666
 20
25.271938336
 11
8.8982633305
 21
27.3890457999
  0
LINE
  5
45F
100
AcDbEntity
  8
DRAFT
100
AcDbLine
 62
7
  6
CONTINUOUS
 10
8.2699537044
 20
26.6866806051
 11
8.9199537044
 21
27.3366806051
  0
LINE
  5
460
100
AcDbEntity
  8
DRAFT
100
AcDbLine
 62
7
  6
CONTINUOUS
 10
6.8474851133
 20
25.2444638624
 11
8.2757378041
 21
26.6727165532
  0
LINE
  5
461
100
AcDbEntity
  8
DRAFT
100
AcDbLine
 62
7
  6
CONTINUOUS
 10
6.8160659964
 20
25.1290788909
 11
6.8474851133
 21
25.1604980077
  0
LINE
  5
462
100
AcDbEntity
  8
RACCORDO
100
AcDbLine
 62
7
  6
CONTINUOUS
 10
6.6386440225
 20
24.7981659039
 11
6.7957372142
 21
24.9552590956
  0
LINE
  5
463
100
AcDbEntity
  8
DRAFT
100
AcDbLine
 62
7
  6
CONTINUOUS
 10
11.3300300484
 20
28.1901716181
 11
11.0800300484
 21
27.9401716181
  0
LINE
  5
464
100
AcDbEntity
  8
DRAFT
100
AcDbLine
 62
7
  6
CONTINUOUS
 10
-27.7699699516
 20
-10.9098283819
 11
-28.0199699516
 21
-11.1598283819
  0
LINE
  5
465
100
AcDbEntity
  8
DRAFT
100
AcDbLine
 62
7
  6
CONTINUOUS
 10
-26.8182478119
 20
-10.0650415346
 11
-26.5164789386
 21
-9.7632737104
  0
LINE
  5
466
100
AcDbEntity
  8
SMUSSO
100
AcDbLine
 62
7
  6
CONTINUOUS
 10
10.2509304418
 20
26.9762075662
 11
9.9474394288
 21
26.6727165532
  0
LINE
  5
467
100
AcDbEntity
  8
SMUSSO
100
AcDbLine
 62
7
  6
CONTINUOUS
 10
-26.5025148867
 20
-9.7772377623
 11
-26.8060058997
 21
-10.0807287753
  0
LINE
  5
468
100
AcDbEntity
  8
DRAFT
100
AcDbLine
 62
7
  6
CONTINUOUS
 10
11.3300300484
 20
27.9479799987
 11
11.273347486
 21
27.8912974363
  0
LINE
  5
469
100
AcDbEntity
  8
DRAFT
100
AcDbLine
 62
7
  6
CONTINUOUS
 10
-27.7210957698
 20
-11.1031458195
 11
-27.7777783322
 21
-11.1598283819
  0
LINE
  5
46A
100
AcDbEntity
  8
DRAFT
100
AcDbLine
 62
7
  6
CONTINUOUS
 10
15.5800300484
 20
22.6558799801
 11
15.7580717107
 21
22.7448940316
  0
LINE
  5
46B
100
AcDbEntity
  8
DRAFT
100
AcDbLine
 62
7
  6
CONTINUOUS
 10
-24.8444070425
 20
5.2579913085
 11
-24.8932812243
 21
5.2377469595
  0
LINE
  5
46C
100
AcDbEntity
  8
DRAFT
100
AcDbLine
 62
7
  6
CONTINUOUS
 10
22.6583191093
 20
-10.6548402572
 11
22.6998449907
 21
-10.6475181239
  0
LINE
  5
46D
100
AcDbEntity
  8
0
100
AcDbLine
 62
7
  6
CONTINUOUS
 10
25.0300300484
 20
-8.3460852096
 11
25.4800300484
 21
-8.2667380683
  0
LINE
  5
46E
100
AcDbEntity
  8
DRAFT
100
AcDbLine
 62
7
  6
CONTINUOUS
 10
22.6998449907
 20
-8.1707028776
 11
22.6405759287
 21
-8.1811536124
  0
LINE
  5
46F
100
AcDbEntity
  8
DRAFT
100
AcDbLine
 62
7
  6
CONTINUOUS
 10
24.9171918146
 20
-7.779724807
 11
25.0300300484
 21
-7.7598283819
  0
LINE
  5
470
100
AcDbEntity
  8
DRAFT
100
AcDbLine
 62
7
  6
CONTINUOUS
 10
28.1800300484
 20
-11.1598283819
 11
27.937838429
 21
-11.1598283819
  0
LINE
  5
471
100
AcDbEntity
  8
DRAFT
100
AcDbLine
 62
7
  6
CONTINUOUS
 10
-28.0199699516
 20
-11.1598283819
 11
-27.7777783322
 21
-11.1598283819
  0
LINE
  5
472
100
AcDbEntity
  8
0
100
AcDbLine
 62
7
  6
CONTINUOUS
 10
26.1608101601
 20
-16.5043843894
 11
25.0800300484
 21
-16.4098283819
  0
LINE
  5
473
100
AcDbEntity
  8
DRAFT
100
AcDbLine
 62
7
  6
CONTINUOUS
 10
-22.4982590125
 20
-10.6548402572
 11
-22.5397848939
 21
-10.6475181239
  0
LINE
  5
474
100
AcDbEntity
  8
0
100
AcDbLine
 62
7
  6
CONTINUOUS
 10
-24.8699699516
 20
-8.3460852096
 11
-25.3199699516
 21
-8.2667380683
  0
LINE
  5
475
100
AcDbEntity
  8
DRAFT
100
AcDbLine
 62
7
  6
CONTINUOUS
 10
-24.8699699516
 20
-7.7598283819
 11
-24.7571317179
 21
-7.7797248069
  0
LINE
  5
476
100
AcDbEntity
  8
DRAFT
100
AcDbLine
 62
7
  6
CONTINUOUS
 10
-22.5397848939
 20
-8.1707028776
 11
-22.4805158319
 21
-8.1811536124
  0
LINE
  5
477
100
AcDbEntity
  8
RACCORDO
100
AcDbLine
 62
7
  6
CONTINUOUS
 10
-22.4805158319
 20
-8.1811536124
 11
-22.4700571389
 21
-8.1829977621
  0
LINE
  5
478
100
AcDbEntity
  8
DRAFT
100
AcDbLine
 62
7
  6
CONTINUOUS
 10
-24.8444070425
 20
-5.0776480722
 11
-24.8932812243
 21
-5.0574037233
  0
LINE
  5
479
100
AcDbEntity
  8
DRAFT
100
AcDbLine
 62
7
  6
CONTINUOUS
 10
15.5800300484
 20
-22.4755367439
 11
15.7580717107
 21
-22.5645507954
  0
LINE
  5
47A
100
AcDbEntity
  8
DRAFT
100
AcDbLine
 62
7
  6
CONTINUOUS
 10
6.8160659964
 20
-24.8098283819
 11
6.7805929575
 21
-24.774918252
  0
LINE
  5
47B
100
AcDbEntity
  8
DRAFT
100
AcDbLine
 62
7
  6
CONTINUOUS
 10
-26.5164789386
 20
9.9400802282
 11
-26.8199694408
 21
10.2410099681
  0
LINE
  5
47C
100
AcDbEntity
  8
0
100
AcDbLine
 62
7
  6
CONTINUOUS
 10
0.9480910484
 20
-21.4098283819
 11
0.5800300484
 21
-21.0417673819
  0
LINE
  5
47D
100
AcDbEntity
  8
RACCORDO
100
AcDbLine
 62
7
  6
CONTINUOUS
 10
7.0829737735
 20
-27.162772107
 11
6.7386086922
 21
-26.8184070256
  0
LINE
  5
47E
100
AcDbEntity
  8
0
100
AcDbLine
 62
7
  6
CONTINUOUS
 10
-26.7699699516
 20
6.6901716181
 11
-27.1729136768
 21
7.0931153433
  0
LINE
  5
47F
100
AcDbEntity
  8
DRAFT
100
AcDbLine
 62
7
  6
CONTINUOUS
 10
7.0800300484
 20
-26.7602495027
 11
5.9796089275
 21
-25.6598283819
  0
LINE
  5
480
100
AcDbEntity
  8
RACCORDO
100
AcDbLine
 62
7
  6
CONTINUOUS
 10
7.8114455073
 20
-27.4669797721
 11
7.0800300484
 21
-26.7355643132
  0
LINE
  5
481
100
AcDbEntity
  8
RACCORDO
100
AcDbLine
 62
7
  6
CONTINUOUS
 10
-24.8932812243
 20
5.2377469595
 11
-27.4771213419
 21
7.8215870771
  0
LINE
  5
482
100
AcDbEntity
  8
RACCORDO
100
AcDbLine
 62
7
  6
CONTINUOUS
 10
-27.4282471601
 20
7.841831426
 11
-24.8444070425
 21
5.2579913085
  0
LINE
  5
483
100
AcDbEntity
  8
RACCORDO
100
AcDbLine
 62
7
  6
CONTINUOUS
 10
6.0891222063
 20
-25.6755379403
 11
7.8316898563
 21
-27.4181055903
  0
LINE
  5
484
100
AcDbEntity
  8
0
100
AcDbLine
 62
7
  6
CONTINUOUS
 10
-28.0699699516
 20
8.5558570431
 11
-28.0214418142
 21
8.5073289056
  0
LINE
  5
485
100
AcDbEntity
  8
0
100
AcDbLine
 62
7
  6
CONTINUOUS
 10
8.5457154733
 20
-28.0598283819
 11
8.4971873359
 21
-28.0113002445
  0
LINE
  5
486
100
AcDbEntity
  8
DRAFT
100
AcDbLine
 62
7
  6
CONTINUOUS
 10
-25.3890884824
 20
6.8401716181
 11
-27.2188441334
 21
8.6699272692
  0
LINE
  5
487
100
AcDbEntity
  8
DRAFT
100
AcDbLine
 62
7
  6
CONTINUOUS
 10
-26.5164789386
 20
8.041617643
 11
-27.1664789386
 21
8.691617643
  0
LINE
  5
488
100
AcDbEntity
  8
DRAFT
100
AcDbLine
 62
7
  6
CONTINUOUS
 10
-25.2952847621
 20
6.8401716181
 11
-26.5025148867
 21
8.0474017427
  0
LINE
  5
489
100
AcDbEntity
  8
DRAFT
100
AcDbLine
 62
7
  6
CONTINUOUS
 10
8.8982633305
 20
-27.2087025637
 11
6.7800300484
 21
-25.0904692816
  0
LINE
  5
48A
100
AcDbEntity
  8
DRAFT
100
AcDbLine
 62
7
  6
CONTINUOUS
 10
8.9199537044
 20
-27.1563373689
 11
8.2699537044
 21
-26.5063373689
  0
LINE
  5
48B
100
AcDbEntity
  8
DRAFT
100
AcDbLine
 62
7
  6
CONTINUOUS
 10
8.2757378041
 20
-26.492373317
 11
6.8474851133
 21
-25.0641206262
  0
LINE
  5
48C
100
AcDbEntity
  8
DRAFT
100
AcDbLine
 62
7
  6
CONTINUOUS
 10
6.8160659964
 20
-24.9487356546
 11
6.8474851133
 21
-24.9801547715
  0
LINE
  5
48D
100
AcDbEntity
  8
DRAFT
100
AcDbLine
 62
7
  6
CONTINUOUS
 10
-28.0199699516
 20
11.3401716181
 11
-27.7699699516
 21
11.0901716181
  0
LINE
  5
48E
100
AcDbEntity
  8
DRAFT
100
AcDbLine
 62
7
  6
CONTINUOUS
 10
11.0800300484
 20
-27.7598283819
 11
11.3300300484
 21
-28.0098283819
  0
LINE
  5
48F
100
AcDbEntity
  8
DRAFT
100
AcDbLine
 62
7
  6
CONTINUOUS
 10
10.2352432011
 20
-26.8081062422
 11
9.9334753769
 21
-26.5063373689
  0
LINE
  5
490
100
AcDbEntity
  8
SMUSSO
100
AcDbLine
 62
7
  6
CONTINUOUS
 10
-26.8060058997
 20
10.2435250181
 11
-26.5025148867
 21
9.9400802282
  0
LINE
  5
491
100
AcDbEntity
  8
SMUSSO
100
AcDbLine
 62
7
  6
CONTINUOUS
 10
9.9474394288
 20
-26.492373317
 11
10.2509304418
 21
-26.7958643299
  0
LINE
  5
492
100
AcDbEntity
  8
DRAFT
100
AcDbLine
 62
7
  6
CONTINUOUS
 10
-27.7777783322
 20
11.3401716181
 11
-27.7210957698
 21
11.2834890557
  0
LINE
  5
493
100
AcDbEntity
  8
DRAFT
100
AcDbLine
 62
7
  6
CONTINUOUS
 10
11.273347486
 20
-27.7109542001
 11
11.3300300484
 21
-27.7676367625
  0
LINE
  5
494
100
AcDbEntity
  8
SMUSSO
100
AcDbLine
 62
7
  6
CONTINUOUS
 10
-22.8455328892
 20
21.3896404718
 11
-22.8589772772
 21
21.4299818288
  0
LINE
  5
495
100
AcDbEntity
  8
SMUSSO
100
AcDbLine
 62
7
  6
CONTINUOUS
 10
-22.5437482818
 20
21.6913331527
 11
-22.5567638858
 21
21.7303878966
  0
LINE
  5
496
100
AcDbEntity
  8
DRAFT
100
AcDbLine
 62
7
  6
CONTINUOUS
 10
-10.8310626789
 20
25.4901716181
 11
-10.8310626789
 21
25.1901716181
  0
LINE
  5
497
100
AcDbEntity
  8
DRAFT
100
AcDbLine
 62
7
  6
CONTINUOUS
 10
-10.8310626789
 20
-25.3098283819
 11
-10.8310626789
 21
-25.0098283819
  0
LINE
  5
498
100
AcDbEntity
  8
0
100
AcDbLine
 62
7
  6
CONTINUOUS
 10
-8.5513408015
 20
33.6901716181
 11
-8.5513408015
 21
28.2401716181
  0
LINE
  5
499
100
AcDbEntity
  8
0
100
AcDbLine
 62
7
  6
CONTINUOUS
 10
-8.5513408015
 20
-28.0598283819
 11
-8.5513408015
 21
-33.5098283819
  0
LINE
  5
49A
100
AcDbEntity
  8
0
100
AcDbLine
 62
253
  6
CONTINUOUS
 10
-8.3371272391
 20
-33.5098283819
 11
-8.3371272391
 21
-28.0113002445
  0
LINE
  5
49B
100
AcDbEntity
  8
0
100
AcDbLine
 62
253
  6
CONTINUOUS
 10
-8.3371272391
 20
28.1916434807
 11
-8.3371272391
 21
33.6901716181
  0
LINE
  5
49C
100
AcDbEntity
  8
DRAFT
100
AcDbLine
 62
7
  6
CONTINUOUS
 10
-1.9424173674
 20
22.7099865604
 11
-1.9535513317
 21
22.6684340399
  0
LINE
  5
49D
100
AcDbEntity
  8
0
100
AcDbLine
 62
7
  6
CONTINUOUS
 10
-1.652080682
 20
22.6507174984
 11
-1.6539723309
 21
22.6436577689
  0
LINE
  5
49E
100
AcDbEntity
  8
DRAFT
100
AcDbLine
 62
7
  6
CONTINUOUS
 10
12.4230942344
 20
26.9901721456
 11
12.409129655
 21
26.9762075662
  0
LINE
  5
49F
100
AcDbEntity
  8
DRAFT
100
AcDbLine
 62
7
  6
CONTINUOUS
 10
-26.8199704791
 20
-12.2528925679
 11
-26.8060058997
 21
-12.2389279885
  0
LINE
  5
4A0
100
AcDbEntity
  8
DRAFT
100
AcDbLine
 62
7
  6
CONTINUOUS
 10
10.9614491653
 20
25.1604980077
 11
10.9911227756
 21
25.1901716181
  0
LINE
  5
4A1
100
AcDbEntity
  8
SMUSSO
100
AcDbLine
 62
7
  6
CONTINUOUS
 10
-26.5025148867
 20
-12.5424190015
 11
-26.5164789386
 21
-12.5563830534
  0
LINE
  5
4A2
100
AcDbEntity
  8
SMUSSO
100
AcDbLine
 62
7
  6
CONTINUOUS
 10
12.712620668
 20
26.6727165532
 11
12.7265847199
 21
26.6866806051
  0
LINE
  5
4A3
100
AcDbEntity
  8
DRAFT
100
AcDbLine
 62
7
  6
CONTINUOUS
 10
15.5557659797
 20
26.3401716181
 11
15.5068917979
 21
26.2912974363
  0
LINE
  5
4A4
100
AcDbEntity
  8
DRAFT
100
AcDbLine
 62
7
  6
CONTINUOUS
 10
-26.1699699516
 20
-15.3855643132
 11
-26.1210957698
 21
-15.3366901314
  0
LINE
  5
4A5
100
AcDbEntity
  8
DRAFT
100
AcDbLine
 62
7
  6
CONTINUOUS
 10
-22.5397848939
 20
-14.1489538862
 11
-22.4805158319
 21
-14.1385031514
  0
LINE
  5
4A6
100
AcDbEntity
  8
RACCORDO
100
AcDbLine
 62
7
  6
CONTINUOUS
 10
-22.4700571433
 20
-14.1366590024
 11
-22.4805158319
 21
-14.1385031514
  0
LINE
  5
4A7
100
AcDbEntity
  8
DRAFT
100
AcDbLine
 62
7
  6
CONTINUOUS
 10
-24.7571317179
 20
-14.5399319568
 11
-24.8699699516
 21
-14.5598283819
  0
LINE
  5
4A8
100
AcDbEntity
  8
0
100
AcDbLine
 62
7
  6
CONTINUOUS
 10
-24.8699699516
 20
-13.9735715542
 11
-25.3199699516
 21
-14.0529186955
  0
LINE
  5
4A9
100
AcDbEntity
  8
DRAFT
100
AcDbLine
 62
7
  6
CONTINUOUS
 10
-22.4982590125
 20
-11.6648165066
 11
-22.5397848939
 21
-11.6721386399
  0
LINE
  5
4AA
100
AcDbEntity
  8
0
100
AcDbLine
 62
7
  6
CONTINUOUS
 10
-31.5196841461
 20
-10.378457532
 11
-30.5202557572
 21
-10.378457532
  0
LINE
  5
4AB
100
AcDbEntity
  8
0
100
AcDbLine
 62
7
  6
CONTINUOUS
 10
30.6803158539
 20
-10.378457532
 11
31.6797442428
 21
-10.378457532
  0
LINE
  5
4AC
100
AcDbEntity
  8
0
100
AcDbLine
 62
7
  6
CONTINUOUS
 10
-32.2746675896
 20
-10.078457532
 11
-29.7652723136
 21
-10.078457532
  0
LINE
  5
4AD
100
AcDbEntity
  8
0
100
AcDbLine
 62
7
  6
CONTINUOUS
 10
32.4347276864
 20
-10.078457532
 11
29.9253324104
 21
-10.078457532
  0
LINE
  5
4AE
100
AcDbEntity
  8
0
100
AcDbLine
 62
7
  6
CONTINUOUS
 10
28.2300300484
 20
-8.5411992318
 11
33.6800300484
 21
-8.5411992318
  0
LINE
  5
4AF
100
AcDbEntity
  8
0
100
AcDbLine
 62
7
  6
CONTINUOUS
 10
-28.0699699516
 20
-8.5411992318
 11
-33.5199699516
 21
-8.5411992318
  0
LINE
  5
4B0
100
AcDbEntity
  8
0
100
AcDbLine
 62
253
  6
CONTINUOUS
 10
-33.5199699516
 20
-8.3269856694
 11
-28.0214418142
 21
-8.3269856694
  0
LINE
  5
4B1
100
AcDbEntity
  8
0
100
AcDbLine
 62
253
  6
CONTINUOUS
 10
33.6800300484
 20
-8.3269856694
 11
28.181501911
 21
-8.3269856694
  0
LINE
  5
4B2
100
AcDbEntity
  8
DRAFT
100
AcDbLine
 62
7
  6
CONTINUOUS
 10
25.0300300484
 20
-14.5598283819
 11
24.9171918146
 21
-14.5399319568
  0
LINE
  5
4B3
100
AcDbEntity
  8
RACCORDO
100
AcDbLine
 62
7
  6
CONTINUOUS
 10
22.6306532712
 20
-14.1367535192
 11
22.6301172357
 21
-14.1366590017
  0
LINE
  5
4B4
100
AcDbEntity
  8
DRAFT
100
AcDbLine
 62
7
  6
CONTINUOUS
 10
22.6998449907
 20
-14.1489538862
 11
22.6405759287
 21
-14.1385031514
  0
LINE
  5
4B5
100
AcDbEntity
  8
0
100
AcDbLine
 62
7
  6
CONTINUOUS
 10
25.0300300484
 20
-13.9735715542
 11
25.4800300484
 21
-14.0529186955
  0
LINE
  5
4B6
100
AcDbEntity
  8
DRAFT
100
AcDbLine
 62
7
  6
CONTINUOUS
 10
22.6583191093
 20
-11.6648165066
 11
22.6998449907
 21
-11.6721386399
  0
LINE
  5
4B7
100
AcDbEntity
  8
0
100
AcDbLine
 62
7
  6
CONTINUOUS
 10
26.7746035828
 20
-21.5975483635
 11
26.7831479004
 21
-21.6018084031
  0
LINE
  5
4B8
100
AcDbEntity
  8
DRAFT
100
AcDbLine
 62
7
  6
CONTINUOUS
 10
-26.8199704791
 20
12.4332358042
 11
-26.8060058997
 21
12.4192712247
  0
LINE
  5
4B9
100
AcDbEntity
  8
DRAFT
100
AcDbLine
 62
7
  6
CONTINUOUS
 10
12.4230942344
 20
-26.8098289094
 11
12.409129655
 21
-26.7958643299
  0
LINE
  5
4BA
100
AcDbEntity
  8
DRAFT
100
AcDbLine
 62
7
  6
CONTINUOUS
 10
10.9614491653
 20
-24.9801547715
 11
10.9911227756
 21
-25.0098283819
  0
LINE
  5
4BB
100
AcDbEntity
  8
SMUSSO
100
AcDbLine
 62
7
  6
CONTINUOUS
 10
12.712620668
 20
-26.492373317
 11
12.7265847199
 21
-26.5063373689
  0
LINE
  5
4BC
100
AcDbEntity
  8
SMUSSO
100
AcDbLine
 62
7
  6
CONTINUOUS
 10
-26.5025148867
 20
12.7227622377
 11
-26.5164789386
 21
12.7367262896
  0
LINE
  5
4BD
100
AcDbEntity
  8
DRAFT
100
AcDbLine
 62
7
  6
CONTINUOUS
 10
-26.1699699516
 20
15.5659075494
 11
-26.1210957698
 21
15.5170333676
  0
LINE
  5
4BE
100
AcDbEntity
  8
DRAFT
100
AcDbLine
 62
7
  6
CONTINUOUS
 10
15.5557659797
 20
-26.1598283819
 11
15.5068917979
 21
-26.1109542001
  0
LINE
  5
4BF
100
AcDbEntity
  8
SMUSSO
100
AcDbLine
 62
7
  6
CONTINUOUS
 10
-24.7491583717
 20
17.9890100835
 11
-24.723125181
 21
17.9499553396
  0
LINE
  5
4C0
100
AcDbEntity
  8
SMUSSO
100
AcDbLine
 62
7
  6
CONTINUOUS
 10
-24.4474082378
 20
18.2907027644
 11
-24.4205174139
 21
18.2503614074
  0
LINE
  5
4C1
100
AcDbEntity
  8
DRAFT
100
AcDbLine
 62
7
  6
CONTINUOUS
 10
-1.9424173674
 20
-22.5296433242
 11
-1.9535513317
 21
-22.4880908037
  0
LINE
  5
4C2
100
AcDbEntity
  8
0
100
AcDbLine
 62
7
  6
CONTINUOUS
 10
-1.6539723309
 20
-22.4633145327
 11
-1.652080682
 21
-22.4703742622
  0
LINE
  5
4C3
100
AcDbEntity
  8
DRAFT
100
AcDbLine
 62
7
  6
CONTINUOUS
 10
-4.6194602949
 20
-22.5296433242
 11
-4.621140001
 21
-22.5104441952
  0
LINE
  5
4C4
100
AcDbEntity
  8
DRAFT
100
AcDbLine
 62
7
  6
CONTINUOUS
 10
-4.6238765384
 20
-22.4791654306
 11
-4.6255683109
 21
-22.4598283819
  0
LINE
  5
4C5
100
AcDbEntity
  8
DRAFT
100
AcDbLine
 62
7
  6
CONTINUOUS
 10
-4.6215980971
 20
-22.505208133
 11
-4.6234426857
 21
-22.4841243887
  0
LINE
  5
4C6
100
AcDbEntity
  8
0
100
AcDbLine
 62
253
  6
CONTINUOUS
 10
-6.9229136768
 20
-33.5098283819
 11
-6.9229136768
 21
-27.162772107
  0
LINE
  5
4C7
100
AcDbEntity
  8
0
100
AcDbLine
 62
253
  6
CONTINUOUS
 10
-6.9229136768
 20
27.3431153433
 11
-6.9229136768
 21
33.6901716181
  0
LINE
  5
4C8
100
AcDbEntity
  8
DRAFT
100
AcDbLine
 62
7
  6
CONTINUOUS
 10
-6.9199699516
 20
-27.162772107
 11
-6.9199699516
 21
-26.7355643132
  0
LINE
  5
4C9
100
AcDbEntity
  8
DRAFT
100
AcDbLine
 62
7
  6
CONTINUOUS
 10
-6.9199699516
 20
26.9159075494
 11
-6.9199699516
 21
27.3431153433
  0
LINE
  5
4CA
100
AcDbEntity
  8
DRAFT
100
AcDbLine
 62
7
  6
CONTINUOUS
 10
-6.6874250165
 20
-25.0641206262
 11
-6.6874250165
 21
-24.9801547715
  0
LINE
  5
4CB
100
AcDbEntity
  8
DRAFT
100
AcDbLine
 62
7
  6
CONTINUOUS
 10
-6.6874250165
 20
25.1604980077
 11
-6.6874250165
 21
25.2444638624
  0
LINE
  5
4CC
100
AcDbEntity
  8
DRAFT
100
AcDbLine
 62
7
  6
CONTINUOUS
 10
-6.6560058997
 20
25.1290788909
 11
-6.6560058997
 21
24.9901716181
  0
LINE
  5
4CD
100
AcDbEntity
  8
DRAFT
100
AcDbLine
 62
7
  6
CONTINUOUS
 10
-6.6560058997
 20
-24.8098283819
 11
-6.6560058997
 21
-24.9487356546
  0
LINE
  5
4CE
100
AcDbEntity
  8
DRAFT
100
AcDbLine
 62
7
  6
CONTINUOUS
 10
-6.6356771174
 20
25.2865230673
 11
-6.63567951
 21
25.8558811765
  0
LINE
  5
4CF
100
AcDbEntity
  8
DRAFT
100
AcDbLine
 62
253
  6
CONTINUOUS
 10
-6.6356771174
 20
25.2865230673
 11
-6.635675068
 21
24.9552614883
  0
LINE
  5
4D0
100
AcDbEntity
  8
DRAFT
100
AcDbLine
 62
7
  6
CONTINUOUS
 10
-6.6199699516
 20
-24.6178226677
 11
-6.6199699516
 21
-25.6755379403
  0
LINE
  5
4D1
100
AcDbEntity
  8
RACCORDO
100
AcDbLine
 62
7
  6
CONTINUOUS
 10
-5.8199699516
 20
26.683793074
 11
-5.8199699516
 21
25.8887787387
  0
LINE
  5
4D2
100
AcDbEntity
  8
RACCORDO
100
AcDbLine
 62
7
  6
CONTINUOUS
 10
-5.8199699516
 20
-26.6601275314
 11
-5.8199699516
 21
-26.5034498378
  0
LINE
  5
4D3
100
AcDbEntity
  8
RACCORDO
100
AcDbLine
 62
7
  6
CONTINUOUS
 10
-5.8199699516
 20
-26.5034498378
 11
-5.8199699516
 21
-25.7084355025
  0
LINE
  5
4D4
100
AcDbEntity
  8
0
100
AcDbLine
 62
7
  6
CONTINUOUS
 10
-5.8199699516
 20
-26.6601275314
 11
-5.8199699516
 21
-26.7598283819
  0
LINE
  5
4D5
100
AcDbEntity
  8
RACCORDO
100
AcDbLine
 62
7
  6
CONTINUOUS
 10
-5.8199699516
 20
26.683793074
 11
-5.8199699516
 21
26.8404707677
  0
LINE
  5
4D6
100
AcDbEntity
  8
0
100
AcDbLine
 62
7
  6
CONTINUOUS
 10
-5.8199699516
 20
26.8404707677
 11
-5.8199699516
 21
26.9401716181
  0
LINE
  5
4D7
100
AcDbEntity
  8
DRAFT
100
AcDbLine
 62
7
  6
CONTINUOUS
 10
-5.6199699516
 20
26.8401716181
 11
-5.6199699516
 21
25.792976087
  0
LINE
  5
4D8
100
AcDbEntity
  8
DRAFT
100
AcDbLine
 62
7
  6
CONTINUOUS
 10
-5.6199699516
 20
-25.6126328507
 11
-5.6199699516
 21
-26.6598283819
  0
LINE
  5
4D9
100
AcDbEntity
  8
DRAFT
100
AcDbLine
 62
7
  6
CONTINUOUS
 10
-4.4199699516
 20
26.8401716181
 11
-4.4199699516
 21
25.792976087
  0
LINE
  5
4DA
100
AcDbEntity
  8
ASSI
100
AcDbLine
 62
7
  6
CONTINUOUS
 10
-4.4199699516
 20
22.6862217736
 11
-4.4199699516
 21
22.6619887999
  0
LINE
  5
4DB
100
AcDbEntity
  8
ASSI
100
AcDbLine
 62
7
  6
CONTINUOUS
 10
-4.4199699516
 20
-22.4816455636
 11
-4.4199699516
 21
-22.5058785373
  0
LINE
  5
4DC
100
AcDbEntity
  8
DRAFT
100
AcDbLine
 62
7
  6
CONTINUOUS
 10
-4.4199699516
 20
-24.6597148235
 11
-4.4199699516
 21
-26.6598283819
  0
LINE
  5
4DD
100
AcDbEntity
  8
RACCORDO
100
AcDbLine
 62
7
  6
CONTINUOUS
 10
-4.4199699516
 20
24.7160883291
 11
-4.4199699516
 21
25.792976087
  0
LINE
  5
4DE
100
AcDbEntity
  8
ASSI
100
AcDbLine
 62
7
  6
CONTINUOUS
 10
-4.3199699516
 20
22.7099865604
 11
-4.3199699516
 21
22.6881694041
  0
LINE
  5
4DF
100
AcDbEntity
  8
ASSI
100
AcDbLine
 62
7
  6
CONTINUOUS
 10
-4.3199699516
 20
-22.5078261679
 11
-4.3199699516
 21
-22.5296433242
  0
LINE
  5
4E0
100
AcDbEntity
  8
DRAFT
100
AcDbLine
 62
7
  6
CONTINUOUS
 10
-4.6194602949
 20
22.7099865604
 11
-4.621140001
 21
22.6907874314
  0
LINE
  5
4E1
100
AcDbEntity
  8
DRAFT
100
AcDbLine
 62
7
  6
CONTINUOUS
 10
-4.6238765384
 20
22.6595086668
 11
-4.6255683109
 21
22.6401716181
  0
LINE
  5
4E2
100
AcDbEntity
  8
DRAFT
100
AcDbLine
 62
7
  6
CONTINUOUS
 10
-4.6215980971
 20
22.6855513692
 11
-4.6234426857
 21
22.664467625
  0
LINE
  5
4E3
100
AcDbEntity
  8
DRAFT
100
AcDbLine
 62
7
  6
CONTINUOUS
 10
0.5850181731
 20
22.668460679
 11
0.5923403064
 21
22.7099865604
  0
LINE
  5
4E4
100
AcDbEntity
  8
DRAFT
100
AcDbLine
 62
7
  6
CONTINUOUS
 10
-15.9754615339
 20
-26.1109542001
 11
-15.9957058829
 21
-26.1598283819
  0
LINE
  5
4E5
100
AcDbEntity
  8
DRAFT
100
AcDbLine
 62
7
  6
CONTINUOUS
 10
6.8160659964
 20
24.9901716181
 11
6.7957372142
 21
24.9552590956
  0
LINE
  5
4E6
100
AcDbEntity
  8
DRAFT
100
AcDbLine
 62
7
  6
CONTINUOUS
 10
15.7580717107
 20
24.0182132804
 11
15.5800300484
 21
23.8401716181
  0
LINE
  5
4E7
100
AcDbEntity
  8
SMUSSO
100
AcDbLine
 62
7
  6
CONTINUOUS
 10
-25.7906806297
 20
-20.8307915917
 11
-30.5990067418
 21
-25.6391177038
  0
LINE
  5
4E8
100
AcDbEntity
  8
DRAFT
100
AcDbLine
 62
7
  6
CONTINUOUS
 10
25.0044671393
 20
17.4223519278
 11
25.0533413211
 21
17.4425962767
  0
LINE
  5
4E9
100
AcDbEntity
  8
DRAFT
100
AcDbLine
 62
7
  6
CONTINUOUS
 10
26.2811558666
 20
16.1456632005
 11
26.3300300484
 21
16.1659075494
  0
LINE
  5
4EA
100
AcDbEntity
  8
DRAFT
100
AcDbLine
 62
7
  6
CONTINUOUS
 10
-22.5397848939
 20
-6.4603380386
 11
-22.5205857649
 21
-6.4586583325
  0
LINE
  5
4EB
100
AcDbEntity
  8
DRAFT
100
AcDbLine
 62
7
  6
CONTINUOUS
 10
-22.4893070003
 20
-6.4559217951
 11
-22.4699699516
 21
-6.4542300226
  0
LINE
  5
4EC
100
AcDbEntity
  8
DRAFT
100
AcDbLine
 62
7
  6
CONTINUOUS
 10
-22.5153497027
 20
-6.4582002364
 11
-22.4942659585
 21
-6.4563556478
  0
LINE
  5
4ED
100
AcDbEntity
  8
DRAFT
100
AcDbLine
 62
7
  6
CONTINUOUS
 10
-24.8094969127
 20
-6.6589121097
 11
-24.8199699516
 21
-6.6598283819
  0
LINE
  5
4EE
100
AcDbEntity
  8
0
100
AcDbLine
 62
253
  6
CONTINUOUS
 10
-33.5199699516
 20
-6.912772107
 11
-27.1729136768
 21
-6.912772107
  0
LINE
  5
4EF
100
AcDbEntity
  8
0
100
AcDbLine
 62
253
  6
CONTINUOUS
 10
33.6800300484
 20
-6.912772107
 11
27.3329737735
 21
-6.912772107
  0
LINE
  5
4F0
100
AcDbEntity
  8
ASSI
100
AcDbLine
 62
7
  6
CONTINUOUS
 10
-22.5397848939
 20
-6.7598283819
 11
-22.5179677376
 21
-6.7598283819
  0
LINE
  5
4F1
100
AcDbEntity
  8
ASSI
100
AcDbLine
 62
7
  6
CONTINUOUS
 10
22.6780278344
 20
-6.7598283819
 11
22.6998449907
 21
-6.7598283819
  0
LINE
  5
4F2
100
AcDbEntity
  8
ASSI
100
AcDbLine
 62
7
  6
CONTINUOUS
 10
-22.5160201071
 20
-6.6598283819
 11
-22.4917871333
 21
-6.6598283819
  0
LINE
  5
4F3
100
AcDbEntity
  8
ASSI
100
AcDbLine
 62
7
  6
CONTINUOUS
 10
22.6518472301
 20
-6.6598283819
 11
22.6760802038
 21
-6.6598283819
  0
LINE
  5
4F4
100
AcDbEntity
  8
DRAFT
100
AcDbLine
 62
7
  6
CONTINUOUS
 10
-24.8199699516
 20
-6.6598283819
 11
-25.3890884824
 21
-6.6598283819
  0
LINE
  5
4F5
100
AcDbEntity
  8
DRAFT
100
AcDbLine
 62
7
  6
CONTINUOUS
 10
24.9800300484
 20
-6.6598283819
 11
25.5491485791
 21
-6.6598283819
  0
LINE
  5
4F6
100
AcDbEntity
  8
0
100
AcDbLine
 62
7
  6
CONTINUOUS
 10
-26.7699699516
 20
-4.3098283819
 11
-26.3329741423
 21
-4.3098283819
  0
LINE
  5
4F7
100
AcDbEntity
  8
0
100
AcDbLine
 62
7
  6
CONTINUOUS
 10
26.9300300484
 20
-4.3098283819
 11
26.4930342391
 21
-4.3098283819
  0
LINE
  5
4F8
100
AcDbEntity
  8
RACCORDO
100
AcDbLine
 62
7
  6
CONTINUOUS
 10
-26.3329741423
 20
-4.3098283819
 11
-25.7374000453
 21
-4.3098283819
  0
LINE
  5
4F9
100
AcDbEntity
  8
RACCORDO
100
AcDbLine
 62
7
  6
CONTINUOUS
 10
26.4930342391
 20
-4.3098283819
 11
25.8974601421
 21
-4.3098283819
  0
LINE
  5
4FA
100
AcDbEntity
  8
RACCORDO
100
AcDbLine
 62
7
  6
CONTINUOUS
 10
-25.7374000453
 20
-4.3098283819
 11
-24.9744264847
 21
-4.3098283819
  0
LINE
  5
4FB
100
AcDbEntity
  8
RACCORDO
100
AcDbLine
 62
7
  6
CONTINUOUS
 10
25.8974601421
 20
-4.3098283819
 11
25.1344865815
 21
-4.3098283819
  0
LINE
  5
4FC
100
AcDbEntity
  8
DRAFT
100
AcDbLine
 62
7
  6
CONTINUOUS
 10
-24.6873114582
 20
-3.9098283819
 11
-22.5746923651
 21
-3.9098283819
  0
LINE
  5
4FD
100
AcDbEntity
  8
DRAFT
100
AcDbLine
 62
7
  6
CONTINUOUS
 10
22.7347524619
 20
-3.9098283819
 11
24.8473715549
 21
-3.9098283819
  0
LINE
  5
4FE
100
AcDbEntity
  8
RACCORDO
100
AcDbLine
 62
253
  6
CONTINUOUS
 10
25.7471072424
 20
-3.8098283819
 11
24.9841336818
 21
-3.8098283819
  0
LINE
  5
4FF
100
AcDbEntity
  8
DRAFT
100
AcDbLine
 62
7
  6
CONTINUOUS
 10
22.6998449907
 20
-6.4603380386
 11
22.6806458617
 21
-6.4586583325
  0
LINE
  5
500
100
AcDbEntity
  8
DRAFT
100
AcDbLine
 62
7
  6
CONTINUOUS
 10
22.6493670971
 20
-6.4559217951
 11
22.6300300484
 21
-6.4542300226
  0
LINE
  5
501
100
AcDbEntity
  8
DRAFT
100
AcDbLine
 62
7
  6
CONTINUOUS
 10
22.6754097995
 20
-6.4582002364
 11
22.6543260552
 21
-6.4563556478
  0
LINE
  5
502
100
AcDbEntity
  8
DRAFT
100
AcDbLine
 62
7
  6
CONTINUOUS
 10
24.9695570094
 20
-6.6589121097
 11
24.9800300484
 21
-6.6598283819
  0
LINE
  5
503
100
AcDbEntity
  8
DRAFT
100
AcDbLine
 62
7
  6
CONTINUOUS
 10
25.0044671393
 20
-17.2420086915
 11
25.0533413211
 21
-17.2622530405
  0
LINE
  5
504
100
AcDbEntity
  8
DRAFT
100
AcDbLine
 62
7
  6
CONTINUOUS
 10
26.2811558666
 20
-15.9653199642
 11
26.3300300484
 21
-15.9855643132
  0
LINE
  5
505
100
AcDbEntity
  8
DRAFT
100
AcDbLine
 62
7
  6
CONTINUOUS
 10
15.7580717107
 20
-23.8378700442
 11
15.5800300484
 21
-23.6598283819
  0
LINE
  5
506
100
AcDbEntity
  8
SUPERFICI
100
AcDbLine
 62
7
  6
CONTINUOUS
 10
-23.4301597409
 20
18.2503614074
 11
-23.6199699516
 21
18.4401716181
  0
LINE
  5
507
100
AcDbEntity
  8
SMUSSO
100
AcDbLine
 62
7
  6
CONTINUOUS
 10
-22.5746923651
 20
17.2022148031
 11
-22.8755991656
 21
17.5224209389
  0
LINE
  5
508
100
AcDbEntity
  8
DRAFT
100
AcDbLine
 62
7
  6
CONTINUOUS
 10
-15.9754615339
 20
26.2912974363
 11
-15.9957058829
 21
26.3401716181
  0
LINE
  5
509
100
AcDbEntity
  8
DRAFT
100
AcDbLine
 62
7
  6
CONTINUOUS
 10
0.5850181731
 20
-22.4881174428
 11
0.5923403064
 21
-22.5296433242
  0
LINE
  5
50A
100
AcDbEntity
  8
0
100
AcDbLine
 62
7
  6
CONTINUOUS
 10
-0.9199699516
 20
-20.7098283819
 11
-0.9199699516
 21
-18.6098283819
  0
LINE
  5
50B
100
AcDbEntity
  8
0
100
AcDbLine
 62
7
  6
CONTINUOUS
 10
-0.7880309516
 20
21.5901716181
 11
-0.7880309516
 21
18.0901716181
  0
LINE
  5
50C
100
AcDbEntity
  8
0
100
AcDbLine
 62
253
  6
CONTINUOUS
 10
-0.7199699516
 20
-20.9098283819
 11
-0.7199699516
 21
-18.4098283819
  0
LINE
  5
50D
100
AcDbEntity
  8
0
100
AcDbLine
 62
7
  6
CONTINUOUS
 10
-0.4199699516
 20
18.4582326181
 11
-0.4199699516
 21
21.2221106181
  0
LINE
  5
50E
100
AcDbEntity
  8
0
100
AcDbLine
 62
7
  6
CONTINUOUS
 10
0.5800300484
 20
-18.2778893819
 11
0.5800300484
 21
-21.0417673819
  0
LINE
  5
50F
100
AcDbEntity
  8
RACCORDO
100
AcDbLine
 62
7
  6
CONTINUOUS
 10
3.0569551857
 20
22.640794841
 11
3.0568606682
 21
22.6402588054
  0
LINE
  5
510
100
AcDbEntity
  8
DRAFT
100
AcDbLine
 62
7
  6
CONTINUOUS
 10
3.0691555527
 20
22.7099865604
 11
3.0587048179
 21
22.6507174984
  0
LINE
  5
511
100
AcDbEntity
  8
0
100
AcDbLine
 62
7
  6
CONTINUOUS
 10
3.4662892211
 20
24.9622435142
 11
3.4712136994
 21
24.9901716181
  0
LINE
  5
512
100
AcDbEntity
  8
DRAFT
100
AcDbLine
 62
7
  6
CONTINUOUS
 10
-14.2242621959
 20
-26.492373317
 11
-14.2300462956
 21
-26.5063373689
  0
LINE
  5
513
100
AcDbEntity
  8
DRAFT
100
AcDbLine
 62
7
  6
CONTINUOUS
 10
-13.6017366695
 20
-27.2087025637
 11
-13.5800462956
 21
-27.1563373689
  0
LINE
  5
514
100
AcDbEntity
  8
DRAFT
100
AcDbLine
 62
7
  6
CONTINUOUS
 10
-14.3716401626
 20
-27.7109542001
 11
-14.3957058829
 21
-27.7598283819
  0
LINE
  5
515
100
AcDbEntity
  8
0
100
AcDbLine
 62
7
  6
CONTINUOUS
 10
-30.6082686264
 20
-25.9312223009
 11
-31.4382729946
 21
-26.761226669
  0
LINE
  5
516
100
AcDbEntity
  8
RACCORDO
100
AcDbLine
 62
253
  6
CONTINUOUS
 10
-22.4699699516
 20
-22.0598436127
 11
-22.5746923651
 21
-22.1645660261
  0
LINE
  5
517
100
AcDbEntity
  8
RACCORDO
100
AcDbLine
 62
253
  6
CONTINUOUS
 10
22.2300452792
 20
22.6401716181
 11
22.3347676927
 21
22.7448940316
  0
LINE
  5
518
100
AcDbEntity
  8
0
100
AcDbLine
 62
7
  6
CONTINUOUS
 10
-26.2088060273
 20
-26.1986644576
 11
-26.1831552896
 21
-26.1730137199
  0
LINE
  5
519
100
AcDbEntity
  8
0
100
AcDbLine
 62
7
  6
CONTINUOUS
 10
-26.2396934358
 20
-26.2295518661
 11
-26.2199699516
 21
-26.2098283819
  0
LINE
  5
51A
100
AcDbEntity
  8
0
100
AcDbLine
 62
7
  6
CONTINUOUS
 10
-25.2311338759
 20
-25.2209923062
 11
-25.2567846136
 21
-25.2466430439
  0
LINE
  5
51B
100
AcDbEntity
  8
0
100
AcDbLine
 62
7
  6
CONTINUOUS
 10
-25.2002464674
 20
-25.1901048977
 11
-25.2199699516
 21
-25.2098283819
  0
LINE
  5
51C
100
AcDbEntity
  8
RACCORDO
100
AcDbLine
 62
253
  6
CONTINUOUS
 10
-22.0699851824
 20
-22.4598283819
 11
-22.1747075959
 21
-22.5645507954
  0
LINE
  5
51D
100
AcDbEntity
  8
RACCORDO
100
AcDbLine
 62
253
  6
CONTINUOUS
 10
22.6300300484
 20
22.2401868489
 11
22.7347524619
 21
22.3449092624
  0
LINE
  5
51E
100
AcDbEntity
  8
DRAFT
100
AcDbLine
 62
7
  6
CONTINUOUS
 10
27.8811558666
 20
14.5418418291
 11
27.9300300484
 21
14.5659075494
  0
LINE
  5
51F
100
AcDbEntity
  8
DRAFT
100
AcDbLine
 62
7
  6
CONTINUOUS
 10
26.6625749835
 20
14.6329414935
 11
26.6765390354
 21
14.6387255932
  0
LINE
  5
520
100
AcDbEntity
  8
DRAFT
100
AcDbLine
 62
7
  6
CONTINUOUS
 10
27.3789042302
 20
14.0104159671
 11
27.3265390354
 21
13.9887255932
  0
LINE
  5
521
100
AcDbEntity
  8
0
100
AcDbLine
 62
7
  6
CONTINUOUS
 10
-22.4734561024
 20
-9.4258260026
 11
-22.4805158319
 21
-9.4277176514
  0
LINE
  5
522
100
AcDbEntity
  8
DRAFT
100
AcDbLine
 62
7
  6
CONTINUOUS
 10
-22.5397848939
 20
-9.1373809661
 11
-22.4982323734
 21
-9.1262470018
  0
LINE
  5
523
100
AcDbEntity
  8
DRAFT
100
AcDbLine
 62
7
  6
CONTINUOUS
 10
-26.0199699516
 20
-1.4045918624
 11
-24.764513687
 21
-1.3543721173
  0
LINE
  5
524
100
AcDbEntity
  8
DRAFT
100
AcDbLine
 62
7
  6
CONTINUOUS
 10
24.9245737838
 20
1.5347153535
 11
26.1800300484
 21
1.5849350986
  0
LINE
  5
525
100
AcDbEntity
  8
DRAFT
100
AcDbLine
 62
7
  6
CONTINUOUS
 10
-26.0199699516
 20
-1.4098283819
 11
-24.8199699516
 21
-1.4098283819
  0
LINE
  5
526
100
AcDbEntity
  8
DRAFT
100
AcDbLine
 62
7
  6
CONTINUOUS
 10
24.9800300484
 20
-1.4098283819
 11
26.1800300484
 21
-1.4098283819
  0
LINE
  5
527
100
AcDbEntity
  8
DRAFT
100
AcDbLine
 62
7
  6
CONTINUOUS
 10
24.9245737838
 20
-1.3543721173
 11
26.1800300484
 21
-1.4045918624
  0
LINE
  5
528
100
AcDbEntity
  8
DRAFT
100
AcDbLine
 62
7
  6
CONTINUOUS
 10
-26.0199699516
 20
1.5849350986
 11
-24.764513687
 21
1.5347153535
  0
LINE
  5
529
100
AcDbEntity
  8
0
100
AcDbLine
 62
7
  6
CONTINUOUS
 10
22.6405759287
 20
-9.4277176514
 11
22.6335161992
 21
-9.4258260026
  0
LINE
  5
52A
100
AcDbEntity
  8
DRAFT
100
AcDbLine
 62
7
  6
CONTINUOUS
 10
22.6998449907
 20
-9.1373809661
 11
22.6582924702
 21
-9.1262470018
  0
LINE
  5
52B
100
AcDbEntity
  8
DRAFT
100
AcDbLine
 62
7
  6
CONTINUOUS
 10
26.6625749835
 20
-14.4525982573
 11
26.6765390354
 21
-14.458382357
  0
LINE
  5
52C
100
AcDbEntity
  8
DRAFT
100
AcDbLine
 62
7
  6
CONTINUOUS
 10
27.3789042302
 20
-13.8300727308
 11
27.3265390354
 21
-13.808382357
  0
LINE
  5
52D
100
AcDbEntity
  8
DRAFT
100
AcDbLine
 62
7
  6
CONTINUOUS
 10
27.8811558666
 20
-14.3614985929
 11
27.9300300484
 21
-14.3855643132
  0
LINE
  5
52E
100
AcDbEntity
  8
SMUSSO
100
AcDbLine
 62
7
  6
CONTINUOUS
 10
-24.4205174139
 20
21.4299818288
 11
-24.723125181
 21
21.7303878966
  0
LINE
  5
52F
100
AcDbEntity
  8
SMUSSO
100
AcDbLine
 62
7
  6
CONTINUOUS
 10
-22.8589772772
 20
18.2503614074
 11
-22.5567638858
 21
17.9499553396
  0
LINE
  5
530
100
AcDbEntity
  8
SMUSSO
100
AcDbLine
 62
253
  6
CONTINUOUS
 10
-22.8455328892
 20
18.2907027644
 11
-22.5437482841
 21
17.9890100848
  0
LINE
  5
531
100
AcDbEntity
  8
0
100
AcDbLine
 62
7
  6
CONTINUOUS
 10
-24.6199699516
 20
21.3401716181
 11
-24.9199699516
 21
21.6401716181
  0
LINE
  5
532
100
AcDbEntity
  8
SMUSSO
100
AcDbLine
 62
7
  6
CONTINUOUS
 10
-24.4474082378
 20
21.3896404718
 11
-24.7491583691
 21
21.6913331511
  0
LINE
  5
533
100
AcDbEntity
  8
SUPERFICI
100
AcDbLine
 62
7
  6
CONTINUOUS
 10
-23.8097801623
 20
21.4299818288
 11
-23.6199699516
 21
21.2401716181
  0
LINE
  5
534
100
AcDbEntity
  8
SMUSSO
100
AcDbLine
 62
7
  6
CONTINUOUS
 10
24.1800300484
 20
-25.8237924338
 11
24.0491162639
 21
-25.6928786493
  0
LINE
  5
535
100
AcDbEntity
  8
SMUSSO
100
AcDbLine
 62
7
  6
CONTINUOUS
 10
24.9224275366
 20
-25.6928786493
 11
25.0533413211
 21
-25.8237924338
  0
LINE
  5
536
100
AcDbEntity
  8
RACCORDO
100
AcDbLine
 62
253
  6
CONTINUOUS
 10
22.2300452792
 20
-22.4598283819
 11
22.3347676927
 21
-22.5645507954
  0
LINE
  5
537
100
AcDbEntity
  8
RACCORDO
100
AcDbLine
 62
253
  6
CONTINUOUS
 10
-22.4699699516
 20
22.2401868489
 11
-22.5714197182
 21
22.3416366155
  0
LINE
  5
538
100
AcDbEntity
  8
RACCORDO
100
AcDbLine
 62
253
  6
CONTINUOUS
 10
22.6300300484
 20
-22.0598436127
 11
22.731479815
 21
-22.1612933793
  0
LINE
  5
539
100
AcDbEntity
  8
RACCORDO
100
AcDbLine
 62
253
  6
CONTINUOUS
 10
-22.0699851824
 20
22.6401716181
 11
-22.1747075959
 21
22.7448940316
  0
LINE
  5
53A
100
AcDbEntity
  8
SMUSSO
100
AcDbLine
 62
7
  6
CONTINUOUS
 10
-24.6873114582
 20
22.4771699416
 11
-24.3872711051
 21
22.1579222974
  0
LINE
  5
53B
100
AcDbEntity
  8
DRAFT
100
AcDbLine
 62
7
  6
CONTINUOUS
 10
-14.3716401626
 20
27.8912974363
 11
-14.3957058829
 21
27.9401716181
  0
LINE
  5
53C
100
AcDbEntity
  8
DRAFT
100
AcDbLine
 62
7
  6
CONTINUOUS
 10
-14.2242621959
 20
26.6727165532
 11
-14.2300462956
 21
26.6866806051
  0
LINE
  5
53D
100
AcDbEntity
  8
DRAFT
100
AcDbLine
 62
7
  6
CONTINUOUS
 10
-13.6017366695
 20
27.3890457999
 11
-13.5800462956
 21
27.3366806051
  0
LINE
  5
53E
100
AcDbEntity
  8
DRAFT
100
AcDbLine
 62
7
  6
CONTINUOUS
 10
3.0691555527
 20
-22.5296433242
 11
3.0587048179
 21
-22.4703742622
  0
LINE
  5
53F
100
AcDbEntity
  8
RACCORDO
100
AcDbLine
 62
7
  6
CONTINUOUS
 10
3.0568606689
 20
-22.4599155736
 11
3.0587048179
 21
-22.4703742622
  0
LINE
  5
540
100
AcDbEntity
  8
0
100
AcDbLine
 62
7
  6
CONTINUOUS
 10
3.4662892211
 20
-24.781900278
 11
3.4712136994
 21
-24.8098283819
  0
LINE
  5
541
100
AcDbEntity
  8
0
100
AcDbLine
 62
253
  6
CONTINUOUS
 10
0.8800300484
 20
21.0901716181
 11
0.8800300484
 21
18.5901716181
  0
LINE
  5
542
100
AcDbEntity
  8
0
100
AcDbLine
 62
7
  6
CONTINUOUS
 10
0.9480910484
 20
-21.4098283819
 11
0.9480910484
 21
-17.9098283819
  0
LINE
  5
543
100
AcDbEntity
  8
0
100
AcDbLine
 62
7
  6
CONTINUOUS
 10
1.0800300484
 20
20.8901716181
 11
1.0800300484
 21
18.7901716181
  0
LINE
  5
544
100
AcDbEntity
  8
ASSI
100
AcDbLine
 62
7
  6
CONTINUOUS
 10
4.4800300484
 20
22.7099865604
 11
4.4800300484
 21
22.6881694041
  0
LINE
  5
545
100
AcDbEntity
  8
ASSI
100
AcDbLine
 62
7
  6
CONTINUOUS
 10
4.4800300484
 20
-22.5078261679
 11
4.4800300484
 21
-22.5296433242
  0
LINE
  5
546
100
AcDbEntity
  8
DRAFT
100
AcDbLine
 62
7
  6
CONTINUOUS
 10
-2.9090954559
 20
-22.5296433242
 11
-2.8986447211
 21
-22.4703742622
  0
LINE
  5
547
100
AcDbEntity
  8
RACCORDO
100
AcDbLine
 62
7
  6
CONTINUOUS
 10
-2.8986447211
 20
-22.4703742622
 11
-2.8968005714
 21
-22.4599155692
  0
LINE
  5
548
100
AcDbEntity
  8
0
100
AcDbLine
 62
7
  6
CONTINUOUS
 10
-3.3062291243
 20
-24.781900278
 11
-3.3111536026
 21
-24.8098283819
  0
LINE
  5
549
100
AcDbEntity
  8
DRAFT
100
AcDbLine
 62
7
  6
CONTINUOUS
 10
-0.4249580763
 20
-22.4881174428
 11
-0.4322802096
 21
-22.5296433242
  0
LINE
  5
54A
100
AcDbEntity
  8
DRAFT
100
AcDbLine
 62
7
  6
CONTINUOUS
 10
13.7617967663
 20
27.3890457999
 11
13.7401063924
 21
27.3366806051
  0
LINE
  5
54B
100
AcDbEntity
  8
DRAFT
100
AcDbLine
 62
7
  6
CONTINUOUS
 10
14.3843222927
 20
26.6727165532
 11
14.3901063924
 21
26.6866806051
  0
LINE
  5
54C
100
AcDbEntity
  8
DRAFT
100
AcDbLine
 62
7
  6
CONTINUOUS
 10
14.5317002594
 20
27.8912974363
 11
14.5557659797
 21
27.9401716181
  0
LINE
  5
54D
100
AcDbEntity
  8
0
100
AcDbLine
 62
7
  6
CONTINUOUS
 10
-25.9413638706
 20
-30.5981270567
 11
-26.7713682387
 21
-31.4281314249
  0
LINE
  5
54E
100
AcDbEntity
  8
SMUSSO
100
AcDbLine
 62
7
  6
CONTINUOUS
 10
-25.6492592735
 20
-30.5888651721
 11
-20.8409331614
 21
-25.78053906
  0
LINE
  5
54F
100
AcDbEntity
  8
DRAFT
100
AcDbLine
 62
7
  6
CONTINUOUS
 10
-27.7210957698
 20
-14.3614985929
 11
-27.7699699516
 21
-14.3855643132
  0
LINE
  5
550
100
AcDbEntity
  8
DRAFT
100
AcDbLine
 62
7
  6
CONTINUOUS
 10
-27.2188441334
 20
-13.8300727308
 11
-27.1664789386
 21
-13.808382357
  0
LINE
  5
551
100
AcDbEntity
  8
DRAFT
100
AcDbLine
 62
7
  6
CONTINUOUS
 10
-26.5025148867
 20
-14.4525982573
 11
-26.5164789386
 21
-14.458382357
  0
LINE
  5
552
100
AcDbEntity
  8
DRAFT
100
AcDbLine
 62
7
  6
CONTINUOUS
 10
22.6998449907
 20
9.3177242023
 11
22.6582924702
 21
9.306590238
  0
LINE
  5
553
100
AcDbEntity
  8
0
100
AcDbLine
 62
7
  6
CONTINUOUS
 10
22.6335161992
 20
9.6061692389
 11
22.6405759287
 21
9.6080608877
  0
LINE
  5
554
100
AcDbEntity
  8
DRAFT
100
AcDbLine
 62
7
  6
CONTINUOUS
 10
-26.0199699516
 20
1.5901716181
 11
-24.8199699516
 21
1.5901716181
  0
LINE
  5
555
100
AcDbEntity
  8
DRAFT
100
AcDbLine
 62
7
  6
CONTINUOUS
 10
24.9800300484
 20
1.5901716181
 11
26.1800300484
 21
1.5901716181
  0
LINE
  5
556
100
AcDbEntity
  8
RACCORDO
100
AcDbLine
 62
253
  6
CONTINUOUS
 10
-25.5870471456
 20
3.9901716181
 11
-24.824073585
 21
3.9901716181
  0
LINE
  5
557
100
AcDbEntity
  8
DRAFT
100
AcDbLine
 62
7
  6
CONTINUOUS
 10
-24.6873114582
 20
4.0901716181
 11
-22.5746923651
 21
4.0901716181
  0
LINE
  5
558
100
AcDbEntity
  8
DRAFT
100
AcDbLine
 62
7
  6
CONTINUOUS
 10
22.7347524619
 20
4.0901716181
 11
24.8473715549
 21
4.0901716181
  0
LINE
  5
559
100
AcDbEntity
  8
0
100
AcDbLine
 62
7
  6
CONTINUOUS
 10
-26.7699699516
 20
4.4901716181
 11
-26.3329741423
 21
4.4901716181
  0
LINE
  5
55A
100
AcDbEntity
  8
0
100
AcDbLine
 62
7
  6
CONTINUOUS
 10
26.9300300484
 20
4.4901716181
 11
26.4930342391
 21
4.4901716181
  0
LINE
  5
55B
100
AcDbEntity
  8
RACCORDO
100
AcDbLine
 62
7
  6
CONTINUOUS
 10
-26.3329741423
 20
4.4901716181
 11
-25.7374000453
 21
4.4901716181
  0
LINE
  5
55C
100
AcDbEntity
  8
RACCORDO
100
AcDbLine
 62
7
  6
CONTINUOUS
 10
26.4930342391
 20
4.4901716181
 11
25.8974601421
 21
4.4901716181
  0
LINE
  5
55D
100
AcDbEntity
  8
RACCORDO
100
AcDbLine
 62
7
  6
CONTINUOUS
 10
-25.7374000453
 20
4.4901716181
 11
-24.9744264847
 21
4.4901716181
  0
LINE
  5
55E
100
AcDbEntity
  8
RACCORDO
100
AcDbLine
 62
7
  6
CONTINUOUS
 10
25.8974601421
 20
4.4901716181
 11
25.1344865815
 21
4.4901716181
  0
LINE
  5
55F
100
AcDbEntity
  8
DRAFT
100
AcDbLine
 62
7
  6
CONTINUOUS
 10
-22.5397848939
 20
9.3177242023
 11
-22.4982323734
 21
9.306590238
  0
LINE
  5
560
100
AcDbEntity
  8
0
100
AcDbLine
 62
7
  6
CONTINUOUS
 10
-22.4805158319
 20
9.6080608877
 11
-22.4734561024
 21
9.6061692389
  0
LINE
  5
561
100
AcDbEntity
  8
DRAFT
100
AcDbLine
 62
7
  6
CONTINUOUS
 10
-27.2188441334
 20
14.0104159671
 11
-27.1664789386
 21
13.9887255932
  0
LINE
  5
562
100
AcDbEntity
  8
DRAFT
100
AcDbLine
 62
7
  6
CONTINUOUS
 10
-26.5025148867
 20
14.6329414935
 11
-26.5164789386
 21
14.6387255932
  0
LINE
  5
563
100
AcDbEntity
  8
DRAFT
100
AcDbLine
 62
7
  6
CONTINUOUS
 10
-27.7210957698
 20
14.5418418291
 11
-27.7699699516
 21
14.5659075494
  0
LINE
  5
564
100
AcDbEntity
  8
SMUSSO
100
AcDbLine
 62
7
  6
CONTINUOUS
 10
22.7168239826
 20
-17.7696121034
 11
23.0182055268
 21
-18.0700181712
  0
LINE
  5
565
100
AcDbEntity
  8
SMUSSO
100
AcDbLine
 62
7
  6
CONTINUOUS
 10
24.8831852777
 20
-21.5500446604
 11
24.5822413317
 21
-21.2496385926
  0
LINE
  5
566
100
AcDbEntity
  8
SMUSSO
100
AcDbLine
 62
253
  6
CONTINUOUS
 10
23.005592986
 20
-18.1103595282
 11
22.7038083809
 21
-17.8086668486
  0
LINE
  5
567
100
AcDbEntity
  8
SMUSSO
100
AcDbLine
 62
7
  6
CONTINUOUS
 10
-24.7623674398
 20
25.8732218855
 11
-24.8932812243
 21
26.0041356701
  0
LINE
  5
568
100
AcDbEntity
  8
SMUSSO
100
AcDbLine
 62
7
  6
CONTINUOUS
 10
-24.0199699516
 20
26.0041356701
 11
-23.8890561671
 21
25.8732218855
  0
LINE
  5
569
100
AcDbEntity
  8
0
100
AcDbLine
 62
7
  6
CONTINUOUS
 10
23.9698402591
 20
-21.2496385926
 11
23.7800300484
 21
-21.0598283819
  0
LINE
  5
56A
100
AcDbEntity
  8
SMUSSO
100
AcDbLine
 62
7
  6
CONTINUOUS
 10
24.6074683346
 20
-21.2092972356
 11
24.9092184659
 21
-21.5109899149
  0
LINE
  5
56B
100
AcDbEntity
  8
0
100
AcDbLine
 62
7
  6
CONTINUOUS
 10
24.7800300484
 20
-21.1598283819
 11
25.0800300484
 21
-21.4598283819
  0
LINE
  5
56C
100
AcDbEntity
  8
0
100
AcDbLine
 62
7
  6
CONTINUOUS
 10
23.5902198377
 20
-18.0700181712
 11
23.7800300484
 21
-18.2598283819
  0
LINE
  5
56D
100
AcDbEntity
  8
SMUSSO
100
AcDbLine
 62
7
  6
CONTINUOUS
 10
24.8473715549
 20
-22.2968267054
 11
24.5473312019
 21
-21.9775790611
  0
LINE
  5
56E
100
AcDbEntity
  8
DRAFT
100
AcDbLine
 62
7
  6
CONTINUOUS
 10
14.5317002594
 20
-27.7109542001
 11
14.5557659797
 21
-27.7598283819
  0
LINE
  5
56F
100
AcDbEntity
  8
DRAFT
100
AcDbLine
 62
7
  6
CONTINUOUS
 10
13.7617967663
 20
-27.2087025637
 11
13.7401063924
 21
-27.1563373689
  0
LINE
  5
570
100
AcDbEntity
  8
DRAFT
100
AcDbLine
 62
7
  6
CONTINUOUS
 10
14.3843222927
 20
-26.492373317
 11
14.3901063924
 21
-26.5063373689
  0
LINE
  5
571
100
AcDbEntity
  8
DRAFT
100
AcDbLine
 62
7
  6
CONTINUOUS
 10
-2.9090954559
 20
22.7099865604
 11
-2.8986447211
 21
22.6507174984
  0
LINE
  5
572
100
AcDbEntity
  8
0
100
AcDbLine
 62
7
  6
CONTINUOUS
 10
-3.3062291243
 20
24.9622435142
 11
-3.3111536026
 21
24.9901716181
  0
LINE
  5
573
100
AcDbEntity
  8
DRAFT
100
AcDbLine
 62
7
  6
CONTINUOUS
 10
-0.4249580763
 20
22.668460679
 11
-0.4322802096
 21
22.7099865604
  0
LINE
  5
574
100
AcDbEntity
  8
DRAFT
100
AcDbLine
 62
7
  6
CONTINUOUS
 10
4.7795203917
 20
22.7099865604
 11
4.7812000978
 21
22.6907874314
  0
LINE
  5
575
100
AcDbEntity
  8
DRAFT
100
AcDbLine
 62
7
  6
CONTINUOUS
 10
4.7839366351
 20
22.6595086668
 11
4.7856284077
 21
22.6401716181
  0
LINE
  5
576
100
AcDbEntity
  8
DRAFT
100
AcDbLine
 62
7
  6
CONTINUOUS
 10
4.7816581939
 20
22.6855513692
 11
4.7835027825
 21
22.664467625
  0
LINE
  5
577
100
AcDbEntity
  8
DRAFT
100
AcDbLine
 62
7
  6
CONTINUOUS
 10
4.5800300484
 20
26.8401716181
 11
4.5800300484
 21
25.792976087
  0
LINE
  5
578
100
AcDbEntity
  8
ASSI
100
AcDbLine
 62
7
  6
CONTINUOUS
 10
4.5800300484
 20
22.6862217736
 11
4.5800300484
 21
22.6619887999
  0
LINE
  5
579
100
AcDbEntity
  8
ASSI
100
AcDbLine
 62
7
  6
CONTINUOUS
 10
4.5800300484
 20
-22.4816455636
 11
4.5800300484
 21
-22.5058785373
  0
LINE
  5
57A
100
AcDbEntity
  8
DRAFT
100
AcDbLine
 62
7
  6
CONTINUOUS
 10
4.5800300484
 20
-24.6597148235
 11
4.5800300484
 21
-26.6598283819
  0
LINE
  5
57B
100
AcDbEntity
  8
RACCORDO
100
AcDbLine
 62
7
  6
CONTINUOUS
 10
4.5800300484
 20
24.7160883291
 11
4.5800300484
 21
25.792976087
  0
LINE
  5
57C
100
AcDbEntity
  8
DRAFT
100
AcDbLine
 62
7
  6
CONTINUOUS
 10
5.7800300484
 20
26.8401716181
 11
5.7800300484
 21
25.792976087
  0
LINE
  5
57D
100
AcDbEntity
  8
DRAFT
100
AcDbLine
 62
7
  6
CONTINUOUS
 10
5.7800300484
 20
-25.6126328507
 11
5.7800300484
 21
-26.6598283819
  0
LINE
  5
57E
100
AcDbEntity
  8
RACCORDO
100
AcDbLine
 62
7
  6
CONTINUOUS
 10
5.9800300484
 20
26.683793074
 11
5.9800300484
 21
25.8887787387
  0
LINE
  5
57F
100
AcDbEntity
  8
RACCORDO
100
AcDbLine
 62
7
  6
CONTINUOUS
 10
5.9800300484
 20
26.8404707677
 11
5.9800300484
 21
26.683793074
  0
LINE
  5
580
100
AcDbEntity
  8
RACCORDO
100
AcDbLine
 62
7
  6
CONTINUOUS
 10
5.9800300484
 20
-26.5034498378
 11
5.9800300484
 21
-25.7084355025
  0
LINE
  5
581
100
AcDbEntity
  8
RACCORDO
100
AcDbLine
 62
7
  6
CONTINUOUS
 10
5.9800300484
 20
-26.5034498378
 11
5.9800300484
 21
-26.6601275314
  0
LINE
  5
582
100
AcDbEntity
  8
0
100
AcDbLine
 62
7
  6
CONTINUOUS
 10
5.9800300484
 20
-26.6601275314
 11
5.9800300484
 21
-26.7598283819
  0
LINE
  5
583
100
AcDbEntity
  8
0
100
AcDbLine
 62
7
  6
CONTINUOUS
 10
5.9800300484
 20
26.8404707677
 11
5.9800300484
 21
26.9401716181
  0
LINE
  5
584
100
AcDbEntity
  8
DRAFT
100
AcDbLine
 62
7
  6
CONTINUOUS
 10
6.7800300484
 20
-25.6755379403
 11
6.7800300484
 21
-24.6178226677
  0
LINE
  5
585
100
AcDbEntity
  8
DRAFT
100
AcDbLine
 62
7
  6
CONTINUOUS
 10
6.7957396068
 20
25.8558811765
 11
6.7957351648
 21
25.271938336
  0
LINE
  5
586
100
AcDbEntity
  8
DRAFT
100
AcDbLine
 62
253
  6
CONTINUOUS
 10
6.7957372142
 20
24.9552590956
 11
6.7957351648
 21
25.271938336
  0
LINE
  5
587
100
AcDbEntity
  8
DRAFT
100
AcDbLine
 62
7
  6
CONTINUOUS
 10
6.8160659964
 20
-24.9487356546
 11
6.8160659964
 21
-24.8098283819
  0
LINE
  5
588
100
AcDbEntity
  8
DRAFT
100
AcDbLine
 62
7
  6
CONTINUOUS
 10
6.8160659964
 20
24.9901716181
 11
6.8160659964
 21
25.1290788909
  0
LINE
  5
589
100
AcDbEntity
  8
DRAFT
100
AcDbLine
 62
7
  6
CONTINUOUS
 10
6.8474851133
 20
25.2444638624
 11
6.8474851133
 21
25.1604980077
  0
LINE
  5
58A
100
AcDbEntity
  8
DRAFT
100
AcDbLine
 62
7
  6
CONTINUOUS
 10
6.8474851133
 20
-24.9801547715
 11
6.8474851133
 21
-25.0641206262
  0
LINE
  5
58B
100
AcDbEntity
  8
DRAFT
100
AcDbLine
 62
7
  6
CONTINUOUS
 10
7.0800300484
 20
27.3431153433
 11
7.0800300484
 21
26.9159075494
  0
LINE
  5
58C
100
AcDbEntity
  8
DRAFT
100
AcDbLine
 62
7
  6
CONTINUOUS
 10
7.0800300484
 20
-26.7355643132
 11
7.0800300484
 21
-27.162772107
  0
LINE
  5
58D
100
AcDbEntity
  8
0
100
AcDbLine
 62
253
  6
CONTINUOUS
 10
7.0829737735
 20
-33.5098283819
 11
7.0829737735
 21
-27.162772107
  0
LINE
  5
58E
100
AcDbEntity
  8
0
100
AcDbLine
 62
253
  6
CONTINUOUS
 10
7.0829737735
 20
27.3431153433
 11
7.0829737735
 21
33.6901716181
  0
LINE
  5
58F
100
AcDbEntity
  8
DRAFT
100
AcDbLine
 62
7
  6
CONTINUOUS
 10
4.7795203917
 20
-22.5296433242
 11
4.7812000978
 21
-22.5104441952
  0
LINE
  5
590
100
AcDbEntity
  8
DRAFT
100
AcDbLine
 62
7
  6
CONTINUOUS
 10
4.7839366351
 20
-22.4791654306
 11
4.7856284077
 21
-22.4598283819
  0
LINE
  5
591
100
AcDbEntity
  8
DRAFT
100
AcDbLine
 62
7
  6
CONTINUOUS
 10
4.7816581939
 20
-22.505208133
 11
4.7835027825
 21
-22.4841243887
  0
LINE
  5
592
100
AcDbEntity
  8
0
100
AcDbLine
 62
7
  6
CONTINUOUS
 10
1.8121407788
 20
-22.4703742622
 11
1.8140324276
 21
-22.4633145327
  0
LINE
  5
593
100
AcDbEntity
  8
DRAFT
100
AcDbLine
 62
7
  6
CONTINUOUS
 10
2.1024774642
 20
-22.5296433242
 11
2.1136114285
 21
-22.4880908037
  0
LINE
  5
594
100
AcDbEntity
  8
DRAFT
100
AcDbLine
 62
7
  6
CONTINUOUS
 10
16.1355216307
 20
26.2912974363
 11
16.1557659797
 21
26.3401716181
  0
LINE
  5
595
100
AcDbEntity
  8
DRAFT
100
AcDbLine
 62
7
  6
CONTINUOUS
 10
-15.5980116139
 20
-23.8378700442
 11
-15.4199699516
 21
-23.6598283819
  0
LINE
  5
596
100
AcDbEntity
  8
DRAFT
100
AcDbLine
 62
7
  6
CONTINUOUS
 10
26.3300300484
 20
15.5659075494
 11
26.2811558666
 21
15.5170333676
  0
LINE
  5
597
100
AcDbEntity
  8
DRAFT
100
AcDbLine
 62
7
  6
CONTINUOUS
 10
-15.3957058829
 20
-26.1598283819
 11
-15.3468317011
 21
-26.1109542001
  0
LINE
  5
598
100
AcDbEntity
  8
DRAFT
100
AcDbLine
 62
7
  6
CONTINUOUS
 10
-26.1210957698
 20
-15.9653199642
 11
-26.1699699516
 21
-15.9855643132
  0
LINE
  5
599
100
AcDbEntity
  8
DRAFT
100
AcDbLine
 62
7
  6
CONTINUOUS
 10
-24.8444070425
 20
-17.2420086915
 11
-24.8932812243
 21
-17.2622530405
  0
LINE
  5
59A
100
AcDbEntity
  8
DRAFT
100
AcDbLine
 62
7
  6
CONTINUOUS
 10
22.6583191093
 20
11.8451597428
 11
22.6998449907
 21
11.8524818761
  0
LINE
  5
59B
100
AcDbEntity
  8
DRAFT
100
AcDbLine
 62
7
  6
CONTINUOUS
 10
22.6998449907
 20
6.6406812748
 11
22.6806458617
 21
6.6390015687
  0
LINE
  5
59C
100
AcDbEntity
  8
DRAFT
100
AcDbLine
 62
7
  6
CONTINUOUS
 10
22.6493670971
 20
6.6362650314
 11
22.6300300484
 21
6.6345732588
  0
LINE
  5
59D
100
AcDbEntity
  8
DRAFT
100
AcDbLine
 62
7
  6
CONTINUOUS
 10
22.6754097995
 20
6.6385434726
 11
22.6543260552
 21
6.636698884
  0
LINE
  5
59E
100
AcDbEntity
  8
DRAFT
100
AcDbLine
 62
7
  6
CONTINUOUS
 10
24.9695570094
 20
6.8392553459
 11
24.9800300484
 21
6.8401716181
  0
LINE
  5
59F
100
AcDbEntity
  8
ASSI
100
AcDbLine
 62
7
  6
CONTINUOUS
 10
-22.516020107
 20
6.8401716181
 11
-22.4917871334
 21
6.8401716181
  0
LINE
  5
5A0
100
AcDbEntity
  8
ASSI
100
AcDbLine
 62
7
  6
CONTINUOUS
 10
22.6518472301
 20
6.8401716181
 11
22.6760802038
 21
6.8401716181
  0
LINE
  5
5A1
100
AcDbEntity
  8
DRAFT
100
AcDbLine
 62
7
  6
CONTINUOUS
 10
24.9800300484
 20
6.8401716181
 11
25.5491485791
 21
6.8401716181
  0
LINE
  5
5A2
100
AcDbEntity
  8
DRAFT
100
AcDbLine
 62
7
  6
CONTINUOUS
 10
-24.8199699516
 20
6.8401716181
 11
-25.3890884824
 21
6.8401716181
  0
LINE
  5
5A3
100
AcDbEntity
  8
ASSI
100
AcDbLine
 62
7
  6
CONTINUOUS
 10
-22.5397848939
 20
6.9401716181
 11
-22.5179677376
 21
6.9401716181
  0
LINE
  5
5A4
100
AcDbEntity
  8
ASSI
100
AcDbLine
 62
7
  6
CONTINUOUS
 10
22.6780278344
 20
6.9401716181
 11
22.6998449907
 21
6.9401716181
  0
LINE
  5
5A5
100
AcDbEntity
  8
0
100
AcDbLine
 62
253
  6
CONTINUOUS
 10
-33.5199699516
 20
7.0931153433
 11
-27.1729136768
 21
7.0931153433
  0
LINE
  5
5A6
100
AcDbEntity
  8
0
100
AcDbLine
 62
253
  6
CONTINUOUS
 10
33.6800300484
 20
7.0931153433
 11
27.3329737735
 21
7.0931153433
  0
LINE
  5
5A7
100
AcDbEntity
  8
DRAFT
100
AcDbLine
 62
7
  6
CONTINUOUS
 10
-22.5397848939
 20
6.6406812748
 11
-22.5205857649
 21
6.6390015687
  0
LINE
  5
5A8
100
AcDbEntity
  8
DRAFT
100
AcDbLine
 62
7
  6
CONTINUOUS
 10
-22.4893070003
 20
6.6362650314
 11
-22.4699699516
 21
6.6345732588
  0
LINE
  5
5A9
100
AcDbEntity
  8
DRAFT
100
AcDbLine
 62
7
  6
CONTINUOUS
 10
-22.5153497027
 20
6.6385434726
 11
-22.4942659585
 21
6.636698884
  0
LINE
  5
5AA
100
AcDbEntity
  8
DRAFT
100
AcDbLine
 62
7
  6
CONTINUOUS
 10
-24.8094969127
 20
6.8392553459
 11
-24.8199699516
 21
6.8401716181
  0
LINE
  5
5AB
100
AcDbEntity
  8
DRAFT
100
AcDbLine
 62
7
  6
CONTINUOUS
 10
-22.4982590125
 20
11.8451597428
 11
-22.5397848939
 21
11.8524818761
  0
LINE
  5
5AC
100
AcDbEntity
  8
DRAFT
100
AcDbLine
 62
7
  6
CONTINUOUS
 10
-26.1210957698
 20
16.1456632005
 11
-26.1699699516
 21
16.1659075494
  0
LINE
  5
5AD
100
AcDbEntity
  8
DRAFT
100
AcDbLine
 62
7
  6
CONTINUOUS
 10
-24.8444070425
 20
17.4223519278
 11
-24.8932812243
 21
17.4425962767
  0
LINE
  5
5AE
100
AcDbEntity
  8
0
100
AcDbLine
 62
7
  6
CONTINUOUS
 10
-26.614543486
 20
21.7778915997
 11
-26.6230878036
 21
21.7821516394
  0
LINE
  5
5AF
100
AcDbEntity
  8
DRAFT
100
AcDbLine
 62
7
  6
CONTINUOUS
 10
-15.5980116139
 20
24.0182132804
 11
-15.4199699516
 21
23.8401716181
  0
LINE
  5
5B0
100
AcDbEntity
  8
DRAFT
100
AcDbLine
 62
7
  6
CONTINUOUS
 10
-15.3957058829
 20
26.3401716181
 11
-15.3468317011
 21
26.2912974363
  0
LINE
  5
5B1
100
AcDbEntity
  8
DRAFT
100
AcDbLine
 62
7
  6
CONTINUOUS
 10
26.3300300484
 20
-15.3855643132
 11
26.2811558666
 21
-15.3366901314
  0
LINE
  5
5B2
100
AcDbEntity
  8
SMUSSO
100
AcDbLine
 62
7
  6
CONTINUOUS
 10
22.7347524619
 20
-17.0218715669
 11
23.0356592624
 21
-17.3420777026
  0
LINE
  5
5B3
100
AcDbEntity
  8
DRAFT
100
AcDbLine
 62
7
  6
CONTINUOUS
 10
16.1355216307
 20
-26.1109542001
 11
16.1557659797
 21
-26.1598283819
  0
LINE
  5
5B4
100
AcDbEntity
  8
0
100
AcDbLine
 62
7
  6
CONTINUOUS
 10
1.8140324276
 20
22.6436577689
 11
1.8121407788
 21
22.6507174984
  0
LINE
  5
5B5
100
AcDbEntity
  8
DRAFT
100
AcDbLine
 62
7
  6
CONTINUOUS
 10
2.1024774642
 20
22.7099865604
 11
2.1136114285
 21
22.6684340399
  0
LINE
  5
5B6
100
AcDbEntity
  8
0
100
AcDbLine
 62
253
  6
CONTINUOUS
 10
8.4971873359
 20
-33.5098283819
 11
8.4971873359
 21
-28.0113002445
  0
LINE
  5
5B7
100
AcDbEntity
  8
0
100
AcDbLine
 62
253
  6
CONTINUOUS
 10
8.4971873359
 20
28.1916434807
 11
8.4971873359
 21
33.6901716181
  0
LINE
  5
5B8
100
AcDbEntity
  8
0
100
AcDbLine
 62
7
  6
CONTINUOUS
 10
8.7114008983
 20
33.6901716181
 11
8.7114008983
 21
28.2401716181
  0
LINE
  5
5B9
100
AcDbEntity
  8
0
100
AcDbLine
 62
7
  6
CONTINUOUS
 10
8.7114008983
 20
-28.0598283819
 11
8.7114008983
 21
-33.5098283819
  0
LINE
  5
5BA
100
AcDbEntity
  8
DRAFT
100
AcDbLine
 62
7
  6
CONTINUOUS
 10
10.9911227756
 20
25.4901716181
 11
10.9911227756
 21
25.1901716181
  0
LINE
  5
5BB
100
AcDbEntity
  8
DRAFT
100
AcDbLine
 62
7
  6
CONTINUOUS
 10
10.9911227756
 20
-25.3098283819
 11
10.9911227756
 21
-25.0098283819
  0
LINE
  5
5BC
100
AcDbEntity
  8
DRAFT
100
AcDbLine
 62
7
  6
CONTINUOUS
 10
11.3300300484
 20
28.1901716181
 11
11.3300300484
 21
27.9479799987
  0
LINE
  5
5BD
100
AcDbEntity
  8
DRAFT
100
AcDbLine
 62
7
  6
CONTINUOUS
 10
11.3300300484
 20
-28.0098283819
 11
11.3300300484
 21
-27.7676367625
  0
LINE
  5
5BE
100
AcDbEntity
  8
DRAFT
100
AcDbLine
 62
7
  6
CONTINUOUS
 10
-9.7734152801
 20
-26.5063373689
 11
-10.0743221656
 21
-26.8098281195
  0
LINE
  5
5BF
100
AcDbEntity
  8
SMUSSO
100
AcDbLine
 62
7
  6
CONTINUOUS
 10
-12.5525605712
 20
-26.492373317
 11
-12.5665246231
 21
-26.5063373689
  0
LINE
  5
5C0
100
AcDbEntity
  8
SMUSSO
100
AcDbLine
 62
7
  6
CONTINUOUS
 10
26.6625749835
 20
12.7227622377
 11
26.6765390354
 21
12.7367262896
  0
LINE
  5
5C1
100
AcDbEntity
  8
DRAFT
100
AcDbLine
 62
7
  6
CONTINUOUS
 10
-10.8013890685
 20
-24.9801547715
 11
-10.8310626789
 21
-25.0098283819
  0
LINE
  5
5C2
100
AcDbEntity
  8
DRAFT
100
AcDbLine
 62
7
  6
CONTINUOUS
 10
26.9800305759
 20
12.4332358042
 11
26.9660659964
 21
12.4192712247
  0
LINE
  5
5C3
100
AcDbEntity
  8
DRAFT
100
AcDbLine
 62
7
  6
CONTINUOUS
 10
-12.2630341377
 20
-26.8098289094
 11
-12.2490695582
 21
-26.7958643299
  0
LINE
  5
5C4
100
AcDbEntity
  8
DRAFT
100
AcDbLine
 62
7
  6
CONTINUOUS
 10
-11.1699699516
 20
-27.7676367625
 11
-11.1132873892
 21
-27.7109542001
  0
LINE
  5
5C5
100
AcDbEntity
  8
DRAFT
100
AcDbLine
 62
7
  6
CONTINUOUS
 10
27.8811558666
 20
11.2834890557
 11
27.937838429
 21
11.3401716181
  0
LINE
  5
5C6
100
AcDbEntity
  8
SMUSSO
100
AcDbLine
 62
7
  6
CONTINUOUS
 10
-10.090870345
 20
-26.7958643299
 11
-9.787379332
 21
-26.492373317
  0
LINE
  5
5C7
100
AcDbEntity
  8
SMUSSO
100
AcDbLine
 62
7
  6
CONTINUOUS
 10
26.6625749835
 20
9.9575809985
 11
26.9660659964
 21
10.2610720115
  0
LINE
  5
5C8
100
AcDbEntity
  8
DRAFT
100
AcDbLine
 62
7
  6
CONTINUOUS
 10
26.9783079087
 20
10.2453847708
 11
26.6765390354
 21
9.9436169466
  0
LINE
  5
5C9
100
AcDbEntity
  8
DRAFT
100
AcDbLine
 62
7
  6
CONTINUOUS
 10
-11.1699699516
 20
-28.0098283819
 11
-10.9199699516
 21
-27.7598283819
  0
LINE
  5
5CA
100
AcDbEntity
  8
DRAFT
100
AcDbLine
 62
7
  6
CONTINUOUS
 10
27.9300300484
 20
11.0901716181
 11
28.1800300484
 21
11.3401716181
  0
LINE
  5
5CB
100
AcDbEntity
  8
0
100
AcDbLine
 62
7
  6
CONTINUOUS
 10
25.0300300484
 20
14.1539147904
 11
25.4800300484
 21
14.2332619317
  0
LINE
  5
5CC
100
AcDbEntity
  8
DRAFT
100
AcDbLine
 62
7
  6
CONTINUOUS
 10
22.6998449907
 20
14.3292971224
 11
22.6405759287
 21
14.3188463876
  0
LINE
  5
5CD
100
AcDbEntity
  8
DRAFT
100
AcDbLine
 62
7
  6
CONTINUOUS
 10
24.9171918146
 20
14.720275193
 11
25.0300300484
 21
14.7401716181
  0
LINE
  5
5CE
100
AcDbEntity
  8
DRAFT
100
AcDbLine
 62
7
  6
CONTINUOUS
 10
-22.5397848939
 20
8.3510461138
 11
-22.4805158319
 21
8.3614968486
  0
LINE
  5
5CF
100
AcDbEntity
  8
RACCORDO
100
AcDbLine
 62
7
  6
CONTINUOUS
 10
-22.4700571433
 20
8.3633409976
 11
-22.4805158319
 21
8.3614968486
  0
LINE
  5
5D0
100
AcDbEntity
  8
DRAFT
100
AcDbLine
 62
7
  6
CONTINUOUS
 10
-24.7571317179
 20
7.9600680432
 11
-24.8699699516
 21
7.9401716181
  0
LINE
  5
5D1
100
AcDbEntity
  8
0
100
AcDbLine
 62
253
  6
CONTINUOUS
 10
-33.5199699516
 20
8.5073289056
 11
-28.0214418142
 21
8.5073289056
  0
LINE
  5
5D2
100
AcDbEntity
  8
0
100
AcDbLine
 62
253
  6
CONTINUOUS
 10
33.6800300484
 20
8.5073289056
 11
28.181501911
 21
8.5073289056
  0
LINE
  5
5D3
100
AcDbEntity
  8
0
100
AcDbLine
 62
7
  6
CONTINUOUS
 10
28.2300300484
 20
8.721542468
 11
33.6800300484
 21
8.721542468
  0
LINE
  5
5D4
100
AcDbEntity
  8
0
100
AcDbLine
 62
7
  6
CONTINUOUS
 10
-28.0699699516
 20
8.721542468
 11
-33.5199699516
 21
8.721542468
  0
LINE
  5
5D5
100
AcDbEntity
  8
SMUSSO
100
AcDbLine
 62
7
  6
CONTINUOUS
 10
-26.5025148867
 20
9.9400802282
 11
-26.5164789386
 21
9.9400802282
  0
LINE
  5
5D6
100
AcDbEntity
  8
DRAFT
100
AcDbLine
 62
7
  6
CONTINUOUS
 10
-26.8199699516
 20
10.2435250181
 11
-26.8060058997
 21
10.2435250181
  0
LINE
  5
5D7
100
AcDbEntity
  8
0
100
AcDbLine
 62
7
  6
CONTINUOUS
 10
32.4347276864
 20
10.2588007682
 11
29.9253324104
 21
10.2588007682
  0
LINE
  5
5D8
100
AcDbEntity
  8
0
100
AcDbLine
 62
7
  6
CONTINUOUS
 10
-29.7652723136
 20
10.2588007682
 11
-32.2746675896
 21
10.2588007682
  0
LINE
  5
5D9
100
AcDbEntity
  8
0
100
AcDbLine
 62
7
  6
CONTINUOUS
 10
31.6797442428
 20
10.5588007682
 11
30.6803158539
 21
10.5588007682
  0
LINE
  5
5DA
100
AcDbEntity
  8
0
100
AcDbLine
 62
7
  6
CONTINUOUS
 10
-30.5202557572
 20
10.5588007682
 11
-31.5196841461
 21
10.5588007682
  0
LINE
  5
5DB
100
AcDbEntity
  8
DRAFT
100
AcDbLine
 62
7
  6
CONTINUOUS
 10
28.1800300484
 20
11.3401716181
 11
27.937838429
 21
11.3401716181
  0
LINE
  5
5DC
100
AcDbEntity
  8
DRAFT
100
AcDbLine
 62
7
  6
CONTINUOUS
 10
-28.0199699516
 20
11.3401716181
 11
-27.7777783322
 21
11.3401716181
  0
LINE
  5
5DD
100
AcDbEntity
  8
0
100
AcDbLine
 62
7
  6
CONTINUOUS
 10
-24.8699699516
 20
14.1539147904
 11
-25.3199699516
 21
14.2332619317
  0
LINE
  5
5DE
100
AcDbEntity
  8
DRAFT
100
AcDbLine
 62
7
  6
CONTINUOUS
 10
-24.8699699516
 20
14.7401716181
 11
-24.7571317179
 21
14.7202751931
  0
LINE
  5
5DF
100
AcDbEntity
  8
DRAFT
100
AcDbLine
 62
7
  6
CONTINUOUS
 10
-22.5397848939
 20
14.3292971224
 11
-22.4805158319
 21
14.3188463876
  0
LINE
  5
5E0
100
AcDbEntity
  8
RACCORDO
100
AcDbLine
 62
7
  6
CONTINUOUS
 10
-22.4805158319
 20
14.3188463876
 11
-22.4700571389
 21
14.3170022379
  0
LINE
  5
5E1
100
AcDbEntity
  8
DRAFT
100
AcDbLine
 62
7
  6
CONTINUOUS
 10
25.0300300484
 20
7.9401716181
 11
24.9171918146
 21
7.9600680432
  0
LINE
  5
5E2
100
AcDbEntity
  8
RACCORDO
100
AcDbLine
 62
7
  6
CONTINUOUS
 10
22.6306532712
 20
8.3632464808
 11
22.6301172357
 21
8.3633409983
  0
LINE
  5
5E3
100
AcDbEntity
  8
DRAFT
100
AcDbLine
 62
7
  6
CONTINUOUS
 10
22.6998449907
 20
8.3510461138
 11
22.6405759287
 21
8.3614968486
  0
LINE
  5
5E4
100
AcDbEntity
  8
DRAFT
100
AcDbLine
 62
7
  6
CONTINUOUS
 10
26.6765390354
 20
-9.7632737104
 11
26.980029786
 21
-10.064180596
  0
LINE
  5
5E5
100
AcDbEntity
  8
SMUSSO
100
AcDbLine
 62
7
  6
CONTINUOUS
 10
26.6625749835
 20
-12.5424190015
 11
26.6765390354
 21
-12.5563830534
  0
LINE
  5
5E6
100
AcDbEntity
  8
SMUSSO
100
AcDbLine
 62
7
  6
CONTINUOUS
 10
-12.5525605712
 20
26.6727165532
 11
-12.5665246231
 21
26.6866806051
  0
LINE
  5
5E7
100
AcDbEntity
  8
DRAFT
100
AcDbLine
 62
7
  6
CONTINUOUS
 10
-10.8013890685
 20
25.1604980077
 11
-10.8310626789
 21
25.1901716181
  0
LINE
  5
5E8
100
AcDbEntity
  8
DRAFT
100
AcDbLine
 62
7
  6
CONTINUOUS
 10
-12.2630341377
 20
26.9901721456
 11
-12.2490695582
 21
26.9762075662
  0
LINE
  5
5E9
100
AcDbEntity
  8
DRAFT
100
AcDbLine
 62
7
  6
CONTINUOUS
 10
26.9800305759
 20
-12.2528925679
 11
26.9660659964
 21
-12.2389279885
  0
LINE
  5
5EA
100
AcDbEntity
  8
DRAFT
100
AcDbLine
 62
7
  6
CONTINUOUS
 10
27.937838429
 20
-11.1598283819
 11
27.8811558666
 21
-11.1031458195
  0
LINE
  5
5EB
100
AcDbEntity
  8
DRAFT
100
AcDbLine
 62
7
  6
CONTINUOUS
 10
-11.1132873892
 20
27.8912974363
 11
-11.1699699516
 21
27.9479799987
  0
LINE
  5
5EC
100
AcDbEntity
  8
SMUSSO
100
AcDbLine
 62
7
  6
CONTINUOUS
 10
26.9660659964
 20
-10.0807287753
 11
26.6625749835
 21
-9.7772377623
  0
LINE
  5
5ED
100
AcDbEntity
  8
SMUSSO
100
AcDbLine
 62
7
  6
CONTINUOUS
 10
-9.787379332
 20
26.6727165532
 11
-10.090870345
 21
26.9762075662
  0
LINE
  5
5EE
100
AcDbEntity
  8
DRAFT
100
AcDbLine
 62
7
  6
CONTINUOUS
 10
-10.0751831043
 20
26.9884494784
 11
-9.7734152801
 21
26.6866806051
  0
LINE
  5
5EF
100
AcDbEntity
  8
DRAFT
100
AcDbLine
 62
7
  6
CONTINUOUS
 10
28.1800300484
 20
-11.1598283819
 11
27.9300300484
 21
-10.9098283819
  0
LINE
  5
5F0
100
AcDbEntity
  8
DRAFT
100
AcDbLine
 62
7
  6
CONTINUOUS
 10
-10.9199699516
 20
27.9401716181
 11
-11.1699699516
 21
28.1901716181
  0
LINE
  5
5F1
100
AcDbEntity
  8
RACCORDO
100
AcDbLine
 62
7
  6
CONTINUOUS
 10
-6.478589403
 20
24.7981659039
 11
-6.6210957698
 21
24.9552614883
  0
LINE
  5
5F2
100
AcDbEntity
  8
SMUSSO
100
AcDbLine
 62
7
  6
CONTINUOUS
 10
24.6074683346
 20
-18.1103595282
 11
24.5805775107
 21
-18.0700181712
  0
LINE
  5
5F3
100
AcDbEntity
  8
SMUSSO
100
AcDbLine
 62
7
  6
CONTINUOUS
 10
24.9092184685
 20
-17.8086668473
 11
24.8831852777
 21
-17.7696121034
  0
LINE
  5
5F4
100
AcDbEntity
  8
DRAFT
100
AcDbLine
 62
7
  6
CONTINUOUS
 10
12.6019883861
 20
24.0182132804
 11
12.6019883861
 21
22.7448940316
  0
LINE
  5
5F5
100
AcDbEntity
  8
DRAFT
100
AcDbLine
 62
7
  6
CONTINUOUS
 10
12.6019883861
 20
-22.5645507954
 11
12.6019883861
 21
-23.8378700442
  0
LINE
  5
5F6
100
AcDbEntity
  8
DRAFT
100
AcDbLine
 62
7
  6
CONTINUOUS
 10
12.7800300484
 20
23.8401716181
 11
12.7800300484
 21
22.6558799801
  0
LINE
  5
5F7
100
AcDbEntity
  8
DRAFT
100
AcDbLine
 62
7
  6
CONTINUOUS
 10
12.7800300484
 20
-23.6598283819
 11
12.7800300484
 21
-22.4755367439
  0
LINE
  5
5F8
100
AcDbEntity
  8
DRAFT
100
AcDbLine
 62
7
  6
CONTINUOUS
 10
14.800356438
 20
25.4901716181
 11
14.800356438
 21
25.1901716181
  0
LINE
  5
5F9
100
AcDbEntity
  8
DRAFT
100
AcDbLine
 62
7
  6
CONTINUOUS
 10
14.800356438
 20
-25.3098283819
 11
14.800356438
 21
-25.0098283819
  0
LINE
  5
5FA
100
AcDbEntity
  8
DRAFT
100
AcDbLine
 62
7
  6
CONTINUOUS
 10
15.5068917979
 20
26.6235484363
 11
15.5068917979
 21
26.2912974363
  0
LINE
  5
5FB
100
AcDbEntity
  8
DRAFT
100
AcDbLine
 62
7
  6
CONTINUOUS
 10
15.5068917979
 20
-26.1109542001
 11
15.5068917979
 21
-26.4432052
  0
LINE
  5
5FC
100
AcDbEntity
  8
DRAFT
100
AcDbLine
 62
7
  6
CONTINUOUS
 10
15.5557659797
 20
26.6401716181
 11
15.5557659797
 21
26.3401716181
  0
LINE
  5
5FD
100
AcDbEntity
  8
DRAFT
100
AcDbLine
 62
7
  6
CONTINUOUS
 10
15.5557659797
 20
-26.1598283819
 11
15.5557659797
 21
-26.4598283819
  0
LINE
  5
5FE
100
AcDbEntity
  8
DRAFT
100
AcDbLine
 62
7
  6
CONTINUOUS
 10
15.5800300484
 20
23.8401716181
 11
15.5800300484
 21
22.6558799801
  0
LINE
  5
5FF
100
AcDbEntity
  8
DRAFT
100
AcDbLine
 62
7
  6
CONTINUOUS
 10
15.5800300484
 20
-23.6598283819
 11
15.5800300484
 21
-22.4755367439
  0
LINE
  5
600
100
AcDbEntity
  8
0
100
AcDbLine
 62
7
  6
CONTINUOUS
 10
15.7333670937
 20
-33.5098283819
 11
15.7333670937
 21
-26.489624279
  0
LINE
  5
601
100
AcDbEntity
  8
DRAFT
100
AcDbLine
 62
7
  6
CONTINUOUS
 10
15.7580717107
 20
-23.8378700442
 11
15.7580717107
 21
-22.5645507954
  0
LINE
  5
602
100
AcDbEntity
  8
DRAFT
100
AcDbLine
 62
7
  6
CONTINUOUS
 10
15.7580717107
 20
22.7448940316
 11
15.7580717107
 21
24.0182132804
  0
LINE
  5
603
100
AcDbEntity
  8
DRAFT
100
AcDbLine
 62
7
  6
CONTINUOUS
 10
15.8125749835
 20
-25.0641206262
 11
15.8125749835
 21
-24.9801547715
  0
LINE
  5
604
100
AcDbEntity
  8
DRAFT
100
AcDbLine
 62
7
  6
CONTINUOUS
 10
15.8125749835
 20
25.1604980077
 11
15.8125749835
 21
25.2444638624
  0
LINE
  5
605
100
AcDbEntity
  8
DRAFT
100
AcDbLine
 62
7
  6
CONTINUOUS
 10
15.8439941003
 20
25.1290788909
 11
15.8439941003
 21
24.9901716181
  0
LINE
  5
606
100
AcDbEntity
  8
DRAFT
100
AcDbLine
 62
7
  6
CONTINUOUS
 10
15.8439941003
 20
-24.8098283819
 11
15.8439941003
 21
-24.9487356546
  0
LINE
  5
607
100
AcDbEntity
  8
DRAFT
100
AcDbLine
 62
7
  6
CONTINUOUS
 10
15.8789042302
 20
25.271938336
 11
15.8789042302
 21
24.9552614883
  0
LINE
  5
608
100
AcDbEntity
  8
DRAFT
100
AcDbLine
 62
7
  6
CONTINUOUS
 10
15.8789042302
 20
-24.774918252
 11
15.8789042302
 21
-25.0915950998
  0
LINE
  5
609
100
AcDbEntity
  8
DRAFT
100
AcDbLine
 62
7
  6
CONTINUOUS
 10
6.0956293184
 20
-25.6598283819
 11
6.0891222063
 21
-25.6755379403
  0
LINE
  5
60A
100
AcDbEntity
  8
DRAFT
100
AcDbLine
 62
7
  6
CONTINUOUS
 10
-6.6560058997
 20
-24.9487356546
 11
-6.6874250165
 21
-24.9801547715
  0
LINE
  5
60B
100
AcDbEntity
  8
DRAFT
100
AcDbLine
 62
7
  6
CONTINUOUS
 10
-6.6874250165
 20
-25.0641206262
 11
-8.1156777073
 21
-26.492373317
  0
LINE
  5
60C
100
AcDbEntity
  8
DRAFT
100
AcDbLine
 62
7
  6
CONTINUOUS
 10
-8.1098936076
 20
-26.5063373689
 11
-8.7598936076
 21
-27.1563373689
  0
LINE
  5
60D
100
AcDbEntity
  8
DRAFT
100
AcDbLine
 62
7
  6
CONTINUOUS
 10
-6.6199699516
 20
-25.0904692816
 11
-8.7382032337
 21
-27.2087025637
  0
LINE
  5
60E
100
AcDbEntity
  8
DRAFT
100
AcDbLine
 62
7
  6
CONTINUOUS
 10
26.6625749835
 20
8.0474017427
 11
25.4553448588
 21
6.8401716181
  0
LINE
  5
60F
100
AcDbEntity
  8
DRAFT
100
AcDbLine
 62
7
  6
CONTINUOUS
 10
27.3265390354
 20
8.691617643
 11
26.6765390354
 21
8.041617643
  0
LINE
  5
610
100
AcDbEntity
  8
DRAFT
100
AcDbLine
 62
7
  6
CONTINUOUS
 10
27.3789042302
 20
8.6699272692
 11
25.5491485791
 21
6.8401716181
  0
LINE
  5
611
100
AcDbEntity
  8
0
100
AcDbLine
 62
7
  6
CONTINUOUS
 10
0.9480910484
 20
-17.9098283819
 11
0.5800300484
 21
-18.2778893819
  0
LINE
  5
612
100
AcDbEntity
  8
0
100
AcDbLine
 62
7
  6
CONTINUOUS
 10
28.2300300484
 20
8.5558570431
 11
28.181501911
 21
8.5073289056
  0
LINE
  5
613
100
AcDbEntity
  8
0
100
AcDbLine
 62
7
  6
CONTINUOUS
 10
-8.3856553766
 20
-28.0598283819
 11
-8.3371272391
 21
-28.0113002445
  0
LINE
  5
614
100
AcDbEntity
  8
RACCORDO
100
AcDbLine
 62
7
  6
CONTINUOUS
 10
-7.6716297595
 20
-27.4181055903
 11
-5.9290621095
 21
-25.6755379403
  0
LINE
  5
615
100
AcDbEntity
  8
RACCORDO
100
AcDbLine
 62
7
  6
CONTINUOUS
 10
25.0044671393
 20
5.2579913085
 11
27.5883072568
 21
7.841831426
  0
LINE
  5
616
100
AcDbEntity
  8
RACCORDO
100
AcDbLine
 62
7
  6
CONTINUOUS
 10
27.6371814386
 20
7.8215870771
 11
25.0533413211
 21
5.2377469595
  0
LINE
  5
617
100
AcDbEntity
  8
RACCORDO
100
AcDbLine
 62
7
  6
CONTINUOUS
 10
-6.9199699516
 20
-26.7355643132
 11
-7.6513854106
 21
-27.4669797721
  0
LINE
  5
618
100
AcDbEntity
  8
DRAFT
100
AcDbLine
 62
7
  6
CONTINUOUS
 10
-5.8195488308
 20
-25.6598283819
 11
-6.9199699516
 21
-26.7602495027
  0
LINE
  5
619
100
AcDbEntity
  8
0
100
AcDbLine
 62
7
  6
CONTINUOUS
 10
27.3329737735
 20
7.0931153433
 11
26.9300300484
 21
6.6901716181
  0
LINE
  5
61A
100
AcDbEntity
  8
RACCORDO
100
AcDbLine
 62
7
  6
CONTINUOUS
 10
-6.5785485954
 20
-26.8184070256
 11
-6.9229136768
 21
-27.162772107
  0
LINE
  5
61B
100
AcDbEntity
  8
DRAFT
100
AcDbLine
 62
7
  6
CONTINUOUS
 10
26.9300300484
 20
5.4617444934
 11
25.9800300484
 21
4.5117444934
  0
LINE
  5
61C
100
AcDbEntity
  8
DRAFT
100
AcDbLine
 62
7
  6
CONTINUOUS
 10
26.9300300484
 20
5.4370593038
 11
25.9974851133
 21
4.5045143687
  0
LINE
  5
61D
100
AcDbEntity
  8
DRAFT
100
AcDbLine
 62
7
  6
CONTINUOUS
 10
-6.6560058997
 20
-24.8098283819
 11
-6.6205328607
 21
-24.774918252
  0
LINE
  5
61E
100
AcDbEntity
  8
DRAFT
100
AcDbLine
 62
7
  6
CONTINUOUS
 10
-15.4199699516
 20
-22.4755367439
 11
-15.5980116139
 21
-22.5645507954
  0
LINE
  5
61F
100
AcDbEntity
  8
DRAFT
100
AcDbLine
 62
7
  6
CONTINUOUS
 10
25.0044671393
 20
-5.0776480722
 11
25.0533413211
 21
-5.0574037233
  0
LINE
  5
620
100
AcDbEntity
  8
0
100
AcDbLine
 62
7
  6
CONTINUOUS
 10
-24.8699699516
 20
8.5264284458
 11
-25.3199699516
 21
8.4470813045
  0
LINE
  5
621
100
AcDbEntity
  8
DRAFT
100
AcDbLine
 62
7
  6
CONTINUOUS
 10
-22.4982590125
 20
10.8351834934
 11
-22.5397848939
 21
10.8278613601
  0
LINE
  5
622
100
AcDbEntity
  8
DRAFT
100
AcDbLine
 62
7
  6
CONTINUOUS
 10
-26.4533467698
 20
15.5170333676
 11
-26.1210957698
 21
15.5170333676
  0
LINE
  5
623
100
AcDbEntity
  8
DRAFT
100
AcDbLine
 62
7
  6
CONTINUOUS
 10
26.2811558666
 20
15.5170333676
 11
26.6134068665
 21
15.5170333676
  0
LINE
  5
624
100
AcDbEntity
  8
DRAFT
100
AcDbLine
 62
7
  6
CONTINUOUS
 10
-26.4699699516
 20
15.5659075494
 11
-26.1699699516
 21
15.5659075494
  0
LINE
  5
625
100
AcDbEntity
  8
DRAFT
100
AcDbLine
 62
7
  6
CONTINUOUS
 10
26.3300300484
 20
15.5659075494
 11
26.6300300484
 21
15.5659075494
  0
LINE
  5
626
100
AcDbEntity
  8
ASSI
100
AcDbLine
 62
7
  6
CONTINUOUS
 10
-22.5397848939
 20
15.7401716181
 11
-22.5179677376
 21
15.7401716181
  0
LINE
  5
627
100
AcDbEntity
  8
ASSI
100
AcDbLine
 62
7
  6
CONTINUOUS
 10
22.6780278344
 20
15.7401716181
 11
22.6998449907
 21
15.7401716181
  0
LINE
  5
628
100
AcDbEntity
  8
ASSI
100
AcDbLine
 62
7
  6
CONTINUOUS
 10
-22.5160201071
 20
15.8401716181
 11
-22.4917871333
 21
15.8401716181
  0
LINE
  5
629
100
AcDbEntity
  8
ASSI
100
AcDbLine
 62
7
  6
CONTINUOUS
 10
22.6518472301
 20
15.8401716181
 11
22.6760802038
 21
15.8401716181
  0
LINE
  5
62A
100
AcDbEntity
  8
DRAFT
100
AcDbLine
 62
7
  6
CONTINUOUS
 10
-24.8199699516
 20
15.8401716181
 11
-25.3890884824
 21
15.8401716181
  0
LINE
  5
62B
100
AcDbEntity
  8
DRAFT
100
AcDbLine
 62
7
  6
CONTINUOUS
 10
24.9800300484
 20
15.8401716181
 11
25.5491485791
 21
15.8401716181
  0
LINE
  5
62C
100
AcDbEntity
  8
0
100
AcDbLine
 62
7
  6
CONTINUOUS
 10
-26.0007500633
 20
16.6847276257
 11
-24.9199699516
 21
16.5901716181
  0
LINE
  5
62D
100
AcDbEntity
  8
0
100
AcDbLine
 62
7
  6
CONTINUOUS
 10
25.0300300484
 20
8.5264284458
 11
25.4800300484
 21
8.4470813045
  0
LINE
  5
62E
100
AcDbEntity
  8
DRAFT
100
AcDbLine
 62
7
  6
CONTINUOUS
 10
22.6583191093
 20
10.8351834934
 11
22.6998449907
 21
10.8278613601
  0
LINE
  5
62F
100
AcDbEntity
  8
DRAFT
100
AcDbLine
 62
7
  6
CONTINUOUS
 10
25.0044671393
 20
5.2579913085
 11
25.0533413211
 21
5.2377469595
  0
LINE
  5
630
100
AcDbEntity
  8
DRAFT
100
AcDbLine
 62
7
  6
CONTINUOUS
 10
-15.4199699516
 20
22.6558799801
 11
-15.5980116139
 21
22.7448940316
  0
LINE
  5
631
100
AcDbEntity
  8
DRAFT
100
AcDbLine
 62
7
  6
CONTINUOUS
 10
-6.6560058997
 20
24.9901716181
 11
-6.6210957698
 21
24.9552614883
  0
LINE
  5
632
100
AcDbEntity
  8
DRAFT
100
AcDbLine
 62
7
  6
CONTINUOUS
 10
-6.6560058997
 20
25.1290788909
 11
-6.6874250165
 21
25.1604980077
  0
LINE
  5
633
100
AcDbEntity
  8
DRAFT
100
AcDbLine
 62
7
  6
CONTINUOUS
 10
-8.1156777073
 20
26.6727165532
 11
-6.6874250165
 21
25.2444638624
  0
LINE
  5
634
100
AcDbEntity
  8
DRAFT
100
AcDbLine
 62
7
  6
CONTINUOUS
 10
-8.7598936076
 20
27.3366806051
 11
-8.1098936076
 21
26.6866806051
  0
LINE
  5
635
100
AcDbEntity
  8
DRAFT
100
AcDbLine
 62
7
  6
CONTINUOUS
 10
-8.7382032337
 20
27.3890457999
 11
-6.6356771174
 21
25.2865230673
  0
LINE
  5
636
100
AcDbEntity
  8
DRAFT
100
AcDbLine
 62
7
  6
CONTINUOUS
 10
25.4553448588
 20
-6.6598283819
 11
26.6625749835
 21
-7.8670585065
  0
LINE
  5
637
100
AcDbEntity
  8
DRAFT
100
AcDbLine
 62
7
  6
CONTINUOUS
 10
26.6765390354
 20
-7.8612744068
 11
27.3265390354
 21
-8.5112744068
  0
LINE
  5
638
100
AcDbEntity
  8
DRAFT
100
AcDbLine
 62
7
  6
CONTINUOUS
 10
25.5491485791
 20
-6.6598283819
 11
27.3789042302
 21
-8.4895840329
  0
LINE
  5
639
100
AcDbEntity
  8
RACCORDO
100
AcDbLine
 62
7
  6
CONTINUOUS
 10
-6.63567951
 20
25.8558811765
 11
-6.4957343577
 21
25.7159360242
  0
LINE
  5
63A
100
AcDbEntity
  8
0
100
AcDbLine
 62
7
  6
CONTINUOUS
 10
28.2300300484
 20
-8.3755138068
 11
28.181501911
 21
-8.3269856694
  0
LINE
  5
63B
100
AcDbEntity
  8
0
100
AcDbLine
 62
7
  6
CONTINUOUS
 10
-8.3371272391
 20
28.1916434807
 11
-8.3856553766
 21
28.2401716181
  0
LINE
  5
63C
100
AcDbEntity
  8
RACCORDO
100
AcDbLine
 62
7
  6
CONTINUOUS
 10
27.5883072568
 20
-7.6614881898
 11
25.0044671393
 21
-5.0776480722
  0
LINE
  5
63D
100
AcDbEntity
  8
RACCORDO
100
AcDbLine
 62
7
  6
CONTINUOUS
 10
-5.9290621095
 20
25.8558811765
 11
-7.6716297595
 21
27.5984488266
  0
LINE
  5
63E
100
AcDbEntity
  8
RACCORDO
100
AcDbLine
 62
7
  6
CONTINUOUS
 10
-7.6513854106
 20
27.6473230084
 11
-6.9199699516
 21
26.9159075494
  0
LINE
  5
63F
100
AcDbEntity
  8
RACCORDO
100
AcDbLine
 62
7
  6
CONTINUOUS
 10
25.0533413211
 20
-5.0574037233
 11
27.6371814386
 21
-7.6412438408
  0
LINE
  5
640
100
AcDbEntity
  8
DRAFT
100
AcDbLine
 62
7
  6
CONTINUOUS
 10
-6.9199699516
 20
26.940592739
 11
-5.8195488308
 21
25.8401716181
  0
LINE
  5
641
100
AcDbEntity
  8
RACCORDO
100
AcDbLine
 62
7
  6
CONTINUOUS
 10
-6.9229136768
 20
27.3431153433
 11
-6.5785485954
 21
26.9987502619
  0
LINE
  5
642
100
AcDbEntity
  8
0
100
AcDbLine
 62
7
  6
CONTINUOUS
 10
26.9300300484
 20
-6.5098283819
 11
27.3329737735
 21
-6.912772107
  0
LINE
  5
643
100
AcDbEntity
  8
0
100
AcDbLine
 62
7
  6
CONTINUOUS
 10
-0.7880309516
 20
21.5901716181
 11
-0.4199699516
 21
21.2221106181
  0
LINE
  5
644
100
AcDbEntity
  8
DRAFT
100
AcDbLine
 62
7
  6
CONTINUOUS
 10
25.9800300484
 20
-4.3314012571
 11
26.9300300484
 21
-5.2814012571
  0
LINE
  5
645
100
AcDbEntity
  8
DRAFT
100
AcDbLine
 62
7
  6
CONTINUOUS
 10
25.9974851133
 20
-4.3241711325
 11
26.9300300484
 21
-5.2567160676
  0
LINE
  5
646
100
AcDbEntity
  8
DRAFT
100
AcDbLine
 62
7
  6
CONTINUOUS
 10
6.0891222063
 20
25.8558811765
 11
6.0956293184
 21
25.8401716181
  0
LINE
  5
647
100
AcDbEntity
  8
SMUSSO
100
AcDbLine
 62
7
  6
CONTINUOUS
 10
22.7038083786
 20
-21.5109899165
 11
22.7168239826
 21
-21.5500446604
  0
LINE
  5
648
100
AcDbEntity
  8
SMUSSO
100
AcDbLine
 62
7
  6
CONTINUOUS
 10
23.005592986
 20
-21.2092972356
 11
23.019037374
 21
-21.2496385926
  0
LINE
  5
649
100
AcDbEntity
  8
SMUSSO
100
AcDbLine
 62
7
  6
CONTINUOUS
 10
17.1022155029
 20
25.5679861636
 11
17.096979781
 21
25.8732218855
  0
LINE
  5
64A
100
AcDbEntity
  8
SMUSSO
100
AcDbLine
 62
7
  6
CONTINUOUS
 10
17.9109438329
 20
25.8732218855
 11
17.9161795548
 21
25.5679861636
  0
LINE
  5
64B
100
AcDbEntity
  8
DRAFT
100
AcDbLine
 62
7
  6
CONTINUOUS
 10
16.9660659964
 20
26.0041356701
 11
16.9660659964
 21
25.5298716013
  0
LINE
  5
64C
100
AcDbEntity
  8
SMUSSO
100
AcDbLine
 62
7
  6
CONTINUOUS
 10
16.9800300484
 20
-25.8237924338
 11
16.9800300484
 21
-24.6876429274
  0
LINE
  5
64D
100
AcDbEntity
  8
DRAFT
100
AcDbLine
 62
7
  6
CONTINUOUS
 10
17.0149401782
 20
24.9552614883
 11
17.0149401782
 21
25.4118788888
  0
LINE
  5
64E
100
AcDbEntity
  8
SMUSSO
100
AcDbLine
 62
7
  6
CONTINUOUS
 10
17.1022155029
 20
25.5679861636
 11
17.1022155029
 21
24.8679861636
  0
LINE
  5
64F
100
AcDbEntity
  8
0
100
AcDbLine
 62
253
  6
CONTINUOUS
 10
17.2300300484
 20
-33.5098283819
 11
17.2300300484
 21
-26.2598283819
  0
LINE
  5
650
100
AcDbEntity
  8
DRAFT
100
AcDbLine
 62
7
  6
CONTINUOUS
 10
17.7800300484
 20
-26.2598283819
 11
17.7800300484
 21
-25.8237924338
  0
LINE
  5
651
100
AcDbEntity
  8
DRAFT
100
AcDbLine
 62
7
  6
CONTINUOUS
 10
17.7800300484
 20
26.0041356701
 11
17.7800300484
 21
26.5201716181
  0
LINE
  5
652
100
AcDbEntity
  8
SMUSSO
100
AcDbLine
 62
7
  6
CONTINUOUS
 10
17.9161795548
 20
25.5679861636
 11
17.9161795548
 21
25.5901716181
  0
LINE
  5
653
100
AcDbEntity
  8
RACCORDO
100
AcDbLine
 62
7
  6
CONTINUOUS
 10
18.0300300484
 20
25.7873369012
 11
18.0300300484
 21
25.5901716181
  0
LINE
  5
654
100
AcDbEntity
  8
RACCORDO
100
AcDbLine
 62
7
  6
CONTINUOUS
 10
18.0300300484
 20
-25.6231031361
 11
18.0300300484
 21
-25.4098283819
  0
LINE
  5
655
100
AcDbEntity
  8
RACCORDO
100
AcDbLine
 62
7
  6
CONTINUOUS
 10
18.0300300484
 20
-26.1417227161
 11
18.0300300484
 21
-25.6231031361
  0
LINE
  5
656
100
AcDbEntity
  8
0
100
AcDbLine
 62
7
  6
CONTINUOUS
 10
18.0300300484
 20
-26.1417227161
 11
18.0300300484
 21
-26.3402741845
  0
LINE
  5
657
100
AcDbEntity
  8
RACCORDO
100
AcDbLine
 62
7
  6
CONTINUOUS
 10
18.0300300484
 20
25.7873369012
 11
18.0300300484
 21
26.4020659523
  0
LINE
  5
658
100
AcDbEntity
  8
0
100
AcDbLine
 62
7
  6
CONTINUOUS
 10
18.0300300484
 20
26.4020659523
 11
18.0300300484
 21
26.6006174207
  0
LINE
  5
659
100
AcDbEntity
  8
DRAFT
100
AcDbLine
 62
7
  6
CONTINUOUS
 10
18.0800300484
 20
25.5901716181
 11
18.0800300484
 21
24.7981659039
  0
LINE
  5
65A
100
AcDbEntity
  8
DRAFT
100
AcDbLine
 62
7
  6
CONTINUOUS
 10
18.0800300484
 20
-24.8098283819
 11
18.0800300484
 21
-24.6178226677
  0
LINE
  5
65B
100
AcDbEntity
  8
SMUSSO
100
AcDbLine
 62
7
  6
CONTINUOUS
 10
18.0800300484
 20
-24.8098283819
 11
18.0800300484
 21
-25.4098283819
  0
LINE
  5
65C
100
AcDbEntity
  8
RACCORDO
100
AcDbLine
 62
253
  6
CONTINUOUS
 10
18.5300300484
 20
25.7272684818
 11
18.5300300484
 21
25.5901716181
  0
LINE
  5
65D
100
AcDbEntity
  8
RACCORDO
100
AcDbLine
 62
253
  6
CONTINUOUS
 10
18.5300300484
 20
-25.5630347166
 11
18.5300300484
 21
-25.4098283819
  0
LINE
  5
65E
100
AcDbEntity
  8
SMUSSO
100
AcDbLine
 62
7
  6
CONTINUOUS
 10
17.9109438329
 20
-25.6928786493
 11
17.9157990067
 21
-25.4098283819
  0
LINE
  5
65F
100
AcDbEntity
  8
RACCORDO
100
AcDbLine
 62
253
  6
CONTINUOUS
 10
7.8316898563
 20
-27.4181055903
 11
7.8114455073
 21
-27.4669797721
  0
LINE
  5
660
100
AcDbEntity
  8
DRAFT
100
AcDbLine
 62
7
  6
CONTINUOUS
 10
8.2757378041
 20
-26.492373317
 11
8.2699537044
 21
-26.5063373689
  0
LINE
  5
661
100
AcDbEntity
  8
RACCORDO
100
AcDbLine
 62
253
  6
CONTINUOUS
 10
8.5386889417
 20
-27.7109542001
 11
8.5184445927
 21
-27.7598283819
  0
LINE
  5
662
100
AcDbEntity
  8
DRAFT
100
AcDbLine
 62
7
  6
CONTINUOUS
 10
8.9199537044
 20
-27.1563373689
 11
8.8982633305
 21
-27.2087025637
  0
LINE
  5
663
100
AcDbEntity
  8
0
100
AcDbLine
 62
7
  6
CONTINUOUS
 10
27.5498278317
 20
7.4528935268
 11
28.181501911
 21
8.5073289056
  0
LINE
  5
664
100
AcDbEntity
  8
0
100
AcDbLine
 62
7
  6
CONTINUOUS
 10
27.3329737735
 20
7.0931153433
 11
27.5498278317
 21
7.4528935268
  0
LINE
  5
665
100
AcDbEntity
  8
DRAFT
100
AcDbLine
 62
7
  6
CONTINUOUS
 10
24.9245737838
 20
1.5347153535
 11
24.9800300484
 21
1.5901716181
  0
LINE
  5
666
100
AcDbEntity
  8
0
100
AcDbLine
 62
7
  6
CONTINUOUS
 10
-8.3371272391
 20
-28.0113002445
 11
-8.2137807579
 21
-27.936478262
  0
LINE
  5
667
100
AcDbEntity
  8
0
100
AcDbLine
 62
7
  6
CONTINUOUS
 10
-7.9364779149
 20
-27.7709106735
 11
-6.9229136768
 21
-27.162772107
  0
LINE
  5
668
100
AcDbEntity
  8
0
100
AcDbLine
 62
7
  6
CONTINUOUS
 10
-8.2137807579
 20
-27.936478262
 11
-7.9364779149
 21
-27.7709106735
  0
LINE
  5
669
100
AcDbEntity
  8
DRAFT
100
AcDbLine
 62
7
  6
CONTINUOUS
 10
-15.6525148867
 20
-25.0641206262
 11
-15.7188441334
 21
-25.0915950998
  0
LINE
  5
66A
100
AcDbEntity
  8
DRAFT
100
AcDbLine
 62
7
  6
CONTINUOUS
 10
26.6625749835
 20
-7.8670585065
 11
26.6765390354
 21
-7.8612744068
  0
LINE
  5
66B
100
AcDbEntity
  8
RACCORDO
100
AcDbLine
 62
253
  6
CONTINUOUS
 10
27.5883072568
 20
-7.6614881898
 11
27.6371814386
 21
-7.6412438408
  0
LINE
  5
66C
100
AcDbEntity
  8
DRAFT
100
AcDbLine
 62
7
  6
CONTINUOUS
 10
27.3265390354
 20
-8.5112744068
 11
27.3789042302
 21
-8.4895840329
  0
LINE
  5
66D
100
AcDbEntity
  8
RACCORDO
100
AcDbLine
 62
253
  6
CONTINUOUS
 10
27.8811558666
 20
-8.3684872752
 11
27.9300300484
 21
-8.3482429262
  0
LINE
  5
66E
100
AcDbEntity
  8
0
100
AcDbLine
 62
7
  6
CONTINUOUS
 10
-26.2396934358
 20
-25.1901048977
 11
-26.3059876479
 21
-25.2098283819
  0
LINE
  5
66F
100
AcDbEntity
  8
0
100
AcDbLine
 62
7
  6
CONTINUOUS
 10
-26.2088060273
 20
-25.2209923062
 11
-26.6285235761
 21
-25.3458643299
  0
LINE
  5
670
100
AcDbEntity
  8
0
100
AcDbLine
 62
7
  6
CONTINUOUS
 10
-25.2311338759
 20
-26.1986644576
 11
-24.8114163271
 21
-26.0737924338
  0
LINE
  5
671
100
AcDbEntity
  8
0
100
AcDbLine
 62
7
  6
CONTINUOUS
 10
-25.2002464674
 20
-26.2295518661
 11
-25.1339522553
 21
-26.2098283819
  0
LINE
  5
672
100
AcDbEntity
  8
0
100
AcDbLine
 62
7
  6
CONTINUOUS
 10
-22.4734561024
 20
13.0741739974
 11
-22.4805158319
 21
13.0722823486
  0
LINE
  5
673
100
AcDbEntity
  8
DRAFT
100
AcDbLine
 62
7
  6
CONTINUOUS
 10
-22.5397848939
 20
13.3626190339
 11
-22.4982323734
 21
13.3737529982
  0
LINE
  5
674
100
AcDbEntity
  8
DRAFT
100
AcDbLine
 62
7
  6
CONTINUOUS
 10
-22.5397848939
 20
16.0396619614
 11
-22.5205857649
 21
16.0413416675
  0
LINE
  5
675
100
AcDbEntity
  8
DRAFT
100
AcDbLine
 62
7
  6
CONTINUOUS
 10
-22.4893070003
 20
16.0440782049
 11
-22.4699699516
 21
16.0457699774
  0
LINE
  5
676
100
AcDbEntity
  8
DRAFT
100
AcDbLine
 62
7
  6
CONTINUOUS
 10
-22.5153497027
 20
16.0417997636
 11
-22.4942659585
 21
16.0436443522
  0
LINE
  5
677
100
AcDbEntity
  8
DRAFT
100
AcDbLine
 62
7
  6
CONTINUOUS
 10
-24.8094969127
 20
15.8410878903
 11
-24.8199699516
 21
15.8401716181
  0
LINE
  5
678
100
AcDbEntity
  8
SMUSSO
100
AcDbLine
 62
7
  6
CONTINUOUS
 10
-22.8755991656
 20
17.5224209389
 11
-24.3872711051
 21
17.5224209389
  0
LINE
  5
679
100
AcDbEntity
  8
0
100
AcDbLine
 62
7
  6
CONTINUOUS
 10
-22.4199699516
 20
18.0901716181
 11
-0.7880309516
 21
18.0901716181
  0
LINE
  5
67A
100
AcDbEntity
  8
SMUSSO
100
AcDbLine
 62
7
  6
CONTINUOUS
 10
-24.4205174139
 20
18.2503614074
 11
-23.8097801623
 21
18.2503614074
  0
LINE
  5
67B
100
AcDbEntity
  8
SMUSSO
100
AcDbLine
 62
7
  6
CONTINUOUS
 10
-23.4301597409
 20
18.2503614074
 11
-22.8589772772
 21
18.2503614074
  0
LINE
  5
67C
100
AcDbEntity
  8
SUPERFICI
100
AcDbLine
 62
7
  6
CONTINUOUS
 10
-23.4301597409
 20
18.2503614074
 11
-23.8097801623
 21
18.2503614074
  0
LINE
  5
67D
100
AcDbEntity
  8
SMUSSO
100
AcDbLine
 62
253
  6
CONTINUOUS
 10
-24.4474082378
 20
18.2907027644
 11
-23.7694388053
 21
18.2907027644
  0
LINE
  5
67E
100
AcDbEntity
  8
SMUSSO
100
AcDbLine
 62
253
  6
CONTINUOUS
 10
-23.4705010979
 20
18.2907027644
 11
-22.8455328892
 21
18.2907027644
  0
LINE
  5
67F
100
AcDbEntity
  8
0
100
AcDbLine
 62
7
  6
CONTINUOUS
 10
-24.6199699516
 20
18.3401716181
 11
-23.7199699516
 21
18.3401716181
  0
LINE
  5
680
100
AcDbEntity
  8
0
100
AcDbLine
 62
7
  6
CONTINUOUS
 10
-23.5199699516
 20
18.3401716181
 11
-22.4199699516
 21
18.3401716181
  0
LINE
  5
681
100
AcDbEntity
  8
0
100
AcDbLine
 62
7
  6
CONTINUOUS
 10
-0.4199699516
 20
18.5901716181
 11
0.8800300484
 21
18.5901716181
  0
LINE
  5
682
100
AcDbEntity
  8
0
100
AcDbLine
 62
7
  6
CONTINUOUS
 10
-25.7199699516
 20
19.2401716181
 11
-26.8731972552
 21
19.2401716181
  0
LINE
  5
683
100
AcDbEntity
  8
DRAFT
100
AcDbLine
 62
7
  6
CONTINUOUS
 10
22.6998449907
 20
16.0396619614
 11
22.6806458617
 21
16.0413416675
  0
LINE
  5
684
100
AcDbEntity
  8
DRAFT
100
AcDbLine
 62
7
  6
CONTINUOUS
 10
22.6493670971
 20
16.0440782049
 11
22.6300300484
 21
16.0457699774
  0
LINE
  5
685
100
AcDbEntity
  8
DRAFT
100
AcDbLine
 62
7
  6
CONTINUOUS
 10
22.6754097995
 20
16.0417997636
 11
22.6543260552
 21
16.0436443522
  0
LINE
  5
686
100
AcDbEntity
  8
DRAFT
100
AcDbLine
 62
7
  6
CONTINUOUS
 10
24.9695570094
 20
15.8410878903
 11
24.9800300484
 21
15.8401716181
  0
LINE
  5
687
100
AcDbEntity
  8
0
100
AcDbLine
 62
7
  6
CONTINUOUS
 10
22.6405759287
 20
13.0722823486
 11
22.6335161992
 21
13.0741739974
  0
LINE
  5
688
100
AcDbEntity
  8
DRAFT
100
AcDbLine
 62
7
  6
CONTINUOUS
 10
22.6998449907
 20
13.3626190339
 11
22.6582924702
 21
13.3737529982
  0
LINE
  5
689
100
AcDbEntity
  8
DRAFT
100
AcDbLine
 62
7
  6
CONTINUOUS
 10
-15.6525148867
 20
25.2444638624
 11
-15.7188441334
 21
25.271938336
  0
LINE
  5
68A
100
AcDbEntity
  8
DRAFT
100
AcDbLine
 62
7
  6
CONTINUOUS
 10
26.6625749835
 20
8.0474017427
 11
26.6765390354
 21
8.041617643
  0
LINE
  5
68B
100
AcDbEntity
  8
RACCORDO
100
AcDbLine
 62
253
  6
CONTINUOUS
 10
27.5883072568
 20
7.841831426
 11
27.6371814386
 21
7.8215870771
  0
LINE
  5
68C
100
AcDbEntity
  8
DRAFT
100
AcDbLine
 62
7
  6
CONTINUOUS
 10
27.3265390354
 20
8.691617643
 11
27.3789042302
 21
8.6699272692
  0
LINE
  5
68D
100
AcDbEntity
  8
RACCORDO
100
AcDbLine
 62
253
  6
CONTINUOUS
 10
27.8811558666
 20
8.5488305114
 11
27.9300300484
 21
8.5285861625
  0
LINE
  5
68E
100
AcDbEntity
  8
0
100
AcDbLine
 62
7
  6
CONTINUOUS
 10
-8.079999169
 20
28.0366919178
 11
-7.9364784368
 21
27.9512542228
  0
LINE
  5
68F
100
AcDbEntity
  8
0
100
AcDbLine
 62
7
  6
CONTINUOUS
 10
-7.9364784368
 20
27.9512542228
 11
-6.9229136768
 21
27.3431153433
  0
LINE
  5
690
100
AcDbEntity
  8
0
100
AcDbLine
 62
7
  6
CONTINUOUS
 10
-8.3371272391
 20
28.1916434807
 11
-8.079999169
 21
28.0366919178
  0
LINE
  5
691
100
AcDbEntity
  8
DRAFT
100
AcDbLine
 62
7
  6
CONTINUOUS
 10
24.9245737838
 20
-1.3543721173
 11
24.9800300484
 21
-1.4098283819
  0
LINE
  5
692
100
AcDbEntity
  8
0
100
AcDbLine
 62
7
  6
CONTINUOUS
 10
28.181501911
 20
-8.3269856694
 11
28.1066799285
 21
-8.2036391881
  0
LINE
  5
693
100
AcDbEntity
  8
0
100
AcDbLine
 62
7
  6
CONTINUOUS
 10
27.94111234
 20
-7.9263363452
 11
27.3329737735
 21
-6.912772107
  0
LINE
  5
694
100
AcDbEntity
  8
0
100
AcDbLine
 62
7
  6
CONTINUOUS
 10
28.1066799285
 20
-8.2036391881
 11
27.94111234
 21
-7.9263363452
  0
LINE
  5
695
100
AcDbEntity
  8
RACCORDO
100
AcDbLine
 62
253
  6
CONTINUOUS
 10
7.8316898563
 20
27.5984488266
 11
7.8114455073
 21
27.6473230084
  0
LINE
  5
696
100
AcDbEntity
  8
DRAFT
100
AcDbLine
 62
7
  6
CONTINUOUS
 10
8.2757378041
 20
26.6727165532
 11
8.2699537044
 21
26.6866806051
  0
LINE
  5
697
100
AcDbEntity
  8
RACCORDO
100
AcDbLine
 62
253
  6
CONTINUOUS
 10
8.5386889417
 20
27.8912974363
 11
8.5184445927
 21
27.9401716181
  0
LINE
  5
698
100
AcDbEntity
  8
DRAFT
100
AcDbLine
 62
7
  6
CONTINUOUS
 10
8.9199537044
 20
27.3366806051
 11
8.8982633305
 21
27.3890457999
  0
LINE
  5
699
100
AcDbEntity
  8
SMUSSO
100
AcDbLine
 62
7
  6
CONTINUOUS
 10
24.5822413317
 20
-18.0700181712
 11
24.5473312019
 21
-17.3420777026
  0
LINE
  5
69A
100
AcDbEntity
  8
RACCORDO
100
AcDbLine
 62
7
  6
CONTINUOUS
 10
22.7168239826
 20
-21.5500446604
 11
22.731479815
 21
-22.1612933793
  0
LINE
  5
69B
100
AcDbEntity
  8
SMUSSO
100
AcDbLine
 62
7
  6
CONTINUOUS
 10
23.0182055268
 20
-21.2496385926
 11
23.0356592624
 21
-21.9775790611
  0
LINE
  5
69C
100
AcDbEntity
  8
SMUSSO
100
AcDbLine
 62
7
  6
CONTINUOUS
 10
24.04426109
 20
-25.4098283819
 11
24.0491162639
 21
-25.6928786493
  0
LINE
  5
69D
100
AcDbEntity
  8
RACCORDO
100
AcDbLine
 62
253
  6
CONTINUOUS
 10
20.2800300484
 20
25.7272684818
 11
20.2800300484
 21
25.5901716181
  0
LINE
  5
69E
100
AcDbEntity
  8
RACCORDO
100
AcDbLine
 62
7
  6
CONTINUOUS
 10
20.7800300484
 20
26.4020659523
 11
20.7800300484
 21
25.7873369012
  0
LINE
  5
69F
100
AcDbEntity
  8
RACCORDO
100
AcDbLine
 62
7
  6
CONTINUOUS
 10
20.7800300484
 20
25.7873369012
 11
20.7800300484
 21
25.4687320539
  0
LINE
  5
6A0
100
AcDbEntity
  8
0
100
AcDbLine
 62
7
  6
CONTINUOUS
 10
20.7800300484
 20
26.4020659523
 11
20.7800300484
 21
26.6006174207
  0
LINE
  5
6A1
100
AcDbEntity
  8
RACCORDO
100
AcDbLine
 62
253
  6
CONTINUOUS
 10
22.4300300484
 20
-25.5630347166
 11
22.4300300484
 21
-25.4098283819
  0
LINE
  5
6A2
100
AcDbEntity
  8
0
100
AcDbLine
 62
7
  6
CONTINUOUS
 10
22.5800300484
 20
-21.4098283819
 11
22.5800300484
 21
-17.9098283819
  0
LINE
  5
6A3
100
AcDbEntity
  8
RACCORDO
100
AcDbLine
 62
7
  6
CONTINUOUS
 10
22.6300300484
 20
22.2401868489
 11
22.6300300484
 21
22.207626683
  0
LINE
  5
6A4
100
AcDbEntity
  8
DRAFT
100
AcDbLine
 62
7
  6
CONTINUOUS
 10
22.6300300484
 20
22.207626683
 11
22.6300300484
 21
16.0457699774
  0
LINE
  5
6A5
100
AcDbEntity
  8
DRAFT
100
AcDbLine
 62
7
  6
CONTINUOUS
 10
22.6300300484
 20
6.6345732588
 11
22.6300300484
 21
-6.4542300226
  0
LINE
  5
6A6
100
AcDbEntity
  8
DRAFT
100
AcDbLine
 62
7
  6
CONTINUOUS
 10
22.6300300484
 20
-15.8654267412
 11
22.6300300484
 21
-18.1598283819
  0
LINE
  5
6A7
100
AcDbEntity
  8
DRAFT
100
AcDbLine
 62
7
  6
CONTINUOUS
 10
22.6300300484
 20
-21.1598283819
 11
22.6300300484
 21
-22.0272834468
  0
LINE
  5
6A8
100
AcDbEntity
  8
RACCORDO
100
AcDbLine
 62
7
  6
CONTINUOUS
 10
22.6300300484
 20
-22.0272834468
 11
22.6300300484
 21
-22.0598436127
  0
LINE
  5
6A9
100
AcDbEntity
  8
RACCORDO
100
AcDbLine
 62
7
  6
CONTINUOUS
 10
22.6300620039
 20
-9.4278702146
 11
22.6300300484
 21
-8.1830131356
  0
LINE
  5
6AA
100
AcDbEntity
  8
RACCORDO
100
AcDbLine
 62
7
  6
CONTINUOUS
 10
22.6300620039
 20
13.0721297854
 11
22.6300619993
 21
14.3170199212
  0
LINE
  5
6AB
100
AcDbEntity
  8
DRAFT
100
AcDbLine
 62
7
  6
CONTINUOUS
 10
22.6405759287
 20
-14.1385031514
 11
22.6405759287
 21
-8.1811536124
  0
LINE
  5
6AC
100
AcDbEntity
  8
DRAFT
100
AcDbLine
 62
7
  6
CONTINUOUS
 10
22.6405759287
 20
8.3614968486
 11
22.6405759287
 21
14.3188463876
  0
LINE
  5
6AD
100
AcDbEntity
  8
DRAFT
100
AcDbLine
 62
7
  6
CONTINUOUS
 10
22.6998449907
 20
16.0396619614
 11
22.6998449907
 21
14.3292971224
  0
LINE
  5
6AE
100
AcDbEntity
  8
DRAFT
100
AcDbLine
 62
7
  6
CONTINUOUS
 10
22.6998449907
 20
13.3626190339
 11
22.6998449907
 21
11.8524818761
  0
LINE
  5
6AF
100
AcDbEntity
  8
DRAFT
100
AcDbLine
 62
7
  6
CONTINUOUS
 10
22.6998449907
 20
10.8278613601
 11
22.6998449907
 21
9.3177242023
  0
LINE
  5
6B0
100
AcDbEntity
  8
DRAFT
100
AcDbLine
 62
7
  6
CONTINUOUS
 10
22.6998449907
 20
8.3510461138
 11
22.6998449907
 21
6.6406812748
  0
LINE
  5
6B1
100
AcDbEntity
  8
DRAFT
100
AcDbLine
 62
7
  6
CONTINUOUS
 10
22.6998449907
 20
-6.4603380386
 11
22.6998449907
 21
-8.1707028776
  0
LINE
  5
6B2
100
AcDbEntity
  8
DRAFT
100
AcDbLine
 62
7
  6
CONTINUOUS
 10
22.6998449907
 20
-9.1373809661
 11
22.6998449907
 21
-10.6475181239
  0
LINE
  5
6B3
100
AcDbEntity
  8
DRAFT
100
AcDbLine
 62
7
  6
CONTINUOUS
 10
22.6998449907
 20
-11.6721386399
 11
22.6998449907
 21
-13.1822757977
  0
LINE
  5
6B4
100
AcDbEntity
  8
DRAFT
100
AcDbLine
 62
7
  6
CONTINUOUS
 10
22.6998449907
 20
-14.1489538862
 11
22.6998449907
 21
-15.8593187252
  0
LINE
  5
6B5
100
AcDbEntity
  8
SMUSSO
100
AcDbLine
 62
7
  6
CONTINUOUS
 10
22.7347524619
 20
-17.0218715669
 11
22.7347524619
 21
-3.9098283819
  0
LINE
  5
6B6
100
AcDbEntity
  8
RACCORDO
100
AcDbLine
 62
7
  6
CONTINUOUS
 10
22.7347524619
 20
4.0901716181
 11
22.7347524619
 21
22.3449092624
  0
LINE
  5
6B7
100
AcDbEntity
  8
RACCORDO
100
AcDbLine
 62
7
  6
CONTINUOUS
 10
22.9300300484
 20
-25.6231031361
 11
22.9300300484
 21
-25.4098283819
  0
LINE
  5
6B8
100
AcDbEntity
  8
RACCORDO
100
AcDbLine
 62
7
  6
CONTINUOUS
 10
22.9300300484
 20
-25.6231031361
 11
22.9300300484
 21
-26.1417227161
  0
LINE
  5
6B9
100
AcDbEntity
  8
0
100
AcDbLine
 62
7
  6
CONTINUOUS
 10
22.9300300484
 20
-26.1417227161
 11
22.9300300484
 21
-26.3402741845
  0
LINE
  5
6BA
100
AcDbEntity
  8
SMUSSO
100
AcDbLine
 62
7
  6
CONTINUOUS
 10
22.9800300484
 20
-24.8098283819
 11
22.9800300484
 21
-25.4098283819
  0
LINE
  5
6BB
100
AcDbEntity
  8
0
100
AcDbLine
 62
253
  6
CONTINUOUS
 10
23.7300300484
 20
-33.5098283819
 11
23.7300300484
 21
-26.2598283819
  0
LINE
  5
6BC
100
AcDbEntity
  8
RACCORDO
100
AcDbLine
 62
7
  6
CONTINUOUS
 10
22.6300619993
 20
8.3633233189
 11
22.6300620039
 21
9.6082133122
  0
LINE
  5
6BD
100
AcDbEntity
  8
RACCORDO
100
AcDbLine
 62
7
  6
CONTINUOUS
 10
22.6300619993
 20
-14.1366766811
 11
22.6300620039
 21
-12.8917866878
  0
LINE
  5
6BE
100
AcDbEntity
  8
SMUSSO
100
AcDbLine
 62
7
  6
CONTINUOUS
 10
22.7347524619
 20
-17.0218715669
 11
22.7168239826
 21
-17.7696121034
  0
LINE
  5
6BF
100
AcDbEntity
  8
SMUSSO
100
AcDbLine
 62
7
  6
CONTINUOUS
 10
23.0356592624
 20
-17.3420777026
 11
23.0182055268
 21
-18.0700181712
  0
LINE
  5
6C0
100
AcDbEntity
  8
DRAFT
100
AcDbLine
 62
7
  6
CONTINUOUS
 10
26.6300300484
 20
15.5659075494
 11
26.6134068665
 21
15.5170333676
  0
LINE
  5
6C1
100
AcDbEntity
  8
DRAFT
100
AcDbLine
 62
7
  6
CONTINUOUS
 10
-15.3957058829
 20
-26.4598283819
 11
-15.3468317011
 21
-26.4432052
  0
LINE
  5
6C2
100
AcDbEntity
  8
0
100
AcDbLine
 62
7
  6
CONTINUOUS
 10
-26.8731972552
 20
20.4401716181
 11
-25.7199699516
 21
20.4401716181
  0
LINE
  5
6C3
100
AcDbEntity
  8
0
100
AcDbLine
 62
7
  6
CONTINUOUS
 10
-0.4199699516
 20
21.0901716181
 11
0.8800300484
 21
21.0901716181
  0
LINE
  5
6C4
100
AcDbEntity
  8
0
100
AcDbLine
 62
7
  6
CONTINUOUS
 10
-24.6199699516
 20
21.3401716181
 11
-23.7199699516
 21
21.3401716181
  0
LINE
  5
6C5
100
AcDbEntity
  8
0
100
AcDbLine
 62
7
  6
CONTINUOUS
 10
-23.5199699516
 20
21.3401716181
 11
-22.4199699516
 21
21.3401716181
  0
LINE
  5
6C6
100
AcDbEntity
  8
SMUSSO
100
AcDbLine
 62
253
  6
CONTINUOUS
 10
-24.4474082378
 20
21.3896404718
 11
-23.7694388053
 21
21.3896404718
  0
LINE
  5
6C7
100
AcDbEntity
  8
SMUSSO
100
AcDbLine
 62
253
  6
CONTINUOUS
 10
-23.4705010979
 20
21.3896404718
 11
-22.8455328892
 21
21.3896404718
  0
LINE
  5
6C8
100
AcDbEntity
  8
SMUSSO
100
AcDbLine
 62
7
  6
CONTINUOUS
 10
-24.4205174139
 20
21.4299818288
 11
-23.8097801623
 21
21.4299818288
  0
LINE
  5
6C9
100
AcDbEntity
  8
SMUSSO
100
AcDbLine
 62
7
  6
CONTINUOUS
 10
-23.4301597409
 20
21.4299818288
 11
-22.8589772772
 21
21.4299818288
  0
LINE
  5
6CA
100
AcDbEntity
  8
SUPERFICI
100
AcDbLine
 62
7
  6
CONTINUOUS
 10
-23.4301597409
 20
21.4299818288
 11
-23.8097801623
 21
21.4299818288
  0
LINE
  5
6CB
100
AcDbEntity
  8
0
100
AcDbLine
 62
7
  6
CONTINUOUS
 10
-22.4199699516
 20
21.5901716181
 11
-0.7880309516
 21
21.5901716181
  0
LINE
  5
6CC
100
AcDbEntity
  8
SMUSSO
100
AcDbLine
 62
7
  6
CONTINUOUS
 10
-22.8755991656
 20
22.1579222974
 11
-24.3872711051
 21
22.1579222974
  0
LINE
  5
6CD
100
AcDbEntity
  8
0
100
AcDbLine
 62
7
  6
CONTINUOUS
 10
24.7439941003
 20
22.2041356701
 11
24.236501105
 21
22.2041356701
  0
LINE
  5
6CE
100
AcDbEntity
  8
RACCORDO
100
AcDbLine
 62
7
  6
CONTINUOUS
 10
-22.0699851824
 20
22.6401716181
 11
-18.7699699516
 21
22.6401716181
  0
LINE
  5
6CF
100
AcDbEntity
  8
DRAFT
100
AcDbLine
 62
7
  6
CONTINUOUS
 10
-18.7699699516
 20
22.6401716181
 11
-4.6255683109
 21
22.6401716181
  0
LINE
  5
6D0
100
AcDbEntity
  8
RACCORDO
100
AcDbLine
 62
7
  6
CONTINUOUS
 10
3.0568783476
 20
22.640203569
 11
1.8120861933
 21
22.6401716181
  0
LINE
  5
6D1
100
AcDbEntity
  8
RACCORDO
100
AcDbLine
 62
7
  6
CONTINUOUS
 10
-1.6520260965
 20
22.6401716181
 11
-2.8968182547
 21
22.640203569
  0
LINE
  5
6D2
100
AcDbEntity
  8
DRAFT
100
AcDbLine
 62
7
  6
CONTINUOUS
 10
4.7856284077
 20
22.6401716181
 11
18.9300300484
 21
22.6401716181
  0
LINE
  5
6D3
100
AcDbEntity
  8
RACCORDO
100
AcDbLine
 62
7
  6
CONTINUOUS
 10
18.9300300484
 20
22.6401716181
 11
22.2300452792
 21
22.6401716181
  0
LINE
  5
6D4
100
AcDbEntity
  8
DRAFT
100
AcDbLine
 62
7
  6
CONTINUOUS
 10
3.0587048179
 20
22.6507174984
 11
-2.8986447211
 21
22.6507174984
  0
LINE
  5
6D5
100
AcDbEntity
  8
DRAFT
100
AcDbLine
 62
7
  6
CONTINUOUS
 10
15.5800300484
 20
22.6558799801
 11
12.7800300484
 21
22.6558799801
  0
LINE
  5
6D6
100
AcDbEntity
  8
DRAFT
100
AcDbLine
 62
7
  6
CONTINUOUS
 10
-12.6199699516
 20
22.6558799801
 11
-15.4199699516
 21
22.6558799801
  0
LINE
  5
6D7
100
AcDbEntity
  8
DRAFT
100
AcDbLine
 62
7
  6
CONTINUOUS
 10
4.7795203917
 20
22.7099865604
 11
3.0691555527
 21
22.7099865604
  0
LINE
  5
6D8
100
AcDbEntity
  8
DRAFT
100
AcDbLine
 62
7
  6
CONTINUOUS
 10
2.1024774642
 20
22.7099865604
 11
0.5923403064
 21
22.7099865604
  0
LINE
  5
6D9
100
AcDbEntity
  8
DRAFT
100
AcDbLine
 62
7
  6
CONTINUOUS
 10
-0.4322802096
 20
22.7099865604
 11
-1.9424173674
 21
22.7099865604
  0
LINE
  5
6DA
100
AcDbEntity
  8
DRAFT
100
AcDbLine
 62
7
  6
CONTINUOUS
 10
-2.9090954559
 20
22.7099865604
 11
-4.6194602949
 21
22.7099865604
  0
LINE
  5
6DB
100
AcDbEntity
  8
RACCORDO
100
AcDbLine
 62
7
  6
CONTINUOUS
 10
22.3347676927
 20
22.7448940316
 11
15.7580717107
 21
22.7448940316
  0
LINE
  5
6DC
100
AcDbEntity
  8
DRAFT
100
AcDbLine
 62
7
  6
CONTINUOUS
 10
12.6019883861
 20
22.7448940316
 11
-12.4419282893
 21
22.7448940316
  0
LINE
  5
6DD
100
AcDbEntity
  8
RACCORDO
100
AcDbLine
 62
7
  6
CONTINUOUS
 10
-15.5980116139
 20
22.7448940316
 11
-22.1747075959
 21
22.7448940316
  0
LINE
  5
6DE
100
AcDbEntity
  8
0
100
AcDbLine
 62
7
  6
CONTINUOUS
 10
-31.5196841461
 20
23.621542468
 11
-30.5202557572
 21
23.621542468
  0
LINE
  5
6DF
100
AcDbEntity
  8
0
100
AcDbLine
 62
7
  6
CONTINUOUS
 10
30.6803158539
 20
23.621542468
 11
31.6797442428
 21
23.621542468
  0
LINE
  5
6E0
100
AcDbEntity
  8
DRAFT
100
AcDbLine
 62
7
  6
CONTINUOUS
 10
-15.4199699516
 20
23.8401716181
 11
-12.6199699516
 21
23.8401716181
  0
LINE
  5
6E1
100
AcDbEntity
  8
DRAFT
100
AcDbLine
 62
7
  6
CONTINUOUS
 10
15.5800300484
 20
23.8401716181
 11
12.7800300484
 21
23.8401716181
  0
LINE
  5
6E2
100
AcDbEntity
  8
0
100
AcDbLine
 62
7
  6
CONTINUOUS
 10
32.4347276864
 20
23.921542468
 11
29.9253324104
 21
23.921542468
  0
LINE
  5
6E3
100
AcDbEntity
  8
0
100
AcDbLine
 62
7
  6
CONTINUOUS
 10
-29.7652723136
 20
23.921542468
 11
-32.2746675896
 21
23.921542468
  0
LINE
  5
6E4
100
AcDbEntity
  8
DRAFT
100
AcDbLine
 62
7
  6
CONTINUOUS
 10
-15.3957058829
 20
26.6401716181
 11
-15.3468317011
 21
26.6235484363
  0
LINE
  5
6E5
100
AcDbEntity
  8
DRAFT
100
AcDbLine
 62
7
  6
CONTINUOUS
 10
26.6300300484
 20
-15.3855643132
 11
26.6134068665
 21
-15.3366901314
  0
LINE
  5
6E6
100
AcDbEntity
  8
SMUSSO
100
AcDbLine
 62
7
  6
CONTINUOUS
 10
24.8831852777
 20
-17.7696121034
 11
24.8473715549
 21
-17.0228300584
  0
LINE
  5
6E7
100
AcDbEntity
  8
SMUSSO
100
AcDbLine
 62
7
  6
CONTINUOUS
 10
24.9171918146
 20
-25.3876429274
 11
24.9224275366
 21
-25.6928786493
  0
LINE
  5
6E8
100
AcDbEntity
  8
DRAFT
100
AcDbLine
 62
7
  6
CONTINUOUS
 10
24.1800300484
 20
-25.8237924338
 11
24.1800300484
 21
-26.2598283819
  0
LINE
  5
6E9
100
AcDbEntity
  8
0
100
AcDbLine
 62
7
  6
CONTINUOUS
 10
24.7439941003
 20
21.6366650044
 11
24.7439941003
 21
22.2041356701
  0
LINE
  5
6EA
100
AcDbEntity
  8
0
100
AcDbLine
 62
7
  6
CONTINUOUS
 10
24.7800300484
 20
-21.1598283819
 11
24.7800300484
 21
-18.1598283819
  0
LINE
  5
6EB
100
AcDbEntity
  8
SMUSSO
100
AcDbLine
 62
7
  6
CONTINUOUS
 10
24.8473715549
 20
-24.8098283819
 11
24.8473715549
 21
-22.2968267054
  0
LINE
  5
6EC
100
AcDbEntity
  8
SMUSSO
100
AcDbLine
 62
7
  6
CONTINUOUS
 10
24.8473715549
 20
-17.0228300584
 11
24.8473715549
 21
-3.9098283819
  0
LINE
  5
6ED
100
AcDbEntity
  8
0
100
AcDbLine
 62
7
  6
CONTINUOUS
 10
24.8473715549
 20
4.0901716181
 11
24.8473715549
 21
21.5177541859
  0
LINE
  5
6EE
100
AcDbEntity
  8
SMUSSO
100
AcDbLine
 62
7
  6
CONTINUOUS
 10
24.9171918146
 20
-24.8098283819
 11
24.9171918146
 21
-25.3876429274
  0
LINE
  5
6EF
100
AcDbEntity
  8
DRAFT
100
AcDbLine
 62
7
  6
CONTINUOUS
 10
24.9171918146
 20
-14.5399319568
 11
24.9171918146
 21
-7.779724807
  0
LINE
  5
6F0
100
AcDbEntity
  8
DRAFT
100
AcDbLine
 62
7
  6
CONTINUOUS
 10
24.9171918146
 20
7.9600680432
 11
24.9171918146
 21
14.720275193
  0
LINE
  5
6F1
100
AcDbEntity
  8
DRAFT
100
AcDbLine
 62
7
  6
CONTINUOUS
 10
24.9245737838
 20
1.5347153535
 11
24.9245737838
 21
-1.3543721173
  0
LINE
  5
6F2
100
AcDbEntity
  8
DRAFT
100
AcDbLine
 62
7
  6
CONTINUOUS
 10
24.9695570094
 20
15.8410878903
 11
24.9695570094
 21
14.7295085897
  0
LINE
  5
6F3
100
AcDbEntity
  8
DRAFT
100
AcDbLine
 62
7
  6
CONTINUOUS
 10
24.9695570094
 20
7.9508346465
 11
24.9695570094
 21
6.8392553459
  0
LINE
  5
6F4
100
AcDbEntity
  8
DRAFT
100
AcDbLine
 62
7
  6
CONTINUOUS
 10
24.9695570094
 20
-6.6589121097
 11
24.9695570094
 21
-7.7704914103
  0
LINE
  5
6F5
100
AcDbEntity
  8
DRAFT
100
AcDbLine
 62
7
  6
CONTINUOUS
 10
24.9695570094
 20
-14.5491653535
 11
24.9695570094
 21
-15.6607446541
  0
LINE
  5
6F6
100
AcDbEntity
  8
RACCORDO
100
AcDbLine
 62
7
  6
CONTINUOUS
 10
24.9841336818
 20
-1.9098283819
 11
24.9841336818
 21
-3.8098283819
  0
LINE
  5
6F7
100
AcDbEntity
  8
DRAFT
100
AcDbLine
 62
7
  6
CONTINUOUS
 10
25.0044671393
 20
-17.2420086915
 11
25.0044671393
 21
-15.6598283819
  0
LINE
  5
6F8
100
AcDbEntity
  8
DRAFT
100
AcDbLine
 62
7
  6
CONTINUOUS
 10
25.0044671393
 20
-6.6598283819
 11
25.0044671393
 21
-5.0776480722
  0
LINE
  5
6F9
100
AcDbEntity
  8
DRAFT
100
AcDbLine
 62
7
  6
CONTINUOUS
 10
25.0044671393
 20
5.2579913085
 11
25.0044671393
 21
6.8401716181
  0
LINE
  5
6FA
100
AcDbEntity
  8
DRAFT
100
AcDbLine
 62
7
  6
CONTINUOUS
 10
25.0044671393
 20
15.8401716181
 11
25.0044671393
 21
17.4223519278
  0
LINE
  5
6FB
100
AcDbEntity
  8
0
100
AcDbLine
 62
7
  6
CONTINUOUS
 10
25.0300300484
 20
-14.5598283819
 11
25.0300300484
 21
-7.7598283819
  0
LINE
  5
6FC
100
AcDbEntity
  8
0
100
AcDbLine
 62
7
  6
CONTINUOUS
 10
25.0300300484
 20
7.9401716181
 11
25.0300300484
 21
14.7401716181
  0
LINE
  5
6FD
100
AcDbEntity
  8
DRAFT
100
AcDbLine
 62
7
  6
CONTINUOUS
 10
25.0533413211
 20
21.2773428327
 11
25.0533413211
 21
17.4425962767
  0
LINE
  5
6FE
100
AcDbEntity
  8
DRAFT
100
AcDbLine
 62
7
  6
CONTINUOUS
 10
25.0533413211
 20
5.2377469595
 11
25.0533413211
 21
4.40907952
  0
LINE
  5
6FF
100
AcDbEntity
  8
DRAFT
100
AcDbLine
 62
7
  6
CONTINUOUS
 10
25.0533413211
 20
-4.2287362837
 11
25.0533413211
 21
-5.0574037233
  0
LINE
  5
700
100
AcDbEntity
  8
DRAFT
100
AcDbLine
 62
7
  6
CONTINUOUS
 10
25.0533413211
 20
-17.2622530405
 11
25.0533413211
 21
-17.8865171092
  0
LINE
  5
701
100
AcDbEntity
  8
DRAFT
100
AcDbLine
 62
7
  6
CONTINUOUS
 10
25.0533413211
 20
-21.4331396546
 11
25.0533413211
 21
-25.8237924338
  0
LINE
  5
702
100
AcDbEntity
  8
0
100
AcDbLine
 62
7
  6
CONTINUOUS
 10
25.0800300484
 20
-22.9098283819
 11
25.0800300484
 21
-16.4098283819
  0
LINE
  5
703
100
AcDbEntity
  8
SMUSSO
100
AcDbLine
 62
7
  6
CONTINUOUS
 10
25.1800300484
 20
22.5201716181
 11
25.1800300484
 21
17.8230143306
  0
LINE
  5
704
100
AcDbEntity
  8
0
100
AcDbLine
 62
7
  6
CONTINUOUS
 10
25.2266930031
 20
-33.5098283819
 11
25.2266930031
 21
-26.2598283819
  0
LINE
  5
705
100
AcDbEntity
  8
0
100
AcDbLine
 62
7
  6
CONTINUOUS
 10
25.4800300484
 20
-14.0529186955
 11
25.4800300484
 21
-8.2667380683
  0
LINE
  5
706
100
AcDbEntity
  8
0
100
AcDbLine
 62
7
  6
CONTINUOUS
 10
25.4800300484
 20
8.4470813045
 11
25.4800300484
 21
14.2332619317
  0
LINE
  5
707
100
AcDbEntity
  8
RACCORDO
100
AcDbLine
 62
7
  6
CONTINUOUS
 10
25.7471072424
 20
-1.4098283819
 11
25.7471072424
 21
-3.8098283819
  0
LINE
  5
708
100
AcDbEntity
  8
0
100
AcDbLine
 62
7
  6
CONTINUOUS
 10
25.8800300484
 20
-20.2598283819
 11
25.8800300484
 21
-19.0598283819
  0
LINE
  5
709
100
AcDbEntity
  8
0
100
AcDbLine
 62
253
  6
CONTINUOUS
 10
26.1608101601
 20
-16.5043843894
 11
26.1608101601
 21
-19.0598283819
  0
LINE
  5
70A
100
AcDbEntity
  8
0
100
AcDbLine
 62
253
  6
CONTINUOUS
 10
26.1608101601
 20
-20.2598283819
 11
26.1608101601
 21
-22.8152723743
  0
LINE
  5
70B
100
AcDbEntity
  8
DRAFT
100
AcDbLine
 62
7
  6
CONTINUOUS
 10
26.1800300484
 20
1.5849350986
 11
26.1800300484
 21
-1.4045918624
  0
LINE
  5
70C
100
AcDbEntity
  8
DRAFT
100
AcDbLine
 62
7
  6
CONTINUOUS
 10
26.2811558666
 20
16.1456632005
 11
26.2811558666
 21
15.5170333676
  0
LINE
  5
70D
100
AcDbEntity
  8
DRAFT
100
AcDbLine
 62
7
  6
CONTINUOUS
 10
26.2811558666
 20
-15.3366901314
 11
26.2811558666
 21
-15.9653199642
  0
LINE
  5
70E
100
AcDbEntity
  8
0
100
AcDbLine
 62
253
  6
CONTINUOUS
 10
26.3199932643
 20
-16.6097755496
 11
26.3199932643
 21
-19.0598283819
  0
LINE
  5
70F
100
AcDbEntity
  8
0
100
AcDbLine
 62
253
  6
CONTINUOUS
 10
26.3199932643
 20
-20.2598283819
 11
26.3199932643
 21
-22.7098812142
  0
LINE
  5
710
100
AcDbEntity
  8
DRAFT
100
AcDbLine
 62
7
  6
CONTINUOUS
 10
26.3300300484
 20
16.1659075494
 11
26.3300300484
 21
15.5659075494
  0
LINE
  5
711
100
AcDbEntity
  8
DRAFT
100
AcDbLine
 62
7
  6
CONTINUOUS
 10
26.3300300484
 20
-15.3855643132
 11
26.3300300484
 21
-15.9855643132
  0
LINE
  5
712
100
AcDbEntity
  8
0
100
AcDbLine
 62
253
  6
CONTINUOUS
 10
26.4930342391
 20
4.4901716181
 11
26.4930342391
 21
-4.3098283819
  0
LINE
  5
713
100
AcDbEntity
  8
0
100
AcDbLine
 62
253
  6
CONTINUOUS
 10
26.5950300923
 20
4.4901716181
 11
26.5950300923
 21
-4.3098283819
  0
LINE
  5
714
100
AcDbEntity
  8
SMUSSO
100
AcDbLine
 62
7
  6
CONTINUOUS
 10
26.6625749835
 20
-14.4525982573
 11
26.6625749835
 21
-12.5424190015
  0
LINE
  5
715
100
AcDbEntity
  8
SMUSSO
100
AcDbLine
 62
7
  6
CONTINUOUS
 10
26.6625749835
 20
-9.7772377623
 11
26.6625749835
 21
-7.8670585065
  0
LINE
  5
716
100
AcDbEntity
  8
SMUSSO
100
AcDbLine
 62
7
  6
CONTINUOUS
 10
26.6625749835
 20
8.0474017427
 11
26.6625749835
 21
9.9575809985
  0
LINE
  5
717
100
AcDbEntity
  8
SMUSSO
100
AcDbLine
 62
7
  6
CONTINUOUS
 10
26.6625749835
 20
12.7227622377
 11
26.6625749835
 21
14.6329414935
  0
LINE
  5
718
100
AcDbEntity
  8
SMUSSO
100
AcDbLine
 62
7
  6
CONTINUOUS
 10
26.6765390354
 20
-14.458382357
 11
26.6765390354
 21
-12.5563830534
  0
LINE
  5
719
100
AcDbEntity
  8
SMUSSO
100
AcDbLine
 62
7
  6
CONTINUOUS
 10
26.6765390354
 20
-9.7632737104
 11
26.6765390354
 21
-7.8612744068
  0
LINE
  5
71A
100
AcDbEntity
  8
SMUSSO
100
AcDbLine
 62
7
  6
CONTINUOUS
 10
26.6765390354
 20
8.041617643
 11
26.6765390354
 21
9.9436169466
  0
LINE
  5
71B
100
AcDbEntity
  8
SMUSSO
100
AcDbLine
 62
7
  6
CONTINUOUS
 10
26.6765390354
 20
12.7367262896
 11
26.6765390354
 21
14.6387255932
  0
LINE
  5
71C
100
AcDbEntity
  8
0
100
AcDbLine
 62
7
  6
CONTINUOUS
 10
26.9300300484
 20
6.6901716181
 11
26.9300300484
 21
4.4901716181
  0
LINE
  5
71D
100
AcDbEntity
  8
0
100
AcDbLine
 62
253
  6
CONTINUOUS
 10
26.9300300484
 20
4.4901716181
 11
26.9300300484
 21
-4.3098283819
  0
LINE
  5
71E
100
AcDbEntity
  8
0
100
AcDbLine
 62
7
  6
CONTINUOUS
 10
26.9300300484
 20
-4.3098283819
 11
26.9300300484
 21
-6.5098283819
  0
LINE
  5
71F
100
AcDbEntity
  8
DRAFT
100
AcDbLine
 62
7
  6
CONTINUOUS
 10
26.9660659964
 20
12.4192712247
 11
26.9660659964
 21
10.2610720115
  0
LINE
  5
720
100
AcDbEntity
  8
DRAFT
100
AcDbLine
 62
7
  6
CONTINUOUS
 10
26.9660659964
 20
-10.0807287753
 11
26.9660659964
 21
-12.2389279885
  0
LINE
  5
721
100
AcDbEntity
  8
DRAFT
100
AcDbLine
 62
7
  6
CONTINUOUS
 10
27.3265390354
 20
13.9887255932
 11
27.3265390354
 21
8.691617643
  0
LINE
  5
722
100
AcDbEntity
  8
DRAFT
100
AcDbLine
 62
7
  6
CONTINUOUS
 10
27.3265390354
 20
-8.5112744068
 11
27.3265390354
 21
-13.808382357
  0
LINE
  5
723
100
AcDbEntity
  8
DRAFT
100
AcDbLine
 62
7
  6
CONTINUOUS
 10
27.3789042302
 20
14.0104159671
 11
27.3789042302
 21
8.6699272692
  0
LINE
  5
724
100
AcDbEntity
  8
DRAFT
100
AcDbLine
 62
7
  6
CONTINUOUS
 10
27.3789042302
 20
-8.4895840329
 11
27.3789042302
 21
-13.8300727308
  0
LINE
  5
725
100
AcDbEntity
  8
DRAFT
100
AcDbLine
 62
7
  6
CONTINUOUS
 10
26.980029786
 20
12.4358194041
 11
26.9783079087
 21
10.2453847708
  0
LINE
  5
726
100
AcDbEntity
  8
DRAFT
100
AcDbLine
 62
7
  6
CONTINUOUS
 10
26.980029786
 20
-10.064180596
 11
26.9783079087
 21
-12.2546152292
  0
LINE
  5
727
100
AcDbEntity
  8
SMUSSO
100
AcDbLine
 62
7
  6
CONTINUOUS
 10
24.5473312019
 20
-21.9775790611
 11
24.5822413317
 21
-21.2496385926
  0
LINE
  5
728
100
AcDbEntity
  8
SMUSSO
100
AcDbLine
 62
7
  6
CONTINUOUS
 10
24.8473715549
 20
-22.2968267054
 11
24.8831852777
 21
-21.5500446604
  0
LINE
  5
729
100
AcDbEntity
  8
DRAFT
100
AcDbLine
 62
7
  6
CONTINUOUS
 10
24.9841336818
 20
1.618159356
 11
24.9800300484
 21
1.5901716181
  0
LINE
  5
72A
100
AcDbEntity
  8
DRAFT
100
AcDbLine
 62
7
  6
CONTINUOUS
 10
27.8811558666
 20
11.3968541805
 11
27.9300300484
 21
11.5901716181
  0
LINE
  5
72B
100
AcDbEntity
  8
SMUSSO
100
AcDbLine
 62
7
  6
CONTINUOUS
 10
22.7168239826
 20
-17.7696121034
 11
22.7038083786
 21
-17.8086668473
  0
LINE
  5
72C
100
AcDbEntity
  8
SMUSSO
100
AcDbLine
 62
7
  6
CONTINUOUS
 10
23.019037374
 20
-18.0700181712
 11
23.005592986
 21
-18.1103595282
  0
LINE
  5
72D
100
AcDbEntity
  8
DRAFT
100
AcDbLine
 62
7
  6
CONTINUOUS
 10
12.7265847199
 20
-26.5063373689
 11
12.4256778344
 21
-26.8098281195
  0
LINE
  5
72E
100
AcDbEntity
  8
SMUSSO
100
AcDbLine
 62
7
  6
CONTINUOUS
 10
9.9474394288
 20
-26.492373317
 11
9.9334753769
 21
-26.5063373689
  0
LINE
  5
72F
100
AcDbEntity
  8
SMUSSO
100
AcDbLine
 62
7
  6
CONTINUOUS
 10
26.6625749835
 20
-9.7772377623
 11
26.6765390354
 21
-9.7632737104
  0
LINE
  5
730
100
AcDbEntity
  8
DRAFT
100
AcDbLine
 62
7
  6
CONTINUOUS
 10
12.6019883861
 20
-23.8378700442
 11
12.7800300484
 21
-23.6598283819
  0
LINE
  5
731
100
AcDbEntity
  8
DRAFT
100
AcDbLine
 62
7
  6
CONTINUOUS
 10
26.9800305759
 20
-10.0667641958
 11
26.9660659964
 21
-10.0807287753
  0
LINE
  5
732
100
AcDbEntity
  8
DRAFT
100
AcDbLine
 62
7
  6
CONTINUOUS
 10
10.2369658623
 20
-26.8098289094
 11
10.2509304418
 21
-26.7958643299
  0
LINE
  5
733
100
AcDbEntity
  8
DRAFT
100
AcDbLine
 62
7
  6
CONTINUOUS
 10
11.3300300484
 20
-27.7676367625
 11
11.3867126108
 21
-27.7109542001
  0
LINE
  5
734
100
AcDbEntity
  8
DRAFT
100
AcDbLine
 62
7
  6
CONTINUOUS
 10
27.8811558666
 20
-11.2165109443
 11
27.937838429
 21
-11.1598283819
  0
LINE
  5
735
100
AcDbEntity
  8
SMUSSO
100
AcDbLine
 62
7
  6
CONTINUOUS
 10
12.409129655
 20
-26.7958643299
 11
12.712620668
 21
-26.492373317
  0
LINE
  5
736
100
AcDbEntity
  8
SMUSSO
100
AcDbLine
 62
7
  6
CONTINUOUS
 10
26.6625749835
 20
-12.5424190015
 11
26.9660659964
 21
-12.2389279885
  0
LINE
  5
737
100
AcDbEntity
  8
DRAFT
100
AcDbLine
 62
7
  6
CONTINUOUS
 10
12.7800300484
 20
-22.4755367439
 11
12.6019883861
 21
-22.5645507954
  0
LINE
  5
738
100
AcDbEntity
  8
DRAFT
100
AcDbLine
 62
7
  6
CONTINUOUS
 10
6.8474851133
 20
-25.0641206262
 11
6.7811558666
 21
-25.0915950998
  0
LINE
  5
739
100
AcDbEntity
  8
DRAFT
100
AcDbLine
 62
7
  6
CONTINUOUS
 10
11.3867126108
 20
27.8912974363
 11
11.5800300484
 21
27.9401716181
  0
LINE
  5
73A
100
AcDbEntity
  8
0
100
AcDbLine
 62
7
  6
CONTINUOUS
 10
-26.0007500633
 20
22.9956156106
 11
-24.9199699516
 21
23.0901716181
  0
LINE
  5
73B
100
AcDbEntity
  8
DRAFT
100
AcDbLine
 62
7
  6
CONTINUOUS
 10
15.7580717107
 20
24.0182132804
 11
12.6019883861
 21
24.0182132804
  0
LINE
  5
73C
100
AcDbEntity
  8
DRAFT
100
AcDbLine
 62
7
  6
CONTINUOUS
 10
-12.4419282893
 20
24.0182132804
 11
-15.5980116139
 21
24.0182132804
  0
LINE
  5
73D
100
AcDbEntity
  8
RACCORDO
100
AcDbLine
 62
253
  6
CONTINUOUS
 10
6.6386440225
 20
24.7160883291
 11
4.5800300484
 21
24.7160883291
  0
LINE
  5
73E
100
AcDbEntity
  8
RACCORDO
100
AcDbLine
 62
253
  6
CONTINUOUS
 10
-4.4199699516
 20
24.7160883291
 11
-6.4785839257
 21
24.7160883291
  0
LINE
  5
73F
100
AcDbEntity
  8
RACCORDO
100
AcDbLine
 62
7
  6
CONTINUOUS
 10
-17.9199699516
 20
24.7981659039
 11
-6.4786428412
 21
24.7981659039
  0
LINE
  5
740
100
AcDbEntity
  8
RACCORDO
100
AcDbLine
 62
7
  6
CONTINUOUS
 10
6.638702938
 20
24.7981659039
 11
18.0800300484
 21
24.7981659039
  0
LINE
  5
741
100
AcDbEntity
  8
RACCORDO
100
AcDbLine
 62
7
  6
CONTINUOUS
 10
-4.4199699516
 20
24.8400580597
 11
4.5800300484
 21
24.8400580597
  0
LINE
  5
742
100
AcDbEntity
  8
DRAFT
100
AcDbLine
 62
7
  6
CONTINUOUS
 10
-17.9199699516
 20
24.8679861636
 11
-16.9421554061
 21
24.8679861636
  0
LINE
  5
743
100
AcDbEntity
  8
DRAFT
100
AcDbLine
 62
7
  6
CONTINUOUS
 10
17.1022155029
 20
24.8679861636
 11
18.0800300484
 21
24.8679861636
  0
LINE
  5
744
100
AcDbEntity
  8
DRAFT
100
AcDbLine
 62
7
  6
CONTINUOUS
 10
-16.8548800815
 20
24.9552614883
 11
-15.7188441334
 21
24.9552614883
  0
LINE
  5
745
100
AcDbEntity
  8
DRAFT
100
AcDbLine
 62
7
  6
CONTINUOUS
 10
15.8789042302
 20
24.9552614883
 11
17.0149401782
 21
24.9552614883
  0
LINE
  5
746
100
AcDbEntity
  8
0
100
AcDbLine
 62
7
  6
CONTINUOUS
 10
4.5824734409
 20
24.9622435142
 11
3.4662892211
 21
24.9622435142
  0
LINE
  5
747
100
AcDbEntity
  8
0
100
AcDbLine
 62
7
  6
CONTINUOUS
 10
-3.3062291243
 20
24.9622435142
 11
-4.4224133441
 21
24.9622435142
  0
LINE
  5
748
100
AcDbEntity
  8
DRAFT
100
AcDbLine
 62
7
  6
CONTINUOUS
 10
-15.6839340036
 20
24.9901716181
 11
-6.6560058997
 21
24.9901716181
  0
LINE
  5
749
100
AcDbEntity
  8
0
100
AcDbLine
 62
7
  6
CONTINUOUS
 10
-3.3111536026
 20
24.9901716181
 11
3.4712136994
 21
24.9901716181
  0
LINE
  5
74A
100
AcDbEntity
  8
DRAFT
100
AcDbLine
 62
7
  6
CONTINUOUS
 10
6.8160659964
 20
24.9901716181
 11
15.8439941003
 21
24.9901716181
  0
LINE
  5
74B
100
AcDbEntity
  8
0
100
AcDbLine
 62
7
  6
CONTINUOUS
 10
18.0800300484
 20
24.9901716181
 11
21.3533114126
 21
24.9901716181
  0
LINE
  5
74C
100
AcDbEntity
  8
DRAFT
100
AcDbLine
 62
7
  6
CONTINUOUS
 10
21.3533114126
 20
24.9901716181
 11
22.4977231433
 21
24.9901716181
  0
LINE
  5
74D
100
AcDbEntity
  8
DRAFT
100
AcDbLine
 62
7
  6
CONTINUOUS
 10
-17.9199699516
 20
24.9901716181
 11
-24.7571317179
 21
24.9901716181
  0
LINE
  5
74E
100
AcDbEntity
  8
DRAFT
100
AcDbLine
 62
7
  6
CONTINUOUS
 10
-15.6839340036
 20
25.1290788909
 11
-6.6560058997
 21
25.1290788909
  0
LINE
  5
74F
100
AcDbEntity
  8
DRAFT
100
AcDbLine
 62
7
  6
CONTINUOUS
 10
6.8160659964
 20
25.1290788909
 11
15.8439941003
 21
25.1290788909
  0
LINE
  5
750
100
AcDbEntity
  8
DRAFT
100
AcDbLine
 62
7
  6
CONTINUOUS
 10
-15.6525148867
 20
25.1604980077
 11
-14.6699699516
 21
25.1604980077
  0
LINE
  5
751
100
AcDbEntity
  8
DRAFT
100
AcDbLine
 62
7
  6
CONTINUOUS
 10
-10.8013890685
 20
25.1604980077
 11
-6.6874250165
 21
25.1604980077
  0
LINE
  5
752
100
AcDbEntity
  8
DRAFT
100
AcDbLine
 62
7
  6
CONTINUOUS
 10
6.8474851133
 20
25.1604980077
 11
10.9614491653
 21
25.1604980077
  0
LINE
  5
753
100
AcDbEntity
  8
DRAFT
100
AcDbLine
 62
7
  6
CONTINUOUS
 10
14.8300300484
 20
25.1604980077
 11
15.8125749835
 21
25.1604980077
  0
LINE
  5
754
100
AcDbEntity
  8
DRAFT
100
AcDbLine
 62
7
  6
CONTINUOUS
 10
14.800356438
 20
25.1901716181
 11
10.9911227756
 21
25.1901716181
  0
LINE
  5
755
100
AcDbEntity
  8
DRAFT
100
AcDbLine
 62
7
  6
CONTINUOUS
 10
-10.8310626789
 20
25.1901716181
 11
-14.6402963412
 21
25.1901716181
  0
LINE
  5
756
100
AcDbEntity
  8
DRAFT
100
AcDbLine
 62
7
  6
CONTINUOUS
 10
-14.6402963412
 20
25.4901716181
 11
-10.8310626789
 21
25.4901716181
  0
LINE
  5
757
100
AcDbEntity
  8
DRAFT
100
AcDbLine
 62
7
  6
CONTINUOUS
 10
10.9911227756
 20
25.4901716181
 11
14.800356438
 21
25.4901716181
  0
LINE
  5
758
100
AcDbEntity
  8
SMUSSO
100
AcDbLine
 62
7
  6
CONTINUOUS
 10
17.9161795548
 20
25.5679861636
 11
17.1022155029
 21
25.5679861636
  0
LINE
  5
759
100
AcDbEntity
  8
SMUSSO
100
AcDbLine
 62
7
  6
CONTINUOUS
 10
-16.9421554061
 20
25.5679861636
 11
-17.9199699516
 21
25.5679861636
  0
LINE
  5
75A
100
AcDbEntity
  8
SMUSSO
100
AcDbLine
 62
7
  6
CONTINUOUS
 10
-22.8199699516
 20
25.5679861636
 11
-24.7571317179
 21
25.5679861636
  0
LINE
  5
75B
100
AcDbEntity
  8
SMUSSO
100
AcDbLine
 62
7
  6
CONTINUOUS
 10
18.0800300484
 20
25.5901716181
 11
17.9161795548
 21
25.5901716181
  0
LINE
  5
75C
100
AcDbEntity
  8
0
100
AcDbLine
 62
7
  6
CONTINUOUS
 10
18.0800300484
 20
25.5901716181
 11
20.630273356
 21
25.5901716181
  0
LINE
  5
75D
100
AcDbEntity
  8
SMUSSO
100
AcDbLine
 62
7
  6
CONTINUOUS
 10
-17.75573891
 20
25.5901716181
 11
-23.8842009933
 21
25.5901716181
  0
LINE
  5
75E
100
AcDbEntity
  8
RACCORDO
100
AcDbLine
 62
253
  6
CONTINUOUS
 10
6.6557944545
 20
25.7159360242
 11
4.5800300484
 21
25.7159360242
  0
LINE
  5
75F
100
AcDbEntity
  8
RACCORDO
100
AcDbLine
 62
253
  6
CONTINUOUS
 10
-4.4199699516
 20
25.7159360242
 11
-6.4957343577
 21
25.7159360242
  0
LINE
  5
760
100
AcDbEntity
  8
RACCORDO
100
AcDbLine
 62
7
  6
CONTINUOUS
 10
20.2800300484
 20
25.7272684818
 11
18.5300300484
 21
25.7272684818
  0
LINE
  5
761
100
AcDbEntity
  8
RACCORDO
100
AcDbLine
 62
7
  6
CONTINUOUS
 10
-18.3699699516
 20
25.7272684818
 11
-22.2699699516
 21
25.7272684818
  0
LINE
  5
762
100
AcDbEntity
  8
DRAFT
100
AcDbLine
 62
7
  6
CONTINUOUS
 10
-5.6199699516
 20
25.792976087
 11
-4.4199699516
 21
25.792976087
  0
LINE
  5
763
100
AcDbEntity
  8
DRAFT
100
AcDbLine
 62
7
  6
CONTINUOUS
 10
4.5800300484
 20
25.792976087
 11
5.7800300484
 21
25.792976087
  0
LINE
  5
764
100
AcDbEntity
  8
DRAFT
100
AcDbLine
 62
7
  6
CONTINUOUS
 10
-5.9355692217
 20
25.8401716181
 11
-5.6199699516
 21
25.8401716181
  0
LINE
  5
765
100
AcDbEntity
  8
DRAFT
100
AcDbLine
 62
7
  6
CONTINUOUS
 10
5.7800300484
 20
25.8401716181
 11
6.0956293184
 21
25.8401716181
  0
LINE
  5
766
100
AcDbEntity
  8
DRAFT
100
AcDbLine
 62
7
  6
CONTINUOUS
 10
-6.63567951
 20
25.8558811765
 11
-5.9290621095
 21
25.8558811765
  0
LINE
  5
767
100
AcDbEntity
  8
DRAFT
100
AcDbLine
 62
7
  6
CONTINUOUS
 10
6.0891222063
 20
25.8558811765
 11
6.7957396068
 21
25.8558811765
  0
LINE
  5
768
100
AcDbEntity
  8
RACCORDO
100
AcDbLine
 62
7
  6
CONTINUOUS
 10
4.5800300484
 20
25.8664849523
 11
-4.4199699516
 21
25.8664849523
  0
LINE
  5
769
100
AcDbEntity
  8
SMUSSO
100
AcDbLine
 62
7
  6
CONTINUOUS
 10
17.9109438329
 20
25.8732218855
 11
17.096979781
 21
25.8732218855
  0
LINE
  5
76A
100
AcDbEntity
  8
SMUSSO
100
AcDbLine
 62
7
  6
CONTINUOUS
 10
-16.9369196842
 20
25.8732218855
 11
-17.7508837361
 21
25.8732218855
  0
LINE
  5
76B
100
AcDbEntity
  8
SMUSSO
100
AcDbLine
 62
7
  6
CONTINUOUS
 10
-23.8890561671
 20
25.8732218855
 11
-24.7623674398
 21
25.8732218855
  0
LINE
  5
76C
100
AcDbEntity
  8
DRAFT
100
AcDbLine
 62
7
  6
CONTINUOUS
 10
17.7800300484
 20
26.0041356701
 11
16.9660659964
 21
26.0041356701
  0
LINE
  5
76D
100
AcDbEntity
  8
DRAFT
100
AcDbLine
 62
7
  6
CONTINUOUS
 10
-16.8060058997
 20
26.0041356701
 11
-17.6199699516
 21
26.0041356701
  0
LINE
  5
76E
100
AcDbEntity
  8
DRAFT
100
AcDbLine
 62
7
  6
CONTINUOUS
 10
-24.0199699516
 20
26.0041356701
 11
-24.8932812243
 21
26.0041356701
  0
LINE
  5
76F
100
AcDbEntity
  8
DRAFT
100
AcDbLine
 62
7
  6
CONTINUOUS
 10
-15.9754615339
 20
26.2912974363
 11
-15.3468317011
 21
26.2912974363
  0
LINE
  5
770
100
AcDbEntity
  8
DRAFT
100
AcDbLine
 62
7
  6
CONTINUOUS
 10
15.5068917979
 20
26.2912974363
 11
16.1355216307
 21
26.2912974363
  0
LINE
  5
771
100
AcDbEntity
  8
DRAFT
100
AcDbLine
 62
7
  6
CONTINUOUS
 10
-15.9957058829
 20
26.3401716181
 11
-15.3957058829
 21
26.3401716181
  0
LINE
  5
772
100
AcDbEntity
  8
DRAFT
100
AcDbLine
 62
7
  6
CONTINUOUS
 10
15.5557659797
 20
26.3401716181
 11
16.1557659797
 21
26.3401716181
  0
LINE
  5
773
100
AcDbEntity
  8
0
100
AcDbLine
 62
253
  6
CONTINUOUS
 10
-22.7699699516
 20
26.4020659523
 11
-17.8699699516
 21
26.4020659523
  0
LINE
  5
774
100
AcDbEntity
  8
0
100
AcDbLine
 62
253
  6
CONTINUOUS
 10
18.0300300484
 20
26.4020659523
 11
20.7800300484
 21
26.4020659523
  0
LINE
  5
775
100
AcDbEntity
  8
0
100
AcDbLine
 62
7
  6
CONTINUOUS
 10
-25.0199699516
 20
26.5201716181
 11
-22.7699699516
 21
26.5201716181
  0
LINE
  5
776
100
AcDbEntity
  8
0
100
AcDbLine
 62
7
  6
CONTINUOUS
 10
-17.8699699516
 20
26.5201716181
 11
-16.2399699516
 21
26.5201716181
  0
LINE
  5
777
100
AcDbEntity
  8
0
100
AcDbLine
 62
7
  6
CONTINUOUS
 10
16.4000300484
 20
26.5201716181
 11
18.0300300484
 21
26.5201716181
  0
LINE
  5
778
100
AcDbEntity
  8
SMUSSO
100
AcDbLine
 62
7
  6
CONTINUOUS
 10
20.7800300484
 20
26.5201716181
 11
21.1800300484
 21
26.5201716181
  0
LINE
  5
779
100
AcDbEntity
  8
0
100
AcDbLine
 62
253
  6
CONTINUOUS
 10
-22.7699699516
 20
26.6006174207
 11
-17.8699699516
 21
26.6006174207
  0
LINE
  5
77A
100
AcDbEntity
  8
0
100
AcDbLine
 62
253
  6
CONTINUOUS
 10
18.0300300484
 20
26.6006174207
 11
20.7800300484
 21
26.6006174207
  0
LINE
  5
77B
100
AcDbEntity
  8
RACCORDO
100
AcDbLine
 62
7
  6
CONTINUOUS
 10
4.5800300484
 20
26.6614992876
 11
-4.4199699516
 21
26.6614992876
  0
LINE
  5
77C
100
AcDbEntity
  8
SMUSSO
100
AcDbLine
 62
7
  6
CONTINUOUS
 10
14.3843222927
 20
26.6727165532
 11
12.712620668
 21
26.6727165532
  0
LINE
  5
77D
100
AcDbEntity
  8
SMUSSO
100
AcDbLine
 62
7
  6
CONTINUOUS
 10
9.9474394288
 20
26.6727165532
 11
8.2757378041
 21
26.6727165532
  0
LINE
  5
77E
100
AcDbEntity
  8
SMUSSO
100
AcDbLine
 62
7
  6
CONTINUOUS
 10
-8.1156777073
 20
26.6727165532
 11
-9.787379332
 21
26.6727165532
  0
LINE
  5
77F
100
AcDbEntity
  8
SMUSSO
100
AcDbLine
 62
7
  6
CONTINUOUS
 10
-12.5525605712
 20
26.6727165532
 11
-14.2242621959
 21
26.6727165532
  0
LINE
  5
780
100
AcDbEntity
  8
SMUSSO
100
AcDbLine
 62
7
  6
CONTINUOUS
 10
14.3901063924
 20
26.6866806051
 11
12.7265847199
 21
26.6866806051
  0
LINE
  5
781
100
AcDbEntity
  8
SMUSSO
100
AcDbLine
 62
7
  6
CONTINUOUS
 10
9.9334753769
 20
26.6866806051
 11
8.2699537044
 21
26.6866806051
  0
LINE
  5
782
100
AcDbEntity
  8
SMUSSO
100
AcDbLine
 62
7
  6
CONTINUOUS
 10
-8.1098936076
 20
26.6866806051
 11
-9.7734152801
 21
26.6866806051
  0
LINE
  5
783
100
AcDbEntity
  8
SMUSSO
100
AcDbLine
 62
7
  6
CONTINUOUS
 10
-12.5665246231
 20
26.6866806051
 11
-14.2300462956
 21
26.6866806051
  0
LINE
  5
784
100
AcDbEntity
  8
DRAFT
100
AcDbLine
 62
7
  6
CONTINUOUS
 10
-5.6199699516
 20
26.8329107672
 11
-4.4199699516
 21
26.8329107672
  0
LINE
  5
785
100
AcDbEntity
  8
DRAFT
100
AcDbLine
 62
7
  6
CONTINUOUS
 10
4.5800300484
 20
26.8329107672
 11
5.7800300484
 21
26.8329107672
  0
LINE
  5
786
100
AcDbEntity
  8
DRAFT
100
AcDbLine
 62
7
  6
CONTINUOUS
 10
-5.6199699516
 20
26.8401716181
 11
-4.4199699516
 21
26.8401716181
  0
LINE
  5
787
100
AcDbEntity
  8
DRAFT
100
AcDbLine
 62
7
  6
CONTINUOUS
 10
4.5800300484
 20
26.8401716181
 11
5.7800300484
 21
26.8401716181
  0
LINE
  5
788
100
AcDbEntity
  8
0
100
AcDbLine
 62
253
  6
CONTINUOUS
 10
-5.8199699516
 20
26.8404707677
 11
5.9800300484
 21
26.8404707677
  0
LINE
  5
789
100
AcDbEntity
  8
0
100
AcDbLine
 62
253
  6
CONTINUOUS
 10
-5.8199699516
 20
26.9400095888
 11
5.9800300484
 21
26.9400095888
  0
LINE
  5
78A
100
AcDbEntity
  8
RACCORDO
100
AcDbLine
 62
7
  6
CONTINUOUS
 10
6.5971873359
 20
26.9401716181
 11
5.9800300484
 21
26.9401716181
  0
LINE
  5
78B
100
AcDbEntity
  8
RACCORDO
100
AcDbLine
 62
7
  6
CONTINUOUS
 10
-5.8199699516
 20
26.9401716181
 11
-6.4371272391
 21
26.9401716181
  0
LINE
  5
78C
100
AcDbEntity
  8
DRAFT
100
AcDbLine
 62
7
  6
CONTINUOUS
 10
-12.2490695582
 20
26.9762075662
 11
-10.090870345
 21
26.9762075662
  0
LINE
  5
78D
100
AcDbEntity
  8
DRAFT
100
AcDbLine
 62
7
  6
CONTINUOUS
 10
10.2509304418
 20
26.9762075662
 11
12.409129655
 21
26.9762075662
  0
LINE
  5
78E
100
AcDbEntity
  8
DRAFT
100
AcDbLine
 62
7
  6
CONTINUOUS
 10
-13.5800462956
 20
27.3366806051
 11
-8.7598936076
 21
27.3366806051
  0
LINE
  5
78F
100
AcDbEntity
  8
DRAFT
100
AcDbLine
 62
7
  6
CONTINUOUS
 10
8.9199537044
 20
27.3366806051
 11
13.7401063924
 21
27.3366806051
  0
LINE
  5
790
100
AcDbEntity
  8
DRAFT
100
AcDbLine
 62
7
  6
CONTINUOUS
 10
-13.6017366695
 20
27.3890457999
 11
-8.7382032337
 21
27.3890457999
  0
LINE
  5
791
100
AcDbEntity
  8
DRAFT
100
AcDbLine
 62
7
  6
CONTINUOUS
 10
8.8982633305
 20
27.3890457999
 11
13.7617967663
 21
27.3890457999
  0
LINE
  5
792
100
AcDbEntity
  8
DRAFT
100
AcDbLine
 62
7
  6
CONTINUOUS
 10
-12.2656177376
 20
26.9901713557
 11
-10.0751831043
 21
26.9884494784
  0
LINE
  5
793
100
AcDbEntity
  8
DRAFT
100
AcDbLine
 62
7
  6
CONTINUOUS
 10
10.2343822624
 20
26.9901713557
 11
12.4248168957
 21
26.9884494784
  0
LINE
  5
794
100
AcDbEntity
  8
DRAFT
100
AcDbLine
 62
7
  6
CONTINUOUS
 10
-11.226652514
 20
27.8912974363
 11
-11.4199699516
 21
27.9401716181
  0
LINE
  5
795
100
AcDbEntity
  8
DRAFT
100
AcDbLine
 62
7
  6
CONTINUOUS
 10
6.8474851133
 20
25.2444638624
 11
6.7811558666
 21
25.271938336
  0
LINE
  5
796
100
AcDbEntity
  8
DRAFT
100
AcDbLine
 62
7
  6
CONTINUOUS
 10
12.7800300484
 20
22.6558799801
 11
12.6019883861
 21
22.7448940316
  0
LINE
  5
797
100
AcDbEntity
  8
DRAFT
100
AcDbLine
 62
7
  6
CONTINUOUS
 10
26.6765390354
 20
12.7367262896
 11
26.980029786
 21
12.4358194041
  0
LINE
  5
798
100
AcDbEntity
  8
SMUSSO
100
AcDbLine
 62
7
  6
CONTINUOUS
 10
26.6625749835
 20
9.9575809985
 11
26.6765390354
 21
9.9436169466
  0
LINE
  5
799
100
AcDbEntity
  8
SMUSSO
100
AcDbLine
 62
7
  6
CONTINUOUS
 10
9.9474394288
 20
26.6727165532
 11
9.9334753769
 21
26.6866806051
  0
LINE
  5
79A
100
AcDbEntity
  8
DRAFT
100
AcDbLine
 62
7
  6
CONTINUOUS
 10
12.6019883861
 20
24.0182132804
 11
12.7800300484
 21
23.8401716181
  0
LINE
  5
79B
100
AcDbEntity
  8
DRAFT
100
AcDbLine
 62
7
  6
CONTINUOUS
 10
10.2369658623
 20
26.9901721456
 11
10.2509304418
 21
26.9762075662
  0
LINE
  5
79C
100
AcDbEntity
  8
DRAFT
100
AcDbLine
 62
7
  6
CONTINUOUS
 10
26.9800305759
 20
10.2471074321
 11
26.9660659964
 21
10.2610720115
  0
LINE
  5
79D
100
AcDbEntity
  8
DRAFT
100
AcDbLine
 62
7
  6
CONTINUOUS
 10
27.937838429
 20
11.3401716181
 11
27.8811558666
 21
11.3968541805
  0
LINE
  5
79E
100
AcDbEntity
  8
DRAFT
100
AcDbLine
 62
7
  6
CONTINUOUS
 10
11.3867126108
 20
27.8912974363
 11
11.3300300484
 21
27.9479799987
  0
LINE
  5
79F
100
AcDbEntity
  8
SMUSSO
100
AcDbLine
 62
7
  6
CONTINUOUS
 10
26.9660659964
 20
12.4192712247
 11
26.6625749835
 21
12.7227622377
  0
LINE
  5
7A0
100
AcDbEntity
  8
SMUSSO
100
AcDbLine
 62
7
  6
CONTINUOUS
 10
12.712620668
 20
26.6727165532
 11
12.409129655
 21
26.9762075662
  0
LINE
  5
7A1
100
AcDbEntity
  8
DRAFT
100
AcDbLine
 62
7
  6
CONTINUOUS
 10
16.9660659964
 20
25.5298716013
 11
17.0149401782
 21
25.4118788888
  0
LINE
  5
7A2
100
AcDbEntity
  8
DRAFT
100
AcDbLine
 62
7
  6
CONTINUOUS
 10
27.8811558666
 20
-11.2165109443
 11
27.9300300484
 21
-11.4098283819
  0
LINE
  5
7A3
100
AcDbEntity
  8
DRAFT
100
AcDbLine
 62
7
  6
CONTINUOUS
 10
24.9841336818
 20
-1.4378161197
 11
24.9800300484
 21
-1.4098283819
  0
LINE
  5
7A4
100
AcDbEntity
  8
DRAFT
100
AcDbLine
 62
7
  6
CONTINUOUS
 10
27.8811558666
 20
-14.3614985929
 11
27.8811558666
 21
-11.2165109443
  0
LINE
  5
7A5
100
AcDbEntity
  8
RACCORDO
100
AcDbLine
 62
7
  6
CONTINUOUS
 10
27.8811558666
 20
-11.1031458195
 11
27.8811558666
 21
-8.3684872752
  0
LINE
  5
7A6
100
AcDbEntity
  8
RACCORDO
100
AcDbLine
 62
7
  6
CONTINUOUS
 10
27.8811558666
 20
8.5488305114
 11
27.8811558666
 21
11.2834890557
  0
LINE
  5
7A7
100
AcDbEntity
  8
DRAFT
100
AcDbLine
 62
7
  6
CONTINUOUS
 10
27.8811558666
 20
11.3968541805
 11
27.8811558666
 21
14.5418418291
  0
LINE
  5
7A8
100
AcDbEntity
  8
RACCORDO
100
AcDbLine
 62
7
  6
CONTINUOUS
 10
27.9300300484
 20
-8.3482429262
 11
27.9300300484
 21
-10.9098283819
  0
LINE
  5
7A9
100
AcDbEntity
  8
DRAFT
100
AcDbLine
 62
7
  6
CONTINUOUS
 10
27.9300300484
 20
-11.4098283819
 11
27.9300300484
 21
-14.3855643132
  0
LINE
  5
7AA
100
AcDbEntity
  8
RACCORDO
100
AcDbLine
 62
7
  6
CONTINUOUS
 10
27.9300300484
 20
8.5285861625
 11
27.9300300484
 21
11.0901716181
  0
LINE
  5
7AB
100
AcDbEntity
  8
DRAFT
100
AcDbLine
 62
7
  6
CONTINUOUS
 10
27.9300300484
 20
11.5901716181
 11
27.9300300484
 21
14.5659075494
  0
LINE
  5
7AC
100
AcDbEntity
  8
ASSI
100
AcDbLine
 62
7
  6
CONTINUOUS
 10
28.1800300484
 20
-2.6598283819
 11
28.1800300484
 21
2.8401716181
  0
LINE
  5
7AD
100
AcDbEntity
  8
RACCORDO
100
AcDbLine
 62
7
  6
CONTINUOUS
 10
28.2300300484
 20
14.6073289056
 11
28.2300300484
 21
9.0043851805
  0
LINE
  5
7AE
100
AcDbEntity
  8
0
100
AcDbLine
 62
7
  6
CONTINUOUS
 10
28.2300300484
 20
9.0043851805
 11
28.2300300484
 21
8.5558570431
  0
LINE
  5
7AF
100
AcDbEntity
  8
RACCORDO
100
AcDbLine
 62
7
  6
CONTINUOUS
 10
28.2300300484
 20
-8.6240419443
 11
28.2300300484
 21
-14.4269856694
  0
LINE
  5
7B0
100
AcDbEntity
  8
0
100
AcDbLine
 62
7
  6
CONTINUOUS
 10
28.2300300484
 20
-8.6240419443
 11
28.2300300484
 21
-8.3755138068
  0
LINE
  5
7B1
100
AcDbEntity
  8
0
100
AcDbLine
 62
7
  6
CONTINUOUS
 10
29.9253324104
 20
-23.7411992318
 11
29.9253324104
 21
-10.078457532
  0
LINE
  5
7B2
100
AcDbEntity
  8
0
100
AcDbLine
 62
7
  6
CONTINUOUS
 10
29.9253324104
 20
10.2588007682
 11
29.9253324104
 21
23.921542468
  0
LINE
  5
7B3
100
AcDbEntity
  8
0
100
AcDbLine
 62
253
  6
CONTINUOUS
 10
30.5800300484
 20
-37.5806721843
 11
30.5800300484
 21
-39.2389845795
  0
LINE
  5
7B4
100
AcDbEntity
  8
0
100
AcDbLine
 62
253
  6
CONTINUOUS
 10
30.5800300484
 20
37.7610154205
 11
30.5800300484
 21
39.4193278157
  0
LINE
  5
7B5
100
AcDbEntity
  8
0
100
AcDbLine
 62
253
  6
CONTINUOUS
 10
30.6803158539
 20
-23.4411992318
 11
30.6803158539
 21
-10.378457532
  0
LINE
  5
7B6
100
AcDbEntity
  8
0
100
AcDbLine
 62
253
  6
CONTINUOUS
 10
30.6803158539
 20
10.5588007682
 11
30.6803158539
 21
23.621542468
  0
LINE
  5
7B7
100
AcDbEntity
  8
0
100
AcDbLine
 62
253
  6
CONTINUOUS
 10
31.6797442428
 20
-23.4411992318
 11
31.6797442428
 21
-10.378457532
  0
LINE
  5
7B8
100
AcDbEntity
  8
0
100
AcDbLine
 62
253
  6
CONTINUOUS
 10
31.6797442428
 20
10.5588007682
 11
31.6797442428
 21
23.621542468
  0
LINE
  5
7B9
100
AcDbEntity
  8
DRAFT
100
AcDbLine
 62
7
  6
CONTINUOUS
 10
27.8811558666
 20
-11.1031458195
 11
27.9300300484
 21
-10.9098283819
  0
LINE
  5
7BA
100
AcDbEntity
  8
RACCORDO
100
AcDbLine
 62
7
  6
CONTINUOUS
 10
15.7333670937
 20
-26.489624279
 11
14.7394875407
 21
-27.9711954046
  0
LINE
  5
7BB
100
AcDbEntity
  8
DRAFT
100
AcDbLine
 62
7
  6
CONTINUOUS
 10
15.5068917979
 20
-26.4432052
 11
14.5317002594
 21
-27.7109542001
  0
LINE
  5
7BC
100
AcDbEntity
  8
DRAFT
100
AcDbLine
 62
7
  6
CONTINUOUS
 10
15.5557659797
 20
-26.4598283819
 11
14.5557659797
 21
-27.7598283819
  0
LINE
  5
7BD
100
AcDbEntity
  8
SMUSSO
100
AcDbLine
 62
7
  6
CONTINUOUS
 10
24.5473312019
 20
-17.3420777026
 11
24.8473715549
 21
-17.0228300584
  0
LINE
  5
7BE
100
AcDbEntity
  8
DRAFT
100
AcDbLine
 62
7
  6
CONTINUOUS
 10
26.9783079087
 20
-12.2546152292
 11
26.6765390354
 21
-12.5563830534
  0
LINE
  5
7BF
100
AcDbEntity
  8
DRAFT
100
AcDbLine
 62
7
  6
CONTINUOUS
 10
11.3300300484
 20
-28.0098283819
 11
11.5800300484
 21
-27.7598283819
  0
LINE
  5
7C0
100
AcDbEntity
  8
DRAFT
100
AcDbLine
 62
7
  6
CONTINUOUS
 10
27.9300300484
 20
-11.4098283819
 11
28.1800300484
 21
-11.1598283819
  0
LINE
  5
7C1
100
AcDbEntity
  8
DRAFT
100
AcDbLine
 62
7
  6
CONTINUOUS
 10
14.8300300484
 20
-24.9801547715
 11
14.800356438
 21
-25.0098283819
  0
LINE
  5
7C2
100
AcDbEntity
  8
DRAFT
100
AcDbLine
 62
7
  6
CONTINUOUS
 10
15.8439941003
 20
-24.8098283819
 11
15.8789042302
 21
-24.774918252
  0
LINE
  5
7C3
100
AcDbEntity
  8
DRAFT
100
AcDbLine
 62
7
  6
CONTINUOUS
 10
15.8439941003
 20
-24.9487356546
 11
15.8125749835
 21
-24.9801547715
  0
LINE
  5
7C4
100
AcDbEntity
  8
DRAFT
100
AcDbLine
 62
7
  6
CONTINUOUS
 10
15.8125749835
 20
-25.0641206262
 11
14.3843222927
 21
-26.492373317
  0
LINE
  5
7C5
100
AcDbEntity
  8
DRAFT
100
AcDbLine
 62
7
  6
CONTINUOUS
 10
14.3901063924
 20
-26.5063373689
 11
13.7401063924
 21
-27.1563373689
  0
LINE
  5
7C6
100
AcDbEntity
  8
DRAFT
100
AcDbLine
 62
7
  6
CONTINUOUS
 10
15.8789042302
 20
-25.0915950998
 11
13.7617967663
 21
-27.2087025637
  0
LINE
  5
7C7
100
AcDbEntity
  8
DRAFT
100
AcDbLine
 62
7
  6
CONTINUOUS
 10
26.6625749835
 20
-14.4525982573
 11
25.4553448588
 21
-15.6598283819
  0
LINE
  5
7C8
100
AcDbEntity
  8
DRAFT
100
AcDbLine
 62
7
  6
CONTINUOUS
 10
27.3265390354
 20
-13.808382357
 11
26.6765390354
 21
-14.458382357
  0
LINE
  5
7C9
100
AcDbEntity
  8
DRAFT
100
AcDbLine
 62
7
  6
CONTINUOUS
 10
27.3789042302
 20
-13.8300727308
 11
25.5491485791
 21
-15.6598283819
  0
LINE
  5
7CA
100
AcDbEntity
  8
0
100
AcDbLine
 62
7
  6
CONTINUOUS
 10
23.7800300484
 20
-18.2598283819
 11
23.9698402591
 21
-18.0700181712
  0
LINE
  5
7CB
100
AcDbEntity
  8
DRAFT
100
AcDbLine
 62
7
  6
CONTINUOUS
 10
16.1355216307
 20
-26.1109542001
 11
16.9800300484
 21
-25.2664457824
  0
LINE
  5
7CC
100
AcDbEntity
  8
DRAFT
100
AcDbLine
 62
7
  6
CONTINUOUS
 10
25.0044671393
 20
-17.2420086915
 11
25.0800300484
 21
-17.1664457824
  0
LINE
  5
7CD
100
AcDbEntity
  8
DRAFT
100
AcDbLine
 62
7
  6
CONTINUOUS
 10
25.7757774395
 20
-16.4706983913
 11
26.2811558666
 21
-15.9653199642
  0
LINE
  5
7CE
100
AcDbEntity
  8
DRAFT
100
AcDbLine
 62
7
  6
CONTINUOUS
 10
26.3300300484
 20
-15.9855643132
 11
25.8393353717
 21
-16.4762589898
  0
LINE
  5
7CF
100
AcDbEntity
  8
DRAFT
100
AcDbLine
 62
7
  6
CONTINUOUS
 10
25.0800300484
 20
-17.2355643132
 11
25.0533413211
 21
-17.2622530405
  0
LINE
  5
7D0
100
AcDbEntity
  8
DRAFT
100
AcDbLine
 62
7
  6
CONTINUOUS
 10
16.9800300484
 20
-25.3355643132
 11
16.1557659797
 21
-26.1598283819
  0
LINE
  5
7D1
100
AcDbEntity
  8
RACCORDO
100
AcDbLine
 62
7
  6
CONTINUOUS
 10
28.1714514046
 20
-14.5684070256
 11
26.1981421005
 21
-16.5417163298
  0
LINE
  5
7D2
100
AcDbEntity
  8
0
100
AcDbLine
 62
7
  6
CONTINUOUS
 10
24.7800300484
 20
-18.1598283819
 11
25.0800300484
 21
-17.8598283819
  0
LINE
  5
7D3
100
AcDbEntity
  8
SMUSSO
100
AcDbLine
 62
7
  6
CONTINUOUS
 10
17.9109438329
 20
-25.6928786493
 11
17.7800300484
 21
-25.8237924338
  0
LINE
  5
7D4
100
AcDbEntity
  8
SMUSSO
100
AcDbLine
 62
7
  6
CONTINUOUS
 10
24.6074683346
 20
-18.1103595282
 11
24.9092184685
 21
-17.8086668473
  0
LINE
  5
7D5
100
AcDbEntity
  8
SMUSSO
100
AcDbLine
 62
253
  6
CONTINUOUS
 10
23.005592986
 20
-21.2092972356
 11
22.7038083786
 21
-21.5109899165
  0
LINE
  5
7D6
100
AcDbEntity
  8
SMUSSO
100
AcDbLine
 62
7
  6
CONTINUOUS
 10
22.7168239826
 20
-21.5500446604
 11
23.019037374
 21
-21.2496385926
  0
LINE
  5
7D7
100
AcDbEntity
  8
SMUSSO
100
AcDbLine
 62
7
  6
CONTINUOUS
 10
24.8831852777
 20
-17.7696121034
 11
24.5805775107
 21
-18.0700181712
  0
LINE
  5
7D8
100
AcDbEntity
  8
DRAFT
100
AcDbLine
 62
7
  6
CONTINUOUS
 10
27.8811558666
 20
-14.3614985929
 11
26.6134068665
 21
-15.3366901314
  0
LINE
  5
7D9
100
AcDbEntity
  8
DRAFT
100
AcDbLine
 62
7
  6
CONTINUOUS
 10
27.9300300484
 20
-14.3855643132
 11
26.6300300484
 21
-15.3855643132
  0
LINE
  5
7DA
100
AcDbEntity
  8
0
100
AcDbLine
 62
7
  6
CONTINUOUS
 10
26.7831479004
 20
-17.7178483606
 11
26.7746035828
 21
-17.7221084003
  0
LINE
  5
7DB
100
AcDbEntity
  8
DRAFT
100
AcDbLine
 62
7
  6
CONTINUOUS
 10
-11.1132873892
 20
27.8912974363
 11
-10.9199699516
 21
27.9401716181
  0
LINE
  5
7DC
100
AcDbEntity
  8
DRAFT
100
AcDbLine
 62
7
  6
CONTINUOUS
 10
14.5317002594
 20
27.8912974363
 11
11.3867126108
 21
27.8912974363
  0
LINE
  5
7DD
100
AcDbEntity
  8
RACCORDO
100
AcDbLine
 62
7
  6
CONTINUOUS
 10
11.273347486
 20
27.8912974363
 11
8.5386889417
 21
27.8912974363
  0
LINE
  5
7DE
100
AcDbEntity
  8
RACCORDO
100
AcDbLine
 62
7
  6
CONTINUOUS
 10
-8.3786288449
 20
27.8912974363
 11
-11.1132873892
 21
27.8912974363
  0
LINE
  5
7DF
100
AcDbEntity
  8
DRAFT
100
AcDbLine
 62
7
  6
CONTINUOUS
 10
-11.226652514
 20
27.8912974363
 11
-14.3716401626
 21
27.8912974363
  0
LINE
  5
7E0
100
AcDbEntity
  8
DRAFT
100
AcDbLine
 62
7
  6
CONTINUOUS
 10
-14.3957058829
 20
27.9401716181
 11
-11.4199699516
 21
27.9401716181
  0
LINE
  5
7E1
100
AcDbEntity
  8
RACCORDO
100
AcDbLine
 62
7
  6
CONTINUOUS
 10
-10.9199699516
 20
27.9401716181
 11
-8.358384496
 21
27.9401716181
  0
LINE
  5
7E2
100
AcDbEntity
  8
RACCORDO
100
AcDbLine
 62
7
  6
CONTINUOUS
 10
8.5184445927
 20
27.9401716181
 11
11.0800300484
 21
27.9401716181
  0
LINE
  5
7E3
100
AcDbEntity
  8
DRAFT
100
AcDbLine
 62
7
  6
CONTINUOUS
 10
11.5800300484
 20
27.9401716181
 11
14.5557659797
 21
27.9401716181
  0
LINE
  5
7E4
100
AcDbEntity
  8
ASSI
100
AcDbLine
 62
7
  6
CONTINUOUS
 10
2.8300300484
 20
28.1901716181
 11
-2.6699699516
 21
28.1901716181
  0
LINE
  5
7E5
100
AcDbEntity
  8
RACCORDO
100
AcDbLine
 62
7
  6
CONTINUOUS
 10
-14.4371272391
 20
28.2401716181
 11
-8.834183514
 21
28.2401716181
  0
LINE
  5
7E6
100
AcDbEntity
  8
0
100
AcDbLine
 62
7
  6
CONTINUOUS
 10
8.7942436108
 20
28.2401716181
 11
8.5457154733
 21
28.2401716181
  0
LINE
  5
7E7
100
AcDbEntity
  8
0
100
AcDbLine
 62
7
  6
CONTINUOUS
 10
-8.3856553766
 20
28.2401716181
 11
-8.834183514
 21
28.2401716181
  0
LINE
  5
7E8
100
AcDbEntity
  8
RACCORDO
100
AcDbLine
 62
7
  6
CONTINUOUS
 10
8.7942436108
 20
28.2401716181
 11
14.5971873359
 21
28.2401716181
  0
LINE
  5
7E9
100
AcDbEntity
  8
0
100
AcDbLine
 62
253
  6
CONTINUOUS
 10
37.7508738508
 20
30.5901716181
 11
39.409186246
 21
30.5901716181
  0
LINE
  5
7EA
100
AcDbEntity
  8
0
100
AcDbLine
 62
253
  6
CONTINUOUS
 10
-37.590813754
 20
30.5901716181
 11
-39.2491261492
 21
30.5901716181
  0
LINE
  5
7EB
100
AcDbEntity
  8
DRAFT
100
AcDbLine
 62
7
  6
CONTINUOUS
 10
11.273347486
 20
27.8912974363
 11
11.0800300484
 21
27.9401716181
  0
LINE
  5
7EC
100
AcDbEntity
  8
DRAFT
100
AcDbLine
 62
7
  6
CONTINUOUS
 10
26.6134068665
 20
15.5170333676
 11
27.8811558666
 21
14.5418418291
  0
LINE
  5
7ED
100
AcDbEntity
  8
DRAFT
100
AcDbLine
 62
7
  6
CONTINUOUS
 10
26.6300300484
 20
15.5659075494
 11
27.9300300484
 21
14.5659075494
  0
LINE
  5
7EE
100
AcDbEntity
  8
DRAFT
100
AcDbLine
 62
7
  6
CONTINUOUS
 10
12.4248168957
 20
26.9884494784
 11
12.7265847199
 21
26.6866806051
  0
LINE
  5
7EF
100
AcDbEntity
  8
DRAFT
100
AcDbLine
 62
7
  6
CONTINUOUS
 10
28.1800300484
 20
11.3401716181
 11
27.9300300484
 21
11.5901716181
  0
LINE
  5
7F0
100
AcDbEntity
  8
DRAFT
100
AcDbLine
 62
7
  6
CONTINUOUS
 10
11.5800300484
 20
27.9401716181
 11
11.3300300484
 21
28.1901716181
  0
LINE
  5
7F1
100
AcDbEntity
  8
DRAFT
100
AcDbLine
 62
7
  6
CONTINUOUS
 10
14.8300300484
 20
25.1604980077
 11
14.800356438
 21
25.1901716181
  0
LINE
  5
7F2
100
AcDbEntity
  8
DRAFT
100
AcDbLine
 62
7
  6
CONTINUOUS
 10
15.8439941003
 20
24.9901716181
 11
15.8789042302
 21
24.9552614883
  0
LINE
  5
7F3
100
AcDbEntity
  8
DRAFT
100
AcDbLine
 62
7
  6
CONTINUOUS
 10
15.8439941003
 20
25.1290788909
 11
15.8125749835
 21
25.1604980077
  0
LINE
  5
7F4
100
AcDbEntity
  8
DRAFT
100
AcDbLine
 62
7
  6
CONTINUOUS
 10
14.3843222927
 20
26.6727165532
 11
15.8125749835
 21
25.2444638624
  0
LINE
  5
7F5
100
AcDbEntity
  8
DRAFT
100
AcDbLine
 62
7
  6
CONTINUOUS
 10
13.7401063924
 20
27.3366806051
 11
14.3901063924
 21
26.6866806051
  0
LINE
  5
7F6
100
AcDbEntity
  8
DRAFT
100
AcDbLine
 62
7
  6
CONTINUOUS
 10
13.7617967663
 20
27.3890457999
 11
15.8789042302
 21
25.271938336
  0
LINE
  5
7F7
100
AcDbEntity
  8
DRAFT
100
AcDbLine
 62
7
  6
CONTINUOUS
 10
25.4553448588
 20
15.8401716181
 11
26.6625749835
 21
14.6329414935
  0
LINE
  5
7F8
100
AcDbEntity
  8
DRAFT
100
AcDbLine
 62
7
  6
CONTINUOUS
 10
26.6765390354
 20
14.6387255932
 11
27.3265390354
 21
13.9887255932
  0
LINE
  5
7F9
100
AcDbEntity
  8
DRAFT
100
AcDbLine
 62
7
  6
CONTINUOUS
 10
25.5491485791
 20
15.8401716181
 11
27.3789042302
 21
14.0104159671
  0
LINE
  5
7FA
100
AcDbEntity
  8
DRAFT
100
AcDbLine
 62
7
  6
CONTINUOUS
 10
17.0149401782
 20
24.9552614883
 11
17.1022155029
 21
24.8679861636
  0
LINE
  5
7FB
100
AcDbEntity
  8
DRAFT
100
AcDbLine
 62
7
  6
CONTINUOUS
 10
26.2811558666
 20
16.1456632005
 11
25.0044671393
 21
17.4223519278
  0
LINE
  5
7FC
100
AcDbEntity
  8
DRAFT
100
AcDbLine
 62
7
  6
CONTINUOUS
 10
17.0149401782
 20
25.4118788888
 11
16.1355216307
 21
26.2912974363
  0
LINE
  5
7FD
100
AcDbEntity
  8
DRAFT
100
AcDbLine
 62
7
  6
CONTINUOUS
 10
16.1557659797
 20
26.3401716181
 11
16.9660659964
 21
25.5298716013
  0
LINE
  5
7FE
100
AcDbEntity
  8
DRAFT
100
AcDbLine
 62
7
  6
CONTINUOUS
 10
25.0533413211
 20
17.4425962767
 11
26.3300300484
 21
16.1659075494
  0
LINE
  5
7FF
100
AcDbEntity
  8
RACCORDO
100
AcDbLine
 62
7
  6
CONTINUOUS
 10
14.7386086922
 20
28.1815929744
 11
16.4000300484
 21
26.5201716181
  0
LINE
  5
800
100
AcDbEntity
  8
RACCORDO
100
AcDbLine
 62
7
  6
CONTINUOUS
 10
25.2386086922
 20
17.6815929744
 11
28.1714514046
 21
14.7487502619
  0
LINE
  5
801
100
AcDbEntity
  8
SMUSSO
100
AcDbLine
 62
7
  6
CONTINUOUS
 10
17.096979781
 20
25.8732218855
 11
16.9660659964
 21
26.0041356701
  0
LINE
  5
802
100
AcDbEntity
  8
SMUSSO
100
AcDbLine
 62
7
  6
CONTINUOUS
 10
17.7800300484
 20
26.0041356701
 11
17.9109438329
 21
25.8732218855
  0
LINE
  5
803
100
AcDbEntity
  8
DRAFT
100
AcDbLine
 62
7
  6
CONTINUOUS
 10
14.5317002594
 20
27.8912974363
 11
15.5068917979
 21
26.6235484363
  0
LINE
  5
804
100
AcDbEntity
  8
DRAFT
100
AcDbLine
 62
7
  6
CONTINUOUS
 10
14.5557659797
 20
27.9401716181
 11
15.5557659797
 21
26.6401716181
  0
LINE
  5
805
100
AcDbEntity
  8
DRAFT
100
AcDbLine
 62
7
  6
CONTINUOUS
 10
27.8811558666
 20
11.2834890557
 11
27.9300300484
 21
11.0901716181
  0
LINE
  5
806
100
AcDbEntity
  8
ASSI
100
AcDbLine
 62
7
  6
CONTINUOUS
 10
32.1800300484
 20
2.8401716181
 11
32.1800300484
 21
-2.6598283819
  0
LINE
  5
807
100
AcDbEntity
  8
0
100
AcDbLine
 62
7
  6
CONTINUOUS
 10
32.4347276864
 20
-23.7411992318
 11
32.4347276864
 21
-10.078457532
  0
LINE
  5
808
100
AcDbEntity
  8
0
100
AcDbLine
 62
7
  6
CONTINUOUS
 10
32.4347276864
 20
10.2588007682
 11
32.4347276864
 21
23.921542468
  0
LINE
  5
809
100
AcDbEntity
  8
0
100
AcDbLine
 62
7
  6
CONTINUOUS
 10
33.6800300484
 20
8.721542468
 11
33.6800300484
 21
-8.5411992318
  0
LINE
  5
80A
100
AcDbEntity
  8
SMUSSO
100
AcDbLine
 62
7
  6
CONTINUOUS
 10
24.5805775107
 20
-21.2496385926
 11
24.6074683346
 21
-21.2092972356
  0
LINE
  5
80B
100
AcDbEntity
  8
SMUSSO
100
AcDbLine
 62
7
  6
CONTINUOUS
 10
24.8831852777
 20
-21.5500446604
 11
24.9092184685
 21
-21.5109899165
  0
LINE
  5
80C
100
AcDbEntity
  8
RACCORDO
100
AcDbLine
 62
7
  6
CONTINUOUS
 10
23.0356592624
 20
-21.9775790611
 11
22.6932934579
 21
-22.3419032674
  0
LINE
  5
80D
100
AcDbEntity
  8
0
100
AcDbLine
 62
7
  6
CONTINUOUS
 10
23.7800300484
 20
-21.0598283819
 11
23.5902198377
 21
-21.2496385926
  0
LINE
  5
80E
100
AcDbEntity
  8
ASSI
100
AcDbLine
 62
7
  6
CONTINUOUS
 10
-2.6699699516
 20
32.1901716181
 11
2.8300300484
 21
32.1901716181
  0
LINE
  5
80F
100
AcDbEntity
  8
0
100
AcDbLine
 62
7
  6
CONTINUOUS
 10
-8.5513408015
 20
33.6901716181
 11
8.7114008983
 21
33.6901716181
  0
LINE
  5
810
100
AcDbEntity
  8
SMUSSO
100
AcDbLine
 62
7
  6
CONTINUOUS
 10
21.1800300484
 20
26.5201716181
 11
25.1800300484
 21
22.5201716181
  0
LINE
  5
811
100
AcDbEntity
  8
0
100
AcDbLine
 62
7
  6
CONTINUOUS
 10
37.7508738508
 20
30.5901716181
 11
37.7508738508
 21
-30.4098283819
  0
LINE
  5
812
100
AcDbEntity
  8
0
100
AcDbLine
 62
7
  6
CONTINUOUS
 10
39.409186246
 20
30.5901716181
 11
39.409186246
 21
-30.4098283819
  0
LINE
  5
813
100
AcDbEntity
  8
0
100
AcDbLine
 62
7
  6
CONTINUOUS
 10
-30.4199699516
 20
37.7610154205
 11
30.5800300484
 21
37.7610154205
  0
LINE
  5
814
100
AcDbEntity
  8
0
100
AcDbLine
 62
7
  6
CONTINUOUS
 10
-30.4199699516
 20
39.4193278157
 11
30.5800300484
 21
39.4193278157
  0
LINE
  5
815
100
AcDbEntity
  8
RACCORDO
100
AcDbLine
 62
7
  6
CONTINUOUS
 10
41.3300300484
 20
-35.1598283819
 11
41.3300300484
 21
35.3401716181
  0
LINE
  5
816
100
AcDbEntity
  8
ASSI
100
AcDbLine
 62
7
  6
CONTINUOUS
 10
28.6051563142
 20
-30.5562749913
 11
30.7264766578
 21
-28.4349546477
  0
LINE
  5
817
100
AcDbEntity
  8
RACCORDO
100
AcDbLine
 62
7
  6
CONTINUOUS
 10
35.3300300484
 20
41.3401716181
 11
-35.1699699516
 21
41.3401716181
  0
LINE
  5
818
100
AcDbEntity
  8
ASSI
100
AcDbLine
 62
7
  6
CONTINUOUS
 10
33.5549037825
 20
-31.2633817725
 11
31.433583439
 21
-33.384702116
  0
ARC
  5
819
100
AcDbEntity
  8
RACCORDO
100
AcDbCircle
 62
7
  6
CONTINUOUS
 10
-408.7462548305
 20
-26.6151475445
 40
433.9730932939
100
AcDbArc
 50
0.0469114122
 51
0.4892992199
  0
ARC
  5
81A
100
AcDbEntity
  8
0
100
AcDbCircle
 62
7
  6
CONTINUOUS
 10
-173.1599544859
 20
-69.1280440518
 40
153.1251640972
100
AcDbArc
 50
16.1387521873
 51
16.2913830647
  0
ARC
  5
81B
100
AcDbEntity
  8
0
100
AcDbCircle
 62
7
  6
CONTINUOUS
 10
-173.2524977592
 20
17.7353098192
 40
153.2215438963
100
AcDbArc
 50
343.7086614093
 51
343.8611962783
  0
ARC
  5
81C
100
AcDbEntity
  8
0
100
AcDbCircle
 62
7
  6
CONTINUOUS
 10
17.6982456211
 20
-173.1498129457
 40
153.1251640984
100
AcDbArc
 50
106.1387521493
 51
106.2913830266
  0
ARC
  5
81D
100
AcDbEntity
  8
0
100
AcDbCircle
 62
7
  6
CONTINUOUS
 10
-64.5194741464
 20
-157.2671576753
 40
136.584579724
100
AcDbArc
 50
73.6993121336
 51
73.8704268287
  0
ARC
  5
81E
100
AcDbEntity
  8
RACCORDO
100
AcDbCircle
 62
7
  6
CONTINUOUS
 10
-35.1699699516
 20
-35.1598283819
 40
6.0
100
AcDbArc
 50
180.0
 51
270.0
  0
CIRCLE
  5
81F
100
AcDbEntity
  8
0
100
AcDbCircle
 62
7
  6
CONTINUOUS
 10
-20.9199699516
 20
-31.9098283819
 40
2.25
  0
CIRCLE
  5
820
100
AcDbEntity
  8
0
100
AcDbCircle
 62
7
  6
CONTINUOUS
 10
-20.9199699516
 20
-31.9098283819
 40
1.985294
  0
ARC
  5
821
100
AcDbEntity
  8
0
100
AcDbCircle
 62
7
  6
CONTINUOUS
 10
-30.4199699516
 20
-30.4098283819
 40
8.8291561976
100
AcDbArc
 50
180.0
 51
270.0
  0
ARC
  5
822
100
AcDbEntity
  8
0
100
AcDbCircle
 62
7
  6
CONTINUOUS
 10
-34.2177711195
 20
-25.7143344636
 40
7.4191520133
100
AcDbArc
 50
0.0347990562
 51
2.7410792317
  0
ARC
  5
823
100
AcDbEntity
  8
0
100
AcDbCircle
 62
7
  6
CONTINUOUS
 10
-17.2221687857
 20
-25.7053223002
 40
7.4191520112
100
AcDbArc
 50
180.0347990554
 51
182.7410792319
  0
ARC
  5
824
100
AcDbEntity
  8
0
100
AcDbCircle
 62
7
  6
CONTINUOUS
 10
-34.2172900883
 20
-25.705333955
 40
7.4186709751
100
AcDbArc
 50
357.2588330123
 51
359.9652887019
  0
ARC
  5
825
100
AcDbEntity
  8
0
100
AcDbCircle
 62
7
  6
CONTINUOUS
 10
-17.2226498168
 20
-25.7143228087
 40
7.4186709732
100
AcDbArc
 50
177.2588330121
 51
179.9652887021
  0
ARC
  5
826
100
AcDbEntity
  8
0
100
AcDbCircle
 62
7
  6
CONTINUOUS
 10
-30.4199699516
 20
-30.4098283819
 40
7.1708438024
100
AcDbArc
 50
180.0
 51
270.0
  0
CIRCLE
  5
827
100
AcDbEntity
  8
RACCORDO
100
AcDbCircle
 62
7
  6
CONTINUOUS
 10
-25.7199699516
 20
-25.7098283819
 40
3.25
  0
CIRCLE
  5
828
100
AcDbEntity
  8
RACCORDO
100
AcDbCircle
 62
253
  6
CONTINUOUS
 10
-25.7199699516
 20
-25.7098283819
 40
3.049999989
  0
ARC
  5
829
100
AcDbEntity
  8
RACCORDO
100
AcDbCircle
 62
7
  6
CONTINUOUS
 10
-25.7199699516
 20
-25.7098283819
 40
2.5
100
AcDbArc
 50
191.5369590328
 51
348.4630409672
  0
ARC
  5
82A
100
AcDbEntity
  8
RACCORDO
100
AcDbCircle
 62
7
  6
CONTINUOUS
 10
-25.7199699516
 20
-25.7098283819
 40
2.5
100
AcDbArc
 50
11.5369590328
 51
168.4630409672
  0
ARC
  5
82B
100
AcDbEntity
  8
RACCORDO
100
AcDbCircle
 62
253
  6
CONTINUOUS
 10
-25.7199699516
 20
-25.7098283819
 40
2.3
100
AcDbArc
 50
12.5558577986
 51
167.4441422014
  0
ARC
  5
82C
100
AcDbEntity
  8
RACCORDO
100
AcDbCircle
 62
253
  6
CONTINUOUS
 10
-25.7199699516
 20
-25.7098283819
 40
2.3
100
AcDbArc
 50
192.5558577986
 51
347.4441422014
  0
ARC
  5
82D
100
AcDbEntity
  8
RACCORDO
100
AcDbCircle
 62
7
  6
CONTINUOUS
 10
-14.4371272391
 20
-27.8598283819
 40
0.2
100
AcDbArc
 50
225.0
 51
270.0
  0
ARC
  5
82E
100
AcDbEntity
  8
ASSI
100
AcDbCircle
 62
7
  6
CONTINUOUS
 10
-2.6699699516
 20
-30.0098283819
 40
2.0
100
AcDbArc
 50
90.0
 51
270.0
  0
ARC
  5
82F
100
AcDbEntity
  8
ASSI
100
AcDbCircle
 62
7
  6
CONTINUOUS
 10
2.8300300484
 20
-30.0098283819
 40
2.0
100
AcDbArc
 50
270.0
 51
90.0
  0
CIRCLE
  5
830
100
AcDbEntity
  8
ASSI
100
AcDbCircle
 62
7
  6
CONTINUOUS
 10
20.4800300484
 20
-29.9598283819
 40
2.0
  0
ARC
  5
831
100
AcDbEntity
  8
RACCORDO
100
AcDbCircle
 62
7
  6
CONTINUOUS
 10
14.5732743424
 20
-27.8596596514
 40
0.2001681457
100
AcDbArc
 50
269.9936434058
 51
326.1367968998
  0
ARC
  5
832
100
AcDbEntity
  8
RACCORDO
100
AcDbCircle
 62
7
  6
CONTINUOUS
 10
6.5971873359
 20
-26.9598283819
 40
0.2
100
AcDbArc
 50
45.0
 51
90.0
  0
ARC
  5
833
100
AcDbEntity
  8
RACCORDO
100
AcDbCircle
 62
7
  6
CONTINUOUS
 10
-6.4371272391
 20
-26.9598283819
 40
0.2
100
AcDbArc
 50
90.0
 51
135.0
  0
ARC
  5
834
100
AcDbEntity
  8
0
100
AcDbCircle
 62
7
  6
CONTINUOUS
 10
105.8373593214
 20
-64.5093326504
 40
136.584579725
100
AcDbArc
 50
163.6993121015
 51
163.8704267967
  0
ARC
  5
835
100
AcDbEntity
  8
0
100
AcDbCircle
 62
7
  6
CONTINUOUS
 10
30.5800300484
 20
-30.4098283819
 40
8.8291561976
100
AcDbArc
 50
270.0
 51
360.0
  0
ARC
  5
836
100
AcDbEntity
  8
0
100
AcDbCircle
 62
7
  6
CONTINUOUS
 10
30.5800300484
 20
-30.4098283819
 40
7.1708438024
100
AcDbArc
 50
270.0
 51
360.0
  0
ARC
  5
837
100
AcDbEntity
  8
RACCORDO
100
AcDbCircle
 62
7
  6
CONTINUOUS
 10
35.3300300484
 20
-35.1598283819
 40
6.0
100
AcDbArc
 50
270.0
 51
360.0
  0
ARC
  5
838
100
AcDbEntity
  8
ASSI
100
AcDbCircle
 62
7
  6
CONTINUOUS
 10
32.1406902202
 20
-29.8491682101
 40
2.0
100
AcDbArc
 50
315.0
 51
135.0
  0
ARC
  5
839
100
AcDbEntity
  8
ASSI
100
AcDbCircle
 62
7
  6
CONTINUOUS
 10
30.0193698766
 20
-31.9704885537
 40
2.0
100
AcDbArc
 50
135.0
 51
315.0
  0
ARC
  5
83A
100
AcDbEntity
  8
ASSI
100
AcDbCircle
 62
7
  6
CONTINUOUS
 10
-30.0199699516
 20
-2.6598283819
 40
2.0
100
AcDbArc
 50
180.0
 51
360.0
  0
ARC
  5
83B
100
AcDbEntity
  8
ASSI
100
AcDbCircle
 62
7
  6
CONTINUOUS
 10
-30.0199699516
 20
2.8401716181
 40
2.0
100
AcDbArc
 50
0.0
 51
180.0
  0
ARC
  5
83C
100
AcDbEntity
  8
RACCORDO
100
AcDbCircle
 62
7
  6
CONTINUOUS
 10
-22.0699641394
 20
-22.0598352849
 40
0.3999916894
100
AcDbArc
 50
186.000626743
 51
269.9969857576
  0
ARC
  5
83D
100
AcDbEntity
  8
RACCORDO
100
AcDbCircle
 62
7
  6
CONTINUOUS
 10
-22.0715502169
 20
-22.0597300684
 40
0.3984197508
100
AcDbArc
 50
180.016328527
 51
186.0395191529
  0
ARC
  5
83E
100
AcDbEntity
  8
RACCORDO
100
AcDbCircle
 62
7
  6
CONTINUOUS
 10
-25.2199699516
 20
-17.6426710944
 40
0.2
100
AcDbArc
 50
0.0
 51
45.0
  0
ARC
  5
83F
100
AcDbEntity
  8
RACCORDO
100
AcDbCircle
 62
7
  6
CONTINUOUS
 10
-27.8699699516
 20
-14.4269856694
 40
0.2
100
AcDbArc
 50
180.0
 51
225.0
  0
ARC
  5
840
100
AcDbEntity
  8
0
100
AcDbCircle
 62
7
  6
CONTINUOUS
 10
-30.4199699516
 20
30.5901716181
 40
8.8291561976
100
AcDbArc
 50
90.0
 51
180.0
  0
ARC
  5
841
100
AcDbEntity
  8
0
100
AcDbCircle
 62
7
  6
CONTINUOUS
 10
-30.4199699516
 20
30.5901716181
 40
7.1708438024
100
AcDbArc
 50
90.0
 51
180.0
  0
ARC
  5
842
100
AcDbEntity
  8
0
100
AcDbCircle
 62
7
  6
CONTINUOUS
 10
-20.4199699516
 20
19.8401716181
 40
6.5
100
AcDbArc
 50
197.4115998135
 51
207.9849030473
  0
ARC
  5
843
100
AcDbEntity
  8
0
100
AcDbCircle
 62
7
  6
CONTINUOUS
 10
-20.4199699516
 20
19.8401716181
 40
6.5
100
AcDbArc
 50
152.0150969527
 51
162.5884001865
  0
ARC
  5
844
100
AcDbEntity
  8
0
100
AcDbCircle
 62
7
  6
CONTINUOUS
 10
-20.4199699516
 20
19.8401716181
 40
6.4905700828
100
AcDbArc
 50
189.6695775911
 51
197.3701662123
  0
ARC
  5
845
100
AcDbEntity
  8
0
100
AcDbCircle
 62
7
  6
CONTINUOUS
 10
-20.4199699516
 20
19.8401716181
 40
6.4905700828
100
AcDbArc
 50
162.6298337877
 51
170.3304224089
  0
ARC
  5
846
100
AcDbEntity
  8
RACCORDO
100
AcDbCircle
 62
7
  6
CONTINUOUS
 10
-35.1699699516
 20
35.3401716181
 40
6.0
100
AcDbArc
 50
90.0
 51
180.0
  0
ARC
  5
847
100
AcDbEntity
  8
0
100
AcDbCircle
 62
7
  6
CONTINUOUS
 10
-20.9302837507
 20
19.6573976537
 40
5.9575555425
100
AcDbArc
 50
188.1185534805
 51
188.7610682096
  0
ARC
  5
848
100
AcDbEntity
  8
0
100
AcDbCircle
 62
7
  6
CONTINUOUS
 10
-20.9302839581
 20
20.0229456218
 40
5.9575553315
100
AcDbArc
 50
171.2389318597
 51
171.8814466116
  0
ARC
  5
849
100
AcDbEntity
  8
0
100
AcDbCircle
 62
7
  6
CONTINUOUS
 10
-20.9366893662
 20
19.6565293725
 40
5.9510914714
100
AcDbArc
 50
184.330989014
 51
188.118987052
  0
ARC
  5
84A
100
AcDbEntity
  8
0
100
AcDbCircle
 62
7
  6
CONTINUOUS
 10
-20.9375611363
 20
20.0239094694
 40
5.9502147351
100
AcDbArc
 50
171.8807387845
 51
175.6692950305
  0
ARC
  5
84B
100
AcDbEntity
  8
0
100
AcDbCircle
 62
7
  6
CONTINUOUS
 10
-20.9421513513
 20
20.0243044601
 40
5.9456077072
100
AcDbArc
 50
175.6697502809
 51
175.9891560759
  0
ARC
  5
84C
100
AcDbEntity
  8
0
100
AcDbCircle
 62
7
  6
CONTINUOUS
 10
-20.9421530545
 20
19.6560386582
 40
5.9456059998
100
AcDbArc
 50
184.0108439379
 51
184.3302498246
  0
ARC
  5
84D
100
AcDbEntity
  8
ASSI
100
AcDbCircle
 62
7
  6
CONTINUOUS
 10
-29.8593097798
 20
32.1508317899
 40
2.0
100
AcDbArc
 50
315.0
 51
135.0
  0
ARC
  5
84E
100
AcDbEntity
  8
ASSI
100
AcDbCircle
 62
7
  6
CONTINUOUS
 10
-31.9806301234
 20
30.0295114463
 40
2.0
100
AcDbArc
 50
135.0
 51
315.0
  0
ARC
  5
84F
100
AcDbEntity
  8
RACCORDO
100
AcDbCircle
 62
7
  6
CONTINUOUS
 10
-22.0699666065
 20
22.2401816024
 40
0.3999882266
100
AcDbArc
 50
90.0026608677
 51
173.9997752605
  0
ARC
  5
850
100
AcDbEntity
  8
RACCORDO
100
AcDbCircle
 62
7
  6
CONTINUOUS
 10
-22.0715502169
 20
22.2400733046
 40
0.3984197508
100
AcDbArc
 50
173.9604808471
 51
179.983671473
  0
ARC
  5
851
100
AcDbEntity
  8
0
100
AcDbCircle
 62
7
  6
CONTINUOUS
 10
-25.9833189147
 20
16.8839665653
 40
0.2
100
AcDbArc
 50
207.9849030473
 51
264.9999999987
  0
ARC
  5
852
100
AcDbEntity
  8
0
100
AcDbCircle
 62
7
  6
CONTINUOUS
 10
-25.9833189147
 20
22.796376671
 40
0.2
100
AcDbArc
 50
95.0000000013
 51
152.0150969527
  0
ARC
  5
853
100
AcDbEntity
  8
RACCORDO
100
AcDbCircle
 62
7
  6
CONTINUOUS
 10
-27.8699699516
 20
14.6073289056
 40
0.2
100
AcDbArc
 50
135.0
 51
180.0
  0
ARC
  5
854
100
AcDbEntity
  8
RACCORDO
100
AcDbCircle
 62
7
  6
CONTINUOUS
 10
-14.4371272391
 20
28.0401716181
 40
0.2
100
AcDbArc
 50
90.0
 51
135.0
  0
ARC
  5
855
100
AcDbEntity
  8
0
100
AcDbCircle
 62
7
  6
CONTINUOUS
 10
0.0800300484
 20
0.0901716181
 40
32.75
100
AcDbArc
 50
220.3110252642
 51
231.1349406575
  0
ARC
  5
856
100
AcDbEntity
  8
0
100
AcDbCircle
 62
7
  6
CONTINUOUS
 10
0.0800300484
 20
0.0901716181
 40
32.75
100
AcDbArc
 50
40.3110252642
 51
51.1349406575
  0
ARC
  5
857
100
AcDbEntity
  8
0
100
AcDbCircle
 62
7
  6
CONTINUOUS
 10
20.5800300484
 20
-19.6598283819
 40
6.5
100
AcDbArc
 50
17.4115998135
 51
27.9849030473
  0
ARC
  5
858
100
AcDbEntity
  8
0
100
AcDbCircle
 62
7
  6
CONTINUOUS
 10
20.5800300484
 20
-19.6598283819
 40
6.5
100
AcDbArc
 50
332.0150969527
 51
342.5884001865
  0
ARC
  5
859
100
AcDbEntity
  8
0
100
AcDbCircle
 62
7
  6
CONTINUOUS
 10
20.5800300484
 20
-19.6598283819
 40
6.4905700828
100
AcDbArc
 50
9.6695775911
 51
17.3701662123
  0
ARC
  5
85A
100
AcDbEntity
  8
0
100
AcDbCircle
 62
7
  6
CONTINUOUS
 10
20.5800300484
 20
-19.6598283819
 40
6.4905700828
100
AcDbArc
 50
342.6298337877
 51
350.3304224089
  0
ARC
  5
85B
100
AcDbEntity
  8
0
100
AcDbCircle
 62
7
  6
CONTINUOUS
 10
-0.7199699516
 20
-18.6098283819
 40
0.2
100
AcDbArc
 50
90.0
 51
180.0
  0
ARC
  5
85C
100
AcDbEntity
  8
0
100
AcDbCircle
 62
7
  6
CONTINUOUS
 10
-0.7199699516
 20
-20.7098283819
 40
0.2
100
AcDbArc
 50
180.0
 51
270.0
  0
ARC
  5
85D
100
AcDbEntity
  8
ASSI
100
AcDbCircle
 62
7
  6
CONTINUOUS
 10
-2.6699699516
 20
30.1901716181
 40
2.0
100
AcDbArc
 50
90.0
 51
270.0
  0
ARC
  5
85E
100
AcDbEntity
  8
ASSI
100
AcDbCircle
 62
7
  6
CONTINUOUS
 10
2.8300300484
 20
30.1901716181
 40
2.0
100
AcDbArc
 50
270.0
 51
90.0
  0
ARC
  5
85F
100
AcDbEntity
  8
0
100
AcDbCircle
 62
7
  6
CONTINUOUS
 10
0.8800300484
 20
18.7901716181
 40
0.2
100
AcDbArc
 50
270.0
 51
360.0
  0
ARC
  5
860
100
AcDbEntity
  8
0
100
AcDbCircle
 62
7
  6
CONTINUOUS
 10
0.8800300484
 20
20.8901716181
 40
0.2
100
AcDbArc
 50
0.0
 51
90.0
  0
ARC
  5
861
100
AcDbEntity
  8
RACCORDO
100
AcDbCircle
 62
7
  6
CONTINUOUS
 10
6.5971873359
 20
27.1401716181
 40
0.2
100
AcDbArc
 50
270.0
 51
315.0
  0
ARC
  5
862
100
AcDbEntity
  8
RACCORDO
100
AcDbCircle
 62
7
  6
CONTINUOUS
 10
-6.4371272391
 20
27.1401716181
 40
0.2
100
AcDbArc
 50
225.0
 51
270.0
  0
ARC
  5
863
100
AcDbEntity
  8
RACCORDO
100
AcDbCircle
 62
7
  6
CONTINUOUS
 10
14.5971873359
 20
28.0401716181
 40
0.2
100
AcDbArc
 50
45.0
 51
90.0
  0
ARC
  5
864
100
AcDbEntity
  8
0
100
AcDbCircle
 62
7
  6
CONTINUOUS
 10
17.7251684254
 20
121.8226993725
 40
153.2215438943
100
AcDbArc
 50
253.7086613406
 51
253.8611962096
  0
ARC
  5
865
100
AcDbEntity
  8
0
100
AcDbCircle
 62
7
  6
CONTINUOUS
 10
-64.4855168375
 20
105.73073128
 40
136.4629729046
100
AcDbArc
 50
286.1294972695
 51
286.3007644509
  0
ARC
  5
866
100
AcDbEntity
  8
0
100
AcDbCircle
 62
7
  6
CONTINUOUS
 10
105.7205897403
 20
13.0557183977
 40
136.4629729037
100
AcDbArc
 50
196.1294972231
 51
196.3007644045
  0
ARC
  5
867
100
AcDbEntity
  8
0
100
AcDbCircle
 62
7
  6
CONTINUOUS
 10
30.5800300484
 20
30.5901716181
 40
8.8291561976
100
AcDbArc
 50
0.0
 51
90.0
  0
ARC
  5
868
100
AcDbEntity
  8
0
100
AcDbCircle
 62
7
  6
CONTINUOUS
 10
30.5800300484
 20
30.5901716181
 40
7.1708438024
100
AcDbArc
 50
0.0
 51
90.0
  0
ARC
  5
869
100
AcDbEntity
  8
RACCORDO
100
AcDbCircle
 62
7
  6
CONTINUOUS
 10
35.3300300484
 20
35.3401716181
 40
6.0
100
AcDbArc
 50
0.0
 51
90.0
  0
ARC
  5
86A
100
AcDbEntity
  8
0
100
AcDbCircle
 62
7
  6
CONTINUOUS
 10
21.0903438476
 20
-19.4770544174
 40
5.9575555424
100
AcDbArc
 50
8.1185534805
 51
8.7610682096
  0
ARC
  5
86B
100
AcDbEntity
  8
0
100
AcDbCircle
 62
7
  6
CONTINUOUS
 10
21.0903440549
 20
-19.8426023856
 40
5.9575553315
100
AcDbArc
 50
351.2389318597
 51
351.8814466116
  0
ARC
  5
86C
100
AcDbEntity
  8
0
100
AcDbCircle
 62
7
  6
CONTINUOUS
 10
21.0967494705
 20
-19.476186204
 40
5.9510914714
100
AcDbArc
 50
4.33098967
 51
8.1189877082
  0
ARC
  5
86D
100
AcDbEntity
  8
0
100
AcDbCircle
 62
7
  6
CONTINUOUS
 10
21.0976212284
 20
-19.8435662758
 40
5.9502147351
100
AcDbArc
 50
351.8807391978
 51
355.6692954437
  0
ARC
  5
86E
100
AcDbEntity
  8
0
100
AcDbCircle
 62
7
  6
CONTINUOUS
 10
21.1022114457
 20
-19.8439612237
 40
5.9456077095
100
AcDbArc
 50
355.6697502809
 51
355.9891560758
  0
ARC
  5
86F
100
AcDbEntity
  8
0
100
AcDbCircle
 62
7
  6
CONTINUOUS
 10
21.1022131503
 20
-19.475695422
 40
5.9456060009
100
AcDbArc
 50
4.0108439379
 51
4.3302498246
  0
ARC
  5
870
100
AcDbEntity
  8
DRAFT
100
AcDbCircle
 62
7
  6
CONTINUOUS
 10
25.8800300484
 20
25.8901716181
 40
3.5
100
AcDbArc
 50
194.9005966878
 51
258.4612459992
  0
ARC
  5
871
100
AcDbEntity
  8
ASSI
100
AcDbCircle
 62
7
  6
CONTINUOUS
 10
30.1800300484
 20
-2.6598283819
 40
2.0
100
AcDbArc
 50
180.0
 51
360.0
  0
ARC
  5
872
100
AcDbEntity
  8
ASSI
100
AcDbCircle
 62
7
  6
CONTINUOUS
 10
30.1800300484
 20
2.8401716181
 40
2.0
100
AcDbArc
 50
0.0
 51
180.0
  0
ARC
  5
873
100
AcDbEntity
  8
RACCORDO
100
AcDbCircle
 62
7
  6
CONTINUOUS
 10
22.2300240887
 20
22.2401784261
 40
0.3999916894
100
AcDbArc
 50
6.0006380774
 51
89.9969646396
  0
ARC
  5
874
100
AcDbEntity
  8
RACCORDO
100
AcDbCircle
 62
7
  6
CONTINUOUS
 10
22.2300264465
 20
-22.059838135
 40
0.3999884399
100
AcDbArc
 50
270.0026976453
 51
353.999746174
  0
ARC
  5
875
100
AcDbEntity
  8
RACCORDO
100
AcDbCircle
 62
7
  6
CONTINUOUS
 10
22.2316103137
 20
22.2400733046
 40
0.3984197508
100
AcDbArc
 50
0.016328527
 51
6.0395191529
  0
ARC
  5
876
100
AcDbEntity
  8
RACCORDO
100
AcDbCircle
 62
7
  6
CONTINUOUS
 10
22.2316103137
 20
-22.0597300684
 40
0.3984197508
100
AcDbArc
 50
353.9604808471
 51
359.983671473
  0
ARC
  5
877
100
AcDbEntity
  8
0
100
AcDbCircle
 62
7
  6
CONTINUOUS
 10
26.1433790115
 20
-16.703623329
 40
0.2
100
AcDbArc
 50
27.9849030473
 51
84.9999999987
  0
ARC
  5
878
100
AcDbEntity
  8
0
100
AcDbCircle
 62
7
  6
CONTINUOUS
 10
26.1433790115
 20
-22.6160334347
 40
0.2
100
AcDbArc
 50
275.0000000013
 51
332.0150969527
  0
ARC
  5
879
100
AcDbEntity
  8
RACCORDO
100
AcDbCircle
 62
7
  6
CONTINUOUS
 10
25.3800300484
 20
17.8230143306
 40
0.2
100
AcDbArc
 50
180.0
 51
225.0
  0
ARC
  5
87A
100
AcDbEntity
  8
RACCORDO
100
AcDbCircle
 62
7
  6
CONTINUOUS
 10
28.0300300484
 20
14.6073289056
 40
0.2
100
AcDbArc
 50
0.0
 51
45.0
  0
ARC
  5
87B
100
AcDbEntity
  8
RACCORDO
100
AcDbCircle
 62
7
  6
CONTINUOUS
 10
28.0300300484
 20
-14.4269856694
 40
0.2
100
AcDbArc
 50
315.0
 51
360.0
  0
LINE
  5
87C
100
AcDbEntity
  8
0
100
AcDbLine
 62
7
  6
CONTINUOUS
 10
-24.6328321328
 20
-26.0601255169
 11
-24.865100768
 21
-26.0591025838
  0
LINE
  5
87D
100
AcDbEntity
  8
0
100
AcDbLine
 62
7
  6
CONTINUOUS
 10
-25.3706957497
 20
-26.5646975655
 11
-25.3696728166
 21
-26.7969662007
  0
SPLINE
  5
87E
100
AcDbEntity
  8
0
100
AcDbSpline
 62
7
  6
CONTINUOUS
 70
0
 71
3
 72
11
 73
7
 74
5
 42
0.0000001
 43
0.0000001
 44
0.0000000001
 12
-0.7000778691
 22
0.0328624877
 32
0.0
 13
-0.7000778691
 23
-0.0328624877
 33
0.0
 40
0.0
 40
0.0
 40
0.0
 40
0.0
 40
0.2505733797
 40
0.5000001177
 40
0.7494268287
 40
1.0
 40
1.0
 40
1.0
 40
1.0
 10
-25.3696728166
 20
-26.7969662007
 30
0.0
 10
-25.4281464425
 20
-26.7942213792
 30
0.0
 10
-25.5448879244
 20
-26.7899516808
 30
0.0
 10
-25.7199700278
 20
-26.7877442271
 30
0.0
 10
-25.8950520824
 20
-26.7899516841
 30
0.0
 10
-26.0117935093
 20
-26.7942213815
 30
0.0
 10
-26.0702670866
 20
-26.7969662007
 30
0.0
 11
-25.3696728166
 21
-26.7969662007
 31
0.0
 11
-25.5451730296
 21
-26.7906443341
 31
0.0
 11
-25.7199700341
 21
-26.7884789199
 31
0.0
 11
-25.8947670196
 21
-26.7906443377
 31
0.0
 11
-26.0702670866
 21
-26.7969662007
 31
0.0
  0
LINE
  5
87F
100
AcDbEntity
  8
0
100
AcDbLine
 62
7
  6
CONTINUOUS
 10
-26.0702670866
 20
-26.7969662007
 11
-26.0692441536
 21
-26.5646975655
  0
LINE
  5
880
100
AcDbEntity
  8
0
100
AcDbLine
 62
7
  6
CONTINUOUS
 10
-26.5748391352
 20
-26.0591025838
 11
-26.8071077705
 21
-26.0601255169
  0
LINE
  5
881
100
AcDbEntity
  8
0
100
AcDbLine
 62
7
  6
CONTINUOUS
 10
-25.3696728166
 20
-24.622690563
 11
-25.3706957497
 21
-24.8549591983
  0
LINE
  5
882
100
AcDbEntity
  8
0
100
AcDbLine
 62
7
  6
CONTINUOUS
 10
-24.865100768
 20
-25.3605541799
 11
-24.6328321328
 21
-25.3595312469
  0
LINE
  5
883
100
AcDbEntity
  8
0
100
AcDbLine
 62
7
  6
CONTINUOUS
 10
-26.8071077705
 20
-25.3595312469
 11
-26.5748391352
 21
-25.3605541799
  0
LINE
  5
884
100
AcDbEntity
  8
0
100
AcDbLine
 62
7
  6
CONTINUOUS
 10
-26.0692441536
 20
-24.8549591983
 11
-26.0702670866
 21
-24.622690563
  0
SPLINE
  5
885
100
AcDbEntity
  8
0
100
AcDbSpline
 62
7
  6
CONTINUOUS
 70
0
 71
3
 72
11
 73
7
 74
5
 42
0.0000001
 43
0.0000001
 44
0.0000000001
 12
0.7000778691
 22
-0.0328624877
 32
0.0
 13
0.7000778691
 23
0.0328624877
 33
0.0
 40
0.0
 40
0.0
 40
0.0
 40
0.0
 40
0.2505733797
 40
0.5000001177
 40
0.7494268287
 40
1.0
 40
1.0
 40
1.0
 40
1.0
 10
-26.0702670866
 20
-24.622690563
 30
0.0
 10
-26.0117934607
 20
-24.6254353846
 30
0.0
 10
-25.8950519788
 20
-24.6297050829
 30
0.0
 10
-25.7199698754
 20
-24.6319125366
 30
0.0
 10
-25.5448878208
 20
-24.6297050797
 30
0.0
 10
-25.4281463939
 20
-24.6254353823
 30
0.0
 10
-25.3696728166
 20
-24.622690563
 30
0.0
 11
-26.0702670866
 21
-24.622690563
 31
0.0
 11
-25.8947668736
 21
-24.6290124296
 31
0.0
 11
-25.7199698691
 21
-24.6311778439
 31
0.0
 11
-25.5451728836
 21
-24.629012426
 31
0.0
 11
-25.3696728166
 21
-24.622690563
 31
0.0
  0
SPLINE
  5
886
100
AcDbEntity
  8
RACCORDO
100
AcDbSpline
 62
7
  6
CONTINUOUS
 70
0
 71
3
 72
10
 73
6
 74
4
 42
0.0000001
 43
0.0000001
 44
0.0000000001
 12
-0.02425238
 22
0.0
 32
0.0
 13
-0.0206120564
 23
-0.0124707151
 33
0.0
 40
0.0
 40
0.0
 40
0.0
 40
0.0
 40
0.3305919386
 40
0.9711651886
 40
1.0
 40
1.0
 40
1.0
 40
1.0
 10
1.8119480367
 20
-22.4599022819
 30
0.0
 10
1.8092754896
 20
-22.4599022819
 30
0.0
 10
1.8019037872
 20
-22.4635614945
 30
0.0
 10
1.7949864993
 20
-22.4674711293
 30
0.0
 10
1.7903859189
 20
-22.4702471709
 30
0.0
 10
1.790187804
 20
-22.4703670345
 30
0.0
 11
1.8119480367
 21
-22.4599022819
 31
0.0
 11
1.8043324927
 21
-22.4624094839
 31
0.0
 11
1.7907823152
 21
-22.4700083093
 31
0.0
 11
1.790187804
 21
-22.4703670345
 31
0.0
  0
SPLINE
  5
887
100
AcDbEntity
  8
RACCORDO
100
AcDbSpline
 62
7
  6
CONTINUOUS
 70
0
 71
3
 72
10
 73
6
 74
4
 42
0.0000001
 43
0.0000001
 44
0.0000000001
 12
0.02425238
 22
0.0
 32
0.0
 13
0.0206120564
 23
0.0124707151
 33
0.0
 40
0.0
 40
0.0
 40
0.0
 40
0.0
 40
0.3305919386
 40
0.9711651886
 40
1.0
 40
1.0
 40
1.0
 40
1.0
 10
-1.6518879399
 20
22.6402455181
 30
0.0
 10
-1.6492153928
 20
22.6402455181
 30
0.0
 10
-1.6418436904
 20
22.6439047307
 30
0.0
 10
-1.6349264025
 20
22.6478143655
 30
0.0
 10
-1.6303258221
 20
22.6505904072
 30
0.0
 10
-1.6301277072
 20
22.6507102707
 30
0.0
 11
-1.6518879399
 21
22.6402455181
 31
0.0
 11
-1.6442723959
 21
22.6427527201
 31
0.0
 11
-1.6307222184
 21
22.6503515455
 31
0.0
 11
-1.6301277072
 21
22.6507102707
 31
0.0
  0
SPLINE
  5
888
100
AcDbEntity
  8
RACCORDO
100
AcDbSpline
 62
7
  6
CONTINUOUS
 70
0
 71
3
 72
10
 73
6
 74
4
 42
0.0000001
 43
0.0000001
 44
0.0000000001
 12
0.0206121529
 22
-0.012470748
 32
0.0
 13
0.0242524875
 23
0.0
 33
0.0
 40
0.0
 40
0.0
 40
0.0
 40
0.0
 40
0.0288304483
 40
0.669400374
 40
1.0
 40
1.0
 40
1.0
 40
1.0
 10
1.7901878029
 20
22.6507102712
 30
0.0
 10
1.7903858888
 20
22.6505904255
 30
0.0
 10
1.7949864378
 20
22.6478144077
 30
0.0
 10
1.8019037606
 20
22.6439047703
 30
0.0
 10
1.8092755123
 20
22.6402454676
 30
0.0
 10
1.8119481334
 20
22.6402454676
 30
0.0
 11
1.7901878029
 21
22.6507102712
 31
0.0
 11
1.790782227
 21
22.6503515993
 31
0.0
 11
1.8043323888
 21
22.6427527701
 31
0.0
 11
1.8119481334
 21
22.6402454676
 31
0.0
  0
SPLINE
  5
889
100
AcDbEntity
  8
RACCORDO
100
AcDbSpline
 62
7
  6
CONTINUOUS
 70
0
 71
3
 72
10
 73
6
 74
4
 42
0.0000001
 43
0.0000001
 44
0.0000000001
 12
0.0
 22
0.0242524875
 32
0.0
 13
0.012470748
 23
0.0206121529
 33
0.0
 40
0.0
 40
0.0
 40
0.0
 40
0.0
 40
0.330599626
 40
0.9711695518
 40
1.0
 40
1.0
 40
1.0
 40
1.0
 10
22.6301038979
 20
9.6082535331
 30
0.0
 10
22.6301038979
 20
9.6109261542
 30
0.0
 10
22.6337632006
 20
9.6182979059
 30
0.0
 10
22.637672838
 20
9.6252152287
 30
0.0
 10
22.6404488558
 20
9.6298157777
 30
0.0
 10
22.6405687015
 20
9.6300138636
 30
0.0
 11
22.6301038979
 21
9.6082535331
 31
0.0
 11
22.6326112004
 21
9.6158692777
 31
0.0
 11
22.6402100295
 21
9.6294194395
 31
0.0
 11
22.6405687015
 21
9.6300138636
 31
0.0
  0
SPLINE
  5
88A
100
AcDbEntity
  8
RACCORDO
100
AcDbSpline
 62
7
  6
CONTINUOUS
 70
0
 71
3
 72
10
 73
6
 74
4
 42
0.0000001
 43
0.0000001
 44
0.0000000001
 12
-0.0124707151
 22
0.0206120564
 32
0.0
 13
0.0
 23
0.02425238
 33
0.0
 40
0.0
 40
0.0
 40
0.0
 40
0.0
 40
0.0288348115
 40
0.6694080614
 40
1.0
 40
1.0
 40
1.0
 40
1.0
 10
22.640568701
 20
13.0503293737
 30
0.0
 10
22.6404488374
 20
13.0505274886
 30
0.0
 10
22.6376727958
 20
13.055128069
 30
0.0
 10
22.633763161
 20
13.0620453569
 30
0.0
 10
22.6301039484
 20
13.0694170593
 30
0.0
 10
22.6301039484
 20
13.0720896064
 30
0.0
 11
22.640568701
 21
13.0503293737
 31
0.0
 11
22.6402099758
 21
13.0509238849
 31
0.0
 11
22.6326111504
 21
13.0644740624
 31
0.0
 11
22.6301039484
 21
13.0720896064
 31
0.0
  0
SPLINE
  5
88B
100
AcDbEntity
  8
RACCORDO
100
AcDbSpline
 62
7
  6
CONTINUOUS
 70
0
 71
3
 72
10
 73
6
 74
4
 42
0.0000001
 43
0.0000001
 44
0.0000000001
 12
0.0124707151
 22
-0.0206120564
 32
0.0
 13
0.0
 23
-0.02425238
 33
0.0
 40
0.0
 40
0.0
 40
0.0
 40
0.0
 40
0.0288348115
 40
0.6694080614
 40
1.0
 40
1.0
 40
1.0
 40
1.0
 10
-22.4805086042
 20
9.6300138625
 30
0.0
 10
-22.4803887407
 20
9.6298157476
 30
0.0
 10
-22.477612699
 20
9.6252151672
 30
0.0
 10
-22.4737030642
 20
9.6182978793
 30
0.0
 10
-22.4700438516
 20
9.6109261769
 30
0.0
 10
-22.4700438516
 20
9.6082536298
 30
0.0
 11
-22.4805086042
 21
9.6300138625
 31
0.0
 11
-22.480149879
 21
9.6294193513
 31
0.0
 11
-22.4725510536
 21
9.6158691738
 31
0.0
 11
-22.4700438516
 21
9.6082536298
 31
0.0
  0
SPLINE
  5
88C
100
AcDbEntity
  8
RACCORDO
100
AcDbSpline
 62
7
  6
CONTINUOUS
 70
0
 71
3
 72
10
 73
6
 74
4
 42
0.0000001
 43
0.0000001
 44
0.0000000001
 12
0.0
 22
-0.0242524875
 32
0.0
 13
-0.012470748
 23
-0.0206121529
 33
0.0
 40
0.0
 40
0.0
 40
0.0
 40
0.0
 40
0.330599626
 40
0.9711695517
 40
1.0
 40
1.0
 40
1.0
 40
1.0
 10
-22.4700438011
 20
13.0720897032
 30
0.0
 10
-22.4700438011
 20
13.0694170821
 30
0.0
 10
-22.4737031038
 20
13.0620453303
 30
0.0
 10
-22.4776127412
 20
13.0551280076
 30
0.0
 10
-22.480388759
 20
13.0505274585
 30
0.0
 10
-22.4805086047
 20
13.0503293727
 30
0.0
 11
-22.4700438011
 21
13.0720897032
 31
0.0
 11
-22.4725511036
 21
13.0644739586
 31
0.0
 11
-22.4801499328
 21
13.0509237967
 31
0.0
 11
-22.4805086047
 21
13.0503293727
 31
0.0
  0
SPLINE
  5
88D
100
AcDbEntity
  8
RACCORDO
100
AcDbSpline
 62
7
  6
CONTINUOUS
 70
0
 71
3
 72
10
 73
6
 74
4
 42
0.0000001
 43
0.0000001
 44
0.0000000001
 12
0.0
 22
0.0242524875
 32
0.0
 13
0.012470748
 23
0.0206121529
 33
0.0
 40
0.0
 40
0.0
 40
0.0
 40
0.0
 40
0.330599626
 40
0.9711695517
 40
1.0
 40
1.0
 40
1.0
 40
1.0
 10
22.6301038979
 20
-12.8917464669
 30
0.0
 10
22.6301038979
 20
-12.8890738458
 30
0.0
 10
22.6337632006
 20
-12.8817020941
 30
0.0
 10
22.637672838
 20
-12.8747847713
 30
0.0
 10
22.6404488558
 20
-12.8701842223
 30
0.0
 10
22.6405687015
 20
-12.8699861364
 30
0.0
 11
22.6301038979
 21
-12.8917464669
 31
0.0
 11
22.6326112004
 21
-12.8841307223
 31
0.0
 11
22.6402100295
 21
-12.8705805605
 31
0.0
 11
22.6405687015
 21
-12.8699861364
 31
0.0
  0
SPLINE
  5
88E
100
AcDbEntity
  8
RACCORDO
100
AcDbSpline
 62
7
  6
CONTINUOUS
 70
0
 71
3
 72
10
 73
6
 74
4
 42
0.0000001
 43
0.0000001
 44
0.0000000001
 12
-0.0124707151
 22
0.0206120564
 32
0.0
 13
0.0
 23
0.02425238
 33
0.0
 40
0.0
 40
0.0
 40
0.0
 40
0.0
 40
0.0288348114
 40
0.6694080614
 40
1.0
 40
1.0
 40
1.0
 40
1.0
 10
22.640568701
 20
-9.4496706263
 30
0.0
 10
22.6404488374
 20
-9.4494725114
 30
0.0
 10
22.6376727958
 20
-9.444871931
 30
0.0
 10
22.633763161
 20
-9.4379546431
 30
0.0
 10
22.6301039484
 20
-9.4305829407
 30
0.0
 10
22.6301039484
 20
-9.4279103936
 30
0.0
 11
22.640568701
 21
-9.4496706263
 31
0.0
 11
22.6402099758
 21
-9.4490761151
 31
0.0
 11
22.6326111504
 21
-9.4355259376
 31
0.0
 11
22.6301039484
 21
-9.4279103936
 31
0.0
  0
SPLINE
  5
88F
100
AcDbEntity
  8
RACCORDO
100
AcDbSpline
 62
7
  6
CONTINUOUS
 70
0
 71
3
 72
10
 73
6
 74
4
 42
0.0000001
 43
0.0000001
 44
0.0000000001
 12
0.0124707151
 22
-0.0206120564
 32
0.0
 13
0.0
 23
-0.02425238
 33
0.0
 40
0.0
 40
0.0
 40
0.0
 40
0.0
 40
0.0288348114
 40
0.6694080614
 40
1.0
 40
1.0
 40
1.0
 40
1.0
 10
-22.4805086042
 20
-12.8699861375
 30
0.0
 10
-22.4803887407
 20
-12.8701842524
 30
0.0
 10
-22.477612699
 20
-12.8747848328
 30
0.0
 10
-22.4737030642
 20
-12.8817021207
 30
0.0
 10
-22.4700438516
 20
-12.8890738231
 30
0.0
 10
-22.4700438516
 20
-12.8917463702
 30
0.0
 11
-22.4805086042
 21
-12.8699861375
 31
0.0
 11
-22.480149879
 21
-12.8705806487
 31
0.0
 11
-22.4725510536
 21
-12.8841308262
 31
0.0
 11
-22.4700438516
 21
-12.8917463702
 31
0.0
  0
SPLINE
  5
890
100
AcDbEntity
  8
RACCORDO
100
AcDbSpline
 62
7
  6
CONTINUOUS
 70
0
 71
3
 72
10
 73
6
 74
4
 42
0.0000001
 43
0.0000001
 44
0.0000000001
 12
0.0
 22
-0.0242524875
 32
0.0
 13
-0.012470748
 23
-0.0206121529
 33
0.0
 40
0.0
 40
0.0
 40
0.0
 40
0.0
 40
0.330599626
 40
0.9711695518
 40
1.0
 40
1.0
 40
1.0
 40
1.0
 10
-22.4700438011
 20
-9.4279102968
 30
0.0
 10
-22.4700438011
 20
-9.4305829179
 30
0.0
 10
-22.4737031038
 20
-9.4379546697
 30
0.0
 10
-22.4776127412
 20
-9.4448719924
 30
0.0
 10
-22.480388759
 20
-9.4494725415
 30
0.0
 10
-22.4805086047
 20
-9.4496706273
 30
0.0
 11
-22.4700438011
 21
-9.4279102968
 31
0.0
 11
-22.4725511036
 21
-9.4355260414
 31
0.0
 11
-22.4801499328
 21
-9.4490762033
 31
0.0
 11
-22.4805086047
 21
-9.4496706273
 31
0.0
  0
SPLINE
  5
891
100
AcDbEntity
  8
RACCORDO
100
AcDbSpline
 62
7
  6
CONTINUOUS
 70
0
 71
3
 72
10
 73
6
 74
4
 42
0.0000001
 43
0.0000001
 44
0.0000000001
 12
-0.0206121529
 22
0.012470748
 32
0.0
 13
-0.0242524875
 23
0.0
 33
0.0
 40
0.0
 40
0.0
 40
0.0
 40
0.0
 40
0.0288304483
 40
0.669400374
 40
1.0
 40
1.0
 40
1.0
 40
1.0
 10
-1.6301277062
 20
-22.470367035
 30
0.0
 10
-1.630325792
 20
-22.4702471893
 30
0.0
 10
-1.634926341
 20
-22.4674711715
 30
0.0
 10
-1.6418436638
 20
-22.4635615341
 30
0.0
 10
-1.6492154156
 20
-22.4599022314
 30
0.0
 10
-1.6518880367
 20
-22.4599022314
 30
0.0
 11
-1.6301277062
 21
-22.470367035
 31
0.0
 11
-1.6307221302
 21
-22.470008363
 31
0.0
 11
-1.6442722921
 21
-22.4624095339
 31
0.0
 11
-1.6518880367
 21
-22.4599022314
 31
0.0
  0
SPLINE
  5
892
100
AcDbEntity
  8
SMUSSO
100
AcDbSpline
 62
7
  6
CONTINUOUS
 70
0
 71
3
 72
11
 73
7
 74
5
 42
0.0000001
 43
0.0000001
 44
0.0000000001
 12
0.1128774654
 22
0.332649706
 32
0.0
 13
0.003822365
 23
0.3513614063
 33
0.0
 40
0.0
 40
0.0
 40
0.0
 40
0.0
 40
0.1067102491
 40
0.38241824
 40
0.8247904989
 40
1.0
 40
1.0
 40
1.0
 40
1.0
 10
-22.5437482818
 20
17.9890100835
 30
0.0
 10
-22.539733221
 20
18.0008424612
 30
0.0
 10
-22.5427102292
 20
18.0468648458
 30
0.0
 10
-22.5358555899
 20
18.1422825676
 30
0.0
 10
-22.5358341033
 20
18.2472824788
 30
0.0
 10
-22.5351531189
 20
18.3196535233
 30
0.0
 10
-22.5349298807
 20
18.3401741422
 30
0.0
 11
-22.5437482818
 21
17.9890100835
 31
0.0
 11
-22.5409153674
 21
18.0263879843
 31
0.0
 11
-22.5381179161
 21
18.1231980858
 31
0.0
 11
-22.535485898
 21
18.2785720133
 31
0.0
 11
-22.5349298807
 21
18.3401741422
 31
0.0
  0
SPLINE
  5
893
100
AcDbEntity
  8
SMUSSO
100
AcDbSpline
 62
7
  6
CONTINUOUS
 70
0
 71
3
 72
11
 73
7
 74
5
 42
0.0000001
 43
0.0000001
 44
0.0000000001
 12
-0.0038199229
 22
0.3513623709
 32
0.0
 13
-0.1123705396
 23
0.3328219791
 33
0.0
 40
0.0
 40
0.0
 40
0.0
 40
0.0
 40
0.1745624101
 40
0.6171820118
 40
0.8931522194
 40
1.0
 40
1.0
 40
1.0
 40
1.0
 10
-22.5349277991
 20
21.3401691201
 30
0.0
 10
-22.5351500707
 20
21.3606140075
 30
0.0
 10
-22.5358313988
 20
21.4329379106
 30
0.0
 10
-22.5358644867
 20
21.5379174858
 30
0.0
 10
-22.5426897928
 20
21.6334220922
 30
0.0
 10
-22.5397461009
 20
21.6794793895
 30
0.0
 10
-22.5437482818
 20
21.6913331527
 30
0.0
 11
-22.5349277991
 21
21.3401691201
 31
0.0
 11
-22.5354828061
 21
21.4015433647
 31
0.0
 11
-22.5381148936
 21
21.557004479
 31
0.0
 11
-22.5409134112
 21
21.6539068797
 31
0.0
 11
-22.5437482818
 21
21.6913331527
 31
0.0
  0
SPLINE
  5
894
100
AcDbEntity
  8
SMUSSO
100
AcDbSpline
 62
7
  6
CONTINUOUS
 70
0
 71
3
 72
11
 73
7
 74
5
 42
0.0000001
 43
0.0000001
 44
0.0000000001
 12
-0.1128774654
 22
-0.332649706
 32
0.0
 13
-0.003822365
 23
-0.3513614063
 33
0.0
 40
0.0
 40
0.0
 40
0.0
 40
0.0
 40
0.1067102491
 40
0.38241824
 40
0.8247904989
 40
1.0
 40
1.0
 40
1.0
 40
1.0
 10
22.7038083786
 20
-17.8086668473
 30
0.0
 10
22.6997933177
 20
-17.8204992249
 30
0.0
 10
22.702770326
 20
-17.8665216095
 30
0.0
 10
22.6959156867
 20
-17.9619393314
 30
0.0
 10
22.6958942001
 20
-18.0669392425
 30
0.0
 10
22.6952132157
 20
-18.1393102871
 30
0.0
 10
22.6949899774
 20
-18.159830906
 30
0.0
 11
22.7038083786
 21
-17.8086668473
 31
0.0
 11
22.7009754642
 21
-17.8460447481
 31
0.0
 11
22.6981780129
 21
-17.9428548495
 31
0.0
 11
22.6955459948
 21
-18.0982287771
 31
0.0
 11
22.6949899774
 21
-18.159830906
 31
0.0
  0
SPLINE
  5
895
100
AcDbEntity
  8
SMUSSO
100
AcDbSpline
 62
7
  6
CONTINUOUS
 70
0
 71
3
 72
11
 73
7
 74
5
 42
0.0000001
 43
0.0000001
 44
0.0000000001
 12
0.0038199229
 22
-0.3513623709
 32
0.0
 13
0.1123705396
 23
-0.3328219791
 33
0.0
 40
0.0
 40
0.0
 40
0.0
 40
0.0
 40
0.1745624101
 40
0.6171820118
 40
0.8931522194
 40
1.0
 40
1.0
 40
1.0
 40
1.0
 10
22.6949878959
 20
-21.1598258839
 30
0.0
 10
22.6952101675
 20
-21.1802707713
 30
0.0
 10
22.6958914956
 20
-21.2525946744
 30
0.0
 10
22.6959245835
 20
-21.3575742496
 30
0.0
 10
22.7027498896
 20
-21.4530788559
 30
0.0
 10
22.6998061976
 20
-21.4991361532
 30
0.0
 10
22.7038083786
 20
-21.5109899165
 30
0.0
 11
22.6949878959
 21
-21.1598258839
 31
0.0
 11
22.6955429029
 21
-21.2212001285
 31
0.0
 11
22.6981749904
 21
-21.3766612428
 31
0.0
 11
22.700973508
 21
-21.4735636435
 31
0.0
 11
22.7038083786
 21
-21.5109899165
 31
0.0
  0
LINE
  5
896
100
AcDbEntity
  8
RACCORDO
100
AcDbLine
 62
7
  6
CONTINUOUS
 10
6.638702938
 20
24.7981659039
 11
6.6386440225
 21
24.7160883291
  0
SPLINE
  5
897
100
AcDbEntity
  8
SMUSSO
100
AcDbSpline
 62
7
  6
CONTINUOUS
 70
0
 71
3
 72
10
 73
6
 74
4
 42
0.0000001
 43
0.0000001
 44
0.0000000001
 12
0.1169819748
 22
0.1732269519
 32
0.0
 13
0.0059963211
 23
0.2094358129
 33
0.0
 40
0.0
 40
0.0
 40
0.0
 40
0.0
 40
0.1811168114
 40
0.6455344666
 40
1.0
 40
1.0
 40
1.0
 40
1.0
 10
24.9092184685
 20
-21.5109899165
 30
0.0
 10
24.9162809359
 20
-21.5005318121
 30
0.0
 10
24.9125031163
 20
-21.4516821828
 30
0.0
 10
24.9209771865
 20
-21.3846327892
 30
0.0
 10
24.9234951128
 20
-21.32781115
 30
0.0
 10
24.9242036092
 20
-21.3030652243
 30
0.0
 11
24.9092184685
 21
-21.5109899165
 31
0.0
 11
24.9148890611
 21
-21.4735586739
 31
0.0
 11
24.920486835
 21
-21.3766442932
 31
0.0
 11
24.9242036092
 21
-21.3030652243
 31
0.0
  0
SPLINE
  5
898
100
AcDbEntity
  8
SMUSSO
100
AcDbSpline
 62
7
  6
CONTINUOUS
 70
0
 71
3
 72
10
 73
6
 74
4
 42
0.0000001
 43
0.0000001
 44
0.0000000001
 12
-0.0059773306
 22
0.209450275
 32
0.0
 13
-0.1173873736
 23
0.1729566667
 33
0.0
 40
0.0
 40
0.0
 40
0.0
 40
0.0
 40
0.3551491987
 40
0.8191177878
 40
1.0
 40
1.0
 40
1.0
 40
1.0
 10
24.9242082367
 20
-18.0165914016
 30
0.0
 10
24.923500622
 20
-17.9917960358
 30
0.0
 10
24.9209830574
 20
-17.9349569234
 30
0.0
 10
24.9124757072
 20
-17.8679290748
 30
0.0
 10
24.9162962311
 20
-17.8190951088
 30
0.0
 10
24.9092184685
 20
-17.8086668473
 30
0.0
 11
24.9242082367
 21
-18.0165914016
 31
0.0
 11
24.9204807903
 21
-17.9428718039
 31
0.0
 11
24.9148851487
 21
-17.8460497175
 31
0.0
 11
24.9092184685
 21
-17.8086668473
 31
0.0
  0
SPLINE
  5
899
100
AcDbEntity
  8
SMUSSO
100
AcDbSpline
 62
7
  6
CONTINUOUS
 70
0
 71
3
 72
10
 73
6
 74
4
 42
0.0000001
 43
0.0000001
 44
0.0000000001
 12
-0.1169819748
 22
-0.1732269519
 32
0.0
 13
-0.0059963211
 23
-0.2094358129
 33
0.0
 40
0.0
 40
0.0
 40
0.0
 40
0.0
 40
0.1811168114
 40
0.6455344666
 40
1.0
 40
1.0
 40
1.0
 40
1.0
 10
-24.7491583717
 20
21.6913331527
 30
0.0
 10
-24.7562208391
 20
21.6808750483
 30
0.0
 10
-24.7524430196
 20
21.6320254191
 30
0.0
 10
-24.7609170898
 20
21.5649760255
 30
0.0
 10
-24.763435016
 20
21.5081543862
 30
0.0
 10
-24.7641435124
 20
21.4834084605
 30
0.0
 11
-24.7491583717
 21
21.6913331527
 31
0.0
 11
-24.7548289643
 21
21.6539019101
 31
0.0
 11
-24.7604267382
 21
21.5569875294
 31
0.0
 11
-24.7641435124
 21
21.4834084605
 31
0.0
  0
SPLINE
  5
89A
100
AcDbEntity
  8
SMUSSO
100
AcDbSpline
 62
7
  6
CONTINUOUS
 70
0
 71
3
 72
10
 73
6
 74
4
 42
0.0000001
 43
0.0000001
 44
0.0000000001
 12
0.0059773306
 22
-0.209450275
 32
0.0
 13
0.1173873736
 23
-0.1729566667
 33
0.0
 40
0.0
 40
0.0
 40
0.0
 40
0.0
 40
0.3551491987
 40
0.8191177878
 40
1.0
 40
1.0
 40
1.0
 40
1.0
 10
-24.7641481399
 20
18.1969346378
 30
0.0
 10
-24.7634405252
 20
18.172139272
 30
0.0
 10
-24.7609229606
 20
18.1153001596
 30
0.0
 10
-24.7524156104
 20
18.048272311
 30
0.0
 10
-24.7562361343
 20
17.999438345
 30
0.0
 10
-24.7491583717
 20
17.9890100835
 30
0.0
 11
-24.7641481399
 21
18.1969346378
 31
0.0
 11
-24.7604206935
 21
18.1232150402
 31
0.0
 11
-24.7548250519
 21
18.0263929537
 31
0.0
 11
-24.7491583717
 21
17.9890100835
 31
0.0
  0
SPLINE
  5
89B
100
AcDbEntity
  8
SMUSSO
100
AcDbSpline
 62
7
  6
CONTINUOUS
 70
0
 71
3
 72
9
 73
5
 74
3
 42
0.0000001
 43
0.0000001
 44
0.0000000001
 12
-0.0304245307
 22
-0.0388336469
 32
0.0
 13
-0.0020224257
 23
-0.050382883
 33
0.0
 40
0.0
 40
0.0
 40
0.0
 40
0.0
 40
0.6454380565
 40
1.0
 40
1.0
 40
1.0
 40
1.0
 10
-24.4474082378
 20
21.3896404718
 30
0.0
 10
-24.4539539545
 20
21.3812855673
 30
0.0
 10
-24.4528452146
 20
21.3631472147
 30
0.0
 10
-24.4531579621
 20
21.3460739255
 30
0.0
 10
-24.4533969872
 20
21.3401193078
 30
0.0
 11
-24.4474082378
 21
21.3896404718
 31
0.0
 11
-24.4531148865
 21
21.3583148962
 31
0.0
 11
-24.4533969872
 21
21.3401193078
 31
0.0
  0
SPLINE
  5
89C
100
AcDbEntity
  8
SMUSSO
100
AcDbSpline
 62
7
  6
CONTINUOUS
 70
0
 71
3
 72
9
 73
5
 74
3
 42
0.0000001
 43
0.0000001
 44
0.0000000001
 12
0.0020500227
 22
-0.0503715372
 32
0.0
 13
0.0303099183
 23
-0.0389329699
 33
0.0
 40
0.0
 40
0.0
 40
0.0
 40
0.0
 40
0.3554306844
 40
1.0
 40
1.0
 40
1.0
 40
1.0
 10
-24.4534053181
 20
18.3402242678
 30
0.0
 10
-24.4531624378
 20
18.3342564045
 30
0.0
 10
-24.4528373557
 20
18.3171893401
 30
0.0
 10
-24.4539205189
 20
18.2990677637
 30
0.0
 10
-24.4474082378
 20
18.2907027644
 30
0.0
 11
-24.4534053181
 21
18.3402242678
 31
0.0
 11
-24.4531092545
 21
18.3219908702
 31
0.0
 11
-24.4474082378
 21
18.2907027644
 31
0.0
  0
SPLINE
  5
89D
100
AcDbEntity
  8
SMUSSO
100
AcDbSpline
 62
7
  6
CONTINUOUS
 70
0
 71
3
 72
9
 73
5
 74
3
 42
0.0000001
 43
0.0000001
 44
0.0000000001
 12
0.0175530537
 22
0.0461558625
 32
0.0
 13
0.0007553028
 23
0.0497105935
 33
0.0
 40
0.0
 40
0.0
 40
0.0
 40
0.0
 40
0.6361772764
 40
1.0
 40
1.0
 40
1.0
 40
1.0
 10
-22.8455328892
 20
18.2907027644
 30
0.0
 10
-22.8418106046
 20
18.3004905347
 30
0.0
 10
-22.8427960681
 20
18.3174943309
 30
0.0
 10
-22.8427998315
 20
18.334155661
 30
0.0
 10
-22.8427082328
 20
18.3401842755
 30
0.0
 11
-22.8455328892
 21
18.2907027644
 31
0.0
 11
-22.8426671484
 21
18.3219867888
 31
0.0
 11
-22.8427082328
 21
18.3401842755
 31
0.0
  0
SPLINE
  5
89E
100
AcDbEntity
  8
SMUSSO
100
AcDbSpline
 62
7
  6
CONTINUOUS
 70
0
 71
3
 72
9
 73
5
 74
3
 42
0.0000001
 43
0.0000001
 44
0.0000000001
 12
-0.0007217257
 22
0.0497159257
 32
0.0
 13
-0.0177492911
 23
0.0460734188
 33
0.0
 40
0.0
 40
0.0
 40
0.0
 40
0.0
 40
0.3629718076
 40
1.0
 40
1.0
 40
1.0
 40
1.0
 10
-22.8427237492
 20
21.3401592793
 30
0.0
 10
-22.8428110712
 20
21.3461744391
 30
0.0
 10
-22.8427900949
 20
21.3628399143
 30
0.0
 10
-22.8417639563
 20
21.3798571163
 30
0.0
 10
-22.8455328892
 20
21.3896404718
 30
0.0
 11
-22.8427237492
 21
21.3401592793
 31
0.0
 11
-22.8426634149
 21
21.3583189739
 31
0.0
 11
-22.8455328892
 21
21.3896404718
 31
0.0
  0
SPLINE
  5
89F
100
AcDbEntity
  8
SMUSSO
100
AcDbSpline
 62
7
  6
CONTINUOUS
 70
0
 71
3
 72
9
 73
5
 74
3
 42
0.0000001
 43
0.0000001
 44
0.0000000001
 12
0.0304245307
 22
0.0388336469
 32
0.0
 13
0.0020224257
 23
0.050382883
 33
0.0
 40
0.0
 40
0.0
 40
0.0
 40
0.0
 40
0.6454380565
 40
1.0
 40
1.0
 40
1.0
 40
1.0
 10
24.6074683346
 20
-21.2092972356
 30
0.0
 10
24.6140140512
 20
-21.2009423311
 30
0.0
 10
24.6129053114
 20
-21.1828039785
 30
0.0
 10
24.6132180589
 20
-21.1657306892
 30
0.0
 10
24.6134570839
 20
-21.1597760716
 30
0.0
 11
24.6074683346
 21
-21.2092972356
 31
0.0
 11
24.6131749833
 21
-21.17797166
 31
0.0
 11
24.6134570839
 21
-21.1597760716
 31
0.0
  0
SPLINE
  5
8A0
100
AcDbEntity
  8
SMUSSO
100
AcDbSpline
 62
7
  6
CONTINUOUS
 70
0
 71
3
 72
9
 73
5
 74
3
 42
0.0000001
 43
0.0000001
 44
0.0000000001
 12
-0.0020500227
 22
0.0503715372
 32
0.0
 13
-0.0303099183
 23
0.0389329699
 33
0.0
 40
0.0
 40
0.0
 40
0.0
 40
0.0
 40
0.3554306844
 40
1.0
 40
1.0
 40
1.0
 40
1.0
 10
24.6134654149
 20
-18.1598810316
 30
0.0
 10
24.6132225346
 20
-18.1539131683
 30
0.0
 10
24.6128974524
 20
-18.1368461039
 30
0.0
 10
24.6139806157
 20
-18.1187245274
 30
0.0
 10
24.6074683346
 20
-18.1103595282
 30
0.0
 11
24.6134654149
 21
-18.1598810316
 31
0.0
 11
24.6131693513
 21
-18.141647634
 31
0.0
 11
24.6074683346
 21
-18.1103595282
 31
0.0
  0
SPLINE
  5
8A1
100
AcDbEntity
  8
SMUSSO
100
AcDbSpline
 62
7
  6
CONTINUOUS
 70
0
 71
3
 72
9
 73
5
 74
3
 42
0.0000001
 43
0.0000001
 44
0.0000000001
 12
-0.0175530537
 22
-0.0461558625
 32
0.0
 13
-0.0007553028
 23
-0.0497105935
 33
0.0
 40
0.0
 40
0.0
 40
0.0
 40
0.0
 40
0.6361772764
 40
1.0
 40
1.0
 40
1.0
 40
1.0
 10
23.005592986
 20
-18.1103595282
 30
0.0
 10
23.0018707013
 20
-18.1201472985
 30
0.0
 10
23.0028561649
 20
-18.1371510947
 30
0.0
 10
23.0028599283
 20
-18.1538124247
 30
0.0
 10
23.0027683296
 20
-18.1598410392
 30
0.0
 11
23.005592986
 21
-18.1103595282
 31
0.0
 11
23.0027272452
 21
-18.1416435526
 31
0.0
 11
23.0027683296
 21
-18.1598410392
 31
0.0
  0
SPLINE
  5
8A2
100
AcDbEntity
  8
SMUSSO
100
AcDbSpline
 62
7
  6
CONTINUOUS
 70
0
 71
3
 72
9
 73
5
 74
3
 42
0.0000001
 43
0.0000001
 44
0.0000000001
 12
0.0007217257
 22
-0.0497159257
 32
0.0
 13
0.0177492911
 23
-0.0460734188
 33
0.0
 40
0.0
 40
0.0
 40
0.0
 40
0.0
 40
0.3629718076
 40
1.0
 40
1.0
 40
1.0
 40
1.0
 10
23.0027838459
 20
-21.1598160431
 30
0.0
 10
23.002871168
 20
-21.1658312029
 30
0.0
 10
23.0028501917
 20
-21.1824966781
 30
0.0
 10
23.001824053
 20
-21.19951388
 30
0.0
 10
23.005592986
 20
-21.2092972356
 30
0.0
 11
23.0027838459
 21
-21.1598160431
 31
0.0
 11
23.0027235117
 21
-21.1779757377
 31
0.0
 11
23.005592986
 21
-21.2092972356
 31
0.0
  0
SPLINE
  5
8A3
100
AcDbEntity
  8
RACCORDO
100
AcDbSpline
 62
7
  6
CONTINUOUS
 70
0
 71
3
 72
9
 73
5
 74
3
 42
0.0000001
 43
0.0000001
 44
0.0000000001
 12
0.0012162443
 22
-0.0045390855
 32
0.0
 13
-0.0046743486
 23
-0.0004827139
 33
0.0
 40
0.0
 40
0.0
 40
0.0
 40
0.0
 40
0.541270845
 40
1.0
 40
1.0
 40
1.0
 40
1.0
 10
1.8140324276
 20
22.6436577689
 30
0.0
 10
1.8142518668
 20
22.6428388107
 30
0.0
 10
1.8145207987
 20
22.6408574371
 30
0.0
 10
1.8126628868
 20
22.6403192792
 30
0.0
 10
1.8119481334
 20
22.6402454676
 30
0.0
 11
1.8140324276
 21
22.6436577689
 31
0.0
 11
1.8139198866
 21
22.641116716
 31
0.0
 11
1.8119481334
 21
22.6402454676
 31
0.0
  0
SPLINE
  5
8A4
100
AcDbEntity
  8
RACCORDO
100
AcDbSpline
 62
7
  6
CONTINUOUS
 70
0
 71
3
 72
9
 73
5
 74
3
 42
0.0000001
 43
0.0000001
 44
0.0000000001
 12
-0.0046743536
 22
0.0004827074
 32
0.0
 13
0.0012162454
 23
0.0045390896
 33
0.0
 40
0.0
 40
0.0
 40
0.0
 40
0.0
 40
0.4592653084
 40
1.0
 40
1.0
 40
1.0
 40
1.0
 10
-1.6518879399
 20
22.6402455181
 30
0.0
 10
-1.6526035294
 20
22.640319415
 30
0.0
 10
-1.6544616755
 20
22.6408593522
 30
0.0
 10
-1.6541915529
 20
22.6428396211
 30
0.0
 10
-1.6539723309
 20
22.6436577689
 30
0.0
 11
-1.6518879399
 21
22.6402455181
 31
0.0
 11
-1.6538613892
 21
22.6411191653
 31
0.0
 11
-1.6539723309
 21
22.6436577689
 31
0.0
  0
SPLINE
  5
8A5
100
AcDbEntity
  8
DRAFT
100
AcDbSpline
 62
7
  6
CONTINUOUS
 70
0
 71
3
 72
21
 73
17
 74
15
 42
0.0000001
 43
0.0000001
 44
0.0000000001
 12
-0.395677252
 22
-1.4766876079
 32
0.0
 13
-0.2654697753
 23
1.5055539105
 33
0.0
 40
0.0
 40
0.0
 40
0.0
 40
0.0
 40
0.0120418111
 40
0.0481129502
 40
0.1066131679
 40
0.185521948
 40
0.2826477246
 40
0.3915706987
 40
0.5033820562
 40
0.6146485246
 40
0.7219320622
 40
0.8171544483
 40
0.894603793
 40
0.9522752883
 40
0.9880292185
 40
1.0
 40
1.0
 40
1.0
 40
1.0
 10
-1.9535513317
 20
22.6684340399
 30
0.0
 10
-1.9551395553
 20
22.6625067088
 30
0.0
 10
-1.911964135
 20
22.6735040187
 30
0.0
 10
-1.8754823534
 20
22.6608634992
 30
0.0
 10
-1.7772372229
 20
22.6660488207
 30
0.0
 10
-1.6618715126
 20
22.6623722392
 30
0.0
 10
-1.5151531762
 20
22.6625729128
 30
0.0
 10
-1.3536484966
 20
22.6617822375
 30
0.0
 10
-1.1843601931
 20
22.6617456077
 30
0.0
 10
-1.0159193836
 20
22.6618067096
 30
0.0
 10
-0.8564568666
 20
22.6626173959
 30
0.0
 10
-0.7124231113
 20
22.6624239048
 30
0.0
 10
-0.5988256225
 20
22.6661024503
 30
0.0
 10
-0.5027340972
 20
22.6608699283
 30
0.0
 10
-0.4654722446
 20
22.6736481718
 30
0.0
 10
-0.4238987827
 20
22.6624531267
 30
0.0
 10
-0.4249580763
 20
22.668460679
 30
0.0
 11
-1.9535513317
 21
22.6684340399
 31
0.0
 11
-1.9352007372
 21
22.6669653497
 31
0.0
 11
-1.8800736959
 21
22.6655652453
 31
0.0
 11
-1.7906486564
 21
22.6643039513
 31
0.0
 11
-1.6700192471
 21
22.6632372042
 31
0.0
 11
-1.5215376075
 21
22.6624184803
 31
0.0
 11
-1.3550191516
 21
22.6619171922
 31
0.0
 11
-1.18408431
 21
22.661762096
 31
0.0
 11
-1.0139825098
 21
22.6619433269
 31
0.0
 11
-0.8499704578
 21
22.6624624278
 31
0.0
 11
-0.704398758
 21
22.6632865197
 31
0.0
 11
-0.5860005626
 21
22.6643499555
 31
0.0
 11
-0.4978424978
 21
22.6656051493
 31
0.0
 11
-0.443200444
 21
22.6670008473
 31
0.0
 11
-0.4249580763
 21
22.668460679
 31
0.0
  0
SPLINE
  5
8A6
100
AcDbEntity
  8
DRAFT
100
AcDbSpline
 62
7
  6
CONTINUOUS
 70
0
 71
3
 72
21
 73
17
 74
15
 42
0.0000001
 43
0.0000001
 44
0.0000000001
 12
-0.2654697753
 22
-1.5055539105
 32
0.0
 13
-0.395677252
 23
1.4766876079
 33
0.0
 40
0.0
 40
0.0
 40
0.0
 40
0.0
 40
0.0119707815
 40
0.0477247117
 40
0.105396207
 40
0.1828455517
 40
0.2780679378
 40
0.3853514754
 40
0.4966179438
 40
0.6084293013
 40
0.7173522754
 40
0.814478052
 40
0.8933868321
 40
0.9518870498
 40
0.9879581889
 40
1.0
 40
1.0
 40
1.0
 40
1.0
 10
0.5850181731
 20
22.668460679
 30
0.0
 10
0.5839588795
 20
22.6624531267
 30
0.0
 10
0.6255323414
 20
22.6736481718
 30
0.0
 10
0.662794194
 20
22.6608699283
 30
0.0
 10
0.7588857193
 20
22.6661024503
 30
0.0
 10
0.8724832081
 20
22.6624239048
 30
0.0
 10
1.0165169634
 20
22.6626173959
 30
0.0
 10
1.1759794804
 20
22.6618067096
 30
0.0
 10
1.3444202899
 20
22.6617456077
 30
0.0
 10
1.5137085934
 20
22.6617822375
 30
0.0
 10
1.675213273
 20
22.6625729128
 30
0.0
 10
1.8219316093
 20
22.6623722392
 30
0.0
 10
1.9372973197
 20
22.6660488207
 30
0.0
 10
2.0355424501
 20
22.6608634992
 30
0.0
 10
2.0720242318
 20
22.6735040187
 30
0.0
 10
2.1151996521
 20
22.6625067088
 30
0.0
 10
2.1136114285
 20
22.6684340399
 30
0.0
 11
0.5850181731
 21
22.668460679
 31
0.0
 11
0.6032605408
 21
22.6670008473
 31
0.0
 11
0.6579025946
 21
22.6656051493
 31
0.0
 11
0.7460606594
 21
22.6643499555
 31
0.0
 11
0.8644588547
 21
22.6632865197
 31
0.0
 11
1.0100305545
 21
22.6624624278
 31
0.0
 11
1.1740426066
 21
22.6619433269
 31
0.0
 11
1.3441444068
 21
22.661762096
 31
0.0
 11
1.5150792484
 21
22.6619171922
 31
0.0
 11
1.6815977043
 21
22.6624184803
 31
0.0
 11
1.8300793439
 21
22.6632372042
 31
0.0
 11
1.9507087532
 21
22.6643039513
 31
0.0
 11
2.0401337927
 21
22.6655652453
 31
0.0
 11
2.095260834
 21
22.6669653497
 31
0.0
 11
2.1136114285
 21
22.6684340399
 31
0.0
  0
SPLINE
  5
8A7
100
AcDbEntity
  8
RACCORDO
100
AcDbSpline
 62
7
  6
CONTINUOUS
 70
0
 71
3
 72
9
 73
5
 74
3
 42
0.0000001
 43
0.0000001
 44
0.0000000001
 12
-0.0045390855
 22
-0.0012162443
 32
0.0
 13
-0.0004827139
 23
0.0046743486
 33
0.0
 40
0.0
 40
0.0
 40
0.0
 40
0.0
 40
0.5412708451
 40
1.0
 40
1.0
 40
1.0
 40
1.0
 10
22.6335161992
 20
9.6061692389
 30
0.0
 10
22.6326972409
 20
9.6059497997
 30
0.0
 10
22.6307158674
 20
9.6056808678
 30
0.0
 10
22.6301777095
 20
9.6075387797
 30
0.0
 10
22.6301038979
 20
9.6082535331
 30
0.0
 11
22.6335161992
 21
9.6061692389
 31
0.0
 11
22.6309751463
 21
9.6062817799
 31
0.0
 11
22.6301038979
 21
9.6082535331
 31
0.0
  0
SPLINE
  5
8A8
100
AcDbEntity
  8
RACCORDO
100
AcDbSpline
 62
7
  6
CONTINUOUS
 70
0
 71
3
 72
9
 73
5
 74
3
 42
0.0000001
 43
0.0000001
 44
0.0000000001
 12
0.0004827074
 22
0.0046743536
 32
0.0
 13
0.0045390896
 23
-0.0012162454
 33
0.0
 40
0.0
 40
0.0
 40
0.0
 40
0.0
 40
0.4592653084
 40
1.0
 40
1.0
 40
1.0
 40
1.0
 10
22.6301039484
 20
13.0720896064
 30
0.0
 10
22.6301778453
 20
13.0728051959
 30
0.0
 10
22.6307177825
 20
13.074663342
 30
0.0
 10
22.6326980514
 20
13.0743932194
 30
0.0
 10
22.6335161992
 20
13.0741739974
 30
0.0
 11
22.6301039484
 21
13.0720896064
 31
0.0
 11
22.6309775956
 21
13.0740630557
 31
0.0
 11
22.6335161992
 21
13.0741739974
 31
0.0
  0
SPLINE
  5
8A9
100
AcDbEntity
  8
DRAFT
100
AcDbSpline
 62
7
  6
CONTINUOUS
 70
0
 71
3
 72
21
 73
17
 74
15
 42
0.0000001
 43
0.0000001
 44
0.0000000001
 12
-1.4766876079
 22
0.395677252
 32
0.0
 13
1.5055539105
 23
0.2654697753
 33
0.0
 40
0.0
 40
0.0
 40
0.0
 40
0.0
 40
0.0120418111
 40
0.0481129502
 40
0.1066131679
 40
0.185521948
 40
0.2826477246
 40
0.3915706987
 40
0.5033820562
 40
0.6146485246
 40
0.7219320622
 40
0.8171544483
 40
0.894603793
 40
0.9522752883
 40
0.9880292185
 40
1.0
 40
1.0
 40
1.0
 40
1.0
 10
22.6582924702
 20
13.3737529982
 30
0.0
 10
22.6523651391
 20
13.3753412218
 30
0.0
 10
22.6633624489
 20
13.3321658015
 30
0.0
 10
22.6507219295
 20
13.2956840199
 30
0.0
 10
22.6559072509
 20
13.1974388894
 30
0.0
 10
22.6522306695
 20
13.0820731791
 30
0.0
 10
22.6524313431
 20
12.9353548427
 30
0.0
 10
22.6516406678
 20
12.7738501631
 30
0.0
 10
22.651604038
 20
12.6045618596
 30
0.0
 10
22.6516651398
 20
12.4361210501
 30
0.0
 10
22.6524758261
 20
12.2766585331
 30
0.0
 10
22.6522823351
 20
12.1326247778
 30
0.0
 10
22.6559608806
 20
12.019027289
 30
0.0
 10
22.6507283586
 20
11.9229357637
 30
0.0
 10
22.663506602
 20
11.8856739111
 30
0.0
 10
22.652311557
 20
11.8441004492
 30
0.0
 10
22.6583191093
 20
11.8451597428
 30
0.0
 11
22.6582924702
 21
13.3737529982
 31
0.0
 11
22.65682378
 21
13.3554024037
 31
0.0
 11
22.6554236756
 21
13.3002753624
 31
0.0
 11
22.6541623816
 21
13.2108503229
 31
0.0
 11
22.6530956345
 21
13.0902209136
 31
0.0
 11
22.6522769106
 21
12.941739274
 31
0.0
 11
22.6517756224
 21
12.7752208181
 31
0.0
 11
22.6516205263
 21
12.6042859765
 31
0.0
 11
22.6518017572
 21
12.4341841763
 31
0.0
 11
22.6523208581
 21
12.2701721243
 31
0.0
 11
22.65314495
 21
12.1246004245
 31
0.0
 11
22.6542083858
 21
12.0062022291
 31
0.0
 11
22.6554635796
 21
11.9180441643
 31
0.0
 11
22.6568592776
 21
11.8634021105
 31
0.0
 11
22.6583191093
 21
11.8451597428
 31
0.0
  0
SPLINE
  5
8AA
100
AcDbEntity
  8
DRAFT
100
AcDbSpline
 62
7
  6
CONTINUOUS
 70
0
 71
3
 72
21
 73
17
 74
15
 42
0.0000001
 43
0.0000001
 44
0.0000000001
 12
-1.5055539105
 22
0.2654697753
 32
0.0
 13
1.4766876079
 23
0.395677252
 33
0.0
 40
0.0
 40
0.0
 40
0.0
 40
0.0
 40
0.0119707815
 40
0.0477247117
 40
0.105396207
 40
0.1828455517
 40
0.2780679378
 40
0.3853514754
 40
0.4966179438
 40
0.6084293013
 40
0.7173522754
 40
0.814478052
 40
0.8933868321
 40
0.9518870498
 40
0.9879581889
 40
1.0
 40
1.0
 40
1.0
 40
1.0
 10
22.6583191093
 20
10.8351834934
 30
0.0
 10
22.652311557
 20
10.836242787
 30
0.0
 10
22.663506602
 20
10.7946693251
 30
0.0
 10
22.6507283586
 20
10.7574074725
 30
0.0
 10
22.6559608806
 20
10.6613159472
 30
0.0
 10
22.6522823351
 20
10.5477184584
 30
0.0
 10
22.6524758261
 20
10.4036847031
 30
0.0
 10
22.6516651398
 20
10.2442221861
 30
0.0
 10
22.651604038
 20
10.0757813766
 30
0.0
 10
22.6516406678
 20
9.9064930731
 30
0.0
 10
22.6524313431
 20
9.7449883935
 30
0.0
 10
22.6522306695
 20
9.5982700572
 30
0.0
 10
22.6559072509
 20
9.4829043468
 30
0.0
 10
22.6507219295
 20
9.3846592164
 30
0.0
 10
22.6633624489
 20
9.3481774347
 30
0.0
 10
22.6523651391
 20
9.3050020144
 30
0.0
 10
22.6582924702
 20
9.306590238
 30
0.0
 11
22.6583191093
 21
10.8351834934
 31
0.0
 11
22.6568592776
 21
10.8169411257
 31
0.0
 11
22.6554635796
 21
10.7622990719
 31
0.0
 11
22.6542083858
 21
10.6741410071
 31
0.0
 11
22.65314495
 21
10.5557428118
 31
0.0
 11
22.6523208581
 21
10.410171112
 31
0.0
 11
22.6518017572
 21
10.2461590599
 31
0.0
 11
22.6516205263
 21
10.0760572597
 31
0.0
 11
22.6517756224
 21
9.9051224181
 31
0.0
 11
22.6522769106
 21
9.7386039622
 31
0.0
 11
22.6530956345
 21
9.5901223226
 31
0.0
 11
22.6541623816
 21
9.4694929133
 31
0.0
 11
22.6554236756
 21
9.3800678738
 31
0.0
 11
22.65682378
 21
9.3249408325
 31
0.0
 11
22.6582924702
 21
9.306590238
 31
0.0
  0
SPLINE
  5
8AB
100
AcDbEntity
  8
DRAFT
100
AcDbSpline
 62
7
  6
CONTINUOUS
 70
0
 71
3
 72
21
 73
17
 74
15
 42
0.0000001
 43
0.0000001
 44
0.0000000001
 12
1.5055539105
 22
-0.2654697753
 32
0.0
 13
-1.4766876079
 23
-0.395677252
 33
0.0
 40
0.0
 40
0.0
 40
0.0
 40
0.0
 40
0.0119707815
 40
0.0477247117
 40
0.105396207
 40
0.1828455517
 40
0.2780679378
 40
0.3853514754
 40
0.4966179438
 40
0.6084293013
 40
0.7173522754
 40
0.814478052
 40
0.8933868321
 40
0.9518870498
 40
0.9879581889
 40
1.0
 40
1.0
 40
1.0
 40
1.0
 10
-22.4982590125
 20
11.8451597428
 30
0.0
 10
-22.4922514602
 20
11.8441004492
 30
0.0
 10
-22.5034465053
 20
11.8856739111
 30
0.0
 10
-22.4906682618
 20
11.9229357637
 30
0.0
 10
-22.4959007838
 20
12.019027289
 30
0.0
 10
-22.4922222383
 20
12.1326247778
 30
0.0
 10
-22.4924157294
 20
12.2766585331
 30
0.0
 10
-22.4916050431
 20
12.4361210501
 30
0.0
 10
-22.4915439412
 20
12.6045618596
 30
0.0
 10
-22.491580571
 20
12.7738501631
 30
0.0
 10
-22.4923712463
 20
12.9353548427
 30
0.0
 10
-22.4921705727
 20
13.0820731791
 30
0.0
 10
-22.4958471542
 20
13.1974388894
 30
0.0
 10
-22.4906618327
 20
13.2956840199
 30
0.0
 10
-22.5033023522
 20
13.3321658015
 30
0.0
 10
-22.4923050423
 20
13.3753412218
 30
0.0
 10
-22.4982323734
 20
13.3737529982
 30
0.0
 11
-22.4982590125
 21
11.8451597428
 31
0.0
 11
-22.4967991808
 21
11.8634021105
 31
0.0
 11
-22.4954034828
 21
11.9180441643
 31
0.0
 11
-22.494148289
 21
12.0062022291
 31
0.0
 11
-22.4930848532
 21
12.1246004245
 31
0.0
 11
-22.4922607613
 21
12.2701721243
 31
0.0
 11
-22.4917416604
 21
12.4341841763
 31
0.0
 11
-22.4915604295
 21
12.6042859765
 31
0.0
 11
-22.4917155257
 21
12.7752208181
 31
0.0
 11
-22.4922168138
 21
12.941739274
 31
0.0
 11
-22.4930355377
 21
13.0902209136
 31
0.0
 11
-22.4941022848
 21
13.2108503229
 31
0.0
 11
-22.4953635788
 21
13.3002753624
 31
0.0
 11
-22.4967636832
 21
13.3554024037
 31
0.0
 11
-22.4982323734
 21
13.3737529982
 31
0.0
  0
SPLINE
  5
8AC
100
AcDbEntity
  8
DRAFT
100
AcDbSpline
 62
7
  6
CONTINUOUS
 70
0
 71
3
 72
21
 73
17
 74
15
 42
0.0000001
 43
0.0000001
 44
0.0000000001
 12
1.4766876079
 22
-0.395677252
 32
0.0
 13
-1.5055539105
 23
-0.2654697753
 33
0.0
 40
0.0
 40
0.0
 40
0.0
 40
0.0
 40
0.0120418111
 40
0.0481129502
 40
0.1066131679
 40
0.185521948
 40
0.2826477246
 40
0.3915706987
 40
0.5033820562
 40
0.6146485246
 40
0.7219320622
 40
0.8171544483
 40
0.894603793
 40
0.9522752883
 40
0.9880292185
 40
1.0
 40
1.0
 40
1.0
 40
1.0
 10
-22.4982323734
 20
9.306590238
 30
0.0
 10
-22.4923050423
 20
9.3050020144
 30
0.0
 10
-22.5033023522
 20
9.3481774347
 30
0.0
 10
-22.4906618327
 20
9.3846592164
 30
0.0
 10
-22.4958471542
 20
9.4829043468
 30
0.0
 10
-22.4921705727
 20
9.5982700572
 30
0.0
 10
-22.4923712463
 20
9.7449883935
 30
0.0
 10
-22.491580571
 20
9.9064930731
 30
0.0
 10
-22.4915439412
 20
10.0757813766
 30
0.0
 10
-22.4916050431
 20
10.2442221861
 30
0.0
 10
-22.4924157294
 20
10.4036847031
 30
0.0
 10
-22.4922222383
 20
10.5477184584
 30
0.0
 10
-22.4959007838
 20
10.6613159472
 30
0.0
 10
-22.4906682618
 20
10.7574074725
 30
0.0
 10
-22.5034465053
 20
10.7946693251
 30
0.0
 10
-22.4922514602
 20
10.836242787
 30
0.0
 10
-22.4982590125
 20
10.8351834934
 30
0.0
 11
-22.4982323734
 21
9.306590238
 31
0.0
 11
-22.4967636832
 21
9.3249408325
 31
0.0
 11
-22.4953635788
 21
9.3800678738
 31
0.0
 11
-22.4941022848
 21
9.4694929133
 31
0.0
 11
-22.4930355377
 21
9.5901223226
 31
0.0
 11
-22.4922168138
 21
9.7386039622
 31
0.0
 11
-22.4917155257
 21
9.9051224181
 31
0.0
 11
-22.4915604295
 21
10.0760572597
 31
0.0
 11
-22.4917416604
 21
10.2461590599
 31
0.0
 11
-22.4922607613
 21
10.410171112
 31
0.0
 11
-22.4930848532
 21
10.5557428118
 31
0.0
 11
-22.494148289
 21
10.6741410071
 31
0.0
 11
-22.4954034828
 21
10.7622990719
 31
0.0
 11
-22.4967991808
 21
10.8169411257
 31
0.0
 11
-22.4982590125
 21
10.8351834934
 31
0.0
  0
SPLINE
  5
8AD
100
AcDbEntity
  8
RACCORDO
100
AcDbSpline
 62
7
  6
CONTINUOUS
 70
0
 71
3
 72
9
 73
5
 74
3
 42
0.0000001
 43
0.0000001
 44
0.0000000001
 12
-0.0004827074
 22
-0.0046743536
 32
0.0
 13
-0.0045390896
 23
0.0012162454
 33
0.0
 40
0.0
 40
0.0
 40
0.0
 40
0.0
 40
0.4592653084
 40
1.0
 40
1.0
 40
1.0
 40
1.0
 10
-22.4700438516
 20
9.6082536298
 30
0.0
 10
-22.4701177485
 20
9.6075380403
 30
0.0
 10
-22.4706576857
 20
9.6056798942
 30
0.0
 10
-22.4726379546
 20
9.6059500168
 30
0.0
 10
-22.4734561024
 20
9.6061692389
 30
0.0
 11
-22.4700438516
 21
9.6082536298
 31
0.0
 11
-22.4709174988
 21
9.6062801805
 31
0.0
 11
-22.4734561024
 21
9.6061692389
 31
0.0
  0
SPLINE
  5
8AE
100
AcDbEntity
  8
RACCORDO
100
AcDbSpline
 62
7
  6
CONTINUOUS
 70
0
 71
3
 72
9
 73
5
 74
3
 42
0.0000001
 43
0.0000001
 44
0.0000000001
 12
0.0045390855
 22
0.0012162443
 32
0.0
 13
0.0004827139
 23
-0.0046743486
 33
0.0
 40
0.0
 40
0.0
 40
0.0
 40
0.0
 40
0.5412708451
 40
1.0
 40
1.0
 40
1.0
 40
1.0
 10
-22.4734561024
 20
13.0741739974
 30
0.0
 10
-22.4726371442
 20
13.0743934366
 30
0.0
 10
-22.4706557706
 20
13.0746623684
 30
0.0
 10
-22.4701176127
 20
13.0728044565
 30
0.0
 10
-22.4700438011
 20
13.0720897032
 30
0.0
 11
-22.4734561024
 21
13.0741739974
 31
0.0
 11
-22.4709150495
 21
13.0740614563
 31
0.0
 11
-22.4700438011
 21
13.0720897032
 31
0.0
  0
SPLINE
  5
8AF
100
AcDbEntity
  8
RACCORDO
100
AcDbSpline
 62
7
  6
CONTINUOUS
 70
0
 71
3
 72
9
 73
5
 74
3
 42
0.0000001
 43
0.0000001
 44
0.0000000001
 12
-0.0045390855
 22
-0.0012162443
 32
0.0
 13
-0.0004827139
 23
0.0046743486
 33
0.0
 40
0.0
 40
0.0
 40
0.0
 40
0.0
 40
0.5412708451
 40
1.0
 40
1.0
 40
1.0
 40
1.0
 10
22.6335161992
 20
-12.8938307611
 30
0.0
 10
22.6326972409
 20
-12.8940502003
 30
0.0
 10
22.6307158674
 20
-12.8943191322
 30
0.0
 10
22.6301777095
 20
-12.8924612203
 30
0.0
 10
22.6301038979
 20
-12.8917464669
 30
0.0
 11
22.6335161992
 21
-12.8938307611
 31
0.0
 11
22.6309751463
 21
-12.8937182201
 31
0.0
 11
22.6301038979
 21
-12.8917464669
 31
0.0
  0
SPLINE
  5
8B0
100
AcDbEntity
  8
RACCORDO
100
AcDbSpline
 62
7
  6
CONTINUOUS
 70
0
 71
3
 72
9
 73
5
 74
3
 42
0.0000001
 43
0.0000001
 44
0.0000000001
 12
0.0004827074
 22
0.0046743536
 32
0.0
 13
0.0045390896
 23
-0.0012162454
 33
0.0
 40
0.0
 40
0.0
 40
0.0
 40
0.0
 40
0.4592653084
 40
1.0
 40
1.0
 40
1.0
 40
1.0
 10
22.6301039484
 20
-9.4279103936
 30
0.0
 10
22.6301778453
 20
-9.4271948041
 30
0.0
 10
22.6307177825
 20
-9.425336658
 30
0.0
 10
22.6326980514
 20
-9.4256067806
 30
0.0
 10
22.6335161992
 20
-9.4258260026
 30
0.0
 11
22.6301039484
 21
-9.4279103936
 31
0.0
 11
22.6309775956
 21
-9.4259369443
 31
0.0
 11
22.6335161992
 21
-9.4258260026
 31
0.0
  0
SPLINE
  5
8B1
100
AcDbEntity
  8
DRAFT
100
AcDbSpline
 62
7
  6
CONTINUOUS
 70
0
 71
3
 72
21
 73
17
 74
15
 42
0.0000001
 43
0.0000001
 44
0.0000000001
 12
-1.4766876079
 22
0.395677252
 32
0.0
 13
1.5055539105
 23
0.2654697753
 33
0.0
 40
0.0
 40
0.0
 40
0.0
 40
0.0
 40
0.0120418111
 40
0.0481129502
 40
0.1066131679
 40
0.185521948
 40
0.2826477246
 40
0.3915706987
 40
0.5033820562
 40
0.6146485246
 40
0.7219320622
 40
0.8171544483
 40
0.894603793
 40
0.9522752883
 40
0.9880292185
 40
1.0
 40
1.0
 40
1.0
 40
1.0
 10
22.6582924702
 20
-9.1262470018
 30
0.0
 10
22.6523651391
 20
-9.1246587782
 30
0.0
 10
22.6633624489
 20
-9.1678341985
 30
0.0
 10
22.6507219295
 20
-9.2043159801
 30
0.0
 10
22.6559072509
 20
-9.3025611106
 30
0.0
 10
22.6522306695
 20
-9.4179268209
 30
0.0
 10
22.6524313431
 20
-9.5646451573
 30
0.0
 10
22.6516406678
 20
-9.7261498369
 30
0.0
 10
22.651604038
 20
-9.8954381404
 30
0.0
 10
22.6516651398
 20
-10.0638789499
 30
0.0
 10
22.6524758261
 20
-10.2233414669
 30
0.0
 10
22.6522823351
 20
-10.3673752222
 30
0.0
 10
22.6559608806
 20
-10.480972711
 30
0.0
 10
22.6507283586
 20
-10.5770642363
 30
0.0
 10
22.663506602
 20
-10.6143260889
 30
0.0
 10
22.652311557
 20
-10.6558995508
 30
0.0
 10
22.6583191093
 20
-10.6548402572
 30
0.0
 11
22.6582924702
 21
-9.1262470018
 31
0.0
 11
22.65682378
 21
-9.1445975963
 31
0.0
 11
22.6554236756
 21
-9.1997246376
 31
0.0
 11
22.6541623816
 21
-9.2891496771
 31
0.0
 11
22.6530956345
 21
-9.4097790864
 31
0.0
 11
22.6522769106
 21
-9.558260726
 31
0.0
 11
22.6517756224
 21
-9.7247791819
 31
0.0
 11
22.6516205263
 21
-9.8957140235
 31
0.0
 11
22.6518017572
 21
-10.0658158237
 31
0.0
 11
22.6523208581
 21
-10.2298278757
 31
0.0
 11
22.65314495
 21
-10.3753995755
 31
0.0
 11
22.6542083858
 21
-10.4937977709
 31
0.0
 11
22.6554635796
 21
-10.5819558357
 31
0.0
 11
22.6568592776
 21
-10.6365978895
 31
0.0
 11
22.6583191093
 21
-10.6548402572
 31
0.0
  0
SPLINE
  5
8B2
100
AcDbEntity
  8
DRAFT
100
AcDbSpline
 62
7
  6
CONTINUOUS
 70
0
 71
3
 72
21
 73
17
 74
15
 42
0.0000001
 43
0.0000001
 44
0.0000000001
 12
-1.5055539105
 22
0.2654697753
 32
0.0
 13
1.4766876079
 23
0.395677252
 33
0.0
 40
0.0
 40
0.0
 40
0.0
 40
0.0
 40
0.0119707815
 40
0.0477247117
 40
0.105396207
 40
0.1828455517
 40
0.2780679378
 40
0.3853514754
 40
0.4966179438
 40
0.6084293013
 40
0.7173522754
 40
0.814478052
 40
0.8933868321
 40
0.9518870498
 40
0.9879581889
 40
1.0
 40
1.0
 40
1.0
 40
1.0
 10
22.6583191093
 20
-11.6648165066
 30
0.0
 10
22.652311557
 20
-11.663757213
 30
0.0
 10
22.663506602
 20
-11.7053306749
 30
0.0
 10
22.6507283586
 20
-11.7425925275
 30
0.0
 10
22.6559608806
 20
-11.8386840528
 30
0.0
 10
22.6522823351
 20
-11.9522815416
 30
0.0
 10
22.6524758261
 20
-12.0963152969
 30
0.0
 10
22.6516651398
 20
-12.2557778139
 30
0.0
 10
22.651604038
 20
-12.4242186234
 30
0.0
 10
22.6516406678
 20
-12.5935069269
 30
0.0
 10
22.6524313431
 20
-12.7550116065
 30
0.0
 10
22.6522306695
 20
-12.9017299428
 30
0.0
 10
22.6559072509
 20
-13.0170956532
 30
0.0
 10
22.6507219295
 20
-13.1153407836
 30
0.0
 10
22.6633624489
 20
-13.1518225653
 30
0.0
 10
22.6523651391
 20
-13.1949979856
 30
0.0
 10
22.6582924702
 20
-13.193409762
 30
0.0
 11
22.6583191093
 21
-11.6648165066
 31
0.0
 11
22.6568592776
 21
-11.6830588743
 31
0.0
 11
22.6554635796
 21
-11.7377009281
 31
0.0
 11
22.6542083858
 21
-11.8258589929
 31
0.0
 11
22.65314495
 21
-11.9442571882
 31
0.0
 11
22.6523208581
 21
-12.089828888
 31
0.0
 11
22.6518017572
 21
-12.2538409401
 31
0.0
 11
22.6516205263
 21
-12.4239427403
 31
0.0
 11
22.6517756224
 21
-12.5948775819
 31
0.0
 11
22.6522769106
 21
-12.7613960378
 31
0.0
 11
22.6530956345
 21
-12.9098776774
 31
0.0
 11
22.6541623816
 21
-13.0305070867
 31
0.0
 11
22.6554236756
 21
-13.1199321262
 31
0.0
 11
22.65682378
 21
-13.1750591675
 31
0.0
 11
22.6582924702
 21
-13.193409762
 31
0.0
  0
LINE
  5
8B3
100
AcDbEntity
  8
RACCORDO
100
AcDbLine
 62
7
  6
CONTINUOUS
 10
-6.4785839257
 20
24.7160883291
 11
-6.4786428412
 21
24.7981659039
  0
SPLINE
  5
8B4
100
AcDbEntity
  8
DRAFT
100
AcDbSpline
 62
7
  6
CONTINUOUS
 70
0
 71
3
 72
21
 73
17
 74
15
 42
0.0000001
 43
0.0000001
 44
0.0000000001
 12
1.5055539105
 22
-0.2654697753
 32
0.0
 13
-1.4766876079
 23
-0.395677252
 33
0.0
 40
0.0
 40
0.0
 40
0.0
 40
0.0
 40
0.0119707815
 40
0.0477247117
 40
0.105396207
 40
0.1828455517
 40
0.2780679378
 40
0.3853514754
 40
0.4966179438
 40
0.6084293013
 40
0.7173522754
 40
0.814478052
 40
0.8933868321
 40
0.9518870498
 40
0.9879581889
 40
1.0
 40
1.0
 40
1.0
 40
1.0
 10
-22.4982590125
 20
-10.6548402572
 30
0.0
 10
-22.4922514602
 20
-10.6558995508
 30
0.0
 10
-22.5034465053
 20
-10.6143260889
 30
0.0
 10
-22.4906682618
 20
-10.5770642363
 30
0.0
 10
-22.4959007838
 20
-10.480972711
 30
0.0
 10
-22.4922222383
 20
-10.3673752222
 30
0.0
 10
-22.4924157294
 20
-10.2233414669
 30
0.0
 10
-22.4916050431
 20
-10.0638789499
 30
0.0
 10
-22.4915439412
 20
-9.8954381404
 30
0.0
 10
-22.491580571
 20
-9.7261498369
 30
0.0
 10
-22.4923712463
 20
-9.5646451573
 30
0.0
 10
-22.4921705727
 20
-9.4179268209
 30
0.0
 10
-22.4958471542
 20
-9.3025611106
 30
0.0
 10
-22.4906618327
 20
-9.2043159801
 30
0.0
 10
-22.5033023522
 20
-9.1678341985
 30
0.0
 10
-22.4923050423
 20
-9.1246587782
 30
0.0
 10
-22.4982323734
 20
-9.1262470018
 30
0.0
 11
-22.4982590125
 21
-10.6548402572
 31
0.0
 11
-22.4967991808
 21
-10.6365978895
 31
0.0
 11
-22.4954034828
 21
-10.5819558357
 31
0.0
 11
-22.494148289
 21
-10.4937977709
 31
0.0
 11
-22.4930848532
 21
-10.3753995755
 31
0.0
 11
-22.4922607613
 21
-10.2298278757
 31
0.0
 11
-22.4917416604
 21
-10.0658158237
 31
0.0
 11
-22.4915604295
 21
-9.8957140235
 31
0.0
 11
-22.4917155257
 21
-9.7247791819
 31
0.0
 11
-22.4922168138
 21
-9.558260726
 31
0.0
 11
-22.4930355377
 21
-9.4097790864
 31
0.0
 11
-22.4941022848
 21
-9.2891496771
 31
0.0
 11
-22.4953635788
 21
-9.1997246376
 31
0.0
 11
-22.4967636832
 21
-9.1445975963
 31
0.0
 11
-22.4982323734
 21
-9.1262470018
 31
0.0
  0
SPLINE
  5
8B5
100
AcDbEntity
  8
DRAFT
100
AcDbSpline
 62
7
  6
CONTINUOUS
 70
0
 71
3
 72
21
 73
17
 74
15
 42
0.0000001
 43
0.0000001
 44
0.0000000001
 12
1.4766876079
 22
-0.395677252
 32
0.0
 13
-1.5055539105
 23
-0.2654697753
 33
0.0
 40
0.0
 40
0.0
 40
0.0
 40
0.0
 40
0.0120418111
 40
0.0481129502
 40
0.1066131679
 40
0.185521948
 40
0.2826477246
 40
0.3915706987
 40
0.5033820562
 40
0.6146485246
 40
0.7219320622
 40
0.8171544483
 40
0.894603793
 40
0.9522752883
 40
0.9880292185
 40
1.0
 40
1.0
 40
1.0
 40
1.0
 10
-22.4982323734
 20
-13.193409762
 30
0.0
 10
-22.4923050423
 20
-13.1949979856
 30
0.0
 10
-22.5033023522
 20
-13.1518225653
 30
0.0
 10
-22.4906618327
 20
-13.1153407836
 30
0.0
 10
-22.4958471542
 20
-13.0170956532
 30
0.0
 10
-22.4921705727
 20
-12.9017299428
 30
0.0
 10
-22.4923712463
 20
-12.7550116065
 30
0.0
 10
-22.491580571
 20
-12.5935069269
 30
0.0
 10
-22.4915439412
 20
-12.4242186234
 30
0.0
 10
-22.4916050431
 20
-12.2557778139
 30
0.0
 10
-22.4924157294
 20
-12.0963152969
 30
0.0
 10
-22.4922222383
 20
-11.9522815416
 30
0.0
 10
-22.4959007838
 20
-11.8386840528
 30
0.0
 10
-22.4906682618
 20
-11.7425925275
 30
0.0
 10
-22.5034465053
 20
-11.7053306749
 30
0.0
 10
-22.4922514602
 20
-11.663757213
 30
0.0
 10
-22.4982590125
 20
-11.6648165066
 30
0.0
 11
-22.4982323734
 21
-13.193409762
 31
0.0
 11
-22.4967636832
 21
-13.1750591675
 31
0.0
 11
-22.4953635788
 21
-13.1199321262
 31
0.0
 11
-22.4941022848
 21
-13.0305070867
 31
0.0
 11
-22.4930355377
 21
-12.9098776774
 31
0.0
 11
-22.4922168138
 21
-12.7613960378
 31
0.0
 11
-22.4917155257
 21
-12.5948775819
 31
0.0
 11
-22.4915604295
 21
-12.4239427403
 31
0.0
 11
-22.4917416604
 21
-12.2538409401
 31
0.0
 11
-22.4922607613
 21
-12.089828888
 31
0.0
 11
-22.4930848532
 21
-11.9442571882
 31
0.0
 11
-22.494148289
 21
-11.8258589929
 31
0.0
 11
-22.4954034828
 21
-11.7377009281
 31
0.0
 11
-22.4967991808
 21
-11.6830588743
 31
0.0
 11
-22.4982590125
 21
-11.6648165066
 31
0.0
  0
SPLINE
  5
8B6
100
AcDbEntity
  8
RACCORDO
100
AcDbSpline
 62
7
  6
CONTINUOUS
 70
0
 71
3
 72
9
 73
5
 74
3
 42
0.0000001
 43
0.0000001
 44
0.0000000001
 12
-0.0004827074
 22
-0.0046743536
 32
0.0
 13
-0.0045390896
 23
0.0012162454
 33
0.0
 40
0.0
 40
0.0
 40
0.0
 40
0.0
 40
0.4592653084
 40
1.0
 40
1.0
 40
1.0
 40
1.0
 10
-22.4700438516
 20
-12.8917463702
 30
0.0
 10
-22.4701177485
 20
-12.8924619597
 30
0.0
 10
-22.4706576857
 20
-12.8943201058
 30
0.0
 10
-22.4726379546
 20
-12.8940499832
 30
0.0
 10
-22.4734561024
 20
-12.8938307611
 30
0.0
 11
-22.4700438516
 21
-12.8917463702
 31
0.0
 11
-22.4709174988
 21
-12.8937198195
 31
0.0
 11
-22.4734561024
 21
-12.8938307611
 31
0.0
  0
SPLINE
  5
8B7
100
AcDbEntity
  8
RACCORDO
100
AcDbSpline
 62
7
  6
CONTINUOUS
 70
0
 71
3
 72
9
 73
5
 74
3
 42
0.0000001
 43
0.0000001
 44
0.0000000001
 12
0.0045390855
 22
0.0012162443
 32
0.0
 13
0.0004827139
 23
-0.0046743486
 33
0.0
 40
0.0
 40
0.0
 40
0.0
 40
0.0
 40
0.5412708451
 40
1.0
 40
1.0
 40
1.0
 40
1.0
 10
-22.4734561024
 20
-9.4258260026
 30
0.0
 10
-22.4726371442
 20
-9.4256065634
 30
0.0
 10
-22.4706557706
 20
-9.4253376316
 30
0.0
 10
-22.4701176127
 20
-9.4271955435
 30
0.0
 10
-22.4700438011
 20
-9.4279102968
 30
0.0
 11
-22.4734561024
 21
-9.4258260026
 31
0.0
 11
-22.4709150495
 21
-9.4259385437
 31
0.0
 11
-22.4700438011
 21
-9.4279102968
 31
0.0
  0
SPLINE
  5
8B8
100
AcDbEntity
  8
RACCORDO
100
AcDbSpline
 62
7
  6
CONTINUOUS
 70
0
 71
3
 72
9
 73
5
 74
3
 42
0.0000001
 43
0.0000001
 44
0.0000000001
 12
-0.0012162443
 22
0.0045390855
 32
0.0
 13
0.0046743486
 23
0.0004827139
 33
0.0
 40
0.0
 40
0.0
 40
0.0
 40
0.0
 40
0.541270845
 40
1.0
 40
1.0
 40
1.0
 40
1.0
 10
-1.6539723309
 20
-22.4633145327
 30
0.0
 10
-1.6541917701
 20
-22.4624955744
 30
0.0
 10
-1.6544607019
 20
-22.4605142009
 30
0.0
 10
-1.65260279
 20
-22.459976043
 30
0.0
 10
-1.6518880367
 20
-22.4599022314
 30
0.0
 11
-1.6539723309
 21
-22.4633145327
 31
0.0
 11
-1.6538597898
 21
-22.4607734798
 31
0.0
 11
-1.6518880367
 21
-22.4599022314
 31
0.0
  0
SPLINE
  5
8B9
100
AcDbEntity
  8
RACCORDO
100
AcDbSpline
 62
7
  6
CONTINUOUS
 70
0
 71
3
 72
9
 73
5
 74
3
 42
0.0000001
 43
0.0000001
 44
0.0000000001
 12
0.0046743536
 22
-0.0004827074
 32
0.0
 13
-0.0012162454
 23
-0.0045390896
 33
0.0
 40
0.0
 40
0.0
 40
0.0
 40
0.0
 40
0.4592653084
 40
1.0
 40
1.0
 40
1.0
 40
1.0
 10
1.8119480367
 20
-22.4599022819
 30
0.0
 10
1.8126636262
 20
-22.4599761788
 30
0.0
 10
1.8145217723
 20
-22.460516116
 30
0.0
 10
1.8142516497
 20
-22.4624963849
 30
0.0
 10
1.8140324276
 20
-22.4633145327
 30
0.0
 11
1.8119480367
 21
-22.4599022819
 31
0.0
 11
1.813921486
 21
-22.4607759291
 31
0.0
 11
1.8140324276
 21
-22.4633145327
 31
0.0
  0
SPLINE
  5
8BA
100
AcDbEntity
  8
DRAFT
100
AcDbSpline
 62
7
  6
CONTINUOUS
 70
0
 71
3
 72
21
 73
17
 74
15
 42
0.0000001
 43
0.0000001
 44
0.0000000001
 12
0.395677252
 22
1.4766876079
 32
0.0
 13
0.2654697753
 23
-1.5055539105
 33
0.0
 40
0.0
 40
0.0
 40
0.0
 40
0.0
 40
0.0120418111
 40
0.0481129502
 40
0.1066131679
 40
0.185521948
 40
0.2826477246
 40
0.3915706987
 40
0.5033820562
 40
0.6146485246
 40
0.7219320622
 40
0.8171544483
 40
0.894603793
 40
0.9522752883
 40
0.9880292185
 40
1.0
 40
1.0
 40
1.0
 40
1.0
 10
2.1136114285
 20
-22.4880908037
 30
0.0
 10
2.1151996521
 20
-22.4821634726
 30
0.0
 10
2.0720242318
 20
-22.4931607824
 30
0.0
 10
2.0355424501
 20
-22.480520263
 30
0.0
 10
1.9372973197
 20
-22.4857055844
 30
0.0
 10
1.8219316093
 20
-22.482029003
 30
0.0
 10
1.675213273
 20
-22.4822296766
 30
0.0
 10
1.5137085934
 20
-22.4814390013
 30
0.0
 10
1.3444202899
 20
-22.4814023715
 30
0.0
 10
1.1759794804
 20
-22.4814634733
 30
0.0
 10
1.0165169634
 20
-22.4822741596
 30
0.0
 10
0.8724832081
 20
-22.4820806686
 30
0.0
 10
0.7588857193
 20
-22.4857592141
 30
0.0
 10
0.662794194
 20
-22.4805266921
 30
0.0
 10
0.6255323414
 20
-22.4933049355
 30
0.0
 10
0.5839588795
 20
-22.4821098905
 30
0.0
 10
0.5850181731
 20
-22.4881174428
 30
0.0
 11
2.1136114285
 21
-22.4880908037
 31
0.0
 11
2.095260834
 21
-22.4866221135
 31
0.0
 11
2.0401337927
 21
-22.4852220091
 31
0.0
 11
1.9507087532
 21
-22.4839607151
 31
0.0
 11
1.8300793439
 21
-22.482893968
 31
0.0
 11
1.6815977043
 21
-22.4820752441
 31
0.0
 11
1.5150792484
 21
-22.4815739559
 31
0.0
 11
1.3441444068
 21
-22.4814188598
 31
0.0
 11
1.1740426066
 21
-22.4816000907
 31
0.0
 11
1.0100305545
 21
-22.4821191916
 31
0.0
 11
0.8644588547
 21
-22.4829432835
 31
0.0
 11
0.7460606594
 21
-22.4840067192
 31
0.0
 11
0.6579025946
 21
-22.4852619131
 31
0.0
 11
0.6032605408
 21
-22.4866576111
 31
0.0
 11
0.5850181731
 21
-22.4881174428
 31
0.0
  0
SPLINE
  5
8BB
100
AcDbEntity
  8
DRAFT
100
AcDbSpline
 62
7
  6
CONTINUOUS
 70
0
 71
3
 72
21
 73
17
 74
15
 42
0.0000001
 43
0.0000001
 44
0.0000000001
 12
0.2654697753
 22
1.5055539105
 32
0.0
 13
0.395677252
 23
-1.4766876079
 33
0.0
 40
0.0
 40
0.0
 40
0.0
 40
0.0
 40
0.0119707815
 40
0.0477247117
 40
0.105396207
 40
0.1828455517
 40
0.2780679378
 40
0.3853514754
 40
0.4966179438
 40
0.6084293013
 40
0.7173522754
 40
0.814478052
 40
0.8933868321
 40
0.9518870498
 40
0.9879581889
 40
1.0
 40
1.0
 40
1.0
 40
1.0
 10
-0.4249580763
 20
-22.4881174428
 30
0.0
 10
-0.4238987827
 20
-22.4821098905
 30
0.0
 10
-0.4654722446
 20
-22.4933049355
 30
0.0
 10
-0.5027340972
 20
-22.4805266921
 30
0.0
 10
-0.5988256225
 20
-22.4857592141
 30
0.0
 10
-0.7124231113
 20
-22.4820806686
 30
0.0
 10
-0.8564568666
 20
-22.4822741596
 30
0.0
 10
-1.0159193836
 20
-22.4814634733
 30
0.0
 10
-1.1843601931
 20
-22.4814023715
 30
0.0
 10
-1.3536484966
 20
-22.4814390013
 30
0.0
 10
-1.5151531762
 20
-22.4822296766
 30
0.0
 10
-1.6618715126
 20
-22.482029003
 30
0.0
 10
-1.7772372229
 20
-22.4857055844
 30
0.0
 10
-1.8754823534
 20
-22.480520263
 30
0.0
 10
-1.911964135
 20
-22.4931607824
 30
0.0
 10
-1.9551395553
 20
-22.4821634726
 30
0.0
 10
-1.9535513317
 20
-22.4880908037
 30
0.0
 11
-0.4249580763
 21
-22.4881174428
 31
0.0
 11
-0.443200444
 21
-22.4866576111
 31
0.0
 11
-0.4978424978
 21
-22.4852619131
 31
0.0
 11
-0.5860005626
 21
-22.4840067192
 31
0.0
 11
-0.704398758
 21
-22.4829432835
 31
0.0
 11
-0.8499704578
 21
-22.4821191916
 31
0.0
 11
-1.0139825098
 21
-22.4816000907
 31
0.0
 11
-1.18408431
 21
-22.4814188598
 31
0.0
 11
-1.3550191516
 21
-22.4815739559
 31
0.0
 11
-1.5215376075
 21
-22.4820752441
 31
0.0
 11
-1.6700192471
 21
-22.482893968
 31
0.0
 11
-1.7906486564
 21
-22.4839607151
 31
0.0
 11
-1.8800736959
 21
-22.4852220091
 31
0.0
 11
-1.9352007372
 21
-22.4866221135
 31
0.0
 11
-1.9535513317
 21
-22.4880908037
 31
0.0
  0
SPLINE
  5
8BC
100
AcDbEntity
  8
RACCORDO
100
AcDbSpline
 62
7
  6
CONTINUOUS
 70
0
 71
3
 72
10
 73
6
 74
4
 42
0.0000001
 43
0.0000001
 44
0.0000000001
 12
-0.0
 22
0.2027241129
 32
0.0
 13
0.2027241129
 23
0.0
 33
0.0
 40
0.0
 40
0.0
 40
0.0
 40
0.0
 40
0.1431553573
 40
0.5064987902
 40
1.0
 40
1.0
 40
1.0
 40
1.0
 10
-5.8199699516
 20
-25.7084355025
 30
0.0
 10
-5.8199699516
 20
-25.6987618215
 30
0.0
 10
-5.7691806321
 20
-25.6965957381
 30
0.0
 10
-5.7162342021
 20
-25.6861704948
 30
0.0
 10
-5.6533181499
 20
-25.686141716
 30
0.0
 10
-5.6199699516
 20
-25.686141716
 30
0.0
 11
-5.8199699516
 21
-25.7084355025
 31
0.0
 11
-5.7931750324
 21
-25.6972886093
 31
0.0
 11
-5.7199699516
 21
-25.6891285171
 31
0.0
 11
-5.6199699516
 21
-25.686141716
 31
0.0
  0
SPLINE
  5
8BD
100
AcDbEntity
  8
RACCORDO
100
AcDbSpline
 62
7
  6
CONTINUOUS
 70
0
 71
3
 72
10
 73
6
 74
4
 42
0.0000001
 43
0.0000001
 44
0.0000000001
 12
0.5426098251
 22
0.0
 32
0.0
 13
0.0
 23
-0.5426098251
 33
0.0
 40
0.0
 40
0.0
 40
0.0
 40
0.0
 40
0.1855690544
 40
0.5377706148
 40
1.0
 40
1.0
 40
1.0
 40
1.0
 10
-24.9744264847
 20
4.4901716181
 30
0.0
 10
-24.9408626207
 20
4.4901716181
 30
0.0
 10
-24.8717927174
 20
4.3916027976
 30
0.0
 10
-24.8379207871
 20
4.2245398009
 30
0.0
 10
-24.824073585
 20
4.0737750201
 30
0.0
 10
-24.824073585
 20
3.9901716181
 30
0.0
 11
-24.9744264847
 21
4.4901716181
 31
0.0
 11
-24.8992500348
 21
4.42318432
 31
0.0
 11
-24.844217054
 21
4.2401716181
 31
0.0
 11
-24.824073585
 21
3.9901716181
 31
0.0
  0
SPLINE
  5
8BE
100
AcDbEntity
  8
RACCORDO
100
AcDbSpline
 62
7
  6
CONTINUOUS
 70
0
 71
3
 72
10
 73
6
 74
4
 42
0.0000001
 43
0.0000001
 44
0.0000000001
 12
-0.5426098251
 22
0.0
 32
0.0
 13
0.0
 23
0.5426098251
 33
0.0
 40
0.0
 40
0.0
 40
0.0
 40
0.0
 40
0.1855690544
 40
0.5377706148
 40
1.0
 40
1.0
 40
1.0
 40
1.0
 10
25.1344865815
 20
-4.3098283819
 30
0.0
 10
25.1009227175
 20
-4.3098283819
 30
0.0
 10
25.0318528142
 20
-4.2112595614
 30
0.0
 10
24.9979808839
 20
-4.0441965647
 30
0.0
 10
24.9841336818
 20
-3.8934317838
 30
0.0
 10
24.9841336818
 20
-3.8098283819
 30
0.0
 11
25.1344865815
 21
-4.3098283819
 31
0.0
 11
25.0593101316
 21
-4.2428410838
 31
0.0
 11
25.0042771508
 21
-4.0598283819
 31
0.0
 11
24.9841336818
 21
-3.8098283819
 31
0.0
  0
SPLINE
  5
8BF
100
AcDbEntity
  8
RACCORDO
100
AcDbSpline
 62
7
  6
CONTINUOUS
 70
0
 71
3
 72
10
 73
6
 74
4
 42
0.0000001
 43
0.0000001
 44
0.0000000001
 12
-0.2027241129
 22
0.0
 32
0.0
 13
0.0
 23
0.2027241129
 33
0.0
 40
0.0
 40
0.0
 40
0.0
 40
0.0
 40
0.4935012098
 40
0.8568446427
 40
1.0
 40
1.0
 40
1.0
 40
1.0
 10
-5.6199699516
 20
25.8664849523
 30
0.0
 10
-5.6533181499
 20
25.8664849523
 30
0.0
 10
-5.7162342021
 20
25.866513731
 30
0.0
 10
-5.7691806321
 20
25.8769389743
 30
0.0
 10
-5.8199699516
 20
25.8791050578
 30
0.0
 10
-5.8199699516
 20
25.8887787387
 30
0.0
 11
-5.6199699516
 21
25.8664849523
 31
0.0
 11
-5.7199699516
 21
25.8694717533
 31
0.0
 11
-5.7931750324
 21
25.8776318455
 31
0.0
 11
-5.8199699516
 21
25.8887787387
 31
0.0
  0
SPLINE
  5
8C0
100
AcDbEntity
  8
RACCORDO
100
AcDbSpline
 62
7
  6
CONTINUOUS
 70
0
 71
3
 72
10
 73
6
 74
4
 42
0.0000001
 43
0.0000001
 44
0.0000000001
 12
0.0
 22
-0.2027241129
 32
0.0
 13
-0.2027241129
 23
0.0
 33
0.0
 40
0.0
 40
0.0
 40
0.0
 40
0.0
 40
0.1431553573
 40
0.5064987902
 40
1.0
 40
1.0
 40
1.0
 40
1.0
 10
5.9800300484
 20
25.8887787387
 30
0.0
 10
5.9800300484
 20
25.8791050578
 30
0.0
 10
5.9292407289
 20
25.8769389743
 30
0.0
 10
5.8762942989
 20
25.866513731
 30
0.0
 10
5.8133782467
 20
25.8664849523
 30
0.0
 10
5.7800300484
 20
25.8664849523
 30
0.0
 11
5.9800300484
 21
25.8887787387
 31
0.0
 11
5.9532351291
 21
25.8776318455
 31
0.0
 11
5.8800300484
 21
25.8694717533
 31
0.0
 11
5.7800300484
 21
25.8664849523
 31
0.0
  0
SPLINE
  5
8C1
100
AcDbEntity
  8
RACCORDO
100
AcDbSpline
 62
7
  6
CONTINUOUS
 70
0
 71
3
 72
10
 73
6
 74
4
 42
0.0000001
 43
0.0000001
 44
0.0000000001
 12
0.2027241129
 22
0.0
 32
0.0
 13
-0.0
 23
-0.2027241129
 33
0.0
 40
0.0
 40
0.0
 40
0.0
 40
0.0
 40
0.4935012098
 40
0.8568446427
 40
1.0
 40
1.0
 40
1.0
 40
1.0
 10
5.7800300484
 20
-25.686141716
 30
0.0
 10
5.8133782467
 20
-25.686141716
 30
0.0
 10
5.8762942989
 20
-25.6861704948
 30
0.0
 10
5.9292407289
 20
-25.6965957381
 30
0.0
 10
5.9800300484
 20
-25.6987618215
 30
0.0
 10
5.9800300484
 20
-25.7084355025
 30
0.0
 11
5.7800300484
 21
-25.686141716
 31
0.0
 11
5.8800300484
 21
-25.6891285171
 31
0.0
 11
5.9532351291
 21
-25.6972886093
 31
0.0
 11
5.9800300484
 21
-25.7084355025
 31
0.0
  0
SPLINE
  5
8C2
100
AcDbEntity
  8
0
100
AcDbSpline
 62
7
  6
CONTINUOUS
 70
0
 71
3
 72
23
 73
19
 74
17
 42
0.0000001
 43
0.0000001
 44
0.0000000001
 12
-0.4033434024
 22
0.0816603911
 32
0.0
 13
0.35973916
 23
0.1998550889
 33
0.0
 40
0.0
 40
0.0
 40
0.0
 40
0.0
 40
0.0839852696
 40
0.1454739157
 40
0.1903135189
 40
0.2151276392
 40
0.2422674765
 40
0.2756602145
 40
0.3101971135
 40
0.3660976711
 40
0.4252706012
 40
0.4729399321
 40
0.5268480549
 40
0.5896680247
 40
0.6649404494
 40
0.7557018229
 40
0.8657807709
 40
1.0
 40
1.0
 40
1.0
 40
1.0
 10
15.7333670937
 20
-26.489624279
 30
0.0
 10
15.7220754589
 20
-26.487338189
 30
0.0
 10
15.7026553448
 20
-26.4827836264
 30
0.0
 10
15.6777826142
 20
-26.4743141019
 30
0.0
 10
15.6623142026
 20
-26.465069087
 30
0.0
 10
15.6512088117
 20
-26.4576576159
 30
0.0
 10
15.6445605639
 20
-26.4473132181
 30
0.0
 10
15.6446331033
 20
-26.4338918705
 30
0.0
 10
15.6480784845
 20
-26.4168937562
 30
0.0
 10
15.6633313303
 20
-26.4018850187
 30
0.0
 10
15.6793761911
 20
-26.3867345184
 30
0.0
 10
15.6965255774
 20
-26.3727634862
 30
0.0
 10
15.7139669504
 20
-26.3584971392
 30
0.0
 10
15.7350139912
 20
-26.3426362839
 30
0.0
 10
15.7610043267
 20
-26.3250066937
 30
0.0
 10
15.7933341059
 20
-26.3052635347
 30
0.0
 10
15.8332957431
 20
-26.282495575
 30
0.0
 10
15.8639354108
 20
-26.2687698472
 30
0.0
 10
15.8800300484
 20
-26.2598283819
 30
0.0
 11
15.7333670937
 21
-26.489624279
 31
0.0
 11
15.6997880086
 21
-26.4814395335
 31
0.0
 11
15.6760597831
 21
-26.4726489018
 31
0.0
 11
15.660045076
 21
-26.4634820452
 31
0.0
 11
15.6519122128
 21
-26.4573067023
 31
0.0
 11
15.6460047938
 21
-26.4478281031
 31
0.0
 11
15.645076431
 21
-26.4341174903
 31
0.0
 11
15.6484617499
 21
-26.4203136862
 31
0.0
 11
15.6629064637
 21
-26.4024094724
 31
0.0
 11
15.6807755596
 21
-26.3858662361
 31
0.0
 11
15.6958467903
 21
-26.3733086547
 31
0.0
 11
15.7131092763
 21
-26.3593743536
 31
0.0
 11
15.7337617733
 21
-26.3438242555
 31
0.0
 11
15.7593654624
 21
-26.3263885976
 31
0.0
 11
15.7911615708
 21
-26.306790506
 31
0.0
 11
15.8307217353
 21
-26.2847196396
 31
0.0
 11
15.8800300484
 21
-26.2598283819
 31
0.0
  0
SPLINE
  5
8C3
100
AcDbEntity
  8
RACCORDO
100
AcDbSpline
 62
7
  6
CONTINUOUS
 70
0
 71
3
 72
10
 73
6
 74
4
 42
0.0000001
 43
0.0000001
 44
0.0000000001
 12
-0.5078703696
 22
0.0
 32
0.0
 13
0.0
 23
-0.5078703696
 33
0.0
 40
0.0
 40
0.0
 40
0.0
 40
0.0
 40
0.4925065735
 40
0.8554508995
 40
1.0
 40
1.0
 40
1.0
 40
1.0
 10
18.5300300484
 20
-25.5630347166
 30
0.0
 10
18.4466535499
 20
-25.5630347166
 30
0.0
 10
18.2897477742
 20
-25.5641149113
 30
0.0
 10
18.1558667925
 20
-25.589372896
 30
0.0
 10
18.0300300484
 20
-25.598632401
 30
0.0
 10
18.0300300484
 20
-25.6231031361
 30
0.0
 11
18.5300300484
 21
-25.5630347166
 31
0.0
 11
18.2800300484
 21
-25.5710823589
 31
0.0
 11
18.0970173465
 21
-25.5930689264
 31
0.0
 11
18.0300300484
 21
-25.6231031361
 31
0.0
  0
SPLINE
  5
8C4
100
AcDbEntity
  8
RACCORDO
100
AcDbSpline
 62
7
  6
CONTINUOUS
 70
0
 71
3
 72
10
 73
6
 74
4
 42
0.0000001
 43
0.0000001
 44
0.0000000001
 12
0.0
 22
0.5078703696
 32
0.0
 13
-0.5078703696
 23
-0.0
 33
0.0
 40
0.0
 40
0.0
 40
0.0
 40
0.0
 40
0.1445491005
 40
0.5074934265
 40
1.0
 40
1.0
 40
1.0
 40
1.0
 10
22.9300300484
 20
-25.6231031361
 30
0.0
 10
22.9300300484
 20
-25.598632401
 30
0.0
 10
22.8041933043
 20
-25.589372896
 30
0.0
 10
22.6703123226
 20
-25.5641149113
 30
0.0
 10
22.5134065469
 20
-25.5630347166
 30
0.0
 10
22.4300300484
 20
-25.5630347166
 30
0.0
 11
22.9300300484
 21
-25.6231031361
 31
0.0
 11
22.8630427503
 21
-25.5930689264
 31
0.0
 11
22.6800300484
 21
-25.5710823589
 31
0.0
 11
22.4300300484
 21
-25.5630347166
 31
0.0
  0
SPLINE
  5
8C5
100
AcDbEntity
  8
RACCORDO
100
AcDbSpline
 62
7
  6
CONTINUOUS
 70
0
 71
3
 72
10
 73
6
 74
4
 42
0.0000001
 43
0.0000001
 44
0.0000000001
 12
0.0
 22
-0.5078703696
 32
0.0
 13
0.5078703696
 23
-0.0
 33
0.0
 40
0.0
 40
0.0
 40
0.0
 40
0.0
 40
0.1445491005
 40
0.5074934265
 40
1.0
 40
1.0
 40
1.0
 40
1.0
 10
18.0300300484
 20
25.7873369012
 30
0.0
 10
18.0300300484
 20
25.7628661662
 30
0.0
 10
18.1558667925
 20
25.7536066611
 30
0.0
 10
18.2897477742
 20
25.7283486764
 30
0.0
 10
18.4466535499
 20
25.7272684818
 30
0.0
 10
18.5300300484
 20
25.7272684818
 30
0.0
 11
18.0300300484
 21
25.7873369012
 31
0.0
 11
18.0970173465
 21
25.7573026915
 31
0.0
 11
18.2800300484
 21
25.735316124
 31
0.0
 11
18.5300300484
 21
25.7272684818
 31
0.0
  0
SPLINE
  5
8C6
100
AcDbEntity
  8
RACCORDO
100
AcDbSpline
 62
7
  6
CONTINUOUS
 70
0
 71
3
 72
10
 73
6
 74
4
 42
0.0000001
 43
0.0000001
 44
0.0000000001
 12
0.5078703696
 22
0.0
 32
0.0
 13
0.0
 23
0.5078703696
 33
0.0
 40
0.0
 40
0.0
 40
0.0
 40
0.0
 40
0.4925065735
 40
0.8554508995
 40
1.0
 40
1.0
 40
1.0
 40
1.0
 10
20.2800300484
 20
25.7272684818
 30
0.0
 10
20.3634065469
 20
25.7272684818
 30
0.0
 10
20.5203123226
 20
25.7283486764
 30
0.0
 10
20.6541933043
 20
25.7536066611
 30
0.0
 10
20.7800300484
 20
25.7628661662
 30
0.0
 10
20.7800300484
 20
25.7873369012
 30
0.0
 11
20.2800300484
 21
25.7272684818
 31
0.0
 11
20.5300300484
 21
25.735316124
 31
0.0
 11
20.7130427503
 21
25.7573026915
 31
0.0
 11
20.7800300484
 21
25.7873369012
 31
0.0
  0
SPLINE
  5
8C7
100
AcDbEntity
  8
RACCORDO
100
AcDbSpline
 62
7
  6
CONTINUOUS
 70
0
 71
3
 72
10
 73
6
 74
4
 42
0.0000001
 43
0.0000001
 44
0.0000000001
 12
0.0
 22
0.5426098251
 32
0.0
 13
-0.5426098251
 23
0.0
 33
0.0
 40
0.0
 40
0.0
 40
0.0
 40
0.0
 40
0.4622293852
 40
0.8144309456
 40
1.0
 40
1.0
 40
1.0
 40
1.0
 10
-25.5870471456
 20
3.9901716181
 30
0.0
 10
-25.5870471456
 20
4.0737750201
 30
0.0
 10
-25.6008943477
 20
4.2245398009
 30
0.0
 10
-25.634766278
 20
4.3916027976
 30
0.0
 10
-25.7038361813
 20
4.4901716181
 30
0.0
 10
-25.7374000453
 20
4.4901716181
 30
0.0
 11
-25.5870471456
 21
3.9901716181
 31
0.0
 11
-25.6071906146
 21
4.2401716181
 31
0.0
 11
-25.6622235954
 21
4.42318432
 31
0.0
 11
-25.7374000453
 21
4.4901716181
 31
0.0
  0
SPLINE
  5
8C8
100
AcDbEntity
  8
RACCORDO
100
AcDbSpline
 62
7
  6
CONTINUOUS
 70
0
 71
3
 72
10
 73
6
 74
4
 42
0.0000001
 43
0.0000001
 44
0.0000000001
 12
0.0
 22
-0.5078703696
 32
0.0
 13
0.5078703696
 23
-0.0
 33
0.0
 40
0.0
 40
0.0
 40
0.0
 40
0.0
 40
0.1445491005
 40
0.5074934265
 40
1.0
 40
1.0
 40
1.0
 40
1.0
 10
-22.7699699516
 20
25.7873369012
 30
0.0
 10
-22.7699699516
 20
25.7628661662
 30
0.0
 10
-22.6441332075
 20
25.7536066611
 30
0.0
 10
-22.5102522258
 20
25.7283486764
 30
0.0
 10
-22.3533464501
 20
25.7272684818
 30
0.0
 10
-22.2699699516
 20
25.7272684818
 30
0.0
 11
-22.7699699516
 21
25.7873369012
 31
0.0
 11
-22.7029826535
 21
25.7573026915
 31
0.0
 11
-22.5199699516
 21
25.735316124
 31
0.0
 11
-22.2699699516
 21
25.7272684818
 31
0.0
  0
SPLINE
  5
8C9
100
AcDbEntity
  8
RACCORDO
100
AcDbSpline
 62
7
  6
CONTINUOUS
 70
0
 71
3
 72
10
 73
6
 74
4
 42
0.0000001
 43
0.0000001
 44
0.0000000001
 12
0.5078703696
 22
0.0
 32
0.0
 13
0.0
 23
0.5078703696
 33
0.0
 40
0.0
 40
0.0
 40
0.0
 40
0.0
 40
0.4925065735
 40
0.8554508995
 40
1.0
 40
1.0
 40
1.0
 40
1.0
 10
-18.3699699516
 20
25.7272684818
 30
0.0
 10
-18.2865934531
 20
25.7272684818
 30
0.0
 10
-18.1296876774
 20
25.7283486764
 30
0.0
 10
-17.9958066957
 20
25.7536066611
 30
0.0
 10
-17.8699699516
 20
25.7628661662
 30
0.0
 10
-17.8699699516
 20
25.7873369012
 30
0.0
 11
-18.3699699516
 21
25.7272684818
 31
0.0
 11
-18.1199699516
 21
25.735316124
 31
0.0
 11
-17.9369572497
 21
25.7573026915
 31
0.0
 11
-17.8699699516
 21
25.7873369012
 31
0.0
  0
SPLINE
  5
8CA
100
AcDbEntity
  8
RACCORDO
100
AcDbSpline
 62
7
  6
CONTINUOUS
 70
0
 71
3
 72
10
 73
6
 74
4
 42
0.0000001
 43
0.0000001
 44
0.0000000001
 12
0.0
 22
-0.5426098251
 32
0.0
 13
0.5426098251
 23
0.0
 33
0.0
 40
0.0
 40
0.0
 40
0.0
 40
0.0
 40
0.4622293852
 40
0.8144309456
 40
1.0
 40
1.0
 40
1.0
 40
1.0
 10
25.7471072424
 20
-3.8098283819
 30
0.0
 10
25.7471072424
 20
-3.8934317838
 30
0.0
 10
25.7609544445
 20
-4.0441965647
 30
0.0
 10
25.7948263748
 20
-4.2112595614
 30
0.0
 10
25.8638962781
 20
-4.3098283819
 30
0.0
 10
25.8974601421
 20
-4.3098283819
 30
0.0
 11
25.7471072424
 21
-3.8098283819
 31
0.0
 11
25.7672507114
 21
-4.0598283819
 31
0.0
 11
25.8222836922
 21
-4.2428410838
 31
0.0
 11
25.8974601421
 21
-4.3098283819
 31
0.0
  0
SPLINE
  5
8CB
100
AcDbEntity
  8
RACCORDO
100
AcDbSpline
 62
7
  6
CONTINUOUS
 70
0
 71
3
 72
10
 73
6
 74
4
 42
0.0000001
 43
0.0000001
 44
0.0000000001
 12
0.0
 22
0.5078703696
 32
0.0
 13
-0.5078703696
 23
-0.0
 33
0.0
 40
0.0
 40
0.0
 40
0.0
 40
0.0
 40
0.1445491005
 40
0.5074934265
 40
1.0
 40
1.0
 40
1.0
 40
1.0
 10
-17.8699699516
 20
-25.606993665
 30
0.0
 10
-17.8699699516
 20
-25.58252293
 30
0.0
 10
-17.9958066957
 20
-25.5732634249
 30
0.0
 10
-18.1296876774
 20
-25.5480054402
 30
0.0
 10
-18.2865934531
 20
-25.5469252456
 30
0.0
 10
-18.3699699516
 20
-25.5469252456
 30
0.0
 11
-17.8699699516
 21
-25.606993665
 31
0.0
 11
-17.9369572497
 21
-25.5769594553
 31
0.0
 11
-18.1199699516
 21
-25.5549728878
 31
0.0
 11
-18.3699699516
 21
-25.5469252456
 31
0.0
  0
SPLINE
  5
8CC
100
AcDbEntity
  8
RACCORDO
100
AcDbSpline
 62
7
  6
CONTINUOUS
 70
0
 71
3
 72
10
 73
6
 74
4
 42
0.0000001
 43
0.0000001
 44
0.0000000001
 12
-0.5078703696
 22
0.0
 32
0.0
 13
0.0
 23
-0.5078703696
 33
0.0
 40
0.0
 40
0.0
 40
0.0
 40
0.0
 40
0.4925065735
 40
0.8554508995
 40
1.0
 40
1.0
 40
1.0
 40
1.0
 10
-20.1199699516
 20
-25.5469252456
 30
0.0
 10
-20.2033464501
 20
-25.5469252456
 30
0.0
 10
-20.3602522258
 20
-25.5480054402
 30
0.0
 10
-20.4941332075
 20
-25.5732634249
 30
0.0
 10
-20.6199699516
 20
-25.58252293
 30
0.0
 10
-20.6199699516
 20
-25.606993665
 30
0.0
 11
-20.1199699516
 21
-25.5469252456
 31
0.0
 11
-20.3699699516
 21
-25.5549728878
 31
0.0
 11
-20.5529826535
 21
-25.5769594553
 31
0.0
 11
-20.6199699516
 21
-25.606993665
 31
0.0
  0
SPLINE
  5
8CD
100
AcDbEntity
  8
RACCORDO
100
AcDbSpline
 62
7
  6
CONTINUOUS
 70
0
 71
3
 72
10
 73
6
 74
4
 42
0.0000001
 43
0.0000001
 44
0.0000000001
 12
-0.2027241129
 22
0.0
 32
0.0
 13
0.0
 23
-0.2027241129
 33
0.0
 40
0.0
 40
0.0
 40
0.0
 40
0.0
 40
0.4935012098
 40
0.8568446427
 40
1.0
 40
1.0
 40
1.0
 40
1.0
 10
-5.6199699516
 20
-26.4811560514
 30
0.0
 10
-5.6533181499
 20
-26.4811560514
 30
0.0
 10
-5.7162342021
 20
-26.4811848301
 30
0.0
 10
-5.7691806321
 20
-26.4916100734
 30
0.0
 10
-5.8199699516
 20
-26.4937761569
 30
0.0
 10
-5.8199699516
 20
-26.5034498378
 30
0.0
 11
-5.6199699516
 21
-26.4811560514
 31
0.0
 11
-5.7199699516
 21
-26.4841428524
 31
0.0
 11
-5.7931750324
 21
-26.4923029446
 31
0.0
 11
-5.8199699516
 21
-26.5034498378
 31
0.0
  0
SPLINE
  5
8CE
100
AcDbEntity
  8
RACCORDO
100
AcDbSpline
 62
7
  6
CONTINUOUS
 70
0
 71
3
 72
10
 73
6
 74
4
 42
0.0000001
 43
0.0000001
 44
0.0000000001
 12
0.0
 22
0.2027241129
 32
0.0
 13
-0.2027241129
 23
0.0
 33
0.0
 40
0.0
 40
0.0
 40
0.0
 40
0.0
 40
0.1431553573
 40
0.5064987902
 40
1.0
 40
1.0
 40
1.0
 40
1.0
 10
5.9800300484
 20
-26.5034498378
 30
0.0
 10
5.9800300484
 20
-26.4937761569
 30
0.0
 10
5.9292407289
 20
-26.4916100734
 30
0.0
 10
5.8762942989
 20
-26.4811848301
 30
0.0
 10
5.8133782467
 20
-26.4811560514
 30
0.0
 10
5.7800300484
 20
-26.4811560514
 30
0.0
 11
5.9800300484
 21
-26.5034498378
 31
0.0
 11
5.9532351291
 21
-26.4923029446
 31
0.0
 11
5.8800300484
 21
-26.4841428524
 31
0.0
 11
5.7800300484
 21
-26.4811560514
 31
0.0
  0
SPLINE
  5
8CF
100
AcDbEntity
  8
RACCORDO
100
AcDbSpline
 62
7
  6
CONTINUOUS
 70
0
 71
3
 72
10
 73
6
 74
4
 42
0.0000001
 43
0.0000001
 44
0.0000000001
 12
0.2027241129
 22
0.0
 32
0.0
 13
0.0
 23
0.2027241129
 33
0.0
 40
0.0
 40
0.0
 40
0.0
 40
0.0
 40
0.4935012098
 40
0.8568446427
 40
1.0
 40
1.0
 40
1.0
 40
1.0
 10
5.7800300484
 20
26.6614992876
 30
0.0
 10
5.8133782467
 20
26.6614992876
 30
0.0
 10
5.8762942989
 20
26.6615280663
 30
0.0
 10
5.9292407289
 20
26.6719533096
 30
0.0
 10
5.9800300484
 20
26.6741193931
 30
0.0
 10
5.9800300484
 20
26.683793074
 30
0.0
 11
5.7800300484
 21
26.6614992876
 31
0.0
 11
5.8800300484
 21
26.6644860886
 31
0.0
 11
5.9532351291
 21
26.6726461808
 31
0.0
 11
5.9800300484
 21
26.683793074
 31
0.0
  0
SPLINE
  5
8D0
100
AcDbEntity
  8
RACCORDO
100
AcDbSpline
 62
7
  6
CONTINUOUS
 70
0
 71
3
 72
10
 73
6
 74
4
 42
0.0000001
 43
0.0000001
 44
0.0000000001
 12
0.0
 22
-0.2027241129
 32
0.0
 13
0.2027241129
 23
0.0
 33
0.0
 40
0.0
 40
0.0
 40
0.0
 40
0.0
 40
0.1431553573
 40
0.5064987902
 40
1.0
 40
1.0
 40
1.0
 40
1.0
 10
-5.8199699516
 20
26.683793074
 30
0.0
 10
-5.8199699516
 20
26.6741193931
 30
0.0
 10
-5.7691806321
 20
26.6719533096
 30
0.0
 10
-5.7162342021
 20
26.6615280663
 30
0.0
 10
-5.6533181499
 20
26.6614992876
 30
0.0
 10
-5.6199699516
 20
26.6614992876
 30
0.0
 11
-5.8199699516
 21
26.683793074
 31
0.0
 11
-5.7931750324
 21
26.6726461808
 31
0.0
 11
-5.7199699516
 21
26.6644860886
 31
0.0
 11
-5.6199699516
 21
26.6614992876
 31
0.0
  0
ELLIPSE
  5
8D1
100
AcDbEntity
  8
DRAFT
100
AcDbEllipse
 62
7
  6
CONTINUOUS
 10
4.7800300484
 20
22.688169391
 30
0.0
 11
0.3
 21
-0.0
 31
0.0
 40
0.0087268678
 41
1.5668961521
 42
4.7178161587
  0
ELLIPSE
  5
8D2
100
AcDbEntity
  8
DRAFT
100
AcDbEllipse
 62
7
  6
CONTINUOUS
 10
4.7800300484
 20
-22.5078261547
 30
0.0
 11
0.3
 21
0.0
 31
0.0
 40
0.0087268678
 41
1.5653691484
 42
4.716289155
  0
ELLIPSE
  5
8D3
100
AcDbEntity
  8
DRAFT
100
AcDbEllipse
 62
7
  6
CONTINUOUS
 10
4.8800300484
 20
-22.4816455514
 30
0.0
 11
0.3
 21
-0.0
 31
0.0
 40
0.0087268678
 41
1.8968544916
 42
4.3848038119
  0
ELLIPSE
  5
8D4
100
AcDbEntity
  8
DRAFT
100
AcDbEllipse
 62
7
  6
CONTINUOUS
 10
4.8800300484
 20
22.6619887876
 30
0.0
 11
0.3
 21
-0.0
 31
0.0
 40
0.0087268678
 41
1.8983814953
 42
4.3863308156
  0
ELLIPSE
  5
8D5
100
AcDbEntity
  8
RACCORDO
100
AcDbEllipse
 62
7
  6
CONTINUOUS
 10
8.5388151248
 20
26.8911451083
 30
0.0
 11
-0.3827517265
 21
0.924044409
 31
0.0
 40
0.9998215708
 41
-0.3926359958
 42
0.3926359958
  0
ELLIPSE
  5
8D6
100
AcDbEntity
  8
RACCORDO
100
AcDbEllipse
 62
7
  6
CONTINUOUS
 10
-8.378755028
 20
26.8911451083
 30
0.0
 11
0.3827517265
 21
0.924044409
 31
-0.0
 40
0.9998215708
 41
-0.3926359958
 42
0.3926359958
  0
ELLIPSE
  5
8D7
100
AcDbEntity
  8
RACCORDO
100
AcDbEllipse
 62
7
  6
CONTINUOUS
 10
8.5388151248
 20
-26.710801872
 30
0.0
 11
-0.3827517265
 21
-0.924044409
 31
0.0
 40
0.9998215708
 41
-0.3926359958
 42
0.3926359958
  0
ELLIPSE
  5
8D8
100
AcDbEntity
  8
DRAFT
100
AcDbEllipse
 62
7
  6
CONTINUOUS
 10
-22.5179677245
 20
-6.4598283819
 30
0.0
 11
-0.0
 21
0.3
 31
0.0
 40
0.0087268678
 41
1.5668961521
 42
4.7178161587
  0
ELLIPSE
  5
8D9
100
AcDbEntity
  8
DRAFT
100
AcDbEllipse
 62
7
  6
CONTINUOUS
 10
22.6780278212
 20
-6.4598283819
 30
0.0
 11
-0.0
 21
0.3
 31
0.0
 40
0.0087268678
 41
1.5653691484
 42
4.716289155
  0
ELLIPSE
  5
8DA
100
AcDbEntity
  8
DRAFT
100
AcDbEllipse
 62
7
  6
CONTINUOUS
 10
22.6518472179
 20
-6.3598283819
 30
0.0
 11
0.0
 21
0.3
 31
0.0
 40
0.0087268678
 41
1.8968544916
 42
4.3848038119
  0
ELLIPSE
  5
8DB
100
AcDbEntity
  8
DRAFT
100
AcDbEllipse
 62
7
  6
CONTINUOUS
 10
-22.4917871211
 20
-6.3598283819
 30
0.0
 11
-0.0
 21
0.3
 31
0.0
 40
0.0087268678
 41
-4.3848038119
 42
-1.8968544916
  0
ELLIPSE
  5
8DC
100
AcDbEntity
  8
RACCORDO
100
AcDbEllipse
 62
7
  6
CONTINUOUS
 10
-8.378755028
 20
-26.710801872
 30
0.0
 11
0.3827517265
 21
-0.924044409
 31
-0.0
 40
0.9998215708
 41
-0.3926359958
 42
0.3926359958
  0
ELLIPSE
  5
8DD
100
AcDbEntity
  8
DRAFT
100
AcDbEllipse
 62
7
  6
CONTINUOUS
 10
-22.5179677245
 20
16.0401716181
 30
0.0
 11
0.0
 21
0.3
 31
0.0
 40
0.0087268678
 41
1.5668961521
 42
4.7178161587
  0
ELLIPSE
  5
8DE
100
AcDbEntity
  8
DRAFT
100
AcDbEllipse
 62
7
  6
CONTINUOUS
 10
22.6780278212
 20
16.0401716181
 30
0.0
 11
0.0
 21
0.3
 31
0.0
 40
0.0087268678
 41
1.5653691484
 42
4.716289155
  0
ELLIPSE
  5
8DF
100
AcDbEntity
  8
DRAFT
100
AcDbEllipse
 62
7
  6
CONTINUOUS
 10
22.6518472179
 20
16.1401716181
 30
0.0
 11
0.0
 21
0.3
 31
0.0
 40
0.0087268678
 41
1.8968544916
 42
4.3848038119
  0
ELLIPSE
  5
8E0
100
AcDbEntity
  8
DRAFT
100
AcDbEllipse
 62
7
  6
CONTINUOUS
 10
-22.4917871211
 20
16.1401716181
 30
0.0
 11
-0.0
 21
0.3
 31
0.0
 40
0.0087268678
 41
-4.3848038119
 42
-1.8968544916
  0
ELLIPSE
  5
8E1
100
AcDbEntity
  8
RACCORDO
100
AcDbEllipse
 62
7
  6
CONTINUOUS
 10
-26.7209434418
 20
8.5489566945
 30
0.0
 11
-0.924044409
 21
-0.3827517265
 31
0.0
 40
0.9998215708
 41
-0.3926359958
 42
0.3926359958
  0
ELLIPSE
  5
8E2
100
AcDbEntity
  8
RACCORDO
100
AcDbEllipse
 62
7
  6
CONTINUOUS
 10
-26.7209434418
 20
-8.3686134583
 30
0.0
 11
-0.924044409
 21
0.3827517265
 31
0.0
 40
0.9998215708
 41
-0.3926359958
 42
0.3926359958
  0
ELLIPSE
  5
8E3
100
AcDbEntity
  8
RACCORDO
100
AcDbEllipse
 62
7
  6
CONTINUOUS
 10
26.8810035385
 20
-8.3686134583
 30
0.0
 11
0.924044409
 21
0.3827517265
 31
-0.0
 40
0.9998215708
 41
-0.3926359958
 42
0.3926359958
  0
ELLIPSE
  5
8E4
100
AcDbEntity
  8
DRAFT
100
AcDbEllipse
 62
7
  6
CONTINUOUS
 10
22.6518472179
 20
6.5401716181
 30
0.0
 11
-0.0
 21
0.3
 31
0.0
 40
0.0087268678
 41
-1.2432111583
 42
-0.0000047623
  0
ELLIPSE
  5
8E5
100
AcDbEntity
  8
RACCORDO
100
AcDbEllipse
 62
7
  6
CONTINUOUS
 10
26.8810035385
 20
8.5489566945
 30
0.0
 11
0.924044409
 21
-0.3827517265
 31
-0.0
 40
0.9998215708
 41
-0.3926359958
 42
0.3926359958
  0
ELLIPSE
  5
8E6
100
AcDbEntity
  8
DRAFT
100
AcDbEllipse
 62
7
  6
CONTINUOUS
 10
-22.4917871211
 20
6.5401716181
 30
0.0
 11
-0.0
 21
0.3
 31
0.0
 40
0.0087268678
 41
0.0000047623
 42
1.2432111583
  0
ELLIPSE
  5
8E7
100
AcDbEntity
  8
DRAFT
100
AcDbEllipse
 62
7
  6
CONTINUOUS
 10
22.6780278212
 20
6.6401716181
 30
0.0
 11
0.0
 21
0.3
 31
0.0
 40
0.0087268678
 41
-1.5746965014
 42
-0.0000051363
  0
ELLIPSE
  5
8E8
100
AcDbEntity
  8
DRAFT
100
AcDbEllipse
 62
7
  6
CONTINUOUS
 10
-22.5179677245
 20
6.6401716181
 30
0.0
 11
0.0
 21
0.3
 31
0.0
 40
0.0087268678
 41
0.0000051363
 42
1.5746965014
  0
ELLIPSE
  5
8E9
100
AcDbEntity
  8
DRAFT
100
AcDbEllipse
 62
7
  6
CONTINUOUS
 10
22.6518472179
 20
-15.9598283819
 30
0.0
 11
0.0
 21
0.3
 31
0.0
 40
0.0087268678
 41
-1.2432111583
 42
-0.0000047623
  0
ELLIPSE
  5
8EA
100
AcDbEntity
  8
DRAFT
100
AcDbEllipse
 62
7
  6
CONTINUOUS
 10
-22.4917871211
 20
-15.9598283819
 30
0.0
 11
-0.0
 21
0.3
 31
0.0
 40
0.0087268678
 41
0.0000047623
 42
1.2432111583
  0
ELLIPSE
  5
8EB
100
AcDbEntity
  8
DRAFT
100
AcDbEllipse
 62
7
  6
CONTINUOUS
 10
22.6780278212
 20
-15.8598283819
 30
0.0
 11
-0.0
 21
0.3
 31
0.0
 40
0.0087268678
 41
-1.5746965014
 42
-0.0000051363
  0
ELLIPSE
  5
8EC
100
AcDbEntity
  8
RACCORDO
100
AcDbEllipse
 62
7
  6
CONTINUOUS
 10
6.6560990874
 20
24.7160883291
 30
0.0
 11
0.0
 21
1.0
 31
0.0
 40
0.0174550649
 41
0.0174532925
 42
1.4885671368
  0
ELLIPSE
  5
8ED
100
AcDbEntity
  8
DRAFT
100
AcDbEllipse
 62
7
  6
CONTINUOUS
 10
-22.5179677245
 20
-15.8598283819
 30
0.0
 11
-0.0
 21
0.3
 31
0.0
 40
0.0087268678
 41
0.0000051363
 42
1.5746965014
  0
ELLIPSE
  5
8EE
100
AcDbEntity
  8
DRAFT
100
AcDbEllipse
 62
7
  6
CONTINUOUS
 10
24.7950063602
 20
0.0901716181
 30
0.0
 11
0.0
 21
5.0
 31
0.0
 40
0.0174550649
 41
-2.4980915448
 42
-0.6435011088
  0
ELLIPSE
  5
8EF
100
AcDbEntity
  8
DRAFT
100
AcDbEllipse
 62
7
  6
CONTINUOUS
 10
22.7609330653
 20
0.0901716181
 30
0.0
 11
-0.0
 21
5.0
 31
0.0
 40
0.0087268678
 41
0.6435011088
 42
2.4980915448
  0
ELLIPSE
  5
8F0
100
AcDbEntity
  8
DRAFT
100
AcDbEllipse
 62
7
  6
CONTINUOUS
 10
-22.6008729685
 20
0.0901716181
 30
0.0
 11
0.0
 21
5.0
 31
0.0
 40
0.0087268678
 41
-2.4980915448
 42
-0.6435011088
  0
ELLIPSE
  5
8F1
100
AcDbEntity
  8
DRAFT
100
AcDbEllipse
 62
7
  6
CONTINUOUS
 10
-24.6349462634
 20
0.0901716181
 30
0.0
 11
0.0
 21
5.0
 31
0.0
 40
0.0174550649
 41
0.6435011088
 42
2.4980915448
  0
ELLIPSE
  5
8F2
100
AcDbEntity
  8
RACCORDO
100
AcDbEllipse
 62
7
  6
CONTINUOUS
 10
-6.4960389906
 20
24.7160883291
 30
0.0
 11
0.0
 21
1.0
 31
0.0
 40
0.0174550649
 41
-1.4885671368
 42
-0.0174532925
  0
ELLIPSE
  5
8F3
100
AcDbEntity
  8
DRAFT
100
AcDbEllipse
 62
7
  6
CONTINUOUS
 10
-4.7199699516
 20
-22.4816455514
 30
0.0
 11
0.3
 21
-0.0
 31
0.0
 40
0.0087268678
 41
-1.2432111583
 42
-0.0000047623
  0
ELLIPSE
  5
8F4
100
AcDbEntity
  8
DRAFT
100
AcDbEllipse
 62
7
  6
CONTINUOUS
 10
-4.7199699516
 20
22.6619887876
 30
0.0
 11
0.3
 21
-0.0
 31
0.0
 40
0.0087268678
 41
0.0000047623
 42
1.2432111583
  0
ELLIPSE
  5
8F5
100
AcDbEntity
  8
DRAFT
100
AcDbEllipse
 62
7
  6
CONTINUOUS
 10
-4.6199699516
 20
-22.5078261547
 30
0.0
 11
0.3
 21
-0.0
 31
0.0
 40
0.0087268678
 41
-1.5746965014
 42
-0.0000051363
  0
ELLIPSE
  5
8F6
100
AcDbEntity
  8
DRAFT
100
AcDbEllipse
 62
7
  6
CONTINUOUS
 10
-4.6199699516
 20
22.688169391
 30
0.0
 11
0.3
 21
-0.0
 31
0.0
 40
0.0087268678
 41
0.0000051363
 42
1.5746965014
  0
ELLIPSE
  5
8F7
100
AcDbEntity
  8
RACCORDO
100
AcDbEllipse
 62
7
  6
CONTINUOUS
 10
-26.7698176236
 20
8.5287123455
 30
0.0
 11
0.924044409
 21
0.3827517265
 31
0.0
 40
0.9998215708
 41
2.7489566578
 42
3.5342286494
  0
ELLIPSE
  5
8F8
100
AcDbEntity
  8
RACCORDO
100
AcDbEllipse
 62
7
  6
CONTINUOUS
 10
-26.7698176236
 20
-8.3483691093
 30
0.0
 11
0.924044409
 21
-0.3827517265
 31
0.0
 40
0.9998215708
 41
2.7489566578
 42
3.5342286494
  0
ELLIPSE
  5
8F9
100
AcDbEntity
  8
RACCORDO
100
AcDbEllipse
 62
7
  6
CONTINUOUS
 10
-8.358510679
 20
-26.7596760538
 30
0.0
 11
-0.3827517265
 21
0.924044409
 31
0.0
 40
0.9998215708
 41
-3.5342286494
 42
-2.7489566578
  0
ELLIPSE
  5
8FA
100
AcDbEntity
  8
RACCORDO
100
AcDbEllipse
 62
7
  6
CONTINUOUS
 10
8.5185707758
 20
-26.7596760538
 30
0.0
 11
0.3827517265
 21
0.924044409
 31
0.0
 40
0.9998215708
 41
-3.5342286494
 42
-2.7489566578
  0
ELLIPSE
  5
8FB
100
AcDbEntity
  8
RACCORDO
100
AcDbEllipse
 62
7
  6
CONTINUOUS
 10
26.9298777203
 20
-8.3483691093
 30
0.0
 11
0.924044409
 21
0.3827517265
 31
0.0
 40
0.9998215708
 41
-0.3926359958
 42
0.3926359958
  0
ELLIPSE
  5
8FC
100
AcDbEntity
  8
RACCORDO
100
AcDbEllipse
 62
7
  6
CONTINUOUS
 10
26.9298777203
 20
8.5287123455
 30
0.0
 11
0.924044409
 21
-0.3827517265
 31
0.0
 40
0.9998215708
 41
-0.3926359958
 42
0.3926359958
  0
ELLIPSE
  5
8FD
100
AcDbEntity
  8
RACCORDO
100
AcDbEllipse
 62
7
  6
CONTINUOUS
 10
8.5185707758
 20
26.9400192901
 30
0.0
 11
-0.3827517265
 21
0.924044409
 31
0.0
 40
0.9998215708
 41
-0.3926359958
 42
0.3926359958
  0
ELLIPSE
  5
8FE
100
AcDbEntity
  8
RACCORDO
100
AcDbEllipse
 62
7
  6
CONTINUOUS
 10
-8.358510679
 20
26.9400192901
 30
0.0
 11
0.3827517265
 21
0.924044409
 31
0.0
 40
0.9998215708
 41
-0.3926359958
 42
0.3926359958
  0
ELLIPSE
  5
8FF
100
AcDbEntity
  8
RACCORDO
100
AcDbEllipse
 62
7
  6
CONTINUOUS
 10
-22.1746771337
 20
22.3448788002
 30
0.0
 11
0.2828642525
 21
-0.2828642524
 31
0.0
 40
0.9999238505
 41
2.3562325663
 42
3.4676378421
  0
ELLIPSE
  5
900
100
AcDbEntity
  8
RACCORDO
100
AcDbEllipse
 62
7
  6
CONTINUOUS
 10
-22.1609467509
 20
22.3311484174
 30
0.0
 11
0.3016715118
 21
-0.2926827058
 31
0.0
 40
0.9516446374
 41
-2.831438248
 42
-2.3721233495
  0
ELLIPSE
  5
901
100
AcDbEntity
  8
RACCORDO
100
AcDbEllipse
 62
7
  6
CONTINUOUS
 10
22.3347372305
 20
22.3448788002
 30
0.0
 11
0.2828642524
 21
0.2828642525
 31
0.0
 40
0.9999238505
 41
-0.7853600872
 42
0.7853600871
  0
ELLIPSE
  5
902
100
AcDbEntity
  8
RACCORDO
100
AcDbEllipse
 62
7
  6
CONTINUOUS
 10
22.3347372305
 20
-22.164535564
 30
0.0
 11
0.2828642525
 21
-0.2828642524
 31
0.0
 40
0.9999238505
 41
-0.7853600872
 42
0.3260451886
  0
ELLIPSE
  5
903
100
AcDbEntity
  8
RACCORDO
100
AcDbEllipse
 62
7
  6
CONTINUOUS
 10
22.3210068477
 20
-22.1508051812
 30
0.0
 11
0.3016715118
 21
-0.2926827058
 31
0.0
 40
0.9516446374
 41
0.3101544056
 42
0.7694693041
  0
ELLIPSE
  5
904
100
AcDbEntity
  8
RACCORDO
100
AcDbEllipse
 62
7
  6
CONTINUOUS
 10
-22.1746771337
 20
-22.164535564
 30
0.0
 11
0.2828642525
 21
0.2828642524
 31
0.0
 40
0.9999238505
 41
-3.9269527408
 42
-2.3562325664
  0
ELLIPSE
  5
905
100
AcDbEntity
  8
0
100
AcDbEllipse
 62
7
  6
CONTINUOUS
 10
-30.5202557572
 20
-24.5411992318
 30
0.0
 11
0.4808512879
 21
0.9893341392
 31
0.0
 40
1.0
 41
-0.30404284
 42
0.3672954924
  0
ELLIPSE
  5
906
100
AcDbEntity
  8
0
100
AcDbEllipse
 62
7
  6
CONTINUOUS
 10
-30.5202557572
 20
-24.5411992318
 30
0.0
 11
-0.4429295652
 21
1.0068830122
 31
0.0
 40
1.0
 41
-0.4995425817
 42
-0.4144245294
  0
ELLIPSE
  5
907
100
AcDbEntity
  8
0
100
AcDbEllipse
 62
7
  6
CONTINUOUS
 10
-31.5196841461
 20
-24.5411992318
 30
0.0
 11
0.1762004673
 21
1.0857962034
 31
0.0
 40
1.0
 41
0.1608752772
 42
0.8340191483
  0
ELLIPSE
  5
908
100
AcDbEntity
  8
0
100
AcDbEllipse
 62
7
  6
CONTINUOUS
 10
-31.5196841461
 20
-24.5411992318
 30
0.0
 11
-0.1622689597
 21
1.0879654336
 31
0.0
 40
1.0
 41
0.5250862982
 42
0.6083988117
  0
ELLIPSE
  5
909
100
AcDbEntity
  8
0
100
AcDbEllipse
 62
7
  6
CONTINUOUS
 10
-31.5196841461
 20
-9.278457532
 30
0.0
 11
-0.0124975796
 21
1.0999290025
 31
0.0
 40
1.0
 41
-3.9094107187
 42
-3.2380723866
  0
ELLIPSE
  5
90A
100
AcDbEntity
  8
0
100
AcDbEllipse
 62
7
  6
CONTINUOUS
 10
-31.5196841461
 20
-9.278457532
 30
0.0
 11
-0.2675686313
 21
1.0669615867
 31
0.0
 40
1.0
 41
-3.472419829
 42
-3.3873017764
  0
ELLIPSE
  5
90B
100
AcDbEntity
  8
0
100
AcDbEllipse
 62
7
  6
CONTINUOUS
 10
-30.5202557572
 20
-9.278457532
 30
0.0
 11
-0.3327678511
 21
1.0484586579
 31
0.0
 40
1.0
 41
-3.4489241296
 42
-2.7757802586
  0
ELLIPSE
  5
90C
100
AcDbEntity
  8
0
100
AcDbEllipse
 62
7
  6
CONTINUOUS
 10
-30.5202557572
 20
-9.278457532
 30
0.0
 11
-0.2447324862
 21
1.0724299558
 31
0.0
 40
1.0
 41
-2.6928104546
 42
-2.6094979409
  0
ELLIPSE
  5
90D
100
AcDbEntity
  8
0
100
AcDbEllipse
 62
7
  6
CONTINUOUS
 10
30.6803158539
 20
-9.278457532
 30
0.0
 11
0.2440871775
 21
1.0725770134
 31
0.0
 40
1.0
 41
-3.6742890507
 42
-3.0028667912
  0
ELLIPSE
  5
90E
100
AcDbEntity
  8
0
100
AcDbEllipse
 62
7
  6
CONTINUOUS
 10
30.6803158539
 20
-9.278457532
 30
0.0
 11
-0.197583864
 21
1.0821093367
 31
0.0
 40
1.0
 41
-3.4072286565
 42
-3.3221945313
  0
ELLIPSE
  5
90F
100
AcDbEntity
  8
0
100
AcDbEllipse
 62
7
  6
CONTINUOUS
 10
31.6797442428
 20
-9.278457532
 30
0.0
 11
0.0
 21
1.1
 31
0.0
 40
1.0
 41
-3.1415926536
 42
-2.4684650287
  0
ELLIPSE
  5
910
100
AcDbEntity
  8
0
100
AcDbEllipse
 62
7
  6
CONTINUOUS
 10
31.6797442428
 20
-9.278457532
 30
0.0
 11
0.3844581966
 21
1.0306269427
 31
0.0
 40
1.0
 41
-2.1114196794
 42
-2.0280909196
  0
ELLIPSE
  5
911
100
AcDbEntity
  8
0
100
AcDbEllipse
 62
7
  6
CONTINUOUS
 10
31.6797442428
 20
-24.5411992318
 30
0.0
 11
0.491934955
 21
0.9838699101
 31
0.0
 40
1.0
 41
-0.2928087757
 42
0.3786134838
  0
ELLIPSE
  5
912
100
AcDbEntity
  8
0
100
AcDbEllipse
 62
7
  6
CONTINUOUS
 10
31.6797442428
 20
-24.5411992318
 30
0.0
 11
-0.3134415239
 21
1.0543976532
 31
0.0
 40
1.0
 41
-0.3739850936
 42
-0.2889509685
  0
ELLIPSE
  5
913
100
AcDbEntity
  8
0
100
AcDbEllipse
 62
7
  6
CONTINUOUS
 10
30.6803158539
 20
-24.5411992318
 30
0.0
 11
0.2103710352
 21
1.0796962663
 31
0.0
 40
1.0
 41
0.192431824
 42
0.8655594489
  0
ELLIPSE
  5
914
100
AcDbEntity
  8
0
100
AcDbEllipse
 62
7
  6
CONTINUOUS
 10
30.6803158539
 20
-24.5411992318
 30
0.0
 11
-0.1948865827
 21
1.082598365
 31
0.0
 40
1.0
 41
0.4950177971
 42
0.578346557
  0
ELLIPSE
  5
915
100
AcDbEntity
  8
0
100
AcDbEllipse
 62
7
  6
CONTINUOUS
 10
30.6803158539
 20
24.721542468
 30
0.0
 11
0.6475909254
 21
0.8891715208
 31
0.0
 40
1.0
 41
-3.2685758188
 42
-2.5971525326
  0
ELLIPSE
  5
916
100
AcDbEntity
  8
0
100
AcDbEllipse
 62
7
  6
CONTINUOUS
 10
30.6803158539
 20
24.721542468
 30
0.0
 11
-0.0
 21
1.1
 31
0.0
 40
1.0
 41
-3.2266257521
 42
-3.1415926536
  0
ELLIPSE
  5
917
100
AcDbEntity
  8
0
100
AcDbEllipse
 62
7
  6
CONTINUOUS
 10
31.6797442428
 20
24.721542468
 30
0.0
 11
0.0
 21
1.1
 31
0.0
 40
1.0
 41
-3.1415926536
 42
-2.4684650739
  0
ELLIPSE
  5
918
100
AcDbEntity
  8
0
100
AcDbEllipse
 62
7
  6
CONTINUOUS
 10
31.6797442428
 20
24.721542468
 30
0.0
 11
-0.0130924553
 21
1.0999220825
 31
0.0
 40
1.0
 41
-2.480367587
 42
-2.397038782
  0
ELLIPSE
  5
919
100
AcDbEntity
  8
0
100
AcDbEllipse
 62
7
  6
CONTINUOUS
 10
31.6797442428
 20
9.4588007682
 30
0.0
 11
-0.0
 21
1.1
 31
0.0
 40
1.0
 41
-0.7564563847
 42
-0.0850330985
  0
ELLIPSE
  5
91A
100
AcDbEntity
  8
0
100
AcDbEllipse
 62
7
  6
CONTINUOUS
 10
31.6797442428
 20
9.4588007682
 30
0.0
 11
-0.4801898613
 21
0.9896553426
 31
0.0
 40
1.0
 41
-0.5367781944
 42
-0.4517450959
  0
ELLIPSE
  5
91B
100
AcDbEntity
  8
0
100
AcDbEllipse
 62
7
  6
CONTINUOUS
 10
30.6803158539
 20
9.4588007682
 30
0.0
 11
0.4495113564
 21
1.0039619218
 31
0.0
 40
1.0
 41
0.4209708002
 42
1.0940983799
  0
ELLIPSE
  5
91C
100
AcDbEntity
  8
0
100
AcDbEllipse
 62
7
  6
CONTINUOUS
 10
30.6803158539
 20
9.4588007682
 30
0.0
 11
0.0
 21
1.1
 31
0.0
 40
1.0
 41
0.6731275797
 42
0.7564563847
  0
ELLIPSE
  5
91D
100
AcDbEntity
  8
0
100
AcDbEllipse
 62
7
  6
CONTINUOUS
 10
-31.5196841461
 20
24.721542468
 30
0.0
 11
0.9656658083
 21
-0.5267727658
 31
0.0
 40
1.0
 41
-1.8278693087
 42
-1.1564460101
  0
ELLIPSE
  5
91E
100
AcDbEntity
  8
0
100
AcDbEllipse
 62
7
  6
CONTINUOUS
 10
-31.5196841461
 20
24.721542468
 30
0.0
 11
0.0547950721
 21
1.0986343796
 31
0.0
 40
1.0
 41
-3.1767914134
 42
-3.0917583273
  0
ELLIPSE
  5
91F
100
AcDbEntity
  8
0
100
AcDbEllipse
 62
7
  6
CONTINUOUS
 10
-30.5202557572
 20
24.721542468
 30
0.0
 11
-0.1971262305
 21
1.0821927967
 31
0.0
 40
1.0
 41
-3.3217716389
 42
-2.6486440583
  0
ELLIPSE
  5
920
100
AcDbEntity
  8
0
100
AcDbEllipse
 62
7
  6
CONTINUOUS
 10
-30.5202557572
 20
24.721542468
 30
0.0
 11
0.0
 21
1.1
 31
0.0
 40
1.0
 41
-2.4684650731
 42
-2.3851362689
  0
ELLIPSE
  5
921
100
AcDbEntity
  8
0
100
AcDbEllipse
 62
7
  6
CONTINUOUS
 10
-30.5202557572
 20
9.4588007682
 30
0.0
 11
0.0233883814
 21
1.0997513281
 31
0.0
 40
1.0
 41
-0.7351926174
 42
-0.0637693188
  0
ELLIPSE
  5
922
100
AcDbEntity
  8
0
100
AcDbEllipse
 62
7
  6
CONTINUOUS
 10
-30.5202557572
 20
9.4588007682
 30
0.0
 11
-0.0522038225
 21
1.0987605567
 31
0.0
 40
1.0
 41
-0.1325089393
 42
-0.0474758532
  0
ELLIPSE
  5
923
100
AcDbEntity
  8
0
100
AcDbEllipse
 62
7
  6
CONTINUOUS
 10
-31.5196841461
 20
9.4588007682
 30
0.0
 11
-0.0571586001
 21
1.0985139482
 31
0.0
 40
1.0
 41
-0.051985776
 42
0.6211418046
  0
ELLIPSE
  5
924
100
AcDbEntity
  8
0
100
AcDbEllipse
 62
7
  6
CONTINUOUS
 10
-31.5196841461
 20
9.4588007682
 30
0.0
 11
0.9698420586
 21
0.5190437181
 31
0.0
 40
1.0
 41
1.7525270457
 42
1.8358558498
  0
ENDSEC
  0
SECTION
  2
OBJECTS
  0
DICTIONARY
  5
C
100
AcDbDictionary
280
0
281
1
  3
ACAD_GROUP
350
D
  3
ACAD_MLINESTYLE
350
17
  3
ACAD_LAYOUT
350
1A
  3
ACAD_PLOTSETTINGS
350
19
  3
ACAD_PLOTSTYLENAME
350
E
  0
DICTIONARY
  5
D
102
{ACAD_REACTORS
330
C
102
}
100
AcDbDictionary
280
0
281
1
  0
ACDBDICTIONARYWDFLT
  5
E
102
{ACAD_REACTORS
330
C
102
}
100
AcDbDictionary
281
1
  3
Normal
350
F
100
AcDbDictionaryWithDefault
340
F
  0
DICTIONARY
  5
17
102
{ACAD_REACTORS
330
C
102
}
100
AcDbDictionary
280
0
281
1
  3
Standard
350
18
  0
DICTIONARY
  5
19
102
{ACAD_REACTORS
330
C
102
}
100
AcDbDictionary
281
1
  0
DICTIONARY
  5
1A
102
{ACAD_REACTORS
330
C
102
}
100
AcDbDictionary
281
1
  3
Model
350
925
  3
Layout1
350
926
  0
ACDBPLACEHOLDER
  5
F
102
{ACAD_REACTORS
330
E
102
}
  0
MLINESTYLE
  5
18
102
{ACAD_REACTORS
330
17
102
}
100
AcDbMlineStyle
  2
STANDARD
 70
0
  3

 62
256
 51
90.0
 52
90.0
 71
2
 49
0.5
 62
256
  6
BYLAYER
 49
-0.5
 62
256
  6
BYLAYER
  0
LAYOUT
  5
925
102
{ACAD_REACTORS
330
1A
102
}
100
AcDbPlotSettings
  1

  2
none_device
  4
ISO_A4_(297.00_x_210.00_MM)
  6

 40
0.0
 41
0.0
 42
0.0
 43
0.0
 44
297.0
 45
210.0
 46
0.0
 47
0.0
 48
0.0
 49
0.0
140
0.0
141
0.0
142
1.0
143
1.0
 70
1024
 72
1
 73
0
 74
0
  7

 75
0
147
1.0
148
0.0
149
0.0
100
AcDbLayout
  1
Model
 70
0
 71
0
 10
0.0
 20
0.0
 11
297.0
 21
210.0
 12
0.0
 22
0.0
 32
0.0
 14
0.0
 24
0.0
 34
0.0
 15
0.0
 25
0.0
 35
0.0
146
0.0
 13
0.0
 23
0.0
 33
0.0
 16
1.0
 26
0.0
 36
0.0
 17
0.0
 27
1.0
 37
0.0
 76
0
330
212
345
0
346
0
  0
LAYOUT
  5
926
102
{ACAD_REACTORS
330
1A
102
}
100
AcDbPlotSettings
  1

  2
none_device
  4
ISO_A4_(297.00_x_210.00_MM)
  6

 40
0.0
 41
0.0
 42
0.0
 43
0.0
 44
297.0
 45
210.0
 46
0.0
 47
0.0
 48
0.0
 49
0.0
140
0.0
141
0.0
142
1.0
143
1.0
 70
0
 72
1
 73
0
 74
0
  7

 75
0
147
1.0
148
0.0
149
0.0
100
AcDbLayout
  1
Layout1
 70
0
 71
1
 10
0.0
 20
0.0
 11
297.0
 21
210.0
 12
0.0
 22
0.0
 32
0.0
 14
0.0
 24
0.0
 34
0.0
 15
0.0
 25
0.0
 35
0.0
146
0.0
 13
0.0
 23
0.0
 33
0.0
 16
1.0
 26
0.0
 36
0.0
 17
0.0
 27
1.0
 37
0.0
 76
0
330
213
345
0
346
0
  0
ENDSEC
  0
EOF
