  0
SECTION
  2
HEADER
  9
$ACADVER
  1
AC1024
  9
$DWGCODEPAGE
  3
ANSI_1252
  9
$EXTMAX
 10
297.0
 20
210.0
 30
0.0
  9
$EXTMIN
 10
0.0
 20
0.0
 30
0.0
  9
$LIMMIN
 10
0.0
 20
0.0
  9
$LIMMAX
 10
297.0
 20
210.0
  9
$VIEWCTR
 10
148.5
 20
105.0
  9
$VIEWSIZE
 40
210.0
  9
$CLAYER
  8
0
  9
$LTSCALE
 40
16.335
  9
$CELTYPE
  6
BYLAYER
  9
$DIMSCALE
 40
1.0
  9
$DIMASZ
 40
3.0
  9
$DIMEXO
 40
0.5
  9
$DIMDLI
 40
11.286
  9
$DIMEXE
 40
1.5
  9
$DIMCEN
 40
2.673
  9
$DIMLFAC
 40
1.0
  9
$DIMBLK
  1
_FILLED
  9
$DIMALT
 70
0
  9
$DIMALTF
 40
0.0393700787
  9
$DIMTXT
 40
3.0
  9
$DIMTOL
 70
1
  9
$DIMLIM
 70
0
  9
$DIMTFAC
 40
1.0
  9
$DIMTP
 40
0.01
  9
$DIMTM
 40
0.01
  9
$DIMGAP
 40
0.625
  9
$DIMDSEP
 70
44
  9
$AUNITS
 70
0
  9
$PDMODE
 70
3
  9
$PDSIZE
 40
3.0
  9
$HANDSEED
  5
45B
  9
$TILEMODE
 70
1
  9
$MEASUREMENT
 70
1
  9
$INSUNITS
 70
4
  0
ENDSEC
  0
SECTION
  2
CLASSES
  0
CLASS
  1
ACDBDICTIONARYWDFLT
  2
AcDbDictionaryWithDefault
  3
AutoCAD 2000
 90
0
 91
1
280
0
281
0
  0
CLASS
  1
ACDBPLACEHOLDER
  2
AcDbPlaceHolder
  3
AutoCAD 2000
 90
0
 91
1
280
0
281
0
  0
CLASS
  1
LAYOUT
  2
AcDbLayout
  3
AutoCAD 2000
 90
0
 91
0
280
0
281
0
  0
ENDSEC
  0
SECTION
  2
TABLES
  0
TABLE
  2
VPORT
  5
8
100
AcDbSymbolTable
 70
2
  0
VPORT
  5
1F4
100
AcDbSymbolTableRecord
100
AcDbViewportTableRecord
  2
*ACTIVE
 70
0
 10
0.0
 20
0.0
 11
1.0
 21
1.0
 12
148.5
 22
105.0
 13
0.0
 23
0.0
 14
1.0
 24
1.0
 15
0.0
 25
0.0
 16
0.0
 26
0.0
 36
1.0
 17
0.0
 27
0.0
 37
0.0
 40
210.0
 41
1.4142857143
 42
50.0
 43
0.0
 44
0.0
 50
0.0
 51
0.0
 71
0
 72
100
 73
1
 74
1
 75
0
 76
0
 77
0
 78
0
  0
ENDTAB
  0
TABLE
  2
LTYPE
  5
5
100
AcDbSymbolTable
 70
6
  0
LTYPE
  5
14
100
AcDbSymbolTableRecord
100
AcDbLinetypeTableRecord
  2
BYBLOCK
 70
0
  3

 72
65
 73
0
 40
0.0
  0
LTYPE
  5
15
100
AcDbSymbolTableRecord
100
AcDbLinetypeTableRecord
  2
BYLAYER
 70
0
  3

 72
65
 73
0
 40
0.0
  0
LTYPE
  5
16
100
AcDbSymbolTableRecord
100
AcDbLinetypeTableRecord
  2
CONTINUOUS
 70
64
  3
Solid line
 72
65
 73
0
 40
0.0
  0
LTYPE
  5
1F5
100
AcDbSymbolTableRecord
100
AcDbLinetypeTableRecord
  2
CENTER
 70
64
  3
____ _ ____ _ ____ _ ____ _ ____ _ ____ _ ____
 72
65
 73
4
 40
0.6
 49
0.375
 74
0
 49
-0.075
 74
0
 49
0.075
 74
0
 49
-0.075
 74
0
  0
LTYPE
  5
1F6
100
AcDbSymbolTableRecord
100
AcDbLinetypeTableRecord
  2
HIDDEN
 70
64
  3
- - - - - - - - - - - - - - - - - - - -
 72
65
 73
2
 40
0.2
 49
0.1
 74
0
 49
-0.1
 74
0
  0
LTYPE
  5
1F7
100
AcDbSymbolTableRecord
100
AcDbLinetypeTableRecord
  2
PHANTOM
 70
64
  3
_____ _ _ _____ _ _ _____ _ _ _____
 72
65
 73
6
 40
0.8
 49
0.45
 74
0
 49
-0.05
 74
0
 49
0.1
 74
0
 49
-0.05
 74
0
 49
0.1
 74
0
 49
-0.05
 74
0
  0
LTYPE
  5
1F8
100
AcDbSymbolTableRecord
100
AcDbLinetypeTableRecord
  2
DOT
 70
64
  3
. . . . . . . . . . . . . . . . . . . .
 72
65
 73
2
 40
0.2
 49
0.1
 74
0
 49
-0.1
 74
0
  0
LTYPE
  5
1F9
100
AcDbSymbolTableRecord
100
AcDbLinetypeTableRecord
  2
DASHED
 70
64
  3
- - - - - - - - - - - - - - - - - - - -
 72
65
 73
2
 40
0.2
 49
0.1
 74
0
 49
-0.1
 74
0
  0
ENDTAB
  0
TABLE
  2
LAYER
  5
2
100
AcDbSymbolTable
 70
36
  0
LAYER
  5
10
100
AcDbSymbolTableRecord
100
AcDbLayerTableRecord
  2
0
 70
0
 62
7
  6
CONTINUOUS
370
-3
390
F
  0
LAYER
  5
1FA
100
AcDbSymbolTableRecord
100
AcDbLayerTableRecord
  2
DEFAULT_1
 70
0
 62
7
  6
CENTER
370
-3
390
F
  0
LAYER
  5
1FB
100
AcDbSymbolTableRecord
100
AcDbLayerTableRecord
  2
DEFAULT_2
 70
0
 62
7
  6
HIDDEN
370
-3
390
F
  0
LAYER
  5
1FC
100
AcDbSymbolTableRecord
100
AcDbLayerTableRecord
  2
DEFAULT_3
 70
0
 62
7
  6
PHANTOM
370
-3
390
F
  0
LAYER
  5
1FD
100
AcDbSymbolTableRecord
100
AcDbLayerTableRecord
  2
ASSI
 70
0
 62
7
  6
CONTINUOUS
370
-3
390
F
  0
LAYER
  5
1FE
100
AcDbSymbolTableRecord
100
AcDbLayerTableRecord
  2
COLOR5
 70
0
 62
7
  6
CONTINUOUS
370
-3
390
F
  0
LAYER
  5
1FF
100
AcDbSymbolTableRecord
100
AcDbLayerTableRecord
  2
COLORE_TOP
 70
0
 62
7
  6
CONTINUOUS
370
-3
390
F
  0
LAYER
  5
200
100
AcDbSymbolTableRecord
100
AcDbLayerTableRecord
  2
COORDINATE
 70
0
 62
7
  6
CONTINUOUS
370
-3
390
F
  0
LAYER
  5
201
100
AcDbSymbolTableRecord
100
AcDbLayerTableRecord
  2
COORD_ORIGINE
 70
0
 62
7
  6
CONTINUOUS
370
-3
390
F
  0
LAYER
  5
202
100
AcDbSymbolTableRecord
100
AcDbLayerTableRecord
  2
COPY-PUBBLISH
 70
0
 62
7
  6
CONTINUOUS
370
-3
390
F
  0
LAYER
  5
203
100
AcDbSymbolTableRecord
100
AcDbLayerTableRecord
  2
COPY_GEOMETRY
 70
0
 62
7
  6
CONTINUOUS
370
-3
390
F
  0
LAYER
  5
204
100
AcDbSymbolTableRecord
100
AcDbLayerTableRecord
  2
COPY_PUBLISH
 70
0
 62
7
  6
CONTINUOUS
370
-3
390
F
  0
LAYER
  5
205
100
AcDbSymbolTableRecord
100
AcDbLayerTableRecord
  2
COSMETICHE
 70
0
 62
7
  6
CONTINUOUS
370
-3
390
F
  0
LAYER
  5
206
100
AcDbSymbolTableRecord
100
AcDbLayerTableRecord
  2
COSMETICI
 70
0
 62
7
  6
CONTINUOUS
370
-3
390
F
  0
LAYER
  5
207
100
AcDbSymbolTableRecord
100
AcDbLayerTableRecord
  2
CURVE
 70
0
 62
7
  6
CONTINUOUS
370
-3
390
F
  0
LAYER
  5
208
100
AcDbSymbolTableRecord
100
AcDbLayerTableRecord
  2
DRAFT
 70
0
 62
7
  6
CONTINUOUS
370
-3
390
F
  0
LAYER
  5
209
100
AcDbSymbolTableRecord
100
AcDbLayerTableRecord
  2
IGES_SCRITTE
 70
0
 62
7
  6
CONTINUOUS
370
-3
390
F
  0
LAYER
  5
20A
100
AcDbSymbolTableRecord
100
AcDbLayerTableRecord
  2
IMPORTED
 70
0
 62
7
  6
CONTINUOUS
370
-3
390
F
  0
LAYER
  5
20B
100
AcDbSymbolTableRecord
100
AcDbLayerTableRecord
  2
IMPORT_IGES
 70
0
 62
7
  6
CONTINUOUS
370
-3
390
F
  0
LAYER
  5
20C
100
AcDbSymbolTableRecord
100
AcDbLayerTableRecord
  2
INTF_1
 70
0
 62
7
  6
CONTINUOUS
370
-3
390
F
  0
LAYER
  5
20D
100
AcDbSymbolTableRecord
100
AcDbLayerTableRecord
  2
INTF_11
 70
0
 62
7
  6
CONTINUOUS
370
-3
390
F
  0
LAYER
  5
20E
100
AcDbSymbolTableRecord
100
AcDbLayerTableRecord
  2
INTF_12
 70
0
 62
7
  6
CONTINUOUS
370
-3
390
F
  0
LAYER
  5
20F
100
AcDbSymbolTableRecord
100
AcDbLayerTableRecord
  2
INTF_2
 70
0
 62
7
  6
CONTINUOUS
370
-3
390
F
  0
LAYER
  5
210
100
AcDbSymbolTableRecord
100
AcDbLayerTableRecord
  2
INTF_3
 70
0
 62
7
  6
CONTINUOUS
370
-3
390
F
  0
LAYER
  5
211
100
AcDbSymbolTableRecord
100
AcDbLayerTableRecord
  2
INTF_4
 70
0
 62
7
  6
CONTINUOUS
370
-3
390
F
  0
LAYER
  5
212
100
AcDbSymbolTableRecord
100
AcDbLayerTableRecord
  2
INTF_7
 70
0
 62
7
  6
CONTINUOUS
370
-3
390
F
  0
LAYER
  5
213
100
AcDbSymbolTableRecord
100
AcDbLayerTableRecord
  2
INTF_MAGENTA
 70
0
 62
7
  6
CONTINUOUS
370
-3
390
F
  0
LAYER
  5
214
100
AcDbSymbolTableRecord
100
AcDbLayerTableRecord
  2
NOTE
 70
0
 62
7
  6
CONTINUOUS
370
-3
390
F
  0
LAYER
  5
215
100
AcDbSymbolTableRecord
100
AcDbLayerTableRecord
  2
PIANI
 70
0
 62
7
  6
CONTINUOUS
370
-3
390
F
  0
LAYER
  5
216
100
AcDbSymbolTableRecord
100
AcDbLayerTableRecord
  2
PIANI-RIFERIMENTO
 70
0
 62
7
  6
CONTINUOUS
370
-3
390
F
  0
LAYER
  5
217
100
AcDbSymbolTableRecord
100
AcDbLayerTableRecord
  2
PIANI_COPIE_AGGANCI
 70
0
 62
7
  6
CONTINUOUS
370
-3
390
F
  0
LAYER
  5
218
100
AcDbSymbolTableRecord
100
AcDbLayerTableRecord
  2
PIANI_ORIGINE
 70
0
 62
7
  6
CONTINUOUS
370
-3
390
F
  0
LAYER
  5
219
100
AcDbSymbolTableRecord
100
AcDbLayerTableRecord
  2
PIANI_RIFERIMENTO
 70
0
 62
7
  6
CONTINUOUS
370
-3
390
F
  0
LAYER
  5
21A
100
AcDbSymbolTableRecord
100
AcDbLayerTableRecord
  2
PUNTI
 70
0
 62
7
  6
CONTINUOUS
370
-3
390
F
  0
LAYER
  5
21B
100
AcDbSymbolTableRecord
100
AcDbLayerTableRecord
  2
RACCORDO
 70
0
 62
7
  6
CONTINUOUS
370
-3
390
F
  0
LAYER
  5
21C
100
AcDbSymbolTableRecord
100
AcDbLayerTableRecord
  2
RGB__255__255__255__
 70
0
 62
7
  6
CONTINUOUS
370
-3
390
F
  0
LAYER
  5
21D
100
AcDbSymbolTableRecord
100
AcDbLayerTableRecord
  2
RGB____0____0____0__
 70
0
 62
7
  6
CONTINUOUS
370
-3
390
F
  0
LAYER
  5
21E
100
AcDbSymbolTableRecord
100
AcDbLayerTableRecord
  2
RINTRACCIABILITA
 70
0
 62
7
  6
CONTINUOUS
370
-3
390
F
  0
LAYER
  5
21F
100
AcDbSymbolTableRecord
100
AcDbLayerTableRecord
  2
SIMBOLI
 70
0
 62
7
  6
CONTINUOUS
370
-3
390
F
  0
LAYER
  5
220
100
AcDbSymbolTableRecord
100
AcDbLayerTableRecord
  2
SMUSSO
 70
0
 62
7
  6
CONTINUOUS
370
-3
390
F
  0
LAYER
  5
221
100
AcDbSymbolTableRecord
100
AcDbLayerTableRecord
  2
SNAPLINE
 70
0
 62
7
  6
CONTINUOUS
370
-3
390
F
  0
LAYER
  5
222
100
AcDbSymbolTableRecord
100
AcDbLayerTableRecord
  2
SUPERFICI
 70
0
 62
7
  6
CONTINUOUS
370
-3
390
F
  0
LAYER
  5
223
100
AcDbSymbolTableRecord
100
AcDbLayerTableRecord
  2
TRASH
 70
0
 62
7
  6
CONTINUOUS
370
-3
390
F
  0
LAYER
  5
224
100
AcDbSymbolTableRecord
100
AcDbLayerTableRecord
  2
XSEC_DATUMS
 70
0
 62
7
  6
CONTINUOUS
370
-3
390
F
  0
ENDTAB
  0
TABLE
  2
STYLE
  5
3
100
AcDbSymbolTable
 70
1
  0
STYLE
  5
11
100
AcDbSymbolTableRecord
100
AcDbTextStyleTableRecord
  2
STANDARD
 70
0
 40
0.0
 41
0.8
 50
0.0
 71
0
 42
0.2
  3
txt
  4

  0
STYLE
  5
225
100
AcDbSymbolTableRecord
100
AcDbTextStyleTableRecord
  2
TEXTSTYLE_1
 70
0
 40
0.0
 41
0.8
 50
0.0
 71
0
 42
0.2
  3
gdt
  4

  0
ENDTAB
  0
TABLE
  2
VIEW
  5
6
100
AcDbSymbolTable
 70
0
  0
ENDTAB
  0
TABLE
  2
UCS
  5
7
100
AcDbSymbolTable
 70
0
  0
ENDTAB
  0
TABLE
  2
APPID
  5
9
100
AcDbSymbolTable
 70
1
  0
APPID
  5
226
100
AcDbSymbolTableRecord
100
AcDbRegAppTableRecord
  2
ACAD
 70
0
  0
ENDTAB
  0
TABLE
  2
BLOCK_RECORD
  5
1
100
AcDbSymbolTable
 70
0
  0
BLOCK_RECORD
  5
227
100
AcDbSymbolTableRecord
100
AcDbBlockTableRecord
  2
*Model_Space
  0
BLOCK_RECORD
  5
228
100
AcDbSymbolTableRecord
100
AcDbBlockTableRecord
  2
*Paper_Space
  0
BLOCK_RECORD
  5
229
100
AcDbSymbolTableRecord
100
AcDbBlockTableRecord
  2
_FILLED
  0
ENDTAB
  0
TABLE
  2
DIMSTYLE
  5
A
100
AcDbSymbolTable
 70
1
100
AcDbDimStyleTable
 71
0
  0
DIMSTYLE
105
22A
100
AcDbSymbolTableRecord
100
AcDbDimStyleTableRecord
  2
STANDARD
 70
0
  3

  4

 40
1.0
 41
3.0
 42
0.5
 43
0.38
 44
1.5
 45
0.0
 46
0.0
 47
0.01
 48
0.01
140
3.0
141
0.09
142
0.0
143
25.4
144
1.0
145
0.0
146
1.0
147
0.625
 71
1
 72
0
 73
0
 74
0
 75
0
 76
0
 77
1
 78
8
 79
2
170
0
171
1
172
0
173
0
174
0
175
0
176
0
177
0
178
0
270
2
179
2
271
2
272
2
273
2
274
2
275
0
280
0
281
0
282
0
283
1
284
8
285
0
286
0
287
3
288
0
340
11
278
44
341
229
342
229
343
229
344
229
  0
ENDTAB
  0
ENDSEC
  0
SECTION
  2
BLOCKS
  0
BLOCK
  5
20
100
AcDbEntity
  8
0
100
AcDbBlockBegin
  2
*Model_Space
 70
0
 10
0.0
 20
0.0
 30
0.0
  3
*Model_Space
  1

  0
ENDBLK
  5
21
100
AcDbEntity
  8
0
100
AcDbBlockEnd
  0
BLOCK
  5
1C
100
AcDbEntity
  8
0
100
AcDbBlockBegin
  2
*Paper_Space
 70
0
 10
0.0
 20
0.0
 30
0.0
  3
*Paper_Space
  1

  0
ENDBLK
  5
1D
100
AcDbEntity
  8
0
100
AcDbBlockEnd
  0
BLOCK
  5
22B
100
AcDbEntity
  8
0
100
AcDbBlockBegin
  2
_FILLED
 70
64
 10
0.0
 20
0.0
  3
_FILLED
  1

  0
SOLID
  5
22C
100
AcDbEntity
  8
0
  6
BYBLOCK
 62
0
100
AcDbTrace
 10
0.0
 20
0.0
 11
-1.0
 21
0.3166666667
 12
-1.0
 22
-0.3166666667
 13
-1.0
 23
-0.3166666667
  0
ENDBLK
  5
22D
100
AcDbEntity
  8
0
  6
BYBLOCK
 62
0
100
AcDbBlockEnd
  0
ENDSEC
  0
SECTION
  2
ENTITIES
  0
LINE
  5
22E
100
AcDbEntity
  8
DRAFT
100
AcDbLine
 62
7
  6
CONTINUOUS
 10
-26.5
 20
-44.4159061681
 11
-26.2242099741
 21
-44.6916961939
  0
LINE
  5
22F
100
AcDbEntity
  8
DRAFT
100
AcDbLine
 62
7
  6
CONTINUOUS
 10
-32.0
 20
-38.9159061681
 11
-32.2757899725
 21
-38.6401161956
  0
LWPOLYLINE
  5
230
100
AcDbEntity
  8
0
100
AcDbPolyline
 62
250
  6
CONTINUOUS
 90
8
 70
0
 10
13.8806040641
 20
-45.8658278854
 10
13.9797329699
 20
-45.8596777256
 10
14.0773338563
 20
-45.8412926634
 10
14.1719022565
 20
-45.8109560949
 10
14.261980448
 20
-45.7691356422
 10
14.3461799222
 20
-45.7164759456
 10
14.4232027882
 20
-45.6537887269
 10
14.437348211
 20
-45.6404128618
  0
LWPOLYLINE
  5
231
100
AcDbEntity
  8
0
100
AcDbPolyline
 62
7
  6
CONTINUOUS
 90
19
 70
0
 10
13.9233915413
 20
-45.788934241
 10
13.9655663556
 20
-45.7870106822
 10
14.007480448
 20
-45.7829342615
 10
14.0491338183
 20
-45.7767046278
 10
14.0906144522
 20
-45.7683305194
 10
14.1318343641
 20
-45.7578175246
 10
14.1725295968
 20
-45.7451573146
 10
14.21265612
 20
-45.7303802158
 10
14.252257964
 20
-45.7134812067
 10
14.2912032618
 20
-45.6943597524
 10
14.3295559877
 20
-45.6729816002
 10
14.3672521674
 20
-45.6493548118
 10
14.4039680116
 20
-45.6233961184
 10
14.4397077556
 20
-45.5951285423
 10
14.4744671641
 20
-45.5645146334
 10
14.5079097422
 20
-45.5313331069
 10
14.5399233252
 20
-45.4954777897
 10
14.5706200777
 20
-45.4570031745
 10
14.6
 20
-45.4159061681
  0
LINE
  5
232
100
AcDbEntity
  8
0
100
AcDbLine
 62
250
  6
CONTINUOUS
 10
20.9877775347
 20
-45.8747197251
 11
20.9012822569
 21
-45.8769771044
  0
LINE
  5
233
100
AcDbEntity
  8
0
100
AcDbLine
 62
250
  6
CONTINUOUS
 10
20.9012822569
 20
-45.8769771044
 11
20.7957368149
 21
-45.8789800169
  0
LINE
  5
234
100
AcDbEntity
  8
0
100
AcDbLine
 62
250
  6
CONTINUOUS
 10
20.7957368149
 20
-45.8789800169
 11
20.6744828485
 21
-45.8806736874
  0
LINE
  5
235
100
AcDbEntity
  8
0
100
AcDbLine
 62
250
  6
CONTINUOUS
 10
20.6744828485
 20
-45.8806736874
 11
20.5400111366
 21
-45.8820266374
  0
LINE
  5
236
100
AcDbEntity
  8
0
100
AcDbLine
 62
250
  6
CONTINUOUS
 10
20.5400111366
 20
-45.8820266374
 11
20.3231391919
 21
-45.8833376412
  0
LINE
  5
237
100
AcDbEntity
  8
0
100
AcDbLine
 62
250
  6
CONTINUOUS
 10
20.3231391919
 20
-45.8833376412
 11
20.1
 21
-45.8837691083
  0
LINE
  5
238
100
AcDbEntity
  8
SUPERFICI
100
AcDbLine
 62
7
  6
CONTINUOUS
 10
27.9999663226
 20
-46.4159169153
 11
-27.9999989492
 21
-46.4159137018
  0
LINE
  5
239
100
AcDbEntity
  8
DRAFT
100
AcDbLine
 62
7
  6
CONTINUOUS
 10
-28.0
 20
-46.4159061681
 11
28.0
 21
-46.4159061681
  0
LINE
  5
23A
100
AcDbEntity
  8
0
100
AcDbLine
 62
250
  6
CONTINUOUS
 10
-28.0
 20
-45.788934241
 11
13.923397555
 21
-45.788934241
  0
LINE
  5
23B
100
AcDbEntity
  8
0
100
AcDbLine
 62
250
  6
CONTINUOUS
 10
21.0766024408
 20
-45.788934241
 11
28.0
 21
-45.788934241
  0
LWPOLYLINE
  5
23C
100
AcDbEntity
  8
0
100
AcDbPolyline
 62
7
  6
CONTINUOUS
 90
27
 70
0
 10
-0.0
 20
-46.2325974137
 10
-0.7123686793
 20
-46.2322047783
 10
-1.4167418309
 20
-46.2310656635
 10
-2.1131194549
 20
-46.2291800692
 10
-2.8040759678
 20
-46.2265352119
 10
-3.487036953
 20
-46.223143875
 10
-4.1542791612
 20
-46.2190444095
 10
-4.8056241641
 20
-46.2142287773
 10
-5.4412503899
 20
-46.2087050164
 10
-6.0539698731
 20
-46.2025355923
 10
-6.6435225932
 20
-46.1957131758
 10
-7.2101685707
 20
-46.1882450959
 10
-7.7474999019
 20
-46.1802158055
 10
-8.2551838284
 20
-46.1716189339
 10
-8.7335531086
 20
-46.1624608516
 10
-9.1771981137
 20
-46.1528451226
 10
-9.5857246794
 20
-46.1427665521
 10
-9.95952697
 20
-46.1322303349
 10
-10.2943778506
 20
-46.1213556196
 10
-10.5898351732
 20
-46.1101385637
 10
-10.8463410857
 20
-46.0985830098
 10
-11.0609948965
 20
-46.0868196335
 10
-11.2333215313
 20
-46.0748460758
 10
-11.3637960644
 20
-46.0626646957
 10
-11.4509430274
 20
-46.0504132461
 10
-11.4942705975
 20
-46.0380909316
 10
-11.5
 20
-46.0318947396
  0
LWPOLYLINE
  5
23D
100
AcDbEntity
  8
0
100
AcDbPolyline
 62
7
  6
CONTINUOUS
 90
27
 70
0
 10
-0.0
 20
-45.8311920656
 10
0.7123686793
 20
-45.8315847009
 10
1.4167418309
 20
-45.8327238157
 10
2.1131194549
 20
-45.83460941
 10
2.8040759678
 20
-45.8372542674
 10
3.487036953
 20
-45.8406456043
 10
4.1542791612
 20
-45.8447450697
 10
4.8056241641
 20
-45.849560702
 10
5.4412503899
 20
-45.8550844628
 10
6.0539698731
 20
-45.861253887
 10
6.6435225932
 20
-45.8680763035
 10
7.2101685707
 20
-45.8755443833
 10
7.7474999019
 20
-45.8835736738
 10
8.2551838284
 20
-45.8921705454
 10
8.7335531086
 20
-45.9013286277
 10
9.1771981137
 20
-45.9109443567
 10
9.5857246794
 20
-45.9210229272
 10
9.95952697
 20
-45.9315591444
 10
10.2943778506
 20
-45.9424338597
 10
10.5898351732
 20
-45.9536509155
 10
10.8463410857
 20
-45.9652064695
 10
11.0609948965
 20
-45.9769698457
 10
11.2333215313
 20
-45.9889434035
 10
11.3637960644
 20
-46.0011247836
 10
11.4509430274
 20
-46.0133762332
 10
11.4942705975
 20
-46.0256985476
 10
11.5
 20
-46.0318947396
  0
LINE
  5
23E
100
AcDbEntity
  8
0
100
AcDbLine
 62
250
  6
CONTINUOUS
 10
20.1
 20
-45.8837691083
 11
14.7505541033
 21
-45.8835792034
  0
LINE
  5
23F
100
AcDbEntity
  8
0
100
AcDbLine
 62
250
  6
CONTINUOUS
 10
14.7505541033
 20
-45.8835792034
 11
14.5306116869
 21
-45.8825592209
  0
LINE
  5
240
100
AcDbEntity
  8
0
100
AcDbLine
 62
250
  6
CONTINUOUS
 10
14.5306116869
 20
-45.8825592209
 11
14.3917038015
 21
-45.8813977904
  0
LINE
  5
241
100
AcDbEntity
  8
0
100
AcDbLine
 62
250
  6
CONTINUOUS
 10
14.3917038015
 20
-45.8813977904
 11
14.2630832044
 21
-45.8798695736
  0
LINE
  5
242
100
AcDbEntity
  8
0
100
AcDbLine
 62
250
  6
CONTINUOUS
 10
14.2630832044
 20
-45.8798695736
 11
14.1491987609
 21
-45.8780110091
  0
LWPOLYLINE
  5
243
100
AcDbEntity
  8
0
100
AcDbPolyline
 62
250
  6
CONTINUOUS
 90
10
 70
0
 10
14.1491987609
 20
-45.8780110091
 10
14.0531623698
 20
-45.8758808351
 10
14.0122548231
 20
-45.8747207124
 10
13.9767582441
 20
-45.8735227254
 10
13.9468438943
 20
-45.8722863131
 10
13.9223405122
 20
-45.8710120365
 10
13.9034451345
 20
-45.8697264074
 10
13.89022344
 20
-45.868438263
 10
13.8826097498
 20
-45.867138766
 10
13.880604064
 20
-45.8658279165
  0
LWPOLYLINE
  5
244
100
AcDbEntity
  8
0
100
AcDbPolyline
 62
250
  6
CONTINUOUS
 90
8
 70
0
 10
-33.4499217485
 20
-35.0353021041
 10
-33.4512328023
 20
-35.0332991212
 10
-33.4525326416
 20
-35.0256811544
 10
-33.4538212666
 20
-35.0124482037
 10
-33.4551075974
 20
-34.9935338113
 10
-33.4563827137
 20
-34.9690044349
 10
-33.4576198546
 20
-34.9390594478
 10
-33.4588184195
 20
-34.9035245278
  0
LINE
  5
245
100
AcDbEntity
  8
DRAFT
100
AcDbLine
 62
7
  6
CONTINUOUS
 10
-32.0
 20
29.0840938319
 11
-32.2757899725
 21
28.8083038595
  0
LINE
  5
246
100
AcDbEntity
  8
DRAFT
100
AcDbLine
 62
7
  6
CONTINUOUS
 10
-26.5
 20
34.5840938319
 11
-26.2242099741
 21
34.8598838578
  0
LWPOLYLINE
  5
247
100
AcDbEntity
  8
0
100
AcDbPolyline
 62
250
  6
CONTINUOUS
 90
8
 70
0
 10
-21.119395936
 20
36.0340155804
 10
-21.1173897144
 20
36.0353263587
 10
-21.1097772139
 20
36.0366257566
 10
-21.0965584344
 20
36.0379137743
 10
-21.0776678813
 20
36.0391992311
 10
-21.0531710492
 20
36.0404733075
 10
-21.0232644223
 20
36.0417095453
 10
-20.9877775347
 20
36.042907389
  0
LWPOLYLINE
  5
248
100
AcDbEntity
  8
RACCORDO
100
AcDbPolyline
 62
7
  6
CONTINUOUS
 90
6
 70
0
 10
-3.9318001715
 20
45.6085170537
 10
-3.916171827
 20
45.6157992476
 10
-3.9019257866
 20
45.6215692608
 10
-3.8891890334
 20
45.6260825122
 10
-3.8783802719
 20
45.6294691479
 10
-3.8694209107
 20
45.6319888995
  0
LWPOLYLINE
  5
249
100
AcDbEntity
  8
RACCORDO
100
AcDbPolyline
 62
7
  6
CONTINUOUS
 90
6
 70
0
 10
-8.1792111858
 20
43.9123263109
 10
-8.1609122323
 20
43.9207853078
 10
-8.144029736
 20
43.9274651849
 10
-8.1287099056
 20
43.9326964617
 10
-8.1154742322
 20
43.9366499396
 10
-8.1105197227
 20
43.9380076228
  0
LWPOLYLINE
  5
24A
100
AcDbEntity
  8
RACCORDO
100
AcDbPolyline
 62
7
  6
CONTINUOUS
 90
6
 70
0
 10
-9.928145133
 20
42.1404571882
 10
-9.9086191812
 20
42.1494512668
 10
-9.8905001707
 20
42.1565460386
 10
-9.8739424547
 20
42.1621078607
 10
-9.8595146254
 20
42.1663274802
 10
-9.8568936068
 20
42.1670377689
  0
LINE
  5
24B
100
AcDbEntity
  8
0
100
AcDbLine
 62
7
  6
CONTINUOUS
 10
-0.999390827
 20
46.3991379743
 11
-0.997906418
 21
46.3996576184
  0
LINE
  5
24C
100
AcDbEntity
  8
RACCORDO
100
AcDbLine
 62
250
  6
CONTINUOUS
 10
-11.6032888661
 20
40.3290850495
 11
-11.6205624659
 21
40.3230391988
  0
LINE
  5
24D
100
AcDbEntity
  8
RACCORDO
100
AcDbLine
 62
250
  6
CONTINUOUS
 10
-9.8568937803
 20
42.1670377225
 11
-9.8716285186
 21
42.1618854171
  0
LINE
  5
24E
100
AcDbEntity
  8
RACCORDO
100
AcDbLine
 62
250
  6
CONTINUOUS
 10
-8.1105200038
 20
43.9380075477
 11
-8.1226945714
 21
43.9337545398
  0
LINE
  5
24F
100
AcDbEntity
  8
0
100
AcDbLine
 62
7
  6
CONTINUOUS
 10
-5.9963449621
 20
44.5024727545
 11
-5.9873182282
 21
44.5056229313
  0
LINE
  5
250
100
AcDbEntity
  8
RACCORDO
100
AcDbLine
 62
250
  6
CONTINUOUS
 10
-3.8694213154
 20
45.6319887913
 11
-3.8752835565
 21
45.6299452829
  0
LINE
  5
251
100
AcDbEntity
  8
0
100
AcDbLine
 62
7
  6
CONTINUOUS
 10
14.6
 20
-45.4159061681
 11
20.4
 21
-45.4159061681
  0
LINE
  5
252
100
AcDbEntity
  8
RACCORDO
100
AcDbLine
 62
7
  6
CONTINUOUS
 10
-28.0
 20
-44.6916961405
 11
-26.2242100275
 21
-44.6916961405
  0
LINE
  5
253
100
AcDbEntity
  8
RACCORDO
100
AcDbLine
 62
7
  6
CONTINUOUS
 10
28.0
 20
-44.6916961405
 11
26.2242100275
 21
-44.6916961405
  0
LINE
  5
254
100
AcDbEntity
  8
RACCORDO
100
AcDbLine
 62
250
  6
CONTINUOUS
 10
-26.2242099741
 20
-44.6891017763
 11
26.2242099741
 21
-44.6891017763
  0
LINE
  5
255
100
AcDbEntity
  8
DRAFT
100
AcDbLine
 62
7
  6
CONTINUOUS
 10
-28.0
 20
-44.4159061681
 11
-26.5
 21
-44.4159061681
  0
LINE
  5
256
100
AcDbEntity
  8
DRAFT
100
AcDbLine
 62
7
  6
CONTINUOUS
 10
28.0
 20
-44.4159061681
 11
26.5
 21
-44.4159061681
  0
LWPOLYLINE
  5
257
100
AcDbEntity
  8
0
100
AcDbPolyline
 62
250
  6
CONTINUOUS
 90
7
 70
0
 10
21.1193959357
 20
-45.8658373395
 10
21.0202668787
 20
-45.8596853945
 10
20.9226660438
 20
-45.8412986555
 10
20.8280978689
 20
-45.8109605392
 10
20.7380200463
 20
-45.7691386832
 10
20.6538210528
 20
-45.7164777375
 10
20.5742287326
 20
-45.651407309
  0
LWPOLYLINE
  5
258
100
AcDbEntity
  8
0
100
AcDbPolyline
 62
7
  6
CONTINUOUS
 90
4
 70
0
 10
-33.223983283
 20
-28.3537940707
 10
-33.1661341088
 20
-28.4077679465
 10
-33.0864303921
 20
-28.4670047185
 10
-33.0
 20
-28.5159061681
  0
LWPOLYLINE
  5
259
100
AcDbEntity
  8
RACCORDO
100
AcDbPolyline
 62
250
  6
CONTINUOUS
 90
5
 70
0
 10
-9.8716285186
 20
42.1618854171
 10
-9.8775406806
 20
42.1566648061
 10
-9.8740584304
 20
42.1512233124
 10
-9.8599905161
 20
42.1455666046
 10
-9.8342077684
 20
42.1397198677
  0
LWPOLYLINE
  5
25A
100
AcDbEntity
  8
RACCORDO
100
AcDbPolyline
 62
7
  6
CONTINUOUS
 90
8
 70
0
 10
-13.4391308455
 20
38.5249003511
 10
-13.3991818181
 20
38.5438237955
 10
-13.362127859
 20
38.5595967774
 10
-13.3281837226
 20
38.5726377745
 10
-13.2980631538
 20
38.5831468404
 10
-13.2713471077
 20
38.5916764075
 10
-13.2464462527
 20
38.5989908773
 10
-13.230702613
 20
38.6033137442
  0
LWPOLYLINE
  5
25B
100
AcDbEntity
  8
RACCORDO
100
AcDbPolyline
 62
7
  6
CONTINUOUS
 90
5
 70
0
 10
-11.6770790803
 20
40.3016109699
 10
-11.6560314091
 20
40.311261355
 10
-11.6363741342
 20
40.3188547728
 10
-11.6182720307
 20
40.3248062205
 10
-11.6032886099
 20
40.329085118
  0
LINE
  5
25C
100
AcDbEntity
  8
RACCORDO
100
AcDbLine
 62
250
  6
CONTINUOUS
 10
-13.2307031077
 20
38.603313612
 11
-13.2507421308
 21
38.5963277808
  0
LINE
  5
25D
100
AcDbEntity
  8
RACCORDO
100
AcDbLine
 62
250
  6
CONTINUOUS
 10
8.1067765589
 20
43.9186455658
 11
8.1226945714
 21
43.9238537637
  0
LINE
  5
25E
100
AcDbEntity
  8
DRAFT
100
AcDbLine
 62
250
  6
CONTINUOUS
 10
-26.5
 20
-40.4159061681
 11
-26.2242099741
 21
-40.4159061681
  0
LINE
  5
25F
100
AcDbEntity
  8
DRAFT
100
AcDbLine
 62
250
  6
CONTINUOUS
 10
26.5
 20
-40.4159061681
 11
26.2242099741
 21
-40.4159061681
  0
LINE
  5
260
100
AcDbEntity
  8
RACCORDO
100
AcDbLine
 62
250
  6
CONTINUOUS
 10
32.0
 20
-40.4159061681
 11
34.0
 21
-40.4159061681
  0
LINE
  5
261
100
AcDbEntity
  8
RACCORDO
100
AcDbLine
 62
250
  6
CONTINUOUS
 10
-32.0
 20
-40.4159061681
 11
-34.0
 21
-40.4159061681
  0
LINE
  5
262
100
AcDbEntity
  8
DRAFT
100
AcDbLine
 62
7
  6
CONTINUOUS
 10
28.0
 20
-38.9159061681
 11
32.0
 21
-38.9159061681
  0
LINE
  5
263
100
AcDbEntity
  8
DRAFT
100
AcDbLine
 62
7
  6
CONTINUOUS
 10
-28.0
 20
-38.9159061681
 11
-32.0
 21
-38.9159061681
  0
LINE
  5
264
100
AcDbEntity
  8
DRAFT
100
AcDbLine
 62
7
  6
CONTINUOUS
 10
28.0
 20
-38.6401161422
 11
32.2731956082
 21
-38.6401161422
  0
LINE
  5
265
100
AcDbEntity
  8
DRAFT
100
AcDbLine
 62
7
  6
CONTINUOUS
 10
-28.0
 20
-38.6401161422
 11
-32.2731956082
 21
-38.6401161422
  0
LWPOLYLINE
  5
266
100
AcDbEntity
  8
0
100
AcDbPolyline
 62
250
  6
CONTINUOUS
 90
10
 70
0
 10
-33.4499217485
 20
-27.7965102321
 10
-33.441287266
 20
-27.8007727975
 10
-33.4326754337
 20
-27.8051569307
 10
-33.4240862517
 20
-27.8096626315
 10
-33.4155196734
 20
-27.8142879013
 10
-33.4069757452
 20
-27.8190347388
 10
-33.3984546071
 20
-27.8239091401
 10
-33.3899563057
 20
-27.828913104
 10
-33.3814807943
 20
-27.8340446316
 10
-33.3730280729
 20
-27.8393037231
  0
LWPOLYLINE
  5
267
100
AcDbEntity
  8
0
100
AcDbPolyline
 62
250
  6
CONTINUOUS
 90
8
 70
0
 10
-33.4499217173
 20
-27.7965102322
 10
-33.4437715575
 20
-27.895639138
 10
-33.4253864954
 20
-27.9932400244
 10
-33.3950499268
 20
-28.0878084246
 10
-33.3532294741
 20
-28.177886616
 10
-33.3005697776
 20
-28.2620860903
 10
-33.2378825589
 20
-28.3391089563
 10
-33.223983283
 20
-28.3537940707
  0
LWPOLYLINE
  5
268
100
AcDbEntity
  8
0
100
AcDbPolyline
 62
7
  6
CONTINUOUS
 90
19
 70
0
 10
-33.3730280729
 20
-27.8392977093
 10
-33.3711045091
 20
-27.8814725946
 10
-33.3670280777
 20
-27.9233867448
 10
-33.3607984293
 20
-27.9650401597
 10
-33.3524243049
 20
-28.0065208233
 10
-33.3419112943
 20
-28.0477407518
 10
-33.3292510692
 20
-28.0884359931
 10
-33.3144739562
 20
-28.1285625183
 10
-33.2975749356
 20
-28.1681643564
 10
-33.2784534733
 20
-28.2071096422
 10
-33.2570753183
 20
-28.2454623485
 10
-33.2334485325
 20
-28.2831585024
 10
-33.2074898448
 20
-28.3198743211
 10
-33.1792222755
 20
-28.3556140417
 10
-33.1486083764
 20
-28.3903734269
 10
-33.1154268642
 20
-28.4238159817
 10
-33.0795715665
 20
-28.4558295409
 10
-33.0410969761
 20
-28.4865262697
 10
-33.0
 20
-28.5159061681
  0
LINE
  5
269
100
AcDbEntity
  8
0
100
AcDbLine
 62
250
  6
CONTINUOUS
 10
-33.4588184195
 20
-34.9035245278
 11
-33.4610766631
 21
-34.816930196
  0
LINE
  5
26A
100
AcDbEntity
  8
0
100
AcDbLine
 62
250
  6
CONTINUOUS
 10
-33.4610766631
 20
-34.816930196
 11
-33.4630790109
 21
-34.7113241948
  0
LWPOLYLINE
  5
26B
100
AcDbEntity
  8
0
100
AcDbPolyline
 62
7
  6
CONTINUOUS
 90
4
 70
0
 10
-14.437348211
 20
35.8086005256
 10
-14.4918617785
 20
35.7502279407
 10
-14.5510985504
 20
35.670524224
 10
-14.6
 20
35.5840938319
  0
LWPOLYLINE
  5
26C
100
AcDbEntity
  8
RACCORDO
100
AcDbPolyline
 62
250
  6
CONTINUOUS
 90
4
 70
0
 10
-8.1226945714
 20
43.9337545398
 10
-8.1276305203
 20
43.9285264432
 10
-8.1209747138
 20
43.9230578939
 10
-8.1011401975
 20
43.9173576396
  0
LWPOLYLINE
  5
26D
100
AcDbEntity
  8
RACCORDO
100
AcDbPolyline
 62
250
  6
CONTINUOUS
 90
4
 70
0
 10
-11.6205624659
 20
40.3230391988
 10
-11.6276400298
 20
40.3161630208
 10
-11.620753814
 20
40.3089708165
 10
-11.5979880179
 20
40.3014722101
  0
LINE
  5
26E
100
AcDbEntity
  8
RACCORDO
100
AcDbLine
 62
250
  6
CONTINUOUS
 10
9.8567155421
 20
42.1446526511
 11
9.8716285186
 21
42.1498528603
  0
LINE
  5
26F
100
AcDbEntity
  8
RACCORDO
100
AcDbLine
 62
250
  6
CONTINUOUS
 10
11.6002150753
 20
40.3020260253
 11
11.6205624659
 21
40.3088748613
  0
LINE
  5
270
100
AcDbEntity
  8
0
100
AcDbLine
 62
250
  6
CONTINUOUS
 10
-33.4678629402
 20
-34.0159061681
 11
-33.0
 21
-34.0159061681
  0
LINE
  5
271
100
AcDbEntity
  8
0
100
AcDbLine
 62
250
  6
CONTINUOUS
 10
-33.4630790109
 20
-34.7113241948
 11
-33.4647713122
 21
-34.5900758508
  0
LINE
  5
272
100
AcDbEntity
  8
0
100
AcDbLine
 62
250
  6
CONTINUOUS
 10
-33.4647713122
 20
-34.5900758508
 11
-33.4661224884
 21
-34.4556753883
  0
LINE
  5
273
100
AcDbEntity
  8
0
100
AcDbLine
 62
250
  6
CONTINUOUS
 10
-33.4661224884
 20
-34.4556753883
 11
-33.4674317998
 21
-34.2389618507
  0
LWPOLYLINE
  5
274
100
AcDbEntity
  8
0
100
AcDbPolyline
 62
7
  6
CONTINUOUS
 90
27
 70
0
 10
-33.8166912456
 20
-4.9159061681
 10
-33.8162986103
 20
-5.6282748473
 10
-33.8151594955
 20
-6.3326479989
 10
-33.8132739012
 20
-7.0290256229
 10
-33.8106290438
 20
-7.7199821358
 10
-33.8072377069
 20
-8.4029431211
 10
-33.8031382415
 20
-9.0701853292
 10
-33.7983226092
 20
-9.7215303321
 10
-33.7927988484
 20
-10.3571565579
 10
-33.7866294242
 20
-10.9698760411
 10
-33.7798070077
 20
-11.5594287613
 10
-33.7723389279
 20
-12.1260747388
 10
-33.7643096374
 20
-12.66340607
 10
-33.7557127658
 20
-13.1710899965
 10
-33.7465546835
 20
-13.6494592766
 10
-33.7369389546
 20
-14.0931042818
 10
-33.726860384
 20
-14.5016308474
 10
-33.7163241668
 20
-14.8754331381
 10
-33.7054494515
 20
-15.2102840186
 10
-33.6942323957
 20
-15.5057413412
 10
-33.6826768418
 20
-15.7622472537
 10
-33.6709134655
 20
-15.9769010645
 10
-33.6589399077
 20
-16.1492276993
 10
-33.6467585277
 20
-16.2797022324
 10
-33.6345070781
 20
-16.3668491955
 10
-33.6221847636
 20
-16.4101767656
 10
-33.6159885716
 20
-16.4159061681
  0
LINE
  5
275
100
AcDbEntity
  8
0
100
AcDbLine
 62
250
  6
CONTINUOUS
 10
-33.4674317998
 20
-34.2389618507
 11
-33.4678629402
 21
-34.0159061681
  0
LWPOLYLINE
  5
276
100
AcDbEntity
  8
0
100
AcDbPolyline
 62
7
  6
CONTINUOUS
 90
27
 70
0
 10
-33.4152858976
 20
-4.9159061681
 10
-33.4156785329
 20
-4.2035374888
 10
-33.4168176477
 20
-3.4991643372
 10
-33.418703242
 20
-2.8027867132
 10
-33.4213480994
 20
-2.1118302003
 10
-33.4247394362
 20
-1.428869215
 10
-33.4288389017
 20
-0.7616270069
 10
-33.4336545339
 20
-0.110282004
 10
-33.4391782948
 20
0.5253442218
 10
-33.4453477189
 20
1.138063705
 10
-33.4521701355
 20
1.7276164251
 10
-33.4596382153
 20
2.2942624027
 10
-33.4676675058
 20
2.8315937339
 10
-33.4762643774
 20
3.3392776604
 10
-33.4854224596
 20
3.8176469405
 10
-33.4950381886
 20
4.2612919457
 10
-33.5051167591
 20
4.6698185113
 10
-33.5156529763
 20
5.043620802
 10
-33.5265276917
 20
5.3784716825
 10
-33.5377447475
 20
5.6739290051
 10
-33.5493003014
 20
5.9304349176
 10
-33.5610636777
 20
6.1450887284
 10
-33.5730372354
 20
6.3174153632
 10
-33.5852186155
 20
6.4478898963
 10
-33.5974700651
 20
6.5350368593
 10
-33.6097923796
 20
6.5783644294
 10
-33.6159885716
 20
6.5840938319
  0
LINE
  5
277
100
AcDbEntity
  8
SUPERFICI
100
AcDbLine
 62
7
  6
CONTINUOUS
 10
-33.99999988
 20
-40.4159723361
 11
-34.0000081406
 21
30.584089644
  0
LINE
  5
278
100
AcDbEntity
  8
DRAFT
100
AcDbLine
 62
7
  6
CONTINUOUS
 10
-34.0
 20
30.5840938319
 11
-34.0
 21
-40.4159061681
  0
LINE
  5
279
100
AcDbEntity
  8
0
100
AcDbLine
 62
250
  6
CONTINUOUS
 10
-33.3730280729
 20
30.5840938319
 11
-33.3730280729
 21
-27.8393037231
  0
LINE
  5
27A
100
AcDbEntity
  8
0
100
AcDbLine
 62
250
  6
CONTINUOUS
 10
-33.3730280729
 20
-34.9925086089
 11
-33.3730280729
 21
-40.4159061681
  0
LINE
  5
27B
100
AcDbEntity
  8
0
100
AcDbLine
 62
7
  6
CONTINUOUS
 10
-33.0
 20
-28.5159061681
 11
-33.0
 21
-34.3159061681
  0
LINE
  5
27C
100
AcDbEntity
  8
RACCORDO
100
AcDbLine
 62
7
  6
CONTINUOUS
 10
-32.2757899725
 20
-38.6401161956
 11
-32.2757899725
 21
-40.4159061681
  0
LINE
  5
27D
100
AcDbEntity
  8
RACCORDO
100
AcDbLine
 62
7
  6
CONTINUOUS
 10
-32.2757899725
 20
28.8083038595
 11
-32.2757899725
 21
30.5840938319
  0
LINE
  5
27E
100
AcDbEntity
  8
RACCORDO
100
AcDbLine
 62
250
  6
CONTINUOUS
 10
-32.2731956082
 20
28.8083038061
 11
-32.2731956082
 21
-38.6401161422
  0
LINE
  5
27F
100
AcDbEntity
  8
DRAFT
100
AcDbLine
 62
7
  6
CONTINUOUS
 10
-32.0
 20
-38.9159061681
 11
-32.0
 21
-40.4159061681
  0
LINE
  5
280
100
AcDbEntity
  8
DRAFT
100
AcDbLine
 62
7
  6
CONTINUOUS
 10
-32.0
 20
29.0840938319
 11
-32.0
 21
30.5840938319
  0
LINE
  5
281
100
AcDbEntity
  8
0
100
AcDbLine
 62
250
  6
CONTINUOUS
 10
-33.4678629402
 20
-34.0159061681
 11
-33.4676729668
 21
-28.6664000022
  0
LINE
  5
282
100
AcDbEntity
  8
0
100
AcDbLine
 62
250
  6
CONTINUOUS
 10
-33.4676729668
 20
-28.6664000022
 11
-33.4666511766
 21
-28.4462502931
  0
LINE
  5
283
100
AcDbEntity
  8
0
100
AcDbLine
 62
250
  6
CONTINUOUS
 10
-33.4666511766
 20
-28.4462502931
 11
-33.4654875535
 21
-28.307209697
  0
LINE
  5
284
100
AcDbEntity
  8
0
100
AcDbLine
 62
250
  6
CONTINUOUS
 10
-33.4654875535
 20
-28.307209697
 11
-33.4639568348
 21
-28.1785191169
  0
LINE
  5
285
100
AcDbEntity
  8
0
100
AcDbLine
 62
250
  6
CONTINUOUS
 10
-33.4639568348
 20
-28.1785191169
 11
-33.4620967466
 21
-28.0646818362
  0
LWPOLYLINE
  5
286
100
AcDbEntity
  8
0
100
AcDbPolyline
 62
250
  6
CONTINUOUS
 90
10
 70
0
 10
-33.4620967466
 20
-28.0646818362
 10
-33.4599667311
 20
-27.9687585626
 10
-33.4588074186
 20
-27.9279280654
 10
-33.457610445
 20
-27.8925005072
 10
-33.4563753107
 20
-27.8626417203
 10
-33.4551025154
 20
-27.8381858724
 10
-33.4538181522
 20
-27.8193255418
 10
-33.4525309188
 20
-27.8061249213
 10
-33.4512321176
 20
-27.798519818
 10
-33.4499217485
 20
-27.7965102321
  0
LWPOLYLINE
  5
287
100
AcDbEntity
  8
0
100
AcDbPolyline
 62
250
  6
CONTINUOUS
 90
7
 70
0
 10
-33.4499312882
 20
-35.0353021038
 10
-33.4437794014
 20
-34.9361730758
 10
-33.4253926968
 20
-34.8385722591
 10
-33.3950545928
 20
-34.7440040927
 10
-33.3532327293
 20
-34.6539262701
 10
-33.3005717592
 20
-34.5697272701
 10
-33.2349977679
 20
-34.4895945804
  0
LWPOLYLINE
  5
288
100
AcDbEntity
  8
RACCORDO
100
AcDbPolyline
 62
250
  6
CONTINUOUS
 90
4
 70
0
 10
-13.2507421308
 20
38.5963277808
 10
-13.2580882242
 20
38.5858211544
 10
-13.2380971733
 20
38.5753193932
 10
-13.1908083427
 20
38.5648441528
  0
LINE
  5
289
100
AcDbEntity
  8
RACCORDO
100
AcDbLine
 62
250
  6
CONTINUOUS
 10
13.2160765053
 20
38.569686434
 11
13.2507421308
 21
38.5801764125
  0
LINE
  5
28A
100
AcDbEntity
  8
RACCORDO
100
AcDbLine
 62
250
  6
CONTINUOUS
 10
13.9548673832
 20
37.6028700592
 11
13.9914715783
 21
37.6139462628
  0
LINE
  5
28B
100
AcDbEntity
  8
DRAFT
100
AcDbLine
 62
250
  6
CONTINUOUS
 10
-28.0
 20
29.0840938319
 11
-28.0
 21
28.8083038061
  0
LINE
  5
28C
100
AcDbEntity
  8
DRAFT
100
AcDbLine
 62
250
  6
CONTINUOUS
 10
-28.0
 20
-38.9159061681
 11
-28.0
 21
-38.6401161422
  0
LINE
  5
28D
100
AcDbEntity
  8
RACCORDO
100
AcDbLine
 62
250
  6
CONTINUOUS
 10
-28.0
 20
-44.4159061681
 11
-28.0
 21
-46.4159061681
  0
LINE
  5
28E
100
AcDbEntity
  8
RACCORDO
100
AcDbLine
 62
250
  6
CONTINUOUS
 10
-28.0
 20
34.5840938319
 11
-28.0
 21
36.5840938319
  0
LINE
  5
28F
100
AcDbEntity
  8
DRAFT
100
AcDbLine
 62
7
  6
CONTINUOUS
 10
-26.5
 20
34.5840938319
 11
-26.5
 21
30.5840938319
  0
LINE
  5
290
100
AcDbEntity
  8
DRAFT
100
AcDbLine
 62
7
  6
CONTINUOUS
 10
-26.5
 20
-44.4159061681
 11
-26.5
 21
-40.4159061681
  0
LWPOLYLINE
  5
291
100
AcDbEntity
  8
0
100
AcDbPolyline
 62
250
  6
CONTINUOUS
 90
10
 70
0
 10
-13.880604064
 20
36.0340155804
 10
-13.8848666295
 20
36.0253810979
 10
-13.8892507626
 20
36.0167692657
 10
-13.8937564634
 20
36.0081800837
 10
-13.8983817332
 20
35.9996135053
 10
-13.9031285707
 20
35.9910695771
 10
-13.9080029721
 20
35.982548439
 10
-13.9130069359
 20
35.9740501376
 10
-13.9181384636
 20
35.9655746262
 10
-13.923397555
 20
35.9571219048
  0
LWPOLYLINE
  5
292
100
AcDbEntity
  8
0
100
AcDbPolyline
 62
7
  6
CONTINUOUS
 90
21
 70
0
 10
-5.9963449621
 20
44.5024727545
 10
-5.9992176117
 20
44.4972302813
 10
-5.9872958723
 20
44.4920175522
 10
-5.9605797437
 20
44.486834567
 10
-5.918929475
 20
44.4816686092
 10
-5.8624848173
 20
44.4765323954
 10
-5.7916650233
 20
44.4714640758
 10
-5.7063630542
 20
44.4664641558
 10
-5.6066859488
 20
44.4615321301
 10
-5.4933740768
 20
44.456704632
 10
-5.3663259122
 20
44.45198244
 10
-5.2256429809
 20
44.4473647756
 10
-5.0723702309
 20
44.4428859375
 10
-4.9064139169
 20
44.4385469593
 10
-4.727867784
 20
44.4343468073
 10
-4.5380580159
 20
44.4303166789
 10
-4.3369007423
 20
44.4264578401
 10
-4.1244798334
 20
44.4227690249
 10
-3.9023730838
 20
44.4192776327
 10
-3.6705083716
 20
44.4159851335
 10
-3.1795155854
 20
44.410015393
  0
LINE
  5
293
100
AcDbEntity
  8
RACCORDO
100
AcDbLine
 62
250
  6
CONTINUOUS
 10
4.0975023908
 20
45.3353526435
 11
4.1
 21
45.3378498723
  0
LINE
  5
294
100
AcDbEntity
  8
0
100
AcDbLine
 62
7
  6
CONTINUOUS
 10
4.0999998988
 20
44.9987262253
 11
4.0975023908
 21
44.9962448921
  0
LINE
  5
295
100
AcDbEntity
  8
0
100
AcDbLine
 62
7
  6
CONTINUOUS
 10
3.5999998856
 20
44.4988024308
 11
3.5978069773
 21
44.4966255846
  0
LWPOLYLINE
  5
296
100
AcDbEntity
  8
0
100
AcDbPolyline
 62
7
  6
CONTINUOUS
 90
27
 70
0
 10
-33.6159885716
 20
6.5840938319
 10
-33.6221847636
 20
6.5783644294
 10
-33.6345070781
 20
6.5350368593
 10
-33.6467585277
 20
6.4478898963
 10
-33.6589399077
 20
6.3174153632
 10
-33.6709134655
 20
6.1450887284
 10
-33.6826768418
 20
5.9304349176
 10
-33.6942323957
 20
5.6739290051
 10
-33.7054494515
 20
5.3784716825
 10
-33.7163241668
 20
5.043620802
 10
-33.726860384
 20
4.6698185113
 10
-33.7369389546
 20
4.2612919457
 10
-33.7465546835
 20
3.8176469405
 10
-33.7557127658
 20
3.3392776604
 10
-33.7643096374
 20
2.8315937339
 10
-33.7723389279
 20
2.2942624027
 10
-33.7798070077
 20
1.7276164251
 10
-33.7866294242
 20
1.138063705
 10
-33.7927988484
 20
0.5253442218
 10
-33.7983226092
 20
-0.110282004
 10
-33.8031382415
 20
-0.7616270069
 10
-33.8072377069
 20
-1.428869215
 10
-33.8106290438
 20
-2.1118302003
 10
-33.8132739012
 20
-2.8027867132
 10
-33.8151594955
 20
-3.4991643372
 10
-33.8162986103
 20
-4.2035374888
 10
-33.8166912456
 20
-4.9159061681
  0
LINE
  5
297
100
AcDbEntity
  8
0
100
AcDbLine
 62
250
  6
CONTINUOUS
 10
-33.4678629402
 20
-28.8159061681
 11
-33.0
 21
-28.8159061734
  0
LINE
  5
298
100
AcDbEntity
  8
DRAFT
100
AcDbLine
 62
7
  6
CONTINUOUS
 10
-26.2242099741
 20
34.8572894402
 11
-26.2242099741
 21
30.5840938319
  0
LINE
  5
299
100
AcDbEntity
  8
DRAFT
100
AcDbLine
 62
7
  6
CONTINUOUS
 10
-26.2242099741
 20
-44.6891017763
 11
-26.2242099741
 21
-40.4159061681
  0
LWPOLYLINE
  5
29A
100
AcDbEntity
  8
RACCORDO
100
AcDbPolyline
 62
250
  6
CONTINUOUS
 90
4
 70
0
 10
8.1226945714
 20
43.9238537637
 10
8.1276305203
 20
43.9290816609
 10
8.1209747138
 20
43.9345501449
 10
8.1103944079
 20
43.9380411978
  0
LINE
  5
29B
100
AcDbEntity
  8
RACCORDO
100
AcDbLine
 62
250
  6
CONTINUOUS
 10
8.3449134056
 20
43.6339847187
 11
8.35
 21
43.6390705384
  0
LINE
  5
29C
100
AcDbEntity
  8
0
100
AcDbLine
 62
7
  6
CONTINUOUS
 10
7.85
 20
42.699092422
 11
7.8452179921
 21
42.6943111425
  0
LINE
  5
29D
100
AcDbEntity
  8
0
100
AcDbLine
 62
7
  6
CONTINUOUS
 10
8.3499999181
 20
43.1989958528
 11
8.3449134056
 21
43.1939304499
  0
LWPOLYLINE
  5
29E
100
AcDbEntity
  8
RACCORDO
100
AcDbPolyline
 62
250
  6
CONTINUOUS
 90
4
 70
0
 10
9.8716285186
 20
42.1498528603
 10
9.8775406806
 20
42.1550733671
 10
9.8740584304
 20
42.1605148239
 10
9.8599905161
 20
42.166171562
  0
LWPOLYLINE
  5
29F
100
AcDbEntity
  8
RACCORDO
100
AcDbPolyline
 62
250
  6
CONTINUOUS
 90
3
 70
0
 10
10.0938473529
 20
41.8599838153
 10
10.099892404
 20
41.8653218915
 10
10.1
 20
41.8661355254
  0
LWPOLYLINE
  5
2A0
100
AcDbEntity
  8
0
100
AcDbPolyline
 62
7
  6
CONTINUOUS
 90
10
 70
0
 10
-19.5160718602
 20
-3.7833751681
 10
-19.5185325202
 20
-3.6988628575
 10
-19.5168607977
 20
-3.6170650649
 10
-19.5110566925
 20
-3.5379817901
 10
-19.5012273654
 20
-3.4612903338
 10
-19.4872656557
 20
-3.3873133954
 10
-19.4688500817
 20
-3.3170190729
 10
-19.4458734829
 20
-3.2507300658
 10
-19.4184430197
 20
-3.1881236747
 10
-19.3865586922
 20
-3.1291998996
  0
LINE
  5
2A1
100
AcDbEntity
  8
0
100
AcDbLine
 62
7
  6
CONTINUOUS
 10
-21.065387
 20
-5.0309951681
 11
-21.065387
 21
-6.4920271681
  0
LINE
  5
2A2
100
AcDbEntity
  8
0
100
AcDbLine
 62
7
  6
CONTINUOUS
 10
-20.793534
 20
-6.2089171681
 11
-20.793534
 21
-5.0309951681
  0
LINE
  5
2A3
100
AcDbEntity
  8
0
100
AcDbLine
 62
250
  6
CONTINUOUS
 10
-20.1
 20
36.0519567722
 11
-20.1
 21
35.5840938319
  0
LWPOLYLINE
  5
2A4
100
AcDbEntity
  8
0
100
AcDbPolyline
 62
7
  6
CONTINUOUS
 90
16
 70
0
 10
-20.8437946685
 20
-3.5229094996
 10
-20.8409247288
 20
-3.4582318153
 10
-20.83372807
 20
-3.3969337067
 10
-20.822204692
 20
-3.3390151738
 10
-20.8064414318
 20
-3.2839418866
 10
-20.7863514524
 20
-3.2322481751
 10
-20.7616742437
 20
-3.1855370292
 10
-20.7323707342
 20
-3.1444691176
 10
-20.6984799953
 20
-3.1083837715
 10
-20.6598587313
 20
-3.0769019746
 10
-20.6160936553
 20
-3.0499172589
 10
-20.567598054
 20
-3.0275360923
 10
-20.5154684922
 20
-3.0096988617
 10
-20.4600704915
 20
-2.996385696
 10
-20.4010385301
 20
-2.9876164663
 10
-20.3383726082
 20
-2.9833911726
  0
LINE
  5
2A5
100
AcDbEntity
  8
0
100
AcDbLine
 62
7
  6
CONTINUOUS
 10
9.45
 20
40.8993665708
 11
9.4442433153
 21
40.8936107629
  0
LINE
  5
2A6
100
AcDbEntity
  8
RACCORDO
100
AcDbLine
 62
250
  6
CONTINUOUS
 10
11.8427813002
 20
40.0190058163
 11
11.85
 21
40.0262234167
  0
LINE
  5
2A7
100
AcDbEntity
  8
0
100
AcDbLine
 62
7
  6
CONTINUOUS
 10
11.35
 20
39.0996407195
 11
11.3430858867
 21
39.0927276592
  0
LINE
  5
2A8
100
AcDbEntity
  8
0
100
AcDbLine
 62
7
  6
CONTINUOUS
 10
11.8499999372
 20
39.5995432821
 11
11.8427813002
 21
39.5923469667
  0
LINE
  5
2A9
100
AcDbEntity
  8
0
100
AcDbLine
 62
7
  6
CONTINUOUS
 10
10.0999999198
 20
41.3992682025
 11
10.0938473529
 21
41.3931387083
  0
LWPOLYLINE
  5
2AA
100
AcDbEntity
  8
RACCORDO
100
AcDbPolyline
 62
250
  6
CONTINUOUS
 90
4
 70
0
 10
11.6205624659
 20
40.3088748613
 10
11.6276400298
 20
40.3157508723
 10
11.620753814
 20
40.3229430152
 10
11.6029577355
 20
40.3291738911
  0
LWPOLYLINE
  5
2AB
100
AcDbEntity
  8
0
100
AcDbPolyline
 62
7
  6
CONTINUOUS
 90
9
 70
0
 10
-1.8558092975
 20
25.468145302
 10
-1.9357404166
 20
25.4160876945
 10
-2.0085527581
 20
25.3553616412
 10
-2.0743885913
 20
25.2864251653
 10
-2.133105647
 20
25.2088202436
 10
-2.1838442801
 20
25.1220912155
 10
-2.2263179426
 20
25.0260861941
 10
-2.2608131825
 20
24.9209570662
 10
-2.28733
 20
24.8067038319
  0
LWPOLYLINE
  5
2AC
100
AcDbEntity
  8
0
100
AcDbPolyline
 62
7
  6
CONTINUOUS
 90
29
 70
0
 10
-0.9264113834
 20
24.2051162224
 10
-0.8458648801
 20
24.2472708317
 10
-0.7741025287
 20
24.294581372
 10
-0.7111243292
 20
24.3470478433
 10
-0.6569695105
 20
24.4049980758
 10
-0.6115988438
 20
24.4681042394
 10
-0.5748946421
 20
24.5353828436
 10
-0.5465021452
 20
24.6068661785
 10
-0.5267761134
 20
24.6825219541
 10
-0.5166631412
 20
24.7612698098
 10
-0.5163364145
 20
24.8444291068
 10
-0.5256227473
 20
24.9306804839
 10
-0.5449491768
 20
25.0149854974
 10
-0.5749855689
 20
25.0970841842
 10
-0.6150620578
 20
25.1772365074
 10
-0.6635960826
 20
25.2511839126
 10
-0.7198204994
 20
25.3176686819
 10
-0.7845024522
 20
25.3779485332
 10
-0.8583608129
 20
25.4315380654
 10
-0.9425979847
 20
25.4794613667
 10
-1.0360115645
 20
25.520694349
 10
-1.1357132143
 20
25.5516793473
 10
-1.2441106614
 20
25.571402706
 10
-1.3587961785
 20
25.5808780807
 10
-1.4696582466
 20
25.5795887727
 10
-1.5742805232
 20
25.5669699401
 10
-1.6750793508
 20
25.5435864248
 10
-1.7691922373
 20
25.5106160545
 10
-1.8558092975
 20
25.468145302
  0
LINE
  5
2AD
100
AcDbEntity
  8
0
100
AcDbLine
 62
7
  6
CONTINUOUS
 10
-17.6
 20
-21.4159061681
 11
-17.4
 21
-21.4159061681
  0
LWPOLYLINE
  5
2AE
100
AcDbEntity
  8
0
100
AcDbPolyline
 62
7
  6
CONTINUOUS
 90
13
 70
0
 10
-19.5275902179
 20
-6.5197091641
 10
-19.5826248977
 20
-6.4076945003
 10
-19.6265135819
 20
-6.2979970332
 10
-19.6592562703
 20
-6.1906167626
 10
-19.6804101346
 20
-6.0846798573
 10
-19.6904180032
 20
-5.9810601486
 10
-19.690608361
 20
-5.8823791309
 10
-19.6810306855
 20
-5.7889944058
 10
-19.6616354992
 20
-5.7005483716
 10
-19.6336028542
 20
-5.6185897181
 10
-19.5973261012
 20
-5.543634675
 10
-19.5524118895
 20
-5.4751670125
 10
-19.4988602192
 20
-5.4131867306
  0
LINE
  5
2AF
100
AcDbEntity
  8
0
100
AcDbLine
 62
7
  6
CONTINUOUS
 10
-18.7037187644
 20
-6.430771692
 11
-18.5737469122
 21
-6.7198363633
  0
LWPOLYLINE
  5
2B0
100
AcDbEntity
  8
0
100
AcDbPolyline
 62
7
  6
CONTINUOUS
 90
13
 70
0
 10
-19.6658613271
 20
-3.2003067785
 10
-19.6955802854
 20
-3.1261060519
 10
-19.7314092241
 20
-3.0569261408
 10
-19.7733481433
 20
-2.9927670453
 10
-19.8224913876
 20
-2.9329606025
 10
-19.8777446125
 20
-2.8781749753
 10
-19.9358247837
 20
-2.830414652
 10
-19.9952852269
 20
-2.7903848877
 10
-20.0575726164
 20
-2.7573804273
 10
-20.1237439415
 20
-2.7312899933
 10
-20.1941515317
 20
-2.7120764933
 10
-20.2684430575
 20
-2.6997770198
 10
-20.3466185187
 20
-2.6943915726
  0
LINE
  5
2B1
100
AcDbEntity
  8
0
100
AcDbLine
 62
7
  6
CONTINUOUS
 10
-18.7410220488
 20
-4.1450180087
 11
-18.6454738397
 21
-4.4570536915
  0
LINE
  5
2B2
100
AcDbEntity
  8
0
100
AcDbLine
 62
7
  6
CONTINUOUS
 10
-17.6
 20
11.5840938319
 11
-17.6
 21
-21.4159061681
  0
LINE
  5
2B3
100
AcDbEntity
  8
0
100
AcDbLine
 62
7
  6
CONTINUOUS
 10
-17.4
 20
-21.4159061681
 11
-17.4
 21
11.5840938319
  0
LINE
  5
2B4
100
AcDbEntity
  8
0
100
AcDbLine
 62
250
  6
CONTINUOUS
 10
-14.9
 20
36.0519567722
 11
-14.9000000056
 21
35.584093832
  0
LWPOLYLINE
  5
2B5
100
AcDbEntity
  8
RACCORDO
100
AcDbPolyline
 62
7
  6
CONTINUOUS
 90
16
 70
0
 10
-14.0
 20
37.6224733856
 10
-13.9963851536
 20
37.7075925836
 10
-13.9855789491
 20
37.792029138
 10
-13.9676770818
 20
37.8751813086
 10
-13.9426876586
 20
37.9568497902
 10
-13.9108777285
 20
38.0360454983
 10
-13.873095751
 20
38.1111260524
 10
-13.8295888037
 20
38.1821783959
 10
-13.781153477
 20
38.2483914589
 10
-13.7303322773
 20
38.3074124065
 10
-13.6785840298
 20
38.3591322667
 10
-13.6264436166
 20
38.4043934719
 10
-13.5756125478
 20
38.4429937271
 10
-13.5271908744
 20
38.4753897357
 10
-13.4815258185
 20
38.5024769203
 10
-13.4391308455
 20
38.5249003511
  0
LWPOLYLINE
  5
2B6
100
AcDbEntity
  8
0
100
AcDbPolyline
 62
7
  6
CONTINUOUS
 90
13
 70
0
 10
-18.3215925954
 20
-5.8685443891
 10
-18.3259606532
 20
-5.9280392099
 10
-18.3361949838
 20
-5.9868163323
 10
-18.3522955871
 20
-6.0448757563
 10
-18.3748888602
 20
-6.1035236914
 10
-18.403348406
 20
-6.1614539281
 10
-18.4357950335
 20
-6.2147478377
 10
-18.4718514703
 20
-6.2620451169
 10
-18.5118949888
 20
-6.3047060689
 10
-18.5551782148
 20
-6.3428929743
 10
-18.6014520237
 20
-6.3766599268
 10
-18.6509655403
 20
-6.4059528327
 10
-18.7037187644
 20
-6.430771692
  0
LINE
  5
2B7
100
AcDbEntity
  8
0
100
AcDbLine
 62
7
  6
CONTINUOUS
 10
-20.6483798375
 20
-4.3401708498
 11
-20.5157908992
 21
-4.0804899707
  0
LINE
  5
2B8
100
AcDbEntity
  8
RACCORDO
100
AcDbLine
 62
250
  6
CONTINUOUS
 10
13.9914715783
 20
37.6139462628
 11
14.0
 21
37.6224733856
  0
LINE
  5
2B9
100
AcDbEntity
  8
0
100
AcDbLine
 62
7
  6
CONTINUOUS
 10
13.9999999495
 20
36.2000616527
 11
13.9914715783
 21
36.1915552807
  0
LWPOLYLINE
  5
2BA
100
AcDbEntity
  8
0
100
AcDbPolyline
 62
7
  6
CONTINUOUS
 90
4
 70
0
 10
20.5742287326
 20
-45.651407309
 10
20.5081403684
 20
-45.5820400448
 10
20.4489042276
 20
-45.5023355461
 10
20.4000034028
 20
-45.4159045127
  0
LWPOLYLINE
  5
2BB
100
AcDbEntity
  8
0
100
AcDbPolyline
 62
7
  6
CONTINUOUS
 90
19
 70
0
 10
-18.4881469242
 20
-3.0801824859
 10
-18.4410073715
 20
-3.1348709806
 10
-18.401678094
 20
-3.1940621782
 10
-18.3701590916
 20
-3.2577560787
 10
-18.3465904975
 20
-3.3267318374
 10
-18.3308321785
 20
-3.400210299
 10
-18.3224637352
 20
-3.4758539974
 10
-18.321658262
 20
-3.5551368946
 10
-18.3282426644
 20
-3.6365850287
 10
-18.3412772609
 20
-3.7134390483
 10
-18.360587595
 20
-3.783937489
 10
-18.386348123
 20
-3.8498418153
 10
-18.4181425319
 20
-3.909677069
 10
-18.4556011548
 20
-3.9627023435
 10
-18.4990936586
 20
-4.0096585455
 10
-18.549312731
 20
-4.0512934368
 10
-18.6064892682
 20
-4.0878562714
 10
-18.6703923741
 20
-4.1190977954
 10
-18.7410220488
 20
-4.1450180087
  0
LINE
  5
2BC
100
AcDbEntity
  8
0
100
AcDbLine
 62
7
  6
CONTINUOUS
 10
-14.0
 20
37.6224733856
 11
-14.0
 21
36.2000824035
  0
LINE
  5
2BD
100
AcDbEntity
  8
0
100
AcDbLine
 62
7
  6
CONTINUOUS
 10
-11.85
 20
40.0262234167
 11
-11.85
 21
39.5995645671
  0
LINE
  5
2BE
100
AcDbEntity
  8
0
100
AcDbLine
 62
7
  6
CONTINUOUS
 10
-11.35
 20
39.5401779569
 11
-11.35
 21
39.0996407195
  0
LWPOLYLINE
  5
2BF
100
AcDbEntity
  8
RACCORDO
100
AcDbPolyline
 62
7
  6
CONTINUOUS
 90
13
 70
0
 10
-10.1
 20
41.8661355254
 10
-10.0979440174
 20
41.9013725952
 10
-10.0919993666
 20
41.9353075018
 10
-10.0825264298
 20
41.9675570264
 10
-10.0697654386
 20
41.9981093559
 10
-10.0541959658
 20
42.026392023
 10
-10.036831016
 20
42.051439755
 10
-10.0184500151
 20
42.0731513791
 10
-9.9994633221
 20
42.0918839113
 10
-9.9805442281
 20
42.1076849218
 10
-9.9621801595
 20
42.1208067865
 10
-9.9446306016
 20
42.1316257145
 10
-9.928145133
 20
42.1404571882
  0
LWPOLYLINE
  5
2C0
100
AcDbEntity
  8
RACCORDO
100
AcDbPolyline
 62
7
  6
CONTINUOUS
 90
13
 70
0
 10
-11.85
 20
40.0262234167
 10
-11.8478685288
 20
40.0621310368
 10
-11.841736071
 20
40.096572558
 10
-11.8320196829
 20
40.1291573068
 10
-11.8190323695
 20
40.159834137
 10
-11.8032906074
 20
40.1880946982
 10
-11.7857608808
 20
40.2131169304
 10
-11.7671492389
 20
40.2348805964
 10
-11.7479183539
 20
40.2536584617
 10
-11.7288709829
 20
40.2694027864
 10
-11.7105594067
 20
40.2823672975
 10
-11.6932111389
 20
40.2929911797
 10
-11.6770790803
 20
40.3016109699
  0
LWPOLYLINE
  5
2C1
100
AcDbEntity
  8
RACCORDO
100
AcDbPolyline
 62
250
  6
CONTINUOUS
 90
4
 70
0
 10
-3.8752835565
 20
45.6299452829
 10
-3.8762668844
 20
45.6257773687
 10
-3.8625491358
 20
45.6216164974
 10
-3.834181923
 20
45.6174784509
  0
LWPOLYLINE
  5
2C2
100
AcDbEntity
  8
RACCORDO
100
AcDbPolyline
 62
250
  6
CONTINUOUS
 90
3
 70
0
 10
13.2507421308
 20
38.5801764125
 10
13.2580882242
 20
38.5906826467
 10
13.2380971733
 20
38.6011841994
  0
LWPOLYLINE
  5
2C3
100
AcDbEntity
  8
0
100
AcDbPolyline
 62
7
  6
CONTINUOUS
 90
10
 70
0
 10
-19.3865586922
 20
-3.1291998996
 10
-19.3561281389
 20
-3.0868962002
 10
-19.319494111
 20
-3.0482725964
 10
-19.2766566083
 20
-3.0133290883
 10
-19.2268657783
 20
-2.9812480369
 10
-19.1708714735
 20
-2.9528470812
 10
-19.1109232525
 20
-2.9305791379
 10
-19.047770968
 20
-2.915261846
 10
-18.9806647673
 20
-2.9060775666
 10
-18.9096046502
 20
-2.9030262996
  0
LWPOLYLINE
  5
2C4
100
AcDbEntity
  8
0
100
AcDbPolyline
 62
7
  6
CONTINUOUS
 90
29
 70
0
 10
0.40649
 20
23.9476838319
 10
0.45255666
 20
24.0101731836
 10
0.5037068019
 20
24.0654183576
 10
0.5599404255
 20
24.1134193539
 10
0.6214891594
 20
24.1545887779
 10
0.6881213751
 20
24.1885140243
 10
0.7591421871
 20
24.2139572765
 10
0.8362800167
 20
24.230453284
 10
0.9178064427
 20
24.2384672974
 10
0.9978413154
 20
24.2381572519
 10
1.0757524158
 20
24.2293458188
 10
1.152171963
 20
24.2122103267
 10
1.2231164651
 20
24.1874406964
 10
1.2874168698
 20
24.154955781
 10
1.3462422294
 20
24.1148367275
 10
1.399116209
 20
24.0680168965
 10
1.4463117286
 20
24.0146829813
 10
1.4875558684
 20
23.9546482887
 10
1.5215535339
 20
23.8882861006
 10
1.5480384403
 20
23.814964707
 10
1.5672768726
 20
23.7353158178
 10
1.5787725913
 20
23.6516078448
 10
1.5825074153
 20
23.561890401
 10
1.5784995257
 20
23.4681138734
 10
1.5663072267
 20
23.378397835
 10
1.54551662
 20
23.2946044946
 10
1.5165416038
 20
23.2148716435
 10
1.4801821778
 20
23.1417322289
 10
1.4355737991
 20
23.0754518008
  0
LWPOLYLINE
  5
2C5
100
AcDbEntity
  8
0
100
AcDbPolyline
 62
7
  6
CONTINUOUS
 90
21
 70
0
 10
1.4355737991
 20
23.0754518008
 10
1.3835810104
 20
23.0157648093
 10
1.3275974394
 20
22.9644075519
 10
1.2686693255
 20
22.9219401855
 10
1.2057504294
 20
22.8878025532
 10
1.1390956606
 20
22.8620504816
 10
1.0668233221
 20
22.8447373585
 10
0.9908151109
 20
22.8358097961
 10
0.9169710289
 20
22.8351634585
 10
0.846488308
 20
22.8430312988
 10
0.7781697162
 20
22.8591803638
 10
0.7143235588
 20
22.8828074586
 10
0.6553552661
 20
22.9140041984
 10
0.6008594078
 20
22.9526789678
 10
0.5519279985
 20
22.9977537261
 10
0.5089278946
 20
23.0489877237
 10
0.4714922396
 20
23.10662171
 10
0.4396124782
 20
23.1702998932
 10
0.4132857585
 20
23.239903676
 10
0.3925149325
 20
23.3155516555
 10
0.3773
 20
23.3972438319
  0
LWPOLYLINE
  5
2C6
100
AcDbEntity
  8
0
100
AcDbPolyline
 62
7
  6
CONTINUOUS
 90
10
 70
0
 10
-20.5157908992
 20
-4.0804899707
 10
-20.5749281532
 20
-4.0416901009
 10
-20.6294804738
 20
-3.9952398864
 10
-20.6794478611
 20
-3.9411393272
 10
-20.726281201
 20
-3.8769058024
 10
-20.7685296076
 20
-3.805021933
 10
-20.8018404233
 20
-3.7329355817
 10
-20.8247627625
 20
-3.6631293695
 10
-20.8387475109
 20
-3.5931206754
 10
-20.8437946685
 20
-3.5229094996
  0
LINE
  5
2C7
100
AcDbEntity
  8
0
100
AcDbLine
 62
7
  6
CONTINUOUS
 10
-10.1
 20
41.8661355254
 11
-10.1
 21
41.3992904183
  0
LINE
  5
2C8
100
AcDbEntity
  8
0
100
AcDbLine
 62
7
  6
CONTINUOUS
 10
-9.45
 20
41.337105283
 11
-9.45
 21
40.8993665708
  0
LINE
  5
2C9
100
AcDbEntity
  8
0
100
AcDbLine
 62
7
  6
CONTINUOUS
 10
-8.35
 20
43.6390705384
 11
-8.35
 21
43.1990162696
  0
LINE
  5
2CA
100
AcDbEntity
  8
0
100
AcDbLine
 62
7
  6
CONTINUOUS
 10
-7.85
 20
43.149452932
 11
-7.85
 21
42.699092422
  0
LINE
  5
2CB
100
AcDbEntity
  8
0
100
AcDbLine
 62
7
  6
CONTINUOUS
 10
-7.5
 20
21.6840938319
 11
-7.5
 21
21.4840938319
  0
LWPOLYLINE
  5
2CC
100
AcDbEntity
  8
RACCORDO
100
AcDbPolyline
 62
7
  6
CONTINUOUS
 90
13
 70
0
 10
-8.35
 20
43.6390705384
 10
-8.3480257339
 20
43.6735720231
 10
-8.3422804945
 20
43.7069708196
 10
-8.3330575032
 20
43.7388903574
 10
-8.3205091722
 20
43.7693671482
 10
-8.3050713097
 20
43.7977467151
 10
-8.2878180201
 20
43.8228825418
 10
-8.2696018721
 20
43.8445950201
 10
-8.2507866607
 20
43.8633230024
 10
-8.2319610404
 20
43.8791796717
 10
-8.2135721924
 20
43.8924161342
 10
-8.1959051459
 20
43.9033648291
 10
-8.1792111858
 20
43.9123263109
  0
LWPOLYLINE
  5
2CD
100
AcDbEntity
  8
0
100
AcDbPolyline
 62
7
  6
CONTINUOUS
 90
27
 70
0
 10
-33.6159885716
 20
-16.4159061681
 10
-33.6097923796
 20
-16.4101767656
 10
-33.5974700651
 20
-16.3668491955
 10
-33.5852186155
 20
-16.2797022324
 10
-33.5730372354
 20
-16.1492276993
 10
-33.5610636777
 20
-15.9769010645
 10
-33.5493003014
 20
-15.7622472537
 10
-33.5377447475
 20
-15.5057413412
 10
-33.5265276917
 20
-15.2102840186
 10
-33.5156529763
 20
-14.8754331381
 10
-33.5051167591
 20
-14.5016308474
 10
-33.4950381886
 20
-14.0931042818
 10
-33.4854224596
 20
-13.6494592766
 10
-33.4762643774
 20
-13.1710899965
 10
-33.4676675058
 20
-12.66340607
 10
-33.4596382153
 20
-12.1260747388
 10
-33.4521701355
 20
-11.5594287613
 10
-33.4453477189
 20
-10.9698760411
 10
-33.4391782948
 20
-10.3571565579
 10
-33.4336545339
 20
-9.7215303321
 10
-33.4288389017
 20
-9.0701853292
 10
-33.4247394362
 20
-8.4029431211
 10
-33.4213480994
 20
-7.7199821358
 10
-33.418703242
 20
-7.0290256229
 10
-33.4168176477
 20
-6.3326479989
 10
-33.4156785329
 20
-5.6282748473
 10
-33.4152858976
 20
-4.9159061681
  0
LWPOLYLINE
  5
2CE
100
AcDbEntity
  8
0
100
AcDbPolyline
 62
7
  6
CONTINUOUS
 90
10
 70
0
 10
-19.4988602192
 20
-5.4131867306
 10
-19.4586866128
 20
-5.3771142217
 10
-19.4139600481
 20
-5.3443660269
 10
-19.3646805252
 20
-5.3149421461
 10
-19.3104109729
 20
-5.2884350964
 10
-19.2515884624
 20
-5.2652523607
 10
-19.189524207
 20
-5.2466163882
 10
-19.1246552777
 20
-5.2329346621
 10
-19.0565446035
 20
-5.2237996992
 10
-18.9851921845
 20
-5.2192114996
  0
LWPOLYLINE
  5
2CF
100
AcDbEntity
  8
0
100
AcDbPolyline
 62
7
  6
CONTINUOUS
 90
8
 70
0
 10
-19.3057995519
 20
-2.7088722338
 10
-19.3807683489
 20
-2.7549316211
 10
-19.4474527518
 20
-2.8082929568
 10
-19.5064658371
 20
-2.8696700734
 10
-19.5578127253
 20
-2.9395148282
 10
-19.6014951231
 20
-3.0179778401
 10
-19.6375113237
 20
-3.1049084903
 10
-19.6658613271
 20
-3.2003067785
  0
LWPOLYLINE
  5
2D0
100
AcDbEntity
  8
0
100
AcDbPolyline
 62
7
  6
CONTINUOUS
 90
19
 70
0
 10
20.4
 20
-45.4159061681
 10
20.4293900351
 20
-45.4570162086
 10
20.4600977877
 20
-45.4955023469
 10
20.4921232579
 20
-45.5313676517
 10
20.5255792049
 20
-45.5645579679
 10
20.5603528695
 20
-45.5951790832
 10
20.5961059739
 20
-45.6234513728
 10
20.6328342688
 20
-45.6494124339
 10
20.6705420035
 20
-45.6730395441
 10
20.7089036477
 20
-45.694415652
 10
20.7478552581
 20
-45.7135331427
 10
20.787460778
 20
-45.7304266542
 10
20.8275865075
 20
-45.7451966794
 10
20.8682763771
 20
-45.757848876
 10
20.9094864563
 20
-45.7683535787
 10
20.9509512533
 20
-45.7767195318
 10
20.9925822707
 20
-45.7829419663
 10
21.0344680058
 20
-45.7870131276
 10
21.0766084587
 20
-45.788934241
  0
LINE
  5
2D1
100
AcDbEntity
  8
0
100
AcDbLine
 62
7
  6
CONTINUOUS
 10
-4.1
 20
45.3378498723
 11
-4.1
 21
44.9987421209
  0
LINE
  5
2D2
100
AcDbEntity
  8
0
100
AcDbLine
 62
7
  6
CONTINUOUS
 10
-3.6
 20
44.9645490237
 11
-3.6
 21
44.4988182733
  0
LWPOLYLINE
  5
2D3
100
AcDbEntity
  8
RACCORDO
100
AcDbPolyline
 62
7
  6
CONTINUOUS
 90
13
 70
0
 10
-4.1
 20
45.3378498723
 10
-4.0982611887
 20
45.370165339
 10
-4.0931062056
 20
45.4019192871
 10
-4.0846547086
 20
45.4327612632
 10
-4.0728825879
 20
45.4627537121
 10
-4.0580721022
 20
45.4911589943
 10
-4.0412098137
 20
45.5166525448
 10
-4.02297054
 20
45.5390786457
 10
-4.0037454429
 20
45.5586728024
 10
-3.9845217231
 20
45.5751297981
 10
-3.9659683193
 20
45.5886252741
 10
-3.9482946678
 20
45.5996441918
 10
-3.9318001715
 20
45.6085170537
  0
LINE
  5
2D4
100
AcDbEntity
  8
0
100
AcDbLine
 62
7
  6
CONTINUOUS
 10
-1.5603169999
 20
24.3229838327
 11
-1.6011039925
 21
24.0018938912
  0
LWPOLYLINE
  5
2D5
100
AcDbEntity
  8
0
100
AcDbPolyline
 62
7
  6
CONTINUOUS
 90
27
 70
0
 10
-1.92037
 20
24.7399838319
 10
-1.9060225318
 20
24.8192615231
 10
-1.8863472053
 20
24.8927616814
 10
-1.8613440205
 20
24.9604843068
 10
-1.8309325585
 20
25.0227179536
 10
-1.7951932382
 20
25.0791740676
 10
-1.7543673161
 20
25.1289869857
 10
-1.7083063656
 20
25.1720605125
 10
-1.6571588134
 20
25.2084908435
 10
-1.6016111955
 20
25.2377009022
 10
-1.5407336131
 20
25.2595927059
 10
-1.4754559651
 20
25.2742642373
 10
-1.4092544841
 20
25.2814323686
 10
-1.3414296787
 20
25.2808437898
 10
-1.2726810403
 20
25.2727518107
 10
-1.2085832756
 20
25.2576332336
 10
-1.1507883457
 20
25.2352532935
 10
-1.0976442895
 20
25.2058467553
 10
-1.0497699296
 20
25.1705947153
 10
-1.0067255191
 20
25.1291768004
 10
-0.968950805
 20
25.0819133838
 10
-0.9383838515
 20
25.0309466815
 10
-0.9157599206
 20
24.9761531168
 10
-0.9003437503
 20
24.9176562666
 10
-0.8918676192
 20
24.8579690773
 10
-0.8904739457
 20
24.796110514
 10
-0.8960203115
 20
24.7330616117
  0
LINE
  5
2D6
100
AcDbEntity
  8
0
100
AcDbLine
 62
7
  6
CONTINUOUS
 10
0.34811
 20
25.5322838319
 11
0.06038
 21
23.9977238319
  0
LINE
  5
2D7
100
AcDbEntity
  8
0
100
AcDbLine
 62
7
  6
CONTINUOUS
 10
0.4812889101
 20
24.3766723771
 11
0.640531
 21
25.1820038319
  0
LWPOLYLINE
  5
2D8
100
AcDbEntity
  8
0
100
AcDbPolyline
 62
7
  6
CONTINUOUS
 90
17
 70
0
 10
-0.8960203115
 20
24.7330616117
 10
-0.9078117396
 20
24.6742784224
 10
-0.9255811969
 20
24.6215908891
 10
-0.9495957166
 20
24.5731690687
 10
-0.9799614214
 20
24.5289791844
 10
-1.0177484478
 20
24.4890181072
 10
-1.0618866594
 20
24.4532889661
 10
-1.1092717691
 20
24.4217673708
 10
-1.1602064466
 20
24.3943780672
 10
-1.2143880223
 20
24.3711963095
 10
-1.2678042004
 20
24.3524234702
 10
-1.3192614873
 20
24.3384893635
 10
-1.3699533767
 20
24.3289641753
 10
-1.419448054
 20
24.3227598351
 10
-1.4676015813
 20
24.3195136529
 10
-1.5145578966
 20
24.3195883188
 10
-1.5603169999
 20
24.3229838327
  0
LWPOLYLINE
  5
2D9
100
AcDbEntity
  8
RACCORDO
100
AcDbPolyline
 62
250
  6
CONTINUOUS
 90
3
 70
0
 10
3.8752835565
 20
45.6252216884
 10
3.8762668844
 20
45.6293886972
 10
3.8694362658
 20
45.6319847906
  0
LWPOLYLINE
  5
2DA
100
AcDbEntity
  8
0
100
AcDbPolyline
 62
250
  6
CONTINUOUS
 90
10
 70
0
 10
33.3730280729
 20
25.1606962728
 10
33.3814807923
 20
25.165955366
 10
33.3899563021
 20
25.1710868946
 10
33.3984546023
 20
25.1760908584
 10
33.4069757393
 20
25.1809652583
 10
33.4155196666
 20
25.1857120934
 10
33.4240862451
 20
25.1903373621
 10
33.4326754284
 20
25.1948430638
 10
33.4412872628
 20
25.1992271991
 10
33.4499217485
 20
25.2034897679
  0
LWPOLYLINE
  5
2DB
100
AcDbEntity
  8
0
100
AcDbPolyline
 62
7
  6
CONTINUOUS
 90
14
 70
0
 10
-19.5148910901
 20
-5.0484681379
 10
-19.5970028595
 20
-5.0977713413
 10
-19.6699582215
 20
-5.152355364
 10
-19.7344229312
 20
-5.2136313458
 10
-19.7916842363
 20
-5.2831726714
 10
-19.8430440627
 20
-5.3617410872
 10
-19.8872004845
 20
-5.4485748468
 10
-19.9215349722
 20
-5.5429620962
 10
-19.9459932047
 20
-5.6462135506
 10
-19.960629503
 20
-5.7570184948
 10
-19.9629883001
 20
-5.8707329285
 10
-19.9522510736
 20
-5.9858088515
 10
-19.9292363459
 20
-6.103794264
 10
-19.8939441169
 20
-6.224689166
  0
LWPOLYLINE
  5
2DC
100
AcDbEntity
  8
0
100
AcDbPolyline
 62
7
  6
CONTINUOUS
 90
33
 70
0
 10
-18.6454738397
 20
-4.4570536915
 10
-18.5390591039
 20
-4.4048382063
 10
-18.4435216648
 20
-4.3467553503
 10
-18.3588615223
 20
-4.2828051235
 10
-18.2855035578
 20
-4.2133453215
 10
-18.2230228899
 20
-4.1380181487
 10
-18.1701448747
 20
-4.0557502188
 10
-18.1263861349
 20
-3.9647075417
 10
-18.0922300477
 20
-3.8667241074
 10
-18.0678521006
 20
-3.7662284995
 10
-18.0540533363
 20
-3.6622660546
 10
-18.050032712
 20
-3.555791436
 10
-18.0535625871
 20
-3.4540972167
 10
-18.0644500339
 20
-3.3592630074
 10
-18.08288798
 20
-3.2692091974
 10
-18.1072275682
 20
-3.1849895285
 10
-18.1375558601
 20
-3.1070470869
 10
-18.173785794
 20
-3.0349387863
 10
-18.2140073279
 20
-2.9683891102
 10
-18.2565403205
 20
-2.907662619
 10
-18.3030649129
 20
-2.8524947522
 10
-18.3567114869
 20
-2.8018163119
 10
-18.4184624773
 20
-2.7542519052
 10
-18.4873354492
 20
-2.7111769249
 10
-18.5635134795
 20
-2.6756483514
 10
-18.6485269247
 20
-2.6481138808
 10
-18.7408454285
 20
-2.6281258169
 10
-18.8360609985
 20
-2.6173980519
 10
-18.9356157291
 20
-2.6163535091
 10
-19.038067526
 20
-2.6245692651
 10
-19.1346821139
 20
-2.6424904421
 10
-19.2231594374
 20
-2.6708286275
 10
-19.3057995519
 20
-2.7088722338
  0
LINE
  5
2DD
100
AcDbEntity
  8
0
100
AcDbLine
 62
7
  6
CONTINUOUS
 10
11.1960930686
 20
-6.0159061681
 11
10.0700680665
 21
-6.0159061681
  0
LINE
  5
2DE
100
AcDbEntity
  8
0
100
AcDbLine
 62
7
  6
CONTINUOUS
 10
-10.0700680665
 20
-6.0159061681
 11
-11.1960930686
 21
-6.0159061681
  0
LINE
  5
2DF
100
AcDbEntity
  8
0
100
AcDbLine
 62
7
  6
CONTINUOUS
 10
-20.793534
 20
-5.0309951681
 11
-21.065387
 21
-5.0309951681
  0
LINE
  5
2E0
100
AcDbEntity
  8
0
100
AcDbLine
 62
7
  6
CONTINUOUS
 10
-11.1960930686
 20
-3.8159061681
 11
-10.0700680665
 21
-3.8159061681
  0
LINE
  5
2E1
100
AcDbEntity
  8
0
100
AcDbLine
 62
7
  6
CONTINUOUS
 10
10.0700680665
 20
-3.8159061681
 11
11.1960930686
 21
-3.8159061681
  0
LINE
  5
2E2
100
AcDbEntity
  8
0
100
AcDbLine
 62
7
  6
CONTINUOUS
 10
-19.7875325974
 20
-3.7833751681
 11
-19.5160718602
 21
-3.7833751681
  0
LINE
  5
2E3
100
AcDbEntity
  8
0
100
AcDbLine
 62
7
  6
CONTINUOUS
 10
-19.8939441169
 20
-6.224689166
 11
-20.793534
 21
-6.2089171681
  0
LINE
  5
2E4
100
AcDbEntity
  8
0
100
AcDbLine
 62
7
  6
CONTINUOUS
 10
-21.065387
 20
-6.4920271681
 11
-19.5275902179
 21
-6.5197091641
  0
LWPOLYLINE
  5
2E5
100
AcDbEntity
  8
0
100
AcDbPolyline
 62
7
  6
CONTINUOUS
 90
19
 70
0
 10
-20.3383726082
 20
-2.9833911726
 10
-20.2708328301
 20
-2.9866680636
 10
-20.2076249399
 20
-2.9953623078
 10
-20.1487489375
 20
-3.0094739055
 10
-20.0939612788
 20
-3.0291251823
 10
-20.0435055081
 20
-3.0541938125
 10
-19.9981122574
 20
-3.0843128184
 10
-19.9584853538
 20
-3.1195158455
 10
-19.9239209704
 20
-3.1597692483
 10
-19.8930382578
 20
-3.2046051128
 10
-19.8651428691
 20
-3.2541027647
 10
-19.8409291513
 20
-3.3081828782
 10
-19.8210992961
 20
-3.366139563
 10
-19.8061856291
 20
-3.4281264377
 10
-19.7956558246
 20
-3.4939898837
 10
-19.7886150977
 20
-3.5625631544
 10
-19.7847651867
 20
-3.6334573343
 10
-19.7844043533
 20
-3.7070613388
 10
-19.7875325974
 20
-3.7833751681
  0
LWPOLYLINE
  5
2E6
100
AcDbEntity
  8
0
100
AcDbPolyline
 62
7
  6
CONTINUOUS
 90
16
 70
0
 10
-18.9851921845
 20
-5.2192114996
 10
-18.9087681232
 20
-5.2241367406
 10
-18.836601956
 20
-5.2354156404
 10
-18.7686936828
 20
-5.253048199
 10
-18.7052620382
 20
-5.2771952117
 10
-18.6460882877
 20
-5.3076958831
 10
-18.5905162277
 20
-5.3440678275
 10
-18.5374565991
 20
-5.3870557928
 10
-18.4879986611
 20
-5.4359150311
 10
-18.4447539869
 20
-5.487928913
 10
-18.4085706948
 20
-5.5419060465
 10
-18.3786006666
 20
-5.5990378236
 10
-18.3549111207
 20
-5.6601817917
 10
-18.3375244633
 20
-5.7256237998
 10
-18.3264182882
 20
-5.795077999
 10
-18.3215925954
 20
-5.8685443891
  0
LWPOLYLINE
  5
2E7
100
AcDbEntity
  8
0
100
AcDbPolyline
 62
7
  6
CONTINUOUS
 90
10
 70
0
 10
-18.9096046502
 20
-2.9030262996
 10
-18.8513615281
 20
-2.9073274427
 10
-18.7955450288
 20
-2.9158246817
 10
-18.7421551522
 20
-2.9285180163
 10
-18.6906225669
 20
-2.9458746151
 10
-18.6415166044
 20
-2.9674273097
 10
-18.5965452594
 20
-2.9917745945
 10
-18.5562778635
 20
-3.0184493013
 10
-18.5201450851
 20
-3.0479185984
 10
-18.4881469242
 20
-3.0801824859
  0
LWPOLYLINE
  5
2E8
100
AcDbEntity
  8
0
100
AcDbPolyline
 62
250
  6
CONTINUOUS
 90
10
 70
0
 10
21.0766024408
 20
-45.788934241
 10
21.0818615341
 20
-45.7973869604
 10
21.0869930626
 20
-45.8058624702
 10
21.0919970265
 20
-45.8143607704
 10
21.0968714263
 20
-45.8228819073
 10
21.1016182615
 20
-45.8314258347
 10
21.1062435302
 20
-45.8399924132
 10
21.1107492319
 20
-45.8485815965
 10
21.1151333671
 20
-45.8571934309
 10
21.119395936
 20
-45.8658279165
  0
LWPOLYLINE
  5
2E9
100
AcDbEntity
  8
0
100
AcDbPolyline
 62
7
  6
CONTINUOUS
 90
76
 70
0
 10
-11.35
 20
39.0996407195
 10
-11.3497234085
 20
39.0982578378
 10
-11.3364496588
 20
39.089964322
 10
-11.3032879243
 20
39.0816877818
 10
-11.2502963819
 20
39.0734427371
 10
-11.1775679967
 20
39.0652436527
 10
-11.0852303591
 20
39.0571049123
 10
-10.9734454607
 20
39.0490407943
 10
-10.8424094101
 20
39.0410654457
 10
-10.6923520891
 20
39.033192858
 10
-10.5235367493
 20
39.0254368424
 10
-10.3362595502
 20
39.0178110057
 10
-10.1308490394
 20
39.0103287261
 10
-9.907665577
 20
39.0030031301
 10
-9.6671007025
 20
38.9958470692
 10
-9.4095764485
 20
38.9888730977
 10
-9.1355446
 20
38.9820934503
 10
-8.845485902
 20
38.9755200206
 10
-8.539909216
 20
38.9691643409
 10
-8.2193506273
 20
38.9630375611
 10
-7.8843725047
 20
38.9571504296
 10
-7.5355625136
 20
38.9515132745
 10
-7.1735325852
 20
38.9461359853
 10
-6.7989178432
 20
38.9410279955
 10
-6.4123754889
 20
38.9361982664
 10
-6.014583649
 20
38.9316552709
 10
-5.6062401857
 20
38.9274069789
 10
-5.1880614721
 20
38.9234608434
 10
-4.7607811358
 20
38.9198237873
 10
-4.3251487716
 20
38.9165021912
 10
-3.8819286267
 20
38.9135018823
 10
-3.43189826
 20
38.9108281242
 10
-2.9758471776
 20
38.9084856076
 10
-2.514575448
 20
38.9064784419
 10
-2.0488922986
 20
38.9048101485
 10
-1.5796146959
 20
38.9034836542
 10
-1.1075659123
 20
38.902501286
 10
-0.6335740817
 20
38.9018647673
 10
-0.1584707468
 20
38.9015752149
 10
0.3169105995
 20
38.9016331367
 10
0.791735977
 20
38.9020384311
 10
1.2651723805
 20
38.902790387
 10
1.7363892418
 20
38.9038876853
 10
2.2045598863
 20
38.9053284009
 10
2.6688629837
 20
38.9071100064
 10
3.1284839885
 20
38.9092293761
 10
3.5826165693
 20
38.9116827921
 10
4.0304640233
 20
38.9144659501
 10
4.4712406739
 20
38.9175739676
 10
4.9041732489
 20
38.9210013921
 10
5.3285022376
 20
38.9247422106
 10
5.7434832228
 20
38.9287898605
 10
6.1483881867
 20
38.933137241
 10
6.5425067885
 20
38.937776725
 10
6.9251476103
 20
38.9427001736
 10
7.2956393699
 20
38.9478989492
 10
7.6533320991
 20
38.9533639314
 10
7.9975982831
 20
38.9590855328
 10
8.3278339621
 20
38.9650537157
 10
8.6434597905
 20
38.97125801
 10
8.9439220534
 20
38.9776875312
 10
9.2286936379
 20
38.9843309998
 10
9.4972749578
 20
38.9911767607
 10
9.7491948302
 20
38.9982128043
 10
9.984011302
 20
39.0054267869
 10
10.2013124255
 20
39.0128060528
 10
10.4007169805
 20
39.0203376562
 10
10.5818751438
 20
39.0280083841
 10
10.7444691023
 20
39.0358047795
 10
10.888213611
 20
39.0437131648
 10
11.0128564932
 20
39.051719666
 10
11.118179083
 20
39.0598102371
 10
11.2039966086
 20
39.0679706843
 10
11.270158517
 20
39.0761866915
 10
11.3165487378
 20
39.0844438451
 10
11.3430858867
 20
39.0927276592
  0
LINE
  5
2EA
100
AcDbEntity
  8
0
100
AcDbLine
 62
7
  6
CONTINUOUS
 10
-1.1
 20
-16.1119992366
 11
-1.1
 21
-14.9859742346
  0
LINE
  5
2EB
100
AcDbEntity
  8
0
100
AcDbLine
 62
7
  6
CONTINUOUS
 10
-1.1
 20
5.1541618985
 11
-1.1
 21
6.2801869005
  0
LWPOLYLINE
  5
2EC
100
AcDbEntity
  8
0
100
AcDbPolyline
 62
7
  6
CONTINUOUS
 90
19
 70
0
 10
33.0
 20
24.4840938319
 10
33.041110003
 20
24.5134838373
 10
33.0795961106
 20
24.5441915605
 10
33.115461391
 20
24.5762170014
 10
33.1486516896
 20
24.6096729193
 10
33.1792727926
 20
24.644446555
 10
33.2075450737
 20
24.6801996304
 10
33.233506128
 20
24.7169278936
 10
33.2571332349
 20
24.7546355966
 10
33.2785093464
 20
24.7929972167
 10
33.2976268473
 20
24.8319488123
 10
33.3145203729
 20
24.871554325
 10
33.3292904156
 20
24.9116800571
 10
33.3419426311
 20
24.9523699375
 10
33.3524473533
 20
24.9935800373
 10
33.3608133262
 20
25.035044871
 10
33.3670357787
 20
25.0766759436
 10
33.3711069533
 20
25.1185617502
 10
33.3730280729
 20
25.1607022907
  0
LWPOLYLINE
  5
2ED
100
AcDbEntity
  8
0
100
AcDbPolyline
 62
7
  6
CONTINUOUS
 90
30
 70
0
 10
-18.5737469122
 20
-6.7198363633
 10
-18.4731466365
 20
-6.6631781691
 10
-18.3836096879
 20
-6.6011463686
 10
-18.3051360663
 20
-6.5337409619
 10
-18.2381282216
 20
-6.4614070393
 10
-18.1821837039
 20
-6.3836995104
 10
-18.1360951643
 20
-6.2992831044
 10
-18.0990720664
 20
-6.2072724877
 10
-18.0719049466
 20
-6.1085529939
 10
-18.0557580646
 20
-6.0044453531
 10
-18.0510205617
 20
-5.8918077411
 10
-18.0573032967
 20
-5.7737819822
 10
-18.0746031065
 20
-5.6611142787
 10
-18.1035853242
 20
-5.5566791925
 10
-18.1435846167
 20
-5.4576021618
 10
-18.1926018218
 20
-5.3660057033
 10
-18.2506930447
 20
-5.2821221977
 10
-18.3178021803
 20
-5.2057192642
 10
-18.3917617506
 20
-5.1382222773
 10
-18.4714885478
 20
-5.0797924396
 10
-18.5580657797
 20
-5.0302685485
 10
-18.6525755913
 20
-4.9905923703
 10
-18.757692672
 20
-4.9606564628
 10
-18.8707423325
 20
-4.9405682682
 10
-18.984782649
 20
-4.9315918795
 10
-19.1004234109
 20
-4.9347352654
 10
-19.2170548288
 20
-4.9489904573
 10
-19.3259056118
 20
-4.9725976421
 10
-19.4242886685
 20
-5.0058568935
 10
-19.5148910901
 20
-5.0484681379
  0
LWPOLYLINE
  5
2EE
100
AcDbEntity
  8
0
100
AcDbPolyline
 62
7
  6
CONTINUOUS
 90
34
 70
0
 10
-20.3466185187
 20
-2.6943915726
 10
-20.418100646
 20
-2.6975938052
 10
-20.4859921296
 20
-2.7051647834
 10
-20.5502929695
 20
-2.7171045074
 10
-20.6112349449
 20
-2.7337528012
 10
-20.6685862766
 20
-2.7547698408
 10
-20.7216516272
 20
-2.7791361535
 10
-20.7701047345
 20
-2.8069843135
 10
-20.8142718606
 20
-2.8381817467
 10
-20.8544364551
 20
-2.8713112581
 10
-20.8900388691
 20
-2.9056166535
 10
-20.9216387515
 20
-2.9418541273
 10
-20.9511984983
 20
-2.9808750678
 10
-20.9794817746
 20
-3.0228011303
 10
-21.0057249154
 20
-3.0675106597
 10
-21.0295993224
 20
-3.1154900791
 10
-21.0513064841
 20
-3.1669577843
 10
-21.0706449119
 20
-3.2216953796
 10
-21.0866815421
 20
-3.2795341009
 10
-21.0993365533
 20
-3.3405551667
 10
-21.1086897668
 20
-3.4046773585
 10
-21.1140475823
 20
-3.4714882571
 10
-21.1159229565
 20
-3.5410632318
 10
-21.1138029327
 20
-3.6133269132
 10
-21.105455041
 20
-3.6876407739
 10
-21.0912064273
 20
-3.7646984914
 10
-21.0707299458
 20
-3.8438063882
 10
-21.0408116888
 20
-3.9222449044
 10
-21.000684695
 20
-4.0003374843
 10
-20.9511159258
 20
-4.0777606836
 10
-20.8911923578
 20
-4.1508246091
 10
-20.8206096498
 20
-4.2182992964
 10
-20.739672143
 20
-4.28141471
 10
-20.6483798375
 20
-4.3401708498
  0
LWPOLYLINE
  5
2EF
100
AcDbEntity
  8
RACCORDO
100
AcDbPolyline
 62
250
  6
CONTINUOUS
 90
69
 70
0
 10
-14.0
 20
37.6224733856
 10
-13.9992275527
 20
37.6199067358
 10
-13.9781185734
 20
37.6088180152
 10
-13.9281862066
 20
37.5977572119
 10
-13.8495576313
 20
37.5867502337
 10
-13.7423829482
 20
37.5758166436
 10
-13.60675475
 20
37.5649698525
 10
-13.4428011845
 20
37.554227813
 10
-13.2508426282
 20
37.5436179258
 10
-13.0313172335
 20
37.5331675742
 10
-12.7846138545
 20
37.5228972742
 10
-12.5112419963
 20
37.5128300094
 10
-12.2120162898
 20
37.5029955653
 10
-11.8878201935
 20
37.4934202728
 10
-11.5391733371
 20
37.4841169916
 10
-11.1664099983
 20
37.4750947782
 10
-10.7699362888
 20
37.4663660539
 10
-10.3508224242
 20
37.4579568223
 10
-9.9104793418
 20
37.4498952954
 10
-9.4502916249
 20
37.4422043156
 10
-8.9708644373
 20
37.434891605
 10
-8.4725000464
 20
37.4279618411
 10
-7.9556665461
 20
37.4214239605
 10
-7.4218884307
 20
37.4152995958
 10
-6.873106783
 20
37.4096109677
 10
-6.3111080671
 20
37.4043742198
 10
-5.7365098625
 20
37.3995927943
 10
-5.1495485709
 20
37.3952686923
 10
-4.5507315752
 20
37.3914079791
 10
-3.9419337177
 20
37.3880250313
 10
-3.3254687926
 20
37.3851326842
 10
-2.7033666278
 20
37.3827381652
 10
-2.0762194877
 20
37.3808414859
 10
-1.4442155617
 20
37.3794432266
 10
-0.8079005312
 20
37.378546865
 10
-0.1693373528
 20
37.3781575694
 10
0.4690108807
 20
37.3782768421
 10
1.1050649891
 20
37.3789020394
 10
1.7382672998
 20
37.3800303576
 10
2.3684294865
 20
37.3816614528
 10
2.9949623359
 20
37.3837960462
 10
3.6158102357
 20
37.386429401
 10
4.2286102553
 20
37.3895515173
 10
4.8314319262
 20
37.3931503158
 10
5.423747702
 20
37.3972203738
 10
6.0053185235
 20
37.4017600186
 10
6.5755178653
 20
37.4067666096
 10
7.1324950501
 20
37.4122261984
 10
7.6742187902
 20
37.4181189236
 10
8.19907782
 20
37.4244250024
 10
8.706574067
 20
37.4311361291
 10
9.1963939259
 20
37.4382480969
 10
9.6679067646
 20
37.4457540227
 10
10.1196346485
 20
37.4536327475
 10
10.5500501112
 20
37.461857722
 10
10.9579772276
 20
37.4704041964
 10
11.3429669195
 20
37.4792603624
 10
11.7046570579
 20
37.4884177734
 10
12.0424820181
 20
37.4978643949
 10
12.3554482745
 20
37.5075749014
 10
12.6426155748
 20
37.5175203055
 10
12.9033817538
 20
37.5276781621
 10
13.1372816533
 20
37.5380285885
 10
13.3437717383
 20
37.5485448943
 10
13.5224235259
 20
37.559200148
 10
13.673037466
 20
37.5699765804
 10
13.7954684899
 20
37.5808609841
 10
13.889488706
 20
37.5918340467
 10
13.9548673832
 20
37.6028700592
  0
LWPOLYLINE
  5
2F0
100
AcDbEntity
  8
0
100
AcDbPolyline
 62
7
  6
CONTINUOUS
 90
9
 70
0
 10
-11.8499999372
 20
39.599585852
 10
-11.849744374
 20
39.5984314936
 10
-11.8375783153
 20
39.5901095762
 10
-11.806283124
 20
39.5818164153
 10
-11.755746106
 20
39.573538667
 10
-11.6860799555
 20
39.5652896752
 10
-11.5976227544
 20
39.5571094712
 10
-11.490283164
 20
39.5489983895
 10
-11.3641525231
 20
39.5409560956
  0
LINE
  5
2F1
100
AcDbEntity
  8
0
100
AcDbLine
 62
7
  6
CONTINUOUS
 10
1.1
 20
6.2801869005
 11
1.1
 21
5.1541618985
  0
LINE
  5
2F2
100
AcDbEntity
  8
0
100
AcDbLine
 62
7
  6
CONTINUOUS
 10
1.1
 20
-14.9859742346
 11
1.1
 21
-16.1119992366
  0
LINE
  5
2F3
100
AcDbEntity
  8
0
100
AcDbLine
 62
7
  6
CONTINUOUS
 10
1.82846
 20
25.1820038319
 11
1.82846
 21
25.5322838319
  0
LINE
  5
2F4
100
AcDbEntity
  8
0
100
AcDbLine
 62
7
  6
CONTINUOUS
 10
3.6
 20
44.9645540125
 11
3.6
 21
44.4988182733
  0
LINE
  5
2F5
100
AcDbEntity
  8
0
100
AcDbLine
 62
7
  6
CONTINUOUS
 10
4.1
 20
45.3378498723
 11
4.1
 21
44.9987421209
  0
LWPOLYLINE
  5
2F6
100
AcDbEntity
  8
0
100
AcDbPolyline
 62
7
  6
CONTINUOUS
 90
4
 70
0
 10
-33.2349977679
 20
-34.4895945804
 10
-33.1661339813
 20
-34.4240465609
 10
-33.0864294304
 20
-34.3648104065
 10
-32.9999983446
 20
-34.3159095709
  0
LWPOLYLINE
  5
2F7
100
AcDbEntity
  8
0
100
AcDbPolyline
 62
7
  6
CONTINUOUS
 90
19
 70
0
 10
-20.4
 20
35.5840938319
 10
-20.4293900351
 20
35.6252038725
 10
-20.4600977877
 20
35.6636900108
 10
-20.4921232579
 20
35.6995553156
 10
-20.5255792049
 20
35.7327456318
 10
-20.5603528695
 20
35.763366747
 10
-20.5961059739
 20
35.7916390367
 10
-20.6328342688
 20
35.8176000978
 10
-20.6705420035
 20
35.8412272079
 10
-20.7089036477
 20
35.8626033158
 10
-20.7478552581
 20
35.8817208066
 10
-20.787460778
 20
35.898614318
 10
-20.8275865075
 20
35.9133843433
 10
-20.8682763771
 20
35.9260365399
 10
-20.9094864563
 20
35.9365412426
 10
-20.9509512533
 20
35.9449071957
 10
-20.9925822707
 20
35.9511296301
 10
-21.0344680058
 20
35.9552007915
 10
-21.0766084587
 20
35.9571219048
  0
LWPOLYLINE
  5
2F8
100
AcDbEntity
  8
0
100
AcDbPolyline
 62
250
  6
CONTINUOUS
 90
10
 70
0
 10
-21.0766024408
 20
35.9571219048
 10
-21.0818615341
 20
35.9655746243
 10
-21.0869930626
 20
35.9740501341
 10
-21.0919970265
 20
35.9825484343
 10
-21.0968714263
 20
35.9910695712
 10
-21.1016182615
 20
35.9996134986
 10
-21.1062435302
 20
36.0081800771
 10
-21.1107492319
 20
36.0167692603
 10
-21.1151333671
 20
36.0253810948
 10
-21.119395936
 20
36.0340155804
  0
LWPOLYLINE
  5
2F9
100
AcDbEntity
  8
0
100
AcDbPolyline
 62
7
  6
CONTINUOUS
 90
10
 70
0
 10
-10.0999999198
 20
41.3993126341
 10
-10.0995119031
 20
41.3977278845
 10
-10.0860633199
 20
41.3900457597
 10
-10.0535016035
 20
41.3823957541
 10
-10.0016921758
 20
41.3747634461
 10
-9.9307696147
 20
41.3671632572
 10
-9.8411376543
 20
41.3596384523
 10
-9.732689587
 20
41.3521894614
 10
-9.6055321203
 20
41.3448158545
 10
-9.4603891114
 20
41.3375596066
  0
LWPOLYLINE
  5
2FA
100
AcDbEntity
  8
0
100
AcDbPolyline
 62
7
  6
CONTINUOUS
 90
70
 70
0
 10
-9.45
 20
40.8993665708
 10
-9.449466723
 20
40.8976144803
 10
-9.4351046679
 20
40.8901102134
 10
-9.4011869175
 20
40.8826251317
 10
-9.3477837717
 20
40.8751747493
 10
-9.2750059165
 20
40.867774508
 10
-9.1830041952
 20
40.8604397462
 10
-9.0719692954
 20
40.8531856661
 10
-8.9421313538
 20
40.846027303
 10
-8.7937594796
 20
40.8389794937
 10
-8.6271611959
 20
40.8320568458
 10
-8.4426818032
 20
40.8252737076
 10
-8.2407036633
 20
40.8186441382
 10
-8.0216454066
 20
40.8121818783
 10
-7.7859610648
 20
40.8059003221
 10
-7.5341391298
 20
40.7998124889
 10
-7.2667015409
 20
40.7939309967
 10
-6.9842026034
 20
40.7882680359
 10
-6.6872278394
 20
40.7828353437
 10
-6.3763927746
 20
40.7776441804
 10
-6.052341662
 20
40.7727053052
 10
-5.7157461471
 20
40.7680289549
 10
-5.3673038755
 20
40.7636248218
 10
-5.007737047
 20
40.7595020343
 10
-4.6377909187
 20
40.7556691373
 10
-4.2582322606
 20
40.7521340752
 10
-3.8698477658
 20
40.748904175
 10
-3.4734424206
 20
40.745986131
 10
-3.0698378355
 20
40.7433859915
 10
-2.6598705427
 20
40.7411091455
 10
-2.2443902621
 20
40.7391603121
 10
-1.8242581399
 20
40.7375435308
 10
-1.4003449641
 20
40.7362621523
 10
-0.9735293596
 20
40.7353188327
 10
-0.5446959668
 20
40.7347155271
 10
-0.1147336084
 20
40.7344534859
 10
0.3154665529
 20
40.7345332523
 10
0.7450128616
 20
40.7349546609
 10
1.1730150174
 20
40.7357168383
 10
1.5985859204
 20
40.7368182047
 10
2.02084351
 20
40.7382564774
 10
2.4389125928
 20
40.7400286755
 10
2.8519266568
 20
40.7421311256
 10
3.2590296673
 20
40.7445594702
 10
3.6593778412
 20
40.7473086762
 10
4.0521413957
 20
40.7503730454
 10
4.4365062683
 20
40.7537462264
 10
4.8116758042
 20
40.7574212278
 10
5.1768724073
 20
40.7613904326
 10
5.5313391517
 20
40.765645614
 10
5.8743413511
 20
40.7701779525
 10
6.205168081
 20
40.7749780542
 10
6.5231336524
 20
40.7800359701
 10
6.8275790333
 20
40.7853412168
 10
7.1178732139
 20
40.7908827985
 10
7.3934145154
 20
40.7966492294
 10
7.6536318363
 20
40.8026285577
 10
7.8979858365
 20
40.8088083903
 10
8.1259700549
 20
40.8151759185
 10
8.3371119595
 20
40.8217179447
 10
8.5309739264
 20
40.8284209096
 10
8.7071541471
 20
40.8352709201
 10
8.8652874613
 20
40.8422537787
 10
9.0050461133
 20
40.8493550123
 10
9.1261404322
 20
40.8565599025
 10
9.2283194314
 20
40.863853516
 10
9.3113713294
 20
40.8712207358
 10
9.3751239883
 20
40.8786462921
 10
9.4194452712
 20
40.8861147943
 10
9.4442433153
 20
40.8936107629
  0
LWPOLYLINE
  5
2FB
100
AcDbEntity
  8
0
100
AcDbPolyline
 62
7
  6
CONTINUOUS
 90
30
 70
0
 10
-2.32486
 20
23.3763938319
 10
-2.3075609938
 20
23.2639606144
 10
-2.2803659352
 20
23.1588200627
 10
-2.2432748244
 20
23.0609721768
 10
-2.1958314346
 20
22.9702821605
 10
-2.1384919926
 20
22.8868848101
 10
-2.0726251781
 20
22.8111845142
 10
-1.9980270685
 20
22.7424661957
 10
-1.9149015865
 20
22.6814449317
 10
-1.8252291792
 20
22.6306703428
 10
-1.7294142988
 20
22.59077498
 10
-1.6270524931
 20
22.5611262924
 10
-1.5189108522
 20
22.5423762471
 10
-1.4015763605
 20
22.5346864042
 10
-1.2784620335
 20
22.5378952037
 10
-1.1605740077
 20
22.5521699331
 10
-1.0511981019
 20
22.5776944618
 10
-0.9470484974
 20
22.6142849205
 10
-0.8492738741
 20
22.661556989
 10
-0.7569833128
 20
22.7209892058
 10
-0.6710677327
 20
22.7911030324
 10
-0.5953485715
 20
22.8670785334
 10
-0.5308288766
 20
22.9477703229
 10
-0.4765056005
 20
23.0343237867
 10
-0.4331910391
 20
23.1253551473
 10
-0.4014170463
 20
23.2223063788
 10
-0.380651768
 20
23.323735507
 10
-0.3701119385
 20
23.4239328317
 10
-0.37000754
 20
23.5227470816
 10
-0.3801285901
 20
23.6203295281
  0
LWPOLYLINE
  5
2FC
100
AcDbEntity
  8
0
100
AcDbPolyline
 62
7
  6
CONTINUOUS
 90
31
 70
0
 10
-0.00634
 20
23.3680538319
 10
0.010460814
 20
23.2568803349
 10
0.0365608272
 20
23.153245376
 10
0.0719600394
 20
23.0571489554
 10
0.1169500196
 20
22.9686431985
 10
0.171239199
 20
22.8876759797
 10
0.233952871
 20
22.814090923
 10
0.3051679741
 20
22.7471544688
 10
0.3848075698
 20
22.6876001766
 10
0.4717661363
 20
22.6374723484
 10
0.5663297986
 20
22.5971696518
 10
0.6682124316
 20
22.5662934192
 10
0.7754501387
 20
22.5456919507
 10
0.8909818078
 20
22.5355605715
 10
1.0118685508
 20
22.5357039565
 10
1.1273298074
 20
22.5463844297
 10
1.234070097
 20
22.5677927163
 10
1.3353849001
 20
22.5997380912
 10
1.4303800978
 20
22.6419107037
 10
1.5186619756
 20
22.6940919434
 10
1.600624248
 20
22.7565004207
 10
1.6765539386
 20
22.8294821161
 10
1.7481634934
 20
22.9145295083
 10
1.8137404664
 20
23.0101501186
 10
1.8684345434
 20
23.112212492
 10
1.9108749053
 20
23.2208649339
 10
1.9424323712
 20
23.3359591389
 10
1.9623690844
 20
23.4529187355
 10
1.9700835153
 20
23.5731695827
 10
1.9661771936
 20
23.6952858215
 10
1.9517168513
 20
23.8104135036
  0
LINE
  5
2FD
100
AcDbEntity
  8
0
100
AcDbLine
 62
7
  6
CONTINUOUS
 10
7.5
 20
21.4840938319
 11
7.5
 21
21.6840938319
  0
LINE
  5
2FE
100
AcDbEntity
  8
0
100
AcDbLine
 62
7
  6
CONTINUOUS
 10
7.85
 20
43.1493997835
 11
7.85
 21
42.699092422
  0
LWPOLYLINE
  5
2FF
100
AcDbEntity
  8
0
100
AcDbPolyline
 62
7
  6
CONTINUOUS
 90
4
 70
0
 10
33.2355011409
 20
24.6583225645
 10
33.1661338767
 20
24.5922342003
 10
33.086429378
 20
24.5329980595
 10
32.9999983446
 20
24.4840972347
  0
LWPOLYLINE
  5
300
100
AcDbEntity
  8
0
100
AcDbPolyline
 62
7
  6
CONTINUOUS
 90
27
 70
0
 10
-7.85
 20
42.699092422
 10
-7.8493676127
 20
42.6973534685
 10
-7.8357358909
 20
42.6908371746
 10
-7.8043537072
 20
42.6843395816
 10
-7.7552921522
 20
42.6778754085
 10
-7.6886623661
 20
42.6714592987
 10
-7.6046152867
 20
42.6651057869
 10
-7.5033413079
 20
42.6588292657
 10
-7.3850698477
 20
42.6526439535
 10
-7.2500688289
 20
42.646563862
 10
-7.0986440724
 20
42.6406027646
 10
-6.9311386039
 20
42.6347741651
 10
-6.7479318772
 20
42.6290912672
 10
-6.5494389144
 20
42.6235669443
 10
-6.336109366
 20
42.618213711
 10
-6.1084264919
 20
42.613043694
 10
-5.8669060672
 20
42.608068605
 10
-5.6120952132
 20
42.6032997142
 10
-5.3445711585
 20
42.5987478247
 10
-5.0649399312
 20
42.594423248
 10
-4.7738349858
 20
42.5903357807
 10
-4.4719157688
 20
42.5864946821
 10
-4.1598662242
 20
42.5829086536
 10
-3.8383932447
 20
42.5795858188
 10
-3.5082250699
 20
42.5765337048
 10
-3.170109637
 20
42.5737592257
 10
-2.4731170256
 20
42.5690676695
  0
LWPOLYLINE
  5
301
100
AcDbEntity
  8
0
100
AcDbPolyline
 62
7
  6
CONTINUOUS
 90
9
 70
0
 10
-8.3499999181
 20
43.1990366864
 10
-8.3494253638
 20
43.1974452983
 10
-8.3367438498
 20
43.190819125
 10
-8.3068688636
 20
43.1842235695
 10
-8.2596673966
 20
43.1776451072
 10
-8.1952724573
 20
43.1710972626
 10
-8.1140830719
 20
43.1646206098
 10
-8.0159949575
 20
43.1582155908
 10
-7.9011123969
 20
43.1518817637
  0
LWPOLYLINE
  5
302
100
AcDbEntity
  8
0
100
AcDbPolyline
 62
7
  6
CONTINUOUS
 90
19
 70
0
 10
1.9517168513
 20
23.8104135036
 10
1.9269627721
 20
23.9153036761
 10
1.8916546724
 20
24.0132052919
 10
1.8460784328
 20
24.1050112606
 10
1.7890867742
 20
24.192038254
 10
1.7218269759
 20
24.2729696004
 10
1.6480267555
 20
24.3447481943
 10
1.5684531226
 20
24.4068416396
 10
1.4823390676
 20
24.4597823324
 10
1.3911112804
 20
24.5021103568
 10
1.2936509606
 20
24.5334925618
 10
1.1910769085
 20
24.5542620983
 10
1.0881722143
 20
24.5639585028
 10
0.9862378281
 20
24.5628730225
 10
0.8839727999
 20
24.5507144101
 10
0.78225737
 20
24.52614846
 10
0.6813849517
 20
24.4887304368
 10
0.5810621318
 20
24.4389050758
 10
0.4812889101
 20
24.3766723771
  0
LWPOLYLINE
  5
303
100
AcDbEntity
  8
0
100
AcDbPolyline
 62
7
  6
CONTINUOUS
 90
11
 70
0
 10
-0.3801285901
 20
23.6203295281
 10
-0.3990618756
 20
23.7114242849
 10
-0.4267832429
 20
23.7944804285
 10
-0.4633168454
 20
23.8710488824
 10
-0.50732193
 20
23.9405265305
 10
-0.5583204924
 20
24.0027924467
 10
-0.6167905367
 20
24.057967557
 10
-0.6828253221
 20
24.1058115236
 10
-0.7564559349
 20
24.1462442336
 10
-0.8376512886
 20
24.1793457999
 10
-0.9264113834
 20
24.2051162224
  0
LINE
  5
304
100
AcDbEntity
  8
0
100
AcDbLine
 62
7
  6
CONTINUOUS
 10
8.35
 20
43.6390705384
 11
8.35
 21
43.1990162696
  0
LINE
  5
305
100
AcDbEntity
  8
0
100
AcDbLine
 62
7
  6
CONTINUOUS
 10
9.45
 20
41.337197697
 11
9.45
 21
40.8993665708
  0
LINE
  5
306
100
AcDbEntity
  8
0
100
AcDbLine
 62
7
  6
CONTINUOUS
 10
10.1
 20
41.8661355254
 11
10.1
 21
41.3992904183
  0
LINE
  5
307
100
AcDbEntity
  8
0
100
AcDbLine
 62
7
  6
CONTINUOUS
 10
11.35
 20
39.5402586426
 11
11.35
 21
39.0996407195
  0
LINE
  5
308
100
AcDbEntity
  8
0
100
AcDbLine
 62
7
  6
CONTINUOUS
 10
11.85
 20
40.0262234167
 11
11.85
 21
39.5995645671
  0
LWPOLYLINE
  5
309
100
AcDbEntity
  8
0
100
AcDbPolyline
 62
7
  6
CONTINUOUS
 90
19
 70
0
 10
-33.0
 20
-34.3159061681
 10
-33.0411100405
 20
-34.3452962031
 10
-33.0795961789
 20
-34.3760039557
 10
-33.1154614836
 20
-34.4080294259
 10
-33.1486517999
 20
-34.441485373
 10
-33.1792729151
 20
-34.4762590376
 10
-33.2075452047
 20
-34.5120121419
 10
-33.2335062658
 20
-34.5487404368
 10
-33.257133376
 20
-34.5864481715
 10
-33.2785094839
 20
-34.6248098158
 10
-33.2976269747
 20
-34.6637614261
 10
-33.3145204861
 20
-34.7033669461
 10
-33.3292905113
 20
-34.7434926755
 10
-33.341942708
 20
-34.7841825452
 10
-33.3524474106
 20
-34.8253926244
 10
-33.3608133637
 20
-34.8668574213
 10
-33.3670357982
 20
-34.9084884387
 10
-33.3711069595
 20
-34.9503741739
 10
-33.3730280729
 20
-34.9925146268
  0
LINE
  5
30A
100
AcDbEntity
  8
0
100
AcDbLine
 62
7
  6
CONTINUOUS
 10
-17.4
 20
11.5840938319
 11
-17.6
 21
11.5840938319
  0
LWPOLYLINE
  5
30B
100
AcDbEntity
  8
ASSI
100
AcDbPolyline
 62
7
  6
CONTINUOUS
 90
27
 70
0
 10
33.6159885716
 20
-16.4159061681
 10
33.6097923796
 20
-16.4101767656
 10
33.5974700651
 20
-16.3668491955
 10
33.5852186155
 20
-16.2797022324
 10
33.5730372354
 20
-16.1492276993
 10
33.5610636777
 20
-15.9769010645
 10
33.5493003014
 20
-15.7622472537
 10
33.5377447475
 20
-15.5057413412
 10
33.5265276917
 20
-15.2102840186
 10
33.5156529763
 20
-14.8754331381
 10
33.5051167591
 20
-14.5016308474
 10
33.4950381886
 20
-14.0931042818
 10
33.4854224596
 20
-13.6494592766
 10
33.4762643774
 20
-13.1710899965
 10
33.4676675058
 20
-12.66340607
 10
33.4596382153
 20
-12.1260747388
 10
33.4521701355
 20
-11.5594287613
 10
33.4453477189
 20
-10.9698760411
 10
33.4391782948
 20
-10.3571565579
 10
33.4336545339
 20
-9.7215303321
 10
33.4288389017
 20
-9.0701853292
 10
33.4247394362
 20
-8.4029431211
 10
33.4213480994
 20
-7.7199821358
 10
33.418703242
 20
-7.0290256229
 10
33.4168176477
 20
-6.3326479989
 10
33.4156785329
 20
-5.6282748473
 10
33.4152858976
 20
-4.9159061681
  0
LWPOLYLINE
  5
30C
100
AcDbEntity
  8
0
100
AcDbPolyline
 62
7
  6
CONTINUOUS
 90
4
 70
0
 10
-20.5742287326
 20
35.8195949729
 10
-20.5081403684
 20
35.7502277086
 10
-20.4489042276
 20
35.67052321
 10
-20.4000034028
 20
35.5840921765
  0
LINE
  5
30D
100
AcDbEntity
  8
0
100
AcDbLine
 62
7
  6
CONTINUOUS
 10
14.0
 20
37.6224733856
 11
14.0
 21
36.2000824035
  0
LINE
  5
30E
100
AcDbEntity
  8
0
100
AcDbLine
 62
250
  6
CONTINUOUS
 10
14.9
 20
-45.8837691083
 11
14.9000000056
 21
-45.4159061681
  0
LWPOLYLINE
  5
30F
100
AcDbEntity
  8
0
100
AcDbPolyline
 62
250
  6
CONTINUOUS
 90
10
 70
0
 10
-33.3730280729
 20
-34.9925086089
 10
-33.3814807923
 20
-34.9977677021
 10
-33.3899563021
 20
-35.0028992307
 10
-33.3984546023
 20
-35.0079031946
 10
-33.4069757393
 20
-35.0127775944
 10
-33.4155196666
 20
-35.0175244295
 10
-33.4240862451
 20
-35.0221496982
 10
-33.4326754284
 20
-35.0266553999
 10
-33.4412872628
 20
-35.0310395352
 10
-33.4499217485
 20
-35.0353021041
  0
LINE
  5
310
100
AcDbEntity
  8
0
100
AcDbLine
 62
250
  6
CONTINUOUS
 10
33.4678629402
 20
18.9840938319
 11
33.0
 21
18.9840938375
  0
LWPOLYLINE
  5
311
100
AcDbEntity
  8
0
100
AcDbPolyline
 62
7
  6
CONTINUOUS
 90
16
 70
0
 10
-13.9999999495
 20
36.2001031543
 10
-13.988794932
 20
36.1903207341
 10
-13.9582011958
 20
36.1812158809
 10
-13.9080065983
 20
36.1721247413
 10
-13.8383083921
 20
36.1630599635
 10
-13.7493983346
 20
36.154059493
 10
-13.6411958924
 20
36.1451235992
 10
-13.5137815988
 20
36.1362520127
 10
-13.3676888117
 20
36.1274818698
 10
-13.2028392332
 20
36.118813596
 10
-13.0193111611
 20
36.110246766
 10
-12.8178728459
 20
36.1018172405
 10
-12.5984492103
 20
36.0935255953
 10
-12.3611153316
 20
36.0853712546
 10
-12.1068646919
 20
36.0773883527
 10
-11.8587505989
 20
36.0702435074
  0
LWPOLYLINE
  5
312
100
AcDbEntity
  8
RACCORDO
100
AcDbPolyline
 62
250
  6
CONTINUOUS
 90
67
 70
0
 10
-11.85
 20
40.0262234167
 10
-11.842975873
 20
40.0191037193
 10
-11.819774813
 20
40.0114616971
 10
-11.7784224305
 20
40.0035268011
 10
-11.7168431909
 20
39.9953071126
 10
-11.6327045742
 20
39.9867999774
 10
-11.5225832349
 20
39.977944332
 10
-11.3848974757
 20
39.9688514148
 10
-11.2216817412
 20
39.9597749789
 10
-11.0337010017
 20
39.9507935966
 10
-10.8196145247
 20
39.9418749427
 10
-10.5806025277
 20
39.9330966387
 10
-10.3170662379
 20
39.9244882499
 10
-10.0290467594
 20
39.9160646923
 10
-9.7179540153
 20
39.9078761953
 10
-9.3844970581
 20
39.8999450191
 10
-9.0292293678
 20
39.8922876922
 10
-8.6538010519
 20
39.8849405805
 10
-8.2596766877
 20
39.8779290558
 10
-7.8472872801
 20
39.8712576629
 10
-7.4168511774
 20
39.8649299264
 10
-6.9687727084
 20
39.8589544099
 10
-6.5045085452
 20
39.8533530648
 10
-6.0259043177
 20
39.8481481603
 10
-5.5346498332
 20
39.8433557142
 10
-5.0313482808
 20
39.8389793195
 10
-4.5162700951
 20
39.8350213293
 10
-3.9899423547
 20
39.8314879835
 10
-3.4541158539
 20
39.8283931854
 10
-2.9109222277
 20
39.8257492476
 10
-2.3622424017
 20
39.8235632425
 10
-1.8087121293
 20
39.8218356477
 10
-1.2506271957
 20
39.8205673876
 10
-0.6885930434
 20
39.819761862
 10
-0.1245148471
 20
39.8194238177
 10
0.4393622127
 20
39.8195546011
 10
1.0011186
 20
39.8201517589
 10
1.5601371083
 20
39.8212126255
 10
2.1161195437
 20
39.8227366364
 10
2.6684302697
 20
39.8247240813
 10
3.2151643703
 20
39.8271701578
 10
3.7541456941
 20
39.8300651309
 10
4.2835720135
 20
39.8333972202
 10
4.8028938209
 20
39.837160836
 10
5.3118335212
 20
39.8413539675
 10
5.8097761369
 20
39.8459737663
 10
6.2949715833
 20
39.8510062698
 10
6.765489208
 20
39.8564314541
 10
7.2197881719
 20
39.8622291448
 10
7.657432769
 20
39.868391296
 10
8.0781933468
 20
39.8749146854
 10
8.4816356558
 20
39.8817955476
 10
8.866183217
 20
39.8890101005
 10
9.23001074
 20
39.8965232662
 10
9.5725198014
 20
39.9043194357
 10
9.8929075619
 20
39.912376891
 10
10.1895145932
 20
39.9206453163
 10
10.4622471964
 20
39.9291091542
 10
10.7106304536
 20
39.9377397256
 10
10.9331971602
 20
39.9464605745
 10
11.1314186256
 20
39.9553013009
 10
11.3042727633
 20
39.9641852959
 10
11.4487905719
 20
39.9728644429
 10
11.5661133528
 20
39.9812262552
 10
11.6598931925
 20
39.9893274027
 10
11.7324823861
 20
39.9971697071
 10
11.7859103855
 20
40.0047433621
  0
LWPOLYLINE
  5
313
100
AcDbEntity
  8
RACCORDO
100
AcDbPolyline
 62
250
  6
CONTINUOUS
 90
66
 70
0
 10
-10.1
 20
41.8661355254
 10
-10.0963316948
 20
41.8613851872
 10
-10.0819471578
 20
41.8556011278
 10
-10.0555842931
 20
41.8496227055
 10
-10.0159323505
 20
41.8434400279
 10
-9.9611558228
 20
41.8370084444
 10
-9.8891880096
 20
41.8303093523
 10
-9.7985424873
 20
41.8233911552
 10
-9.6881538851
 20
41.8163130403
 10
-9.5565209962
 20
41.8090928379
 10
-9.4022397634
 20
41.8017555776
 10
-9.2250565968
 20
41.7943716911
 10
-9.0239978438
 20
41.7869672505
 10
-8.7981102617
 20
41.7795686863
 10
-8.5479559524
 20
41.7722447529
 10
-8.2721417279
 20
41.7649993707
 10
-7.9711482566
 20
41.7578872763
 10
-7.6497490271
 20
41.7510404613
 10
-7.310227589
 20
41.7445051856
 10
-6.9520081428
 20
41.7382681137
 10
-6.5766850311
 20
41.7323571535
 10
-6.185755105
 20
41.7267931352
 10
-5.779767921
 20
41.7215812557
 10
-5.3589717213
 20
41.7167247619
 10
-4.9238058187
 20
41.7122312892
 10
-4.4758584805
 20
41.7081197281
 10
-4.0171474826
 20
41.7044085606
 10
-3.5494999057
 20
41.7011100793
 10
-3.0734936987
 20
41.698225928
 10
-2.5893187128
 20
41.6957572823
 10
-2.0974624696
 20
41.6937090614
 10
-1.5998184249
 20
41.6920915557
 10
-1.0986991546
 20
41.6909122694
 10
-0.5960967722
 20
41.6901734874
 10
-0.0925543782
 20
41.6898736215
 10
0.4117666343
 20
41.6900127707
 10
0.9163323712
 20
41.6905931737
 10
1.4191445928
 20
41.6916149268
 10
1.917861484
 20
41.6930732823
 10
2.4105487038
 20
41.6949601961
 10
2.8967060184
 20
41.6972713453
 10
3.376149562
 20
41.7000058367
 10
3.8483039999
 20
41.7031627939
 10
4.3112896402
 20
41.7067321004
 10
4.7630069148
 20
41.7106976062
 10
5.201786997
 20
41.7150422199
 10
5.6271739229
 20
41.7197589228
 10
6.0389262644
 20
41.7248449909
 10
6.4365039867
 20
41.730296354
 10
6.8182985606
 20
41.7360936607
 10
7.1825428954
 20
41.742209828
 10
7.5298825319
 20
41.7486575375
 10
7.8578556894
 20
41.7553930281
 10
8.1611105093
 20
41.7622881785
 10
8.4389271112
 20
41.7692872425
 10
8.6927683779
 20
41.7763857325
 10
8.9219015595
 20
41.7835178374
 10
9.1272032568
 20
41.7906568283
 10
9.3095272465
 20
41.7977748707
 10
9.4688599752
 20
41.80480158
 10
9.6064975203
 20
41.8117097466
 10
9.7238869147
 20
41.8184804828
 10
9.8218892986
 20
41.8250556301
 10
9.9017929237
 20
41.831385968
 10
9.9657112157
 20
41.8374869891
 10
10.0156424607
 20
41.8434010861
  0
LWPOLYLINE
  5
314
100
AcDbEntity
  8
0
100
AcDbPolyline
 62
7
  6
CONTINUOUS
 90
9
 70
0
 10
-0.999390827
 20
46.3991379743
 10
-0.9988145124
 20
46.3977175765
 10
-0.9919183507
 20
46.3963203136
 10
-0.9787023421
 20
46.3949461856
 10
-0.9589995266
 20
46.393586618
 10
-0.9329768642
 20
46.3922501853
 10
-0.9011352346
 20
46.3909626109
 10
-0.8633619121
 20
46.3897248413
 10
-0.7711974227
 20
46.3874187611
  0
LINE
  5
315
100
AcDbEntity
  8
0
100
AcDbLine
 62
250
  6
CONTINUOUS
 10
20.1
 20
-45.8837691083
 11
20.1
 21
-45.4159061681
  0
LWPOLYLINE
  5
316
100
AcDbEntity
  8
0
100
AcDbPolyline
 62
7
  6
CONTINUOUS
 90
27
 70
0
 10
-11.5
 20
-46.0318947396
 10
-11.4942705975
 20
-46.0256985476
 10
-11.4509430274
 20
-46.0133762332
 10
-11.3637960644
 20
-46.0011247836
 10
-11.2333215313
 20
-45.9889434035
 10
-11.0609948965
 20
-45.9769698457
 10
-10.8463410857
 20
-45.9652064695
 10
-10.5898351732
 20
-45.9536509155
 10
-10.2943778506
 20
-45.9424338597
 10
-9.95952697
 20
-45.9315591444
 10
-9.5857246794
 20
-45.9210229272
 10
-9.1771981137
 20
-45.9109443567
 10
-8.7335531086
 20
-45.9013286277
 10
-8.2551838284
 20
-45.8921705454
 10
-7.7474999019
 20
-45.8835736738
 10
-7.2101685707
 20
-45.8755443833
 10
-6.6435225932
 20
-45.8680763035
 10
-6.0539698731
 20
-45.861253887
 10
-5.4412503899
 20
-45.8550844628
 10
-4.8056241641
 20
-45.849560702
 10
-4.1542791612
 20
-45.8447450697
 10
-3.487036953
 20
-45.8406456043
 10
-2.8040759678
 20
-45.8372542674
 10
-2.1131194549
 20
-45.83460941
 10
-1.4167418309
 20
-45.8327238157
 10
-0.7123686793
 20
-45.8315847009
 10
-0.0
 20
-45.8311920656
  0
LWPOLYLINE
  5
317
100
AcDbEntity
  8
0
100
AcDbPolyline
 62
7
  6
CONTINUOUS
 90
16
 70
0
 10
-1.2224018465
 20
22.8548804438
 10
-1.2973145275
 20
22.8425864003
 10
-1.3753847237
 20
22.8387034659
 10
-1.4497047141
 20
22.8429213525
 10
-1.5184332025
 20
22.8555808524
 10
-1.5834114851
 20
22.8763411734
 10
-1.6432557285
 20
22.9038696506
 10
-1.6974580738
 20
22.9379003934
 10
-1.74652638
 20
22.9786992925
 10
-1.7906003912
 20
23.0257313553
 10
-1.8294505313
 20
23.0792373749
 10
-1.8633063764
 20
23.1389765581
 10
-1.8929963986
 20
23.2036915327
 10
-1.9187967553
 20
23.2729631744
 10
-1.9404312891
 20
23.3472106075
 10
-1.9579
 20
23.4264338319
  0
LINE
  5
318
100
AcDbEntity
  8
0
100
AcDbLine
 62
7
  6
CONTINUOUS
 10
-1.9579
 20
23.4264338319
 11
-2.32486
 21
23.3763938319
  0
LINE
  5
319
100
AcDbEntity
  8
0
100
AcDbLine
 62
7
  6
CONTINUOUS
 10
0.3773
 20
23.3972438319
 11
-0.00634
 21
23.3680538319
  0
LINE
  5
31A
100
AcDbEntity
  8
0
100
AcDbLine
 62
7
  6
CONTINUOUS
 10
-7.5
 20
21.4840938319
 11
7.5
 21
21.4840938319
  0
LINE
  5
31B
100
AcDbEntity
  8
0
100
AcDbLine
 62
7
  6
CONTINUOUS
 10
7.5
 20
21.6840938319
 11
-7.5
 21
21.6840938319
  0
LWPOLYLINE
  5
31C
100
AcDbEntity
  8
0
100
AcDbPolyline
 62
7
  6
CONTINUOUS
 90
14
 70
0
 10
-3.5999998856
 20
44.4988341159
 10
-3.598895185
 20
44.4973358587
 10
-3.5879478751
 20
44.4936902759
 10
-3.5649650475
 20
44.4900742134
 10
-3.5297878458
 20
44.4864756627
 10
-3.4825751264
 20
44.4829066324
 10
-3.4238034587
 20
44.4794031487
 10
-3.3533557716
 20
44.4759658753
 10
-3.2713491361
 20
44.4725941484
 10
-3.1786113343
 20
44.4693220026
 10
-3.0750336791
 20
44.4661504464
 10
-2.9607248577
 20
44.4630784712
 10
-2.836838713
 20
44.4601370859
 10
-2.5601404526
 20
44.4546487298
  0
LWPOLYLINE
  5
31D
100
AcDbEntity
  8
0
100
AcDbPolyline
 62
7
  6
CONTINUOUS
 90
11
 70
0
 10
-4.0999998988
 20
44.9987580165
 10
-4.0990454959
 20
44.9972763318
 10
-4.0882677987
 20
44.9933415224
 10
-4.0651692991
 20
44.9894349214
 10
-4.0296053054
 20
44.9855448597
 10
-3.9817205094
 20
44.9816830064
 10
-3.9219489861
 20
44.9778843693
 10
-3.8501826561
 20
44.974149523
 10
-3.7665295988
 20
44.9704778929
 10
-3.6717481285
 20
44.9669027622
 10
-3.5657370605
 20
44.9634250083
  0
LINE
  5
31E
100
AcDbEntity
  8
DRAFT
100
AcDbLine
 62
7
  6
CONTINUOUS
 10
26.2242099741
 20
34.8572894402
 11
26.2242099741
 21
30.5840938319
  0
LINE
  5
31F
100
AcDbEntity
  8
DRAFT
100
AcDbLine
 62
7
  6
CONTINUOUS
 10
26.2242099741
 20
-44.6891017763
 11
26.2242099741
 21
-40.4159061681
  0
LINE
  5
320
100
AcDbEntity
  8
DRAFT
100
AcDbLine
 62
7
  6
CONTINUOUS
 10
26.5
 20
34.5840938319
 11
26.5
 21
30.5840938319
  0
LINE
  5
321
100
AcDbEntity
  8
DRAFT
100
AcDbLine
 62
7
  6
CONTINUOUS
 10
26.5
 20
-44.4159061681
 11
26.5
 21
-40.4159061681
  0
LWPOLYLINE
  5
322
100
AcDbEntity
  8
0
100
AcDbPolyline
 62
7
  6
CONTINUOUS
 90
28
 70
0
 10
-1.6011039925
 20
24.0018938912
 10
-1.5212605535
 20
24.0229970558
 10
-1.4427512274
 20
24.0364073932
 10
-1.365576014
 20
24.0421249036
 10
-1.288664234
 20
24.0402312498
 10
-1.2130865668
 20
24.030644769
 10
-1.1420550507
 20
24.0131204718
 10
-1.0763842114
 20
23.9872644372
 10
-1.0152595233
 20
23.9534705863
 10
-0.9594494484
 20
23.9126756931
 10
-0.9083206834
 20
23.864346313
 10
-0.8625065316
 20
23.8090158907
 10
-0.8246753648
 20
23.7492215334
 10
-0.7956185104
 20
23.6855464565
 10
-0.7745446411
 20
23.6174074447
 10
-0.7617481464
 20
23.5455919601
 10
-0.7572568832
 20
23.4678845766
 10
-0.7610429947
 20
23.3865007203
 10
-0.7733173002
 20
23.3088741323
 10
-0.7942286002
 20
23.237273289
 10
-0.8236280943
 20
23.169429714
 10
-0.861280201
 20
23.1059717182
 10
-0.9084999007
 20
23.0457641861
 10
-0.963972213
 20
22.9899422332
 10
-1.0235166159
 20
22.9425395168
 10
-1.0860444606
 20
22.9049032985
 10
-1.1526443959
 20
22.8756863166
 10
-1.2224018465
 20
22.8548804438
  0
LINE
  5
323
100
AcDbEntity
  8
0
100
AcDbLine
 62
250
  6
CONTINUOUS
 10
33.4678629402
 20
24.1840938319
 11
33.0
 21
24.1840938319
  0
LINE
  5
324
100
AcDbEntity
  8
0
100
AcDbLine
 62
7
  6
CONTINUOUS
 10
0.640531
 20
25.1820038319
 11
1.82846
 21
25.1820038319
  0
LINE
  5
325
100
AcDbEntity
  8
0
100
AcDbLine
 62
7
  6
CONTINUOUS
 10
1.82846
 20
25.5322838319
 11
0.34811
 21
25.5322838319
  0
LINE
  5
326
100
AcDbEntity
  8
0
100
AcDbLine
 62
7
  6
CONTINUOUS
 10
0.06038
 20
23.9977238319
 11
0.40649
 21
23.9476838319
  0
LINE
  5
327
100
AcDbEntity
  8
0
100
AcDbLine
 62
7
  6
CONTINUOUS
 10
-2.28733
 20
24.8067038319
 11
-1.92037
 21
24.7399838319
  0
LWPOLYLINE
  5
328
100
AcDbEntity
  8
RACCORDO
100
AcDbPolyline
 62
250
  6
CONTINUOUS
 90
17
 70
0
 10
-4.1
 20
45.3378498724
 10
-4.0985403192
 20
45.335940618
 10
-4.0840351156
 20
45.3315413618
 10
-4.0540413518
 20
45.3271660165
 10
-4.0086744915
 20
45.322831371
 10
-3.9481052418
 20
45.3185536669
 10
-3.8725527833
 20
45.3143485625
 10
-3.7823007547
 20
45.3102321258
 10
-3.6776838635
 20
45.3062199227
 10
-3.5590672325
 20
45.3023264646
 10
-3.4268752606
 20
45.2985663692
 10
-3.281606504
 20
45.2949543954
 10
-3.1238086207
 20
45.2915045906
 10
-2.9540480031
 20
45.2882297972
 10
-2.7729814933
 20
45.2851431297
 10
-2.5813784685
 20
45.2822577849
 10
-2.1698811192
 20
45.2771375474
  0
LINE
  5
329
100
AcDbEntity
  8
DRAFT
100
AcDbLine
 62
250
  6
CONTINUOUS
 10
28.0
 20
29.0840938319
 11
28.0
 21
28.8083038061
  0
LINE
  5
32A
100
AcDbEntity
  8
DRAFT
100
AcDbLine
 62
250
  6
CONTINUOUS
 10
28.0
 20
-38.9159061681
 11
28.0
 21
-38.6401161422
  0
LINE
  5
32B
100
AcDbEntity
  8
RACCORDO
100
AcDbLine
 62
250
  6
CONTINUOUS
 10
28.0
 20
-44.4159061681
 11
28.0
 21
-46.4159061681
  0
LINE
  5
32C
100
AcDbEntity
  8
RACCORDO
100
AcDbLine
 62
250
  6
CONTINUOUS
 10
28.0
 20
34.5840938319
 11
28.0
 21
36.5840938319
  0
LINE
  5
32D
100
AcDbEntity
  8
DRAFT
100
AcDbLine
 62
7
  6
CONTINUOUS
 10
28.0
 20
28.8083038061
 11
32.2731956082
 21
28.8083038061
  0
LINE
  5
32E
100
AcDbEntity
  8
DRAFT
100
AcDbLine
 62
7
  6
CONTINUOUS
 10
-28.0
 20
28.8083038061
 11
-32.2731956082
 21
28.8083038061
  0
LINE
  5
32F
100
AcDbEntity
  8
DRAFT
100
AcDbLine
 62
7
  6
CONTINUOUS
 10
28.0
 20
29.0840938319
 11
32.0
 21
29.0840938319
  0
LINE
  5
330
100
AcDbEntity
  8
DRAFT
100
AcDbLine
 62
7
  6
CONTINUOUS
 10
-28.0
 20
29.0840938319
 11
-32.0
 21
29.0840938319
  0
LINE
  5
331
100
AcDbEntity
  8
DRAFT
100
AcDbLine
 62
250
  6
CONTINUOUS
 10
-26.5
 20
30.5840938319
 11
-26.2242099741
 21
30.5840938319
  0
LINE
  5
332
100
AcDbEntity
  8
DRAFT
100
AcDbLine
 62
250
  6
CONTINUOUS
 10
26.5
 20
30.5840938319
 11
26.2242099741
 21
30.5840938319
  0
LINE
  5
333
100
AcDbEntity
  8
RACCORDO
100
AcDbLine
 62
250
  6
CONTINUOUS
 10
32.0
 20
30.5840938319
 11
34.0
 21
30.5840938319
  0
LINE
  5
334
100
AcDbEntity
  8
RACCORDO
100
AcDbLine
 62
250
  6
CONTINUOUS
 10
-32.0
 20
30.5840938319
 11
-34.0
 21
30.5840938319
  0
LWPOLYLINE
  5
335
100
AcDbEntity
  8
0
100
AcDbPolyline
 62
250
  6
CONTINUOUS
 90
10
 70
0
 10
33.4499217485
 20
17.9646978959
 10
33.441287266
 20
17.9689604614
 10
33.4326754337
 20
17.9733445945
 10
33.4240862517
 20
17.9778502954
 10
33.4155196734
 20
17.9824755652
 10
33.4069757452
 20
17.9872224027
 10
33.3984546071
 20
17.992096804
 10
33.3899563057
 20
17.9971007678
 10
33.3814807943
 20
18.0022322955
 10
33.3730280729
 20
18.007491387
  0
LWPOLYLINE
  5
336
100
AcDbEntity
  8
RACCORDO
100
AcDbPolyline
 62
250
  6
CONTINUOUS
 90
60
 70
0
 10
-8.35
 20
43.6390705384
 10
-8.3431459896
 20
43.6331672061
 10
-8.3227689783
 20
43.6273109731
 10
-8.2872248291
 20
43.6212348638
 10
-8.2347858384
 20
43.6149457895
 10
-8.163464635
 20
43.6084400025
 10
-8.0704195261
 20
43.6016766545
 10
-7.9543219803
 20
43.5947426017
 10
-7.8166752168
 20
43.5878243576
 10
-7.6579282622
 20
43.5809809379
 10
-7.476990181
 20
43.5741975387
 10
-7.2749292559
 20
43.5675414331
 10
-7.0520436329
 20
43.5610382264
 10
-6.8084250545
 20
43.5547050874
 10
-6.545591207
 20
43.5485907402
 10
-6.2642853452
 20
43.5427161433
 10
-5.9650576181
 20
43.5370962242
 10
-5.6496383952
 20
43.5317643737
 10
-5.3195370213
 20
43.5267428823
 10
-4.9751767417
 20
43.5220351211
 10
-4.6167836234
 20
43.5176441673
 10
-4.2447781595
 20
43.5135777171
 10
-3.8606391176
 20
43.5098543969
 10
-3.4662225962
 20
43.5064921984
 10
-3.0632142302
 20
43.5035031731
 10
-2.6522125001
 20
43.5008894998
 10
-2.2334926313
 20
43.4986529301
 10
-1.807592238
 20
43.4967985154
 10
-1.3762468501
 20
43.4953359643
 10
-0.9415432338
 20
43.4942723528
 10
-0.5052996492
 20
43.4936100206
 10
-0.0681222908
 20
43.4933477944
 10
0.3696981343
 20
43.4934858493
 10
0.8075616899
 20
43.4940260843
 10
1.2436449613
 20
43.4949683457
 10
1.6758375922
 20
43.4963080744
 10
2.1023693011
 20
43.4980376614
 10
2.5226845097
 20
43.5001527129
 10
2.9365029678
 20
43.5026518188
 10
3.3432199106
 20
43.5055335331
 10
3.7411051514
 20
43.5087878501
 10
4.1282344584
 20
43.5123990317
 10
4.5030584307
 20
43.5163502562
 10
4.8651282065
 20
43.5206343552
 10
5.2142070896
 20
43.5252485411
 10
5.5498701765
 20
43.5301901247
 10
5.8705121761
 20
43.5354385308
 10
6.1742471515
 20
43.5409619804
 10
6.4604760227
 20
43.5467462435
 10
6.7283758753
 20
43.5527711623
 10
6.9762138631
 20
43.5589890249
 10
7.2038385007
 20
43.5653825036
 10
7.4108728136
 20
43.5719264739
 10
7.5959906733
 20
43.578554652
 10
7.7603448811
 20
43.5852799015
 10
7.9032875112
 20
43.5920443489
 10
8.0226183014
 20
43.5986649601
 10
8.1193209087
 20
43.6050534564
 10
8.1963970524
 20
43.6112473611
 10
8.2558608169
 20
43.6172497077
  0
LWPOLYLINE
  5
337
100
AcDbEntity
  8
ASSI
100
AcDbPolyline
 62
7
  6
CONTINUOUS
 90
27
 70
0
 10
33.6159885716
 20
6.5840938319
 10
33.6221847636
 20
6.5783644294
 10
33.6345070781
 20
6.5350368593
 10
33.6467585277
 20
6.4478898963
 10
33.6589399077
 20
6.3174153632
 10
33.6709134655
 20
6.1450887284
 10
33.6826768418
 20
5.9304349176
 10
33.6942323957
 20
5.6739290051
 10
33.7054494515
 20
5.3784716825
 10
33.7163241668
 20
5.043620802
 10
33.726860384
 20
4.6698185113
 10
33.7369389546
 20
4.2612919457
 10
33.7465546835
 20
3.8176469405
 10
33.7557127658
 20
3.3392776604
 10
33.7643096374
 20
2.8315937339
 10
33.7723389279
 20
2.2942624027
 10
33.7798070077
 20
1.7276164251
 10
33.7866294242
 20
1.138063705
 10
33.7927988484
 20
0.5253442218
 10
33.7983226092
 20
-0.110282004
 10
33.8031382415
 20
-0.7616270069
 10
33.8072377069
 20
-1.428869215
 10
33.8106290438
 20
-2.1118302003
 10
33.8132739012
 20
-2.8027867132
 10
33.8151594955
 20
-3.4991643372
 10
33.8162986103
 20
-4.2035374888
 10
33.8166912456
 20
-4.9159061681
  0
LWPOLYLINE
  5
338
100
AcDbEntity
  8
0
100
AcDbPolyline
 62
250
  6
CONTINUOUS
 90
8
 70
0
 10
33.4499217173
 20
17.964697896
 10
33.4437715575
 20
18.0638268019
 10
33.4253864954
 20
18.1614276883
 10
33.3950499268
 20
18.2559960885
 10
33.3532294741
 20
18.3460742799
 10
33.3005697776
 20
18.4302737542
 10
33.2378825589
 20
18.5072966201
 10
33.2245066937
 20
18.5214420429
  0
LWPOLYLINE
  5
339
100
AcDbEntity
  8
0
100
AcDbPolyline
 62
7
  6
CONTINUOUS
 90
19
 70
0
 10
33.3730280729
 20
18.0074853732
 10
33.3711045142
 20
18.0496601876
 10
33.3670280935
 20
18.0915742799
 10
33.3607984597
 20
18.1332276502
 10
33.3524243513
 20
18.1747082842
 10
33.3419113565
 20
18.2159281961
 10
33.3292511465
 20
18.2566234287
 10
33.3144740477
 20
18.296749952
 10
33.2975750386
 20
18.336351796
 10
33.2784535843
 20
18.3752970938
 10
33.2570754321
 20
18.4136498196
 10
33.2334486437
 20
18.4513459993
 10
33.2074899504
 20
18.4880618435
 10
33.1792223742
 20
18.5238015875
 10
33.1486084654
 20
18.558560996
 10
33.1154269389
 20
18.5920035742
 10
33.0795716216
 20
18.6240171571
 10
33.0410970064
 20
18.6547139097
 10
33.0
 20
18.6840938319
  0
LINE
  5
33A
100
AcDbEntity
  8
0
100
AcDbLine
 62
250
  6
CONTINUOUS
 10
33.458813557
 20
25.0718713666
 11
33.4610709363
 21
24.9853760888
  0
LINE
  5
33B
100
AcDbEntity
  8
0
100
AcDbLine
 62
250
  6
CONTINUOUS
 10
33.4610709363
 20
24.9853760888
 11
33.4630738488
 21
24.8798306469
  0
LINE
  5
33C
100
AcDbEntity
  8
0
100
AcDbLine
 62
250
  6
CONTINUOUS
 10
33.4630738488
 20
24.8798306469
 11
33.4647675193
 21
24.7585766805
  0
LINE
  5
33D
100
AcDbEntity
  8
0
100
AcDbLine
 62
250
  6
CONTINUOUS
 10
33.4647675193
 20
24.7585766805
 11
33.4661204693
 21
24.6241049686
  0
LINE
  5
33E
100
AcDbEntity
  8
0
100
AcDbLine
 62
250
  6
CONTINUOUS
 10
33.4661204693
 20
24.6241049686
 11
33.4674314732
 21
24.4072330238
  0
LINE
  5
33F
100
AcDbEntity
  8
0
100
AcDbLine
 62
250
  6
CONTINUOUS
 10
33.4674314732
 20
24.4072330238
 11
33.4678629402
 21
24.1840938319
  0
LINE
  5
340
100
AcDbEntity
  8
DRAFT
100
AcDbLine
 62
7
  6
CONTINUOUS
 10
32.0
 20
-38.9159061681
 11
32.0
 21
-40.4159061681
  0
LINE
  5
341
100
AcDbEntity
  8
DRAFT
100
AcDbLine
 62
7
  6
CONTINUOUS
 10
32.0
 20
29.0840938319
 11
32.0
 21
30.5840938319
  0
LINE
  5
342
100
AcDbEntity
  8
RACCORDO
100
AcDbLine
 62
250
  6
CONTINUOUS
 10
32.2731956082
 20
-38.6401161422
 11
32.2731956082
 21
28.8083038061
  0
LINE
  5
343
100
AcDbEntity
  8
RACCORDO
100
AcDbLine
 62
7
  6
CONTINUOUS
 10
32.2757899725
 20
-38.6401161956
 11
32.2757899725
 21
-40.4159061681
  0
LINE
  5
344
100
AcDbEntity
  8
RACCORDO
100
AcDbLine
 62
7
  6
CONTINUOUS
 10
32.2757899725
 20
28.8083038595
 11
32.2757899725
 21
30.5840938319
  0
LINE
  5
345
100
AcDbEntity
  8
0
100
AcDbLine
 62
7
  6
CONTINUOUS
 10
33.0
 20
18.6840938319
 11
33.0
 21
24.4840938319
  0
LINE
  5
346
100
AcDbEntity
  8
0
100
AcDbLine
 62
250
  6
CONTINUOUS
 10
33.3730280729
 20
-40.4159061681
 11
33.3730280729
 21
18.007491387
  0
LINE
  5
347
100
AcDbEntity
  8
0
100
AcDbLine
 62
250
  6
CONTINUOUS
 10
33.3730280729
 20
25.1606962728
 11
33.3730280729
 21
30.5840938319
  0
LINE
  5
348
100
AcDbEntity
  8
DRAFT
100
AcDbLine
 62
7
  6
CONTINUOUS
 10
34.0
 20
-40.4159061681
 11
34.0
 21
30.5840938319
  0
LINE
  5
349
100
AcDbEntity
  8
SUPERFICI
100
AcDbLine
 62
7
  6
CONTINUOUS
 10
34.0000081406
 20
30.584089644
 11
33.99999988
 21
-40.4159723361
  0
LWPOLYLINE
  5
34A
100
AcDbEntity
  8
ASSI
100
AcDbPolyline
 62
7
  6
CONTINUOUS
 90
27
 70
0
 10
33.4152858976
 20
-4.9159061681
 10
33.4156785329
 20
-4.2035374888
 10
33.4168176477
 20
-3.4991643372
 10
33.418703242
 20
-2.8027867132
 10
33.4213480994
 20
-2.1118302003
 10
33.4247394362
 20
-1.428869215
 10
33.4288389017
 20
-0.7616270069
 10
33.4336545339
 20
-0.110282004
 10
33.4391782948
 20
0.5253442218
 10
33.4453477189
 20
1.138063705
 10
33.4521701355
 20
1.7276164251
 10
33.4596382153
 20
2.2942624027
 10
33.4676675058
 20
2.8315937339
 10
33.4762643774
 20
3.3392776604
 10
33.4854224596
 20
3.8176469405
 10
33.4950381886
 20
4.2612919457
 10
33.5051167591
 20
4.6698185113
 10
33.5156529763
 20
5.043620802
 10
33.5265276917
 20
5.3784716825
 10
33.5377447475
 20
5.6739290051
 10
33.5493003014
 20
5.9304349176
 10
33.5610636777
 20
6.1450887284
 10
33.5730372354
 20
6.3174153632
 10
33.5852186155
 20
6.4478898963
 10
33.5974700651
 20
6.5350368593
 10
33.6097923796
 20
6.5783644294
 10
33.6159885716
 20
6.5840938319
  0
LWPOLYLINE
  5
34B
100
AcDbEntity
  8
ASSI
100
AcDbPolyline
 62
7
  6
CONTINUOUS
 90
27
 70
0
 10
33.8166912456
 20
-4.9159061681
 10
33.8162986103
 20
-5.6282748473
 10
33.8151594955
 20
-6.3326479989
 10
33.8132739012
 20
-7.0290256229
 10
33.8106290438
 20
-7.7199821358
 10
33.8072377069
 20
-8.4029431211
 10
33.8031382415
 20
-9.0701853292
 10
33.7983226092
 20
-9.7215303321
 10
33.7927988484
 20
-10.3571565579
 10
33.7866294242
 20
-10.9698760411
 10
33.7798070077
 20
-11.5594287613
 10
33.7723389279
 20
-12.1260747388
 10
33.7643096374
 20
-12.66340607
 10
33.7557127658
 20
-13.1710899965
 10
33.7465546835
 20
-13.6494592766
 10
33.7369389546
 20
-14.0931042818
 10
33.726860384
 20
-14.5016308474
 10
33.7163241668
 20
-14.8754331381
 10
33.7054494515
 20
-15.2102840186
 10
33.6942323957
 20
-15.5057413412
 10
33.6826768418
 20
-15.7622472537
 10
33.6709134655
 20
-15.9769010645
 10
33.6589399077
 20
-16.1492276993
 10
33.6467585277
 20
-16.2797022324
 10
33.6345070781
 20
-16.3668491955
 10
33.6221847636
 20
-16.4101767656
 10
33.6159885716
 20
-16.4159061681
  0
LINE
  5
34C
100
AcDbEntity
  8
0
100
AcDbLine
 62
250
  6
CONTINUOUS
 10
33.4678629402
 20
24.1840938319
 11
33.4676730353
 21
18.8346479353
  0
LINE
  5
34D
100
AcDbEntity
  8
0
100
AcDbLine
 62
250
  6
CONTINUOUS
 10
33.4676730353
 20
18.8346479353
 11
33.4666530528
 21
18.6147055189
  0
LINE
  5
34E
100
AcDbEntity
  8
0
100
AcDbLine
 62
250
  6
CONTINUOUS
 10
33.4666530528
 20
18.6147055189
 11
33.4654916224
 21
18.4757976334
  0
LINE
  5
34F
100
AcDbEntity
  8
0
100
AcDbLine
 62
250
  6
CONTINUOUS
 10
33.4654916224
 20
18.4757976334
 11
33.4639634056
 21
18.3471770363
  0
LINE
  5
350
100
AcDbEntity
  8
0
100
AcDbLine
 62
250
  6
CONTINUOUS
 10
33.4639634056
 20
18.3471770363
 11
33.462104841
 21
18.2332925929
  0
LWPOLYLINE
  5
351
100
AcDbEntity
  8
0
100
AcDbPolyline
 62
250
  6
CONTINUOUS
 90
10
 70
0
 10
33.462104841
 20
18.2332925929
 10
33.4599746671
 20
18.1372562017
 10
33.4588145443
 20
18.096348655
 10
33.4576165574
 20
18.060852076
 10
33.456380145
 20
18.0309377262
 10
33.4551058685
 20
18.0064343442
 10
33.4538202393
 20
17.9875389665
 10
33.4525320949
 20
17.974317272
 10
33.451232598
 20
17.9667035818
 10
33.4499217485
 20
17.9646978959
  0
LWPOLYLINE
  5
352
100
AcDbEntity
  8
0
100
AcDbPolyline
 62
250
  6
CONTINUOUS
 90
7
 70
0
 10
33.4499311715
 20
25.2034897677
 10
33.4437792264
 20
25.1043607107
 10
33.4253924874
 20
25.0067598757
 10
33.3950543711
 20
24.9121917009
 10
33.3532325151
 20
24.8221138782
 10
33.3005715695
 20
24.7379148848
 10
33.2355011409
 20
24.6583225645
  0
LWPOLYLINE
  5
353
100
AcDbEntity
  8
0
100
AcDbPolyline
 62
250
  6
CONTINUOUS
 90
10
 70
0
 10
13.880604064
 20
-45.8658279165
 10
13.8848666295
 20
-45.857193434
 10
13.8892507626
 20
-45.8485816018
 10
13.8937564634
 20
-45.8399924198
 10
13.8983817332
 20
-45.8314258414
 10
13.9031285707
 20
-45.8228819133
 10
13.9080029721
 20
-45.8143607752
 10
13.9130069359
 20
-45.8058624737
 10
13.9181384636
 20
-45.7973869623
 10
13.923397555
 20
-45.788934241
  0
LINE
  5
354
100
AcDbEntity
  8
DRAFT
100
AcDbLine
 62
7
  6
CONTINUOUS
 10
-28.0
 20
34.5840938319
 11
-26.5
 21
34.5840938319
  0
LINE
  5
355
100
AcDbEntity
  8
DRAFT
100
AcDbLine
 62
7
  6
CONTINUOUS
 10
28.0
 20
34.5840938319
 11
26.5
 21
34.5840938319
  0
LINE
  5
356
100
AcDbEntity
  8
RACCORDO
100
AcDbLine
 62
250
  6
CONTINUOUS
 10
26.2242099741
 20
34.8572894402
 11
-26.2242099741
 21
34.8572894402
  0
LINE
  5
357
100
AcDbEntity
  8
RACCORDO
100
AcDbLine
 62
7
  6
CONTINUOUS
 10
-28.0
 20
34.8598838044
 11
-26.2242100275
 21
34.8598838044
  0
LINE
  5
358
100
AcDbEntity
  8
RACCORDO
100
AcDbLine
 62
7
  6
CONTINUOUS
 10
28.0
 20
34.8598838044
 11
26.2242100275
 21
34.8598838044
  0
LWPOLYLINE
  5
359
100
AcDbEntity
  8
0
100
AcDbPolyline
 62
250
  6
CONTINUOUS
 90
7
 70
0
 10
-21.1193959357
 20
36.0340250034
 10
-21.0202668787
 20
36.0278730584
 10
-20.9226660438
 20
36.0094863194
 10
-20.8280978689
 20
35.9791482031
 10
-20.7380200463
 20
35.9373263471
 10
-20.6538210528
 20
35.8846654014
 10
-20.5742287326
 20
35.8195949729
  0
LWPOLYLINE
  5
35A
100
AcDbEntity
  8
RACCORDO
100
AcDbPolyline
 62
250
  6
CONTINUOUS
 90
3
 70
0
 10
11.7859103855
 20
40.0047433621
 10
11.8220445237
 20
40.012026085
 10
11.8427813002
 20
40.0190058163
  0
LWPOLYLINE
  5
35B
100
AcDbEntity
  8
0
100
AcDbPolyline
 62
250
  6
CONTINUOUS
 90
8
 70
0
 10
-13.8806040641
 20
36.0340155493
 10
-13.9797329699
 20
36.0278653895
 10
-14.0773338563
 20
36.0094803273
 10
-14.1719022565
 20
35.9791437588
 10
-14.261980448
 20
35.937323306
 10
-14.3461799222
 20
35.8846636095
 10
-14.4232027882
 20
35.8219763908
 10
-14.437348211
 20
35.8086005256
  0
LWPOLYLINE
  5
35C
100
AcDbEntity
  8
0
100
AcDbPolyline
 62
7
  6
CONTINUOUS
 90
8
 70
0
 10
11.2601827028
 20
39.5351330848
 10
11.3996804436
 20
39.5430937311
 10
11.5206180701
 20
39.5511463191
 10
11.6230853622
 20
39.559290404
 10
11.7065850574
 20
39.5674864634
 10
11.7709514018
 20
39.5757213233
 10
11.8163501494
 20
39.5840081577
 10
11.8427813002
 20
39.5923469667
  0
LWPOLYLINE
  5
35D
100
AcDbEntity
  8
0
100
AcDbPolyline
 62
7
  6
CONTINUOUS
 90
19
 70
0
 10
-13.9233915413
 20
35.9571219048
 10
-13.9655663556
 20
35.9551983461
 10
-14.007480448
 20
35.9511219254
 10
-14.0491338183
 20
35.9448922917
 10
-14.0906144522
 20
35.9365181833
 10
-14.1318343641
 20
35.9260051884
 10
-14.1725295968
 20
35.9133449785
 10
-14.21265612
 20
35.8985678796
 10
-14.252257964
 20
35.8816688706
 10
-14.2912032618
 20
35.8625474163
 10
-14.3295559877
 20
35.8411692641
 10
-14.3672521674
 20
35.8175424757
 10
-14.4039680116
 20
35.7915837823
 10
-14.4397077556
 20
35.7633162061
 10
-14.4744671641
 20
35.7327022973
 10
-14.5079097422
 20
35.6995207708
 10
-14.5399233252
 20
35.6636654536
 10
-14.5706200777
 20
35.6251908383
 10
-14.6
 20
35.5840938319
  0
LWPOLYLINE
  5
35E
100
AcDbEntity
  8
0
100
AcDbPolyline
 62
7
  6
CONTINUOUS
 90
14
 70
0
 10
12.1418573112
 20
36.0784475793
 10
12.3938877704
 20
36.0864518962
 10
12.6285278214
 20
36.094615653
 10
12.8458500579
 20
36.1029381843
 10
13.0449447667
 20
36.1113846517
 10
13.2257355406
 20
36.1199555748
 10
13.3882987868
 20
36.1286504342
 10
13.5319540137
 20
36.1374328329
 10
13.6566219617
 20
36.146303138
 10
13.7623818904
 20
36.1552609825
 10
13.8487910876
 20
36.1642688688
 10
13.9157019826
 20
36.1733142977
 10
13.9632621462
 20
36.1824097683
 10
13.9914715783
 20
36.1915552807
  0
LINE
  5
35F
100
AcDbEntity
  8
0
100
AcDbLine
 62
7
  6
CONTINUOUS
 10
11.8584762796
 20
36.0702258855
 11
12.1418573112
 21
36.0784475793
  0
LINE
  5
360
100
AcDbEntity
  8
0
100
AcDbLine
 62
250
  6
CONTINUOUS
 10
-20.9877775347
 20
36.042907389
 11
-20.9012822569
 21
36.0451647682
  0
LINE
  5
361
100
AcDbEntity
  8
0
100
AcDbLine
 62
250
  6
CONTINUOUS
 10
-20.9012822569
 20
36.0451647682
 11
-20.7957368149
 21
36.0471676807
  0
LINE
  5
362
100
AcDbEntity
  8
0
100
AcDbLine
 62
250
  6
CONTINUOUS
 10
-20.7957368149
 20
36.0471676807
 11
-20.6744828485
 21
36.0488613513
  0
LINE
  5
363
100
AcDbEntity
  8
0
100
AcDbLine
 62
250
  6
CONTINUOUS
 10
-20.6744828485
 20
36.0488613513
 11
-20.5400111366
 21
36.0502143013
  0
LINE
  5
364
100
AcDbEntity
  8
0
100
AcDbLine
 62
250
  6
CONTINUOUS
 10
-20.5400111366
 20
36.0502143013
 11
-20.3231391919
 21
36.0515253051
  0
LWPOLYLINE
  5
365
100
AcDbEntity
  8
0
100
AcDbPolyline
 62
7
  6
CONTINUOUS
 90
27
 70
0
 10
0.5585997845
 20
35.9559439984
 10
1.0810270013
 20
35.9564782031
 10
1.6019373816
 20
35.9573542196
 10
2.1213372572
 20
35.9585706211
 10
2.6370524146
 20
35.9601223155
 10
3.149067408
 20
35.9620107085
 10
3.6573976831
 20
35.9642343946
 10
4.1599153638
 20
35.9667840653
 10
4.6565960846
 20
35.9696610871
 10
5.147464211
 20
35.9728640936
 10
5.6304649637
 20
35.976379677
 10
6.1055653636
 20
35.9802091474
 10
6.5727983898
 20
35.9843511947
 10
7.0302081997
 20
35.9887884802
 10
7.4777536157
 20
35.9935222415
 10
7.9154758153
 20
35.998551241
 10
8.3415424886
 20
36.0038544272
 10
8.7559047773
 20
36.0094329495
 10
9.1586115397
 20
36.0152856585
 10
9.5479770409
 20
36.0213880548
 10
9.9239453561
 20
36.027741185
 10
10.2865724101
 20
36.0343440024
 10
10.634340242
 20
36.0411688676
 10
10.967186564
 20
36.0482167113
 10
11.285173664
 20
36.0554866028
 10
11.5869704443
 20
36.0629481102
 10
11.8584762796
 20
36.0702258855
  0
LINE
  5
366
100
AcDbEntity
  8
0
100
AcDbLine
 62
250
  6
CONTINUOUS
 10
-20.3231391919
 20
36.0515253051
 11
-20.1
 21
36.0519567722
  0
LINE
  5
367
100
AcDbEntity
  8
0
100
AcDbLine
 62
7
  6
CONTINUOUS
 10
-14.6
 20
35.5840938319
 11
-20.4
 21
35.5840938319
  0
LINE
  5
368
100
AcDbEntity
  8
0
100
AcDbLine
 62
250
  6
CONTINUOUS
 10
28.0
 20
35.9571219048
 11
1.4637947958
 21
35.9571219048
  0
LINE
  5
369
100
AcDbEntity
  8
0
100
AcDbLine
 62
250
  6
CONTINUOUS
 10
-1.4722384709
 20
35.9571219048
 11
-13.923397555
 21
35.9571219048
  0
LINE
  5
36A
100
AcDbEntity
  8
0
100
AcDbLine
 62
250
  6
CONTINUOUS
 10
-21.0766024408
 20
35.9571219048
 11
-28.0
 21
35.9571219048
  0
LINE
  5
36B
100
AcDbEntity
  8
DRAFT
100
AcDbLine
 62
7
  6
CONTINUOUS
 10
28.0
 20
36.5840938319
 11
14.0
 21
36.5840938319
  0
LINE
  5
36C
100
AcDbEntity
  8
DRAFT
100
AcDbLine
 62
7
  6
CONTINUOUS
 10
-14.0
 20
36.5840938319
 11
-28.0
 21
36.5840938319
  0
LINE
  5
36D
100
AcDbEntity
  8
SUPERFICI
100
AcDbLine
 62
7
  6
CONTINUOUS
 10
-28.0000124643
 20
36.5841013657
 11
-14.0
 21
36.5841021654
  0
LINE
  5
36E
100
AcDbEntity
  8
SUPERFICI
100
AcDbLine
 62
7
  6
CONTINUOUS
 10
14.0
 20
36.5841037649
 11
27.9999799857
 21
36.5841045646
  0
LINE
  5
36F
100
AcDbEntity
  8
0
100
AcDbLine
 62
7
  6
CONTINUOUS
 10
-0.4885929538
 20
35.9558975549
 11
0.5585997845
 21
35.9559439984
  0
LINE
  5
370
100
AcDbEntity
  8
0
100
AcDbLine
 62
250
  6
CONTINUOUS
 10
-20.1
 20
36.0519567722
 11
-14.7505541033
 21
36.0517668673
  0
LINE
  5
371
100
AcDbEntity
  8
0
100
AcDbLine
 62
250
  6
CONTINUOUS
 10
-14.7505541033
 20
36.0517668673
 11
-14.5306116869
 21
36.0507468848
  0
LINE
  5
372
100
AcDbEntity
  8
0
100
AcDbLine
 62
250
  6
CONTINUOUS
 10
-14.5306116869
 20
36.0507468848
 11
-14.3917038015
 21
36.0495854543
  0
LINE
  5
373
100
AcDbEntity
  8
0
100
AcDbLine
 62
250
  6
CONTINUOUS
 10
-14.3917038015
 20
36.0495854543
 11
-14.2630832044
 21
36.0480572375
  0
LINE
  5
374
100
AcDbEntity
  8
0
100
AcDbLine
 62
250
  6
CONTINUOUS
 10
-14.2630832044
 20
36.0480572375
 11
-14.1491987609
 21
36.0461986729
  0
LWPOLYLINE
  5
375
100
AcDbEntity
  8
0
100
AcDbPolyline
 62
250
  6
CONTINUOUS
 90
10
 70
0
 10
-14.1491987609
 20
36.0461986729
 10
-14.0531623698
 20
36.044068499
 10
-14.0122548231
 20
36.0429083763
 10
-13.9767582441
 20
36.0417103893
 10
-13.9468438943
 20
36.040473977
 10
-13.9223405122
 20
36.0391997004
 10
-13.9034451345
 20
36.0379140713
 10
-13.89022344
 20
36.0366259269
 10
-13.8826097498
 20
36.0353264299
 10
-13.880604064
 20
36.0340155804
  0
LWPOLYLINE
  5
376
100
AcDbEntity
  8
0
100
AcDbPolyline
 62
7
  6
CONTINUOUS
 90
26
 70
0
 10
-11.5474713046
 20
36.0619383024
 10
-11.2436056899
 20
36.0545024137
 10
-10.9239636783
 20
36.0472707946
 10
-10.588611126
 20
36.0402425925
 10
-10.2389518227
 20
36.0334472275
 10
-9.8749257963
 20
36.0268856757
 10
-9.4965930189
 20
36.020556961
 10
-9.1055371955
 20
36.0144875754
 10
-8.7017049929
 20
36.0086786061
 10
-8.2851497444
 20
36.003128966
 10
-7.8576151549
 20
35.9978618859
 10
-7.4190552004
 20
35.9928785504
 10
-6.9695159048
 20
35.9881777748
 10
-6.5108790446
 20
35.9837792368
 10
-6.0431064841
 20
35.9796842033
 10
-5.5662363589
 20
35.9758914073
 10
-5.0822648527
 20
35.9724167255
 10
-4.5911621974
 20
35.9692614914
 10
-4.0929581611
 20
35.9664243716
 10
-3.5897382314
 20
35.9639172422
 10
-3.0814813823
 20
35.9617414865
 10
-2.5682086397
 20
35.9598957212
 10
-2.0520685691
 20
35.9583876728
 10
-1.5330491509
 20
35.9572187569
 10
-1.0111624046
 20
35.9563875577
 10
-0.4885929538
 20
35.9558975549
  0
LINE
  5
377
100
AcDbEntity
  8
0
100
AcDbLine
 62
7
  6
CONTINUOUS
 10
-11.8587505989
 20
36.0702435074
 11
-11.5474713046
 21
36.0619383024
  0
LWPOLYLINE
  5
378
100
AcDbEntity
  8
0
100
AcDbPolyline
 62
7
  6
CONTINUOUS
 90
64
 70
0
 10
-11.3641525231
 20
39.5409560956
 10
-11.2198429295
 20
39.533021618
 10
-11.0572660197
 20
39.5251954807
 10
-10.8765101571
 20
39.5174771596
 10
-10.6784525297
 20
39.5099041108
 10
-10.4630090379
 20
39.5024770406
 10
-10.2302637813
 20
39.4951952428
 10
-9.9813462464
 20
39.488094055
 10
-9.7161778238
 20
39.4811743553
 10
-9.4348371229
 20
39.4744352657
 10
-9.1386894587
 20
39.4679094903
 10
-8.827662858
 20
39.4615980659
 10
-8.5018292939
 20
39.4554999556
 10
-8.1627700001
 20
39.449644753
 10
-7.8104206896
 20
39.4440336387
 10
-7.4448456494
 20
39.438665432
 10
-7.067818974
 20
39.4335661842
 10
-6.679285
 20
39.4287372027
 10
-6.2792993909
 20
39.4241771801
 10
-5.869803232
 20
39.4199082457
 10
-5.4507502947
 20
39.4159318143
 10
-5.0221868076
 20
39.4122464712
 10
-4.5861925411
 20
39.4088701008
 10
-4.1427313761
 20
39.405804205
 10
-3.6918394317
 20
39.403047282
 10
-3.2357048358
 20
39.4006127107
 10
-2.7743021054
 20
39.3985020581
 10
-2.3076567235
 20
39.3967137573
 10
-1.8380332678
 20
39.3952564866
 10
-1.3654172628
 20
39.3941318553
 10
-0.8898231839
 20
39.3933382541
 10
-0.4135590359
 20
39.3928795345
 10
0.0633784382
 20
39.392757324
 10
0.5409859814
 20
39.392969995
 10
1.016945818
 20
39.3935165155
 10
1.4912499388
 20
39.394398508
 10
1.9639063529
 20
39.39561435
 10
2.4326213119
 20
39.397158141
 10
2.8973756573
 20
39.3990314752
 10
3.3581885475
 20
39.4012327584
 10
3.8128237093
 20
39.4037513081
 10
4.2612511144
 20
39.4065886664
 10
4.703500791
 20
39.4097432912
 10
5.1374265513
 20
39.4131998734
 10
5.5629879347
 20
39.4169598808
 10
5.9802254017
 20
39.4210218456
 10
6.3871141457
 20
39.4253660556
 10
6.7836038642
 20
39.4299938827
 10
7.1697448597
 20
39.4349039549
 10
7.5436632333
 20
39.4400724443
 10
7.905299574
 20
39.445500607
 10
8.2547132928
 20
39.4511871868
 10
8.5902087242
 20
39.4571045874
 10
8.9117182148
 20
39.4632539307
 10
9.2193094181
 20
39.4696340949
 10
9.5114896284
 20
39.4762141177
 10
9.7881839367
 20
39.4829949705
 10
10.049467252
 20
39.4899756819
 10
10.2940715957
 20
39.4971223753
 10
10.5219158956
 20
39.5044358575
 10
10.7330812239
 20
39.5119153217
 10
10.926542819
 20
39.5195244708
 10
11.1022146275
 20
39.5272639353
 10
11.2601827028
 20
39.5351330848
  0
LWPOLYLINE
  5
379
100
AcDbEntity
  8
RACCORDO
100
AcDbPolyline
 62
250
  6
CONTINUOUS
 90
66
 70
0
 10
-13.1908083427
 20
38.5648441528
 10
-13.1163419686
 20
38.5544200218
 10
-13.0148404294
 20
38.5440654772
 10
-12.8863920577
 20
38.5337930645
 10
-12.7311185527
 20
38.5236196998
 10
-12.5493229696
 20
38.5135714174
 10
-12.3414198591
 20
38.5036742516
 10
-12.10777732
 20
38.4939476778
 10
-11.8488780682
 20
38.4844134181
 10
-11.5654937419
 20
38.4750996458
 10
-11.2584610779
 20
38.466031283
 10
-10.9282721397
 20
38.4572205232
 10
-10.5752434775
 20
38.4486759519
 10
-10.1997596943
 20
38.4404093355
 10
-9.8028343562
 20
38.4324452982
 10
-9.3858037022
 20
38.4248105589
 10
-8.9499790112
 20
38.4175267519
 10
-8.4959334126
 20
38.4106011892
 10
-8.0239531793
 20
38.4040382979
 10
-7.5344816274
 20
38.3978465393
 10
-7.0289625363
 20
38.3920464029
 10
-6.5092342175
 20
38.3866589362
 10
-5.9769885543
 20
38.3816994301
 10
-5.4328104356
 20
38.3771711426
 10
-4.8769237526
 20
38.3730759661
 10
-4.3098090283
 20
38.3694196431
 10
-3.7332418448
 20
38.3662157906
 10
-3.1494134978
 20
38.3634765667
 10
-2.5602463525
 20
38.3612088173
 10
-1.9663013201
 20
38.3594125519
 10
-1.3677566277
 20
38.3580883193
 10
-0.7651290676
 20
38.3572394122
 10
-0.1603723799
 20
38.3568707261
 10
0.4441807427
 20
38.3569836839
 10
1.0465611946
 20
38.3575757818
 10
1.6462408276
 20
38.3586443647
 10
2.2430412849
 20
38.3601891074
 10
2.8364045463
 20
38.3622106937
 10
3.4243838267
 20
38.3647046368
 10
4.0047412941
 20
38.3676614648
 10
4.575648684
 20
38.3710697367
 10
5.1366063782
 20
38.374924318
 10
5.6873879703
 20
38.3792236268
 10
6.2274001002
 20
38.383965164
 10
6.7548900702
 20
38.389135718
 10
7.2679341375
 20
38.3947164762
 10
7.7650063442
 20
38.4006887012
 10
8.2456349833
 20
38.4070445291
 10
8.7095230462
 20
38.413779978
 10
9.1560732841
 20
38.4208885304
 10
9.5838860082
 20
38.4283501464
 10
9.9915146195
 20
38.4361396819
 10
10.3778454401
 20
38.4442336999
 10
10.7424531736
 20
38.4526210147
 10
11.0849948896
 20
38.4612936192
 10
11.4049349586
 20
38.4702401024
 10
11.7013324101
 20
38.4794364933
 10
11.9732966492
 20
38.4888553719
 10
12.2202572215
 20
38.4984755233
 10
12.4417737458
 20
38.5082780748
 10
12.6373318321
 20
38.5182376547
 10
12.8065260168
 20
38.5283286779
 10
12.9491670097
 20
38.5385343971
 10
13.0651168288
 20
38.5488424503
 10
13.1541594355
 20
38.5592345951
 10
13.2160765053
 20
38.569686434
  0
LWPOLYLINE
  5
37A
100
AcDbEntity
  8
RACCORDO
100
AcDbPolyline
 62
250
  6
CONTINUOUS
 90
66
 70
0
 10
-11.5979880179
 20
40.3014722101
 10
-11.5574111424
 20
40.2936863168
 10
-11.4969867575
 20
40.2856210264
 10
-11.4144265736
 20
40.2772736144
 10
-11.3063717619
 20
40.2685840866
 10
-11.1712700067
 20
40.259661669
 10
-11.0111171764
 20
40.25075546
 10
-10.8266637027
 20
40.2419426107
 10
-10.6165942122
 20
40.2331913504
 10
-10.3820669609
 20
40.2245777925
 10
-10.1234757208
 20
40.2161309245
 10
-9.8408607412
 20
40.2078654052
 10
-9.5356054308
 20
40.199830539
 10
-9.2084055199
 20
40.1920481743
 10
-8.859804123
 20
40.1845345237
 10
-8.4914203876
 20
40.1773252698
 10
-8.1046914058
 20
40.1704453103
 10
-7.7000401012
 20
40.1638991029
 10
-7.2776807396
 20
40.1576901002
 10
-6.8380100707
 20
40.1518267012
 10
-6.3824574217
 20
40.1463304493
 10
-5.9128337768
 20
40.1412232024
 10
-5.4307972301
 20
40.1365206821
 10
-4.9369396621
 20
40.1322264098
 10
-4.4315264427
 20
40.1283426889
 10
-3.9150747633
 20
40.1248756388
 10
-3.3893025599
 20
40.1218389054
 10
-2.8563014645
 20
40.119244574
 10
-2.3179171083
 20
40.1170995868
 10
-1.7747733187
 20
40.1154044102
 10
-1.2271603324
 20
40.1141599488
 10
-0.6756722315
 20
40.1133695376
 10
-0.1221784412
 20
40.1130378353
 10
0.4311179872
 20
40.1131661639
 10
0.9823335358
 20
40.1137521156
 10
1.5308625794
 20
40.1147930755
 10
2.0764125186
 20
40.1162884903
 10
2.6183596423
 20
40.1182386458
 10
3.1548347785
 20
40.1206388284
 10
3.6837026119
 20
40.1234794829
 10
4.203194736
 20
40.1267490475
 10
4.7127719527
 20
40.1304420399
 10
5.2121618691
 20
40.1345564913
 10
5.7007610398
 20
40.1390896102
 10
6.1768522226
 20
40.1440276926
 10
6.6385410024
 20
40.1493510847
 10
7.0843154621
 20
40.1550399873
 10
7.5137480654
 20
40.1610865089
 10
7.9266134572
 20
40.1674874927
 10
8.3224855317
 20
40.1742392453
 10
8.6998173938
 20
40.1813184296
 10
9.0568180001
 20
40.1886906264
 10
9.3929001386
 20
40.1963405251
 10
9.7072760495
 20
40.2042468097
 10
9.9983174924
 20
40.2123600928
 10
10.2659325992
 20
40.2206650886
 10
10.5096553011
 20
40.229133677
 10
10.7280457641
 20
40.2376908824
 10
10.9225475126
 20
40.2463657968
 10
11.0921577977
 20
40.2550832007
 10
11.2339636812
 20
40.2635995372
 10
11.3490853142
 20
40.2718043629
 10
11.4411060107
 20
40.2797533533
 10
11.5123335178
 20
40.2874484041
 10
11.5647590634
 20
40.2948799284
 10
11.6002150753
 20
40.3020260253
  0
LWPOLYLINE
  5
37B
100
AcDbEntity
  8
0
100
AcDbPolyline
 62
7
  6
CONTINUOUS
 90
4
 70
0
 10
33.2245066937
 20
18.5214420429
 10
33.1661341088
 20
18.5759556104
 10
33.0864303921
 20
18.6351923824
 10
33.0
 20
18.6840938319
  0
LWPOLYLINE
  5
37C
100
AcDbEntity
  8
0
100
AcDbPolyline
 62
7
  6
CONTINUOUS
 90
27
 70
0
 10
11.5
 20
-46.0318947396
 10
11.4942705975
 20
-46.0380909316
 10
11.4509430274
 20
-46.0504132461
 10
11.3637960644
 20
-46.0626646957
 10
11.2333215313
 20
-46.0748460758
 10
11.0609948965
 20
-46.0868196335
 10
10.8463410857
 20
-46.0985830098
 10
10.5898351732
 20
-46.1101385637
 10
10.2943778506
 20
-46.1213556196
 10
9.95952697
 20
-46.1322303349
 10
9.5857246794
 20
-46.1427665521
 10
9.1771981137
 20
-46.1528451226
 10
8.7335531086
 20
-46.1624608516
 10
8.2551838284
 20
-46.1716189339
 10
7.7474999019
 20
-46.1802158055
 10
7.2101685707
 20
-46.1882450959
 10
6.6435225932
 20
-46.1957131758
 10
6.0539698731
 20
-46.2025355923
 10
5.4412503899
 20
-46.2087050164
 10
4.8056241641
 20
-46.2142287773
 10
4.1542791612
 20
-46.2190444095
 10
3.487036953
 20
-46.223143875
 10
2.8040759678
 20
-46.2265352119
 10
2.1131194549
 20
-46.2291800692
 10
1.4167418309
 20
-46.2310656635
 10
0.7123686793
 20
-46.2322047783
 10
-0.0
 20
-46.2325974137
  0
LWPOLYLINE
  5
37D
100
AcDbEntity
  8
0
100
AcDbPolyline
 62
7
  6
CONTINUOUS
 90
4
 70
0
 10
14.437348211
 20
-45.6404128618
 10
14.4918617785
 20
-45.5820402768
 10
14.5510985504
 20
-45.5023365601
 10
14.6
 20
-45.4159061681
  0
LINE
  5
37E
100
AcDbEntity
  8
RACCORDO
100
AcDbLine
 62
250
  6
CONTINUOUS
 10
-11.6029479997
 20
40.3291764942
 11
-11.6032888661
 21
40.3290850495
  0
LINE
  5
37F
100
AcDbEntity
  8
0
100
AcDbLine
 62
7
  6
CONTINUOUS
 10
-11.3516115151
 20
39.1056686958
 11
-13.2306563404
 21
38.6033261198
  0
LINE
  5
380
100
AcDbEntity
  8
RACCORDO
100
AcDbLine
 62
250
  6
CONTINUOUS
 10
-13.2306568359
 20
38.6033259874
 11
-13.2307031077
 21
38.603313612
  0
LINE
  5
381
100
AcDbEntity
  8
0
100
AcDbLine
 62
7
  6
CONTINUOUS
 10
-9.4513417461
 20
40.9043854585
 11
-11.6029477407
 21
40.3291765634
  0
LWPOLYLINE
  5
382
100
AcDbEntity
  8
RACCORDO
100
AcDbPolyline
 62
250
  6
CONTINUOUS
 90
4
 70
0
 10
10.0156424607
 20
41.8434010861
 10
10.0529246709
 20
41.8491366145
 10
10.0785984939
 20
41.8546665914
 10
10.0938473529
 20
41.8599838153
  0
LWPOLYLINE
  5
383
100
AcDbEntity
  8
RACCORDO
100
AcDbPolyline
 62
250
  6
CONTINUOUS
 90
4
 70
0
 10
8.2558608169
 20
43.6172497077
 10
8.2994026916
 20
43.6230521622
 10
8.3285595794
 20
43.6286341217
 10
8.3449134056
 20
43.6339847187
  0
LWPOLYLINE
  5
384
100
AcDbEntity
  8
0
100
AcDbPolyline
 62
7
  6
CONTINUOUS
 90
8
 70
0
 10
7.8333899416
 20
43.14855616
 10
7.9568396874
 20
43.1548261624
 10
8.0637181859
 20
43.161188197
 10
8.1541276989
 20
43.1676416958
 10
8.227508
 20
43.1741466694
 10
8.2836723471
 20
43.1806897881
 10
8.3228074823
 20
43.1872843816
 10
8.3449134056
 20
43.1939304499
  0
LWPOLYLINE
  5
385
100
AcDbEntity
  8
0
100
AcDbPolyline
 62
7
  6
CONTINUOUS
 90
9
 70
0
 10
9.364401176
 20
41.3332546009
 10
9.5207208645
 20
41.3404554422
 10
9.6586780352
 20
41.3477542611
 10
9.7781679591
 20
41.3551516164
 10
9.8792953652
 20
41.3626469492
 10
9.9614845755
 20
41.3701975916
 10
10.0245436972
 20
41.3777893209
 10
10.068664623
 20
41.3854363598
 10
10.0938473529
 20
41.3931387083
  0
LWPOLYLINE
  5
386
100
AcDbEntity
  8
0
100
AcDbPolyline
 62
7
  6
CONTINUOUS
 90
24
 70
0
 10
3.3513806607
 20
42.5752040005
 10
3.6853517679
 20
42.578127374
 10
4.0109743679
 20
42.5813247723
 10
4.327510821
 20
42.5847889522
 10
4.6342440702
 20
42.5885120662
 10
4.930479266
 20
42.5924856802
 10
5.2155453405
 20
42.5967007928
 10
5.4887965273
 20
42.6011478554
 10
5.7496138246
 20
42.6058167939
 10
5.9974063972
 20
42.6106970318
 10
6.2316129155
 20
42.6157775136
 10
6.4517028261
 20
42.6210467305
 10
6.6571775548
 20
42.626492746
 10
6.8475716352
 20
42.6321032231
 10
7.0224537634
 20
42.6378654522
 10
7.1814277751
 20
42.6437663802
 10
7.3241335432
 20
42.6497926394
 10
7.4502477931
 20
42.6559305785
 10
7.5594848354
 20
42.6621662931
 10
7.6515972133
 20
42.6684856572
 10
7.7263762624
 20
42.6748743555
 10
7.7836525843
 20
42.6813179155
 10
7.8232964295
 20
42.6878017405
 10
7.8452179921
 20
42.6943111425
  0
LINE
  5
387
100
AcDbEntity
  8
0
100
AcDbLine
 62
7
  6
CONTINUOUS
 10
2.6614363312
 20
42.5702051815
 11
3.3513806607
 21
42.5752040005
  0
LINE
  5
388
100
AcDbEntity
  8
0
100
AcDbLine
 62
7
  6
CONTINUOUS
 10
1.9473896222
 20
42.5663735853
 11
2.6614363312
 21
42.5702051815
  0
LINE
  5
389
100
AcDbEntity
  8
0
100
AcDbLine
 62
7
  6
CONTINUOUS
 10
1.2157070512
 20
42.5637439114
 11
1.9473896222
 21
42.5663735853
  0
LINE
  5
38A
100
AcDbEntity
  8
0
100
AcDbLine
 62
7
  6
CONTINUOUS
 10
0.4730148489
 20
42.5623399745
 11
1.2157070512
 21
42.5637439114
  0
LINE
  5
38B
100
AcDbEntity
  8
0
100
AcDbLine
 62
7
  6
CONTINUOUS
 10
-0.2739610491
 20
42.5621744891
 11
0.4730148489
 21
42.5623399745
  0
LINE
  5
38C
100
AcDbEntity
  8
0
100
AcDbLine
 62
7
  6
CONTINUOUS
 10
-1.0184559135
 20
42.5632489536
 11
-0.2739610491
 21
42.5621744891
  0
LINE
  5
38D
100
AcDbEntity
  8
0
100
AcDbLine
 62
7
  6
CONTINUOUS
 10
-1.7537274833
 20
42.5655536376
 11
-1.0184559135
 21
42.5632489536
  0
LINE
  5
38E
100
AcDbEntity
  8
0
100
AcDbLine
 62
7
  6
CONTINUOUS
 10
-2.4731170256
 20
42.5690676695
 11
-1.7537274833
 21
42.5655536376
  0
LWPOLYLINE
  5
38F
100
AcDbEntity
  8
0
100
AcDbPolyline
 62
7
  6
CONTINUOUS
 90
56
 70
0
 10
-9.4603891114
 20
41.3375596066
 10
-9.297157981
 20
41.3304213871
 10
-9.1159413083
 20
41.3234005267
 10
-8.9177706879
 20
41.3165369922
 10
-8.7025494243
 20
41.3098316811
 10
-8.470374213
 20
41.303283696
 10
-8.2225667354
 20
41.2969303119
 10
-7.9590378341
 20
41.2907726388
 10
-7.6798766665
 20
41.2848095669
 10
-7.3866723864
 20
41.2790750414
 10
-7.0793448999
 20
41.2735703659
 10
-6.7579743009
 20
41.2682942369
 10
-6.4243900248
 20
41.2632766893
 10
-6.0785224117
 20
41.2585191979
 10
-5.7204411214
 20
41.2540202879
 10
-5.3521845688
 20
41.2498055698
 10
-4.9736947198
 20
41.2458766645
 10
-4.5850296084
 20
41.2422319511
 10
-4.1884017508
 20
41.2388921775
 10
-3.7837657322
 20
41.235859083
 10
-3.3711669675
 20
41.2331309282
 10
-2.9529542177
 20
41.2307232436
 10
-2.5290954639
 20
41.2286378569
 10
-2.0996227251
 20
41.2268729403
 10
-1.6669808192
 20
41.2254385408
 10
-1.2311516711
 20
41.2243365435
 10
-0.7921533558
 20
41.2235650632
 10
-0.3524849167
 20
41.2231284918
 10
0.0878574683
 20
41.2230287393
 10
0.5288699771
 20
41.2232638957
 10
0.9680421005
 20
41.2238326222
 10
1.4053633419
 20
41.2247368214
 10
1.840844198
 20
41.2259745908
 10
2.2720056489
 20
41.2275388842
 10
2.6988230592
 20
41.2294315639
 10
3.1213210643
 20
41.2316507677
 10
3.5370945507
 20
41.2341838625
 10
3.9461051656
 20
41.2370326385
 10
4.3483912618
 20
41.2401953056
 10
4.7416627841
 20
41.2436538598
 10
5.1258683186
 20
41.2474099887
 10
5.5010592792
 20
41.2514620049
 10
5.8650998527
 20
41.2557868417
 10
6.2179264435
 20
41.2603860552
 10
6.5596026472
 20
41.2652580894
 10
6.8881834366
 20
41.2703752096
 10
7.2035941231
 20
41.2757388138
 10
7.5059093952
 20
41.2813475041
 10
7.7934082922
 20
41.2871693525
 10
8.0660063099
 20
41.2932055747
 10
8.3237879525
 20
41.2994549549
 10
8.5652857712
 20
41.3058819179
 10
8.7904068925
 20
41.3124874766
 10
8.99924419
 20
41.3192706181
 10
9.1906088359
 20
41.3261927287
 10
9.364401176
 20
41.3332546009
  0
LWPOLYLINE
  5
390
100
AcDbEntity
  8
RACCORDO
100
AcDbPolyline
 62
250
  6
CONTINUOUS
 90
65
 70
0
 10
-9.8342077684
 20
42.1397198677
 10
-9.795428383
 20
42.1336734049
 10
-9.7418575241
 20
42.1273834811
 10
-9.6714741359
 20
42.1208318644
 10
-9.5828243674
 20
42.1140659307
 10
-9.4748661199
 20
42.1071436122
 10
-9.3461311613
 20
42.1000823673
 10
-9.1952464246
 20
42.0929066542
 10
-9.0219639546
 20
42.0856853401
 10
-8.8253315362
 20
42.0784439222
 10
-8.6044169103
 20
42.0712082499
 10
-8.3597698422
 20
42.0640455523
 10
-8.0900278487
 20
42.0569596513
 10
-7.7956609717
 20
42.0500040902
 10
-7.4813375347
 20
42.0433079788
 10
-7.1492907852
 20
42.0369165706
 10
-6.7989576393
 20
42.0308168119
 10
-6.4318973718
 20
42.0250359851
 10
-6.0495738869
 20
42.0195944587
 10
-5.6525246343
 20
42.0144973183
 10
-5.2409923957
 20
42.009747737
 10
-4.8154068159
 20
42.0053531793
 10
-4.3773211885
 20
42.0013321225
 10
-3.9287088563
 20
41.9977026486
 10
-3.4713566726
 20
41.9944767836
 10
-3.0058298716
 20
41.991656131
 10
-2.5323141329
 20
41.9892418344
 10
-2.0512862467
 20
41.9872387013
 10
-1.5645979787
 20
41.9856567988
 10
-1.07451099
 20
41.98450347
 10
-0.5829735378
 20
41.9837809513
 10
-0.0905167681
 20
41.9834876878
 10
0.4027014783
 20
41.9836237749
 10
0.8961590607
 20
41.9841914021
 10
1.3879017308
 20
41.9851906636
 10
1.8756392301
 20
41.9866169147
 10
2.3574798047
 20
41.9884622864
 10
2.8329342333
 20
41.990722553
 10
3.3018226934
 20
41.9933968446
 10
3.7635825109
 20
41.9964843072
 10
4.2163753776
 20
41.9999750441
 10
4.6581479547
 20
42.0038532559
 10
5.0872681609
 20
42.0081022252
 10
5.5032900676
 20
42.0127150904
 10
5.9059775596
 20
42.0176891886
 10
6.294802498
 20
42.0230205365
 10
6.66819176
 20
42.0286902116
 10
7.0244171309
 20
42.0346717372
 10
7.3641099057
 20
42.0409775265
 10
7.6848625245
 20
42.0475647708
 10
7.9814410154
 20
42.0543081478
 10
8.2531413861
 20
42.0611531278
 10
8.5013942848
 20
42.0680953332
 10
8.7254830588
 20
42.0750704127
 10
8.9262650104
 20
42.082052226
 10
9.1045751198
 20
42.0890135513
 10
9.2604000913
 20
42.0958855648
 10
9.3950074018
 20
42.1026416736
 10
9.5098122894
 20
42.1092633881
 10
9.6056570927
 20
42.1156937879
 10
9.6838018348
 20
42.1218847028
 10
9.7463132888
 20
42.1278513183
 10
9.795145518
 20
42.133635154
 10
9.8316069983
 20
42.1392444013
 10
9.8567155421
 20
42.1446526511
  0
LWPOLYLINE
  5
391
100
AcDbEntity
  8
RACCORDO
100
AcDbPolyline
 62
250
  6
CONTINUOUS
 90
60
 70
0
 10
-8.1011401975
 20
43.9173576396
 10
-8.0665419871
 20
43.9114434785
 10
-8.0154985918
 20
43.9053220884
 10
-7.9460761559
 20
43.8989896698
 10
-7.8555090131
 20
43.8924063665
 10
-7.7425036299
 20
43.8856568152
 10
-7.6085226904
 20
43.878922695
 10
-7.454003037
 20
43.8722615157
 10
-7.2778830365
 20
43.8656588033
 10
-7.0812027471
 20
43.8591799774
 10
-6.8642524619
 20
43.8528499338
 10
-6.6271213786
 20
43.8466854114
 10
-6.3712866981
 20
43.8407338578
 10
-6.0974718643
 20
43.83501568
 10
-5.8062123977
 20
43.8295454014
 10
-5.499192587
 20
43.8243555251
 10
-5.1778815774
 20
43.8194677516
 10
-4.8426913555
 20
43.8148853586
 10
-4.4938419908
 20
43.8106113318
 10
-4.1317427894
 20
43.8066531556
 10
-3.7578331227
 20
43.8030289674
 10
-3.373919644
 20
43.7997562894
 10
-2.9816430954
 20
43.7968468584
 10
-2.5815860333
 20
43.7943027893
 10
-2.1740163651
 20
43.7921257791
 10
-1.7594573907
 20
43.7903207405
 10
-1.3395984173
 20
43.7888971278
 10
-0.9164706383
 20
43.7878618335
 10
-0.491843896
 20
43.7872171373
 10
-0.066308245
 20
43.7869618949
 10
0.3598533481
 20
43.7870962749
 10
0.7860569223
 20
43.7876221255
 10
1.2105276191
 20
43.7885392974
 10
1.6312112799
 20
43.7898433515
 10
2.046384767
 20
43.7915268796
 10
2.4555072959
 20
43.7935856067
 10
2.8583060742
 20
43.7960181647
 10
3.254192434
 20
43.7988231496
 10
3.6414822645
 20
43.8019908184
 10
4.0183025858
 20
43.8055058455
 10
4.3831452679
 20
43.8093518523
 10
4.7355733956
 20
43.8135218662
 10
5.0753565605
 20
43.8180131807
 10
5.4020811658
 20
43.8228231809
 10
5.7141846722
 20
43.8279318367
 10
6.0098313641
 20
43.833308215
 10
6.2884380968
 20
43.8389384703
 10
6.5492038839
 20
43.8448029758
 10
6.7904420806
 20
43.8508552725
 10
7.0120053187
 20
43.8570784708
 10
7.213526593
 20
43.863448139
 10
7.3937149068
 20
43.8698998108
 10
7.5536921531
 20
43.876446062
 10
7.6928278451
 20
43.8830305044
 10
7.808980733
 20
43.8894748648
 10
7.9031086023
 20
43.8956931351
 10
7.9781329455
 20
43.9017219215
 10
8.0360137144
 20
43.9075643064
 10
8.0783962059
 20
43.9132122205
 10
8.1067765589
 20
43.9186455658
  0
LINE
  5
392
100
AcDbEntity
  8
0
100
AcDbLine
 62
7
  6
CONTINUOUS
 10
11.3516115151
 20
39.1056686958
 11
13.2306563404
 21
38.6033261198
  0
LINE
  5
393
100
AcDbEntity
  8
0
100
AcDbLine
 62
7
  6
CONTINUOUS
 10
9.4513417461
 20
40.9043854585
 11
11.6029477407
 21
40.3291765634
  0
LWPOLYLINE
  5
394
100
AcDbEntity
  8
RACCORDO
100
AcDbPolyline
 62
7
  6
CONTINUOUS
 90
20
 70
0
 10
11.6029573645
 20
40.3291739903
 10
11.6040650184
 20
40.3288764891
 10
11.6139176191
 20
40.3261058427
 10
11.6239667219
 20
40.323032376
 10
11.6348256901
 20
40.3194012795
 10
11.6463087691
 20
40.3151765521
 10
11.6585557728
 20
40.3101923629
 10
11.6725745349
 20
40.3038208863
 10
11.6888297882
 20
40.2954456673
 10
11.7064689339
 20
40.2850085188
 10
11.724499556
 20
40.2726764694
 10
11.7422111226
 20
40.2586448269
 10
11.7598951534
 20
40.2423501411
 10
11.7779117338
 20
40.2227991433
 10
11.7958833718
 20
40.1993224966
 10
11.8127497906
 20
40.1719729509
 10
11.8275449168
 20
40.1408232192
 10
11.8393322816
 20
40.1059933141
 10
11.8471605013
 20
40.0676441631
 10
11.85
 20
40.0262234167
  0
LWPOLYLINE
  5
395
100
AcDbEntity
  8
RACCORDO
100
AcDbPolyline
 62
7
  6
CONTINUOUS
 90
25
 70
0
 10
13.2305953404
 20
38.6033424187
 10
13.233978137
 20
38.6024330711
 10
13.2637801487
 20
38.5939625029
 10
13.2955646088
 20
38.5839754593
 10
13.3296866619
 20
38.5720877142
 10
13.3657325581
 20
38.558134369
 10
13.402871643
 20
38.5421614597
 10
13.4399304846
 20
38.5245002693
 10
13.4779474627
 20
38.5044674995
 10
13.5192014792
 20
38.4803610554
 10
13.5656387797
 20
38.4499969246
 10
13.6141766843
 20
38.4141747639
 10
13.6598158643
 20
38.3761475026
 10
13.6999361087
 20
38.3386930521
 10
13.7373838738
 20
38.2997563283
 10
13.7753806964
 20
38.2555764038
 10
13.8149152863
 20
38.203458926
 10
13.8532063428
 20
38.1452552247
 10
13.8876913917
 20
38.0839377437
 10
13.9168682782
 20
38.0225241237
 10
13.9420577441
 20
37.9586282747
 10
13.9644874898
 20
37.887143498
 10
13.9830398235
 20
37.8062345578
 10
13.9954589223
 20
37.717854581
 10
14.0
 20
37.6224733856
  0
LINE
  5
396
100
AcDbEntity
  8
RACCORDO
100
AcDbLine
 62
250
  6
CONTINUOUS
 10
13.233978137
 20
38.6024330711
 11
13.2306574963
 21
38.6033258108
  0
LWPOLYLINE
  5
397
100
AcDbEntity
  8
0
100
AcDbPolyline
 62
250
  6
CONTINUOUS
 90
8
 70
0
 10
33.4499217485
 20
25.2034897679
 10
33.4512325267
 20
25.2014835463
 10
33.4525319247
 20
25.1938710458
 10
33.4538199423
 20
25.1806522663
 10
33.4551053991
 20
25.1617617132
 10
33.4563794756
 20
25.1372648811
 10
33.4576157134
 20
25.1073582543
 10
33.458813557
 20
25.0718713666
  0
LINE
  5
398
100
AcDbEntity
  8
RACCORDO
100
AcDbLine
 62
250
  6
CONTINUOUS
 10
3.8612783823
 20
45.6213718479
 11
3.8752835565
 21
45.6252216884
  0
LINE
  5
399
100
AcDbEntity
  8
RACCORDO
100
AcDbLine
 62
250
  6
CONTINUOUS
 10
-9.856665044
 20
42.1670990408
 11
-9.8568937803
 21
42.1670377225
  0
LINE
  5
39A
100
AcDbEntity
  8
RACCORDO
100
AcDbLine
 62
250
  6
CONTINUOUS
 10
-8.1103822804
 20
43.9380444405
 11
-8.1105200038
 21
43.9380075477
  0
LINE
  5
39B
100
AcDbEntity
  8
0
100
AcDbLine
 62
7
  6
CONTINUOUS
 10
-7.8511145721
 20
42.703261551
 11
-9.8566648691
 21
42.1670990876
  0
LINE
  5
39C
100
AcDbEntity
  8
0
100
AcDbLine
 62
7
  6
CONTINUOUS
 10
-5.9872555597
 20
44.5056397058
 11
-8.1103819975
 21
43.9380445161
  0
LINE
  5
39D
100
AcDbEntity
  8
0
100
AcDbLine
 62
7
  6
CONTINUOUS
 10
-0.9978759266
 20
46.3996657995
 11
-3.8694093095
 21
45.6319920021
  0
LWPOLYLINE
  5
39E
100
AcDbEntity
  8
0
100
AcDbPolyline
 62
7
  6
CONTINUOUS
 90
17
 70
0
 10
-5.9873182282
 20
44.5056229313
 10
-5.9782566875
 20
44.5077059545
 10
-5.9455289478
 20
44.512891472
 10
-5.8981617428
 20
44.5180293069
 10
-5.8359648339
 20
44.523131975
 10
-5.7591284598
 20
44.5281869604
 10
-5.6682233365
 20
44.5331567166
 10
-5.5631447064
 20
44.5380406088
 10
-5.4439973272
 20
44.5428392716
 10
-5.3116661873
 20
44.5475170622
 10
-5.1660531191
 20
44.5520730804
 10
-5.0072562902
 20
44.5565082264
 10
-4.8364551928
 20
44.5607895573
 10
-4.6535604417
 20
44.5649159277
 10
-4.458661422
 20
44.568888483
 10
-4.2532057813
 20
44.5726777163
 10
-4.0371149138
 20
44.5762822626
  0
LWPOLYLINE
  5
39F
100
AcDbEntity
  8
0
100
AcDbPolyline
 62
7
  6
CONTINUOUS
 90
8
 70
0
 10
-0.997906418
 20
46.3996576184
 10
-0.9931386509
 20
46.4005542105
 10
-0.9806744918
 20
46.4019396742
 10
-0.9619983497
 20
46.4032943655
 10
-0.9369093994
 20
46.4046266347
 10
-0.9056084662
 20
46.4059281315
 10
-0.868698025
 20
46.4071738048
 10
-0.8260694077
 20
46.4083625733
  0
LWPOLYLINE
  5
3A0
100
AcDbEntity
  8
RACCORDO
100
AcDbPolyline
 62
250
  6
CONTINUOUS
 90
3
 70
0
 10
3.7928523249
 20
45.6135081793
 10
3.8340377759
 20
45.6174623615
 10
3.8612783823
 20
45.6213718479
  0
LWPOLYLINE
  5
3A1
100
AcDbEntity
  8
0
100
AcDbPolyline
 62
7
  6
CONTINUOUS
 90
10
 70
0
 10
3.5355434679
 20
44.9625102678
 10
3.6443836899
 20
44.965961301
 10
3.7425083109
 20
44.9695221464
 10
3.8290278321
 20
44.9731605251
 10
3.9038367346
 20
44.976877142
 10
3.9670405374
 20
44.9806712922
 10
4.0180662986
 20
44.9845085817
 10
4.0567230376
 20
44.9883775458
 10
4.083201735
 20
44.9922896493
 10
4.0975023908
 20
44.9962448921
  0
LWPOLYLINE
  5
3A2
100
AcDbEntity
  8
0
100
AcDbPolyline
 62
7
  6
CONTINUOUS
 90
8
 70
0
 10
0.8260694077
 20
46.3886952149
 10
0.868698025
 20
46.3898839834
 10
0.9056084662
 20
46.3911296568
 10
0.9369093994
 20
46.3924311535
 10
0.9619983497
 20
46.3937634227
 10
0.9806744918
 20
46.395118114
 10
0.9931386509
 20
46.3965035778
 10
0.999390827
 20
46.3979198139
  0
LWPOLYLINE
  5
3A3
100
AcDbEntity
  8
0
100
AcDbPolyline
 62
7
  6
CONTINUOUS
 90
11
 70
0
 10
2.9369712352
 20
44.4624864212
 10
3.0529731462
 20
44.4655241544
 10
3.1585636612
 20
44.4686754287
 10
3.2538471712
 20
44.4719391058
 10
3.3378618764
 20
44.4752822418
 10
3.4104936444
 20
44.4787056416
 10
3.4718566075
 20
44.4822085003
 10
3.5213313626
 20
44.4857554597
 10
3.5587114421
 20
44.4893347339
 10
3.5842033137
 20
44.4929581089
 10
3.5978069773
 20
44.4966255846
  0
LWPOLYLINE
  5
3A4
100
AcDbEntity
  8
0
100
AcDbPolyline
 62
7
  6
CONTINUOUS
 90
3
 70
0
 10
3.2855213583
 20
44.9559396352
 10
3.4158902136
 20
44.9591700454
 10
3.5355434679
 20
44.9625102678
  0
LINE
  5
3A5
100
AcDbEntity
  8
0
100
AcDbLine
 62
7
  6
CONTINUOUS
 10
2.6753213717
 20
44.4567776918
 11
2.9369712352
 21
44.4624864212
  0
LINE
  5
3A6
100
AcDbEntity
  8
0
100
AcDbLine
 62
7
  6
CONTINUOUS
 10
0.7249121286
 20
46.3865069549
 11
0.8260694077
 21
46.3886952149
  0
LINE
  5
3A7
100
AcDbEntity
  8
0
100
AcDbLine
 62
7
  6
CONTINUOUS
 10
-0.8260694077
 20
46.4083625733
 11
-0.7249121286
 21
46.4105508333
  0
LINE
  5
3A8
100
AcDbEntity
  8
0
100
AcDbLine
 62
7
  6
CONTINUOUS
 10
2.9960955358
 20
44.9498973674
 11
3.2855213583
 21
44.9559396352
  0
LWPOLYLINE
  5
3A9
100
AcDbEntity
  8
RACCORDO
100
AcDbPolyline
 62
250
  6
CONTINUOUS
 90
11
 70
0
 10
2.6221000173
 20
45.5777273208
 10
2.7939928911
 20
45.5806572759
 10
2.9548729023
 20
45.5837614944
 10
3.1043339492
 20
45.5870306454
 10
3.242013861
 20
45.5904567329
 10
3.367476524
 20
45.5940303937
 10
3.4800845554
 20
45.5977349378
 10
3.5792511521
 20
45.6015506397
 10
3.6650759775
 20
45.6054849051
 10
3.7366624582
 20
45.6095010973
 10
3.7928523249
 20
45.6135081793
  0
LWPOLYLINE
  5
3AA
100
AcDbEntity
  8
0
100
AcDbPolyline
 62
7
  6
CONTINUOUS
 90
17
 70
0
 10
4.0371149138
 20
44.421354284
 10
4.2532057813
 20
44.4249588303
 10
4.458661422
 20
44.4287480636
 10
4.6535604417
 20
44.4327206189
 10
4.8364551928
 20
44.4368469893
 10
5.0072562902
 20
44.4411283202
 10
5.1660531191
 20
44.4455634662
 10
5.3116661873
 20
44.4501194845
 10
5.4439973272
 20
44.454797275
 10
5.5631447064
 20
44.4595959379
 10
5.6682233365
 20
44.46447983
 10
5.7591284598
 20
44.4694495862
 10
5.8359648339
 20
44.4745045717
 10
5.8981617428
 20
44.4796072397
 10
5.9455289478
 20
44.4847450746
 10
5.9782566875
 20
44.4899305921
 10
5.9963449621
 20
44.4951637921
  0
LINE
  5
3AB
100
AcDbEntity
  8
0
100
AcDbLine
 62
7
  6
CONTINUOUS
 10
2.3773604253
 20
44.4516395627
 11
2.6753213717
 21
44.4567776918
  0
LINE
  5
3AC
100
AcDbEntity
  8
0
100
AcDbLine
 62
7
  6
CONTINUOUS
 10
2.6698896428
 20
44.9444382374
 11
2.9960955358
 21
44.9498973674
  0
LWPOLYLINE
  5
3AD
100
AcDbEntity
  8
RACCORDO
100
AcDbPolyline
 62
250
  6
CONTINUOUS
 90
15
 70
0
 10
2.5799055171
 20
45.2822369521
 10
2.7724583015
 20
45.2851347353
 10
2.9542080389
 20
45.288232681
 10
3.1243132772
 20
45.2915149266
 10
3.2823446987
 20
45.2949715774
 10
3.4279195644
 20
45.2985941195
 10
3.5605770248
 20
45.302372582
 10
3.6796429274
 20
45.30628939
 10
3.7844962479
 20
45.3103238406
 10
3.8752418644
 20
45.3144838829
 10
3.9509322095
 20
45.3187306567
 10
4.0103434081
 20
45.3229676977
 10
4.0538904523
 20
45.3271486378
 10
4.0826934142
 20
45.3312822219
 10
4.0975023908
 20
45.3353526435
  0
LINE
  5
3AE
100
AcDbEntity
  8
0
100
AcDbLine
 62
7
  6
CONTINUOUS
 10
0.604849372
 20
46.3846322232
 11
0.7249121286
 21
46.3865069549
  0
LINE
  5
3AF
100
AcDbEntity
  8
0
100
AcDbLine
 62
7
  6
CONTINUOUS
 10
-0.7249121286
 20
46.4105508333
 11
-0.604849372
 21
46.412425565
  0
LINE
  5
3B0
100
AcDbEntity
  8
0
100
AcDbLine
 62
7
  6
CONTINUOUS
 10
3.5749467808
 20
44.4147205692
 11
4.0371149138
 21
44.421354284
  0
LINE
  5
3B1
100
AcDbEntity
  8
0
100
AcDbLine
 62
7
  6
CONTINUOUS
 10
-4.0371149138
 20
44.5762822626
 11
-3.6011422151
 21
44.582558673
  0
LINE
  5
3B2
100
AcDbEntity
  8
RACCORDO
100
AcDbLine
 62
250
  6
CONTINUOUS
 10
2.2486779744
 20
45.5724505276
 11
2.6221000173
 21
45.5777273208
  0
LINE
  5
3B3
100
AcDbEntity
  8
0
100
AcDbLine
 62
7
  6
CONTINUOUS
 10
2.0478437869
 20
44.4471464998
 11
2.3773604253
 21
44.4516395627
  0
LINE
  5
3B4
100
AcDbEntity
  8
0
100
AcDbLine
 62
7
  6
CONTINUOUS
 10
2.3111687626
 20
44.9396404419
 11
2.6698896428
 21
44.9444382374
  0
LINE
  5
3B5
100
AcDbEntity
  8
RACCORDO
100
AcDbLine
 62
250
  6
CONTINUOUS
 10
2.1666832616
 20
45.2771027552
 11
2.5799055171
 21
45.2822369521
  0
LINE
  5
3B6
100
AcDbEntity
  8
0
100
AcDbLine
 62
7
  6
CONTINUOUS
 10
3.0771538829
 20
44.4089248978
 11
3.5749467808
 21
44.4147205692
  0
LINE
  5
3B7
100
AcDbEntity
  8
RACCORDO
100
AcDbLine
 62
250
  6
CONTINUOUS
 10
1.8420422778
 20
45.568032646
 11
2.2486779744
 21
45.5724505276
  0
LINE
  5
3B8
100
AcDbEntity
  8
0
100
AcDbLine
 62
7
  6
CONTINUOUS
 10
-0.604849372
 20
46.412425565
 11
-0.4695966469
 21
46.4139360517
  0
LINE
  5
3B9
100
AcDbEntity
  8
0
100
AcDbLine
 62
7
  6
CONTINUOUS
 10
1.690097626
 20
44.4433438564
 11
2.0478437869
 21
44.4471464998
  0
LWPOLYLINE
  5
3BA
100
AcDbEntity
  8
0
100
AcDbPolyline
 62
7
  6
CONTINUOUS
 90
17
 70
0
 10
3.9198300078
 20
43.0703451138
 10
4.2517856475
 20
43.0735968102
 10
4.5742735027
 20
43.0771008459
 10
4.8872347845
 20
43.0808587878
 10
5.1907282817
 20
43.084869069
 10
5.4828733837
 20
43.0891068396
 10
5.7635996241
 20
43.0935735122
 10
6.0329774693
 20
43.0982676742
 10
6.2893377076
 20
43.1031602381
 10
6.5325995079
 20
43.1082524357
 10
6.7628437014
 20
43.1135430351
 10
6.9786435698
 20
43.118999253
 10
7.179909423
 20
43.1246221176
 10
7.3667309511
 20
43.1304106007
 10
7.5379505064
 20
43.1363288335
 10
7.6934712104
 20
43.1423776219
 10
7.8333899416
 20
43.14855616
  0
LINE
  5
3BB
100
AcDbEntity
  8
0
100
AcDbLine
 62
7
  6
CONTINUOUS
 10
1.9250093203
 20
44.9355656753
 11
2.3111687626
 21
44.9396404419
  0
LINE
  5
3BC
100
AcDbEntity
  8
0
100
AcDbLine
 62
7
  6
CONTINUOUS
 10
2.5494613318
 20
44.4040281172
 11
3.0771538829
 21
44.4089248978
  0
LINE
  5
3BD
100
AcDbEntity
  8
RACCORDO
100
AcDbLine
 62
250
  6
CONTINUOUS
 10
1.7209745345
 20
45.2729038305
 11
2.1666832616
 21
45.2771027552
  0
LINE
  5
3BE
100
AcDbEntity
  8
0
100
AcDbLine
 62
7
  6
CONTINUOUS
 10
0.3967158145
 20
46.3825098006
 11
0.604849372
 21
46.3846322232
  0
LINE
  5
3BF
100
AcDbEntity
  8
0
100
AcDbLine
 62
7
  6
CONTINUOUS
 10
3.2336402914
 20
43.0646608786
 11
3.9198300078
 21
43.0703451138
  0
LINE
  5
3C0
100
AcDbEntity
  8
0
100
AcDbLine
 62
7
  6
CONTINUOUS
 10
1.5149118473
 20
44.9322508754
 11
1.9250093203
 21
44.9355656753
  0
LINE
  5
3C1
100
AcDbEntity
  8
0
100
AcDbLine
 62
7
  6
CONTINUOUS
 10
1.309412436
 20
44.4402941455
 11
1.690097626
 21
44.4433438564
  0
LINE
  5
3C2
100
AcDbEntity
  8
RACCORDO
100
AcDbLine
 62
250
  6
CONTINUOUS
 10
1.4064551197
 20
45.5645176917
 11
1.8420422778
 21
45.568032646
  0
LINE
  5
3C3
100
AcDbEntity
  8
0
100
AcDbLine
 62
7
  6
CONTINUOUS
 10
1.995788659
 20
44.4000665991
 11
2.5494613318
 21
44.4040281172
  0
LINE
  5
3C4
100
AcDbEntity
  8
0
100
AcDbLine
 62
7
  6
CONTINUOUS
 10
-0.4695966469
 20
46.4139360517
 11
-0.321757275
 21
46.4150532198
  0
LINE
  5
3C5
100
AcDbEntity
  8
RACCORDO
100
AcDbLine
 62
250
  6
CONTINUOUS
 10
1.2472568834
 20
45.2696863272
 11
1.7209745345
 21
45.2729038305
  0
LINE
  5
3C6
100
AcDbEntity
  8
0
100
AcDbLine
 62
7
  6
CONTINUOUS
 10
2.5199563581
 20
43.0600833631
 11
3.2336402914
 21
43.0646608786
  0
LINE
  5
3C7
100
AcDbEntity
  8
0
100
AcDbLine
 62
7
  6
CONTINUOUS
 10
1.0863651701
 20
44.9297458325
 11
1.5149118473
 21
44.9322508754
  0
LINE
  5
3C8
100
AcDbEntity
  8
0
100
AcDbLine
 62
7
  6
CONTINUOUS
 10
0.9117161549
 20
44.4380389568
 11
1.309412436
 21
44.4402941455
  0
LINE
  5
3C9
100
AcDbEntity
  8
RACCORDO
100
AcDbLine
 62
250
  6
CONTINUOUS
 10
0.9484992948
 20
45.561965023
 11
1.4064551197
 21
45.5645176917
  0
LINE
  5
3CA
100
AcDbEntity
  8
0
100
AcDbLine
 62
7
  6
CONTINUOUS
 10
1.4222277175
 20
44.397089153
 11
1.995788659
 21
44.4000665991
  0
LINE
  5
3CB
100
AcDbEntity
  8
0
100
AcDbLine
 62
7
  6
CONTINUOUS
 10
1.7853445319
 20
43.0566596663
 11
2.5199563581
 21
43.0600833631
  0
LINE
  5
3CC
100
AcDbEntity
  8
RACCORDO
100
AcDbLine
 62
250
  6
CONTINUOUS
 10
0.7553384322
 20
45.2675197835
 11
1.2472568834
 21
45.2696863272
  0
LINE
  5
3CD
100
AcDbEntity
  8
0
100
AcDbLine
 62
7
  6
CONTINUOUS
 10
0.1655265759
 20
46.3813183495
 11
0.3967158145
 21
46.3825098006
  0
LINE
  5
3CE
100
AcDbEntity
  8
0
100
AcDbLine
 62
7
  6
CONTINUOUS
 10
-0.321757275
 20
46.4150532198
 11
-0.1655265759
 21
46.4157394387
  0
LINE
  5
3CF
100
AcDbEntity
  8
0
100
AcDbLine
 62
7
  6
CONTINUOUS
 10
0.6453184753
 20
44.9280801314
 11
1.0863651701
 21
44.9297458325
  0
LINE
  5
3D0
100
AcDbEntity
  8
0
100
AcDbLine
 62
7
  6
CONTINUOUS
 10
0.5010231635
 20
44.4366010544
 11
0.9117161549
 21
44.4380389568
  0
LINE
  5
3D1
100
AcDbEntity
  8
0
100
AcDbLine
 62
7
  6
CONTINUOUS
 10
0.8352769224
 20
44.3951244718
 11
1.4222277175
 21
44.397089153
  0
LINE
  5
3D2
100
AcDbEntity
  8
0
100
AcDbLine
 62
7
  6
CONTINUOUS
 10
1.0367279936
 20
43.0544172129
 11
1.7853445319
 21
43.0566596663
  0
LINE
  5
3D3
100
AcDbEntity
  8
RACCORDO
100
AcDbLine
 62
250
  6
CONTINUOUS
 10
0.4777932655
 20
45.5604249296
 11
0.9484992948
 21
45.561965023
  0
LINE
  5
3D4
100
AcDbEntity
  8
RACCORDO
100
AcDbLine
 62
250
  6
CONTINUOUS
 10
0.2528063757
 20
45.2664311599
 11
0.7553384322
 21
45.2675197835
  0
LINE
  5
3D5
100
AcDbEntity
  8
0
100
AcDbLine
 62
7
  6
CONTINUOUS
 10
0.1957698469
 20
44.9272688715
 11
0.6453184753
 21
44.9280801314
  0
LINE
  5
3D6
100
AcDbEntity
  8
0
100
AcDbLine
 62
7
  6
CONTINUOUS
 10
0.2392959564
 20
44.3941871486
 11
0.8352769224
 21
44.3951244718
  0
LINE
  5
3D7
100
AcDbEntity
  8
0
100
AcDbLine
 62
7
  6
CONTINUOUS
 10
0.2787455785
 20
43.0533698983
 11
1.0367279936
 21
43.0544172129
  0
LINE
  5
3D8
100
AcDbEntity
  8
0
100
AcDbLine
 62
7
  6
CONTINUOUS
 10
0.083529982
 20
44.4360076018
 11
0.5010231635
 21
44.4366010544
  0
LINE
  5
3D9
100
AcDbEntity
  8
0
100
AcDbLine
 62
7
  6
CONTINUOUS
 10
-0.1655265759
 20
46.4157394387
 11
-0.0055449536
 21
46.4159799359
  0
LINE
  5
3DA
100
AcDbEntity
  8
RACCORDO
100
AcDbLine
 62
250
  6
CONTINUOUS
 10
-0.0011956067
 20
45.5599092485
 11
0.4777932655
 21
45.5604249296
  0
LINE
  5
3DB
100
AcDbEntity
  8
RACCORDO
100
AcDbLine
 62
250
  6
CONTINUOUS
 10
-0.2556412861
 20
45.2664342371
 11
0.2528063757
 21
45.2664311599
  0
LINE
  5
3DC
100
AcDbEntity
  8
0
100
AcDbLine
 62
7
  6
CONTINUOUS
 10
-0.4815517806
 20
43.0535321569
 11
0.2787455785
 21
43.0533698983
  0
LINE
  5
3DD
100
AcDbEntity
  8
0
100
AcDbLine
 62
7
  6
CONTINUOUS
 10
-0.3590696219
 20
44.3942924869
 11
0.2392959564
 21
44.3941871486
  0
LINE
  5
3DE
100
AcDbEntity
  8
0
100
AcDbLine
 62
7
  6
CONTINUOUS
 10
-0.2561629453
 20
44.9273280416
 11
0.1957698469
 21
44.9272688715
  0
LINE
  5
3DF
100
AcDbEntity
  8
0
100
AcDbLine
 62
7
  6
CONTINUOUS
 10
-0.0752824657
 20
46.3811271127
 11
0.1655265759
 21
46.3813183495
  0
LINE
  5
3E0
100
AcDbEntity
  8
0
100
AcDbLine
 62
7
  6
CONTINUOUS
 10
-0.3343779009
 20
44.4362622964
 11
0.083529982
 21
44.4360076018
  0
LINE
  5
3E1
100
AcDbEntity
  8
RACCORDO
100
AcDbLine
 62
250
  6
CONTINUOUS
 10
-0.4811392804
 20
45.5604322429
 11
-0.0011956067
 21
45.5599092485
  0
LINE
  5
3E2
100
AcDbEntity
  8
0
100
AcDbLine
 62
7
  6
CONTINUOUS
 10
-0.0055449536
 20
46.4159799359
 11
0.1551082926
 21
46.4157700823
  0
LINE
  5
3E3
100
AcDbEntity
  8
0
100
AcDbLine
 62
7
  6
CONTINUOUS
 10
-1.2370736767
 20
43.0548977977
 11
-0.4815517806
 21
43.0535321569
  0
LINE
  5
3E4
100
AcDbEntity
  8
0
100
AcDbLine
 62
7
  6
CONTINUOUS
 10
-0.9531255071
 20
44.3954344757
 11
-0.3590696219
 21
44.3942924869
  0
LINE
  5
3E5
100
AcDbEntity
  8
0
100
AcDbLine
 62
7
  6
CONTINUOUS
 10
-0.7043026396
 20
44.9282519105
 11
-0.2561629453
 21
44.9273280416
  0
LINE
  5
3E6
100
AcDbEntity
  8
RACCORDO
100
AcDbLine
 62
250
  6
CONTINUOUS
 10
-0.7591562398
 20
45.2675323105
 11
-0.2556412861
 21
45.2664342371
  0
LINE
  5
3E7
100
AcDbEntity
  8
0
100
AcDbLine
 62
7
  6
CONTINUOUS
 10
-0.7484820869
 20
44.4373625672
 11
-0.3343779009
 21
44.4362622964
  0
LINE
  5
3E8
100
AcDbEntity
  8
0
100
AcDbLine
 62
7
  6
CONTINUOUS
 10
-1.9831384856
 20
43.0574583586
 11
-1.2370736767
 21
43.0548977977
  0
LINE
  5
3E9
100
AcDbEntity
  8
RACCORDO
100
AcDbLine
 62
250
  6
CONTINUOUS
 10
-0.9518054329
 20
45.5619796358
 11
-0.4811392804
 21
45.5604322429
  0
LINE
  5
3EA
100
AcDbEntity
  8
0
100
AcDbLine
 62
7
  6
CONTINUOUS
 10
-1.538459242
 20
44.3976046327
 11
-0.9531255071
 21
44.3954344757
  0
LINE
  5
3EB
100
AcDbEntity
  8
0
100
AcDbLine
 62
7
  6
CONTINUOUS
 10
-1.1445868541
 20
44.9300321033
 11
-0.7043026396
 21
44.9282519105
  0
LINE
  5
3EC
100
AcDbEntity
  8
RACCORDO
100
AcDbLine
 62
250
  6
CONTINUOUS
 10
-1.2500679331
 20
45.2697020178
 11
-0.7591562398
 21
45.2675323105
  0
LINE
  5
3ED
100
AcDbEntity
  8
0
100
AcDbLine
 62
7
  6
CONTINUOUS
 10
-0.3117163639
 20
46.3819472042
 11
-0.0752824657
 21
46.3811271127
  0
LINE
  5
3EE
100
AcDbEntity
  8
0
100
AcDbLine
 62
7
  6
CONTINUOUS
 10
0.1551082926
 20
46.4157700823
 11
0.3117163639
 21
46.4151105841
  0
LINE
  5
3EF
100
AcDbEntity
  8
0
100
AcDbLine
 62
7
  6
CONTINUOUS
 10
-1.1524274205
 20
44.4392969521
 11
-0.7484820869
 21
44.4373625672
  0
LINE
  5
3F0
100
AcDbEntity
  8
0
100
AcDbLine
 62
7
  6
CONTINUOUS
 10
-2.7127336004
 20
43.0611945385
 11
-1.9831384856
 21
43.0574583586
  0
LINE
  5
3F1
100
AcDbEntity
  8
0
100
AcDbLine
 62
7
  6
CONTINUOUS
 10
-2.1084620497
 20
44.4007833956
 11
-1.538459242
 21
44.3976046327
  0
LINE
  5
3F2
100
AcDbEntity
  8
RACCORDO
100
AcDbLine
 62
250
  6
CONTINUOUS
 10
-1.408895353
 20
45.5645343292
 11
-0.9518054329
 21
45.5619796358
  0
LINE
  5
3F3
100
AcDbEntity
  8
0
100
AcDbLine
 62
7
  6
CONTINUOUS
 10
-1.5709318308
 20
44.9326490743
 11
-1.1445868541
 21
44.9300321033
  0
LINE
  5
3F4
100
AcDbEntity
  8
0
100
AcDbLine
 62
7
  6
CONTINUOUS
 10
-3.4191272517
 20
43.0660669903
 11
-2.7127336004
 21
43.0611945385
  0
LINE
  5
3F5
100
AcDbEntity
  8
RACCORDO
100
AcDbLine
 62
250
  6
CONTINUOUS
 10
-1.723852846
 20
45.2729270962
 11
-1.2500679331
 21
45.2697020178
  0
LINE
  5
3F6
100
AcDbEntity
  8
0
100
AcDbLine
 62
7
  6
CONTINUOUS
 10
-1.5401410469
 20
44.44203081
 11
-1.1524274205
 21
44.4392969521
  0
LINE
  5
3F7
100
AcDbEntity
  8
0
100
AcDbLine
 62
7
  6
CONTINUOUS
 10
-2.6568385526
 20
44.4049305837
 11
-2.1084620497
 21
44.4007833956
  0
LINE
  5
3F8
100
AcDbEntity
  8
0
100
AcDbLine
 62
7
  6
CONTINUOUS
 10
0.3117163639
 20
46.4151105841
 11
0.4597770218
 21
46.4140259968
  0
LINE
  5
3F9
100
AcDbEntity
  8
RACCORDO
100
AcDbLine
 62
250
  6
CONTINUOUS
 10
-1.8451734089
 20
45.5680622812
 11
-1.408895353
 21
45.5645343292
  0
LINE
  5
3FA
100
AcDbEntity
  8
0
100
AcDbLine
 62
7
  6
CONTINUOUS
 10
-1.9776016352
 20
44.9360623976
 11
-1.5709318308
 21
44.9326490743
  0
LINE
  5
3FB
100
AcDbEntity
  8
0
100
AcDbLine
 62
7
  6
CONTINUOUS
 10
-0.5300344402
 20
46.3837309632
 11
-0.3117163639
 21
46.3819472042
  0
LINE
  5
3FC
100
AcDbEntity
  8
RACCORDO
100
AcDbLine
 62
250
  6
CONTINUOUS
 10
-2.1698811192
 20
45.2771375474
 11
-1.723852846
 21
45.2729270962
  0
LINE
  5
3FD
100
AcDbEntity
  8
0
100
AcDbLine
 62
7
  6
CONTINUOUS
 10
-3.1795155854
 20
44.410015393
 11
-2.6568385526
 21
44.4049305837
  0
LINE
  5
3FE
100
AcDbEntity
  8
0
100
AcDbLine
 62
7
  6
CONTINUOUS
 10
-1.9077093512
 20
44.4455365451
 11
-1.5401410469
 21
44.44203081
  0
LINE
  5
3FF
100
AcDbEntity
  8
0
100
AcDbLine
 62
7
  6
CONTINUOUS
 10
-2.3609098094
 20
44.9402411316
 11
-1.9776016352
 21
44.9360623976
  0
LINE
  5
400
100
AcDbEntity
  8
RACCORDO
100
AcDbLine
 62
250
  6
CONTINUOUS
 10
-2.2510562006
 20
45.5724801876
 11
-1.8451734089
 21
45.5680622812
  0
LINE
  5
401
100
AcDbEntity
  8
0
100
AcDbLine
 62
7
  6
CONTINUOUS
 10
0.4597770218
 20
46.4140259968
 11
0.5964404197
 21
46.4125371965
  0
LINE
  5
402
100
AcDbEntity
  8
0
100
AcDbLine
 62
7
  6
CONTINUOUS
 10
-2.2493850681
 20
44.4497654522
 11
-1.9077093512
 21
44.4455365451
  0
LINE
  5
403
100
AcDbEntity
  8
0
100
AcDbLine
 62
7
  6
CONTINUOUS
 10
-0.65892035
 20
46.3854024295
 11
-0.5300344402
 21
46.3837309632
  0
LWPOLYLINE
  5
404
100
AcDbEntity
  8
0
100
AcDbPolyline
 62
7
  6
CONTINUOUS
 90
18
 70
0
 10
3.6010727717
 20
44.5825411171
 10
3.9023730838
 20
44.5783589139
 10
4.1244798334
 20
44.5748675217
 10
4.3369007423
 20
44.5711787065
 10
4.5380580159
 20
44.5673198678
 10
4.727867784
 20
44.5632897394
 10
4.9064139169
 20
44.5590895874
 10
5.0723702309
 20
44.5547506092
 10
5.2256429809
 20
44.550271771
 10
5.3663259122
 20
44.5456541066
 10
5.4933740768
 20
44.5409319146
 10
5.6066859488
 20
44.5361044165
 10
5.7063630542
 20
44.5311723908
 10
5.7916650233
 20
44.5261724709
 10
5.8624848173
 20
44.5211041512
 10
5.918929475
 20
44.5159679374
 10
5.9605797437
 20
44.5108019796
 10
5.9873197887
 20
44.5056225131
  0
LINE
  5
405
100
AcDbEntity
  8
0
100
AcDbLine
 62
7
  6
CONTINUOUS
 10
-2.7154658769
 20
44.9451323141
 11
-2.3609098094
 21
44.9402411316
  0
LINE
  5
406
100
AcDbEntity
  8
0
100
AcDbLine
 62
7
  6
CONTINUOUS
 10
0.5964404197
 20
46.4125371965
 11
0.7175488414
 21
46.4106830641
  0
LINE
  5
407
100
AcDbEntity
  8
0
100
AcDbLine
 62
7
  6
CONTINUOUS
 10
-2.5601404526
 20
44.4546487298
 11
-2.2493850681
 21
44.4497654522
  0
LINE
  5
408
100
AcDbEntity
  8
0
100
AcDbLine
 62
7
  6
CONTINUOUS
 10
-3.0365968079
 20
44.9506652054
 11
-2.7154658769
 21
44.9451323141
  0
LINE
  5
409
100
AcDbEntity
  8
0
100
AcDbLine
 62
7
  6
CONTINUOUS
 10
-0.7711974227
 20
46.3874187611
 11
-0.65892035
 21
46.3854024295
  0
LWPOLYLINE
  5
40A
100
AcDbEntity
  8
0
100
AcDbPolyline
 62
7
  6
CONTINUOUS
 90
9
 70
0
 10
0.7175488414
 20
46.4106830641
 10
0.8197696224
 20
46.4085218582
 10
0.8633619121
 20
46.4073329469
 10
0.9011352346
 20
46.4060951773
 10
0.9329768642
 20
46.4048076029
 10
0.9589995266
 20
46.4034711702
 10
0.9787023421
 20
46.4021116026
 10
0.9919183507
 20
46.4007374746
 10
0.997933936
 20
46.3996501836
  0
LWPOLYLINE
  5
40B
100
AcDbEntity
  8
0
100
AcDbPolyline
 62
7
  6
CONTINUOUS
 90
4
 70
0
 10
-3.5657370605
 20
44.9634250083
 10
-3.4485975794
 20
44.9600437538
 10
-3.3213915535
 20
44.9567896498
 10
-3.0365968079
 20
44.9506652054
  0
LWPOLYLINE
  5
40C
100
AcDbEntity
  8
0
100
AcDbPolyline
 62
7
  6
CONTINUOUS
 90
18
 70
0
 10
-7.9011123969
 20
43.1518817637
 10
-7.770147265
 20
43.1456583761
 10
-7.6229996992
 20
43.1395461139
 10
-7.459769562
 20
43.1335442914
 10
-7.2814683162
 20
43.127690099
 10
-7.0880023798
 20
43.1219844535
 10
-6.8794653346
 20
43.1164264382
 10
-6.6571493898
 20
43.1110504936
 10
-6.420968987
 20
43.1058577501
 10
-6.1710096845
 20
43.1008470773
 10
-5.9088203661
 20
43.0960495241
 10
-5.634325091
 20
43.0914664136
 10
-5.3475997999
 20
43.0870964227
 10
-5.0504211988
 20
43.0829666302
 10
-4.742724379
 20
43.0790785275
 10
-4.4245742492
 20
43.0754306231
 10
-4.0979422404
 20
43.0720455215
 10
-3.4191272517
 20
43.0660669903
  0
LWPOLYLINE
  5
40D
100
AcDbEntity
  8
RACCORDO
100
AcDbPolyline
 62
250
  6
CONTINUOUS
 90
12
 70
0
 10
-3.7912738863
 20
45.6133792533
 10
-3.7339871143
 20
45.6093341265
 10
-3.6625306538
 20
45.60535745
 10
-3.57717366
 20
45.6014641731
 10
-3.4782316511
 20
45.5976692574
 10
-3.3660487833
 20
45.593986727
 10
-3.2410259839
 20
45.5904305462
 10
-3.1036353142
 20
45.5870145371
 10
-2.9543951209
 20
45.5837518748
 10
-2.7938412201
 20
45.5806546533
 10
-2.6225946469
 20
45.5777353268
 10
-2.2510562006
 20
45.5724801876
  0
LINE
  5
40E
100
AcDbEntity
  8
RACCORDO
100
AcDbLine
 62
250
  6
CONTINUOUS
 10
-3.834181923
 20
45.6174784509
 11
-3.7912738863
 21
45.6133792533
  0
LINE
  5
40F
100
AcDbEntity
  8
0
100
AcDbLine
 62
7
  6
CONTINUOUS
 10
7.8511145721
 20
42.703261551
 11
9.8566648691
 21
42.1670990876
  0
LINE
  5
410
100
AcDbEntity
  8
0
100
AcDbLine
 62
7
  6
CONTINUOUS
 10
5.9872555597
 20
44.5056397058
 11
8.1103819975
 21
43.9380445161
  0
LINE
  5
411
100
AcDbEntity
  8
0
100
AcDbLine
 62
7
  6
CONTINUOUS
 10
0.9978759266
 20
46.3996657995
 11
3.8694093095
 21
45.6319920021
  0
LWPOLYLINE
  5
412
100
AcDbEntity
  8
RACCORDO
100
AcDbPolyline
 62
7
  6
CONTINUOUS
 90
21
 70
0
 10
8.1103939649
 20
43.9380413162
 10
8.1134125978
 20
43.9372226586
 10
8.1223172894
 20
43.9346675038
 10
8.1314382401
 20
43.9318185612
 10
8.1409687547
 20
43.9285707568
 10
8.1516594529
 20
43.9245721576
 10
8.1633923908
 20
43.9197167218
 10
8.1761679477
 20
43.9138276019
 10
8.1908004333
 20
43.9062399508
 10
8.2081670792
 20
43.8959376266
 10
8.2268074032
 20
43.8830960474
 10
8.2442218443
 20
43.869146566
 10
8.2590100299
 20
43.855533947
 10
8.2727095685
 20
43.8411700637
 10
8.2871424312
 20
43.8237649191
 10
8.3023147927
 20
43.8021438969
 10
8.3168234551
 20
43.7768309897
 10
8.3297923617
 20
43.7477851806
 10
8.3403076867
 20
43.7150294602
 10
8.3473963099
 20
43.6786716541
 10
8.35
 20
43.6390705384
  0
LWPOLYLINE
  5
413
100
AcDbEntity
  8
RACCORDO
100
AcDbPolyline
 62
7
  6
CONTINUOUS
 90
20
 70
0
 10
3.8694339741
 20
45.6319854033
 10
3.8730863082
 20
45.6309883537
 10
3.8855813809
 20
45.627256569
 10
3.8992099104
 20
45.6225811023
 10
3.9135517237
 20
45.6169205044
 10
3.928552928
 20
45.6101165505
 10
3.9441591586
 20
45.6019902695
 10
3.9599559299
 20
45.5925615507
 10
3.9761089861
 20
45.5815136733
 10
3.992167595
 20
45.5689138221
 10
4.0069438282
 20
45.5556517829
 10
4.0194189288
 20
45.5429738468
 10
4.0307852496
 20
45.5300014911
 10
4.0429326271
 20
45.5142904011
 10
4.0557895587
 20
45.4949575949
 10
4.0682992751
 20
45.4723608176
 10
4.0801061597
 20
45.4454984594
 10
4.090233482
 20
45.4139255733
 10
4.0973189672
 20
45.3779455624
 10
4.1
 20
45.3378498723
  0
LWPOLYLINE
  5
414
100
AcDbEntity
  8
RACCORDO
100
AcDbPolyline
 62
7
  6
CONTINUOUS
 90
20
 70
0
 10
9.8566886079
 20
42.1670927395
 10
9.8648764781
 20
42.164822284
 10
9.874234049
 20
42.1620168561
 10
9.8839036485
 20
42.1588608449
 10
9.894557947
 20
42.1550541577
 10
9.9059785894
 20
42.150556934
 10
9.9183050174
 20
42.1451766445
 10
9.9326311511
 20
42.138172582
 10
9.9498158521
 20
42.1285895527
 10
9.9684565388
 20
42.1165434247
 10
9.9863714092
 20
42.1030855651
 10
10.0023061628
 20
42.0892791155
 10
10.0174756606
 20
42.0741947747
 10
10.0332938364
 20
42.0559464676
 10
10.0496710226
 20
42.0334516309
 10
10.065228296
 20
42.0071141149
 10
10.0789679579
 20
41.9770729639
 10
10.0899708885
 20
41.9434515719
 10
10.0973207395
 20
41.906340331
 10
10.1
 20
41.8661355254
  0
LWPOLYLINE
  5
415
100
AcDbEntity
  8
0
100
AcDbPolyline
 62
7
  6
CONTINUOUS
 90
3
 70
0
 10
0.997933936
 20
46.3996501836
 10
0.9988145124
 20
46.3993402117
 10
0.999390827
 20
46.3979198139
  0
LWPOLYLINE
  5
416
100
AcDbEntity
  8
0
100
AcDbPolyline
 62
7
  6
CONTINUOUS
 90
3
 70
0
 10
5.9873197887
 20
44.5056225131
 10
5.9992176117
 20
44.5004062653
 10
5.9963449621
 20
44.4951637921
  0
LINE
  5
417
100
AcDbEntity
  8
DRAFT
100
AcDbLine
 62
7
  6
CONTINUOUS
 10
32.0
 20
29.0840938319
 11
32.2757899725
 21
28.8083038595
  0
LINE
  5
418
100
AcDbEntity
  8
DRAFT
100
AcDbLine
 62
7
  6
CONTINUOUS
 10
26.5
 20
34.5840938319
 11
26.2242099741
 21
34.8598838578
  0
LINE
  5
419
100
AcDbEntity
  8
DRAFT
100
AcDbLine
 62
7
  6
CONTINUOUS
 10
26.5
 20
-44.4159061681
 11
26.2242099741
 21
-44.6916961939
  0
LINE
  5
41A
100
AcDbEntity
  8
DRAFT
100
AcDbLine
 62
7
  6
CONTINUOUS
 10
32.0
 20
-38.9159061681
 11
32.2757899725
 21
-38.6401161956
  0
LWPOLYLINE
  5
41B
100
AcDbEntity
  8
0
100
AcDbPolyline
 62
250
  6
CONTINUOUS
 90
8
 70
0
 10
21.119395936
 20
-45.8658279165
 10
21.1173897144
 20
-45.8671386948
 10
21.1097772139
 20
-45.8684380927
 10
21.0965584344
 20
-45.8697261104
 10
21.0776678813
 20
-45.8710115672
 10
21.0531710492
 20
-45.8722856436
 10
21.0232644223
 20
-45.8735218814
 10
20.9877775347
 20
-45.8747197251
  0
CIRCLE
  5
41C
100
AcDbEntity
  8
RACCORDO
100
AcDbCircle
 62
7
  6
CONTINUOUS
 10
-17.5
 20
-31.4159061681
 40
9.5
  0
CIRCLE
  5
41D
100
AcDbEntity
  8
RACCORDO
100
AcDbCircle
 62
250
  6
CONTINUOUS
 10
-17.5
 20
-31.4159061681
 40
8.9999990565
  0
ARC
  5
41E
100
AcDbEntity
  8
SUPERFICI
100
AcDbCircle
 62
7
  6
CONTINUOUS
 10
-27.9999972513
 20
-40.4159034194
 40
6.0000091571
100
AcDbArc
 50
180.0006581054
 51
269.9999837864
  0
ARC
  5
41F
100
AcDbEntity
  8
DRAFT
100
AcDbCircle
 62
7
  6
CONTINUOUS
 10
-28.0
 20
-40.4159061681
 40
6.0
100
AcDbArc
 50
180.0
 51
270.0
  0
ARC
  5
420
100
AcDbEntity
  8
RACCORDO
100
AcDbCircle
 62
250
  6
CONTINUOUS
 10
-28.0
 20
-40.4159061681
 40
5.3730280717
100
AcDbArc
 50
180.0
 51
270.0
  0
ARC
  5
421
100
AcDbEntity
  8
RACCORDO
100
AcDbCircle
 62
7
  6
CONTINUOUS
 10
-28.0
 20
-40.4159061681
 40
4.2757899725
100
AcDbArc
 50
180.0
 51
270.0
  0
ARC
  5
422
100
AcDbEntity
  8
DRAFT
100
AcDbCircle
 62
7
  6
CONTINUOUS
 10
-28.0
 20
-40.4159061681
 40
4.0
100
AcDbArc
 50
180.0
 51
270.0
  0
CIRCLE
  5
423
100
AcDbEntity
  8
0
100
AcDbCircle
 62
7
  6
CONTINUOUS
 10
-17.5
 20
-31.4159061681
 40
2.25
  0
CIRCLE
  5
424
100
AcDbEntity
  8
0
100
AcDbCircle
 62
7
  6
CONTINUOUS
 10
-17.5
 20
-31.4159061681
 40
1.8
  0
ARC
  5
425
100
AcDbEntity
  8
DRAFT
100
AcDbCircle
 62
7
  6
CONTINUOUS
 10
-28.0
 20
-40.4159061681
 40
1.7757900259
100
AcDbArc
 50
0.0
 51
90.0
  0
CIRCLE
  5
426
100
AcDbEntity
  8
0
100
AcDbCircle
 62
7
  6
CONTINUOUS
 10
-17.5
 20
-31.4159061681
 40
1.5
  0
ARC
  5
427
100
AcDbEntity
  8
DRAFT
100
AcDbCircle
 62
7
  6
CONTINUOUS
 10
-28.0
 20
-40.4159061681
 40
1.5
100
AcDbArc
 50
0.0
 51
90.0
  0
CIRCLE
  5
428
100
AcDbEntity
  8
RACCORDO
100
AcDbCircle
 62
7
  6
CONTINUOUS
 10
-17.5
 20
21.5840938319
 40
9.5
  0
CIRCLE
  5
429
100
AcDbEntity
  8
RACCORDO
100
AcDbCircle
 62
250
  6
CONTINUOUS
 10
-17.5
 20
21.5840938319
 40
8.9999990565
  0
ARC
  5
42A
100
AcDbEntity
  8
SUPERFICI
100
AcDbCircle
 62
7
  6
CONTINUOUS
 10
-28.0000028528
 20
30.5840966847
 40
6.0000048868
100
AcDbArc
 50
90.0000917828
 51
180.000067234
  0
ARC
  5
42B
100
AcDbEntity
  8
DRAFT
100
AcDbCircle
 62
7
  6
CONTINUOUS
 10
-28.0
 20
30.5840938319
 40
6.0
100
AcDbArc
 50
90.0
 51
180.0
  0
ARC
  5
42C
100
AcDbEntity
  8
RACCORDO
100
AcDbCircle
 62
250
  6
CONTINUOUS
 10
-28.0
 20
30.5840938319
 40
5.3730280717
100
AcDbArc
 50
90.0
 51
180.0
  0
ARC
  5
42D
100
AcDbEntity
  8
RACCORDO
100
AcDbCircle
 62
7
  6
CONTINUOUS
 10
-28.0
 20
30.5840938319
 40
4.2757899725
100
AcDbArc
 50
90.0
 51
180.0
  0
ARC
  5
42E
100
AcDbEntity
  8
DRAFT
100
AcDbCircle
 62
7
  6
CONTINUOUS
 10
-28.0
 20
30.5840938319
 40
4.0
100
AcDbArc
 50
90.0
 51
180.0
  0
CIRCLE
  5
42F
100
AcDbEntity
  8
0
100
AcDbCircle
 62
7
  6
CONTINUOUS
 10
-17.5
 20
21.5840938319
 40
2.25
  0
CIRCLE
  5
430
100
AcDbEntity
  8
0
100
AcDbCircle
 62
7
  6
CONTINUOUS
 10
-17.5
 20
21.5840938319
 40
1.8
  0
ARC
  5
431
100
AcDbEntity
  8
DRAFT
100
AcDbCircle
 62
7
  6
CONTINUOUS
 10
-28.0
 20
30.5840938319
 40
1.7757900259
100
AcDbArc
 50
270.0
 51
360.0
  0
CIRCLE
  5
432
100
AcDbEntity
  8
0
100
AcDbCircle
 62
7
  6
CONTINUOUS
 10
-17.5
 20
21.5840938319
 40
1.5
  0
ARC
  5
433
100
AcDbEntity
  8
DRAFT
100
AcDbCircle
 62
7
  6
CONTINUOUS
 10
-28.0
 20
30.5840938319
 40
1.5
100
AcDbArc
 50
270.0
 51
360.0
  0
CIRCLE
  5
434
100
AcDbEntity
  8
0
100
AcDbCircle
 62
7
  6
CONTINUOUS
 10
-0.0
 20
-4.9159061681
 40
11.25
  0
ARC
  5
435
100
AcDbEntity
  8
0
100
AcDbCircle
 62
7
  6
CONTINUOUS
 10
-0.0
 20
-4.9159061681
 40
11.0
100
AcDbArc
 50
185.7391704773
 51
264.2608295227
  0
ARC
  5
436
100
AcDbEntity
  8
0
100
AcDbCircle
 62
7
  6
CONTINUOUS
 10
-0.0
 20
-4.9159061681
 40
11.0
100
AcDbArc
 50
275.7391704773
 51
354.2608295227
  0
ARC
  5
437
100
AcDbEntity
  8
0
100
AcDbCircle
 62
7
  6
CONTINUOUS
 10
-0.0
 20
-4.9159061681
 40
11.0
100
AcDbArc
 50
95.7391704773
 51
174.2608295227
  0
ARC
  5
438
100
AcDbEntity
  8
0
100
AcDbCircle
 62
7
  6
CONTINUOUS
 10
-0.0
 20
-4.9159061681
 40
11.0
100
AcDbArc
 50
5.7391704773
 51
84.2608295227
  0
ARC
  5
439
100
AcDbEntity
  8
0
100
AcDbCircle
 62
7
  6
CONTINUOUS
 10
-0.0
 20
-4.9159061681
 40
10.1299689469
100
AcDbArc
 50
6.233965798
 51
83.766034202
  0
ARC
  5
43A
100
AcDbEntity
  8
0
100
AcDbCircle
 62
7
  6
CONTINUOUS
 10
-0.0
 20
-4.9159061681
 40
10.1299689469
100
AcDbArc
 50
96.233965798
 51
173.766034202
  0
ARC
  5
43B
100
AcDbEntity
  8
0
100
AcDbCircle
 62
7
  6
CONTINUOUS
 10
-0.0
 20
-4.9159061681
 40
10.1299689469
100
AcDbArc
 50
186.233965798
 51
263.766034202
  0
ARC
  5
43C
100
AcDbEntity
  8
0
100
AcDbCircle
 62
7
  6
CONTINUOUS
 10
-0.0
 20
-4.9159061681
 40
10.1299689469
100
AcDbArc
 50
276.233965798
 51
353.766034202
  0
CIRCLE
  5
43D
100
AcDbEntity
  8
RACCORDO
100
AcDbCircle
 62
7
  6
CONTINUOUS
 10
17.5
 20
-31.4159061681
 40
9.5
  0
CIRCLE
  5
43E
100
AcDbEntity
  8
RACCORDO
100
AcDbCircle
 62
250
  6
CONTINUOUS
 10
17.5
 20
-31.4159061681
 40
8.9999990565
  0
ARC
  5
43F
100
AcDbEntity
  8
SUPERFICI
100
AcDbCircle
 62
7
  6
CONTINUOUS
 10
27.9999972513
 20
-40.4159034194
 40
6.0000091571
100
AcDbArc
 50
269.9997046527
 51
359.9993418946
  0
ARC
  5
440
100
AcDbEntity
  8
DRAFT
100
AcDbCircle
 62
7
  6
CONTINUOUS
 10
28.0
 20
-40.4159061681
 40
6.0
100
AcDbArc
 50
270.0
 51
360.0
  0
ARC
  5
441
100
AcDbEntity
  8
RACCORDO
100
AcDbCircle
 62
250
  6
CONTINUOUS
 10
28.0
 20
-40.4159061681
 40
5.3730280717
100
AcDbArc
 50
270.0
 51
360.0
  0
CIRCLE
  5
442
100
AcDbEntity
  8
RACCORDO
100
AcDbCircle
 62
7
  6
CONTINUOUS
 10
-0.0
 20
-23.7159061681
 40
4.8
  0
CIRCLE
  5
443
100
AcDbEntity
  8
RACCORDO
100
AcDbCircle
 62
250
  6
CONTINUOUS
 10
-0.0
 20
-23.7159061681
 40
4.2999972642
  0
ARC
  5
444
100
AcDbEntity
  8
RACCORDO
100
AcDbCircle
 62
7
  6
CONTINUOUS
 10
28.0
 20
-40.4159061681
 40
4.2757899725
100
AcDbArc
 50
270.0
 51
360.0
  0
ARC
  5
445
100
AcDbEntity
  8
DRAFT
100
AcDbCircle
 62
7
  6
CONTINUOUS
 10
28.0
 20
-40.4159061681
 40
4.0
100
AcDbArc
 50
270.0
 51
360.0
  0
CIRCLE
  5
446
100
AcDbEntity
  8
0
100
AcDbCircle
 62
7
  6
CONTINUOUS
 10
17.5
 20
-31.4159061681
 40
2.25
  0
CIRCLE
  5
447
100
AcDbEntity
  8
0
100
AcDbCircle
 62
7
  6
CONTINUOUS
 10
17.5
 20
-31.4159061681
 40
1.8
  0
ARC
  5
448
100
AcDbEntity
  8
DRAFT
100
AcDbCircle
 62
7
  6
CONTINUOUS
 10
28.0
 20
-40.4159061681
 40
1.7757900259
100
AcDbArc
 50
90.0
 51
180.0
  0
CIRCLE
  5
449
100
AcDbEntity
  8
0
100
AcDbCircle
 62
7
  6
CONTINUOUS
 10
17.5
 20
-31.4159061681
 40
1.5
  0
ARC
  5
44A
100
AcDbEntity
  8
DRAFT
100
AcDbCircle
 62
7
  6
CONTINUOUS
 10
28.0
 20
-40.4159061681
 40
1.5
100
AcDbArc
 50
90.0
 51
180.0
  0
CIRCLE
  5
44B
100
AcDbEntity
  8
RACCORDO
100
AcDbCircle
 62
7
  6
CONTINUOUS
 10
17.5
 20
21.5840938319
 40
9.5
  0
CIRCLE
  5
44C
100
AcDbEntity
  8
RACCORDO
100
AcDbCircle
 62
250
  6
CONTINUOUS
 10
17.5
 20
21.5840938319
 40
8.9999990565
  0
ARC
  5
44D
100
AcDbEntity
  8
SUPERFICI
100
AcDbCircle
 62
7
  6
CONTINUOUS
 10
28.0000028528
 20
30.5840966847
 40
6.0000048868
100
AcDbArc
 50
359.999932766
 51
90.0002183647
  0
ARC
  5
44E
100
AcDbEntity
  8
DRAFT
100
AcDbCircle
 62
7
  6
CONTINUOUS
 10
28.0
 20
30.5840938319
 40
6.0
100
AcDbArc
 50
0.0
 51
90.0
  0
ARC
  5
44F
100
AcDbEntity
  8
RACCORDO
100
AcDbCircle
 62
250
  6
CONTINUOUS
 10
28.0
 20
30.5840938319
 40
5.3730280717
100
AcDbArc
 50
0.0
 51
90.0
  0
CIRCLE
  5
450
100
AcDbEntity
  8
RACCORDO
100
AcDbCircle
 62
7
  6
CONTINUOUS
 10
-0.0
 20
13.8840938319
 40
4.8
  0
CIRCLE
  5
451
100
AcDbEntity
  8
RACCORDO
100
AcDbCircle
 62
250
  6
CONTINUOUS
 10
-0.0
 20
13.8840938319
 40
4.2999972642
  0
ARC
  5
452
100
AcDbEntity
  8
RACCORDO
100
AcDbCircle
 62
7
  6
CONTINUOUS
 10
28.0
 20
30.5840938319
 40
4.2757899725
100
AcDbArc
 50
0.0
 51
90.0
  0
ARC
  5
453
100
AcDbEntity
  8
DRAFT
100
AcDbCircle
 62
7
  6
CONTINUOUS
 10
28.0
 20
30.5840938319
 40
4.0
100
AcDbArc
 50
0.0
 51
90.0
  0
CIRCLE
  5
454
100
AcDbEntity
  8
0
100
AcDbCircle
 62
7
  6
CONTINUOUS
 10
17.5
 20
21.5840938319
 40
2.25
  0
CIRCLE
  5
455
100
AcDbEntity
  8
0
100
AcDbCircle
 62
7
  6
CONTINUOUS
 10
17.5
 20
21.5840938319
 40
1.8
  0
ARC
  5
456
100
AcDbEntity
  8
DRAFT
100
AcDbCircle
 62
7
  6
CONTINUOUS
 10
28.0
 20
30.5840938319
 40
1.7757900259
100
AcDbArc
 50
180.0
 51
270.0
  0
CIRCLE
  5
457
100
AcDbEntity
  8
0
100
AcDbCircle
 62
7
  6
CONTINUOUS
 10
17.5
 20
21.5840938319
 40
1.5
  0
ARC
  5
458
100
AcDbEntity
  8
DRAFT
100
AcDbCircle
 62
7
  6
CONTINUOUS
 10
28.0
 20
30.5840938319
 40
1.5
100
AcDbArc
 50
180.0
 51
270.0
  0
ENDSEC
  0
SECTION
  2
OBJECTS
  0
DICTIONARY
  5
C
100
AcDbDictionary
280
0
281
1
  3
ACAD_GROUP
350
D
  3
ACAD_MLINESTYLE
350
17
  3
ACAD_LAYOUT
350
1A
  3
ACAD_PLOTSETTINGS
350
19
  3
ACAD_PLOTSTYLENAME
350
E
  0
DICTIONARY
  5
D
102
{ACAD_REACTORS
330
C
102
}
100
AcDbDictionary
280
0
281
1
  0
ACDBDICTIONARYWDFLT
  5
E
102
{ACAD_REACTORS
330
C
102
}
100
AcDbDictionary
281
1
  3
Normal
350
F
100
AcDbDictionaryWithDefault
340
F
  0
DICTIONARY
  5
17
102
{ACAD_REACTORS
330
C
102
}
100
AcDbDictionary
280
0
281
1
  3
Standard
350
18
  0
DICTIONARY
  5
19
102
{ACAD_REACTORS
330
C
102
}
100
AcDbDictionary
281
1
  0
DICTIONARY
  5
1A
102
{ACAD_REACTORS
330
C
102
}
100
AcDbDictionary
281
1
  3
Model
350
459
  3
Layout1
350
45A
  0
ACDBPLACEHOLDER
  5
F
102
{ACAD_REACTORS
330
E
102
}
  0
MLINESTYLE
  5
18
102
{ACAD_REACTORS
330
17
102
}
100
AcDbMlineStyle
  2
STANDARD
 70
0
  3

 62
256
 51
90.0
 52
90.0
 71
2
 49
0.5
 62
256
  6
BYLAYER
 49
-0.5
 62
256
  6
BYLAYER
  0
LAYOUT
  5
459
102
{ACAD_REACTORS
330
1A
102
}
100
AcDbPlotSettings
  1

  2
none_device
  4
ISO_A4_(297.00_x_210.00_MM)
  6

 40
0.0
 41
0.0
 42
0.0
 43
0.0
 44
297.0
 45
210.0
 46
0.0
 47
0.0
 48
0.0
 49
0.0
140
0.0
141
0.0
142
1.0
143
1.0
 70
1024
 72
1
 73
0
 74
0
  7

 75
0
147
1.0
148
0.0
149
0.0
100
AcDbLayout
  1
Model
 70
0
 71
0
 10
0.0
 20
0.0
 11
297.0
 21
210.0
 12
0.0
 22
0.0
 32
0.0
 14
0.0
 24
0.0
 34
0.0
 15
0.0
 25
0.0
 35
0.0
146
0.0
 13
0.0
 23
0.0
 33
0.0
 16
1.0
 26
0.0
 36
0.0
 17
0.0
 27
1.0
 37
0.0
 76
0
330
227
345
0
346
0
  0
LAYOUT
  5
45A
102
{ACAD_REACTORS
330
1A
102
}
100
AcDbPlotSettings
  1

  2
none_device
  4
ISO_A4_(297.00_x_210.00_MM)
  6

 40
0.0
 41
0.0
 42
0.0
 43
0.0
 44
297.0
 45
210.0
 46
0.0
 47
0.0
 48
0.0
 49
0.0
140
0.0
141
0.0
142
1.0
143
1.0
 70
0
 72
1
 73
0
 74
0
  7

 75
0
147
1.0
148
0.0
149
0.0
100
AcDbLayout
  1
Layout1
 70
0
 71
1
 10
0.0
 20
0.0
 11
297.0
 21
210.0
 12
0.0
 22
0.0
 32
0.0
 14
0.0
 24
0.0
 34
0.0
 15
0.0
 25
0.0
 35
0.0
146
0.0
 13
0.0
 23
0.0
 33
0.0
 16
1.0
 26
0.0
 36
0.0
 17
0.0
 27
1.0
 37
0.0
 76
0
330
228
345
0
346
0
  0
ENDSEC
  0
EOF
