  0
SECTION
  2
HEADER
  9
$ACADVER
  1
AC1024
  9
$DWGCODEPAGE
  3
ANSI_1252
  9
$EXTMAX
 10
297.0
 20
210.0
 30
0.0
  9
$EXTMIN
 10
0.0
 20
0.0
 30
0.0
  9
$LIMMIN
 10
0.0
 20
0.0
  9
$LIMMAX
 10
297.0
 20
210.0
  9
$VIEWCTR
 10
148.5
 20
105.0
  9
$VIEWSIZE
 40
210.0
  9
$CLAYER
  8
0
  9
$LTSCALE
 40
16.335
  9
$CELTYPE
  6
BYLAYER
  9
$DIMSCALE
 40
1.0
  9
$DIMASZ
 40
3.0
  9
$DIMEXO
 40
0.5
  9
$DIMDLI
 40
11.286
  9
$DIMEXE
 40
1.5
  9
$DIMCEN
 40
2.673
  9
$DIMLFAC
 40
1.0
  9
$DIMBLK
  1
_FILLED
  9
$DIMALT
 70
0
  9
$DIMALTF
 40
0.0393700787
  9
$DIMTXT
 40
3.0
  9
$DIMTOL
 70
1
  9
$DIMLIM
 70
0
  9
$DIMTFAC
 40
1.0
  9
$DIMTP
 40
0.01
  9
$DIMTM
 40
0.01
  9
$DIMGAP
 40
0.625
  9
$DIMDSEP
 70
44
  9
$AUNITS
 70
0
  9
$PDMODE
 70
3
  9
$PDSIZE
 40
3.0
  9
$HANDSEED
  5
40A
  9
$TILEMODE
 70
1
  9
$MEASUREMENT
 70
1
  9
$INSUNITS
 70
4
  0
ENDSEC
  0
SECTION
  2
CLASSES
  0
CLASS
  1
ACDBDICTIONARYWDFLT
  2
AcDbDictionaryWithDefault
  3
AutoCAD 2000
 90
0
 91
1
280
0
281
0
  0
CLASS
  1
ACDBPLACEHOLDER
  2
AcDbPlaceHolder
  3
AutoCAD 2000
 90
0
 91
1
280
0
281
0
  0
CLASS
  1
LAYOUT
  2
AcDbLayout
  3
AutoCAD 2000
 90
0
 91
0
280
0
281
0
  0
ENDSEC
  0
SECTION
  2
TABLES
  0
TABLE
  2
VPORT
  5
8
100
AcDbSymbolTable
 70
2
  0
VPORT
  5
1F4
100
AcDbSymbolTableRecord
100
AcDbViewportTableRecord
  2
*ACTIVE
 70
0
 10
0.0
 20
0.0
 11
1.0
 21
1.0
 12
148.5
 22
105.0
 13
0.0
 23
0.0
 14
1.0
 24
1.0
 15
0.0
 25
0.0
 16
0.0
 26
0.0
 36
1.0
 17
0.0
 27
0.0
 37
0.0
 40
210.0
 41
1.4142857143
 42
50.0
 43
0.0
 44
0.0
 50
0.0
 51
0.0
 71
0
 72
100
 73
1
 74
1
 75
0
 76
0
 77
0
 78
0
  0
ENDTAB
  0
TABLE
  2
LTYPE
  5
5
100
AcDbSymbolTable
 70
6
  0
LTYPE
  5
14
100
AcDbSymbolTableRecord
100
AcDbLinetypeTableRecord
  2
BYBLOCK
 70
0
  3

 72
65
 73
0
 40
0.0
  0
LTYPE
  5
15
100
AcDbSymbolTableRecord
100
AcDbLinetypeTableRecord
  2
BYLAYER
 70
0
  3

 72
65
 73
0
 40
0.0
  0
LTYPE
  5
16
100
AcDbSymbolTableRecord
100
AcDbLinetypeTableRecord
  2
CONTINUOUS
 70
64
  3
Solid line
 72
65
 73
0
 40
0.0
  0
LTYPE
  5
1F5
100
AcDbSymbolTableRecord
100
AcDbLinetypeTableRecord
  2
CENTER
 70
64
  3
____ _ ____ _ ____ _ ____ _ ____ _ ____ _ ____
 72
65
 73
4
 40
0.6
 49
0.375
 74
0
 49
-0.075
 74
0
 49
0.075
 74
0
 49
-0.075
 74
0
  0
LTYPE
  5
1F6
100
AcDbSymbolTableRecord
100
AcDbLinetypeTableRecord
  2
HIDDEN
 70
64
  3
- - - - - - - - - - - - - - - - - - - -
 72
65
 73
2
 40
0.2
 49
0.1
 74
0
 49
-0.1
 74
0
  0
LTYPE
  5
1F7
100
AcDbSymbolTableRecord
100
AcDbLinetypeTableRecord
  2
PHANTOM
 70
64
  3
_____ _ _ _____ _ _ _____ _ _ _____
 72
65
 73
6
 40
0.8
 49
0.45
 74
0
 49
-0.05
 74
0
 49
0.1
 74
0
 49
-0.05
 74
0
 49
0.1
 74
0
 49
-0.05
 74
0
  0
LTYPE
  5
1F8
100
AcDbSymbolTableRecord
100
AcDbLinetypeTableRecord
  2
DOT
 70
64
  3
. . . . . . . . . . . . . . . . . . . .
 72
65
 73
2
 40
0.2
 49
0.1
 74
0
 49
-0.1
 74
0
  0
LTYPE
  5
1F9
100
AcDbSymbolTableRecord
100
AcDbLinetypeTableRecord
  2
DASHED
 70
64
  3
- - - - - - - - - - - - - - - - - - - -
 72
65
 73
2
 40
0.2
 49
0.1
 74
0
 49
-0.1
 74
0
  0
ENDTAB
  0
TABLE
  2
LAYER
  5
2
100
AcDbSymbolTable
 70
36
  0
LAYER
  5
10
100
AcDbSymbolTableRecord
100
AcDbLayerTableRecord
  2
0
 70
0
 62
7
  6
CONTINUOUS
370
-3
390
F
  0
LAYER
  5
1FA
100
AcDbSymbolTableRecord
100
AcDbLayerTableRecord
  2
DEFAULT_1
 70
0
 62
7
  6
CENTER
370
-3
390
F
  0
LAYER
  5
1FB
100
AcDbSymbolTableRecord
100
AcDbLayerTableRecord
  2
DEFAULT_2
 70
0
 62
7
  6
HIDDEN
370
-3
390
F
  0
LAYER
  5
1FC
100
AcDbSymbolTableRecord
100
AcDbLayerTableRecord
  2
DEFAULT_3
 70
0
 62
7
  6
PHANTOM
370
-3
390
F
  0
LAYER
  5
1FD
100
AcDbSymbolTableRecord
100
AcDbLayerTableRecord
  2
ASSI
 70
0
 62
7
  6
CONTINUOUS
370
-3
390
F
  0
LAYER
  5
1FE
100
AcDbSymbolTableRecord
100
AcDbLayerTableRecord
  2
COLOR5
 70
0
 62
7
  6
CONTINUOUS
370
-3
390
F
  0
LAYER
  5
1FF
100
AcDbSymbolTableRecord
100
AcDbLayerTableRecord
  2
COORDINATE
 70
0
 62
7
  6
CONTINUOUS
370
-3
390
F
  0
LAYER
  5
200
100
AcDbSymbolTableRecord
100
AcDbLayerTableRecord
  2
COORD_ORIGINE
 70
0
 62
7
  6
CONTINUOUS
370
-3
390
F
  0
LAYER
  5
201
100
AcDbSymbolTableRecord
100
AcDbLayerTableRecord
  2
CURVE
 70
0
 62
7
  6
CONTINUOUS
370
-3
390
F
  0
LAYER
  5
202
100
AcDbSymbolTableRecord
100
AcDbLayerTableRecord
  2
DRAFT
 70
0
 62
7
  6
CONTINUOUS
370
-3
390
F
  0
LAYER
  5
203
100
AcDbSymbolTableRecord
100
AcDbLayerTableRecord
  2
IGES_INCISIONI
 70
0
 62
7
  6
CONTINUOUS
370
-3
390
F
  0
LAYER
  5
204
100
AcDbSymbolTableRecord
100
AcDbLayerTableRecord
  2
INTF_1
 70
0
 62
7
  6
CONTINUOUS
370
-3
390
F
  0
LAYER
  5
205
100
AcDbSymbolTableRecord
100
AcDbLayerTableRecord
  2
INTF_7
 70
0
 62
7
  6
CONTINUOUS
370
-3
390
F
  0
LAYER
  5
206
100
AcDbSymbolTableRecord
100
AcDbLayerTableRecord
  2
MARCHI
 70
0
 62
7
  6
CONTINUOUS
370
-3
390
F
  0
LAYER
  5
207
100
AcDbSymbolTableRecord
100
AcDbLayerTableRecord
  2
NOTE
 70
0
 62
7
  6
CONTINUOUS
370
-3
390
F
  0
LAYER
  5
208
100
AcDbSymbolTableRecord
100
AcDbLayerTableRecord
  2
PIANI
 70
0
 62
7
  6
CONTINUOUS
370
-3
390
F
  0
LAYER
  5
209
100
AcDbSymbolTableRecord
100
AcDbLayerTableRecord
  2
PIANI_ORIGINE
 70
0
 62
7
  6
CONTINUOUS
370
-3
390
F
  0
LAYER
  5
20A
100
AcDbSymbolTableRecord
100
AcDbLayerTableRecord
  2
PUNTI
 70
0
 62
7
  6
CONTINUOUS
370
-3
390
F
  0
LAYER
  5
20B
100
AcDbSymbolTableRecord
100
AcDbLayerTableRecord
  2
RACCORDO
 70
0
 62
7
  6
CONTINUOUS
370
-3
390
F
  0
LAYER
  5
20C
100
AcDbSymbolTableRecord
100
AcDbLayerTableRecord
  2
RGB__255__255__255__
 70
0
 62
7
  6
CONTINUOUS
370
-3
390
F
  0
LAYER
  5
20D
100
AcDbSymbolTableRecord
100
AcDbLayerTableRecord
  2
RGB____0____0____0__
 70
0
 62
7
  6
CONTINUOUS
370
-3
390
F
  0
LAYER
  5
20E
100
AcDbSymbolTableRecord
100
AcDbLayerTableRecord
  2
SKEL
 70
0
 62
7
  6
CONTINUOUS
370
-3
390
F
  0
LAYER
  5
20F
100
AcDbSymbolTableRecord
100
AcDbLayerTableRecord
  2
SMUSSO
 70
0
 62
7
  6
CONTINUOUS
370
-3
390
F
  0
LAYER
  5
210
100
AcDbSymbolTableRecord
100
AcDbLayerTableRecord
  2
SNAPLINE
 70
0
 62
7
  6
CONTINUOUS
370
-3
390
F
  0
LAYER
  5
211
100
AcDbSymbolTableRecord
100
AcDbLayerTableRecord
  2
SUPERFICI
 70
0
 62
7
  6
CONTINUOUS
370
-3
390
F
  0
LAYER
  5
212
100
AcDbSymbolTableRecord
100
AcDbLayerTableRecord
  2
TRASH
 70
0
 62
7
  6
CONTINUOUS
370
-3
390
F
  0
LAYER
  5
213
100
AcDbSymbolTableRecord
100
AcDbLayerTableRecord
  2
XSEC_DATUMS
 70
0
 62
7
  6
CONTINUOUS
370
-3
390
F
  0
ENDTAB
  0
TABLE
  2
STYLE
  5
3
100
AcDbSymbolTable
 70
1
  0
STYLE
  5
11
100
AcDbSymbolTableRecord
100
AcDbTextStyleTableRecord
  2
STANDARD
 70
0
 40
0.0
 41
0.8
 50
0.0
 71
0
 42
0.2
  3
txt
  4

  0
STYLE
  5
214
100
AcDbSymbolTableRecord
100
AcDbTextStyleTableRecord
  2
TEXTSTYLE_1
 70
0
 40
0.0
 41
0.8
 50
0.0
 71
0
 42
0.2
  3
gdt
  4

  0
ENDTAB
  0
TABLE
  2
VIEW
  5
6
100
AcDbSymbolTable
 70
0
  0
ENDTAB
  0
TABLE
  2
UCS
  5
7
100
AcDbSymbolTable
 70
0
  0
ENDTAB
  0
TABLE
  2
APPID
  5
9
100
AcDbSymbolTable
 70
1
  0
APPID
  5
215
100
AcDbSymbolTableRecord
100
AcDbRegAppTableRecord
  2
ACAD
 70
0
  0
ENDTAB
  0
TABLE
  2
BLOCK_RECORD
  5
1
100
AcDbSymbolTable
 70
0
  0
BLOCK_RECORD
  5
216
100
AcDbSymbolTableRecord
100
AcDbBlockTableRecord
  2
*Model_Space
  0
BLOCK_RECORD
  5
217
100
AcDbSymbolTableRecord
100
AcDbBlockTableRecord
  2
*Paper_Space
  0
BLOCK_RECORD
  5
218
100
AcDbSymbolTableRecord
100
AcDbBlockTableRecord
  2
_FILLED
  0
ENDTAB
  0
TABLE
  2
DIMSTYLE
  5
A
100
AcDbSymbolTable
 70
1
100
AcDbDimStyleTable
 71
0
  0
DIMSTYLE
105
219
100
AcDbSymbolTableRecord
100
AcDbDimStyleTableRecord
  2
STANDARD
 70
0
  3

  4

 40
1.0
 41
3.0
 42
0.5
 43
0.38
 44
1.5
 45
0.0
 46
0.0
 47
0.01
 48
0.01
140
3.0
141
0.09
142
0.0
143
25.4
144
1.0
145
0.0
146
1.0
147
0.625
 71
1
 72
0
 73
0
 74
0
 75
0
 76
0
 77
1
 78
8
 79
2
170
0
171
1
172
0
173
0
174
0
175
0
176
0
177
0
178
0
270
2
179
2
271
2
272
2
273
2
274
2
275
0
280
0
281
0
282
0
283
1
284
8
285
0
286
0
287
3
288
0
340
11
278
44
341
218
342
218
343
218
344
218
  0
ENDTAB
  0
ENDSEC
  0
SECTION
  2
BLOCKS
  0
BLOCK
  5
20
100
AcDbEntity
  8
0
100
AcDbBlockBegin
  2
*Model_Space
 70
0
 10
0.0
 20
0.0
 30
0.0
  3
*Model_Space
  1

  0
ENDBLK
  5
21
100
AcDbEntity
  8
0
100
AcDbBlockEnd
  0
BLOCK
  5
1C
100
AcDbEntity
  8
0
100
AcDbBlockBegin
  2
*Paper_Space
 70
0
 10
0.0
 20
0.0
 30
0.0
  3
*Paper_Space
  1

  0
ENDBLK
  5
1D
100
AcDbEntity
  8
0
100
AcDbBlockEnd
  0
BLOCK
  5
21A
100
AcDbEntity
  8
0
100
AcDbBlockBegin
  2
_FILLED
 70
64
 10
0.0
 20
0.0
  3
_FILLED
  1

  0
SOLID
  5
21B
100
AcDbEntity
  8
0
  6
BYBLOCK
 62
0
100
AcDbTrace
 10
0.0
 20
0.0
 11
-1.0
 21
0.3166666667
 12
-1.0
 22
-0.3166666667
 13
-1.0
 23
-0.3166666667
  0
ENDBLK
  5
21C
100
AcDbEntity
  8
0
  6
BYBLOCK
 62
0
100
AcDbBlockEnd
  0
ENDSEC
  0
SECTION
  2
ENTITIES
  0
LINE
  5
21D
100
AcDbEntity
  8
DRAFT
100
AcDbLine
 62
7
  6
CONTINUOUS
 10
-66.0
 20
91.0
 11
-66.1378845111
 21
90.8621154889
  0
LINE
  5
21E
100
AcDbEntity
  8
DRAFT
100
AcDbLine
 62
7
  6
CONTINUOUS
 10
-60.5
 20
96.5
 11
-60.3621154889
 21
96.6378845111
  0
LWPOLYLINE
  5
21F
100
AcDbEntity
  8
RACCORDO
100
AcDbPolyline
 62
250
  6
CONTINUOUS
 90
8
 70
0
 10
-55.0538573308
 20
97.9499522117
 10
-55.0510270834
 20
97.9513857217
 10
-55.0410830212
 20
97.9527997894
 10
-55.0240251444
 20
97.9541944148
 10
-54.999689964
 20
97.9555828823
 10
-54.968240969
 20
97.9569519074
 10
-54.930168626
 20
97.9582616372
 10
-54.8852063018
 20
97.9595098517
  0
LINE
  5
220
100
AcDbEntity
  8
DRAFT
100
AcDbLine
 62
7
  6
CONTINUOUS
 10
-66.0
 20
-91.0
 11
-66.1378845111
 21
-90.8621154889
  0
LINE
  5
221
100
AcDbEntity
  8
DRAFT
100
AcDbLine
 62
7
  6
CONTINUOUS
 10
-60.5
 20
-96.5
 11
-60.3621154889
 21
-96.6378845111
  0
LWPOLYLINE
  5
222
100
AcDbEntity
  8
RACCORDO
100
AcDbPolyline
 62
250
  6
CONTINUOUS
 90
7
 70
0
 10
-48.4090383868
 20
96.9199227178
 10
-48.4394383517
 20
96.8975550491
 10
-48.4704091048
 20
96.8792394145
 10
-48.5019506462
 20
96.8650030195
 10
-48.5340629759
 20
96.8548630216
 10
-48.5667460938
 20
96.8488295194
 10
-48.6
 20
96.8469076856
  0
LWPOLYLINE
  5
223
100
AcDbEntity
  8
RACCORDO
100
AcDbPolyline
 62
7
  6
CONTINUOUS
 90
10
 70
0
 10
47.9461426692
 20
-97.9499521987
 10
48.0396398783
 20
-97.9436915695
 10
48.1314614913
 20
-97.9250001052
 10
48.2199619412
 20
-97.8942127823
 10
48.3035551802
 20
-97.8518813512
 10
48.3807431048
 20
-97.7987644482
 10
48.4501424033
 20
-97.7358139999
 10
48.5105093468
 20
-97.6641581632
 10
48.5607620779
 20
-97.5850811074
 10
48.6
 20
-97.5
  0
LWPOLYLINE
  5
224
100
AcDbEntity
  8
RACCORDO
100
AcDbPolyline
 62
250
  6
CONTINUOUS
 90
10
 70
0
 10
47.9810015641
 20
-97.8730638048
 10
48.065186133
 20
-97.8679914927
 10
48.1481481814
 20
-97.8528327049
 10
48.2286834648
 20
-97.8278074806
 10
48.3056229648
 20
-97.7932790761
 10
48.3778498578
 20
-97.7497486921
 10
48.4443157268
 20
-97.6978481987
 10
48.5040557795
 20
-97.6383309628
 10
48.5562028527
 20
-97.5720609132
 10
48.6
 20
-97.5
  0
LINE
  5
225
100
AcDbEntity
  8
RACCORDO
100
AcDbLine
 62
250
  6
CONTINUOUS
 10
54.8852063018
 20
-97.9595098517
 11
54.7767019759
 21
-97.9617952008
  0
LINE
  5
226
100
AcDbEntity
  8
RACCORDO
100
AcDbLine
 62
250
  6
CONTINUOUS
 10
54.7767019759
 20
-97.9617952008
 11
54.6464618769
 21
-97.9637036047
  0
LINE
  5
227
100
AcDbEntity
  8
RACCORDO
100
AcDbLine
 62
250
  6
CONTINUOUS
 10
54.6464618769
 20
-97.9637036047
 11
54.4222279785
 21
-97.9657269813
  0
LINE
  5
228
100
AcDbEntity
  8
RACCORDO
100
AcDbLine
 62
250
  6
CONTINUOUS
 10
54.4222279785
 20
-97.9657269813
 11
54.1821087126
 21
-97.9666504786
  0
LINE
  5
229
100
AcDbEntity
  8
DRAFT
100
AcDbLine
 62
7
  6
CONTINUOUS
 10
-62.0
 20
-98.5
 11
62.0
 21
-98.5
  0
LINE
  5
22A
100
AcDbEntity
  8
SUPERFICI
100
AcDbLine
 62
7
  6
CONTINUOUS
 10
61.9999789838
 20
-98.5000003491
 11
-61.9999789838
 21
-98.5000003491
  0
LINE
  5
22B
100
AcDbEntity
  8
RACCORDO
100
AcDbLine
 62
250
  6
CONTINUOUS
 10
54.1821087126
 20
-97.9666504786
 11
48.9
 21
-97.9667094077
  0
LINE
  5
22C
100
AcDbEntity
  8
RACCORDO
100
AcDbLine
 62
250
  6
CONTINUOUS
 10
-62.0
 20
-97.8730280729
 11
47.9810015616
 21
-97.8730280729
  0
LINE
  5
22D
100
AcDbEntity
  8
RACCORDO
100
AcDbLine
 62
250
  6
CONTINUOUS
 10
55.0189984384
 20
-97.8730280729
 11
62.0
 21
-97.8730280729
  0
LINE
  5
22E
100
AcDbEntity
  8
RACCORDO
100
AcDbLine
 62
7
  6
CONTINUOUS
 10
48.6
 20
-97.5
 11
54.4
 21
-97.5
  0
LINE
  5
22F
100
AcDbEntity
  8
RACCORDO
100
AcDbLine
 62
250
  6
CONTINUOUS
 10
48.6
 20
-96.8469076856
 11
54.4
 21
-96.8469076856
  0
LINE
  5
230
100
AcDbEntity
  8
RACCORDO
100
AcDbLine
 62
250
  6
CONTINUOUS
 10
-62.0
 20
-96.7731956082
 11
62.0
 21
-96.7731956082
  0
LINE
  5
231
100
AcDbEntity
  8
DRAFT
100
AcDbLine
 62
7
  6
CONTINUOUS
 10
-62.0
 20
-96.6378845111
 11
-60.3621154889
 21
-96.6378845111
  0
LINE
  5
232
100
AcDbEntity
  8
DRAFT
100
AcDbLine
 62
7
  6
CONTINUOUS
 10
62.0
 20
-96.6378845111
 11
60.3621154889
 21
-96.6378845111
  0
LINE
  5
233
100
AcDbEntity
  8
DRAFT
100
AcDbLine
 62
7
  6
CONTINUOUS
 10
-62.0
 20
-96.5
 11
-60.5
 21
-96.5
  0
LINE
  5
234
100
AcDbEntity
  8
DRAFT
100
AcDbLine
 62
7
  6
CONTINUOUS
 10
62.0
 20
-96.5
 11
60.5
 21
-96.5
  0
LWPOLYLINE
  5
235
100
AcDbEntity
  8
ASSI
100
AcDbPolyline
 62
7
  6
CONTINUOUS
 90
22
 70
0
 10
-34.0
 20
-98.3166912456
 10
-34.8672545225
 20
-98.3161040942
 10
-35.720251436
 20
-98.3144267492
 10
-36.5589907405
 20
-98.3116592105
 10
-37.3879866603
 20
-98.3077739105
 10
-38.2027249711
 20
-98.3027984167
 10
-38.9896629999
 20
-98.2968154326
 10
-39.7483360726
 20
-98.2898081181
 10
-40.4792088633
 20
-98.2817933131
 10
-41.1701327214
 20
-98.2729042408
 10
-41.8204399112
 20
-98.2631262878
 10
-42.4307981684
 20
-98.2524740674
 10
-42.9910620484
 20
-98.241124642
 10
-43.5003942374
 20
-98.2290663581
 10
-43.9596320493
 20
-98.2163108691
 10
-44.3611419809
 20
-98.2030701982
 10
-44.7039591264
 20
-98.1893362359
 10
-44.9890483915
 20
-98.1751170918
 10
-45.2116709901
 20
-98.1606491181
 10
-45.3707828089
 20
-98.1459281556
 10
-45.4674279611
 20
-98.1309583636
 10
-45.5
 20
-98.1159885716
  0
LWPOLYLINE
  5
236
100
AcDbEntity
  8
ASSI
100
AcDbPolyline
 62
7
  6
CONTINUOUS
 90
22
 70
0
 10
-0.0
 20
-98.3166912456
 10
-0.8672545225
 20
-98.3161040942
 10
-1.720251436
 20
-98.3144267492
 10
-2.5589907405
 20
-98.3116592105
 10
-3.3879866603
 20
-98.3077739105
 10
-4.2027249711
 20
-98.3027984167
 10
-4.9896629999
 20
-98.2968154326
 10
-5.7483360726
 20
-98.2898081181
 10
-6.4792088633
 20
-98.2817933131
 10
-7.1701327214
 20
-98.2729042408
 10
-7.8204399112
 20
-98.2631262878
 10
-8.4307981684
 20
-98.2524740674
 10
-8.9910620484
 20
-98.241124642
 10
-9.5003942374
 20
-98.2290663581
 10
-9.9596320493
 20
-98.2163108691
 10
-10.3611419809
 20
-98.2030701982
 10
-10.7039591264
 20
-98.1893362359
 10
-10.9890483915
 20
-98.1751170918
 10
-11.2116709901
 20
-98.1606491181
 10
-11.3707828089
 20
-98.1459281556
 10
-11.4674279611
 20
-98.1309583636
 10
-11.5
 20
-98.1159885716
  0
LWPOLYLINE
  5
237
100
AcDbEntity
  8
ASSI
100
AcDbPolyline
 62
7
  6
CONTINUOUS
 90
22
 70
0
 10
34.0
 20
-98.3166912456
 10
33.1327454775
 20
-98.3161040942
 10
32.279748564
 20
-98.3144267492
 10
31.4410092595
 20
-98.3116592105
 10
30.6120133397
 20
-98.3077739105
 10
29.7972750289
 20
-98.3027984167
 10
29.0103370001
 20
-98.2968154326
 10
28.2516639274
 20
-98.2898081181
 10
27.5207911367
 20
-98.2817933131
 10
26.8298672786
 20
-98.2729042408
 10
26.1795600888
 20
-98.2631262878
 10
25.5692018316
 20
-98.2524740674
 10
25.0089379516
 20
-98.241124642
 10
24.4996057626
 20
-98.2290663581
 10
24.0403679507
 20
-98.2163108691
 10
23.6388580191
 20
-98.2030701982
 10
23.2960408736
 20
-98.1893362359
 10
23.0109516085
 20
-98.1751170918
 10
22.7883290099
 20
-98.1606491181
 10
22.6292171911
 20
-98.1459281556
 10
22.5325720389
 20
-98.1309583636
 10
22.5
 20
-98.1159885716
  0
LWPOLYLINE
  5
238
100
AcDbEntity
  8
ASSI
100
AcDbPolyline
 62
7
  6
CONTINUOUS
 90
22
 70
0
 10
-34.0
 20
-97.9152858976
 10
-33.1327454775
 20
-97.9158730489
 10
-32.279748564
 20
-97.9175503939
 10
-31.4410092595
 20
-97.9203179326
 10
-30.6120133397
 20
-97.9242032327
 10
-29.7972750289
 20
-97.9291787264
 10
-29.0103370001
 20
-97.9351617106
 10
-28.2516639274
 20
-97.9421690251
 10
-27.5207911367
 20
-97.95018383
 10
-26.8298672786
 20
-97.9590729024
 10
-26.1795600888
 20
-97.9688508554
 10
-25.5692018316
 20
-97.9795030757
 10
-25.0089379516
 20
-97.9908525011
 10
-24.4996057626
 20
-98.0029107851
 10
-24.0403679507
 20
-98.0156662741
 10
-23.6388580191
 20
-98.0289069449
 10
-23.2960408736
 20
-98.0426409072
 10
-23.0109516085
 20
-98.0568600514
 10
-22.7883290099
 20
-98.0713280251
 10
-22.6292171911
 20
-98.0860489875
 10
-22.5325720389
 20
-98.1010187796
 10
-22.5
 20
-98.1159885716
  0
LWPOLYLINE
  5
239
100
AcDbEntity
  8
ASSI
100
AcDbPolyline
 62
7
  6
CONTINUOUS
 90
22
 70
0
 10
-0.0
 20
-97.9152858976
 10
0.8672545225
 20
-97.9158730489
 10
1.720251436
 20
-97.9175503939
 10
2.5589907405
 20
-97.9203179326
 10
3.3879866603
 20
-97.9242032327
 10
4.2027249711
 20
-97.9291787264
 10
4.9896629999
 20
-97.9351617106
 10
5.7483360726
 20
-97.9421690251
 10
6.4792088633
 20
-97.95018383
 10
7.1701327214
 20
-97.9590729024
 10
7.8204399112
 20
-97.9688508554
 10
8.4307981684
 20
-97.9795030757
 10
8.9910620484
 20
-97.9908525011
 10
9.5003942374
 20
-98.0029107851
 10
9.9596320493
 20
-98.0156662741
 10
10.3611419809
 20
-98.0289069449
 10
10.7039591264
 20
-98.0426409072
 10
10.9890483915
 20
-98.0568600514
 10
11.2116709901
 20
-98.0713280251
 10
11.3707828089
 20
-98.0860489875
 10
11.4674279611
 20
-98.1010187796
 10
11.5
 20
-98.1159885716
  0
LWPOLYLINE
  5
23A
100
AcDbEntity
  8
ASSI
100
AcDbPolyline
 62
7
  6
CONTINUOUS
 90
22
 70
0
 10
34.0
 20
-97.9152858976
 10
34.8672545225
 20
-97.9158730489
 10
35.720251436
 20
-97.9175503939
 10
36.5589907405
 20
-97.9203179326
 10
37.3879866603
 20
-97.9242032327
 10
38.2027249711
 20
-97.9291787264
 10
38.9896629999
 20
-97.9351617106
 10
39.7483360726
 20
-97.9421690251
 10
40.4792088633
 20
-97.95018383
 10
41.1701327214
 20
-97.9590729024
 10
41.8204399112
 20
-97.9688508554
 10
42.4307981684
 20
-97.9795030757
 10
42.9910620484
 20
-97.9908525011
 10
43.5003942374
 20
-98.0029107851
 10
43.9596320493
 20
-98.0156662741
 10
44.3611419809
 20
-98.0289069449
 10
44.7039591264
 20
-98.0426409072
 10
44.9890483915
 20
-98.0568600514
 10
45.2116709901
 20
-98.0713280251
 10
45.3707828089
 20
-98.0860489875
 10
45.4674279611
 20
-98.1010187796
 10
45.5
 20
-98.1159885716
  0
LINE
  5
23B
100
AcDbEntity
  8
RACCORDO
100
AcDbLine
 62
250
  6
CONTINUOUS
 10
48.9
 20
-97.9667094077
 11
48.6571450318
 21
-97.9661606668
  0
LINE
  5
23C
100
AcDbEntity
  8
RACCORDO
100
AcDbLine
 62
250
  6
CONTINUOUS
 10
48.6571450318
 20
-97.9661606668
 11
48.4247227495
 21
-97.9644959748
  0
LINE
  5
23D
100
AcDbEntity
  8
RACCORDO
100
AcDbLine
 62
250
  6
CONTINUOUS
 10
48.4247227495
 20
-97.9644959748
 11
48.2857074646
 21
-97.9627949866
  0
LWPOLYLINE
  5
23E
100
AcDbEntity
  8
RACCORDO
100
AcDbPolyline
 62
250
  6
CONTINUOUS
 90
10
 70
0
 10
48.2857074646
 20
-97.9627949866
 10
48.1663417481
 20
-97.9606979953
 10
48.1147639634
 20
-97.9595091
 10
48.0698093023
 20
-97.9582609544
 10
48.0317438991
 20
-97.9569513628
 10
48.0003016195
 20
-97.9555825211
 10
47.9759714572
 20
-97.9541942072
 10
47.9589164104
 20
-97.9527996808
 10
47.9489734811
 20
-97.9513856823
 10
47.9461426692
 20
-97.9499522117
  0
LWPOLYLINE
  5
23F
100
AcDbEntity
  8
RACCORDO
100
AcDbPolyline
 62
250
  6
CONTINUOUS
 90
10
 70
0
 10
-66.4251957628
 20
-86.5975988336
 10
-66.529685504
 20
-86.565884613
 10
-66.6290504235
 20
-86.5349781254
 10
-66.7207597847
 20
-86.5056665319
 10
-66.8024778314
 20
-86.4786963728
 10
-66.8721232771
 20
-86.454754554
 10
-66.9279223142
 20
-86.4344508527
 10
-66.9684537904
 20
-86.418302386
 10
-66.9926854049
 20
-86.4067204411
 10
-67.0
 20
-86.4
  0
LWPOLYLINE
  5
240
100
AcDbEntity
  8
RACCORDO
100
AcDbPolyline
 62
250
  6
CONTINUOUS
 90
10
 70
0
 10
-67.4499522117
 20
-79.9461426692
 10
-67.4413426765
 20
-79.94949657
 10
-67.4327487428
 20
-79.9529789475
 10
-67.4241704107
 20
-79.9565898018
 10
-67.4156076792
 20
-79.9603273319
 10
-67.4070605494
 20
-79.9641933388
 10
-67.3985290235
 20
-79.968193225
 10
-67.3900131026
 20
-79.9723287913
 10
-67.3815127857
 20
-79.9765982368
 10
-67.3730280729
 20
-79.9810015616
  0
LWPOLYLINE
  5
241
100
AcDbEntity
  8
RACCORDO
100
AcDbPolyline
 62
250
  6
CONTINUOUS
 90
7
 70
0
 10
-66.4199227178
 20
-80.4090383868
 10
-66.3975550491
 20
-80.4394383517
 10
-66.3792394145
 20
-80.4704091048
 10
-66.3650030195
 20
-80.5019506462
 10
-66.3548630216
 20
-80.5340629759
 10
-66.3488295194
 20
-80.5667460938
 10
-66.3469076856
 20
-80.6
  0
LWPOLYLINE
  5
242
100
AcDbEntity
  8
RACCORDO
100
AcDbPolyline
 62
250
  6
CONTINUOUS
 90
8
 70
0
 10
-67.4499522117
 20
-87.0538573308
 10
-67.4513857217
 20
-87.0510270834
 10
-67.4527997894
 20
-87.0410830212
 10
-67.4541944148
 20
-87.0240251444
 10
-67.4555828823
 20
-86.999689964
 10
-67.4569519074
 20
-86.968240969
 10
-67.4582616372
 20
-86.930168626
 10
-67.4595098517
 20
-86.8852063018
  0
LWPOLYLINE
  5
243
100
AcDbEntity
  8
0
100
AcDbPolyline
 62
7
  6
CONTINUOUS
 90
22
 70
0
 10
-67.6159885716
 20
67.0
 10
-67.6309583636
 20
66.9674279611
 10
-67.6459281556
 20
66.8707828089
 10
-67.6606491181
 20
66.7116709901
 10
-67.6751170918
 20
66.4890483915
 10
-67.6893362359
 20
66.2039591264
 10
-67.7030701982
 20
65.8611419809
 10
-67.7163108691
 20
65.4596320493
 10
-67.7290663581
 20
65.0003942374
 10
-67.741124642
 20
64.4910620484
 10
-67.7524740674
 20
63.9307981684
 10
-67.7631262878
 20
63.3204399112
 10
-67.7729042408
 20
62.6701327214
 10
-67.7817933131
 20
61.9792088633
 10
-67.7898081181
 20
61.2483360726
 10
-67.7968154326
 20
60.4896629999
 10
-67.8027984167
 20
59.7027249711
 10
-67.8077739105
 20
58.8879866603
 10
-67.8116592105
 20
58.0589907405
 10
-67.8144267492
 20
57.220251436
 10
-67.8161040942
 20
56.3672545225
 10
-67.8166912456
 20
55.5
  0
LINE
  5
244
100
AcDbEntity
  8
DRAFT
100
AcDbLine
 62
250
  6
CONTINUOUS
 10
60.5
 20
-92.5
 11
60.3621154889
 21
-92.5
  0
LINE
  5
245
100
AcDbEntity
  8
DRAFT
100
AcDbLine
 62
250
  6
CONTINUOUS
 10
-60.5
 20
-92.5
 11
-60.3621154889
 21
-92.5
  0
LINE
  5
246
100
AcDbEntity
  8
DRAFT
100
AcDbLine
 62
250
  6
CONTINUOUS
 10
66.0
 20
-92.5
 11
66.1378845111
 21
-92.5
  0
LINE
  5
247
100
AcDbEntity
  8
DRAFT
100
AcDbLine
 62
250
  6
CONTINUOUS
 10
-66.0
 20
-92.5
 11
-66.1378845111
 21
-92.5
  0
LINE
  5
248
100
AcDbEntity
  8
RACCORDO
100
AcDbLine
 62
250
  6
CONTINUOUS
 10
66.2731956082
 20
-92.5
 11
68.0
 21
-92.5
  0
LINE
  5
249
100
AcDbEntity
  8
RACCORDO
100
AcDbLine
 62
250
  6
CONTINUOUS
 10
-66.2731956082
 20
-92.5
 11
-68.0
 21
-92.5
  0
LINE
  5
24A
100
AcDbEntity
  8
DRAFT
100
AcDbLine
 62
7
  6
CONTINUOUS
 10
62.0
 20
-91.0
 11
66.0
 21
-91.0
  0
LINE
  5
24B
100
AcDbEntity
  8
DRAFT
100
AcDbLine
 62
7
  6
CONTINUOUS
 10
-62.0
 20
-91.0
 11
-66.0
 21
-91.0
  0
LINE
  5
24C
100
AcDbEntity
  8
DRAFT
100
AcDbLine
 62
7
  6
CONTINUOUS
 10
62.0
 20
-90.8621154889
 11
66.1378845111
 21
-90.8621154889
  0
LINE
  5
24D
100
AcDbEntity
  8
DRAFT
100
AcDbLine
 62
7
  6
CONTINUOUS
 10
-62.0
 20
-90.8621154889
 11
-66.1378845111
 21
-90.8621154889
  0
LWPOLYLINE
  5
24E
100
AcDbEntity
  8
RACCORDO
100
AcDbPolyline
 62
250
  6
CONTINUOUS
 90
7
 70
0
 10
54.4
 20
-96.8469076856
 10
54.4341980983
 20
-96.8487707008
 10
54.4678902129
 20
-96.8551227904
 10
54.5010763437
 20
-96.8659579852
 10
54.5337564908
 20
-96.8812643602
 10
54.5659306541
 20
-96.9010213188
 10
54.5975988336
 20
-96.9251957628
  0
LWPOLYLINE
  5
24F
100
AcDbEntity
  8
RACCORDO
100
AcDbPolyline
 62
250
  6
CONTINUOUS
 90
10
 70
0
 10
55.0189984384
 20
-97.8730274548
 10
54.9348145028
 20
-97.8679608823
 10
54.8518526613
 20
-97.8528074684
 10
54.771317277
 20
-97.8277871965
 10
54.6943774877
 20
-97.7932632876
 10
54.6221502338
 20
-97.7497369279
 10
54.5556840432
 20
-97.6978399924
 10
54.4959438104
 20
-97.6383258726
 10
54.4437967887
 20
-97.5720585393
 10
54.4
 20
-97.5
  0
LWPOLYLINE
  5
250
100
AcDbEntity
  8
RACCORDO
100
AcDbPolyline
 62
7
  6
CONTINUOUS
 90
10
 70
0
 10
55.0538573285
 20
-97.9499826672
 10
54.9603597868
 20
-97.9437159062
 10
54.8685385773
 20
-97.925018769
 10
54.7800391417
 20
-97.8942263093
 10
54.6964473952
 20
-97.85189033
 10
54.6192613068
 20
-97.7987694942
 10
54.5498640556
 20
-97.7358157301
 10
54.4894992445
 20
-97.664157173
 10
54.4392486146
 20
-97.5850779483
 10
54.40001266
 20
-97.4999951604
  0
LWPOLYLINE
  5
251
100
AcDbEntity
  8
RACCORDO
100
AcDbPolyline
 62
250
  6
CONTINUOUS
 90
4
 70
0
 10
-67.3730280729
 20
-79.9810015616
 10
-67.3678771904
 20
-79.9818161992
 10
-67.3555162281
 20
-79.9842529771
 10
-67.3092162648
 20
-79.9938567423
  0
LWPOLYLINE
  5
252
100
AcDbEntity
  8
RACCORDO
100
AcDbPolyline
 62
250
  6
CONTINUOUS
 90
18
 70
0
 10
-67.3092162648
 20
-79.9938567423
 10
-67.2754294811
 20
-80.0010237297
 10
-67.2351029158
 20
-80.0102214926
 10
-67.1884345808
 20
-80.0214635289
 10
-67.1359438781
 20
-80.0347363408
 10
-67.0791220904
 20
-80.0504080697
 10
-67.0186058159
 20
-80.0686563813
 10
-66.9551519959
 20
-80.0893036099
 10
-66.8909764228
 20
-80.1121849001
 10
-66.8272369903
 20
-80.1373075196
 10
-66.7643601612
 20
-80.1646642008
 10
-66.7036604332
 20
-80.1940682844
 10
-66.6456840178
 20
-80.2256085335
 10
-66.5909343848
 20
-80.2591961852
 10
-66.540617039
 20
-80.2943782912
 10
-66.4953320284
 20
-80.3310038687
 10
-66.4550440598
 20
-80.3692239006
 10
-66.4199227178
 20
-80.4090383868
  0
LWPOLYLINE
  5
253
100
AcDbEntity
  8
ASSI
100
AcDbPolyline
 62
7
  6
CONTINUOUS
 90
22
 70
0
 10
-67.6159885716
 20
-67.0
 10
-67.6309583636
 20
-66.9674279611
 10
-67.6459281556
 20
-66.8707828089
 10
-67.6606491181
 20
-66.7116709901
 10
-67.6751170918
 20
-66.4890483915
 10
-67.6893362359
 20
-66.2039591264
 10
-67.7030701982
 20
-65.8611419809
 10
-67.7163108691
 20
-65.4596320493
 10
-67.7290663581
 20
-65.0003942374
 10
-67.741124642
 20
-64.4910620484
 10
-67.7524740674
 20
-63.9307981684
 10
-67.7631262878
 20
-63.3204399112
 10
-67.7729042408
 20
-62.6701327214
 10
-67.7817933131
 20
-61.9792088633
 10
-67.7898081181
 20
-61.2483360726
 10
-67.7968154326
 20
-60.4896629999
 10
-67.8027984167
 20
-59.7027249711
 10
-67.8077739105
 20
-58.8879866603
 10
-67.8116592105
 20
-58.0589907405
 10
-67.8144267492
 20
-57.220251436
 10
-67.8161040942
 20
-56.3672545225
 10
-67.8166912456
 20
-55.5
  0
LWPOLYLINE
  5
254
100
AcDbEntity
  8
RACCORDO
100
AcDbPolyline
 62
250
  6
CONTINUOUS
 90
10
 70
0
 10
-54.5975988336
 20
96.9251957628
 10
-54.565884613
 20
97.029685504
 10
-54.5349781254
 20
97.1290504235
 10
-54.5056665319
 20
97.2207597847
 10
-54.4786963728
 20
97.3024778314
 10
-54.454754554
 20
97.3721232771
 10
-54.4344508527
 20
97.4279223142
 10
-54.418302386
 20
97.4684537904
 10
-54.4067204411
 20
97.4926854049
 10
-54.4
 20
97.5
  0
LWPOLYLINE
  5
255
100
AcDbEntity
  8
RACCORDO
100
AcDbPolyline
 62
250
  6
CONTINUOUS
 90
10
 70
0
 10
-47.9461426692
 20
97.9499522117
 10
-47.94949657
 20
97.9413426765
 10
-47.9529789475
 20
97.9327487428
 10
-47.9565898018
 20
97.9241704107
 10
-47.9603273319
 20
97.9156076792
 10
-47.9641933388
 20
97.9070605494
 10
-47.968193225
 20
97.8985290235
 10
-47.9723287913
 20
97.8900131026
 10
-47.9765982368
 20
97.8815127857
 10
-47.9810015616
 20
97.8730280729
  0
LWPOLYLINE
  5
256
100
AcDbEntity
  8
0
100
AcDbPolyline
 62
7
  6
CONTINUOUS
 90
22
 70
0
 10
-67.6159885716
 20
44.0
 10
-67.6010187796
 20
44.0325720389
 10
-67.5860489875
 20
44.1292171911
 10
-67.5713280251
 20
44.2883290099
 10
-67.5568600514
 20
44.5109516085
 10
-67.5426409072
 20
44.7960408736
 10
-67.5289069449
 20
45.1388580191
 10
-67.5156662741
 20
45.5403679507
 10
-67.5029107851
 20
45.9996057626
 10
-67.4908525011
 20
46.5089379516
 10
-67.4795030757
 20
47.0692018316
 10
-67.4688508554
 20
47.6795600888
 10
-67.4590729024
 20
48.3298672786
 10
-67.45018383
 20
49.0207911367
 10
-67.4421690251
 20
49.7516639274
 10
-67.4351617106
 20
50.5103370001
 10
-67.4291787264
 20
51.2972750289
 10
-67.4242032327
 20
52.1120133397
 10
-67.4203179326
 20
52.9410092595
 10
-67.4175503939
 20
53.779748564
 10
-67.4158730489
 20
54.6327454775
 10
-67.4152858976
 20
55.5
  0
LWPOLYLINE
  5
257
100
AcDbEntity
  8
0
100
AcDbPolyline
 62
7
  6
CONTINUOUS
 90
4
 70
0
 10
-0.3531336281
 20
87.4238631224
 10
-0.4567837285
 20
87.3911386101
 10
-0.5503878883
 20
87.3459405664
 10
-0.6345475724
 20
87.2883051405
  0
LINE
  5
258
100
AcDbEntity
  8
0
100
AcDbLine
 62
7
  6
CONTINUOUS
 10
1.4920063323
 20
85.1274921018
 11
1.18655621
 21
85.0339610643
  0
LINE
  5
259
100
AcDbEntity
  8
RACCORDO
100
AcDbLine
 62
250
  6
CONTINUOUS
 10
-66.3469076856
 20
-86.4
 11
-67.0
 21
-86.3999999989
  0
LINE
  5
25A
100
AcDbEntity
  8
RACCORDO
100
AcDbLine
 62
250
  6
CONTINUOUS
 10
-67.4667094077
 20
-86.1
 11
-67.0
 21
-86.1
  0
LINE
  5
25B
100
AcDbEntity
  8
RACCORDO
100
AcDbLine
 62
250
  6
CONTINUOUS
 10
-67.4667094077
 20
-80.9
 11
-67.0000000003
 21
-80.9000000303
  0
LINE
  5
25C
100
AcDbEntity
  8
RACCORDO
100
AcDbLine
 62
250
  6
CONTINUOUS
 10
-66.3469076856
 20
-80.6
 11
-67.0
 21
-80.6
  0
LWPOLYLINE
  5
25D
100
AcDbEntity
  8
ASSI
100
AcDbPolyline
 62
7
  6
CONTINUOUS
 90
22
 70
0
 10
-67.6159885716
 20
-44.0
 10
-67.6010187796
 20
-44.0325720389
 10
-67.5860489875
 20
-44.1292171911
 10
-67.5713280251
 20
-44.2883290099
 10
-67.5568600514
 20
-44.5109516085
 10
-67.5426409072
 20
-44.7960408736
 10
-67.5289069449
 20
-45.1388580191
 10
-67.5156662741
 20
-45.5403679507
 10
-67.5029107851
 20
-45.9996057626
 10
-67.4908525011
 20
-46.5089379516
 10
-67.4795030757
 20
-47.0692018316
 10
-67.4688508554
 20
-47.6795600888
 10
-67.4590729024
 20
-48.3298672786
 10
-67.45018383
 20
-49.0207911367
 10
-67.4421690251
 20
-49.7516639274
 10
-67.4351617106
 20
-50.5103370001
 10
-67.4291787264
 20
-51.2972750289
 10
-67.4242032327
 20
-52.1120133397
 10
-67.4203179326
 20
-52.9410092595
 10
-67.4175503939
 20
-53.779748564
 10
-67.4158730489
 20
-54.6327454775
 10
-67.4152858976
 20
-55.5
  0
LWPOLYLINE
  5
25E
100
AcDbEntity
  8
RACCORDO
100
AcDbPolyline
 62
7
  6
CONTINUOUS
 90
10
 70
0
 10
-67.4499521987
 20
-79.9461426692
 10
-67.4436915695
 20
-80.0396398783
 10
-67.4250001052
 20
-80.1314614913
 10
-67.3942127823
 20
-80.2199619412
 10
-67.3518813512
 20
-80.3035551802
 10
-67.2987644482
 20
-80.3807431048
 10
-67.2358139999
 20
-80.4501424033
 10
-67.1641581632
 20
-80.5105093468
 10
-67.0850811074
 20
-80.5607620779
 10
-67.0
 20
-80.6
  0
LWPOLYLINE
  5
25F
100
AcDbEntity
  8
RACCORDO
100
AcDbPolyline
 62
250
  6
CONTINUOUS
 90
10
 70
0
 10
-67.3730638048
 20
-79.9810015641
 10
-67.3679914927
 20
-80.065186133
 10
-67.3528327049
 20
-80.1481481814
 10
-67.3278074806
 20
-80.2286834648
 10
-67.2932790761
 20
-80.3056229648
 10
-67.2497486921
 20
-80.3778498578
 10
-67.1978481987
 20
-80.4443157268
 10
-67.1383309628
 20
-80.5040557795
 10
-67.0720609132
 20
-80.5562028527
 10
-67.0
 20
-80.6
  0
LINE
  5
260
100
AcDbEntity
  8
0
100
AcDbLine
 62
7
  6
CONTINUOUS
 10
2.5351606504
 20
86.084268354
 11
2.6107684027
 21
86.1332300983
  0
LINE
  5
261
100
AcDbEntity
  8
0
100
AcDbLine
 62
7
  6
CONTINUOUS
 10
1.7551278635
 20
87.0717306009
 11
1.8237650613
 21
87.1120680589
  0
LWPOLYLINE
  5
262
100
AcDbEntity
  8
0
100
AcDbPolyline
 62
7
  6
CONTINUOUS
 90
5
 70
0
 10
1.8237650613
 20
87.1120680589
 10
1.8932686641
 20
87.1440017977
 10
1.9616408314
 20
87.1663663779
 10
2.0308794037
 20
87.180327239
 10
2.1009843809
 20
87.1858843809
  0
LWPOLYLINE
  5
263
100
AcDbEntity
  8
RACCORDO
100
AcDbPolyline
 62
250
  6
CONTINUOUS
 90
4
 70
0
 10
-67.3084284202
 20
-87.0059938452
 10
-67.3551366491
 20
-87.0156372686
 10
-67.3677507952
 20
-87.0181193609
 10
-67.3730280729
 20
-87.0189984384
  0
LINE
  5
264
100
AcDbEntity
  8
0
100
AcDbLine
 62
7
  6
CONTINUOUS
 10
-51.6
 20
-73.5
 11
-51.4
 21
-73.5
  0
LINE
  5
265
100
AcDbEntity
  8
RACCORDO
100
AcDbLine
 62
250
  6
CONTINUOUS
 10
-67.4595098517
 20
-86.8852063018
 11
-67.4617952008
 21
-86.7767019759
  0
LINE
  5
266
100
AcDbEntity
  8
RACCORDO
100
AcDbLine
 62
250
  6
CONTINUOUS
 10
-67.4617952008
 20
-86.7767019759
 11
-67.4637036047
 21
-86.6464618769
  0
LINE
  5
267
100
AcDbEntity
  8
RACCORDO
100
AcDbLine
 62
250
  6
CONTINUOUS
 10
-67.4637036047
 20
-86.6464618769
 11
-67.4657269813
 21
-86.4222279785
  0
LINE
  5
268
100
AcDbEntity
  8
RACCORDO
100
AcDbLine
 62
250
  6
CONTINUOUS
 10
-67.4657269813
 20
-86.4222279785
 11
-67.4666504786
 21
-86.1821087126
  0
LWPOLYLINE
  5
269
100
AcDbEntity
  8
ASSI
100
AcDbPolyline
 62
7
  6
CONTINUOUS
 90
22
 70
0
 10
-67.8166912456
 20
0.0
 10
-67.8161040942
 20
-0.8672545225
 10
-67.8144267492
 20
-1.720251436
 10
-67.8116592105
 20
-2.5589907405
 10
-67.8077739105
 20
-3.3879866603
 10
-67.8027984167
 20
-4.2027249711
 10
-67.7968154326
 20
-4.9896629999
 10
-67.7898081181
 20
-5.7483360726
 10
-67.7817933131
 20
-6.4792088633
 10
-67.7729042408
 20
-7.1701327214
 10
-67.7631262878
 20
-7.8204399112
 10
-67.7524740674
 20
-8.4307981684
 10
-67.741124642
 20
-8.9910620484
 10
-67.7290663581
 20
-9.5003942374
 10
-67.7163108691
 20
-9.9596320493
 10
-67.7030701982
 20
-10.3611419809
 10
-67.6893362359
 20
-10.7039591264
 10
-67.6751170918
 20
-10.9890483915
 10
-67.6606491181
 20
-11.2116709901
 10
-67.6459281556
 20
-11.3707828089
 10
-67.6309583636
 20
-11.4674279611
 10
-67.6159885716
 20
-11.5
  0
LWPOLYLINE
  5
26A
100
AcDbEntity
  8
0
100
AcDbPolyline
 62
7
  6
CONTINUOUS
 90
22
 70
0
 10
-67.8166912456
 20
55.5
 10
-67.8161040942
 20
54.6327454775
 10
-67.8144267492
 20
53.779748564
 10
-67.8116592105
 20
52.9410092595
 10
-67.8077739105
 20
52.1120133397
 10
-67.8027984167
 20
51.2972750289
 10
-67.7968154326
 20
50.5103370001
 10
-67.7898081181
 20
49.7516639274
 10
-67.7817933131
 20
49.0207911367
 10
-67.7729042408
 20
48.3298672786
 10
-67.7631262878
 20
47.6795600888
 10
-67.7524740674
 20
47.0692018316
 10
-67.741124642
 20
46.5089379516
 10
-67.7290663581
 20
45.9996057626
 10
-67.7163108691
 20
45.5403679507
 10
-67.7030701982
 20
45.1388580191
 10
-67.6893362359
 20
44.7960408736
 10
-67.6751170918
 20
44.5109516085
 10
-67.6606491181
 20
44.2883290099
 10
-67.6459281556
 20
44.1292171911
 10
-67.6309583636
 20
44.0325720389
 10
-67.6159885716
 20
44.0
  0
LWPOLYLINE
  5
26B
100
AcDbEntity
  8
ASSI
100
AcDbPolyline
 62
7
  6
CONTINUOUS
 90
22
 70
0
 10
-67.4152858976
 20
0.0
 10
-67.4158730489
 20
0.8672545225
 10
-67.4175503939
 20
1.720251436
 10
-67.4203179326
 20
2.5589907405
 10
-67.4242032327
 20
3.3879866603
 10
-67.4291787264
 20
4.2027249711
 10
-67.4351617106
 20
4.9896629999
 10
-67.4421690251
 20
5.7483360726
 10
-67.45018383
 20
6.4792088633
 10
-67.4590729024
 20
7.1701327214
 10
-67.4688508554
 20
7.8204399112
 10
-67.4795030757
 20
8.4307981684
 10
-67.4908525011
 20
8.9910620484
 10
-67.5029107851
 20
9.5003942374
 10
-67.5156662741
 20
9.9596320493
 10
-67.5289069449
 20
10.3611419809
 10
-67.5426409072
 20
10.7039591264
 10
-67.5568600514
 20
10.9890483915
 10
-67.5713280251
 20
11.2116709901
 10
-67.5860489875
 20
11.3707828089
 10
-67.6010187796
 20
11.4674279611
 10
-67.6159885716
 20
11.5
  0
LWPOLYLINE
  5
26C
100
AcDbEntity
  8
0
100
AcDbPolyline
 62
7
  6
CONTINUOUS
 90
22
 70
0
 10
-67.4152858976
 20
55.5
 10
-67.4158730489
 20
56.3672545225
 10
-67.4175503939
 20
57.220251436
 10
-67.4203179326
 20
58.0589907405
 10
-67.4242032327
 20
58.8879866603
 10
-67.4291787264
 20
59.7027249711
 10
-67.4351617106
 20
60.4896629999
 10
-67.4421690251
 20
61.2483360726
 10
-67.45018383
 20
61.9792088633
 10
-67.4590729024
 20
62.6701327214
 10
-67.4688508554
 20
63.3204399112
 10
-67.4795030757
 20
63.9307981684
 10
-67.4908525011
 20
64.4910620484
 10
-67.5029107851
 20
65.0003942374
 10
-67.5156662741
 20
65.4596320493
 10
-67.5289069449
 20
65.8611419809
 10
-67.5426409072
 20
66.2039591264
 10
-67.5568600514
 20
66.4890483915
 10
-67.5713280251
 20
66.7116709901
 10
-67.5860489875
 20
66.8707828089
 10
-67.6010187796
 20
66.9674279611
 10
-67.6159885716
 20
67.0
  0
LINE
  5
26D
100
AcDbEntity
  8
DRAFT
100
AcDbLine
 62
7
  6
CONTINUOUS
 10
-68.0
 20
92.5
 11
-68.0
 21
-92.5
  0
LINE
  5
26E
100
AcDbEntity
  8
SUPERFICI
100
AcDbLine
 62
7
  6
CONTINUOUS
 10
-68.0000003491
 20
-92.5000001756
 11
-68.0000003491
 21
92.5000001756
  0
LINE
  5
26F
100
AcDbEntity
  8
RACCORDO
100
AcDbLine
 62
250
  6
CONTINUOUS
 10
-67.4666504786
 20
-86.1821087126
 11
-67.4667094077
 21
-80.9
  0
LINE
  5
270
100
AcDbEntity
  8
RACCORDO
100
AcDbLine
 62
250
  6
CONTINUOUS
 10
-67.3730280729
 20
92.5
 11
-67.3730280729
 21
-79.9810015616
  0
LINE
  5
271
100
AcDbEntity
  8
RACCORDO
100
AcDbLine
 62
250
  6
CONTINUOUS
 10
-67.3730280729
 20
-87.0189984384
 11
-67.3730280729
 21
-92.5
  0
LINE
  5
272
100
AcDbEntity
  8
RACCORDO
100
AcDbLine
 62
7
  6
CONTINUOUS
 10
-67.0
 20
-80.6
 11
-67.0
 21
-86.3999999989
  0
LINE
  5
273
100
AcDbEntity
  8
RACCORDO
100
AcDbLine
 62
250
  6
CONTINUOUS
 10
-66.3469076856
 20
-80.6
 11
-66.3469076856
 21
-86.4
  0
LINE
  5
274
100
AcDbEntity
  8
RACCORDO
100
AcDbLine
 62
250
  6
CONTINUOUS
 10
-66.2731956082
 20
92.5
 11
-66.2731956082
 21
-92.5
  0
LINE
  5
275
100
AcDbEntity
  8
DRAFT
100
AcDbLine
 62
7
  6
CONTINUOUS
 10
-66.1378845111
 20
-90.8621154889
 11
-66.1378845111
 21
-92.5
  0
LINE
  5
276
100
AcDbEntity
  8
DRAFT
100
AcDbLine
 62
7
  6
CONTINUOUS
 10
-66.1378845111
 20
90.8621154889
 11
-66.1378845111
 21
92.5
  0
LINE
  5
277
100
AcDbEntity
  8
DRAFT
100
AcDbLine
 62
7
  6
CONTINUOUS
 10
-66.0
 20
-91.0
 11
-66.0
 21
-92.5
  0
LINE
  5
278
100
AcDbEntity
  8
DRAFT
100
AcDbLine
 62
7
  6
CONTINUOUS
 10
-66.0
 20
91.0
 11
-66.0
 21
92.5
  0
LWPOLYLINE
  5
279
100
AcDbEntity
  8
ASSI
100
AcDbPolyline
 62
7
  6
CONTINUOUS
 90
22
 70
0
 10
-67.8166912456
 20
-55.5
 10
-67.8161040942
 20
-54.6327454775
 10
-67.8144267492
 20
-53.779748564
 10
-67.8116592105
 20
-52.9410092595
 10
-67.8077739105
 20
-52.1120133397
 10
-67.8027984167
 20
-51.2972750289
 10
-67.7968154326
 20
-50.5103370001
 10
-67.7898081181
 20
-49.7516639274
 10
-67.7817933131
 20
-49.0207911367
 10
-67.7729042408
 20
-48.3298672786
 10
-67.7631262878
 20
-47.6795600888
 10
-67.7524740674
 20
-47.0692018316
 10
-67.741124642
 20
-46.5089379516
 10
-67.7290663581
 20
-45.9996057626
 10
-67.7163108691
 20
-45.5403679507
 10
-67.7030701982
 20
-45.1388580191
 10
-67.6893362359
 20
-44.7960408736
 10
-67.6751170918
 20
-44.5109516085
 10
-67.6606491181
 20
-44.2883290099
 10
-67.6459281556
 20
-44.1292171911
 10
-67.6309583636
 20
-44.0325720389
 10
-67.6159885716
 20
-44.0
  0
LWPOLYLINE
  5
27A
100
AcDbEntity
  8
ASSI
100
AcDbPolyline
 62
7
  6
CONTINUOUS
 90
22
 70
0
 10
-67.4152858976
 20
-55.5
 10
-67.4158730489
 20
-56.3672545225
 10
-67.4175503939
 20
-57.220251436
 10
-67.4203179326
 20
-58.0589907405
 10
-67.4242032327
 20
-58.8879866603
 10
-67.4291787264
 20
-59.7027249711
 10
-67.4351617106
 20
-60.4896629999
 10
-67.4421690251
 20
-61.2483360726
 10
-67.45018383
 20
-61.9792088633
 10
-67.4590729024
 20
-62.6701327214
 10
-67.4688508554
 20
-63.3204399112
 10
-67.4795030757
 20
-63.9307981684
 10
-67.4908525011
 20
-64.4910620484
 10
-67.5029107851
 20
-65.0003942374
 10
-67.5156662741
 20
-65.4596320493
 10
-67.5289069449
 20
-65.8611419809
 10
-67.5426409072
 20
-66.2039591264
 10
-67.5568600514
 20
-66.4890483915
 10
-67.5713280251
 20
-66.7116709901
 10
-67.5860489875
 20
-66.8707828089
 10
-67.6010187796
 20
-66.9674279611
 10
-67.6159885716
 20
-67.0
  0
LINE
  5
27B
100
AcDbEntity
  8
RACCORDO
100
AcDbLine
 62
250
  6
CONTINUOUS
 10
-67.4667094077
 20
-80.9
 11
-67.4661606668
 21
-80.6571450318
  0
LINE
  5
27C
100
AcDbEntity
  8
RACCORDO
100
AcDbLine
 62
250
  6
CONTINUOUS
 10
-67.4661606668
 20
-80.6571450318
 11
-67.4644959748
 21
-80.4247227495
  0
LINE
  5
27D
100
AcDbEntity
  8
RACCORDO
100
AcDbLine
 62
250
  6
CONTINUOUS
 10
-67.4644959748
 20
-80.4247227495
 11
-67.4627949866
 21
-80.2857074646
  0
LWPOLYLINE
  5
27E
100
AcDbEntity
  8
RACCORDO
100
AcDbPolyline
 62
250
  6
CONTINUOUS
 90
10
 70
0
 10
-67.4627949866
 20
-80.2857074646
 10
-67.4606979953
 20
-80.1663417481
 10
-67.4595091
 20
-80.1147639634
 10
-67.4582609544
 20
-80.0698093023
 10
-67.4569513628
 20
-80.0317438991
 10
-67.4555825211
 20
-80.0003016195
 10
-67.4541942072
 20
-79.9759714572
 10
-67.4527996808
 20
-79.9589164104
 10
-67.4513856823
 20
-79.9489734811
 10
-67.4499522117
 20
-79.9461426692
  0
LWPOLYLINE
  5
27F
100
AcDbEntity
  8
RACCORDO
100
AcDbPolyline
 62
250
  6
CONTINUOUS
 90
18
 70
0
 10
-47.9938567423
 20
97.8092162648
 10
-48.0010237297
 20
97.7754294811
 10
-48.0102214926
 20
97.7351029158
 10
-48.0214635289
 20
97.6884345808
 10
-48.0347363408
 20
97.6359438781
 10
-48.0504080697
 20
97.5791220904
 10
-48.0686563813
 20
97.5186058159
 10
-48.0893036099
 20
97.4551519959
 10
-48.1121849001
 20
97.3909764228
 10
-48.1373075196
 20
97.3272369903
 10
-48.1646642008
 20
97.2643601612
 10
-48.1940682844
 20
97.2036604332
 10
-48.2256085335
 20
97.1456840178
 10
-48.2591961852
 20
97.0909343848
 10
-48.2943782912
 20
97.040617039
 10
-48.3310038687
 20
96.9953320284
 10
-48.3692239006
 20
96.9550440598
 10
-48.4090383868
 20
96.9199227178
  0
LWPOLYLINE
  5
280
100
AcDbEntity
  8
ASSI
100
AcDbPolyline
 62
7
  6
CONTINUOUS
 90
22
 70
0
 10
-67.6159885716
 20
11.5
 10
-67.6309583636
 20
11.4674279611
 10
-67.6459281556
 20
11.3707828089
 10
-67.6606491181
 20
11.2116709901
 10
-67.6751170918
 20
10.9890483915
 10
-67.6893362359
 20
10.7039591264
 10
-67.7030701982
 20
10.3611419809
 10
-67.7163108691
 20
9.9596320493
 10
-67.7290663581
 20
9.5003942374
 10
-67.741124642
 20
8.9910620484
 10
-67.7524740674
 20
8.4307981684
 10
-67.7631262878
 20
7.8204399112
 10
-67.7729042408
 20
7.1701327214
 10
-67.7817933131
 20
6.4792088633
 10
-67.7898081181
 20
5.7483360726
 10
-67.7968154326
 20
4.9896629999
 10
-67.8027984167
 20
4.2027249711
 10
-67.8077739105
 20
3.3879866603
 10
-67.8116592105
 20
2.5589907405
 10
-67.8144267492
 20
1.720251436
 10
-67.8161040942
 20
0.8672545225
 10
-67.8166912456
 20
0.0
  0
LINE
  5
281
100
AcDbEntity
  8
0
100
AcDbLine
 62
7
  6
CONTINUOUS
 10
-0.6345475724
 20
87.2883051405
 11
-0.711067175
 21
87.2183407799
  0
LINE
  5
282
100
AcDbEntity
  8
0
100
AcDbLine
 62
7
  6
CONTINUOUS
 10
-2.905948
 20
86.573703
 11
-2.400816
 21
87.034184
  0
LINE
  5
283
100
AcDbEntity
  8
0
100
AcDbLine
 62
7
  6
CONTINUOUS
 10
-2.368336
 20
87.4028
 11
-3.084683
 21
86.796
  0
LWPOLYLINE
  5
284
100
AcDbEntity
  8
0
100
AcDbPolyline
 62
7
  6
CONTINUOUS
 90
4
 70
0
 10
2.5343672374
 20
84.8799547295
 10
2.4686480081
 20
84.8250521036
 10
2.3969032541
 20
84.7813515008
 10
2.3191329753
 20
84.7488529211
  0
LWPOLYLINE
  5
285
100
AcDbEntity
  8
0
100
AcDbPolyline
 62
7
  6
CONTINUOUS
 90
7
 70
0
 10
0.3753058521
 20
84.6012656809
 10
0.4486896521
 20
84.6610173325
 10
0.5138237868
 20
84.727896952
 10
0.5706527512
 20
84.8014279737
 10
0.6192164111
 20
84.8757696517
 10
0.6581792889
 20
84.9497860773
 10
0.6888768622
 20
85.0246131591
  0
LINE
  5
286
100
AcDbEntity
  8
0
100
AcDbLine
 62
7
  6
CONTINUOUS
 10
2.6107684027
 20
86.1332300983
 11
2.6781716835
 21
86.187185471
  0
LWPOLYLINE
  5
287
100
AcDbEntity
  8
0
100
AcDbPolyline
 62
7
  6
CONTINUOUS
 90
10
 70
0
 10
-0.4790686992
 20
87.0632687617
 10
-0.4485591437
 20
87.0872595122
 10
-0.4153813911
 20
87.1087441532
 10
-0.3795354414
 20
87.1277226846
 10
-0.3406852797
 20
87.1443092247
 10
-0.2991669209
 20
87.1583896553
 10
-0.2559884092
 20
87.1696216217
 10
-0.2114857591
 20
87.1778910056
 10
-0.165322956
 20
87.1833119253
 10
-0.1175
 20
87.1858843809
  0
LINE
  5
288
100
AcDbEntity
  8
DRAFT
100
AcDbLine
 62
250
  6
CONTINUOUS
 10
-62.0
 20
91.0
 11
-62.0
 21
90.8621154889
  0
LINE
  5
289
100
AcDbEntity
  8
DRAFT
100
AcDbLine
 62
250
  6
CONTINUOUS
 10
-62.0
 20
-91.0
 11
-62.0
 21
-90.8621154889
  0
LINE
  5
28A
100
AcDbEntity
  8
DRAFT
100
AcDbLine
 62
250
  6
CONTINUOUS
 10
-62.0
 20
-96.5
 11
-62.0
 21
-96.6378845111
  0
LINE
  5
28B
100
AcDbEntity
  8
RACCORDO
100
AcDbLine
 62
250
  6
CONTINUOUS
 10
-62.0
 20
-96.7731956082
 11
-62.0
 21
-98.5
  0
LINE
  5
28C
100
AcDbEntity
  8
DRAFT
100
AcDbLine
 62
250
  6
CONTINUOUS
 10
-62.0
 20
96.5
 11
-62.0
 21
96.6378845111
  0
LINE
  5
28D
100
AcDbEntity
  8
RACCORDO
100
AcDbLine
 62
250
  6
CONTINUOUS
 10
-62.0
 20
96.7731956082
 11
-62.0
 21
98.5
  0
LINE
  5
28E
100
AcDbEntity
  8
DRAFT
100
AcDbLine
 62
7
  6
CONTINUOUS
 10
-60.5
 20
96.5
 11
-60.5
 21
92.5
  0
LINE
  5
28F
100
AcDbEntity
  8
DRAFT
100
AcDbLine
 62
7
  6
CONTINUOUS
 10
-60.5
 20
-96.5
 11
-60.5
 21
-92.5
  0
LINE
  5
290
100
AcDbEntity
  8
DRAFT
100
AcDbLine
 62
7
  6
CONTINUOUS
 10
-60.3621154889
 20
96.6378845111
 11
-60.3621154889
 21
92.5
  0
LINE
  5
291
100
AcDbEntity
  8
DRAFT
100
AcDbLine
 62
7
  6
CONTINUOUS
 10
-60.3621154889
 20
-96.6378845111
 11
-60.3621154889
 21
-92.5
  0
LINE
  5
292
100
AcDbEntity
  8
0
100
AcDbLine
 62
7
  6
CONTINUOUS
 10
-55.011891
 20
-0.441692
 11
-55.011891
 21
-0.6792868258
  0
LINE
  5
293
100
AcDbEntity
  8
0
100
AcDbLine
 62
7
  6
CONTINUOUS
 10
-54.999324
 20
2.050763
 11
-54.999324
 21
1.749155
  0
LWPOLYLINE
  5
294
100
AcDbEntity
  8
RACCORDO
100
AcDbPolyline
 62
250
  6
CONTINUOUS
 90
7
 70
0
 10
-66.3469076856
 20
-86.4
 10
-66.3487707008
 20
-86.4341980983
 10
-66.3551227904
 20
-86.4678902129
 10
-66.3659579852
 20
-86.5010763437
 10
-66.3812643602
 20
-86.5337564908
 10
-66.4010213188
 20
-86.5659306541
 10
-66.4251957628
 20
-86.5975988336
  0
LWPOLYLINE
  5
295
100
AcDbEntity
  8
RACCORDO
100
AcDbPolyline
 62
250
  6
CONTINUOUS
 90
10
 70
0
 10
-67.3730274548
 20
-87.0189984384
 10
-67.3679608823
 20
-86.9348145028
 10
-67.3528074684
 20
-86.8518526613
 10
-67.3277871965
 20
-86.771317277
 10
-67.2932632876
 20
-86.6943774877
 10
-67.2497369279
 20
-86.6221502338
 10
-67.1978399924
 20
-86.5556840432
 10
-67.1383258726
 20
-86.4959438104
 10
-67.0720585393
 20
-86.4437967887
 10
-67.0
 20
-86.4
  0
LWPOLYLINE
  5
296
100
AcDbEntity
  8
RACCORDO
100
AcDbPolyline
 62
7
  6
CONTINUOUS
 90
10
 70
0
 10
-67.4499826672
 20
-87.0538573285
 10
-67.4437159062
 20
-86.9603597868
 10
-67.425018769
 20
-86.8685385773
 10
-67.3942263093
 20
-86.7800391417
 10
-67.35189033
 20
-86.6964473952
 10
-67.2987694942
 20
-86.6192613068
 10
-67.2358157301
 20
-86.5498640556
 10
-67.164157173
 20
-86.4894992445
 10
-67.0850779483
 20
-86.4392486146
 10
-66.9999951604
 20
-86.40001266
  0
LWPOLYLINE
  5
297
100
AcDbEntity
  8
RACCORDO
100
AcDbPolyline
 62
250
  6
CONTINUOUS
 90
4
 70
0
 10
-47.9810015616
 20
97.8730280729
 10
-47.9818161992
 20
97.8678771904
 10
-47.9842529771
 20
97.8555162281
 10
-47.9938567423
 20
97.8092162648
  0
LWPOLYLINE
  5
298
100
AcDbEntity
  8
ASSI
100
AcDbPolyline
 62
7
  6
CONTINUOUS
 90
22
 70
0
 10
-67.6159885716
 20
-11.5
 10
-67.6010187796
 20
-11.4674279611
 10
-67.5860489875
 20
-11.3707828089
 10
-67.5713280251
 20
-11.2116709901
 10
-67.5568600514
 20
-10.9890483915
 10
-67.5426409072
 20
-10.7039591264
 10
-67.5289069449
 20
-10.3611419809
 10
-67.5156662741
 20
-9.9596320493
 10
-67.5029107851
 20
-9.5003942374
 10
-67.4908525011
 20
-8.9910620484
 10
-67.4795030757
 20
-8.4307981684
 10
-67.4688508554
 20
-7.8204399112
 10
-67.4590729024
 20
-7.1701327214
 10
-67.45018383
 20
-6.4792088633
 10
-67.4421690251
 20
-5.7483360726
 10
-67.4351617106
 20
-4.9896629999
 10
-67.4291787264
 20
-4.2027249711
 10
-67.4242032327
 20
-3.3879866603
 10
-67.4203179326
 20
-2.5589907405
 10
-67.4175503939
 20
-1.720251436
 10
-67.4158730489
 20
-0.8672545225
 10
-67.4152858976
 20
0.0
  0
LWPOLYLINE
  5
299
100
AcDbEntity
  8
0
100
AcDbPolyline
 62
7
  6
CONTINUOUS
 90
4
 70
0
 10
-0.711067175
 20
87.2183407799
 10
-0.7806301354
 20
87.135107422
 10
-0.8425530142
 20
87.0395451295
 10
-0.8965898872
 20
86.9345825381
  0
LINE
  5
29A
100
AcDbEntity
  8
0
100
AcDbLine
 62
7
  6
CONTINUOUS
 10
2.6781716835
 20
86.187185471
 11
2.7373704928
 21
86.2461344724
  0
LWPOLYLINE
  5
29B
100
AcDbEntity
  8
0
100
AcDbPolyline
 62
7
  6
CONTINUOUS
 90
4
 70
0
 10
1.5247598247
 20
87.2656984925
 10
1.4451125349
 20
87.1894339601
 10
1.3705166213
 20
87.0990657816
 10
1.300972084
 20
86.9945939571
  0
LWPOLYLINE
  5
29C
100
AcDbEntity
  8
RACCORDO
100
AcDbPolyline
 62
250
  6
CONTINUOUS
 90
10
 70
0
 10
66.4199227178
 20
80.4090383868
 10
66.5251434845
 20
80.4397603191
 10
66.6252762538
 20
80.4696951468
 10
66.7177555959
 20
80.4980759313
 10
66.8007896676
 20
80.5225289408
 10
66.8713996604
 20
80.5449395479
 10
66.9269176471
 20
80.5669321405
 10
66.9670094664
 20
80.5850364489
 10
66.9916695335
 20
80.5959741121
 10
66.9999999351
 20
80.6000004518
  0
LINE
  5
29D
100
AcDbEntity
  8
0
100
AcDbLine
 62
7
  6
CONTINUOUS
 10
11.1960930686
 20
-56.6
 11
10.0700680665
 21
-56.6
  0
LINE
  5
29E
100
AcDbEntity
  8
0
100
AcDbLine
 62
7
  6
CONTINUOUS
 10
-10.0700680665
 20
-56.6
 11
-11.1960930686
 21
-56.6
  0
LINE
  5
29F
100
AcDbEntity
  8
0
100
AcDbLine
 62
7
  6
CONTINUOUS
 10
-54.236926
 20
4.384036
 11
-54.266249
 21
4.748479
  0
LINE
  5
2A0
100
AcDbEntity
  8
RACCORDO
100
AcDbLine
 62
250
  6
CONTINUOUS
 10
-54.4
 20
96.8469076856
 11
-54.3999999989
 21
97.5
  0
LINE
  5
2A1
100
AcDbEntity
  8
RACCORDO
100
AcDbLine
 62
250
  6
CONTINUOUS
 10
-54.1
 20
97.9667094077
 11
-54.1
 21
97.5
  0
LINE
  5
2A2
100
AcDbEntity
  8
0
100
AcDbLine
 62
7
  6
CONTINUOUS
 10
-53.055628
 20
2.457096
 11
-53.055628
 21
2.050763
  0
LINE
  5
2A3
100
AcDbEntity
  8
0
100
AcDbLine
 62
7
  6
CONTINUOUS
 10
-53.055628
 20
1.682131
 11
-53.055628
 21
0.741504
  0
LINE
  5
2A4
100
AcDbEntity
  8
0
100
AcDbLine
 62
7
  6
CONTINUOUS
 10
-52.716319
 20
0.379352
 11
-52.716319
 21
1.682131
  0
LINE
  5
2A5
100
AcDbEntity
  8
0
100
AcDbLine
 62
7
  6
CONTINUOUS
 10
-52.716319
 20
2.050763
 11
-52.716319
 21
2.457096
  0
LINE
  5
2A6
100
AcDbEntity
  8
0
100
AcDbLine
 62
7
  6
CONTINUOUS
 10
-52.0
 20
-0.810324
 11
-52.0
 21
-0.441692
  0
LINE
  5
2A7
100
AcDbEntity
  8
0
100
AcDbLine
 62
7
  6
CONTINUOUS
 10
-52.0
 20
1.682131
 11
-52.0
 21
2.050763
  0
LINE
  5
2A8
100
AcDbEntity
  8
0
100
AcDbLine
 62
7
  6
CONTINUOUS
 10
-51.6
 20
73.5
 11
-51.6
 21
-73.5
  0
LINE
  5
2A9
100
AcDbEntity
  8
0
100
AcDbLine
 62
7
  6
CONTINUOUS
 10
-51.4
 20
-73.5
 11
-51.4
 21
73.5
  0
LINE
  5
2AA
100
AcDbEntity
  8
RACCORDO
100
AcDbLine
 62
250
  6
CONTINUOUS
 10
-48.9
 20
97.9667094077
 11
-48.9000000303
 21
97.5000000003
  0
LINE
  5
2AB
100
AcDbEntity
  8
RACCORDO
100
AcDbLine
 62
250
  6
CONTINUOUS
 10
-48.6
 20
96.8469076856
 11
-48.6
 21
97.5
  0
LWPOLYLINE
  5
2AC
100
AcDbEntity
  8
0
100
AcDbPolyline
 62
7
  6
CONTINUOUS
 90
10
 70
0
 10
-53.5563612312
 20
4.104065299
 10
-53.5150103727
 20
4.1719627241
 10
-53.4639451812
 20
4.2344073226
 10
-53.4051337929
 20
4.2881762635
 10
-53.3385618188
 20
4.3322324492
 10
-53.264243648
 20
4.3676129773
 10
-53.1841905829
 20
4.3942063098
 10
-53.0990730578
 20
4.4119752674
 10
-53.0082206385
 20
4.4209570293
 10
-52.911633325
 20
4.4211515956
  0
LWPOLYLINE
  5
2AD
100
AcDbEntity
  8
0
100
AcDbPolyline
 62
7
  6
CONTINUOUS
 90
5
 70
0
 10
1.5551718517
 20
86.8648030757
 10
1.5943715058
 20
86.9236046989
 10
1.6404310857
 20
86.9774989209
 10
1.6933505915
 20
87.0264857418
 10
1.7551278635
 20
87.0717306009
  0
LWPOLYLINE
  5
2AE
100
AcDbEntity
  8
0
100
AcDbPolyline
 62
7
  6
CONTINUOUS
 90
32
 70
0
 10
0.3750426137
 20
85.0032924387
 10
0.3303681573
 20
84.9363068868
 10
0.2809365241
 20
84.8767211059
 10
0.2260983607
 20
84.8251318584
 10
0.1639056066
 20
84.7833294313
 10
0.0919251452
 20
84.7516315721
 10
0.0125900932
 20
84.7297205333
 10
-0.0687482607
 20
84.7184333587
 10
-0.1532558591
 20
84.7180221436
 10
-0.2397667592
 20
84.7282347927
 10
-0.3194318436
 20
84.749152064
 10
-0.3888324346
 20
84.7812968505
 10
-0.4513872099
 20
84.8241462592
 10
-0.5085030846
 20
84.8762123691
 10
-0.5609510962
 20
84.9376713033
 10
-0.6079602071
 20
85.0083469386
 10
-0.6486242196
 20
85.0862229842
 10
-0.6820011362
 20
85.1714814122
 10
-0.7090329544
 20
85.2639402505
 10
-0.7316394684
 20
85.3610372921
 10
-0.7502017881
 20
85.4621380038
 10
-0.7643388036
 20
85.567876919
 10
-0.7748269798
 20
85.6775954306
 10
-0.7822166469
 20
85.79106184
 10
-0.7859574746
 20
85.9085078459
 10
-0.785174937
 20
86.0299699374
 10
-0.7804083703
 20
86.1575379018
 10
-0.7711184384
 20
86.2891219519
 10
-0.7548126068
 20
86.418489215
 10
-0.7316078068
 20
86.5462437617
 10
-0.7013871072
 20
86.6717815215
 10
-0.6613071795
 20
86.7870574099
  0
LWPOLYLINE
  5
2AF
100
AcDbEntity
  8
0
100
AcDbPolyline
 62
7
  6
CONTINUOUS
 90
6
 70
0
 10
2.7373704928
 20
86.2461344724
 10
2.7886705256
 20
86.3102805502
 10
2.8317660868
 20
86.3794202566
 10
2.8657400916
 20
86.4529432478
 10
2.8902868448
 20
86.530646076
 10
2.9057120415
 20
86.612732189
  0
LWPOLYLINE
  5
2B0
100
AcDbEntity
  8
0
100
AcDbPolyline
 62
7
  6
CONTINUOUS
 90
6
 70
0
 10
2.7928823732
 20
84.7368219194
 10
2.8556094185
 20
84.8135862439
 10
2.9064533561
 20
84.8997188006
 10
2.9456337956
 20
84.9978297907
 10
2.9729311273
 20
85.105309013
 10
2.9870631788
 20
85.2158689148
  0
LINE
  5
2B1
100
AcDbEntity
  8
0
100
AcDbLine
 62
7
  6
CONTINUOUS
 10
-11.1960930686
 20
-54.4
 11
-10.0700680665
 21
-54.4
  0
LINE
  5
2B2
100
AcDbEntity
  8
0
100
AcDbLine
 62
7
  6
CONTINUOUS
 10
10.0700680665
 20
-54.4
 11
11.1960930686
 21
-54.4
  0
LWPOLYLINE
  5
2B3
100
AcDbEntity
  8
0
100
AcDbPolyline
 62
7
  6
CONTINUOUS
 90
3
 70
0
 10
-54.3985687223
 20
-1.2936760671
 10
-54.3266256976
 20
-1.4165722364
 10
-54.258918266
 20
-1.547588
  0
LWPOLYLINE
  5
2B4
100
AcDbEntity
  8
0
100
AcDbPolyline
 62
7
  6
CONTINUOUS
 90
5
 70
0
 10
-53.9862322543
 20
-1.3579575848
 10
-54.0312635505
 20
-1.2684994645
 10
-54.0786114762
 20
-1.182480364
 10
-54.128209088
 20
-1.100032655
 10
-54.1798555558
 20
-1.0215534526
  0
LWPOLYLINE
  5
2B5
100
AcDbEntity
  8
0
100
AcDbPolyline
 62
7
  6
CONTINUOUS
 90
3
 70
0
 10
-53.9029187201
 20
-1.547588
 10
-53.9434506442
 20
-1.4509870966
 10
-53.9862322543
 20
-1.3579575848
  0
LWPOLYLINE
  5
2B6
100
AcDbEntity
  8
0
100
AcDbPolyline
 62
7
  6
CONTINUOUS
 90
13
 70
0
 10
-54.6600024502
 20
3.641761786
 10
-54.6891810232
 20
3.7214620182
 10
-54.7057920826
 20
3.8059386961
 10
-54.7100021627
 20
3.8889541488
 10
-54.7015179623
 20
3.9703056232
 10
-54.6806327828
 20
4.0501958724
 10
-54.648393062
 20
4.1229954854
 10
-54.6044689553
 20
4.187405584
 10
-54.5491903075
 20
4.2447250464
 10
-54.4845930908
 20
4.2932210968
 10
-54.4113559627
 20
4.3323161433
 10
-54.3288002658
 20
4.3625877776
 10
-54.236926
 20
4.384036
  0
LWPOLYLINE
  5
2B7
100
AcDbEntity
  8
0
100
AcDbPolyline
 62
7
  6
CONTINUOUS
 90
14
 70
0
 10
-52.297702843
 20
4.0563730271
 10
-52.2685176958
 20
3.9733067319
 10
-52.2541439815
 20
3.8887289718
 10
-52.253565586
 20
3.8019332023
 10
-52.2668550728
 20
3.7176264527
 10
-52.2941665529
 20
3.6360644404
 10
-52.3353459152
 20
3.5569914481
 10
-52.3900033905
 20
3.4843473533
 10
-52.459052193
 20
3.4176280555
 10
-52.5415791084
 20
3.3573376552
 10
-52.6344547243
 20
3.3089283316
 10
-52.7366359032
 20
3.2742174778
 10
-52.8491657825
 20
3.2513877005
 10
-52.9720443624
 20
3.240439
  0
LWPOLYLINE
  5
2B8
100
AcDbEntity
  8
0
100
AcDbPolyline
 62
7
  6
CONTINUOUS
 90
7
 70
0
 10
-51.979953501
 20
4.1063090557
 10
-52.0202123563
 20
4.2280014167
 10
-52.0779293888
 20
4.3397342088
 10
-52.1525401143
 20
4.4430826045
 10
-52.2426812343
 20
4.5352610289
 10
-52.3502279983
 20
4.617267291
 10
-52.4733051568
 20
4.6881035818
  0
LWPOLYLINE
  5
2B9
100
AcDbEntity
  8
0
100
AcDbPolyline
 62
7
  6
CONTINUOUS
 90
10
 70
0
 10
-54.9889234976
 20
3.6633249661
 10
-54.9521261361
 20
3.5387976158
 10
-54.89897385
 20
3.4175132933
 10
-54.8289454632
 20
3.3060639934
 10
-54.7410625935
 20
3.2058305762
 10
-54.6363036232
 20
3.1154321818
 10
-54.5170825227
 20
3.0373182253
 10
-54.3823470998
 20
2.9727424603
 10
-54.2331495468
 20
2.9204511332
 10
-54.0750604103
 20
2.8791323991
  0
LWPOLYLINE
  5
2BA
100
AcDbEntity
  8
0
100
AcDbPolyline
 62
7
  6
CONTINUOUS
 90
6
 70
0
 10
-53.6054377017
 20
3.7073002957
 10
-53.6184591964
 20
3.7895705871
 10
-53.6201596732
 20
3.8708788953
 10
-53.6096789821
 20
3.9510666275
 10
-53.5878772731
 20
4.0302923765
 10
-53.5563612312
 20
4.104065299
  0
LINE
  5
2BB
100
AcDbEntity
  8
0
100
AcDbLine
 62
7
  6
CONTINUOUS
 10
-41.5
 20
83.6
 11
-41.5
 21
83.4
  0
LWPOLYLINE
  5
2BC
100
AcDbEntity
  8
0
100
AcDbPolyline
 62
7
  6
CONTINUOUS
 90
4
 70
0
 10
-0.6613071795
 20
86.7870574099
 10
-0.6104202475
 20
86.8893897319
 10
-0.5496740874
 20
86.9814601826
 10
-0.4790686992
 20
87.0632687617
  0
LWPOLYLINE
  5
2BD
100
AcDbEntity
  8
0
100
AcDbPolyline
 62
7
  6
CONTINUOUS
 90
8
 70
0
 10
-54.8145321775
 20
4.4742584653
 10
-54.8844044602
 20
4.3826436641
 10
-54.938318265
 20
4.2804377863
 10
-54.977239763
 20
4.1680820286
 10
-55.0017072098
 20
4.049773188
 10
-55.0125336482
 20
3.9238448267
 10
-55.0089060352
 20
3.7919633826
 10
-54.9889234976
 20
3.6633249661
  0
LWPOLYLINE
  5
2BE
100
AcDbEntity
  8
RACCORDO
100
AcDbPolyline
 62
250
  6
CONTINUOUS
 90
10
 70
0
 10
67.3730280729
 20
87.0189984384
 10
67.3815127857
 20
87.0234017632
 10
67.3900131025
 20
87.0276712087
 10
67.3985290235
 20
87.031806775
 10
67.4070605493
 20
87.0358066611
 10
67.4156076791
 20
87.039672668
 10
67.4241704106
 20
87.0434101981
 10
67.4327487427
 20
87.0470210524
 10
67.4413426765
 20
87.05050343
 10
67.4499522117
 20
87.0538573308
  0
LWPOLYLINE
  5
2BF
100
AcDbEntity
  8
0
100
AcDbPolyline
 62
7
  6
CONTINUOUS
 90
3
 70
0
 10
-54.5554902727
 20
-1.0715560185
 10
-54.4747473399
 20
-1.1788994921
 10
-54.3985687223
 20
-1.2936760671
  0
LWPOLYLINE
  5
2C0
100
AcDbEntity
  8
0
100
AcDbPolyline
 62
7
  6
CONTINUOUS
 90
4
 70
0
 10
-54.1798555558
 20
-1.0215534526
 10
-54.2334839364
 20
-0.9471751285
 10
-54.2891611732
 20
-0.8767653109
 10
-54.346887266
 20
-0.810324
  0
LWPOLYLINE
  5
2C1
100
AcDbEntity
  8
0
100
AcDbPolyline
 62
7
  6
CONTINUOUS
 90
6
 70
0
 10
-0.8965898872
 20
86.9345825381
 10
-0.9423492857
 20
86.820272929
 10
-0.9802226783
 20
86.6965630211
 10
-1.0111385477
 20
86.5662216069
 10
-1.0351486943
 20
86.4277684601
 10
-1.0522013177
 20
86.2826838071
  0
LWPOLYLINE
  5
2C2
100
AcDbEntity
  8
0
100
AcDbPolyline
 62
7
  6
CONTINUOUS
 90
3
 70
0
 10
0.4481719356
 20
85.1612531426
 10
0.4143105398
 20
85.078274524
 10
0.3750426137
 20
85.0032924387
  0
LWPOLYLINE
  5
2C3
100
AcDbEntity
  8
0
100
AcDbPolyline
 62
7
  6
CONTINUOUS
 90
15
 70
0
 10
-53.5532851276
 20
4.6365048978
 10
-53.649686312
 20
4.5639183124
 10
-53.7335165135
 20
4.4794284158
 10
-53.8059050193
 20
4.3811506155
 10
-53.8657225423
 20
4.270969504
 10
-53.9093932517
 20
4.1555968687
 10
-53.936122629
 20
4.0343008311
 10
-53.9467051927
 20
3.9078132697
 10
-53.939948668
 20
3.7850416078
 10
-53.9148589782
 20
3.6675648891
 10
-53.8724301999
 20
3.5538040699
 10
-53.8144522881
 20
3.4479294421
 10
-53.7415218943
 20
3.3513311032
 10
-53.653042367
 20
3.2626189559
 10
-53.5490137062
 20
3.181793
  0
LWPOLYLINE
  5
2C4
100
AcDbEntity
  8
0
100
AcDbPolyline
 62
7
  6
CONTINUOUS
 90
4
 70
0
 10
-54.8198454073
 20
-0.805108091
 10
-54.7286967507
 20
-0.8832873324
 10
-54.6404687984
 20
-0.9723321392
 10
-54.5554902727
 20
-1.0715560185
  0
LWPOLYLINE
  5
2C5
100
AcDbEntity
  8
RACCORDO
100
AcDbPolyline
 62
250
  6
CONTINUOUS
 90
18
 70
0
 10
54.5975988336
 20
-96.9251957628
 10
54.6366800708
 20
-96.960751958
 10
54.6741957696
 20
-97.0013014413
 10
54.7101459298
 20
-97.0466727718
 10
54.7446756882
 20
-97.0968901619
 10
54.7776399081
 20
-97.1513669086
 10
54.8086031794
 20
-97.2089351933
 10
54.8374803146
 20
-97.2691071536
 10
54.8643565012
 20
-97.3313423343
 10
54.8890518924
 20
-97.3943539257
 10
54.9115579871
 20
-97.4577000614
 10
54.9318832862
 20
-97.5202940081
 10
54.9498734465
 20
-97.5800603436
 10
54.9653627846
 20
-97.636269719
 10
54.9785169838
 20
-97.6882716531
 10
54.9896787504
 20
-97.7346112275
 10
54.9988325141
 20
-97.7747173048
 10
55.0059938452
 20
-97.8084284202
  0
LWPOLYLINE
  5
2C6
100
AcDbEntity
  8
0
100
AcDbPolyline
 62
7
  6
CONTINUOUS
 90
4
 70
0
 10
-52.4584625477
 20
4.2700677064
 10
-52.3943381878
 20
4.2090249268
 10
-52.3406833089
 20
4.1372213129
 10
-52.297702843
 20
4.0563730271
  0
LWPOLYLINE
  5
2C7
100
AcDbEntity
  8
RACCORDO
100
AcDbPolyline
 62
250
  6
CONTINUOUS
 90
4
 70
0
 10
-55.0059938452
 20
97.8084284202
 10
-55.0156372686
 20
97.8551366491
 10
-55.0181193609
 20
97.8677507952
 10
-55.0189984384
 20
97.8730280729
  0
LWPOLYLINE
  5
2C8
100
AcDbEntity
  8
0
100
AcDbPolyline
 62
7
  6
CONTINUOUS
 90
7
 70
0
 10
0.6888768622
 20
85.0246131591
 10
0.7153554303
 20
85.0978178769
 10
0.7385123968
 20
85.1686473151
 10
0.7574503582
 20
85.2378543893
 10
0.7735234031
 20
85.3052648255
 10
0.7867441893
 20
85.3699563269
 10
0.7971000591
 20
85.4328511903
  0
LWPOLYLINE
  5
2C9
100
AcDbEntity
  8
0
100
AcDbPolyline
 62
7
  6
CONTINUOUS
 90
11
 70
0
 10
-52.4673430285
 20
2.9926022105
 10
-52.3503894207
 20
3.0623255537
 10
-52.2477008382
 20
3.143466991
 10
-52.1598933048
 20
3.2366617572
 10
-52.0863507969
 20
3.3412746175
 10
-52.0284329231
 20
3.4547033207
 10
-51.986279918
 20
3.5793101654
 10
-51.9597515471
 20
3.712732853
 10
-51.949786715
 20
3.8452822366
 10
-51.9565883385
 20
3.9762322981
 10
-51.979953501
 20
4.1063090557
  0
LWPOLYLINE
  5
2CA
100
AcDbEntity
  8
0
100
AcDbPolyline
 62
7
  6
CONTINUOUS
 90
4
 70
0
 10
-54.5228290153
 20
4.6786262341
 10
-54.6321709497
 20
4.6241652214
 10
-54.729667588
 20
4.5557233866
 10
-54.8145321775
 20
4.4742584653
  0
LWPOLYLINE
  5
2CB
100
AcDbEntity
  8
0
100
AcDbPolyline
 62
7
  6
CONTINUOUS
 90
3
 70
0
 10
-55.011891
 20
-0.6792868258
 10
-54.9142434904
 20
-0.7371079221
 10
-54.8198454073
 20
-0.805108091
  0
LINE
  5
2CC
100
AcDbEntity
  8
0
100
AcDbLine
 62
7
  6
CONTINUOUS
 10
-53.055628
 20
0.741504
 11
-54.404944
 21
1.682131
  0
LINE
  5
2CD
100
AcDbEntity
  8
0
100
AcDbLine
 62
7
  6
CONTINUOUS
 10
-54.999324
 20
1.749155
 11
-53.055628
 21
0.379352
  0
LWPOLYLINE
  5
2CE
100
AcDbEntity
  8
0
100
AcDbPolyline
 62
7
  6
CONTINUOUS
 90
4
 70
0
 10
-52.4733051568
 20
4.6881035818
 10
-52.6049236631
 20
4.7419908998
 10
-52.747032501
 20
4.7770658077
 10
-52.8976826866
 20
4.7951917427
  0
LWPOLYLINE
  5
2CF
100
AcDbEntity
  8
RACCORDO
100
AcDbPolyline
 62
250
  6
CONTINUOUS
 90
10
 70
0
 10
-48.4090383868
 20
96.9199227178
 10
-48.4397603191
 20
97.0251434845
 10
-48.4696951468
 20
97.1252762538
 10
-48.4980759313
 20
97.2177555959
 10
-48.5225289408
 20
97.3007896676
 10
-48.5449395479
 20
97.3713996604
 10
-48.5669321405
 20
97.4269176471
 10
-48.5850364489
 20
97.4670094664
 10
-48.5959741121
 20
97.4916695335
 10
-48.6000004518
 20
97.4999999351
  0
LWPOLYLINE
  5
2D0
100
AcDbEntity
  8
0
100
AcDbPolyline
 62
7
  6
CONTINUOUS
 90
20
 70
0
 10
-1.0522013177
 20
86.2826838071
 10
-1.0630694983
 20
86.1381771204
 10
-1.0676333926
 20
85.994938016
 10
-1.0660128442
 20
85.852276878
 10
-1.0593404642
 20
85.7153343312
 10
-1.0487080315
 20
85.5875693617
 10
-1.0330237672
 20
85.4655229833
 10
-1.0101449455
 20
85.3439588625
 10
-0.9797905568
 20
85.2183721009
 10
-0.9422416107
 20
85.0932675969
 10
-0.8961984104
 20
84.9769237119
 10
-0.8407514089
 20
84.8708318907
 10
-0.7768101532
 20
84.7735006887
 10
-0.7058035869
 20
84.6887341329
 10
-0.6287928269
 20
84.6178298778
 10
-0.5447167564
 20
84.559490269
 10
-0.4518209681
 20
84.5136263705
 10
-0.3495206597
 20
84.4802085367
 10
-0.2384006335
 20
84.4592664133
 10
-0.1184608896
 20
84.4508
  0
LWPOLYLINE
  5
2D1
100
AcDbEntity
  8
0
100
AcDbPolyline
 62
7
  6
CONTINUOUS
 90
10
 70
0
 10
0.5395250156
 20
85.5674093965
 10
0.5344192461
 20
85.5195724389
 10
0.5280182601
 20
85.4723402165
 10
0.5203220577
 20
85.4257127293
 10
0.511285208
 20
85.3795934626
 10
0.5009531418
 20
85.334078931
 10
0.4894621522
 20
85.2894586788
 10
0.4768576702
 20
85.2458292207
 10
0.4630942646
 20
85.203094042
 10
0.4481719356
 20
85.1612531426
  0
LWPOLYLINE
  5
2D2
100
AcDbEntity
  8
0
100
AcDbPolyline
 62
7
  6
CONTINUOUS
 90
5
 70
0
 10
0.7971000591
 20
85.4328511903
 10
0.8059071274
 20
85.4965420319
 10
0.8134475155
 20
85.561481901
 10
0.8194391021
 20
85.6272177483
 10
0.8243516394
 20
85.6949830428
  0
LWPOLYLINE
  5
2D3
100
AcDbEntity
  8
0
100
AcDbPolyline
 62
7
  6
CONTINUOUS
 90
11
 70
0
 10
2.6248421114
 20
86.6123032866
 10
2.6127790048
 20
86.5396147471
 10
2.5929263619
 20
86.4730640952
 10
2.5650758817
 20
86.4125161801
 10
2.5294358653
 20
86.3581061526
 10
2.4866312159
 20
86.3102394656
 10
2.4362711825
 20
86.2692710599
 10
2.3787465162
 20
86.2348459947
 10
2.3158543741
 20
86.2063048995
 10
2.2475776175
 20
86.1836275131
 10
2.1739333852
 20
86.1668340968
  0
LWPOLYLINE
  5
2D4
100
AcDbEntity
  8
RACCORDO
100
AcDbPolyline
 62
250
  6
CONTINUOUS
 90
18
 70
0
 10
66.4251957628
 20
86.5975988336
 10
66.460751958
 20
86.6366800708
 10
66.5013014413
 20
86.6741957696
 10
66.5466727718
 20
86.7101459298
 10
66.5968901619
 20
86.7446756882
 10
66.6513669086
 20
86.7776399081
 10
66.7089351933
 20
86.8086031794
 10
66.7691071536
 20
86.8374803146
 10
66.8313423343
 20
86.8643565012
 10
66.8943539257
 20
86.8890518924
 10
66.9577000614
 20
86.9115579871
 10
67.0202940081
 20
86.9318832862
 10
67.0800603436
 20
86.9498734465
 10
67.136269719
 20
86.9653627846
 10
67.1882716531
 20
86.9785169838
 10
67.2346112275
 20
86.9896787504
 10
67.2747173048
 20
86.9988325141
 10
67.3084284202
 20
87.0059938452
  0
LWPOLYLINE
  5
2D5
100
AcDbEntity
  8
0
100
AcDbPolyline
 62
7
  6
CONTINUOUS
 90
8
 70
0
 10
-54.1413720203
 20
3.2520228643
 10
-54.2420020075
 20
3.28668849
 10
-54.3353549345
 20
3.3299106457
 10
-54.4212242347
 20
3.380770962
 10
-54.4968951156
 20
3.4375574346
 10
-54.5622523445
 20
3.5000826323
 10
-54.6174111542
 20
3.5685339863
 10
-54.6600024502
 20
3.641761786
  0
LINE
  5
2D6
100
AcDbEntity
  8
0
100
AcDbLine
 62
7
  6
CONTINUOUS
 10
-2.400816
 20
87.034184
 11
-2.400816
 21
84.5
  0
LINE
  5
2D7
100
AcDbEntity
  8
0
100
AcDbLine
 62
7
  6
CONTINUOUS
 10
-2.118684
 20
84.5
 11
-2.118684
 21
87.4028
  0
LINE
  5
2D8
100
AcDbEntity
  8
0
100
AcDbLine
 62
7
  6
CONTINUOUS
 10
-1.1
 20
66.6960930686
 11
-1.1
 21
65.5700680665
  0
LINE
  5
2D9
100
AcDbEntity
  8
0
100
AcDbLine
 62
7
  6
CONTINUOUS
 10
-1.1
 20
45.4299319335
 11
-1.1
 21
44.3039069314
  0
LINE
  5
2DA
100
AcDbEntity
  8
0
100
AcDbLine
 62
7
  6
CONTINUOUS
 10
-1.1
 20
-66.6960930686
 11
-1.1
 21
-65.5700680665
  0
LINE
  5
2DB
100
AcDbEntity
  8
0
100
AcDbLine
 62
7
  6
CONTINUOUS
 10
-1.1
 20
-45.4299319335
 11
-1.1
 21
-44.3039069314
  0
LINE
  5
2DC
100
AcDbEntity
  8
0
100
AcDbLine
 62
7
  6
CONTINUOUS
 10
-1.1
 20
-11.1960930686
 11
-1.1
 21
-10.0700680665
  0
LINE
  5
2DD
100
AcDbEntity
  8
0
100
AcDbLine
 62
7
  6
CONTINUOUS
 10
-1.1
 20
10.0700680665
 11
-1.1
 21
11.1960930686
  0
LWPOLYLINE
  5
2DE
100
AcDbEntity
  8
0
100
AcDbPolyline
 62
7
  6
CONTINUOUS
 90
6
 70
0
 10
0.8284795093
 20
85.7651369822
 10
0.8315283298
 20
85.8373203688
 10
0.8330847079
 20
85.9116890791
 10
0.8331113381
 20
85.9882594317
 10
0.8316455258
 20
86.067015108
 10
0.828385794
 20
86.1480630275
  0
LINE
  5
2DF
100
AcDbEntity
  8
0
100
AcDbLine
 62
7
  6
CONTINUOUS
 10
2.6291156817
 20
86.6911297139
 11
2.6248421114
 21
86.6123032866
  0
LINE
  5
2E0
100
AcDbEntity
  8
0
100
AcDbLine
 62
7
  6
CONTINUOUS
 10
0.8243516394
 20
85.6949830428
 11
0.8284795093
 21
85.7651369822
  0
LINE
  5
2E1
100
AcDbEntity
  8
0
100
AcDbLine
 62
7
  6
CONTINUOUS
 10
2.9057120415
 20
86.612732189
 11
2.9120156817
 21
86.6992015869
  0
LWPOLYLINE
  5
2E2
100
AcDbEntity
  8
0
100
AcDbPolyline
 62
7
  6
CONTINUOUS
 90
10
 70
0
 10
2.7077843809
 20
85.2925172061
 10
2.7035206884
 20
85.2354649231
 10
2.6952194815
 20
85.1808840189
 10
2.6828807602
 20
85.1287744936
 10
2.666122798
 20
85.0786941829
 10
2.6453273214
 20
85.031085251
 10
2.6216395092
 20
84.9872741905
 10
2.5954410875
 20
84.9477031655
 10
2.5663503303
 20
84.9119300118
 10
2.5343672374
 20
84.8799547295
  0
LINE
  5
2E3
100
AcDbEntity
  8
0
100
AcDbLine
 62
7
  6
CONTINUOUS
 10
-54.258918266
 20
-1.547588
 11
-53.9029187201
 21
-1.547588
  0
LINE
  5
2E4
100
AcDbEntity
  8
0
100
AcDbLine
 62
7
  6
CONTINUOUS
 10
11.1960930686
 20
-1.1
 11
10.0700680665
 21
-1.1
  0
LINE
  5
2E5
100
AcDbEntity
  8
0
100
AcDbLine
 62
7
  6
CONTINUOUS
 10
-10.0700680665
 20
-1.1
 11
-11.1960930686
 21
-1.1
  0
LINE
  5
2E6
100
AcDbEntity
  8
0
100
AcDbLine
 62
7
  6
CONTINUOUS
 10
-54.346887266
 20
-0.810324
 11
-52.0
 21
-0.810324
  0
LINE
  5
2E7
100
AcDbEntity
  8
0
100
AcDbLine
 62
7
  6
CONTINUOUS
 10
-52.0
 20
-0.441692
 11
-55.011891
 21
-0.441692
  0
LINE
  5
2E8
100
AcDbEntity
  8
0
100
AcDbLine
 62
7
  6
CONTINUOUS
 10
-53.055628
 20
0.379352
 11
-52.716319
 21
0.379352
  0
LWPOLYLINE
  5
2E9
100
AcDbEntity
  8
0
100
AcDbPolyline
 62
7
  6
CONTINUOUS
 90
11
 70
0
 10
-52.9720443624
 20
3.240439
 10
-53.0700303598
 20
3.2468932582
 10
-53.1607425316
 20
3.2629520229
 10
-53.2441808777
 20
3.2886152941
 10
-53.3207154596
 20
3.3244480687
 10
-53.3899762158
 20
3.3698853498
 10
-53.4508529618
 20
3.423232147
 10
-53.5036300504
 20
3.4852250888
 10
-53.5480231287
 20
3.5551275466
 10
-53.5820689544
 20
3.6290346438
 10
-53.6054377017
 20
3.7073002957
  0
LWPOLYLINE
  5
2EA
100
AcDbEntity
  8
0
100
AcDbPolyline
 62
7
  6
CONTINUOUS
 90
6
 70
0
 10
-52.911633325
 20
4.4211515956
 10
-52.8049967129
 20
4.4126042692
 10
-52.7065284031
 20
4.3933340954
 10
-52.6162283957
 20
4.3633410743
 10
-52.5332613205
 20
4.322065814
 10
-52.4584625477
 20
4.2700677064
  0
LWPOLYLINE
  5
2EB
100
AcDbEntity
  8
0
100
AcDbPolyline
 62
7
  6
CONTINUOUS
 90
8
 70
0
 10
-54.0750604103
 20
2.8791323991
 10
-53.9065446947
 20
2.8492181974
 10
-53.7291373957
 20
2.8302765886
 10
-53.553014047
 20
2.8196999098
 10
-53.3796492341
 20
2.8163113302
 10
-53.2075683716
 20
2.8212876806
 10
-53.0425232374
 20
2.8355517906
 10
-52.8850905516
 20
2.8584689765
  0
LWPOLYLINE
  5
2EC
100
AcDbEntity
  8
RACCORDO
100
AcDbPolyline
 62
250
  6
CONTINUOUS
 90
10
 70
0
 10
-55.0189984384
 20
97.8730280729
 10
-55.0234017632
 20
97.8815127857
 10
-55.0276712087
 20
97.8900131025
 10
-55.031806775
 20
97.8985290235
 10
-55.0358066611
 20
97.9070605493
 10
-55.039672668
 20
97.9156076791
 10
-55.0434101981
 20
97.9241704106
 10
-55.0470210524
 20
97.9327487427
 10
-55.05050343
 20
97.9413426765
 10
-55.0538573308
 20
97.9499522117
  0
LWPOLYLINE
  5
2ED
100
AcDbEntity
  8
0
100
AcDbPolyline
 62
7
  6
CONTINUOUS
 90
9
 70
0
 10
0.828385794
 20
86.1480630275
 10
0.8237834942
 20
86.231427804
 10
0.8173872748
 20
86.3170848238
 10
0.807541604
 20
86.4050671657
 10
0.7945351288
 20
86.4955178321
 10
0.7780792022
 20
86.5882938207
 10
0.7556523519
 20
86.6829992031
 10
0.7275872979
 20
86.7812936971
 10
0.6935513202
 20
86.8815175848
  0
LWPOLYLINE
  5
2EE
100
AcDbEntity
  8
0
100
AcDbPolyline
 62
7
  6
CONTINUOUS
 90
4
 70
0
 10
2.9120156817
 20
86.6992015869
 10
2.9076197362
 20
86.7836252663
 10
2.8969074441
 20
86.8630093119
 10
2.8798788052
 20
86.9373537236
  0
LWPOLYLINE
  5
2EF
100
AcDbEntity
  8
0
100
AcDbPolyline
 62
7
  6
CONTINUOUS
 90
10
 70
0
 10
0.5395250156
 20
86.3414765713
 10
0.5440362592
 20
86.254532671
 10
0.5474294705
 20
86.1680620315
 10
0.5497046495
 20
86.082064653
 10
0.5508748346
 20
85.9968594042
 10
0.5509269873
 20
85.9121274164
 10
0.5498219933
 20
85.8269120823
 10
0.5475468142
 20
85.7408945332
 10
0.5441144883
 20
85.6543936379
 10
0.5395250156
 20
85.5674093965
  0
LINE
  5
2F0
100
AcDbEntity
  8
0
100
AcDbLine
 62
7
  6
CONTINUOUS
 10
2.7052288571
 20
85.3602025097
 11
2.7077843809
 21
85.2925172061
  0
LINE
  5
2F1
100
AcDbEntity
  8
0
100
AcDbLine
 62
7
  6
CONTINUOUS
 10
1.1
 20
11.1960930686
 11
1.1
 21
10.0700680665
  0
LINE
  5
2F2
100
AcDbEntity
  8
0
100
AcDbLine
 62
7
  6
CONTINUOUS
 10
1.1
 20
-10.0700680665
 11
1.1
 21
-11.1960930686
  0
LINE
  5
2F3
100
AcDbEntity
  8
0
100
AcDbLine
 62
7
  6
CONTINUOUS
 10
1.1
 20
-44.3039069314
 11
1.1
 21
-45.4299319335
  0
LINE
  5
2F4
100
AcDbEntity
  8
0
100
AcDbLine
 62
7
  6
CONTINUOUS
 10
1.1
 20
-65.5700680665
 11
1.1
 21
-66.6960930686
  0
LINE
  5
2F5
100
AcDbEntity
  8
0
100
AcDbLine
 62
7
  6
CONTINUOUS
 10
1.1
 20
44.3039069314
 11
1.1
 21
45.4299319335
  0
LINE
  5
2F6
100
AcDbEntity
  8
0
100
AcDbLine
 62
7
  6
CONTINUOUS
 10
1.1
 20
65.5700680665
 11
1.1
 21
66.6960930686
  0
LINE
  5
2F7
100
AcDbEntity
  8
0
100
AcDbLine
 62
7
  6
CONTINUOUS
 10
1.846016
 20
86.151915686
 11
1.846016
 21
85.8861843746
  0
LWPOLYLINE
  5
2F8
100
AcDbEntity
  8
0
100
AcDbPolyline
 62
7
  6
CONTINUOUS
 90
3
 70
0
 10
2.9870631788
 20
85.2158689148
 10
2.987665975
 20
85.3312320615
 10
2.9751034909
 20
85.4496758877
  0
LINE
  5
2F9
100
AcDbEntity
  8
0
100
AcDbLine
 62
7
  6
CONTINUOUS
 10
-11.1960930686
 20
1.1
 11
-10.0700680665
 21
1.1
  0
LINE
  5
2FA
100
AcDbEntity
  8
0
100
AcDbLine
 62
7
  6
CONTINUOUS
 10
10.0700680665
 20
1.1
 11
11.1960930686
 21
1.1
  0
LINE
  5
2FB
100
AcDbEntity
  8
0
100
AcDbLine
 62
7
  6
CONTINUOUS
 10
-54.404944
 20
1.682131
 11
-53.055628
 21
1.682131
  0
LINE
  5
2FC
100
AcDbEntity
  8
0
100
AcDbLine
 62
7
  6
CONTINUOUS
 10
-52.716319
 20
1.682131
 11
-52.0
 21
1.682131
  0
LINE
  5
2FD
100
AcDbEntity
  8
0
100
AcDbLine
 62
7
  6
CONTINUOUS
 10
-52.0
 20
2.050763
 11
-52.716319
 21
2.050763
  0
LINE
  5
2FE
100
AcDbEntity
  8
0
100
AcDbLine
 62
7
  6
CONTINUOUS
 10
-53.055628
 20
2.050763
 11
-54.999324
 21
2.050763
  0
LINE
  5
2FF
100
AcDbEntity
  8
0
100
AcDbLine
 62
7
  6
CONTINUOUS
 10
-52.716319
 20
2.457096
 11
-53.055628
 21
2.457096
  0
LWPOLYLINE
  5
300
100
AcDbEntity
  8
0
100
AcDbPolyline
 62
7
  6
CONTINUOUS
 90
3
 70
0
 10
-52.8976826866
 20
4.7951917427
 10
-53.0440382221
 20
4.7961800146
 10
-53.1845165626
 20
4.7785756129
  0
LWPOLYLINE
  5
301
100
AcDbEntity
  8
0
100
AcDbPolyline
 62
7
  6
CONTINUOUS
 90
6
 70
0
 10
-53.5490137062
 20
3.181793
 10
-53.6779830907
 20
3.1827879404
 10
-53.8015639414
 20
3.1903779373
 10
-53.9197562585
 20
3.2045629907
 10
-54.0332584062
 20
3.2249953993
 10
-54.1413720203
 20
3.2520228643
  0
LWPOLYLINE
  5
302
100
AcDbEntity
  8
RACCORDO
100
AcDbPolyline
 62
250
  6
CONTINUOUS
 90
10
 70
0
 10
55.0189984384
 20
-97.8730280729
 10
55.0234017632
 20
-97.8815127857
 10
55.0276712087
 20
-97.8900131025
 10
55.031806775
 20
-97.8985290235
 10
55.0358066611
 20
-97.9070605493
 10
55.039672668
 20
-97.9156076791
 10
55.0434101981
 20
-97.9241704106
 10
55.0470210524
 20
-97.9327487427
 10
55.05050343
 20
-97.9413426765
 10
55.0538573308
 20
-97.9499522117
  0
LWPOLYLINE
  5
303
100
AcDbEntity
  8
RACCORDO
100
AcDbPolyline
 62
250
  6
CONTINUOUS
 90
18
 70
0
 10
-66.4251957628
 20
-86.5975988336
 10
-66.460751958
 20
-86.6366800708
 10
-66.5013014413
 20
-86.6741957696
 10
-66.5466727718
 20
-86.7101459298
 10
-66.5968901619
 20
-86.7446756882
 10
-66.6513669086
 20
-86.7776399081
 10
-66.7089351933
 20
-86.8086031794
 10
-66.7691071536
 20
-86.8374803146
 10
-66.8313423343
 20
-86.8643565012
 10
-66.8943539257
 20
-86.8890518924
 10
-66.9577000614
 20
-86.9115579871
 10
-67.0202940081
 20
-86.9318832862
 10
-67.0800603436
 20
-86.9498734465
 10
-67.136269719
 20
-86.9653627846
 10
-67.1882716531
 20
-86.9785169838
 10
-67.2346112275
 20
-86.9896787504
 10
-67.2747173048
 20
-86.9988325141
 10
-67.3084284202
 20
-87.0059938452
  0
LWPOLYLINE
  5
304
100
AcDbEntity
  8
0
100
AcDbPolyline
 62
7
  6
CONTINUOUS
 90
4
 70
0
 10
-52.8850905516
 20
2.8584689765
 10
-52.734693594
 20
2.8906739219
 10
-52.5953539821
 20
2.934993508
 10
-52.4673430285
 20
2.9926022105
  0
LWPOLYLINE
  5
305
100
AcDbEntity
  8
0
100
AcDbPolyline
 62
7
  6
CONTINUOUS
 90
3
 70
0
 10
-54.266249
 20
4.748479
 10
-54.4008550321
 20
4.7200641603
 10
-54.5228290153
 20
4.6786262341
  0
LINE
  5
306
100
AcDbEntity
  8
0
100
AcDbLine
 62
7
  6
CONTINUOUS
 10
2.6966403261
 20
85.4245715246
 11
2.7052288571
 21
85.3602025097
  0
LWPOLYLINE
  5
307
100
AcDbEntity
  8
0
100
AcDbPolyline
 62
7
  6
CONTINUOUS
 90
4
 70
0
 10
-53.1845165626
 20
4.7785756129
 10
-53.3207002529
 20
4.743833548
 10
-53.4445009295
 20
4.6961301617
 10
-53.5532851276
 20
4.6365048978
  0
LWPOLYLINE
  5
308
100
AcDbEntity
  8
RACCORDO
100
AcDbPolyline
 62
250
  6
CONTINUOUS
 90
10
 70
0
 10
48.4090383868
 20
-96.9199227178
 10
48.4397603191
 20
-97.0251434845
 10
48.4696951468
 20
-97.1252762538
 10
48.4980759313
 20
-97.2177555959
 10
48.5225289408
 20
-97.3007896676
 10
48.5449395479
 20
-97.3713996604
 10
48.5669321405
 20
-97.4269176471
 10
48.5850364489
 20
-97.4670094664
 10
48.5959741121
 20
-97.4916695335
 10
48.6000004518
 20
-97.4999999351
  0
LINE
  5
309
100
AcDbEntity
  8
0
100
AcDbLine
 62
7
  6
CONTINUOUS
 10
2.9751034909
 20
85.4496758877
 11
2.9491854791
 21
85.5597451439
  0
LWPOLYLINE
  5
30A
100
AcDbEntity
  8
0
100
AcDbPolyline
 62
7
  6
CONTINUOUS
 90
10
 70
0
 10
0.4325228507
 20
86.7843431775
 10
0.463083002
 20
86.7005727456
 10
0.4768333702
 20
86.6586891007
 10
0.4894230403
 20
86.6158959854
 10
0.5008913229
 20
86.5721401347
 10
0.5111989073
 20
86.5274748135
 10
0.520227862
 20
86.482059817
 10
0.5279388763
 20
86.4359484103
 10
0.5343712609
 20
86.3890873284
 10
0.5395250156
 20
86.3414765713
  0
LWPOLYLINE
  5
30B
100
AcDbEntity
  8
0
100
AcDbPolyline
 62
7
  6
CONTINUOUS
 90
7
 70
0
 10
2.8798788052
 20
86.9373537236
 10
2.8558724363
 20
87.0070303615
 10
2.8255497206
 20
87.0716673655
 10
2.7908948086
 20
87.1301491556
 10
2.7523882173
 20
87.1814469797
 10
2.7095494296
 20
87.2265895898
 10
2.6629210445
 20
87.2675476617
  0
LWPOLYLINE
  5
30C
100
AcDbEntity
  8
RACCORDO
100
AcDbPolyline
 62
250
  6
CONTINUOUS
 90
18
 70
0
 10
-54.5975988336
 20
96.9251957628
 10
-54.6366800708
 20
96.960751958
 10
-54.6741957696
 20
97.0013014413
 10
-54.7101459298
 20
97.0466727718
 10
-54.7446756882
 20
97.0968901619
 10
-54.7776399081
 20
97.1513669086
 10
-54.8086031794
 20
97.2089351933
 10
-54.8374803146
 20
97.2691071536
 10
-54.8643565012
 20
97.3313423343
 10
-54.8890518924
 20
97.3943539257
 10
-54.9115579871
 20
97.4577000614
 10
-54.9318832862
 20
97.5202940081
 10
-54.9498734465
 20
97.5800603436
 10
-54.9653627846
 20
97.636269719
 10
-54.9785169838
 20
97.6882716531
 10
-54.9896787504
 20
97.7346112275
 10
-54.9988325141
 20
97.7747173048
 10
-55.0059938452
 20
97.8084284202
  0
LINE
  5
30D
100
AcDbEntity
  8
0
100
AcDbLine
 62
7
  6
CONTINUOUS
 10
1.18655621
 20
85.0339610643
 11
1.2471335812
 21
84.9123856672
  0
LINE
  5
30E
100
AcDbEntity
  8
0
100
AcDbLine
 62
7
  6
CONTINUOUS
 10
0.6935513202
 20
86.8815175848
 11
0.6500247862
 21
86.9782957849
  0
LINE
  5
30F
100
AcDbEntity
  8
0
100
AcDbLine
 62
7
  6
CONTINUOUS
 10
2.9491854791
 20
85.5597451439
 11
2.9088053826
 21
85.6586515884
  0
LWPOLYLINE
  5
310
100
AcDbEntity
  8
RACCORDO
100
AcDbPolyline
 62
250
  6
CONTINUOUS
 90
4
 70
0
 10
55.0059938452
 20
-97.8084284202
 10
55.0156372686
 20
-97.8551366491
 10
55.0181193609
 20
-97.8677507952
 10
55.0189984384
 20
-97.8730280729
  0
LINE
  5
311
100
AcDbEntity
  8
0
100
AcDbLine
 62
7
  6
CONTINUOUS
 10
41.5
 20
83.4
 11
41.5
 21
83.6
  0
LINE
  5
312
100
AcDbEntity
  8
RACCORDO
100
AcDbLine
 62
250
  6
CONTINUOUS
 10
48.6
 20
-96.8469076856
 11
48.6
 21
-97.5
  0
LINE
  5
313
100
AcDbEntity
  8
RACCORDO
100
AcDbLine
 62
250
  6
CONTINUOUS
 10
48.9
 20
-97.9667094077
 11
48.9000000303
 21
-97.5000000003
  0
LWPOLYLINE
  5
314
100
AcDbEntity
  8
RACCORDO
100
AcDbPolyline
 62
250
  6
CONTINUOUS
 90
10
 70
0
 10
-67.3730280729
 20
-87.0189984384
 10
-67.3815127857
 20
-87.0234017632
 10
-67.3900131025
 20
-87.0276712087
 10
-67.3985290235
 20
-87.031806775
 10
-67.4070605493
 20
-87.0358066611
 10
-67.4156076791
 20
-87.039672668
 10
-67.4241704106
 20
-87.0434101981
 10
-67.4327487427
 20
-87.0470210524
 10
-67.4413426765
 20
-87.05050343
 10
-67.4499522117
 20
-87.0538573308
  0
LINE
  5
315
100
AcDbEntity
  8
0
100
AcDbLine
 62
7
  6
CONTINUOUS
 10
1.2471335812
 20
84.9123856672
 11
1.3164265683
 21
84.8051772316
  0
LWPOLYLINE
  5
316
100
AcDbEntity
  8
0
100
AcDbPolyline
 62
7
  6
CONTINUOUS
 90
5
 70
0
 10
2.9088053826
 20
85.6586515884
 10
2.8550697583
 20
85.7491834629
 10
2.7911080299
 20
85.8282502432
 10
2.7179633386
 20
85.8948217548
 10
2.6345925431
 20
85.9499281723
  0
LWPOLYLINE
  5
317
100
AcDbEntity
  8
0
100
AcDbPolyline
 62
7
  6
CONTINUOUS
 90
4
 70
0
 10
0.6500247862
 20
86.9782957849
 10
0.5949170071
 20
87.0726776839
 10
0.5303186718
 20
87.1636138953
 10
0.4589822144
 20
87.2425811784
  0
LINE
  5
318
100
AcDbEntity
  8
RACCORDO
100
AcDbLine
 62
250
  6
CONTINUOUS
 10
54.1
 20
-97.9667094077
 11
54.1
 21
-97.5
  0
LINE
  5
319
100
AcDbEntity
  8
RACCORDO
100
AcDbLine
 62
250
  6
CONTINUOUS
 10
54.4
 20
-96.8469076856
 11
54.3999999989
 21
-97.5
  0
LINE
  5
31A
100
AcDbEntity
  8
0
100
AcDbLine
 62
7
  6
CONTINUOUS
 10
-11.1960930686
 20
54.4
 11
-10.0700680665
 21
54.4
  0
LINE
  5
31B
100
AcDbEntity
  8
0
100
AcDbLine
 62
7
  6
CONTINUOUS
 10
10.0700680665
 20
54.4
 11
11.1960930686
 21
54.4
  0
LINE
  5
31C
100
AcDbEntity
  8
0
100
AcDbLine
 62
7
  6
CONTINUOUS
 10
11.1960930686
 20
56.6
 11
10.0700680665
 21
56.6
  0
LINE
  5
31D
100
AcDbEntity
  8
0
100
AcDbLine
 62
7
  6
CONTINUOUS
 10
-10.0700680665
 20
56.6
 11
-11.1960930686
 21
56.6
  0
LWPOLYLINE
  5
31E
100
AcDbEntity
  8
0
100
AcDbPolyline
 62
7
  6
CONTINUOUS
 90
4
 70
0
 10
1.3164265683
 20
84.8051772316
 10
1.3944351714
 20
84.7123357576
 10
1.4808282158
 20
84.6340871699
 10
1.5759368761
 20
84.5702055437
  0
LINE
  5
31F
100
AcDbEntity
  8
0
100
AcDbLine
 62
7
  6
CONTINUOUS
 10
-3.084683
 20
86.796
 11
-2.905948
 21
86.573703
  0
LWPOLYLINE
  5
320
100
AcDbEntity
  8
ASSI
100
AcDbPolyline
 62
7
  6
CONTINUOUS
 90
22
 70
0
 10
67.6159885716
 20
-11.5
 10
67.6010187796
 20
-11.4674279611
 10
67.5860489875
 20
-11.3707828089
 10
67.5713280251
 20
-11.2116709901
 10
67.5568600514
 20
-10.9890483915
 10
67.5426409072
 20
-10.7039591264
 10
67.5289069449
 20
-10.3611419809
 10
67.5156662741
 20
-9.9596320493
 10
67.5029107851
 20
-9.5003942374
 10
67.4908525011
 20
-8.9910620484
 10
67.4795030757
 20
-8.4307981684
 10
67.4688508554
 20
-7.8204399112
 10
67.4590729024
 20
-7.1701327214
 10
67.45018383
 20
-6.4792088633
 10
67.4421690251
 20
-5.7483360726
 10
67.4351617106
 20
-4.9896629999
 10
67.4291787264
 20
-4.2027249711
 10
67.4242032327
 20
-3.3879866603
 10
67.4203179326
 20
-2.5589907405
 10
67.4175503939
 20
-1.720251436
 10
67.4158730489
 20
-0.8672545225
 10
67.4152858976
 20
0.0
  0
LINE
  5
321
100
AcDbEntity
  8
DRAFT
100
AcDbLine
 62
7
  6
CONTINUOUS
 10
60.3621154889
 20
96.6378845111
 11
60.3621154889
 21
92.5
  0
LINE
  5
322
100
AcDbEntity
  8
DRAFT
100
AcDbLine
 62
7
  6
CONTINUOUS
 10
60.3621154889
 20
-96.6378845111
 11
60.3621154889
 21
-92.5
  0
LINE
  5
323
100
AcDbEntity
  8
DRAFT
100
AcDbLine
 62
7
  6
CONTINUOUS
 10
60.5
 20
96.5
 11
60.5
 21
92.5
  0
LINE
  5
324
100
AcDbEntity
  8
DRAFT
100
AcDbLine
 62
7
  6
CONTINUOUS
 10
60.5
 20
-96.5
 11
60.5
 21
-92.5
  0
LINE
  5
325
100
AcDbEntity
  8
DRAFT
100
AcDbLine
 62
250
  6
CONTINUOUS
 10
62.0
 20
91.0
 11
62.0
 21
90.8621154889
  0
LINE
  5
326
100
AcDbEntity
  8
DRAFT
100
AcDbLine
 62
250
  6
CONTINUOUS
 10
62.0
 20
-91.0
 11
62.0
 21
-90.8621154889
  0
LINE
  5
327
100
AcDbEntity
  8
DRAFT
100
AcDbLine
 62
250
  6
CONTINUOUS
 10
62.0
 20
-96.5
 11
62.0
 21
-96.6378845111
  0
LINE
  5
328
100
AcDbEntity
  8
RACCORDO
100
AcDbLine
 62
250
  6
CONTINUOUS
 10
62.0
 20
-96.7731956082
 11
62.0
 21
-98.5
  0
LINE
  5
329
100
AcDbEntity
  8
DRAFT
100
AcDbLine
 62
250
  6
CONTINUOUS
 10
62.0
 20
96.5
 11
62.0
 21
96.6378845111
  0
LINE
  5
32A
100
AcDbEntity
  8
RACCORDO
100
AcDbLine
 62
250
  6
CONTINUOUS
 10
62.0
 20
96.7731956082
 11
62.0
 21
98.5
  0
LWPOLYLINE
  5
32B
100
AcDbEntity
  8
RACCORDO
100
AcDbPolyline
 62
250
  6
CONTINUOUS
 90
7
 70
0
 10
66.3469076856
 20
86.4
 10
66.3487707008
 20
86.4341980983
 10
66.3551227904
 20
86.4678902129
 10
66.3659579852
 20
86.5010763437
 10
66.3812643602
 20
86.5337564908
 10
66.4010213188
 20
86.5659306541
 10
66.4251957628
 20
86.5975988336
  0
LWPOLYLINE
  5
32C
100
AcDbEntity
  8
RACCORDO
100
AcDbPolyline
 62
250
  6
CONTINUOUS
 90
10
 70
0
 10
67.3730274548
 20
87.0189984384
 10
67.3679608823
 20
86.9348145028
 10
67.3528074684
 20
86.8518526613
 10
67.3277871965
 20
86.771317277
 10
67.2932632876
 20
86.6943774877
 10
67.2497369279
 20
86.6221502338
 10
67.1978399924
 20
86.5556840432
 10
67.1383258726
 20
86.4959438104
 10
67.0720585393
 20
86.4437967887
 10
67.0
 20
86.4
  0
LWPOLYLINE
  5
32D
100
AcDbEntity
  8
RACCORDO
100
AcDbPolyline
 62
7
  6
CONTINUOUS
 90
10
 70
0
 10
67.4499826672
 20
87.0538573285
 10
67.4437159062
 20
86.9603597868
 10
67.425018769
 20
86.8685385773
 10
67.3942263093
 20
86.7800391417
 10
67.35189033
 20
86.6964473952
 10
67.2987694942
 20
86.6192613068
 10
67.2358157301
 20
86.5498640556
 10
67.164157173
 20
86.4894992445
 10
67.0850779483
 20
86.4392486146
 10
66.9999951604
 20
86.40001266
  0
LWPOLYLINE
  5
32E
100
AcDbEntity
  8
RACCORDO
100
AcDbPolyline
 62
250
  6
CONTINUOUS
 90
4
 70
0
 10
47.9810015616
 20
-97.8730280729
 10
47.9818161992
 20
-97.8678771904
 10
47.9842529771
 20
-97.8555162281
 10
47.9938567423
 20
-97.8092162648
  0
LWPOLYLINE
  5
32F
100
AcDbEntity
  8
RACCORDO
100
AcDbPolyline
 62
250
  6
CONTINUOUS
 90
10
 70
0
 10
-66.4199227178
 20
-80.4090383868
 10
-66.5251434845
 20
-80.4397603191
 10
-66.6252762538
 20
-80.4696951468
 10
-66.7177555959
 20
-80.4980759313
 10
-66.8007896676
 20
-80.5225289408
 10
-66.8713996604
 20
-80.5449395479
 10
-66.9269176471
 20
-80.5669321405
 10
-66.9670094664
 20
-80.5850364489
 10
-66.9916695335
 20
-80.5959741121
 10
-66.9999999351
 20
-80.6000004518
  0
LWPOLYLINE
  5
330
100
AcDbEntity
  8
0
100
AcDbPolyline
 62
7
  6
CONTINUOUS
 90
9
 70
0
 10
0.2498984756
 20
87.0632687617
 10
0.2775122182
 20
87.035247846
 10
0.3038298639
 20
87.0052108702
 10
0.3288514128
 20
86.9731578343
 10
0.352709855
 20
86.9389759768
 10
0.3752722004
 20
86.9027780593
 10
0.3961394783
 20
86.8649023664
 10
0.4151786983
 20
86.8254616597
 10
0.4325228507
 20
86.7843431775
  0
LWPOLYLINE
  5
331
100
AcDbEntity
  8
RACCORDO
100
AcDbPolyline
 62
7
  6
CONTINUOUS
 90
10
 70
0
 10
67.4499521987
 20
79.9461426692
 10
67.4436915695
 20
80.0396398783
 10
67.4250001052
 20
80.1314614913
 10
67.3942127823
 20
80.2199619412
 10
67.3518813512
 20
80.3035551802
 10
67.2987644482
 20
80.3807431048
 10
67.2358139999
 20
80.4501424033
 10
67.1641581632
 20
80.5105093468
 10
67.0850811074
 20
80.5607620779
 10
67.0
 20
80.6
  0
LWPOLYLINE
  5
332
100
AcDbEntity
  8
RACCORDO
100
AcDbPolyline
 62
250
  6
CONTINUOUS
 90
10
 70
0
 10
67.3730638048
 20
79.9810015641
 10
67.3679914927
 20
80.065186133
 10
67.3528327049
 20
80.1481481814
 10
67.3278074806
 20
80.2286834648
 10
67.2932790761
 20
80.3056229648
 10
67.2497486921
 20
80.3778498578
 10
67.1978481987
 20
80.4443157268
 10
67.1383309628
 20
80.5040557795
 10
67.0720609132
 20
80.5562028527
 10
67.0
 20
80.6
  0
LINE
  5
333
100
AcDbEntity
  8
RACCORDO
100
AcDbLine
 62
250
  6
CONTINUOUS
 10
67.4595098517
 20
86.8852063018
 11
67.4617952008
 21
86.7767019759
  0
LINE
  5
334
100
AcDbEntity
  8
RACCORDO
100
AcDbLine
 62
250
  6
CONTINUOUS
 10
67.4617952008
 20
86.7767019759
 11
67.4637036047
 21
86.6464618769
  0
LINE
  5
335
100
AcDbEntity
  8
RACCORDO
100
AcDbLine
 62
250
  6
CONTINUOUS
 10
67.4637036047
 20
86.6464618769
 11
67.4657269813
 21
86.4222279785
  0
LINE
  5
336
100
AcDbEntity
  8
RACCORDO
100
AcDbLine
 62
250
  6
CONTINUOUS
 10
67.4657269813
 20
86.4222279785
 11
67.4666504786
 21
86.1821087126
  0
LWPOLYLINE
  5
337
100
AcDbEntity
  8
ASSI
100
AcDbPolyline
 62
7
  6
CONTINUOUS
 90
22
 70
0
 10
67.4152858976
 20
-55.5
 10
67.4158730489
 20
-56.3672545225
 10
67.4175503939
 20
-57.220251436
 10
67.4203179326
 20
-58.0589907405
 10
67.4242032327
 20
-58.8879866603
 10
67.4291787264
 20
-59.7027249711
 10
67.4351617106
 20
-60.4896629999
 10
67.4421690251
 20
-61.2483360726
 10
67.45018383
 20
-61.9792088633
 10
67.4590729024
 20
-62.6701327214
 10
67.4688508554
 20
-63.3204399112
 10
67.4795030757
 20
-63.9307981684
 10
67.4908525011
 20
-64.4910620484
 10
67.5029107851
 20
-65.0003942374
 10
67.5156662741
 20
-65.4596320493
 10
67.5289069449
 20
-65.8611419809
 10
67.5426409072
 20
-66.2039591264
 10
67.5568600514
 20
-66.4890483915
 10
67.5713280251
 20
-66.7116709901
 10
67.5860489875
 20
-66.8707828089
 10
67.6010187796
 20
-66.9674279611
 10
67.6159885716
 20
-67.0
  0
LWPOLYLINE
  5
338
100
AcDbEntity
  8
ASSI
100
AcDbPolyline
 62
7
  6
CONTINUOUS
 90
22
 70
0
 10
67.8166912456
 20
-55.5
 10
67.8161040942
 20
-54.6327454775
 10
67.8144267492
 20
-53.779748564
 10
67.8116592105
 20
-52.9410092595
 10
67.8077739105
 20
-52.1120133397
 10
67.8027984167
 20
-51.2972750289
 10
67.7968154326
 20
-50.5103370001
 10
67.7898081181
 20
-49.7516639274
 10
67.7817933131
 20
-49.0207911367
 10
67.7729042408
 20
-48.3298672786
 10
67.7631262878
 20
-47.6795600888
 10
67.7524740674
 20
-47.0692018316
 10
67.741124642
 20
-46.5089379516
 10
67.7290663581
 20
-45.9996057626
 10
67.7163108691
 20
-45.5403679507
 10
67.7030701982
 20
-45.1388580191
 10
67.6893362359
 20
-44.7960408736
 10
67.6751170918
 20
-44.5109516085
 10
67.6606491181
 20
-44.2883290099
 10
67.6459281556
 20
-44.1292171911
 10
67.6309583636
 20
-44.0325720389
 10
67.6159885716
 20
-44.0
  0
LINE
  5
339
100
AcDbEntity
  8
DRAFT
100
AcDbLine
 62
7
  6
CONTINUOUS
 10
66.0
 20
-91.0
 11
66.0
 21
-92.5
  0
LINE
  5
33A
100
AcDbEntity
  8
DRAFT
100
AcDbLine
 62
7
  6
CONTINUOUS
 10
66.0
 20
91.0
 11
66.0
 21
92.5
  0
LINE
  5
33B
100
AcDbEntity
  8
DRAFT
100
AcDbLine
 62
7
  6
CONTINUOUS
 10
66.1378845111
 20
-90.8621154889
 11
66.1378845111
 21
-92.5
  0
LINE
  5
33C
100
AcDbEntity
  8
DRAFT
100
AcDbLine
 62
7
  6
CONTINUOUS
 10
66.1378845111
 20
90.8621154889
 11
66.1378845111
 21
92.5
  0
LINE
  5
33D
100
AcDbEntity
  8
RACCORDO
100
AcDbLine
 62
250
  6
CONTINUOUS
 10
66.2731956082
 20
-92.5
 11
66.2731956082
 21
92.5
  0
LINE
  5
33E
100
AcDbEntity
  8
RACCORDO
100
AcDbLine
 62
250
  6
CONTINUOUS
 10
66.3469076856
 20
80.6
 11
66.3469076856
 21
86.4
  0
LINE
  5
33F
100
AcDbEntity
  8
RACCORDO
100
AcDbLine
 62
7
  6
CONTINUOUS
 10
67.0
 20
80.6
 11
67.0
 21
86.3999999989
  0
LINE
  5
340
100
AcDbEntity
  8
RACCORDO
100
AcDbLine
 62
250
  6
CONTINUOUS
 10
67.3730280729
 20
-92.5
 11
67.3730280729
 21
79.9810015616
  0
LINE
  5
341
100
AcDbEntity
  8
RACCORDO
100
AcDbLine
 62
250
  6
CONTINUOUS
 10
67.3730280729
 20
87.0189984384
 11
67.3730280729
 21
92.5
  0
LINE
  5
342
100
AcDbEntity
  8
RACCORDO
100
AcDbLine
 62
250
  6
CONTINUOUS
 10
67.4666504786
 20
86.1821087126
 11
67.4667094077
 21
80.9
  0
LINE
  5
343
100
AcDbEntity
  8
SUPERFICI
100
AcDbLine
 62
7
  6
CONTINUOUS
 10
68.0000003491
 20
92.5000001756
 11
68.0000003491
 21
-92.5000001756
  0
LINE
  5
344
100
AcDbEntity
  8
DRAFT
100
AcDbLine
 62
7
  6
CONTINUOUS
 10
68.0
 20
-92.5
 11
68.0
 21
92.5
  0
LWPOLYLINE
  5
345
100
AcDbEntity
  8
ASSI
100
AcDbPolyline
 62
7
  6
CONTINUOUS
 90
22
 70
0
 10
67.4152858976
 20
55.5
 10
67.4158730489
 20
56.3672545225
 10
67.4175503939
 20
57.220251436
 10
67.4203179326
 20
58.0589907405
 10
67.4242032327
 20
58.8879866603
 10
67.4291787264
 20
59.7027249711
 10
67.4351617106
 20
60.4896629999
 10
67.4421690251
 20
61.2483360726
 10
67.45018383
 20
61.9792088633
 10
67.4590729024
 20
62.6701327214
 10
67.4688508554
 20
63.3204399112
 10
67.4795030757
 20
63.9307981684
 10
67.4908525011
 20
64.4910620484
 10
67.5029107851
 20
65.0003942374
 10
67.5156662741
 20
65.4596320493
 10
67.5289069449
 20
65.8611419809
 10
67.5426409072
 20
66.2039591264
 10
67.5568600514
 20
66.4890483915
 10
67.5713280251
 20
66.7116709901
 10
67.5860489875
 20
66.8707828089
 10
67.6010187796
 20
66.9674279611
 10
67.6159885716
 20
67.0
  0
LWPOLYLINE
  5
346
100
AcDbEntity
  8
ASSI
100
AcDbPolyline
 62
7
  6
CONTINUOUS
 90
22
 70
0
 10
67.4152858976
 20
0.0
 10
67.4158730489
 20
0.8672545225
 10
67.4175503939
 20
1.720251436
 10
67.4203179326
 20
2.5589907405
 10
67.4242032327
 20
3.3879866603
 10
67.4291787264
 20
4.2027249711
 10
67.4351617106
 20
4.9896629999
 10
67.4421690251
 20
5.7483360726
 10
67.45018383
 20
6.4792088633
 10
67.4590729024
 20
7.1701327214
 10
67.4688508554
 20
7.8204399112
 10
67.4795030757
 20
8.4307981684
 10
67.4908525011
 20
8.9910620484
 10
67.5029107851
 20
9.5003942374
 10
67.5156662741
 20
9.9596320493
 10
67.5289069449
 20
10.3611419809
 10
67.5426409072
 20
10.7039591264
 10
67.5568600514
 20
10.9890483915
 10
67.5713280251
 20
11.2116709901
 10
67.5860489875
 20
11.3707828089
 10
67.6010187796
 20
11.4674279611
 10
67.6159885716
 20
11.5
  0
LWPOLYLINE
  5
347
100
AcDbEntity
  8
ASSI
100
AcDbPolyline
 62
7
  6
CONTINUOUS
 90
22
 70
0
 10
67.8166912456
 20
55.5
 10
67.8161040942
 20
54.6327454775
 10
67.8144267492
 20
53.779748564
 10
67.8116592105
 20
52.9410092595
 10
67.8077739105
 20
52.1120133397
 10
67.8027984167
 20
51.2972750289
 10
67.7968154326
 20
50.5103370001
 10
67.7898081181
 20
49.7516639274
 10
67.7817933131
 20
49.0207911367
 10
67.7729042408
 20
48.3298672786
 10
67.7631262878
 20
47.6795600888
 10
67.7524740674
 20
47.0692018316
 10
67.741124642
 20
46.5089379516
 10
67.7290663581
 20
45.9996057626
 10
67.7163108691
 20
45.5403679507
 10
67.7030701982
 20
45.1388580191
 10
67.6893362359
 20
44.7960408736
 10
67.6751170918
 20
44.5109516085
 10
67.6606491181
 20
44.2883290099
 10
67.6459281556
 20
44.1292171911
 10
67.6309583636
 20
44.0325720389
 10
67.6159885716
 20
44.0
  0
LWPOLYLINE
  5
348
100
AcDbEntity
  8
ASSI
100
AcDbPolyline
 62
7
  6
CONTINUOUS
 90
22
 70
0
 10
67.8166912456
 20
0.0
 10
67.8161040942
 20
-0.8672545225
 10
67.8144267492
 20
-1.720251436
 10
67.8116592105
 20
-2.5589907405
 10
67.8077739105
 20
-3.3879866603
 10
67.8027984167
 20
-4.2027249711
 10
67.7968154326
 20
-4.9896629999
 10
67.7898081181
 20
-5.7483360726
 10
67.7817933131
 20
-6.4792088633
 10
67.7729042408
 20
-7.1701327214
 10
67.7631262878
 20
-7.8204399112
 10
67.7524740674
 20
-8.4307981684
 10
67.741124642
 20
-8.9910620484
 10
67.7290663581
 20
-9.5003942374
 10
67.7163108691
 20
-9.9596320493
 10
67.7030701982
 20
-10.3611419809
 10
67.6893362359
 20
-10.7039591264
 10
67.6751170918
 20
-10.9890483915
 10
67.6606491181
 20
-11.2116709901
 10
67.6459281556
 20
-11.3707828089
 10
67.6309583636
 20
-11.4674279611
 10
67.6159885716
 20
-11.5
  0
LINE
  5
349
100
AcDbEntity
  8
RACCORDO
100
AcDbLine
 62
250
  6
CONTINUOUS
 10
67.4667094077
 20
80.9
 11
67.4661606668
 21
80.6571450318
  0
LINE
  5
34A
100
AcDbEntity
  8
RACCORDO
100
AcDbLine
 62
250
  6
CONTINUOUS
 10
67.4661606668
 20
80.6571450318
 11
67.4644959748
 21
80.4247227495
  0
LINE
  5
34B
100
AcDbEntity
  8
RACCORDO
100
AcDbLine
 62
250
  6
CONTINUOUS
 10
67.4644959748
 20
80.4247227495
 11
67.4627949866
 21
80.2857074646
  0
LWPOLYLINE
  5
34C
100
AcDbEntity
  8
RACCORDO
100
AcDbPolyline
 62
250
  6
CONTINUOUS
 90
10
 70
0
 10
67.4627949866
 20
80.2857074646
 10
67.4606979953
 20
80.1663417481
 10
67.4595091
 20
80.1147639634
 10
67.4582609544
 20
80.0698093023
 10
67.4569513628
 20
80.0317438991
 10
67.4555825211
 20
80.0003016195
 10
67.4541942072
 20
79.9759714572
 10
67.4527996808
 20
79.9589164104
 10
67.4513856823
 20
79.9489734811
 10
67.4499522117
 20
79.9461426692
  0
LWPOLYLINE
  5
34D
100
AcDbEntity
  8
RACCORDO
100
AcDbPolyline
 62
250
  6
CONTINUOUS
 90
18
 70
0
 10
47.9938567423
 20
-97.8092162648
 10
48.0010237297
 20
-97.7754294811
 10
48.0102214926
 20
-97.7351029158
 10
48.0214635289
 20
-97.6884345808
 10
48.0347363408
 20
-97.6359438781
 10
48.0504080697
 20
-97.5791220904
 10
48.0686563813
 20
-97.5186058159
 10
48.0893036099
 20
-97.4551519959
 10
48.1121849001
 20
-97.3909764228
 10
48.1373075196
 20
-97.3272369903
 10
48.1646642008
 20
-97.2643601612
 10
48.1940682844
 20
-97.2036604332
 10
48.2256085335
 20
-97.1456840178
 10
48.2591961852
 20
-97.0909343848
 10
48.2943782912
 20
-97.040617039
 10
48.3310038687
 20
-96.9953320284
 10
48.3692239006
 20
-96.9550440598
 10
48.4090383868
 20
-96.9199227178
  0
LWPOLYLINE
  5
34E
100
AcDbEntity
  8
ASSI
100
AcDbPolyline
 62
7
  6
CONTINUOUS
 90
22
 70
0
 10
-45.5
 20
-98.1159885716
 10
-45.4674279611
 20
-98.1010187796
 10
-45.3707828089
 20
-98.0860489875
 10
-45.2116709901
 20
-98.0713280251
 10
-44.9890483915
 20
-98.0568600514
 10
-44.7039591264
 20
-98.0426409072
 10
-44.3611419809
 20
-98.0289069449
 10
-43.9596320493
 20
-98.0156662741
 10
-43.5003942374
 20
-98.0029107851
 10
-42.9910620484
 20
-97.9908525011
 10
-42.4307981684
 20
-97.9795030757
 10
-41.8204399112
 20
-97.9688508554
 10
-41.1701327214
 20
-97.9590729024
 10
-40.4792088633
 20
-97.95018383
 10
-39.7483360726
 20
-97.9421690251
 10
-38.9896629999
 20
-97.9351617106
 10
-38.2027249711
 20
-97.9291787264
 10
-37.3879866603
 20
-97.9242032327
 10
-36.5589907405
 20
-97.9203179326
 10
-35.720251436
 20
-97.9175503939
 10
-34.8672545225
 20
-97.9158730489
 10
-34.0
 20
-97.9152858976
  0
LWPOLYLINE
  5
34F
100
AcDbEntity
  8
RACCORDO
100
AcDbPolyline
 62
250
  6
CONTINUOUS
 90
4
 70
0
 10
67.3084284202
 20
87.0059938452
 10
67.3551366491
 20
87.0156372686
 10
67.3677507952
 20
87.0181193609
 10
67.3730280729
 20
87.0189984384
  0
LWPOLYLINE
  5
350
100
AcDbEntity
  8
0
100
AcDbPolyline
 62
7
  6
CONTINUOUS
 90
22
 70
0
 10
-45.5
 20
98.1159885716
 10
-45.4674279611
 20
98.1010187796
 10
-45.3707828089
 20
98.0860489875
 10
-45.2116709901
 20
98.0713280251
 10
-44.9890483915
 20
98.0568600514
 10
-44.7039591264
 20
98.0426409072
 10
-44.3611419809
 20
98.0289069449
 10
-43.9596320493
 20
98.0156662741
 10
-43.5003942374
 20
98.0029107851
 10
-42.9910620484
 20
97.9908525011
 10
-42.4307981684
 20
97.9795030757
 10
-41.8204399112
 20
97.9688508554
 10
-41.1701327214
 20
97.9590729024
 10
-40.4792088633
 20
97.95018383
 10
-39.7483360726
 20
97.9421690251
 10
-38.9896629999
 20
97.9351617106
 10
-38.2027249711
 20
97.9291787264
 10
-37.3879866603
 20
97.9242032327
 10
-36.5589907405
 20
97.9203179326
 10
-35.720251436
 20
97.9175503939
 10
-34.8672545225
 20
97.9158730489
 10
-34.0
 20
97.9152858976
  0
LWPOLYLINE
  5
351
100
AcDbEntity
  8
0
100
AcDbPolyline
 62
7
  6
CONTINUOUS
 90
8
 70
0
 10
2.4863843809
 20
85.7594046983
 10
2.5288537515
 20
85.7284247463
 10
2.5673776677
 20
85.6915847452
 10
2.6019561295
 20
85.6488846951
 10
2.6332849876
 20
85.5994766759
 10
2.6606683913
 20
85.5442086076
 10
2.6820187878
 20
85.4856242505
 10
2.6966403261
 20
85.4245715246
  0
LWPOLYLINE
  5
352
100
AcDbEntity
  8
0
100
AcDbPolyline
 62
7
  6
CONTINUOUS
 90
11
 70
0
 10
2.6629210445
 20
87.2675476617
 10
2.6129383486
 20
87.3048537459
 10
2.5591660552
 20
87.3379752919
 10
2.500840903
 20
87.3672853247
 10
2.4375042148
 20
87.3933614821
 10
2.3696146679
 20
87.4156261262
 10
2.2977850323
 20
87.4327193687
 10
2.2218966368
 20
87.4447097428
 10
2.1420681527
 20
87.4515287154
 10
2.0592683638
 20
87.4516107976
 10
1.9729776042
 20
87.4459822756
  0
LINE
  5
353
100
AcDbEntity
  8
0
100
AcDbLine
 62
7
  6
CONTINUOUS
 10
0.4589822144
 20
87.2425811784
 11
0.3822868823
 21
87.3065899679
  0
LWPOLYLINE
  5
354
100
AcDbEntity
  8
ASSI
100
AcDbPolyline
 62
7
  6
CONTINUOUS
 90
22
 70
0
 10
67.6159885716
 20
11.5
 10
67.6309583636
 20
11.4674279611
 10
67.6459281556
 20
11.3707828089
 10
67.6606491181
 20
11.2116709901
 10
67.6751170918
 20
10.9890483915
 10
67.6893362359
 20
10.7039591264
 10
67.7030701982
 20
10.3611419809
 10
67.7163108691
 20
9.9596320493
 10
67.7290663581
 20
9.5003942374
 10
67.741124642
 20
8.9910620484
 10
67.7524740674
 20
8.4307981684
 10
67.7631262878
 20
7.8204399112
 10
67.7729042408
 20
7.1701327214
 10
67.7817933131
 20
6.4792088633
 10
67.7898081181
 20
5.7483360726
 10
67.7968154326
 20
4.9896629999
 10
67.8027984167
 20
4.2027249711
 10
67.8077739105
 20
3.3879866603
 10
67.8116592105
 20
2.5589907405
 10
67.8144267492
 20
1.720251436
 10
67.8161040942
 20
0.8672545225
 10
67.8166912456
 20
0.0
  0
LWPOLYLINE
  5
355
100
AcDbEntity
  8
RACCORDO
100
AcDbPolyline
 62
250
  6
CONTINUOUS
 90
10
 70
0
 10
54.5975988336
 20
-96.9251957628
 10
54.565884613
 20
-97.029685504
 10
54.5349781254
 20
-97.1290504235
 10
54.5056665319
 20
-97.2207597847
 10
54.4786963728
 20
-97.3024778314
 10
54.454754554
 20
-97.3721232771
 10
54.4344508527
 20
-97.4279223142
 10
54.418302386
 20
-97.4684537904
 10
54.4067204411
 20
-97.4926854049
 10
54.4
 20
-97.5
  0
LWPOLYLINE
  5
356
100
AcDbEntity
  8
RACCORDO
100
AcDbPolyline
 62
250
  6
CONTINUOUS
 90
10
 70
0
 10
47.9461426692
 20
-97.9499522117
 10
47.94949657
 20
-97.9413426765
 10
47.9529789475
 20
-97.9327487428
 10
47.9565898018
 20
-97.9241704107
 10
47.9603273319
 20
-97.9156076792
 10
47.9641933388
 20
-97.9070605494
 10
47.968193225
 20
-97.8985290235
 10
47.9723287913
 20
-97.8900131026
 10
47.9765982368
 20
-97.8815127857
 10
47.9810015616
 20
-97.8730280729
  0
LWPOLYLINE
  5
357
100
AcDbEntity
  8
ASSI
100
AcDbPolyline
 62
7
  6
CONTINUOUS
 90
22
 70
0
 10
67.6159885716
 20
-44.0
 10
67.6010187796
 20
-44.0325720389
 10
67.5860489875
 20
-44.1292171911
 10
67.5713280251
 20
-44.2883290099
 10
67.5568600514
 20
-44.5109516085
 10
67.5426409072
 20
-44.7960408736
 10
67.5289069449
 20
-45.1388580191
 10
67.5156662741
 20
-45.5403679507
 10
67.5029107851
 20
-45.9996057626
 10
67.4908525011
 20
-46.5089379516
 10
67.4795030757
 20
-47.0692018316
 10
67.4688508554
 20
-47.6795600888
 10
67.4590729024
 20
-48.3298672786
 10
67.45018383
 20
-49.0207911367
 10
67.4421690251
 20
-49.7516639274
 10
67.4351617106
 20
-50.5103370001
 10
67.4291787264
 20
-51.2972750289
 10
67.4242032327
 20
-52.1120133397
 10
67.4203179326
 20
-52.9410092595
 10
67.4175503939
 20
-53.779748564
 10
67.4158730489
 20
-54.6327454775
 10
67.4152858976
 20
-55.5
  0
LWPOLYLINE
  5
358
100
AcDbEntity
  8
ASSI
100
AcDbPolyline
 62
7
  6
CONTINUOUS
 90
22
 70
0
 10
-22.5
 20
-98.1159885716
 10
-22.5325720389
 20
-98.1309583636
 10
-22.6292171911
 20
-98.1459281556
 10
-22.7883290099
 20
-98.1606491181
 10
-23.0109516085
 20
-98.1751170918
 10
-23.2960408736
 20
-98.1893362359
 10
-23.6388580191
 20
-98.2030701982
 10
-24.0403679507
 20
-98.2163108691
 10
-24.4996057626
 20
-98.2290663581
 10
-25.0089379516
 20
-98.241124642
 10
-25.5692018316
 20
-98.2524740674
 10
-26.1795600888
 20
-98.2631262878
 10
-26.8298672786
 20
-98.2729042408
 10
-27.5207911367
 20
-98.2817933131
 10
-28.2516639274
 20
-98.2898081181
 10
-29.0103370001
 20
-98.2968154326
 10
-29.7972750289
 20
-98.3027984167
 10
-30.6120133397
 20
-98.3077739105
 10
-31.4410092595
 20
-98.3116592105
 10
-32.279748564
 20
-98.3144267492
 10
-33.1327454775
 20
-98.3161040942
 10
-34.0
 20
-98.3166912456
  0
LINE
  5
359
100
AcDbEntity
  8
0
100
AcDbLine
 62
7
  6
CONTINUOUS
 10
-51.4
 20
73.5
 11
-51.6
 21
73.5
  0
LINE
  5
35A
100
AcDbEntity
  8
RACCORDO
100
AcDbLine
 62
250
  6
CONTINUOUS
 10
66.3469076856
 20
80.6
 11
67.0
 21
80.6
  0
LWPOLYLINE
  5
35B
100
AcDbEntity
  8
0
100
AcDbPolyline
 62
7
  6
CONTINUOUS
 90
22
 70
0
 10
-22.5
 20
98.1159885716
 10
-22.5325720389
 20
98.1309583636
 10
-22.6292171911
 20
98.1459281556
 10
-22.7883290099
 20
98.1606491181
 10
-23.0109516085
 20
98.1751170918
 10
-23.2960408736
 20
98.1893362359
 10
-23.6388580191
 20
98.2030701982
 10
-24.0403679507
 20
98.2163108691
 10
-24.4996057626
 20
98.2290663581
 10
-25.0089379516
 20
98.241124642
 10
-25.5692018316
 20
98.2524740674
 10
-26.1795600888
 20
98.2631262878
 10
-26.8298672786
 20
98.2729042408
 10
-27.5207911367
 20
98.2817933131
 10
-28.2516639274
 20
98.2898081181
 10
-29.0103370001
 20
98.2968154326
 10
-29.7972750289
 20
98.3027984167
 10
-30.6120133397
 20
98.3077739105
 10
-31.4410092595
 20
98.3116592105
 10
-32.279748564
 20
98.3144267492
 10
-33.1327454775
 20
98.3161040942
 10
-34.0
 20
98.3166912456
  0
LINE
  5
35C
100
AcDbEntity
  8
0
100
AcDbLine
 62
7
  6
CONTINUOUS
 10
2.6345925431
 20
85.9499281723
 11
2.5409956434
 21
85.9935694957
  0
LWPOLYLINE
  5
35D
100
AcDbEntity
  8
0
100
AcDbPolyline
 62
7
  6
CONTINUOUS
 90
5
 70
0
 10
1.5759368761
 20
84.5702055437
 10
1.6807546763
 20
84.5200131051
 10
1.79878096
 20
84.4832284653
 10
1.9265163835
 20
84.4601330131
 10
2.0544564391
 20
84.4508931396
  0
LINE
  5
35E
100
AcDbEntity
  8
0
100
AcDbLine
 62
7
  6
CONTINUOUS
 10
1.300972084
 20
86.9945939571
 11
1.5551718517
 21
86.8648030757
  0
LINE
  5
35F
100
AcDbEntity
  8
0
100
AcDbLine
 62
7
  6
CONTINUOUS
 10
2.427466908
 20
85.7910737942
 11
2.4863843809
 21
85.7594046983
  0
LWPOLYLINE
  5
360
100
AcDbEntity
  8
0
100
AcDbPolyline
 62
7
  6
CONTINUOUS
 90
5
 70
0
 10
0.3822868823
 20
87.3065899679
 10
0.2988534281
 20
87.358629829
 10
0.2072965436
 20
87.3991462172
 10
0.1071544594
 20
87.4282876177
 10
-0.0011110552
 20
87.4459055453
  0
LWPOLYLINE
  5
361
100
AcDbEntity
  8
ASSI
100
AcDbPolyline
 62
7
  6
CONTINUOUS
 90
22
 70
0
 10
67.6159885716
 20
44.0
 10
67.6010187796
 20
44.0325720389
 10
67.5860489875
 20
44.1292171911
 10
67.5713280251
 20
44.2883290099
 10
67.5568600514
 20
44.5109516085
 10
67.5426409072
 20
44.7960408736
 10
67.5289069449
 20
45.1388580191
 10
67.5156662741
 20
45.5403679507
 10
67.5029107851
 20
45.9996057626
 10
67.4908525011
 20
46.5089379516
 10
67.4795030757
 20
47.0692018316
 10
67.4688508554
 20
47.6795600888
 10
67.4590729024
 20
48.3298672786
 10
67.45018383
 20
49.0207911367
 10
67.4421690251
 20
49.7516639274
 10
67.4351617106
 20
50.5103370001
 10
67.4291787264
 20
51.2972750289
 10
67.4242032327
 20
52.1120133397
 10
67.4203179326
 20
52.9410092595
 10
67.4175503939
 20
53.779748564
 10
67.4158730489
 20
54.6327454775
 10
67.4152858976
 20
55.5
  0
LWPOLYLINE
  5
362
100
AcDbEntity
  8
ASSI
100
AcDbPolyline
 62
7
  6
CONTINUOUS
 90
22
 70
0
 10
-11.5
 20
-98.1159885716
 10
-11.4674279611
 20
-98.1010187796
 10
-11.3707828089
 20
-98.0860489875
 10
-11.2116709901
 20
-98.0713280251
 10
-10.9890483915
 20
-98.0568600514
 10
-10.7039591264
 20
-98.0426409072
 10
-10.3611419809
 20
-98.0289069449
 10
-9.9596320493
 20
-98.0156662741
 10
-9.5003942374
 20
-98.0029107851
 10
-8.9910620484
 20
-97.9908525011
 10
-8.4307981684
 20
-97.9795030757
 10
-7.8204399112
 20
-97.9688508554
 10
-7.1701327214
 20
-97.9590729024
 10
-6.4792088633
 20
-97.95018383
 10
-5.7483360726
 20
-97.9421690251
 10
-4.9896629999
 20
-97.9351617106
 10
-4.2027249711
 20
-97.9291787264
 10
-3.3879866603
 20
-97.9242032327
 10
-2.5589907405
 20
-97.9203179326
 10
-1.720251436
 20
-97.9175503939
 10
-0.8672545225
 20
-97.9158730489
 10
-0.0
 20
-97.9152858976
  0
LWPOLYLINE
  5
363
100
AcDbEntity
  8
0
100
AcDbPolyline
 62
7
  6
CONTINUOUS
 90
13
 70
0
 10
2.3191329753
 20
84.7488529211
 10
2.232785151
 20
84.7281249596
 10
2.140411802
 20
84.7185990213
 10
2.0496689903
 20
84.7185693207
 10
1.9611353227
 20
84.7276560274
 10
1.8742321926
 20
84.7462389718
 10
1.7948798416
 20
84.77375186
 10
1.7249467302
 20
84.809921976
 10
1.6625643981
 20
84.8550220358
 10
1.6080477061
 20
84.9093038928
 10
1.561501608
 20
84.9728514985
 10
1.5228211501
 20
85.0455809014
 10
1.4920063323
 20
85.1274921018
  0
LWPOLYLINE
  5
364
100
AcDbEntity
  8
0
100
AcDbPolyline
 62
7
  6
CONTINUOUS
 90
5
 70
0
 10
2.1739333852
 20
86.1668340968
 10
2.09677025
 20
86.1553260645
 10
2.0167044029
 20
86.1489038876
 10
1.9331196529
 20
86.1477670948
 10
1.846016
 20
86.151915686
  0
LWPOLYLINE
  5
365
100
AcDbEntity
  8
0
100
AcDbPolyline
 62
7
  6
CONTINUOUS
 90
6
 70
0
 10
1.9729776042
 20
87.4459822756
 10
1.8837155398
 20
87.4336168633
 10
1.7940099516
 20
87.4098702135
 10
1.7028717998
 20
87.3741016802
 10
1.6112901241
 20
87.3269519094
 10
1.5247598247
 20
87.2656984925
  0
LWPOLYLINE
  5
366
100
AcDbEntity
  8
0
100
AcDbPolyline
 62
7
  6
CONTINUOUS
 90
3
 70
0
 10
-0.1175
 20
87.452
 10
-0.2400390519
 20
87.4441502523
 10
-0.3531336281
 20
87.4238631224
  0
LWPOLYLINE
  5
367
100
AcDbEntity
  8
0
100
AcDbPolyline
 62
7
  6
CONTINUOUS
 90
6
 70
0
 10
-0.1184608896
 20
84.4508
 10
-0.002656922
 20
84.458180093
 10
0.1046354947
 20
84.4766226376
 10
0.2034163604
 20
84.5061276339
 10
0.2936168817
 20
84.5481654316
 10
0.3753058521
 20
84.6012656809
  0
LWPOLYLINE
  5
368
100
AcDbEntity
  8
0
100
AcDbPolyline
 62
7
  6
CONTINUOUS
 90
8
 70
0
 10
2.0544564391
 20
84.4508931396
 10
2.182710345
 20
84.4562632369
 10
2.311168883
 20
84.4754889131
 10
2.4299998901
 20
84.5064733835
 10
2.5364700566
 20
84.5498289244
 10
2.6333126922
 20
84.6049432597
 10
2.7188955634
 20
84.6678827762
 10
2.7928823732
 20
84.7368219194
  0
LINE
  5
369
100
AcDbEntity
  8
0
100
AcDbLine
 62
7
  6
CONTINUOUS
 10
1.846016
 20
85.8861843746
 11
1.9272637332
 21
85.8886517118
  0
LINE
  5
36A
100
AcDbEntity
  8
RACCORDO
100
AcDbLine
 62
250
  6
CONTINUOUS
 10
67.4667094077
 20
80.9
 11
67.0000000003
 21
80.9000000303
  0
LINE
  5
36B
100
AcDbEntity
  8
0
100
AcDbLine
 62
7
  6
CONTINUOUS
 10
-41.5
 20
83.4
 11
41.5
 21
83.4
  0
LINE
  5
36C
100
AcDbEntity
  8
0
100
AcDbLine
 62
7
  6
CONTINUOUS
 10
41.5
 20
83.6
 11
-41.5
 21
83.6
  0
LINE
  5
36D
100
AcDbEntity
  8
0
100
AcDbLine
 62
7
  6
CONTINUOUS
 10
-2.400816
 20
84.5
 11
-2.118684
 21
84.5
  0
LINE
  5
36E
100
AcDbEntity
  8
RACCORDO
100
AcDbLine
 62
250
  6
CONTINUOUS
 10
67.4667094077
 20
86.1
 11
67.0
 21
86.1
  0
LINE
  5
36F
100
AcDbEntity
  8
RACCORDO
100
AcDbLine
 62
250
  6
CONTINUOUS
 10
66.3469076856
 20
86.4
 11
67.0
 21
86.3999999989
  0
LINE
  5
370
100
AcDbEntity
  8
0
100
AcDbLine
 62
7
  6
CONTINUOUS
 10
-2.118684
 20
87.4028
 11
-2.368336
 21
87.4028
  0
LWPOLYLINE
  5
371
100
AcDbEntity
  8
0
100
AcDbPolyline
 62
7
  6
CONTINUOUS
 90
3
 70
0
 10
1.9272637332
 20
85.8886517118
 10
2.0062549035
 20
85.8871091191
 10
2.0829895109
 20
85.8815565967
  0
LWPOLYLINE
  5
372
100
AcDbEntity
  8
0
100
AcDbPolyline
 62
7
  6
CONTINUOUS
 90
13
 70
0
 10
2.1009843809
 20
87.1858843809
 10
2.1785324152
 20
87.1820724678
 10
2.2506443692
 20
87.1717914748
 10
2.3173202429
 20
87.1550414019
 10
2.3790897187
 20
87.1322378758
 10
2.4354231143
 20
87.1029652699
 10
2.4847313822
 20
87.065976704
 10
2.5265129706
 20
87.0204264286
 10
2.5612694314
 20
86.9671601933
 10
2.5889163721
 20
86.9074683673
 10
2.609425662
 20
86.8417810736
 10
2.6228254319
 20
86.7696681891
 10
2.6291156817
 20
86.6911297139
  0
LWPOLYLINE
  5
373
100
AcDbEntity
  8
0
100
AcDbPolyline
 62
7
  6
CONTINUOUS
 90
10
 70
0
 10
-0.1175
 20
87.1858843809
 10
-0.0689059235
 20
87.1834195814
 10
-0.0219905667
 20
87.1780963344
 10
0.0232460703
 20
87.16991464
 10
0.0671563689
 20
87.1587829542
 10
0.1093879478
 20
87.1447928209
 10
0.1488836623
 20
87.1282188719
 10
0.1852911311
 20
87.109152651
 10
0.2189627355
 20
87.0875026142
 10
0.2498984756
 20
87.0632687617
  0
LINE
  5
374
100
AcDbEntity
  8
0
100
AcDbLine
 62
7
  6
CONTINUOUS
 10
-0.0011110552
 20
87.4459055453
 11
-0.1175
 21
87.452
  0
LWPOLYLINE
  5
375
100
AcDbEntity
  8
0
100
AcDbPolyline
 62
7
  6
CONTINUOUS
 90
6
 70
0
 10
2.0829895109
 20
85.8815565967
 10
2.1578240351
 20
85.8721655607
 10
2.2304019965
 20
85.8587645949
 10
2.2996539556
 20
85.8408394507
 10
2.3652234329
 20
85.8182187117
 10
2.427466908
 20
85.7910737942
  0
LWPOLYLINE
  5
376
100
AcDbEntity
  8
0
100
AcDbPolyline
 62
7
  6
CONTINUOUS
 90
22
 70
0
 10
-11.5
 20
98.1159885716
 10
-11.4674279611
 20
98.1010187796
 10
-11.3707828089
 20
98.0860489875
 10
-11.2116709901
 20
98.0713280251
 10
-10.9890483915
 20
98.0568600514
 10
-10.7039591264
 20
98.0426409072
 10
-10.3611419809
 20
98.0289069449
 10
-9.9596320493
 20
98.0156662741
 10
-9.5003942374
 20
98.0029107851
 10
-8.9910620484
 20
97.9908525011
 10
-8.4307981684
 20
97.9795030757
 10
-7.8204399112
 20
97.9688508554
 10
-7.1701327214
 20
97.9590729024
 10
-6.4792088633
 20
97.95018383
 10
-5.7483360726
 20
97.9421690251
 10
-4.9896629999
 20
97.9351617106
 10
-4.2027249711
 20
97.9291787264
 10
-3.3879866603
 20
97.9242032327
 10
-2.5589907405
 20
97.9203179326
 10
-1.720251436
 20
97.9175503939
 10
-0.8672545225
 20
97.9158730489
 10
0.0
 20
97.9152858976
  0
LWPOLYLINE
  5
377
100
AcDbEntity
  8
ASSI
100
AcDbPolyline
 62
7
  6
CONTINUOUS
 90
22
 70
0
 10
67.6159885716
 20
-67.0
 10
67.6309583636
 20
-66.9674279611
 10
67.6459281556
 20
-66.8707828089
 10
67.6606491181
 20
-66.7116709901
 10
67.6751170918
 20
-66.4890483915
 10
67.6893362359
 20
-66.2039591264
 10
67.7030701982
 20
-65.8611419809
 10
67.7163108691
 20
-65.4596320493
 10
67.7290663581
 20
-65.0003942374
 10
67.741124642
 20
-64.4910620484
 10
67.7524740674
 20
-63.9307981684
 10
67.7631262878
 20
-63.3204399112
 10
67.7729042408
 20
-62.6701327214
 10
67.7817933131
 20
-61.9792088633
 10
67.7898081181
 20
-61.2483360726
 10
67.7968154326
 20
-60.4896629999
 10
67.8027984167
 20
-59.7027249711
 10
67.8077739105
 20
-58.8879866603
 10
67.8116592105
 20
-58.0589907405
 10
67.8144267492
 20
-57.220251436
 10
67.8161040942
 20
-56.3672545225
 10
67.8166912456
 20
-55.5
  0
LWPOLYLINE
  5
378
100
AcDbEntity
  8
ASSI
100
AcDbPolyline
 62
7
  6
CONTINUOUS
 90
22
 70
0
 10
11.5
 20
-98.1159885716
 10
11.4674279611
 20
-98.1309583636
 10
11.3707828089
 20
-98.1459281556
 10
11.2116709901
 20
-98.1606491181
 10
10.9890483915
 20
-98.1751170918
 10
10.7039591264
 20
-98.1893362359
 10
10.3611419809
 20
-98.2030701982
 10
9.9596320493
 20
-98.2163108691
 10
9.5003942374
 20
-98.2290663581
 10
8.9910620484
 20
-98.241124642
 10
8.4307981684
 20
-98.2524740674
 10
7.8204399112
 20
-98.2631262878
 10
7.1701327214
 20
-98.2729042408
 10
6.4792088633
 20
-98.2817933131
 10
5.7483360726
 20
-98.2898081181
 10
4.9896629999
 20
-98.2968154326
 10
4.2027249711
 20
-98.3027984167
 10
3.3879866603
 20
-98.3077739105
 10
2.5589907405
 20
-98.3116592105
 10
1.720251436
 20
-98.3144267492
 10
0.8672545225
 20
-98.3161040942
 10
-0.0
 20
-98.3166912456
  0
LINE
  5
379
100
AcDbEntity
  8
DRAFT
100
AcDbLine
 62
7
  6
CONTINUOUS
 10
62.0
 20
90.8621154889
 11
66.1378845111
 21
90.8621154889
  0
LINE
  5
37A
100
AcDbEntity
  8
DRAFT
100
AcDbLine
 62
7
  6
CONTINUOUS
 10
-62.0
 20
90.8621154889
 11
-66.1378845111
 21
90.8621154889
  0
LINE
  5
37B
100
AcDbEntity
  8
DRAFT
100
AcDbLine
 62
7
  6
CONTINUOUS
 10
62.0
 20
91.0
 11
66.0
 21
91.0
  0
LINE
  5
37C
100
AcDbEntity
  8
DRAFT
100
AcDbLine
 62
7
  6
CONTINUOUS
 10
-62.0
 20
91.0
 11
-66.0
 21
91.0
  0
LINE
  5
37D
100
AcDbEntity
  8
DRAFT
100
AcDbLine
 62
250
  6
CONTINUOUS
 10
-60.5
 20
92.5
 11
-60.3621154889
 21
92.5
  0
LINE
  5
37E
100
AcDbEntity
  8
DRAFT
100
AcDbLine
 62
250
  6
CONTINUOUS
 10
60.5
 20
92.5
 11
60.3621154889
 21
92.5
  0
LINE
  5
37F
100
AcDbEntity
  8
DRAFT
100
AcDbLine
 62
250
  6
CONTINUOUS
 10
-66.0
 20
92.5
 11
-66.1378845111
 21
92.5
  0
LINE
  5
380
100
AcDbEntity
  8
DRAFT
100
AcDbLine
 62
250
  6
CONTINUOUS
 10
66.0
 20
92.5
 11
66.1378845111
 21
92.5
  0
LINE
  5
381
100
AcDbEntity
  8
RACCORDO
100
AcDbLine
 62
250
  6
CONTINUOUS
 10
66.2731956082
 20
92.5
 11
68.0
 21
92.5
  0
LINE
  5
382
100
AcDbEntity
  8
RACCORDO
100
AcDbLine
 62
250
  6
CONTINUOUS
 10
-66.2731956082
 20
92.5
 11
-68.0
 21
92.5
  0
LINE
  5
383
100
AcDbEntity
  8
DRAFT
100
AcDbLine
 62
7
  6
CONTINUOUS
 10
-62.0
 20
96.5
 11
-60.5
 21
96.5
  0
LINE
  5
384
100
AcDbEntity
  8
DRAFT
100
AcDbLine
 62
7
  6
CONTINUOUS
 10
62.0
 20
96.5
 11
60.5
 21
96.5
  0
LINE
  5
385
100
AcDbEntity
  8
DRAFT
100
AcDbLine
 62
7
  6
CONTINUOUS
 10
-62.0
 20
96.6378845111
 11
-60.3621154889
 21
96.6378845111
  0
LINE
  5
386
100
AcDbEntity
  8
DRAFT
100
AcDbLine
 62
7
  6
CONTINUOUS
 10
62.0
 20
96.6378845111
 11
60.3621154889
 21
96.6378845111
  0
LINE
  5
387
100
AcDbEntity
  8
RACCORDO
100
AcDbLine
 62
250
  6
CONTINUOUS
 10
62.0
 20
96.7731956082
 11
-62.0
 21
96.7731956082
  0
LWPOLYLINE
  5
388
100
AcDbEntity
  8
RACCORDO
100
AcDbPolyline
 62
250
  6
CONTINUOUS
 90
7
 70
0
 10
-54.4
 20
96.8469076856
 10
-54.4341980983
 20
96.8487707008
 10
-54.4678902129
 20
96.8551227904
 10
-54.5010763437
 20
96.8659579852
 10
-54.5337564908
 20
96.8812643602
 10
-54.5659306541
 20
96.9010213188
 10
-54.5975988336
 20
96.9251957628
  0
LWPOLYLINE
  5
389
100
AcDbEntity
  8
RACCORDO
100
AcDbPolyline
 62
250
  6
CONTINUOUS
 90
10
 70
0
 10
-55.0189984384
 20
97.8730274548
 10
-54.9348145028
 20
97.8679608823
 10
-54.8518526613
 20
97.8528074684
 10
-54.771317277
 20
97.8277871965
 10
-54.6943774877
 20
97.7932632876
 10
-54.6221502338
 20
97.7497369279
 10
-54.5556840432
 20
97.6978399924
 10
-54.4959438104
 20
97.6383258726
 10
-54.4437967887
 20
97.5720585393
 10
-54.4
 20
97.5
  0
LWPOLYLINE
  5
38A
100
AcDbEntity
  8
RACCORDO
100
AcDbPolyline
 62
7
  6
CONTINUOUS
 90
10
 70
0
 10
-55.0538573285
 20
97.9499826672
 10
-54.9603597868
 20
97.9437159062
 10
-54.8685385773
 20
97.925018769
 10
-54.7800391417
 20
97.8942263093
 10
-54.6964473952
 20
97.85189033
 10
-54.6192613068
 20
97.7987694942
 10
-54.5498640556
 20
97.7358157301
 10
-54.4894992445
 20
97.664157173
 10
-54.4392486146
 20
97.5850779483
 10
-54.40001266
 20
97.4999951604
  0
LWPOLYLINE
  5
38B
100
AcDbEntity
  8
RACCORDO
100
AcDbPolyline
 62
250
  6
CONTINUOUS
 90
4
 70
0
 10
67.3730280729
 20
79.9810015616
 10
67.3678771904
 20
79.9818161992
 10
67.3555162281
 20
79.9842529771
 10
67.3092162648
 20
79.9938567423
  0
LWPOLYLINE
  5
38C
100
AcDbEntity
  8
RACCORDO
100
AcDbPolyline
 62
250
  6
CONTINUOUS
 90
18
 70
0
 10
67.3092162648
 20
79.9938567423
 10
67.2754294811
 20
80.0010237297
 10
67.2351029158
 20
80.0102214926
 10
67.1884345808
 20
80.0214635289
 10
67.1359438781
 20
80.0347363408
 10
67.0791220904
 20
80.0504080697
 10
67.0186058159
 20
80.0686563813
 10
66.9551519959
 20
80.0893036099
 10
66.8909764228
 20
80.1121849001
 10
66.8272369903
 20
80.1373075196
 10
66.7643601612
 20
80.1646642008
 10
66.7036604332
 20
80.1940682844
 10
66.6456840178
 20
80.2256085335
 10
66.5909343848
 20
80.2591961852
 10
66.540617039
 20
80.2943782912
 10
66.4953320284
 20
80.3310038687
 10
66.4550440598
 20
80.3692239006
 10
66.4199227178
 20
80.4090383868
  0
LWPOLYLINE
  5
38D
100
AcDbEntity
  8
0
100
AcDbPolyline
 62
7
  6
CONTINUOUS
 90
22
 70
0
 10
11.5
 20
98.1159885716
 10
11.4674279611
 20
98.1309583636
 10
11.3707828089
 20
98.1459281556
 10
11.2116709901
 20
98.1606491181
 10
10.9890483915
 20
98.1751170918
 10
10.7039591264
 20
98.1893362359
 10
10.3611419809
 20
98.2030701982
 10
9.9596320493
 20
98.2163108691
 10
9.5003942374
 20
98.2290663581
 10
8.9910620484
 20
98.241124642
 10
8.4307981684
 20
98.2524740674
 10
7.8204399112
 20
98.2631262878
 10
7.1701327214
 20
98.2729042408
 10
6.4792088633
 20
98.2817933131
 10
5.7483360726
 20
98.2898081181
 10
4.9896629999
 20
98.2968154326
 10
4.2027249711
 20
98.3027984167
 10
3.3879866603
 20
98.3077739105
 10
2.5589907405
 20
98.3116592105
 10
1.720251436
 20
98.3144267492
 10
0.8672545225
 20
98.3161040942
 10
0.0
 20
98.3166912456
  0
LWPOLYLINE
  5
38E
100
AcDbEntity
  8
ASSI
100
AcDbPolyline
 62
7
  6
CONTINUOUS
 90
22
 70
0
 10
67.6159885716
 20
67.0
 10
67.6309583636
 20
66.9674279611
 10
67.6459281556
 20
66.8707828089
 10
67.6606491181
 20
66.7116709901
 10
67.6751170918
 20
66.4890483915
 10
67.6893362359
 20
66.2039591264
 10
67.7030701982
 20
65.8611419809
 10
67.7163108691
 20
65.4596320493
 10
67.7290663581
 20
65.0003942374
 10
67.741124642
 20
64.4910620484
 10
67.7524740674
 20
63.9307981684
 10
67.7631262878
 20
63.3204399112
 10
67.7729042408
 20
62.6701327214
 10
67.7817933131
 20
61.9792088633
 10
67.7898081181
 20
61.2483360726
 10
67.7968154326
 20
60.4896629999
 10
67.8027984167
 20
59.7027249711
 10
67.8077739105
 20
58.8879866603
 10
67.8116592105
 20
58.0589907405
 10
67.8144267492
 20
57.220251436
 10
67.8161040942
 20
56.3672545225
 10
67.8166912456
 20
55.5
  0
LWPOLYLINE
  5
38F
100
AcDbEntity
  8
ASSI
100
AcDbPolyline
 62
7
  6
CONTINUOUS
 90
22
 70
0
 10
22.5
 20
-98.1159885716
 10
22.5325720389
 20
-98.1010187796
 10
22.6292171911
 20
-98.0860489875
 10
22.7883290099
 20
-98.0713280251
 10
23.0109516085
 20
-98.0568600514
 10
23.2960408736
 20
-98.0426409072
 10
23.6388580191
 20
-98.0289069449
 10
24.0403679507
 20
-98.0156662741
 10
24.4996057626
 20
-98.0029107851
 10
25.0089379516
 20
-97.9908525011
 10
25.5692018316
 20
-97.9795030757
 10
26.1795600888
 20
-97.9688508554
 10
26.8298672786
 20
-97.9590729024
 10
27.5207911367
 20
-97.95018383
 10
28.2516639274
 20
-97.9421690251
 10
29.0103370001
 20
-97.9351617106
 10
29.7972750289
 20
-97.9291787264
 10
30.6120133397
 20
-97.9242032327
 10
31.4410092595
 20
-97.9203179326
 10
32.279748564
 20
-97.9175503939
 10
33.1327454775
 20
-97.9158730489
 10
34.0
 20
-97.9152858976
  0
LWPOLYLINE
  5
390
100
AcDbEntity
  8
RACCORDO
100
AcDbPolyline
 62
7
  6
CONTINUOUS
 90
10
 70
0
 10
-47.9461426692
 20
97.9499521987
 10
-48.0396398783
 20
97.9436915695
 10
-48.1314614913
 20
97.9250001052
 10
-48.2199619412
 20
97.8942127823
 10
-48.3035551802
 20
97.8518813512
 10
-48.3807431048
 20
97.7987644482
 10
-48.4501424033
 20
97.7358139999
 10
-48.5105093468
 20
97.6641581632
 10
-48.5607620779
 20
97.5850811074
 10
-48.6
 20
97.5
  0
LWPOLYLINE
  5
391
100
AcDbEntity
  8
RACCORDO
100
AcDbPolyline
 62
250
  6
CONTINUOUS
 90
10
 70
0
 10
-47.9810015641
 20
97.8730638048
 10
-48.065186133
 20
97.8679914927
 10
-48.1481481814
 20
97.8528327049
 10
-48.2286834648
 20
97.8278074806
 10
-48.3056229648
 20
97.7932790761
 10
-48.3778498578
 20
97.7497486921
 10
-48.4443157268
 20
97.6978481987
 10
-48.5040557795
 20
97.6383309628
 10
-48.5562028527
 20
97.5720609132
 10
-48.6
 20
97.5
  0
LINE
  5
392
100
AcDbEntity
  8
RACCORDO
100
AcDbLine
 62
250
  6
CONTINUOUS
 10
-54.8852063018
 20
97.9595098517
 11
-54.7767019759
 21
97.9617952008
  0
LINE
  5
393
100
AcDbEntity
  8
RACCORDO
100
AcDbLine
 62
250
  6
CONTINUOUS
 10
-54.7767019759
 20
97.9617952008
 11
-54.6464618769
 21
97.9637036047
  0
LINE
  5
394
100
AcDbEntity
  8
RACCORDO
100
AcDbLine
 62
250
  6
CONTINUOUS
 10
-54.6464618769
 20
97.9637036047
 11
-54.4222279785
 21
97.9657269813
  0
LINE
  5
395
100
AcDbEntity
  8
RACCORDO
100
AcDbLine
 62
250
  6
CONTINUOUS
 10
-54.4222279785
 20
97.9657269813
 11
-54.1821087126
 21
97.9666504786
  0
LWPOLYLINE
  5
396
100
AcDbEntity
  8
0
100
AcDbPolyline
 62
7
  6
CONTINUOUS
 90
22
 70
0
 10
34.0
 20
97.9152858976
 10
34.8672545225
 20
97.9158730489
 10
35.720251436
 20
97.9175503939
 10
36.5589907405
 20
97.9203179326
 10
37.3879866603
 20
97.9242032327
 10
38.2027249711
 20
97.9291787264
 10
38.9896629999
 20
97.9351617106
 10
39.7483360726
 20
97.9421690251
 10
40.4792088633
 20
97.95018383
 10
41.1701327214
 20
97.9590729024
 10
41.8204399112
 20
97.9688508554
 10
42.4307981684
 20
97.9795030757
 10
42.9910620484
 20
97.9908525011
 10
43.5003942374
 20
98.0029107851
 10
43.9596320493
 20
98.0156662741
 10
44.3611419809
 20
98.0289069449
 10
44.7039591264
 20
98.0426409072
 10
44.9890483915
 20
98.0568600514
 10
45.2116709901
 20
98.0713280251
 10
45.3707828089
 20
98.0860489875
 10
45.4674279611
 20
98.1010187796
 10
45.5
 20
98.1159885716
  0
LWPOLYLINE
  5
397
100
AcDbEntity
  8
0
100
AcDbPolyline
 62
7
  6
CONTINUOUS
 90
22
 70
0
 10
0.0
 20
97.9152858976
 10
0.8672545225
 20
97.9158730489
 10
1.720251436
 20
97.9175503939
 10
2.5589907405
 20
97.9203179326
 10
3.3879866603
 20
97.9242032327
 10
4.2027249711
 20
97.9291787264
 10
4.9896629999
 20
97.9351617106
 10
5.7483360726
 20
97.9421690251
 10
6.4792088633
 20
97.95018383
 10
7.1701327214
 20
97.9590729024
 10
7.8204399112
 20
97.9688508554
 10
8.4307981684
 20
97.9795030757
 10
8.9910620484
 20
97.9908525011
 10
9.5003942374
 20
98.0029107851
 10
9.9596320493
 20
98.0156662741
 10
10.3611419809
 20
98.0289069449
 10
10.7039591264
 20
98.0426409072
 10
10.9890483915
 20
98.0568600514
 10
11.2116709901
 20
98.0713280251
 10
11.3707828089
 20
98.0860489875
 10
11.4674279611
 20
98.1010187796
 10
11.5
 20
98.1159885716
  0
LWPOLYLINE
  5
398
100
AcDbEntity
  8
0
100
AcDbPolyline
 62
7
  6
CONTINUOUS
 90
22
 70
0
 10
-34.0
 20
97.9152858976
 10
-33.1327454775
 20
97.9158730489
 10
-32.279748564
 20
97.9175503939
 10
-31.4410092595
 20
97.9203179326
 10
-30.6120133397
 20
97.9242032327
 10
-29.7972750289
 20
97.9291787264
 10
-29.0103370001
 20
97.9351617106
 10
-28.2516639274
 20
97.9421690251
 10
-27.5207911367
 20
97.95018383
 10
-26.8298672786
 20
97.9590729024
 10
-26.1795600888
 20
97.9688508554
 10
-25.5692018316
 20
97.9795030757
 10
-25.0089379516
 20
97.9908525011
 10
-24.4996057626
 20
98.0029107851
 10
-24.0403679507
 20
98.0156662741
 10
-23.6388580191
 20
98.0289069449
 10
-23.2960408736
 20
98.0426409072
 10
-23.0109516085
 20
98.0568600514
 10
-22.7883290099
 20
98.0713280251
 10
-22.6292171911
 20
98.0860489875
 10
-22.5325720389
 20
98.1010187796
 10
-22.5
 20
98.1159885716
  0
LWPOLYLINE
  5
399
100
AcDbEntity
  8
0
100
AcDbPolyline
 62
7
  6
CONTINUOUS
 90
22
 70
0
 10
34.0
 20
98.3166912456
 10
33.1327454775
 20
98.3161040942
 10
32.279748564
 20
98.3144267492
 10
31.4410092595
 20
98.3116592105
 10
30.6120133397
 20
98.3077739105
 10
29.7972750289
 20
98.3027984167
 10
29.0103370001
 20
98.2968154326
 10
28.2516639274
 20
98.2898081181
 10
27.5207911367
 20
98.2817933131
 10
26.8298672786
 20
98.2729042408
 10
26.1795600888
 20
98.2631262878
 10
25.5692018316
 20
98.2524740674
 10
25.0089379516
 20
98.241124642
 10
24.4996057626
 20
98.2290663581
 10
24.0403679507
 20
98.2163108691
 10
23.6388580191
 20
98.2030701982
 10
23.2960408736
 20
98.1893362359
 10
23.0109516085
 20
98.1751170918
 10
22.7883290099
 20
98.1606491181
 10
22.6292171911
 20
98.1459281556
 10
22.5325720389
 20
98.1309583636
 10
22.5
 20
98.1159885716
  0
LWPOLYLINE
  5
39A
100
AcDbEntity
  8
0
100
AcDbPolyline
 62
7
  6
CONTINUOUS
 90
22
 70
0
 10
0.0
 20
98.3166912456
 10
-0.8672545225
 20
98.3161040942
 10
-1.720251436
 20
98.3144267492
 10
-2.5589907405
 20
98.3116592105
 10
-3.3879866603
 20
98.3077739105
 10
-4.2027249711
 20
98.3027984167
 10
-4.9896629999
 20
98.2968154326
 10
-5.7483360726
 20
98.2898081181
 10
-6.4792088633
 20
98.2817933131
 10
-7.1701327214
 20
98.2729042408
 10
-7.8204399112
 20
98.2631262878
 10
-8.4307981684
 20
98.2524740674
 10
-8.9910620484
 20
98.241124642
 10
-9.5003942374
 20
98.2290663581
 10
-9.9596320493
 20
98.2163108691
 10
-10.3611419809
 20
98.2030701982
 10
-10.7039591264
 20
98.1893362359
 10
-10.9890483915
 20
98.1751170918
 10
-11.2116709901
 20
98.1606491181
 10
-11.3707828089
 20
98.1459281556
 10
-11.4674279611
 20
98.1309583636
 10
-11.5
 20
98.1159885716
  0
LWPOLYLINE
  5
39B
100
AcDbEntity
  8
0
100
AcDbPolyline
 62
7
  6
CONTINUOUS
 90
22
 70
0
 10
-34.0
 20
98.3166912456
 10
-34.8672545225
 20
98.3161040942
 10
-35.720251436
 20
98.3144267492
 10
-36.5589907405
 20
98.3116592105
 10
-37.3879866603
 20
98.3077739105
 10
-38.2027249711
 20
98.3027984167
 10
-38.9896629999
 20
98.2968154326
 10
-39.7483360726
 20
98.2898081181
 10
-40.4792088633
 20
98.2817933131
 10
-41.1701327214
 20
98.2729042408
 10
-41.8204399112
 20
98.2631262878
 10
-42.4307981684
 20
98.2524740674
 10
-42.9910620484
 20
98.241124642
 10
-43.5003942374
 20
98.2290663581
 10
-43.9596320493
 20
98.2163108691
 10
-44.3611419809
 20
98.2030701982
 10
-44.7039591264
 20
98.1893362359
 10
-44.9890483915
 20
98.1751170918
 10
-45.2116709901
 20
98.1606491181
 10
-45.3707828089
 20
98.1459281556
 10
-45.4674279611
 20
98.1309583636
 10
-45.5
 20
98.1159885716
  0
LINE
  5
39C
100
AcDbEntity
  8
RACCORDO
100
AcDbLine
 62
250
  6
CONTINUOUS
 10
-48.6
 20
96.8469076856
 11
-54.4
 21
96.8469076856
  0
LINE
  5
39D
100
AcDbEntity
  8
RACCORDO
100
AcDbLine
 62
7
  6
CONTINUOUS
 10
-48.6
 20
97.5
 11
-54.4
 21
97.5
  0
LINE
  5
39E
100
AcDbEntity
  8
RACCORDO
100
AcDbLine
 62
250
  6
CONTINUOUS
 10
62.0
 20
97.8730280729
 11
-47.9810015616
 21
97.8730280729
  0
LINE
  5
39F
100
AcDbEntity
  8
RACCORDO
100
AcDbLine
 62
250
  6
CONTINUOUS
 10
-55.0189984384
 20
97.8730280729
 11
-62.0
 21
97.8730280729
  0
LINE
  5
3A0
100
AcDbEntity
  8
RACCORDO
100
AcDbLine
 62
250
  6
CONTINUOUS
 10
-54.1821087126
 20
97.9666504786
 11
-48.9
 21
97.9667094077
  0
LINE
  5
3A1
100
AcDbEntity
  8
SUPERFICI
100
AcDbLine
 62
7
  6
CONTINUOUS
 10
-61.9999789838
 20
98.5000003491
 11
61.9999789838
 21
98.5000003491
  0
LINE
  5
3A2
100
AcDbEntity
  8
DRAFT
100
AcDbLine
 62
7
  6
CONTINUOUS
 10
62.0
 20
98.5
 11
-62.0
 21
98.5
  0
LINE
  5
3A3
100
AcDbEntity
  8
RACCORDO
100
AcDbLine
 62
250
  6
CONTINUOUS
 10
-48.9
 20
97.9667094077
 11
-48.6571450318
 21
97.9661606668
  0
LINE
  5
3A4
100
AcDbEntity
  8
RACCORDO
100
AcDbLine
 62
250
  6
CONTINUOUS
 10
-48.6571450318
 20
97.9661606668
 11
-48.4247227495
 21
97.9644959748
  0
LINE
  5
3A5
100
AcDbEntity
  8
RACCORDO
100
AcDbLine
 62
250
  6
CONTINUOUS
 10
-48.4247227495
 20
97.9644959748
 11
-48.2857074646
 21
97.9627949866
  0
LWPOLYLINE
  5
3A6
100
AcDbEntity
  8
RACCORDO
100
AcDbPolyline
 62
250
  6
CONTINUOUS
 90
10
 70
0
 10
-48.2857074646
 20
97.9627949866
 10
-48.1663417481
 20
97.9606979953
 10
-48.1147639634
 20
97.9595091
 10
-48.0698093023
 20
97.9582609544
 10
-48.0317438991
 20
97.9569513628
 10
-48.0003016195
 20
97.9555825211
 10
-47.9759714572
 20
97.9541942072
 10
-47.9589164104
 20
97.9527996808
 10
-47.9489734811
 20
97.9513856823
 10
-47.9461426692
 20
97.9499522117
  0
LWPOLYLINE
  5
3A7
100
AcDbEntity
  8
RACCORDO
100
AcDbPolyline
 62
250
  6
CONTINUOUS
 90
10
 70
0
 10
66.4251957628
 20
86.5975988336
 10
66.529685504
 20
86.565884613
 10
66.6290504235
 20
86.5349781254
 10
66.7207597847
 20
86.5056665319
 10
66.8024778314
 20
86.4786963728
 10
66.8721232771
 20
86.454754554
 10
66.9279223142
 20
86.4344508527
 10
66.9684537904
 20
86.418302386
 10
66.9926854049
 20
86.4067204411
 10
67.0
 20
86.4
  0
LWPOLYLINE
  5
3A8
100
AcDbEntity
  8
RACCORDO
100
AcDbPolyline
 62
250
  6
CONTINUOUS
 90
10
 70
0
 10
67.4499522117
 20
79.9461426692
 10
67.4413426765
 20
79.94949657
 10
67.4327487428
 20
79.9529789475
 10
67.4241704107
 20
79.9565898018
 10
67.4156076792
 20
79.9603273319
 10
67.4070605494
 20
79.9641933388
 10
67.3985290235
 20
79.968193225
 10
67.3900131026
 20
79.9723287913
 10
67.3815127857
 20
79.9765982368
 10
67.3730280729
 20
79.9810015616
  0
LWPOLYLINE
  5
3A9
100
AcDbEntity
  8
0
100
AcDbPolyline
 62
7
  6
CONTINUOUS
 90
22
 70
0
 10
22.5
 20
98.1159885716
 10
22.5325720389
 20
98.1010187796
 10
22.6292171911
 20
98.0860489875
 10
22.7883290099
 20
98.0713280251
 10
23.0109516085
 20
98.0568600514
 10
23.2960408736
 20
98.0426409072
 10
23.6388580191
 20
98.0289069449
 10
24.0403679507
 20
98.0156662741
 10
24.4996057626
 20
98.0029107851
 10
25.0089379516
 20
97.9908525011
 10
25.5692018316
 20
97.9795030757
 10
26.1795600888
 20
97.9688508554
 10
26.8298672786
 20
97.9590729024
 10
27.5207911367
 20
97.95018383
 10
28.2516639274
 20
97.9421690251
 10
29.0103370001
 20
97.9351617106
 10
29.7972750289
 20
97.9291787264
 10
30.6120133397
 20
97.9242032327
 10
31.4410092595
 20
97.9203179326
 10
32.279748564
 20
97.9175503939
 10
33.1327454775
 20
97.9158730489
 10
34.0
 20
97.9152858976
  0
LWPOLYLINE
  5
3AA
100
AcDbEntity
  8
RACCORDO
100
AcDbPolyline
 62
250
  6
CONTINUOUS
 90
7
 70
0
 10
66.4199227178
 20
80.4090383868
 10
66.3975550491
 20
80.4394383517
 10
66.3792394145
 20
80.4704091048
 10
66.3650030195
 20
80.5019506462
 10
66.3548630216
 20
80.5340629759
 10
66.3488295194
 20
80.5667460938
 10
66.3469076856
 20
80.6
  0
LWPOLYLINE
  5
3AB
100
AcDbEntity
  8
RACCORDO
100
AcDbPolyline
 62
250
  6
CONTINUOUS
 90
8
 70
0
 10
67.4499522117
 20
87.0538573308
 10
67.4513857217
 20
87.0510270834
 10
67.4527997894
 20
87.0410830212
 10
67.4541944148
 20
87.0240251444
 10
67.4555828823
 20
86.999689964
 10
67.4569519074
 20
86.968240969
 10
67.4582616372
 20
86.930168626
 10
67.4595098517
 20
86.8852063018
  0
LINE
  5
3AC
100
AcDbEntity
  8
DRAFT
100
AcDbLine
 62
7
  6
CONTINUOUS
 10
66.0
 20
-91.0
 11
66.1378845111
 21
-90.8621154889
  0
LINE
  5
3AD
100
AcDbEntity
  8
DRAFT
100
AcDbLine
 62
7
  6
CONTINUOUS
 10
60.5
 20
-96.5
 11
60.3621154889
 21
-96.6378845111
  0
LWPOLYLINE
  5
3AE
100
AcDbEntity
  8
RACCORDO
100
AcDbPolyline
 62
250
  6
CONTINUOUS
 90
7
 70
0
 10
48.4090383868
 20
-96.9199227178
 10
48.4394383517
 20
-96.8975550491
 10
48.4704091048
 20
-96.8792394145
 10
48.5019506462
 20
-96.8650030195
 10
48.5340629759
 20
-96.8548630216
 10
48.5667460938
 20
-96.8488295194
 10
48.6
 20
-96.8469076856
  0
LWPOLYLINE
  5
3AF
100
AcDbEntity
  8
RACCORDO
100
AcDbPolyline
 62
250
  6
CONTINUOUS
 90
8
 70
0
 10
55.0538573308
 20
-97.9499522117
 10
55.0510270834
 20
-97.9513857217
 10
55.0410830212
 20
-97.9527997894
 10
55.0240251444
 20
-97.9541944148
 10
54.999689964
 20
-97.9555828823
 10
54.968240969
 20
-97.9569519074
 10
54.930168626
 20
-97.9582616372
 10
54.8852063018
 20
-97.9595098517
  0
LWPOLYLINE
  5
3B0
100
AcDbEntity
  8
ASSI
100
AcDbPolyline
 62
7
  6
CONTINUOUS
 90
22
 70
0
 10
45.5
 20
-98.1159885716
 10
45.4674279611
 20
-98.1309583636
 10
45.3707828089
 20
-98.1459281556
 10
45.2116709901
 20
-98.1606491181
 10
44.9890483915
 20
-98.1751170918
 10
44.7039591264
 20
-98.1893362359
 10
44.3611419809
 20
-98.2030701982
 10
43.9596320493
 20
-98.2163108691
 10
43.5003942374
 20
-98.2290663581
 10
42.9910620484
 20
-98.241124642
 10
42.4307981684
 20
-98.2524740674
 10
41.8204399112
 20
-98.2631262878
 10
41.1701327214
 20
-98.2729042408
 10
40.4792088633
 20
-98.2817933131
 10
39.7483360726
 20
-98.2898081181
 10
38.9896629999
 20
-98.2968154326
 10
38.2027249711
 20
-98.3027984167
 10
37.3879866603
 20
-98.3077739105
 10
36.5589907405
 20
-98.3116592105
 10
35.720251436
 20
-98.3144267492
 10
34.8672545225
 20
-98.3161040942
 10
34.0
 20
-98.3166912456
  0
LWPOLYLINE
  5
3B1
100
AcDbEntity
  8
0
100
AcDbPolyline
 62
7
  6
CONTINUOUS
 90
22
 70
0
 10
45.5
 20
98.1159885716
 10
45.4674279611
 20
98.1309583636
 10
45.3707828089
 20
98.1459281556
 10
45.2116709901
 20
98.1606491181
 10
44.9890483915
 20
98.1751170918
 10
44.7039591264
 20
98.1893362359
 10
44.3611419809
 20
98.2030701982
 10
43.9596320493
 20
98.2163108691
 10
43.5003942374
 20
98.2290663581
 10
42.9910620484
 20
98.241124642
 10
42.4307981684
 20
98.2524740674
 10
41.8204399112
 20
98.2631262878
 10
41.1701327214
 20
98.2729042408
 10
40.4792088633
 20
98.2817933131
 10
39.7483360726
 20
98.2898081181
 10
38.9896629999
 20
98.2968154326
 10
38.2027249711
 20
98.3027984167
 10
37.3879866603
 20
98.3077739105
 10
36.5589907405
 20
98.3116592105
 10
35.720251436
 20
98.3144267492
 10
34.8672545225
 20
98.3161040942
 10
34.0
 20
98.3166912456
  0
LINE
  5
3B2
100
AcDbEntity
  8
DRAFT
100
AcDbLine
 62
7
  6
CONTINUOUS
 10
66.0
 20
91.0
 11
66.1378845111
 21
90.8621154889
  0
LINE
  5
3B3
100
AcDbEntity
  8
DRAFT
100
AcDbLine
 62
7
  6
CONTINUOUS
 10
60.5
 20
96.5
 11
60.3621154889
 21
96.6378845111
  0
CIRCLE
  5
3B4
100
AcDbEntity
  8
RACCORDO
100
AcDbCircle
 62
7
  6
CONTINUOUS
 10
-51.5
 20
-83.5
 40
9.5
  0
CIRCLE
  5
3B5
100
AcDbEntity
  8
RACCORDO
100
AcDbCircle
 62
250
  6
CONTINUOUS
 10
-51.5
 20
-83.5
 40
8.9999925466
  0
ARC
  5
3B6
100
AcDbEntity
  8
SUPERFICI
100
AcDbCircle
 62
7
  6
CONTINUOUS
 10
-62.0
 20
-92.5
 40
6.000000429
100
AcDbArc
 50
180.0000016764
 51
270.0002006898
  0
ARC
  5
3B7
100
AcDbEntity
  8
DRAFT
100
AcDbCircle
 62
7
  6
CONTINUOUS
 10
-62.0
 20
-92.5
 40
6.0
100
AcDbArc
 50
180.0
 51
270.0
  0
ARC
  5
3B8
100
AcDbEntity
  8
RACCORDO
100
AcDbCircle
 62
250
  6
CONTINUOUS
 10
-62.0
 20
-92.5
 40
5.3730280672
100
AcDbArc
 50
180.0
 51
270.0
  0
ARC
  5
3B9
100
AcDbEntity
  8
RACCORDO
100
AcDbCircle
 62
250
  6
CONTINUOUS
 10
-62.0
 20
-92.5
 40
4.2731833408
100
AcDbArc
 50
180.0
 51
270.0
  0
ARC
  5
3BA
100
AcDbEntity
  8
DRAFT
100
AcDbCircle
 62
7
  6
CONTINUOUS
 10
-62.0
 20
-92.5
 40
4.1378845111
100
AcDbArc
 50
180.0
 51
270.0
  0
ARC
  5
3BB
100
AcDbEntity
  8
DRAFT
100
AcDbCircle
 62
7
  6
CONTINUOUS
 10
-62.0
 20
-92.5
 40
4.0
100
AcDbArc
 50
180.0
 51
270.0
  0
CIRCLE
  5
3BC
100
AcDbEntity
  8
0
100
AcDbCircle
 62
7
  6
CONTINUOUS
 10
-51.5
 20
-83.5
 40
2.25
  0
CIRCLE
  5
3BD
100
AcDbEntity
  8
0
100
AcDbCircle
 62
7
  6
CONTINUOUS
 10
-51.5
 20
-83.5
 40
1.8
  0
ARC
  5
3BE
100
AcDbEntity
  8
DRAFT
100
AcDbCircle
 62
7
  6
CONTINUOUS
 10
-62.0
 20
-92.5
 40
1.6378845111
100
AcDbArc
 50
0.0
 51
90.0
  0
CIRCLE
  5
3BF
100
AcDbEntity
  8
0
100
AcDbCircle
 62
7
  6
CONTINUOUS
 10
-51.5
 20
-83.5
 40
1.5
  0
ARC
  5
3C0
100
AcDbEntity
  8
DRAFT
100
AcDbCircle
 62
7
  6
CONTINUOUS
 10
-62.0
 20
-92.5
 40
1.5
100
AcDbArc
 50
0.0
 51
90.0
  0
CIRCLE
  5
3C1
100
AcDbEntity
  8
RACCORDO
100
AcDbCircle
 62
7
  6
CONTINUOUS
 10
-51.5
 20
83.5
 40
9.5
  0
CIRCLE
  5
3C2
100
AcDbEntity
  8
RACCORDO
100
AcDbCircle
 62
250
  6
CONTINUOUS
 10
-51.5
 20
83.5
 40
8.9999925466
  0
ARC
  5
3C3
100
AcDbEntity
  8
SUPERFICI
100
AcDbCircle
 62
7
  6
CONTINUOUS
 10
-62.0
 20
92.5
 40
6.000000429
100
AcDbArc
 50
89.9997993102
 51
179.9999983236
  0
ARC
  5
3C4
100
AcDbEntity
  8
DRAFT
100
AcDbCircle
 62
7
  6
CONTINUOUS
 10
-62.0
 20
92.5
 40
6.0
100
AcDbArc
 50
90.0
 51
180.0
  0
ARC
  5
3C5
100
AcDbEntity
  8
RACCORDO
100
AcDbCircle
 62
250
  6
CONTINUOUS
 10
-62.0
 20
92.5
 40
5.3730280672
100
AcDbArc
 50
90.0
 51
180.0
  0
ARC
  5
3C6
100
AcDbEntity
  8
RACCORDO
100
AcDbCircle
 62
250
  6
CONTINUOUS
 10
-62.0
 20
92.5
 40
4.2731833408
100
AcDbArc
 50
90.0
 51
180.0
  0
ARC
  5
3C7
100
AcDbEntity
  8
DRAFT
100
AcDbCircle
 62
7
  6
CONTINUOUS
 10
-62.0
 20
92.5
 40
4.1378845111
100
AcDbArc
 50
90.0
 51
180.0
  0
ARC
  5
3C8
100
AcDbEntity
  8
DRAFT
100
AcDbCircle
 62
7
  6
CONTINUOUS
 10
-62.0
 20
92.5
 40
4.0
100
AcDbArc
 50
90.0
 51
180.0
  0
CIRCLE
  5
3C9
100
AcDbEntity
  8
0
100
AcDbCircle
 62
7
  6
CONTINUOUS
 10
-51.5
 20
83.5
 40
2.25
  0
CIRCLE
  5
3CA
100
AcDbEntity
  8
0
100
AcDbCircle
 62
7
  6
CONTINUOUS
 10
-51.5
 20
83.5
 40
1.8
  0
ARC
  5
3CB
100
AcDbEntity
  8
DRAFT
100
AcDbCircle
 62
7
  6
CONTINUOUS
 10
-62.0
 20
92.5
 40
1.6378845111
100
AcDbArc
 50
270.0
 51
360.0
  0
ARC
  5
3CC
100
AcDbEntity
  8
DRAFT
100
AcDbCircle
 62
7
  6
CONTINUOUS
 10
-62.0
 20
92.5
 40
1.5
100
AcDbArc
 50
270.0
 51
360.0
  0
CIRCLE
  5
3CD
100
AcDbEntity
  8
0
100
AcDbCircle
 62
7
  6
CONTINUOUS
 10
-51.5
 20
83.5
 40
1.5
  0
CIRCLE
  5
3CE
100
AcDbEntity
  8
RACCORDO
100
AcDbCircle
 62
7
  6
CONTINUOUS
 10
-0.0
 20
-75.8
 40
4.8
  0
CIRCLE
  5
3CF
100
AcDbEntity
  8
RACCORDO
100
AcDbCircle
 62
250
  6
CONTINUOUS
 10
-0.0
 20
-75.8
 40
4.2999862987
  0
CIRCLE
  5
3D0
100
AcDbEntity
  8
0
100
AcDbCircle
 62
7
  6
CONTINUOUS
 10
-0.0
 20
-55.5
 40
11.25
  0
ARC
  5
3D1
100
AcDbEntity
  8
0
100
AcDbCircle
 62
7
  6
CONTINUOUS
 10
-0.0
 20
-55.5
 40
11.0
100
AcDbArc
 50
185.7391704773
 51
264.2608295227
  0
ARC
  5
3D2
100
AcDbEntity
  8
0
100
AcDbCircle
 62
7
  6
CONTINUOUS
 10
-0.0
 20
-55.5
 40
11.0
100
AcDbArc
 50
275.7391704773
 51
354.2608295227
  0
ARC
  5
3D3
100
AcDbEntity
  8
0
100
AcDbCircle
 62
7
  6
CONTINUOUS
 10
-0.0
 20
-55.5
 40
11.0
100
AcDbArc
 50
95.7391704773
 51
174.2608295227
  0
ARC
  5
3D4
100
AcDbEntity
  8
0
100
AcDbCircle
 62
7
  6
CONTINUOUS
 10
-0.0
 20
-55.5
 40
11.0
100
AcDbArc
 50
5.7391704773
 51
84.2608295227
  0
ARC
  5
3D5
100
AcDbEntity
  8
0
100
AcDbCircle
 62
7
  6
CONTINUOUS
 10
-0.0
 20
-55.5
 40
10.1299689469
100
AcDbArc
 50
6.233965798
 51
83.766034202
  0
ARC
  5
3D6
100
AcDbEntity
  8
0
100
AcDbCircle
 62
7
  6
CONTINUOUS
 10
-0.0
 20
-55.5
 40
10.1299689469
100
AcDbArc
 50
96.233965798
 51
173.766034202
  0
ARC
  5
3D7
100
AcDbEntity
  8
0
100
AcDbCircle
 62
7
  6
CONTINUOUS
 10
-0.0
 20
-55.5
 40
10.1299689469
100
AcDbArc
 50
186.233965798
 51
263.766034202
  0
ARC
  5
3D8
100
AcDbEntity
  8
0
100
AcDbCircle
 62
7
  6
CONTINUOUS
 10
-0.0
 20
-55.5
 40
10.1299689469
100
AcDbArc
 50
276.233965798
 51
353.766034202
  0
CIRCLE
  5
3D9
100
AcDbEntity
  8
RACCORDO
100
AcDbCircle
 62
7
  6
CONTINUOUS
 10
51.5
 20
-83.5
 40
9.5
  0
CIRCLE
  5
3DA
100
AcDbEntity
  8
RACCORDO
100
AcDbCircle
 62
250
  6
CONTINUOUS
 10
51.5
 20
-83.5
 40
8.9999925466
  0
ARC
  5
3DB
100
AcDbEntity
  8
SUPERFICI
100
AcDbCircle
 62
7
  6
CONTINUOUS
 10
62.0
 20
-92.5
 40
6.000000429
100
AcDbArc
 50
269.9997993102
 51
359.9999983234
  0
ARC
  5
3DC
100
AcDbEntity
  8
DRAFT
100
AcDbCircle
 62
7
  6
CONTINUOUS
 10
62.0
 20
-92.5
 40
6.0
100
AcDbArc
 50
270.0
 51
360.0
  0
ARC
  5
3DD
100
AcDbEntity
  8
RACCORDO
100
AcDbCircle
 62
250
  6
CONTINUOUS
 10
62.0
 20
-92.5
 40
5.3730280672
100
AcDbArc
 50
270.0
 51
360.0
  0
ARC
  5
3DE
100
AcDbEntity
  8
RACCORDO
100
AcDbCircle
 62
250
  6
CONTINUOUS
 10
62.0
 20
-92.5
 40
4.2731833408
100
AcDbArc
 50
270.0
 51
360.0
  0
ARC
  5
3DF
100
AcDbEntity
  8
DRAFT
100
AcDbCircle
 62
7
  6
CONTINUOUS
 10
62.0
 20
-92.5
 40
4.1378845111
100
AcDbArc
 50
270.0
 51
360.0
  0
ARC
  5
3E0
100
AcDbEntity
  8
DRAFT
100
AcDbCircle
 62
7
  6
CONTINUOUS
 10
62.0
 20
-92.5
 40
4.0
100
AcDbArc
 50
270.0
 51
360.0
  0
CIRCLE
  5
3E1
100
AcDbEntity
  8
0
100
AcDbCircle
 62
7
  6
CONTINUOUS
 10
51.5
 20
-83.5
 40
2.25
  0
CIRCLE
  5
3E2
100
AcDbEntity
  8
0
100
AcDbCircle
 62
7
  6
CONTINUOUS
 10
51.5
 20
-83.5
 40
1.8
  0
ARC
  5
3E3
100
AcDbEntity
  8
DRAFT
100
AcDbCircle
 62
7
  6
CONTINUOUS
 10
62.0
 20
-92.5
 40
1.6378845111
100
AcDbArc
 50
90.0
 51
180.0
  0
CIRCLE
  5
3E4
100
AcDbEntity
  8
0
100
AcDbCircle
 62
7
  6
CONTINUOUS
 10
51.5
 20
-83.5
 40
1.5
  0
ARC
  5
3E5
100
AcDbEntity
  8
DRAFT
100
AcDbCircle
 62
7
  6
CONTINUOUS
 10
62.0
 20
-92.5
 40
1.5
100
AcDbArc
 50
90.0
 51
180.0
  0
CIRCLE
  5
3E6
100
AcDbEntity
  8
0
100
AcDbCircle
 62
7
  6
CONTINUOUS
 10
-0.0
 20
0.0
 40
11.25
  0
ARC
  5
3E7
100
AcDbEntity
  8
0
100
AcDbCircle
 62
7
  6
CONTINUOUS
 10
-0.0
 20
0.0
 40
11.0
100
AcDbArc
 50
185.7391704773
 51
264.2608295227
  0
ARC
  5
3E8
100
AcDbEntity
  8
0
100
AcDbCircle
 62
7
  6
CONTINUOUS
 10
-0.0
 20
0.0
 40
11.0
100
AcDbArc
 50
275.7391704773
 51
354.2608295227
  0
ARC
  5
3E9
100
AcDbEntity
  8
0
100
AcDbCircle
 62
7
  6
CONTINUOUS
 10
-0.0
 20
0.0
 40
11.0
100
AcDbArc
 50
95.7391704773
 51
174.2608295227
  0
ARC
  5
3EA
100
AcDbEntity
  8
0
100
AcDbCircle
 62
7
  6
CONTINUOUS
 10
-0.0
 20
0.0
 40
11.0
100
AcDbArc
 50
5.7391704773
 51
84.2608295227
  0
ARC
  5
3EB
100
AcDbEntity
  8
0
100
AcDbCircle
 62
7
  6
CONTINUOUS
 10
-0.0
 20
0.0
 40
10.1299689469
100
AcDbArc
 50
6.233965798
 51
83.766034202
  0
ARC
  5
3EC
100
AcDbEntity
  8
0
100
AcDbCircle
 62
7
  6
CONTINUOUS
 10
-0.0
 20
0.0
 40
10.1299689469
100
AcDbArc
 50
96.233965798
 51
173.766034202
  0
ARC
  5
3ED
100
AcDbEntity
  8
0
100
AcDbCircle
 62
7
  6
CONTINUOUS
 10
-0.0
 20
0.0
 40
10.1299689469
100
AcDbArc
 50
186.233965798
 51
263.766034202
  0
ARC
  5
3EE
100
AcDbEntity
  8
0
100
AcDbCircle
 62
7
  6
CONTINUOUS
 10
-0.0
 20
0.0
 40
10.1299689469
100
AcDbArc
 50
276.233965798
 51
353.766034202
  0
CIRCLE
  5
3EF
100
AcDbEntity
  8
ASSI
100
AcDbCircle
 62
7
  6
CONTINUOUS
 10
0.0
 20
55.5
 40
11.25
  0
ARC
  5
3F0
100
AcDbEntity
  8
0
100
AcDbCircle
 62
7
  6
CONTINUOUS
 10
0.0
 20
55.5
 40
11.0
100
AcDbArc
 50
95.7391704773
 51
174.2608295227
  0
ARC
  5
3F1
100
AcDbEntity
  8
0
100
AcDbCircle
 62
7
  6
CONTINUOUS
 10
0.0
 20
55.5
 40
11.0
100
AcDbArc
 50
5.7391704773
 51
84.2608295227
  0
ARC
  5
3F2
100
AcDbEntity
  8
0
100
AcDbCircle
 62
7
  6
CONTINUOUS
 10
0.0
 20
55.5
 40
11.0
100
AcDbArc
 50
185.7391704773
 51
264.2608295227
  0
ARC
  5
3F3
100
AcDbEntity
  8
0
100
AcDbCircle
 62
7
  6
CONTINUOUS
 10
0.0
 20
55.5
 40
11.0
100
AcDbArc
 50
275.7391704773
 51
354.2608295227
  0
ARC
  5
3F4
100
AcDbEntity
  8
0
100
AcDbCircle
 62
7
  6
CONTINUOUS
 10
0.0
 20
55.5
 40
10.1299689469
100
AcDbArc
 50
186.233965798
 51
263.766034202
  0
ARC
  5
3F5
100
AcDbEntity
  8
0
100
AcDbCircle
 62
7
  6
CONTINUOUS
 10
0.0
 20
55.5
 40
10.1299689469
100
AcDbArc
 50
276.233965798
 51
353.766034202
  0
ARC
  5
3F6
100
AcDbEntity
  8
0
100
AcDbCircle
 62
7
  6
CONTINUOUS
 10
0.0
 20
55.5
 40
10.1299689469
100
AcDbArc
 50
6.233965798
 51
83.766034202
  0
ARC
  5
3F7
100
AcDbEntity
  8
0
100
AcDbCircle
 62
7
  6
CONTINUOUS
 10
0.0
 20
55.5
 40
10.1299689469
100
AcDbArc
 50
96.233965798
 51
173.766034202
  0
CIRCLE
  5
3F8
100
AcDbEntity
  8
RACCORDO
100
AcDbCircle
 62
7
  6
CONTINUOUS
 10
0.0
 20
75.8
 40
4.8
  0
CIRCLE
  5
3F9
100
AcDbEntity
  8
RACCORDO
100
AcDbCircle
 62
250
  6
CONTINUOUS
 10
0.0
 20
75.8
 40
4.2999862993
  0
ARC
  5
3FA
100
AcDbEntity
  8
0
100
AcDbCircle
 62
7
  6
CONTINUOUS
 10
2.558889799
 20
86.0402578154
 40
0.05
100
AcDbArc
 50
118.3322008091
 51
249.0297526306
  0
CIRCLE
  5
3FB
100
AcDbEntity
  8
RACCORDO
100
AcDbCircle
 62
7
  6
CONTINUOUS
 10
51.5
 20
83.5
 40
9.5
  0
CIRCLE
  5
3FC
100
AcDbEntity
  8
RACCORDO
100
AcDbCircle
 62
250
  6
CONTINUOUS
 10
51.5
 20
83.5
 40
8.9999925466
  0
ARC
  5
3FD
100
AcDbEntity
  8
SUPERFICI
100
AcDbCircle
 62
7
  6
CONTINUOUS
 10
62.0
 20
92.5
 40
6.000000429
100
AcDbArc
 50
0.0000016766
 51
90.0002006898
  0
ARC
  5
3FE
100
AcDbEntity
  8
DRAFT
100
AcDbCircle
 62
7
  6
CONTINUOUS
 10
62.0
 20
92.5
 40
6.0
100
AcDbArc
 50
0.0
 51
90.0
  0
ARC
  5
3FF
100
AcDbEntity
  8
RACCORDO
100
AcDbCircle
 62
250
  6
CONTINUOUS
 10
62.0
 20
92.5
 40
5.3730280672
100
AcDbArc
 50
0.0
 51
90.0
  0
ARC
  5
400
100
AcDbEntity
  8
RACCORDO
100
AcDbCircle
 62
250
  6
CONTINUOUS
 10
62.0
 20
92.5
 40
4.2731833408
100
AcDbArc
 50
0.0
 51
90.0
  0
ARC
  5
401
100
AcDbEntity
  8
DRAFT
100
AcDbCircle
 62
7
  6
CONTINUOUS
 10
62.0
 20
92.5
 40
4.1378845111
100
AcDbArc
 50
0.0
 51
90.0
  0
ARC
  5
402
100
AcDbEntity
  8
DRAFT
100
AcDbCircle
 62
7
  6
CONTINUOUS
 10
62.0
 20
92.5
 40
4.0
100
AcDbArc
 50
0.0
 51
90.0
  0
CIRCLE
  5
403
100
AcDbEntity
  8
0
100
AcDbCircle
 62
7
  6
CONTINUOUS
 10
51.5
 20
83.5
 40
2.25
  0
CIRCLE
  5
404
100
AcDbEntity
  8
0
100
AcDbCircle
 62
7
  6
CONTINUOUS
 10
51.5
 20
83.5
 40
1.8
  0
ARC
  5
405
100
AcDbEntity
  8
DRAFT
100
AcDbCircle
 62
7
  6
CONTINUOUS
 10
62.0
 20
92.5
 40
1.6378845111
100
AcDbArc
 50
180.0
 51
270.0
  0
CIRCLE
  5
406
100
AcDbEntity
  8
0
100
AcDbCircle
 62
7
  6
CONTINUOUS
 10
51.5
 20
83.5
 40
1.5
  0
ARC
  5
407
100
AcDbEntity
  8
DRAFT
100
AcDbCircle
 62
7
  6
CONTINUOUS
 10
62.0
 20
92.5
 40
1.5
100
AcDbArc
 50
180.0
 51
270.0
  0
ENDSEC
  0
SECTION
  2
OBJECTS
  0
DICTIONARY
  5
C
100
AcDbDictionary
280
0
281
1
  3
ACAD_GROUP
350
D
  3
ACAD_MLINESTYLE
350
17
  3
ACAD_LAYOUT
350
1A
  3
ACAD_PLOTSETTINGS
350
19
  3
ACAD_PLOTSTYLENAME
350
E
  0
DICTIONARY
  5
D
102
{ACAD_REACTORS
330
C
102
}
100
AcDbDictionary
280
0
281
1
  0
ACDBDICTIONARYWDFLT
  5
E
102
{ACAD_REACTORS
330
C
102
}
100
AcDbDictionary
281
1
  3
Normal
350
F
100
AcDbDictionaryWithDefault
340
F
  0
DICTIONARY
  5
17
102
{ACAD_REACTORS
330
C
102
}
100
AcDbDictionary
280
0
281
1
  3
Standard
350
18
  0
DICTIONARY
  5
19
102
{ACAD_REACTORS
330
C
102
}
100
AcDbDictionary
281
1
  0
DICTIONARY
  5
1A
102
{ACAD_REACTORS
330
C
102
}
100
AcDbDictionary
281
1
  3
Model
350
408
  3
Layout1
350
409
  0
ACDBPLACEHOLDER
  5
F
102
{ACAD_REACTORS
330
E
102
}
  0
MLINESTYLE
  5
18
102
{ACAD_REACTORS
330
17
102
}
100
AcDbMlineStyle
  2
STANDARD
 70
0
  3

 62
256
 51
90.0
 52
90.0
 71
2
 49
0.5
 62
256
  6
BYLAYER
 49
-0.5
 62
256
  6
BYLAYER
  0
LAYOUT
  5
408
102
{ACAD_REACTORS
330
1A
102
}
100
AcDbPlotSettings
  1

  2
none_device
  4
ISO_A4_(297.00_x_210.00_MM)
  6

 40
0.0
 41
0.0
 42
0.0
 43
0.0
 44
297.0
 45
210.0
 46
0.0
 47
0.0
 48
0.0
 49
0.0
140
0.0
141
0.0
142
1.0
143
1.0
 70
1024
 72
1
 73
0
 74
0
  7

 75
0
147
1.0
148
0.0
149
0.0
100
AcDbLayout
  1
Model
 70
0
 71
0
 10
0.0
 20
0.0
 11
297.0
 21
210.0
 12
0.0
 22
0.0
 32
0.0
 14
0.0
 24
0.0
 34
0.0
 15
0.0
 25
0.0
 35
0.0
146
0.0
 13
0.0
 23
0.0
 33
0.0
 16
1.0
 26
0.0
 36
0.0
 17
0.0
 27
1.0
 37
0.0
 76
0
330
216
345
0
346
0
  0
LAYOUT
  5
409
102
{ACAD_REACTORS
330
1A
102
}
100
AcDbPlotSettings
  1

  2
none_device
  4
ISO_A4_(297.00_x_210.00_MM)
  6

 40
0.0
 41
0.0
 42
0.0
 43
0.0
 44
297.0
 45
210.0
 46
0.0
 47
0.0
 48
0.0
 49
0.0
140
0.0
141
0.0
142
1.0
143
1.0
 70
0
 72
1
 73
0
 74
0
  7

 75
0
147
1.0
148
0.0
149
0.0
100
AcDbLayout
  1
Layout1
 70
0
 71
1
 10
0.0
 20
0.0
 11
297.0
 21
210.0
 12
0.0
 22
0.0
 32
0.0
 14
0.0
 24
0.0
 34
0.0
 15
0.0
 25
0.0
 35
0.0
146
0.0
 13
0.0
 23
0.0
 33
0.0
 16
1.0
 26
0.0
 36
0.0
 17
0.0
 27
1.0
 37
0.0
 76
0
330
217
345
0
346
0
  0
ENDSEC
  0
EOF
