  0
SECTION
  2
HEADER
  9
$ACADVER
  1
AC1024
  9
$DWGCODEPAGE
  3
ANSI_1252
  9
$EXTMAX
 10
297.0
 20
210.0
 30
0.0
  9
$EXTMIN
 10
0.0
 20
0.0
 30
0.0
  9
$LIMMIN
 10
0.0
 20
0.0
  9
$LIMMAX
 10
297.0
 20
210.0
  9
$VIEWCTR
 10
148.5
 20
105.0
  9
$VIEWSIZE
 40
210.0
  9
$CLAYER
  8
0
  9
$LTSCALE
 40
16.335
  9
$CELTYPE
  6
BYLAYER
  9
$DIMSCALE
 40
1.0
  9
$DIMASZ
 40
3.0
  9
$DIMEXO
 40
0.5
  9
$DIMDLI
 40
11.286
  9
$DIMEXE
 40
1.5
  9
$DIMCEN
 40
2.673
  9
$DIMLFAC
 40
1.0
  9
$DIMBLK
  1
_FILLED
  9
$DIMALT
 70
0
  9
$DIMALTF
 40
0.0393700787
  9
$DIMTXT
 40
3.0
  9
$DIMTOL
 70
1
  9
$DIMLIM
 70
0
  9
$DIMTFAC
 40
1.0
  9
$DIMTP
 40
0.01
  9
$DIMTM
 40
0.01
  9
$DIMGAP
 40
0.625
  9
$DIMDSEP
 70
44
  9
$AUNITS
 70
0
  9
$PDMODE
 70
3
  9
$PDSIZE
 40
3.0
  9
$HANDSEED
  5
41F
  9
$TILEMODE
 70
1
  9
$MEASUREMENT
 70
1
  9
$INSUNITS
 70
4
  0
ENDSEC
  0
SECTION
  2
CLASSES
  0
CLASS
  1
ACDBDICTIONARYWDFLT
  2
AcDbDictionaryWithDefault
  3
AutoCAD 2000
 90
0
 91
1
280
0
281
0
  0
CLASS
  1
ACDBPLACEHOLDER
  2
AcDbPlaceHolder
  3
AutoCAD 2000
 90
0
 91
1
280
0
281
0
  0
CLASS
  1
LAYOUT
  2
AcDbLayout
  3
AutoCAD 2000
 90
0
 91
0
280
0
281
0
  0
ENDSEC
  0
SECTION
  2
TABLES
  0
TABLE
  2
VPORT
  5
8
100
AcDbSymbolTable
 70
2
  0
VPORT
  5
1F4
100
AcDbSymbolTableRecord
100
AcDbViewportTableRecord
  2
*ACTIVE
 70
0
 10
0.0
 20
0.0
 11
1.0
 21
1.0
 12
148.5
 22
105.0
 13
0.0
 23
0.0
 14
1.0
 24
1.0
 15
0.0
 25
0.0
 16
0.0
 26
0.0
 36
1.0
 17
0.0
 27
0.0
 37
0.0
 40
210.0
 41
1.4142857143
 42
50.0
 43
0.0
 44
0.0
 50
0.0
 51
0.0
 71
0
 72
100
 73
1
 74
1
 75
0
 76
0
 77
0
 78
0
  0
ENDTAB
  0
TABLE
  2
LTYPE
  5
5
100
AcDbSymbolTable
 70
6
  0
LTYPE
  5
14
100
AcDbSymbolTableRecord
100
AcDbLinetypeTableRecord
  2
BYBLOCK
 70
0
  3

 72
65
 73
0
 40
0.0
  0
LTYPE
  5
15
100
AcDbSymbolTableRecord
100
AcDbLinetypeTableRecord
  2
BYLAYER
 70
0
  3

 72
65
 73
0
 40
0.0
  0
LTYPE
  5
16
100
AcDbSymbolTableRecord
100
AcDbLinetypeTableRecord
  2
CONTINUOUS
 70
64
  3
Solid line
 72
65
 73
0
 40
0.0
  0
LTYPE
  5
1F5
100
AcDbSymbolTableRecord
100
AcDbLinetypeTableRecord
  2
CENTER
 70
64
  3
____ _ ____ _ ____ _ ____ _ ____ _ ____ _ ____
 72
65
 73
4
 40
0.6
 49
0.375
 74
0
 49
-0.075
 74
0
 49
0.075
 74
0
 49
-0.075
 74
0
  0
LTYPE
  5
1F6
100
AcDbSymbolTableRecord
100
AcDbLinetypeTableRecord
  2
HIDDEN
 70
64
  3
- - - - - - - - - - - - - - - - - - - -
 72
65
 73
2
 40
0.2
 49
0.1
 74
0
 49
-0.1
 74
0
  0
LTYPE
  5
1F7
100
AcDbSymbolTableRecord
100
AcDbLinetypeTableRecord
  2
PHANTOM
 70
64
  3
_____ _ _ _____ _ _ _____ _ _ _____
 72
65
 73
6
 40
0.8
 49
0.45
 74
0
 49
-0.05
 74
0
 49
0.1
 74
0
 49
-0.05
 74
0
 49
0.1
 74
0
 49
-0.05
 74
0
  0
LTYPE
  5
1F8
100
AcDbSymbolTableRecord
100
AcDbLinetypeTableRecord
  2
DOT
 70
64
  3
. . . . . . . . . . . . . . . . . . . .
 72
65
 73
2
 40
0.2
 49
0.1
 74
0
 49
-0.1
 74
0
  0
LTYPE
  5
1F9
100
AcDbSymbolTableRecord
100
AcDbLinetypeTableRecord
  2
DASHED
 70
64
  3
- - - - - - - - - - - - - - - - - - - -
 72
65
 73
2
 40
0.2
 49
0.1
 74
0
 49
-0.1
 74
0
  0
ENDTAB
  0
TABLE
  2
LAYER
  5
2
100
AcDbSymbolTable
 70
36
  0
LAYER
  5
10
100
AcDbSymbolTableRecord
100
AcDbLayerTableRecord
  2
0
 70
0
 62
7
  6
CONTINUOUS
370
-3
390
F
  0
LAYER
  5
1FA
100
AcDbSymbolTableRecord
100
AcDbLayerTableRecord
  2
DEFAULT_1
 70
0
 62
7
  6
CENTER
370
-3
390
F
  0
LAYER
  5
1FB
100
AcDbSymbolTableRecord
100
AcDbLayerTableRecord
  2
DEFAULT_2
 70
0
 62
7
  6
HIDDEN
370
-3
390
F
  0
LAYER
  5
1FC
100
AcDbSymbolTableRecord
100
AcDbLayerTableRecord
  2
DEFAULT_3
 70
0
 62
7
  6
PHANTOM
370
-3
390
F
  0
LAYER
  5
1FD
100
AcDbSymbolTableRecord
100
AcDbLayerTableRecord
  2
1_IMPORT
 70
0
 62
7
  6
CONTINUOUS
370
-3
390
F
  0
LAYER
  5
1FE
100
AcDbSymbolTableRecord
100
AcDbLayerTableRecord
  2
21714904_SKEL
 70
0
 62
7
  6
CONTINUOUS
370
-3
390
F
  0
LAYER
  5
1FF
100
AcDbSymbolTableRecord
100
AcDbLayerTableRecord
  2
ASSI
 70
0
 62
7
  6
CONTINUOUS
370
-3
390
F
  0
LAYER
  5
200
100
AcDbSymbolTableRecord
100
AcDbLayerTableRecord
  2
COLOR5
 70
0
 62
7
  6
CONTINUOUS
370
-3
390
F
  0
LAYER
  5
201
100
AcDbSymbolTableRecord
100
AcDbLayerTableRecord
  2
COORDINATE
 70
0
 62
7
  6
CONTINUOUS
370
-3
390
F
  0
LAYER
  5
202
100
AcDbSymbolTableRecord
100
AcDbLayerTableRecord
  2
COORD_ORIGINE
 70
0
 62
7
  6
CONTINUOUS
370
-3
390
F
  0
LAYER
  5
203
100
AcDbSymbolTableRecord
100
AcDbLayerTableRecord
  2
COPY_GEOM
 70
0
 62
7
  6
CONTINUOUS
370
-3
390
F
  0
LAYER
  5
204
100
AcDbSymbolTableRecord
100
AcDbLayerTableRecord
  2
CURVE
 70
0
 62
7
  6
CONTINUOUS
370
-3
390
F
  0
LAYER
  5
205
100
AcDbSymbolTableRecord
100
AcDbLayerTableRecord
  2
DRAFT
 70
0
 62
7
  6
CONTINUOUS
370
-3
390
F
  0
LAYER
  5
206
100
AcDbSymbolTableRecord
100
AcDbLayerTableRecord
  2
IGES_INCISIONI
 70
0
 62
7
  6
CONTINUOUS
370
-3
390
F
  0
LAYER
  5
207
100
AcDbSymbolTableRecord
100
AcDbLayerTableRecord
  2
IGES_SCRITTE
 70
0
 62
7
  6
CONTINUOUS
370
-3
390
F
  0
LAYER
  5
208
100
AcDbSymbolTableRecord
100
AcDbLayerTableRecord
  2
INTF_1
 70
0
 62
7
  6
CONTINUOUS
370
-3
390
F
  0
LAYER
  5
209
100
AcDbSymbolTableRecord
100
AcDbLayerTableRecord
  2
INTF_7
 70
0
 62
7
  6
CONTINUOUS
370
-3
390
F
  0
LAYER
  5
20A
100
AcDbSymbolTableRecord
100
AcDbLayerTableRecord
  2
LAY0001
 70
0
 62
7
  6
CONTINUOUS
370
-3
390
F
  0
LAYER
  5
20B
100
AcDbSymbolTableRecord
100
AcDbLayerTableRecord
  2
MARCHI
 70
0
 62
7
  6
CONTINUOUS
370
-3
390
F
  0
LAYER
  5
20C
100
AcDbSymbolTableRecord
100
AcDbLayerTableRecord
  2
NOTE
 70
0
 62
7
  6
CONTINUOUS
370
-3
390
F
  0
LAYER
  5
20D
100
AcDbSymbolTableRecord
100
AcDbLayerTableRecord
  2
PIANI
 70
0
 62
7
  6
CONTINUOUS
370
-3
390
F
  0
LAYER
  5
20E
100
AcDbSymbolTableRecord
100
AcDbLayerTableRecord
  2
PIANI_ORIGINE
 70
0
 62
7
  6
CONTINUOUS
370
-3
390
F
  0
LAYER
  5
20F
100
AcDbSymbolTableRecord
100
AcDbLayerTableRecord
  2
PUNTI
 70
0
 62
7
  6
CONTINUOUS
370
-3
390
F
  0
LAYER
  5
210
100
AcDbSymbolTableRecord
100
AcDbLayerTableRecord
  2
RACCORDO
 70
0
 62
7
  6
CONTINUOUS
370
-3
390
F
  0
LAYER
  5
211
100
AcDbSymbolTableRecord
100
AcDbLayerTableRecord
  2
RGB__255__255__255__
 70
0
 62
7
  6
CONTINUOUS
370
-3
390
F
  0
LAYER
  5
212
100
AcDbSymbolTableRecord
100
AcDbLayerTableRecord
  2
RGB____0____0____0__
 70
0
 62
7
  6
CONTINUOUS
370
-3
390
F
  0
LAYER
  5
213
100
AcDbSymbolTableRecord
100
AcDbLayerTableRecord
  2
SCATOLA
 70
0
 62
7
  6
CONTINUOUS
370
-3
390
F
  0
LAYER
  5
214
100
AcDbSymbolTableRecord
100
AcDbLayerTableRecord
  2
SKEL
 70
0
 62
7
  6
CONTINUOUS
370
-3
390
F
  0
LAYER
  5
215
100
AcDbSymbolTableRecord
100
AcDbLayerTableRecord
  2
SMUSSO
 70
0
 62
7
  6
CONTINUOUS
370
-3
390
F
  0
LAYER
  5
216
100
AcDbSymbolTableRecord
100
AcDbLayerTableRecord
  2
SNAPLINE
 70
0
 62
7
  6
CONTINUOUS
370
-3
390
F
  0
LAYER
  5
217
100
AcDbSymbolTableRecord
100
AcDbLayerTableRecord
  2
SOLIDO
 70
0
 62
7
  6
CONTINUOUS
370
-3
390
F
  0
LAYER
  5
218
100
AcDbSymbolTableRecord
100
AcDbLayerTableRecord
  2
SUPERFICI
 70
0
 62
7
  6
CONTINUOUS
370
-3
390
F
  0
LAYER
  5
219
100
AcDbSymbolTableRecord
100
AcDbLayerTableRecord
  2
SUP_APP
 70
0
 62
7
  6
CONTINUOUS
370
-3
390
F
  0
LAYER
  5
21A
100
AcDbSymbolTableRecord
100
AcDbLayerTableRecord
  2
TRASH
 70
0
 62
7
  6
CONTINUOUS
370
-3
390
F
  0
LAYER
  5
21B
100
AcDbSymbolTableRecord
100
AcDbLayerTableRecord
  2
XSEC_DATUMS
 70
0
 62
7
  6
CONTINUOUS
370
-3
390
F
  0
ENDTAB
  0
TABLE
  2
STYLE
  5
3
100
AcDbSymbolTable
 70
1
  0
STYLE
  5
11
100
AcDbSymbolTableRecord
100
AcDbTextStyleTableRecord
  2
STANDARD
 70
0
 40
0.0
 41
0.8
 50
0.0
 71
0
 42
0.2
  3
txt
  4

  0
STYLE
  5
21C
100
AcDbSymbolTableRecord
100
AcDbTextStyleTableRecord
  2
TEXTSTYLE_1
 70
0
 40
0.0
 41
0.8
 50
0.0
 71
0
 42
0.2
  3
gdt
  4

  0
ENDTAB
  0
TABLE
  2
VIEW
  5
6
100
AcDbSymbolTable
 70
0
  0
ENDTAB
  0
TABLE
  2
UCS
  5
7
100
AcDbSymbolTable
 70
0
  0
ENDTAB
  0
TABLE
  2
APPID
  5
9
100
AcDbSymbolTable
 70
1
  0
APPID
  5
21D
100
AcDbSymbolTableRecord
100
AcDbRegAppTableRecord
  2
ACAD
 70
0
  0
ENDTAB
  0
TABLE
  2
BLOCK_RECORD
  5
1
100
AcDbSymbolTable
 70
0
  0
BLOCK_RECORD
  5
21E
100
AcDbSymbolTableRecord
100
AcDbBlockTableRecord
  2
*Model_Space
  0
BLOCK_RECORD
  5
21F
100
AcDbSymbolTableRecord
100
AcDbBlockTableRecord
  2
*Paper_Space
  0
BLOCK_RECORD
  5
220
100
AcDbSymbolTableRecord
100
AcDbBlockTableRecord
  2
_FILLED
  0
ENDTAB
  0
TABLE
  2
DIMSTYLE
  5
A
100
AcDbSymbolTable
 70
1
100
AcDbDimStyleTable
 71
0
  0
DIMSTYLE
105
221
100
AcDbSymbolTableRecord
100
AcDbDimStyleTableRecord
  2
STANDARD
 70
0
  3

  4

 40
1.0
 41
3.0
 42
0.5
 43
0.38
 44
1.5
 45
0.0
 46
0.0
 47
0.01
 48
0.01
140
3.0
141
0.09
142
0.0
143
25.4
144
1.0
145
0.0
146
1.0
147
0.625
 71
1
 72
0
 73
0
 74
0
 75
0
 76
0
 77
1
 78
8
 79
2
170
0
171
1
172
0
173
0
174
0
175
0
176
0
177
0
178
0
270
2
179
2
271
2
272
2
273
2
274
2
275
0
280
0
281
0
282
0
283
1
284
8
285
0
286
0
287
3
288
0
340
11
278
44
341
220
342
220
343
220
344
220
  0
ENDTAB
  0
ENDSEC
  0
SECTION
  2
BLOCKS
  0
BLOCK
  5
20
100
AcDbEntity
  8
0
100
AcDbBlockBegin
  2
*Model_Space
 70
0
 10
0.0
 20
0.0
 30
0.0
  3
*Model_Space
  1

  0
ENDBLK
  5
21
100
AcDbEntity
  8
0
100
AcDbBlockEnd
  0
BLOCK
  5
1C
100
AcDbEntity
  8
0
100
AcDbBlockBegin
  2
*Paper_Space
 70
0
 10
0.0
 20
0.0
 30
0.0
  3
*Paper_Space
  1

  0
ENDBLK
  5
1D
100
AcDbEntity
  8
0
100
AcDbBlockEnd
  0
BLOCK
  5
222
100
AcDbEntity
  8
0
100
AcDbBlockBegin
  2
_FILLED
 70
64
 10
0.0
 20
0.0
  3
_FILLED
  1

  0
SOLID
  5
223
100
AcDbEntity
  8
0
  6
BYBLOCK
 62
0
100
AcDbTrace
 10
0.0
 20
0.0
 11
-1.0
 21
0.3166666667
 12
-1.0
 22
-0.3166666667
 13
-1.0
 23
-0.3166666667
  0
ENDBLK
  5
224
100
AcDbEntity
  8
0
  6
BYBLOCK
 62
0
100
AcDbBlockEnd
  0
ENDSEC
  0
SECTION
  2
ENTITIES
  0
LWPOLYLINE
  5
225
100
AcDbEntity
  8
SCATOLA
100
AcDbPolyline
 62
250
  6
CONTINUOUS
 90
7
 70
0
 10
-67.4499522038
 20
-22.9461426439
 10
-67.4436915739
 20
-23.0396398531
 10
-67.425000109
 20
-23.1314614662
 10
-67.3942127855
 20
-23.2199619161
 10
-67.3518813537
 20
-23.3035551552
 10
-67.2987644501
 20
-23.3807430799
 10
-67.2899672626
 20
-23.3916280543
  0
LWPOLYLINE
  5
226
100
AcDbEntity
  8
SCATOLA
100
AcDbPolyline
 62
250
  6
CONTINUOUS
 90
10
 70
0
 10
-67.3730240424
 20
-22.9810015364
 10
-67.3679580882
 20
-23.0651853558
 10
-67.3528052358
 20
-23.1481471445
 10
-67.3277854631
 20
-23.2286825244
 10
-67.2932619888
 20
-23.3056223425
 10
-67.2497359989
 20
-23.3778496434
 10
-67.1978393718
 20
-23.4443158845
 10
-67.1383255042
 20
-23.504056158
 10
-67.0720583745
 20
-23.5562031988
 10
-67.0
 20
-23.5999999747
  0
LINE
  5
227
100
AcDbEntity
  8
SCATOLA
100
AcDbLine
 62
7
  6
CONTINUOUS
 10
-60.5
 20
39.5000000253
 11
-60.2242099741
 21
39.7757900511
  0
LINE
  5
228
100
AcDbEntity
  8
SCATOLA
100
AcDbLine
 62
7
  6
CONTINUOUS
 10
-66.0
 20
34.0000000253
 11
-66.2757899725
 21
33.7242100528
  0
LINE
  5
229
100
AcDbEntity
  8
SCATOLA
100
AcDbLine
 62
7
  6
CONTINUOUS
 10
-60.5
 20
-39.4999999747
 11
-60.2242099741
 21
-39.7757900006
  0
LINE
  5
22A
100
AcDbEntity
  8
SCATOLA
100
AcDbLine
 62
7
  6
CONTINUOUS
 10
-66.0
 20
-33.9999999747
 11
-66.2757899725
 21
-33.7242100023
  0
LWPOLYLINE
  5
22B
100
AcDbEntity
  8
SCATOLA
100
AcDbPolyline
 62
250
  6
CONTINUOUS
 90
8
 70
0
 10
-67.4499522117
 20
-30.0538573056
 10
-67.4511767787
 20
-30.0518624498
 10
-67.4523907712
 20
-30.0446324478
 10
-67.453594189
 20
-30.0321672997
 10
-67.454795331
 20
-30.0144052182
 10
-67.4559858985
 20
-29.9914079906
 10
-67.4571409954
 20
-29.9633609785
 10
-67.4582600379
 20
-29.9301043071
  0
LWPOLYLINE
  5
22C
100
AcDbEntity
  8
SCATOLA
100
AcDbPolyline
 62
250
  6
CONTINUOUS
 90
7
 70
0
 10
-66.3772865459
 20
-23.4761308159
 10
-66.3678971518
 20
-23.4970980035
 10
-66.3602346821
 20
-23.5179362599
 10
-66.3543025528
 20
-23.5386455853
 10
-66.3501031164
 20
-23.5592259796
 10
-66.3476378846
 20
-23.5796774427
 10
-66.3469076856
 20
-23.5999999747
  0
LINE
  5
22D
100
AcDbEntity
  8
SCATOLA
100
AcDbLine
 62
250
  6
CONTINUOUS
 10
-67.4582600379
 20
-29.9301043071
 11
-67.460368567
 21
-29.8491065972
  0
LINE
  5
22E
100
AcDbEntity
  8
SCATOLA
100
AcDbLine
 62
250
  6
CONTINUOUS
 10
-67.460368567
 20
-29.8491065972
 11
-67.4622389107
 21
-29.7503453643
  0
LWPOLYLINE
  5
22F
100
AcDbEntity
  8
SCATOLA
100
AcDbPolyline
 62
7
  6
CONTINUOUS
 90
17
 70
0
 10
-67.7897880096
 20
-5.7507759693
 10
-67.7828667461
 20
-6.3890576545
 10
-67.7752237955
 20
-6.9997089985
 10
-67.7668682854
 20
-7.5830794643
 10
-67.7579067934
 20
-8.1317279584
 10
-67.7483315569
 20
-8.6452096987
 10
-67.7381503384
 20
-9.1239694672
 10
-67.727493003
 20
-9.5619005162
 10
-67.7163534516
 20
-9.9584798375
 10
-67.7047377832
 20
-10.3142304392
 10
-67.6927941598
 20
-10.6246145986
 10
-67.6805183802
 20
-10.8890511799
 10
-67.6679146456
 20
-11.1081213188
 10
-67.6551437209
 20
-11.2790306994
 10
-67.6422034645
 20
-11.4011623912
 10
-67.629096018
 20
-11.4751333247
 10
-67.6159885716
 20
-11.4999999747
  0
LINE
  5
230
100
AcDbEntity
  8
SCATOLA
100
AcDbLine
 62
250
  6
CONTINUOUS
 10
-67.4622389107
 20
-29.7503453643
 11
-67.464495586
 21
-29.5751128938
  0
LWPOLYLINE
  5
231
100
AcDbEntity
  8
SCATOLA
100
AcDbPolyline
 62
7
  6
CONTINUOUS
 90
17
 70
0
 10
-67.4421891335
 20
5.7507760198
 10
-67.449110397
 20
6.389057705
 10
-67.4567533477
 20
6.999709049
 10
-67.4651088577
 20
7.5830795149
 10
-67.4740703498
 20
8.1317280089
 10
-67.4836455863
 20
8.6452097492
 10
-67.4938268048
 20
9.1239695177
 10
-67.5044841402
 20
9.5619005667
 10
-67.5156236916
 20
9.958479888
 10
-67.52723936
 20
10.3142304898
 10
-67.5391829834
 20
10.6246146491
 10
-67.551458763
 20
10.8890512305
 10
-67.5640624976
 20
11.1081213694
 10
-67.5768334223
 20
11.2790307499
 10
-67.5897736787
 20
11.4011624417
 10
-67.6028811251
 20
11.4751333752
 10
-67.6159885716
 20
11.5000000253
  0
LINE
  5
232
100
AcDbEntity
  8
SCATOLA
100
AcDbLine
 62
7
  6
CONTINUOUS
 10
-67.8014136642
 20
-4.4008594469
 11
-67.7897880096
 21
-5.7507759693
  0
LINE
  5
233
100
AcDbEntity
  8
SCATOLA
100
AcDbLine
 62
7
  6
CONTINUOUS
 10
-67.4305634789
 20
4.4008594975
 11
-67.4421891335
 21
5.7507760198
  0
LINE
  5
234
100
AcDbEntity
  8
SCATOLA
100
AcDbLine
 62
250
  6
CONTINUOUS
 10
-67.464495586
 20
-29.5751128938
 11
-67.4659890144
 21
-29.3771893254
  0
LINE
  5
235
100
AcDbEntity
  8
SCATOLA
100
AcDbLine
 62
7
  6
CONTINUOUS
 10
-67.80985202
 20
-2.9752959131
 11
-67.8014136642
 21
-4.4008594469
  0
LINE
  5
236
100
AcDbEntity
  8
SCATOLA
100
AcDbLine
 62
7
  6
CONTINUOUS
 10
-67.4221251231
 20
2.9752959637
 11
-67.4305634789
 21
4.4008594975
  0
LINE
  5
237
100
AcDbEntity
  8
SCATOLA
100
AcDbLine
 62
7
  6
CONTINUOUS
 10
-67.814960803
 20
-1.505272214
 11
-67.80985202
 21
-2.9752959131
  0
LINE
  5
238
100
AcDbEntity
  8
SCATOLA
100
AcDbLine
 62
7
  6
CONTINUOUS
 10
-67.4170163402
 20
1.5052722645
 11
-67.4221251231
 21
2.9752959637
  0
LINE
  5
239
100
AcDbEntity
  8
SCATOLA
100
AcDbLine
 62
7
  6
CONTINUOUS
 10
-67.8166912456
 20
0.0000000253
 11
-67.814960803
 21
-1.505272214
  0
LINE
  5
23A
100
AcDbEntity
  8
SCATOLA
100
AcDbLine
 62
250
  6
CONTINUOUS
 10
-67.4659890144
 20
-29.3771893254
 11
-67.4667094077
 21
-29.0999999747
  0
LINE
  5
23B
100
AcDbEntity
  8
SCATOLA
100
AcDbLine
 62
7
  6
CONTINUOUS
 10
-67.4152858976
 20
0.0000000253
 11
-67.4170163402
 21
1.5052722645
  0
LINE
  5
23C
100
AcDbEntity
  8
SCATOLA
100
AcDbLine
 62
7
  6
CONTINUOUS
 10
-68.0
 20
35.5000000253
 11
-68.0
 21
-35.4999999747
  0
LINE
  5
23D
100
AcDbEntity
  8
ASSI
100
AcDbLine
 62
7
  6
CONTINUOUS
 10
-68.0
 20
-35.4999999747
 11
-68.0
 21
35.5000000253
  0
LINE
  5
23E
100
AcDbEntity
  8
SCATOLA
100
AcDbLine
 62
250
  6
CONTINUOUS
 10
-67.3730280729
 20
35.5000000253
 11
-67.3730280729
 21
-22.9810015364
  0
LINE
  5
23F
100
AcDbEntity
  8
SCATOLA
100
AcDbLine
 62
250
  6
CONTINUOUS
 10
-67.3730280729
 20
-30.0189984131
 11
-67.3730280729
 21
-35.4999999747
  0
LINE
  5
240
100
AcDbEntity
  8
SCATOLA
100
AcDbLine
 62
7
  6
CONTINUOUS
 10
-67.0
 20
-23.5999999747
 11
-67.0
 21
-29.3999999747
  0
LINE
  5
241
100
AcDbEntity
  8
SCATOLA
100
AcDbLine
 62
250
  6
CONTINUOUS
 10
-66.3469076856
 20
-23.5999999747
 11
-66.3469076856
 21
-29.3999999747
  0
LINE
  5
242
100
AcDbEntity
  8
SCATOLA
100
AcDbLine
 62
7
  6
CONTINUOUS
 10
-66.2757899725
 20
35.5000000253
 11
-66.2757899725
 21
33.7242100528
  0
LINE
  5
243
100
AcDbEntity
  8
SCATOLA
100
AcDbLine
 62
7
  6
CONTINUOUS
 10
-66.2757899725
 20
-33.7242100023
 11
-66.2757899725
 21
-35.4999999747
  0
LINE
  5
244
100
AcDbEntity
  8
SCATOLA
100
AcDbLine
 62
250
  6
CONTINUOUS
 10
-66.2731956082
 20
33.7242099994
 11
-66.2731956082
 21
-33.7242099489
  0
LINE
  5
245
100
AcDbEntity
  8
SCATOLA
100
AcDbLine
 62
7
  6
CONTINUOUS
 10
-66.0
 20
-33.9999999747
 11
-66.0
 21
-35.4999999747
  0
LINE
  5
246
100
AcDbEntity
  8
SCATOLA
100
AcDbLine
 62
7
  6
CONTINUOUS
 10
-66.0
 20
34.0000000253
 11
-66.0
 21
35.5000000253
  0
LINE
  5
247
100
AcDbEntity
  8
SCATOLA
100
AcDbLine
 62
7
  6
CONTINUOUS
 10
-67.814960803
 20
1.5052722645
 11
-67.8166912456
 21
0.0000000253
  0
LINE
  5
248
100
AcDbEntity
  8
SCATOLA
100
AcDbLine
 62
7
  6
CONTINUOUS
 10
-67.4170163402
 20
-1.505272214
 11
-67.4152858976
 21
0.0000000253
  0
LINE
  5
249
100
AcDbEntity
  8
SCATOLA
100
AcDbLine
 62
250
  6
CONTINUOUS
 10
-67.4667094077
 20
-29.0999999747
 11
-67.4663067073
 21
-23.6914774861
  0
LINE
  5
24A
100
AcDbEntity
  8
SCATOLA
100
AcDbLine
 62
7
  6
CONTINUOUS
 10
-67.80985202
 20
2.9752959637
 11
-67.814960803
 21
1.5052722645
  0
LINE
  5
24B
100
AcDbEntity
  8
SCATOLA
100
AcDbLine
 62
7
  6
CONTINUOUS
 10
-67.4221251231
 20
-2.9752959131
 11
-67.4170163402
 21
-1.505272214
  0
LINE
  5
24C
100
AcDbEntity
  8
SCATOLA
100
AcDbLine
 62
7
  6
CONTINUOUS
 10
-67.8014136642
 20
4.4008594975
 11
-67.80985202
 21
2.9752959637
  0
LINE
  5
24D
100
AcDbEntity
  8
SCATOLA
100
AcDbLine
 62
7
  6
CONTINUOUS
 10
-67.4305634789
 20
-4.4008594469
 11
-67.4221251231
 21
-2.9752959131
  0
LINE
  5
24E
100
AcDbEntity
  8
SCATOLA
100
AcDbLine
 62
250
  6
CONTINUOUS
 10
-67.4663067073
 20
-23.6914774861
 11
-67.4650825363
 21
-23.4887082103
  0
LINE
  5
24F
100
AcDbEntity
  8
SCATOLA
100
AcDbLine
 62
250
  6
CONTINUOUS
 10
-67.4650825363
 20
-23.4887082103
 11
-67.4630672752
 21
-23.3045155166
  0
LINE
  5
250
100
AcDbEntity
  8
SCATOLA
100
AcDbLine
 62
250
  6
CONTINUOUS
 10
-67.4630672752
 20
-23.3045155166
 11
-67.461331411
 21
-23.1979958717
  0
LWPOLYLINE
  5
251
100
AcDbEntity
  8
SCATOLA
100
AcDbPolyline
 62
250
  6
CONTINUOUS
 90
10
 70
0
 10
-67.461331411
 20
-23.1979958717
 10
-67.4593420053
 20
-23.1081392922
 10
-67.4582585942
 20
-23.069848384
 10
-67.4571397572
 20
-23.0366056711
 10
-67.455984927
 20
-23.008569976
 10
-67.4547946709
 20
-22.9855824761
 10
-67.4535937911
 20
-22.9678275546
 10
-67.452390555
 20
-22.9553666726
 10
-67.4511766952
 20
-22.9481383691
 10
-67.4499522117
 20
-22.9461426439
  0
LWPOLYLINE
  5
252
100
AcDbEntity
  8
SCATOLA
100
AcDbPolyline
 62
250
  6
CONTINUOUS
 90
10
 70
0
 10
-66.3469076856
 20
-29.3999999747
 10
-66.3483948349
 20
-29.4257173455
 10
-66.3524952706
 20
-29.451671086
 10
-66.3592068381
 20
-29.4778611963
 10
-66.368282547
 20
-29.50440597
 10
-66.3799596886
 20
-29.5311871134
 10
-66.3949566281
 20
-29.5578497458
 10
-66.4134980151
 20
-29.5842755737
 10
-66.4353150788
 20
-29.6105828907
 10
-66.4603710908
 20
-29.6367716967
  0
LWPOLYLINE
  5
253
100
AcDbEntity
  8
SCATOLA
100
AcDbPolyline
 62
250
  6
CONTINUOUS
 90
10
 70
0
 10
-67.3730276287
 20
-30.0189984131
 10
-67.3679610327
 20
-29.9348144699
 10
-67.3528075961
 20
-29.8518526233
 10
-67.3277873022
 20
-29.7713172362
 10
-67.2932633724
 20
-29.6943774459
 10
-67.2497369928
 20
-29.6221501928
 10
-67.1978400389
 20
-29.5556840046
 10
-67.1383259022
 20
-29.4959437754
 10
-67.0720585534
 20
-29.4437967582
 10
-67.0
 20
-29.3999999747
  0
LWPOLYLINE
  5
254
100
AcDbEntity
  8
SCATOLA
100
AcDbPolyline
 62
250
  6
CONTINUOUS
 90
6
 70
0
 10
-67.4499650636
 20
-30.0538573051
 10
-67.4437018431
 20
-29.9603599576
 10
-67.4250079818
 20
-29.868538517
 10
-67.3942184886
 20
-29.7800384975
 10
-67.351885136
 20
-29.6964458907
 10
-67.3015368336
 20
-29.6227804183
  0
LWPOLYLINE
  5
255
100
AcDbEntity
  8
SCATOLA
100
AcDbPolyline
 62
250
  6
CONTINUOUS
 90
10
 70
0
 10
-54.636771722
 20
39.960371116
 10
-54.5993467844
 20
40.0600203539
 10
-54.56283851
 20
40.1543113975
 10
-54.52814111
 20
40.2409347402
 10
-54.496104441
 20
40.3177686835
 10
-54.4675131894
 20
40.3829313043
 10
-54.4430676515
 20
40.4348265497
 10
-54.4233665813
 20
40.4721833296
 10
-54.4088925246
 20
40.4940866503
 10
-54.4
 20
40.5000000253
  0
LWPOLYLINE
  5
256
100
AcDbEntity
  8
SCATOLA
100
AcDbPolyline
 62
7
  6
CONTINUOUS
 90
18
 70
0
 10
-67.6159885716
 20
11.5000000253
 10
-67.629096018
 20
11.4751333752
 10
-67.6422034645
 20
11.4011624417
 10
-67.6551437209
 20
11.2790307499
 10
-67.6679146456
 20
11.1081213694
 10
-67.6805183802
 20
10.8890512305
 10
-67.6927941598
 20
10.6246146491
 10
-67.7047377832
 20
10.3142304898
 10
-67.7163534516
 20
9.958479888
 10
-67.727493003
 20
9.5619005667
 10
-67.7381503384
 20
9.1239695177
 10
-67.7483315569
 20
8.6452097492
 10
-67.7579067934
 20
8.1317280089
 10
-67.7668682854
 20
7.5830795149
 10
-67.7752237955
 20
6.999709049
 10
-67.7828667461
 20
6.389057705
 10
-67.7897880096
 20
5.7507760198
 10
-67.8014136642
 20
4.4008594975
  0
LWPOLYLINE
  5
257
100
AcDbEntity
  8
SCATOLA
100
AcDbPolyline
 62
250
  6
CONTINUOUS
 90
8
 70
0
 10
-55.0538573309
 20
40.949952237
 10
-55.0518624751
 20
40.951176804
 10
-55.0446324731
 20
40.9523907964
 10
-55.032167325
 20
40.9535942143
 10
-55.0144052435
 20
40.9547953563
 10
-54.9914080159
 20
40.9559859238
 10
-54.9633610038
 20
40.9571410207
 10
-54.9301043323
 20
40.9582600632
  0
LWPOLYLINE
  5
258
100
AcDbEntity
  8
SCATOLA
100
AcDbPolyline
 62
7
  6
CONTINUOUS
 90
5
 70
0
 10
-67.2899672626
 20
-23.3916280543
 10
-67.2358140012
 20
-23.4501423785
 10
-67.1641581639
 20
-23.5105093218
 10
-67.0850811077
 20
-23.5607620528
 10
-67.0
 20
-23.5999999747
  0
LINE
  5
259
100
AcDbEntity
  8
SCATOLA
100
AcDbLine
 62
250
  6
CONTINUOUS
 10
-62.0
 20
34.0000000253
 11
-62.0
 21
33.7242099994
  0
LINE
  5
25A
100
AcDbEntity
  8
SCATOLA
100
AcDbLine
 62
250
  6
CONTINUOUS
 10
-62.0
 20
-33.9999999747
 11
-62.0
 21
-33.7242099489
  0
LINE
  5
25B
100
AcDbEntity
  8
SCATOLA
100
AcDbLine
 62
250
  6
CONTINUOUS
 10
-62.0
 20
-39.4999999747
 11
-62.0
 21
-41.4999999747
  0
LINE
  5
25C
100
AcDbEntity
  8
SCATOLA
100
AcDbLine
 62
250
  6
CONTINUOUS
 10
-62.0
 20
39.5000000253
 11
-62.0
 21
41.5000000253
  0
LINE
  5
25D
100
AcDbEntity
  8
SCATOLA
100
AcDbLine
 62
7
  6
CONTINUOUS
 10
-60.5
 20
39.5000000253
 11
-60.5
 21
35.5000000253
  0
LINE
  5
25E
100
AcDbEntity
  8
SCATOLA
100
AcDbLine
 62
7
  6
CONTINUOUS
 10
-60.5
 20
-39.4999999747
 11
-60.5
 21
-35.4999999747
  0
LINE
  5
25F
100
AcDbEntity
  8
SCATOLA
100
AcDbLine
 62
7
  6
CONTINUOUS
 10
-60.2242099741
 20
39.7731956335
 11
-60.2242099741
 21
35.5000000253
  0
LINE
  5
260
100
AcDbEntity
  8
SCATOLA
100
AcDbLine
 62
7
  6
CONTINUOUS
 10
-60.2242099741
 20
-39.773195583
 11
-60.2242099741
 21
-35.4999999747
  0
LWPOLYLINE
  5
261
100
AcDbEntity
  8
SCATOLA
100
AcDbPolyline
 62
250
  6
CONTINUOUS
 90
10
 70
0
 10
-47.9461426692
 20
40.949952237
 10
-47.9495020425
 20
40.9413294742
 10
-47.9529886555
 20
40.9327256199
 10
-47.956602508
 20
40.9241406741
 10
-47.960341974
 20
40.9155746359
 10
-47.9642086795
 20
40.9070275061
 10
-47.9682075031
 20
40.8984992872
 10
-47.9723400711
 20
40.88998998
 10
-47.9766047573
 20
40.8814995836
 10
-47.9810015616
 20
40.8730280982
  0
LWPOLYLINE
  5
262
100
AcDbEntity
  8
SCATOLA
100
AcDbPolyline
 62
7
  6
CONTINUOUS
 90
5
 70
0
 10
-48.3916280796
 20
40.7899672879
 10
-48.4501424038
 20
40.7358140264
 10
-48.5105093471
 20
40.6641581892
 10
-48.5607620781
 20
40.5850811329
 10
-48.6
 20
40.5000000253
  0
LWPOLYLINE
  5
263
100
AcDbEntity
  8
SCATOLA
100
AcDbPolyline
 62
7
  6
CONTINUOUS
 90
10
 70
0
 10
-53.4160718604
 20
1.1325310253
 10
-53.4185632506
 20
1.2163120768
 10
-53.4169379315
 20
1.2975800414
 10
-53.411195903
 20
1.3763349189
 10
-53.4014754667
 20
1.4529242301
 10
-53.3876383211
 20
1.5270004543
 10
-53.3692695613
 20
1.5975210291
 10
-53.3462308858
 20
1.6641384335
 10
-53.3186605961
 20
1.7272001884
 10
-53.2865586922
 20
1.7867062938
  0
LINE
  5
264
100
AcDbEntity
  8
SCATOLA
100
AcDbLine
 62
7
  6
CONTINUOUS
 10
-54.965387
 20
-0.1150889747
 11
-54.965387
 21
-1.5761209747
  0
LINE
  5
265
100
AcDbEntity
  8
SCATOLA
100
AcDbLine
 62
7
  6
CONTINUOUS
 10
-54.693534
 20
-1.2930109747
 11
-54.693534
 21
-0.1150889747
  0
LINE
  5
266
100
AcDbEntity
  8
SCATOLA
100
AcDbLine
 62
250
  6
CONTINUOUS
 10
-54.4
 20
39.8469077109
 11
-54.4000000001
 21
40.5000000253
  0
LINE
  5
267
100
AcDbEntity
  8
SCATOLA
100
AcDbLine
 62
250
  6
CONTINUOUS
 10
-54.1
 20
40.966709433
 11
-54.1
 21
40.5000000253
  0
LWPOLYLINE
  5
268
100
AcDbEntity
  8
SCATOLA
100
AcDbPolyline
 62
7
  6
CONTINUOUS
 90
16
 70
0
 10
-54.7437946685
 20
1.3929966938
 10
-54.7408732631
 20
1.4568501834
 10
-54.7338874611
 20
1.5172489927
 10
-54.7228372624
 20
1.5741931217
 10
-54.7079305654
 20
1.6279925754
 10
-54.6889594717
 20
1.6783373488
 10
-54.665300286
 20
1.7242974268
 10
-54.6368671109
 20
1.7656133028
 10
-54.6037458437
 20
1.8025444835
 10
-54.5655704821
 20
1.8349394735
 10
-54.5218959775
 20
1.8627933818
 10
-54.4731673783
 20
1.8861110994
 10
-54.4203538275
 20
1.9047558044
 10
-54.3637783727
 20
1.9186818892
 10
-54.3031179663
 20
1.9279349613
 10
-54.2383726082
 20
1.9325150207
  0
LWPOLYLINE
  5
269
100
AcDbEntity
  8
SCATOLA
100
AcDbPolyline
 62
250
  6
CONTINUOUS
 90
3
 70
0
 10
-47.9810015616
 20
40.8730280982
 10
-47.981739946
 20
40.8686260917
 10
-47.9837500403
 20
40.8582979379
  0
LWPOLYLINE
  5
26A
100
AcDbEntity
  8
SCATOLA
100
AcDbPolyline
 62
250
  6
CONTINUOUS
 90
25
 70
0
 10
-47.9837500403
 20
40.8582979379
 10
-47.9915069388
 20
40.82020991
 10
-47.997253743
 20
40.7927015198
 10
-48.0045075175
 20
40.7599814027
 10
-48.0133147299
 20
40.7222154497
 10
-48.0236289126
 20
40.6798078258
 10
-48.0355459233
 20
40.6338197161
 10
-48.0491401888
 20
40.5847980958
 10
-48.0643372822
 20
40.5332342071
 10
-48.0810097808
 20
40.4804486265
 10
-48.0991637446
 20
40.4272146023
 10
-48.1187931136
 20
40.3738952343
 10
-48.1397522849
 20
40.3213107803
 10
-48.1620365754
 20
40.2700344753
 10
-48.1856506683
 20
40.2203428548
 10
-48.2104630101
 20
40.1725616548
 10
-48.2364962515
 20
40.1268392663
 10
-48.263727742
 20
40.0835430605
 10
-48.2919579763
 20
40.0432726175
 10
-48.3213346437
 20
40.0061844067
 10
-48.351710055
 20
39.9724226692
 10
-48.3824416377
 20
39.9425375279
 10
-48.4133152008
 20
39.9167594874
 10
-48.4445449353
 20
39.8949962312
 10
-48.4761308412
 20
39.8772865711
  0
LWPOLYLINE
  5
26B
100
AcDbEntity
  8
SCATOLA
100
AcDbPolyline
 62
7
  6
CONTINUOUS
 90
18
 70
0
 10
-67.6159885716
 20
-11.4999999747
 10
-67.6028811251
 20
-11.4751333247
 10
-67.5897736787
 20
-11.4011623912
 10
-67.5768334223
 20
-11.2790306994
 10
-67.5640624976
 20
-11.1081213188
 10
-67.551458763
 20
-10.8890511799
 10
-67.5391829834
 20
-10.6246145986
 10
-67.52723936
 20
-10.3142304392
 10
-67.5156236916
 20
-9.9584798375
 10
-67.5044841402
 20
-9.5619005162
 10
-67.4938268048
 20
-9.1239694672
 10
-67.4836455863
 20
-8.6452096987
 10
-67.4740703498
 20
-8.1317279584
 10
-67.4651088577
 20
-7.5830794643
 10
-67.4567533477
 20
-6.9997089985
 10
-67.449110397
 20
-6.3890576545
 10
-67.4421891335
 20
-5.7507759693
 10
-67.4305634789
 20
-4.4008594469
  0
LWPOLYLINE
  5
26C
100
AcDbEntity
  8
SCATOLA
100
AcDbPolyline
 62
250
  6
CONTINUOUS
 90
7
 70
0
 10
-48.4761308412
 20
39.8772865711
 10
-48.4970980288
 20
39.867897177
 10
-48.5179362852
 20
39.8602347074
 10
-48.5386456106
 20
39.854302578
 10
-48.5592260048
 20
39.8501031416
 10
-48.579677468
 20
39.8476379099
 10
-48.6
 20
39.8469077109
  0
LINE
  5
26D
100
AcDbEntity
  8
SCATOLA
100
AcDbLine
 62
7
  6
CONTINUOUS
 10
-51.6
 20
16.5000000253
 11
-51.6
 21
-16.4999999747
  0
LINE
  5
26E
100
AcDbEntity
  8
SCATOLA
100
AcDbLine
 62
7
  6
CONTINUOUS
 10
-51.4
 20
-16.4999999747
 11
-51.4
 21
16.5000000253
  0
LINE
  5
26F
100
AcDbEntity
  8
SCATOLA
100
AcDbLine
 62
250
  6
CONTINUOUS
 10
-48.9
 20
40.966709433
 11
-48.9000000084
 21
40.5000000253
  0
LINE
  5
270
100
AcDbEntity
  8
SCATOLA
100
AcDbLine
 62
250
  6
CONTINUOUS
 10
-48.6
 20
39.8469077109
 11
-48.6
 21
40.5000000253
  0
LWPOLYLINE
  5
271
100
AcDbEntity
  8
SCATOLA
100
AcDbPolyline
 62
7
  6
CONTINUOUS
 90
10
 70
0
 10
-52.2215925954
 20
-0.9526381957
 10
-52.2300171828
 20
-1.0347282966
 10
-52.2475830212
 20
-1.1129242343
 10
-52.2742901107
 20
-1.187226009
 10
-52.3109821609
 20
-1.2589815363
 10
-52.3568154623
 20
-1.3268429004
 10
-52.4092588858
 20
-1.3867663543
 10
-52.4674687219
 20
-1.4374039822
 10
-52.5322886802
 20
-1.4801036998
 10
-52.6037187607
 20
-1.5148655071
  0
LINE
  5
272
100
AcDbEntity
  8
SCATOLA
100
AcDbLine
 62
7
  6
CONTINUOUS
 10
-54.5483798359
 20
0.5757353468
 11
-54.415790899
 21
0.8354162231
  0
LWPOLYLINE
  5
273
100
AcDbEntity
  8
SCATOLA
100
AcDbPolyline
 62
250
  6
CONTINUOUS
 90
10
 70
0
 10
-66.4603710908
 20
-29.6367716967
 10
-66.5600203287
 20
-29.5993467591
 10
-66.6543113722
 20
-29.5628384847
 10
-66.7409347149
 20
-29.5281410847
 10
-66.8177686582
 20
-29.4961044157
 10
-66.882931279
 20
-29.4675131641
 10
-66.9348265244
 20
-29.4430676262
 10
-66.9721833044
 20
-29.423366556
 10
-66.994086625
 20
-29.4088924993
 10
-67.0
 20
-29.3999999747
  0
LWPOLYLINE
  5
274
100
AcDbEntity
  8
SCATOLA
100
AcDbPolyline
 62
7
  6
CONTINUOUS
 90
13
 70
0
 10
-53.427590219
 20
-1.6038029708
 10
-53.481978179
 20
-1.493749632
 10
-53.5254971763
 20
-1.3855896995
 10
-53.558147211
 20
-1.2793231735
 10
-53.579596331
 20
-1.1740608376
 10
-53.5901764883
 20
-1.0706919082
 10
-53.5908835394
 20
-0.9718840335
 10
-53.581713218
 20
-0.877892122
 10
-53.5626697905
 20
-0.7884612652
 10
-53.5347619113
 20
-0.705494386
 10
-53.4983257988
 20
-0.6296257922
 10
-53.4530252348
 20
-0.5602211759
 10
-53.3988602192
 20
-0.4972805373
  0
LINE
  5
275
100
AcDbEntity
  8
SCATOLA
100
AcDbLine
 62
7
  6
CONTINUOUS
 10
-52.6037187607
 20
-1.5148655071
 11
-52.4737469146
 21
-1.8039301648
  0
LWPOLYLINE
  5
276
100
AcDbEntity
  8
SCATOLA
100
AcDbPolyline
 62
7
  6
CONTINUOUS
 90
13
 70
0
 10
-53.5660222086
 20
1.7159121622
 10
-53.5957974136
 20
1.7901537033
 10
-53.6316561222
 20
1.8593423172
 10
-53.6735983345
 20
1.9234780038
 10
-53.7226903123
 20
1.9832054354
 10
-53.7778657937
 20
2.0378799398
 10
-53.8359259934
 20
2.0855675005
 10
-53.8955028046
 20
2.1256080527
 10
-53.9579643341
 20
2.1586616611
 10
-54.0242161168
 20
2.1847745043
 10
-54.0945599976
 20
2.203961975
 10
-54.1686941316
 20
2.2162086805
 10
-54.2466185187
 20
2.2215146207
  0
LINE
  5
277
100
AcDbEntity
  8
SCATOLA
100
AcDbLine
 62
7
  6
CONTINUOUS
 10
-52.6410220488
 20
0.7708881847
 11
-52.545473839
 21
0.4588524994
  0
LWPOLYLINE
  5
278
100
AcDbEntity
  8
SCATOLA
100
AcDbPolyline
 62
7
  6
CONTINUOUS
 90
7
 70
0
 10
-53.7200744366
 20
1.5463050852
 10
-53.7054461467
 20
1.4843235519
 10
-53.6952614862
 20
1.4186748135
 10
-53.6884816786
 20
1.3505518897
 10
-53.6847604652
 20
1.2803524536
 10
-53.6844441047
 20
1.2076788322
 10
-53.6875325972
 20
1.1325310253
  0
LWPOLYLINE
  5
279
100
AcDbEntity
  8
SCATOLA
100
AcDbPolyline
 62
7
  6
CONTINUOUS
 90
10
 70
0
 10
-53.2865586922
 20
1.7867062938
 10
-53.2555669013
 20
1.8295051123
 10
-53.2184791803
 20
1.8684616404
 10
-53.1752955292
 20
1.9035758782
 10
-53.1252224089
 20
1.9356142444
 10
-53.0690533584
 20
1.9638103202
 10
-53.0091689956
 20
1.9858648488
 10
-52.9463628596
 20
2.0010114111
 10
-52.8798414111
 20
2.0100164261
 10
-52.8096046502
 20
2.0128798938
  0
LWPOLYLINE
  5
27A
100
AcDbEntity
  8
SCATOLA
100
AcDbPolyline
 62
250
  6
CONTINUOUS
 90
7
 70
0
 10
47.9461426691
 20
-40.9499521785
 10
48.0396398783
 20
-40.9436915486
 10
48.1314614914
 20
-40.9250000838
 10
48.2199619413
 20
-40.8942127602
 10
48.3035551805
 20
-40.8518813285
 10
48.3807431052
 20
-40.7987644248
 10
48.3916280796
 20
-40.7899672373
  0
LWPOLYLINE
  5
27B
100
AcDbEntity
  8
SCATOLA
100
AcDbPolyline
 62
250
  6
CONTINUOUS
 90
10
 70
0
 10
47.9810015617
 20
-40.8730240171
 10
48.0651853811
 20
-40.8679580629
 10
48.1481471697
 20
-40.8528052105
 10
48.2286825497
 20
-40.8277854378
 10
48.3056223678
 20
-40.7932619635
 10
48.3778496686
 20
-40.7497359737
 10
48.4443159097
 20
-40.6978393465
 10
48.5040561832
 20
-40.6383254789
 10
48.5562032241
 20
-40.5720583493
 10
48.6
 20
-40.4999999747
  0
LINE
  5
27C
100
AcDbEntity
  8
SCATOLA
100
AcDbLine
 62
250
  6
CONTINUOUS
 10
54.9301043323
 20
-40.9582600126
 11
54.8491066224
 21
-40.9603685417
  0
LWPOLYLINE
  5
27D
100
AcDbEntity
  8
SCATOLA
100
AcDbPolyline
 62
250
  6
CONTINUOUS
 90
3
 70
0
 10
54.8491066224
 20
-40.9603685417
 10
54.7503453895
 20
-40.9622388854
 10
54.6953890576
 20
-40.9630685805
  0
LWPOLYLINE
  5
27E
100
AcDbEntity
  8
SCATOLA
100
AcDbPolyline
 62
250
  6
CONTINUOUS
 90
10
 70
0
 10
-67.4499522117
 20
-22.9461426439
 10
-67.441329449
 20
-22.9495020173
 10
-67.4327255947
 20
-22.9529886302
 10
-67.4241406488
 20
-22.9566024828
 10
-67.4155746106
 20
-22.9603419487
 10
-67.4070274808
 20
-22.9642086542
 10
-67.3984992619
 20
-22.9682074778
 10
-67.3899899547
 20
-22.9723400459
 10
-67.3814995584
 20
-22.976604732
 10
-67.3730280729
 20
-22.9810015364
  0
LWPOLYLINE
  5
27F
100
AcDbEntity
  8
SCATOLA
100
AcDbPolyline
 62
250
  6
CONTINUOUS
 90
4
 70
0
 10
-55.0088843892
 20
40.8221203074
 10
-55.016345127
 20
40.8588118775
 10
-55.018281175
 20
40.8687690748
 10
-55.0189984384
 20
40.8730280982
  0
LINE
  5
280
100
AcDbEntity
  8
SCATOLA
100
AcDbLine
 62
7
  6
CONTINUOUS
 10
-41.5
 20
26.6000000253
 11
-41.5
 21
26.4000000253
  0
LINE
  5
281
100
AcDbEntity
  8
SCATOLA
100
AcDbLine
 62
250
  6
CONTINUOUS
 10
54.6953890576
 20
-40.9630685805
 11
54.5112216456
 21
-40.9650830952
  0
LINE
  5
282
100
AcDbEntity
  8
SCATOLA
100
AcDbLine
 62
7
  6
CONTINUOUS
 10
39.7507759946
 20
-41.2897879844
 11
38.4008594722
 21
-41.301413639
  0
LINE
  5
283
100
AcDbEntity
  8
SCATOLA
100
AcDbLine
 62
7
  6
CONTINUOUS
 10
5.7507759946
 20
-41.2897879844
 11
4.4008594722
 21
-41.301413639
  0
LINE
  5
284
100
AcDbEntity
  8
SCATOLA
100
AcDbLine
 62
7
  6
CONTINUOUS
 10
28.2492240054
 20
-40.9421891082
 11
29.5991405278
 21
-40.9305634537
  0
LINE
  5
285
100
AcDbEntity
  8
SCATOLA
100
AcDbLine
 62
7
  6
CONTINUOUS
 10
-28.2492240054
 20
-41.2897879844
 11
-29.5991405278
 21
-41.301413639
  0
LINE
  5
286
100
AcDbEntity
  8
SCATOLA
100
AcDbLine
 62
7
  6
CONTINUOUS
 10
-5.7507759946
 20
-40.9421891082
 11
-4.4008594722
 21
-40.9305634537
  0
LINE
  5
287
100
AcDbEntity
  8
SCATOLA
100
AcDbLine
 62
7
  6
CONTINUOUS
 10
-39.7507759946
 20
-40.9421891082
 11
-38.4008594722
 21
-40.9305634537
  0
LINE
  5
288
100
AcDbEntity
  8
SCATOLA
100
AcDbLine
 62
7
  6
CONTINUOUS
 10
38.4008594722
 20
-41.301413639
 11
36.9752959384
 21
-41.3098519948
  0
LINE
  5
289
100
AcDbEntity
  8
SCATOLA
100
AcDbLine
 62
7
  6
CONTINUOUS
 10
4.4008594722
 20
-41.301413639
 11
2.9752959384
 21
-41.3098519948
  0
LINE
  5
28A
100
AcDbEntity
  8
SCATOLA
100
AcDbLine
 62
7
  6
CONTINUOUS
 10
-29.5991405278
 20
-41.301413639
 11
-31.0247040616
 21
-41.3098519948
  0
LINE
  5
28B
100
AcDbEntity
  8
SCATOLA
100
AcDbLine
 62
7
  6
CONTINUOUS
 10
29.5991405278
 20
-40.9305634537
 11
31.0247040616
 21
-40.9221250979
  0
LINE
  5
28C
100
AcDbEntity
  8
SCATOLA
100
AcDbLine
 62
7
  6
CONTINUOUS
 10
-4.4008594722
 20
-40.9305634537
 11
-2.9752959384
 21
-40.9221250979
  0
LINE
  5
28D
100
AcDbEntity
  8
SCATOLA
100
AcDbLine
 62
7
  6
CONTINUOUS
 10
-38.4008594722
 20
-40.9305634537
 11
-36.9752959384
 21
-40.9221250979
  0
LINE
  5
28E
100
AcDbEntity
  8
SCATOLA
100
AcDbLine
 62
250
  6
CONTINUOUS
 10
54.5112216456
 20
-40.9650830952
 11
54.2396423236
 21
-40.9665322044
  0
LINE
  5
28F
100
AcDbEntity
  8
SCATOLA
100
AcDbLine
 62
7
  6
CONTINUOUS
 10
36.9752959384
 20
-41.3098519948
 11
35.5052722392
 21
-41.3149607777
  0
LINE
  5
290
100
AcDbEntity
  8
SCATOLA
100
AcDbLine
 62
7
  6
CONTINUOUS
 10
2.9752959384
 20
-41.3098519948
 11
1.5052722392
 21
-41.3149607777
  0
LINE
  5
291
100
AcDbEntity
  8
SCATOLA
100
AcDbLine
 62
7
  6
CONTINUOUS
 10
-31.0247040616
 20
-41.3098519948
 11
-32.4947277608
 21
-41.3149607777
  0
LINE
  5
292
100
AcDbEntity
  8
SCATOLA
100
AcDbLine
 62
7
  6
CONTINUOUS
 10
31.0247040616
 20
-40.9221250979
 11
32.4947277607
 21
-40.9170163149
  0
LINE
  5
293
100
AcDbEntity
  8
SCATOLA
100
AcDbLine
 62
7
  6
CONTINUOUS
 10
-2.9752959384
 20
-40.9221250979
 11
-1.5052722393
 21
-40.9170163149
  0
LINE
  5
294
100
AcDbEntity
  8
SCATOLA
100
AcDbLine
 62
7
  6
CONTINUOUS
 10
-36.9752959384
 20
-40.9221250979
 11
-35.5052722393
 21
-40.9170163149
  0
LINE
  5
295
100
AcDbEntity
  8
SCATOLA
100
AcDbLine
 62
7
  6
CONTINUOUS
 10
35.5052722392
 20
-41.3149607777
 11
34.0
 21
-41.3166912203
  0
LINE
  5
296
100
AcDbEntity
  8
SCATOLA
100
AcDbLine
 62
7
  6
CONTINUOUS
 10
1.5052722392
 20
-41.3149607777
 11
-0.0
 21
-41.3166912203
  0
LINE
  5
297
100
AcDbEntity
  8
SCATOLA
100
AcDbLine
 62
7
  6
CONTINUOUS
 10
-32.4947277608
 20
-41.3149607777
 11
-34.0
 21
-41.3166912203
  0
LINE
  5
298
100
AcDbEntity
  8
SCATOLA
100
AcDbLine
 62
7
  6
CONTINUOUS
 10
32.4947277607
 20
-40.9170163149
 11
34.0
 21
-40.9152858723
  0
LINE
  5
299
100
AcDbEntity
  8
SCATOLA
100
AcDbLine
 62
7
  6
CONTINUOUS
 10
-1.5052722393
 20
-40.9170163149
 11
-0.0
 21
-40.9152858723
  0
LINE
  5
29A
100
AcDbEntity
  8
SCATOLA
100
AcDbLine
 62
7
  6
CONTINUOUS
 10
-35.5052722393
 20
-40.9170163149
 11
-34.0
 21
-40.9152858723
  0
LINE
  5
29B
100
AcDbEntity
  8
SCATOLA
100
AcDbLine
 62
7
  6
CONTINUOUS
 10
-62.0
 20
-41.4999999747
 11
62.0
 21
-41.4999999747
  0
LINE
  5
29C
100
AcDbEntity
  8
ASSI
100
AcDbLine
 62
7
  6
CONTINUOUS
 10
62.0
 20
-41.4999999747
 11
-62.0
 21
-41.4999999747
  0
LINE
  5
29D
100
AcDbEntity
  8
SCATOLA
100
AcDbLine
 62
250
  6
CONTINUOUS
 10
54.2396423236
 20
-40.9665322044
 11
48.9
 21
-40.9667093825
  0
LINE
  5
29E
100
AcDbEntity
  8
SCATOLA
100
AcDbLine
 62
250
  6
CONTINUOUS
 10
-62.0
 20
-40.8730280476
 11
47.9810015616
 21
-40.8730280476
  0
LINE
  5
29F
100
AcDbEntity
  8
SCATOLA
100
AcDbLine
 62
250
  6
CONTINUOUS
 10
55.0189984384
 20
-40.8730280476
 11
62.0
 21
-40.8730280476
  0
LINE
  5
2A0
100
AcDbEntity
  8
SCATOLA
100
AcDbLine
 62
7
  6
CONTINUOUS
 10
48.6
 20
-40.4999999747
 11
54.4
 21
-40.4999999747
  0
LINE
  5
2A1
100
AcDbEntity
  8
SCATOLA
100
AcDbLine
 62
250
  6
CONTINUOUS
 10
48.6
 20
-39.8469076603
 11
54.4
 21
-39.8469076603
  0
LINE
  5
2A2
100
AcDbEntity
  8
SCATOLA
100
AcDbLine
 62
7
  6
CONTINUOUS
 10
-62.0
 20
-39.7757899472
 11
-60.2242100275
 21
-39.7757899472
  0
LINE
  5
2A3
100
AcDbEntity
  8
SCATOLA
100
AcDbLine
 62
7
  6
CONTINUOUS
 10
60.2242100275
 20
-39.7757899472
 11
62.0
 21
-39.7757899472
  0
LINE
  5
2A4
100
AcDbEntity
  8
SCATOLA
100
AcDbLine
 62
250
  6
CONTINUOUS
 10
-60.2242099741
 20
-39.773195583
 11
60.2242099741
 21
-39.773195583
  0
LINE
  5
2A5
100
AcDbEntity
  8
SCATOLA
100
AcDbLine
 62
7
  6
CONTINUOUS
 10
-62.0
 20
-39.4999999747
 11
-60.5
 21
-39.4999999747
  0
LINE
  5
2A6
100
AcDbEntity
  8
SCATOLA
100
AcDbLine
 62
7
  6
CONTINUOUS
 10
62.0
 20
-39.4999999747
 11
60.5
 21
-39.4999999747
  0
LINE
  5
2A7
100
AcDbEntity
  8
SCATOLA
100
AcDbLine
 62
7
  6
CONTINUOUS
 10
-34.0
 20
-41.3166912203
 11
-35.5052722393
 21
-41.3149607777
  0
LINE
  5
2A8
100
AcDbEntity
  8
SCATOLA
100
AcDbLine
 62
7
  6
CONTINUOUS
 10
-0.0
 20
-41.3166912203
 11
-1.5052722393
 21
-41.3149607777
  0
LINE
  5
2A9
100
AcDbEntity
  8
SCATOLA
100
AcDbLine
 62
7
  6
CONTINUOUS
 10
34.0
 20
-41.3166912203
 11
32.4947277607
 21
-41.3149607777
  0
LINE
  5
2AA
100
AcDbEntity
  8
SCATOLA
100
AcDbLine
 62
7
  6
CONTINUOUS
 10
-34.0
 20
-40.9152858723
 11
-32.4947277608
 21
-40.9170163149
  0
LINE
  5
2AB
100
AcDbEntity
  8
SCATOLA
100
AcDbLine
 62
7
  6
CONTINUOUS
 10
-0.0
 20
-40.9152858723
 11
1.5052722392
 21
-40.9170163149
  0
LINE
  5
2AC
100
AcDbEntity
  8
SCATOLA
100
AcDbLine
 62
7
  6
CONTINUOUS
 10
34.0
 20
-40.9152858723
 11
35.5052722392
 21
-40.9170163149
  0
LINE
  5
2AD
100
AcDbEntity
  8
SCATOLA
100
AcDbLine
 62
7
  6
CONTINUOUS
 10
-35.5052722393
 20
-41.3149607777
 11
-36.9752959384
 21
-41.3098519948
  0
LINE
  5
2AE
100
AcDbEntity
  8
SCATOLA
100
AcDbLine
 62
7
  6
CONTINUOUS
 10
-1.5052722393
 20
-41.3149607777
 11
-2.9752959384
 21
-41.3098519948
  0
LINE
  5
2AF
100
AcDbEntity
  8
SCATOLA
100
AcDbLine
 62
7
  6
CONTINUOUS
 10
32.4947277607
 20
-41.3149607777
 11
31.0247040616
 21
-41.3098519948
  0
LINE
  5
2B0
100
AcDbEntity
  8
SCATOLA
100
AcDbLine
 62
7
  6
CONTINUOUS
 10
-32.4947277608
 20
-40.9170163149
 11
-31.0247040616
 21
-40.9221250979
  0
LINE
  5
2B1
100
AcDbEntity
  8
SCATOLA
100
AcDbLine
 62
7
  6
CONTINUOUS
 10
1.5052722392
 20
-40.9170163149
 11
2.9752959384
 21
-40.9221250979
  0
LINE
  5
2B2
100
AcDbEntity
  8
SCATOLA
100
AcDbLine
 62
7
  6
CONTINUOUS
 10
35.5052722392
 20
-40.9170163149
 11
36.9752959384
 21
-40.9221250979
  0
LINE
  5
2B3
100
AcDbEntity
  8
SCATOLA
100
AcDbLine
 62
250
  6
CONTINUOUS
 10
48.9
 20
-40.9667093825
 11
48.6227735673
 21
-40.9659887743
  0
LINE
  5
2B4
100
AcDbEntity
  8
SCATOLA
100
AcDbLine
 62
7
  6
CONTINUOUS
 10
-36.9752959384
 20
-41.3098519948
 11
-38.4008594722
 21
-41.301413639
  0
LINE
  5
2B5
100
AcDbEntity
  8
SCATOLA
100
AcDbLine
 62
7
  6
CONTINUOUS
 10
-2.9752959384
 20
-41.3098519948
 11
-4.4008594722
 21
-41.301413639
  0
LINE
  5
2B6
100
AcDbEntity
  8
SCATOLA
100
AcDbLine
 62
7
  6
CONTINUOUS
 10
-31.0247040616
 20
-40.9221250979
 11
-29.5991405278
 21
-40.9305634537
  0
LINE
  5
2B7
100
AcDbEntity
  8
SCATOLA
100
AcDbLine
 62
7
  6
CONTINUOUS
 10
31.0247040616
 20
-41.3098519948
 11
29.5991405278
 21
-41.301413639
  0
LINE
  5
2B8
100
AcDbEntity
  8
SCATOLA
100
AcDbLine
 62
7
  6
CONTINUOUS
 10
2.9752959384
 20
-40.9221250979
 11
4.4008594722
 21
-40.9305634537
  0
LINE
  5
2B9
100
AcDbEntity
  8
SCATOLA
100
AcDbLine
 62
7
  6
CONTINUOUS
 10
36.9752959384
 20
-40.9221250979
 11
38.4008594722
 21
-40.9305634537
  0
LINE
  5
2BA
100
AcDbEntity
  8
SCATOLA
100
AcDbLine
 62
250
  6
CONTINUOUS
 10
48.6227735673
 20
-40.9659887743
 11
48.4248051937
 21
-40.9644947316
  0
LWPOLYLINE
  5
2BB
100
AcDbEntity
  8
SCATOLA
100
AcDbPolyline
 62
7
  6
CONTINUOUS
 90
18
 70
0
 10
-38.4008594722
 20
-41.301413639
 10
-39.7507759946
 20
-41.2897879844
 10
-40.3890576797
 20
-41.2828667209
 10
-40.9997090238
 20
-41.2752237702
 10
-41.5830794896
 20
-41.2668682601
 10
-42.1317279837
 20
-41.2579067681
 10
-42.645209724
 20
-41.2483315316
 10
-43.1239694925
 20
-41.2381503131
 10
-43.5619005415
 20
-41.2274929777
 10
-43.9584798628
 20
-41.2163534263
 10
-44.3142304645
 20
-41.2047377579
 10
-44.6246146239
 20
-41.1927941345
 10
-44.8890512052
 20
-41.1805183549
 10
-45.1081213441
 20
-41.1679146203
 10
-45.2790307246
 20
-41.1551436956
 10
-45.4011624165
 20
-41.1422034392
 10
-45.47513335
 20
-41.1290959928
 10
-45.5
 20
-41.1159885463
  0
LWPOLYLINE
  5
2BC
100
AcDbEntity
  8
SCATOLA
100
AcDbPolyline
 62
7
  6
CONTINUOUS
 90
18
 70
0
 10
-4.4008594722
 20
-41.301413639
 10
-5.7507759946
 20
-41.2897879844
 10
-6.3890576797
 20
-41.2828667209
 10
-6.9997090238
 20
-41.2752237702
 10
-7.5830794896
 20
-41.2668682601
 10
-8.1317279837
 20
-41.2579067681
 10
-8.645209724
 20
-41.2483315316
 10
-9.1239694925
 20
-41.2381503131
 10
-9.5619005415
 20
-41.2274929777
 10
-9.9584798628
 20
-41.2163534263
 10
-10.3142304645
 20
-41.2047377579
 10
-10.6246146239
 20
-41.1927941345
 10
-10.8890512052
 20
-41.1805183549
 10
-11.1081213441
 20
-41.1679146203
 10
-11.2790307246
 20
-41.1551436956
 10
-11.4011624165
 20
-41.1422034392
 10
-11.47513335
 20
-41.1290959928
 10
-11.5
 20
-41.1159885463
  0
LWPOLYLINE
  5
2BD
100
AcDbEntity
  8
SCATOLA
100
AcDbPolyline
 62
7
  6
CONTINUOUS
 90
18
 70
0
 10
-29.5991405278
 20
-40.9305634537
 10
-28.2492240054
 20
-40.9421891082
 10
-27.6109423203
 20
-40.9491103717
 10
-27.0002909763
 20
-40.9567533224
 10
-26.4169205104
 20
-40.9651088325
 10
-25.8682720164
 20
-40.9740703245
 10
-25.3547902761
 20
-40.983645561
 10
-24.8760305075
 20
-40.9938267795
 10
-24.4380994585
 20
-41.0044841149
 10
-24.0415201373
 20
-41.0156236663
 10
-23.6857695355
 20
-41.0272393347
 10
-23.3753853761
 20
-41.0391829581
 10
-23.1109487948
 20
-41.0514587377
 10
-22.8918786559
 20
-41.0640624723
 10
-22.7209692754
 20
-41.076833397
 10
-22.5988375835
 20
-41.0897736534
 10
-22.5248666501
 20
-41.1028810999
 10
-22.5
 20
-41.1159885463
  0
LWPOLYLINE
  5
2BE
100
AcDbEntity
  8
SCATOLA
100
AcDbPolyline
 62
7
  6
CONTINUOUS
 90
18
 70
0
 10
29.5991405278
 20
-41.301413639
 10
28.2492240054
 20
-41.2897879844
 10
27.6109423203
 20
-41.2828667209
 10
27.0002909762
 20
-41.2752237702
 10
26.4169205104
 20
-41.2668682601
 10
25.8682720163
 20
-41.2579067681
 10
25.354790276
 20
-41.2483315316
 10
24.8760305075
 20
-41.2381503131
 10
24.4380994585
 20
-41.2274929777
 10
24.0415201372
 20
-41.2163534263
 10
23.6857695355
 20
-41.2047377579
 10
23.3753853761
 20
-41.1927941345
 10
23.1109487948
 20
-41.1805183549
 10
22.8918786559
 20
-41.1679146203
 10
22.7209692754
 20
-41.1551436956
 10
22.5988375835
 20
-41.1422034392
 10
22.52486665
 20
-41.1290959928
 10
22.5
 20
-41.1159885463
  0
LWPOLYLINE
  5
2BF
100
AcDbEntity
  8
SCATOLA
100
AcDbPolyline
 62
7
  6
CONTINUOUS
 90
18
 70
0
 10
4.4008594722
 20
-40.9305634537
 10
5.7507759946
 20
-40.9421891082
 10
6.3890576797
 20
-40.9491103717
 10
6.9997090237
 20
-40.9567533224
 10
7.5830794896
 20
-40.9651088325
 10
8.1317279836
 20
-40.9740703245
 10
8.6452097239
 20
-40.983645561
 10
9.1239694925
 20
-40.9938267795
 10
9.5619005415
 20
-41.0044841149
 10
9.9584798627
 20
-41.0156236663
 10
10.3142304645
 20
-41.0272393347
 10
10.6246146239
 20
-41.0391829581
 10
10.8890512052
 20
-41.0514587377
 10
11.1081213441
 20
-41.0640624723
 10
11.2790307246
 20
-41.076833397
 10
11.4011624165
 20
-41.0897736534
 10
11.4751333499
 20
-41.1028810999
 10
11.5
 20
-41.1159885463
  0
LWPOLYLINE
  5
2C0
100
AcDbEntity
  8
SCATOLA
100
AcDbPolyline
 62
7
  6
CONTINUOUS
 90
18
 70
0
 10
38.4008594722
 20
-40.9305634537
 10
39.7507759946
 20
-40.9421891082
 10
40.3890576797
 20
-40.9491103717
 10
40.9997090237
 20
-40.9567533224
 10
41.5830794896
 20
-40.9651088325
 10
42.1317279836
 20
-40.9740703245
 10
42.6452097239
 20
-40.983645561
 10
43.1239694925
 20
-40.9938267795
 10
43.5619005415
 20
-41.0044841149
 10
43.9584798627
 20
-41.0156236663
 10
44.3142304645
 20
-41.0272393347
 10
44.6246146239
 20
-41.0391829581
 10
44.8890512052
 20
-41.0514587377
 10
45.1081213441
 20
-41.0640624723
 10
45.2790307246
 20
-41.076833397
 10
45.4011624165
 20
-41.0897736534
 10
45.4751333499
 20
-41.1028810999
 10
45.5
 20
-41.1159885463
  0
LINE
  5
2C1
100
AcDbEntity
  8
SCATOLA
100
AcDbLine
 62
250
  6
CONTINUOUS
 10
48.4248051937
 20
-40.9644947316
 11
48.2495615682
 21
-40.9622373803
  0
LINE
  5
2C2
100
AcDbEntity
  8
SCATOLA
100
AcDbLine
 62
250
  6
CONTINUOUS
 10
48.2495615682
 20
-40.9622373803
 11
48.1508175699
 21
-40.9603668638
  0
LWPOLYLINE
  5
2C3
100
AcDbEntity
  8
SCATOLA
100
AcDbPolyline
 62
250
  6
CONTINUOUS
 90
9
 70
0
 10
48.1508175699
 20
-40.9603668638
 10
48.0698484093
 20
-40.958258569
 10
48.0366056963
 20
-40.9571397319
 10
48.0085700012
 20
-40.9559849018
 10
47.9855825014
 20
-40.9547946456
 10
47.9678275799
 20
-40.9535937658
 10
47.9553666979
 20
-40.9523905297
 10
47.9481383943
 20
-40.95117667
 10
47.9461426691
 20
-40.9499521865
  0
LWPOLYLINE
  5
2C4
100
AcDbEntity
  8
SCATOLA
100
AcDbPolyline
 62
250
  6
CONTINUOUS
 90
10
 70
0
 10
54.4
 20
-39.8469076603
 10
54.4257173708
 20
-39.8483948096
 10
54.4516711113
 20
-39.8524952454
 10
54.4778612216
 20
-39.8592068128
 10
54.5044059952
 20
-39.8682825217
 10
54.5311871386
 20
-39.8799596633
 10
54.5578497711
 20
-39.8949566028
 10
54.584275599
 20
-39.9134979898
 10
54.610582916
 20
-39.9353150536
 10
54.636771722
 20
-39.9603710655
  0
LWPOLYLINE
  5
2C5
100
AcDbEntity
  8
SCATOLA
100
AcDbPolyline
 62
250
  6
CONTINUOUS
 90
10
 70
0
 10
55.0189984384
 20
-40.8730276034
 10
54.9348144952
 20
-40.8679610074
 10
54.8518526486
 20
-40.8528075708
 10
54.7713172614
 20
-40.8277872769
 10
54.6943774712
 20
-40.7932633471
 10
54.622150218
 20
-40.7497369675
 10
54.5556840298
 20
-40.6978400136
 10
54.4959438007
 20
-40.6383258769
 10
54.4437967835
 20
-40.5720585281
 10
54.4
 20
-40.4999999747
  0
LWPOLYLINE
  5
2C6
100
AcDbEntity
  8
SCATOLA
100
AcDbPolyline
 62
250
  6
CONTINUOUS
 90
6
 70
0
 10
55.0538573304
 20
-40.9499650383
 10
54.9603599828
 20
-40.9437018179
 10
54.8685385422
 20
-40.9250079565
 10
54.7800385228
 20
-40.8942184633
 10
54.696445916
 20
-40.8518851107
 10
54.6227804435
 20
-40.8015368083
  0
LWPOLYLINE
  5
2C7
100
AcDbEntity
  8
SCATOLA
100
AcDbPolyline
 62
7
  6
CONTINUOUS
 90
19
 70
0
 10
-52.3881469242
 20
1.8357237074
 10
-52.3407977437
 20
1.7806844535
 10
-52.301338082
 20
1.7211838116
 10
-52.2697679389
 20
1.6572217817
 10
-52.2462681801
 20
1.587934331
 10
-52.2306579399
 20
1.5141854923
 10
-52.2223946221
 20
1.4385673641
 10
-52.2216067129
 20
1.3598619413
 10
-52.2281657259
 20
1.279287229
 10
-52.2411436059
 20
1.2030893413
 10
-52.260326068
 20
1.1328224414
 10
-52.285927397
 20
1.0669323661
 10
-52.3176623918
 20
1.0070027399
 10
-52.3552614258
 20
0.9537419366
 10
-52.3989941256
 20
0.9064415822
 10
-52.4493841699
 20
0.8645601796
 10
-52.5066061183
 20
0.8279172296
 10
-52.5704854113
 20
0.7966932313
 10
-52.6410220488
 20
0.7708881847
  0
LINE
  5
2C8
100
AcDbEntity
  8
SCATOLA
100
AcDbLine
 62
250
  6
CONTINUOUS
 10
-48.5349565713
 20
40.1936694978
 11
-48.5599052429
 21
40.3217940949
  0
LWPOLYLINE
  5
2C9
100
AcDbEntity
  8
SCATOLA
100
AcDbPolyline
 62
250
  6
CONTINUOUS
 90
4
 70
0
 10
-48.5599052429
 20
40.3217940949
 10
-48.5699577252
 20
40.3748498489
 10
-48.5789409221
 20
40.4192988489
 10
-48.5874618069
 20
40.454282814
  0
LINE
  5
2CA
100
AcDbEntity
  8
SCATOLA
100
AcDbLine
 62
250
  6
CONTINUOUS
 10
-48.5064586257
 20
40.0424592122
 11
-48.5349565713
 21
40.1936694978
  0
LINE
  5
2CB
100
AcDbEntity
  8
SCATOLA
100
AcDbLine
 62
250
  6
CONTINUOUS
 10
-48.4761308412
 20
39.8772865711
 11
-48.5064586257
 21
40.0424592122
  0
LWPOLYLINE
  5
2CC
100
AcDbEntity
  8
SCATOLA
100
AcDbPolyline
 62
7
  6
CONTINUOUS
 90
10
 70
0
 10
-53.3988602192
 20
-0.4972805373
 10
-53.3581645922
 20
-0.4608765096
 10
-53.3130242845
 20
-0.4279034451
 10
-53.2634392961
 20
-0.398361344
 10
-53.2089429191
 20
-0.3718744158
 10
-53.1500018614
 20
-0.3488184508
 10
-53.0880162467
 20
-0.3303208203
 10
-53.0234527829
 20
-0.3167573146
 10
-52.9558447622
 20
-0.3077521432
 10
-52.8851921845
 20
-0.3033053062
  0
LINE
  5
2CD
100
AcDbEntity
  8
SCATOLA
100
AcDbLine
 62
250
  6
CONTINUOUS
 10
-60.5
 20
-35.4999999747
 11
-60.2242099741
 21
-35.4999999747
  0
LINE
  5
2CE
100
AcDbEntity
  8
SCATOLA
100
AcDbLine
 62
250
  6
CONTINUOUS
 10
60.5
 20
-35.4999999747
 11
60.2242099741
 21
-35.4999999747
  0
LINE
  5
2CF
100
AcDbEntity
  8
SCATOLA
100
AcDbLine
 62
250
  6
CONTINUOUS
 10
66.0
 20
-35.4999999747
 11
68.0
 21
-35.4999999747
  0
LINE
  5
2D0
100
AcDbEntity
  8
SCATOLA
100
AcDbLine
 62
250
  6
CONTINUOUS
 10
-66.0
 20
-35.4999999747
 11
-68.0
 21
-35.4999999747
  0
LINE
  5
2D1
100
AcDbEntity
  8
SCATOLA
100
AcDbLine
 62
7
  6
CONTINUOUS
 10
62.0
 20
-33.9999999747
 11
66.0
 21
-33.9999999747
  0
LINE
  5
2D2
100
AcDbEntity
  8
SCATOLA
100
AcDbLine
 62
7
  6
CONTINUOUS
 10
-62.0
 20
-33.9999999747
 11
-66.0
 21
-33.9999999747
  0
LINE
  5
2D3
100
AcDbEntity
  8
SCATOLA
100
AcDbLine
 62
7
  6
CONTINUOUS
 10
62.0
 20
-33.7242099489
 11
66.2731956082
 21
-33.7242099489
  0
LINE
  5
2D4
100
AcDbEntity
  8
SCATOLA
100
AcDbLine
 62
7
  6
CONTINUOUS
 10
-62.0
 20
-33.7242099489
 11
-66.2731956082
 21
-33.7242099489
  0
LWPOLYLINE
  5
2D5
100
AcDbEntity
  8
SCATOLA
100
AcDbPolyline
 62
250
  6
CONTINUOUS
 90
3
 70
0
 10
-67.3730280729
 20
-22.9810015364
 10
-67.3686260664
 20
-22.9817399207
 10
-67.3582979126
 20
-22.983750015
  0
LWPOLYLINE
  5
2D6
100
AcDbEntity
  8
SCATOLA
100
AcDbPolyline
 62
250
  6
CONTINUOUS
 90
25
 70
0
 10
-67.3582979126
 20
-22.983750015
 10
-67.3202098848
 20
-22.9915069135
 10
-67.2927014946
 20
-22.9972537177
 10
-67.2599813774
 20
-23.0045074922
 10
-67.2222154244
 20
-23.0133147046
 10
-67.1798078006
 20
-23.0236288873
 10
-67.1338196908
 20
-23.035545898
 10
-67.0847980705
 20
-23.0491401635
 10
-67.0332341819
 20
-23.0643372569
 10
-66.9804486012
 20
-23.0810097555
 10
-66.9272145771
 20
-23.0991637193
 10
-66.8738952091
 20
-23.1187930883
 10
-66.821310755
 20
-23.1397522596
 10
-66.7700344501
 20
-23.1620365501
 10
-66.7203428296
 20
-23.185650643
 10
-66.6725616296
 20
-23.2104629848
 10
-66.626839241
 20
-23.2364962263
 10
-66.5835430353
 20
-23.2637277167
 10
-66.5432725922
 20
-23.291957951
 10
-66.5061843815
 20
-23.3213346184
 10
-66.4724226439
 20
-23.3517100297
 10
-66.4425375027
 20
-23.3824416124
 10
-66.4167594621
 20
-23.4133151756
 10
-66.394996206
 20
-23.4445449101
 10
-66.3772865459
 20
-23.4761308159
  0
LWPOLYLINE
  5
2D7
100
AcDbEntity
  8
SCATOLA
100
AcDbPolyline
 62
250
  6
CONTINUOUS
 90
3
 70
0
 10
-48.5874618069
 20
40.454282814
 10
-48.5984278312
 20
40.4948597672
 10
-48.6000000227
 20
40.5000000232
  0
LWPOLYLINE
  5
2D8
100
AcDbEntity
  8
SCATOLA
100
AcDbPolyline
 62
7
  6
CONTINUOUS
 90
5
 70
0
 10
-67.3015368336
 20
-29.6227804183
 10
-67.2358147229
 20
-29.5498603111
 10
-67.1641577375
 20
-29.4894942698
 10
-67.0850797663
 20
-29.4392424274
 10
-66.99999795
 20
-29.4000053374
  0
LWPOLYLINE
  5
2D9
100
AcDbEntity
  8
SCATOLA
100
AcDbPolyline
 62
7
  6
CONTINUOUS
 90
13
 70
0
 10
-53.4205409602
 20
-0.1350795587
 10
-53.5065522944
 20
-0.1869998237
 10
-53.5828623266
 20
-0.2474947246
 10
-53.6509130636
 20
-0.3172257128
 10
-53.7121192427
 20
-0.3965572215
 10
-53.7650661266
 20
-0.4851248177
 10
-53.80695151
 20
-0.5824966542
 10
-53.8378199826
 20
-0.6900832284
 10
-53.8576269547
 20
-0.806474043
 10
-53.8634364515
 20
-0.9270057587
 10
-53.8542698147
 20
-1.050123929
 10
-53.8311057027
 20
-1.1773830003
 10
-53.7939441155
 20
-1.3087829727
  0
LWPOLYLINE
  5
2DA
100
AcDbEntity
  8
SCATOLA
100
AcDbPolyline
 62
7
  6
CONTINUOUS
 90
8
 70
0
 10
-53.1518717544
 20
2.2324639169
 10
-53.2392511055
 20
2.1879691692
 10
-53.3166810731
 20
2.1338036325
 10
-53.3854387577
 20
2.0695706016
 10
-53.4448219359
 20
1.9956290425
 10
-53.4945965332
 20
1.9120986106
 10
-53.5349966242
 20
1.8188596505
 10
-53.5660222086
 20
1.7159121622
  0
LINE
  5
2DB
100
AcDbEntity
  8
SCATOLA
100
AcDbLine
 62
7
  6
CONTINUOUS
 10
1.492006329
 20
28.127492126
 11
1.1865562096
 21
28.0339610895
  0
LINE
  5
2DC
100
AcDbEntity
  8
SCATOLA
100
AcDbLine
 62
250
  6
CONTINUOUS
 10
-66.3469076856
 20
-29.3999999747
 11
-67.0
 21
-29.3999999748
  0
LINE
  5
2DD
100
AcDbEntity
  8
SCATOLA
100
AcDbLine
 62
250
  6
CONTINUOUS
 10
-67.4667094077
 20
-29.0999999747
 11
-67.0
 21
-29.0999999747
  0
LWPOLYLINE
  5
2DE
100
AcDbEntity
  8
SCATOLA
100
AcDbPolyline
 62
7
  6
CONTINUOUS
 90
10
 70
0
 10
-54.415790899
 20
0.8354162231
 10
-54.475675457
 20
0.8752133753
 10
-54.5306319227
 20
0.9221464744
 10
-54.5806602962
 20
0.9762155204
 10
-54.6270030196
 20
1.039549698
 10
-54.6684176507
 20
1.1100198226
 10
-54.7011768637
 20
1.1812383398
 10
-54.7240382167
 20
1.2510760651
 10
-54.7382441516
 20
1.321662183
 10
-54.7437946685
 20
1.3929966938
  0
LWPOLYLINE
  5
2DF
100
AcDbEntity
  8
SCATOLA
100
AcDbPolyline
 62
250
  6
CONTINUOUS
 90
10
 70
0
 10
-55.0189984384
 20
40.8730280982
 10
-55.0233952427
 20
40.8814995836
 10
-55.0276599289
 20
40.8899899799
 10
-55.0317924969
 20
40.8984992871
 10
-55.0357913205
 20
40.907027506
 10
-55.039658026
 20
40.9155746358
 10
-55.0433974919
 20
40.924140674
 10
-55.0470113445
 20
40.9327256199
 10
-55.0504979574
 20
40.9413294742
 10
-55.0538573309
 20
40.949952237
  0
LWPOLYLINE
  5
2E0
100
AcDbEntity
  8
SCATOLA
100
AcDbPolyline
 62
250
  6
CONTINUOUS
 90
21
 70
0
 10
-66.4603710908
 20
-29.6367716967
 10
-66.4920211352
 20
-29.6664350072
 10
-66.5267189496
 20
-29.6951624233
 10
-66.5643587401
 20
-29.7229539451
 10
-66.6048831898
 20
-29.7498892115
 10
-66.6480446429
 20
-29.7758885835
 10
-66.6934109821
 20
-29.8007131442
 10
-66.7406785836
 20
-29.8243121448
 10
-66.7896368204
 20
-29.846736334
 10
-66.8399391621
 20
-29.8678990412
 10
-66.891312135
 20
-29.8878222002
 10
-66.9432133751
 20
-29.9064838772
 10
-66.9948546377
 20
-29.9237315991
 10
-67.0458731512
 20
-29.9395444257
 10
-67.0955731176
 20
-29.9539432973
 10
-67.1427730176
 20
-29.966838562
 10
-67.1870159225
 20
-29.9781731074
 10
-67.2277843531
 20
-29.9880040459
 10
-67.2641093286
 20
-29.9964130628
 10
-67.2956172244
 20
-30.0033596742
 10
-67.3221202821
 20
-30.0088843639
  0
LINE
  5
2E1
100
AcDbEntity
  8
SCATOLA
100
AcDbLine
 62
7
  6
CONTINUOUS
 10
-2.905948
 20
29.5737030253
 11
-2.400816
 21
30.0341840253
  0
LINE
  5
2E2
100
AcDbEntity
  8
SCATOLA
100
AcDbLine
 62
7
  6
CONTINUOUS
 10
-2.368336
 20
30.4028000253
 11
-3.084683
 21
29.7960000253
  0
LWPOLYLINE
  5
2E3
100
AcDbEntity
  8
SCATOLA
100
AcDbPolyline
 62
7
  6
CONTINUOUS
 90
10
 70
0
 10
-0.4790686992
 20
30.063268787
 10
-0.4488956245
 20
30.0870728585
 10
-0.4159806657
 20
30.1084319047
 10
-0.3803238226
 20
30.1273459254
 10
-0.3416029915
 20
30.1439482581
 10
-0.3001402761
 20
30.1581055655
 10
-0.2569019881
 20
30.1694178352
 10
-0.2122102314
 20
30.1777517298
 10
-0.165742902
 20
30.1832405868
 10
-0.1175
 20
30.1858844061
  0
LWPOLYLINE
  5
2E4
100
AcDbEntity
  8
SCATOLA
100
AcDbPolyline
 62
7
  6
CONTINUOUS
 90
10
 70
0
 10
2.5351606504
 20
29.0842683793
 10
2.6107438968
 20
29.1332342055
 10
2.6781192003
 20
29.1871578564
 10
2.7372865608
 20
29.246039332
 10
2.7885388763
 20
29.3100357023
 10
2.8315832489
 20
29.3789898973
 10
2.8655409851
 20
29.4524307068
 10
2.8901191871
 20
29.5302010608
 10
2.9056107526
 20
29.6124580292
 10
2.9120156817
 20
29.6992016122
  0
LWPOLYLINE
  5
2E5
100
AcDbEntity
  8
SCATOLA
100
AcDbPolyline
 62
7
  6
CONTINUOUS
 90
28
 70
0
 10
-52.4737469146
 20
-1.8039301648
 10
-52.366323181
 20
-1.7430734452
 10
-52.2714575714
 20
-1.6757281886
 10
-52.189150086
 20
-1.6018943949
 10
-52.1197203862
 20
-1.5220418838
 10
-52.0628488106
 20
-1.4357008356
 10
-52.0175763738
 20
-1.3414617916
 10
-51.9830724057
 20
-1.2374215823
 10
-51.9601675764
 20
-1.1254833771
 10
-51.9503949118
 20
-1.0099472258
 10
-51.9545109111
 20
-0.8884970753
 10
-51.971759075
 20
-0.7634489787
 10
-52.001402931
 20
-0.6460511441
 10
-52.044330479
 20
-0.5394326868
 10
-52.0996537191
 20
-0.4404644915
 10
-52.1639721794
 20
-0.3510074216
 10
-52.2362664036
 20
-0.2712205882
 10
-52.3175558478
 20
-0.2009448803
 10
-52.4074984091
 20
-0.1415638272
 10
-52.5069181231
 20
-0.09304702
 10
-52.6149909542
 20
-0.0554248676
 10
-52.7289026923
 20
-0.0301721264
 10
-52.851745667
 20
-0.0180130955
 10
-52.9804275486
 20
-0.0182234757
 10
-53.1028571387
 20
-0.0301051262
 10
-53.2161537076
 20
-0.0544575449
 10
-53.3231979849
 20
-0.0904812339
 10
-53.4205409602
 20
-0.1350795587
  0
LWPOLYLINE
  5
2E6
100
AcDbEntity
  8
SCATOLA
100
AcDbPolyline
 62
7
  6
CONTINUOUS
 90
30
 70
0
 10
-52.545473839
 20
0.4588524994
 10
-52.4309371361
 20
0.5154690233
 10
-52.3289209194
 20
0.5792403764
 10
-52.2394251889
 20
0.6501665584
 10
-52.162794282
 20
0.7279463279
 10
-52.0986838613
 20
0.8128809264
 10
-52.0460609146
 20
0.9058740791
 10
-52.0047760473
 20
1.0102101456
 10
-51.974978654
 20
1.1226047663
 10
-51.9560839063
 20
1.2341085879
 10
-51.9488538004
 20
1.3433013303
 10
-51.9525263401
 20
1.4516032736
 10
-51.9642307079
 20
1.5543259041
 10
-51.9836914124
 20
1.6503112584
 10
-52.011183945
 20
1.7407173
 10
-52.0446639631
 20
1.8243294054
 10
-52.0834628639
 20
1.9002722964
 10
-52.1282492501
 20
1.9694212512
 10
-52.1789845877
 20
2.0331874807
 10
-52.2346741059
 20
2.0927334149
 10
-52.2963125755
 20
2.1468966237
 10
-52.3668457741
 20
2.1936010282
 10
-52.4482591869
 20
2.233018993
 10
-52.5385673286
 20
2.2649781535
 10
-52.6347595214
 20
2.2868853364
 10
-52.7391731423
 20
2.2983976839
 10
-52.8494708143
 20
2.2998580538
 10
-52.9556297275
 20
2.2897018472
 10
-53.0558201203
 20
2.2668911703
 10
-53.1518717544
 20
2.2324639169
  0
LINE
  5
2E7
100
AcDbEntity
  8
SCATOLA
100
AcDbLine
 62
250
  6
CONTINUOUS
 10
-67.4667094077
 20
-23.8999999747
 11
-67.0000000001
 21
-23.8999999831
  0
LINE
  5
2E8
100
AcDbEntity
  8
SCATOLA
100
AcDbLine
 62
250
  6
CONTINUOUS
 10
-66.3469076856
 20
-23.5999999747
 11
-67.0
 21
-23.5999999747
  0
LWPOLYLINE
  5
2E9
100
AcDbEntity
  8
SCATOLA
100
AcDbPolyline
 62
7
  6
CONTINUOUS
 90
10
 70
0
 10
1.5551718517
 20
29.864803101
 10
1.5941423533
 20
29.9234337302
 10
1.6400913428
 20
29.9772357121
 10
1.6930188202
 20
30.0262090466
 10
1.7550043243
 20
30.0715671803
 10
1.8239683162
 20
30.1120966666
 10
1.8936721795
 20
30.1441571662
 10
1.9620363753
 20
30.1665352328
 10
2.0311404424
 20
30.1804443128
 10
2.1009843809
 20
30.1858844061
  0
LWPOLYLINE
  5
2EA
100
AcDbEntity
  8
SCATOLA
100
AcDbPolyline
 62
7
  6
CONTINUOUS
 90
19
 70
0
 10
2.5343672373
 20
27.8799547548
 10
2.4804484467
 20
27.8335774119
 10
2.4221625713
 20
27.7949333348
 10
2.3595096112
 20
27.7640225233
 10
2.291628015
 20
27.7410270134
 10
2.219379334
 20
27.7257647692
 10
2.1453482229
 20
27.7176896834
 10
2.0683784469
 20
27.7169260085
 10
1.9896262408
 20
27.7233494919
 10
1.9151449627
 20
27.7360412686
 10
1.8464427654
 20
27.7547780789
 10
1.7820114961
 20
27.7797831824
 10
1.7233800544
 20
27.8108074929
 10
1.6712224901
 20
27.8475963669
 10
1.6248647533
 20
27.8904044478
 10
1.5838135938
 20
27.9397465798
 10
1.5479045949
 20
27.9957943775
 10
1.5173021733
 20
28.0583762262
 10
1.492006329
 20
28.127492126
  0
LWPOLYLINE
  5
2EB
100
AcDbEntity
  8
SCATOLA
100
AcDbPolyline
 62
250
  6
CONTINUOUS
 90
4
 70
0
 10
-67.3221202821
 20
-30.0088843639
 10
-67.3588118522
 20
-30.0163451017
 10
-67.3687690495
 20
-30.0182811497
 10
-67.3730280729
 20
-30.0189984131
  0
LINE
  5
2EC
100
AcDbEntity
  8
SCATOLA
100
AcDbLine
 62
7
  6
CONTINUOUS
 10
-51.6
 20
-16.4999999747
 11
-51.4
 21
-16.4999999747
  0
LWPOLYLINE
  5
2ED
100
AcDbEntity
  8
SCATOLA
100
AcDbPolyline
 62
7
  6
CONTINUOUS
 90
37
 70
0
 10
0.4481719356
 20
28.1612531679
 10
0.4170533205
 20
28.0845282103
 10
0.3815636307
 20
28.0146394136
 10
0.3417028662
 20
27.9515867776
 10
0.2979984114
 20
27.8950389979
 10
0.2499228819
 20
27.845327379
 10
0.1958941243
 20
27.8034458349
 10
0.1347894205
 20
27.7693827759
 10
0.0677314886
 20
27.7431497916
 10
-0.0034936708
 20
27.7257755644
 10
-0.0812292042
 20
27.7175611394
 10
-0.1631319651
 20
27.7182054714
 10
-0.2403865139
 20
27.7278341073
 10
-0.310229545
 20
27.7466964581
 10
-0.3754243639
 20
27.7745431129
 10
-0.4354454477
 20
27.8107513852
 10
-0.4900449761
 20
27.8554287699
 10
-0.5394707692
 20
27.9084677721
 10
-0.5839407651
 20
27.9689232212
 10
-0.6233784304
 20
28.0372141877
 10
-0.6578602984
 20
28.112921601
 10
-0.6878339073
 20
28.1938430786
 10
-0.7131770292
 20
28.2796299733
 10
-0.7340118921
 20
28.3706309323
 10
-0.751152718
 20
28.4656895144
 10
-0.7647269434
 20
28.5645209084
 10
-0.7746071318
 20
28.6674099256
 10
-0.7812251963
 20
28.7740545589
 10
-0.7850959953
 20
28.8845263695
 10
-0.7857046704
 20
28.9987537962
 10
-0.7819385598
 20
29.1162201483
 10
-0.7740180054
 20
29.2393939101
 10
-0.7617226653
 20
29.3658065973
 10
-0.743278852
 20
29.4875360662
 10
-0.7188687423
 20
29.6034398328
 10
-0.6883101594
 20
29.7146603811
 10
-0.6492828854
 20
29.8167030198
  0
LWPOLYLINE
  5
2EE
100
AcDbEntity
  8
SCATOLA
100
AcDbPolyline
 62
7
  6
CONTINUOUS
 90
4
 70
0
 10
-0.6492828854
 20
29.8167030198
 10
-0.6010135144
 20
29.9080695184
 10
-0.5442754523
 20
29.9902581075
 10
-0.4790686992
 20
30.063268787
  0
LINE
  5
2EF
100
AcDbEntity
  8
SCATOLA
100
AcDbLine
 62
250
  6
CONTINUOUS
 10
-66.6936694725
 20
-23.534956546
 11
-66.8217940697
 21
-23.5599052176
  0
LWPOLYLINE
  5
2F0
100
AcDbEntity
  8
SCATOLA
100
AcDbPolyline
 62
250
  6
CONTINUOUS
 90
4
 70
0
 10
-66.8217940697
 20
-23.5599052176
 10
-66.8748498237
 20
-23.5699576999
 10
-66.9192988236
 20
-23.5789408969
 10
-66.9542827887
 20
-23.5874617816
  0
LINE
  5
2F1
100
AcDbEntity
  8
SCATOLA
100
AcDbLine
 62
250
  6
CONTINUOUS
 10
-66.5424591869
 20
-23.5064586005
 11
-66.6936694725
 21
-23.534956546
  0
LINE
  5
2F2
100
AcDbEntity
  8
SCATOLA
100
AcDbLine
 62
250
  6
CONTINUOUS
 10
-66.3772865459
 20
-23.4761308159
 11
-66.5424591869
 21
-23.5064586005
  0
LWPOLYLINE
  5
2F3
100
AcDbEntity
  8
SCATOLA
100
AcDbPolyline
 62
250
  6
CONTINUOUS
 90
21
 70
0
 10
-54.636771722
 20
39.960371116
 10
-54.6664350325
 20
39.9920211604
 10
-54.6951624486
 20
40.0267189748
 10
-54.7229539704
 20
40.0643587654
 10
-54.7498892368
 20
40.104883215
 10
-54.7758886088
 20
40.1480446681
 10
-54.8007131694
 20
40.1934110074
 10
-54.82431217
 20
40.2406786089
 10
-54.8467363593
 20
40.2896368457
 10
-54.8678990664
 20
40.3399391874
 10
-54.8878222255
 20
40.3913121603
 10
-54.9064839025
 20
40.4432134004
 10
-54.9237316244
 20
40.494854663
 10
-54.939544451
 20
40.5458731764
 10
-54.9539433226
 20
40.5955731429
 10
-54.9668385873
 20
40.6427730429
 10
-54.9781731327
 20
40.6870159478
 10
-54.9880040712
 20
40.7277843784
 10
-54.9964130881
 20
40.7641093538
 10
-55.0033596995
 20
40.7956172497
 10
-55.0088843892
 20
40.8221203074
  0
LWPOLYLINE
  5
2F4
100
AcDbEntity
  8
SCATOLA
100
AcDbPolyline
 62
250
  6
CONTINUOUS
 90
3
 70
0
 10
-66.9542827887
 20
-23.5874617816
 10
-66.9948597419
 20
-23.5984278059
 10
-66.999999998
 20
-23.5999999974
  0
LWPOLYLINE
  5
2F5
100
AcDbEntity
  8
SCATOLA
100
AcDbPolyline
 62
7
  6
CONTINUOUS
 90
5
 70
0
 10
-54.6227804436
 20
40.8015368588
 10
-54.5498603364
 20
40.7358147481
 10
-54.4894942951
 20
40.6641577627
 10
-54.4392424527
 20
40.5850797915
 10
-54.4000053627
 20
40.4999979752
  0
LINE
  5
2F6
100
AcDbEntity
  8
SCATOLA
100
AcDbLine
 62
7
  6
CONTINUOUS
 10
-2.400816
 20
30.0341840253
 11
-2.400816
 21
27.5000000253
  0
LINE
  5
2F7
100
AcDbEntity
  8
SCATOLA
100
AcDbLine
 62
7
  6
CONTINUOUS
 10
-2.118684
 20
27.5000000253
 11
-2.118684
 21
30.4028000253
  0
LINE
  5
2F8
100
AcDbEntity
  8
SCATOLA
100
AcDbLine
 62
7
  6
CONTINUOUS
 10
-1.1
 20
-11.1960930433
 11
-1.1
 21
-10.0700680413
  0
LINE
  5
2F9
100
AcDbEntity
  8
SCATOLA
100
AcDbLine
 62
7
  6
CONTINUOUS
 10
-1.1
 20
10.0700680918
 11
-1.1
 21
11.1960930938
  0
LWPOLYLINE
  5
2FA
100
AcDbEntity
  8
SCATOLA
100
AcDbPolyline
 62
7
  6
CONTINUOUS
 90
10
 70
0
 10
2.7077843809
 20
28.2925172313
 10
2.7035460475
 20
28.2354821846
 10
2.6952365266
 20
28.1808726114
 10
2.6828558183
 20
28.1286885118
 10
2.665985752
 20
28.0784322599
 10
2.6450444982
 20
28.0306014816
 10
2.6212865687
 20
27.9866890542
 10
2.595130134
 20
27.9471926035
 10
2.5661570235
 20
27.9116145037
 10
2.5343672373
 20
27.8799547548
  0
LWPOLYLINE
  5
2FB
100
AcDbEntity
  8
SCATOLA
100
AcDbPolyline
 62
7
  6
CONTINUOUS
 90
10
 70
0
 10
0.5395250156
 20
28.5674094218
 10
0.5344336296
 20
28.5196561814
 10
0.5280425854
 20
28.4724789809
 10
0.5203518832
 20
28.4258778201
 10
0.5113149641
 20
28.3797458296
 10
0.5009783869
 20
28.3341898789
 10
0.4894818278
 20
28.2895305765
 10
0.4768718456
 20
28.2458747919
 10
0.4631018816
 20
28.2031156557
 10
0.4481719356
 20
28.1612531679
  0
LWPOLYLINE
  5
2FC
100
AcDbEntity
  8
SCATOLA
100
AcDbPolyline
 62
250
  6
CONTINUOUS
 90
10
 70
0
 10
-67.3730280729
 20
-30.0189984131
 10
-67.3814995584
 20
-30.0233952174
 10
-67.3899899547
 20
-30.0276599036
 10
-67.3984992619
 20
-30.0317924716
 10
-67.4070274808
 20
-30.0357912952
 10
-67.4155746105
 20
-30.0396580007
 10
-67.4241406487
 20
-30.0433974666
 10
-67.4327255946
 20
-30.0470113192
 10
-67.441329449
 20
-30.0504979322
 10
-67.4499522117
 20
-30.0538573056
  0
LINE
  5
2FD
100
AcDbEntity
  8
SCATOLA
100
AcDbLine
 62
7
  6
CONTINUOUS
 10
11.1960930686
 20
-1.0999999747
 11
10.0700680665
 21
-1.0999999747
  0
LINE
  5
2FE
100
AcDbEntity
  8
SCATOLA
100
AcDbLine
 62
7
  6
CONTINUOUS
 10
-10.0700680665
 20
-1.0999999747
 11
-11.1960930686
 21
-1.0999999747
  0
LINE
  5
2FF
100
AcDbEntity
  8
SCATOLA
100
AcDbLine
 62
7
  6
CONTINUOUS
 10
-54.693534
 20
-0.1150889747
 11
-54.965387
 21
-0.1150889747
  0
LINE
  5
300
100
AcDbEntity
  8
SCATOLA
100
AcDbLine
 62
7
  6
CONTINUOUS
 10
-53.7939441155
 20
-1.3087829727
 11
-54.693534
 21
-1.2930109747
  0
LINE
  5
301
100
AcDbEntity
  8
SCATOLA
100
AcDbLine
 62
7
  6
CONTINUOUS
 10
-54.965387
 20
-1.5761209747
 11
-53.427590219
 21
-1.6038029708
  0
LWPOLYLINE
  5
302
100
AcDbEntity
  8
SCATOLA
100
AcDbPolyline
 62
7
  6
CONTINUOUS
 90
13
 70
0
 10
-54.2383726082
 20
1.9325150207
 10
-54.1711566034
 20
1.9293655098
 10
-54.108102033
 20
1.9207160267
 10
-54.0492088971
 20
1.9065665715
 10
-53.9941653565
 20
1.8868103661
 10
-53.9432832503
 20
1.8615541885
 10
-53.8974980958
 20
1.8311183731
 10
-53.8575520933
 20
1.7953899449
 10
-53.8227030424
 20
1.7544818789
 10
-53.7916598596
 20
1.7090534341
 10
-53.7637795967
 20
1.6590399721
 10
-53.7397052019
 20
1.6045061312
 10
-53.7200744366
 20
1.5463050852
  0
LWPOLYLINE
  5
303
100
AcDbEntity
  8
SCATOLA
100
AcDbPolyline
 62
7
  6
CONTINUOUS
 90
10
 70
0
 10
-52.8096046502
 20
2.0128798938
 10
-52.7513409588
 20
2.0085516861
 10
-52.6955523219
 20
2.0000625316
 10
-52.6422387395
 20
1.9874124303
 10
-52.5908885991
 20
1.9701720573
 10
-52.5420135132
 20
1.9487707375
 10
-52.4971483191
 20
1.9244964452
 10
-52.4568046291
 20
1.8977785051
 10
-52.4204708308
 20
1.8681875925
 10
-52.3881469242
 20
1.8357237074
  0
LWPOLYLINE
  5
304
100
AcDbEntity
  8
SCATOLA
100
AcDbPolyline
 62
7
  6
CONTINUOUS
 90
13
 70
0
 10
-52.8851921845
 20
-0.3033053062
 10
-52.7912883019
 20
-0.3103237987
 10
-52.7034407093
 20
-0.3273394224
 10
-52.6216494066
 20
-0.3543521773
 10
-52.5453968363
 20
-0.3923964726
 10
-52.4752005558
 20
-0.4404378991
 10
-52.4126132381
 20
-0.4953732295
 10
-52.3573520814
 20
-0.556572223
 10
-52.3096998874
 20
-0.6246651204
 10
-52.272057734
 20
-0.6984394168
 10
-52.2452259805
 20
-0.7774909441
 10
-52.2284042677
 20
-0.8622238704
 10
-52.2215925954
 20
-0.9526381957
  0
LWPOLYLINE
  5
305
100
AcDbEntity
  8
SCATOLA
100
AcDbPolyline
 62
7
  6
CONTINUOUS
 90
10
 70
0
 10
0.5395250156
 20
29.3414765966
 10
0.544037669
 20
29.2544339871
 10
0.5474319478
 20
29.1679145345
 10
0.5497078519
 20
29.0819182388
 10
0.5508784328
 20
28.9967975939
 10
0.5509306392
 20
28.9122001059
 10
0.5498253161
 20
28.8270682929
 10
0.547549412
 20
28.7410496609
 10
0.5441159785
 20
28.6544967039
 10
0.5395250156
 20
28.5674094218
  0
LWPOLYLINE
  5
306
100
AcDbEntity
  8
SCATOLA
100
AcDbPolyline
 62
7
  6
CONTINUOUS
 90
31
 70
0
 10
2.9120156817
 20
29.6992016122
 10
2.9083706859
 20
29.7754623226
 10
2.8995970252
 20
29.8476015076
 10
2.8856946996
 20
29.9156191671
 10
2.8662097522
 20
29.9798091019
 10
2.8415961399
 20
30.0398775113
 10
2.8132157331
 20
30.094942993
 10
2.7811082803
 20
30.144420908
 10
2.7452340329
 20
30.1888958952
 10
2.7068356161
 20
30.2292404696
 10
2.6667109703
 20
30.2651832988
 10
2.624062155
 20
30.2969957151
 10
2.5777379735
 20
30.326364231
 10
2.5273503098
 20
30.3542189669
 10
2.4732872799
 20
30.3796298024
 10
2.4155620352
 20
30.4014928887
 10
2.3540016551
 20
30.4197237892
 10
2.2887790603
 20
30.4344069405
 10
2.2204261642
 20
30.4446918032
 10
2.1488806378
 20
30.4509135699
 10
2.0742048101
 20
30.4527370481
 10
1.9971175817
 20
30.4483061208
 10
1.9170768532
 20
30.4383474916
 10
1.8346247241
 20
30.4221344569
 10
1.7521063931
 20
30.3956307892
 10
1.6687970928
 20
30.3581517849
 10
1.5854215906
 20
30.3103821476
 10
1.5064993882
 20
30.2503397606
 10
1.4335369861
 20
30.1773639181
 10
1.3650278838
 20
30.0921153259
 10
1.3009720812
 20
29.9945939838
  0
LINE
  5
307
100
AcDbEntity
  8
SCATOLA
100
AcDbLine
 62
7
  6
CONTINUOUS
 10
1.1
 20
11.1960930938
 11
1.1
 21
10.0700680918
  0
LINE
  5
308
100
AcDbEntity
  8
SCATOLA
100
AcDbLine
 62
7
  6
CONTINUOUS
 10
1.1
 20
-10.0700680413
 11
1.1
 21
-11.1960930433
  0
LINE
  5
309
100
AcDbEntity
  8
SCATOLA
100
AcDbLine
 62
7
  6
CONTINUOUS
 10
1.846016
 20
29.1519157116
 11
1.846016
 21
28.8861843998
  0
LWPOLYLINE
  5
30A
100
AcDbEntity
  8
SCATOLA
100
AcDbPolyline
 62
7
  6
CONTINUOUS
 90
16
 70
0
 10
2.6291156817
 20
29.6911297392
 10
2.6246523061
 20
29.6119949902
 10
2.612545184
 20
29.5391864397
 10
2.5927943156
 20
29.4727040875
 10
2.5652093527
 20
29.4125148958
 10
2.5299806434
 20
29.3586519025
 10
2.4876792318
 20
29.3112142214
 10
2.4380040318
 20
29.2704618157
 10
2.3812561295
 20
29.2361347222
 10
2.3189098278
 20
29.207552165
 10
2.2508713106
 20
29.1846136937
 10
2.177234394
 20
29.1674197588
 10
2.0997548295
 20
29.1555909356
 10
2.0190178675
 20
29.1490007492
 10
1.9344382577
 20
29.1477756745
 10
1.846016
 20
29.1519157116
  0
LWPOLYLINE
  5
30B
100
AcDbEntity
  8
SCATOLA
100
AcDbPolyline
 62
250
  6
CONTINUOUS
 90
10
 70
0
 10
67.3730280729
 20
30.0189984636
 10
67.3814995583
 20
30.023395268
 10
67.3899899547
 20
30.0276599541
 10
67.3984992619
 20
30.0317925221
 10
67.4070274808
 20
30.0357913458
 10
67.4155746105
 20
30.0396580513
 10
67.4241406487
 20
30.0433975172
 10
67.4327255946
 20
30.0470113697
 10
67.4413294489
 20
30.0504979827
 10
67.4499522117
 20
30.0538573561
  0
LWPOLYLINE
  5
30C
100
AcDbEntity
  8
SCATOLA
100
AcDbPolyline
 62
250
  6
CONTINUOUS
 90
3
 70
0
 10
66.9542827887
 20
23.5874618321
 10
66.9948597419
 20
23.5984278564
 10
66.999999998
 20
23.6000000479
  0
LWPOLYLINE
  5
30D
100
AcDbEntity
  8
SCATOLA
100
AcDbPolyline
 62
7
  6
CONTINUOUS
 90
31
 70
0
 10
-54.2466185187
 20
2.2215146207
 10
-54.3245409219
 20
2.2177846284
 10
-54.3982423624
 20
2.2088200705
 10
-54.46772284
 20
2.194620947
 10
-54.5332799744
 20
2.1747215971
 10
-54.594616146
 20
2.1495876815
 10
-54.6508384963
 20
2.1206161823
 10
-54.7013506411
 20
2.0878491992
 10
-54.7467489646
 20
2.0512446323
 10
-54.7879297619
 20
2.0120731646
 10
-54.8246142364
 20
1.9711539522
 10
-54.8570811848
 20
1.927667839
 10
-54.887063291
 20
1.8804280391
 10
-54.9155141233
 20
1.8290373703
 10
-54.9414801135
 20
1.773893015
 10
-54.9638332419
 20
1.7149997339
 10
-54.9824893832
 20
1.6521799165
 10
-54.9975326627
 20
1.5856111734
 10
-55.008087436
 20
1.5158310971
 10
-55.0144938358
 20
1.4427758298
 10
-55.0164117296
 20
1.3665092294
 10
-55.0119450752
 20
1.2877604614
 10
-55.0018426647
 20
1.2059761109
 10
-54.9853557061
 20
1.1217095929
 10
-54.9583417808
 20
1.0373503177
 10
-54.9201062771
 20
0.9521499496
 10
-54.8713438066
 20
0.8668568244
 10
-54.8099957856
 20
0.7861053597
 10
-54.7353760196
 20
0.7114403615
 10
-54.648170703
 20
0.6413170238
 10
-54.5483798359
 20
0.5757353468
  0
LINE
  5
30E
100
AcDbEntity
  8
SCATOLA
100
AcDbLine
 62
7
  6
CONTINUOUS
 10
-11.1960930686
 20
1.1000000253
 11
-10.0700680665
 21
1.1000000253
  0
LINE
  5
30F
100
AcDbEntity
  8
SCATOLA
100
AcDbLine
 62
7
  6
CONTINUOUS
 10
10.0700680665
 20
1.1000000253
 11
11.1960930686
 21
1.1000000253
  0
LINE
  5
310
100
AcDbEntity
  8
SCATOLA
100
AcDbLine
 62
7
  6
CONTINUOUS
 10
-53.6875325972
 20
1.1325310253
 11
-53.4160718604
 21
1.1325310253
  0
LINE
  5
311
100
AcDbEntity
  8
SCATOLA
100
AcDbLine
 62
250
  6
CONTINUOUS
 10
66.6936694725
 20
23.5349565966
 11
66.8217940697
 21
23.5599052681
  0
LWPOLYLINE
  5
312
100
AcDbEntity
  8
SCATOLA
100
AcDbPolyline
 62
250
  6
CONTINUOUS
 90
4
 70
0
 10
66.8217940697
 20
23.5599052681
 10
66.8748498236
 20
23.5699577505
 10
66.9192988236
 20
23.5789409474
 10
66.9542827887
 20
23.5874618321
  0
LINE
  5
313
100
AcDbEntity
  8
SCATOLA
100
AcDbLine
 62
250
  6
CONTINUOUS
 10
66.5424591869
 20
23.506458651
 11
66.6936694725
 21
23.5349565966
  0
LINE
  5
314
100
AcDbEntity
  8
SCATOLA
100
AcDbLine
 62
250
  6
CONTINUOUS
 10
66.3772865459
 20
23.4761308664
 11
66.5424591869
 21
23.506458651
  0
LWPOLYLINE
  5
315
100
AcDbEntity
  8
SCATOLA
100
AcDbPolyline
 62
7
  6
CONTINUOUS
 90
5
 70
0
 10
54.6227804435
 20
-40.8015368083
 10
54.5498603364
 20
-40.7358146976
 10
54.4894942951
 20
-40.6641577122
 10
54.4392424527
 20
-40.585079741
 10
54.4000053627
 20
-40.4999979247
  0
LWPOLYLINE
  5
316
100
AcDbEntity
  8
SCATOLA
100
AcDbPolyline
 62
7
  6
CONTINUOUS
 90
10
 70
0
 10
0.4323912027
 20
29.784621823
 10
0.4630454536
 20
29.7007069579
 10
0.4767731155
 20
29.6589047918
 10
0.4893549212
 20
29.6161404467
 10
0.5008374545
 20
29.572335109
 10
0.5111741318
 20
29.5275675924
 10
0.5202252016
 20
29.4820743386
 10
0.5279440803
 20
29.4359341617
 10
0.5343773517
 20
29.3890682477
 10
0.5395250156
 20
29.3414765966
  0
LWPOLYLINE
  5
317
100
AcDbEntity
  8
SCATOLA
100
AcDbPolyline
 62
7
  6
CONTINUOUS
 90
17
 70
0
 10
-45.5
 20
-41.1159885463
 10
-45.47513335
 20
-41.1028810999
 10
-45.4011624165
 20
-41.0897736534
 10
-45.2790307246
 20
-41.076833397
 10
-45.1081213441
 20
-41.0640624723
 10
-44.8890512052
 20
-41.0514587377
 10
-44.6246146239
 20
-41.0391829581
 10
-44.3142304645
 20
-41.0272393347
 10
-43.9584798628
 20
-41.0156236663
 10
-43.5619005415
 20
-41.0044841149
 10
-43.1239694925
 20
-40.9938267795
 10
-42.645209724
 20
-40.983645561
 10
-42.1317279837
 20
-40.9740703245
 10
-41.5830794896
 20
-40.9651088325
 10
-40.9997090238
 20
-40.9567533224
 10
-40.3890576797
 20
-40.9491103717
 10
-39.7507759946
 20
-40.9421891082
  0
LWPOLYLINE
  5
318
100
AcDbEntity
  8
SCATOLA
100
AcDbPolyline
 62
250
  6
CONTINUOUS
 90
4
 70
0
 10
67.3221202821
 20
30.0088844145
 10
67.3588118522
 20
30.0163451523
 10
67.3687690495
 20
30.0182812003
 10
67.3730280729
 20
30.0189984636
  0
LINE
  5
319
100
AcDbEntity
  8
SCATOLA
100
AcDbLine
 62
7
  6
CONTINUOUS
 10
-51.4
 20
16.5000000253
 11
-51.6
 21
16.5000000253
  0
LWPOLYLINE
  5
31A
100
AcDbEntity
  8
SCATOLA
100
AcDbPolyline
 62
7
  6
CONTINUOUS
 90
18
 70
0
 10
-45.5
 20
41.1159885968
 10
-45.47513335
 20
41.1028811504
 10
-45.4011624165
 20
41.0897737039
 10
-45.2790307246
 20
41.0768334475
 10
-45.1081213441
 20
41.0640625229
 10
-44.8890512052
 20
41.0514587882
 10
-44.6246146239
 20
41.0391830087
 10
-44.3142304645
 20
41.0272393852
 10
-43.9584798628
 20
41.0156237169
 10
-43.5619005415
 20
41.0044841655
 10
-43.1239694925
 20
40.99382683
 10
-42.645209724
 20
40.9836456115
 10
-42.1317279837
 20
40.974070375
 10
-41.5830794896
 20
40.965108883
 10
-40.9997090238
 20
40.9567533729
 10
-40.3890576797
 20
40.9491104223
 10
-39.7507759946
 20
40.9421891588
 10
-38.4008594722
 20
40.9305635042
  0
LWPOLYLINE
  5
31B
100
AcDbEntity
  8
SCATOLA
100
AcDbPolyline
 62
250
  6
CONTINUOUS
 90
21
 70
0
 10
54.636771722
 20
-39.9603710655
 10
54.6664350325
 20
-39.9920211099
 10
54.6951624486
 20
-40.0267189243
 10
54.7229539704
 20
-40.0643587149
 10
54.7498892367
 20
-40.1048831645
 10
54.7758886088
 20
-40.1480446176
 10
54.8007131694
 20
-40.1934109568
 10
54.82431217
 20
-40.2406785584
 10
54.8467363593
 20
-40.2896367952
 10
54.8678990664
 20
-40.3399391368
 10
54.8878222255
 20
-40.3913121097
 10
54.9064839024
 20
-40.4432133498
 10
54.9237316244
 20
-40.4948546124
 10
54.939544451
 20
-40.5458731259
 10
54.9539433226
 20
-40.5955730923
 10
54.9668385873
 20
-40.6427729923
 10
54.9781731327
 20
-40.6870158972
 10
54.9880040712
 20
-40.7277843278
 10
54.9964130881
 20
-40.7641093033
 10
55.0033596995
 20
-40.7956171991
 10
55.0088843892
 20
-40.8221202568
  0
LINE
  5
31C
100
AcDbEntity
  8
SCATOLA
100
AcDbLine
 62
7
  6
CONTINUOUS
 10
-3.084683
 20
29.7960000253
 11
-2.905948
 21
29.5737030253
  0
LWPOLYLINE
  5
31D
100
AcDbEntity
  8
SCATOLA
100
AcDbPolyline
 62
7
  6
CONTINUOUS
 90
7
 70
0
 10
2.9274617309
 20
28.6181782031
 10
2.8848093649
 20
28.7034788345
 10
2.8315910254
 20
28.7810480579
 10
2.7703465043
 20
28.8490275687
 10
2.7019223989
 20
28.906797932
 10
2.625472112
 20
28.9549785828
 10
2.5409956434
 20
28.993569521
  0
LWPOLYLINE
  5
31E
100
AcDbEntity
  8
SCATOLA
100
AcDbPolyline
 62
7
  6
CONTINUOUS
 90
28
 70
0
 10
1.1865562096
 20
28.0339610895
 10
1.241666268
 20
27.9223742618
 10
1.3037234268
 20
27.8229195871
 10
1.3727276861
 20
27.7355970653
 10
1.4482714456
 20
27.6607490008
 10
1.5307623055
 20
27.5980330892
 10
1.6214230667
 20
27.5464224172
 10
1.7219412421
 20
27.5053816603
 10
1.8306293187
 20
27.4754461431
 10
1.9436475582
 20
27.4571949261
 10
2.0634422779
 20
27.4511010634
 10
2.1875671605
 20
27.4566915009
 10
2.3048435161
 20
27.473126137
 10
2.4123707504
 20
27.5012791965
 10
2.5130494577
 20
27.5402764544
 10
2.604402731
 20
27.5866551351
 10
2.685689422
 20
27.639441954
 10
2.757650679
 20
27.6996101956
 10
2.8200330388
 20
27.7666169377
 10
2.8728698001
 20
27.840038017
 10
2.9161276642
 20
27.9202975967
 10
2.9494532718
 20
28.0081252447
 10
2.9731977655
 20
28.1066271685
 10
2.9870100028
 20
28.2126971607
 10
2.9894831967
 20
28.3177461657
 10
2.9798907282
 20
28.4211479722
 10
2.9589592163
 20
28.5235287917
 10
2.9274617309
 20
28.6181782031
  0
LWPOLYLINE
  5
31F
100
AcDbEntity
  8
SCATOLA
100
AcDbPolyline
 62
7
  6
CONTINUOUS
 90
9
 70
0
 10
0.2498984756
 20
30.063268787
 10
0.2773330089
 20
30.035469743
 10
0.3035221928
 20
30.0056062646
 10
0.3284660273
 20
29.9736783517
 10
0.3523054296
 20
29.939582701
 10
0.3748994825
 20
29.9034226158
 10
0.3958254347
 20
29.8655080066
 10
0.4149423691
 20
29.8259421768
 10
0.4323912027
 20
29.784621823
  0
LWPOLYLINE
  5
320
100
AcDbEntity
  8
SCATOLA
100
AcDbPolyline
 62
250
  6
CONTINUOUS
 90
21
 70
0
 10
66.4603710907
 20
29.6367717472
 10
66.4920211352
 20
29.6664350578
 10
66.5267189496
 20
29.6951624739
 10
66.5643587401
 20
29.7229539956
 10
66.6048831897
 20
29.749889262
 10
66.6480446428
 20
29.775888634
 10
66.6934109821
 20
29.8007131947
 10
66.7406785836
 20
29.8243121953
 10
66.7896368204
 20
29.8467363846
 10
66.8399391621
 20
29.8678990917
 10
66.891312135
 20
29.8878222508
 10
66.9432133751
 20
29.9064839277
 10
66.9948546377
 20
29.9237316497
 10
67.0458731512
 20
29.9395444763
 10
67.0955731176
 20
29.9539433479
 10
67.1427730176
 20
29.9668386126
 10
67.1870159225
 20
29.978173158
 10
67.2277843531
 20
29.9880040965
 10
67.2641093285
 20
29.9964131134
 10
67.2956172244
 20
30.0033597247
 10
67.3221202821
 20
30.0088844145
  0
LWPOLYLINE
  5
321
100
AcDbEntity
  8
SCATOLA
100
AcDbPolyline
 62
7
  6
CONTINUOUS
 90
17
 70
0
 10
-22.5
 20
-41.1159885463
 10
-22.5248666501
 20
-41.1290959928
 10
-22.5988375835
 20
-41.1422034392
 10
-22.7209692754
 20
-41.1551436956
 10
-22.8918786559
 20
-41.1679146203
 10
-23.1109487948
 20
-41.1805183549
 10
-23.3753853761
 20
-41.1927941345
 10
-23.6857695355
 20
-41.2047377579
 10
-24.0415201373
 20
-41.2163534263
 10
-24.4380994585
 20
-41.2274929777
 10
-24.8760305075
 20
-41.2381503131
 10
-25.3547902761
 20
-41.2483315316
 10
-25.8682720164
 20
-41.2579067681
 10
-26.4169205104
 20
-41.2668682601
 10
-27.0002909763
 20
-41.2752237702
 10
-27.6109423203
 20
-41.2828667209
 10
-28.2492240054
 20
-41.2897879844
  0
LINE
  5
322
100
AcDbEntity
  8
SCATOLA
100
AcDbLine
 62
250
  6
CONTINUOUS
 10
66.3469076856
 20
23.6000000253
 11
67.0
 21
23.6000000253
  0
LINE
  5
323
100
AcDbEntity
  8
SCATOLA
100
AcDbLine
 62
250
  6
CONTINUOUS
 10
67.4667094077
 20
23.9000000253
 11
67.0
 21
23.9000000337
  0
LINE
  5
324
100
AcDbEntity
  8
SCATOLA
100
AcDbLine
 62
7
  6
CONTINUOUS
 10
-41.5
 20
26.4000000253
 11
41.5
 21
26.4000000253
  0
LINE
  5
325
100
AcDbEntity
  8
SCATOLA
100
AcDbLine
 62
7
  6
CONTINUOUS
 10
41.5
 20
26.6000000253
 11
-41.5
 21
26.6000000253
  0
LWPOLYLINE
  5
326
100
AcDbEntity
  8
SCATOLA
100
AcDbPolyline
 62
7
  6
CONTINUOUS
 90
18
 70
0
 10
-22.5
 20
41.1159885968
 10
-22.5248666501
 20
41.1290960433
 10
-22.5988375835
 20
41.1422034897
 10
-22.7209692754
 20
41.1551437462
 10
-22.8918786559
 20
41.1679146708
 10
-23.1109487948
 20
41.1805184055
 10
-23.3753853761
 20
41.192794185
 10
-23.6857695355
 20
41.2047378085
 10
-24.0415201373
 20
41.2163534768
 10
-24.4380994585
 20
41.2274930282
 10
-24.8760305075
 20
41.2381503637
 10
-25.3547902761
 20
41.2483315821
 10
-25.8682720164
 20
41.2579068187
 10
-26.4169205104
 20
41.2668683107
 10
-27.0002909763
 20
41.2752238208
 10
-27.6109423203
 20
41.2828667714
 10
-28.2492240054
 20
41.2897880349
 10
-29.5991405278
 20
41.3014136895
  0
LWPOLYLINE
  5
327
100
AcDbEntity
  8
SCATOLA
100
AcDbPolyline
 62
7
  6
CONTINUOUS
 90
10
 70
0
 10
2.4863843809
 20
28.7594047235
 10
2.5283732117
 20
28.7289772186
 10
2.5665753686
 20
28.6925794229
 10
2.6009908514
 20
28.6502113363
 10
2.6323670385
 20
28.6010621987
 10
2.6599565516
 20
28.5459427703
 10
2.6815172558
 20
28.4872853314
 10
2.696301773
 20
28.4259006419
 10
2.7050574813
 20
28.3609779419
 10
2.7077843809
 20
28.2925172313
  0
LWPOLYLINE
  5
328
100
AcDbEntity
  8
SCATOLA
100
AcDbPolyline
 62
7
  6
CONTINUOUS
 90
5
 70
0
 10
67.3015368335
 20
29.6227804688
 10
67.2358147229
 20
29.5498603616
 10
67.1641577375
 20
29.4894943203
 10
67.0850797662
 20
29.439242478
 10
66.99999795
 20
29.4000053879
  0
LWPOLYLINE
  5
329
100
AcDbEntity
  8
SCATOLA
100
AcDbPolyline
 62
7
  6
CONTINUOUS
 90
17
 70
0
 10
-11.5
 20
-41.1159885463
 10
-11.47513335
 20
-41.1028810999
 10
-11.4011624165
 20
-41.0897736534
 10
-11.2790307246
 20
-41.076833397
 10
-11.1081213441
 20
-41.0640624723
 10
-10.8890512052
 20
-41.0514587377
 10
-10.6246146239
 20
-41.0391829581
 10
-10.3142304645
 20
-41.0272393347
 10
-9.9584798628
 20
-41.0156236663
 10
-9.5619005415
 20
-41.0044841149
 10
-9.1239694925
 20
-40.9938267795
 10
-8.645209724
 20
-40.983645561
 10
-8.1317279837
 20
-40.9740703245
 10
-7.5830794896
 20
-40.9651088325
 10
-6.9997090238
 20
-40.9567533224
 10
-6.3890576797
 20
-40.9491103717
 10
-5.7507759946
 20
-40.9421891082
  0
LWPOLYLINE
  5
32A
100
AcDbEntity
  8
SCATOLA
100
AcDbPolyline
 62
7
  6
CONTINUOUS
 90
37
 70
0
 10
-0.1175
 20
30.4520000253
 10
-0.230435915
 20
30.4451257027
 10
-0.3351424725
 20
30.4279654341
 10
-0.4316196727
 20
30.4005192195
 10
-0.5191681102
 20
30.3628376091
 10
-0.5984871903
 20
30.3148700526
 10
-0.6716751288
 20
30.2564648998
 10
-0.7396902524
 20
30.18714536
 10
-0.8015742345
 20
30.1073882238
 10
-0.8565503111
 20
30.0184722129
 10
-0.904049055
 20
29.9199240115
 10
-0.9446398934
 20
29.8122169354
 10
-0.9792543438
 20
29.6980496536
 10
-1.0080269059
 20
29.577227332
 10
-1.0308230801
 20
29.4499448046
 10
-1.0481708854
 20
29.3194852422
 10
-1.0600901695
 20
29.1841891497
 10
-1.0665610847
 20
29.0457160221
 10
-1.0680521074
 20
28.9123275149
 10
-1.0644714984
 20
28.7874010183
 10
-1.055910997
 20
28.6675591421
 10
-1.0431142975
 20
28.5509313707
 10
-1.0272171251
 20
28.4377855204
 10
-1.0070837547
 20
28.327853775
 10
-0.9800507055
 20
28.2184621694
 10
-0.9453416752
 20
28.1056983936
 10
-0.9037329662
 20
27.9934747577
 10
-0.8548900044
 20
27.8908542264
 10
-0.7980607636
 20
27.8005312036
 10
-0.7339972702
 20
27.7198112854
 10
-0.664621029
 20
27.6496742251
 10
-0.591393949
 20
27.5905299908
 10
-0.5128541213
 20
27.5419686144
 10
-0.4265373237
 20
27.5037399447
 10
-0.3316221489
 20
27.4757605982
 10
-0.2289300042
 20
27.4581139583
 10
-0.1184608896
 20
27.4508000253
  0
LWPOLYLINE
  5
32B
100
AcDbEntity
  8
SCATOLA
100
AcDbPolyline
 62
7
  6
CONTINUOUS
 90
49
 70
0
 10
-0.1184608896
 20
27.4508000253
 10
-0.0099847828
 20
27.4573419967
 10
0.0908025736
 20
27.4734421417
 10
0.1839011795
 20
27.4991004603
 10
0.268889049
 20
27.535142207
 10
0.3461881681
 20
27.5807421273
 10
0.4170644946
 20
27.6334244578
 10
0.4824832897
 20
27.6942506602
 10
0.5414792921
 20
27.7621592727
 10
0.5924226763
 20
27.8314901471
 10
0.6335699591
 20
27.9012901781
 10
0.6666646237
 20
27.9725124711
 10
0.6953072934
 20
28.0423561934
 10
0.7201384764
 20
28.1100338919
 10
0.7405176645
 20
28.1763330199
 10
0.7581239573
 20
28.240815104
 10
0.7732275964
 20
28.3029209416
 10
0.7855583401
 20
28.3632097354
 10
0.7959845626
 20
28.4229206202
 10
0.8044424019
 20
28.4816802432
 10
0.8109957201
 20
28.5398619573
 10
0.8167044766
 20
28.5998249554
 10
0.8220097265
 20
28.6622823571
 10
0.8264704148
 20
28.7265210429
 10
0.8298233365
 20
28.7927608472
 10
0.8320904402
 20
28.8610281967
 10
0.8332497773
 20
28.9312966647
 10
0.832972297
 20
29.0037068056
 10
0.8312611119
 20
29.0782658194
 10
0.8281131093
 20
29.1549665061
 10
0.823189901
 20
29.23392782
 10
0.8171465699
 20
29.3151884108
 10
0.809328033
 20
29.3987096289
 10
0.7974306528
 20
29.4844944795
 10
0.7813862418
 20
29.5727395536
 10
0.7612629876
 20
29.6632482602
 10
0.734961815
 20
29.7554338309
 10
0.7023965555
 20
29.8517274643
 10
0.6636533777
 20
29.9496979617
 10
0.6168917122
 20
30.0414649597
 10
0.5606250954
 20
30.1258924336
 10
0.4963399911
 20
30.2041164081
 10
0.4266552209
 20
30.271664593
 10
0.3531063648
 20
30.3267431702
 10
0.274157843
 20
30.3711459578
 10
0.1878217374
 20
30.4057821207
 10
0.0934354087
 20
30.4309547137
 10
-0.0083385038
 20
30.4463606819
 10
-0.1175
 20
30.4520000253
  0
LWPOLYLINE
  5
32C
100
AcDbEntity
  8
SCATOLA
100
AcDbPolyline
 62
7
  6
CONTINUOUS
 90
10
 70
0
 10
1.846016
 20
28.8861843998
 10
1.9279885639
 20
28.8886248771
 10
2.007512175
 20
28.8870363938
 10
2.0845868332
 20
28.8814189499
 10
2.1595541088
 20
28.8719096338
 10
2.2320724316
 20
28.8583713572
 10
2.3011170912
 20
28.8403928544
 10
2.3663465175
 20
28.8178370369
 10
2.4281022808
 20
28.7908409933
 10
2.4863843809
 20
28.7594047235
  0
LINE
  5
32D
100
AcDbEntity
  8
SCATOLA
100
AcDbLine
 62
7
  6
CONTINUOUS
 10
-2.400816
 20
27.5000000253
 11
-2.118684
 21
27.5000000253
  0
LINE
  5
32E
100
AcDbEntity
  8
SCATOLA
100
AcDbLine
 62
250
  6
CONTINUOUS
 10
67.4667094077
 20
29.1000000253
 11
67.0
 21
29.1000000253
  0
LINE
  5
32F
100
AcDbEntity
  8
SCATOLA
100
AcDbLine
 62
250
  6
CONTINUOUS
 10
66.3469076856
 20
29.4000000253
 11
67.0
 21
29.4000000254
  0
LINE
  5
330
100
AcDbEntity
  8
SCATOLA
100
AcDbLine
 62
7
  6
CONTINUOUS
 10
-2.118684
 20
30.4028000253
 11
-2.368336
 21
30.4028000253
  0
LWPOLYLINE
  5
331
100
AcDbEntity
  8
SCATOLA
100
AcDbPolyline
 62
7
  6
CONTINUOUS
 90
16
 70
0
 10
2.1009843809
 20
30.1858844061
 10
2.1634595222
 20
30.1830308666
 10
2.2225636058
 20
30.1761971418
 10
2.2782966317
 20
30.165383232
 10
2.3309653355
 20
30.1507937022
 10
2.3802629815
 20
30.1322239874
 10
2.4252693631
 20
30.1090603915
 10
2.465729158
 20
30.0812160069
 10
2.5018976886
 20
30.0487777413
 10
2.5336207155
 20
30.0113926222
 10
2.5608904972
 20
29.9686230772
 10
2.5837147752
 20
29.9209066788
 10
2.6019625342
 20
29.8692031713
 10
2.6155901024
 20
29.8138324696
 10
2.6246411516
 20
29.7544746589
 10
2.6291156817
 20
29.6911297392
  0
LWPOLYLINE
  5
332
100
AcDbEntity
  8
SCATOLA
100
AcDbPolyline
 62
7
  6
CONTINUOUS
 90
10
 70
0
 10
-0.1175
 20
30.1858844061
 10
-0.0684762885
 20
30.1833494644
 10
-0.0212492024
 20
30.1779587242
 10
0.0241812582
 20
30.1697121855
 10
0.0681534792
 20
30.1584984554
 10
0.1103290748
 20
30.1444289269
 10
0.1496928879
 20
30.1278377779
 10
0.1859065329
 20
30.1088364013
 10
0.2193083955
 20
30.0873134044
 10
0.2498984756
 20
30.063268787
  0
LINE
  5
333
100
AcDbEntity
  8
SCATOLA
100
AcDbLine
 62
7
  6
CONTINUOUS
 10
1.3009720812
 20
29.9945939838
 11
1.5551718517
 21
29.864803101
  0
LWPOLYLINE
  5
334
100
AcDbEntity
  8
SCATOLA
100
AcDbPolyline
 62
7
  6
CONTINUOUS
 90
18
 70
0
 10
-11.5
 20
41.1159885968
 10
-11.47513335
 20
41.1028811504
 10
-11.4011624165
 20
41.0897737039
 10
-11.2790307246
 20
41.0768334475
 10
-11.1081213441
 20
41.0640625229
 10
-10.8890512052
 20
41.0514587882
 10
-10.6246146239
 20
41.0391830087
 10
-10.3142304645
 20
41.0272393852
 10
-9.9584798628
 20
41.0156237169
 10
-9.5619005415
 20
41.0044841655
 10
-9.1239694925
 20
40.99382683
 10
-8.645209724
 20
40.9836456115
 10
-8.1317279837
 20
40.974070375
 10
-7.5830794896
 20
40.965108883
 10
-6.9997090238
 20
40.9567533729
 10
-6.3890576797
 20
40.9491104223
 10
-5.7507759946
 20
40.9421891588
 10
-4.4008594722
 20
40.9305635042
  0
LWPOLYLINE
  5
335
100
AcDbEntity
  8
SCATOLA
100
AcDbPolyline
 62
250
  6
CONTINUOUS
 90
10
 70
0
 10
55.0189984384
 20
-40.8730280476
 10
55.0233952427
 20
-40.8814995331
 10
55.0276599289
 20
-40.8899899294
 10
55.0317924969
 20
-40.8984992366
 10
55.0357913205
 20
-40.9070274555
 10
55.039658026
 20
-40.9155745853
 10
55.0433974919
 20
-40.9241406235
 10
55.0470113445
 20
-40.9327255693
 10
55.0504979574
 20
-40.9413294237
 10
55.0538573308
 20
-40.9499521865
  0
LINE
  5
336
100
AcDbEntity
  8
SCATOLA
100
AcDbLine
 62
7
  6
CONTINUOUS
 10
62.0
 20
33.7242099994
 11
66.2731956082
 21
33.7242099994
  0
LINE
  5
337
100
AcDbEntity
  8
SCATOLA
100
AcDbLine
 62
7
  6
CONTINUOUS
 10
-62.0
 20
33.7242099994
 11
-66.2731956082
 21
33.7242099994
  0
LINE
  5
338
100
AcDbEntity
  8
SCATOLA
100
AcDbLine
 62
7
  6
CONTINUOUS
 10
62.0
 20
34.0000000253
 11
66.0
 21
34.0000000253
  0
LINE
  5
339
100
AcDbEntity
  8
SCATOLA
100
AcDbLine
 62
7
  6
CONTINUOUS
 10
-62.0
 20
34.0000000253
 11
-66.0
 21
34.0000000253
  0
LINE
  5
33A
100
AcDbEntity
  8
SCATOLA
100
AcDbLine
 62
250
  6
CONTINUOUS
 10
-60.5
 20
35.5000000253
 11
-60.2242099741
 21
35.5000000253
  0
LINE
  5
33B
100
AcDbEntity
  8
SCATOLA
100
AcDbLine
 62
250
  6
CONTINUOUS
 10
60.5
 20
35.5000000253
 11
60.2242099741
 21
35.5000000253
  0
LINE
  5
33C
100
AcDbEntity
  8
SCATOLA
100
AcDbLine
 62
250
  6
CONTINUOUS
 10
66.0
 20
35.5000000253
 11
68.0
 21
35.5000000253
  0
LINE
  5
33D
100
AcDbEntity
  8
SCATOLA
100
AcDbLine
 62
250
  6
CONTINUOUS
 10
-66.0
 20
35.5000000253
 11
-68.0
 21
35.5000000253
  0
LWPOLYLINE
  5
33E
100
AcDbEntity
  8
SCATOLA
100
AcDbPolyline
 62
250
  6
CONTINUOUS
 90
10
 70
0
 10
-54.4
 20
39.8469077109
 10
-54.4257173708
 20
39.8483948601
 10
-54.4516711113
 20
39.8524952959
 10
-54.4778612216
 20
39.8592068633
 10
-54.5044059953
 20
39.8682825723
 10
-54.5311871387
 20
39.8799597138
 10
-54.5578497711
 20
39.8949566534
 10
-54.584275599
 20
39.9134980404
 10
-54.610582916
 20
39.9353151041
 10
-54.636771722
 20
39.960371116
  0
LWPOLYLINE
  5
33F
100
AcDbEntity
  8
SCATOLA
100
AcDbPolyline
 62
250
  6
CONTINUOUS
 90
10
 70
0
 10
-55.0189984384
 20
40.8730276539
 10
-54.9348144952
 20
40.867961058
 10
-54.8518526486
 20
40.8528076213
 10
-54.7713172614
 20
40.8277873274
 10
-54.6943774712
 20
40.7932633976
 10
-54.622150218
 20
40.7497370181
 10
-54.5556840298
 20
40.6978400642
 10
-54.4959438007
 20
40.6383259274
 10
-54.4437967835
 20
40.5720585786
 10
-54.4
 20
40.5000000253
  0
LWPOLYLINE
  5
340
100
AcDbEntity
  8
SCATOLA
100
AcDbPolyline
 62
250
  6
CONTINUOUS
 90
6
 70
0
 10
-55.0538573304
 20
40.9499650888
 10
-54.9603599828
 20
40.9437018684
 10
-54.8685385423
 20
40.9250080071
 10
-54.7800385228
 20
40.8942185139
 10
-54.696445916
 20
40.8518851612
 10
-54.6227804436
 20
40.8015368588
  0
LWPOLYLINE
  5
341
100
AcDbEntity
  8
SCATOLA
100
AcDbPolyline
 62
250
  6
CONTINUOUS
 90
3
 70
0
 10
67.3730280729
 20
22.9810015869
 10
67.3686260664
 20
22.9817399712
 10
67.3582979126
 20
22.9837500656
  0
LWPOLYLINE
  5
342
100
AcDbEntity
  8
SCATOLA
100
AcDbPolyline
 62
250
  6
CONTINUOUS
 90
25
 70
0
 10
67.3582979126
 20
22.9837500656
 10
67.3202098848
 20
22.9915069641
 10
67.2927014945
 20
22.9972537682
 10
67.2599813774
 20
23.0045075427
 10
67.2222154244
 20
23.0133147551
 10
67.1798078006
 20
23.0236289378
 10
67.1338196908
 20
23.0355459485
 10
67.0847980705
 20
23.049140214
 10
67.0332341819
 20
23.0643373075
 10
66.9804486012
 20
23.0810098061
 10
66.9272145771
 20
23.0991637699
 10
66.8738952091
 20
23.1187931389
 10
66.821310755
 20
23.1397523102
 10
66.77003445
 20
23.1620366007
 10
66.7203428295
 20
23.1856506935
 10
66.6725616295
 20
23.2104630354
 10
66.626839241
 20
23.2364962768
 10
66.5835430353
 20
23.2637277672
 10
66.5432725922
 20
23.2919580015
 10
66.5061843815
 20
23.3213346689
 10
66.4724226439
 20
23.3517100803
 10
66.4425375026
 20
23.3824416629
 10
66.4167594621
 20
23.4133152261
 10
66.394996206
 20
23.4445449606
 10
66.3772865459
 20
23.4761308664
  0
LWPOLYLINE
  5
343
100
AcDbEntity
  8
SCATOLA
100
AcDbPolyline
 62
250
  6
CONTINUOUS
 90
3
 70
0
 10
48.5874618069
 20
-40.4542827635
 10
48.5984278311
 20
-40.4948597166
 10
48.6000000227
 20
-40.4999999727
  0
LINE
  5
344
100
AcDbEntity
  8
SCATOLA
100
AcDbLine
 62
7
  6
CONTINUOUS
 10
41.5
 20
26.4000000253
 11
41.5
 21
26.6000000253
  0
LWPOLYLINE
  5
345
100
AcDbEntity
  8
SCATOLA
100
AcDbPolyline
 62
7
  6
CONTINUOUS
 90
17
 70
0
 10
11.5
 20
-41.1159885463
 10
11.4751333499
 20
-41.1290959928
 10
11.4011624165
 20
-41.1422034392
 10
11.2790307246
 20
-41.1551436956
 10
11.1081213441
 20
-41.1679146203
 10
10.8890512052
 20
-41.1805183549
 10
10.6246146239
 20
-41.1927941345
 10
10.3142304645
 20
-41.2047377579
 10
9.9584798627
 20
-41.2163534263
 10
9.5619005415
 20
-41.2274929777
 10
9.1239694925
 20
-41.2381503131
 10
8.6452097239
 20
-41.2483315316
 10
8.1317279836
 20
-41.2579067681
 10
7.5830794896
 20
-41.2668682601
 10
6.9997090237
 20
-41.2752237702
 10
6.3890576797
 20
-41.2828667209
 10
5.7507759946
 20
-41.2897879844
  0
LINE
  5
346
100
AcDbEntity
  8
SCATOLA
100
AcDbLine
 62
250
  6
CONTINUOUS
 10
-54.9301043323
 20
40.9582600632
 11
-54.8491066224
 21
40.9603685923
  0
LINE
  5
347
100
AcDbEntity
  8
SCATOLA
100
AcDbLine
 62
250
  6
CONTINUOUS
 10
-54.8491066224
 20
40.9603685923
 11
-54.7503453895
 21
40.9622389359
  0
LWPOLYLINE
  5
348
100
AcDbEntity
  8
SCATOLA
100
AcDbPolyline
 62
7
  6
CONTINUOUS
 90
17
 70
0
 10
39.7507759946
 20
40.9421891588
 10
40.3890576797
 20
40.9491104223
 10
40.9997090237
 20
40.9567533729
 10
41.5830794896
 20
40.965108883
 10
42.1317279836
 20
40.974070375
 10
42.6452097239
 20
40.9836456115
 10
43.1239694925
 20
40.99382683
 10
43.5619005415
 20
41.0044841655
 10
43.9584798627
 20
41.0156237169
 10
44.3142304645
 20
41.0272393852
 10
44.6246146239
 20
41.0391830087
 10
44.8890512052
 20
41.0514587882
 10
45.1081213441
 20
41.0640625229
 10
45.2790307246
 20
41.0768334475
 10
45.4011624165
 20
41.0897737039
 10
45.4751333499
 20
41.1028811504
 10
45.5
 20
41.1159885968
  0
LWPOLYLINE
  5
349
100
AcDbEntity
  8
SCATOLA
100
AcDbPolyline
 62
7
  6
CONTINUOUS
 90
17
 70
0
 10
5.7507759946
 20
40.9421891588
 10
6.3890576797
 20
40.9491104223
 10
6.9997090237
 20
40.9567533729
 10
7.5830794896
 20
40.965108883
 10
8.1317279836
 20
40.974070375
 10
8.6452097239
 20
40.9836456115
 10
9.1239694925
 20
40.99382683
 10
9.5619005415
 20
41.0044841655
 10
9.9584798627
 20
41.0156237169
 10
10.3142304645
 20
41.0272393852
 10
10.6246146239
 20
41.0391830087
 10
10.8890512052
 20
41.0514587882
 10
11.1081213441
 20
41.0640625229
 10
11.2790307246
 20
41.0768334475
 10
11.4011624165
 20
41.0897737039
 10
11.4751333499
 20
41.1028811504
 10
11.5
 20
41.1159885968
  0
LWPOLYLINE
  5
34A
100
AcDbEntity
  8
SCATOLA
100
AcDbPolyline
 62
7
  6
CONTINUOUS
 90
17
 70
0
 10
28.2492240054
 20
41.2897880349
 10
27.6109423203
 20
41.2828667714
 10
27.0002909762
 20
41.2752238208
 10
26.4169205104
 20
41.2668683107
 10
25.8682720163
 20
41.2579068187
 10
25.354790276
 20
41.2483315821
 10
24.8760305075
 20
41.2381503637
 10
24.4380994585
 20
41.2274930282
 10
24.0415201372
 20
41.2163534768
 10
23.6857695355
 20
41.2047378085
 10
23.3753853761
 20
41.192794185
 10
23.1109487948
 20
41.1805184055
 10
22.8918786559
 20
41.1679146708
 10
22.7209692754
 20
41.1551437462
 10
22.5988375835
 20
41.1422034897
 10
22.52486665
 20
41.1290960433
 10
22.5
 20
41.1159885968
  0
LWPOLYLINE
  5
34B
100
AcDbEntity
  8
SCATOLA
100
AcDbPolyline
 62
7
  6
CONTINUOUS
 90
17
 70
0
 10
-28.2492240054
 20
40.9421891588
 10
-27.6109423203
 20
40.9491104223
 10
-27.0002909763
 20
40.9567533729
 10
-26.4169205104
 20
40.965108883
 10
-25.8682720164
 20
40.974070375
 10
-25.3547902761
 20
40.9836456115
 10
-24.8760305075
 20
40.99382683
 10
-24.4380994585
 20
41.0044841655
 10
-24.0415201373
 20
41.0156237169
 10
-23.6857695355
 20
41.0272393852
 10
-23.3753853761
 20
41.0391830087
 10
-23.1109487948
 20
41.0514587882
 10
-22.8918786559
 20
41.0640625229
 10
-22.7209692754
 20
41.0768334475
 10
-22.5988375835
 20
41.0897737039
 10
-22.5248666501
 20
41.1028811504
 10
-22.5
 20
41.1159885968
  0
LWPOLYLINE
  5
34C
100
AcDbEntity
  8
SCATOLA
100
AcDbPolyline
 62
7
  6
CONTINUOUS
 90
17
 70
0
 10
-5.7507759946
 20
41.2897880349
 10
-6.3890576797
 20
41.2828667714
 10
-6.9997090238
 20
41.2752238208
 10
-7.5830794896
 20
41.2668683107
 10
-8.1317279837
 20
41.2579068187
 10
-8.645209724
 20
41.2483315821
 10
-9.1239694925
 20
41.2381503637
 10
-9.5619005415
 20
41.2274930282
 10
-9.9584798628
 20
41.2163534768
 10
-10.3142304645
 20
41.2047378085
 10
-10.6246146239
 20
41.192794185
 10
-10.8890512052
 20
41.1805184055
 10
-11.1081213441
 20
41.1679146708
 10
-11.2790307246
 20
41.1551437462
 10
-11.4011624165
 20
41.1422034897
 10
-11.47513335
 20
41.1290960433
 10
-11.5
 20
41.1159885968
  0
LINE
  5
34D
100
AcDbEntity
  8
SCATOLA
100
AcDbLine
 62
250
  6
CONTINUOUS
 10
-54.7503453895
 20
40.9622389359
 11
-54.5751129191
 21
40.9644956112
  0
LWPOLYLINE
  5
34E
100
AcDbEntity
  8
SCATOLA
100
AcDbPolyline
 62
7
  6
CONTINUOUS
 90
17
 70
0
 10
-39.7507759946
 20
41.2897880349
 10
-40.3890576797
 20
41.2828667714
 10
-40.9997090238
 20
41.2752238208
 10
-41.5830794896
 20
41.2668683107
 10
-42.1317279837
 20
41.2579068187
 10
-42.645209724
 20
41.2483315821
 10
-43.1239694925
 20
41.2381503637
 10
-43.5619005415
 20
41.2274930282
 10
-43.9584798628
 20
41.2163534768
 10
-44.3142304645
 20
41.2047378085
 10
-44.6246146239
 20
41.192794185
 10
-44.8890512052
 20
41.1805184055
 10
-45.1081213441
 20
41.1679146708
 10
-45.2790307246
 20
41.1551437462
 10
-45.4011624165
 20
41.1422034897
 10
-45.47513335
 20
41.1290960433
 10
-45.5
 20
41.1159885968
  0
LINE
  5
34F
100
AcDbEntity
  8
SCATOLA
100
AcDbLine
 62
7
  6
CONTINUOUS
 10
38.4008594722
 20
40.9305635042
 11
39.7507759946
 21
40.9421891588
  0
LINE
  5
350
100
AcDbEntity
  8
SCATOLA
100
AcDbLine
 62
7
  6
CONTINUOUS
 10
4.4008594722
 20
40.9305635042
 11
5.7507759946
 21
40.9421891588
  0
LINE
  5
351
100
AcDbEntity
  8
SCATOLA
100
AcDbLine
 62
7
  6
CONTINUOUS
 10
29.5991405278
 20
41.3014136895
 11
28.2492240054
 21
41.2897880349
  0
LINE
  5
352
100
AcDbEntity
  8
SCATOLA
100
AcDbLine
 62
7
  6
CONTINUOUS
 10
-29.5991405278
 20
40.9305635042
 11
-28.2492240054
 21
40.9421891588
  0
LINE
  5
353
100
AcDbEntity
  8
SCATOLA
100
AcDbLine
 62
7
  6
CONTINUOUS
 10
-4.4008594722
 20
41.3014136895
 11
-5.7507759946
 21
41.2897880349
  0
LINE
  5
354
100
AcDbEntity
  8
SCATOLA
100
AcDbLine
 62
7
  6
CONTINUOUS
 10
-38.4008594722
 20
41.3014136895
 11
-39.7507759946
 21
41.2897880349
  0
LINE
  5
355
100
AcDbEntity
  8
SCATOLA
100
AcDbLine
 62
250
  6
CONTINUOUS
 10
-54.5751129191
 20
40.9644956112
 11
-54.3771893507
 21
40.9659890397
  0
LINE
  5
356
100
AcDbEntity
  8
SCATOLA
100
AcDbLine
 62
7
  6
CONTINUOUS
 10
36.9752959384
 20
40.9221251484
 11
38.4008594722
 21
40.9305635042
  0
LINE
  5
357
100
AcDbEntity
  8
SCATOLA
100
AcDbLine
 62
7
  6
CONTINUOUS
 10
2.9752959384
 20
40.9221251484
 11
4.4008594722
 21
40.9305635042
  0
LINE
  5
358
100
AcDbEntity
  8
SCATOLA
100
AcDbLine
 62
7
  6
CONTINUOUS
 10
-31.0247040616
 20
40.9221251484
 11
-29.5991405278
 21
40.9305635042
  0
LINE
  5
359
100
AcDbEntity
  8
SCATOLA
100
AcDbLine
 62
7
  6
CONTINUOUS
 10
31.0247040616
 20
41.3098520453
 11
29.5991405278
 21
41.3014136895
  0
LINE
  5
35A
100
AcDbEntity
  8
SCATOLA
100
AcDbLine
 62
7
  6
CONTINUOUS
 10
-2.9752959384
 20
41.3098520453
 11
-4.4008594722
 21
41.3014136895
  0
LINE
  5
35B
100
AcDbEntity
  8
SCATOLA
100
AcDbLine
 62
7
  6
CONTINUOUS
 10
-36.9752959384
 20
41.3098520453
 11
-38.4008594722
 21
41.3014136895
  0
LINE
  5
35C
100
AcDbEntity
  8
SCATOLA
100
AcDbLine
 62
7
  6
CONTINUOUS
 10
35.5052722392
 20
40.9170163654
 11
36.9752959384
 21
40.9221251484
  0
LINE
  5
35D
100
AcDbEntity
  8
SCATOLA
100
AcDbLine
 62
7
  6
CONTINUOUS
 10
1.5052722392
 20
40.9170163654
 11
2.9752959384
 21
40.9221251484
  0
LINE
  5
35E
100
AcDbEntity
  8
SCATOLA
100
AcDbLine
 62
7
  6
CONTINUOUS
 10
-32.4947277608
 20
40.9170163654
 11
-31.0247040616
 21
40.9221251484
  0
LINE
  5
35F
100
AcDbEntity
  8
SCATOLA
100
AcDbLine
 62
7
  6
CONTINUOUS
 10
32.4947277607
 20
41.3149608283
 11
31.0247040616
 21
41.3098520453
  0
LINE
  5
360
100
AcDbEntity
  8
SCATOLA
100
AcDbLine
 62
7
  6
CONTINUOUS
 10
-1.5052722393
 20
41.3149608283
 11
-2.9752959384
 21
41.3098520453
  0
LINE
  5
361
100
AcDbEntity
  8
SCATOLA
100
AcDbLine
 62
7
  6
CONTINUOUS
 10
-35.5052722393
 20
41.3149608283
 11
-36.9752959384
 21
41.3098520453
  0
LINE
  5
362
100
AcDbEntity
  8
SCATOLA
100
AcDbLine
 62
7
  6
CONTINUOUS
 10
34.0
 20
40.9152859228
 11
35.5052722392
 21
40.9170163654
  0
LINE
  5
363
100
AcDbEntity
  8
SCATOLA
100
AcDbLine
 62
7
  6
CONTINUOUS
 10
-0.0
 20
40.9152859228
 11
1.5052722392
 21
40.9170163654
  0
LINE
  5
364
100
AcDbEntity
  8
SCATOLA
100
AcDbLine
 62
7
  6
CONTINUOUS
 10
-34.0
 20
40.9152859228
 11
-32.4947277608
 21
40.9170163654
  0
LINE
  5
365
100
AcDbEntity
  8
SCATOLA
100
AcDbLine
 62
250
  6
CONTINUOUS
 10
-54.3771893507
 20
40.9659890397
 11
-54.1
 21
40.966709433
  0
LINE
  5
366
100
AcDbEntity
  8
SCATOLA
100
AcDbLine
 62
7
  6
CONTINUOUS
 10
34.0
 20
41.3166912709
 11
32.4947277607
 21
41.3149608283
  0
LINE
  5
367
100
AcDbEntity
  8
SCATOLA
100
AcDbLine
 62
7
  6
CONTINUOUS
 10
-0.0
 20
41.3166912709
 11
-1.5052722393
 21
41.3149608283
  0
LINE
  5
368
100
AcDbEntity
  8
SCATOLA
100
AcDbLine
 62
7
  6
CONTINUOUS
 10
-34.0
 20
41.3166912709
 11
-35.5052722393
 21
41.3149608283
  0
LINE
  5
369
100
AcDbEntity
  8
SCATOLA
100
AcDbLine
 62
7
  6
CONTINUOUS
 10
-62.0
 20
39.5000000253
 11
-60.5
 21
39.5000000253
  0
LINE
  5
36A
100
AcDbEntity
  8
SCATOLA
100
AcDbLine
 62
7
  6
CONTINUOUS
 10
62.0
 20
39.5000000253
 11
60.5
 21
39.5000000253
  0
LINE
  5
36B
100
AcDbEntity
  8
SCATOLA
100
AcDbLine
 62
250
  6
CONTINUOUS
 10
60.2242099741
 20
39.7731956335
 11
-60.2242099741
 21
39.7731956335
  0
LINE
  5
36C
100
AcDbEntity
  8
SCATOLA
100
AcDbLine
 62
7
  6
CONTINUOUS
 10
62.0
 20
39.7757899977
 11
60.2242100275
 21
39.7757899977
  0
LINE
  5
36D
100
AcDbEntity
  8
SCATOLA
100
AcDbLine
 62
7
  6
CONTINUOUS
 10
-60.2242100275
 20
39.7757899977
 11
-62.0
 21
39.7757899977
  0
LINE
  5
36E
100
AcDbEntity
  8
SCATOLA
100
AcDbLine
 62
250
  6
CONTINUOUS
 10
-48.6
 20
39.8469077109
 11
-54.4
 21
39.8469077109
  0
LINE
  5
36F
100
AcDbEntity
  8
SCATOLA
100
AcDbLine
 62
7
  6
CONTINUOUS
 10
-48.6
 20
40.5000000253
 11
-54.4
 21
40.5000000253
  0
LINE
  5
370
100
AcDbEntity
  8
SCATOLA
100
AcDbLine
 62
250
  6
CONTINUOUS
 10
62.0
 20
40.8730280982
 11
-47.9810015616
 21
40.8730280982
  0
LINE
  5
371
100
AcDbEntity
  8
SCATOLA
100
AcDbLine
 62
250
  6
CONTINUOUS
 10
-55.0189984384
 20
40.8730280982
 11
-62.0
 21
40.8730280982
  0
LINE
  5
372
100
AcDbEntity
  8
ASSI
100
AcDbLine
 62
7
  6
CONTINUOUS
 10
-62.0
 20
41.5000000253
 11
62.0
 21
41.5000000253
  0
LINE
  5
373
100
AcDbEntity
  8
SCATOLA
100
AcDbLine
 62
7
  6
CONTINUOUS
 10
62.0
 20
41.5000000253
 11
-62.0
 21
41.5000000253
  0
LINE
  5
374
100
AcDbEntity
  8
SCATOLA
100
AcDbLine
 62
7
  6
CONTINUOUS
 10
-35.5052722393
 20
40.9170163654
 11
-34.0
 21
40.9152859228
  0
LINE
  5
375
100
AcDbEntity
  8
SCATOLA
100
AcDbLine
 62
7
  6
CONTINUOUS
 10
-1.5052722393
 20
40.9170163654
 11
-0.0
 21
40.9152859228
  0
LINE
  5
376
100
AcDbEntity
  8
SCATOLA
100
AcDbLine
 62
7
  6
CONTINUOUS
 10
32.4947277607
 20
40.9170163654
 11
34.0
 21
40.9152859228
  0
LINE
  5
377
100
AcDbEntity
  8
SCATOLA
100
AcDbLine
 62
7
  6
CONTINUOUS
 10
-32.4947277608
 20
41.3149608283
 11
-34.0
 21
41.3166912709
  0
LINE
  5
378
100
AcDbEntity
  8
SCATOLA
100
AcDbLine
 62
7
  6
CONTINUOUS
 10
1.5052722392
 20
41.3149608283
 11
-0.0
 21
41.3166912709
  0
LINE
  5
379
100
AcDbEntity
  8
SCATOLA
100
AcDbLine
 62
7
  6
CONTINUOUS
 10
35.5052722392
 20
41.3149608283
 11
34.0
 21
41.3166912709
  0
LINE
  5
37A
100
AcDbEntity
  8
SCATOLA
100
AcDbLine
 62
250
  6
CONTINUOUS
 10
-54.1
 20
40.966709433
 11
-48.6914775114
 21
40.9663067325
  0
LINE
  5
37B
100
AcDbEntity
  8
SCATOLA
100
AcDbLine
 62
7
  6
CONTINUOUS
 10
-36.9752959384
 20
40.9221251484
 11
-35.5052722393
 21
40.9170163654
  0
LINE
  5
37C
100
AcDbEntity
  8
SCATOLA
100
AcDbLine
 62
7
  6
CONTINUOUS
 10
-2.9752959384
 20
40.9221251484
 11
-1.5052722393
 21
40.9170163654
  0
LINE
  5
37D
100
AcDbEntity
  8
SCATOLA
100
AcDbLine
 62
7
  6
CONTINUOUS
 10
31.0247040616
 20
40.9221251484
 11
32.4947277607
 21
40.9170163654
  0
LINE
  5
37E
100
AcDbEntity
  8
SCATOLA
100
AcDbLine
 62
7
  6
CONTINUOUS
 10
-31.0247040616
 20
41.3098520453
 11
-32.4947277608
 21
41.3149608283
  0
LINE
  5
37F
100
AcDbEntity
  8
SCATOLA
100
AcDbLine
 62
7
  6
CONTINUOUS
 10
2.9752959384
 20
41.3098520453
 11
1.5052722392
 21
41.3149608283
  0
LINE
  5
380
100
AcDbEntity
  8
SCATOLA
100
AcDbLine
 62
7
  6
CONTINUOUS
 10
36.9752959384
 20
41.3098520453
 11
35.5052722392
 21
41.3149608283
  0
LINE
  5
381
100
AcDbEntity
  8
SCATOLA
100
AcDbLine
 62
7
  6
CONTINUOUS
 10
-38.4008594722
 20
40.9305635042
 11
-36.9752959384
 21
40.9221251484
  0
LINE
  5
382
100
AcDbEntity
  8
SCATOLA
100
AcDbLine
 62
7
  6
CONTINUOUS
 10
-4.4008594722
 20
40.9305635042
 11
-2.9752959384
 21
40.9221251484
  0
LINE
  5
383
100
AcDbEntity
  8
SCATOLA
100
AcDbLine
 62
7
  6
CONTINUOUS
 10
-29.5991405278
 20
41.3014136895
 11
-31.0247040616
 21
41.3098520453
  0
LINE
  5
384
100
AcDbEntity
  8
SCATOLA
100
AcDbLine
 62
7
  6
CONTINUOUS
 10
29.5991405278
 20
40.9305635042
 11
31.0247040616
 21
40.9221251484
  0
LINE
  5
385
100
AcDbEntity
  8
SCATOLA
100
AcDbLine
 62
7
  6
CONTINUOUS
 10
4.4008594722
 20
41.3014136895
 11
2.9752959384
 21
41.3098520453
  0
LINE
  5
386
100
AcDbEntity
  8
SCATOLA
100
AcDbLine
 62
7
  6
CONTINUOUS
 10
38.4008594722
 20
41.3014136895
 11
36.9752959384
 21
41.3098520453
  0
LINE
  5
387
100
AcDbEntity
  8
SCATOLA
100
AcDbLine
 62
250
  6
CONTINUOUS
 10
-48.6914775114
 20
40.9663067325
 11
-48.4887082356
 21
40.9650825615
  0
LINE
  5
388
100
AcDbEntity
  8
SCATOLA
100
AcDbLine
 62
250
  6
CONTINUOUS
 10
-48.4887082356
 20
40.9650825615
 11
-48.3045155419
 21
40.9630673005
  0
LINE
  5
389
100
AcDbEntity
  8
SCATOLA
100
AcDbLine
 62
250
  6
CONTINUOUS
 10
-48.3045155419
 20
40.9630673005
 11
-48.1979958969
 21
40.9613314362
  0
LWPOLYLINE
  5
38A
100
AcDbEntity
  8
SCATOLA
100
AcDbPolyline
 62
250
  6
CONTINUOUS
 90
10
 70
0
 10
-48.1979958969
 20
40.9613314362
 10
-48.1081393175
 20
40.9593420305
 10
-48.0698484093
 20
40.9582586195
 10
-48.0366056964
 20
40.9571397824
 10
-48.0085700013
 20
40.9559849523
 10
-47.9855825014
 20
40.9547946962
 10
-47.9678275799
 20
40.9535938164
 10
-47.9553666979
 20
40.9523905803
 10
-47.9481383943
 20
40.9511767205
 10
-47.9461426692
 20
40.949952237
  0
LWPOLYLINE
  5
38B
100
AcDbEntity
  8
SCATOLA
100
AcDbPolyline
 62
7
  6
CONTINUOUS
 90
18
 70
0
 10
11.5
 20
41.1159885968
 10
11.4751333499
 20
41.1290960433
 10
11.4011624165
 20
41.1422034897
 10
11.2790307246
 20
41.1551437462
 10
11.1081213441
 20
41.1679146708
 10
10.8890512052
 20
41.1805184055
 10
10.6246146239
 20
41.192794185
 10
10.3142304645
 20
41.2047378085
 10
9.9584798627
 20
41.2163534768
 10
9.5619005415
 20
41.2274930282
 10
9.1239694925
 20
41.2381503637
 10
8.6452097239
 20
41.2483315821
 10
8.1317279836
 20
41.2579068187
 10
7.5830794896
 20
41.2668683107
 10
6.9997090237
 20
41.2752238208
 10
6.3890576797
 20
41.2828667714
 10
5.7507759946
 20
41.2897880349
 10
4.4008594722
 20
41.3014136895
  0
LINE
  5
38C
100
AcDbEntity
  8
SCATOLA
100
AcDbLine
 62
250
  6
CONTINUOUS
 10
48.5349565713
 20
-40.1936694472
 11
48.5599052429
 21
-40.3217940444
  0
LWPOLYLINE
  5
38D
100
AcDbEntity
  8
SCATOLA
100
AcDbPolyline
 62
250
  6
CONTINUOUS
 90
4
 70
0
 10
48.5599052429
 20
-40.3217940444
 10
48.5699577252
 20
-40.3748497984
 10
48.5789409221
 20
-40.4192987983
 10
48.5874618069
 20
-40.4542827635
  0
LINE
  5
38E
100
AcDbEntity
  8
SCATOLA
100
AcDbLine
 62
250
  6
CONTINUOUS
 10
48.5064586257
 20
-40.0424591616
 11
48.5349565713
 21
-40.1936694472
  0
LINE
  5
38F
100
AcDbEntity
  8
SCATOLA
100
AcDbLine
 62
250
  6
CONTINUOUS
 10
48.4761308412
 20
-39.8772865206
 11
48.5064586257
 21
-40.0424591616
  0
LWPOLYLINE
  5
390
100
AcDbEntity
  8
SCATOLA
100
AcDbPolyline
 62
7
  6
CONTINUOUS
 90
17
 70
0
 10
22.5
 20
-41.1159885463
 10
22.52486665
 20
-41.1028810999
 10
22.5988375835
 20
-41.0897736534
 10
22.7209692754
 20
-41.076833397
 10
22.8918786559
 20
-41.0640624723
 10
23.1109487948
 20
-41.0514587377
 10
23.3753853761
 20
-41.0391829581
 10
23.6857695355
 20
-41.0272393347
 10
24.0415201372
 20
-41.0156236663
 10
24.4380994585
 20
-41.0044841149
 10
24.8760305075
 20
-40.9938267795
 10
25.354790276
 20
-40.983645561
 10
25.8682720163
 20
-40.9740703245
 10
26.4169205104
 20
-40.9651088325
 10
27.0002909762
 20
-40.9567533224
 10
27.6109423203
 20
-40.9491103717
 10
28.2492240054
 20
-40.9421891082
  0
LWPOLYLINE
  5
391
100
AcDbEntity
  8
SCATOLA
100
AcDbPolyline
 62
250
  6
CONTINUOUS
 90
7
 70
0
 10
-47.9461426692
 20
40.9499522291
 10
-48.0396398783
 20
40.9436915991
 10
-48.1314614915
 20
40.9250001343
 10
-48.2199619413
 20
40.8942128108
 10
-48.3035551805
 20
40.851881379
 10
-48.3807431052
 20
40.7987644754
 10
-48.3916280796
 20
40.7899672879
  0
LWPOLYLINE
  5
392
100
AcDbEntity
  8
SCATOLA
100
AcDbPolyline
 62
250
  6
CONTINUOUS
 90
10
 70
0
 10
-47.9810015617
 20
40.8730240677
 10
-48.0651853811
 20
40.8679581134
 10
-48.1481471698
 20
40.852805261
 10
-48.2286825497
 20
40.8277854884
 10
-48.3056223678
 20
40.793262014
 10
-48.3778496687
 20
40.7497360242
 10
-48.4443159097
 20
40.697839397
 10
-48.5040561833
 20
40.6383255295
 10
-48.5562032241
 20
40.5720583998
 10
-48.6
 20
40.5000000253
  0
LWPOLYLINE
  5
393
100
AcDbEntity
  8
SCATOLA
100
AcDbPolyline
 62
250
  6
CONTINUOUS
 90
10
 70
0
 10
67.4499522117
 20
22.9461426944
 10
67.441329449
 20
22.9495020678
 10
67.4327255947
 20
22.9529886808
 10
67.4241406488
 20
22.9566025333
 10
67.4155746106
 20
22.9603419992
 10
67.4070274808
 20
22.9642087047
 10
67.3984992619
 20
22.9682075284
 10
67.3899899547
 20
22.9723400964
 10
67.3814995584
 20
22.9766047826
 10
67.3730280729
 20
22.9810015869
  0
LWPOLYLINE
  5
394
100
AcDbEntity
  8
SCATOLA
100
AcDbPolyline
 62
7
  6
CONTINUOUS
 90
18
 70
0
 10
22.5
 20
41.1159885968
 10
22.52486665
 20
41.1028811504
 10
22.5988375835
 20
41.0897737039
 10
22.7209692754
 20
41.0768334475
 10
22.8918786559
 20
41.0640625229
 10
23.1109487948
 20
41.0514587882
 10
23.3753853761
 20
41.0391830087
 10
23.6857695355
 20
41.0272393852
 10
24.0415201372
 20
41.0156237169
 10
24.4380994585
 20
41.0044841655
 10
24.8760305075
 20
40.99382683
 10
25.354790276
 20
40.9836456115
 10
25.8682720163
 20
40.974070375
 10
26.4169205104
 20
40.965108883
 10
27.0002909762
 20
40.9567533729
 10
27.6109423203
 20
40.9491104223
 10
28.2492240054
 20
40.9421891588
 10
29.5991405278
 20
40.9305635042
  0
LWPOLYLINE
  5
395
100
AcDbEntity
  8
SCATOLA
100
AcDbPolyline
 62
250
  6
CONTINUOUS
 90
4
 70
0
 10
55.0088843892
 20
-40.8221202568
 10
55.016345127
 20
-40.8588118269
 10
55.018281175
 20
-40.8687690243
 10
55.0189984384
 20
-40.8730280476
  0
LINE
  5
396
100
AcDbEntity
  8
SCATOLA
100
AcDbLine
 62
250
  6
CONTINUOUS
 10
48.6
 20
-39.8469076603
 11
48.6
 21
-40.4999999747
  0
LINE
  5
397
100
AcDbEntity
  8
SCATOLA
100
AcDbLine
 62
250
  6
CONTINUOUS
 10
48.9
 20
-40.9667093825
 11
48.9000000084
 21
-40.4999999748
  0
LWPOLYLINE
  5
398
100
AcDbEntity
  8
SCATOLA
100
AcDbPolyline
 62
250
  6
CONTINUOUS
 90
10
 70
0
 10
66.4603710907
 20
29.6367717472
 10
66.5600203286
 20
29.5993468096
 10
66.6543113722
 20
29.5628385353
 10
66.7409347149
 20
29.5281411353
 10
66.8177686582
 20
29.4961044663
 10
66.882931279
 20
29.4675132146
 10
66.9348265244
 20
29.4430676768
 10
66.9721833043
 20
29.4233666066
 10
66.994086625
 20
29.4088925499
 10
67.0
 20
29.4000000253
  0
LINE
  5
399
100
AcDbEntity
  8
SCATOLA
100
AcDbLine
 62
250
  6
CONTINUOUS
 10
54.1
 20
-40.9667093825
 11
54.1
 21
-40.4999999747
  0
LINE
  5
39A
100
AcDbEntity
  8
SCATOLA
100
AcDbLine
 62
250
  6
CONTINUOUS
 10
54.4
 20
-39.8469076603
 11
54.4000000001
 21
-40.4999999747
  0
LWPOLYLINE
  5
39B
100
AcDbEntity
  8
SCATOLA
100
AcDbPolyline
 62
250
  6
CONTINUOUS
 90
3
 70
0
 10
47.9810015616
 20
-40.8730280476
 10
47.981739946
 20
-40.8686260412
 10
47.9837500403
 20
-40.8582978873
  0
LWPOLYLINE
  5
39C
100
AcDbEntity
  8
SCATOLA
100
AcDbPolyline
 62
250
  6
CONTINUOUS
 90
25
 70
0
 10
47.9837500403
 20
-40.8582978873
 10
47.9915069388
 20
-40.8202098595
 10
47.997253743
 20
-40.7927014693
 10
48.0045075175
 20
-40.7599813522
 10
48.0133147299
 20
-40.7222153991
 10
48.0236289126
 20
-40.6798077753
 10
48.0355459233
 20
-40.6338196656
 10
48.0491401887
 20
-40.5847980453
 10
48.0643372822
 20
-40.5332341566
 10
48.0810097808
 20
-40.4804485759
 10
48.0991637446
 20
-40.4272145518
 10
48.1187931136
 20
-40.3738951838
 10
48.1397522849
 20
-40.3213107298
 10
48.1620365754
 20
-40.2700344248
 10
48.1856506683
 20
-40.2203428043
 10
48.2104630101
 20
-40.1725616043
 10
48.2364962515
 20
-40.1268392157
 10
48.2637277419
 20
-40.08354301
 10
48.2919579763
 20
-40.0432725669
 10
48.3213346437
 20
-40.0061843562
 10
48.351710055
 20
-39.9724226187
 10
48.3824416377
 20
-39.9425374774
 10
48.4133152008
 20
-39.9167594368
 10
48.4445449353
 20
-39.8949961807
 10
48.4761308412
 20
-39.8772865206
  0
LWPOLYLINE
  5
39D
100
AcDbEntity
  8
SCATOLA
100
AcDbPolyline
 62
7
  6
CONTINUOUS
 90
17
 70
0
 10
45.5
 20
-41.1159885463
 10
45.4751333499
 20
-41.1290959928
 10
45.4011624165
 20
-41.1422034392
 10
45.2790307246
 20
-41.1551436956
 10
45.1081213441
 20
-41.1679146203
 10
44.8890512052
 20
-41.1805183549
 10
44.6246146239
 20
-41.1927941345
 10
44.3142304645
 20
-41.2047377579
 10
43.9584798627
 20
-41.2163534263
 10
43.5619005415
 20
-41.2274929777
 10
43.1239694925
 20
-41.2381503131
 10
42.6452097239
 20
-41.2483315316
 10
42.1317279836
 20
-41.2579067681
 10
41.5830794896
 20
-41.2668682601
 10
40.9997090237
 20
-41.2752237702
 10
40.3890576797
 20
-41.2828667209
 10
39.7507759946
 20
-41.2897879844
  0
LWPOLYLINE
  5
39E
100
AcDbEntity
  8
SCATOLA
100
AcDbPolyline
 62
250
  6
CONTINUOUS
 90
7
 70
0
 10
48.4761308412
 20
-39.8772865206
 10
48.4970980287
 20
-39.8678971265
 10
48.5179362852
 20
-39.8602346568
 10
48.5386456106
 20
-39.8543025275
 10
48.5592260048
 20
-39.8501030911
 10
48.579677468
 20
-39.8476378594
 10
48.6
 20
-39.8469076603
  0
LWPOLYLINE
  5
39F
100
AcDbEntity
  8
SCATOLA
100
AcDbPolyline
 62
7
  6
CONTINUOUS
 90
18
 70
0
 10
45.5
 20
41.1159885968
 10
45.4751333499
 20
41.1290960433
 10
45.4011624165
 20
41.1422034897
 10
45.2790307246
 20
41.1551437462
 10
45.1081213441
 20
41.1679146708
 10
44.8890512052
 20
41.1805184055
 10
44.6246146239
 20
41.192794185
 10
44.3142304645
 20
41.2047378085
 10
43.9584798627
 20
41.2163534768
 10
43.5619005415
 20
41.2274930282
 10
43.1239694925
 20
41.2381503637
 10
42.6452097239
 20
41.2483315821
 10
42.1317279836
 20
41.2579068187
 10
41.5830794896
 20
41.2668683107
 10
40.9997090237
 20
41.2752238208
 10
40.3890576797
 20
41.2828667714
 10
39.7507759946
 20
41.2897880349
 10
38.4008594722
 20
41.3014136895
  0
LWPOLYLINE
  5
3A0
100
AcDbEntity
  8
SCATOLA
100
AcDbPolyline
 62
7
  6
CONTINUOUS
 90
17
 70
0
 10
67.6159885716
 20
-11.4999999747
 10
67.6028811251
 20
-11.4751333247
 10
67.5897736787
 20
-11.4011623912
 10
67.5768334223
 20
-11.2790306994
 10
67.5640624976
 20
-11.1081213188
 10
67.5514587629
 20
-10.8890511799
 10
67.5391829834
 20
-10.6246145986
 10
67.5272393599
 20
-10.3142304392
 10
67.5156236916
 20
-9.9584798375
 10
67.5044841402
 20
-9.5619005162
 10
67.4938268047
 20
-9.1239694672
 10
67.4836455863
 20
-8.6452096987
 10
67.4740703498
 20
-8.1317279584
 10
67.4651088577
 20
-7.5830794643
 10
67.4567533477
 20
-6.9997089985
 10
67.449110397
 20
-6.3890576545
 10
67.4421891335
 20
-5.7507759693
  0
LINE
  5
3A1
100
AcDbEntity
  8
SCATOLA
100
AcDbLine
 62
7
  6
CONTINUOUS
 10
60.2242099741
 20
39.7731956335
 11
60.2242099741
 21
35.5000000253
  0
LINE
  5
3A2
100
AcDbEntity
  8
SCATOLA
100
AcDbLine
 62
7
  6
CONTINUOUS
 10
60.2242099741
 20
-39.773195583
 11
60.2242099741
 21
-35.4999999747
  0
LINE
  5
3A3
100
AcDbEntity
  8
SCATOLA
100
AcDbLine
 62
7
  6
CONTINUOUS
 10
60.5
 20
39.5000000253
 11
60.5
 21
35.5000000253
  0
LINE
  5
3A4
100
AcDbEntity
  8
SCATOLA
100
AcDbLine
 62
7
  6
CONTINUOUS
 10
60.5
 20
-39.4999999747
 11
60.5
 21
-35.4999999747
  0
LINE
  5
3A5
100
AcDbEntity
  8
SCATOLA
100
AcDbLine
 62
250
  6
CONTINUOUS
 10
62.0
 20
34.0000000253
 11
62.0
 21
33.7242099994
  0
LINE
  5
3A6
100
AcDbEntity
  8
SCATOLA
100
AcDbLine
 62
250
  6
CONTINUOUS
 10
62.0
 20
-33.9999999747
 11
62.0
 21
-33.7242099489
  0
LINE
  5
3A7
100
AcDbEntity
  8
SCATOLA
100
AcDbLine
 62
250
  6
CONTINUOUS
 10
62.0
 20
-39.4999999747
 11
62.0
 21
-41.4999999747
  0
LINE
  5
3A8
100
AcDbEntity
  8
SCATOLA
100
AcDbLine
 62
250
  6
CONTINUOUS
 10
62.0
 20
39.5000000253
 11
62.0
 21
41.5000000253
  0
LWPOLYLINE
  5
3A9
100
AcDbEntity
  8
SCATOLA
100
AcDbPolyline
 62
250
  6
CONTINUOUS
 90
10
 70
0
 10
47.9461426691
 20
-40.9499521865
 10
47.9495020425
 20
-40.9413294237
 10
47.9529886555
 20
-40.9327255694
 10
47.956602508
 20
-40.9241406235
 10
47.9603419739
 20
-40.9155745853
 10
47.9642086794
 20
-40.9070274556
 10
47.9682075031
 20
-40.8984992367
 10
47.9723400711
 20
-40.8899899295
 10
47.9766047573
 20
-40.8814995331
 10
47.9810015616
 20
-40.8730280476
  0
LWPOLYLINE
  5
3AA
100
AcDbEntity
  8
SCATOLA
100
AcDbPolyline
 62
7
  6
CONTINUOUS
 90
5
 70
0
 10
48.3916280796
 20
-40.7899672373
 10
48.4501424038
 20
-40.7358139759
 10
48.5105093471
 20
-40.6641581387
 10
48.5607620781
 20
-40.5850810824
 10
48.6
 20
-40.4999999747
  0
LWPOLYLINE
  5
3AB
100
AcDbEntity
  8
SCATOLA
100
AcDbPolyline
 62
250
  6
CONTINUOUS
 90
8
 70
0
 10
55.0538573308
 20
-40.9499521865
 10
55.051862475
 20
-40.9511767534
 10
55.0446324731
 20
-40.9523907459
 10
55.032167325
 20
-40.9535941638
 10
55.0144052435
 20
-40.9547953058
 10
54.9914080158
 20
-40.9559858732
 10
54.9633610037
 20
-40.9571409701
 10
54.9301043323
 20
-40.9582600126
  0
LWPOLYLINE
  5
3AC
100
AcDbEntity
  8
SCATOLA
100
AcDbPolyline
 62
250
  6
CONTINUOUS
 90
7
 70
0
 10
67.4499522038
 20
22.9461426944
 10
67.4436915739
 20
23.0396399036
 10
67.425000109
 20
23.1314615167
 10
67.3942127855
 20
23.2199619666
 10
67.3518813537
 20
23.3035552057
 10
67.2987644501
 20
23.3807431305
 10
67.2899672626
 20
23.3916281049
  0
LWPOLYLINE
  5
3AD
100
AcDbEntity
  8
SCATOLA
100
AcDbPolyline
 62
250
  6
CONTINUOUS
 90
10
 70
0
 10
67.3730240424
 20
22.981001587
 10
67.3679580881
 20
23.0651854064
 10
67.3528052358
 20
23.148147195
 10
67.3277854631
 20
23.2286825749
 10
67.2932619887
 20
23.305622393
 10
67.2497359989
 20
23.3778496939
 10
67.1978393718
 20
23.444315935
 10
67.1383255042
 20
23.5040562085
 10
67.0720583745
 20
23.5562032493
 10
67.0
 20
23.6000000253
  0
LINE
  5
3AE
100
AcDbEntity
  8
SCATOLA
100
AcDbLine
 62
250
  6
CONTINUOUS
 10
67.4582600379
 20
29.9301043576
 11
67.460368567
 21
29.8491066477
  0
LINE
  5
3AF
100
AcDbEntity
  8
SCATOLA
100
AcDbLine
 62
250
  6
CONTINUOUS
 10
67.460368567
 20
29.8491066477
 11
67.4622389107
 21
29.7503454148
  0
LINE
  5
3B0
100
AcDbEntity
  8
SCATOLA
100
AcDbLine
 62
250
  6
CONTINUOUS
 10
67.4622389107
 20
29.7503454148
 11
67.464495586
 21
29.5751129444
  0
LINE
  5
3B1
100
AcDbEntity
  8
SCATOLA
100
AcDbLine
 62
7
  6
CONTINUOUS
 10
67.4421891335
 20
-5.7507759693
 11
67.4305634789
 21
-4.4008594469
  0
LINE
  5
3B2
100
AcDbEntity
  8
SCATOLA
100
AcDbLine
 62
7
  6
CONTINUOUS
 10
67.7897880096
 20
5.7507760198
 11
67.8014136642
 21
4.4008594975
  0
LINE
  5
3B3
100
AcDbEntity
  8
SCATOLA
100
AcDbLine
 62
250
  6
CONTINUOUS
 10
67.464495586
 20
29.5751129444
 11
67.4659890144
 21
29.377189376
  0
LINE
  5
3B4
100
AcDbEntity
  8
SCATOLA
100
AcDbLine
 62
7
  6
CONTINUOUS
 10
67.4305634789
 20
-4.4008594469
 11
67.4221251231
 21
-2.9752959131
  0
LINE
  5
3B5
100
AcDbEntity
  8
SCATOLA
100
AcDbLine
 62
7
  6
CONTINUOUS
 10
67.8014136642
 20
4.4008594975
 11
67.80985202
 21
2.9752959637
  0
LINE
  5
3B6
100
AcDbEntity
  8
SCATOLA
100
AcDbLine
 62
7
  6
CONTINUOUS
 10
67.4221251231
 20
-2.9752959131
 11
67.4170163401
 21
-1.505272214
  0
LINE
  5
3B7
100
AcDbEntity
  8
SCATOLA
100
AcDbLine
 62
7
  6
CONTINUOUS
 10
67.80985202
 20
2.9752959637
 11
67.814960803
 21
1.5052722645
  0
LINE
  5
3B8
100
AcDbEntity
  8
SCATOLA
100
AcDbLine
 62
7
  6
CONTINUOUS
 10
67.4170163401
 20
-1.505272214
 11
67.4152858975
 21
0.0000000253
  0
LINE
  5
3B9
100
AcDbEntity
  8
SCATOLA
100
AcDbLine
 62
250
  6
CONTINUOUS
 10
67.4659890144
 20
29.377189376
 11
67.4667094077
 21
29.1000000253
  0
LINE
  5
3BA
100
AcDbEntity
  8
SCATOLA
100
AcDbLine
 62
7
  6
CONTINUOUS
 10
67.814960803
 20
1.5052722645
 11
67.8166912456
 21
0.0000000253
  0
LINE
  5
3BB
100
AcDbEntity
  8
SCATOLA
100
AcDbLine
 62
7
  6
CONTINUOUS
 10
66.0
 20
-33.9999999747
 11
66.0
 21
-35.4999999747
  0
LINE
  5
3BC
100
AcDbEntity
  8
SCATOLA
100
AcDbLine
 62
7
  6
CONTINUOUS
 10
66.0
 20
34.0000000253
 11
66.0
 21
35.5000000253
  0
LINE
  5
3BD
100
AcDbEntity
  8
SCATOLA
100
AcDbLine
 62
250
  6
CONTINUOUS
 10
66.2731956082
 20
-33.7242099489
 11
66.2731956082
 21
33.7242099994
  0
LINE
  5
3BE
100
AcDbEntity
  8
SCATOLA
100
AcDbLine
 62
7
  6
CONTINUOUS
 10
66.2757899725
 20
-35.4999999747
 11
66.2757899725
 21
-33.7242100023
  0
LINE
  5
3BF
100
AcDbEntity
  8
SCATOLA
100
AcDbLine
 62
7
  6
CONTINUOUS
 10
66.2757899725
 20
33.7242100528
 11
66.2757899725
 21
35.5000000253
  0
LINE
  5
3C0
100
AcDbEntity
  8
SCATOLA
100
AcDbLine
 62
250
  6
CONTINUOUS
 10
66.3469076856
 20
23.6000000253
 11
66.3469076856
 21
29.4000000253
  0
LINE
  5
3C1
100
AcDbEntity
  8
SCATOLA
100
AcDbLine
 62
7
  6
CONTINUOUS
 10
67.0
 20
23.6000000253
 11
67.0
 21
29.4000000253
  0
LINE
  5
3C2
100
AcDbEntity
  8
SCATOLA
100
AcDbLine
 62
250
  6
CONTINUOUS
 10
67.3730280729
 20
-35.4999999747
 11
67.3730280729
 21
22.9810015869
  0
LINE
  5
3C3
100
AcDbEntity
  8
SCATOLA
100
AcDbLine
 62
250
  6
CONTINUOUS
 10
67.3730280729
 20
30.0189984636
 11
67.3730280729
 21
35.5000000253
  0
LINE
  5
3C4
100
AcDbEntity
  8
ASSI
100
AcDbLine
 62
7
  6
CONTINUOUS
 10
68.0
 20
35.5000000253
 11
68.0
 21
-35.4999999747
  0
LINE
  5
3C5
100
AcDbEntity
  8
SCATOLA
100
AcDbLine
 62
7
  6
CONTINUOUS
 10
68.0
 20
-35.4999999747
 11
68.0
 21
35.5000000253
  0
LINE
  5
3C6
100
AcDbEntity
  8
SCATOLA
100
AcDbLine
 62
7
  6
CONTINUOUS
 10
67.4152858975
 20
0.0000000253
 11
67.4170163401
 21
1.5052722645
  0
LINE
  5
3C7
100
AcDbEntity
  8
SCATOLA
100
AcDbLine
 62
7
  6
CONTINUOUS
 10
67.8166912456
 20
0.0000000253
 11
67.814960803
 21
-1.505272214
  0
LINE
  5
3C8
100
AcDbEntity
  8
SCATOLA
100
AcDbLine
 62
250
  6
CONTINUOUS
 10
67.4667094077
 20
29.1000000253
 11
67.4663067072
 21
23.6914775366
  0
LINE
  5
3C9
100
AcDbEntity
  8
SCATOLA
100
AcDbLine
 62
7
  6
CONTINUOUS
 10
67.4170163401
 20
1.5052722645
 11
67.4221251231
 21
2.9752959637
  0
LINE
  5
3CA
100
AcDbEntity
  8
SCATOLA
100
AcDbLine
 62
7
  6
CONTINUOUS
 10
67.814960803
 20
-1.505272214
 11
67.80985202
 21
-2.9752959131
  0
LINE
  5
3CB
100
AcDbEntity
  8
SCATOLA
100
AcDbLine
 62
7
  6
CONTINUOUS
 10
67.4221251231
 20
2.9752959637
 11
67.4305634789
 21
4.4008594975
  0
LINE
  5
3CC
100
AcDbEntity
  8
SCATOLA
100
AcDbLine
 62
7
  6
CONTINUOUS
 10
67.80985202
 20
-2.9752959131
 11
67.8014136642
 21
-4.4008594469
  0
LINE
  5
3CD
100
AcDbEntity
  8
SCATOLA
100
AcDbLine
 62
250
  6
CONTINUOUS
 10
67.4663067072
 20
23.6914775366
 11
67.4650825363
 21
23.4887082608
  0
LWPOLYLINE
  5
3CE
100
AcDbEntity
  8
SCATOLA
100
AcDbPolyline
 62
7
  6
CONTINUOUS
 90
18
 70
0
 10
67.4305634789
 20
4.4008594975
 10
67.4421891335
 20
5.7507760198
 10
67.449110397
 20
6.389057705
 10
67.4567533477
 20
6.999709049
 10
67.4651088577
 20
7.5830795149
 10
67.4740703498
 20
8.1317280089
 10
67.4836455863
 20
8.6452097492
 10
67.4938268047
 20
9.1239695177
 10
67.5044841402
 20
9.5619005667
 10
67.5156236916
 20
9.958479888
 10
67.5272393599
 20
10.3142304898
 10
67.5391829834
 20
10.6246146491
 10
67.5514587629
 20
10.8890512305
 10
67.5640624976
 20
11.1081213694
 10
67.5768334223
 20
11.2790307499
 10
67.5897736787
 20
11.4011624417
 10
67.6028811251
 20
11.4751333752
 10
67.6159885716
 20
11.5000000253
  0
LWPOLYLINE
  5
3CF
100
AcDbEntity
  8
SCATOLA
100
AcDbPolyline
 62
7
  6
CONTINUOUS
 90
18
 70
0
 10
67.8014136642
 20
-4.4008594469
 10
67.7897880096
 20
-5.7507759693
 10
67.7828667461
 20
-6.3890576545
 10
67.7752237955
 20
-6.9997089985
 10
67.7668682854
 20
-7.5830794643
 10
67.7579067934
 20
-8.1317279584
 10
67.7483315569
 20
-8.6452096987
 10
67.7381503384
 20
-9.1239694672
 10
67.7274930029
 20
-9.5619005162
 10
67.7163534516
 20
-9.9584798375
 10
67.7047377832
 20
-10.3142304392
 10
67.6927941598
 20
-10.6246145986
 10
67.6805183802
 20
-10.8890511799
 10
67.6679146456
 20
-11.1081213188
 10
67.6551437209
 20
-11.2790306994
 10
67.6422034645
 20
-11.4011623912
 10
67.629096018
 20
-11.4751333247
 10
67.6159885716
 20
-11.4999999747
  0
LINE
  5
3D0
100
AcDbEntity
  8
SCATOLA
100
AcDbLine
 62
250
  6
CONTINUOUS
 10
67.4650825363
 20
23.4887082608
 11
67.4630672752
 21
23.3045155672
  0
LINE
  5
3D1
100
AcDbEntity
  8
SCATOLA
100
AcDbLine
 62
250
  6
CONTINUOUS
 10
67.4630672752
 20
23.3045155672
 11
67.4613314109
 21
23.1979959222
  0
LWPOLYLINE
  5
3D2
100
AcDbEntity
  8
SCATOLA
100
AcDbPolyline
 62
250
  6
CONTINUOUS
 90
10
 70
0
 10
67.4613314109
 20
23.1979959222
 10
67.4593420053
 20
23.1081393427
 10
67.4582585942
 20
23.0698484346
 10
67.4571397571
 20
23.0366057216
 10
67.455984927
 20
23.0085700265
 10
67.4547946709
 20
22.9855825266
 10
67.4535937911
 20
22.9678276052
 10
67.452390555
 20
22.9553667232
 10
67.4511766952
 20
22.9481384196
 10
67.4499522117
 20
22.9461426944
  0
LWPOLYLINE
  5
3D3
100
AcDbEntity
  8
SCATOLA
100
AcDbPolyline
 62
250
  6
CONTINUOUS
 90
10
 70
0
 10
66.3469076856
 20
29.4000000253
 10
66.3483948349
 20
29.425717396
 10
66.3524952706
 20
29.4516711366
 10
66.359206838
 20
29.4778612469
 10
66.368282547
 20
29.5044060205
 10
66.3799596886
 20
29.5311871639
 10
66.3949566281
 20
29.5578497964
 10
66.4134980151
 20
29.5842756243
 10
66.4353150788
 20
29.6105829412
 10
66.4603710907
 20
29.6367717472
  0
LWPOLYLINE
  5
3D4
100
AcDbEntity
  8
SCATOLA
100
AcDbPolyline
 62
250
  6
CONTINUOUS
 90
10
 70
0
 10
67.3730276287
 20
30.0189984636
 10
67.3679610327
 20
29.9348145204
 10
67.352807596
 20
29.8518526739
 10
67.3277873022
 20
29.7713172867
 10
67.2932633724
 20
29.6943774965
 10
67.2497369928
 20
29.6221502433
 10
67.1978400389
 20
29.5556840551
 10
67.1383259022
 20
29.4959438259
 10
67.0720585533
 20
29.4437968087
 10
67.0
 20
29.4000000253
  0
LWPOLYLINE
  5
3D5
100
AcDbEntity
  8
SCATOLA
100
AcDbPolyline
 62
250
  6
CONTINUOUS
 90
6
 70
0
 10
67.4499650636
 20
30.0538573557
 10
67.4437018431
 20
29.9603600081
 10
67.4250079818
 20
29.8685385675
 10
67.3942184886
 20
29.780038548
 10
67.3518851359
 20
29.6964459412
 10
67.3015368335
 20
29.6227804688
  0
LWPOLYLINE
  5
3D6
100
AcDbEntity
  8
SCATOLA
100
AcDbPolyline
 62
250
  6
CONTINUOUS
 90
10
 70
0
 10
54.636771722
 20
-39.9603710655
 10
54.5993467843
 20
-40.0600203034
 10
54.56283851
 20
-40.1543113469
 10
54.52814111
 20
-40.2409346896
 10
54.496104441
 20
-40.3177686329
 10
54.4675131894
 20
-40.3829312537
 10
54.4430676515
 20
-40.4348264991
 10
54.4233665813
 20
-40.4721832791
 10
54.4088925246
 20
-40.4940865998
 10
54.4
 20
-40.4999999747
  0
LWPOLYLINE
  5
3D7
100
AcDbEntity
  8
SCATOLA
100
AcDbPolyline
 62
7
  6
CONTINUOUS
 90
5
 70
0
 10
67.2899672626
 20
23.3916281049
 10
67.2358140012
 20
23.450142429
 10
67.1641581639
 20
23.5105093724
 10
67.0850811077
 20
23.5607621034
 10
67.0
 20
23.6000000253
  0
LWPOLYLINE
  5
3D8
100
AcDbEntity
  8
SCATOLA
100
AcDbPolyline
 62
7
  6
CONTINUOUS
 90
17
 70
0
 10
67.6159885716
 20
11.5000000253
 10
67.629096018
 20
11.4751333752
 10
67.6422034645
 20
11.4011624417
 10
67.6551437209
 20
11.2790307499
 10
67.6679146456
 20
11.1081213694
 10
67.6805183802
 20
10.8890512305
 10
67.6927941598
 20
10.6246146491
 10
67.7047377832
 20
10.3142304898
 10
67.7163534516
 20
9.958479888
 10
67.7274930029
 20
9.5619005667
 10
67.7381503384
 20
9.1239695177
 10
67.7483315569
 20
8.6452097492
 10
67.7579067934
 20
8.1317280089
 10
67.7668682854
 20
7.5830795149
 10
67.7752237955
 20
6.999709049
 10
67.7828667461
 20
6.389057705
 10
67.7897880096
 20
5.7507760198
  0
LINE
  5
3D9
100
AcDbEntity
  8
SCATOLA
100
AcDbLine
 62
7
  6
CONTINUOUS
 10
60.5
 20
-39.4999999747
 11
60.2242099741
 21
-39.7757900006
  0
LINE
  5
3DA
100
AcDbEntity
  8
SCATOLA
100
AcDbLine
 62
7
  6
CONTINUOUS
 10
66.0
 20
-33.9999999747
 11
66.2757899725
 21
-33.7242100023
  0
LINE
  5
3DB
100
AcDbEntity
  8
SCATOLA
100
AcDbLine
 62
7
  6
CONTINUOUS
 10
60.5
 20
39.5000000253
 11
60.2242099741
 21
39.7757900511
  0
LINE
  5
3DC
100
AcDbEntity
  8
SCATOLA
100
AcDbLine
 62
7
  6
CONTINUOUS
 10
66.0
 20
34.0000000253
 11
66.2757899725
 21
33.7242100528
  0
LWPOLYLINE
  5
3DD
100
AcDbEntity
  8
SCATOLA
100
AcDbPolyline
 62
250
  6
CONTINUOUS
 90
8
 70
0
 10
67.4499522117
 20
30.0538573561
 10
67.4511767787
 20
30.0518625003
 10
67.4523907711
 20
30.0446324984
 10
67.453594189
 20
30.0321673503
 10
67.454795331
 20
30.0144052688
 10
67.4559858985
 20
29.9914080411
 10
67.4571409954
 20
29.963361029
 10
67.4582600379
 20
29.9301043576
  0
LWPOLYLINE
  5
3DE
100
AcDbEntity
  8
SCATOLA
100
AcDbPolyline
 62
250
  6
CONTINUOUS
 90
7
 70
0
 10
66.3772865459
 20
23.4761308664
 10
66.3678971518
 20
23.497098054
 10
66.3602346821
 20
23.5179363105
 10
66.3543025528
 20
23.5386456358
 10
66.3501031164
 20
23.5592260301
 10
66.3476378846
 20
23.5796774932
 10
66.3469076856
 20
23.6000000253
  0
CIRCLE
  5
3DF
100
AcDbEntity
  8
SCATOLA
100
AcDbCircle
 62
7
  6
CONTINUOUS
 10
-51.5
 20
-26.4999999747
 40
9.5
  0
CIRCLE
  5
3E0
100
AcDbEntity
  8
SCATOLA
100
AcDbCircle
 62
250
  6
CONTINUOUS
 10
-51.5
 20
-26.4999999747
 40
8.9999972578
  0
ARC
  5
3E1
100
AcDbEntity
  8
ASSI
100
AcDbCircle
 62
7
  6
CONTINUOUS
 10
-62.0
 20
-35.4999999747
 40
6.0
100
AcDbArc
 50
180.0
 51
270.0
  0
ARC
  5
3E2
100
AcDbEntity
  8
SCATOLA
100
AcDbCircle
 62
7
  6
CONTINUOUS
 10
-62.0
 20
-35.4999999747
 40
6.0
100
AcDbArc
 50
180.0
 51
270.0
  0
ARC
  5
3E3
100
AcDbEntity
  8
SCATOLA
100
AcDbCircle
 62
250
  6
CONTINUOUS
 10
-62.0
 20
-35.4999999747
 40
5.3730280702
100
AcDbArc
 50
180.0
 51
270.0
  0
ARC
  5
3E4
100
AcDbEntity
  8
SCATOLA
100
AcDbCircle
 62
7
  6
CONTINUOUS
 10
-62.0
 20
-35.4999999747
 40
4.2757899725
100
AcDbArc
 50
180.0
 51
270.0
  0
ARC
  5
3E5
100
AcDbEntity
  8
SCATOLA
100
AcDbCircle
 62
7
  6
CONTINUOUS
 10
-62.0
 20
-35.4999999747
 40
4.0
100
AcDbArc
 50
180.0
 51
270.0
  0
CIRCLE
  5
3E6
100
AcDbEntity
  8
SCATOLA
100
AcDbCircle
 62
7
  6
CONTINUOUS
 10
-51.5
 20
-26.4999999747
 40
2.25
  0
CIRCLE
  5
3E7
100
AcDbEntity
  8
SCATOLA
100
AcDbCircle
 62
7
  6
CONTINUOUS
 10
-51.5
 20
-26.4999999747
 40
1.8
  0
ARC
  5
3E8
100
AcDbEntity
  8
SCATOLA
100
AcDbCircle
 62
7
  6
CONTINUOUS
 10
-62.0
 20
-35.4999999747
 40
1.7757900259
100
AcDbArc
 50
0.0
 51
90.0
  0
CIRCLE
  5
3E9
100
AcDbEntity
  8
SCATOLA
100
AcDbCircle
 62
7
  6
CONTINUOUS
 10
-51.5
 20
-26.4999999747
 40
1.5
  0
ARC
  5
3EA
100
AcDbEntity
  8
SCATOLA
100
AcDbCircle
 62
7
  6
CONTINUOUS
 10
-62.0
 20
-35.4999999747
 40
1.5
100
AcDbArc
 50
0.0
 51
90.0
  0
CIRCLE
  5
3EB
100
AcDbEntity
  8
SCATOLA
100
AcDbCircle
 62
7
  6
CONTINUOUS
 10
-51.5
 20
26.5000000253
 40
9.5
  0
CIRCLE
  5
3EC
100
AcDbEntity
  8
SCATOLA
100
AcDbCircle
 62
250
  6
CONTINUOUS
 10
-51.5
 20
26.5000000253
 40
8.9999972577
  0
ARC
  5
3ED
100
AcDbEntity
  8
ASSI
100
AcDbCircle
 62
7
  6
CONTINUOUS
 10
-62.0
 20
35.5000000253
 40
6.0
100
AcDbArc
 50
90.0
 51
180.0
  0
ARC
  5
3EE
100
AcDbEntity
  8
SCATOLA
100
AcDbCircle
 62
7
  6
CONTINUOUS
 10
-62.0
 20
35.5000000253
 40
6.0
100
AcDbArc
 50
90.0
 51
180.0
  0
ARC
  5
3EF
100
AcDbEntity
  8
SCATOLA
100
AcDbCircle
 62
250
  6
CONTINUOUS
 10
-62.0
 20
35.5000000253
 40
5.3730280702
100
AcDbArc
 50
90.0
 51
180.0
  0
CIRCLE
  5
3F0
100
AcDbEntity
  8
SCATOLA
100
AcDbCircle
 62
7
  6
CONTINUOUS
 10
-45.3
 20
0.0000000253
 40
4.8
  0
CIRCLE
  5
3F1
100
AcDbEntity
  8
SCATOLA
100
AcDbCircle
 62
250
  6
CONTINUOUS
 10
-45.3
 20
0.0000000253
 40
4.2999929909
  0
ARC
  5
3F2
100
AcDbEntity
  8
SCATOLA
100
AcDbCircle
 62
7
  6
CONTINUOUS
 10
-62.0
 20
35.5000000253
 40
4.2757899725
100
AcDbArc
 50
90.0
 51
180.0
  0
ARC
  5
3F3
100
AcDbEntity
  8
SCATOLA
100
AcDbCircle
 62
7
  6
CONTINUOUS
 10
-62.0
 20
35.5000000253
 40
4.0
100
AcDbArc
 50
90.0
 51
180.0
  0
CIRCLE
  5
3F4
100
AcDbEntity
  8
SCATOLA
100
AcDbCircle
 62
7
  6
CONTINUOUS
 10
-51.5
 20
26.5000000253
 40
2.25
  0
CIRCLE
  5
3F5
100
AcDbEntity
  8
SCATOLA
100
AcDbCircle
 62
7
  6
CONTINUOUS
 10
-51.5
 20
26.5000000253
 40
1.8
  0
ARC
  5
3F6
100
AcDbEntity
  8
SCATOLA
100
AcDbCircle
 62
7
  6
CONTINUOUS
 10
-62.0
 20
35.5000000253
 40
1.7757900259
100
AcDbArc
 50
270.0
 51
360.0
  0
ARC
  5
3F7
100
AcDbEntity
  8
SCATOLA
100
AcDbCircle
 62
7
  6
CONTINUOUS
 10
-62.0
 20
35.5000000253
 40
1.5
100
AcDbArc
 50
270.0
 51
360.0
  0
CIRCLE
  5
3F8
100
AcDbEntity
  8
SCATOLA
100
AcDbCircle
 62
7
  6
CONTINUOUS
 10
-51.5
 20
26.5000000253
 40
1.5
  0
CIRCLE
  5
3F9
100
AcDbEntity
  8
SCATOLA
100
AcDbCircle
 62
7
  6
CONTINUOUS
 10
51.5
 20
-26.4999999747
 40
9.5
  0
CIRCLE
  5
3FA
100
AcDbEntity
  8
SCATOLA
100
AcDbCircle
 62
250
  6
CONTINUOUS
 10
51.5
 20
-26.4999999747
 40
8.9999972577
  0
ARC
  5
3FB
100
AcDbEntity
  8
ASSI
100
AcDbCircle
 62
7
  6
CONTINUOUS
 10
62.0
 20
-35.4999999747
 40
6.0
100
AcDbArc
 50
270.0
 51
360.0
  0
ARC
  5
3FC
100
AcDbEntity
  8
SCATOLA
100
AcDbCircle
 62
7
  6
CONTINUOUS
 10
62.0
 20
-35.4999999747
 40
6.0
100
AcDbArc
 50
270.0
 51
360.0
  0
ARC
  5
3FD
100
AcDbEntity
  8
SCATOLA
100
AcDbCircle
 62
250
  6
CONTINUOUS
 10
62.0
 20
-35.4999999747
 40
5.3730280702
100
AcDbArc
 50
270.0
 51
360.0
  0
ARC
  5
3FE
100
AcDbEntity
  8
SCATOLA
100
AcDbCircle
 62
7
  6
CONTINUOUS
 10
62.0
 20
-35.4999999747
 40
4.2757899725
100
AcDbArc
 50
270.0
 51
360.0
  0
ARC
  5
3FF
100
AcDbEntity
  8
SCATOLA
100
AcDbCircle
 62
7
  6
CONTINUOUS
 10
62.0
 20
-35.4999999747
 40
4.0
100
AcDbArc
 50
270.0
 51
360.0
  0
CIRCLE
  5
400
100
AcDbEntity
  8
SCATOLA
100
AcDbCircle
 62
7
  6
CONTINUOUS
 10
51.5
 20
-26.4999999747
 40
2.25
  0
CIRCLE
  5
401
100
AcDbEntity
  8
SCATOLA
100
AcDbCircle
 62
7
  6
CONTINUOUS
 10
51.5
 20
-26.4999999747
 40
1.8
  0
ARC
  5
402
100
AcDbEntity
  8
SCATOLA
100
AcDbCircle
 62
7
  6
CONTINUOUS
 10
62.0
 20
-35.4999999747
 40
1.7757900259
100
AcDbArc
 50
90.0
 51
180.0
  0
CIRCLE
  5
403
100
AcDbEntity
  8
SCATOLA
100
AcDbCircle
 62
7
  6
CONTINUOUS
 10
51.5
 20
-26.4999999747
 40
1.5
  0
ARC
  5
404
100
AcDbEntity
  8
SCATOLA
100
AcDbCircle
 62
7
  6
CONTINUOUS
 10
62.0
 20
-35.4999999747
 40
1.5
100
AcDbArc
 50
90.0
 51
180.0
  0
CIRCLE
  5
405
100
AcDbEntity
  8
SCATOLA
100
AcDbCircle
 62
7
  6
CONTINUOUS
 10
-0.0
 20
0.0000000253
 40
11.25
  0
ARC
  5
406
100
AcDbEntity
  8
SCATOLA
100
AcDbCircle
 62
7
  6
CONTINUOUS
 10
-0.0
 20
0.0000000253
 40
11.0
100
AcDbArc
 50
185.7391704773
 51
264.2608295227
  0
ARC
  5
407
100
AcDbEntity
  8
SCATOLA
100
AcDbCircle
 62
7
  6
CONTINUOUS
 10
-0.0
 20
0.0000000253
 40
11.0
100
AcDbArc
 50
275.7391704773
 51
354.2608295227
  0
ARC
  5
408
100
AcDbEntity
  8
SCATOLA
100
AcDbCircle
 62
7
  6
CONTINUOUS
 10
-0.0
 20
0.0000000253
 40
11.0
100
AcDbArc
 50
95.7391704773
 51
174.2608295227
  0
ARC
  5
409
100
AcDbEntity
  8
SCATOLA
100
AcDbCircle
 62
7
  6
CONTINUOUS
 10
-0.0
 20
0.0000000253
 40
11.0
100
AcDbArc
 50
5.7391704773
 51
84.2608295227
  0
ARC
  5
40A
100
AcDbEntity
  8
SCATOLA
100
AcDbCircle
 62
7
  6
CONTINUOUS
 10
-0.0
 20
0.0000000253
 40
10.1299689469
100
AcDbArc
 50
6.233965798
 51
83.766034202
  0
ARC
  5
40B
100
AcDbEntity
  8
SCATOLA
100
AcDbCircle
 62
7
  6
CONTINUOUS
 10
-0.0
 20
0.0000000253
 40
10.1299689469
100
AcDbArc
 50
96.233965798
 51
173.766034202
  0
ARC
  5
40C
100
AcDbEntity
  8
SCATOLA
100
AcDbCircle
 62
7
  6
CONTINUOUS
 10
-0.0
 20
0.0000000253
 40
10.1299689469
100
AcDbArc
 50
186.233965798
 51
263.766034202
  0
ARC
  5
40D
100
AcDbEntity
  8
SCATOLA
100
AcDbCircle
 62
7
  6
CONTINUOUS
 10
-0.0
 20
0.0000000253
 40
10.1299689469
100
AcDbArc
 50
276.233965798
 51
353.766034202
  0
ARC
  5
40E
100
AcDbEntity
  8
SCATOLA
100
AcDbCircle
 62
7
  6
CONTINUOUS
 10
2.558889799
 20
29.0402578407
 40
0.05
100
AcDbArc
 50
118.332200809
 51
249.0297526306
  0
CIRCLE
  5
40F
100
AcDbEntity
  8
SCATOLA
100
AcDbCircle
 62
7
  6
CONTINUOUS
 10
45.3
 20
0.0000000253
 40
4.8
  0
CIRCLE
  5
410
100
AcDbEntity
  8
SCATOLA
100
AcDbCircle
 62
250
  6
CONTINUOUS
 10
45.3
 20
0.0000000253
 40
4.299992991
  0
CIRCLE
  5
411
100
AcDbEntity
  8
SCATOLA
100
AcDbCircle
 62
7
  6
CONTINUOUS
 10
51.5
 20
26.5000000253
 40
9.5
  0
CIRCLE
  5
412
100
AcDbEntity
  8
SCATOLA
100
AcDbCircle
 62
250
  6
CONTINUOUS
 10
51.5
 20
26.5000000253
 40
8.9999972578
  0
ARC
  5
413
100
AcDbEntity
  8
ASSI
100
AcDbCircle
 62
7
  6
CONTINUOUS
 10
62.0
 20
35.5000000253
 40
6.0
100
AcDbArc
 50
0.0
 51
90.0
  0
ARC
  5
414
100
AcDbEntity
  8
SCATOLA
100
AcDbCircle
 62
7
  6
CONTINUOUS
 10
62.0
 20
35.5000000253
 40
6.0
100
AcDbArc
 50
0.0
 51
90.0
  0
ARC
  5
415
100
AcDbEntity
  8
SCATOLA
100
AcDbCircle
 62
250
  6
CONTINUOUS
 10
62.0
 20
35.5000000253
 40
5.3730280702
100
AcDbArc
 50
0.0
 51
90.0
  0
ARC
  5
416
100
AcDbEntity
  8
SCATOLA
100
AcDbCircle
 62
7
  6
CONTINUOUS
 10
62.0
 20
35.5000000253
 40
4.2757899725
100
AcDbArc
 50
0.0
 51
90.0
  0
ARC
  5
417
100
AcDbEntity
  8
SCATOLA
100
AcDbCircle
 62
7
  6
CONTINUOUS
 10
62.0
 20
35.5000000253
 40
4.0
100
AcDbArc
 50
0.0
 51
90.0
  0
CIRCLE
  5
418
100
AcDbEntity
  8
SCATOLA
100
AcDbCircle
 62
7
  6
CONTINUOUS
 10
51.5
 20
26.5000000253
 40
2.25
  0
CIRCLE
  5
419
100
AcDbEntity
  8
SCATOLA
100
AcDbCircle
 62
7
  6
CONTINUOUS
 10
51.5
 20
26.5000000253
 40
1.8
  0
ARC
  5
41A
100
AcDbEntity
  8
SCATOLA
100
AcDbCircle
 62
7
  6
CONTINUOUS
 10
62.0
 20
35.5000000253
 40
1.7757900259
100
AcDbArc
 50
180.0
 51
270.0
  0
CIRCLE
  5
41B
100
AcDbEntity
  8
SCATOLA
100
AcDbCircle
 62
7
  6
CONTINUOUS
 10
51.5
 20
26.5000000253
 40
1.5
  0
ARC
  5
41C
100
AcDbEntity
  8
SCATOLA
100
AcDbCircle
 62
7
  6
CONTINUOUS
 10
62.0
 20
35.5000000253
 40
1.5
100
AcDbArc
 50
180.0
 51
270.0
  0
ENDSEC
  0
SECTION
  2
OBJECTS
  0
DICTIONARY
  5
C
100
AcDbDictionary
280
0
281
1
  3
ACAD_GROUP
350
D
  3
ACAD_MLINESTYLE
350
17
  3
ACAD_LAYOUT
350
1A
  3
ACAD_PLOTSETTINGS
350
19
  3
ACAD_PLOTSTYLENAME
350
E
  0
DICTIONARY
  5
D
102
{ACAD_REACTORS
330
C
102
}
100
AcDbDictionary
280
0
281
1
  0
ACDBDICTIONARYWDFLT
  5
E
102
{ACAD_REACTORS
330
C
102
}
100
AcDbDictionary
281
1
  3
Normal
350
F
100
AcDbDictionaryWithDefault
340
F
  0
DICTIONARY
  5
17
102
{ACAD_REACTORS
330
C
102
}
100
AcDbDictionary
280
0
281
1
  3
Standard
350
18
  0
DICTIONARY
  5
19
102
{ACAD_REACTORS
330
C
102
}
100
AcDbDictionary
281
1
  0
DICTIONARY
  5
1A
102
{ACAD_REACTORS
330
C
102
}
100
AcDbDictionary
281
1
  3
Model
350
41D
  3
Layout1
350
41E
  0
ACDBPLACEHOLDER
  5
F
102
{ACAD_REACTORS
330
E
102
}
  0
MLINESTYLE
  5
18
102
{ACAD_REACTORS
330
17
102
}
100
AcDbMlineStyle
  2
STANDARD
 70
0
  3

 62
256
 51
90.0
 52
90.0
 71
2
 49
0.5
 62
256
  6
BYLAYER
 49
-0.5
 62
256
  6
BYLAYER
  0
LAYOUT
  5
41D
102
{ACAD_REACTORS
330
1A
102
}
100
AcDbPlotSettings
  1

  2
none_device
  4
ISO_A4_(297.00_x_210.00_MM)
  6

 40
0.0
 41
0.0
 42
0.0
 43
0.0
 44
297.0
 45
210.0
 46
0.0
 47
0.0
 48
0.0
 49
0.0
140
0.0
141
0.0
142
1.0
143
1.0
 70
1024
 72
1
 73
0
 74
0
  7

 75
0
147
1.0
148
0.0
149
0.0
100
AcDbLayout
  1
Model
 70
0
 71
0
 10
0.0
 20
0.0
 11
297.0
 21
210.0
 12
0.0
 22
0.0
 32
0.0
 14
0.0
 24
0.0
 34
0.0
 15
0.0
 25
0.0
 35
0.0
146
0.0
 13
0.0
 23
0.0
 33
0.0
 16
1.0
 26
0.0
 36
0.0
 17
0.0
 27
1.0
 37
0.0
 76
0
330
21E
345
0
346
0
  0
LAYOUT
  5
41E
102
{ACAD_REACTORS
330
1A
102
}
100
AcDbPlotSettings
  1

  2
none_device
  4
ISO_A4_(297.00_x_210.00_MM)
  6

 40
0.0
 41
0.0
 42
0.0
 43
0.0
 44
297.0
 45
210.0
 46
0.0
 47
0.0
 48
0.0
 49
0.0
140
0.0
141
0.0
142
1.0
143
1.0
 70
0
 72
1
 73
0
 74
0
  7

 75
0
147
1.0
148
0.0
149
0.0
100
AcDbLayout
  1
Layout1
 70
0
 71
1
 10
0.0
 20
0.0
 11
297.0
 21
210.0
 12
0.0
 22
0.0
 32
0.0
 14
0.0
 24
0.0
 34
0.0
 15
0.0
 25
0.0
 35
0.0
146
0.0
 13
0.0
 23
0.0
 33
0.0
 16
1.0
 26
0.0
 36
0.0
 17
0.0
 27
1.0
 37
0.0
 76
0
330
21F
345
0
346
0
  0
ENDSEC
  0
EOF
