  0
SECTION
  2
HEADER
  9
$ACADVER
  1
AC1015
  9
$DWGCODEPAGE
  3
ANSI_1252
  9
$EXTMAX
 10
297.0
 20
210.0
 30
0.0
  9
$EXTMIN
 10
0.0
 20
0.0
 30
0.0
  9
$LIMMIN
 10
0.0
 20
0.0
  9
$LIMMAX
 10
297.0
 20
210.0
  9
$VIEWCTR
 10
148.5
 20
105.0
  9
$VIEWSIZE
 40
210.0
  9
$CLAYER
  8
0
  9
$LTSCALE
 40
16.335
  9
$CELTYPE
  6
BYLAYER
  9
$DIMSCALE
 40
1.0
  9
$DIMASZ
 40
3.0
  9
$DIMEXO
 40
1.85625
  9
$DIMDLI
 40
11.286
  9
$DIMEXE
 40
5.346
  9
$DIMCEN
 40
2.673
  9
$DIMLFAC
 40
1.0
  9
$DIMBLK
  1
_FILLED
  9
$DIMTXT
 40
3.0
  9
$DIMTOL
 70
1
  9
$DIMLIM
 70
0
  9
$DIMTFAC
 40
1.0
  9
$DIMTP
 40
0.01
  9
$DIMTM
 40
0.01
  9
$PDMODE
 70
3
  9
$PDSIZE
 40
3.0
  9
$HANDSEED
  5
5A4
  9
$TILEMODE
 70
1
  9
$MEASUREMENT
 70
1
  9
$INSUNITS
 70
4
  0
ENDSEC
  0
SECTION
  2
CLASSES
  0
CLASS
  1
ACDBDICTIONARYWDFLT
  2
AcDbDictionaryWithDefault
  3
AutoCAD 2000
 90
0
280
0
281
0
  0
CLASS
  1
ACDBPLACEHOLDER
  2
AcDbPlaceHolder
  3
AutoCAD 2000
 90
0
280
0
281
0
  0
CLASS
  1
LAYOUT
  2
AcDbLayout
  3
AutoCAD 2000
 90
0
280
0
281
0
  0
ENDSEC
  0
SECTION
  2
TABLES
  0
TABLE
  2
VPORT
  5
8
100
AcDbSymbolTable
 70
2
  0
VPORT
  5
1F4
100
AcDbSymbolTableRecord
100
AcDbViewportTableRecord
  2
*ACTIVE
 70
0
 10
0.0
 20
0.0
 11
1.0
 21
1.0
 12
148.5
 22
105.0
 13
0.0
 23
0.0
 14
1.0
 24
1.0
 15
0.0
 25
0.0
 16
0.0
 26
0.0
 36
1.0
 17
0.0
 27
0.0
 37
0.0
 40
210.0
 41
1.4142857143
 42
50.0
 43
0.0
 44
0.0
 50
0.0
 51
0.0
 71
0
 72
100
 73
1
 74
1
 75
0
 76
0
 77
0
 78
0
  0
ENDTAB
  0
TABLE
  2
LTYPE
  5
5
100
AcDbSymbolTable
 70
6
  0
LTYPE
  5
14
100
AcDbSymbolTableRecord
100
AcDbLinetypeTableRecord
  2
BYBLOCK
 70
0
  3

 72
65
 73
0
 40
0.0
  0
LTYPE
  5
15
100
AcDbSymbolTableRecord
100
AcDbLinetypeTableRecord
  2
BYLAYER
 70
0
  3

 72
65
 73
0
 40
0.0
  0
LTYPE
  5
16
100
AcDbSymbolTableRecord
100
AcDbLinetypeTableRecord
  2
CONTINUOUS
 70
64
  3
Solid line
 72
65
 73
0
 40
0.0
  0
LTYPE
  5
1F5
100
AcDbSymbolTableRecord
100
AcDbLinetypeTableRecord
  2
CENTER
 70
64
  3
____ _ ____ _ ____ _ ____ _ ____ _ ____ _ ____
 72
65
 73
4
 40
0.6
 49
0.375
 74
0
 49
-0.075
 74
0
 49
0.075
 74
0
 49
-0.075
 74
0
  0
LTYPE
  5
1F6
100
AcDbSymbolTableRecord
100
AcDbLinetypeTableRecord
  2
HIDDEN
 70
64
  3
- - - - - - - - - - - - - - - - - - - -
 72
65
 73
2
 40
0.2
 49
0.1
 74
0
 49
-0.1
 74
0
  0
LTYPE
  5
1F7
100
AcDbSymbolTableRecord
100
AcDbLinetypeTableRecord
  2
PHANTOM
 70
64
  3
_____ _ _ _____ _ _ _____ _ _ _____
 72
65
 73
6
 40
0.8
 49
0.45
 74
0
 49
-0.05
 74
0
 49
0.1
 74
0
 49
-0.05
 74
0
 49
0.1
 74
0
 49
-0.05
 74
0
  0
LTYPE
  5
1F8
100
AcDbSymbolTableRecord
100
AcDbLinetypeTableRecord
  2
DOT
 70
64
  3
. . . . . . . . . . . . . . . . . . . .
 72
65
 73
2
 40
0.2
 49
0.1
 74
0
 49
-0.1
 74
0
  0
LTYPE
  5
1F9
100
AcDbSymbolTableRecord
100
AcDbLinetypeTableRecord
  2
DASHED
 70
64
  3
- - - - - - - - - - - - - - - - - - - -
 72
65
 73
2
 40
0.2
 49
0.1
 74
0
 49
-0.1
 74
0
  0
ENDTAB
  0
TABLE
  2
LAYER
  5
2
100
AcDbSymbolTable
 70
36
  0
LAYER
  5
10
100
AcDbSymbolTableRecord
100
AcDbLayerTableRecord
  2
0
 70
0
 62
7
  6
CONTINUOUS
370
-3
390
F
  0
LAYER
  5
1FA
100
AcDbSymbolTableRecord
100
AcDbLayerTableRecord
  2
DEFAULT_1
 70
0
 62
7
  6
CENTER
370
-3
390
F
  0
LAYER
  5
1FB
100
AcDbSymbolTableRecord
100
AcDbLayerTableRecord
  2
DEFAULT_2
 70
0
 62
7
  6
HIDDEN
370
-3
390
F
  0
LAYER
  5
1FC
100
AcDbSymbolTableRecord
100
AcDbLayerTableRecord
  2
DEFAULT_3
 70
0
 62
7
  6
PHANTOM
370
-3
390
F
  0
LAYER
  5
1FD
100
AcDbSymbolTableRecord
100
AcDbLayerTableRecord
  2
ASSI
 70
0
 62
7
  6
CONTINUOUS
370
-3
390
F
  0
LAYER
  5
1FE
100
AcDbSymbolTableRecord
100
AcDbLayerTableRecord
  2
COORDINATE
 70
0
 62
7
  6
CONTINUOUS
370
-3
390
F
  0
LAYER
  5
1FF
100
AcDbSymbolTableRecord
100
AcDbLayerTableRecord
  2
COPY_PUBLISH
 70
0
 62
7
  6
CONTINUOUS
370
-3
390
F
  0
LAYER
  5
200
100
AcDbSymbolTableRecord
100
AcDbLayerTableRecord
  2
COSMETICI
 70
0
 62
7
  6
CONTINUOUS
370
-3
390
F
  0
LAYER
  5
201
100
AcDbSymbolTableRecord
100
AcDbLayerTableRecord
  2
CURVE
 70
0
 62
7
  6
CONTINUOUS
370
-3
390
F
  0
LAYER
  5
202
100
AcDbSymbolTableRecord
100
AcDbLayerTableRecord
  2
DRAFT
 70
0
 62
7
  6
CONTINUOUS
370
-3
390
F
  0
LAYER
  5
203
100
AcDbSymbolTableRecord
100
AcDbLayerTableRecord
  2
IMPORT_IGES
 70
0
 62
7
  6
CONTINUOUS
370
-3
390
F
  0
LAYER
  5
204
100
AcDbSymbolTableRecord
100
AcDbLayerTableRecord
  2
NOTE
 70
0
 62
7
  6
CONTINUOUS
370
-3
390
F
  0
LAYER
  5
205
100
AcDbSymbolTableRecord
100
AcDbLayerTableRecord
  2
PIANI
 70
0
 62
7
  6
CONTINUOUS
370
-3
390
F
  0
LAYER
  5
206
100
AcDbSymbolTableRecord
100
AcDbLayerTableRecord
  2
PUNTI
 70
0
 62
7
  6
CONTINUOUS
370
-3
390
F
  0
LAYER
  5
207
100
AcDbSymbolTableRecord
100
AcDbLayerTableRecord
  2
RACCORDO
 70
0
 62
7
  6
CONTINUOUS
370
-3
390
F
  0
LAYER
  5
208
100
AcDbSymbolTableRecord
100
AcDbLayerTableRecord
  2
SIMBOLI
 70
0
 62
7
  6
CONTINUOUS
370
-3
390
F
  0
LAYER
  5
209
100
AcDbSymbolTableRecord
100
AcDbLayerTableRecord
  2
SMUSSO
 70
0
 62
7
  6
CONTINUOUS
370
-3
390
F
  0
LAYER
  5
20A
100
AcDbSymbolTableRecord
100
AcDbLayerTableRecord
  2
SNAPLINE
 70
0
 62
7
  6
CONTINUOUS
370
-3
390
F
  0
LAYER
  5
20B
100
AcDbSymbolTableRecord
100
AcDbLayerTableRecord
  2
SUPERFICI
 70
0
 62
7
  6
CONTINUOUS
370
-3
390
F
  0
LAYER
  5
20C
100
AcDbSymbolTableRecord
100
AcDbLayerTableRecord
  2
TRASH
 70
0
 62
7
  6
CONTINUOUS
370
-3
390
F
  0
ENDTAB
  0
TABLE
  2
STYLE
  5
3
100
AcDbSymbolTable
 70
1
  0
STYLE
  5
11
100
AcDbSymbolTableRecord
100
AcDbTextStyleTableRecord
  2
STANDARD
 70
0
 40
0.0
 41
0.8
 50
0.0
 71
0
 42
0.2
  3
txt
  4

  0
STYLE
  5
20D
100
AcDbSymbolTableRecord
100
AcDbTextStyleTableRecord
  2
TEXTSTYLE_1
 70
0
 40
0.0
 41
0.8
 50
0.0
 71
0
 42
0.2
  3
gdt
  4

  0
ENDTAB
  0
TABLE
  2
VIEW
  5
6
100
AcDbSymbolTable
 70
0
  0
ENDTAB
  0
TABLE
  2
UCS
  5
7
100
AcDbSymbolTable
 70
0
  0
ENDTAB
  0
TABLE
  2
APPID
  5
9
100
AcDbSymbolTable
 70
1
  0
APPID
  5
20E
100
AcDbSymbolTableRecord
100
AcDbRegAppTableRecord
  2
ACAD
 70
0
  0
ENDTAB
  0
TABLE
  2
BLOCK_RECORD
  5
1
100
AcDbSymbolTable
 70
0
  0
BLOCK_RECORD
  5
20F
100
AcDbSymbolTableRecord
100
AcDbBlockTableRecord
  2
*Model_Space
  0
BLOCK_RECORD
  5
210
100
AcDbSymbolTableRecord
100
AcDbBlockTableRecord
  2
*Paper_Space
  0
ENDTAB
  0
TABLE
  2
DIMSTYLE
  5
A
100
AcDbSymbolTable
 70
1
100
AcDbDimStyleTable
 71
0
  0
DIMSTYLE
105
211
100
AcDbSymbolTableRecord
100
AcDbDimStyleTableRecord
  2
STANDARD
 70
0
  3

  4

 40
1.0
 41
3.0
 42
0.0625
 43
0.38
 44
0.18
 45
0.0
 46
0.0
 47
0.01
 48
0.01
140
3.0
141
0.09
142
0.0
143
25.4
144
1.0
145
0.0
146
1.0
147
0.09
 71
1.0
 72
0.0
 73
0
 74
0
 75
0
 76
0
 77
1
 78
8
170
0
171
2
172
0
173
0
174
0
175
0
176
0
177
0
178
0
270
2
271
2
272
2
273
2
274
2
275
0
280
0
281
0
282
0
283
1
284
8
285
0
286
0
287
3
288
0
340
11
  0
ENDTAB
  0
ENDSEC
  0
SECTION
  2
BLOCKS
  0
BLOCK
  5
20
100
AcDbEntity
  8
0
100
AcDbBlockBegin
  2
*Model_Space
 70
0
 10
0.0
 20
0.0
 30
0.0
  3
*Model_Space
  1

  0
ENDBLK
  5
21
100
AcDbEntity
  8
0
100
AcDbBlockEnd
  0
BLOCK
  5
1C
100
AcDbEntity
  8
0
100
AcDbBlockBegin
  2
*Paper_Space
 70
0
 10
0.0
 20
0.0
 30
0.0
  3
*Paper_Space
  1

  0
ENDBLK
  5
1D
100
AcDbEntity
  8
0
100
AcDbBlockEnd
  0
ENDSEC
  0
SECTION
  2
ENTITIES
  0
LINE
  5
212
100
AcDbEntity
  8
0
100
AcDbLine
 62
7
  6
CONTINUOUS
 10
93.7838761548
 20
69.8878267874
 11
89.8263058686
 21
69.8878267874
  0
LINE
  5
213
100
AcDbEntity
  8
0
100
AcDbLine
 62
7
  6
CONTINUOUS
 10
111.4263058686
 20
69.8878267874
 11
115.3838761548
 21
69.8878267874
  0
LINE
  5
214
100
AcDbEntity
  8
RACCORDO
100
AcDbLine
 62
7
  6
CONTINUOUS
 10
104.1993809358
 20
72.3863083977
 11
104.0116600175
 21
72.3740796584
  0
LWPOLYLINE
  5
215
100
AcDbEntity
  8
RACCORDO
100
AcDbPolyline
 62
253
  6
CONTINUOUS
 90
16
 70
0
 10
112.3502938412
 20
71.2943845283
 10
112.4210794024
 20
71.2985549786
 10
112.4840646275
 20
71.3026534412
 10
112.5402651711
 20
71.3066490371
 10
112.5895493339
 20
71.3105304094
 10
112.6320488151
 20
71.314308915
 10
112.6691743668
 20
71.3179877464
 10
112.7010100232
 20
71.3215651193
 10
112.72747175
 20
71.3250428181
 10
112.7497181976
 20
71.3284293874
 10
112.7678356681
 20
71.331723833
 10
112.7817378592
 20
71.3349271493
 10
112.7923245148
 20
71.3380508635
 10
112.7998955494
 20
71.3410988182
 10
112.8041510483
 20
71.3440671709
 10
112.8050910117
 20
71.3469559216
  0
LWPOLYLINE
  5
216
100
AcDbEntity
  8
RACCORDO
100
AcDbPolyline
 62
253
  6
CONTINUOUS
 90
17
 70
0
 10
112.0818296872
 20
71.4900899233
 10
112.1591769005
 20
71.4943520687
 10
112.2284827491
 20
71.498522573
 10
112.2905156288
 20
71.5026211061
 10
112.3454343715
 20
71.5066167691
 10
112.3935703592
 20
71.5104981985
 10
112.4355141581
 20
71.5142767578
 10
112.471824223
 20
71.5179556384
 10
112.5028757763
 20
71.5215330551
 10
112.5290479866
 20
71.525010793
 10
112.5507950727
 20
71.5283973988
 10
112.5684234152
 20
71.5316918219
 10
112.5822356033
 20
71.5348951129
 10
112.5925707926
 20
71.5380189699
 10
112.599679137
 20
71.5410672923
 10
112.6037758024
 20
71.5440361806
 10
112.6050910117
 20
71.546925635
  0
LINE
  5
217
100
AcDbEntity
  8
RACCORDO
100
AcDbLine
 62
253
  6
CONTINUOUS
 10
112.1840650096
 20
71.2857883175
 11
112.3502938412
 21
71.2943845283
  0
LINE
  5
218
100
AcDbEntity
  8
RACCORDO
100
AcDbLine
 62
253
  6
CONTINUOUS
 10
111.9040933182
 20
71.4814396276
 11
112.0818296872
 21
71.4900899233
  0
LWPOLYLINE
  5
219
100
AcDbEntity
  8
RACCORDO
100
AcDbPolyline
 62
253
  6
CONTINUOUS
 90
19
 70
0
 10
115.9591774453
 20
71.5338165062
 10
116.0027402544
 20
71.5357313988
 10
116.0459716527
 20
71.5414349715
 10
116.0885427506
 20
71.5508838334
 10
116.1301296819
 20
71.5640061009
 10
116.1704160677
 20
71.5807019443
 10
116.209095423
 20
71.6008443474
 10
116.2458734887
 20
71.6242800738
 10
116.28047047
 20
71.6508308325
 10
116.3126231649
 20
71.6802946345
 10
116.3420869668
 20
71.7124473294
 10
116.3686377254
 20
71.7470443106
 10
116.3920734517
 20
71.7838223762
 10
116.4122158548
 20
71.8225017316
 10
116.4289116983
 20
71.8627881174
 10
116.4420339658
 20
71.9043750488
 10
116.4514828277
 20
71.9469461467
 10
116.4571864003
 20
71.9901775449
 10
116.4591012929
 20
72.0337403538
  0
LINE
  5
21A
100
AcDbEntity
  8
RACCORDO
100
AcDbLine
 62
253
  6
CONTINUOUS
 10
111.9890524156
 20
71.277184623
 11
112.1840650096
 21
71.2857883175
  0
LINE
  5
21B
100
AcDbEntity
  8
RACCORDO
100
AcDbLine
 62
253
  6
CONTINUOUS
 10
111.6993065239
 20
71.4728826394
 11
111.9040933182
 21
71.4814396276
  0
LWPOLYLINE
  5
21C
100
AcDbEntity
  8
RACCORDO
100
AcDbPolyline
 62
253
  6
CONTINUOUS
 90
10
 70
0
 10
109.358643145
 20
72.7321093944
 10
109.5127671148
 20
72.7382072575
 10
109.6497940834
 20
72.7444528291
 10
109.7693946429
 20
72.7508023459
 10
109.8712352885
 20
72.7572570936
 10
109.955010755
 20
72.7638157866
 10
110.0204752979
 20
72.7704308044
 10
110.0674162494
 20
72.7770862736
 10
110.0956621587
 20
72.7837980676
 10
110.1050910117
 20
72.7905630844
  0
LWPOLYLINE
  5
21D
100
AcDbEntity
  8
RACCORDO
100
AcDbPolyline
 62
253
  6
CONTINUOUS
 90
10
 70
0
 10
109.5389940973
 20
72.5321491172
 10
109.6970234808
 20
72.5382475759
 10
109.8379385112
 20
72.5444937388
 10
109.9606369536
 20
72.5508438329
 10
110.0650100552
 20
72.5572997792
 10
110.1511665689
 20
72.5638596566
 10
110.2183305189
 20
72.5704739293
 10
110.2662432468
 20
72.5771260855
 10
110.295163411
 20
72.583832637
 10
110.3050910117
 20
72.5905935839
  0
LINE
  5
21E
100
AcDbEntity
  8
RACCORDO
100
AcDbLine
 62
253
  6
CONTINUOUS
 10
111.7675666797
 20
71.2687209309
 11
111.9890524156
 21
71.277184623
  0
LINE
  5
21F
100
AcDbEntity
  8
RACCORDO
100
AcDbLine
 62
253
  6
CONTINUOUS
 10
111.4714590916
 20
71.4645879214
 11
111.6993065239
 21
71.4728826394
  0
LINE
  5
220
100
AcDbEntity
  8
RACCORDO
100
AcDbLine
 62
253
  6
CONTINUOUS
 10
109.0007791893
 20
72.7203590316
 11
109.358643145
 21
72.7321093944
  0
LINE
  5
221
100
AcDbEntity
  8
RACCORDO
100
AcDbLine
 62
253
  6
CONTINUOUS
 10
111.3956064318
 20
71.2566492165
 11
111.7675666797
 21
71.2687209309
  0
LINE
  5
222
100
AcDbEntity
  8
RACCORDO
100
AcDbLine
 62
253
  6
CONTINUOUS
 10
109.1713971582
 20
72.5203975507
 11
109.5389940973
 21
72.5321491172
  0
LINE
  5
223
100
AcDbEntity
  8
RACCORDO
100
AcDbLine
 62
253
  6
CONTINUOUS
 10
111.0921260468
 20
71.4527641942
 11
111.4714590916
 21
71.4645879214
  0
LINE
  5
224
100
AcDbEntity
  8
RACCORDO
100
AcDbLine
 62
253
  6
CONTINUOUS
 10
110.9787961701
 20
71.2452944995
 11
111.3956064318
 21
71.2566492165
  0
LINE
  5
225
100
AcDbEntity
  8
RACCORDO
100
AcDbLine
 62
253
  6
CONTINUOUS
 10
108.5796560836
 20
72.7093216092
 11
109.0007791893
 21
72.7203590316
  0
LINE
  5
226
100
AcDbEntity
  8
RACCORDO
100
AcDbLine
 62
253
  6
CONTINUOUS
 10
108.7394178854
 20
72.5093589355
 11
109.1713971582
 21
72.5203975507
  0
LINE
  5
227
100
AcDbEntity
  8
RACCORDO
100
AcDbLine
 62
253
  6
CONTINUOUS
 10
110.5136740668
 20
71.437958351
 11
111.0921260468
 21
71.4527641942
  0
LINE
  5
228
100
AcDbEntity
  8
RACCORDO
100
AcDbLine
 62
253
  6
CONTINUOUS
 10
110.3296336309
 20
71.230681956
 11
110.9787961701
 21
71.2452944995
  0
LINE
  5
229
100
AcDbEntity
  8
RACCORDO
100
AcDbLine
 62
253
  6
CONTINUOUS
 10
109.7984010166
 20
71.4232457088
 11
110.5136740668
 21
71.437958351
  0
LINE
  5
22A
100
AcDbEntity
  8
RACCORDO
100
AcDbLine
 62
253
  6
CONTINUOUS
 10
107.8384127965
 20
72.694292178
 11
108.5796560836
 21
72.7093216092
  0
LINE
  5
22B
100
AcDbEntity
  8
RACCORDO
100
AcDbLine
 62
253
  6
CONTINUOUS
 10
107.9784462586
 20
72.4943277769
 11
108.7394178854
 21
72.5093589355
  0
LINE
  5
22C
100
AcDbEntity
  8
RACCORDO
100
AcDbLine
 62
253
  6
CONTINUOUS
 10
109.4946672573
 20
71.2156473884
 11
110.3296336309
 21
71.230681956
  0
LINE
  5
22D
100
AcDbEntity
  8
RACCORDO
100
AcDbLine
 62
253
  6
CONTINUOUS
 10
108.5585320358
 20
71.4038623967
 11
109.7984010166
 21
71.4232457088
  0
LINE
  5
22E
100
AcDbEntity
  8
RACCORDO
100
AcDbLine
 62
253
  6
CONTINUOUS
 10
106.980215496
 20
72.6814016857
 11
107.8384127965
 21
72.694292178
  0
LINE
  5
22F
100
AcDbEntity
  8
RACCORDO
100
AcDbLine
 62
253
  6
CONTINUOUS
 10
106.7797667295
 20
72.4776592051
 11
107.9784462586
 21
72.4943277769
  0
LINE
  5
230
100
AcDbEntity
  8
RACCORDO
100
AcDbLine
 62
253
  6
CONTINUOUS
 10
108.0283417767
 20
71.1961805626
 11
109.4946672573
 21
71.2156473884
  0
LINE
  5
231
100
AcDbEntity
  8
RACCORDO
100
AcDbLine
 62
253
  6
CONTINUOUS
 10
106.8136270976
 20
71.3854348301
 11
108.5585320358
 21
71.4038623967
  0
LINE
  5
232
100
AcDbEntity
  8
RACCORDO
100
AcDbLine
 62
253
  6
CONTINUOUS
 10
105.6872512283
 20
72.6680318988
 11
106.980215496
 21
72.6814016857
  0
LINE
  5
233
100
AcDbEntity
  8
RACCORDO
100
AcDbLine
 62
253
  6
CONTINUOUS
 10
106.0485225662
 20
71.1793665925
 11
108.0283417767
 21
71.1961805626
  0
LINE
  5
234
100
AcDbEntity
  8
RACCORDO
100
AcDbLine
 62
253
  6
CONTINUOUS
 10
105.0556904942
 20
72.4631793865
 11
106.7797667295
 21
72.4776592051
  0
LINE
  5
235
100
AcDbEntity
  8
RACCORDO
100
AcDbLine
 62
253
  6
CONTINUOUS
 10
105.0914131631
 20
71.3744832158
 11
106.8136270976
 21
71.3854348301
  0
LINE
  5
236
100
AcDbEntity
  8
RACCORDO
100
AcDbLine
 62
253
  6
CONTINUOUS
 10
103.7325762923
 20
71.170009887
 11
106.0485225662
 21
71.1793665925
  0
LINE
  5
237
100
AcDbEntity
  8
RACCORDO
100
AcDbLine
 62
253
  6
CONTINUOUS
 10
103.1799766676
 20
72.4565647041
 11
105.0556904942
 21
72.4631793865
  0
LINE
  5
238
100
AcDbEntity
  8
RACCORDO
100
AcDbLine
 62
253
  6
CONTINUOUS
 10
102.782974358
 20
71.3689082312
 11
105.0914131631
 21
71.3744832158
  0
LINE
  5
239
100
AcDbEntity
  8
RACCORDO
100
AcDbLine
 62
7
  6
CONTINUOUS
 10
88.6050148593
 20
70.8878267874
 11
89.5550910117
 21
70.8878267874
  0
LINE
  5
23A
100
AcDbEntity
  8
DRAFT
100
AcDbLine
 62
7
  6
CONTINUOUS
 10
89.5550910117
 20
70.8878267874
 11
115.6550910117
 21
70.8878267874
  0
LINE
  5
23B
100
AcDbEntity
  8
RACCORDO
100
AcDbLine
 62
7
  6
CONTINUOUS
 10
115.6550910117
 20
70.8878267874
 11
116.6051671641
 21
70.8878267874
  0
LINE
  5
23C
100
AcDbEntity
  8
RACCORDO
100
AcDbLine
 62
253
  6
CONTINUOUS
 10
89.2510045781
 20
71.5338165062
 11
92.4050910117
 21
71.5338165062
  0
LINE
  5
23D
100
AcDbEntity
  8
RACCORDO
100
AcDbLine
 62
253
  6
CONTINUOUS
 10
112.8050910117
 20
71.5338165062
 11
115.9591774453
 21
71.5338165062
  0
LINE
  5
23E
100
AcDbEntity
  8
RACCORDO
100
AcDbLine
 62
253
  6
CONTINUOUS
 10
88.7510807305
 20
72.0337403534
 11
92.6050910117
 21
72.0337403538
  0
LINE
  5
23F
100
AcDbEntity
  8
RACCORDO
100
AcDbLine
 62
253
  6
CONTINUOUS
 10
112.6050910117
 20
72.0337403538
 11
116.4591012929
 21
72.0337403538
  0
LINE
  5
240
100
AcDbEntity
  8
RACCORDO
100
AcDbLine
 62
253
  6
CONTINUOUS
 10
101.3689713786
 20
71.1702320881
 11
103.7325762923
 21
71.170009887
  0
LINE
  5
241
100
AcDbEntity
  8
RACCORDO
100
AcDbLine
 62
253
  6
CONTINUOUS
 10
101.2690459521
 20
72.4582294848
 11
103.1799766676
 21
72.4565647041
  0
LINE
  5
242
100
AcDbEntity
  8
RACCORDO
100
AcDbLine
 62
253
  6
CONTINUOUS
 10
100.4700685786
 20
71.3729889819
 11
102.782974358
 21
71.3689082312
  0
LINE
  5
243
100
AcDbEntity
  8
RACCORDO
100
AcDbLine
 62
253
  6
CONTINUOUS
 10
99.0603819539
 20
71.1800111755
 11
101.3689713786
 21
71.1702320881
  0
LINE
  5
244
100
AcDbEntity
  8
RACCORDO
100
AcDbLine
 62
253
  6
CONTINUOUS
 10
99.440934423
 20
72.4680633635
 11
101.2690459521
 21
72.4582294848
  0
LINE
  5
245
100
AcDbEntity
  8
RACCORDO
100
AcDbLine
 62
253
  6
CONTINUOUS
 10
98.3049760773
 20
71.3862008463
 11
100.4700685786
 21
71.3729889819
  0
LINE
  5
246
100
AcDbEntity
  8
RACCORDO
100
AcDbLine
 62
253
  6
CONTINUOUS
 10
97.1020145377
 20
71.1970642773
 11
99.0603819539
 21
71.1800111755
  0
LINE
  5
247
100
AcDbEntity
  8
RACCORDO
100
AcDbLine
 62
253
  6
CONTINUOUS
 10
98.1128895805
 20
72.4814345748
 11
99.440934423
 21
72.4680633635
  0
LINE
  5
248
100
AcDbEntity
  8
RACCORDO
100
AcDbLine
 62
253
  6
CONTINUOUS
 10
98.2300045778
 20
72.6814011948
 11
99.5229718524
 21
72.6680315666
  0
LINE
  5
249
100
AcDbEntity
  8
RACCORDO
100
AcDbLine
 62
253
  6
CONTINUOUS
 10
96.5827268538
 20
71.4047796605
 11
98.3049760773
 21
71.3862008463
  0
LINE
  5
24A
100
AcDbEntity
  8
RACCORDO
100
AcDbLine
 62
253
  6
CONTINUOUS
 10
95.6587767499
 20
71.2165613093
 11
97.1020145377
 21
71.1970642773
  0
LINE
  5
24B
100
AcDbEntity
  8
RACCORDO
100
AcDbLine
 62
253
  6
CONTINUOUS
 10
97.2318163458
 20
72.4943264043
 11
98.1128895805
 21
72.4814345748
  0
LINE
  5
24C
100
AcDbEntity
  8
RACCORDO
100
AcDbLine
 62
253
  6
CONTINUOUS
 10
97.3718049483
 20
72.6942915531
 11
98.2300045778
 21
72.6814011948
  0
LINE
  5
24D
100
AcDbEntity
  8
RACCORDO
100
AcDbLine
 62
253
  6
CONTINUOUS
 10
95.3635936401
 20
71.4241403165
 11
96.5827268538
 21
71.4047796605
  0
LINE
  5
24E
100
AcDbEntity
  8
RACCORDO
100
AcDbLine
 62
253
  6
CONTINUOUS
 10
94.6635404159
 20
71.2352274543
 11
95.6587767499
 21
71.2165613093
  0
LINE
  5
24F
100
AcDbEntity
  8
RACCORDO
100
AcDbLine
 62
253
  6
CONTINUOUS
 10
96.4708325985
 20
72.5093573563
 11
97.2318163458
 21
72.4943264043
  0
LINE
  5
250
100
AcDbEntity
  8
RACCORDO
100
AcDbLine
 62
253
  6
CONTINUOUS
 10
96.6305571469
 20
72.7093208708
 11
97.3718049483
 21
72.6942915531
  0
LINE
  5
251
100
AcDbEntity
  8
RACCORDO
100
AcDbLine
 62
253
  6
CONTINUOUS
 10
94.6584287579
 20
71.4388403749
 11
95.3635936401
 21
71.4241403165
  0
LINE
  5
252
100
AcDbEntity
  8
RACCORDO
100
AcDbLine
 62
253
  6
CONTINUOUS
 10
94.0526140264
 20
71.2499304533
 11
94.6635404159
 21
71.2352274543
  0
LINE
  5
253
100
AcDbEntity
  8
RACCORDO
100
AcDbLine
 62
253
  6
CONTINUOUS
 10
96.0388430844
 20
72.5203958899
 11
96.4708325985
 21
72.5093573563
  0
LINE
  5
254
100
AcDbEntity
  8
RACCORDO
100
AcDbLine
 62
253
  6
CONTINUOUS
 10
96.2094291141
 20
72.7203582623
 11
96.6305571469
 21
72.7093208708
  0
LINE
  5
255
100
AcDbEntity
  8
RACCORDO
100
AcDbLine
 62
253
  6
CONTINUOUS
 10
94.0859341988
 20
71.45368832
 11
94.6584287579
 21
71.4388403749
  0
LINE
  5
256
100
AcDbEntity
  8
RACCORDO
100
AcDbLine
 62
253
  6
CONTINUOUS
 10
93.6551793931
 20
71.2615540087
 11
94.0526140264
 21
71.2499304533
  0
LINE
  5
257
100
AcDbEntity
  8
RACCORDO
100
AcDbLine
 62
253
  6
CONTINUOUS
 10
93.7102973031
 20
71.4655655567
 11
94.0859341988
 21
71.45368832
  0
LINE
  5
258
100
AcDbEntity
  8
RACCORDO
100
AcDbLine
 62
253
  6
CONTINUOUS
 10
93.4148811236
 20
71.2697184135
 11
93.6551793931
 21
71.2615540087
  0
LINE
  5
259
100
AcDbEntity
  8
RACCORDO
100
AcDbLine
 62
253
  6
CONTINUOUS
 10
93.4848406896
 20
71.4739049577
 11
93.7102973031
 21
71.4655655567
  0
LINE
  5
25A
100
AcDbEntity
  8
RACCORDO
100
AcDbLine
 62
253
  6
CONTINUOUS
 10
93.1958173974
 20
71.2782331403
 11
93.4148811236
 21
71.2697184135
  0
LINE
  5
25B
100
AcDbEntity
  8
RACCORDO
100
AcDbLine
 62
253
  6
CONTINUOUS
 10
93.2826645176
 20
71.4825039846
 11
93.4848406896
 21
71.4739049577
  0
LINE
  5
25C
100
AcDbEntity
  8
RACCORDO
100
AcDbLine
 62
253
  6
CONTINUOUS
 10
93.0039347838
 20
71.2868573009
 11
93.1958173974
 21
71.2782331403
  0
LINE
  5
25D
100
AcDbEntity
  8
RACCORDO
100
AcDbLine
 62
7
  6
CONTINUOUS
 10
101.1985220059
 20
72.3740796584
 11
101.0108010876
 21
72.3863083977
  0
LWPOLYLINE
  5
25E
100
AcDbEntity
  8
RACCORDO
100
AcDbPolyline
 62
253
  6
CONTINUOUS
 90
11
 70
0
 10
94.9050910117
 20
72.5905935839
 10
94.9150219194
 20
72.5838320842
 10
94.9439458982
 20
72.5771250971
 10
94.9918629482
 20
72.5704726225
 10
95.0590317882
 20
72.5638581828
 10
95.1451936994
 20
72.5572982556
 10
95.249572525
 20
72.5508422742
 10
95.3722771318
 20
72.5444921238
 10
95.513198653
 20
72.5382459193
 10
95.6712343322
 20
72.532147438
 10
96.0388430844
 20
72.5203958899
  0
LINE
  5
25F
100
AcDbEntity
  8
RACCORDO
100
AcDbLine
 62
7
  6
CONTINUOUS
 10
104.1448307571
 20
73.4737360504
 11
103.9637197734
 21
73.4619379033
  0
LINE
  5
260
100
AcDbEntity
  8
RACCORDO
100
AcDbLine
 62
253
  6
CONTINUOUS
 10
101.1690681859
 20
73.700712821
 11
101.679574559
 21
73.7339688343
  0
LINE
  5
261
100
AcDbEntity
  8
RACCORDO
100
AcDbLine
 62
253
  6
CONTINUOUS
 10
101.0156027883
 20
73.9032698324
 11
101.4863893938
 21
73.9339383733
  0
LINE
  5
262
100
AcDbEntity
  8
DRAFT
100
AcDbLine
 62
7
  6
CONTINUOUS
 10
101.2835519808
 20
74.5217198348
 11
101.0156027883
 21
74.5042647699
  0
LINE
  5
263
100
AcDbEntity
  8
RACCORDO
100
AcDbLine
 62
253
  6
CONTINUOUS
 10
103.9061302399
 20
72.6581989934
 11
105.6872512283
 21
72.6680318988
  0
LINE
  5
264
100
AcDbEntity
  8
RACCORDO
100
AcDbLine
 62
253
  6
CONTINUOUS
 10
93.4050910117
 20
72.7338165062
 11
94.9050910117
 21
72.7338165062
  0
LINE
  5
265
100
AcDbEntity
  8
RACCORDO
100
AcDbLine
 62
253
  6
CONTINUOUS
 10
110.3050910117
 20
72.7338165062
 11
111.8050910117
 21
72.7338165062
  0
LINE
  5
266
100
AcDbEntity
  8
RACCORDO
100
AcDbLine
 62
253
  6
CONTINUOUS
 10
93.4050910117
 20
73.2337403538
 11
95.1050910117
 21
73.2337403538
  0
LINE
  5
267
100
AcDbEntity
  8
RACCORDO
100
AcDbLine
 62
253
  6
CONTINUOUS
 10
110.1050910117
 20
73.2337403538
 11
111.8050910117
 21
73.2337403538
  0
LINE
  5
268
100
AcDbEntity
  8
RACCORDO
100
AcDbLine
 62
253
  6
CONTINUOUS
 10
95.9050910117
 20
73.700712821
 11
101.1690681859
 21
73.700712821
  0
LINE
  5
269
100
AcDbEntity
  8
RACCORDO
100
AcDbLine
 62
253
  6
CONTINUOUS
 10
104.0411138374
 20
73.700712821
 11
109.3050910117
 21
73.700712821
  0
LINE
  5
26A
100
AcDbEntity
  8
RACCORDO
100
AcDbLine
 62
253
  6
CONTINUOUS
 10
101.679574559
 20
73.7339688343
 11
103.5306074644
 21
73.7339688343
  0
LINE
  5
26B
100
AcDbEntity
  8
RACCORDO
100
AcDbLine
 62
7
  6
CONTINUOUS
 10
92.6050910117
 20
73.8878267874
 11
93.4050910117
 21
73.8878267874
  0
LINE
  5
26C
100
AcDbEntity
  8
RACCORDO
100
AcDbLine
 62
7
  6
CONTINUOUS
 10
111.8050910117
 20
73.8878267874
 11
112.6050910117
 21
73.8878267874
  0
LINE
  5
26D
100
AcDbEntity
  8
RACCORDO
100
AcDbLine
 62
253
  6
CONTINUOUS
 10
95.9050910117
 20
73.9006823601
 11
101.0156027883
 21
73.9006823601
  0
LINE
  5
26E
100
AcDbEntity
  8
RACCORDO
100
AcDbLine
 62
253
  6
CONTINUOUS
 10
104.194579235
 20
73.9006823601
 11
109.3050910117
 21
73.9006823601
  0
LINE
  5
26F
100
AcDbEntity
  8
RACCORDO
100
AcDbLine
 62
253
  6
CONTINUOUS
 10
101.565371244
 20
74.2338926818
 11
103.6448107794
 21
74.2338926818
  0
LINE
  5
270
100
AcDbEntity
  8
RACCORDO
100
AcDbLine
 62
253
  6
CONTINUOUS
 10
92.4050910117
 20
74.3878267874
 11
93.4050910117
 21
74.3878267874
  0
LINE
  5
271
100
AcDbEntity
  8
RACCORDO
100
AcDbLine
 62
253
  6
CONTINUOUS
 10
111.8050910117
 20
74.3878267874
 11
112.8050910117
 21
74.3878267874
  0
LINE
  5
272
100
AcDbEntity
  8
RACCORDO
100
AcDbLine
 62
7
  6
CONTINUOUS
 10
109.1050910117
 20
74.5042647699
 11
104.194579235
 21
74.5042647699
  0
LINE
  5
273
100
AcDbEntity
  8
RACCORDO
100
AcDbLine
 62
7
  6
CONTINUOUS
 10
101.0156027883
 20
74.5042647699
 11
96.1050910117
 21
74.5042647699
  0
LINE
  5
274
100
AcDbEntity
  8
RACCORDO
100
AcDbLine
 62
7
  6
CONTINUOUS
 10
95.1050910117
 20
74.5378267874
 11
101.4711164155
 21
74.5378267874
  0
LINE
  5
275
100
AcDbEntity
  8
RACCORDO
100
AcDbLine
 62
7
  6
CONTINUOUS
 10
103.7390656079
 20
74.5378267874
 11
110.1050910117
 21
74.5378267874
  0
LINE
  5
276
100
AcDbEntity
  8
RACCORDO
100
AcDbLine
 62
253
  6
CONTINUOUS
 10
102.0452548277
 20
72.6565340855
 11
103.9061302399
 21
72.6581989934
  0
LINE
  5
277
100
AcDbEntity
  8
RACCORDO
100
AcDbLine
 62
253
  6
CONTINUOUS
 10
100.2186440146
 20
72.6631475559
 11
102.0452548277
 21
72.6565340855
  0
LINE
  5
278
100
AcDbEntity
  8
RACCORDO
100
AcDbLine
 62
253
  6
CONTINUOUS
 10
99.5229718524
 20
72.6680315666
 11
100.2186440146
 21
72.6631475559
  0
LINE
  5
279
100
AcDbEntity
  8
RACCORDO
100
AcDbLine
 62
7
  6
CONTINUOUS
 10
101.24646225
 20
73.4619379033
 11
101.0653512663
 21
73.4737360504
  0
LINE
  5
27A
100
AcDbEntity
  8
RACCORDO
100
AcDbLine
 62
253
  6
CONTINUOUS
 10
103.5306074644
 20
73.7339688343
 11
104.0411138374
 21
73.700712821
  0
LINE
  5
27B
100
AcDbEntity
  8
RACCORDO
100
AcDbLine
 62
253
  6
CONTINUOUS
 10
103.7237926296
 20
73.9339383733
 11
104.194579235
 21
73.9032698324
  0
LINE
  5
27C
100
AcDbEntity
  8
DRAFT
100
AcDbLine
 62
7
  6
CONTINUOUS
 10
103.9266300426
 20
74.5217198348
 11
104.194579235
 21
74.5042647699
  0
LWPOLYLINE
  5
27D
100
AcDbEntity
  8
RACCORDO
100
AcDbPolyline
 62
253
  6
CONTINUOUS
 90
11
 70
0
 10
95.1050910135
 20
72.7905660898
 10
95.1145203059
 20
72.7837979092
 10
95.1427670477
 20
72.777086046
 10
95.1897092999
 20
72.7704305
 10
95.2551757522
 20
72.7638153913
 10
95.3389537728
 20
72.7572566
 10
95.4407973833
 20
72.750801766
 10
95.560401157
 20
72.7444521802
 10
95.6974315628
 20
72.7382065517
 10
95.8515589668
 20
72.7321086486
 10
96.2094291141
 20
72.7203582623
  0
LINE
  5
27E
100
AcDbEntity
  8
RACCORDO
100
AcDbLine
 62
7
  6
CONTINUOUS
 10
92.4707401532
 20
119.4925107152
 11
92.4050910117
 21
119.3878267874
  0
LWPOLYLINE
  5
27F
100
AcDbEntity
  8
RACCORDO
100
AcDbPolyline
 62
253
  6
CONTINUOUS
 90
19
 70
0
 10
103.5306074644
 20
120.0416847406
 10
103.5235477461
 20
120.0390379429
 10
103.5166575348
 20
120.0326381478
 10
103.5099368304
 20
120.0225402644
 10
103.5033375368
 20
120.0088241949
 10
103.4969077502
 20
119.9916010341
 10
103.4907917584
 20
119.9710181893
 10
103.4849981289
 20
119.9472443526
 10
103.4795182942
 20
119.9204657296
 10
103.4744708397
 20
119.8908971802
 10
103.4698669307
 20
119.858773379
 10
103.4656954019
 20
119.8243393093
 10
103.4620413428
 20
119.7878516544
 10
103.4589156506
 20
119.7495904339
 10
103.4563074281
 20
119.7098401183
 10
103.4542690734
 20
119.6688781734
 10
103.4528180525
 20
119.6270011304
 10
103.4519368994
 20
119.5845245199
 10
103.4516256141
 20
119.541760893
  0
LWPOLYLINE
  5
280
100
AcDbEntity
  8
RACCORDO
100
AcDbPolyline
 62
253
  6
CONTINUOUS
 90
19
 70
0
 10
101.4863893938
 20
73.9339383733
 10
101.4934459296
 20
73.9356030337
 10
101.5003353326
 20
73.9394310081
 10
101.5070576026
 20
73.9454222963
 10
101.513661948
 20
73.9536617608
 10
101.5200991605
 20
73.9640645392
 10
101.526221615
 20
73.9763760446
 10
101.5320195848
 20
73.9906376025
 10
101.5375027966
 20
74.0068078874
 10
101.5425528059
 20
74.0245083369
 10
101.5471586966
 20
74.0437687155
 10
101.5513313848
 20
74.0645592587
 10
101.5549851744
 20
74.0864121102
 10
101.5581088485
 20
74.1093568478
 10
101.560713624
 20
74.1333638938
 10
101.5627474558
 20
74.1578766591
 10
101.5641929956
 20
74.1827096141
 10
101.5650675916
 20
74.2080482883
 10
101.565371244
 20
74.2338926818
  0
LINE
  5
281
100
AcDbEntity
  8
RACCORDO
100
AcDbLine
 62
253
  6
CONTINUOUS
 10
94.9050910117
 20
75.0378267874
 11
101.7585564093
 21
75.0378267874
  0
LINE
  5
282
100
AcDbEntity
  8
RACCORDO
100
AcDbLine
 62
253
  6
CONTINUOUS
 10
103.4516256141
 20
75.0378267874
 11
110.3050910117
 21
75.0378267874
  0
LWPOLYLINE
  5
283
100
AcDbEntity
  8
RACCORDO
100
AcDbPolyline
 62
7
  6
CONTINUOUS
 90
14
 70
0
 10
92.4050910117
 20
74.3878267874
 10
92.4708721649
 20
74.2829285961
 10
92.4906094284
 20
74.2506491067
 10
92.5089809012
 20
74.2197177557
 10
92.5260577225
 20
74.1901636513
 10
92.5417018242
 20
74.1619917363
 10
92.5557800764
 20
74.1351970679
 10
92.5683202031
 20
74.109793926
 10
92.5792120811
 20
74.0857425857
 10
92.5883096616
 20
74.0630827719
 10
92.5955407023
 20
74.0419479397
 10
92.6008070169
 20
74.022382574
 10
92.6040119826
 20
74.00434219
 10
92.6050910117
 20
73.9878267874
  0
LINE
  5
284
100
AcDbEntity
  8
RACCORDO
100
AcDbLine
 62
7
  6
CONTINUOUS
 10
94.9050910117
 20
75.0378267874
 11
94.949855248
 21
74.9665465214
  0
LWPOLYLINE
  5
285
100
AcDbEntity
  8
RACCORDO
100
AcDbPolyline
 62
253
  6
CONTINUOUS
 90
18
 70
0
 10
92.6050910117
 20
71.5469254661
 10
92.6064119028
 20
71.544030076
 10
92.6104893884
 20
71.5410747117
 10
92.6174973412
 20
71.5380595459
 10
92.6275793276
 20
71.5349919994
 10
92.6409301612
 20
71.5318646513
 10
92.6578822961
 20
71.5286552392
 10
92.6787030989
 20
71.5253625461
 10
92.7036601923
 20
71.5219877889
 10
92.7332520689
 20
71.5185123551
 10
92.7678482004
 20
71.5149343792
 10
92.807814697
 20
71.5112557268
 10
92.8538172205
 20
71.5074633816
 10
92.9064752823
 20
71.503545292
 10
92.9661465647
 20
71.4995135098
 10
93.0331618503
 20
71.495391174
 10
93.1084442622
 20
71.4911532488
 10
93.2826645176
 20
71.4825039846
  0
LWPOLYLINE
  5
286
100
AcDbEntity
  8
RACCORDO
100
AcDbPolyline
 62
253
  6
CONTINUOUS
 90
17
 70
0
 10
92.4050910117
 20
71.3469559216
 10
92.4061369608
 20
71.3440610545
 10
92.4103537714
 20
71.3411062166
 10
92.4177414436
 20
71.3380914079
 10
92.428035333
 20
71.3350239912
 10
92.441500084
 20
71.3318966037
 10
92.4589296297
 20
71.3286871568
 10
92.4802029092
 20
71.325394491
 10
92.5054409834
 20
71.3220197659
 10
92.5358009685
 20
71.3185443714
 10
92.5711554517
 20
71.3149664421
 10
92.6116318458
 20
71.3112878433
 10
92.6587695053
 20
71.3074955611
 10
92.7126515829
 20
71.3035775521
 10
92.7731949259
 20
71.2995458596
 10
92.8416894306
 20
71.2954235995
 10
93.0039347838
 20
71.2868573009
  0
LINE
  5
287
100
AcDbEntity
  8
0
100
AcDbLine
 62
7
  6
CONTINUOUS
 10
99.4350909831
 20
115.0495289197
 11
99.2850910403
 21
114.9346353163
  0
LINE
  5
288
100
AcDbEntity
  8
0
100
AcDbLine
 62
7
  6
CONTINUOUS
 10
99.4650910403
 20
114.8580395808
 11
99.5550910403
 21
114.8963374486
  0
LINE
  5
289
100
AcDbEntity
  8
0
100
AcDbLine
 62
7
  6
CONTINUOUS
 10
99.4650910403
 20
114.2069757213
 11
99.5550910403
 21
114.2452735891
  0
LINE
  5
28A
100
AcDbEntity
  8
0
100
AcDbLine
 62
7
  6
CONTINUOUS
 10
99.8550910117
 20
113.5176140209
 11
99.7650910117
 21
113.4793161531
  0
LINE
  5
28B
100
AcDbEntity
  8
0
100
AcDbLine
 62
7
  6
CONTINUOUS
 10
103.4250911261
 20
114.8580395808
 11
103.5150911261
 21
114.8963374486
  0
LWPOLYLINE
  5
28C
100
AcDbEntity
  8
RACCORDO
100
AcDbPolyline
 62
7
  6
CONTINUOUS
 90
14
 70
0
 10
94.949855248
 20
74.9665465214
 10
94.9708721649
 20
74.9329285961
 10
94.9906094284
 20
74.9006491067
 10
95.0089809012
 20
74.8697177557
 10
95.0260577225
 20
74.8401636513
 10
95.0417018242
 20
74.8119917363
 10
95.0557800764
 20
74.7851970679
 10
95.0683202031
 20
74.759793926
 10
95.0792120811
 20
74.7357425857
 10
95.0883096616
 20
74.7130827719
 10
95.0955407023
 20
74.6919479397
 10
95.1008070169
 20
74.672382574
 10
95.1040119826
 20
74.65434219
 10
95.1050910117
 20
74.6378267874
  0
LWPOLYLINE
  5
28D
100
AcDbEntity
  8
RACCORDO
100
AcDbPolyline
 62
253
  6
CONTINUOUS
 90
19
 70
0
 10
88.7510807305
 20
72.0337403538
 10
88.7529956231
 20
71.9901775447
 10
88.7586991958
 20
71.9469461464
 10
88.7681480577
 20
71.9043750485
 10
88.7812703252
 20
71.8627881172
 10
88.7979661686
 20
71.8225017315
 10
88.8181085717
 20
71.7838223762
 10
88.8415442981
 20
71.7470443104
 10
88.8680950568
 20
71.7124473292
 10
88.8975588588
 20
71.6802946343
 10
88.9297115537
 20
71.6508308323
 10
88.9643085348
 20
71.6242800737
 10
89.0010866005
 20
71.6008443474
 10
89.0397659558
 20
71.5807019443
 10
89.0800523417
 20
71.5640061009
 10
89.1216392731
 20
71.5508838334
 10
89.164210371
 20
71.5414349715
 10
89.2074417691
 20
71.5357313988
 10
89.2510045781
 20
71.5338165062
  0
LINE
  5
28E
100
AcDbEntity
  8
RACCORDO
100
AcDbLine
 62
7
  6
CONTINUOUS
 10
88.1050910117
 20
122.3879029399
 11
88.1050910117
 21
71.387750635
  0
LINE
  5
28F
100
AcDbEntity
  8
0
100
AcDbLine
 62
7
  6
CONTINUOUS
 10
99.3750910403
 20
114.7814438452
 11
99.4650910403
 21
114.8580395808
  0
LINE
  5
290
100
AcDbEntity
  8
0
100
AcDbLine
 62
7
  6
CONTINUOUS
 10
99.4350909831
 20
114.3984650602
 11
99.2550909831
 21
114.2452735891
  0
LINE
  5
291
100
AcDbEntity
  8
0
100
AcDbLine
 62
7
  6
CONTINUOUS
 10
99.3750910403
 20
114.1303799858
 11
99.4650910403
 21
114.2069757213
  0
LINE
  5
292
100
AcDbEntity
  8
0
100
AcDbLine
 62
7
  6
CONTINUOUS
 10
99.9450910117
 20
113.5942097565
 11
99.8550910117
 21
113.5176140209
  0
LINE
  5
293
100
AcDbEntity
  8
0
100
AcDbLine
 62
7
  6
CONTINUOUS
 10
98.7525910171
 20
112.4495289197
 11
98.6625910063
 21
112.3729331841
  0
LINE
  5
294
100
AcDbEntity
  8
0
100
AcDbLine
 62
7
  6
CONTINUOUS
 10
99.8850909831
 20
113.3261246586
 11
100.0350910117
 21
113.4410182719
  0
LINE
  5
295
100
AcDbEntity
  8
0
100
AcDbLine
 62
7
  6
CONTINUOUS
 10
103.4250911261
 20
114.2069757213
 11
103.5150911261
 21
114.2452735891
  0
LINE
  5
296
100
AcDbEntity
  8
0
100
AcDbLine
 62
7
  6
CONTINUOUS
 10
98.7750910117
 20
112.219741713
 11
98.8650910224
 21
112.2580395808
  0
LINE
  5
297
100
AcDbEntity
  8
0
100
AcDbLine
 62
7
  6
CONTINUOUS
 10
103.8150910117
 20
113.5176140209
 11
103.7250910117
 21
113.4793161531
  0
LINE
  5
298
100
AcDbEntity
  8
0
100
AcDbLine
 62
7
  6
CONTINUOUS
 10
99.1575910332
 20
110.9559118887
 11
99.0675909902
 21
110.9176140209
  0
LINE
  5
299
100
AcDbEntity
  8
0
100
AcDbLine
 62
7
  6
CONTINUOUS
 10
98.8650910224
 20
112.4878267874
 11
98.7525910171
 21
112.4495289197
  0
LINE
  5
29A
100
AcDbEntity
  8
0
100
AcDbLine
 62
7
  6
CONTINUOUS
 10
102.2400909259
 20
112.4878267874
 11
102.1275910975
 21
112.4495289197
  0
LINE
  5
29B
100
AcDbEntity
  8
0
100
AcDbLine
 62
7
  6
CONTINUOUS
 10
103.2525911834
 20
112.4878267874
 11
103.14009084
 21
112.4495289197
  0
LINE
  5
29C
100
AcDbEntity
  8
0
100
AcDbLine
 62
7
  6
CONTINUOUS
 10
99.0675909902
 20
110.6878267874
 11
99.1800910117
 21
110.7261246586
  0
LINE
  5
29D
100
AcDbEntity
  8
0
100
AcDbLine
 62
7
  6
CONTINUOUS
 10
104.1750910117
 20
112.2580395808
 11
104.28759084
 21
112.2963374486
  0
LINE
  5
29E
100
AcDbEntity
  8
0
100
AcDbLine
 62
7
  6
CONTINUOUS
 10
106.5450912406
 20
113.5559118887
 11
106.4250910117
 21
113.5176140209
  0
LINE
  5
29F
100
AcDbEntity
  8
RACCORDO
100
AcDbLine
 62
253
  6
CONTINUOUS
 10
88.7510807305
 20
121.7419132211
 11
88.7510807305
 21
72.0337403538
  0
LINE
  5
2A0
100
AcDbEntity
  8
RACCORDO
100
AcDbLine
 62
253
  6
CONTINUOUS
 10
89.2510045781
 20
71.5338165062
 11
89.2510045776
 21
122.2418370686
  0
LINE
  5
2A1
100
AcDbEntity
  8
DRAFT
100
AcDbLine
 62
7
  6
CONTINUOUS
 10
89.8263058686
 20
123.8878267874
 11
89.8263058686
 21
122.8878267874
  0
LINE
  5
2A2
100
AcDbEntity
  8
DRAFT
100
AcDbLine
 62
7
  6
CONTINUOUS
 10
89.8263058686
 20
70.8878267874
 11
89.8263058686
 21
69.8878267874
  0
LINE
  5
2A3
100
AcDbEntity
  8
0
100
AcDbLine
 62
7
  6
CONTINUOUS
 10
99.2850910403
 20
114.9346353163
 11
99.1950909974
 21
114.7814438452
  0
LINE
  5
2A4
100
AcDbEntity
  8
0
100
AcDbLine
 62
7
  6
CONTINUOUS
 10
98.6850910117
 20
115.0878267874
 11
98.5050910117
 21
114.819741713
  0
LINE
  5
2A5
100
AcDbEntity
  8
0
100
AcDbLine
 62
7
  6
CONTINUOUS
 10
98.5050910117
 20
114.5133586635
 11
98.6850910117
 21
114.7814438452
  0
LINE
  5
2A6
100
AcDbEntity
  8
0
100
AcDbLine
 62
7
  6
CONTINUOUS
 10
99.3150910117
 20
114.0537842502
 11
99.3750910403
 21
114.1303799858
  0
LINE
  5
2A7
100
AcDbEntity
  8
0
100
AcDbLine
 62
7
  6
CONTINUOUS
 10
98.7075910117
 20
112.1431459775
 11
98.7750910117
 21
112.219741713
  0
LINE
  5
2A8
100
AcDbEntity
  8
0
100
AcDbLine
 62
7
  6
CONTINUOUS
 10
103.3350911261
 20
114.7814438452
 11
103.4250911261
 21
114.8580395808
  0
LINE
  5
2A9
100
AcDbEntity
  8
0
100
AcDbLine
 62
7
  6
CONTINUOUS
 10
103.3950908973
 20
114.3984650602
 11
103.2150908973
 21
114.2452735891
  0
LINE
  5
2AA
100
AcDbEntity
  8
0
100
AcDbLine
 62
7
  6
CONTINUOUS
 10
99.1800910117
 20
110.7261246586
 11
99.2700909902
 21
110.8027204042
  0
LINE
  5
2AB
100
AcDbEntity
  8
0
100
AcDbLine
 62
7
  6
CONTINUOUS
 10
103.3350911261
 20
114.1303799858
 11
103.4250911261
 21
114.2069757213
  0
LINE
  5
2AC
100
AcDbEntity
  8
0
100
AcDbLine
 62
7
  6
CONTINUOUS
 10
103.3950908973
 20
115.0495289197
 11
103.2450911261
 21
114.9346353163
  0
LINE
  5
2AD
100
AcDbEntity
  8
0
100
AcDbLine
 62
7
  6
CONTINUOUS
 10
103.8450908973
 20
113.3261246586
 11
103.9950910117
 21
113.4410182719
  0
LINE
  5
2AE
100
AcDbEntity
  8
0
100
AcDbLine
 62
7
  6
CONTINUOUS
 10
102.1500910117
 20
112.2580395808
 11
102.2175910117
 21
112.2963374486
  0
LINE
  5
2AF
100
AcDbEntity
  8
0
100
AcDbLine
 62
7
  6
CONTINUOUS
 10
103.1625910117
 20
112.2580395808
 11
103.2300910117
 21
112.2963374486
  0
LINE
  5
2B0
100
AcDbEntity
  8
0
100
AcDbLine
 62
7
  6
CONTINUOUS
 10
102.4425909259
 20
111.5686778535
 11
102.3750909259
 21
111.5303799858
  0
LINE
  5
2B1
100
AcDbEntity
  8
0
100
AcDbLine
 62
7
  6
CONTINUOUS
 10
103.1625910117
 20
111.6069757213
 11
103.2300910117
 21
111.6452735891
  0
LINE
  5
2B2
100
AcDbEntity
  8
0
100
AcDbLine
 62
7
  6
CONTINUOUS
 10
102.4425909259
 20
110.9176140209
 11
102.3750909259
 21
110.8793161531
  0
LINE
  5
2B3
100
AcDbEntity
  8
0
100
AcDbLine
 62
7
  6
CONTINUOUS
 10
106.2225911834
 20
112.219741713
 11
106.31259084
 21
112.2580395808
  0
LINE
  5
2B4
100
AcDbEntity
  8
0
100
AcDbLine
 62
7
  6
CONTINUOUS
 10
103.2525911834
 20
111.836762928
 11
103.14009084
 21
111.7984650602
  0
LINE
  5
2B5
100
AcDbEntity
  8
0
100
AcDbLine
 62
7
  6
CONTINUOUS
 10
102.3525910117
 20
111.3388905933
 11
102.4650910975
 21
111.3771885147
  0
LINE
  5
2B6
100
AcDbEntity
  8
0
100
AcDbLine
 62
7
  6
CONTINUOUS
 10
106.31259084
 20
112.4878267874
 11
106.2000910117
 21
112.4495289197
  0
LINE
  5
2B7
100
AcDbEntity
  8
0
100
AcDbLine
 62
7
  6
CONTINUOUS
 10
102.3525910117
 20
110.6878267874
 11
102.4650910975
 21
110.7261246586
  0
LINE
  5
2B8
100
AcDbEntity
  8
0
100
AcDbLine
 62
7
  6
CONTINUOUS
 10
103.3650910117
 20
110.6878267874
 11
103.47759084
 21
110.7261246586
  0
LINE
  5
2B9
100
AcDbEntity
  8
0
100
AcDbLine
 62
7
  6
CONTINUOUS
 10
104.4000911834
 20
110.9176140209
 11
104.28759084
 21
110.8793161531
  0
LINE
  5
2BA
100
AcDbEntity
  8
RACCORDO
100
AcDbLine
 62
253
  6
CONTINUOUS
 10
92.4050910117
 20
122.4286976532
 11
92.4050910117
 21
119.3878267874
  0
LINE
  5
2BB
100
AcDbEntity
  8
RACCORDO
100
AcDbLine
 62
253
  6
CONTINUOUS
 10
92.4050910117
 20
74.3878267874
 11
92.4050910117
 21
71.3469559216
  0
LINE
  5
2BC
100
AcDbEntity
  8
RACCORDO
100
AcDbLine
 62
7
  6
CONTINUOUS
 10
92.6050910117
 20
122.2287279413
 11
92.6050910117
 21
119.7878267874
  0
LINE
  5
2BD
100
AcDbEntity
  8
RACCORDO
100
AcDbLine
 62
7
  6
CONTINUOUS
 10
92.6050910117
 20
73.9878267874
 11
92.6050910117
 21
71.5469256353
  0
LWPOLYLINE
  5
2BE
100
AcDbEntity
  8
RACCORDO
100
AcDbPolyline
 62
7
  6
CONTINUOUS
 90
13
 70
0
 10
92.6050910117
 20
119.7878267874
 10
92.6040250227
 20
119.7714455564
 10
92.6008436358
 20
119.7534570151
 10
92.5955884291
 20
119.7338611637
 10
92.5883156172
 20
119.7125632866
 10
92.5791132458
 20
119.6896580992
 10
92.5681164098
 20
119.6654297482
 10
92.5555330821
 20
119.6399852003
 10
92.5414575354
 20
119.6132174887
 10
92.5258309574
 20
119.5850898598
 10
92.5087741596
 20
119.5555850818
 10
92.4904371533
 20
119.5247203864
 10
92.4707401532
 20
119.4925107152
  0
LINE
  5
2BF
100
AcDbEntity
  8
0
100
AcDbLine
 62
7
  6
CONTINUOUS
 10
99.3150910117
 20
114.6665502419
 11
99.3750910403
 21
114.7814438452
  0
LINE
  5
2C0
100
AcDbEntity
  8
0
100
AcDbLine
 62
7
  6
CONTINUOUS
 10
100.0050909545
 20
113.7091033866
 11
99.9450910117
 21
113.5942097565
  0
LINE
  5
2C1
100
AcDbEntity
  8
0
100
AcDbLine
 62
7
  6
CONTINUOUS
 10
98.6625910063
 20
112.3729331841
 11
98.5725910117
 21
112.219741713
  0
LINE
  5
2C2
100
AcDbEntity
  8
0
100
AcDbLine
 62
7
  6
CONTINUOUS
 10
100.0350910117
 20
113.4410182719
 11
100.1250910117
 21
113.5942097565
  0
LINE
  5
2C3
100
AcDbEntity
  8
RACCORDO
100
AcDbLine
 62
7
  6
CONTINUOUS
 10
103.5197804693
 20
118.8465818652
 11
103.4516256141
 21
118.7378267874
  0
LINE
  5
2C4
100
AcDbEntity
  8
0
100
AcDbLine
 62
7
  6
CONTINUOUS
 10
103.2750910117
 20
114.0537842502
 11
103.3350911261
 21
114.1303799858
  0
LINE
  5
2C5
100
AcDbEntity
  8
0
100
AcDbLine
 62
7
  6
CONTINUOUS
 10
99.2250910332
 20
111.0325076511
 11
99.1575910332
 21
110.9559118887
  0
LINE
  5
2C6
100
AcDbEntity
  8
0
100
AcDbLine
 62
7
  6
CONTINUOUS
 10
102.0825910117
 20
112.1814438452
 11
102.1500910117
 21
112.2580395808
  0
LINE
  5
2C7
100
AcDbEntity
  8
0
100
AcDbLine
 62
7
  6
CONTINUOUS
 10
102.1275910975
 20
112.4495289197
 11
102.0150910117
 21
112.3346353163
  0
LINE
  5
2C8
100
AcDbEntity
  8
0
100
AcDbLine
 62
7
  6
CONTINUOUS
 10
103.14009084
 20
112.4495289197
 11
103.0275910117
 21
112.3346353163
  0
LINE
  5
2C9
100
AcDbEntity
  8
0
100
AcDbLine
 62
7
  6
CONTINUOUS
 10
103.9050910117
 20
113.5942097565
 11
103.8150910117
 21
113.5176140209
  0
LINE
  5
2CA
100
AcDbEntity
  8
0
100
AcDbLine
 62
7
  6
CONTINUOUS
 10
106.6350912406
 20
113.6325076511
 11
106.5450912406
 21
113.5559118887
  0
LINE
  5
2CB
100
AcDbEntity
  8
0
100
AcDbLine
 62
7
  6
CONTINUOUS
 10
106.5750907828
 20
113.3261246586
 11
106.6950910117
 21
113.4027204042
  0
LINE
  5
2CC
100
AcDbEntity
  8
0
100
AcDbLine
 62
7
  6
CONTINUOUS
 10
103.4550911834
 20
110.9176140209
 11
103.3875911834
 21
110.8793161531
  0
LINE
  5
2CD
100
AcDbEntity
  8
0
100
AcDbLine
 62
7
  6
CONTINUOUS
 10
106.6050910117
 20
110.9559118887
 11
106.51509084
 21
110.9176140209
  0
LINE
  5
2CE
100
AcDbEntity
  8
0
100
AcDbLine
 62
7
  6
CONTINUOUS
 10
106.51509084
 20
110.6878267874
 11
106.6275911834
 21
110.7261246586
  0
LWPOLYLINE
  5
2CF
100
AcDbEntity
  8
RACCORDO
100
AcDbPolyline
 62
7
  6
CONTINUOUS
 90
11
 70
0
 10
103.4516256141
 20
75.0378267874
 10
103.5197804693
 20
74.9290717097
 10
103.5400687369
 20
74.895793725
 10
103.5588598973
 20
74.8639925444
 10
103.5762899951
 20
74.8336078698
 10
103.5922414389
 20
74.8045615654
 10
103.6064990388
 20
74.7769317668
 10
103.6190039141
 20
74.7508925829
 10
103.6296411985
 20
74.72650205
 10
103.6382731501
 20
74.7037021317
 10
103.6448107794
 20
74.6824928281
  0
LWPOLYLINE
  5
2D0
100
AcDbEntity
  8
RACCORDO
100
AcDbPolyline
 62
253
  6
CONTINUOUS
 90
13
 70
0
 10
92.6050910117
 20
122.2287281142
 10
92.603379984
 20
122.2548293767
 10
92.598276177
 20
122.2804840394
 10
92.5898669182
 20
122.3052531438
 10
92.5782960925
 20
122.3287128837
 10
92.5637616798
 20
122.3504618566
 10
92.5465123679
 20
122.3701279313
 10
92.5268432975
 20
122.387374616
 10
92.5050910117
 20
122.401906815
 10
92.4816276982
 20
122.4134758784
 10
92.4568548207
 20
122.4218838564
 10
92.4311962501
 20
122.4269868861
 10
92.4050910117
 20
122.4286976532
  0
LWPOLYLINE
  5
2D1
100
AcDbEntity
  8
RACCORDO
100
AcDbPolyline
 62
253
  6
CONTINUOUS
 90
6
 70
0
 10
92.6050910117
 20
122.0418675296
 10
92.6039953954
 20
122.0627699945
 10
92.6007205474
 20
122.0834434613
 10
92.5953023436
 20
122.1036614274
 10
92.5878001419
 20
122.1232023817
 10
92.5782961347
 20
122.141852226
  0
LINE
  5
2D2
100
AcDbEntity
  8
RACCORDO
100
AcDbLine
 62
7
  6
CONTINUOUS
 10
93.4050910117
 20
72.5444653877
 11
93.4050910117
 21
74.3878267874
  0
LINE
  5
2D3
100
AcDbEntity
  8
RACCORDO
100
AcDbLine
 62
7
  6
CONTINUOUS
 10
93.4050910117
 20
119.3878267874
 11
93.4050910117
 21
121.2311881871
  0
LINE
  5
2D4
100
AcDbEntity
  8
DRAFT
100
AcDbLine
 62
7
  6
CONTINUOUS
 10
93.7838761548
 20
123.8878267874
 11
93.7838761548
 21
122.8878267874
  0
LINE
  5
2D5
100
AcDbEntity
  8
DRAFT
100
AcDbLine
 62
7
  6
CONTINUOUS
 10
93.7838761548
 20
70.8878267874
 11
93.7838761548
 21
69.8878267874
  0
LWPOLYLINE
  5
2D6
100
AcDbEntity
  8
RACCORDO
100
AcDbPolyline
 62
253
  6
CONTINUOUS
 90
16
 70
0
 10
92.6050910117
 20
71.7337860453
 10
92.6039953908
 20
71.7128835366
 10
92.6007205318
 20
71.6922100403
 10
92.595302315
 20
71.6719920593
 10
92.5878001032
 20
71.6524511062
 10
92.5782960924
 20
71.6338012757
 10
92.5668944106
 20
71.6162468993
 10
92.5537199768
 20
71.5999803063
 10
92.538917133
 20
71.5851797171
 10
92.5226480621
 20
71.5720072898
 10
92.5050910117
 20
71.5606073445
 10
92.4864383403
 20
71.5511047812
 10
92.4668944105
 20
71.5436037121
 10
92.4466733498
 20
71.5381863204
 10
92.4259967043
 20
71.5349119603
 10
92.4050910117
 20
71.5338165062
  0
LWPOLYLINE
  5
2D7
100
AcDbEntity
  8
RACCORDO
100
AcDbPolyline
 62
7
  6
CONTINUOUS
 90
15
 70
0
 10
95.1050910117
 20
119.1378267874
 10
95.1040250227
 20
119.1214455564
 10
95.1008436358
 20
119.1034570151
 10
95.0955884291
 20
119.0838611637
 10
95.0883156172
 20
119.0625632866
 10
95.0791132458
 20
119.0396580992
 10
95.0681164098
 20
119.0154297482
 10
95.0555330821
 20
118.9899852003
 10
95.0414575354
 20
118.9632174887
 10
95.0258309574
 20
118.9350898598
 10
95.0087741596
 20
118.9055850818
 10
94.9904371533
 20
118.8747203864
 10
94.9707401532
 20
118.8425107152
 10
94.9497649733
 20
118.8089610485
 10
94.9050910117
 20
118.7378267874
  0
LWPOLYLINE
  5
2D8
100
AcDbEntity
  8
RACCORDO
100
AcDbPolyline
 62
253
  6
CONTINUOUS
 90
13
 70
0
 10
92.6050910117
 20
71.5469254607
 10
92.6033799848
 20
71.5208242047
 10
92.5982761802
 20
71.4951695475
 10
92.5898669248
 20
71.4704004471
 10
92.5782961033
 20
71.4469407098
 10
92.563761695
 20
71.4251917382
 10
92.546512387
 20
71.4055256626
 10
92.5268433191
 20
71.3882789755
 10
92.5050910341
 20
71.3737467728
 10
92.4816277191
 20
71.3621777051
 10
92.4568548372
 20
71.3537697229
 10
92.4311962596
 20
71.34866669
 10
92.4050910117
 20
71.3469559216
  0
LINE
  5
2D9
100
AcDbEntity
  8
0
100
AcDbLine
 62
7
  6
CONTINUOUS
 10
98.5725910117
 20
112.219741713
 11
98.5275910124
 21
112.0665502419
  0
LINE
  5
2DA
100
AcDbEntity
  8
0
100
AcDbLine
 62
7
  6
CONTINUOUS
 10
99.1950909974
 20
114.7814438452
 11
99.1350910117
 21
114.5899543991
  0
LINE
  5
2DB
100
AcDbEntity
  8
0
100
AcDbLine
 62
7
  6
CONTINUOUS
 10
98.6625910063
 20
112.0282522668
 11
98.7075910117
 21
112.1431459775
  0
LINE
  5
2DC
100
AcDbEntity
  8
0
100
AcDbLine
 62
7
  6
CONTINUOUS
 10
99.2700909902
 20
110.8027204042
 11
99.3600910332
 21
110.9559118887
  0
LINE
  5
2DD
100
AcDbEntity
  8
0
100
AcDbLine
 62
7
  6
CONTINUOUS
 10
103.2450911261
 20
114.9346353163
 11
103.1550911261
 21
114.7814438452
  0
LINE
  5
2DE
100
AcDbEntity
  8
0
100
AcDbLine
 62
7
  6
CONTINUOUS
 10
102.5100909259
 20
111.6452735891
 11
102.4425909259
 21
111.5686778535
  0
LINE
  5
2DF
100
AcDbEntity
  8
0
100
AcDbLine
 62
7
  6
CONTINUOUS
 10
103.0950910117
 20
112.1814438452
 11
103.1625910117
 21
112.2580395808
  0
LINE
  5
2E0
100
AcDbEntity
  8
0
100
AcDbLine
 62
7
  6
CONTINUOUS
 10
102.4650910975
 20
111.3771885147
 11
102.6000910975
 21
111.5303799858
  0
LINE
  5
2E1
100
AcDbEntity
  8
0
100
AcDbLine
 62
7
  6
CONTINUOUS
 10
103.14009084
 20
111.7984650602
 11
103.00509084
 21
111.6452735891
  0
LINE
  5
2E2
100
AcDbEntity
  8
0
100
AcDbLine
 62
7
  6
CONTINUOUS
 10
102.5100909259
 20
110.9942097565
 11
102.4425909259
 21
110.9176140209
  0
LINE
  5
2E3
100
AcDbEntity
  8
0
100
AcDbLine
 62
7
  6
CONTINUOUS
 10
103.0950910117
 20
111.5303799858
 11
103.1625910117
 21
111.6069757213
  0
LINE
  5
2E4
100
AcDbEntity
  8
0
100
AcDbLine
 62
7
  6
CONTINUOUS
 10
104.1075910117
 20
112.1814438452
 11
104.1750910117
 21
112.2580395808
  0
LINE
  5
2E5
100
AcDbEntity
  8
0
100
AcDbLine
 62
7
  6
CONTINUOUS
 10
103.5225911834
 20
110.9942097565
 11
103.4550911834
 21
110.9176140209
  0
LINE
  5
2E6
100
AcDbEntity
  8
0
100
AcDbLine
 62
7
  6
CONTINUOUS
 10
104.4675911834
 20
110.9942097565
 11
104.4000911834
 21
110.9176140209
  0
LINE
  5
2E7
100
AcDbEntity
  8
0
100
AcDbLine
 62
7
  6
CONTINUOUS
 10
102.4650910975
 20
110.7261246586
 11
102.5775909259
 21
110.8410182719
  0
LINE
  5
2E8
100
AcDbEntity
  8
0
100
AcDbLine
 62
7
  6
CONTINUOUS
 10
104.15259084
 20
112.4495289197
 11
104.0400910117
 21
112.3346353163
  0
LINE
  5
2E9
100
AcDbEntity
  8
0
100
AcDbLine
 62
7
  6
CONTINUOUS
 10
103.47759084
 20
110.7261246586
 11
103.5900911834
 21
110.8410182719
  0
LINE
  5
2EA
100
AcDbEntity
  8
0
100
AcDbLine
 62
7
  6
CONTINUOUS
 10
104.42259084
 20
110.7261246586
 11
104.5350911834
 21
110.8410182719
  0
LINE
  5
2EB
100
AcDbEntity
  8
RACCORDO
100
AcDbLine
 62
253
  6
CONTINUOUS
 10
116.6051671641
 20
122.8878267874
 11
115.9591774453
 21
122.2418370686
  0
LINE
  5
2EC
100
AcDbEntity
  8
0
100
AcDbLine
 62
7
  6
CONTINUOUS
 10
106.2000910117
 20
112.4495289197
 11
106.11009084
 21
112.3729331841
  0
LINE
  5
2ED
100
AcDbEntity
  8
0
100
AcDbLine
 62
7
  6
CONTINUOUS
 10
106.6275911834
 20
110.7261246586
 11
106.71759084
 21
110.8027204042
  0
LINE
  5
2EE
100
AcDbEntity
  8
RACCORDO
100
AcDbLine
 62
253
  6
CONTINUOUS
 10
116.6051671641
 20
70.8878267874
 11
115.9591774453
 21
71.5338165062
  0
LWPOLYLINE
  5
2EF
100
AcDbEntity
  8
RACCORDO
100
AcDbPolyline
 62
253
  6
CONTINUOUS
 90
13
 70
0
 10
95.1050910117
 20
120.9850904519
 10
95.103379984
 20
121.0111917144
 10
95.098276177
 20
121.036846377
 10
95.0898669182
 20
121.0616154815
 10
95.0782960924
 20
121.0850752214
 10
95.0637616797
 20
121.1068241942
 10
95.0465123679
 20
121.126490269
 10
95.0268432975
 20
121.1437369536
 10
95.0050910117
 20
121.1582691527
 10
94.9816276982
 20
121.1698382161
 10
94.9568548207
 20
121.1782461941
 10
94.9311962501
 20
121.1833492238
 10
94.9050910117
 20
121.1850599909
  0
LWPOLYLINE
  5
2F0
100
AcDbEntity
  8
RACCORDO
100
AcDbPolyline
 62
253
  6
CONTINUOUS
 90
16
 70
0
 10
95.1050910117
 20
120.8418675296
 10
95.1039953991
 20
120.8627699593
 10
95.1007205599
 20
120.8834434024
 10
95.0953023666
 20
120.9036613565
 10
95.087800173
 20
120.9232023119
 10
95.0782961686
 20
120.9418521673
 10
95.066894482
 20
120.9594065772
 10
95.053720029
 20
120.9756732106
 10
95.03891715
 20
120.9904738425
 10
95.0226480402
 20
121.003646301
 10
95.0050909481
 20
121.0150462671
 10
94.9864382355
 20
121.0245488403
 10
94.9668942869
 20
121.032049903
 10
94.9466732397
 20
121.0374672778
 10
94.9259966355
 20
121.0407416218
 10
94.9050910117
 20
121.0418370686
  0
LINE
  5
2F1
100
AcDbEntity
  8
RACCORDO
100
AcDbLine
 62
253
  6
CONTINUOUS
 10
94.9050910117
 20
121.1850599909
 11
94.9050910117
 21
118.7378267874
  0
LINE
  5
2F2
100
AcDbEntity
  8
RACCORDO
100
AcDbLine
 62
253
  6
CONTINUOUS
 10
94.9050910117
 20
75.0378267874
 11
94.9050910117
 21
72.5905935839
  0
LINE
  5
2F3
100
AcDbEntity
  8
RACCORDO
100
AcDbLine
 62
7
  6
CONTINUOUS
 10
95.1050910117
 20
120.9850875532
 11
95.1050910117
 21
119.1378267874
  0
LINE
  5
2F4
100
AcDbEntity
  8
RACCORDO
100
AcDbLine
 62
7
  6
CONTINUOUS
 10
95.1050910117
 20
74.6378267874
 11
95.1050910117
 21
72.7905660237
  0
LINE
  5
2F5
100
AcDbEntity
  8
RACCORDO
100
AcDbLine
 62
7
  6
CONTINUOUS
 10
95.9050910117
 20
73.5875548546
 11
95.9050910117
 21
74.3042343043
  0
LINE
  5
2F6
100
AcDbEntity
  8
RACCORDO
100
AcDbLine
 62
7
  6
CONTINUOUS
 10
95.9050910117
 20
119.4714192706
 11
95.9050910117
 21
120.1880987202
  0
LWPOLYLINE
  5
2F7
100
AcDbEntity
  8
RACCORDO
100
AcDbPolyline
 62
253
  6
CONTINUOUS
 90
16
 70
0
 10
95.1050910117
 20
72.9337860453
 10
95.1039953908
 20
72.9128835366
 10
95.1007205318
 20
72.8922100403
 10
95.095302315
 20
72.8719920593
 10
95.0878001032
 20
72.8524511062
 10
95.0782960924
 20
72.8338012757
 10
95.0668944106
 20
72.8162468993
 10
95.0537199768
 20
72.7999803063
 10
95.038917133
 20
72.7851797171
 10
95.0226480621
 20
72.7720072898
 10
95.0050910117
 20
72.7606073445
 10
94.9864383403
 20
72.7511047812
 10
94.9668944105
 20
72.7436037121
 10
94.9466733498
 20
72.7381863204
 10
94.9259967043
 20
72.7349119603
 10
94.9050910117
 20
72.7338165062
  0
LWPOLYLINE
  5
2F8
100
AcDbEntity
  8
RACCORDO
100
AcDbPolyline
 62
253
  6
CONTINUOUS
 90
13
 70
0
 10
95.1050910117
 20
72.790563123
 10
95.1033800013
 20
72.764461992
 10
95.0982762412
 20
72.7388074377
 10
95.089867051
 20
72.7140384139
 10
95.0782963092
 20
72.6905787288
 10
95.0637619859
 20
72.6688297796
 10
95.0465127506
 20
72.6491636885
 10
95.0268437311
 20
72.6319169539
 10
95.0050914626
 20
72.6173846825
 10
94.9816281177
 20
72.6058155325
 10
94.9568551525
 20
72.5974074696
 10
94.9311964406
 20
72.5923043761
 10
94.9050910117
 20
72.5905935839
  0
LINE
  5
2F9
100
AcDbEntity
  8
0
100
AcDbLine
 62
7
  6
CONTINUOUS
 10
98.6400910117
 20
111.8750607957
 11
98.6625910063
 21
112.0282522668
  0
LINE
  5
2FA
100
AcDbEntity
  8
0
100
AcDbLine
 62
7
  6
CONTINUOUS
 10
99.2475910117
 20
111.1474012544
 11
99.2250910332
 21
111.0325076511
  0
LINE
  5
2FB
100
AcDbEntity
  8
0
100
AcDbLine
 62
7
  6
CONTINUOUS
 10
99.2850910403
 20
114.5516565313
 11
99.3150910117
 21
114.6665502419
  0
LINE
  5
2FC
100
AcDbEntity
  8
0
100
AcDbLine
 62
7
  6
CONTINUOUS
 10
99.2850910403
 20
113.9388905933
 11
99.3150910117
 21
114.0537842502
  0
LINE
  5
2FD
100
AcDbEntity
  8
0
100
AcDbLine
 62
7
  6
CONTINUOUS
 10
100.0350910117
 20
113.8239969899
 11
100.0050909545
 21
113.7091033866
  0
LINE
  5
2FE
100
AcDbEntity
  8
0
100
AcDbLine
 62
7
  6
CONTINUOUS
 10
100.1250910117
 20
113.5942097565
 11
100.1850909545
 21
113.7856991222
  0
LINE
  5
2FF
100
AcDbEntity
  8
0
100
AcDbLine
 62
7
  6
CONTINUOUS
 10
101.3250910689
 20
114.8963374486
 11
100.7250909545
 21
113.2878267874
  0
LINE
  5
300
100
AcDbEntity
  8
0
100
AcDbLine
 62
7
  6
CONTINUOUS
 10
100.9050909545
 20
113.2878267874
 11
101.5050908973
 21
114.8963374486
  0
LINE
  5
301
100
AcDbEntity
  8
0
100
AcDbLine
 62
7
  6
CONTINUOUS
 10
102.6450910117
 20
114.8963374486
 11
102.0450908973
 21
113.2878267874
  0
LINE
  5
302
100
AcDbEntity
  8
0
100
AcDbLine
 62
7
  6
CONTINUOUS
 10
102.2250908973
 20
113.2878267874
 11
102.8250910117
 21
114.8963374486
  0
LINE
  5
303
100
AcDbEntity
  8
0
100
AcDbLine
 62
7
  6
CONTINUOUS
 10
102.0375909259
 20
112.0665502419
 11
102.0825910117
 21
112.1814438452
  0
LINE
  5
304
100
AcDbEntity
  8
0
100
AcDbLine
 62
7
  6
CONTINUOUS
 10
102.0150910117
 20
112.3346353163
 11
101.9475910117
 21
112.1814438452
  0
LINE
  5
305
100
AcDbEntity
  8
0
100
AcDbLine
 62
7
  6
CONTINUOUS
 10
103.2750910117
 20
114.6665502419
 11
103.3350911261
 21
114.7814438452
  0
LINE
  5
306
100
AcDbEntity
  8
0
100
AcDbLine
 62
7
  6
CONTINUOUS
 10
103.9650911261
 20
113.7091033866
 11
103.9050910117
 21
113.5942097565
  0
LINE
  5
307
100
AcDbEntity
  8
0
100
AcDbLine
 62
7
  6
CONTINUOUS
 10
103.9950910117
 20
113.4410182719
 11
104.0850910117
 21
113.5942097565
  0
LINE
  5
308
100
AcDbEntity
  8
0
100
AcDbLine
 62
7
  6
CONTINUOUS
 10
103.0500911834
 20
111.4537842502
 11
103.0950910117
 21
111.5303799858
  0
LINE
  5
309
100
AcDbEntity
  8
0
100
AcDbLine
 62
7
  6
CONTINUOUS
 10
104.0400910117
 20
112.3346353163
 11
103.9725910117
 21
112.219741713
  0
LINE
  5
30A
100
AcDbEntity
  8
0
100
AcDbLine
 62
7
  6
CONTINUOUS
 10
106.6950910117
 20
113.4027204042
 11
106.8150912406
 21
113.5559118887
  0
LINE
  5
30B
100
AcDbEntity
  8
0
100
AcDbLine
 62
7
  6
CONTINUOUS
 10
106.1550911834
 20
112.1431459775
 11
106.2225911834
 21
112.219741713
  0
LINE
  5
30C
100
AcDbEntity
  8
0
100
AcDbLine
 62
7
  6
CONTINUOUS
 10
106.6725910117
 20
111.0325076511
 11
106.6050910117
 21
110.9559118887
  0
LINE
  5
30D
100
AcDbEntity
  8
DRAFT
100
AcDbLine
 62
7
  6
CONTINUOUS
 10
93.475264237
 20
95.9052818524
 11
93.4596003196
 21
95.8878267874
  0
LINE
  5
30E
100
AcDbEntity
  8
RACCORDO
100
AcDbLine
 62
7
  6
CONTINUOUS
 10
101.6199653621
 20
106.8541294006
 11
101.6050910117
 21
106.8377011585
  0
LINE
  5
30F
100
AcDbEntity
  8
RACCORDO
100
AcDbLine
 62
253
  6
CONTINUOUS
 10
117.1050910117
 20
122.3879029399
 11
116.4591012929
 21
121.7419132211
  0
LINE
  5
310
100
AcDbEntity
  8
RACCORDO
100
AcDbLine
 62
7
  6
CONTINUOUS
 10
92.6381442895
 20
97.8723693043
 11
92.6552166406
 21
97.8878267874
  0
LINE
  5
311
100
AcDbEntity
  8
DRAFT
100
AcDbLine
 62
7
  6
CONTINUOUS
 10
103.5876359468
 20
106.0176535621
 11
103.6050910117
 21
106.0333174796
  0
LINE
  5
312
100
AcDbEntity
  8
DRAFT
100
AcDbLine
 62
7
  6
CONTINUOUS
 10
103.5876359468
 20
87.7580000128
 11
103.6050910117
 21
87.7423360953
  0
LINE
  5
313
100
AcDbEntity
  8
RACCORDO
100
AcDbLine
 62
7
  6
CONTINUOUS
 10
92.6359380172
 20
95.9052818524
 11
92.6552166406
 21
95.8878267874
  0
LINE
  5
314
100
AcDbEntity
  8
RACCORDO
100
AcDbLine
 62
253
  6
CONTINUOUS
 10
117.1050910117
 20
71.387750635
 11
116.4591012929
 21
72.0337403538
  0
LINE
  5
315
100
AcDbEntity
  8
RACCORDO
100
AcDbLine
 62
7
  6
CONTINUOUS
 10
101.6050910117
 20
86.9379524164
 11
101.6221533862
 21
86.9191075083
  0
LINE
  5
316
100
AcDbEntity
  8
DRAFT
100
AcDbLine
 62
7
  6
CONTINUOUS
 10
93.475264237
 20
97.8703717225
 11
93.4596003196
 21
97.8878267874
  0
LINE
  5
317
100
AcDbEntity
  8
CURVE
100
AcDbLine
 62
253
  6
CONTINUOUS
 10
97.6050910117
 20
109.8878267874
 11
97.6050910117
 21
115.8878267874
  0
LINE
  5
318
100
AcDbEntity
  8
0
100
AcDbLine
 62
7
  6
CONTINUOUS
 10
98.5050910117
 20
114.819741713
 11
98.5050910117
 21
114.5133586635
  0
LINE
  5
319
100
AcDbEntity
  8
0
100
AcDbLine
 62
7
  6
CONTINUOUS
 10
98.5050910117
 20
111.8750607957
 11
98.5050910117
 21
111.3005927255
  0
LINE
  5
31A
100
AcDbEntity
  8
0
100
AcDbLine
 62
7
  6
CONTINUOUS
 10
98.6400910117
 20
111.3005927255
 11
98.6400910117
 21
111.8750607957
  0
LINE
  5
31B
100
AcDbEntity
  8
0
100
AcDbLine
 62
7
  6
CONTINUOUS
 10
98.6850910117
 20
114.7814438452
 11
98.6850910117
 21
113.2878267874
  0
LINE
  5
31C
100
AcDbEntity
  8
0
100
AcDbLine
 62
7
  6
CONTINUOUS
 10
99.1350910117
 20
114.5899543991
 11
99.1050909974
 21
114.3218693246
  0
LINE
  5
31D
100
AcDbEntity
  8
0
100
AcDbLine
 62
7
  6
CONTINUOUS
 10
98.5275910124
 20
112.0665502419
 11
98.5050910117
 21
111.8750607957
  0
LINE
  5
31E
100
AcDbEntity
  8
0
100
AcDbLine
 62
7
  6
CONTINUOUS
 10
99.9225910117
 20
110.6878267874
 11
100.1025909688
 21
112.1431459775
  0
LINE
  5
31F
100
AcDbEntity
  8
0
100
AcDbLine
 62
7
  6
CONTINUOUS
 10
99.2550909831
 20
114.3218693246
 11
99.2850910403
 21
114.5516565313
  0
LINE
  5
320
100
AcDbEntity
  8
0
100
AcDbLine
 62
7
  6
CONTINUOUS
 10
100.0125910546
 20
112.4878267874
 11
99.8325909688
 21
111.1091033866
  0
LINE
  5
321
100
AcDbEntity
  8
0
100
AcDbLine
 62
7
  6
CONTINUOUS
 10
99.3600910332
 20
110.9559118887
 11
99.3825910117
 21
111.1091033866
  0
LINE
  5
322
100
AcDbEntity
  8
0
100
AcDbLine
 62
7
  6
CONTINUOUS
 10
101.9475910117
 20
112.1814438452
 11
101.9025909259
 21
111.9899543991
  0
LINE
  5
323
100
AcDbEntity
  8
0
100
AcDbLine
 62
7
  6
CONTINUOUS
 10
103.2450911261
 20
114.5516565313
 11
103.2750910117
 21
114.6665502419
  0
LWPOLYLINE
  5
324
100
AcDbEntity
  8
RACCORDO
100
AcDbPolyline
 62
7
  6
CONTINUOUS
 90
10
 70
0
 10
103.6448107794
 20
119.0931607468
 10
103.6382731501
 20
119.0719514432
 10
103.6296411985
 20
119.0491515249
 10
103.6190039141
 20
119.0247609919
 10
103.6064990388
 20
118.9987218081
 10
103.5922414389
 20
118.9710920095
 10
103.5762899951
 20
118.942045705
 10
103.5588598973
 20
118.9116610304
 10
103.5400687369
 20
118.8798598499
 10
103.5197804693
 20
118.8465818652
  0
LINE
  5
325
100
AcDbEntity
  8
0
100
AcDbLine
 62
7
  6
CONTINUOUS
 10
103.1550911261
 20
114.7814438452
 11
103.0950910117
 21
114.5899543991
  0
LINE
  5
326
100
AcDbEntity
  8
0
100
AcDbLine
 62
7
  6
CONTINUOUS
 10
102.5550910117
 20
111.7601671924
 11
102.5100909259
 21
111.6452735891
  0
LINE
  5
327
100
AcDbEntity
  8
0
100
AcDbLine
 62
7
  6
CONTINUOUS
 10
102.5550910117
 20
111.1091033866
 11
102.5100909259
 21
110.9942097565
  0
LINE
  5
328
100
AcDbEntity
  8
0
100
AcDbLine
 62
7
  6
CONTINUOUS
 10
103.0500911834
 20
112.0665502419
 11
103.0950910117
 21
112.1814438452
  0
LINE
  5
329
100
AcDbEntity
  8
0
100
AcDbLine
 62
7
  6
CONTINUOUS
 10
103.5675910117
 20
111.1091033866
 11
103.5225911834
 21
110.9942097565
  0
LINE
  5
32A
100
AcDbEntity
  8
0
100
AcDbLine
 62
7
  6
CONTINUOUS
 10
104.01759084
 20
111.9516565313
 11
104.1075910117
 21
112.1814438452
  0
LINE
  5
32B
100
AcDbEntity
  8
0
100
AcDbLine
 62
7
  6
CONTINUOUS
 10
103.0275910117
 20
112.3346353163
 11
102.9600910117
 21
112.1814438452
  0
LINE
  5
32C
100
AcDbEntity
  8
0
100
AcDbLine
 62
7
  6
CONTINUOUS
 10
102.5775909259
 20
110.8410182719
 11
102.6450909259
 21
110.9942097565
  0
LINE
  5
32D
100
AcDbEntity
  8
0
100
AcDbLine
 62
7
  6
CONTINUOUS
 10
103.5900911834
 20
110.8410182719
 11
103.6575911834
 21
110.9942097565
  0
LINE
  5
32E
100
AcDbEntity
  8
0
100
AcDbLine
 62
7
  6
CONTINUOUS
 10
105.3788411834
 20
112.4878267874
 11
105.3113411834
 21
112.3378268232
  0
LINE
  5
32F
100
AcDbEntity
  8
0
100
AcDbLine
 62
7
  6
CONTINUOUS
 10
106.6950910117
 20
113.7474012544
 11
106.6350912406
 21
113.6325076511
  0
LINE
  5
330
100
AcDbEntity
  8
0
100
AcDbLine
 62
7
  6
CONTINUOUS
 10
104.5350911834
 20
110.8410182719
 11
104.6025911834
 21
110.9559118887
  0
LINE
  5
331
100
AcDbEntity
  8
0
100
AcDbLine
 62
7
  6
CONTINUOUS
 10
106.11009084
 20
112.3729331841
 11
106.0200911834
 21
112.219741713
  0
LWPOLYLINE
  5
332
100
AcDbEntity
  8
RACCORDO
100
AcDbPolyline
 62
253
  6
CONTINUOUS
 90
11
 70
0
 10
112.6318859309
 20
122.1418522991
 10
112.6432876128
 20
122.1594066756
 10
112.6564620466
 20
122.1756732685
 10
112.6712648904
 20
122.1904738578
 10
112.6875339613
 20
122.2036462851
 10
112.7050910117
 20
122.2150462304
 10
112.7237436831
 20
122.2245487937
 10
112.7432876128
 20
122.2320498628
 10
112.7635086736
 20
122.2374672544
 10
112.7841853191
 20
122.2407416146
 10
112.8050910117
 20
122.2418370686
  0
LINE
  5
333
100
AcDbEntity
  8
DRAFT
100
AcDbLine
 62
7
  6
CONTINUOUS
 10
95.9596920183
 20
96.1517908394
 11
95.9472009555
 21
96.1378267874
  0
LINE
  5
334
100
AcDbEntity
  8
RACCORDO
100
AcDbLine
 62
7
  6
CONTINUOUS
 10
101.8666858032
 20
104.3630378007
 11
101.8550910117
 21
104.3502325657
  0
LINE
  5
335
100
AcDbEntity
  8
RACCORDO
100
AcDbLine
 62
7
  6
CONTINUOUS
 10
95.1298800038
 20
97.626232053
 11
95.1426852334
 21
97.6378267874
  0
LINE
  5
336
100
AcDbEntity
  8
DRAFT
100
AcDbLine
 62
7
  6
CONTINUOUS
 10
103.3411269598
 20
103.5332257809
 11
103.3550910117
 21
103.5457168436
  0
LINE
  5
337
100
AcDbEntity
  8
DRAFT
100
AcDbLine
 62
7
  6
CONTINUOUS
 10
103.3411269598
 20
90.242427794
 11
103.3550910117
 21
90.2299367313
  0
LINE
  5
338
100
AcDbEntity
  8
RACCORDO
100
AcDbLine
 62
7
  6
CONTINUOUS
 10
95.1293705725
 20
96.1498828503
 11
95.1426852334
 21
96.1378267874
  0
LINE
  5
339
100
AcDbEntity
  8
RACCORDO
100
AcDbLine
 62
7
  6
CONTINUOUS
 10
101.8680293457
 20
89.4111319077
 11
101.8550910117
 21
89.4254210091
  0
LINE
  5
33A
100
AcDbEntity
  8
DRAFT
100
AcDbLine
 62
7
  6
CONTINUOUS
 10
95.9596920183
 20
97.6238627355
 11
95.9472009555
 21
97.6378267874
  0
LWPOLYLINE
  5
33B
100
AcDbEntity
  8
RACCORDO
100
AcDbPolyline
 62
253
  6
CONTINUOUS
 90
11
 70
0
 10
112.6318858887
 20
71.6338013489
 10
112.6432875732
 20
71.6162469538
 10
112.6564620177
 20
71.5999803385
 10
112.671264881
 20
71.5851797256
 10
112.6875339734
 20
71.572007281
 10
112.705091047
 20
71.5606073241
 10
112.7237437412
 20
71.5511047553
 10
112.7432876814
 20
71.5436036898
 10
112.7635087346
 20
71.5381863075
 10
112.7841853572
 20
71.5349119563
 10
112.8050910117
 20
71.5338165063
  0
LWPOLYLINE
  5
33C
100
AcDbEntity
  8
RACCORDO
100
AcDbPolyline
 62
253
  6
CONTINUOUS
 90
13
 70
0
 10
101.4863893938
 20
73.9339383733
 10
101.4881461183
 20
73.9079121238
 10
101.4931593235
 20
73.8823284932
 10
101.5013437736
 20
73.8576227061
 10
101.5125602825
 20
73.8342150634
 10
101.5266180795
 20
73.8125037931
 10
101.5432780527
 20
73.7928582742
 10
101.5622568277
 20
73.7756127414
 10
101.5832315535
 20
73.7610606293
 10
101.6058453828
 20
73.7494495633
 10
101.6297135947
 20
73.7409771088
 10
101.6544301505
 20
73.7357874256
 10
101.6795745595
 20
73.7339688343
  0
LWPOLYLINE
  5
33D
100
AcDbEntity
  8
RACCORDO
100
AcDbPolyline
 62
7
  6
CONTINUOUS
 90
16
 70
0
 10
101.0156027883
 20
73.9032698324
 10
101.0167655225
 20
73.8783616597
 10
101.0202856365
 20
73.8545406887
 10
101.0258411053
 20
73.83210478
 10
101.0330025934
 20
73.8113599376
 10
101.0415057507
 20
73.7923813046
 10
101.0513433482
 20
73.7750690258
 10
101.0623027792
 20
73.7594894079
 10
101.0740891383
 20
73.745755692
 10
101.0866719673
 20
73.7338507032
 10
101.0998530945
 20
73.7237921298
 10
101.1133969268
 20
73.7155938665
 10
101.1272552082
 20
73.7092285373
 10
101.1412928121
 20
73.7046626461
 10
101.1552840633
 20
73.7018467818
 10
101.1690681859
 20
73.700712821
  0
LINE
  5
33E
100
AcDbEntity
  8
0
100
AcDbLine
 62
7
  6
CONTINUOUS
 10
98.8650910117
 20
113.2878267874
 11
98.8650910117
 21
115.0878267874
  0
LINE
  5
33F
100
AcDbEntity
  8
0
100
AcDbLine
 62
7
  6
CONTINUOUS
 10
99.0450910117
 20
111.6835714569
 11
99.0450910117
 21
111.4537842502
  0
LINE
  5
340
100
AcDbEntity
  8
0
100
AcDbLine
 62
7
  6
CONTINUOUS
 10
99.1050909974
 20
114.3218693246
 11
99.1050909974
 21
114.0537842502
  0
LINE
  5
341
100
AcDbEntity
  8
0
100
AcDbLine
 62
7
  6
CONTINUOUS
 10
99.2475910117
 20
111.4537842502
 11
99.2475910117
 21
111.1474012544
  0
LINE
  5
342
100
AcDbEntity
  8
0
100
AcDbLine
 62
7
  6
CONTINUOUS
 10
99.2550909831
 20
114.2452735891
 11
99.2550909831
 21
114.3218693246
  0
LINE
  5
343
100
AcDbEntity
  8
0
100
AcDbLine
 62
7
  6
CONTINUOUS
 10
99.2850910403
 20
113.8239969899
 11
99.2850910403
 21
113.9388905933
  0
LINE
  5
344
100
AcDbEntity
  8
0
100
AcDbLine
 62
7
  6
CONTINUOUS
 10
99.3825910117
 20
111.1091033866
 11
99.3825910117
 21
111.6835714569
  0
LINE
  5
345
100
AcDbEntity
  8
0
100
AcDbLine
 62
7
  6
CONTINUOUS
 10
100.0350910117
 20
113.9388905933
 11
100.0350910117
 21
113.8239969899
  0
LINE
  5
346
100
AcDbEntity
  8
0
100
AcDbLine
 62
7
  6
CONTINUOUS
 10
100.1850909545
 20
113.7856991222
 11
100.1850909545
 21
113.9771885147
  0
LINE
  5
347
100
AcDbEntity
  8
0
100
AcDbLine
 62
7
  6
CONTINUOUS
 10
100.4250910689
 20
115.0878267874
 11
100.4250910689
 21
114.8963374486
  0
LWPOLYLINE
  5
348
100
AcDbEntity
  8
RACCORDO
100
AcDbPolyline
 62
253
  6
CONTINUOUS
 90
13
 70
0
 10
101.4863893938
 20
119.8417152016
 10
101.4881462168
 20
119.8677420992
 10
101.493159648
 20
119.8933262234
 10
101.5013443981
 20
119.9180323329
 10
101.5125612269
 20
119.9414401238
 10
101.526619312
 20
119.9631513791
 10
101.5432794951
 20
119.9827967436
 10
101.5622583506
 20
120.0000420075
 10
101.5832330074
 20
120.0145937916
 10
101.6058466414
 20
120.0262045387
 10
101.6297145459
 20
120.0346767251
 10
101.6544306767
 20
120.0398662205
 10
101.679574559
 20
120.0416847406
  0
LINE
  5
349
100
AcDbEntity
  8
0
100
AcDbLine
 62
7
  6
CONTINUOUS
 10
100.5075909688
 20
112.4878267874
 11
100.3725909688
 21
111.1091033866
  0
LINE
  5
34A
100
AcDbEntity
  8
0
100
AcDbLine
 62
7
  6
CONTINUOUS
 10
100.4625910117
 20
110.6878267874
 11
100.6425909688
 21
112.4878267874
  0
LINE
  5
34B
100
AcDbEntity
  8
0
100
AcDbLine
 62
7
  6
CONTINUOUS
 10
102.0150910117
 20
111.9516565313
 11
102.0375909259
 21
112.0665502419
  0
LINE
  5
34C
100
AcDbEntity
  8
0
100
AcDbLine
 62
7
  6
CONTINUOUS
 10
102.5775909259
 20
111.8750607957
 11
102.5550910117
 21
111.7601671924
  0
LINE
  5
34D
100
AcDbEntity
  8
0
100
AcDbLine
 62
7
  6
CONTINUOUS
 10
102.5775909259
 20
111.2239969899
 11
102.5550910117
 21
111.1091033866
  0
LINE
  5
34E
100
AcDbEntity
  8
0
100
AcDbLine
 62
7
  6
CONTINUOUS
 10
103.0275910117
 20
111.9516565313
 11
103.0500911834
 21
112.0665502419
  0
LINE
  5
34F
100
AcDbEntity
  8
0
100
AcDbLine
 62
7
  6
CONTINUOUS
 10
103.0275910117
 20
111.3388905933
 11
103.0500911834
 21
111.4537842502
  0
LINE
  5
350
100
AcDbEntity
  8
0
100
AcDbLine
 62
7
  6
CONTINUOUS
 10
103.5900911834
 20
111.2239969899
 11
103.5675910117
 21
111.1091033866
  0
LINE
  5
351
100
AcDbEntity
  8
0
100
AcDbLine
 62
7
  6
CONTINUOUS
 10
102.6450909259
 20
110.9942097565
 11
102.6900910117
 21
111.1856991222
  0
LINE
  5
352
100
AcDbEntity
  8
0
100
AcDbLine
 62
7
  6
CONTINUOUS
 10
102.9600910117
 20
112.1814438452
 11
102.9150911834
 21
111.9899543991
  0
LINE
  5
353
100
AcDbEntity
  8
0
100
AcDbLine
 62
7
  6
CONTINUOUS
 10
103.6575911834
 20
110.9942097565
 11
103.7025910117
 21
111.1856991222
  0
LINE
  5
354
100
AcDbEntity
  8
0
100
AcDbLine
 62
7
  6
CONTINUOUS
 10
103.2450911261
 20
113.9388905933
 11
103.2750910117
 21
114.0537842502
  0
LINE
  5
355
100
AcDbEntity
  8
0
100
AcDbLine
 62
7
  6
CONTINUOUS
 10
103.9950910117
 20
113.8239969899
 11
103.9650911261
 21
113.7091033866
  0
LINE
  5
356
100
AcDbEntity
  8
0
100
AcDbLine
 62
7
  6
CONTINUOUS
 10
104.7150910117
 20
113.9005927255
 11
104.9850910117
 21
114.9346353163
  0
LINE
  5
357
100
AcDbEntity
  8
0
100
AcDbLine
 62
7
  6
CONTINUOUS
 10
104.5650912406
 20
113.2878267874
 11
104.6850907828
 21
113.7474012544
  0
LINE
  5
358
100
AcDbEntity
  8
0
100
AcDbLine
 62
7
  6
CONTINUOUS
 10
104.8650907828
 20
115.0878267874
 11
104.3850912406
 21
113.2878267874
  0
LINE
  5
359
100
AcDbEntity
  8
0
100
AcDbLine
 62
7
  6
CONTINUOUS
 10
103.9725910117
 20
112.219741713
 11
103.9275911834
 21
112.0665502419
  0
LINE
  5
35A
100
AcDbEntity
  8
0
100
AcDbLine
 62
7
  6
CONTINUOUS
 10
104.6025911834
 20
110.9559118887
 11
104.6475910117
 21
111.1091033866
  0
LINE
  5
35B
100
AcDbEntity
  8
0
100
AcDbLine
 62
7
  6
CONTINUOUS
 10
104.0850910117
 20
113.5942097565
 11
104.1450911261
 21
113.7856991222
  0
LINE
  5
35C
100
AcDbEntity
  8
0
100
AcDbLine
 62
7
  6
CONTINUOUS
 10
104.55759084
 20
111.2239969899
 11
104.4675911834
 21
110.9942097565
  0
LINE
  5
35D
100
AcDbEntity
  8
0
100
AcDbLine
 62
7
  6
CONTINUOUS
 10
106.11009084
 20
112.0282522668
 11
106.1550911834
 21
112.1431459775
  0
LINE
  5
35E
100
AcDbEntity
  8
0
100
AcDbLine
 62
7
  6
CONTINUOUS
 10
106.8150912406
 20
113.5559118887
 11
106.8750910117
 21
113.7091033866
  0
LINE
  5
35F
100
AcDbEntity
  8
0
100
AcDbLine
 62
7
  6
CONTINUOUS
 10
105.4463411834
 20
112.0378267874
 11
105.5138411834
 21
112.1878267517
  0
LINE
  5
360
100
AcDbEntity
  8
0
100
AcDbLine
 62
7
  6
CONTINUOUS
 10
106.71759084
 20
110.8027204042
 11
106.8075910117
 21
110.9559118887
  0
LINE
  5
361
100
AcDbEntity
  8
0
100
AcDbLine
 62
7
  6
CONTINUOUS
 10
98.6625910063
 20
111.1474012544
 11
98.6400910117
 21
111.3005927255
  0
LINE
  5
362
100
AcDbEntity
  8
0
100
AcDbLine
 62
7
  6
CONTINUOUS
 10
98.5050910117
 20
111.3005927255
 11
98.5275910124
 21
111.1091033866
  0
LINE
  5
363
100
AcDbEntity
  8
0
100
AcDbLine
 62
7
  6
CONTINUOUS
 10
99.5625910332
 20
112.4878267874
 11
99.7425910546
 21
110.6878267874
  0
LINE
  5
364
100
AcDbEntity
  8
0
100
AcDbLine
 62
7
  6
CONTINUOUS
 10
99.8325909688
 20
111.1091033866
 11
99.6975909688
 21
112.4878267874
  0
LWPOLYLINE
  5
365
100
AcDbEntity
  8
RACCORDO
100
AcDbPolyline
 62
253
  6
CONTINUOUS
 90
19
 70
0
 10
101.565371244
 20
119.541760893
 10
101.5650619853
 20
119.5677160473
 10
101.5641816753
 20
119.5931368725
 10
101.5627303141
 20
119.6180233686
 10
101.5606904891
 20
119.6425523997
 10
101.558079613
 20
119.6665471018
 10
101.554949923
 20
119.6894768823
 10
101.5512901173
 20
119.711320803
 10
101.5471114978
 20
119.7320998022
 10
101.5425002078
 20
119.7513461021
 10
101.5374453626
 20
119.7690295724
 10
101.5319578469
 20
119.7851803434
 10
101.5261564579
 20
119.7994210285
 10
101.5200291275
 20
119.8117104009
 10
101.5135879238
 20
119.8220896874
 10
101.5069878485
 20
119.8303051814
 10
101.5002805686
 20
119.836272314
 10
101.493414417
 20
119.840075654
 10
101.4863893938
 20
119.8417152016
  0
LWPOLYLINE
  5
366
100
AcDbEntity
  8
RACCORDO
100
AcDbPolyline
 62
253
  6
CONTINUOUS
 90
19
 70
0
 10
101.7585564093
 20
119.541760893
 10
101.7582451244
 20
119.5845245199
 10
101.7573639714
 20
119.6270011304
 10
101.7559129506
 20
119.6688781735
 10
101.7538745956
 20
119.7098401183
 10
101.7512663727
 20
119.7495904338
 10
101.7481406803
 20
119.7878516544
 10
101.7444866213
 20
119.8243393093
 10
101.7403150928
 20
119.858773379
 10
101.735711184
 20
119.8908971802
 10
101.7306637293
 20
119.9204657296
 10
101.7251838944
 20
119.9472443526
 10
101.7193902647
 20
119.9710181893
 10
101.713274273
 20
119.9916010341
 10
101.7068444866
 20
120.0088241949
 10
101.7002451932
 20
120.0225402644
 10
101.6935244887
 20
120.0326381478
 10
101.6866342774
 20
120.0390379429
 10
101.679574559
 20
120.0416847406
  0
LINE
  5
367
100
AcDbEntity
  8
RACCORDO
100
AcDbLine
 62
7
  6
CONTINUOUS
 10
101.0156027883
 20
73.9006823601
 11
101.0156027883
 21
74.5042647699
  0
LINE
  5
368
100
AcDbEntity
  8
RACCORDO
100
AcDbLine
 62
7
  6
CONTINUOUS
 10
101.0156027883
 20
119.271388805
 11
101.0156027883
 21
119.8749712148
  0
LINE
  5
369
100
AcDbEntity
  8
DRAFT
100
AcDbLine
 62
7
  6
CONTINUOUS
 10
101.2835519808
 20
119.2539337401
 11
101.2835519808
 21
119.2378267874
  0
LINE
  5
36A
100
AcDbEntity
  8
DRAFT
100
AcDbLine
 62
7
  6
CONTINUOUS
 10
101.2835519808
 20
74.5378267874
 11
101.2835519808
 21
74.5217198348
  0
LINE
  5
36B
100
AcDbEntity
  8
0
100
AcDbLine
 62
7
  6
CONTINUOUS
 10
101.5050908973
 20
114.8963374486
 11
101.5050908973
 21
115.0878267874
  0
LINE
  5
36C
100
AcDbEntity
  8
RACCORDO
100
AcDbLine
 62
253
  6
CONTINUOUS
 10
101.565371244
 20
74.2338926818
 11
101.565371244
 21
74.6824928281
  0
LINE
  5
36D
100
AcDbEntity
  8
RACCORDO
100
AcDbLine
 62
253
  6
CONTINUOUS
 10
101.565371244
 20
119.0931607468
 11
101.565371244
 21
119.541760893
  0
LINE
  5
36E
100
AcDbEntity
  8
DRAFT
100
AcDbLine
 62
7
  6
CONTINUOUS
 10
101.6050910117
 20
86.9379524164
 11
101.6050910117
 21
87.7423360953
  0
LINE
  5
36F
100
AcDbEntity
  8
DRAFT
100
AcDbLine
 62
7
  6
CONTINUOUS
 10
101.6050910117
 20
106.0333174796
 11
101.6050910117
 21
106.8377011585
  0
LINE
  5
370
100
AcDbEntity
  8
RACCORDO
100
AcDbLine
 62
7
  6
CONTINUOUS
 10
101.6225460766
 20
86.9186737929
 11
101.6225460766
 21
87.7580000128
  0
LINE
  5
371
100
AcDbEntity
  8
RACCORDO
100
AcDbLine
 62
7
  6
CONTINUOUS
 10
101.6225460766
 20
106.0176535621
 11
101.6225460766
 21
106.8569797169
  0
LINE
  5
372
100
AcDbEntity
  8
0
100
AcDbLine
 62
7
  6
CONTINUOUS
 10
101.7450910117
 20
115.0878267874
 11
101.7450910117
 21
114.8963374486
  0
LINE
  5
373
100
AcDbEntity
  8
RACCORDO
100
AcDbLine
 62
253
  6
CONTINUOUS
 10
101.7585564093
 20
74.2338926818
 11
101.7585564093
 21
75.0378267874
  0
LINE
  5
374
100
AcDbEntity
  8
RACCORDO
100
AcDbLine
 62
253
  6
CONTINUOUS
 10
101.7585564093
 20
118.7378267874
 11
101.7585564093
 21
119.541760893
  0
LINE
  5
375
100
AcDbEntity
  8
DRAFT
100
AcDbLine
 62
7
  6
CONTINUOUS
 10
101.8550910117
 20
89.4254210091
 11
101.8550910117
 21
90.2299367313
  0
LINE
  5
376
100
AcDbEntity
  8
DRAFT
100
AcDbLine
 62
7
  6
CONTINUOUS
 10
101.8550910117
 20
103.5457168436
 11
101.8550910117
 21
104.3502325657
  0
LINE
  5
377
100
AcDbEntity
  8
RACCORDO
100
AcDbLine
 62
7
  6
CONTINUOUS
 10
101.8690550636
 20
89.4099991044
 11
101.8690550636
 21
90.242427794
  0
LINE
  5
378
100
AcDbEntity
  8
RACCORDO
100
AcDbLine
 62
7
  6
CONTINUOUS
 10
101.8690550636
 20
103.5332257809
 11
101.8690550636
 21
104.3656544011
  0
LINE
  5
379
100
AcDbEntity
  8
0
100
AcDbLine
 62
7
  6
CONTINUOUS
 10
101.9025909259
 20
111.9899543991
 11
101.9025909259
 21
111.836762928
  0
LINE
  5
37A
100
AcDbEntity
  8
0
100
AcDbLine
 62
7
  6
CONTINUOUS
 10
102.0150910117
 20
111.8750607957
 11
102.0150910117
 21
111.9516565313
  0
LINE
  5
37B
100
AcDbEntity
  8
0
100
AcDbLine
 62
7
  6
CONTINUOUS
 10
102.5775909259
 20
111.9516565313
 11
102.5775909259
 21
111.8750607957
  0
LINE
  5
37C
100
AcDbEntity
  8
0
100
AcDbLine
 62
7
  6
CONTINUOUS
 10
102.6000910975
 20
111.5303799858
 11
102.6000910975
 21
111.4537842502
  0
LINE
  5
37D
100
AcDbEntity
  8
0
100
AcDbLine
 62
7
  6
CONTINUOUS
 10
102.7125909259
 20
111.4537842502
 11
102.7125909259
 21
111.7218693246
  0
LINE
  5
37E
100
AcDbEntity
  8
0
100
AcDbLine
 62
7
  6
CONTINUOUS
 10
102.8250910117
 20
114.8963374486
 11
102.8250910117
 21
115.0878267874
  0
LINE
  5
37F
100
AcDbEntity
  8
0
100
AcDbLine
 62
7
  6
CONTINUOUS
 10
102.6900910117
 20
111.1856991222
 11
102.7125909259
 21
111.4537842502
  0
LINE
  5
380
100
AcDbEntity
  8
0
100
AcDbLine
 62
7
  6
CONTINUOUS
 10
102.9150911834
 20
111.9899543991
 11
102.8925910117
 21
111.7218693246
  0
LINE
  5
381
100
AcDbEntity
  8
0
100
AcDbLine
 62
7
  6
CONTINUOUS
 10
102.6000910975
 20
111.4537842502
 11
102.5775909259
 21
111.2239969899
  0
LINE
  5
382
100
AcDbEntity
  8
0
100
AcDbLine
 62
7
  6
CONTINUOUS
 10
103.00509084
 20
111.7218693246
 11
103.0275910117
 21
111.9516565313
  0
LINE
  5
383
100
AcDbEntity
  8
0
100
AcDbLine
 62
7
  6
CONTINUOUS
 10
103.9950911834
 20
111.7218693246
 11
104.01759084
 21
111.9516565313
  0
LINE
  5
384
100
AcDbEntity
  8
0
100
AcDbLine
 62
7
  6
CONTINUOUS
 10
103.0950910117
 20
114.5899543991
 11
103.0650911261
 21
114.3218693246
  0
LINE
  5
385
100
AcDbEntity
  8
0
100
AcDbLine
 62
7
  6
CONTINUOUS
 10
103.9050910117
 20
111.9516565313
 11
103.88259084
 21
111.7601671924
  0
LINE
  5
386
100
AcDbEntity
  8
0
100
AcDbLine
 62
7
  6
CONTINUOUS
 10
103.2150908973
 20
114.3218693246
 11
103.2450911261
 21
114.5516565313
  0
LINE
  5
387
100
AcDbEntity
  8
0
100
AcDbLine
 62
7
  6
CONTINUOUS
 10
103.9275911834
 20
112.0665502419
 11
103.9050910117
 21
111.9516565313
  0
LINE
  5
388
100
AcDbEntity
  8
0
100
AcDbLine
 62
7
  6
CONTINUOUS
 10
104.6475910117
 20
111.1091033866
 11
104.6700911834
 21
111.2239969899
  0
LINE
  5
389
100
AcDbEntity
  8
0
100
AcDbLine
 62
7
  6
CONTINUOUS
 10
106.0200911834
 20
112.219741713
 11
105.97509084
 21
112.0665502419
  0
LINE
  5
38A
100
AcDbEntity
  8
DRAFT
100
AcDbLine
 62
7
  6
CONTINUOUS
 10
112.5549653828
 20
95.8878267874
 11
111.7505817038
 21
95.8878267874
  0
LINE
  5
38B
100
AcDbEntity
  8
DRAFT
100
AcDbLine
 62
7
  6
CONTINUOUS
 10
93.4596003196
 20
95.8878267874
 11
92.6552166406
 21
95.8878267874
  0
LINE
  5
38C
100
AcDbEntity
  8
RACCORDO
100
AcDbLine
 62
7
  6
CONTINUOUS
 10
112.5742440062
 20
95.9052818524
 11
111.7349177863
 21
95.9052818524
  0
LINE
  5
38D
100
AcDbEntity
  8
RACCORDO
100
AcDbLine
 62
7
  6
CONTINUOUS
 10
93.475264237
 20
95.9052818524
 11
92.6359380172
 21
95.9052818524
  0
LINE
  5
38E
100
AcDbEntity
  8
DRAFT
100
AcDbLine
 62
7
  6
CONTINUOUS
 10
110.06749679
 20
96.1378267874
 11
109.2629810679
 21
96.1378267874
  0
LINE
  5
38F
100
AcDbEntity
  8
DRAFT
100
AcDbLine
 62
7
  6
CONTINUOUS
 10
95.9472009555
 20
96.1378267874
 11
95.1426852334
 21
96.1378267874
  0
LINE
  5
390
100
AcDbEntity
  8
RACCORDO
100
AcDbLine
 62
7
  6
CONTINUOUS
 10
110.0829186947
 20
96.1517908394
 11
109.2504900051
 21
96.1517908394
  0
LINE
  5
391
100
AcDbEntity
  8
RACCORDO
100
AcDbLine
 62
7
  6
CONTINUOUS
 10
95.9596920183
 20
96.1517908394
 11
95.1272633981
 21
96.1517908394
  0
LWPOLYLINE
  5
392
100
AcDbEntity
  8
RACCORDO
100
AcDbPolyline
 62
253
  6
CONTINUOUS
 90
13
 70
0
 10
110.1148796798
 20
72.8719921475
 10
110.1223818815
 20
72.8524511931
 10
110.1318858887
 20
72.8338013489
 10
110.1432875732
 20
72.8162469538
 10
110.1564620177
 20
72.7999803385
 10
110.171264881
 20
72.7851797256
 10
110.1875339734
 20
72.772007281
 10
110.205091047
 20
72.7606073241
 10
110.2237437412
 20
72.7511047553
 10
110.2432876814
 20
72.7436036898
 10
110.2635087346
 20
72.7381863075
 10
110.2841853572
 20
72.7349119563
 10
110.3050910117
 20
72.7338165063
  0
LINE
  5
393
100
AcDbEntity
  8
0
100
AcDbLine
 62
7
  6
CONTINUOUS
 10
98.5275910124
 20
111.1091033866
 11
98.5725910117
 21
110.9559118887
  0
LINE
  5
394
100
AcDbEntity
  8
0
100
AcDbLine
 62
7
  6
CONTINUOUS
 10
99.2250910332
 20
112.1431459775
 11
99.2475910117
 21
112.0282522668
  0
LINE
  5
395
100
AcDbEntity
  8
0
100
AcDbLine
 62
7
  6
CONTINUOUS
 10
100.3725909688
 20
111.1091033866
 11
100.1925910117
 21
112.4878267874
  0
LINE
  5
396
100
AcDbEntity
  8
0
100
AcDbLine
 62
7
  6
CONTINUOUS
 10
100.1025909688
 20
112.1431459775
 11
100.2825910546
 21
110.6878267874
  0
LINE
  5
397
100
AcDbEntity
  8
0
100
AcDbLine
 62
7
  6
CONTINUOUS
 10
99.3825910117
 20
112.0282522668
 11
99.3600910332
 21
112.219741713
  0
LINE
  5
398
100
AcDbEntity
  8
0
100
AcDbLine
 62
7
  6
CONTINUOUS
 10
99.1050909974
 20
114.0537842502
 11
99.1350910117
 21
113.7856991222
  0
LINE
  5
399
100
AcDbEntity
  8
0
100
AcDbLine
 62
7
  6
CONTINUOUS
 10
102.7125909259
 20
111.7218693246
 11
102.6900910117
 21
111.9899543991
  0
LINE
  5
39A
100
AcDbEntity
  8
0
100
AcDbLine
 62
7
  6
CONTINUOUS
 10
102.8925910117
 20
111.4537842502
 11
102.9150911834
 21
111.1856991222
  0
LWPOLYLINE
  5
39B
100
AcDbEntity
  8
RACCORDO
100
AcDbPolyline
 62
253
  6
CONTINUOUS
 90
19
 70
0
 10
103.6448107794
 20
74.2338926818
 10
103.6451144314
 20
74.2080482879
 10
103.6459890273
 20
74.1827096135
 10
103.6474345671
 20
74.1578766586
 10
103.6494683991
 20
74.1333638936
 10
103.6520731749
 20
74.1093568481
 10
103.6551968492
 20
74.0864121108
 10
103.6588506388
 20
74.064559259
 10
103.6630233268
 20
74.0437687154
 10
103.6676292174
 20
74.0245083366
 10
103.6726792267
 20
74.0068078873
 10
103.6781624386
 20
73.9906376027
 10
103.6839604084
 20
73.976376045
 10
103.690082863
 20
73.9640645392
 10
103.6965200754
 20
73.9536617603
 10
103.7031244208
 20
73.9454222955
 10
103.7098466908
 20
73.9394310073
 10
103.7167360937
 20
73.9356030332
 10
103.7237926296
 20
73.9339383733
  0
LWPOLYLINE
  5
39C
100
AcDbEntity
  8
RACCORDO
100
AcDbPolyline
 62
253
  6
CONTINUOUS
 90
19
 70
0
 10
103.4516256141
 20
74.2338926818
 10
103.4519370396
 20
74.1911297067
 10
103.4528181116
 20
74.1486535346
 10
103.4542688301
 20
74.1067767134
 10
103.4563065529
 20
74.0658144279
 10
103.4589139221
 20
74.0260635995
 10
103.4620388643
 20
73.9878026997
 10
103.4656924411
 20
73.9513166438
 10
103.469863591
 20
73.9168846723
 10
103.4744670555
 20
73.8847626213
 10
103.4795137736
 20
73.8551953121
 10
103.4849928063
 20
73.8284175171
 10
103.4907860789
 20
73.8046438651
 10
103.4969024234
 20
73.7840609207
 10
103.5033330078
 20
73.7668370448
 10
103.5099332611
 20
73.7531190596
 10
103.5166549932
 20
73.7430186164
 10
103.5235463943
 20
73.7366166528
 10
103.5306074644
 20
73.7339688343
  0
LINE
  5
39D
100
AcDbEntity
  8
0
100
AcDbLine
 62
7
  6
CONTINUOUS
 10
102.8925910117
 20
111.7218693246
 11
102.8925910117
 21
111.4537842502
  0
LINE
  5
39E
100
AcDbEntity
  8
0
100
AcDbLine
 62
7
  6
CONTINUOUS
 10
103.00509084
 20
111.6452735891
 11
103.00509084
 21
111.7218693246
  0
LINE
  5
39F
100
AcDbEntity
  8
0
100
AcDbLine
 62
7
  6
CONTINUOUS
 10
103.0275910117
 20
111.2239969899
 11
103.0275910117
 21
111.3388905933
  0
LINE
  5
3A0
100
AcDbEntity
  8
0
100
AcDbLine
 62
7
  6
CONTINUOUS
 10
103.0650911261
 20
114.3218693246
 11
103.0650911261
 21
114.0537842502
  0
LINE
  5
3A1
100
AcDbEntity
  8
0
100
AcDbLine
 62
7
  6
CONTINUOUS
 10
103.2150908973
 20
114.2452735891
 11
103.2150908973
 21
114.3218693246
  0
LINE
  5
3A2
100
AcDbEntity
  8
0
100
AcDbLine
 62
7
  6
CONTINUOUS
 10
103.2450911261
 20
113.8239969899
 11
103.2450911261
 21
113.9388905933
  0
LINE
  5
3A3
100
AcDbEntity
  8
RACCORDO
100
AcDbLine
 62
7
  6
CONTINUOUS
 10
103.3411269598
 20
104.3656544705
 11
103.3411269598
 21
103.5332257809
  0
LINE
  5
3A4
100
AcDbEntity
  8
RACCORDO
100
AcDbLine
 62
7
  6
CONTINUOUS
 10
103.3411269598
 20
90.242427794
 11
103.3411269598
 21
89.4099991044
  0
LINE
  5
3A5
100
AcDbEntity
  8
DRAFT
100
AcDbLine
 62
7
  6
CONTINUOUS
 10
103.3550910117
 20
104.3502325657
 11
103.3550910117
 21
103.5457168436
  0
LINE
  5
3A6
100
AcDbEntity
  8
DRAFT
100
AcDbLine
 62
7
  6
CONTINUOUS
 10
103.3550910117
 20
90.2299367313
 11
103.3550910117
 21
89.4254210091
  0
LINE
  5
3A7
100
AcDbEntity
  8
RACCORDO
100
AcDbLine
 62
253
  6
CONTINUOUS
 10
103.4516256141
 20
119.541760893
 11
103.4516256141
 21
118.7378267874
  0
LINE
  5
3A8
100
AcDbEntity
  8
RACCORDO
100
AcDbLine
 62
253
  6
CONTINUOUS
 10
103.4516256141
 20
75.0378267874
 11
103.4516256141
 21
74.2338926818
  0
LINE
  5
3A9
100
AcDbEntity
  8
RACCORDO
100
AcDbLine
 62
7
  6
CONTINUOUS
 10
103.5876359468
 20
106.856979782
 11
103.5876359468
 21
106.0176535621
  0
LINE
  5
3AA
100
AcDbEntity
  8
RACCORDO
100
AcDbLine
 62
7
  6
CONTINUOUS
 10
103.5876359468
 20
87.7580000128
 11
103.5876359468
 21
86.918673858
  0
LINE
  5
3AB
100
AcDbEntity
  8
0
100
AcDbLine
 62
7
  6
CONTINUOUS
 10
103.5900911834
 20
111.3388905933
 11
103.5900911834
 21
111.2239969899
  0
LINE
  5
3AC
100
AcDbEntity
  8
DRAFT
100
AcDbLine
 62
7
  6
CONTINUOUS
 10
103.6050910117
 20
106.8377011585
 11
103.6050910117
 21
106.0333174796
  0
LINE
  5
3AD
100
AcDbEntity
  8
DRAFT
100
AcDbLine
 62
7
  6
CONTINUOUS
 10
103.6050910117
 20
87.7423360953
 11
103.6050910117
 21
86.9379524164
  0
LINE
  5
3AE
100
AcDbEntity
  8
RACCORDO
100
AcDbLine
 62
253
  6
CONTINUOUS
 10
103.6448107794
 20
119.541760893
 11
103.6448107794
 21
119.0931607468
  0
LINE
  5
3AF
100
AcDbEntity
  8
RACCORDO
100
AcDbLine
 62
253
  6
CONTINUOUS
 10
103.6448107794
 20
74.6824928281
 11
103.6448107794
 21
74.2338926818
  0
LINE
  5
3B0
100
AcDbEntity
  8
0
100
AcDbLine
 62
7
  6
CONTINUOUS
 10
103.7025910117
 20
111.1856991222
 11
103.7025910117
 21
111.3771885147
  0
LINE
  5
3B1
100
AcDbEntity
  8
0
100
AcDbLine
 62
7
  6
CONTINUOUS
 10
103.88259084
 20
111.7601671924
 11
103.88259084
 21
111.4154863824
  0
LINE
  5
3B2
100
AcDbEntity
  8
DRAFT
100
AcDbLine
 62
7
  6
CONTINUOUS
 10
103.9266300426
 20
119.2539337401
 11
103.9266300426
 21
119.2378267874
  0
LINE
  5
3B3
100
AcDbEntity
  8
DRAFT
100
AcDbLine
 62
7
  6
CONTINUOUS
 10
103.9266300426
 20
74.5378267874
 11
103.9266300426
 21
74.5217198348
  0
LINE
  5
3B4
100
AcDbEntity
  8
0
100
AcDbLine
 62
7
  6
CONTINUOUS
 10
103.9950910117
 20
113.9388905933
 11
103.9950910117
 21
113.8239969899
  0
LINE
  5
3B5
100
AcDbEntity
  8
0
100
AcDbLine
 62
7
  6
CONTINUOUS
 10
103.9950911834
 20
111.4537842502
 11
103.9950911834
 21
111.7218693246
  0
LINE
  5
3B6
100
AcDbEntity
  8
0
100
AcDbLine
 62
7
  6
CONTINUOUS
 10
104.1450911261
 20
113.7856991222
 11
104.1450911261
 21
113.9771885147
  0
LINE
  5
3B7
100
AcDbEntity
  8
RACCORDO
100
AcDbLine
 62
7
  6
CONTINUOUS
 10
104.194579235
 20
73.9006823601
 11
104.194579235
 21
74.5042647699
  0
LINE
  5
3B8
100
AcDbEntity
  8
RACCORDO
100
AcDbLine
 62
7
  6
CONTINUOUS
 10
104.194579235
 20
119.271388805
 11
104.194579235
 21
119.8749712148
  0
LINE
  5
3B9
100
AcDbEntity
  8
0
100
AcDbLine
 62
7
  6
CONTINUOUS
 10
104.5800910117
 20
111.7218693246
 11
104.5800910117
 21
111.4537842502
  0
LINE
  5
3BA
100
AcDbEntity
  8
0
100
AcDbLine
 62
7
  6
CONTINUOUS
 10
104.69259084
 20
111.4154863824
 11
104.69259084
 21
111.7601671924
  0
LINE
  5
3BB
100
AcDbEntity
  8
0
100
AcDbLine
 62
7
  6
CONTINUOUS
 10
104.5800910117
 20
111.4537842502
 11
104.55759084
 21
111.2239969899
  0
LINE
  5
3BC
100
AcDbEntity
  8
0
100
AcDbLine
 62
7
  6
CONTINUOUS
 10
104.6700911834
 20
111.2239969899
 11
104.69259084
 21
111.4154863824
  0
LINE
  5
3BD
100
AcDbEntity
  8
0
100
AcDbLine
 62
7
  6
CONTINUOUS
 10
105.97509084
 20
112.0665502419
 11
105.9525911834
 21
111.8750607957
  0
LINE
  5
3BE
100
AcDbEntity
  8
0
100
AcDbLine
 62
7
  6
CONTINUOUS
 10
106.0875911834
 20
111.8750607957
 11
106.11009084
 21
112.0282522668
  0
LINE
  5
3BF
100
AcDbEntity
  8
0
100
AcDbLine
 62
7
  6
CONTINUOUS
 10
106.8750910117
 20
113.7091033866
 11
106.9050912406
 21
113.9005927255
  0
LINE
  5
3C0
100
AcDbEntity
  8
0
100
AcDbLine
 62
7
  6
CONTINUOUS
 10
106.7250912406
 20
113.9005927255
 11
106.6950910117
 21
113.7474012544
  0
LINE
  5
3C1
100
AcDbEntity
  8
0
100
AcDbLine
 62
7
  6
CONTINUOUS
 10
106.6950911834
 20
111.1474012544
 11
106.6725910117
 21
111.0325076511
  0
LINE
  5
3C2
100
AcDbEntity
  8
RACCORDO
100
AcDbLine
 62
7
  6
CONTINUOUS
 10
95.1272633287
 20
97.6238627355
 11
95.9596920183
 21
97.6238627355
  0
LINE
  5
3C3
100
AcDbEntity
  8
RACCORDO
100
AcDbLine
 62
7
  6
CONTINUOUS
 10
109.2504900051
 20
97.6238627355
 11
110.0829186253
 21
97.6238627355
  0
LINE
  5
3C4
100
AcDbEntity
  8
DRAFT
100
AcDbLine
 62
7
  6
CONTINUOUS
 10
95.1426852334
 20
97.6378267874
 11
95.9472009555
 21
97.6378267874
  0
LINE
  5
3C5
100
AcDbEntity
  8
DRAFT
100
AcDbLine
 62
7
  6
CONTINUOUS
 10
109.2629810679
 20
97.6378267874
 11
110.06749679
 21
97.6378267874
  0
LINE
  5
3C6
100
AcDbEntity
  8
RACCORDO
100
AcDbLine
 62
7
  6
CONTINUOUS
 10
92.6359380172
 20
97.8703717225
 11
93.475264237
 21
97.8703717225
  0
LINE
  5
3C7
100
AcDbEntity
  8
RACCORDO
100
AcDbLine
 62
7
  6
CONTINUOUS
 10
111.7349177863
 20
97.8703717225
 11
112.5742439412
 21
97.8703717225
  0
LINE
  5
3C8
100
AcDbEntity
  8
DRAFT
100
AcDbLine
 62
7
  6
CONTINUOUS
 10
92.6552166406
 20
97.8878267874
 11
93.4596003196
 21
97.8878267874
  0
LINE
  5
3C9
100
AcDbEntity
  8
DRAFT
100
AcDbLine
 62
7
  6
CONTINUOUS
 10
111.7505817038
 20
97.8878267874
 11
112.5549653828
 21
97.8878267874
  0
LINE
  5
3CA
100
AcDbEntity
  8
0
100
AcDbLine
 62
7
  6
CONTINUOUS
 10
98.7075910117
 20
111.0325076511
 11
98.6625910063
 21
111.1474012544
  0
LINE
  5
3CB
100
AcDbEntity
  8
0
100
AcDbLine
 62
7
  6
CONTINUOUS
 10
99.1350910117
 20
113.7856991222
 11
99.1950909974
 21
113.5942097565
  0
LINE
  5
3CC
100
AcDbEntity
  8
0
100
AcDbLine
 62
7
  6
CONTINUOUS
 10
99.3150910117
 20
113.7091033866
 11
99.2850910403
 21
113.8239969899
  0
LINE
  5
3CD
100
AcDbEntity
  8
0
100
AcDbLine
 62
7
  6
CONTINUOUS
 10
100.0050909545
 20
114.0537842502
 11
100.0350910117
 21
113.9388905933
  0
LINE
  5
3CE
100
AcDbEntity
  8
0
100
AcDbLine
 62
7
  6
CONTINUOUS
 10
100.1250910117
 20
114.6665502419
 11
100.0950909545
 21
114.7814438452
  0
LINE
  5
3CF
100
AcDbEntity
  8
0
100
AcDbLine
 62
7
  6
CONTINUOUS
 10
101.9475910117
 20
111.1091033866
 11
101.9700909259
 21
110.9942097565
  0
LINE
  5
3D0
100
AcDbEntity
  8
0
100
AcDbLine
 62
7
  6
CONTINUOUS
 10
102.0375909259
 20
111.7601671924
 11
102.0150910117
 21
111.8750607957
  0
LINE
  5
3D1
100
AcDbEntity
  8
0
100
AcDbLine
 62
7
  6
CONTINUOUS
 10
104.01759084
 20
111.2239969899
 11
103.9950911834
 21
111.4537842502
  0
LINE
  5
3D2
100
AcDbEntity
  8
0
100
AcDbLine
 62
7
  6
CONTINUOUS
 10
104.55759084
 20
111.9516565313
 11
104.5800910117
 21
111.7218693246
  0
LWPOLYLINE
  5
3D3
100
AcDbEntity
  8
RACCORDO
100
AcDbPolyline
 62
253
  6
CONTINUOUS
 90
13
 70
0
 10
103.7237926296
 20
119.8417152016
 10
103.7220359582
 20
119.8677410205
 10
103.7170228921
 20
119.8933243255
 10
103.7088386308
 20
119.9180299026
 10
103.6976223229
 20
119.9414374541
 10
103.6835647047
 20
119.9631487421
 10
103.6669048611
 20
119.9827943665
 10
103.6479261356
 20
120.0000400761
 10
103.6269513652
 20
120.0145924016
 10
103.604337414
 20
120.0262036734
 10
103.5804690123
 20
120.0346763
 10
103.5557521954
 20
120.0398661033
 10
103.5306074642
 20
120.0416847406
  0
LWPOLYLINE
  5
3D4
100
AcDbEntity
  8
RACCORDO
100
AcDbPolyline
 62
7
  6
CONTINUOUS
 90
16
 70
0
 10
104.194579235
 20
119.8723837425
 10
104.1934165009
 20
119.8972919151
 10
104.1898963869
 20
119.9211128862
 10
104.1843409181
 20
119.9435487948
 10
104.1771794299
 20
119.9642936373
 10
104.1686762727
 20
119.9832722702
 10
104.1588386752
 20
120.000584549
 10
104.1478792442
 20
120.0161641669
 10
104.1360928851
 20
120.0298978829
 10
104.1235100561
 20
120.0418028717
 10
104.1103289289
 20
120.051861445
 10
104.0967850966
 20
120.0600597083
 10
104.0829268152
 20
120.0664250375
 10
104.0688892113
 20
120.0709909287
 10
104.0548979601
 20
120.073806793
 10
104.0411138374
 20
120.0749407538
  0
LINE
  5
3D5
100
AcDbEntity
  8
0
100
AcDbLine
 62
7
  6
CONTINUOUS
 10
105.3113411834
 20
112.3378268232
 11
105.3113411834
 21
112.1878267517
  0
LINE
  5
3D6
100
AcDbEntity
  8
0
100
AcDbLine
 62
7
  6
CONTINUOUS
 10
105.5138411834
 20
112.1878267517
 11
105.5138411834
 21
112.3378268232
  0
LINE
  5
3D7
100
AcDbEntity
  8
0
100
AcDbLine
 62
7
  6
CONTINUOUS
 10
105.8250912406
 20
115.0878267874
 11
105.8250912406
 21
113.9005927255
  0
LINE
  5
3D8
100
AcDbEntity
  8
0
100
AcDbLine
 62
7
  6
CONTINUOUS
 10
105.9525911834
 20
111.8750607957
 11
105.9525911834
 21
111.3005927255
  0
LINE
  5
3D9
100
AcDbEntity
  8
0
100
AcDbLine
 62
7
  6
CONTINUOUS
 10
106.0050912406
 20
113.9005927255
 11
106.0050912406
 21
115.0878267874
  0
LINE
  5
3DA
100
AcDbEntity
  8
0
100
AcDbLine
 62
7
  6
CONTINUOUS
 10
106.0875911834
 20
111.3005927255
 11
106.0875911834
 21
111.8750607957
  0
LINE
  5
3DB
100
AcDbEntity
  8
0
100
AcDbLine
 62
7
  6
CONTINUOUS
 10
106.7250912406
 20
115.0878267874
 11
106.7250912406
 21
113.9005927255
  0
LINE
  5
3DC
100
AcDbEntity
  8
0
100
AcDbLine
 62
7
  6
CONTINUOUS
 10
106.9050912406
 20
113.9005927255
 11
106.9050912406
 21
115.0878267874
  0
LWPOLYLINE
  5
3DD
100
AcDbEntity
  8
RACCORDO
100
AcDbPolyline
 62
253
  6
CONTINUOUS
 90
13
 70
0
 10
103.7237926296
 20
73.9339383733
 10
103.7220358066
 20
73.9079114756
 10
103.7170223753
 20
73.8823273514
 10
103.7088376252
 20
73.8576212418
 10
103.6976207963
 20
73.8342134509
 10
103.6835627111
 20
73.8125021956
 10
103.6669025279
 20
73.7928568311
 10
103.6479236723
 20
73.7756115673
 10
103.6269490154
 20
73.7610597832
 10
103.6043353814
 20
73.7494490361
 10
103.5804674769
 20
73.7409768498
 10
103.5557513464
 20
73.7357873543
 10
103.5306074644
 20
73.7339688343
  0
LWPOLYLINE
  5
3DE
100
AcDbEntity
  8
RACCORDO
100
AcDbPolyline
 62
7
  6
CONTINUOUS
 90
16
 70
0
 10
104.194579235
 20
73.9006823601
 10
104.1927975449
 20
73.8766886246
 10
104.18933841
 20
73.8535771733
 10
104.1842018304
 20
73.8316325621
 10
104.1771838743
 20
73.8111043164
 10
104.1684884734
 20
73.7921593136
 10
104.1587274227
 20
73.7748933718
 10
104.1479477874
 20
73.7594342944
 10
104.1361025023
 20
73.7458162445
 10
104.1236621667
 20
73.7339804539
 10
104.1106485154
 20
73.7239506229
 10
104.0970398135
 20
73.7157533505
 10
104.0832414553
 20
73.709352252
 10
104.0693885723
 20
73.7047297899
 10
104.055346033
 20
73.7018656721
 10
104.0411138374
 20
73.700712821
  0
LINE
  5
3DF
100
AcDbEntity
  8
0
100
AcDbLine
 62
7
  6
CONTINUOUS
 10
106.8075910117
 20
110.9559118887
 11
106.8300911834
 21
111.1474012544
  0
LINE
  5
3E0
100
AcDbEntity
  8
0
100
AcDbLine
 62
7
  6
CONTINUOUS
 10
98.5725910117
 20
110.9559118887
 11
98.6625910063
 21
110.8027204042
  0
LINE
  5
3E1
100
AcDbEntity
  8
0
100
AcDbLine
 62
7
  6
CONTINUOUS
 10
100.1850909545
 20
113.9771885147
 11
100.1250910117
 21
114.1686778535
  0
LINE
  5
3E2
100
AcDbEntity
  8
0
100
AcDbLine
 62
7
  6
CONTINUOUS
 10
101.9025909259
 20
111.836762928
 11
101.9475910117
 21
111.6452735891
  0
LINE
  5
3E3
100
AcDbEntity
  8
0
100
AcDbLine
 62
7
  6
CONTINUOUS
 10
102.6900910117
 20
111.9899543991
 11
102.6450909259
 21
112.1814438452
  0
LINE
  5
3E4
100
AcDbEntity
  8
0
100
AcDbLine
 62
7
  6
CONTINUOUS
 10
102.9150911834
 20
111.1856991222
 11
102.9600910117
 21
110.9942097565
  0
LINE
  5
3E5
100
AcDbEntity
  8
0
100
AcDbLine
 62
7
  6
CONTINUOUS
 10
102.5550910117
 20
112.0665502419
 11
102.5775909259
 21
111.9516565313
  0
LINE
  5
3E6
100
AcDbEntity
  8
0
100
AcDbLine
 62
7
  6
CONTINUOUS
 10
103.0500911834
 20
111.1091033866
 11
103.0275910117
 21
111.2239969899
  0
LINE
  5
3E7
100
AcDbEntity
  8
0
100
AcDbLine
 62
7
  6
CONTINUOUS
 10
103.5675910117
 20
111.4537842502
 11
103.5900911834
 21
111.3388905933
  0
LINE
  5
3E8
100
AcDbEntity
  8
0
100
AcDbLine
 62
7
  6
CONTINUOUS
 10
103.6575911834
 20
112.0665502419
 11
103.6350910117
 21
112.1814438452
  0
LINE
  5
3E9
100
AcDbEntity
  8
0
100
AcDbLine
 62
7
  6
CONTINUOUS
 10
103.9050910117
 20
111.2239969899
 11
103.9275911834
 21
111.1091033866
  0
LINE
  5
3EA
100
AcDbEntity
  8
0
100
AcDbLine
 62
7
  6
CONTINUOUS
 10
103.88259084
 20
111.4154863824
 11
103.9050910117
 21
111.2239969899
  0
LINE
  5
3EB
100
AcDbEntity
  8
0
100
AcDbLine
 62
7
  6
CONTINUOUS
 10
104.69259084
 20
111.7601671924
 11
104.6700911834
 21
111.9516565313
  0
LINE
  5
3EC
100
AcDbEntity
  8
0
100
AcDbLine
 62
7
  6
CONTINUOUS
 10
103.0650911261
 20
114.0537842502
 11
103.0950910117
 21
113.7856991222
  0
LWPOLYLINE
  5
3ED
100
AcDbEntity
  8
RACCORDO
100
AcDbPolyline
 62
253
  6
CONTINUOUS
 90
13
 70
0
 10
110.1050910117
 20
72.790563123
 10
110.1068020394
 20
72.7644618605
 10
110.1119058464
 20
72.7388071978
 10
110.1203151052
 20
72.7140380934
 10
110.1318859309
 20
72.6905783535
 10
110.1464203436
 20
72.6688293806
 10
110.1636696555
 20
72.6491633059
 10
110.1833387259
 20
72.6319166212
 10
110.2050910117
 20
72.6173844222
 10
110.2285543252
 20
72.6058153587
 10
110.2533272027
 20
72.5974073808
 10
110.2789857733
 20
72.5923043511
 10
110.3050910117
 20
72.5905935839
  0
LWPOLYLINE
  5
3EE
100
AcDbEntity
  8
RACCORDO
100
AcDbPolyline
 62
253
  6
CONTINUOUS
 90
4
 70
0
 10
110.1050910117
 20
72.9337860453
 10
110.106186628
 20
72.9128835804
 10
110.109461476
 20
72.8922101136
 10
110.1148796798
 20
72.8719921475
  0
LINE
  5
3EF
100
AcDbEntity
  8
CURVE
100
AcDbLine
 62
253
  6
CONTINUOUS
 10
107.6050910117
 20
115.8878267874
 11
107.6050910117
 21
109.8878267874
  0
LWPOLYLINE
  5
3F0
100
AcDbEntity
  8
RACCORDO
100
AcDbPolyline
 62
253
  6
CONTINUOUS
 90
16
 70
0
 10
110.1050910117
 20
120.8418675296
 10
110.1061866326
 20
120.8627700382
 10
110.1094614916
 20
120.8834435346
 10
110.1148797084
 20
120.9036615155
 10
110.1223819202
 20
120.9232024687
 10
110.1318859309
 20
120.9418522991
 10
110.1432876128
 20
120.9594066756
 10
110.1564620466
 20
120.9756732685
 10
110.1712648905
 20
120.9904738578
 10
110.1875339613
 20
121.0036462851
 10
110.2050910118
 20
121.0150462304
 10
110.2237436832
 20
121.0245487937
 10
110.2432876129
 20
121.0320498628
 10
110.2635086736
 20
121.0374672545
 10
110.2841853191
 20
121.0407416146
 10
110.3050910117
 20
121.0418370686
  0
LWPOLYLINE
  5
3F1
100
AcDbEntity
  8
RACCORDO
100
AcDbPolyline
 62
253
  6
CONTINUOUS
 90
13
 70
0
 10
110.1050910117
 20
120.9850904519
 10
110.10680202
 20
121.0111915671
 10
110.1119057745
 20
121.0368461085
 10
110.1203149565
 20
121.0616151225
 10
110.1318856882
 20
121.0850748011
 10
110.1464200008
 20
121.1068237475
 10
110.163669227
 20
121.1264898406
 10
110.1833382404
 20
121.1437365812
 10
110.2050905068
 20
121.1582688612
 10
110.2285538556
 20
121.1698380216
 10
110.2533268312
 20
121.1782460946
 10
110.27898556
 20
121.1833491957
 10
110.3050910117
 20
121.1850599909
  0
LWPOLYLINE
  5
3F2
100
AcDbEntity
  8
RACCORDO
100
AcDbPolyline
 62
7
  6
CONTINUOUS
 90
10
 70
0
 10
101.565371244
 20
74.6824928281
 10
101.5719088733
 20
74.7037021317
 10
101.5805408249
 20
74.72650205
 10
101.5911781093
 20
74.7508925829
 10
101.6036829846
 20
74.7769317668
 10
101.6179405845
 20
74.8045615654
 10
101.6338920283
 20
74.8336078698
 10
101.6513221261
 20
74.8639925444
 10
101.6701132865
 20
74.895793725
 10
101.6904015541
 20
74.9290717097
  0
LINE
  5
3F3
100
AcDbEntity
  8
DRAFT
100
AcDbLine
 62
7
  6
CONTINUOUS
 10
109.2504900051
 20
97.6238627355
 11
109.2629810679
 21
97.6378267874
  0
LINE
  5
3F4
100
AcDbEntity
  8
DRAFT
100
AcDbLine
 62
7
  6
CONTINUOUS
 10
111.7349177863
 20
97.8703717225
 11
111.7505817038
 21
97.8878267874
  0
LINE
  5
3F5
100
AcDbEntity
  8
RACCORDO
100
AcDbLine
 62
7
  6
CONTINUOUS
 10
103.3411269598
 20
89.4099991044
 11
103.3414664739
 21
89.410374064
  0
LINE
  5
3F6
100
AcDbEntity
  8
RACCORDO
100
AcDbLine
 62
7
  6
CONTINUOUS
 10
103.3487934825
 20
89.4184660153
 11
103.3550910117
 21
89.4254210091
  0
LINE
  5
3F7
100
AcDbEntity
  8
RACCORDO
100
AcDbLine
 62
7
  6
CONTINUOUS
 10
110.06749679
 20
96.1378267874
 11
110.0744517838
 21
96.1441243166
  0
LINE
  5
3F8
100
AcDbEntity
  8
RACCORDO
100
AcDbLine
 62
7
  6
CONTINUOUS
 10
110.0825437352
 20
96.1514513252
 11
110.0829186947
 21
96.1517908394
  0
LINE
  5
3F9
100
AcDbEntity
  8
DRAFT
100
AcDbLine
 62
7
  6
CONTINUOUS
 10
101.6225460766
 20
87.7580000128
 11
101.6050910117
 21
87.7423360953
  0
LINE
  5
3FA
100
AcDbEntity
  8
DRAFT
100
AcDbLine
 62
7
  6
CONTINUOUS
 10
101.8690550636
 20
90.242427794
 11
101.8550910117
 21
90.2299367313
  0
LINE
  5
3FB
100
AcDbEntity
  8
DRAFT
100
AcDbLine
 62
7
  6
CONTINUOUS
 10
101.8690550636
 20
103.5332257809
 11
101.8550910117
 21
103.5457168436
  0
LINE
  5
3FC
100
AcDbEntity
  8
DRAFT
100
AcDbLine
 62
7
  6
CONTINUOUS
 10
101.6225460766
 20
106.0176535621
 11
101.6050910117
 21
106.0333174796
  0
LINE
  5
3FD
100
AcDbEntity
  8
RACCORDO
100
AcDbLine
 62
7
  6
CONTINUOUS
 10
110.0817858964
 20
97.6248883907
 11
110.06749679
 21
97.6378267874
  0
LINE
  5
3FE
100
AcDbEntity
  8
RACCORDO
100
AcDbLine
 62
7
  6
CONTINUOUS
 10
103.3430350091
 20
104.3635472199
 11
103.3550910117
 21
104.3502325657
  0
LINE
  5
3FF
100
AcDbEntity
  8
DRAFT
100
AcDbLine
 62
7
  6
CONTINUOUS
 10
111.7349177863
 20
95.9052818524
 11
111.7505817038
 21
95.8878267874
  0
LINE
  5
400
100
AcDbEntity
  8
DRAFT
100
AcDbLine
 62
7
  6
CONTINUOUS
 10
109.2504900051
 20
96.1517908394
 11
109.2629810679
 21
96.1378267874
  0
LWPOLYLINE
  5
401
100
AcDbEntity
  8
RACCORDO
100
AcDbPolyline
 62
253
  6
CONTINUOUS
 90
11
 70
0
 10
92.5782961347
 20
122.141852226
 10
92.5668944502
 20
122.159406621
 10
92.5537200057
 20
122.1756732364
 10
92.5389171424
 20
122.1904738493
 10
92.52264805
 20
122.2036462939
 10
92.5050909764
 20
122.2150462508
 10
92.4864382822
 20
122.2245488195
 10
92.466894342
 20
122.2320498851
 10
92.4466732888
 20
122.2374672674
 10
92.4259966662
 20
122.2407416186
 10
92.4050910117
 20
122.2418370686
  0
LINE
  5
402
100
AcDbEntity
  8
0
100
AcDbLine
 62
7
  6
CONTINUOUS
 10
99.3600910332
 20
112.219741713
 11
99.2700909902
 21
112.3729331841
  0
LINE
  5
403
100
AcDbEntity
  8
0
100
AcDbLine
 62
7
  6
CONTINUOUS
 10
99.1950909974
 20
113.5942097565
 11
99.2850910403
 21
113.4410182719
  0
LINE
  5
404
100
AcDbEntity
  8
0
100
AcDbLine
 62
7
  6
CONTINUOUS
 10
99.3750910403
 20
113.5942097565
 11
99.3150910117
 21
113.7091033866
  0
LINE
  5
405
100
AcDbEntity
  8
0
100
AcDbLine
 62
7
  6
CONTINUOUS
 10
99.9150910403
 20
114.7814438452
 11
99.9750910689
 21
114.6665502419
  0
LINE
  5
406
100
AcDbEntity
  8
0
100
AcDbLine
 62
7
  6
CONTINUOUS
 10
101.9700909259
 20
110.9942097565
 11
102.0375909259
 21
110.8410182719
  0
LINE
  5
407
100
AcDbEntity
  8
0
100
AcDbLine
 62
7
  6
CONTINUOUS
 10
101.9475910117
 20
111.6452735891
 11
102.0150910117
 21
111.492082118
  0
LINE
  5
408
100
AcDbEntity
  8
0
100
AcDbLine
 62
7
  6
CONTINUOUS
 10
102.9600910117
 20
110.9942097565
 11
103.0275910117
 21
110.8410182719
  0
LINE
  5
409
100
AcDbEntity
  8
0
100
AcDbLine
 62
7
  6
CONTINUOUS
 10
102.6450909259
 20
112.1814438452
 11
102.5775909259
 21
112.3346353163
  0
LINE
  5
40A
100
AcDbEntity
  8
0
100
AcDbLine
 62
7
  6
CONTINUOUS
 10
102.1050909259
 20
110.9942097565
 11
102.0600910975
 21
111.1091033866
  0
LINE
  5
40B
100
AcDbEntity
  8
0
100
AcDbLine
 62
7
  6
CONTINUOUS
 10
102.0825910117
 20
111.6452735891
 11
102.0375909259
 21
111.7601671924
  0
LINE
  5
40C
100
AcDbEntity
  8
0
100
AcDbLine
 62
7
  6
CONTINUOUS
 10
102.5100909259
 20
112.1814438452
 11
102.5550910117
 21
112.0665502419
  0
LINE
  5
40D
100
AcDbEntity
  8
0
100
AcDbLine
 62
7
  6
CONTINUOUS
 10
103.0950910117
 20
110.9942097565
 11
103.0500911834
 21
111.1091033866
  0
LINE
  5
40E
100
AcDbEntity
  8
0
100
AcDbLine
 62
7
  6
CONTINUOUS
 10
103.0950910117
 20
113.7856991222
 11
103.1550911261
 21
113.5942097565
  0
LINE
  5
40F
100
AcDbEntity
  8
0
100
AcDbLine
 62
7
  6
CONTINUOUS
 10
103.9275911834
 20
111.1091033866
 11
103.9725910117
 21
110.9559118887
  0
LINE
  5
410
100
AcDbEntity
  8
0
100
AcDbLine
 62
7
  6
CONTINUOUS
 10
104.6475910117
 20
112.0665502419
 11
104.6025911834
 21
112.219741713
  0
LINE
  5
411
100
AcDbEntity
  8
0
100
AcDbLine
 62
7
  6
CONTINUOUS
 10
103.2750910117
 20
113.7091033866
 11
103.2450911261
 21
113.8239969899
  0
LINE
  5
412
100
AcDbEntity
  8
0
100
AcDbLine
 62
7
  6
CONTINUOUS
 10
103.9650911261
 20
114.0537842502
 11
103.9950910117
 21
113.9388905933
  0
LINE
  5
413
100
AcDbEntity
  8
0
100
AcDbLine
 62
7
  6
CONTINUOUS
 10
104.0850910117
 20
114.6665502419
 11
104.0550911261
 21
114.7814438452
  0
LINE
  5
414
100
AcDbEntity
  8
0
100
AcDbLine
 62
7
  6
CONTINUOUS
 10
103.7025910117
 20
111.3771885147
 11
103.6575911834
 21
111.5686778535
  0
LINE
  5
415
100
AcDbEntity
  8
0
100
AcDbLine
 62
7
  6
CONTINUOUS
 10
104.6700911834
 20
111.9516565313
 11
104.6475910117
 21
112.0665502419
  0
LINE
  5
416
100
AcDbEntity
  8
0
100
AcDbLine
 62
7
  6
CONTINUOUS
 10
105.8250912406
 20
113.9005927255
 11
105.8550907828
 21
113.7091033866
  0
LINE
  5
417
100
AcDbEntity
  8
0
100
AcDbLine
 62
7
  6
CONTINUOUS
 10
106.11009084
 20
111.1474012544
 11
106.0875911834
 21
111.3005927255
  0
LINE
  5
418
100
AcDbEntity
  8
0
100
AcDbLine
 62
7
  6
CONTINUOUS
 10
105.9525911834
 20
111.3005927255
 11
105.97509084
 21
111.1091033866
  0
LINE
  5
419
100
AcDbEntity
  8
0
100
AcDbLine
 62
7
  6
CONTINUOUS
 10
106.8300911834
 20
112.0282522668
 11
106.8075910117
 21
112.219741713
  0
LWPOLYLINE
  5
41A
100
AcDbEntity
  8
RACCORDO
100
AcDbPolyline
 62
253
  6
CONTINUOUS
 90
13
 70
0
 10
112.6050910117
 20
71.5469254607
 10
112.6068020394
 20
71.5208241982
 10
112.6119058464
 20
71.4951695355
 10
112.6203151052
 20
71.4704004311
 10
112.6318859309
 20
71.4469406911
 10
112.6464203436
 20
71.4251917183
 10
112.6636696555
 20
71.4055256436
 10
112.6833387259
 20
71.3882789589
 10
112.7050910117
 20
71.3737467599
 10
112.7285543252
 20
71.3621776964
 10
112.7533272027
 20
71.3537697184
 10
112.7789857733
 20
71.3486666887
 10
112.8050910117
 20
71.3469559216
  0
LINE
  5
41B
100
AcDbEntity
  8
RACCORDO
100
AcDbLine
 62
7
  6
CONTINUOUS
 10
109.3050910117
 20
73.5875548546
 11
109.3050910117
 21
74.3042343043
  0
LINE
  5
41C
100
AcDbEntity
  8
RACCORDO
100
AcDbLine
 62
7
  6
CONTINUOUS
 10
109.3050910117
 20
119.4714192706
 11
109.3050910117
 21
120.1880987202
  0
LINE
  5
41D
100
AcDbEntity
  8
RACCORDO
100
AcDbLine
 62
7
  6
CONTINUOUS
 10
110.1050910117
 20
72.7905661183
 11
110.1050910117
 21
74.6378267874
  0
LINE
  5
41E
100
AcDbEntity
  8
RACCORDO
100
AcDbLine
 62
7
  6
CONTINUOUS
 10
110.1050910117
 20
119.1378267874
 11
110.1050910117
 21
120.9850874547
  0
LINE
  5
41F
100
AcDbEntity
  8
RACCORDO
100
AcDbLine
 62
253
  6
CONTINUOUS
 10
110.3050910117
 20
72.5905935839
 11
110.3050910117
 21
75.0378267874
  0
LINE
  5
420
100
AcDbEntity
  8
RACCORDO
100
AcDbLine
 62
253
  6
CONTINUOUS
 10
110.3050910117
 20
118.7378267874
 11
110.3050910117
 21
121.1850599909
  0
LWPOLYLINE
  5
421
100
AcDbEntity
  8
RACCORDO
100
AcDbPolyline
 62
253
  6
CONTINUOUS
 90
13
 70
0
 10
112.6050910117
 20
122.2287281142
 10
112.6068020386
 20
122.2548293708
 10
112.6119058436
 20
122.2804840287
 10
112.6203150993
 20
122.3052531295
 10
112.6318859213
 20
122.328712867
 10
112.64642033
 20
122.3504618388
 10
112.6636696384
 20
122.3701279142
 10
112.6833387066
 20
122.3873746011
 10
112.7050909916
 20
122.4019068034
 10
112.7285543065
 20
122.4134758707
 10
112.7533271879
 20
122.4218838525
 10
112.7789857648
 20
122.426986885
 10
112.8050910117
 20
122.4286976532
  0
LINE
  5
422
100
AcDbEntity
  8
RACCORDO
100
AcDbLine
 62
7
  6
CONTINUOUS
 10
103.5896334706
 20
86.9208800588
 11
103.6050910117
 21
86.9379524164
  0
LINE
  5
423
100
AcDbEntity
  8
RACCORDO
100
AcDbLine
 62
253
  6
CONTINUOUS
 10
88.1050910117
 20
71.387750635
 11
88.7510807305
 21
72.0337403538
  0
LINE
  5
424
100
AcDbEntity
  8
RACCORDO
100
AcDbLine
 62
7
  6
CONTINUOUS
 10
112.5713936191
 20
95.9027010824
 11
112.5549653828
 21
95.8878267874
  0
LINE
  5
425
100
AcDbEntity
  8
0
100
AcDbLine
 62
7
  6
CONTINUOUS
 10
98.6625910063
 20
110.8027204042
 11
98.7525910171
 21
110.7261246586
  0
LINE
  5
426
100
AcDbEntity
  8
RACCORDO
100
AcDbLine
 62
7
  6
CONTINUOUS
 10
112.5724696757
 20
97.8719781662
 11
112.5549653828
 21
97.8878267874
  0
LINE
  5
427
100
AcDbEntity
  8
RACCORDO
100
AcDbLine
 62
253
  6
CONTINUOUS
 10
88.1050910117
 20
122.3879029399
 11
88.7510807305
 21
121.7419132211
  0
LINE
  5
428
100
AcDbEntity
  8
RACCORDO
100
AcDbLine
 62
7
  6
CONTINUOUS
 10
103.5892424483
 20
106.8552054466
 11
103.6050910117
 21
106.8377011585
  0
LINE
  5
429
100
AcDbEntity
  8
0
100
AcDbLine
 62
7
  6
CONTINUOUS
 10
98.7750910117
 20
110.9559118887
 11
98.7075910117
 21
111.0325076511
  0
LINE
  5
42A
100
AcDbEntity
  8
0
100
AcDbLine
 62
7
  6
CONTINUOUS
 10
99.1575910332
 20
112.219741713
 11
99.2250910332
 21
112.1431459775
  0
LINE
  5
42B
100
AcDbEntity
  8
0
100
AcDbLine
 62
7
  6
CONTINUOUS
 10
100.0950909545
 20
114.7814438452
 11
100.0050909545
 21
114.9346353163
  0
LINE
  5
42C
100
AcDbEntity
  8
0
100
AcDbLine
 62
7
  6
CONTINUOUS
 10
103.5225911834
 20
111.5303799858
 11
103.5675910117
 21
111.4537842502
  0
LINE
  5
42D
100
AcDbEntity
  8
0
100
AcDbLine
 62
7
  6
CONTINUOUS
 10
103.9725910117
 20
110.9559118887
 11
104.0400910117
 21
110.8410182719
  0
LINE
  5
42E
100
AcDbEntity
  8
0
100
AcDbLine
 62
7
  6
CONTINUOUS
 10
103.6575911834
 20
111.5686778535
 11
103.5900911834
 21
111.6835714569
  0
LINE
  5
42F
100
AcDbEntity
  8
0
100
AcDbLine
 62
7
  6
CONTINUOUS
 10
103.3350911261
 20
113.5942097565
 11
103.2750910117
 21
113.7091033866
  0
LINE
  5
430
100
AcDbEntity
  8
0
100
AcDbLine
 62
7
  6
CONTINUOUS
 10
103.6350910117
 20
112.1814438452
 11
103.5675910117
 21
112.3346353163
  0
LINE
  5
431
100
AcDbEntity
  8
0
100
AcDbLine
 62
7
  6
CONTINUOUS
 10
103.5000910117
 20
112.1814438452
 11
103.54509084
 21
112.0665502419
  0
LINE
  5
432
100
AcDbEntity
  8
0
100
AcDbLine
 62
7
  6
CONTINUOUS
 10
104.1075910117
 20
110.9942097565
 11
104.01759084
 21
111.2239969899
  0
LINE
  5
433
100
AcDbEntity
  8
0
100
AcDbLine
 62
7
  6
CONTINUOUS
 10
104.4675911834
 20
112.1814438452
 11
104.55759084
 21
111.9516565313
  0
LINE
  5
434
100
AcDbEntity
  8
0
100
AcDbLine
 62
7
  6
CONTINUOUS
 10
104.1450911261
 20
113.9771885147
 11
104.0850910117
 21
114.1686778535
  0
LINE
  5
435
100
AcDbEntity
  8
0
100
AcDbLine
 62
7
  6
CONTINUOUS
 10
105.97509084
 20
111.1091033866
 11
106.0200911834
 21
110.9559118887
  0
LINE
  5
436
100
AcDbEntity
  8
0
100
AcDbLine
 62
7
  6
CONTINUOUS
 10
105.5850907828
 20
113.2878267874
 11
105.1050912406
 21
115.0878267874
  0
LINE
  5
437
100
AcDbEntity
  8
0
100
AcDbLine
 62
7
  6
CONTINUOUS
 10
105.2850912406
 20
113.7474012544
 11
105.4050907828
 21
113.2878267874
  0
LINE
  5
438
100
AcDbEntity
  8
0
100
AcDbLine
 62
7
  6
CONTINUOUS
 10
104.9850910117
 20
114.9346353163
 11
105.2550910117
 21
113.9005927255
  0
LINE
  5
439
100
AcDbEntity
  8
0
100
AcDbLine
 62
7
  6
CONTINUOUS
 10
106.0350907828
 20
113.7474012544
 11
106.0050912406
 21
113.9005927255
  0
LINE
  5
43A
100
AcDbEntity
  8
0
100
AcDbLine
 62
7
  6
CONTINUOUS
 10
106.6725910117
 20
112.1431459775
 11
106.6950911834
 21
112.0282522668
  0
LWPOLYLINE
  5
43B
100
AcDbEntity
  8
RACCORDO
100
AcDbPolyline
 62
253
  6
CONTINUOUS
 90
6
 70
0
 10
112.6050910117
 20
71.7337860453
 10
112.606186628
 20
71.7128835804
 10
112.609461476
 20
71.6922101136
 10
112.6148796798
 20
71.6719921475
 10
112.6223818815
 20
71.6524511931
 10
112.6318858887
 20
71.6338013489
  0
LINE
  5
43C
100
AcDbEntity
  8
DRAFT
100
AcDbLine
 62
7
  6
CONTINUOUS
 10
111.4263058686
 20
69.8878267874
 11
111.4263058686
 21
70.8878267874
  0
LINE
  5
43D
100
AcDbEntity
  8
DRAFT
100
AcDbLine
 62
7
  6
CONTINUOUS
 10
111.4263058686
 20
122.8878267874
 11
111.4263058686
 21
123.8878267874
  0
LINE
  5
43E
100
AcDbEntity
  8
RACCORDO
100
AcDbLine
 62
7
  6
CONTINUOUS
 10
111.8050910117
 20
72.5444653877
 11
111.8050910117
 21
74.3878267874
  0
LINE
  5
43F
100
AcDbEntity
  8
RACCORDO
100
AcDbLine
 62
7
  6
CONTINUOUS
 10
111.8050910117
 20
119.3878267874
 11
111.8050910117
 21
121.2311881871
  0
LINE
  5
440
100
AcDbEntity
  8
RACCORDO
100
AcDbLine
 62
7
  6
CONTINUOUS
 10
112.6050910117
 20
71.5469254607
 11
112.6050910117
 21
73.9878267874
  0
LINE
  5
441
100
AcDbEntity
  8
RACCORDO
100
AcDbLine
 62
7
  6
CONTINUOUS
 10
112.6050910117
 20
119.7878267874
 11
112.6050910117
 21
122.2287281142
  0
LINE
  5
442
100
AcDbEntity
  8
RACCORDO
100
AcDbLine
 62
253
  6
CONTINUOUS
 10
112.8050910117
 20
71.3469559216
 11
112.8050910117
 21
74.3878267874
  0
LINE
  5
443
100
AcDbEntity
  8
RACCORDO
100
AcDbLine
 62
253
  6
CONTINUOUS
 10
112.8050910117
 20
119.3878267874
 11
112.8050910117
 21
122.4286976532
  0
LWPOLYLINE
  5
444
100
AcDbEntity
  8
RACCORDO
100
AcDbPolyline
 62
253
  6
CONTINUOUS
 90
6
 70
0
 10
112.6050910117
 20
122.0418675296
 10
112.6061866326
 20
122.0627700382
 10
112.6094614915
 20
122.0834435346
 10
112.6148797084
 20
122.1036615155
 10
112.6223819202
 20
122.1232024686
 10
112.6318859309
 20
122.1418522991
  0
LWPOLYLINE
  5
445
100
AcDbEntity
  8
RACCORDO
100
AcDbPolyline
 62
7
  6
CONTINUOUS
 90
13
 70
0
 10
110.1050910117
 20
74.6378267874
 10
110.1061570006
 20
74.6542080185
 10
110.1093383876
 20
74.6721965597
 10
110.1145935943
 20
74.6917924112
 10
110.1218664062
 20
74.7130902883
 10
110.1310687776
 20
74.7359954757
 10
110.1420656135
 20
74.7602238267
 10
110.1546489413
 20
74.7856683746
 10
110.168724488
 20
74.8124360862
 10
110.184351066
 20
74.8405637151
 10
110.2014078638
 20
74.8700684931
 10
110.2197448701
 20
74.9009331884
 10
110.2394418702
 20
74.9331428597
  0
LINE
  5
446
100
AcDbEntity
  8
RACCORDO
100
AcDbLine
 62
253
  6
CONTINUOUS
 10
88.6050148593
 20
70.8878267874
 11
89.2510045781
 21
71.5338165062
  0
LINE
  5
447
100
AcDbEntity
  8
0
100
AcDbLine
 62
7
  6
CONTINUOUS
 10
99.2700909902
 20
112.3729331841
 11
99.1800910117
 21
112.4495289197
  0
LINE
  5
448
100
AcDbEntity
  8
RACCORDO
100
AcDbLine
 62
253
  6
CONTINUOUS
 10
88.6050148593
 20
122.8878267874
 11
89.2510045781
 21
122.2418370686
  0
LINE
  5
449
100
AcDbEntity
  8
0
100
AcDbLine
 62
7
  6
CONTINUOUS
 10
102.0375909259
 20
110.8410182719
 11
102.1500910117
 21
110.7261246586
  0
LINE
  5
44A
100
AcDbEntity
  8
0
100
AcDbLine
 62
7
  6
CONTINUOUS
 10
102.0150910117
 20
111.492082118
 11
102.1275910975
 21
111.3771885147
  0
LINE
  5
44B
100
AcDbEntity
  8
0
100
AcDbLine
 62
7
  6
CONTINUOUS
 10
103.0275910117
 20
110.8410182719
 11
103.14009084
 21
110.7261246586
  0
LINE
  5
44C
100
AcDbEntity
  8
0
100
AcDbLine
 62
7
  6
CONTINUOUS
 10
102.1725909259
 20
110.9176140209
 11
102.1050909259
 21
110.9942097565
  0
LINE
  5
44D
100
AcDbEntity
  8
0
100
AcDbLine
 62
7
  6
CONTINUOUS
 10
102.1500910117
 20
111.5686778535
 11
102.0825910117
 21
111.6452735891
  0
LINE
  5
44E
100
AcDbEntity
  8
0
100
AcDbLine
 62
7
  6
CONTINUOUS
 10
103.1625910117
 20
110.9176140209
 11
103.0950910117
 21
110.9942097565
  0
LINE
  5
44F
100
AcDbEntity
  8
0
100
AcDbLine
 62
7
  6
CONTINUOUS
 10
102.4425909259
 20
112.2580395808
 11
102.5100909259
 21
112.1814438452
  0
LINE
  5
450
100
AcDbEntity
  8
0
100
AcDbLine
 62
7
  6
CONTINUOUS
 10
103.4550911834
 20
111.6069757213
 11
103.5225911834
 21
111.5303799858
  0
LINE
  5
451
100
AcDbEntity
  8
0
100
AcDbLine
 62
7
  6
CONTINUOUS
 10
104.1750910117
 20
110.9176140209
 11
104.1075910117
 21
110.9942097565
  0
LINE
  5
452
100
AcDbEntity
  8
0
100
AcDbLine
 62
7
  6
CONTINUOUS
 10
99.9450910117
 20
114.1303799858
 11
100.0050909545
 21
114.0537842502
  0
LINE
  5
453
100
AcDbEntity
  8
0
100
AcDbLine
 62
7
  6
CONTINUOUS
 10
100.1250910117
 20
114.1686778535
 11
100.0350910117
 21
114.2835714569
  0
LINE
  5
454
100
AcDbEntity
  8
0
100
AcDbLine
 62
7
  6
CONTINUOUS
 10
103.1550911261
 20
113.5942097565
 11
103.2450911261
 21
113.4410182719
  0
LINE
  5
455
100
AcDbEntity
  8
0
100
AcDbLine
 62
7
  6
CONTINUOUS
 10
104.6025911834
 20
112.219741713
 11
104.5350911834
 21
112.3346353163
  0
LINE
  5
456
100
AcDbEntity
  8
0
100
AcDbLine
 62
7
  6
CONTINUOUS
 10
106.0200911834
 20
110.9559118887
 11
106.11009084
 21
110.8027204042
  0
LINE
  5
457
100
AcDbEntity
  8
0
100
AcDbLine
 62
7
  6
CONTINUOUS
 10
104.0550911261
 20
114.7814438452
 11
103.9650911261
 21
114.9346353163
  0
LINE
  5
458
100
AcDbEntity
  8
0
100
AcDbLine
 62
7
  6
CONTINUOUS
 10
103.8750911261
 20
114.7814438452
 11
103.9350908973
 21
114.6665502419
  0
LINE
  5
459
100
AcDbEntity
  8
0
100
AcDbLine
 62
7
  6
CONTINUOUS
 10
105.3113411834
 20
112.1878267517
 11
105.3788411834
 21
112.0378267874
  0
LINE
  5
45A
100
AcDbEntity
  8
0
100
AcDbLine
 62
7
  6
CONTINUOUS
 10
105.5138411834
 20
112.3378268232
 11
105.4463411834
 21
112.4878267874
  0
LINE
  5
45B
100
AcDbEntity
  8
0
100
AcDbLine
 62
7
  6
CONTINUOUS
 10
106.1550911834
 20
111.0325076511
 11
106.11009084
 21
111.1474012544
  0
LINE
  5
45C
100
AcDbEntity
  8
0
100
AcDbLine
 62
7
  6
CONTINUOUS
 10
105.8550907828
 20
113.7091033866
 11
105.9150912406
 21
113.5559118887
  0
LWPOLYLINE
  5
45D
100
AcDbEntity
  8
RACCORDO
100
AcDbPolyline
 62
7
  6
CONTINUOUS
 90
13
 70
0
 10
112.6050910117
 20
73.9878267874
 10
112.6061570006
 20
74.0042080185
 10
112.6093383876
 20
74.0221965597
 10
112.6145935943
 20
74.0417924112
 10
112.6218664062
 20
74.0630902883
 10
112.6310687776
 20
74.0859954757
 10
112.6420656135
 20
74.1102238267
 10
112.6546489413
 20
74.1356683746
 10
112.668724488
 20
74.1624360862
 10
112.684351066
 20
74.1905637151
 10
112.7014078638
 20
74.2200684931
 10
112.7197448701
 20
74.2509331884
 10
112.7394418702
 20
74.2831428597
  0
LINE
  5
45E
100
AcDbEntity
  8
RACCORDO
100
AcDbLine
 62
7
  6
CONTINUOUS
 10
101.6904015541
 20
74.9290717097
 11
101.7585564093
 21
75.0378267874
  0
LINE
  5
45F
100
AcDbEntity
  8
0
100
AcDbLine
 62
7
  6
CONTINUOUS
 10
98.7525910171
 20
110.7261246586
 11
98.8650910224
 21
110.6878267874
  0
LINE
  5
460
100
AcDbEntity
  8
0
100
AcDbLine
 62
7
  6
CONTINUOUS
 10
98.8650910224
 20
110.9176140209
 11
98.7750910117
 21
110.9559118887
  0
LINE
  5
461
100
AcDbEntity
  8
0
100
AcDbLine
 62
7
  6
CONTINUOUS
 10
102.2400909259
 20
110.8793161531
 11
102.1725909259
 21
110.9176140209
  0
LINE
  5
462
100
AcDbEntity
  8
0
100
AcDbLine
 62
7
  6
CONTINUOUS
 10
103.2300910117
 20
110.8793161531
 11
103.1625910117
 21
110.9176140209
  0
LINE
  5
463
100
AcDbEntity
  8
0
100
AcDbLine
 62
7
  6
CONTINUOUS
 10
99.2850910403
 20
113.4410182719
 11
99.4350909831
 21
113.3261246586
  0
LINE
  5
464
100
AcDbEntity
  8
0
100
AcDbLine
 62
7
  6
CONTINUOUS
 10
100.0350910117
 20
114.2835714569
 11
99.8850909831
 21
114.3984650602
  0
LINE
  5
465
100
AcDbEntity
  8
0
100
AcDbLine
 62
7
  6
CONTINUOUS
 10
99.4650910403
 20
113.5176140209
 11
99.3750910403
 21
113.5942097565
  0
LINE
  5
466
100
AcDbEntity
  8
0
100
AcDbLine
 62
7
  6
CONTINUOUS
 10
99.8550910117
 20
114.2069757213
 11
99.9450910117
 21
114.1303799858
  0
LINE
  5
467
100
AcDbEntity
  8
0
100
AcDbLine
 62
7
  6
CONTINUOUS
 10
99.8250910403
 20
114.8580395808
 11
99.9150910403
 21
114.7814438452
  0
LINE
  5
468
100
AcDbEntity
  8
0
100
AcDbLine
 62
7
  6
CONTINUOUS
 10
102.5775909259
 20
112.3346353163
 11
102.4650910975
 21
112.4495289197
  0
LINE
  5
469
100
AcDbEntity
  8
0
100
AcDbLine
 62
7
  6
CONTINUOUS
 10
104.0400910117
 20
110.8410182719
 11
104.15259084
 21
110.7261246586
  0
LINE
  5
46A
100
AcDbEntity
  8
0
100
AcDbLine
 62
7
  6
CONTINUOUS
 10
103.5900911834
 20
111.6835714569
 11
103.47759084
 21
111.7984650602
  0
LINE
  5
46B
100
AcDbEntity
  8
0
100
AcDbLine
 62
7
  6
CONTINUOUS
 10
103.5675910117
 20
112.3346353163
 11
103.4550911834
 21
112.4495289197
  0
LINE
  5
46C
100
AcDbEntity
  8
0
100
AcDbLine
 62
7
  6
CONTINUOUS
 10
104.5350911834
 20
112.3346353163
 11
104.42259084
 21
112.4495289197
  0
LINE
  5
46D
100
AcDbEntity
  8
0
100
AcDbLine
 62
7
  6
CONTINUOUS
 10
103.4325910117
 20
112.2580395808
 11
103.5000910117
 21
112.1814438452
  0
LINE
  5
46E
100
AcDbEntity
  8
0
100
AcDbLine
 62
7
  6
CONTINUOUS
 10
104.4000911834
 20
112.2580395808
 11
104.4675911834
 21
112.1814438452
  0
LINE
  5
46F
100
AcDbEntity
  8
0
100
AcDbLine
 62
7
  6
CONTINUOUS
 10
106.2225911834
 20
110.9559118887
 11
106.1550911834
 21
111.0325076511
  0
LINE
  5
470
100
AcDbEntity
  8
0
100
AcDbLine
 62
7
  6
CONTINUOUS
 10
103.9050910117
 20
114.1303799858
 11
103.9650911261
 21
114.0537842502
  0
LINE
  5
471
100
AcDbEntity
  8
0
100
AcDbLine
 62
7
  6
CONTINUOUS
 10
104.0850910117
 20
114.1686778535
 11
103.9950910117
 21
114.2835714569
  0
LWPOLYLINE
  5
472
100
AcDbEntity
  8
RACCORDO
100
AcDbPolyline
 62
7
  6
CONTINUOUS
 90
11
 70
0
 10
101.7585564093
 20
118.7378267874
 10
101.6904015541
 20
118.8465818652
 10
101.6701132865
 20
118.8798598499
 10
101.6513221261
 20
118.9116610304
 10
101.6338920283
 20
118.942045705
 10
101.6179405845
 20
118.9710920095
 10
101.6036829846
 20
118.9987218081
 10
101.5911781093
 20
119.0247609919
 10
101.5805408249
 20
119.0491515249
 10
101.5719088733
 20
119.0719514432
 10
101.565371244
 20
119.0931607468
  0
LINE
  5
473
100
AcDbEntity
  8
0
100
AcDbLine
 62
7
  6
CONTINUOUS
 10
106.8075910117
 20
112.219741713
 11
106.71759084
 21
112.3729331841
  0
LINE
  5
474
100
AcDbEntity
  8
0
100
AcDbLine
 62
7
  6
CONTINUOUS
 10
106.0950912406
 20
113.6325076511
 11
106.0350907828
 21
113.7474012544
  0
LINE
  5
475
100
AcDbEntity
  8
DRAFT
100
AcDbLine
 62
7
  6
CONTINUOUS
 10
115.3838761548
 20
69.8878267874
 11
115.3838761548
 21
70.8878267874
  0
LINE
  5
476
100
AcDbEntity
  8
DRAFT
100
AcDbLine
 62
7
  6
CONTINUOUS
 10
115.3838761548
 20
122.8878267874
 11
115.3838761548
 21
123.8878267874
  0
LINE
  5
477
100
AcDbEntity
  8
RACCORDO
100
AcDbLine
 62
253
  6
CONTINUOUS
 10
115.9591774458
 20
71.5338165062
 11
115.9591774453
 21
122.2418370686
  0
LINE
  5
478
100
AcDbEntity
  8
RACCORDO
100
AcDbLine
 62
253
  6
CONTINUOUS
 10
116.4591012929
 20
72.0337403538
 11
116.4591012929
 21
121.7419132211
  0
LINE
  5
479
100
AcDbEntity
  8
RACCORDO
100
AcDbLine
 62
7
  6
CONTINUOUS
 10
117.1050910117
 20
71.387750635
 11
117.1050910117
 21
122.3879029399
  0
LINE
  5
47A
100
AcDbEntity
  8
0
100
AcDbLine
 62
7
  6
CONTINUOUS
 10
104.28759084
 20
110.6878267874
 11
104.42259084
 21
110.7261246586
  0
LINE
  5
47B
100
AcDbEntity
  8
0
100
AcDbLine
 62
7
  6
CONTINUOUS
 10
104.28759084
 20
112.4878267874
 11
104.15259084
 21
112.4495289197
  0
LINE
  5
47C
100
AcDbEntity
  8
CURVE
100
AcDbLine
 62
253
  6
CONTINUOUS
 10
107.6050910117
 20
109.8878267874
 11
97.6050910117
 21
109.8878267874
  0
LINE
  5
47D
100
AcDbEntity
  8
0
100
AcDbLine
 62
7
  6
CONTINUOUS
 10
98.8650910224
 20
110.6878267874
 11
99.0675909902
 21
110.6878267874
  0
LINE
  5
47E
100
AcDbEntity
  8
0
100
AcDbLine
 62
7
  6
CONTINUOUS
 10
99.7425910546
 20
110.6878267874
 11
99.9225910117
 21
110.6878267874
  0
LINE
  5
47F
100
AcDbEntity
  8
0
100
AcDbLine
 62
7
  6
CONTINUOUS
 10
100.2825910546
 20
110.6878267874
 11
100.4625910117
 21
110.6878267874
  0
LINE
  5
480
100
AcDbEntity
  8
0
100
AcDbLine
 62
7
  6
CONTINUOUS
 10
102.2625910975
 20
110.6878267874
 11
102.3525910117
 21
110.6878267874
  0
LINE
  5
481
100
AcDbEntity
  8
0
100
AcDbLine
 62
7
  6
CONTINUOUS
 10
103.2525911834
 20
110.6878267874
 11
103.3650910117
 21
110.6878267874
  0
LINE
  5
482
100
AcDbEntity
  8
0
100
AcDbLine
 62
7
  6
CONTINUOUS
 10
106.31259084
 20
110.6878267874
 11
106.51509084
 21
110.6878267874
  0
LINE
  5
483
100
AcDbEntity
  8
0
100
AcDbLine
 62
7
  6
CONTINUOUS
 10
103.3875911834
 20
110.8793161531
 11
103.2300910117
 21
110.8793161531
  0
LINE
  5
484
100
AcDbEntity
  8
0
100
AcDbLine
 62
7
  6
CONTINUOUS
 10
102.3750909259
 20
110.8793161531
 11
102.2400909259
 21
110.8793161531
  0
LINE
  5
485
100
AcDbEntity
  8
0
100
AcDbLine
 62
7
  6
CONTINUOUS
 10
106.51509084
 20
110.9176140209
 11
106.31259084
 21
110.9176140209
  0
LINE
  5
486
100
AcDbEntity
  8
0
100
AcDbLine
 62
7
  6
CONTINUOUS
 10
99.0675909902
 20
110.9176140209
 11
98.8650910224
 21
110.9176140209
  0
LINE
  5
487
100
AcDbEntity
  8
0
100
AcDbLine
 62
7
  6
CONTINUOUS
 10
102.0600910975
 20
111.1091033866
 11
101.9475910117
 21
111.1091033866
  0
LINE
  5
488
100
AcDbEntity
  8
0
100
AcDbLine
 62
7
  6
CONTINUOUS
 10
106.8300911834
 20
111.1474012544
 11
106.6950911834
 21
111.1474012544
  0
LINE
  5
489
100
AcDbEntity
  8
0
100
AcDbLine
 62
7
  6
CONTINUOUS
 10
102.2400909259
 20
111.3388905933
 11
102.3525910117
 21
111.3388905933
  0
LINE
  5
48A
100
AcDbEntity
  8
0
100
AcDbLine
 62
7
  6
CONTINUOUS
 10
99.0450910117
 20
111.4537842502
 11
99.2475910117
 21
111.4537842502
  0
LINE
  5
48B
100
AcDbEntity
  8
0
100
AcDbLine
 62
7
  6
CONTINUOUS
 10
104.15259084
 20
110.7261246586
 11
104.28759084
 21
110.6878267874
  0
LINE
  5
48C
100
AcDbEntity
  8
0
100
AcDbLine
 62
7
  6
CONTINUOUS
 10
102.1500910117
 20
110.7261246586
 11
102.2625910975
 21
110.6878267874
  0
LINE
  5
48D
100
AcDbEntity
  8
0
100
AcDbLine
 62
7
  6
CONTINUOUS
 10
103.14009084
 20
110.7261246586
 11
103.2525911834
 21
110.6878267874
  0
LINE
  5
48E
100
AcDbEntity
  8
0
100
AcDbLine
 62
7
  6
CONTINUOUS
 10
102.1275910975
 20
111.3771885147
 11
102.2400909259
 21
111.3388905933
  0
LINE
  5
48F
100
AcDbEntity
  8
0
100
AcDbLine
 62
7
  6
CONTINUOUS
 10
99.1800910117
 20
112.4495289197
 11
99.0675909902
 21
112.4878267874
  0
LINE
  5
490
100
AcDbEntity
  8
0
100
AcDbLine
 62
7
  6
CONTINUOUS
 10
104.28759084
 20
110.8793161531
 11
104.1750910117
 21
110.9176140209
  0
LINE
  5
491
100
AcDbEntity
  8
0
100
AcDbLine
 62
7
  6
CONTINUOUS
 10
106.2000910117
 20
110.7261246586
 11
106.31259084
 21
110.6878267874
  0
LINE
  5
492
100
AcDbEntity
  8
0
100
AcDbLine
 62
7
  6
CONTINUOUS
 10
103.47759084
 20
111.7984650602
 11
103.3650910117
 21
111.836762928
  0
LINE
  5
493
100
AcDbEntity
  8
0
100
AcDbLine
 62
7
  6
CONTINUOUS
 10
99.0675909902
 20
112.2580395808
 11
99.1575910332
 21
112.219741713
  0
LINE
  5
494
100
AcDbEntity
  8
0
100
AcDbLine
 62
7
  6
CONTINUOUS
 10
99.5550910403
 20
113.4793161531
 11
99.4650910403
 21
113.5176140209
  0
LINE
  5
495
100
AcDbEntity
  8
0
100
AcDbLine
 62
7
  6
CONTINUOUS
 10
106.31259084
 20
110.9176140209
 11
106.2225911834
 21
110.9559118887
  0
LINE
  5
496
100
AcDbEntity
  8
0
100
AcDbLine
 62
7
  6
CONTINUOUS
 10
102.2175910117
 20
111.5303799858
 11
102.1500910117
 21
111.5686778535
  0
LINE
  5
497
100
AcDbEntity
  8
0
100
AcDbLine
 62
7
  6
CONTINUOUS
 10
103.3875911834
 20
111.6452735891
 11
103.4550911834
 21
111.6069757213
  0
LINE
  5
498
100
AcDbEntity
  8
0
100
AcDbLine
 62
7
  6
CONTINUOUS
 10
102.3750909259
 20
112.2963374486
 11
102.4425909259
 21
112.2580395808
  0
LINE
  5
499
100
AcDbEntity
  8
0
100
AcDbLine
 62
7
  6
CONTINUOUS
 10
103.3650910117
 20
112.2963374486
 11
103.4325910117
 21
112.2580395808
  0
LINE
  5
49A
100
AcDbEntity
  8
0
100
AcDbLine
 62
7
  6
CONTINUOUS
 10
100.0050909545
 20
114.9346353163
 11
99.8550910117
 21
115.0495289197
  0
LINE
  5
49B
100
AcDbEntity
  8
0
100
AcDbLine
 62
7
  6
CONTINUOUS
 10
103.2450911261
 20
113.4410182719
 11
103.3950908973
 21
113.3261246586
  0
LINE
  5
49C
100
AcDbEntity
  8
0
100
AcDbLine
 62
7
  6
CONTINUOUS
 10
106.11009084
 20
110.8027204042
 11
106.2000910117
 21
110.7261246586
  0
LINE
  5
49D
100
AcDbEntity
  8
0
100
AcDbLine
 62
7
  6
CONTINUOUS
 10
103.4250911261
 20
113.5176140209
 11
103.3350911261
 21
113.5942097565
  0
LINE
  5
49E
100
AcDbEntity
  8
0
100
AcDbLine
 62
7
  6
CONTINUOUS
 10
103.8150910117
 20
114.2069757213
 11
103.9050910117
 21
114.1303799858
  0
LINE
  5
49F
100
AcDbEntity
  8
0
100
AcDbLine
 62
7
  6
CONTINUOUS
 10
103.7850911261
 20
114.8580395808
 11
103.8750911261
 21
114.7814438452
  0
LINE
  5
4A0
100
AcDbEntity
  8
0
100
AcDbLine
 62
7
  6
CONTINUOUS
 10
106.71759084
 20
112.3729331841
 11
106.6275911834
 21
112.4495289197
  0
LINE
  5
4A1
100
AcDbEntity
  8
0
100
AcDbLine
 62
7
  6
CONTINUOUS
 10
106.6050910117
 20
112.219741713
 11
106.6725910117
 21
112.1431459775
  0
LINE
  5
4A2
100
AcDbEntity
  8
0
100
AcDbLine
 62
7
  6
CONTINUOUS
 10
105.9150912406
 20
113.5559118887
 11
106.0350907828
 21
113.4027204042
  0
LWPOLYLINE
  5
4A3
100
AcDbEntity
  8
RACCORDO
100
AcDbPolyline
 62
253
  6
CONTINUOUS
 90
19
 70
0
 10
116.4591012929
 20
121.7419132211
 10
116.4571864003
 20
121.7854760302
 10
116.4514828276
 20
121.8287074284
 10
116.4420339657
 20
121.8712785263
 10
116.4289116982
 20
121.9128654576
 10
116.4122158548
 20
121.9531518434
 10
116.3920734517
 20
121.9918311987
 10
116.3686377253
 20
122.0286092644
 10
116.3420869666
 20
122.0632062457
 10
116.3126231646
 20
122.0953589406
 10
116.2804704697
 20
122.1248227426
 10
116.2458734886
 20
122.1513735011
 10
116.2090954229
 20
122.1748092275
 10
116.1704160676
 20
122.1949516306
 10
116.1301296817
 20
122.211647474
 10
116.0885427503
 20
122.2247697415
 10
116.0459716524
 20
122.2342186034
 10
116.0027402543
 20
122.2399221761
 10
115.9591774453
 20
122.2418370686
  0
LINE
  5
4A4
100
AcDbEntity
  8
0
100
AcDbLine
 62
7
  6
CONTINUOUS
 10
106.4250910117
 20
113.2878267874
 11
106.5750907828
 21
113.3261246586
  0
LINE
  5
4A5
100
AcDbEntity
  8
0
100
AcDbLine
 62
7
  6
CONTINUOUS
 10
103.6950911261
 20
113.2878267874
 11
103.8450908973
 21
113.3261246586
  0
LINE
  5
4A6
100
AcDbEntity
  8
0
100
AcDbLine
 62
7
  6
CONTINUOUS
 10
99.7350910403
 20
113.2878267874
 11
99.8850909831
 21
113.3261246586
  0
LINE
  5
4A7
100
AcDbEntity
  8
0
100
AcDbLine
 62
7
  6
CONTINUOUS
 10
102.3750909259
 20
111.5303799858
 11
102.2175910117
 21
111.5303799858
  0
LINE
  5
4A8
100
AcDbEntity
  8
0
100
AcDbLine
 62
7
  6
CONTINUOUS
 10
103.2300910117
 20
111.6452735891
 11
103.3875911834
 21
111.6452735891
  0
LINE
  5
4A9
100
AcDbEntity
  8
0
100
AcDbLine
 62
7
  6
CONTINUOUS
 10
99.3825910117
 20
111.6835714569
 11
99.0450910117
 21
111.6835714569
  0
LINE
  5
4AA
100
AcDbEntity
  8
0
100
AcDbLine
 62
7
  6
CONTINUOUS
 10
103.3650910117
 20
111.836762928
 11
103.2525911834
 21
111.836762928
  0
LINE
  5
4AB
100
AcDbEntity
  8
0
100
AcDbLine
 62
7
  6
CONTINUOUS
 10
99.2475910117
 20
112.0282522668
 11
99.3825910117
 21
112.0282522668
  0
LINE
  5
4AC
100
AcDbEntity
  8
0
100
AcDbLine
 62
7
  6
CONTINUOUS
 10
106.6950911834
 20
112.0282522668
 11
106.8300911834
 21
112.0282522668
  0
LINE
  5
4AD
100
AcDbEntity
  8
0
100
AcDbLine
 62
7
  6
CONTINUOUS
 10
105.3788411834
 20
112.0378267874
 11
105.4463411834
 21
112.0378267874
  0
LINE
  5
4AE
100
AcDbEntity
  8
0
100
AcDbLine
 62
7
  6
CONTINUOUS
 10
103.54509084
 20
112.0665502419
 11
103.6575911834
 21
112.0665502419
  0
LINE
  5
4AF
100
AcDbEntity
  8
0
100
AcDbLine
 62
7
  6
CONTINUOUS
 10
98.8650910224
 20
112.2580395808
 11
99.0675909902
 21
112.2580395808
  0
LINE
  5
4B0
100
AcDbEntity
  8
0
100
AcDbLine
 62
7
  6
CONTINUOUS
 10
106.31259084
 20
112.2580395808
 11
106.51509084
 21
112.2580395808
  0
LINE
  5
4B1
100
AcDbEntity
  8
0
100
AcDbLine
 62
7
  6
CONTINUOUS
 10
102.2175910117
 20
112.2963374486
 11
102.3750909259
 21
112.2963374486
  0
LINE
  5
4B2
100
AcDbEntity
  8
0
100
AcDbLine
 62
7
  6
CONTINUOUS
 10
103.2300910117
 20
112.2963374486
 11
103.3650910117
 21
112.2963374486
  0
LINE
  5
4B3
100
AcDbEntity
  8
0
100
AcDbLine
 62
7
  6
CONTINUOUS
 10
106.51509084
 20
112.4878267874
 11
106.31259084
 21
112.4878267874
  0
LINE
  5
4B4
100
AcDbEntity
  8
0
100
AcDbLine
 62
7
  6
CONTINUOUS
 10
105.4463411834
 20
112.4878267874
 11
105.3788411834
 21
112.4878267874
  0
LINE
  5
4B5
100
AcDbEntity
  8
0
100
AcDbLine
 62
7
  6
CONTINUOUS
 10
103.34259084
 20
112.4878267874
 11
103.2525911834
 21
112.4878267874
  0
LINE
  5
4B6
100
AcDbEntity
  8
0
100
AcDbLine
 62
7
  6
CONTINUOUS
 10
102.3525910117
 20
112.4878267874
 11
102.2400909259
 21
112.4878267874
  0
LINE
  5
4B7
100
AcDbEntity
  8
0
100
AcDbLine
 62
7
  6
CONTINUOUS
 10
100.6425909688
 20
112.4878267874
 11
100.5075909688
 21
112.4878267874
  0
LINE
  5
4B8
100
AcDbEntity
  8
0
100
AcDbLine
 62
7
  6
CONTINUOUS
 10
100.1925910117
 20
112.4878267874
 11
100.0125910546
 21
112.4878267874
  0
LINE
  5
4B9
100
AcDbEntity
  8
0
100
AcDbLine
 62
7
  6
CONTINUOUS
 10
99.6975909688
 20
112.4878267874
 11
99.5625910332
 21
112.4878267874
  0
LINE
  5
4BA
100
AcDbEntity
  8
0
100
AcDbLine
 62
7
  6
CONTINUOUS
 10
99.0675909902
 20
112.4878267874
 11
98.8650910224
 21
112.4878267874
  0
LINE
  5
4BB
100
AcDbEntity
  8
0
100
AcDbLine
 62
7
  6
CONTINUOUS
 10
98.6850910117
 20
113.2878267874
 11
98.8650910117
 21
113.2878267874
  0
LINE
  5
4BC
100
AcDbEntity
  8
0
100
AcDbLine
 62
7
  6
CONTINUOUS
 10
99.5850910117
 20
113.2878267874
 11
99.7350910403
 21
113.2878267874
  0
LINE
  5
4BD
100
AcDbEntity
  8
0
100
AcDbLine
 62
7
  6
CONTINUOUS
 10
100.7250909545
 20
113.2878267874
 11
100.9050909545
 21
113.2878267874
  0
LINE
  5
4BE
100
AcDbEntity
  8
0
100
AcDbLine
 62
7
  6
CONTINUOUS
 10
102.0450908973
 20
113.2878267874
 11
102.2250908973
 21
113.2878267874
  0
LINE
  5
4BF
100
AcDbEntity
  8
0
100
AcDbLine
 62
7
  6
CONTINUOUS
 10
103.5450910117
 20
113.2878267874
 11
103.6950911261
 21
113.2878267874
  0
LINE
  5
4C0
100
AcDbEntity
  8
0
100
AcDbLine
 62
7
  6
CONTINUOUS
 10
104.3850912406
 20
113.2878267874
 11
104.5650912406
 21
113.2878267874
  0
LINE
  5
4C1
100
AcDbEntity
  8
0
100
AcDbLine
 62
7
  6
CONTINUOUS
 10
105.4050907828
 20
113.2878267874
 11
105.5850907828
 21
113.2878267874
  0
LINE
  5
4C2
100
AcDbEntity
  8
0
100
AcDbLine
 62
7
  6
CONTINUOUS
 10
106.3050907828
 20
113.2878267874
 11
106.4250910117
 21
113.2878267874
  0
LINE
  5
4C3
100
AcDbEntity
  8
0
100
AcDbLine
 62
7
  6
CONTINUOUS
 10
103.7250910117
 20
113.4793161531
 11
103.5150911261
 21
113.4793161531
  0
LINE
  5
4C4
100
AcDbEntity
  8
0
100
AcDbLine
 62
7
  6
CONTINUOUS
 10
99.7650910117
 20
113.4793161531
 11
99.5550910403
 21
113.4793161531
  0
LINE
  5
4C5
100
AcDbEntity
  8
0
100
AcDbLine
 62
7
  6
CONTINUOUS
 10
99.4350909831
 20
113.3261246586
 11
99.5850910117
 21
113.2878267874
  0
LINE
  5
4C6
100
AcDbEntity
  8
0
100
AcDbLine
 62
7
  6
CONTINUOUS
 10
103.3950908973
 20
113.3261246586
 11
103.5450910117
 21
113.2878267874
  0
LINE
  5
4C7
100
AcDbEntity
  8
0
100
AcDbLine
 62
7
  6
CONTINUOUS
 10
99.8850909831
 20
114.3984650602
 11
99.7350910403
 21
114.436762928
  0
LINE
  5
4C8
100
AcDbEntity
  8
0
100
AcDbLine
 62
7
  6
CONTINUOUS
 10
104.42259084
 20
112.4495289197
 11
104.28759084
 21
112.4878267874
  0
LINE
  5
4C9
100
AcDbEntity
  8
0
100
AcDbLine
 62
7
  6
CONTINUOUS
 10
102.4650910975
 20
112.4495289197
 11
102.3525910117
 21
112.4878267874
  0
LINE
  5
4CA
100
AcDbEntity
  8
0
100
AcDbLine
 62
7
  6
CONTINUOUS
 10
103.4550911834
 20
112.4495289197
 11
103.34259084
 21
112.4878267874
  0
LINE
  5
4CB
100
AcDbEntity
  8
0
100
AcDbLine
 62
7
  6
CONTINUOUS
 10
104.28759084
 20
112.2963374486
 11
104.4000911834
 21
112.2580395808
  0
LINE
  5
4CC
100
AcDbEntity
  8
0
100
AcDbLine
 62
7
  6
CONTINUOUS
 10
106.6275911834
 20
112.4495289197
 11
106.51509084
 21
112.4878267874
  0
LINE
  5
4CD
100
AcDbEntity
  8
0
100
AcDbLine
 62
7
  6
CONTINUOUS
 10
99.7650910117
 20
114.2452735891
 11
99.8550910117
 21
114.2069757213
  0
LINE
  5
4CE
100
AcDbEntity
  8
0
100
AcDbLine
 62
7
  6
CONTINUOUS
 10
99.7350910403
 20
114.8963374486
 11
99.8250910403
 21
114.8580395808
  0
LINE
  5
4CF
100
AcDbEntity
  8
0
100
AcDbLine
 62
7
  6
CONTINUOUS
 10
103.5150911261
 20
113.4793161531
 11
103.4250911261
 21
113.5176140209
  0
LINE
  5
4D0
100
AcDbEntity
  8
0
100
AcDbLine
 62
7
  6
CONTINUOUS
 10
106.51509084
 20
112.2580395808
 11
106.6050910117
 21
112.219741713
  0
LINE
  5
4D1
100
AcDbEntity
  8
0
100
AcDbLine
 62
7
  6
CONTINUOUS
 10
103.7250910117
 20
114.2452735891
 11
103.8150910117
 21
114.2069757213
  0
LINE
  5
4D2
100
AcDbEntity
  8
0
100
AcDbLine
 62
7
  6
CONTINUOUS
 10
106.0350907828
 20
113.4027204042
 11
106.1550910117
 21
113.3261246586
  0
LINE
  5
4D3
100
AcDbEntity
  8
0
100
AcDbLine
 62
7
  6
CONTINUOUS
 10
103.9950910117
 20
114.2835714569
 11
103.8450908973
 21
114.3984650602
  0
LINE
  5
4D4
100
AcDbEntity
  8
0
100
AcDbLine
 62
7
  6
CONTINUOUS
 10
103.9650911261
 20
114.9346353163
 11
103.8150910117
 21
115.0495289197
  0
LINE
  5
4D5
100
AcDbEntity
  8
0
100
AcDbLine
 62
7
  6
CONTINUOUS
 10
106.1850912406
 20
113.5559118887
 11
106.0950912406
 21
113.6325076511
  0
LINE
  5
4D6
100
AcDbEntity
  8
RACCORDO
100
AcDbLine
 62
7
  6
CONTINUOUS
 10
110.2394418702
 20
74.9331428597
 11
110.3050910117
 21
75.0378267874
  0
LINE
  5
4D7
100
AcDbEntity
  8
0
100
AcDbLine
 62
7
  6
CONTINUOUS
 10
103.5450910117
 20
114.436762928
 11
103.3950908973
 21
114.3984650602
  0
LINE
  5
4D8
100
AcDbEntity
  8
0
100
AcDbLine
 62
7
  6
CONTINUOUS
 10
103.5450910117
 20
115.0878267874
 11
103.3950908973
 21
115.0495289197
  0
LINE
  5
4D9
100
AcDbEntity
  8
0
100
AcDbLine
 62
7
  6
CONTINUOUS
 10
99.5850910117
 20
114.436762928
 11
99.4350909831
 21
114.3984650602
  0
LINE
  5
4DA
100
AcDbEntity
  8
0
100
AcDbLine
 62
7
  6
CONTINUOUS
 10
99.5850910117
 20
115.0878267874
 11
99.4350909831
 21
115.0495289197
  0
LINE
  5
4DB
100
AcDbEntity
  8
0
100
AcDbLine
 62
7
  6
CONTINUOUS
 10
106.4250910117
 20
113.5176140209
 11
106.3050907828
 21
113.5176140209
  0
LINE
  5
4DC
100
AcDbEntity
  8
0
100
AcDbLine
 62
7
  6
CONTINUOUS
 10
104.6850907828
 20
113.7474012544
 11
105.2850912406
 21
113.7474012544
  0
LINE
  5
4DD
100
AcDbEntity
  8
0
100
AcDbLine
 62
7
  6
CONTINUOUS
 10
105.2550910117
 20
113.9005927255
 11
104.7150910117
 21
113.9005927255
  0
LINE
  5
4DE
100
AcDbEntity
  8
0
100
AcDbLine
 62
7
  6
CONTINUOUS
 10
99.5550910403
 20
114.2452735891
 11
99.7650910117
 21
114.2452735891
  0
LINE
  5
4DF
100
AcDbEntity
  8
0
100
AcDbLine
 62
7
  6
CONTINUOUS
 10
103.5150911261
 20
114.2452735891
 11
103.7250910117
 21
114.2452735891
  0
LINE
  5
4E0
100
AcDbEntity
  8
0
100
AcDbLine
 62
7
  6
CONTINUOUS
 10
103.6950911261
 20
114.436762928
 11
103.5450910117
 21
114.436762928
  0
LINE
  5
4E1
100
AcDbEntity
  8
0
100
AcDbLine
 62
7
  6
CONTINUOUS
 10
99.7350910403
 20
114.436762928
 11
99.5850910117
 21
114.436762928
  0
LINE
  5
4E2
100
AcDbEntity
  8
0
100
AcDbLine
 62
7
  6
CONTINUOUS
 10
99.9750910689
 20
114.6665502419
 11
100.1250910117
 21
114.6665502419
  0
LINE
  5
4E3
100
AcDbEntity
  8
0
100
AcDbLine
 62
7
  6
CONTINUOUS
 10
103.9350908973
 20
114.6665502419
 11
104.0850910117
 21
114.6665502419
  0
LINE
  5
4E4
100
AcDbEntity
  8
0
100
AcDbLine
 62
7
  6
CONTINUOUS
 10
99.5550910403
 20
114.8963374486
 11
99.7350910403
 21
114.8963374486
  0
LINE
  5
4E5
100
AcDbEntity
  8
0
100
AcDbLine
 62
7
  6
CONTINUOUS
 10
100.4250910689
 20
114.8963374486
 11
101.3250910689
 21
114.8963374486
  0
LINE
  5
4E6
100
AcDbEntity
  8
0
100
AcDbLine
 62
7
  6
CONTINUOUS
 10
101.7450910117
 20
114.8963374486
 11
102.6450910117
 21
114.8963374486
  0
LINE
  5
4E7
100
AcDbEntity
  8
0
100
AcDbLine
 62
7
  6
CONTINUOUS
 10
103.5150911261
 20
114.8963374486
 11
103.6950911261
 21
114.8963374486
  0
LINE
  5
4E8
100
AcDbEntity
  8
0
100
AcDbLine
 62
7
  6
CONTINUOUS
 10
106.9050912406
 20
115.0878267874
 11
106.7250912406
 21
115.0878267874
  0
LINE
  5
4E9
100
AcDbEntity
  8
0
100
AcDbLine
 62
7
  6
CONTINUOUS
 10
106.0050912406
 20
115.0878267874
 11
105.8250912406
 21
115.0878267874
  0
LINE
  5
4EA
100
AcDbEntity
  8
0
100
AcDbLine
 62
7
  6
CONTINUOUS
 10
105.1050912406
 20
115.0878267874
 11
104.8650907828
 21
115.0878267874
  0
LINE
  5
4EB
100
AcDbEntity
  8
0
100
AcDbLine
 62
7
  6
CONTINUOUS
 10
103.6650908973
 20
115.0878267874
 11
103.5450910117
 21
115.0878267874
  0
LINE
  5
4EC
100
AcDbEntity
  8
0
100
AcDbLine
 62
7
  6
CONTINUOUS
 10
102.8250910117
 20
115.0878267874
 11
101.7450910117
 21
115.0878267874
  0
LINE
  5
4ED
100
AcDbEntity
  8
0
100
AcDbLine
 62
7
  6
CONTINUOUS
 10
101.5050908973
 20
115.0878267874
 11
100.4250910689
 21
115.0878267874
  0
LINE
  5
4EE
100
AcDbEntity
  8
0
100
AcDbLine
 62
7
  6
CONTINUOUS
 10
99.7050909831
 20
115.0878267874
 11
99.5850910117
 21
115.0878267874
  0
LINE
  5
4EF
100
AcDbEntity
  8
0
100
AcDbLine
 62
7
  6
CONTINUOUS
 10
98.8650910117
 20
115.0878267874
 11
98.6850910117
 21
115.0878267874
  0
LINE
  5
4F0
100
AcDbEntity
  8
0
100
AcDbLine
 62
7
  6
CONTINUOUS
 10
106.1550910117
 20
113.3261246586
 11
106.3050907828
 21
113.2878267874
  0
LINE
  5
4F1
100
AcDbEntity
  8
0
100
AcDbLine
 62
7
  6
CONTINUOUS
 10
99.8550910117
 20
115.0495289197
 11
99.7050909831
 21
115.0878267874
  0
LINE
  5
4F2
100
AcDbEntity
  8
0
100
AcDbLine
 62
7
  6
CONTINUOUS
 10
103.8450908973
 20
114.3984650602
 11
103.6950911261
 21
114.436762928
  0
LINE
  5
4F3
100
AcDbEntity
  8
0
100
AcDbLine
 62
7
  6
CONTINUOUS
 10
103.8150910117
 20
115.0495289197
 11
103.6650908973
 21
115.0878267874
  0
LINE
  5
4F4
100
AcDbEntity
  8
0
100
AcDbLine
 62
7
  6
CONTINUOUS
 10
106.3050907828
 20
113.5176140209
 11
106.1850912406
 21
113.5559118887
  0
LINE
  5
4F5
100
AcDbEntity
  8
0
100
AcDbLine
 62
7
  6
CONTINUOUS
 10
103.6950911261
 20
114.8963374486
 11
103.7850911261
 21
114.8580395808
  0
LWPOLYLINE
  5
4F6
100
AcDbEntity
  8
RACCORDO
100
AcDbPolyline
 62
7
  6
CONTINUOUS
 90
14
 70
0
 10
110.3050910117
 20
118.7378267874
 10
110.2393098585
 20
118.8427249787
 10
110.219572595
 20
118.8750044682
 10
110.2012011222
 20
118.9059358192
 10
110.1841243009
 20
118.9354899235
 10
110.1684801992
 20
118.9636618386
 10
110.154401947
 20
118.990456507
 10
110.1418618203
 20
119.0158596489
 10
110.1309699423
 20
119.0399109892
 10
110.1218723618
 20
119.062570803
 10
110.1146413211
 20
119.0837056352
 10
110.1093750065
 20
119.1032710008
 10
110.1061700407
 20
119.1213113849
 10
110.1050910117
 20
119.1378267874
  0
LWPOLYLINE
  5
4F7
100
AcDbEntity
  8
RACCORDO
100
AcDbPolyline
 62
253
  6
CONTINUOUS
 90
17
 70
0
 10
112.8050910117
 20
122.4286976532
 10
112.8040454116
 20
122.4315904462
 10
112.7998352813
 20
122.4345429443
 10
112.7924606208
 20
122.4375551476
 10
112.7821847879
 20
122.4406197111
 10
112.7687444248
 20
122.4437439798
 10
112.751349458
 20
122.4469499884
 10
112.730120539
 20
122.4502388813
 10
112.7049370163
 20
122.4536095142
 10
112.6746468608
 20
122.4570804881
 10
112.6393783047
 20
122.4606535874
 10
112.5990031158
 20
122.4643270278
 10
112.5519845686
 20
122.468114058
 10
112.4982465362
 20
122.4720264523
 10
112.4378651454
 20
122.4760524365
 10
112.3695320516
 20
122.4801699365
 10
112.2076077011
 20
122.4887301457
  0
LINE
  5
4F8
100
AcDbEntity
  8
RACCORDO
100
AcDbLine
 62
7
  6
CONTINUOUS
 10
112.7394418702
 20
74.2831428597
 11
112.8050910117
 21
74.3878267874
  0
LINE
  5
4F9
100
AcDbEntity
  8
CURVE
100
AcDbLine
 62
253
  6
CONTINUOUS
 10
97.6050910117
 20
115.8878267874
 11
107.6050910117
 21
115.8878267874
  0
LWPOLYLINE
  5
4FA
100
AcDbEntity
  8
RACCORDO
100
AcDbPolyline
 62
7
  6
CONTINUOUS
 90
14
 70
0
 10
112.8050910117
 20
119.3878267874
 10
112.7393098585
 20
119.4927249787
 10
112.719572595
 20
119.5250044682
 10
112.7012011222
 20
119.5559358192
 10
112.6841243009
 20
119.5854899235
 10
112.6684801992
 20
119.6136618386
 10
112.654401947
 20
119.640456507
 10
112.6418618203
 20
119.6658596489
 10
112.6309699423
 20
119.6899109892
 10
112.6218723618
 20
119.712570803
 10
112.6146413211
 20
119.7337056352
 10
112.6093750065
 20
119.7532710008
 10
112.6061700407
 20
119.7713113849
 10
112.6050910117
 20
119.7878267874
  0
LWPOLYLINE
  5
4FB
100
AcDbEntity
  8
RACCORDO
100
AcDbPolyline
 62
253
  6
CONTINUOUS
 90
18
 70
0
 10
112.6050910117
 20
122.2287279385
 10
112.6037720366
 20
122.2316213944
 10
112.5997008755
 20
122.2345743939
 10
112.5927045349
 20
122.2375869369
 10
112.5826402311
 20
122.2406516231
 10
112.5693141397
 20
122.2437758528
 10
112.5523953406
 20
122.2469818269
 10
112.5316178657
 20
122.2502707445
 10
112.5067153812
 20
122.2536414064
 10
112.477191354
 20
122.2571124158
 10
112.4426787703
 20
122.2606855571
 10
112.4028126407
 20
122.2643590458
 10
112.356926991
 20
122.2681461316
 10
112.3044076586
 20
122.2720585963
 10
112.2448948517
 20
122.276084658
 10
112.1780416453
 20
122.2802022214
 10
112.1029175955
 20
122.2844366154
 10
111.9289938839
 20
122.293081826
  0
LWPOLYLINE
  5
4FC
100
AcDbEntity
  8
RACCORDO
100
AcDbPolyline
 62
253
  6
CONTINUOUS
 90
19
 70
0
 10
101.679574559
 20
73.7339688343
 10
101.6866356294
 20
73.7366166527
 10
101.6935270306
 20
73.7430186164
 10
101.7002487628
 20
73.7531190595
 10
101.706849016
 20
73.7668370448
 10
101.7132796001
 20
73.7840609207
 10
101.7193959444
 20
73.8046438651
 10
101.7251892169
 20
73.8284175171
 10
101.7306682496
 20
73.8551953121
 10
101.7357149677
 20
73.8847626213
 10
101.7403184325
 20
73.9168846723
 10
101.7444895828
 20
73.9513166438
 10
101.7481431597
 20
73.9878026997
 10
101.7512681013
 20
74.0260635995
 10
101.7538754696
 20
74.065814428
 10
101.7559131918
 20
74.1067767135
 10
101.7573639103
 20
74.1486535347
 10
101.7582449828
 20
74.1911297068
 10
101.7585564093
 20
74.2338926818
  0
LWPOLYLINE
  5
4FD
100
AcDbEntity
  8
RACCORDO
100
AcDbPolyline
 62
253
  6
CONTINUOUS
 90
19
 70
0
 10
103.7237926296
 20
119.8417152016
 10
103.7167676065
 20
119.8400756528
 10
103.7099014549
 20
119.8362723121
 10
103.7031941751
 20
119.8303051794
 10
103.6965940996
 20
119.8220896861
 10
103.6901528959
 20
119.8117104009
 10
103.6840255654
 20
119.7994210293
 10
103.6782241764
 20
119.7851803441
 10
103.6727366608
 20
119.7690295725
 10
103.6676818157
 20
119.7513461018
 10
103.6630705256
 20
119.732099802
 10
103.658891906
 20
119.7113208031
 10
103.6552321003
 20
119.6894768825
 10
103.6521024104
 20
119.6665471019
 10
103.6494915344
 20
119.6425523996
 10
103.6474517095
 20
119.6180233684
 10
103.6460003483
 20
119.5931368723
 10
103.6451200382
 20
119.5677160472
 10
103.6448107794
 20
119.541760893
  0
LINE
  5
4FE
100
AcDbEntity
  8
DRAFT
100
AcDbLine
 62
7
  6
CONTINUOUS
 10
104.194579235
 20
119.271388805
 11
103.9266300426
 21
119.2539337401
  0
LINE
  5
4FF
100
AcDbEntity
  8
RACCORDO
100
AcDbLine
 62
253
  6
CONTINUOUS
 10
110.3050910117
 20
118.7378267874
 11
103.4516256141
 21
118.7378267874
  0
LINE
  5
500
100
AcDbEntity
  8
RACCORDO
100
AcDbLine
 62
253
  6
CONTINUOUS
 10
101.7585564093
 20
118.7378267874
 11
94.9050910117
 21
118.7378267874
  0
LINE
  5
501
100
AcDbEntity
  8
RACCORDO
100
AcDbLine
 62
7
  6
CONTINUOUS
 10
110.1050910117
 20
119.2378267874
 11
103.7390656079
 21
119.2378267874
  0
LINE
  5
502
100
AcDbEntity
  8
RACCORDO
100
AcDbLine
 62
7
  6
CONTINUOUS
 10
101.4711164155
 20
119.2378267874
 11
95.1050910117
 21
119.2378267874
  0
LINE
  5
503
100
AcDbEntity
  8
RACCORDO
100
AcDbLine
 62
7
  6
CONTINUOUS
 10
109.1050910117
 20
119.271388805
 11
104.194579235
 21
119.271388805
  0
LINE
  5
504
100
AcDbEntity
  8
RACCORDO
100
AcDbLine
 62
7
  6
CONTINUOUS
 10
101.0156027883
 20
119.271388805
 11
96.1050910117
 21
119.271388805
  0
LINE
  5
505
100
AcDbEntity
  8
RACCORDO
100
AcDbLine
 62
253
  6
CONTINUOUS
 10
112.8050910117
 20
119.3878267874
 11
111.8050910117
 21
119.3878267874
  0
LINE
  5
506
100
AcDbEntity
  8
RACCORDO
100
AcDbLine
 62
253
  6
CONTINUOUS
 10
93.4050910117
 20
119.3878267874
 11
92.4050910117
 21
119.3878267874
  0
LINE
  5
507
100
AcDbEntity
  8
RACCORDO
100
AcDbLine
 62
253
  6
CONTINUOUS
 10
101.565371244
 20
119.541760893
 11
103.6448107794
 21
119.541760893
  0
LINE
  5
508
100
AcDbEntity
  8
DRAFT
100
AcDbLine
 62
7
  6
CONTINUOUS
 10
101.0156027883
 20
119.271388805
 11
101.2835519808
 21
119.2539337401
  0
LWPOLYLINE
  5
509
100
AcDbEntity
  8
RACCORDO
100
AcDbPolyline
 62
7
  6
CONTINUOUS
 90
16
 70
0
 10
101.1690681859
 20
120.0749407538
 10
101.1552840633
 20
120.073806793
 10
101.1412928121
 20
120.0709909287
 10
101.1272552082
 20
120.0664250375
 10
101.1133969268
 20
120.0600597083
 10
101.0998530945
 20
120.051861445
 10
101.0866719673
 20
120.0418028717
 10
101.0740891383
 20
120.0298978829
 10
101.0623027792
 20
120.0161641669
 10
101.0513433482
 20
120.000584549
 10
101.0415057507
 20
119.9832722702
 10
101.0330025934
 20
119.9642936373
 10
101.0258411053
 20
119.9435487948
 10
101.0202856365
 20
119.9211128862
 10
101.0167655225
 20
119.8972919151
 10
101.0156027883
 20
119.8723837425
  0
LINE
  5
50A
100
AcDbEntity
  8
RACCORDO
100
AcDbLine
 62
253
  6
CONTINUOUS
 10
104.194579235
 20
119.8723837425
 11
103.7237926296
 21
119.8417152016
  0
LINE
  5
50B
100
AcDbEntity
  8
RACCORDO
100
AcDbLine
 62
253
  6
CONTINUOUS
 10
104.0411138374
 20
120.0749407538
 11
103.5306074644
 21
120.0416847406
  0
LINE
  5
50C
100
AcDbEntity
  8
RACCORDO
100
AcDbLine
 62
7
  6
CONTINUOUS
 10
101.0653512663
 20
120.3019175245
 11
101.24646225
 21
120.3137156715
  0
LINE
  5
50D
100
AcDbEntity
  8
RACCORDO
100
AcDbLine
 62
7
  6
CONTINUOUS
 10
101.0108010876
 20
121.3893451772
 11
101.1985220059
 21
121.4015739164
  0
LWPOLYLINE
  5
50E
100
AcDbEntity
  8
RACCORDO
100
AcDbPolyline
 62
253
  6
CONTINUOUS
 90
10
 70
0
 10
95.8515589668
 20
121.0435449263
 10
95.6974315628
 20
121.0374470231
 10
95.560401157
 20
121.0312013947
 10
95.4407973833
 20
121.0248518088
 10
95.3389537717
 20
121.0183969748
 10
95.2551757505
 20
121.0118381834
 10
95.1897092999
 20
121.0052230749
 10
95.1427670503
 20
120.9985675294
 10
95.1145203092
 20
120.9918556668
 10
95.1050910135
 20
120.9850874871
  0
LWPOLYLINE
  5
50F
100
AcDbEntity
  8
RACCORDO
100
AcDbPolyline
 62
253
  6
CONTINUOUS
 90
10
 70
0
 10
95.671234332
 20
121.2435061368
 10
95.5131986531
 20
121.2374076556
 10
95.3722771322
 20
121.231161451
 10
95.2495725255
 20
121.2248113007
 10
95.1451936995
 20
121.2183553193
 10
95.0590317878
 20
121.2117953921
 10
94.9918629474
 20
121.2051809524
 10
94.9439458975
 20
121.1985284778
 10
94.9150219189
 20
121.1918214906
 10
94.9050910117
 20
121.1850599909
  0
LINE
  5
510
100
AcDbEntity
  8
RACCORDO
100
AcDbLine
 62
253
  6
CONTINUOUS
 10
96.2094291141
 20
121.0552953125
 11
95.8515589668
 21
121.0435449263
  0
LINE
  5
511
100
AcDbEntity
  8
RACCORDO
100
AcDbLine
 62
253
  6
CONTINUOUS
 10
96.0388430843
 20
121.255257685
 11
95.671234332
 21
121.2435061368
  0
LINE
  5
512
100
AcDbEntity
  8
RACCORDO
100
AcDbLine
 62
253
  6
CONTINUOUS
 10
96.6305571469
 20
121.0663327041
 11
96.2094291141
 21
121.0552953125
  0
LINE
  5
513
100
AcDbEntity
  8
RACCORDO
100
AcDbLine
 62
253
  6
CONTINUOUS
 10
96.4708325986
 20
121.2662962186
 11
96.0388430843
 21
121.255257685
  0
LINE
  5
514
100
AcDbEntity
  8
RACCORDO
100
AcDbLine
 62
253
  6
CONTINUOUS
 10
97.3718049483
 20
121.0813620217
 11
96.6305571469
 21
121.0663327041
  0
LINE
  5
515
100
AcDbEntity
  8
RACCORDO
100
AcDbLine
 62
253
  6
CONTINUOUS
 10
97.2318163458
 20
121.2813271706
 11
96.4708325986
 21
121.2662962186
  0
LINE
  5
516
100
AcDbEntity
  8
RACCORDO
100
AcDbLine
 62
253
  6
CONTINUOUS
 10
98.2300045778
 20
121.09425238
 11
97.3718049483
 21
121.0813620217
  0
LINE
  5
517
100
AcDbEntity
  8
RACCORDO
100
AcDbLine
 62
253
  6
CONTINUOUS
 10
98.4305075567
 20
121.2979954105
 11
97.2318163458
 21
121.2813271706
  0
LINE
  5
518
100
AcDbEntity
  8
RACCORDO
100
AcDbLine
 62
253
  6
CONTINUOUS
 10
99.5229718524
 20
121.1076220083
 11
98.2300045778
 21
121.09425238
  0
LINE
  5
519
100
AcDbEntity
  8
RACCORDO
100
AcDbLine
 62
253
  6
CONTINUOUS
 10
100.1545968017
 20
121.3124748053
 11
98.4305075567
 21
121.2979954105
  0
LINE
  5
51A
100
AcDbEntity
  8
RACCORDO
100
AcDbLine
 62
253
  6
CONTINUOUS
 10
101.3040980801
 20
121.1174547278
 11
99.5229718524
 21
121.1076220083
  0
LINE
  5
51B
100
AcDbEntity
  8
RACCORDO
100
AcDbLine
 62
253
  6
CONTINUOUS
 10
102.0303197982
 20
121.3190890205
 11
100.1545968017
 21
121.3124748053
  0
LINE
  5
51C
100
AcDbEntity
  8
RACCORDO
100
AcDbLine
 62
253
  6
CONTINUOUS
 10
95.9050910117
 20
119.8749712148
 11
101.0156027883
 21
119.8749712148
  0
LINE
  5
51D
100
AcDbEntity
  8
RACCORDO
100
AcDbLine
 62
253
  6
CONTINUOUS
 10
104.194579235
 20
119.8749712148
 11
109.3050910117
 21
119.8749712148
  0
LINE
  5
51E
100
AcDbEntity
  8
RACCORDO
100
AcDbLine
 62
7
  6
CONTINUOUS
 10
112.6050910117
 20
119.8878267874
 11
111.8050910117
 21
119.8878267874
  0
LINE
  5
51F
100
AcDbEntity
  8
RACCORDO
100
AcDbLine
 62
7
  6
CONTINUOUS
 10
93.4050910117
 20
119.8878267874
 11
92.6050910117
 21
119.8878267874
  0
LINE
  5
520
100
AcDbEntity
  8
RACCORDO
100
AcDbLine
 62
253
  6
CONTINUOUS
 10
101.679574559
 20
120.0416847406
 11
103.5306074644
 21
120.0416847406
  0
LINE
  5
521
100
AcDbEntity
  8
RACCORDO
100
AcDbLine
 62
253
  6
CONTINUOUS
 10
95.9050910117
 20
120.0749407538
 11
101.1690681859
 21
120.0749407538
  0
LINE
  5
522
100
AcDbEntity
  8
RACCORDO
100
AcDbLine
 62
253
  6
CONTINUOUS
 10
104.0411138374
 20
120.0749407538
 11
109.3050910117
 21
120.0749407538
  0
LINE
  5
523
100
AcDbEntity
  8
RACCORDO
100
AcDbLine
 62
253
  6
CONTINUOUS
 10
93.4050910117
 20
120.5419132211
 11
95.1050910117
 21
120.5419132211
  0
LINE
  5
524
100
AcDbEntity
  8
RACCORDO
100
AcDbLine
 62
253
  6
CONTINUOUS
 10
110.1050910117
 20
120.5419132211
 11
111.8050910117
 21
120.5419132211
  0
LINE
  5
525
100
AcDbEntity
  8
RACCORDO
100
AcDbLine
 62
253
  6
CONTINUOUS
 10
93.4050910117
 20
121.0418370686
 11
94.9050910117
 21
121.0418370686
  0
LINE
  5
526
100
AcDbEntity
  8
RACCORDO
100
AcDbLine
 62
253
  6
CONTINUOUS
 10
110.3050910117
 20
121.0418370686
 11
111.8050910117
 21
121.0418370686
  0
LINE
  5
527
100
AcDbEntity
  8
RACCORDO
100
AcDbLine
 62
253
  6
CONTINUOUS
 10
103.1649747284
 20
121.1191194255
 11
101.3040980801
 21
121.1174547278
  0
LINE
  5
528
100
AcDbEntity
  8
RACCORDO
100
AcDbLine
 62
253
  6
CONTINUOUS
 10
103.9412478375
 20
121.3174237464
 11
102.0303197982
 21
121.3190890205
  0
LINE
  5
529
100
AcDbEntity
  8
RACCORDO
100
AcDbLine
 62
253
  6
CONTINUOUS
 10
104.9915812089
 20
121.112505759
 11
103.1649747284
 21
121.1191194255
  0
LINE
  5
52A
100
AcDbEntity
  8
RACCORDO
100
AcDbLine
 62
253
  6
CONTINUOUS
 10
105.7693477639
 20
121.3075894227
 11
103.9412478375
 21
121.3174237464
  0
LINE
  5
52B
100
AcDbEntity
  8
RACCORDO
100
AcDbLine
 62
253
  6
CONTINUOUS
 10
106.352397218
 20
121.1015155862
 11
104.9915812089
 21
121.112505759
  0
LINE
  5
52C
100
AcDbEntity
  8
RACCORDO
100
AcDbLine
 62
253
  6
CONTINUOUS
 10
107.0973821204
 20
121.2942178743
 11
105.7693477639
 21
121.3075894227
  0
LINE
  5
52D
100
AcDbEntity
  8
RACCORDO
100
AcDbLine
 62
253
  6
CONTINUOUS
 10
107.5644577344
 20
121.0859186377
 11
106.352397218
 21
121.1015155862
  0
LINE
  5
52E
100
AcDbEntity
  8
RACCORDO
100
AcDbLine
 62
253
  6
CONTINUOUS
 10
107.9784462586
 20
121.281325798
 11
107.0973821204
 21
121.2942178743
  0
LINE
  5
52F
100
AcDbEntity
  8
RACCORDO
100
AcDbLine
 62
253
  6
CONTINUOUS
 10
108.3466361783
 20
121.0715680609
 11
107.5644577344
 21
121.0859186377
  0
LINE
  5
530
100
AcDbEntity
  8
RACCORDO
100
AcDbLine
 62
253
  6
CONTINUOUS
 10
108.7394178855
 20
121.2662946394
 11
107.9784462586
 21
121.281325798
  0
LINE
  5
531
100
AcDbEntity
  8
RACCORDO
100
AcDbLine
 62
253
  6
CONTINUOUS
 10
108.79788915
 20
121.0609077553
 11
108.3466361783
 21
121.0715680609
  0
LINE
  5
532
100
AcDbEntity
  8
RACCORDO
100
AcDbLine
 62
253
  6
CONTINUOUS
 10
109.1713971581
 20
121.2552560242
 11
108.7394178855
 21
121.2662946394
  0
LINE
  5
533
100
AcDbEntity
  8
RACCORDO
100
AcDbLine
 62
253
  6
CONTINUOUS
 10
101.4863893938
 20
119.8417152016
 11
101.0156027883
 21
119.8723837425
  0
LINE
  5
534
100
AcDbEntity
  8
RACCORDO
100
AcDbLine
 62
253
  6
CONTINUOUS
 10
101.679574559
 20
120.0416847406
 11
101.1690681859
 21
120.0749407538
  0
LINE
  5
535
100
AcDbEntity
  8
RACCORDO
100
AcDbLine
 62
7
  6
CONTINUOUS
 10
103.9637197734
 20
120.3137156715
 11
104.1448307571
 21
120.3019175245
  0
LINE
  5
536
100
AcDbEntity
  8
RACCORDO
100
AcDbLine
 62
7
  6
CONTINUOUS
 10
104.0116600175
 20
121.4015739164
 11
104.1993809358
 21
121.3893451772
  0
LWPOLYLINE
  5
537
100
AcDbEntity
  8
RACCORDO
100
AcDbPolyline
 62
253
  6
CONTINUOUS
 90
11
 70
0
 10
110.3050910117
 20
121.1850599909
 10
110.2951634105
 20
121.1918209378
 10
110.266243246
 20
121.1985274894
 10
110.2183305181
 20
121.2051796455
 10
110.1511665684
 20
121.2117939183
 10
110.0650100554
 20
121.2183537957
 10
109.9606369542
 20
121.2248097419
 10
109.8379385116
 20
121.2311598361
 10
109.6970234809
 20
121.237405999
 10
109.5389940971
 20
121.2435044577
 10
109.1713971581
 20
121.2552560242
  0
LWPOLYLINE
  5
538
100
AcDbEntity
  8
RACCORDO
100
AcDbPolyline
 62
253
  6
CONTINUOUS
 90
12
 70
0
 10
110.1050910117
 20
120.9850904905
 10
110.0956621617
 20
120.9918555061
 10
110.0674162519
 20
120.9985673009
 10
110.0204752979
 20
121.0052227705
 10
109.9550107534
 20
121.0118377884
 10
109.8712352875
 20
121.0183964813
 10
109.7693946429
 20
121.024851229
 10
109.6497940834
 20
121.0312007458
 10
109.5127671148
 20
121.0374463174
 10
109.358643145
 20
121.0435441805
 10
109.1878324333
 20
121.0494932161
 10
108.79788915
 20
121.0609077553
  0
LWPOLYLINE
  5
539
100
AcDbEntity
  8
RACCORDO
100
AcDbPolyline
 62
253
  6
CONTINUOUS
 90
16
 70
0
 10
92.86099464
 20
122.4813314951
 10
92.7900521667
 20
122.4771570183
 10
92.7269073678
 20
122.473053598
 10
92.6705622964
 20
122.4690529779
 10
92.6211546983
 20
122.4651667167
 10
92.5785468277
 20
122.4613832557
 10
92.5413275011
 20
122.4576996625
 10
92.5094138448
 20
122.4541178109
 10
92.4828887325
 20
122.450635827
 10
92.4605896006
 20
122.4472451565
 10
92.4424298266
 20
122.4439467976
 10
92.4284960331
 20
122.4407397521
 10
92.4178855243
 20
122.4376124699
 10
92.410297402
 20
122.434561101
 10
92.4060325644
 20
122.4315894955
 10
92.4050910117
 20
122.4286976532
  0
LWPOLYLINE
  5
53A
100
AcDbEntity
  8
RACCORDO
100
AcDbPolyline
 62
253
  6
CONTINUOUS
 90
17
 70
0
 10
93.1295910446
 20
122.285629073
 10
93.0520924919
 20
122.281364104
 10
92.9826292423
 20
122.2771895619
 10
92.9204404725
 20
122.2730860591
 10
92.8653819603
 20
122.2690853617
 10
92.8171244667
 20
122.2651990356
 10
92.7750736063
 20
122.2614155148
 10
92.7386722724
 20
122.2577318671
 10
92.7075446556
 20
122.2541499672
 10
92.6813094082
 20
122.2506679404
 10
92.6595107538
 20
122.2472772299
 10
92.6418413072
 20
122.243978893
 10
92.6279974617
 20
122.2407718723
 10
92.6176389127
 20
122.2376444394
 10
92.6105147178
 20
122.2345926846
 10
92.6064090621
 20
122.2316205174
 10
92.6050910117
 20
122.2287281071
  0
LINE
  5
53B
100
AcDbEntity
  8
RACCORDO
100
AcDbLine
 62
253
  6
CONTINUOUS
 10
93.0275270978
 20
122.4899323999
 11
92.86099464
 21
122.4813314951
  0
LINE
  5
53C
100
AcDbEntity
  8
RACCORDO
100
AcDbLine
 62
253
  6
CONTINUOUS
 10
93.3076059528
 20
122.2942822009
 11
93.1295910446
 21
122.285629073
  0
LWPOLYLINE
  5
53D
100
AcDbEntity
  8
RACCORDO
100
AcDbPolyline
 62
253
  6
CONTINUOUS
 90
19
 70
0
 10
89.2510045781
 20
122.2418370686
 10
89.207441769
 20
122.239922176
 10
89.1642103707
 20
122.2342186034
 10
89.1216392728
 20
122.2247697414
 10
89.0800523415
 20
122.2116474739
 10
89.0397659557
 20
122.1949516305
 10
89.0010866004
 20
122.1748092274
 10
88.9643085347
 20
122.1513735011
 10
88.9297115534
 20
122.1248227424
 10
88.8975588585
 20
122.0953589403
 10
88.8680950566
 20
122.0632062455
 10
88.841544298
 20
122.0286092643
 10
88.8181085717
 20
121.9918311987
 10
88.7979661686
 20
121.9531518433
 10
88.7812703251
 20
121.9128654574
 10
88.7681480576
 20
121.871278526
 10
88.7586991957
 20
121.8287074282
 10
88.7529956231
 20
121.78547603
 10
88.7510807305
 20
121.7419132211
  0
LINE
  5
53E
100
AcDbEntity
  8
RACCORDO
100
AcDbLine
 62
253
  6
CONTINUOUS
 10
93.2227829983
 20
122.498536794
 11
93.0275270978
 21
122.4899323999
  0
LINE
  5
53F
100
AcDbEntity
  8
RACCORDO
100
AcDbLine
 62
253
  6
CONTINUOUS
 10
93.5125932831
 20
122.3028377807
 11
93.3076059528
 21
122.2942822009
  0
LINE
  5
540
100
AcDbEntity
  8
RACCORDO
100
AcDbLine
 62
253
  6
CONTINUOUS
 10
93.4444424667
 20
122.5069978054
 11
93.2227829983
 21
122.498536794
  0
LINE
  5
541
100
AcDbEntity
  8
RACCORDO
100
AcDbLine
 62
253
  6
CONTINUOUS
 10
93.7405845618
 20
122.3111291857
 11
93.5125932831
 21
122.3028377807
  0
LINE
  5
542
100
AcDbEntity
  8
RACCORDO
100
AcDbLine
 62
253
  6
CONTINUOUS
 10
93.816579078
 20
122.51906375
 11
93.4444424667
 21
122.5069978054
  0
LINE
  5
543
100
AcDbEntity
  8
RACCORDO
100
AcDbLine
 62
253
  6
CONTINUOUS
 10
94.1200888842
 20
122.3229474539
 11
93.7405845618
 21
122.3111291857
  0
LINE
  5
544
100
AcDbEntity
  8
RACCORDO
100
AcDbLine
 62
253
  6
CONTINUOUS
 10
94.2336310235
 20
122.5304153962
 11
93.816579078
 21
122.51906375
  0
LINE
  5
545
100
AcDbEntity
  8
RACCORDO
100
AcDbLine
 62
253
  6
CONTINUOUS
 10
94.6990457585
 20
122.337753633
 11
94.1200888842
 21
122.3229474539
  0
LINE
  5
546
100
AcDbEntity
  8
RACCORDO
100
AcDbLine
 62
253
  6
CONTINUOUS
 10
94.8836885397
 20
122.5450350956
 11
94.2336310235
 21
122.5304153962
  0
LINE
  5
547
100
AcDbEntity
  8
RACCORDO
100
AcDbLine
 62
253
  6
CONTINUOUS
 10
95.415673238
 20
122.3524795835
 11
94.6990457585
 21
122.337753633
  0
LINE
  5
548
100
AcDbEntity
  8
RACCORDO
100
AcDbLine
 62
253
  6
CONTINUOUS
 10
95.7205990918
 20
122.5600873916
 11
94.8836885397
 21
122.5450350956
  0
LINE
  5
549
100
AcDbEntity
  8
RACCORDO
100
AcDbLine
 62
253
  6
CONTINUOUS
 10
96.6586451258
 20
122.3718833524
 11
95.415673238
 21
122.3524795835
  0
LINE
  5
54A
100
AcDbEntity
  8
RACCORDO
100
AcDbLine
 62
253
  6
CONTINUOUS
 10
97.190398205
 20
122.5795666338
 11
95.7205990918
 21
122.5600873916
  0
LINE
  5
54B
100
AcDbEntity
  8
RACCORDO
100
AcDbLine
 62
253
  6
CONTINUOUS
 10
98.407012309
 20
122.3903049436
 11
96.6586451258
 21
122.3718833524
  0
LINE
  5
54C
100
AcDbEntity
  8
RACCORDO
100
AcDbLine
 62
253
  6
CONTINUOUS
 10
99.173389938
 20
122.5963602738
 11
97.190398205
 21
122.5795666338
  0
LINE
  5
54D
100
AcDbEntity
  8
RACCORDO
100
AcDbLine
 62
253
  6
CONTINUOUS
 10
100.1310108905
 20
122.4012261286
 11
98.407012309
 21
122.3903049436
  0
LINE
  5
54E
100
AcDbEntity
  8
RACCORDO
100
AcDbLine
 62
253
  6
CONTINUOUS
 10
101.490384533
 20
122.605668454
 11
99.173389938
 21
122.5963602738
  0
LINE
  5
54F
100
AcDbEntity
  8
RACCORDO
100
AcDbLine
 62
253
  6
CONTINUOUS
 10
102.4398404381
 20
122.4067491964
 11
100.1310108905
 21
122.4012261286
  0
LINE
  5
550
100
AcDbEntity
  8
RACCORDO
100
AcDbLine
 62
253
  6
CONTINUOUS
 10
92.6050910117
 20
121.7419132211
 11
88.7510807305
 21
121.7419132211
  0
LINE
  5
551
100
AcDbEntity
  8
RACCORDO
100
AcDbLine
 62
253
  6
CONTINUOUS
 10
112.6050910117
 20
121.7419132211
 11
116.4591012929
 21
121.7419132215
  0
LINE
  5
552
100
AcDbEntity
  8
RACCORDO
100
AcDbLine
 62
253
  6
CONTINUOUS
 10
115.9591774453
 20
122.2418370686
 11
112.8050910117
 21
122.2418370686
  0
LINE
  5
553
100
AcDbEntity
  8
RACCORDO
100
AcDbLine
 62
253
  6
CONTINUOUS
 10
92.4050910117
 20
122.2418370686
 11
89.2510045781
 21
122.2418370686
  0
LINE
  5
554
100
AcDbEntity
  8
RACCORDO
100
AcDbLine
 62
7
  6
CONTINUOUS
 10
116.6051671641
 20
122.8878267874
 11
115.6550910117
 21
122.8878267874
  0
LINE
  5
555
100
AcDbEntity
  8
RACCORDO
100
AcDbLine
 62
7
  6
CONTINUOUS
 10
89.5550910117
 20
122.8878267874
 11
88.6050148593
 21
122.8878267874
  0
LINE
  5
556
100
AcDbEntity
  8
DRAFT
100
AcDbLine
 62
7
  6
CONTINUOUS
 10
89.5550910117
 20
122.8878267874
 11
115.6550910117
 21
122.8878267874
  0
LINE
  5
557
100
AcDbEntity
  8
RACCORDO
100
AcDbLine
 62
253
  6
CONTINUOUS
 10
103.8539756469
 20
122.6053940431
 11
101.490384533
 21
122.605668454
  0
LINE
  5
558
100
AcDbEntity
  8
RACCORDO
100
AcDbLine
 62
253
  6
CONTINUOUS
 10
104.7525173633
 20
122.402616184
 11
102.4398404381
 21
122.4067491964
  0
LINE
  5
559
100
AcDbEntity
  8
RACCORDO
100
AcDbLine
 62
253
  6
CONTINUOUS
 10
106.1613911649
 20
122.5955672773
 11
103.8539756469
 21
122.6053940431
  0
LINE
  5
55A
100
AcDbEntity
  8
RACCORDO
100
AcDbLine
 62
253
  6
CONTINUOUS
 10
106.9154849352
 20
122.3893654883
 11
104.7525173633
 21
122.402616184
  0
LINE
  5
55B
100
AcDbEntity
  8
RACCORDO
100
AcDbLine
 62
253
  6
CONTINUOUS
 10
108.1165200968
 20
122.578495829
 11
106.1613911649
 21
122.5955672773
  0
LINE
  5
55C
100
AcDbEntity
  8
RACCORDO
100
AcDbLine
 62
253
  6
CONTINUOUS
 10
108.6342512196
 20
122.3707825759
 11
106.9154849352
 21
122.3893654883
  0
LINE
  5
55D
100
AcDbEntity
  8
RACCORDO
100
AcDbLine
 62
253
  6
CONTINUOUS
 10
109.5563163796
 20
122.5590125123
 11
108.1165200968
 21
122.578495829
  0
LINE
  5
55E
100
AcDbEntity
  8
RACCORDO
100
AcDbLine
 62
253
  6
CONTINUOUS
 10
109.8503449292
 20
122.351442992
 11
108.6342512196
 21
122.3707825759
  0
LINE
  5
55F
100
AcDbEntity
  8
RACCORDO
100
AcDbLine
 62
253
  6
CONTINUOUS
 10
110.5493838684
 20
122.5403667082
 11
109.5563163796
 21
122.5590125123
  0
LINE
  5
560
100
AcDbEntity
  8
RACCORDO
100
AcDbLine
 62
253
  6
CONTINUOUS
 10
110.5542222213
 20
122.3367555877
 11
109.8503449292
 21
122.351442992
  0
LINE
  5
561
100
AcDbEntity
  8
RACCORDO
100
AcDbLine
 62
253
  6
CONTINUOUS
 10
111.1596649795
 20
122.5256666774
 11
110.5493838684
 21
122.5403667082
  0
LINE
  5
562
100
AcDbEntity
  8
RACCORDO
100
AcDbLine
 62
253
  6
CONTINUOUS
 10
111.1262467042
 20
122.3219073194
 11
110.5542222213
 21
122.3367555877
  0
LINE
  5
563
100
AcDbEntity
  8
RACCORDO
100
AcDbLine
 62
253
  6
CONTINUOUS
 10
111.5569170139
 20
122.5140383325
 11
111.1596649795
 21
122.5256666774
  0
LINE
  5
564
100
AcDbEntity
  8
RACCORDO
100
AcDbLine
 62
253
  6
CONTINUOUS
 10
111.5017174063
 20
122.3100244561
 11
111.1262467042
 21
122.3219073194
  0
LINE
  5
565
100
AcDbEntity
  8
RACCORDO
100
AcDbLine
 62
253
  6
CONTINUOUS
 10
111.7970971665
 20
122.5058700092
 11
111.5569170139
 21
122.5140383325
  0
LINE
  5
566
100
AcDbEntity
  8
RACCORDO
100
AcDbLine
 62
253
  6
CONTINUOUS
 10
111.7270267377
 20
122.3016818502
 11
111.5017174063
 21
122.3100244561
  0
LINE
  5
567
100
AcDbEntity
  8
RACCORDO
100
AcDbLine
 62
253
  6
CONTINUOUS
 10
112.0159815543
 20
122.4973527932
 11
111.7970971665
 21
122.5058700092
  0
LINE
  5
568
100
AcDbEntity
  8
RACCORDO
100
AcDbLine
 62
253
  6
CONTINUOUS
 10
111.9289938839
 20
122.293081826
 11
111.7270267377
 21
122.3016818502
  0
LINE
  5
569
100
AcDbEntity
  8
RACCORDO
100
AcDbLine
 62
253
  6
CONTINUOUS
 10
112.2076077011
 20
122.4887301457
 11
112.0159815543
 21
122.4973527932
  0
LINE
  5
56A
100
AcDbEntity
  8
0
100
AcDbLine
 62
7
  6
CONTINUOUS
 10
115.3838761548
 20
123.8878267874
 11
111.4263058686
 21
123.8878267874
  0
LINE
  5
56B
100
AcDbEntity
  8
0
100
AcDbLine
 62
7
  6
CONTINUOUS
 10
93.7838761548
 20
123.8878267874
 11
89.8263058686
 21
123.8878267874
  0
CIRCLE
  5
56C
100
AcDbEntity
  8
RACCORDO
100
AcDbCircle
 62
253
  6
CONTINUOUS
 10
102.6050910117
 20
96.8878267874
 40
10.2174855305
  0
ARC
  5
56D
100
AcDbEntity
  8
RACCORDO
100
AcDbCircle
 62
253
  6
CONTINUOUS
 10
102.6050910117
 20
96.8878267874
 40
10.0175159915
100
AcDbArc
 50
185.7391704776
 51
264.2608295223
  0
ARC
  5
56E
100
AcDbEntity
  8
RACCORDO
100
AcDbCircle
 62
7
  6
CONTINUOUS
 10
102.6050910117
 20
96.8878267874
 40
10.0174855305
100
AcDbArc
 50
264.2608295223
 51
185.7391704776
  0
ARC
  5
56F
100
AcDbEntity
  8
DRAFT
100
AcDbCircle
 62
7
  6
CONTINUOUS
 10
102.6050910117
 20
96.8878267874
 40
10.0
100
AcDbArc
 50
275.7391704773
 51
354.2608295227
  0
ARC
  5
570
100
AcDbEntity
  8
DRAFT
100
AcDbCircle
 62
7
  6
CONTINUOUS
 10
102.6050910117
 20
96.8878267874
 40
10.0
100
AcDbArc
 50
185.7391704773
 51
264.2608295227
  0
ARC
  5
571
100
AcDbEntity
  8
DRAFT
100
AcDbCircle
 62
7
  6
CONTINUOUS
 10
102.6050910117
 20
96.8878267874
 40
10.0
100
AcDbArc
 50
95.7391704773
 51
174.2608295227
  0
ARC
  5
572
100
AcDbEntity
  8
DRAFT
100
AcDbCircle
 62
7
  6
CONTINUOUS
 10
102.6050910117
 20
96.8878267874
 40
10.0
100
AcDbArc
 50
5.7391704773
 51
84.2608295227
  0
ARC
  5
573
100
AcDbEntity
  8
DRAFT
100
AcDbCircle
 62
7
  6
CONTINUOUS
 10
102.6050910117
 20
96.8878267874
 40
9.2
100
AcDbArc
 50
276.2401310983
 51
353.7598689017
  0
ARC
  5
574
100
AcDbEntity
  8
DRAFT
100
AcDbCircle
 62
7
  6
CONTINUOUS
 10
102.6050910117
 20
96.8878267874
 40
9.2
100
AcDbArc
 50
186.2401310983
 51
263.7598689017
  0
ARC
  5
575
100
AcDbEntity
  8
DRAFT
100
AcDbCircle
 62
7
  6
CONTINUOUS
 10
102.6050910117
 20
96.8878267874
 40
9.2
100
AcDbArc
 50
96.2401310983
 51
173.7598689017
  0
ARC
  5
576
100
AcDbEntity
  8
DRAFT
100
AcDbCircle
 62
7
  6
CONTINUOUS
 10
102.6050910117
 20
96.8878267874
 40
9.2
100
AcDbArc
 50
6.2401310983
 51
83.7598689017
  0
ARC
  5
577
100
AcDbEntity
  8
DRAFT
100
AcDbCircle
 62
7
  6
CONTINUOUS
 10
102.6050910117
 20
96.8878267874
 40
9.1825449351
100
AcDbArc
 50
276.142486634
 51
353.857513366
  0
ARC
  5
578
100
AcDbEntity
  8
DRAFT
100
AcDbCircle
 62
7
  6
CONTINUOUS
 10
102.6050910117
 20
96.8878267874
 40
9.1825449351
100
AcDbArc
 50
186.142486634
 51
263.857513366
  0
ARC
  5
579
100
AcDbEntity
  8
DRAFT
100
AcDbCircle
 62
7
  6
CONTINUOUS
 10
102.6050910117
 20
96.8878267874
 40
9.1825449351
100
AcDbArc
 50
96.142486634
 51
173.857513366
  0
ARC
  5
57A
100
AcDbEntity
  8
DRAFT
100
AcDbCircle
 62
7
  6
CONTINUOUS
 10
102.6050910117
 20
96.8878267874
 40
9.1825449351
100
AcDbArc
 50
6.142486634
 51
83.857513366
  0
CIRCLE
  5
57B
100
AcDbEntity
  8
RACCORDO
100
AcDbCircle
 62
253
  6
CONTINUOUS
 10
102.6050910117
 20
96.8878267874
 40
7.7139945176
  0
ARC
  5
57C
100
AcDbEntity
  8
RACCORDO
100
AcDbCircle
 62
253
  6
CONTINUOUS
 10
102.6050910117
 20
96.8878267874
 40
7.5140249785
100
AcDbArc
 50
275.7391704781
 51
354.2608295218
  0
ARC
  5
57D
100
AcDbEntity
  8
RACCORDO
100
AcDbCircle
 62
7
  6
CONTINUOUS
 10
102.6050910117
 20
96.8878267874
 40
7.5139945176
100
AcDbArc
 50
354.2608295218
 51
275.7391704781
  0
ARC
  5
57E
100
AcDbEntity
  8
DRAFT
100
AcDbCircle
 62
7
  6
CONTINUOUS
 10
102.6050910117
 20
96.8878267874
 40
7.5
100
AcDbArc
 50
185.7391704773
 51
264.2608295227
  0
ARC
  5
57F
100
AcDbEntity
  8
DRAFT
100
AcDbCircle
 62
7
  6
CONTINUOUS
 10
102.6050910117
 20
96.8878267874
 40
7.5
100
AcDbArc
 50
275.7391704773
 51
354.2608295227
  0
ARC
  5
580
100
AcDbEntity
  8
DRAFT
100
AcDbCircle
 62
7
  6
CONTINUOUS
 10
102.6050910117
 20
96.8878267874
 40
7.5
100
AcDbArc
 50
95.7391704773
 51
174.2608295227
  0
ARC
  5
581
100
AcDbEntity
  8
DRAFT
100
AcDbCircle
 62
7
  6
CONTINUOUS
 10
102.6050910117
 20
96.8878267874
 40
7.5
100
AcDbArc
 50
5.7391704773
 51
84.2608295227
  0
ARC
  5
582
100
AcDbEntity
  8
DRAFT
100
AcDbCircle
 62
7
  6
CONTINUOUS
 10
102.6050910117
 20
96.8878267874
 40
6.7
100
AcDbArc
 50
186.4271773909
 51
263.5728226091
  0
ARC
  5
583
100
AcDbEntity
  8
DRAFT
100
AcDbCircle
 62
7
  6
CONTINUOUS
 10
102.6050910117
 20
96.8878267874
 40
6.7
100
AcDbArc
 50
276.4271773909
 51
353.5728226091
  0
ARC
  5
584
100
AcDbEntity
  8
DRAFT
100
AcDbCircle
 62
7
  6
CONTINUOUS
 10
102.6050910117
 20
96.8878267874
 40
6.7
100
AcDbArc
 50
96.4271773909
 51
173.5728226091
  0
ARC
  5
585
100
AcDbEntity
  8
DRAFT
100
AcDbCircle
 62
7
  6
CONTINUOUS
 10
102.6050910117
 20
96.8878267874
 40
6.7
100
AcDbArc
 50
6.4271773909
 51
83.5728226091
  0
ARC
  5
586
100
AcDbEntity
  8
DRAFT
100
AcDbCircle
 62
7
  6
CONTINUOUS
 10
102.6050910117
 20
96.8878267874
 40
6.6860359481
100
AcDbArc
 50
6.3202472029
 51
83.6797527971
  0
ARC
  5
587
100
AcDbEntity
  8
DRAFT
100
AcDbCircle
 62
7
  6
CONTINUOUS
 10
102.6050910117
 20
96.8878267874
 40
6.6860359481
100
AcDbArc
 50
96.3202472029
 51
173.6797527971
  0
ARC
  5
588
100
AcDbEntity
  8
DRAFT
100
AcDbCircle
 62
7
  6
CONTINUOUS
 10
102.6050910117
 20
96.8878267874
 40
6.6860359481
100
AcDbArc
 50
186.3202472029
 51
263.6797527971
  0
ARC
  5
589
100
AcDbEntity
  8
DRAFT
100
AcDbCircle
 62
7
  6
CONTINUOUS
 10
102.6050910117
 20
96.8878267874
 40
6.6860359481
100
AcDbArc
 50
276.3202472029
 51
353.6797527971
  0
ELLIPSE
  5
58A
100
AcDbEntity
  8
RACCORDO
100
AcDbEllipse
 62
7
  6
CONTINUOUS
 10
116.6050148477
 20
71.3879029515
 30
0.0
 11
0.3536610946
 21
-0.3536610946
 31
0.0
 40
0.9996954599
 41
-0.7852458701
 42
0.7852458701
  0
ELLIPSE
  5
58B
100
AcDbEntity
  8
RACCORDO
100
AcDbEllipse
 62
7
  6
CONTINUOUS
 10
116.6050148477
 20
122.3877506234
 30
0.0
 11
0.3536610946
 21
0.3536610946
 31
0.0
 40
0.9996954599
 41
-0.7852458701
 42
0.7852458702
  0
ELLIPSE
  5
58C
100
AcDbEntity
  8
RACCORDO
100
AcDbEllipse
 62
7
  6
CONTINUOUS
 10
88.6051671757
 20
122.3877506234
 30
0.0
 11
0.3536610946
 21
-0.3536610946
 31
0.0
 40
0.9996954599
 41
2.3563467834
 42
3.9268385237
  0
ELLIPSE
  5
58D
100
AcDbEntity
  8
RACCORDO
100
AcDbEllipse
 62
7
  6
CONTINUOUS
 10
88.6051671757
 20
71.3879029515
 30
0.0
 11
0.3536610946
 21
0.3536610946
 31
0.0
 40
0.9996954599
 41
-3.9268385238
 42
-2.3563467835
  0
ELLIPSE
  5
58E
100
AcDbEntity
  8
RACCORDO
100
AcDbEllipse
 62
7
  6
CONTINUOUS
 10
102.6050910117
 20
72.5444653877
 30
0.0
 11
9.2
 21
-0.0
 31
0.0
 40
0.0174550649
 41
-3.1415926536
 42
-1.7449679802
  0
ELLIPSE
  5
58F
100
AcDbEntity
  8
RACCORDO
100
AcDbEllipse
 62
7
  6
CONTINUOUS
 10
102.6050910117
 20
120.1880987202
 30
0.0
 11
6.7
 21
0.0
 31
0.0
 40
0.0174550649
 41
0.0
 42
1.3389119189
  0
ELLIPSE
  5
590
100
AcDbEntity
  8
RACCORDO
100
AcDbEllipse
 62
7
  6
CONTINUOUS
 10
102.6050910117
 20
73.5875548546
 30
0.0
 11
6.7
 21
0.0
 31
0.0
 40
0.0174550649
 41
-3.1415926536
 42
-1.8026807347
  0
ELLIPSE
  5
591
100
AcDbEntity
  8
RACCORDO
100
AcDbEllipse
 62
7
  6
CONTINUOUS
 10
102.6050910117
 20
73.5875548546
 30
0.0
 11
6.7
 21
0.0
 31
0.0
 40
0.0174550649
 41
-1.3389119189
 42
-0.0000000001
  0
ELLIPSE
  5
592
100
AcDbEntity
  8
RACCORDO
100
AcDbEllipse
 62
7
  6
CONTINUOUS
 10
109.1050910117
 20
74.3042343043
 30
0.0
 11
-0.0
 21
0.2000304656
 31
0.0
 40
0.9998476952
 41
-1.5707963268
 42
-0.0
  0
ELLIPSE
  5
593
100
AcDbEntity
  8
RACCORDO
100
AcDbEllipse
 62
7
  6
CONTINUOUS
 10
96.1050910117
 20
74.3042343043
 30
0.0
 11
-0.0
 21
0.2000304656
 31
0.0
 40
0.9998476952
 41
0.0
 42
1.5707963268
  0
ELLIPSE
  5
594
100
AcDbEntity
  8
RACCORDO
100
AcDbEllipse
 62
7
  6
CONTINUOUS
 10
109.1050910117
 20
119.4714192706
 30
0.0
 11
0.0
 21
-0.2000304656
 31
0.0
 40
0.9998476952
 41
-0.0
 42
1.5707963268
  0
ELLIPSE
  5
595
100
AcDbEntity
  8
RACCORDO
100
AcDbEllipse
 62
7
  6
CONTINUOUS
 10
96.1050910117
 20
119.4714192706
 30
0.0
 11
0.0
 21
-0.2000304656
 31
0.0
 40
0.9998476952
 41
-1.5707963268
 42
0.0
  0
ELLIPSE
  5
596
100
AcDbEntity
  8
RACCORDO
100
AcDbEllipse
 62
7
  6
CONTINUOUS
 10
102.6050910117
 20
120.1880987202
 30
0.0
 11
6.7
 21
0.0
 31
0.0
 40
0.0174550649
 41
1.8026807347
 42
3.1415926536
  0
ELLIPSE
  5
597
100
AcDbEntity
  8
RACCORDO
100
AcDbEllipse
 62
7
  6
CONTINUOUS
 10
102.6050910117
 20
72.5444653877
 30
0.0
 11
9.2
 21
-0.0
 31
0.0
 40
0.0174550649
 41
-1.3966246734
 42
-0.0
  0
ELLIPSE
  5
598
100
AcDbEntity
  8
RACCORDO
100
AcDbEllipse
 62
7
  6
CONTINUOUS
 10
102.6050910117
 20
121.2311881871
 30
0.0
 11
9.2
 21
0.0
 31
0.0
 40
0.0174550649
 41
0.0
 42
1.3966246734
  0
ELLIPSE
  5
599
100
AcDbEntity
  8
RACCORDO
100
AcDbEllipse
 62
7
  6
CONTINUOUS
 10
102.6050910117
 20
121.2311881871
 30
0.0
 11
9.2
 21
0.0
 31
0.0
 40
0.0174550649
 41
1.7449679802
 42
3.1415926536
  0
ELLIPSE
  5
59A
100
AcDbEntity
  8
RACCORDO
100
AcDbEllipse
 62
7
  6
CONTINUOUS
 10
101.4711164155
 20
75.0378267874
 30
0.0
 11
-0.0
 21
0.5
 31
0.0
 40
0.2679491924
 41
-3.1415926536
 42
-2.3612434667
  0
ELLIPSE
  5
59B
100
AcDbEntity
  8
RACCORDO
100
AcDbEllipse
 62
7
  6
CONTINUOUS
 10
103.7390656079
 20
75.0378267874
 30
0.0
 11
-0.0
 21
0.5
 31
0.0
 40
0.2679491924
 41
-3.9219418405
 42
-3.1415926536
  0
ELLIPSE
  5
59C
100
AcDbEntity
  8
RACCORDO
100
AcDbEllipse
 62
7
  6
CONTINUOUS
 10
102.6050910117
 20
73.5906849854
 30
0.0
 11
7.5
 21
0.0
 31
0.0
 40
0.0174550649
 41
3.1415926536
 42
6.2831853072
  0
ELLIPSE
  5
59D
100
AcDbEntity
  8
RACCORDO
100
AcDbEllipse
 62
7
  6
CONTINUOUS
 10
102.6050910117
 20
120.1849685895
 30
0.0
 11
7.5
 21
-0.0
 31
0.0
 40
0.0174550649
 41
6.2831853072
 42
9.4247779608
  0
ELLIPSE
  5
59E
100
AcDbEntity
  8
RACCORDO
100
AcDbEllipse
 62
7
  6
CONTINUOUS
 10
102.6050910117
 20
72.546894995
 30
0.0
 11
10.0
 21
0.0
 31
0.0
 40
0.0174550649
 41
3.1415926536
 42
6.2831853072
  0
ELLIPSE
  5
59F
100
AcDbEntity
  8
RACCORDO
100
AcDbEllipse
 62
7
  6
CONTINUOUS
 10
102.6050910117
 20
121.2287585798
 30
0.0
 11
10.0
 21
0.0
 31
0.0
 40
0.0174550649
 41
6.2831853072
 42
9.4247779608
  0
ELLIPSE
  5
5A0
100
AcDbEntity
  8
RACCORDO
100
AcDbEllipse
 62
7
  6
CONTINUOUS
 10
103.7390656079
 20
118.7378267874
 30
0.0
 11
-0.0
 21
0.5
 31
0.0
 40
0.2679491924
 41
-0.0
 42
0.7803491869
  0
ELLIPSE
  5
5A1
100
AcDbEntity
  8
RACCORDO
100
AcDbEllipse
 62
7
  6
CONTINUOUS
 10
101.4711164155
 20
118.7378267874
 30
0.0
 11
-0.0
 21
0.5
 31
0.0
 40
0.2679491924
 41
-0.7803491869
 42
0.0
  0
ENDSEC
  0
SECTION
  2
OBJECTS
  0
DICTIONARY
  5
C
100
AcDbDictionary
280
0
281
1
  3
ACAD_GROUP
350
D
  3
ACAD_MLINESTYLE
350
17
  3
ACAD_LAYOUT
350
1A
  3
ACAD_PLOTSETTINGS
350
19
  3
ACAD_PLOTSTYLENAME
350
E
  0
DICTIONARY
  5
D
102
{ACAD_REACTORS
330
C
102
}
100
AcDbDictionary
280
0
281
1
  0
ACDBDICTIONARYWDFLT
  5
E
102
{ACAD_REACTORS
330
C
102
}
100
AcDbDictionary
281
1
  3
Normal
350
F
100
AcDbDictionaryWithDefault
340
F
  0
DICTIONARY
  5
17
102
{ACAD_REACTORS
330
C
102
}
100
AcDbDictionary
280
0
281
1
  3
Standard
350
18
  0
DICTIONARY
  5
19
102
{ACAD_REACTORS
330
C
102
}
100
AcDbDictionary
281
1
  0
DICTIONARY
  5
1A
102
{ACAD_REACTORS
330
C
102
}
100
AcDbDictionary
281
1
  3
Model
350
5A2
  3
Layout1
350
5A3
  0
ACDBPLACEHOLDER
  5
F
102
{ACAD_REACTORS
330
E
102
}
  0
MLINESTYLE
  5
18
102
{ACAD_REACTORS
330
17
102
}
100
AcDbMlineStyle
  2
STANDARD
 70
0
  3

 62
256
 51
90.0
 52
90.0
 71
2
 49
0.5
 62
256
  6
BYLAYER
 49
-0.5
 62
256
  6
BYLAYER
  0
LAYOUT
  5
5A2
102
{ACAD_REACTORS
330
1A
102
}
100
AcDbPlotSettings
  1

  2
none_device
  4
ISO_A4_(297.00_x_210.00_MM)
  6

 40
0.0
 41
0.0
 42
0.0
 43
0.0
 44
297.0
 45
210.0
 46
0.0
 47
0.0
 48
0.0
 49
0.0
140
0.0
141
0.0
142
1.0
143
1.0
 70
1024
 72
1
 73
0
 74
0
  7

 75
0
147
1.0
148
0.0
149
0.0
100
AcDbLayout
  1
Model
 70
0
 71
0
 10
0.0
 20
0.0
 11
297.0
 21
210.0
 12
0.0
 22
0.0
 32
0.0
 14
0.0
 24
0.0
 34
0.0
 15
0.0
 25
0.0
 35
0.0
146
0.0
 13
0.0
 23
0.0
 33
0.0
 16
1.0
 26
0.0
 36
0.0
 17
0.0
 27
1.0
 37
0.0
 76
0
330
20F
345
0
346
0
  0
LAYOUT
  5
5A3
102
{ACAD_REACTORS
330
1A
102
}
100
AcDbPlotSettings
  1

  2
none_device
  4
ISO_A4_(297.00_x_210.00_MM)
  6

 40
0.0
 41
0.0
 42
0.0
 43
0.0
 44
297.0
 45
210.0
 46
0.0
 47
0.0
 48
0.0
 49
0.0
140
0.0
141
0.0
142
1.0
143
1.0
 70
0
 72
1
 73
0
 74
0
  7

 75
0
147
1.0
148
0.0
149
0.0
100
AcDbLayout
  1
Layout1
 70
0
 71
1
 10
0.0
 20
0.0
 11
297.0
 21
210.0
 12
0.0
 22
0.0
 32
0.0
 14
0.0
 24
0.0
 34
0.0
 15
0.0
 25
0.0
 35
0.0
146
0.0
 13
0.0
 23
0.0
 33
0.0
 16
1.0
 26
0.0
 36
0.0
 17
0.0
 27
1.0
 37
0.0
 76
0
330
210
345
0
346
0
  0
ENDSEC
  0
EOF
