  0
SECTION
  2
HEADER
  9
$ACADVER
  1
AC1015
  9
$DWGCODEPAGE
  3
ANSI_1252
  9
$EXTMAX
 10
297.0
 20
210.0
 30
0.0
  9
$EXTMIN
 10
0.0
 20
0.0
 30
0.0
  9
$LIMMIN
 10
0.0
 20
0.0
  9
$LIMMAX
 10
297.0
 20
210.0
  9
$VIEWCTR
 10
148.5
 20
105.0
  9
$VIEWSIZE
 40
210.0
  9
$CLAYER
  8
0
  9
$LTSCALE
 40
16.335
  9
$CELTYPE
  6
BYLAYER
  9
$DIMSCALE
 40
1.0
  9
$DIMASZ
 40
3.0
  9
$DIMEXO
 40
1.85625
  9
$DIMDLI
 40
11.286
  9
$DIMEXE
 40
5.346
  9
$DIMCEN
 40
2.673
  9
$DIMLFAC
 40
1.0
  9
$DIMBLK
  1
_FILLED
  9
$DIMTXT
 40
3.0
  9
$DIMTOL
 70
1
  9
$DIMLIM
 70
0
  9
$DIMTFAC
 40
1.0
  9
$DIMTP
 40
0.01
  9
$DIMTM
 40
0.01
  9
$PDMODE
 70
3
  9
$PDSIZE
 40
3.0
  9
$HANDSEED
  5
8AF
  9
$TILEMODE
 70
1
  9
$MEASUREMENT
 70
1
  9
$INSUNITS
 70
4
  0
ENDSEC
  0
SECTION
  2
CLASSES
  0
CLASS
  1
ACDBDICTIONARYWDFLT
  2
AcDbDictionaryWithDefault
  3
AutoCAD 2000
 90
0
280
0
281
0
  0
CLASS
  1
ACDBPLACEHOLDER
  2
AcDbPlaceHolder
  3
AutoCAD 2000
 90
0
280
0
281
0
  0
CLASS
  1
LAYOUT
  2
AcDbLayout
  3
AutoCAD 2000
 90
0
280
0
281
0
  0
ENDSEC
  0
SECTION
  2
TABLES
  0
TABLE
  2
VPORT
  5
8
100
AcDbSymbolTable
 70
2
  0
VPORT
  5
1F4
100
AcDbSymbolTableRecord
100
AcDbViewportTableRecord
  2
*ACTIVE
 70
0
 10
0.0
 20
0.0
 11
1.0
 21
1.0
 12
148.5
 22
105.0
 13
0.0
 23
0.0
 14
1.0
 24
1.0
 15
0.0
 25
0.0
 16
0.0
 26
0.0
 36
1.0
 17
0.0
 27
0.0
 37
0.0
 40
210.0
 41
1.4142857143
 42
50.0
 43
0.0
 44
0.0
 50
0.0
 51
0.0
 71
0
 72
100
 73
1
 74
1
 75
0
 76
0
 77
0
 78
0
  0
ENDTAB
  0
TABLE
  2
LTYPE
  5
5
100
AcDbSymbolTable
 70
6
  0
LTYPE
  5
14
100
AcDbSymbolTableRecord
100
AcDbLinetypeTableRecord
  2
BYBLOCK
 70
0
  3

 72
65
 73
0
 40
0.0
  0
LTYPE
  5
15
100
AcDbSymbolTableRecord
100
AcDbLinetypeTableRecord
  2
BYLAYER
 70
0
  3

 72
65
 73
0
 40
0.0
  0
LTYPE
  5
16
100
AcDbSymbolTableRecord
100
AcDbLinetypeTableRecord
  2
CONTINUOUS
 70
64
  3
Solid line
 72
65
 73
0
 40
0.0
  0
LTYPE
  5
1F5
100
AcDbSymbolTableRecord
100
AcDbLinetypeTableRecord
  2
CENTER
 70
64
  3
____ _ ____ _ ____ _ ____ _ ____ _ ____ _ ____
 72
65
 73
4
 40
0.6
 49
0.375
 74
0
 49
-0.075
 74
0
 49
0.075
 74
0
 49
-0.075
 74
0
  0
LTYPE
  5
1F6
100
AcDbSymbolTableRecord
100
AcDbLinetypeTableRecord
  2
HIDDEN
 70
64
  3
- - - - - - - - - - - - - - - - - - - -
 72
65
 73
2
 40
0.2
 49
0.1
 74
0
 49
-0.1
 74
0
  0
LTYPE
  5
1F7
100
AcDbSymbolTableRecord
100
AcDbLinetypeTableRecord
  2
PHANTOM
 70
64
  3
_____ _ _ _____ _ _ _____ _ _ _____
 72
65
 73
6
 40
0.8
 49
0.45
 74
0
 49
-0.05
 74
0
 49
0.1
 74
0
 49
-0.05
 74
0
 49
0.1
 74
0
 49
-0.05
 74
0
  0
LTYPE
  5
1F8
100
AcDbSymbolTableRecord
100
AcDbLinetypeTableRecord
  2
DOT
 70
64
  3
. . . . . . . . . . . . . . . . . . . .
 72
65
 73
2
 40
0.2
 49
0.1
 74
0
 49
-0.1
 74
0
  0
LTYPE
  5
1F9
100
AcDbSymbolTableRecord
100
AcDbLinetypeTableRecord
  2
DASHED
 70
64
  3
- - - - - - - - - - - - - - - - - - - -
 72
65
 73
2
 40
0.2
 49
0.1
 74
0
 49
-0.1
 74
0
  0
ENDTAB
  0
TABLE
  2
LAYER
  5
2
100
AcDbSymbolTable
 70
36
  0
LAYER
  5
10
100
AcDbSymbolTableRecord
100
AcDbLayerTableRecord
  2
0
 70
0
 62
7
  6
CONTINUOUS
370
-3
390
F
  0
LAYER
  5
1FA
100
AcDbSymbolTableRecord
100
AcDbLayerTableRecord
  2
DEFAULT_1
 70
0
 62
7
  6
CENTER
370
-3
390
F
  0
LAYER
  5
1FB
100
AcDbSymbolTableRecord
100
AcDbLayerTableRecord
  2
DEFAULT_2
 70
0
 62
7
  6
HIDDEN
370
-3
390
F
  0
LAYER
  5
1FC
100
AcDbSymbolTableRecord
100
AcDbLayerTableRecord
  2
DEFAULT_3
 70
0
 62
7
  6
PHANTOM
370
-3
390
F
  0
LAYER
  5
1FD
100
AcDbSymbolTableRecord
100
AcDbLayerTableRecord
  2
43000491A0
 70
0
 62
7
  6
CONTINUOUS
370
-3
390
F
  0
LAYER
  5
1FE
100
AcDbSymbolTableRecord
100
AcDbLayerTableRecord
  2
ASM0001
 70
0
 62
7
  6
CONTINUOUS
370
-3
390
F
  0
LAYER
  5
1FF
100
AcDbSymbolTableRecord
100
AcDbLayerTableRecord
  2
ASSI
 70
0
 62
7
  6
CONTINUOUS
370
-3
390
F
  0
LAYER
  5
200
100
AcDbSymbolTableRecord
100
AcDbLayerTableRecord
  2
CN-MRT4P5_2SQV01-VIMAR_1600000
 70
0
 62
7
  6
CONTINUOUS
370
-3
390
F
  0
LAYER
  5
201
100
AcDbSymbolTableRecord
100
AcDbLayerTableRecord
  2
COLOR5
 70
0
 62
7
  6
CONTINUOUS
370
-3
390
F
  0
LAYER
  5
202
100
AcDbSymbolTableRecord
100
AcDbLayerTableRecord
  2
COLORE_MATERIALE
 70
0
 62
7
  6
CONTINUOUS
370
-3
390
F
  0
LAYER
  5
203
100
AcDbSymbolTableRecord
100
AcDbLayerTableRecord
  2
COORDINATE
 70
0
 62
7
  6
CONTINUOUS
370
-3
390
F
  0
LAYER
  5
204
100
AcDbSymbolTableRecord
100
AcDbLayerTableRecord
  2
COORD_ORIGINE
 70
0
 62
7
  6
CONTINUOUS
370
-3
390
F
  0
LAYER
  5
205
100
AcDbSymbolTableRecord
100
AcDbLayerTableRecord
  2
COPY_PUBLISH
 70
0
 62
7
  6
CONTINUOUS
370
-3
390
F
  0
LAYER
  5
206
100
AcDbSymbolTableRecord
100
AcDbLayerTableRecord
  2
COSMETIC
 70
0
 62
7
  6
CONTINUOUS
370
-3
390
F
  0
LAYER
  5
207
100
AcDbSymbolTableRecord
100
AcDbLayerTableRecord
  2
COSMETICI
 70
0
 62
7
  6
CONTINUOUS
370
-3
390
F
  0
LAYER
  5
208
100
AcDbSymbolTableRecord
100
AcDbLayerTableRecord
  2
CURVE
 70
0
 62
7
  6
CONTINUOUS
370
-3
390
F
  0
LAYER
  5
209
100
AcDbSymbolTableRecord
100
AcDbLayerTableRecord
  2
DRAFT
 70
0
 62
7
  6
CONTINUOUS
370
-3
390
F
  0
LAYER
  5
20A
100
AcDbSymbolTableRecord
100
AcDbLayerTableRecord
  2
IMPORT_IGES
 70
0
 62
7
  6
CONTINUOUS
370
-3
390
F
  0
LAYER
  5
20B
100
AcDbSymbolTableRecord
100
AcDbLayerTableRecord
  2
INCISIONI
 70
0
 62
7
  6
CONTINUOUS
370
-3
390
F
  0
LAYER
  5
20C
100
AcDbSymbolTableRecord
100
AcDbLayerTableRecord
  2
INTFCLR_1
 70
0
 62
7
  6
CONTINUOUS
370
-3
390
F
  0
LAYER
  5
20D
100
AcDbSymbolTableRecord
100
AcDbLayerTableRecord
  2
INTFCLR_269
 70
0
 62
7
  6
CONTINUOUS
370
-3
390
F
  0
LAYER
  5
20E
100
AcDbSymbolTableRecord
100
AcDbLayerTableRecord
  2
INTF_1
 70
0
 62
7
  6
CONTINUOUS
370
-3
390
F
  0
LAYER
  5
20F
100
AcDbSymbolTableRecord
100
AcDbLayerTableRecord
  2
INTF_11
 70
0
 62
7
  6
CONTINUOUS
370
-3
390
F
  0
LAYER
  5
210
100
AcDbSymbolTableRecord
100
AcDbLayerTableRecord
  2
INTF_15
 70
0
 62
7
  6
CONTINUOUS
370
-3
390
F
  0
LAYER
  5
211
100
AcDbSymbolTableRecord
100
AcDbLayerTableRecord
  2
INTF_16
 70
0
 62
7
  6
CONTINUOUS
370
-3
390
F
  0
LAYER
  5
212
100
AcDbSymbolTableRecord
100
AcDbLayerTableRecord
  2
INTF_2
 70
0
 62
7
  6
CONTINUOUS
370
-3
390
F
  0
LAYER
  5
213
100
AcDbSymbolTableRecord
100
AcDbLayerTableRecord
  2
INTF_GREEN
 70
0
 62
7
  6
CONTINUOUS
370
-3
390
F
  0
LAYER
  5
214
100
AcDbSymbolTableRecord
100
AcDbLayerTableRecord
  2
INTF_YELLOW
 70
0
 62
7
  6
CONTINUOUS
370
-3
390
F
  0
LAYER
  5
215
100
AcDbSymbolTableRecord
100
AcDbLayerTableRecord
  2
NOTE
 70
0
 62
7
  6
CONTINUOUS
370
-3
390
F
  0
LAYER
  5
216
100
AcDbSymbolTableRecord
100
AcDbLayerTableRecord
  2
PIANI
 70
0
 62
7
  6
CONTINUOUS
370
-3
390
F
  0
LAYER
  5
217
100
AcDbSymbolTableRecord
100
AcDbLayerTableRecord
  2
PIANI_DI_RIFERIMENTO
 70
0
 62
7
  6
CONTINUOUS
370
-3
390
F
  0
LAYER
  5
218
100
AcDbSymbolTableRecord
100
AcDbLayerTableRecord
  2
PIANI_ORIGINE
 70
0
 62
7
  6
CONTINUOUS
370
-3
390
F
  0
LAYER
  5
219
100
AcDbSymbolTableRecord
100
AcDbLayerTableRecord
  2
PTC-4X7_5X5_0-VIMAR_750000
 70
0
 62
7
  6
CONTINUOUS
370
-3
390
F
  0
LAYER
  5
21A
100
AcDbSymbolTableRecord
100
AcDbLayerTableRecord
  2
PUBLISHED_GEOMETRY
 70
0
 62
7
  6
CONTINUOUS
370
-3
390
F
  0
LAYER
  5
21B
100
AcDbSymbolTableRecord
100
AcDbLayerTableRecord
  2
PUNTI
 70
0
 62
7
  6
CONTINUOUS
370
-3
390
F
  0
LAYER
  5
21C
100
AcDbSymbolTableRecord
100
AcDbLayerTableRecord
  2
RACCORDO
 70
0
 62
7
  6
CONTINUOUS
370
-3
390
F
  0
LAYER
  5
21D
100
AcDbSymbolTableRecord
100
AcDbLayerTableRecord
  2
SIMBOLI
 70
0
 62
7
  6
CONTINUOUS
370
-3
390
F
  0
LAYER
  5
21E
100
AcDbSymbolTableRecord
100
AcDbLayerTableRecord
  2
SMUSSO
 70
0
 62
7
  6
CONTINUOUS
370
-3
390
F
  0
LAYER
  5
21F
100
AcDbSymbolTableRecord
100
AcDbLayerTableRecord
  2
SNAPLINE
 70
0
 62
7
  6
CONTINUOUS
370
-3
390
F
  0
LAYER
  5
220
100
AcDbSymbolTableRecord
100
AcDbLayerTableRecord
  2
SUPERFICI
 70
0
 62
7
  6
CONTINUOUS
370
-3
390
F
  0
LAYER
  5
221
100
AcDbSymbolTableRecord
100
AcDbLayerTableRecord
  2
SUPERFICI_SKEL
 70
0
 62
7
  6
CONTINUOUS
370
-3
390
F
  0
LAYER
  5
222
100
AcDbSymbolTableRecord
100
AcDbLayerTableRecord
  2
TRASH
 70
0
 62
7
  6
CONTINUOUS
370
-3
390
F
  0
LAYER
  5
223
100
AcDbSymbolTableRecord
100
AcDbLayerTableRecord
  2
___SHELL
 70
0
 62
7
  6
CONTINUOUS
370
-3
390
F
  0
ENDTAB
  0
TABLE
  2
STYLE
  5
3
100
AcDbSymbolTable
 70
1
  0
STYLE
  5
11
100
AcDbSymbolTableRecord
100
AcDbTextStyleTableRecord
  2
STANDARD
 70
0
 40
0.0
 41
0.8
 50
0.0
 71
0
 42
0.2
  3
txt
  4

  0
STYLE
  5
224
100
AcDbSymbolTableRecord
100
AcDbTextStyleTableRecord
  2
TEXTSTYLE_1
 70
0
 40
0.0
 41
0.8
 50
0.0
 71
0
 42
0.2
  3
gdt
  4

  0
ENDTAB
  0
TABLE
  2
VIEW
  5
6
100
AcDbSymbolTable
 70
0
  0
ENDTAB
  0
TABLE
  2
UCS
  5
7
100
AcDbSymbolTable
 70
0
  0
ENDTAB
  0
TABLE
  2
APPID
  5
9
100
AcDbSymbolTable
 70
1
  0
APPID
  5
225
100
AcDbSymbolTableRecord
100
AcDbRegAppTableRecord
  2
ACAD
 70
0
  0
ENDTAB
  0
TABLE
  2
BLOCK_RECORD
  5
1
100
AcDbSymbolTable
 70
0
  0
BLOCK_RECORD
  5
226
100
AcDbSymbolTableRecord
100
AcDbBlockTableRecord
  2
*Model_Space
  0
BLOCK_RECORD
  5
227
100
AcDbSymbolTableRecord
100
AcDbBlockTableRecord
  2
*Paper_Space
  0
ENDTAB
  0
TABLE
  2
DIMSTYLE
  5
A
100
AcDbSymbolTable
 70
1
100
AcDbDimStyleTable
 71
0
  0
DIMSTYLE
105
228
100
AcDbSymbolTableRecord
100
AcDbDimStyleTableRecord
  2
STANDARD
 70
0
  3

  4

 40
1.0
 41
3.0
 42
0.0625
 43
0.38
 44
0.18
 45
0.0
 46
0.0
 47
0.01
 48
0.01
140
3.0
141
0.09
142
0.0
143
25.4
144
1.0
145
0.0
146
1.0
147
0.09
 71
1.0
 72
0.0
 73
0
 74
0
 75
0
 76
0
 77
1
 78
8
170
0
171
2
172
0
173
0
174
0
175
0
176
0
177
0
178
0
270
2
271
2
272
2
273
2
274
2
275
0
280
0
281
0
282
0
283
1
284
8
285
0
286
0
287
3
288
0
340
11
  0
ENDTAB
  0
ENDSEC
  0
SECTION
  2
BLOCKS
  0
BLOCK
  5
20
100
AcDbEntity
  8
0
100
AcDbBlockBegin
  2
*Model_Space
 70
0
 10
0.0
 20
0.0
 30
0.0
  3
*Model_Space
  1

  0
ENDBLK
  5
21
100
AcDbEntity
  8
0
100
AcDbBlockEnd
  0
BLOCK
  5
1C
100
AcDbEntity
  8
0
100
AcDbBlockBegin
  2
*Paper_Space
 70
0
 10
0.0
 20
0.0
 30
0.0
  3
*Paper_Space
  1

  0
ENDBLK
  5
1D
100
AcDbEntity
  8
0
100
AcDbBlockEnd
  0
ENDSEC
  0
SECTION
  2
ENTITIES
  0
LWPOLYLINE
  5
229
100
AcDbEntity
  8
ASSI
100
AcDbPolyline
 62
253
  6
CONTINUOUS
 90
13
 70
0
 10
87.3142314251
 20
84.4210621938
 10
87.3403276783
 20
84.4227802499
 10
87.3659775861
 20
84.4278891351
 10
87.3907424411
 20
84.4363014673
 10
87.4141986743
 20
84.4478733638
 10
87.435945098
 20
84.4624069013
 10
87.4556097686
 20
84.4796535008
 10
87.472856349
 20
84.4993181802
 10
87.4873898619
 20
84.521064601
 10
87.4989617334
 20
84.5445208202
 10
87.5073740441
 20
84.569285651
 10
87.5124829139
 20
84.5949355239
 10
87.5142009641
 20
84.6210317328
  0
LWPOLYLINE
  5
22A
100
AcDbEntity
  8
ASSI
100
AcDbPolyline
 62
7
  6
CONTINUOUS
 90
13
 70
0
 10
105.127398882
 20
84.4078947368
 10
105.1535010089
 20
84.409605001
 10
105.1791561871
 20
84.4147071774
 10
105.2039257086
 20
84.4231141586
 10
105.2273861654
 20
84.4346823997
 10
105.2491359713
 20
84.4492141869
 10
105.2688023933
 20
84.4664607646
 10
105.286048971
 20
84.4861271866
 10
105.3005807582
 20
84.5078769925
 10
105.3121489993
 20
84.5313374493
 10
105.3205559805
 20
84.5561069708
 10
105.3256581569
 20
84.581762149
 10
105.3273684211
 20
84.6078642759
  0
LWPOLYLINE
  5
22B
100
AcDbEntity
  8
ASSI
100
AcDbPolyline
 62
7
  6
CONTINUOUS
 90
13
 70
0
 10
90.8816561683
 20
85.0061020228
 10
90.9137445942
 20
85.0081693384
 10
90.9453025814
 20
85.0143377043
 10
90.9758080187
 20
85.0245052308
 10
91.004756147
 20
85.0385038429
 10
91.0316680002
 20
85.0561020947
 10
91.0560983092
 20
85.0770090283
 10
91.0776427908
 20
85.1008789472
 10
91.0959447591
 20
85.1273169838
 10
91.1107011581
 20
85.1558856541
 10
91.1216676795
 20
85.186112252
 10
91.1286627552
 20
85.2174967052
 10
91.1315704995
 20
85.2495197095
  0
LWPOLYLINE
  5
22C
100
AcDbEntity
  8
ASSI
100
AcDbPolyline
 62
253
  6
CONTINUOUS
 90
13
 70
0
 10
102.140926562
 20
85.2800635205
 10
102.1149684739
 20
85.2784019219
 10
102.0894496249
 20
85.2738376387
 10
102.0648018188
 20
85.266447904
 10
102.0414421201
 20
85.2563577601
 10
102.0197657975
 20
85.243737943
 10
102.0001396358
 20
85.2288019936
 10
101.9828957281
 20
85.2118026442
 10
101.9683258564
 20
85.1930275407
 10
101.9566765551
 20
85.1727943757
 10
101.9481449406
 20
85.1514455139
 10
101.9428753749
 20
85.1293421988
 10
101.940957023
 20
85.1068584397
  0
LWPOLYLINE
  5
22D
100
AcDbEntity
  8
ASSI
100
AcDbPolyline
 62
253
  6
CONTINUOUS
 90
7
 70
0
 10
90.6511018511
 20
85.0074419707
 10
90.6437177866
 20
85.0072490908
 10
90.6374377468
 20
85.0070417781
 10
90.6324635099
 20
85.0068267225
 10
90.6288623355
 20
85.0066061539
 10
90.6265669642
 20
85.0063778423
 10
90.6255773958
 20
85.0061417878
  0
LINE
  5
22E
100
AcDbEntity
  8
ASSI
100
AcDbLine
 62
253
  6
CONTINUOUS
 10
98.3945331282
 20
85.2533702976
 11
98.4468699895
 21
85.2546773709
  0
LWPOLYLINE
  5
22F
100
AcDbEntity
  8
ASSI
100
AcDbPolyline
 62
253
  6
CONTINUOUS
 90
6
 70
0
 10
90.4289982912
 20
85.2583876499
 10
90.4106133788
 20
85.2580348377
 10
90.3959474838
 20
85.2576261884
 10
90.3851576395
 20
85.2571663668
 10
90.3783572009
 20
85.2566578512
 10
90.3756172689
 20
85.2561052589
  0
LINE
  5
230
100
AcDbEntity
  8
ASSI
100
AcDbLine
 62
253
  6
CONTINUOUS
 10
98.4468699895
 20
85.2546773709
 11
98.510199688
 21
85.255903075
  0
LINE
  5
231
100
AcDbEntity
  8
ASSI
100
AcDbLine
 62
253
  6
CONTINUOUS
 10
98.5971781002
 20
85.0074077099
 11
98.6149569068
 21
85.0077552541
  0
LINE
  5
232
100
AcDbEntity
  8
ASSI
100
AcDbLine
 62
253
  6
CONTINUOUS
 10
90.6692526639
 20
85.007783458
 11
90.6511018511
 21
85.0074419707
  0
LINE
  5
233
100
AcDbEntity
  8
ASSI
100
AcDbLine
 62
253
  6
CONTINUOUS
 10
98.510199688
 20
85.255903075
 11
98.5817827098
 21
85.2569919562
  0
LINE
  5
234
100
AcDbEntity
  8
ASSI
100
AcDbLine
 62
253
  6
CONTINUOUS
 10
98.6149569068
 20
85.0077552541
 11
98.6363378341
 21
85.008029886
  0
LINE
  5
235
100
AcDbEntity
  8
ASSI
100
AcDbLine
 62
253
  6
CONTINUOUS
 10
90.690922331
 20
85.0080508929
 11
90.6692526639
 21
85.007783458
  0
LINE
  5
236
100
AcDbEntity
  8
ASSI
100
AcDbLine
 62
253
  6
CONTINUOUS
 10
98.5817827098
 20
85.2569919562
 11
98.6585271797
 21
85.2578976818
  0
LINE
  5
237
100
AcDbEntity
  8
ASSI
100
AcDbLine
 62
253
  6
CONTINUOUS
 10
90.4760827831
 20
85.2589041346
 11
90.4289982912
 21
85.2583876499
  0
LINE
  5
238
100
AcDbEntity
  8
ASSI
100
AcDbLine
 62
253
  6
CONTINUOUS
 10
98.6585271797
 20
85.2578976818
 11
98.7371153859
 21
85.2585835427
  0
LINE
  5
239
100
AcDbEntity
  8
ASSI
100
AcDbLine
 62
253
  6
CONTINUOUS
 10
98.6363378341
 20
85.008029886
 11
98.673455276
 21
85.0082842646
  0
LINE
  5
23A
100
AcDbEntity
  8
ASSI
100
AcDbLine
 62
253
  6
CONTINUOUS
 10
98.7371153859
 20
85.2585835427
 11
98.8141501168
 21
85.2590160001
  0
LINE
  5
23B
100
AcDbEntity
  8
ASSI
100
AcDbLine
 62
253
  6
CONTINUOUS
 10
90.7282956785
 20
85.0082929463
 11
90.690922331
 21
85.0080508929
  0
LINE
  5
23C
100
AcDbEntity
  8
ASSI
100
AcDbLine
 62
253
  6
CONTINUOUS
 10
90.5351632356
 20
85.2591565523
 11
90.4760827831
 21
85.2589041346
  0
LINE
  5
23D
100
AcDbEntity
  8
ASSI
100
AcDbLine
 62
253
  6
CONTINUOUS
 10
98.8141501168
 20
85.2590160001
 11
98.8863007478
 21
85.2591782093
  0
LINE
  5
23E
100
AcDbEntity
  8
ASSI
100
AcDbLine
 62
7
  6
CONTINUOUS
 10
84.3273379601
 20
84.4078947368
 11
87.327398882
 21
84.4078947368
  0
LINE
  5
23F
100
AcDbEntity
  8
ASSI
100
AcDbLine
 62
7
  6
CONTINUOUS
 10
102.1273379601
 20
84.4078947368
 11
105.127398882
 21
84.4078947368
  0
LINE
  5
240
100
AcDbEntity
  8
ASSI
100
AcDbLine
 62
253
  6
CONTINUOUS
 10
105.1142314251
 20
84.4210621938
 11
102.140505417
 21
84.4210621938
  0
LINE
  5
241
100
AcDbEntity
  8
ASSI
100
AcDbLine
 62
253
  6
CONTINUOUS
 10
87.3142313749
 20
84.421062244
 11
84.340505417
 21
84.4210621938
  0
LINE
  5
242
100
AcDbEntity
  8
ASSI
100
AcDbLine
 62
253
  6
CONTINUOUS
 10
105.3133434425
 20
84.6710241176
 11
101.9413933996
 21
84.6710241176
  0
LINE
  5
243
100
AcDbEntity
  8
ASSI
100
AcDbLine
 62
253
  6
CONTINUOUS
 10
84.1413933996
 20
84.6710241176
 11
87.5133434425
 21
84.6710241176
  0
LINE
  5
244
100
AcDbEntity
  8
ASSI
100
AcDbLine
 62
7
  6
CONTINUOUS
 10
90.5273303448
 20
84.9078947368
 11
93.6774064973
 21
84.9078947368
  0
LINE
  5
245
100
AcDbEntity
  8
ASSI
100
AcDbLine
 62
7
  6
CONTINUOUS
 10
95.7773303448
 20
84.9078947368
 11
98.9274064973
 21
84.9078947368
  0
LINE
  5
246
100
AcDbEntity
  8
ASSI
100
AcDbLine
 62
7
  6
CONTINUOUS
 10
98.5752225774
 20
84.924306026
 11
95.793741634
 21
84.924306026
  0
LINE
  5
247
100
AcDbEntity
  8
ASSI
100
AcDbLine
 62
7
  6
CONTINUOUS
 10
93.6609952081
 20
84.924306026
 11
90.8795142647
 21
84.924306026
  0
LINE
  5
248
100
AcDbEntity
  8
ASSI
100
AcDbLine
 62
253
  6
CONTINUOUS
 10
105.1133739035
 20
85.0636440002
 11
103.7642390403
 21
85.0635571695
  0
LINE
  5
249
100
AcDbEntity
  8
ASSI
100
AcDbLine
 62
253
  6
CONTINUOUS
 10
105.3133434425
 20
85.0635571695
 11
105.1133739035
 21
85.0635571695
  0
LINE
  5
24A
100
AcDbEntity
  8
ASSI
100
AcDbLine
 62
253
  6
CONTINUOUS
 10
87.5133434425
 20
85.0635571695
 11
85.9642390403
 21
85.0635571695
  0
LINE
  5
24B
100
AcDbEntity
  8
ASSI
100
AcDbLine
 62
253
  6
CONTINUOUS
 10
103.4904978018
 20
85.0635571695
 11
101.9413933996
 21
85.0635571695
  0
LINE
  5
24C
100
AcDbEntity
  8
ASSI
100
AcDbLine
 62
253
  6
CONTINUOUS
 10
105.1138105766
 20
85.280073326
 11
103.9807453913
 21
85.2800635205
  0
LINE
  5
24D
100
AcDbEntity
  8
ASSI
100
AcDbLine
 62
253
  6
CONTINUOUS
 10
85.4739914508
 20
85.2800635205
 11
84.3409262654
 21
85.28007333
  0
LINE
  5
24E
100
AcDbEntity
  8
ASSI
100
AcDbLine
 62
253
  6
CONTINUOUS
 10
103.2739914508
 20
85.2800635205
 11
102.140926562
 21
85.2800635205
  0
LINE
  5
24F
100
AcDbEntity
  8
ASSI
100
AcDbLine
 62
253
  6
CONTINUOUS
 10
87.3138102801
 20
85.2800635205
 11
86.1807453913
 21
85.2800635205
  0
LINE
  5
250
100
AcDbEntity
  8
ASSI
100
AcDbLine
 62
7
  6
CONTINUOUS
 10
84.3256533802
 20
85.785245006
 11
85.4273684211
 21
85.785245006
  0
LINE
  5
251
100
AcDbEntity
  8
ASSI
100
AcDbLine
 62
7
  6
CONTINUOUS
 10
86.2273684211
 20
85.785245006
 11
87.3290834619
 21
85.785245006
  0
LINE
  5
252
100
AcDbEntity
  8
ASSI
100
AcDbLine
 62
7
  6
CONTINUOUS
 10
102.1256533802
 20
85.785245006
 11
103.2273684211
 21
85.785245006
  0
LINE
  5
253
100
AcDbEntity
  8
ASSI
100
AcDbLine
 62
7
  6
CONTINUOUS
 10
104.0273684211
 20
85.785245006
 11
105.1290834619
 21
85.785245006
  0
LINE
  5
254
100
AcDbEntity
  8
ASSI
100
AcDbLine
 62
253
  6
CONTINUOUS
 10
85.6904978018
 20
85.0635571695
 11
84.1413933996
 21
85.0635571695
  0
LINE
  5
255
100
AcDbEntity
  8
ASSI
100
AcDbLine
 62
253
  6
CONTINUOUS
 10
98.673455276
 20
85.0082842646
 11
98.7132564843
 21
85.0083270069
  0
LINE
  5
256
100
AcDbEntity
  8
ASSI
100
AcDbLine
 62
253
  6
CONTINUOUS
 10
90.7681207372
 20
85.0083226759
 11
90.7282956785
 21
85.0082929463
  0
LINE
  5
257
100
AcDbEntity
  8
ASSI
100
AcDbLine
 62
253
  6
CONTINUOUS
 10
98.8863007478
 20
85.2591782093
 11
98.9504502002
 21
85.2590651033
  0
LINE
  5
258
100
AcDbEntity
  8
ASSI
100
AcDbLine
 62
253
  6
CONTINUOUS
 10
90.6405713898
 20
85.2590164589
 11
90.5351632356
 21
85.2591565523
  0
LINE
  5
259
100
AcDbEntity
  8
ASSI
100
AcDbLine
 62
253
  6
CONTINUOUS
 10
98.7132564843
 20
85.0083270069
 11
98.7518803484
 21
85.0081539753
  0
LINE
  5
25A
100
AcDbEntity
  8
ASSI
100
AcDbLine
 62
253
  6
CONTINUOUS
 10
90.806537682
 20
85.0081372206
 11
90.7681207372
 21
85.0083226759
  0
LINE
  5
25B
100
AcDbEntity
  8
ASSI
100
AcDbLine
 62
253
  6
CONTINUOUS
 10
90.7569201671
 20
85.2582709542
 11
90.6405713898
 21
85.2590164589
  0
LWPOLYLINE
  5
25C
100
AcDbEntity
  8
ASSI
100
AcDbPolyline
 62
253
  6
CONTINUOUS
 90
8
 70
0
 10
98.9504502002
 20
85.2590651033
 10
99.0038237995
 20
85.2586776267
 10
99.0257242404
 20
85.2583875901
 10
99.0441081363
 20
85.2580350086
 10
99.0587798512
 20
85.2576264323
 10
99.0695789506
 20
85.2571663609
 10
99.0763848274
 20
85.2566572674
 10
99.0791213701
 20
85.2561037116
  0
LINE
  5
25D
100
AcDbEntity
  8
ASSI
100
AcDbLine
 62
253
  6
CONTINUOUS
 10
98.7518803484
 20
85.0081539753
 11
98.7751619917
 21
85.007926052
  0
LINE
  5
25E
100
AcDbEntity
  8
ASSI
100
AcDbLine
 62
253
  6
CONTINUOUS
 10
90.8295638615
 20
85.0079019167
 11
90.806537682
 21
85.0081372206
  0
LINE
  5
25F
100
AcDbEntity
  8
ASSI
100
AcDbLine
 62
253
  6
CONTINUOUS
 10
90.8729432739
 20
85.2569923
 11
90.7569201671
 21
85.2582709542
  0
LWPOLYLINE
  5
260
100
AcDbEntity
  8
ASSI
100
AcDbPolyline
 62
253
  6
CONTINUOUS
 90
9
 70
0
 10
98.7751619917
 20
85.007926052
 10
98.7951986971
 20
85.0076182447
 10
98.8037126968
 20
85.0074401081
 10
98.8110862291
 20
85.0072469957
 10
98.8173545067
 20
85.0070394762
 10
98.8223161092
 20
85.0068245006
 10
98.8259038966
 20
85.0066043858
 10
98.828185009
 20
85.0063768149
 10
98.8291594463
 20
85.0061417878
  0
LINE
  5
261
100
AcDbEntity
  8
ASSI
100
AcDbLine
 62
253
  6
CONTINUOUS
 10
90.9774069111
 20
85.2553044368
 11
90.8729432739
 21
85.2569923
  0
LWPOLYLINE
  5
262
100
AcDbEntity
  8
ASSI
100
AcDbPolyline
 62
253
  6
CONTINUOUS
 90
13
 70
0
 10
87.3138102801
 20
85.2800635205
 10
87.3397683517
 20
85.2784019239
 10
87.3652871876
 20
85.2738376457
 10
87.3899349845
 20
85.2664479181
 10
87.4132946779
 20
85.2563577824
 10
87.4349709991
 20
85.2437379733
 10
87.454597164
 20
85.2288020303
 10
87.4718410787
 20
85.2118026839
 10
87.4864109596
 20
85.1930275795
 10
87.4980602703
 20
85.17279441
 10
87.5065918932
 20
85.1514455402
 10
87.5118614649
 20
85.1293422135
 10
87.5137798192
 20
85.1068584397
  0
LWPOLYLINE
  5
263
100
AcDbEntity
  8
ASSI
100
AcDbPolyline
 62
7
  6
CONTINUOUS
 90
13
 70
0
 10
84.3273379601
 20
84.4078947368
 10
84.3012358332
 20
84.409605001
 10
84.275580655
 20
84.4147071774
 10
84.2508111336
 20
84.4231141586
 10
84.2273506767
 20
84.4346823997
 10
84.2056008708
 20
84.4492141869
 10
84.1859344488
 20
84.4664607646
 10
84.1686878711
 20
84.4861271866
 10
84.1541560839
 20
84.5078769925
 10
84.1425878428
 20
84.5313374493
 10
84.1341808616
 20
84.5561069708
 10
84.1290786852
 20
84.581762149
 10
84.1273684211
 20
84.6078642759
  0
LWPOLYLINE
  5
264
100
AcDbEntity
  8
ASSI
100
AcDbPolyline
 62
253
  6
CONTINUOUS
 90
13
 70
0
 10
90.6255773958
 20
85.0061417878
 10
90.5929571065
 20
85.0082893544
 10
90.5608947433
 20
85.0146754514
 10
90.5299386897
 20
85.0251908533
 10
90.5006184072
 20
85.0396557084
 10
90.4734353797
 20
85.0578226147
 10
90.4488545363
 20
85.0793808518
 10
90.4272962991
 20
85.1039616952
 10
90.4091293928
 20
85.1311447228
 10
90.3946645377
 20
85.1604650053
 10
90.3841491357
 20
85.191421059
 10
90.3777630386
 20
85.2234834223
 10
90.375615472
 20
85.2561037116
  0
LWPOLYLINE
  5
265
100
AcDbEntity
  8
ASSI
100
AcDbPolyline
 62
253
  6
CONTINUOUS
 90
13
 70
0
 10
102.140505417
 20
84.4210621938
 10
102.1144091856
 20
84.422780247
 10
102.088759295
 20
84.4278891246
 10
102.063994452
 20
84.4363014462
 10
102.040538226
 20
84.4478733302
 10
102.018791804
 20
84.4624068553
 10
101.9991271292
 20
84.479653445
 10
101.9818805395
 20
84.4993181198
 10
101.9673470144
 20
84.5210645418
 10
101.9557751304
 20
84.5445207678
 10
101.9473628088
 20
84.5692856108
 10
101.9422539312
 20
84.5949355013
 10
101.940535878
 20
84.6210317328
  0
LWPOLYLINE
  5
266
100
AcDbEntity
  8
ASSI
100
AcDbPolyline
 62
253
  6
CONTINUOUS
 90
9
 70
0
 10
91.1315704995
 20
85.2495197095
 10
91.1295343194
 20
85.2501132206
 10
91.1234195697
 20
85.2507350583
 10
91.1132953702
 20
85.2513787602
 10
91.0992757621
 20
85.252037022
 10
91.0815145285
 20
85.252702992
 10
91.0601999111
 20
85.253370373
 10
91.0355590506
 20
85.2540310343
 10
90.9774069111
 20
85.2553044368
  0
LWPOLYLINE
  5
267
100
AcDbEntity
  8
ASSI
100
AcDbPolyline
 62
253
  6
CONTINUOUS
 90
9
 70
0
 10
90.8816561683
 20
85.0061020228
 10
90.8809280728
 20
85.0063369076
 10
90.8788864556
 20
85.006564841
 10
90.8755313166
 20
85.0067858232
 10
90.8707979397
 20
85.0070022178
 10
90.8647510409
 20
85.007211661
 10
90.8575847689
 20
85.0074070617
 10
90.8492634758
 20
85.0075878349
 10
90.8295638615
 20
85.0079019167
  0
LWPOLYLINE
  5
268
100
AcDbEntity
  8
ASSI
100
AcDbPolyline
 62
7
  6
CONTINUOUS
 90
10
 70
0
 10
85.4739914508
 20
85.2800635205
 10
85.4933043176
 20
85.261770838
 10
85.5140271047
 20
85.2408291781
 10
85.536159812
 20
85.2178951593
 10
85.5600012019
 20
85.1937569852
 10
85.585252512
 20
85.1688292757
 10
85.6110174557
 20
85.1430375156
 10
85.6369972708
 20
85.1165661044
 10
85.6634907195
 20
85.0899608741
 10
85.6904978018
 20
85.0635571695
  0
LWPOLYLINE
  5
269
100
AcDbEntity
  8
ASSI
100
AcDbPolyline
 62
7
  6
CONTINUOUS
 90
10
 70
0
 10
85.4739914508
 20
132.5357259532
 10
85.4922841333
 20
132.55503882
 10
85.5132257932
 20
132.5757616071
 10
85.536159812
 20
132.5978943144
 10
85.5602979861
 20
132.6217357043
 10
85.5852256956
 20
132.6469870144
 10
85.6110174557
 20
132.6727519581
 10
85.6374888669
 20
132.6987317732
 10
85.6640940972
 20
132.7252252219
 10
85.6904978018
 20
132.7522323041
  0
LINE
  5
26A
100
AcDbEntity
  8
ASSI
100
AcDbLine
 62
253
  6
CONTINUOUS
 10
87.3142314251
 20
133.3947272799
 11
87.327398882
 21
133.4078947368
  0
LINE
  5
26B
100
AcDbEntity
  8
ASSI
100
AcDbLine
 62
253
  6
CONTINUOUS
 10
87.5142009641
 20
133.1947577409
 11
87.5273684211
 21
133.2079251978
  0
LINE
  5
26C
100
AcDbEntity
  8
ASSI
100
AcDbLine
 62
7
  6
CONTINUOUS
 10
86.2273684211
 20
131.3078947368
 11
86.2142009641
 21
131.2947272799
  0
LINE
  5
26D
100
AcDbEntity
  8
RACCORDO
100
AcDbLine
 62
7
  6
CONTINUOUS
 10
85.9273684211
 20
129.7578947368
 11
84.1630656406
 21
127.9935919564
  0
LINE
  5
26E
100
AcDbEntity
  8
0
100
AcDbLine
 62
7
  6
CONTINUOUS
 10
85.9273684211
 20
129.7578947368
 11
84.1630656406
 21
127.9935919564
  0
LINE
  5
26F
100
AcDbEntity
  8
ASSI
100
AcDbLine
 62
7
  6
CONTINUOUS
 10
84.1630656406
 20
127.9935919564
 11
83.644823486
 21
127.4753498018
  0
LINE
  5
270
100
AcDbEntity
  8
ASSI
100
AcDbLine
 62
7
  6
CONTINUOUS
 10
87.4722550109
 20
131.2904396719
 11
86.494823486
 21
130.313008147
  0
LINE
  5
271
100
AcDbEntity
  8
ASSI
100
AcDbLine
 62
7
  6
CONTINUOUS
 10
83.9891187011
 20
127.7949598274
 11
83.6622785509
 21
127.4681196771
  0
LINE
  5
272
100
AcDbEntity
  8
ASSI
100
AcDbLine
 62
7
  6
CONTINUOUS
 10
86.6868292002
 20
129.8951634148
 11
86.494823486
 21
129.7991678691
  0
LWPOLYLINE
  5
273
100
AcDbEntity
  8
ASSI
100
AcDbPolyline
 62
7
  6
CONTINUOUS
 90
5
 70
0
 10
91.1670836749
 20
131.2100763104
 10
91.1650093927
 20
131.2093622061
 10
91.1588522712
 20
131.2086659063
 10
91.1486123103
 20
131.2079874111
 10
91.1340507159
 20
131.2073176573
  0
LINE
  5
274
100
AcDbEntity
  8
ASSI
100
AcDbLine
 62
7
  6
CONTINUOUS
 10
86.6862597134
 20
130.3690888291
 11
86.494823486
 21
130.313008147
  0
LINE
  5
275
100
AcDbEntity
  8
ASSI
100
AcDbLine
 62
7
  6
CONTINUOUS
 10
95.5273684211
 20
86.5078947368
 11
95.5445043153
 21
86.509608154
  0
LWPOLYLINE
  5
276
100
AcDbEntity
  8
ASSI
100
AcDbPolyline
 62
7
  6
CONTINUOUS
 90
16
 70
0
 10
105.3273684856
 20
86.5078948072
 10
105.3792646189
 20
86.5105758727
 10
105.4308103254
 20
86.5186732653
 10
105.4814342046
 20
86.5321655983
 10
105.5307432925
 20
86.5510506224
 10
105.5779705556
 20
86.5751408489
 10
105.6220764178
 20
86.6038775866
 10
105.662304717
 20
86.6365446521
 10
105.6986827073
 20
86.672924909
 10
105.7313484401
 20
86.7131548558
 10
105.760084942
 20
86.757262565
 10
105.7841758396
 20
86.804491125
 10
105.8030640563
 20
86.8537967808
 10
105.8165633527
 20
86.904410918
 10
105.8246717092
 20
86.9559419372
 10
105.8273684211
 20
87.0078185844
  0
LWPOLYLINE
  5
277
100
AcDbEntity
  8
ASSI
100
AcDbPolyline
 62
7
  6
CONTINUOUS
 90
3
 70
0
 10
98.3207194387
 20
86.6084727568
 10
98.3394041362
 20
86.6091256812
 10
98.3614436432
 20
86.6097332177
  0
LINE
  5
278
100
AcDbEntity
  8
ASSI
100
AcDbLine
 62
7
  6
CONTINUOUS
 10
98.3614436432
 20
86.6097332177
 11
98.4154325899
 21
86.6108010337
  0
LINE
  5
279
100
AcDbEntity
  8
ASSI
100
AcDbLine
 62
253
  6
CONTINUOUS
 10
97.7845634871
 20
87.6956896775
 11
98.0345254109
 21
87.7000527791
  0
LINE
  5
27A
100
AcDbEntity
  8
ASSI
100
AcDbLine
 62
7
  6
CONTINUOUS
 10
90.453371131
 20
86.6098363238
 11
90.5084818026
 21
86.6108865251
  0
LINE
  5
27B
100
AcDbEntity
  8
ASSI
100
AcDbLine
 62
7
  6
CONTINUOUS
 10
98.4154325899
 20
86.6108010337
 11
98.4817037424
 21
86.6116555468
  0
LINE
  5
27C
100
AcDbEntity
  8
ASSI
100
AcDbLine
 62
7
  6
CONTINUOUS
 10
90.5084818026
 20
86.6108865251
 11
90.5756397121
 21
86.6117193992
  0
LINE
  5
27D
100
AcDbEntity
  8
ASSI
100
AcDbLine
 62
7
  6
CONTINUOUS
 10
98.4817037424
 20
86.6116555468
 11
98.5580929505
 21
86.6122690755
  0
LINE
  5
27E
100
AcDbEntity
  8
ASSI
100
AcDbLine
 62
7
  6
CONTINUOUS
 10
90.5756397121
 20
86.6117193992
 11
90.6526538977
 21
86.6123082081
  0
LINE
  5
27F
100
AcDbEntity
  8
ASSI
100
AcDbLine
 62
7
  6
CONTINUOUS
 10
98.5580929505
 20
86.6122690755
 11
98.6389117214
 21
86.6125804242
  0
LINE
  5
280
100
AcDbEntity
  8
ASSI
100
AcDbLine
 62
7
  6
CONTINUOUS
 10
90.6526538977
 20
86.6123082081
 11
90.7337576704
 21
86.612593555
  0
LINE
  5
281
100
AcDbEntity
  8
ASSI
100
AcDbLine
 62
7
  6
CONTINUOUS
 10
84.1273684211
 20
86.5078947369
 11
85.4273684211
 21
86.5078947368
  0
LINE
  5
282
100
AcDbEntity
  8
ASSI
100
AcDbLine
 62
7
  6
CONTINUOUS
 10
86.2273684211
 20
86.5078947368
 11
90.2773684211
 21
86.5078947368
  0
LINE
  5
283
100
AcDbEntity
  8
ASSI
100
AcDbLine
 62
7
  6
CONTINUOUS
 10
99.1773684211
 20
86.5078947368
 11
103.2273684211
 21
86.5078947368
  0
LINE
  5
284
100
AcDbEntity
  8
ASSI
100
AcDbLine
 62
7
  6
CONTINUOUS
 10
104.0273684211
 20
86.5078947368
 11
105.3273684856
 21
86.5078948014
  0
LINE
  5
285
100
AcDbEntity
  8
ASSI
100
AcDbLine
 62
7
  6
CONTINUOUS
 10
93.9102325268
 20
86.509608154
 11
95.5445043153
 21
86.509608154
  0
LINE
  5
286
100
AcDbEntity
  8
ASSI
100
AcDbLine
 62
7
  6
CONTINUOUS
 10
84.1447473336
 20
86.5253498018
 11
85.6904978018
 21
86.5253498018
  0
LINE
  5
287
100
AcDbEntity
  8
ASSI
100
AcDbLine
 62
7
  6
CONTINUOUS
 10
85.9642390403
 20
86.5253498018
 11
87.4722550109
 21
86.5253498018
  0
LINE
  5
288
100
AcDbEntity
  8
ASSI
100
AcDbLine
 62
7
  6
CONTINUOUS
 10
101.9824818312
 20
86.5253498018
 11
103.4904978018
 21
86.5253498018
  0
LINE
  5
289
100
AcDbEntity
  8
ASSI
100
AcDbLine
 62
7
  6
CONTINUOUS
 10
103.7642390403
 20
86.5253498018
 11
105.3099895085
 21
86.5253498018
  0
LINE
  5
28A
100
AcDbEntity
  8
ASSI
100
AcDbLine
 62
253
  6
CONTINUOUS
 10
87.4210316682
 20
86.7002050839
 11
91.4071221264
 21
86.7002050839
  0
LINE
  5
28B
100
AcDbEntity
  8
ASSI
100
AcDbLine
 62
253
  6
CONTINUOUS
 10
98.0476147157
 20
86.7002050839
 11
102.0337051739
 21
86.7002050839
  0
LINE
  5
28C
100
AcDbEntity
  8
ASSI
100
AcDbLine
 62
7
  6
CONTINUOUS
 10
97.7930779795
 20
87.2078947368
 11
91.6616588626
 21
87.2078947368
  0
LINE
  5
28D
100
AcDbEntity
  8
ASSI
100
AcDbLine
 62
253
  6
CONTINUOUS
 10
86.6868292002
 20
87.7000527791
 11
91.4202114312
 21
87.7000527791
  0
LINE
  5
28E
100
AcDbEntity
  8
ASSI
100
AcDbLine
 62
253
  6
CONTINUOUS
 10
98.0345254109
 20
87.7000527791
 11
102.7679076419
 21
87.7000527791
  0
LINE
  5
28F
100
AcDbEntity
  8
ASSI
100
AcDbLine
 62
7
  6
CONTINUOUS
 10
101.314637099
 20
87.8333440876
 11
99.8528177718
 21
87.8333440876
  0
LINE
  5
290
100
AcDbEntity
  8
ASSI
100
AcDbLine
 62
7
  6
CONTINUOUS
 10
89.6019190703
 20
87.8333440876
 11
88.1400997431
 21
87.8333440876
  0
LINE
  5
291
100
AcDbEntity
  8
ASSI
100
AcDbLine
 62
7
  6
CONTINUOUS
 10
102.7679076419
 20
87.9206260589
 11
101.9400997431
 21
87.9206260589
  0
LINE
  5
292
100
AcDbEntity
  8
ASSI
100
AcDbLine
 62
7
  6
CONTINUOUS
 10
87.514637099
 20
87.9206260589
 11
86.6868292002
 21
87.9206260589
  0
LINE
  5
293
100
AcDbEntity
  8
ASSI
100
AcDbLine
 62
7
  6
CONTINUOUS
 10
98.6389117214
 20
86.6125804242
 11
98.7210151203
 21
86.6125935417
  0
LINE
  5
294
100
AcDbEntity
  8
ASSI
100
AcDbLine
 62
7
  6
CONTINUOUS
 10
90.7337576704
 20
86.612593555
 11
90.8158406389
 21
86.6125804452
  0
LINE
  5
295
100
AcDbEntity
  8
ASSI
100
AcDbLine
 62
7
  6
CONTINUOUS
 10
98.7210151203
 20
86.6125935417
 11
98.8021025157
 21
86.6123081009
  0
LINE
  5
296
100
AcDbEntity
  8
ASSI
100
AcDbLine
 62
7
  6
CONTINUOUS
 10
90.8158406389
 20
86.6125804452
 11
90.896605081
 21
86.6122693017
  0
LINE
  5
297
100
AcDbEntity
  8
ASSI
100
AcDbLine
 62
7
  6
CONTINUOUS
 10
98.8021025157
 20
86.6123081009
 11
98.8791003587
 21
86.6117194357
  0
LINE
  5
298
100
AcDbEntity
  8
ASSI
100
AcDbLine
 62
7
  6
CONTINUOUS
 10
90.896605081
 20
86.6122693017
 11
90.9729534314
 21
86.6116564425
  0
LINE
  5
299
100
AcDbEntity
  8
ASSI
100
AcDbLine
 62
7
  6
CONTINUOUS
 10
98.8791003587
 20
86.6117194357
 11
98.9462754623
 21
86.6108860345
  0
LINE
  5
29A
100
AcDbEntity
  8
ASSI
100
AcDbLine
 62
7
  6
CONTINUOUS
 10
90.9729534314
 20
86.6116564425
 11
91.0392282393
 21
86.6108021159
  0
LINE
  5
29B
100
AcDbEntity
  8
ASSI
100
AcDbLine
 62
253
  6
CONTINUOUS
 10
91.670173355
 20
87.6956896775
 11
91.4202114312
 21
87.7000527825
  0
LWPOLYLINE
  5
29C
100
AcDbEntity
  8
ASSI
100
AcDbPolyline
 62
7
  6
CONTINUOUS
 90
8
 70
0
 10
98.9462754623
 20
86.6108860345
 10
99.0014235447
 20
86.6098349651
 10
99.0241004413
 20
86.6092346733
 10
99.0434630838
 20
86.6085880528
 10
99.0587529205
 20
86.6079221789
 10
99.0697171009
 20
86.607246077
 10
99.0766084756
 20
86.6065507218
 10
99.0794270445
 20
86.6058361134
  0
LWPOLYLINE
  5
29D
100
AcDbEntity
  8
ASSI
100
AcDbPolyline
 62
7
  6
CONTINUOUS
 90
7
 70
0
 10
91.0392282393
 20
86.6108021159
 10
91.0932563298
 20
86.6097341179
 10
91.1152961689
 20
86.6091270874
 10
91.1339748647
 20
86.6084748593
 10
91.1485656408
 20
86.6078046328
 10
91.1588262385
 20
86.6071254746
 10
91.1649989166
 20
86.6064283181
  0
LWPOLYLINE
  5
29E
100
AcDbEntity
  8
ASSI
100
AcDbPolyline
 62
7
  6
CONTINUOUS
 90
16
 70
0
 10
84.1273684211
 20
86.5078950011
 10
84.0754669589
 20
86.5105747475
 10
84.0239155156
 20
86.5186742184
 10
83.9732858516
 20
86.5321710294
 10
83.9239702525
 20
86.5510616756
 10
83.8767367954
 20
86.5751581224
 10
83.832627652
 20
86.6039014916
 10
83.7923980585
 20
86.6365751852
 10
83.7560208247
 20
86.6729609988
 10
83.7233604878
 20
86.7131931344
 10
83.6946335047
 20
86.757293781
 10
83.6705512929
 20
86.8045096827
 10
83.6516683834
 20
86.8538103843
 10
83.6381718604
 20
86.9044335301
 10
83.6300647039
 20
86.955984946
 10
83.6273684211
 20
87.007894972
  0
LWPOLYLINE
  5
29F
100
AcDbEntity
  8
ASSI
100
AcDbPolyline
 62
7
  6
CONTINUOUS
 90
16
 70
0
 10
98.0485928062
 20
86.6441703188
 10
98.0236373511
 20
86.6458975599
 10
97.9989019916
 20
86.6500811957
 10
97.974565075
 20
86.6567286805
 10
97.9506281874
 20
86.665962402
 10
97.9273902303
 20
86.6776733717
 10
97.9054897449
 20
86.6915235519
 10
97.8851890631
 20
86.7075009902
 10
97.8665081059
 20
86.7256327719
 10
97.8497378483
 20
86.7456409602
 10
97.8348766287
 20
86.7678612419
 10
97.8221067133
 20
86.7919689219
 10
97.811990145
 20
86.8166955896
 10
97.8047526873
 20
86.8416210386
 10
97.80027109
 20
86.8671723353
 10
97.7985683598
 20
86.8933510608
  0
LINE
  5
2A0
100
AcDbEntity
  8
ASSI
100
AcDbLine
 62
7
  6
CONTINUOUS
 10
93.9273684211
 20
86.5078947368
 11
93.9102325268
 21
86.509608154
  0
LINE
  5
2A1
100
AcDbEntity
  8
ASSI
100
AcDbLine
 62
7
  6
CONTINUOUS
 10
86.6862597134
 20
87.4467006446
 11
86.494823486
 21
87.5027813267
  0
LINE
  5
2A2
100
AcDbEntity
  8
ASSI
100
AcDbLine
 62
7
  6
CONTINUOUS
 10
91.1649989166
 20
86.6064283181
 11
91.1670836749
 21
86.6057131633
  0
LINE
  5
2A3
100
AcDbEntity
  8
ASSI
100
AcDbLine
 62
7
  6
CONTINUOUS
 10
86.6868292002
 20
87.9206260589
 11
86.494823486
 21
88.0166216046
  0
LINE
  5
2A4
100
AcDbEntity
  8
ASSI
100
AcDbLine
 62
253
  6
CONTINUOUS
 10
87.327398882
 20
84.4078947368
 11
87.3142313749
 21
84.421062244
  0
LINE
  5
2A5
100
AcDbEntity
  8
ASSI
100
AcDbLine
 62
253
  6
CONTINUOUS
 10
87.5273684211
 20
84.6078642759
 11
87.5142009641
 21
84.6210317328
  0
LINE
  5
2A6
100
AcDbEntity
  8
ASSI
100
AcDbLine
 62
7
  6
CONTINUOUS
 10
86.2273684211
 20
86.5078947368
 11
86.2142009641
 21
86.5210621938
  0
LINE
  5
2A7
100
AcDbEntity
  8
ASSI
100
AcDbLine
 62
7
  6
CONTINUOUS
 10
83.644823486
 20
90.3404396719
 11
84.1630656406
 21
89.8221975173
  0
LINE
  5
2A8
100
AcDbEntity
  8
RACCORDO
100
AcDbLine
 62
7
  6
CONTINUOUS
 10
84.1630656406
 20
89.8221975173
 11
85.9273684211
 21
88.0578947368
  0
LINE
  5
2A9
100
AcDbEntity
  8
0
100
AcDbLine
 62
7
  6
CONTINUOUS
 10
84.1630656406
 20
89.8221975173
 11
85.9273684211
 21
88.0578947368
  0
LINE
  5
2AA
100
AcDbEntity
  8
ASSI
100
AcDbLine
 62
7
  6
CONTINUOUS
 10
86.494823486
 20
87.5027813267
 11
87.4722550109
 21
86.5253498018
  0
LINE
  5
2AB
100
AcDbEntity
  8
ASSI
100
AcDbLine
 62
7
  6
CONTINUOUS
 10
83.6622785509
 20
90.3476697965
 11
83.9891187011
 21
90.0208296463
  0
LWPOLYLINE
  5
2AC
100
AcDbEntity
  8
RACCORDO
100
AcDbPolyline
 62
253
  6
CONTINUOUS
 90
37
 70
0
 10
84.554365781
 20
127.8315130351
 10
84.5238570335
 20
127.8003275639
 10
84.4940360588
 20
127.7684843621
 10
84.4649170248
 20
127.7359986008
 10
84.4365138614
 20
127.7028858731
 10
84.408839959
 20
127.6691618399
 10
84.3819081873
 20
127.6348422021
 10
84.3557312558
 20
127.5999431442
 10
84.3303217311
 20
127.5644814088
 10
84.3056917489
 20
127.5284739308
 10
84.281853045
 20
127.4919378754
 10
84.2588169368
 20
127.454890598
 10
84.2365943665
 20
127.4173496972
 10
84.215195906
 20
127.3793330349
 10
84.1946317353
 20
127.3408587
 10
84.1749116244
 20
127.3019449695
 10
84.1560449496
 20
127.2626103421
 10
84.1380406962
 20
127.2228735476
 10
84.1209074391
 20
127.1827535096
 10
84.1046533304
 20
127.1422693169
 10
84.0892861033
 20
127.1014402314
 10
84.0748130753
 20
127.060285697
 10
84.0612411368
 20
127.0188253112
 10
84.0485767383
 20
126.9770787848
 10
84.0368258949
 20
126.9350659491
 10
84.0259941991
 20
126.8928067929
 10
84.0160868057
 20
126.8503214225
 10
84.0071084219
 20
126.8076300201
 10
83.9990633172
 20
126.7647528611
 10
83.9919553307
 20
126.7217103811
 10
83.9857878558
 20
126.6785231355
 10
83.9805638431
 20
126.6352118289
 10
83.976285753
 20
126.5917969127
 10
83.9729555912
 20
126.5482986492
 10
83.9705749605
 20
126.5047376008
 10
83.9691450309
 20
126.4611346237
 10
83.9686665082
 20
126.4175104636
  0
LWPOLYLINE
  5
2AD
100
AcDbEntity
  8
0
100
AcDbPolyline
 62
253
  6
CONTINUOUS
 90
37
 70
0
 10
84.554365781
 20
127.8315130351
 10
84.5238570335
 20
127.8003275639
 10
84.4940360588
 20
127.7684843621
 10
84.4649170248
 20
127.7359986008
 10
84.4365138614
 20
127.7028858731
 10
84.408839959
 20
127.6691618399
 10
84.3819081873
 20
127.6348422021
 10
84.3557312558
 20
127.5999431442
 10
84.3303217311
 20
127.5644814088
 10
84.3056917489
 20
127.5284739308
 10
84.281853045
 20
127.4919378754
 10
84.2588169368
 20
127.454890598
 10
84.2365943665
 20
127.4173496972
 10
84.215195906
 20
127.3793330349
 10
84.1946317353
 20
127.3408587
 10
84.1749116244
 20
127.3019449695
 10
84.1560449496
 20
127.2626103421
 10
84.1380406962
 20
127.2228735476
 10
84.1209074391
 20
127.1827535096
 10
84.1046533304
 20
127.1422693169
 10
84.0892861033
 20
127.1014402314
 10
84.0748130753
 20
127.060285697
 10
84.0612411368
 20
127.0188253112
 10
84.0485767383
 20
126.9770787848
 10
84.0368258949
 20
126.9350659491
 10
84.0259941991
 20
126.8928067929
 10
84.0160868057
 20
126.8503214225
 10
84.0071084219
 20
126.8076300201
 10
83.9990633172
 20
126.7647528611
 10
83.9919553307
 20
126.7217103811
 10
83.9857878558
 20
126.6785231355
 10
83.9805638431
 20
126.6352118289
 10
83.976285753
 20
126.5917969127
 10
83.9729555912
 20
126.5482986492
 10
83.9705749605
 20
126.5047376008
 10
83.9691450309
 20
126.4611346237
 10
83.9686665082
 20
126.4175104636
  0
LWPOLYLINE
  5
2AE
100
AcDbEntity
  8
RACCORDO
100
AcDbPolyline
 62
253
  6
CONTINUOUS
 90
37
 70
0
 10
85.2613628132
 20
127.1245118963
 10
85.2460984677
 20
127.108909993
 10
85.2311911504
 20
127.0929937676
 10
85.2166408614
 20
127.0767632201
 10
85.2024407968
 20
127.0602101081
 10
85.1885977604
 20
127.043342674
 10
85.1751321642
 20
127.0261856454
 10
85.162044761
 20
127.0087388225
 10
85.149334798
 20
126.9910024052
 10
85.1370204281
 20
126.9730017201
 10
85.1251022281
 20
126.9547364042
 10
85.1135796211
 20
126.9362068206
 10
85.1024690302
 20
126.9174393855
 10
85.0917710414
 20
126.8984337605
 10
85.0814850688
 20
126.879190284
 10
85.0716257764
 20
126.8597363883
 10
85.0621937693
 20
126.8400717653
 10
85.0531884426
 20
126.8201967231
 10
85.0446226458
 20
126.8001396173
 10
85.0364970065
 20
126.7799001869
 10
85.0288108972
 20
126.7594786931
 10
85.0215752845
 20
126.7389042747
 10
85.0147908137
 20
126.7181767216
 10
85.0084568395
 20
126.6972962439
 10
85.0025823916
 20
126.6762926117
 10
84.9971681246
 20
126.6551656506
 10
84.9922133839
 20
126.6339155349
 10
84.9877252356
 20
126.6125725572
 10
84.9837043438
 20
126.5911365668
 10
84.9801500444
 20
126.5696077143
 10
84.9770674113
 20
126.5480167443
 10
84.9744571192
 20
126.5263633544
 10
84.9723184933
 20
126.5046478469
 10
84.9706545839
 20
126.4829018737
 10
84.9694664074
 20
126.4611359852
 10
84.9687529473
 20
126.439339631
 10
84.9685142035
 20
126.4175128109
  0
LWPOLYLINE
  5
2AF
100
AcDbEntity
  8
0
100
AcDbPolyline
 62
253
  6
CONTINUOUS
 90
37
 70
0
 10
85.2613628132
 20
127.1245118963
 10
85.2460984677
 20
127.108909993
 10
85.2311911504
 20
127.0929937676
 10
85.2166408614
 20
127.0767632201
 10
85.2024407968
 20
127.0602101081
 10
85.1885977604
 20
127.043342674
 10
85.1751321642
 20
127.0261856454
 10
85.162044761
 20
127.0087388225
 10
85.149334798
 20
126.9910024052
 10
85.1370204281
 20
126.9730017201
 10
85.1251022281
 20
126.9547364042
 10
85.1135796211
 20
126.9362068206
 10
85.1024690302
 20
126.9174393855
 10
85.0917710414
 20
126.8984337605
 10
85.0814850688
 20
126.879190284
 10
85.0716257764
 20
126.8597363883
 10
85.0621937693
 20
126.8400717653
 10
85.0531884426
 20
126.8201967231
 10
85.0446226458
 20
126.8001396173
 10
85.0364970065
 20
126.7799001869
 10
85.0288108972
 20
126.7594786931
 10
85.0215752845
 20
126.7389042747
 10
85.0147908137
 20
126.7181767216
 10
85.0084568395
 20
126.6972962439
 10
85.0025823916
 20
126.6762926117
 10
84.9971681246
 20
126.6551656506
 10
84.9922133839
 20
126.6339155349
 10
84.9877252356
 20
126.6125725572
 10
84.9837043438
 20
126.5911365668
 10
84.9801500444
 20
126.5696077143
 10
84.9770674113
 20
126.5480167443
 10
84.9744571192
 20
126.5263633544
 10
84.9723184933
 20
126.5046478469
 10
84.9706545839
 20
126.4829018737
 10
84.9694664074
 20
126.4611359852
 10
84.9687529473
 20
126.439339631
 10
84.9685142035
 20
126.4175128109
  0
LINE
  5
2B0
100
AcDbEntity
  8
RACCORDO
100
AcDbLine
 62
7
  6
CONTINUOUS
 10
84.6423508757
 20
128.226025296
 11
86.1742203166
 21
129.7578947368
  0
LINE
  5
2B1
100
AcDbEntity
  8
0
100
AcDbLine
 62
7
  6
CONTINUOUS
 10
84.6423508757
 20
128.226025296
 11
86.1742203166
 21
129.7578947368
  0
LINE
  5
2B2
100
AcDbEntity
  8
RACCORDO
100
AcDbLine
 62
253
  6
CONTINUOUS
 10
84.7321306041
 20
128.009277858
 11
84.5543657812
 21
127.8315130351
  0
LINE
  5
2B3
100
AcDbEntity
  8
0
100
AcDbLine
 62
253
  6
CONTINUOUS
 10
84.7321306041
 20
128.009277858
 11
84.5543657812
 21
127.8315130351
  0
LINE
  5
2B4
100
AcDbEntity
  8
ASSI
100
AcDbLine
 62
7
  6
CONTINUOUS
 10
87.349010272
 20
129.7295365878
 11
87.514637099
 21
129.8951634148
  0
LINE
  5
2B5
100
AcDbEntity
  8
RACCORDO
100
AcDbLine
 62
253
  6
CONTINUOUS
 10
85.4391296895
 20
127.3022787726
 11
85.2613628132
 21
127.1245118963
  0
LINE
  5
2B6
100
AcDbEntity
  8
0
100
AcDbLine
 62
253
  6
CONTINUOUS
 10
85.4391296895
 20
127.3022787726
 11
85.2613628132
 21
127.1245118963
  0
LINE
  5
2B7
100
AcDbEntity
  8
DRAFT
100
AcDbLine
 62
7
  6
CONTINUOUS
 10
87.3273684211
 20
128.6078947368
 11
87.2383475899
 21
128.5188739057
  0
LINE
  5
2B8
100
AcDbEntity
  8
0
100
AcDbLine
 62
7
  6
CONTINUOUS
 10
87.3273684211
 20
128.6078947368
 11
87.2383475899
 21
128.5188739057
  0
LINE
  5
2B9
100
AcDbEntity
  8
ASSI
100
AcDbLine
 62
7
  6
CONTINUOUS
 10
87.4273684211
 20
128.6078947368
 11
87.514637099
 21
128.6951634148
  0
LINE
  5
2BA
100
AcDbEntity
  8
ASSI
100
AcDbLine
 62
7
  6
CONTINUOUS
 10
89.6019190703
 20
128.9951634148
 11
89.268478483
 21
128.8284558182
  0
LWPOLYLINE
  5
2BB
100
AcDbEntity
  8
ASSI
100
AcDbPolyline
 62
7
  6
CONTINUOUS
 90
7
 70
0
 10
90.3753097976
 20
86.6058361134
 10
90.3781168947
 20
86.6065503096
 10
90.3850052419
 20
86.607245508
 10
90.3959748391
 20
86.6079217086
 10
90.4112858645
 20
86.6085881385
 10
90.43067814
 20
86.6092355706
 10
90.453371131
 20
86.6098363238
  0
LWPOLYLINE
  5
2BC
100
AcDbEntity
  8
RACCORDO
100
AcDbPolyline
 62
253
  6
CONTINUOUS
 90
31
 70
0
 10
104.0156071526
 20
89.513663006
 10
104.0417792128
 20
89.5140088207
 10
104.0679333417
 20
89.515039424
 10
104.0940516203
 20
89.5167541099
 10
104.1201161544
 20
89.5191517035
 10
104.1461090861
 20
89.5222305621
 10
104.1720126072
 20
89.5259885764
 10
104.1978089701
 20
89.5304231715
 10
104.2234805012
 20
89.5355313094
 10
104.249009612
 20
89.5413094901
 10
104.2743788118
 20
89.5477537549
 10
104.2995707194
 20
89.5548596887
 10
104.3245680751
 20
89.5626224229
 10
104.3493537524
 20
89.5710366391
 10
104.37391077
 20
89.5800965725
 10
104.398222303
 20
89.5897960157
 10
104.422271695
 20
89.6001283235
 10
104.446042469
 20
89.6110864169
 10
104.4695183388
 20
89.622662788
 10
104.4926832205
 20
89.6348495057
 10
104.5155212432
 20
89.6476382205
 10
104.5380167598
 20
89.6610201704
 10
104.5601543579
 20
89.6749861869
 10
104.5819188705
 20
89.6895267017
 10
104.603295386
 20
89.7046317526
 10
104.6242692588
 20
89.7202909906
 10
104.6448261189
 20
89.7364936871
 10
104.6649518823
 20
89.7532287412
 10
104.6846327603
 20
89.7704846872
 10
104.7038552688
 20
89.7882497025
 10
104.722606238
 20
89.8065116157
  0
LWPOLYLINE
  5
2BD
100
AcDbEntity
  8
0
100
AcDbPolyline
 62
253
  6
CONTINUOUS
 90
31
 70
0
 10
104.0156071526
 20
89.513663006
 10
104.0417792128
 20
89.5140088207
 10
104.0679333417
 20
89.515039424
 10
104.0940516203
 20
89.5167541099
 10
104.1201161544
 20
89.5191517035
 10
104.1461090861
 20
89.5222305621
 10
104.1720126072
 20
89.5259885764
 10
104.1978089701
 20
89.5304231715
 10
104.2234805012
 20
89.5355313094
 10
104.249009612
 20
89.5413094901
 10
104.2743788118
 20
89.5477537549
 10
104.2995707194
 20
89.5548596887
 10
104.3245680751
 20
89.5626224229
 10
104.3493537524
 20
89.5710366391
 10
104.37391077
 20
89.5800965725
 10
104.398222303
 20
89.5897960157
 10
104.422271695
 20
89.6001283235
 10
104.446042469
 20
89.6110864169
 10
104.4695183388
 20
89.622662788
 10
104.4926832205
 20
89.6348495057
 10
104.5155212432
 20
89.6476382205
 10
104.5380167598
 20
89.6610201704
 10
104.5601543579
 20
89.6749861869
 10
104.5819188705
 20
89.6895267017
 10
104.603295386
 20
89.7046317526
 10
104.6242692588
 20
89.7202909906
 10
104.6448261189
 20
89.7364936871
 10
104.6649518823
 20
89.7532287412
 10
104.6846327603
 20
89.7704846872
 10
104.7038552688
 20
89.7882497025
 10
104.722606238
 20
89.8065116157
  0
LINE
  5
2BE
100
AcDbEntity
  8
ASSI
100
AcDbLine
 62
7
  6
CONTINUOUS
 10
89.2691740729
 20
88.166089085
 11
88.3061344869
 21
88.1654388669
  0
LINE
  5
2BF
100
AcDbEntity
  8
ASSI
100
AcDbLine
 62
7
  6
CONTINUOUS
 10
85.8996771036
 20
88.0855860543
 11
85.3095749707
 21
88.0852812001
  0
LINE
  5
2C0
100
AcDbEntity
  8
ASSI
100
AcDbLine
 62
7
  6
CONTINUOUS
 10
87.349010272
 20
88.0862528859
 11
87.3273562848
 21
88.0862436157
  0
LINE
  5
2C1
100
AcDbEntity
  8
ASSI
100
AcDbLine
 62
7
  6
CONTINUOUS
 10
89.268478483
 20
88.9873336555
 11
92.2273712198
 21
88.9880061387
  0
LINE
  5
2C2
100
AcDbEntity
  8
ASSI
100
AcDbLine
 62
7
  6
CONTINUOUS
 10
85.1035543426
 20
88.0166216046
 11
86.494823486
 21
88.0166216046
  0
LINE
  5
2C3
100
AcDbEntity
  8
ASSI
100
AcDbLine
 62
7
  6
CONTINUOUS
 10
102.9599133561
 20
88.0166216046
 11
104.3511824995
 21
88.0166216046
  0
LINE
  5
2C4
100
AcDbEntity
  8
DRAFT
100
AcDbLine
 62
7
  6
CONTINUOUS
 10
85.9273684211
 20
88.0578947368
 11
87.3273684211
 21
88.0578947368
  0
LINE
  5
2C5
100
AcDbEntity
  8
0
100
AcDbLine
 62
7
  6
CONTINUOUS
 10
85.9273684211
 20
88.0578947368
 11
87.3273684211
 21
88.0578947368
  0
LINE
  5
2C6
100
AcDbEntity
  8
DRAFT
100
AcDbLine
 62
7
  6
CONTINUOUS
 10
102.1273684211
 20
88.0578947368
 11
103.5273684211
 21
88.0578947368
  0
LINE
  5
2C7
100
AcDbEntity
  8
0
100
AcDbLine
 62
7
  6
CONTINUOUS
 10
102.1273684211
 20
88.0578947368
 11
103.5273684211
 21
88.0578947368
  0
LINE
  5
2C8
100
AcDbEntity
  8
ASSI
100
AcDbLine
 62
7
  6
CONTINUOUS
 10
91.427330339
 20
88.1078947368
 11
98.0274065031
 21
88.1078947368
  0
LINE
  5
2C9
100
AcDbEntity
  8
ASSI
100
AcDbLine
 62
7
  6
CONTINUOUS
 10
89.6019190703
 20
88.8206260589
 11
99.8528177718
 21
88.8206260589
  0
LINE
  5
2CA
100
AcDbEntity
  8
ASSI
100
AcDbLine
 62
7
  6
CONTINUOUS
 10
97.2291053933
 20
88.8546486755
 11
97.1685653163
 21
88.8546486755
  0
LINE
  5
2CB
100
AcDbEntity
  8
ASSI
100
AcDbLine
 62
7
  6
CONTINUOUS
 10
92.2861715259
 20
88.8546486755
 11
92.2256314488
 21
88.8546486755
  0
LINE
  5
2CC
100
AcDbEntity
  8
ASSI
100
AcDbLine
 62
7
  6
CONTINUOUS
 10
98.2273684211
 20
88.9078947368
 11
97.2273684211
 21
88.9078947368
  0
LINE
  5
2CD
100
AcDbEntity
  8
ASSI
100
AcDbLine
 62
7
  6
CONTINUOUS
 10
92.2273684211
 20
88.9078947368
 11
91.2273684211
 21
88.9078947368
  0
LINE
  5
2CE
100
AcDbEntity
  8
DRAFT
100
AcDbLine
 62
7
  6
CONTINUOUS
 10
91.2273684211
 20
89.0078947368
 11
92.2273684211
 21
89.0078947368
  0
LINE
  5
2CF
100
AcDbEntity
  8
0
100
AcDbLine
 62
7
  6
CONTINUOUS
 10
91.2273684211
 20
89.0078947368
 11
92.2273684211
 21
89.0078947368
  0
LINE
  5
2D0
100
AcDbEntity
  8
DRAFT
100
AcDbLine
 62
7
  6
CONTINUOUS
 10
97.2273684211
 20
89.0078947368
 11
98.2273684211
 21
89.0078947368
  0
LINE
  5
2D1
100
AcDbEntity
  8
0
100
AcDbLine
 62
7
  6
CONTINUOUS
 10
97.2273684211
 20
89.0078947368
 11
98.2273684211
 21
89.0078947368
  0
LINE
  5
2D2
100
AcDbEntity
  8
RACCORDO
100
AcDbLine
 62
7
  6
CONTINUOUS
 10
93.1292510228
 20
89.0253498018
 11
96.3254858193
 21
89.0253498018
  0
LINE
  5
2D3
100
AcDbEntity
  8
0
100
AcDbLine
 62
7
  6
CONTINUOUS
 10
93.1292510228
 20
89.0253498018
 11
96.3254858193
 21
89.0253498018
  0
LINE
  5
2D4
100
AcDbEntity
  8
DRAFT
100
AcDbLine
 62
7
  6
CONTINUOUS
 10
91.3163892522
 20
89.096915568
 11
98.1383475899
 21
89.096915568
  0
LINE
  5
2D5
100
AcDbEntity
  8
0
100
AcDbLine
 62
7
  6
CONTINUOUS
 10
91.3163892522
 20
89.096915568
 11
98.1383475899
 21
89.096915568
  0
LINE
  5
2D6
100
AcDbEntity
  8
ASSI
100
AcDbLine
 62
7
  6
CONTINUOUS
 10
87.514637099
 20
89.1206260589
 11
88.1400997431
 21
89.1206260589
  0
LINE
  5
2D7
100
AcDbEntity
  8
ASSI
100
AcDbLine
 62
7
  6
CONTINUOUS
 10
101.314637099
 20
89.1206260589
 11
101.9400997431
 21
89.1206260589
  0
LINE
  5
2D8
100
AcDbEntity
  8
DRAFT
100
AcDbLine
 62
7
  6
CONTINUOUS
 10
87.3273684211
 20
89.2078947368
 11
91.2273684211
 21
89.2078947368
  0
LINE
  5
2D9
100
AcDbEntity
  8
0
100
AcDbLine
 62
7
  6
CONTINUOUS
 10
87.3273684211
 20
89.2078947368
 11
91.2273684211
 21
89.2078947368
  0
LINE
  5
2DA
100
AcDbEntity
  8
DRAFT
100
AcDbLine
 62
7
  6
CONTINUOUS
 10
98.2273684211
 20
89.2078947368
 11
102.1273684211
 21
89.2078947368
  0
LINE
  5
2DB
100
AcDbEntity
  8
0
100
AcDbLine
 62
7
  6
CONTINUOUS
 10
98.2273684211
 20
89.2078947368
 11
102.1273684211
 21
89.2078947368
  0
LINE
  5
2DC
100
AcDbEntity
  8
RACCORDO
100
AcDbLine
 62
7
  6
CONTINUOUS
 10
104.105386881
 20
89.296915568
 11
102.2163892522
 21
89.296915568
  0
LINE
  5
2DD
100
AcDbEntity
  8
0
100
AcDbLine
 62
7
  6
CONTINUOUS
 10
104.105386881
 20
89.296915568
 11
102.2163892522
 21
89.296915568
  0
LINE
  5
2DE
100
AcDbEntity
  8
RACCORDO
100
AcDbLine
 62
7
  6
CONTINUOUS
 10
87.2383475899
 20
89.296915568
 11
85.3493499611
 21
89.296915568
  0
LINE
  5
2DF
100
AcDbEntity
  8
0
100
AcDbLine
 62
7
  6
CONTINUOUS
 10
87.2383475899
 20
89.296915568
 11
85.3493499611
 21
89.296915568
  0
LINE
  5
2E0
100
AcDbEntity
  8
DRAFT
100
AcDbLine
 62
7
  6
CONTINUOUS
 10
91.3163892522
 20
89.296915568
 11
98.1383475899
 21
89.296915568
  0
LINE
  5
2E1
100
AcDbEntity
  8
0
100
AcDbLine
 62
7
  6
CONTINUOUS
 10
91.3163892522
 20
89.296915568
 11
98.1383475899
 21
89.296915568
  0
LINE
  5
2E2
100
AcDbEntity
  8
RACCORDO
100
AcDbLine
 62
253
  6
CONTINUOUS
 10
85.4391296895
 20
89.513663006
 11
104.0156071526
 21
89.513663006
  0
LINE
  5
2E3
100
AcDbEntity
  8
0
100
AcDbLine
 62
253
  6
CONTINUOUS
 10
85.4391296895
 20
89.513663006
 11
104.0156071526
 21
89.513663006
  0
LWPOLYLINE
  5
2E4
100
AcDbEntity
  8
ASSI
100
AcDbPolyline
 62
7
  6
CONTINUOUS
 90
3
 70
0
 10
97.2273656223
 20
88.9880061387
 10
98.9733814948
 20
88.9876750692
 10
100.1862583591
 20
88.9873336555
  0
LINE
  5
2E5
100
AcDbEntity
  8
ASSI
100
AcDbLine
 62
7
  6
CONTINUOUS
 10
102.1273805573
 20
88.0862436157
 11
102.1057265701
 21
88.0862528859
  0
LINE
  5
2E6
100
AcDbEntity
  8
ASSI
100
AcDbLine
 62
7
  6
CONTINUOUS
 10
104.1451618715
 20
88.0852812001
 11
103.5550597385
 21
88.0855860543
  0
LINE
  5
2E7
100
AcDbEntity
  8
ASSI
100
AcDbLine
 62
7
  6
CONTINUOUS
 10
101.1486023552
 20
88.1654388669
 11
100.1855627693
 21
88.166089085
  0
LINE
  5
2E8
100
AcDbEntity
  8
ASSI
100
AcDbLine
 62
7
  6
CONTINUOUS
 10
89.268478483
 20
88.9873336555
 11
89.6019190703
 21
88.8206260589
  0
LWPOLYLINE
  5
2E9
100
AcDbEntity
  8
RACCORDO
100
AcDbPolyline
 62
253
  6
CONTINUOUS
 90
31
 70
0
 10
84.7321306041
 20
89.8065116157
 10
84.7508815733
 20
89.7882497025
 10
84.7701040818
 20
89.7704846872
 10
84.7897849598
 20
89.7532287412
 10
84.8099107232
 20
89.7364936871
 10
84.8304675833
 20
89.7202909906
 10
84.8514414561
 20
89.7046317526
 10
84.8728179716
 20
89.6895267017
 10
84.8945824842
 20
89.6749861869
 10
84.9167200823
 20
89.6610201704
 10
84.9392155989
 20
89.6476382205
 10
84.9620536216
 20
89.6348495057
 10
84.9852185033
 20
89.622662788
 10
85.0086943731
 20
89.6110864169
 10
85.0324651471
 20
89.6001283235
 10
85.0565145391
 20
89.5897960157
 10
85.0808260721
 20
89.5800965725
 10
85.1053830897
 20
89.5710366391
 10
85.130168767
 20
89.5626224229
 10
85.1551661227
 20
89.5548596887
 10
85.1803580303
 20
89.5477537549
 10
85.2057272301
 20
89.5413094901
 10
85.2312563409
 20
89.5355313094
 10
85.256927872
 20
89.5304231715
 10
85.282724235
 20
89.5259885764
 10
85.308627756
 20
89.5222305621
 10
85.3346206877
 20
89.5191517035
 10
85.3606852218
 20
89.5167541099
 10
85.3868035004
 20
89.515039424
 10
85.4129576294
 20
89.5140088207
 10
85.4391296895
 20
89.513663006
  0
LWPOLYLINE
  5
2EA
100
AcDbEntity
  8
0
100
AcDbPolyline
 62
253
  6
CONTINUOUS
 90
31
 70
0
 10
84.7321306041
 20
89.8065116157
 10
84.7508815733
 20
89.7882497025
 10
84.7701040818
 20
89.7704846872
 10
84.7897849598
 20
89.7532287412
 10
84.8099107232
 20
89.7364936871
 10
84.8304675833
 20
89.7202909906
 10
84.8514414561
 20
89.7046317526
 10
84.8728179716
 20
89.6895267017
 10
84.8945824842
 20
89.6749861869
 10
84.9167200823
 20
89.6610201704
 10
84.9392155989
 20
89.6476382205
 10
84.9620536216
 20
89.6348495057
 10
84.9852185033
 20
89.622662788
 10
85.0086943731
 20
89.6110864169
 10
85.0324651471
 20
89.6001283235
 10
85.0565145391
 20
89.5897960157
 10
85.0808260721
 20
89.5800965725
 10
85.1053830897
 20
89.5710366391
 10
85.130168767
 20
89.5626224229
 10
85.1551661227
 20
89.5548596887
 10
85.1803580303
 20
89.5477537549
 10
85.2057272301
 20
89.5413094901
 10
85.2312563409
 20
89.5355313094
 10
85.256927872
 20
89.5304231715
 10
85.282724235
 20
89.5259885764
 10
85.308627756
 20
89.5222305621
 10
85.3346206877
 20
89.5191517035
 10
85.3606852218
 20
89.5167541099
 10
85.3868035004
 20
89.515039424
 10
85.4129576294
 20
89.5140088207
 10
85.4391296895
 20
89.513663006
  0
LINE
  5
2EB
100
AcDbEntity
  8
RACCORDO
100
AcDbLine
 62
7
  6
CONTINUOUS
 10
86.1742203166
 20
88.0578947368
 11
84.6423508757
 21
89.5897641777
  0
LINE
  5
2EC
100
AcDbEntity
  8
0
100
AcDbLine
 62
7
  6
CONTINUOUS
 10
86.1742203166
 20
88.0578947368
 11
84.6423508757
 21
89.5897641777
  0
LINE
  5
2ED
100
AcDbEntity
  8
RACCORDO
100
AcDbLine
 62
253
  6
CONTINUOUS
 10
84.5543657812
 20
89.9842764386
 11
84.7321306041
 21
89.8065116157
  0
LINE
  5
2EE
100
AcDbEntity
  8
0
100
AcDbLine
 62
253
  6
CONTINUOUS
 10
84.5543657812
 20
89.9842764386
 11
84.7321306041
 21
89.8065116157
  0
LINE
  5
2EF
100
AcDbEntity
  8
ASSI
100
AcDbLine
 62
7
  6
CONTINUOUS
 10
87.514637099
 20
87.9206260589
 11
87.349010272
 21
88.0862528859
  0
LINE
  5
2F0
100
AcDbEntity
  8
RACCORDO
100
AcDbLine
 62
253
  6
CONTINUOUS
 10
85.2613628132
 20
90.6912775774
 11
85.4391296895
 21
90.5135107011
  0
LINE
  5
2F1
100
AcDbEntity
  8
0
100
AcDbLine
 62
253
  6
CONTINUOUS
 10
85.2613628132
 20
90.6912775774
 11
85.4391296895
 21
90.5135107011
  0
LINE
  5
2F2
100
AcDbEntity
  8
DRAFT
100
AcDbLine
 62
7
  6
CONTINUOUS
 10
87.3273684211
 20
89.2078947368
 11
87.2383475899
 21
89.296915568
  0
LINE
  5
2F3
100
AcDbEntity
  8
0
100
AcDbLine
 62
7
  6
CONTINUOUS
 10
87.3273684211
 20
89.2078947368
 11
87.2383475899
 21
89.296915568
  0
LINE
  5
2F4
100
AcDbEntity
  8
ASSI
100
AcDbLine
 62
7
  6
CONTINUOUS
 10
87.514637099
 20
89.1206260589
 11
87.4273684211
 21
89.2078947368
  0
LINE
  5
2F5
100
AcDbEntity
  8
ASSI
100
AcDbLine
 62
7
  6
CONTINUOUS
 10
89.6019190703
 20
129.9824453861
 11
89.2691740729
 21
129.6497003886
  0
LINE
  5
2F6
100
AcDbEntity
  8
ASSI
100
AcDbLine
 62
253
  6
CONTINUOUS
 10
93.6609952081
 20
132.8914834477
 11
93.6774064973
 21
132.9078947368
  0
LINE
  5
2F7
100
AcDbEntity
  8
ASSI
100
AcDbLine
 62
253
  6
CONTINUOUS
 10
93.9108428278
 20
132.6414072198
 11
93.9273684211
 21
132.6579328131
  0
LINE
  5
2F8
100
AcDbEntity
  8
ASSI
100
AcDbLine
 62
7
  6
CONTINUOUS
 10
104.1451618715
 20
129.7305082735
 11
104.3511824995
 21
129.7991678691
  0
LINE
  5
2F9
100
AcDbEntity
  8
RACCORDO
100
AcDbLine
 62
253
  6
CONTINUOUS
 10
85.4391296895
 20
90.5135107011
 11
104.0156071526
 21
90.5135107011
  0
LINE
  5
2FA
100
AcDbEntity
  8
0
100
AcDbLine
 62
253
  6
CONTINUOUS
 10
85.4391296895
 20
90.5135107011
 11
104.0156071526
 21
90.5135107011
  0
LINE
  5
2FB
100
AcDbEntity
  8
RACCORDO
100
AcDbLine
 62
253
  6
CONTINUOUS
 10
84.9685142035
 20
91.3982766628
 11
83.9686665083
 21
91.3982766628
  0
LINE
  5
2FC
100
AcDbEntity
  8
0
100
AcDbLine
 62
253
  6
CONTINUOUS
 10
84.9685142035
 20
91.3982766628
 11
83.9686665083
 21
91.3982766628
  0
LINE
  5
2FD
100
AcDbEntity
  8
RACCORDO
100
AcDbLine
 62
253
  6
CONTINUOUS
 10
104.4862226386
 20
91.3982766628
 11
105.4860703338
 21
91.3982766628
  0
LINE
  5
2FE
100
AcDbEntity
  8
0
100
AcDbLine
 62
253
  6
CONTINUOUS
 10
104.4862226386
 20
91.3982766628
 11
105.4860703338
 21
91.3982766628
  0
LINE
  5
2FF
100
AcDbEntity
  8
ASSI
100
AcDbLine
 62
7
  6
CONTINUOUS
 10
104.1451618715
 20
88.0852812001
 11
104.3511824995
 21
88.0166216046
  0
LINE
  5
300
100
AcDbEntity
  8
ASSI
100
AcDbLine
 62
7
  6
CONTINUOUS
 10
89.6019190703
 20
87.8333440876
 11
89.2691740729
 21
88.166089085
  0
LINE
  5
301
100
AcDbEntity
  8
ASSI
100
AcDbLine
 62
253
  6
CONTINUOUS
 10
93.6774064973
 20
84.9078947368
 11
93.6609952081
 21
84.924306026
  0
LINE
  5
302
100
AcDbEntity
  8
ASSI
100
AcDbLine
 62
253
  6
CONTINUOUS
 10
93.9273684211
 20
85.1578566606
 11
93.9108428278
 21
85.1743822539
  0
LWPOLYLINE
  5
303
100
AcDbEntity
  8
ASSI
100
AcDbPolyline
 62
253
  6
CONTINUOUS
 90
10
 70
0
 10
87.5142009641
 20
84.6210317328
 10
87.5141591893
 20
84.6211144594
 10
87.5141166169
 20
84.6213370216
 10
87.5140732468
 20
84.6216994194
 10
87.5140288204
 20
84.6221955575
 10
87.5139835964
 20
84.6228315312
 10
87.5139383507
 20
84.6236256265
 10
87.5138930623
 20
84.6245829435
 10
87.5138477521
 20
84.6256983822
 10
87.51380326
 20
84.626974928
  0
LINE
  5
304
100
AcDbEntity
  8
0
100
AcDbLine
 62
253
  6
CONTINUOUS
 10
105.5333066944
 20
92.8221810642
 11
105.5258270921
 21
92.8221810642
  0
LINE
  5
305
100
AcDbEntity
  8
INCISIONI
100
AcDbLine
 62
253
  6
CONTINUOUS
 10
105.750940272
 20
92.9078937355
 11
105.7556773534
 21
92.9078937355
  0
LINE
  5
306
100
AcDbEntity
  8
0
100
AcDbLine
 62
253
  6
CONTINUOUS
 10
105.6112315381
 20
92.9078947368
 11
105.5981299181
 21
92.9078947368
  0
LINE
  5
307
100
AcDbEntity
  8
0
100
AcDbLine
 62
253
  6
CONTINUOUS
 10
105.6870552316
 20
92.9078947368
 11
105.6739536116
 21
92.9078947368
  0
LINE
  5
308
100
AcDbEntity
  8
0
100
AcDbLine
 62
253
  6
CONTINUOUS
 10
105.7813655639
 20
92.9078947368
 11
105.7848840789
 21
92.9078947368
  0
LINE
  5
309
100
AcDbEntity
  8
0
100
AcDbLine
 62
253
  6
CONTINUOUS
 10
105.8284045539
 20
92.9325607368
 11
105.8319230688
 21
92.9325607368
  0
LINE
  5
30A
100
AcDbEntity
  8
0
100
AcDbLine
 62
253
  6
CONTINUOUS
 10
105.8043031884
 20
92.9875937368
 11
105.8078018978
 21
92.9875937368
  0
LINE
  5
30B
100
AcDbEntity
  8
0
100
AcDbLine
 62
253
  6
CONTINUOUS
 10
105.6491362305
 20
93.3078947368
 11
105.6360489192
 21
93.3078947368
  0
LINE
  5
30C
100
AcDbEntity
  8
0
100
AcDbLine
 62
253
  6
CONTINUOUS
 10
105.5108678859
 20
93.5721810642
 11
105.5370464955
 21
93.5721810642
  0
LINE
  5
30D
100
AcDbEntity
  8
0
100
AcDbLine
 62
253
  6
CONTINUOUS
 10
105.8078018978
 20
93.9878807368
 11
105.8043031884
 21
93.9878807368
  0
LINE
  5
30E
100
AcDbEntity
  8
0
100
AcDbLine
 62
253
  6
CONTINUOUS
 10
105.5333066944
 20
94.0007522884
 11
105.5146076874
 21
94.0007522884
  0
LINE
  5
30F
100
AcDbEntity
  8
ASSI
100
AcDbLine
 62
7
  6
CONTINUOUS
 10
87.4210316682
 20
131.1155843897
 11
87.4722550109
 21
131.2904396719
  0
LINE
  5
310
100
AcDbEntity
  8
SMUSSO
100
AcDbLine
 62
7
  6
CONTINUOUS
 10
87.7273684211
 20
122.2578947368
 11
87.1500181519
 21
121.6805444677
  0
LINE
  5
311
100
AcDbEntity
  8
0
100
AcDbLine
 62
7
  6
CONTINUOUS
 10
87.7273684211
 20
122.2578947368
 11
87.1500181519
 21
121.6805444677
  0
LINE
  5
312
100
AcDbEntity
  8
ASSI
100
AcDbLine
 62
253
  6
CONTINUOUS
 10
98.9274064973
 20
132.9078947368
 11
98.8291594463
 21
132.8096476859
  0
LINE
  5
313
100
AcDbEntity
  8
ASSI
100
AcDbLine
 62
253
  6
CONTINUOUS
 10
99.1773684211
 20
132.6579328131
 11
99.0791213701
 21
132.5596857621
  0
LINE
  5
314
100
AcDbEntity
  8
ASSI
100
AcDbLine
 62
7
  6
CONTINUOUS
 10
99.1773684211
 20
131.3078947368
 11
99.0794270445
 21
131.2099533603
  0
LINE
  5
315
100
AcDbEntity
  8
RACCORDO
100
AcDbLine
 62
253
  6
CONTINUOUS
 10
105.2916712015
 20
127.9935919564
 11
104.9003710609
 21
127.8315130351
  0
LINE
  5
316
100
AcDbEntity
  8
0
100
AcDbLine
 62
253
  6
CONTINUOUS
 10
105.2916712015
 20
127.9935919564
 11
104.9003710609
 21
127.8315130351
  0
LINE
  5
317
100
AcDbEntity
  8
ASSI
100
AcDbLine
 62
7
  6
CONTINUOUS
 10
105.7924582912
 20
127.4681196771
 11
105.8099133561
 21
127.4753498018
  0
LINE
  5
318
100
AcDbEntity
  8
INCISIONI
100
AcDbLine
 62
253
  6
CONTINUOUS
 10
105.7296234037
 20
94.4007510725
 11
105.7414661081
 21
94.4007510725
  0
LINE
  5
319
100
AcDbEntity
  8
INCISIONI
100
AcDbLine
 62
253
  6
CONTINUOUS
 10
105.7485717303
 20
94.4459889952
 11
105.7556773534
 21
94.4459889952
  0
LINE
  5
31A
100
AcDbEntity
  8
0
100
AcDbLine
 62
253
  6
CONTINUOUS
 10
105.7848840789
 20
94.6267767368
 11
105.8284045539
 21
94.6267767368
  0
LINE
  5
31B
100
AcDbEntity
  8
0
100
AcDbLine
 62
253
  6
CONTINUOUS
 10
105.5146076874
 20
94.7507522884
 11
105.5333066944
 21
94.7507522884
  0
LINE
  5
31C
100
AcDbEntity
  8
0
100
AcDbLine
 62
253
  6
CONTINUOUS
 10
105.8319230688
 20
94.8284137368
 11
105.7813655639
 21
94.8284137368
  0
LINE
  5
31D
100
AcDbEntity
  8
0
100
AcDbLine
 62
253
  6
CONTINUOUS
 10
105.5146076874
 20
95.1793235126
 11
105.518347489
 21
95.1793235126
  0
LINE
  5
31E
100
AcDbEntity
  8
0
100
AcDbLine
 62
253
  6
CONTINUOUS
 10
105.5295668932
 20
95.9293235126
 11
105.5333066944
 21
95.9293235126
  0
LINE
  5
31F
100
AcDbEntity
  8
INCISIONI
100
AcDbLine
 62
253
  6
CONTINUOUS
 10
105.7272548627
 20
96.0745605532
 11
105.7438346488
 21
96.0745605532
  0
LINE
  5
320
100
AcDbEntity
  8
0
100
AcDbLine
 62
253
  6
CONTINUOUS
 10
105.5108678859
 20
96.3578947368
 11
105.5370464955
 21
96.3578947368
  0
LINE
  5
321
100
AcDbEntity
  8
RACCORDO
100
AcDbLine
 62
253
  6
CONTINUOUS
 10
104.9003710609
 20
89.9842764386
 11
105.2916712015
 21
89.8221975173
  0
LINE
  5
322
100
AcDbEntity
  8
0
100
AcDbLine
 62
253
  6
CONTINUOUS
 10
104.9003710609
 20
89.9842764386
 11
105.2916712015
 21
89.8221975173
  0
LINE
  5
323
100
AcDbEntity
  8
ASSI
100
AcDbLine
 62
7
  6
CONTINUOUS
 10
105.7924582912
 20
90.3476697965
 11
105.8099133561
 21
90.3404396719
  0
LINE
  5
324
100
AcDbEntity
  8
ASSI
100
AcDbLine
 62
253
  6
CONTINUOUS
 10
98.8291594463
 20
85.0061417878
 11
98.9274064973
 21
84.9078947368
  0
LINE
  5
325
100
AcDbEntity
  8
ASSI
100
AcDbLine
 62
253
  6
CONTINUOUS
 10
99.0791213701
 20
85.2561037116
 11
99.1773684211
 21
85.1578566606
  0
LINE
  5
326
100
AcDbEntity
  8
ASSI
100
AcDbLine
 62
7
  6
CONTINUOUS
 10
99.1773684211
 20
86.5078947368
 11
99.0794270445
 21
86.6058361134
  0
LINE
  5
327
100
AcDbEntity
  8
ASSI
100
AcDbLine
 62
7
  6
CONTINUOUS
 10
87.4210316682
 20
86.7002050839
 11
87.4722550109
 21
86.5253498018
  0
LWPOLYLINE
  5
328
100
AcDbEntity
  8
ASSI
100
AcDbPolyline
 62
253
  6
CONTINUOUS
 90
13
 70
0
 10
84.140535878
 20
84.6210317328
 10
84.1422539283
 20
84.5949355235
 10
84.1473627983
 20
84.5692856502
 10
84.1557751091
 20
84.5445208192
 10
84.1673469809
 20
84.5210645998
 10
84.1818804941
 20
84.499318179
 10
84.1991270746
 20
84.4796534997
 10
84.2187917453
 20
84.4624069004
 10
84.240538169
 20
84.4478733631
 10
84.263994402
 20
84.4363014669
 10
84.2887592568
 20
84.4278891349
 10
84.3144091642
 20
84.4227802498
 10
84.340505417
 20
84.4210621938
  0
LINE
  5
329
100
AcDbEntity
  8
ASSI
100
AcDbLine
 62
7
  6
CONTINUOUS
 10
83.5749965779
 20
91.5625952752
 11
83.5773684211
 21
91.5103005996
  0
LINE
  5
32A
100
AcDbEntity
  8
ASSI
100
AcDbLine
 62
7
  6
CONTINUOUS
 10
83.6047177699
 20
90.9072989497
 11
83.6273684211
 21
90.4078947368
  0
LINE
  5
32B
100
AcDbEntity
  8
ASSI
100
AcDbLine
 62
253
  6
CONTINUOUS
 10
84.3409262654
 20
85.28007333
 11
84.3256533802
 21
85.785245006
  0
LINE
  5
32C
100
AcDbEntity
  8
ASSI
100
AcDbLine
 62
7
  6
CONTINUOUS
 10
83.6273684211
 20
127.4078947368
 11
83.6376856211
 21
127.0666391607
  0
LINE
  5
32D
100
AcDbEntity
  8
ASSI
100
AcDbLine
 62
253
  6
CONTINUOUS
 10
84.1410433948
 20
85.1035668098
 11
84.1273684211
 21
85.5563201287
  0
LINE
  5
32E
100
AcDbEntity
  8
ASSI
100
AcDbLine
 62
253
  6
CONTINUOUS
 10
84.1411892565
 20
85.0956910967
 11
84.1410433948
 21
85.1035668098
  0
LWPOLYLINE
  5
32F
100
AcDbEntity
  8
RACCORDO
100
AcDbPolyline
 62
253
  6
CONTINUOUS
 90
37
 70
0
 10
83.9686665082
 20
91.3982790101
 10
83.9691450309
 20
91.35465485
 10
83.9705749605
 20
91.3110518729
 10
83.9729555912
 20
91.2674908245
 10
83.976285753
 20
91.2239925609
 10
83.9805638431
 20
91.1805776448
 10
83.9857878558
 20
91.1372663382
 10
83.9919553307
 20
91.0940790926
 10
83.9990633172
 20
91.0510366125
 10
84.0071084219
 20
91.0081594536
 10
84.0160868057
 20
90.9654680512
 10
84.0259941991
 20
90.9229826808
 10
84.0368258949
 20
90.8807235246
 10
84.0485767383
 20
90.8387106889
 10
84.0612411368
 20
90.7969641625
 10
84.0748130753
 20
90.7555037767
 10
84.0892861033
 20
90.7143492423
 10
84.1046533304
 20
90.6735201568
 10
84.1209074391
 20
90.6330359641
 10
84.1380406962
 20
90.5929159261
 10
84.1560449496
 20
90.5531791316
 10
84.1749116244
 20
90.5138445042
 10
84.1946317353
 20
90.4749307737
 10
84.215195906
 20
90.4364564388
 10
84.2365943665
 20
90.3984397765
 10
84.2588169368
 20
90.3608988757
 10
84.281853045
 20
90.3238515982
 10
84.3056917489
 20
90.2873155429
 10
84.3303217311
 20
90.2513080649
 10
84.3557312558
 20
90.2158463295
 10
84.3819081873
 20
90.1809472716
 10
84.408839959
 20
90.1466276337
 10
84.4365138614
 20
90.1129036006
 10
84.4649170248
 20
90.0797908729
 10
84.4940360588
 20
90.0473051116
 10
84.5238570335
 20
90.0154619097
 10
84.554365781
 20
89.9842764385
  0
LWPOLYLINE
  5
330
100
AcDbEntity
  8
0
100
AcDbPolyline
 62
253
  6
CONTINUOUS
 90
37
 70
0
 10
83.9686665082
 20
91.3982790101
 10
83.9691450309
 20
91.35465485
 10
83.9705749605
 20
91.3110518729
 10
83.9729555912
 20
91.2674908245
 10
83.976285753
 20
91.2239925609
 10
83.9805638431
 20
91.1805776448
 10
83.9857878558
 20
91.1372663382
 10
83.9919553307
 20
91.0940790926
 10
83.9990633172
 20
91.0510366125
 10
84.0071084219
 20
91.0081594536
 10
84.0160868057
 20
90.9654680512
 10
84.0259941991
 20
90.9229826808
 10
84.0368258949
 20
90.8807235246
 10
84.0485767383
 20
90.8387106889
 10
84.0612411368
 20
90.7969641625
 10
84.0748130753
 20
90.7555037767
 10
84.0892861033
 20
90.7143492423
 10
84.1046533304
 20
90.6735201568
 10
84.1209074391
 20
90.6330359641
 10
84.1380406962
 20
90.5929159261
 10
84.1560449496
 20
90.5531791316
 10
84.1749116244
 20
90.5138445042
 10
84.1946317353
 20
90.4749307737
 10
84.215195906
 20
90.4364564388
 10
84.2365943665
 20
90.3984397765
 10
84.2588169368
 20
90.3608988757
 10
84.281853045
 20
90.3238515982
 10
84.3056917489
 20
90.2873155429
 10
84.3303217311
 20
90.2513080649
 10
84.3557312558
 20
90.2158463295
 10
84.3819081873
 20
90.1809472716
 10
84.408839959
 20
90.1466276337
 10
84.4365138614
 20
90.1129036006
 10
84.4649170248
 20
90.0797908729
 10
84.4940360588
 20
90.0473051116
 10
84.5238570335
 20
90.0154619097
 10
84.554365781
 20
89.9842764385
  0
LINE
  5
331
100
AcDbEntity
  8
ASSI
100
AcDbLine
 62
253
  6
CONTINUOUS
 10
84.141300637
 20
85.0859563469
 11
84.1411892565
 21
85.0956910967
  0
LINE
  5
332
100
AcDbEntity
  8
ASSI
100
AcDbLine
 62
253
  6
CONTINUOUS
 10
84.1413373555
 20
133.1623790079
 11
84.1412457048
 21
133.1725936006
  0
LINE
  5
333
100
AcDbEntity
  8
ASSI
100
AcDbLine
 62
253
  6
CONTINUOUS
 10
84.1413693656
 20
85.075177155
 11
84.141300637
 21
85.0859563469
  0
LINE
  5
334
100
AcDbEntity
  8
ASSI
100
AcDbLine
 62
253
  6
CONTINUOUS
 10
84.1413896246
 20
133.1495602413
 11
84.1413373555
 21
133.1623790079
  0
LINE
  5
335
100
AcDbEntity
  8
ASSI
100
AcDbLine
 62
253
  6
CONTINUOUS
 10
84.3413388596
 20
85.121229268
 11
84.34092651
 21
85.2800733293
  0
LINE
  5
336
100
AcDbEntity
  8
ASSI
100
AcDbLine
 62
7
  6
CONTINUOUS
 10
83.5749965779
 20
126.2531941985
 11
83.5749965779
 21
91.5625952752
  0
LINE
  5
337
100
AcDbEntity
  8
RACCORDO
100
AcDbLine
 62
7
  6
CONTINUOUS
 10
83.5773684211
 20
126.5795937856
 11
83.5773684211
 21
91.2361956881
  0
LINE
  5
338
100
AcDbEntity
  8
0
100
AcDbLine
 62
7
  6
CONTINUOUS
 10
83.5773684211
 20
126.5795937856
 11
83.5773684211
 21
91.2361956881
  0
LINE
  5
339
100
AcDbEntity
  8
ASSI
100
AcDbLine
 62
7
  6
CONTINUOUS
 10
83.6273684211
 20
130.8079708893
 11
83.6273684211
 21
127.4078947368
  0
LINE
  5
33A
100
AcDbEntity
  8
ASSI
100
AcDbLine
 62
7
  6
CONTINUOUS
 10
83.6273684211
 20
87.0078185844
 11
83.6273684211
 21
90.4078947368
  0
LINE
  5
33B
100
AcDbEntity
  8
ASSI
100
AcDbLine
 62
7
  6
CONTINUOUS
 10
83.644823486
 20
87.0252736494
 11
83.644823486
 21
90.3404396719
  0
LINE
  5
33C
100
AcDbEntity
  8
ASSI
100
AcDbLine
 62
7
  6
CONTINUOUS
 10
83.644823486
 20
127.4753498018
 11
83.644823486
 21
130.7905158243
  0
LINE
  5
33D
100
AcDbEntity
  8
ASSI
100
AcDbLine
 62
7
  6
CONTINUOUS
 10
83.6622785509
 20
90.3476697965
 11
83.6622785509
 21
90.660060492
  0
LINE
  5
33E
100
AcDbEntity
  8
ASSI
100
AcDbLine
 62
7
  6
CONTINUOUS
 10
83.6622785509
 20
127.1557289817
 11
83.6622785509
 21
127.4681196771
  0
LINE
  5
33F
100
AcDbEntity
  8
RACCORDO
100
AcDbLine
 62
253
  6
CONTINUOUS
 10
83.9686665083
 20
126.4175104635
 11
83.9686665083
 21
91.3982790102
  0
LINE
  5
340
100
AcDbEntity
  8
0
100
AcDbLine
 62
253
  6
CONTINUOUS
 10
83.9686665083
 20
126.4175104635
 11
83.9686665083
 21
91.3982790102
  0
LINE
  5
341
100
AcDbEntity
  8
ASSI
100
AcDbLine
 62
7
  6
CONTINUOUS
 10
84.1273684211
 20
133.2079251978
 11
84.1273683565
 21
131.3078946665
  0
LINE
  5
342
100
AcDbEntity
  8
ASSI
100
AcDbLine
 62
7
  6
CONTINUOUS
 10
84.1273684211
 20
84.6078642759
 11
84.1273684211
 21
86.5078950011
  0
LINE
  5
343
100
AcDbEntity
  8
ASSI
100
AcDbLine
 62
253
  6
CONTINUOUS
 10
84.3413629386
 20
133.1447653561
 11
84.3411174198
 21
133.3185541909
  0
LINE
  5
344
100
AcDbEntity
  8
ASSI
100
AcDbLine
 62
253
  6
CONTINUOUS
 10
84.1413917566
 20
84.6679849853
 11
84.1413693656
 21
85.075177155
  0
LINE
  5
345
100
AcDbEntity
  8
ASSI
100
AcDbLine
 62
253
  6
CONTINUOUS
 10
84.1413692628
 20
132.7405992812
 11
84.1413896246
 21
133.1495602413
  0
LINE
  5
346
100
AcDbEntity
  8
ASSI
100
AcDbLine
 62
253
  6
CONTINUOUS
 10
84.3411078217
 20
84.4943691987
 11
84.3413388596
 21
85.121229268
  0
LINE
  5
347
100
AcDbEntity
  8
ASSI
100
AcDbLine
 62
253
  6
CONTINUOUS
 10
84.1413537768
 20
84.6561341533
 11
84.1413917566
 21
84.6679849853
  0
LWPOLYLINE
  5
348
100
AcDbEntity
  8
ASSI
100
AcDbPolyline
 62
253
  6
CONTINUOUS
 90
3
 70
0
 10
84.3409267871
 20
132.5357682319
 10
84.3410131396
 20
132.5517293772
 10
84.3413629386
 20
133.1447653561
  0
LINE
  5
349
100
AcDbEntity
  8
ASSI
100
AcDbLine
 62
253
  6
CONTINUOUS
 10
84.141300469
 20
132.7298151996
 11
84.1413692628
 21
132.7405992812
  0
LWPOLYLINE
  5
34A
100
AcDbEntity
  8
ASSI
100
AcDbPolyline
 62
253
  6
CONTINUOUS
 90
3
 70
0
 10
84.1412388716
 20
84.6426203627
 10
84.1412674394
 20
84.6451486658
 10
84.1413537768
 20
84.6561341533
  0
LINE
  5
34B
100
AcDbEntity
  8
ASSI
100
AcDbLine
 62
253
  6
CONTINUOUS
 10
84.1411890753
 20
132.7200832353
 11
84.141300469
 21
132.7298151996
  0
LINE
  5
34C
100
AcDbEntity
  8
ASSI
100
AcDbLine
 62
253
  6
CONTINUOUS
 10
84.1410433095
 20
132.7122160918
 11
84.1411890753
 21
132.7200832353
  0
LINE
  5
34D
100
AcDbEntity
  8
ASSI
100
AcDbLine
 62
253
  6
CONTINUOUS
 10
84.1273684211
 20
132.259469345
 11
84.1410433095
 21
132.7122160918
  0
LINE
  5
34E
100
AcDbEntity
  8
ASSI
100
AcDbLine
 62
253
  6
CONTINUOUS
 10
84.3256533802
 20
132.0305444677
 11
84.3409278398
 21
132.5357682194
  0
LINE
  5
34F
100
AcDbEntity
  8
ASSI
100
AcDbLine
 62
7
  6
CONTINUOUS
 10
83.6376856211
 20
90.749150313
 11
83.6273684211
 21
90.4078947368
  0
LINE
  5
350
100
AcDbEntity
  8
ASSI
100
AcDbLine
 62
7
  6
CONTINUOUS
 10
83.6273684211
 20
127.4078947368
 11
83.6047177699
 21
126.908490524
  0
LINE
  5
351
100
AcDbEntity
  8
ASSI
100
AcDbLine
 62
7
  6
CONTINUOUS
 10
83.5773684211
 20
126.3054888741
 11
83.5749965779
 21
126.2531941985
  0
LWPOLYLINE
  5
352
100
AcDbEntity
  8
ASSI
100
AcDbPolyline
 62
253
  6
CONTINUOUS
 90
13
 70
0
 10
84.140535878
 20
133.1947577409
 10
84.1422539312
 20
133.2208539723
 10
84.1473628088
 20
133.2465038629
 10
84.1557751304
 20
133.2712687059
 10
84.1673470144
 20
133.2947249319
 10
84.1818805395
 20
133.3164713539
 10
84.1991271292
 20
133.3361360287
 10
84.218791804
 20
133.3533826184
 10
84.240538226
 20
133.3679161435
 10
84.263994452
 20
133.3794880275
 10
84.288759295
 20
133.3879003491
 10
84.3144091856
 20
133.3930092267
 10
84.340505417
 20
133.3947272799
  0
LINE
  5
353
100
AcDbEntity
  8
RACCORDO
100
AcDbLine
 62
7
  6
CONTINUOUS
 10
97.2273684211
 20
128.8078947368
 11
97.225348745
 21
128.8058750608
  0
LINE
  5
354
100
AcDbEntity
  8
0
100
AcDbLine
 62
7
  6
CONTINUOUS
 10
97.2273684211
 20
128.8078947368
 11
97.225348745
 21
128.8058750608
  0
LINE
  5
355
100
AcDbEntity
  8
SMUSSO
100
AcDbLine
 62
7
  6
CONTINUOUS
 10
94.7273684211
 20
125.5578947368
 11
95.3047186902
 21
126.135245006
  0
LINE
  5
356
100
AcDbEntity
  8
0
100
AcDbLine
 62
7
  6
CONTINUOUS
 10
94.7273684211
 20
125.5578947368
 11
95.3047186902
 21
126.135245006
  0
LINE
  5
357
100
AcDbEntity
  8
DRAFT
100
AcDbLine
 62
7
  6
CONTINUOUS
 10
98.2273684211
 20
128.8078947368
 11
98.1383475899
 21
128.7188739057
  0
LINE
  5
358
100
AcDbEntity
  8
0
100
AcDbLine
 62
7
  6
CONTINUOUS
 10
98.2273684211
 20
128.8078947368
 11
98.1383475899
 21
128.7188739057
  0
LINE
  5
359
100
AcDbEntity
  8
DRAFT
100
AcDbLine
 62
7
  6
CONTINUOUS
 10
98.2273684211
 20
128.6078947368
 11
98.1383475899
 21
128.5188739057
  0
LINE
  5
35A
100
AcDbEntity
  8
0
100
AcDbLine
 62
7
  6
CONTINUOUS
 10
98.2273684211
 20
128.6078947368
 11
98.1383475899
 21
128.5188739057
  0
LINE
  5
35B
100
AcDbEntity
  8
SMUSSO
100
AcDbLine
 62
7
  6
CONTINUOUS
 10
87.7273684211
 20
117.2578947368
 11
87.1500181519
 21
116.6805444677
  0
LINE
  5
35C
100
AcDbEntity
  8
0
100
AcDbLine
 62
7
  6
CONTINUOUS
 10
87.7273684211
 20
117.2578947368
 11
87.1500181519
 21
116.6805444677
  0
LINE
  5
35D
100
AcDbEntity
  8
RACCORDO
100
AcDbLine
 62
253
  6
CONTINUOUS
 10
105.8773684211
 20
126.5795937856
 11
105.4860703338
 21
126.4175104635
  0
LINE
  5
35E
100
AcDbEntity
  8
0
100
AcDbLine
 62
253
  6
CONTINUOUS
 10
105.8773684211
 20
126.5795937856
 11
105.4860703338
 21
126.4175104635
  0
LINE
  5
35F
100
AcDbEntity
  8
0
100
AcDbLine
 62
253
  6
CONTINUOUS
 10
105.7812384425
 20
97.0955427368
 11
105.8318859532
 21
97.0955427368
  0
LINE
  5
360
100
AcDbEntity
  8
0
100
AcDbLine
 62
253
  6
CONTINUOUS
 10
105.5108678859
 20
97.1078947368
 11
105.5370464955
 21
97.1078947368
  0
LINE
  5
361
100
AcDbEntity
  8
INCISIONI
100
AcDbLine
 62
253
  6
CONTINUOUS
 10
105.7462031905
 20
97.2507510725
 11
105.7556773534
 21
97.2507510725
  0
LINE
  5
362
100
AcDbEntity
  8
0
100
AcDbLine
 62
253
  6
CONTINUOUS
 10
105.6112315381
 20
97.2930047368
 11
105.5981299181
 21
97.2930047368
  0
LINE
  5
363
100
AcDbEntity
  8
0
100
AcDbLine
 62
253
  6
CONTINUOUS
 10
105.6870552316
 20
97.2930047368
 11
105.6739536116
 21
97.2930047368
  0
LINE
  5
364
100
AcDbEntity
  8
0
100
AcDbLine
 62
253
  6
CONTINUOUS
 10
105.8318859532
 20
97.2971797368
 11
105.7812384425
 21
97.2971797368
  0
LINE
  5
365
100
AcDbEntity
  8
0
100
AcDbLine
 62
253
  6
CONTINUOUS
 10
105.5108678859
 20
98.1793235126
 11
105.5370464955
 21
98.1793235126
  0
LINE
  5
366
100
AcDbEntity
  8
INCISIONI
100
AcDbLine
 62
253
  6
CONTINUOUS
 10
105.7556773534
 20
98.2007509592
 11
105.7462031905
 21
98.2007509592
  0
LINE
  5
367
100
AcDbEntity
  8
RACCORDO
100
AcDbLine
 62
253
  6
CONTINUOUS
 10
105.4860703338
 20
91.3982790102
 11
105.8773684211
 21
91.2361956881
  0
LINE
  5
368
100
AcDbEntity
  8
0
100
AcDbLine
 62
253
  6
CONTINUOUS
 10
105.4860703338
 20
91.3982790102
 11
105.8773684211
 21
91.2361956881
  0
LWPOLYLINE
  5
369
100
AcDbEntity
  8
ASSI
100
AcDbPolyline
 62
7
  6
CONTINUOUS
 90
10
 70
0
 10
103.2739914508
 20
85.2800635205
 10
103.2933043176
 20
85.261770838
 10
103.3140271047
 20
85.2408291781
 10
103.336159812
 20
85.2178951593
 10
103.3600012019
 20
85.1937569852
 10
103.385252512
 20
85.1688292757
 10
103.4110174557
 20
85.1430375156
 10
103.4369972708
 20
85.1165661044
 10
103.4634907195
 20
85.0899608741
 10
103.4904978018
 20
85.0635571695
  0
LINE
  5
36A
100
AcDbEntity
  8
RACCORDO
100
AcDbLine
 62
7
  6
CONTINUOUS
 10
97.2273684211
 20
89.0078947368
 11
97.225348745
 21
89.0099144129
  0
LINE
  5
36B
100
AcDbEntity
  8
0
100
AcDbLine
 62
7
  6
CONTINUOUS
 10
97.2273684211
 20
89.0078947368
 11
97.225348745
 21
89.0099144129
  0
LINE
  5
36C
100
AcDbEntity
  8
DRAFT
100
AcDbLine
 62
7
  6
CONTINUOUS
 10
98.1383475899
 20
89.096915568
 11
98.2273684211
 21
89.0078947368
  0
LINE
  5
36D
100
AcDbEntity
  8
0
100
AcDbLine
 62
7
  6
CONTINUOUS
 10
98.1383475899
 20
89.096915568
 11
98.2273684211
 21
89.0078947368
  0
LINE
  5
36E
100
AcDbEntity
  8
DRAFT
100
AcDbLine
 62
7
  6
CONTINUOUS
 10
98.2273684211
 20
89.2078947368
 11
98.1383475899
 21
89.296915568
  0
LINE
  5
36F
100
AcDbEntity
  8
0
100
AcDbLine
 62
7
  6
CONTINUOUS
 10
98.2273684211
 20
89.2078947368
 11
98.1383475899
 21
89.296915568
  0
LWPOLYLINE
  5
370
100
AcDbEntity
  8
ASSI
100
AcDbPolyline
 62
7
  6
CONTINUOUS
 90
9
 70
0
 10
98.3587918059
 20
85.1273174449
 10
98.3770936756
 20
85.1008794217
 10
98.39863808
 20
85.0770094696
 10
98.4230683516
 20
85.0561024626
 10
98.4499802132
 20
85.0385041156
 10
98.4789283956
 20
85.0245054049
 10
98.5094339317
 20
85.014337791
 10
98.5409920631
 20
85.0081693624
 10
98.5730806738
 20
85.0061020228
  0
LWPOLYLINE
  5
371
100
AcDbEntity
  8
ASSI
100
AcDbPolyline
 62
253
  6
CONTINUOUS
 90
13
 70
0
 10
84.140957023
 20
132.708931034
 10
84.1428752512
 20
132.6864480313
 10
84.1481445062
 20
132.6643453091
 10
84.156675691
 20
132.6429968549
 10
84.1683245047
 20
132.6227639172
 10
84.1828939028
 20
132.6039888538
 10
84.2001374461
 20
132.5869893488
 10
84.2197634468
 20
132.5720530734
 10
84.2414398399
 20
132.5594328417
 10
84.2647998178
 20
132.5493422814
 10
84.2894480973
 20
132.5419521877
 10
84.3149676216
 20
132.5373876501
 10
84.3409265621
 20
132.5357259557
  0
LWPOLYLINE
  5
372
100
AcDbEntity
  8
ASSI
100
AcDbPolyline
 62
253
  6
CONTINUOUS
 90
4
 70
0
 10
87.3142314151
 20
84.421062244
 10
87.31418962
 20
84.4215537309
 10
87.314147033
 20
84.4226502487
 10
87.3141036539
 20
84.4243995654
  0
LWPOLYLINE
  5
373
100
AcDbEntity
  8
ASSI
100
AcDbPolyline
 62
253
  6
CONTINUOUS
 90
9
 70
0
 10
84.1409399079
 20
133.1886165305
 10
84.1408928275
 20
133.1899897391
 10
84.1408445474
 20
133.1911943435
 10
84.1407950508
 20
133.1922282615
 10
84.1407443547
 20
133.1930935753
 10
84.140693032
 20
133.1937801896
 10
84.1406412738
 20
133.1942847395
 10
84.1405888892
 20
133.1946105899
 10
84.140535878
 20
133.1947577409
  0
LINE
  5
374
100
AcDbEntity
  8
ASSI
100
AcDbLine
 62
7
  6
CONTINUOUS
 10
85.4273684211
 20
85.785245006
 11
85.440535878
 21
85.3497132663
  0
LINE
  5
375
100
AcDbEntity
  8
ASSI
100
AcDbLine
 62
253
  6
CONTINUOUS
 10
84.1410288932
 20
133.1854105489
 11
84.1409399079
 21
133.1886165305
  0
LWPOLYLINE
  5
376
100
AcDbEntity
  8
ASSI
100
AcDbPolyline
 62
253
  6
CONTINUOUS
 90
4
 70
0
 10
84.3406624913
 20
133.389840038
 10
84.3406107516
 20
133.3923759753
 10
84.3405583935
 20
133.3940070082
 10
84.340505417
 20
133.3947272799
  0
LINE
  5
377
100
AcDbEntity
  8
ASSI
100
AcDbLine
 62
253
  6
CONTINUOUS
 10
84.1411104917
 20
133.1816174083
 11
84.1410288932
 21
133.1854105489
  0
LWPOLYLINE
  5
378
100
AcDbEntity
  8
ASSI
100
AcDbPolyline
 62
253
  6
CONTINUOUS
 90
3
 70
0
 10
84.1412457048
 20
133.1725936006
 10
84.1412158167
 20
133.1749954049
 10
84.1411104917
 20
133.1816174083
  0
LINE
  5
379
100
AcDbEntity
  8
ASSI
100
AcDbLine
 62
253
  6
CONTINUOUS
 10
84.3407645027
 20
133.3820919411
 11
84.3406624913
 21
133.389840038
  0
LWPOLYLINE
  5
37A
100
AcDbEntity
  8
RACCORDO
100
AcDbPolyline
 62
253
  6
CONTINUOUS
 90
37
 70
0
 10
84.9685142035
 20
91.3982766628
 10
84.9687529473
 20
91.3764498427
 10
84.9694664074
 20
91.3546534885
 10
84.9706545839
 20
91.3328876
 10
84.9723184933
 20
91.3111416267
 10
84.9744571192
 20
91.2894261193
 10
84.9770674113
 20
91.2677727294
 10
84.9801500444
 20
91.2461817594
 10
84.9837043438
 20
91.2246529069
 10
84.9877252356
 20
91.2032169165
 10
84.9922133839
 20
91.1818739388
 10
84.9971681246
 20
91.1606238231
 10
85.0025823916
 20
91.139496862
 10
85.0084568395
 20
91.1184932297
 10
85.0147908137
 20
91.0976127521
 10
85.0215752845
 20
91.0768851989
 10
85.0288108972
 20
91.0563107806
 10
85.0364970065
 20
91.0358892867
 10
85.0446226458
 20
91.0156498564
 10
85.0531884426
 20
90.9955927506
 10
85.0621937693
 20
90.9757177084
 10
85.0716257764
 20
90.9560530854
 10
85.0814850688
 20
90.9365991897
 10
85.0917710414
 20
90.9173557132
 10
85.1024690302
 20
90.8983500882
 10
85.1135796211
 20
90.8795826531
 10
85.1251022281
 20
90.8610530695
 10
85.1370204281
 20
90.8427877536
 10
85.149334798
 20
90.8247870685
 10
85.162044761
 20
90.8070506512
 10
85.1751321642
 20
90.7896038283
 10
85.1885977604
 20
90.7724467997
 10
85.2024407968
 20
90.7555793656
 10
85.2166408614
 20
90.7390262536
 10
85.2311911504
 20
90.7227957061
 10
85.2460984677
 20
90.7068794807
 10
85.2613628132
 20
90.6912775774
  0
LWPOLYLINE
  5
37B
100
AcDbEntity
  8
0
100
AcDbPolyline
 62
253
  6
CONTINUOUS
 90
37
 70
0
 10
84.9685142035
 20
91.3982766628
 10
84.9687529473
 20
91.3764498427
 10
84.9694664074
 20
91.3546534885
 10
84.9706545839
 20
91.3328876
 10
84.9723184933
 20
91.3111416267
 10
84.9744571192
 20
91.2894261193
 10
84.9770674113
 20
91.2677727294
 10
84.9801500444
 20
91.2461817594
 10
84.9837043438
 20
91.2246529069
 10
84.9877252356
 20
91.2032169165
 10
84.9922133839
 20
91.1818739388
 10
84.9971681246
 20
91.1606238231
 10
85.0025823916
 20
91.139496862
 10
85.0084568395
 20
91.1184932297
 10
85.0147908137
 20
91.0976127521
 10
85.0215752845
 20
91.0768851989
 10
85.0288108972
 20
91.0563107806
 10
85.0364970065
 20
91.0358892867
 10
85.0446226458
 20
91.0156498564
 10
85.0531884426
 20
90.9955927506
 10
85.0621937693
 20
90.9757177084
 10
85.0716257764
 20
90.9560530854
 10
85.0814850688
 20
90.9365991897
 10
85.0917710414
 20
90.9173557132
 10
85.1024690302
 20
90.8983500882
 10
85.1135796211
 20
90.8795826531
 10
85.1251022281
 20
90.8610530695
 10
85.1370204281
 20
90.8427877536
 10
85.149334798
 20
90.8247870685
 10
85.162044761
 20
90.8070506512
 10
85.1751321642
 20
90.7896038283
 10
85.1885977604
 20
90.7724467997
 10
85.2024407968
 20
90.7555793656
 10
85.2166408614
 20
90.7390262536
 10
85.2311911504
 20
90.7227957061
 10
85.2460984677
 20
90.7068794807
 10
85.2613628132
 20
90.6912775774
  0
LINE
  5
37C
100
AcDbEntity
  8
ASSI
100
AcDbLine
 62
253
  6
CONTINUOUS
 10
84.340954722
 20
133.3563941237
 11
84.3407645027
 21
133.3820919411
  0
LINE
  5
37D
100
AcDbEntity
  8
ASSI
100
AcDbLine
 62
253
  6
CONTINUOUS
 10
84.3411174198
 20
133.3185541909
 11
84.340954722
 21
133.3563941237
  0
LINE
  5
37E
100
AcDbEntity
  8
DRAFT
100
AcDbLine
 62
7
  6
CONTINUOUS
 10
85.3102506245
 20
129.1407769403
 11
85.3095749707
 21
129.7305082735
  0
LINE
  5
37F
100
AcDbEntity
  8
RACCORDO
100
AcDbLine
 62
253
  6
CONTINUOUS
 10
84.9685142035
 20
126.4175128109
 11
84.9685142035
 21
91.3982766628
  0
LINE
  5
380
100
AcDbEntity
  8
0
100
AcDbLine
 62
253
  6
CONTINUOUS
 10
84.9685142035
 20
126.4175128109
 11
84.9685142035
 21
91.3982766628
  0
LINE
  5
381
100
AcDbEntity
  8
ASSI
100
AcDbLine
 62
7
  6
CONTINUOUS
 10
85.1035543426
 20
88.0166216046
 11
85.1035543426
 21
88.8817088153
  0
LINE
  5
382
100
AcDbEntity
  8
ASSI
100
AcDbLine
 62
7
  6
CONTINUOUS
 10
85.1035543426
 20
128.9340806584
 11
85.1035543426
 21
129.7991678691
  0
LINE
  5
383
100
AcDbEntity
  8
ASSI
100
AcDbLine
 62
7
  6
CONTINUOUS
 10
85.4273684211
 20
132.0305444677
 11
85.4273684211
 21
131.3078947368
  0
LINE
  5
384
100
AcDbEntity
  8
ASSI
100
AcDbLine
 62
7
  6
CONTINUOUS
 10
85.4273684211
 20
86.5078947368
 11
85.4273684211
 21
85.785245006
  0
LINE
  5
385
100
AcDbEntity
  8
RACCORDO
100
AcDbLine
 62
253
  6
CONTINUOUS
 10
85.4391296895
 20
90.5135107011
 11
85.4391296895
 21
89.513663006
  0
LINE
  5
386
100
AcDbEntity
  8
0
100
AcDbLine
 62
253
  6
CONTINUOUS
 10
85.4391296895
 20
90.5135107011
 11
85.4391296895
 21
89.513663006
  0
LINE
  5
387
100
AcDbEntity
  8
RACCORDO
100
AcDbLine
 62
253
  6
CONTINUOUS
 10
85.4391296895
 20
127.3022787726
 11
85.4391296895
 21
128.3021264677
  0
LINE
  5
388
100
AcDbEntity
  8
0
100
AcDbLine
 62
253
  6
CONTINUOUS
 10
85.4391296895
 20
127.3022787726
 11
85.4391296895
 21
128.3021264677
  0
LINE
  5
389
100
AcDbEntity
  8
ASSI
100
AcDbLine
 62
253
  6
CONTINUOUS
 10
85.440535878
 20
132.4660762074
 11
85.440535878
 21
131.2947272799
  0
LINE
  5
38A
100
AcDbEntity
  8
ASSI
100
AcDbLine
 62
253
  6
CONTINUOUS
 10
85.440535878
 20
86.5210621938
 11
85.440535878
 21
85.3497132663
  0
LINE
  5
38B
100
AcDbEntity
  8
ASSI
100
AcDbLine
 62
253
  6
CONTINUOUS
 10
85.6904978018
 20
132.7522323041
 11
85.6904978018
 21
131.2904396719
  0
LINE
  5
38C
100
AcDbEntity
  8
ASSI
100
AcDbLine
 62
253
  6
CONTINUOUS
 10
85.6904978018
 20
86.5253498018
 11
85.6904978018
 21
85.0635571695
  0
LINE
  5
38D
100
AcDbEntity
  8
ASSI
100
AcDbLine
 62
253
  6
CONTINUOUS
 10
85.9642390403
 20
132.7522323041
 11
85.9642390403
 21
131.2904396719
  0
LINE
  5
38E
100
AcDbEntity
  8
ASSI
100
AcDbLine
 62
253
  6
CONTINUOUS
 10
85.9642390403
 20
86.5253498018
 11
85.9642390403
 21
85.0635571695
  0
LINE
  5
38F
100
AcDbEntity
  8
ASSI
100
AcDbLine
 62
253
  6
CONTINUOUS
 10
86.2142009641
 20
132.4660762074
 11
86.2142009641
 21
131.2947272799
  0
LINE
  5
390
100
AcDbEntity
  8
ASSI
100
AcDbLine
 62
253
  6
CONTINUOUS
 10
86.2142009641
 20
86.5210621938
 11
86.2142009641
 21
85.3497132663
  0
LINE
  5
391
100
AcDbEntity
  8
ASSI
100
AcDbLine
 62
7
  6
CONTINUOUS
 10
86.2273684211
 20
132.0305444677
 11
86.2273684211
 21
131.3078947368
  0
LINE
  5
392
100
AcDbEntity
  8
ASSI
100
AcDbLine
 62
7
  6
CONTINUOUS
 10
86.2273684211
 20
86.5078947368
 11
86.2273684211
 21
85.785245006
  0
LINE
  5
393
100
AcDbEntity
  8
ASSI
100
AcDbLine
 62
7
  6
CONTINUOUS
 10
86.494823486
 20
87.5027813267
 11
86.494823486
 21
88.0166216046
  0
LINE
  5
394
100
AcDbEntity
  8
ASSI
100
AcDbLine
 62
7
  6
CONTINUOUS
 10
86.494823486
 20
129.7991678691
 11
86.494823486
 21
130.313008147
  0
LINE
  5
395
100
AcDbEntity
  8
DRAFT
100
AcDbLine
 62
7
  6
CONTINUOUS
 10
85.3095749707
 20
88.0852812001
 11
85.3102506245
 21
88.6750125334
  0
LINE
  5
396
100
AcDbEntity
  8
ASSI
100
AcDbLine
 62
253
  6
CONTINUOUS
 10
84.3408572369
 20
84.4441896957
 11
84.3411078217
 21
84.4943691987
  0
LINE
  5
397
100
AcDbEntity
  8
ASSI
100
AcDbLine
 62
253
  6
CONTINUOUS
 10
84.3407214895
 20
84.429952228
 11
84.3408572369
 21
84.4441896957
  0
LINE
  5
398
100
AcDbEntity
  8
ASSI
100
AcDbLine
 62
253
  6
CONTINUOUS
 10
84.1411382305
 20
84.6356976083
 11
84.1412388716
 21
84.6426203627
  0
LINE
  5
399
100
AcDbEntity
  8
ASSI
100
AcDbLine
 62
253
  6
CONTINUOUS
 10
84.1410603643
 20
84.6317314171
 11
84.1411382305
 21
84.6356976083
  0
LINE
  5
39A
100
AcDbEntity
  8
ASSI
100
AcDbLine
 62
7
  6
CONTINUOUS
 10
85.440535878
 20
132.4660762074
 11
85.4273684211
 21
132.0305444677
  0
LWPOLYLINE
  5
39B
100
AcDbEntity
  8
ASSI
100
AcDbPolyline
 62
253
  6
CONTINUOUS
 90
13
 70
0
 10
84.140957023
 20
85.1068584397
 10
84.1428753773
 20
85.1293422135
 10
84.148144949
 20
85.1514455402
 10
84.1566765718
 20
85.17279441
 10
84.1683258825
 20
85.1930275795
 10
84.1828957634
 20
85.2118026838
 10
84.2001396781
 20
85.2288020302
 10
84.219765843
 20
85.2437379733
 10
84.2414421642
 20
85.2563577823
 10
84.2648018576
 20
85.2664479181
 10
84.2894496545
 20
85.2738376457
 10
84.3149684904
 20
85.2784019238
 10
84.340926562
 20
85.2800635205
  0
LWPOLYLINE
  5
39C
100
AcDbEntity
  8
ASSI
100
AcDbPolyline
 62
253
  6
CONTINUOUS
 90
5
 70
0
 10
84.340505417
 20
84.4210621938
 10
84.3405468195
 20
84.4215463501
 10
84.3405890762
 20
84.4226265219
 10
84.3406321871
 20
84.4243524469
 10
84.3407214895
 20
84.429952228
  0
LWPOLYLINE
  5
39D
100
AcDbEntity
  8
ASSI
100
AcDbPolyline
 62
7
  6
CONTINUOUS
 90
10
 70
0
 10
103.2739914508
 20
132.5357259532
 10
103.2922841333
 20
132.55503882
 10
103.3132257932
 20
132.5757616071
 10
103.336159812
 20
132.5978943144
 10
103.3602979861
 20
132.6217357043
 10
103.3852256956
 20
132.6469870144
 10
103.4110174557
 20
132.6727519581
 10
103.4374888669
 20
132.6987317732
 10
103.4640940972
 20
132.7252252219
 10
103.4904978018
 20
132.7522323041
  0
LINE
  5
39E
100
AcDbEntity
  8
ASSI
100
AcDbLine
 62
253
  6
CONTINUOUS
 10
105.3273684211
 20
131.3078947368
 11
105.3099895085
 21
131.2904396719
  0
LINE
  5
39F
100
AcDbEntity
  8
ASSI
100
AcDbLine
 62
253
  6
CONTINUOUS
 10
105.127398882
 20
133.4078947368
 11
105.1142314251
 21
133.3947272799
  0
LINE
  5
3A0
100
AcDbEntity
  8
ASSI
100
AcDbLine
 62
253
  6
CONTINUOUS
 10
105.3273684211
 20
133.2079251978
 11
105.3142009641
 21
133.1947577409
  0
LINE
  5
3A1
100
AcDbEntity
  8
ASSI
100
AcDbLine
 62
7
  6
CONTINUOUS
 10
101.2273684211
 20
128.6078947368
 11
101.314637099
 21
128.6951634148
  0
LINE
  5
3A2
100
AcDbEntity
  8
ASSI
100
AcDbLine
 62
7
  6
CONTINUOUS
 10
104.0273684211
 20
131.3078947368
 11
104.0142009641
 21
131.2947272799
  0
LINE
  5
3A3
100
AcDbEntity
  8
SMUSSO
100
AcDbLine
 62
7
  6
CONTINUOUS
 10
94.7273684211
 20
120.5578947368
 11
95.3047186902
 21
121.135245006
  0
LINE
  5
3A4
100
AcDbEntity
  8
0
100
AcDbLine
 62
7
  6
CONTINUOUS
 10
94.7273684211
 20
120.5578947368
 11
95.3047186902
 21
121.135245006
  0
LINE
  5
3A5
100
AcDbEntity
  8
DRAFT
100
AcDbLine
 62
7
  6
CONTINUOUS
 10
104.3773684211
 20
120.9078947368
 11
104.2273684211
 21
120.8579048915
  0
LINE
  5
3A6
100
AcDbEntity
  8
0
100
AcDbLine
 62
253
  6
CONTINUOUS
 10
105.5146076874
 20
98.6078947368
 11
105.518347489
 21
98.6078947368
  0
LINE
  5
3A7
100
AcDbEntity
  8
INCISIONI
100
AcDbLine
 62
253
  6
CONTINUOUS
 10
105.7604144349
 20
98.7436081264
 11
105.7272548627
 21
98.7436081264
  0
LINE
  5
3A8
100
AcDbEntity
  8
0
100
AcDbLine
 62
253
  6
CONTINUOUS
 10
105.5295668932
 20
99.3578947368
 11
105.5333066944
 21
99.3578947368
  0
LINE
  5
3A9
100
AcDbEntity
  8
0
100
AcDbLine
 62
253
  6
CONTINUOUS
 10
105.8317183983
 20
99.7761146827
 11
105.8281998813
 21
99.7761146827
  0
LINE
  5
3AA
100
AcDbEntity
  8
0
100
AcDbLine
 62
253
  6
CONTINUOUS
 10
105.7812384425
 20
100.2075327368
 11
105.8319882786
 21
100.2075327368
  0
LINE
  5
3AB
100
AcDbEntity
  8
0
100
AcDbLine
 62
253
  6
CONTINUOUS
 10
105.8042850232
 20
100.4091697368
 11
105.7812384425
 21
100.4091697368
  0
LINE
  5
3AC
100
AcDbEntity
  8
0
100
AcDbLine
 62
253
  6
CONTINUOUS
 10
105.8267068156
 20
100.4091697368
 11
105.8078035381
 21
100.4091697368
  0
LINE
  5
3AD
100
AcDbEntity
  8
ASSI
100
AcDbLine
 62
253
  6
CONTINUOUS
 10
105.1142314251
 20
84.4210621938
 11
105.127398882
 21
84.4078947368
  0
LINE
  5
3AE
100
AcDbEntity
  8
ASSI
100
AcDbLine
 62
253
  6
CONTINUOUS
 10
105.3142009641
 20
84.6210317328
 11
105.3273684211
 21
84.6078642759
  0
LINE
  5
3AF
100
AcDbEntity
  8
ASSI
100
AcDbLine
 62
7
  6
CONTINUOUS
 10
101.2273684211
 20
89.2078947368
 11
101.314637099
 21
89.1206260589
  0
LINE
  5
3B0
100
AcDbEntity
  8
ASSI
100
AcDbLine
 62
7
  6
CONTINUOUS
 10
104.0273684211
 20
86.5078947368
 11
104.0142009641
 21
86.5210621938
  0
LINE
  5
3B1
100
AcDbEntity
  8
ASSI
100
AcDbLine
 62
253
  6
CONTINUOUS
 10
105.3099895085
 20
86.5253498018
 11
105.3273684856
 21
86.5078948014
  0
LINE
  5
3B2
100
AcDbEntity
  8
ASSI
100
AcDbLine
 62
7
  6
CONTINUOUS
 10
86.2142009641
 20
132.4660762074
 11
86.2273684211
 21
132.0305444677
  0
LINE
  5
3B3
100
AcDbEntity
  8
ASSI
100
AcDbLine
 62
253
  6
CONTINUOUS
 10
87.3290834619
 20
132.0305444677
 11
87.3138102558
 21
132.5357267581
  0
LINE
  5
3B4
100
AcDbEntity
  8
ASSI
100
AcDbLine
 62
253
  6
CONTINUOUS
 10
87.51380326
 20
84.626974928
 11
87.5137167557
 21
84.6300221403
  0
LINE
  5
3B5
100
AcDbEntity
  8
ASSI
100
AcDbLine
 62
253
  6
CONTINUOUS
 10
87.5273684211
 20
132.259469345
 11
87.5137171809
 21
132.711199946
  0
LINE
  5
3B6
100
AcDbEntity
  8
ASSI
100
AcDbLine
 62
253
  6
CONTINUOUS
 10
87.5137167557
 20
84.6300221403
 11
87.5136359873
 21
84.6336774414
  0
LINE
  5
3B7
100
AcDbEntity
  8
ASSI
100
AcDbLine
 62
253
  6
CONTINUOUS
 10
87.5137171809
 20
132.711199946
 11
87.513625047
 21
132.7154471038
  0
LINE
  5
3B8
100
AcDbEntity
  8
ASSI
100
AcDbLine
 62
253
  6
CONTINUOUS
 10
87.513625047
 20
132.7154471038
 11
87.5135387647
 21
132.7207071221
  0
LINE
  5
3B9
100
AcDbEntity
  8
ASSI
100
AcDbLine
 62
253
  6
CONTINUOUS
 10
87.5136359873
 20
84.6336774414
 11
87.5135289731
 21
84.6402065931
  0
LINE
  5
3BA
100
AcDbEntity
  8
ASSI
100
AcDbLine
 62
253
  6
CONTINUOUS
 10
87.3141036539
 20
84.4243995654
 11
87.3140140057
 21
84.4300584966
  0
LINE
  5
3BB
100
AcDbEntity
  8
ASSI
100
AcDbLine
 62
253
  6
CONTINUOUS
 10
87.5135387647
 20
132.7207071221
 11
87.5134417431
 21
132.7291793852
  0
LINE
  5
3BC
100
AcDbEntity
  8
ASSI
100
AcDbLine
 62
253
  6
CONTINUOUS
 10
87.5135289731
 20
84.6402065931
 11
87.5134203693
 21
84.6505020091
  0
LINE
  5
3BD
100
AcDbEntity
  8
ASSI
100
AcDbLine
 62
253
  6
CONTINUOUS
 10
87.3140140057
 20
84.4300584966
 11
87.3138781751
 21
84.4443817155
  0
LINE
  5
3BE
100
AcDbEntity
  8
ASSI
100
AcDbLine
 62
253
  6
CONTINUOUS
 10
87.5134417431
 20
132.7291793852
 11
87.5133634978
 21
132.741581636
  0
LINE
  5
3BF
100
AcDbEntity
  8
ASSI
100
AcDbLine
 62
253
  6
CONTINUOUS
 10
87.5134203693
 20
84.6505020091
 11
87.5133577294
 21
84.662015312
  0
LINE
  5
3C0
100
AcDbEntity
  8
ASSI
100
AcDbLine
 62
253
  6
CONTINUOUS
 10
87.3138781751
 20
84.4443817155
 11
87.3135594427
 21
84.5169399937
  0
LINE
  5
3C1
100
AcDbEntity
  8
ASSI
100
AcDbLine
 62
253
  6
CONTINUOUS
 10
87.3138102755
 20
132.5357267581
 11
87.3134722311
 21
132.6369514843
  0
LWPOLYLINE
  5
3C2
100
AcDbEntity
  8
ASSI
100
AcDbPolyline
 62
253
  6
CONTINUOUS
 90
3
 70
0
 10
87.3135594427
 20
84.5169399937
 10
87.3133755543
 20
84.6559432015
 10
87.3133739035
 20
84.6710241176
  0
LINE
  5
3C3
100
AcDbEntity
  8
ASSI
100
AcDbLine
 62
7
  6
CONTINUOUS
 10
87.3485573121
 20
89.2079030516
 11
87.349010272
 21
88.0862528859
  0
LINE
  5
3C4
100
AcDbEntity
  8
ASSI
100
AcDbLine
 62
7
  6
CONTINUOUS
 10
88.3065651424
 20
128.6078947368
 11
88.3061344869
 21
129.6503506068
  0
LINE
  5
3C5
100
AcDbEntity
  8
ASSI
100
AcDbLine
 62
7
  6
CONTINUOUS
 10
86.6868292002
 20
87.7000527791
 11
86.6868292002
 21
87.9206260589
  0
LINE
  5
3C6
100
AcDbEntity
  8
ASSI
100
AcDbLine
 62
7
  6
CONTINUOUS
 10
86.6868292002
 20
129.8951634148
 11
86.6868292002
 21
130.1157366946
  0
LINE
  5
3C7
100
AcDbEntity
  8
SMUSSO
100
AcDbLine
 62
7
  6
CONTINUOUS
 10
87.1500181519
 20
116.6805444677
 11
87.1500181519
 21
121.135245006
  0
LINE
  5
3C8
100
AcDbEntity
  8
0
100
AcDbLine
 62
7
  6
CONTINUOUS
 10
87.1500181519
 20
116.6805444677
 11
87.1500181519
 21
121.135245006
  0
LINE
  5
3C9
100
AcDbEntity
  8
SMUSSO
100
AcDbLine
 62
7
  6
CONTINUOUS
 10
87.1500181519
 20
121.6805444677
 11
87.1500181519
 21
126.135245006
  0
LINE
  5
3CA
100
AcDbEntity
  8
0
100
AcDbLine
 62
7
  6
CONTINUOUS
 10
87.1500181519
 20
121.6805444677
 11
87.1500181519
 21
126.135245006
  0
LINE
  5
3CB
100
AcDbEntity
  8
DRAFT
100
AcDbLine
 62
7
  6
CONTINUOUS
 10
87.2383475899
 20
88.0578947368
 11
87.2383475899
 21
89.296915568
  0
LINE
  5
3CC
100
AcDbEntity
  8
0
100
AcDbLine
 62
7
  6
CONTINUOUS
 10
87.2383475899
 20
88.0578947368
 11
87.2383475899
 21
89.296915568
  0
LINE
  5
3CD
100
AcDbEntity
  8
DRAFT
100
AcDbLine
 62
7
  6
CONTINUOUS
 10
87.2383475899
 20
128.5188739057
 11
87.2383475899
 21
129.7578947368
  0
LINE
  5
3CE
100
AcDbEntity
  8
0
100
AcDbLine
 62
7
  6
CONTINUOUS
 10
87.2383475899
 20
128.5188739057
 11
87.2383475899
 21
129.7578947368
  0
LINE
  5
3CF
100
AcDbEntity
  8
DRAFT
100
AcDbLine
 62
7
  6
CONTINUOUS
 10
87.3273684211
 20
88.0578947368
 11
87.3273684211
 21
89.2078947368
  0
LINE
  5
3D0
100
AcDbEntity
  8
0
100
AcDbLine
 62
7
  6
CONTINUOUS
 10
87.3273684211
 20
88.0578947368
 11
87.3273684211
 21
89.2078947368
  0
LINE
  5
3D1
100
AcDbEntity
  8
DRAFT
100
AcDbLine
 62
7
  6
CONTINUOUS
 10
87.3273684211
 20
128.6078947368
 11
87.3273684211
 21
129.7578947368
  0
LINE
  5
3D2
100
AcDbEntity
  8
0
100
AcDbLine
 62
7
  6
CONTINUOUS
 10
87.3273684211
 20
128.6078947368
 11
87.3273684211
 21
129.7578947368
  0
LINE
  5
3D3
100
AcDbEntity
  8
ASSI
100
AcDbLine
 62
7
  6
CONTINUOUS
 10
87.514637099
 20
87.9206260589
 11
87.514637099
 21
89.1206260589
  0
LINE
  5
3D4
100
AcDbEntity
  8
ASSI
100
AcDbLine
 62
7
  6
CONTINUOUS
 10
87.514637099
 20
128.6951634148
 11
87.514637099
 21
129.8951634148
  0
LINE
  5
3D5
100
AcDbEntity
  8
ASSI
100
AcDbLine
 62
7
  6
CONTINUOUS
 10
87.5273684211
 20
133.2079251978
 11
87.5273684211
 21
131.3078947368
  0
LINE
  5
3D6
100
AcDbEntity
  8
ASSI
100
AcDbLine
 62
7
  6
CONTINUOUS
 10
87.5273684211
 20
86.5078947368
 11
87.5273684211
 21
84.6078642759
  0
LINE
  5
3D7
100
AcDbEntity
  8
SMUSSO
100
AcDbLine
 62
7
  6
CONTINUOUS
 10
87.7273684211
 20
117.2578947368
 11
87.7273684211
 21
120.5578947368
  0
LINE
  5
3D8
100
AcDbEntity
  8
0
100
AcDbLine
 62
7
  6
CONTINUOUS
 10
87.7273684211
 20
117.2578947368
 11
87.7273684211
 21
120.5578947368
  0
LINE
  5
3D9
100
AcDbEntity
  8
SMUSSO
100
AcDbLine
 62
7
  6
CONTINUOUS
 10
87.7273684211
 20
122.2578947368
 11
87.7273684211
 21
125.5578947368
  0
LINE
  5
3DA
100
AcDbEntity
  8
0
100
AcDbLine
 62
7
  6
CONTINUOUS
 10
87.7273684211
 20
122.2578947368
 11
87.7273684211
 21
125.5578947368
  0
LINE
  5
3DB
100
AcDbEntity
  8
0
100
AcDbLine
 62
7
  6
CONTINUOUS
 10
87.8273684211
 20
117.4578947368
 11
87.8273684211
 21
120.4578947369
  0
LINE
  5
3DC
100
AcDbEntity
  8
0
100
AcDbLine
 62
7
  6
CONTINUOUS
 10
87.8273684211
 20
122.4578947368
 11
87.8273684211
 21
125.4578947369
  0
LINE
  5
3DD
100
AcDbEntity
  8
ASSI
100
AcDbLine
 62
7
  6
CONTINUOUS
 10
88.1400997431
 20
87.8333440876
 11
88.1400997431
 21
89.1206260589
  0
LINE
  5
3DE
100
AcDbEntity
  8
ASSI
100
AcDbLine
 62
7
  6
CONTINUOUS
 10
88.1400997431
 20
128.6951634148
 11
88.1400997431
 21
129.9824453861
  0
LINE
  5
3DF
100
AcDbEntity
  8
ASSI
100
AcDbLine
 62
253
  6
CONTINUOUS
 10
87.3134722311
 20
132.6369514843
 11
87.3133746239
 21
133.1566717069
  0
LINE
  5
3E0
100
AcDbEntity
  8
ASSI
100
AcDbLine
 62
253
  6
CONTINUOUS
 10
87.3133739035
 20
84.6710241176
 11
87.3133768865
 21
85.0847266897
  0
LINE
  5
3E1
100
AcDbEntity
  8
ASSI
100
AcDbLine
 62
253
  6
CONTINUOUS
 10
87.5133634978
 20
132.741581636
 11
87.5133441572
 21
133.1471597169
  0
LINE
  5
3E2
100
AcDbEntity
  8
ASSI
100
AcDbLine
 62
253
  6
CONTINUOUS
 10
87.5133577294
 20
84.662015312
 11
87.5133440089
 21
85.0656574456
  0
LINE
  5
3E3
100
AcDbEntity
  8
ASSI
100
AcDbLine
 62
7
  6
CONTINUOUS
 10
87.349010272
 20
129.7295365878
 11
87.3485573121
 21
128.6078864221
  0
LINE
  5
3E4
100
AcDbEntity
  8
ASSI
100
AcDbLine
 62
7
  6
CONTINUOUS
 10
88.3061344869
 20
88.1654388669
 11
88.3065651424
 21
89.2078947368
  0
LINE
  5
3E5
100
AcDbEntity
  8
ASSI
100
AcDbLine
 62
253
  6
CONTINUOUS
 10
87.3133746239
 20
133.1566717069
 11
87.3135522549
 21
133.2961854792
  0
LINE
  5
3E6
100
AcDbEntity
  8
ASSI
100
AcDbLine
 62
253
  6
CONTINUOUS
 10
87.3133768865
 20
85.0847266897
 11
87.3135641271
 21
85.219342489
  0
LINE
  5
3E7
100
AcDbEntity
  8
ASSI
100
AcDbLine
 62
253
  6
CONTINUOUS
 10
87.5133441572
 20
133.1471597169
 11
87.5133841293
 21
133.1598535008
  0
LINE
  5
3E8
100
AcDbEntity
  8
ASSI
100
AcDbLine
 62
253
  6
CONTINUOUS
 10
87.5133440089
 20
85.0656574456
 11
87.5133866733
 21
85.0790877537
  0
LINE
  5
3E9
100
AcDbEntity
  8
ASSI
100
AcDbLine
 62
253
  6
CONTINUOUS
 10
87.3135641271
 20
85.219342489
 11
87.3138102801
 21
85.2800635205
  0
LINE
  5
3EA
100
AcDbEntity
  8
ASSI
100
AcDbLine
 62
253
  6
CONTINUOUS
 10
87.3135522549
 20
133.2961854792
 11
87.3138746111
 21
133.3709013638
  0
LINE
  5
3EB
100
AcDbEntity
  8
ASSI
100
AcDbLine
 62
253
  6
CONTINUOUS
 10
87.5133841293
 20
133.1598535008
 11
87.5134646485
 21
133.1701763182
  0
LINE
  5
3EC
100
AcDbEntity
  8
ASSI
100
AcDbLine
 62
253
  6
CONTINUOUS
 10
87.5133866733
 20
85.0790877537
 11
87.5134804886
 21
85.090454776
  0
LWPOLYLINE
  5
3ED
100
AcDbEntity
  8
ASSI
100
AcDbPolyline
 62
253
  6
CONTINUOUS
 90
6
 70
0
 10
87.3138746111
 20
133.3709013638
 10
87.3140230839
 20
133.3864211551
 10
87.314074396
 20
133.3898502334
 10
87.3141261254
 20
133.392381663
 10
87.3141784684
 20
133.3940088786
 10
87.3142314251
 20
133.3947272799
  0
LINE
  5
3EE
100
AcDbEntity
  8
ASSI
100
AcDbLine
 62
253
  6
CONTINUOUS
 10
87.5134646485
 20
133.1701763182
 11
87.5135542822
 21
133.1773487466
  0
LINE
  5
3EF
100
AcDbEntity
  8
ASSI
100
AcDbLine
 62
253
  6
CONTINUOUS
 10
87.5134804886
 20
85.090454776
 11
87.5135633724
 21
85.0967416845
  0
LINE
  5
3F0
100
AcDbEntity
  8
ASSI
100
AcDbLine
 62
253
  6
CONTINUOUS
 10
87.5135542822
 20
133.1773487466
 11
87.5136663645
 21
133.183592591
  0
LINE
  5
3F1
100
AcDbEntity
  8
ASSI
100
AcDbLine
 62
253
  6
CONTINUOUS
 10
87.5135633724
 20
85.0967416845
 11
87.5136642183
 21
85.1022868143
  0
LINE
  5
3F2
100
AcDbEntity
  8
ASSI
100
AcDbLine
 62
253
  6
CONTINUOUS
 10
87.5136642183
 20
85.1022868143
 11
87.5137396461
 21
85.1054427317
  0
LWPOLYLINE
  5
3F3
100
AcDbEntity
  8
ASSI
100
AcDbPolyline
 62
253
  6
CONTINUOUS
 90
11
 70
0
 10
87.5136663645
 20
133.183592591
 10
87.5137517348
 20
133.1870967495
 10
87.5137970675
 20
133.1886203279
 10
87.5138441488
 20
133.1899931815
 10
87.5138924359
 20
133.1911975657
 10
87.5139419491
 20
133.1922310024
 10
87.513992668
 20
133.1930959697
 10
87.5140439894
 20
133.1937821581
 10
87.514095712
 20
133.1942861312
 10
87.5141480369
 20
133.1946113255
 10
87.5142009641
 20
133.1947577409
  0
LINE
  5
3F4
100
AcDbEntity
  8
ASSI
100
AcDbLine
 62
7
  6
CONTINUOUS
 10
86.2273684211
 20
85.785245006
 11
86.2142009641
 21
85.3497132663
  0
LINE
  5
3F5
100
AcDbEntity
  8
ASSI
100
AcDbLine
 62
253
  6
CONTINUOUS
 10
87.3138102801
 20
85.2800635205
 11
87.3290834619
 21
85.785245006
  0
LINE
  5
3F6
100
AcDbEntity
  8
ASSI
100
AcDbLine
 62
253
  6
CONTINUOUS
 10
87.5137396461
 20
85.1054427317
 11
87.5273684211
 21
85.5563201287
  0
LINE
  5
3F7
100
AcDbEntity
  8
ASSI
100
AcDbLine
 62
253
  6
CONTINUOUS
 10
105.8273684211
 20
130.8079708893
 11
105.8099133561
 21
130.7905158243
  0
LINE
  5
3F8
100
AcDbEntity
  8
RACCORDO
100
AcDbLine
 62
253
  6
CONTINUOUS
 10
104.0156071526
 20
127.3022787726
 11
104.722606238
 21
128.009277858
  0
LINE
  5
3F9
100
AcDbEntity
  8
0
100
AcDbLine
 62
253
  6
CONTINUOUS
 10
104.0156071526
 20
127.3022787726
 11
104.722606238
 21
128.009277858
  0
LINE
  5
3FA
100
AcDbEntity
  8
RACCORDO
100
AcDbLine
 62
253
  6
CONTINUOUS
 10
104.1933740289
 20
127.1245118963
 11
104.9003731143
 21
127.8315109817
  0
LINE
  5
3FB
100
AcDbEntity
  8
0
100
AcDbLine
 62
253
  6
CONTINUOUS
 10
104.1933740289
 20
127.1245118963
 11
104.9003731143
 21
127.8315109817
  0
LINE
  5
3FC
100
AcDbEntity
  8
0
100
AcDbLine
 62
253
  6
CONTINUOUS
 10
105.8078035381
 20
101.1301057368
 11
105.8042850232
 21
101.1301057368
  0
LINE
  5
3FD
100
AcDbEntity
  8
0
100
AcDbLine
 62
253
  6
CONTINUOUS
 10
105.5108678859
 20
101.6078947368
 11
105.5370464955
 21
101.6078947368
  0
LINE
  5
3FE
100
AcDbEntity
  8
0
100
AcDbLine
 62
253
  6
CONTINUOUS
 10
105.5333066944
 20
102.0364659611
 11
105.5258270921
 21
102.0364659611
  0
LINE
  5
3FF
100
AcDbEntity
  8
0
100
AcDbLine
 62
253
  6
CONTINUOUS
 10
105.5108678859
 20
102.7864659611
 11
105.5370464955
 21
102.7864659611
  0
LINE
  5
400
100
AcDbEntity
  8
ASSI
100
AcDbLine
 62
253
  6
CONTINUOUS
 10
105.8099133561
 20
87.0252736494
 11
105.8273684211
 21
87.0078185844
  0
LINE
  5
401
100
AcDbEntity
  8
RACCORDO
100
AcDbLine
 62
253
  6
CONTINUOUS
 10
104.0156071526
 20
90.5135107011
 11
104.722606238
 21
89.8065116157
  0
LINE
  5
402
100
AcDbEntity
  8
0
100
AcDbLine
 62
253
  6
CONTINUOUS
 10
104.0156071526
 20
90.5135107011
 11
104.722606238
 21
89.8065116157
  0
LINE
  5
403
100
AcDbEntity
  8
RACCORDO
100
AcDbLine
 62
253
  6
CONTINUOUS
 10
104.1933740289
 20
90.6912775774
 11
104.9003731143
 21
89.984278492
  0
LINE
  5
404
100
AcDbEntity
  8
0
100
AcDbLine
 62
253
  6
CONTINUOUS
 10
104.1933740289
 20
90.6912775774
 11
104.9003731143
 21
89.984278492
  0
LWPOLYLINE
  5
405
100
AcDbEntity
  8
ASSI
100
AcDbPolyline
 62
7
  6
CONTINUOUS
 90
13
 70
0
 10
87.5273684211
 20
133.2079251978
 10
87.5256581569
 20
133.2340273247
 10
87.5205559805
 20
133.2596825029
 10
87.5121489993
 20
133.2844520243
 10
87.5005807582
 20
133.3079124812
 10
87.486048971
 20
133.3296622871
 10
87.4688023933
 20
133.3493287091
 10
87.4491359713
 20
133.3665752868
 10
87.4273861654
 20
133.381107074
 10
87.4039257086
 20
133.3926753151
 10
87.3791561871
 20
133.4010822963
 10
87.3535010089
 20
133.4061844727
 10
87.327398882
 20
133.4078947368
  0
LWPOLYLINE
  5
406
100
AcDbEntity
  8
ASSI
100
AcDbPolyline
 62
7
  6
CONTINUOUS
 90
16
 70
0
 10
90.2773684211
 20
85.1578566606
 10
90.2787178333
 20
85.1319137537
 10
90.2827741042
 20
85.1061467196
 10
90.2895261067
 20
85.0808411523
 10
90.2989720109
 20
85.0561937487
 10
90.3110178887
 20
85.0325872908
 10
90.3253852774
 20
85.0105401459
 10
90.3417166861
 20
84.9904297254
 10
90.3599034097
 20
84.9722430019
 10
90.3800138301
 20
84.9559115932
 10
90.402060975
 20
84.9415442045
 10
90.4256674329
 20
84.9294983267
 10
90.4503148365
 20
84.9200524225
 10
90.4756204038
 20
84.91330042
 10
90.5013874379
 20
84.9092441491
 10
90.5273303448
 20
84.9078947368
  0
LINE
  5
407
100
AcDbEntity
  8
ASSI
100
AcDbLine
 62
7
  6
CONTINUOUS
 10
89.268478483
 20
88.9873336555
 11
89.2691740729
 21
88.166089085
  0
LINE
  5
408
100
AcDbEntity
  8
ASSI
100
AcDbLine
 62
253
  6
CONTINUOUS
 10
90.3753097976
 20
86.6058361134
 11
90.375617255
 21
85.2561054946
  0
LINE
  5
409
100
AcDbEntity
  8
ASSI
100
AcDbLine
 62
7
  6
CONTINUOUS
 10
89.6019190703
 20
129.9824453861
 11
89.6019190703
 21
128.9951634148
  0
LINE
  5
40A
100
AcDbEntity
  8
ASSI
100
AcDbLine
 62
7
  6
CONTINUOUS
 10
89.6019190703
 20
88.8206260589
 11
89.6019190703
 21
87.8333440876
  0
LINE
  5
40B
100
AcDbEntity
  8
ASSI
100
AcDbLine
 62
7
  6
CONTINUOUS
 10
90.2773684211
 20
85.1578566606
 11
90.2773684211
 21
85.4899497897
  0
LINE
  5
40C
100
AcDbEntity
  8
ASSI
100
AcDbLine
 62
7
  6
CONTINUOUS
 10
90.2773684211
 20
85.925839684
 11
90.2773684211
 21
86.5078947368
  0
LINE
  5
40D
100
AcDbEntity
  8
ASSI
100
AcDbLine
 62
7
  6
CONTINUOUS
 10
90.2773684211
 20
131.3078947368
 11
90.2773684211
 21
131.8899497897
  0
LINE
  5
40E
100
AcDbEntity
  8
ASSI
100
AcDbLine
 62
7
  6
CONTINUOUS
 10
90.2773684211
 20
132.325839684
 11
90.2773684211
 21
132.6579328131
  0
LINE
  5
40F
100
AcDbEntity
  8
ASSI
100
AcDbLine
 62
7
  6
CONTINUOUS
 10
90.3733712782
 20
132.4472748322
 11
90.3733712782
 21
131.7685146415
  0
LINE
  5
410
100
AcDbEntity
  8
ASSI
100
AcDbLine
 62
7
  6
CONTINUOUS
 10
90.3733712782
 20
86.0472748322
 11
90.3733712782
 21
85.3685146415
  0
LINE
  5
411
100
AcDbEntity
  8
ASSI
100
AcDbLine
 62
253
  6
CONTINUOUS
 10
90.3756172551
 20
132.559683979
 11
90.3753097976
 21
131.2099533603
  0
LINE
  5
412
100
AcDbEntity
  8
ASSI
100
AcDbLine
 62
7
  6
CONTINUOUS
 10
89.2691740729
 20
129.6497003886
 11
89.268478483
 21
128.8284558182
  0
LWPOLYLINE
  5
413
100
AcDbEntity
  8
ASSI
100
AcDbPolyline
 62
7
  6
CONTINUOUS
 90
16
 70
0
 10
90.2773684211
 20
132.6579328131
 10
90.2787178333
 20
132.68387572
 10
90.2827741042
 20
132.7096427541
 10
90.2895261067
 20
132.7349483214
 10
90.2989720109
 20
132.759595725
 10
90.3110178887
 20
132.7832021829
 10
90.3253852774
 20
132.8052493278
 10
90.3417166861
 20
132.8253597482
 10
90.3599034097
 20
132.8435464718
 10
90.3800138301
 20
132.8598778805
 10
90.402060975
 20
132.8742452692
 10
90.4256674329
 20
132.886291147
 10
90.4503148365
 20
132.8957370512
 10
90.4756204038
 20
132.9024890537
 10
90.5013874379
 20
132.9065453246
 10
90.5273303448
 20
132.9078947368
  0
LWPOLYLINE
  5
414
100
AcDbEntity
  8
ASSI
100
AcDbPolyline
 62
7
  6
CONTINUOUS
 90
13
 70
0
 10
87.5273684211
 20
84.6078642759
 10
87.5256581569
 20
84.581762149
 10
87.5205559805
 20
84.5561069708
 10
87.5121489993
 20
84.5313374493
 10
87.5005807582
 20
84.5078769925
 10
87.486048971
 20
84.4861271866
 10
87.4688023933
 20
84.4664607646
 10
87.4491359713
 20
84.4492141869
 10
87.4273861654
 20
84.4346823997
 10
87.4039257086
 20
84.4231141586
 10
87.3791561871
 20
84.4147071774
 10
87.3535010089
 20
84.409605001
 10
87.327398882
 20
84.4078947368
  0
LINE
  5
415
100
AcDbEntity
  8
0
100
AcDbLine
 62
253
  6
CONTINUOUS
 10
105.5146076874
 20
103.2150379005
 11
105.5370464955
 21
103.2150379005
  0
LINE
  5
416
100
AcDbEntity
  8
0
100
AcDbLine
 62
253
  6
CONTINUOUS
 10
105.5370464955
 20
103.9650379005
 11
105.5146076874
 21
103.9650379005
  0
LINE
  5
417
100
AcDbEntity
  8
0
100
AcDbLine
 62
253
  6
CONTINUOUS
 10
105.5108678859
 20
104.822180349
 11
105.5370464955
 21
104.822180349
  0
LINE
  5
418
100
AcDbEntity
  8
ASSI
100
AcDbLine
 62
253
  6
CONTINUOUS
 10
90.8816561683
 20
132.8096874509
 11
90.8795142647
 21
132.8914834477
  0
LINE
  5
419
100
AcDbEntity
  8
ASSI
100
AcDbLine
 62
7
  6
CONTINUOUS
 10
91.2262026188
 20
128.9524149269
 11
91.2273684211
 21
128.9078947368
  0
LINE
  5
41A
100
AcDbEntity
  8
ASSI
100
AcDbLine
 62
7
  6
CONTINUOUS
 10
91.1677948421
 20
131.1829179337
 11
91.1294335059
 21
132.6478782564
  0
LINE
  5
41B
100
AcDbEntity
  8
ASSI
100
AcDbLine
 62
253
  6
CONTINUOUS
 10
91.4202114312
 20
130.1157366946
 11
91.427330339
 21
129.7078947368
  0
LINE
  5
41C
100
AcDbEntity
  8
ASSI
100
AcDbLine
 62
253
  6
CONTINUOUS
 10
91.4061440359
 20
131.1716191549
 11
91.4071221264
 21
131.1155843897
  0
LINE
  5
41D
100
AcDbEntity
  8
ASSI
100
AcDbLine
 62
7
  6
CONTINUOUS
 10
91.6561684823
 20
130.9224384129
 11
91.67578014
 21
129.7988872954
  0
LINE
  5
41E
100
AcDbEntity
  8
ASSI
100
AcDbLine
 62
253
  6
CONTINUOUS
 10
91.4071221264
 20
131.1155843897
 11
91.4202114312
 21
130.1157366946
  0
LINE
  5
41F
100
AcDbEntity
  8
DRAFT
100
AcDbLine
 62
7
  6
CONTINUOUS
 10
91.2273684211
 20
128.8078947368
 11
91.2273684211
 21
128.6078947368
  0
LINE
  5
420
100
AcDbEntity
  8
0
100
AcDbLine
 62
7
  6
CONTINUOUS
 10
91.2273684211
 20
128.8078947368
 11
91.2273684211
 21
128.6078947368
  0
LINE
  5
421
100
AcDbEntity
  8
DRAFT
100
AcDbLine
 62
7
  6
CONTINUOUS
 10
91.2273684211
 20
89.2078947368
 11
91.2273684211
 21
89.0078947368
  0
LINE
  5
422
100
AcDbEntity
  8
0
100
AcDbLine
 62
7
  6
CONTINUOUS
 10
91.2273684211
 20
89.2078947368
 11
91.2273684211
 21
89.0078947368
  0
LINE
  5
423
100
AcDbEntity
  8
DRAFT
100
AcDbLine
 62
7
  6
CONTINUOUS
 10
91.3163892522
 20
128.7188739057
 11
91.3163892522
 21
128.5188739057
  0
LINE
  5
424
100
AcDbEntity
  8
0
100
AcDbLine
 62
7
  6
CONTINUOUS
 10
91.3163892522
 20
128.7188739057
 11
91.3163892522
 21
128.5188739057
  0
LINE
  5
425
100
AcDbEntity
  8
DRAFT
100
AcDbLine
 62
7
  6
CONTINUOUS
 10
91.3163892522
 20
89.296915568
 11
91.3163892522
 21
89.096915568
  0
LINE
  5
426
100
AcDbEntity
  8
0
100
AcDbLine
 62
7
  6
CONTINUOUS
 10
91.3163892522
 20
89.296915568
 11
91.3163892522
 21
89.096915568
  0
LINE
  5
427
100
AcDbEntity
  8
RACCORDO
100
AcDbLine
 62
7
  6
CONTINUOUS
 10
92.2273684211
 20
128.9611407982
 11
92.2273684211
 21
128.8078947368
  0
LINE
  5
428
100
AcDbEntity
  8
0
100
AcDbLine
 62
7
  6
CONTINUOUS
 10
92.2273684211
 20
128.9611407982
 11
92.2273684211
 21
128.8078947368
  0
LINE
  5
429
100
AcDbEntity
  8
RACCORDO
100
AcDbLine
 62
7
  6
CONTINUOUS
 10
92.2273684211
 20
89.0078947368
 11
92.2273684211
 21
88.8546486755
  0
LINE
  5
42A
100
AcDbEntity
  8
0
100
AcDbLine
 62
7
  6
CONTINUOUS
 10
92.2273684211
 20
89.0078947368
 11
92.2273684211
 21
88.8546486755
  0
LINE
  5
42B
100
AcDbEntity
  8
RACCORDO
100
AcDbLine
 62
253
  6
CONTINUOUS
 10
92.2293880971
 20
88.8546486755
 11
92.2293880971
 21
89.0099144129
  0
LINE
  5
42C
100
AcDbEntity
  8
0
100
AcDbLine
 62
253
  6
CONTINUOUS
 10
92.2293880971
 20
88.8546486755
 11
92.2293880971
 21
89.0099144129
  0
LINE
  5
42D
100
AcDbEntity
  8
RACCORDO
100
AcDbLine
 62
253
  6
CONTINUOUS
 10
92.2293880971
 20
128.8058750608
 11
92.2293880971
 21
128.9611407982
  0
LINE
  5
42E
100
AcDbEntity
  8
0
100
AcDbLine
 62
253
  6
CONTINUOUS
 10
92.2293880971
 20
128.8058750608
 11
92.2293880971
 21
128.9611407982
  0
LINE
  5
42F
100
AcDbEntity
  8
0
100
AcDbLine
 62
7
  6
CONTINUOUS
 10
92.7273684211
 20
125.4578947369
 11
92.7273684211
 21
122.4578947368
  0
LINE
  5
430
100
AcDbEntity
  8
0
100
AcDbLine
 62
7
  6
CONTINUOUS
 10
92.7273684211
 20
120.4578947369
 11
92.7273684211
 21
117.4578947368
  0
LINE
  5
431
100
AcDbEntity
  8
ASSI
100
AcDbLine
 62
253
  6
CONTINUOUS
 10
91.4202114312
 20
87.7000527791
 11
91.4071221264
 21
86.7002050839
  0
LINE
  5
432
100
AcDbEntity
  8
ASSI
100
AcDbLine
 62
253
  6
CONTINUOUS
 10
91.427330339
 20
88.1078947368
 11
91.4202114312
 21
87.7000527791
  0
LINE
  5
433
100
AcDbEntity
  8
ASSI
100
AcDbLine
 62
253
  6
CONTINUOUS
 10
91.4071221264
 20
86.7002050839
 11
91.4061440359
 21
86.6441703188
  0
LINE
  5
434
100
AcDbEntity
  8
ASSI
100
AcDbLine
 62
7
  6
CONTINUOUS
 10
91.67578014
 20
88.0169021783
 11
91.6561684823
 21
86.8933510608
  0
LINE
  5
435
100
AcDbEntity
  8
ASSI
100
AcDbLine
 62
253
  6
CONTINUOUS
 10
90.8795142647
 20
84.924306026
 11
90.8816561683
 21
85.0061020228
  0
LINE
  5
436
100
AcDbEntity
  8
ASSI
100
AcDbLine
 62
7
  6
CONTINUOUS
 10
91.1294335059
 20
85.1679112172
 11
91.1677948421
 21
86.6328715399
  0
LINE
  5
437
100
AcDbEntity
  8
ASSI
100
AcDbLine
 62
7
  6
CONTINUOUS
 10
91.2262026188
 20
88.8633745468
 11
91.2273684211
 21
88.9078947368
  0
LINE
  5
438
100
AcDbEntity
  8
RACCORDO
100
AcDbLine
 62
253
  6
CONTINUOUS
 10
84.7321306041
 20
89.8065116157
 11
84.6423508757
 21
89.5897641777
  0
LINE
  5
439
100
AcDbEntity
  8
0
100
AcDbLine
 62
253
  6
CONTINUOUS
 10
84.7321306041
 20
89.8065116157
 11
84.6423508757
 21
89.5897641777
  0
LINE
  5
43A
100
AcDbEntity
  8
ASSI
100
AcDbLine
 62
7
  6
CONTINUOUS
 10
101.1486023552
 20
129.6503506068
 11
101.314637099
 21
129.9824453861
  0
LINE
  5
43B
100
AcDbEntity
  8
0
100
AcDbLine
 62
253
  6
CONTINUOUS
 10
105.5333066944
 20
106.9650379005
 11
105.5258270921
 21
106.9650379005
  0
LINE
  5
43C
100
AcDbEntity
  8
ASSI
100
AcDbLine
 62
7
  6
CONTINUOUS
 10
101.314637099
 20
87.8333440876
 11
101.1486023552
 21
88.1654388669
  0
LINE
  5
43D
100
AcDbEntity
  8
RACCORDO
100
AcDbLine
 62
253
  6
CONTINUOUS
 10
84.6423508757
 20
128.226025296
 11
84.7321306041
 21
128.009277858
  0
LINE
  5
43E
100
AcDbEntity
  8
0
100
AcDbLine
 62
253
  6
CONTINUOUS
 10
84.6423508757
 20
128.226025296
 11
84.7321306041
 21
128.009277858
  0
LINE
  5
43F
100
AcDbEntity
  8
ASSI
100
AcDbLine
 62
7
  6
CONTINUOUS
 10
91.1286631026
 20
132.5982905437
 11
91.1315704995
 21
132.5662697642
  0
LWPOLYLINE
  5
440
100
AcDbEntity
  8
ASSI
100
AcDbPolyline
 62
253
  6
CONTINUOUS
 90
13
 70
0
 10
91.6570840502
 20
130.8699855676
 10
91.6544299156
 20
130.9022085305
 10
91.6476380044
 20
130.9338197128
 10
91.6368218216
 20
130.9642901912
 10
91.622162209
 20
130.9931101054
 10
91.6039043321
 20
131.0197971735
 10
91.5823535898
 20
131.0439047691
 10
91.5578704602
 20
131.0650294431
 10
91.5308645594
 20
131.08281759
 10
91.5017878338
 20
131.0969713991
 10
91.4711268479
 20
131.1072539433
 10
91.4393946146
 20
131.1134931017
 10
91.4071221264
 20
131.1155843898
  0
LWPOLYLINE
  5
441
100
AcDbEntity
  8
ASSI
100
AcDbPolyline
 62
7
  6
CONTINUOUS
 90
16
 70
0
 10
95.5273684211
 20
85.1578566606
 10
95.5287178333
 20
85.1319137537
 10
95.5327741042
 20
85.1061467196
 10
95.5395261067
 20
85.0808411523
 10
95.5489720109
 20
85.0561937487
 10
95.5610178887
 20
85.0325872908
 10
95.5753852774
 20
85.0105401459
 10
95.5917166861
 20
84.9904297254
 10
95.6099034097
 20
84.9722430019
 10
95.6300138301
 20
84.9559115932
 10
95.652060975
 20
84.9415442045
 10
95.6756674329
 20
84.9294983267
 10
95.7003148365
 20
84.9200524225
 10
95.7256204038
 20
84.91330042
 10
95.7513874379
 20
84.9092441491
 10
95.7773303448
 20
84.9078947368
  0
LINE
  5
442
100
AcDbEntity
  8
ASSI
100
AcDbLine
 62
7
  6
CONTINUOUS
 10
93.9108428278
 20
85.1743822539
 11
93.9102325268
 21
86.509608154
  0
LINE
  5
443
100
AcDbEntity
  8
RACCORDO
100
AcDbLine
 62
253
  6
CONTINUOUS
 10
93.1292510228
 20
88.8556273678
 11
93.1292510228
 21
89.0253498018
  0
LINE
  5
444
100
AcDbEntity
  8
0
100
AcDbLine
 62
253
  6
CONTINUOUS
 10
93.1292510228
 20
88.8556273678
 11
93.1292510228
 21
89.0253498018
  0
LINE
  5
445
100
AcDbEntity
  8
RACCORDO
100
AcDbLine
 62
253
  6
CONTINUOUS
 10
93.1292510228
 20
128.7904396719
 11
93.1292510228
 21
128.9601621059
  0
LINE
  5
446
100
AcDbEntity
  8
0
100
AcDbLine
 62
253
  6
CONTINUOUS
 10
93.1292510228
 20
128.7904396719
 11
93.1292510228
 21
128.9601621059
  0
LINE
  5
447
100
AcDbEntity
  8
ASSI
100
AcDbLine
 62
7
  6
CONTINUOUS
 10
93.9273684211
 20
132.6579328131
 11
93.9273684211
 21
131.3078947368
  0
LINE
  5
448
100
AcDbEntity
  8
ASSI
100
AcDbLine
 62
7
  6
CONTINUOUS
 10
93.9273684211
 20
86.5078947368
 11
93.9273684211
 21
85.1578566606
  0
LINE
  5
449
100
AcDbEntity
  8
SMUSSO
100
AcDbLine
 62
7
  6
CONTINUOUS
 10
94.7273684211
 20
125.5578947368
 11
94.7273684211
 21
122.2578947368
  0
LINE
  5
44A
100
AcDbEntity
  8
0
100
AcDbLine
 62
7
  6
CONTINUOUS
 10
94.7273684211
 20
125.5578947368
 11
94.7273684211
 21
122.2578947368
  0
LINE
  5
44B
100
AcDbEntity
  8
SMUSSO
100
AcDbLine
 62
7
  6
CONTINUOUS
 10
94.7273684211
 20
120.5578947368
 11
94.7273684211
 21
117.2578947368
  0
LINE
  5
44C
100
AcDbEntity
  8
0
100
AcDbLine
 62
7
  6
CONTINUOUS
 10
94.7273684211
 20
120.5578947368
 11
94.7273684211
 21
117.2578947368
  0
LINE
  5
44D
100
AcDbEntity
  8
ASSI
100
AcDbLine
 62
7
  6
CONTINUOUS
 10
93.9102325268
 20
131.3061813197
 11
93.9108428278
 21
132.6414072198
  0
LWPOLYLINE
  5
44E
100
AcDbEntity
  8
ASSI
100
AcDbPolyline
 62
7
  6
CONTINUOUS
 90
16
 70
0
 10
95.5273684211
 20
132.6579328131
 10
95.5287178333
 20
132.68387572
 10
95.5327741042
 20
132.7096427541
 10
95.5395261067
 20
132.7349483214
 10
95.5489720109
 20
132.759595725
 10
95.5610178887
 20
132.7832021829
 10
95.5753852774
 20
132.8052493278
 10
95.5917166861
 20
132.8253597482
 10
95.6099034097
 20
132.8435464718
 10
95.6300138301
 20
132.8598778805
 10
95.652060975
 20
132.8742452692
 10
95.6756674329
 20
132.886291147
 10
95.7003148365
 20
132.8957370512
 10
95.7256204038
 20
132.9024890537
 10
95.7513874379
 20
132.9065453246
 10
95.7773303448
 20
132.9078947368
  0
LWPOLYLINE
  5
44F
100
AcDbEntity
  8
ASSI
100
AcDbPolyline
 62
7
  6
CONTINUOUS
 90
16
 70
0
 10
91.6561684823
 20
86.8933510608
 10
91.6544654895
 20
86.8671710265
 10
91.6499835365
 20
86.8416186898
 10
91.6427456328
 20
86.8166924693
 10
91.6326284109
 20
86.791965279
 10
91.6198577639
 20
86.767857344
 10
91.6049961001
 20
86.7456371336
 10
91.5882259965
 20
86.7256295473
 10
91.5695454559
 20
86.7074986956
 10
91.5492448611
 20
86.6915219621
 10
91.527343605
 20
86.6776719572
 10
91.5041046184
 20
86.6659609336
 10
91.4801674929
 20
86.6567272866
 10
91.4558313969
 20
86.6500801282
 10
91.431097492
 20
86.6458969556
 10
91.4061440359
 20
86.6441703188
  0
LWPOLYLINE
  5
450
100
AcDbEntity
  8
ASSI
100
AcDbPolyline
 62
253
  6
CONTINUOUS
 90
13
 70
0
 10
91.6570840502
 20
86.9458039061
 10
91.6544296534
 20
86.9135791715
 10
91.6476371226
 20
86.8819666518
 10
91.6368201153
 20
86.8514953114
 10
91.6221596299
 20
86.8226750194
 10
91.6039009764
 20
86.7959880185
 10
91.5823496723
 20
86.7718808555
 10
91.55786633
 20
86.7507569094
 10
91.530860623
 20
86.7329696419
 10
91.5017844311
 20
86.7188166828
 10
91.4711242787
 20
86.7085348501
 10
91.4393931944
 20
86.7022961872
 10
91.4071221264
 20
86.7002050839
  0
LINE
  5
451
100
AcDbEntity
  8
RACCORDO
100
AcDbLine
 62
253
  6
CONTINUOUS
 10
85.4391296895
 20
89.513663006
 11
85.3493499611
 21
89.296915568
  0
LINE
  5
452
100
AcDbEntity
  8
0
100
AcDbLine
 62
253
  6
CONTINUOUS
 10
85.4391296895
 20
89.513663006
 11
85.3493499611
 21
89.296915568
  0
LWPOLYLINE
  5
453
100
AcDbEntity
  8
ASSI
100
AcDbPolyline
 62
253
  6
CONTINUOUS
 90
11
 70
0
 10
105.3142009641
 20
133.1947577409
 10
105.3141568103
 20
133.1946628896
 10
105.3141121417
 20
133.194419924
 10
105.3140669583
 20
133.1940288442
 10
105.3140210003
 20
133.1934936549
 10
105.3139745276
 20
133.1928103513
 10
105.3139283192
 20
133.1919669188
 10
105.3138823661
 20
133.1909581581
 10
105.3138366775
 20
133.1897892685
 10
105.3137920595
 20
133.1884638338
 10
105.3137061026
 20
133.1853341115
  0
LWPOLYLINE
  5
454
100
AcDbEntity
  8
INCISIONI
100
AcDbPolyline
 62
253
  6
CONTINUOUS
 90
15
 70
0
 10
105.8174562813
 20
114.370614763
 10
105.8172093315
 20
114.370518764
 10
105.8169619309
 20
114.3706805415
 10
105.8167143167
 20
114.3711204526
 10
105.8164667259
 20
114.3718588545
 10
105.8162193954
 20
114.3729161043
 10
105.8159725624
 20
114.3743125592
 10
105.8157264638
 20
114.3760685764
 10
105.8154813366
 20
114.378204513
 10
105.8152374179
 20
114.3807407261
 10
105.8149949447
 20
114.3836975729
 10
105.814754154
 20
114.3870954106
 10
105.8145152828
 20
114.3909545964
 10
105.8142785682
 20
114.3952954873
 10
105.8140761057
 20
114.3994440621
  0
LINE
  5
455
100
AcDbEntity
  8
0
100
AcDbLine
 62
253
  6
CONTINUOUS
 10
105.5108678859
 20
107.7150375429
 11
105.5370464955
 21
107.7150375429
  0
LINE
  5
456
100
AcDbEntity
  8
0
100
AcDbLine
 62
253
  6
CONTINUOUS
 10
105.5108678859
 20
108.7864663187
 11
105.5370464955
 21
108.7864663187
  0
LINE
  5
457
100
AcDbEntity
  8
RACCORDO
100
AcDbLine
 62
253
  6
CONTINUOUS
 10
85.3493499611
 20
128.5188739057
 11
85.4391296895
 21
128.3021264677
  0
LINE
  5
458
100
AcDbEntity
  8
0
100
AcDbLine
 62
253
  6
CONTINUOUS
 10
85.3493499611
 20
128.5188739057
 11
85.4391296895
 21
128.3021264677
  0
LWPOLYLINE
  5
459
100
AcDbEntity
  8
ASSI
100
AcDbPolyline
 62
7
  6
CONTINUOUS
 90
5
 70
0
 10
98.3231663426
 20
85.2495197095
 10
98.3260740598
 20
85.2174968788
 10
98.3330690722
 20
85.1861125623
 10
98.3440355066
 20
85.1558860596
 10
98.3587918059
 20
85.1273174449
  0
LWPOLYLINE
  5
45A
100
AcDbEntity
  8
ASSI
100
AcDbPolyline
 62
253
  6
CONTINUOUS
 90
13
 70
0
 10
97.797652792
 20
86.9458039061
 10
97.8003069265
 20
86.9135809432
 10
97.8070988377
 20
86.8819697609
 10
97.8179150205
 20
86.8514992824
 10
97.8325746331
 20
86.8226793683
 10
97.85083251
 20
86.7959923002
 10
97.8723832523
 20
86.7718847046
 10
97.896866382
 20
86.7507600306
 10
97.9238722827
 20
86.7329718837
 10
97.9529490083
 20
86.7188180746
 10
97.9836099943
 20
86.7085355304
 10
98.0153422275
 20
86.702296372
 10
98.0476147157
 20
86.7002050839
  0
LWPOLYLINE
  5
45B
100
AcDbEntity
  8
ASSI
100
AcDbPolyline
 62
7
  6
CONTINUOUS
 90
16
 70
0
 10
93.9273684211
 20
132.6579328131
 10
93.9260190088
 20
132.68387572
 10
93.9219627379
 20
132.7096427541
 10
93.9152107354
 20
132.7349483214
 10
93.9057648312
 20
132.759595725
 10
93.8937189534
 20
132.7832021829
 10
93.8793515647
 20
132.8052493278
 10
93.863020156
 20
132.8253597482
 10
93.8448334324
 20
132.8435464718
 10
93.824723012
 20
132.8598778805
 10
93.8026758671
 20
132.8742452692
 10
93.7790694092
 20
132.886291147
 10
93.7544220056
 20
132.8957370512
 10
93.7291164383
 20
132.9024890537
 10
93.7033494042
 20
132.9065453246
 10
93.6774064973
 20
132.9078947368
  0
LINE
  5
45C
100
AcDbEntity
  8
ASSI
100
AcDbLine
 62
7
  6
CONTINUOUS
 10
95.5445043153
 20
131.3061813197
 11
95.5438940143
 21
132.6414072198
  0
LINE
  5
45D
100
AcDbEntity
  8
SMUSSO
100
AcDbLine
 62
7
  6
CONTINUOUS
 10
95.3047186902
 20
126.135245006
 11
95.3047186902
 21
121.6805444677
  0
LINE
  5
45E
100
AcDbEntity
  8
0
100
AcDbLine
 62
7
  6
CONTINUOUS
 10
95.3047186902
 20
126.135245006
 11
95.3047186902
 21
121.6805444677
  0
LINE
  5
45F
100
AcDbEntity
  8
SMUSSO
100
AcDbLine
 62
7
  6
CONTINUOUS
 10
95.3047186902
 20
121.135245006
 11
95.3047186902
 21
116.6805444677
  0
LINE
  5
460
100
AcDbEntity
  8
0
100
AcDbLine
 62
7
  6
CONTINUOUS
 10
95.3047186902
 20
121.135245006
 11
95.3047186902
 21
116.6805444677
  0
LINE
  5
461
100
AcDbEntity
  8
ASSI
100
AcDbLine
 62
7
  6
CONTINUOUS
 10
95.5273684211
 20
132.6579328131
 11
95.5273684211
 21
131.3078947368
  0
LINE
  5
462
100
AcDbEntity
  8
ASSI
100
AcDbLine
 62
7
  6
CONTINUOUS
 10
95.5273684211
 20
86.5078947368
 11
95.5273684211
 21
85.1578566606
  0
LINE
  5
463
100
AcDbEntity
  8
RACCORDO
100
AcDbLine
 62
253
  6
CONTINUOUS
 10
96.3254858193
 20
128.9601621059
 11
96.3254858193
 21
128.7904396719
  0
LINE
  5
464
100
AcDbEntity
  8
0
100
AcDbLine
 62
253
  6
CONTINUOUS
 10
96.3254858193
 20
128.9601621059
 11
96.3254858193
 21
128.7904396719
  0
LINE
  5
465
100
AcDbEntity
  8
RACCORDO
100
AcDbLine
 62
253
  6
CONTINUOUS
 10
96.3254858193
 20
89.0253498018
 11
96.3254858193
 21
88.8556273678
  0
LINE
  5
466
100
AcDbEntity
  8
0
100
AcDbLine
 62
253
  6
CONTINUOUS
 10
96.3254858193
 20
89.0253498018
 11
96.3254858193
 21
88.8556273678
  0
LINE
  5
467
100
AcDbEntity
  8
ASSI
100
AcDbLine
 62
7
  6
CONTINUOUS
 10
95.5438940143
 20
85.1743822539
 11
95.5445043153
 21
86.509608154
  0
LWPOLYLINE
  5
468
100
AcDbEntity
  8
ASSI
100
AcDbPolyline
 62
7
  6
CONTINUOUS
 90
16
 70
0
 10
93.9273684211
 20
85.1578566606
 10
93.9260190088
 20
85.1319137537
 10
93.9219627379
 20
85.1061467196
 10
93.9152107354
 20
85.0808411523
 10
93.9057648312
 20
85.0561937487
 10
93.8937189534
 20
85.0325872908
 10
93.8793515647
 20
85.0105401459
 10
93.863020156
 20
84.9904297254
 10
93.8448334324
 20
84.9722430019
 10
93.824723012
 20
84.9559115932
 10
93.8026758671
 20
84.9415442045
 10
93.7790694092
 20
84.9294983267
 10
93.7544220056
 20
84.9200524225
 10
93.7291164383
 20
84.91330042
 10
93.7033494042
 20
84.9092441491
 10
93.6774064973
 20
84.9078947368
  0
LWPOLYLINE
  5
469
100
AcDbEntity
  8
ASSI
100
AcDbPolyline
 62
7
  6
CONTINUOUS
 90
16
 70
0
 10
97.7985683598
 20
130.9224384129
 10
97.80027109
 20
130.9486171384
 10
97.8047526873
 20
130.9741684351
 10
97.811990145
 20
130.9990938841
 10
97.8221067133
 20
131.0238205518
 10
97.8348766287
 20
131.0479282318
 10
97.8497378483
 20
131.0701485135
 10
97.8665081059
 20
131.0901567018
 10
97.8851890631
 20
131.1082884834
 10
97.9054897449
 20
131.1242659218
 10
97.9273902303
 20
131.138116102
 10
97.9506281874
 20
131.1498270717
 10
97.974565075
 20
131.1590607932
 10
97.9989019916
 20
131.165708278
 10
98.0236373511
 20
131.1698919138
 10
98.0485928062
 20
131.1716191549
  0
LWPOLYLINE
  5
46A
100
AcDbEntity
  8
ASSI
100
AcDbPolyline
 62
253
  6
CONTINUOUS
 90
13
 70
0
 10
97.797652792
 20
130.8699855676
 10
97.8003071887
 20
130.9022103022
 10
97.8070997195
 20
130.9338228219
 10
97.8179167268
 20
130.9642941623
 10
97.8325772122
 20
130.9931144543
 10
97.8508358657
 20
131.0198014552
 10
97.8723871698
 20
131.0439086182
 10
97.8968705121
 20
131.0650325643
 10
97.9238762191
 20
131.0828198318
 10
97.952952411
 20
131.0969727909
 10
97.9836125634
 20
131.1072546236
 10
98.0153436477
 20
131.1134932865
 10
98.0476147157
 20
131.1155843897
  0
LWPOLYLINE
  5
46B
100
AcDbEntity
  8
ASSI
100
AcDbPolyline
 62
7
  6
CONTINUOUS
 90
13
 70
0
 10
98.3231663426
 20
132.5662697642
 10
98.3260737395
 20
132.5982905435
 10
98.333068003
 20
132.6296732432
 10
98.3440334092
 20
132.6598986191
 10
98.3587885293
 20
132.6884665755
 10
98.3770892315
 20
132.7149044399
 10
98.3986327207
 20
132.7387747831
 10
98.4230625479
 20
132.7596826572
 10
98.4499745079
 20
132.7772821298
 10
98.4789233277
 20
132.7912820079
 10
98.5094300329
 20
132.8014506558
 10
98.5409898733
 20
132.8076198276
 10
98.5730806738
 20
132.8096874509
  0
LINE
  5
46C
100
AcDbEntity
  8
RACCORDO
100
AcDbLine
 62
253
  6
CONTINUOUS
 10
104.0156071526
 20
128.3021264677
 11
104.105386881
 21
128.5188739057
  0
LINE
  5
46D
100
AcDbEntity
  8
0
100
AcDbLine
 62
253
  6
CONTINUOUS
 10
104.0156071526
 20
128.3021264677
 11
104.105386881
 21
128.5188739057
  0
LINE
  5
46E
100
AcDbEntity
  8
RACCORDO
100
AcDbLine
 62
253
  6
CONTINUOUS
 10
104.722606238
 20
128.009277858
 11
104.8123859664
 21
128.226025296
  0
LINE
  5
46F
100
AcDbEntity
  8
0
100
AcDbLine
 62
253
  6
CONTINUOUS
 10
104.722606238
 20
128.009277858
 11
104.8123859664
 21
128.226025296
  0
LWPOLYLINE
  5
470
100
AcDbEntity
  8
ASSI
100
AcDbPolyline
 62
253
  6
CONTINUOUS
 90
12
 70
0
 10
84.140535878
 20
84.6210317328
 10
84.1405772563
 20
84.6211122621
 10
84.1406194943
 20
84.6213316523
 10
84.1406625919
 20
84.6216899034
 10
84.1407068098
 20
84.6221804679
 10
84.1407518874
 20
84.6228098933
 10
84.1407970428
 20
84.6235978216
 10
84.1408422997
 20
84.624549386
 10
84.1408876343
 20
84.6256594533
 10
84.1409321934
 20
84.6269322659
 10
84.1409759688
 20
84.6283735032
 10
84.1410603643
 20
84.6317314171
  0
LINE
  5
471
100
AcDbEntity
  8
0
100
AcDbLine
 62
253
  6
CONTINUOUS
 10
105.5333066944
 20
109.2150375429
 11
105.5258270921
 21
109.2150375429
  0
LINE
  5
472
100
AcDbEntity
  8
0
100
AcDbLine
 62
253
  6
CONTINUOUS
 10
105.5108678859
 20
109.9650375429
 11
105.5370464955
 21
109.9650375429
  0
LINE
  5
473
100
AcDbEntity
  8
0
100
AcDbLine
 62
253
  6
CONTINUOUS
 10
105.5370464955
 20
110.3936091247
 11
105.5108678859
 21
110.3936091247
  0
LINE
  5
474
100
AcDbEntity
  8
0
100
AcDbLine
 62
253
  6
CONTINUOUS
 10
105.7422140689
 20
110.4793239895
 11
105.7272548627
 21
110.4793239895
  0
LINE
  5
475
100
AcDbEntity
  8
0
100
AcDbLine
 62
253
  6
CONTINUOUS
 10
105.5108678859
 20
111.2507519308
 11
105.5370464955
 21
111.2507519308
  0
LINE
  5
476
100
AcDbEntity
  8
RACCORDO
100
AcDbLine
 62
253
  6
CONTINUOUS
 10
104.105386881
 20
89.296915568
 11
104.0156071526
 21
89.513663006
  0
LINE
  5
477
100
AcDbEntity
  8
0
100
AcDbLine
 62
253
  6
CONTINUOUS
 10
104.105386881
 20
89.296915568
 11
104.0156071526
 21
89.513663006
  0
LINE
  5
478
100
AcDbEntity
  8
RACCORDO
100
AcDbLine
 62
253
  6
CONTINUOUS
 10
104.8123859664
 20
89.5897641777
 11
104.722606238
 21
89.8065116157
  0
LINE
  5
479
100
AcDbEntity
  8
0
100
AcDbLine
 62
253
  6
CONTINUOUS
 10
104.8123859664
 20
89.5897641777
 11
104.722606238
 21
89.8065116157
  0
LINE
  5
47A
100
AcDbEntity
  8
ASSI
100
AcDbLine
 62
7
  6
CONTINUOUS
 10
98.3253033362
 20
85.1679112172
 11
98.2869420001
 21
86.6328715399
  0
LINE
  5
47B
100
AcDbEntity
  8
ASSI
100
AcDbLine
 62
7
  6
CONTINUOUS
 10
98.2285342233
 20
88.8633745468
 11
98.2273684211
 21
88.9078947368
  0
LINE
  5
47C
100
AcDbEntity
  8
ASSI
100
AcDbLine
 62
253
  6
CONTINUOUS
 10
98.5752225774
 20
84.924306026
 11
98.5730806738
 21
85.0061020228
  0
LINE
  5
47D
100
AcDbEntity
  8
ASSI
100
AcDbLine
 62
7
  6
CONTINUOUS
 10
97.7985683598
 20
86.8933510608
 11
97.7789567021
 21
88.0169021783
  0
LINE
  5
47E
100
AcDbEntity
  8
ASSI
100
AcDbLine
 62
253
  6
CONTINUOUS
 10
98.0485928062
 20
86.6441703188
 11
98.0476147157
 21
86.7002050839
  0
LINE
  5
47F
100
AcDbEntity
  8
ASSI
100
AcDbLine
 62
253
  6
CONTINUOUS
 10
98.0345254109
 20
87.7000527791
 11
98.0274065031
 21
88.1078947368
  0
LINE
  5
480
100
AcDbEntity
  8
ASSI
100
AcDbLine
 62
253
  6
CONTINUOUS
 10
98.0476147157
 20
86.7002050839
 11
98.0345254109
 21
87.7000527791
  0
LINE
  5
481
100
AcDbEntity
  8
ASSI
100
AcDbLine
 62
253
  6
CONTINUOUS
 10
99.0794270445
 20
131.2099533603
 11
99.0791213701
 21
132.5596857621
  0
LINE
  5
482
100
AcDbEntity
  8
RACCORDO
100
AcDbLine
 62
253
  6
CONTINUOUS
 10
97.225348745
 20
128.9611407982
 11
97.225348745
 21
128.8058750608
  0
LINE
  5
483
100
AcDbEntity
  8
0
100
AcDbLine
 62
253
  6
CONTINUOUS
 10
97.225348745
 20
128.9611407982
 11
97.225348745
 21
128.8058750608
  0
LINE
  5
484
100
AcDbEntity
  8
RACCORDO
100
AcDbLine
 62
253
  6
CONTINUOUS
 10
97.225348745
 20
89.0099144129
 11
97.225348745
 21
88.8546486755
  0
LINE
  5
485
100
AcDbEntity
  8
0
100
AcDbLine
 62
253
  6
CONTINUOUS
 10
97.225348745
 20
89.0099144129
 11
97.225348745
 21
88.8546486755
  0
LINE
  5
486
100
AcDbEntity
  8
RACCORDO
100
AcDbLine
 62
7
  6
CONTINUOUS
 10
97.2273684211
 20
128.9611407982
 11
97.2273684211
 21
128.8078947368
  0
LINE
  5
487
100
AcDbEntity
  8
0
100
AcDbLine
 62
7
  6
CONTINUOUS
 10
97.2273684211
 20
128.9611407982
 11
97.2273684211
 21
128.8078947368
  0
LINE
  5
488
100
AcDbEntity
  8
RACCORDO
100
AcDbLine
 62
7
  6
CONTINUOUS
 10
97.2273684211
 20
89.0078947368
 11
97.2273684211
 21
88.8546486755
  0
LINE
  5
489
100
AcDbEntity
  8
0
100
AcDbLine
 62
7
  6
CONTINUOUS
 10
97.2273684211
 20
89.0078947368
 11
97.2273684211
 21
88.8546486755
  0
LINE
  5
48A
100
AcDbEntity
  8
DRAFT
100
AcDbLine
 62
7
  6
CONTINUOUS
 10
98.1383475899
 20
128.7188739057
 11
98.1383475899
 21
128.5188739057
  0
LINE
  5
48B
100
AcDbEntity
  8
0
100
AcDbLine
 62
7
  6
CONTINUOUS
 10
98.1383475899
 20
128.7188739057
 11
98.1383475899
 21
128.5188739057
  0
LINE
  5
48C
100
AcDbEntity
  8
DRAFT
100
AcDbLine
 62
7
  6
CONTINUOUS
 10
98.1383475899
 20
89.296915568
 11
98.1383475899
 21
89.096915568
  0
LINE
  5
48D
100
AcDbEntity
  8
0
100
AcDbLine
 62
7
  6
CONTINUOUS
 10
98.1383475899
 20
89.296915568
 11
98.1383475899
 21
89.096915568
  0
LINE
  5
48E
100
AcDbEntity
  8
DRAFT
100
AcDbLine
 62
7
  6
CONTINUOUS
 10
98.2273684211
 20
128.8078947368
 11
98.2273684211
 21
128.6078947368
  0
LINE
  5
48F
100
AcDbEntity
  8
0
100
AcDbLine
 62
7
  6
CONTINUOUS
 10
98.2273684211
 20
128.8078947368
 11
98.2273684211
 21
128.6078947368
  0
LINE
  5
490
100
AcDbEntity
  8
DRAFT
100
AcDbLine
 62
7
  6
CONTINUOUS
 10
98.2273684211
 20
89.2078947368
 11
98.2273684211
 21
89.0078947368
  0
LINE
  5
491
100
AcDbEntity
  8
0
100
AcDbLine
 62
7
  6
CONTINUOUS
 10
98.2273684211
 20
89.2078947368
 11
98.2273684211
 21
89.0078947368
  0
LINE
  5
492
100
AcDbEntity
  8
ASSI
100
AcDbLine
 62
7
  6
CONTINUOUS
 10
99.0813655639
 20
132.4472748322
 11
99.0813655639
 21
131.7685146415
  0
LINE
  5
493
100
AcDbEntity
  8
ASSI
100
AcDbLine
 62
7
  6
CONTINUOUS
 10
99.0813655639
 20
86.0472748322
 11
99.0813655639
 21
85.3685146415
  0
LINE
  5
494
100
AcDbEntity
  8
ASSI
100
AcDbLine
 62
7
  6
CONTINUOUS
 10
99.1773684211
 20
85.1578566606
 11
99.1773684211
 21
85.4899497897
  0
LINE
  5
495
100
AcDbEntity
  8
ASSI
100
AcDbLine
 62
7
  6
CONTINUOUS
 10
99.1773684211
 20
85.925839684
 11
99.1773684211
 21
86.5078947368
  0
LINE
  5
496
100
AcDbEntity
  8
ASSI
100
AcDbLine
 62
7
  6
CONTINUOUS
 10
99.1773684211
 20
131.3078947368
 11
99.1773684211
 21
131.8899497897
  0
LINE
  5
497
100
AcDbEntity
  8
ASSI
100
AcDbLine
 62
7
  6
CONTINUOUS
 10
99.1773684211
 20
132.325839684
 11
99.1773684211
 21
132.6579328131
  0
LINE
  5
498
100
AcDbEntity
  8
ASSI
100
AcDbLine
 62
253
  6
CONTINUOUS
 10
99.0794270445
 20
86.6058361134
 11
99.0791213701
 21
85.2561037116
  0
LINE
  5
499
100
AcDbEntity
  8
ASSI
100
AcDbLine
 62
253
  6
CONTINUOUS
 10
98.0345254109
 20
130.1157366946
 11
98.0476147157
 21
131.1155843897
  0
LINE
  5
49A
100
AcDbEntity
  8
ASSI
100
AcDbLine
 62
7
  6
CONTINUOUS
 10
97.7789567021
 20
129.7988872954
 11
97.7985683598
 21
130.9224384129
  0
LINE
  5
49B
100
AcDbEntity
  8
ASSI
100
AcDbLine
 62
253
  6
CONTINUOUS
 10
98.0476147157
 20
131.1155843897
 11
98.0485928062
 21
131.1716191549
  0
LINE
  5
49C
100
AcDbEntity
  8
ASSI
100
AcDbLine
 62
253
  6
CONTINUOUS
 10
98.0274065031
 20
129.7078947368
 11
98.0345254109
 21
130.1157366946
  0
LINE
  5
49D
100
AcDbEntity
  8
ASSI
100
AcDbLine
 62
7
  6
CONTINUOUS
 10
98.2285342233
 20
128.9524149269
 11
98.2273684211
 21
128.9078947368
  0
LINE
  5
49E
100
AcDbEntity
  8
ASSI
100
AcDbLine
 62
7
  6
CONTINUOUS
 10
98.2869420001
 20
131.1829179337
 11
98.3253033362
 21
132.6478782564
  0
LINE
  5
49F
100
AcDbEntity
  8
ASSI
100
AcDbLine
 62
253
  6
CONTINUOUS
 10
98.5730806738
 20
132.8096874509
 11
98.5752225774
 21
132.8914834477
  0
LINE
  5
4A0
100
AcDbEntity
  8
ASSI
100
AcDbLine
 62
7
  6
CONTINUOUS
 10
88.3061344869
 20
88.1654388669
 11
88.1400997431
 21
87.8333440876
  0
LINE
  5
4A1
100
AcDbEntity
  8
0
100
AcDbLine
 62
253
  6
CONTINUOUS
 10
105.7534334723
 20
111.8721801105
 11
105.7272548627
 21
111.8721801105
  0
LINE
  5
4A2
100
AcDbEntity
  8
0
100
AcDbLine
 62
253
  6
CONTINUOUS
 10
105.5108678859
 20
112.3221804384
 11
105.5370464955
 21
112.3221804384
  0
LINE
  5
4A3
100
AcDbEntity
  8
0
100
AcDbLine
 62
253
  6
CONTINUOUS
 10
105.5108678859
 20
113.1793232891
 11
105.5370464955
 21
113.1793232891
  0
LINE
  5
4A4
100
AcDbEntity
  8
SMUSSO
100
AcDbLine
 62
7
  6
CONTINUOUS
 10
87.7273684211
 20
120.5578947368
 11
87.1500181519
 21
121.135245006
  0
LINE
  5
4A5
100
AcDbEntity
  8
0
100
AcDbLine
 62
7
  6
CONTINUOUS
 10
87.7273684211
 20
120.5578947368
 11
87.1500181519
 21
121.135245006
  0
LINE
  5
4A6
100
AcDbEntity
  8
ASSI
100
AcDbLine
 62
7
  6
CONTINUOUS
 10
88.1400997431
 20
129.9824453861
 11
88.3061344869
 21
129.6503506068
  0
LWPOLYLINE
  5
4A7
100
AcDbEntity
  8
ASSI
100
AcDbPolyline
 62
253
  6
CONTINUOUS
 90
13
 70
0
 10
99.0791213701
 20
132.5596857621
 10
99.076973529
 20
132.5923081347
 10
99.0705867038
 20
132.6243721559
 10
99.0600702703
 20
132.6553293796
 10
99.0456042091
 20
132.6846503644
 10
99.0274360891
 20
132.7118335848
 10
99.0058768857
 20
132.7364140444
 10
98.9812955558
 20
132.7579713941
 10
98.9541125995
 20
132.7761371371
 10
98.9247929497
 20
132.7906007779
 10
98.8938380863
 20
132.8011150993
 10
98.8617774782
 20
132.8075004176
 10
98.8291594463
 20
132.8096476859
  0
LWPOLYLINE
  5
4A8
100
AcDbEntity
  8
ASSI
100
AcDbPolyline
 62
7
  6
CONTINUOUS
 90
13
 70
0
 10
101.9273684211
 20
84.6078642759
 10
101.9290786852
 20
84.581762149
 10
101.9341808616
 20
84.5561069708
 10
101.9425878428
 20
84.5313374493
 10
101.9541560839
 20
84.5078769925
 10
101.9686878711
 20
84.4861271866
 10
101.9859344488
 20
84.4664607646
 10
102.0056008708
 20
84.4492141869
 10
102.0273506767
 20
84.4346823997
 10
102.0508111336
 20
84.4231141586
 10
102.075580655
 20
84.4147071774
 10
102.1012358332
 20
84.409605001
 10
102.1273379601
 20
84.4078947368
  0
LWPOLYLINE
  5
4A9
100
AcDbEntity
  8
ASSI
100
AcDbPolyline
 62
7
  6
CONTINUOUS
 90
16
 70
0
 10
99.1773684211
 20
132.6579328131
 10
99.1760190088
 20
132.68387572
 10
99.1719627379
 20
132.7096427541
 10
99.1652107354
 20
132.7349483214
 10
99.1557648312
 20
132.759595725
 10
99.1437189534
 20
132.7832021829
 10
99.1293515647
 20
132.8052493278
 10
99.113020156
 20
132.8253597482
 10
99.0948334324
 20
132.8435464718
 10
99.074723012
 20
132.8598778805
 10
99.0526758671
 20
132.8742452692
 10
99.0290694092
 20
132.886291147
 10
99.0044220056
 20
132.8957370512
 10
98.9791164383
 20
132.9024890537
 10
98.9533494042
 20
132.9065453246
 10
98.9274064973
 20
132.9078947368
  0
LINE
  5
4AA
100
AcDbEntity
  8
ASSI
100
AcDbLine
 62
253
  6
CONTINUOUS
 10
101.9273684211
 20
85.5563201287
 11
101.9410189188
 21
85.1046196395
  0
LINE
  5
4AB
100
AcDbEntity
  8
ASSI
100
AcDbLine
 62
7
  6
CONTINUOUS
 10
100.1862583591
 20
128.8284558182
 11
100.1855627693
 21
129.6497003886
  0
LINE
  5
4AC
100
AcDbEntity
  8
ASSI
100
AcDbLine
 62
7
  6
CONTINUOUS
 10
101.1481716997
 20
89.2078947368
 11
101.1486023552
 21
88.1654388669
  0
LINE
  5
4AD
100
AcDbEntity
  8
ASSI
100
AcDbLine
 62
7
  6
CONTINUOUS
 10
99.8528177718
 20
87.8333440876
 11
99.8528177718
 21
88.8206260589
  0
LINE
  5
4AE
100
AcDbEntity
  8
ASSI
100
AcDbLine
 62
7
  6
CONTINUOUS
 10
99.8528177718
 20
128.9951634148
 11
99.8528177718
 21
129.9824453861
  0
LINE
  5
4AF
100
AcDbEntity
  8
ASSI
100
AcDbLine
 62
7
  6
CONTINUOUS
 10
101.314637099
 20
129.9824453861
 11
101.314637099
 21
128.6951634148
  0
LINE
  5
4B0
100
AcDbEntity
  8
ASSI
100
AcDbLine
 62
7
  6
CONTINUOUS
 10
101.314637099
 20
89.1206260589
 11
101.314637099
 21
87.8333440876
  0
LINE
  5
4B1
100
AcDbEntity
  8
ASSI
100
AcDbLine
 62
7
  6
CONTINUOUS
 10
101.1486023552
 20
129.6503506068
 11
101.1481716997
 21
128.6078947368
  0
LINE
  5
4B2
100
AcDbEntity
  8
ASSI
100
AcDbLine
 62
7
  6
CONTINUOUS
 10
100.1855627693
 20
88.166089085
 11
100.1862583591
 21
88.9873336555
  0
LINE
  5
4B3
100
AcDbEntity
  8
ASSI
100
AcDbLine
 62
253
  6
CONTINUOUS
 10
101.9410363536
 20
132.711897239
 11
101.940957023
 21
132.708931034
  0
LINE
  5
4B4
100
AcDbEntity
  8
ASSI
100
AcDbLine
 62
253
  6
CONTINUOUS
 10
101.940957023
 20
132.708931034
 11
101.9273684211
 21
132.259469345
  0
LWPOLYLINE
  5
4B5
100
AcDbEntity
  8
ASSI
100
AcDbPolyline
 62
7
  6
CONTINUOUS
 90
16
 70
0
 10
99.1773684211
 20
85.1578566606
 10
99.1760190088
 20
85.1319137537
 10
99.1719627379
 20
85.1061467196
 10
99.1652107354
 20
85.0808411523
 10
99.1557648312
 20
85.0561937487
 10
99.1437189534
 20
85.0325872908
 10
99.1293515647
 20
85.0105401459
 10
99.113020156
 20
84.9904297254
 10
99.0948334324
 20
84.9722430019
 10
99.074723012
 20
84.9559115932
 10
99.0526758671
 20
84.9415442045
 10
99.0290694092
 20
84.9294983267
 10
99.0044220056
 20
84.9200524225
 10
98.9791164383
 20
84.91330042
 10
98.9533494042
 20
84.9092441491
 10
98.9274064973
 20
84.9078947368
  0
LWPOLYLINE
  5
4B6
100
AcDbEntity
  8
ASSI
100
AcDbPolyline
 62
7
  6
CONTINUOUS
 90
13
 70
0
 10
101.9273684211
 20
133.2079251978
 10
101.9290786852
 20
133.2340273247
 10
101.9341808616
 20
133.2596825029
 10
101.9425878428
 20
133.2844520243
 10
101.9541560839
 20
133.3079124812
 10
101.9686878711
 20
133.3296622871
 10
101.9859344488
 20
133.3493287091
 10
102.0056008708
 20
133.3665752868
 10
102.0273506767
 20
133.381107074
 10
102.0508111336
 20
133.3926753151
 10
102.075580655
 20
133.4010822963
 10
102.1012358332
 20
133.4061844727
 10
102.1273379601
 20
133.4078947368
  0
LWPOLYLINE
  5
4B7
100
AcDbEntity
  8
ASSI
100
AcDbPolyline
 62
253
  6
CONTINUOUS
 90
13
 70
0
 10
99.0791213701
 20
85.2561037116
 10
99.0769738034
 20
85.2234834219
 10
99.0705877062
 20
85.1914210584
 10
99.0600723041
 20
85.1604650045
 10
99.0456074488
 20
85.131144722
 10
99.0274405424
 20
85.1039616945
 10
99.0058823052
 20
85.0793808512
 10
98.9813014618
 20
85.0578226142
 10
98.9541184345
 20
85.0396557081
 10
98.9247981522
 20
85.0251908532
 10
98.8938420986
 20
85.0146754513
 10
98.8617797355
 20
85.0082893544
 10
98.8291594463
 20
85.0061417878
  0
LINE
  5
4B8
100
AcDbEntity
  8
RACCORDO
100
AcDbLine
 62
253
  6
CONTINUOUS
 10
85.2613628132
 20
90.6912775774
 11
84.5543637278
 21
89.984278492
  0
LINE
  5
4B9
100
AcDbEntity
  8
0
100
AcDbLine
 62
253
  6
CONTINUOUS
 10
85.2613628132
 20
90.6912775774
 11
84.5543637278
 21
89.984278492
  0
LINE
  5
4BA
100
AcDbEntity
  8
RACCORDO
100
AcDbLine
 62
253
  6
CONTINUOUS
 10
85.4391296895
 20
90.5135107011
 11
84.7321306041
 21
89.8065116157
  0
LINE
  5
4BB
100
AcDbEntity
  8
0
100
AcDbLine
 62
253
  6
CONTINUOUS
 10
85.4391296895
 20
90.5135107011
 11
84.7321306041
 21
89.8065116157
  0
LINE
  5
4BC
100
AcDbEntity
  8
0
100
AcDbLine
 62
253
  6
CONTINUOUS
 10
105.7272548627
 20
114.0150376621
 11
105.7534334723
 21
114.0150376621
  0
LINE
  5
4BD
100
AcDbEntity
  8
INCISIONI
100
AcDbLine
 62
253
  6
CONTINUOUS
 10
105.8051240258
 20
114.2133390269
 11
105.8054230171
 21
114.2133390269
  0
LINE
  5
4BE
100
AcDbEntity
  8
0
100
AcDbLine
 62
253
  6
CONTINUOUS
 10
105.7272548627
 20
115.1221805874
 11
105.7534334723
 21
115.1221805874
  0
LINE
  5
4BF
100
AcDbEntity
  8
INCISIONI
100
AcDbLine
 62
253
  6
CONTINUOUS
 10
105.7815052256
 20
115.1666261201
 11
105.8013065738
 21
115.1666261201
  0
LINE
  5
4C0
100
AcDbEntity
  8
INCISIONI
100
AcDbLine
 62
253
  6
CONTINUOUS
 10
105.8095933396
 20
115.1866960087
 11
105.8234835375
 21
115.1866960087
  0
LINE
  5
4C1
100
AcDbEntity
  8
SMUSSO
100
AcDbLine
 62
7
  6
CONTINUOUS
 10
94.7273684211
 20
117.2578947368
 11
95.3047186902
 21
116.6805444677
  0
LINE
  5
4C2
100
AcDbEntity
  8
0
100
AcDbLine
 62
7
  6
CONTINUOUS
 10
94.7273684211
 20
117.2578947368
 11
95.3047186902
 21
116.6805444677
  0
LINE
  5
4C3
100
AcDbEntity
  8
RACCORDO
100
AcDbLine
 62
253
  6
CONTINUOUS
 10
85.2613628132
 20
127.1245118963
 11
84.5543637278
 21
127.8315109817
  0
LINE
  5
4C4
100
AcDbEntity
  8
0
100
AcDbLine
 62
253
  6
CONTINUOUS
 10
85.2613628132
 20
127.1245118963
 11
84.5543637278
 21
127.8315109817
  0
LINE
  5
4C5
100
AcDbEntity
  8
RACCORDO
100
AcDbLine
 62
253
  6
CONTINUOUS
 10
85.4391296895
 20
127.3022787726
 11
84.7321306041
 21
128.009277858
  0
LINE
  5
4C6
100
AcDbEntity
  8
0
100
AcDbLine
 62
253
  6
CONTINUOUS
 10
85.4391296895
 20
127.3022787726
 11
84.7321306041
 21
128.009277858
  0
LWPOLYLINE
  5
4C7
100
AcDbEntity
  8
ASSI
100
AcDbPolyline
 62
253
  6
CONTINUOUS
 90
13
 70
0
 10
105.3137798192
 20
85.1068584397
 10
105.3118614528
 20
85.1293422707
 10
105.3065918518
 20
85.1514456413
 10
105.2980601889
 20
85.1727945398
 10
105.2864108338
 20
85.1930277231
 10
105.2718409109
 20
85.2118028263
 10
105.2545969644
 20
85.2288021568
 10
105.2349707861
 20
85.2437380718
 10
105.2132944724
 20
85.2563578478
 10
105.189934805
 20
85.2664479525
 10
105.165287051
 20
85.2738376559
 10
105.1397682757
 20
85.2784019209
 10
105.1138102801
 20
85.2800635204
  0
LINE
  5
4C8
100
AcDbEntity
  8
ASSI
100
AcDbLine
 62
253
  6
CONTINUOUS
 10
102.1256533802
 20
85.785245006
 11
102.140926562
 21
85.2800635205
  0
LINE
  5
4C9
100
AcDbEntity
  8
ASSI
100
AcDbLine
 62
7
  6
CONTINUOUS
 10
103.2273684211
 20
85.785245006
 11
103.240535878
 21
85.3497132663
  0
LINE
  5
4CA
100
AcDbEntity
  8
ASSI
100
AcDbLine
 62
253
  6
CONTINUOUS
 10
101.9409305571
 20
133.1889071676
 11
101.9410172117
 21
133.1858819618
  0
LINE
  5
4CB
100
AcDbEntity
  8
ASSI
100
AcDbLine
 62
253
  6
CONTINUOUS
 10
101.9410172117
 20
133.1858819618
 11
101.9410983448
 21
133.1822390196
  0
LINE
  5
4CC
100
AcDbEntity
  8
ASSI
100
AcDbLine
 62
253
  6
CONTINUOUS
 10
101.9410189188
 20
85.1046196395
 11
101.9411104187
 21
85.1004149705
  0
LINE
  5
4CD
100
AcDbEntity
  8
ASSI
100
AcDbLine
 62
253
  6
CONTINUOUS
 10
101.9411104187
 20
85.1004149705
 11
101.9411965781
 21
85.0951879906
  0
LINE
  5
4CE
100
AcDbEntity
  8
ASSI
100
AcDbLine
 62
253
  6
CONTINUOUS
 10
101.9410983448
 20
133.1822390196
 11
101.9412061302
 21
133.1757095131
  0
LINE
  5
4CF
100
AcDbEntity
  8
ASSI
100
AcDbLine
 62
253
  6
CONTINUOUS
 10
102.1406314242
 20
133.3914700492
 11
102.1407203143
 21
133.3859229595
  0
LINE
  5
4D0
100
AcDbEntity
  8
ASSI
100
AcDbLine
 62
253
  6
CONTINUOUS
 10
101.9412061302
 20
133.1757095131
 11
101.9412923325
 21
133.1681172773
  0
LINE
  5
4D1
100
AcDbEntity
  8
ASSI
100
AcDbLine
 62
253
  6
CONTINUOUS
 10
101.9411965781
 20
85.0951879906
 11
101.9412939977
 21
85.0867311355
  0
LINE
  5
4D2
100
AcDbEntity
  8
ASSI
100
AcDbLine
 62
253
  6
CONTINUOUS
 10
102.1407203143
 20
133.3859229595
 11
102.1408556075
 21
133.3718014169
  0
LINE
  5
4D3
100
AcDbEntity
  8
ASSI
100
AcDbLine
 62
253
  6
CONTINUOUS
 10
101.9412923325
 20
133.1681172773
 11
101.9413677592
 21
133.1567895158
  0
LINE
  5
4D4
100
AcDbEntity
  8
ASSI
100
AcDbLine
 62
253
  6
CONTINUOUS
 10
101.9412939977
 20
85.0867311355
 11
101.9413730437
 21
85.0742870794
  0
LINE
  5
4D5
100
AcDbEntity
  8
ASSI
100
AcDbLine
 62
253
  6
CONTINUOUS
 10
102.1408556075
 20
133.3718014169
 11
102.1411756129
 21
133.2994748272
  0
LINE
  5
4D6
100
AcDbEntity
  8
ASSI
100
AcDbLine
 62
253
  6
CONTINUOUS
 10
102.140926562
 20
85.2800635205
 11
102.1412634978
 21
85.1794251285
  0
LINE
  5
4D7
100
AcDbEntity
  8
ASSI
100
AcDbLine
 62
7
  6
CONTINUOUS
 10
102.10617953
 20
128.6078864221
 11
102.1057265701
 21
129.7295365878
  0
LINE
  5
4D8
100
AcDbEntity
  8
ASSI
100
AcDbLine
 62
253
  6
CONTINUOUS
 10
102.1411756129
 20
133.2994748272
 11
102.1413612644
 21
133.1599303273
  0
LINE
  5
4D9
100
AcDbEntity
  8
ASSI
100
AcDbLine
 62
7
  6
CONTINUOUS
 10
101.9273684211
 20
84.6078642759
 11
101.9273684211
 21
86.5078947368
  0
LINE
  5
4DA
100
AcDbEntity
  8
ASSI
100
AcDbLine
 62
7
  6
CONTINUOUS
 10
101.9273684211
 20
131.3078947368
 11
101.9273684211
 21
133.2079251978
  0
LINE
  5
4DB
100
AcDbEntity
  8
ASSI
100
AcDbLine
 62
7
  6
CONTINUOUS
 10
101.9400997431
 20
129.8951634148
 11
101.9400997431
 21
128.6951634148
  0
LINE
  5
4DC
100
AcDbEntity
  8
ASSI
100
AcDbLine
 62
7
  6
CONTINUOUS
 10
101.9400997431
 20
89.1206260589
 11
101.9400997431
 21
87.9206260589
  0
LINE
  5
4DD
100
AcDbEntity
  8
DRAFT
100
AcDbLine
 62
7
  6
CONTINUOUS
 10
102.1273684211
 20
129.7578947368
 11
102.1273684211
 21
128.6078947368
  0
LINE
  5
4DE
100
AcDbEntity
  8
0
100
AcDbLine
 62
7
  6
CONTINUOUS
 10
102.1273684211
 20
129.7578947368
 11
102.1273684211
 21
128.6078947368
  0
LINE
  5
4DF
100
AcDbEntity
  8
DRAFT
100
AcDbLine
 62
7
  6
CONTINUOUS
 10
102.1273684211
 20
89.2078947368
 11
102.1273684211
 21
88.0578947368
  0
LINE
  5
4E0
100
AcDbEntity
  8
0
100
AcDbLine
 62
7
  6
CONTINUOUS
 10
102.1273684211
 20
89.2078947368
 11
102.1273684211
 21
88.0578947368
  0
LINE
  5
4E1
100
AcDbEntity
  8
ASSI
100
AcDbLine
 62
253
  6
CONTINUOUS
 10
102.1412634978
 20
85.1794251285
 11
102.141362938
 21
85.063559259
  0
LINE
  5
4E2
100
AcDbEntity
  8
DRAFT
100
AcDbLine
 62
7
  6
CONTINUOUS
 10
102.2163892522
 20
129.7578947368
 11
102.2163892522
 21
128.5188739057
  0
LINE
  5
4E3
100
AcDbEntity
  8
0
100
AcDbLine
 62
7
  6
CONTINUOUS
 10
102.2163892522
 20
129.7578947368
 11
102.2163892522
 21
128.5188739057
  0
LINE
  5
4E4
100
AcDbEntity
  8
DRAFT
100
AcDbLine
 62
7
  6
CONTINUOUS
 10
102.2163892522
 20
89.296915568
 11
102.2163892522
 21
88.0578947368
  0
LINE
  5
4E5
100
AcDbEntity
  8
0
100
AcDbLine
 62
7
  6
CONTINUOUS
 10
102.2163892522
 20
89.296915568
 11
102.2163892522
 21
88.0578947368
  0
LINE
  5
4E6
100
AcDbEntity
  8
ASSI
100
AcDbLine
 62
7
  6
CONTINUOUS
 10
102.7679076419
 20
130.1157366946
 11
102.7679076419
 21
129.8951634148
  0
LINE
  5
4E7
100
AcDbEntity
  8
ASSI
100
AcDbLine
 62
7
  6
CONTINUOUS
 10
102.7679076419
 20
87.9206260589
 11
102.7679076419
 21
87.7000527791
  0
LINE
  5
4E8
100
AcDbEntity
  8
ASSI
100
AcDbLine
 62
7
  6
CONTINUOUS
 10
102.9599133561
 20
130.313008147
 11
102.9599133561
 21
129.7991678691
  0
LINE
  5
4E9
100
AcDbEntity
  8
ASSI
100
AcDbLine
 62
7
  6
CONTINUOUS
 10
102.9599133561
 20
88.0166216046
 11
102.9599133561
 21
87.5027813267
  0
LINE
  5
4EA
100
AcDbEntity
  8
ASSI
100
AcDbLine
 62
7
  6
CONTINUOUS
 10
103.2273684211
 20
132.0305444677
 11
103.2273684211
 21
131.3078947368
  0
LINE
  5
4EB
100
AcDbEntity
  8
ASSI
100
AcDbLine
 62
7
  6
CONTINUOUS
 10
103.2273684211
 20
86.5078947368
 11
103.2273684211
 21
85.785245006
  0
LINE
  5
4EC
100
AcDbEntity
  8
ASSI
100
AcDbLine
 62
253
  6
CONTINUOUS
 10
103.240535878
 20
132.4660762074
 11
103.240535878
 21
131.2947272799
  0
LINE
  5
4ED
100
AcDbEntity
  8
ASSI
100
AcDbLine
 62
253
  6
CONTINUOUS
 10
103.240535878
 20
86.5210621938
 11
103.240535878
 21
85.3497132663
  0
LINE
  5
4EE
100
AcDbEntity
  8
ASSI
100
AcDbLine
 62
253
  6
CONTINUOUS
 10
101.9413677592
 20
133.1567895158
 11
101.9413928628
 21
132.7501596436
  0
LINE
  5
4EF
100
AcDbEntity
  8
ASSI
100
AcDbLine
 62
253
  6
CONTINUOUS
 10
101.9413730437
 20
85.0742870794
 11
101.9413927292
 21
84.6686668916
  0
LINE
  5
4F0
100
AcDbEntity
  8
ASSI
100
AcDbLine
 62
7
  6
CONTINUOUS
 10
102.1057265701
 20
88.0862528859
 11
102.10617953
 21
89.2079030516
  0
LINE
  5
4F1
100
AcDbEntity
  8
ASSI
100
AcDbLine
 62
253
  6
CONTINUOUS
 10
102.1413612644
 20
133.1599303273
 11
102.1412712698
 21
132.6407207202
  0
LINE
  5
4F2
100
AcDbEntity
  8
ASSI
100
AcDbLine
 62
253
  6
CONTINUOUS
 10
102.1413629386
 20
85.063559259
 11
102.1412164391
 21
84.5324035835
  0
LWPOLYLINE
  5
4F3
100
AcDbEntity
  8
ASSI
100
AcDbPolyline
 62
253
  6
CONTINUOUS
 90
3
 70
0
 10
102.1412712698
 20
132.6407207202
 10
102.1409671226
 20
132.5428226368
 10
102.1409265679
 20
132.5357269861
  0
LINE
  5
4F4
100
AcDbEntity
  8
ASSI
100
AcDbLine
 62
253
  6
CONTINUOUS
 10
101.9413927292
 20
84.6686668916
 11
101.9413535727
 21
84.6560925696
  0
LINE
  5
4F5
100
AcDbEntity
  8
ASSI
100
AcDbLine
 62
253
  6
CONTINUOUS
 10
101.9413928628
 20
132.7501596436
 11
101.9413508647
 21
132.7368247153
  0
LINE
  5
4F6
100
AcDbEntity
  8
ASSI
100
AcDbLine
 62
253
  6
CONTINUOUS
 10
102.1412164391
 20
84.5324035835
 11
102.1409112632
 21
84.4520268923
  0
LINE
  5
4F7
100
AcDbEntity
  8
ASSI
100
AcDbLine
 62
253
  6
CONTINUOUS
 10
101.9413535727
 20
84.6560925696
 11
101.9412739609
 21
84.6457859316
  0
LINE
  5
4F8
100
AcDbEntity
  8
ASSI
100
AcDbLine
 62
253
  6
CONTINUOUS
 10
102.1409112632
 20
84.4520268923
 11
102.1407658763
 21
84.4338085884
  0
LINE
  5
4F9
100
AcDbEntity
  8
ASSI
100
AcDbLine
 62
253
  6
CONTINUOUS
 10
101.9413508647
 20
132.7368247153
 11
101.9412576326
 21
132.7254498562
  0
LINE
  5
4FA
100
AcDbEntity
  8
ASSI
100
AcDbLine
 62
253
  6
CONTINUOUS
 10
101.9412739609
 20
84.6457859316
 11
101.9411847328
 21
84.6385867517
  0
LINE
  5
4FB
100
AcDbEntity
  8
ASSI
100
AcDbLine
 62
253
  6
CONTINUOUS
 10
101.9412576326
 20
132.7254498562
 11
101.9411747447
 21
132.7191302522
  0
LWPOLYLINE
  5
4FC
100
AcDbEntity
  8
ASSI
100
AcDbPolyline
 62
253
  6
CONTINUOUS
 90
5
 70
0
 10
102.1407658763
 20
84.4338085884
 10
102.1406633906
 20
84.4259878624
 10
102.1406113764
 20
84.4234307577
 10
102.1405587185
 20
84.4217871571
 10
102.140505417
 20
84.4210621938
  0
LWPOLYLINE
  5
4FD
100
AcDbEntity
  8
ASSI
100
AcDbPolyline
 62
253
  6
CONTINUOUS
 90
3
 70
0
 10
101.9411747447
 20
132.7191302522
 10
101.9410734851
 20
132.7135429169
 10
101.9410363536
 20
132.711897239
  0
LINE
  5
4FE
100
AcDbEntity
  8
ASSI
100
AcDbLine
 62
253
  6
CONTINUOUS
 10
101.9411847328
 20
84.6385867517
 11
101.9410726579
 21
84.6322987194
  0
LWPOLYLINE
  5
4FF
100
AcDbEntity
  8
ASSI
100
AcDbPolyline
 62
253
  6
CONTINUOUS
 90
11
 70
0
 10
101.9410726579
 20
84.6322987194
 10
101.9409871187
 20
84.6287653457
 10
101.9409416595
 20
84.6272284666
 10
101.9408944228
 20
84.6258430676
 10
101.9408459546
 20
84.6246274081
 10
101.9407962329
 20
84.6235839734
 10
101.9407452797
 20
84.6227102782
 10
101.9406937065
 20
84.6220171262
 10
101.940641717
 20
84.6215081186
 10
101.9405891075
 20
84.6211796541
 10
101.940535878
 20
84.6210317328
  0
LINE
  5
500
100
AcDbEntity
  8
ASSI
100
AcDbLine
 62
253
  6
CONTINUOUS
 10
102.1409265932
 20
132.5357269861
 11
102.1256533802
 21
132.0305444677
  0
LINE
  5
501
100
AcDbEntity
  8
ASSI
100
AcDbLine
 62
7
  6
CONTINUOUS
 10
103.240535878
 20
132.4660762074
 11
103.2273684211
 21
132.0305444677
  0
LWPOLYLINE
  5
502
100
AcDbEntity
  8
ASSI
100
AcDbPolyline
 62
253
  6
CONTINUOUS
 90
5
 70
0
 10
105.1142314251
 20
133.3947272799
 10
105.1141872602
 20
133.3941907625
 10
105.1141425845
 20
133.392989183
 10
105.114097398
 20
133.3910834023
 10
105.1140049756
 20
133.3849955589
  0
LWPOLYLINE
  5
503
100
AcDbEntity
  8
ASSI
100
AcDbPolyline
 62
253
  6
CONTINUOUS
 90
13
 70
0
 10
105.3137798192
 20
132.708931034
 10
105.3118614649
 20
132.6864472602
 10
105.3065918932
 20
132.6643439337
 10
105.2980602703
 20
132.6429950641
 10
105.2864109597
 20
132.6227618949
 10
105.2718410788
 20
132.603986791
 10
105.2545971641
 20
132.586987445
 10
105.2349709993
 20
132.5720515027
 10
105.213294678
 20
132.5594316943
 10
105.1899349846
 20
132.5493415587
 10
105.1652871877
 20
132.5419518305
 10
105.1397683518
 20
132.5373875514
 10
105.1138102801
 20
132.5357259532
  0
LINE
  5
504
100
AcDbEntity
  8
INCISIONI
100
AcDbLine
 62
253
  6
CONTINUOUS
 10
105.7815052317
 20
119.0190877368
 11
105.8144071859
 21
119.1434427368
  0
LINE
  5
505
100
AcDbEntity
  8
ASSI
100
AcDbLine
 62
253
  6
CONTINUOUS
 10
84.1273684211
 20
86.5078947369
 11
84.1447473336
 21
86.5253498018
  0
LINE
  5
506
100
AcDbEntity
  8
ASSI
100
AcDbLine
 62
253
  6
CONTINUOUS
 10
83.6273684211
 20
87.0078185844
 11
83.644823486
 21
87.0252736494
  0
LINE
  5
507
100
AcDbEntity
  8
INCISIONI
100
AcDbLine
 62
253
  6
CONTINUOUS
 10
105.8315122904
 20
115.7694620812
 11
105.7815052256
 21
115.7694620812
  0
LINE
  5
508
100
AcDbEntity
  8
SMUSSO
100
AcDbLine
 62
7
  6
CONTINUOUS
 10
95.3047186902
 20
116.6805444677
 11
87.1500181519
 21
116.6805444677
  0
LINE
  5
509
100
AcDbEntity
  8
0
100
AcDbLine
 62
7
  6
CONTINUOUS
 10
95.3047186902
 20
116.6805444677
 11
87.1500181519
 21
116.6805444677
  0
LINE
  5
50A
100
AcDbEntity
  8
ASSI
100
AcDbLine
 62
7
  6
CONTINUOUS
 10
104.0773684211
 20
116.8078947368
 11
105.5998328887
 21
116.8078947368
  0
LINE
  5
50B
100
AcDbEntity
  8
0
100
AcDbLine
 62
7
  6
CONTINUOUS
 10
104.0773684211
 20
116.8078947368
 11
105.5998328887
 21
116.8078947368
  0
LINE
  5
50C
100
AcDbEntity
  8
0
100
AcDbLine
 62
253
  6
CONTINUOUS
 10
105.7272548627
 20
117.0150376621
 11
105.7534334723
 21
117.0150376621
  0
LINE
  5
50D
100
AcDbEntity
  8
SMUSSO
100
AcDbLine
 62
7
  6
CONTINUOUS
 10
94.7273684211
 20
117.2578947368
 11
87.7273684211
 21
117.2578947368
  0
LINE
  5
50E
100
AcDbEntity
  8
0
100
AcDbLine
 62
7
  6
CONTINUOUS
 10
94.7273684211
 20
117.2578947368
 11
87.7273684211
 21
117.2578947368
  0
LINE
  5
50F
100
AcDbEntity
  8
0
100
AcDbLine
 62
7
  6
CONTINUOUS
 10
94.7273684211
 20
117.4578947368
 11
87.7273684211
 21
117.4578947368
  0
LINE
  5
510
100
AcDbEntity
  8
SMUSSO
100
AcDbLine
 62
7
  6
CONTINUOUS
 10
87.7273684211
 20
125.5578947368
 11
87.1500181519
 21
126.135245006
  0
LINE
  5
511
100
AcDbEntity
  8
0
100
AcDbLine
 62
7
  6
CONTINUOUS
 10
87.7273684211
 20
125.5578947368
 11
87.1500181519
 21
126.135245006
  0
LINE
  5
512
100
AcDbEntity
  8
ASSI
100
AcDbLine
 62
253
  6
CONTINUOUS
 10
83.644823486
 20
130.7905158243
 11
83.6273684211
 21
130.8079708893
  0
LINE
  5
513
100
AcDbEntity
  8
ASSI
100
AcDbLine
 62
253
  6
CONTINUOUS
 10
84.1447473336
 20
131.2904396719
 11
84.1273683565
 21
131.3078946723
  0
LWPOLYLINE
  5
514
100
AcDbEntity
  8
ASSI
100
AcDbPolyline
 62
253
  6
CONTINUOUS
 90
4
 70
0
 10
102.140505417
 20
133.3947272799
 10
102.1405465456
 20
133.3942476922
 10
102.140588548
 20
133.393178595
 10
102.1406314242
 20
133.3914700492
  0
LWPOLYLINE
  5
515
100
AcDbEntity
  8
0
100
AcDbPolyline
 62
253
  6
CONTINUOUS
 90
5
 70
0
 10
105.6491362249
 20
94.7683989175
 10
105.6500971782
 20
94.7557520425
 10
105.6510517379
 20
94.7413554122
 10
105.651998808
 20
94.7252306041
 10
105.6529372923
 20
94.7073991961
  0
LINE
  5
516
100
AcDbEntity
  8
INCISIONI
100
AcDbLine
 62
253
  6
CONTINUOUS
 10
105.7367290266
 20
97.3864652935
 11
105.7462031905
 21
97.2507510725
  0
LINE
  5
517
100
AcDbEntity
  8
INCISIONI
100
AcDbLine
 62
253
  6
CONTINUOUS
 10
105.7343604854
 20
96.707893962
 11
105.7604144349
 21
96.3007510725
  0
LINE
  5
518
100
AcDbEntity
  8
0
100
AcDbLine
 62
253
  6
CONTINUOUS
 10
105.5108678859
 20
106.5364659611
 11
105.5370464955
 21
106.1078947368
  0
LWPOLYLINE
  5
519
100
AcDbEntity
  8
0
100
AcDbPolyline
 62
253
  6
CONTINUOUS
 90
22
 70
0
 10
105.8131158256
 20
97.7874509214
 10
105.813640927
 20
97.7760372506
 10
105.8141712212
 20
97.7658495355
 10
105.8147080606
 20
97.7568579096
 10
105.815250591
 20
97.7490850714
 10
105.8157979578
 20
97.7425537197
 10
105.8163493067
 20
97.7372865531
 10
105.8169037833
 20
97.7333062703
 10
105.8174605331
 20
97.73063557
 10
105.8180187018
 20
97.7292971508
 10
105.818577435
 20
97.7293137114
 10
105.8191358783
 20
97.7307079505
 10
105.8196859947
 20
97.7334514864
 10
105.8202338974
 20
97.7375438659
 10
105.8207784879
 20
97.7429692446
 10
105.8213186676
 20
97.7497117778
 10
105.8218533379
 20
97.7577556211
 10
105.8223814005
 20
97.7670849297
 10
105.8229017567
 20
97.7776838591
 10
105.823413308
 20
97.7895365648
 10
105.8239149558
 20
97.8026272021
 10
105.8248875726
 20
97.8325722116
  0
LINE
  5
51A
100
AcDbEntity
  8
0
100
AcDbLine
 62
253
  6
CONTINUOUS
 10
105.6529372923
 20
94.7073991961
 11
105.6547841195
 21
94.6667028907
  0
LWPOLYLINE
  5
51B
100
AcDbEntity
  8
0
100
AcDbPolyline
 62
253
  6
CONTINUOUS
 90
25
 70
0
 10
105.6608045587
 20
95.3345216923
 10
105.6592351812
 20
95.3728026877
 10
105.6576413745
 20
95.4076137172
 10
105.6560255026
 20
95.4389061299
 10
105.6543899297
 20
95.4666312745
 10
105.6527370198
 20
95.4907405001
 10
105.6510691588
 20
95.5111905087
 10
105.6493888204
 20
95.5279594156
 10
105.6476985001
 20
95.5410306892
 10
105.6460006932
 20
95.5503877979
 10
105.6442978954
 20
95.5560142101
 10
105.642592602
 20
95.5578933944
 10
105.6408873086
 20
95.5560143295
 10
105.6391845107
 20
95.5503880365
 10
105.6374867036
 20
95.5410310467
 10
105.635796383
 20
95.5279598914
 10
105.6341160442
 20
95.5111911022
 10
105.6324481829
 20
95.4907412103
 10
105.6307952724
 20
95.4666321005
 10
105.6291596989
 20
95.4389070703
 10
105.6275438263
 20
95.4076147708
 10
105.6259500189
 20
95.3728038528
 10
105.6243806406
 20
95.3345229673
 10
105.6228380555
 20
95.2928207652
 10
105.6198423798
 20
95.1993867153
  0
LWPOLYLINE
  5
51C
100
AcDbEntity
  8
0
100
AcDbPolyline
 62
253
  6
CONTINUOUS
 90
25
 70
0
 10
105.6608045278
 20
99.7196323591
 10
105.6592351504
 20
99.7579132726
 10
105.6576413439
 20
99.7927242221
 10
105.6560254723
 20
99.8240165564
 10
105.6543898997
 20
99.8517416247
 10
105.6527369902
 20
99.875850776
 10
105.6510691297
 20
99.8963007127
 10
105.6493887918
 20
99.9130695501
 10
105.647698472
 20
99.9261407566
 10
105.6460006657
 20
99.9354978009
 10
105.6442978685
 20
99.9411241514
 10
105.6425925759
 20
99.9430032767
 10
105.6408872832
 20
99.9411241559
 10
105.639184486
 20
99.9354978099
 10
105.6374866797
 20
99.9261407701
 10
105.6357963599
 20
99.9130695681
 10
105.634116022
 20
99.8963007352
 10
105.6324481615
 20
99.8758508029
 10
105.6307952519
 20
99.8517416559
 10
105.6291596793
 20
99.8240165919
 10
105.6275438077
 20
99.7927242618
 10
105.6259500012
 20
99.7579133166
 10
105.6243806238
 20
99.7196324072
 10
105.6228380396
 20
99.6779301845
 10
105.6198423659
 20
99.5844961033
  0
LINE
  5
51D
100
AcDbEntity
  8
0
100
AcDbLine
 62
253
  6
CONTINUOUS
 10
105.8120915138
 20
97.8137780662
 11
105.8131158256
 21
97.7874509214
  0
LINE
  5
51E
100
AcDbEntity
  8
0
100
AcDbLine
 62
253
  6
CONTINUOUS
 10
105.6547841195
 20
94.6667028907
 11
105.6565834509
 21
94.6194391173
  0
LINE
  5
51F
100
AcDbEntity
  8
0
100
AcDbLine
 62
253
  6
CONTINUOUS
 10
105.8144623598
 20
97.9742798321
 11
105.8137064824
 21
97.9943001835
  0
LWPOLYLINE
  5
520
100
AcDbEntity
  8
ASSI
100
AcDbPolyline
 62
253
  6
CONTINUOUS
 90
9
 70
0
 10
105.3138042636
 20
84.6269454023
 10
105.3138506734
 20
84.6256218129
 10
105.3138982012
 20
84.6244612917
 10
105.3139468607
 20
84.6234658349
 10
105.3139966382
 20
84.6226334464
 10
105.3140469915
 20
84.6219729587
 10
105.3140977399
 20
84.6214873159
 10
105.3141490641
 20
84.621173574
 10
105.3142009641
 20
84.6210317328
  0
LINE
  5
521
100
AcDbEntity
  8
0
100
AcDbLine
 62
253
  6
CONTINUOUS
 10
105.5220872901
 20
110.8221805278
 11
105.5370464955
 21
110.3936091247
  0
LINE
  5
522
100
AcDbEntity
  8
0
100
AcDbLine
 62
253
  6
CONTINUOUS
 10
105.6638606124
 20
95.2477493709
 11
105.6608045587
 21
95.3345216923
  0
LINE
  5
523
100
AcDbEntity
  8
0
100
AcDbLine
 62
253
  6
CONTINUOUS
 10
105.6553145806
 20
99.0387391447
 11
105.6576626638
 21
98.972269231
  0
LINE
  5
524
100
AcDbEntity
  8
0
100
AcDbLine
 62
253
  6
CONTINUOUS
 10
105.6638605814
 20
99.6328602057
 11
105.6608045278
 21
99.7196323591
  0
LINE
  5
525
100
AcDbEntity
  8
0
100
AcDbLine
 62
253
  6
CONTINUOUS
 10
105.6565834509
 20
94.6194391173
 11
105.6583265764
 21
94.5657823412
  0
LINE
  5
526
100
AcDbEntity
  8
0
100
AcDbLine
 62
253
  6
CONTINUOUS
 10
105.811107561
 20
97.8446876167
 11
105.8120915138
 21
97.8137780662
  0
LINE
  5
527
100
AcDbEntity
  8
ASSI
100
AcDbLine
 62
7
  6
CONTINUOUS
 10
104.0142009641
 20
132.4660762074
 11
104.0273684211
 21
132.0305444677
  0
LINE
  5
528
100
AcDbEntity
  8
ASSI
100
AcDbLine
 62
7
  6
CONTINUOUS
 10
105.817051221
 20
90.749150313
 11
105.8273684211
 21
90.4078947368
  0
LINE
  5
529
100
AcDbEntity
  8
0
100
AcDbLine
 62
253
  6
CONTINUOUS
 10
105.8137064824
 20
97.9943001835
 11
105.8129818136
 21
98.0176482962
  0
LINE
  5
52A
100
AcDbEntity
  8
0
100
AcDbLine
 62
253
  6
CONTINUOUS
 10
105.6667916473
 20
95.1478050633
 11
105.6638606124
 21
95.2477493709
  0
LINE
  5
52B
100
AcDbEntity
  8
0
100
AcDbLine
 62
253
  6
CONTINUOUS
 10
105.6667916164
 20
99.5329160709
 11
105.6638605814
 21
99.6328602057
  0
LINE
  5
52C
100
AcDbEntity
  8
0
100
AcDbLine
 62
253
  6
CONTINUOUS
 10
105.6576626638
 20
98.972269231
 11
105.659906191
 21
98.8948431648
  0
LINE
  5
52D
100
AcDbEntity
  8
0
100
AcDbLine
 62
253
  6
CONTINUOUS
 10
105.6583265764
 20
94.5657823412
 11
105.6600061309
 21
94.5059494342
  0
LINE
  5
52E
100
AcDbEntity
  8
ASSI
100
AcDbLine
 62
253
  6
CONTINUOUS
 10
105.3137163238
 20
84.6300390215
 11
105.3138042636
 21
84.6269454023
  0
LINE
  5
52F
100
AcDbEntity
  8
INCISIONI
100
AcDbLine
 62
253
  6
CONTINUOUS
 10
105.7604144349
 20
93.5864652935
 11
105.7533088117
 21
93.8578937355
  0
LINE
  5
530
100
AcDbEntity
  8
0
100
AcDbLine
 62
253
  6
CONTINUOUS
 10
105.8101709725
 20
97.8800787752
 11
105.811107561
 21
97.8446876167
  0
LINE
  5
531
100
AcDbEntity
  8
INCISIONI
100
AcDbLine
 62
253
  6
CONTINUOUS
 10
105.7272548627
 20
93.8578937355
 11
105.750940272
 21
92.9078937355
  0
LINE
  5
532
100
AcDbEntity
  8
0
100
AcDbLine
 62
253
  6
CONTINUOUS
 10
105.6695807565
 20
95.0353112185
 11
105.6667916473
 21
95.1478050633
  0
LINE
  5
533
100
AcDbEntity
  8
0
100
AcDbLine
 62
253
  6
CONTINUOUS
 10
105.669580726
 20
99.420422402
 11
105.6667916164
 21
99.5329160709
  0
LINE
  5
534
100
AcDbEntity
  8
0
100
AcDbLine
 62
253
  6
CONTINUOUS
 10
105.6600061309
 20
94.5059494342
 11
105.6616160943
 21
94.4401996753
  0
LINE
  5
535
100
AcDbEntity
  8
0
100
AcDbLine
 62
253
  6
CONTINUOUS
 10
105.659906191
 20
98.8948431648
 11
105.6620291884
 21
98.8069686042
  0
LINE
  5
536
100
AcDbEntity
  8
0
100
AcDbLine
 62
253
  6
CONTINUOUS
 10
105.8129818136
 20
98.0176482962
 11
105.8119621432
 21
98.0584628224
  0
LWPOLYLINE
  5
537
100
AcDbEntity
  8
ASSI
100
AcDbPolyline
 62
253
  6
CONTINUOUS
 90
4
 70
0
 10
105.1140773376
 20
84.4257671622
 10
105.1141281048
 20
84.4233280207
 10
105.1141794673
 20
84.4217581562
 10
105.1142314251
 20
84.4210621938
  0
LINE
  5
538
100
AcDbEntity
  8
ASSI
100
AcDbLine
 62
253
  6
CONTINUOUS
 10
105.3136353198
 20
84.6337074106
 11
105.3137163238
 21
84.6300390215
  0
LINE
  5
539
100
AcDbEntity
  8
0
100
AcDbLine
 62
253
  6
CONTINUOUS
 10
105.672211137
 20
94.9108993888
 11
105.6695807565
 21
95.0353112185
  0
LINE
  5
53A
100
AcDbEntity
  8
0
100
AcDbLine
 62
253
  6
CONTINUOUS
 10
105.6722111073
 20
99.29601075
 11
105.669580726
 21
99.420422402
  0
LINE
  5
53B
100
AcDbEntity
  8
0
100
AcDbLine
 62
253
  6
CONTINUOUS
 10
105.8119621432
 20
98.0584628224
 11
105.8113316372
 21
98.0892649699
  0
LINE
  5
53C
100
AcDbEntity
  8
0
100
AcDbLine
 62
253
  6
CONTINUOUS
 10
105.6616160943
 20
94.4401996753
 11
105.663887515
 21
94.3310521449
  0
LINE
  5
53D
100
AcDbEntity
  8
0
100
AcDbLine
 62
253
  6
CONTINUOUS
 10
105.6620291884
 20
98.8069686042
 11
105.6640169591
 21
98.7092524994
  0
LINE
  5
53E
100
AcDbEntity
  8
0
100
AcDbLine
 62
253
  6
CONTINUOUS
 10
105.8088702213
 20
97.9413480322
 11
105.8101709725
 21
97.8800787752
  0
LINE
  5
53F
100
AcDbEntity
  8
0
100
AcDbLine
 62
253
  6
CONTINUOUS
 10
105.5258270921
 20
92.8221810642
 11
105.5220872901
 21
93.0364659611
  0
LINE
  5
540
100
AcDbEntity
  8
0
100
AcDbLine
 62
253
  6
CONTINUOUS
 10
105.5146076874
 20
94.0007522884
 11
105.5108678859
 21
94.2150371853
  0
LINE
  5
541
100
AcDbEntity
  8
0
100
AcDbLine
 62
253
  6
CONTINUOUS
 10
105.5108678859
 20
95.3936084095
 11
105.5146076874
 21
95.1793235126
  0
LINE
  5
542
100
AcDbEntity
  8
0
100
AcDbLine
 62
253
  6
CONTINUOUS
 10
105.5333066944
 20
94.7507522884
 11
105.5370464955
 21
94.5364659611
  0
LINE
  5
543
100
AcDbEntity
  8
0
100
AcDbLine
 62
253
  6
CONTINUOUS
 10
105.5333066944
 20
95.9293235126
 11
105.5370464955
 21
95.7150371853
  0
LINE
  5
544
100
AcDbEntity
  8
0
100
AcDbLine
 62
253
  6
CONTINUOUS
 10
105.5108678859
 20
98.8221810642
 11
105.5146076874
 21
98.6078947368
  0
LINE
  5
545
100
AcDbEntity
  8
0
100
AcDbLine
 62
253
  6
CONTINUOUS
 10
105.5333066944
 20
99.3578947368
 11
105.5370464955
 21
99.1436084095
  0
LINE
  5
546
100
AcDbEntity
  8
0
100
AcDbLine
 62
253
  6
CONTINUOUS
 10
105.5258270921
 20
102.0364659611
 11
105.5220872901
 21
102.2507515732
  0
LINE
  5
547
100
AcDbEntity
  8
0
100
AcDbLine
 62
253
  6
CONTINUOUS
 10
105.5108678859
 20
103.4293235126
 11
105.5146076874
 21
103.2150379005
  0
LINE
  5
548
100
AcDbEntity
  8
0
100
AcDbLine
 62
253
  6
CONTINUOUS
 10
105.674667391
 20
94.7752963641
 11
105.672211137
 21
94.9108993888
  0
LINE
  5
549
100
AcDbEntity
  8
INCISIONI
100
AcDbLine
 62
253
  6
CONTINUOUS
 10
105.7272548627
 20
94.5364652935
 11
105.7296234037
 21
94.4007510725
  0
LINE
  5
54A
100
AcDbEntity
  8
0
100
AcDbLine
 62
253
  6
CONTINUOUS
 10
105.5258270921
 20
106.9650379005
 11
105.5220872901
 21
107.1793235126
  0
LINE
  5
54B
100
AcDbEntity
  8
0
100
AcDbLine
 62
253
  6
CONTINUOUS
 10
105.6746673623
 20
99.1604079032
 11
105.6722111073
 21
99.29601075
  0
LINE
  5
54C
100
AcDbEntity
  8
0
100
AcDbLine
 62
253
  6
CONTINUOUS
 10
105.5258270921
 20
109.2150375429
 11
105.5220872901
 21
109.429323155
  0
LINE
  5
54D
100
AcDbEntity
  8
INCISIONI
100
AcDbLine
 62
253
  6
CONTINUOUS
 10
105.7272548627
 20
97.929322404
 11
105.7367290266
 21
97.3864652935
  0
LINE
  5
54E
100
AcDbEntity
  8
INCISIONI
100
AcDbLine
 62
253
  6
CONTINUOUS
 10
105.7604144349
 20
97.929322404
 11
105.7556773534
 21
98.2007509592
  0
LINE
  5
54F
100
AcDbEntity
  8
0
100
AcDbLine
 62
253
  6
CONTINUOUS
 10
105.8368455556
 20
93.9250437368
 11
105.8490650211
 21
93.2248007368
  0
LINE
  5
550
100
AcDbEntity
  8
0
100
AcDbLine
 62
253
  6
CONTINUOUS
 10
105.8490650211
 20
93.5099207368
 11
105.8368455556
 21
94.2101877368
  0
LINE
  5
551
100
AcDbEntity
  8
INCISIONI
100
AcDbLine
 62
253
  6
CONTINUOUS
 10
105.750940272
 20
99.2864652935
 11
105.7604144349
 21
98.7436081264
  0
LINE
  5
552
100
AcDbEntity
  8
0
100
AcDbLine
 62
253
  6
CONTINUOUS
 10
105.8065828409
 20
96.7059377368
 11
105.8319882786
 21
95.2500637368
  0
LINE
  5
553
100
AcDbEntity
  8
0
100
AcDbLine
 62
253
  6
CONTINUOUS
 10
105.8319882786
 20
95.5351847368
 11
105.8065828409
 21
96.9911047368
  0
LINE
  5
554
100
AcDbEntity
  8
0
100
AcDbLine
 62
253
  6
CONTINUOUS
 10
105.6640169591
 20
98.7092524994
 11
105.6658560836
 21
98.6024010933
  0
LINE
  5
555
100
AcDbEntity
  8
0
100
AcDbLine
 62
253
  6
CONTINUOUS
 10
105.663887515
 20
94.3310521449
 11
105.6659690033
 21
94.210077836
  0
LINE
  5
556
100
AcDbEntity
  8
0
100
AcDbLine
 62
253
  6
CONTINUOUS
 10
105.6769355255
 20
94.6293241717
 11
105.674667391
 21
94.7752963641
  0
LINE
  5
557
100
AcDbEntity
  8
0
100
AcDbLine
 62
253
  6
CONTINUOUS
 10
105.6769354982
 20
99.0144358873
 11
105.6746673623
 21
99.1604079032
  0
LINE
  5
558
100
AcDbEntity
  8
ASSI
100
AcDbLine
 62
253
  6
CONTINUOUS
 10
105.3135296697
 20
84.640152549
 11
105.3136353198
 21
84.6337074106
  0
LINE
  5
559
100
AcDbEntity
  8
0
100
AcDbLine
 62
253
  6
CONTINUOUS
 10
105.6658560836
 20
98.6024010933
 11
105.6675332712
 21
98.4871287905
  0
LINE
  5
55A
100
AcDbEntity
  8
0
100
AcDbLine
 62
253
  6
CONTINUOUS
 10
105.6659690033
 20
94.210077836
 11
105.6678427366
 21
94.0783767561
  0
LINE
  5
55B
100
AcDbEntity
  8
0
100
AcDbLine
 62
253
  6
CONTINUOUS
 10
105.6790016855
 20
94.4738127113
 11
105.6769355255
 21
94.6293241717
  0
LINE
  5
55C
100
AcDbEntity
  8
0
100
AcDbLine
 62
253
  6
CONTINUOUS
 10
105.6790016598
 20
98.8589246001
 11
105.6769354982
 21
99.0144358873
  0
LINE
  5
55D
100
AcDbEntity
  8
ASSI
100
AcDbLine
 62
253
  6
CONTINUOUS
 10
105.1139772438
 20
84.4332207548
 11
105.1140773376
 21
84.4257671622
  0
LINE
  5
55E
100
AcDbEntity
  8
0
100
AcDbLine
 62
253
  6
CONTINUOUS
 10
105.6675332712
 20
98.4871287905
 11
105.6690369171
 21
98.3642384282
  0
LWPOLYLINE
  5
55F
100
AcDbEntity
  8
RACCORDO
100
AcDbPolyline
 62
253
  6
CONTINUOUS
 90
37
 70
0
 10
104.4862226386
 20
126.4175128109
 10
104.4859838948
 20
126.439339631
 10
104.4852704347
 20
126.4611359852
 10
104.4840822583
 20
126.4829018737
 10
104.4824183488
 20
126.5046478469
 10
104.4802797229
 20
126.5263633544
 10
104.4776694308
 20
126.5480167443
 10
104.4745867977
 20
126.5696077143
 10
104.4710324983
 20
126.5911365668
 10
104.4670116065
 20
126.6125725572
 10
104.4625234582
 20
126.6339155349
 10
104.4575687175
 20
126.6551656506
 10
104.4521544505
 20
126.6762926117
 10
104.4462800026
 20
126.6972962439
 10
104.4399460284
 20
126.7181767216
 10
104.4331615577
 20
126.7389042747
 10
104.4259259449
 20
126.7594786931
 10
104.4182398356
 20
126.7799001869
 10
104.4101141964
 20
126.8001396173
 10
104.4015483995
 20
126.8201967231
 10
104.3925430728
 20
126.8400717653
 10
104.3831110657
 20
126.8597363883
 10
104.3732517734
 20
126.879190284
 10
104.3629658007
 20
126.8984337605
 10
104.3522678119
 20
126.9174393855
 10
104.341157221
 20
126.9362068206
 10
104.329634614
 20
126.9547364042
 10
104.317716414
 20
126.9730017201
 10
104.3054020441
 20
126.9910024052
 10
104.2926920811
 20
127.0087388225
 10
104.2796046779
 20
127.0261856454
 10
104.2661390817
 20
127.043342674
 10
104.2522960453
 20
127.0602101081
 10
104.2380959807
 20
127.0767632201
 10
104.2235456917
 20
127.0929937676
 10
104.2086383744
 20
127.108909993
 10
104.1933740289
 20
127.1245118963
  0
LWPOLYLINE
  5
560
100
AcDbEntity
  8
0
100
AcDbPolyline
 62
253
  6
CONTINUOUS
 90
37
 70
0
 10
104.4862226386
 20
126.4175128109
 10
104.4859838948
 20
126.439339631
 10
104.4852704347
 20
126.4611359852
 10
104.4840822583
 20
126.4829018737
 10
104.4824183488
 20
126.5046478469
 10
104.4802797229
 20
126.5263633544
 10
104.4776694308
 20
126.5480167443
 10
104.4745867977
 20
126.5696077143
 10
104.4710324983
 20
126.5911365668
 10
104.4670116065
 20
126.6125725572
 10
104.4625234582
 20
126.6339155349
 10
104.4575687175
 20
126.6551656506
 10
104.4521544505
 20
126.6762926117
 10
104.4462800026
 20
126.6972962439
 10
104.4399460284
 20
126.7181767216
 10
104.4331615577
 20
126.7389042747
 10
104.4259259449
 20
126.7594786931
 10
104.4182398356
 20
126.7799001869
 10
104.4101141964
 20
126.8001396173
 10
104.4015483995
 20
126.8201967231
 10
104.3925430728
 20
126.8400717653
 10
104.3831110657
 20
126.8597363883
 10
104.3732517734
 20
126.879190284
 10
104.3629658007
 20
126.8984337605
 10
104.3522678119
 20
126.9174393855
 10
104.341157221
 20
126.9362068206
 10
104.329634614
 20
126.9547364042
 10
104.317716414
 20
126.9730017201
 10
104.3054020441
 20
126.9910024052
 10
104.2926920811
 20
127.0087388225
 10
104.2796046779
 20
127.0261856454
 10
104.2661390817
 20
127.043342674
 10
104.2522960453
 20
127.0602101081
 10
104.2380959807
 20
127.0767632201
 10
104.2235456917
 20
127.0929937676
 10
104.2086383744
 20
127.108909993
 10
104.1933740289
 20
127.1245118963
  0
LINE
  5
561
100
AcDbEntity
  8
0
100
AcDbLine
 62
253
  6
CONTINUOUS
 10
105.6678427366
 20
94.0783767561
 11
105.6694922568
 21
93.9371788444
  0
LINE
  5
562
100
AcDbEntity
  8
0
100
AcDbLine
 62
253
  6
CONTINUOUS
 10
105.6808537804
 20
94.3096777023
 11
105.6790016855
 21
94.4738127113
  0
LINE
  5
563
100
AcDbEntity
  8
0
100
AcDbLine
 62
253
  6
CONTINUOUS
 10
105.6808537567
 20
98.6947897596
 11
105.6790016598
 21
98.8589246001
  0
LINE
  5
564
100
AcDbEntity
  8
INCISIONI
100
AcDbLine
 62
253
  6
CONTINUOUS
 10
105.7462031905
 20
94.6721795145
 11
105.7485717303
 21
94.4459889952
  0
LINE
  5
565
100
AcDbEntity
  8
0
100
AcDbLine
 62
253
  6
CONTINUOUS
 10
105.6690369171
 20
98.3642384282
 11
105.6703571025
 21
98.2346212762
  0
LINE
  5
566
100
AcDbEntity
  8
0
100
AcDbLine
 62
253
  6
CONTINUOUS
 10
105.6824814841
 20
94.1379206848
 11
105.6808537804
 21
94.3096777023
  0
LINE
  5
567
100
AcDbEntity
  8
0
100
AcDbLine
 62
253
  6
CONTINUOUS
 10
105.6694922568
 20
93.9371788444
 11
105.6709014684
 21
93.7877217252
  0
LINE
  5
568
100
AcDbEntity
  8
ASSI
100
AcDbLine
 62
253
  6
CONTINUOUS
 10
105.3134237984
 20
84.6500704017
 11
105.3135296697
 21
84.640152549
  0
LWPOLYLINE
  5
569
100
AcDbEntity
  8
0
100
AcDbPolyline
 62
253
  6
CONTINUOUS
 90
3
 70
0
 10
105.6832079663
 20
98.4346103673
 10
105.6824814627
 20
98.523032904
 10
105.6808537567
 20
98.6947897596
  0
LWPOLYLINE
  5
56A
100
AcDbEntity
  8
0
100
AcDbPolyline
 62
253
  6
CONTINUOUS
 90
3
 70
0
 10
105.6703571025
 20
98.2346212762
 10
105.6714840664
 20
98.0991734534
 10
105.6719725308
 20
98.0295489149
  0
LINE
  5
56B
100
AcDbEntity
  8
ASSI
100
AcDbLine
 62
253
  6
CONTINUOUS
 10
105.3133961368
 20
132.7351265403
 11
105.313487602
 21
132.7247330504
  0
LINE
  5
56C
100
AcDbEntity
  8
0
100
AcDbLine
 62
253
  6
CONTINUOUS
 10
105.6709014684
 20
93.7877217252
 11
105.6720582219
 21
93.6313071865
  0
LINE
  5
56D
100
AcDbEntity
  8
ASSI
100
AcDbLine
 62
253
  6
CONTINUOUS
 10
105.1137898972
 20
84.4579868561
 11
105.1139772438
 21
84.4332207548
  0
LWPOLYLINE
  5
56E
100
AcDbEntity
  8
0
100
AcDbPolyline
 62
253
  6
CONTINUOUS
 90
3
 70
0
 10
105.6850250617
 20
93.7755825884
 10
105.6844805796
 20
93.8681991096
 10
105.6824814841
 20
94.1379206848
  0
LINE
  5
56F
100
AcDbEntity
  8
0
100
AcDbLine
 62
253
  6
CONTINUOUS
 10
105.6720582219
 20
93.6313071865
 11
105.6729529139
 21
93.4692784118
  0
LINE
  5
570
100
AcDbEntity
  8
ASSI
100
AcDbLine
 62
253
  6
CONTINUOUS
 10
105.313353825
 20
84.6633353013
 11
105.3134237984
 21
84.6500704017
  0
LINE
  5
571
100
AcDbEntity
  8
ASSI
100
AcDbLine
 62
253
  6
CONTINUOUS
 10
105.1134262451
 20
132.6667276917
 11
105.113810055
 21
132.535768226
  0
LINE
  5
572
100
AcDbEntity
  8
DRAFT
100
AcDbLine
 62
7
  6
CONTINUOUS
 10
104.1444862176
 20
88.6750125334
 11
104.1451618715
 21
88.0852812001
  0
LINE
  5
573
100
AcDbEntity
  8
ASSI
100
AcDbLine
 62
253
  6
CONTINUOUS
 10
105.1134039586
 20
84.6060207272
 11
105.1137898972
 21
84.4579868561
  0
LINE
  5
574
100
AcDbEntity
  8
ASSI
100
AcDbLine
 62
253
  6
CONTINUOUS
 10
105.3133434425
 20
132.7522323041
 11
105.3133961368
 21
132.7351265403
  0
LINE
  5
575
100
AcDbEntity
  8
0
100
AcDbLine
 62
253
  6
CONTINUOUS
 10
105.611231594
 20
92.9078919707
 11
105.6111924432
 21
92.9643506401
  0
LINE
  5
576
100
AcDbEntity
  8
0
100
AcDbLine
 62
253
  6
CONTINUOUS
 10
105.598095966
 20
93.0054630222
 11
105.5981299683
 21
92.9078948498
  0
LINE
  5
577
100
AcDbEntity
  8
0
100
AcDbLine
 62
253
  6
CONTINUOUS
 10
105.598095968
 20
97.3905729868
 11
105.5981299703
 21
97.2930048544
  0
LINE
  5
578
100
AcDbEntity
  8
ASSI
100
AcDbLine
 62
253
  6
CONTINUOUS
 10
103.4904978018
 20
132.7522323041
 11
103.4904978018
 21
131.2904396719
  0
LINE
  5
579
100
AcDbEntity
  8
ASSI
100
AcDbLine
 62
253
  6
CONTINUOUS
 10
103.4904978018
 20
86.5253498018
 11
103.4904978018
 21
85.0635571695
  0
LINE
  5
57A
100
AcDbEntity
  8
ASSI
100
AcDbLine
 62
253
  6
CONTINUOUS
 10
103.7642390403
 20
132.7522323041
 11
103.7642390403
 21
131.2904396719
  0
LINE
  5
57B
100
AcDbEntity
  8
ASSI
100
AcDbLine
 62
253
  6
CONTINUOUS
 10
103.7642390403
 20
86.5253498018
 11
103.7642390403
 21
85.0635571695
  0
LINE
  5
57C
100
AcDbEntity
  8
ASSI
100
AcDbLine
 62
253
  6
CONTINUOUS
 10
104.0142009641
 20
132.4660762074
 11
104.0142009641
 21
131.2947272799
  0
LINE
  5
57D
100
AcDbEntity
  8
ASSI
100
AcDbLine
 62
253
  6
CONTINUOUS
 10
104.0142009641
 20
86.5210621938
 11
104.0142009641
 21
85.3497132663
  0
LINE
  5
57E
100
AcDbEntity
  8
RACCORDO
100
AcDbLine
 62
253
  6
CONTINUOUS
 10
104.0156071526
 20
90.5135107011
 11
104.0156071526
 21
89.513663006
  0
LINE
  5
57F
100
AcDbEntity
  8
0
100
AcDbLine
 62
253
  6
CONTINUOUS
 10
104.0156071526
 20
90.5135107011
 11
104.0156071526
 21
89.513663006
  0
LINE
  5
580
100
AcDbEntity
  8
RACCORDO
100
AcDbLine
 62
253
  6
CONTINUOUS
 10
104.0156071526
 20
127.3022787726
 11
104.0156071526
 21
128.3021264677
  0
LINE
  5
581
100
AcDbEntity
  8
0
100
AcDbLine
 62
253
  6
CONTINUOUS
 10
104.0156071526
 20
127.3022787726
 11
104.0156071526
 21
128.3021264677
  0
LINE
  5
582
100
AcDbEntity
  8
ASSI
100
AcDbLine
 62
7
  6
CONTINUOUS
 10
104.0273684211
 20
132.0305444677
 11
104.0273684211
 21
131.3078947368
  0
LINE
  5
583
100
AcDbEntity
  8
ASSI
100
AcDbLine
 62
7
  6
CONTINUOUS
 10
104.0273684211
 20
86.5078947368
 11
104.0273684211
 21
85.785245006
  0
LINE
  5
584
100
AcDbEntity
  8
ASSI
100
AcDbLine
 62
7
  6
CONTINUOUS
 10
104.0773684211
 20
126.0078947368
 11
104.0773684211
 21
121.8078947368
  0
LINE
  5
585
100
AcDbEntity
  8
0
100
AcDbLine
 62
7
  6
CONTINUOUS
 10
104.0773684211
 20
126.0078947368
 11
104.0773684211
 21
121.8078947368
  0
LINE
  5
586
100
AcDbEntity
  8
ASSI
100
AcDbLine
 62
7
  6
CONTINUOUS
 10
104.0773684211
 20
121.0078947368
 11
104.0773684211
 21
116.8078947368
  0
LINE
  5
587
100
AcDbEntity
  8
0
100
AcDbLine
 62
7
  6
CONTINUOUS
 10
104.0773684211
 20
121.0078947368
 11
104.0773684211
 21
116.8078947368
  0
LINE
  5
588
100
AcDbEntity
  8
0
100
AcDbLine
 62
7
  6
CONTINUOUS
 10
104.2273684211
 20
126.0078947368
 11
104.2273684211
 21
121.8078947368
  0
LINE
  5
589
100
AcDbEntity
  8
0
100
AcDbLine
 62
7
  6
CONTINUOUS
 10
104.2273684211
 20
121.0078947368
 11
104.2273684211
 21
116.8078947368
  0
LINE
  5
58A
100
AcDbEntity
  8
ASSI
100
AcDbLine
 62
7
  6
CONTINUOUS
 10
104.3511824995
 20
129.7991678691
 11
104.3511824995
 21
128.9340806584
  0
LINE
  5
58B
100
AcDbEntity
  8
ASSI
100
AcDbLine
 62
7
  6
CONTINUOUS
 10
104.3511824995
 20
88.8817088153
 11
104.3511824995
 21
88.0166216046
  0
LINE
  5
58C
100
AcDbEntity
  8
DRAFT
100
AcDbLine
 62
7
  6
CONTINUOUS
 10
104.3773684211
 20
126.0078947368
 11
104.3773684211
 21
121.9078947368
  0
LINE
  5
58D
100
AcDbEntity
  8
DRAFT
100
AcDbLine
 62
7
  6
CONTINUOUS
 10
104.3773684211
 20
120.9078947368
 11
104.3773684211
 21
116.8078947368
  0
LINE
  5
58E
100
AcDbEntity
  8
ASSI
100
AcDbLine
 62
253
  6
CONTINUOUS
 10
104.4862226386
 20
91.3982766628
 11
104.4862226386
 21
116.8078947368
  0
LINE
  5
58F
100
AcDbEntity
  8
0
100
AcDbLine
 62
253
  6
CONTINUOUS
 10
104.4862226386
 20
91.3982766628
 11
104.4862226386
 21
116.8078947368
  0
LINE
  5
590
100
AcDbEntity
  8
ASSI
100
AcDbLine
 62
253
  6
CONTINUOUS
 10
104.4862226386
 20
121.0078947368
 11
104.4862226386
 21
121.8078947368
  0
LINE
  5
591
100
AcDbEntity
  8
0
100
AcDbLine
 62
253
  6
CONTINUOUS
 10
104.4862226386
 20
121.0078947368
 11
104.4862226386
 21
121.8078947368
  0
LINE
  5
592
100
AcDbEntity
  8
ASSI
100
AcDbLine
 62
253
  6
CONTINUOUS
 10
104.4862226386
 20
126.0078947368
 11
104.4862226386
 21
126.4175128109
  0
LINE
  5
593
100
AcDbEntity
  8
0
100
AcDbLine
 62
253
  6
CONTINUOUS
 10
104.4862226386
 20
126.0078947368
 11
104.4862226386
 21
126.4175128109
  0
LINE
  5
594
100
AcDbEntity
  8
ASSI
100
AcDbLine
 62
253
  6
CONTINUOUS
 10
105.1133739035
 20
84.6710241176
 11
105.1134039586
 21
84.6060207272
  0
LINE
  5
595
100
AcDbEntity
  8
ASSI
100
AcDbLine
 62
7
  6
CONTINUOUS
 10
105.3273684211
 20
133.2079251978
 11
105.3273684211
 21
131.3078944726
  0
LINE
  5
596
100
AcDbEntity
  8
ASSI
100
AcDbLine
 62
7
  6
CONTINUOUS
 10
105.3273684856
 20
86.5078948072
 11
105.3273684211
 21
84.6078642759
  0
LINE
  5
597
100
AcDbEntity
  8
ASSI
100
AcDbLine
 62
253
  6
CONTINUOUS
 10
105.4860703338
 20
91.3982790102
 11
105.4860703338
 21
116.8078947368
  0
LINE
  5
598
100
AcDbEntity
  8
0
100
AcDbLine
 62
253
  6
CONTINUOUS
 10
105.4860703338
 20
91.3982790102
 11
105.4860703338
 21
116.8078947368
  0
LINE
  5
599
100
AcDbEntity
  8
ASSI
100
AcDbLine
 62
253
  6
CONTINUOUS
 10
105.4860703338
 20
121.0078947368
 11
105.4860703338
 21
121.8078947368
  0
LINE
  5
59A
100
AcDbEntity
  8
0
100
AcDbLine
 62
253
  6
CONTINUOUS
 10
105.4860703338
 20
121.0078947368
 11
105.4860703338
 21
121.8078947368
  0
LINE
  5
59B
100
AcDbEntity
  8
ASSI
100
AcDbLine
 62
253
  6
CONTINUOUS
 10
105.4860703338
 20
126.0078947368
 11
105.4860703338
 21
126.4175104635
  0
LINE
  5
59C
100
AcDbEntity
  8
0
100
AcDbLine
 62
253
  6
CONTINUOUS
 10
105.4860703338
 20
126.0078947368
 11
105.4860703338
 21
126.4175104635
  0
LINE
  5
59D
100
AcDbEntity
  8
0
100
AcDbLine
 62
253
  6
CONTINUOUS
 10
105.5108678859
 20
112.3221804384
 11
105.5108678859
 21
111.6793233338
  0
LINE
  5
59E
100
AcDbEntity
  8
0
100
AcDbLine
 62
253
  6
CONTINUOUS
 10
105.5108678859
 20
108.7864663187
 11
105.5108678859
 21
108.1436091247
  0
LINE
  5
59F
100
AcDbEntity
  8
0
100
AcDbLine
 62
253
  6
CONTINUOUS
 10
105.5108678859
 20
103.7507515732
 11
105.5108678859
 21
103.4293235126
  0
LINE
  5
5A0
100
AcDbEntity
  8
0
100
AcDbLine
 62
253
  6
CONTINUOUS
 10
105.5108678859
 20
101.6078947368
 11
105.5108678859
 21
100.9650371853
  0
LINE
  5
5A1
100
AcDbEntity
  8
0
100
AcDbLine
 62
253
  6
CONTINUOUS
 10
105.5108678859
 20
99.2507522884
 11
105.5108678859
 21
98.8221810642
  0
LINE
  5
5A2
100
AcDbEntity
  8
0
100
AcDbLine
 62
253
  6
CONTINUOUS
 10
105.5108678859
 20
98.1793235126
 11
105.5108678859
 21
97.5364659611
  0
LINE
  5
5A3
100
AcDbEntity
  8
0
100
AcDbLine
 62
253
  6
CONTINUOUS
 10
105.5108678859
 20
95.8221810642
 11
105.5108678859
 21
95.3936084095
  0
LINE
  5
5A4
100
AcDbEntity
  8
0
100
AcDbLine
 62
253
  6
CONTINUOUS
 10
105.5108678859
 20
94.2150371853
 11
105.5108678859
 21
94.5364659611
  0
LINE
  5
5A5
100
AcDbEntity
  8
0
100
AcDbLine
 62
253
  6
CONTINUOUS
 10
105.518347489
 20
106.3936093632
 11
105.518347489
 21
105.8221801105
  0
LINE
  5
5A6
100
AcDbEntity
  8
0
100
AcDbLine
 62
253
  6
CONTINUOUS
 10
105.5220872901
 20
93.0364659611
 11
105.5220872901
 21
93.5721810642
  0
LINE
  5
5A7
100
AcDbEntity
  8
0
100
AcDbLine
 62
253
  6
CONTINUOUS
 10
105.5220872901
 20
102.2507515732
 11
105.5220872901
 21
102.7864659611
  0
LINE
  5
5A8
100
AcDbEntity
  8
0
100
AcDbLine
 62
253
  6
CONTINUOUS
 10
105.5220872901
 20
107.1793235126
 11
105.5220872901
 21
107.7150375429
  0
LINE
  5
5A9
100
AcDbEntity
  8
0
100
AcDbLine
 62
253
  6
CONTINUOUS
 10
105.5220872901
 20
109.429323155
 11
105.5220872901
 21
109.9650375429
  0
LINE
  5
5AA
100
AcDbEntity
  8
0
100
AcDbLine
 62
253
  6
CONTINUOUS
 10
105.5258270921
 20
97.7507522884
 11
105.5258270921
 21
98.1793235126
  0
LINE
  5
5AB
100
AcDbEntity
  8
0
100
AcDbLine
 62
253
  6
CONTINUOUS
 10
105.5258270921
 20
101.1793235126
 11
105.5258270921
 21
101.6078947368
  0
LINE
  5
5AC
100
AcDbEntity
  8
0
100
AcDbLine
 62
253
  6
CONTINUOUS
 10
105.5258270921
 20
108.3578947368
 11
105.5258270921
 21
108.7864663187
  0
LINE
  5
5AD
100
AcDbEntity
  8
0
100
AcDbLine
 62
253
  6
CONTINUOUS
 10
105.5258270921
 20
111.8936089459
 11
105.5258270921
 21
112.3221804384
  0
LINE
  5
5AE
100
AcDbEntity
  8
0
100
AcDbLine
 62
253
  6
CONTINUOUS
 10
105.5370464955
 20
113.6078947368
 11
105.5370464955
 21
112.7507518414
  0
LINE
  5
5AF
100
AcDbEntity
  8
0
100
AcDbLine
 62
253
  6
CONTINUOUS
 10
105.5370464955
 20
112.3221804384
 11
105.5370464955
 21
111.6793233338
  0
LINE
  5
5B0
100
AcDbEntity
  8
0
100
AcDbLine
 62
253
  6
CONTINUOUS
 10
105.5370464955
 20
109.9650375429
 11
105.5370464955
 21
109.429323155
  0
LINE
  5
5B1
100
AcDbEntity
  8
0
100
AcDbLine
 62
253
  6
CONTINUOUS
 10
105.5370464955
 20
108.7864663187
 11
105.5370464955
 21
108.1436091247
  0
LINE
  5
5B2
100
AcDbEntity
  8
0
100
AcDbLine
 62
253
  6
CONTINUOUS
 10
105.5370464955
 20
107.7150375429
 11
105.5370464955
 21
107.1793235126
  0
LINE
  5
5B3
100
AcDbEntity
  8
0
100
AcDbLine
 62
253
  6
CONTINUOUS
 10
105.5370464955
 20
105.2507515732
 11
105.5370464955
 21
104.3936091247
  0
LINE
  5
5B4
100
AcDbEntity
  8
0
100
AcDbLine
 62
253
  6
CONTINUOUS
 10
105.5370464955
 20
102.7864659611
 11
105.5370464955
 21
102.2507515732
  0
LINE
  5
5B5
100
AcDbEntity
  8
0
100
AcDbLine
 62
253
  6
CONTINUOUS
 10
105.5370464955
 20
101.6078947368
 11
105.5370464955
 21
100.9650371853
  0
LINE
  5
5B6
100
AcDbEntity
  8
0
100
AcDbLine
 62
253
  6
CONTINUOUS
 10
105.5370464955
 20
99.1436084095
 11
105.5370464955
 21
98.7150371853
  0
LINE
  5
5B7
100
AcDbEntity
  8
0
100
AcDbLine
 62
253
  6
CONTINUOUS
 10
105.5370464955
 20
98.1793235126
 11
105.5370464955
 21
97.5364659611
  0
LINE
  5
5B8
100
AcDbEntity
  8
0
100
AcDbLine
 62
253
  6
CONTINUOUS
 10
105.5370464955
 20
95.7150371853
 11
105.5370464955
 21
95.2864659611
  0
LINE
  5
5B9
100
AcDbEntity
  8
0
100
AcDbLine
 62
253
  6
CONTINUOUS
 10
105.5370464955
 20
94.5364659611
 11
105.5370464955
 21
94.2150371853
  0
LINE
  5
5BA
100
AcDbEntity
  8
0
100
AcDbLine
 62
253
  6
CONTINUOUS
 10
105.5370464955
 20
93.5721810642
 11
105.5370464955
 21
93.0364659611
  0
LINE
  5
5BB
100
AcDbEntity
  8
DRAFT
100
AcDbLine
 62
7
  6
CONTINUOUS
 10
104.1451618715
 20
129.7305082735
 11
104.1444862176
 21
129.1407769403
  0
LINE
  5
5BC
100
AcDbEntity
  8
ASSI
100
AcDbLine
 62
253
  6
CONTINUOUS
 10
105.3133499578
 20
85.0694807426
 11
105.313353825
 21
84.6633353013
  0
LINE
  5
5BD
100
AcDbEntity
  8
ASSI
100
AcDbLine
 62
253
  6
CONTINUOUS
 10
105.1136200582
 20
133.3187822122
 11
105.1134262451
 21
132.6667276917
  0
LINE
  5
5BE
100
AcDbEntity
  8
ASSI
100
AcDbLine
 62
253
  6
CONTINUOUS
 10
105.3133678309
 20
133.156497497
 11
105.3133434425
 21
132.7522323041
  0
LINE
  5
5BF
100
AcDbEntity
  8
ASSI
100
AcDbLine
 62
253
  6
CONTINUOUS
 10
105.3133959986
 20
85.0806463899
 11
105.3133499578
 21
85.0694807426
  0
LWPOLYLINE
  5
5C0
100
AcDbEntity
  8
ASSI
100
AcDbPolyline
 62
253
  6
CONTINUOUS
 90
3
 70
0
 10
105.113810332
 20
85.2800733254
 10
105.1137245917
 20
85.2640945829
 10
105.1133739035
 20
84.6710241176
  0
LINE
  5
5C1
100
AcDbEntity
  8
ASSI
100
AcDbLine
 62
253
  6
CONTINUOUS
 10
105.1139128254
 20
133.3757460782
 11
105.1136200582
 21
133.3187822122
  0
LINE
  5
5C2
100
AcDbEntity
  8
ASSI
100
AcDbLine
 62
253
  6
CONTINUOUS
 10
105.3134397291
 20
133.1675923056
 11
105.3133678309
 21
133.156497497
  0
LINE
  5
5C3
100
AcDbEntity
  8
ASSI
100
AcDbLine
 62
253
  6
CONTINUOUS
 10
105.3134874152
 20
85.0910391425
 11
105.3133959986
 21
85.0806463899
  0
LINE
  5
5C4
100
AcDbEntity
  8
ASSI
100
AcDbLine
 62
253
  6
CONTINUOUS
 10
105.1140049756
 20
133.3849955589
 11
105.1139128254
 21
133.3757460782
  0
LINE
  5
5C5
100
AcDbEntity
  8
ASSI
100
AcDbLine
 62
253
  6
CONTINUOUS
 10
105.3135223532
 20
133.1750933929
 11
105.3134397291
 21
133.1675923056
  0
LINE
  5
5C6
100
AcDbEntity
  8
0
100
AcDbLine
 62
253
  6
CONTINUOUS
 10
105.5370464955
 20
109.429323155
 11
105.5333066944
 21
109.2150375429
  0
LINE
  5
5C7
100
AcDbEntity
  8
0
100
AcDbLine
 62
253
  6
CONTINUOUS
 10
105.7534334723
 20
121.8007519308
 11
105.7496936712
 21
121.5864663187
  0
LINE
  5
5C8
100
AcDbEntity
  8
0
100
AcDbLine
 62
253
  6
CONTINUOUS
 10
105.5370464955
 20
107.1793235126
 11
105.5333066944
 21
106.9650379005
  0
LINE
  5
5C9
100
AcDbEntity
  8
0
100
AcDbLine
 62
253
  6
CONTINUOUS
 10
105.5146076874
 20
103.9650379005
 11
105.5108678859
 21
103.7507515732
  0
LINE
  5
5CA
100
AcDbEntity
  8
ASSI
100
AcDbLine
 62
253
  6
CONTINUOUS
 10
105.313626613
 20
133.181628376
 11
105.3135223532
 21
133.1750933929
  0
LINE
  5
5CB
100
AcDbEntity
  8
ASSI
100
AcDbLine
 62
253
  6
CONTINUOUS
 10
105.3137061026
 20
133.1853341115
 11
105.313626613
 21
133.181628376
  0
LINE
  5
5CC
100
AcDbEntity
  8
0
100
AcDbLine
 62
253
  6
CONTINUOUS
 10
105.5220872901
 20
107.3936091247
 11
105.5108678859
 21
106.9650379005
  0
LINE
  5
5CD
100
AcDbEntity
  8
ASSI
100
AcDbLine
 62
7
  6
CONTINUOUS
 10
104.0273684211
 20
85.785245006
 11
104.0142009641
 21
85.3497132663
  0
LINE
  5
5CE
100
AcDbEntity
  8
ASSI
100
AcDbLine
 62
7
  6
CONTINUOUS
 10
105.8273684211
 20
127.4078947368
 11
105.817051221
 21
127.0666391607
  0
LINE
  5
5CF
100
AcDbEntity
  8
0
100
AcDbLine
 62
253
  6
CONTINUOUS
 10
105.7534334723
 20
124.9078947368
 11
105.7384742669
 21
124.4793232891
  0
LINE
  5
5D0
100
AcDbEntity
  8
0
100
AcDbLine
 62
253
  6
CONTINUOUS
 10
105.7534334723
 20
117.7650376621
 11
105.7272548627
 21
117.0150376621
  0
LINE
  5
5D1
100
AcDbEntity
  8
0
100
AcDbLine
 62
253
  6
CONTINUOUS
 10
105.5370464955
 20
111.2507519308
 11
105.5220872901
 21
110.8221805278
  0
LINE
  5
5D2
100
AcDbEntity
  8
INCISIONI
100
AcDbLine
 62
253
  6
CONTINUOUS
 10
105.79775134
 20
114.527508087
 11
105.7973957653
 21
114.5175071136
  0
LINE
  5
5D3
100
AcDbEntity
  8
INCISIONI
100
AcDbLine
 62
253
  6
CONTINUOUS
 10
105.7994940669
 20
113.9414166641
 11
105.8002079693
 21
113.9590533276
  0
LINE
  5
5D4
100
AcDbEntity
  8
INCISIONI
100
AcDbLine
 62
253
  6
CONTINUOUS
 10
105.7973957653
 20
114.5175071136
 11
105.7970324978
 21
114.5085164173
  0
LWPOLYLINE
  5
5D5
100
AcDbEntity
  8
INCISIONI
100
AcDbPolyline
 62
253
  6
CONTINUOUS
 90
13
 70
0
 10
105.8199518363
 20
114.4023074313
 10
105.8195810206
 20
114.3937449545
 10
105.819392672
 20
114.3899485467
 10
105.8192026703
 20
114.3864801321
 10
105.8190112458
 20
114.3833432907
 10
105.818818629
 20
114.3805416022
 10
105.8186250502
 20
114.3780786463
 10
105.81843074
 20
114.3759580028
 10
105.8182359287
 20
114.3741832515
 10
105.8180408467
 20
114.3727579721
 10
105.8178457246
 20
114.3716857444
 10
105.8176507926
 20
114.3709701481
 10
105.8174562813
 20
114.370614763
  0
LINE
  5
5D6
100
AcDbEntity
  8
INCISIONI
100
AcDbLine
 62
253
  6
CONTINUOUS
 10
105.7815052317
 20
119.9479997368
 11
105.8145449168
 21
120.6580567368
  0
LINE
  5
5D7
100
AcDbEntity
  8
INCISIONI
100
AcDbLine
 62
253
  6
CONTINUOUS
 10
105.7987686514
 20
113.9254157242
 11
105.7994940669
 21
113.9414166641
  0
LINE
  5
5D8
100
AcDbEntity
  8
INCISIONI
100
AcDbLine
 62
253
  6
CONTINUOUS
 10
105.8321034469
 20
120.5011287368
 11
105.8040111668
 21
119.9022497368
  0
LINE
  5
5D9
100
AcDbEntity
  8
INCISIONI
100
AcDbLine
 62
253
  6
CONTINUOUS
 10
105.7970324978
 20
114.5085164173
 11
105.7961645687
 21
114.4900443998
  0
LINE
  5
5DA
100
AcDbEntity
  8
INCISIONI
100
AcDbLine
 62
253
  6
CONTINUOUS
 10
105.7980339307
 20
113.9109119662
 11
105.7987686514
 21
113.9254157242
  0
LINE
  5
5DB
100
AcDbEntity
  8
INCISIONI
100
AcDbLine
 62
253
  6
CONTINUOUS
 10
105.7961645687
 20
114.4900443998
 11
105.7940937777
 21
114.4502198155
  0
LINE
  5
5DC
100
AcDbEntity
  8
INCISIONI
100
AcDbLine
 62
253
  6
CONTINUOUS
 10
105.7815052317
 20
123.9889077368
 11
105.8321034469
 21
124.9081547368
  0
LINE
  5
5DD
100
AcDbEntity
  8
INCISIONI
100
AcDbLine
 62
253
  6
CONTINUOUS
 10
105.8321034469
 20
116.8368847368
 11
105.7815052317
 21
115.9471987368
  0
LINE
  5
5DE
100
AcDbEntity
  8
INCISIONI
100
AcDbLine
 62
253
  6
CONTINUOUS
 10
105.7972292827
 20
113.8966549076
 11
105.7980339307
 21
113.9109119662
  0
LINE
  5
5DF
100
AcDbEntity
  8
INCISIONI
100
AcDbLine
 62
253
  6
CONTINUOUS
 10
105.7940937777
 20
114.4502198155
 11
105.7913020507
 21
114.4022585763
  0
LINE
  5
5E0
100
AcDbEntity
  8
0
100
AcDbLine
 62
253
  6
CONTINUOUS
 10
105.7534334723
 20
123.1936089459
 11
105.7272548627
 21
122.7650375429
  0
LINE
  5
5E1
100
AcDbEntity
  8
INCISIONI
100
AcDbLine
 62
253
  6
CONTINUOUS
 10
105.7913020507
 20
114.4022585763
 11
105.7815052256
 21
114.2397364752
  0
LINE
  5
5E2
100
AcDbEntity
  8
0
100
AcDbLine
 62
253
  6
CONTINUOUS
 10
105.7534334723
 20
112.7293239895
 11
105.7272548627
 21
112.3007513347
  0
LINE
  5
5E3
100
AcDbEntity
  8
INCISIONI
100
AcDbLine
 62
253
  6
CONTINUOUS
 10
105.8321034469
 20
124.2506427368
 11
105.7972751277
 21
123.6979157368
  0
LINE
  5
5E4
100
AcDbEntity
  8
INCISIONI
100
AcDbLine
 62
253
  6
CONTINUOUS
 10
105.7815052317
 20
116.5851297368
 11
105.7916064374
 21
116.7419277368
  0
LWPOLYLINE
  5
5E5
100
AcDbEntity
  8
INCISIONI
100
AcDbPolyline
 62
253
  6
CONTINUOUS
 90
3
 70
0
 10
105.7815052256
 20
113.6575357517
 10
105.7883529879
 20
113.7609173607
 10
105.7972292827
 20
113.8966549076
  0
LINE
  5
5E6
100
AcDbEntity
  8
INCISIONI
100
AcDbLine
 62
253
  6
CONTINUOUS
 10
105.7994227031
 20
116.8628907368
 11
105.8182003424
 21
117.1410207368
  0
LINE
  5
5E7
100
AcDbEntity
  8
INCISIONI
100
AcDbLine
 62
253
  6
CONTINUOUS
 10
105.8321034469
 20
118.6981217368
 11
105.7815052317
 21
118.4269717368
  0
LWPOLYLINE
  5
5E8
100
AcDbEntity
  8
ASSI
100
AcDbPolyline
 62
7
  6
CONTINUOUS
 90
10
 70
0
 10
86.1807453913
 20
85.2800635205
 10
86.1624527088
 20
85.2607506537
 10
86.1415110489
 20
85.2400278666
 10
86.1185770301
 20
85.2178951593
 10
86.094438856
 20
85.1940537694
 10
86.0695111465
 20
85.1688024593
 10
86.0437193864
 20
85.1430375156
 10
86.0172479752
 20
85.1170577005
 10
85.9906427449
 20
85.0905642518
 10
85.9642390403
 20
85.0635571695
  0
LINE
  5
5E9
100
AcDbEntity
  8
ASSI
100
AcDbLine
 62
7
  6
CONTINUOUS
 10
85.4273684211
 20
86.5078947368
 11
85.440535878
 21
86.5210621938
  0
LINE
  5
5EA
100
AcDbEntity
  8
ASSI
100
AcDbLine
 62
7
  6
CONTINUOUS
 10
88.2273684211
 20
89.2078947368
 11
88.1400997431
 21
89.1206260589
  0
LINE
  5
5EB
100
AcDbEntity
  8
ASSI
100
AcDbLine
 62
253
  6
CONTINUOUS
 10
84.1273684211
 20
84.6078642759
 11
84.140535878
 21
84.6210317328
  0
LINE
  5
5EC
100
AcDbEntity
  8
ASSI
100
AcDbLine
 62
253
  6
CONTINUOUS
 10
84.3273379601
 20
84.4078947368
 11
84.340505417
 21
84.4210621938
  0
LINE
  5
5ED
100
AcDbEntity
  8
0
100
AcDbLine
 62
253
  6
CONTINUOUS
 10
105.7272548627
 20
117.7650376621
 11
105.7534334723
 21
117.7650376621
  0
LINE
  5
5EE
100
AcDbEntity
  8
0
100
AcDbLine
 62
253
  6
CONTINUOUS
 10
105.7272548627
 20
118.4436093632
 11
105.7534334723
 21
118.4436093632
  0
LINE
  5
5EF
100
AcDbEntity
  8
ASSI
100
AcDbLine
 62
7
  6
CONTINUOUS
 10
85.4273684211
 20
131.3078947368
 11
85.440535878
 21
131.2947272799
  0
LINE
  5
5F0
100
AcDbEntity
  8
ASSI
100
AcDbLine
 62
7
  6
CONTINUOUS
 10
88.2273684211
 20
128.6078947368
 11
88.1400997431
 21
128.6951634148
  0
LINE
  5
5F1
100
AcDbEntity
  8
SMUSSO
100
AcDbLine
 62
7
  6
CONTINUOUS
 10
94.7273684211
 20
122.2578947368
 11
95.3047186902
 21
121.6805444677
  0
LINE
  5
5F2
100
AcDbEntity
  8
0
100
AcDbLine
 62
7
  6
CONTINUOUS
 10
94.7273684211
 20
122.2578947368
 11
95.3047186902
 21
121.6805444677
  0
LINE
  5
5F3
100
AcDbEntity
  8
ASSI
100
AcDbLine
 62
253
  6
CONTINUOUS
 10
84.140535878
 20
133.1947577409
 11
84.1273684211
 21
133.2079251978
  0
LINE
  5
5F4
100
AcDbEntity
  8
ASSI
100
AcDbLine
 62
253
  6
CONTINUOUS
 10
84.340505417
 20
133.3947272799
 11
84.3273379601
 21
133.4078947368
  0
LWPOLYLINE
  5
5F5
100
AcDbEntity
  8
ASSI
100
AcDbPolyline
 62
253
  6
CONTINUOUS
 90
13
 70
0
 10
105.3142009641
 20
133.1947577409
 10
105.3124829163
 20
133.2208539317
 10
105.3073740527
 20
133.2465037905
 10
105.2989617508
 20
133.2712686115
 10
105.2873898892
 20
133.2947248253
 10
105.2728563861
 20
133.3164712451
 10
105.2556098133
 20
133.3361359282
 10
105.2359451461
 20
133.3533825356
 10
105.2141987209
 20
133.367916083
 10
105.190742482
 20
133.3794879894
 10
105.1659776174
 20
133.3879003302
 10
105.1403276957
 20
133.3930092215
 10
105.1142314251
 20
133.3947272799
  0
LINE
  5
5F6
100
AcDbEntity
  8
INCISIONI
100
AcDbLine
 62
253
  6
CONTINUOUS
 10
105.8182003424
 20
117.1410207368
 11
105.7994227031
 21
117.4423947368
  0
LINE
  5
5F7
100
AcDbEntity
  8
INCISIONI
100
AcDbLine
 62
253
  6
CONTINUOUS
 10
105.7972751277
 20
123.6979157368
 11
105.8321034469
 21
123.1283047368
  0
LINE
  5
5F8
100
AcDbEntity
  8
0
100
AcDbLine
 62
253
  6
CONTINUOUS
 10
105.7272548627
 20
113.1578944984
 11
105.7534334723
 21
112.7293239895
  0
LINE
  5
5F9
100
AcDbEntity
  8
0
100
AcDbLine
 62
253
  6
CONTINUOUS
 10
105.7272548627
 20
123.6221804384
 11
105.7534334723
 21
123.1936089459
  0
LINE
  5
5FA
100
AcDbEntity
  8
INCISIONI
100
AcDbLine
 62
253
  6
CONTINUOUS
 10
105.7916064374
 20
117.5662067368
 11
105.7815052317
 21
117.7332237368
  0
LINE
  5
5FB
100
AcDbEntity
  8
INCISIONI
100
AcDbLine
 62
253
  6
CONTINUOUS
 10
105.7815052317
 20
118.3319277368
 11
105.8321034469
 21
117.4224117368
  0
LINE
  5
5FC
100
AcDbEntity
  8
INCISIONI
100
AcDbLine
 62
253
  6
CONTINUOUS
 10
105.8321034469
 20
122.5234467368
 11
105.7815052317
 21
123.4555117368
  0
LWPOLYLINE
  5
5FD
100
AcDbEntity
  8
INCISIONI
100
AcDbPolyline
 62
253
  6
CONTINUOUS
 90
25
 70
0
 10
105.8122475012
 20
113.8626057689
 10
105.812713372
 20
113.8525957444
 10
105.8131817713
 20
113.8435712804
 10
105.8136552299
 20
113.8354650613
 10
105.8141332082
 20
113.8282782001
 10
105.8146151661
 20
113.8220118099
 10
105.8151679219
 20
113.8159963992
 10
105.8157243966
 20
113.811151195
 10
105.8162838524
 20
113.8074523802
 10
105.8168455514
 20
113.8048761379
 10
105.8174087558
 20
113.803398651
 10
105.8179727278
 20
113.8029961026
 10
105.8185367294
 20
113.8036446757
 10
105.8190297242
 20
113.8050622493
 10
105.8195216758
 20
113.8072887369
 10
105.8200120833
 20
113.8103463626
 10
105.8205004458
 20
113.8142573503
 10
105.8209862625
 20
113.8190439237
 10
105.8214690322
 20
113.8247283069
 10
105.8219482543
 20
113.8313327238
 10
105.8224234278
 20
113.8388793982
 10
105.8228943884
 20
113.8473923776
 10
105.8233600516
 20
113.8568611823
 10
105.8238196766
 20
113.8672756045
 10
105.8247178494
 20
113.8909004706
  0
LINE
  5
5FE
100
AcDbEntity
  8
INCISIONI
100
AcDbLine
 62
253
  6
CONTINUOUS
 10
105.8040111668
 20
119.9022497368
 11
105.8321034469
 21
119.2969787368
  0
LINE
  5
5FF
100
AcDbEntity
  8
INCISIONI
100
AcDbLine
 62
253
  6
CONTINUOUS
 10
105.8144071859
 20
119.1434427368
 11
105.7815052317
 21
119.8631107368
  0
LINE
  5
600
100
AcDbEntity
  8
ASSI
100
AcDbLine
 62
7
  6
CONTINUOUS
 10
105.8273684211
 20
127.4078947368
 11
105.8500190722
 21
126.908490524
  0
LINE
  5
601
100
AcDbEntity
  8
ASSI
100
AcDbLine
 62
7
  6
CONTINUOUS
 10
105.8773684211
 20
126.3054888741
 11
105.8797402642
 21
126.2531941985
  0
LINE
  5
602
100
AcDbEntity
  8
INCISIONI
100
AcDbLine
 62
253
  6
CONTINUOUS
 10
105.8140761057
 20
114.3994440621
 11
105.8136776858
 21
114.4088456144
  0
LINE
  5
603
100
AcDbEntity
  8
INCISIONI
100
AcDbLine
 62
253
  6
CONTINUOUS
 10
105.8113353776
 20
113.8853757646
 11
105.8122475012
 21
113.8626057689
  0
LINE
  5
604
100
AcDbEntity
  8
0
100
AcDbLine
 62
253
  6
CONTINUOUS
 10
105.7384742669
 20
124.4793232891
 11
105.7534334723
 21
124.0507518414
  0
LINE
  5
605
100
AcDbEntity
  8
INCISIONI
100
AcDbLine
 62
253
  6
CONTINUOUS
 10
105.8136776858
 20
114.4088456144
 11
105.8132898574
 21
114.4196886232
  0
LINE
  5
606
100
AcDbEntity
  8
INCISIONI
100
AcDbLine
 62
253
  6
CONTINUOUS
 10
105.8104564984
 20
113.9116653941
 11
105.8113353776
 21
113.8853757646
  0
LINE
  5
607
100
AcDbEntity
  8
ASSI
100
AcDbLine
 62
253
  6
CONTINUOUS
 10
105.1138090025
 20
132.5357682136
 11
105.1290834619
 21
132.0305444677
  0
LINE
  5
608
100
AcDbEntity
  8
INCISIONI
100
AcDbLine
 62
253
  6
CONTINUOUS
 10
105.8132898574
 20
114.4196886232
 11
105.8129149224
 21
114.4319357916
  0
LINE
  5
609
100
AcDbEntity
  8
INCISIONI
100
AcDbLine
 62
253
  6
CONTINUOUS
 10
105.8096164526
 20
113.9415120891
 11
105.8104564984
 21
113.9116653941
  0
LINE
  5
60A
100
AcDbEntity
  8
0
100
AcDbLine
 62
253
  6
CONTINUOUS
 10
105.7422140689
 20
110.4793239895
 11
105.7534334723
 21
110.0507513347
  0
LINE
  5
60B
100
AcDbEntity
  8
ASSI
100
AcDbLine
 62
253
  6
CONTINUOUS
 10
105.3136935326
 20
132.7122160877
 11
105.3273684211
 21
132.259469345
  0
LINE
  5
60C
100
AcDbEntity
  8
INCISIONI
100
AcDbLine
 62
253
  6
CONTINUOUS
 10
105.8129149224
 20
114.4319357916
 11
105.8123817301
 21
114.4528577568
  0
LINE
  5
60D
100
AcDbEntity
  8
INCISIONI
100
AcDbLine
 62
253
  6
CONTINUOUS
 10
105.8084489143
 20
113.9928640086
 11
105.8096164526
 21
113.9415120891
  0
LINE
  5
60E
100
AcDbEntity
  8
0
100
AcDbLine
 62
253
  6
CONTINUOUS
 10
105.8267068156
 20
100.4091697368
 11
105.7812384425
 21
102.6550847368
  0
LINE
  5
60F
100
AcDbEntity
  8
0
100
AcDbLine
 62
253
  6
CONTINUOUS
 10
105.8319882786
 20
100.4144897368
 11
105.7812384425
 21
102.9213087368
  0
LINE
  5
610
100
AcDbEntity
  8
INCISIONI
100
AcDbLine
 62
253
  6
CONTINUOUS
 10
105.8123817301
 20
114.4528577568
 11
105.8117374174
 21
114.4853201661
  0
LINE
  5
611
100
AcDbEntity
  8
0
100
AcDbLine
 62
253
  6
CONTINUOUS
 10
105.7309946642
 20
121.5864663187
 11
105.7272548627
 21
121.8007519308
  0
LINE
  5
612
100
AcDbEntity
  8
INCISIONI
100
AcDbLine
 62
253
  6
CONTINUOUS
 10
105.806738274
 20
114.0933651758
 11
105.8084489143
 21
113.9928640086
  0
LINE
  5
613
100
AcDbEntity
  8
0
100
AcDbLine
 62
253
  6
CONTINUOUS
 10
105.8113316372
 20
98.0892649699
 11
105.8102053479
 21
98.1585711159
  0
LINE
  5
614
100
AcDbEntity
  8
0
100
AcDbLine
 62
253
  6
CONTINUOUS
 10
105.8073775394
 20
98.0359062293
 11
105.8088702213
 21
97.9413480322
  0
LWPOLYLINE
  5
615
100
AcDbEntity
  8
ASSI
100
AcDbPolyline
 62
253
  6
CONTINUOUS
 90
3
 70
0
 10
105.313487602
 20
132.7247330504
 10
105.3135477669
 20
132.720083232
 10
105.3136935326
 20
132.7122160877
  0
LINE
  5
616
100
AcDbEntity
  8
INCISIONI
100
AcDbLine
 62
253
  6
CONTINUOUS
 10
105.8117374174
 20
114.4853201661
 11
105.8110597292
 21
114.5328008996
  0
LINE
  5
617
100
AcDbEntity
  8
INCISIONI
100
AcDbLine
 62
253
  6
CONTINUOUS
 10
105.8057341069
 20
114.1658185452
 11
105.806738274
 21
114.0933651758
  0
LWPOLYLINE
  5
618
100
AcDbEntity
  8
RACCORDO
100
AcDbPolyline
 62
253
  6
CONTINUOUS
 90
37
 70
0
 10
105.4860703339
 20
126.4175104636
 10
105.4855918112
 20
126.4611346237
 10
105.4841618816
 20
126.5047376008
 10
105.4817812509
 20
126.5482986492
 10
105.4784510891
 20
126.5917969127
 10
105.474172999
 20
126.6352118289
 10
105.4689489864
 20
126.6785231355
 10
105.4627815114
 20
126.7217103811
 10
105.4556735249
 20
126.7647528611
 10
105.4476284202
 20
126.8076300201
 10
105.4386500364
 20
126.8503214225
 10
105.428742643
 20
126.8928067929
 10
105.4179109472
 20
126.9350659491
 10
105.4061601039
 20
126.9770787848
 10
105.3934957053
 20
127.0188253112
 10
105.3799237668
 20
127.060285697
 10
105.3654507388
 20
127.1014402314
 10
105.3500835117
 20
127.1422693169
 10
105.333829403
 20
127.1827535096
 10
105.3166961459
 20
127.2228735476
 10
105.2986918925
 20
127.2626103421
 10
105.2798252177
 20
127.3019449695
 10
105.2601051068
 20
127.3408587
 10
105.2395409361
 20
127.3793330349
 10
105.2181424756
 20
127.4173496972
 10
105.1959199053
 20
127.454890598
 10
105.1728837971
 20
127.4919378754
 10
105.1490450932
 20
127.5284739308
 10
105.124415111
 20
127.5644814088
 10
105.0990055863
 20
127.5999431442
 10
105.0728286548
 20
127.6348422021
 10
105.0458968831
 20
127.6691618399
 10
105.0182229807
 20
127.7028858731
 10
104.9898198173
 20
127.7359986008
 10
104.9607007833
 20
127.7684843621
 10
104.9308798086
 20
127.8003275639
 10
104.9003710611
 20
127.8315130351
  0
LWPOLYLINE
  5
619
100
AcDbEntity
  8
0
100
AcDbPolyline
 62
253
  6
CONTINUOUS
 90
37
 70
0
 10
105.4860703339
 20
126.4175104636
 10
105.4855918112
 20
126.4611346237
 10
105.4841618816
 20
126.5047376008
 10
105.4817812509
 20
126.5482986492
 10
105.4784510891
 20
126.5917969127
 10
105.474172999
 20
126.6352118289
 10
105.4689489864
 20
126.6785231355
 10
105.4627815114
 20
126.7217103811
 10
105.4556735249
 20
126.7647528611
 10
105.4476284202
 20
126.8076300201
 10
105.4386500364
 20
126.8503214225
 10
105.428742643
 20
126.8928067929
 10
105.4179109472
 20
126.9350659491
 10
105.4061601039
 20
126.9770787848
 10
105.3934957053
 20
127.0188253112
 10
105.3799237668
 20
127.060285697
 10
105.3654507388
 20
127.1014402314
 10
105.3500835117
 20
127.1422693169
 10
105.333829403
 20
127.1827535096
 10
105.3166961459
 20
127.2228735476
 10
105.2986918925
 20
127.2626103421
 10
105.2798252177
 20
127.3019449695
 10
105.2601051068
 20
127.3408587
 10
105.2395409361
 20
127.3793330349
 10
105.2181424756
 20
127.4173496972
 10
105.1959199053
 20
127.454890598
 10
105.1728837971
 20
127.4919378754
 10
105.1490450932
 20
127.5284739308
 10
105.124415111
 20
127.5644814088
 10
105.0990055863
 20
127.5999431442
 10
105.0728286548
 20
127.6348422021
 10
105.0458968831
 20
127.6691618399
 10
105.0182229807
 20
127.7028858731
 10
104.9898198173
 20
127.7359986008
 10
104.9607007833
 20
127.7684843621
 10
104.9308798086
 20
127.8003275639
 10
104.9003710611
 20
127.8315130351
  0
LINE
  5
61A
100
AcDbEntity
  8
0
100
AcDbLine
 62
253
  6
CONTINUOUS
 10
105.8102053479
 20
98.1585711159
 11
105.8092779691
 21
98.2369447209
  0
LINE
  5
61B
100
AcDbEntity
  8
0
100
AcDbLine
 62
253
  6
CONTINUOUS
 10
105.8056256801
 20
98.2008754144
 11
105.8073775394
 21
98.0359062293
  0
LINE
  5
61C
100
AcDbEntity
  8
INCISIONI
100
AcDbLine
 62
253
  6
CONTINUOUS
 10
105.8110597292
 20
114.5328008996
 11
105.810351244
 21
114.6089382734
  0
LINE
  5
61D
100
AcDbEntity
  8
0
100
AcDbLine
 62
253
  6
CONTINUOUS
 10
105.8092779691
 20
98.2369447209
 11
105.8083993285
 21
98.3444043844
  0
LINE
  5
61E
100
AcDbEntity
  8
INCISIONI
100
AcDbLine
 62
253
  6
CONTINUOUS
 10
105.8055039278
 20
114.1935410607
 11
105.8057341069
 21
114.1658185452
  0
LINE
  5
61F
100
AcDbEntity
  8
0
100
AcDbLine
 62
253
  6
CONTINUOUS
 10
105.6850250457
 20
98.1606951052
 11
105.6832079663
 21
98.4346103673
  0
LINE
  5
620
100
AcDbEntity
  8
0
100
AcDbLine
 62
253
  6
CONTINUOUS
 10
105.6719725308
 20
98.0295489149
 11
105.6727957203
 21
97.8870871536
  0
LINE
  5
621
100
AcDbEntity
  8
0
100
AcDbLine
 62
253
  6
CONTINUOUS
 10
105.8083993285
 20
98.3444043844
 11
105.8077675244
 21
98.4685477794
  0
LINE
  5
622
100
AcDbEntity
  8
0
100
AcDbLine
 62
253
  6
CONTINUOUS
 10
105.6727957203
 20
97.8870871536
 11
105.6734090971
 21
97.7411279129
  0
LINE
  5
623
100
AcDbEntity
  8
INCISIONI
100
AcDbLine
 62
253
  6
CONTINUOUS
 10
105.810351244
 20
114.6089382734
 11
105.8098588995
 21
114.7011581967
  0
LINE
  5
624
100
AcDbEntity
  8
0
100
AcDbLine
 62
253
  6
CONTINUOUS
 10
105.6862821183
 20
93.4914284459
 11
105.6850250617
 21
93.7755825884
  0
LINE
  5
625
100
AcDbEntity
  8
0
100
AcDbLine
 62
253
  6
CONTINUOUS
 10
105.6862821071
 20
97.8765411567
 11
105.6850250457
 21
98.1606951052
  0
LINE
  5
626
100
AcDbEntity
  8
0
100
AcDbLine
 62
253
  6
CONTINUOUS
 10
105.8042321308
 20
98.4454500923
 11
105.8056256801
 21
98.2008754144
  0
LINE
  5
627
100
AcDbEntity
  8
0
100
AcDbLine
 62
253
  6
CONTINUOUS
 10
105.6729529139
 20
93.4692784118
 11
105.6735763544
 21
93.3030012757
  0
LINE
  5
628
100
AcDbEntity
  8
INCISIONI
100
AcDbLine
 62
253
  6
CONTINUOUS
 10
105.8054230171
 20
114.2133390269
 11
105.8055039278
 21
114.1935410607
  0
LINE
  5
629
100
AcDbEntity
  8
0
100
AcDbLine
 62
253
  6
CONTINUOUS
 10
105.8040572255
 20
98.508042805
 11
105.8042321308
 21
98.4454500923
  0
LINE
  5
62A
100
AcDbEntity
  8
0
100
AcDbLine
 62
253
  6
CONTINUOUS
 10
105.6734090971
 20
97.7411279129
 11
105.6738076539
 21
97.5926628908
  0
LINE
  5
62B
100
AcDbEntity
  8
0
100
AcDbLine
 62
253
  6
CONTINUOUS
 10
105.8077675244
 20
98.4685477794
 11
105.8074671799
 21
98.5829974238
  0
LINE
  5
62C
100
AcDbEntity
  8
0
100
AcDbLine
 62
253
  6
CONTINUOUS
 10
105.686961258
 20
93.2007306216
 11
105.6862821183
 21
93.4914284459
  0
LINE
  5
62D
100
AcDbEntity
  8
0
100
AcDbLine
 62
253
  6
CONTINUOUS
 10
105.6869612522
 20
97.5858434953
 11
105.6862821071
 21
97.8765411567
  0
LINE
  5
62E
100
AcDbEntity
  8
0
100
AcDbLine
 62
253
  6
CONTINUOUS
 10
105.6735763544
 20
93.3030012757
 11
105.6739236675
 21
93.1340974124
  0
LINE
  5
62F
100
AcDbEntity
  8
INCISIONI
100
AcDbLine
 62
253
  6
CONTINUOUS
 10
105.8234835375
 20
115.1866960087
 11
105.8238999327
 21
114.9935604898
  0
LINE
  5
630
100
AcDbEntity
  8
INCISIONI
100
AcDbLine
 62
253
  6
CONTINUOUS
 10
105.8098588995
 20
114.7011581967
 11
105.8096145152
 21
114.8095966373
  0
LINE
  5
631
100
AcDbEntity
  8
0
100
AcDbLine
 62
253
  6
CONTINUOUS
 10
105.6738076539
 20
97.5926628908
 11
105.6739895206
 21
97.4428773011
  0
LINE
  5
632
100
AcDbEntity
  8
0
100
AcDbLine
 62
253
  6
CONTINUOUS
 10
105.6360489192
 20
93.3078947368
 11
105.6360489192
 21
94.7683947368
  0
LINE
  5
633
100
AcDbEntity
  8
0
100
AcDbLine
 62
253
  6
CONTINUOUS
 10
105.6491362305
 20
94.7683947368
 11
105.6491362305
 21
93.3078947368
  0
LINE
  5
634
100
AcDbEntity
  8
0
100
AcDbLine
 62
253
  6
CONTINUOUS
 10
105.7272548627
 20
120.9793232742
 11
105.7272548627
 21
120.3364660803
  0
LINE
  5
635
100
AcDbEntity
  8
0
100
AcDbLine
 62
253
  6
CONTINUOUS
 10
105.7272548627
 20
111.8721801105
 11
105.7272548627
 21
111.3364664379
  0
LINE
  5
636
100
AcDbEntity
  8
INCISIONI
100
AcDbLine
 62
253
  6
CONTINUOUS
 10
105.7272548627
 20
95.2150368515
 11
105.7272548627
 21
94.5364652935
  0
LINE
  5
637
100
AcDbEntity
  8
INCISIONI
100
AcDbLine
 62
253
  6
CONTINUOUS
 10
105.7272548627
 20
92.9078937355
 11
105.7272548627
 21
93.8578937355
  0
LINE
  5
638
100
AcDbEntity
  8
0
100
AcDbLine
 62
253
  6
CONTINUOUS
 10
105.7272548627
 20
121.8007519308
 11
105.7272548627
 21
122.3364661399
  0
LINE
  5
639
100
AcDbEntity
  8
INCISIONI
100
AcDbLine
 62
253
  6
CONTINUOUS
 10
105.7343604854
 20
95.757893962
 11
105.7343604854
 21
96.707893962
  0
LINE
  5
63A
100
AcDbEntity
  8
0
100
AcDbLine
 62
253
  6
CONTINUOUS
 10
105.7347344658
 20
123.479323304
 11
105.7347344658
 21
122.9078946772
  0
LINE
  5
63B
100
AcDbEntity
  8
0
100
AcDbLine
 62
253
  6
CONTINUOUS
 10
105.7347344658
 20
113.0150379005
 11
105.7347344658
 21
112.4436093632
  0
LINE
  5
63C
100
AcDbEntity
  8
INCISIONI
100
AcDbLine
 62
253
  6
CONTINUOUS
 10
105.7414661081
 20
97.929322404
 11
105.7414661081
 21
97.3412271443
  0
LINE
  5
63D
100
AcDbEntity
  8
0
100
AcDbLine
 62
253
  6
CONTINUOUS
 10
105.7422140689
 20
120.55075205
 11
105.7422140689
 21
120.9793232742
  0
LINE
  5
63E
100
AcDbEntity
  8
INCISIONI
100
AcDbLine
 62
253
  6
CONTINUOUS
 10
105.7462031905
 20
94.6721795145
 11
105.7462031905
 21
94.9436079565
  0
LINE
  5
63F
100
AcDbEntity
  8
0
100
AcDbLine
 62
253
  6
CONTINUOUS
 10
105.7534334723
 20
122.3364661399
 11
105.7534334723
 21
121.8007519308
  0
LINE
  5
640
100
AcDbEntity
  8
0
100
AcDbLine
 62
253
  6
CONTINUOUS
 10
105.7534334723
 20
120.9793232742
 11
105.7534334723
 21
120.3364660803
  0
LINE
  5
641
100
AcDbEntity
  8
0
100
AcDbLine
 62
253
  6
CONTINUOUS
 10
105.7534334723
 20
114.4436088863
 11
105.7534334723
 21
113.5864664379
  0
LINE
  5
642
100
AcDbEntity
  8
INCISIONI
100
AcDbLine
 62
253
  6
CONTINUOUS
 10
105.7604144349
 20
93.1793226305
 11
105.7604144349
 21
93.5864652935
  0
LINE
  5
643
100
AcDbEntity
  8
INCISIONI
100
AcDbLine
 62
253
  6
CONTINUOUS
 10
105.7604144349
 20
94.6721795145
 11
105.7604144349
 21
95.2150368515
  0
LINE
  5
644
100
AcDbEntity
  8
INCISIONI
100
AcDbLine
 62
253
  6
CONTINUOUS
 10
105.7604144349
 20
97.5221796277
 11
105.7604144349
 21
97.929322404
  0
LINE
  5
645
100
AcDbEntity
  8
0
100
AcDbLine
 62
253
  6
CONTINUOUS
 10
105.7812384425
 20
102.9213087368
 11
105.7812384425
 21
102.6550847368
  0
LINE
  5
646
100
AcDbEntity
  8
0
100
AcDbLine
 62
253
  6
CONTINUOUS
 10
105.7812384425
 20
100.4091697368
 11
105.7812384425
 21
100.2075327368
  0
LINE
  5
647
100
AcDbEntity
  8
0
100
AcDbLine
 62
253
  6
CONTINUOUS
 10
105.7812384499
 20
98.0495702222
 11
105.7812384499
 21
97.8218475099
  0
LINE
  5
648
100
AcDbEntity
  8
0
100
AcDbLine
 62
253
  6
CONTINUOUS
 10
105.7812384425
 20
97.2971797368
 11
105.7812384425
 21
97.0955427368
  0
LINE
  5
649
100
AcDbEntity
  8
0
100
AcDbLine
 62
253
  6
CONTINUOUS
 10
105.7812384425
 20
95.5386847368
 11
105.7812384425
 21
95.2535637368
  0
LINE
  5
64A
100
AcDbEntity
  8
0
100
AcDbLine
 62
253
  6
CONTINUOUS
 10
105.7813655639
 20
94.8284137368
 11
105.7813655639
 21
92.9078947368
  0
LINE
  5
64B
100
AcDbEntity
  8
INCISIONI
100
AcDbLine
 62
253
  6
CONTINUOUS
 10
105.7815052317
 20
122.2988297368
 11
105.7815052317
 21
121.6935587368
  0
LINE
  5
64C
100
AcDbEntity
  8
INCISIONI
100
AcDbLine
 62
253
  6
CONTINUOUS
 10
105.7815052256
 20
115.7694620812
 11
105.7815052256
 21
115.1666261201
  0
LINE
  5
64D
100
AcDbEntity
  8
INCISIONI
100
AcDbLine
 62
253
  6
CONTINUOUS
 10
105.7815052256
 20
114.2397364752
 11
105.7815052256
 21
113.6575357517
  0
LINE
  5
64E
100
AcDbEntity
  8
INCISIONI
100
AcDbLine
 62
253
  6
CONTINUOUS
 10
105.7815052317
 20
115.9471987368
 11
105.7815052317
 21
116.5851297368
  0
LINE
  5
64F
100
AcDbEntity
  8
INCISIONI
100
AcDbLine
 62
253
  6
CONTINUOUS
 10
105.7815052317
 20
117.7332237368
 11
105.7815052317
 21
118.3319277368
  0
LINE
  5
650
100
AcDbEntity
  8
INCISIONI
100
AcDbLine
 62
253
  6
CONTINUOUS
 10
105.7815052317
 20
118.4269717368
 11
105.7815052317
 21
119.0190877368
  0
LINE
  5
651
100
AcDbEntity
  8
INCISIONI
100
AcDbLine
 62
253
  6
CONTINUOUS
 10
105.7815052317
 20
119.8631107368
 11
105.7815052317
 21
119.9479997368
  0
LINE
  5
652
100
AcDbEntity
  8
INCISIONI
100
AcDbLine
 62
253
  6
CONTINUOUS
 10
105.7815052317
 20
120.7886737368
 11
105.7815052317
 21
121.3677217368
  0
LINE
  5
653
100
AcDbEntity
  8
INCISIONI
100
AcDbLine
 62
253
  6
CONTINUOUS
 10
105.7815052317
 20
123.4555117368
 11
105.7815052317
 21
123.9889077368
  0
LINE
  5
654
100
AcDbEntity
  8
0
100
AcDbLine
 62
253
  6
CONTINUOUS
 10
105.7848840789
 20
92.9078947368
 11
105.7848840789
 21
94.6267767368
  0
LINE
  5
655
100
AcDbEntity
  8
INCISIONI
100
AcDbLine
 62
253
  6
CONTINUOUS
 10
105.7916064374
 20
116.7419277368
 11
105.7916064374
 21
117.5662067368
  0
LINE
  5
656
100
AcDbEntity
  8
ASSI
100
AcDbLine
 62
7
  6
CONTINUOUS
 10
105.7924582912
 20
127.4681196771
 11
105.7924582912
 21
127.1557289817
  0
LINE
  5
657
100
AcDbEntity
  8
ASSI
100
AcDbLine
 62
7
  6
CONTINUOUS
 10
105.7924582912
 20
90.660060492
 11
105.7924582912
 21
90.3476697965
  0
LINE
  5
658
100
AcDbEntity
  8
INCISIONI
100
AcDbLine
 62
253
  6
CONTINUOUS
 10
105.7994227031
 20
117.4423947368
 11
105.7994227031
 21
116.8628907368
  0
LINE
  5
659
100
AcDbEntity
  8
0
100
AcDbLine
 62
253
  6
CONTINUOUS
 10
105.8042850232
 20
101.1301057368
 11
105.8042850232
 21
100.4091697368
  0
LINE
  5
65A
100
AcDbEntity
  8
0
100
AcDbLine
 62
253
  6
CONTINUOUS
 10
105.8043031884
 20
93.9878807368
 11
105.8043031884
 21
92.9875937368
  0
LINE
  5
65B
100
AcDbEntity
  8
0
100
AcDbLine
 62
253
  6
CONTINUOUS
 10
105.8074671799
 20
98.5829974238
 11
105.8074007658
 21
98.8363002821
  0
LINE
  5
65C
100
AcDbEntity
  8
0
100
AcDbLine
 62
253
  6
CONTINUOUS
 10
105.8078018978
 20
92.9875937368
 11
105.8078018978
 21
93.9878807368
  0
LINE
  5
65D
100
AcDbEntity
  8
0
100
AcDbLine
 62
253
  6
CONTINUOUS
 10
105.8078035381
 20
101.1301057368
 11
105.8078035381
 21
100.4091697368
  0
LINE
  5
65E
100
AcDbEntity
  8
INCISIONI
100
AcDbLine
 62
253
  6
CONTINUOUS
 10
105.8096145152
 20
114.8095966373
 11
105.8095933396
 21
115.1866960087
  0
LINE
  5
65F
100
AcDbEntity
  8
ASSI
100
AcDbLine
 62
7
  6
CONTINUOUS
 10
105.8099133561
 20
130.7905158243
 11
105.8099133561
 21
127.4753498018
  0
LINE
  5
660
100
AcDbEntity
  8
ASSI
100
AcDbLine
 62
7
  6
CONTINUOUS
 10
105.8099133561
 20
90.3404396719
 11
105.8099133561
 21
87.0252736494
  0
LINE
  5
661
100
AcDbEntity
  8
ASSI
100
AcDbLine
 62
7
  6
CONTINUOUS
 10
105.8273684211
 20
130.8079708893
 11
105.8273684211
 21
127.4078947368
  0
LINE
  5
662
100
AcDbEntity
  8
ASSI
100
AcDbLine
 62
7
  6
CONTINUOUS
 10
105.8273684211
 20
87.0078185844
 11
105.8273684211
 21
90.4078947368
  0
LINE
  5
663
100
AcDbEntity
  8
0
100
AcDbLine
 62
253
  6
CONTINUOUS
 10
105.8284045539
 20
94.6267767368
 11
105.8284045539
 21
92.9325607368
  0
LINE
  5
664
100
AcDbEntity
  8
0
100
AcDbLine
 62
253
  6
CONTINUOUS
 10
105.8318859532
 20
97.0955427368
 11
105.8318859532
 21
97.2971797368
  0
LINE
  5
665
100
AcDbEntity
  8
0
100
AcDbLine
 62
253
  6
CONTINUOUS
 10
105.8319230688
 20
92.9325607368
 11
105.8319230688
 21
94.8284137368
  0
LINE
  5
666
100
AcDbEntity
  8
0
100
AcDbLine
 62
253
  6
CONTINUOUS
 10
105.8319882786
 20
95.2500637368
 11
105.8319882786
 21
95.5351847368
  0
LINE
  5
667
100
AcDbEntity
  8
0
100
AcDbLine
 62
253
  6
CONTINUOUS
 10
105.8319882786
 20
100.2075327368
 11
105.8319882786
 21
100.4144897368
  0
LINE
  5
668
100
AcDbEntity
  8
INCISIONI
100
AcDbLine
 62
253
  6
CONTINUOUS
 10
105.8321034469
 20
124.9081547368
 11
105.8321034469
 21
124.2506427368
  0
LINE
  5
669
100
AcDbEntity
  8
INCISIONI
100
AcDbLine
 62
253
  6
CONTINUOUS
 10
105.8321034469
 20
123.1283047368
 11
105.8321034469
 21
122.5234467368
  0
LINE
  5
66A
100
AcDbEntity
  8
INCISIONI
100
AcDbLine
 62
253
  6
CONTINUOUS
 10
105.8321034469
 20
121.1058997368
 11
105.8321034469
 21
120.5011287368
  0
LINE
  5
66B
100
AcDbEntity
  8
INCISIONI
100
AcDbLine
 62
253
  6
CONTINUOUS
 10
105.8321034469
 20
119.2969787368
 11
105.8321034469
 21
118.6981217368
  0
LINE
  5
66C
100
AcDbEntity
  8
INCISIONI
100
AcDbLine
 62
253
  6
CONTINUOUS
 10
105.8321034469
 20
117.4224117368
 11
105.8321034469
 21
116.8368847368
  0
LINE
  5
66D
100
AcDbEntity
  8
INCISIONI
100
AcDbLine
 62
253
  6
CONTINUOUS
 10
105.8321064831
 20
121.6935587368
 11
105.8321064831
 21
122.2988297368
  0
LINE
  5
66E
100
AcDbEntity
  8
0
100
AcDbLine
 62
253
  6
CONTINUOUS
 10
105.8368455556
 20
94.2101877368
 11
105.8368455556
 21
93.9250437368
  0
LINE
  5
66F
100
AcDbEntity
  8
0
100
AcDbLine
 62
253
  6
CONTINUOUS
 10
105.8490650211
 20
93.2248007368
 11
105.8490650211
 21
93.5099207368
  0
LINE
  5
670
100
AcDbEntity
  8
RACCORDO
100
AcDbLine
 62
7
  6
CONTINUOUS
 10
105.8773684211
 20
91.2361956881
 11
105.8773684211
 21
126.5795937856
  0
LINE
  5
671
100
AcDbEntity
  8
0
100
AcDbLine
 62
7
  6
CONTINUOUS
 10
105.8773684211
 20
91.2361956881
 11
105.8773684211
 21
126.5795937856
  0
LINE
  5
672
100
AcDbEntity
  8
ASSI
100
AcDbLine
 62
7
  6
CONTINUOUS
 10
105.8797402642
 20
126.2531941985
 11
105.8797402642
 21
91.5625952752
  0
LINE
  5
673
100
AcDbEntity
  8
0
100
AcDbLine
 62
253
  6
CONTINUOUS
 10
105.611231538
 20
97.2930048478
 11
105.6111956291
 21
97.4428774122
  0
LWPOLYLINE
  5
674
100
AcDbEntity
  8
0
100
AcDbPolyline
 62
253
  6
CONTINUOUS
 90
3
 70
0
 10
105.6739236675
 20
93.1340974124
 10
105.6739927608
 20
92.9643534622
 10
105.6739536116
 20
92.9078947368
  0
LINE
  5
675
100
AcDbEntity
  8
INCISIONI
100
AcDbLine
 62
253
  6
CONTINUOUS
 10
105.8326872689
 20
114.911904204
 11
105.8315122904
 21
115.7694620812
  0
LINE
  5
676
100
AcDbEntity
  8
0
100
AcDbLine
 62
253
  6
CONTINUOUS
 10
105.6870551793
 20
97.2930047368
 11
105.6869612522
 21
97.5858434953
  0
LINE
  5
677
100
AcDbEntity
  8
0
100
AcDbLine
 62
253
  6
CONTINUOUS
 10
105.6870551793
 20
92.9078917368
 11
105.686961258
 21
93.2007306216
  0
LINE
  5
678
100
AcDbEntity
  8
INCISIONI
100
AcDbLine
 62
253
  6
CONTINUOUS
 10
105.8238999327
 20
114.9935604898
 11
105.8239491361
 21
114.8420645264
  0
LINE
  5
679
100
AcDbEntity
  8
0
100
AcDbLine
 62
253
  6
CONTINUOUS
 10
105.6739895206
 20
97.4428773011
 11
105.6739536116
 21
97.2930047368
  0
LINE
  5
67A
100
AcDbEntity
  8
0
100
AcDbLine
 62
253
  6
CONTINUOUS
 10
105.6111924432
 20
92.9643506401
 11
105.6112615318
 21
93.1340944398
  0
LINE
  5
67B
100
AcDbEntity
  8
0
100
AcDbLine
 62
253
  6
CONTINUOUS
 10
105.6111956291
 20
97.4428774122
 11
105.611377496
 21
97.5926630012
  0
LINE
  5
67C
100
AcDbEntity
  8
0
100
AcDbLine
 62
253
  6
CONTINUOUS
 10
105.598385485
 20
97.6832068818
 11
105.598095968
 21
97.3905729868
  0
LINE
  5
67D
100
AcDbEntity
  8
0
100
AcDbLine
 62
253
  6
CONTINUOUS
 10
105.5983854832
 20
93.2980970368
 11
105.598095966
 21
93.0054630222
  0
LINE
  5
67E
100
AcDbEntity
  8
0
100
AcDbLine
 62
253
  6
CONTINUOUS
 10
105.8281998813
 20
99.7761146827
 11
105.8280918121
 21
98.5149766524
  0
LINE
  5
67F
100
AcDbEntity
  8
0
100
AcDbLine
 62
253
  6
CONTINUOUS
 10
105.6112615318
 20
93.1340944398
 11
105.6116088402
 21
93.3029981775
  0
LINE
  5
680
100
AcDbEntity
  8
0
100
AcDbLine
 62
253
  6
CONTINUOUS
 10
105.611377496
 20
97.5926630012
 11
105.6117760529
 21
97.7411280219
  0
LINE
  5
681
100
AcDbEntity
  8
INCISIONI
100
AcDbLine
 62
253
  6
CONTINUOUS
 10
105.8239491361
 20
114.8420645264
 11
105.823690781
 21
114.6793377999
  0
LINE
  5
682
100
AcDbEntity
  8
INCISIONI
100
AcDbLine
 62
253
  6
CONTINUOUS
 10
105.8013065738
 20
115.1666261201
 11
105.8011745471
 21
114.767883026
  0
LINE
  5
683
100
AcDbEntity
  8
0
100
AcDbLine
 62
253
  6
CONTINUOUS
 10
105.599258571
 20
97.9721797216
 11
105.598385485
 21
97.6832068818
  0
LINE
  5
684
100
AcDbEntity
  8
0
100
AcDbLine
 62
253
  6
CONTINUOUS
 10
105.59925857
 20
93.5870699916
 11
105.5983854832
 21
93.2980970368
  0
LINE
  5
685
100
AcDbEntity
  8
0
100
AcDbLine
 62
253
  6
CONTINUOUS
 10
105.8280918121
 20
98.5149766524
 11
105.8277494857
 21
98.4001563277
  0
LINE
  5
686
100
AcDbEntity
  8
0
100
AcDbLine
 62
253
  6
CONTINUOUS
 10
105.8311157844
 20
98.3472442641
 11
105.8317183983
 21
99.7761146827
  0
LINE
  5
687
100
AcDbEntity
  8
0
100
AcDbLine
 62
253
  6
CONTINUOUS
 10
105.6116088402
 20
93.3029981775
 11
105.6122322759
 21
93.4692752115
  0
LINE
  5
688
100
AcDbEntity
  8
INCISIONI
100
AcDbLine
 62
253
  6
CONTINUOUS
 10
105.8315174394
 20
114.3735392593
 11
105.8326872689
 21
114.911904204
  0
LINE
  5
689
100
AcDbEntity
  8
0
100
AcDbLine
 62
253
  6
CONTINUOUS
 10
105.6117760529
 20
97.7411280219
 11
105.61238943
 21
97.8870872605
  0
LINE
  5
68A
100
AcDbEntity
  8
0
100
AcDbLine
 62
253
  6
CONTINUOUS
 10
105.6007045883
 20
98.2533116667
 11
105.599258571
 21
97.9721797216
  0
LINE
  5
68B
100
AcDbEntity
  8
0
100
AcDbLine
 62
253
  6
CONTINUOUS
 10
105.6007045884
 20
93.8682020423
 11
105.59925857
 21
93.5870699916
  0
LINE
  5
68C
100
AcDbEntity
  8
0
100
AcDbLine
 62
253
  6
CONTINUOUS
 10
105.6122322759
 20
93.4692752115
 11
105.6131269632
 21
93.6313039062
  0
LINE
  5
68D
100
AcDbEntity
  8
0
100
AcDbLine
 62
253
  6
CONTINUOUS
 10
105.61238943
 20
97.8870872605
 11
105.6132126195
 21
98.0295490188
  0
LINE
  5
68E
100
AcDbEntity
  8
INCISIONI
100
AcDbLine
 62
253
  6
CONTINUOUS
 10
105.823690781
 20
114.6793377999
 11
105.8232990292
 21
114.6033010159
  0
LINE
  5
68F
100
AcDbEntity
  8
0
100
AcDbLine
 62
253
  6
CONTINUOUS
 10
105.8277494857
 20
98.4001563277
 11
105.8270982986
 21
98.2817547734
  0
LINE
  5
690
100
AcDbEntity
  8
0
100
AcDbLine
 62
253
  6
CONTINUOUS
 10
105.6132126195
 20
98.0295490188
 11
105.6142398297
 21
98.1675699777
  0
LINE
  5
691
100
AcDbEntity
  8
0
100
AcDbLine
 62
253
  6
CONTINUOUS
 10
105.6131269632
 20
93.6313039062
 11
105.6142837122
 21
93.7877183857
  0
LINE
  5
692
100
AcDbEntity
  8
INCISIONI
100
AcDbLine
 62
253
  6
CONTINUOUS
 10
105.8011745471
 20
114.767883026
 11
105.8007578524
 21
114.6970857777
  0
LINE
  5
693
100
AcDbEntity
  8
0
100
AcDbLine
 62
253
  6
CONTINUOUS
 10
105.6027036879
 20
98.5230330095
 11
105.6007045883
 21
98.2533116667
  0
LINE
  5
694
100
AcDbEntity
  8
0
100
AcDbLine
 62
253
  6
CONTINUOUS
 10
105.6027036896
 20
94.1379234775
 11
105.6007045884
 21
93.8682020423
  0
LINE
  5
695
100
AcDbEntity
  8
INCISIONI
100
AcDbLine
 62
253
  6
CONTINUOUS
 10
105.8305074545
 20
114.2137783082
 11
105.8315174394
 21
114.3735392593
  0
LINE
  5
696
100
AcDbEntity
  8
0
100
AcDbLine
 62
253
  6
CONTINUOUS
 10
105.829724184
 20
98.1324720085
 11
105.8311157844
 21
98.3472442641
  0
LINE
  5
697
100
AcDbEntity
  8
0
100
AcDbLine
 62
253
  6
CONTINUOUS
 10
105.6142398297
 20
98.1675699777
 11
105.615464593
 21
98.3002148523
  0
LINE
  5
698
100
AcDbEntity
  8
0
100
AcDbLine
 62
253
  6
CONTINUOUS
 10
105.8270982986
 20
98.2817547734
 11
105.826370258
 21
98.1968069177
  0
LINE
  5
699
100
AcDbEntity
  8
0
100
AcDbLine
 62
253
  6
CONTINUOUS
 10
105.6142837122
 20
93.7877183857
 11
105.6156929193
 21
93.9371754646
  0
LINE
  5
69A
100
AcDbEntity
  8
0
100
AcDbLine
 62
253
  6
CONTINUOUS
 10
105.6052300343
 20
98.7778728598
 11
105.6027036879
 21
98.5230330095
  0
LINE
  5
69B
100
AcDbEntity
  8
0
100
AcDbLine
 62
253
  6
CONTINUOUS
 10
105.605230038
 20
94.3927634032
 11
105.6027036896
 21
94.1379234775
  0
LINE
  5
69C
100
AcDbEntity
  8
INCISIONI
100
AcDbLine
 62
253
  6
CONTINUOUS
 10
105.8232990292
 20
114.6033010159
 11
105.8226586234
 21
114.5325748828
  0
LINE
  5
69D
100
AcDbEntity
  8
INCISIONI
100
AcDbLine
 62
253
  6
CONTINUOUS
 10
105.8045355542
 20
114.150155698
 11
105.8051240258
 21
114.2133390269
  0
LINE
  5
69E
100
AcDbEntity
  8
0
100
AcDbLine
 62
253
  6
CONTINUOUS
 10
105.615464593
 20
98.3002148523
 11
105.6168777394
 21
98.4265804937
  0
LINE
  5
69F
100
AcDbEntity
  8
0
100
AcDbLine
 62
253
  6
CONTINUOUS
 10
105.6156929193
 20
93.9371754646
 11
105.6173424352
 21
94.0783733535
  0
LINE
  5
6A0
100
AcDbEntity
  8
INCISIONI
100
AcDbLine
 62
253
  6
CONTINUOUS
 10
105.8007578524
 20
114.6970857777
 11
105.8001650348
 21
114.6410987009
  0
LINE
  5
6A1
100
AcDbEntity
  8
0
100
AcDbLine
 62
253
  6
CONTINUOUS
 10
105.6071904832
 20
98.9378197115
 11
105.6052300343
 21
98.7778728598
  0
LINE
  5
6A2
100
AcDbEntity
  8
0
100
AcDbLine
 62
253
  6
CONTINUOUS
 10
105.6071904884
 20
94.5527102939
 11
105.605230038
 21
94.3927634032
  0
LINE
  5
6A3
100
AcDbEntity
  8
0
100
AcDbLine
 62
253
  6
CONTINUOUS
 10
105.8282081927
 20
97.9981116521
 11
105.829724184
 21
98.1324720085
  0
LINE
  5
6A4
100
AcDbEntity
  8
INCISIONI
100
AcDbLine
 62
253
  6
CONTINUOUS
 10
105.8292050209
 20
114.1001801291
 11
105.8305074545
 21
114.2137783082
  0
LINE
  5
6A5
100
AcDbEntity
  8
0
100
AcDbLine
 62
253
  6
CONTINUOUS
 10
105.6168777394
 20
98.4265804937
 11
105.6184694236
 21
98.5457717875
  0
LINE
  5
6A6
100
AcDbEntity
  8
0
100
AcDbLine
 62
253
  6
CONTINUOUS
 10
105.826370258
 20
98.1968069177
 11
105.8254160134
 21
98.1201840577
  0
LINE
  5
6A7
100
AcDbEntity
  8
0
100
AcDbLine
 62
253
  6
CONTINUOUS
 10
105.518347489
 20
98.6078947368
 11
105.5295668932
 21
99.3578947368
  0
LINE
  5
6A8
100
AcDbEntity
  8
0
100
AcDbLine
 62
253
  6
CONTINUOUS
 10
105.518347489
 20
95.1793235126
 11
105.5295668932
 21
95.9293235126
  0
LINE
  5
6A9
100
AcDbEntity
  8
0
100
AcDbLine
 62
253
  6
CONTINUOUS
 10
105.6093593352
 20
99.0886664938
 11
105.6071904832
 21
98.9378197115
  0
LINE
  5
6AA
100
AcDbEntity
  8
0
100
AcDbLine
 62
253
  6
CONTINUOUS
 10
105.6093593419
 20
94.7035571051
 11
105.6071904884
 21
94.5527102939
  0
LINE
  5
6AB
100
AcDbEntity
  8
0
100
AcDbLine
 62
253
  6
CONTINUOUS
 10
105.6173424352
 20
94.0783733535
 11
105.6192161643
 21
94.2100744263
  0
LINE
  5
6AC
100
AcDbEntity
  8
INCISIONI
100
AcDbLine
 62
253
  6
CONTINUOUS
 10
105.8226586234
 20
114.5325748828
 11
105.8220515589
 21
114.487610602
  0
LINE
  5
6AD
100
AcDbEntity
  8
INCISIONI
100
AcDbLine
 62
253
  6
CONTINUOUS
 10
105.8037397786
 20
114.0941386464
 11
105.8045355542
 21
114.150155698
  0
LINE
  5
6AE
100
AcDbEntity
  8
0
100
AcDbLine
 62
253
  6
CONTINUOUS
 10
105.6184694236
 20
98.5457717875
 11
105.6202292137
 21
98.6569243781
  0
LINE
  5
6AF
100
AcDbEntity
  8
INCISIONI
100
AcDbLine
 62
253
  6
CONTINUOUS
 10
105.8001650348
 20
114.6410987009
 11
105.7995801942
 21
114.6028934226
  0
LINE
  5
6B0
100
AcDbEntity
  8
0
100
AcDbLine
 62
253
  6
CONTINUOUS
 10
105.5370464955
 20
102.2507515732
 11
105.5333066944
 21
102.0364659611
  0
LINE
  5
6B1
100
AcDbEntity
  8
0
100
AcDbLine
 62
253
  6
CONTINUOUS
 10
105.5127377866
 20
99.3578947368
 11
105.5108678859
 21
99.2507522884
  0
LINE
  5
6B2
100
AcDbEntity
  8
0
100
AcDbLine
 62
253
  6
CONTINUOUS
 10
105.5370464955
 20
98.7150371853
 11
105.5351765942
 21
98.6078947368
  0
LINE
  5
6B3
100
AcDbEntity
  8
0
100
AcDbLine
 62
253
  6
CONTINUOUS
 10
105.5127377866
 20
95.9293235126
 11
105.5108678859
 21
95.8221810642
  0
LINE
  5
6B4
100
AcDbEntity
  8
0
100
AcDbLine
 62
253
  6
CONTINUOUS
 10
105.5108678859
 20
94.5364659611
 11
105.5146076874
 21
94.7507522884
  0
LINE
  5
6B5
100
AcDbEntity
  8
0
100
AcDbLine
 62
253
  6
CONTINUOUS
 10
105.5370464955
 20
95.2864659611
 11
105.5351765942
 21
95.1793235126
  0
LINE
  5
6B6
100
AcDbEntity
  8
0
100
AcDbLine
 62
253
  6
CONTINUOUS
 10
105.6117232722
 20
99.2295571897
 11
105.6093593352
 21
99.0886664938
  0
LINE
  5
6B7
100
AcDbEntity
  8
0
100
AcDbLine
 62
253
  6
CONTINUOUS
 10
105.5370464955
 20
94.2150371853
 11
105.5333066944
 21
94.0007522884
  0
LINE
  5
6B8
100
AcDbEntity
  8
0
100
AcDbLine
 62
253
  6
CONTINUOUS
 10
105.5370464955
 20
93.0364659611
 11
105.5333066944
 21
92.8221810642
  0
LINE
  5
6B9
100
AcDbEntity
  8
0
100
AcDbLine
 62
253
  6
CONTINUOUS
 10
105.6117232806
 20
94.8444478191
 11
105.6093593419
 21
94.7035571051
  0
LINE
  5
6BA
100
AcDbEntity
  8
INCISIONI
100
AcDbLine
 62
253
  6
CONTINUOUS
 10
105.7462031905
 20
98.2007509592
 11
105.7414661081
 21
97.929322404
  0
LINE
  5
6BB
100
AcDbEntity
  8
INCISIONI
100
AcDbLine
 62
253
  6
CONTINUOUS
 10
105.7556773534
 20
97.2507510725
 11
105.7604144349
 21
97.5221796277
  0
LINE
  5
6BC
100
AcDbEntity
  8
INCISIONI
100
AcDbLine
 62
253
  6
CONTINUOUS
 10
105.7414661081
 20
94.4007510725
 11
105.7462031905
 21
94.6721795145
  0
LINE
  5
6BD
100
AcDbEntity
  8
0
100
AcDbLine
 62
253
  6
CONTINUOUS
 10
105.8065828409
 20
96.9911047368
 11
105.7812384425
 21
95.5386847368
  0
LINE
  5
6BE
100
AcDbEntity
  8
0
100
AcDbLine
 62
253
  6
CONTINUOUS
 10
105.7812384425
 20
95.2535637368
 11
105.8065828409
 21
96.7059377368
  0
LINE
  5
6BF
100
AcDbEntity
  8
INCISIONI
100
AcDbLine
 62
253
  6
CONTINUOUS
 10
105.7556773534
 20
92.9078937355
 11
105.7604144349
 21
93.1793226305
  0
LINE
  5
6C0
100
AcDbEntity
  8
0
100
AcDbLine
 62
253
  6
CONTINUOUS
 10
105.8270853621
 20
97.9281360591
 11
105.8282081927
 21
97.9981116521
  0
LINE
  5
6C1
100
AcDbEntity
  8
INCISIONI
100
AcDbLine
 62
253
  6
CONTINUOUS
 10
105.8279317094
 20
114.0208501181
 11
105.8292050209
 21
114.1001801291
  0
LINE
  5
6C2
100
AcDbEntity
  8
0
100
AcDbLine
 62
253
  6
CONTINUOUS
 10
105.6192161643
 20
94.2100744263
 11
105.6212976487
 21
94.3310487419
  0
LINE
  5
6C3
100
AcDbEntity
  8
0
100
AcDbLine
 62
253
  6
CONTINUOUS
 10
105.8254160134
 20
98.1201840577
 11
105.8245521685
 21
98.0699499505
  0
LINE
  5
6C4
100
AcDbEntity
  8
0
100
AcDbLine
 62
253
  6
CONTINUOUS
 10
105.6202292137
 20
98.6569243781
 11
105.6221443319
 21
98.7592969468
  0
LINE
  5
6C5
100
AcDbEntity
  8
INCISIONI
100
AcDbLine
 62
253
  6
CONTINUOUS
 10
105.8220515589
 20
114.487610602
 11
105.8214778418
 21
114.4561291915
  0
LINE
  5
6C6
100
AcDbEntity
  8
0
100
AcDbLine
 62
253
  6
CONTINUOUS
 10
105.6142683624
 20
99.3596656329
 11
105.6117232722
 21
99.2295571897
  0
LINE
  5
6C7
100
AcDbEntity
  8
0
100
AcDbLine
 62
253
  6
CONTINUOUS
 10
105.6142683727
 20
94.9745562688
 11
105.6117232806
 21
94.8444478191
  0
LWPOLYLINE
  5
6C8
100
AcDbEntity
  8
ASSI
100
AcDbPolyline
 62
253
  6
CONTINUOUS
 90
3
 70
0
 10
105.3136934474
 20
85.1035668197
 10
105.3136160363
 20
85.0998443777
 10
105.3134874152
 20
85.0910391425
  0
LINE
  5
6C9
100
AcDbEntity
  8
INCISIONI
100
AcDbLine
 62
253
  6
CONTINUOUS
 10
105.7556773534
 20
94.4459889952
 11
105.7604144349
 21
94.6721795145
  0
LINE
  5
6CA
100
AcDbEntity
  8
INCISIONI
100
AcDbLine
 62
253
  6
CONTINUOUS
 10
105.8028552688
 20
114.0485572023
 11
105.8037397786
 21
114.0941386464
  0
LINE
  5
6CB
100
AcDbEntity
  8
INCISIONI
100
AcDbLine
 62
253
  6
CONTINUOUS
 10
105.8268065574
 20
113.9657791449
 11
105.8279317094
 21
114.0208501181
  0
LINE
  5
6CC
100
AcDbEntity
  8
0
100
AcDbLine
 62
253
  6
CONTINUOUS
 10
105.6212976487
 20
94.3310487419
 11
105.6235690655
 21
94.4401962912
  0
LINE
  5
6CD
100
AcDbEntity
  8
INCISIONI
100
AcDbLine
 62
253
  6
CONTINUOUS
 10
105.7995801942
 20
114.6028934226
 11
105.7988947105
 21
114.5689659204
  0
LINE
  5
6CE
100
AcDbEntity
  8
0
100
AcDbLine
 62
253
  6
CONTINUOUS
 10
105.8258114696
 20
97.8673980926
 11
105.8270853621
 21
97.9281360591
  0
LINE
  5
6CF
100
AcDbEntity
  8
0
100
AcDbLine
 62
253
  6
CONTINUOUS
 10
105.6221443319
 20
98.7592969468
 11
105.6242014143
 21
98.8521789337
  0
LINE
  5
6D0
100
AcDbEntity
  8
0
100
AcDbLine
 62
253
  6
CONTINUOUS
 10
105.6169801855
 20
99.4781987828
 11
105.6142683624
 21
99.3596656329
  0
LINE
  5
6D1
100
AcDbEntity
  8
0
100
AcDbLine
 62
253
  6
CONTINUOUS
 10
105.6169801975
 20
95.093089413
 11
105.6142683727
 21
94.9745562688
  0
LINE
  5
6D2
100
AcDbEntity
  8
0
100
AcDbLine
 62
253
  6
CONTINUOUS
 10
105.8245521685
 20
98.0699499505
 11
105.8235772823
 21
98.0264751016
  0
LINE
  5
6D3
100
AcDbEntity
  8
INCISIONI
100
AcDbLine
 62
253
  6
CONTINUOUS
 10
105.8214778418
 20
114.4561291915
 11
105.8210006427
 21
114.4354944073
  0
LINE
  5
6D4
100
AcDbEntity
  8
0
100
AcDbLine
 62
253
  6
CONTINUOUS
 10
105.6235690655
 20
94.4401962912
 11
105.6251790264
 21
94.5059460688
  0
LINE
  5
6D5
100
AcDbEntity
  8
0
100
AcDbLine
 62
253
  6
CONTINUOUS
 10
105.5220872901
 20
102.4650379005
 11
105.5108678859
 21
102.0364659611
  0
LINE
  5
6D6
100
AcDbEntity
  8
0
100
AcDbLine
 62
253
  6
CONTINUOUS
 10
105.7534334723
 20
110.9078952137
 11
105.7422140689
 21
110.4793239895
  0
LINE
  5
6D7
100
AcDbEntity
  8
0
100
AcDbLine
 62
253
  6
CONTINUOUS
 10
105.5220872901
 20
93.2507522884
 11
105.5108678859
 21
92.8221810642
  0
LINE
  5
6D8
100
AcDbEntity
  8
INCISIONI
100
AcDbLine
 62
253
  6
CONTINUOUS
 10
105.8020193515
 20
114.0147453656
 11
105.8028552688
 21
114.0485572023
  0
LINE
  5
6D9
100
AcDbEntity
  8
INCISIONI
100
AcDbLine
 62
253
  6
CONTINUOUS
 10
105.7988947105
 20
114.5689659204
 11
105.7982682886
 21
114.5443558728
  0
LINE
  5
6DA
100
AcDbEntity
  8
0
100
AcDbLine
 62
253
  6
CONTINUOUS
 10
105.6242014143
 20
98.8521789337
 11
105.6263866526
 21
98.9348943155
  0
LINE
  5
6DB
100
AcDbEntity
  8
INCISIONI
100
AcDbLine
 62
253
  6
CONTINUOUS
 10
105.8255829818
 20
113.9181853134
 11
105.8268065574
 21
113.9657791449
  0
LINE
  5
6DC
100
AcDbEntity
  8
0
100
AcDbLine
 62
253
  6
CONTINUOUS
 10
105.8248875726
 20
97.8325722116
 11
105.8258114696
 21
97.8673980926
  0
LINE
  5
6DD
100
AcDbEntity
  8
0
100
AcDbLine
 62
253
  6
CONTINUOUS
 10
105.6198423659
 20
99.5844961033
 11
105.6169801855
 21
99.4781987828
  0
LINE
  5
6DE
100
AcDbEntity
  8
0
100
AcDbLine
 62
253
  6
CONTINUOUS
 10
105.6198423798
 20
95.1993867153
 11
105.6169801975
 21
95.093089413
  0
LINE
  5
6DF
100
AcDbEntity
  8
0
100
AcDbLine
 62
253
  6
CONTINUOUS
 10
105.6251790264
 20
94.5059460688
 11
105.6268585785
 21
94.5657789985
  0
LINE
  5
6E0
100
AcDbEntity
  8
0
100
AcDbLine
 62
253
  6
CONTINUOUS
 10
105.8235772823
 20
98.0264751016
 11
105.8228754526
 21
98.0015877325
  0
LINE
  5
6E1
100
AcDbEntity
  8
ASSI
100
AcDbLine
 62
253
  6
CONTINUOUS
 10
105.1290834619
 20
85.785245006
 11
105.1138105766
 21
85.280073326
  0
LINE
  5
6E2
100
AcDbEntity
  8
ASSI
100
AcDbLine
 62
253
  6
CONTINUOUS
 10
105.3273684211
 20
85.5563201287
 11
105.3136934474
 21
85.1035668197
  0
LINE
  5
6E3
100
AcDbEntity
  8
INCISIONI
100
AcDbLine
 62
253
  6
CONTINUOUS
 10
105.8210006427
 20
114.4354944073
 11
105.8204899004
 21
114.4175216027
  0
LINE
  5
6E4
100
AcDbEntity
  8
INCISIONI
100
AcDbLine
 62
253
  6
CONTINUOUS
 10
105.8011348835
 20
113.985256371
 11
105.8020193515
 21
114.0147453656
  0
LINE
  5
6E5
100
AcDbEntity
  8
INCISIONI
100
AcDbLine
 62
253
  6
CONTINUOUS
 10
105.7982682886
 20
114.5443558728
 11
105.79775134
 21
114.527508087
  0
LINE
  5
6E6
100
AcDbEntity
  8
INCISIONI
100
AcDbLine
 62
253
  6
CONTINUOUS
 10
105.8247178494
 20
113.8909004706
 11
105.8255829818
 21
113.9181853134
  0
LINE
  5
6E7
100
AcDbEntity
  8
0
100
AcDbLine
 62
253
  6
CONTINUOUS
 10
105.8074007658
 20
98.8363002821
 11
105.7812384499
 21
98.0495702222
  0
LINE
  5
6E8
100
AcDbEntity
  8
0
100
AcDbLine
 62
253
  6
CONTINUOUS
 10
105.7812384499
 20
97.8218475099
 11
105.8040572255
 21
98.508042805
  0
LWPOLYLINE
  5
6E9
100
AcDbEntity
  8
0
100
AcDbPolyline
 62
253
  6
CONTINUOUS
 90
23
 70
0
 10
105.6263866526
 20
98.9348943155
 10
105.6286844615
 20
99.006905215
 10
105.6298705708
 20
99.0387391897
 10
105.6310788118
 20
99.067708291
 10
105.6323071459
 20
99.0937546914
 10
105.6335533952
 20
99.1168409235
 10
105.634815347
 20
99.1369346105
 10
105.6360907885
 20
99.1540033752
 10
105.637377507
 20
99.1680148404
 10
105.6386732897
 20
99.1789366293
 10
105.6399759121
 20
99.1867417607
 10
105.641283102
 20
99.1914248387
 10
105.6425925758
 20
99.1929858631
 10
105.6439020496
 20
99.1914248341
 10
105.6452092396
 20
99.1867417515
 10
105.6465118619
 20
99.1789366154
 10
105.6478076446
 20
99.168014822
 10
105.6490943631
 20
99.1540033522
 10
105.6503698046
 20
99.136934583
 10
105.6516317563
 20
99.1168408916
 10
105.6528780056
 20
99.093754655
 10
105.6541063397
 20
99.0677082503
 10
105.6553145806
 20
99.0387391447
  0
LINE
  5
6EA
100
AcDbEntity
  8
0
100
AcDbLine
 62
253
  6
CONTINUOUS
 10
105.6268585785
 20
94.5657789985
 11
105.6286017017
 21
94.6194358012
  0
LINE
  5
6EB
100
AcDbEntity
  8
0
100
AcDbLine
 62
253
  6
CONTINUOUS
 10
105.5370464955
 20
97.1078947368
 11
105.5108678859
 21
96.3578947368
  0
LWPOLYLINE
  5
6EC
100
AcDbEntity
  8
INCISIONI
100
AcDbPolyline
 62
253
  6
CONTINUOUS
 90
3
 70
0
 10
105.8204899004
 20
114.4175216027
 10
105.8201338427
 20
114.4070663407
 10
105.8199518363
 20
114.4023074313
  0
LWPOLYLINE
  5
6ED
100
AcDbEntity
  8
0
100
AcDbPolyline
 62
253
  6
CONTINUOUS
 90
21
 70
0
 10
105.8228754526
 20
98.0015877325
 10
105.8221389472
 20
97.9802155584
 10
105.8217554647
 20
97.9708154311
 10
105.8213653975
 20
97.9623767013
 10
105.8209695158
 20
97.9549110163
 10
105.8205685897
 20
97.948430023
 10
105.8201633895
 20
97.9429453686
 10
105.8197546855
 20
97.9384687001
 10
105.8193432478
 20
97.9350116647
 10
105.8189298467
 20
97.9325859094
 10
105.8185152525
 20
97.9312030814
 10
105.8181002353
 20
97.9308748276
 10
105.8176855654
 20
97.9316127952
 10
105.8172719721
 20
97.933422843
 10
105.8168601423
 20
97.936287095
 10
105.8164507217
 20
97.9401817823
 10
105.8160443561
 20
97.9450831358
 10
105.8156416913
 20
97.9509673866
 10
105.8152433732
 20
97.9578107656
 10
105.8148500474
 20
97.9655895038
 10
105.8144623598
 20
97.9742798321
  0
LINE
  5
6EE
100
AcDbEntity
  8
INCISIONI
100
AcDbLine
 62
253
  6
CONTINUOUS
 10
105.8002079693
 20
113.9590533276
 11
105.8011348835
 21
113.985256371
  0
LINE
  5
6EF
100
AcDbEntity
  8
0
100
AcDbLine
 62
253
  6
CONTINUOUS
 10
105.6286017017
 20
94.6194358012
 11
105.6304010309
 21
94.6666996045
  0
LINE
  5
6F0
100
AcDbEntity
  8
ASSI
100
AcDbLine
 62
7
  6
CONTINUOUS
 10
105.8797402642
 20
91.5625952752
 11
105.8773684211
 21
91.5103005996
  0
LINE
  5
6F1
100
AcDbEntity
  8
ASSI
100
AcDbLine
 62
7
  6
CONTINUOUS
 10
105.8500190722
 20
90.9072989497
 11
105.8273684211
 21
90.4078947368
  0
LWPOLYLINE
  5
6F2
100
AcDbEntity
  8
0
100
AcDbPolyline
 62
253
  6
CONTINUOUS
 90
6
 70
0
 10
105.6304010309
 20
94.6666996045
 10
105.6322478559
 20
94.7073959428
 10
105.6331863392
 20
94.7252273682
 10
105.6341334082
 20
94.7413521941
 10
105.6350879669
 20
94.7557488429
 10
105.6360489192
 20
94.7683957368
  0
LINE
  5
6F3
100
AcDbEntity
  8
0
100
AcDbLine
 62
253
  6
CONTINUOUS
 10
105.5370464955
 20
106.1078947368
 11
105.5108678859
 21
105.6793235126
  0
LWPOLYLINE
  5
6F4
100
AcDbEntity
  8
ASSI
100
AcDbPolyline
 62
253
  6
CONTINUOUS
 90
13
 70
0
 10
105.3142009641
 20
84.6210317328
 10
105.3124829109
 20
84.5949355013
 10
105.3073740333
 20
84.5692856108
 10
105.2989617117
 20
84.5445207678
 10
105.2873898277
 20
84.5210645418
 10
105.2728563026
 20
84.4993181198
 10
105.2556097129
 20
84.479653445
 10
105.2359450381
 20
84.4624068553
 10
105.2141986161
 20
84.4478733302
 10
105.1907423901
 20
84.4363014462
 10
105.1659775471
 20
84.4278891246
 10
105.1403276566
 20
84.422780247
 10
105.1142314251
 20
84.4210621938
  0
LINE
  5
6F5
100
AcDbEntity
  8
DRAFT
100
AcDbLine
 62
7
  6
CONTINUOUS
 10
91.2273684211
 20
89.2078947368
 11
91.3163892522
 21
89.296915568
  0
LINE
  5
6F6
100
AcDbEntity
  8
0
100
AcDbLine
 62
7
  6
CONTINUOUS
 10
91.2273684211
 20
89.2078947368
 11
91.3163892522
 21
89.296915568
  0
LINE
  5
6F7
100
AcDbEntity
  8
DRAFT
100
AcDbLine
 62
7
  6
CONTINUOUS
 10
91.3163892522
 20
89.096915568
 11
91.2273684211
 21
89.0078947368
  0
LINE
  5
6F8
100
AcDbEntity
  8
0
100
AcDbLine
 62
7
  6
CONTINUOUS
 10
91.3163892522
 20
89.096915568
 11
91.2273684211
 21
89.0078947368
  0
LINE
  5
6F9
100
AcDbEntity
  8
0
100
AcDbLine
 62
7
  6
CONTINUOUS
 10
105.7812384425
 20
102.7052419915
 11
105.7855258548
 21
102.7095294038
  0
LINE
  5
6FA
100
AcDbEntity
  8
RACCORDO
100
AcDbLine
 62
7
  6
CONTINUOUS
 10
92.2273684211
 20
89.0078947368
 11
92.2293880971
 21
89.0099144129
  0
LINE
  5
6FB
100
AcDbEntity
  8
0
100
AcDbLine
 62
7
  6
CONTINUOUS
 10
92.2273684211
 20
89.0078947368
 11
92.2293880971
 21
89.0099144129
  0
LINE
  5
6FC
100
AcDbEntity
  8
0
100
AcDbLine
 62
7
  6
CONTINUOUS
 10
105.7885777304
 20
102.2925598514
 11
105.7938603396
 21
102.2978424606
  0
LINE
  5
6FD
100
AcDbEntity
  8
ASSI
100
AcDbLine
 62
7
  6
CONTINUOUS
 10
90.2773684211
 20
86.5078947368
 11
90.3753097976
 21
86.6058361134
  0
LINE
  5
6FE
100
AcDbEntity
  8
0
100
AcDbLine
 62
7
  6
CONTINUOUS
 10
105.7969122986
 20
101.8808729916
 11
105.8021948244
 21
101.8861555173
  0
LINE
  5
6FF
100
AcDbEntity
  8
RACCORDO
100
AcDbLine
 62
253
  6
CONTINUOUS
 10
83.5773684211
 20
91.2361956881
 11
83.9686665083
 21
91.3982790102
  0
LINE
  5
700
100
AcDbEntity
  8
0
100
AcDbLine
 62
253
  6
CONTINUOUS
 10
83.5773684211
 20
91.2361956881
 11
83.9686665083
 21
91.3982790102
  0
LINE
  5
701
100
AcDbEntity
  8
ASSI
100
AcDbLine
 62
7
  6
CONTINUOUS
 10
83.6622785509
 20
90.3476697965
 11
83.644823486
 21
90.3404396719
  0
LINE
  5
702
100
AcDbEntity
  8
0
100
AcDbLine
 62
7
  6
CONTINUOUS
 10
87.7273684211
 20
120.4578947369
 11
94.7273684211
 21
120.4578947369
  0
LINE
  5
703
100
AcDbEntity
  8
SMUSSO
100
AcDbLine
 62
7
  6
CONTINUOUS
 10
87.7273684211
 20
120.5578947368
 11
94.7273684211
 21
120.5578947368
  0
LINE
  5
704
100
AcDbEntity
  8
0
100
AcDbLine
 62
7
  6
CONTINUOUS
 10
87.7273684211
 20
120.5578947368
 11
94.7273684211
 21
120.5578947368
  0
LINE
  5
705
100
AcDbEntity
  8
0
100
AcDbLine
 62
253
  6
CONTINUOUS
 10
99.7264644211
 20
120.8560247368
 11
97.4159664211
 21
120.8560247368
  0
LINE
  5
706
100
AcDbEntity
  8
RACCORDO
100
AcDbLine
 62
7
  6
CONTINUOUS
 10
104.3773684211
 20
120.9078947368
 11
104.2273684211
 21
120.9078947368
  0
LINE
  5
707
100
AcDbEntity
  8
0
100
AcDbLine
 62
253
  6
CONTINUOUS
 10
105.7272548627
 20
120.9793232742
 11
105.7534334723
 21
120.9793232742
  0
LINE
  5
708
100
AcDbEntity
  8
ASSI
100
AcDbLine
 62
7
  6
CONTINUOUS
 10
104.0773684211
 20
121.0078947368
 11
105.5998328887
 21
121.0078947368
  0
LINE
  5
709
100
AcDbEntity
  8
0
100
AcDbLine
 62
7
  6
CONTINUOUS
 10
104.0773684211
 20
121.0078947368
 11
105.5998328887
 21
121.0078947368
  0
LINE
  5
70A
100
AcDbEntity
  8
SMUSSO
100
AcDbLine
 62
7
  6
CONTINUOUS
 10
87.1500181519
 20
121.135245006
 11
95.3047186902
 21
121.135245006
  0
LINE
  5
70B
100
AcDbEntity
  8
0
100
AcDbLine
 62
7
  6
CONTINUOUS
 10
87.1500181519
 20
121.135245006
 11
95.3047186902
 21
121.135245006
  0
LINE
  5
70C
100
AcDbEntity
  8
0
100
AcDbLine
 62
253
  6
CONTINUOUS
 10
100.1598584211
 20
121.4108857368
 11
98.5253894211
 21
121.4108857368
  0
LINE
  5
70D
100
AcDbEntity
  8
0
100
AcDbLine
 62
253
  6
CONTINUOUS
 10
105.7496936712
 20
121.5864663187
 11
105.7309946642
 21
121.5864663187
  0
LINE
  5
70E
100
AcDbEntity
  8
SMUSSO
100
AcDbLine
 62
7
  6
CONTINUOUS
 10
95.3047186902
 20
121.6805444677
 11
87.1500181519
 21
121.6805444677
  0
LINE
  5
70F
100
AcDbEntity
  8
0
100
AcDbLine
 62
7
  6
CONTINUOUS
 10
95.3047186902
 20
121.6805444677
 11
87.1500181519
 21
121.6805444677
  0
LINE
  5
710
100
AcDbEntity
  8
INCISIONI
100
AcDbLine
 62
253
  6
CONTINUOUS
 10
105.7815052317
 20
121.6935587368
 11
105.8321064831
 21
121.6935587368
  0
LINE
  5
711
100
AcDbEntity
  8
ASSI
100
AcDbLine
 62
7
  6
CONTINUOUS
 10
104.0773684211
 20
121.8078947368
 11
105.5998328887
 21
121.8078947368
  0
LINE
  5
712
100
AcDbEntity
  8
0
100
AcDbLine
 62
7
  6
CONTINUOUS
 10
104.0773684211
 20
121.8078947368
 11
105.5998328887
 21
121.8078947368
  0
LWPOLYLINE
  5
713
100
AcDbEntity
  8
0
100
AcDbPolyline
 62
253
  6
CONTINUOUS
 90
80
 70
0
 10
100.6954454601
 20
120.2690230597
 10
100.7421843471
 20
120.2688416592
 10
100.7889056167
 20
120.270570441
 10
100.835446708
 20
120.2742041659
 10
100.8818146547
 20
120.2797317005
 10
100.9279285084
 20
120.2871365077
 10
100.9737073206
 20
120.2964020503
 10
101.0184462472
 20
120.3073473063
 10
101.0627044971
 20
120.3200802051
 10
101.1064059567
 20
120.3345948476
 10
101.1494745128
 20
120.3508853345
 10
101.191874238
 20
120.3689565156
 10
101.2334988414
 20
120.3887558314
 10
101.2742835115
 20
120.4102382429
 10
101.3141634369
 20
120.4333587111
 10
101.3537409627
 20
120.4585149304
 10
101.3922521746
 20
120.4852730916
 10
101.4296342554
 20
120.5135863531
 10
101.465824388
 20
120.5434078737
 10
101.5008081824
 20
120.5747330174
 10
101.5344788373
 20
120.6074662187
 10
101.5667814261
 20
120.641550102
 10
101.5976610222
 20
120.676927292
 10
101.6266422183
 20
120.7129918366
 10
101.6541444223
 20
120.7501960144
 10
101.680123367
 20
120.7884796491
 10
101.7045347852
 20
120.8277825649
 10
101.7273792921
 20
120.8681265542
 10
101.7485617915
 20
120.9093674944
 10
101.768038638
 20
120.9514393228
 10
101.785766186
 20
120.9942759768
 10
101.8020141465
 20
121.0387080588
 10
101.8163842483
 20
121.083785008
 10
101.8288657948
 20
121.1294240034
 10
101.8394480894
 20
121.1755422242
 10
101.8481420203
 20
121.2221966143
 10
101.8548953073
 20
121.2691692789
 10
101.8596886657
 20
121.3163797197
 10
101.8625028111
 20
121.3637474385
 10
101.8633261931
 20
121.4105759817
 10
101.8622166835
 20
121.4574000665
 10
101.8591883718
 20
121.504140434
 10
101.8542553473
 20
121.5507178252
 10
101.84742068
 20
121.5971254831
 10
101.8387096213
 20
121.6432170414
 10
101.8281422541
 20
121.6889193853
 10
101.8157386614
 20
121.7341594001
 10
101.8012457849
 20
121.7796623989
 10
101.7848876914
 20
121.824528807
 10
101.7666812644
 20
121.8686769239
 10
101.7466433873
 20
121.9120250487
 10
101.7293917323
 20
121.9459124165
 10
101.7110045214
 20
121.979198069
 10
101.6914965385
 20
122.0118392379
 10
101.6708825678
 20
122.0437931548
 10
101.6491773933
 20
122.0750170514
 10
101.6211580206
 20
122.1121699856
 10
101.5915764024
 20
122.1480917133
 10
101.5604821077
 20
122.1827081901
 10
101.5279247055
 20
122.2159453716
 10
101.4942454632
 20
122.2474840493
 10
101.4592669154
 20
122.277579175
 10
101.423080176
 20
122.3062167669
 10
101.3857763589
 20
122.3333828426
 10
101.3478297842
 20
122.3588137998
 10
101.3089408378
 20
122.3827713325
 10
101.2691727305
 20
122.4052380041
 10
101.2285886731
 20
122.4261963778
 10
101.1879520757
 20
122.4453126576
 10
101.1466420447
 20
122.4629242909
 10
101.1047127761
 20
122.4790014705
 10
101.0622184661
 20
122.4935143895
 10
101.0206470249
 20
122.5060279896
 10
100.9786448729
 20
122.5170088921
 10
100.936258818
 20
122.5264144725
 10
100.8935356679
 20
122.5342021061
 10
100.8513028989
 20
122.5402316858
 10
100.8088682814
 20
122.544605628
 10
100.7663099179
 20
122.5472697369
 10
100.7237059109
 20
122.5481698167
  0
LINE
  5
714
100
AcDbEntity
  8
RACCORDO
100
AcDbLine
 62
253
  6
CONTINUOUS
 10
83.9686665083
 20
126.4175104635
 11
83.5773684211
 21
126.5795937856
  0
LINE
  5
715
100
AcDbEntity
  8
0
100
AcDbLine
 62
253
  6
CONTINUOUS
 10
83.9686665083
 20
126.4175104635
 11
83.5773684211
 21
126.5795937856
  0
LINE
  5
716
100
AcDbEntity
  8
ASSI
100
AcDbLine
 62
7
  6
CONTINUOUS
 10
83.6622785509
 20
127.4681196771
 11
83.644823486
 21
127.4753498018
  0
LWPOLYLINE
  5
717
100
AcDbEntity
  8
ASSI
100
AcDbPolyline
 62
7
  6
CONTINUOUS
 90
10
 70
0
 10
86.1807453913
 20
132.5357259532
 10
86.1614325245
 20
132.5540186357
 10
86.1407097374
 20
132.5749602956
 10
86.1185770301
 20
132.5978943144
 10
86.0947356402
 20
132.6220324885
 10
86.0694843301
 20
132.646960198
 10
86.0437193864
 20
132.6727519581
 10
86.0177395713
 20
132.6992233693
 10
85.9912461226
 20
132.7258285996
 10
85.9642390403
 20
132.7522323041
  0
LINE
  5
718
100
AcDbEntity
  8
DRAFT
100
AcDbLine
 62
7
  6
CONTINUOUS
 10
91.2273684211
 20
128.6078947368
 11
91.3163892522
 21
128.5188739057
  0
LINE
  5
719
100
AcDbEntity
  8
0
100
AcDbLine
 62
7
  6
CONTINUOUS
 10
91.2273684211
 20
128.6078947368
 11
91.3163892522
 21
128.5188739057
  0
LINE
  5
71A
100
AcDbEntity
  8
DRAFT
100
AcDbLine
 62
7
  6
CONTINUOUS
 10
91.2273684211
 20
128.8078947368
 11
91.3163892522
 21
128.7188739057
  0
LINE
  5
71B
100
AcDbEntity
  8
0
100
AcDbLine
 62
7
  6
CONTINUOUS
 10
91.2273684211
 20
128.8078947368
 11
91.3163892522
 21
128.7188739057
  0
LINE
  5
71C
100
AcDbEntity
  8
RACCORDO
100
AcDbLine
 62
7
  6
CONTINUOUS
 10
92.2273684211
 20
128.8078947368
 11
92.2293880971
 21
128.8058750608
  0
LINE
  5
71D
100
AcDbEntity
  8
0
100
AcDbLine
 62
7
  6
CONTINUOUS
 10
92.2273684211
 20
128.8078947368
 11
92.2293880971
 21
128.8058750608
  0
LINE
  5
71E
100
AcDbEntity
  8
ASSI
100
AcDbLine
 62
7
  6
CONTINUOUS
 10
90.2773684211
 20
131.3078947368
 11
90.3753097976
 21
131.2099533603
  0
LINE
  5
71F
100
AcDbEntity
  8
ASSI
100
AcDbLine
 62
7
  6
CONTINUOUS
 10
102.0337051739
 20
86.7002050839
 11
101.9824818312
 21
86.5253498018
  0
LINE
  5
720
100
AcDbEntity
  8
0
100
AcDbLine
 62
7
  6
CONTINUOUS
 10
105.8052468668
 20
101.4691861317
 11
105.8105293092
 21
101.4744685741
  0
LINE
  5
721
100
AcDbEntity
  8
0
100
AcDbLine
 62
7
  6
CONTINUOUS
 10
105.8042850232
 20
101.0482028601
 11
105.8078035381
 21
101.051721375
  0
LINE
  5
722
100
AcDbEntity
  8
0
100
AcDbLine
 62
7
  6
CONTINUOUS
 10
105.813581435
 20
101.0574992719
 11
105.818863794
 21
101.0627816309
  0
LINE
  5
723
100
AcDbEntity
  8
ASSI
100
AcDbLine
 62
253
  6
CONTINUOUS
 10
90.375617255
 20
85.2561054946
 11
90.2773684211
 21
85.1578566606
  0
LINE
  5
724
100
AcDbEntity
  8
0
100
AcDbLine
 62
7
  6
CONTINUOUS
 10
105.8042850232
 20
100.6281814321
 11
105.8078035381
 21
100.631699947
  0
LINE
  5
725
100
AcDbEntity
  8
0
100
AcDbLine
 62
7
  6
CONTINUOUS
 10
105.8219160032
 20
100.6458124121
 11
105.8271982788
 21
100.6510946877
  0
LINE
  5
726
100
AcDbEntity
  8
0
100
AcDbLine
 62
7
  6
CONTINUOUS
 10
105.803657756
 20
100.2075327368
 11
105.8319882786
 21
100.2358632594
  0
LINE
  5
727
100
AcDbEntity
  8
ASSI
100
AcDbLine
 62
253
  6
CONTINUOUS
 10
90.6255773958
 20
85.0061417878
 11
90.5273303448
 21
84.9078947368
  0
LINE
  5
728
100
AcDbEntity
  8
0
100
AcDbLine
 62
7
  6
CONTINUOUS
 10
105.8281998813
 20
99.3920320061
 11
105.8317183983
 21
99.3955505231
  0
LINE
  5
729
100
AcDbEntity
  8
0
100
AcDbLine
 62
7
  6
CONTINUOUS
 10
105.8281998813
 20
98.9720105781
 11
105.8317183983
 21
98.9755290951
  0
LINE
  5
72A
100
AcDbEntity
  8
RACCORDO
100
AcDbLine
 62
253
  6
CONTINUOUS
 10
84.1630656406
 20
89.8221975173
 11
84.5543657812
 21
89.9842764386
  0
LINE
  5
72B
100
AcDbEntity
  8
0
100
AcDbLine
 62
253
  6
CONTINUOUS
 10
84.1630656406
 20
89.8221975173
 11
84.5543657812
 21
89.9842764386
  0
LWPOLYLINE
  5
72C
100
AcDbEntity
  8
0
100
AcDbPolyline
 62
253
  6
CONTINUOUS
 90
83
 70
0
 10
97.4159548981
 20
121.9608384547
 10
97.3952208351
 20
121.9603990043
 10
97.3745051392
 20
121.9590979758
 10
97.3538448937
 20
121.9569613529
 10
97.3332771822
 20
121.9540151193
 10
97.3128390879
 20
121.9502852587
 10
97.2924523575
 20
121.945769101
 10
97.2722540924
 20
121.9405037366
 10
97.2522641951
 20
121.9345060652
 10
97.2325025681
 20
121.9277929864
 10
97.2129891138
 20
121.9203814
 10
97.1932531944
 20
121.9120697595
 10
97.1738284461
 20
121.9030519248
 10
97.1547439825
 20
121.8933388615
 10
97.1360289168
 20
121.8829415354
 10
97.1177123625
 20
121.8718709121
 10
97.1025855742
 20
121.8620115551
 10
97.0877802174
 20
121.8516839699
 10
97.073313148
 20
121.8408916741
 10
97.0592649205
 20
121.8296888632
 10
97.0455920275
 20
121.8180270593
 10
97.0323178437
 20
121.8059043286
 10
97.0167208403
 20
121.7905216136
 10
97.0017750002
 20
121.7744894039
 10
96.9875054281
 20
121.7578447459
 10
96.9739372286
 20
121.7406246861
 10
96.9610955064
 20
121.7228662711
 10
96.9489025737
 20
121.7044467406
 10
96.937481985
 20
121.6855432202
 10
96.9268416264
 20
121.6661816169
 10
96.9169893844
 20
121.6463878375
 10
96.9079331453
 20
121.626187789
 10
96.8996383036
 20
121.60549619
 10
96.8921671197
 20
121.5844617001
 10
96.8855305301
 20
121.5631259693
 10
96.8797394719
 20
121.5415306476
 10
96.8748048816
 20
121.519717385
 10
96.8707376961
 20
121.4977278316
 10
96.8675488522
 20
121.4756036373
 10
96.8652492867
 20
121.4533864522
 10
96.8638499364
 20
121.4311179263
 10
96.8633617379
 20
121.4088397096
 10
96.863797289
 20
121.3864517312
 10
96.8651537266
 20
121.3641238382
 10
96.8674182512
 20
121.3418837546
 10
96.8705780636
 20
121.3197592047
 10
96.8746203645
 20
121.2977779125
 10
96.87951448
 20
121.2760449282
 10
96.8852643306
 20
121.2545176313
 10
96.8918620323
 20
121.2332319205
 10
96.899299701
 20
121.2122236946
 10
96.9075694526
 20
121.1915288524
 10
96.9166069764
 20
121.1713023488
 10
96.926449405
 20
121.1514561363
 10
96.9370871525
 20
121.1320253377
 10
96.9485106327
 20
121.1130450756
 10
96.9607102595
 20
121.0945504729
 10
96.9735666912
 20
121.0767189641
 10
96.9871526809
 20
121.0594347118
 10
97.001443493
 20
121.0427325242
 10
97.0164143918
 20
121.0266472095
 10
97.0320406416
 20
121.011213576
 10
97.0453289509
 20
120.9990611233
 10
97.0590179441
 20
120.9873696599
 10
97.0730839789
 20
120.9761382529
 10
97.0875667117
 20
120.965321783
 10
97.1023889563
 20
120.9549716441
 10
97.1175338088
 20
120.9450911252
 10
97.135867178
 20
120.934000498
 10
97.1546002613
 20
120.9235844596
 10
97.1737038429
 20
120.9138540659
 10
97.1931487074
 20
120.9048203731
 10
97.212905639
 20
120.8964944371
 10
97.2324313764
 20
120.8890737304
 10
97.2522057583
 20
120.8823525205
 10
97.2722088448
 20
120.8763477483
 10
97.2924206962
 20
120.8710763549
 10
97.3128213725
 20
120.8665552814
 10
97.3332652318
 20
120.8628230548
 10
97.3538388459
 20
120.8598750188
 10
97.3745050873
 20
120.8577372013
 10
97.3952268284
 20
120.8564356298
 10
97.4159669416
 20
120.8559963323
  0
LWPOLYLINE
  5
72D
100
AcDbEntity
  8
0
100
AcDbPolyline
 62
253
  6
CONTINUOUS
 90
41
 70
0
 10
100.7237059109
 20
122.5481698167
 10
100.6928650907
 20
122.5477771067
 10
100.6620331361
 20
122.5465898649
 10
100.6312360606
 20
122.5445944239
 10
100.6004998774
 20
122.5417771159
 10
100.5698505998
 20
122.5381242733
 10
100.5396317207
 20
122.5336745492
 10
100.5095500523
 20
122.5283861409
 10
100.4796322256
 20
122.5222519765
 10
100.4499048712
 20
122.5152649837
 10
100.4203946201
 20
122.5074180908
 10
100.3908619283
 20
122.4986263164
 10
100.3615960634
 20
122.4889760536
 10
100.3326156694
 20
122.4784916127
 10
100.3039393898
 20
122.4671973039
 10
100.2755858685
 20
122.4551174376
 10
100.2475672613
 20
122.4422726274
 10
100.2199038853
 20
122.4286845274
 10
100.192609431
 20
122.4143714045
 10
100.1656975887
 20
122.3993515257
 10
100.139182049
 20
122.3836431579
 10
100.1132921089
 20
122.3674026937
 10
100.0878195787
 20
122.3505157952
 10
100.062778669
 20
122.3329951442
 10
100.0381835905
 20
122.3148534225
 10
100.0140485538
 20
122.2961033119
 10
99.9906664375
 20
122.2769902063
 10
99.9677642878
 20
122.2573048996
 10
99.9453590154
 20
122.2370568337
 10
99.9234675312
 20
122.2162554505
 10
99.9021067459
 20
122.1949101919
 10
99.881752564
 20
122.1735240623
 10
99.8619417811
 20
122.1516335519
 10
99.842694351
 20
122.1292451305
 10
99.8240302277
 20
122.1063652676
 10
99.805969365
 20
122.0830004328
 10
99.7887396828
 20
122.0594486362
 10
99.7721463703
 20
122.0354431742
 10
99.7562175228
 20
122.0109974127
 10
99.7409812356
 20
121.9861247176
 10
99.7264656041
 20
121.9608384547
  0
LINE
  5
72E
100
AcDbEntity
  8
RACCORDO
100
AcDbLine
 62
7
  6
CONTINUOUS
 10
104.2273684211
 20
121.9078947368
 11
104.3773684211
 21
121.9078947368
  0
LINE
  5
72F
100
AcDbEntity
  8
0
100
AcDbLine
 62
253
  6
CONTINUOUS
 10
97.4159544211
 20
121.9608377368
 11
99.7264644211
 21
121.9608377368
  0
LINE
  5
730
100
AcDbEntity
  8
SMUSSO
100
AcDbLine
 62
7
  6
CONTINUOUS
 10
94.7273684211
 20
122.2578947368
 11
87.7273684211
 21
122.2578947368
  0
LINE
  5
731
100
AcDbEntity
  8
0
100
AcDbLine
 62
7
  6
CONTINUOUS
 10
94.7273684211
 20
122.2578947368
 11
87.7273684211
 21
122.2578947368
  0
LINE
  5
732
100
AcDbEntity
  8
INCISIONI
100
AcDbLine
 62
253
  6
CONTINUOUS
 10
105.8321064831
 20
122.2988297368
 11
105.7815052317
 21
122.2988297368
  0
LINE
  5
733
100
AcDbEntity
  8
0
100
AcDbLine
 62
253
  6
CONTINUOUS
 10
105.7272548627
 20
122.3364661399
 11
105.7534334723
 21
122.3364661399
  0
LINE
  5
734
100
AcDbEntity
  8
0
100
AcDbLine
 62
7
  6
CONTINUOUS
 10
94.7273684211
 20
122.4578947368
 11
87.7273684211
 21
122.4578947368
  0
LINE
  5
735
100
AcDbEntity
  8
RACCORDO
100
AcDbLine
 62
253
  6
CONTINUOUS
 10
84.5543657812
 20
127.8315130351
 11
84.1630656406
 21
127.9935919564
  0
LINE
  5
736
100
AcDbEntity
  8
0
100
AcDbLine
 62
253
  6
CONTINUOUS
 10
84.5543657812
 20
127.8315130351
 11
84.1630656406
 21
127.9935919564
  0
LINE
  5
737
100
AcDbEntity
  8
ASSI
100
AcDbLine
 62
253
  6
CONTINUOUS
 10
90.2773684211
 20
132.6579328131
 11
90.3756172551
 21
132.559683979
  0
LINE
  5
738
100
AcDbEntity
  8
ASSI
100
AcDbLine
 62
253
  6
CONTINUOUS
 10
90.5273303448
 20
132.9078947368
 11
90.6255773958
 21
132.8096476859
  0
LINE
  5
739
100
AcDbEntity
  8
ASSI
100
AcDbLine
 62
7
  6
CONTINUOUS
 10
102.0337051739
 20
131.1155843897
 11
101.9824818312
 21
131.2904396719
  0
LINE
  5
73A
100
AcDbEntity
  8
INCISIONI
100
AcDbLine
 62
253
  6
CONTINUOUS
 10
105.8145449168
 20
120.6580567368
 11
105.7815052317
 21
120.7886737368
  0
LINE
  5
73B
100
AcDbEntity
  8
INCISIONI
100
AcDbLine
 62
253
  6
CONTINUOUS
 10
105.7815052317
 20
121.3677217368
 11
105.8321034469
 21
121.1058997368
  0
LINE
  5
73C
100
AcDbEntity
  8
0
100
AcDbLine
 62
7
  6
CONTINUOUS
 10
105.7969054605
 20
98.5206947293
 11
105.8075884487
 21
98.5313777175
  0
LINE
  5
73D
100
AcDbEntity
  8
0
100
AcDbLine
 62
7
  6
CONTINUOUS
 10
105.8281452608
 20
98.5519345295
 11
105.8316595517
 21
98.5554488205
  0
LINE
  5
73E
100
AcDbEntity
  8
0
100
AcDbLine
 62
7
  6
CONTINUOUS
 10
105.782457394
 20
98.0862252348
 11
105.7902905658
 21
98.0940584065
  0
LINE
  5
73F
100
AcDbEntity
  8
0
100
AcDbLine
 62
7
  6
CONTINUOUS
 10
105.8065056726
 20
98.1102735134
 11
105.8108943462
 21
98.1146621869
  0
LINE
  5
740
100
AcDbEntity
  8
0
100
AcDbLine
 62
7
  6
CONTINUOUS
 10
105.8255358981
 20
98.1293037388
 11
105.8297157657
 21
98.1334836064
  0
LINE
  5
741
100
AcDbEntity
  8
0
100
AcDbLine
 62
7
  6
CONTINUOUS
 10
105.7812384425
 20
97.2449634272
 11
105.8318859532
 21
97.2956109379
  0
LINE
  5
742
100
AcDbEntity
  8
0
100
AcDbLine
 62
7
  6
CONTINUOUS
 10
105.804081953
 20
96.8477855097
 11
105.8089979426
 21
96.8527014993
  0
LINE
  5
743
100
AcDbEntity
  8
0
100
AcDbLine
 62
7
  6
CONTINUOUS
 10
105.7966225091
 20
96.4203046378
 11
105.8016868245
 21
96.4253689531
  0
LINE
  5
744
100
AcDbEntity
  8
0
100
AcDbLine
 62
7
  6
CONTINUOUS
 10
105.8113109072
 20
96.4349930358
 11
105.8162015104
 21
96.439883639
  0
LINE
  5
745
100
AcDbEntity
  8
0
100
AcDbLine
 62
7
  6
CONTINUOUS
 10
105.7891630652
 20
95.9928237658
 11
105.7942271401
 21
95.9978878407
  0
LINE
  5
746
100
AcDbEntity
  8
0
100
AcDbLine
 62
7
  6
CONTINUOUS
 10
105.8185146986
 20
96.0221753993
 11
105.8234050782
 21
96.0270657788
  0
LINE
  5
747
100
AcDbEntity
  8
ASSI
100
AcDbLine
 62
7
  6
CONTINUOUS
 10
85.3095749707
 20
88.0852812001
 11
85.1035543426
 21
88.0166216046
  0
LINE
  5
748
100
AcDbEntity
  8
0
100
AcDbLine
 62
253
  6
CONTINUOUS
 10
105.7534334723
 20
124.0507518414
 11
105.7272548627
 21
124.0507518414
  0
LINE
  5
749
100
AcDbEntity
  8
0
100
AcDbLine
 62
253
  6
CONTINUOUS
 10
105.7272548627
 20
124.9078947368
 11
105.7534334723
 21
124.9078947368
  0
LINE
  5
74A
100
AcDbEntity
  8
0
100
AcDbLine
 62
7
  6
CONTINUOUS
 10
87.7273684211
 20
125.4578947369
 11
94.7273684211
 21
125.4578947369
  0
LINE
  5
74B
100
AcDbEntity
  8
SMUSSO
100
AcDbLine
 62
7
  6
CONTINUOUS
 10
87.7273684211
 20
125.5578947368
 11
94.7273684211
 21
125.5578947368
  0
LINE
  5
74C
100
AcDbEntity
  8
0
100
AcDbLine
 62
7
  6
CONTINUOUS
 10
87.7273684211
 20
125.5578947368
 11
94.7273684211
 21
125.5578947368
  0
LINE
  5
74D
100
AcDbEntity
  8
ASSI
100
AcDbLine
 62
7
  6
CONTINUOUS
 10
104.0773684211
 20
126.0078947368
 11
105.5998328887
 21
126.0078947368
  0
LINE
  5
74E
100
AcDbEntity
  8
0
100
AcDbLine
 62
7
  6
CONTINUOUS
 10
104.0773684211
 20
126.0078947368
 11
105.5998328887
 21
126.0078947368
  0
LINE
  5
74F
100
AcDbEntity
  8
DRAFT
100
AcDbLine
 62
7
  6
CONTINUOUS
 10
104.3773684211
 20
121.9078947368
 11
104.2273684211
 21
121.9578845822
  0
LINE
  5
750
100
AcDbEntity
  8
ASSI
100
AcDbLine
 62
7
  6
CONTINUOUS
 10
85.3095749707
 20
129.7305082735
 11
85.1035543426
 21
129.7991678691
  0
LINE
  5
751
100
AcDbEntity
  8
0
100
AcDbLine
 62
7
  6
CONTINUOUS
 10
105.7817036213
 20
95.5653428939
 11
105.7867674557
 21
95.5704067283
  0
LINE
  5
752
100
AcDbEntity
  8
0
100
AcDbLine
 62
7
  6
CONTINUOUS
 10
105.8257184901
 20
95.6093577627
 11
105.8306086459
 21
95.6142479185
  0
LINE
  5
753
100
AcDbEntity
  8
ASSI
100
AcDbLine
 62
253
  6
CONTINUOUS
 10
95.5438940143
 20
85.1743822539
 11
95.5273684211
 21
85.1578566606
  0
LINE
  5
754
100
AcDbEntity
  8
ASSI
100
AcDbLine
 62
253
  6
CONTINUOUS
 10
95.793741634
 20
84.924306026
 11
95.7773303448
 21
84.9078947368
  0
LINE
  5
755
100
AcDbEntity
  8
0
100
AcDbLine
 62
7
  6
CONTINUOUS
 10
105.7813655639
 20
94.7249619805
 11
105.8319230688
 21
94.7755194854
  0
LINE
  5
756
100
AcDbEntity
  8
0
100
AcDbLine
 62
7
  6
CONTINUOUS
 10
105.7813655639
 20
94.3049405525
 11
105.7848840789
 21
94.3084590674
  0
LINE
  5
757
100
AcDbEntity
  8
0
100
AcDbLine
 62
7
  6
CONTINUOUS
 10
105.8284045539
 20
94.3519795425
 11
105.8319230688
 21
94.3554980574
  0
LINE
  5
758
100
AcDbEntity
  8
0
100
AcDbLine
 62
7
  6
CONTINUOUS
 10
105.7813655639
 20
93.8849191244
 11
105.7848840789
 21
93.8884376394
  0
LINE
  5
759
100
AcDbEntity
  8
0
100
AcDbLine
 62
7
  6
CONTINUOUS
 10
105.8043031884
 20
93.9078567489
 11
105.8078018978
 21
93.9113554583
  0
LINE
  5
75A
100
AcDbEntity
  8
0
100
AcDbLine
 62
7
  6
CONTINUOUS
 10
105.8284045539
 20
93.9319581144
 11
105.8319230688
 21
93.9354766293
  0
LINE
  5
75B
100
AcDbEntity
  8
0
100
AcDbLine
 62
7
  6
CONTINUOUS
 10
105.8368455556
 20
93.9403991161
 11
105.8414725526
 21
93.9450261131
  0
LINE
  5
75C
100
AcDbEntity
  8
ASSI
100
AcDbLine
 62
7
  6
CONTINUOUS
 10
99.8528177718
 20
87.8333440876
 11
100.1855627693
 21
88.166089085
  0
LINE
  5
75D
100
AcDbEntity
  8
0
100
AcDbLine
 62
7
  6
CONTINUOUS
 10
105.7813655639
 20
93.4648976964
 11
105.7848840789
 21
93.4684162113
  0
LINE
  5
75E
100
AcDbEntity
  8
0
100
AcDbLine
 62
7
  6
CONTINUOUS
 10
105.8043031884
 20
93.4878353208
 11
105.8078018978
 21
93.4913340303
  0
LINE
  5
75F
100
AcDbEntity
  8
0
100
AcDbLine
 62
7
  6
CONTINUOUS
 10
105.8284045539
 20
93.5119366864
 11
105.8319230688
 21
93.5154552013
  0
LINE
  5
760
100
AcDbEntity
  8
0
100
AcDbLine
 62
7
  6
CONTINUOUS
 10
105.8437859953
 20
93.5273181278
 11
105.8486761103
 21
93.5322082427
  0
LINE
  5
761
100
AcDbEntity
  8
0
100
AcDbLine
 62
7
  6
CONTINUOUS
 10
105.7813655639
 20
93.0448762684
 11
105.7848840789
 21
93.0483947833
  0
LINE
  5
762
100
AcDbEntity
  8
0
100
AcDbLine
 62
7
  6
CONTINUOUS
 10
105.8043031884
 20
93.0678138928
 11
105.8078018978
 21
93.0713126022
  0
LINE
  5
763
100
AcDbEntity
  8
0
100
AcDbLine
 62
7
  6
CONTINUOUS
 10
105.8284045539
 20
93.0919152584
 11
105.8319230688
 21
93.0954337733
  0
LINE
  5
764
100
AcDbEntity
  8
ASSI
100
AcDbLine
 62
7
  6
CONTINUOUS
 10
102.0273684211
 20
89.2078947368
 11
101.9400997431
 21
89.1206260589
  0
LINE
  5
765
100
AcDbEntity
  8
DRAFT
100
AcDbLine
 62
7
  6
CONTINUOUS
 10
102.1273684211
 20
89.2078947368
 11
102.2163892522
 21
89.296915568
  0
LINE
  5
766
100
AcDbEntity
  8
0
100
AcDbLine
 62
7
  6
CONTINUOUS
 10
102.1273684211
 20
89.2078947368
 11
102.2163892522
 21
89.296915568
  0
LINE
  5
767
100
AcDbEntity
  8
SMUSSO
100
AcDbLine
 62
7
  6
CONTINUOUS
 10
87.1500181519
 20
126.135245006
 11
95.3047186902
 21
126.135245006
  0
LINE
  5
768
100
AcDbEntity
  8
0
100
AcDbLine
 62
7
  6
CONTINUOUS
 10
87.1500181519
 20
126.135245006
 11
95.3047186902
 21
126.135245006
  0
LINE
  5
769
100
AcDbEntity
  8
RACCORDO
100
AcDbLine
 62
253
  6
CONTINUOUS
 10
84.9685142035
 20
126.4175128109
 11
83.9686665083
 21
126.4175128109
  0
LINE
  5
76A
100
AcDbEntity
  8
0
100
AcDbLine
 62
253
  6
CONTINUOUS
 10
84.9685142035
 20
126.4175128109
 11
83.9686665083
 21
126.4175128109
  0
LINE
  5
76B
100
AcDbEntity
  8
RACCORDO
100
AcDbLine
 62
253
  6
CONTINUOUS
 10
104.4862226386
 20
126.4175128109
 11
105.4860703338
 21
126.4175128109
  0
LINE
  5
76C
100
AcDbEntity
  8
0
100
AcDbLine
 62
253
  6
CONTINUOUS
 10
104.4862226386
 20
126.4175128109
 11
105.4860703338
 21
126.4175128109
  0
LINE
  5
76D
100
AcDbEntity
  8
RACCORDO
100
AcDbLine
 62
253
  6
CONTINUOUS
 10
104.0156071526
 20
127.3022787726
 11
85.4391296895
 21
127.3022787726
  0
LINE
  5
76E
100
AcDbEntity
  8
0
100
AcDbLine
 62
253
  6
CONTINUOUS
 10
104.0156071526
 20
127.3022787726
 11
85.4391296895
 21
127.3022787726
  0
LINE
  5
76F
100
AcDbEntity
  8
ASSI
100
AcDbLine
 62
253
  6
CONTINUOUS
 10
95.5273684211
 20
132.6579328131
 11
95.5438940143
 21
132.6414072198
  0
LINE
  5
770
100
AcDbEntity
  8
ASSI
100
AcDbLine
 62
253
  6
CONTINUOUS
 10
95.7773303448
 20
132.9078947368
 11
95.793741634
 21
132.8914834477
  0
LINE
  5
771
100
AcDbEntity
  8
ASSI
100
AcDbLine
 62
7
  6
CONTINUOUS
 10
99.8528177718
 20
129.9824453861
 11
100.1855627693
 21
129.6497003886
  0
LINE
  5
772
100
AcDbEntity
  8
ASSI
100
AcDbLine
 62
7
  6
CONTINUOUS
 10
101.9400997431
 20
128.6951634148
 11
102.0273684211
 21
128.6078947368
  0
LINE
  5
773
100
AcDbEntity
  8
DRAFT
100
AcDbLine
 62
7
  6
CONTINUOUS
 10
102.1273684211
 20
128.6078947368
 11
102.2163892522
 21
128.5188739057
  0
LINE
  5
774
100
AcDbEntity
  8
0
100
AcDbLine
 62
7
  6
CONTINUOUS
 10
102.1273684211
 20
128.6078947368
 11
102.2163892522
 21
128.5188739057
  0
LWPOLYLINE
  5
775
100
AcDbEntity
  8
ASSI
100
AcDbPolyline
 62
253
  6
CONTINUOUS
 90
10
 70
0
 10
101.940535878
 20
133.1947577409
 10
101.9405770055
 20
133.1946782004
 10
101.9406190084
 20
133.1944610151
 10
101.9406618867
 20
133.1941061852
 10
101.940705899
 20
133.1936203586
 10
101.9407507866
 20
133.1929968874
 10
101.9407957738
 20
133.1922158271
 10
101.9408408851
 20
133.1912721037
 10
101.940886096
 20
133.1901707912
 10
101.9409305571
 20
133.1889071676
  0
LWPOLYLINE
  5
776
100
AcDbEntity
  8
RACCORDO
100
AcDbPolyline
 62
253
  6
CONTINUOUS
 90
37
 70
0
 10
104.9003710611
 20
89.9842764385
 10
104.9308798086
 20
90.0154619097
 10
104.9607007833
 20
90.0473051116
 10
104.9898198173
 20
90.0797908729
 10
105.0182229807
 20
90.1129036006
 10
105.0458968831
 20
90.1466276337
 10
105.0728286548
 20
90.1809472716
 10
105.0990055863
 20
90.2158463295
 10
105.124415111
 20
90.2513080649
 10
105.1490450932
 20
90.2873155429
 10
105.1728837971
 20
90.3238515982
 10
105.1959199053
 20
90.3608988757
 10
105.2181424756
 20
90.3984397765
 10
105.2395409361
 20
90.4364564388
 10
105.2601051068
 20
90.4749307737
 10
105.2798252177
 20
90.5138445042
 10
105.2986918925
 20
90.5531791316
 10
105.3166961459
 20
90.5929159261
 10
105.333829403
 20
90.6330359641
 10
105.3500835117
 20
90.6735201568
 10
105.3654507388
 20
90.7143492423
 10
105.3799237668
 20
90.7555037767
 10
105.3934957053
 20
90.7969641625
 10
105.4061601039
 20
90.8387106889
 10
105.4179109472
 20
90.8807235246
 10
105.428742643
 20
90.9229826808
 10
105.4386500364
 20
90.9654680512
 10
105.4476284202
 20
91.0081594536
 10
105.4556735249
 20
91.0510366125
 10
105.4627815114
 20
91.0940790926
 10
105.4689489864
 20
91.1372663382
 10
105.474172999
 20
91.1805776448
 10
105.4784510891
 20
91.2239925609
 10
105.4817812509
 20
91.2674908245
 10
105.4841618816
 20
91.3110518728
 10
105.4855918112
 20
91.35465485
 10
105.4860703339
 20
91.3982790101
  0
LWPOLYLINE
  5
777
100
AcDbEntity
  8
0
100
AcDbPolyline
 62
253
  6
CONTINUOUS
 90
37
 70
0
 10
104.9003710611
 20
89.9842764385
 10
104.9308798086
 20
90.0154619097
 10
104.9607007833
 20
90.0473051116
 10
104.9898198173
 20
90.0797908729
 10
105.0182229807
 20
90.1129036006
 10
105.0458968831
 20
90.1466276337
 10
105.0728286548
 20
90.1809472716
 10
105.0990055863
 20
90.2158463295
 10
105.124415111
 20
90.2513080649
 10
105.1490450932
 20
90.2873155429
 10
105.1728837971
 20
90.3238515982
 10
105.1959199053
 20
90.3608988757
 10
105.2181424756
 20
90.3984397765
 10
105.2395409361
 20
90.4364564388
 10
105.2601051068
 20
90.4749307737
 10
105.2798252177
 20
90.5138445042
 10
105.2986918925
 20
90.5531791316
 10
105.3166961459
 20
90.5929159261
 10
105.333829403
 20
90.6330359641
 10
105.3500835117
 20
90.6735201568
 10
105.3654507388
 20
90.7143492423
 10
105.3799237668
 20
90.7555037767
 10
105.3934957053
 20
90.7969641625
 10
105.4061601039
 20
90.8387106889
 10
105.4179109472
 20
90.8807235246
 10
105.428742643
 20
90.9229826808
 10
105.4386500364
 20
90.9654680512
 10
105.4476284202
 20
91.0081594536
 10
105.4556735249
 20
91.0510366125
 10
105.4627815114
 20
91.0940790926
 10
105.4689489864
 20
91.1372663382
 10
105.474172999
 20
91.1805776448
 10
105.4784510891
 20
91.2239925609
 10
105.4817812509
 20
91.2674908245
 10
105.4841618816
 20
91.3110518728
 10
105.4855918112
 20
91.35465485
 10
105.4860703339
 20
91.3982790101
  0
LWPOLYLINE
  5
778
100
AcDbEntity
  8
RACCORDO
100
AcDbPolyline
 62
253
  6
CONTINUOUS
 90
37
 70
0
 10
104.1933740289
 20
90.6912775774
 10
104.2086383744
 20
90.7068794807
 10
104.2235456917
 20
90.7227957061
 10
104.2380959807
 20
90.7390262536
 10
104.2522960453
 20
90.7555793656
 10
104.2661390817
 20
90.7724467997
 10
104.2796046779
 20
90.7896038283
 10
104.2926920811
 20
90.8070506512
 10
104.3054020441
 20
90.8247870685
 10
104.317716414
 20
90.8427877536
 10
104.329634614
 20
90.8610530695
 10
104.341157221
 20
90.8795826531
 10
104.3522678119
 20
90.8983500882
 10
104.3629658007
 20
90.9173557132
 10
104.3732517734
 20
90.9365991897
 10
104.3831110657
 20
90.9560530854
 10
104.3925430728
 20
90.9757177084
 10
104.4015483995
 20
90.9955927506
 10
104.4101141964
 20
91.0156498564
 10
104.4182398356
 20
91.0358892867
 10
104.4259259449
 20
91.0563107806
 10
104.4331615577
 20
91.0768851989
 10
104.4399460284
 20
91.0976127521
 10
104.4462800026
 20
91.1184932297
 10
104.4521544505
 20
91.139496862
 10
104.4575687175
 20
91.1606238231
 10
104.4625234582
 20
91.1818739388
 10
104.4670116065
 20
91.2032169165
 10
104.4710324983
 20
91.2246529069
 10
104.4745867977
 20
91.2461817594
 10
104.4776694308
 20
91.2677727294
 10
104.4802797229
 20
91.2894261193
 10
104.4824183488
 20
91.3111416267
 10
104.4840822583
 20
91.3328876
 10
104.4852704347
 20
91.3546534885
 10
104.4859838948
 20
91.3764498427
 10
104.4862226386
 20
91.3982766628
  0
LWPOLYLINE
  5
779
100
AcDbEntity
  8
0
100
AcDbPolyline
 62
253
  6
CONTINUOUS
 90
37
 70
0
 10
104.1933740289
 20
90.6912775774
 10
104.2086383744
 20
90.7068794807
 10
104.2235456917
 20
90.7227957061
 10
104.2380959807
 20
90.7390262536
 10
104.2522960453
 20
90.7555793656
 10
104.2661390817
 20
90.7724467997
 10
104.2796046779
 20
90.7896038283
 10
104.2926920811
 20
90.8070506512
 10
104.3054020441
 20
90.8247870685
 10
104.317716414
 20
90.8427877536
 10
104.329634614
 20
90.8610530695
 10
104.341157221
 20
90.8795826531
 10
104.3522678119
 20
90.8983500882
 10
104.3629658007
 20
90.9173557132
 10
104.3732517734
 20
90.9365991897
 10
104.3831110657
 20
90.9560530854
 10
104.3925430728
 20
90.9757177084
 10
104.4015483995
 20
90.9955927506
 10
104.4101141964
 20
91.0156498564
 10
104.4182398356
 20
91.0358892867
 10
104.4259259449
 20
91.0563107806
 10
104.4331615577
 20
91.0768851989
 10
104.4399460284
 20
91.0976127521
 10
104.4462800026
 20
91.1184932297
 10
104.4521544505
 20
91.139496862
 10
104.4575687175
 20
91.1606238231
 10
104.4625234582
 20
91.1818739388
 10
104.4670116065
 20
91.2032169165
 10
104.4710324983
 20
91.2246529069
 10
104.4745867977
 20
91.2461817594
 10
104.4776694308
 20
91.2677727294
 10
104.4802797229
 20
91.2894261193
 10
104.4824183488
 20
91.3111416267
 10
104.4840822583
 20
91.3328876
 10
104.4852704347
 20
91.3546534885
 10
104.4859838948
 20
91.3764498427
 10
104.4862226386
 20
91.3982766628
  0
LINE
  5
77A
100
AcDbEntity
  8
RACCORDO
100
AcDbLine
 62
253
  6
CONTINUOUS
 10
104.0156071526
 20
90.5135107011
 11
104.1933740289
 21
90.6912775774
  0
LINE
  5
77B
100
AcDbEntity
  8
0
100
AcDbLine
 62
253
  6
CONTINUOUS
 10
104.0156071526
 20
90.5135107011
 11
104.1933740289
 21
90.6912775774
  0
LINE
  5
77C
100
AcDbEntity
  8
ASSI
100
AcDbLine
 62
7
  6
CONTINUOUS
 10
102.1057265701
 20
88.0862528859
 11
101.9400997431
 21
87.9206260589
  0
LINE
  5
77D
100
AcDbEntity
  8
RACCORDO
100
AcDbLine
 62
253
  6
CONTINUOUS
 10
104.722606238
 20
89.8065116157
 11
104.9003710609
 21
89.9842764386
  0
LINE
  5
77E
100
AcDbEntity
  8
0
100
AcDbLine
 62
253
  6
CONTINUOUS
 10
104.722606238
 20
89.8065116157
 11
104.9003710609
 21
89.9842764386
  0
LINE
  5
77F
100
AcDbEntity
  8
RACCORDO
100
AcDbLine
 62
7
  6
CONTINUOUS
 10
104.8123859664
 20
89.5897641777
 11
103.2805165255
 21
88.0578947368
  0
LINE
  5
780
100
AcDbEntity
  8
0
100
AcDbLine
 62
7
  6
CONTINUOUS
 10
104.8123859664
 20
89.5897641777
 11
103.2805165255
 21
88.0578947368
  0
LINE
  5
781
100
AcDbEntity
  8
ASSI
100
AcDbLine
 62
7
  6
CONTINUOUS
 10
105.465618141
 20
90.0208296463
 11
105.7924582912
 21
90.3476697965
  0
LINE
  5
782
100
AcDbEntity
  8
ASSI
100
AcDbLine
 62
7
  6
CONTINUOUS
 10
101.9824818312
 20
86.5253498018
 11
102.9599133561
 21
87.5027813267
  0
LINE
  5
783
100
AcDbEntity
  8
RACCORDO
100
AcDbLine
 62
7
  6
CONTINUOUS
 10
103.5273684211
 20
88.0578947368
 11
105.2916712015
 21
89.8221975173
  0
LINE
  5
784
100
AcDbEntity
  8
0
100
AcDbLine
 62
7
  6
CONTINUOUS
 10
103.5273684211
 20
88.0578947368
 11
105.2916712015
 21
89.8221975173
  0
LINE
  5
785
100
AcDbEntity
  8
ASSI
100
AcDbLine
 62
7
  6
CONTINUOUS
 10
105.2916712015
 20
89.8221975173
 11
105.8099133561
 21
90.3404396719
  0
LINE
  5
786
100
AcDbEntity
  8
ASSI
100
AcDbLine
 62
7
  6
CONTINUOUS
 10
99.8528177718
 20
88.8206260589
 11
100.1862583591
 21
88.9873336555
  0
LWPOLYLINE
  5
787
100
AcDbEntity
  8
ASSI
100
AcDbPolyline
 62
7
  6
CONTINUOUS
 90
7
 70
0
 10
99.0794270445
 20
131.2099533603
 10
99.0766201995
 20
131.209239138
 10
99.0697311729
 20
131.2085439044
 10
99.0587599647
 20
131.2078676595
 10
99.0434457061
 20
131.2072011614
 10
99.0240492659
 20
131.2065536519
 10
99.0013532507
 20
131.2059528573
  0
LINE
  5
788
100
AcDbEntity
  8
ASSI
100
AcDbLine
 62
253
  6
CONTINUOUS
 10
91.670173355
 20
130.1200997962
 11
91.4202114312
 21
130.1157366946
  0
LWPOLYLINE
  5
789
100
AcDbEntity
  8
RACCORDO
100
AcDbPolyline
 62
253
  6
CONTINUOUS
 90
31
 70
0
 10
85.4391296895
 20
128.3021264677
 10
85.4129576294
 20
128.301780653
 10
85.3868035004
 20
128.3007500496
 10
85.3606852218
 20
128.2990353638
 10
85.3346206877
 20
128.2966377702
 10
85.308627756
 20
128.2935589116
 10
85.282724235
 20
128.2898008973
 10
85.256927872
 20
128.2853663021
 10
85.2312563409
 20
128.2802581643
 10
85.2057272301
 20
128.2744799836
 10
85.1803580303
 20
128.2680357187
 10
85.1551661227
 20
128.260929785
 10
85.130168767
 20
128.2531670507
 10
85.1053830897
 20
128.2447528345
 10
85.0808260721
 20
128.2356929012
 10
85.0565145391
 20
128.225993458
 10
85.0324651471
 20
128.2156611502
 10
85.0086943731
 20
128.2047030568
 10
84.9852185033
 20
128.1931266856
 10
84.9620536216
 20
128.1809399679
 10
84.9392155989
 20
128.1681512532
 10
84.9167200823
 20
128.1547693033
 10
84.8945824842
 20
128.1408032867
 10
84.8728179716
 20
128.1262627719
 10
84.8514414561
 20
128.1111577211
 10
84.8304675833
 20
128.0954984831
 10
84.8099107232
 20
128.0792957866
 10
84.7897849598
 20
128.0625607325
 10
84.7701040818
 20
128.0453047865
 10
84.7508815733
 20
128.0275397712
 10
84.7321306041
 20
128.009277858
  0
LWPOLYLINE
  5
78A
100
AcDbEntity
  8
0
100
AcDbPolyline
 62
253
  6
CONTINUOUS
 90
31
 70
0
 10
85.4391296895
 20
128.3021264677
 10
85.4129576294
 20
128.301780653
 10
85.3868035004
 20
128.3007500496
 10
85.3606852218
 20
128.2990353638
 10
85.3346206877
 20
128.2966377702
 10
85.308627756
 20
128.2935589116
 10
85.282724235
 20
128.2898008973
 10
85.256927872
 20
128.2853663021
 10
85.2312563409
 20
128.2802581643
 10
85.2057272301
 20
128.2744799836
 10
85.1803580303
 20
128.2680357187
 10
85.1551661227
 20
128.260929785
 10
85.130168767
 20
128.2531670507
 10
85.1053830897
 20
128.2447528345
 10
85.0808260721
 20
128.2356929012
 10
85.0565145391
 20
128.225993458
 10
85.0324651471
 20
128.2156611502
 10
85.0086943731
 20
128.2047030568
 10
84.9852185033
 20
128.1931266856
 10
84.9620536216
 20
128.1809399679
 10
84.9392155989
 20
128.1681512532
 10
84.9167200823
 20
128.1547693033
 10
84.8945824842
 20
128.1408032867
 10
84.8728179716
 20
128.1262627719
 10
84.8514414561
 20
128.1111577211
 10
84.8304675833
 20
128.0954984831
 10
84.8099107232
 20
128.0792957866
 10
84.7897849598
 20
128.0625607325
 10
84.7701040818
 20
128.0453047865
 10
84.7508815733
 20
128.0275397712
 10
84.7321306041
 20
128.009277858
  0
LINE
  5
78B
100
AcDbEntity
  8
ASSI
100
AcDbLine
 62
7
  6
CONTINUOUS
 10
100.1855627693
 20
129.6497003886
 11
101.1486023552
 21
129.6503506068
  0
LINE
  5
78C
100
AcDbEntity
  8
ASSI
100
AcDbLine
 62
7
  6
CONTINUOUS
 10
103.5550597385
 20
129.7302034194
 11
104.1451618715
 21
129.7305082735
  0
LINE
  5
78D
100
AcDbEntity
  8
ASSI
100
AcDbLine
 62
7
  6
CONTINUOUS
 10
102.1057265701
 20
129.7295365878
 11
102.1273805573
 21
129.7295458579
  0
LINE
  5
78E
100
AcDbEntity
  8
ASSI
100
AcDbLine
 62
7
  6
CONTINUOUS
 10
100.1862583591
 20
128.8284558182
 11
98.2273641859
 21
128.8279569203
  0
LINE
  5
78F
100
AcDbEntity
  8
ASSI
100
AcDbLine
 62
7
  6
CONTINUOUS
 10
98.2273641859
 20
128.8279569203
 11
97.2273656223
 21
128.827783335
  0
LINE
  5
790
100
AcDbEntity
  8
RACCORDO
100
AcDbLine
 62
253
  6
CONTINUOUS
 10
104.0156071526
 20
128.3021264677
 11
85.4391296895
 21
128.3021264677
  0
LINE
  5
791
100
AcDbEntity
  8
0
100
AcDbLine
 62
253
  6
CONTINUOUS
 10
104.0156071526
 20
128.3021264677
 11
85.4391296895
 21
128.3021264677
  0
LINE
  5
792
100
AcDbEntity
  8
RACCORDO
100
AcDbLine
 62
7
  6
CONTINUOUS
 10
104.105386881
 20
128.5188739057
 11
102.2163892522
 21
128.5188739057
  0
LINE
  5
793
100
AcDbEntity
  8
0
100
AcDbLine
 62
7
  6
CONTINUOUS
 10
104.105386881
 20
128.5188739057
 11
102.2163892522
 21
128.5188739057
  0
LINE
  5
794
100
AcDbEntity
  8
RACCORDO
100
AcDbLine
 62
7
  6
CONTINUOUS
 10
87.2383475899
 20
128.5188739057
 11
85.3493499611
 21
128.5188739057
  0
LINE
  5
795
100
AcDbEntity
  8
0
100
AcDbLine
 62
7
  6
CONTINUOUS
 10
87.2383475899
 20
128.5188739057
 11
85.3493499611
 21
128.5188739057
  0
LINE
  5
796
100
AcDbEntity
  8
DRAFT
100
AcDbLine
 62
7
  6
CONTINUOUS
 10
91.3163892522
 20
128.5188739057
 11
98.1383475899
 21
128.5188739057
  0
LINE
  5
797
100
AcDbEntity
  8
0
100
AcDbLine
 62
7
  6
CONTINUOUS
 10
91.3163892522
 20
128.5188739057
 11
98.1383475899
 21
128.5188739057
  0
LINE
  5
798
100
AcDbEntity
  8
DRAFT
100
AcDbLine
 62
7
  6
CONTINUOUS
 10
102.1273684211
 20
128.6078947368
 11
98.2273684211
 21
128.6078947368
  0
LINE
  5
799
100
AcDbEntity
  8
0
100
AcDbLine
 62
7
  6
CONTINUOUS
 10
102.1273684211
 20
128.6078947368
 11
98.2273684211
 21
128.6078947368
  0
LINE
  5
79A
100
AcDbEntity
  8
DRAFT
100
AcDbLine
 62
7
  6
CONTINUOUS
 10
91.2273684211
 20
128.6078947368
 11
87.3273684211
 21
128.6078947368
  0
LINE
  5
79B
100
AcDbEntity
  8
0
100
AcDbLine
 62
7
  6
CONTINUOUS
 10
91.2273684211
 20
128.6078947368
 11
87.3273684211
 21
128.6078947368
  0
LINE
  5
79C
100
AcDbEntity
  8
ASSI
100
AcDbLine
 62
7
  6
CONTINUOUS
 10
101.9400997431
 20
128.6951634148
 11
101.314637099
 21
128.6951634148
  0
LINE
  5
79D
100
AcDbEntity
  8
ASSI
100
AcDbLine
 62
7
  6
CONTINUOUS
 10
88.1400997431
 20
128.6951634148
 11
87.514637099
 21
128.6951634148
  0
LINE
  5
79E
100
AcDbEntity
  8
DRAFT
100
AcDbLine
 62
7
  6
CONTINUOUS
 10
91.3163892522
 20
128.7188739057
 11
98.1383475899
 21
128.7188739057
  0
LINE
  5
79F
100
AcDbEntity
  8
0
100
AcDbLine
 62
7
  6
CONTINUOUS
 10
91.3163892522
 20
128.7188739057
 11
98.1383475899
 21
128.7188739057
  0
LINE
  5
7A0
100
AcDbEntity
  8
RACCORDO
100
AcDbLine
 62
7
  6
CONTINUOUS
 10
93.1292510228
 20
128.7904396719
 11
96.3254858193
 21
128.7904396719
  0
LINE
  5
7A1
100
AcDbEntity
  8
0
100
AcDbLine
 62
7
  6
CONTINUOUS
 10
93.1292510228
 20
128.7904396719
 11
96.3254858193
 21
128.7904396719
  0
LINE
  5
7A2
100
AcDbEntity
  8
DRAFT
100
AcDbLine
 62
7
  6
CONTINUOUS
 10
91.2273684211
 20
128.8078947368
 11
92.2273684211
 21
128.8078947368
  0
LINE
  5
7A3
100
AcDbEntity
  8
0
100
AcDbLine
 62
7
  6
CONTINUOUS
 10
91.2273684211
 20
128.8078947368
 11
92.2273684211
 21
128.8078947368
  0
LINE
  5
7A4
100
AcDbEntity
  8
DRAFT
100
AcDbLine
 62
7
  6
CONTINUOUS
 10
97.2273684211
 20
128.8078947368
 11
98.2273684211
 21
128.8078947368
  0
LINE
  5
7A5
100
AcDbEntity
  8
0
100
AcDbLine
 62
7
  6
CONTINUOUS
 10
97.2273684211
 20
128.8078947368
 11
98.2273684211
 21
128.8078947368
  0
LINE
  5
7A6
100
AcDbEntity
  8
ASSI
100
AcDbLine
 62
7
  6
CONTINUOUS
 10
91.2273684211
 20
128.9078947368
 11
92.2273684211
 21
128.9078947368
  0
LINE
  5
7A7
100
AcDbEntity
  8
ASSI
100
AcDbLine
 62
7
  6
CONTINUOUS
 10
97.2273684211
 20
128.9078947368
 11
98.2273684211
 21
128.9078947368
  0
LINE
  5
7A8
100
AcDbEntity
  8
ASSI
100
AcDbLine
 62
7
  6
CONTINUOUS
 10
97.2291053933
 20
128.9611407982
 11
97.1685653163
 21
128.9611407982
  0
LINE
  5
7A9
100
AcDbEntity
  8
ASSI
100
AcDbLine
 62
7
  6
CONTINUOUS
 10
92.2861715259
 20
128.9611407982
 11
92.2256314488
 21
128.9611407982
  0
LINE
  5
7AA
100
AcDbEntity
  8
ASSI
100
AcDbLine
 62
7
  6
CONTINUOUS
 10
99.8528177718
 20
128.9951634148
 11
89.6019190703
 21
128.9951634148
  0
LINE
  5
7AB
100
AcDbEntity
  8
ASSI
100
AcDbLine
 62
7
  6
CONTINUOUS
 10
98.0274065031
 20
129.7078947368
 11
91.427330339
 21
129.7078947368
  0
LINE
  5
7AC
100
AcDbEntity
  8
DRAFT
100
AcDbLine
 62
7
  6
CONTINUOUS
 10
85.9273684211
 20
129.7578947368
 11
87.3273684211
 21
129.7578947368
  0
LINE
  5
7AD
100
AcDbEntity
  8
0
100
AcDbLine
 62
7
  6
CONTINUOUS
 10
85.9273684211
 20
129.7578947368
 11
87.3273684211
 21
129.7578947368
  0
LINE
  5
7AE
100
AcDbEntity
  8
DRAFT
100
AcDbLine
 62
7
  6
CONTINUOUS
 10
102.1273684211
 20
129.7578947368
 11
103.5273684211
 21
129.7578947368
  0
LINE
  5
7AF
100
AcDbEntity
  8
0
100
AcDbLine
 62
7
  6
CONTINUOUS
 10
102.1273684211
 20
129.7578947368
 11
103.5273684211
 21
129.7578947368
  0
LINE
  5
7B0
100
AcDbEntity
  8
ASSI
100
AcDbLine
 62
7
  6
CONTINUOUS
 10
104.3511824995
 20
129.7991678691
 11
102.9599133561
 21
129.7991678691
  0
LINE
  5
7B1
100
AcDbEntity
  8
ASSI
100
AcDbLine
 62
7
  6
CONTINUOUS
 10
86.494823486
 20
129.7991678691
 11
85.1035543426
 21
129.7991678691
  0
LINE
  5
7B2
100
AcDbEntity
  8
ASSI
100
AcDbLine
 62
7
  6
CONTINUOUS
 10
102.7679076419
 20
129.8951634148
 11
101.9400997431
 21
129.8951634148
  0
LINE
  5
7B3
100
AcDbEntity
  8
ASSI
100
AcDbLine
 62
7
  6
CONTINUOUS
 10
87.514637099
 20
129.8951634148
 11
86.6868292002
 21
129.8951634148
  0
LINE
  5
7B4
100
AcDbEntity
  8
ASSI
100
AcDbLine
 62
7
  6
CONTINUOUS
 10
88.1400997431
 20
129.9824453861
 11
89.6019190703
 21
129.9824453861
  0
LINE
  5
7B5
100
AcDbEntity
  8
ASSI
100
AcDbLine
 62
7
  6
CONTINUOUS
 10
99.8528177718
 20
129.9824453861
 11
101.314637099
 21
129.9824453861
  0
LINE
  5
7B6
100
AcDbEntity
  8
ASSI
100
AcDbLine
 62
253
  6
CONTINUOUS
 10
102.7679076419
 20
130.1157366946
 11
98.0345254109
 21
130.1157366946
  0
LINE
  5
7B7
100
AcDbEntity
  8
ASSI
100
AcDbLine
 62
253
  6
CONTINUOUS
 10
91.4202114312
 20
130.1157366946
 11
86.6868292002
 21
130.1157366946
  0
LINE
  5
7B8
100
AcDbEntity
  8
ASSI
100
AcDbLine
 62
7
  6
CONTINUOUS
 10
92.2273712198
 20
128.827783335
 11
89.268478483
 21
128.8284558182
  0
LINE
  5
7B9
100
AcDbEntity
  8
ASSI
100
AcDbLine
 62
7
  6
CONTINUOUS
 10
85.3095749707
 20
129.7305082735
 11
85.8996771036
 21
129.7302034194
  0
LINE
  5
7BA
100
AcDbEntity
  8
ASSI
100
AcDbLine
 62
7
  6
CONTINUOUS
 10
87.3273562848
 20
129.7295458579
 11
87.349010272
 21
129.7295365878
  0
LINE
  5
7BB
100
AcDbEntity
  8
ASSI
100
AcDbLine
 62
7
  6
CONTINUOUS
 10
88.3061344869
 20
129.6503506068
 11
89.2691740729
 21
129.6497003886
  0
LINE
  5
7BC
100
AcDbEntity
  8
ASSI
100
AcDbLine
 62
253
  6
CONTINUOUS
 10
97.7845634871
 20
130.1200997962
 11
98.0345254109
 21
130.1157366912
  0
LINE
  5
7BD
100
AcDbEntity
  8
ASSI
100
AcDbLine
 62
7
  6
CONTINUOUS
 10
100.1862583591
 20
128.8284558182
 11
99.8528177718
 21
128.9951634148
  0
LWPOLYLINE
  5
7BE
100
AcDbEntity
  8
RACCORDO
100
AcDbPolyline
 62
253
  6
CONTINUOUS
 90
31
 70
0
 10
104.722606238
 20
128.009277858
 10
104.7038552688
 20
128.0275397712
 10
104.6846327603
 20
128.0453047865
 10
104.6649518823
 20
128.0625607325
 10
104.6448261189
 20
128.0792957866
 10
104.6242692588
 20
128.0954984831
 10
104.603295386
 20
128.1111577211
 10
104.5819188705
 20
128.1262627719
 10
104.5601543579
 20
128.1408032867
 10
104.5380167598
 20
128.1547693033
 10
104.5155212432
 20
128.1681512532
 10
104.4926832205
 20
128.1809399679
 10
104.4695183388
 20
128.1931266856
 10
104.446042469
 20
128.2047030568
 10
104.422271695
 20
128.2156611502
 10
104.398222303
 20
128.225993458
 10
104.37391077
 20
128.2356929012
 10
104.3493537524
 20
128.2447528345
 10
104.3245680751
 20
128.2531670507
 10
104.2995707194
 20
128.260929785
 10
104.2743788118
 20
128.2680357187
 10
104.249009612
 20
128.2744799836
 10
104.2234805012
 20
128.2802581643
 10
104.1978089701
 20
128.2853663021
 10
104.1720126072
 20
128.2898008973
 10
104.1461090861
 20
128.2935589116
 10
104.1201161544
 20
128.2966377702
 10
104.0940516203
 20
128.2990353638
 10
104.0679333417
 20
128.3007500496
 10
104.0417792128
 20
128.301780653
 10
104.0156071526
 20
128.3021264677
  0
LWPOLYLINE
  5
7BF
100
AcDbEntity
  8
0
100
AcDbPolyline
 62
253
  6
CONTINUOUS
 90
31
 70
0
 10
104.722606238
 20
128.009277858
 10
104.7038552688
 20
128.0275397712
 10
104.6846327603
 20
128.0453047865
 10
104.6649518823
 20
128.0625607325
 10
104.6448261189
 20
128.0792957866
 10
104.6242692588
 20
128.0954984831
 10
104.603295386
 20
128.1111577211
 10
104.5819188705
 20
128.1262627719
 10
104.5601543579
 20
128.1408032867
 10
104.5380167598
 20
128.1547693033
 10
104.5155212432
 20
128.1681512532
 10
104.4926832205
 20
128.1809399679
 10
104.4695183388
 20
128.1931266856
 10
104.446042469
 20
128.2047030568
 10
104.422271695
 20
128.2156611502
 10
104.398222303
 20
128.225993458
 10
104.37391077
 20
128.2356929012
 10
104.3493537524
 20
128.2447528345
 10
104.3245680751
 20
128.2531670507
 10
104.2995707194
 20
128.260929785
 10
104.2743788118
 20
128.2680357187
 10
104.249009612
 20
128.2744799836
 10
104.2234805012
 20
128.2802581643
 10
104.1978089701
 20
128.2853663021
 10
104.1720126072
 20
128.2898008973
 10
104.1461090861
 20
128.2935589116
 10
104.1201161544
 20
128.2966377702
 10
104.0940516203
 20
128.2990353638
 10
104.0679333417
 20
128.3007500496
 10
104.0417792128
 20
128.301780653
 10
104.0156071526
 20
128.3021264677
  0
LINE
  5
7C0
100
AcDbEntity
  8
RACCORDO
100
AcDbLine
 62
253
  6
CONTINUOUS
 10
104.1933740289
 20
127.1245118963
 11
104.0156071526
 21
127.3022787726
  0
LINE
  5
7C1
100
AcDbEntity
  8
0
100
AcDbLine
 62
253
  6
CONTINUOUS
 10
104.1933740289
 20
127.1245118963
 11
104.0156071526
 21
127.3022787726
  0
LINE
  5
7C2
100
AcDbEntity
  8
ASSI
100
AcDbLine
 62
7
  6
CONTINUOUS
 10
101.9400997431
 20
129.8951634148
 11
102.1057265701
 21
129.7295365878
  0
LINE
  5
7C3
100
AcDbEntity
  8
RACCORDO
100
AcDbLine
 62
253
  6
CONTINUOUS
 10
104.9003710609
 20
127.8315130351
 11
104.722606238
 21
128.009277858
  0
LINE
  5
7C4
100
AcDbEntity
  8
0
100
AcDbLine
 62
253
  6
CONTINUOUS
 10
104.9003710609
 20
127.8315130351
 11
104.722606238
 21
128.009277858
  0
LINE
  5
7C5
100
AcDbEntity
  8
RACCORDO
100
AcDbLine
 62
7
  6
CONTINUOUS
 10
103.2805165255
 20
129.7578947368
 11
104.8123859664
 21
128.226025296
  0
LINE
  5
7C6
100
AcDbEntity
  8
0
100
AcDbLine
 62
7
  6
CONTINUOUS
 10
103.2805165255
 20
129.7578947368
 11
104.8123859664
 21
128.226025296
  0
LINE
  5
7C7
100
AcDbEntity
  8
ASSI
100
AcDbLine
 62
7
  6
CONTINUOUS
 10
105.7924582912
 20
127.4681196771
 11
105.465618141
 21
127.7949598274
  0
LINE
  5
7C8
100
AcDbEntity
  8
ASSI
100
AcDbLine
 62
7
  6
CONTINUOUS
 10
102.9599133561
 20
130.313008147
 11
101.9824818312
 21
131.2904396719
  0
LINE
  5
7C9
100
AcDbEntity
  8
ASSI
100
AcDbLine
 62
7
  6
CONTINUOUS
 10
105.8099133561
 20
127.4753498018
 11
105.2916712015
 21
127.9935919564
  0
LINE
  5
7CA
100
AcDbEntity
  8
RACCORDO
100
AcDbLine
 62
7
  6
CONTINUOUS
 10
105.2916712015
 20
127.9935919564
 11
103.5273684211
 21
129.7578947368
  0
LINE
  5
7CB
100
AcDbEntity
  8
0
100
AcDbLine
 62
7
  6
CONTINUOUS
 10
105.2916712015
 20
127.9935919564
 11
103.5273684211
 21
129.7578947368
  0
LWPOLYLINE
  5
7CC
100
AcDbEntity
  8
ASSI
100
AcDbPolyline
 62
7
  6
CONTINUOUS
 90
10
 70
0
 10
103.9807453913
 20
85.2800635205
 10
103.9624527088
 20
85.2607506537
 10
103.9415110489
 20
85.2400278666
 10
103.9185770301
 20
85.2178951593
 10
103.894438856
 20
85.1940537694
 10
103.8695111465
 20
85.1688024593
 10
103.8437193864
 20
85.1430375156
 10
103.8172479752
 20
85.1170577005
 10
103.7906427449
 20
85.0905642518
 10
103.7642390403
 20
85.0635571695
  0
LINE
  5
7CD
100
AcDbEntity
  8
ASSI
100
AcDbLine
 62
7
  6
CONTINUOUS
 10
103.2273684211
 20
86.5078947368
 11
103.240535878
 21
86.5210621938
  0
LINE
  5
7CE
100
AcDbEntity
  8
ASSI
100
AcDbLine
 62
253
  6
CONTINUOUS
 10
101.940535878
 20
84.6210317328
 11
101.9273684211
 21
84.6078642759
  0
LINE
  5
7CF
100
AcDbEntity
  8
ASSI
100
AcDbLine
 62
253
  6
CONTINUOUS
 10
102.140505417
 20
84.4210621938
 11
102.1273379601
 21
84.4078947368
  0
LINE
  5
7D0
100
AcDbEntity
  8
ASSI
100
AcDbLine
 62
7
  6
CONTINUOUS
 10
102.7679076419
 20
87.9206260589
 11
102.9599133561
 21
88.0166216046
  0
LWPOLYLINE
  5
7D1
100
AcDbEntity
  8
ASSI
100
AcDbPolyline
 62
7
  6
CONTINUOUS
 90
5
 70
0
 10
98.2876531672
 20
86.6057131633
 10
98.2897180962
 20
86.6064271005
 10
98.2958764186
 20
86.6071234665
 10
98.3061281346
 20
86.6078022612
 10
98.3207194387
 20
86.6084727568
  0
LINE
  5
7D2
100
AcDbEntity
  8
ASSI
100
AcDbLine
 62
7
  6
CONTINUOUS
 10
102.7684771287
 20
87.4467006446
 11
102.9599133561
 21
87.5027813267
  0
LWPOLYLINE
  5
7D3
100
AcDbEntity
  8
ASSI
100
AcDbPolyline
 62
253
  6
CONTINUOUS
 90
7
 70
0
 10
98.8291594463
 20
132.8096476859
 10
98.8281892691
 20
132.8094129497
 10
98.8259122641
 20
132.8091855902
 10
98.8223284313
 20
132.8089656073
 10
98.8173706457
 20
132.8087506601
 10
98.8111060323
 20
132.8085430896
 10
98.8037359662
 20
132.8083499186
  0
LWPOLYLINE
  5
7D4
100
AcDbEntity
  8
ASSI
100
AcDbPolyline
 62
253
  6
CONTINUOUS
 90
6
 70
0
 10
99.0791213701
 20
132.5596857621
 10
99.0763844066
 20
132.5591321714
 10
99.0695776245
 20
132.5586230711
 10
99.0587774648
 20
132.5581630168
 10
99.0441050393
 20
132.5577544858
 10
99.0257209858
 20
132.5574019619
  0
LINE
  5
7D5
100
AcDbEntity
  8
ASSI
100
AcDbLine
 62
7
  6
CONTINUOUS
 10
93.9102325268
 20
131.3061813197
 11
93.9273684211
 21
131.3078947368
  0
LWPOLYLINE
  5
7D6
100
AcDbEntity
  8
ASSI
100
AcDbPolyline
 62
7
  6
CONTINUOUS
 90
16
 70
0
 10
84.1273683565
 20
131.3078946665
 10
84.0754722232
 20
131.305213601
 10
84.0239265167
 20
131.2971162083
 10
83.9733026375
 20
131.2836238754
 10
83.9239935496
 20
131.2647388513
 10
83.8767662865
 20
131.2406486248
 10
83.8326604243
 20
131.2119118871
 10
83.7924321251
 20
131.1792448216
 10
83.7560541348
 20
131.1428645647
 10
83.723388402
 20
131.1026346179
 10
83.6946519002
 20
131.0585269087
 10
83.6705610025
 20
131.0112983487
 10
83.6516727858
 20
130.9619926928
 10
83.6381734894
 20
130.9113785557
 10
83.6300651329
 20
130.8598475365
 10
83.6273684211
 20
130.8079708893
  0
LWPOLYLINE
  5
7D7
100
AcDbEntity
  8
ASSI
100
AcDbPolyline
 62
7
  6
CONTINUOUS
 90
3
 70
0
 10
91.1340507159
 20
131.2073176573
 10
91.1154062822
 20
131.2066657082
 10
91.0933953919
 20
131.2060587527
  0
LINE
  5
7D8
100
AcDbEntity
  8
ASSI
100
AcDbLine
 62
7
  6
CONTINUOUS
 10
91.0933953919
 20
131.2060587527
 11
91.0394006864
 21
131.2049901652
  0
LINE
  5
7D9
100
AcDbEntity
  8
ASSI
100
AcDbLine
 62
7
  6
CONTINUOUS
 10
99.0013532507
 20
131.2059528573
 11
98.9462415837
 21
131.2049027345
  0
LINE
  5
7DA
100
AcDbEntity
  8
ASSI
100
AcDbLine
 62
7
  6
CONTINUOUS
 10
91.0394006864
 20
131.2049901652
 11
90.9731468134
 21
131.2041350303
  0
LINE
  5
7DB
100
AcDbEntity
  8
ASSI
100
AcDbLine
 62
7
  6
CONTINUOUS
 10
98.9462415837
 20
131.2049027345
 11
98.8790862705
 21
131.2040699627
  0
LINE
  5
7DC
100
AcDbEntity
  8
ASSI
100
AcDbLine
 62
7
  6
CONTINUOUS
 10
90.9731468134
 20
131.2041350303
 11
90.896807672
 21
131.2035213538
  0
LINE
  5
7DD
100
AcDbEntity
  8
ASSI
100
AcDbLine
 62
7
  6
CONTINUOUS
 10
98.8790862705
 20
131.2040699627
 11
98.8020770672
 21
131.2034812334
  0
LINE
  5
7DE
100
AcDbEntity
  8
ASSI
100
AcDbLine
 62
7
  6
CONTINUOUS
 10
90.896807672
 20
131.2035213538
 11
90.8160297751
 21
131.2032094215
  0
LINE
  5
7DF
100
AcDbEntity
  8
ASSI
100
AcDbLine
 62
7
  6
CONTINUOUS
 10
98.8020770672
 20
131.2034812334
 11
98.7209774768
 21
131.2031959162
  0
LINE
  5
7E0
100
AcDbEntity
  8
ASSI
100
AcDbLine
 62
7
  6
CONTINUOUS
 10
91.6616588626
 20
130.6078947368
 11
97.7930779795
 21
130.6078947368
  0
LINE
  5
7E1
100
AcDbEntity
  8
ASSI
100
AcDbLine
 62
253
  6
CONTINUOUS
 10
102.0337051739
 20
131.1155843897
 11
98.0476147157
 21
131.1155843897
  0
LINE
  5
7E2
100
AcDbEntity
  8
ASSI
100
AcDbLine
 62
253
  6
CONTINUOUS
 10
91.4071221264
 20
131.1155843897
 11
87.4210316682
 21
131.1155843897
  0
LINE
  5
7E3
100
AcDbEntity
  8
ASSI
100
AcDbLine
 62
7
  6
CONTINUOUS
 10
105.3099895085
 20
131.2904396719
 11
103.7642390403
 21
131.2904396719
  0
LINE
  5
7E4
100
AcDbEntity
  8
ASSI
100
AcDbLine
 62
7
  6
CONTINUOUS
 10
103.4904978018
 20
131.2904396719
 11
101.9824818312
 21
131.2904396719
  0
LINE
  5
7E5
100
AcDbEntity
  8
ASSI
100
AcDbLine
 62
7
  6
CONTINUOUS
 10
87.4722550109
 20
131.2904396719
 11
85.9642390403
 21
131.2904396719
  0
LINE
  5
7E6
100
AcDbEntity
  8
ASSI
100
AcDbLine
 62
7
  6
CONTINUOUS
 10
85.6904978018
 20
131.2904396719
 11
84.1447473336
 21
131.2904396719
  0
LINE
  5
7E7
100
AcDbEntity
  8
ASSI
100
AcDbLine
 62
7
  6
CONTINUOUS
 10
95.5445043153
 20
131.3061813197
 11
93.9102325268
 21
131.3061813197
  0
LINE
  5
7E8
100
AcDbEntity
  8
ASSI
100
AcDbLine
 62
7
  6
CONTINUOUS
 10
84.1273683565
 20
131.3078946723
 11
85.4273684211
 21
131.3078947368
  0
LINE
  5
7E9
100
AcDbEntity
  8
ASSI
100
AcDbLine
 62
7
  6
CONTINUOUS
 10
86.2273684211
 20
131.3078947368
 11
90.2773684211
 21
131.3078947368
  0
LINE
  5
7EA
100
AcDbEntity
  8
ASSI
100
AcDbLine
 62
7
  6
CONTINUOUS
 10
99.1773684211
 20
131.3078947368
 11
103.2273684211
 21
131.3078947368
  0
LINE
  5
7EB
100
AcDbEntity
  8
ASSI
100
AcDbLine
 62
7
  6
CONTINUOUS
 10
104.0273684211
 20
131.3078947368
 11
105.3273684211
 21
131.3078947368
  0
LINE
  5
7EC
100
AcDbEntity
  8
ASSI
100
AcDbLine
 62
7
  6
CONTINUOUS
 10
84.3256533802
 20
132.0305444677
 11
85.4273684211
 21
132.0305444677
  0
LINE
  5
7ED
100
AcDbEntity
  8
ASSI
100
AcDbLine
 62
7
  6
CONTINUOUS
 10
86.2273684211
 20
132.0305444677
 11
87.3290834619
 21
132.0305444677
  0
LINE
  5
7EE
100
AcDbEntity
  8
ASSI
100
AcDbLine
 62
7
  6
CONTINUOUS
 10
102.1256533802
 20
132.0305444677
 11
103.2273684211
 21
132.0305444677
  0
LINE
  5
7EF
100
AcDbEntity
  8
ASSI
100
AcDbLine
 62
7
  6
CONTINUOUS
 10
104.0273684211
 20
132.0305444677
 11
105.1290834619
 21
132.0305444677
  0
LINE
  5
7F0
100
AcDbEntity
  8
ASSI
100
AcDbLine
 62
7
  6
CONTINUOUS
 10
90.8160297751
 20
131.2032094215
 11
90.7339314023
 21
131.20319562
  0
LINE
  5
7F1
100
AcDbEntity
  8
ASSI
100
AcDbLine
 62
7
  6
CONTINUOUS
 10
98.7209774768
 20
131.2031959162
 11
98.6388983151
 21
131.2032090253
  0
LINE
  5
7F2
100
AcDbEntity
  8
ASSI
100
AcDbLine
 62
7
  6
CONTINUOUS
 10
90.7339314023
 20
131.20319562
 11
90.6528129705
 21
131.2034803952
  0
LINE
  5
7F3
100
AcDbEntity
  8
ASSI
100
AcDbLine
 62
7
  6
CONTINUOUS
 10
98.6388983151
 20
131.2032090253
 11
98.5581373934
 21
131.2035201392
  0
LINE
  5
7F4
100
AcDbEntity
  8
ASSI
100
AcDbLine
 62
7
  6
CONTINUOUS
 10
90.6528129705
 20
131.2034803952
 11
90.5757745653
 21
131.2040687365
  0
LINE
  5
7F5
100
AcDbEntity
  8
ASSI
100
AcDbLine
 62
7
  6
CONTINUOUS
 10
98.5581373934
 20
131.2035201392
 11
98.4817930849
 21
131.2041329291
  0
LINE
  5
7F6
100
AcDbEntity
  8
ASSI
100
AcDbLine
 62
7
  6
CONTINUOUS
 10
90.5757745653
 20
131.2040687365
 11
90.5085880742
 21
131.204901291
  0
LINE
  5
7F7
100
AcDbEntity
  8
ASSI
100
AcDbLine
 62
7
  6
CONTINUOUS
 10
98.4817930849
 20
131.2041329291
 11
98.4155209425
 21
131.2049871495
  0
LWPOLYLINE
  5
7F8
100
AcDbEntity
  8
ASSI
100
AcDbPolyline
 62
7
  6
CONTINUOUS
 90
8
 70
0
 10
90.5085880742
 20
131.204901291
 10
90.4534452727
 20
131.2059514091
 10
90.4307327555
 20
131.2065523554
 10
90.4113198733
 20
131.2072000978
 10
90.3959925446
 20
131.2078668483
 10
90.3850127422
 20
131.2085433442
 10
90.3781184932
 20
131.2092388482
 10
90.3753097976
 20
131.2099533603
  0
LWPOLYLINE
  5
7F9
100
AcDbEntity
  8
ASSI
100
AcDbPolyline
 62
7
  6
CONTINUOUS
 90
7
 70
0
 10
98.4155209425
 20
131.2049871495
 10
98.3614927632
 20
131.2060550567
 10
98.3394497419
 20
131.2066621441
 10
98.3207665099
 20
131.2073144726
 10
98.3061723119
 20
131.2079847797
 10
98.2959102296
 20
131.208663978
 10
98.2897371814
 20
131.2093611549
  0
LWPOLYLINE
  5
7FA
100
AcDbEntity
  8
ASSI
100
AcDbPolyline
 62
7
  6
CONTINUOUS
 90
16
 70
0
 10
105.3273684211
 20
131.3078944726
 10
105.3792698832
 20
131.3052147262
 10
105.4308213265
 20
131.2971152553
 10
105.4814509905
 20
131.2836184443
 10
105.5307665896
 20
131.2647277981
 10
105.5780000467
 20
131.2406313513
 10
105.6221091901
 20
131.2118879821
 10
105.6623387836
 20
131.1792142884
 10
105.6987160174
 20
131.1428284749
 10
105.7313763543
 20
131.1025963393
 10
105.7601033374
 20
131.0584956927
 10
105.7841855492
 20
131.011279791
 10
105.8030684587
 20
130.9619790894
 10
105.8165649817
 20
130.9113559436
 10
105.8246721383
 20
130.8598045277
 10
105.8273684211
 20
130.8078945017
  0
LWPOLYLINE
  5
7FB
100
AcDbEntity
  8
ASSI
100
AcDbPolyline
 62
7
  6
CONTINUOUS
 90
16
 70
0
 10
91.4061440359
 20
131.1716191549
 10
91.431097492
 20
131.169892518
 10
91.4558313969
 20
131.1657093455
 10
91.4801674929
 20
131.1590621871
 10
91.5041046184
 20
131.1498285401
 10
91.527343605
 20
131.1381175165
 10
91.5492448611
 20
131.1242675116
 10
91.5695454559
 20
131.1082907781
 10
91.5882259965
 20
131.0901599263
 10
91.6049961001
 20
131.07015234
 10
91.6198577639
 20
131.0479321297
 10
91.6326284109
 20
131.0238241947
 10
91.6427456328
 20
130.9990970043
 10
91.6499835365
 20
130.9741707839
 10
91.6544654895
 20
130.9486184472
 10
91.6561684823
 20
130.9224384129
  0
LINE
  5
7FC
100
AcDbEntity
  8
ASSI
100
AcDbLine
 62
7
  6
CONTINUOUS
 10
95.5445043153
 20
131.3061813197
 11
95.5273684211
 21
131.3078947368
  0
LWPOLYLINE
  5
7FD
100
AcDbEntity
  8
ASSI
100
AcDbPolyline
 62
253
  6
CONTINUOUS
 90
8
 70
0
 10
90.375617269
 20
132.5596842147
 10
90.3783571628
 20
132.559131627
 10
90.3851575269
 20
132.5586231134
 10
90.3959473021
 20
132.5581632916
 10
90.4106132001
 20
132.55775464
 10
90.4289982106
 20
132.5574018249
 10
90.4509009476
 20
132.5571116198
 10
90.5042724203
 20
132.5567240537
  0
LWPOLYLINE
  5
7FE
100
AcDbEntity
  8
ASSI
100
AcDbPolyline
 62
253
  6
CONTINUOUS
 90
9
 70
0
 10
90.6255773958
 20
132.8096476859
 10
90.6265669281
 20
132.8094116332
 10
90.6288622784
 20
132.8091833227
 10
90.6324634468
 20
132.8089627544
 10
90.6374376993
 20
132.808747698
 10
90.6437177699
 20
132.8085403839
 10
90.65110186
 20
132.8083475028
 10
90.6596252702
 20
132.8081695424
 10
90.6796764487
 20
132.8078621487
  0
LINE
  5
7FF
100
AcDbEntity
  8
ASSI
100
AcDbLine
 62
7
  6
CONTINUOUS
 10
102.7684771287
 20
130.3690888291
 11
102.9599133561
 21
130.313008147
  0
LINE
  5
800
100
AcDbEntity
  8
ASSI
100
AcDbLine
 62
7
  6
CONTINUOUS
 10
98.2897371814
 20
131.2093611549
 11
98.2876531672
 21
131.2100763104
  0
LINE
  5
801
100
AcDbEntity
  8
ASSI
100
AcDbLine
 62
7
  6
CONTINUOUS
 10
102.7679076419
 20
129.8951634148
 11
102.9599133561
 21
129.7991678691
  0
LWPOLYLINE
  5
802
100
AcDbEntity
  8
ASSI
100
AcDbPolyline
 62
7
  6
CONTINUOUS
 90
10
 70
0
 10
103.9807453913
 20
132.5357259532
 10
103.9614325245
 20
132.5540186357
 10
103.9407097374
 20
132.5749602956
 10
103.9185770301
 20
132.5978943144
 10
103.8947356402
 20
132.6220324885
 10
103.8694843301
 20
132.646960198
 10
103.8437193864
 20
132.6727519581
 10
103.8177395713
 20
132.6992233693
 10
103.7912461226
 20
132.7258285996
 10
103.7642390403
 20
132.7522323041
  0
LINE
  5
803
100
AcDbEntity
  8
ASSI
100
AcDbLine
 62
7
  6
CONTINUOUS
 10
103.2273684211
 20
131.3078947368
 11
103.240535878
 21
131.2947272799
  0
LINE
  5
804
100
AcDbEntity
  8
ASSI
100
AcDbLine
 62
253
  6
CONTINUOUS
 10
101.9273684211
 20
133.2079251978
 11
101.940535878
 21
133.1947577409
  0
LINE
  5
805
100
AcDbEntity
  8
ASSI
100
AcDbLine
 62
253
  6
CONTINUOUS
 10
102.1273379601
 20
133.4078947368
 11
102.140505417
 21
133.3947272799
  0
LWPOLYLINE
  5
806
100
AcDbEntity
  8
ASSI
100
AcDbPolyline
 62
253
  6
CONTINUOUS
 90
7
 70
0
 10
98.5730806738
 20
85.0061020228
 10
98.5738102554
 20
85.0063370766
 10
98.5758544994
 20
85.0065651547
 10
98.5792134059
 20
85.0067862571
 10
98.5839517876
 20
85.0070027464
 10
98.5900048317
 20
85.00721226
 10
98.5971781002
 20
85.0074077099
  0
LWPOLYLINE
  5
807
100
AcDbEntity
  8
ASSI
100
AcDbPolyline
 62
253
  6
CONTINUOUS
 90
7
 70
0
 10
98.3231663426
 20
85.2495197095
 10
98.3252022706
 20
85.2501131906
 10
98.3313163796
 20
85.250735002
 10
98.3414397286
 20
85.2513786843
 10
98.3554585554
 20
85.2520369441
 10
98.3732191952
 20
85.252702923
 10
98.3945331282
 20
85.2533702976
  0
LWPOLYLINE
  5
808
100
AcDbEntity
  8
ASSI
100
AcDbPolyline
 62
253
  6
CONTINUOUS
 90
13
 70
0
 10
102.140505417
 20
133.3947272799
 10
102.1144091513
 20
133.3930092222
 10
102.0887592336
 20
133.3879003326
 10
102.0639943717
 20
133.3794879942
 10
102.0405381345
 20
133.3679160906
 10
102.0187917097
 20
133.353382546
 10
101.9991270415
 20
133.3361359409
 10
101.9818804665
 20
133.3164712589
 10
101.9673469606
 20
133.2947248387
 10
101.9557750962
 20
133.2712686234
 10
101.9473627919
 20
133.2465037996
 10
101.9422539265
 20
133.2208539368
 10
101.940535878
 20
133.1947577409
  0
LWPOLYLINE
  5
809
100
AcDbEntity
  8
ASSI
100
AcDbPolyline
 62
253
  6
CONTINUOUS
 90
13
 70
0
 10
90.6255773958
 20
132.8096476859
 10
90.5929579635
 20
132.8075002327
 10
90.5608962667
 20
132.8011144315
 10
90.5299406651
 20
132.7905994401
 10
90.5006206232
 20
132.7761350465
 10
90.4734376232
 20
132.7579685824
 10
90.4488565953
 20
132.7364106827
 10
90.4272979912
 20
132.7118299853
 10
90.4091306238
 20
132.6846468846
 10
90.3946653105
 20
132.6553263352
 10
90.3841495166
 20
132.6243698369
 10
90.3777631429
 20
132.5923068434
 10
90.3756154721
 20
132.559685762
  0
LWPOLYLINE
  5
80A
100
AcDbEntity
  8
ASSI
100
AcDbPolyline
 62
7
  6
CONTINUOUS
 90
13
 70
0
 10
84.3273379601
 20
133.4078947368
 10
84.3012358332
 20
133.4061844727
 10
84.275580655
 20
133.4010822963
 10
84.2508111336
 20
133.3926753151
 10
84.2273506767
 20
133.381107074
 10
84.2056008708
 20
133.3665752868
 10
84.1859344488
 20
133.3493287091
 10
84.1686878711
 20
133.3296622871
 10
84.1541560839
 20
133.3079124812
 10
84.1425878428
 20
133.2844520243
 10
84.1341808616
 20
133.2596825029
 10
84.1290786852
 20
133.2340273247
 10
84.1273684211
 20
133.2079251978
  0
LWPOLYLINE
  5
80B
100
AcDbEntity
  8
ASSI
100
AcDbPolyline
 62
253
  6
CONTINUOUS
 90
13
 70
0
 10
87.3138102801
 20
132.5357259532
 10
87.3397683542
 20
132.5373875501
 10
87.365287192
 20
132.541951829
 10
87.3899349903
 20
132.5493415576
 10
87.4132946845
 20
132.5594316946
 10
87.4349710059
 20
132.5720515049
 10
87.4545971703
 20
132.5869874489
 10
87.4718410839
 20
132.6039867957
 10
87.4864109635
 20
132.6227619
 10
87.4980602728
 20
132.6429950688
 10
87.5065918944
 20
132.6643439374
 10
87.5118614652
 20
132.6864472623
 10
87.5137798192
 20
132.708931034
  0
LWPOLYLINE
  5
80C
100
AcDbEntity
  8
ASSI
100
AcDbPolyline
 62
253
  6
CONTINUOUS
 90
7
 70
0
 10
91.0601998831
 20
132.5624190999
 10
91.081514533
 20
132.5630864819
 10
91.0992758026
 20
132.5637524535
 10
91.1132954169
 20
132.564410716
 10
91.1234195987
 20
132.5650544176
 10
91.1295343287
 20
132.5656762544
 10
91.1315704995
 20
132.5662697642
  0
LWPOLYLINE
  5
80D
100
AcDbEntity
  8
ASSI
100
AcDbPolyline
 62
253
  6
CONTINUOUS
 90
7
 70
0
 10
90.8575847579
 20
132.8083824118
 10
90.8647510362
 20
132.8085778127
 10
90.8707979465
 20
132.8087872564
 10
90.8755313307
 20
132.8090036513
 10
90.8788864694
 20
132.8092246334
 10
90.8809280819
 20
132.8094525666
 10
90.8816561683
 20
132.8096874509
  0
LINE
  5
80E
100
AcDbEntity
  8
ASSI
100
AcDbLine
 62
253
  6
CONTINUOUS
 10
91.0078607686
 20
132.5611119403
 11
91.0601998831
 21
132.5624190999
  0
LINE
  5
80F
100
AcDbEntity
  8
ASSI
100
AcDbLine
 62
253
  6
CONTINUOUS
 10
90.9445286394
 20
132.5598861408
 11
91.0078607686
 21
132.5611119403
  0
LINE
  5
810
100
AcDbEntity
  8
ASSI
100
AcDbLine
 62
253
  6
CONTINUOUS
 10
90.8398228124
 20
132.8080349081
 11
90.8575847579
 21
132.8083824118
  0
LINE
  5
811
100
AcDbEntity
  8
ASSI
100
AcDbLine
 62
253
  6
CONTINUOUS
 10
98.8037359662
 20
132.8083499186
 11
98.7856091194
 21
132.8080079586
  0
LINE
  5
812
100
AcDbEntity
  8
ASSI
100
AcDbLine
 62
253
  6
CONTINUOUS
 10
90.8350113791
 20
132.5583180039
 11
90.9445286394
 21
132.5598861408
  0
LINE
  5
813
100
AcDbEntity
  8
ASSI
100
AcDbLine
 62
253
  6
CONTINUOUS
 10
90.8184599339
 20
132.8077602155
 11
90.8398228124
 21
132.8080349081
  0
LINE
  5
814
100
AcDbEntity
  8
ASSI
100
AcDbLine
 62
253
  6
CONTINUOUS
 10
98.7856091194
 20
132.8080079586
 11
98.7639550955
 21
132.8077399782
  0
LINE
  5
815
100
AcDbEntity
  8
ASSI
100
AcDbLine
 62
253
  6
CONTINUOUS
 10
99.0257209858
 20
132.5574019619
 11
98.9786370996
 21
132.5568857626
  0
LINE
  5
816
100
AcDbEntity
  8
ASSI
100
AcDbLine
 62
253
  6
CONTINUOUS
 10
90.7176068047
 20
132.557205477
 11
90.8350113791
 21
132.5583180039
  0
LINE
  5
817
100
AcDbEntity
  8
ASSI
100
AcDbLine
 62
253
  6
CONTINUOUS
 10
90.7813680875
 20
132.8075055445
 11
90.8184599339
 21
132.8077602155
  0
LINE
  5
818
100
AcDbEntity
  8
ASSI
100
AcDbLine
 62
253
  6
CONTINUOUS
 10
98.7639550955
 20
132.8077399782
 11
98.726588111
 21
132.8074970561
  0
LINE
  5
819
100
AcDbEntity
  8
ASSI
100
AcDbLine
 62
253
  6
CONTINUOUS
 10
90.6036837844
 20
132.5566564544
 11
90.7176068047
 21
132.557205477
  0
LINE
  5
81A
100
AcDbEntity
  8
ASSI
100
AcDbLine
 62
253
  6
CONTINUOUS
 10
98.9786370996
 20
132.5568857626
 11
98.9195530389
 21
132.5566334154
  0
LINE
  5
81B
100
AcDbEntity
  8
ASSI
100
AcDbLine
 62
253
  6
CONTINUOUS
 10
84.3409278398
 20
132.5357682194
 11
85.4739914508
 21
132.5357259532
  0
LINE
  5
81C
100
AcDbEntity
  8
ASSI
100
AcDbLine
 62
253
  6
CONTINUOUS
 10
103.9807453913
 20
132.5357259532
 11
105.1138090025
 21
132.5357682136
  0
LINE
  5
81D
100
AcDbEntity
  8
ASSI
100
AcDbLine
 62
253
  6
CONTINUOUS
 10
86.1807453913
 20
132.5357259532
 11
87.3138102558
 21
132.5357267581
  0
LINE
  5
81E
100
AcDbEntity
  8
ASSI
100
AcDbLine
 62
253
  6
CONTINUOUS
 10
102.1409265932
 20
132.5357269861
 11
103.2739914508
 21
132.5357259532
  0
LINE
  5
81F
100
AcDbEntity
  8
ASSI
100
AcDbLine
 62
253
  6
CONTINUOUS
 10
105.3133434425
 20
132.7522323041
 11
103.7642390403
 21
132.7522323041
  0
LINE
  5
820
100
AcDbEntity
  8
ASSI
100
AcDbLine
 62
253
  6
CONTINUOUS
 10
103.4904978018
 20
132.7522323041
 11
101.9413933996
 21
132.7522323041
  0
LINE
  5
821
100
AcDbEntity
  8
ASSI
100
AcDbLine
 62
253
  6
CONTINUOUS
 10
84.1413933996
 20
132.7522323041
 11
85.6904978018
 21
132.7522323041
  0
LINE
  5
822
100
AcDbEntity
  8
ASSI
100
AcDbLine
 62
253
  6
CONTINUOUS
 10
85.9642390403
 20
132.7522323041
 11
87.5133434425
 21
132.7522323041
  0
LINE
  5
823
100
AcDbEntity
  8
ASSI
100
AcDbLine
 62
7
  6
CONTINUOUS
 10
90.8795142647
 20
132.8914834477
 11
93.6609952081
 21
132.8914834477
  0
LINE
  5
824
100
AcDbEntity
  8
ASSI
100
AcDbLine
 62
7
  6
CONTINUOUS
 10
95.793741634
 20
132.8914834477
 11
98.5752225774
 21
132.8914834477
  0
LINE
  5
825
100
AcDbEntity
  8
ASSI
100
AcDbLine
 62
7
  6
CONTINUOUS
 10
90.5273303448
 20
132.9078947368
 11
93.6774064973
 21
132.9078947368
  0
LINE
  5
826
100
AcDbEntity
  8
ASSI
100
AcDbLine
 62
7
  6
CONTINUOUS
 10
95.7773303448
 20
132.9078947368
 11
98.9274064973
 21
132.9078947368
  0
LINE
  5
827
100
AcDbEntity
  8
ASSI
100
AcDbLine
 62
253
  6
CONTINUOUS
 10
105.3133434425
 20
133.1447653561
 11
101.9413933996
 21
133.1447653561
  0
LINE
  5
828
100
AcDbEntity
  8
ASSI
100
AcDbLine
 62
253
  6
CONTINUOUS
 10
84.1413933996
 20
133.1447653561
 11
87.5133434425
 21
133.1447653561
  0
LINE
  5
829
100
AcDbEntity
  8
ASSI
100
AcDbLine
 62
253
  6
CONTINUOUS
 10
105.1142314251
 20
133.3947272799
 11
102.140505417
 21
133.3947272799
  0
LINE
  5
82A
100
AcDbEntity
  8
ASSI
100
AcDbLine
 62
253
  6
CONTINUOUS
 10
87.3142314251
 20
133.3947272799
 11
84.340505417
 21
133.3947272799
  0
LINE
  5
82B
100
AcDbEntity
  8
ASSI
100
AcDbLine
 62
7
  6
CONTINUOUS
 10
84.3273379601
 20
133.4078947368
 11
87.327398882
 21
133.4078947368
  0
LINE
  5
82C
100
AcDbEntity
  8
ASSI
100
AcDbLine
 62
7
  6
CONTINUOUS
 10
102.1273379601
 20
133.4078947368
 11
105.127398882
 21
133.4078947368
  0
LINE
  5
82D
100
AcDbEntity
  8
ASSI
100
AcDbLine
 62
253
  6
CONTINUOUS
 10
90.7415844444
 20
132.8074622894
 11
90.7813680875
 21
132.8075055445
  0
LINE
  5
82E
100
AcDbEntity
  8
ASSI
100
AcDbLine
 62
253
  6
CONTINUOUS
 10
98.726588111
 20
132.8074970561
 11
98.6867502134
 21
132.807466534
  0
LINE
  5
82F
100
AcDbEntity
  8
ASSI
100
AcDbLine
 62
253
  6
CONTINUOUS
 10
98.9195530389
 20
132.5566334154
 11
98.8510317152
 21
132.5566570729
  0
LINE
  5
830
100
AcDbEntity
  8
ASSI
100
AcDbLine
 62
253
  6
CONTINUOUS
 10
90.5042724203
 20
132.5567240537
 11
90.6036837844
 21
132.5566564544
  0
LINE
  5
831
100
AcDbEntity
  8
ASSI
100
AcDbLine
 62
253
  6
CONTINUOUS
 10
98.8510317152
 20
132.5566570729
 11
98.7760326506
 21
132.5569580194
  0
LINE
  5
832
100
AcDbEntity
  8
ASSI
100
AcDbLine
 62
253
  6
CONTINUOUS
 10
90.7029645566
 20
132.8076346732
 11
90.7415844444
 21
132.8074622894
  0
LINE
  5
833
100
AcDbEntity
  8
ASSI
100
AcDbLine
 62
253
  6
CONTINUOUS
 10
98.6867502134
 20
132.807466534
 11
98.6483058421
 21
132.8076514049
  0
LINE
  5
834
100
AcDbEntity
  8
ASSI
100
AcDbLine
 62
253
  6
CONTINUOUS
 10
98.7760326506
 20
132.5569580194
 11
98.6977973173
 21
132.5575191642
  0
LINE
  5
835
100
AcDbEntity
  8
ASSI
100
AcDbLine
 62
253
  6
CONTINUOUS
 10
98.6977973173
 20
132.5575191642
 11
98.6197078096
 21
132.5583185938
  0
LINE
  5
836
100
AcDbEntity
  8
ASSI
100
AcDbLine
 62
253
  6
CONTINUOUS
 10
90.6796764487
 20
132.8078621487
 11
90.7029645566
 21
132.8076346732
  0
LINE
  5
837
100
AcDbEntity
  8
ASSI
100
AcDbLine
 62
253
  6
CONTINUOUS
 10
98.6483058421
 20
132.8076514049
 11
98.6252568495
 21
132.8078864709
  0
LINE
  5
838
100
AcDbEntity
  8
ASSI
100
AcDbLine
 62
253
  6
CONTINUOUS
 10
98.6197078096
 20
132.5583185938
 11
98.5451401793
 21
132.559322905
  0
LWPOLYLINE
  5
839
100
AcDbEntity
  8
ASSI
100
AcDbPolyline
 62
253
  6
CONTINUOUS
 90
9
 70
0
 10
98.6252568495
 20
132.8078864709
 10
98.6055334571
 20
132.8082004415
 10
98.5972008189
 20
132.8083812033
 10
98.5900240227
 20
132.8085765955
 10
98.5839672597
 20
132.8087860591
 10
98.5792250876
 20
132.809002578
 10
98.5758623588
 20
132.8092238136
 10
98.5738142209
 20
132.8094521046
 10
98.5730806738
 20
132.8096874509
  0
LINE
  5
83A
100
AcDbEntity
  8
ASSI
100
AcDbLine
 62
253
  6
CONTINUOUS
 10
98.5451401793
 20
132.559322905
 11
98.4773173731
 21
132.5604854275
  0
LWPOLYLINE
  5
83B
100
AcDbEntity
  8
ASSI
100
AcDbPolyline
 62
253
  6
CONTINUOUS
 90
9
 70
0
 10
98.4773173731
 20
132.5604854275
 10
98.4191691281
 20
132.5617586798
 10
98.3945298423
 20
132.5624192863
 10
98.3732160371
 20
132.5630866606
 10
98.3554555769
 20
132.5637526456
 10
98.3414374658
 20
132.5644108961
 10
98.3313151559
 20
132.5650545497
 10
98.3252019109
 20
132.565676324
 10
98.3231663426
 20
132.5662697642
  0
LWPOLYLINE
  5
83C
100
AcDbEntity
  8
ASSI
100
AcDbPolyline
 62
253
  6
CONTINUOUS
 90
13
 70
0
 10
102.140926562
 20
132.5357259532
 10
102.1149684904
 20
132.5373875498
 10
102.0894496545
 20
132.5419518279
 10
102.0648018576
 20
132.5493415556
 10
102.0414421642
 20
132.5594316913
 10
102.019765843
 20
132.5720515004
 10
102.0001396781
 20
132.5869874434
 10
101.9828957634
 20
132.6039867898
 10
101.9683258825
 20
132.6227618942
 10
101.9566765718
 20
132.6429950637
 10
101.948144949
 20
132.6643439335
 10
101.9428753773
 20
132.6864472601
 10
101.940957023
 20
132.708931034
  0
LWPOLYLINE
  5
83D
100
AcDbEntity
  8
ASSI
100
AcDbPolyline
 62
7
  6
CONTINUOUS
 90
12
 70
0
 10
90.8816561683
 20
132.8096874509
 10
90.9137469687
 20
132.8076198276
 10
90.9453068091
 20
132.8014506558
 10
90.9758135143
 20
132.7912820079
 10
91.004762334
 20
132.7772821299
 10
91.031674294
 20
132.7596826574
 10
91.0561041211
 20
132.7387747834
 10
91.0776476103
 20
132.7149044402
 10
91.0959483126
 20
132.6884665759
 10
91.1107034327
 20
132.6598986195
 10
91.121668839
 20
132.6296732435
 10
91.1286631026
 20
132.5982905437
  0
LWPOLYLINE
  5
83E
100
AcDbEntity
  8
ASSI
100
AcDbPolyline
 62
7
  6
CONTINUOUS
 90
13
 70
0
 10
105.127398882
 20
133.4078947368
 10
105.1535010089
 20
133.4061844727
 10
105.1791561871
 20
133.4010822963
 10
105.2039257086
 20
133.3926753151
 10
105.2273861654
 20
133.381107074
 10
105.2491359713
 20
133.3665752868
 10
105.2688023933
 20
133.3493287091
 10
105.286048971
 20
133.3296622871
 10
105.3005807582
 20
133.3079124812
 10
105.3121489993
 20
133.2844520243
 10
105.3205559805
 20
133.2596825029
 10
105.3256581569
 20
133.2340273247
 10
105.3273684211
 20
133.2079251978
  0
LWPOLYLINE
  5
83F
100
AcDbEntity
  8
ASSI
100
AcDbPolyline
 62
253
  6
CONTINUOUS
 90
13
 70
0
 10
87.3142314251
 20
133.3947272799
 10
87.3403276566
 20
133.3930092267
 10
87.3659775471
 20
133.3879003491
 10
87.3907423901
 20
133.3794880275
 10
87.4141986161
 20
133.3679161435
 10
87.4359450381
 20
133.3533826184
 10
87.4556097129
 20
133.3361360287
 10
87.4728563026
 20
133.3164713539
 10
87.4873898277
 20
133.2947249319
 10
87.4989617117
 20
133.2712687059
 10
87.5073740333
 20
133.2465038629
 10
87.5124829109
 20
133.2208539723
 10
87.5142009641
 20
133.1947577409
  0
ARC
  5
840
100
AcDbEntity
  8
0
100
AcDbCircle
 62
253
  6
CONTINUOUS
 10
100.7242114211
 20
121.4087257368
 40
1.1402490105
100
AcDbArc
 50
208.9830159648
 51
268.5541978004
  0
CIRCLE
  5
841
100
AcDbEntity
  8
0
100
AcDbCircle
 62
253
  6
CONTINUOUS
 10
100.7258884211
 20
121.4084457368
 40
0.591552
  0
ARC
  5
842
100
AcDbEntity
  8
ASSI
100
AcDbCircle
 62
7
  6
CONTINUOUS
 10
98.7273684211
 20
85.7078947368
 40
0.5
100
AcDbArc
 50
334.1580672368
 51
25.8419327632
  0
ARC
  5
843
100
AcDbEntity
  8
ASSI
100
AcDbCircle
 62
7
  6
CONTINUOUS
 10
90.7273684211
 20
85.7078947368
 40
0.5
100
AcDbArc
 50
154.1580672368
 51
205.8419327632
  0
ARC
  5
844
100
AcDbEntity
  8
ASSI
100
AcDbCircle
 62
7
  6
CONTINUOUS
 10
98.7273684211
 20
132.1078947368
 40
0.5
100
AcDbArc
 50
334.1580672368
 51
25.8419327632
  0
ARC
  5
845
100
AcDbEntity
  8
ASSI
100
AcDbCircle
 62
7
  6
CONTINUOUS
 10
90.7273684211
 20
132.1078947368
 40
0.5
100
AcDbArc
 50
154.1580672368
 51
205.8419327632
  0
ARC
  5
846
100
AcDbEntity
  8
ASSI
100
AcDbCircle
 62
7
  6
CONTINUOUS
 10
98.7273684211
 20
85.7078947368
 40
0.4904006794
100
AcDbArc
 50
316.2076703059
 51
43.7923296941
  0
ARC
  5
847
100
AcDbEntity
  8
ASSI
100
AcDbCircle
 62
7
  6
CONTINUOUS
 10
90.7273684211
 20
85.7078947368
 40
0.4904006794
100
AcDbArc
 50
136.2076703059
 51
223.7923296941
  0
ARC
  5
848
100
AcDbEntity
  8
ASSI
100
AcDbCircle
 62
7
  6
CONTINUOUS
 10
98.7273684211
 20
132.1078947368
 40
0.4904006794
100
AcDbArc
 50
316.2076703059
 51
43.7923296941
  0
ARC
  5
849
100
AcDbEntity
  8
ASSI
100
AcDbCircle
 62
7
  6
CONTINUOUS
 10
90.7273684211
 20
132.1078947368
 40
0.4904006794
100
AcDbArc
 50
136.2076703059
 51
223.7923296941
  0
CIRCLE
  5
84A
100
AcDbEntity
  8
0
100
AcDbCircle
 62
253
  6
CONTINUOUS
 10
100.7258884211
 20
121.4084457368
 40
0.419297
  0
ELLIPSE
  5
84B
100
AcDbEntity
  8
ASSI
100
AcDbEllipse
 62
7
  6
CONTINUOUS
 10
97.2281912741
 20
88.8633805302
 30
0.0
 11
1.0003429753
 21
-0.0000079798
 31
0.0
 40
0.0087288573
 41
-1.5698824513
 42
0.0002286428
  0
ELLIPSE
  5
84C
100
AcDbEntity
  8
ASSI
100
AcDbEllipse
 62
7
  6
CONTINUOUS
 10
97.2865995207
 20
131.1829298932
 30
0.0
 11
1.0003425837
 21
-0.0000039869
 31
0.0
 40
0.0174470935
 41
-0.7048135361
 42
-0.0004567986
  0
ELLIPSE
  5
84D
100
AcDbEntity
  8
ASSI
100
AcDbEllipse
 62
7
  6
CONTINUOUS
 10
94.7273684211
 20
129.0902563691
 30
0.0
 11
14.9952243011
 21
-0.0
 31
0.0
 40
0.008726868
 41
-1.7343224474
 42
-1.4072702062
  0
ELLIPSE
  5
84E
100
AcDbEntity
  8
ASSI
100
AcDbEllipse
 62
7
  6
CONTINUOUS
 10
94.7273684211
 20
88.7255331046
 30
0.0
 11
14.9952243011
 21
-0.0
 31
0.0
 40
0.008726868
 41
1.4072702062
 42
1.7343224474
  0
ELLIPSE
  5
84F
100
AcDbEntity
  8
ASSI
100
AcDbEllipse
 62
7
  6
CONTINUOUS
 10
92.1681373214
 20
131.1829298932
 30
0.0
 11
1.0003425837
 21
0.0000039869
 31
0.0
 40
0.0174470935
 41
-3.141135855
 42
-2.4367791175
  0
ELLIPSE
  5
850
100
AcDbEntity
  8
ASSI
100
AcDbEllipse
 62
7
  6
CONTINUOUS
 10
92.226545568
 20
128.9524089435
 30
0.0
 11
1.0003429753
 21
-0.0000079798
 31
0.0
 40
0.0087288573
 41
1.5717102023
 42
3.1418212964
  0
ELLIPSE
  5
851
100
AcDbEntity
  8
ASSI
100
AcDbEllipse
 62
7
  6
CONTINUOUS
 10
97.2281912741
 20
128.9524089435
 30
0.0
 11
1.0003429753
 21
0.0000079798
 31
0.0
 40
0.0087288573
 41
-0.0002286428
 42
1.5698824513
  0
ELLIPSE
  5
852
100
AcDbEntity
  8
ASSI
100
AcDbEllipse
 62
7
  6
CONTINUOUS
 10
92.226545568
 20
88.8633805302
 30
0.0
 11
1.0003429753
 21
0.0000079798
 31
0.0
 40
0.0087288573
 41
3.1413640107
 42
4.7114751049
  0
ELLIPSE
  5
853
100
AcDbEntity
  8
ASSI
100
AcDbEllipse
 62
7
  6
CONTINUOUS
 10
92.1681373214
 20
86.6328595805
 30
0.0
 11
1.0003425837
 21
-0.0000039869
 31
0.0
 40
0.0174470935
 41
2.4367791175
 42
3.141135855
  0
ELLIPSE
  5
854
100
AcDbEntity
  8
ASSI
100
AcDbEllipse
 62
7
  6
CONTINUOUS
 10
97.2865995207
 20
86.6328595805
 30
0.0
 11
1.0003425837
 21
0.0000039869
 31
0.0
 40
0.0174470935
 41
0.0004567986
 42
0.7048135361
  0
ELLIPSE
  5
855
100
AcDbEntity
  8
ASSI
100
AcDbEllipse
 62
7
  6
CONTINUOUS
 10
105.3098371921
 20
87.0254259658
 30
0.0
 11
-0.3536610946
 21
0.3536610946
 31
0.0
 40
0.9996954599
 41
2.3563467834
 42
3.9268385237
  0
ELLIPSE
  5
856
100
AcDbEntity
  8
ASSI
100
AcDbEllipse
 62
7
  6
CONTINUOUS
 10
84.14489965
 20
87.0254259658
 30
0.0
 11
-0.3536610946
 21
-0.3536610946
 31
0.0
 40
0.9996954599
 41
-0.7852458701
 42
0.7852458701
  0
ELLIPSE
  5
857
100
AcDbEntity
  8
ASSI
100
AcDbEllipse
 62
7
  6
CONTINUOUS
 10
105.3098371921
 20
130.7903635079
 30
0.0
 11
0.3536610946
 21
0.3536610946
 31
0.0
 40
0.9996954599
 41
-0.7852458701
 42
0.7852458701
  0
ELLIPSE
  5
858
100
AcDbEntity
  8
ASSI
100
AcDbEllipse
 62
7
  6
CONTINUOUS
 10
84.14489965
 20
130.7903635079
 30
0.0
 11
0.3536610946
 21
-0.3536610946
 31
0.0
 40
0.9996954599
 41
2.3563467834
 42
3.9268385237
  0
ELLIPSE
  5
859
100
AcDbEntity
  8
ASSI
100
AcDbEllipse
 62
7
  6
CONTINUOUS
 10
103.4904978018
 20
132.4635571695
 30
0.0
 11
0.25
 21
-0.0
 31
0.0
 40
0.5773502692
 41
2.617993878
 42
3.1241393611
  0
ELLIPSE
  5
85A
100
AcDbEntity
  8
ASSI
100
AcDbEllipse
 62
7
  6
CONTINUOUS
 10
85.6904978018
 20
132.4635571695
 30
0.0
 11
0.25
 21
0.0
 31
0.0
 40
0.5773502692
 41
2.617993878
 42
3.1241393611
  0
ELLIPSE
  5
85B
100
AcDbEntity
  8
ASSI
100
AcDbEllipse
 62
7
  6
CONTINUOUS
 10
103.7642390403
 20
85.3522323041
 30
0.0
 11
0.25
 21
0.0
 31
0.0
 40
0.5773502692
 41
-0.5235987756
 42
-0.0174532925
  0
ELLIPSE
  5
85C
100
AcDbEntity
  8
ASSI
100
AcDbEllipse
 62
7
  6
CONTINUOUS
 10
85.9642390403
 20
85.3522323041
 30
0.0
 11
0.25
 21
0.0
 31
0.0
 40
0.5773502692
 41
-0.5235987756
 42
-0.0174532925
  0
ELLIPSE
  5
85D
100
AcDbEntity
  8
ASSI
100
AcDbEllipse
 62
7
  6
CONTINUOUS
 10
98.7733237604
 20
85.7078947368
 30
0.0
 11
0.4595995956
 21
-0.0
 31
0.0
 40
0.9949884474
 41
0.4967770086
 42
0.8362648721
  0
ELLIPSE
  5
85E
100
AcDbEntity
  8
ASSI
100
AcDbEllipse
 62
7
  6
CONTINUOUS
 10
98.7733237604
 20
85.7078947368
 30
0.0
 11
0.4595995956
 21
0.0
 31
0.0
 40
0.9949884474
 41
-0.8362648721
 42
-0.4967770086
  0
ELLIPSE
  5
85F
100
AcDbEntity
  8
ASSI
100
AcDbEllipse
 62
7
  6
CONTINUOUS
 10
98.7733237605
 20
132.1078947368
 30
0.0
 11
0.4595995956
 21
-0.0
 31
0.0
 40
0.9949884474
 41
0.4967770086
 42
0.8362648721
  0
ELLIPSE
  5
860
100
AcDbEntity
  8
ASSI
100
AcDbEllipse
 62
7
  6
CONTINUOUS
 10
98.7733237604
 20
132.1078947368
 30
0.0
 11
0.4595995956
 21
-0.0
 31
0.0
 40
0.9949884474
 41
-0.8362648721
 42
-0.4967770086
  0
ELLIPSE
  5
861
100
AcDbEntity
  8
ASSI
100
AcDbEllipse
 62
7
  6
CONTINUOUS
 10
90.6814130817
 20
85.7078947368
 30
0.0
 11
0.4595995956
 21
0.0
 31
0.0
 40
0.9949884474
 41
-2.644815645
 42
-2.3053277814
  0
ELLIPSE
  5
862
100
AcDbEntity
  8
ASSI
100
AcDbEllipse
 62
7
  6
CONTINUOUS
 10
90.6814130817
 20
85.7078947368
 30
0.0
 11
0.4595995956
 21
0.0
 31
0.0
 40
0.9949884474
 41
2.3053277814
 42
2.644815645
  0
ELLIPSE
  5
863
100
AcDbEntity
  8
ASSI
100
AcDbEllipse
 62
7
  6
CONTINUOUS
 10
90.6814130817
 20
132.1078947368
 30
0.0
 11
0.4595995956
 21
0.0
 31
0.0
 40
0.9949884474
 41
-2.644815645
 42
-2.3053277814
  0
ELLIPSE
  5
864
100
AcDbEntity
  8
ASSI
100
AcDbEllipse
 62
7
  6
CONTINUOUS
 10
90.6814130817
 20
132.1078947368
 30
0.0
 11
0.4595995956
 21
0.0
 31
0.0
 40
0.9949884474
 41
2.3053277814
 42
2.644815645
  0
ELLIPSE
  5
865
100
AcDbEntity
  8
ASSI
100
AcDbEllipse
 62
7
  6
CONTINUOUS
 10
86.6693741353
 20
87.7000527791
 30
0.0
 11
0.0
 21
1.0
 31
0.0
 40
0.0174550649
 41
-1.8269402072
 42
-1.5707963268
  0
ELLIPSE
  5
866
100
AcDbEntity
  8
ASSI
100
AcDbEllipse
 62
7
  6
CONTINUOUS
 10
102.7853627068
 20
87.7000527791
 30
0.0
 11
0.0
 21
1.0
 31
0.0
 40
0.0174550649
 41
-4.7123889804
 42
-4.4562451
  0
ELLIPSE
  5
867
100
AcDbEntity
  8
ASSI
100
AcDbEllipse
 62
7
  6
CONTINUOUS
 10
102.7853627068
 20
130.1157366946
 30
0.0
 11
-0.0
 21
1.0
 31
0.0
 40
0.0174550649
 41
1.3146524464
 42
1.5707963268
  0
ELLIPSE
  5
868
100
AcDbEntity
  8
ASSI
100
AcDbEllipse
 62
7
  6
CONTINUOUS
 10
86.6693741353
 20
130.1157366946
 30
0.0
 11
0.0
 21
1.0
 31
0.0
 40
0.0174550649
 41
-1.5707963268
 42
-1.3146524464
  0
ELLIPSE
  5
869
100
AcDbEntity
  8
ASSI
100
AcDbEllipse
 62
7
  6
CONTINUOUS
 10
103.0337682607
 20
130.1157366946
 30
0.0
 11
1.0000571192
 21
-0.9999809595
 31
0.0
 40
0.0061705924
 41
-3.1303103451
 42
-1.8331111913
  0
ELLIPSE
  5
86A
100
AcDbEntity
  8
ASSI
100
AcDbEllipse
 62
7
  6
CONTINUOUS
 10
86.4209685815
 20
130.1157366946
 30
0.0
 11
1.0000571192
 21
0.9999809595
 31
0.0
 40
0.0061705924
 41
-1.3084814623
 42
-0.0112823085
  0
ELLIPSE
  5
86B
100
AcDbEntity
  8
ASSI
100
AcDbEllipse
 62
7
  6
CONTINUOUS
 10
103.0337682607
 20
87.7000527791
 30
0.0
 11
1.0000571192
 21
0.9999809595
 31
0.0
 40
0.0061705924
 41
1.8331111913
 42
3.1303103451
  0
ELLIPSE
  5
86C
100
AcDbEntity
  8
ASSI
100
AcDbEllipse
 62
7
  6
CONTINUOUS
 10
86.4209685815
 20
87.7000527791
 30
0.0
 11
1.0000571192
 21
-0.9999809595
 31
0.0
 40
0.0061705924
 41
0.0112823085
 42
1.3084814623
  0
ELLIPSE
  5
86D
100
AcDbEntity
  8
ASSI
100
AcDbEllipse
 62
7
  6
CONTINUOUS
 10
93.660804711
 20
132.6413310268
 30
0.0
 11
0.1232958913
 21
0.2177184957
 31
0.0
 40
0.9991120018
 41
-1.0555945372
 42
0.5148972031
  0
ELLIPSE
  5
86E
100
AcDbEntity
  8
ASSI
100
AcDbEllipse
 62
7
  6
CONTINUOUS
 10
95.7939321311
 20
132.6413310268
 30
0.0
 11
-0.1232958913
 21
0.2177184957
 31
0.0
 40
0.9991120018
 41
-0.5148972031
 42
1.0555945372
  0
ELLIPSE
  5
86F
100
AcDbEntity
  8
ASSI
100
AcDbEllipse
 62
7
  6
CONTINUOUS
 10
98.0289947841
 20
88.0169021783
 30
0.0
 11
0.2500430089
 21
-0.0006662079
 31
0.0
 40
0.3638978753
 41
1.5781179573
 42
3.1489142841
  0
ELLIPSE
  5
870
100
AcDbEntity
  8
ASSI
100
AcDbEllipse
 62
7
  6
CONTINUOUS
 10
103.7642390403
 20
132.4635571695
 30
0.0
 11
0.25
 21
0.0
 31
0.0
 40
0.5773502692
 41
0.0174532925
 42
0.5235987756
  0
ELLIPSE
  5
871
100
AcDbEntity
  8
ASSI
100
AcDbEllipse
 62
7
  6
CONTINUOUS
 10
103.7642390403
 20
131.2948034381
 30
0.0
 11
0.25
 21
-0.0
 31
0.0
 40
0.0174550649
 41
-1.5707963268
 42
-0.0174532925
  0
ELLIPSE
  5
872
100
AcDbEntity
  8
ASSI
100
AcDbEllipse
 62
7
  6
CONTINUOUS
 10
85.9642390403
 20
132.4635571695
 30
0.0
 11
0.25
 21
0.0
 31
0.0
 40
0.5773502692
 41
0.0174532925
 42
0.5235987756
  0
ELLIPSE
  5
873
100
AcDbEntity
  8
ASSI
100
AcDbEllipse
 62
7
  6
CONTINUOUS
 10
85.9642390403
 20
131.2948034381
 30
0.0
 11
0.25
 21
-0.0
 31
0.0
 40
0.0174550649
 41
-1.5707963268
 42
-0.0174532925
  0
ELLIPSE
  5
874
100
AcDbEntity
  8
ASSI
100
AcDbEllipse
 62
7
  6
CONTINUOUS
 10
103.7642390403
 20
86.5209860355
 30
0.0
 11
0.25
 21
-0.0
 31
0.0
 40
0.0174550649
 41
0.0174532925
 42
1.5707963268
  0
ELLIPSE
  5
875
100
AcDbEntity
  8
ASSI
100
AcDbEllipse
 62
7
  6
CONTINUOUS
 10
85.9642390403
 20
86.5209860355
 30
0.0
 11
0.25
 21
0.0
 31
0.0
 40
0.0174550649
 41
0.0174532925
 42
1.5707963268
  0
ELLIPSE
  5
876
100
AcDbEntity
  8
ASSI
100
AcDbEllipse
 62
7
  6
CONTINUOUS
 10
98.0289947841
 20
129.7988872954
 30
0.0
 11
0.2500430089
 21
0.0006662079
 31
0.0
 40
0.3638978753
 41
3.134271023
 42
4.7050673498
  0
ELLIPSE
  5
877
100
AcDbEntity
  8
ASSI
100
AcDbEllipse
 62
7
  6
CONTINUOUS
 10
91.425742058
 20
88.0169021783
 30
0.0
 11
0.2500430089
 21
0.0006662079
 31
0.0
 40
0.3638978753
 41
-0.0073216305
 42
1.5634746963
  0
ELLIPSE
  5
878
100
AcDbEntity
  8
ASSI
100
AcDbEllipse
 62
7
  6
CONTINUOUS
 10
91.425742058
 20
129.7988872954
 30
0.0
 11
0.2500430089
 21
-0.0006662079
 31
0.0
 40
0.3638978753
 41
-1.5634746963
 42
0.0073216305
  0
ELLIPSE
  5
879
100
AcDbEntity
  8
ASSI
100
AcDbEllipse
 62
7
  6
CONTINUOUS
 10
98.575217589
 20
132.6413310268
 30
0.0
 11
0.0040937266
 21
0.2501189627
 31
0.0
 40
0.999390466
 41
0.0163556832
 42
1.5609760594
  0
ELLIPSE
  5
87A
100
AcDbEntity
  8
ASSI
100
AcDbEllipse
 62
7
  6
CONTINUOUS
 10
85.6904978018
 20
131.2948034381
 30
0.0
 11
0.25
 21
-0.0
 31
0.0
 40
0.0174550649
 41
-3.1241393611
 42
-1.5707963268
  0
ELLIPSE
  5
87B
100
AcDbEntity
  8
ASSI
100
AcDbEllipse
 62
7
  6
CONTINUOUS
 10
103.4904978018
 20
131.2948034381
 30
0.0
 11
0.25
 21
-0.0
 31
0.0
 40
0.0174550649
 41
-3.1241393611
 42
-1.5707963268
  0
ELLIPSE
  5
87C
100
AcDbEntity
  8
ASSI
100
AcDbEllipse
 62
7
  6
CONTINUOUS
 10
90.8795192531
 20
132.6413310268
 30
0.0
 11
-0.0040937266
 21
0.2501189627
 31
0.0
 40
0.999390466
 41
-1.5609760594
 42
-0.0163556832
  0
ELLIPSE
  5
87D
100
AcDbEntity
  8
ASSI
100
AcDbEllipse
 62
7
  6
CONTINUOUS
 10
98.575217589
 20
85.1744584469
 30
0.0
 11
-0.0040937266
 21
0.2501189627
 31
0.0
 40
0.999390466
 41
-4.702568713
 42
-3.1579483368
  0
ELLIPSE
  5
87E
100
AcDbEntity
  8
ASSI
100
AcDbEllipse
 62
7
  6
CONTINUOUS
 10
90.8795192531
 20
85.1744584469
 30
0.0
 11
0.0040937266
 21
0.2501189627
 31
0.0
 40
0.999390466
 41
-3.1252369704
 42
-1.5806165941
  0
ELLIPSE
  5
87F
100
AcDbEntity
  8
ASSI
100
AcDbEllipse
 62
7
  6
CONTINUOUS
 10
103.4904978018
 20
85.3522323041
 30
0.0
 11
0.25
 21
-0.0
 31
0.0
 40
0.5773502692
 41
-3.1241393611
 42
-2.617993878
  0
ELLIPSE
  5
880
100
AcDbEntity
  8
ASSI
100
AcDbEllipse
 62
7
  6
CONTINUOUS
 10
103.4904978018
 20
86.5209860355
 30
0.0
 11
0.25
 21
0.0
 31
0.0
 40
0.0174550649
 41
1.5707963268
 42
3.1241393611
  0
ELLIPSE
  5
881
100
AcDbEntity
  8
ASSI
100
AcDbEllipse
 62
7
  6
CONTINUOUS
 10
85.6904978018
 20
85.3522323041
 30
0.0
 11
0.25
 21
0.0
 31
0.0
 40
0.5773502692
 41
-3.1241393611
 42
-2.617993878
  0
ELLIPSE
  5
882
100
AcDbEntity
  8
ASSI
100
AcDbEllipse
 62
7
  6
CONTINUOUS
 10
85.6904978018
 20
86.5209860355
 30
0.0
 11
0.25
 21
-0.0
 31
0.0
 40
0.0174550649
 41
1.5707963268
 42
3.1241393611
  0
ELLIPSE
  5
883
100
AcDbEntity
  8
ASSI
100
AcDbEllipse
 62
7
  6
CONTINUOUS
 10
105.1273379554
 20
85.5543048984
 30
0.0
 11
0.0069796346
 21
0.2308610084
 31
0.0
 40
0.8659264732
 41
-1.5358963758
 42
0.026173628
  0
ELLIPSE
  5
884
100
AcDbEntity
  8
ASSI
100
AcDbEllipse
 62
7
  6
CONTINUOUS
 10
84.3273988867
 20
132.2614845753
 30
0.0
 11
0.0069796346
 21
0.2308610084
 31
0.0
 40
0.8659264732
 41
-4.6774890294
 42
-3.1154190256
  0
ELLIPSE
  5
885
100
AcDbEntity
  8
ASSI
100
AcDbEllipse
 62
7
  6
CONTINUOUS
 10
102.1273988867
 20
85.5543048984
 30
0.0
 11
-0.0069796346
 21
0.2308610084
 31
0.0
 40
0.8659264732
 41
-0.026173628
 42
1.5358963756
  0
ELLIPSE
  5
886
100
AcDbEntity
  8
ASSI
100
AcDbEllipse
 62
7
  6
CONTINUOUS
 10
95.7939321311
 20
85.1744584469
 30
0.0
 11
0.1232958913
 21
0.2177184957
 31
0.0
 40
0.9991120018
 41
-4.1971871908
 42
-2.6266954505
  0
ELLIPSE
  5
887
100
AcDbEntity
  8
ASSI
100
AcDbEllipse
 62
7
  6
CONTINUOUS
 10
102.1273988867
 20
132.2614845753
 30
0.0
 11
0.0069796346
 21
0.2308610084
 31
0.0
 40
0.8659264732
 41
-4.6774890294
 42
-3.1154190256
  0
ELLIPSE
  5
888
100
AcDbEntity
  8
ASSI
100
AcDbEllipse
 62
7
  6
CONTINUOUS
 10
87.3273379554
 20
85.5543048984
 30
0.0
 11
0.0069796346
 21
0.2308610084
 31
0.0
 40
0.8659264732
 41
-1.5358963758
 42
0.026173628
  0
ELLIPSE
  5
889
100
AcDbEntity
  8
ASSI
100
AcDbEllipse
 62
7
  6
CONTINUOUS
 10
93.660804711
 20
85.1744584469
 30
0.0
 11
-0.1232958913
 21
0.2177184957
 31
0.0
 40
0.9991120018
 41
-3.6564898566
 42
-2.0859981163
  0
ELLIPSE
  5
88A
100
AcDbEntity
  8
ASSI
100
AcDbEllipse
 62
7
  6
CONTINUOUS
 10
84.3273988867
 20
85.5543048984
 30
0.0
 11
-0.0069796346
 21
0.2308610084
 31
0.0
 40
0.8659264732
 41
-0.026173628
 42
1.5358963756
  0
ELLIPSE
  5
88B
100
AcDbEntity
  8
ASSI
100
AcDbEllipse
 62
7
  6
CONTINUOUS
 10
105.1273379554
 20
132.2614845753
 30
0.0
 11
-0.0069796346
 21
0.2308610084
 31
0.0
 40
0.8659264732
 41
-3.1677662815
 42
-1.6056962779
  0
ELLIPSE
  5
88C
100
AcDbEntity
  8
ASSI
100
AcDbEllipse
 62
7
  6
CONTINUOUS
 10
87.3273379554
 20
132.2614845753
 30
0.0
 11
-0.0069796346
 21
0.2308610084
 31
0.0
 40
0.8659264732
 41
-3.1677662815
 42
-1.6056962779
  0
ELLIPSE
  5
88D
100
AcDbEntity
  8
ASSI
100
AcDbEllipse
 62
7
  6
CONTINUOUS
 10
104.4136112232
 20
118.9078947368
 30
0.0
 11
0.0
 21
2.1
 31
0.0
 40
0.0087268678
 41
-3.1415926536
 42
-0.0
  0
ELLIPSE
  5
88E
100
AcDbEntity
  8
ASSI
100
AcDbEllipse
 62
7
  6
CONTINUOUS
 10
104.4136112232
 20
123.9078947368
 30
0.0
 11
0.0
 21
2.1
 31
0.0
 40
0.0087268678
 41
-3.1415926536
 42
-0.0
  0
ELLIPSE
  5
88F
100
AcDbEntity
  8
RACCORDO
100
AcDbEllipse
 62
7
  6
CONTINUOUS
 10
103.877063765
 20
126.5793414194
 30
0.0
 11
1.8480888181
 21
0.7655034529
 31
0.0
 40
0.9998215708
 41
-0.3926359958
 42
0.3926359958
  0
ELLIPSE
  5
890
100
AcDbEntity
  8
RACCORDO
100
AcDbEllipse
 62
7
  6
CONTINUOUS
 10
103.877063765
 20
91.2364480543
 30
0.0
 11
1.8480888181
 21
-0.7655034529
 31
0.0
 40
0.9998215708
 41
-0.3926359958
 42
0.3926359958
  0
ELLIPSE
  5
891
100
AcDbEntity
  8
RACCORDO
100
AcDbEllipse
 62
7
  6
CONTINUOUS
 10
85.5776730771
 20
91.2364480543
 30
0.0
 11
1.8480888181
 21
0.7655034529
 31
0.0
 40
0.9998215708
 41
2.7489566578
 42
3.5342286494
  0
ELLIPSE
  5
892
100
AcDbEntity
  8
RACCORDO
100
AcDbEllipse
 62
7
  6
CONTINUOUS
 10
85.5776730771
 20
126.5793414194
 30
0.0
 11
1.8480888181
 21
-0.7655034529
 31
0.0
 40
0.9998215708
 41
2.7489566578
 42
3.5342286494
  0
ELLIPSE
  5
893
100
AcDbEntity
  8
ASSI
100
AcDbEllipse
 62
7
  6
CONTINUOUS
 10
105.5998328887
 20
118.9078947368
 30
0.0
 11
-0.0
 21
2.1
 31
0.0
 40
0.0174550649
 41
-3.1415926536
 42
0.0
  0
ELLIPSE
  5
894
100
AcDbEntity
  8
ASSI
100
AcDbEllipse
 62
7
  6
CONTINUOUS
 10
105.5998328887
 20
123.9078947368
 30
0.0
 11
0.0
 21
2.1
 31
0.0
 40
0.0174550649
 41
-3.1415926536
 42
0.0
  0
ELLIPSE
  5
895
100
AcDbEntity
  8
RACCORDO
100
AcDbEllipse
 62
7
  6
CONTINUOUS
 10
93.1292510228
 20
128.8061492304
 30
0.0
 11
0.9
 21
-0.0
 31
0.0
 40
0.0174550649
 41
-3.1241393611
 42
-1.5707963268
  0
ELLIPSE
  5
896
100
AcDbEntity
  8
RACCORDO
100
AcDbEllipse
 62
7
  6
CONTINUOUS
 10
96.3254858193
 20
128.8061492304
 30
0.0
 11
0.9
 21
0.0
 31
0.0
 40
0.0174550649
 41
-1.5707963268
 42
-0.0174532925
  0
ELLIPSE
  5
897
100
AcDbEntity
  8
RACCORDO
100
AcDbEllipse
 62
7
  6
CONTINUOUS
 10
85.3494761442
 20
127.5187215777
 30
0.0
 11
-0.3827517264
 21
0.9240444091
 31
0.0
 40
0.9998215708
 41
-0.3926359957
 42
0.3926359958
  0
ELLIPSE
  5
898
100
AcDbEntity
  8
RACCORDO
100
AcDbEllipse
 62
7
  6
CONTINUOUS
 10
85.3494761442
 20
90.297067896
 30
0.0
 11
0.3827517264
 21
0.9240444091
 31
0.0
 40
0.9998215708
 41
-3.5342286494
 42
-2.7489566578
  0
ELLIPSE
  5
899
100
AcDbEntity
  8
RACCORDO
100
AcDbEllipse
 62
7
  6
CONTINUOUS
 10
104.1052606979
 20
90.297067896
 30
0.0
 11
-0.3827517264
 21
0.9240444091
 31
0.0
 40
0.9998215708
 41
-3.5342286493
 42
-2.7489566577
  0
ELLIPSE
  5
89A
100
AcDbEntity
  8
RACCORDO
100
AcDbEllipse
 62
7
  6
CONTINUOUS
 10
104.1052606979
 20
127.5187215777
 30
0.0
 11
0.3827517264
 21
0.9240444091
 31
0.0
 40
0.9998215708
 41
-0.3926359958
 42
0.3926359958
  0
ELLIPSE
  5
89B
100
AcDbEntity
  8
RACCORDO
100
AcDbEllipse
 62
7
  6
CONTINUOUS
 10
93.1292510228
 20
89.0096402433
 30
0.0
 11
0.9
 21
-0.0
 31
0.0
 40
0.0174550649
 41
1.5707963268
 42
3.1241393611
  0
ELLIPSE
  5
89C
100
AcDbEntity
  8
RACCORDO
100
AcDbEllipse
 62
7
  6
CONTINUOUS
 10
96.3254858193
 20
89.0096402433
 30
0.0
 11
0.9
 21
0.0
 31
0.0
 40
0.0174550649
 41
0.0174532925
 42
1.5707963268
  0
ELLIPSE
  5
89D
100
AcDbEntity
  8
0
100
AcDbEllipse
 62
7
  6
CONTINUOUS
 10
85.5776730771
 20
126.5793414194
 30
0.0
 11
1.8480888181
 21
-0.7655034529
 31
0.0
 40
0.9998215708
 41
2.7489566578
 42
3.5342286494
  0
ELLIPSE
  5
89E
100
AcDbEntity
  8
0
100
AcDbEllipse
 62
7
  6
CONTINUOUS
 10
85.5776730771
 20
91.2364480543
 30
0.0
 11
1.8480888181
 21
0.7655034529
 31
0.0
 40
0.9998215708
 41
2.7489566578
 42
3.5342286494
  0
ELLIPSE
  5
89F
100
AcDbEntity
  8
0
100
AcDbEllipse
 62
7
  6
CONTINUOUS
 10
103.877063765
 20
91.2364480543
 30
0.0
 11
1.8480888181
 21
-0.7655034529
 31
0.0
 40
0.9998215708
 41
-0.3926359958
 42
0.3926359958
  0
ELLIPSE
  5
8A0
100
AcDbEntity
  8
0
100
AcDbEllipse
 62
7
  6
CONTINUOUS
 10
103.877063765
 20
126.5793414194
 30
0.0
 11
1.8480888181
 21
0.7655034529
 31
0.0
 40
0.9998215708
 41
-0.3926359958
 42
0.3926359958
  0
ELLIPSE
  5
8A1
100
AcDbEntity
  8
0
100
AcDbEllipse
 62
7
  6
CONTINUOUS
 10
104.4136112232
 20
123.9078947368
 30
0.0
 11
0.0
 21
2.1
 31
0.0
 40
0.0087268678
 41
-3.0960455192
 42
-0.0
  0
ELLIPSE
  5
8A2
100
AcDbEntity
  8
0
100
AcDbEllipse
 62
7
  6
CONTINUOUS
 10
104.4136112232
 20
118.9078947368
 30
0.0
 11
0.0
 21
2.1
 31
0.0
 40
0.0087268678
 41
-3.0960455192
 42
-0.0
  0
ELLIPSE
  5
8A3
100
AcDbEntity
  8
0
100
AcDbEllipse
 62
7
  6
CONTINUOUS
 10
105.5998328887
 20
123.9078947368
 30
0.0
 11
0.0
 21
2.1
 31
0.0
 40
0.0174550649
 41
-3.1415926536
 42
0.0
  0
ELLIPSE
  5
8A4
100
AcDbEntity
  8
0
100
AcDbEllipse
 62
7
  6
CONTINUOUS
 10
105.5998328887
 20
118.9078947368
 30
0.0
 11
-0.0
 21
2.1
 31
0.0
 40
0.0174550649
 41
-3.1415926536
 42
0.0
  0
ELLIPSE
  5
8A5
100
AcDbEntity
  8
0
100
AcDbEllipse
 62
7
  6
CONTINUOUS
 10
96.3254858193
 20
89.0096402433
 30
0.0
 11
0.9
 21
0.0
 31
0.0
 40
0.0174550649
 41
0.0174532925
 42
1.5707963268
  0
ELLIPSE
  5
8A6
100
AcDbEntity
  8
0
100
AcDbEllipse
 62
7
  6
CONTINUOUS
 10
93.1292510228
 20
89.0096402433
 30
0.0
 11
0.9
 21
-0.0
 31
0.0
 40
0.0174550649
 41
1.5707963268
 42
3.1241393611
  0
ELLIPSE
  5
8A7
100
AcDbEntity
  8
0
100
AcDbEllipse
 62
7
  6
CONTINUOUS
 10
96.3254858193
 20
128.8061492304
 30
0.0
 11
0.9
 21
0.0
 31
0.0
 40
0.0174550649
 41
-1.5707963268
 42
-0.0174532925
  0
ELLIPSE
  5
8A8
100
AcDbEntity
  8
0
100
AcDbEllipse
 62
7
  6
CONTINUOUS
 10
93.1292510228
 20
128.8061492304
 30
0.0
 11
0.9
 21
-0.0
 31
0.0
 40
0.0174550649
 41
-3.1241393611
 42
-1.5707963268
  0
ELLIPSE
  5
8A9
100
AcDbEntity
  8
0
100
AcDbEllipse
 62
7
  6
CONTINUOUS
 10
104.1052606979
 20
127.5187215777
 30
0.0
 11
0.3827517264
 21
0.9240444091
 31
0.0
 40
0.9998215708
 41
-0.3926359958
 42
0.3926359958
  0
ELLIPSE
  5
8AA
100
AcDbEntity
  8
0
100
AcDbEllipse
 62
7
  6
CONTINUOUS
 10
104.1052606979
 20
90.297067896
 30
0.0
 11
-0.3827517264
 21
0.9240444091
 31
0.0
 40
0.9998215708
 41
-3.5342286493
 42
-2.7489566577
  0
ELLIPSE
  5
8AB
100
AcDbEntity
  8
0
100
AcDbEllipse
 62
7
  6
CONTINUOUS
 10
85.3494761442
 20
90.297067896
 30
0.0
 11
0.3827517264
 21
0.9240444091
 31
0.0
 40
0.9998215708
 41
-3.5342286494
 42
-2.7489566578
  0
ELLIPSE
  5
8AC
100
AcDbEntity
  8
0
100
AcDbEllipse
 62
7
  6
CONTINUOUS
 10
85.3494761442
 20
127.5187215777
 30
0.0
 11
-0.3827517264
 21
0.9240444091
 31
0.0
 40
0.9998215708
 41
-0.3926359957
 42
0.3926359958
  0
ENDSEC
  0
SECTION
  2
OBJECTS
  0
DICTIONARY
  5
C
100
AcDbDictionary
280
0
281
1
  3
ACAD_GROUP
350
D
  3
ACAD_MLINESTYLE
350
17
  3
ACAD_LAYOUT
350
1A
  3
ACAD_PLOTSETTINGS
350
19
  3
ACAD_PLOTSTYLENAME
350
E
  0
DICTIONARY
  5
D
102
{ACAD_REACTORS
330
C
102
}
100
AcDbDictionary
280
0
281
1
  0
ACDBDICTIONARYWDFLT
  5
E
102
{ACAD_REACTORS
330
C
102
}
100
AcDbDictionary
281
1
  3
Normal
350
F
100
AcDbDictionaryWithDefault
340
F
  0
DICTIONARY
  5
17
102
{ACAD_REACTORS
330
C
102
}
100
AcDbDictionary
280
0
281
1
  3
Standard
350
18
  0
DICTIONARY
  5
19
102
{ACAD_REACTORS
330
C
102
}
100
AcDbDictionary
281
1
  0
DICTIONARY
  5
1A
102
{ACAD_REACTORS
330
C
102
}
100
AcDbDictionary
281
1
  3
Model
350
8AD
  3
Layout1
350
8AE
  0
ACDBPLACEHOLDER
  5
F
102
{ACAD_REACTORS
330
E
102
}
  0
MLINESTYLE
  5
18
102
{ACAD_REACTORS
330
17
102
}
100
AcDbMlineStyle
  2
STANDARD
 70
0
  3

 62
256
 51
90.0
 52
90.0
 71
2
 49
0.5
 62
256
  6
BYLAYER
 49
-0.5
 62
256
  6
BYLAYER
  0
LAYOUT
  5
8AD
102
{ACAD_REACTORS
330
1A
102
}
100
AcDbPlotSettings
  1

  2
none_device
  4
ISO_A4_(297.00_x_210.00_MM)
  6

 40
0.0
 41
0.0
 42
0.0
 43
0.0
 44
297.0
 45
210.0
 46
0.0
 47
0.0
 48
0.0
 49
0.0
140
0.0
141
0.0
142
1.0
143
1.0
 70
1024
 72
1
 73
0
 74
0
  7

 75
0
147
1.0
148
0.0
149
0.0
100
AcDbLayout
  1
Model
 70
0
 71
0
 10
0.0
 20
0.0
 11
297.0
 21
210.0
 12
0.0
 22
0.0
 32
0.0
 14
0.0
 24
0.0
 34
0.0
 15
0.0
 25
0.0
 35
0.0
146
0.0
 13
0.0
 23
0.0
 33
0.0
 16
1.0
 26
0.0
 36
0.0
 17
0.0
 27
1.0
 37
0.0
 76
0
330
226
345
0
346
0
  0
LAYOUT
  5
8AE
102
{ACAD_REACTORS
330
1A
102
}
100
AcDbPlotSettings
  1

  2
none_device
  4
ISO_A4_(297.00_x_210.00_MM)
  6

 40
0.0
 41
0.0
 42
0.0
 43
0.0
 44
297.0
 45
210.0
 46
0.0
 47
0.0
 48
0.0
 49
0.0
140
0.0
141
0.0
142
1.0
143
1.0
 70
0
 72
1
 73
0
 74
0
  7

 75
0
147
1.0
148
0.0
149
0.0
100
AcDbLayout
  1
Layout1
 70
0
 71
1
 10
0.0
 20
0.0
 11
297.0
 21
210.0
 12
0.0
 22
0.0
 32
0.0
 14
0.0
 24
0.0
 34
0.0
 15
0.0
 25
0.0
 35
0.0
146
0.0
 13
0.0
 23
0.0
 33
0.0
 16
1.0
 26
0.0
 36
0.0
 17
0.0
 27
1.0
 37
0.0
 76
0
330
227
345
0
346
0
  0
ENDSEC
  0
EOF
