  0
SECTION
  2
HEADER
  9
$ACADVER
  1
AC1024
  9
$DWGCODEPAGE
  3
ANSI_1252
  9
$EXTMAX
 10
297.0
 20
210.0
 30
0.0
  9
$EXTMIN
 10
0.0
 20
0.0
 30
0.0
  9
$LIMMIN
 10
0.0
 20
0.0
  9
$LIMMAX
 10
297.0
 20
210.0
  9
$VIEWCTR
 10
148.5
 20
105.0
  9
$VIEWSIZE
 40
210.0
  9
$CLAYER
  8
0
  9
$LTSCALE
 40
16.335
  9
$CELTYPE
  6
BYLAYER
  9
$DIMSCALE
 40
1.0
  9
$DIMASZ
 40
3.0
  9
$DIMEXO
 40
0.5
  9
$DIMDLI
 40
11.286
  9
$DIMEXE
 40
1.5
  9
$DIMCEN
 40
2.673
  9
$DIMLFAC
 40
1.0
  9
$DIMBLK
  1
_FILLED
  9
$DIMALT
 70
0
  9
$DIMALTF
 40
0.0393700787
  9
$DIMTXT
 40
3.0
  9
$DIMTOL
 70
1
  9
$DIMLIM
 70
0
  9
$DIMTFAC
 40
1.0
  9
$DIMTP
 40
0.01
  9
$DIMTM
 40
0.01
  9
$DIMGAP
 40
0.625
  9
$DIMDSEP
 70
44
  9
$AUNITS
 70
0
  9
$PDMODE
 70
3
  9
$PDSIZE
 40
3.0
  9
$HANDSEED
  5
427
  9
$TILEMODE
 70
1
  9
$MEASUREMENT
 70
1
  9
$INSUNITS
 70
4
  0
ENDSEC
  0
SECTION
  2
CLASSES
  0
CLASS
  1
ACDBDICTIONARYWDFLT
  2
AcDbDictionaryWithDefault
  3
AutoCAD 2000
 90
0
 91
1
280
0
281
0
  0
CLASS
  1
ACDBPLACEHOLDER
  2
AcDbPlaceHolder
  3
AutoCAD 2000
 90
0
 91
1
280
0
281
0
  0
CLASS
  1
LAYOUT
  2
AcDbLayout
  3
AutoCAD 2000
 90
0
 91
0
280
0
281
0
  0
ENDSEC
  0
SECTION
  2
TABLES
  0
TABLE
  2
VPORT
  5
8
100
AcDbSymbolTable
 70
2
  0
VPORT
  5
1F4
100
AcDbSymbolTableRecord
100
AcDbViewportTableRecord
  2
*ACTIVE
 70
0
 10
0.0
 20
0.0
 11
1.0
 21
1.0
 12
148.5
 22
105.0
 13
0.0
 23
0.0
 14
1.0
 24
1.0
 15
0.0
 25
0.0
 16
0.0
 26
0.0
 36
1.0
 17
0.0
 27
0.0
 37
0.0
 40
210.0
 41
1.4142857143
 42
50.0
 43
0.0
 44
0.0
 50
0.0
 51
0.0
 71
0
 72
100
 73
1
 74
1
 75
0
 76
0
 77
0
 78
0
  0
ENDTAB
  0
TABLE
  2
LTYPE
  5
5
100
AcDbSymbolTable
 70
6
  0
LTYPE
  5
14
100
AcDbSymbolTableRecord
100
AcDbLinetypeTableRecord
  2
BYBLOCK
 70
0
  3

 72
65
 73
0
 40
0.0
  0
LTYPE
  5
15
100
AcDbSymbolTableRecord
100
AcDbLinetypeTableRecord
  2
BYLAYER
 70
0
  3

 72
65
 73
0
 40
0.0
  0
LTYPE
  5
16
100
AcDbSymbolTableRecord
100
AcDbLinetypeTableRecord
  2
CONTINUOUS
 70
64
  3
Solid line
 72
65
 73
0
 40
0.0
  0
LTYPE
  5
1F5
100
AcDbSymbolTableRecord
100
AcDbLinetypeTableRecord
  2
CENTER
 70
64
  3
____ _ ____ _ ____ _ ____ _ ____ _ ____ _ ____
 72
65
 73
4
 40
0.6
 49
0.375
 74
0
 49
-0.075
 74
0
 49
0.075
 74
0
 49
-0.075
 74
0
  0
LTYPE
  5
1F6
100
AcDbSymbolTableRecord
100
AcDbLinetypeTableRecord
  2
HIDDEN
 70
64
  3
- - - - - - - - - - - - - - - - - - - -
 72
65
 73
2
 40
0.2
 49
0.1
 74
0
 49
-0.1
 74
0
  0
LTYPE
  5
1F7
100
AcDbSymbolTableRecord
100
AcDbLinetypeTableRecord
  2
PHANTOM
 70
64
  3
_____ _ _ _____ _ _ _____ _ _ _____
 72
65
 73
6
 40
0.8
 49
0.45
 74
0
 49
-0.05
 74
0
 49
0.1
 74
0
 49
-0.05
 74
0
 49
0.1
 74
0
 49
-0.05
 74
0
  0
LTYPE
  5
1F8
100
AcDbSymbolTableRecord
100
AcDbLinetypeTableRecord
  2
DOT
 70
64
  3
. . . . . . . . . . . . . . . . . . . .
 72
65
 73
2
 40
0.2
 49
0.1
 74
0
 49
-0.1
 74
0
  0
LTYPE
  5
1F9
100
AcDbSymbolTableRecord
100
AcDbLinetypeTableRecord
  2
DASHED
 70
64
  3
- - - - - - - - - - - - - - - - - - - -
 72
65
 73
2
 40
0.2
 49
0.1
 74
0
 49
-0.1
 74
0
  0
ENDTAB
  0
TABLE
  2
LAYER
  5
2
100
AcDbSymbolTable
 70
36
  0
LAYER
  5
10
100
AcDbSymbolTableRecord
100
AcDbLayerTableRecord
  2
0
 70
0
 62
7
  6
CONTINUOUS
370
-3
390
F
  0
LAYER
  5
1FA
100
AcDbSymbolTableRecord
100
AcDbLayerTableRecord
  2
DEFAULT_1
 70
0
 62
7
  6
CENTER
370
-3
390
F
  0
LAYER
  5
1FB
100
AcDbSymbolTableRecord
100
AcDbLayerTableRecord
  2
DEFAULT_2
 70
0
 62
7
  6
HIDDEN
370
-3
390
F
  0
LAYER
  5
1FC
100
AcDbSymbolTableRecord
100
AcDbLayerTableRecord
  2
DEFAULT_3
 70
0
 62
7
  6
PHANTOM
370
-3
390
F
  0
LAYER
  5
1FD
100
AcDbSymbolTableRecord
100
AcDbLayerTableRecord
  2
ASSI
 70
0
 62
7
  6
CONTINUOUS
370
-3
390
F
  0
LAYER
  5
1FE
100
AcDbSymbolTableRecord
100
AcDbLayerTableRecord
  2
COLOR6
 70
0
 62
7
  6
CONTINUOUS
370
-3
390
F
  0
LAYER
  5
1FF
100
AcDbSymbolTableRecord
100
AcDbLayerTableRecord
  2
COORDINATE
 70
0
 62
7
  6
CONTINUOUS
370
-3
390
F
  0
LAYER
  5
200
100
AcDbSymbolTableRecord
100
AcDbLayerTableRecord
  2
COORD_ORIGINE
 70
0
 62
7
  6
CONTINUOUS
370
-3
390
F
  0
LAYER
  5
201
100
AcDbSymbolTableRecord
100
AcDbLayerTableRecord
  2
COPY_PUBLISH
 70
0
 62
7
  6
CONTINUOUS
370
-3
390
F
  0
LAYER
  5
202
100
AcDbSymbolTableRecord
100
AcDbLayerTableRecord
  2
COSMETIC
 70
0
 62
7
  6
CONTINUOUS
370
-3
390
F
  0
LAYER
  5
203
100
AcDbSymbolTableRecord
100
AcDbLayerTableRecord
  2
COSMETICI
 70
0
 62
7
  6
CONTINUOUS
370
-3
390
F
  0
LAYER
  5
204
100
AcDbSymbolTableRecord
100
AcDbLayerTableRecord
  2
CURVE
 70
0
 62
7
  6
CONTINUOUS
370
-3
390
F
  0
LAYER
  5
205
100
AcDbSymbolTableRecord
100
AcDbLayerTableRecord
  2
DRAFT
 70
0
 62
7
  6
CONTINUOUS
370
-3
390
F
  0
LAYER
  5
206
100
AcDbSymbolTableRecord
100
AcDbLayerTableRecord
  2
IMPORT_IGES
 70
0
 62
7
  6
CONTINUOUS
370
-3
390
F
  0
LAYER
  5
207
100
AcDbSymbolTableRecord
100
AcDbLayerTableRecord
  2
INTFCLR_2
 70
0
 62
7
  6
CONTINUOUS
370
-3
390
F
  0
LAYER
  5
208
100
AcDbSymbolTableRecord
100
AcDbLayerTableRecord
  2
INTF_1
 70
0
 62
7
  6
CONTINUOUS
370
-3
390
F
  0
LAYER
  5
209
100
AcDbSymbolTableRecord
100
AcDbLayerTableRecord
  2
INTF_14
 70
0
 62
7
  6
CONTINUOUS
370
-3
390
F
  0
LAYER
  5
20A
100
AcDbSymbolTableRecord
100
AcDbLayerTableRecord
  2
LINEA_CHIUSURA
 70
0
 62
7
  6
CONTINUOUS
370
-3
390
F
  0
LAYER
  5
20B
100
AcDbSymbolTableRecord
100
AcDbLayerTableRecord
  2
NOTE
 70
0
 62
7
  6
CONTINUOUS
370
-3
390
F
  0
LAYER
  5
20C
100
AcDbSymbolTableRecord
100
AcDbLayerTableRecord
  2
PIANI
 70
0
 62
7
  6
CONTINUOUS
370
-3
390
F
  0
LAYER
  5
20D
100
AcDbSymbolTableRecord
100
AcDbLayerTableRecord
  2
PIANI_ORIGINE
 70
0
 62
7
  6
CONTINUOUS
370
-3
390
F
  0
LAYER
  5
20E
100
AcDbSymbolTableRecord
100
AcDbLayerTableRecord
  2
PUNTI
 70
0
 62
7
  6
CONTINUOUS
370
-3
390
F
  0
LAYER
  5
20F
100
AcDbSymbolTableRecord
100
AcDbLayerTableRecord
  2
RACCORDO
 70
0
 62
7
  6
CONTINUOUS
370
-3
390
F
  0
LAYER
  5
210
100
AcDbSymbolTableRecord
100
AcDbLayerTableRecord
  2
SIMBOLI
 70
0
 62
7
  6
CONTINUOUS
370
-3
390
F
  0
LAYER
  5
211
100
AcDbSymbolTableRecord
100
AcDbLayerTableRecord
  2
SMUSSO
 70
0
 62
7
  6
CONTINUOUS
370
-3
390
F
  0
LAYER
  5
212
100
AcDbSymbolTableRecord
100
AcDbLayerTableRecord
  2
SNAPLINE
 70
0
 62
7
  6
CONTINUOUS
370
-3
390
F
  0
LAYER
  5
213
100
AcDbSymbolTableRecord
100
AcDbLayerTableRecord
  2
SUPERFICI
 70
0
 62
7
  6
CONTINUOUS
370
-3
390
F
  0
LAYER
  5
214
100
AcDbSymbolTableRecord
100
AcDbLayerTableRecord
  2
TRASH
 70
0
 62
7
  6
CONTINUOUS
370
-3
390
F
  0
LAYER
  5
215
100
AcDbSymbolTableRecord
100
AcDbLayerTableRecord
  2
XSEC_DATUMS
 70
0
 62
7
  6
CONTINUOUS
370
-3
390
F
  0
LAYER
  5
216
100
AcDbSymbolTableRecord
100
AcDbLayerTableRecord
  2
___SHELL
 70
0
 62
7
  6
CONTINUOUS
370
-3
390
F
  0
ENDTAB
  0
TABLE
  2
STYLE
  5
3
100
AcDbSymbolTable
 70
1
  0
STYLE
  5
11
100
AcDbSymbolTableRecord
100
AcDbTextStyleTableRecord
  2
STANDARD
 70
0
 40
0.0
 41
0.8
 50
0.0
 71
0
 42
0.2
  3
txt
  4

  0
STYLE
  5
217
100
AcDbSymbolTableRecord
100
AcDbTextStyleTableRecord
  2
TEXTSTYLE_1
 70
0
 40
0.0
 41
0.8
 50
0.0
 71
0
 42
0.2
  3
gdt
  4

  0
ENDTAB
  0
TABLE
  2
VIEW
  5
6
100
AcDbSymbolTable
 70
0
  0
ENDTAB
  0
TABLE
  2
UCS
  5
7
100
AcDbSymbolTable
 70
0
  0
ENDTAB
  0
TABLE
  2
APPID
  5
9
100
AcDbSymbolTable
 70
1
  0
APPID
  5
218
100
AcDbSymbolTableRecord
100
AcDbRegAppTableRecord
  2
ACAD
 70
0
  0
ENDTAB
  0
TABLE
  2
BLOCK_RECORD
  5
1
100
AcDbSymbolTable
 70
0
  0
BLOCK_RECORD
  5
219
100
AcDbSymbolTableRecord
100
AcDbBlockTableRecord
  2
*Model_Space
  0
BLOCK_RECORD
  5
21A
100
AcDbSymbolTableRecord
100
AcDbBlockTableRecord
  2
*Paper_Space
  0
BLOCK_RECORD
  5
21B
100
AcDbSymbolTableRecord
100
AcDbBlockTableRecord
  2
_FILLED
  0
ENDTAB
  0
TABLE
  2
DIMSTYLE
  5
A
100
AcDbSymbolTable
 70
1
100
AcDbDimStyleTable
 71
0
  0
DIMSTYLE
105
21C
100
AcDbSymbolTableRecord
100
AcDbDimStyleTableRecord
  2
STANDARD
 70
0
  3

  4

 40
1.0
 41
3.0
 42
0.5
 43
0.38
 44
1.5
 45
0.0
 46
0.0
 47
0.01
 48
0.01
140
3.0
141
0.09
142
0.0
143
25.4
144
1.0
145
0.0
146
1.0
147
0.625
 71
1.0
 72
0.0
 73
0
 74
0
 75
0
 76
0
 77
1
 78
8
 79
2
170
0
171
1
172
0
173
0
174
0
175
0
176
0
177
0
178
0
270
2
179
2
271
2
272
2
273
2
274
2
275
0
280
0
281
0
282
0
283
1
284
8
285
0
286
0
287
3
288
0
340
11
278
44
341
21B
342
21B
343
21B
344
21B
  0
ENDTAB
  0
ENDSEC
  0
SECTION
  2
BLOCKS
  0
BLOCK
  5
20
100
AcDbEntity
  8
0
100
AcDbBlockBegin
  2
*Model_Space
 70
0
 10
0.0
 20
0.0
 30
0.0
  3
*Model_Space
  1

  0
ENDBLK
  5
21
100
AcDbEntity
  8
0
100
AcDbBlockEnd
  0
BLOCK
  5
1C
100
AcDbEntity
  8
0
100
AcDbBlockBegin
  2
*Paper_Space
 70
0
 10
0.0
 20
0.0
 30
0.0
  3
*Paper_Space
  1

  0
ENDBLK
  5
1D
100
AcDbEntity
  8
0
100
AcDbBlockEnd
  0
BLOCK
  5
21D
100
AcDbEntity
  8
0
100
AcDbBlockBegin
  2
_FILLED
 70
64
 10
0.0
 20
0.0
  3
_FILLED
  1

  0
SOLID
  5
21E
100
AcDbEntity
  8
0
  6
BYBLOCK
 62
0
100
AcDbTrace
 10
0.0
 20
0.0
 11
-1.0
 21
0.3166666667
 12
-1.0
 22
-0.3166666667
 13
-1.0
 23
-0.3166666667
  0
ENDBLK
  5
21F
100
AcDbEntity
  8
0
  6
BYBLOCK
 62
0
100
AcDbBlockEnd
  0
ENDSEC
  0
SECTION
  2
ENTITIES
  0
LWPOLYLINE
  5
220
100
AcDbEntity
  8
0
100
AcDbPolyline
 62
7
  6
CONTINUOUS
 90
9
 70
0
 10
30.4572326355
 20
-43.5653279984
 10
29.9018777873
 20
-43.6389156629
 10
29.3463193494
 20
-43.7086758049
 10
28.7905573217
 20
-43.7746084242
 10
28.2345668549
 20
-43.8367145181
 10
27.6783727983
 20
-43.8949930894
 10
27.1220496999
 20
-43.9494411467
 10
26.5656224089
 20
-44.0000576928
 10
26.009066076
 20
-44.0468437249
  0
LWPOLYLINE
  5
221
100
AcDbEntity
  8
0
100
AcDbPolyline
 62
7
  6
CONTINUOUS
 90
9
 70
0
 10
-43.3648817712
 20
-31.0543599154
 10
-43.4276555961
 20
-30.6272280486
 10
-43.4875690659
 20
-30.1994450019
 10
-43.5446221806
 20
-29.7710107753
 10
-43.5988191065
 20
-29.3419061739
 10
-43.6501556772
 20
-28.9121503925
 10
-43.6986193939
 20
-28.4818010161
 10
-43.7442060901
 20
-28.0508772396
 10
-43.7869199321
 20
-27.6193598679
  0
LWPOLYLINE
  5
222
100
AcDbEntity
  8
0
100
AcDbPolyline
 62
250
  6
CONTINUOUS
 90
9
 70
0
 10
-40.0498176481
 20
-27.286890383
 10
-40.0075319543
 20
-27.7116508552
 10
-39.9629633359
 20
-28.1296707786
 10
-39.9162454911
 20
-28.5409309938
 10
-39.8675074263
 20
-28.9454400992
 10
-39.8168730395
 20
-29.3432300533
 10
-39.7644667444
 20
-29.7343105471
 10
-39.7104144444
 20
-30.1186673147
 10
-39.6548387482
 20
-30.4962980978
  0
LWPOLYLINE
  5
223
100
AcDbEntity
  8
0
100
AcDbPolyline
 62
250
  6
CONTINUOUS
 90
10
 70
0
 10
-39.9852747152
 20
-26.846130372
 10
-39.9452550431
 20
-27.2768870256
 10
-39.9030872347
 20
-27.7009088826
 10
-39.8587712899
 20
-28.118195943
 10
-39.8121806132
 20
-28.5287401078
 10
-39.7634418001
 20
-28.9325494761
 10
-39.7129346369
 20
-29.3296483452
 10
-39.660785719
 20
-29.7200448143
 10
-39.6068684511
 20
-30.1037307841
 10
-39.5511828331
 20
-30.4807062548
  0
LINE
  5
224
100
AcDbEntity
  8
0
100
AcDbLine
 62
7
  6
CONTINUOUS
 10
-43.7869199321
 20
-27.6193598679
 11
-43.8572479054
 21
-26.8422980371
  0
LINE
  5
225
100
AcDbEntity
  8
0
100
AcDbLine
 62
250
  6
CONTINUOUS
 10
-40.1200494179
 20
-26.5118300301
 11
-40.0498176481
 21
-27.286890383
  0
LINE
  5
226
100
AcDbEntity
  8
0
100
AcDbLine
 62
7
  6
CONTINUOUS
 10
-43.8572479054
 20
-26.8422980371
 11
-43.9477164121
 21
-25.7989109619
  0
LINE
  5
227
100
AcDbEntity
  8
0
100
AcDbLine
 62
250
  6
CONTINUOUS
 10
-40.2099366108
 20
-25.4750705609
 11
-40.1200494179
 21
-26.5118300301
  0
LINE
  5
228
100
AcDbEntity
  8
0
100
AcDbLine
 62
7
  6
CONTINUOUS
 10
-43.9477164121
 20
-25.7989109619
 11
-44.036688133
 21
-24.7427236979
  0
LINE
  5
229
100
AcDbEntity
  8
0
100
AcDbLine
 62
7
  6
CONTINUOUS
 10
-44.036688133
 20
-24.7427236979
 11
-44.0951609147
 21
-24.0314895614
  0
LWPOLYLINE
  5
22A
100
AcDbEntity
  8
0
100
AcDbPolyline
 62
7
  6
CONTINUOUS
 90
10
 70
0
 10
-44.0951609147
 20
-24.0314895614
 10
-44.2688261114
 20
-21.7882740565
 10
-44.4254780283
 20
-19.5310929429
 10
-44.5651166655
 20
-17.2599462208
 10
-44.687945132
 20
-14.9722439675
 10
-44.7937603187
 20
-12.6705761057
 10
-44.8819528988
 20
-10.3627124024
 10
-44.9523197633
 20
-8.05124278
 10
-45.0050640212
 20
-5.7335773162
 10
-45.0401856725
 20
-3.409716011
  0
LWPOLYLINE
  5
22B
100
AcDbEntity
  8
0
100
AcDbPolyline
 62
7
  6
CONTINUOUS
 90
19
 70
0
 10
-45.6993801305
 20
-3.0306926382
 10
-45.6987827035
 20
-3.055041116
 10
-45.6974436984
 20
-3.0794309912
 10
-45.6953631154
 20
-3.1036924864
 10
-45.6925101827
 20
-3.1277328944
 10
-45.688915672
 20
-3.1512831458
 10
-45.6846718985
 20
-3.1739259242
 10
-45.6797837804
 20
-3.1953896926
 10
-45.6742463996
 20
-3.2156620621
 10
-45.668137317
 20
-3.2347288584
 10
-45.6614451154
 20
-3.2524601029
 10
-45.6541812122
 20
-3.2686897462
 10
-45.6464574203
 20
-3.2833222516
 10
-45.6382336409
 20
-3.2962527131
 10
-45.6295499728
 20
-3.3072989549
 10
-45.6206385258
 20
-3.3162873748
 10
-45.6115766698
 20
-3.3231362418
 10
-45.6022870349
 20
-3.3278134027
 10
-45.592769621
 20
-3.3302814987
  0
LINE
  5
22C
100
AcDbEntity
  8
0
100
AcDbLine
 62
7
  6
CONTINUOUS
 10
-45.6993801305
 20
-3.0306926382
 11
-45.7077202592
 21
-2.0243122517
  0
LINE
  5
22D
100
AcDbEntity
  8
0
100
AcDbLine
 62
7
  6
CONTINUOUS
 10
-45.0533632185
 20
-1.8994855551
 11
-45.0401857788
 21
-3.4097160122
  0
LINE
  5
22E
100
AcDbEntity
  8
0
100
AcDbLine
 62
7
  6
CONTINUOUS
 10
-45.7077202592
 20
-2.0243122517
 11
-45.7127258465
 21
-1.0173129182
  0
LINE
  5
22F
100
AcDbEntity
  8
0
100
AcDbLine
 62
7
  6
CONTINUOUS
 10
-45.0590129222
 20
-0.3878411081
 11
-45.0533632185
 21
-1.8994855551
  0
LINE
  5
230
100
AcDbEntity
  8
0
100
AcDbLine
 62
7
  6
CONTINUOUS
 10
-45.7127258465
 20
-1.0173129182
 11
-45.7143948174
 21
-0.009716008
  0
LINE
  5
231
100
AcDbEntity
  8
0
100
AcDbLine
 62
7
  6
CONTINUOUS
 10
-45.7143948174
 20
-0.009716008
 11
-45.7127252012
 21
0.9977371859
  0
LINE
  5
232
100
AcDbEntity
  8
0
100
AcDbLine
 62
7
  6
CONTINUOUS
 10
-45.0571286265
 20
1.1242029676
 11
-45.0590129222
 21
-0.3878411081
  0
LINE
  5
233
100
AcDbEntity
  8
0
100
AcDbLine
 62
7
  6
CONTINUOUS
 10
-45.7127252012
 20
0.9977371859
 11
-45.7077173609
 21
2.0047366795
  0
LINE
  5
234
100
AcDbEntity
  8
0
100
AcDbLine
 62
7
  6
CONTINUOUS
 10
-45.0477100851
 20
2.6351941528
 11
-45.0571286265
 21
1.1242029676
  0
LINE
  5
235
100
AcDbEntity
  8
0
100
AcDbLine
 62
7
  6
CONTINUOUS
 10
-45.7077173609
 20
2.0047366795
 11
-45.6993728987
 21
3.0112606163
  0
LINE
  5
236
100
AcDbEntity
  8
0
100
AcDbLine
 62
7
  6
CONTINUOUS
 10
-45.0401771552
 20
3.390283989
 11
-45.0477100851
 21
2.6351941528
  0
LWPOLYLINE
  5
237
100
AcDbEntity
  8
0
100
AcDbPolyline
 62
7
  6
CONTINUOUS
 90
10
 70
0
 10
-45.0401771552
 20
3.390283989
 10
-45.0051207897
 20
5.7114269019
 10
-44.9524944216
 20
8.0260398357
 10
-44.882298051
 20
10.3341227904
 10
-44.7944200614
 20
12.6369151795
 10
-44.6889720692
 20
14.9331775896
 10
-44.5662889236
 20
17.2191917804
 10
-44.4264822409
 20
19.4937183383
 10
-44.2694404047
 20
21.7579966769
 10
-44.0951634151
 20
24.0120267961
  0
LINE
  5
238
100
AcDbEntity
  8
0
100
AcDbLine
 62
7
  6
CONTINUOUS
 10
-44.0951634151
 20
24.0120267961
 11
-43.979967669
 21
25.4001419086
  0
LINE
  5
239
100
AcDbEntity
  8
0
100
AcDbLine
 62
7
  6
CONTINUOUS
 10
-43.979967669
 20
25.4001419086
 11
-43.8893202427
 21
26.4562826386
  0
LINE
  5
23A
100
AcDbEntity
  8
0
100
AcDbLine
 62
7
  6
CONTINUOUS
 10
-43.8893202427
 20
26.4562826386
 11
-43.8267859246
 21
27.1675358736
  0
LINE
  5
23B
100
AcDbEntity
  8
0
100
AcDbLine
 62
250
  6
CONTINUOUS
 10
-40.0897094469
 20
26.8357052563
 11
-40.2118726852
 21
25.4329241914
  0
LWPOLYLINE
  5
23C
100
AcDbEntity
  8
0
100
AcDbPolyline
 62
7
  6
CONTINUOUS
 90
10
 70
0
 10
-43.8267859246
 20
27.1675358736
 10
-43.7869428477
 20
27.5996875866
 10
-43.7442267097
 20
28.0312433268
 10
-43.6986375105
 20
28.4622030942
 10
-43.6501710378
 20
28.8925860879
 10
-43.598831504
 20
29.3223731089
 10
-43.5446315467
 20
29.7515065597
 10
-43.4875753784
 20
30.1799672411
 10
-43.4276587865
 20
30.6077743524
 10
-43.3648817712
 20
31.0349278935
  0
LWPOLYLINE
  5
23D
100
AcDbEntity
  8
0
100
AcDbPolyline
 62
250
  6
CONTINUOUS
 90
10
 70
0
 10
-39.5511828331
 20
30.4612742329
 10
-39.6137458606
 20
30.0332964708
 10
-39.672628016
 20
29.6113283234
 10
-39.7278292991
 20
29.1953697907
 10
-39.7792178748
 20
28.785398145
 10
-39.8269255784
 20
28.3814361141
 10
-39.8713479149
 20
27.9835518806
 10
-39.9126167195
 20
27.5917681724
 10
-39.9506001571
 20
27.2060622616
 10
-39.9852982276
 20
26.8264341484
  0
LWPOLYLINE
  5
23E
100
AcDbEntity
  8
0
100
AcDbPolyline
 62
250
  6
CONTINUOUS
 90
10
 70
0
 10
-39.6548387482
 20
30.4768660759
 10
-39.7177354127
 20
30.048213279
 10
-39.7766749536
 20
29.6254920338
 10
-39.8317936536
 20
29.208751394
 10
-39.8832242578
 20
28.7980498113
 10
-39.9311017547
 20
28.3934106861
 10
-39.9755617851
 20
27.9948267902
 10
-40.01673381
 20
27.6023177459
 10
-40.054741863
 20
27.2159326271
 10
-40.0897094295
 20
26.8357052548
  0
LWPOLYLINE
  5
23F
100
AcDbEntity
  8
0
100
AcDbPolyline
 62
250
  6
CONTINUOUS
 90
10
 70
0
 10
25.1765772022
 20
-40.3481705477
 10
25.7494873008
 20
-40.303804894
 10
26.3118236981
 20
-40.2561124835
 10
26.8635669816
 20
-40.2053232163
 10
27.4046876408
 20
-40.1516638462
 10
27.9351993651
 20
-40.0953529277
 10
28.4551524006
 20
-40.036599941
 10
28.9645623834
 20
-39.9756130573
 10
29.4634086915
 20
-39.9126006085
 10
29.9516897172
 20
-39.8477644707
  0
LINE
  5
240
100
AcDbEntity
  8
0
100
AcDbLine
 62
7
  6
CONTINUOUS
 10
26.009066076
 20
-44.0468437249
 11
25.0716465685
 21
-44.1175888615
  0
LINE
  5
241
100
AcDbEntity
  8
0
100
AcDbLine
 62
7
  6
CONTINUOUS
 10
25.0716465685
 20
-44.1175888615
 11
23.9301790326
 21
-44.1975700455
  0
LINE
  5
242
100
AcDbEntity
  8
0
100
AcDbLine
 62
7
  6
CONTINUOUS
 10
23.9301790326
 20
-44.1975700455
 11
22.7898288752
 21
-44.2724717863
  0
LINE
  5
243
100
AcDbEntity
  8
0
100
AcDbLine
 62
7
  6
CONTINUOUS
 10
22.7898288752
 20
-44.2724717863
 11
22.0302350809
 21
-44.3195869502
  0
LWPOLYLINE
  5
244
100
AcDbEntity
  8
0
100
AcDbPolyline
 62
7
  6
CONTINUOUS
 90
10
 70
0
 10
22.0302350809
 20
-44.3195869502
 10
19.6068898973
 20
-44.4580690457
 10
17.1743179077
 20
-44.5803412847
 10
14.7325191123
 20
-44.6864036672
 10
12.2813902448
 20
-44.7762863041
 10
9.8210345714
 20
-44.8499590845
 10
7.3517618908
 20
-44.9073316758
 10
4.8736754692
 20
-44.9483739669
 10
2.3866720404
 20
-44.9731160687
 10
-0.1092483956
 20
-44.9815579814
  0
LWPOLYLINE
  5
245
100
AcDbEntity
  8
0
100
AcDbPolyline
 62
7
  6
CONTINUOUS
 90
9
 70
0
 10
-0.1092483956
 20
-44.9815579814
 10
-2.6135506561
 20
-44.9729910131
 10
-5.1068398589
 20
-44.9481235101
 10
-7.5891160039
 20
-44.9069554725
 10
-10.0604812483
 20
-44.8494146629
 10
-12.520833435
 20
-44.7755733186
 10
-14.9698660925
 20
-44.6856481521
 10
-17.4074770637
 20
-44.579711401
 10
-19.8337685058
 20
-44.4576908277
  0
LINE
  5
246
100
AcDbEntity
  8
0
100
AcDbLine
 62
7
  6
CONTINUOUS
 10
-19.8337685058
 20
-44.4576908277
 11
-22.6327797692
 21
-44.296036183
  0
LINE
  5
247
100
AcDbEntity
  8
0
100
AcDbLine
 62
7
  6
CONTINUOUS
 10
-22.6327797692
 20
-44.296036183
 11
-23.3980249268
 21
-44.2474380733
  0
LINE
  5
248
100
AcDbEntity
  8
0
100
AcDbLine
 62
7
  6
CONTINUOUS
 10
-23.3980249268
 20
-44.2474380733
 11
-24.5388088051
 21
-44.1707968811
  0
LINE
  5
249
100
AcDbEntity
  8
0
100
AcDbLine
 62
7
  6
CONTINUOUS
 10
-24.5388088051
 20
-44.1707968811
 11
-25.6710598106
 21
-44.0897857803
  0
LWPOLYLINE
  5
24A
100
AcDbEntity
  8
0
100
AcDbPolyline
 62
7
  6
CONTINUOUS
 90
10
 70
0
 10
-25.6710598106
 20
-44.0897857803
 10
-26.2277319989
 20
-44.0468300187
 10
-26.7842734316
 20
-44.000044143
 10
-27.3406841086
 20
-43.9494281533
 10
-27.8969889513
 20
-43.8949810059
 10
-28.4531630383
 20
-43.8367037443
 10
-29.0091316058
 20
-43.7745994997
 10
-29.5648697324
 20
-43.7086693157
 10
-30.1204023395
 20
-43.6389121486
 10
-30.675729427
 20
-43.5653279984
  0
LWPOLYLINE
  5
24B
100
AcDbEntity
  8
0
100
AcDbPolyline
 62
250
  6
CONTINUOUS
 90
10
 70
0
 10
-30.1560620056
 20
-39.7438984381
 10
-29.587182376
 20
-39.8187728677
 10
-29.0280406792
 20
-39.8886564975
 10
-28.4786369153
 20
-39.9535493275
 10
-27.9389404512
 20
-40.0132469089
 10
-27.4089819199
 20
-40.0679536905
 10
-26.8888532209
 20
-40.1182830184
 10
-26.3785849872
 20
-40.1644393414
 10
-25.8781465857
 20
-40.2062182107
 10
-24.986378285
 20
-40.2728312562
  0
LWPOLYLINE
  5
24C
100
AcDbEntity
  8
0
100
AcDbPolyline
 62
250
  6
CONTINUOUS
 90
10
 70
0
 10
-30.1701865087
 20
-39.8477644707
 10
-29.6006361534
 20
-39.9230884728
 10
-29.0407230096
 20
-39.9929952005
 10
-28.4905096777
 20
-40.0576967798
 10
-27.9500667872
 20
-40.1174009933
 10
-27.4194260322
 20
-40.1723167808
 10
-26.8985860417
 20
-40.2226522022
 10
-26.3875733557
 20
-40.2686081593
 10
-25.8864459238
 20
-40.3103792245
 10
-25.3952448576
 20
-40.3481579379
  0
LINE
  5
24D
100
AcDbEntity
  8
0
100
AcDbLine
 62
250
  6
CONTINUOUS
 10
-40.1644059061
 20
-24.7701244507
 11
-39.9852747152
 21
-26.846130372
  0
LINE
  5
24E
100
AcDbEntity
  8
0
100
AcDbLine
 62
250
  6
CONTINUOUS
 10
-40.3557516358
 20
-23.7270713141
 11
-40.2099366108
 21
-25.4750705609
  0
LINE
  5
24F
100
AcDbEntity
  8
0
100
AcDbLine
 62
250
  6
CONTINUOUS
 10
-40.2512752487
 20
-23.7185660888
 11
-40.1644059061
 21
-24.7701244507
  0
LWPOLYLINE
  5
250
100
AcDbEntity
  8
0
100
AcDbPolyline
 62
250
  6
CONTINUOUS
 90
13
 70
0
 10
-41.202646509
 20
-0.0097160109
 10
-41.1899419878
 20
-2.4150508383
 10
-41.1628872343
 20
-4.7368636084
 10
-41.1214822484
 20
-6.9751543214
 10
-41.0642414176
 20
-9.1266222407
 10
-40.9926503545
 20
-11.1945681028
 10
-40.9111658964
 20
-13.1888941168
 10
-40.8202416662
 20
-15.1095703422
 10
-40.7194240411
 20
-16.9566267196
 10
-40.6118089899
 20
-18.7400552799
 10
-40.4984285023
 20
-20.4631867
 10
-40.3782505885
 20
-22.1226903029
 10
-40.2512752487
 20
-23.7185660888
  0
LWPOLYLINE
  5
251
100
AcDbEntity
  8
0
100
AcDbPolyline
 62
250
  6
CONTINUOUS
 90
13
 70
0
 10
-41.3074685215
 20
-0.0097160109
 10
-41.2978071931
 20
-2.4157147619
 10
-41.2701127612
 20
-4.7383871276
 10
-41.2262757068
 20
-6.9776004179
 10
-41.1682301964
 20
-9.129878879
 10
-41.0976842053
 20
-11.198511265
 10
-41.0158847682
 20
-13.1935435324
 10
-40.9242709224
 20
-15.1149233238
 10
-40.8242331744
 20
-16.9626198156
 10
-40.7164199987
 20
-18.7467032674
 10
-40.6016292174
 20
-20.4704987286
 10
-40.481072322
 20
-22.1306200532
 10
-40.3557516358
 20
-23.7270713141
  0
LWPOLYLINE
  5
252
100
AcDbEntity
  8
0
100
AcDbPolyline
 62
250
  6
CONTINUOUS
 90
10
 70
0
 10
-40.2512295348
 20
23.6996961431
 10
-40.4451799626
 20
21.1653039318
 10
-40.6168620242
 20
18.6325600075
 10
-40.7662757195
 20
16.10146437
 10
-40.8931423703
 20
13.6075437075
 10
-40.9977406549
 20
11.1152713319
 10
-41.0809066076
 20
8.5180671787
 10
-41.1429189066
 20
5.7804045597
 10
-41.1834988737
 20
2.9378101632
 10
-41.202646509
 20
-0.0097160109
  0
LWPOLYLINE
  5
253
100
AcDbEntity
  8
0
100
AcDbPolyline
 62
250
  6
CONTINUOUS
 90
10
 70
0
 10
-40.3557072323
 20
23.7081852556
 10
-40.550191042
 20
21.1733065533
 10
-40.7218362577
 20
18.6395377494
 10
-40.8709424816
 20
16.1071672733
 10
-40.9961598359
 20
13.6122078972
 10
-41.0999742556
 20
11.1191966153
 10
-41.1856857866
 20
8.5210635806
 10
-41.2513866334
 20
5.7821660212
 10
-41.2929511496
 20
2.9384726851
 10
-41.3074685215
 20
-0.0097160109
  0
LINE
  5
254
100
AcDbEntity
  8
0
100
AcDbLine
 62
250
  6
CONTINUOUS
 10
-40.2118726852
 20
25.4329241914
 11
-40.3557072323
 21
23.7081852556
  0
LINE
  5
255
100
AcDbEntity
  8
0
100
AcDbLine
 62
250
  6
CONTINUOUS
 10
-40.0843685801
 20
25.6931169879
 11
-40.2512295348
 21
23.6996961431
  0
LINE
  5
256
100
AcDbEntity
  8
0
100
AcDbLine
 62
250
  6
CONTINUOUS
 10
-39.9852982276
 20
26.8264341484
 11
-40.0843685801
 21
25.6931169879
  0
LINE
  5
257
100
AcDbEntity
  8
0
100
AcDbLine
 62
7
  6
CONTINUOUS
 10
-27.5480618229
 20
30.9646313221
 11
-31.0835957289
 21
27.4290974162
  0
LINE
  5
258
100
AcDbEntity
  8
0
100
AcDbLine
 62
7
  6
CONTINUOUS
 10
-34.1092483958
 20
20.490283989
 11
-34.0830657984
 21
20.5164665864
  0
LINE
  5
259
100
AcDbEntity
  8
0
100
AcDbLine
 62
7
  6
CONTINUOUS
 10
-34.1143935254
 20
19.9851388594
 11
-34.1497466788
 21
19.949785706
  0
LINE
  5
25A
100
AcDbEntity
  8
0
100
AcDbLine
 62
7
  6
CONTINUOUS
 10
-28.6704349686
 20
25.0159366559
 11
-25.1349010627
 21
28.5514705619
  0
LWPOLYLINE
  5
25B
100
AcDbEntity
  8
0
100
AcDbPolyline
 62
250
  6
CONTINUOUS
 90
10
 70
0
 10
25.1688705916
 20
-40.2436322192
 10
25.7410283669
 20
-40.1989518957
 10
26.3026005802
 20
-40.1514002741
 10
26.8535872315
 20
-40.1009773544
 10
27.3939751773
 20
-40.0474699564
 10
27.923777561
 20
-39.9910912603
 10
28.4430338135
 20
-39.9324808064
 10
28.9517570783
 20
-39.8718517747
 10
29.4499342119
 20
-39.8089909853
 10
29.9375652141
 20
-39.7438984381
  0
LINE
  5
25C
100
AcDbEntity
  8
0
100
AcDbLine
 62
250
  6
CONTINUOUS
 10
23.6769998868
 20
-40.4543423447
 11
25.1765772024
 21
-40.3481705511
  0
LINE
  5
25D
100
AcDbEntity
  8
0
100
AcDbLine
 62
250
  6
CONTINUOUS
 10
23.6699007995
 20
-40.3497609322
 11
25.1688705916
 21
-40.2436322192
  0
LINE
  5
25E
100
AcDbEntity
  8
0
100
AcDbLine
 62
250
  6
CONTINUOUS
 10
22.5527330705
 20
-40.5281906551
 11
23.6769998868
 21
-40.4543423447
  0
LINE
  5
25F
100
AcDbEntity
  8
0
100
AcDbLine
 62
250
  6
CONTINUOUS
 10
22.5460927003
 20
-40.4235790705
 11
23.6699007995
 21
-40.3497609322
  0
LINE
  5
260
100
AcDbEntity
  8
0
100
AcDbLine
 62
250
  6
CONTINUOUS
 10
21.8034261622
 20
-40.5746690687
 11
22.5527330705
 21
-40.5281906551
  0
LINE
  5
261
100
AcDbEntity
  8
0
100
AcDbLine
 62
250
  6
CONTINUOUS
 10
21.7970892853
 20
-40.4700387753
 11
22.5460927003
 21
-40.4235790705
  0
LWPOLYLINE
  5
262
100
AcDbEntity
  8
0
100
AcDbPolyline
 62
250
  6
CONTINUOUS
 90
22
 70
0
 10
-0.1092483958
 20
-41.1249560946
 10
0.9351815677
 20
-41.1232946809
 10
1.9649883326
 20
-41.1190149179
 10
2.9801718989
 20
-41.1121168057
 10
3.9759506423
 20
-41.1026021952
 10
4.9571061872
 20
-41.0904692354
 10
5.9379834065
 20
-41.0757123735
 10
6.9235976966
 20
-41.0583278493
 10
7.9089336611
 20
-41.038319423
 10
8.893289985
 20
-41.0156928217
 10
9.872410639
 20
-40.9906179703
 10
10.8505516523
 20
-40.9629249439
 10
11.8397797971
 20
-40.9321096961
 10
12.8391581182
 20
-40.8983592531
 10
13.8496235709
 20
-40.8614865887
 10
14.8860537935
 20
-40.8204265771
 10
15.949058417
 20
-40.7753413315
 10
17.0380278104
 20
-40.7260687388
 10
18.1660107194
 20
-40.6710573333
 10
19.3373567258
 20
-40.60978996
 10
20.5477162478
 20
-40.542783774
 10
21.7970892853
 20
-40.4700387753
  0
LWPOLYLINE
  5
263
100
AcDbEntity
  8
0
100
AcDbPolyline
 62
250
  6
CONTINUOUS
 90
22
 70
0
 10
-0.1092483958
 20
-41.2297781072
 10
0.9354555997
 20
-41.2283113514
 10
1.9655573776
 20
-41.2239908634
 10
2.9810435815
 20
-41.2169352025
 10
3.9771072737
 20
-41.207314228
 10
4.9585325698
 20
-41.1952162035
 10
5.9396922249
 20
-41.1805204606
 10
6.9255916189
 20
-41.1631310807
 10
7.9112007295
 20
-41.1431153984
 10
8.895839169
 20
-41.1204838344
 10
9.87524073
 20
-41.0953475094
 10
10.8536559144
 20
-41.0676104199
 10
11.8431769888
 20
-41.036876651
 10
12.8428452149
 20
-41.0030764474
 10
13.853593323
 20
-40.9660769653
 10
14.890339356
 20
-40.925160946
 10
15.9536571897
 20
-40.8800632925
 10
17.0429278892
 20
-40.8305623197
 10
18.1712640827
 20
-40.7757476143
 10
19.3430088732
 20
-40.7149970782
 10
20.5537436378
 20
-40.6481112851
 10
21.8034261622
 20
-40.5746690687
  0
LWPOLYLINE
  5
264
100
AcDbEntity
  8
0
100
AcDbPolyline
 62
250
  6
CONTINUOUS
 90
14
 70
0
 10
-11.5899454183
 20
-40.9469754978
 10
-10.7999281849
 20
-40.9707010322
 10
-10.0058049931
 20
-40.9928469943
 10
-9.2049952356
 20
-41.013457342
 10
-8.3902549624
 20
-41.0325289045
 10
-7.5620064486
 20
-41.0501293496
 10
-6.719827419
 20
-41.0661910094
 10
-5.855207098
 20
-41.0805077088
 10
-4.9678992309
 20
-41.0931735115
 10
-4.0581500723
 20
-41.1040943538
 10
-3.1181876107
 20
-41.1127818698
 10
-2.1454211755
 20
-41.119073271
 10
-1.1424414371
 20
-41.1231313459
 10
-0.1092483958
 20
-41.1249560946
  0
LWPOLYLINE
  5
265
100
AcDbEntity
  8
0
100
AcDbPolyline
 62
250
  6
CONTINUOUS
 90
15
 70
0
 10
-12.3767638566
 20
-41.0264935912
 10
-11.5932089036
 20
-41.0517355329
 10
-10.8029624601
 20
-41.0754791314
 10
-10.0086094153
 20
-41.0976169028
 10
-9.2075725055
 20
-41.118190802
 10
-8.3925990043
 20
-41.1373247083
 10
-7.5641135973
 20
-41.1549229364
 10
-6.7216976029
 20
-41.1709071496
 10
-5.8568306936
 20
-41.1853171461
 10
-4.9692710639
 20
-41.1980009472
 10
-4.0592679109
 20
-41.2087952202
 10
-3.1190363486
 20
-41.2176004484
 10
-2.1459854799
 20
-41.2242038891
 10
-1.1427196442
 20
-41.2283435087
 10
-0.1092483958
 20
-41.2297781072
  0
LINE
  5
266
100
AcDbEntity
  8
0
100
AcDbLine
 62
250
  6
CONTINUOUS
 10
-13.1494223157
 20
-40.8950526314
 11
-11.5899454183
 21
-40.9469754978
  0
LINE
  5
267
100
AcDbEntity
  8
0
100
AcDbLine
 62
250
  6
CONTINUOUS
 10
-13.9221369685
 20
-40.9717295009
 11
-12.3767638566
 21
-41.0264935912
  0
LINE
  5
268
100
AcDbEntity
  8
0
100
AcDbLine
 62
250
  6
CONTINUOUS
 10
-14.6797919604
 20
-40.8375394419
 11
-13.1494223157
 21
-40.8950526314
  0
LINE
  5
269
100
AcDbEntity
  8
0
100
AcDbLine
 62
250
  6
CONTINUOUS
 10
-15.4386358924
 20
-40.9115295986
 11
-13.9221369685
 21
-40.9717295009
  0
LINE
  5
26A
100
AcDbEntity
  8
0
100
AcDbLine
 62
250
  6
CONTINUOUS
 10
-16.181667859
 20
-40.7747735795
 11
-14.6797919604
 21
-40.8375394419
  0
LINE
  5
26B
100
AcDbEntity
  8
0
100
AcDbLine
 62
250
  6
CONTINUOUS
 10
-16.9267682599
 20
-40.8461890356
 11
-15.4386358924
 21
-40.9115295986
  0
LINE
  5
26C
100
AcDbEntity
  8
0
100
AcDbLine
 62
250
  6
CONTINUOUS
 10
-17.6549381585
 20
-40.7069945221
 11
-16.181667859
 21
-40.7747735795
  0
LINE
  5
26D
100
AcDbEntity
  8
0
100
AcDbLine
 62
250
  6
CONTINUOUS
 10
-18.3815244244
 20
-40.7762588316
 11
-16.9267682599
 21
-40.8461890356
  0
LINE
  5
26E
100
AcDbEntity
  8
0
100
AcDbLine
 62
250
  6
CONTINUOUS
 10
-19.0903212582
 20
-40.6350954639
 11
-17.6549381585
 21
-40.7069945221
  0
LINE
  5
26F
100
AcDbEntity
  8
0
100
AcDbLine
 62
250
  6
CONTINUOUS
 10
-19.8156316842
 20
-40.7014082064
 11
-18.3815244244
 21
-40.7762588316
  0
LINE
  5
270
100
AcDbEntity
  8
0
100
AcDbLine
 62
250
  6
CONTINUOUS
 10
-20.5394686043
 20
-40.5563380957
 11
-19.0903212582
 21
-40.6350954639
  0
LINE
  5
271
100
AcDbEntity
  8
0
100
AcDbLine
 62
250
  6
CONTINUOUS
 10
-21.2807061443
 20
-40.6188238055
 11
-19.8156316842
 21
-40.7014082064
  0
LINE
  5
272
100
AcDbEntity
  8
0
100
AcDbLine
 62
250
  6
CONTINUOUS
 10
-22.3635343853
 20
-40.4487744246
 11
-20.5394686043
 21
-40.5563380957
  0
LINE
  5
273
100
AcDbEntity
  8
0
100
AcDbLine
 62
250
  6
CONTINUOUS
 10
-22.725078404
 20
-40.5311049909
 11
-21.2807061443
 21
-40.6188238055
  0
LINE
  5
274
100
AcDbEntity
  8
0
100
AcDbLine
 62
250
  6
CONTINUOUS
 10
-23.8296856607
 20
-40.4588042854
 11
-22.725078404
 21
-40.5311049909
  0
LINE
  5
275
100
AcDbEntity
  8
0
100
AcDbLine
 62
250
  6
CONTINUOUS
 10
-23.8226253613
 20
-40.3542273663
 11
-22.3635343853
 21
-40.4487744246
  0
LINE
  5
276
100
AcDbEntity
  8
0
100
AcDbLine
 62
250
  6
CONTINUOUS
 10
-24.986378285
 20
-40.2728312562
 11
-23.8226253613
 21
-40.3542273663
  0
LWPOLYLINE
  5
277
100
AcDbEntity
  8
0
100
AcDbPolyline
 62
250
  6
CONTINUOUS
 90
3
 70
0
 10
-25.3952448578
 20
-40.348157941
 10
-24.9939458732
 20
-40.3774286438
 10
-23.8296856607
 20
-40.4588042854
  0
LINE
  5
278
100
AcDbEntity
  8
0
100
AcDbLine
 62
7
  6
CONTINUOUS
 10
-31.0835957289
 20
-27.4485294381
 11
-27.5480618229
 21
-30.9840633441
  0
LINE
  5
279
100
AcDbEntity
  8
0
100
AcDbLine
 62
7
  6
CONTINUOUS
 10
-34.1092483958
 20
-20.509716011
 11
-34.0830657984
 21
-20.5358986084
  0
LINE
  5
27A
100
AcDbEntity
  8
0
100
AcDbLine
 62
7
  6
CONTINUOUS
 10
-34.1143935254
 20
-20.0045708814
 11
-34.1497466788
 21
-19.9692177279
  0
LINE
  5
27B
100
AcDbEntity
  8
0
100
AcDbLine
 62
7
  6
CONTINUOUS
 10
-25.1349010627
 20
-28.5709025838
 11
-28.6704349686
 21
-25.0353686779
  0
LINE
  5
27C
100
AcDbEntity
  8
0
100
AcDbLine
 62
7
  6
CONTINUOUS
 10
-36.1354309932
 20
20.5164665864
 11
-36.1354309932
 21
13.4641013916
  0
LINE
  5
27D
100
AcDbEntity
  8
0
100
AcDbLine
 62
7
  6
CONTINUOUS
 10
-36.1354309932
 20
-20.5358986084
 11
-36.1354309932
 21
-13.4835334136
  0
LINE
  5
27E
100
AcDbEntity
  8
0
100
AcDbLine
 62
7
  6
CONTINUOUS
 10
-36.1092483958
 20
20.490283989
 11
-36.1092483958
 21
13.490283989
  0
LINE
  5
27F
100
AcDbEntity
  8
0
100
AcDbLine
 62
7
  6
CONTINUOUS
 10
-36.1092483958
 20
-20.509716011
 11
-36.1092483958
 21
-13.509716011
  0
LINE
  5
280
100
AcDbEntity
  8
0
100
AcDbLine
 62
7
  6
CONTINUOUS
 10
-35.2092483958
 20
-14.3822919707
 11
-35.2092483958
 21
-19.6371400512
  0
LINE
  5
281
100
AcDbEntity
  8
0
100
AcDbLine
 62
7
  6
CONTINUOUS
 10
-35.2092483958
 20
14.3628599488
 11
-35.2092483958
 21
19.6177080293
  0
LINE
  5
282
100
AcDbEntity
  8
0
100
AcDbLine
 62
7
  6
CONTINUOUS
 10
-34.1497466788
 20
-14.050214294
 11
-34.1497466788
 21
-19.9692177279
  0
LINE
  5
283
100
AcDbEntity
  8
0
100
AcDbLine
 62
7
  6
CONTINUOUS
 10
-34.1497466788
 20
14.0307822721
 11
-34.1497466788
 21
19.949785706
  0
LINE
  5
284
100
AcDbEntity
  8
0
100
AcDbLine
 62
7
  6
CONTINUOUS
 10
-34.1092483958
 20
-13.509716011
 11
-34.1092483958
 21
-13.714906832
  0
LINE
  5
285
100
AcDbEntity
  8
0
100
AcDbLine
 62
7
  6
CONTINUOUS
 10
-34.1092483958
 20
-20.3045251899
 11
-34.1092483958
 21
-20.509716011
  0
LINE
  5
286
100
AcDbEntity
  8
0
100
AcDbLine
 62
7
  6
CONTINUOUS
 10
-34.1092483958
 20
13.490283989
 11
-34.1092483958
 21
13.6954748101
  0
LINE
  5
287
100
AcDbEntity
  8
0
100
AcDbLine
 62
7
  6
CONTINUOUS
 10
-34.1092483958
 20
20.285093168
 11
-34.1092483958
 21
20.490283989
  0
LINE
  5
288
100
AcDbEntity
  8
0
100
AcDbLine
 62
7
  6
CONTINUOUS
 10
-34.0830657984
 20
-13.4835334136
 11
-34.0830657984
 21
-20.5358986084
  0
LINE
  5
289
100
AcDbEntity
  8
0
100
AcDbLine
 62
7
  6
CONTINUOUS
 10
-34.0830657984
 20
13.4641013916
 11
-34.0830657984
 21
20.5164665864
  0
LINE
  5
28A
100
AcDbEntity
  8
0
100
AcDbLine
 62
7
  6
CONTINUOUS
 10
-36.1092483958
 20
13.490283989
 11
-36.1354309932
 21
13.4641013916
  0
LINE
  5
28B
100
AcDbEntity
  8
0
100
AcDbLine
 62
7
  6
CONTINUOUS
 10
-36.1092483958
 20
-13.509716011
 11
-36.1354309932
 21
-13.4835334136
  0
LINE
  5
28C
100
AcDbEntity
  8
DRAFT
100
AcDbLine
 62
7
  6
CONTINUOUS
 10
-22.663359097
 20
18.7126973754
 11
-18.8316617821
 21
22.5443946903
  0
LINE
  5
28D
100
AcDbEntity
  8
DRAFT
100
AcDbLine
 62
7
  6
CONTINUOUS
 10
-22.6371764996
 20
18.7018521884
 11
-18.8208165952
 21
22.5182120929
  0
LINE
  5
28E
100
AcDbEntity
  8
DRAFT
100
AcDbLine
 62
7
  6
CONTINUOUS
 10
-13.8313202919
 20
24.0182120929
 11
-13.8592483958
 21
23.990283989
  0
LINE
  5
28F
100
AcDbEntity
  8
DRAFT
100
AcDbLine
 62
7
  6
CONTINUOUS
 10
-11.7702275646
 20
24.0793048202
 11
-11.8592483958
 21
23.990283989
  0
LINE
  5
290
100
AcDbEntity
  8
DRAFT
100
AcDbLine
 62
7
  6
CONTINUOUS
 10
-18.8316617821
 20
-22.5638267122
 11
-22.663359097
 21
-18.7321293973
  0
LINE
  5
291
100
AcDbEntity
  8
DRAFT
100
AcDbLine
 62
7
  6
CONTINUOUS
 10
-18.8208165952
 20
-22.5376441148
 11
-22.6371764996
 21
-18.7212842104
  0
LINE
  5
292
100
AcDbEntity
  8
DRAFT
100
AcDbLine
 62
7
  6
CONTINUOUS
 10
-13.8592483958
 20
-24.009716011
 11
-13.8313202919
 21
-24.0376441148
  0
LINE
  5
293
100
AcDbEntity
  8
DRAFT
100
AcDbLine
 62
7
  6
CONTINUOUS
 10
-11.8592483958
 20
-24.009716011
 11
-11.7702275646
 21
-24.0987368421
  0
LINE
  5
294
100
AcDbEntity
  8
0
100
AcDbLine
 62
250
  6
CONTINUOUS
 10
-25.3873673832
 20
40.2242001973
 11
-25.6709083097
 21
44.0703649943
  0
LINE
  5
295
100
AcDbEntity
  8
DRAFT
100
AcDbLine
 62
7
  6
CONTINUOUS
 10
-22.6982692269
 20
-22.5987368421
 11
-22.6982692269
 21
22.5793048202
  0
LINE
  5
296
100
AcDbEntity
  8
DRAFT
100
AcDbLine
 62
7
  6
CONTINUOUS
 10
-22.663359097
 20
-22.5638267122
 11
-22.663359097
 21
-18.7321293973
  0
LINE
  5
297
100
AcDbEntity
  8
DRAFT
100
AcDbLine
 62
7
  6
CONTINUOUS
 10
-22.663359097
 20
18.7126973754
 11
-22.663359097
 21
22.5443946903
  0
LINE
  5
298
100
AcDbEntity
  8
DRAFT
100
AcDbLine
 62
7
  6
CONTINUOUS
 10
-22.6092483958
 20
-18.7492123142
 11
-22.6092483958
 21
18.7297802923
  0
LINE
  5
299
100
AcDbEntity
  8
0
100
AcDbLine
 62
250
  6
CONTINUOUS
 10
-25.3875380164
 20
-40.2436196263
 11
-25.6710873659
 21
-44.0897835586
  0
LINE
  5
29A
100
AcDbEntity
  8
0
100
AcDbLine
 62
250
  6
CONTINUOUS
 10
-30.1560620056
 20
-39.7438984381
 11
-30.675729427
 21
-43.5653279984
  0
LINE
  5
29B
100
AcDbEntity
  8
DRAFT
100
AcDbLine
 62
7
  6
CONTINUOUS
 10
-6.7776758331
 20
24.0793048202
 11
-6.8336570035
 21
24.0182120929
  0
LINE
  5
29C
100
AcDbEntity
  8
DRAFT
100
AcDbLine
 62
7
  6
CONTINUOUS
 10
-11.7702275646
 20
22.5793048202
 11
-11.8592483958
 21
22.490283989
  0
LINE
  5
29D
100
AcDbEntity
  8
0
100
AcDbLine
 62
250
  6
CONTINUOUS
 10
-39.5511828331
 20
-30.4807062548
 11
-43.3648817712
 21
-31.0543599154
  0
LINE
  5
29E
100
AcDbEntity
  8
0
100
AcDbLine
 62
250
  6
CONTINUOUS
 10
-39.9852747152
 20
-26.846130372
 11
-43.8267615207
 21
-27.1872489545
  0
LINE
  5
29F
100
AcDbEntity
  8
0
100
AcDbLine
 62
7
  6
CONTINUOUS
 10
33.9312498873
 20
-19.9692177279
 11
34.6907516042
 21
-19.9462556674
  0
LINE
  5
2A0
100
AcDbEntity
  8
DRAFT
100
AcDbLine
 62
7
  6
CONTINUOUS
 10
15.7223241669
 20
-24.0987368421
 11
11.5517307731
 21
-24.0987368421
  0
LINE
  5
2A1
100
AcDbEntity
  8
DRAFT
100
AcDbLine
 62
7
  6
CONTINUOUS
 10
10.7297724354
 20
-24.0987368421
 11
6.5591790415
 21
-24.0987368421
  0
LINE
  5
2A2
100
AcDbEntity
  8
DRAFT
100
AcDbLine
 62
7
  6
CONTINUOUS
 10
-6.7776758331
 20
-24.0987368421
 11
-10.9482692269
 21
-24.0987368421
  0
LINE
  5
2A3
100
AcDbEntity
  8
DRAFT
100
AcDbLine
 62
7
  6
CONTINUOUS
 10
-11.7702275646
 20
-24.0987368421
 11
-15.9408209585
 21
-24.0987368421
  0
LINE
  5
2A4
100
AcDbEntity
  8
DRAFT
100
AcDbLine
 62
7
  6
CONTINUOUS
 10
15.6663429965
 20
-24.0376441148
 11
13.6128235004
 21
-24.0376441148
  0
LINE
  5
2A5
100
AcDbEntity
  8
DRAFT
100
AcDbLine
 62
7
  6
CONTINUOUS
 10
8.6686797081
 20
-24.0376441148
 11
6.615160212
 21
-24.0376441148
  0
LINE
  5
2A6
100
AcDbEntity
  8
DRAFT
100
AcDbLine
 62
7
  6
CONTINUOUS
 10
-6.8336570035
 20
-24.0376441148
 11
-8.8871764996
 21
-24.0376441148
  0
LINE
  5
2A7
100
AcDbEntity
  8
DRAFT
100
AcDbLine
 62
7
  6
CONTINUOUS
 10
-13.8313202919
 20
-24.0376441148
 11
-15.884839788
 21
-24.0376441148
  0
LINE
  5
2A8
100
AcDbEntity
  8
DRAFT
100
AcDbLine
 62
7
  6
CONTINUOUS
 10
-13.8592483958
 20
-24.009716011
 11
-11.8592483958
 21
-24.009716011
  0
LINE
  5
2A9
100
AcDbEntity
  8
DRAFT
100
AcDbLine
 62
7
  6
CONTINUOUS
 10
-10.8592483958
 20
-24.009716011
 11
-8.8592483958
 21
-24.009716011
  0
LINE
  5
2AA
100
AcDbEntity
  8
DRAFT
100
AcDbLine
 62
7
  6
CONTINUOUS
 10
8.6407516042
 20
-24.009716011
 11
10.6407516042
 21
-24.009716011
  0
LINE
  5
2AB
100
AcDbEntity
  8
DRAFT
100
AcDbLine
 62
7
  6
CONTINUOUS
 10
11.6407516042
 20
-24.009716011
 11
13.6407516042
 21
-24.009716011
  0
LINE
  5
2AC
100
AcDbEntity
  8
DRAFT
100
AcDbLine
 62
7
  6
CONTINUOUS
 10
-22.6982692269
 20
-22.5987368421
 11
-16.0720539538
 21
-22.5987368421
  0
LINE
  5
2AD
100
AcDbEntity
  8
DRAFT
100
AcDbLine
 62
7
  6
CONTINUOUS
 10
11.5517307731
 20
-22.5987368421
 11
10.7297724354
 21
-22.5987368421
  0
LINE
  5
2AE
100
AcDbEntity
  8
DRAFT
100
AcDbLine
 62
7
  6
CONTINUOUS
 10
-6.6464428378
 20
-22.5987368421
 11
6.4279460462
 21
-22.5987368421
  0
LINE
  5
2AF
100
AcDbEntity
  8
DRAFT
100
AcDbLine
 62
7
  6
CONTINUOUS
 10
-10.9482692269
 20
-22.5987368421
 11
-11.7702275646
 21
-22.5987368421
  0
LINE
  5
2B0
100
AcDbEntity
  8
DRAFT
100
AcDbLine
 62
7
  6
CONTINUOUS
 10
15.8535571622
 20
-22.5987368421
 11
22.4797724354
 21
-22.5987368421
  0
LINE
  5
2B1
100
AcDbEntity
  8
DRAFT
100
AcDbLine
 62
7
  6
CONTINUOUS
 10
22.4448623055
 20
-22.5638267122
 11
18.6131649906
 21
-22.5638267122
  0
LINE
  5
2B2
100
AcDbEntity
  8
DRAFT
100
AcDbLine
 62
7
  6
CONTINUOUS
 10
-18.8316617821
 20
-22.5638267122
 11
-22.663359097
 21
-22.5638267122
  0
LINE
  5
2B3
100
AcDbEntity
  8
DRAFT
100
AcDbLine
 62
7
  6
CONTINUOUS
 10
-18.8382716601
 20
-22.5201890499
 11
-18.4917933308
 21
-22.5201890499
  0
LINE
  5
2B4
100
AcDbEntity
  8
DRAFT
100
AcDbLine
 62
7
  6
CONTINUOUS
 10
18.6197748686
 20
-22.5201890499
 11
18.2732965393
 21
-22.5201890499
  0
LINE
  5
2B5
100
AcDbEntity
  8
DRAFT
100
AcDbLine
 62
7
  6
CONTINUOUS
 10
0.8732965393
 20
-22.5201890499
 11
4.0082066692
 21
-22.5201890499
  0
LINE
  5
2B6
100
AcDbEntity
  8
DRAFT
100
AcDbLine
 62
7
  6
CONTINUOUS
 10
-1.0917933308
 20
-22.5201890499
 11
-4.2267034607
 21
-22.5201890499
  0
LINE
  5
2B7
100
AcDbEntity
  8
DRAFT
100
AcDbLine
 62
7
  6
CONTINUOUS
 10
18.2628235004
 20
-22.509716011
 11
15.7719845995
 21
-22.509716011
  0
LINE
  5
2B8
100
AcDbEntity
  8
DRAFT
100
AcDbLine
 62
7
  6
CONTINUOUS
 10
-13.8592483958
 20
-22.509716011
 11
-8.8592483958
 21
-22.509716011
  0
LINE
  5
2B9
100
AcDbEntity
  8
DRAFT
100
AcDbLine
 62
7
  6
CONTINUOUS
 10
6.509518609
 20
-22.509716011
 11
4.0186797081
 21
-22.509716011
  0
LINE
  5
2BA
100
AcDbEntity
  8
DRAFT
100
AcDbLine
 62
7
  6
CONTINUOUS
 10
0.8628235004
 20
-22.509716011
 11
-1.0813202919
 21
-22.509716011
  0
LINE
  5
2BB
100
AcDbEntity
  8
DRAFT
100
AcDbLine
 62
7
  6
CONTINUOUS
 10
-4.2371764996
 20
-22.509716011
 11
-6.7280154005
 21
-22.509716011
  0
LINE
  5
2BC
100
AcDbEntity
  8
DRAFT
100
AcDbLine
 62
7
  6
CONTINUOUS
 10
8.6407516042
 20
-22.509716011
 11
13.6407516042
 21
-22.509716011
  0
LINE
  5
2BD
100
AcDbEntity
  8
DRAFT
100
AcDbLine
 62
7
  6
CONTINUOUS
 10
-15.990481391
 20
-22.509716011
 11
-18.4813202919
 21
-22.509716011
  0
LINE
  5
2BE
100
AcDbEntity
  8
0
100
AcDbLine
 62
7
  6
CONTINUOUS
 10
-34.1497466788
 20
-19.9692177279
 11
-34.9092483958
 21
-19.9462556674
  0
LINE
  5
2BF
100
AcDbEntity
  8
0
100
AcDbLine
 62
250
  6
CONTINUOUS
 10
39.7668014361
 20
-26.8458661703
 11
43.6082884806
 21
-27.1869678375
  0
LINE
  5
2C0
100
AcDbEntity
  8
0
100
AcDbLine
 62
250
  6
CONTINUOUS
 10
39.3326860415
 20
-30.4807062548
 11
43.1463849797
 21
-31.0543599154
  0
LINE
  5
2C1
100
AcDbEntity
  8
DRAFT
100
AcDbLine
 62
7
  6
CONTINUOUS
 10
-11.7702275646
 20
-22.5987368421
 11
-11.8592483958
 21
-22.509716011
  0
LINE
  5
2C2
100
AcDbEntity
  8
DRAFT
100
AcDbLine
 62
7
  6
CONTINUOUS
 10
-6.7776758331
 20
-24.0987368421
 11
-6.8336570035
 21
-24.0376441148
  0
LINE
  5
2C3
100
AcDbEntity
  8
0
100
AcDbLine
 62
250
  6
CONTINUOUS
 10
-30.1560620057
 20
39.7244664162
 11
-30.675729427
 21
43.5458959765
  0
LINE
  5
2C4
100
AcDbEntity
  8
DRAFT
100
AcDbLine
 62
7
  6
CONTINUOUS
 10
-16.0720539538
 20
-22.5987368421
 11
-15.9408209585
 21
-24.0987368421
  0
LINE
  5
2C5
100
AcDbEntity
  8
0
100
AcDbLine
 62
7
  6
CONTINUOUS
 10
-15.990481391
 20
-22.509716011
 11
-15.857017959
 21
-24.0352100202
  0
LINE
  5
2C6
100
AcDbEntity
  8
0
100
AcDbLine
 62
250
  6
CONTINUOUS
 10
-22.0155860768
 20
40.4506067533
 11
-22.2487318723
 21
44.3001549283
  0
LINE
  5
2C7
100
AcDbEntity
  8
0
100
AcDbLine
 62
250
  6
CONTINUOUS
 10
-22.0152650198
 20
-40.4700582337
 11
-22.2487404188
 21
-44.3195864322
  0
LINE
  5
2C8
100
AcDbEntity
  8
DRAFT
100
AcDbLine
 62
7
  6
CONTINUOUS
 10
-16.0720539538
 20
22.5793048202
 11
-15.9408209585
 21
24.0793048202
  0
LINE
  5
2C9
100
AcDbEntity
  8
0
100
AcDbLine
 62
7
  6
CONTINUOUS
 10
-15.990481391
 20
22.490283989
 11
-15.857017959
 21
24.0157779983
  0
LINE
  5
2CA
100
AcDbEntity
  8
DRAFT
100
AcDbLine
 62
7
  6
CONTINUOUS
 10
-6.7280154005
 20
22.490283989
 11
-6.6464428378
 21
22.5793048202
  0
LINE
  5
2CB
100
AcDbEntity
  8
DRAFT
100
AcDbLine
 62
7
  6
CONTINUOUS
 10
-4.2371764996
 20
22.490283989
 11
-4.2267034607
 21
22.500757028
  0
LINE
  5
2CC
100
AcDbEntity
  8
0
100
AcDbLine
 62
250
  6
CONTINUOUS
 10
-40.2512752487
 20
-23.7185660888
 11
-44.0951609147
 21
-24.0314895612
  0
LINE
  5
2CD
100
AcDbEntity
  8
0
100
AcDbLine
 62
7
  6
CONTINUOUS
 10
33.8645690068
 20
-20.5358986084
 11
35.9169342016
 21
-20.5358986084
  0
LINE
  5
2CE
100
AcDbEntity
  8
0
100
AcDbLine
 62
7
  6
CONTINUOUS
 10
-34.0830657984
 20
-20.5358986084
 11
-36.1354309932
 21
-20.5358986084
  0
LINE
  5
2CF
100
AcDbEntity
  8
0
100
AcDbLine
 62
7
  6
CONTINUOUS
 10
33.8907516042
 20
-20.509716011
 11
35.8907516042
 21
-20.509716011
  0
LINE
  5
2D0
100
AcDbEntity
  8
0
100
AcDbLine
 62
7
  6
CONTINUOUS
 10
-34.1092483958
 20
-20.509716011
 11
-36.1092483958
 21
-20.509716011
  0
LINE
  5
2D1
100
AcDbEntity
  8
0
100
AcDbLine
 62
250
  6
CONTINUOUS
 10
40.0327327432
 20
-23.719128165
 11
43.8766666236
 21
-24.0314588181
  0
LINE
  5
2D2
100
AcDbEntity
  8
DRAFT
100
AcDbLine
 62
7
  6
CONTINUOUS
 10
-4.2371764996
 20
-22.509716011
 11
-4.2267034607
 21
-22.5201890499
  0
LINE
  5
2D3
100
AcDbEntity
  8
DRAFT
100
AcDbLine
 62
7
  6
CONTINUOUS
 10
-6.7280154005
 20
-22.509716011
 11
-6.6464428378
 21
-22.5987368421
  0
LINE
  5
2D4
100
AcDbEntity
  8
DRAFT
100
AcDbLine
 62
7
  6
CONTINUOUS
 10
-13.8592483958
 20
24.0182120929
 11
-13.8592483958
 21
22.490283989
  0
LINE
  5
2D5
100
AcDbEntity
  8
DRAFT
100
AcDbLine
 62
7
  6
CONTINUOUS
 10
-13.8592483958
 20
-22.509716011
 11
-13.8592483958
 21
-24.0376441148
  0
LINE
  5
2D6
100
AcDbEntity
  8
DRAFT
100
AcDbLine
 62
7
  6
CONTINUOUS
 10
0.8628235004
 20
22.490283989
 11
0.8732965393
 21
22.500757028
  0
LINE
  5
2D7
100
AcDbEntity
  8
0
100
AcDbLine
 62
7
  6
CONTINUOUS
 10
-34.1092483958
 20
-13.509716011
 11
-34.0830657984
 21
-13.4835334136
  0
LINE
  5
2D8
100
AcDbEntity
  8
0
100
AcDbLine
 62
7
  6
CONTINUOUS
 10
-34.1143935254
 20
-14.0148611406
 11
-34.1497466788
 21
-14.050214294
  0
LWPOLYLINE
  5
2D9
100
AcDbEntity
  8
0
100
AcDbPolyline
 62
7
  6
CONTINUOUS
 90
19
 70
0
 10
45.3742646016
 20
-3.3302814987
 10
45.3837820227
 20
-3.3278134032
 10
45.3930716722
 20
-3.3231362433
 10
45.4021335502
 20
-3.3162873771
 10
45.411045027
 20
-3.3072989577
 10
45.4197287322
 20
-3.2962527156
 10
45.4279525547
 20
-3.2833222532
 10
45.4356763955
 20
-3.2686897461
 10
45.4429403535
 20
-3.2524601003
 10
45.4496326142
 20
-3.2347288532
 10
45.4557417601
 20
-3.2156620543
 10
45.4612792088
 20
-3.1953896822
 10
45.466167398
 20
-3.1739259118
 10
45.4704112465
 20
-3.1512831325
 10
45.4740058356
 20
-3.1277328812
 10
45.476858848
 20
-3.1036924745
 10
45.4789395112
 20
-3.079430982
 10
45.4802785976
 20
-3.0550411108
 10
45.4808761072
 20
-3.0306926382
  0
LINE
  5
2DA
100
AcDbEntity
  8
0
100
AcDbLine
 62
7
  6
CONTINUOUS
 10
-34.1497466788
 20
-14.050214294
 11
-34.9092483958
 21
-14.0731763545
  0
LINE
  5
2DB
100
AcDbEntity
  8
0
100
AcDbLine
 62
7
  6
CONTINUOUS
 10
-36.1092483958
 20
-13.509716011
 11
-34.1092483958
 21
-13.509716011
  0
LINE
  5
2DC
100
AcDbEntity
  8
0
100
AcDbLine
 62
7
  6
CONTINUOUS
 10
35.8907516042
 20
-13.509716011
 11
33.8907516042
 21
-13.509716011
  0
LINE
  5
2DD
100
AcDbEntity
  8
0
100
AcDbLine
 62
7
  6
CONTINUOUS
 10
-36.1354309932
 20
-13.4835334136
 11
-34.0830657984
 21
-13.4835334136
  0
LINE
  5
2DE
100
AcDbEntity
  8
0
100
AcDbLine
 62
7
  6
CONTINUOUS
 10
35.9169342016
 20
-13.4835334136
 11
33.8645690068
 21
-13.4835334136
  0
LINE
  5
2DF
100
AcDbEntity
  8
0
100
AcDbLine
 62
7
  6
CONTINUOUS
 10
33.9312498873
 20
-14.050214294
 11
34.6907516042
 21
-14.0731763545
  0
LINE
  5
2E0
100
AcDbEntity
  8
DRAFT
100
AcDbLine
 62
7
  6
CONTINUOUS
 10
0.8628235004
 20
-22.509716011
 11
0.8732965393
 21
-22.5201890499
  0
LINE
  5
2E1
100
AcDbEntity
  8
0
100
AcDbLine
 62
7
  6
CONTINUOUS
 10
-34.1092483958
 20
13.490283989
 11
-34.0830657984
 21
13.4641013916
  0
LINE
  5
2E2
100
AcDbEntity
  8
0
100
AcDbLine
 62
7
  6
CONTINUOUS
 10
-34.1143935254
 20
13.9954291186
 11
-34.1497466788
 21
14.0307822721
  0
LINE
  5
2E3
100
AcDbEntity
  8
DRAFT
100
AcDbLine
 62
7
  6
CONTINUOUS
 10
-11.8592483958
 20
23.990283989
 11
-11.8592483958
 21
22.490283989
  0
LINE
  5
2E4
100
AcDbEntity
  8
DRAFT
100
AcDbLine
 62
7
  6
CONTINUOUS
 10
-11.8592483958
 20
-22.509716011
 11
-11.8592483958
 21
-24.009716011
  0
LINE
  5
2E5
100
AcDbEntity
  8
DRAFT
100
AcDbLine
 62
7
  6
CONTINUOUS
 10
-11.7702275646
 20
-22.5987368421
 11
-11.7702275646
 21
-24.0987368421
  0
LINE
  5
2E6
100
AcDbEntity
  8
DRAFT
100
AcDbLine
 62
7
  6
CONTINUOUS
 10
-11.7702275646
 20
22.5793048202
 11
-11.7702275646
 21
24.0793048202
  0
LINE
  5
2E7
100
AcDbEntity
  8
DRAFT
100
AcDbLine
 62
7
  6
CONTINUOUS
 10
-10.9482692269
 20
-22.5987368421
 11
-10.9482692269
 21
-24.0987368421
  0
LINE
  5
2E8
100
AcDbEntity
  8
DRAFT
100
AcDbLine
 62
7
  6
CONTINUOUS
 10
-10.9482692269
 20
22.5793048202
 11
-10.9482692269
 21
24.0793048202
  0
LINE
  5
2E9
100
AcDbEntity
  8
DRAFT
100
AcDbLine
 62
7
  6
CONTINUOUS
 10
-10.8592483958
 20
23.990283989
 11
-10.8592483958
 21
22.490283989
  0
LINE
  5
2EA
100
AcDbEntity
  8
DRAFT
100
AcDbLine
 62
7
  6
CONTINUOUS
 10
-10.8592483958
 20
-22.509716011
 11
-10.8592483958
 21
-24.009716011
  0
LINE
  5
2EB
100
AcDbEntity
  8
DRAFT
100
AcDbLine
 62
7
  6
CONTINUOUS
 10
-8.8592483958
 20
24.0182120929
 11
-8.8592483958
 21
22.490283989
  0
LINE
  5
2EC
100
AcDbEntity
  8
DRAFT
100
AcDbLine
 62
7
  6
CONTINUOUS
 10
-8.8592483958
 20
-22.509716011
 11
-8.8592483958
 21
-24.0376441148
  0
LINE
  5
2ED
100
AcDbEntity
  8
DRAFT
100
AcDbLine
 62
7
  6
CONTINUOUS
 10
-18.8208165952
 20
-22.5376441148
 11
-18.8316617821
 21
-22.5638267122
  0
LINE
  5
2EE
100
AcDbEntity
  8
0
100
AcDbLine
 62
7
  6
CONTINUOUS
 10
-36.1092483958
 20
-20.509716011
 11
-36.1354309932
 21
-20.5358986084
  0
LINE
  5
2EF
100
AcDbEntity
  8
DRAFT
100
AcDbLine
 62
7
  6
CONTINUOUS
 10
8.6686797081
 20
24.0182120929
 11
8.6407516042
 21
23.990283989
  0
LINE
  5
2F0
100
AcDbEntity
  8
DRAFT
100
AcDbLine
 62
7
  6
CONTINUOUS
 10
10.7297724354
 20
24.0793048202
 11
10.6407516042
 21
23.990283989
  0
LINE
  5
2F1
100
AcDbEntity
  8
DRAFT
100
AcDbLine
 62
7
  6
CONTINUOUS
 10
10.7297724354
 20
22.5793048202
 11
10.6407516042
 21
22.490283989
  0
LINE
  5
2F2
100
AcDbEntity
  8
DRAFT
100
AcDbLine
 62
7
  6
CONTINUOUS
 10
22.4186797081
 20
18.7018521884
 11
22.4448623055
 21
18.7126973754
  0
LINE
  5
2F3
100
AcDbEntity
  8
0
100
AcDbLine
 62
7
  6
CONTINUOUS
 10
44.8216803637
 20
-3.409716011
 11
45.3742646016
 21
-3.3302814987
  0
LINE
  5
2F4
100
AcDbEntity
  8
0
100
AcDbLine
 62
7
  6
CONTINUOUS
 10
-45.0401856725
 20
-3.409716011
 11
-45.592769621
 21
-3.3302814987
  0
LINE
  5
2F5
100
AcDbEntity
  8
DRAFT
100
AcDbLine
 62
7
  6
CONTINUOUS
 10
22.4186797081
 20
-18.7212842104
 11
22.4448623055
 21
-18.7321293973
  0
LINE
  5
2F6
100
AcDbEntity
  8
0
100
AcDbLine
 62
7
  6
CONTINUOUS
 10
-36.1092483958
 20
20.490283989
 11
-36.1354309932
 21
20.5164665864
  0
LINE
  5
2F7
100
AcDbEntity
  8
DRAFT
100
AcDbLine
 62
7
  6
CONTINUOUS
 10
8.6407516042
 20
-24.009716011
 11
8.6686797081
 21
-24.0376441148
  0
LINE
  5
2F8
100
AcDbEntity
  8
DRAFT
100
AcDbLine
 62
7
  6
CONTINUOUS
 10
10.6407516042
 20
-24.009716011
 11
10.7297724354
 21
-24.0987368421
  0
LINE
  5
2F9
100
AcDbEntity
  8
DRAFT
100
AcDbLine
 62
7
  6
CONTINUOUS
 10
10.7297724354
 20
-22.5987368421
 11
10.6407516042
 21
-22.509716011
  0
LINE
  5
2FA
100
AcDbEntity
  8
DRAFT
100
AcDbLine
 62
7
  6
CONTINUOUS
 10
-18.8208165952
 20
22.5182120929
 11
-18.8316617821
 21
22.5443946903
  0
LINE
  5
2FB
100
AcDbEntity
  8
0
100
AcDbLine
 62
7
  6
CONTINUOUS
 10
-6.7280154005
 20
22.490283989
 11
-6.8614788326
 21
24.0157779983
  0
LINE
  5
2FC
100
AcDbEntity
  8
DRAFT
100
AcDbLine
 62
7
  6
CONTINUOUS
 10
-6.6464428378
 20
22.5793048202
 11
-6.7776758331
 21
24.0793048202
  0
LINE
  5
2FD
100
AcDbEntity
  8
0
100
AcDbLine
 62
7
  6
CONTINUOUS
 10
-6.7280154005
 20
-22.509716011
 11
-6.8614788326
 21
-24.0352100202
  0
LINE
  5
2FE
100
AcDbEntity
  8
DRAFT
100
AcDbLine
 62
7
  6
CONTINUOUS
 10
-6.6464428378
 20
-22.5987368421
 11
-6.7776758331
 21
-24.0987368421
  0
LINE
  5
2FF
100
AcDbEntity
  8
DRAFT
100
AcDbLine
 62
7
  6
CONTINUOUS
 10
15.7223241669
 20
24.0793048202
 11
15.6663429965
 21
24.0182120929
  0
LINE
  5
300
100
AcDbEntity
  8
DRAFT
100
AcDbLine
 62
7
  6
CONTINUOUS
 10
15.7223241669
 20
-24.0987368421
 11
15.6663429965
 21
-24.0376441148
  0
LINE
  5
301
100
AcDbEntity
  8
0
100
AcDbLine
 62
250
  6
CONTINUOUS
 10
-0.1092483958
 20
-41.1249560946
 11
-0.1092483958
 21
-44.9815579814
  0
LINE
  5
302
100
AcDbEntity
  8
0
100
AcDbLine
 62
250
  6
CONTINUOUS
 10
-0.1092483958
 20
41.1055240727
 11
-0.1092483958
 21
44.9621259595
  0
LINE
  5
303
100
AcDbEntity
  8
DRAFT
100
AcDbLine
 62
7
  6
CONTINUOUS
 10
15.7719845995
 20
22.490283989
 11
15.8535571622
 21
22.5793048202
  0
LINE
  5
304
100
AcDbEntity
  8
DRAFT
100
AcDbLine
 62
7
  6
CONTINUOUS
 10
18.2628235004
 20
22.490283989
 11
18.2732965393
 21
22.500757028
  0
LINE
  5
305
100
AcDbEntity
  8
DRAFT
100
AcDbLine
 62
7
  6
CONTINUOUS
 10
-22.663359097
 20
-22.5638267122
 11
-22.6982692269
 21
-22.5987368421
  0
LINE
  5
306
100
AcDbEntity
  8
DRAFT
100
AcDbLine
 62
7
  6
CONTINUOUS
 10
22.4448623055
 20
22.5443946903
 11
22.4797724354
 21
22.5793048202
  0
LINE
  5
307
100
AcDbEntity
  8
0
100
AcDbLine
 62
250
  6
CONTINUOUS
 10
-41.202646509
 20
-0.0097160109
 11
-45.7143948174
 21
-0.009716008
  0
LINE
  5
308
100
AcDbEntity
  8
0
100
AcDbLine
 62
250
  6
CONTINUOUS
 10
40.9841497174
 20
-0.009716011
 11
45.4958980259
 21
-0.0097160117
  0
LINE
  5
309
100
AcDbEntity
  8
DRAFT
100
AcDbLine
 62
7
  6
CONTINUOUS
 10
18.2628235004
 20
-22.509716011
 11
18.2732965393
 21
-22.5201890499
  0
LINE
  5
30A
100
AcDbEntity
  8
DRAFT
100
AcDbLine
 62
7
  6
CONTINUOUS
 10
22.4448623055
 20
-22.5638267122
 11
22.4797724354
 21
-22.5987368421
  0
LINE
  5
30B
100
AcDbEntity
  8
DRAFT
100
AcDbLine
 62
7
  6
CONTINUOUS
 10
-22.663359097
 20
22.5443946903
 11
-22.6982692269
 21
22.5793048202
  0
LINE
  5
30C
100
AcDbEntity
  8
DRAFT
100
AcDbLine
 62
7
  6
CONTINUOUS
 10
15.7719845995
 20
-22.509716011
 11
15.8535571622
 21
-22.5987368421
  0
LINE
  5
30D
100
AcDbEntity
  8
DRAFT
100
AcDbLine
 62
7
  6
CONTINUOUS
 10
6.4279460462
 20
-22.5987368421
 11
6.5591790415
 21
-24.0987368421
  0
LINE
  5
30E
100
AcDbEntity
  8
0
100
AcDbLine
 62
7
  6
CONTINUOUS
 10
6.509518609
 20
-22.509716011
 11
6.642982041
 21
-24.0352100202
  0
LINE
  5
30F
100
AcDbEntity
  8
DRAFT
100
AcDbLine
 62
7
  6
CONTINUOUS
 10
6.4279460462
 20
22.5793048202
 11
6.5591790415
 21
24.0793048202
  0
LINE
  5
310
100
AcDbEntity
  8
0
100
AcDbLine
 62
7
  6
CONTINUOUS
 10
6.509518609
 20
22.490283989
 11
6.642982041
 21
24.0157779983
  0
LINE
  5
311
100
AcDbEntity
  8
DRAFT
100
AcDbLine
 62
7
  6
CONTINUOUS
 10
-15.990481391
 20
-22.509716011
 11
-16.0720539538
 21
-22.5987368421
  0
LINE
  5
312
100
AcDbEntity
  8
DRAFT
100
AcDbLine
 62
7
  6
CONTINUOUS
 10
-15.9408209585
 20
-24.0987368421
 11
-15.884839788
 21
-24.0376441148
  0
LINE
  5
313
100
AcDbEntity
  8
DRAFT
100
AcDbLine
 62
7
  6
CONTINUOUS
 10
-18.4813202919
 20
-22.509716011
 11
-18.4917933308
 21
-22.5201890499
  0
LINE
  5
314
100
AcDbEntity
  8
DRAFT
100
AcDbLine
 62
7
  6
CONTINUOUS
 10
-18.4813202919
 20
22.490283989
 11
-18.4917933308
 21
22.500757028
  0
LINE
  5
315
100
AcDbEntity
  8
DRAFT
100
AcDbLine
 62
7
  6
CONTINUOUS
 10
-15.990481391
 20
22.490283989
 11
-16.0720539538
 21
22.5793048202
  0
LINE
  5
316
100
AcDbEntity
  8
DRAFT
100
AcDbLine
 62
7
  6
CONTINUOUS
 10
-15.9408209585
 20
24.0793048202
 11
-15.884839788
 21
24.0182120929
  0
LINE
  5
317
100
AcDbEntity
  8
DRAFT
100
AcDbLine
 62
7
  6
CONTINUOUS
 10
8.6407516042
 20
24.0182120929
 11
8.6407516042
 21
22.490283989
  0
LINE
  5
318
100
AcDbEntity
  8
DRAFT
100
AcDbLine
 62
7
  6
CONTINUOUS
 10
8.6407516042
 20
-22.509716011
 11
8.6407516042
 21
-24.0376441148
  0
LINE
  5
319
100
AcDbEntity
  8
DRAFT
100
AcDbLine
 62
7
  6
CONTINUOUS
 10
18.6023198036
 20
22.5182120929
 11
18.6131649906
 21
22.5443946903
  0
LINE
  5
31A
100
AcDbEntity
  8
DRAFT
100
AcDbLine
 62
7
  6
CONTINUOUS
 10
-10.8592483958
 20
-22.509716011
 11
-10.9482692269
 21
-22.5987368421
  0
LINE
  5
31B
100
AcDbEntity
  8
DRAFT
100
AcDbLine
 62
7
  6
CONTINUOUS
 10
-22.6371764996
 20
-18.7212842104
 11
-22.663359097
 21
-18.7321293973
  0
LINE
  5
31C
100
AcDbEntity
  8
DRAFT
100
AcDbLine
 62
7
  6
CONTINUOUS
 10
-22.6371764996
 20
18.7018521884
 11
-22.663359097
 21
18.7126973754
  0
LINE
  5
31D
100
AcDbEntity
  8
DRAFT
100
AcDbLine
 62
7
  6
CONTINUOUS
 10
-10.8592483958
 20
22.490283989
 11
-10.9482692269
 21
22.5793048202
  0
LINE
  5
31E
100
AcDbEntity
  8
DRAFT
100
AcDbLine
 62
7
  6
CONTINUOUS
 10
18.6023198036
 20
-22.5376441148
 11
18.6131649906
 21
-22.5638267122
  0
LINE
  5
31F
100
AcDbEntity
  8
DRAFT
100
AcDbLine
 62
7
  6
CONTINUOUS
 10
10.6407516042
 20
23.990283989
 11
10.6407516042
 21
22.490283989
  0
LINE
  5
320
100
AcDbEntity
  8
DRAFT
100
AcDbLine
 62
7
  6
CONTINUOUS
 10
10.6407516042
 20
-22.509716011
 11
10.6407516042
 21
-24.009716011
  0
LINE
  5
321
100
AcDbEntity
  8
DRAFT
100
AcDbLine
 62
7
  6
CONTINUOUS
 10
10.7297724354
 20
-22.5987368421
 11
10.7297724354
 21
-24.0987368421
  0
LINE
  5
322
100
AcDbEntity
  8
DRAFT
100
AcDbLine
 62
7
  6
CONTINUOUS
 10
10.7297724354
 20
22.5793048202
 11
10.7297724354
 21
24.0793048202
  0
LINE
  5
323
100
AcDbEntity
  8
DRAFT
100
AcDbLine
 62
7
  6
CONTINUOUS
 10
11.5517307731
 20
-22.5987368421
 11
11.5517307731
 21
-24.0987368421
  0
LINE
  5
324
100
AcDbEntity
  8
DRAFT
100
AcDbLine
 62
7
  6
CONTINUOUS
 10
11.5517307731
 20
22.5793048202
 11
11.5517307731
 21
24.0793048202
  0
LINE
  5
325
100
AcDbEntity
  8
DRAFT
100
AcDbLine
 62
7
  6
CONTINUOUS
 10
11.6407516042
 20
23.990283989
 11
11.6407516042
 21
22.490283989
  0
LINE
  5
326
100
AcDbEntity
  8
DRAFT
100
AcDbLine
 62
7
  6
CONTINUOUS
 10
11.6407516042
 20
-22.509716011
 11
11.6407516042
 21
-24.009716011
  0
LINE
  5
327
100
AcDbEntity
  8
DRAFT
100
AcDbLine
 62
7
  6
CONTINUOUS
 10
-10.8592483958
 20
-24.009716011
 11
-10.9482692269
 21
-24.0987368421
  0
LINE
  5
328
100
AcDbEntity
  8
DRAFT
100
AcDbLine
 62
7
  6
CONTINUOUS
 10
-8.8592483958
 20
-24.009716011
 11
-8.8871764996
 21
-24.0376441148
  0
LINE
  5
329
100
AcDbEntity
  8
0
100
AcDbLine
 62
7
  6
CONTINUOUS
 10
35.8907516042
 20
20.490283989
 11
35.9169342016
 21
20.5164665864
  0
LINE
  5
32A
100
AcDbEntity
  8
0
100
AcDbLine
 62
7
  6
CONTINUOUS
 10
-45.0401771552
 20
3.390283989
 11
-45.5927613931
 21
3.3108494767
  0
LINE
  5
32B
100
AcDbEntity
  8
0
100
AcDbLine
 62
7
  6
CONTINUOUS
 10
33.9312498873
 20
14.0307822721
 11
34.6907516042
 21
14.0537443326
  0
LINE
  5
32C
100
AcDbEntity
  8
0
100
AcDbLine
 62
7
  6
CONTINUOUS
 10
-34.1497466788
 20
14.0307822721
 11
-34.9092483958
 21
14.0537443326
  0
LINE
  5
32D
100
AcDbEntity
  8
0
100
AcDbLine
 62
7
  6
CONTINUOUS
 10
44.8216803769
 20
3.390283989
 11
45.3742646007
 21
3.3108494767
  0
LINE
  5
32E
100
AcDbEntity
  8
DRAFT
100
AcDbLine
 62
7
  6
CONTINUOUS
 10
-10.9482692269
 20
24.0793048202
 11
-10.8592483958
 21
23.990283989
  0
LINE
  5
32F
100
AcDbEntity
  8
DRAFT
100
AcDbLine
 62
7
  6
CONTINUOUS
 10
-8.8871764996
 20
24.0182120929
 11
-8.8592483958
 21
23.990283989
  0
LINE
  5
330
100
AcDbEntity
  8
0
100
AcDbLine
 62
7
  6
CONTINUOUS
 10
35.8907516042
 20
-20.509716011
 11
35.9169342016
 21
-20.5358986084
  0
LINE
  5
331
100
AcDbEntity
  8
DRAFT
100
AcDbLine
 62
7
  6
CONTINUOUS
 10
13.6407516042
 20
24.0182120929
 11
13.6407516042
 21
22.490283989
  0
LINE
  5
332
100
AcDbEntity
  8
DRAFT
100
AcDbLine
 62
7
  6
CONTINUOUS
 10
13.6407516042
 20
-22.509716011
 11
13.6407516042
 21
-24.0376441148
  0
LINE
  5
333
100
AcDbEntity
  8
0
100
AcDbLine
 62
7
  6
CONTINUOUS
 10
33.8958967339
 20
13.9954291186
 11
33.9312498873
 21
14.0307822721
  0
LINE
  5
334
100
AcDbEntity
  8
0
100
AcDbLine
 62
7
  6
CONTINUOUS
 10
33.8907516042
 20
13.490283989
 11
33.8645690068
 21
13.4641013916
  0
LINE
  5
335
100
AcDbEntity
  8
DRAFT
100
AcDbLine
 62
7
  6
CONTINUOUS
 10
-1.0813202919
 20
-22.509716011
 11
-1.0917933308
 21
-22.5201890499
  0
LWPOLYLINE
  5
336
100
AcDbEntity
  8
0
100
AcDbPolyline
 62
7
  6
CONTINUOUS
 90
19
 70
0
 10
-45.5927613931
 20
3.3108494767
 10
-45.6022788142
 20
3.3083813813
 10
-45.6115684637
 20
3.3037042213
 10
-45.6206303417
 20
3.2968553552
 10
-45.6295418185
 20
3.2878669358
 10
-45.6382255237
 20
3.2768206937
 10
-45.6464493462
 20
3.2638902313
 10
-45.654173187
 20
3.2492577241
 10
-45.661437145
 20
3.2330280784
 10
-45.6681294057
 20
3.2152968313
 10
-45.6742385517
 20
3.1962300323
 10
-45.6797760003
 20
3.1759576602
 10
-45.6846641896
 20
3.1544938899
 10
-45.688908038
 20
3.1318511106
 10
-45.6925026271
 20
3.1083008593
 10
-45.6953556395
 20
3.0842604526
 10
-45.6974363027
 20
3.0599989601
 10
-45.6987753891
 20
3.0356090888
 10
-45.6993728987
 20
3.0112606163
  0
LINE
  5
337
100
AcDbEntity
  8
0
100
AcDbLine
 62
7
  6
CONTINUOUS
 10
-36.1354309932
 20
13.4641013916
 11
-34.0830657984
 21
13.4641013916
  0
LINE
  5
338
100
AcDbEntity
  8
0
100
AcDbLine
 62
7
  6
CONTINUOUS
 10
35.9169342016
 20
13.4641013916
 11
33.8645690068
 21
13.4641013916
  0
LINE
  5
339
100
AcDbEntity
  8
0
100
AcDbLine
 62
7
  6
CONTINUOUS
 10
-36.1092483958
 20
13.490283989
 11
-34.1092483958
 21
13.490283989
  0
LINE
  5
33A
100
AcDbEntity
  8
0
100
AcDbLine
 62
7
  6
CONTINUOUS
 10
35.8907516042
 20
13.490283989
 11
33.8907516042
 21
13.490283989
  0
LINE
  5
33B
100
AcDbEntity
  8
0
100
AcDbLine
 62
7
  6
CONTINUOUS
 10
33.8958967339
 20
-14.0148611406
 11
33.9312498873
 21
-14.050214294
  0
LINE
  5
33C
100
AcDbEntity
  8
0
100
AcDbLine
 62
7
  6
CONTINUOUS
 10
33.8907516042
 20
-13.509716011
 11
33.8645690068
 21
-13.4835334136
  0
LINE
  5
33D
100
AcDbEntity
  8
DRAFT
100
AcDbLine
 62
7
  6
CONTINUOUS
 10
-1.0813202919
 20
22.490283989
 11
-1.0917933308
 21
22.500757028
  0
LINE
  5
33E
100
AcDbEntity
  8
0
100
AcDbLine
 62
7
  6
CONTINUOUS
 10
15.7719845995
 20
22.490283989
 11
15.6385211674
 21
24.0157779983
  0
LINE
  5
33F
100
AcDbEntity
  8
DRAFT
100
AcDbLine
 62
7
  6
CONTINUOUS
 10
15.8535571622
 20
22.5793048202
 11
15.7223241669
 21
24.0793048202
  0
LINE
  5
340
100
AcDbEntity
  8
0
100
AcDbLine
 62
250
  6
CONTINUOUS
 10
21.7970892853
 20
-40.4700387753
 11
22.0302350808
 21
-44.3195869502
  0
LINE
  5
341
100
AcDbEntity
  8
0
100
AcDbLine
 62
250
  6
CONTINUOUS
 10
21.7967682283
 20
40.4506262118
 11
22.0302436273
 21
44.3001544103
  0
LINE
  5
342
100
AcDbEntity
  8
0
100
AcDbLine
 62
7
  6
CONTINUOUS
 10
15.7719845995
 20
-22.509716011
 11
15.6385211674
 21
-24.0352100202
  0
LINE
  5
343
100
AcDbEntity
  8
DRAFT
100
AcDbLine
 62
7
  6
CONTINUOUS
 10
15.8535571622
 20
-22.5987368421
 11
15.7223241669
 21
-24.0987368421
  0
LINE
  5
344
100
AcDbEntity
  8
DRAFT
100
AcDbLine
 62
7
  6
CONTINUOUS
 10
6.509518609
 20
-22.509716011
 11
6.4279460462
 21
-22.5987368421
  0
LINE
  5
345
100
AcDbEntity
  8
DRAFT
100
AcDbLine
 62
7
  6
CONTINUOUS
 10
6.5591790415
 20
-24.0987368421
 11
6.615160212
 21
-24.0376441148
  0
LINE
  5
346
100
AcDbEntity
  8
DRAFT
100
AcDbLine
 62
7
  6
CONTINUOUS
 10
4.0186797081
 20
-22.509716011
 11
4.0082066692
 21
-22.5201890499
  0
LINE
  5
347
100
AcDbEntity
  8
0
100
AcDbLine
 62
250
  6
CONTINUOUS
 10
40.0327327432
 20
23.6996961431
 11
43.8766666236
 21
24.0120267962
  0
LINE
  5
348
100
AcDbEntity
  8
0
100
AcDbLine
 62
7
  6
CONTINUOUS
 10
-34.1497466788
 20
19.949785706
 11
-34.9092483958
 21
19.9268236455
  0
LINE
  5
349
100
AcDbEntity
  8
0
100
AcDbLine
 62
7
  6
CONTINUOUS
 10
33.8907516042
 20
20.490283989
 11
35.8907516042
 21
20.490283989
  0
LINE
  5
34A
100
AcDbEntity
  8
0
100
AcDbLine
 62
7
  6
CONTINUOUS
 10
-34.1092483958
 20
20.490283989
 11
-36.1092483958
 21
20.490283989
  0
LINE
  5
34B
100
AcDbEntity
  8
0
100
AcDbLine
 62
7
  6
CONTINUOUS
 10
33.8645690068
 20
20.5164665864
 11
35.9169342016
 21
20.5164665864
  0
LINE
  5
34C
100
AcDbEntity
  8
0
100
AcDbLine
 62
7
  6
CONTINUOUS
 10
-34.0830657984
 20
20.5164665864
 11
-36.1354309932
 21
20.5164665864
  0
LINE
  5
34D
100
AcDbEntity
  8
0
100
AcDbLine
 62
7
  6
CONTINUOUS
 10
33.9312498873
 20
19.949785706
 11
34.6907516042
 21
19.9268236455
  0
LINE
  5
34E
100
AcDbEntity
  8
0
100
AcDbLine
 62
250
  6
CONTINUOUS
 10
-40.2512295348
 20
23.6996961431
 11
-44.0951634151
 21
24.0120267962
  0
LINE
  5
34F
100
AcDbEntity
  8
DRAFT
100
AcDbLine
 62
7
  6
CONTINUOUS
 10
4.0186797081
 20
22.490283989
 11
4.0082066692
 21
22.500757028
  0
LINE
  5
350
100
AcDbEntity
  8
DRAFT
100
AcDbLine
 62
7
  6
CONTINUOUS
 10
6.509518609
 20
22.490283989
 11
6.4279460462
 21
22.5793048202
  0
LINE
  5
351
100
AcDbEntity
  8
DRAFT
100
AcDbLine
 62
7
  6
CONTINUOUS
 10
6.5591790415
 20
24.0793048202
 11
6.615160212
 21
24.0182120929
  0
LINE
  5
352
100
AcDbEntity
  8
0
100
AcDbLine
 62
250
  6
CONTINUOUS
 10
25.1688705916
 20
-40.2436322192
 11
25.452411518
 21
-44.0897970163
  0
LINE
  5
353
100
AcDbEntity
  8
DRAFT
100
AcDbLine
 62
7
  6
CONTINUOUS
 10
22.3907516042
 20
18.7297802923
 11
22.3907516042
 21
-18.7492123142
  0
LINE
  5
354
100
AcDbEntity
  8
DRAFT
100
AcDbLine
 62
7
  6
CONTINUOUS
 10
22.4448623055
 20
22.5443946903
 11
22.4448623055
 21
18.7126973754
  0
LINE
  5
355
100
AcDbEntity
  8
DRAFT
100
AcDbLine
 62
7
  6
CONTINUOUS
 10
22.4448623055
 20
-18.7321293973
 11
22.4448623055
 21
-22.5638267122
  0
LINE
  5
356
100
AcDbEntity
  8
DRAFT
100
AcDbLine
 62
7
  6
CONTINUOUS
 10
22.4797724354
 20
22.5793048202
 11
22.4797724354
 21
-22.5987368421
  0
LINE
  5
357
100
AcDbEntity
  8
0
100
AcDbLine
 62
250
  6
CONTINUOUS
 10
25.1690412249
 20
40.2241876044
 11
25.4525905408
 21
44.0703515392
  0
LINE
  5
358
100
AcDbEntity
  8
0
100
AcDbLine
 62
250
  6
CONTINUOUS
 10
29.9375652141
 20
39.7244664162
 11
30.4572326355
 21
43.5458959765
  0
LINE
  5
359
100
AcDbEntity
  8
DRAFT
100
AcDbLine
 62
7
  6
CONTINUOUS
 10
11.6407516042
 20
-22.509716011
 11
11.5517307731
 21
-22.5987368421
  0
LINE
  5
35A
100
AcDbEntity
  8
DRAFT
100
AcDbLine
 62
7
  6
CONTINUOUS
 10
11.6407516042
 20
-24.009716011
 11
11.5517307731
 21
-24.0987368421
  0
LINE
  5
35B
100
AcDbEntity
  8
0
100
AcDbLine
 62
250
  6
CONTINUOUS
 10
39.3326860415
 20
30.4612742328
 11
43.1463849797
 21
31.0349278935
  0
LINE
  5
35C
100
AcDbEntity
  8
0
100
AcDbLine
 62
250
  6
CONTINUOUS
 10
39.7667821658
 20
26.826650638
 11
43.6082692461
 21
27.1677661864
  0
LINE
  5
35D
100
AcDbEntity
  8
DRAFT
100
AcDbLine
 62
7
  6
CONTINUOUS
 10
-18.4813202919
 20
22.490283989
 11
-15.990481391
 21
22.490283989
  0
LINE
  5
35E
100
AcDbEntity
  8
DRAFT
100
AcDbLine
 62
7
  6
CONTINUOUS
 10
-13.8592483958
 20
22.490283989
 11
-8.8592483958
 21
22.490283989
  0
LINE
  5
35F
100
AcDbEntity
  8
DRAFT
100
AcDbLine
 62
7
  6
CONTINUOUS
 10
-6.7280154005
 20
22.490283989
 11
-4.2371764996
 21
22.490283989
  0
LINE
  5
360
100
AcDbEntity
  8
DRAFT
100
AcDbLine
 62
7
  6
CONTINUOUS
 10
-1.0813202919
 20
22.490283989
 11
0.8628235004
 21
22.490283989
  0
LINE
  5
361
100
AcDbEntity
  8
DRAFT
100
AcDbLine
 62
7
  6
CONTINUOUS
 10
4.0186797081
 20
22.490283989
 11
6.509518609
 21
22.490283989
  0
LINE
  5
362
100
AcDbEntity
  8
DRAFT
100
AcDbLine
 62
7
  6
CONTINUOUS
 10
8.6407516042
 20
22.490283989
 11
13.6407516042
 21
22.490283989
  0
LINE
  5
363
100
AcDbEntity
  8
DRAFT
100
AcDbLine
 62
7
  6
CONTINUOUS
 10
15.7719845995
 20
22.490283989
 11
18.2628235004
 21
22.490283989
  0
LINE
  5
364
100
AcDbEntity
  8
DRAFT
100
AcDbLine
 62
7
  6
CONTINUOUS
 10
-18.8382716601
 20
22.500757028
 11
-18.4917933308
 21
22.500757028
  0
LINE
  5
365
100
AcDbEntity
  8
DRAFT
100
AcDbLine
 62
7
  6
CONTINUOUS
 10
18.6197748686
 20
22.500757028
 11
18.2732965393
 21
22.500757028
  0
LINE
  5
366
100
AcDbEntity
  8
DRAFT
100
AcDbLine
 62
7
  6
CONTINUOUS
 10
0.8732965393
 20
22.500757028
 11
4.0082066692
 21
22.500757028
  0
LINE
  5
367
100
AcDbEntity
  8
DRAFT
100
AcDbLine
 62
7
  6
CONTINUOUS
 10
-1.0917933308
 20
22.500757028
 11
-4.2267034607
 21
22.500757028
  0
LINE
  5
368
100
AcDbEntity
  8
DRAFT
100
AcDbLine
 62
7
  6
CONTINUOUS
 10
-22.663359097
 20
22.5443946903
 11
-18.8316617821
 21
22.5443946903
  0
LINE
  5
369
100
AcDbEntity
  8
DRAFT
100
AcDbLine
 62
7
  6
CONTINUOUS
 10
18.6131649906
 20
22.5443946903
 11
22.4448623055
 21
22.5443946903
  0
LINE
  5
36A
100
AcDbEntity
  8
DRAFT
100
AcDbLine
 62
7
  6
CONTINUOUS
 10
22.4797724354
 20
22.5793048202
 11
15.8535571622
 21
22.5793048202
  0
LINE
  5
36B
100
AcDbEntity
  8
DRAFT
100
AcDbLine
 62
7
  6
CONTINUOUS
 10
11.5517307731
 20
22.5793048202
 11
10.7297724354
 21
22.5793048202
  0
LINE
  5
36C
100
AcDbEntity
  8
DRAFT
100
AcDbLine
 62
7
  6
CONTINUOUS
 10
6.4279460462
 20
22.5793048202
 11
-6.6464428378
 21
22.5793048202
  0
LINE
  5
36D
100
AcDbEntity
  8
DRAFT
100
AcDbLine
 62
7
  6
CONTINUOUS
 10
-10.9482692269
 20
22.5793048202
 11
-11.7702275646
 21
22.5793048202
  0
LINE
  5
36E
100
AcDbEntity
  8
DRAFT
100
AcDbLine
 62
7
  6
CONTINUOUS
 10
-16.0720539538
 20
22.5793048202
 11
-22.6982692269
 21
22.5793048202
  0
LINE
  5
36F
100
AcDbEntity
  8
DRAFT
100
AcDbLine
 62
7
  6
CONTINUOUS
 10
-13.8592483958
 20
23.990283989
 11
-11.8592483958
 21
23.990283989
  0
LINE
  5
370
100
AcDbEntity
  8
DRAFT
100
AcDbLine
 62
7
  6
CONTINUOUS
 10
-10.8592483958
 20
23.990283989
 11
-8.8592483958
 21
23.990283989
  0
LINE
  5
371
100
AcDbEntity
  8
DRAFT
100
AcDbLine
 62
7
  6
CONTINUOUS
 10
8.6407516042
 20
23.990283989
 11
10.6407516042
 21
23.990283989
  0
LINE
  5
372
100
AcDbEntity
  8
DRAFT
100
AcDbLine
 62
7
  6
CONTINUOUS
 10
11.6407516042
 20
23.990283989
 11
13.6407516042
 21
23.990283989
  0
LINE
  5
373
100
AcDbEntity
  8
DRAFT
100
AcDbLine
 62
7
  6
CONTINUOUS
 10
-15.884839788
 20
24.0182120929
 11
-13.8313202919
 21
24.0182120929
  0
LINE
  5
374
100
AcDbEntity
  8
DRAFT
100
AcDbLine
 62
7
  6
CONTINUOUS
 10
-8.8871764996
 20
24.0182120929
 11
-6.8336570035
 21
24.0182120929
  0
LINE
  5
375
100
AcDbEntity
  8
DRAFT
100
AcDbLine
 62
7
  6
CONTINUOUS
 10
6.615160212
 20
24.0182120929
 11
8.6686797081
 21
24.0182120929
  0
LINE
  5
376
100
AcDbEntity
  8
DRAFT
100
AcDbLine
 62
7
  6
CONTINUOUS
 10
13.6128235004
 20
24.0182120929
 11
15.6663429965
 21
24.0182120929
  0
LINE
  5
377
100
AcDbEntity
  8
DRAFT
100
AcDbLine
 62
7
  6
CONTINUOUS
 10
-15.9408209585
 20
24.0793048202
 11
-11.7702275646
 21
24.0793048202
  0
LINE
  5
378
100
AcDbEntity
  8
DRAFT
100
AcDbLine
 62
7
  6
CONTINUOUS
 10
-10.9482692269
 20
24.0793048202
 11
-6.7776758331
 21
24.0793048202
  0
LINE
  5
379
100
AcDbEntity
  8
DRAFT
100
AcDbLine
 62
7
  6
CONTINUOUS
 10
6.5591790415
 20
24.0793048202
 11
10.7297724354
 21
24.0793048202
  0
LINE
  5
37A
100
AcDbEntity
  8
DRAFT
100
AcDbLine
 62
7
  6
CONTINUOUS
 10
11.5517307731
 20
24.0793048202
 11
15.7223241669
 21
24.0793048202
  0
LINE
  5
37B
100
AcDbEntity
  8
0
100
AcDbLine
 62
250
  6
CONTINUOUS
 10
-39.9852982276
 20
26.8264341484
 11
-43.8267852721
 21
27.1675358156
  0
LINE
  5
37C
100
AcDbEntity
  8
0
100
AcDbLine
 62
250
  6
CONTINUOUS
 10
-39.5511828331
 20
30.4612742329
 11
-43.3648817712
 21
31.0349278935
  0
LINE
  5
37D
100
AcDbEntity
  8
DRAFT
100
AcDbLine
 62
7
  6
CONTINUOUS
 10
11.6407516042
 20
22.490283989
 11
11.5517307731
 21
22.5793048202
  0
LINE
  5
37E
100
AcDbEntity
  8
DRAFT
100
AcDbLine
 62
7
  6
CONTINUOUS
 10
11.5517307731
 20
24.0793048202
 11
11.6407516042
 21
23.990283989
  0
LINE
  5
37F
100
AcDbEntity
  8
0
100
AcDbLine
 62
250
  6
CONTINUOUS
 10
29.9375652141
 20
-39.7438984381
 11
30.4572326355
 21
-43.5653279984
  0
LINE
  5
380
100
AcDbEntity
  8
DRAFT
100
AcDbLine
 62
7
  6
CONTINUOUS
 10
13.6407516042
 20
-24.009716011
 11
13.6128235004
 21
-24.0376441148
  0
LINE
  5
381
100
AcDbEntity
  8
DRAFT
100
AcDbLine
 62
7
  6
CONTINUOUS
 10
22.4186797081
 20
-18.7212842104
 11
18.6023198036
 21
-22.5376441148
  0
LINE
  5
382
100
AcDbEntity
  8
DRAFT
100
AcDbLine
 62
7
  6
CONTINUOUS
 10
22.4448623055
 20
-18.7321293973
 11
18.6131649906
 21
-22.5638267122
  0
LINE
  5
383
100
AcDbEntity
  8
DRAFT
100
AcDbLine
 62
7
  6
CONTINUOUS
 10
13.6128235004
 20
24.0182120929
 11
13.6407516042
 21
23.990283989
  0
LINE
  5
384
100
AcDbEntity
  8
DRAFT
100
AcDbLine
 62
7
  6
CONTINUOUS
 10
18.6023198036
 20
22.5182120929
 11
22.4186797081
 21
18.7018521884
  0
LINE
  5
385
100
AcDbEntity
  8
DRAFT
100
AcDbLine
 62
7
  6
CONTINUOUS
 10
18.6131649906
 20
22.5443946903
 11
22.4448623055
 21
18.7126973754
  0
LINE
  5
386
100
AcDbEntity
  8
0
100
AcDbLine
 62
7
  6
CONTINUOUS
 10
33.8645690068
 20
-13.4835334136
 11
33.8645690068
 21
-20.5358986084
  0
LINE
  5
387
100
AcDbEntity
  8
0
100
AcDbLine
 62
7
  6
CONTINUOUS
 10
33.8645690068
 20
13.4641013916
 11
33.8645690068
 21
20.5164665864
  0
LINE
  5
388
100
AcDbEntity
  8
0
100
AcDbLine
 62
7
  6
CONTINUOUS
 10
33.8907516042
 20
-13.509716011
 11
33.8907516042
 21
-13.714906832
  0
LINE
  5
389
100
AcDbEntity
  8
0
100
AcDbLine
 62
7
  6
CONTINUOUS
 10
33.8907516042
 20
-20.3045251899
 11
33.8907516042
 21
-20.509716011
  0
LINE
  5
38A
100
AcDbEntity
  8
0
100
AcDbLine
 62
7
  6
CONTINUOUS
 10
33.8907516042
 20
13.490283989
 11
33.8907516042
 21
13.6954748101
  0
LINE
  5
38B
100
AcDbEntity
  8
0
100
AcDbLine
 62
7
  6
CONTINUOUS
 10
33.8907516042
 20
20.285093168
 11
33.8907516042
 21
20.490283989
  0
LINE
  5
38C
100
AcDbEntity
  8
0
100
AcDbLine
 62
7
  6
CONTINUOUS
 10
33.9312498873
 20
-14.050214294
 11
33.9312498873
 21
-19.9692177279
  0
LINE
  5
38D
100
AcDbEntity
  8
0
100
AcDbLine
 62
7
  6
CONTINUOUS
 10
33.9312498873
 20
14.0307822721
 11
33.9312498873
 21
19.949785706
  0
LINE
  5
38E
100
AcDbEntity
  8
0
100
AcDbLine
 62
7
  6
CONTINUOUS
 10
34.9907516042
 20
-14.3822919707
 11
34.9907516042
 21
-19.6371400512
  0
LINE
  5
38F
100
AcDbEntity
  8
0
100
AcDbLine
 62
7
  6
CONTINUOUS
 10
34.9907516042
 20
14.3628599488
 11
34.9907516042
 21
19.6177080293
  0
LINE
  5
390
100
AcDbEntity
  8
0
100
AcDbLine
 62
7
  6
CONTINUOUS
 10
35.8907516042
 20
20.490283989
 11
35.8907516042
 21
13.490283989
  0
LINE
  5
391
100
AcDbEntity
  8
0
100
AcDbLine
 62
7
  6
CONTINUOUS
 10
35.8907516042
 20
-20.509716011
 11
35.8907516042
 21
-13.509716011
  0
LINE
  5
392
100
AcDbEntity
  8
0
100
AcDbLine
 62
7
  6
CONTINUOUS
 10
35.9169342016
 20
20.5164665864
 11
35.9169342016
 21
13.4641013916
  0
LINE
  5
393
100
AcDbEntity
  8
0
100
AcDbLine
 62
7
  6
CONTINUOUS
 10
35.9169342016
 20
-20.5358986084
 11
35.9169342016
 21
-13.4835334136
  0
LINE
  5
394
100
AcDbEntity
  8
0
100
AcDbLine
 62
7
  6
CONTINUOUS
 10
35.8907516042
 20
-13.509716011
 11
35.9169342016
 21
-13.4835334136
  0
LINE
  5
395
100
AcDbEntity
  8
0
100
AcDbLine
 62
7
  6
CONTINUOUS
 10
28.4519381771
 20
-25.0353686779
 11
24.9164042711
 21
-28.5709025838
  0
LINE
  5
396
100
AcDbEntity
  8
0
100
AcDbLine
 62
7
  6
CONTINUOUS
 10
33.8958967339
 20
-20.0045708814
 11
33.9312498873
 21
-19.9692177279
  0
LINE
  5
397
100
AcDbEntity
  8
0
100
AcDbLine
 62
7
  6
CONTINUOUS
 10
33.8907516042
 20
-20.509716011
 11
33.8645690068
 21
-20.5358986084
  0
LINE
  5
398
100
AcDbEntity
  8
0
100
AcDbLine
 62
7
  6
CONTINUOUS
 10
35.8907516042
 20
13.490283989
 11
35.9169342016
 21
13.4641013916
  0
LINE
  5
399
100
AcDbEntity
  8
0
100
AcDbLine
 62
7
  6
CONTINUOUS
 10
24.9164042711
 20
28.5514705619
 11
28.4519381771
 21
25.0159366559
  0
LINE
  5
39A
100
AcDbEntity
  8
0
100
AcDbLine
 62
7
  6
CONTINUOUS
 10
33.8958967339
 20
19.9851388594
 11
33.9312498873
 21
19.949785706
  0
LINE
  5
39B
100
AcDbEntity
  8
0
100
AcDbLine
 62
7
  6
CONTINUOUS
 10
33.8907516042
 20
20.490283989
 11
33.8645690068
 21
20.5164665864
  0
LWPOLYLINE
  5
39C
100
AcDbEntity
  8
0
100
AcDbPolyline
 62
250
  6
CONTINUOUS
 90
9
 70
0
 10
39.8313248345
 20
27.2674169543
 10
39.7890388024
 20
27.6921835452
 10
39.7444697865
 20
28.110209318
 10
39.6977514924
 20
28.521475112
 10
39.6490129333
 20
28.9259895261
 10
39.5983780135
 20
29.3237845201
 10
39.5459711531
 20
29.7148697858
 10
39.4919182625
 20
30.099231057
 10
39.4363419567
 20
30.4768660759
  0
LWPOLYLINE
  5
39D
100
AcDbEntity
  8
0
100
AcDbPolyline
 62
250
  6
CONTINUOUS
 90
10
 70
0
 10
39.7667821658
 20
26.826650638
 10
39.7267622106
 20
27.257413669
 10
39.6845940669
 20
27.6814416342
 10
39.6402777349
 20
28.0987345334
 10
39.5936866122
 20
28.5092842671
 10
39.5449473011
 20
28.9130989349
 10
39.4944396078
 20
29.3102028356
 10
39.4422901345
 20
29.7006040685
 10
39.3883722791
 20
30.0842945343
 10
39.3326860415
 20
30.4612742328
  0
LINE
  5
39E
100
AcDbEntity
  8
0
100
AcDbLine
 62
250
  6
CONTINUOUS
 10
39.9049925485
 20
26.4532760065
 11
39.8313248345
 21
27.2674169543
  0
LINE
  5
39F
100
AcDbEntity
  8
0
100
AcDbLine
 62
250
  6
CONTINUOUS
 10
39.9532646249
 20
24.6628627831
 11
39.7667821658
 21
26.826650638
  0
LINE
  5
3A0
100
AcDbEntity
  8
0
100
AcDbLine
 62
250
  6
CONTINUOUS
 10
40.0852112708
 20
24.3415594301
 11
39.9049925485
 21
26.4532760065
  0
LINE
  5
3A1
100
AcDbEntity
  8
0
100
AcDbLine
 62
250
  6
CONTINUOUS
 10
40.1372104408
 20
23.7081852556
 11
40.0852112708
 21
24.3415594301
  0
LINE
  5
3A2
100
AcDbEntity
  8
0
100
AcDbLine
 62
250
  6
CONTINUOUS
 10
40.0327327432
 20
23.6996961431
 11
39.9532646249
 21
24.6628627831
  0
LWPOLYLINE
  5
3A3
100
AcDbEntity
  8
0
100
AcDbPolyline
 62
250
  6
CONTINUOUS
 90
10
 70
0
 10
40.9841497174
 20
-0.009716011
 10
40.9732397024
 20
2.5371997492
 10
40.9408081346
 20
5.0788461804
 10
40.8868550141
 20
7.6152232826
 10
40.8142859311
 20
10.1101508277
 10
40.7201952954
 20
12.5998090438
 10
40.5958663358
 20
15.192738615
 10
40.4383934621
 20
17.9251197693
 10
40.2506822646
 20
20.7607722786
 10
40.0327327432
 20
23.6996961431
  0
LWPOLYLINE
  5
3A4
100
AcDbEntity
  8
0
100
AcDbPolyline
 62
250
  6
CONTINUOUS
 90
10
 70
0
 10
41.08897173
 20
-0.009716011
 10
41.0781344766
 20
2.5376893303
 10
41.0456685235
 20
5.0803118006
 10
40.9916428143
 20
7.6179011705
 10
40.9173610042
 20
10.1136748535
 10
40.8222031392
 20
12.6039759909
 10
40.7005504246
 20
15.1981141646
 10
40.5472360807
 20
17.9321657971
 10
40.3605958882
 20
20.7690724257
 10
40.1372104408
 20
23.7081852556
  0
LWPOLYLINE
  5
3A5
100
AcDbEntity
  8
0
100
AcDbPolyline
 62
250
  6
CONTINUOUS
 90
10
 70
0
 10
40.0327327432
 20
-23.719128165
 10
40.2266831711
 20
-21.1847359538
 10
40.3983652327
 20
-18.6519920294
 10
40.5477789279
 20
-16.1208963919
 10
40.6746455788
 20
-13.6269757294
 10
40.7792438634
 20
-11.1347033538
 10
40.8624098161
 20
-8.5374992006
 10
40.9244221151
 20
-5.7998365816
 10
40.9650020822
 20
-2.9572421851
 10
40.9841497174
 20
-0.009716011
  0
LWPOLYLINE
  5
3A6
100
AcDbEntity
  8
0
100
AcDbPolyline
 62
250
  6
CONTINUOUS
 90
10
 70
0
 10
40.1372104408
 20
-23.7276172776
 10
40.3316942505
 20
-21.1927385753
 10
40.5033394661
 20
-18.6589697713
 10
40.6524456901
 20
-16.1265992952
 10
40.7776630443
 20
-13.6316399191
 10
40.881477464
 20
-11.1386286372
 10
40.9671889951
 20
-8.5404956025
 10
41.0328898419
 20
-5.8015980431
 10
41.0744543581
 20
-2.957904707
 10
41.08897173
 20
-0.009716011
  0
LINE
  5
3A7
100
AcDbEntity
  8
0
100
AcDbLine
 62
250
  6
CONTINUOUS
 10
39.8658717887
 20
-25.7125490083
 11
40.0327327432
 21
-23.719128165
  0
LINE
  5
3A8
100
AcDbEntity
  8
0
100
AcDbLine
 62
250
  6
CONTINUOUS
 10
39.9703027673
 20
-25.7215538711
 11
40.1372104408
 21
-23.7276172776
  0
LINE
  5
3A9
100
AcDbEntity
  8
0
100
AcDbLine
 62
250
  6
CONTINUOUS
 10
39.7668014361
 20
-26.8458661703
 11
39.8658717887
 21
-25.7125490083
  0
LINE
  5
3AA
100
AcDbEntity
  8
0
100
AcDbLine
 62
250
  6
CONTINUOUS
 10
39.8712126553
 20
-26.8551372782
 11
39.9703027673
 21
-25.7215538711
  0
LINE
  5
3AB
100
AcDbEntity
  8
0
100
AcDbLine
 62
7
  6
CONTINUOUS
 10
27.3295650314
 20
-30.9840633441
 11
30.8650989373
 21
-27.4485294381
  0
LWPOLYLINE
  5
3AC
100
AcDbEntity
  8
0
100
AcDbPolyline
 62
250
  6
CONTINUOUS
 90
10
 70
0
 10
-25.3873673832
 20
40.2242001973
 10
-25.9595251574
 20
40.1795198739
 10
-26.5210973698
 20
40.1319682524
 10
-27.0720840206
 20
40.0815453327
 10
-27.612471966
 20
40.0280379348
 10
-28.1422743498
 20
39.9716592387
 10
-28.6615306026
 20
39.9130487847
 10
-29.1702538679
 20
39.8524197531
 10
-29.6684310023
 20
39.7895589635
 10
-30.1560620057
 20
39.7244664162
  0
LWPOLYLINE
  5
3AD
100
AcDbEntity
  8
0
100
AcDbPolyline
 62
250
  6
CONTINUOUS
 90
10
 70
0
 10
-25.3950739938
 20
40.3287385257
 10
-25.9679840913
 20
40.2843728722
 10
-26.5303204877
 20
40.2366804617
 10
-27.0820637707
 20
40.1858911946
 10
-27.6231844296
 20
40.1322318245
 10
-28.1536961538
 20
40.0759209061
 10
-28.6736491896
 20
40.0171679193
 10
-29.183059173
 20
39.9561810356
 10
-29.681905482
 20
39.8931685867
 10
-30.1701865087
 20
39.8283324488
  0
LINE
  5
3AE
100
AcDbEntity
  8
0
100
AcDbLine
 62
250
  6
CONTINUOUS
 10
-23.8883975911
 20
40.3303289102
 11
-25.3873673832
 21
40.2242001973
  0
LINE
  5
3AF
100
AcDbEntity
  8
0
100
AcDbLine
 62
250
  6
CONTINUOUS
 10
-23.8954966784
 20
40.4349103227
 11
-25.3950739941
 21
40.3287385291
  0
LINE
  5
3B0
100
AcDbEntity
  8
0
100
AcDbLine
 62
250
  6
CONTINUOUS
 10
-22.7645894919
 20
40.4041470486
 11
-23.8883975911
 21
40.3303289102
  0
LINE
  5
3B1
100
AcDbEntity
  8
0
100
AcDbLine
 62
250
  6
CONTINUOUS
 10
-22.7712298621
 20
40.5087586331
 11
-23.8954966784
 21
40.4349103227
  0
LINE
  5
3B2
100
AcDbEntity
  8
0
100
AcDbLine
 62
250
  6
CONTINUOUS
 10
-22.0155860768
 20
40.4506067533
 11
-22.7645894919
 21
40.4041470486
  0
LINE
  5
3B3
100
AcDbEntity
  8
0
100
AcDbLine
 62
250
  6
CONTINUOUS
 10
-22.0219229538
 20
40.5552370468
 11
-22.7712298621
 21
40.5087586331
  0
LWPOLYLINE
  5
3B4
100
AcDbEntity
  8
0
100
AcDbPolyline
 62
250
  6
CONTINUOUS
 90
22
 70
0
 10
-0.1092483958
 20
41.1055240727
 10
-1.1536783592
 20
41.103862659
 10
-2.1834851241
 20
41.099582896
 10
-3.1986686904
 20
41.0926847838
 10
-4.1944474338
 20
41.0831701732
 10
-5.1756029787
 20
41.0710372135
 10
-6.156480198
 20
41.0562803516
 10
-7.1420944881
 20
41.0388958274
 10
-8.1274304526
 20
41.018887401
 10
-9.1117867765
 20
40.9962607998
 10
-10.0909074305
 20
40.9711859483
 10
-11.0690484438
 20
40.943492922
 10
-12.0582765887
 20
40.9126776741
 10
-13.0576549098
 20
40.8789272312
 10
-14.0681203624
 20
40.8420545668
 10
-15.1045505851
 20
40.8009945552
 10
-16.1675552085
 20
40.7559093096
 10
-17.256524602
 20
40.7066367168
 10
-18.3845075109
 20
40.6516253114
 10
-19.5558535173
 20
40.590357938
 10
-20.7662130393
 20
40.523351752
 10
-22.0155860768
 20
40.4506067533
  0
LWPOLYLINE
  5
3B5
100
AcDbEntity
  8
0
100
AcDbPolyline
 62
250
  6
CONTINUOUS
 90
22
 70
0
 10
-0.1092483958
 20
41.2103460853
 10
-1.1539523912
 20
41.2088793295
 10
-2.1840541691
 20
41.2045588415
 10
-3.199540373
 20
41.1975031806
 10
-4.1956040652
 20
41.1878822061
 10
-5.1770293613
 20
41.1757841816
 10
-6.1581890164
 20
41.1610884386
 10
-7.1440884104
 20
41.1436990587
 10
-8.1296975211
 20
41.1236833765
 10
-9.1143359606
 20
41.1010518124
 10
-10.0937375216
 20
41.0759154875
 10
-11.0721527059
 20
41.048178398
 10
-12.0616737804
 20
41.017444629
 10
-13.0613420064
 20
40.9836444254
 10
-14.0720901145
 20
40.9466449433
 10
-15.1088361475
 20
40.9057289241
 10
-16.1721539812
 20
40.8606312706
 10
-17.2614246807
 20
40.8111302978
 10
-18.3897608742
 20
40.7563155923
 10
-19.5615056648
 20
40.6955650563
 10
-20.7722404293
 20
40.6286792632
 10
-22.0219229538
 20
40.5552370468
  0
LWPOLYLINE
  5
3B6
100
AcDbEntity
  8
0
100
AcDbPolyline
 62
250
  6
CONTINUOUS
 90
14
 70
0
 10
11.3714486268
 20
40.9275434759
 10
10.5814313934
 20
40.9512690103
 10
9.7873082016
 20
40.9734149724
 10
8.9864984441
 20
40.9940253201
 10
8.1717581708
 20
41.0130968826
 10
7.343509657
 20
41.0306973277
 10
6.5013306275
 20
41.0467589874
 10
5.6367103065
 20
41.0610756869
 10
4.7494024394
 20
41.0737414895
 10
3.8396532808
 20
41.0846623318
 10
2.8996908192
 20
41.0933498479
 10
1.9269243839
 20
41.0996412491
 10
0.9239446456
 20
41.103699324
 10
-0.1092483958
 20
41.1055240727
  0
LWPOLYLINE
  5
3B7
100
AcDbEntity
  8
0
100
AcDbPolyline
 62
250
  6
CONTINUOUS
 90
15
 70
0
 10
12.1582670651
 20
41.0070615692
 10
11.3747121121
 20
41.032303511
 10
10.5844656686
 20
41.0560471095
 10
9.7901126238
 20
41.0781848809
 10
8.989075714
 20
41.0987587801
 10
8.1741022128
 20
41.1178926864
 10
7.3456168058
 20
41.1354909145
 10
6.5032008114
 20
41.1514751277
 10
5.6383339021
 20
41.1658851242
 10
4.7507742724
 20
41.1785689253
 10
3.8407711194
 20
41.1893631983
 10
2.9005395571
 20
41.1981684264
 10
1.9274886884
 20
41.2047718671
 10
0.9242228527
 20
41.2089114868
 10
-0.1092483958
 20
41.2103460853
  0
LINE
  5
3B8
100
AcDbEntity
  8
0
100
AcDbLine
 62
250
  6
CONTINUOUS
 10
12.9309255242
 20
40.8756206095
 11
11.3714486268
 21
40.9275434759
  0
LINE
  5
3B9
100
AcDbEntity
  8
0
100
AcDbLine
 62
250
  6
CONTINUOUS
 10
13.703640177
 20
40.952297479
 11
12.1582670651
 21
41.0070615692
  0
LINE
  5
3BA
100
AcDbEntity
  8
0
100
AcDbLine
 62
250
  6
CONTINUOUS
 10
14.4612951689
 20
40.81810742
 11
12.9309255242
 21
40.8756206095
  0
LINE
  5
3BB
100
AcDbEntity
  8
0
100
AcDbLine
 62
250
  6
CONTINUOUS
 10
15.2201391009
 20
40.8920975767
 11
13.703640177
 21
40.952297479
  0
LINE
  5
3BC
100
AcDbEntity
  8
0
100
AcDbLine
 62
250
  6
CONTINUOUS
 10
15.9631710674
 20
40.7553415576
 11
14.4612951689
 21
40.81810742
  0
LINE
  5
3BD
100
AcDbEntity
  8
0
100
AcDbLine
 62
250
  6
CONTINUOUS
 10
16.7082714684
 20
40.8267570137
 11
15.2201391009
 21
40.8920975767
  0
LINE
  5
3BE
100
AcDbEntity
  8
0
100
AcDbLine
 62
250
  6
CONTINUOUS
 10
17.436441367
 20
40.6875625002
 11
15.9631710674
 21
40.7553415576
  0
LINE
  5
3BF
100
AcDbEntity
  8
0
100
AcDbLine
 62
250
  6
CONTINUOUS
 10
18.1630276329
 20
40.7568268097
 11
16.7082714684
 21
40.8267570137
  0
LINE
  5
3C0
100
AcDbEntity
  8
0
100
AcDbLine
 62
250
  6
CONTINUOUS
 10
18.8718244667
 20
40.615663442
 11
17.436441367
 21
40.6875625002
  0
LINE
  5
3C1
100
AcDbEntity
  8
0
100
AcDbLine
 62
250
  6
CONTINUOUS
 10
19.5971348926
 20
40.6819761845
 11
18.1630276329
 21
40.7568268097
  0
LINE
  5
3C2
100
AcDbEntity
  8
0
100
AcDbLine
 62
250
  6
CONTINUOUS
 10
20.3209718128
 20
40.5369060738
 11
18.8718244667
 21
40.615663442
  0
LINE
  5
3C3
100
AcDbEntity
  8
0
100
AcDbLine
 62
250
  6
CONTINUOUS
 10
21.0622093527
 20
40.5993917836
 11
19.5971348926
 21
40.6819761845
  0
LINE
  5
3C4
100
AcDbEntity
  8
0
100
AcDbLine
 62
250
  6
CONTINUOUS
 10
22.14503762
 20
40.429342401
 11
20.3209718128
 21
40.5369060738
  0
LINE
  5
3C5
100
AcDbEntity
  8
0
100
AcDbLine
 62
250
  6
CONTINUOUS
 10
22.5065816585
 20
40.511672966
 11
21.0622093527
 21
40.5993917836
  0
LINE
  5
3C6
100
AcDbEntity
  8
0
100
AcDbLine
 62
250
  6
CONTINUOUS
 10
23.6041286355
 20
40.3347953399
 11
22.14503762
 21
40.429342401
  0
LINE
  5
3C7
100
AcDbEntity
  8
0
100
AcDbLine
 62
250
  6
CONTINUOUS
 10
23.6111889349
 20
40.439372259
 11
22.5065816585
 21
40.511672966
  0
LINE
  5
3C8
100
AcDbEntity
  8
0
100
AcDbLine
 62
250
  6
CONTINUOUS
 10
24.7678815198
 20
40.2533992325
 11
23.6041286355
 21
40.3347953399
  0
LINE
  5
3C9
100
AcDbEntity
  8
0
100
AcDbLine
 62
250
  6
CONTINUOUS
 10
24.7754491081
 20
40.35799662
 11
23.6111889349
 21
40.439372259
  0
LINE
  5
3CA
100
AcDbEntity
  8
0
100
AcDbLine
 62
7
  6
CONTINUOUS
 10
30.8650989373
 20
27.4290974162
 11
27.3295650314
 21
30.9646313221
  0
LINE
  5
3CB
100
AcDbEntity
  8
0
100
AcDbLine
 62
7
  6
CONTINUOUS
 10
43.5684274499
 20
27.5998827933
 11
43.6397497062
 21
26.8113750299
  0
LINE
  5
3CC
100
AcDbEntity
  8
0
100
AcDbLine
 62
7
  6
CONTINUOUS
 10
43.6397497062
 20
26.8113750299
 11
43.7316699973
 21
25.7508278303
  0
LWPOLYLINE
  5
3CD
100
AcDbEntity
  8
0
100
AcDbPolyline
 62
7
  6
CONTINUOUS
 90
3
 70
0
 10
43.7316699973
 20
25.7508278303
 10
43.8484662693
 20
24.3569067493
 10
43.8766666236
 20
24.0120267961
  0
LWPOLYLINE
  5
3CE
100
AcDbEntity
  8
0
100
AcDbPolyline
 62
7
  6
CONTINUOUS
 90
10
 70
0
 10
43.8766666236
 20
24.0120267961
 10
44.0509436132
 20
21.7579966768
 10
44.2079854494
 20
19.4937183381
 10
44.3477921321
 20
17.2191917801
 10
44.4704752772
 20
14.9331775894
 10
44.5759232689
 20
12.6369151793
 10
44.6638012595
 20
10.3341227903
 10
44.733997633
 20
8.0260398355
 10
44.7866240055
 20
5.7114269018
 10
44.8216803769
 20
3.390283989
  0
LWPOLYLINE
  5
3CF
100
AcDbEntity
  8
0
100
AcDbPolyline
 62
7
  6
CONTINUOUS
 90
19
 70
0
 10
45.4808761065
 20
3.0112606163
 10
45.4802785968
 20
3.0356090888
 10
45.4789395104
 20
3.0599989601
 10
45.4768588473
 20
3.0842604526
 10
45.4740058349
 20
3.1083008593
 10
45.4704112457
 20
3.1318511106
 10
45.4661673973
 20
3.1544938899
 10
45.461279208
 20
3.1759576602
 10
45.4557417593
 20
3.1962300323
 10
45.4496326134
 20
3.2152968313
 10
45.4429403527
 20
3.2330280784
 10
45.4356763947
 20
3.2492577241
 10
45.4279525538
 20
3.2638902313
 10
45.4197287314
 20
3.2768206937
 10
45.4110450261
 20
3.2878669358
 10
45.4021335493
 20
3.2968553552
 10
45.3930716714
 20
3.3037042213
 10
45.3837820218
 20
3.3083813813
 10
45.3742646007
 20
3.3108494767
  0
LINE
  5
3D0
100
AcDbEntity
  8
0
100
AcDbLine
 62
7
  6
CONTINUOUS
 10
45.4808761065
 20
3.0112606163
 11
45.4892205691
 21
2.0047366639
  0
LINE
  5
3D1
100
AcDbEntity
  8
0
100
AcDbLine
 62
7
  6
CONTINUOUS
 10
44.8348640155
 20
1.8798315626
 11
44.8216803647
 21
3.3902839889
  0
LINE
  5
3D2
100
AcDbEntity
  8
0
100
AcDbLine
 62
7
  6
CONTINUOUS
 10
45.4892205691
 20
2.0047366639
 11
45.4942284096
 21
0.997737169
  0
LINE
  5
3D3
100
AcDbEntity
  8
0
100
AcDbLine
 62
7
  6
CONTINUOUS
 10
44.840516045
 20
0.3683197492
 11
44.8348640155
 21
1.8798315626
  0
LINE
  5
3D4
100
AcDbEntity
  8
0
100
AcDbLine
 62
7
  6
CONTINUOUS
 10
45.4942284096
 20
0.997737169
 11
45.4958980259
 21
-0.0097160117
  0
LINE
  5
3D5
100
AcDbEntity
  8
0
100
AcDbLine
 62
7
  6
CONTINUOUS
 10
45.4958980259
 20
-0.0097160117
 11
45.4942284097
 21
-1.0171692064
  0
LINE
  5
3D6
100
AcDbEntity
  8
0
100
AcDbLine
 62
7
  6
CONTINUOUS
 10
44.8386318349
 20
-1.143634988
 11
44.840516045
 21
0.3683197492
  0
LINE
  5
3D7
100
AcDbEntity
  8
0
100
AcDbLine
 62
7
  6
CONTINUOUS
 10
45.4942284097
 20
-1.0171692064
 11
45.4892205694
 21
-2.0241687007
  0
LINE
  5
3D8
100
AcDbEntity
  8
0
100
AcDbLine
 62
7
  6
CONTINUOUS
 10
44.8292132936
 20
-2.6546261742
 11
44.8386318349
 21
-1.143634988
  0
LINE
  5
3D9
100
AcDbEntity
  8
0
100
AcDbLine
 62
7
  6
CONTINUOUS
 10
45.4892205694
 20
-2.0241687007
 11
45.4808761072
 21
-3.0306926382
  0
LINE
  5
3DA
100
AcDbEntity
  8
0
100
AcDbLine
 62
7
  6
CONTINUOUS
 10
44.8216803637
 20
-3.409716011
 11
44.8292132936
 21
-2.6546261742
  0
LWPOLYLINE
  5
3DB
100
AcDbEntity
  8
0
100
AcDbPolyline
 62
7
  6
CONTINUOUS
 90
10
 70
0
 10
44.8216803637
 20
-3.409716011
 10
44.7866239982
 20
-5.7308589238
 10
44.7339976301
 20
-8.0454718576
 10
44.6638012595
 20
-10.3535548123
 10
44.5759232699
 20
-12.6563472015
 10
44.4704752777
 20
-14.9526096115
 10
44.3477921321
 20
-17.2386238023
 10
44.2079854493
 20
-19.5131503602
 10
44.0509436132
 20
-21.7774286988
 10
43.8766666236
 20
-24.031458818
  0
LINE
  5
3DC
100
AcDbEntity
  8
0
100
AcDbLine
 62
7
  6
CONTINUOUS
 10
43.8766666236
 20
-24.031458818
 11
43.7614708775
 21
-25.4195739304
  0
LINE
  5
3DD
100
AcDbEntity
  8
0
100
AcDbLine
 62
7
  6
CONTINUOUS
 10
43.7614708775
 20
-25.4195739304
 11
43.6708234512
 21
-26.4757146604
  0
LINE
  5
3DE
100
AcDbEntity
  8
0
100
AcDbLine
 62
7
  6
CONTINUOUS
 10
43.6708234512
 20
-26.4757146604
 11
43.6082891331
 21
-27.1869678955
  0
LWPOLYLINE
  5
3DF
100
AcDbEntity
  8
0
100
AcDbPolyline
 62
7
  6
CONTINUOUS
 90
10
 70
0
 10
43.6082891331
 20
-27.1869678955
 10
43.5684460562
 20
-27.6191196084
 10
43.5257299181
 20
-28.0506753486
 10
43.480140719
 20
-28.4816351159
 10
43.4316742463
 20
-28.9120181097
 10
43.3803347125
 20
-29.3418051306
 10
43.3261347552
 20
-29.7709385814
 10
43.2690785869
 20
-30.1993992629
 10
43.209161995
 20
-30.6272063742
 10
43.1463849797
 20
-31.0543599154
  0
LWPOLYLINE
  5
3E0
100
AcDbEntity
  8
0
100
AcDbPolyline
 62
250
  6
CONTINUOUS
 90
10
 70
0
 10
39.3326860415
 20
-30.4807062548
 10
39.3952490691
 20
-30.0527284927
 10
39.4541312244
 20
-29.6307603453
 10
39.5093325075
 20
-29.2148018126
 10
39.5607210833
 20
-28.804830167
 10
39.6084287869
 20
-28.400868136
 10
39.6528511234
 20
-28.0029839026
 10
39.694119928
 20
-27.6112001943
 10
39.7321033655
 20
-27.2254942836
 10
39.7668014361
 20
-26.8458661703
  0
LWPOLYLINE
  5
3E1
100
AcDbEntity
  8
0
100
AcDbPolyline
 62
250
  6
CONTINUOUS
 90
10
 70
0
 10
39.4363419567
 20
-30.4962980978
 10
39.4992386211
 20
-30.0676453009
 10
39.558178162
 20
-29.6449240558
 10
39.613296862
 20
-29.228183416
 10
39.6647274663
 20
-28.8174818332
 10
39.7126049632
 20
-28.4128427081
 10
39.7570649936
 20
-28.0142588121
 10
39.7982370185
 20
-27.6217497678
 10
39.8362450715
 20
-27.2353646491
 10
39.8712126379
 20
-26.8551372767
  0
LWPOLYLINE
  5
3E2
100
AcDbEntity
  8
0
100
AcDbPolyline
 62
7
  6
CONTINUOUS
 90
9
 70
0
 10
-30.675729427
 20
43.5458959765
 10
-30.120374579
 20
43.619483641
 10
-29.5648161412
 20
43.6892437829
 10
-29.0090541136
 20
43.7551764023
 10
-28.4530636468
 20
43.8172824961
 10
-27.8968695903
 20
43.8755610674
 10
-27.3405464919
 20
43.9300091247
 10
-26.7841192008
 20
43.9806256708
 10
-26.2275628678
 20
44.027411703
  0
LINE
  5
3E3
100
AcDbEntity
  8
0
100
AcDbLine
 62
7
  6
CONTINUOUS
 10
-26.2275628678
 20
44.027411703
 11
-25.2901433618
 21
44.0981568395
  0
LINE
  5
3E4
100
AcDbEntity
  8
0
100
AcDbLine
 62
7
  6
CONTINUOUS
 10
-25.2901433618
 20
44.0981568395
 11
-24.1486758284
 21
44.1781380233
  0
LINE
  5
3E5
100
AcDbEntity
  8
0
100
AcDbLine
 62
7
  6
CONTINUOUS
 10
-24.1486758284
 20
44.1781380233
 11
-23.0083256697
 21
44.2530397642
  0
LINE
  5
3E6
100
AcDbEntity
  8
0
100
AcDbLine
 62
7
  6
CONTINUOUS
 10
-23.0083256697
 20
44.2530397642
 11
-22.2487318724
 21
44.3001549283
  0
LWPOLYLINE
  5
3E7
100
AcDbEntity
  8
0
100
AcDbPolyline
 62
7
  6
CONTINUOUS
 90
10
 70
0
 10
-22.2487318724
 20
44.3001549283
 10
-19.8253866888
 20
44.4386370238
 10
-17.3928146993
 20
44.5609092628
 10
-14.9510159039
 20
44.6669716453
 10
-12.4998870363
 20
44.7568542822
 10
-10.0395313629
 20
44.8305270626
 10
-7.5702586823
 20
44.8878996538
 10
-5.0921722607
 20
44.9289419449
 10
-2.6051688319
 20
44.9536840468
 10
-0.1092483959
 20
44.9621259595
  0
LWPOLYLINE
  5
3E8
100
AcDbEntity
  8
0
100
AcDbPolyline
 62
7
  6
CONTINUOUS
 90
9
 70
0
 10
-0.1092483959
 20
44.9621259595
 10
2.3950538646
 20
44.9535589911
 10
4.8883430674
 20
44.9286914882
 10
7.3706192124
 20
44.8875234506
 10
9.8419844568
 20
44.8299826409
 10
12.3023366434
 20
44.7561412967
 10
14.7513693009
 20
44.6662161302
 10
17.1889802722
 20
44.5602793791
 10
19.6152717143
 20
44.4382588058
  0
LINE
  5
3E9
100
AcDbEntity
  8
0
100
AcDbLine
 62
7
  6
CONTINUOUS
 10
19.6152717143
 20
44.4382588058
 11
22.4142829302
 21
44.2766041641
  0
LINE
  5
3EA
100
AcDbEntity
  8
0
100
AcDbLine
 62
7
  6
CONTINUOUS
 10
22.4142829302
 20
44.2766041641
 11
23.179528027
 21
44.2280060585
  0
LINE
  5
3EB
100
AcDbEntity
  8
0
100
AcDbLine
 62
7
  6
CONTINUOUS
 10
23.179528027
 20
44.2280060585
 11
24.3203118996
 21
44.1513648671
  0
LINE
  5
3EC
100
AcDbEntity
  8
0
100
AcDbLine
 62
7
  6
CONTINUOUS
 10
24.3203118996
 20
44.1513648671
 11
25.4525630023
 21
44.0703537596
  0
LWPOLYLINE
  5
3ED
100
AcDbEntity
  8
0
100
AcDbPolyline
 62
7
  6
CONTINUOUS
 90
10
 70
0
 10
25.4525630023
 20
44.0703537596
 10
26.0092351928
 20
44.0273979979
 10
26.5657766275
 20
43.9806121222
 10
27.1221873066
 20
43.9299961324
 10
27.6784921512
 20
43.8755489848
 10
28.2346662401
 20
43.8172717231
 10
28.7906348093
 20
43.7551674783
 10
29.3463729377
 20
43.6892372941
 10
29.9019055464
 20
43.6194801269
 10
30.4572326355
 20
43.5458959765
  0
LWPOLYLINE
  5
3EE
100
AcDbEntity
  8
0
100
AcDbPolyline
 62
250
  6
CONTINUOUS
 90
10
 70
0
 10
29.9375652141
 20
39.7244664162
 10
29.3686855843
 20
39.7993408458
 10
28.8095438873
 20
39.8692244756
 10
28.2601401233
 20
39.9341173056
 10
27.7204436592
 20
39.993814887
 10
27.1904851279
 20
40.0485216686
 10
26.6703564289
 20
40.0988509965
 10
26.1600881953
 20
40.1450073195
 10
25.659649794
 20
40.1867861888
 10
24.7678815198
 20
40.2533992325
  0
LWPOLYLINE
  5
3EF
100
AcDbEntity
  8
0
100
AcDbPolyline
 62
250
  6
CONTINUOUS
 90
10
 70
0
 10
29.9516897171
 20
39.8283324488
 10
29.3821393617
 20
39.9036564509
 10
28.8222262177
 20
39.9735631786
 10
28.2720128857
 20
40.038264758
 10
27.7315699952
 20
40.0979689714
 10
27.2009292401
 20
40.1528847589
 10
26.6800892498
 20
40.2032201803
 10
26.1690765639
 20
40.2491761374
 10
25.6679491321
 20
40.2909472026
 10
24.7754491081
 20
40.35799662
  0
LWPOLYLINE
  5
3F0
100
AcDbEntity
  8
0
100
AcDbPolyline
 62
7
  6
CONTINUOUS
 90
9
 70
0
 10
43.1463849797
 20
31.0349278935
 10
43.2091596052
 20
30.6077904481
 10
43.2690738008
 20
30.1800018073
 10
43.3261275663
 20
29.751561971
 10
43.3803250682
 20
29.3224517436
 10
43.43166214
 20
28.8926903207
 10
43.480126283
 20
28.4623352894
 10
43.5257133309
 20
28.0314058455
 10
43.5684274499
 20
27.5998827933
  0
ARC
  5
3F1
100
AcDbEntity
  8
0
100
AcDbCircle
 62
7
  6
CONTINUOUS
 10
-28.6738848654
 20
-28.8445514618
 40
14.8562661355
100
AcDbArc
 50
188.5542557559
 51
262.2559813252
  0
ARC
  5
3F2
100
AcDbEntity
  8
0
100
AcDbCircle
 62
250
  6
CONTINUOUS
 10
-28.6738848654
 20
-28.8445514618
 40
11.1044862613
100
AcDbArc
 50
188.5542557558
 51
262.2559813252
  0
ARC
  5
3F3
100
AcDbEntity
  8
0
100
AcDbCircle
 62
250
  6
CONTINUOUS
 10
-28.6738848654
 20
-28.8445514618
 40
10.9996642487
100
AcDbArc
 50
188.5542557558
 51
262.2559813252
  0
ARC
  5
3F4
100
AcDbEntity
  8
0
100
AcDbCircle
 62
7
  6
CONTINUOUS
 10
-4.7092483958
 20
-29.6549517159
 40
3.3063623377
100
AcDbArc
 50
23.0461299817
 51
324.8370368861
  0
ARC
  5
3F5
100
AcDbEntity
  8
0
100
AcDbCircle
 62
7
  6
CONTINUOUS
 10
-26.3414814428
 20
-29.7774829639
 40
1.7063623377
100
AcDbArc
 50
225.0
 51
45.0
  0
ARC
  5
3F6
100
AcDbEntity
  8
0
100
AcDbCircle
 62
7
  6
CONTINUOUS
 10
-29.8770153487
 20
-26.241949058
 40
1.7063623377
100
AcDbArc
 50
45.0
 51
225.0
  0
ARC
  5
3F7
100
AcDbEntity
  8
0
100
AcDbCircle
 62
7
  6
CONTINUOUS
 10
-29.7544841007
 20
-4.609716011
 40
1.6063623377
100
AcDbArc
 50
188.8201478292
 51
8.8201478292
  0
ARC
  5
3F8
100
AcDbEntity
  8
0
100
AcDbCircle
 62
7
  6
CONTINUOUS
 10
-28.6738848654
 20
28.8251194399
 40
14.8562661355
100
AcDbArc
 50
97.7440186748
 51
171.4457442441
  0
ARC
  5
3F9
100
AcDbEntity
  8
0
100
AcDbCircle
 62
250
  6
CONTINUOUS
 10
-28.6738848654
 20
28.8251194399
 40
11.1044862613
100
AcDbArc
 50
97.7440186748
 51
171.4457442441
  0
ARC
  5
3FA
100
AcDbEntity
  8
0
100
AcDbCircle
 62
250
  6
CONTINUOUS
 10
-28.6738848654
 20
28.8251194399
 40
10.9996642487
100
AcDbArc
 50
97.7440186748
 51
171.4457442441
  0
ARC
  5
3FB
100
AcDbEntity
  8
0
100
AcDbCircle
 62
7
  6
CONTINUOUS
 10
-29.7544841007
 20
4.590283989
 40
3.3063623377
100
AcDbArc
 50
293.0461299817
 51
234.8370368861
  0
ARC
  5
3FC
100
AcDbEntity
  8
0
100
AcDbCircle
 62
7
  6
CONTINUOUS
 10
-29.8770153487
 20
26.2225170361
 40
1.7063623377
100
AcDbArc
 50
135.0
 51
315.0
  0
ARC
  5
3FD
100
AcDbEntity
  8
0
100
AcDbCircle
 62
7
  6
CONTINUOUS
 10
-26.3414814428
 20
29.758050942
 40
1.7063623377
100
AcDbArc
 50
315.0
 51
135.0
  0
ARC
  5
3FE
100
AcDbEntity
  8
0
100
AcDbCircle
 62
7
  6
CONTINUOUS
 10
-4.7092483958
 20
29.635519694
 40
1.6063623377
100
AcDbArc
 50
98.8201478292
 51
278.8201478292
  0
ARC
  5
3FF
100
AcDbEntity
  8
0
100
AcDbCircle
 62
7
  6
CONTINUOUS
 10
28.4553880739
 20
-28.8445514618
 40
14.8562661355
100
AcDbArc
 50
277.7440186748
 51
351.4457442441
  0
ARC
  5
400
100
AcDbEntity
  8
0
100
AcDbCircle
 62
250
  6
CONTINUOUS
 10
28.4553880739
 20
-28.8445514618
 40
11.1044862613
100
AcDbArc
 50
277.7440186748
 51
351.4457442441
  0
ARC
  5
401
100
AcDbEntity
  8
0
100
AcDbCircle
 62
250
  6
CONTINUOUS
 10
28.4553880739
 20
-28.8445514618
 40
10.9996642487
100
AcDbArc
 50
277.7440186748
 51
351.4457442441
  0
ARC
  5
402
100
AcDbEntity
  8
0
100
AcDbCircle
 62
7
  6
CONTINUOUS
 10
29.5359873092
 20
-4.609716011
 40
3.3063623377
100
AcDbArc
 50
113.0461299817
 51
54.8370368861
  0
ARC
  5
403
100
AcDbEntity
  8
0
100
AcDbCircle
 62
7
  6
CONTINUOUS
 10
29.6585185572
 20
-26.241949058
 40
1.7063623377
100
AcDbArc
 50
315.0
 51
135.0
  0
ARC
  5
404
100
AcDbEntity
  8
0
100
AcDbCircle
 62
7
  6
CONTINUOUS
 10
26.1229846513
 20
-29.7774829639
 40
1.7063623377
100
AcDbArc
 50
135.0
 51
315.0
  0
ARC
  5
405
100
AcDbEntity
  8
0
100
AcDbCircle
 62
7
  6
CONTINUOUS
 10
4.4907516042
 20
-29.6549517159
 40
1.6063623377
100
AcDbArc
 50
278.8201478292
 51
98.8201478292
  0
ARC
  5
406
100
AcDbEntity
  8
0
100
AcDbCircle
 62
7
  6
CONTINUOUS
 10
-0.1092483958
 20
-0.009716011
 40
31.6063623377
100
AcDbArc
 50
356.5590799622
 51
8.8201478292
  0
ARC
  5
407
100
AcDbEntity
  8
0
100
AcDbCircle
 62
7
  6
CONTINUOUS
 10
-0.1092483958
 20
-0.009716011
 40
31.6063623377
100
AcDbArc
 50
176.5590799622
 51
188.8201478292
  0
ARC
  5
408
100
AcDbEntity
  8
0
100
AcDbCircle
 62
7
  6
CONTINUOUS
 10
-0.1092483958
 20
-0.009716011
 40
31.6063623377
100
AcDbArc
 50
266.5590799622
 51
278.8201478292
  0
ARC
  5
409
100
AcDbEntity
  8
0
100
AcDbCircle
 62
7
  6
CONTINUOUS
 10
-0.1092483958
 20
-0.009716011
 40
31.6063623377
100
AcDbArc
 50
86.5590799622
 51
98.8201478292
  0
ARC
  5
40A
100
AcDbEntity
  8
0
100
AcDbCircle
 62
7
  6
CONTINUOUS
 10
-0.1092483958
 20
-0.009716011
 40
28.3936376623
100
AcDbArc
 50
356.8554908542
 51
8.8201478292
  0
ARC
  5
40B
100
AcDbEntity
  8
0
100
AcDbCircle
 62
7
  6
CONTINUOUS
 10
-0.1092483958
 20
-0.009716011
 40
28.3936376623
100
AcDbArc
 50
176.8554908542
 51
188.8201478292
  0
ARC
  5
40C
100
AcDbEntity
  8
0
100
AcDbCircle
 62
7
  6
CONTINUOUS
 10
-0.1092483958
 20
-0.009716011
 40
28.3936376623
100
AcDbArc
 50
266.8554908542
 51
278.8201478292
  0
ARC
  5
40D
100
AcDbEntity
  8
0
100
AcDbCircle
 62
7
  6
CONTINUOUS
 10
-0.1092483958
 20
-0.009716011
 40
28.3936376623
100
AcDbArc
 50
86.8554908542
 51
98.8201478292
  0
ARC
  5
40E
100
AcDbEntity
  8
0
100
AcDbCircle
 62
7
  6
CONTINUOUS
 10
28.4553880739
 20
28.8251194399
 40
14.8562661355
100
AcDbArc
 50
8.5542557559
 51
82.2559813252
  0
ARC
  5
40F
100
AcDbEntity
  8
0
100
AcDbCircle
 62
250
  6
CONTINUOUS
 10
28.4553880739
 20
28.8251194399
 40
11.1044862613
100
AcDbArc
 50
8.5542557558
 51
82.2559813252
  0
ARC
  5
410
100
AcDbEntity
  8
0
100
AcDbCircle
 62
250
  6
CONTINUOUS
 10
28.4553880739
 20
28.8251194399
 40
10.9996642487
100
AcDbArc
 50
8.5542557558
 51
82.2559813252
  0
ARC
  5
411
100
AcDbEntity
  8
0
100
AcDbCircle
 62
7
  6
CONTINUOUS
 10
4.4907516042
 20
29.635519694
 40
3.3063623377
100
AcDbArc
 50
203.0461299817
 51
144.8370368861
  0
ARC
  5
412
100
AcDbEntity
  8
0
100
AcDbCircle
 62
7
  6
CONTINUOUS
 10
26.1229846513
 20
29.758050942
 40
1.7063623377
100
AcDbArc
 50
45.0
 51
225.0
  0
ARC
  5
413
100
AcDbEntity
  8
0
100
AcDbCircle
 62
7
  6
CONTINUOUS
 10
29.6585185572
 20
26.2225170361
 40
1.7063623377
100
AcDbArc
 50
225.0
 51
45.0
  0
ARC
  5
414
100
AcDbEntity
  8
0
100
AcDbCircle
 62
7
  6
CONTINUOUS
 10
29.5359873092
 20
4.590283989
 40
1.6063623377
100
AcDbArc
 50
8.8201478292
 51
188.8201478292
  0
ELLIPSE
  5
415
100
AcDbEntity
  8
0
100
AcDbEllipse
 62
7
  6
CONTINUOUS
 10
33.8959881237
 20
20.285093168
 30
0.0
 11
0.0
 21
0.3
 31
0.0
 40
0.0174550649
 41
-4.7123889804
 42
-3.1590459461
  0
ELLIPSE
  5
416
100
AcDbEntity
  8
0
100
AcDbEllipse
 62
7
  6
CONTINUOUS
 10
33.8959881237
 20
13.6954748101
 30
0.0
 11
0.0
 21
0.3
 31
0.0
 40
0.0174550649
 41
0.0174532925
 42
1.5707963268
  0
ELLIPSE
  5
417
100
AcDbEntity
  8
0
100
AcDbEllipse
 62
7
  6
CONTINUOUS
 10
34.6907516042
 20
19.6267779471
 30
0.0
 11
0.2131980389
 21
-0.2175384252
 31
0.0
 40
0.9702223669
 41
0.7803602581
 42
2.3511565849
  0
ELLIPSE
  5
418
100
AcDbEntity
  8
0
100
AcDbEllipse
 62
7
  6
CONTINUOUS
 10
34.6907516042
 20
14.353790031
 30
0.0
 11
0.2131980389
 21
0.2175384252
 31
0.0
 40
0.9702223669
 41
-2.3511565849
 42
-0.7803602581
  0
ELLIPSE
  5
419
100
AcDbEntity
  8
0
100
AcDbEllipse
 62
7
  6
CONTINUOUS
 10
33.8959881237
 20
-20.3045251899
 30
0.0
 11
-0.0
 21
0.3
 31
0.0
 40
0.0174550649
 41
0.0174532925
 42
1.5707963268
  0
ELLIPSE
  5
41A
100
AcDbEntity
  8
0
100
AcDbEllipse
 62
7
  6
CONTINUOUS
 10
33.8959881237
 20
-13.714906832
 30
0.0
 11
0.0
 21
0.3
 31
0.0
 40
0.0174550649
 41
-4.7123889804
 42
-3.1590459461
  0
ELLIPSE
  5
41B
100
AcDbEntity
  8
0
100
AcDbEllipse
 62
7
  6
CONTINUOUS
 10
34.6907516042
 20
-19.646209969
 30
0.0
 11
0.2131980389
 21
0.2175384252
 31
0.0
 40
0.9702223669
 41
-2.3511565849
 42
-0.7803602581
  0
ELLIPSE
  5
41C
100
AcDbEntity
  8
0
100
AcDbEllipse
 62
7
  6
CONTINUOUS
 10
34.6907516042
 20
-14.3732220529
 30
0.0
 11
0.2131980389
 21
-0.2175384252
 31
0.0
 40
0.9702223669
 41
0.7803602581
 42
2.3511565849
  0
ELLIPSE
  5
41D
100
AcDbEntity
  8
0
100
AcDbEllipse
 62
7
  6
CONTINUOUS
 10
-34.1144849152
 20
20.285093168
 30
0.0
 11
0.0
 21
0.3
 31
0.0
 40
0.0174550649
 41
-3.1241393611
 42
-1.5707963268
  0
ELLIPSE
  5
41E
100
AcDbEntity
  8
0
100
AcDbEllipse
 62
7
  6
CONTINUOUS
 10
-34.1144849152
 20
13.6954748101
 30
0.0
 11
0.0
 21
0.3
 31
0.0
 40
0.0174550649
 41
-1.5707963268
 42
-0.0174532925
  0
ELLIPSE
  5
41F
100
AcDbEntity
  8
0
100
AcDbEllipse
 62
7
  6
CONTINUOUS
 10
-34.9092483958
 20
19.6267779471
 30
0.0
 11
0.2131980389
 21
0.2175384252
 31
0.0
 40
0.9702223669
 41
0.7904360687
 42
2.3612323955
  0
ELLIPSE
  5
420
100
AcDbEntity
  8
0
100
AcDbEllipse
 62
7
  6
CONTINUOUS
 10
-34.9092483958
 20
14.353790031
 30
0.0
 11
0.2131980389
 21
-0.2175384252
 31
0.0
 40
0.9702223669
 41
-2.3612323955
 42
-0.7904360687
  0
ELLIPSE
  5
421
100
AcDbEntity
  8
0
100
AcDbEllipse
 62
7
  6
CONTINUOUS
 10
-34.1144849152
 20
-20.3045251899
 30
0.0
 11
0.0
 21
0.3
 31
0.0
 40
0.0174550649
 41
-1.5707963268
 42
-0.0174532925
  0
ELLIPSE
  5
422
100
AcDbEntity
  8
0
100
AcDbEllipse
 62
7
  6
CONTINUOUS
 10
-34.1144849152
 20
-13.714906832
 30
0.0
 11
0.0
 21
0.3
 31
0.0
 40
0.0174550649
 41
-3.1241393611
 42
-1.5707963268
  0
ELLIPSE
  5
423
100
AcDbEntity
  8
0
100
AcDbEllipse
 62
7
  6
CONTINUOUS
 10
-34.9092483958
 20
-19.646209969
 30
0.0
 11
0.2131980389
 21
-0.2175384252
 31
0.0
 40
0.9702223669
 41
-2.3612323955
 42
-0.7904360687
  0
ELLIPSE
  5
424
100
AcDbEntity
  8
0
100
AcDbEllipse
 62
7
  6
CONTINUOUS
 10
-34.9092483958
 20
-14.3732220529
 30
0.0
 11
0.2131980389
 21
0.2175384252
 31
0.0
 40
0.9702223669
 41
0.7904360687
 42
2.3612323955
  0
ENDSEC
  0
SECTION
  2
OBJECTS
  0
DICTIONARY
  5
C
100
AcDbDictionary
280
0
281
1
  3
ACAD_GROUP
350
D
  3
ACAD_MLINESTYLE
350
17
  3
ACAD_LAYOUT
350
1A
  3
ACAD_PLOTSETTINGS
350
19
  3
ACAD_PLOTSTYLENAME
350
E
  0
DICTIONARY
  5
D
102
{ACAD_REACTORS
330
C
102
}
100
AcDbDictionary
280
0
281
1
  0
ACDBDICTIONARYWDFLT
  5
E
102
{ACAD_REACTORS
330
C
102
}
100
AcDbDictionary
281
1
  3
Normal
350
F
100
AcDbDictionaryWithDefault
340
F
  0
DICTIONARY
  5
17
102
{ACAD_REACTORS
330
C
102
}
100
AcDbDictionary
280
0
281
1
  3
Standard
350
18
  0
DICTIONARY
  5
19
102
{ACAD_REACTORS
330
C
102
}
100
AcDbDictionary
281
1
  0
DICTIONARY
  5
1A
102
{ACAD_REACTORS
330
C
102
}
100
AcDbDictionary
281
1
  3
Model
350
425
  3
Layout1
350
426
  0
ACDBPLACEHOLDER
  5
F
102
{ACAD_REACTORS
330
E
102
}
  0
MLINESTYLE
  5
18
102
{ACAD_REACTORS
330
17
102
}
100
AcDbMlineStyle
  2
STANDARD
 70
0
  3

 62
256
 51
90.0
 52
90.0
 71
2
 49
0.5
 62
256
  6
BYLAYER
 49
-0.5
 62
256
  6
BYLAYER
  0
LAYOUT
  5
425
102
{ACAD_REACTORS
330
1A
102
}
100
AcDbPlotSettings
  1

  2
none_device
  4
ISO_A4_(297.00_x_210.00_MM)
  6

 40
0.0
 41
0.0
 42
0.0
 43
0.0
 44
297.0
 45
210.0
 46
0.0
 47
0.0
 48
0.0
 49
0.0
140
0.0
141
0.0
142
1.0
143
1.0
 70
1024
 72
1
 73
0
 74
0
  7

 75
0
147
1.0
148
0.0
149
0.0
100
AcDbLayout
  1
Model
 70
0
 71
0
 10
0.0
 20
0.0
 11
297.0
 21
210.0
 12
0.0
 22
0.0
 32
0.0
 14
0.0
 24
0.0
 34
0.0
 15
0.0
 25
0.0
 35
0.0
146
0.0
 13
0.0
 23
0.0
 33
0.0
 16
1.0
 26
0.0
 36
0.0
 17
0.0
 27
1.0
 37
0.0
 76
0
330
219
345
0
346
0
  0
LAYOUT
  5
426
102
{ACAD_REACTORS
330
1A
102
}
100
AcDbPlotSettings
  1

  2
none_device
  4
ISO_A4_(297.00_x_210.00_MM)
  6

 40
0.0
 41
0.0
 42
0.0
 43
0.0
 44
297.0
 45
210.0
 46
0.0
 47
0.0
 48
0.0
 49
0.0
140
0.0
141
0.0
142
1.0
143
1.0
 70
0
 72
1
 73
0
 74
0
  7

 75
0
147
1.0
148
0.0
149
0.0
100
AcDbLayout
  1
Layout1
 70
0
 71
1
 10
0.0
 20
0.0
 11
297.0
 21
210.0
 12
0.0
 22
0.0
 32
0.0
 14
0.0
 24
0.0
 34
0.0
 15
0.0
 25
0.0
 35
0.0
146
0.0
 13
0.0
 23
0.0
 33
0.0
 16
1.0
 26
0.0
 36
0.0
 17
0.0
 27
1.0
 37
0.0
 76
0
330
21A
345
0
346
0
  0
ENDSEC
  0
EOF
