  0
SECTION
  2
HEADER
  9
$ACADVER
  1
AC1021
  9
$DWGCODEPAGE
  3
ANSI_1252
  9
$EXTMAX
 10
297.0
 20
210.0
 30
0.0
  9
$EXTMIN
 10
0.0
 20
0.0
 30
0.0
  9
$LIMMIN
 10
0.0
 20
0.0
  9
$LIMMAX
 10
297.0
 20
210.0
  9
$VIEWCTR
 10
148.5
 20
105.0
  9
$VIEWSIZE
 40
210.0
  9
$CLAYER
  8
0
  9
$LTSCALE
 40
16.335
  9
$CELTYPE
  6
BYLAYER
  9
$DIMSCALE
 40
1.0
  9
$DIMASZ
 40
3.0
  9
$DIMEXO
 40
1.85625
  9
$DIMDLI
 40
11.286
  9
$DIMEXE
 40
5.346
  9
$DIMCEN
 40
2.673
  9
$DIMLFAC
 40
1.0
  9
$DIMBLK
  1
_FILLED
  9
$DIMTXT
 40
3.0
  9
$DIMTOL
 70
1
  9
$DIMLIM
 70
0
  9
$DIMTFAC
 40
1.0
  9
$DIMTP
 40
0.01
  9
$DIMTM
 40
0.01
  9
$PDMODE
 70
3
  9
$PDSIZE
 40
3.0
  9
$HANDSEED
  5
974
  9
$TILEMODE
 70
1
  9
$MEASUREMENT
 70
1
  9
$INSUNITS
 70
4
  0
ENDSEC
  0
SECTION
  2
CLASSES
  0
CLASS
  1
ACDBDICTIONARYWDFLT
  2
AcDbDictionaryWithDefault
  3
AutoCAD 2000
 90
0
 91
1
280
0
281
0
  0
CLASS
  1
ACDBPLACEHOLDER
  2
AcDbPlaceHolder
  3
AutoCAD 2000
 90
0
 91
1
280
0
281
0
  0
CLASS
  1
LAYOUT
  2
AcDbLayout
  3
AutoCAD 2000
 90
0
 91
0
280
0
281
0
  0
ENDSEC
  0
SECTION
  2
TABLES
  0
TABLE
  2
VPORT
  5
8
100
AcDbSymbolTable
 70
2
  0
VPORT
  5
1F4
100
AcDbSymbolTableRecord
100
AcDbViewportTableRecord
  2
*ACTIVE
 70
0
 10
0.0
 20
0.0
 11
1.0
 21
1.0
 12
148.5
 22
105.0
 13
0.0
 23
0.0
 14
1.0
 24
1.0
 15
0.0
 25
0.0
 16
0.0
 26
0.0
 36
1.0
 17
0.0
 27
0.0
 37
0.0
 40
210.0
 41
1.4142857143
 42
50.0
 43
0.0
 44
0.0
 50
0.0
 51
0.0
 71
0
 72
100
 73
1
 74
1
 75
0
 76
0
 77
0
 78
0
  0
ENDTAB
  0
TABLE
  2
LTYPE
  5
5
100
AcDbSymbolTable
 70
6
  0
LTYPE
  5
14
100
AcDbSymbolTableRecord
100
AcDbLinetypeTableRecord
  2
BYBLOCK
 70
0
  3

 72
65
 73
0
 40
0.0
  0
LTYPE
  5
15
100
AcDbSymbolTableRecord
100
AcDbLinetypeTableRecord
  2
BYLAYER
 70
0
  3

 72
65
 73
0
 40
0.0
  0
LTYPE
  5
16
100
AcDbSymbolTableRecord
100
AcDbLinetypeTableRecord
  2
CONTINUOUS
 70
64
  3
Solid line
 72
65
 73
0
 40
0.0
  0
LTYPE
  5
1F5
100
AcDbSymbolTableRecord
100
AcDbLinetypeTableRecord
  2
CENTER
 70
64
  3
____ _ ____ _ ____ _ ____ _ ____ _ ____ _ ____
 72
65
 73
4
 40
0.6
 49
0.375
 74
0
 49
-0.075
 74
0
 49
0.075
 74
0
 49
-0.075
 74
0
  0
LTYPE
  5
1F6
100
AcDbSymbolTableRecord
100
AcDbLinetypeTableRecord
  2
HIDDEN
 70
64
  3
- - - - - - - - - - - - - - - - - - - -
 72
65
 73
2
 40
0.2
 49
0.1
 74
0
 49
-0.1
 74
0
  0
LTYPE
  5
1F7
100
AcDbSymbolTableRecord
100
AcDbLinetypeTableRecord
  2
PHANTOM
 70
64
  3
_____ _ _ _____ _ _ _____ _ _ _____
 72
65
 73
6
 40
0.8
 49
0.45
 74
0
 49
-0.05
 74
0
 49
0.1
 74
0
 49
-0.05
 74
0
 49
0.1
 74
0
 49
-0.05
 74
0
  0
LTYPE
  5
1F8
100
AcDbSymbolTableRecord
100
AcDbLinetypeTableRecord
  2
DOT
 70
64
  3
. . . . . . . . . . . . . . . . . . . .
 72
65
 73
2
 40
0.2
 49
0.1
 74
0
 49
-0.1
 74
0
  0
LTYPE
  5
1F9
100
AcDbSymbolTableRecord
100
AcDbLinetypeTableRecord
  2
DASHED
 70
64
  3
- - - - - - - - - - - - - - - - - - - -
 72
65
 73
2
 40
0.2
 49
0.1
 74
0
 49
-0.1
 74
0
  0
ENDTAB
  0
TABLE
  2
LAYER
  5
2
100
AcDbSymbolTable
 70
36
  0
LAYER
  5
10
100
AcDbSymbolTableRecord
100
AcDbLayerTableRecord
  2
0
 70
0
 62
7
  6
CONTINUOUS
370
-3
390
F
  0
LAYER
  5
1FA
100
AcDbSymbolTableRecord
100
AcDbLayerTableRecord
  2
DEFAULT_1
 70
0
 62
7
  6
CENTER
370
-3
390
F
  0
LAYER
  5
1FB
100
AcDbSymbolTableRecord
100
AcDbLayerTableRecord
  2
DEFAULT_2
 70
0
 62
7
  6
HIDDEN
370
-3
390
F
  0
LAYER
  5
1FC
100
AcDbSymbolTableRecord
100
AcDbLayerTableRecord
  2
DEFAULT_3
 70
0
 62
7
  6
PHANTOM
370
-3
390
F
  0
LAYER
  5
1FD
100
AcDbSymbolTableRecord
100
AcDbLayerTableRecord
  2
ASSI
 70
0
 62
7
  6
CONTINUOUS
370
-3
390
F
  0
LAYER
  5
1FE
100
AcDbSymbolTableRecord
100
AcDbLayerTableRecord
  2
COORDINATE
 70
0
 62
7
  6
CONTINUOUS
370
-3
390
F
  0
LAYER
  5
1FF
100
AcDbSymbolTableRecord
100
AcDbLayerTableRecord
  2
COPY_PUBLISH
 70
0
 62
7
  6
CONTINUOUS
370
-3
390
F
  0
LAYER
  5
200
100
AcDbSymbolTableRecord
100
AcDbLayerTableRecord
  2
COSMETIC
 70
0
 62
7
  6
CONTINUOUS
370
-3
390
F
  0
LAYER
  5
201
100
AcDbSymbolTableRecord
100
AcDbLayerTableRecord
  2
COSMETICI
 70
0
 62
7
  6
CONTINUOUS
370
-3
390
F
  0
LAYER
  5
202
100
AcDbSymbolTableRecord
100
AcDbLayerTableRecord
  2
CURVE
 70
0
 62
7
  6
CONTINUOUS
370
-3
390
F
  0
LAYER
  5
203
100
AcDbSymbolTableRecord
100
AcDbLayerTableRecord
  2
DRAFT
 70
0
 62
7
  6
CONTINUOUS
370
-3
390
F
  0
LAYER
  5
204
100
AcDbSymbolTableRecord
100
AcDbLayerTableRecord
  2
IMPORT_IGES
 70
0
 62
7
  6
CONTINUOUS
370
-3
390
F
  0
LAYER
  5
205
100
AcDbSymbolTableRecord
100
AcDbLayerTableRecord
  2
INTFCLR_1
 70
0
 62
7
  6
CONTINUOUS
370
-3
390
F
  0
LAYER
  5
206
100
AcDbSymbolTableRecord
100
AcDbLayerTableRecord
  2
NOTE
 70
0
 62
7
  6
CONTINUOUS
370
-3
390
F
  0
LAYER
  5
207
100
AcDbSymbolTableRecord
100
AcDbLayerTableRecord
  2
PIANI
 70
0
 62
7
  6
CONTINUOUS
370
-3
390
F
  0
LAYER
  5
208
100
AcDbSymbolTableRecord
100
AcDbLayerTableRecord
  2
PUNTI
 70
0
 62
7
  6
CONTINUOUS
370
-3
390
F
  0
LAYER
  5
209
100
AcDbSymbolTableRecord
100
AcDbLayerTableRecord
  2
RACCORDO
 70
0
 62
7
  6
CONTINUOUS
370
-3
390
F
  0
LAYER
  5
20A
100
AcDbSymbolTableRecord
100
AcDbLayerTableRecord
  2
SIMBOLI
 70
0
 62
7
  6
CONTINUOUS
370
-3
390
F
  0
LAYER
  5
20B
100
AcDbSymbolTableRecord
100
AcDbLayerTableRecord
  2
SMUSSO
 70
0
 62
7
  6
CONTINUOUS
370
-3
390
F
  0
LAYER
  5
20C
100
AcDbSymbolTableRecord
100
AcDbLayerTableRecord
  2
SNAPLINE
 70
0
 62
7
  6
CONTINUOUS
370
-3
390
F
  0
LAYER
  5
20D
100
AcDbSymbolTableRecord
100
AcDbLayerTableRecord
  2
SUPERFICI
 70
0
 62
7
  6
CONTINUOUS
370
-3
390
F
  0
LAYER
  5
20E
100
AcDbSymbolTableRecord
100
AcDbLayerTableRecord
  2
TRASH
 70
0
 62
7
  6
CONTINUOUS
370
-3
390
F
  0
LAYER
  5
20F
100
AcDbSymbolTableRecord
100
AcDbLayerTableRecord
  2
XSEC_DATUMS
 70
0
 62
7
  6
CONTINUOUS
370
-3
390
F
  0
ENDTAB
  0
TABLE
  2
STYLE
  5
3
100
AcDbSymbolTable
 70
1
  0
STYLE
  5
11
100
AcDbSymbolTableRecord
100
AcDbTextStyleTableRecord
  2
STANDARD
 70
0
 40
0.0
 41
0.8
 50
0.0
 71
0
 42
0.2
  3
txt
  4

  0
STYLE
  5
210
100
AcDbSymbolTableRecord
100
AcDbTextStyleTableRecord
  2
TEXTSTYLE_1
 70
0
 40
0.0
 41
0.8
 50
0.0
 71
0
 42
0.2
  3
gdt
  4

  0
ENDTAB
  0
TABLE
  2
VIEW
  5
6
100
AcDbSymbolTable
 70
0
  0
ENDTAB
  0
TABLE
  2
UCS
  5
7
100
AcDbSymbolTable
 70
0
  0
ENDTAB
  0
TABLE
  2
APPID
  5
9
100
AcDbSymbolTable
 70
1
  0
APPID
  5
211
100
AcDbSymbolTableRecord
100
AcDbRegAppTableRecord
  2
ACAD
 70
0
  0
ENDTAB
  0
TABLE
  2
BLOCK_RECORD
  5
1
100
AcDbSymbolTable
 70
0
  0
BLOCK_RECORD
  5
212
100
AcDbSymbolTableRecord
100
AcDbBlockTableRecord
  2
*Model_Space
  0
BLOCK_RECORD
  5
213
100
AcDbSymbolTableRecord
100
AcDbBlockTableRecord
  2
*Paper_Space
  0
ENDTAB
  0
TABLE
  2
DIMSTYLE
  5
A
100
AcDbSymbolTable
 70
1
100
AcDbDimStyleTable
 71
0
  0
DIMSTYLE
105
214
100
AcDbSymbolTableRecord
100
AcDbDimStyleTableRecord
  2
STANDARD
 70
0
  3

  4

 40
1.0
 41
3.0
 42
0.0625
 43
0.38
 44
0.18
 45
0.0
 46
0.0
 47
0.01
 48
0.01
140
3.0
141
0.09
142
0.0
143
25.4
144
1.0
145
0.0
146
1.0
147
0.09
 71
1.0
 72
0.0
 73
0
 74
0
 75
0
 76
0
 77
1
 78
8
170
0
171
2
172
0
173
0
174
0
175
0
176
0
177
0
178
0
270
2
271
2
272
2
273
2
274
2
275
0
280
0
281
0
282
0
283
1
284
8
285
0
286
0
287
3
288
0
340
11
  0
ENDTAB
  0
ENDSEC
  0
SECTION
  2
BLOCKS
  0
BLOCK
  5
20
100
AcDbEntity
  8
0
100
AcDbBlockBegin
  2
*Model_Space
 70
0
 10
0.0
 20
0.0
 30
0.0
  3
*Model_Space
  1

  0
ENDBLK
  5
21
100
AcDbEntity
  8
0
100
AcDbBlockEnd
  0
BLOCK
  5
1C
100
AcDbEntity
  8
0
100
AcDbBlockBegin
  2
*Paper_Space
 70
0
 10
0.0
 20
0.0
 30
0.0
  3
*Paper_Space
  1

  0
ENDBLK
  5
1D
100
AcDbEntity
  8
0
100
AcDbBlockEnd
  0
ENDSEC
  0
SECTION
  2
ENTITIES
  0
LWPOLYLINE
  5
215
100
AcDbEntity
  8
RACCORDO
100
AcDbPolyline
 62
7
  6
CONTINUOUS
 90
22
 70
0
 10
-60.4999999988
 20
44.0006852438
 10
-60.4985555734
 20
44.0382221511
 10
-60.494414829
 20
44.0751507879
 10
-60.4875777656
 20
44.1114711543
 10
-60.4779875007
 20
44.147367234
 10
-60.4657009169
 20
44.1826550432
 10
-60.4508886614
 20
44.2167826308
 10
-60.4335200177
 20
44.2497376872
 10
-60.4136257024
 20
44.281532522
 10
-60.3914685132
 20
44.3116521126
 10
-60.3669440155
 20
44.3401188031
 10
-60.3401566439
 20
44.3669102493
 10
-60.3116824998
 20
44.391444396
 10
-60.2815303659
 20
44.413620333
 10
-60.2496914595
 20
44.4335389705
 10
-60.216715533
 20
44.4509209837
 10
-60.1826153489
 20
44.4657245718
 10
-60.1473781447
 20
44.4779915355
 10
-60.1115153852
 20
44.4875679523
 10
-60.0751975587
 20
44.4944025148
 10
-60.038254177
 20
44.4985465304
 10
-60.0006852399
 20
44.4999999992
  0
LINE
  5
216
100
AcDbEntity
  8
DRAFT
100
AcDbLine
 62
7
  6
CONTINUOUS
 10
-58.9650898701
 20
3.5
 11
-59.0
 21
3.8526539614
  0
LWPOLYLINE
  5
217
100
AcDbEntity
  8
RACCORDO
100
AcDbPolyline
 62
7
  6
CONTINUOUS
 90
22
 70
0
 10
-59.5000000323
 20
-43.0970750476
 10
-59.4988688096
 20
-43.1307047214
 10
-59.4956530925
 20
-43.1632425411
 10
-59.4903528811
 20
-43.1946885067
 10
-59.4829398847
 20
-43.2251142151
 10
-59.4734423939
 20
-43.2544480693
 10
-59.4619452806
 20
-43.2824752794
 10
-59.448359257
 20
-43.3092707023
 10
-59.4327736109
 20
-43.334759481
 10
-59.4155410774
 20
-43.358502254
 10
-59.3966702814
 20
-43.3803856592
 10
-59.3761525981
 20
-43.4005230588
 10
-59.3543148879
 20
-43.4188151783
 10
-59.3312767044
 20
-43.4352113129
 10
-59.306918494
 20
-43.4497621675
 10
-59.2812084565
 20
-43.4625205826
 10
-59.2541886223
 20
-43.4735610423
 10
-59.225816961
 20
-43.4828090626
 10
-59.1959355811
 20
-43.4900940311
 10
-59.1644918522
 20
-43.495359077
 10
-59.1315384047
 20
-43.4986610712
 10
-59.0970752386
 20
-43.5000000137
  0
LINE
  5
218
100
AcDbEntity
  8
RACCORDO
100
AcDbLine
 62
253
  6
CONTINUOUS
 10
-58.9085890922
 20
33.9735730406
 11
-58.9311204268
 21
42.7311508878
  0
LINE
  5
219
100
AcDbEntity
  8
RACCORDO
100
AcDbLine
 62
253
  6
CONTINUOUS
 10
-58.7086113408
 20
33.9931371885
 11
-58.7311508878
 21
42.7655612578
  0
LINE
  5
21A
100
AcDbEntity
  8
RACCORDO
100
AcDbLine
 62
253
  6
CONTINUOUS
 10
-58.8931484469
 20
24.1068515531
 11
-58.9085890922
 21
33.9735730406
  0
LINE
  5
21B
100
AcDbEntity
  8
RACCORDO
100
AcDbLine
 62
253
  6
CONTINUOUS
 10
-58.693170074
 20
24.1102842918
 11
-58.7086113408
 21
33.9931371885
  0
LINE
  5
21C
100
AcDbEntity
  8
RACCORDO
100
AcDbLine
 62
7
  6
CONTINUOUS
 10
-61.0
 20
-44.0013704652
 11
-61.0
 21
44.0013704652
  0
LINE
  5
21D
100
AcDbEntity
  8
RACCORDO
100
AcDbLine
 62
7
  6
CONTINUOUS
 10
-60.4999999988
 20
44.0006852438
 11
-60.4999999997
 21
-44.0006852355
  0
LINE
  5
21E
100
AcDbEntity
  8
DRAFT
100
AcDbLine
 62
7
  6
CONTINUOUS
 10
-60.395240128
 20
3.5
 11
-60.395240128
 21
-3.5
  0
LINE
  5
21F
100
AcDbEntity
  8
DRAFT
100
AcDbLine
 62
7
  6
CONTINUOUS
 10
-59.5000000141
 20
43.0970752324
 11
-59.5
 21
3.8526539614
  0
LINE
  5
220
100
AcDbEntity
  8
DRAFT
100
AcDbLine
 62
7
  6
CONTINUOUS
 10
-59.5
 20
-3.8526539614
 11
-59.5000000323
 21
-43.0970750476
  0
LINE
  5
221
100
AcDbEntity
  8
RACCORDO
100
AcDbLine
 62
7
  6
CONTINUOUS
 10
-59.0
 20
42.800030461
 11
-59.0
 21
24.0
  0
LINE
  5
222
100
AcDbEntity
  8
DRAFT
100
AcDbLine
 62
7
  6
CONTINUOUS
 10
-59.0
 20
23.3
 11
-59.0
 21
20.0
  0
LINE
  5
223
100
AcDbEntity
  8
DRAFT
100
AcDbLine
 62
7
  6
CONTINUOUS
 10
-59.0
 20
19.1135864588
 11
-59.0
 21
17.4864135412
  0
LINE
  5
224
100
AcDbEntity
  8
DRAFT
100
AcDbLine
 62
7
  6
CONTINUOUS
 10
-59.0
 20
16.5135864588
 11
-59.0
 21
14.8864135412
  0
LINE
  5
225
100
AcDbEntity
  8
DRAFT
100
AcDbLine
 62
7
  6
CONTINUOUS
 10
-59.0
 20
14.0
 11
-59.0
 21
3.8526539614
  0
LINE
  5
226
100
AcDbEntity
  8
DRAFT
100
AcDbLine
 62
7
  6
CONTINUOUS
 10
-59.0
 20
-3.8526539614
 11
-59.0
 21
-14.0
  0
LINE
  5
227
100
AcDbEntity
  8
DRAFT
100
AcDbLine
 62
7
  6
CONTINUOUS
 10
-59.0
 20
-14.8864135412
 11
-59.0
 21
-16.5135864588
  0
LINE
  5
228
100
AcDbEntity
  8
DRAFT
100
AcDbLine
 62
7
  6
CONTINUOUS
 10
-59.0
 20
-17.4864135412
 11
-59.0
 21
-19.1135864588
  0
LINE
  5
229
100
AcDbEntity
  8
DRAFT
100
AcDbLine
 62
7
  6
CONTINUOUS
 10
-59.0
 20
-20.0
 11
-59.0
 21
-23.3
  0
LINE
  5
22A
100
AcDbEntity
  8
RACCORDO
100
AcDbLine
 62
7
  6
CONTINUOUS
 10
-59.0
 20
-24.0
 11
-59.0
 21
-42.800030461
  0
LINE
  5
22B
100
AcDbEntity
  8
DRAFT
100
AcDbLine
 62
7
  6
CONTINUOUS
 10
-58.9650898701
 20
3.5
 11
-58.9650898701
 21
0.3849101299
  0
LINE
  5
22C
100
AcDbEntity
  8
DRAFT
100
AcDbLine
 62
7
  6
CONTINUOUS
 10
-58.9650898701
 20
-0.3849101299
 11
-58.9650898701
 21
-3.5
  0
LINE
  5
22D
100
AcDbEntity
  8
RACCORDO
100
AcDbLine
 62
253
  6
CONTINUOUS
 10
-58.8817502263
 20
0.4682497737
 11
-58.8855634798
 21
14.0
  0
LINE
  5
22E
100
AcDbEntity
  8
RACCORDO
100
AcDbLine
 62
253
  6
CONTINUOUS
 10
-58.7311508878
 20
42.7655612578
 11
-58.7311508878
 21
42.9311204268
  0
LINE
  5
22F
100
AcDbEntity
  8
RACCORDO
100
AcDbLine
 62
253
  6
CONTINUOUS
 10
-58.6817807462
 20
0.4716797974
 11
-58.6855905353
 21
14.0000000056
  0
LINE
  5
230
100
AcDbEntity
  8
DRAFT
100
AcDbLine
 62
7
  6
CONTINUOUS
 10
-56.4069219382
 20
-20.0
 11
-56.4069219382
 21
-19.1814885976
  0
LINE
  5
231
100
AcDbEntity
  8
DRAFT
100
AcDbLine
 62
7
  6
CONTINUOUS
 10
-56.4069219382
 20
-17.4185114024
 11
-56.4069219382
 21
-16.5814885976
  0
LINE
  5
232
100
AcDbEntity
  8
DRAFT
100
AcDbLine
 62
7
  6
CONTINUOUS
 10
-56.4069219382
 20
-14.8185114024
 11
-56.4069219382
 21
-14.0
  0
LINE
  5
233
100
AcDbEntity
  8
DRAFT
100
AcDbLine
 62
7
  6
CONTINUOUS
 10
-56.4069219382
 20
14.0
 11
-56.4069219382
 21
14.8185114024
  0
LINE
  5
234
100
AcDbEntity
  8
DRAFT
100
AcDbLine
 62
7
  6
CONTINUOUS
 10
-56.4069219382
 20
16.5814885976
 11
-56.4069219382
 21
17.4185114024
  0
LINE
  5
235
100
AcDbEntity
  8
DRAFT
100
AcDbLine
 62
7
  6
CONTINUOUS
 10
-56.4069219382
 20
19.1814885976
 11
-56.4069219382
 21
20.0
  0
LINE
  5
236
100
AcDbEntity
  8
RACCORDO
100
AcDbLine
 62
253
  6
CONTINUOUS
 10
-56.3848266046
 20
24.0
 11
-56.3848266046
 21
23.3
  0
LINE
  5
237
100
AcDbEntity
  8
RACCORDO
100
AcDbLine
 62
253
  6
CONTINUOUS
 10
-56.3848266046
 20
-23.3
 11
-56.3848266046
 21
-24.0
  0
LINE
  5
238
100
AcDbEntity
  8
RACCORDO
100
AcDbLine
 62
253
  6
CONTINUOUS
 10
-56.0852377442
 20
24.0049624612
 11
-56.0852377442
 21
23.2950375388
  0
LINE
  5
239
100
AcDbEntity
  8
RACCORDO
100
AcDbLine
 62
253
  6
CONTINUOUS
 10
-56.0852377442
 20
-23.2950375388
 11
-56.0852377442
 21
-24.0049624612
  0
LINE
  5
23A
100
AcDbEntity
  8
DRAFT
100
AcDbLine
 62
7
  6
CONTINUOUS
 10
-56.0357171432
 20
-24.0214559154
 11
-56.0357171432
 21
-23.2785440846
  0
LINE
  5
23B
100
AcDbEntity
  8
DRAFT
100
AcDbLine
 62
7
  6
CONTINUOUS
 10
-56.0357171432
 20
23.2785440846
 11
-56.0357171432
 21
24.0214559154
  0
LINE
  5
23C
100
AcDbEntity
  8
RACCORDO
100
AcDbLine
 62
253
  6
CONTINUOUS
 10
-58.8855634798
 20
-14.0
 11
-58.8817502263
 21
-0.4682497737
  0
LINE
  5
23D
100
AcDbEntity
  8
RACCORDO
100
AcDbLine
 62
253
  6
CONTINUOUS
 10
-58.6855905353
 20
-14.0
 11
-58.6817807462
 21
-0.471679798
  0
LINE
  5
23E
100
AcDbEntity
  8
RACCORDO
100
AcDbLine
 62
253
  6
CONTINUOUS
 10
-58.9054152416
 20
-32.3990538617
 11
-58.8931484469
 21
-24.1068515531
  0
LINE
  5
23F
100
AcDbEntity
  8
RACCORDO
100
AcDbLine
 62
253
  6
CONTINUOUS
 10
-58.7054372701
 20
-32.416527704
 11
-58.693170074
 21
-24.110284292
  0
LWPOLYLINE
  5
240
100
AcDbEntity
  8
RACCORDO
100
AcDbPolyline
 62
253
  6
CONTINUOUS
 90
3
 70
0
 10
-58.9311204268
 20
-42.7311508878
 10
-58.9248612722
 20
-40.5789796875
 10
-58.9054152416
 20
-32.3990538617
  0
LINE
  5
241
100
AcDbEntity
  8
RACCORDO
100
AcDbLine
 62
253
  6
CONTINUOUS
 10
-58.7311508878
 20
-42.9311204268
 11
-58.7054372701
 21
-32.416527704
  0
LWPOLYLINE
  5
242
100
AcDbEntity
  8
RACCORDO
100
AcDbPolyline
 62
253
  6
CONTINUOUS
 90
19
 70
0
 10
-58.9311204268
 20
42.7311508878
 10
-58.9303544816
 20
42.7485758759
 10
-58.928073086
 20
42.7658683142
 10
-58.9242935926
 20
42.7828966493
 10
-58.9190447543
 20
42.7995313282
 10
-58.9123664976
 20
42.8156458094
 10
-58.9043096114
 20
42.8311175228
 10
-58.8949353694
 20
42.8458287772
 10
-58.8843150874
 20
42.8596676315
 10
-58.8725295757
 20
42.8725287753
 10
-58.8596685022
 20
42.8843143568
 10
-58.8458297016
 20
42.8949347221
 10
-58.8311184525
 20
42.9043090745
 10
-58.8156466698
 20
42.9123660961
 10
-58.7995320599
 20
42.9190444878
 10
-58.782897224
 20
42.9242934385
 10
-58.7658687176
 20
42.9280730147
 10
-58.7485760863
 20
42.9303544632
 10
-58.7311508878
 20
42.9311204268
  0
LINE
  5
243
100
AcDbEntity
  8
DRAFT
100
AcDbLine
 62
7
  6
CONTINUOUS
 10
-58.9650898701
 20
-3.5
 11
-59.0
 21
-3.8526539614
  0
LINE
  5
244
100
AcDbEntity
  8
RACCORDO
100
AcDbLine
 62
7
  6
CONTINUOUS
 10
-59.0
 20
24.0
 11
-58.8931484469
 21
24.1068515531
  0
LINE
  5
245
100
AcDbEntity
  8
RACCORDO
100
AcDbLine
 62
7
  6
CONTINUOUS
 10
-59.0
 20
-24.0
 11
-58.8931484469
 21
-24.1068515531
  0
LINE
  5
246
100
AcDbEntity
  8
DRAFT
100
AcDbLine
 62
7
  6
CONTINUOUS
 10
-55.0247963686
 20
24.0520191431
 11
-54.9967184929
 21
23.2471319768
  0
LINE
  5
247
100
AcDbEntity
  8
DRAFT
100
AcDbLine
 62
7
  6
CONTINUOUS
 10
-55.7
 20
20.0
 11
-55.7
 21
19.2
  0
LINE
  5
248
100
AcDbEntity
  8
DRAFT
100
AcDbLine
 62
7
  6
CONTINUOUS
 10
-55.7
 20
17.4
 11
-55.7
 21
16.6
  0
LINE
  5
249
100
AcDbEntity
  8
DRAFT
100
AcDbLine
 62
7
  6
CONTINUOUS
 10
-55.7
 20
14.8
 11
-55.7
 21
14.0
  0
LINE
  5
24A
100
AcDbEntity
  8
DRAFT
100
AcDbLine
 62
7
  6
CONTINUOUS
 10
-55.7
 20
-14.0
 11
-55.7
 21
-14.8
  0
LINE
  5
24B
100
AcDbEntity
  8
DRAFT
100
AcDbLine
 62
7
  6
CONTINUOUS
 10
-55.7
 20
-16.6
 11
-55.7
 21
-17.4
  0
LINE
  5
24C
100
AcDbEntity
  8
DRAFT
100
AcDbLine
 62
7
  6
CONTINUOUS
 10
-55.7
 20
-19.2
 11
-55.7
 21
-20.0
  0
LINE
  5
24D
100
AcDbEntity
  8
DRAFT
100
AcDbLine
 62
7
  6
CONTINUOUS
 10
-55.5907005033
 20
-0.3849101299
 11
-55.5907005033
 21
0.3849101299
  0
LINE
  5
24E
100
AcDbEntity
  8
DRAFT
100
AcDbLine
 62
7
  6
CONTINUOUS
 10
-54.6306911463
 20
0.4139341497
 11
-54.6306911463
 21
-0.4139341497
  0
LINE
  5
24F
100
AcDbEntity
  8
DRAFT
100
AcDbLine
 62
7
  6
CONTINUOUS
 10
-54.9967184929
 20
-23.2471319768
 11
-55.0247963686
 21
-24.0520191431
  0
LINE
  5
250
100
AcDbEntity
  8
RACCORDO
100
AcDbLine
 62
7
  6
CONTINUOUS
 10
-35.3688795732
 20
42.9311204268
 11
-35.3
 21
43.0
  0
LINE
  5
251
100
AcDbEntity
  8
RACCORDO
100
AcDbLine
 62
7
  6
CONTINUOUS
 10
-35.3688795732
 20
-42.9311204268
 11
-35.3
 21
-43.0
  0
LINE
  5
252
100
AcDbEntity
  8
DRAFT
100
AcDbLine
 62
7
  6
CONTINUOUS
 10
-47.5
 20
-0.4512393766
 11
-47.5
 21
0.4512393766
  0
LINE
  5
253
100
AcDbEntity
  8
DRAFT
100
AcDbLine
 62
7
  6
CONTINUOUS
 10
-49.2944500197
 20
0.419917135
 11
-49.2944500197
 21
-0.419917135
  0
LINE
  5
254
100
AcDbEntity
  8
RACCORDO
100
AcDbLine
 62
7
  6
CONTINUOUS
 10
-35.3214559154
 20
36.5357171432
 11
-35.3049624612
 21
36.5852377442
  0
LWPOLYLINE
  5
255
100
AcDbEntity
  8
RACCORDO
100
AcDbPolyline
 62
7
  6
CONTINUOUS
 90
22
 70
0
 10
59.0970750672
 20
-43.5000000314
 10
59.1321780885
 20
-43.4985809474
 10
59.1656496979
 20
-43.4951697296
 10
59.1974898953
 20
-43.489766378
 10
59.2276050602
 20
-43.4823200263
 10
59.2560888131
 20
-43.4728815408
 10
59.283222016
 20
-43.4616035201
 10
59.3091596291
 20
-43.4484777263
 10
59.3337466921
 20
-43.4335123973
 10
59.3567991866
 20
-43.4168848462
 10
59.3783176295
 20
-43.3985695038
 10
59.3983015038
 20
-43.3785919392
 10
59.4165652396
 20
-43.3572061724
 10
59.4330528242
 20
-43.3345366989
 10
59.4478202702
 20
-43.3104590232
 10
59.4608500462
 20
-43.2848536787
 10
59.4722289953
 20
-43.2577484877
 10
59.4818702742
 20
-43.2291156279
 10
59.4894958217
 20
-43.1987521667
 10
59.4950129506
 20
-43.1665904597
 10
59.4985143479
 20
-43.1326981512
 10
59.5000000138
 20
-43.0970752412
  0
LWPOLYLINE
  5
256
100
AcDbEntity
  8
RACCORDO
100
AcDbPolyline
 62
253
  6
CONTINUOUS
 90
14
 70
0
 10
58.7722108508
 20
-42.7644786614
 10
58.7922995859
 20
-42.763732563
 10
58.8116772301
 20
-42.7624525865
 10
58.830139921
 20
-42.7606751068
 10
58.8475918871
 20
-42.758783422
 10
58.8638048249
 20
-42.756556415
 10
58.8785476948
 20
-42.7538732072
 10
58.8917322794
 20
-42.751187829
 10
58.9032375823
 20
-42.7482659629
 10
58.9128609256
 20
-42.7449318623
 10
58.920493303
 20
-42.7416732371
 10
58.9261078221
 20
-42.7385251282
 10
58.9296716689
 20
-42.7350816884
 10
58.9311204268
 20
-42.7311508878
  0
LINE
  5
257
100
AcDbEntity
  8
RACCORDO
100
AcDbLine
 62
253
  6
CONTINUOUS
 10
58.7311508878
 20
-42.7655612578
 11
58.7722108508
 21
-42.7644786614
  0
LINE
  5
258
100
AcDbEntity
  8
RACCORDO
100
AcDbLine
 62
7
  6
CONTINUOUS
 10
60.0013704652
 20
-45.0
 11
-60.0013704652
 21
-45.0
  0
LINE
  5
259
100
AcDbEntity
  8
RACCORDO
100
AcDbLine
 62
7
  6
CONTINUOUS
 10
60.0006852376
 20
-44.4999999994
 11
-60.0006852343
 21
-44.4999999998
  0
LINE
  5
25A
100
AcDbEntity
  8
RACCORDO
100
AcDbLine
 62
7
  6
CONTINUOUS
 10
59.0970750672
 20
-43.5000000314
 11
-59.0970752386
 21
-43.5000000137
  0
LWPOLYLINE
  5
25B
100
AcDbEntity
  8
RACCORDO
100
AcDbPolyline
 62
253
  6
CONTINUOUS
 90
15
 70
0
 10
-58.7311508878
 20
-42.7655612578
 10
-58.7722108547
 20
-42.7644786612
 10
-58.7922995913
 20
-42.7637325627
 10
-58.8116772367
 20
-42.762452586
 10
-58.8301399285
 20
-42.760675106
 10
-58.847591895
 20
-42.758783421
 10
-58.8638048327
 20
-42.7565564138
 10
-58.8785477021
 20
-42.7538732059
 10
-58.8917322858
 20
-42.7511878275
 10
-58.9032375874
 20
-42.7482659614
 10
-58.9128609294
 20
-42.744931861
 10
-58.9204933055
 20
-42.7416732359
 10
-58.9261078234
 20
-42.738525127
 10
-58.9296716693
 20
-42.7350816876
 10
-58.9311204268
 20
-42.7311508878
  0
LWPOLYLINE
  5
25C
100
AcDbEntity
  8
RACCORDO
100
AcDbPolyline
 62
7
  6
CONTINUOUS
 90
22
 70
0
 10
-60.0006852343
 20
-44.4999999998
 10
-60.0382541353
 20
-44.4985466998
 10
-60.0751974883
 20
-44.4944028034
 10
-60.1115152933
 20
-44.4875683106
 10
-60.1473780392
 20
-44.4779918969
 10
-60.182615237
 20
-44.4657248869
 10
-60.2167154205
 20
-44.4509212542
 10
-60.2496913505
 20
-44.4335392159
 10
-60.281530266
 20
-44.4136205549
 10
-60.3116824186
 20
-44.3914445937
 10
-60.3401565931
 20
-44.3669104211
 10
-60.3669440046
 20
-44.3401189482
 10
-60.3914685495
 20
-44.3116522309
 10
-60.4136257933
 20
-44.281532613
 10
-60.4335201705
 20
-44.2497377505
 10
-60.4508888807
 20
-44.216782668
 10
-60.4657012324
 20
-44.1826550538
 10
-60.477987917
 20
-44.1473672194
 10
-60.4875782087
 20
-44.1114711244
 10
-60.4944151987
 20
-44.0751507554
 10
-60.4985557957
 20
-44.0382221257
 10
-60.4999999997
 20
-44.0006852355
  0
LWPOLYLINE
  5
25D
100
AcDbEntity
  8
RACCORDO
100
AcDbPolyline
 62
253
  6
CONTINUOUS
 90
19
 70
0
 10
-58.7311508878
 20
-42.9311204268
 10
-58.7485758757
 20
-42.9303544817
 10
-58.7658683139
 20
-42.928073086
 10
-58.7828966489
 20
-42.9242935927
 10
-58.7995313276
 20
-42.9190447545
 10
-58.8156458087
 20
-42.9123664978
 10
-58.8311175221
 20
-42.9043096118
 10
-58.8458287765
 20
-42.89493537
 10
-58.8596676307
 20
-42.8843150881
 10
-58.8725287745
 20
-42.8725295765
 10
-58.8843143559
 20
-42.8596685032
 10
-58.8949347213
 20
-42.8458297028
 10
-58.9043090737
 20
-42.8311184539
 10
-58.9123660954
 20
-42.8156466714
 10
-58.9190444872
 20
-42.7995320616
 10
-58.924293438
 20
-42.7828972256
 10
-58.9280730145
 20
-42.7658687189
 10
-58.9303544631
 20
-42.7485760871
 10
-58.9311204268
 20
-42.7311508878
  0
LINE
  5
25E
100
AcDbEntity
  8
0
100
AcDbLine
 62
7
  6
CONTINUOUS
 10
-25.0499999642
 20
-35.3468085155
 11
-24.8625000358
 21
-35.4617021289
  0
LINE
  5
25F
100
AcDbEntity
  8
RACCORDO
100
AcDbLine
 62
7
  6
CONTINUOUS
 10
-35.3214559154
 20
-36.5357171432
 11
-35.3049624612
 21
-36.5852377442
  0
LINE
  5
260
100
AcDbEntity
  8
DRAFT
100
AcDbLine
 62
7
  6
CONTINUOUS
 10
-37.3
 20
24.0837843117
 11
-37.3
 21
23.2162156883
  0
LINE
  5
261
100
AcDbEntity
  8
DRAFT
100
AcDbLine
 62
7
  6
CONTINUOUS
 10
-37.3
 20
-23.2162156883
 11
-37.3
 21
-24.0837843117
  0
LINE
  5
262
100
AcDbEntity
  8
0
100
AcDbLine
 62
253
  6
CONTINUOUS
 10
-35.3295212939
 20
14.5910987728
 11
-35.3750567792
 21
14.5000000464
  0
LINE
  5
263
100
AcDbEntity
  8
0
100
AcDbLine
 62
253
  6
CONTINUOUS
 10
-34.8295974464
 20
14.0914033593
 11
-34.8752852017
 21
14.0
  0
LINE
  5
264
100
AcDbEntity
  8
RACCORDO
100
AcDbLine
 62
7
  6
CONTINUOUS
 10
-58.9650898701
 20
0.3849101299
 11
-58.8817502263
 21
0.4682497737
  0
LINE
  5
265
100
AcDbEntity
  8
DRAFT
100
AcDbLine
 62
7
  6
CONTINUOUS
 10
-35.3837843117
 20
23.2162156883
 11
-35.4111990254
 21
23.1888009746
  0
LINE
  5
266
100
AcDbEntity
  8
0
100
AcDbLine
 62
7
  6
CONTINUOUS
 10
-34.5162156883
 20
24.0
 11
-34.489628929
 21
24.0265867593
  0
LINE
  5
267
100
AcDbEntity
  8
RACCORDO
100
AcDbLine
 62
7
  6
CONTINUOUS
 10
-11.6688795732
 20
42.9311204268
 11
-11.6
 21
43.0
  0
LINE
  5
268
100
AcDbEntity
  8
RACCORDO
100
AcDbLine
 62
7
  6
CONTINUOUS
 10
-56.0357171432
 20
24.0214559154
 11
-56.0852377442
 21
24.0049624612
  0
LINE
  5
269
100
AcDbEntity
  8
RACCORDO
100
AcDbLine
 62
7
  6
CONTINUOUS
 10
-58.800030461
 20
-43.0
 11
-35.3
 21
-43.0
  0
LINE
  5
26A
100
AcDbEntity
  8
DRAFT
100
AcDbLine
 62
7
  6
CONTINUOUS
 10
-34.6
 20
-43.0
 11
-11.6
 21
-43.0
  0
LINE
  5
26B
100
AcDbEntity
  8
DRAFT
100
AcDbLine
 62
7
  6
CONTINUOUS
 10
-10.9
 20
-43.0
 11
10.9
 21
-43.0
  0
LINE
  5
26C
100
AcDbEntity
  8
DRAFT
100
AcDbLine
 62
7
  6
CONTINUOUS
 10
11.6
 20
-43.0
 11
34.6
 21
-43.0
  0
LINE
  5
26D
100
AcDbEntity
  8
RACCORDO
100
AcDbLine
 62
7
  6
CONTINUOUS
 10
35.3
 20
-43.0
 11
58.800030461
 21
-43.0
  0
LINE
  5
26E
100
AcDbEntity
  8
RACCORDO
100
AcDbLine
 62
253
  6
CONTINUOUS
 10
58.7311508878
 20
-42.9311204268
 11
35.3688795732
 21
-42.9311204268
  0
LINE
  5
26F
100
AcDbEntity
  8
RACCORDO
100
AcDbLine
 62
253
  6
CONTINUOUS
 10
34.5311204268
 20
-42.9311204268
 11
11.6
 21
-42.9311204268
  0
LINE
  5
270
100
AcDbEntity
  8
RACCORDO
100
AcDbLine
 62
253
  6
CONTINUOUS
 10
10.9
 20
-42.9311204268
 11
-10.8311204268
 21
-42.9311204268
  0
LINE
  5
271
100
AcDbEntity
  8
RACCORDO
100
AcDbLine
 62
253
  6
CONTINUOUS
 10
-11.6688795732
 20
-42.9311204268
 11
-34.5311204268
 21
-42.9311204268
  0
LINE
  5
272
100
AcDbEntity
  8
RACCORDO
100
AcDbLine
 62
253
  6
CONTINUOUS
 10
-35.3688795732
 20
-42.9311204268
 11
-58.7311508878
 21
-42.9311204268
  0
LINE
  5
273
100
AcDbEntity
  8
RACCORDO
100
AcDbLine
 62
253
  6
CONTINUOUS
 10
58.7311508878
 20
-42.7655612578
 11
35.3722576013
 21
-42.7655612578
  0
LINE
  5
274
100
AcDbEntity
  8
RACCORDO
100
AcDbLine
 62
253
  6
CONTINUOUS
 10
34.5277423987
 20
-42.7655612578
 11
11.6
 21
-42.7655612578
  0
LINE
  5
275
100
AcDbEntity
  8
RACCORDO
100
AcDbLine
 62
253
  6
CONTINUOUS
 10
10.9
 20
-42.7655612578
 11
-10.8277423987
 21
-42.7655612578
  0
LINE
  5
276
100
AcDbEntity
  8
RACCORDO
100
AcDbLine
 62
253
  6
CONTINUOUS
 10
-11.6722576013
 20
-42.7655612578
 11
-34.5277423987
 21
-42.7655612578
  0
LINE
  5
277
100
AcDbEntity
  8
RACCORDO
100
AcDbLine
 62
253
  6
CONTINUOUS
 10
-35.3722576013
 20
-42.7655612578
 11
-58.7311508878
 21
-42.7655612578
  0
LINE
  5
278
100
AcDbEntity
  8
0
100
AcDbLine
 62
7
  6
CONTINUOUS
 10
-19.5750001431
 20
-34.6574468017
 11
-19.3500001431
 21
-34.6957446694
  0
LINE
  5
279
100
AcDbEntity
  8
0
100
AcDbLine
 62
7
  6
CONTINUOUS
 10
-24.8625000358
 20
-35.4617021289
 11
-24.675
 21
-35.5
  0
LINE
  5
27A
100
AcDbEntity
  8
0
100
AcDbLine
 62
7
  6
CONTINUOUS
 10
-23.2125
 20
-35.4617021289
 11
-23.0250000715
 21
-35.5
  0
LINE
  5
27B
100
AcDbEntity
  8
0
100
AcDbLine
 62
7
  6
CONTINUOUS
 10
-24.9
 20
-34.8106382728
 11
-24.7124999642
 21
-34.8489361942
  0
LINE
  5
27C
100
AcDbEntity
  8
0
100
AcDbLine
 62
7
  6
CONTINUOUS
 10
-21.6000001431
 20
-35.4617021289
 11
-21.4125
 21
-35.5
  0
LINE
  5
27D
100
AcDbEntity
  8
0
100
AcDbLine
 62
7
  6
CONTINUOUS
 10
-19.7624998569
 20
-35.3085106343
 11
-19.95
 21
-35.2702127665
  0
LINE
  5
27E
100
AcDbEntity
  8
0
100
AcDbLine
 62
7
  6
CONTINUOUS
 10
-22.65
 20
-34.3893617272
 11
-22.8374999285
 21
-34.3510638595
  0
LINE
  5
27F
100
AcDbEntity
  8
0
100
AcDbLine
 62
7
  6
CONTINUOUS
 10
-24.3375
 20
-33.7382978678
 11
-24.5250000358
 21
-33.7
  0
LINE
  5
280
100
AcDbEntity
  8
0
100
AcDbLine
 62
7
  6
CONTINUOUS
 10
-20.9999998569
 20
-34.3893617272
 11
-21.1875
 21
-34.3510638595
  0
LINE
  5
281
100
AcDbEntity
  8
0
100
AcDbLine
 62
7
  6
CONTINUOUS
 10
-22.6875000715
 20
-33.7382978678
 11
-22.875
 21
-33.7
  0
LINE
  5
282
100
AcDbEntity
  8
0
100
AcDbLine
 62
7
  6
CONTINUOUS
 10
-19.5750001431
 20
-33.8914893389
 11
-19.3875
 21
-33.9297872066
  0
LINE
  5
283
100
AcDbEntity
  8
0
100
AcDbLine
 62
7
  6
CONTINUOUS
 10
-21.4125
 20
-35.3085106343
 11
-21.5624998569
 21
-35.2702127665
  0
LINE
  5
284
100
AcDbEntity
  8
0
100
AcDbLine
 62
7
  6
CONTINUOUS
 10
-19.95
 20
-35.4617021289
 11
-19.8000001431
 21
-35.5
  0
LINE
  5
285
100
AcDbEntity
  8
0
100
AcDbLine
 62
7
  6
CONTINUOUS
 10
-21.1875
 20
-34.5425531983
 11
-21.0375001431
 21
-34.5808510661
  0
LWPOLYLINE
  5
286
100
AcDbEntity
  8
RACCORDO
100
AcDbPolyline
 62
7
  6
CONTINUOUS
 90
10
 70
0
 10
-58.8931484469
 20
-24.1068515531
 10
-58.892081845
 20
-24.107152767
 10
-58.8896072938
 20
-24.107447389
 10
-58.8857247934
 20
-24.1077354188
 10
-58.8804174751
 20
-24.1080184148
 10
-58.8737022076
 20
-24.1082948188
 10
-58.8656295969
 20
-24.1085599557
 10
-58.856121626
 20
-24.1088148782
 10
-58.8452563119
 20
-24.1090585336
 10
-58.8202531866
 20
-24.1094875254
  0
LINE
  5
287
100
AcDbEntity
  8
RACCORDO
100
AcDbLine
 62
7
  6
CONTINUOUS
 10
-56.0357171432
 20
-24.0214559154
 11
-56.0852377442
 21
-24.0049624612
  0
LINE
  5
288
100
AcDbEntity
  8
0
100
AcDbLine
 62
7
  6
CONTINUOUS
 10
-24.7124999642
 20
-35.3085106343
 11
-24.8249999642
 21
-35.2702127665
  0
LINE
  5
289
100
AcDbEntity
  8
0
100
AcDbLine
 62
7
  6
CONTINUOUS
 10
-23.0624999285
 20
-35.3085106343
 11
-23.1749999285
 21
-35.2702127665
  0
LINE
  5
28A
100
AcDbEntity
  8
0
100
AcDbLine
 62
7
  6
CONTINUOUS
 10
-24.7500000358
 20
-34.6574468017
 11
-24.8625000358
 21
-34.6191489339
  0
LINE
  5
28B
100
AcDbEntity
  8
0
100
AcDbLine
 62
7
  6
CONTINUOUS
 10
-22.8000000715
 20
-34.5425531983
 11
-22.6875000715
 21
-34.5808510661
  0
LINE
  5
28C
100
AcDbEntity
  8
0
100
AcDbLine
 62
7
  6
CONTINUOUS
 10
-24.4874999642
 20
-33.8914893389
 11
-24.3749999642
 21
-33.9297872066
  0
LINE
  5
28D
100
AcDbEntity
  8
0
100
AcDbLine
 62
7
  6
CONTINUOUS
 10
-22.8374999285
 20
-33.8914893389
 11
-22.7249999285
 21
-33.9297872066
  0
LINE
  5
28E
100
AcDbEntity
  8
0
100
AcDbLine
 62
7
  6
CONTINUOUS
 10
-19.0874998569
 20
-34.6574468017
 11
-19.275
 21
-34.5808510661
  0
LINE
  5
28F
100
AcDbEntity
  8
0
100
AcDbLine
 62
7
  6
CONTINUOUS
 10
-20.0999998569
 20
-35.3851063833
 11
-19.95
 21
-35.4617021289
  0
LINE
  5
290
100
AcDbEntity
  8
0
100
AcDbLine
 62
7
  6
CONTINUOUS
 10
-19.95
 20
-35.2702127665
 11
-20.0250001431
 21
-35.2319148988
  0
LINE
  5
291
100
AcDbEntity
  8
0
100
AcDbLine
 62
7
  6
CONTINUOUS
 10
-19.1999998569
 20
-33.8148936033
 11
-19.3500001431
 21
-33.7382978678
  0
LINE
  5
292
100
AcDbEntity
  8
0
100
AcDbLine
 62
7
  6
CONTINUOUS
 10
-25.0875000358
 20
-34.6957446694
 11
-24.9
 21
-34.8106382728
  0
LINE
  5
293
100
AcDbEntity
  8
0
100
AcDbLine
 62
7
  6
CONTINUOUS
 10
-23.3999999285
 20
-35.3468085155
 11
-23.2125
 21
-35.4617021289
  0
LINE
  5
294
100
AcDbEntity
  8
0
100
AcDbLine
 62
7
  6
CONTINUOUS
 10
-21.7874998569
 20
-35.3468085155
 11
-21.6000001431
 21
-35.4617021289
  0
LINE
  5
295
100
AcDbEntity
  8
0
100
AcDbLine
 62
7
  6
CONTINUOUS
 10
-24.1500000715
 20
-33.8531914711
 11
-24.3375
 21
-33.7382978678
  0
LINE
  5
296
100
AcDbEntity
  8
0
100
AcDbLine
 62
7
  6
CONTINUOUS
 10
-22.4625000715
 20
-34.5042553306
 11
-22.65
 21
-34.3893617272
  0
LINE
  5
297
100
AcDbEntity
  8
0
100
AcDbLine
 62
7
  6
CONTINUOUS
 10
-22.4999999285
 20
-33.8531914711
 11
-22.6875000715
 21
-33.7382978678
  0
LINE
  5
298
100
AcDbEntity
  8
0
100
AcDbLine
 62
7
  6
CONTINUOUS
 10
-20.8125001431
 20
-34.5042553306
 11
-20.9999998569
 21
-34.3893617272
  0
LINE
  5
299
100
AcDbEntity
  8
0
100
AcDbLine
 62
7
  6
CONTINUOUS
 10
-24.8249999642
 20
-35.2702127665
 11
-24.9374999642
 21
-35.193617031
  0
LINE
  5
29A
100
AcDbEntity
  8
0
100
AcDbLine
 62
7
  6
CONTINUOUS
 10
-24.8625000358
 20
-34.6191489339
 11
-24.9750000358
 21
-34.5425531983
  0
LINE
  5
29B
100
AcDbEntity
  8
0
100
AcDbLine
 62
7
  6
CONTINUOUS
 10
-23.1749999285
 20
-35.2702127665
 11
-23.2874999285
 21
-35.193617031
  0
LINE
  5
29C
100
AcDbEntity
  8
0
100
AcDbLine
 62
7
  6
CONTINUOUS
 10
-24.3749999642
 20
-33.9297872066
 11
-24.2624999642
 21
-34.0063829422
  0
LINE
  5
29D
100
AcDbEntity
  8
0
100
AcDbLine
 62
7
  6
CONTINUOUS
 10
-22.6875000715
 20
-34.5808510661
 11
-22.5750000715
 21
-34.6574468017
  0
LINE
  5
29E
100
AcDbEntity
  8
0
100
AcDbLine
 62
7
  6
CONTINUOUS
 10
-21.5624998569
 20
-35.2702127665
 11
-21.6749998569
 21
-35.193617031
  0
LINE
  5
29F
100
AcDbEntity
  8
0
100
AcDbLine
 62
7
  6
CONTINUOUS
 10
-22.7249999285
 20
-33.9297872066
 11
-22.6124999285
 21
-34.0063829422
  0
LINE
  5
2A0
100
AcDbEntity
  8
0
100
AcDbLine
 62
7
  6
CONTINUOUS
 10
-20.2124998569
 20
-35.3085106343
 11
-20.0999998569
 21
-35.3851063833
  0
LINE
  5
2A1
100
AcDbEntity
  8
0
100
AcDbLine
 62
7
  6
CONTINUOUS
 10
-21.0375001431
 20
-34.5808510661
 11
-20.9250001431
 21
-34.6574468017
  0
LINE
  5
2A2
100
AcDbEntity
  8
0
100
AcDbLine
 62
7
  6
CONTINUOUS
 10
-19.3500001431
 20
-34.6957446694
 11
-19.2375001431
 21
-34.772340405
  0
LINE
  5
2A3
100
AcDbEntity
  8
0
100
AcDbLine
 62
7
  6
CONTINUOUS
 10
-19.3875
 20
-33.9297872066
 11
-19.275
 21
-34.0063829422
  0
LINE
  5
2A4
100
AcDbEntity
  8
RACCORDO
100
AcDbLine
 62
7
  6
CONTINUOUS
 10
-58.9650898701
 20
-0.3849101299
 11
-58.8817502263
 21
-0.4682497737
  0
LINE
  5
2A5
100
AcDbEntity
  8
DRAFT
100
AcDbLine
 62
7
  6
CONTINUOUS
 10
-35.3837843117
 20
-23.2162156883
 11
-35.4111990254
 21
-23.1888009746
  0
LINE
  5
2A6
100
AcDbEntity
  8
0
100
AcDbLine
 62
7
  6
CONTINUOUS
 10
-34.5162156883
 20
-24.0
 11
-34.489628929
 21
-24.0265867593
  0
LINE
  5
2A7
100
AcDbEntity
  8
RACCORDO
100
AcDbLine
 62
7
  6
CONTINUOUS
 10
-11.6688795732
 20
-42.9311204268
 11
-11.6
 21
-43.0
  0
LINE
  5
2A8
100
AcDbEntity
  8
0
100
AcDbLine
 62
7
  6
CONTINUOUS
 10
-22.5750000715
 20
-34.6574468017
 11
-22.4999999285
 21
-34.7340425372
  0
LINE
  5
2A9
100
AcDbEntity
  8
0
100
AcDbLine
 62
7
  6
CONTINUOUS
 10
-22.3499998569
 20
-34.6191489339
 11
-22.4625000715
 21
-34.5042553306
  0
LINE
  5
2AA
100
AcDbEntity
  8
0
100
AcDbLine
 62
7
  6
CONTINUOUS
 10
-20.0250001431
 20
-35.2319148988
 11
-20.0999998569
 21
-35.1553191364
  0
LINE
  5
2AB
100
AcDbEntity
  8
0
100
AcDbLine
 62
7
  6
CONTINUOUS
 10
-19.05
 20
-33.9680850744
 11
-19.1999998569
 21
-33.8148936033
  0
LINE
  5
2AC
100
AcDbEntity
  8
0
100
AcDbLine
 62
7
  6
CONTINUOUS
 10
-25.1625000179
 20
-35.193617031
 11
-25.0499999642
 21
-35.3468085155
  0
LINE
  5
2AD
100
AcDbEntity
  8
0
100
AcDbLine
 62
7
  6
CONTINUOUS
 10
-25.1999999821
 20
-34.5425531983
 11
-25.0875000358
 21
-34.6957446694
  0
LINE
  5
2AE
100
AcDbEntity
  8
0
100
AcDbLine
 62
7
  6
CONTINUOUS
 10
-23.5124999285
 20
-35.193617031
 11
-23.3999999285
 21
-35.3468085155
  0
LINE
  5
2AF
100
AcDbEntity
  8
0
100
AcDbLine
 62
7
  6
CONTINUOUS
 10
-24.0375000715
 20
-34.0063829422
 11
-24.1500000715
 21
-33.8531914711
  0
LINE
  5
2B0
100
AcDbEntity
  8
0
100
AcDbLine
 62
7
  6
CONTINUOUS
 10
-21.8999998569
 20
-35.193617031
 11
-21.7874998569
 21
-35.3468085155
  0
LINE
  5
2B1
100
AcDbEntity
  8
0
100
AcDbLine
 62
7
  6
CONTINUOUS
 10
-22.3875001431
 20
-34.0063829422
 11
-22.4999999285
 21
-33.8531914711
  0
LINE
  5
2B2
100
AcDbEntity
  8
0
100
AcDbLine
 62
7
  6
CONTINUOUS
 10
-20.7000001431
 20
-34.6574468017
 11
-20.8125001431
 21
-34.5042553306
  0
LINE
  5
2B3
100
AcDbEntity
  8
0
100
AcDbLine
 62
7
  6
CONTINUOUS
 10
-24.9374999642
 20
-35.193617031
 11
-25.0125
 21
-35.0787234008
  0
LINE
  5
2B4
100
AcDbEntity
  8
0
100
AcDbLine
 62
7
  6
CONTINUOUS
 10
-24.9750000358
 20
-34.5425531983
 11
-25.0499999642
 21
-34.427659595
  0
LINE
  5
2B5
100
AcDbEntity
  8
0
100
AcDbLine
 62
7
  6
CONTINUOUS
 10
-24.2624999642
 20
-34.0063829422
 11
-24.1874999285
 21
-34.1212765455
  0
LINE
  5
2B6
100
AcDbEntity
  8
0
100
AcDbLine
 62
7
  6
CONTINUOUS
 10
-23.2874999285
 20
-35.193617031
 11
-23.3625000715
 21
-35.0787234008
  0
LINE
  5
2B7
100
AcDbEntity
  8
0
100
AcDbLine
 62
7
  6
CONTINUOUS
 10
-22.6124999285
 20
-34.0063829422
 11
-22.5375
 21
-34.1212765455
  0
LINE
  5
2B8
100
AcDbEntity
  8
0
100
AcDbLine
 62
7
  6
CONTINUOUS
 10
-28.051521
 20
-32.925
 11
-28.721411
 21
-31.075
  0
LINE
  5
2B9
100
AcDbEntity
  8
0
100
AcDbLine
 62
7
  6
CONTINUOUS
 10
-28.507595
 20
-32.386533
 11
-28.324675
 21
-32.925
  0
LINE
  5
2BA
100
AcDbEntity
  8
0
100
AcDbLine
 62
7
  6
CONTINUOUS
 10
-30.805984
 20
-32.646609
 11
-31.336753
 21
-31.075
  0
LINE
  5
2BB
100
AcDbEntity
  8
0
100
AcDbLine
 62
7
  6
CONTINUOUS
 10
-31.452726
 20
-31.373783
 11
-30.932208
 21
-32.925
  0
LINE
  5
2BC
100
AcDbEntity
  8
0
100
AcDbLine
 62
7
  6
CONTINUOUS
 10
-28.873331
 20
-31.34334
 11
-28.597709
 21
-32.164951
  0
LWPOLYLINE
  5
2BD
100
AcDbEntity
  8
DRAFT
100
AcDbPolyline
 62
7
  6
CONTINUOUS
 90
3
 70
0
 10
-38.8737920989
 20
23.788869094
 10
-38.8241297683
 20
23.3243681298
 10
-38.8144949276
 20
23.2314782933
  0
LINE
  5
2BE
100
AcDbEntity
  8
DRAFT
100
AcDbLine
 62
7
  6
CONTINUOUS
 10
-35.3214559154
 20
-36.5357171432
 11
-35.3507379165
 21
-35.5671747003
  0
LINE
  5
2BF
100
AcDbEntity
  8
DRAFT
100
AcDbLine
 62
7
  6
CONTINUOUS
 10
-34.5785440846
 20
36.5357171432
 11
-34.5487419809
 21
35.5499715907
  0
LINE
  5
2C0
100
AcDbEntity
  8
DRAFT
100
AcDbLine
 62
7
  6
CONTINUOUS
 10
-35.3837843117
 20
-25.8
 11
-35.3655602373
 21
-27.608358935
  0
LINE
  5
2C1
100
AcDbEntity
  8
DRAFT
100
AcDbLine
 62
7
  6
CONTINUOUS
 10
-34.5338596918
 20
27.5507990126
 11
-34.5162156883
 21
25.8
  0
LINE
  5
2C2
100
AcDbEntity
  8
DRAFT
100
AcDbLine
 62
7
  6
CONTINUOUS
 10
-35.3507379165
 20
-35.5671747003
 11
-35.3613716576
 21
-30.2657773336
  0
LINE
  5
2C3
100
AcDbEntity
  8
DRAFT
100
AcDbLine
 62
7
  6
CONTINUOUS
 10
-34.5487419809
 20
35.5499715907
 11
-34.53517514
 21
28.4415758442
  0
LINE
  5
2C4
100
AcDbEntity
  8
DRAFT
100
AcDbLine
 62
7
  6
CONTINUOUS
 10
-35.3613716576
 20
-30.2657773336
 11
-35.3655602373
 21
-27.608358935
  0
LINE
  5
2C5
100
AcDbEntity
  8
DRAFT
100
AcDbLine
 62
7
  6
CONTINUOUS
 10
-34.53517514
 20
28.4415758442
 11
-34.5338596918
 21
27.5507990126
  0
LINE
  5
2C6
100
AcDbEntity
  8
DRAFT
100
AcDbLine
 62
7
  6
CONTINUOUS
 10
-35.4012393766
 20
0.4512393766
 11
-35.4012393766
 21
-0.4512393766
  0
LINE
  5
2C7
100
AcDbEntity
  8
DRAFT
100
AcDbLine
 62
7
  6
CONTINUOUS
 10
-35.3837843117
 20
25.8
 11
-35.3837843117
 21
24.0837843117
  0
LINE
  5
2C8
100
AcDbEntity
  8
0
100
AcDbLine
 62
7
  6
CONTINUOUS
 10
-35.3837843117
 20
-19.0174603847
 11
-35.3837843117
 21
-23.2162156883
  0
LINE
  5
2C9
100
AcDbEntity
  8
DRAFT
100
AcDbLine
 62
7
  6
CONTINUOUS
 10
-35.3837843117
 20
-24.0837843117
 11
-35.3837843117
 21
-25.8
  0
LINE
  5
2CA
100
AcDbEntity
  8
0
100
AcDbLine
 62
7
  6
CONTINUOUS
 10
-35.3837843117
 20
18.5174603383
 11
-35.3837843117
 21
23.2162156883
  0
LINE
  5
2CB
100
AcDbEntity
  8
0
100
AcDbLine
 62
7
  6
CONTINUOUS
 10
-35.3750567792
 20
-19.0
 11
-35.3750567792
 21
14.5000000464
  0
LINE
  5
2CC
100
AcDbEntity
  8
0
100
AcDbLine
 62
253
  6
CONTINUOUS
 10
-35.3295212939
 20
18.4089012272
 11
-35.3295212939
 21
14.5910987728
  0
LINE
  5
2CD
100
AcDbEntity
  8
RACCORDO
100
AcDbLine
 62
7
  6
CONTINUOUS
 10
-35.3
 20
43.0
 11
-35.3
 21
36.8848266046
  0
LINE
  5
2CE
100
AcDbEntity
  8
RACCORDO
100
AcDbLine
 62
7
  6
CONTINUOUS
 10
-35.3
 20
-36.8848266046
 11
-35.3
 21
-43.0
  0
LINE
  5
2CF
100
AcDbEntity
  8
0
100
AcDbLine
 62
253
  6
CONTINUOUS
 10
-34.8295974464
 20
18.9085966407
 11
-34.8295974464
 21
14.0914033593
  0
LINE
  5
2D0
100
AcDbEntity
  8
RACCORDO
100
AcDbLine
 62
7
  6
CONTINUOUS
 10
-34.6
 20
43.0
 11
-34.6
 21
36.8848266046
  0
LINE
  5
2D1
100
AcDbEntity
  8
RACCORDO
100
AcDbLine
 62
7
  6
CONTINUOUS
 10
-34.6
 20
-36.8848266046
 11
-34.6
 21
-43.0
  0
LINE
  5
2D2
100
AcDbEntity
  8
0
100
AcDbLine
 62
7
  6
CONTINUOUS
 10
-34.5162156883
 20
-24.0
 11
-34.5162156883
 21
-25.8
  0
LINE
  5
2D3
100
AcDbEntity
  8
0
100
AcDbLine
 62
7
  6
CONTINUOUS
 10
-34.5162156883
 20
24.0
 11
-34.5162156883
 21
25.8
  0
LINE
  5
2D4
100
AcDbEntity
  8
0
100
AcDbLine
 62
7
  6
CONTINUOUS
 10
-33.85
 20
-21.7010963722
 11
-33.85
 21
21.7010963722
  0
LINE
  5
2D5
100
AcDbEntity
  8
0
100
AcDbLine
 62
7
  6
CONTINUOUS
 10
-31.694916
 20
-31.075
 11
-31.694916
 21
-32.925
  0
LINE
  5
2D6
100
AcDbEntity
  8
0
100
AcDbLine
 62
7
  6
CONTINUOUS
 10
-31.452726
 20
-32.925
 11
-31.452726
 21
-31.373783
  0
LINE
  5
2D7
100
AcDbEntity
  8
DRAFT
100
AcDbLine
 62
7
  6
CONTINUOUS
 10
-34.5338596918
 20
-27.5507990126
 11
-34.5430209528
 21
-32.888331327
  0
LINE
  5
2D8
100
AcDbEntity
  8
DRAFT
100
AcDbLine
 62
7
  6
CONTINUOUS
 10
-35.3655602373
 20
27.608358935
 11
-35.3507379165
 21
35.5671747003
  0
LINE
  5
2D9
100
AcDbEntity
  8
DRAFT
100
AcDbLine
 62
7
  6
CONTINUOUS
 10
-34.5430209528
 20
-32.888331327
 11
-34.5487419809
 21
-35.5499715907
  0
LINE
  5
2DA
100
AcDbEntity
  8
DRAFT
100
AcDbLine
 62
7
  6
CONTINUOUS
 10
-35.3655602373
 20
27.608358935
 11
-35.3837843117
 21
25.8
  0
LINE
  5
2DB
100
AcDbEntity
  8
DRAFT
100
AcDbLine
 62
7
  6
CONTINUOUS
 10
-34.5338596918
 20
-27.5507990126
 11
-34.5162156883
 21
-25.8
  0
LINE
  5
2DC
100
AcDbEntity
  8
DRAFT
100
AcDbLine
 62
7
  6
CONTINUOUS
 10
-35.3214559154
 20
36.5357171432
 11
-35.3507379165
 21
35.5671747003
  0
LINE
  5
2DD
100
AcDbEntity
  8
DRAFT
100
AcDbLine
 62
7
  6
CONTINUOUS
 10
-34.5785440846
 20
-36.5357171432
 11
-34.5487419809
 21
-35.5499715907
  0
LINE
  5
2DE
100
AcDbEntity
  8
DRAFT
100
AcDbLine
 62
7
  6
CONTINUOUS
 10
-38.8144949276
 20
-23.2314782933
 11
-38.8636611596
 21
-23.6959620511
  0
LINE
  5
2DF
100
AcDbEntity
  8
DRAFT
100
AcDbLine
 62
7
  6
CONTINUOUS
 10
-38.8636611596
 20
-23.6959620511
 11
-38.9047809173
 21
-24.0676118328
  0
LINE
  5
2E0
100
AcDbEntity
  8
0
100
AcDbLine
 62
7
  6
CONTINUOUS
 10
-27.92338
 20
35.612109
 11
-28.709048
 21
32.859121
  0
LINE
  5
2E1
100
AcDbEntity
  8
0
100
AcDbLine
 62
7
  6
CONTINUOUS
 10
-28.374698
 20
31.612597
 11
-27.089095
 21
35.612109
  0
LINE
  5
2E2
100
AcDbEntity
  8
0
100
AcDbLine
 62
7
  6
CONTINUOUS
 10
-22.638804
 20
35.612109
 11
-23.473659
 21
33.391567
  0
LINE
  5
2E3
100
AcDbEntity
  8
0
100
AcDbLine
 62
7
  6
CONTINUOUS
 10
-23.419674
 20
31.612597
 11
-22.427031
 21
34.213316
  0
LWPOLYLINE
  5
2E4
100
AcDbEntity
  8
0
100
AcDbPolyline
 62
7
  6
CONTINUOUS
 90
8
 70
0
 10
-21.9008596262
 20
28.5516983052
 10
-21.898644224
 20
28.5557579317
 10
-21.8949132006
 20
28.5616387915
 10
-21.8896665558
 20
28.5691359728
 10
-21.8827427902
 20
28.5780281126
 10
-21.8743034034
 20
28.5881270581
 10
-21.8648328937
 20
28.5993068767
 10
-21.8543834757
 20
28.6113961839
  0
LWPOLYLINE
  5
2E5
100
AcDbEntity
  8
0
100
AcDbPolyline
 62
7
  6
CONTINUOUS
 90
8
 70
0
 10
-21.8990796797
 20
27.9519724288
 10
-21.8968635194
 20
27.9559431926
 10
-21.893131532
 20
27.9617392909
 10
-21.8878837172
 20
27.9691561609
 10
-21.8809585258
 20
27.9779728168
 10
-21.8725175071
 20
27.9880011311
 10
-21.8630453093
 20
27.999114917
 10
-21.8525941787
 20
28.0111428961
  0
LWPOLYLINE
  5
2E6
100
AcDbEntity
  8
0
100
AcDbPolyline
 62
7
  6
CONTINUOUS
 90
3
 70
0
 10
-21.8543834757
 20
28.6113961839
 10
-21.8307191254
 20
28.6378051504
 10
-21.8178641835
 20
28.6519729641
  0
LWPOLYLINE
  5
2E7
100
AcDbEntity
  8
0
100
AcDbPolyline
 62
7
  6
CONTINUOUS
 90
3
 70
0
 10
-21.8525941787
 20
28.0111428961
 10
-21.8289262894
 20
28.037442879
 10
-21.8160695886
 20
28.0515626313
  0
LWPOLYLINE
  5
2E8
100
AcDbEntity
  8
0
100
AcDbPolyline
 62
7
  6
CONTINUOUS
 90
3
 70
0
 10
-21.8178641835
 20
28.6519729641
 10
-21.790275941
 20
28.6817335213
 10
-21.775790439
 20
28.6972298427
  0
LWPOLYLINE
  5
2E9
100
AcDbEntity
  8
0
100
AcDbPolyline
 62
7
  6
CONTINUOUS
 90
3
 70
0
 10
-21.8160695886
 20
28.0515626313
 10
-21.7884778387
 20
28.0812396503
 10
-21.7739906077
 20
28.0967001885
  0
LINE
  5
2EA
100
AcDbEntity
  8
0
100
AcDbLine
 62
7
  6
CONTINUOUS
 10
-21.775790439
 20
28.6972298427
 11
-21.7300547023
 21
28.7453238453
  0
LINE
  5
2EB
100
AcDbEntity
  8
0
100
AcDbLine
 62
7
  6
CONTINUOUS
 10
-21.7739906077
 20
28.0967001885
 11
-21.7282497706
 21
28.1447100402
  0
LINE
  5
2EC
100
AcDbEntity
  8
0
100
AcDbLine
 62
7
  6
CONTINUOUS
 10
-21.7300547023
 20
28.7453238453
 11
-21.6822299859
 21
28.7947202098
  0
LINE
  5
2ED
100
AcDbEntity
  8
0
100
AcDbLine
 62
7
  6
CONTINUOUS
 10
-21.7282497706
 20
28.1447100402
 11
-21.6804201002
 21
28.1940553929
  0
LWPOLYLINE
  5
2EE
100
AcDbEntity
  8
0
100
AcDbPolyline
 62
7
  6
CONTINUOUS
 90
4
 70
0
 10
-21.6822299859
 20
28.7947202098
 10
-21.6338791536
 20
28.8439392567
 10
-21.6178933968
 20
28.8600557844
 10
-21.6019546125
 20
28.8759468191
  0
LWPOLYLINE
  5
2EF
100
AcDbEntity
  8
0
100
AcDbPolyline
 62
7
  6
CONTINUOUS
 90
4
 70
0
 10
-21.6804201002
 20
28.1940553929
 10
-21.6320645172
 20
28.2432545767
 10
-21.6160772394
 20
28.2593709862
 10
-21.600136964
 20
28.2752649765
  0
LINE
  5
2F0
100
AcDbEntity
  8
0
100
AcDbLine
 62
7
  6
CONTINUOUS
 10
-21.8999542122
 20
27.9500457878
 11
-22.1
 21
27.75
  0
LINE
  5
2F1
100
AcDbEntity
  8
0
100
AcDbLine
 62
253
  6
CONTINUOUS
 10
-21.1963209205
 20
27.7534963276
 11
-20.9997754079
 21
27.9500457878
  0
LINE
  5
2F2
100
AcDbEntity
  8
0
100
AcDbLine
 62
253
  6
CONTINUOUS
 10
-20.8860402013
 20
27.4641425506
 11
-20.6982180589
 21
27.6519684658
  0
LINE
  5
2F3
100
AcDbEntity
  8
0
100
AcDbLine
 62
7
  6
CONTINUOUS
 10
-23.7
 20
27.35
 11
-24.1141963536
 21
26.9465093858
  0
LWPOLYLINE
  5
2F4
100
AcDbEntity
  8
0
100
AcDbPolyline
 62
7
  6
CONTINUOUS
 90
54
 70
0
 10
-15.4865948881
 20
33.5852847145
 10
-15.4718987747
 20
33.5976597208
 10
-15.4568776018
 20
33.6105774847
 10
-15.4414979127
 20
33.6239975955
 10
-15.4257931642
 20
33.6379604337
 10
-15.4098202073
 20
33.6526321175
 10
-15.3935566568
 20
33.6679987327
 10
-15.377024898
 20
33.6840741477
 10
-15.3603489381
 20
33.7010661412
 10
-15.3435127327
 20
33.7189635064
 10
-15.3265323262
 20
33.737777381
 10
-15.3095798594
 20
33.7577490404
 10
-15.2926722634
 20
33.7789076655
 10
-15.275792607
 20
33.8012239708
 10
-15.2590622376
 20
33.8248515108
 10
-15.2424737713
 20
33.8498065621
 10
-15.226034592
 20
33.876072708
 10
-15.2098881991
 20
33.9037544435
 10
-15.1939984957
 20
33.932820032
 10
-15.1784015788
 20
33.9633010344
 10
-15.1633492387
 20
33.9953968659
 10
-15.1487955002
 20
34.0291387633
 10
-15.1347863385
 20
34.0644952524
 10
-15.1217114694
 20
34.1015716519
 10
-15.1095781797
 20
34.1403322724
 10
-15.0983791825
 20
34.1808125135
 10
-15.0884823324
 20
34.2232242884
 10
-15.0798589627
 20
34.2675801631
 10
-15.0725377401
 20
34.3138671927
 10
-15.0669725195
 20
34.3622589748
 10
-15.0631099666
 20
34.4128091161
 10
-15.0610034157
 20
34.4654635312
 10
-15.0612667243
 20
34.5202342439
 10
-15.0638019513
 20
34.5774739084
 10
-15.0687070379
 20
34.6368292933
 10
-15.076889665
 20
34.6972537155
 10
-15.0884602252
 20
34.7589391575
 10
-15.1033083261
 20
34.8216933046
 10
-15.1220104708
 20
34.883893394
 10
-15.1448424235
 20
34.9454636898
 10
-15.17152842
 20
35.006480074
 10
-15.2018176712
 20
35.0655476358
 10
-15.2360799031
 20
35.1226985182
 10
-15.2739453896
 20
35.1779010843
 10
-15.3140541631
 20
35.2296651284
 10
-15.3564861189
 20
35.2776221569
 10
-15.4011613616
 20
35.3221414822
 10
-15.4464802386
 20
35.3628397989
 10
-15.4925247525
 20
35.3997038519
 10
-15.5392129005
 20
35.4327475885
 10
-15.5846990217
 20
35.4616285242
 10
-15.6283678957
 20
35.4862326836
 10
-15.670834743
 20
35.5066745707
 10
-15.7120995634
 20
35.5229543863
  0
LWPOLYLINE
  5
2F5
100
AcDbEntity
  8
0
100
AcDbPolyline
 62
7
  6
CONTINUOUS
 90
6
 70
0
 10
-15.5706753521
 20
33.5227732259
 10
-15.55661159
 20
33.531323522
 10
-15.542607457
 20
33.540718049
 10
-15.5287955524
 20
33.5508857967
 10
-15.515043277
 20
33.561897741
 10
-15.4865948881
 20
33.5852847145
  0
LINE
  5
2F6
100
AcDbEntity
  8
0
100
AcDbLine
 62
7
  6
CONTINUOUS
 10
-23.3468102756
 20
24.0265867593
 11
-23.4
 21
24.0
  0
LINE
  5
2F7
100
AcDbEntity
  8
0
100
AcDbLine
 62
7
  6
CONTINUOUS
 10
-20.7323803064
 20
24.0
 11
-20.6893090811
 21
24.0215290512
  0
LINE
  5
2F8
100
AcDbEntity
  8
0
100
AcDbLine
 62
7
  6
CONTINUOUS
 10
22.1
 20
-28.5
 11
21.9020460546
 21
-28.5494696404
  0
LINE
  5
2F9
100
AcDbEntity
  8
0
100
AcDbLine
 62
7
  6
CONTINUOUS
 10
24.1139677759
 20
-26.9465093858
 11
24.2676196936
 21
-26.9081110346
  0
LINE
  5
2FA
100
AcDbEntity
  8
DRAFT
100
AcDbLine
 62
7
  6
CONTINUOUS
 10
21.6463883491
 20
-26.8965183637
 11
21.6
 21
-26.9081110346
  0
LINE
  5
2FB
100
AcDbEntity
  8
0
100
AcDbLine
 62
7
  6
CONTINUOUS
 10
-19.3500001431
 20
-35.2702127665
 11
-19.5374998569
 21
-35.3085106343
  0
LWPOLYLINE
  5
2FC
100
AcDbEntity
  8
0
100
AcDbPolyline
 62
7
  6
CONTINUOUS
 90
25
 70
0
 10
-27.0595081298
 20
-32.925
 10
-27.0061430176
 20
-32.923357601
 10
-26.9545447266
 20
-32.9188911032
 10
-26.9047132568
 20
-32.9116004805
 10
-26.8567358726
 20
-32.9014936836
 10
-26.8105253096
 20
-32.8885626604
 10
-26.7658197745
 20
-32.8727833551
 10
-26.7225944332
 20
-32.8543263164
 10
-26.6808741198
 20
-32.8330207987
 10
-26.6404715442
 20
-32.8083307569
 10
-26.6013138486
 20
-32.7800872025
 10
-26.5634738908
 20
-32.7484587507
 10
-26.5269829533
 20
-32.713415701
 10
-26.4914245564
 20
-32.6752377126
 10
-26.4572151797
 20
-32.6336446325
 10
-26.4256355447
 20
-32.5877669328
 10
-26.3970260072
 20
-32.5370576367
 10
-26.3710462112
 20
-32.4820628532
 10
-26.3479558104
 20
-32.4235526416
 10
-26.3274110207
 20
-32.3617902824
 10
-26.3097556261
 20
-32.2965116817
 10
-26.296280632
 20
-32.2276958874
 10
-26.2874163736
 20
-32.1553355915
 10
-26.2827325156
 20
-32.0794371339
 10
-26.2822290582
 20
-32.0
  0
LINE
  5
2FD
100
AcDbEntity
  8
DRAFT
100
AcDbLine
 62
7
  6
CONTINUOUS
 10
-35.3507379165
 20
-35.5671747003
 11
-34.5487419809
 21
-35.5499715907
  0
LINE
  5
2FE
100
AcDbEntity
  8
DRAFT
100
AcDbLine
 62
7
  6
CONTINUOUS
 10
-11.6525958309
 20
-35.5057216264
 11
-10.8473874094
 21
-35.5051672761
  0
LINE
  5
2FF
100
AcDbEntity
  8
RACCORDO
100
AcDbLine
 62
253
  6
CONTINUOUS
 10
-35.3
 20
-36.8848266046
 11
-34.6
 21
-36.8848266046
  0
LINE
  5
300
100
AcDbEntity
  8
RACCORDO
100
AcDbLine
 62
253
  6
CONTINUOUS
 10
-11.6
 20
-36.8848266046
 11
-10.9
 21
-36.8848266046
  0
LINE
  5
301
100
AcDbEntity
  8
RACCORDO
100
AcDbLine
 62
253
  6
CONTINUOUS
 10
10.9
 20
-36.8848266046
 11
11.6
 21
-36.8848266046
  0
LINE
  5
302
100
AcDbEntity
  8
RACCORDO
100
AcDbLine
 62
253
  6
CONTINUOUS
 10
34.6
 20
-36.8848266046
 11
35.3
 21
-36.8848266046
  0
LINE
  5
303
100
AcDbEntity
  8
RACCORDO
100
AcDbLine
 62
253
  6
CONTINUOUS
 10
-35.3049624612
 20
-36.5852377442
 11
-34.5950375388
 21
-36.5852377442
  0
LINE
  5
304
100
AcDbEntity
  8
RACCORDO
100
AcDbLine
 62
253
  6
CONTINUOUS
 10
-11.6049624612
 20
-36.5852377442
 11
-10.8950375388
 21
-36.5852377442
  0
LINE
  5
305
100
AcDbEntity
  8
RACCORDO
100
AcDbLine
 62
253
  6
CONTINUOUS
 10
10.9
 20
-36.5852377442
 11
11.6
 21
-36.5852377442
  0
LINE
  5
306
100
AcDbEntity
  8
RACCORDO
100
AcDbLine
 62
253
  6
CONTINUOUS
 10
34.5950375388
 20
-36.5852377442
 11
35.3049624612
 21
-36.5852377442
  0
LINE
  5
307
100
AcDbEntity
  8
DRAFT
100
AcDbLine
 62
7
  6
CONTINUOUS
 10
-11.6214559154
 20
-36.5357171432
 11
-10.8785440846
 21
-36.5357171432
  0
LINE
  5
308
100
AcDbEntity
  8
0
100
AcDbLine
 62
7
  6
CONTINUOUS
 10
10.9
 20
-36.5357171432
 11
11.6
 21
-36.5357171432
  0
LINE
  5
309
100
AcDbEntity
  8
DRAFT
100
AcDbLine
 62
7
  6
CONTINUOUS
 10
34.5785440846
 20
-36.5357171432
 11
35.3214559154
 21
-36.5357171432
  0
LINE
  5
30A
100
AcDbEntity
  8
DRAFT
100
AcDbLine
 62
7
  6
CONTINUOUS
 10
-34.5785440846
 20
-36.5357171432
 11
-35.3214559154
 21
-36.5357171432
  0
LINE
  5
30B
100
AcDbEntity
  8
0
100
AcDbLine
 62
7
  6
CONTINUOUS
 10
-25.8
 20
-35.5
 11
-25.575
 21
-35.5
  0
LINE
  5
30C
100
AcDbEntity
  8
0
100
AcDbLine
 62
7
  6
CONTINUOUS
 10
-24.675
 20
-35.5
 11
-24.5250000358
 21
-35.5
  0
LINE
  5
30D
100
AcDbEntity
  8
0
100
AcDbLine
 62
7
  6
CONTINUOUS
 10
-23.0250000715
 20
-35.5
 11
-22.8374999285
 21
-35.5
  0
LINE
  5
30E
100
AcDbEntity
  8
0
100
AcDbLine
 62
7
  6
CONTINUOUS
 10
-21.4125
 20
-35.5
 11
-21.1875
 21
-35.5
  0
LINE
  5
30F
100
AcDbEntity
  8
0
100
AcDbLine
 62
7
  6
CONTINUOUS
 10
-19.8000001431
 20
-35.5
 11
-19.5
 21
-35.5
  0
LINE
  5
310
100
AcDbEntity
  8
0
100
AcDbLine
 62
7
  6
CONTINUOUS
 10
17.41157
 20
-35.406117
 11
18.593816
 21
-35.406117
  0
LINE
  5
311
100
AcDbEntity
  8
0
100
AcDbLine
 62
7
  6
CONTINUOUS
 10
-19.5374998569
 20
-35.3085106343
 11
-19.7624998569
 21
-35.3085106343
  0
LINE
  5
312
100
AcDbEntity
  8
0
100
AcDbLine
 62
7
  6
CONTINUOUS
 10
-21.1875
 20
-35.3085106343
 11
-21.4125
 21
-35.3085106343
  0
LINE
  5
313
100
AcDbEntity
  8
0
100
AcDbLine
 62
7
  6
CONTINUOUS
 10
-22.8000000715
 20
-35.3085106343
 11
-23.0624999285
 21
-35.3085106343
  0
LINE
  5
314
100
AcDbEntity
  8
0
100
AcDbLine
 62
7
  6
CONTINUOUS
 10
-24.4874999642
 20
-35.3085106343
 11
-24.7124999642
 21
-35.3085106343
  0
LINE
  5
315
100
AcDbEntity
  8
0
100
AcDbLine
 62
7
  6
CONTINUOUS
 10
-20.1375001431
 20
-35.0787234008
 11
-20.3249998569
 21
-35.0787234008
  0
LINE
  5
316
100
AcDbEntity
  8
0
100
AcDbLine
 62
7
  6
CONTINUOUS
 10
-25.0125
 20
-35.0787234008
 11
-25.1999999821
 21
-35.0787234008
  0
LINE
  5
317
100
AcDbEntity
  8
0
100
AcDbLine
 62
7
  6
CONTINUOUS
 10
-21.75
 20
-35.0404255331
 11
-21.975
 21
-35.0404255331
  0
LINE
  5
318
100
AcDbEntity
  8
0
100
AcDbLine
 62
7
  6
CONTINUOUS
 10
18.593816
 20
-34.989452
 11
18.224704
 21
-34.989452
  0
LINE
  5
319
100
AcDbEntity
  8
0
100
AcDbLine
 62
7
  6
CONTINUOUS
 10
17.780825
 20
-34.989452
 11
17.41157
 21
-34.989452
  0
LINE
  5
31A
100
AcDbEntity
  8
0
100
AcDbLine
 62
7
  6
CONTINUOUS
 10
-24.7124999642
 20
-34.8489361942
 11
-24.5250000358
 21
-34.8489361942
  0
LINE
  5
31B
100
AcDbEntity
  8
0
100
AcDbLine
 62
7
  6
CONTINUOUS
 10
-21.975
 20
-34.6957446694
 11
-21.7125001431
 21
-34.6957446694
  0
LINE
  5
31C
100
AcDbEntity
  8
0
100
AcDbLine
 62
7
  6
CONTINUOUS
 10
-19.725
 20
-34.6574468017
 11
-19.5750001431
 21
-34.6574468017
  0
LINE
  5
31D
100
AcDbEntity
  8
0
100
AcDbLine
 62
7
  6
CONTINUOUS
 10
-24.4874999642
 20
-34.6574468017
 11
-24.7500000358
 21
-34.6574468017
  0
LINE
  5
31E
100
AcDbEntity
  8
0
100
AcDbLine
 62
7
  6
CONTINUOUS
 10
-23.0624999285
 20
-34.5425531983
 11
-22.8000000715
 21
-34.5425531983
  0
LINE
  5
31F
100
AcDbEntity
  8
0
100
AcDbLine
 62
7
  6
CONTINUOUS
 10
-21.4125
 20
-34.5425531983
 11
-21.1875
 21
-34.5425531983
  0
LINE
  5
320
100
AcDbEntity
  8
0
100
AcDbLine
 62
7
  6
CONTINUOUS
 10
-19.5750001431
 20
-34.5042553306
 11
-19.725
 21
-34.5042553306
  0
LINE
  5
321
100
AcDbEntity
  8
0
100
AcDbLine
 62
7
  6
CONTINUOUS
 10
-21.1875
 20
-34.3510638595
 11
-21.4125
 21
-34.3510638595
  0
LINE
  5
322
100
AcDbEntity
  8
0
100
AcDbLine
 62
7
  6
CONTINUOUS
 10
-22.8374999285
 20
-34.3510638595
 11
-23.0250000715
 21
-34.3510638595
  0
LINE
  5
323
100
AcDbEntity
  8
0
100
AcDbLine
 62
7
  6
CONTINUOUS
 10
-22.5375
 20
-34.1212765455
 11
-22.3499998569
 21
-34.1212765455
  0
LINE
  5
324
100
AcDbEntity
  8
0
100
AcDbLine
 62
7
  6
CONTINUOUS
 10
-20.2875
 20
-34.1212765455
 11
-20.0999998569
 21
-34.1212765455
  0
LINE
  5
325
100
AcDbEntity
  8
0
100
AcDbLine
 62
7
  6
CONTINUOUS
 10
-24.7500000358
 20
-33.8914893389
 11
-24.4874999642
 21
-33.8914893389
  0
LINE
  5
326
100
AcDbEntity
  8
0
100
AcDbLine
 62
7
  6
CONTINUOUS
 10
-23.0624999285
 20
-33.8914893389
 11
-22.8374999285
 21
-33.8914893389
  0
LINE
  5
327
100
AcDbEntity
  8
0
100
AcDbLine
 62
7
  6
CONTINUOUS
 10
-21.7874998569
 20
-33.8914893389
 11
-20.7000001431
 21
-33.8914893389
  0
LINE
  5
328
100
AcDbEntity
  8
0
100
AcDbLine
 62
7
  6
CONTINUOUS
 10
-19.725
 20
-33.8914893389
 11
-19.5750001431
 21
-33.8914893389
  0
LINE
  5
329
100
AcDbEntity
  8
0
100
AcDbLine
 62
7
  6
CONTINUOUS
 10
28.657055
 20
-33.875
 11
30.117556
 21
-33.875
  0
LINE
  5
32A
100
AcDbEntity
  8
0
100
AcDbLine
 62
7
  6
CONTINUOUS
 10
-19.6125
 20
-33.7
 11
-19.6875001431
 21
-33.7
  0
LINE
  5
32B
100
AcDbEntity
  8
0
100
AcDbLine
 62
7
  6
CONTINUOUS
 10
-20.7000001431
 20
-33.7
 11
-21.975
 21
-33.7
  0
LINE
  5
32C
100
AcDbEntity
  8
0
100
AcDbLine
 62
7
  6
CONTINUOUS
 10
-22.875
 20
-33.7
 11
-23.0250000715
 21
-33.7
  0
LINE
  5
32D
100
AcDbEntity
  8
0
100
AcDbLine
 62
7
  6
CONTINUOUS
 10
-24.5250000358
 20
-33.7
 11
-24.7124999642
 21
-33.7
  0
LINE
  5
32E
100
AcDbEntity
  8
0
100
AcDbLine
 62
7
  6
CONTINUOUS
 10
-25.575
 20
-33.7
 11
-25.8
 21
-33.7
  0
LINE
  5
32F
100
AcDbEntity
  8
0
100
AcDbLine
 62
7
  6
CONTINUOUS
 10
30.117556
 20
-33.125
 11
28.657051888
 21
-33.125
  0
LINE
  5
330
100
AcDbEntity
  8
0
100
AcDbLine
 62
7
  6
CONTINUOUS
 10
-31.694916
 20
-32.925
 11
-31.452726
 21
-32.925
  0
LINE
  5
331
100
AcDbEntity
  8
0
100
AcDbLine
 62
7
  6
CONTINUOUS
 10
-30.932208
 20
-32.925
 11
-30.684844
 21
-32.925
  0
LINE
  5
332
100
AcDbEntity
  8
0
100
AcDbLine
 62
7
  6
CONTINUOUS
 10
-30.164426
 20
-32.925
 11
-29.922138
 21
-32.925
  0
LINE
  5
333
100
AcDbEntity
  8
0
100
AcDbLine
 62
7
  6
CONTINUOUS
 10
-29.700542
 20
-32.925
 11
-29.442904
 21
-32.925
  0
LINE
  5
334
100
AcDbEntity
  8
0
100
AcDbLine
 62
7
  6
CONTINUOUS
 10
-28.324675
 20
-32.925
 11
-28.051521
 21
-32.925
  0
LINE
  5
335
100
AcDbEntity
  8
0
100
AcDbLine
 62
7
  6
CONTINUOUS
 10
-27.809338
 20
-32.925
 11
-27.0595081298
 21
-32.925
  0
LINE
  5
336
100
AcDbEntity
  8
0
100
AcDbLine
 62
7
  6
CONTINUOUS
 10
-25.936073
 20
-32.925
 11
-24.570379
 21
-32.925
  0
LINE
  5
337
100
AcDbEntity
  8
0
100
AcDbLine
 62
7
  6
CONTINUOUS
 10
-23.488148
 20
-32.925
 11
-23.23823
 21
-32.925
  0
LINE
  5
338
100
AcDbEntity
  8
0
100
AcDbLine
 62
7
  6
CONTINUOUS
 10
-22.810568
 20
-32.925
 11
-22.568265
 21
-32.925
  0
LINE
  5
339
100
AcDbEntity
  8
0
100
AcDbLine
 62
7
  6
CONTINUOUS
 10
-21.622618
 20
-32.925
 11
-21.341774
 21
-32.925
  0
LINE
  5
33A
100
AcDbEntity
  8
0
100
AcDbLine
 62
7
  6
CONTINUOUS
 10
-20.195208
 20
-32.925
 11
-19.945215
 21
-32.925
  0
LINE
  5
33B
100
AcDbEntity
  8
0
100
AcDbLine
 62
7
  6
CONTINUOUS
 10
-19.051095
 20
-32.925
 11
-18.801192
 21
-32.925
  0
LINE
  5
33C
100
AcDbEntity
  8
0
100
AcDbLine
 62
7
  6
CONTINUOUS
 10
-18.102905
 20
-32.925
 11
-17.845281
 21
-32.925
  0
LINE
  5
33D
100
AcDbEntity
  8
0
100
AcDbLine
 62
7
  6
CONTINUOUS
 10
-16.726948
 20
-32.925
 11
-16.453749
 21
-32.925
  0
LINE
  5
33E
100
AcDbEntity
  8
0
100
AcDbLine
 62
7
  6
CONTINUOUS
 10
-16.224538
 20
-32.925
 11
-15.036588
 21
-32.925
  0
LINE
  5
33F
100
AcDbEntity
  8
0
100
AcDbLine
 62
7
  6
CONTINUOUS
 10
-14.253349
 20
-32.925
 11
-14.00349
 21
-32.925
  0
LINE
  5
340
100
AcDbEntity
  8
0
100
AcDbLine
 62
7
  6
CONTINUOUS
 10
-27.0658705306
 20
-32.711199
 11
-27.55933
 21
-32.711199
  0
LINE
  5
341
100
AcDbEntity
  8
0
100
AcDbLine
 62
7
  6
CONTINUOUS
 10
-15.036588
 20
-32.703419
 11
-15.97453
 21
-32.703419
  0
LINE
  5
342
100
AcDbEntity
  8
0
100
AcDbLine
 62
7
  6
CONTINUOUS
 10
-24.570379
 20
-32.703419
 11
-25.68608
 21
-32.703419
  0
LINE
  5
343
100
AcDbEntity
  8
0
100
AcDbLine
 62
7
  6
CONTINUOUS
 10
-29.24963
 20
-32.386533
 11
-28.507595
 21
-32.386533
  0
LINE
  5
344
100
AcDbEntity
  8
0
100
AcDbLine
 62
7
  6
CONTINUOUS
 10
-17.651993
 20
-32.386533
 11
-16.909883
 21
-32.386533
  0
LINE
  5
345
100
AcDbEntity
  8
0
100
AcDbLine
 62
7
  6
CONTINUOUS
 10
-17.000086
 20
-32.164951
 11
-17.574686
 21
-32.164951
  0
LINE
  5
346
100
AcDbEntity
  8
0
100
AcDbLine
 62
7
  6
CONTINUOUS
 10
-28.597709
 20
-32.164951
 11
-29.172308
 21
-32.164951
  0
LINE
  5
347
100
AcDbEntity
  8
0
100
AcDbLine
 62
7
  6
CONTINUOUS
 10
-25.68608
 20
-32.085057
 11
-24.673464
 21
-32.085057
  0
LINE
  5
348
100
AcDbEntity
  8
0
100
AcDbLine
 62
7
  6
CONTINUOUS
 10
17.425177
 20
-32.029254
 11
17.780825
 21
-32.029254
  0
LINE
  5
349
100
AcDbEntity
  8
0
100
AcDbLine
 62
7
  6
CONTINUOUS
 10
18.224704
 20
-32.029254
 11
18.580209
 21
-32.029254
  0
LINE
  5
34A
100
AcDbEntity
  8
0
100
AcDbLine
 62
7
  6
CONTINUOUS
 10
-24.673464
 20
-31.863476
 11
-25.68608
 21
-31.863476
  0
LINE
  5
34B
100
AcDbEntity
  8
0
100
AcDbLine
 62
7
  6
CONTINUOUS
 10
18.580209
 20
-31.610297
 11
17.425177
 21
-31.610297
  0
LINE
  5
34C
100
AcDbEntity
  8
0
100
AcDbLine
 62
7
  6
CONTINUOUS
 10
-25.68608
 20
-31.296581
 11
-24.588438
 21
-31.296581
  0
LINE
  5
34D
100
AcDbEntity
  8
0
100
AcDbLine
 62
7
  6
CONTINUOUS
 10
-19.677238
 20
-31.296581
 11
-19.051095
 21
-31.296581
  0
LINE
  5
34E
100
AcDbEntity
  8
0
100
AcDbLine
 62
7
  6
CONTINUOUS
 10
-18.801192
 20
-31.296581
 11
-18.17505
 21
-31.296581
  0
LINE
  5
34F
100
AcDbEntity
  8
0
100
AcDbLine
 62
7
  6
CONTINUOUS
 10
-27.55933
 20
-31.288801
 11
-27.0658705306
 21
-31.288801
  0
LINE
  5
350
100
AcDbEntity
  8
0
100
AcDbLine
 62
7
  6
CONTINUOUS
 10
-13.305084
 20
-31.075
 11
-13.598929
 21
-31.075
  0
LINE
  5
351
100
AcDbEntity
  8
0
100
AcDbLine
 62
7
  6
CONTINUOUS
 10
-14.660454
 20
-31.075
 11
-14.951606
 21
-31.075
  0
LINE
  5
352
100
AcDbEntity
  8
0
100
AcDbLine
 62
7
  6
CONTINUOUS
 10
-15.97453
 20
-31.075
 11
-16.224538
 21
-31.075
  0
LINE
  5
353
100
AcDbEntity
  8
0
100
AcDbLine
 62
7
  6
CONTINUOUS
 10
-17.123774
 20
-31.075
 11
-17.407161
 21
-31.075
  0
LINE
  5
354
100
AcDbEntity
  8
0
100
AcDbLine
 62
7
  6
CONTINUOUS
 10
-18.17505
 20
-31.075
 11
-19.677238
 21
-31.075
  0
LINE
  5
355
100
AcDbEntity
  8
0
100
AcDbLine
 62
7
  6
CONTINUOUS
 10
-19.945215
 20
-31.075
 11
-20.195208
 21
-31.075
  0
LINE
  5
356
100
AcDbEntity
  8
0
100
AcDbLine
 62
7
  6
CONTINUOUS
 10
-21.341774
 20
-31.075
 11
-21.583957
 21
-31.075
  0
LINE
  5
357
100
AcDbEntity
  8
0
100
AcDbLine
 62
7
  6
CONTINUOUS
 10
-22.514194
 20
-31.075
 11
-22.810568
 21
-31.075
  0
LINE
  5
358
100
AcDbEntity
  8
0
100
AcDbLine
 62
7
  6
CONTINUOUS
 10
-23.23823
 20
-31.075
 11
-23.488148
 21
-31.075
  0
LINE
  5
359
100
AcDbEntity
  8
0
100
AcDbLine
 62
7
  6
CONTINUOUS
 10
-24.588438
 20
-31.075
 11
-25.936073
 21
-31.075
  0
LINE
  5
35A
100
AcDbEntity
  8
0
100
AcDbLine
 62
7
  6
CONTINUOUS
 10
-27.0516423485
 20
-31.075
 11
-27.809338
 21
-31.075
  0
LINE
  5
35B
100
AcDbEntity
  8
0
100
AcDbLine
 62
7
  6
CONTINUOUS
 10
-28.721411
 20
-31.075
 11
-29.004888
 21
-31.075
  0
LINE
  5
35C
100
AcDbEntity
  8
0
100
AcDbLine
 62
7
  6
CONTINUOUS
 10
-29.922138
 20
-31.075
 11
-30.27776
 21
-31.075
  0
LINE
  5
35D
100
AcDbEntity
  8
0
100
AcDbLine
 62
7
  6
CONTINUOUS
 10
-31.336753
 20
-31.075
 11
-31.694916
 21
-31.075
  0
LINE
  5
35E
100
AcDbEntity
  8
0
100
AcDbLine
 62
7
  6
CONTINUOUS
 10
11.6
 20
-35.5056842052
 11
10.9
 21
-35.5052022859
  0
LINE
  5
35F
100
AcDbEntity
  8
DRAFT
100
AcDbLine
 62
7
  6
CONTINUOUS
 10
34.5487419809
 20
-35.5499715907
 11
35.3507379165
 21
-35.5671747003
  0
LINE
  5
360
100
AcDbEntity
  8
0
100
AcDbLine
 62
7
  6
CONTINUOUS
 10
26.0295827028
 20
-31.7000374487
 11
26.132446
 21
-31.70278
  0
LWPOLYLINE
  5
361
100
AcDbEntity
  8
0
100
AcDbPolyline
 62
7
  6
CONTINUOUS
 90
25
 70
0
 10
-27.0658705306
 20
-31.288801
 10
-27.0265970844
 20
-31.2913545039
 10
-26.9885621986
 20
-31.2963337721
 10
-26.9517658731
 20
-31.3037387819
 10
-26.9161827952
 20
-31.3136066945
 10
-26.8818382777
 20
-31.3259002692
 10
-26.8488082589
 20
-31.3405078662
 10
-26.8170612866
 20
-31.3573884412
 10
-26.786628813
 20
-31.3765829014
 10
-26.7576811335
 20
-31.3981025212
 10
-26.7301762435
 20
-31.4219518276
 10
-26.7041561475
 20
-31.4481260925
 10
-26.6799171547
 20
-31.4766226921
 10
-26.6574631698
 20
-31.5074227289
 10
-26.6367902881
 20
-31.5405448366
 10
-26.6181831051
 20
-31.5760426693
 10
-26.601833771
 20
-31.613993914
 10
-26.5875501356
 20
-31.6543205416
 10
-26.5750403438
 20
-31.6968426256
 10
-26.564105545
 20
-31.7414152175
 10
-26.5549445897
 20
-31.7881828983
 10
-26.5478621745
 20
-31.8374000106
 10
-26.5429598649
 20
-31.889151161
 10
-26.5401360954
 20
-31.9433512461
 10
-26.539390866
 20
-32.0
  0
LINE
  5
362
100
AcDbEntity
  8
0
100
AcDbLine
 62
7
  6
CONTINUOUS
 10
-19.3500001431
 20
-33.7382978678
 11
-19.6125
 21
-33.7
  0
LINE
  5
363
100
AcDbEntity
  8
0
100
AcDbLine
 62
7
  6
CONTINUOUS
 10
-22.1
 20
-28.5
 11
-21.9020460546
 21
-28.5494696404
  0
LINE
  5
364
100
AcDbEntity
  8
0
100
AcDbLine
 62
7
  6
CONTINUOUS
 10
-24.1139597987
 20
-26.9465113794
 11
-24.2676196936
 21
-26.9081110346
  0
LINE
  5
365
100
AcDbEntity
  8
DRAFT
100
AcDbLine
 62
7
  6
CONTINUOUS
 10
-21.6463883491
 20
-26.8965183637
 11
-21.6
 21
-26.9081110346
  0
LWPOLYLINE
  5
366
100
AcDbEntity
  8
0
100
AcDbPolyline
 62
7
  6
CONTINUOUS
 90
10
 70
0
 10
-21.9020460546
 20
-28.5494696404
 10
-21.9019138551
 20
-28.5495265891
 10
-21.9017817333
 20
-28.5496312377
 10
-21.9016496894
 20
-28.5497835863
 10
-21.9015177044
 20
-28.5499836679
 10
-21.9013857971
 20
-28.5502314495
 10
-21.901254024
 20
-28.5505268316
 10
-21.9011224041
 20
-28.5508697811
 10
-21.9009909183
 20
-28.5512603312
 10
-21.9008595668
 20
-28.5516984818
  0
LINE
  5
367
100
AcDbEntity
  8
0
100
AcDbLine
 62
7
  6
CONTINUOUS
 10
-23.3468102756
 20
-24.0265867593
 11
-23.4
 21
-24.0
  0
LINE
  5
368
100
AcDbEntity
  8
0
100
AcDbLine
 62
7
  6
CONTINUOUS
 10
-20.7323803064
 20
-24.0
 11
-20.6893090811
 21
-24.0215290512
  0
LINE
  5
369
100
AcDbEntity
  8
0
100
AcDbLine
 62
7
  6
CONTINUOUS
 10
-24.1141963536
 20
-26.9465093858
 11
-23.7
 21
-27.35
  0
LINE
  5
36A
100
AcDbEntity
  8
0
100
AcDbLine
 62
7
  6
CONTINUOUS
 10
-21.6178933968
 20
-28.8600557844
 11
-21.6019546125
 21
-28.8759468191
  0
LINE
  5
36B
100
AcDbEntity
  8
0
100
AcDbLine
 62
7
  6
CONTINUOUS
 10
-21.6160772393
 20
-28.2593709863
 11
-21.600136964
 21
-28.2752649765
  0
LINE
  5
36C
100
AcDbEntity
  8
0
100
AcDbLine
 62
7
  6
CONTINUOUS
 10
-21.8999542122
 20
-27.9500457878
 11
-22.1
 21
-27.75
  0
LINE
  5
36D
100
AcDbEntity
  8
0
100
AcDbLine
 62
253
  6
CONTINUOUS
 10
-21.1963209205
 20
-27.7534963276
 11
-20.999767363
 21
-27.9500457878
  0
LINE
  5
36E
100
AcDbEntity
  8
0
100
AcDbLine
 62
253
  6
CONTINUOUS
 10
-20.8860402013
 20
-27.4641425506
 11
-20.6982180393
 21
-27.651961212
  0
LINE
  5
36F
100
AcDbEntity
  8
0
100
AcDbLine
 62
7
  6
CONTINUOUS
 10
-21.6480987974
 20
-28.2269621188
 11
-21.6160772393
 21
-28.2593709863
  0
LINE
  5
370
100
AcDbEntity
  8
0
100
AcDbLine
 62
7
  6
CONTINUOUS
 10
-21.6499118828
 20
-28.8276434954
 11
-21.6178933968
 21
-28.8600557844
  0
LINE
  5
371
100
AcDbEntity
  8
0
100
AcDbLine
 62
7
  6
CONTINUOUS
 10
-21.6804201
 20
-28.1940553931
 11
-21.6480987974
 21
-28.2269621188
  0
LINE
  5
372
100
AcDbEntity
  8
0
100
AcDbLine
 62
7
  6
CONTINUOUS
 10
-21.6822299859
 20
-28.7947202098
 11
-21.6499118828
 21
-28.8276434954
  0
LINE
  5
373
100
AcDbEntity
  8
0
100
AcDbLine
 62
7
  6
CONTINUOUS
 10
-21.7282497702
 20
-28.1447100405
 11
-21.6804201
 21
-28.1940553931
  0
LINE
  5
374
100
AcDbEntity
  8
0
100
AcDbLine
 62
7
  6
CONTINUOUS
 10
-21.7300547023
 20
-28.7453238453
 11
-21.6822299859
 21
-28.7947202098
  0
LINE
  5
375
100
AcDbEntity
  8
0
100
AcDbLine
 62
7
  6
CONTINUOUS
 10
-21.7739906074
 20
-28.0967001888
 11
-21.7282497702
 21
-28.1447100405
  0
LINE
  5
376
100
AcDbEntity
  8
0
100
AcDbLine
 62
7
  6
CONTINUOUS
 10
-21.775790439
 20
-28.6972298427
 11
-21.7300547023
 21
-28.7453238453
  0
LWPOLYLINE
  5
377
100
AcDbEntity
  8
0
100
AcDbPolyline
 62
7
  6
CONTINUOUS
 90
4
 70
0
 10
-21.8289262891
 20
-28.0374428793
 10
-21.8160695883
 20
-28.0515626317
 10
-21.8025096174
 20
-28.0661664709
 10
-21.7739906074
 20
-28.0967001888
  0
LWPOLYLINE
  5
378
100
AcDbEntity
  8
0
100
AcDbPolyline
 62
7
  6
CONTINUOUS
 90
4
 70
0
 10
-21.8307191254
 20
-28.6378051504
 10
-21.8178641835
 20
-28.6519729641
 10
-21.8043059731
 20
-28.6666205811
 10
-21.775790439
 20
-28.6972298427
  0
LINE
  5
379
100
AcDbEntity
  8
0
100
AcDbLine
 62
7
  6
CONTINUOUS
 10
-20.9250001431
 20
-34.6574468017
 11
-20.85
 21
-34.772340405
  0
LINE
  5
37A
100
AcDbEntity
  8
0
100
AcDbLine
 62
7
  6
CONTINUOUS
 10
-20.2875
 20
-35.193617031
 11
-20.2124998569
 21
-35.3085106343
  0
LINE
  5
37B
100
AcDbEntity
  8
0
100
AcDbLine
 62
7
  6
CONTINUOUS
 10
-19.0125001431
 20
-34.772340405
 11
-19.0874998569
 21
-34.6574468017
  0
LINE
  5
37C
100
AcDbEntity
  8
0
100
AcDbLine
 62
7
  6
CONTINUOUS
 10
-19.275
 20
-34.0063829422
 11
-19.1999998569
 21
-34.1212765455
  0
LINE
  5
37D
100
AcDbEntity
  8
0
100
AcDbLine
 62
7
  6
CONTINUOUS
 10
-22.568265
 20
-31.422579
 11
-21.622618
 21
-32.925
  0
LINE
  5
37E
100
AcDbEntity
  8
0
100
AcDbLine
 62
7
  6
CONTINUOUS
 10
-21.583957
 20
-32.577726
 11
-22.514194
 21
-31.075
  0
LWPOLYLINE
  5
37F
100
AcDbEntity
  8
0
100
AcDbPolyline
 62
7
  6
CONTINUOUS
 90
9
 70
0
 10
-21.8990796797
 20
-27.9519724288
 10
-21.8968635194
 20
-27.9559431926
 10
-21.8931315319
 20
-27.961739291
 10
-21.8878837171
 20
-27.969156161
 10
-21.8809585257
 20
-27.9779728169
 10
-21.8725175069
 20
-27.9880011313
 10
-21.8630453091
 20
-27.9991149172
 10
-21.8525941785
 20
-28.0111428964
 10
-21.8289262891
 20
-28.0374428793
  0
LWPOLYLINE
  5
380
100
AcDbEntity
  8
0
100
AcDbPolyline
 62
7
  6
CONTINUOUS
 90
9
 70
0
 10
-21.9008596262
 20
-28.5516983052
 10
-21.898644224
 20
-28.5557579317
 10
-21.8949132006
 20
-28.5616387915
 10
-21.8896665558
 20
-28.5691359728
 10
-21.8827427902
 20
-28.5780281126
 10
-21.8743034034
 20
-28.5881270581
 10
-21.8648328937
 20
-28.5993068767
 10
-21.8543834757
 20
-28.6113961839
 10
-21.8307191254
 20
-28.6378051504
  0
LINE
  5
381
100
AcDbEntity
  8
0
100
AcDbLine
 62
7
  6
CONTINUOUS
 10
-21.975
 20
-35.0404255331
 11
-21.8999998569
 21
-35.193617031
  0
LINE
  5
382
100
AcDbEntity
  8
0
100
AcDbLine
 62
7
  6
CONTINUOUS
 10
-21.6749998569
 20
-35.193617031
 11
-21.75
 21
-35.0404255331
  0
LINE
  5
383
100
AcDbEntity
  8
0
100
AcDbLine
 62
7
  6
CONTINUOUS
 10
-20.0999998569
 20
-35.1553191364
 11
-20.1375001431
 21
-35.0787234008
  0
LINE
  5
384
100
AcDbEntity
  8
0
100
AcDbLine
 62
7
  6
CONTINUOUS
 10
-19.2375001431
 20
-34.772340405
 11
-19.1625
 21
-34.9255319297
  0
LINE
  5
385
100
AcDbEntity
  8
0
100
AcDbLine
 62
7
  6
CONTINUOUS
 10
-25.2750000179
 20
-34.3510638595
 11
-25.1999999821
 21
-34.5425531983
  0
LINE
  5
386
100
AcDbEntity
  8
0
100
AcDbLine
 62
7
  6
CONTINUOUS
 10
-23.9624999285
 20
-34.1978723884
 11
-24.0375000715
 21
-34.0063829422
  0
LINE
  5
387
100
AcDbEntity
  8
0
100
AcDbLine
 62
7
  6
CONTINUOUS
 10
-23.5875000715
 20
-35.0021276653
 11
-23.5124999285
 21
-35.193617031
  0
LINE
  5
388
100
AcDbEntity
  8
0
100
AcDbLine
 62
7
  6
CONTINUOUS
 10
-22.2750001431
 20
-34.8106382728
 11
-22.3499998569
 21
-34.6191489339
  0
LINE
  5
389
100
AcDbEntity
  8
0
100
AcDbLine
 62
7
  6
CONTINUOUS
 10
-20.625
 20
-34.8489361942
 11
-20.7000001431
 21
-34.6574468017
  0
LINE
  5
38A
100
AcDbEntity
  8
0
100
AcDbLine
 62
7
  6
CONTINUOUS
 10
-25.1999999821
 20
-35.0787234008
 11
-25.1625000179
 21
-35.193617031
  0
LINE
  5
38B
100
AcDbEntity
  8
0
100
AcDbLine
 62
7
  6
CONTINUOUS
 10
-25.0499999642
 20
-34.427659595
 11
-25.0875000358
 21
-34.3127659917
  0
LINE
  5
38C
100
AcDbEntity
  8
0
100
AcDbLine
 62
7
  6
CONTINUOUS
 10
-24.1874999285
 20
-34.1212765455
 11
-24.1500000715
 21
-34.2361702561
  0
LINE
  5
38D
100
AcDbEntity
  8
0
100
AcDbLine
 62
7
  6
CONTINUOUS
 10
-23.3625000715
 20
-35.0787234008
 11
-23.3999999285
 21
-34.9638297975
  0
LINE
  5
38E
100
AcDbEntity
  8
0
100
AcDbLine
 62
7
  6
CONTINUOUS
 10
-22.4999999285
 20
-34.7340425372
 11
-22.4625000715
 21
-34.8489361942
  0
LINE
  5
38F
100
AcDbEntity
  8
0
100
AcDbLine
 62
7
  6
CONTINUOUS
 10
-22.3499998569
 20
-34.1212765455
 11
-22.3875001431
 21
-34.0063829422
  0
LINE
  5
390
100
AcDbEntity
  8
0
100
AcDbLine
 62
7
  6
CONTINUOUS
 10
-20.85
 20
-34.772340405
 11
-20.8125001431
 21
-34.887234062
  0
LINE
  5
391
100
AcDbEntity
  8
DRAFT
100
AcDbLine
 62
7
  6
CONTINUOUS
 10
-38.9047809173
 20
24.0676118328
 11
-38.8737920989
 21
23.788869094
  0
LWPOLYLINE
  5
392
100
AcDbEntity
  8
0
100
AcDbPolyline
 62
253
  6
CONTINUOUS
 90
25
 70
0
 10
-24.3017819335
 20
-27.6519684582
 10
-24.3010491946
 20
-27.6715255789
 10
-24.2990318281
 20
-27.6909906653
 10
-24.2957392418
 20
-27.7102801042
 10
-24.2911866725
 20
-27.7293081351
 10
-24.2853942838
 20
-27.7479963183
 10
-24.2783853362
 20
-27.7662733558
 10
-24.2701867542
 20
-27.7840648125
 10
-24.2608344027
 20
-27.8012893807
 10
-24.2503721057
 20
-27.8178686011
 10
-24.2388461538
 20
-27.8337298102
 10
-24.2263050037
 20
-27.8488069811
 10
-24.2128035562
 20
-27.8630368513
 10
-24.1983995595
 20
-27.8763587725
 10
-24.1831547925
 20
-27.8887157802
 10
-24.1671359502
 20
-27.9000560822
 10
-24.1504098457
 20
-27.9103325187
 10
-24.1330495565
 20
-27.9195002368
 10
-24.1151362466
 20
-27.9275189703
 10
-24.0967580162
 20
-27.9343523238
 10
-24.0779829047
 20
-27.9399779004
 10
-24.058863708
 20
-27.944379851
 10
-24.0394715722
 20
-27.94753717
 10
-24.0198974686
 20
-27.9494297938
 10
-24.000224586
 20
-27.9500457817
  0
LWPOLYLINE
  5
393
100
AcDbEntity
  8
0
100
AcDbPolyline
 62
253
  6
CONTINUOUS
 90
25
 70
0
 10
-24.6015991994
 20
-27.6762830578
 10
-24.6001489435
 20
-27.7157959962
 10
-24.5961906404
 20
-27.7547946328
 10
-24.5897242899
 20
-27.793278995
 10
-24.5807024104
 20
-27.8314029679
 10
-24.5691724835
 20
-27.8690127152
 10
-24.5552769543
 20
-27.9056467072
 10
-24.5389825089
 20
-27.9413015746
 10
-24.5203224611
 20
-27.9759807893
 10
-24.4995391981
 20
-28.0092331318
 10
-24.4766069688
 20
-28.0410364538
 10
-24.4515515242
 20
-28.0714130422
 10
-24.4246925043
 20
-28.0999783663
 10
-24.396006959
 20
-28.1267096689
 10
-24.3655178384
 20
-28.1516298589
 10
-24.3336136321
 20
-28.1744229283
 10
-24.3002712169
 20
-28.1950628795
 10
-24.2655137159
 20
-28.2135758513
 10
-24.2297989894
 20
-28.2297240487
 10
-24.1931350675
 20
-28.2434732454
 10
-24.1555139199
 20
-28.2548577767
 10
-24.1173693164
 20
-28.2637426858
 10
-24.0788458468
 20
-28.2700830077
 10
-24.0397989212
 20
-28.2739237663
 10
-24.0002285397
 20
-28.2752649765
  0
LWPOLYLINE
  5
394
100
AcDbEntity
  8
0
100
AcDbPolyline
 62
7
  6
CONTINUOUS
 90
25
 70
0
 10
-26.2822290582
 20
-32.0
 10
-26.2827028396
 20
-31.9211264048
 10
-26.2873074999
 20
-31.8457326798
 10
-26.2960430392
 20
-31.7738193535
 10
-26.3093348788
 20
-31.7053923519
 10
-26.3267575973
 20
-31.6404467238
 10
-26.347034931
 20
-31.5789666387
 10
-26.3698247115
 20
-31.5206909281
 10
-26.3954691071
 20
-31.4658815529
 10
-26.4237183595
 20
-31.4153074166
 10
-26.4549131207
 20
-31.3695089509
 10
-26.4887127386
 20
-31.327946541
 10
-26.5238454987
 20
-31.2897689792
 10
-26.5598944389
 20
-31.2547134012
 10
-26.5972765211
 20
-31.2230431303
 10
-26.6359709173
 20
-31.1946961353
 10
-26.6758972679
 20
-31.1698208973
 10
-26.7171359324
 20
-31.1482692733
 10
-26.7599071612
 20
-31.1295342399
 10
-26.8041923909
 20
-31.1134565668
 10
-26.8500101849
 20
-31.1001956644
 10
-26.8976364836
 20
-31.089722427
 10
-26.9471632671
 20
-31.0820271836
 10
-26.9984985554
 20
-31.0771196995
 10
-27.0516423485
 20
-31.075
  0
LINE
  5
395
100
AcDbEntity
  8
0
100
AcDbLine
 62
253
  6
CONTINUOUS
 10
-24.610534333
 20
-24.0265867593
 11
-24.6015991994
 21
-27.6762830578
  0
LINE
  5
396
100
AcDbEntity
  8
0
100
AcDbLine
 62
253
  6
CONTINUOUS
 10
-24.3106909189
 20
-24.0215290512
 11
-24.3017819411
 21
-27.6519684658
  0
LINE
  5
397
100
AcDbEntity
  8
0
100
AcDbLine
 62
7
  6
CONTINUOUS
 10
-30.164426
 20
-31.371239
 11
-30.164426
 21
-32.925
  0
LINE
  5
398
100
AcDbEntity
  8
0
100
AcDbLine
 62
7
  6
CONTINUOUS
 10
-29.922138
 20
-32.925
 11
-29.922138
 21
-31.075
  0
LINE
  5
399
100
AcDbEntity
  8
0
100
AcDbLine
 62
7
  6
CONTINUOUS
 10
-27.809338
 20
-31.075
 11
-27.809338
 21
-32.925
  0
LINE
  5
39A
100
AcDbEntity
  8
0
100
AcDbLine
 62
7
  6
CONTINUOUS
 10
-27.55933
 20
-32.711199
 11
-27.55933
 21
-31.288801
  0
LINE
  5
39B
100
AcDbEntity
  8
0
100
AcDbLine
 62
7
  6
CONTINUOUS
 10
-26.779278
 20
35.612349
 11
-26.779278
 21
31.612597
  0
LINE
  5
39C
100
AcDbEntity
  8
0
100
AcDbLine
 62
7
  6
CONTINUOUS
 10
-26.025
 20
-33.9680850744
 11
-26.025
 21
-34.2744681239
  0
LINE
  5
39D
100
AcDbEntity
  8
0
100
AcDbLine
 62
7
  6
CONTINUOUS
 10
-25.944423
 20
31.612597
 11
-25.944423
 21
35.612349
  0
LINE
  5
39E
100
AcDbEntity
  8
0
100
AcDbLine
 62
7
  6
CONTINUOUS
 10
-25.936073
 20
-31.075
 11
-25.936073
 21
-32.925
  0
LINE
  5
39F
100
AcDbEntity
  8
0
100
AcDbLine
 62
7
  6
CONTINUOUS
 10
-25.8
 20
-34.0063829422
 11
-25.8
 21
-35.5
  0
LINE
  5
3A0
100
AcDbEntity
  8
0
100
AcDbLine
 62
7
  6
CONTINUOUS
 10
-25.68608
 20
-32.703419
 11
-25.68608
 21
-32.085057
  0
LINE
  5
3A1
100
AcDbEntity
  8
0
100
AcDbLine
 62
7
  6
CONTINUOUS
 10
-25.68608
 20
-31.863476
 11
-25.68608
 21
-31.296581
  0
LINE
  5
3A2
100
AcDbEntity
  8
0
100
AcDbLine
 62
7
  6
CONTINUOUS
 10
-25.575
 20
-35.5
 11
-25.575
 21
-33.7
  0
LINE
  5
3A3
100
AcDbEntity
  8
0
100
AcDbLine
 62
7
  6
CONTINUOUS
 10
-25.2750000179
 20
-34.1978723884
 11
-25.2750000179
 21
-34.3510638595
  0
LINE
  5
3A4
100
AcDbEntity
  8
0
100
AcDbLine
 62
7
  6
CONTINUOUS
 10
-25.0875000358
 20
-34.3127659917
 11
-25.0875000358
 21
-34.2361702561
  0
LINE
  5
3A5
100
AcDbEntity
  8
0
100
AcDbLine
 62
7
  6
CONTINUOUS
 10
-24.673464
 20
-32.085057
 11
-24.673464
 21
-31.863476
  0
LINE
  5
3A6
100
AcDbEntity
  8
0
100
AcDbLine
 62
7
  6
CONTINUOUS
 10
-24.588438
 20
-31.296581
 11
-24.588438
 21
-31.075
  0
LINE
  5
3A7
100
AcDbEntity
  8
0
100
AcDbLine
 62
7
  6
CONTINUOUS
 10
-24.570379
 20
-32.925
 11
-24.570379
 21
-32.703419
  0
LINE
  5
3A8
100
AcDbEntity
  8
0
100
AcDbLine
 62
253
  6
CONTINUOUS
 10
-24.6015991994
 20
27.6762830578
 11
-24.610534333
 21
24.0265867593
  0
LINE
  5
3A9
100
AcDbEntity
  8
0
100
AcDbLine
 62
253
  6
CONTINUOUS
 10
-24.3017819607
 20
27.651961212
 11
-24.3106909189
 21
24.0215290512
  0
LWPOLYLINE
  5
3AA
100
AcDbEntity
  8
0
100
AcDbPolyline
 62
7
  6
CONTINUOUS
 90
25
 70
0
 10
-26.539390866
 20
-32.0
 10
-26.5401377605
 20
-32.0566739954
 10
-26.5429642881
 20
-32.1108952914
 10
-26.5478704489
 20
-32.1626641447
 10
-26.5549578156
 20
-32.2118963082
 10
-26.5641248154
 20
-32.258676516
 10
-26.5750667304
 20
-32.3032584565
 10
-26.5875851526
 20
-32.3457870147
 10
-26.60187849
 20
-32.3861176736
 10
-26.6182372487
 20
-32.4240699972
 10
-26.6368533257
 20
-32.4595658856
 10
-26.657534824
 20
-32.4926837903
 10
-26.6799965588
 20
-32.5234780964
 10
-26.7042427907
 20
-32.5519680424
 10
-26.7302692591
 20
-32.578134666
 10
-26.7577779973
 20
-32.6019750319
 10
-26.7867264188
 20
-32.6234841015
 10
-26.81715711
 20
-32.6426671271
 10
-26.8488998636
 20
-32.6595365935
 10
-26.881923823
 20
-32.6741336797
 10
-26.9162598448
 20
-32.6864173541
 10
-26.9518302903
 20
-32.6962767707
 10
-26.98860928
 20
-32.7036750107
 10
-27.0266226934
 20
-32.7086490789
 10
-27.0658705306
 20
-32.711199
  0
LINE
  5
3AB
100
AcDbEntity
  8
0
100
AcDbLine
 62
7
  6
CONTINUOUS
 10
-24.69631
 20
31.612597
 11
-24.516148
 21
34.224203
  0
LINE
  5
3AC
100
AcDbEntity
  8
0
100
AcDbLine
 62
7
  6
CONTINUOUS
 10
-25.133862
 20
35.612109
 11
-25.494994
 21
31.612597
  0
LINE
  5
3AD
100
AcDbEntity
  8
0
100
AcDbLine
 62
7
  6
CONTINUOUS
 10
-20.080763
 20
33.028875
 11
-19.665075
 21
34.513145
  0
LINE
  5
3AE
100
AcDbEntity
  8
0
100
AcDbLine
 62
7
  6
CONTINUOUS
 10
-20.481905
 20
31.612597
 11
-20.251537
 21
32.411042
  0
LWPOLYLINE
  5
3AF
100
AcDbEntity
  8
0
100
AcDbPolyline
 62
7
  6
CONTINUOUS
 90
10
 70
0
 10
-21.9008595627
 20
28.5516984938
 10
-21.9009909161
 20
28.5512603378
 10
-21.9011224032
 20
28.5508697838
 10
-21.901254024
 20
28.5505268316
 10
-21.9013857974
 20
28.5502314486
 10
-21.9015177045
 20
28.5499836675
 10
-21.9016496894
 20
28.5497835863
 10
-21.9017817333
 20
28.5496312377
 10
-21.9019138551
 20
28.5495265891
 10
-21.9020460546
 20
28.5494696404
  0
LINE
  5
3B0
100
AcDbEntity
  8
0
100
AcDbLine
 62
7
  6
CONTINUOUS
 10
-20.053201
 20
35.612109
 11
-21.307703
 21
31.612597
  0
LINE
  5
3B1
100
AcDbEntity
  8
DRAFT
100
AcDbLine
 62
7
  6
CONTINUOUS
 10
-59.0
 20
-23.3
 11
-58.8888009746
 21
-23.1888009746
  0
LINE
  5
3B2
100
AcDbEntity
  8
DRAFT
100
AcDbLine
 62
7
  6
CONTINUOUS
 10
-35.4012393766
 20
-0.4512393766
 11
-35.4216797993
 21
-0.4716797993
  0
LINE
  5
3B3
100
AcDbEntity
  8
0
100
AcDbLine
 62
7
  6
CONTINUOUS
 10
-10.8162156883
 20
24.0
 11
-10.789628929
 21
24.0265867593
  0
LINE
  5
3B4
100
AcDbEntity
  8
0
100
AcDbLine
 62
7
  6
CONTINUOUS
 10
21.611109
 20
33.245159
 11
21.682955
 21
33.26789
  0
LINE
  5
3B5
100
AcDbEntity
  8
0
100
AcDbLine
 62
7
  6
CONTINUOUS
 10
21.507021
 20
33.750623
 11
21.455314
 21
33.734524
  0
LINE
  5
3B6
100
AcDbEntity
  8
0
100
AcDbLine
 62
7
  6
CONTINUOUS
 10
-19.5
 20
-35.5
 11
-19.3500001431
 21
-35.4617021289
  0
LINE
  5
3B7
100
AcDbEntity
  8
0
100
AcDbLine
 62
7
  6
CONTINUOUS
 10
-21.0375001431
 20
-35.2702127665
 11
-21.1875
 21
-35.3085106343
  0
LINE
  5
3B8
100
AcDbEntity
  8
0
100
AcDbLine
 62
7
  6
CONTINUOUS
 10
-21.5624998569
 20
-34.5808510661
 11
-21.4125
 21
-34.5425531983
  0
LINE
  5
3B9
100
AcDbEntity
  8
0
100
AcDbLine
 62
7
  6
CONTINUOUS
 10
-0.4
 20
-27.5
 11
-0.6020690266
 21
-27.5504980189
  0
LINE
  5
3BA
100
AcDbEntity
  8
0
100
AcDbLine
 62
7
  6
CONTINUOUS
 10
1.6139677759
 20
-25.2465093858
 11
1.7676196936
 21
-25.2081110346
  0
LINE
  5
3BB
100
AcDbEntity
  8
0
100
AcDbLine
 62
7
  6
CONTINUOUS
 10
-21.1875
 20
-35.5
 11
-20.9999998569
 21
-35.4617021289
  0
LINE
  5
3BC
100
AcDbEntity
  8
0
100
AcDbLine
 62
7
  6
CONTINUOUS
 10
-22.8374999285
 20
-35.5
 11
-22.65
 21
-35.4617021289
  0
LINE
  5
3BD
100
AcDbEntity
  8
0
100
AcDbLine
 62
7
  6
CONTINUOUS
 10
-24.5250000358
 20
-35.5
 11
-24.3375
 21
-35.4617021289
  0
LINE
  5
3BE
100
AcDbEntity
  8
0
100
AcDbLine
 62
7
  6
CONTINUOUS
 10
-21.4125
 20
-34.3510638595
 11
-21.6000001431
 21
-34.3893617272
  0
LINE
  5
3BF
100
AcDbEntity
  8
0
100
AcDbLine
 62
7
  6
CONTINUOUS
 10
-19.9125001431
 20
-33.9297872066
 11
-19.725
 21
-33.8914893389
  0
LINE
  5
3C0
100
AcDbEntity
  8
0
100
AcDbLine
 62
7
  6
CONTINUOUS
 10
-24.5250000358
 20
-34.8489361942
 11
-24.3375
 21
-34.8106382728
  0
LINE
  5
3C1
100
AcDbEntity
  8
0
100
AcDbLine
 62
7
  6
CONTINUOUS
 10
-23.0250000715
 20
-34.3510638595
 11
-23.2125
 21
-34.3893617272
  0
LINE
  5
3C2
100
AcDbEntity
  8
0
100
AcDbLine
 62
7
  6
CONTINUOUS
 10
-23.0250000715
 20
-33.7
 11
-23.2125
 21
-33.7382978678
  0
LINE
  5
3C3
100
AcDbEntity
  8
0
100
AcDbLine
 62
7
  6
CONTINUOUS
 10
-24.7124999642
 20
-33.7
 11
-24.9
 21
-33.7382978678
  0
LINE
  5
3C4
100
AcDbEntity
  8
0
100
AcDbLine
 62
7
  6
CONTINUOUS
 10
-19.6875001431
 20
-33.7
 11
-19.95
 21
-33.7382978678
  0
LWPOLYLINE
  5
3C5
100
AcDbEntity
  8
0
100
AcDbPolyline
 62
7
  6
CONTINUOUS
 90
5
 70
0
 10
-0.6020690266
 20
-27.5504980189
 10
-0.6041207113
 20
-27.5507229825
 10
-0.6082331334
 20
-27.5509425019
 10
-0.614406293
 20
-27.5511565772
 10
-0.6226796324
 20
-27.5513663518
  0
LINE
  5
3C6
100
AcDbEntity
  8
DRAFT
100
AcDbLine
 62
7
  6
CONTINUOUS
 10
-35.3655602373
 20
-27.608358935
 11
-34.5338596918
 21
-27.5507990126
  0
LINE
  5
3C7
100
AcDbEntity
  8
0
100
AcDbLine
 62
7
  6
CONTINUOUS
 10
21.3
 20
-27.75
 11
21.1963209205
 21
-27.7534963276
  0
LINE
  5
3C8
100
AcDbEntity
  8
0
100
AcDbLine
 62
7
  6
CONTINUOUS
 10
-23.7
 20
-27.75
 11
-23.8036790795
 21
-27.7534963276
  0
LWPOLYLINE
  5
3C9
100
AcDbEntity
  8
0
100
AcDbPolyline
 62
253
  6
CONTINUOUS
 90
25
 70
0
 10
1.5049531088
 20
-26.576917156
 10
1.5444110398
 20
-26.5755882824
 10
1.5833680043
 20
-26.5717624442
 10
1.6218240023
 20
-26.5654396284
 10
1.6599311868
 20
-26.5565747029
 10
1.6975374048
 20
-26.5452127483
 10
1.7341861968
 20
-26.5314890603
 10
1.7698755565
 20
-26.5153711036
 10
1.8046074903
 20
-26.4968913182
 10
1.8379315577
 20
-26.4762824591
 10
1.8698272578
 20
-26.4535184557
 10
1.9003150914
 20
-26.4286252548
 10
1.9290061212
 20
-26.4019136454
 10
1.9558787514
 20
-26.3733596186
 10
1.9809545777
 20
-26.3429870501
 10
2.0039094497
 20
-26.3111785757
 10
2.024717891
 20
-26.2779093649
 10
2.0434053781
 20
-26.2432041262
 10
2.0597241904
 20
-26.2075198363
 10
2.0736395668
 20
-26.1708623703
 10
2.0851862685
 20
-26.1332257637
 10
2.094220858
 20
-26.0950492751
 10
2.1006955229
 20
-26.056479317
 10
2.1046580758
 20
-26.0173694321
 10
2.1061085165
 20
-25.9777195953
  0
LINE
  5
3CA
100
AcDbEntity
  8
0
100
AcDbLine
 62
7
  6
CONTINUOUS
 10
-1.2
 20
-26.05
 11
-1.3036790795
 21
-26.0534963276
  0
LWPOLYLINE
  5
3CB
100
AcDbEntity
  8
0
100
AcDbPolyline
 62
253
  6
CONTINUOUS
 90
25
 70
0
 10
24.0002285397
 20
-28.2752649765
 10
24.0396700707
 20
-28.2739382669
 10
24.0786135975
 20
-28.2701167543
 10
24.1170591201
 20
-28.2638004238
 10
24.1551586974
 20
-28.2549445546
 10
24.1927602705
 20
-28.243593809
 10
24.2294076623
 20
-28.2298822351
 10
24.2650991359
 20
-28.2137772573
 10
24.2998364282
 20
-28.1953113428
 10
24.3331685727
 20
-28.1747161002
 10
24.3650752482
 20
-28.1519652876
 10
24.3955767759
 20
-28.1270850058
 10
24.4242831527
 20
-28.1003853858
 10
24.4511728321
 20
-28.071842196
 10
24.4762673607
 20
-28.0414795157
 10
24.4992413753
 20
-28.0096799648
 10
24.5200693178
 20
-27.9764185127
 10
24.5387767462
 20
-27.9417200503
 10
24.555114972
 20
-27.906042116
 10
24.5690490431
 20
-27.8693903596
 10
24.5806139116
 20
-27.8317590287
 10
24.5896657447
 20
-27.7935886057
 10
24.5961565983
 20
-27.75502591
 10
24.6001344165
 20
-27.7159240704
 10
24.6015991994
 20
-27.6762830578
  0
LWPOLYLINE
  5
3CC
100
AcDbEntity
  8
0
100
AcDbPolyline
 62
253
  6
CONTINUOUS
 90
25
 70
0
 10
-20.9997714603
 20
-28.2752649765
 10
-20.9603299293
 20
-28.2739382669
 10
-20.9213864025
 20
-28.2701167543
 10
-20.8829408799
 20
-28.2638004238
 10
-20.8448413026
 20
-28.2549445546
 10
-20.8072397295
 20
-28.243593809
 10
-20.7705923377
 20
-28.2298822351
 10
-20.7349008641
 20
-28.2137772573
 10
-20.7001635718
 20
-28.1953113428
 10
-20.6668314273
 20
-28.1747161002
 10
-20.6349247518
 20
-28.1519652876
 10
-20.6044232241
 20
-28.1270850058
 10
-20.5757168473
 20
-28.1003853858
 10
-20.5488271679
 20
-28.071842196
 10
-20.5237326393
 20
-28.0414795157
 10
-20.5007586247
 20
-28.0096799648
 10
-20.4799306822
 20
-27.9764185127
 10
-20.4612232538
 20
-27.9417200503
 10
-20.444885028
 20
-27.906042116
 10
-20.4309509569
 20
-27.8693903596
 10
-20.4193860884
 20
-27.8317590287
 10
-20.4103342553
 20
-27.7935886057
 10
-20.4038434017
 20
-27.75502591
 10
-20.3998655835
 20
-27.7159240704
 10
-20.3984008006
 20
-27.6762830578
  0
LWPOLYLINE
  5
3CD
100
AcDbEntity
  8
0
100
AcDbPolyline
 62
7
  6
CONTINUOUS
 90
7
 70
0
 10
20.6461168447
 20
-24.0240602574
 10
20.6583776641
 20
-24.0236704869
 10
20.6686995995
 20
-24.0232630397
 10
20.6769654309
 20
-24.0228445129
 10
20.6831360849
 20
-24.0224171053
 10
20.687250635
 20
-24.0219786181
 10
20.6893090811
 20
-24.0215290512
  0
LWPOLYLINE
  5
3CE
100
AcDbEntity
  8
0
100
AcDbPolyline
 62
253
  6
CONTINUOUS
 90
25
 70
0
 10
24.0002326434
 20
-27.9500457941
 10
24.019848416
 20
-27.9494329514
 10
24.0393818552
 20
-27.9475488383
 10
24.0587499907
 20
-27.94440223
 10
24.0778674821
 20
-27.9400084884
 10
24.0966565409
 20
-27.9343863439
 10
24.1150466043
 20
-27.9275555931
 10
24.1329636784
 20
-27.9195419883
 10
24.1503261195
 20
-27.9103801638
 10
24.1670545395
 20
-27.9001096841
 10
24.1830761199
 20
-27.8887752407
 10
24.1983238282
 20
-27.8764241594
 10
24.2127317327
 20
-27.8631075342
 10
24.2262383765
 20
-27.8488817232
 10
24.2387853951
 20
-27.8338076828
 10
24.2503172333
 20
-27.81794933
 10
24.2607855952
 20
-27.8013724282
 10
24.2701439958
 20
-27.7841499174
 10
24.2783478898
 20
-27.7663620059
 10
24.2853596691
 20
-27.7480962355
 10
24.2911556769
 20
-27.7294212934
 10
24.2957165237
 20
-27.71039136
 10
24.2990198483
 20
-27.6910784711
 10
24.3010458258
 20
-27.6715738137
 10
24.3017819677
 20
-27.651961219
  0
LWPOLYLINE
  5
3CF
100
AcDbEntity
  8
0
100
AcDbPolyline
 62
253
  6
CONTINUOUS
 90
25
 70
0
 10
-20.9997673566
 20
-27.9500457941
 10
-20.980151584
 20
-27.9494329514
 10
-20.9606181448
 20
-27.9475488383
 10
-20.9412500093
 20
-27.94440223
 10
-20.9221325179
 20
-27.9400084884
 10
-20.9033434591
 20
-27.9343863439
 10
-20.8849533957
 20
-27.9275555931
 10
-20.8670363216
 20
-27.9195419883
 10
-20.8496738805
 20
-27.9103801638
 10
-20.8329454605
 20
-27.9001096841
 10
-20.8169238801
 20
-27.8887752407
 10
-20.8016761718
 20
-27.8764241594
 10
-20.7872682673
 20
-27.8631075342
 10
-20.7737616235
 20
-27.8488817232
 10
-20.7612146049
 20
-27.8338076828
 10
-20.7496827667
 20
-27.81794933
 10
-20.7392144048
 20
-27.8013724282
 10
-20.7298560042
 20
-27.7841499174
 10
-20.7216521102
 20
-27.7663620059
 10
-20.7146403309
 20
-27.7480962355
 10
-20.7088443231
 20
-27.7294212934
 10
-20.7042834763
 20
-27.71039136
 10
-20.7009801517
 20
-27.6910784711
 10
-20.6989541742
 20
-27.6715738137
 10
-20.6982180323
 20
-27.651961219
  0
LWPOLYLINE
  5
3D0
100
AcDbEntity
  8
0
100
AcDbPolyline
 62
253
  6
CONTINUOUS
 90
25
 70
0
 10
1.5049571535
 20
-26.2547703628
 10
1.5245808802
 20
-26.2541565088
 10
1.54412045
 20
-26.2522694997
 10
1.5634928123
 20
-26.2491182843
 10
1.5826125958
 20
-26.2447183769
 10
1.6014019471
 20
-26.2390887104
 10
1.6197902125
 20
-26.2322493591
 10
1.6377033562
 20
-26.2242262896
 10
1.6550598418
 20
-26.215054329
 10
1.6717804562
 20
-26.2047732991
 10
1.6877924192
 20
-26.1934280861
 10
1.7030288612
 20
-26.1810661611
 10
1.7174242189
 20
-26.1677387496
 10
1.7309171239
 20
-26.1535023318
 10
1.743449382
 20
-26.1384179387
 10
1.7549658834
 20
-26.1225494621
 10
1.7654184142
 20
-26.1059627096
 10
1.7747606294
 20
-26.0887306149
 10
1.7829484106
 20
-26.0709331947
 10
1.7899441788
 20
-26.0526579996
 10
1.7957243378
 20
-26.0339736215
 10
1.8002697998
 20
-26.0149338202
 10
1.8035582086
 20
-25.9956104352
 10
1.8055695605
 20
-25.9760947155
 10
1.8062912826
 20
-25.9564704448
  0
LINE
  5
3D1
100
AcDbEntity
  8
DRAFT
100
AcDbLine
 62
7
  6
CONTINUOUS
 10
56.0357171432
 20
-24.0214559154
 11
55.0247963686
 21
-24.0520191431
  0
LWPOLYLINE
  5
3D2
100
AcDbEntity
  8
RACCORDO
100
AcDbPolyline
 62
7
  6
CONTINUOUS
 90
8
 70
0
 10
58.8561216325
 20
-24.1088148783
 10
58.8656296028
 20
-24.1085599558
 10
58.8737022129
 20
-24.1082948189
 10
58.8804174796
 20
-24.1080184149
 10
58.8857247969
 20
-24.1077354188
 10
58.8896072963
 20
-24.107447389
 10
58.8920818463
 20
-24.1071527671
 10
58.8931484469
 20
-24.1068515531
  0
LINE
  5
3D3
100
AcDbEntity
  8
0
100
AcDbLine
 62
7
  6
CONTINUOUS
 10
20.6155937796
 20
-24.024789156
 11
20.6461168447
 21
-24.0240602574
  0
LINE
  5
3D4
100
AcDbEntity
  8
RACCORDO
100
AcDbLine
 62
7
  6
CONTINUOUS
 10
58.8333183184
 20
-24.1092830887
 11
58.8561216325
 21
-24.1088148783
  0
LINE
  5
3D5
100
AcDbEntity
  8
0
100
AcDbLine
 62
7
  6
CONTINUOUS
 10
-0.6226796324
 20
-27.5513663518
 11
-0.6452901962
 21
-27.5517661379
  0
LINE
  5
3D6
100
AcDbEntity
  8
0
100
AcDbLine
 62
7
  6
CONTINUOUS
 10
20.5784274387
 20
-24.025415644
 11
20.6155937796
 21
-24.024789156
  0
LINE
  5
3D7
100
AcDbEntity
  8
RACCORDO
100
AcDbLine
 62
7
  6
CONTINUOUS
 10
58.8061153824
 20
-24.109672862
 11
58.8333183184
 21
-24.1092830887
  0
LINE
  5
3D8
100
AcDbEntity
  8
DRAFT
100
AcDbLine
 62
7
  6
CONTINUOUS
 10
38.9047809173
 20
-24.0676118328
 11
37.3
 21
-24.0837843117
  0
LINE
  5
3D9
100
AcDbEntity
  8
0
100
AcDbLine
 62
7
  6
CONTINUOUS
 10
-0.6452901962
 20
-27.5517661379
 11
-0.693655791
 21
-27.5522958243
  0
LINE
  5
3DA
100
AcDbEntity
  8
RACCORDO
100
AcDbLine
 62
7
  6
CONTINUOUS
 10
58.7600585486
 20
-24.1100829689
 11
58.8061153824
 21
-24.109672862
  0
LWPOLYLINE
  5
3DB
100
AcDbEntity
  8
0
100
AcDbPolyline
 62
253
  6
CONTINUOUS
 90
19
 70
0
 10
20.3984008006
 20
-27.6762829804
 10
20.4239697277
 20
-27.6761223585
 10
20.4493525842
 20
-27.675785931
 10
20.4743646482
 20
-27.6752761461
 10
20.4988238963
 20
-27.674596714
 10
20.5225523282
 20
-27.6737525789
 10
20.5453772618
 20
-27.6727498842
 10
20.5671325905
 20
-27.6715959268
 10
20.5876599915
 20
-27.6702991045
 10
20.606810078
 20
-27.6688688549
 10
20.6244434867
 20
-27.6673155866
 10
20.6404318919
 20
-27.6656506033
 10
20.654658939
 20
-27.6638860218
 10
20.6670210919
 20
-27.6620346837
 10
20.6774283857
 20
-27.660110062
 10
20.6858050822
 20
-27.658126163
 10
20.6920902207
 20
-27.6560974244
 10
20.6962380615
 20
-27.6540386102
 10
20.6982184189
 20
-27.6519647032
  0
LWPOLYLINE
  5
3DC
100
AcDbEntity
  8
0
100
AcDbPolyline
 62
253
  6
CONTINUOUS
 90
19
 70
0
 10
-24.6015991994
 20
-27.6762829804
 10
-24.5760302723
 20
-27.6761223585
 10
-24.5506474158
 20
-27.675785931
 10
-24.5256353518
 20
-27.6752761461
 10
-24.5011761037
 20
-27.674596714
 10
-24.4774476718
 20
-27.6737525789
 10
-24.4546227382
 20
-27.6727498842
 10
-24.4328674095
 20
-27.6715959268
 10
-24.4123400085
 20
-27.6702991045
 10
-24.393189922
 20
-27.6688688549
 10
-24.3755565133
 20
-27.6673155866
 10
-24.3595681081
 20
-27.6656506033
 10
-24.345341061
 20
-27.6638860218
 10
-24.3329789081
 20
-27.6620346837
 10
-24.3225716143
 20
-27.660110062
 10
-24.3141949178
 20
-27.658126163
 10
-24.3079097793
 20
-27.6560974244
 10
-24.3037619385
 20
-27.6540386102
 10
-24.3017815811
 20
-27.6519647032
  0
LWPOLYLINE
  5
3DD
100
AcDbEntity
  8
0
100
AcDbPolyline
 62
253
  6
CONTINUOUS
 90
19
 70
0
 10
-2.1061085165
 20
-25.977719526
 10
-2.0805400173
 20
-25.9775791544
 10
-2.055157579
 20
-25.977285197
 10
-2.0301459137
 20
-25.9768397931
 10
-2.0056870356
 20
-25.976246184
 10
-1.9819589361
 20
-25.9755086895
 10
-1.9591342885
 20
-25.9746326765
 10
-1.9373791917
 20
-25.9736245197
 10
-1.9168519612
 20
-25.9724915559
 10
-1.897701977
 20
-25.9712420296
 10
-1.880068597
 20
-25.969885034
 10
-1.864080142
 20
-25.9684304442
 10
-1.8498529629
 20
-25.9668888454
 10
-1.8374905933
 20
-25.9652714561
 10
-1.8270829961
 20
-25.9635900463
 10
-1.8187059091
 20
-25.9618568519
 10
-1.812420294
 20
-25.9600844857
 10
-1.8082718922
 20
-25.9582858455
 10
-1.8062908922
 20
-25.9564740203
  0
LINE
  5
3DE
100
AcDbEntity
  8
RACCORDO
100
AcDbLine
 62
7
  6
CONTINUOUS
 10
58.7272340858
 20
-24.1102332408
 11
58.7600585486
 21
-24.1100829689
  0
LINE
  5
3DF
100
AcDbEntity
  8
0
100
AcDbLine
 62
7
  6
CONTINUOUS
 10
-0.693655791
 20
-27.5522958243
 11
-0.8021799073
 21
-27.5528820575
  0
LINE
  5
3E0
100
AcDbEntity
  8
DRAFT
100
AcDbLine
 62
7
  6
CONTINUOUS
 10
-11.6675593246
 20
-27.4099912606
 11
-10.832421991
 21
-27.4081372223
  0
LINE
  5
3E1
100
AcDbEntity
  8
0
100
AcDbLine
 62
253
  6
CONTINUOUS
 10
23.3980453875
 20
-28.8759468191
 11
21.6019546125
 21
-28.8759468191
  0
LINE
  5
3E2
100
AcDbEntity
  8
0
100
AcDbLine
 62
253
  6
CONTINUOUS
 10
-21.6019546125
 20
-28.8759468191
 11
-23.3980453875
 21
-28.8759468191
  0
LINE
  5
3E3
100
AcDbEntity
  8
0
100
AcDbLine
 62
7
  6
CONTINUOUS
 10
23.0979539454
 20
-28.5494696404
 11
21.9020460546
 21
-28.5494696404
  0
LINE
  5
3E4
100
AcDbEntity
  8
0
100
AcDbLine
 62
7
  6
CONTINUOUS
 10
-21.9020460546
 20
-28.5494696404
 11
-23.0979539454
 21
-28.5494696404
  0
LINE
  5
3E5
100
AcDbEntity
  8
DRAFT
100
AcDbLine
 62
7
  6
CONTINUOUS
 10
22.9
 20
-28.5
 11
22.1
 21
-28.5
  0
LINE
  5
3E6
100
AcDbEntity
  8
DRAFT
100
AcDbLine
 62
7
  6
CONTINUOUS
 10
-22.1
 20
-28.5
 11
-22.9
 21
-28.5
  0
LINE
  5
3E7
100
AcDbEntity
  8
0
100
AcDbLine
 62
253
  6
CONTINUOUS
 10
-24.0002285397
 20
-28.2752649765
 11
-23.399863036
 21
-28.2752649765
  0
LINE
  5
3E8
100
AcDbEntity
  8
0
100
AcDbLine
 62
253
  6
CONTINUOUS
 10
-21.600136964
 20
-28.2752649765
 11
-20.9997714603
 21
-28.2752649765
  0
LINE
  5
3E9
100
AcDbEntity
  8
0
100
AcDbLine
 62
253
  6
CONTINUOUS
 10
20.9997714603
 20
-28.2752649765
 11
21.600136964
 21
-28.2752649765
  0
LINE
  5
3EA
100
AcDbEntity
  8
0
100
AcDbLine
 62
253
  6
CONTINUOUS
 10
23.399863036
 20
-28.2752649765
 11
24.0002285397
 21
-28.2752649765
  0
LINE
  5
3EB
100
AcDbEntity
  8
0
100
AcDbLine
 62
253
  6
CONTINUOUS
 10
-24.0002245921
 20
-27.9500457878
 11
-23.1000457878
 21
-27.9500457878
  0
LINE
  5
3EC
100
AcDbEntity
  8
0
100
AcDbLine
 62
253
  6
CONTINUOUS
 10
-21.8999542122
 20
-27.9500457878
 11
-20.999767363
 21
-27.9500457878
  0
LINE
  5
3ED
100
AcDbEntity
  8
0
100
AcDbLine
 62
253
  6
CONTINUOUS
 10
20.9997754079
 20
-27.9500457878
 11
21.8999542122
 21
-27.9500457878
  0
LINE
  5
3EE
100
AcDbEntity
  8
0
100
AcDbLine
 62
253
  6
CONTINUOUS
 10
23.1000457878
 20
-27.9500457878
 11
24.000232637
 21
-27.9500457878
  0
LINE
  5
3EF
100
AcDbEntity
  8
0
100
AcDbLine
 62
7
  6
CONTINUOUS
 10
-23.7
 20
-27.75
 11
-22.9
 21
-27.75
  0
LINE
  5
3F0
100
AcDbEntity
  8
0
100
AcDbLine
 62
7
  6
CONTINUOUS
 10
23.7
 20
-27.75
 11
22.9
 21
-27.75
  0
LINE
  5
3F1
100
AcDbEntity
  8
0
100
AcDbLine
 62
7
  6
CONTINUOUS
 10
-22.1
 20
-27.75
 11
-21.3
 21
-27.75
  0
LINE
  5
3F2
100
AcDbEntity
  8
0
100
AcDbLine
 62
7
  6
CONTINUOUS
 10
22.1
 20
-27.75
 11
21.3
 21
-27.75
  0
LINE
  5
3F3
100
AcDbEntity
  8
0
100
AcDbLine
 62
7
  6
CONTINUOUS
 10
0.9019469965
 20
-27.5530314268
 11
-0.9019469965
 21
-27.5530314268
  0
LINE
  5
3F4
100
AcDbEntity
  8
0
100
AcDbLine
 62
7
  6
CONTINUOUS
 10
-0.4
 20
-27.5
 11
0.4
 21
-27.5
  0
LINE
  5
3F5
100
AcDbEntity
  8
0
100
AcDbLine
 62
7
  6
CONTINUOUS
 10
23.7
 20
-27.35
 11
21.3
 21
-27.35
  0
LINE
  5
3F6
100
AcDbEntity
  8
0
100
AcDbLine
 62
7
  6
CONTINUOUS
 10
-21.3
 20
-27.35
 11
-23.7
 21
-27.35
  0
LINE
  5
3F7
100
AcDbEntity
  8
0
100
AcDbLine
 62
7
  6
CONTINUOUS
 10
24.1139677759
 20
-26.9465093858
 11
20.8860322241
 21
-26.9465093858
  0
LINE
  5
3F8
100
AcDbEntity
  8
0
100
AcDbLine
 62
7
  6
CONTINUOUS
 10
-20.8860322241
 20
-26.9465093858
 11
-24.1139677759
 21
-26.9465093858
  0
LINE
  5
3F9
100
AcDbEntity
  8
DRAFT
100
AcDbLine
 62
7
  6
CONTINUOUS
 10
-24.2676196936
 20
-26.9081110346
 11
-23.4
 21
-26.9081110346
  0
LINE
  5
3FA
100
AcDbEntity
  8
DRAFT
100
AcDbLine
 62
7
  6
CONTINUOUS
 10
24.2676196936
 20
-26.9081110346
 11
23.4
 21
-26.9081110346
  0
LINE
  5
3FB
100
AcDbEntity
  8
DRAFT
100
AcDbLine
 62
7
  6
CONTINUOUS
 10
-21.6
 20
-26.9081110346
 11
-20.7323803064
 21
-26.9081110346
  0
LINE
  5
3FC
100
AcDbEntity
  8
DRAFT
100
AcDbLine
 62
7
  6
CONTINUOUS
 10
21.6
 20
-26.9081110346
 11
20.7323803064
 21
-26.9081110346
  0
LINE
  5
3FD
100
AcDbEntity
  8
DRAFT
100
AcDbLine
 62
7
  6
CONTINUOUS
 10
-23.3536116509
 20
-26.8965183637
 11
-21.6463883491
 21
-26.8965183637
  0
LINE
  5
3FE
100
AcDbEntity
  8
DRAFT
100
AcDbLine
 62
7
  6
CONTINUOUS
 10
21.6463883491
 20
-26.8965183637
 11
23.3536116509
 21
-26.8965183637
  0
LINE
  5
3FF
100
AcDbEntity
  8
0
100
AcDbLine
 62
253
  6
CONTINUOUS
 10
-1.5049531088
 20
-26.576917156
 11
-0.904587605
 21
-26.576917156
  0
LINE
  5
400
100
AcDbEntity
  8
0
100
AcDbLine
 62
253
  6
CONTINUOUS
 10
0.904587605
 20
-26.576917156
 11
1.5049531088
 21
-26.576917156
  0
LINE
  5
401
100
AcDbEntity
  8
0
100
AcDbLine
 62
253
  6
CONTINUOUS
 10
-1.5049492314
 20
-26.2547703569
 11
-0.6047703569
 21
-26.2547703569
  0
LINE
  5
402
100
AcDbEntity
  8
0
100
AcDbLine
 62
253
  6
CONTINUOUS
 10
0.6047703569
 20
-26.2547703569
 11
1.5049571476
 21
-26.2547703569
  0
LINE
  5
403
100
AcDbEntity
  8
0
100
AcDbLine
 62
7
  6
CONTINUOUS
 10
1.2
 20
-26.05
 11
0.4
 21
-26.05
  0
LINE
  5
404
100
AcDbEntity
  8
0
100
AcDbLine
 62
7
  6
CONTINUOUS
 10
-0.4
 20
-26.05
 11
-1.2
 21
-26.05
  0
LINE
  5
405
100
AcDbEntity
  8
DRAFT
100
AcDbLine
 62
7
  6
CONTINUOUS
 10
-11.6837843117
 20
-25.8
 11
-10.8162156883
 21
-25.8
  0
LINE
  5
406
100
AcDbEntity
  8
0
100
AcDbLine
 62
7
  6
CONTINUOUS
 10
11.6
 20
-25.8
 11
10.9
 21
-25.8
  0
LINE
  5
407
100
AcDbEntity
  8
DRAFT
100
AcDbLine
 62
7
  6
CONTINUOUS
 10
34.5162156883
 20
-25.8
 11
35.3837843117
 21
-25.8
  0
LINE
  5
408
100
AcDbEntity
  8
DRAFT
100
AcDbLine
 62
7
  6
CONTINUOUS
 10
-34.5162156883
 20
-25.8
 11
-35.3837843117
 21
-25.8
  0
LINE
  5
409
100
AcDbEntity
  8
0
100
AcDbLine
 62
7
  6
CONTINUOUS
 10
1.2
 20
-25.65
 11
-1.2
 21
-25.65
  0
LINE
  5
40A
100
AcDbEntity
  8
0
100
AcDbLine
 62
7
  6
CONTINUOUS
 10
1.6139677759
 20
-25.2465093858
 11
-1.6139677759
 21
-25.2465093858
  0
LINE
  5
40B
100
AcDbEntity
  8
DRAFT
100
AcDbLine
 62
7
  6
CONTINUOUS
 10
-1.7676196936
 20
-25.2081110346
 11
-0.9
 21
-25.2081110346
  0
LINE
  5
40C
100
AcDbEntity
  8
DRAFT
100
AcDbLine
 62
7
  6
CONTINUOUS
 10
0.9
 20
-25.2081110346
 11
1.7676196936
 21
-25.2081110346
  0
LINE
  5
40D
100
AcDbEntity
  8
DRAFT
100
AcDbLine
 62
7
  6
CONTINUOUS
 10
-0.8493695765
 20
-25.1954582489
 11
0.8493695765
 21
-25.1954582489
  0
LINE
  5
40E
100
AcDbEntity
  8
0
100
AcDbLine
 62
7
  6
CONTINUOUS
 10
11.6
 20
-27.4098361579
 11
10.9
 21
-27.4082821287
  0
LWPOLYLINE
  5
40F
100
AcDbEntity
  8
0
100
AcDbPolyline
 62
253
  6
CONTINUOUS
 90
19
 70
0
 10
2.1061085165
 20
-25.9777195953
 10
2.0805400273
 20
-25.9775792186
 10
2.0551576037
 20
-25.9772852562
 10
2.0301459573
 20
-25.9768398475
 10
2.0056871016
 20
-25.9762462337
 10
1.9819590273
 20
-25.9755087346
 10
1.9591344069
 20
-25.974632717
 10
1.9373793386
 20
-25.973624556
 10
1.9168521373
 20
-25.9724915881
 10
1.8977021823
 20
-25.9712420579
 10
1.8800688307
 20
-25.9698850586
 10
1.864080403
 20
-25.9684304652
 10
1.8498532493
 20
-25.9668888629
 10
1.8374909026
 20
-25.9652714704
 10
1.8270833257
 20
-25.9635900575
 10
1.8187062558
 20
-25.9618568602
 10
1.8124206543
 20
-25.9600844912
 10
1.8082722624
 20
-25.9582858482
 10
1.8062912684
 20
-25.9564740203
  0
LWPOLYLINE
  5
410
100
AcDbEntity
  8
0
100
AcDbPolyline
 62
253
  6
CONTINUOUS
 90
19
 70
0
 10
-20.3984008006
 20
-27.6762830578
 10
-20.423969718
 20
-27.6761224303
 10
-20.4493525599
 20
-27.6757859972
 10
-20.4743646053
 20
-27.675276207
 10
-20.4988238314
 20
-27.6745967696
 10
-20.5225522385
 20
-27.6737526294
 10
-20.5453771455
 20
-27.6727499297
 10
-20.5671324461
 20
-27.6715959675
 10
-20.5876598183
 20
-27.6702991407
 10
-20.6068098761
 20
-27.6688688867
 10
-20.6244432569
 20
-27.6673156142
 10
-20.6404316353
 20
-27.6656506269
 10
-20.6546586575
 20
-27.6638860416
 10
-20.6670207876
 20
-27.6620346998
 10
-20.6774280615
 20
-27.6601100747
 10
-20.6858047412
 20
-27.6581261724
 10
-20.6920898663
 20
-27.6560974305
 10
-20.6962376973
 20
-27.6540386132
 10
-20.6982180487
 20
-27.6519647032
  0
LWPOLYLINE
  5
411
100
AcDbEntity
  8
0
100
AcDbPolyline
 62
253
  6
CONTINUOUS
 90
19
 70
0
 10
24.6015991994
 20
-27.6762830578
 10
24.576030282
 20
-27.6761224303
 10
24.5506474401
 20
-27.6757859972
 10
24.5256353947
 20
-27.675276207
 10
24.5011761686
 20
-27.6745967696
 10
24.4774477615
 20
-27.6737526294
 10
24.4546228545
 20
-27.6727499297
 10
24.4328675539
 20
-27.6715959675
 10
24.4123401817
 20
-27.6702991407
 10
24.3931901239
 20
-27.6688688867
 10
24.3755567431
 20
-27.6673156142
 10
24.3595683647
 20
-27.6656506269
 10
24.3453413425
 20
-27.6638860416
 10
24.3329792124
 20
-27.6620346998
 10
24.3225719385
 20
-27.6601100747
 10
24.3141952588
 20
-27.6581261724
 10
24.3079101337
 20
-27.6560974305
 10
24.3037623027
 20
-27.6540386132
 10
24.3017819513
 20
-27.6519647032
  0
LINE
  5
412
100
AcDbEntity
  8
RACCORDO
100
AcDbLine
 62
7
  6
CONTINUOUS
 10
-58.7760180537
 20
-24.1099705834
 11
-58.7272340826
 21
-24.1102332406
  0
LINE
  5
413
100
AcDbEntity
  8
0
100
AcDbLine
 62
7
  6
CONTINUOUS
 10
0.7785287588
 20
-27.5527991706
 11
0.6936557911
 21
-27.5522958243
  0
LINE
  5
414
100
AcDbEntity
  8
DRAFT
100
AcDbLine
 62
7
  6
CONTINUOUS
 10
-38.9047809173
 20
-24.0676118328
 11
-37.3
 21
-24.0837843117
  0
LINE
  5
415
100
AcDbEntity
  8
0
100
AcDbLine
 62
7
  6
CONTINUOUS
 10
0.6936557911
 20
-27.5522958243
 11
0.6452901963
 21
-27.5517661379
  0
LINE
  5
416
100
AcDbEntity
  8
RACCORDO
100
AcDbLine
 62
7
  6
CONTINUOUS
 10
-58.8202531866
 20
-24.1094875254
 11
-58.7760180537
 21
-24.1099705834
  0
LINE
  5
417
100
AcDbEntity
  8
0
100
AcDbLine
 62
7
  6
CONTINUOUS
 10
-20.615593784
 20
-24.0247891559
 11
-20.5784274314
 21
-24.0254156441
  0
LWPOLYLINE
  5
418
100
AcDbEntity
  8
0
100
AcDbPolyline
 62
7
  6
CONTINUOUS
 90
6
 70
0
 10
0.6452901963
 20
-27.5517661379
 10
0.6226796324
 20
-27.5513663518
 10
0.614406293
 20
-27.5511565772
 10
0.6082331334
 20
-27.5509425019
 10
0.6041207113
 20
-27.5507229825
 10
0.6020690266
 20
-27.5504980189
  0
LINE
  5
419
100
AcDbEntity
  8
DRAFT
100
AcDbLine
 62
7
  6
CONTINUOUS
 10
-56.0357171432
 20
-24.0214559154
 11
-55.0247963686
 21
-24.0520191431
  0
LINE
  5
41A
100
AcDbEntity
  8
0
100
AcDbLine
 62
7
  6
CONTINUOUS
 10
-21.1963209205
 20
-27.7534963276
 11
-21.3
 21
-27.75
  0
LINE
  5
41B
100
AcDbEntity
  8
0
100
AcDbLine
 62
7
  6
CONTINUOUS
 10
23.8036790795
 20
-27.7534963276
 11
23.7
 21
-27.75
  0
LINE
  5
41C
100
AcDbEntity
  8
0
100
AcDbLine
 62
7
  6
CONTINUOUS
 10
1.3036790795
 20
-26.0534963276
 11
1.2
 21
-26.05
  0
LINE
  5
41D
100
AcDbEntity
  8
DRAFT
100
AcDbLine
 62
7
  6
CONTINUOUS
 10
34.5338596918
 20
-27.5507990126
 11
35.3655602373
 21
-27.608358935
  0
LWPOLYLINE
  5
41E
100
AcDbEntity
  8
0
100
AcDbPolyline
 62
7
  6
CONTINUOUS
 90
8
 70
0
 10
-20.6893090811
 20
-24.0215290512
 10
-20.6872506366
 20
-24.021978618
 10
-20.6831360882
 20
-24.0224171051
 10
-20.6769654359
 20
-24.0228445126
 10
-20.668699607
 20
-24.0232630394
 10
-20.6583776742
 20
-24.0236704866
 10
-20.6461168555
 20
-24.0240602571
 10
-20.615593784
 20
-24.0247891559
  0
LINE
  5
41F
100
AcDbEntity
  8
0
100
AcDbLine
 62
7
  6
CONTINUOUS
 10
0.4
 20
-27.5
 11
0.6020690266
 21
-27.5504980189
  0
LINE
  5
420
100
AcDbEntity
  8
0
100
AcDbLine
 62
7
  6
CONTINUOUS
 10
-1.6139597987
 20
-25.2465113794
 11
-1.7676196936
 21
-25.2081110346
  0
LINE
  5
421
100
AcDbEntity
  8
DRAFT
100
AcDbLine
 62
7
  6
CONTINUOUS
 10
-59.0
 20
23.3
 11
-58.8888009746
 21
23.1888009746
  0
LINE
  5
422
100
AcDbEntity
  8
DRAFT
100
AcDbLine
 62
7
  6
CONTINUOUS
 10
-35.4012393766
 20
0.4512393766
 11
-35.4216797993
 21
0.4716797993
  0
LINE
  5
423
100
AcDbEntity
  8
0
100
AcDbLine
 62
7
  6
CONTINUOUS
 10
-10.8162156883
 20
-24.0
 11
-10.789628929
 21
-24.0265867593
  0
LINE
  5
424
100
AcDbEntity
  8
0
100
AcDbLine
 62
7
  6
CONTINUOUS
 10
-14.951606
 20
-31.075
 11
-14.253349
 21
-32.180362
  0
LINE
  5
425
100
AcDbEntity
  8
0
100
AcDbLine
 62
7
  6
CONTINUOUS
 10
-14.129616
 20
-31.964017
 11
-14.660454
 21
-31.075
  0
LINE
  5
426
100
AcDbEntity
  8
0
100
AcDbLine
 62
7
  6
CONTINUOUS
 10
-16.453749
 20
-32.925
 11
-17.123774
 21
-31.075
  0
LINE
  5
427
100
AcDbEntity
  8
0
100
AcDbLine
 62
7
  6
CONTINUOUS
 10
-16.909883
 20
-32.386533
 11
-16.726948
 21
-32.925
  0
LINE
  5
428
100
AcDbEntity
  8
0
100
AcDbLine
 62
7
  6
CONTINUOUS
 10
-17.275723
 20
-31.34334
 11
-17.000086
 21
-32.164951
  0
LINE
  5
429
100
AcDbEntity
  8
0
100
AcDbLine
 62
7
  6
CONTINUOUS
 10
-20.3249998569
 20
-35.0787234008
 11
-20.2875
 21
-35.193617031
  0
LINE
  5
42A
100
AcDbEntity
  8
0
100
AcDbLine
 62
7
  6
CONTINUOUS
 10
-18.9749998569
 20
-34.9255319297
 11
-19.0125001431
 21
-34.772340405
  0
LINE
  5
42B
100
AcDbEntity
  8
0
100
AcDbLine
 62
7
  6
CONTINUOUS
 10
-19.0125001431
 20
-34.1212765455
 11
-19.05
 21
-33.9680850744
  0
LINE
  5
42C
100
AcDbEntity
  8
0
100
AcDbLine
 62
7
  6
CONTINUOUS
 10
-23.9250000715
 20
-34.4659574628
 11
-23.9624999285
 21
-34.1978723884
  0
LINE
  5
42D
100
AcDbEntity
  8
0
100
AcDbLine
 62
7
  6
CONTINUOUS
 10
-23.6249999285
 20
-34.7340425372
 11
-23.5875000715
 21
-35.0021276653
  0
LINE
  5
42E
100
AcDbEntity
  8
0
100
AcDbLine
 62
7
  6
CONTINUOUS
 10
-21.438797
 20
31.612597
 11
-21.812797
 21
35.612109
  0
LINE
  5
42F
100
AcDbEntity
  8
0
100
AcDbLine
 62
7
  6
CONTINUOUS
 10
-22.427031
 20
34.213316
 11
-22.255507
 21
31.612597
  0
LWPOLYLINE
  5
430
100
AcDbEntity
  8
0
100
AcDbPolyline
 62
253
  6
CONTINUOUS
 90
25
 70
0
 10
-20.6982180665
 20
27.6519684582
 10
-20.6989508054
 20
27.6715255789
 10
-20.7009681719
 20
27.6909906653
 10
-20.7042607582
 20
27.7102801042
 10
-20.7088133275
 20
27.7293081351
 10
-20.7146057162
 20
27.7479963183
 10
-20.7216146638
 20
27.7662733558
 10
-20.7298132458
 20
27.7840648125
 10
-20.7391655973
 20
27.8012893807
 10
-20.7496278943
 20
27.8178686011
 10
-20.7611538462
 20
27.8337298102
 10
-20.7736949963
 20
27.8488069811
 10
-20.7871964438
 20
27.8630368513
 10
-20.8016004405
 20
27.8763587725
 10
-20.8168452075
 20
27.8887157802
 10
-20.8328640498
 20
27.9000560822
 10
-20.8495901543
 20
27.9103325187
 10
-20.8669504435
 20
27.9195002368
 10
-20.8848637534
 20
27.9275189703
 10
-20.9032419838
 20
27.9343523238
 10
-20.9220170953
 20
27.9399779004
 10
-20.941136292
 20
27.944379851
 10
-20.9605284278
 20
27.94753717
 10
-20.9801025314
 20
27.9494297938
 10
-20.999775414
 20
27.9500457817
  0
LWPOLYLINE
  5
431
100
AcDbEntity
  8
0
100
AcDbPolyline
 62
253
  6
CONTINUOUS
 90
25
 70
0
 10
-20.3984008006
 20
27.6762830578
 10
-20.3998510565
 20
27.7157959962
 10
-20.4038093596
 20
27.7547946328
 10
-20.4102757101
 20
27.793278995
 10
-20.4192975896
 20
27.8314029679
 10
-20.4308275165
 20
27.8690127152
 10
-20.4447230457
 20
27.9056467072
 10
-20.4610174911
 20
27.9413015746
 10
-20.4796775389
 20
27.9759807893
 10
-20.5004608019
 20
28.0092331318
 10
-20.5233930312
 20
28.0410364538
 10
-20.5484484758
 20
28.0714130422
 10
-20.5753074957
 20
28.0999783663
 10
-20.603993041
 20
28.1267096689
 10
-20.6344821616
 20
28.1516298589
 10
-20.6663863679
 20
28.1744229283
 10
-20.6997287832
 20
28.1950628795
 10
-20.7344862841
 20
28.2135758513
 10
-20.7702010106
 20
28.2297240487
 10
-20.8068649325
 20
28.2434732454
 10
-20.8444860801
 20
28.2548577767
 10
-20.8826306836
 20
28.2637426858
 10
-20.9211541532
 20
28.2700830077
 10
-20.9602010788
 20
28.2739237663
 10
-20.9997714603
 20
28.2752649765
  0
LINE
  5
432
100
AcDbEntity
  8
0
100
AcDbLine
 62
253
  6
CONTINUOUS
 10
-23.399863036
 20
-28.2752649765
 11
-23.3980453875
 21
-28.8759468191
  0
LINE
  5
433
100
AcDbEntity
  8
0
100
AcDbLine
 62
253
  6
CONTINUOUS
 10
-23.1009203203
 20
-27.9519724288
 11
-23.0991404373
 21
-28.5516984938
  0
LINE
  5
434
100
AcDbEntity
  8
0
100
AcDbLine
 62
253
  6
CONTINUOUS
 10
-21.8990796797
 20
27.9519724288
 11
-21.9008595627
 21
28.5516984938
  0
LINE
  5
435
100
AcDbEntity
  8
0
100
AcDbLine
 62
253
  6
CONTINUOUS
 10
-21.600136964
 20
28.2752649765
 11
-21.6019546125
 21
28.8759468191
  0
LINE
  5
436
100
AcDbEntity
  8
0
100
AcDbLine
 62
253
  6
CONTINUOUS
 10
-20.389465667
 20
24.0265867593
 11
-20.3984008006
 21
27.6762830578
  0
LINE
  5
437
100
AcDbEntity
  8
0
100
AcDbLine
 62
253
  6
CONTINUOUS
 10
-20.6893090811
 20
24.0215290512
 11
-20.6982180589
 21
27.6519684658
  0
LINE
  5
438
100
AcDbEntity
  8
0
100
AcDbLine
 62
7
  6
CONTINUOUS
 10
-24.2676196936
 20
26.9081110346
 11
-24.2676196936
 21
24.0
  0
LINE
  5
439
100
AcDbEntity
  8
0
100
AcDbLine
 62
7
  6
CONTINUOUS
 10
-24.2676196936
 20
-24.0
 11
-24.2676196936
 21
-26.9081110346
  0
LINE
  5
43A
100
AcDbEntity
  8
0
100
AcDbLine
 62
7
  6
CONTINUOUS
 10
-24.1500000715
 20
-34.2361702561
 11
-24.1500000715
 21
-34.3127659917
  0
LINE
  5
43B
100
AcDbEntity
  8
0
100
AcDbLine
 62
7
  6
CONTINUOUS
 10
-24.1139597987
 20
27.4641425506
 11
-24.1139597987
 21
26.9465113794
  0
LINE
  5
43C
100
AcDbEntity
  8
0
100
AcDbLine
 62
7
  6
CONTINUOUS
 10
-24.1139597987
 20
-26.9465113794
 11
-24.1139597987
 21
-27.4641425506
  0
LINE
  5
43D
100
AcDbEntity
  8
0
100
AcDbLine
 62
7
  6
CONTINUOUS
 10
-24.1125
 20
-34.6574468017
 11
-24.1125
 21
-34.7340425372
  0
LINE
  5
43E
100
AcDbEntity
  8
0
100
AcDbLine
 62
253
  6
CONTINUOUS
 10
-24.0002285397
 20
28.2752649765
 11
-24.0002285397
 21
27.9500457878
  0
LINE
  5
43F
100
AcDbEntity
  8
0
100
AcDbLine
 62
253
  6
CONTINUOUS
 10
-24.0002285397
 20
-28.2752649765
 11
-24.0002285397
 21
-27.9500457878
  0
LINE
  5
440
100
AcDbEntity
  8
0
100
AcDbLine
 62
7
  6
CONTINUOUS
 10
-23.9250000715
 20
-34.7340425372
 11
-23.9250000715
 21
-34.4659574628
  0
LINE
  5
441
100
AcDbEntity
  8
0
100
AcDbLine
 62
7
  6
CONTINUOUS
 10
-23.7
 20
27.75
 11
-23.7
 21
27.35
  0
LINE
  5
442
100
AcDbEntity
  8
0
100
AcDbLine
 62
7
  6
CONTINUOUS
 10
-23.7
 20
-27.35
 11
-23.7
 21
-27.75
  0
LINE
  5
443
100
AcDbEntity
  8
0
100
AcDbLine
 62
7
  6
CONTINUOUS
 10
-23.6249999285
 20
-34.4659574628
 11
-23.6249999285
 21
-34.7340425372
  0
LINE
  5
444
100
AcDbEntity
  8
0
100
AcDbLine
 62
7
  6
CONTINUOUS
 10
-23.488148
 20
-31.075
 11
-23.488148
 21
-32.925
  0
LINE
  5
445
100
AcDbEntity
  8
0
100
AcDbLine
 62
7
  6
CONTINUOUS
 10
-23.4375
 20
-34.5425531983
 11
-23.4375
 21
-34.4659574628
  0
LINE
  5
446
100
AcDbEntity
  8
0
100
AcDbLine
 62
7
  6
CONTINUOUS
 10
-23.3999999285
 20
-34.9638297975
 11
-23.3999999285
 21
-34.8489361942
  0
LINE
  5
447
100
AcDbEntity
  8
0
100
AcDbLine
 62
7
  6
CONTINUOUS
 10
-23.4
 20
-26.9081110346
 11
-23.4
 21
-24.0
  0
LINE
  5
448
100
AcDbEntity
  8
0
100
AcDbLine
 62
7
  6
CONTINUOUS
 10
-23.4
 20
24.0
 11
-23.4
 21
26.9081110346
  0
LINE
  5
449
100
AcDbEntity
  8
0
100
AcDbLine
 62
7
  6
CONTINUOUS
 10
-23.23823
 20
-32.925
 11
-23.23823
 21
-31.075
  0
LINE
  5
44A
100
AcDbEntity
  8
DRAFT
100
AcDbLine
 62
7
  6
CONTINUOUS
 10
-22.9
 20
28.5
 11
-22.9
 21
27.75
  0
LINE
  5
44B
100
AcDbEntity
  8
DRAFT
100
AcDbLine
 62
7
  6
CONTINUOUS
 10
-22.9
 20
-28.5
 11
-22.9
 21
-27.75
  0
LINE
  5
44C
100
AcDbEntity
  8
0
100
AcDbLine
 62
7
  6
CONTINUOUS
 10
-22.810568
 20
-31.075
 11
-22.810568
 21
-32.925
  0
LINE
  5
44D
100
AcDbEntity
  8
0
100
AcDbLine
 62
7
  6
CONTINUOUS
 10
-22.568265
 20
-32.925
 11
-22.568265
 21
-31.422579
  0
LINE
  5
44E
100
AcDbEntity
  8
0
100
AcDbLine
 62
7
  6
CONTINUOUS
 10
-22.4625000715
 20
-34.8489361942
 11
-22.4625000715
 21
-34.9638297975
  0
LINE
  5
44F
100
AcDbEntity
  8
0
100
AcDbLine
 62
7
  6
CONTINUOUS
 10
-22.2750001431
 20
-35.0021276653
 11
-22.2750001431
 21
-34.8106382728
  0
LINE
  5
450
100
AcDbEntity
  8
DRAFT
100
AcDbLine
 62
7
  6
CONTINUOUS
 10
-22.1
 20
28.5
 11
-22.1
 21
27.75
  0
LINE
  5
451
100
AcDbEntity
  8
DRAFT
100
AcDbLine
 62
7
  6
CONTINUOUS
 10
-22.1
 20
-28.5
 11
-22.1
 21
-27.75
  0
LINE
  5
452
100
AcDbEntity
  8
0
100
AcDbLine
 62
7
  6
CONTINUOUS
 10
-21.975
 20
-33.7
 11
-21.975
 21
-34.6957446694
  0
LINE
  5
453
100
AcDbEntity
  8
0
100
AcDbLine
 62
7
  6
CONTINUOUS
 10
-21.7874998569
 20
-34.5042553306
 11
-21.7874998569
 21
-33.8914893389
  0
LINE
  5
454
100
AcDbEntity
  8
0
100
AcDbLine
 62
7
  6
CONTINUOUS
 10
-21.6
 20
26.9081110346
 11
-21.6
 21
24.0
  0
LINE
  5
455
100
AcDbEntity
  8
0
100
AcDbLine
 62
7
  6
CONTINUOUS
 10
-21.6
 20
-24.0
 11
-21.6
 21
-26.9081110346
  0
LINE
  5
456
100
AcDbEntity
  8
0
100
AcDbLine
 62
7
  6
CONTINUOUS
 10
-21.583957
 20
-31.075
 11
-21.583957
 21
-32.577726
  0
LINE
  5
457
100
AcDbEntity
  8
0
100
AcDbLine
 62
7
  6
CONTINUOUS
 10
-21.341774
 20
-32.925
 11
-21.341774
 21
-31.075
  0
LINE
  5
458
100
AcDbEntity
  8
0
100
AcDbLine
 62
7
  6
CONTINUOUS
 10
-21.3
 20
-27.75
 11
-21.3
 21
-27.35
  0
LINE
  5
459
100
AcDbEntity
  8
0
100
AcDbLine
 62
7
  6
CONTINUOUS
 10
-21.3
 20
27.35
 11
-21.3
 21
27.75
  0
LINE
  5
45A
100
AcDbEntity
  8
0
100
AcDbLine
 62
253
  6
CONTINUOUS
 10
-20.9997714603
 20
28.2752649765
 11
-20.9997714603
 21
27.9500457878
  0
LINE
  5
45B
100
AcDbEntity
  8
0
100
AcDbLine
 62
253
  6
CONTINUOUS
 10
-20.9997714603
 20
-28.2752649765
 11
-20.9997714603
 21
-27.9500457878
  0
LINE
  5
45C
100
AcDbEntity
  8
0
100
AcDbLine
 62
7
  6
CONTINUOUS
 10
-20.8860402013
 20
-27.4641425506
 11
-20.8860402013
 21
-26.9465113794
  0
LINE
  5
45D
100
AcDbEntity
  8
0
100
AcDbLine
 62
7
  6
CONTINUOUS
 10
-20.8860402013
 20
26.9465113794
 11
-20.8860402013
 21
27.4641425506
  0
LINE
  5
45E
100
AcDbEntity
  8
0
100
AcDbLine
 62
7
  6
CONTINUOUS
 10
-20.8125001431
 20
-34.887234062
 11
-20.8125001431
 21
-34.9638297975
  0
LINE
  5
45F
100
AcDbEntity
  8
0
100
AcDbLine
 62
7
  6
CONTINUOUS
 10
-20.7323803064
 20
-26.9081110346
 11
-20.7323803064
 21
-24.0
  0
LINE
  5
460
100
AcDbEntity
  8
0
100
AcDbLine
 62
7
  6
CONTINUOUS
 10
-20.7323803064
 20
24.0
 11
-20.7323803064
 21
26.9081110346
  0
LINE
  5
461
100
AcDbEntity
  8
0
100
AcDbLine
 62
7
  6
CONTINUOUS
 10
-20.7000001431
 20
-33.8914893389
 11
-20.7000001431
 21
-33.7
  0
LINE
  5
462
100
AcDbEntity
  8
0
100
AcDbLine
 62
7
  6
CONTINUOUS
 10
-20.625
 20
-35.0021276653
 11
-20.625
 21
-34.8489361942
  0
LINE
  5
463
100
AcDbEntity
  8
0
100
AcDbLine
 62
7
  6
CONTINUOUS
 10
-20.195208
 20
-31.075
 11
-20.195208
 21
-32.925
  0
LINE
  5
464
100
AcDbEntity
  8
0
100
AcDbLine
 62
7
  6
CONTINUOUS
 10
-19.945215
 20
-32.925
 11
-19.945215
 21
-31.075
  0
LINE
  5
465
100
AcDbEntity
  8
0
100
AcDbLine
 62
7
  6
CONTINUOUS
 10
-19.725
 20
-34.5042553306
 11
-19.725
 21
-34.6574468017
  0
LINE
  5
466
100
AcDbEntity
  8
0
100
AcDbLine
 62
7
  6
CONTINUOUS
 10
-19.677238
 20
-31.075
 11
-19.677238
 21
-31.296581
  0
LINE
  5
467
100
AcDbEntity
  8
0
100
AcDbLine
 62
7
  6
CONTINUOUS
 10
-19.1999998569
 20
-34.1212765455
 11
-19.1999998569
 21
-34.1978723884
  0
LINE
  5
468
100
AcDbEntity
  8
0
100
AcDbLine
 62
7
  6
CONTINUOUS
 10
-19.1625
 20
-34.9255319297
 11
-19.1625
 21
-35.0787234008
  0
LINE
  5
469
100
AcDbEntity
  8
0
100
AcDbLine
 62
7
  6
CONTINUOUS
 10
-19.051095
 20
-31.296581
 11
-19.051095
 21
-32.925
  0
LINE
  5
46A
100
AcDbEntity
  8
0
100
AcDbLine
 62
7
  6
CONTINUOUS
 10
-19.0125001431
 20
-34.1978723884
 11
-19.0125001431
 21
-34.1212765455
  0
LINE
  5
46B
100
AcDbEntity
  8
0
100
AcDbLine
 62
7
  6
CONTINUOUS
 10
-18.9749998569
 20
-35.0787234008
 11
-18.9749998569
 21
-34.9255319297
  0
LINE
  5
46C
100
AcDbEntity
  8
0
100
AcDbLine
 62
7
  6
CONTINUOUS
 10
-18.801192
 20
-32.925
 11
-18.801192
 21
-31.296581
  0
LINE
  5
46D
100
AcDbEntity
  8
0
100
AcDbLine
 62
7
  6
CONTINUOUS
 10
-18.17505
 20
-31.296581
 11
-18.17505
 21
-31.075
  0
LINE
  5
46E
100
AcDbEntity
  8
0
100
AcDbLine
 62
253
  6
CONTINUOUS
 10
-20.3984008006
 20
-27.6762830578
 11
-20.389465667
 21
-24.0265867593
  0
LINE
  5
46F
100
AcDbEntity
  8
0
100
AcDbLine
 62
253
  6
CONTINUOUS
 10
-20.6982180393
 20
-27.651961212
 11
-20.6893090811
 21
-24.0215290512
  0
LINE
  5
470
100
AcDbEntity
  8
0
100
AcDbLine
 62
253
  6
CONTINUOUS
 10
-23.0991404332
 20
28.5516984818
 11
-23.1009203203
 21
27.9519724288
  0
LINE
  5
471
100
AcDbEntity
  8
0
100
AcDbLine
 62
253
  6
CONTINUOUS
 10
-21.9008595668
 20
-28.5516984818
 11
-21.8990796797
 21
-27.9519724288
  0
LINE
  5
472
100
AcDbEntity
  8
0
100
AcDbLine
 62
253
  6
CONTINUOUS
 10
-23.3980453875
 20
28.8759468191
 11
-23.399863036
 21
28.2752649765
  0
LINE
  5
473
100
AcDbEntity
  8
0
100
AcDbLine
 62
253
  6
CONTINUOUS
 10
-21.6019546125
 20
-28.8759468191
 11
-21.600136964
 21
-28.2752649765
  0
LINE
  5
474
100
AcDbEntity
  8
0
100
AcDbLine
 62
7
  6
CONTINUOUS
 10
-23.9624999285
 20
-35.0021276653
 11
-23.9250000715
 21
-34.7340425372
  0
LINE
  5
475
100
AcDbEntity
  8
0
100
AcDbLine
 62
7
  6
CONTINUOUS
 10
-23.5875000715
 20
-34.1978723884
 11
-23.6249999285
 21
-34.4659574628
  0
LINE
  5
476
100
AcDbEntity
  8
0
100
AcDbLine
 62
7
  6
CONTINUOUS
 10
-24.1125
 20
-34.7340425372
 11
-24.1500000715
 21
-34.9638297975
  0
LINE
  5
477
100
AcDbEntity
  8
RACCORDO
100
AcDbLine
 62
7
  6
CONTINUOUS
 10
-11.6214559154
 20
36.5357171432
 11
-11.6049624612
 21
36.5852377442
  0
LINE
  5
478
100
AcDbEntity
  8
RACCORDO
100
AcDbLine
 62
7
  6
CONTINUOUS
 10
-34.5785440846
 20
-36.5357171432
 11
-34.5950375388
 21
-36.5852377442
  0
LINE
  5
479
100
AcDbEntity
  8
0
100
AcDbLine
 62
7
  6
CONTINUOUS
 10
-30.684844
 20
-32.925
 11
-30.164426
 21
-31.371239
  0
LINE
  5
47A
100
AcDbEntity
  8
0
100
AcDbLine
 62
7
  6
CONTINUOUS
 10
-30.27776
 20
-31.075
 11
-30.805984
 21
-32.646609
  0
LINE
  5
47B
100
AcDbEntity
  8
0
100
AcDbLine
 62
7
  6
CONTINUOUS
 10
-35.3837843117
 20
-19.0174603847
 11
-35.3750567792
 21
-19.0
  0
LINE
  5
47C
100
AcDbEntity
  8
0
100
AcDbLine
 62
7
  6
CONTINUOUS
 10
0.6047703569
 20
26.2547703569
 11
0.4
 21
26.05
  0
LINE
  5
47D
100
AcDbEntity
  8
0
100
AcDbLine
 62
7
  6
CONTINUOUS
 10
-1.2
 20
25.65
 11
-1.6141963536
 21
25.2465093858
  0
LINE
  5
47E
100
AcDbEntity
  8
0
100
AcDbLine
 62
7
  6
CONTINUOUS
 10
21.646455
 20
33.813362
 11
21.602556
 21
33.790152
  0
LINE
  5
47F
100
AcDbEntity
  8
0
100
AcDbLine
 62
7
  6
CONTINUOUS
 10
21.819177
 20
33.323471
 11
21.883453
 21
33.356176
  0
LINE
  5
480
100
AcDbEntity
  8
0
100
AcDbLine
 62
7
  6
CONTINUOUS
 10
-0.8468102756
 20
24.0265867593
 11
-0.9
 21
24.0
  0
LINE
  5
481
100
AcDbEntity
  8
0
100
AcDbLine
 62
7
  6
CONTINUOUS
 10
1.7676196936
 20
24.0
 11
1.8106909189
 21
24.0215290512
  0
LINE
  5
482
100
AcDbEntity
  8
0
100
AcDbLine
 62
7
  6
CONTINUOUS
 10
21.602556
 20
33.790152
 11
21.556088
 21
33.769204
  0
LINE
  5
483
100
AcDbEntity
  8
0
100
AcDbLine
 62
7
  6
CONTINUOUS
 10
21.752327
 20
33.294017
 11
21.819177
 21
33.323471
  0
LINE
  5
484
100
AcDbEntity
  8
0
100
AcDbLine
 62
7
  6
CONTINUOUS
 10
21.556088
 20
33.769204
 11
21.507021
 21
33.750623
  0
LINE
  5
485
100
AcDbEntity
  8
0
100
AcDbLine
 62
7
  6
CONTINUOUS
 10
21.682955
 20
33.26789
 11
21.752327
 21
33.294017
  0
LINE
  5
486
100
AcDbEntity
  8
DRAFT
100
AcDbLine
 62
7
  6
CONTINUOUS
 10
-0.8493695765
 20
-25.1954582489
 11
-0.9
 21
-25.2081110346
  0
LINE
  5
487
100
AcDbEntity
  8
0
100
AcDbLine
 62
7
  6
CONTINUOUS
 10
-22.9
 20
-28.5
 11
-23.0979539454
 21
-28.5494696404
  0
LINE
  5
488
100
AcDbEntity
  8
0
100
AcDbLine
 62
7
  6
CONTINUOUS
 10
-20.8860322241
 20
-26.9465093858
 11
-20.7323803064
 21
-26.9081110346
  0
LINE
  5
489
100
AcDbEntity
  8
DRAFT
100
AcDbLine
 62
7
  6
CONTINUOUS
 10
-23.3536116509
 20
-26.8965183637
 11
-23.4
 21
-26.9081110346
  0
LWPOLYLINE
  5
48A
100
AcDbEntity
  8
0
100
AcDbPolyline
 62
253
  6
CONTINUOUS
 90
22
 70
0
 10
34.8295974464
 20
-18.9085966407
 10
34.8667146953
 20
-18.9071948704
 10
34.903687902
 20
-18.9030333442
 10
34.9403107692
 20
-18.8961214915
 10
34.976396791
 20
-18.8864782205
 10
35.0117208076
 20
-18.8741471006
 10
35.0460252165
 20
-18.8592107392
 10
35.0790989531
 20
-18.8417636534
 10
35.1107773818
 20
-18.8218954058
 10
35.140886669
 20
-18.7997143956
 10
35.1692599387
 20
-18.7753418873
 10
35.1957352843
 20
-18.7489151848
 10
35.2201609262
 20
-18.7205850787
 10
35.2423991763
 20
-18.6905115718
 10
35.2623267176
 20
-18.6588617641
 10
35.2798322407
 20
-18.6258123485
 10
35.2948177921
 20
-18.5915479355
 10
35.3071992007
 20
-18.5562606083
 10
35.3169069243
 20
-18.5201484267
 10
35.3238866076
 20
-18.4834137414
 10
35.3280992522
 20
-18.446262016
 10
35.3295212939
 20
-18.4089012272
  0
LWPOLYLINE
  5
48B
100
AcDbEntity
  8
0
100
AcDbPolyline
 62
7
  6
CONTINUOUS
 90
7
 70
0
 10
-1.8538831512
 20
-24.0240602573
 10
-1.8416223313
 20
-24.0236704867
 10
-1.8313003947
 20
-24.0232630394
 10
-1.823034563
 20
-24.0228445125
 10
-1.8168639101
 20
-24.022417105
 10
-1.812749362
 20
-24.0219786179
 10
-1.8106909189
 20
-24.0215290512
  0
LWPOLYLINE
  5
48C
100
AcDbEntity
  8
0
100
AcDbPolyline
 62
7
  6
CONTINUOUS
 90
7
 70
0
 10
-24.3538831409
 20
-24.024060257
 10
-24.3416223224
 20
-24.0236704865
 10
-24.3313003906
 20
-24.0232630393
 10
-24.3230345625
 20
-24.0228445125
 10
-24.3168639108
 20
-24.022417105
 10
-24.3127493629
 20
-24.0219786179
 10
-24.3106909189
 20
-24.0215290512
  0
LINE
  5
48D
100
AcDbEntity
  8
DRAFT
100
AcDbLine
 62
7
  6
CONTINUOUS
 10
-56.0357171432
 20
-23.2785440846
 11
-54.9967184929
 21
-23.2471319768
  0
LINE
  5
48E
100
AcDbEntity
  8
DRAFT
100
AcDbLine
 62
7
  6
CONTINUOUS
 10
55.7
 20
-19.2
 11
59.0
 21
-19.1135864588
  0
LINE
  5
48F
100
AcDbEntity
  8
DRAFT
100
AcDbLine
 62
7
  6
CONTINUOUS
 10
55.7
 20
-16.6
 11
59.0
 21
-16.5135864588
  0
LINE
  5
490
100
AcDbEntity
  8
0
100
AcDbLine
 62
7
  6
CONTINUOUS
 10
-1.8844062178
 20
-24.024789156
 11
-1.8538831512
 21
-24.0240602573
  0
LINE
  5
491
100
AcDbEntity
  8
0
100
AcDbLine
 62
7
  6
CONTINUOUS
 10
-24.3844062147
 20
-24.0247891559
 11
-24.3538831409
 21
-24.024060257
  0
LINE
  5
492
100
AcDbEntity
  8
0
100
AcDbLine
 62
7
  6
CONTINUOUS
 10
-1.9215725336
 20
-24.0254156437
 11
-1.8844062178
 21
-24.024789156
  0
LINE
  5
493
100
AcDbEntity
  8
0
100
AcDbLine
 62
7
  6
CONTINUOUS
 10
-24.4215725713
 20
-24.0254156442
 11
-24.3844062147
 21
-24.0247891559
  0
LINE
  5
494
100
AcDbEntity
  8
DRAFT
100
AcDbLine
 62
7
  6
CONTINUOUS
 10
-38.8144949276
 20
-23.2314782933
 11
-37.3
 21
-23.2162156883
  0
LINE
  5
495
100
AcDbEntity
  8
0
100
AcDbLine
 62
7
  6
CONTINUOUS
 10
20.51287956
 20
-24.026123029
 11
20.5784274387
 21
-24.025415644
  0
LINE
  5
496
100
AcDbEntity
  8
0
100
AcDbLine
 62
7
  6
CONTINUOUS
 10
-1.9871203439
 20
-24.0261230283
 11
-1.9215725336
 21
-24.0254156437
  0
LINE
  5
497
100
AcDbEntity
  8
0
100
AcDbLine
 62
7
  6
CONTINUOUS
 10
-24.4871204724
 20
-24.0261230293
 11
-24.4215725713
 21
-24.0254156442
  0
LINE
  5
498
100
AcDbEntity
  8
0
100
AcDbLine
 62
7
  6
CONTINUOUS
 10
20.4403528446
 20
-24.0265105367
 11
20.51287956
 21
-24.026123029
  0
LINE
  5
499
100
AcDbEntity
  8
0
100
AcDbLine
 62
7
  6
CONTINUOUS
 10
-2.0596470628
 20
-24.0265105363
 11
-1.9871203439
 21
-24.0261230283
  0
LINE
  5
49A
100
AcDbEntity
  8
0
100
AcDbLine
 62
7
  6
CONTINUOUS
 10
-24.5596471814
 20
-24.0265105368
 11
-24.4871204724
 21
-24.0261230293
  0
LINE
  5
49B
100
AcDbEntity
  8
DRAFT
100
AcDbLine
 62
7
  6
CONTINUOUS
 10
55.0247963686
 20
-24.0520191431
 11
44.2808593642
 21
-24.063301383
  0
LINE
  5
49C
100
AcDbEntity
  8
DRAFT
100
AcDbLine
 62
7
  6
CONTINUOUS
 10
-54.9967184929
 20
-23.2471319768
 11
-42.4126779727
 21
-23.2342602135
  0
LINE
  5
49D
100
AcDbEntity
  8
DRAFT
100
AcDbLine
 62
7
  6
CONTINUOUS
 10
44.2808593642
 20
-24.063301383
 11
38.9047809173
 21
-24.0676118328
  0
LINE
  5
49E
100
AcDbEntity
  8
DRAFT
100
AcDbLine
 62
7
  6
CONTINUOUS
 10
-42.4126779727
 20
-23.2342602135
 11
-38.8144949276
 21
-23.2314782933
  0
LINE
  5
49F
100
AcDbEntity
  8
RACCORDO
100
AcDbLine
 62
7
  6
CONTINUOUS
 10
35.4102842764
 20
-24.1102842764
 11
58.7272340858
 21
-24.1102332408
  0
LINE
  5
4A0
100
AcDbEntity
  8
DRAFT
100
AcDbLine
 62
7
  6
CONTINUOUS
 10
35.3837843117
 20
-24.0837843117
 11
37.3
 21
-24.0837843117
  0
LINE
  5
4A1
100
AcDbEntity
  8
DRAFT
100
AcDbLine
 62
7
  6
CONTINUOUS
 10
-35.3837843117
 20
-24.0837843117
 11
-37.3
 21
-24.0837843117
  0
LINE
  5
4A2
100
AcDbEntity
  8
0
100
AcDbLine
 62
7
  6
CONTINUOUS
 10
-34.489628929
 20
-24.0265867593
 11
-24.5596471814
 21
-24.0265105368
  0
LINE
  5
4A3
100
AcDbEntity
  8
0
100
AcDbLine
 62
7
  6
CONTINUOUS
 10
-23.3468102756
 20
-24.0265867593
 11
-21.6531897244
 21
-24.0265867593
  0
LINE
  5
4A4
100
AcDbEntity
  8
0
100
AcDbLine
 62
7
  6
CONTINUOUS
 10
-10.789628929
 20
-24.0265867593
 11
-2.0596470628
 21
-24.0265105363
  0
LINE
  5
4A5
100
AcDbEntity
  8
0
100
AcDbLine
 62
7
  6
CONTINUOUS
 10
-0.8468102756
 20
-24.0265867593
 11
0.8468102756
 21
-24.0265867593
  0
LINE
  5
4A6
100
AcDbEntity
  8
0
100
AcDbLine
 62
7
  6
CONTINUOUS
 10
11.6
 20
-24.0265867593
 11
20.4403528446
 21
-24.0265105367
  0
LINE
  5
4A7
100
AcDbEntity
  8
0
100
AcDbLine
 62
7
  6
CONTINUOUS
 10
21.6531897244
 20
-24.0265867593
 11
23.3468102756
 21
-24.0265867593
  0
LINE
  5
4A8
100
AcDbEntity
  8
RACCORDO
100
AcDbLine
 62
7
  6
CONTINUOUS
 10
59.0
 20
-24.0
 11
56.3848266046
 21
-24.0
  0
LINE
  5
4A9
100
AcDbEntity
  8
0
100
AcDbLine
 62
7
  6
CONTINUOUS
 10
-34.5162156883
 20
-24.0
 11
-24.2676196936
 21
-24.0
  0
LINE
  5
4AA
100
AcDbEntity
  8
0
100
AcDbLine
 62
7
  6
CONTINUOUS
 10
-23.4
 20
-24.0
 11
-21.6
 21
-24.0
  0
LINE
  5
4AB
100
AcDbEntity
  8
0
100
AcDbLine
 62
7
  6
CONTINUOUS
 10
-20.7323803064
 20
-24.0
 11
-11.6837843117
 21
-24.0
  0
LINE
  5
4AC
100
AcDbEntity
  8
0
100
AcDbLine
 62
7
  6
CONTINUOUS
 10
-10.8162156883
 20
-24.0
 11
-1.7676196936
 21
-24.0
  0
LINE
  5
4AD
100
AcDbEntity
  8
0
100
AcDbLine
 62
7
  6
CONTINUOUS
 10
-0.9
 20
-24.0
 11
0.9
 21
-24.0
  0
LINE
  5
4AE
100
AcDbEntity
  8
0
100
AcDbLine
 62
7
  6
CONTINUOUS
 10
1.7676196936
 20
-24.0
 11
10.9
 21
-24.0
  0
LINE
  5
4AF
100
AcDbEntity
  8
0
100
AcDbLine
 62
7
  6
CONTINUOUS
 10
11.6
 20
-24.0
 11
20.7323803064
 21
-24.0
  0
LINE
  5
4B0
100
AcDbEntity
  8
0
100
AcDbLine
 62
7
  6
CONTINUOUS
 10
21.6
 20
-24.0
 11
23.4
 21
-24.0
  0
LINE
  5
4B1
100
AcDbEntity
  8
0
100
AcDbLine
 62
7
  6
CONTINUOUS
 10
24.2676196936
 20
-24.0
 11
34.5162156883
 21
-24.0
  0
LINE
  5
4B2
100
AcDbEntity
  8
RACCORDO
100
AcDbLine
 62
7
  6
CONTINUOUS
 10
-56.3848266046
 20
-24.0
 11
-59.0
 21
-24.0
  0
LINE
  5
4B3
100
AcDbEntity
  8
RACCORDO
100
AcDbLine
 62
7
  6
CONTINUOUS
 10
-59.0
 20
-23.3
 11
-56.3848266046
 21
-23.3
  0
LINE
  5
4B4
100
AcDbEntity
  8
RACCORDO
100
AcDbLine
 62
7
  6
CONTINUOUS
 10
56.3848266046
 20
-23.3
 11
59.0
 21
-23.3
  0
LINE
  5
4B5
100
AcDbEntity
  8
DRAFT
100
AcDbLine
 62
7
  6
CONTINUOUS
 10
35.3837843117
 20
-23.2162156883
 11
37.3
 21
-23.2162156883
  0
LINE
  5
4B6
100
AcDbEntity
  8
DRAFT
100
AcDbLine
 62
7
  6
CONTINUOUS
 10
-35.3837843117
 20
-23.2162156883
 11
-37.3
 21
-23.2162156883
  0
LINE
  5
4B7
100
AcDbEntity
  8
DRAFT
100
AcDbLine
 62
7
  6
CONTINUOUS
 10
-58.8888009746
 20
-23.1888009746
 11
-35.4111990254
 21
-23.1888009746
  0
LINE
  5
4B8
100
AcDbEntity
  8
DRAFT
100
AcDbLine
 62
7
  6
CONTINUOUS
 10
35.4111990254
 20
-23.1888009746
 11
58.8888009746
 21
-23.1888009746
  0
LINE
  5
4B9
100
AcDbEntity
  8
DRAFT
100
AcDbLine
 62
253
  6
CONTINUOUS
 10
58.8882521295
 20
-22.5871086096
 11
35.4117478705
 21
-22.5871086096
  0
LINE
  5
4BA
100
AcDbEntity
  8
DRAFT
100
AcDbLine
 62
253
  6
CONTINUOUS
 10
-35.4117478705
 20
-22.5871086096
 11
-58.8882521295
 21
-22.5871086096
  0
LINE
  5
4BB
100
AcDbEntity
  8
0
100
AcDbLine
 62
7
  6
CONTINUOUS
 10
33.0510963722
 20
-22.5
 11
-33.0510963722
 21
-22.5
  0
LINE
  5
4BC
100
AcDbEntity
  8
DRAFT
100
AcDbLine
 62
7
  6
CONTINUOUS
 10
-59.0
 20
-20.0
 11
-56.4069219382
 21
-20.0
  0
LINE
  5
4BD
100
AcDbEntity
  8
0
100
AcDbLine
 62
7
  6
CONTINUOUS
 10
56.4069219382
 20
-20.0
 11
55.7
 21
-20.0
  0
LINE
  5
4BE
100
AcDbEntity
  8
DRAFT
100
AcDbLine
 62
7
  6
CONTINUOUS
 10
56.4069219382
 20
-20.0
 11
59.0
 21
-20.0
  0
LINE
  5
4BF
100
AcDbEntity
  8
0
100
AcDbLine
 62
7
  6
CONTINUOUS
 10
-55.7
 20
-20.0
 11
-56.4069219382
 21
-20.0
  0
LINE
  5
4C0
100
AcDbEntity
  8
0
100
AcDbLine
 62
7
  6
CONTINUOUS
 10
33.85
 20
-19.0174603847
 11
34.8840127341
 21
-19.0174603847
  0
LINE
  5
4C1
100
AcDbEntity
  8
0
100
AcDbLine
 62
7
  6
CONTINUOUS
 10
-33.85
 20
-19.0174603847
 11
-35.3837843117
 21
-19.0174603847
  0
LINE
  5
4C2
100
AcDbEntity
  8
0
100
AcDbLine
 62
7
  6
CONTINUOUS
 10
-35.3750567792
 20
-19.0
 11
-33.85
 21
-19.0
  0
LINE
  5
4C3
100
AcDbEntity
  8
0
100
AcDbLine
 62
253
  6
CONTINUOUS
 10
33.85
 20
-18.9085966407
 11
34.8295974464
 21
-18.9085966407
  0
LINE
  5
4C4
100
AcDbEntity
  8
0
100
AcDbLine
 62
253
  6
CONTINUOUS
 10
33.85
 20
-18.4089012272
 11
35.3295212939
 21
-18.4089012272
  0
LINE
  5
4C5
100
AcDbEntity
  8
DRAFT
100
AcDbLine
 62
7
  6
CONTINUOUS
 10
-55.0247963686
 20
-24.0520191431
 11
-38.9047809173
 21
-24.0676118328
  0
LINE
  5
4C6
100
AcDbEntity
  8
DRAFT
100
AcDbLine
 62
7
  6
CONTINUOUS
 10
54.9967184929
 20
-23.2471319768
 11
38.8144949276
 21
-23.2314782933
  0
LINE
  5
4C7
100
AcDbEntity
  8
RACCORDO
100
AcDbLine
 62
7
  6
CONTINUOUS
 10
-58.7272340826
 20
-24.1102332406
 11
-35.4102842764
 21
-24.1102842764
  0
LINE
  5
4C8
100
AcDbEntity
  8
0
100
AcDbLine
 62
7
  6
CONTINUOUS
 10
-20.4649829137
 20
-24.0264180222
 11
-11.710371071
 21
-24.0265867593
  0
LINE
  5
4C9
100
AcDbEntity
  8
0
100
AcDbLine
 62
7
  6
CONTINUOUS
 10
2.0350169484
 20
-24.0264180216
 11
10.9
 21
-24.0265867593
  0
LINE
  5
4CA
100
AcDbEntity
  8
0
100
AcDbLine
 62
7
  6
CONTINUOUS
 10
24.535017062
 20
-24.0264180221
 11
34.489628929
 21
-24.0265867593
  0
LINE
  5
4CB
100
AcDbEntity
  8
0
100
AcDbLine
 62
7
  6
CONTINUOUS
 10
-20.5356192153
 20
-24.0259228653
 11
-20.4649829137
 21
-24.0264180222
  0
LINE
  5
4CC
100
AcDbEntity
  8
0
100
AcDbLine
 62
7
  6
CONTINUOUS
 10
1.9643806885
 20
-24.0259228644
 11
2.0350169484
 21
-24.0264180216
  0
LINE
  5
4CD
100
AcDbEntity
  8
0
100
AcDbLine
 62
7
  6
CONTINUOUS
 10
24.4643807641
 20
-24.0259228651
 11
24.535017062
 21
-24.0264180221
  0
LINE
  5
4CE
100
AcDbEntity
  8
DRAFT
100
AcDbLine
 62
7
  6
CONTINUOUS
 10
38.8144949276
 20
-23.2314782933
 11
37.3
 21
-23.2162156883
  0
LINE
  5
4CF
100
AcDbEntity
  8
0
100
AcDbLine
 62
7
  6
CONTINUOUS
 10
-20.5784274314
 20
-24.0254156441
 11
-20.5356192153
 21
-24.0259228653
  0
LINE
  5
4D0
100
AcDbEntity
  8
0
100
AcDbLine
 62
7
  6
CONTINUOUS
 10
1.9215725336
 20
-24.0254156437
 11
1.9643806885
 21
-24.0259228644
  0
LINE
  5
4D1
100
AcDbEntity
  8
0
100
AcDbLine
 62
7
  6
CONTINUOUS
 10
24.4215725611
 20
-24.025415644
 11
24.4643807641
 21
-24.0259228651
  0
LINE
  5
4D2
100
AcDbEntity
  8
0
100
AcDbLine
 62
7
  6
CONTINUOUS
 10
1.8844062178
 20
-24.024789156
 11
1.9215725336
 21
-24.0254156437
  0
LINE
  5
4D3
100
AcDbEntity
  8
0
100
AcDbLine
 62
7
  6
CONTINUOUS
 10
24.3844062202
 20
-24.024789156
 11
24.4215725611
 21
-24.025415644
  0
LINE
  5
4D4
100
AcDbEntity
  8
DRAFT
100
AcDbLine
 62
7
  6
CONTINUOUS
 10
-55.7
 20
-19.2
 11
-59.0
 21
-19.1135864588
  0
LINE
  5
4D5
100
AcDbEntity
  8
DRAFT
100
AcDbLine
 62
7
  6
CONTINUOUS
 10
-55.7
 20
-16.6
 11
-59.0
 21
-16.5135864588
  0
LINE
  5
4D6
100
AcDbEntity
  8
DRAFT
100
AcDbLine
 62
7
  6
CONTINUOUS
 10
56.0357171432
 20
-23.2785440846
 11
54.9967184929
 21
-23.2471319768
  0
LWPOLYLINE
  5
4D7
100
AcDbEntity
  8
0
100
AcDbPolyline
 62
7
  6
CONTINUOUS
 90
8
 70
0
 10
1.8106909189
 20
-24.0215290512
 10
1.812749362
 20
-24.0219786179
 10
1.8168639101
 20
-24.022417105
 10
1.823034563
 20
-24.0228445125
 10
1.8313003947
 20
-24.0232630394
 10
1.8416223313
 20
-24.0236704867
 10
1.8538831511
 20
-24.0240602573
 10
1.8844062178
 20
-24.024789156
  0
LWPOLYLINE
  5
4D8
100
AcDbEntity
  8
0
100
AcDbPolyline
 62
7
  6
CONTINUOUS
 90
8
 70
0
 10
24.3106909189
 20
-24.0215290512
 10
24.3127493649
 20
-24.0219786181
 10
24.316863915
 20
-24.0224171053
 10
24.3230345691
 20
-24.0228445129
 10
24.3313004004
 20
-24.0232630397
 10
24.3416223358
 20
-24.0236704869
 10
24.3538831552
 20
-24.0240602574
 10
24.3844062202
 20
-24.024789156
  0
LINE
  5
4D9
100
AcDbEntity
  8
DRAFT
100
AcDbLine
 62
7
  6
CONTINUOUS
 10
0.8493695765
 20
-25.1954582489
 11
0.9
 21
-25.2081110346
  0
LINE
  5
4DA
100
AcDbEntity
  8
0
100
AcDbLine
 62
7
  6
CONTINUOUS
 10
22.9
 20
-28.5
 11
23.0979539454
 21
-28.5494696404
  0
LINE
  5
4DB
100
AcDbEntity
  8
0
100
AcDbLine
 62
7
  6
CONTINUOUS
 10
20.8860402013
 20
-26.9465113794
 11
20.7323803064
 21
-26.9081110346
  0
LINE
  5
4DC
100
AcDbEntity
  8
DRAFT
100
AcDbLine
 62
7
  6
CONTINUOUS
 10
23.3536116509
 20
-26.8965183637
 11
23.4
 21
-26.9081110346
  0
LINE
  5
4DD
100
AcDbEntity
  8
0
100
AcDbLine
 62
7
  6
CONTINUOUS
 10
-0.8468102756
 20
-24.0265867593
 11
-0.9
 21
-24.0
  0
LINE
  5
4DE
100
AcDbEntity
  8
0
100
AcDbLine
 62
7
  6
CONTINUOUS
 10
1.7676196936
 20
-24.0
 11
1.8106909189
 21
-24.0215290512
  0
LINE
  5
4DF
100
AcDbEntity
  8
0
100
AcDbLine
 62
7
  6
CONTINUOUS
 10
-1.6141963536
 20
-25.2465093858
 11
-1.2
 21
-25.65
  0
LINE
  5
4E0
100
AcDbEntity
  8
0
100
AcDbLine
 62
7
  6
CONTINUOUS
 10
0.6047703569
 20
-26.2547703569
 11
0.4
 21
-26.05
  0
LWPOLYLINE
  5
4E1
100
AcDbEntity
  8
0
100
AcDbPolyline
 62
7
  6
CONTINUOUS
 90
3
 70
0
 10
0.8726515001
 20
-26.544900992
 10
0.8886430967
 20
-26.5610159346
 10
0.904587605
 20
-26.576917156
  0
LINE
  5
4E2
100
AcDbEntity
  8
0
100
AcDbLine
 62
253
  6
CONTINUOUS
 10
-35.3837843117
 20
18.5174603383
 11
-35.3295212939
 21
18.4089012272
  0
LINE
  5
4E3
100
AcDbEntity
  8
0
100
AcDbLine
 62
253
  6
CONTINUOUS
 10
-34.8840127341
 20
19.0174603847
 11
-34.8295974464
 21
18.9085966407
  0
LINE
  5
4E4
100
AcDbEntity
  8
RACCORDO
100
AcDbLine
 62
7
  6
CONTINUOUS
 10
-11.6214559154
 20
-36.5357171432
 11
-11.6049624612
 21
-36.5852377442
  0
LINE
  5
4E5
100
AcDbEntity
  8
RACCORDO
100
AcDbLine
 62
7
  6
CONTINUOUS
 10
-34.5785440846
 20
36.5357171432
 11
-34.5950375388
 21
36.5852377442
  0
LINE
  5
4E6
100
AcDbEntity
  8
0
100
AcDbLine
 62
7
  6
CONTINUOUS
 10
-30.378338
 20
35.612109
 11
-29.110415
 21
31.612597
  0
LINE
  5
4E7
100
AcDbEntity
  8
0
100
AcDbLine
 62
7
  6
CONTINUOUS
 10
-28.709048
 20
32.859121
 11
-29.471428
 21
35.612109
  0
LINE
  5
4E8
100
AcDbEntity
  8
DRAFT
100
AcDbLine
 62
7
  6
CONTINUOUS
 10
-11.6214559154
 20
-36.5357171432
 11
-11.6525958309
 21
-35.5057216264
  0
LINE
  5
4E9
100
AcDbEntity
  8
DRAFT
100
AcDbLine
 62
7
  6
CONTINUOUS
 10
-11.6675593246
 20
-27.4099912606
 11
-11.6837843117
 21
-25.8
  0
LINE
  5
4EA
100
AcDbEntity
  8
0
100
AcDbLine
 62
7
  6
CONTINUOUS
 10
-17.7732753198
 20
35.5653816085
 11
-17.7732753198
 21
31.6125968881
  0
LINE
  5
4EB
100
AcDbEntity
  8
0
100
AcDbLine
 62
7
  6
CONTINUOUS
 10
-16.9694619483
 20
33.8328085387
 11
-16.9694619483
 21
34.9307526417
  0
LINE
  5
4EC
100
AcDbEntity
  8
0
100
AcDbLine
 62
7
  6
CONTINUOUS
 10
-16.9417794088
 20
31.6125968881
 11
-16.9417794088
 21
33.1777850682
  0
LINE
  5
4ED
100
AcDbEntity
  8
0
100
AcDbLine
 62
7
  6
CONTINUOUS
 10
-16.224538
 20
-31.075
 11
-16.224538
 21
-32.925
  0
LINE
  5
4EE
100
AcDbEntity
  8
0
100
AcDbLine
 62
7
  6
CONTINUOUS
 10
-15.97453
 20
-32.703419
 11
-15.97453
 21
-31.075
  0
LINE
  5
4EF
100
AcDbEntity
  8
0
100
AcDbLine
 62
7
  6
CONTINUOUS
 10
-15.6269037691
 20
33.4795337467
 11
-15.6269037691
 21
33.5031673774
  0
LINE
  5
4F0
100
AcDbEntity
  8
0
100
AcDbLine
 62
7
  6
CONTINUOUS
 10
-15.036588
 20
-32.925
 11
-15.036588
 21
-32.703419
  0
LINE
  5
4F1
100
AcDbEntity
  8
0
100
AcDbLine
 62
7
  6
CONTINUOUS
 10
-14.253349
 20
-32.180362
 11
-14.253349
 21
-32.925
  0
LINE
  5
4F2
100
AcDbEntity
  8
0
100
AcDbLine
 62
7
  6
CONTINUOUS
 10
-14.00349
 20
-32.925
 11
-14.00349
 21
-32.180362
  0
LWPOLYLINE
  5
4F3
100
AcDbEntity
  8
0
100
AcDbPolyline
 62
7
  6
CONTINUOUS
 90
25
 70
0
 10
-15.843829987
 20
34.4539827315
 10
-15.8442310303
 20
34.4059632719
 10
-15.8468689263
 20
34.3600552897
 10
-15.8517436752
 20
34.3162590055
 10
-15.8588418558
 20
34.2746698119
 10
-15.8681768892
 20
34.2351927303
 10
-15.8797890386
 20
34.1975423833
 10
-15.8937216512
 20
34.1616806454
 10
-15.9099313798
 20
34.1276459415
 10
-15.9283284455
 20
34.0952676701
 10
-15.9488381267
 20
34.064452839
 10
-15.971535145
 20
34.0352946692
 10
-15.9965538858
 20
34.0079018644
 10
-16.0238575318
 20
33.9822430286
 10
-16.0534829003
 20
33.9583497633
 10
-16.0856748292
 20
33.9364252753
 10
-16.1205418423
 20
33.9164956051
 10
-16.1579754158
 20
33.8985348937
 10
-16.1978948163
 20
33.8826685014
 10
-16.2401657839
 20
33.8688973845
 10
-16.2849225785
 20
33.8572207222
 10
-16.3324872458
 20
33.8477612025
 10
-16.3829671346
 20
33.8405597497
 10
-16.4362548961
 20
33.8355755204
 10
-16.4923505304
 20
33.8328085387
  0
LINE
  5
4F4
100
AcDbEntity
  8
DRAFT
100
AcDbLine
 62
7
  6
CONTINUOUS
 10
-11.6675593246
 20
27.4099912606
 11
-11.6837843117
 21
25.8
  0
LINE
  5
4F5
100
AcDbEntity
  8
DRAFT
100
AcDbLine
 62
7
  6
CONTINUOUS
 10
-11.6214559154
 20
36.5357171432
 11
-11.6525958309
 21
35.5057216264
  0
LINE
  5
4F6
100
AcDbEntity
  8
0
100
AcDbLine
 62
7
  6
CONTINUOUS
 10
-23.4375
 20
-34.4659574628
 11
-23.3999999285
 21
-34.2361702561
  0
LWPOLYLINE
  5
4F7
100
AcDbEntity
  8
0
100
AcDbPolyline
 62
7
  6
CONTINUOUS
 90
10
 70
0
 10
-23.0991404373
 20
-28.5516984938
 10
-23.0990090839
 20
-28.5512603378
 10
-23.0988775968
 20
-28.5508697838
 10
-23.098745976
 20
-28.5505268316
 10
-23.0986142026
 20
-28.5502314486
 10
-23.0984822955
 20
-28.5499836675
 10
-23.0983503106
 20
-28.5497835863
 10
-23.0982182667
 20
-28.5496312377
 10
-23.0980861449
 20
-28.5495265891
 10
-23.0979539454
 20
-28.5494696404
  0
LINE
  5
4F8
100
AcDbEntity
  8
0
100
AcDbLine
 62
7
  6
CONTINUOUS
 10
-25.0875000358
 20
-34.2361702561
 11
-25.0499999642
 21
-34.1212765455
  0
LINE
  5
4F9
100
AcDbEntity
  8
0
100
AcDbLine
 62
7
  6
CONTINUOUS
 10
-24.1500000715
 20
-34.3127659917
 11
-24.1874999285
 21
-34.427659595
  0
LINE
  5
4FA
100
AcDbEntity
  8
0
100
AcDbLine
 62
7
  6
CONTINUOUS
 10
-24.1500000715
 20
-34.9638297975
 11
-24.1874999285
 21
-35.0787234008
  0
LINE
  5
4FB
100
AcDbEntity
  8
0
100
AcDbLine
 62
7
  6
CONTINUOUS
 10
-29.442904
 20
-32.925
 11
-29.24963
 21
-32.386533
  0
LINE
  5
4FC
100
AcDbEntity
  8
0
100
AcDbLine
 62
7
  6
CONTINUOUS
 10
-29.172308
 20
-32.164951
 11
-28.873331
 21
-31.34334
  0
LINE
  5
4FD
100
AcDbEntity
  8
0
100
AcDbLine
 62
7
  6
CONTINUOUS
 10
-29.004888
 20
-31.075
 11
-29.700542
 21
-32.925
  0
LWPOLYLINE
  5
4FE
100
AcDbEntity
  8
0
100
AcDbPolyline
 62
7
  6
CONTINUOUS
 90
8
 70
0
 10
0.6055382413
 20
26.256348772
 10
0.607756491
 20
26.2600680632
 10
0.611491159
 20
26.2656241674
 10
0.6167422452
 20
26.2728135211
 10
0.6236714412
 20
26.2814162194
 10
0.6321170555
 20
26.2912442183
 10
0.6415940135
 20
26.3021706171
 10
0.6520499789
 20
26.3140244483
  0
LWPOLYLINE
  5
4FF
100
AcDbEntity
  8
RACCORDO
100
AcDbPolyline
 62
253
  6
CONTINUOUS
 90
3
 70
0
 10
-59.9332192034
 20
-44.4251801998
 10
-59.9902064642
 20
-44.4886975858
 10
-60.0006852323
 20
-44.4999999998
  0
LINE
  5
500
100
AcDbEntity
  8
RACCORDO
100
AcDbLine
 62
253
  6
CONTINUOUS
 10
-59.3263499806
 20
-43.7538593588
 11
-59.9332192034
 21
-44.4251801998
  0
LWPOLYLINE
  5
501
100
AcDbEntity
  8
RACCORDO
100
AcDbPolyline
 62
253
  6
CONTINUOUS
 90
3
 70
0
 10
-59.0970753866
 20
-43.5000000137
 10
-59.1536177776
 20
-43.5620281671
 10
-59.3263499806
 20
-43.7538593588
  0
LWPOLYLINE
  5
502
100
AcDbEntity
  8
0
100
AcDbPolyline
 62
7
  6
CONTINUOUS
 90
3
 70
0
 10
0.6520499789
 20
26.3140244483
 10
0.6757278756
 20
26.3400146337
 10
0.6885895549
 20
26.3539975961
  0
LINE
  5
503
100
AcDbEntity
  8
0
100
AcDbLine
 62
7
  6
CONTINUOUS
 10
0.6885895549
 20
26.3539975961
 11
0.730683376
 21
26.3987948579
  0
LINE
  5
504
100
AcDbEntity
  8
0
100
AcDbLine
 62
7
  6
CONTINUOUS
 10
0.730683376
 20
26.3987948579
 11
0.776438687
 21
26.4465635978
  0
LINE
  5
505
100
AcDbEntity
  8
0
100
AcDbLine
 62
7
  6
CONTINUOUS
 10
0.776438687
 20
26.4465635978
 11
0.8242824253
 21
26.4957613761
  0
LWPOLYLINE
  5
506
100
AcDbEntity
  8
0
100
AcDbPolyline
 62
7
  6
CONTINUOUS
 90
4
 70
0
 10
0.8242824253
 20
26.4957613761
 10
0.8726515003
 20
26.5449009921
 10
0.8886430968
 20
26.5610159346
 10
0.904587605
 20
26.576917156
  0
LINE
  5
507
100
AcDbEntity
  8
0
100
AcDbLine
 62
253
  6
CONTINUOUS
 10
1.3036790795
 20
26.0534963276
 11
1.5049492314
 21
26.2547703569
  0
LINE
  5
508
100
AcDbEntity
  8
0
100
AcDbLine
 62
253
  6
CONTINUOUS
 10
1.6139597987
 20
25.7641425506
 11
1.8062912592
 21
25.9564778469
  0
LINE
  5
509
100
AcDbEntity
  8
0
100
AcDbLine
 62
7
  6
CONTINUOUS
 10
21.762906
 20
33.89558
 11
21.726621
 21
33.866166
  0
LINE
  5
50A
100
AcDbEntity
  8
0
100
AcDbLine
 62
7
  6
CONTINUOUS
 10
22.004011
 20
33.431033
 11
22.060145
 21
33.473018
  0
LINE
  5
50B
100
AcDbEntity
  8
0
100
AcDbLine
 62
7
  6
CONTINUOUS
 10
21.726621
 20
33.866166
 11
21.687803
 21
33.83873
  0
LINE
  5
50C
100
AcDbEntity
  8
0
100
AcDbLine
 62
7
  6
CONTINUOUS
 10
21.945091
 20
33.392058
 11
22.004011
 21
33.431033
  0
LINE
  5
50D
100
AcDbEntity
  8
0
100
AcDbLine
 62
7
  6
CONTINUOUS
 10
21.687803
 20
33.83873
 11
21.646455
 21
33.813362
  0
LINE
  5
50E
100
AcDbEntity
  8
0
100
AcDbLine
 62
7
  6
CONTINUOUS
 10
21.883453
 20
33.356176
 11
21.945091
 21
33.392058
  0
LINE
  5
50F
100
AcDbEntity
  8
0
100
AcDbLine
 62
7
  6
CONTINUOUS
 10
21.6531897244
 20
24.0265867593
 11
21.6
 21
24.0
  0
LINE
  5
510
100
AcDbEntity
  8
DRAFT
100
AcDbLine
 62
7
  6
CONTINUOUS
 10
-55.7
 20
-17.4
 11
-59.0
 21
-17.4864135412
  0
LINE
  5
511
100
AcDbEntity
  8
DRAFT
100
AcDbLine
 62
7
  6
CONTINUOUS
 10
-55.7
 20
-14.8
 11
-59.0
 21
-14.8864135412
  0
LINE
  5
512
100
AcDbEntity
  8
0
100
AcDbLine
 62
253
  6
CONTINUOUS
 10
33.85
 20
-14.5910987728
 11
35.3295212939
 21
-14.5910987728
  0
LINE
  5
513
100
AcDbEntity
  8
0
100
AcDbLine
 62
253
  6
CONTINUOUS
 10
34.8295974464
 20
-14.0914033593
 11
33.85
 21
-14.0914033593
  0
LINE
  5
514
100
AcDbEntity
  8
DRAFT
100
AcDbLine
 62
7
  6
CONTINUOUS
 10
59.0
 20
-14.0
 11
56.4069219382
 21
-14.0
  0
LINE
  5
515
100
AcDbEntity
  8
0
100
AcDbLine
 62
7
  6
CONTINUOUS
 10
56.4069219382
 20
-14.0
 11
55.7
 21
-14.0
  0
LINE
  5
516
100
AcDbEntity
  8
0
100
AcDbLine
 62
7
  6
CONTINUOUS
 10
34.8752852017
 20
-14.0
 11
33.85
 21
-14.0
  0
LINE
  5
517
100
AcDbEntity
  8
0
100
AcDbLine
 62
7
  6
CONTINUOUS
 10
-55.7
 20
-14.0
 11
-56.4069219382
 21
-14.0
  0
LINE
  5
518
100
AcDbEntity
  8
DRAFT
100
AcDbLine
 62
7
  6
CONTINUOUS
 10
-56.4069219382
 20
-14.0
 11
-59.0
 21
-14.0
  0
LINE
  5
519
100
AcDbEntity
  8
DRAFT
100
AcDbLine
 62
7
  6
CONTINUOUS
 10
59.0
 20
-17.4864135412
 11
55.7
 21
-17.4
  0
LINE
  5
51A
100
AcDbEntity
  8
DRAFT
100
AcDbLine
 62
7
  6
CONTINUOUS
 10
59.0
 20
-14.8864135412
 11
55.7
 21
-14.8
  0
LWPOLYLINE
  5
51B
100
AcDbEntity
  8
0
100
AcDbPolyline
 62
253
  6
CONTINUOUS
 90
22
 70
0
 10
34.8295974464
 20
-14.0914033593
 10
34.8667147029
 20
-14.0928051301
 10
34.9036879154
 20
-14.0969666578
 10
34.9403107866
 20
-14.1038785125
 10
34.9763968102
 20
-14.1135217855
 10
35.0117208269
 20
-14.125852907
 10
35.0460252351
 20
-14.1407892697
 10
35.0790989702
 20
-14.1582363564
 10
35.1107773967
 20
-14.1781046043
 10
35.1408866819
 20
-14.2002856147
 10
35.16925995
 20
-14.2246581232
 10
35.1957352942
 20
-14.2510848259
 10
35.2201609345
 20
-14.2794149317
 10
35.242399183
 20
-14.3094884381
 10
35.2623267227
 20
-14.3411382447
 10
35.2798322445
 20
-14.3741876593
 10
35.2948177947
 20
-14.4084520712
 10
35.3071992024
 20
-14.4437393972
 10
35.3169069253
 20
-14.4798515776
 10
35.3238866081
 20
-14.5165862615
 10
35.3280992523
 20
-14.5537379855
 10
35.3295212939
 20
-14.5910987728
  0
LWPOLYLINE
  5
51C
100
AcDbEntity
  8
RACCORDO
100
AcDbPolyline
 62
7
  6
CONTINUOUS
 90
10
 70
0
 10
-58.8817502263
 20
-0.4682497737
 10
-58.8806851448
 20
-0.4685506183
 10
-58.8782128783
 20
-0.4688448947
 10
-58.8743334268
 20
-0.469132603
 10
-58.8690301721
 20
-0.4694152992
 10
-58.8623197324
 20
-0.4696914273
 10
-58.8542519618
 20
-0.4699563186
 10
-58.844748993
 20
-0.4702110264
 10
-58.8338886932
 20
-0.4704544974
 10
-58.8088916703
 20
-0.4708832347
  0
LWPOLYLINE
  5
51D
100
AcDbEntity
  8
0
100
AcDbPolyline
 62
7
  6
CONTINUOUS
 90
10
 70
0
 10
23.0979539454
 20
-28.5494696404
 10
23.0980861449
 20
-28.5495265891
 10
23.0982182667
 20
-28.5496312377
 10
23.0983503106
 20
-28.5497835863
 10
23.0984822956
 20
-28.5499836679
 10
23.0986142029
 20
-28.5502314495
 10
23.098745976
 20
-28.5505268316
 10
23.0988775959
 20
-28.5508697811
 10
23.0990090817
 20
-28.5512603312
 10
23.0991404332
 20
-28.5516984818
  0
LINE
  5
51E
100
AcDbEntity
  8
0
100
AcDbLine
 62
7
  6
CONTINUOUS
 10
21.6531897244
 20
-24.0265867593
 11
21.6
 21
-24.0
  0
LINE
  5
51F
100
AcDbEntity
  8
0
100
AcDbLine
 62
7
  6
CONTINUOUS
 10
16.660464
 20
-32.663833
 11
17.780825
 21
-33.607969
  0
LINE
  5
520
100
AcDbEntity
  8
0
100
AcDbLine
 62
7
  6
CONTINUOUS
 10
17.780825
 20
-33.091613
 11
16.608751
 21
-32.1039
  0
LINE
  5
521
100
AcDbEntity
  8
0
100
AcDbLine
 62
253
  6
CONTINUOUS
 10
1.3036790795
 20
-26.0534963276
 11
1.5049571476
 21
-26.2547703569
  0
LINE
  5
522
100
AcDbEntity
  8
0
100
AcDbLine
 62
253
  6
CONTINUOUS
 10
1.6139597987
 20
-25.7641425506
 11
1.806291277
 21
-25.9564704392
  0
LINE
  5
523
100
AcDbEntity
  8
0
100
AcDbLine
 62
7
  6
CONTINUOUS
 10
0.824282425
 20
-26.4957613758
 11
0.8726515001
 21
-26.544900992
  0
LINE
  5
524
100
AcDbEntity
  8
0
100
AcDbLine
 62
7
  6
CONTINUOUS
 10
0.7764386866
 20
-26.4465635973
 11
0.824282425
 21
-26.4957613758
  0
LINE
  5
525
100
AcDbEntity
  8
0
100
AcDbLine
 62
7
  6
CONTINUOUS
 10
0.7306833756
 20
-26.3987948573
 11
0.7764386866
 21
-26.4465635973
  0
LINE
  5
526
100
AcDbEntity
  8
0
100
AcDbLine
 62
7
  6
CONTINUOUS
 10
0.6885895545
 20
-26.3539975956
 11
0.7306833756
 21
-26.3987948573
  0
LINE
  5
527
100
AcDbEntity
  8
RACCORDO
100
AcDbLine
 62
253
  6
CONTINUOUS
 10
-59.75183781
 20
44.2246076944
 11
-59.7022200374
 21
44.1704252191
  0
LINE
  5
528
100
AcDbEntity
  8
RACCORDO
100
AcDbLine
 62
253
  6
CONTINUOUS
 10
-59.1514681483
 20
43.559722946
 11
-59.0970753753
 21
43.5000000005
  0
LINE
  5
529
100
AcDbEntity
  8
RACCORDO
100
AcDbLine
 62
253
  6
CONTINUOUS
 10
-60.0006852314
 20
44.4999999992
 11
-59.75183781
 21
44.2246076944
  0
LINE
  5
52A
100
AcDbEntity
  8
RACCORDO
100
AcDbLine
 62
253
  6
CONTINUOUS
 10
-59.7022200374
 20
44.1704252191
 11
-59.1514681483
 21
43.559722946
  0
LWPOLYLINE
  5
52B
100
AcDbEntity
  8
0
100
AcDbPolyline
 62
7
  6
CONTINUOUS
 90
10
 70
0
 10
0.6055382413
 20
-26.256348772
 10
0.607756491
 20
-26.2600680631
 10
0.6114911589
 20
-26.2656241673
 10
0.6167422451
 20
-26.272813521
 10
0.6236714411
 20
-26.2814162192
 10
0.6321170553
 20
-26.2912442181
 10
0.6415940133
 20
-26.3021706169
 10
0.6520499786
 20
-26.314024448
 10
0.6635372878
 20
-26.3266530251
 10
0.6885895545
 20
-26.3539975956
  0
LINE
  5
52C
100
AcDbEntity
  8
DRAFT
100
AcDbLine
 62
7
  6
CONTINUOUS
 10
-10.8785440846
 20
36.5357171432
 11
-10.8473874094
 21
35.5051672761
  0
LINE
  5
52D
100
AcDbEntity
  8
DRAFT
100
AcDbLine
 62
7
  6
CONTINUOUS
 10
-10.832421991
 20
27.4081372223
 11
-10.8162156883
 21
25.8
  0
LINE
  5
52E
100
AcDbEntity
  8
DRAFT
100
AcDbLine
 62
7
  6
CONTINUOUS
 10
-11.6525958309
 20
-35.5057216264
 11
-11.6633497135
 21
-30.1131646087
  0
LINE
  5
52F
100
AcDbEntity
  8
DRAFT
100
AcDbLine
 62
7
  6
CONTINUOUS
 10
-10.8473874094
 20
35.5051672761
 11
-10.833738765
 21
28.3098232939
  0
LINE
  5
530
100
AcDbEntity
  8
DRAFT
100
AcDbLine
 62
7
  6
CONTINUOUS
 10
-11.6633497135
 20
-30.1131646087
 11
-11.6675593246
 21
-27.4099912606
  0
LINE
  5
531
100
AcDbEntity
  8
DRAFT
100
AcDbLine
 62
7
  6
CONTINUOUS
 10
-10.833738765
 20
28.3098232939
 11
-10.832421991
 21
27.4081372223
  0
LINE
  5
532
100
AcDbEntity
  8
0
100
AcDbLine
 62
7
  6
CONTINUOUS
 10
-11.6837843117
 20
-24.0
 11
-11.6837843117
 21
-25.8
  0
LINE
  5
533
100
AcDbEntity
  8
0
100
AcDbLine
 62
7
  6
CONTINUOUS
 10
-11.6837843117
 20
24.0
 11
-11.6837843117
 21
25.8
  0
LINE
  5
534
100
AcDbEntity
  8
RACCORDO
100
AcDbLine
 62
7
  6
CONTINUOUS
 10
-11.6
 20
-43.0
 11
-11.6
 21
-36.8848266046
  0
LINE
  5
535
100
AcDbEntity
  8
RACCORDO
100
AcDbLine
 62
7
  6
CONTINUOUS
 10
-11.6
 20
36.8848266046
 11
-11.6
 21
43.0
  0
LINE
  5
536
100
AcDbEntity
  8
RACCORDO
100
AcDbLine
 62
7
  6
CONTINUOUS
 10
-10.9
 20
43.0
 11
-10.9
 21
36.8848266046
  0
LINE
  5
537
100
AcDbEntity
  8
RACCORDO
100
AcDbLine
 62
7
  6
CONTINUOUS
 10
-10.9
 20
-36.8848266046
 11
-10.9
 21
-43.0
  0
LINE
  5
538
100
AcDbEntity
  8
0
100
AcDbLine
 62
7
  6
CONTINUOUS
 10
-10.8162156883
 20
-24.0
 11
-10.8162156883
 21
-25.8
  0
LINE
  5
539
100
AcDbEntity
  8
0
100
AcDbLine
 62
7
  6
CONTINUOUS
 10
-10.8162156883
 20
24.0
 11
-10.8162156883
 21
25.8
  0
LINE
  5
53A
100
AcDbEntity
  8
DRAFT
100
AcDbLine
 62
7
  6
CONTINUOUS
 10
-10.832421991
 20
-27.4081372223
 11
-10.8416208903
 21
-32.8110002393
  0
LINE
  5
53B
100
AcDbEntity
  8
DRAFT
100
AcDbLine
 62
7
  6
CONTINUOUS
 10
-11.6675593246
 20
27.4099912606
 11
-11.6546040651
 21
34.6083752552
  0
LINE
  5
53C
100
AcDbEntity
  8
DRAFT
100
AcDbLine
 62
7
  6
CONTINUOUS
 10
-11.6546040651
 20
34.6083752552
 11
-11.6525958309
 21
35.5057216264
  0
LINE
  5
53D
100
AcDbEntity
  8
DRAFT
100
AcDbLine
 62
7
  6
CONTINUOUS
 10
-10.8416208903
 20
-32.8110002393
 11
-10.8473874094
 21
-35.5051672761
  0
LINE
  5
53E
100
AcDbEntity
  8
DRAFT
100
AcDbLine
 62
7
  6
CONTINUOUS
 10
-10.832421991
 20
-27.4081372223
 11
-10.8162156883
 21
-25.8
  0
LINE
  5
53F
100
AcDbEntity
  8
DRAFT
100
AcDbLine
 62
7
  6
CONTINUOUS
 10
-10.8785440846
 20
-36.5357171432
 11
-10.8473874094
 21
-35.5051672761
  0
LINE
  5
540
100
AcDbEntity
  8
0
100
AcDbLine
 62
7
  6
CONTINUOUS
 10
-20.2500001431
 20
-33.9680850744
 11
-20.2875
 21
-34.1212765455
  0
LINE
  5
541
100
AcDbEntity
  8
0
100
AcDbLine
 62
7
  6
CONTINUOUS
 10
-19.05
 20
-34.3510638595
 11
-19.0125001431
 21
-34.1978723884
  0
LINE
  5
542
100
AcDbEntity
  8
0
100
AcDbLine
 62
7
  6
CONTINUOUS
 10
-23.3999999285
 20
-34.2361702561
 11
-23.3625000715
 21
-34.1212765455
  0
LINE
  5
543
100
AcDbEntity
  8
0
100
AcDbLine
 62
7
  6
CONTINUOUS
 10
-23.3999999285
 20
-34.8489361942
 11
-23.3625000715
 21
-34.7340425372
  0
LINE
  5
544
100
AcDbEntity
  8
0
100
AcDbLine
 62
7
  6
CONTINUOUS
 10
-22.4625000715
 20
-34.9638297975
 11
-22.4999999285
 21
-35.0787234008
  0
LINE
  5
545
100
AcDbEntity
  8
0
100
AcDbLine
 62
7
  6
CONTINUOUS
 10
-20.8125001431
 20
-34.9638297975
 11
-20.85
 21
-35.0787234008
  0
LINE
  5
546
100
AcDbEntity
  8
0
100
AcDbLine
 62
7
  6
CONTINUOUS
 10
-19.0125001431
 20
-35.193617031
 11
-18.9749998569
 21
-35.0787234008
  0
LINE
  5
547
100
AcDbEntity
  8
0
100
AcDbLine
 62
7
  6
CONTINUOUS
 10
-17.845281
 20
-32.925
 11
-17.651993
 21
-32.386533
  0
LINE
  5
548
100
AcDbEntity
  8
0
100
AcDbLine
 62
7
  6
CONTINUOUS
 10
-17.574686
 20
-32.164951
 11
-17.275723
 21
-31.34334
  0
LINE
  5
549
100
AcDbEntity
  8
0
100
AcDbLine
 62
7
  6
CONTINUOUS
 10
-25.1999999821
 20
-34.0063829422
 11
-25.2750000179
 21
-34.1978723884
  0
LINE
  5
54A
100
AcDbEntity
  8
0
100
AcDbLine
 62
7
  6
CONTINUOUS
 10
-24.0375000715
 20
-35.193617031
 11
-23.9624999285
 21
-35.0021276653
  0
LINE
  5
54B
100
AcDbEntity
  8
0
100
AcDbLine
 62
7
  6
CONTINUOUS
 10
-23.5124999285
 20
-34.0063829422
 11
-23.5875000715
 21
-34.1978723884
  0
LINE
  5
54C
100
AcDbEntity
  8
0
100
AcDbLine
 62
7
  6
CONTINUOUS
 10
-22.3499998569
 20
-35.193617031
 11
-22.2750001431
 21
-35.0021276653
  0
LINE
  5
54D
100
AcDbEntity
  8
0
100
AcDbLine
 62
7
  6
CONTINUOUS
 10
-20.7000001431
 20
-35.193617031
 11
-20.625
 21
-35.0021276653
  0
LWPOLYLINE
  5
54E
100
AcDbEntity
  8
0
100
AcDbPolyline
 62
7
  6
CONTINUOUS
 90
8
 70
0
 10
-23.0991403738
 20
-28.5516983052
 10
-23.101355776
 20
-28.5557579317
 10
-23.1050867994
 20
-28.5616387915
 10
-23.1103334442
 20
-28.5691359728
 10
-23.1172572098
 20
-28.5780281126
 10
-23.1256965966
 20
-28.5881270581
 10
-23.1351671063
 20
-28.5993068767
 10
-23.1456165243
 20
-28.6113961839
  0
LWPOLYLINE
  5
54F
100
AcDbEntity
  8
0
100
AcDbPolyline
 62
7
  6
CONTINUOUS
 90
8
 70
0
 10
-23.1009203203
 20
-27.9519724288
 10
-23.1031364806
 20
-27.9559431926
 10
-23.106868468
 20
-27.9617392909
 10
-23.1121162828
 20
-27.9691561609
 10
-23.1190414742
 20
-27.9779728168
 10
-23.1274824929
 20
-27.9880011311
 10
-23.1369546907
 20
-27.999114917
 10
-23.1474058213
 20
-28.0111428961
  0
LINE
  5
550
100
AcDbEntity
  8
0
100
AcDbLine
 62
7
  6
CONTINUOUS
 10
18.618438
 20
35.501513
 11
15.154465
 21
31.482709
  0
LINE
  5
551
100
AcDbEntity
  8
0
100
AcDbLine
 62
7
  6
CONTINUOUS
 10
15.830121
 20
31.482709
 11
18.557478
 21
34.646947
  0
LINE
  5
552
100
AcDbEntity
  8
0
100
AcDbLine
 62
7
  6
CONTINUOUS
 10
22.16368
 20
33.565623
 11
22.210886
 21
33.616029
  0
LINE
  5
553
100
AcDbEntity
  8
0
100
AcDbLine
 62
7
  6
CONTINUOUS
 10
21.827831
 20
33.95997
 11
21.796649
 21
33.926877
  0
LINE
  5
554
100
AcDbEntity
  8
RACCORDO
100
AcDbLine
 62
253
  6
CONTINUOUS
 10
-58.9311204268
 20
-42.7311508878
 11
-59.0
 21
-42.800030461
  0
LINE
  5
555
100
AcDbEntity
  8
RACCORDO
100
AcDbLine
 62
253
  6
CONTINUOUS
 10
-58.7311508878
 20
-42.9311204268
 11
-58.800030461
 21
-43.0
  0
LINE
  5
556
100
AcDbEntity
  8
DRAFT
100
AcDbLine
 62
7
  6
CONTINUOUS
 10
-35.3837843117
 20
-24.0837843117
 11
-35.4102842764
 21
-24.1102842764
  0
LINE
  5
557
100
AcDbEntity
  8
0
100
AcDbLine
 62
7
  6
CONTINUOUS
 10
25.85986
 20
35.521553
 11
23.848192
 21
33.509885
  0
LINE
  5
558
100
AcDbEntity
  8
0
100
AcDbLine
 62
7
  6
CONTINUOUS
 10
24.571935
 20
33.509883
 11
26.583542
 21
35.521553
  0
LINE
  5
559
100
AcDbEntity
  8
RACCORDO
100
AcDbLine
 62
7
  6
CONTINUOUS
 10
34.5311204268
 20
42.9311204268
 11
34.6
 21
43.0
  0
LINE
  5
55A
100
AcDbEntity
  8
0
100
AcDbLine
 62
7
  6
CONTINUOUS
 10
28.888368
 20
36.780106
 11
27.981039
 21
35.872779
  0
LINE
  5
55B
100
AcDbEntity
  8
0
100
AcDbLine
 62
7
  6
CONTINUOUS
 10
22.113399
 20
33.517915
 11
22.16368
 21
33.565623
  0
LINE
  5
55C
100
AcDbEntity
  8
0
100
AcDbLine
 62
7
  6
CONTINUOUS
 10
21.796649
 20
33.926877
 11
21.762906
 21
33.89558
  0
LINE
  5
55D
100
AcDbEntity
  8
RACCORDO
100
AcDbLine
 62
253
  6
CONTINUOUS
 10
-60.4886975864
 20
-43.9902064297
 11
-60.4999999997
 21
-44.0006852321
  0
LINE
  5
55E
100
AcDbEntity
  8
RACCORDO
100
AcDbLine
 62
253
  6
CONTINUOUS
 10
-59.5000000323
 20
-43.0970754028
 11
-59.5620282171
 21
-43.1536176709
  0
LINE
  5
55F
100
AcDbEntity
  8
RACCORDO
100
AcDbLine
 62
253
  6
CONTINUOUS
 10
-59.5620282171
 20
-43.1536176709
 11
-60.4886975864
 21
-43.9902064297
  0
LINE
  5
560
100
AcDbEntity
  8
0
100
AcDbLine
 62
7
  6
CONTINUOUS
 10
22.060145
 20
33.473018
 11
22.113399
 21
33.517915
  0
LINE
  5
561
100
AcDbEntity
  8
0
100
AcDbLine
 62
7
  6
CONTINUOUS
 10
24.2676196936
 20
24.0
 11
24.3106909189
 21
24.0215290512
  0
LINE
  5
562
100
AcDbEntity
  8
0
100
AcDbLine
 62
7
  6
CONTINUOUS
 10
24.2676196936
 20
-24.0
 11
24.3106909189
 21
-24.0215290512
  0
LWPOLYLINE
  5
563
100
AcDbEntity
  8
RACCORDO
100
AcDbPolyline
 62
253
  6
CONTINUOUS
 90
3
 70
0
 10
-60.1704252079
 20
43.7022200255
 10
-59.9932131127
 20
43.5428516549
 10
-59.930622447
 20
43.4860295171
  0
LINE
  5
564
100
AcDbEntity
  8
RACCORDO
100
AcDbLine
 62
253
  6
CONTINUOUS
 10
-60.4999999988
 20
44.0006852308
 11
-60.2246076944
 21
43.75183781
  0
LINE
  5
565
100
AcDbEntity
  8
RACCORDO
100
AcDbLine
 62
253
  6
CONTINUOUS
 10
-59.930622447
 20
43.4860295171
 11
-59.559722962
 21
43.1514681353
  0
LINE
  5
566
100
AcDbEntity
  8
RACCORDO
100
AcDbLine
 62
253
  6
CONTINUOUS
 10
-59.559722962
 20
43.1514681353
 11
-59.5000000141
 21
43.097075387
  0
LINE
  5
567
100
AcDbEntity
  8
RACCORDO
100
AcDbLine
 62
253
  6
CONTINUOUS
 10
-60.2246076944
 20
43.75183781
 11
-60.1704252079
 21
43.7022200255
  0
LINE
  5
568
100
AcDbEntity
  8
RACCORDO
100
AcDbLine
 62
253
  6
CONTINUOUS
 10
-58.9311204268
 20
42.7311508878
 11
-59.0
 21
42.800030461
  0
LINE
  5
569
100
AcDbEntity
  8
RACCORDO
100
AcDbLine
 62
253
  6
CONTINUOUS
 10
-58.7311508878
 20
42.9311204268
 11
-58.800030461
 21
43.0
  0
LINE
  5
56A
100
AcDbEntity
  8
DRAFT
100
AcDbLine
 62
7
  6
CONTINUOUS
 10
-35.3837843117
 20
24.0837843117
 11
-35.4102842764
 21
24.1102842764
  0
LINE
  5
56B
100
AcDbEntity
  8
RACCORDO
100
AcDbLine
 62
7
  6
CONTINUOUS
 10
34.5311204268
 20
-42.9311204268
 11
34.6
 21
-43.0
  0
LWPOLYLINE
  5
56C
100
AcDbEntity
  8
0
100
AcDbPolyline
 62
7
  6
CONTINUOUS
 90
9
 70
0
 10
-23.1009203203
 20
27.9519724288
 10
-23.1031364806
 20
27.9559431926
 10
-23.1068684681
 20
27.961739291
 10
-23.1121162829
 20
27.969156161
 10
-23.1190414743
 20
27.9779728169
 10
-23.1274824931
 20
27.9880011313
 10
-23.1369546909
 20
27.9991149172
 10
-23.1474058215
 20
28.0111428964
 10
-23.1710737109
 20
28.0374428793
  0
LWPOLYLINE
  5
56D
100
AcDbEntity
  8
0
100
AcDbPolyline
 62
7
  6
CONTINUOUS
 90
9
 70
0
 10
-23.0991403738
 20
28.5516983052
 10
-23.101355776
 20
28.5557579317
 10
-23.1050867994
 20
28.5616387915
 10
-23.1103334442
 20
28.5691359728
 10
-23.1172572098
 20
28.5780281126
 10
-23.1256965966
 20
28.5881270581
 10
-23.1351671063
 20
28.5993068767
 10
-23.1456165243
 20
28.6113961839
 10
-23.1692808746
 20
28.6378051504
  0
LINE
  5
56E
100
AcDbEntity
  8
0
100
AcDbLine
 62
7
  6
CONTINUOUS
 10
-24.516148
 20
34.224203
 11
-23.536762
 21
31.612597
  0
LINE
  5
56F
100
AcDbEntity
  8
0
100
AcDbLine
 62
7
  6
CONTINUOUS
 10
-23.473659
 20
33.391567
 11
-24.299696
 21
35.612109
  0
LINE
  5
570
100
AcDbEntity
  8
0
100
AcDbLine
 62
7
  6
CONTINUOUS
 10
-18.018429
 20
31.612597
 11
-19.245579
 21
35.612109
  0
LINE
  5
571
100
AcDbEntity
  8
0
100
AcDbLine
 62
7
  6
CONTINUOUS
 10
-15.7899555605
 20
32.0462239991
 11
-15.6633139566
 21
31.6125968881
  0
LINE
  5
572
100
AcDbEntity
  8
0
100
AcDbLine
 62
7
  6
CONTINUOUS
 10
-19.114604
 20
32.411042
 11
-18.898332
 21
31.612597
  0
LINE
  5
573
100
AcDbEntity
  8
0
100
AcDbLine
 62
7
  6
CONTINUOUS
 10
-15.0469659048
 20
32.325032531
 11
-15.1456834585
 21
32.6950951537
  0
LINE
  5
574
100
AcDbEntity
  8
0
100
AcDbLine
 62
7
  6
CONTINUOUS
 10
-14.8602803749
 20
31.6125968881
 11
-15.0469659048
 21
32.325032531
  0
LINE
  5
575
100
AcDbEntity
  8
0
100
AcDbLine
 62
7
  6
CONTINUOUS
 10
-19.665075
 20
34.513145
 11
-19.281449
 21
33.028875
  0
LWPOLYLINE
  5
576
100
AcDbEntity
  8
0
100
AcDbPolyline
 62
7
  6
CONTINUOUS
 90
22
 70
0
 10
-15.1456834585
 20
32.6950951537
 10
-15.1605348432
 20
32.7525592387
 10
-15.1760201493
 20
32.8083996976
 10
-15.1921393769
 20
32.8626167098
 10
-15.2087784778
 20
32.9153245667
 10
-15.2260515003
 20
32.966409315
 10
-15.2443005886
 20
33.0155287961
 10
-15.2636254317
 20
33.0626141376
 10
-15.2839263408
 20
33.1077346014
 10
-15.3052463931
 20
33.1507552693
 10
-15.3276356676
 20
33.191739545
 10
-15.3510440853
 20
33.230624385
 10
-15.3753644866
 20
33.2670852277
 10
-15.4005916574
 20
33.3010576435
 10
-15.4267308118
 20
33.3326064218
 10
-15.4536904328
 20
33.3616008463
 10
-15.4816470944
 20
33.388076649
 10
-15.5104242226
 20
33.4119983951
 10
-15.5394005781
 20
33.4331286197
 10
-15.5683690812
 20
33.4513882507
 10
-15.5975368115
 20
33.4668565958
 10
-15.6269037691
 20
33.4795337467
  0
LWPOLYLINE
  5
577
100
AcDbEntity
  8
0
100
AcDbPolyline
 62
253
  6
CONTINUOUS
 90
25
 70
0
 10
-1.8062912531
 20
-25.9564778408
 10
-1.8055729109
 20
-25.9760463211
 10
-1.8035701763
 20
-25.9955222749
 10
-1.8002925193
 20
-26.0148221364
 10
-1.795755326
 20
-26.0338601227
 10
-1.7899787373
 20
-26.0525579411
 10
-1.7829857327
 20
-26.0708445823
 10
-1.7748031911
 20
-26.0886456718
 10
-1.7654669431
 20
-26.1058799274
 10
-1.7550204025
 20
-26.1224690627
 10
-1.7435097342
 20
-26.1383404131
 10
-1.7309833126
 20
-26.1534279225
 10
-1.7174955886
 20
-26.1676683697
 10
-1.7031041449
 20
-26.1810010345
 10
-1.6878706728
 20
-26.1933688342
 10
-1.6718614818
 20
-26.204719859
 10
-1.6551432258
 20
-26.2150068013
 10
-1.6377889394
 20
-26.2241846173
 10
-1.6198795763
 20
-26.2322127977
 10
-1.6015030736
 20
-26.2390547647
 10
-1.5827275609
 20
-26.2446878767
 10
-1.5636060501
 20
-26.2490959761
 10
-1.5442097982
 20
-26.2522578659
 10
-1.5246297671
 20
-26.2541533569
 10
-1.5049492257
 20
-26.2547703512
  0
LWPOLYLINE
  5
578
100
AcDbEntity
  8
0
100
AcDbPolyline
 62
253
  6
CONTINUOUS
 90
25
 70
0
 10
-2.1061085165
 20
-25.9777195953
 10
-2.1046726428
 20
-26.0172408615
 10
-2.1007296095
 20
-26.0562472476
 10
-2.0942794167
 20
-26.0947387774
 10
-2.085274702
 20
-26.1328690139
 10
-2.0737628277
 20
-26.170484436
 10
-2.059885881
 20
-26.2071244641
 10
-2.0436107396
 20
-26.2427858413
 10
-2.0249705257
 20
-26.2774719136
 10
-2.0042066925
 20
-26.310732047
 10
-1.981293581
 20
-26.3425442708
 10
-1.9562568502
 20
-26.3729306766
 10
-1.9294149305
 20
-26.401506756
 10
-1.900744837
 20
-26.4282499564
 10
-1.8702695545
 20
-26.453182963
 10
-1.838376468
 20
-26.4759891436
 10
-1.8050423002
 20
-26.4966426604
 10
-1.7702903284
 20
-26.515169475
 10
-1.7345777702
 20
-26.531330662
 10
-1.6979122695
 20
-26.5450920538
 10
-1.6602861825
 20
-26.5564879135
 10
-1.6221337943
 20
-26.5653819596
 10
-1.5835998669
 20
-26.5717287826
 10
-1.5445396384
 20
-26.5755738438
 10
-1.5049531088
 20
-26.576917156
  0
LINE
  5
579
100
AcDbEntity
  8
0
100
AcDbLine
 62
253
  6
CONTINUOUS
 10
-0.9019469965
 20
-27.5530314268
 11
-0.904587605
 21
-26.576917156
  0
LINE
  5
57A
100
AcDbEntity
  8
0
100
AcDbLine
 62
253
  6
CONTINUOUS
 10
-0.6020690266
 20
-27.5504980189
 11
-0.6055382413
 21
-26.256348772
  0
LINE
  5
57B
100
AcDbEntity
  8
0
100
AcDbLine
 62
253
  6
CONTINUOUS
 10
0.6020690266
 20
27.5504980189
 11
0.6055382413
 21
26.256348772
  0
LINE
  5
57C
100
AcDbEntity
  8
0
100
AcDbLine
 62
253
  6
CONTINUOUS
 10
-2.110534333
 20
-24.0265867593
 11
-2.1061085165
 21
-25.9777195953
  0
LINE
  5
57D
100
AcDbEntity
  8
0
100
AcDbLine
 62
253
  6
CONTINUOUS
 10
-1.8106909189
 20
-24.0215290512
 11
-1.8062912592
 21
-25.9564778469
  0
LINE
  5
57E
100
AcDbEntity
  8
0
100
AcDbLine
 62
7
  6
CONTINUOUS
 10
-1.7676196936
 20
25.2081110346
 11
-1.7676196936
 21
24.0
  0
LINE
  5
57F
100
AcDbEntity
  8
0
100
AcDbLine
 62
7
  6
CONTINUOUS
 10
-1.7676196936
 20
-24.0
 11
-1.7676196936
 21
-25.2081110346
  0
LINE
  5
580
100
AcDbEntity
  8
0
100
AcDbLine
 62
7
  6
CONTINUOUS
 10
-1.6139597987
 20
25.7641425506
 11
-1.6139597987
 21
25.2465113794
  0
LINE
  5
581
100
AcDbEntity
  8
0
100
AcDbLine
 62
7
  6
CONTINUOUS
 10
-1.6139597987
 20
-25.2465113794
 11
-1.6139597987
 21
-25.7641425506
  0
LINE
  5
582
100
AcDbEntity
  8
0
100
AcDbLine
 62
253
  6
CONTINUOUS
 10
-1.5049531088
 20
26.576917156
 11
-1.5049531088
 21
26.2547703569
  0
LINE
  5
583
100
AcDbEntity
  8
0
100
AcDbLine
 62
253
  6
CONTINUOUS
 10
-1.5049531088
 20
-26.576917156
 11
-1.5049531088
 21
-26.2547703569
  0
LINE
  5
584
100
AcDbEntity
  8
0
100
AcDbLine
 62
7
  6
CONTINUOUS
 10
-1.2
 20
26.05
 11
-1.2
 21
25.65
  0
LINE
  5
585
100
AcDbEntity
  8
0
100
AcDbLine
 62
7
  6
CONTINUOUS
 10
-1.2
 20
-25.65
 11
-1.2
 21
-26.05
  0
LINE
  5
586
100
AcDbEntity
  8
0
100
AcDbLine
 62
7
  6
CONTINUOUS
 10
-0.9
 20
-25.2081110346
 11
-0.9
 21
-24.0
  0
LINE
  5
587
100
AcDbEntity
  8
0
100
AcDbLine
 62
7
  6
CONTINUOUS
 10
-0.9
 20
24.0
 11
-0.9
 21
25.2081110346
  0
LINE
  5
588
100
AcDbEntity
  8
0
100
AcDbLine
 62
7
  6
CONTINUOUS
 10
-0.4
 20
27.5
 11
-0.4
 21
26.05
  0
LINE
  5
589
100
AcDbEntity
  8
0
100
AcDbLine
 62
7
  6
CONTINUOUS
 10
-0.4
 20
-27.5
 11
-0.4
 21
-26.05
  0
LINE
  5
58A
100
AcDbEntity
  8
0
100
AcDbLine
 62
7
  6
CONTINUOUS
 10
0.4
 20
27.5
 11
0.4
 21
26.05
  0
LINE
  5
58B
100
AcDbEntity
  8
0
100
AcDbLine
 62
7
  6
CONTINUOUS
 10
0.4
 20
-27.5
 11
0.4
 21
-26.05
  0
LINE
  5
58C
100
AcDbEntity
  8
0
100
AcDbLine
 62
253
  6
CONTINUOUS
 10
-2.1061085165
 20
25.9777195953
 11
-2.110534333
 21
24.0265867593
  0
LINE
  5
58D
100
AcDbEntity
  8
0
100
AcDbLine
 62
253
  6
CONTINUOUS
 10
-1.806291277
 20
25.9564704392
 11
-1.8106909189
 21
24.0215290512
  0
LINE
  5
58E
100
AcDbEntity
  8
0
100
AcDbLine
 62
253
  6
CONTINUOUS
 10
-0.904587605
 20
26.576917156
 11
-0.9019469965
 21
27.5530314268
  0
LINE
  5
58F
100
AcDbEntity
  8
0
100
AcDbLine
 62
253
  6
CONTINUOUS
 10
-0.6055382413
 20
26.256348772
 11
-0.6020690266
 21
27.5504980189
  0
LINE
  5
590
100
AcDbEntity
  8
0
100
AcDbLine
 62
253
  6
CONTINUOUS
 10
0.6055382413
 20
-26.256348772
 11
0.6020690266
 21
-27.5504980189
  0
LINE
  5
591
100
AcDbEntity
  8
0
100
AcDbLine
 62
7
  6
CONTINUOUS
 10
-17.407161
 20
-31.075
 11
-18.102905
 21
-32.925
  0
LINE
  5
592
100
AcDbEntity
  8
0
100
AcDbLine
 62
7
  6
CONTINUOUS
 10
-19.1999998569
 20
-34.1978723884
 11
-19.275
 21
-34.3510638595
  0
LINE
  5
593
100
AcDbEntity
  8
0
100
AcDbLine
 62
7
  6
CONTINUOUS
 10
-19.1625
 20
-35.0787234008
 11
-19.1999998569
 21
-35.1553191364
  0
LINE
  5
594
100
AcDbEntity
  8
0
100
AcDbLine
 62
7
  6
CONTINUOUS
 10
21.905579
 20
34.068948
 11
21.882345
 21
34.031122
  0
LINE
  5
595
100
AcDbEntity
  8
0
100
AcDbLine
 62
7
  6
CONTINUOUS
 10
22.295656
 20
33.724412
 11
22.332998
 21
33.782095
  0
LINE
  5
596
100
AcDbEntity
  8
0
100
AcDbLine
 62
7
  6
CONTINUOUS
 10
-25.0499999642
 20
-34.1212765455
 11
-24.9750000358
 21
-34.0063829422
  0
LINE
  5
597
100
AcDbEntity
  8
0
100
AcDbLine
 62
7
  6
CONTINUOUS
 10
-24.1874999285
 20
-34.427659595
 11
-24.2624999642
 21
-34.5425531983
  0
LINE
  5
598
100
AcDbEntity
  8
0
100
AcDbLine
 62
7
  6
CONTINUOUS
 10
-24.1874999285
 20
-35.0787234008
 11
-24.2624999642
 21
-35.193617031
  0
LINE
  5
599
100
AcDbEntity
  8
0
100
AcDbLine
 62
7
  6
CONTINUOUS
 10
-23.3625000715
 20
-34.1212765455
 11
-23.2874999285
 21
-34.0063829422
  0
LINE
  5
59A
100
AcDbEntity
  8
0
100
AcDbLine
 62
7
  6
CONTINUOUS
 10
-22.4999999285
 20
-35.0787234008
 11
-22.5750000715
 21
-35.193617031
  0
LINE
  5
59B
100
AcDbEntity
  8
0
100
AcDbLine
 62
7
  6
CONTINUOUS
 10
21.882345
 20
34.031122
 11
21.85641
 21
33.994754
  0
LINE
  5
59C
100
AcDbEntity
  8
0
100
AcDbLine
 62
7
  6
CONTINUOUS
 10
-25.0875000358
 20
-33.8531914711
 11
-25.1999999821
 21
-34.0063829422
  0
LINE
  5
59D
100
AcDbEntity
  8
0
100
AcDbLine
 62
7
  6
CONTINUOUS
 10
22.254915
 20
33.669004
 11
22.295656
 21
33.724412
  0
LINE
  5
59E
100
AcDbEntity
  8
0
100
AcDbLine
 62
7
  6
CONTINUOUS
 10
21.85641
 20
33.994754
 11
21.827831
 21
33.95997
  0
LINE
  5
59F
100
AcDbEntity
  8
0
100
AcDbLine
 62
7
  6
CONTINUOUS
 10
22.210886
 20
33.616029
 11
22.254915
 21
33.669004
  0
LWPOLYLINE
  5
5A0
100
AcDbEntity
  8
0
100
AcDbPolyline
 62
7
  6
CONTINUOUS
 90
3
 70
0
 10
23.1456165243
 20
28.6113961839
 10
23.1692808746
 20
28.6378051504
 10
23.1821358165
 20
28.6519729641
  0
LWPOLYLINE
  5
5A1
100
AcDbEntity
  8
0
100
AcDbPolyline
 62
7
  6
CONTINUOUS
 90
3
 70
0
 10
23.1474058213
 20
28.0111428961
 10
23.1710737106
 20
28.037442879
 10
23.1839304114
 20
28.0515626313
  0
LWPOLYLINE
  5
5A2
100
AcDbEntity
  8
0
100
AcDbPolyline
 62
7
  6
CONTINUOUS
 90
3
 70
0
 10
23.1821358165
 20
28.6519729641
 10
23.209724059
 20
28.6817335213
 10
23.224209561
 20
28.6972298427
  0
LWPOLYLINE
  5
5A3
100
AcDbEntity
  8
0
100
AcDbPolyline
 62
7
  6
CONTINUOUS
 90
3
 70
0
 10
23.1839304114
 20
28.0515626313
 10
23.2115221613
 20
28.0812396503
 10
23.2260093923
 20
28.0967001885
  0
LINE
  5
5A4
100
AcDbEntity
  8
0
100
AcDbLine
 62
7
  6
CONTINUOUS
 10
23.224209561
 20
28.6972298427
 11
23.2699452977
 21
28.7453238453
  0
LINE
  5
5A5
100
AcDbEntity
  8
0
100
AcDbLine
 62
7
  6
CONTINUOUS
 10
23.2260093923
 20
28.0967001885
 11
23.2717502294
 21
28.1447100402
  0
LINE
  5
5A6
100
AcDbEntity
  8
0
100
AcDbLine
 62
7
  6
CONTINUOUS
 10
23.2699452977
 20
28.7453238453
 11
23.3177700141
 21
28.7947202098
  0
LINE
  5
5A7
100
AcDbEntity
  8
0
100
AcDbLine
 62
7
  6
CONTINUOUS
 10
23.2717502294
 20
28.1447100402
 11
23.3195798998
 21
28.1940553929
  0
LWPOLYLINE
  5
5A8
100
AcDbEntity
  8
0
100
AcDbPolyline
 62
7
  6
CONTINUOUS
 90
4
 70
0
 10
23.3177700141
 20
28.7947202098
 10
23.3661208464
 20
28.8439392567
 10
23.3821066032
 20
28.8600557844
 10
23.3980453875
 20
28.8759468191
  0
LWPOLYLINE
  5
5A9
100
AcDbEntity
  8
0
100
AcDbPolyline
 62
7
  6
CONTINUOUS
 90
4
 70
0
 10
23.3195798998
 20
28.1940553929
 10
23.3679354828
 20
28.2432545767
 10
23.3839227606
 20
28.2593709862
 10
23.399863036
 20
28.2752649765
  0
LINE
  5
5AA
100
AcDbEntity
  8
0
100
AcDbLine
 62
7
  6
CONTINUOUS
 10
28.70475
 20
35.872779
 11
29.612046
 21
36.780106
  0
LINE
  5
5AB
100
AcDbEntity
  8
0
100
AcDbLine
 62
7
  6
CONTINUOUS
 10
23.1000457878
 20
27.9500457878
 11
22.9
 21
27.75
  0
LINE
  5
5AC
100
AcDbEntity
  8
0
100
AcDbLine
 62
253
  6
CONTINUOUS
 10
23.8036790795
 20
27.7534963276
 11
24.0002245921
 21
27.9500457878
  0
LINE
  5
5AD
100
AcDbEntity
  8
0
100
AcDbLine
 62
253
  6
CONTINUOUS
 10
24.1139597987
 20
27.4641425506
 11
24.3017819411
 21
27.6519684658
  0
LINE
  5
5AE
100
AcDbEntity
  8
0
100
AcDbLine
 62
7
  6
CONTINUOUS
 10
21.3
 20
27.35
 11
20.8858036464
 21
26.9465093858
  0
LINE
  5
5AF
100
AcDbEntity
  8
RACCORDO
100
AcDbLine
 62
7
  6
CONTINUOUS
 10
56.0357171432
 20
23.2785440846
 11
56.0852377442
 21
23.2950375388
  0
LINE
  5
5B0
100
AcDbEntity
  8
DRAFT
100
AcDbLine
 62
7
  6
CONTINUOUS
 10
55.5907005033
 20
-0.3849101299
 11
54.6306911463
 21
-0.4139341497
  0
LWPOLYLINE
  5
5B1
100
AcDbEntity
  8
RACCORDO
100
AcDbPolyline
 62
7
  6
CONTINUOUS
 90
8
 70
0
 10
58.8447489337
 20
-0.4702110252
 10
58.8542519071
 20
-0.4699563176
 10
58.8623196835
 20
-0.4696914264
 10
58.8690301303
 20
-0.4694152986
 10
58.8743333934
 20
-0.4691326025
 10
58.8782128548
 20
-0.4688448944
 10
58.8806851324
 20
-0.4685506182
 10
58.8817502263
 20
-0.4682497737
  0
LINE
  5
5B2
100
AcDbEntity
  8
RACCORDO
100
AcDbLine
 62
7
  6
CONTINUOUS
 10
58.821954454
 20
-0.4706789021
 11
58.8447489337
 21
-0.4702110252
  0
LINE
  5
5B3
100
AcDbEntity
  8
DRAFT
100
AcDbLine
 62
7
  6
CONTINUOUS
 10
47.5
 20
-0.4512393766
 11
49.2944500197
 21
-0.419917135
  0
LINE
  5
5B4
100
AcDbEntity
  8
RACCORDO
100
AcDbLine
 62
7
  6
CONTINUOUS
 10
58.7947548834
 20
-0.471068499
 11
58.821954454
 21
-0.4706789021
  0
LINE
  5
5B5
100
AcDbEntity
  8
RACCORDO
100
AcDbLine
 62
7
  6
CONTINUOUS
 10
58.7486933742
 20
-0.4714785101
 11
58.7947548834
 21
-0.471068499
  0
LINE
  5
5B6
100
AcDbEntity
  8
RACCORDO
100
AcDbLine
 62
7
  6
CONTINUOUS
 10
58.6989877382
 20
-0.471666649
 11
58.7486933742
 21
-0.4714785101
  0
LINE
  5
5B7
100
AcDbEntity
  8
RACCORDO
100
AcDbLine
 62
7
  6
CONTINUOUS
 10
-58.6989877383
 20
0.471666649
 11
-58.7486933745
 21
0.4714785101
  0
LINE
  5
5B8
100
AcDbEntity
  8
DRAFT
100
AcDbLine
 62
7
  6
CONTINUOUS
 10
54.6306911463
 20
-0.4139341497
 11
49.2944500197
 21
-0.419917135
  0
LINE
  5
5B9
100
AcDbEntity
  8
DRAFT
100
AcDbLine
 62
7
  6
CONTINUOUS
 10
-54.6306911463
 20
0.4139341497
 11
-49.2944500197
 21
0.419917135
  0
LINE
  5
5BA
100
AcDbEntity
  8
DRAFT
100
AcDbLine
 62
7
  6
CONTINUOUS
 10
59.5
 20
-3.8526539614
 11
59.0
 21
-3.8526539614
  0
LINE
  5
5BB
100
AcDbEntity
  8
DRAFT
100
AcDbLine
 62
7
  6
CONTINUOUS
 10
-59.0
 20
-3.8526539614
 11
-59.5
 21
-3.8526539614
  0
LINE
  5
5BC
100
AcDbEntity
  8
DRAFT
100
AcDbLine
 62
7
  6
CONTINUOUS
 10
60.395240128
 20
-3.5
 11
58.9650898701
 21
-3.5
  0
LINE
  5
5BD
100
AcDbEntity
  8
DRAFT
100
AcDbLine
 62
7
  6
CONTINUOUS
 10
-58.9650898701
 20
-3.5
 11
-60.395240128
 21
-3.5
  0
LINE
  5
5BE
100
AcDbEntity
  8
RACCORDO
100
AcDbLine
 62
7
  6
CONTINUOUS
 10
58.6989877382
 20
-0.471666649
 11
35.4216797993
 21
-0.4716797993
  0
LINE
  5
5BF
100
AcDbEntity
  8
DRAFT
100
AcDbLine
 62
7
  6
CONTINUOUS
 10
35.4012393766
 20
-0.4512393766
 11
47.5
 21
-0.4512393766
  0
LINE
  5
5C0
100
AcDbEntity
  8
DRAFT
100
AcDbLine
 62
7
  6
CONTINUOUS
 10
-35.4012393766
 20
-0.4512393766
 11
-47.5
 21
-0.4512393766
  0
LINE
  5
5C1
100
AcDbEntity
  8
DRAFT
100
AcDbLine
 62
7
  6
CONTINUOUS
 10
-58.9650898701
 20
-0.3849101299
 11
-55.5907005033
 21
-0.3849101299
  0
LINE
  5
5C2
100
AcDbEntity
  8
DRAFT
100
AcDbLine
 62
7
  6
CONTINUOUS
 10
55.5907005033
 20
-0.3849101299
 11
58.9650898701
 21
-0.3849101299
  0
LINE
  5
5C3
100
AcDbEntity
  8
DRAFT
100
AcDbLine
 62
7
  6
CONTINUOUS
 10
58.9650898701
 20
0.3849101299
 11
55.5907005033
 21
0.3849101299
  0
LINE
  5
5C4
100
AcDbEntity
  8
DRAFT
100
AcDbLine
 62
7
  6
CONTINUOUS
 10
-55.5907005033
 20
0.3849101299
 11
-58.9650898701
 21
0.3849101299
  0
LINE
  5
5C5
100
AcDbEntity
  8
DRAFT
100
AcDbLine
 62
7
  6
CONTINUOUS
 10
35.4012393766
 20
0.4512393766
 11
47.5
 21
0.4512393766
  0
LINE
  5
5C6
100
AcDbEntity
  8
DRAFT
100
AcDbLine
 62
7
  6
CONTINUOUS
 10
-35.4012393766
 20
0.4512393766
 11
-47.5
 21
0.4512393766
  0
LINE
  5
5C7
100
AcDbEntity
  8
RACCORDO
100
AcDbLine
 62
7
  6
CONTINUOUS
 10
-35.4216797993
 20
0.4716797993
 11
-58.6989877383
 21
0.471666649
  0
LINE
  5
5C8
100
AcDbEntity
  8
DRAFT
100
AcDbLine
 62
7
  6
CONTINUOUS
 10
-54.6306911463
 20
-0.4139341497
 11
-49.2944500197
 21
-0.419917135
  0
LINE
  5
5C9
100
AcDbEntity
  8
DRAFT
100
AcDbLine
 62
7
  6
CONTINUOUS
 10
54.6306911463
 20
0.4139341497
 11
49.2944500197
 21
0.419917135
  0
LINE
  5
5CA
100
AcDbEntity
  8
RACCORDO
100
AcDbLine
 62
7
  6
CONTINUOUS
 10
-58.7323956536
 20
-0.4715661522
 11
-35.4216797993
 21
-0.4716797993
  0
LWPOLYLINE
  5
5CB
100
AcDbEntity
  8
RACCORDO
100
AcDbPolyline
 62
7
  6
CONTINUOUS
 90
3
 70
0
 10
58.7486934258
 20
0.4714785127
 10
58.7323956534
 20
0.4715661522
 10
35.4216797993
 20
0.4716797993
  0
LINE
  5
5CC
100
AcDbEntity
  8
RACCORDO
100
AcDbLine
 62
7
  6
CONTINUOUS
 10
-58.7799921989
 20
-0.4712299055
 11
-58.7323956536
 21
-0.4715661522
  0
LINE
  5
5CD
100
AcDbEntity
  8
RACCORDO
100
AcDbLine
 62
7
  6
CONTINUOUS
 10
-58.8088916703
 20
-0.4708832347
 11
-58.7799921989
 21
-0.4712299055
  0
LINE
  5
5CE
100
AcDbEntity
  8
DRAFT
100
AcDbLine
 62
7
  6
CONTINUOUS
 10
-49.2944500197
 20
-0.419917135
 11
-47.5
 21
-0.4512393766
  0
LINE
  5
5CF
100
AcDbEntity
  8
DRAFT
100
AcDbLine
 62
7
  6
CONTINUOUS
 10
-55.5907005033
 20
-0.3849101299
 11
-54.6306911463
 21
-0.4139341497
  0
LINE
  5
5D0
100
AcDbEntity
  8
RACCORDO
100
AcDbLine
 62
7
  6
CONTINUOUS
 10
56.0357171432
 20
-23.2785440846
 11
56.0852377442
 21
-23.2950375388
  0
LINE
  5
5D1
100
AcDbEntity
  8
0
100
AcDbLine
 62
7
  6
CONTINUOUS
 10
20.8858036464
 20
-26.9465093858
 11
21.3
 21
-27.35
  0
LINE
  5
5D2
100
AcDbEntity
  8
0
100
AcDbLine
 62
7
  6
CONTINUOUS
 10
23.3821066032
 20
-28.8600557844
 11
23.3980453875
 21
-28.8759468191
  0
LINE
  5
5D3
100
AcDbEntity
  8
0
100
AcDbLine
 62
7
  6
CONTINUOUS
 10
23.3839227607
 20
-28.2593709863
 11
23.399863036
 21
-28.2752649765
  0
LINE
  5
5D4
100
AcDbEntity
  8
0
100
AcDbLine
 62
7
  6
CONTINUOUS
 10
23.1000457878
 20
-27.9500457878
 11
22.9
 21
-27.75
  0
LINE
  5
5D5
100
AcDbEntity
  8
0
100
AcDbLine
 62
253
  6
CONTINUOUS
 10
23.8036790795
 20
-27.7534963276
 11
24.000232637
 21
-27.9500457878
  0
LINE
  5
5D6
100
AcDbEntity
  8
0
100
AcDbLine
 62
253
  6
CONTINUOUS
 10
24.1139597987
 20
-27.4641425506
 11
24.3017819607
 21
-27.651961212
  0
LINE
  5
5D7
100
AcDbEntity
  8
0
100
AcDbLine
 62
7
  6
CONTINUOUS
 10
23.3519012026
 20
-28.2269621188
 11
23.3839227607
 21
-28.2593709863
  0
LINE
  5
5D8
100
AcDbEntity
  8
0
100
AcDbLine
 62
7
  6
CONTINUOUS
 10
23.3500881172
 20
-28.8276434954
 11
23.3821066032
 21
-28.8600557844
  0
LINE
  5
5D9
100
AcDbEntity
  8
0
100
AcDbLine
 62
7
  6
CONTINUOUS
 10
23.3195799
 20
-28.1940553931
 11
23.3519012026
 21
-28.2269621188
  0
LINE
  5
5DA
100
AcDbEntity
  8
0
100
AcDbLine
 62
7
  6
CONTINUOUS
 10
23.3177700141
 20
-28.7947202098
 11
23.3500881172
 21
-28.8276434954
  0
LINE
  5
5DB
100
AcDbEntity
  8
0
100
AcDbLine
 62
7
  6
CONTINUOUS
 10
23.2717502298
 20
-28.1447100405
 11
23.3195799
 21
-28.1940553931
  0
LINE
  5
5DC
100
AcDbEntity
  8
0
100
AcDbLine
 62
7
  6
CONTINUOUS
 10
23.2699452977
 20
-28.7453238453
 11
23.3177700141
 21
-28.7947202098
  0
LINE
  5
5DD
100
AcDbEntity
  8
0
100
AcDbLine
 62
7
  6
CONTINUOUS
 10
23.2260093926
 20
-28.0967001888
 11
23.2717502298
 21
-28.1447100405
  0
LINE
  5
5DE
100
AcDbEntity
  8
0
100
AcDbLine
 62
7
  6
CONTINUOUS
 10
23.224209561
 20
-28.6972298427
 11
23.2699452977
 21
-28.7453238453
  0
LWPOLYLINE
  5
5DF
100
AcDbEntity
  8
0
100
AcDbPolyline
 62
7
  6
CONTINUOUS
 90
4
 70
0
 10
23.1710737109
 20
-28.0374428793
 10
23.1839304117
 20
-28.0515626317
 10
23.1974903826
 20
-28.0661664709
 10
23.2260093926
 20
-28.0967001888
  0
LWPOLYLINE
  5
5E0
100
AcDbEntity
  8
0
100
AcDbPolyline
 62
7
  6
CONTINUOUS
 90
4
 70
0
 10
23.1692808746
 20
-28.6378051504
 10
23.1821358165
 20
-28.6519729641
 10
23.1956940269
 20
-28.6666205811
 10
23.224209561
 20
-28.6972298427
  0
LINE
  5
5E1
100
AcDbEntity
  8
0
100
AcDbLine
 62
7
  6
CONTINUOUS
 10
18.772879
 20
-34.877022
 11
18.964676
 21
-35.218741
  0
LWPOLYLINE
  5
5E2
100
AcDbEntity
  8
0
100
AcDbPolyline
 62
7
  6
CONTINUOUS
 90
6
 70
0
 10
-16.0285647366
 20
32.8258834445
 10
-15.9870826615
 20
32.7049527966
 10
-15.9462861381
 20
32.5804182457
 10
-15.9061751662
 20
32.4522789511
 10
-15.8673642632
 20
32.3203525873
 10
-15.7899555605
 20
32.0462239991
  0
LWPOLYLINE
  5
5E3
100
AcDbEntity
  8
0
100
AcDbPolyline
 62
253
  6
CONTINUOUS
 90
25
 70
0
 10
1.8062912531
 20
25.9564778408
 10
1.8055729109
 20
25.9760463211
 10
1.8035701763
 20
25.9955222749
 10
1.8002925193
 20
26.0148221364
 10
1.795755326
 20
26.0338601227
 10
1.7899787373
 20
26.0525579411
 10
1.7829857327
 20
26.0708445823
 10
1.7748031911
 20
26.0886456718
 10
1.7654669431
 20
26.1058799274
 10
1.7550204025
 20
26.1224690627
 10
1.7435097342
 20
26.1383404131
 10
1.7309833126
 20
26.1534279225
 10
1.7174955886
 20
26.1676683697
 10
1.7031041449
 20
26.1810010345
 10
1.6878706728
 20
26.1933688342
 10
1.6718614818
 20
26.204719859
 10
1.6551432258
 20
26.2150068013
 10
1.6377889394
 20
26.2241846173
 10
1.6198795763
 20
26.2322127977
 10
1.6015030736
 20
26.2390547647
 10
1.5827275609
 20
26.2446878767
 10
1.5636060501
 20
26.2490959761
 10
1.5442097982
 20
26.2522578659
 10
1.5246297671
 20
26.2541533569
 10
1.5049492257
 20
26.2547703512
  0
LWPOLYLINE
  5
5E4
100
AcDbEntity
  8
0
100
AcDbPolyline
 62
253
  6
CONTINUOUS
 90
25
 70
0
 10
2.1061085165
 20
25.9777195953
 10
2.1046726428
 20
26.0172408615
 10
2.1007296095
 20
26.0562472476
 10
2.0942794167
 20
26.0947387774
 10
2.085274702
 20
26.1328690139
 10
2.0737628277
 20
26.170484436
 10
2.059885881
 20
26.2071244641
 10
2.0436107396
 20
26.2427858413
 10
2.0249705257
 20
26.2774719136
 10
2.0042066925
 20
26.310732047
 10
1.981293581
 20
26.3425442708
 10
1.9562568502
 20
26.3729306766
 10
1.9294149305
 20
26.401506756
 10
1.900744837
 20
26.4282499564
 10
1.8702695545
 20
26.453182963
 10
1.838376468
 20
26.4759891436
 10
1.8050423002
 20
26.4966426604
 10
1.7702903284
 20
26.515169475
 10
1.7345777702
 20
26.531330662
 10
1.6979122695
 20
26.5450920538
 10
1.6602861825
 20
26.5564879135
 10
1.6221337943
 20
26.5653819596
 10
1.5835998669
 20
26.5717287826
 10
1.5445396384
 20
26.5755738438
 10
1.5049531088
 20
26.576917156
  0
LINE
  5
5E5
100
AcDbEntity
  8
0
100
AcDbLine
 62
253
  6
CONTINUOUS
 10
0.9019469965
 20
27.5530314268
 11
0.904587605
 21
26.576917156
  0
LINE
  5
5E6
100
AcDbEntity
  8
0
100
AcDbLine
 62
253
  6
CONTINUOUS
 10
2.110534333
 20
24.0265867593
 11
2.1061085165
 21
25.9777195953
  0
LINE
  5
5E7
100
AcDbEntity
  8
0
100
AcDbLine
 62
253
  6
CONTINUOUS
 10
1.8106909189
 20
24.0215290512
 11
1.8062912592
 21
25.9564778469
  0
LINE
  5
5E8
100
AcDbEntity
  8
0
100
AcDbLine
 62
7
  6
CONTINUOUS
 10
0.9
 20
25.2081110346
 11
0.9
 21
24.0
  0
LINE
  5
5E9
100
AcDbEntity
  8
0
100
AcDbLine
 62
7
  6
CONTINUOUS
 10
0.9
 20
-24.0
 11
0.9
 21
-25.2081110346
  0
LINE
  5
5EA
100
AcDbEntity
  8
0
100
AcDbLine
 62
7
  6
CONTINUOUS
 10
1.2
 20
-26.05
 11
1.2
 21
-25.65
  0
LINE
  5
5EB
100
AcDbEntity
  8
0
100
AcDbLine
 62
7
  6
CONTINUOUS
 10
1.2
 20
25.65
 11
1.2
 21
26.05
  0
LINE
  5
5EC
100
AcDbEntity
  8
0
100
AcDbLine
 62
253
  6
CONTINUOUS
 10
1.5049531088
 20
26.576917156
 11
1.5049531088
 21
26.2547703569
  0
LINE
  5
5ED
100
AcDbEntity
  8
0
100
AcDbLine
 62
253
  6
CONTINUOUS
 10
1.5049531088
 20
-26.576917156
 11
1.5049531088
 21
-26.2547703569
  0
LINE
  5
5EE
100
AcDbEntity
  8
0
100
AcDbLine
 62
7
  6
CONTINUOUS
 10
1.6139597987
 20
-25.7641425506
 11
1.6139597987
 21
-25.2465113794
  0
LINE
  5
5EF
100
AcDbEntity
  8
0
100
AcDbLine
 62
7
  6
CONTINUOUS
 10
1.6139597987
 20
25.2465113794
 11
1.6139597987
 21
25.7641425506
  0
LINE
  5
5F0
100
AcDbEntity
  8
0
100
AcDbLine
 62
7
  6
CONTINUOUS
 10
1.7676196936
 20
-25.2081110346
 11
1.7676196936
 21
-24.0
  0
LINE
  5
5F1
100
AcDbEntity
  8
0
100
AcDbLine
 62
7
  6
CONTINUOUS
 10
1.7676196936
 20
24.0
 11
1.7676196936
 21
25.2081110346
  0
LINE
  5
5F2
100
AcDbEntity
  8
0
100
AcDbLine
 62
253
  6
CONTINUOUS
 10
2.1061085165
 20
-25.9777195953
 11
2.110534333
 21
-24.0265867593
  0
LINE
  5
5F3
100
AcDbEntity
  8
0
100
AcDbLine
 62
253
  6
CONTINUOUS
 10
1.806291277
 20
-25.9564704392
 11
1.8106909189
 21
-24.0215290512
  0
LINE
  5
5F4
100
AcDbEntity
  8
0
100
AcDbLine
 62
253
  6
CONTINUOUS
 10
0.904587605
 20
-26.576917156
 11
0.9019469965
 21
-27.5530314268
  0
LINE
  5
5F5
100
AcDbEntity
  8
RACCORDO
100
AcDbLine
 62
7
  6
CONTINUOUS
 10
-10.8785440846
 20
-36.5357171432
 11
-10.8950375388
 21
-36.5852377442
  0
LINE
  5
5F6
100
AcDbEntity
  8
0
100
AcDbLine
 62
7
  6
CONTINUOUS
 10
21.943689
 20
34.148394
 11
21.926048
 21
34.108094
  0
LINE
  5
5F7
100
AcDbEntity
  8
0
100
AcDbLine
 62
7
  6
CONTINUOUS
 10
22.36683
 20
33.841881
 11
22.397046
 21
33.903585
  0
LINE
  5
5F8
100
AcDbEntity
  8
0
100
AcDbLine
 62
7
  6
CONTINUOUS
 10
21.926048
 20
34.108094
 11
21.905579
 21
34.068948
  0
LWPOLYLINE
  5
5F9
100
AcDbEntity
  8
0
100
AcDbPolyline
 62
7
  6
CONTINUOUS
 90
8
 70
0
 10
23.0991403738
 20
28.5516983052
 10
23.101355776
 20
28.5557579317
 10
23.1050867994
 20
28.5616387915
 10
23.1103334442
 20
28.5691359728
 10
23.1172572098
 20
28.5780281126
 10
23.1256965966
 20
28.5881270581
 10
23.1351671063
 20
28.5993068767
 10
23.1456165243
 20
28.6113961839
  0
LWPOLYLINE
  5
5FA
100
AcDbEntity
  8
0
100
AcDbPolyline
 62
7
  6
CONTINUOUS
 90
8
 70
0
 10
23.1009203203
 20
27.9519724288
 10
23.1031364806
 20
27.9559431926
 10
23.106868468
 20
27.9617392909
 10
23.1121162828
 20
27.9691561609
 10
23.1190414742
 20
27.9779728168
 10
23.1274824929
 20
27.9880011311
 10
23.1369546907
 20
27.999114917
 10
23.1474058213
 20
28.0111428961
  0
LINE
  5
5FB
100
AcDbEntity
  8
0
100
AcDbLine
 62
7
  6
CONTINUOUS
 10
22.332998
 20
33.782095
 11
22.36683
 21
33.841881
  0
LINE
  5
5FC
100
AcDbEntity
  8
0
100
AcDbLine
 62
7
  6
CONTINUOUS
 10
-13.598929
 20
-31.075
 11
-14.129616
 21
-31.964017
  0
LINE
  5
5FD
100
AcDbEntity
  8
0
100
AcDbLine
 62
7
  6
CONTINUOUS
 10
-14.00349
 20
-32.180362
 11
-13.305084
 21
-31.075
  0
LINE
  5
5FE
100
AcDbEntity
  8
0
100
AcDbLine
 62
7
  6
CONTINUOUS
 10
-20.85
 20
-35.0787234008
 11
-20.9250001431
 21
-35.193617031
  0
LINE
  5
5FF
100
AcDbEntity
  8
0
100
AcDbLine
 62
7
  6
CONTINUOUS
 10
-20.0999998569
 20
-34.1212765455
 11
-20.0250001431
 21
-34.0063829422
  0
LINE
  5
600
100
AcDbEntity
  8
0
100
AcDbLine
 62
7
  6
CONTINUOUS
 10
-19.1250001431
 20
-34.4659574628
 11
-19.05
 21
-34.3510638595
  0
LINE
  5
601
100
AcDbEntity
  8
0
100
AcDbLine
 62
7
  6
CONTINUOUS
 10
-19.0874998569
 20
-35.3085106343
 11
-19.0125001431
 21
-35.193617031
  0
LINE
  5
602
100
AcDbEntity
  8
0
100
AcDbLine
 62
7
  6
CONTINUOUS
 10
-23.3999999285
 20
-33.8531914711
 11
-23.5124999285
 21
-34.0063829422
  0
LINE
  5
603
100
AcDbEntity
  8
0
100
AcDbLine
 62
7
  6
CONTINUOUS
 10
-24.1500000715
 20
-35.3468085155
 11
-24.0375000715
 21
-35.193617031
  0
LINE
  5
604
100
AcDbEntity
  8
0
100
AcDbLine
 62
7
  6
CONTINUOUS
 10
-20.8125001431
 20
-35.3468085155
 11
-20.7000001431
 21
-35.193617031
  0
LINE
  5
605
100
AcDbEntity
  8
0
100
AcDbLine
 62
7
  6
CONTINUOUS
 10
-22.4625000715
 20
-35.3468085155
 11
-22.3499998569
 21
-35.193617031
  0
LINE
  5
606
100
AcDbEntity
  8
0
100
AcDbLine
 62
7
  6
CONTINUOUS
 10
-25.8
 20
-33.7
 11
-26.025
 21
-33.9680850744
  0
LINE
  5
607
100
AcDbEntity
  8
0
100
AcDbLine
 62
7
  6
CONTINUOUS
 10
-26.025
 20
-34.2744681239
 11
-25.8
 21
-34.0063829422
  0
LWPOLYLINE
  5
608
100
AcDbEntity
  8
0
100
AcDbPolyline
 62
7
  6
CONTINUOUS
 90
3
 70
0
 10
-23.1456165243
 20
-28.6113961839
 10
-23.1692808746
 20
-28.6378051504
 10
-23.1821358165
 20
-28.6519729641
  0
LWPOLYLINE
  5
609
100
AcDbEntity
  8
0
100
AcDbPolyline
 62
7
  6
CONTINUOUS
 90
3
 70
0
 10
-23.1474058213
 20
-28.0111428961
 10
-23.1710737106
 20
-28.037442879
 10
-23.1839304114
 20
-28.0515626313
  0
LWPOLYLINE
  5
60A
100
AcDbEntity
  8
0
100
AcDbPolyline
 62
7
  6
CONTINUOUS
 90
3
 70
0
 10
-23.1821358165
 20
-28.6519729641
 10
-23.209724059
 20
-28.6817335213
 10
-23.224209561
 20
-28.6972298427
  0
LWPOLYLINE
  5
60B
100
AcDbEntity
  8
0
100
AcDbPolyline
 62
7
  6
CONTINUOUS
 90
3
 70
0
 10
-23.1839304114
 20
-28.0515626313
 10
-23.2115221613
 20
-28.0812396503
 10
-23.2260093923
 20
-28.0967001885
  0
LINE
  5
60C
100
AcDbEntity
  8
0
100
AcDbLine
 62
7
  6
CONTINUOUS
 10
-23.224209561
 20
-28.6972298427
 11
-23.2699452977
 21
-28.7453238453
  0
LINE
  5
60D
100
AcDbEntity
  8
0
100
AcDbLine
 62
7
  6
CONTINUOUS
 10
-23.2260093923
 20
-28.0967001885
 11
-23.2717502294
 21
-28.1447100402
  0
LINE
  5
60E
100
AcDbEntity
  8
0
100
AcDbLine
 62
7
  6
CONTINUOUS
 10
-23.2699452977
 20
-28.7453238453
 11
-23.3177700141
 21
-28.7947202098
  0
LINE
  5
60F
100
AcDbEntity
  8
0
100
AcDbLine
 62
7
  6
CONTINUOUS
 10
-23.2717502294
 20
-28.1447100402
 11
-23.3195798998
 21
-28.1940553929
  0
LWPOLYLINE
  5
610
100
AcDbEntity
  8
0
100
AcDbPolyline
 62
7
  6
CONTINUOUS
 90
4
 70
0
 10
-23.3195798998
 20
-28.1940553929
 10
-23.3679354828
 20
-28.2432545767
 10
-23.3839227606
 20
-28.2593709862
 10
-23.399863036
 20
-28.2752649765
  0
LWPOLYLINE
  5
611
100
AcDbEntity
  8
0
100
AcDbPolyline
 62
7
  6
CONTINUOUS
 90
4
 70
0
 10
-23.3177700141
 20
-28.7947202098
 10
-23.3661208464
 20
-28.8439392567
 10
-23.3821066032
 20
-28.8600557844
 10
-23.3980453875
 20
-28.8759468191
  0
LINE
  5
612
100
AcDbEntity
  8
0
100
AcDbLine
 62
253
  6
CONTINUOUS
 10
-24.1139597987
 20
-27.4641425506
 11
-24.3017819411
 21
-27.6519684658
  0
LINE
  5
613
100
AcDbEntity
  8
0
100
AcDbLine
 62
253
  6
CONTINUOUS
 10
-23.8036790795
 20
-27.7534963276
 11
-24.0002245921
 21
-27.9500457878
  0
LINE
  5
614
100
AcDbEntity
  8
0
100
AcDbLine
 62
7
  6
CONTINUOUS
 10
-23.1000457878
 20
-27.9500457878
 11
-22.9
 21
-27.75
  0
LINE
  5
615
100
AcDbEntity
  8
RACCORDO
100
AcDbLine
 62
7
  6
CONTINUOUS
 10
-34.5311204268
 20
-42.9311204268
 11
-34.6
 21
-43.0
  0
LINE
  5
616
100
AcDbEntity
  8
0
100
AcDbLine
 62
7
  6
CONTINUOUS
 10
-21.3
 20
-27.35
 11
-20.8858036464
 21
-26.9465093858
  0
LINE
  5
617
100
AcDbEntity
  8
RACCORDO
100
AcDbLine
 62
7
  6
CONTINUOUS
 10
-56.0357171432
 20
-23.2785440846
 11
-56.0852377442
 21
-23.2950375388
  0
LINE
  5
618
100
AcDbEntity
  8
DRAFT
100
AcDbLine
 62
7
  6
CONTINUOUS
 10
-55.5907005033
 20
0.3849101299
 11
-54.6306911463
 21
0.4139341497
  0
LWPOLYLINE
  5
619
100
AcDbEntity
  8
RACCORDO
100
AcDbPolyline
 62
7
  6
CONTINUOUS
 90
8
 70
0
 10
-58.844748934
 20
0.4702110252
 10
-58.8542519074
 20
0.4699563176
 10
-58.8623196838
 20
0.4696914264
 10
-58.8690301306
 20
0.4694152986
 10
-58.8743333936
 20
0.4691326025
 10
-58.8782128549
 20
0.4688448944
 10
-58.8806851324
 20
0.4685506182
 10
-58.8817502263
 20
0.4682497737
  0
LINE
  5
61A
100
AcDbEntity
  8
RACCORDO
100
AcDbLine
 62
7
  6
CONTINUOUS
 10
-58.8219544543
 20
0.4706789021
 11
-58.844748934
 21
0.4702110252
  0
LINE
  5
61B
100
AcDbEntity
  8
DRAFT
100
AcDbLine
 62
7
  6
CONTINUOUS
 10
-49.2944500197
 20
0.419917135
 11
-47.5
 21
0.4512393766
  0
LINE
  5
61C
100
AcDbEntity
  8
RACCORDO
100
AcDbLine
 62
7
  6
CONTINUOUS
 10
-58.7947548838
 20
0.471068499
 11
-58.8219544543
 21
0.4706789021
  0
LINE
  5
61D
100
AcDbEntity
  8
RACCORDO
100
AcDbLine
 62
7
  6
CONTINUOUS
 10
-58.7486933745
 20
0.4714785101
 11
-58.7947548838
 21
0.471068499
  0
LINE
  5
61E
100
AcDbEntity
  8
DRAFT
100
AcDbLine
 62
7
  6
CONTINUOUS
 10
60.395240128
 20
3.5
 11
58.9650898701
 21
3.5
  0
LINE
  5
61F
100
AcDbEntity
  8
DRAFT
100
AcDbLine
 62
7
  6
CONTINUOUS
 10
-58.9650898701
 20
3.5
 11
-60.395240128
 21
3.5
  0
LINE
  5
620
100
AcDbEntity
  8
DRAFT
100
AcDbLine
 62
7
  6
CONTINUOUS
 10
59.5
 20
3.8526539614
 11
59.0
 21
3.8526539614
  0
LINE
  5
621
100
AcDbEntity
  8
DRAFT
100
AcDbLine
 62
7
  6
CONTINUOUS
 10
-59.0
 20
3.8526539614
 11
-59.5
 21
3.8526539614
  0
LINE
  5
622
100
AcDbEntity
  8
RACCORDO
100
AcDbLine
 62
7
  6
CONTINUOUS
 10
58.7947549467
 20
0.4710685009
 11
58.7486934258
 21
0.4714785127
  0
LINE
  5
623
100
AcDbEntity
  8
RACCORDO
100
AcDbLine
 62
7
  6
CONTINUOUS
 10
58.8219545179
 20
0.4706789036
 11
58.7947549467
 21
0.4710685009
  0
LINE
  5
624
100
AcDbEntity
  8
DRAFT
100
AcDbLine
 62
7
  6
CONTINUOUS
 10
47.5
 20
0.4512393766
 11
49.2944500197
 21
0.419917135
  0
LINE
  5
625
100
AcDbEntity
  8
DRAFT
100
AcDbLine
 62
7
  6
CONTINUOUS
 10
55.5907005033
 20
0.3849101299
 11
54.6306911463
 21
0.4139341497
  0
LINE
  5
626
100
AcDbEntity
  8
RACCORDO
100
AcDbLine
 62
7
  6
CONTINUOUS
 10
-56.0357171432
 20
23.2785440846
 11
-56.0852377442
 21
23.2950375388
  0
LINE
  5
627
100
AcDbEntity
  8
0
100
AcDbLine
 62
7
  6
CONTINUOUS
 10
-20.8858036464
 20
26.9465093858
 11
-21.3
 21
27.35
  0
LINE
  5
628
100
AcDbEntity
  8
0
100
AcDbLine
 62
7
  6
CONTINUOUS
 10
-23.3839227607
 20
28.2593709863
 11
-23.399863036
 21
28.2752649765
  0
LINE
  5
629
100
AcDbEntity
  8
0
100
AcDbLine
 62
7
  6
CONTINUOUS
 10
-23.3821066032
 20
28.8600557844
 11
-23.3980453875
 21
28.8759468191
  0
LINE
  5
62A
100
AcDbEntity
  8
0
100
AcDbLine
 62
253
  6
CONTINUOUS
 10
-24.1139597987
 20
27.4641425506
 11
-24.3017819607
 21
27.651961212
  0
LINE
  5
62B
100
AcDbEntity
  8
0
100
AcDbLine
 62
253
  6
CONTINUOUS
 10
-23.8036790795
 20
27.7534963276
 11
-24.000232637
 21
27.9500457878
  0
LINE
  5
62C
100
AcDbEntity
  8
0
100
AcDbLine
 62
7
  6
CONTINUOUS
 10
-23.1000457878
 20
27.9500457878
 11
-22.9
 21
27.75
  0
LINE
  5
62D
100
AcDbEntity
  8
RACCORDO
100
AcDbLine
 62
7
  6
CONTINUOUS
 10
-34.5311204268
 20
42.9311204268
 11
-34.6
 21
43.0
  0
LINE
  5
62E
100
AcDbEntity
  8
0
100
AcDbLine
 62
7
  6
CONTINUOUS
 10
-23.3519012026
 20
28.2269621188
 11
-23.3839227607
 21
28.2593709863
  0
LINE
  5
62F
100
AcDbEntity
  8
0
100
AcDbLine
 62
7
  6
CONTINUOUS
 10
-23.3500881172
 20
28.8276434954
 11
-23.3821066032
 21
28.8600557844
  0
LINE
  5
630
100
AcDbEntity
  8
0
100
AcDbLine
 62
7
  6
CONTINUOUS
 10
-23.3195799
 20
28.1940553931
 11
-23.3519012026
 21
28.2269621188
  0
LINE
  5
631
100
AcDbEntity
  8
0
100
AcDbLine
 62
7
  6
CONTINUOUS
 10
-23.3177700141
 20
28.7947202098
 11
-23.3500881172
 21
28.8276434954
  0
LINE
  5
632
100
AcDbEntity
  8
0
100
AcDbLine
 62
7
  6
CONTINUOUS
 10
-23.2717502298
 20
28.1447100405
 11
-23.3195799
 21
28.1940553931
  0
LINE
  5
633
100
AcDbEntity
  8
0
100
AcDbLine
 62
7
  6
CONTINUOUS
 10
-23.2699452977
 20
28.7453238453
 11
-23.3177700141
 21
28.7947202098
  0
LINE
  5
634
100
AcDbEntity
  8
0
100
AcDbLine
 62
7
  6
CONTINUOUS
 10
-23.2260093926
 20
28.0967001888
 11
-23.2717502298
 21
28.1447100405
  0
LINE
  5
635
100
AcDbEntity
  8
0
100
AcDbLine
 62
7
  6
CONTINUOUS
 10
-23.224209561
 20
28.6972298427
 11
-23.2699452977
 21
28.7453238453
  0
LWPOLYLINE
  5
636
100
AcDbEntity
  8
0
100
AcDbPolyline
 62
7
  6
CONTINUOUS
 90
4
 70
0
 10
-23.1710737109
 20
28.0374428793
 10
-23.1839304117
 20
28.0515626317
 10
-23.1974903826
 20
28.0661664709
 10
-23.2260093926
 20
28.0967001888
  0
LWPOLYLINE
  5
637
100
AcDbEntity
  8
0
100
AcDbPolyline
 62
7
  6
CONTINUOUS
 90
4
 70
0
 10
-23.1692808746
 20
28.6378051504
 10
-23.1821358165
 20
28.6519729641
 10
-23.1956940269
 20
28.6666205811
 10
-23.224209561
 20
28.6972298427
  0
LWPOLYLINE
  5
638
100
AcDbEntity
  8
0
100
AcDbPolyline
 62
7
  6
CONTINUOUS
 90
9
 70
0
 10
23.1009203203
 20
-27.9519724288
 10
23.1031364806
 20
-27.9559431926
 10
23.1068684681
 20
-27.961739291
 10
23.1121162829
 20
-27.969156161
 10
23.1190414743
 20
-27.9779728169
 10
23.1274824931
 20
-27.9880011313
 10
23.1369546909
 20
-27.9991149172
 10
23.1474058215
 20
-28.0111428964
 10
23.1710737109
 20
-28.0374428793
  0
LWPOLYLINE
  5
639
100
AcDbEntity
  8
0
100
AcDbPolyline
 62
7
  6
CONTINUOUS
 90
9
 70
0
 10
23.0991403738
 20
-28.5516983052
 10
23.101355776
 20
-28.5557579317
 10
23.1050867994
 20
-28.5616387915
 10
23.1103334442
 20
-28.5691359728
 10
23.1172572098
 20
-28.5780281126
 10
23.1256965966
 20
-28.5881270581
 10
23.1351671063
 20
-28.5993068767
 10
23.1456165243
 20
-28.6113961839
 10
23.1692808746
 20
-28.6378051504
  0
LINE
  5
63A
100
AcDbEntity
  8
RACCORDO
100
AcDbLine
 62
7
  6
CONTINUOUS
 10
-10.8785440846
 20
36.5357171432
 11
-10.8950375388
 21
36.5852377442
  0
LINE
  5
63B
100
AcDbEntity
  8
0
100
AcDbLine
 62
7
  6
CONTINUOUS
 10
10.9
 20
-24.0
 11
10.9
 21
-36.5357171432
  0
LINE
  5
63C
100
AcDbEntity
  8
RACCORDO
100
AcDbLine
 62
7
  6
CONTINUOUS
 10
10.9
 20
-36.5357171432
 11
10.9
 21
-43.0
  0
LINE
  5
63D
100
AcDbEntity
  8
0
100
AcDbLine
 62
7
  6
CONTINUOUS
 10
10.9
 20
24.0
 11
10.9
 21
36.5357171432
  0
LINE
  5
63E
100
AcDbEntity
  8
RACCORDO
100
AcDbLine
 62
7
  6
CONTINUOUS
 10
10.9
 20
36.5357171432
 11
10.9
 21
43.0
  0
LINE
  5
63F
100
AcDbEntity
  8
0
100
AcDbLine
 62
7
  6
CONTINUOUS
 10
11.6
 20
-24.0
 11
11.6
 21
-36.5357171432
  0
LINE
  5
640
100
AcDbEntity
  8
RACCORDO
100
AcDbLine
 62
7
  6
CONTINUOUS
 10
11.6
 20
-36.5357171432
 11
11.6
 21
-43.0
  0
LINE
  5
641
100
AcDbEntity
  8
0
100
AcDbLine
 62
7
  6
CONTINUOUS
 10
11.6
 20
24.0
 11
11.6
 21
36.5357171432
  0
LINE
  5
642
100
AcDbEntity
  8
RACCORDO
100
AcDbLine
 62
7
  6
CONTINUOUS
 10
11.6
 20
36.5357171432
 11
11.6
 21
43.0
  0
LINE
  5
643
100
AcDbEntity
  8
0
100
AcDbLine
 62
7
  6
CONTINUOUS
 10
21.970236
 20
34.231747
 11
21.958439
 21
34.189678
  0
LINE
  5
644
100
AcDbEntity
  8
0
100
AcDbLine
 62
7
  6
CONTINUOUS
 10
22.446209
 20
34.031904
 11
22.464972
 21
34.098058
  0
LINE
  5
645
100
AcDbEntity
  8
0
100
AcDbLine
 62
7
  6
CONTINUOUS
 10
22.423538
 20
33.966997
 11
22.446209
 21
34.031904
  0
LINE
  5
646
100
AcDbEntity
  8
0
100
AcDbLine
 62
7
  6
CONTINUOUS
 10
21.958439
 20
34.189678
 11
21.943689
 21
34.148394
  0
LINE
  5
647
100
AcDbEntity
  8
0
100
AcDbLine
 62
7
  6
CONTINUOUS
 10
22.397046
 20
33.903585
 11
22.423538
 21
33.966997
  0
LWPOLYLINE
  5
648
100
AcDbEntity
  8
0
100
AcDbPolyline
 62
7
  6
CONTINUOUS
 90
8
 70
0
 10
-0.6055382413
 20
-26.256348772
 10
-0.607756491
 20
-26.2600680632
 10
-0.611491159
 20
-26.2656241674
 10
-0.6167422452
 20
-26.2728135211
 10
-0.6236714412
 20
-26.2814162194
 10
-0.6321170555
 20
-26.2912442183
 10
-0.6415940135
 20
-26.3021706171
 10
-0.6520499789
 20
-26.3140244483
  0
LINE
  5
649
100
AcDbEntity
  8
0
100
AcDbLine
 62
7
  6
CONTINUOUS
 10
-23.3625000715
 20
-34.7340425372
 11
-23.2874999285
 21
-34.6574468017
  0
LINE
  5
64A
100
AcDbEntity
  8
0
100
AcDbLine
 62
7
  6
CONTINUOUS
 10
-20.0999998569
 20
-33.8148936033
 11
-20.2500001431
 21
-33.9680850744
  0
LINE
  5
64B
100
AcDbEntity
  8
0
100
AcDbLine
 62
7
  6
CONTINUOUS
 10
-19.275
 20
-34.3510638595
 11
-19.3500001431
 21
-34.427659595
  0
LINE
  5
64C
100
AcDbEntity
  8
0
100
AcDbLine
 62
7
  6
CONTINUOUS
 10
-19.1999998569
 20
-35.1553191364
 11
-19.275
 21
-35.2319148988
  0
LINE
  5
64D
100
AcDbEntity
  8
DRAFT
100
AcDbLine
 62
7
  6
CONTINUOUS
 10
35.3837843117
 20
24.0837843117
 11
35.4102842764
 21
24.1102842764
  0
LINE
  5
64E
100
AcDbEntity
  8
0
100
AcDbLine
 62
7
  6
CONTINUOUS
 10
-11.6837843117
 20
-24.0
 11
-11.710371071
 21
-24.0265867593
  0
LINE
  5
64F
100
AcDbEntity
  8
RACCORDO
100
AcDbLine
 62
253
  6
CONTINUOUS
 10
58.7311508878
 20
42.9311204268
 11
58.800030461
 21
43.0
  0
LINE
  5
650
100
AcDbEntity
  8
RACCORDO
100
AcDbLine
 62
253
  6
CONTINUOUS
 10
58.9311204268
 20
42.7311508878
 11
59.0
 21
42.800030461
  0
LINE
  5
651
100
AcDbEntity
  8
RACCORDO
100
AcDbLine
 62
253
  6
CONTINUOUS
 10
60.2246076944
 20
43.75183781
 11
60.1704252191
 21
43.7022200374
  0
LINE
  5
652
100
AcDbEntity
  8
RACCORDO
100
AcDbLine
 62
253
  6
CONTINUOUS
 10
59.559722946
 20
43.1514681483
 11
59.5000000005
 21
43.0970753753
  0
LINE
  5
653
100
AcDbEntity
  8
RACCORDO
100
AcDbLine
 62
253
  6
CONTINUOUS
 10
60.4999999992
 20
44.0006852314
 11
60.2246076944
 21
43.75183781
  0
LINE
  5
654
100
AcDbEntity
  8
RACCORDO
100
AcDbLine
 62
253
  6
CONTINUOUS
 10
60.1704252191
 20
43.7022200374
 11
59.559722946
 21
43.1514681483
  0
LINE
  5
655
100
AcDbEntity
  8
0
100
AcDbLine
 62
7
  6
CONTINUOUS
 10
-24.2676196936
 20
-24.0
 11
-24.3106909189
 21
-24.0215290512
  0
LINE
  5
656
100
AcDbEntity
  8
0
100
AcDbLine
 62
7
  6
CONTINUOUS
 10
-21.6531897244
 20
-24.0265867593
 11
-21.6
 21
-24.0
  0
LINE
  5
657
100
AcDbEntity
  8
DRAFT
100
AcDbLine
 62
7
  6
CONTINUOUS
 10
55.7
 20
14.8
 11
59.0
 21
14.8864135412
  0
LINE
  5
658
100
AcDbEntity
  8
DRAFT
100
AcDbLine
 62
7
  6
CONTINUOUS
 10
-55.7
 20
14.8
 11
-59.0
 21
14.8864135412
  0
LWPOLYLINE
  5
659
100
AcDbEntity
  8
0
100
AcDbPolyline
 62
253
  6
CONTINUOUS
 90
22
 70
0
 10
-34.8295974464
 20
14.0914033593
 10
-34.8667147029
 20
14.0928051301
 10
-34.9036879154
 20
14.0969666578
 10
-34.9403107866
 20
14.1038785125
 10
-34.9763968102
 20
14.1135217855
 10
-35.0117208269
 20
14.125852907
 10
-35.0460252351
 20
14.1407892697
 10
-35.0790989702
 20
14.1582363564
 10
-35.1107773967
 20
14.1781046043
 10
-35.1408866819
 20
14.2002856147
 10
-35.16925995
 20
14.2246581232
 10
-35.1957352942
 20
14.2510848259
 10
-35.2201609345
 20
14.2794149317
 10
-35.242399183
 20
14.3094884381
 10
-35.2623267227
 20
14.3411382447
 10
-35.2798322445
 20
14.3741876593
 10
-35.2948177947
 20
14.4084520712
 10
-35.3071992024
 20
14.4437393972
 10
-35.3169069253
 20
14.4798515776
 10
-35.3238866081
 20
14.5165862615
 10
-35.3280992523
 20
14.5537379855
 10
-35.3295212939
 20
14.5910987728
  0
LINE
  5
65A
100
AcDbEntity
  8
0
100
AcDbLine
 62
7
  6
CONTINUOUS
 10
-24.2676196936
 20
24.0
 11
-24.3106909189
 21
24.0215290512
  0
LINE
  5
65B
100
AcDbEntity
  8
0
100
AcDbLine
 62
7
  6
CONTINUOUS
 10
-21.6531897244
 20
24.0265867593
 11
-21.6
 21
24.0
  0
LWPOLYLINE
  5
65C
100
AcDbEntity
  8
RACCORDO
100
AcDbPolyline
 62
253
  6
CONTINUOUS
 90
3
 70
0
 10
60.4250817902
 20
-43.9331317733
 10
60.4886797081
 20
-43.9901831775
 10
60.4999999997
 20
-44.0006852321
  0
LINE
  5
65D
100
AcDbEntity
  8
RACCORDO
100
AcDbLine
 62
253
  6
CONTINUOUS
 10
59.7549103156
 20
-43.327296335
 11
60.4250817902
 21
-43.9331317733
  0
LWPOLYLINE
  5
65E
100
AcDbEntity
  8
RACCORDO
100
AcDbPolyline
 62
253
  6
CONTINUOUS
 90
3
 70
0
 10
59.5000000138
 20
-43.0970753868
 10
59.5623743851
 20
-43.153927123
 10
59.7549103156
 20
-43.327296335
  0
LINE
  5
65F
100
AcDbEntity
  8
DRAFT
100
AcDbLine
 62
7
  6
CONTINUOUS
 10
35.3837843117
 20
-24.0837843117
 11
35.4102842764
 21
-24.1102842764
  0
LINE
  5
660
100
AcDbEntity
  8
0
100
AcDbLine
 62
7
  6
CONTINUOUS
 10
-11.6837843117
 20
24.0
 11
-11.710371071
 21
24.0265867593
  0
LINE
  5
661
100
AcDbEntity
  8
RACCORDO
100
AcDbLine
 62
253
  6
CONTINUOUS
 10
58.7311508878
 20
-42.9311204268
 11
58.800030461
 21
-43.0
  0
LINE
  5
662
100
AcDbEntity
  8
RACCORDO
100
AcDbLine
 62
253
  6
CONTINUOUS
 10
58.9311204268
 20
-42.7311508878
 11
59.0
 21
-42.800030461
  0
LWPOLYLINE
  5
663
100
AcDbEntity
  8
0
100
AcDbPolyline
 62
7
  6
CONTINUOUS
 90
10
 70
0
 10
-0.6055382413
 20
26.256348772
 10
-0.607756491
 20
26.2600680631
 10
-0.6114911589
 20
26.2656241673
 10
-0.6167422451
 20
26.272813521
 10
-0.6236714411
 20
26.2814162192
 10
-0.6321170553
 20
26.2912442181
 10
-0.6415940133
 20
26.3021706169
 10
-0.6520499786
 20
26.314024448
 10
-0.6635372878
 20
26.3266530251
 10
-0.6885895545
 20
26.3539975956
  0
LWPOLYLINE
  5
664
100
AcDbEntity
  8
0
100
AcDbPolyline
 62
253
  6
CONTINUOUS
 90
25
 70
0
 10
20.6982180665
 20
-27.6519684582
 10
20.6989508054
 20
-27.6715255789
 10
20.7009681719
 20
-27.6909906653
 10
20.7042607582
 20
-27.7102801042
 10
20.7088133275
 20
-27.7293081351
 10
20.7146057162
 20
-27.7479963183
 10
20.7216146638
 20
-27.7662733558
 10
20.7298132458
 20
-27.7840648125
 10
20.7391655973
 20
-27.8012893807
 10
20.7496278943
 20
-27.8178686011
 10
20.7611538462
 20
-27.8337298102
 10
20.7736949963
 20
-27.8488069811
 10
20.7871964438
 20
-27.8630368513
 10
20.8016004405
 20
-27.8763587725
 10
20.8168452075
 20
-27.8887157802
 10
20.8328640498
 20
-27.9000560822
 10
20.8495901543
 20
-27.9103325187
 10
20.8669504435
 20
-27.9195002368
 10
20.8848637534
 20
-27.9275189703
 10
20.9032419838
 20
-27.9343523238
 10
20.9220170953
 20
-27.9399779004
 10
20.941136292
 20
-27.944379851
 10
20.9605284278
 20
-27.94753717
 10
20.9801025314
 20
-27.9494297938
 10
20.999775414
 20
-27.9500457817
  0
LWPOLYLINE
  5
665
100
AcDbEntity
  8
0
100
AcDbPolyline
 62
253
  6
CONTINUOUS
 90
25
 70
0
 10
20.3984008006
 20
-27.6762830578
 10
20.3998510565
 20
-27.7157959962
 10
20.4038093596
 20
-27.7547946328
 10
20.4102757101
 20
-27.793278995
 10
20.4192975896
 20
-27.8314029679
 10
20.4308275165
 20
-27.8690127152
 10
20.4447230457
 20
-27.9056467072
 10
20.4610174911
 20
-27.9413015746
 10
20.4796775389
 20
-27.9759807893
 10
20.5004608019
 20
-28.0092331318
 10
20.5233930312
 20
-28.0410364538
 10
20.5484484758
 20
-28.0714130422
 10
20.5753074957
 20
-28.0999783663
 10
20.603993041
 20
-28.1267096689
 10
20.6344821616
 20
-28.1516298589
 10
20.6663863679
 20
-28.1744229283
 10
20.6997287831
 20
-28.1950628795
 10
20.7344862841
 20
-28.2135758513
 10
20.7702010106
 20
-28.2297240487
 10
20.8068649325
 20
-28.2434732454
 10
20.8444860801
 20
-28.2548577767
 10
20.8826306836
 20
-28.2637426858
 10
20.9211541532
 20
-28.2700830077
 10
20.9602010788
 20
-28.2739237663
 10
20.9997714603
 20
-28.2752649765
  0
LINE
  5
666
100
AcDbEntity
  8
0
100
AcDbLine
 62
7
  6
CONTINUOUS
 10
17.41157
 20
-34.989452
 11
17.41157
 21
-35.406117
  0
LINE
  5
667
100
AcDbEntity
  8
0
100
AcDbLine
 62
7
  6
CONTINUOUS
 10
17.425177
 20
-31.610297
 11
17.425177
 21
-32.029254
  0
LINE
  5
668
100
AcDbEntity
  8
0
100
AcDbLine
 62
7
  6
CONTINUOUS
 10
17.780825
 20
-32.029254
 11
17.780825
 21
-33.091613
  0
LINE
  5
669
100
AcDbEntity
  8
0
100
AcDbLine
 62
7
  6
CONTINUOUS
 10
17.780825
 20
-33.607969
 11
17.780825
 21
-34.989452
  0
LINE
  5
66A
100
AcDbEntity
  8
0
100
AcDbLine
 62
7
  6
CONTINUOUS
 10
18.019096
 20
33.705734
 11
18.019096
 21
33.193976
  0
LINE
  5
66B
100
AcDbEntity
  8
0
100
AcDbLine
 62
7
  6
CONTINUOUS
 10
18.224704
 20
-34.989452
 11
18.224704
 21
-33.603309
  0
LINE
  5
66C
100
AcDbEntity
  8
0
100
AcDbLine
 62
7
  6
CONTINUOUS
 10
18.224704
 20
-33.091613
 11
18.224704
 21
-32.029254
  0
LINE
  5
66D
100
AcDbEntity
  8
0
100
AcDbLine
 62
7
  6
CONTINUOUS
 10
18.557478
 20
34.646947
 11
18.557478
 21
33.705734
  0
LINE
  5
66E
100
AcDbEntity
  8
0
100
AcDbLine
 62
7
  6
CONTINUOUS
 10
18.557478
 20
33.193976
 11
18.557478
 21
31.482709
  0
LINE
  5
66F
100
AcDbEntity
  8
0
100
AcDbLine
 62
7
  6
CONTINUOUS
 10
18.580209
 20
-32.029254
 11
18.580209
 21
-31.610297
  0
LINE
  5
670
100
AcDbEntity
  8
0
100
AcDbLine
 62
7
  6
CONTINUOUS
 10
18.593816
 20
-35.406117
 11
18.593816
 21
-34.989452
  0
LINE
  5
671
100
AcDbEntity
  8
0
100
AcDbLine
 62
7
  6
CONTINUOUS
 10
19.069237
 20
31.482709
 11
19.069237
 21
35.501513
  0
LINE
  5
672
100
AcDbEntity
  8
0
100
AcDbLine
 62
7
  6
CONTINUOUS
 10
19.596871
 20
35.501513
 11
19.596871
 21
34.989755
  0
LINE
  5
673
100
AcDbEntity
  8
0
100
AcDbLine
 62
7
  6
CONTINUOUS
 10
22.491541
 20
34.242145
 11
22.497576
 21
34.308826
  0
LINE
  5
674
100
AcDbEntity
  8
0
100
AcDbLine
 62
7
  6
CONTINUOUS
 10
21.986223
 20
34.334206
 11
21.981503
 21
34.289801
  0
LINE
  5
675
100
AcDbEntity
  8
0
100
AcDbLine
 62
7
  6
CONTINUOUS
 10
22.490212
 20
34.231442
 11
22.491541
 21
34.242145
  0
LINE
  5
676
100
AcDbEntity
  8
0
100
AcDbLine
 62
7
  6
CONTINUOUS
 10
21.981503
 20
34.289801
 11
21.979308
 21
34.27571
  0
LINE
  5
677
100
AcDbEntity
  8
0
100
AcDbLine
 62
7
  6
CONTINUOUS
 10
22.479747
 20
34.16521
 11
22.490212
 21
34.231442
  0
LINE
  5
678
100
AcDbEntity
  8
0
100
AcDbLine
 62
7
  6
CONTINUOUS
 10
21.979308
 20
34.27571
 11
21.970236
 21
34.231747
  0
LINE
  5
679
100
AcDbEntity
  8
0
100
AcDbLine
 62
7
  6
CONTINUOUS
 10
22.464972
 20
34.098058
 11
22.479747
 21
34.16521
  0
LWPOLYLINE
  5
67A
100
AcDbEntity
  8
0
100
AcDbPolyline
 62
7
  6
CONTINUOUS
 90
10
 70
0
 10
23.0991404373
 20
28.5516984938
 10
23.0990090839
 20
28.5512603378
 10
23.0988775968
 20
28.5508697838
 10
23.098745976
 20
28.5505268316
 10
23.0986142026
 20
28.5502314486
 10
23.0984822955
 20
28.5499836675
 10
23.0983503106
 20
28.5497835863
 10
23.0982182667
 20
28.5496312377
 10
23.0980861449
 20
28.5495265891
 10
23.0979539454
 20
28.5494696404
  0
LWPOLYLINE
  5
67B
100
AcDbEntity
  8
RACCORDO
100
AcDbPolyline
 62
253
  6
CONTINUOUS
 90
3
 70
0
 10
59.7022200255
 20
44.1704252079
 10
59.5428516549
 20
43.9932131127
 10
59.4860295171
 20
43.930622447
  0
LINE
  5
67C
100
AcDbEntity
  8
RACCORDO
100
AcDbLine
 62
253
  6
CONTINUOUS
 10
60.0006852308
 20
44.4999999988
 11
59.75183781
 21
44.2246076944
  0
LINE
  5
67D
100
AcDbEntity
  8
RACCORDO
100
AcDbLine
 62
253
  6
CONTINUOUS
 10
59.4860295171
 20
43.930622447
 11
59.1514681353
 21
43.559722962
  0
LINE
  5
67E
100
AcDbEntity
  8
RACCORDO
100
AcDbLine
 62
253
  6
CONTINUOUS
 10
59.1514681353
 20
43.559722962
 11
59.097075387
 21
43.5000000141
  0
LWPOLYLINE
  5
67F
100
AcDbEntity
  8
0
100
AcDbPolyline
 62
7
  6
CONTINUOUS
 90
3
 70
0
 10
-0.6520499789
 20
-26.3140244483
 10
-0.6757278756
 20
-26.3400146337
 10
-0.6885895549
 20
-26.3539975961
  0
LINE
  5
680
100
AcDbEntity
  8
RACCORDO
100
AcDbLine
 62
253
  6
CONTINUOUS
 10
59.75183781
 20
44.2246076944
 11
59.7022200255
 21
44.1704252079
  0
LINE
  5
681
100
AcDbEntity
  8
0
100
AcDbLine
 62
7
  6
CONTINUOUS
 10
-0.6885895549
 20
-26.3539975961
 11
-0.730683376
 21
-26.3987948579
  0
LINE
  5
682
100
AcDbEntity
  8
0
100
AcDbLine
 62
7
  6
CONTINUOUS
 10
-0.730683376
 20
-26.3987948579
 11
-0.776438687
 21
-26.4465635978
  0
LINE
  5
683
100
AcDbEntity
  8
0
100
AcDbLine
 62
7
  6
CONTINUOUS
 10
-0.776438687
 20
-26.4465635978
 11
-0.8242824253
 21
-26.4957613761
  0
LWPOLYLINE
  5
684
100
AcDbEntity
  8
0
100
AcDbPolyline
 62
7
  6
CONTINUOUS
 90
4
 70
0
 10
-0.8242824253
 20
-26.4957613761
 10
-0.8726515003
 20
-26.5449009921
 10
-0.8886430968
 20
-26.5610159346
 10
-0.904587605
 20
-26.576917156
  0
LINE
  5
685
100
AcDbEntity
  8
0
100
AcDbLine
 62
253
  6
CONTINUOUS
 10
-1.6139597987
 20
-25.7641425506
 11
-1.8062912592
 21
-25.9564778469
  0
LINE
  5
686
100
AcDbEntity
  8
0
100
AcDbLine
 62
253
  6
CONTINUOUS
 10
-1.3036790795
 20
-26.0534963276
 11
-1.5049492314
 21
-26.2547703569
  0
LINE
  5
687
100
AcDbEntity
  8
0
100
AcDbLine
 62
7
  6
CONTINUOUS
 10
-0.6047703569
 20
-26.2547703569
 11
-0.4
 21
-26.05
  0
LINE
  5
688
100
AcDbEntity
  8
0
100
AcDbLine
 62
7
  6
CONTINUOUS
 10
1.2
 20
-25.65
 11
1.6141963536
 21
-25.2465093858
  0
LINE
  5
689
100
AcDbEntity
  8
0
100
AcDbLine
 62
7
  6
CONTINUOUS
 10
-21.7125001431
 20
-34.6957446694
 11
-21.5624998569
 21
-34.5808510661
  0
LINE
  5
68A
100
AcDbEntity
  8
0
100
AcDbLine
 62
7
  6
CONTINUOUS
 10
-19.275
 20
-34.5808510661
 11
-19.1250001431
 21
-34.4659574628
  0
LINE
  5
68B
100
AcDbEntity
  8
0
100
AcDbLine
 62
7
  6
CONTINUOUS
 10
-24.9750000358
 20
-34.0063829422
 11
-24.8625000358
 21
-33.9297872066
  0
LINE
  5
68C
100
AcDbEntity
  8
0
100
AcDbLine
 62
7
  6
CONTINUOUS
 10
-24.2624999642
 20
-34.5425531983
 11
-24.3749999642
 21
-34.6191489339
  0
LINE
  5
68D
100
AcDbEntity
  8
0
100
AcDbLine
 62
7
  6
CONTINUOUS
 10
-23.2874999285
 20
-34.0063829422
 11
-23.1749999285
 21
-33.9297872066
  0
LINE
  5
68E
100
AcDbEntity
  8
0
100
AcDbLine
 62
7
  6
CONTINUOUS
 10
-24.3375
 20
-34.8106382728
 11
-24.1125
 21
-34.6574468017
  0
LINE
  5
68F
100
AcDbEntity
  8
0
100
AcDbLine
 62
7
  6
CONTINUOUS
 10
-23.2125
 20
-34.3893617272
 11
-23.4375
 21
-34.5425531983
  0
LINE
  5
690
100
AcDbEntity
  8
0
100
AcDbLine
 62
7
  6
CONTINUOUS
 10
-24.2624999642
 20
-35.193617031
 11
-24.3749999642
 21
-35.2702127665
  0
LINE
  5
691
100
AcDbEntity
  8
0
100
AcDbLine
 62
7
  6
CONTINUOUS
 10
-23.2874999285
 20
-34.6574468017
 11
-23.1749999285
 21
-34.5808510661
  0
LINE
  5
692
100
AcDbEntity
  8
0
100
AcDbLine
 62
7
  6
CONTINUOUS
 10
-22.5750000715
 20
-35.193617031
 11
-22.6875000715
 21
-35.2702127665
  0
LINE
  5
693
100
AcDbEntity
  8
0
100
AcDbLine
 62
7
  6
CONTINUOUS
 10
-20.0250001431
 20
-34.0063829422
 11
-19.9125001431
 21
-33.9297872066
  0
LINE
  5
694
100
AcDbEntity
  8
0
100
AcDbLine
 62
7
  6
CONTINUOUS
 10
-20.9250001431
 20
-35.193617031
 11
-21.0375001431
 21
-35.2702127665
  0
LINE
  5
695
100
AcDbEntity
  8
0
100
AcDbLine
 62
7
  6
CONTINUOUS
 10
-19.1999998569
 20
-35.3851063833
 11
-19.0874998569
 21
-35.3085106343
  0
LINE
  5
696
100
AcDbEntity
  8
0
100
AcDbLine
 62
7
  6
CONTINUOUS
 10
-24.9
 20
-33.7382978678
 11
-25.0875000358
 21
-33.8531914711
  0
LINE
  5
697
100
AcDbEntity
  8
0
100
AcDbLine
 62
7
  6
CONTINUOUS
 10
-23.2125
 20
-33.7382978678
 11
-23.3999999285
 21
-33.8531914711
  0
LINE
  5
698
100
AcDbEntity
  8
0
100
AcDbLine
 62
7
  6
CONTINUOUS
 10
-24.3375
 20
-35.4617021289
 11
-24.1500000715
 21
-35.3468085155
  0
LINE
  5
699
100
AcDbEntity
  8
0
100
AcDbLine
 62
7
  6
CONTINUOUS
 10
-21.6000001431
 20
-34.3893617272
 11
-21.7874998569
 21
-34.5042553306
  0
LINE
  5
69A
100
AcDbEntity
  8
0
100
AcDbLine
 62
7
  6
CONTINUOUS
 10
-22.65
 20
-35.4617021289
 11
-22.4625000715
 21
-35.3468085155
  0
LINE
  5
69B
100
AcDbEntity
  8
0
100
AcDbLine
 62
7
  6
CONTINUOUS
 10
-20.9999998569
 20
-35.4617021289
 11
-20.8125001431
 21
-35.3468085155
  0
LINE
  5
69C
100
AcDbEntity
  8
DRAFT
100
AcDbLine
 62
7
  6
CONTINUOUS
 10
55.7
 20
17.4
 11
59.0
 21
17.4864135412
  0
LINE
  5
69D
100
AcDbEntity
  8
DRAFT
100
AcDbLine
 62
7
  6
CONTINUOUS
 10
-55.7
 20
16.6
 11
-59.0
 21
16.5135864588
  0
LINE
  5
69E
100
AcDbEntity
  8
DRAFT
100
AcDbLine
 62
7
  6
CONTINUOUS
 10
-59.0
 20
14.0
 11
-56.4069219382
 21
14.0
  0
LINE
  5
69F
100
AcDbEntity
  8
0
100
AcDbLine
 62
7
  6
CONTINUOUS
 10
56.4069219382
 20
14.0
 11
55.7
 21
14.0
  0
LINE
  5
6A0
100
AcDbEntity
  8
0
100
AcDbLine
 62
7
  6
CONTINUOUS
 10
-34.8752852017
 20
14.0
 11
-33.85
 21
14.0
  0
LINE
  5
6A1
100
AcDbEntity
  8
0
100
AcDbLine
 62
7
  6
CONTINUOUS
 10
-55.7
 20
14.0
 11
-56.4069219382
 21
14.0
  0
LINE
  5
6A2
100
AcDbEntity
  8
DRAFT
100
AcDbLine
 62
7
  6
CONTINUOUS
 10
56.4069219382
 20
14.0
 11
59.0
 21
14.0
  0
LINE
  5
6A3
100
AcDbEntity
  8
0
100
AcDbLine
 62
253
  6
CONTINUOUS
 10
-34.8295974464
 20
14.0914033593
 11
-33.85
 21
14.0914033593
  0
LINE
  5
6A4
100
AcDbEntity
  8
0
100
AcDbLine
 62
253
  6
CONTINUOUS
 10
-33.85
 20
14.5910987728
 11
-35.3295212939
 21
14.5910987728
  0
LINE
  5
6A5
100
AcDbEntity
  8
0
100
AcDbLine
 62
253
  6
CONTINUOUS
 10
-33.85
 20
18.4089012272
 11
-35.3295212939
 21
18.4089012272
  0
LINE
  5
6A6
100
AcDbEntity
  8
0
100
AcDbLine
 62
253
  6
CONTINUOUS
 10
-33.85
 20
18.9085966407
 11
-34.8295974464
 21
18.9085966407
  0
LINE
  5
6A7
100
AcDbEntity
  8
0
100
AcDbLine
 62
7
  6
CONTINUOUS
 10
35.3750567792
 20
19.0
 11
33.85
 21
19.0
  0
LINE
  5
6A8
100
AcDbEntity
  8
0
100
AcDbLine
 62
7
  6
CONTINUOUS
 10
33.85
 20
19.0174603847
 11
35.3837843117
 21
19.0174603847
  0
LINE
  5
6A9
100
AcDbEntity
  8
0
100
AcDbLine
 62
7
  6
CONTINUOUS
 10
-33.85
 20
19.0174603847
 11
-34.8840127341
 21
19.0174603847
  0
LINE
  5
6AA
100
AcDbEntity
  8
DRAFT
100
AcDbLine
 62
7
  6
CONTINUOUS
 10
-55.7
 20
17.4
 11
-59.0
 21
17.4864135412
  0
LINE
  5
6AB
100
AcDbEntity
  8
DRAFT
100
AcDbLine
 62
7
  6
CONTINUOUS
 10
59.0
 20
16.5135864588
 11
55.7
 21
16.6
  0
LWPOLYLINE
  5
6AC
100
AcDbEntity
  8
0
100
AcDbPolyline
 62
7
  6
CONTINUOUS
 90
8
 70
0
 10
-24.3106909189
 20
24.0215290512
 10
-24.3127493649
 20
24.0219786181
 10
-24.316863915
 20
24.0224171053
 10
-24.3230345691
 20
24.0228445129
 10
-24.3313004004
 20
24.0232630397
 10
-24.3416223358
 20
24.0236704869
 10
-24.3538831552
 20
24.0240602574
 10
-24.3844062202
 20
24.024789156
  0
LWPOLYLINE
  5
6AD
100
AcDbEntity
  8
RACCORDO
100
AcDbPolyline
 62
7
  6
CONTINUOUS
 90
9
 70
0
 10
58.8817502263
 20
0.4682497737
 10
58.8806851447
 20
0.4685506183
 10
58.8782128782
 20
0.4688448947
 10
58.8743334265
 20
0.469132603
 10
58.8690301719
 20
0.4694152992
 10
58.8623197321
 20
0.4696914273
 10
58.8542519615
 20
0.4699563186
 10
58.8447489926
 20
0.4702110263
 10
58.8219545179
 20
0.4706789036
  0
LWPOLYLINE
  5
6AE
100
AcDbEntity
  8
0
100
AcDbPolyline
 62
7
  6
CONTINUOUS
 90
10
 70
0
 10
-23.0979539454
 20
28.5494696404
 10
-23.0980861449
 20
28.5495265891
 10
-23.0982182667
 20
28.5496312377
 10
-23.0983503106
 20
28.5497835863
 10
-23.0984822956
 20
28.5499836679
 10
-23.0986142029
 20
28.5502314495
 10
-23.098745976
 20
28.5505268316
 10
-23.0988775959
 20
28.5508697811
 10
-23.0990090817
 20
28.5512603312
 10
-23.0991404332
 20
28.5516984818
  0
LINE
  5
6AF
100
AcDbEntity
  8
0
100
AcDbLine
 62
7
  6
CONTINUOUS
 10
1.6141963536
 20
25.2465093858
 11
1.2
 21
25.65
  0
LINE
  5
6B0
100
AcDbEntity
  8
0
100
AcDbLine
 62
7
  6
CONTINUOUS
 10
-0.8886430967
 20
26.5610159346
 11
-0.904587605
 21
26.576917156
  0
LINE
  5
6B1
100
AcDbEntity
  8
0
100
AcDbLine
 62
253
  6
CONTINUOUS
 10
-1.6139597987
 20
25.7641425506
 11
-1.806291277
 21
25.9564704392
  0
LINE
  5
6B2
100
AcDbEntity
  8
0
100
AcDbLine
 62
253
  6
CONTINUOUS
 10
-1.3036790795
 20
26.0534963276
 11
-1.5049571476
 21
26.2547703569
  0
LINE
  5
6B3
100
AcDbEntity
  8
0
100
AcDbLine
 62
7
  6
CONTINUOUS
 10
-0.6047703569
 20
26.2547703569
 11
-0.4
 21
26.05
  0
LINE
  5
6B4
100
AcDbEntity
  8
0
100
AcDbLine
 62
7
  6
CONTINUOUS
 10
-0.8404711643
 20
26.5122220468
 11
-0.8886430967
 21
26.5610159346
  0
LINE
  5
6B5
100
AcDbEntity
  8
0
100
AcDbLine
 62
7
  6
CONTINUOUS
 10
-0.8082142314
 20
26.479287595
 11
-0.8404711643
 21
26.5122220468
  0
LINE
  5
6B6
100
AcDbEntity
  8
0
100
AcDbLine
 62
7
  6
CONTINUOUS
 10
-0.7764386866
 20
26.4465635973
 11
-0.8082142314
 21
26.479287595
  0
LINE
  5
6B7
100
AcDbEntity
  8
0
100
AcDbLine
 62
7
  6
CONTINUOUS
 10
-0.7306833756
 20
26.3987948573
 11
-0.7764386866
 21
26.4465635973
  0
LINE
  5
6B8
100
AcDbEntity
  8
0
100
AcDbLine
 62
7
  6
CONTINUOUS
 10
-0.6885895545
 20
26.3539975956
 11
-0.7306833756
 21
26.3987948573
  0
LINE
  5
6B9
100
AcDbEntity
  8
RACCORDO
100
AcDbLine
 62
253
  6
CONTINUOUS
 10
59.9901831403
 20
-44.4886797087
 11
60.0006852317
 21
-44.4999999994
  0
LINE
  5
6BA
100
AcDbEntity
  8
RACCORDO
100
AcDbLine
 62
253
  6
CONTINUOUS
 10
59.0970754019
 20
-43.5000000314
 11
59.1539270117
 21
-43.5623744358
  0
LINE
  5
6BB
100
AcDbEntity
  8
RACCORDO
100
AcDbLine
 62
253
  6
CONTINUOUS
 10
59.1539270117
 20
-43.5623744358
 11
59.933131691
 21
-44.425081794
  0
LINE
  5
6BC
100
AcDbEntity
  8
RACCORDO
100
AcDbLine
 62
253
  6
CONTINUOUS
 10
59.933131691
 20
-44.425081794
 11
59.9901831403
 21
-44.4886797087
  0
LINE
  5
6BD
100
AcDbEntity
  8
0
100
AcDbLine
 62
7
  6
CONTINUOUS
 10
21.981737
 20
34.462145
 11
21.986231
 21
34.420131
  0
LINE
  5
6BE
100
AcDbEntity
  8
0
100
AcDbLine
 62
7
  6
CONTINUOUS
 10
22.497581
 20
34.445433
 11
22.491427
 21
34.512887
  0
LWPOLYLINE
  5
6BF
100
AcDbEntity
  8
0
100
AcDbPolyline
 62
253
  6
CONTINUOUS
 90
25
 70
0
 10
24.3017819335
 20
27.6519684582
 10
24.3010491946
 20
27.6715255789
 10
24.2990318281
 20
27.6909906653
 10
24.2957392418
 20
27.7102801042
 10
24.2911866725
 20
27.7293081351
 10
24.2853942838
 20
27.7479963183
 10
24.2783853362
 20
27.7662733558
 10
24.2701867542
 20
27.7840648125
 10
24.2608344027
 20
27.8012893807
 10
24.2503721057
 20
27.8178686011
 10
24.2388461538
 20
27.8337298102
 10
24.2263050037
 20
27.8488069811
 10
24.2128035562
 20
27.8630368513
 10
24.1983995595
 20
27.8763587725
 10
24.1831547925
 20
27.8887157802
 10
24.1671359502
 20
27.9000560822
 10
24.1504098457
 20
27.9103325187
 10
24.1330495565
 20
27.9195002368
 10
24.1151362466
 20
27.9275189703
 10
24.0967580162
 20
27.9343523238
 10
24.0779829047
 20
27.9399779004
 10
24.058863708
 20
27.944379851
 10
24.0394715722
 20
27.94753717
 10
24.0198974686
 20
27.9494297938
 10
24.000224586
 20
27.9500457817
  0
LWPOLYLINE
  5
6C0
100
AcDbEntity
  8
0
100
AcDbPolyline
 62
253
  6
CONTINUOUS
 90
25
 70
0
 10
24.6015991994
 20
27.6762830578
 10
24.6001489435
 20
27.7157959962
 10
24.5961906404
 20
27.7547946328
 10
24.5897242899
 20
27.793278995
 10
24.5807024104
 20
27.8314029679
 10
24.5691724835
 20
27.8690127152
 10
24.5552769543
 20
27.9056467072
 10
24.5389825089
 20
27.9413015746
 10
24.5203224611
 20
27.9759807893
 10
24.4995391981
 20
28.0092331318
 10
24.4766069688
 20
28.0410364538
 10
24.4515515242
 20
28.0714130422
 10
24.4246925043
 20
28.0999783663
 10
24.396006959
 20
28.1267096689
 10
24.3655178384
 20
28.1516298589
 10
24.3336136321
 20
28.1744229283
 10
24.3002712169
 20
28.1950628795
 10
24.2655137159
 20
28.2135758513
 10
24.2297989894
 20
28.2297240487
 10
24.1931350675
 20
28.2434732454
 10
24.1555139199
 20
28.2548577767
 10
24.1173693164
 20
28.2637426858
 10
24.0788458468
 20
28.2700830077
 10
24.0397989212
 20
28.2739237663
 10
24.0002285397
 20
28.2752649765
  0
LINE
  5
6C1
100
AcDbEntity
  8
0
100
AcDbLine
 62
7
  6
CONTINUOUS
 10
21.986231
 20
34.420131
 11
21.987743
 21
34.377257
  0
LINE
  5
6C2
100
AcDbEntity
  8
0
100
AcDbLine
 62
7
  6
CONTINUOUS
 10
22.499636
 20
34.377256
 11
22.497581
 21
34.445433
  0
LINE
  5
6C3
100
AcDbEntity
  8
0
100
AcDbLine
 62
253
  6
CONTINUOUS
 10
21.600136964
 20
-28.2752649765
 11
21.6019546125
 21
-28.8759468191
  0
LINE
  5
6C4
100
AcDbEntity
  8
0
100
AcDbLine
 62
253
  6
CONTINUOUS
 10
21.8990796797
 20
-27.9519724288
 11
21.9008595627
 21
-28.5516984938
  0
LINE
  5
6C5
100
AcDbEntity
  8
0
100
AcDbLine
 62
253
  6
CONTINUOUS
 10
23.1009203203
 20
27.9519724288
 11
23.0991404373
 21
28.5516984938
  0
LINE
  5
6C6
100
AcDbEntity
  8
0
100
AcDbLine
 62
253
  6
CONTINUOUS
 10
23.399863036
 20
28.2752649765
 11
23.3980453875
 21
28.8759468191
  0
LINE
  5
6C7
100
AcDbEntity
  8
0
100
AcDbLine
 62
253
  6
CONTINUOUS
 10
20.389465667
 20
-24.0265867593
 11
20.3984008006
 21
-27.6762830578
  0
LINE
  5
6C8
100
AcDbEntity
  8
0
100
AcDbLine
 62
253
  6
CONTINUOUS
 10
24.610534333
 20
24.0265867593
 11
24.6015991994
 21
27.6762830578
  0
LINE
  5
6C9
100
AcDbEntity
  8
0
100
AcDbLine
 62
253
  6
CONTINUOUS
 10
20.6893090811
 20
-24.0215290512
 11
20.6982180589
 21
-27.6519684658
  0
LINE
  5
6CA
100
AcDbEntity
  8
0
100
AcDbLine
 62
253
  6
CONTINUOUS
 10
24.3106909189
 20
24.0215290512
 11
24.3017819411
 21
27.6519684658
  0
LINE
  5
6CB
100
AcDbEntity
  8
0
100
AcDbLine
 62
7
  6
CONTINUOUS
 10
20.7323803064
 20
26.9081110346
 11
20.7323803064
 21
24.0
  0
LINE
  5
6CC
100
AcDbEntity
  8
0
100
AcDbLine
 62
7
  6
CONTINUOUS
 10
20.7323803064
 20
-24.0
 11
20.7323803064
 21
-26.9081110346
  0
LINE
  5
6CD
100
AcDbEntity
  8
0
100
AcDbLine
 62
7
  6
CONTINUOUS
 10
20.8860402013
 20
27.4641425506
 11
20.8860402013
 21
26.9465113794
  0
LINE
  5
6CE
100
AcDbEntity
  8
0
100
AcDbLine
 62
7
  6
CONTINUOUS
 10
20.8860402013
 20
-26.9465113794
 11
20.8860402013
 21
-27.4641425506
  0
LINE
  5
6CF
100
AcDbEntity
  8
0
100
AcDbLine
 62
253
  6
CONTINUOUS
 10
20.9997714603
 20
28.2752649765
 11
20.9997714603
 21
27.9500457878
  0
LINE
  5
6D0
100
AcDbEntity
  8
0
100
AcDbLine
 62
253
  6
CONTINUOUS
 10
20.9997714603
 20
-28.2752649765
 11
20.9997714603
 21
-27.9500457878
  0
LINE
  5
6D1
100
AcDbEntity
  8
0
100
AcDbLine
 62
7
  6
CONTINUOUS
 10
21.3
 20
27.75
 11
21.3
 21
27.35
  0
LINE
  5
6D2
100
AcDbEntity
  8
0
100
AcDbLine
 62
7
  6
CONTINUOUS
 10
21.3
 20
-27.35
 11
21.3
 21
-27.75
  0
LINE
  5
6D3
100
AcDbEntity
  8
0
100
AcDbLine
 62
7
  6
CONTINUOUS
 10
21.6
 20
-26.9081110346
 11
21.6
 21
-24.0
  0
LINE
  5
6D4
100
AcDbEntity
  8
0
100
AcDbLine
 62
7
  6
CONTINUOUS
 10
21.6
 20
24.0
 11
21.6
 21
26.9081110346
  0
LINE
  5
6D5
100
AcDbEntity
  8
DRAFT
100
AcDbLine
 62
7
  6
CONTINUOUS
 10
22.1
 20
28.5
 11
22.1
 21
27.75
  0
LINE
  5
6D6
100
AcDbEntity
  8
DRAFT
100
AcDbLine
 62
7
  6
CONTINUOUS
 10
22.1
 20
-28.5
 11
22.1
 21
-27.75
  0
LINE
  5
6D7
100
AcDbEntity
  8
DRAFT
100
AcDbLine
 62
7
  6
CONTINUOUS
 10
22.9
 20
28.5
 11
22.9
 21
27.75
  0
LINE
  5
6D8
100
AcDbEntity
  8
DRAFT
100
AcDbLine
 62
7
  6
CONTINUOUS
 10
22.9
 20
-28.5
 11
22.9
 21
-27.75
  0
LINE
  5
6D9
100
AcDbEntity
  8
0
100
AcDbLine
 62
7
  6
CONTINUOUS
 10
23.120958
 20
35.513955
 11
23.120958
 21
31.502748
  0
LINE
  5
6DA
100
AcDbEntity
  8
0
100
AcDbLine
 62
7
  6
CONTINUOUS
 10
23.4
 20
26.9081110346
 11
23.4
 21
24.0
  0
LINE
  5
6DB
100
AcDbEntity
  8
0
100
AcDbLine
 62
7
  6
CONTINUOUS
 10
23.4
 20
-24.0
 11
23.4
 21
-26.9081110346
  0
LINE
  5
6DC
100
AcDbEntity
  8
0
100
AcDbLine
 62
7
  6
CONTINUOUS
 10
23.632716
 20
31.502748
 11
23.632716
 21
35.513955
  0
LINE
  5
6DD
100
AcDbEntity
  8
0
100
AcDbLine
 62
7
  6
CONTINUOUS
 10
23.7
 20
-27.75
 11
23.7
 21
-27.35
  0
LINE
  5
6DE
100
AcDbEntity
  8
0
100
AcDbLine
 62
7
  6
CONTINUOUS
 10
23.7
 20
27.35
 11
23.7
 21
27.75
  0
LINE
  5
6DF
100
AcDbEntity
  8
0
100
AcDbLine
 62
253
  6
CONTINUOUS
 10
24.0002285397
 20
28.2752649765
 11
24.0002285397
 21
27.9500457878
  0
LINE
  5
6E0
100
AcDbEntity
  8
0
100
AcDbLine
 62
253
  6
CONTINUOUS
 10
24.0002285397
 20
-28.2752649765
 11
24.0002285397
 21
-27.9500457878
  0
LINE
  5
6E1
100
AcDbEntity
  8
0
100
AcDbLine
 62
7
  6
CONTINUOUS
 10
24.1139597987
 20
-27.4641425506
 11
24.1139597987
 21
-26.9465113794
  0
LINE
  5
6E2
100
AcDbEntity
  8
0
100
AcDbLine
 62
7
  6
CONTINUOUS
 10
24.1139597987
 20
26.9465113794
 11
24.1139597987
 21
27.4641425506
  0
LINE
  5
6E3
100
AcDbEntity
  8
0
100
AcDbLine
 62
7
  6
CONTINUOUS
 10
24.2676196936
 20
-26.9081110346
 11
24.2676196936
 21
-24.0
  0
LINE
  5
6E4
100
AcDbEntity
  8
0
100
AcDbLine
 62
7
  6
CONTINUOUS
 10
24.2676196936
 20
24.0
 11
24.2676196936
 21
26.9081110346
  0
LINE
  5
6E5
100
AcDbEntity
  8
0
100
AcDbLine
 62
253
  6
CONTINUOUS
 10
20.3984008006
 20
27.6762830578
 11
20.389465667
 21
24.0265867593
  0
LINE
  5
6E6
100
AcDbEntity
  8
0
100
AcDbLine
 62
253
  6
CONTINUOUS
 10
24.6015991994
 20
-27.6762830578
 11
24.610534333
 21
-24.0265867593
  0
LINE
  5
6E7
100
AcDbEntity
  8
0
100
AcDbLine
 62
253
  6
CONTINUOUS
 10
20.6982180393
 20
27.651961212
 11
20.6893090811
 21
24.0215290512
  0
LINE
  5
6E8
100
AcDbEntity
  8
0
100
AcDbLine
 62
253
  6
CONTINUOUS
 10
24.3017819607
 20
-27.651961212
 11
24.3106909189
 21
-24.0215290512
  0
LINE
  5
6E9
100
AcDbEntity
  8
0
100
AcDbLine
 62
253
  6
CONTINUOUS
 10
21.9008595668
 20
28.5516984818
 11
21.8990796797
 21
27.9519724288
  0
LINE
  5
6EA
100
AcDbEntity
  8
0
100
AcDbLine
 62
253
  6
CONTINUOUS
 10
23.0991404332
 20
-28.5516984818
 11
23.1009203203
 21
-27.9519724288
  0
LINE
  5
6EB
100
AcDbEntity
  8
0
100
AcDbLine
 62
253
  6
CONTINUOUS
 10
21.6019546125
 20
28.8759468191
 11
21.600136964
 21
28.2752649765
  0
LINE
  5
6EC
100
AcDbEntity
  8
0
100
AcDbLine
 62
253
  6
CONTINUOUS
 10
23.3980453875
 20
-28.8759468191
 11
23.399863036
 21
-28.2752649765
  0
LINE
  5
6ED
100
AcDbEntity
  8
0
100
AcDbLine
 62
7
  6
CONTINUOUS
 10
22.497576
 20
34.308826
 11
22.499636
 21
34.377256
  0
LINE
  5
6EE
100
AcDbEntity
  8
0
100
AcDbLine
 62
7
  6
CONTINUOUS
 10
21.987743
 20
34.377257
 11
21.986223
 21
34.334206
  0
LINE
  5
6EF
100
AcDbEntity
  8
RACCORDO
100
AcDbLine
 62
7
  6
CONTINUOUS
 10
34.5785440846
 20
36.5357171432
 11
34.5950375388
 21
36.5852377442
  0
LINE
  5
6F0
100
AcDbEntity
  8
0
100
AcDbLine
 62
7
  6
CONTINUOUS
 10
35.3837843117
 20
19.0174603847
 11
35.3750567792
 21
19.0
  0
LINE
  5
6F1
100
AcDbEntity
  8
RACCORDO
100
AcDbLine
 62
7
  6
CONTINUOUS
 10
-10.8311204268
 20
-42.9311204268
 11
-10.9
 21
-43.0
  0
LINE
  5
6F2
100
AcDbEntity
  8
DRAFT
100
AcDbLine
 62
7
  6
CONTINUOUS
 10
35.4012393766
 20
0.4512393766
 11
35.4216797993
 21
0.4716797993
  0
LINE
  5
6F3
100
AcDbEntity
  8
DRAFT
100
AcDbLine
 62
7
  6
CONTINUOUS
 10
59.0
 20
23.3
 11
58.8888009746
 21
23.1888009746
  0
LINE
  5
6F4
100
AcDbEntity
  8
0
100
AcDbLine
 62
7
  6
CONTINUOUS
 10
-19.95
 20
-33.7382978678
 11
-20.0999998569
 21
-33.8148936033
  0
LINE
  5
6F5
100
AcDbEntity
  8
0
100
AcDbLine
 62
7
  6
CONTINUOUS
 10
-19.275
 20
-35.2319148988
 11
-19.3500001431
 21
-35.2702127665
  0
LINE
  5
6F6
100
AcDbEntity
  8
0
100
AcDbLine
 62
7
  6
CONTINUOUS
 10
-19.3500001431
 20
-35.4617021289
 11
-19.1999998569
 21
-35.3851063833
  0
LINE
  5
6F7
100
AcDbEntity
  8
0
100
AcDbLine
 62
7
  6
CONTINUOUS
 10
-1.7676196936
 20
-24.0
 11
-1.8106909189
 21
-24.0215290512
  0
LINE
  5
6F8
100
AcDbEntity
  8
0
100
AcDbLine
 62
7
  6
CONTINUOUS
 10
0.8468102756
 20
-24.0265867593
 11
0.9
 21
-24.0
  0
LINE
  5
6F9
100
AcDbEntity
  8
0
100
AcDbLine
 62
7
  6
CONTINUOUS
 10
-24.8625000358
 20
-33.9297872066
 11
-24.7500000358
 21
-33.8914893389
  0
LINE
  5
6FA
100
AcDbEntity
  8
0
100
AcDbLine
 62
7
  6
CONTINUOUS
 10
-23.1749999285
 20
-33.9297872066
 11
-23.0624999285
 21
-33.8914893389
  0
LINE
  5
6FB
100
AcDbEntity
  8
0
100
AcDbLine
 62
7
  6
CONTINUOUS
 10
-24.3749999642
 20
-34.6191489339
 11
-24.4874999642
 21
-34.6574468017
  0
LINE
  5
6FC
100
AcDbEntity
  8
0
100
AcDbLine
 62
7
  6
CONTINUOUS
 10
-23.1749999285
 20
-34.5808510661
 11
-23.0624999285
 21
-34.5425531983
  0
LINE
  5
6FD
100
AcDbEntity
  8
0
100
AcDbLine
 62
7
  6
CONTINUOUS
 10
-24.3749999642
 20
-35.2702127665
 11
-24.4874999642
 21
-35.3085106343
  0
LINE
  5
6FE
100
AcDbEntity
  8
DRAFT
100
AcDbLine
 62
7
  6
CONTINUOUS
 10
23.3536116509
 20
26.8965183637
 11
23.4
 21
26.9081110346
  0
LINE
  5
6FF
100
AcDbEntity
  8
0
100
AcDbLine
 62
7
  6
CONTINUOUS
 10
20.8860322241
 20
26.9465093858
 11
20.7323803064
 21
26.9081110346
  0
LINE
  5
700
100
AcDbEntity
  8
0
100
AcDbLine
 62
7
  6
CONTINUOUS
 10
22.9
 20
28.5
 11
23.0979539454
 21
28.5494696404
  0
LINE
  5
701
100
AcDbEntity
  8
DRAFT
100
AcDbLine
 62
7
  6
CONTINUOUS
 10
0.8493695765
 20
25.1954582489
 11
0.9
 21
25.2081110346
  0
LINE
  5
702
100
AcDbEntity
  8
0
100
AcDbLine
 62
7
  6
CONTINUOUS
 10
-1.6139677759
 20
25.2465093858
 11
-1.7676196936
 21
25.2081110346
  0
LINE
  5
703
100
AcDbEntity
  8
DRAFT
100
AcDbLine
 62
7
  6
CONTINUOUS
 10
35.3655602373
 20
27.608358935
 11
34.5338596918
 21
27.5507990126
  0
LWPOLYLINE
  5
704
100
AcDbEntity
  8
0
100
AcDbPolyline
 62
253
  6
CONTINUOUS
 90
22
 70
0
 10
-34.8295974464
 20
18.9085966407
 10
-34.8667146953
 20
18.9071948704
 10
-34.903687902
 20
18.9030333442
 10
-34.9403107692
 20
18.8961214915
 10
-34.976396791
 20
18.8864782205
 10
-35.0117208076
 20
18.8741471006
 10
-35.0460252165
 20
18.8592107392
 10
-35.0790989531
 20
18.8417636534
 10
-35.1107773818
 20
18.8218954058
 10
-35.140886669
 20
18.7997143956
 10
-35.1692599387
 20
18.7753418873
 10
-35.1957352843
 20
18.7489151848
 10
-35.2201609262
 20
18.7205850787
 10
-35.2423991763
 20
18.6905115718
 10
-35.2623267176
 20
18.6588617641
 10
-35.2798322407
 20
18.6258123485
 10
-35.2948177921
 20
18.5915479355
 10
-35.3071992007
 20
18.5562606083
 10
-35.3169069243
 20
18.5201484267
 10
-35.3238866076
 20
18.4834137414
 10
-35.3280992522
 20
18.446262016
 10
-35.3295212939
 20
18.4089012272
  0
LINE
  5
705
100
AcDbEntity
  8
0
100
AcDbLine
 62
7
  6
CONTINUOUS
 10
1.2
 20
26.05
 11
1.3036790795
 21
26.0534963276
  0
LWPOLYLINE
  5
706
100
AcDbEntity
  8
0
100
AcDbPolyline
 62
7
  6
CONTINUOUS
 90
7
 70
0
 10
24.3538831412
 20
24.024060257
 10
24.3416223227
 20
24.0236704865
 10
24.3313003907
 20
24.0232630393
 10
24.3230345626
 20
24.0228445125
 10
24.3168639109
 20
24.022417105
 10
24.3127493629
 20
24.0219786179
 10
24.3106909189
 20
24.0215290512
  0
LWPOLYLINE
  5
707
100
AcDbEntity
  8
0
100
AcDbPolyline
 62
7
  6
CONTINUOUS
 90
7
 70
0
 10
1.8538831512
 20
24.0240602573
 10
1.8416223313
 20
24.0236704867
 10
1.8313003947
 20
24.0232630394
 10
1.823034563
 20
24.0228445125
 10
1.8168639101
 20
24.022417105
 10
1.812749362
 20
24.0219786179
 10
1.8106909189
 20
24.0215290512
  0
LWPOLYLINE
  5
708
100
AcDbEntity
  8
0
100
AcDbPolyline
 62
7
  6
CONTINUOUS
 90
7
 70
0
 10
-20.6461168447
 20
24.0240602574
 10
-20.6583776641
 20
24.0236704869
 10
-20.6686995995
 20
24.0232630397
 10
-20.6769654309
 20
24.0228445129
 10
-20.6831360849
 20
24.0224171053
 10
-20.687250635
 20
24.0219786181
 10
-20.6893090811
 20
24.0215290512
  0
LINE
  5
709
100
AcDbEntity
  8
DRAFT
100
AcDbLine
 62
7
  6
CONTINUOUS
 10
56.0357171432
 20
23.2785440846
 11
54.9967184929
 21
23.2471319768
  0
LINE
  5
70A
100
AcDbEntity
  8
DRAFT
100
AcDbLine
 62
7
  6
CONTINUOUS
 10
-56.0357171432
 20
24.0214559154
 11
-55.0247963686
 21
24.0520191431
  0
LWPOLYLINE
  5
70B
100
AcDbEntity
  8
RACCORDO
100
AcDbPolyline
 62
7
  6
CONTINUOUS
 90
8
 70
0
 10
-58.8561216325
 20
24.1088148783
 10
-58.8656296028
 20
24.1085599558
 10
-58.8737022129
 20
24.1082948189
 10
-58.8804174796
 20
24.1080184149
 10
-58.8857247969
 20
24.1077354188
 10
-58.8896072963
 20
24.107447389
 10
-58.8920818463
 20
24.1071527671
 10
-58.8931484469
 20
24.1068515531
  0
LINE
  5
70C
100
AcDbEntity
  8
DRAFT
100
AcDbLine
 62
7
  6
CONTINUOUS
 10
-55.7
 20
19.2
 11
-59.0
 21
19.1135864588
  0
LINE
  5
70D
100
AcDbEntity
  8
0
100
AcDbLine
 62
7
  6
CONTINUOUS
 10
24.3844062148
 20
24.0247891559
 11
24.3538831412
 21
24.024060257
  0
LINE
  5
70E
100
AcDbEntity
  8
0
100
AcDbLine
 62
7
  6
CONTINUOUS
 10
1.8844062178
 20
24.024789156
 11
1.8538831512
 21
24.0240602573
  0
LINE
  5
70F
100
AcDbEntity
  8
0
100
AcDbLine
 62
7
  6
CONTINUOUS
 10
-20.6155937796
 20
24.024789156
 11
-20.6461168447
 21
24.0240602574
  0
LINE
  5
710
100
AcDbEntity
  8
RACCORDO
100
AcDbLine
 62
7
  6
CONTINUOUS
 10
-58.8333183184
 20
24.1092830887
 11
-58.8561216325
 21
24.1088148783
  0
LINE
  5
711
100
AcDbEntity
  8
0
100
AcDbLine
 62
7
  6
CONTINUOUS
 10
24.4215725711
 20
24.0254156442
 11
24.3844062148
 21
24.0247891559
  0
LINE
  5
712
100
AcDbEntity
  8
0
100
AcDbLine
 62
7
  6
CONTINUOUS
 10
1.9215725336
 20
24.0254156437
 11
1.8844062178
 21
24.024789156
  0
LINE
  5
713
100
AcDbEntity
  8
0
100
AcDbLine
 62
7
  6
CONTINUOUS
 10
-20.5784274387
 20
24.025415644
 11
-20.6155937796
 21
24.024789156
  0
LINE
  5
714
100
AcDbEntity
  8
RACCORDO
100
AcDbLine
 62
7
  6
CONTINUOUS
 10
-58.8061153824
 20
24.109672862
 11
-58.8333183184
 21
24.1092830887
  0
LINE
  5
715
100
AcDbEntity
  8
DRAFT
100
AcDbLine
 62
7
  6
CONTINUOUS
 10
38.8144949276
 20
23.2314782933
 11
37.3
 21
23.2162156883
  0
LINE
  5
716
100
AcDbEntity
  8
DRAFT
100
AcDbLine
 62
7
  6
CONTINUOUS
 10
-38.9047809173
 20
24.0676118328
 11
-37.3
 21
24.0837843117
  0
LINE
  5
717
100
AcDbEntity
  8
0
100
AcDbLine
 62
7
  6
CONTINUOUS
 10
24.4871204719
 20
24.0261230293
 11
24.4215725711
 21
24.0254156442
  0
LINE
  5
718
100
AcDbEntity
  8
0
100
AcDbLine
 62
7
  6
CONTINUOUS
 10
1.9871203439
 20
24.0261230283
 11
1.9215725336
 21
24.0254156437
  0
LINE
  5
719
100
AcDbEntity
  8
0
100
AcDbLine
 62
7
  6
CONTINUOUS
 10
-20.51287956
 20
24.026123029
 11
-20.5784274387
 21
24.025415644
  0
LINE
  5
71A
100
AcDbEntity
  8
RACCORDO
100
AcDbLine
 62
7
  6
CONTINUOUS
 10
-58.7600585486
 20
24.1100829689
 11
-58.8061153824
 21
24.109672862
  0
LWPOLYLINE
  5
71B
100
AcDbEntity
  8
0
100
AcDbPolyline
 62
253
  6
CONTINUOUS
 90
19
 70
0
 10
2.1061085165
 20
25.977719526
 10
2.0805400173
 20
25.9775791544
 10
2.055157579
 20
25.977285197
 10
2.0301459137
 20
25.9768397931
 10
2.0056870356
 20
25.976246184
 10
1.9819589361
 20
25.9755086895
 10
1.9591342885
 20
25.9746326765
 10
1.9373791917
 20
25.9736245197
 10
1.9168519612
 20
25.9724915559
 10
1.897701977
 20
25.9712420296
 10
1.880068597
 20
25.969885034
 10
1.864080142
 20
25.9684304442
 10
1.8498529629
 20
25.9668888454
 10
1.8374905933
 20
25.9652714561
 10
1.8270829961
 20
25.9635900463
 10
1.8187059091
 20
25.9618568519
 10
1.812420294
 20
25.9600844857
 10
1.8082718922
 20
25.9582858455
 10
1.8062908922
 20
25.9564740203
  0
LINE
  5
71C
100
AcDbEntity
  8
0
100
AcDbLine
 62
7
  6
CONTINUOUS
 10
24.559647181
 20
24.0265105368
 11
24.4871204719
 21
24.0261230293
  0
LINE
  5
71D
100
AcDbEntity
  8
0
100
AcDbLine
 62
7
  6
CONTINUOUS
 10
2.0596470628
 20
24.0265105363
 11
1.9871203439
 21
24.0261230283
  0
LINE
  5
71E
100
AcDbEntity
  8
0
100
AcDbLine
 62
7
  6
CONTINUOUS
 10
-20.4403528446
 20
24.0265105367
 11
-20.51287956
 21
24.026123029
  0
LINE
  5
71F
100
AcDbEntity
  8
RACCORDO
100
AcDbLine
 62
7
  6
CONTINUOUS
 10
-58.7103691344
 20
24.1102711274
 11
-58.7600585486
 21
24.1100829689
  0
LINE
  5
720
100
AcDbEntity
  8
DRAFT
100
AcDbLine
 62
7
  6
CONTINUOUS
 10
54.9967184929
 20
23.2471319768
 11
44.211335621
 21
23.2358004838
  0
LINE
  5
721
100
AcDbEntity
  8
DRAFT
100
AcDbLine
 62
7
  6
CONTINUOUS
 10
-55.0247963686
 20
24.0520191431
 11
-42.4891198298
 21
24.064836785
  0
LINE
  5
722
100
AcDbEntity
  8
DRAFT
100
AcDbLine
 62
7
  6
CONTINUOUS
 10
44.211335621
 20
23.2358004838
 11
38.8144949276
 21
23.2314782933
  0
LINE
  5
723
100
AcDbEntity
  8
DRAFT
100
AcDbLine
 62
7
  6
CONTINUOUS
 10
-42.4891198298
 20
24.064836785
 11
-38.9047809173
 21
24.0676118328
  0
LINE
  5
724
100
AcDbEntity
  8
DRAFT
100
AcDbLine
 62
7
  6
CONTINUOUS
 10
59.0
 20
20.0
 11
56.4069219382
 21
20.0
  0
LINE
  5
725
100
AcDbEntity
  8
0
100
AcDbLine
 62
7
  6
CONTINUOUS
 10
56.4069219382
 20
20.0
 11
55.7
 21
20.0
  0
LINE
  5
726
100
AcDbEntity
  8
0
100
AcDbLine
 62
7
  6
CONTINUOUS
 10
-55.7
 20
20.0
 11
-56.4069219382
 21
20.0
  0
LINE
  5
727
100
AcDbEntity
  8
DRAFT
100
AcDbLine
 62
7
  6
CONTINUOUS
 10
-56.4069219382
 20
20.0
 11
-59.0
 21
20.0
  0
LINE
  5
728
100
AcDbEntity
  8
0
100
AcDbLine
 62
7
  6
CONTINUOUS
 10
-33.0510963722
 20
22.5
 11
33.0510963722
 21
22.5
  0
LINE
  5
729
100
AcDbEntity
  8
DRAFT
100
AcDbLine
 62
253
  6
CONTINUOUS
 10
58.8882521295
 20
22.5871086096
 11
35.4117478705
 21
22.5871086096
  0
LINE
  5
72A
100
AcDbEntity
  8
DRAFT
100
AcDbLine
 62
253
  6
CONTINUOUS
 10
-35.4117478705
 20
22.5871086096
 11
-58.8882521295
 21
22.5871086096
  0
LINE
  5
72B
100
AcDbEntity
  8
DRAFT
100
AcDbLine
 62
7
  6
CONTINUOUS
 10
58.8888009746
 20
23.1888009746
 11
35.4111990254
 21
23.1888009746
  0
LINE
  5
72C
100
AcDbEntity
  8
DRAFT
100
AcDbLine
 62
7
  6
CONTINUOUS
 10
-35.4111990254
 20
23.1888009746
 11
-58.8888009746
 21
23.1888009746
  0
LINE
  5
72D
100
AcDbEntity
  8
DRAFT
100
AcDbLine
 62
7
  6
CONTINUOUS
 10
35.3837843117
 20
23.2162156883
 11
37.3
 21
23.2162156883
  0
LINE
  5
72E
100
AcDbEntity
  8
DRAFT
100
AcDbLine
 62
7
  6
CONTINUOUS
 10
-35.3837843117
 20
23.2162156883
 11
-37.3
 21
23.2162156883
  0
LINE
  5
72F
100
AcDbEntity
  8
RACCORDO
100
AcDbLine
 62
7
  6
CONTINUOUS
 10
59.0
 20
23.3
 11
56.3848266046
 21
23.3
  0
LINE
  5
730
100
AcDbEntity
  8
RACCORDO
100
AcDbLine
 62
7
  6
CONTINUOUS
 10
-56.3848266046
 20
23.3
 11
-59.0
 21
23.3
  0
LINE
  5
731
100
AcDbEntity
  8
RACCORDO
100
AcDbLine
 62
7
  6
CONTINUOUS
 10
-59.0
 20
24.0
 11
-56.3848266046
 21
24.0
  0
LINE
  5
732
100
AcDbEntity
  8
0
100
AcDbLine
 62
7
  6
CONTINUOUS
 10
34.5162156883
 20
24.0
 11
24.2676196936
 21
24.0
  0
LINE
  5
733
100
AcDbEntity
  8
0
100
AcDbLine
 62
7
  6
CONTINUOUS
 10
23.4
 20
24.0
 11
21.6
 21
24.0
  0
LINE
  5
734
100
AcDbEntity
  8
0
100
AcDbLine
 62
7
  6
CONTINUOUS
 10
20.7323803064
 20
24.0
 11
11.6
 21
24.0
  0
LINE
  5
735
100
AcDbEntity
  8
0
100
AcDbLine
 62
7
  6
CONTINUOUS
 10
10.9
 20
24.0
 11
1.7676196936
 21
24.0
  0
LINE
  5
736
100
AcDbEntity
  8
0
100
AcDbLine
 62
7
  6
CONTINUOUS
 10
0.9
 20
24.0
 11
-0.9
 21
24.0
  0
LINE
  5
737
100
AcDbEntity
  8
0
100
AcDbLine
 62
7
  6
CONTINUOUS
 10
-1.7676196936
 20
24.0
 11
-10.8162156883
 21
24.0
  0
LINE
  5
738
100
AcDbEntity
  8
0
100
AcDbLine
 62
7
  6
CONTINUOUS
 10
-11.6837843117
 20
24.0
 11
-20.7323803064
 21
24.0
  0
LINE
  5
739
100
AcDbEntity
  8
0
100
AcDbLine
 62
7
  6
CONTINUOUS
 10
-21.6
 20
24.0
 11
-23.4
 21
24.0
  0
LINE
  5
73A
100
AcDbEntity
  8
0
100
AcDbLine
 62
7
  6
CONTINUOUS
 10
-24.2676196936
 20
24.0
 11
-34.5162156883
 21
24.0
  0
LINE
  5
73B
100
AcDbEntity
  8
RACCORDO
100
AcDbLine
 62
7
  6
CONTINUOUS
 10
56.3848266046
 20
24.0
 11
59.0
 21
24.0
  0
LINE
  5
73C
100
AcDbEntity
  8
0
100
AcDbLine
 62
7
  6
CONTINUOUS
 10
34.489628929
 20
24.0265867593
 11
24.559647181
 21
24.0265105368
  0
LINE
  5
73D
100
AcDbEntity
  8
0
100
AcDbLine
 62
7
  6
CONTINUOUS
 10
23.3468102756
 20
24.0265867593
 11
21.6531897244
 21
24.0265867593
  0
LINE
  5
73E
100
AcDbEntity
  8
0
100
AcDbLine
 62
7
  6
CONTINUOUS
 10
10.9
 20
24.0265867593
 11
2.0596470628
 21
24.0265105363
  0
LINE
  5
73F
100
AcDbEntity
  8
0
100
AcDbLine
 62
7
  6
CONTINUOUS
 10
0.8468102756
 20
24.0265867593
 11
-0.8468102756
 21
24.0265867593
  0
LINE
  5
740
100
AcDbEntity
  8
0
100
AcDbLine
 62
7
  6
CONTINUOUS
 10
-11.710371071
 20
24.0265867593
 11
-20.4403528446
 21
24.0265105367
  0
LINE
  5
741
100
AcDbEntity
  8
0
100
AcDbLine
 62
7
  6
CONTINUOUS
 10
-21.6531897244
 20
24.0265867593
 11
-23.3468102756
 21
24.0265867593
  0
LINE
  5
742
100
AcDbEntity
  8
DRAFT
100
AcDbLine
 62
7
  6
CONTINUOUS
 10
35.3837843117
 20
24.0837843117
 11
37.3
 21
24.0837843117
  0
LINE
  5
743
100
AcDbEntity
  8
DRAFT
100
AcDbLine
 62
7
  6
CONTINUOUS
 10
-35.3837843117
 20
24.0837843117
 11
-37.3
 21
24.0837843117
  0
LINE
  5
744
100
AcDbEntity
  8
RACCORDO
100
AcDbLine
 62
7
  6
CONTINUOUS
 10
-35.4102842764
 20
24.1102842764
 11
-58.7103691344
 21
24.1102711274
  0
LINE
  5
745
100
AcDbEntity
  8
DRAFT
100
AcDbLine
 62
7
  6
CONTINUOUS
 10
0.8493695765
 20
25.1954582489
 11
-0.8493695765
 21
25.1954582489
  0
LINE
  5
746
100
AcDbEntity
  8
DRAFT
100
AcDbLine
 62
7
  6
CONTINUOUS
 10
1.7676196936
 20
25.2081110346
 11
0.9
 21
25.2081110346
  0
LINE
  5
747
100
AcDbEntity
  8
DRAFT
100
AcDbLine
 62
7
  6
CONTINUOUS
 10
-0.9
 20
25.2081110346
 11
-1.7676196936
 21
25.2081110346
  0
LINE
  5
748
100
AcDbEntity
  8
0
100
AcDbLine
 62
7
  6
CONTINUOUS
 10
-1.6139677759
 20
25.2465093858
 11
1.6139677759
 21
25.2465093858
  0
LINE
  5
749
100
AcDbEntity
  8
0
100
AcDbLine
 62
7
  6
CONTINUOUS
 10
-1.2
 20
25.65
 11
1.2
 21
25.65
  0
LINE
  5
74A
100
AcDbEntity
  8
DRAFT
100
AcDbLine
 62
7
  6
CONTINUOUS
 10
-35.3837843117
 20
25.8
 11
-34.5162156883
 21
25.8
  0
LINE
  5
74B
100
AcDbEntity
  8
DRAFT
100
AcDbLine
 62
7
  6
CONTINUOUS
 10
35.3837843117
 20
25.8
 11
34.5162156883
 21
25.8
  0
LINE
  5
74C
100
AcDbEntity
  8
DRAFT
100
AcDbLine
 62
7
  6
CONTINUOUS
 10
-11.6837843117
 20
25.8
 11
-10.8162156883
 21
25.8
  0
LINE
  5
74D
100
AcDbEntity
  8
0
100
AcDbLine
 62
7
  6
CONTINUOUS
 10
11.6
 20
25.8
 11
10.9
 21
25.8
  0
LINE
  5
74E
100
AcDbEntity
  8
DRAFT
100
AcDbLine
 62
7
  6
CONTINUOUS
 10
-54.9967184929
 20
23.2471319768
 11
-38.8144949276
 21
23.2314782933
  0
LINE
  5
74F
100
AcDbEntity
  8
DRAFT
100
AcDbLine
 62
7
  6
CONTINUOUS
 10
55.0247963686
 20
24.0520191431
 11
38.9047809173
 21
24.0676118328
  0
LINE
  5
750
100
AcDbEntity
  8
0
100
AcDbLine
 62
7
  6
CONTINUOUS
 10
-24.535017062
 20
24.0264180221
 11
-34.489628929
 21
24.0265867593
  0
LINE
  5
751
100
AcDbEntity
  8
0
100
AcDbLine
 62
7
  6
CONTINUOUS
 10
-2.0350169484
 20
24.0264180216
 11
-10.789628929
 21
24.0265867593
  0
LINE
  5
752
100
AcDbEntity
  8
0
100
AcDbLine
 62
7
  6
CONTINUOUS
 10
20.4649829141
 20
24.0264180222
 11
11.6
 21
24.0265867593
  0
LINE
  5
753
100
AcDbEntity
  8
RACCORDO
100
AcDbLine
 62
7
  6
CONTINUOUS
 10
58.743764929
 20
24.1101706162
 11
35.4102842764
 21
24.1102842764
  0
LWPOLYLINE
  5
754
100
AcDbEntity
  8
0
100
AcDbPolyline
 62
253
  6
CONTINUOUS
 90
19
 70
0
 10
-2.1061085165
 20
25.9777195953
 10
-2.0805400273
 20
25.9775792186
 10
-2.0551576037
 20
25.9772852562
 10
-2.0301459573
 20
25.9768398475
 10
-2.0056871016
 20
25.9762462337
 10
-1.9819590273
 20
25.9755087346
 10
-1.9591344069
 20
25.974632717
 10
-1.9373793386
 20
25.973624556
 10
-1.9168521373
 20
25.9724915881
 10
-1.8977021823
 20
25.9712420579
 10
-1.8800688307
 20
25.9698850586
 10
-1.864080403
 20
25.9684304652
 10
-1.8498532493
 20
25.9668888629
 10
-1.8374909026
 20
25.9652714704
 10
-1.8270833257
 20
25.9635900575
 10
-1.8187062558
 20
25.9618568602
 10
-1.8124206543
 20
25.9600844912
 10
-1.8082722624
 20
25.9582858482
 10
-1.8062912684
 20
25.9564740203
  0
LINE
  5
755
100
AcDbEntity
  8
0
100
AcDbLine
 62
7
  6
CONTINUOUS
 10
-24.4643807641
 20
24.0259228651
 11
-24.535017062
 21
24.0264180221
  0
LINE
  5
756
100
AcDbEntity
  8
0
100
AcDbLine
 62
7
  6
CONTINUOUS
 10
-1.9643806885
 20
24.0259228644
 11
-2.0350169484
 21
24.0264180216
  0
LINE
  5
757
100
AcDbEntity
  8
0
100
AcDbLine
 62
7
  6
CONTINUOUS
 10
20.5356192157
 20
24.0259228653
 11
20.4649829141
 21
24.0264180222
  0
LINE
  5
758
100
AcDbEntity
  8
RACCORDO
100
AcDbLine
 62
7
  6
CONTINUOUS
 10
58.7913528471
 20
24.1098343172
 11
58.743764929
 21
24.1101706162
  0
LINE
  5
759
100
AcDbEntity
  8
DRAFT
100
AcDbLine
 62
7
  6
CONTINUOUS
 10
-38.8144949276
 20
23.2314782933
 11
-37.3
 21
23.2162156883
  0
LINE
  5
75A
100
AcDbEntity
  8
DRAFT
100
AcDbLine
 62
7
  6
CONTINUOUS
 10
38.9047809173
 20
24.0676118328
 11
37.3
 21
24.0837843117
  0
LINE
  5
75B
100
AcDbEntity
  8
0
100
AcDbLine
 62
7
  6
CONTINUOUS
 10
-24.4215725611
 20
24.025415644
 11
-24.4643807641
 21
24.0259228651
  0
LINE
  5
75C
100
AcDbEntity
  8
0
100
AcDbLine
 62
7
  6
CONTINUOUS
 10
-1.9215725336
 20
24.0254156437
 11
-1.9643806885
 21
24.0259228644
  0
LINE
  5
75D
100
AcDbEntity
  8
0
100
AcDbLine
 62
7
  6
CONTINUOUS
 10
20.5784274316
 20
24.0254156441
 11
20.5356192157
 21
24.0259228653
  0
LINE
  5
75E
100
AcDbEntity
  8
RACCORDO
100
AcDbLine
 62
7
  6
CONTINUOUS
 10
58.8202531866
 20
24.1094875254
 11
58.7913528471
 21
24.1098343172
  0
LINE
  5
75F
100
AcDbEntity
  8
0
100
AcDbLine
 62
7
  6
CONTINUOUS
 10
-24.3844062202
 20
24.024789156
 11
-24.4215725611
 21
24.025415644
  0
LINE
  5
760
100
AcDbEntity
  8
0
100
AcDbLine
 62
7
  6
CONTINUOUS
 10
-1.8844062178
 20
24.024789156
 11
-1.9215725336
 21
24.0254156437
  0
LINE
  5
761
100
AcDbEntity
  8
0
100
AcDbLine
 62
7
  6
CONTINUOUS
 10
20.6155937839
 20
24.0247891559
 11
20.5784274316
 21
24.0254156441
  0
LINE
  5
762
100
AcDbEntity
  8
DRAFT
100
AcDbLine
 62
7
  6
CONTINUOUS
 10
59.0
 20
19.1135864588
 11
55.7
 21
19.2
  0
LINE
  5
763
100
AcDbEntity
  8
DRAFT
100
AcDbLine
 62
7
  6
CONTINUOUS
 10
-56.0357171432
 20
23.2785440846
 11
-54.9967184929
 21
23.2471319768
  0
LINE
  5
764
100
AcDbEntity
  8
DRAFT
100
AcDbLine
 62
7
  6
CONTINUOUS
 10
56.0357171432
 20
24.0214559154
 11
55.0247963686
 21
24.0520191431
  0
LINE
  5
765
100
AcDbEntity
  8
0
100
AcDbLine
 62
7
  6
CONTINUOUS
 10
-1.3036790795
 20
26.0534963276
 11
-1.2
 21
26.05
  0
LINE
  5
766
100
AcDbEntity
  8
DRAFT
100
AcDbLine
 62
7
  6
CONTINUOUS
 10
-34.5338596918
 20
27.5507990126
 11
-35.3655602373
 21
27.608358935
  0
LWPOLYLINE
  5
767
100
AcDbEntity
  8
0
100
AcDbPolyline
 62
7
  6
CONTINUOUS
 90
8
 70
0
 10
-1.8106909189
 20
24.0215290512
 10
-1.812749362
 20
24.0219786179
 10
-1.8168639101
 20
24.022417105
 10
-1.823034563
 20
24.0228445125
 10
-1.8313003947
 20
24.0232630394
 10
-1.8416223313
 20
24.0236704867
 10
-1.8538831511
 20
24.0240602573
 10
-1.8844062178
 20
24.024789156
  0
LINE
  5
768
100
AcDbEntity
  8
DRAFT
100
AcDbLine
 62
7
  6
CONTINUOUS
 10
-23.3536116509
 20
26.8965183637
 11
-23.4
 21
26.9081110346
  0
LINE
  5
769
100
AcDbEntity
  8
0
100
AcDbLine
 62
7
  6
CONTINUOUS
 10
-20.8860402013
 20
26.9465113794
 11
-20.7323803064
 21
26.9081110346
  0
LINE
  5
76A
100
AcDbEntity
  8
0
100
AcDbLine
 62
7
  6
CONTINUOUS
 10
-22.9
 20
28.5
 11
-23.0979539454
 21
28.5494696404
  0
LINE
  5
76B
100
AcDbEntity
  8
DRAFT
100
AcDbLine
 62
7
  6
CONTINUOUS
 10
-0.8493695765
 20
25.1954582489
 11
-0.9
 21
25.2081110346
  0
LINE
  5
76C
100
AcDbEntity
  8
0
100
AcDbLine
 62
7
  6
CONTINUOUS
 10
1.6139597987
 20
25.2465113794
 11
1.7676196936
 21
25.2081110346
  0
LINE
  5
76D
100
AcDbEntity
  8
0
100
AcDbLine
 62
7
  6
CONTINUOUS
 10
-1.7676196936
 20
24.0
 11
-1.8106909189
 21
24.0215290512
  0
LINE
  5
76E
100
AcDbEntity
  8
0
100
AcDbLine
 62
7
  6
CONTINUOUS
 10
0.8468102756
 20
24.0265867593
 11
0.9
 21
24.0
  0
LINE
  5
76F
100
AcDbEntity
  8
RACCORDO
100
AcDbLine
 62
7
  6
CONTINUOUS
 10
-10.8311204268
 20
42.9311204268
 11
-10.9
 21
43.0
  0
LINE
  5
770
100
AcDbEntity
  8
DRAFT
100
AcDbLine
 62
7
  6
CONTINUOUS
 10
35.4012393766
 20
-0.4512393766
 11
35.4216797993
 21
-0.4716797993
  0
LINE
  5
771
100
AcDbEntity
  8
DRAFT
100
AcDbLine
 62
7
  6
CONTINUOUS
 10
59.0
 20
-23.3
 11
58.8888009746
 21
-23.1888009746
  0
LINE
  5
772
100
AcDbEntity
  8
0
100
AcDbLine
 62
253
  6
CONTINUOUS
 10
34.8840127341
 20
-19.0174603847
 11
34.8295974464
 21
-18.9085966407
  0
LINE
  5
773
100
AcDbEntity
  8
0
100
AcDbLine
 62
253
  6
CONTINUOUS
 10
35.3837843117
 20
-18.5174603383
 11
35.3295212939
 21
-18.4089012272
  0
LINE
  5
774
100
AcDbEntity
  8
RACCORDO
100
AcDbLine
 62
7
  6
CONTINUOUS
 10
34.5785440846
 20
-36.5357171432
 11
34.5950375388
 21
-36.5852377442
  0
LINE
  5
775
100
AcDbEntity
  8
0
100
AcDbLine
 62
7
  6
CONTINUOUS
 10
26.132446
 20
-36.048037
 11
26.132446
 21
-35.29722
  0
LINE
  5
776
100
AcDbEntity
  8
0
100
AcDbLine
 62
7
  6
CONTINUOUS
 10
26.132446
 20
-31.70278
 11
26.132446
 21
-30.951963
  0
LINE
  5
777
100
AcDbEntity
  8
0
100
AcDbLine
 62
7
  6
CONTINUOUS
 10
27.10664
 20
35.507272
 11
27.10664
 21
31.502748
  0
LINE
  5
778
100
AcDbEntity
  8
0
100
AcDbLine
 62
7
  6
CONTINUOUS
 10
27.618401
 20
32.014506
 11
27.618401
 21
34.995513
  0
LINE
  5
779
100
AcDbEntity
  8
0
100
AcDbLine
 62
7
  6
CONTINUOUS
 10
28.195711
 20
33.716214
 11
28.195711
 21
33.205925
  0
LINE
  5
77A
100
AcDbEntity
  8
0
100
AcDbLine
 62
7
  6
CONTINUOUS
 10
29.74227
 20
33.205925
 11
29.74227
 21
33.716214
  0
LINE
  5
77B
100
AcDbEntity
  8
0
100
AcDbLine
 62
7
  6
CONTINUOUS
 10
29.813575
 20
34.995513
 11
29.813575
 21
35.507272
  0
LINE
  5
77C
100
AcDbEntity
  8
0
100
AcDbLine
 62
7
  6
CONTINUOUS
 10
29.845535
 20
31.502748
 11
29.845535
 21
32.014506
  0
LINE
  5
77D
100
AcDbEntity
  8
0
100
AcDbLine
 62
7
  6
CONTINUOUS
 10
30.117556
 20
-33.875
 11
30.117556
 21
-33.125
  0
LINE
  5
77E
100
AcDbEntity
  8
0
100
AcDbLine
 62
7
  6
CONTINUOUS
 10
30.517556
 20
-36.0480371177
 11
30.517556
 21
-35.2972169516
  0
LINE
  5
77F
100
AcDbEntity
  8
0
100
AcDbLine
 62
7
  6
CONTINUOUS
 10
30.517556
 20
-31.70278
 11
30.517556
 21
-30.9519628823
  0
LWPOLYLINE
  5
780
100
AcDbEntity
  8
0
100
AcDbPolyline
 62
7
  6
CONTINUOUS
 90
10
 70
0
 10
21.9008595627
 20
-28.5516984938
 10
21.9009909161
 20
-28.5512603378
 10
21.9011224032
 20
-28.5508697838
 10
21.901254024
 20
-28.5505268316
 10
21.9013857974
 20
-28.5502314486
 10
21.9015177045
 20
-28.5499836675
 10
21.9016496894
 20
-28.5497835863
 10
21.9017817333
 20
-28.5496312377
 10
21.9019138551
 20
-28.5495265891
 10
21.9020460546
 20
-28.5494696404
  0
LINE
  5
781
100
AcDbEntity
  8
0
100
AcDbLine
 62
7
  6
CONTINUOUS
 10
17.0353241763
 20
-35.2187406859
 11
17.2271209364
 21
-34.8770221132
  0
LINE
  5
782
100
AcDbEntity
  8
0
100
AcDbLine
 62
7
  6
CONTINUOUS
 10
20.7323803064
 20
-24.0
 11
20.6893090811
 21
-24.0215290512
  0
LINE
  5
783
100
AcDbEntity
  8
0
100
AcDbLine
 62
7
  6
CONTINUOUS
 10
23.3468102756
 20
-24.0265867593
 11
23.4
 21
-24.0
  0
LINE
  5
784
100
AcDbEntity
  8
0
100
AcDbLine
 62
7
  6
CONTINUOUS
 10
-22.6875000715
 20
-35.2702127665
 11
-22.8000000715
 21
-35.3085106343
  0
LINE
  5
785
100
AcDbEntity
  8
0
100
AcDbLine
 62
7
  6
CONTINUOUS
 10
-19.3500001431
 20
-34.427659595
 11
-19.5750001431
 21
-34.5042553306
  0
LINE
  5
786
100
AcDbEntity
  8
0
100
AcDbLine
 62
7
  6
CONTINUOUS
 10
21.554764
 20
33.23055
 11
21.611109
 21
33.245159
  0
LINE
  5
787
100
AcDbEntity
  8
0
100
AcDbLine
 62
7
  6
CONTINUOUS
 10
0.4
 20
27.5
 11
0.6020690266
 21
27.5504980189
  0
LINE
  5
788
100
AcDbEntity
  8
DRAFT
100
AcDbLine
 62
7
  6
CONTINUOUS
 10
-21.6463883491
 20
26.8965183637
 11
-21.6
 21
26.9081110346
  0
LINE
  5
789
100
AcDbEntity
  8
0
100
AcDbLine
 62
7
  6
CONTINUOUS
 10
-24.1139677759
 20
26.9465093858
 11
-24.2676196936
 21
26.9081110346
  0
LINE
  5
78A
100
AcDbEntity
  8
0
100
AcDbLine
 62
7
  6
CONTINUOUS
 10
21.455314
 20
33.734524
 11
21.400936
 21
33.721027
  0
LINE
  5
78B
100
AcDbEntity
  8
0
100
AcDbLine
 62
7
  6
CONTINUOUS
 10
21.400936
 20
33.721027
 11
21.343844
 21
33.710274
  0
LINE
  5
78C
100
AcDbEntity
  8
0
100
AcDbLine
 62
7
  6
CONTINUOUS
 10
21.343844
 20
33.710274
 11
21.283993
 21
33.702401
  0
LWPOLYLINE
  5
78D
100
AcDbEntity
  8
0
100
AcDbPolyline
 62
7
  6
CONTINUOUS
 90
5
 70
0
 10
0.6020690266
 20
27.5504980189
 10
0.6041207113
 20
27.5507229825
 10
0.6082331334
 20
27.5509425019
 10
0.614406293
 20
27.5511565772
 10
0.6226796324
 20
27.5513663518
  0
LINE
  5
78E
100
AcDbEntity
  8
0
100
AcDbLine
 62
7
  6
CONTINUOUS
 10
21.283993
 20
33.702401
 11
21.221348
 21
33.697558
  0
LWPOLYLINE
  5
78F
100
AcDbEntity
  8
0
100
AcDbPolyline
 62
253
  6
CONTINUOUS
 90
25
 70
0
 10
-1.5049531088
 20
26.576917156
 10
-1.5444110398
 20
26.5755882824
 10
-1.5833680043
 20
26.5717624442
 10
-1.6218240023
 20
26.5654396284
 10
-1.6599311868
 20
26.5565747029
 10
-1.6975374048
 20
26.5452127483
 10
-1.7341861968
 20
26.5314890603
 10
-1.7698755565
 20
26.5153711036
 10
-1.8046074903
 20
26.4968913182
 10
-1.8379315577
 20
26.4762824591
 10
-1.8698272578
 20
26.4535184557
 10
-1.9003150914
 20
26.4286252548
 10
-1.9290061212
 20
26.4019136454
 10
-1.9558787514
 20
26.3733596186
 10
-1.9809545777
 20
26.3429870501
 10
-2.0039094497
 20
26.3111785757
 10
-2.024717891
 20
26.2779093649
 10
-2.0434053781
 20
26.2432041262
 10
-2.0597241904
 20
26.2075198363
 10
-2.0736395668
 20
26.1708623703
 10
-2.0851862685
 20
26.1332257637
 10
-2.094220858
 20
26.0950492751
 10
-2.1006955229
 20
26.056479317
 10
-2.1046580758
 20
26.0173694321
 10
-2.1061085165
 20
25.9777195953
  0
LINE
  5
790
100
AcDbEntity
  8
0
100
AcDbLine
 62
7
  6
CONTINUOUS
 10
23.7
 20
27.75
 11
23.8036790795
 21
27.7534963276
  0
LINE
  5
791
100
AcDbEntity
  8
0
100
AcDbLine
 62
7
  6
CONTINUOUS
 10
-21.3
 20
27.75
 11
-21.1963209205
 21
27.7534963276
  0
LWPOLYLINE
  5
792
100
AcDbEntity
  8
0
100
AcDbPolyline
 62
253
  6
CONTINUOUS
 90
25
 70
0
 10
20.9997714603
 20
28.2752649765
 10
20.9603299293
 20
28.2739382669
 10
20.9213864025
 20
28.2701167543
 10
20.8829408799
 20
28.2638004238
 10
20.8448413026
 20
28.2549445546
 10
20.8072397295
 20
28.243593809
 10
20.7705923377
 20
28.2298822351
 10
20.7349008641
 20
28.2137772573
 10
20.7001635718
 20
28.1953113428
 10
20.6668314273
 20
28.1747161002
 10
20.6349247518
 20
28.1519652876
 10
20.6044232241
 20
28.1270850058
 10
20.5757168473
 20
28.1003853858
 10
20.5488271679
 20
28.071842196
 10
20.5237326393
 20
28.0414795157
 10
20.5007586247
 20
28.0096799648
 10
20.4799306822
 20
27.9764185127
 10
20.4612232538
 20
27.9417200503
 10
20.444885028
 20
27.906042116
 10
20.4309509569
 20
27.8693903596
 10
20.4193860884
 20
27.8317590287
 10
20.4103342553
 20
27.7935886057
 10
20.4038434017
 20
27.75502591
 10
20.3998655835
 20
27.7159240704
 10
20.3984008006
 20
27.6762830578
  0
LWPOLYLINE
  5
793
100
AcDbEntity
  8
0
100
AcDbPolyline
 62
253
  6
CONTINUOUS
 90
25
 70
0
 10
-24.0002285397
 20
28.2752649765
 10
-24.0396700707
 20
28.2739382669
 10
-24.0786135975
 20
28.2701167543
 10
-24.1170591201
 20
28.2638004238
 10
-24.1551586974
 20
28.2549445546
 10
-24.1927602705
 20
28.243593809
 10
-24.2294076623
 20
28.2298822351
 10
-24.2650991359
 20
28.2137772573
 10
-24.2998364282
 20
28.1953113428
 10
-24.3331685727
 20
28.1747161002
 10
-24.3650752482
 20
28.1519652876
 10
-24.3955767759
 20
28.1270850058
 10
-24.4242831527
 20
28.1003853858
 10
-24.4511728321
 20
28.071842196
 10
-24.4762673607
 20
28.0414795157
 10
-24.4992413753
 20
28.0096799648
 10
-24.5200693178
 20
27.9764185127
 10
-24.5387767462
 20
27.9417200503
 10
-24.555114972
 20
27.906042116
 10
-24.5690490431
 20
27.8693903596
 10
-24.5806139116
 20
27.8317590287
 10
-24.5896657447
 20
27.7935886057
 10
-24.5961565983
 20
27.75502591
 10
-24.6001344165
 20
27.7159240704
 10
-24.6015991994
 20
27.6762830578
  0
LWPOLYLINE
  5
794
100
AcDbEntity
  8
0
100
AcDbPolyline
 62
253
  6
CONTINUOUS
 90
25
 70
0
 10
-1.5049571535
 20
26.2547703628
 10
-1.5245808802
 20
26.2541565088
 10
-1.54412045
 20
26.2522694997
 10
-1.5634928123
 20
26.2491182843
 10
-1.5826125958
 20
26.2447183769
 10
-1.6014019471
 20
26.2390887104
 10
-1.6197902125
 20
26.2322493591
 10
-1.6377033562
 20
26.2242262896
 10
-1.6550598418
 20
26.215054329
 10
-1.6717804562
 20
26.2047732991
 10
-1.6877924192
 20
26.1934280861
 10
-1.7030288612
 20
26.1810661611
 10
-1.7174242189
 20
26.1677387496
 10
-1.7309171239
 20
26.1535023318
 10
-1.743449382
 20
26.1384179387
 10
-1.7549658834
 20
26.1225494621
 10
-1.7654184142
 20
26.1059627096
 10
-1.7747606294
 20
26.0887306149
 10
-1.7829484106
 20
26.0709331947
 10
-1.7899441788
 20
26.0526579996
 10
-1.7957243378
 20
26.0339736215
 10
-1.8002697998
 20
26.0149338202
 10
-1.8035582086
 20
25.9956104352
 10
-1.8055695605
 20
25.9760947155
 10
-1.8062912826
 20
25.9564704448
  0
LWPOLYLINE
  5
795
100
AcDbEntity
  8
0
100
AcDbPolyline
 62
253
  6
CONTINUOUS
 90
25
 70
0
 10
20.9997673566
 20
27.9500457941
 10
20.980151584
 20
27.9494329514
 10
20.9606181448
 20
27.9475488383
 10
20.9412500093
 20
27.94440223
 10
20.9221325179
 20
27.9400084884
 10
20.9033434591
 20
27.9343863439
 10
20.8849533957
 20
27.9275555931
 10
20.8670363216
 20
27.9195419883
 10
20.8496738805
 20
27.9103801638
 10
20.8329454605
 20
27.9001096841
 10
20.8169238801
 20
27.8887752407
 10
20.8016761718
 20
27.8764241594
 10
20.7872682673
 20
27.8631075342
 10
20.7737616235
 20
27.8488817232
 10
20.7612146049
 20
27.8338076828
 10
20.7496827667
 20
27.81794933
 10
20.7392144048
 20
27.8013724282
 10
20.7298560042
 20
27.7841499174
 10
20.7216521102
 20
27.7663620059
 10
20.7146403309
 20
27.7480962355
 10
20.7088443231
 20
27.7294212934
 10
20.7042834763
 20
27.71039136
 10
20.7009801517
 20
27.6910784711
 10
20.6989541742
 20
27.6715738137
 10
20.6982180323
 20
27.651961219
  0
LWPOLYLINE
  5
796
100
AcDbEntity
  8
0
100
AcDbPolyline
 62
253
  6
CONTINUOUS
 90
25
 70
0
 10
-24.0002326434
 20
27.9500457941
 10
-24.019848416
 20
27.9494329514
 10
-24.0393818552
 20
27.9475488383
 10
-24.0587499907
 20
27.94440223
 10
-24.0778674821
 20
27.9400084884
 10
-24.0966565409
 20
27.9343863439
 10
-24.1150466043
 20
27.9275555931
 10
-24.1329636784
 20
27.9195419883
 10
-24.1503261195
 20
27.9103801638
 10
-24.1670545395
 20
27.9001096841
 10
-24.1830761199
 20
27.8887752407
 10
-24.1983238282
 20
27.8764241594
 10
-24.2127317327
 20
27.8631075342
 10
-24.2262383765
 20
27.8488817232
 10
-24.2387853951
 20
27.8338076828
 10
-24.2503172333
 20
27.81794933
 10
-24.2607855952
 20
27.8013724282
 10
-24.2701439958
 20
27.7841499174
 10
-24.2783478898
 20
27.7663620059
 10
-24.2853596691
 20
27.7480962355
 10
-24.2911556769
 20
27.7294212934
 10
-24.2957165237
 20
27.71039136
 10
-24.2990198483
 20
27.6910784711
 10
-24.3010458258
 20
27.6715738137
 10
-24.3017819677
 20
27.651961219
  0
LINE
  5
797
100
AcDbEntity
  8
0
100
AcDbLine
 62
7
  6
CONTINUOUS
 10
0.6226796324
 20
27.5513663518
 11
0.6452901962
 21
27.5517661379
  0
LINE
  5
798
100
AcDbEntity
  8
0
100
AcDbLine
 62
7
  6
CONTINUOUS
 10
0.6452901962
 20
27.5517661379
 11
0.693655791
 21
27.5522958243
  0
LWPOLYLINE
  5
799
100
AcDbEntity
  8
0
100
AcDbPolyline
 62
253
  6
CONTINUOUS
 90
19
 70
0
 10
24.6015991994
 20
27.6762829804
 10
24.5760302723
 20
27.6761223585
 10
24.5506474158
 20
27.675785931
 10
24.5256353518
 20
27.6752761461
 10
24.5011761037
 20
27.674596714
 10
24.4774476718
 20
27.6737525789
 10
24.4546227382
 20
27.6727498842
 10
24.4328674095
 20
27.6715959268
 10
24.4123400085
 20
27.6702991045
 10
24.393189922
 20
27.6688688549
 10
24.3755565133
 20
27.6673155866
 10
24.3595681081
 20
27.6656506033
 10
24.345341061
 20
27.6638860218
 10
24.3329789081
 20
27.6620346837
 10
24.3225716143
 20
27.660110062
 10
24.3141949178
 20
27.658126163
 10
24.3079097793
 20
27.6560974244
 10
24.3037619385
 20
27.6540386102
 10
24.3017815811
 20
27.6519647032
  0
LWPOLYLINE
  5
79A
100
AcDbEntity
  8
0
100
AcDbPolyline
 62
253
  6
CONTINUOUS
 90
19
 70
0
 10
-20.3984008006
 20
27.6762829804
 10
-20.4239697277
 20
27.6761223585
 10
-20.4493525842
 20
27.675785931
 10
-20.4743646482
 20
27.6752761461
 10
-20.4988238963
 20
27.674596714
 10
-20.5225523282
 20
27.6737525789
 10
-20.5453772618
 20
27.6727498842
 10
-20.5671325905
 20
27.6715959268
 10
-20.5876599915
 20
27.6702991045
 10
-20.606810078
 20
27.6688688549
 10
-20.6244434867
 20
27.6673155866
 10
-20.6404318919
 20
27.6656506033
 10
-20.654658939
 20
27.6638860218
 10
-20.6670210919
 20
27.6620346837
 10
-20.6774283857
 20
27.660110062
 10
-20.6858050822
 20
27.658126163
 10
-20.6920902207
 20
27.6560974244
 10
-20.6962380615
 20
27.6540386102
 10
-20.6982184189
 20
27.6519647032
  0
LINE
  5
79B
100
AcDbEntity
  8
0
100
AcDbLine
 62
7
  6
CONTINUOUS
 10
0.693655791
 20
27.5522958243
 11
0.8021799073
 21
27.5528820575
  0
LINE
  5
79C
100
AcDbEntity
  8
0
100
AcDbLine
 62
7
  6
CONTINUOUS
 10
10.9
 20
27.4082821287
 11
11.6
 21
27.4098361579
  0
LINE
  5
79D
100
AcDbEntity
  8
0
100
AcDbLine
 62
7
  6
CONTINUOUS
 10
-1.2
 20
26.05
 11
-0.4
 21
26.05
  0
LINE
  5
79E
100
AcDbEntity
  8
0
100
AcDbLine
 62
7
  6
CONTINUOUS
 10
0.4
 20
26.05
 11
1.2
 21
26.05
  0
LINE
  5
79F
100
AcDbEntity
  8
0
100
AcDbLine
 62
253
  6
CONTINUOUS
 10
1.5049492314
 20
26.2547703569
 11
0.6047703569
 21
26.2547703569
  0
LINE
  5
7A0
100
AcDbEntity
  8
0
100
AcDbLine
 62
253
  6
CONTINUOUS
 10
-0.6047703569
 20
26.2547703569
 11
-1.5049571476
 21
26.2547703569
  0
LINE
  5
7A1
100
AcDbEntity
  8
0
100
AcDbLine
 62
253
  6
CONTINUOUS
 10
1.5049531088
 20
26.576917156
 11
0.904587605
 21
26.576917156
  0
LINE
  5
7A2
100
AcDbEntity
  8
0
100
AcDbLine
 62
253
  6
CONTINUOUS
 10
-0.904587605
 20
26.576917156
 11
-1.5049531088
 21
26.576917156
  0
LINE
  5
7A3
100
AcDbEntity
  8
DRAFT
100
AcDbLine
 62
7
  6
CONTINUOUS
 10
23.3536116509
 20
26.8965183637
 11
21.6463883491
 21
26.8965183637
  0
LINE
  5
7A4
100
AcDbEntity
  8
DRAFT
100
AcDbLine
 62
7
  6
CONTINUOUS
 10
-21.6463883491
 20
26.8965183637
 11
-23.3536116509
 21
26.8965183637
  0
LINE
  5
7A5
100
AcDbEntity
  8
DRAFT
100
AcDbLine
 62
7
  6
CONTINUOUS
 10
24.2676196936
 20
26.9081110346
 11
23.4
 21
26.9081110346
  0
LINE
  5
7A6
100
AcDbEntity
  8
DRAFT
100
AcDbLine
 62
7
  6
CONTINUOUS
 10
21.6
 20
26.9081110346
 11
20.7323803064
 21
26.9081110346
  0
LINE
  5
7A7
100
AcDbEntity
  8
DRAFT
100
AcDbLine
 62
7
  6
CONTINUOUS
 10
-20.7323803064
 20
26.9081110346
 11
-21.6
 21
26.9081110346
  0
LINE
  5
7A8
100
AcDbEntity
  8
DRAFT
100
AcDbLine
 62
7
  6
CONTINUOUS
 10
-23.4
 20
26.9081110346
 11
-24.2676196936
 21
26.9081110346
  0
LINE
  5
7A9
100
AcDbEntity
  8
0
100
AcDbLine
 62
7
  6
CONTINUOUS
 10
-24.1139677759
 20
26.9465093858
 11
-20.8860322241
 21
26.9465093858
  0
LINE
  5
7AA
100
AcDbEntity
  8
0
100
AcDbLine
 62
7
  6
CONTINUOUS
 10
20.8860322241
 20
26.9465093858
 11
24.1139677759
 21
26.9465093858
  0
LINE
  5
7AB
100
AcDbEntity
  8
0
100
AcDbLine
 62
7
  6
CONTINUOUS
 10
-23.7
 20
27.35
 11
-21.3
 21
27.35
  0
LINE
  5
7AC
100
AcDbEntity
  8
0
100
AcDbLine
 62
7
  6
CONTINUOUS
 10
21.3
 20
27.35
 11
23.7
 21
27.35
  0
LINE
  5
7AD
100
AcDbEntity
  8
0
100
AcDbLine
 62
7
  6
CONTINUOUS
 10
0.4
 20
27.5
 11
-0.4
 21
27.5
  0
LINE
  5
7AE
100
AcDbEntity
  8
0
100
AcDbLine
 62
7
  6
CONTINUOUS
 10
-0.9019469965
 20
27.5530314268
 11
0.9019469965
 21
27.5530314268
  0
LINE
  5
7AF
100
AcDbEntity
  8
0
100
AcDbLine
 62
7
  6
CONTINUOUS
 10
-23.7
 20
27.75
 11
-22.9
 21
27.75
  0
LINE
  5
7B0
100
AcDbEntity
  8
0
100
AcDbLine
 62
7
  6
CONTINUOUS
 10
23.7
 20
27.75
 11
22.9
 21
27.75
  0
LINE
  5
7B1
100
AcDbEntity
  8
0
100
AcDbLine
 62
7
  6
CONTINUOUS
 10
-22.1
 20
27.75
 11
-21.3
 21
27.75
  0
LINE
  5
7B2
100
AcDbEntity
  8
0
100
AcDbLine
 62
7
  6
CONTINUOUS
 10
22.1
 20
27.75
 11
21.3
 21
27.75
  0
LINE
  5
7B3
100
AcDbEntity
  8
0
100
AcDbLine
 62
253
  6
CONTINUOUS
 10
24.0002245921
 20
27.9500457878
 11
23.1000457878
 21
27.9500457878
  0
LINE
  5
7B4
100
AcDbEntity
  8
0
100
AcDbLine
 62
253
  6
CONTINUOUS
 10
21.8999542122
 20
27.9500457878
 11
20.999767363
 21
27.9500457878
  0
LINE
  5
7B5
100
AcDbEntity
  8
0
100
AcDbLine
 62
253
  6
CONTINUOUS
 10
-20.9997754079
 20
27.9500457878
 11
-21.8999542122
 21
27.9500457878
  0
LINE
  5
7B6
100
AcDbEntity
  8
0
100
AcDbLine
 62
253
  6
CONTINUOUS
 10
-23.1000457878
 20
27.9500457878
 11
-24.000232637
 21
27.9500457878
  0
LINE
  5
7B7
100
AcDbEntity
  8
0
100
AcDbLine
 62
253
  6
CONTINUOUS
 10
24.0002285397
 20
28.2752649765
 11
23.399863036
 21
28.2752649765
  0
LINE
  5
7B8
100
AcDbEntity
  8
0
100
AcDbLine
 62
253
  6
CONTINUOUS
 10
21.600136964
 20
28.2752649765
 11
20.9997714603
 21
28.2752649765
  0
LINE
  5
7B9
100
AcDbEntity
  8
0
100
AcDbLine
 62
253
  6
CONTINUOUS
 10
-20.9997714603
 20
28.2752649765
 11
-21.600136964
 21
28.2752649765
  0
LINE
  5
7BA
100
AcDbEntity
  8
0
100
AcDbLine
 62
253
  6
CONTINUOUS
 10
-23.399863036
 20
28.2752649765
 11
-24.0002285397
 21
28.2752649765
  0
LINE
  5
7BB
100
AcDbEntity
  8
DRAFT
100
AcDbLine
 62
7
  6
CONTINUOUS
 10
-22.9
 20
28.5
 11
-22.1
 21
28.5
  0
LINE
  5
7BC
100
AcDbEntity
  8
DRAFT
100
AcDbLine
 62
7
  6
CONTINUOUS
 10
22.1
 20
28.5
 11
22.9
 21
28.5
  0
LINE
  5
7BD
100
AcDbEntity
  8
0
100
AcDbLine
 62
7
  6
CONTINUOUS
 10
-23.0979539454
 20
28.5494696404
 11
-21.9020460546
 21
28.5494696404
  0
LINE
  5
7BE
100
AcDbEntity
  8
0
100
AcDbLine
 62
7
  6
CONTINUOUS
 10
21.9020460546
 20
28.5494696404
 11
23.0979539454
 21
28.5494696404
  0
LINE
  5
7BF
100
AcDbEntity
  8
0
100
AcDbLine
 62
253
  6
CONTINUOUS
 10
-23.3980453875
 20
28.8759468191
 11
-21.6019546125
 21
28.8759468191
  0
LINE
  5
7C0
100
AcDbEntity
  8
0
100
AcDbLine
 62
253
  6
CONTINUOUS
 10
21.6019546125
 20
28.8759468191
 11
23.3980453875
 21
28.8759468191
  0
LINE
  5
7C1
100
AcDbEntity
  8
0
100
AcDbLine
 62
7
  6
CONTINUOUS
 10
15.154465
 20
31.482709
 11
15.830121
 21
31.482709
  0
LINE
  5
7C2
100
AcDbEntity
  8
0
100
AcDbLine
 62
7
  6
CONTINUOUS
 10
18.557478
 20
31.482709
 11
19.069237
 21
31.482709
  0
LINE
  5
7C3
100
AcDbEntity
  8
0
100
AcDbLine
 62
7
  6
CONTINUOUS
 10
21.883461
 20
31.502748
 11
22.461415
 21
31.502748
  0
LINE
  5
7C4
100
AcDbEntity
  8
0
100
AcDbLine
 62
7
  6
CONTINUOUS
 10
23.120958
 20
31.502748
 11
23.632716
 21
31.502748
  0
LINE
  5
7C5
100
AcDbEntity
  8
0
100
AcDbLine
 62
7
  6
CONTINUOUS
 10
25.855325
 20
31.502748
 11
26.579006
 21
31.502748
  0
LINE
  5
7C6
100
AcDbEntity
  8
0
100
AcDbLine
 62
7
  6
CONTINUOUS
 10
27.10664
 20
31.502748
 11
29.845535
 21
31.502748
  0
LINE
  5
7C7
100
AcDbEntity
  8
0
100
AcDbLine
 62
7
  6
CONTINUOUS
 10
-29.110415
 20
31.612597
 11
-28.374698
 21
31.612597
  0
LINE
  5
7C8
100
AcDbEntity
  8
0
100
AcDbLine
 62
7
  6
CONTINUOUS
 10
-26.779278
 20
31.612597
 11
-25.944423
 21
31.612597
  0
LINE
  5
7C9
100
AcDbEntity
  8
0
100
AcDbLine
 62
7
  6
CONTINUOUS
 10
-25.494994
 20
31.612597
 11
-24.69631
 21
31.612597
  0
LINE
  5
7CA
100
AcDbEntity
  8
0
100
AcDbLine
 62
7
  6
CONTINUOUS
 10
-23.536762
 20
31.612597
 11
-23.419674
 21
31.612597
  0
LINE
  5
7CB
100
AcDbEntity
  8
0
100
AcDbLine
 62
7
  6
CONTINUOUS
 10
-22.255507
 20
31.612597
 11
-21.438797
 21
31.612597
  0
LINE
  5
7CC
100
AcDbEntity
  8
0
100
AcDbLine
 62
7
  6
CONTINUOUS
 10
-21.307703
 20
31.612597
 11
-20.481905
 21
31.612597
  0
LINE
  5
7CD
100
AcDbEntity
  8
0
100
AcDbLine
 62
7
  6
CONTINUOUS
 10
-18.898332
 20
31.612597
 11
-18.018429
 21
31.612597
  0
LINE
  5
7CE
100
AcDbEntity
  8
0
100
AcDbLine
 62
7
  6
CONTINUOUS
 10
-17.7732753198
 20
31.6125968881
 11
-16.9417794088
 21
31.6125968881
  0
LINE
  5
7CF
100
AcDbEntity
  8
0
100
AcDbLine
 62
7
  6
CONTINUOUS
 10
-15.6633139566
 20
31.6125968881
 11
-14.8602803749
 21
31.6125968881
  0
LINE
  5
7D0
100
AcDbEntity
  8
0
100
AcDbLine
 62
7
  6
CONTINUOUS
 10
29.845535
 20
32.014506
 11
27.618401
 21
32.014506
  0
LINE
  5
7D1
100
AcDbEntity
  8
DRAFT
100
AcDbLine
 62
7
  6
CONTINUOUS
 10
-10.832421991
 20
27.4081372223
 11
-11.6675593246
 21
27.4099912606
  0
LWPOLYLINE
  5
7D2
100
AcDbEntity
  8
0
100
AcDbPolyline
 62
253
  6
CONTINUOUS
 90
19
 70
0
 10
-24.6015991994
 20
27.6762830578
 10
-24.576030282
 20
27.6761224303
 10
-24.5506474401
 20
27.6757859972
 10
-24.5256353947
 20
27.675276207
 10
-24.5011761686
 20
27.6745967696
 10
-24.4774477615
 20
27.6737526294
 10
-24.4546228545
 20
27.6727499297
 10
-24.4328675539
 20
27.6715959675
 10
-24.4123401817
 20
27.6702991407
 10
-24.3931901239
 20
27.6688688867
 10
-24.3755567431
 20
27.6673156142
 10
-24.3595683647
 20
27.6656506269
 10
-24.3453413425
 20
27.6638860416
 10
-24.3329792124
 20
27.6620346998
 10
-24.3225719385
 20
27.6601100747
 10
-24.3141952588
 20
27.6581261724
 10
-24.3079101337
 20
27.6560974305
 10
-24.3037623027
 20
27.6540386132
 10
-24.3017819513
 20
27.6519647032
  0
LWPOLYLINE
  5
7D3
100
AcDbEntity
  8
0
100
AcDbPolyline
 62
253
  6
CONTINUOUS
 90
19
 70
0
 10
20.3984008006
 20
27.6762830578
 10
20.423969718
 20
27.6761224303
 10
20.4493525599
 20
27.6757859972
 10
20.4743646053
 20
27.675276207
 10
20.4988238314
 20
27.6745967696
 10
20.5225522385
 20
27.6737526294
 10
20.5453771455
 20
27.6727499297
 10
20.5671324461
 20
27.6715959675
 10
20.5876598183
 20
27.6702991407
 10
20.6068098761
 20
27.6688688867
 10
20.6244432569
 20
27.6673156142
 10
20.6404316353
 20
27.6656506269
 10
20.6546586575
 20
27.6638860416
 10
20.6670207876
 20
27.6620346998
 10
20.6774280615
 20
27.6601100747
 10
20.6858047412
 20
27.6581261724
 10
20.6920898663
 20
27.6560974305
 10
20.6962376973
 20
27.6540386132
 10
20.6982180487
 20
27.6519647032
  0
LINE
  5
7D4
100
AcDbEntity
  8
0
100
AcDbLine
 62
7
  6
CONTINUOUS
 10
-0.7785287588
 20
27.5527991706
 11
-0.6936557911
 21
27.5522958243
  0
LINE
  5
7D5
100
AcDbEntity
  8
0
100
AcDbLine
 62
7
  6
CONTINUOUS
 10
-0.6936557911
 20
27.5522958243
 11
-0.6452901963
 21
27.5517661379
  0
LWPOLYLINE
  5
7D6
100
AcDbEntity
  8
0
100
AcDbPolyline
 62
7
  6
CONTINUOUS
 90
6
 70
0
 10
-0.6452901963
 20
27.5517661379
 10
-0.6226796324
 20
27.5513663518
 10
-0.614406293
 20
27.5511565772
 10
-0.6082331334
 20
27.5509425019
 10
-0.6041207113
 20
27.5507229825
 10
-0.6020690266
 20
27.5504980189
  0
LINE
  5
7D7
100
AcDbEntity
  8
0
100
AcDbLine
 62
7
  6
CONTINUOUS
 10
-23.8036790795
 20
27.7534963276
 11
-23.7
 21
27.75
  0
LINE
  5
7D8
100
AcDbEntity
  8
0
100
AcDbLine
 62
7
  6
CONTINUOUS
 10
21.1963209205
 20
27.7534963276
 11
21.3
 21
27.75
  0
LWPOLYLINE
  5
7D9
100
AcDbEntity
  8
0
100
AcDbPolyline
 62
7
  6
CONTINUOUS
 90
22
 70
0
 10
-16.3154282111
 20
34.9542962966
 10
-16.2778186186
 20
34.9486210126
 10
-16.2410983455
 20
34.9407341777
 10
-16.2052673916
 20
34.9306357516
 10
-16.1701415634
 20
34.9182626196
 10
-16.1359050544
 20
34.9036777813
 10
-16.1031104458
 20
34.8870703578
 10
-16.0718105746
 20
34.8684838656
 10
-16.0419526036
 20
34.8478746266
 10
-16.013930603
 20
34.8253009653
 10
-15.9877369474
 20
34.8005611465
 10
-15.9633792622
 20
34.7738566866
 10
-15.9412744933
 20
34.7458508178
 10
-15.9215886334
 20
34.7166196956
 10
-15.9041556898
 20
34.6860869998
 10
-15.888894631
 20
34.6546873142
 10
-15.8757394023
 20
34.6223790395
 10
-15.8647560582
 20
34.58920365
 10
-15.8560617314
 20
34.5557204094
 10
-15.849695466
 20
34.5221157429
 10
-15.8456182179
 20
34.4882031909
 10
-15.843829987
 20
34.4539827315
  0
LWPOLYLINE
  5
7DA
100
AcDbEntity
  8
0
100
AcDbPolyline
 62
7
  6
CONTINUOUS
 90
8
 70
0
 10
20.6893090811
 20
24.0215290512
 10
20.6872506366
 20
24.021978618
 10
20.6831360881
 20
24.0224171051
 10
20.6769654358
 20
24.0228445126
 10
20.6686996069
 20
24.0232630394
 10
20.658377674
 20
24.0236704866
 10
20.6461168553
 20
24.0240602571
 10
20.6155937839
 20
24.0247891559
  0
LINE
  5
7DB
100
AcDbEntity
  8
0
100
AcDbLine
 62
7
  6
CONTINUOUS
 10
-0.4
 20
27.5
 11
-0.6020690266
 21
27.5504980189
  0
LINE
  5
7DC
100
AcDbEntity
  8
DRAFT
100
AcDbLine
 62
7
  6
CONTINUOUS
 10
21.6463883491
 20
26.8965183637
 11
21.6
 21
26.9081110346
  0
LINE
  5
7DD
100
AcDbEntity
  8
0
100
AcDbLine
 62
7
  6
CONTINUOUS
 10
24.1139597987
 20
26.9465113794
 11
24.2676196936
 21
26.9081110346
  0
LWPOLYLINE
  5
7DE
100
AcDbEntity
  8
0
100
AcDbPolyline
 62
7
  6
CONTINUOUS
 90
28
 70
0
 10
-15.7120995634
 20
35.5229543863
 10
-15.7814907477
 20
35.5459994746
 10
-15.8516755947
 20
35.566596207
 10
-15.9226541044
 20
35.5847447027
 10
-15.9946111036
 20
35.6002543011
 10
-16.0673617654
 20
35.6133158631
 10
-16.1403516099
 20
35.6245017517
 10
-16.2134978239
 20
35.6338373149
 10
-16.2868832205
 20
35.6412972958
 10
-16.3602017588
 20
35.64737811
 10
-16.4333836097
 20
35.6521746755
 10
-16.5064986022
 20
35.6555921091
 10
-16.5794501821
 20
35.657842107
 10
-16.6520120085
 20
35.65894954
 10
-16.7244104223
 20
35.6588895464
 10
-16.7972278928
 20
35.6577992166
 10
-16.8704141549
 20
35.6557119141
 10
-16.9440194736
 20
35.6525942676
 10
-17.0187771127
 20
35.6484832621
 10
-17.094676086
 20
35.6434032006
 10
-17.1717273797
 20
35.6373297585
 10
-17.2506972166
 20
35.6302269752
 10
-17.3315840699
 20
35.6221028305
 10
-17.4143894665
 20
35.6129493076
 10
-17.4998842094
 20
35.6027064458
 10
-17.5883252331
 20
35.5913542391
 10
-17.6794556033
 20
35.5789126373
 10
-17.7732753198
 20
35.5653816085
  0
LINE
  5
7DF
100
AcDbEntity
  8
0
100
AcDbLine
 62
7
  6
CONTINUOUS
 10
20.7323803064
 20
24.0
 11
20.6893090811
 21
24.0215290512
  0
LINE
  5
7E0
100
AcDbEntity
  8
0
100
AcDbLine
 62
7
  6
CONTINUOUS
 10
23.3468102756
 20
24.0265867593
 11
23.4
 21
24.0
  0
LINE
  5
7E1
100
AcDbEntity
  8
0
100
AcDbLine
 62
7
  6
CONTINUOUS
 10
21.948301
 20
34.589064
 11
21.96185
 21
34.550508
  0
LINE
  5
7E2
100
AcDbEntity
  8
0
100
AcDbLine
 62
7
  6
CONTINUOUS
 10
22.449234
 20
34.707528
 11
22.445567
 21
34.718919
  0
LINE
  5
7E3
100
AcDbEntity
  8
0
100
AcDbLine
 62
7
  6
CONTINUOUS
 10
22.466974
 20
34.644936
 11
22.449234
 21
34.707528
  0
LINE
  5
7E4
100
AcDbEntity
  8
0
100
AcDbLine
 62
7
  6
CONTINUOUS
 10
21.96185
 20
34.550508
 11
21.9736428993
 21
34.5070052584
  0
LINE
  5
7E5
100
AcDbEntity
  8
0
100
AcDbLine
 62
7
  6
CONTINUOUS
 10
22.481212
 20
34.579448
 11
22.466974
 21
34.644936
  0
LINE
  5
7E6
100
AcDbEntity
  8
0
100
AcDbLine
 62
7
  6
CONTINUOUS
 10
21.9736428993
 20
34.5070052584
 11
21.981737
 21
34.462145
  0
LINE
  5
7E7
100
AcDbEntity
  8
0
100
AcDbLine
 62
7
  6
CONTINUOUS
 10
22.491427
 20
34.512887
 11
22.481212
 21
34.579448
  0
LWPOLYLINE
  5
7E8
100
AcDbEntity
  8
DRAFT
100
AcDbPolyline
 62
7
  6
CONTINUOUS
 90
3
 70
0
 10
38.8737920989
 20
-23.788869094
 10
38.8241297683
 20
-23.3243681298
 10
38.8144949276
 20
-23.2314782933
  0
LINE
  5
7E9
100
AcDbEntity
  8
DRAFT
100
AcDbLine
 62
7
  6
CONTINUOUS
 10
34.5785440846
 20
-36.5357171432
 11
34.5487419809
 21
-35.5499715907
  0
LINE
  5
7EA
100
AcDbEntity
  8
DRAFT
100
AcDbLine
 62
7
  6
CONTINUOUS
 10
35.3214559154
 20
36.5357171432
 11
35.3507379165
 21
35.5671747003
  0
LINE
  5
7EB
100
AcDbEntity
  8
DRAFT
100
AcDbLine
 62
7
  6
CONTINUOUS
 10
34.5338596918
 20
-27.5507990126
 11
34.5162156883
 21
-25.8
  0
LINE
  5
7EC
100
AcDbEntity
  8
DRAFT
100
AcDbLine
 62
7
  6
CONTINUOUS
 10
35.3655602373
 20
27.608358935
 11
35.3837843117
 21
25.8
  0
LINE
  5
7ED
100
AcDbEntity
  8
DRAFT
100
AcDbLine
 62
7
  6
CONTINUOUS
 10
34.5487419809
 20
-35.5499715907
 11
34.5380597507
 21
-30.2217037724
  0
LINE
  5
7EE
100
AcDbEntity
  8
DRAFT
100
AcDbLine
 62
7
  6
CONTINUOUS
 10
35.3507379165
 20
35.5671747003
 11
35.3642476694
 21
28.4946369158
  0
LINE
  5
7EF
100
AcDbEntity
  8
DRAFT
100
AcDbLine
 62
7
  6
CONTINUOUS
 10
34.5380597507
 20
-30.2217037724
 11
34.5338596918
 21
-27.5507990126
  0
LINE
  5
7F0
100
AcDbEntity
  8
DRAFT
100
AcDbLine
 62
7
  6
CONTINUOUS
 10
35.3642476694
 20
28.4946369158
 11
35.3655602373
 21
27.608358935
  0
LINE
  5
7F1
100
AcDbEntity
  8
0
100
AcDbLine
 62
7
  6
CONTINUOUS
 10
33.85
 20
-21.7010963722
 11
33.85
 21
21.7010963722
  0
LINE
  5
7F2
100
AcDbEntity
  8
0
100
AcDbLine
 62
7
  6
CONTINUOUS
 10
34.5162156883
 20
-24.0
 11
34.5162156883
 21
-25.8
  0
LINE
  5
7F3
100
AcDbEntity
  8
0
100
AcDbLine
 62
7
  6
CONTINUOUS
 10
34.5162156883
 20
24.0
 11
34.5162156883
 21
25.8
  0
LINE
  5
7F4
100
AcDbEntity
  8
RACCORDO
100
AcDbLine
 62
7
  6
CONTINUOUS
 10
34.6
 20
-43.0
 11
34.6
 21
-36.8848266046
  0
LINE
  5
7F5
100
AcDbEntity
  8
RACCORDO
100
AcDbLine
 62
7
  6
CONTINUOUS
 10
34.6
 20
36.8848266046
 11
34.6
 21
43.0
  0
LINE
  5
7F6
100
AcDbEntity
  8
0
100
AcDbLine
 62
253
  6
CONTINUOUS
 10
34.8295974464
 20
-18.9085966407
 11
34.8295974464
 21
-14.0914033593
  0
LINE
  5
7F7
100
AcDbEntity
  8
RACCORDO
100
AcDbLine
 62
7
  6
CONTINUOUS
 10
35.3
 20
-43.0
 11
35.3
 21
-36.8848266046
  0
LINE
  5
7F8
100
AcDbEntity
  8
RACCORDO
100
AcDbLine
 62
7
  6
CONTINUOUS
 10
35.3
 20
36.8848266046
 11
35.3
 21
43.0
  0
LINE
  5
7F9
100
AcDbEntity
  8
0
100
AcDbLine
 62
253
  6
CONTINUOUS
 10
35.3295212939
 20
-18.4089012272
 11
35.3295212939
 21
-14.5910987728
  0
LINE
  5
7FA
100
AcDbEntity
  8
0
100
AcDbLine
 62
7
  6
CONTINUOUS
 10
35.3750567792
 20
19.0
 11
35.3750567792
 21
-14.5000000464
  0
LINE
  5
7FB
100
AcDbEntity
  8
DRAFT
100
AcDbLine
 62
7
  6
CONTINUOUS
 10
35.3837843117
 20
25.8
 11
35.3837843117
 21
24.0837843117
  0
LINE
  5
7FC
100
AcDbEntity
  8
0
100
AcDbLine
 62
7
  6
CONTINUOUS
 10
35.3837843117
 20
-18.5174603383
 11
35.3837843117
 21
-23.2162156883
  0
LINE
  5
7FD
100
AcDbEntity
  8
DRAFT
100
AcDbLine
 62
7
  6
CONTINUOUS
 10
35.3837843117
 20
-24.0837843117
 11
35.3837843117
 21
-25.8
  0
LINE
  5
7FE
100
AcDbEntity
  8
0
100
AcDbLine
 62
7
  6
CONTINUOUS
 10
35.3837843117
 20
19.0174603847
 11
35.3837843117
 21
23.2162156883
  0
LINE
  5
7FF
100
AcDbEntity
  8
DRAFT
100
AcDbLine
 62
7
  6
CONTINUOUS
 10
35.4012393766
 20
-0.4512393766
 11
35.4012393766
 21
0.4512393766
  0
LINE
  5
800
100
AcDbEntity
  8
DRAFT
100
AcDbLine
 62
7
  6
CONTINUOUS
 10
37.3
 20
-24.0837843117
 11
37.3
 21
-23.2162156883
  0
LINE
  5
801
100
AcDbEntity
  8
DRAFT
100
AcDbLine
 62
7
  6
CONTINUOUS
 10
37.3
 20
23.2162156883
 11
37.3
 21
24.0837843117
  0
LINE
  5
802
100
AcDbEntity
  8
DRAFT
100
AcDbLine
 62
7
  6
CONTINUOUS
 10
35.3655602373
 20
-27.608358935
 11
35.3564304499
 21
-32.9189491008
  0
LINE
  5
803
100
AcDbEntity
  8
DRAFT
100
AcDbLine
 62
7
  6
CONTINUOUS
 10
34.5338596918
 20
27.5507990126
 11
34.5487419809
 21
35.5499715907
  0
LINE
  5
804
100
AcDbEntity
  8
DRAFT
100
AcDbLine
 62
7
  6
CONTINUOUS
 10
35.3564304499
 20
-32.9189491008
 11
35.3507379165
 21
-35.5671747003
  0
LINE
  5
805
100
AcDbEntity
  8
DRAFT
100
AcDbLine
 62
7
  6
CONTINUOUS
 10
34.5338596918
 20
27.5507990126
 11
34.5162156883
 21
25.8
  0
LINE
  5
806
100
AcDbEntity
  8
DRAFT
100
AcDbLine
 62
7
  6
CONTINUOUS
 10
35.3837843117
 20
-25.8
 11
35.3655602373
 21
-27.608358935
  0
LINE
  5
807
100
AcDbEntity
  8
DRAFT
100
AcDbLine
 62
7
  6
CONTINUOUS
 10
34.5785440846
 20
36.5357171432
 11
34.5487419809
 21
35.5499715907
  0
LINE
  5
808
100
AcDbEntity
  8
DRAFT
100
AcDbLine
 62
7
  6
CONTINUOUS
 10
35.3214559154
 20
-36.5357171432
 11
35.3507379165
 21
-35.5671747003
  0
LINE
  5
809
100
AcDbEntity
  8
DRAFT
100
AcDbLine
 62
7
  6
CONTINUOUS
 10
38.8144949276
 20
23.2314782933
 11
38.8636611596
 21
23.6959620511
  0
LINE
  5
80A
100
AcDbEntity
  8
DRAFT
100
AcDbLine
 62
7
  6
CONTINUOUS
 10
38.8636611596
 20
23.6959620511
 11
38.9047809173
 21
24.0676118328
  0
LINE
  5
80B
100
AcDbEntity
  8
0
100
AcDbLine
 62
253
  6
CONTINUOUS
 10
34.8295974464
 20
-14.0914033593
 11
34.8752852017
 21
-14.0
  0
LINE
  5
80C
100
AcDbEntity
  8
0
100
AcDbLine
 62
253
  6
CONTINUOUS
 10
35.3295212939
 20
-14.5910987728
 11
35.3750567792
 21
-14.5000000464
  0
LWPOLYLINE
  5
80D
100
AcDbEntity
  8
0
100
AcDbPolyline
 62
7
  6
CONTINUOUS
 90
8
 70
0
 10
21.9008596262
 20
-28.5516983052
 10
21.898644224
 20
-28.5557579317
 10
21.8949132006
 20
-28.5616387915
 10
21.8896665558
 20
-28.5691359728
 10
21.8827427902
 20
-28.5780281126
 10
21.8743034034
 20
-28.5881270581
 10
21.8648328937
 20
-28.5993068767
 10
21.8543834757
 20
-28.6113961839
  0
LWPOLYLINE
  5
80E
100
AcDbEntity
  8
0
100
AcDbPolyline
 62
7
  6
CONTINUOUS
 90
8
 70
0
 10
21.8990796797
 20
-27.9519724288
 10
21.8968635194
 20
-27.9559431926
 10
21.893131532
 20
-27.9617392909
 10
21.8878837172
 20
-27.9691561609
 10
21.8809585258
 20
-27.9779728168
 10
21.8725175071
 20
-27.9880011311
 10
21.8630453093
 20
-27.999114917
 10
21.8525941787
 20
-28.0111428961
  0
LINE
  5
80F
100
AcDbEntity
  8
0
100
AcDbLine
 62
7
  6
CONTINUOUS
 10
19.508932
 20
-36.729018
 11
19.72636
 21
-36.42078
  0
LWPOLYLINE
  5
810
100
AcDbEntity
  8
0
100
AcDbPolyline
 62
7
  6
CONTINUOUS
 90
3
 70
0
 10
21.8543834757
 20
-28.6113961839
 10
21.8307191254
 20
-28.6378051504
 10
21.8178641835
 20
-28.6519729641
  0
LWPOLYLINE
  5
811
100
AcDbEntity
  8
0
100
AcDbPolyline
 62
7
  6
CONTINUOUS
 90
3
 70
0
 10
21.8525941787
 20
-28.0111428961
 10
21.8289262894
 20
-28.037442879
 10
21.8160695886
 20
-28.0515626313
  0
LWPOLYLINE
  5
812
100
AcDbEntity
  8
0
100
AcDbPolyline
 62
7
  6
CONTINUOUS
 90
3
 70
0
 10
21.8178641835
 20
-28.6519729641
 10
21.790275941
 20
-28.6817335213
 10
21.775790439
 20
-28.6972298427
  0
LWPOLYLINE
  5
813
100
AcDbEntity
  8
0
100
AcDbPolyline
 62
7
  6
CONTINUOUS
 90
3
 70
0
 10
21.8160695886
 20
-28.0515626313
 10
21.7884778387
 20
-28.0812396503
 10
21.7739906077
 20
-28.0967001885
  0
LINE
  5
814
100
AcDbEntity
  8
0
100
AcDbLine
 62
7
  6
CONTINUOUS
 10
21.775790439
 20
-28.6972298427
 11
21.7300547023
 21
-28.7453238453
  0
LINE
  5
815
100
AcDbEntity
  8
0
100
AcDbLine
 62
7
  6
CONTINUOUS
 10
21.7739906077
 20
-28.0967001885
 11
21.7282497706
 21
-28.1447100402
  0
LINE
  5
816
100
AcDbEntity
  8
0
100
AcDbLine
 62
7
  6
CONTINUOUS
 10
21.7300547023
 20
-28.7453238453
 11
21.6822299859
 21
-28.7947202098
  0
LINE
  5
817
100
AcDbEntity
  8
0
100
AcDbLine
 62
7
  6
CONTINUOUS
 10
21.7282497706
 20
-28.1447100402
 11
21.6804201002
 21
-28.1940553929
  0
LWPOLYLINE
  5
818
100
AcDbEntity
  8
0
100
AcDbPolyline
 62
7
  6
CONTINUOUS
 90
4
 70
0
 10
21.6804201002
 20
-28.1940553929
 10
21.6320645172
 20
-28.2432545767
 10
21.6160772394
 20
-28.2593709862
 10
21.600136964
 20
-28.2752649765
  0
LWPOLYLINE
  5
819
100
AcDbEntity
  8
0
100
AcDbPolyline
 62
7
  6
CONTINUOUS
 90
4
 70
0
 10
21.6822299859
 20
-28.7947202098
 10
21.6338791536
 20
-28.8439392567
 10
21.6178933968
 20
-28.8600557844
 10
21.6019546125
 20
-28.8759468191
  0
LINE
  5
81A
100
AcDbEntity
  8
0
100
AcDbLine
 62
253
  6
CONTINUOUS
 10
20.8860402013
 20
-27.4641425506
 11
20.6982180589
 21
-27.6519684658
  0
LINE
  5
81B
100
AcDbEntity
  8
0
100
AcDbLine
 62
253
  6
CONTINUOUS
 10
21.1963209205
 20
-27.7534963276
 11
20.9997754079
 21
-27.9500457878
  0
LINE
  5
81C
100
AcDbEntity
  8
0
100
AcDbLine
 62
7
  6
CONTINUOUS
 10
21.8999542122
 20
-27.9500457878
 11
22.1
 21
-27.75
  0
LINE
  5
81D
100
AcDbEntity
  8
0
100
AcDbLine
 62
7
  6
CONTINUOUS
 10
23.7
 20
-27.35
 11
24.1141963536
 21
-26.9465093858
  0
LINE
  5
81E
100
AcDbEntity
  8
0
100
AcDbLine
 62
7
  6
CONTINUOUS
 10
19.3937793924
 20
-32.1064256693
 11
18.224704
 21
-33.091613
  0
LINE
  5
81F
100
AcDbEntity
  8
0
100
AcDbLine
 62
7
  6
CONTINUOUS
 10
18.224704
 20
-33.603309
 11
19.3395358997
 21
-32.6638330845
  0
LINE
  5
820
100
AcDbEntity
  8
0
100
AcDbLine
 62
7
  6
CONTINUOUS
 10
-22.1
 20
28.5
 11
-21.9020460546
 21
28.5494696404
  0
LWPOLYLINE
  5
821
100
AcDbEntity
  8
0
100
AcDbPolyline
 62
7
  6
CONTINUOUS
 90
5
 70
0
 10
-15.6269037691
 20
33.5031673774
 10
-15.6128468843
 20
33.5059167932
 10
-15.5987929993
 20
33.5100698416
 10
-15.584742114
 20
33.5156265102
 10
-15.5706753521
 20
33.5227732259
  0
LWPOLYLINE
  5
822
100
AcDbEntity
  8
0
100
AcDbPolyline
 62
7
  6
CONTINUOUS
 90
10
 70
0
 10
-16.9694619483
 20
34.9307526417
 10
-16.8948903986
 20
34.9430958745
 10
-16.8209014114
 20
34.9530033257
 10
-16.7474949867
 20
34.9604750508
 10
-16.674814163
 20
34.9655059156
 10
-16.6027159018
 20
34.9681011244
 10
-16.5307710876
 20
34.9682762199
 10
-16.4588366818
 20
34.966036379
 10
-16.387055723
 20
34.9613764133
 10
-16.3154282111
 20
34.9542962966
  0
LINE
  5
823
100
AcDbEntity
  8
0
100
AcDbLine
 62
7
  6
CONTINUOUS
 10
21.221348
 20
33.697558
 11
21.154308
 21
33.695868
  0
LINE
  5
824
100
AcDbEntity
  8
DRAFT
100
AcDbLine
 62
7
  6
CONTINUOUS
 10
35.3507379165
 20
35.5671747003
 11
34.5487419809
 21
35.5499715907
  0
LINE
  5
825
100
AcDbEntity
  8
0
100
AcDbLine
 62
7
  6
CONTINUOUS
 10
10.9
 20
35.5052022859
 11
11.6
 21
35.5056842052
  0
LINE
  5
826
100
AcDbEntity
  8
0
100
AcDbLine
 62
7
  6
CONTINUOUS
 10
-20.251537
 20
32.411042
 11
-19.114604
 21
32.411042
  0
LINE
  5
827
100
AcDbEntity
  8
0
100
AcDbLine
 62
7
  6
CONTINUOUS
 10
-19.281449
 20
33.028875
 11
-20.080763
 21
33.028875
  0
LINE
  5
828
100
AcDbEntity
  8
0
100
AcDbLine
 62
7
  6
CONTINUOUS
 10
-16.9417794088
 20
33.1777850682
 11
-16.4941500454
 21
33.1777850682
  0
LINE
  5
829
100
AcDbEntity
  8
0
100
AcDbLine
 62
7
  6
CONTINUOUS
 10
18.019096
 20
33.193976
 11
18.557478
 21
33.193976
  0
LINE
  5
82A
100
AcDbEntity
  8
0
100
AcDbLine
 62
7
  6
CONTINUOUS
 10
28.195711
 20
33.205925
 11
29.74227
 21
33.205925
  0
LINE
  5
82B
100
AcDbEntity
  8
0
100
AcDbLine
 62
7
  6
CONTINUOUS
 10
21.154308
 20
33.695868
 11
20.73266
 21
33.695868
  0
LINE
  5
82C
100
AcDbEntity
  8
0
100
AcDbLine
 62
7
  6
CONTINUOUS
 10
18.557478
 20
33.705734
 11
18.019096
 21
33.705734
  0
LINE
  5
82D
100
AcDbEntity
  8
0
100
AcDbLine
 62
7
  6
CONTINUOUS
 10
29.74227
 20
33.716214
 11
28.195711
 21
33.716214
  0
LINE
  5
82E
100
AcDbEntity
  8
0
100
AcDbLine
 62
7
  6
CONTINUOUS
 10
-16.4923505304
 20
33.8328085387
 11
-16.9694619483
 21
33.8328085387
  0
LINE
  5
82F
100
AcDbEntity
  8
0
100
AcDbLine
 62
7
  6
CONTINUOUS
 10
19.596871
 20
34.989755
 11
21.205248
 21
34.989755
  0
LINE
  5
830
100
AcDbEntity
  8
0
100
AcDbLine
 62
7
  6
CONTINUOUS
 10
27.618401
 20
34.995513
 11
29.813575
 21
34.995513
  0
LINE
  5
831
100
AcDbEntity
  8
0
100
AcDbLine
 62
7
  6
CONTINUOUS
 10
21.207162
 20
35.501513
 11
19.596871
 21
35.501513
  0
LINE
  5
832
100
AcDbEntity
  8
0
100
AcDbLine
 62
7
  6
CONTINUOUS
 10
19.069237
 20
35.501513
 11
18.618438
 21
35.501513
  0
LINE
  5
833
100
AcDbEntity
  8
0
100
AcDbLine
 62
7
  6
CONTINUOUS
 10
29.813575
 20
35.507272
 11
27.10664
 21
35.507272
  0
LINE
  5
834
100
AcDbEntity
  8
0
100
AcDbLine
 62
7
  6
CONTINUOUS
 10
23.632716
 20
35.513955
 11
23.120958
 21
35.513955
  0
LINE
  5
835
100
AcDbEntity
  8
0
100
AcDbLine
 62
7
  6
CONTINUOUS
 10
26.583542
 20
35.521553
 11
25.85986
 21
35.521553
  0
LINE
  5
836
100
AcDbEntity
  8
0
100
AcDbLine
 62
7
  6
CONTINUOUS
 10
-19.245579
 20
35.612109
 11
-20.053201
 21
35.612109
  0
LINE
  5
837
100
AcDbEntity
  8
0
100
AcDbLine
 62
7
  6
CONTINUOUS
 10
-21.812797
 20
35.612109
 11
-22.638804
 21
35.612109
  0
LINE
  5
838
100
AcDbEntity
  8
0
100
AcDbLine
 62
7
  6
CONTINUOUS
 10
-24.299696
 20
35.612109
 11
-25.133862
 21
35.612109
  0
LINE
  5
839
100
AcDbEntity
  8
0
100
AcDbLine
 62
7
  6
CONTINUOUS
 10
-27.089095
 20
35.612109
 11
-27.92338
 21
35.612109
  0
LINE
  5
83A
100
AcDbEntity
  8
0
100
AcDbLine
 62
7
  6
CONTINUOUS
 10
-29.471428
 20
35.612109
 11
-30.378338
 21
35.612109
  0
LINE
  5
83B
100
AcDbEntity
  8
0
100
AcDbLine
 62
7
  6
CONTINUOUS
 10
-25.944423
 20
35.612349
 11
-26.779278
 21
35.612349
  0
LINE
  5
83C
100
AcDbEntity
  8
0
100
AcDbLine
 62
7
  6
CONTINUOUS
 10
27.981039
 20
35.872779
 11
28.70475
 21
35.872779
  0
LINE
  5
83D
100
AcDbEntity
  8
DRAFT
100
AcDbLine
 62
7
  6
CONTINUOUS
 10
-35.3214559154
 20
36.5357171432
 11
-34.5785440846
 21
36.5357171432
  0
LINE
  5
83E
100
AcDbEntity
  8
0
100
AcDbLine
 62
7
  6
CONTINUOUS
 10
11.6
 20
36.5357171432
 11
10.9
 21
36.5357171432
  0
LINE
  5
83F
100
AcDbEntity
  8
DRAFT
100
AcDbLine
 62
7
  6
CONTINUOUS
 10
-10.8785440846
 20
36.5357171432
 11
-11.6214559154
 21
36.5357171432
  0
LINE
  5
840
100
AcDbEntity
  8
DRAFT
100
AcDbLine
 62
7
  6
CONTINUOUS
 10
34.5785440846
 20
36.5357171432
 11
35.3214559154
 21
36.5357171432
  0
LINE
  5
841
100
AcDbEntity
  8
RACCORDO
100
AcDbLine
 62
253
  6
CONTINUOUS
 10
35.3049624612
 20
36.5852377442
 11
34.5950375388
 21
36.5852377442
  0
LINE
  5
842
100
AcDbEntity
  8
RACCORDO
100
AcDbLine
 62
253
  6
CONTINUOUS
 10
11.6
 20
36.5852377442
 11
10.9
 21
36.5852377442
  0
LINE
  5
843
100
AcDbEntity
  8
RACCORDO
100
AcDbLine
 62
253
  6
CONTINUOUS
 10
-10.8950375388
 20
36.5852377442
 11
-11.6049624612
 21
36.5852377442
  0
LINE
  5
844
100
AcDbEntity
  8
RACCORDO
100
AcDbLine
 62
253
  6
CONTINUOUS
 10
-34.5950375388
 20
36.5852377442
 11
-35.3049624612
 21
36.5852377442
  0
LINE
  5
845
100
AcDbEntity
  8
0
100
AcDbLine
 62
7
  6
CONTINUOUS
 10
29.612046
 20
36.780106
 11
28.888368
 21
36.780106
  0
LINE
  5
846
100
AcDbEntity
  8
RACCORDO
100
AcDbLine
 62
253
  6
CONTINUOUS
 10
35.3
 20
36.8848266046
 11
34.6
 21
36.8848266046
  0
LINE
  5
847
100
AcDbEntity
  8
RACCORDO
100
AcDbLine
 62
253
  6
CONTINUOUS
 10
11.6
 20
36.8848266046
 11
10.9
 21
36.8848266046
  0
LINE
  5
848
100
AcDbEntity
  8
RACCORDO
100
AcDbLine
 62
253
  6
CONTINUOUS
 10
-10.9
 20
36.8848266046
 11
-11.6
 21
36.8848266046
  0
LINE
  5
849
100
AcDbEntity
  8
RACCORDO
100
AcDbLine
 62
253
  6
CONTINUOUS
 10
-34.6
 20
36.8848266046
 11
-35.3
 21
36.8848266046
  0
LINE
  5
84A
100
AcDbEntity
  8
DRAFT
100
AcDbLine
 62
7
  6
CONTINUOUS
 10
-10.8473874094
 20
35.5051672761
 11
-11.6525958309
 21
35.5057216264
  0
LINE
  5
84B
100
AcDbEntity
  8
0
100
AcDbLine
 62
7
  6
CONTINUOUS
 10
21.205248
 20
34.989755
 11
21.231619
 21
34.989508
  0
LINE
  5
84C
100
AcDbEntity
  8
0
100
AcDbLine
 62
7
  6
CONTINUOUS
 10
21.287147
 20
35.49982
 11
21.207162
 21
35.501513
  0
LINE
  5
84D
100
AcDbEntity
  8
DRAFT
100
AcDbLine
 62
7
  6
CONTINUOUS
 10
-35.3507379165
 20
35.5671747003
 11
-34.5487419809
 21
35.5499715907
  0
LWPOLYLINE
  5
84E
100
AcDbEntity
  8
0
100
AcDbPolyline
 62
7
  6
CONTINUOUS
 90
25
 70
0
 10
-16.4941500454
 20
33.1777850682
 10
-16.4687948551
 20
33.1771847704
 10
-16.4436217411
 20
33.1752862738
 10
-16.4186307033
 20
33.1720895732
 10
-16.39373737
 20
33.1676175942
 10
-16.3690261129
 20
33.1618473905
 10
-16.3447500476
 20
33.1547101435
 10
-16.3208827546
 20
33.1461608226
 10
-16.2974506534
 20
33.136244413
 10
-16.2747861178
 20
33.1250271149
 10
-16.2529835808
 20
33.1124538629
 10
-16.2319486094
 20
33.0985796569
 10
-16.2117302785
 20
33.0836357974
 10
-16.192370264
 20
33.0676634079
 10
-16.17382689
 20
33.050621297
 10
-16.1560242031
 20
33.0326172998
 10
-16.1389487389
 20
33.0136946363
 10
-16.1226139619
 20
32.993810014
 10
-16.1069843113
 20
32.9729414992
 10
-16.0920249044
 20
32.9511239301
 10
-16.077770624
 20
32.928322383
 10
-16.0642905582
 20
32.9044102713
 10
-16.0516077364
 20
32.8793453596
 10
-16.0396991292
 20
32.8531697704
 10
-16.0285647366
 20
32.8258834445
  0
LINE
  5
84F
100
AcDbEntity
  8
0
100
AcDbLine
 62
7
  6
CONTINUOUS
 10
21.231619
 20
34.989508
 11
21.298989
 21
34.986578
  0
LINE
  5
850
100
AcDbEntity
  8
0
100
AcDbLine
 62
7
  6
CONTINUOUS
 10
21.370679
 20
35.494308
 11
21.287147
 21
35.49982
  0
LINE
  5
851
100
AcDbEntity
  8
0
100
AcDbLine
 62
7
  6
CONTINUOUS
 10
21.298989
 20
34.986578
 11
21.36199
 21
34.980611
  0
LINE
  5
852
100
AcDbEntity
  8
0
100
AcDbLine
 62
7
  6
CONTINUOUS
 10
21.451709
 20
35.485084
 11
21.370679
 21
35.494308
  0
LINE
  5
853
100
AcDbEntity
  8
0
100
AcDbLine
 62
7
  6
CONTINUOUS
 10
21.36199
 20
34.980611
 11
21.421547
 21
34.971761
  0
LINE
  5
854
100
AcDbEntity
  8
0
100
AcDbLine
 62
7
  6
CONTINUOUS
 10
21.530128
 20
35.472241
 11
21.451709
 21
35.485084
  0
LINE
  5
855
100
AcDbEntity
  8
0
100
AcDbLine
 62
7
  6
CONTINUOUS
 10
21.421547
 20
34.971761
 11
21.47767
 21
34.960221
  0
LINE
  5
856
100
AcDbEntity
  8
0
100
AcDbLine
 62
7
  6
CONTINUOUS
 10
22.1
 20
28.5
 11
21.9020460546
 21
28.5494696404
  0
LWPOLYLINE
  5
857
100
AcDbEntity
  8
0
100
AcDbPolyline
 62
7
  6
CONTINUOUS
 90
10
 70
0
 10
21.9020460546
 20
28.5494696404
 10
21.9019138551
 20
28.5495265891
 10
21.9017817333
 20
28.5496312377
 10
21.9016496894
 20
28.5497835863
 10
21.9015177044
 20
28.5499836679
 10
21.9013857971
 20
28.5502314495
 10
21.901254024
 20
28.5505268316
 10
21.9011224041
 20
28.5508697811
 10
21.9009909183
 20
28.5512603312
 10
21.9008595668
 20
28.5516984818
  0
LINE
  5
858
100
AcDbEntity
  8
0
100
AcDbLine
 62
7
  6
CONTINUOUS
 10
24.1141963536
 20
26.9465093858
 11
23.7
 21
27.35
  0
LINE
  5
859
100
AcDbEntity
  8
0
100
AcDbLine
 62
7
  6
CONTINUOUS
 10
21.6160772393
 20
28.2593709863
 11
21.600136964
 21
28.2752649765
  0
LINE
  5
85A
100
AcDbEntity
  8
0
100
AcDbLine
 62
7
  6
CONTINUOUS
 10
21.6178933968
 20
28.8600557844
 11
21.6019546125
 21
28.8759468191
  0
LINE
  5
85B
100
AcDbEntity
  8
0
100
AcDbLine
 62
253
  6
CONTINUOUS
 10
20.8860402013
 20
27.4641425506
 11
20.6982180393
 21
27.651961212
  0
LINE
  5
85C
100
AcDbEntity
  8
0
100
AcDbLine
 62
253
  6
CONTINUOUS
 10
21.1963209205
 20
27.7534963276
 11
20.999767363
 21
27.9500457878
  0
LINE
  5
85D
100
AcDbEntity
  8
0
100
AcDbLine
 62
7
  6
CONTINUOUS
 10
21.8999542122
 20
27.9500457878
 11
22.1
 21
27.75
  0
LINE
  5
85E
100
AcDbEntity
  8
0
100
AcDbLine
 62
7
  6
CONTINUOUS
 10
21.6480987974
 20
28.2269621188
 11
21.6160772393
 21
28.2593709863
  0
LINE
  5
85F
100
AcDbEntity
  8
0
100
AcDbLine
 62
7
  6
CONTINUOUS
 10
21.6499118828
 20
28.8276434954
 11
21.6178933968
 21
28.8600557844
  0
LINE
  5
860
100
AcDbEntity
  8
0
100
AcDbLine
 62
7
  6
CONTINUOUS
 10
21.6804201
 20
28.1940553931
 11
21.6480987974
 21
28.2269621188
  0
LINE
  5
861
100
AcDbEntity
  8
0
100
AcDbLine
 62
7
  6
CONTINUOUS
 10
21.6822299859
 20
28.7947202098
 11
21.6499118828
 21
28.8276434954
  0
LINE
  5
862
100
AcDbEntity
  8
0
100
AcDbLine
 62
7
  6
CONTINUOUS
 10
21.7282497702
 20
28.1447100405
 11
21.6804201
 21
28.1940553931
  0
LINE
  5
863
100
AcDbEntity
  8
0
100
AcDbLine
 62
7
  6
CONTINUOUS
 10
21.7300547023
 20
28.7453238453
 11
21.6822299859
 21
28.7947202098
  0
LINE
  5
864
100
AcDbEntity
  8
0
100
AcDbLine
 62
7
  6
CONTINUOUS
 10
21.7739906074
 20
28.0967001888
 11
21.7282497702
 21
28.1447100405
  0
LINE
  5
865
100
AcDbEntity
  8
0
100
AcDbLine
 62
7
  6
CONTINUOUS
 10
21.775790439
 20
28.6972298427
 11
21.7300547023
 21
28.7453238453
  0
LWPOLYLINE
  5
866
100
AcDbEntity
  8
0
100
AcDbPolyline
 62
7
  6
CONTINUOUS
 90
4
 70
0
 10
21.8289262891
 20
28.0374428793
 10
21.8160695883
 20
28.0515626317
 10
21.8025096174
 20
28.0661664709
 10
21.7739906074
 20
28.0967001888
  0
LWPOLYLINE
  5
867
100
AcDbEntity
  8
0
100
AcDbPolyline
 62
7
  6
CONTINUOUS
 90
4
 70
0
 10
21.8307191254
 20
28.6378051504
 10
21.8178641835
 20
28.6519729641
 10
21.8043059731
 20
28.6666205811
 10
21.775790439
 20
28.6972298427
  0
LINE
  5
868
100
AcDbEntity
  8
0
100
AcDbLine
 62
7
  6
CONTINUOUS
 10
21.867574
 20
34.729444
 11
21.891632
 21
34.696605
  0
LINE
  5
869
100
AcDbEntity
  8
0
100
AcDbLine
 62
7
  6
CONTINUOUS
 10
22.333115
 20
34.957049
 11
22.295733
 21
35.012007
  0
LINE
  5
86A
100
AcDbEntity
  8
0
100
AcDbLine
 62
7
  6
CONTINUOUS
 10
21.891632
 20
34.696605
 11
21.913139
 21
34.662202
  0
LINE
  5
86B
100
AcDbEntity
  8
0
100
AcDbLine
 62
7
  6
CONTINUOUS
 10
22.366941
 20
34.899936
 11
22.333115
 21
34.957049
  0
LWPOLYLINE
  5
86C
100
AcDbEntity
  8
0
100
AcDbPolyline
 62
7
  6
CONTINUOUS
 90
9
 70
0
 10
21.8990796797
 20
27.9519724288
 10
21.8968635194
 20
27.9559431926
 10
21.8931315319
 20
27.961739291
 10
21.8878837171
 20
27.969156161
 10
21.8809585257
 20
27.9779728169
 10
21.8725175069
 20
27.9880011313
 10
21.8630453091
 20
27.9991149172
 10
21.8525941785
 20
28.0111428964
 10
21.8289262891
 20
28.0374428793
  0
LWPOLYLINE
  5
86D
100
AcDbEntity
  8
0
100
AcDbPolyline
 62
7
  6
CONTINUOUS
 90
9
 70
0
 10
21.9008596262
 20
28.5516983052
 10
21.898644224
 20
28.5557579317
 10
21.8949132006
 20
28.5616387915
 10
21.8896665558
 20
28.5691359728
 10
21.8827427902
 20
28.5780281126
 10
21.8743034034
 20
28.5881270581
 10
21.8648328937
 20
28.5993068767
 10
21.8543834757
 20
28.6113961839
 10
21.8307191254
 20
28.6378051504
  0
LINE
  5
86E
100
AcDbEntity
  8
0
100
AcDbLine
 62
7
  6
CONTINUOUS
 10
21.913139
 20
34.662202
 11
21.932045
 21
34.626326
  0
LINE
  5
86F
100
AcDbEntity
  8
0
100
AcDbLine
 62
7
  6
CONTINUOUS
 10
20.73266
 20
33.695868
 11
21.883461
 21
31.502748
  0
LINE
  5
870
100
AcDbEntity
  8
0
100
AcDbLine
 62
7
  6
CONTINUOUS
 10
22.461415
 20
31.502748
 11
21.554764
 21
33.23055
  0
LINE
  5
871
100
AcDbEntity
  8
0
100
AcDbLine
 62
7
  6
CONTINUOUS
 10
22.397113
 20
34.840828
 11
22.366941
 21
34.899936
  0
LINE
  5
872
100
AcDbEntity
  8
0
100
AcDbLine
 62
7
  6
CONTINUOUS
 10
21.932045
 20
34.626326
 11
21.948301
 21
34.589064
  0
LINE
  5
873
100
AcDbEntity
  8
0
100
AcDbLine
 62
7
  6
CONTINUOUS
 10
22.423539
 20
34.779897
 11
22.397113
 21
34.840828
  0
LINE
  5
874
100
AcDbEntity
  8
0
100
AcDbLine
 62
7
  6
CONTINUOUS
 10
22.445567
 20
34.718919
 11
22.423539
 21
34.779897
  0
LINE
  5
875
100
AcDbEntity
  8
DRAFT
100
AcDbLine
 62
7
  6
CONTINUOUS
 10
38.9047809173
 20
-24.0676118328
 11
38.8737920989
 21
-23.788869094
  0
LINE
  5
876
100
AcDbEntity
  8
0
100
AcDbLine
 62
7
  6
CONTINUOUS
 10
34.5162156883
 20
-24.0
 11
34.489628929
 21
-24.0265867593
  0
LINE
  5
877
100
AcDbEntity
  8
DRAFT
100
AcDbLine
 62
7
  6
CONTINUOUS
 10
35.3837843117
 20
-23.2162156883
 11
35.4111990254
 21
-23.1888009746
  0
LINE
  5
878
100
AcDbEntity
  8
RACCORDO
100
AcDbLine
 62
7
  6
CONTINUOUS
 10
58.9650898701
 20
-0.3849101299
 11
58.8817502263
 21
-0.4682497737
  0
LINE
  5
879
100
AcDbEntity
  8
RACCORDO
100
AcDbLine
 62
7
  6
CONTINUOUS
 10
56.0357171432
 20
-24.0214559154
 11
56.0852377442
 21
-24.0049624612
  0
LINE
  5
87A
100
AcDbEntity
  8
RACCORDO
100
AcDbLine
 62
253
  6
CONTINUOUS
 10
-58.7311508878
 20
42.7655612578
 11
-58.7722108508
 21
42.7644786614
  0
LINE
  5
87B
100
AcDbEntity
  8
RACCORDO
100
AcDbLine
 62
253
  6
CONTINUOUS
 10
-58.7311508878
 20
42.7655612578
 11
-35.3722576013
 21
42.7655612578
  0
LINE
  5
87C
100
AcDbEntity
  8
RACCORDO
100
AcDbLine
 62
253
  6
CONTINUOUS
 10
-34.5277423987
 20
42.7655612578
 11
-11.6722576013
 21
42.7655612578
  0
LINE
  5
87D
100
AcDbEntity
  8
RACCORDO
100
AcDbLine
 62
253
  6
CONTINUOUS
 10
-10.8277423987
 20
42.7655612578
 11
10.9
 21
42.7655612578
  0
LINE
  5
87E
100
AcDbEntity
  8
RACCORDO
100
AcDbLine
 62
253
  6
CONTINUOUS
 10
11.6
 20
42.7655612578
 11
34.5277423987
 21
42.7655612578
  0
LINE
  5
87F
100
AcDbEntity
  8
RACCORDO
100
AcDbLine
 62
253
  6
CONTINUOUS
 10
35.3722576013
 20
42.7655612578
 11
58.7311508878
 21
42.7655612578
  0
LINE
  5
880
100
AcDbEntity
  8
RACCORDO
100
AcDbLine
 62
253
  6
CONTINUOUS
 10
-58.7311508878
 20
42.9311204268
 11
-35.3688795732
 21
42.9311204268
  0
LINE
  5
881
100
AcDbEntity
  8
RACCORDO
100
AcDbLine
 62
253
  6
CONTINUOUS
 10
-34.5311204268
 20
42.9311204268
 11
-11.6688795732
 21
42.9311204268
  0
LINE
  5
882
100
AcDbEntity
  8
RACCORDO
100
AcDbLine
 62
253
  6
CONTINUOUS
 10
-10.8311204268
 20
42.9311204268
 11
10.9
 21
42.9311204268
  0
LINE
  5
883
100
AcDbEntity
  8
RACCORDO
100
AcDbLine
 62
253
  6
CONTINUOUS
 10
11.6
 20
42.9311204268
 11
34.5311204268
 21
42.9311204268
  0
LINE
  5
884
100
AcDbEntity
  8
RACCORDO
100
AcDbLine
 62
253
  6
CONTINUOUS
 10
35.3688795732
 20
42.9311204268
 11
58.7311508878
 21
42.9311204268
  0
LINE
  5
885
100
AcDbEntity
  8
RACCORDO
100
AcDbLine
 62
7
  6
CONTINUOUS
 10
58.800030461
 20
43.0
 11
35.3
 21
43.0
  0
LINE
  5
886
100
AcDbEntity
  8
DRAFT
100
AcDbLine
 62
7
  6
CONTINUOUS
 10
34.6
 20
43.0
 11
11.6
 21
43.0
  0
LINE
  5
887
100
AcDbEntity
  8
DRAFT
100
AcDbLine
 62
7
  6
CONTINUOUS
 10
10.9
 20
43.0
 11
-10.9
 21
43.0
  0
LINE
  5
888
100
AcDbEntity
  8
DRAFT
100
AcDbLine
 62
7
  6
CONTINUOUS
 10
-11.6
 20
43.0
 11
-34.6
 21
43.0
  0
LINE
  5
889
100
AcDbEntity
  8
RACCORDO
100
AcDbLine
 62
7
  6
CONTINUOUS
 10
-35.3
 20
43.0
 11
-58.800030461
 21
43.0
  0
LINE
  5
88A
100
AcDbEntity
  8
RACCORDO
100
AcDbLine
 62
7
  6
CONTINUOUS
 10
59.0970752324
 20
43.5000000141
 11
-59.0970753694
 21
43.5000000005
  0
LINE
  5
88B
100
AcDbEntity
  8
RACCORDO
100
AcDbLine
 62
7
  6
CONTINUOUS
 10
60.0006852438
 20
44.4999999988
 11
-60.0006852399
 21
44.4999999992
  0
LWPOLYLINE
  5
88C
100
AcDbEntity
  8
RACCORDO
100
AcDbPolyline
 62
253
  6
CONTINUOUS
 90
15
 70
0
 10
58.7311508878
 20
42.7655612578
 10
58.7722108547
 20
42.7644786612
 10
58.7922995913
 20
42.7637325627
 10
58.8116772367
 20
42.762452586
 10
58.8301399285
 20
42.760675106
 10
58.847591895
 20
42.758783421
 10
58.8638048327
 20
42.7565564138
 10
58.8785477021
 20
42.7538732059
 10
58.8917322858
 20
42.7511878275
 10
58.9032375874
 20
42.7482659614
 10
58.9128609294
 20
42.744931861
 10
58.9204933055
 20
42.7416732359
 10
58.9261078234
 20
42.738525127
 10
58.9296716693
 20
42.7350816876
 10
58.9311204268
 20
42.7311508878
  0
LINE
  5
88D
100
AcDbEntity
  8
0
100
AcDbLine
 62
7
  6
CONTINUOUS
 10
21.605889
 20
35.455871
 11
21.530128
 21
35.472241
  0
LINE
  5
88E
100
AcDbEntity
  8
0
100
AcDbLine
 62
7
  6
CONTINUOUS
 10
21.47767
 20
34.960221
 11
21.530399
 21
34.946178
  0
LINE
  5
88F
100
AcDbEntity
  8
0
100
AcDbLine
 62
7
  6
CONTINUOUS
 10
21.678963
 20
35.436059
 11
21.605889
 21
35.455871
  0
LWPOLYLINE
  5
890
100
AcDbEntity
  8
RACCORDO
100
AcDbPolyline
 62
7
  6
CONTINUOUS
 90
10
 70
0
 10
58.8931484469
 20
24.1068515531
 10
58.892081845
 20
24.107152767
 10
58.8896072938
 20
24.107447389
 10
58.8857247934
 20
24.1077354188
 10
58.8804174751
 20
24.1080184148
 10
58.8737022076
 20
24.1082948188
 10
58.8656295969
 20
24.1085599557
 10
58.856121626
 20
24.1088148782
 10
58.8452563119
 20
24.1090585336
 10
58.8202531866
 20
24.1094875254
  0
LINE
  5
891
100
AcDbEntity
  8
0
100
AcDbLine
 62
7
  6
CONTINUOUS
 10
21.749315
 20
35.412888
 11
21.678963
 21
35.436059
  0
LINE
  5
892
100
AcDbEntity
  8
0
100
AcDbLine
 62
7
  6
CONTINUOUS
 10
21.530399
 20
34.946178
 11
21.579796
 21
34.929808
  0
LINE
  5
893
100
AcDbEntity
  8
RACCORDO
100
AcDbLine
 62
7
  6
CONTINUOUS
 10
56.0357171432
 20
24.0214559154
 11
56.0852377442
 21
24.0049624612
  0
LINE
  5
894
100
AcDbEntity
  8
0
100
AcDbLine
 62
7
  6
CONTINUOUS
 10
21.816921
 20
35.386431
 11
21.749315
 21
35.412888
  0
LINE
  5
895
100
AcDbEntity
  8
0
100
AcDbLine
 62
7
  6
CONTINUOUS
 10
21.579796
 20
34.929808
 11
21.625941
 21
34.911274
  0
LINE
  5
896
100
AcDbEntity
  8
0
100
AcDbLine
 62
7
  6
CONTINUOUS
 10
21.881752
 20
35.356765
 11
21.816921
 21
35.386431
  0
LINE
  5
897
100
AcDbEntity
  8
0
100
AcDbLine
 62
7
  6
CONTINUOUS
 10
21.625941
 20
34.911274
 11
21.668943
 21
34.890711
  0
LINE
  5
898
100
AcDbEntity
  8
0
100
AcDbLine
 62
7
  6
CONTINUOUS
 10
21.943781
 20
35.323952
 11
21.881752
 21
35.356765
  0
LINE
  5
899
100
AcDbEntity
  8
0
100
AcDbLine
 62
7
  6
CONTINUOUS
 10
21.668943
 20
34.890711
 11
21.708914
 21
34.868242
  0
LINE
  5
89A
100
AcDbEntity
  8
0
100
AcDbLine
 62
7
  6
CONTINUOUS
 10
22.002978
 20
35.288059
 11
21.943781
 21
35.323952
  0
LINE
  5
89B
100
AcDbEntity
  8
0
100
AcDbLine
 62
7
  6
CONTINUOUS
 10
21.708914
 20
34.868242
 11
21.745982
 21
34.843955
  0
LINE
  5
89C
100
AcDbEntity
  8
0
100
AcDbLine
 62
7
  6
CONTINUOUS
 10
22.059312
 20
35.249142
 11
22.002978
 21
35.288059
  0
LINE
  5
89D
100
AcDbEntity
  8
0
100
AcDbLine
 62
7
  6
CONTINUOUS
 10
21.745982
 20
34.843955
 11
21.780283
 21
34.817901
  0
LINE
  5
89E
100
AcDbEntity
  8
0
100
AcDbLine
 62
7
  6
CONTINUOUS
 10
22.112746
 20
35.207256
 11
22.059312
 21
35.249142
  0
LINE
  5
89F
100
AcDbEntity
  8
0
100
AcDbLine
 62
7
  6
CONTINUOUS
 10
21.780283
 20
34.817901
 11
21.811942
 21
34.790111
  0
LINE
  5
8A0
100
AcDbEntity
  8
0
100
AcDbLine
 62
7
  6
CONTINUOUS
 10
22.163245
 20
35.162452
 11
22.112746
 21
35.207256
  0
LINE
  5
8A1
100
AcDbEntity
  8
0
100
AcDbLine
 62
7
  6
CONTINUOUS
 10
23.848192
 20
33.509885
 11
25.855325
 21
31.502748
  0
LINE
  5
8A2
100
AcDbEntity
  8
0
100
AcDbLine
 62
7
  6
CONTINUOUS
 10
26.579006
 20
31.502748
 11
24.571935
 21
33.509883
  0
LINE
  5
8A3
100
AcDbEntity
  8
0
100
AcDbLine
 62
7
  6
CONTINUOUS
 10
34.5162156883
 20
24.0
 11
34.489628929
 21
24.0265867593
  0
LINE
  5
8A4
100
AcDbEntity
  8
DRAFT
100
AcDbLine
 62
7
  6
CONTINUOUS
 10
35.3837843117
 20
23.2162156883
 11
35.4111990254
 21
23.1888009746
  0
LINE
  5
8A5
100
AcDbEntity
  8
RACCORDO
100
AcDbLine
 62
7
  6
CONTINUOUS
 10
58.9650898701
 20
0.3849101299
 11
58.8817502263
 21
0.4682497737
  0
LINE
  5
8A6
100
AcDbEntity
  8
0
100
AcDbLine
 62
7
  6
CONTINUOUS
 10
22.210693
 20
35.114853
 11
22.163245
 21
35.162452
  0
LINE
  5
8A7
100
AcDbEntity
  8
0
100
AcDbLine
 62
7
  6
CONTINUOUS
 10
21.811942
 20
34.790111
 11
21.841005
 21
34.760638
  0
LINE
  5
8A8
100
AcDbEntity
  8
0
100
AcDbLine
 62
7
  6
CONTINUOUS
 10
22.254891
 20
35.064658
 11
22.210693
 21
35.114853
  0
LINE
  5
8A9
100
AcDbEntity
  8
0
100
AcDbLine
 62
7
  6
CONTINUOUS
 10
21.841005
 20
34.760638
 11
21.867574
 21
34.729444
  0
LINE
  5
8AA
100
AcDbEntity
  8
0
100
AcDbLine
 62
7
  6
CONTINUOUS
 10
22.295733
 20
35.012007
 11
22.254891
 21
35.064658
  0
LINE
  5
8AB
100
AcDbEntity
  8
DRAFT
100
AcDbLine
 62
7
  6
CONTINUOUS
 10
47.5
 20
0.4512393766
 11
47.5
 21
-0.4512393766
  0
LINE
  5
8AC
100
AcDbEntity
  8
DRAFT
100
AcDbLine
 62
7
  6
CONTINUOUS
 10
49.2944500197
 20
-0.419917135
 11
49.2944500197
 21
0.419917135
  0
LINE
  5
8AD
100
AcDbEntity
  8
RACCORDO
100
AcDbLine
 62
7
  6
CONTINUOUS
 10
35.3214559154
 20
-36.5357171432
 11
35.3049624612
 21
-36.5852377442
  0
LWPOLYLINE
  5
8AE
100
AcDbEntity
  8
RACCORDO
100
AcDbPolyline
 62
7
  6
CONTINUOUS
 90
22
 70
0
 10
-59.0970753694
 20
43.5000000005
 10
-59.1315384946
 20
43.4986610081
 10
-59.1644919165
 20
43.4953589788
 10
-59.1959356351
 20
43.4900939128
 10
-59.2258170243
 20
43.4828089462
 10
-59.2541887103
 20
43.4735609428
 10
-59.2812085717
 20
43.462520494
 10
-59.3069186372
 20
43.4497620772
 10
-59.3312768781
 20
43.4352112149
 10
-59.3543150868
 20
43.4188150675
 10
-59.3761528167
 20
43.4005229265
 10
-59.3966705144
 20
43.3803855003
 10
-59.4155413121
 20
43.3585020735
 10
-59.432773831
 20
43.3347592853
 10
-59.4483594499
 20
43.3092704964
 10
-59.4619454366
 20
43.2824750735
 10
-59.4734424954
 20
43.2544478694
 10
-59.4829399221
 20
43.2251140313
 10
-59.4903528718
 20
43.1946883677
 10
-59.4956530629
 20
43.1632424814
 10
-59.498868777
 20
43.1307047696
 10
-59.5000000141
 20
43.0970752324
  0
LWPOLYLINE
  5
8AF
100
AcDbEntity
  8
RACCORDO
100
AcDbPolyline
 62
253
  6
CONTINUOUS
 90
14
 70
0
 10
-58.7722108508
 20
42.7644786614
 10
-58.7922995859
 20
42.763732563
 10
-58.8116772301
 20
42.7624525865
 10
-58.830139921
 20
42.7606751068
 10
-58.8475918871
 20
42.758783422
 10
-58.8638048249
 20
42.756556415
 10
-58.8785476948
 20
42.7538732072
 10
-58.8917322794
 20
42.751187829
 10
-58.9032375823
 20
42.7482659629
 10
-58.9128609256
 20
42.7449318623
 10
-58.920493303
 20
42.7416732371
 10
-58.9261078221
 20
42.7385251282
 10
-58.9296716689
 20
42.7350816884
 10
-58.9311204268
 20
42.7311508878
  0
LINE
  5
8B0
100
AcDbEntity
  8
RACCORDO
100
AcDbLine
 62
7
  6
CONTINUOUS
 10
60.0013704652
 20
45.0
 11
-60.0013704652
 21
45.0
  0
LWPOLYLINE
  5
8B1
100
AcDbEntity
  8
RACCORDO
100
AcDbPolyline
 62
7
  6
CONTINUOUS
 90
22
 70
0
 10
60.0006852438
 20
44.4999999988
 10
60.0382221511
 20
44.4985555734
 10
60.0751507879
 20
44.494414829
 10
60.1114711543
 20
44.4875777656
 10
60.147367234
 20
44.4779875007
 10
60.1826550431
 20
44.4657009169
 10
60.2167826307
 20
44.4508886615
 10
60.2497376872
 20
44.4335200177
 10
60.281532522
 20
44.4136257024
 10
60.3116521126
 20
44.3914685132
 10
60.3401188031
 20
44.3669440155
 10
60.3669102493
 20
44.3401566439
 10
60.391444396
 20
44.3116824998
 10
60.413620333
 20
44.2815303659
 10
60.4335389706
 20
44.2496914595
 10
60.4509209838
 20
44.2167155329
 10
60.4657245718
 20
44.1826153489
 10
60.4779915355
 20
44.1473781447
 10
60.4875679523
 20
44.1115153852
 10
60.4944025148
 20
44.0751975587
 10
60.4985465304
 20
44.038254177
 10
60.4999999992
 20
44.0006852399
  0
LWPOLYLINE
  5
8B2
100
AcDbEntity
  8
RACCORDO
100
AcDbPolyline
 62
253
  6
CONTINUOUS
 90
19
 70
0
 10
58.7311508878
 20
42.9311204268
 10
58.7485758757
 20
42.9303544817
 10
58.7658683139
 20
42.928073086
 10
58.7828966489
 20
42.9242935927
 10
58.7995313276
 20
42.9190447545
 10
58.8156458087
 20
42.9123664978
 10
58.8311175221
 20
42.9043096118
 10
58.8458287765
 20
42.89493537
 10
58.8596676307
 20
42.8843150881
 10
58.8725287745
 20
42.8725295765
 10
58.8843143559
 20
42.8596685032
 10
58.8949347213
 20
42.8458297028
 10
58.9043090737
 20
42.8311184539
 10
58.9123660954
 20
42.8156466714
 10
58.9190444872
 20
42.7995320616
 10
58.924293438
 20
42.7828972256
 10
58.9280730145
 20
42.7658687189
 10
58.9303544631
 20
42.7485760871
 10
58.9311204268
 20
42.7311508878
  0
LINE
  5
8B3
100
AcDbEntity
  8
RACCORDO
100
AcDbLine
 62
7
  6
CONTINUOUS
 10
35.3214559154
 20
36.5357171432
 11
35.3049624612
 21
36.5852377442
  0
LINE
  5
8B4
100
AcDbEntity
  8
DRAFT
100
AcDbLine
 62
7
  6
CONTINUOUS
 10
55.0247963686
 20
-24.0520191431
 11
54.9967184929
 21
-23.2471319768
  0
LINE
  5
8B5
100
AcDbEntity
  8
DRAFT
100
AcDbLine
 62
7
  6
CONTINUOUS
 10
55.5907005033
 20
0.3849101299
 11
55.5907005033
 21
-0.3849101299
  0
LINE
  5
8B6
100
AcDbEntity
  8
DRAFT
100
AcDbLine
 62
7
  6
CONTINUOUS
 10
55.7
 20
20.0
 11
55.7
 21
19.2
  0
LINE
  5
8B7
100
AcDbEntity
  8
DRAFT
100
AcDbLine
 62
7
  6
CONTINUOUS
 10
55.7
 20
17.4
 11
55.7
 21
16.6
  0
LINE
  5
8B8
100
AcDbEntity
  8
DRAFT
100
AcDbLine
 62
7
  6
CONTINUOUS
 10
55.7
 20
14.8
 11
55.7
 21
14.0
  0
LINE
  5
8B9
100
AcDbEntity
  8
DRAFT
100
AcDbLine
 62
7
  6
CONTINUOUS
 10
55.7
 20
-14.0
 11
55.7
 21
-14.8
  0
LINE
  5
8BA
100
AcDbEntity
  8
DRAFT
100
AcDbLine
 62
7
  6
CONTINUOUS
 10
55.7
 20
-16.6
 11
55.7
 21
-17.4
  0
LINE
  5
8BB
100
AcDbEntity
  8
DRAFT
100
AcDbLine
 62
7
  6
CONTINUOUS
 10
55.7
 20
-19.2
 11
55.7
 21
-20.0
  0
LINE
  5
8BC
100
AcDbEntity
  8
DRAFT
100
AcDbLine
 62
7
  6
CONTINUOUS
 10
56.0357171432
 20
24.0214559154
 11
56.0357171432
 21
23.2785440846
  0
LINE
  5
8BD
100
AcDbEntity
  8
DRAFT
100
AcDbLine
 62
7
  6
CONTINUOUS
 10
56.0357171432
 20
-23.2785440846
 11
56.0357171432
 21
-24.0214559154
  0
LINE
  5
8BE
100
AcDbEntity
  8
RACCORDO
100
AcDbLine
 62
253
  6
CONTINUOUS
 10
56.0852377442
 20
-24.0049624612
 11
56.0852377442
 21
-23.2950375388
  0
LINE
  5
8BF
100
AcDbEntity
  8
RACCORDO
100
AcDbLine
 62
253
  6
CONTINUOUS
 10
56.0852377442
 20
23.2950375388
 11
56.0852377442
 21
24.0049624612
  0
LINE
  5
8C0
100
AcDbEntity
  8
RACCORDO
100
AcDbLine
 62
253
  6
CONTINUOUS
 10
56.3848266046
 20
-24.0
 11
56.3848266046
 21
-23.3
  0
LINE
  5
8C1
100
AcDbEntity
  8
RACCORDO
100
AcDbLine
 62
253
  6
CONTINUOUS
 10
56.3848266046
 20
23.3
 11
56.3848266046
 21
24.0
  0
LINE
  5
8C2
100
AcDbEntity
  8
DRAFT
100
AcDbLine
 62
7
  6
CONTINUOUS
 10
56.4069219382
 20
20.0
 11
56.4069219382
 21
19.1814885976
  0
LINE
  5
8C3
100
AcDbEntity
  8
DRAFT
100
AcDbLine
 62
7
  6
CONTINUOUS
 10
56.4069219382
 20
17.4185114024
 11
56.4069219382
 21
16.5814885976
  0
LINE
  5
8C4
100
AcDbEntity
  8
DRAFT
100
AcDbLine
 62
7
  6
CONTINUOUS
 10
56.4069219382
 20
14.8185114024
 11
56.4069219382
 21
14.0
  0
LINE
  5
8C5
100
AcDbEntity
  8
DRAFT
100
AcDbLine
 62
7
  6
CONTINUOUS
 10
56.4069219382
 20
-14.0
 11
56.4069219382
 21
-14.8185114024
  0
LINE
  5
8C6
100
AcDbEntity
  8
DRAFT
100
AcDbLine
 62
7
  6
CONTINUOUS
 10
56.4069219382
 20
-16.5814885976
 11
56.4069219382
 21
-17.4185114024
  0
LINE
  5
8C7
100
AcDbEntity
  8
DRAFT
100
AcDbLine
 62
7
  6
CONTINUOUS
 10
56.4069219382
 20
-19.1814885976
 11
56.4069219382
 21
-20.0
  0
LINE
  5
8C8
100
AcDbEntity
  8
DRAFT
100
AcDbLine
 62
7
  6
CONTINUOUS
 10
54.6306911463
 20
-0.4139341497
 11
54.6306911463
 21
0.4139341497
  0
LINE
  5
8C9
100
AcDbEntity
  8
DRAFT
100
AcDbLine
 62
7
  6
CONTINUOUS
 10
54.9967184929
 20
23.2471319768
 11
55.0247963686
 21
24.0520191431
  0
LINE
  5
8CA
100
AcDbEntity
  8
RACCORDO
100
AcDbLine
 62
7
  6
CONTINUOUS
 10
35.3688795732
 20
-42.9311204268
 11
35.3
 21
-43.0
  0
LINE
  5
8CB
100
AcDbEntity
  8
RACCORDO
100
AcDbLine
 62
7
  6
CONTINUOUS
 10
35.3688795732
 20
42.9311204268
 11
35.3
 21
43.0
  0
LINE
  5
8CC
100
AcDbEntity
  8
DRAFT
100
AcDbLine
 62
7
  6
CONTINUOUS
 10
58.9650898701
 20
-3.5
 11
59.0
 21
-3.8526539614
  0
LWPOLYLINE
  5
8CD
100
AcDbEntity
  8
RACCORDO
100
AcDbPolyline
 62
7
  6
CONTINUOUS
 90
22
 70
0
 10
59.5000000005
 20
43.0970753694
 10
59.498661008
 20
43.1315384949
 10
59.4953589788
 20
43.164491917
 10
59.4900939127
 20
43.1959356359
 10
59.4828089459
 20
43.2258170252
 10
59.4735609424
 20
43.2541887113
 10
59.4625204936
 20
43.2812085727
 10
59.4497620766
 20
43.3069186382
 10
59.4352112144
 20
43.331276879
 10
59.4188150669
 20
43.3543150876
 10
59.400522926
 20
43.3761528173
 10
59.3803854998
 20
43.3966705149
 10
59.3585020731
 20
43.4155413124
 10
59.334759285
 20
43.4327738312
 10
59.3092704962
 20
43.44835945
 10
59.2824750735
 20
43.4619454366
 10
59.2544478695
 20
43.4734424954
 10
59.2251140315
 20
43.4829399221
 10
59.1946883679
 20
43.4903528717
 10
59.1632424816
 20
43.4956530628
 10
59.1307047698
 20
43.4988687769
 10
59.0970752324
 20
43.5000000141
  0
LINE
  5
8CE
100
AcDbEntity
  8
RACCORDO
100
AcDbLine
 62
253
  6
CONTINUOUS
 10
58.7086113408
 20
-33.9931371885
 11
58.7311508878
 21
-42.7655612578
  0
LINE
  5
8CF
100
AcDbEntity
  8
RACCORDO
100
AcDbLine
 62
253
  6
CONTINUOUS
 10
58.9085890922
 20
-33.9735730406
 11
58.9311204268
 21
-42.7311508878
  0
LINE
  5
8D0
100
AcDbEntity
  8
RACCORDO
100
AcDbLine
 62
253
  6
CONTINUOUS
 10
58.693170074
 20
-24.1102842918
 11
58.7086113408
 21
-33.9931371885
  0
LINE
  5
8D1
100
AcDbEntity
  8
RACCORDO
100
AcDbLine
 62
253
  6
CONTINUOUS
 10
58.8931484469
 20
-24.1068515531
 11
58.9085890922
 21
-33.9735730406
  0
LINE
  5
8D2
100
AcDbEntity
  8
RACCORDO
100
AcDbLine
 62
253
  6
CONTINUOUS
 10
58.6817807462
 20
-0.4716797974
 11
58.6855905353
 21
-14.0000000056
  0
LINE
  5
8D3
100
AcDbEntity
  8
RACCORDO
100
AcDbLine
 62
253
  6
CONTINUOUS
 10
58.7311508878
 20
-42.7655612578
 11
58.7311508878
 21
-42.9311204268
  0
LINE
  5
8D4
100
AcDbEntity
  8
RACCORDO
100
AcDbLine
 62
253
  6
CONTINUOUS
 10
58.8817502263
 20
-0.4682497737
 11
58.8855634798
 21
-14.0
  0
LINE
  5
8D5
100
AcDbEntity
  8
DRAFT
100
AcDbLine
 62
7
  6
CONTINUOUS
 10
58.9650898701
 20
3.5
 11
58.9650898701
 21
0.3849101299
  0
LINE
  5
8D6
100
AcDbEntity
  8
DRAFT
100
AcDbLine
 62
7
  6
CONTINUOUS
 10
58.9650898701
 20
-0.3849101299
 11
58.9650898701
 21
-3.5
  0
LINE
  5
8D7
100
AcDbEntity
  8
RACCORDO
100
AcDbLine
 62
7
  6
CONTINUOUS
 10
59.0
 20
-42.800030461
 11
59.0
 21
-24.0
  0
LINE
  5
8D8
100
AcDbEntity
  8
DRAFT
100
AcDbLine
 62
7
  6
CONTINUOUS
 10
59.0
 20
-23.3
 11
59.0
 21
-20.0
  0
LINE
  5
8D9
100
AcDbEntity
  8
DRAFT
100
AcDbLine
 62
7
  6
CONTINUOUS
 10
59.0
 20
-19.1135864588
 11
59.0
 21
-17.4864135412
  0
LINE
  5
8DA
100
AcDbEntity
  8
DRAFT
100
AcDbLine
 62
7
  6
CONTINUOUS
 10
59.0
 20
-16.5135864588
 11
59.0
 21
-14.8864135412
  0
LINE
  5
8DB
100
AcDbEntity
  8
DRAFT
100
AcDbLine
 62
7
  6
CONTINUOUS
 10
59.0
 20
-14.0
 11
59.0
 21
-3.8526539614
  0
LINE
  5
8DC
100
AcDbEntity
  8
DRAFT
100
AcDbLine
 62
7
  6
CONTINUOUS
 10
59.0
 20
3.8526539614
 11
59.0
 21
14.0
  0
LINE
  5
8DD
100
AcDbEntity
  8
DRAFT
100
AcDbLine
 62
7
  6
CONTINUOUS
 10
59.0
 20
14.8864135412
 11
59.0
 21
16.5135864588
  0
LINE
  5
8DE
100
AcDbEntity
  8
DRAFT
100
AcDbLine
 62
7
  6
CONTINUOUS
 10
59.0
 20
17.4864135412
 11
59.0
 21
19.1135864588
  0
LINE
  5
8DF
100
AcDbEntity
  8
DRAFT
100
AcDbLine
 62
7
  6
CONTINUOUS
 10
59.0
 20
20.0
 11
59.0
 21
23.3
  0
LINE
  5
8E0
100
AcDbEntity
  8
RACCORDO
100
AcDbLine
 62
7
  6
CONTINUOUS
 10
59.0
 20
24.0
 11
59.0
 21
42.800030461
  0
LINE
  5
8E1
100
AcDbEntity
  8
DRAFT
100
AcDbLine
 62
7
  6
CONTINUOUS
 10
59.5000000138
 20
-43.0970752412
 11
59.5
 21
-3.8526539614
  0
LINE
  5
8E2
100
AcDbEntity
  8
DRAFT
100
AcDbLine
 62
7
  6
CONTINUOUS
 10
59.5
 20
3.8526539614
 11
59.5000000005
 21
43.0970753694
  0
LINE
  5
8E3
100
AcDbEntity
  8
DRAFT
100
AcDbLine
 62
7
  6
CONTINUOUS
 10
60.395240128
 20
-3.5
 11
60.395240128
 21
3.5
  0
LINE
  5
8E4
100
AcDbEntity
  8
RACCORDO
100
AcDbLine
 62
7
  6
CONTINUOUS
 10
60.4999999997
 20
-44.0006852356
 11
60.4999999992
 21
44.0006852399
  0
LINE
  5
8E5
100
AcDbEntity
  8
RACCORDO
100
AcDbLine
 62
7
  6
CONTINUOUS
 10
61.0
 20
-44.0013704652
 11
61.0
 21
44.0013704652
  0
LINE
  5
8E6
100
AcDbEntity
  8
RACCORDO
100
AcDbLine
 62
253
  6
CONTINUOUS
 10
58.6855905353
 20
14.0
 11
58.6817807462
 21
0.471679798
  0
LINE
  5
8E7
100
AcDbEntity
  8
RACCORDO
100
AcDbLine
 62
253
  6
CONTINUOUS
 10
58.8855634798
 20
14.0
 11
58.8817502263
 21
0.4682497737
  0
LINE
  5
8E8
100
AcDbEntity
  8
RACCORDO
100
AcDbLine
 62
253
  6
CONTINUOUS
 10
58.7054372701
 20
32.416527704
 11
58.693170074
 21
24.110284292
  0
LINE
  5
8E9
100
AcDbEntity
  8
RACCORDO
100
AcDbLine
 62
253
  6
CONTINUOUS
 10
58.9054152416
 20
32.3990538617
 11
58.8931484469
 21
24.1068515531
  0
LINE
  5
8EA
100
AcDbEntity
  8
RACCORDO
100
AcDbLine
 62
253
  6
CONTINUOUS
 10
58.7311508878
 20
42.9311204268
 11
58.7054372701
 21
32.416527704
  0
LWPOLYLINE
  5
8EB
100
AcDbEntity
  8
RACCORDO
100
AcDbPolyline
 62
253
  6
CONTINUOUS
 90
3
 70
0
 10
58.9311204268
 20
42.7311508878
 10
58.9248612722
 20
40.5789796875
 10
58.9054152416
 20
32.3990538617
  0
LWPOLYLINE
  5
8EC
100
AcDbEntity
  8
RACCORDO
100
AcDbPolyline
 62
7
  6
CONTINUOUS
 90
22
 70
0
 10
60.4999999997
 20
-44.0006852356
 10
60.4985466419
 20
-44.0382541042
 10
60.4944027018
 20
-44.0751974272
 10
60.4875681794
 20
-44.1115152048
 10
60.4779917544
 20
-44.1473779257
 10
60.4657247471
 20
-44.1826151011
 10
60.4509211186
 20
-44.2167152646
 10
60.4335390823
 20
-44.2496911767
 10
60.4136204248
 20
-44.2815300769
 10
60.391444468
 20
-44.3116822165
 10
60.3669103008
 20
-44.3401563804
 10
60.3401188343
 20
-44.3669437838
 10
60.3116521236
 20
-44.391468323
 10
60.2815325118
 20
-44.4136255641
 10
60.2497376559
 20
-44.4335199411
 10
60.2167825813
 20
-44.450888653
 10
60.1826549766
 20
-44.4657010014
 10
60.1473671532
 20
-44.4779876848
 10
60.1114710716
 20
-44.4875779969
 10
60.0751507185
 20
-44.4944150357
 10
60.0382221072
 20
-44.4985557032
 10
60.0006852376
 20
-44.4999999994
  0
LWPOLYLINE
  5
8ED
100
AcDbEntity
  8
RACCORDO
100
AcDbPolyline
 62
253
  6
CONTINUOUS
 90
19
 70
0
 10
58.9311204268
 20
-42.7311508878
 10
58.9303544816
 20
-42.7485758759
 10
58.928073086
 20
-42.7658683142
 10
58.9242935926
 20
-42.7828966493
 10
58.9190447543
 20
-42.7995313282
 10
58.9123664976
 20
-42.8156458094
 10
58.9043096114
 20
-42.8311175228
 10
58.8949353694
 20
-42.8458287772
 10
58.8843150874
 20
-42.8596676315
 10
58.8725295757
 20
-42.8725287753
 10
58.8596685022
 20
-42.8843143568
 10
58.8458297016
 20
-42.8949347221
 10
58.8311184525
 20
-42.9043090745
 10
58.8156466698
 20
-42.9123660961
 10
58.7995320599
 20
-42.9190444878
 10
58.782897224
 20
-42.9242934385
 10
58.7658687176
 20
-42.9280730147
 10
58.7485760863
 20
-42.9303544632
 10
58.7311508878
 20
-42.9311204268
  0
LINE
  5
8EE
100
AcDbEntity
  8
DRAFT
100
AcDbLine
 62
7
  6
CONTINUOUS
 10
58.9650898701
 20
3.5
 11
59.0
 21
3.8526539614
  0
LINE
  5
8EF
100
AcDbEntity
  8
RACCORDO
100
AcDbLine
 62
7
  6
CONTINUOUS
 10
59.0
 20
-24.0
 11
58.8931484469
 21
-24.1068515531
  0
LINE
  5
8F0
100
AcDbEntity
  8
RACCORDO
100
AcDbLine
 62
7
  6
CONTINUOUS
 10
59.0
 20
24.0
 11
58.8931484469
 21
24.1068515531
  0
ARC
  5
8F1
100
AcDbEntity
  8
0
100
AcDbCircle
 62
7
  6
CONTINUOUS
 10
18.0
 20
-33.5
 40
2.6237424326
100
AcDbArc
 50
292.0885393584
 51
273.4297246723
  0
ARC
  5
8F2
100
AcDbEntity
  8
0
100
AcDbCircle
 62
7
  6
CONTINUOUS
 10
30.417556
 20
-33.5
 40
2.5499986575
100
AcDbArc
 50
87.752529198
 51
272.247470802
  0
ARC
  5
8F3
100
AcDbEntity
  8
0
100
AcDbCircle
 62
7
  6
CONTINUOUS
 10
26.032446
 20
-33.5
 40
2.5499985399
100
AcDbArc
 50
87.7525290943
 51
272.2474709057
  0
ARC
  5
8F4
100
AcDbEntity
  8
0
100
AcDbCircle
 62
7
  6
CONTINUOUS
 10
17.920643
 20
-38.446093
 40
2.3390187052
100
AcDbArc
 50
47.2312712626
 51
84.2012841963
  0
ARC
  5
8F5
100
AcDbEntity
  8
0
100
AcDbCircle
 62
7
  6
CONTINUOUS
 10
18.104722
 20
-38.067224
 40
2.3109495123
100
AcDbArc
 50
45.4348886633
 51
67.5658613447
  0
CIRCLE
  5
8F6
100
AcDbEntity
  8
0
100
AcDbCircle
 62
7
  6
CONTINUOUS
 10
18.0
 20
-33.5
 40
2.20376
  0
ARC
  5
8F7
100
AcDbEntity
  8
0
100
AcDbCircle
 62
7
  6
CONTINUOUS
 10
18.0
 20
-33.5
 40
1.9709567246
100
AcDbArc
 50
299.3041457634
 51
44.9957848293
  0
ARC
  5
8F8
100
AcDbEntity
  8
0
100
AcDbCircle
 62
7
  6
CONTINUOUS
 10
18.0
 20
-33.5
 40
1.9709563643
100
AcDbArc
 50
134.9002846268
 51
240.6958542366
  0
ARC
  5
8F9
100
AcDbEntity
  8
0
100
AcDbCircle
 62
7
  6
CONTINUOUS
 10
30.417556
 20
-33.5
 40
1.7999999246
100
AcDbArc
 50
86.8152613297
 51
167.9753003079
  0
ARC
  5
8FA
100
AcDbEntity
  8
0
100
AcDbCircle
 62
7
  6
CONTINUOUS
 10
26.032446
 20
-33.5
 40
1.7999999246
100
AcDbArc
 50
90.0911434008
 51
273.1847386703
  0
ARC
  5
8FB
100
AcDbEntity
  8
0
100
AcDbCircle
 62
7
  6
CONTINUOUS
 10
30.417556
 20
-33.5
 40
1.7999968808
100
AcDbArc
 50
192.0247203293
 51
273.1847440612
  0
ARC
  5
8FC
100
AcDbEntity
  8
0
100
AcDbCircle
 62
7
  6
CONTINUOUS
 10
18.0
 20
-33.5
 40
1.5790921275
100
AcDbArc
 50
148.0267086216
 51
240.6958772397
  0
ARC
  5
8FD
100
AcDbEntity
  8
0
100
AcDbCircle
 62
7
  6
CONTINUOUS
 10
18.0
 20
-33.5
 40
1.5790919977
100
AcDbArc
 50
299.3041227603
 51
31.9732907039
  0
ELLIPSE
  5
8FE
100
AcDbEntity
  8
RACCORDO
100
AcDbEllipse
 62
7
  6
CONTINUOUS
 10
59.998627654
 20
-43.998627654
 30
0.0
 11
-0.7090462434
 21
0.7090462434
 31
0.0
 40
0.9972646886
 41
2.3575640181
 42
3.9256212891
  0
ELLIPSE
  5
8FF
100
AcDbEntity
  8
RACCORDO
100
AcDbEllipse
 62
7
  6
CONTINUOUS
 10
-59.998627654
 20
-43.998627654
 30
0.0
 11
0.7090462434
 21
0.7090462434
 31
0.0
 40
0.9972646886
 41
2.3575640181
 42
3.9256212891
  0
ELLIPSE
  5
900
100
AcDbEntity
  8
RACCORDO
100
AcDbEllipse
 62
7
  6
CONTINUOUS
 10
-59.998627654
 20
43.998627654
 30
0.0
 11
0.7090462434
 21
-0.7090462434
 31
0.0
 40
0.9972646886
 41
2.3575640181
 42
3.9256212891
  0
ELLIPSE
  5
901
100
AcDbEntity
  8
RACCORDO
100
AcDbEllipse
 62
7
  6
CONTINUOUS
 10
59.998627654
 20
43.998627654
 30
0.0
 11
-0.7090462434
 21
-0.7090462434
 31
0.0
 40
0.9972646886
 41
2.3575640181
 42
3.9256212891
  0
ELLIPSE
  5
902
100
AcDbEntity
  8
0
100
AcDbEllipse
 62
7
  6
CONTINUOUS
 10
-33.0489021232
 20
-21.6989021232
 30
0.0
 11
-0.5672369947
 21
-0.5672369947
 31
0.0
 40
0.9972646886
 41
-0.7840286355
 42
0.7840286355
  0
ELLIPSE
  5
903
100
AcDbEntity
  8
0
100
AcDbEllipse
 62
7
  6
CONTINUOUS
 10
-33.0489021232
 20
21.6989021232
 30
0.0
 11
-0.5672369947
 21
0.5672369947
 31
0.0
 40
0.9972646886
 41
-0.7840286355
 42
0.7840286355
  0
ELLIPSE
  5
904
100
AcDbEntity
  8
0
100
AcDbEllipse
 62
7
  6
CONTINUOUS
 10
33.0489021232
 20
21.6989021232
 30
0.0
 11
0.5672369947
 21
0.5672369947
 31
0.0
 40
0.9972646886
 41
-0.7840286355
 42
0.7840286355
  0
ELLIPSE
  5
905
100
AcDbEntity
  8
0
100
AcDbEllipse
 62
7
  6
CONTINUOUS
 10
33.0489021232
 20
-21.6989021232
 30
0.0
 11
0.5672369947
 21
-0.5672369947
 31
0.0
 40
0.9972646886
 41
-0.7840286355
 42
0.7840286355
  0
ELLIPSE
  5
906
100
AcDbEntity
  8
RACCORDO
100
AcDbEllipse
 62
7
  6
CONTINUOUS
 10
-32.5207924873
 20
14.2336437913
 30
0.0
 11
-0.0
 21
165.8332498099
 31
0.0
 40
0.0174550649
 41
1.397884124
 42
1.5112033998
  0
ELLIPSE
  5
907
100
AcDbEntity
  8
DRAFT
100
AcDbEllipse
 62
7
  6
CONTINUOUS
 10
-32.5207924873
 20
-14.2336437913
 30
0.0
 11
-0.0
 21
165.8332498099
 31
0.0
 40
0.0174550649
 41
-4.6619949758
 42
-4.6583617254
  0
ELLIPSE
  5
908
100
AcDbEntity
  8
DRAFT
100
AcDbEllipse
 62
7
  6
CONTINUOUS
 10
-61.7792075127
 20
-14.2336437913
 30
0.0
 11
-0.0
 21
165.8332498099
 31
0.0
 40
0.0174550649
 41
-1.6248235818
 42
-1.6211903314
  0
ELLIPSE
  5
909
100
AcDbEntity
  8
DRAFT
100
AcDbEllipse
 62
7
  6
CONTINUOUS
 10
32.5207924873
 20
-14.2336437913
 30
0.0
 11
-0.0
 21
165.8332498099
 31
0.0
 40
0.0174550649
 41
-1.6248235818
 42
-1.6211903314
  0
ELLIPSE
  5
90A
100
AcDbEntity
  8
DRAFT
100
AcDbEllipse
 62
7
  6
CONTINUOUS
 10
61.7792075127
 20
-14.2336437913
 30
0.0
 11
-0.0
 21
165.8332498099
 31
0.0
 40
0.0174550649
 41
-4.6619949758
 42
-4.6583617254
  0
ELLIPSE
  5
90B
100
AcDbEntity
  8
0
100
AcDbEllipse
 62
7
  6
CONTINUOUS
 10
15.8722712309
 20
-14.2336437913
 30
0.0
 11
-0.0
 21
165.8332498099
 31
0.0
 40
0.0349207695
 41
-1.6472298079
 42
-1.629883655
  0
ELLIPSE
  5
90C
100
AcDbEntity
  8
0
100
AcDbEllipse
 62
7
  6
CONTINUOUS
 10
29.1277287691
 20
-14.2336437913
 30
0.0
 11
-0.0
 21
165.8332498099
 31
0.0
 40
0.0349207695
 41
-4.6533016522
 42
-4.6359554993
  0
ELLIPSE
  5
90D
100
AcDbEntity
  8
0
100
AcDbEllipse
 62
7
  6
CONTINUOUS
 10
-6.6277287691
 20
-14.2336437913
 30
0.0
 11
-0.0
 21
165.8332498099
 31
0.0
 40
0.0349207695
 41
-1.6369459859
 42
-1.629883655
  0
ELLIPSE
  5
90E
100
AcDbEntity
  8
0
100
AcDbEllipse
 62
7
  6
CONTINUOUS
 10
6.6277287691
 20
-14.2336437913
 30
0.0
 11
-0.0
 21
165.8332498099
 31
0.0
 40
0.0349207695
 41
-4.6533016522
 42
-4.6462393212
  0
ELLIPSE
  5
90F
100
AcDbEntity
  8
0
100
AcDbEllipse
 62
7
  6
CONTINUOUS
 10
-15.8722712309
 20
-14.2336437913
 30
0.0
 11
-0.0
 21
165.8332498099
 31
0.0
 40
0.0349207695
 41
-4.6533016522
 42
-4.6359554993
  0
ELLIPSE
  5
910
100
AcDbEntity
  8
0
100
AcDbEllipse
 62
7
  6
CONTINUOUS
 10
-29.1277287691
 20
-14.2336437913
 30
0.0
 11
-0.0
 21
165.8332498099
 31
0.0
 40
0.0349207695
 41
-1.6472298079
 42
-1.629883655
  0
ELLIPSE
  5
911
100
AcDbEntity
  8
RACCORDO
100
AcDbEllipse
 62
7
  6
CONTINUOUS
 10
-32.5207924873
 20
-14.2336437913
 30
0.0
 11
-0.0
 21
165.8332498099
 31
0.0
 40
0.0174550649
 41
-4.6527960534
 42
-4.5394767776
  0
ELLIPSE
  5
912
100
AcDbEntity
  8
RACCORDO
100
AcDbEllipse
 62
7
  6
CONTINUOUS
 10
32.5207924873
 20
-14.2336437913
 30
0.0
 11
-0.0
 21
165.8332498099
 31
0.0
 40
0.0174550649
 41
-1.7437085295
 42
-1.6303892538
  0
ELLIPSE
  5
913
100
AcDbEntity
  8
RACCORDO
100
AcDbEllipse
 62
7
  6
CONTINUOUS
 10
37.3792075127
 20
-14.2336437913
 30
0.0
 11
-0.0
 21
165.8332498099
 31
0.0
 40
0.0174550649
 41
-4.6533016522
 42
-4.5394767776
  0
ELLIPSE
  5
914
100
AcDbEntity
  8
RACCORDO
100
AcDbEllipse
 62
7
  6
CONTINUOUS
 10
-13.6792075127
 20
-14.2336437913
 30
0.0
 11
-0.0
 21
165.8332498099
 31
0.0
 40
0.0174550649
 41
-1.7437085295
 42
-1.629883655
  0
ELLIPSE
  5
915
100
AcDbEntity
  8
RACCORDO
100
AcDbEllipse
 62
7
  6
CONTINUOUS
 10
-8.8207924873
 20
-14.2336437913
 30
0.0
 11
-0.0
 21
165.8332498099
 31
0.0
 40
0.0174550649
 41
-4.6533016522
 42
-4.5394767776
  0
ELLIPSE
  5
916
100
AcDbEntity
  8
RACCORDO
100
AcDbEllipse
 62
7
  6
CONTINUOUS
 10
-37.3792075127
 20
-14.2336437913
 30
0.0
 11
-0.0
 21
165.8332498099
 31
0.0
 40
0.0174550649
 41
-1.7437085295
 42
-1.629883655
  0
ELLIPSE
  5
917
100
AcDbEntity
  8
0
100
AcDbEllipse
 62
7
  6
CONTINUOUS
 10
-34.8837081476
 20
18.5171556126
 30
0.0
 11
-0.2237225876
 21
0.4475815441
 31
0.0
 40
0.9992388003
 41
-0.4632212593
 42
1.1069659872
  0
ELLIPSE
  5
918
100
AcDbEntity
  8
0
100
AcDbEllipse
 62
7
  6
CONTINUOUS
 10
-34.8749806152
 20
14.5003047721
 30
0.0
 11
0.2237225876
 21
0.4475815441
 31
0.0
 40
0.9992388003
 41
-4.2485586408
 42
-2.6783713943
  0
ELLIPSE
  5
919
100
AcDbEntity
  8
0
100
AcDbEllipse
 62
7
  6
CONTINUOUS
 10
34.8837081476
 20
-18.5171556126
 30
0.0
 11
-0.2237225876
 21
0.4475815441
 31
0.0
 40
0.9992388003
 41
-3.6048139129
 42
-2.0346266664
  0
ELLIPSE
  5
91A
100
AcDbEntity
  8
0
100
AcDbEllipse
 62
7
  6
CONTINUOUS
 10
34.8749806152
 20
-14.5003047721
 30
0.0
 11
0.2237225876
 21
0.4475815441
 31
0.0
 40
0.9992388003
 41
-1.1069659872
 42
0.4632212593
  0
ELLIPSE
  5
91B
100
AcDbEntity
  8
RACCORDO
100
AcDbEllipse
 62
7
  6
CONTINUOUS
 10
-37.3792075127
 20
14.2336437913
 30
0.0
 11
-0.0
 21
165.8332498099
 31
0.0
 40
0.0174550649
 41
-1.5117089986
 42
-1.397884124
  0
ELLIPSE
  5
91C
100
AcDbEntity
  8
0
100
AcDbEllipse
 62
7
  6
CONTINUOUS
 10
-21.1966992955
 20
27.4533007045
 30
0.0
 11
0.2870477648
 21
0.1248082944
 31
0.0
 40
0.9518332917
 41
-0.3923945879
 42
1.1771837637
  0
ELLIPSE
  5
91D
100
AcDbEntity
  8
0
100
AcDbEllipse
 62
7
  6
CONTINUOUS
 10
-23.8033007045
 20
27.4533007045
 30
0.0
 11
0.2870477648
 21
-0.1248082944
 31
0.0
 40
0.9518332917
 41
1.9644088899
 42
3.5339872415
  0
ELLIPSE
  5
91E
100
AcDbEntity
  8
0
100
AcDbEllipse
 62
7
  6
CONTINUOUS
 10
-1.3033007045
 20
25.7533007045
 30
0.0
 11
0.2870477648
 21
-0.1248082944
 31
0.0
 40
0.9518332917
 41
1.9644088899
 42
3.5339872415
  0
ELLIPSE
  5
91F
100
AcDbEntity
  8
0
100
AcDbEllipse
 62
7
  6
CONTINUOUS
 10
1.3033007045
 20
25.7533007045
 30
0.0
 11
0.2870477648
 21
0.1248082944
 31
0.0
 40
0.9518332917
 41
-0.3923945879
 42
1.1771837637
  0
ELLIPSE
  5
920
100
AcDbEntity
  8
0
100
AcDbEllipse
 62
7
  6
CONTINUOUS
 10
23.8033007045
 20
27.4533007045
 30
0.0
 11
0.2870477648
 21
0.1248082944
 31
0.0
 40
0.9518332917
 41
-0.3923945879
 42
1.1771837637
  0
ELLIPSE
  5
921
100
AcDbEntity
  8
0
100
AcDbEllipse
 62
7
  6
CONTINUOUS
 10
21.1966992955
 20
27.4533007045
 30
0.0
 11
0.2870477648
 21
-0.1248082944
 31
0.0
 40
0.9518332917
 41
1.9644088899
 42
3.5339872415
  0
ELLIPSE
  5
922
100
AcDbEntity
  8
0
100
AcDbEllipse
 62
7
  6
CONTINUOUS
 10
23.8033007045
 20
-27.4533007045
 30
0.0
 11
0.2870477648
 21
-0.1248082944
 31
0.0
 40
0.9518332917
 41
-1.1771837637
 42
0.3923945879
  0
ELLIPSE
  5
923
100
AcDbEntity
  8
0
100
AcDbEllipse
 62
7
  6
CONTINUOUS
 10
21.1966992955
 20
-27.4533007045
 30
0.0
 11
0.2870477648
 21
0.1248082944
 31
0.0
 40
0.9518332917
 41
2.7491980657
 42
4.3187764173
  0
ELLIPSE
  5
924
100
AcDbEntity
  8
0
100
AcDbEllipse
 62
7
  6
CONTINUOUS
 10
1.3033007045
 20
-25.7533007045
 30
0.0
 11
0.2870477648
 21
-0.1248082944
 31
0.0
 40
0.9518332917
 41
-1.1771837637
 42
0.3923945879
  0
ELLIPSE
  5
925
100
AcDbEntity
  8
0
100
AcDbEllipse
 62
7
  6
CONTINUOUS
 10
-1.3033007045
 20
-25.7533007045
 30
0.0
 11
0.2870477648
 21
0.1248082944
 31
0.0
 40
0.9518332917
 41
2.7491980657
 42
4.3187764173
  0
ELLIPSE
  5
926
100
AcDbEntity
  8
0
100
AcDbEllipse
 62
7
  6
CONTINUOUS
 10
-21.1966992955
 20
-27.4533007045
 30
0.0
 11
0.2870477648
 21
-0.1248082944
 31
0.0
 40
0.9518332917
 41
-1.1771837637
 42
0.3923945879
  0
ELLIPSE
  5
927
100
AcDbEntity
  8
0
100
AcDbEllipse
 62
7
  6
CONTINUOUS
 10
-23.8033007045
 20
-27.4533007045
 30
0.0
 11
0.2870477648
 21
0.1248082944
 31
0.0
 40
0.9518332917
 41
2.7491980657
 42
4.3187764173
  0
ELLIPSE
  5
928
100
AcDbEntity
  8
RACCORDO
100
AcDbEllipse
 62
7
  6
CONTINUOUS
 10
-58.7999695344
 20
42.7999695344
 30
0.0
 11
0.1414644378
 21
-0.1414644378
 31
0.0
 40
0.9996954599
 41
2.3563467835
 42
3.9268385238
  0
ELLIPSE
  5
929
100
AcDbEntity
  8
RACCORDO
100
AcDbEllipse
 62
7
  6
CONTINUOUS
 10
-58.7999695344
 20
-42.7999695344
 30
0.0
 11
0.1414644378
 21
0.1414644378
 31
0.0
 40
0.9996954599
 41
2.3563467835
 42
3.9268385238
  0
ELLIPSE
  5
92A
100
AcDbEntity
  8
RACCORDO
100
AcDbEllipse
 62
7
  6
CONTINUOUS
 10
58.7999695344
 20
-42.7999695344
 30
0.0
 11
0.1414644378
 21
-0.1414644378
 31
0.0
 40
0.9996954599
 41
-0.7852458702
 42
0.7852458701
  0
ELLIPSE
  5
92B
100
AcDbEntity
  8
RACCORDO
100
AcDbEllipse
 62
7
  6
CONTINUOUS
 10
58.7999695344
 20
42.7999695344
 30
0.0
 11
0.1414644378
 21
0.1414644378
 31
0.0
 40
0.9996954599
 41
-0.7852458702
 42
0.7852458701
  0
ELLIPSE
  5
92C
100
AcDbEntity
  8
0
100
AcDbEllipse
 62
7
  6
CONTINUOUS
 10
0.6044047417
 20
26.554587605
 30
0.0
 11
0.0
 21
0.3
 31
0.0
 40
0.0349207695
 41
-3.1066860686
 42
-3.0331831544
  0
ELLIPSE
  5
92D
100
AcDbEntity
  8
0
100
AcDbEllipse
 62
7
  6
CONTINUOUS
 10
-0.6044047417
 20
26.554587605
 30
0.0
 11
0.0
 21
0.3
 31
0.0
 40
0.0349207695
 41
-3.2500021528
 42
-3.1764992386
  0
ELLIPSE
  5
92E
100
AcDbEntity
  8
0
100
AcDbEllipse
 62
7
  6
CONTINUOUS
 10
-0.6044047417
 20
-26.554587605
 30
0.0
 11
-0.0
 21
0.3
 31
0.0
 40
0.0349207695
 41
0.034906585
 42
0.1084094992
  0
ELLIPSE
  5
92F
100
AcDbEntity
  8
0
100
AcDbEllipse
 62
7
  6
CONTINUOUS
 10
0.6044047417
 20
-26.554587605
 30
0.0
 11
0.0
 21
0.3
 31
0.0
 40
0.0349207695
 41
-0.1084094992
 42
-0.034906585
  0
ELLIPSE
  5
930
100
AcDbEntity
  8
0
100
AcDbEllipse
 62
7
  6
CONTINUOUS
 10
-21.9003198273
 20
28.249863036
 30
0.0
 11
-0.0
 21
0.3
 31
0.0
 40
0.0349207695
 41
-3.1066860686
 42
-3.0229371447
  0
ELLIPSE
  5
931
100
AcDbEntity
  8
0
100
AcDbEllipse
 62
7
  6
CONTINUOUS
 10
-23.0996801727
 20
28.249863036
 30
0.0
 11
-0.0
 21
0.3
 31
0.0
 40
0.0349207695
 41
-3.2602481624
 42
-3.1764992386
  0
ELLIPSE
  5
932
100
AcDbEntity
  8
RACCORDO
100
AcDbEllipse
 62
7
  6
CONTINUOUS
 10
-8.8207924873
 20
14.2336437913
 30
0.0
 11
-0.0
 21
165.8332498099
 31
0.0
 40
0.0174550649
 41
1.397884124
 42
1.5117089986
  0
ELLIPSE
  5
933
100
AcDbEntity
  8
RACCORDO
100
AcDbEllipse
 62
7
  6
CONTINUOUS
 10
-13.6792075127
 20
14.2336437913
 30
0.0
 11
-0.0
 21
165.8332498099
 31
0.0
 40
0.0174550649
 41
-1.5117089986
 42
-1.397884124
  0
ELLIPSE
  5
934
100
AcDbEntity
  8
DRAFT
100
AcDbEllipse
 62
7
  6
CONTINUOUS
 10
-55.3198565139
 20
-3.3110691991
 30
0.0
 11
5.1872524353
 21
0.0
 31
0.0
 40
0.1763269807
 41
-2.9335346414
 42
-2.5079046503
  0
ELLIPSE
  5
935
100
AcDbEntity
  8
RACCORDO
100
AcDbEllipse
 62
7
  6
CONTINUOUS
 10
37.3792075127
 20
14.2336437913
 30
0.0
 11
-0.0
 21
165.8332498099
 31
0.0
 40
0.0174550649
 41
1.397884124
 42
1.5117089986
  0
ELLIPSE
  5
936
100
AcDbEntity
  8
DRAFT
100
AcDbEllipse
 62
7
  6
CONTINUOUS
 10
-55.3198565139
 20
3.3110691991
 30
0.0
 11
5.1872524353
 21
0.0
 31
0.0
 40
0.1763269807
 41
2.5079046503
 42
2.9335346414
  0
ELLIPSE
  5
937
100
AcDbEntity
  8
0
100
AcDbEllipse
 62
7
  6
CONTINUOUS
 10
23.0996801727
 20
28.249863036
 30
0.0
 11
0.0
 21
0.3
 31
0.0
 40
0.0349207695
 41
-3.1066860686
 42
-3.0229371447
  0
ELLIPSE
  5
938
100
AcDbEntity
  8
0
100
AcDbEllipse
 62
7
  6
CONTINUOUS
 10
21.9003198273
 20
28.249863036
 30
0.0
 11
0.0
 21
0.3
 31
0.0
 40
0.0349207695
 41
-3.2602481624
 42
-3.1764992386
  0
ELLIPSE
  5
939
100
AcDbEntity
  8
DRAFT
100
AcDbEllipse
 62
7
  6
CONTINUOUS
 10
-66.7051669842
 20
0.0
 30
0.0
 11
-0.0
 21
448.4
 31
0.0
 40
0.0174550649
 41
-1.5261784914
 42
-1.5204023222
  0
ELLIPSE
  5
93A
100
AcDbEntity
  8
0
100
AcDbEllipse
 62
7
  6
CONTINUOUS
 10
-23.0996801727
 20
-28.249863036
 30
0.0
 11
0.0
 21
0.3
 31
0.0
 40
0.0349207695
 41
0.034906585
 42
0.1186555088
  0
ELLIPSE
  5
93B
100
AcDbEntity
  8
DRAFT
100
AcDbEllipse
 62
7
  6
CONTINUOUS
 10
-27.5948330158
 20
0.0
 30
0.0
 11
-0.0
 21
448.4
 31
0.0
 40
0.0174550649
 41
1.5204023222
 42
1.5697444091
  0
ELLIPSE
  5
93C
100
AcDbEntity
  8
0
100
AcDbEllipse
 62
7
  6
CONTINUOUS
 10
-21.9003198273
 20
-28.249863036
 30
0.0
 11
-0.0
 21
0.3
 31
0.0
 40
0.0349207695
 41
-0.1186555088
 42
-0.034906585
  0
ELLIPSE
  5
93D
100
AcDbEntity
  8
DRAFT
100
AcDbEllipse
 62
7
  6
CONTINUOUS
 10
-27.5948330158
 20
-0.0
 30
0.0
 11
-0.0
 21
448.4
 31
0.0
 40
0.0174550649
 41
-4.7113370627
 42
-4.6619949758
  0
ELLIPSE
  5
93E
100
AcDbEntity
  8
DRAFT
100
AcDbEllipse
 62
7
  6
CONTINUOUS
 10
-66.7051669842
 20
-0.0
 30
0.0
 11
-0.0
 21
448.4
 31
0.0
 40
0.0174550649
 41
-1.6211903314
 42
-1.6154141622
  0
ELLIPSE
  5
93F
100
AcDbEntity
  8
0
100
AcDbEllipse
 62
7
  6
CONTINUOUS
 10
21.9003198273
 20
-28.249863036
 30
0.0
 11
-0.0
 21
0.3
 31
0.0
 40
0.0349207695
 41
0.034906585
 42
0.1186555088
  0
ELLIPSE
  5
940
100
AcDbEntity
  8
0
100
AcDbEllipse
 62
7
  6
CONTINUOUS
 10
23.0996801727
 20
-28.249863036
 30
0.0
 11
-0.0
 21
0.3
 31
0.0
 40
0.0349207695
 41
-0.1186555088
 42
-0.034906585
  0
ELLIPSE
  5
941
100
AcDbEntity
  8
DRAFT
100
AcDbEllipse
 62
7
  6
CONTINUOUS
 10
55.3198565139
 20
-3.3110691991
 30
0.0
 11
5.1872524353
 21
-0.0
 31
0.0
 40
0.1763269807
 41
-0.6336880033
 42
-0.2080580122
  0
ELLIPSE
  5
942
100
AcDbEntity
  8
DRAFT
100
AcDbEllipse
 62
7
  6
CONTINUOUS
 10
55.3198565139
 20
3.3110691991
 30
0.0
 11
5.1872524353
 21
0.0
 31
0.0
 40
0.1763269807
 41
0.2080580122
 42
0.6336880033
  0
ELLIPSE
  5
943
100
AcDbEntity
  8
DRAFT
100
AcDbEllipse
 62
7
  6
CONTINUOUS
 10
66.7051669842
 20
0.0
 30
0.0
 11
-0.0
 21
448.4
 31
0.0
 40
0.0174550649
 41
-4.667771145
 42
-4.6619949758
  0
ELLIPSE
  5
944
100
AcDbEntity
  8
DRAFT
100
AcDbEllipse
 62
7
  6
CONTINUOUS
 10
27.5948330158
 20
-0.0
 30
0.0
 11
-0.0
 21
448.4
 31
0.0
 40
0.0174550649
 41
-1.6211903314
 42
-1.5718482445
  0
ELLIPSE
  5
945
100
AcDbEntity
  8
DRAFT
100
AcDbEllipse
 62
7
  6
CONTINUOUS
 10
27.5948330158
 20
-0.0
 30
0.0
 11
-0.0
 21
448.4
 31
0.0
 40
0.0174550649
 41
-1.5697444091
 42
-1.5204023222
  0
ELLIPSE
  5
946
100
AcDbEntity
  8
DRAFT
100
AcDbEllipse
 62
7
  6
CONTINUOUS
 10
66.7051669842
 20
0.0
 30
0.0
 11
-0.0
 21
448.4
 31
0.0
 40
0.0174550649
 41
1.5204023222
 42
1.5261784914
  0
ELLIPSE
  5
947
100
AcDbEntity
  8
DRAFT
100
AcDbEllipse
 62
7
  6
CONTINUOUS
 10
-32.5207924873
 20
14.2336437913
 30
0.0
 11
-0.0
 21
165.8332498099
 31
0.0
 40
0.0174550649
 41
1.5167690718
 42
1.5204023222
  0
ELLIPSE
  5
948
100
AcDbEntity
  8
RACCORDO
100
AcDbEllipse
 62
7
  6
CONTINUOUS
 10
-11.6688186466
 20
-42.7311508878
 30
0.0
 11
0.0
 21
0.2
 31
0.0
 40
0.0174550649
 41
-4.5394767776
 42
-3.1590459461
  0
ELLIPSE
  5
949
100
AcDbEntity
  8
RACCORDO
100
AcDbEllipse
 62
7
  6
CONTINUOUS
 10
-11.6052365195
 20
-36.8848266046
 30
0.0
 11
0.0
 21
0.3
 31
0.0
 40
0.0174550649
 41
-1.5707963268
 42
-0.0523598776
  0
ELLIPSE
  5
94A
100
AcDbEntity
  8
RACCORDO
100
AcDbEllipse
 62
7
  6
CONTINUOUS
 10
-10.8311813534
 20
-42.7311508878
 30
0.0
 11
0.0
 21
0.2
 31
0.0
 40
0.0174550649
 41
-3.1241393611
 42
-1.7437085295
  0
ELLIPSE
  5
94B
100
AcDbEntity
  8
RACCORDO
100
AcDbEllipse
 62
7
  6
CONTINUOUS
 10
-10.8947634805
 20
-36.8848266046
 30
0.0
 11
0.0
 21
0.3
 31
0.0
 40
0.0174550649
 41
0.0523598776
 42
1.5707963268
  0
ELLIPSE
  5
94C
100
AcDbEntity
  8
RACCORDO
100
AcDbEllipse
 62
7
  6
CONTINUOUS
 10
-10.8311813534
 20
42.7311508878
 30
0.0
 11
0.0
 21
0.2
 31
0.0
 40
0.0174550649
 41
-1.397884124
 42
-0.0174532925
  0
ELLIPSE
  5
94D
100
AcDbEntity
  8
RACCORDO
100
AcDbEllipse
 62
7
  6
CONTINUOUS
 10
-10.8947634805
 20
36.8848266046
 30
0.0
 11
0.0
 21
0.3
 31
0.0
 40
0.0174550649
 41
-4.7123889804
 42
-3.1939525311
  0
ELLIPSE
  5
94E
100
AcDbEntity
  8
RACCORDO
100
AcDbEllipse
 62
7
  6
CONTINUOUS
 10
-11.6688186466
 20
42.7311508878
 30
0.0
 11
0.0
 21
0.2
 31
0.0
 40
0.0174550649
 41
0.0174532925
 42
1.397884124
  0
ELLIPSE
  5
94F
100
AcDbEntity
  8
DRAFT
100
AcDbEllipse
 62
7
  6
CONTINUOUS
 10
-61.7792075127
 20
14.2336437913
 30
0.0
 11
-0.0
 21
165.8332498099
 31
0.0
 40
0.0174550649
 41
-1.5204023222
 42
-1.5167690718
  0
ELLIPSE
  5
950
100
AcDbEntity
  8
DRAFT
100
AcDbEllipse
 62
7
  6
CONTINUOUS
 10
32.5207924873
 20
14.2336437913
 30
0.0
 11
-0.0
 21
165.8332498099
 31
0.0
 40
0.0174550649
 41
-1.5204023222
 42
-1.5167690718
  0
ELLIPSE
  5
951
100
AcDbEntity
  8
DRAFT
100
AcDbEllipse
 62
7
  6
CONTINUOUS
 10
61.7792075127
 20
14.2336437913
 30
0.0
 11
-0.0
 21
165.8332498099
 31
0.0
 40
0.0174550649
 41
1.5167690718
 42
1.5204023222
  0
ELLIPSE
  5
952
100
AcDbEntity
  8
RACCORDO
100
AcDbEllipse
 62
7
  6
CONTINUOUS
 10
-11.6052365195
 20
36.8848266046
 30
0.0
 11
0.0
 21
0.3
 31
0.0
 40
0.0174550649
 41
-3.089232776
 42
-1.5707963268
  0
ELLIPSE
  5
953
100
AcDbEntity
  8
0
100
AcDbEllipse
 62
7
  6
CONTINUOUS
 10
-6.6277287691
 20
14.2336437913
 30
0.0
 11
-0.0
 21
165.8332498099
 31
0.0
 40
0.0349207695
 41
-1.5117089986
 42
-1.5046466676
  0
ELLIPSE
  5
954
100
AcDbEntity
  8
0
100
AcDbEllipse
 62
7
  6
CONTINUOUS
 10
6.6277287691
 20
14.2336437913
 30
0.0
 11
-0.0
 21
165.8332498099
 31
0.0
 40
0.0349207695
 41
1.5046466676
 42
1.5117089986
  0
ELLIPSE
  5
955
100
AcDbEntity
  8
RACCORDO
100
AcDbEllipse
 62
7
  6
CONTINUOUS
 10
-35.3052365195
 20
36.8848266046
 30
0.0
 11
0.0
 21
0.3
 31
0.0
 40
0.0174550649
 41
-3.089232776
 42
-1.5707963268
  0
ELLIPSE
  5
956
100
AcDbEntity
  8
RACCORDO
100
AcDbEllipse
 62
7
  6
CONTINUOUS
 10
-35.3688186466
 20
42.7311508878
 30
0.0
 11
0.0
 21
0.2
 31
0.0
 40
0.0174550649
 41
0.0174532925
 42
1.397884124
  0
ELLIPSE
  5
957
100
AcDbEntity
  8
RACCORDO
100
AcDbEllipse
 62
7
  6
CONTINUOUS
 10
-35.3052365195
 20
-36.8848266046
 30
0.0
 11
0.0
 21
0.3
 31
0.0
 40
0.0174550649
 41
-1.5707963268
 42
-0.0523598776
  0
ELLIPSE
  5
958
100
AcDbEntity
  8
RACCORDO
100
AcDbEllipse
 62
7
  6
CONTINUOUS
 10
-35.3688186466
 20
-42.7311508878
 30
0.0
 11
0.0
 21
0.2
 31
0.0
 40
0.0174550649
 41
-4.5394767776
 42
-3.1590459461
  0
ELLIPSE
  5
959
100
AcDbEntity
  8
RACCORDO
100
AcDbEllipse
 62
7
  6
CONTINUOUS
 10
-56.3848266046
 20
23.2947634805
 30
0.0
 11
0.3
 21
0.0
 31
0.0
 40
0.0174550649
 41
0.0523598776
 42
1.5707963268
  0
ELLIPSE
  5
95A
100
AcDbEntity
  8
RACCORDO
100
AcDbEllipse
 62
7
  6
CONTINUOUS
 10
-56.3848266046
 20
24.0052365195
 30
0.0
 11
0.3
 21
0.0
 31
0.0
 40
0.0174550649
 41
-1.5707963268
 42
-0.0523598776
  0
ELLIPSE
  5
95B
100
AcDbEntity
  8
RACCORDO
100
AcDbEllipse
 62
7
  6
CONTINUOUS
 10
-56.3848266046
 20
-24.0052365195
 30
0.0
 11
0.3
 21
-0.0
 31
0.0
 40
0.0174550649
 41
0.0523598776
 42
1.5707963268
  0
ELLIPSE
  5
95C
100
AcDbEntity
  8
RACCORDO
100
AcDbEllipse
 62
7
  6
CONTINUOUS
 10
-56.3848266046
 20
-23.2947634805
 30
0.0
 11
0.3
 21
-0.0
 31
0.0
 40
0.0174550649
 41
-1.5707963268
 42
-0.0523598776
  0
ELLIPSE
  5
95D
100
AcDbEntity
  8
0
100
AcDbEllipse
 62
7
  6
CONTINUOUS
 10
15.8722712309
 20
14.2336437913
 30
0.0
 11
-0.0
 21
165.8332498099
 31
0.0
 40
0.0349207695
 41
-1.5117089986
 42
-1.4943628457
  0
ELLIPSE
  5
95E
100
AcDbEntity
  8
0
100
AcDbEllipse
 62
7
  6
CONTINUOUS
 10
29.1277287691
 20
14.2336437913
 30
0.0
 11
-0.0
 21
165.8332498099
 31
0.0
 40
0.0349207695
 41
1.4943628457
 42
1.5117089986
  0
ELLIPSE
  5
95F
100
AcDbEntity
  8
0
100
AcDbEllipse
 62
7
  6
CONTINUOUS
 10
-29.1277287691
 20
14.2336437913
 30
0.0
 11
-0.0
 21
165.8332498099
 31
0.0
 40
0.0349207695
 41
-1.5117089986
 42
-1.4943628457
  0
ELLIPSE
  5
960
100
AcDbEntity
  8
0
100
AcDbEllipse
 62
7
  6
CONTINUOUS
 10
-15.8722712309
 20
14.2336437913
 30
0.0
 11
-0.0
 21
165.8332498099
 31
0.0
 40
0.0349207695
 41
1.4943628457
 42
1.5117089986
  0
ELLIPSE
  5
961
100
AcDbEntity
  8
RACCORDO
100
AcDbEllipse
 62
7
  6
CONTINUOUS
 10
32.5207924873
 20
14.2336437913
 30
0.0
 11
-0.0
 21
165.8332498099
 31
0.0
 40
0.0174550649
 41
-1.5112033998
 42
-1.397884124
  0
ELLIPSE
  5
962
100
AcDbEntity
  8
RACCORDO
100
AcDbEllipse
 62
7
  6
CONTINUOUS
 10
35.3052365195
 20
36.8848266046
 30
0.0
 11
0.0
 21
0.3
 31
0.0
 40
0.0174550649
 41
-4.7123889804
 42
-3.1939525311
  0
ELLIPSE
  5
963
100
AcDbEntity
  8
RACCORDO
100
AcDbEllipse
 62
7
  6
CONTINUOUS
 10
35.3688186466
 20
42.7311508878
 30
0.0
 11
-0.0
 21
0.2
 31
0.0
 40
0.0174550649
 41
-1.397884124
 42
-0.0174532925
  0
ELLIPSE
  5
964
100
AcDbEntity
  8
RACCORDO
100
AcDbEllipse
 62
7
  6
CONTINUOUS
 10
35.3052365195
 20
-36.8848266046
 30
0.0
 11
0.0
 21
0.3
 31
0.0
 40
0.0174550649
 41
0.0523598776
 42
1.5707963268
  0
ELLIPSE
  5
965
100
AcDbEntity
  8
RACCORDO
100
AcDbEllipse
 62
7
  6
CONTINUOUS
 10
35.3688186466
 20
-42.7311508878
 30
0.0
 11
-0.0
 21
0.2
 31
0.0
 40
0.0174550649
 41
-3.1241393611
 42
-1.7437085295
  0
ELLIPSE
  5
966
100
AcDbEntity
  8
RACCORDO
100
AcDbEllipse
 62
7
  6
CONTINUOUS
 10
56.3848266046
 20
24.0052365195
 30
0.0
 11
0.3
 21
0.0
 31
0.0
 40
0.0174550649
 41
-3.089232776
 42
-1.5707963268
  0
ELLIPSE
  5
967
100
AcDbEntity
  8
RACCORDO
100
AcDbEllipse
 62
7
  6
CONTINUOUS
 10
56.3848266046
 20
23.2947634805
 30
0.0
 11
0.3
 21
0.0
 31
0.0
 40
0.0174550649
 41
1.5707963268
 42
3.089232776
  0
ELLIPSE
  5
968
100
AcDbEntity
  8
RACCORDO
100
AcDbEllipse
 62
7
  6
CONTINUOUS
 10
56.3848266046
 20
-23.2947634805
 30
0.0
 11
0.3
 21
-0.0
 31
0.0
 40
0.0174550649
 41
-3.089232776
 42
-1.5707963268
  0
ELLIPSE
  5
969
100
AcDbEntity
  8
RACCORDO
100
AcDbEllipse
 62
7
  6
CONTINUOUS
 10
56.3848266046
 20
-24.0052365195
 30
0.0
 11
0.3
 21
-0.0
 31
0.0
 40
0.0174550649
 41
1.5707963268
 42
3.089232776
  0
ELLIPSE
  5
96A
100
AcDbEntity
  8
RACCORDO
100
AcDbEllipse
 62
7
  6
CONTINUOUS
 10
-34.5947634805
 20
36.8848266046
 30
0.0
 11
0.0
 21
0.3
 31
0.0
 40
0.0174550649
 41
-4.7123889804
 42
-3.1939525312
  0
ELLIPSE
  5
96B
100
AcDbEntity
  8
RACCORDO
100
AcDbEllipse
 62
7
  6
CONTINUOUS
 10
-34.5311813534
 20
42.7311508878
 30
0.0
 11
0.0
 21
0.2
 31
0.0
 40
0.0174550649
 41
-1.397884124
 42
-0.0174532925
  0
ELLIPSE
  5
96C
100
AcDbEntity
  8
RACCORDO
100
AcDbEllipse
 62
7
  6
CONTINUOUS
 10
34.5947634805
 20
36.8848266046
 30
0.0
 11
-0.0
 21
0.3
 31
0.0
 40
0.0174550649
 41
-3.089232776
 42
-1.5707963268
  0
ELLIPSE
  5
96D
100
AcDbEntity
  8
RACCORDO
100
AcDbEllipse
 62
7
  6
CONTINUOUS
 10
34.5311813534
 20
42.7311508878
 30
0.0
 11
0.0
 21
0.2
 31
0.0
 40
0.0174550649
 41
0.0174532925
 42
1.397884124
  0
ELLIPSE
  5
96E
100
AcDbEntity
  8
RACCORDO
100
AcDbEllipse
 62
7
  6
CONTINUOUS
 10
-34.5947634805
 20
-36.8848266046
 30
0.0
 11
0.0
 21
0.3
 31
0.0
 40
0.0174550649
 41
0.0523598776
 42
1.5707963268
  0
ELLIPSE
  5
96F
100
AcDbEntity
  8
RACCORDO
100
AcDbEllipse
 62
7
  6
CONTINUOUS
 10
-34.5311813534
 20
-42.7311508878
 30
0.0
 11
0.0
 21
0.2
 31
0.0
 40
0.0174550649
 41
-3.1241393611
 42
-1.7437085295
  0
ELLIPSE
  5
970
100
AcDbEntity
  8
RACCORDO
100
AcDbEllipse
 62
7
  6
CONTINUOUS
 10
34.5947634805
 20
-36.8848266046
 30
0.0
 11
-0.0
 21
0.3
 31
0.0
 40
0.0174550649
 41
-1.5707963268
 42
-0.0523598776
  0
ELLIPSE
  5
971
100
AcDbEntity
  8
RACCORDO
100
AcDbEllipse
 62
7
  6
CONTINUOUS
 10
34.5311813534
 20
-42.7311508878
 30
0.0
 11
-0.0
 21
0.2
 31
0.0
 40
0.0174550649
 41
-4.5394767776
 42
-3.1590459461
  0
ENDSEC
  0
SECTION
  2
OBJECTS
  0
DICTIONARY
  5
C
100
AcDbDictionary
280
0
281
1
  3
ACAD_GROUP
350
D
  3
ACAD_MLINESTYLE
350
17
  3
ACAD_LAYOUT
350
1A
  3
ACAD_PLOTSETTINGS
350
19
  3
ACAD_PLOTSTYLENAME
350
E
  0
DICTIONARY
  5
D
102
{ACAD_REACTORS
330
C
102
}
100
AcDbDictionary
280
0
281
1
  0
ACDBDICTIONARYWDFLT
  5
E
102
{ACAD_REACTORS
330
C
102
}
100
AcDbDictionary
281
1
  3
Normal
350
F
100
AcDbDictionaryWithDefault
340
F
  0
DICTIONARY
  5
17
102
{ACAD_REACTORS
330
C
102
}
100
AcDbDictionary
280
0
281
1
  3
Standard
350
18
  0
DICTIONARY
  5
19
102
{ACAD_REACTORS
330
C
102
}
100
AcDbDictionary
281
1
  0
DICTIONARY
  5
1A
102
{ACAD_REACTORS
330
C
102
}
100
AcDbDictionary
281
1
  3
Model
350
972
  3
Layout1
350
973
  0
ACDBPLACEHOLDER
  5
F
102
{ACAD_REACTORS
330
E
102
}
  0
MLINESTYLE
  5
18
102
{ACAD_REACTORS
330
17
102
}
100
AcDbMlineStyle
  2
STANDARD
 70
0
  3

 62
256
 51
90.0
 52
90.0
 71
2
 49
0.5
 62
256
  6
BYLAYER
 49
-0.5
 62
256
  6
BYLAYER
  0
LAYOUT
  5
972
102
{ACAD_REACTORS
330
1A
102
}
100
AcDbPlotSettings
  1

  2
none_device
  4
ISO_A4_(297.00_x_210.00_MM)
  6

 40
0.0
 41
0.0
 42
0.0
 43
0.0
 44
297.0
 45
210.0
 46
0.0
 47
0.0
 48
0.0
 49
0.0
140
0.0
141
0.0
142
1.0
143
1.0
 70
1024
 72
1
 73
0
 74
0
  7

 75
0
147
1.0
148
0.0
149
0.0
100
AcDbLayout
  1
Model
 70
0
 71
0
 10
0.0
 20
0.0
 11
297.0
 21
210.0
 12
0.0
 22
0.0
 32
0.0
 14
0.0
 24
0.0
 34
0.0
 15
0.0
 25
0.0
 35
0.0
146
0.0
 13
0.0
 23
0.0
 33
0.0
 16
1.0
 26
0.0
 36
0.0
 17
0.0
 27
1.0
 37
0.0
 76
0
330
212
345
0
346
0
  0
LAYOUT
  5
973
102
{ACAD_REACTORS
330
1A
102
}
100
AcDbPlotSettings
  1

  2
none_device
  4
ISO_A4_(297.00_x_210.00_MM)
  6

 40
0.0
 41
0.0
 42
0.0
 43
0.0
 44
297.0
 45
210.0
 46
0.0
 47
0.0
 48
0.0
 49
0.0
140
0.0
141
0.0
142
1.0
143
1.0
 70
0
 72
1
 73
0
 74
0
  7

 75
0
147
1.0
148
0.0
149
0.0
100
AcDbLayout
  1
Layout1
 70
0
 71
1
 10
0.0
 20
0.0
 11
297.0
 21
210.0
 12
0.0
 22
0.0
 32
0.0
 14
0.0
 24
0.0
 34
0.0
 15
0.0
 25
0.0
 35
0.0
146
0.0
 13
0.0
 23
0.0
 33
0.0
 16
1.0
 26
0.0
 36
0.0
 17
0.0
 27
1.0
 37
0.0
 76
0
330
213
345
0
346
0
  0
ENDSEC
  0
EOF
