  0
SECTION
  2
HEADER
  9
$ACADVER
  1
AC1015
  9
$DWGCODEPAGE
  3
ANSI_1252
  9
$EXTMAX
 10
297.0
 20
210.0
 30
0.0
  9
$EXTMIN
 10
0.0
 20
0.0
 30
0.0
  9
$LIMMIN
 10
0.0
 20
0.0
  9
$LIMMAX
 10
297.0
 20
210.0
  9
$VIEWCTR
 10
148.5
 20
105.0
  9
$VIEWSIZE
 40
210.0
  9
$CLAYER
  8
0
  9
$LTSCALE
 40
16.335
  9
$CELTYPE
  6
BYLAYER
  9
$DIMSCALE
 40
1.0
  9
$DIMASZ
 40
3.0
  9
$DIMEXO
 40
1.85625
  9
$DIMDLI
 40
11.286
  9
$DIMEXE
 40
5.346
  9
$DIMCEN
 40
2.673
  9
$DIMLFAC
 40
1.0
  9
$DIMBLK
  1
_FILLED
  9
$DIMTXT
 40
3.0
  9
$DIMTOL
 70
1
  9
$DIMLIM
 70
0
  9
$DIMTFAC
 40
1.0
  9
$DIMTP
 40
0.01
  9
$DIMTM
 40
0.01
  9
$PDMODE
 70
3
  9
$PDSIZE
 40
3.0
  9
$HANDSEED
  5
76C
  9
$TILEMODE
 70
1
  9
$MEASUREMENT
 70
1
  9
$INSUNITS
 70
4
  0
ENDSEC
  0
SECTION
  2
CLASSES
  0
CLASS
  1
ACDBDICTIONARYWDFLT
  2
AcDbDictionaryWithDefault
  3
AutoCAD 2000
 90
0
280
0
281
0
  0
CLASS
  1
ACDBPLACEHOLDER
  2
AcDbPlaceHolder
  3
AutoCAD 2000
 90
0
280
0
281
0
  0
CLASS
  1
LAYOUT
  2
AcDbLayout
  3
AutoCAD 2000
 90
0
280
0
281
0
  0
ENDSEC
  0
SECTION
  2
TABLES
  0
TABLE
  2
VPORT
  5
8
100
AcDbSymbolTable
 70
2
  0
VPORT
  5
1F4
100
AcDbSymbolTableRecord
100
AcDbViewportTableRecord
  2
*ACTIVE
 70
0
 10
0.0
 20
0.0
 11
1.0
 21
1.0
 12
148.5
 22
105.0
 13
0.0
 23
0.0
 14
1.0
 24
1.0
 15
0.0
 25
0.0
 16
0.0
 26
0.0
 36
1.0
 17
0.0
 27
0.0
 37
0.0
 40
210.0
 41
1.4142857143
 42
50.0
 43
0.0
 44
0.0
 50
0.0
 51
0.0
 71
0
 72
100
 73
1
 74
1
 75
0
 76
0
 77
0
 78
0
  0
ENDTAB
  0
TABLE
  2
LTYPE
  5
5
100
AcDbSymbolTable
 70
6
  0
LTYPE
  5
14
100
AcDbSymbolTableRecord
100
AcDbLinetypeTableRecord
  2
BYBLOCK
 70
0
  3

 72
65
 73
0
 40
0.0
  0
LTYPE
  5
15
100
AcDbSymbolTableRecord
100
AcDbLinetypeTableRecord
  2
BYLAYER
 70
0
  3

 72
65
 73
0
 40
0.0
  0
LTYPE
  5
16
100
AcDbSymbolTableRecord
100
AcDbLinetypeTableRecord
  2
CONTINUOUS
 70
64
  3
Solid line
 72
65
 73
0
 40
0.0
  0
LTYPE
  5
1F5
100
AcDbSymbolTableRecord
100
AcDbLinetypeTableRecord
  2
CENTER
 70
64
  3
____ _ ____ _ ____ _ ____ _ ____ _ ____ _ ____
 72
65
 73
4
 40
0.6
 49
0.375
 74
0
 49
-0.075
 74
0
 49
0.075
 74
0
 49
-0.075
 74
0
  0
LTYPE
  5
1F6
100
AcDbSymbolTableRecord
100
AcDbLinetypeTableRecord
  2
HIDDEN
 70
64
  3
- - - - - - - - - - - - - - - - - - - -
 72
65
 73
2
 40
0.2
 49
0.1
 74
0
 49
-0.1
 74
0
  0
LTYPE
  5
1F7
100
AcDbSymbolTableRecord
100
AcDbLinetypeTableRecord
  2
PHANTOM
 70
64
  3
_____ _ _ _____ _ _ _____ _ _ _____
 72
65
 73
6
 40
0.8
 49
0.45
 74
0
 49
-0.05
 74
0
 49
0.1
 74
0
 49
-0.05
 74
0
 49
0.1
 74
0
 49
-0.05
 74
0
  0
LTYPE
  5
1F8
100
AcDbSymbolTableRecord
100
AcDbLinetypeTableRecord
  2
DOT
 70
64
  3
. . . . . . . . . . . . . . . . . . . .
 72
65
 73
2
 40
0.2
 49
0.1
 74
0
 49
-0.1
 74
0
  0
LTYPE
  5
1F9
100
AcDbSymbolTableRecord
100
AcDbLinetypeTableRecord
  2
DASHED
 70
64
  3
- - - - - - - - - - - - - - - - - - - -
 72
65
 73
2
 40
0.2
 49
0.1
 74
0
 49
-0.1
 74
0
  0
ENDTAB
  0
TABLE
  2
LAYER
  5
2
100
AcDbSymbolTable
 70
36
  0
LAYER
  5
10
100
AcDbSymbolTableRecord
100
AcDbLayerTableRecord
  2
0
 70
0
 62
7
  6
CONTINUOUS
370
-3
390
F
  0
LAYER
  5
1FA
100
AcDbSymbolTableRecord
100
AcDbLayerTableRecord
  2
DEFAULT_1
 70
0
 62
7
  6
CENTER
370
-3
390
F
  0
LAYER
  5
1FB
100
AcDbSymbolTableRecord
100
AcDbLayerTableRecord
  2
DEFAULT_2
 70
0
 62
7
  6
HIDDEN
370
-3
390
F
  0
LAYER
  5
1FC
100
AcDbSymbolTableRecord
100
AcDbLayerTableRecord
  2
DEFAULT_3
 70
0
 62
7
  6
PHANTOM
370
-3
390
F
  0
LAYER
  5
1FD
100
AcDbSymbolTableRecord
100
AcDbLayerTableRecord
  2
ASSI
 70
0
 62
7
  6
CONTINUOUS
370
-3
390
F
  0
LAYER
  5
1FE
100
AcDbSymbolTableRecord
100
AcDbLayerTableRecord
  2
COLORE_TOP
 70
0
 62
7
  6
CONTINUOUS
370
-3
390
F
  0
LAYER
  5
1FF
100
AcDbSymbolTableRecord
100
AcDbLayerTableRecord
  2
COORDINATE
 70
0
 62
7
  6
CONTINUOUS
370
-3
390
F
  0
LAYER
  5
200
100
AcDbSymbolTableRecord
100
AcDbLayerTableRecord
  2
COORD_ORIGINE
 70
0
 62
7
  6
CONTINUOUS
370
-3
390
F
  0
LAYER
  5
201
100
AcDbSymbolTableRecord
100
AcDbLayerTableRecord
  2
COPY
 70
0
 62
7
  6
CONTINUOUS
370
-3
390
F
  0
LAYER
  5
202
100
AcDbSymbolTableRecord
100
AcDbLayerTableRecord
  2
COPY_PUBLISH
 70
0
 62
7
  6
CONTINUOUS
370
-3
390
F
  0
LAYER
  5
203
100
AcDbSymbolTableRecord
100
AcDbLayerTableRecord
  2
COSMETIC
 70
0
 62
7
  6
CONTINUOUS
370
-3
390
F
  0
LAYER
  5
204
100
AcDbSymbolTableRecord
100
AcDbLayerTableRecord
  2
COSMETICHE
 70
0
 62
7
  6
CONTINUOUS
370
-3
390
F
  0
LAYER
  5
205
100
AcDbSymbolTableRecord
100
AcDbLayerTableRecord
  2
COSMETICI
 70
0
 62
7
  6
CONTINUOUS
370
-3
390
F
  0
LAYER
  5
206
100
AcDbSymbolTableRecord
100
AcDbLayerTableRecord
  2
CURVE
 70
0
 62
7
  6
CONTINUOUS
370
-3
390
F
  0
LAYER
  5
207
100
AcDbSymbolTableRecord
100
AcDbLayerTableRecord
  2
DRAFT
 70
0
 62
7
  6
CONTINUOUS
370
-3
390
F
  0
LAYER
  5
208
100
AcDbSymbolTableRecord
100
AcDbLayerTableRecord
  2
IMPORTED
 70
0
 62
7
  6
CONTINUOUS
370
-3
390
F
  0
LAYER
  5
209
100
AcDbSymbolTableRecord
100
AcDbLayerTableRecord
  2
IMPORT_IGES
 70
0
 62
7
  6
CONTINUOUS
370
-3
390
F
  0
LAYER
  5
20A
100
AcDbSymbolTableRecord
100
AcDbLayerTableRecord
  2
NOTE
 70
0
 62
7
  6
CONTINUOUS
370
-3
390
F
  0
LAYER
  5
20B
100
AcDbSymbolTableRecord
100
AcDbLayerTableRecord
  2
PIANI
 70
0
 62
7
  6
CONTINUOUS
370
-3
390
F
  0
LAYER
  5
20C
100
AcDbSymbolTableRecord
100
AcDbLayerTableRecord
  2
PIANI_ORIGINE
 70
0
 62
7
  6
CONTINUOUS
370
-3
390
F
  0
LAYER
  5
20D
100
AcDbSymbolTableRecord
100
AcDbLayerTableRecord
  2
PIANI_RIFERIMENTO
 70
0
 62
7
  6
CONTINUOUS
370
-3
390
F
  0
LAYER
  5
20E
100
AcDbSymbolTableRecord
100
AcDbLayerTableRecord
  2
PIANI_SFORMO
 70
0
 62
7
  6
CONTINUOUS
370
-3
390
F
  0
LAYER
  5
20F
100
AcDbSymbolTableRecord
100
AcDbLayerTableRecord
  2
PUNTI
 70
0
 62
7
  6
CONTINUOUS
370
-3
390
F
  0
LAYER
  5
210
100
AcDbSymbolTableRecord
100
AcDbLayerTableRecord
  2
RACCORDO
 70
0
 62
7
  6
CONTINUOUS
370
-3
390
F
  0
LAYER
  5
211
100
AcDbSymbolTableRecord
100
AcDbLayerTableRecord
  2
SCRITTE
 70
0
 62
7
  6
CONTINUOUS
370
-3
390
F
  0
LAYER
  5
212
100
AcDbSymbolTableRecord
100
AcDbLayerTableRecord
  2
SMUSSO
 70
0
 62
7
  6
CONTINUOUS
370
-3
390
F
  0
LAYER
  5
213
100
AcDbSymbolTableRecord
100
AcDbLayerTableRecord
  2
SNAPLINE
 70
0
 62
7
  6
CONTINUOUS
370
-3
390
F
  0
LAYER
  5
214
100
AcDbSymbolTableRecord
100
AcDbLayerTableRecord
  2
SUPERFICI
 70
0
 62
7
  6
CONTINUOUS
370
-3
390
F
  0
LAYER
  5
215
100
AcDbSymbolTableRecord
100
AcDbLayerTableRecord
  2
TRASH
 70
0
 62
7
  6
CONTINUOUS
370
-3
390
F
  0
LAYER
  5
216
100
AcDbSymbolTableRecord
100
AcDbLayerTableRecord
  2
XSEC_DATUMS
 70
0
 62
7
  6
CONTINUOUS
370
-3
390
F
  0
ENDTAB
  0
TABLE
  2
STYLE
  5
3
100
AcDbSymbolTable
 70
1
  0
STYLE
  5
11
100
AcDbSymbolTableRecord
100
AcDbTextStyleTableRecord
  2
STANDARD
 70
0
 40
0.0
 41
0.8
 50
0.0
 71
0
 42
0.2
  3
txt
  4

  0
STYLE
  5
217
100
AcDbSymbolTableRecord
100
AcDbTextStyleTableRecord
  2
TEXTSTYLE_1
 70
0
 40
0.0
 41
0.8
 50
0.0
 71
0
 42
0.2
  3
gdt
  4

  0
ENDTAB
  0
TABLE
  2
VIEW
  5
6
100
AcDbSymbolTable
 70
0
  0
ENDTAB
  0
TABLE
  2
UCS
  5
7
100
AcDbSymbolTable
 70
0
  0
ENDTAB
  0
TABLE
  2
APPID
  5
9
100
AcDbSymbolTable
 70
1
  0
APPID
  5
218
100
AcDbSymbolTableRecord
100
AcDbRegAppTableRecord
  2
ACAD
 70
0
  0
ENDTAB
  0
TABLE
  2
BLOCK_RECORD
  5
1
100
AcDbSymbolTable
 70
0
  0
BLOCK_RECORD
  5
219
100
AcDbSymbolTableRecord
100
AcDbBlockTableRecord
  2
*Model_Space
  0
BLOCK_RECORD
  5
21A
100
AcDbSymbolTableRecord
100
AcDbBlockTableRecord
  2
*Paper_Space
  0
ENDTAB
  0
TABLE
  2
DIMSTYLE
  5
A
100
AcDbSymbolTable
 70
1
100
AcDbDimStyleTable
 71
0
  0
DIMSTYLE
105
21B
100
AcDbSymbolTableRecord
100
AcDbDimStyleTableRecord
  2
STANDARD
 70
0
  3

  4

 40
1.0
 41
3.0
 42
0.0625
 43
0.38
 44
0.18
 45
0.0
 46
0.0
 47
0.01
 48
0.01
140
3.0
141
0.09
142
0.0
143
25.4
144
1.0
145
0.0
146
1.0
147
0.09
 71
1.0
 72
0.0
 73
0
 74
0
 75
0
 76
0
 77
1
 78
8
170
0
171
2
172
0
173
0
174
0
175
0
176
0
177
0
178
0
270
2
271
2
272
2
273
2
274
2
275
0
280
0
281
0
282
0
283
1
284
8
285
0
286
0
287
3
288
0
340
11
  0
ENDTAB
  0
ENDSEC
  0
SECTION
  2
BLOCKS
  0
BLOCK
  5
20
100
AcDbEntity
  8
0
100
AcDbBlockBegin
  2
*Model_Space
 70
0
 10
0.0
 20
0.0
 30
0.0
  3
*Model_Space
  1

  0
ENDBLK
  5
21
100
AcDbEntity
  8
0
100
AcDbBlockEnd
  0
BLOCK
  5
1C
100
AcDbEntity
  8
0
100
AcDbBlockBegin
  2
*Paper_Space
 70
0
 10
0.0
 20
0.0
 30
0.0
  3
*Paper_Space
  1

  0
ENDBLK
  5
1D
100
AcDbEntity
  8
0
100
AcDbBlockEnd
  0
ENDSEC
  0
SECTION
  2
ENTITIES
  0
LINE
  5
21C
100
AcDbEntity
  8
0
100
AcDbLine
 62
7
  6
CONTINUOUS
 10
-10.3223015738
 20
-22.4850354783
 11
-7.9310367802
 21
-22.4850354783
  0
LINE
  5
21D
100
AcDbEntity
  8
0
100
AcDbLine
 62
7
  6
CONTINUOUS
 10
7.0776984262
 20
-22.4850354783
 11
9.4689632198
 21
-22.4850354783
  0
LINE
  5
21E
100
AcDbEntity
  8
0
100
AcDbLine
 62
253
  6
CONTINUOUS
 10
6.827702657
 20
-22.2350397091
 11
9.718958989
 21
-22.2350397091
  0
LINE
  5
21F
100
AcDbEntity
  8
0
100
AcDbLine
 62
253
  6
CONTINUOUS
 10
-7.681041011
 20
-22.2350397091
 11
-10.572297343
 21
-22.2350397091
  0
LINE
  5
220
100
AcDbEntity
  8
0
100
AcDbLine
 62
7
  6
CONTINUOUS
 10
-4.876669177
 20
-21.9894073123
 11
-1.626669177
 21
-21.9894073123
  0
LINE
  5
221
100
AcDbEntity
  8
0
100
AcDbLine
 62
7
  6
CONTINUOUS
 10
0.773330823
 20
-21.9894073123
 11
4.023330823
 21
-21.9894073123
  0
LINE
  5
222
100
AcDbEntity
  8
0
100
AcDbLine
 62
7
  6
CONTINUOUS
 10
3.073330823
 20
-21.9835894825
 11
0.773330823
 21
-21.9835894825
  0
LINE
  5
223
100
AcDbEntity
  8
0
100
AcDbLine
 62
7
  6
CONTINUOUS
 10
-1.626669177
 20
-21.9835894825
 11
-3.926669177
 21
-21.9835894825
  0
LINE
  5
224
100
AcDbEntity
  8
0
100
AcDbLine
 62
7
  6
CONTINUOUS
 10
3.9796801761
 20
-21.9457566654
 11
3.073330823
 21
-21.9457566654
  0
LINE
  5
225
100
AcDbEntity
  8
0
100
AcDbLine
 62
7
  6
CONTINUOUS
 10
-3.926669177
 20
-21.9457566654
 11
-4.8330185302
 21
-21.9457566654
  0
LINE
  5
226
100
AcDbEntity
  8
0
100
AcDbLine
 62
253
  6
CONTINUOUS
 10
6.827702657
 20
-21.8337448796
 11
9.718958989
 21
-21.8337448796
  0
LINE
  5
227
100
AcDbEntity
  8
0
100
AcDbLine
 62
253
  6
CONTINUOUS
 10
-7.681041011
 20
-21.8337448796
 11
-10.572297343
 21
-21.8337448796
  0
LINE
  5
228
100
AcDbEntity
  8
0
100
AcDbLine
 62
253
  6
CONTINUOUS
 10
9.4689632198
 20
-21.6172385287
 11
7.0776984262
 21
-21.6172385287
  0
LINE
  5
229
100
AcDbEntity
  8
0
100
AcDbLine
 62
253
  6
CONTINUOUS
 10
-7.9310367802
 20
-21.6172385287
 11
-10.3223015738
 21
-21.6172385287
  0
LINE
  5
22A
100
AcDbEntity
  8
0
100
AcDbLine
 62
7
  6
CONTINUOUS
 10
-10.3273921749
 20
-21.1120570431
 11
-7.9259461792
 21
-21.1120570431
  0
LINE
  5
22B
100
AcDbEntity
  8
0
100
AcDbLine
 62
7
  6
CONTINUOUS
 10
9.4740538208
 20
-21.1120570431
 11
7.0726078251
 21
-21.1120570431
  0
LINE
  5
22C
100
AcDbEntity
  8
0
100
AcDbLine
 62
7
  6
CONTINUOUS
 10
4.023330823
 20
-20.3894073123
 11
10.2237735125
 21
-20.3894073123
  0
LINE
  5
22D
100
AcDbEntity
  8
0
100
AcDbLine
 62
7
  6
CONTINUOUS
 10
-4.876669177
 20
-20.3894073123
 11
-11.0771118665
 21
-20.3894073123
  0
LINE
  5
22E
100
AcDbEntity
  8
0
100
AcDbLine
 62
7
  6
CONTINUOUS
 10
0.573330823
 20
-20.3841712767
 11
-1.426669177
 21
-20.3841712767
  0
LINE
  5
22F
100
AcDbEntity
  8
0
100
AcDbLine
 62
7
  6
CONTINUOUS
 10
10.2150466447
 20
-20.3835894825
 11
6.8291486528
 21
-20.3835894825
  0
LINE
  5
230
100
AcDbEntity
  8
0
100
AcDbLine
 62
7
  6
CONTINUOUS
 10
-7.6824870068
 20
-20.3835894825
 11
-11.0683849987
 21
-20.3835894825
  0
LINE
  5
231
100
AcDbEntity
  8
0
100
AcDbLine
 62
253
  6
CONTINUOUS
 10
-7.7406991515
 20
-20.3253773378
 11
-3.426669177
 21
-20.3253773378
  0
LINE
  5
232
100
AcDbEntity
  8
0
100
AcDbLine
 62
253
  6
CONTINUOUS
 10
2.573330823
 20
-20.3253773378
 11
6.8873607975
 21
-20.3253773378
  0
LINE
  5
233
100
AcDbEntity
  8
0
100
AcDbLine
 62
7
  6
CONTINUOUS
 10
-3.426669177
 20
-19.6894073123
 11
2.573330823
 21
-19.6894073123
  0
LINE
  5
234
100
AcDbEntity
  8
ASSI
100
AcDbLine
 62
253
  6
CONTINUOUS
 10
-7.7607698962
 20
-19.325394261
 11
-3.426669177
 21
-19.325394261
  0
LINE
  5
235
100
AcDbEntity
  8
ASSI
100
AcDbLine
 62
253
  6
CONTINUOUS
 10
2.573330823
 20
-19.325394261
 11
6.9074315421
 21
-19.325394261
  0
LINE
  5
236
100
AcDbEntity
  8
RACCORDO
100
AcDbLine
 62
7
  6
CONTINUOUS
 10
-9.226669177
 20
22.8605926877
 11
-10.9909719575
 21
21.0962899072
  0
LINE
  5
237
100
AcDbEntity
  8
ASSI
100
AcDbLine
 62
7
  6
CONTINUOUS
 10
-11.5596517848
 20
20.5276100799
 11
-7.7406991515
 21
24.3465627132
  0
LINE
  5
238
100
AcDbEntity
  8
0
100
AcDbLine
 62
7
  6
CONTINUOUS
 10
-7.7406991515
 20
24.3465627132
 11
-7.6824870068
 21
24.4047748579
  0
LINE
  5
239
100
AcDbEntity
  8
RACCORDO
100
AcDbLine
 62
7
  6
CONTINUOUS
 10
-10.5116867224
 20
21.3287232468
 11
-9.1543679308
 21
22.6860420384
  0
LINE
  5
23A
100
AcDbEntity
  8
RACCORDO
100
AcDbLine
 62
253
  6
CONTINUOUS
 10
-10.7934250909
 20
21.0144633159
 11
-10.5021613773
 21
21.3057270295
  0
LINE
  5
23B
100
AcDbEntity
  8
DRAFT
100
AcDbLine
 62
7
  6
CONTINUOUS
 10
-7.826669177
 20
22.7750628695
 11
-7.9156900082
 21
22.6860420384
  0
LINE
  5
23C
100
AcDbEntity
  8
RACCORDO
100
AcDbLine
 62
253
  6
CONTINUOUS
 10
-10.0864260055
 20
20.3074642305
 11
-9.7951622919
 21
20.5987279441
  0
LINE
  5
23D
100
AcDbEntity
  8
RACCORDO
100
AcDbLine
 62
7
  6
CONTINUOUS
 10
7.173330823
 20
-18.8894073123
 11
7.573330823
 21
-18.8894073123
  0
LINE
  5
23E
100
AcDbEntity
  8
RACCORDO
100
AcDbLine
 62
7
  6
CONTINUOUS
 10
-8.026669177
 20
-18.8894073123
 11
-8.426669177
 21
-18.8894073123
  0
LINE
  5
23F
100
AcDbEntity
  8
DRAFT
100
AcDbLine
 62
7
  6
CONTINUOUS
 10
-9.226669177
 20
-18.8394073123
 11
-7.9121989952
 21
-18.8394073123
  0
LINE
  5
240
100
AcDbEntity
  8
DRAFT
100
AcDbLine
 62
7
  6
CONTINUOUS
 10
7.0588606411
 20
-18.8394073123
 11
8.373330823
 21
-18.8394073123
  0
LINE
  5
241
100
AcDbEntity
  8
0
100
AcDbLine
 62
7
  6
CONTINUOUS
 10
2.573330823
 20
-18.7894073123
 11
-3.426669177
 21
-18.7894073123
  0
LINE
  5
242
100
AcDbEntity
  8
DRAFT
100
AcDbLine
 62
7
  6
CONTINUOUS
 10
-9.1543679308
 20
-18.664856663
 11
-7.9156900082
 21
-18.664856663
  0
LINE
  5
243
100
AcDbEntity
  8
DRAFT
100
AcDbLine
 62
7
  6
CONTINUOUS
 10
7.0623516541
 20
-18.664856663
 11
8.3010295767
 21
-18.664856663
  0
LINE
  5
244
100
AcDbEntity
  8
RACCORDO
100
AcDbLine
 62
7
  6
CONTINUOUS
 10
5.8488310231
 20
-17.9894073123
 11
-6.7021693772
 21
-17.9894073123
  0
LINE
  5
245
100
AcDbEntity
  8
RACCORDO
100
AcDbLine
 62
7
  6
CONTINUOUS
 10
-6.176669177
 20
-17.8894073123
 11
-3.826669177
 21
-17.8894073123
  0
LINE
  5
246
100
AcDbEntity
  8
RACCORDO
100
AcDbLine
 62
7
  6
CONTINUOUS
 10
2.973330823
 20
-17.8894073123
 11
5.323330823
 21
-17.8894073123
  0
LINE
  5
247
100
AcDbEntity
  8
RACCORDO
100
AcDbLine
 62
7
  6
CONTINUOUS
 10
-2.8281934119
 20
-17.8738939919
 11
1.9748550578
 21
-17.8738939919
  0
LINE
  5
248
100
AcDbEntity
  8
DRAFT
100
AcDbLine
 62
7
  6
CONTINUOUS
 10
-6.0876483459
 20
-17.8003864812
 11
5.2343099918
 21
-17.8003864812
  0
LINE
  5
249
100
AcDbEntity
  8
DRAFT
100
AcDbLine
 62
7
  6
CONTINUOUS
 10
-7.826669177
 20
-17.6894073123
 11
-6.176669177
 21
-17.6894073123
  0
LINE
  5
24A
100
AcDbEntity
  8
DRAFT
100
AcDbLine
 62
7
  6
CONTINUOUS
 10
5.323330823
 20
-17.6894073123
 11
6.973330823
 21
-17.6894073123
  0
LINE
  5
24B
100
AcDbEntity
  8
RACCORDO
100
AcDbLine
 62
7
  6
CONTINUOUS
 10
8.9513492829
 20
-17.6003864812
 11
7.0623516541
 21
-17.6003864812
  0
LINE
  5
24C
100
AcDbEntity
  8
DRAFT
100
AcDbLine
 62
7
  6
CONTINUOUS
 10
-6.0876483459
 20
-17.6003864812
 11
5.2343099918
 21
-17.6003864812
  0
LINE
  5
24D
100
AcDbEntity
  8
RACCORDO
100
AcDbLine
 62
7
  6
CONTINUOUS
 10
-7.9156900082
 20
-17.6003864812
 11
-9.804687637
 21
-17.6003864812
  0
LINE
  5
24E
100
AcDbEntity
  8
RACCORDO
100
AcDbLine
 62
7
  6
CONTINUOUS
 10
-10.9909719575
 20
-17.0751045318
 11
-9.226669177
 21
-18.8394073123
  0
LINE
  5
24F
100
AcDbEntity
  8
0
100
AcDbLine
 62
7
  6
CONTINUOUS
 10
-7.7406991515
 20
-20.3253773378
 11
-7.6824870068
 21
-20.3835894825
  0
LINE
  5
250
100
AcDbEntity
  8
ASSI
100
AcDbLine
 62
7
  6
CONTINUOUS
 10
-7.7406991515
 20
-20.3253773378
 11
-11.5596517848
 21
-16.5064247045
  0
LINE
  5
251
100
AcDbEntity
  8
RACCORDO
100
AcDbLine
 62
7
  6
CONTINUOUS
 10
-9.1543679308
 20
-18.664856663
 11
-10.5116867224
 21
-17.3075378714
  0
LINE
  5
252
100
AcDbEntity
  8
RACCORDO
100
AcDbLine
 62
253
  6
CONTINUOUS
 10
-10.4320291684
 20
-17.1152275243
 11
-10.6241109611
 21
-16.9231457316
  0
LINE
  5
253
100
AcDbEntity
  8
DRAFT
100
AcDbLine
 62
7
  6
CONTINUOUS
 10
-7.826669177
 20
-18.7538774942
 11
-7.9156900082
 21
-18.664856663
  0
LINE
  5
254
100
AcDbEntity
  8
RACCORDO
100
AcDbLine
 62
253
  6
CONTINUOUS
 10
-9.725030083
 20
-16.4082284389
 11
-9.9171118757
 21
-16.2161466462
  0
LINE
  5
255
100
AcDbEntity
  8
DRAFT
100
AcDbLine
 62
7
  6
CONTINUOUS
 10
-7.826669177
 20
21.7105926877
 11
-7.9156900082
 21
21.6215718566
  0
LINE
  5
256
100
AcDbEntity
  8
RACCORDO
100
AcDbLine
 62
253
  6
CONTINUOUS
 10
1.5278941882
 20
-17.4080761341
 11
-2.3812325423
 21
-17.4080761341
  0
LINE
  5
257
100
AcDbEntity
  8
RACCORDO
100
AcDbLine
 62
253
  6
CONTINUOUS
 10
8.1187674577
 20
-17.4080761341
 11
8.871691729
 21
-17.4080761341
  0
LINE
  5
258
100
AcDbEntity
  8
RACCORDO
100
AcDbLine
 62
253
  6
CONTINUOUS
 10
-8.9721058118
 20
-17.4080761341
 11
-9.725030083
 21
-17.4080761341
  0
LINE
  5
259
100
AcDbEntity
  8
RACCORDO
100
AcDbLine
 62
7
  6
CONTINUOUS
 10
-8.479059688
 20
-16.5394073123
 11
-8.4265644655
 21
-16.5394073123
  0
LINE
  5
25A
100
AcDbEntity
  8
0
100
AcDbLine
 62
7
  6
CONTINUOUS
 10
-8.4265644655
 20
-16.5394073123
 11
-2.9267738886
 21
-16.5394073123
  0
LINE
  5
25B
100
AcDbEntity
  8
RACCORDO
100
AcDbLine
 62
7
  6
CONTINUOUS
 10
-2.9267738886
 20
-16.5394073123
 11
-2.8742786661
 21
-16.5394073123
  0
LINE
  5
25C
100
AcDbEntity
  8
RACCORDO
100
AcDbLine
 62
7
  6
CONTINUOUS
 10
2.020940312
 20
-16.5394073123
 11
2.0734355345
 21
-16.5394073123
  0
LINE
  5
25D
100
AcDbEntity
  8
0
100
AcDbLine
 62
7
  6
CONTINUOUS
 10
2.0734355345
 20
-16.5394073123
 11
7.5732261114
 21
-16.5394073123
  0
LINE
  5
25E
100
AcDbEntity
  8
RACCORDO
100
AcDbLine
 62
7
  6
CONTINUOUS
 10
7.5732261114
 20
-16.5394073123
 11
7.6257213339
 21
-16.5394073123
  0
LINE
  5
25F
100
AcDbEntity
  8
RACCORDO
100
AcDbLine
 62
253
  6
CONTINUOUS
 10
2.0208649007
 20
-16.4082284389
 11
-2.8742032547
 21
-16.4082284389
  0
LINE
  5
260
100
AcDbEntity
  8
RACCORDO
100
AcDbLine
 62
253
  6
CONTINUOUS
 10
7.6257967453
 20
-16.4082284389
 11
8.871691729
 21
-16.4082284389
  0
LINE
  5
261
100
AcDbEntity
  8
RACCORDO
100
AcDbLine
 62
253
  6
CONTINUOUS
 10
-8.4791350993
 20
-16.4082284389
 11
-9.725030083
 21
-16.4082284389
  0
LINE
  5
262
100
AcDbEntity
  8
DRAFT
100
AcDbLine
 62
7
  6
CONTINUOUS
 10
7.6257967453
 20
-16.0312623506
 11
2.0208649007
 21
-16.0312623506
  0
LINE
  5
263
100
AcDbEntity
  8
DRAFT
100
AcDbLine
 62
7
  6
CONTINUOUS
 10
-2.8742032547
 20
-16.0312623506
 11
-8.4791350993
 21
-16.0312623506
  0
LINE
  5
264
100
AcDbEntity
  8
DRAFT
100
AcDbLine
 62
7
  6
CONTINUOUS
 10
-8.4791350993
 20
-16.0312623506
 11
-8.4265644655
 21
-16.0663089456
  0
LINE
  5
265
100
AcDbEntity
  8
DRAFT
100
AcDbLine
 62
7
  6
CONTINUOUS
 10
-7.826669177
 20
-17.6894073123
 11
-7.9156900082
 21
-17.6003864812
  0
LINE
  5
266
100
AcDbEntity
  8
RACCORDO
100
AcDbLine
 62
7
  6
CONTINUOUS
 10
-3.826669177
 20
21.9105926877
 11
-3.8258354803
 21
21.9114263844
  0
LINE
  5
267
100
AcDbEntity
  8
RACCORDO
100
AcDbLine
 62
253
  6
CONTINUOUS
 10
10.3564698266
 20
-15.5091475608
 11
9.3566221314
 21
-15.5091731366
  0
LINE
  5
268
100
AcDbEntity
  8
RACCORDO
100
AcDbLine
 62
253
  6
CONTINUOUS
 10
-11.2098081807
 20
-15.5091475608
 11
-10.2099604855
 21
-15.5091475608
  0
LINE
  5
269
100
AcDbEntity
  8
RACCORDO
100
AcDbLine
 62
7
  6
CONTINUOUS
 10
-3.826669177
 20
-17.8894073123
 11
-3.8258354803
 21
-17.890241009
  0
LINE
  5
26A
100
AcDbEntity
  8
0
100
AcDbLine
 62
7
  6
CONTINUOUS
 10
7.1635445887
 20
-11.8176348672
 11
7.8781272101
 21
-11.6368176661
  0
LINE
  5
26B
100
AcDbEntity
  8
0
100
AcDbLine
 62
7
  6
CONTINUOUS
 10
-8.0168829427
 20
-11.8176348672
 11
-8.7314655642
 21
-11.6368176661
  0
LINE
  5
26C
100
AcDbEntity
  8
RACCORDO
100
AcDbLine
 62
253
  6
CONTINUOUS
 10
-10.8247036065
 20
-8.5372791472
 11
-11.06694067
 21
-8.3622433395
  0
LINE
  5
26D
100
AcDbEntity
  8
RACCORDO
100
AcDbLine
 62
253
  6
CONTINUOUS
 10
-6.5624620901
 20
-11.6873066322
 11
-6.3240398019
 21
-11.8675041195
  0
LINE
  5
26E
100
AcDbEntity
  8
RACCORDO
100
AcDbLine
 62
253
  6
CONTINUOUS
 10
-6.3099134184
 20
-12.0542215666
 11
-6.079966888
 21
-12.2451167289
  0
LINE
  5
26F
100
AcDbEntity
  8
DRAFT
100
AcDbLine
 62
7
  6
CONTINUOUS
 10
-9.7241904239
 20
-8.8918860655
 11
-9.8917590472
 21
-8.7243174422
  0
LINE
  5
270
100
AcDbEntity
  8
0
100
AcDbLine
 62
7
  6
CONTINUOUS
 10
3.9796801761
 20
25.9669420408
 11
4.023330823
 21
26.0105926877
  0
LINE
  5
271
100
AcDbEntity
  8
0
100
AcDbLine
 62
7
  6
CONTINUOUS
 10
4.023330823
 20
24.4105926877
 11
3.9794085759
 21
24.3666704406
  0
LINE
  5
272
100
AcDbEntity
  8
0
100
AcDbLine
 62
253
  6
CONTINUOUS
 10
10.2237735125
 20
24.4105926877
 11
10.2150466447
 21
24.4047748579
  0
LINE
  5
273
100
AcDbEntity
  8
RACCORDO
100
AcDbLine
 62
7
  6
CONTINUOUS
 10
3.673330823
 20
20.2105926877
 11
3.7623448744
 21
20.2693411199
  0
LINE
  5
274
100
AcDbEntity
  8
RACCORDO
100
AcDbLine
 62
253
  6
CONTINUOUS
 10
10.1376336035
 20
21.0962899072
 11
9.9400867369
 21
21.0144633159
  0
LINE
  5
275
100
AcDbEntity
  8
0
100
AcDbLine
 62
7
  6
CONTINUOUS
 10
3.373330823
 20
18.0066367609
 11
1.9995921132
 21
17.5073219936
  0
LINE
  5
276
100
AcDbEntity
  8
0
100
AcDbLine
 62
7
  6
CONTINUOUS
 10
-2.6218727899
 20
-11.6368176661
 11
-3.3768173515
 21
-11.8278480082
  0
LINE
  5
277
100
AcDbEntity
  8
0
100
AcDbLine
 62
7
  6
CONTINUOUS
 10
8.8995158429
 20
-11.5940411559
 11
8.2215575503
 21
-11.5940411559
  0
LINE
  5
278
100
AcDbEntity
  8
0
100
AcDbLine
 62
7
  6
CONTINUOUS
 10
8.099300025
 20
-11.5940411559
 11
6.7471458031
 21
-11.5940411559
  0
LINE
  5
279
100
AcDbEntity
  8
0
100
AcDbLine
 62
7
  6
CONTINUOUS
 10
3.073330823
 20
-11.5940411559
 11
1.547361621
 21
-11.5940411559
  0
LINE
  5
27A
100
AcDbEntity
  8
0
100
AcDbLine
 62
7
  6
CONTINUOUS
 10
-2.400699975
 20
-11.5940411559
 11
-3.926669177
 21
-11.5940411559
  0
LINE
  5
27B
100
AcDbEntity
  8
0
100
AcDbLine
 62
7
  6
CONTINUOUS
 10
-7.6004841571
 20
-11.5940411559
 11
-8.952638379
 21
-11.5940411559
  0
LINE
  5
27C
100
AcDbEntity
  8
0
100
AcDbLine
 62
7
  6
CONTINUOUS
 10
-9.0748959044
 20
-11.5940411559
 11
-9.752854197
 21
-11.5940411559
  0
LINE
  5
27D
100
AcDbEntity
  8
RACCORDO
100
AcDbLine
 62
253
  6
CONTINUOUS
 10
10.0096000858
 20
-11.523098705
 11
10.3095543943
 21
-11.523098705
  0
LINE
  5
27E
100
AcDbEntity
  8
RACCORDO
100
AcDbLine
 62
253
  6
CONTINUOUS
 10
-10.8629384398
 20
-11.5230986915
 11
-11.1628927484
 21
-11.5230986915
  0
LINE
  5
27F
100
AcDbEntity
  8
0
100
AcDbLine
 62
253
  6
CONTINUOUS
 10
7.473330823
 20
-11.4940411559
 11
6.6195676728
 21
-11.4940411559
  0
LINE
  5
280
100
AcDbEntity
  8
0
100
AcDbLine
 62
253
  6
CONTINUOUS
 10
3.073330823
 20
-11.4940411559
 11
2.173330823
 21
-11.4940411559
  0
LINE
  5
281
100
AcDbEntity
  8
0
100
AcDbLine
 62
253
  6
CONTINUOUS
 10
-3.026669177
 20
-11.4940411559
 11
-3.926669177
 21
-11.4940411559
  0
LINE
  5
282
100
AcDbEntity
  8
0
100
AcDbLine
 62
253
  6
CONTINUOUS
 10
-7.4729060269
 20
-11.4940411559
 11
-8.326669177
 21
-11.4940411559
  0
LINE
  5
283
100
AcDbEntity
  8
0
100
AcDbLine
 62
253
  6
CONTINUOUS
 10
7.473330823
 20
-11.0940411559
 11
6.573330823
 21
-11.0940411559
  0
LINE
  5
284
100
AcDbEntity
  8
0
100
AcDbLine
 62
253
  6
CONTINUOUS
 10
3.073330823
 20
-11.0940411559
 11
2.173330823
 21
-11.0940411559
  0
LINE
  5
285
100
AcDbEntity
  8
0
100
AcDbLine
 62
253
  6
CONTINUOUS
 10
-3.026669177
 20
-11.0940411559
 11
-3.926669177
 21
-11.0940411559
  0
LINE
  5
286
100
AcDbEntity
  8
0
100
AcDbLine
 62
253
  6
CONTINUOUS
 10
-7.426669177
 20
-11.0940411559
 11
-8.326669177
 21
-11.0940411559
  0
LINE
  5
287
100
AcDbEntity
  8
0
100
AcDbLine
 62
253
  6
CONTINUOUS
 10
7.473330823
 20
-11.0440411559
 11
6.573330823
 21
-11.0440411559
  0
LINE
  5
288
100
AcDbEntity
  8
0
100
AcDbLine
 62
253
  6
CONTINUOUS
 10
3.073330823
 20
-11.0440411559
 11
2.173330823
 21
-11.0440411559
  0
LINE
  5
289
100
AcDbEntity
  8
0
100
AcDbLine
 62
253
  6
CONTINUOUS
 10
-3.026669177
 20
-11.0440411559
 11
-3.926669177
 21
-11.0440411559
  0
LINE
  5
28A
100
AcDbEntity
  8
0
100
AcDbLine
 62
253
  6
CONTINUOUS
 10
-7.426669177
 20
-11.0440411559
 11
-8.326669177
 21
-11.0440411559
  0
LINE
  5
28B
100
AcDbEntity
  8
0
100
AcDbLine
 62
7
  6
CONTINUOUS
 10
8.823330823
 20
-10.5940411559
 11
7.473330823
 21
-10.5940411559
  0
LINE
  5
28C
100
AcDbEntity
  8
0
100
AcDbLine
 62
7
  6
CONTINUOUS
 10
2.173330823
 20
-10.5940411559
 11
0.823330823
 21
-10.5940411559
  0
LINE
  5
28D
100
AcDbEntity
  8
0
100
AcDbLine
 62
7
  6
CONTINUOUS
 10
-1.676669177
 20
-10.5940411559
 11
-3.026669177
 21
-10.5940411559
  0
LINE
  5
28E
100
AcDbEntity
  8
0
100
AcDbLine
 62
7
  6
CONTINUOUS
 10
-8.326669177
 20
-10.5940411559
 11
-9.676669177
 21
-10.5940411559
  0
LINE
  5
28F
100
AcDbEntity
  8
0
100
AcDbLine
 62
7
  6
CONTINUOUS
 10
2.5234789975
 20
-11.8278480082
 11
1.7685344358
 21
-11.6368176661
  0
LINE
  5
290
100
AcDbEntity
  8
RACCORDO
100
AcDbLine
 62
253
  6
CONTINUOUS
 10
9.7707726071
 20
-16.9231457316
 11
10.1376336035
 21
-17.0751045318
  0
LINE
  5
291
100
AcDbEntity
  8
DRAFT
100
AcDbLine
 62
7
  6
CONTINUOUS
 10
2.0208649007
 20
-16.0312623506
 11
2.0734355345
 21
-16.0663089456
  0
LINE
  5
292
100
AcDbEntity
  8
0
100
AcDbLine
 62
253
  6
CONTINUOUS
 10
10.2150466447
 20
-20.3835894825
 11
10.2237735125
 21
-20.3894073123
  0
LINE
  5
293
100
AcDbEntity
  8
0
100
AcDbLine
 62
7
  6
CONTINUOUS
 10
3.9796801761
 20
-21.9457566654
 11
4.023330823
 21
-21.9894073123
  0
LINE
  5
294
100
AcDbEntity
  8
0
100
AcDbLine
 62
7
  6
CONTINUOUS
 10
4.023330823
 20
-20.3894073123
 11
3.9794085759
 21
-20.3454850653
  0
LINE
  5
295
100
AcDbEntity
  8
RACCORDO
100
AcDbLine
 62
253
  6
CONTINUOUS
 10
-10.07418251
 20
-7.3491547024
 11
-10.2099604855
 21
-7.0829204254
  0
LINE
  5
296
100
AcDbEntity
  8
0
100
AcDbLine
 62
7
  6
CONTINUOUS
 10
-11.5771055204
 20
-19.8894242353
 11
-11.5771055204
 21
23.9106096107
  0
LINE
  5
297
100
AcDbEntity
  8
RACCORDO
100
AcDbLine
 62
7
  6
CONTINUOUS
 10
-11.576669177
 20
19.6822917364
 11
-11.576669177
 21
-15.661106361
  0
LINE
  5
298
100
AcDbEntity
  8
0
100
AcDbLine
 62
7
  6
CONTINUOUS
 10
-11.5683786526
 20
-19.8836064055
 11
-11.5683786526
 21
-16.4976978367
  0
LINE
  5
299
100
AcDbEntity
  8
0
100
AcDbLine
 62
7
  6
CONTINUOUS
 10
-11.5683786526
 20
20.5188832121
 11
-11.5683786526
 21
23.9047917809
  0
LINE
  5
29A
100
AcDbEntity
  8
0
100
AcDbLine
 62
7
  6
CONTINUOUS
 10
-11.5596517848
 20
20.5276100799
 11
-11.5596517848
 21
19.9415323101
  0
LINE
  5
29B
100
AcDbEntity
  8
0
100
AcDbLine
 62
7
  6
CONTINUOUS
 10
-11.5596517848
 20
-15.9203469347
 11
-11.5596517848
 21
-16.5064247045
  0
LINE
  5
29C
100
AcDbEntity
  8
RACCORDO
100
AcDbLine
 62
253
  6
CONTINUOUS
 10
-11.3791223105
 20
10.163198126
 11
-11.3791223105
 21
19.6004651451
  0
LINE
  5
29D
100
AcDbEntity
  8
RACCORDO
100
AcDbLine
 62
253
  6
CONTINUOUS
 10
-11.2098081807
 20
-15.5091475608
 11
-11.2098081807
 21
-11.8427668397
  0
LINE
  5
29E
100
AcDbEntity
  8
RACCORDO
100
AcDbLine
 62
253
  6
CONTINUOUS
 10
-11.2098081807
 20
-8.3360478471
 11
-11.2098081807
 21
1.6572330508
  0
LINE
  5
29F
100
AcDbEntity
  8
RACCORDO
100
AcDbLine
 62
253
  6
CONTINUOUS
 10
-11.2098081807
 20
5.1639521405
 11
-11.2098081807
 21
9.9938839961
  0
LINE
  5
2A0
100
AcDbEntity
  8
RACCORDO
100
AcDbLine
 62
253
  6
CONTINUOUS
 10
-11.1628927484
 20
4.8442840265
 11
-11.1628927484
 21
4.6983956553
  0
LINE
  5
2A1
100
AcDbEntity
  8
RACCORDO
100
AcDbLine
 62
253
  6
CONTINUOUS
 10
-11.1628927484
 20
2.1227897201
 11
-11.1628927484
 21
1.976901192
  0
LINE
  5
2A2
100
AcDbEntity
  8
RACCORDO
100
AcDbLine
 62
253
  6
CONTINUOUS
 10
-11.1628927484
 20
-8.6557159516
 11
-11.1628927484
 21
-8.8016043447
  0
LINE
  5
2A3
100
AcDbEntity
  8
RACCORDO
100
AcDbLine
 62
253
  6
CONTINUOUS
 10
-11.1628927484
 20
-11.3772102799
 11
-11.1628927484
 21
-11.5230986915
  0
LINE
  5
2A4
100
AcDbEntity
  8
0
100
AcDbLine
 62
253
  6
CONTINUOUS
 10
10.7237671664
 20
23.9106096107
 11
10.7150402986
 21
23.9047917809
  0
LINE
  5
2A5
100
AcDbEntity
  8
DRAFT
100
AcDbLine
 62
7
  6
CONTINUOUS
 10
-8.4791350993
 20
9.9524477259
 11
-8.4265644655
 21
9.9874943209
  0
LINE
  5
2A6
100
AcDbEntity
  8
RACCORDO
100
AcDbLine
 62
253
  6
CONTINUOUS
 10
10.723330823
 20
19.6822917364
 11
10.5257839564
 21
19.6004651451
  0
LINE
  5
2A7
100
AcDbEntity
  8
DRAFT
100
AcDbLine
 62
7
  6
CONTINUOUS
 10
-9.7241904239
 20
-8.8918860655
 11
-9.676669177
 21
-8.8918860655
  0
LINE
  5
2A8
100
AcDbEntity
  8
DRAFT
100
AcDbLine
 62
7
  6
CONTINUOUS
 10
8.823330823
 20
-8.8918860655
 11
8.8708520698
 21
-8.8918860655
  0
LINE
  5
2A9
100
AcDbEntity
  8
DRAFT
100
AcDbLine
 62
7
  6
CONTINUOUS
 10
-9.8917590472
 20
-8.7243174422
 11
-9.676669177
 21
-8.7243174422
  0
LINE
  5
2AA
100
AcDbEntity
  8
DRAFT
100
AcDbLine
 62
7
  6
CONTINUOUS
 10
8.823330823
 20
-8.7243174422
 11
9.0384206931
 21
-8.7243174422
  0
LINE
  5
2AB
100
AcDbEntity
  8
RACCORDO
100
AcDbLine
 62
253
  6
CONTINUOUS
 10
10.0096000858
 20
-8.6557159807
 11
10.3095543943
 21
-8.6557159807
  0
LINE
  5
2AC
100
AcDbEntity
  8
RACCORDO
100
AcDbLine
 62
253
  6
CONTINUOUS
 10
-10.8629384398
 20
-8.6557159516
 11
-11.1628927484
 21
-8.6557159516
  0
LINE
  5
2AD
100
AcDbEntity
  8
RACCORDO
100
AcDbLine
 62
253
  6
CONTINUOUS
 10
10.3564698266
 20
-15.5091475608
 11
10.723330823
 21
-15.661106361
  0
LINE
  5
2AE
100
AcDbEntity
  8
0
100
AcDbLine
 62
253
  6
CONTINUOUS
 10
10.7150402986
 20
-19.8836064055
 11
10.7237671664
 21
-19.8894242353
  0
LINE
  5
2AF
100
AcDbEntity
  8
RACCORDO
100
AcDbLine
 62
253
  6
CONTINUOUS
 10
-1.0624620973
 20
-11.6873066578
 11
-0.8240398186
 21
-11.8675041389
  0
LINE
  5
2B0
100
AcDbEntity
  8
RACCORDO
100
AcDbLine
 62
253
  6
CONTINUOUS
 10
-5.2908762568
 20
-8.4915079669
 11
-5.5292985355
 21
-8.3113104857
  0
LINE
  5
2B1
100
AcDbEntity
  8
RACCORDO
100
AcDbLine
 62
253
  6
CONTINUOUS
 10
-0.8099134062
 20
-12.0542215527
 11
-0.5799668801
 21
-12.2451167085
  0
LINE
  5
2B2
100
AcDbEntity
  8
RACCORDO
100
AcDbLine
 62
253
  6
CONTINUOUS
 10
-5.5434249478
 20
-8.1245930719
 11
-5.7733714739
 21
-7.9336979162
  0
LINE
  5
2B3
100
AcDbEntity
  8
0
100
AcDbLine
 62
253
  6
CONTINUOUS
 10
-2.3744140092
 20
-17.4961591177
 11
-2.9267738886
 21
-16.5394073123
  0
LINE
  5
2B4
100
AcDbEntity
  8
DRAFT
100
AcDbLine
 62
7
  6
CONTINUOUS
 10
-8.7586829349
 20
-10.5940411559
 11
-8.6887561229
 21
-11.5940411559
  0
LINE
  5
2B5
100
AcDbEntity
  8
RACCORDO
100
AcDbLine
 62
7
  6
CONTINUOUS
 10
-8.5557097492
 20
-10.5940411559
 11
-8.4857829373
 21
-11.5940411559
  0
LINE
  5
2B6
100
AcDbEntity
  8
RACCORDO
100
AcDbLine
 62
253
  6
CONTINUOUS
 10
-10.370701988
 20
11.1371757038
 11
-10.3792746153
 21
11.6370234338
  0
LINE
  5
2B7
100
AcDbEntity
  8
DRAFT
100
AcDbLine
 62
7
  6
CONTINUOUS
 10
-10.2136188117
 20
2.380997163
 11
-10.2322817808
 21
3.5275746283
  0
LINE
  5
2B8
100
AcDbEntity
  8
0
100
AcDbLine
 62
253
  6
CONTINUOUS
 10
-10.572297343
 20
-21.8337448796
 11
-10.576669177
 21
-21.3998924605
  0
LINE
  5
2B9
100
AcDbEntity
  8
0
100
AcDbLine
 62
253
  6
CONTINUOUS
 10
-10.3223015738
 20
-21.6172385287
 11
-10.3273921749
 21
-21.1120570431
  0
LINE
  5
2BA
100
AcDbEntity
  8
DRAFT
100
AcDbLine
 62
7
  6
CONTINUOUS
 10
-10.2612026639
 20
2.4558899412
 11
-10.2631475038
 21
3.611870403
  0
LINE
  5
2BB
100
AcDbEntity
  8
RACCORDO
100
AcDbLine
 62
7
  6
CONTINUOUS
 10
-9.9493150543
 20
-11.4319528365
 11
-9.9538253352
 21
-8.7511169679
  0
LINE
  5
2BC
100
AcDbEntity
  8
RACCORDO
100
AcDbLine
 62
253
  6
CONTINUOUS
 10
-10.8629384398
 20
4.8442840265
 11
-10.8629384398
 21
4.6895500092
  0
LINE
  5
2BD
100
AcDbEntity
  8
RACCORDO
100
AcDbLine
 62
253
  6
CONTINUOUS
 10
-10.8629384398
 20
2.1316353662
 11
-10.8629384398
 21
1.976901192
  0
LINE
  5
2BE
100
AcDbEntity
  8
RACCORDO
100
AcDbLine
 62
253
  6
CONTINUOUS
 10
-10.8629384398
 20
-8.6557159516
 11
-10.8629384398
 21
-8.8104499908
  0
LINE
  5
2BF
100
AcDbEntity
  8
RACCORDO
100
AcDbLine
 62
253
  6
CONTINUOUS
 10
-10.8629384398
 20
-11.3683646338
 11
-10.8629384398
 21
-11.5230986915
  0
LINE
  5
2C0
100
AcDbEntity
  8
0
100
AcDbLine
 62
7
  6
CONTINUOUS
 10
-10.576669177
 20
-20.3894073123
 11
-10.576669177
 21
-21.8337448796
  0
LINE
  5
2C1
100
AcDbEntity
  8
0
100
AcDbLine
 62
7
  6
CONTINUOUS
 10
-10.576669177
 20
24.4105926877
 11
-10.576669177
 21
25.854930255
  0
LINE
  5
2C2
100
AcDbEntity
  8
0
100
AcDbLine
 62
7
  6
CONTINUOUS
 10
-10.572297343
 20
26.2562250845
 11
-10.572297343
 21
25.854930255
  0
LINE
  5
2C3
100
AcDbEntity
  8
0
100
AcDbLine
 62
7
  6
CONTINUOUS
 10
-10.572297343
 20
-21.8337448796
 11
-10.572297343
 21
-22.2350397091
  0
LINE
  5
2C4
100
AcDbEntity
  8
RACCORDO
100
AcDbLine
 62
253
  6
CONTINUOUS
 10
-10.3792746153
 20
11.6370234338
 11
-10.3792746153
 21
19.6004651451
  0
LINE
  5
2C5
100
AcDbEntity
  8
RACCORDO
100
AcDbLine
 62
253
  6
CONTINUOUS
 10
-10.3535489672
 20
11.137320173
 11
-10.3535489672
 21
11.6372440206
  0
LINE
  5
2C6
100
AcDbEntity
  8
DRAFT
100
AcDbLine
 62
7
  6
CONTINUOUS
 10
-10.3494743198
 20
3.8739923658
 11
-10.3494743198
 21
2.6208067109
  0
LINE
  5
2C7
100
AcDbEntity
  8
0
100
AcDbLine
 62
253
  6
CONTINUOUS
 10
-10.3223015738
 20
-21.6172385287
 11
-10.3223015738
 21
-22.4850354783
  0
LINE
  5
2C8
100
AcDbEntity
  8
0
100
AcDbLine
 62
253
  6
CONTINUOUS
 10
-10.3223015738
 20
25.638423904
 11
-10.3223015738
 21
26.5062208537
  0
LINE
  5
2C9
100
AcDbEntity
  8
RACCORDO
100
AcDbLine
 62
253
  6
CONTINUOUS
 10
-10.2099578941
 20
-7.0829192024
 11
-10.2099578955
 21
0.4041045785
  0
LINE
  5
2CA
100
AcDbEntity
  8
RACCORDO
100
AcDbLine
 62
253
  6
CONTINUOUS
 10
-10.2099578941
 20
6.4170807976
 11
-10.2099604855
 21
10.9937316913
  0
LINE
  5
2CB
100
AcDbEntity
  8
RACCORDO
100
AcDbLine
 62
253
  6
CONTINUOUS
 10
-10.2099604855
 20
-15.5091475608
 11
-10.2099578955
 21
-13.0958954215
  0
LINE
  5
2CC
100
AcDbEntity
  8
0
100
AcDbLine
 62
7
  6
CONTINUOUS
 10
-10.176669177
 20
3.0091435008
 11
-10.176669177
 21
2.3279721696
  0
LINE
  5
2CD
100
AcDbEntity
  8
RACCORDO
100
AcDbLine
 62
7
  6
CONTINUOUS
 10
-9.8917590472
 20
-8.7243174422
 11
-9.8917590472
 21
-8.6945046914
  0
LINE
  5
2CE
100
AcDbEntity
  8
RACCORDO
100
AcDbLine
 62
253
  6
CONTINUOUS
 10
-9.7951622919
 20
21.5985756393
 11
-9.7951622919
 21
20.5987279441
  0
LINE
  5
2CF
100
AcDbEntity
  8
RACCORDO
100
AcDbLine
 62
253
  6
CONTINUOUS
 10
-9.725030083
 20
-17.4080761341
 11
-9.725030083
 21
-16.4082284389
  0
LINE
  5
2D0
100
AcDbEntity
  8
RACCORDO
100
AcDbLine
 62
7
  6
CONTINUOUS
 10
-9.7241904239
 20
-11.5940411559
 11
-9.7241904239
 21
-8.8918860655
  0
LINE
  5
2D1
100
AcDbEntity
  8
0
100
AcDbLine
 62
7
  6
CONTINUOUS
 10
-9.7232648419
 20
3.0091435008
 11
-9.7232648419
 21
3.27160536
  0
LINE
  5
2D2
100
AcDbEntity
  8
0
100
AcDbLine
 62
7
  6
CONTINUOUS
 10
-9.676669177
 20
-8.5331169267
 11
-9.676669177
 21
-10.5940411559
  0
LINE
  5
2D3
100
AcDbEntity
  8
0
100
AcDbLine
 62
253
  6
CONTINUOUS
 10
-9.4435005497
 20
3.3105926877
 11
-9.4435005497
 21
5.0940528074
  0
LINE
  5
2D4
100
AcDbEntity
  8
0
100
AcDbLine
 62
253
  6
CONTINUOUS
 10
-10.576669177
 20
25.4210778359
 11
-10.572297343
 21
25.854930255
  0
LINE
  5
2D5
100
AcDbEntity
  8
0
100
AcDbLine
 62
253
  6
CONTINUOUS
 10
-10.3273921749
 20
25.1332424185
 11
-10.3223015738
 21
25.638423904
  0
LINE
  5
2D6
100
AcDbEntity
  8
DRAFT
100
AcDbLine
 62
7
  6
CONTINUOUS
 10
5.323330823
 20
21.9105926877
 11
5.2343099918
 21
21.8215718566
  0
LINE
  5
2D7
100
AcDbEntity
  8
DRAFT
100
AcDbLine
 62
7
  6
CONTINUOUS
 10
5.323330823
 20
21.7105926877
 11
5.2343099918
 21
21.6215718566
  0
LINE
  5
2D8
100
AcDbEntity
  8
RACCORDO
100
AcDbLine
 62
7
  6
CONTINUOUS
 10
3.7596334581
 20
20.1169160558
 11
3.728310271
 21
20.0855928686
  0
LINE
  5
2D9
100
AcDbEntity
  8
RACCORDO
100
AcDbLine
 62
7
  6
CONTINUOUS
 10
0.0675118627
 20
16.4247944603
 11
0.098330642
 21
16.4556132397
  0
LINE
  5
2DA
100
AcDbEntity
  8
RACCORDO
100
AcDbLine
 62
253
  6
CONTINUOUS
 10
3.7281354929
 20
20.0653897422
 11
3.673330823
 21
20.0105850723
  0
LINE
  5
2DB
100
AcDbEntity
  8
RACCORDO
100
AcDbLine
 62
253
  6
CONTINUOUS
 10
0.1185337684
 20
16.4557880178
 11
0.1733384384
 21
16.5105926877
  0
LINE
  5
2DC
100
AcDbEntity
  8
RACCORDO
100
AcDbLine
 62
253
  6
CONTINUOUS
 10
3.9263826369
 20
19.863652117
 11
3.8733232076
 21
19.8105926877
  0
LINE
  5
2DD
100
AcDbEntity
  8
RACCORDO
100
AcDbLine
 62
253
  6
CONTINUOUS
 10
0.3202713937
 20
16.2575408738
 11
0.373330823
 21
16.3106003031
  0
LINE
  5
2DE
100
AcDbEntity
  8
DRAFT
100
AcDbLine
 62
7
  6
CONTINUOUS
 10
7.0588606411
 20
22.8605926877
 11
6.973330823
 21
22.7750628695
  0
LINE
  5
2DF
100
AcDbEntity
  8
DRAFT
100
AcDbLine
 62
7
  6
CONTINUOUS
 10
5.2343099918
 20
-17.8003864812
 11
5.323330823
 21
-17.8894073123
  0
LINE
  5
2E0
100
AcDbEntity
  8
DRAFT
100
AcDbLine
 62
7
  6
CONTINUOUS
 10
5.323330823
 20
-17.6894073123
 11
5.2343099918
 21
-17.6003864812
  0
LINE
  5
2E1
100
AcDbEntity
  8
DRAFT
100
AcDbLine
 62
7
  6
CONTINUOUS
 10
7.0588606411
 20
-18.8394073123
 11
6.973330823
 21
-18.7538774942
  0
LINE
  5
2E2
100
AcDbEntity
  8
RACCORDO
100
AcDbLine
 62
7
  6
CONTINUOUS
 10
-10.2603983848
 20
3.6034859065
 11
-10.4095206655
 21
4.0582917009
  0
LINE
  5
2E3
100
AcDbEntity
  8
RACCORDO
100
AcDbLine
 62
7
  6
CONTINUOUS
 10
-8.7783802045
 20
10.9937316913
 11
-8.7851964532
 21
11.0817851647
  0
LINE
  5
2E4
100
AcDbEntity
  8
0
100
AcDbLine
 62
253
  6
CONTINUOUS
 10
-7.9310367802
 20
25.638423904
 11
-7.9259461792
 21
25.1332424185
  0
LINE
  5
2E5
100
AcDbEntity
  8
0
100
AcDbLine
 62
253
  6
CONTINUOUS
 10
-7.681041011
 20
25.854930255
 11
-7.676669177
 21
25.4210778359
  0
LINE
  5
2E6
100
AcDbEntity
  8
0
100
AcDbLine
 62
7
  6
CONTINUOUS
 10
-9.0748959044
 20
-11.5940411559
 11
-9.0748959044
 21
-11.8959256634
  0
LINE
  5
2E7
100
AcDbEntity
  8
0
100
AcDbLine
 62
7
  6
CONTINUOUS
 10
-9.026669177
 20
5.1905926877
 11
-9.026669177
 21
5.2271071829
  0
LINE
  5
2E8
100
AcDbEntity
  8
0
100
AcDbLine
 62
7
  6
CONTINUOUS
 10
-8.886669177
 20
1.5726010887
 11
-8.886669177
 21
3.3105926877
  0
LINE
  5
2E9
100
AcDbEntity
  8
0
100
AcDbLine
 62
253
  6
CONTINUOUS
 10
-8.876669177
 20
3.3105926877
 11
-8.876669177
 21
5.1905926877
  0
LINE
  5
2EA
100
AcDbEntity
  8
0
100
AcDbLine
 62
7
  6
CONTINUOUS
 10
-8.876669177
 20
5.1905926877
 11
-8.876669177
 21
5.249635329
  0
LINE
  5
2EB
100
AcDbEntity
  8
RACCORDO
100
AcDbLine
 62
7
  6
CONTINUOUS
 10
-8.4791350993
 20
9.9938839961
 11
-8.4791350993
 21
9.9524477259
  0
LINE
  5
2EC
100
AcDbEntity
  8
RACCORDO
100
AcDbLine
 62
7
  6
CONTINUOUS
 10
-8.4791350993
 20
-16.4082284389
 11
-8.4791350993
 21
-16.0312623506
  0
LINE
  5
2ED
100
AcDbEntity
  8
RACCORDO
100
AcDbLine
 62
7
  6
CONTINUOUS
 10
-8.426669177
 20
-18.8894073123
 11
-8.426669177
 21
-19.6394073123
  0
LINE
  5
2EE
100
AcDbEntity
  8
RACCORDO
100
AcDbLine
 62
7
  6
CONTINUOUS
 10
-8.426669177
 20
22.9105926877
 11
-8.426669177
 21
23.6605926877
  0
LINE
  5
2EF
100
AcDbEntity
  8
0
100
AcDbLine
 62
253
  6
CONTINUOUS
 10
-8.4265644655
 20
-16.0663089456
 11
-8.4265644655
 21
-16.5394073123
  0
LINE
  5
2F0
100
AcDbEntity
  8
0
100
AcDbLine
 62
253
  6
CONTINUOUS
 10
-8.4265644655
 20
9.9874943209
 11
-8.4265644655
 21
10.4605926877
  0
LINE
  5
2F1
100
AcDbEntity
  8
0
100
AcDbLine
 62
7
  6
CONTINUOUS
 10
-8.326669177
 20
-8.2728926566
 11
-8.326669177
 21
-10.5940411559
  0
LINE
  5
2F2
100
AcDbEntity
  8
0
100
AcDbLine
 62
7
  6
CONTINUOUS
 10
-8.326669177
 20
-11.5940411559
 11
-8.326669177
 21
-11.0440411559
  0
LINE
  5
2F3
100
AcDbEntity
  8
ASSI
100
AcDbLine
 62
7
  6
CONTINUOUS
 10
-8.326669177
 20
-11.0440411559
 11
-8.326669177
 21
-10.5940411559
  0
LINE
  5
2F4
100
AcDbEntity
  8
ASSI
100
AcDbLine
 62
253
  6
CONTINUOUS
 10
-8.2606937438
 20
-18.8894073123
 11
-8.2606937438
 21
-19.8053827456
  0
LINE
  5
2F5
100
AcDbEntity
  8
ASSI
100
AcDbLine
 62
253
  6
CONTINUOUS
 10
-8.2606937438
 20
22.9105926877
 11
-8.2606937438
 21
23.8265681209
  0
LINE
  5
2F6
100
AcDbEntity
  8
0
100
AcDbLine
 62
253
  6
CONTINUOUS
 10
-7.9310367802
 20
-21.6172385287
 11
-7.9310367802
 21
-22.4850354783
  0
LINE
  5
2F7
100
AcDbEntity
  8
0
100
AcDbLine
 62
253
  6
CONTINUOUS
 10
-7.9310367802
 20
25.638423904
 11
-7.9310367802
 21
26.5062208537
  0
LINE
  5
2F8
100
AcDbEntity
  8
DRAFT
100
AcDbLine
 62
7
  6
CONTINUOUS
 10
-7.9156900082
 20
-18.664856663
 11
-7.9156900082
 21
-17.6003864812
  0
LINE
  5
2F9
100
AcDbEntity
  8
DRAFT
100
AcDbLine
 62
7
  6
CONTINUOUS
 10
-7.9156900082
 20
21.6215718566
 11
-7.9156900082
 21
22.6860420384
  0
LINE
  5
2FA
100
AcDbEntity
  8
0
100
AcDbLine
 62
7
  6
CONTINUOUS
 10
-7.876669177
 20
2.2992678223
 11
-7.876669177
 21
1.7426055057
  0
LINE
  5
2FB
100
AcDbEntity
  8
DRAFT
100
AcDbLine
 62
7
  6
CONTINUOUS
 10
-7.826669177
 20
-18.7538774942
 11
-7.826669177
 21
-17.6894073123
  0
LINE
  5
2FC
100
AcDbEntity
  8
DRAFT
100
AcDbLine
 62
7
  6
CONTINUOUS
 10
-7.826669177
 20
21.7105926877
 11
-7.826669177
 21
22.7750628695
  0
LINE
  5
2FD
100
AcDbEntity
  8
RACCORDO
100
AcDbLine
 62
253
  6
CONTINUOUS
 10
-7.7607698962
 20
23.3465796363
 11
-7.7607698962
 21
22.7495083904
  0
LINE
  5
2FE
100
AcDbEntity
  8
RACCORDO
100
AcDbLine
 62
253
  6
CONTINUOUS
 10
-7.7607698962
 20
-18.728323015
 11
-7.7607698962
 21
-19.325394261
  0
LINE
  5
2FF
100
AcDbEntity
  8
RACCORDO
100
AcDbLine
 62
7
  6
CONTINUOUS
 10
-7.726669177
 20
-18.5894073123
 11
-7.726669177
 21
-18.0894073123
  0
LINE
  5
300
100
AcDbEntity
  8
RACCORDO
100
AcDbLine
 62
7
  6
CONTINUOUS
 10
-7.726669177
 20
22.1105926877
 11
-7.726669177
 21
22.6105926877
  0
LINE
  5
301
100
AcDbEntity
  8
0
100
AcDbLine
 62
7
  6
CONTINUOUS
 10
-7.681041011
 20
-22.2350397091
 11
-7.681041011
 21
-21.8337448796
  0
LINE
  5
302
100
AcDbEntity
  8
0
100
AcDbLine
 62
7
  6
CONTINUOUS
 10
-7.681041011
 20
25.854930255
 11
-7.681041011
 21
26.2562250845
  0
LINE
  5
303
100
AcDbEntity
  8
0
100
AcDbLine
 62
7
  6
CONTINUOUS
 10
-7.676669177
 20
-20.3894073123
 11
-7.676669177
 21
-21.8337448796
  0
LINE
  5
304
100
AcDbEntity
  8
0
100
AcDbLine
 62
7
  6
CONTINUOUS
 10
-7.676669177
 20
24.4105926877
 11
-7.676669177
 21
25.854930255
  0
LINE
  5
305
100
AcDbEntity
  8
0
100
AcDbLine
 62
7
  6
CONTINUOUS
 10
-7.426669177
 20
4.774338452
 11
-7.426669177
 21
2.0468469234
  0
LINE
  5
306
100
AcDbEntity
  8
0
100
AcDbLine
 62
7
  6
CONTINUOUS
 10
-7.426669177
 20
-11.4531540788
 11
-7.426669177
 21
-8.7256605458
  0
LINE
  5
307
100
AcDbEntity
  8
0
100
AcDbLine
 62
253
  6
CONTINUOUS
 10
-7.9259461792
 20
-21.1120570431
 11
-7.9310367802
 21
-21.6172385287
  0
LINE
  5
308
100
AcDbEntity
  8
0
100
AcDbLine
 62
253
  6
CONTINUOUS
 10
-7.676669177
 20
-21.3998924605
 11
-7.681041011
 21
-21.8337448796
  0
LINE
  5
309
100
AcDbEntity
  8
RACCORDO
100
AcDbLine
 62
7
  6
CONTINUOUS
 10
-8.9721058118
 20
-17.4080761341
 11
-8.9789243449
 21
-17.4961591177
  0
LINE
  5
30A
100
AcDbEntity
  8
RACCORDO
100
AcDbLine
 62
253
  6
CONTINUOUS
 10
-10.07418251
 20
0.6703400778
 11
-10.2099604855
 21
0.4041058008
  0
LINE
  5
30B
100
AcDbEntity
  8
RACCORDO
100
AcDbLine
 62
7
  6
CONTINUOUS
 10
-0.126669177
 20
16.5105926877
 11
-0.1854176093
 21
16.4215786362
  0
LINE
  5
30C
100
AcDbEntity
  8
RACCORDO
100
AcDbLine
 62
253
  6
CONTINUOUS
 10
-0.1628207961
 20
12.2744327754
 11
-0.1871554562
 21
12.2501004165
  0
LINE
  5
30D
100
AcDbEntity
  8
RACCORDO
100
AcDbLine
 62
253
  6
CONTINUOUS
 10
4.4375379027
 20
-11.6873066578
 11
4.6759601814
 21
-11.8675041389
  0
LINE
  5
30E
100
AcDbEntity
  8
RACCORDO
100
AcDbLine
 62
253
  6
CONTINUOUS
 10
0.2091237432
 20
-8.4915079669
 11
-0.0292985355
 21
-8.3113104857
  0
LINE
  5
30F
100
AcDbEntity
  8
RACCORDO
100
AcDbLine
 62
253
  6
CONTINUOUS
 10
4.6900865938
 20
-12.0542215527
 11
4.9200331199
 21
-12.2451167085
  0
LINE
  5
310
100
AcDbEntity
  8
RACCORDO
100
AcDbLine
 62
253
  6
CONTINUOUS
 10
-0.0434249478
 20
-8.1245930719
 11
-0.2733714739
 21
-7.9336979162
  0
LINE
  5
311
100
AcDbEntity
  8
0
100
AcDbLine
 62
7
  6
CONTINUOUS
 10
-9.726669177
 20
3.2852123325
 11
-9.7232648419
 21
3.27160536
  0
LINE
  5
312
100
AcDbEntity
  8
0
100
AcDbLine
 62
7
  6
CONTINUOUS
 10
-9.1498850653
 20
5.1989927237
 11
-9.1479565438
 21
5.1905926877
  0
LINE
  5
313
100
AcDbEntity
  8
0
100
AcDbLine
 62
7
  6
CONTINUOUS
 10
-7.058608177
 20
4.307271772
 11
-7.058608177
 21
2.5139136034
  0
LINE
  5
314
100
AcDbEntity
  8
0
100
AcDbLine
 62
7
  6
CONTINUOUS
 10
-7.058608177
 20
-10.9860851133
 11
-7.058608177
 21
-9.1927295114
  0
LINE
  5
315
100
AcDbEntity
  8
DRAFT
100
AcDbLine
 62
7
  6
CONTINUOUS
 10
-6.176669177
 20
21.9105926877
 11
-6.176669177
 21
21.7105926877
  0
LINE
  5
316
100
AcDbEntity
  8
DRAFT
100
AcDbLine
 62
7
  6
CONTINUOUS
 10
-6.176669177
 20
-17.6894073123
 11
-6.176669177
 21
-17.8894073123
  0
LINE
  5
317
100
AcDbEntity
  8
DRAFT
100
AcDbLine
 62
7
  6
CONTINUOUS
 10
-6.0876483459
 20
21.8215718566
 11
-6.0876483459
 21
21.6215718566
  0
LINE
  5
318
100
AcDbEntity
  8
DRAFT
100
AcDbLine
 62
7
  6
CONTINUOUS
 10
-6.0876483459
 20
-17.6003864812
 11
-6.0876483459
 21
-17.8003864812
  0
LINE
  5
319
100
AcDbEntity
  8
0
100
AcDbLine
 62
253
  6
CONTINUOUS
 10
-2.9267738886
 20
10.4605926877
 11
-2.5681419009
 21
11.0817851647
  0
LINE
  5
31A
100
AcDbEntity
  8
SMUSSO
100
AcDbLine
 62
7
  6
CONTINUOUS
 10
-0.126669177
 20
12.5234373592
 11
-0.1616878986
 21
12.4739604197
  0
LINE
  5
31B
100
AcDbEntity
  8
RACCORDO
100
AcDbLine
 62
253
  6
CONTINUOUS
 10
-0.2013545472
 20
11.6372440206
 11
-0.0085370244
 21
11.8670602879
  0
LINE
  5
31C
100
AcDbEntity
  8
RACCORDO
100
AcDbLine
 62
253
  6
CONTINUOUS
 10
9.6488230232
 20
21.3057270295
 11
8.9418239378
 21
20.5987279441
  0
LINE
  5
31D
100
AcDbEntity
  8
RACCORDO
100
AcDbLine
 62
253
  6
CONTINUOUS
 10
0.3370367334
 20
11.7743068913
 11
0.3127097875
 21
11.7499783984
  0
LINE
  5
31E
100
AcDbEntity
  8
RACCORDO
100
AcDbLine
 62
253
  6
CONTINUOUS
 10
8.9433391162
 20
20.2105926877
 11
9.0038211724
 21
20.2710765403
  0
LINE
  5
31F
100
AcDbEntity
  8
RACCORDO
100
AcDbLine
 62
253
  6
CONTINUOUS
 10
9.9400867369
 20
21.0144633159
 11
9.4636538542
 21
20.5380304331
  0
LINE
  5
320
100
AcDbEntity
  8
RACCORDO
100
AcDbLine
 62
253
  6
CONTINUOUS
 10
9.443330823
 20
19.7106009809
 11
9.5034579392
 21
19.7707258502
  0
LINE
  5
321
100
AcDbEntity
  8
RACCORDO
100
AcDbLine
 62
253
  6
CONTINUOUS
 10
-6.3099134065
 20
5.3754069284
 11
-6.0799668799
 21
5.5663020847
  0
LINE
  5
322
100
AcDbEntity
  8
RACCORDO
100
AcDbLine
 62
253
  6
CONTINUOUS
 10
-6.5624620967
 20
5.0084920356
 11
-6.3240398193
 21
5.1886895186
  0
LINE
  5
323
100
AcDbEntity
  8
RACCORDO
100
AcDbLine
 62
253
  6
CONTINUOUS
 10
-10.8247035677
 20
1.8584643974
 11
-11.0669405899
 21
1.6834286007
  0
LINE
  5
324
100
AcDbEntity
  8
DRAFT
100
AcDbLine
 62
7
  6
CONTINUOUS
 10
2.0208649007
 20
9.9524477259
 11
2.0734355345
 21
9.9874943209
  0
LINE
  5
325
100
AcDbEntity
  8
RACCORDO
100
AcDbLine
 62
253
  6
CONTINUOUS
 10
8.871691729
 20
-16.4082284389
 11
9.5786908144
 21
-17.1152275243
  0
LINE
  5
326
100
AcDbEntity
  8
RACCORDO
100
AcDbLine
 62
253
  6
CONTINUOUS
 10
9.0637735217
 20
-16.2161466462
 11
9.7707726071
 21
-16.9231457316
  0
LINE
  5
327
100
AcDbEntity
  8
RACCORDO
100
AcDbLine
 62
253
  6
CONTINUOUS
 10
-10.07418251
 20
6.1508452976
 11
-10.2099604855
 21
6.4170795746
  0
LINE
  5
328
100
AcDbEntity
  8
0
100
AcDbLine
 62
253
  6
CONTINUOUS
 10
-2.9250006544
 20
-11.7135208077
 11
-2.898791303
 21
-11.8170991559
  0
LINE
  5
329
100
AcDbEntity
  8
0
100
AcDbLine
 62
7
  6
CONTINUOUS
 10
-2.6973070232
 20
-11.7723571925
 11
-2.7250006544
 21
-11.6629130275
  0
LINE
  5
32A
100
AcDbEntity
  8
0
100
AcDbLine
 62
7
  6
CONTINUOUS
 10
-2.6218727899
 20
-11.6368176661
 11
-2.5957427943
 21
-11.7400824032
  0
LINE
  5
32B
100
AcDbEntity
  8
RACCORDO
100
AcDbLine
 62
7
  6
CONTINUOUS
 10
-2.3812325423
 20
-17.4080761341
 11
-2.3744140092
 21
-17.4961591177
  0
LINE
  5
32C
100
AcDbEntity
  8
0
100
AcDbLine
 62
7
  6
CONTINUOUS
 10
-4.876669177
 20
26.0105926877
 11
-4.876669177
 21
25.3785376349
  0
LINE
  5
32D
100
AcDbEntity
  8
0
100
AcDbLine
 62
7
  6
CONTINUOUS
 10
-4.876669177
 20
24.9426477405
 11
-4.876669177
 21
24.4105926877
  0
LINE
  5
32E
100
AcDbEntity
  8
0
100
AcDbLine
 62
7
  6
CONTINUOUS
 10
-4.876669177
 20
-20.3894073123
 11
-4.876669177
 21
-20.9214623651
  0
LINE
  5
32F
100
AcDbEntity
  8
0
100
AcDbLine
 62
7
  6
CONTINUOUS
 10
-4.876669177
 20
-21.3573522595
 11
-4.876669177
 21
-21.9894073123
  0
LINE
  5
330
100
AcDbEntity
  8
0
100
AcDbLine
 62
7
  6
CONTINUOUS
 10
-4.83274693
 20
25.9644849607
 11
-4.83274693
 21
24.3666704406
  0
LINE
  5
331
100
AcDbEntity
  8
0
100
AcDbLine
 62
7
  6
CONTINUOUS
 10
-4.83274693
 20
-20.3454850653
 11
-4.83274693
 21
-21.9432995854
  0
LINE
  5
332
100
AcDbEntity
  8
0
100
AcDbLine
 62
7
  6
CONTINUOUS
 10
-4.294730177
 20
4.756790927
 11
-4.294730177
 21
2.0643944483
  0
LINE
  5
333
100
AcDbEntity
  8
0
100
AcDbLine
 62
7
  6
CONTINUOUS
 10
-4.294730177
 20
-11.4356055517
 11
-4.294730177
 21
-8.743209073
  0
LINE
  5
334
100
AcDbEntity
  8
0
100
AcDbLine
 62
7
  6
CONTINUOUS
 10
-3.926669177
 20
4.9916012439
 11
-3.926669177
 21
1.8295841314
  0
LINE
  5
335
100
AcDbEntity
  8
0
100
AcDbLine
 62
7
  6
CONTINUOUS
 10
-3.926669177
 20
-20.3455003992
 11
-3.926669177
 21
-21.9435552564
  0
LINE
  5
336
100
AcDbEntity
  8
0
100
AcDbLine
 62
7
  6
CONTINUOUS
 10
-3.926669177
 20
-21.9457566654
 11
-3.926669177
 21
-21.9835894825
  0
LINE
  5
337
100
AcDbEntity
  8
0
100
AcDbLine
 62
7
  6
CONTINUOUS
 10
-3.926669177
 20
-11.6704158686
 11
-3.926669177
 21
-8.5083987561
  0
LINE
  5
338
100
AcDbEntity
  8
0
100
AcDbLine
 62
7
  6
CONTINUOUS
 10
-3.926669177
 20
24.3666857746
 11
-3.926669177
 21
26.0047748579
  0
LINE
  5
339
100
AcDbEntity
  8
0
100
AcDbLine
 62
7
  6
CONTINUOUS
 10
-8.7314655642
 20
-11.6368176661
 11
-8.8068684356
 21
-11.9348069125
  0
LINE
  5
33A
100
AcDbEntity
  8
0
100
AcDbLine
 62
7
  6
CONTINUOUS
 10
-8.6283376997
 20
-11.6629130275
 11
-8.6969997686
 21
-11.9342628818
  0
LINE
  5
33B
100
AcDbEntity
  8
0
100
AcDbLine
 62
253
  6
CONTINUOUS
 10
-8.4283376997
 20
-11.7135208077
 11
-8.4828885056
 21
-11.9291034938
  0
LINE
  5
33C
100
AcDbEntity
  8
RACCORDO
100
AcDbLine
 62
253
  6
CONTINUOUS
 10
5.9953930442
 20
18.4196817455
 11
6.0409773536
 21
18.4846335377
  0
LINE
  5
33D
100
AcDbEntity
  8
RACCORDO
100
AcDbLine
 62
253
  6
CONTINUOUS
 10
8.0263902522
 20
15.7636445016
 11
7.973330823
 21
15.7105850723
  0
LINE
  5
33E
100
AcDbEntity
  8
RACCORDO
100
AcDbLine
 62
253
  6
CONTINUOUS
 10
8.2281278775
 20
15.5653973576
 11
8.1733232076
 21
15.5105926877
  0
LINE
  5
33F
100
AcDbEntity
  8
RACCORDO
100
AcDbLine
 62
253
  6
CONTINUOUS
 10
9.9713652433
 20
-11.6415355063
 11
10.2136022973
 21
-11.8165713109
  0
LINE
  5
340
100
AcDbEntity
  8
RACCORDO
100
AcDbLine
 62
253
  6
CONTINUOUS
 10
-10.8247036126
 20
4.9627208337
 11
-11.0669406823
 21
5.137756642
  0
LINE
  5
341
100
AcDbEntity
  8
RACCORDO
100
AcDbLine
 62
253
  6
CONTINUOUS
 10
5.7091237361
 20
-8.4915079924
 11
5.4707014478
 21
-8.3113105051
  0
LINE
  5
342
100
AcDbEntity
  8
RACCORDO
100
AcDbLine
 62
253
  6
CONTINUOUS
 10
-6.5624620901
 20
1.8126933678
 11
-6.3240398019
 21
1.6324958805
  0
LINE
  5
343
100
AcDbEntity
  8
RACCORDO
100
AcDbLine
 62
253
  6
CONTINUOUS
 10
-6.3099134184
 20
1.4457784334
 11
-6.079966888
 21
1.2548832711
  0
LINE
  5
344
100
AcDbEntity
  8
RACCORDO
100
AcDbLine
 62
253
  6
CONTINUOUS
 10
5.4565750643
 20
-8.124593058
 11
5.226628534
 21
-7.9336978957
  0
LINE
  5
345
100
AcDbEntity
  8
RACCORDO
100
AcDbLine
 62
253
  6
CONTINUOUS
 10
-2.8278378851
 20
-17.9894073123
 11
-2.8281934119
 21
-17.8738939919
  0
LINE
  5
346
100
AcDbEntity
  8
0
100
AcDbLine
 62
7
  6
CONTINUOUS
 10
-3.476669177
 20
2.2992678223
 11
-3.476669177
 21
1.7219175531
  0
LINE
  5
347
100
AcDbEntity
  8
0
100
AcDbLine
 62
7
  6
CONTINUOUS
 10
-3.426669177
 20
-20.3430623322
 11
-3.426669177
 21
-18.7894073123
  0
LINE
  5
348
100
AcDbEntity
  8
0
100
AcDbLine
 62
7
  6
CONTINUOUS
 10
-3.426669177
 20
22.8105926877
 11
-3.426669177
 21
24.3642477076
  0
LINE
  5
349
100
AcDbEntity
  8
0
100
AcDbLine
 62
7
  6
CONTINUOUS
 10
-3.026669177
 20
-8.3459671217
 11
-3.026669177
 21
-10.5940411559
  0
LINE
  5
34A
100
AcDbEntity
  8
0
100
AcDbLine
 62
7
  6
CONTINUOUS
 10
-3.026669177
 20
-11.5940411559
 11
-3.026669177
 21
-11.0440411559
  0
LINE
  5
34B
100
AcDbEntity
  8
ASSI
100
AcDbLine
 62
7
  6
CONTINUOUS
 10
-3.026669177
 20
-11.0440411559
 11
-3.026669177
 21
-10.5940411559
  0
LINE
  5
34C
100
AcDbEntity
  8
0
100
AcDbLine
 62
253
  6
CONTINUOUS
 10
-2.9267738886
 20
-16.0663089456
 11
-2.9267738886
 21
-16.5394073123
  0
LINE
  5
34D
100
AcDbEntity
  8
0
100
AcDbLine
 62
253
  6
CONTINUOUS
 10
-2.9267738886
 20
9.9874943209
 11
-2.9267738886
 21
10.4605926877
  0
LINE
  5
34E
100
AcDbEntity
  8
RACCORDO
100
AcDbLine
 62
7
  6
CONTINUOUS
 10
-2.8742032547
 20
9.9938839961
 11
-2.8742032547
 21
9.9524477259
  0
LINE
  5
34F
100
AcDbEntity
  8
RACCORDO
100
AcDbLine
 62
7
  6
CONTINUOUS
 10
-2.8742032547
 20
-16.4082284389
 11
-2.8742032547
 21
-16.0312623506
  0
LINE
  5
350
100
AcDbEntity
  8
0
100
AcDbLine
 62
253
  6
CONTINUOUS
 10
-2.476669177
 20
3.3105926877
 11
-2.476669177
 21
5.0143812837
  0
LINE
  5
351
100
AcDbEntity
  8
0
100
AcDbLine
 62
7
  6
CONTINUOUS
 10
-2.466669177
 20
1.8112275631
 11
-2.466669177
 21
3.3105926877
  0
LINE
  5
352
100
AcDbEntity
  8
RACCORDO
100
AcDbLine
 62
253
  6
CONTINUOUS
 10
-2.8281934119
 20
21.8950793673
 11
-2.8278378851
 21
22.0105926877
  0
LINE
  5
353
100
AcDbEntity
  8
RACCORDO
100
AcDbLine
 62
7
  6
CONTINUOUS
 10
-2.5749581496
 20
10.9937316913
 11
-2.5681419009
 21
11.0817851647
  0
LINE
  5
354
100
AcDbEntity
  8
RACCORDO
100
AcDbLine
 62
253
  6
CONTINUOUS
 10
-10.4320291684
 20
-17.1152275243
 11
-10.5116867224
 21
-17.3075378714
  0
LINE
  5
355
100
AcDbEntity
  8
RACCORDO
100
AcDbLine
 62
253
  6
CONTINUOUS
 10
-10.07418251
 20
-12.8296599222
 11
-10.2099604855
 21
-13.0958941992
  0
LINE
  5
356
100
AcDbEntity
  8
RACCORDO
100
AcDbLine
 62
253
  6
CONTINUOUS
 10
6.7894299655
 20
17.6267330242
 11
6.8049238701
 21
17.6488098503
  0
LINE
  5
357
100
AcDbEntity
  8
RACCORDO
100
AcDbLine
 62
253
  6
CONTINUOUS
 10
-5.5434249353
 20
1.4457784329
 11
-5.7733714663
 21
1.25488327
  0
LINE
  5
358
100
AcDbEntity
  8
RACCORDO
100
AcDbLine
 62
253
  6
CONTINUOUS
 10
-0.8099134065
 20
5.3754069284
 11
-0.5799668799
 21
5.5663020847
  0
LINE
  5
359
100
AcDbEntity
  8
RACCORDO
100
AcDbLine
 62
253
  6
CONTINUOUS
 10
-5.2908762644
 20
1.8126933657
 11
-5.5292985515
 21
1.6324958776
  0
LINE
  5
35A
100
AcDbEntity
  8
RACCORDO
100
AcDbLine
 62
253
  6
CONTINUOUS
 10
-1.0624620967
 20
5.0084920356
 11
-0.8240398193
 21
5.1886895186
  0
LINE
  5
35B
100
AcDbEntity
  8
RACCORDO
100
AcDbLine
 62
253
  6
CONTINUOUS
 10
-11.3791223105
 20
10.163198126
 11
-11.2098081807
 21
9.9938839961
  0
LINE
  5
35C
100
AcDbEntity
  8
0
100
AcDbLine
 62
253
  6
CONTINUOUS
 10
-8.4265644655
 20
10.4605926877
 11
-8.7851964532
 21
11.0817851647
  0
LINE
  5
35D
100
AcDbEntity
  8
0
100
AcDbLine
 62
253
  6
CONTINUOUS
 10
8.1255859908
 20
-17.4961591177
 11
7.5732261114
 21
-16.5394073123
  0
LINE
  5
35E
100
AcDbEntity
  8
RACCORDO
100
AcDbLine
 62
253
  6
CONTINUOUS
 10
-10.5116867224
 20
21.3287232468
 11
-10.5021613773
 21
21.3057270295
  0
LINE
  5
35F
100
AcDbEntity
  8
0
100
AcDbLine
 62
253
  6
CONTINUOUS
 10
-1.9098378044
 20
3.3105926877
 11
-1.9098378044
 21
4.6179090654
  0
LINE
  5
360
100
AcDbEntity
  8
0
100
AcDbLine
 62
7
  6
CONTINUOUS
 10
-1.676669177
 20
-9.1882083001
 11
-1.676669177
 21
-10.5940411559
  0
LINE
  5
361
100
AcDbEntity
  8
RACCORDO
100
AcDbLine
 62
7
  6
CONTINUOUS
 10
-1.6291479302
 20
-9.2725499174
 11
-1.6291479302
 21
-10.9062647073
  0
LINE
  5
362
100
AcDbEntity
  8
0
100
AcDbLine
 62
253
  6
CONTINUOUS
 10
-1.626669177
 20
-21.9894073123
 11
-1.626669177
 21
-21.9835894825
  0
LINE
  5
363
100
AcDbEntity
  8
0
100
AcDbLine
 62
253
  6
CONTINUOUS
 10
-1.626669177
 20
26.0047748579
 11
-1.626669177
 21
26.0105926877
  0
LINE
  5
364
100
AcDbEntity
  8
0
100
AcDbLine
 62
7
  6
CONTINUOUS
 10
-1.426669177
 20
-21.7835860978
 11
-1.426669177
 21
-20.3841712767
  0
LINE
  5
365
100
AcDbEntity
  8
0
100
AcDbLine
 62
7
  6
CONTINUOUS
 10
-1.426669177
 20
24.4053566521
 11
-1.426669177
 21
25.8047714732
  0
LINE
  5
366
100
AcDbEntity
  8
RACCORDO
100
AcDbLine
 62
253
  6
CONTINUOUS
 10
-0.4871504803
 20
12.2500981153
 11
-0.4871504803
 21
19.7710872601
  0
LINE
  5
367
100
AcDbEntity
  8
RACCORDO
100
AcDbLine
 62
253
  6
CONTINUOUS
 10
-0.1871554562
 20
12.2501004165
 11
-0.1871554562
 21
19.7710849707
  0
LINE
  5
368
100
AcDbEntity
  8
RACCORDO
100
AcDbLine
 62
7
  6
CONTINUOUS
 10
-0.1628207961
 20
12.2744327754
 11
-0.1616878986
 21
12.4739604197
  0
LINE
  5
369
100
AcDbEntity
  8
RACCORDO
100
AcDbLine
 62
7
  6
CONTINUOUS
 10
-2.8675554168
 20
-11.5940411559
 11
-2.7976286048
 21
-10.5940411559
  0
LINE
  5
36A
100
AcDbEntity
  8
DRAFT
100
AcDbLine
 62
7
  6
CONTINUOUS
 10
-2.6645822311
 20
-11.5940411559
 11
-2.5946554192
 21
-10.5940411559
  0
LINE
  5
36B
100
AcDbEntity
  8
RACCORDO
100
AcDbLine
 62
253
  6
CONTINUOUS
 10
-9.725030083
 20
-17.4080761341
 11
-9.804687637
 21
-17.6003864812
  0
LINE
  5
36C
100
AcDbEntity
  8
DRAFT
100
AcDbLine
 62
7
  6
CONTINUOUS
 10
-9.226669177
 20
-18.8394073123
 11
-9.1543679308
 21
-18.664856663
  0
LINE
  5
36D
100
AcDbEntity
  8
DRAFT
100
AcDbLine
 62
7
  6
CONTINUOUS
 10
8.373330823
 20
22.8605926877
 11
8.3010295767
 21
22.6860420384
  0
LINE
  5
36E
100
AcDbEntity
  8
0
100
AcDbLine
 62
7
  6
CONTINUOUS
 10
8.033330823
 20
1.7219175531
 11
7.0678546005
 21
1.7219175531
  0
LINE
  5
36F
100
AcDbEntity
  8
0
100
AcDbLine
 62
7
  6
CONTINUOUS
 10
2.623330823
 20
1.7219175531
 11
1.8643636216
 21
1.7219175531
  0
LINE
  5
370
100
AcDbEntity
  8
0
100
AcDbLine
 62
7
  6
CONTINUOUS
 10
-2.7177019757
 20
1.7219175531
 11
-3.476669177
 21
1.7219175531
  0
LINE
  5
371
100
AcDbEntity
  8
0
100
AcDbLine
 62
7
  6
CONTINUOUS
 10
-7.9211929546
 20
1.7219175531
 11
-8.886669177
 21
1.7219175531
  0
LINE
  5
372
100
AcDbEntity
  8
0
100
AcDbLine
 62
253
  6
CONTINUOUS
 10
-8.886669177
 20
1.8373876069
 11
-7.876669177
 21
1.8373876069
  0
LINE
  5
373
100
AcDbEntity
  8
0
100
AcDbLine
 62
253
  6
CONTINUOUS
 10
8.033330823
 20
1.8373876069
 11
7.023330823
 21
1.8373876069
  0
LINE
  5
374
100
AcDbEntity
  8
0
100
AcDbLine
 62
253
  6
CONTINUOUS
 10
1.613330823
 20
1.8373876069
 11
2.623330823
 21
1.8373876069
  0
LINE
  5
375
100
AcDbEntity
  8
0
100
AcDbLine
 62
253
  6
CONTINUOUS
 10
-2.466669177
 20
1.8373876069
 11
-3.476669177
 21
1.8373876069
  0
LINE
  5
376
100
AcDbEntity
  8
RACCORDO
100
AcDbLine
 62
253
  6
CONTINUOUS
 10
-10.8629384398
 20
1.976901192
 11
-11.1628927484
 21
1.976901192
  0
LINE
  5
377
100
AcDbEntity
  8
RACCORDO
100
AcDbLine
 62
253
  6
CONTINUOUS
 10
10.0096000858
 20
1.976901327
 11
10.3095543943
 21
1.976901327
  0
LINE
  5
378
100
AcDbEntity
  8
0
100
AcDbLine
 62
253
  6
CONTINUOUS
 10
-8.886669177
 20
2.1837977684
 11
-7.876669177
 21
2.1837977684
  0
LINE
  5
379
100
AcDbEntity
  8
0
100
AcDbLine
 62
253
  6
CONTINUOUS
 10
8.033330823
 20
2.1837977684
 11
7.023330823
 21
2.1837977684
  0
LINE
  5
37A
100
AcDbEntity
  8
0
100
AcDbLine
 62
253
  6
CONTINUOUS
 10
1.613330823
 20
2.1837977684
 11
2.623330823
 21
2.1837977684
  0
LINE
  5
37B
100
AcDbEntity
  8
0
100
AcDbLine
 62
253
  6
CONTINUOUS
 10
-2.466669177
 20
2.1837977684
 11
-3.476669177
 21
2.1837977684
  0
LINE
  5
37C
100
AcDbEntity
  8
RACCORDO
100
AcDbLine
 62
253
  6
CONTINUOUS
 10
-1.0624620973
 20
1.8126933422
 11
-0.8240398186
 21
1.6324958611
  0
LINE
  5
37D
100
AcDbEntity
  8
RACCORDO
100
AcDbLine
 62
253
  6
CONTINUOUS
 10
-5.2908762568
 20
5.0084920331
 11
-5.5292985355
 21
5.1886895143
  0
LINE
  5
37E
100
AcDbEntity
  8
RACCORDO
100
AcDbLine
 62
253
  6
CONTINUOUS
 10
-5.5434249478
 20
5.3754069281
 11
-5.7733714739
 21
5.5663020838
  0
LINE
  5
37F
100
AcDbEntity
  8
RACCORDO
100
AcDbLine
 62
253
  6
CONTINUOUS
 10
-0.8099134062
 20
1.4457784473
 11
-0.5799668801
 21
1.2548832915
  0
LINE
  5
380
100
AcDbEntity
  8
RACCORDO
100
AcDbLine
 62
253
  6
CONTINUOUS
 10
-10.3535489672
 20
11.137320173
 11
-10.2099604855
 21
10.9937316913
  0
LINE
  5
381
100
AcDbEntity
  8
RACCORDO
100
AcDbLine
 62
253
  6
CONTINUOUS
 10
-9.804687637
 20
21.6215718566
 11
-9.7951622919
 21
21.5985756393
  0
LINE
  5
382
100
AcDbEntity
  8
DRAFT
100
AcDbLine
 62
7
  6
CONTINUOUS
 10
-9.226669177
 20
22.8605926877
 11
-9.1543679308
 21
22.6860420384
  0
LINE
  5
383
100
AcDbEntity
  8
DRAFT
100
AcDbLine
 62
7
  6
CONTINUOUS
 10
8.373330823
 20
-18.8394073123
 11
8.3010295767
 21
-18.664856663
  0
LINE
  5
384
100
AcDbEntity
  8
DRAFT
100
AcDbLine
 62
7
  6
CONTINUOUS
 10
1.7413170651
 20
-10.5940411559
 11
1.8112438771
 21
-11.5940411559
  0
LINE
  5
385
100
AcDbEntity
  8
RACCORDO
100
AcDbLine
 62
7
  6
CONTINUOUS
 10
1.9442902508
 20
-10.5940411559
 11
2.0142170627
 21
-11.5940411559
  0
LINE
  5
386
100
AcDbEntity
  8
RACCORDO
100
AcDbLine
 62
7
  6
CONTINUOUS
 10
-0.1854176093
 20
15.5996067392
 11
-0.1854176093
 21
16.4215786362
  0
LINE
  5
387
100
AcDbEntity
  8
DRAFT
100
AcDbLine
 62
7
  6
CONTINUOUS
 10
-0.126669177
 20
12.5234373592
 11
-0.126669177
 21
15.5105926877
  0
LINE
  5
388
100
AcDbEntity
  8
RACCORDO
100
AcDbLine
 62
7
  6
CONTINUOUS
 10
-0.126669177
 20
16.5105926877
 11
-0.126669177
 21
19.7106009809
  0
LINE
  5
389
100
AcDbEntity
  8
RACCORDO
100
AcDbLine
 62
253
  6
CONTINUOUS
 10
0.0675118627
 20
15.5963909151
 11
0.0675118627
 21
16.4247944603
  0
LINE
  5
38A
100
AcDbEntity
  8
SMUSSO
100
AcDbLine
 62
7
  6
CONTINUOUS
 10
0.0983308245
 20
15.5655719532
 11
0.0983308245
 21
16.4556134222
  0
LINE
  5
38B
100
AcDbEntity
  8
RACCORDO
100
AcDbLine
 62
253
  6
CONTINUOUS
 10
0.3127082405
 20
11.5202061167
 11
0.3127082405
 21
11.7499783984
  0
LINE
  5
38C
100
AcDbEntity
  8
RACCORDO
100
AcDbLine
 62
253
  6
CONTINUOUS
 10
0.3128362506
 20
20.571073991
 11
0.3128362506
 21
20.2710789669
  0
LINE
  5
38D
100
AcDbEntity
  8
RACCORDO
100
AcDbLine
 62
7
  6
CONTINUOUS
 10
0.3202713937
 20
15.7636445016
 11
0.3202713937
 21
16.2575408738
  0
LINE
  5
38E
100
AcDbEntity
  8
RACCORDO
100
AcDbLine
 62
7
  6
CONTINUOUS
 10
0.373330823
 20
15.7105850723
 11
0.373330823
 21
16.3106003031
  0
LINE
  5
38F
100
AcDbEntity
  8
0
100
AcDbLine
 62
7
  6
CONTINUOUS
 10
0.573330823
 20
-21.7835860978
 11
0.573330823
 21
-20.3841712767
  0
LINE
  5
390
100
AcDbEntity
  8
0
100
AcDbLine
 62
7
  6
CONTINUOUS
 10
0.573330823
 20
24.4053566521
 11
0.573330823
 21
25.8047714732
  0
LINE
  5
391
100
AcDbEntity
  8
0
100
AcDbLine
 62
253
  6
CONTINUOUS
 10
0.773330823
 20
26.0105926877
 11
0.773330823
 21
26.0047748579
  0
LINE
  5
392
100
AcDbEntity
  8
0
100
AcDbLine
 62
253
  6
CONTINUOUS
 10
0.773330823
 20
-21.9835894825
 11
0.773330823
 21
-21.9894073123
  0
LINE
  5
393
100
AcDbEntity
  8
RACCORDO
100
AcDbLine
 62
7
  6
CONTINUOUS
 10
0.7758095761
 20
-10.9062647073
 11
0.7758095761
 21
-9.2725499174
  0
LINE
  5
394
100
AcDbEntity
  8
0
100
AcDbLine
 62
7
  6
CONTINUOUS
 10
0.823330823
 20
-9.1882083001
 11
0.823330823
 21
-10.5940411559
  0
LINE
  5
395
100
AcDbEntity
  8
0
100
AcDbLine
 62
253
  6
CONTINUOUS
 10
1.0564994503
 20
3.3105926877
 11
1.0564994503
 21
4.6179090654
  0
LINE
  5
396
100
AcDbEntity
  8
SMUSSO
100
AcDbLine
 62
253
  6
CONTINUOUS
 10
2.4796979873
 20
11.9555370153
 11
2.5043398112
 21
12.1760845043
  0
LINE
  5
397
100
AcDbEntity
  8
RACCORDO
100
AcDbLine
 62
253
  6
CONTINUOUS
 10
8.9418239378
 20
21.5985756393
 11
8.9513492829
 21
21.6215718566
  0
LINE
  5
398
100
AcDbEntity
  8
RACCORDO
100
AcDbLine
 62
253
  6
CONTINUOUS
 10
9.6488230232
 20
21.3057270295
 11
9.6583483683
 21
21.3287232468
  0
LINE
  5
399
100
AcDbEntity
  8
RACCORDO
100
AcDbLine
 62
7
  6
CONTINUOUS
 10
9.443330823
 20
15.5105926877
 11
9.4997954998
 21
15.5961464542
  0
LINE
  5
39A
100
AcDbEntity
  8
RACCORDO
100
AcDbLine
 62
253
  6
CONTINUOUS
 10
9.3566221314
 20
10.9937316913
 11
9.5002106132
 21
11.137320173
  0
LINE
  5
39B
100
AcDbEntity
  8
RACCORDO
100
AcDbLine
 62
253
  6
CONTINUOUS
 10
10.3564698266
 20
9.9938839961
 11
10.5257839564
 21
10.163198126
  0
LINE
  5
39C
100
AcDbEntity
  8
RACCORDO
100
AcDbLine
 62
253
  6
CONTINUOUS
 10
-0.0434249475
 20
1.4457784469
 11
-0.2733714742
 21
1.2548832907
  0
LINE
  5
39D
100
AcDbEntity
  8
RACCORDO
100
AcDbLine
 62
253
  6
CONTINUOUS
 10
4.6900865812
 20
5.3754069424
 11
4.9200331123
 21
5.5663021054
  0
LINE
  5
39E
100
AcDbEntity
  8
RACCORDO
100
AcDbLine
 62
253
  6
CONTINUOUS
 10
4.4375379103
 20
5.0084920097
 11
4.6759601974
 21
5.1886894978
  0
LINE
  5
39F
100
AcDbEntity
  8
RACCORDO
100
AcDbLine
 62
253
  6
CONTINUOUS
 10
0.2091237426
 20
1.8126933397
 11
-0.0292985348
 21
1.6324958568
  0
LINE
  5
3A0
100
AcDbEntity
  8
0
100
AcDbLine
 62
7
  6
CONTINUOUS
 10
8.7822648637
 20
3.2654894627
 11
8.8699264878
 21
3.27160536
  0
LINE
  5
3A1
100
AcDbEntity
  8
0
100
AcDbLine
 62
7
  6
CONTINUOUS
 10
-8.886669177
 20
2.2992678223
 11
-7.876669177
 21
2.2992678223
  0
LINE
  5
3A2
100
AcDbEntity
  8
0
100
AcDbLine
 62
7
  6
CONTINUOUS
 10
-3.476669177
 20
2.2992678223
 11
-2.466669177
 21
2.2992678223
  0
LINE
  5
3A3
100
AcDbEntity
  8
0
100
AcDbLine
 62
7
  6
CONTINUOUS
 10
1.613330823
 20
2.2992678223
 11
2.623330823
 21
2.2992678223
  0
LINE
  5
3A4
100
AcDbEntity
  8
0
100
AcDbLine
 62
7
  6
CONTINUOUS
 10
7.023330823
 20
2.2992678223
 11
8.033330823
 21
2.2992678223
  0
LINE
  5
3A5
100
AcDbEntity
  8
0
100
AcDbLine
 62
253
  6
CONTINUOUS
 10
-10.176669177
 20
2.6105926877
 11
-8.886669177
 21
2.6105926877
  0
LINE
  5
3A6
100
AcDbEntity
  8
0
100
AcDbLine
 62
253
  6
CONTINUOUS
 10
-2.466669177
 20
2.6105926877
 11
-1.6202600575
 21
2.6105926877
  0
LINE
  5
3A7
100
AcDbEntity
  8
0
100
AcDbLine
 62
253
  6
CONTINUOUS
 10
0.7669217035
 20
2.6105926877
 11
1.613330823
 21
2.6105926877
  0
LINE
  5
3A8
100
AcDbEntity
  8
0
100
AcDbLine
 62
253
  6
CONTINUOUS
 10
8.033330823
 20
2.6105926877
 11
9.323330823
 21
2.6105926877
  0
LINE
  5
3A9
100
AcDbEntity
  8
0
100
AcDbLine
 62
7
  6
CONTINUOUS
 10
-10.176669177
 20
3.0091435008
 11
-9.474531912
 21
3.0091435008
  0
LINE
  5
3AA
100
AcDbEntity
  8
0
100
AcDbLine
 62
7
  6
CONTINUOUS
 10
9.323330823
 20
3.0091435008
 11
8.621193558
 21
3.0091435008
  0
LINE
  5
3AB
100
AcDbEntity
  8
0
100
AcDbLine
 62
7
  6
CONTINUOUS
 10
0.6201007231
 20
3.0091435008
 11
1.025468088
 21
3.0091435008
  0
LINE
  5
3AC
100
AcDbEntity
  8
0
100
AcDbLine
 62
7
  6
CONTINUOUS
 10
-1.4734390772
 20
3.0091435008
 11
-1.878806442
 21
3.0091435008
  0
LINE
  5
3AD
100
AcDbEntity
  8
0
100
AcDbLine
 62
7
  6
CONTINUOUS
 10
-9.6356032178
 20
3.2654894627
 11
-8.886669177
 21
3.2654894627
  0
LINE
  5
3AE
100
AcDbEntity
  8
0
100
AcDbLine
 62
7
  6
CONTINUOUS
 10
8.7822648637
 20
3.2654894627
 11
8.033330823
 21
3.2654894627
  0
LINE
  5
3AF
100
AcDbEntity
  8
DRAFT
100
AcDbLine
 62
7
  6
CONTINUOUS
 10
-9.726669177
 20
3.2852123325
 11
-8.886669177
 21
3.2852123325
  0
LINE
  5
3B0
100
AcDbEntity
  8
DRAFT
100
AcDbLine
 62
7
  6
CONTINUOUS
 10
8.873330823
 20
3.2852123325
 11
8.033330823
 21
3.2852123325
  0
LINE
  5
3B1
100
AcDbEntity
  8
RACCORDO
100
AcDbLine
 62
7
  6
CONTINUOUS
 10
9.1752129936
 20
3.3105926877
 11
8.5901621956
 21
3.3105926877
  0
LINE
  5
3B2
100
AcDbEntity
  8
0
100
AcDbLine
 62
7
  6
CONTINUOUS
 10
8.5901621956
 20
3.3105926877
 11
8.023330823
 21
3.3105926877
  0
LINE
  5
3B3
100
AcDbEntity
  8
0
100
AcDbLine
 62
7
  6
CONTINUOUS
 10
1.623330823
 20
3.3105926877
 11
1.0564994503
 21
3.3105926877
  0
LINE
  5
3B4
100
AcDbEntity
  8
RACCORDO
100
AcDbLine
 62
7
  6
CONTINUOUS
 10
1.0564994503
 20
3.3105926877
 11
0.5763101934
 21
3.3105926877
  0
LINE
  5
3B5
100
AcDbEntity
  8
RACCORDO
100
AcDbLine
 62
7
  6
CONTINUOUS
 10
-1.4296485475
 20
3.3105926877
 11
-1.9098378044
 21
3.3105926877
  0
LINE
  5
3B6
100
AcDbEntity
  8
0
100
AcDbLine
 62
7
  6
CONTINUOUS
 10
-1.9098378044
 20
3.3105926877
 11
-2.476669177
 21
3.3105926877
  0
LINE
  5
3B7
100
AcDbEntity
  8
0
100
AcDbLine
 62
7
  6
CONTINUOUS
 10
-8.876669177
 20
3.3105926877
 11
-9.4435005497
 21
3.3105926877
  0
LINE
  5
3B8
100
AcDbEntity
  8
RACCORDO
100
AcDbLine
 62
7
  6
CONTINUOUS
 10
-9.4435005497
 20
3.3105926877
 11
-10.0285513477
 21
3.3105926877
  0
LINE
  5
3B9
100
AcDbEntity
  8
0
100
AcDbLine
 62
7
  6
CONTINUOUS
 10
-9.6356032178
 20
3.2654894627
 11
-9.7232648419
 21
3.27160536
  0
LINE
  5
3BA
100
AcDbEntity
  8
RACCORDO
100
AcDbLine
 62
253
  6
CONTINUOUS
 10
9.2208441559
 20
-12.8296599222
 11
9.3566221314
 21
-13.0958941992
  0
LINE
  5
3BB
100
AcDbEntity
  8
RACCORDO
100
AcDbLine
 62
253
  6
CONTINUOUS
 10
8.9513492829
 20
-17.6003864812
 11
8.871691729
 21
-17.4080761341
  0
LINE
  5
3BC
100
AcDbEntity
  8
RACCORDO
100
AcDbLine
 62
253
  6
CONTINUOUS
 10
9.6583483683
 20
-17.3075378714
 11
9.5786908144
 21
-17.1152275243
  0
LINE
  5
3BD
100
AcDbEntity
  8
RACCORDO
100
AcDbLine
 62
7
  6
CONTINUOUS
 10
1.7216197955
 20
10.9937316913
 11
1.7148035468
 21
11.0817851647
  0
LINE
  5
3BE
100
AcDbEntity
  8
RACCORDO
100
AcDbLine
 62
253
  6
CONTINUOUS
 10
1.9744995311
 20
22.0105926877
 11
1.9748550578
 21
21.8950793673
  0
LINE
  5
3BF
100
AcDbEntity
  8
0
100
AcDbLine
 62
7
  6
CONTINUOUS
 10
1.613330823
 20
1.8112275631
 11
1.613330823
 21
3.3105926877
  0
LINE
  5
3C0
100
AcDbEntity
  8
0
100
AcDbLine
 62
253
  6
CONTINUOUS
 10
1.623330823
 20
3.3105926877
 11
1.623330823
 21
5.0143812837
  0
LINE
  5
3C1
100
AcDbEntity
  8
RACCORDO
100
AcDbLine
 62
7
  6
CONTINUOUS
 10
2.0208649007
 20
9.9938839961
 11
2.0208649007
 21
9.9524477259
  0
LINE
  5
3C2
100
AcDbEntity
  8
RACCORDO
100
AcDbLine
 62
7
  6
CONTINUOUS
 10
2.0208649007
 20
-16.4082284389
 11
2.0208649007
 21
-16.0312623506
  0
LINE
  5
3C3
100
AcDbEntity
  8
0
100
AcDbLine
 62
253
  6
CONTINUOUS
 10
2.0734355345
 20
-16.0663089456
 11
2.0734355345
 21
-16.5394073123
  0
LINE
  5
3C4
100
AcDbEntity
  8
0
100
AcDbLine
 62
253
  6
CONTINUOUS
 10
2.0734355345
 20
9.9874943209
 11
2.0734355345
 21
10.4605926877
  0
LINE
  5
3C5
100
AcDbEntity
  8
0
100
AcDbLine
 62
7
  6
CONTINUOUS
 10
2.173330823
 20
-8.3459671217
 11
2.173330823
 21
-10.5940411559
  0
LINE
  5
3C6
100
AcDbEntity
  8
0
100
AcDbLine
 62
7
  6
CONTINUOUS
 10
2.173330823
 20
-11.5940411559
 11
2.173330823
 21
-11.0440411559
  0
LINE
  5
3C7
100
AcDbEntity
  8
ASSI
100
AcDbLine
 62
7
  6
CONTINUOUS
 10
2.173330823
 20
-11.0440411559
 11
2.173330823
 21
-10.5940411559
  0
LINE
  5
3C8
100
AcDbEntity
  8
0
100
AcDbLine
 62
7
  6
CONTINUOUS
 10
2.573330823
 20
-20.3430623322
 11
2.573330823
 21
-18.7894073123
  0
LINE
  5
3C9
100
AcDbEntity
  8
0
100
AcDbLine
 62
7
  6
CONTINUOUS
 10
2.573330823
 20
22.8105926877
 11
2.573330823
 21
24.3642477076
  0
LINE
  5
3CA
100
AcDbEntity
  8
0
100
AcDbLine
 62
7
  6
CONTINUOUS
 10
2.623330823
 20
2.2992678223
 11
2.623330823
 21
1.7219175531
  0
LINE
  5
3CB
100
AcDbEntity
  8
SMUSSO
100
AcDbLine
 62
253
  6
CONTINUOUS
 10
2.8374450325
 20
11.9356134206
 11
2.8374450325
 21
12.1575332584
  0
LINE
  5
3CC
100
AcDbEntity
  8
0
100
AcDbLine
 62
7
  6
CONTINUOUS
 10
3.073330823
 20
4.9916012439
 11
3.073330823
 21
1.8295841314
  0
LINE
  5
3CD
100
AcDbEntity
  8
0
100
AcDbLine
 62
7
  6
CONTINUOUS
 10
3.073330823
 20
-20.3455003992
 11
3.073330823
 21
-21.9435552564
  0
LINE
  5
3CE
100
AcDbEntity
  8
0
100
AcDbLine
 62
7
  6
CONTINUOUS
 10
3.073330823
 20
-21.9457566654
 11
3.073330823
 21
-21.9835894825
  0
LINE
  5
3CF
100
AcDbEntity
  8
0
100
AcDbLine
 62
7
  6
CONTINUOUS
 10
3.073330823
 20
-11.6704158686
 11
3.073330823
 21
-8.5083987561
  0
LINE
  5
3D0
100
AcDbEntity
  8
0
100
AcDbLine
 62
7
  6
CONTINUOUS
 10
3.073330823
 20
24.3666857746
 11
3.073330823
 21
26.0047748579
  0
LINE
  5
3D1
100
AcDbEntity
  8
RACCORDO
100
AcDbLine
 62
253
  6
CONTINUOUS
 10
3.3783617091
 20
15.0871963932
 11
3.3783617091
 21
13.0144155132
  0
LINE
  5
3D2
100
AcDbEntity
  8
RACCORDO
100
AcDbLine
 62
253
  6
CONTINUOUS
 10
1.9748550578
 20
-17.8738939919
 11
1.9744995311
 21
-17.9894073123
  0
LINE
  5
3D3
100
AcDbEntity
  8
SMUSSO
100
AcDbLine
 62
253
  6
CONTINUOUS
 10
2.5043398112
 20
12.1760845043
 11
2.5072947889
 21
12.2291439336
  0
LINE
  5
3D4
100
AcDbEntity
  8
SMUSSO
100
AcDbLine
 62
253
  6
CONTINUOUS
 10
2.8374450325
 20
12.1575332584
 11
2.8404000102
 21
12.2105926877
  0
LINE
  5
3D5
100
AcDbEntity
  8
RACCORDO
100
AcDbLine
 62
7
  6
CONTINUOUS
 10
1.5278941882
 20
-17.4080761341
 11
1.5210756551
 21
-17.4961591177
  0
LINE
  5
3D6
100
AcDbEntity
  8
0
100
AcDbLine
 62
253
  6
CONTINUOUS
 10
-8.9789243449
 20
-17.4961591177
 11
-8.4265644655
 21
-16.5394073123
  0
LINE
  5
3D7
100
AcDbEntity
  8
0
100
AcDbLine
 62
253
  6
CONTINUOUS
 10
7.5732261114
 20
10.4605926877
 11
7.9318580991
 21
11.0817851647
  0
LINE
  5
3D8
100
AcDbEntity
  8
RACCORDO
100
AcDbLine
 62
253
  6
CONTINUOUS
 10
9.9713652451
 20
4.9627208666
 11
10.213602306
 21
5.1377566993
  0
LINE
  5
3D9
100
AcDbEntity
  8
RACCORDO
100
AcDbLine
 62
253
  6
CONTINUOUS
 10
10.0096000858
 20
4.844284085
 11
10.3095543943
 21
4.844284085
  0
LINE
  5
3DA
100
AcDbEntity
  8
RACCORDO
100
AcDbLine
 62
253
  6
CONTINUOUS
 10
-10.8629384398
 20
4.8442840265
 11
-11.1628927484
 21
4.8442840265
  0
LINE
  5
3DB
100
AcDbEntity
  8
0
100
AcDbLine
 62
7
  6
CONTINUOUS
 10
8.3271840527
 20
5.1905926877
 11
8.023330823
 21
5.1905926877
  0
LINE
  5
3DC
100
AcDbEntity
  8
0
100
AcDbLine
 62
253
  6
CONTINUOUS
 10
8.023330823
 20
5.1905926877
 11
7.3194775933
 21
5.1905926877
  0
LINE
  5
3DD
100
AcDbEntity
  8
0
100
AcDbLine
 62
253
  6
CONTINUOUS
 10
-8.1728159473
 20
5.1905926877
 11
-8.876669177
 21
5.1905926877
  0
LINE
  5
3DE
100
AcDbEntity
  8
0
100
AcDbLine
 62
7
  6
CONTINUOUS
 10
-8.876669177
 20
5.1905926877
 11
-9.1805224067
 21
5.1905926877
  0
LINE
  5
3DF
100
AcDbEntity
  8
RACCORDO
100
AcDbLine
 62
253
  6
CONTINUOUS
 10
4.4375379027
 20
1.8126933422
 11
4.6759601814
 21
1.6324958611
  0
LINE
  5
3E0
100
AcDbEntity
  8
RACCORDO
100
AcDbLine
 62
253
  6
CONTINUOUS
 10
0.2091237432
 20
5.0084920331
 11
-0.0292985355
 21
5.1886895143
  0
LINE
  5
3E1
100
AcDbEntity
  8
RACCORDO
100
AcDbLine
 62
253
  6
CONTINUOUS
 10
4.6900865938
 20
1.4457784473
 11
4.9200331199
 21
1.2548832915
  0
LINE
  5
3E2
100
AcDbEntity
  8
RACCORDO
100
AcDbLine
 62
253
  6
CONTINUOUS
 10
-0.0434249478
 20
5.3754069281
 11
-0.2733714739
 21
5.5663020838
  0
LINE
  5
3E3
100
AcDbEntity
  8
RACCORDO
100
AcDbLine
 62
7
  6
CONTINUOUS
 10
4.618351375
 20
20.0855928686
 11
4.6185261531
 21
20.0653897422
  0
LINE
  5
3E4
100
AcDbEntity
  8
0
100
AcDbLine
 62
7
  6
CONTINUOUS
 10
3.441391823
 20
4.756790927
 11
3.441391823
 21
2.0643944483
  0
LINE
  5
3E5
100
AcDbEntity
  8
0
100
AcDbLine
 62
7
  6
CONTINUOUS
 10
3.441391823
 20
-11.4356055517
 11
3.441391823
 21
-8.743209073
  0
LINE
  5
3E6
100
AcDbEntity
  8
RACCORDO
100
AcDbLine
 62
7
  6
CONTINUOUS
 10
3.673330823
 20
20.2105926877
 11
3.673330823
 21
20.0105850723
  0
LINE
  5
3E7
100
AcDbEntity
  8
RACCORDO
100
AcDbLine
 62
7
  6
CONTINUOUS
 10
3.673330823
 20
11.7518442554
 11
3.673330823
 21
11.9355926877
  0
LINE
  5
3E8
100
AcDbEntity
  8
0
100
AcDbLine
 62
7
  6
CONTINUOUS
 10
3.9794085759
 20
25.9644849607
 11
3.9794085759
 21
24.3666704406
  0
LINE
  5
3E9
100
AcDbEntity
  8
0
100
AcDbLine
 62
7
  6
CONTINUOUS
 10
3.9794085759
 20
-20.3454850653
 11
3.9794085759
 21
-21.9432995854
  0
LINE
  5
3EA
100
AcDbEntity
  8
0
100
AcDbLine
 62
7
  6
CONTINUOUS
 10
4.023330823
 20
-21.9894073123
 11
4.023330823
 21
-21.3573522595
  0
LINE
  5
3EB
100
AcDbEntity
  8
0
100
AcDbLine
 62
7
  6
CONTINUOUS
 10
4.023330823
 20
-20.9214623651
 11
4.023330823
 21
-20.3894073123
  0
LINE
  5
3EC
100
AcDbEntity
  8
0
100
AcDbLine
 62
7
  6
CONTINUOUS
 10
4.023330823
 20
24.4105926877
 11
4.023330823
 21
24.9426477405
  0
LINE
  5
3ED
100
AcDbEntity
  8
0
100
AcDbLine
 62
7
  6
CONTINUOUS
 10
4.023330823
 20
25.3785376349
 11
4.023330823
 21
26.0105926877
  0
LINE
  5
3EE
100
AcDbEntity
  8
RACCORDO
100
AcDbLine
 62
7
  6
CONTINUOUS
 10
4.673330823
 20
20.2105926877
 11
4.673330823
 21
20.0105850723
  0
LINE
  5
3EF
100
AcDbEntity
  8
RACCORDO
100
AcDbLine
 62
7
  6
CONTINUOUS
 10
4.673330823
 20
11.9355926877
 11
4.673330823
 21
11.7518442554
  0
LINE
  5
3F0
100
AcDbEntity
  8
RACCORDO
100
AcDbLine
 62
253
  6
CONTINUOUS
 10
4.8763060112
 20
16.010061985
 11
4.8763060112
 21
12.991432022
  0
LINE
  5
3F1
100
AcDbEntity
  8
RACCORDO
100
AcDbLine
 62
7
  6
CONTINUOUS
 10
4.8804202281
 20
12.9924219418
 11
4.8804202281
 21
16.010061985
  0
LINE
  5
3F2
100
AcDbEntity
  8
RACCORDO
100
AcDbLine
 62
7
  6
CONTINUOUS
 10
3.7281354929
 20
20.0653897422
 11
3.728310271
 21
20.0855928686
  0
LINE
  5
3F3
100
AcDbEntity
  8
0
100
AcDbLine
 62
7
  6
CONTINUOUS
 10
1.7685344358
 20
-11.6368176661
 11
1.7424044402
 21
-11.7400824032
  0
LINE
  5
3F4
100
AcDbEntity
  8
0
100
AcDbLine
 62
7
  6
CONTINUOUS
 10
1.8716623003
 20
-11.6629130275
 11
1.8439686691
 21
-11.7723571925
  0
LINE
  5
3F5
100
AcDbEntity
  8
RACCORDO
100
AcDbLine
 62
253
  6
CONTINUOUS
 10
-6.3099134065
 20
-8.1245930716
 11
-6.0799668799
 21
-7.9336979153
  0
LINE
  5
3F6
100
AcDbEntity
  8
RACCORDO
100
AcDbLine
 62
253
  6
CONTINUOUS
 10
5.4565750525
 20
1.4457784469
 11
5.2266285258
 21
1.2548832907
  0
LINE
  5
3F7
100
AcDbEntity
  8
RACCORDO
100
AcDbLine
 62
253
  6
CONTINUOUS
 10
5.7091237426
 20
1.8126933397
 11
5.4707014652
 21
1.6324958568
  0
LINE
  5
3F8
100
AcDbEntity
  8
RACCORDO
100
AcDbLine
 62
253
  6
CONTINUOUS
 10
-6.5624620967
 20
-8.4915079644
 11
-6.3240398193
 21
-8.3113104814
  0
LINE
  5
3F9
100
AcDbEntity
  8
RACCORDO
100
AcDbLine
 62
253
  6
CONTINUOUS
 10
-10.8247036042
 20
-11.6415354752
 11
-11.0669406704
 21
-11.8165713091
  0
LINE
  5
3FA
100
AcDbEntity
  8
DRAFT
100
AcDbLine
 62
7
  6
CONTINUOUS
 10
-2.8742032547
 20
9.9524477259
 11
-2.9267738886
 21
9.9874943209
  0
LINE
  5
3FB
100
AcDbEntity
  8
0
100
AcDbLine
 62
253
  6
CONTINUOUS
 10
7.5749993456
 20
-11.7135208077
 11
7.6295501516
 21
-11.9291034938
  0
LINE
  5
3FC
100
AcDbEntity
  8
0
100
AcDbLine
 62
7
  6
CONTINUOUS
 10
7.8436614145
 20
-11.9342628818
 11
7.7749993456
 21
-11.6629130275
  0
LINE
  5
3FD
100
AcDbEntity
  8
0
100
AcDbLine
 62
7
  6
CONTINUOUS
 10
7.8781272101
 20
-11.6368176661
 11
7.9535300815
 21
-11.9348069125
  0
LINE
  5
3FE
100
AcDbEntity
  8
SMUSSO
100
AcDbLine
 62
253
  6
CONTINUOUS
 10
5.825468467
 20
11.9478733636
 11
5.8061268788
 21
12.1689487295
  0
LINE
  5
3FF
100
AcDbEntity
  8
RACCORDO
100
AcDbLine
 62
7
  6
CONTINUOUS
 10
8.1187674577
 20
-17.4080761341
 11
8.1255859908
 21
-17.4961591177
  0
LINE
  5
400
100
AcDbEntity
  8
SMUSSO
100
AcDbLine
 62
253
  6
CONTINUOUS
 10
5.5423529817
 20
12.2105926877
 11
5.5446696064
 21
12.1575332584
  0
LINE
  5
401
100
AcDbEntity
  8
SMUSSO
100
AcDbLine
 62
253
  6
CONTINUOUS
 10
5.803810254
 20
12.2220081587
 11
5.8061268788
 21
12.1689487295
  0
LINE
  5
402
100
AcDbEntity
  8
0
100
AcDbLine
 62
253
  6
CONTINUOUS
 10
6.827702657
 20
-21.8337448796
 11
6.823330823
 21
-21.3998924605
  0
LINE
  5
403
100
AcDbEntity
  8
0
100
AcDbLine
 62
253
  6
CONTINUOUS
 10
7.0776984262
 20
-21.6172385287
 11
7.0726078251
 21
-21.1120570431
  0
LINE
  5
404
100
AcDbEntity
  8
DRAFT
100
AcDbLine
 62
7
  6
CONTINUOUS
 10
5.2343099918
 20
21.8215718566
 11
5.2343099918
 21
21.6215718566
  0
LINE
  5
405
100
AcDbEntity
  8
DRAFT
100
AcDbLine
 62
7
  6
CONTINUOUS
 10
5.2343099918
 20
-17.6003864812
 11
5.2343099918
 21
-17.8003864812
  0
LINE
  5
406
100
AcDbEntity
  8
DRAFT
100
AcDbLine
 62
7
  6
CONTINUOUS
 10
5.323330823
 20
21.9105926877
 11
5.323330823
 21
21.7105926877
  0
LINE
  5
407
100
AcDbEntity
  8
DRAFT
100
AcDbLine
 62
7
  6
CONTINUOUS
 10
5.323330823
 20
-17.6894073123
 11
5.323330823
 21
-17.8894073123
  0
LINE
  5
408
100
AcDbEntity
  8
SMUSSO
100
AcDbLine
 62
253
  6
CONTINUOUS
 10
5.5446696064
 20
11.9356134206
 11
5.5446696064
 21
12.1575332584
  0
LINE
  5
409
100
AcDbEntity
  8
0
100
AcDbLine
 62
7
  6
CONTINUOUS
 10
5.8804202281
 20
18.0066367609
 11
5.8804202281
 21
13.4231488987
  0
LINE
  5
40A
100
AcDbEntity
  8
RACCORDO
100
AcDbLine
 62
253
  6
CONTINUOUS
 10
5.9953930442
 20
18.3159673746
 11
5.9953930442
 21
18.4196817455
  0
LINE
  5
40B
100
AcDbEntity
  8
0
100
AcDbLine
 62
7
  6
CONTINUOUS
 10
6.205269823
 20
4.307271772
 11
6.205269823
 21
2.5139136034
  0
LINE
  5
40C
100
AcDbEntity
  8
0
100
AcDbLine
 62
7
  6
CONTINUOUS
 10
6.205269823
 20
-10.9860851133
 11
6.205269823
 21
-9.1927295114
  0
LINE
  5
40D
100
AcDbEntity
  8
0
100
AcDbLine
 62
7
  6
CONTINUOUS
 10
6.573330823
 20
4.774338452
 11
6.573330823
 21
2.0468469234
  0
LINE
  5
40E
100
AcDbEntity
  8
0
100
AcDbLine
 62
7
  6
CONTINUOUS
 10
6.573330823
 20
-11.4531540788
 11
6.573330823
 21
-8.7256605458
  0
LINE
  5
40F
100
AcDbEntity
  8
RACCORDO
100
AcDbLine
 62
253
  6
CONTINUOUS
 10
6.6901753503
 20
14.2008967163
 11
6.6901753503
 21
17.6221372434
  0
LINE
  5
410
100
AcDbEntity
  8
RACCORDO
100
AcDbLine
 62
253
  6
CONTINUOUS
 10
6.7894299655
 20
14.3475437914
 11
6.7894299655
 21
17.6267330242
  0
LINE
  5
411
100
AcDbEntity
  8
0
100
AcDbLine
 62
7
  6
CONTINUOUS
 10
6.823330823
 20
-20.3894073123
 11
6.823330823
 21
-21.8337448796
  0
LINE
  5
412
100
AcDbEntity
  8
0
100
AcDbLine
 62
7
  6
CONTINUOUS
 10
6.823330823
 20
24.4105926877
 11
6.823330823
 21
25.854930255
  0
LINE
  5
413
100
AcDbEntity
  8
0
100
AcDbLine
 62
7
  6
CONTINUOUS
 10
6.827702657
 20
26.2562250845
 11
6.827702657
 21
25.854930255
  0
LINE
  5
414
100
AcDbEntity
  8
0
100
AcDbLine
 62
7
  6
CONTINUOUS
 10
6.827702657
 20
-21.8337448796
 11
6.827702657
 21
-22.2350397091
  0
LINE
  5
415
100
AcDbEntity
  8
RACCORDO
100
AcDbLine
 62
7
  6
CONTINUOUS
 10
6.873330823
 20
22.6105926877
 11
6.873330823
 21
22.1105926877
  0
LINE
  5
416
100
AcDbEntity
  8
RACCORDO
100
AcDbLine
 62
7
  6
CONTINUOUS
 10
6.873330823
 20
-18.0894073123
 11
6.873330823
 21
-18.5894073123
  0
LINE
  5
417
100
AcDbEntity
  8
RACCORDO
100
AcDbLine
 62
253
  6
CONTINUOUS
 10
6.9074315421
 20
-18.728323015
 11
6.9074315421
 21
-19.325394261
  0
LINE
  5
418
100
AcDbEntity
  8
RACCORDO
100
AcDbLine
 62
253
  6
CONTINUOUS
 10
6.9074315421
 20
22.7495083904
 11
6.9074315421
 21
23.3465796363
  0
LINE
  5
419
100
AcDbEntity
  8
DRAFT
100
AcDbLine
 62
7
  6
CONTINUOUS
 10
6.973330823
 20
22.7750628695
 11
6.973330823
 21
21.7105926877
  0
LINE
  5
41A
100
AcDbEntity
  8
DRAFT
100
AcDbLine
 62
7
  6
CONTINUOUS
 10
6.973330823
 20
-17.6894073123
 11
6.973330823
 21
-18.7538774942
  0
LINE
  5
41B
100
AcDbEntity
  8
0
100
AcDbLine
 62
253
  6
CONTINUOUS
 10
6.823330823
 20
25.4210778359
 11
6.827702657
 21
25.854930255
  0
LINE
  5
41C
100
AcDbEntity
  8
0
100
AcDbLine
 62
253
  6
CONTINUOUS
 10
7.0726078251
 20
25.1332424185
 11
7.0776984262
 21
25.638423904
  0
LINE
  5
41D
100
AcDbEntity
  8
0
100
AcDbLine
 62
253
  6
CONTINUOUS
 10
2.0716623003
 20
-11.7135208077
 11
2.045452949
 21
-11.8170991559
  0
LINE
  5
41E
100
AcDbEntity
  8
RACCORDO
100
AcDbLine
 62
253
  6
CONTINUOUS
 10
9.2208441559
 20
6.1508452976
 11
9.3566221314
 21
6.4170795746
  0
LINE
  5
41F
100
AcDbEntity
  8
RACCORDO
100
AcDbLine
 62
253
  6
CONTINUOUS
 10
-10.6241109611
 20
-16.9231457316
 11
-9.9171118757
 21
-16.2161466462
  0
LINE
  5
420
100
AcDbEntity
  8
RACCORDO
100
AcDbLine
 62
253
  6
CONTINUOUS
 10
-10.4320291684
 20
-17.1152275243
 11
-9.725030083
 21
-16.4082284389
  0
LINE
  5
421
100
AcDbEntity
  8
RACCORDO
100
AcDbLine
 62
253
  6
CONTINUOUS
 10
9.9713652524
 20
1.8584645226
 11
10.2136023159
 21
1.6834287149
  0
LINE
  5
422
100
AcDbEntity
  8
RACCORDO
100
AcDbLine
 62
253
  6
CONTINUOUS
 10
5.7091237361
 20
5.0084920076
 11
5.4707014478
 21
5.1886894949
  0
LINE
  5
423
100
AcDbEntity
  8
RACCORDO
100
AcDbLine
 62
253
  6
CONTINUOUS
 10
5.4565750643
 20
5.375406942
 11
5.226628534
 21
5.5663021043
  0
LINE
  5
424
100
AcDbEntity
  8
RACCORDO
100
AcDbLine
 62
253
  6
CONTINUOUS
 10
-10.7934250909
 20
21.0144633159
 11
-10.0864260055
 21
20.3074642305
  0
LINE
  5
425
100
AcDbEntity
  8
RACCORDO
100
AcDbLine
 62
253
  6
CONTINUOUS
 10
-10.5021613773
 20
21.3057270295
 11
-9.7951622919
 21
20.5987279441
  0
LINE
  5
426
100
AcDbEntity
  8
0
100
AcDbLine
 62
253
  6
CONTINUOUS
 10
2.0734355345
 20
10.4605926877
 11
1.7148035468
 21
11.0817851647
  0
LINE
  5
427
100
AcDbEntity
  8
RACCORDO
100
AcDbLine
 62
253
  6
CONTINUOUS
 10
7.0194203794
 20
14.7822362325
 11
7.0194203794
 21
17.2389491429
  0
LINE
  5
428
100
AcDbEntity
  8
0
100
AcDbLine
 62
7
  6
CONTINUOUS
 10
7.023330823
 20
2.2992678223
 11
7.023330823
 21
1.7426055057
  0
LINE
  5
429
100
AcDbEntity
  8
DRAFT
100
AcDbLine
 62
7
  6
CONTINUOUS
 10
7.0623516541
 20
22.6860420384
 11
7.0623516541
 21
21.6215718566
  0
LINE
  5
42A
100
AcDbEntity
  8
DRAFT
100
AcDbLine
 62
7
  6
CONTINUOUS
 10
7.0623516541
 20
-17.6003864812
 11
7.0623516541
 21
-18.664856663
  0
LINE
  5
42B
100
AcDbEntity
  8
0
100
AcDbLine
 62
253
  6
CONTINUOUS
 10
7.0776984262
 20
-21.6172385287
 11
7.0776984262
 21
-22.4850354783
  0
LINE
  5
42C
100
AcDbEntity
  8
0
100
AcDbLine
 62
253
  6
CONTINUOUS
 10
7.0776984262
 20
25.638423904
 11
7.0776984262
 21
26.5062208537
  0
LINE
  5
42D
100
AcDbEntity
  8
RACCORDO
100
AcDbLine
 62
7
  6
CONTINUOUS
 10
7.2471482256
 20
16.4119024754
 11
7.2471482256
 21
15.6092828999
  0
LINE
  5
42E
100
AcDbEntity
  8
ASSI
100
AcDbLine
 62
253
  6
CONTINUOUS
 10
7.4073553897
 20
-18.8894073123
 11
7.4073553897
 21
-19.8053827456
  0
LINE
  5
42F
100
AcDbEntity
  8
ASSI
100
AcDbLine
 62
253
  6
CONTINUOUS
 10
7.4073553897
 20
22.9105926877
 11
7.4073553897
 21
23.8265681209
  0
LINE
  5
430
100
AcDbEntity
  8
0
100
AcDbLine
 62
7
  6
CONTINUOUS
 10
7.473330823
 20
-8.2728926566
 11
7.473330823
 21
-10.5940411559
  0
LINE
  5
431
100
AcDbEntity
  8
0
100
AcDbLine
 62
7
  6
CONTINUOUS
 10
7.473330823
 20
-11.5940411559
 11
7.473330823
 21
-11.0440411559
  0
LINE
  5
432
100
AcDbEntity
  8
ASSI
100
AcDbLine
 62
7
  6
CONTINUOUS
 10
7.473330823
 20
-11.0440411559
 11
7.473330823
 21
-10.5940411559
  0
LINE
  5
433
100
AcDbEntity
  8
0
100
AcDbLine
 62
253
  6
CONTINUOUS
 10
7.5732261114
 20
-16.0663089456
 11
7.5732261114
 21
-16.5394073123
  0
LINE
  5
434
100
AcDbEntity
  8
0
100
AcDbLine
 62
253
  6
CONTINUOUS
 10
7.5732261114
 20
9.9874943209
 11
7.5732261114
 21
10.4605926877
  0
LINE
  5
435
100
AcDbEntity
  8
RACCORDO
100
AcDbLine
 62
7
  6
CONTINUOUS
 10
7.573330823
 20
-18.8894073123
 11
7.573330823
 21
-19.6394073123
  0
LINE
  5
436
100
AcDbEntity
  8
RACCORDO
100
AcDbLine
 62
7
  6
CONTINUOUS
 10
7.573330823
 20
22.9105926877
 11
7.573330823
 21
23.6605926877
  0
LINE
  5
437
100
AcDbEntity
  8
RACCORDO
100
AcDbLine
 62
7
  6
CONTINUOUS
 10
7.6257967453
 20
9.9938839961
 11
7.6257967453
 21
9.9524477259
  0
LINE
  5
438
100
AcDbEntity
  8
RACCORDO
100
AcDbLine
 62
7
  6
CONTINUOUS
 10
7.6257967453
 20
-16.4082284389
 11
7.6257967453
 21
-16.0312623506
  0
LINE
  5
439
100
AcDbEntity
  8
RACCORDO
100
AcDbLine
 62
7
  6
CONTINUOUS
 10
7.973330823
 20
16.3106003031
 11
7.973330823
 21
15.7105850723
  0
LINE
  5
43A
100
AcDbEntity
  8
0
100
AcDbLine
 62
253
  6
CONTINUOUS
 10
8.023330823
 20
3.3105926877
 11
8.023330823
 21
5.1905926877
  0
LINE
  5
43B
100
AcDbEntity
  8
0
100
AcDbLine
 62
7
  6
CONTINUOUS
 10
8.023330823
 20
5.1905926877
 11
8.023330823
 21
5.249635329
  0
LINE
  5
43C
100
AcDbEntity
  8
RACCORDO
100
AcDbLine
 62
7
  6
CONTINUOUS
 10
8.0263902522
 20
16.2575408738
 11
8.0263902522
 21
15.7636445016
  0
LINE
  5
43D
100
AcDbEntity
  8
0
100
AcDbLine
 62
7
  6
CONTINUOUS
 10
8.033330823
 20
1.5726010887
 11
8.033330823
 21
3.3105926877
  0
LINE
  5
43E
100
AcDbEntity
  8
0
100
AcDbLine
 62
7
  6
CONTINUOUS
 10
8.173330823
 20
5.1905926877
 11
8.173330823
 21
5.2271071829
  0
LINE
  5
43F
100
AcDbEntity
  8
0
100
AcDbLine
 62
7
  6
CONTINUOUS
 10
8.2215575503
 20
-11.5940411559
 11
8.2215575503
 21
-11.8959256634
  0
LINE
  5
440
100
AcDbEntity
  8
0
100
AcDbLine
 62
253
  6
CONTINUOUS
 10
8.5901621956
 20
3.3105926877
 11
8.5901621956
 21
5.0940528074
  0
LINE
  5
441
100
AcDbEntity
  8
RACCORDO
100
AcDbLine
 62
253
  6
CONTINUOUS
 10
8.6933515559
 20
15.5694220271
 11
8.6933515559
 21
15.9961312234
  0
LINE
  5
442
100
AcDbEntity
  8
RACCORDO
100
AcDbLine
 62
253
  6
CONTINUOUS
 10
8.6933515559
 20
16.025054152
 11
8.6933515559
 21
16.4250389212
  0
LINE
  5
443
100
AcDbEntity
  8
RACCORDO
100
AcDbLine
 62
253
  6
CONTINUOUS
 10
8.6933515559
 20
16.4517633482
 11
8.6933545724
 21
16.4250389212
  0
LINE
  5
444
100
AcDbEntity
  8
RACCORDO
100
AcDbLine
 62
7
  6
CONTINUOUS
 10
7.6324445832
 20
-11.5940411559
 11
7.7023713952
 21
-10.5940411559
  0
LINE
  5
445
100
AcDbEntity
  8
DRAFT
100
AcDbLine
 62
7
  6
CONTINUOUS
 10
7.8354177689
 20
-11.5940411559
 11
7.9053445808
 21
-10.5940411559
  0
LINE
  5
446
100
AcDbEntity
  8
RACCORDO
100
AcDbLine
 62
7
  6
CONTINUOUS
 10
7.9250418504
 20
10.9937316913
 11
7.9318580991
 21
11.0817851647
  0
LINE
  5
447
100
AcDbEntity
  8
0
100
AcDbLine
 62
7
  6
CONTINUOUS
 10
8.8699264878
 20
3.27160536
 11
8.873330823
 21
3.2852123325
  0
LINE
  5
448
100
AcDbEntity
  8
0
100
AcDbLine
 62
7
  6
CONTINUOUS
 10
8.2322282397
 20
5.1905926877
 11
8.2384778054
 21
5.2133080546
  0
LINE
  5
449
100
AcDbEntity
  8
RACCORDO
100
AcDbLine
 62
7
  6
CONTINUOUS
 10
9.5561823114
 20
4.0582917009
 11
9.4070600307
 21
3.6034859065
  0
LINE
  5
44A
100
AcDbEntity
  8
RACCORDO
100
AcDbLine
 62
253
  6
CONTINUOUS
 10
-5.5434249353
 20
-12.0542215671
 11
-5.7733714663
 21
-12.24511673
  0
LINE
  5
44B
100
AcDbEntity
  8
RACCORDO
100
AcDbLine
 62
253
  6
CONTINUOUS
 10
-0.8099134065
 20
-8.1245930716
 11
-0.5799668799
 21
-7.9336979153
  0
LINE
  5
44C
100
AcDbEntity
  8
RACCORDO
100
AcDbLine
 62
253
  6
CONTINUOUS
 10
-1.0624620967
 20
-8.4915079644
 11
-0.8240398193
 21
-8.3113104814
  0
LINE
  5
44D
100
AcDbEntity
  8
RACCORDO
100
AcDbLine
 62
253
  6
CONTINUOUS
 10
-5.2908762644
 20
-11.6873066343
 11
-5.5292985515
 21
-11.8675041224
  0
LINE
  5
44E
100
AcDbEntity
  8
DRAFT
100
AcDbLine
 62
7
  6
CONTINUOUS
 10
7.6257967453
 20
9.9524477259
 11
2.0208649007
 21
9.9524477259
  0
LINE
  5
44F
100
AcDbEntity
  8
DRAFT
100
AcDbLine
 62
7
  6
CONTINUOUS
 10
-2.8742032547
 20
9.9524477259
 11
-8.4791350993
 21
9.9524477259
  0
LINE
  5
450
100
AcDbEntity
  8
RACCORDO
100
AcDbLine
 62
253
  6
CONTINUOUS
 10
10.3564698266
 20
9.9938839961
 11
7.6257967453
 21
9.9938839961
  0
LINE
  5
451
100
AcDbEntity
  8
RACCORDO
100
AcDbLine
 62
253
  6
CONTINUOUS
 10
2.0208649007
 20
9.9938839961
 11
-2.8742032547
 21
9.9938839961
  0
LINE
  5
452
100
AcDbEntity
  8
RACCORDO
100
AcDbLine
 62
253
  6
CONTINUOUS
 10
-8.4791350993
 20
9.9938839961
 11
-11.2098081807
 21
9.9938839961
  0
LINE
  5
453
100
AcDbEntity
  8
RACCORDO
100
AcDbLine
 62
7
  6
CONTINUOUS
 10
-8.4781263703
 20
10.4605926877
 11
-8.4265644655
 21
10.4605926877
  0
LINE
  5
454
100
AcDbEntity
  8
0
100
AcDbLine
 62
7
  6
CONTINUOUS
 10
-8.4265644655
 20
10.4605926877
 11
-2.9267738886
 21
10.4605926877
  0
LINE
  5
455
100
AcDbEntity
  8
RACCORDO
100
AcDbLine
 62
7
  6
CONTINUOUS
 10
-2.9267738886
 20
10.4605926877
 11
-2.8752119838
 21
10.4605926877
  0
LINE
  5
456
100
AcDbEntity
  8
RACCORDO
100
AcDbLine
 62
7
  6
CONTINUOUS
 10
2.0218736297
 20
10.4605926877
 11
2.0734355345
 21
10.4605926877
  0
LINE
  5
457
100
AcDbEntity
  8
0
100
AcDbLine
 62
7
  6
CONTINUOUS
 10
2.0734355345
 20
10.4605926877
 11
7.5732261114
 21
10.4605926877
  0
LINE
  5
458
100
AcDbEntity
  8
RACCORDO
100
AcDbLine
 62
7
  6
CONTINUOUS
 10
7.5732261114
 20
10.4605926877
 11
7.6247880162
 21
10.4605926877
  0
LINE
  5
459
100
AcDbEntity
  8
RACCORDO
100
AcDbLine
 62
253
  6
CONTINUOUS
 10
9.3566221314
 20
10.9937316913
 11
7.9250418504
 21
10.9937316913
  0
LINE
  5
45A
100
AcDbEntity
  8
RACCORDO
100
AcDbLine
 62
253
  6
CONTINUOUS
 10
1.7216197955
 20
10.9937316913
 11
-2.5749581496
 21
10.9937316913
  0
LINE
  5
45B
100
AcDbEntity
  8
RACCORDO
100
AcDbLine
 62
253
  6
CONTINUOUS
 10
-8.7783802045
 20
10.9937316913
 11
-10.2099604855
 21
10.9937316913
  0
LINE
  5
45C
100
AcDbEntity
  8
RACCORDO
100
AcDbLine
 62
253
  6
CONTINUOUS
 10
-10.3535489672
 20
11.137320173
 11
9.5002106132
 21
11.137320173
  0
LINE
  5
45D
100
AcDbEntity
  8
RACCORDO
100
AcDbLine
 62
7
  6
CONTINUOUS
 10
-0.126669177
 20
15.5105926877
 11
-0.1854176093
 21
15.5996067392
  0
LINE
  5
45E
100
AcDbEntity
  8
RACCORDO
100
AcDbLine
 62
253
  6
CONTINUOUS
 10
9.2208441559
 20
0.6703400778
 11
9.3566221314
 21
0.4041058008
  0
LINE
  5
45F
100
AcDbEntity
  8
0
100
AcDbLine
 62
253
  6
CONTINUOUS
 10
9.4689632198
 20
25.638423904
 11
9.4740538208
 21
25.1332424185
  0
LINE
  5
460
100
AcDbEntity
  8
0
100
AcDbLine
 62
253
  6
CONTINUOUS
 10
9.718958989
 20
25.854930255
 11
9.723330823
 21
25.4210778359
  0
LINE
  5
461
100
AcDbEntity
  8
RACCORDO
100
AcDbLine
 62
7
  6
CONTINUOUS
 10
9.4783495446
 20
12.4902265827
 11
9.4795781091
 21
12.2743371083
  0
LINE
  5
462
100
AcDbEntity
  8
RACCORDO
100
AcDbLine
 62
253
  6
CONTINUOUS
 10
9.5259297289
 20
11.6439715912
 11
9.5259362612
 21
11.6370234338
  0
LINE
  5
463
100
AcDbEntity
  8
0
100
AcDbLine
 62
7
  6
CONTINUOUS
 10
8.823330823
 20
-8.5331169265
 11
8.823330823
 21
-10.5940411559
  0
LINE
  5
464
100
AcDbEntity
  8
0
100
AcDbLine
 62
7
  6
CONTINUOUS
 10
8.8699264878
 20
3.0091435008
 11
8.8699264878
 21
3.27160536
  0
LINE
  5
465
100
AcDbEntity
  8
RACCORDO
100
AcDbLine
 62
7
  6
CONTINUOUS
 10
8.8708520698
 20
-8.8918860655
 11
8.8708520698
 21
-11.5940411559
  0
LINE
  5
466
100
AcDbEntity
  8
RACCORDO
100
AcDbLine
 62
253
  6
CONTINUOUS
 10
8.871691729
 20
-16.4082284389
 11
8.871691729
 21
-17.4080761341
  0
LINE
  5
467
100
AcDbEntity
  8
RACCORDO
100
AcDbLine
 62
253
  6
CONTINUOUS
 10
8.9418239378
 20
21.5985756393
 11
8.9418239378
 21
20.5987279441
  0
LINE
  5
468
100
AcDbEntity
  8
RACCORDO
100
AcDbLine
 62
253
  6
CONTINUOUS
 10
8.969477891
 20
20.571073991
 11
8.969477891
 21
20.2710789669
  0
LINE
  5
469
100
AcDbEntity
  8
RACCORDO
100
AcDbLine
 62
253
  6
CONTINUOUS
 10
9.0039534054
 20
11.5202061167
 11
9.0039534054
 21
11.7499783984
  0
LINE
  5
46A
100
AcDbEntity
  8
RACCORDO
100
AcDbLine
 62
7
  6
CONTINUOUS
 10
9.0384206931
 20
-8.6945046914
 11
9.0384206931
 21
-8.7243174422
  0
LINE
  5
46B
100
AcDbEntity
  8
0
100
AcDbLine
 62
7
  6
CONTINUOUS
 10
9.323330823
 20
3.0091435008
 11
9.323330823
 21
2.3279721696
  0
LINE
  5
46C
100
AcDbEntity
  8
RACCORDO
100
AcDbLine
 62
253
  6
CONTINUOUS
 10
9.35661954
 20
-13.0958954222
 11
9.3566221314
 21
-15.5091731366
  0
LINE
  5
46D
100
AcDbEntity
  8
RACCORDO
100
AcDbLine
 62
253
  6
CONTINUOUS
 10
9.35661954
 20
0.4041045778
 11
9.3566195414
 21
-7.0829192031
  0
LINE
  5
46E
100
AcDbEntity
  8
RACCORDO
100
AcDbLine
 62
253
  6
CONTINUOUS
 10
9.3566195414
 20
6.4170807969
 11
9.3566221314
 21
10.9937316913
  0
LINE
  5
46F
100
AcDbEntity
  8
RACCORDO
100
AcDbLine
 62
7
  6
CONTINUOUS
 10
9.443330823
 20
19.7106009809
 11
9.443330823
 21
16.5105926877
  0
LINE
  5
470
100
AcDbEntity
  8
DRAFT
100
AcDbLine
 62
7
  6
CONTINUOUS
 10
9.443330823
 20
15.5105926877
 11
9.443330823
 21
12.5404249492
  0
LINE
  5
471
100
AcDbEntity
  8
0
100
AcDbLine
 62
253
  6
CONTINUOUS
 10
9.4689632198
 20
-21.6172385287
 11
9.4689632198
 21
-22.4850354783
  0
LINE
  5
472
100
AcDbEntity
  8
0
100
AcDbLine
 62
253
  6
CONTINUOUS
 10
9.4689632198
 20
25.638423904
 11
9.4689632198
 21
26.5062208537
  0
LINE
  5
473
100
AcDbEntity
  8
DRAFT
100
AcDbLine
 62
7
  6
CONTINUOUS
 10
9.4961359658
 20
3.8739923658
 11
9.4961359658
 21
2.6208067109
  0
LINE
  5
474
100
AcDbEntity
  8
RACCORDO
100
AcDbLine
 62
253
  6
CONTINUOUS
 10
9.5002106132
 20
11.137320173
 11
9.5002106132
 21
11.6281752908
  0
LINE
  5
475
100
AcDbEntity
  8
RACCORDO
100
AcDbLine
 62
7
  6
CONTINUOUS
 10
9.5020792552
 20
16.025054152
 11
9.5020792552
 21
15.9961312234
  0
LINE
  5
476
100
AcDbEntity
  8
RACCORDO
100
AcDbLine
 62
253
  6
CONTINUOUS
 10
9.5034866496
 20
19.6004649531
 11
9.5034866497
 21
12.2504298612
  0
LINE
  5
477
100
AcDbEntity
  8
0
100
AcDbLine
 62
7
  6
CONTINUOUS
 10
9.718958989
 20
-22.2350397091
 11
9.718958989
 21
-21.8337448796
  0
LINE
  5
478
100
AcDbEntity
  8
0
100
AcDbLine
 62
7
  6
CONTINUOUS
 10
9.718958989
 20
25.854930255
 11
9.718958989
 21
26.2562250845
  0
LINE
  5
479
100
AcDbEntity
  8
0
100
AcDbLine
 62
7
  6
CONTINUOUS
 10
9.723330823
 20
-20.3894073123
 11
9.723330823
 21
-21.8337448796
  0
LINE
  5
47A
100
AcDbEntity
  8
0
100
AcDbLine
 62
7
  6
CONTINUOUS
 10
9.723330823
 20
24.4105926877
 11
9.723330823
 21
25.854930255
  0
LINE
  5
47B
100
AcDbEntity
  8
RACCORDO
100
AcDbLine
 62
253
  6
CONTINUOUS
 10
9.9224297108
 20
19.6004651451
 11
9.9224297077
 21
12.2504285678
  0
LINE
  5
47C
100
AcDbEntity
  8
RACCORDO
100
AcDbLine
 62
253
  6
CONTINUOUS
 10
10.0096000858
 20
-11.523098705
 11
10.0096000858
 21
-11.3683646338
  0
LINE
  5
47D
100
AcDbEntity
  8
RACCORDO
100
AcDbLine
 62
253
  6
CONTINUOUS
 10
10.0096000858
 20
-8.8104499909
 11
10.0096000858
 21
-8.6557159807
  0
LINE
  5
47E
100
AcDbEntity
  8
RACCORDO
100
AcDbLine
 62
253
  6
CONTINUOUS
 10
10.0096000858
 20
1.976901327
 11
10.0096000858
 21
2.1316353662
  0
LINE
  5
47F
100
AcDbEntity
  8
RACCORDO
100
AcDbLine
 62
253
  6
CONTINUOUS
 10
10.0096000858
 20
4.6895500091
 11
10.0096000858
 21
4.844284085
  0
LINE
  5
480
100
AcDbEntity
  8
RACCORDO
100
AcDbLine
 62
253
  6
CONTINUOUS
 10
10.3095543943
 20
-11.523098705
 11
10.3095543943
 21
-11.3772102799
  0
LINE
  5
481
100
AcDbEntity
  8
RACCORDO
100
AcDbLine
 62
253
  6
CONTINUOUS
 10
10.3095543943
 20
-8.8016043447
 11
10.3095543943
 21
-8.6557159807
  0
LINE
  5
482
100
AcDbEntity
  8
RACCORDO
100
AcDbLine
 62
253
  6
CONTINUOUS
 10
10.3095543943
 20
1.976901327
 11
10.3095543943
 21
2.1227897201
  0
LINE
  5
483
100
AcDbEntity
  8
RACCORDO
100
AcDbLine
 62
253
  6
CONTINUOUS
 10
10.3095543943
 20
4.6983956553
 11
10.3095543943
 21
4.844284085
  0
LINE
  5
484
100
AcDbEntity
  8
RACCORDO
100
AcDbLine
 62
253
  6
CONTINUOUS
 10
10.3564698266
 20
9.9938839961
 11
10.3564698266
 21
5.1639522032
  0
LINE
  5
485
100
AcDbEntity
  8
RACCORDO
100
AcDbLine
 62
253
  6
CONTINUOUS
 10
10.3564698266
 20
1.6572332225
 11
10.3564698266
 21
-8.3360474729
  0
LINE
  5
486
100
AcDbEntity
  8
RACCORDO
100
AcDbLine
 62
253
  6
CONTINUOUS
 10
10.3564698266
 20
-11.8427667538
 11
10.3564698266
 21
-15.5091475608
  0
LINE
  5
487
100
AcDbEntity
  8
RACCORDO
100
AcDbLine
 62
253
  6
CONTINUOUS
 10
10.5257839564
 20
19.6004651451
 11
10.5257839564
 21
10.163198126
  0
LINE
  5
488
100
AcDbEntity
  8
RACCORDO
100
AcDbLine
 62
7
  6
CONTINUOUS
 10
9.1004869811
 20
-8.751116968
 11
9.0959767002
 21
-11.4319528363
  0
LINE
  5
489
100
AcDbEntity
  8
DRAFT
100
AcDbLine
 62
7
  6
CONTINUOUS
 10
9.4078643098
 20
2.4558899412
 11
9.4098091497
 21
3.611870403
  0
LINE
  5
48A
100
AcDbEntity
  8
0
100
AcDbLine
 62
253
  6
CONTINUOUS
 10
9.4740538208
 20
-21.1120570431
 11
9.4689632198
 21
-21.6172385287
  0
LINE
  5
48B
100
AcDbEntity
  8
0
100
AcDbLine
 62
253
  6
CONTINUOUS
 10
9.723330823
 20
-21.3998924605
 11
9.718958989
 21
-21.8337448796
  0
LINE
  5
48C
100
AcDbEntity
  8
DRAFT
100
AcDbLine
 62
7
  6
CONTINUOUS
 10
9.3789434267
 20
3.5275746283
 11
9.3602804576
 21
2.380997163
  0
LINE
  5
48D
100
AcDbEntity
  8
RACCORDO
100
AcDbLine
 62
253
  6
CONTINUOUS
 10
9.517363632
 20
11.1371755917
 11
9.5259362612
 21
11.6370234338
  0
LINE
  5
48E
100
AcDbEntity
  8
DRAFT
100
AcDbLine
 62
7
  6
CONTINUOUS
 10
-7.9121989952
 20
-18.8394073123
 11
-7.826669177
 21
-18.7538774942
  0
LINE
  5
48F
100
AcDbEntity
  8
DRAFT
100
AcDbLine
 62
7
  6
CONTINUOUS
 10
-6.176669177
 20
-17.6894073123
 11
-6.0876483459
 21
-17.6003864812
  0
LINE
  5
490
100
AcDbEntity
  8
DRAFT
100
AcDbLine
 62
7
  6
CONTINUOUS
 10
-6.0876483459
 20
-17.8003864812
 11
-6.176669177
 21
-17.8894073123
  0
LINE
  5
491
100
AcDbEntity
  8
RACCORDO
100
AcDbLine
 62
7
  6
CONTINUOUS
 10
9.4795712893
 20
12.2675659359
 11
5.825468467
 21
11.9478733636
  0
LINE
  5
492
100
AcDbEntity
  8
SMUSSO
100
AcDbLine
 62
7
  6
CONTINUOUS
 10
9.4783495446
 20
12.4902265827
 11
5.8061268788
 21
12.1689487295
  0
LINE
  5
493
100
AcDbEntity
  8
RACCORDO
100
AcDbLine
 62
7
  6
CONTINUOUS
 10
9.443330823
 20
12.5404249492
 11
5.803810254
 21
12.2220081587
  0
LINE
  5
494
100
AcDbEntity
  8
RACCORDO
100
AcDbLine
 62
253
  6
CONTINUOUS
 10
9.0039534054
 20
11.5202061167
 11
0.3127082405
 21
11.5202061167
  0
LINE
  5
495
100
AcDbEntity
  8
RACCORDO
100
AcDbLine
 62
253
  6
CONTINUOUS
 10
-10.3535489672
 20
11.6372440206
 11
-0.2013541443
 21
11.6372436545
  0
LINE
  5
496
100
AcDbEntity
  8
RACCORDO
100
AcDbLine
 62
253
  6
CONTINUOUS
 10
9.0039520516
 20
11.7499783984
 11
0.3127097875
 21
11.7499783984
  0
LINE
  5
497
100
AcDbEntity
  8
RACCORDO
100
AcDbLine
 62
7
  6
CONTINUOUS
 10
4.673330823
 20
11.7518442554
 11
3.673330823
 21
11.7518442554
  0
LINE
  5
498
100
AcDbEntity
  8
RACCORDO
100
AcDbLine
 62
7
  6
CONTINUOUS
 10
0.3370367334
 20
11.7743068913
 11
3.673330823
 21
11.7743068913
  0
LINE
  5
499
100
AcDbEntity
  8
RACCORDO
100
AcDbLine
 62
7
  6
CONTINUOUS
 10
4.673330823
 20
11.7743068913
 11
8.9796249125
 21
11.7743068913
  0
LINE
  5
49A
100
AcDbEntity
  8
RACCORDO
100
AcDbLine
 62
253
  6
CONTINUOUS
 10
4.673330823
 20
11.9042693196
 11
3.673330823
 21
11.9042693196
  0
LINE
  5
49B
100
AcDbEntity
  8
SMUSSO
100
AcDbLine
 62
7
  6
CONTINUOUS
 10
5.5446696064
 20
11.9356134206
 11
2.8374450325
 21
11.9356134206
  0
LINE
  5
49C
100
AcDbEntity
  8
SMUSSO
100
AcDbLine
 62
7
  6
CONTINUOUS
 10
5.5446696064
 20
12.1575332584
 11
2.8374450325
 21
12.1575332584
  0
LINE
  5
49D
100
AcDbEntity
  8
RACCORDO
100
AcDbLine
 62
7
  6
CONTINUOUS
 10
5.5423529817
 20
12.2105926877
 11
2.8404000102
 21
12.2105926877
  0
LINE
  5
49E
100
AcDbEntity
  8
RACCORDO
100
AcDbLine
 62
253
  6
CONTINUOUS
 10
-0.4871504803
 20
12.2500981153
 11
-0.1871554562
 21
12.2500981153
  0
LINE
  5
49F
100
AcDbEntity
  8
RACCORDO
100
AcDbLine
 62
253
  6
CONTINUOUS
 10
9.9224297077
 20
12.2504285678
 11
9.5034866497
 21
12.2504285678
  0
LINE
  5
4A0
100
AcDbEntity
  8
RACCORDO
100
AcDbLine
 62
7
  6
CONTINUOUS
 10
2.4796979873
 20
11.9555370153
 11
-0.1623996288
 21
12.2507392156
  0
LINE
  5
4A1
100
AcDbEntity
  8
SMUSSO
100
AcDbLine
 62
7
  6
CONTINUOUS
 10
2.5043398112
 20
12.1760845043
 11
-0.1616878986
 21
12.4739604197
  0
LINE
  5
4A2
100
AcDbEntity
  8
RACCORDO
100
AcDbLine
 62
7
  6
CONTINUOUS
 10
-0.126669177
 20
12.5234373592
 11
2.5072947889
 21
12.2291439336
  0
LINE
  5
4A3
100
AcDbEntity
  8
DRAFT
100
AcDbLine
 62
7
  6
CONTINUOUS
 10
-7.9121989952
 20
22.8605926877
 11
-7.826669177
 21
22.7750628695
  0
LINE
  5
4A4
100
AcDbEntity
  8
DRAFT
100
AcDbLine
 62
7
  6
CONTINUOUS
 10
-6.176669177
 20
21.7105926877
 11
-6.0876483459
 21
21.6215718566
  0
LINE
  5
4A5
100
AcDbEntity
  8
RACCORDO
100
AcDbLine
 62
7
  6
CONTINUOUS
 10
0.0675118627
 20
15.5963909151
 11
0.098330642
 21
15.5655721357
  0
LINE
  5
4A6
100
AcDbEntity
  8
RACCORDO
100
AcDbLine
 62
253
  6
CONTINUOUS
 10
0.1185337684
 20
15.5653973576
 11
0.1733384384
 21
15.5105926877
  0
LINE
  5
4A7
100
AcDbEntity
  8
DRAFT
100
AcDbLine
 62
7
  6
CONTINUOUS
 10
-6.176669177
 20
21.9105926877
 11
-6.0876483459
 21
21.8215718566
  0
LINE
  5
4A8
100
AcDbEntity
  8
RACCORDO
100
AcDbLine
 62
253
  6
CONTINUOUS
 10
0.3202713937
 20
15.7636445016
 11
0.373330823
 21
15.7105850723
  0
LINE
  5
4A9
100
AcDbEntity
  8
ASSI
100
AcDbLine
 62
7
  6
CONTINUOUS
 10
10.7063134308
 20
-16.5064247045
 11
10.7063134308
 21
-15.9203469347
  0
LINE
  5
4AA
100
AcDbEntity
  8
ASSI
100
AcDbLine
 62
7
  6
CONTINUOUS
 10
10.7063134308
 20
19.9415323101
 11
10.7063134308
 21
20.5276100799
  0
LINE
  5
4AB
100
AcDbEntity
  8
0
100
AcDbLine
 62
7
  6
CONTINUOUS
 10
10.7150402986
 20
-19.8836064055
 11
10.7150402986
 21
-16.4976978367
  0
LINE
  5
4AC
100
AcDbEntity
  8
0
100
AcDbLine
 62
7
  6
CONTINUOUS
 10
10.7150402986
 20
20.5188832121
 11
10.7150402986
 21
23.9047917809
  0
LINE
  5
4AD
100
AcDbEntity
  8
RACCORDO
100
AcDbLine
 62
7
  6
CONTINUOUS
 10
10.723330823
 20
-15.661106361
 11
10.723330823
 21
19.6822917364
  0
LINE
  5
4AE
100
AcDbEntity
  8
0
100
AcDbLine
 62
7
  6
CONTINUOUS
 10
10.7237671664
 20
-19.8894242353
 11
10.7237671664
 21
23.9106096107
  0
LINE
  5
4AF
100
AcDbEntity
  8
0
100
AcDbLine
 62
253
  6
CONTINUOUS
 10
1.5210756551
 20
-17.4961591177
 11
2.0734355345
 21
-16.5394073123
  0
LINE
  5
4B0
100
AcDbEntity
  8
0
100
AcDbLine
 62
7
  6
CONTINUOUS
 10
-4.876669177
 20
-20.3894073123
 11
-4.83274693
 21
-20.3454850653
  0
LINE
  5
4B1
100
AcDbEntity
  8
RACCORDO
100
AcDbLine
 62
253
  6
CONTINUOUS
 10
-0.0434249475
 20
-12.0542215531
 11
-0.2733714742
 21
-12.2451167093
  0
LINE
  5
4B2
100
AcDbEntity
  8
RACCORDO
100
AcDbLine
 62
253
  6
CONTINUOUS
 10
4.6900865812
 20
-8.1245930576
 11
4.9200331123
 21
-7.9336978946
  0
LINE
  5
4B3
100
AcDbEntity
  8
RACCORDO
100
AcDbLine
 62
253
  6
CONTINUOUS
 10
0.2091237426
 20
-11.6873066603
 11
-0.0292985348
 21
-11.8675041432
  0
LINE
  5
4B4
100
AcDbEntity
  8
RACCORDO
100
AcDbLine
 62
253
  6
CONTINUOUS
 10
4.4375379103
 20
-8.4915079903
 11
4.6759601974
 21
-8.3113105022
  0
LINE
  5
4B5
100
AcDbEntity
  8
0
100
AcDbLine
 62
253
  6
CONTINUOUS
 10
-11.5771055204
 20
-19.8894242353
 11
-11.5683786526
 21
-19.8836064055
  0
LINE
  5
4B6
100
AcDbEntity
  8
0
100
AcDbLine
 62
253
  6
CONTINUOUS
 10
-11.0771118665
 20
-20.3894073123
 11
-11.0683849987
 21
-20.3835894825
  0
LINE
  5
4B7
100
AcDbEntity
  8
RACCORDO
100
AcDbLine
 62
253
  6
CONTINUOUS
 10
-11.576669177
 20
-15.661106361
 11
-11.2098081807
 21
-15.5091475608
  0
LINE
  5
4B8
100
AcDbEntity
  8
RACCORDO
100
AcDbLine
 62
253
  6
CONTINUOUS
 10
-11.3791223105
 20
19.6004651451
 11
-11.576669177
 21
19.6822917364
  0
LINE
  5
4B9
100
AcDbEntity
  8
DRAFT
100
AcDbLine
 62
7
  6
CONTINUOUS
 10
7.6257967453
 20
9.9524477259
 11
7.5732261114
 21
9.9874943209
  0
LINE
  5
4BA
100
AcDbEntity
  8
0
100
AcDbLine
 62
253
  6
CONTINUOUS
 10
-11.5683786526
 20
23.9047917809
 11
-11.5771055204
 21
23.9106096107
  0
LINE
  5
4BB
100
AcDbEntity
  8
0
100
AcDbLine
 62
253
  6
CONTINUOUS
 10
-11.0683849987
 20
24.4047748579
 11
-11.0771118665
 21
24.4105926877
  0
LINE
  5
4BC
100
AcDbEntity
  8
0
100
AcDbLine
 62
7
  6
CONTINUOUS
 10
-4.876669177
 20
24.4105926877
 11
-4.83274693
 21
24.3666704406
  0
LINE
  5
4BD
100
AcDbEntity
  8
RACCORDO
100
AcDbLine
 62
253
  6
CONTINUOUS
 10
-0.126669177
 20
19.7106009809
 11
-0.1871554562
 21
19.7710849707
  0
LINE
  5
4BE
100
AcDbEntity
  8
RACCORDO
100
AcDbLine
 62
253
  6
CONTINUOUS
 10
9.2208441559
 20
-7.3491547024
 11
9.3566221314
 21
-7.0829204254
  0
LINE
  5
4BF
100
AcDbEntity
  8
0
100
AcDbLine
 62
7
  6
CONTINUOUS
 10
-4.8330185302
 20
-21.9457566654
 11
-4.876669177
 21
-21.9894073123
  0
LINE
  5
4C0
100
AcDbEntity
  8
DRAFT
100
AcDbLine
 62
7
  6
CONTINUOUS
 10
8.8708520698
 20
-8.8918860655
 11
9.0384206931
 21
-8.7243174422
  0
LINE
  5
4C1
100
AcDbEntity
  8
RACCORDO
100
AcDbLine
 62
253
  6
CONTINUOUS
 10
5.4565750525
 20
-12.0542215531
 11
5.2266285258
 21
-12.2451167093
  0
LINE
  5
4C2
100
AcDbEntity
  8
DRAFT
100
AcDbLine
 62
7
  6
CONTINUOUS
 10
-2.9267738886
 20
-16.0663089456
 11
-2.8742032547
 21
-16.0312623506
  0
LINE
  5
4C3
100
AcDbEntity
  8
RACCORDO
100
AcDbLine
 62
253
  6
CONTINUOUS
 10
-10.9909719575
 20
-17.0751045318
 11
-10.6241109611
 21
-16.9231457316
  0
LINE
  5
4C4
100
AcDbEntity
  8
RACCORDO
100
AcDbLine
 62
7
  6
CONTINUOUS
 10
8.6933515559
 20
15.5694220271
 11
8.2281278775
 21
15.5653973576
  0
LINE
  5
4C5
100
AcDbEntity
  8
RACCORDO
100
AcDbLine
 62
7
  6
CONTINUOUS
 10
0.098330642
 20
16.4556132397
 11
0.1185337684
 21
16.4557880178
  0
LINE
  5
4C6
100
AcDbEntity
  8
RACCORDO
100
AcDbLine
 62
253
  6
CONTINUOUS
 10
1.2141731303
 20
15.0871963932
 11
3.3783617091
 21
15.0871963932
  0
LINE
  5
4C7
100
AcDbEntity
  8
RACCORDO
100
AcDbLine
 62
7
  6
CONTINUOUS
 10
9.443330823
 20
15.5105926877
 11
8.1733232076
 21
15.5105926877
  0
LINE
  5
4C8
100
AcDbEntity
  8
RACCORDO
100
AcDbLine
 62
7
  6
CONTINUOUS
 10
-0.126669177
 20
15.5105926877
 11
0.1733384384
 21
15.5105926877
  0
LINE
  5
4C9
100
AcDbEntity
  8
RACCORDO
100
AcDbLine
 62
253
  6
CONTINUOUS
 10
8.6933515559
 20
15.5961464542
 11
9.4997954998
 21
15.5961464542
  0
LINE
  5
4CA
100
AcDbEntity
  8
RACCORDO
100
AcDbLine
 62
253
  6
CONTINUOUS
 10
8.6933515559
 20
15.9961312234
 11
9.5020792552
 21
15.9961312234
  0
LINE
  5
4CB
100
AcDbEntity
  8
RACCORDO
100
AcDbLine
 62
253
  6
CONTINUOUS
 10
4.8763060112
 20
16.010061985
 11
4.8804202281
 21
16.010061985
  0
LINE
  5
4CC
100
AcDbEntity
  8
RACCORDO
100
AcDbLine
 62
253
  6
CONTINUOUS
 10
9.5020792552
 20
16.025054152
 11
8.6933515559
 21
16.025054152
  0
LINE
  5
4CD
100
AcDbEntity
  8
RACCORDO
100
AcDbLine
 62
253
  6
CONTINUOUS
 10
9.4997954998
 20
16.4250389212
 11
8.6933545724
 21
16.4250389212
  0
LINE
  5
4CE
100
AcDbEntity
  8
RACCORDO
100
AcDbLine
 62
7
  6
CONTINUOUS
 10
4.3811054607
 20
16.5086924588
 11
1.1137619208
 21
16.5086924588
  0
LINE
  5
4CF
100
AcDbEntity
  8
RACCORDO
100
AcDbLine
 62
7
  6
CONTINUOUS
 10
9.443330823
 20
16.5105926877
 11
8.1733232076
 21
16.5105926877
  0
LINE
  5
4D0
100
AcDbEntity
  8
RACCORDO
100
AcDbLine
 62
7
  6
CONTINUOUS
 10
-0.126669177
 20
16.5105926877
 11
0.1733384384
 21
16.5105926877
  0
LINE
  5
4D1
100
AcDbEntity
  8
RACCORDO
100
AcDbLine
 62
7
  6
CONTINUOUS
 10
0.1185337684
 20
15.5653973576
 11
0.098330642
 21
15.5655721357
  0
LINE
  5
4D2
100
AcDbEntity
  8
RACCORDO
100
AcDbLine
 62
7
  6
CONTINUOUS
 10
8.2281278775
 20
16.4557880178
 11
8.6933515559
 21
16.4517633482
  0
LINE
  5
4D3
100
AcDbEntity
  8
RACCORDO
100
AcDbLine
 62
253
  6
CONTINUOUS
 10
-10.7934250909
 20
21.0144633159
 11
-10.9909719575
 21
21.0962899072
  0
LINE
  5
4D4
100
AcDbEntity
  8
RACCORDO
100
AcDbLine
 62
253
  6
CONTINUOUS
 10
0.3733225298
 20
20.2105926877
 11
0.3128387663
 21
20.2710789669
  0
LINE
  5
4D5
100
AcDbEntity
  8
RACCORDO
100
AcDbLine
 62
253
  6
CONTINUOUS
 10
8.9796249125
 20
11.7743068913
 11
9.0039520516
 21
11.7499783984
  0
LINE
  5
4D6
100
AcDbEntity
  8
0
100
AcDbLine
 62
7
  6
CONTINUOUS
 10
-4.876669177
 20
26.0105926877
 11
-4.8330185302
 21
25.9669420408
  0
LINE
  5
4D7
100
AcDbEntity
  8
RACCORDO
100
AcDbLine
 62
253
  6
CONTINUOUS
 10
9.4795781091
 20
12.2743371083
 11
9.5034866497
 21
12.2504298612
  0
LINE
  5
4D8
100
AcDbEntity
  8
RACCORDO
100
AcDbLine
 62
253
  6
CONTINUOUS
 10
9.5259362612
 20
11.6439771806
 11
9.3301487696
 21
11.871268448
  0
LINE
  5
4D9
100
AcDbEntity
  8
RACCORDO
100
AcDbLine
 62
253
  6
CONTINUOUS
 10
9.5178919748
 20
11.6371398223
 11
9.3251210759
 21
11.8669951141
  0
LINE
  5
4DA
100
AcDbEntity
  8
SMUSSO
100
AcDbLine
 62
7
  6
CONTINUOUS
 10
9.443330823
 20
12.5404249492
 11
9.4783495446
 21
12.4902265827
  0
LINE
  5
4DB
100
AcDbEntity
  8
RACCORDO
100
AcDbLine
 62
253
  6
CONTINUOUS
 10
5.7091237426
 20
-11.6873066603
 11
5.4707014652
 21
-11.8675041432
  0
LINE
  5
4DC
100
AcDbEntity
  8
RACCORDO
100
AcDbLine
 62
253
  6
CONTINUOUS
 10
9.9713652603
 20
-8.5372791701
 11
10.2136023316
 21
-8.3622433584
  0
LINE
  5
4DD
100
AcDbEntity
  8
RACCORDO
100
AcDbLine
 62
7
  6
CONTINUOUS
 10
1.9995921132
 20
17.5073219936
 11
1.458621975
 21
17.5073219936
  0
LINE
  5
4DE
100
AcDbEntity
  8
0
100
AcDbLine
 62
7
  6
CONTINUOUS
 10
1.458621975
 20
17.5073219936
 11
1.9995921132
 21
17.5073219936
  0
LINE
  5
4DF
100
AcDbEntity
  8
0
100
AcDbLine
 62
7
  6
CONTINUOUS
 10
5.8804202281
 20
18.0066367609
 11
3.373330823
 21
18.0066367609
  0
LINE
  5
4E0
100
AcDbEntity
  8
RACCORDO
100
AcDbLine
 62
253
  6
CONTINUOUS
 10
5.9953930442
 20
18.3159673746
 11
2.1010528877
 21
18.3159673746
  0
LINE
  5
4E1
100
AcDbEntity
  8
RACCORDO
100
AcDbLine
 62
253
  6
CONTINUOUS
 10
4.4202790091
 20
19.863652117
 11
4.4733384384
 21
19.8105926877
  0
LINE
  5
4E2
100
AcDbEntity
  8
RACCORDO
100
AcDbLine
 62
253
  6
CONTINUOUS
 10
7.973330823
 20
16.3106003031
 11
8.0263902522
 21
16.2575408738
  0
LINE
  5
4E3
100
AcDbEntity
  8
RACCORDO
100
AcDbLine
 62
253
  6
CONTINUOUS
 10
4.6185261531
 20
20.0653897422
 11
4.673330823
 21
20.0105850723
  0
LINE
  5
4E4
100
AcDbEntity
  8
RACCORDO
100
AcDbLine
 62
253
  6
CONTINUOUS
 10
8.1733232076
 20
16.5105926877
 11
8.2281278775
 21
16.4557880178
  0
LINE
  5
4E5
100
AcDbEntity
  8
RACCORDO
100
AcDbLine
 62
7
  6
CONTINUOUS
 10
4.5870281878
 20
20.1169160558
 11
4.618351375
 21
20.0855928686
  0
LINE
  5
4E6
100
AcDbEntity
  8
RACCORDO
100
AcDbLine
 62
7
  6
CONTINUOUS
 10
9.443330823
 20
16.5105926877
 11
9.4997954998
 21
16.4250389212
  0
LINE
  5
4E7
100
AcDbEntity
  8
RACCORDO
100
AcDbLine
 62
7
  6
CONTINUOUS
 10
2.973330823
 20
-17.8894073123
 11
2.9724971262
 21
-17.890241009
  0
LINE
  5
4E8
100
AcDbEntity
  8
RACCORDO
100
AcDbLine
 62
253
  6
CONTINUOUS
 10
5.9953930442
 20
18.4196817455
 11
2.2224918411
 21
18.4196817455
  0
LINE
  5
4E9
100
AcDbEntity
  8
RACCORDO
100
AcDbLine
 62
253
  6
CONTINUOUS
 10
5.6291192423
 20
18.747388576
 11
2.7175424036
 21
18.747388576
  0
LINE
  5
4EA
100
AcDbEntity
  8
RACCORDO
100
AcDbLine
 62
253
  6
CONTINUOUS
 10
-11.3791223105
 20
19.6004651451
 11
-10.3792746153
 21
19.6004651451
  0
LINE
  5
4EB
100
AcDbEntity
  8
RACCORDO
100
AcDbLine
 62
253
  6
CONTINUOUS
 10
10.5257839564
 20
19.6004651451
 11
9.5034866496
 21
19.6004649531
  0
LINE
  5
4EC
100
AcDbEntity
  8
RACCORDO
100
AcDbLine
 62
253
  6
CONTINUOUS
 10
-0.4871504803
 20
19.7710872601
 11
-0.1871554562
 21
19.7710872601
  0
LINE
  5
4ED
100
AcDbEntity
  8
RACCORDO
100
AcDbLine
 62
7
  6
CONTINUOUS
 10
3.8733232076
 20
19.8105926877
 11
4.4733384384
 21
19.8105926877
  0
LINE
  5
4EE
100
AcDbEntity
  8
RACCORDO
100
AcDbLine
 62
7
  6
CONTINUOUS
 10
3.9263826369
 20
19.863652117
 11
4.4202790091
 21
19.863652117
  0
LINE
  5
4EF
100
AcDbEntity
  8
SMUSSO
100
AcDbLine
 62
7
  6
CONTINUOUS
 10
3.7283100885
 20
20.0855926861
 11
4.6183515575
 21
20.0855926861
  0
LINE
  5
4F0
100
AcDbEntity
  8
RACCORDO
100
AcDbLine
 62
253
  6
CONTINUOUS
 10
3.7596334581
 20
20.1169160558
 11
4.5870281878
 21
20.1169160558
  0
LINE
  5
4F1
100
AcDbEntity
  8
RACCORDO
100
AcDbLine
 62
7
  6
CONTINUOUS
 10
4.5843167715
 20
20.2693411199
 11
4.673330823
 21
20.2105926877
  0
LINE
  5
4F2
100
AcDbEntity
  8
RACCORDO
100
AcDbLine
 62
7
  6
CONTINUOUS
 10
2.973330823
 20
21.9105926877
 11
2.9724971262
 21
21.9114263844
  0
LINE
  5
4F3
100
AcDbEntity
  8
DRAFT
100
AcDbLine
 62
7
  6
CONTINUOUS
 10
6.973330823
 20
-17.6894073123
 11
7.0623516541
 21
-17.6003864812
  0
LINE
  5
4F4
100
AcDbEntity
  8
RACCORDO
100
AcDbLine
 62
253
  6
CONTINUOUS
 10
8.871691729
 20
-16.4082284389
 11
9.0637735217
 21
-16.2161466462
  0
LINE
  5
4F5
100
AcDbEntity
  8
DRAFT
100
AcDbLine
 62
7
  6
CONTINUOUS
 10
6.973330823
 20
-18.7538774942
 11
7.0623516541
 21
-18.664856663
  0
LINE
  5
4F6
100
AcDbEntity
  8
DRAFT
100
AcDbLine
 62
7
  6
CONTINUOUS
 10
7.5732261114
 20
-16.0663089456
 11
7.6257967453
 21
-16.0312623506
  0
LINE
  5
4F7
100
AcDbEntity
  8
RACCORDO
100
AcDbLine
 62
7
  6
CONTINUOUS
 10
0.3733225298
 20
20.2105926877
 11
3.673330823
 21
20.2105926877
  0
LINE
  5
4F8
100
AcDbEntity
  8
RACCORDO
100
AcDbLine
 62
7
  6
CONTINUOUS
 10
4.673330823
 20
20.2105926877
 11
8.9433391162
 21
20.2105926877
  0
LINE
  5
4F9
100
AcDbEntity
  8
RACCORDO
100
AcDbLine
 62
7
  6
CONTINUOUS
 10
3.7623448744
 20
20.2693411199
 11
4.5843167715
 21
20.2693411199
  0
LINE
  5
4FA
100
AcDbEntity
  8
RACCORDO
100
AcDbLine
 62
253
  6
CONTINUOUS
 10
0.3128387663
 20
20.2710789669
 11
8.969477891
 21
20.2710789669
  0
LINE
  5
4FB
100
AcDbEntity
  8
RACCORDO
100
AcDbLine
 62
253
  6
CONTINUOUS
 10
0.3128362506
 20
20.571073991
 11
8.9694778927
 21
20.571073991
  0
LINE
  5
4FC
100
AcDbEntity
  8
RACCORDO
100
AcDbLine
 62
253
  6
CONTINUOUS
 10
-9.7951622919
 20
20.5987279441
 11
8.9418239378
 21
20.5987279441
  0
LINE
  5
4FD
100
AcDbEntity
  8
RACCORDO
100
AcDbLine
 62
253
  6
CONTINUOUS
 10
-9.7951622919
 20
21.5985756393
 11
8.9418239378
 21
21.5985756393
  0
LINE
  5
4FE
100
AcDbEntity
  8
RACCORDO
100
AcDbLine
 62
7
  6
CONTINUOUS
 10
8.9513492829
 20
21.6215718566
 11
7.0623516541
 21
21.6215718566
  0
LINE
  5
4FF
100
AcDbEntity
  8
DRAFT
100
AcDbLine
 62
7
  6
CONTINUOUS
 10
-6.0876483459
 20
21.6215718566
 11
5.2343099918
 21
21.6215718566
  0
LINE
  5
500
100
AcDbEntity
  8
RACCORDO
100
AcDbLine
 62
7
  6
CONTINUOUS
 10
-7.9156900082
 20
21.6215718566
 11
-9.804687637
 21
21.6215718566
  0
LINE
  5
501
100
AcDbEntity
  8
DRAFT
100
AcDbLine
 62
7
  6
CONTINUOUS
 10
6.973330823
 20
21.7105926877
 11
5.323330823
 21
21.7105926877
  0
LINE
  5
502
100
AcDbEntity
  8
DRAFT
100
AcDbLine
 62
7
  6
CONTINUOUS
 10
-6.176669177
 20
21.7105926877
 11
-7.826669177
 21
21.7105926877
  0
LINE
  5
503
100
AcDbEntity
  8
DRAFT
100
AcDbLine
 62
7
  6
CONTINUOUS
 10
-6.0876483459
 20
21.8215718566
 11
5.2343099918
 21
21.8215718566
  0
LINE
  5
504
100
AcDbEntity
  8
RACCORDO
100
AcDbLine
 62
7
  6
CONTINUOUS
 10
-2.8281934119
 20
21.8950793673
 11
1.9748550578
 21
21.8950793673
  0
LINE
  5
505
100
AcDbEntity
  8
RACCORDO
100
AcDbLine
 62
7
  6
CONTINUOUS
 10
-6.176669177
 20
21.9105926877
 11
-3.826669177
 21
21.9105926877
  0
LINE
  5
506
100
AcDbEntity
  8
RACCORDO
100
AcDbLine
 62
7
  6
CONTINUOUS
 10
2.973330823
 20
21.9105926877
 11
5.323330823
 21
21.9105926877
  0
LINE
  5
507
100
AcDbEntity
  8
DRAFT
100
AcDbLine
 62
7
  6
CONTINUOUS
 10
6.973330823
 20
21.7105926877
 11
7.0623516541
 21
21.6215718566
  0
LINE
  5
508
100
AcDbEntity
  8
RACCORDO
100
AcDbLine
 62
253
  6
CONTINUOUS
 10
8.9418239378
 20
20.5987279441
 11
8.9694778927
 21
20.571073991
  0
LINE
  5
509
100
AcDbEntity
  8
DRAFT
100
AcDbLine
 62
7
  6
CONTINUOUS
 10
6.973330823
 20
22.7750628695
 11
7.0623516541
 21
22.6860420384
  0
LINE
  5
50A
100
AcDbEntity
  8
RACCORDO
100
AcDbLine
 62
253
  6
CONTINUOUS
 10
9.5786908144
 20
-17.1152275243
 11
9.7707726071
 21
-16.9231457316
  0
LINE
  5
50B
100
AcDbEntity
  8
RACCORDO
100
AcDbLine
 62
7
  6
CONTINUOUS
 10
9.6583483683
 20
-17.3075378714
 11
8.3010295767
 21
-18.664856663
  0
LINE
  5
50C
100
AcDbEntity
  8
0
100
AcDbLine
 62
7
  6
CONTINUOUS
 10
6.8873607975
 20
-20.3253773378
 11
6.8291486528
 21
-20.3835894825
  0
LINE
  5
50D
100
AcDbEntity
  8
ASSI
100
AcDbLine
 62
7
  6
CONTINUOUS
 10
6.8873607975
 20
-20.3253773378
 11
10.7063134308
 21
-16.5064247045
  0
LINE
  5
50E
100
AcDbEntity
  8
RACCORDO
100
AcDbLine
 62
7
  6
CONTINUOUS
 10
8.373330823
 20
-18.8394073123
 11
10.1376336035
 21
-17.0751045318
  0
LINE
  5
50F
100
AcDbEntity
  8
RACCORDO
100
AcDbLine
 62
7
  6
CONTINUOUS
 10
-6.7021693772
 20
22.0105926877
 11
5.8488310231
 21
22.0105926877
  0
LINE
  5
510
100
AcDbEntity
  8
DRAFT
100
AcDbLine
 62
7
  6
CONTINUOUS
 10
8.3010295767
 20
22.6860420384
 11
7.0623516541
 21
22.6860420384
  0
LINE
  5
511
100
AcDbEntity
  8
DRAFT
100
AcDbLine
 62
7
  6
CONTINUOUS
 10
-7.9156900082
 20
22.6860420384
 11
-9.1543679308
 21
22.6860420384
  0
LINE
  5
512
100
AcDbEntity
  8
0
100
AcDbLine
 62
7
  6
CONTINUOUS
 10
2.573330823
 20
22.8105926877
 11
-3.426669177
 21
22.8105926877
  0
LINE
  5
513
100
AcDbEntity
  8
DRAFT
100
AcDbLine
 62
7
  6
CONTINUOUS
 10
8.373330823
 20
22.8605926877
 11
7.0588606411
 21
22.8605926877
  0
LINE
  5
514
100
AcDbEntity
  8
DRAFT
100
AcDbLine
 62
7
  6
CONTINUOUS
 10
-7.9121989952
 20
22.8605926877
 11
-9.226669177
 21
22.8605926877
  0
LINE
  5
515
100
AcDbEntity
  8
RACCORDO
100
AcDbLine
 62
7
  6
CONTINUOUS
 10
7.173330823
 20
22.9105926877
 11
7.573330823
 21
22.9105926877
  0
LINE
  5
516
100
AcDbEntity
  8
RACCORDO
100
AcDbLine
 62
7
  6
CONTINUOUS
 10
-8.026669177
 20
22.9105926877
 11
-8.426669177
 21
22.9105926877
  0
LINE
  5
517
100
AcDbEntity
  8
ASSI
100
AcDbLine
 62
253
  6
CONTINUOUS
 10
6.9074315421
 20
23.3465796363
 11
2.573330823
 21
23.3465796363
  0
LINE
  5
518
100
AcDbEntity
  8
ASSI
100
AcDbLine
 62
253
  6
CONTINUOUS
 10
-3.426669177
 20
23.3465796363
 11
-7.7607698962
 21
23.3465796363
  0
LINE
  5
519
100
AcDbEntity
  8
0
100
AcDbLine
 62
7
  6
CONTINUOUS
 10
2.573330823
 20
23.7105926877
 11
-3.426669177
 21
23.7105926877
  0
LINE
  5
51A
100
AcDbEntity
  8
RACCORDO
100
AcDbLine
 62
253
  6
CONTINUOUS
 10
9.6488230232
 20
21.3057270295
 11
9.9400867369
 21
21.0144633159
  0
LINE
  5
51B
100
AcDbEntity
  8
RACCORDO
100
AcDbLine
 62
7
  6
CONTINUOUS
 10
8.3010295767
 20
22.6860420384
 11
9.6583483683
 21
21.3287232468
  0
LINE
  5
51C
100
AcDbEntity
  8
RACCORDO
100
AcDbLine
 62
7
  6
CONTINUOUS
 10
10.1376336035
 20
21.0962899072
 11
8.373330823
 21
22.8605926877
  0
LINE
  5
51D
100
AcDbEntity
  8
ASSI
100
AcDbLine
 62
7
  6
CONTINUOUS
 10
10.7063134308
 20
20.5276100799
 11
6.8873607975
 21
24.3465627132
  0
LINE
  5
51E
100
AcDbEntity
  8
0
100
AcDbLine
 62
7
  6
CONTINUOUS
 10
6.8873607975
 20
24.3465627132
 11
6.8291486528
 21
24.4047748579
  0
LINE
  5
51F
100
AcDbEntity
  8
0
100
AcDbLine
 62
253
  6
CONTINUOUS
 10
6.8873607975
 20
24.3465627132
 11
2.573330823
 21
24.3465627132
  0
LINE
  5
520
100
AcDbEntity
  8
0
100
AcDbLine
 62
253
  6
CONTINUOUS
 10
-3.426669177
 20
24.3465627132
 11
-7.7406991515
 21
24.3465627132
  0
LINE
  5
521
100
AcDbEntity
  8
0
100
AcDbLine
 62
7
  6
CONTINUOUS
 10
10.2150466447
 20
24.4047748579
 11
6.8291486528
 21
24.4047748579
  0
LINE
  5
522
100
AcDbEntity
  8
0
100
AcDbLine
 62
7
  6
CONTINUOUS
 10
-7.6824870068
 20
24.4047748579
 11
-11.0683849987
 21
24.4047748579
  0
LINE
  5
523
100
AcDbEntity
  8
0
100
AcDbLine
 62
7
  6
CONTINUOUS
 10
0.573330823
 20
24.4053566521
 11
-1.426669177
 21
24.4053566521
  0
LINE
  5
524
100
AcDbEntity
  8
0
100
AcDbLine
 62
7
  6
CONTINUOUS
 10
4.023330823
 20
24.4105926877
 11
10.2228386695
 21
24.4105926877
  0
LINE
  5
525
100
AcDbEntity
  8
0
100
AcDbLine
 62
7
  6
CONTINUOUS
 10
-4.876669177
 20
24.4105926877
 11
-11.0761770235
 21
24.4105926877
  0
LINE
  5
526
100
AcDbEntity
  8
0
100
AcDbLine
 62
7
  6
CONTINUOUS
 10
-10.3273921749
 20
25.1332424185
 11
-7.9259461792
 21
25.1332424185
  0
LINE
  5
527
100
AcDbEntity
  8
0
100
AcDbLine
 62
7
  6
CONTINUOUS
 10
9.4740538208
 20
25.1332424185
 11
7.0726078251
 21
25.1332424185
  0
LINE
  5
528
100
AcDbEntity
  8
0
100
AcDbLine
 62
253
  6
CONTINUOUS
 10
-10.3223015738
 20
25.638423904
 11
-7.9310367802
 21
25.638423904
  0
LINE
  5
529
100
AcDbEntity
  8
0
100
AcDbLine
 62
253
  6
CONTINUOUS
 10
7.0776984262
 20
25.638423904
 11
9.4689632198
 21
25.638423904
  0
LINE
  5
52A
100
AcDbEntity
  8
0
100
AcDbLine
 62
253
  6
CONTINUOUS
 10
6.827702657
 20
25.854930255
 11
9.718958989
 21
25.854930255
  0
LINE
  5
52B
100
AcDbEntity
  8
0
100
AcDbLine
 62
253
  6
CONTINUOUS
 10
-7.681041011
 20
25.854930255
 11
-10.572297343
 21
25.854930255
  0
LINE
  5
52C
100
AcDbEntity
  8
0
100
AcDbLine
 62
7
  6
CONTINUOUS
 10
3.9796801761
 20
25.9669420408
 11
3.073330823
 21
25.9669420408
  0
LINE
  5
52D
100
AcDbEntity
  8
0
100
AcDbLine
 62
7
  6
CONTINUOUS
 10
-3.926669177
 20
25.9669420408
 11
-4.8330185302
 21
25.9669420408
  0
LINE
  5
52E
100
AcDbEntity
  8
0
100
AcDbLine
 62
7
  6
CONTINUOUS
 10
3.073330823
 20
26.0047748579
 11
0.773330823
 21
26.0047748579
  0
LINE
  5
52F
100
AcDbEntity
  8
0
100
AcDbLine
 62
7
  6
CONTINUOUS
 10
-1.626669177
 20
26.0047748579
 11
-3.926669177
 21
26.0047748579
  0
LINE
  5
530
100
AcDbEntity
  8
0
100
AcDbLine
 62
7
  6
CONTINUOUS
 10
4.023330823
 20
26.0105926877
 11
0.773330823
 21
26.0105926877
  0
LINE
  5
531
100
AcDbEntity
  8
0
100
AcDbLine
 62
7
  6
CONTINUOUS
 10
-1.626669177
 20
26.0105926877
 11
-4.876669177
 21
26.0105926877
  0
LINE
  5
532
100
AcDbEntity
  8
0
100
AcDbLine
 62
253
  6
CONTINUOUS
 10
6.827702657
 20
26.2562250845
 11
9.718958989
 21
26.2562250845
  0
LINE
  5
533
100
AcDbEntity
  8
0
100
AcDbLine
 62
253
  6
CONTINUOUS
 10
-7.681041011
 20
26.2562250845
 11
-10.572297343
 21
26.2562250845
  0
LINE
  5
534
100
AcDbEntity
  8
0
100
AcDbLine
 62
7
  6
CONTINUOUS
 10
9.4689632198
 20
26.5062208537
 11
7.0776984262
 21
26.5062208537
  0
LINE
  5
535
100
AcDbEntity
  8
0
100
AcDbLine
 62
7
  6
CONTINUOUS
 10
-7.9310367802
 20
26.5062208537
 11
-10.3223015738
 21
26.5062208537
  0
ARC
  5
536
100
AcDbEntity
  8
RACCORDO
100
AcDbCircle
 62
253
  6
CONTINUOUS
 10
-87.2658582938
 20
-18.9205211745
 40
92.2119399424
100
AcDbArc
 50
4.270319544
 51
4.386663328
  0
ARC
  5
537
100
AcDbEntity
  8
RACCORDO
100
AcDbCircle
 62
253
  6
CONTINUOUS
 10
-88.319116433
 20
-5.4993297876
 40
93.268142328
100
AcDbArc
 50
4.2704190373
 51
4.3854465731
  0
ARC
  5
538
100
AcDbEntity
  8
RACCORDO
100
AcDbCircle
 62
253
  6
CONTINUOUS
 10
-93.7844804718
 20
-5.4967381988
 40
93.2334095465
100
AcDbArc
 50
4.2704158014
 51
4.3854861477
  0
ARC
  5
539
100
AcDbEntity
  8
RACCORDO
100
AcDbCircle
 62
7
  6
CONTINUOUS
 10
-16.2997331487
 20
-29.9071940686
 40
21.7217183227
100
AcDbArc
 50
75.5499392532
 51
76.320880105
  0
ARC
  5
53A
100
AcDbEntity
  8
0
100
AcDbCircle
 62
7
  6
CONTINUOUS
 10
-4.426669177
 20
-21.1394073123
 40
0.5
100
AcDbArc
 50
144.3637748935
 51
215.6362251065
  0
ARC
  5
53B
100
AcDbEntity
  8
0
100
AcDbCircle
 62
7
  6
CONTINUOUS
 10
-11.0771224118
 20
-19.8894242038
 40
0.4999831086
100
AcDbArc
 50
180.0000036164
 51
270.0012084401
  0
ARC
  5
53C
100
AcDbEntity
  8
RACCORDO
100
AcDbCircle
 62
7
  6
CONTINUOUS
 10
-7.326669177
 20
-18.0894073123
 40
0.4
100
AcDbArc
 50
38.6821874535
 51
180.0
  0
ARC
  5
53D
100
AcDbEntity
  8
0
100
AcDbCircle
 62
7
  6
CONTINUOUS
 10
-8.426669177
 20
-18.5894073123
 40
0.3
100
AcDbArc
 50
236.548974696
 51
270.0
  0
ARC
  5
53E
100
AcDbEntity
  8
RACCORDO
100
AcDbCircle
 62
7
  6
CONTINUOUS
 10
-8.026669177
 20
-18.5894073123
 40
0.3
100
AcDbArc
 50
270.0
 51
360.0
  0
ARC
  5
53F
100
AcDbEntity
  8
RACCORDO
100
AcDbCircle
 62
7
  6
CONTINUOUS
 10
-8.426669177
 20
-18.5894073123
 40
0.3
100
AcDbArc
 50
236.5488443604
 51
270.0
  0
ARC
  5
540
100
AcDbEntity
  8
0
100
AcDbCircle
 62
7
  6
CONTINUOUS
 10
-7.9272797095
 20
-22.2377613997
 40
0.2517327723
100
AcDbArc
 50
280.9754118398
 51
299.9333941588
  0
ARC
  5
541
100
AcDbEntity
  8
0
100
AcDbCircle
 62
7
  6
CONTINUOUS
 10
-10.3250232644
 20
-22.2387967799
 40
0.2517327723
100
AcDbArc
 50
190.9754118398
 51
209.9333941588
  0
ARC
  5
542
100
AcDbEntity
  8
0
100
AcDbCircle
 62
7
  6
CONTINUOUS
 10
-7.9267174592
 20
-22.2388523612
 40
0.2505549566
100
AcDbArc
 50
270.0120084182
 51
280.8966878703
  0
ARC
  5
543
100
AcDbEntity
  8
0
100
AcDbCircle
 62
7
  6
CONTINUOUS
 10
-10.326114226
 20
-22.2393590302
 40
0.2505549566
100
AcDbArc
 50
180.0120084182
 51
190.8966878703
  0
ARC
  5
544
100
AcDbEntity
  8
0
100
AcDbCircle
 62
7
  6
CONTINUOUS
 10
-7.931047629
 20
-22.2350288603
 40
0.2500066182
100
AcDbArc
 50
270.0024862874
 51
359.9975137126
  0
ARC
  5
545
100
AcDbEntity
  8
0
100
AcDbCircle
 62
7
  6
CONTINUOUS
 10
-10.3222907251
 20
-22.2350288603
 40
0.2500066182
100
AcDbArc
 50
180.0024862874
 51
269.9975137126
  0
ARC
  5
546
100
AcDbEntity
  8
RACCORDO
100
AcDbCircle
 62
253
  6
CONTINUOUS
 10
-34.896021656
 20
-11.9755830568
 40
23.9642009119
100
AcDbArc
 50
7.9630493618
 51
8.7355339586
  0
ARC
  5
547
100
AcDbEntity
  8
RACCORDO
100
AcDbCircle
 62
253
  6
CONTINUOUS
 10
-33.6698420852
 20
-8.3831897827
 40
22.7249157623
100
AcDbArc
 50
351.243403349
 51
352.058015577
  0
ARC
  5
548
100
AcDbEntity
  8
RACCORDO
100
AcDbCircle
 62
253
  6
CONTINUOUS
 10
-28.0578452401
 20
-9.1603409665
 40
17.0096366592
100
AcDbArc
 50
2.6893162561
 51
3.6159041634
  0
ARC
  5
549
100
AcDbEntity
  8
RACCORDO
100
AcDbCircle
 62
253
  6
CONTINUOUS
 10
-28.0100152735
 20
-11.0211307372
 40
16.9617346678
100
AcDbArc
 50
356.3828628262
 51
357.3120686713
  0
ARC
  5
54A
100
AcDbEntity
  8
RACCORDO
100
AcDbCircle
 62
7
  6
CONTINUOUS
 10
-16.2997331486
 20
-16.4071940683
 40
21.7217183223
100
AcDbArc
 50
75.5499392532
 51
76.320880105
  0
ARC
  5
54B
100
AcDbEntity
  8
0
100
AcDbCircle
 62
7
  6
CONTINUOUS
 10
-2.1759745706
 20
-14.9885703004
 40
3.3977231123
100
AcDbArc
 50
96.5688356917
 51
97.7536375415
  0
ARC
  5
54C
100
AcDbEntity
  8
0
100
AcDbCircle
 62
7
  6
CONTINUOUS
 10
-2.3258573304
 20
-13.9036220874
 40
2.3024739526
100
AcDbArc
 50
97.700436954
 51
99.246209559
  0
ARC
  5
54D
100
AcDbEntity
  8
RACCORDO
100
AcDbCircle
 62
253
  6
CONTINUOUS
 10
-9.209808214
 20
-15.5090214012
 40
1.9999999706
100
AcDbArc
 50
180.0036142072
 51
224.9963857928
  0
ARC
  5
54E
100
AcDbEntity
  8
0
100
AcDbCircle
 62
7
  6
CONTINUOUS
 10
-2.4373382034
 20
-13.227869295
 40
1.6175894288
100
AcDbArc
 50
99.1946979835
 51
101.1316841445
  0
ARC
  5
54F
100
AcDbEntity
  8
0
100
AcDbCircle
 62
7
  6
CONTINUOUS
 10
-9.0748959044
 20
-12.9940411559
 40
1.4
100
AcDbArc
 50
75.8
 51
90.0
  0
ARC
  5
550
100
AcDbEntity
  8
0
100
AcDbCircle
 62
7
  6
CONTINUOUS
 10
-2.2784424497
 20
-12.9940411559
 40
1.4
100
AcDbArc
 50
90.0
 51
104.2
  0
ARC
  5
551
100
AcDbEntity
  8
RACCORDO
100
AcDbCircle
 62
253
  6
CONTINUOUS
 10
-9.724897856
 20
-16.4079092145
 40
1.0001669283
100
AcDbArc
 50
225.0075747888
 51
269.9924252112
  0
ARC
  5
552
100
AcDbEntity
  8
RACCORDO
100
AcDbCircle
 62
253
  6
CONTINUOUS
 10
-9.2101253357
 20
-15.5091527573
 40
0.9998351499
100
AcDbArc
 50
179.9997022169
 51
225.0002977831
  0
ARC
  5
553
100
AcDbEntity
  8
RACCORDO
100
AcDbCircle
 62
7
  6
CONTINUOUS
 10
-6.7021693772
 20
-17.5894073123
 40
0.4
100
AcDbArc
 50
218.6821874535
 51
270.0
  0
ARC
  5
554
100
AcDbEntity
  8
RACCORDO
100
AcDbCircle
 62
253
  6
CONTINUOUS
 10
-10.6639710381
 20
-11.5223916911
 40
0.4989235615
100
AcDbArc
 50
180.0811913168
 51
216.1302153743
  0
ARC
  5
555
100
AcDbEntity
  8
RACCORDO
100
AcDbCircle
 62
253
  6
CONTINUOUS
 10
-10.6607098266
 20
-11.5232034682
 40
0.2022286404
100
AcDbArc
 50
179.970314477
 51
215.8128601642
  0
ARC
  5
556
100
AcDbEntity
  8
RACCORDO
100
AcDbCircle
 62
253
  6
CONTINUOUS
 10
-8.676669177
 20
-10.0894073123
 40
3.3748993522
100
AcDbArc
 50
39.6985058816
 51
117.0212758043
  0
ARC
  5
557
100
AcDbEntity
  8
RACCORDO
100
AcDbCircle
 62
253
  6
CONTINUOUS
 10
-8.676669177
 20
-10.0894073123
 40
3.3748993522
100
AcDbArc
 50
242.9787241689
 51
320.3014937738
  0
ARC
  5
558
100
AcDbEntity
  8
RACCORDO
100
AcDbCircle
 62
253
  6
CONTINUOUS
 10
-8.676669177
 20
-10.0894073123
 40
3.0760409428
100
AcDbArc
 50
39.6985557411
 51
117.0213244295
  0
ARC
  5
559
100
AcDbEntity
  8
RACCORDO
100
AcDbCircle
 62
253
  6
CONTINUOUS
 10
-8.676669177
 20
-10.0894073123
 40
3.0760409428
100
AcDbArc
 50
242.9786755705
 51
320.3014932824
  0
ARC
  5
55A
100
AcDbEntity
  8
RACCORDO
100
AcDbCircle
 62
253
  6
CONTINUOUS
 10
-8.676669177
 20
-10.0894073123
 40
2.9489817302
100
AcDbArc
 50
37.0817161531
 51
144.1489057819
  0
ARC
  5
55B
100
AcDbEntity
  8
RACCORDO
100
AcDbCircle
 62
253
  6
CONTINUOUS
 10
-8.676669177
 20
-10.0894073123
 40
2.9489817302
100
AcDbArc
 50
215.8510933171
 51
322.9183228184
  0
ARC
  5
55C
100
AcDbEntity
  8
RACCORDO
100
AcDbCircle
 62
7
  6
CONTINUOUS
 10
-8.676669177
 20
-10.0894073123
 40
2.8
100
AcDbArc
 50
152.6192098778
 51
207.3807901222
  0
ARC
  5
55D
100
AcDbEntity
  8
RACCORDO
100
AcDbCircle
 62
253
  6
CONTINUOUS
 10
-8.676669177
 20
-10.0894073123
 40
2.6501233207
100
AcDbArc
 50
37.0816714185
 51
144.1488519115
  0
ARC
  5
55E
100
AcDbEntity
  8
RACCORDO
100
AcDbCircle
 62
253
  6
CONTINUOUS
 10
-8.676669177
 20
-10.0894073123
 40
2.6501233207
100
AcDbArc
 50
215.851148078
 51
322.9183291502
  0
ARC
  5
55F
100
AcDbEntity
  8
RACCORDO
100
AcDbCircle
 62
253
  6
CONTINUOUS
 10
-8.676669177
 20
-10.0894073123
 40
2.5328850864
100
AcDbArc
 50
210.3274350156
 51
149.672564984
  0
ARC
  5
560
100
AcDbEntity
  8
RACCORDO
100
AcDbCircle
 62
7
  6
CONTINUOUS
 10
-8.676669177
 20
-10.0894073123
 40
2.5164425432
100
AcDbArc
 50
151.0837798564
 51
208.9162201436
  0
CIRCLE
  5
561
100
AcDbEntity
  8
RACCORDO
100
AcDbCircle
 62
253
  6
CONTINUOUS
 10
-8.676669177
 20
-10.0894073123
 40
2.2351212409
  0
CIRCLE
  5
562
100
AcDbEntity
  8
DRAFT
100
AcDbCircle
 62
7
  6
CONTINUOUS
 10
-8.676669177
 20
-10.0894073123
 40
1.85
  0
ARC
  5
563
100
AcDbEntity
  8
RACCORDO
100
AcDbCircle
 62
253
  6
CONTINUOUS
 10
-10.6639709662
 20
-8.6564229863
 40
0.4989236347
100
AcDbArc
 50
143.8697807874
 51
179.9188047608
  0
ARC
  5
564
100
AcDbEntity
  8
RACCORDO
100
AcDbCircle
 62
253
  6
CONTINUOUS
 10
-10.6607097783
 20
-8.6556111667
 40
0.2022286886
100
AcDbArc
 50
144.1871453477
 51
180.0296878608
  0
ARC
  5
565
100
AcDbEntity
  8
RACCORDO
100
AcDbCircle
 62
7
  6
CONTINUOUS
 10
-5.8219404652
 20
-10.1766850444
 40
5.2228594335
100
AcDbArc
 50
164.8357090736
 51
165.5413078074
  0
ARC
  5
566
100
AcDbEntity
  8
RACCORDO
100
AcDbCircle
 62
253
  6
CONTINUOUS
 10
-5.9266691788
 20
-12.3762496255
 40
0.5005875506
100
AcDbArc
 50
40.0389719257
 51
139.9607255149
  0
ARC
  5
567
100
AcDbEntity
  8
RACCORDO
100
AcDbCircle
 62
7
  6
CONTINUOUS
 10
-5.8219395091
 20
-10.0021293274
 40
5.2228604225
100
AcDbArc
 50
194.4586922593
 51
195.1642908596
  0
ARC
  5
568
100
AcDbEntity
  8
RACCORDO
100
AcDbCircle
 62
253
  6
CONTINUOUS
 10
-3.176669177
 20
-10.0894073123
 40
3.3748993522
100
AcDbArc
 50
39.6985058816
 51
140.3014941269
  0
ARC
  5
569
100
AcDbEntity
  8
RACCORDO
100
AcDbCircle
 62
253
  6
CONTINUOUS
 10
-3.176669177
 20
-10.0894073123
 40
3.3748993522
100
AcDbArc
 50
219.6985062371
 51
320.3014941269
  0
ARC
  5
56A
100
AcDbEntity
  8
RACCORDO
100
AcDbCircle
 62
253
  6
CONTINUOUS
 10
-3.176669177
 20
-10.0894073123
 40
3.0760409428
100
AcDbArc
 50
219.6985561996
 51
320.301493744
  0
ARC
  5
56B
100
AcDbEntity
  8
RACCORDO
100
AcDbCircle
 62
253
  6
CONTINUOUS
 10
-3.176669177
 20
-10.0894073123
 40
3.0760409428
100
AcDbArc
 50
39.6985557411
 51
140.301493744
  0
ARC
  5
56C
100
AcDbEntity
  8
RACCORDO
100
AcDbCircle
 62
253
  6
CONTINUOUS
 10
-3.176669177
 20
-10.0894073123
 40
2.9489817302
100
AcDbArc
 50
217.0817151279
 51
322.9183375207
  0
ARC
  5
56D
100
AcDbEntity
  8
RACCORDO
100
AcDbCircle
 62
253
  6
CONTINUOUS
 10
-3.176669177
 20
-10.0894073123
 40
2.9489817302
100
AcDbArc
 50
37.0817161531
 51
142.9181625793
  0
ARC
  5
56E
100
AcDbEntity
  8
RACCORDO
100
AcDbCircle
 62
253
  6
CONTINUOUS
 10
-3.176669177
 20
-10.0894073123
 40
2.6501233207
100
AcDbArc
 50
37.0816714185
 51
142.9183286164
  0
ARC
  5
56F
100
AcDbEntity
  8
RACCORDO
100
AcDbCircle
 62
253
  6
CONTINUOUS
 10
-3.176669177
 20
-10.0894073123
 40
2.6501233207
100
AcDbArc
 50
217.0816708788
 51
322.9183286164
  0
CIRCLE
  5
570
100
AcDbEntity
  8
RACCORDO
100
AcDbCircle
 62
253
  6
CONTINUOUS
 10
-3.176669177
 20
-10.0894073123
 40
2.4328850864
  0
CIRCLE
  5
571
100
AcDbEntity
  8
RACCORDO
100
AcDbCircle
 62
253
  6
CONTINUOUS
 10
-3.176669177
 20
-10.0894073123
 40
2.1351212409
  0
CIRCLE
  5
572
100
AcDbEntity
  8
DRAFT
100
AcDbCircle
 62
7
  6
CONTINUOUS
 10
-3.176669177
 20
-10.0894073123
 40
1.75
  0
ARC
  5
573
100
AcDbEntity
  8
RACCORDO
100
AcDbCircle
 62
253
  6
CONTINUOUS
 10
-5.9266691755
 20
-7.802565073
 40
0.5005875493
100
AcDbArc
 50
220.0389682052
 51
319.9607292499
  0
ARC
  5
574
100
AcDbEntity
  8
RACCORDO
100
AcDbCircle
 62
253
  6
CONTINUOUS
 10
-87.8132995636
 20
12.2798182335
 40
92.760697485
100
AcDbArc
 50
355.6157249706
 51
355.7313850517
  0
ARC
  5
575
100
AcDbEntity
  8
RACCORDO
100
AcDbCircle
 62
253
  6
CONTINUOUS
 10
-87.8132995604
 20
-1.2201817667
 40
92.7606974817
100
AcDbArc
 50
355.6157249706
 51
355.7313850517
  0
ARC
  5
576
100
AcDbEntity
  8
RACCORDO
100
AcDbCircle
 62
253
  6
CONTINUOUS
 10
-98.6289222833
 20
-1.234104486
 40
92.575795372
100
AcDbArc
 50
355.6155932833
 51
355.731484338
  0
ARC
  5
577
100
AcDbEntity
  8
RACCORDO
100
AcDbCircle
 62
253
  6
CONTINUOUS
 10
-93.1289222784
 20
12.2658955137
 40
92.5757953672
100
AcDbArc
 50
355.6155932833
 51
355.731484338
  0
ARC
  5
578
100
AcDbEntity
  8
RACCORDO
100
AcDbCircle
 62
253
  6
CONTINUOUS
 10
-98.6289222769
 20
12.2658955135
 40
92.5757953656
100
AcDbArc
 50
355.6155932833
 51
355.731484338
  0
ARC
  5
579
100
AcDbEntity
  8
RACCORDO
100
AcDbCircle
 62
253
  6
CONTINUOUS
 10
-93.1289222748
 20
-1.2341044866
 40
92.5757953635
100
AcDbArc
 50
355.6155932833
 51
355.731484338
  0
ARC
  5
57A
100
AcDbEntity
  8
RACCORDO
100
AcDbCircle
 62
253
  6
CONTINUOUS
 10
-34.8965425002
 20
1.524340588
 40
23.9647273087
100
AcDbArc
 50
7.9630575922
 51
8.7355252429
  0
ARC
  5
57B
100
AcDbEntity
  8
RACCORDO
100
AcDbCircle
 62
253
  6
CONTINUOUS
 10
-33.6728746649
 20
5.117255246
 40
22.7279807608
100
AcDbArc
 50
351.2434581079
 51
352.0579604616
  0
ARC
  5
57C
100
AcDbEntity
  8
RACCORDO
100
AcDbCircle
 62
253
  6
CONTINUOUS
 10
-28.0529375094
 20
4.3399197819
 40
17.0047220834
100
AcDbArc
 50
2.6892144655
 51
3.6160697446
  0
ARC
  5
57D
100
AcDbEntity
  8
RACCORDO
100
AcDbCircle
 62
253
  6
CONTINUOUS
 10
-28.0240601104
 20
2.4796496919
 40
16.9758008093
100
AcDbArc
 50
356.3832245938
 51
357.3116599376
  0
ARC
  5
57E
100
AcDbEntity
  8
RACCORDO
100
AcDbCircle
 62
253
  6
CONTINUOUS
 10
-10.6639709476
 20
1.9776082339
 40
0.4989236536
100
AcDbArc
 50
180.0811960668
 51
216.1302276275
  0
ARC
  5
57F
100
AcDbEntity
  8
RACCORDO
100
AcDbCircle
 62
253
  6
CONTINUOUS
 10
-10.6607101952
 20
1.976796336
 40
0.2022282718
100
AcDbArc
 50
179.9702919386
 51
215.8129115984
  0
ARC
  5
580
100
AcDbEntity
  8
RACCORDO
100
AcDbCircle
 62
253
  6
CONTINUOUS
 10
-8.676669177
 20
3.4105926877
 40
3.3748993522
100
AcDbArc
 50
39.6985058816
 51
117.0212758043
  0
ARC
  5
581
100
AcDbEntity
  8
RACCORDO
100
AcDbCircle
 62
253
  6
CONTINUOUS
 10
-8.676669177
 20
3.4105926877
 40
3.3748993522
100
AcDbArc
 50
242.9787241689
 51
320.3014937738
  0
ARC
  5
582
100
AcDbEntity
  8
RACCORDO
100
AcDbCircle
 62
253
  6
CONTINUOUS
 10
-8.676669177
 20
3.4105926877
 40
3.0760409428
100
AcDbArc
 50
242.9786755705
 51
320.3014932824
  0
ARC
  5
583
100
AcDbEntity
  8
RACCORDO
100
AcDbCircle
 62
253
  6
CONTINUOUS
 10
-8.676669177
 20
3.4105926877
 40
3.0760409428
100
AcDbArc
 50
39.6985557411
 51
117.0213244295
  0
ARC
  5
584
100
AcDbEntity
  8
RACCORDO
100
AcDbCircle
 62
253
  6
CONTINUOUS
 10
-8.676669177
 20
3.4105926877
 40
2.9489817302
100
AcDbArc
 50
215.8510979303
 51
322.9183228184
  0
ARC
  5
585
100
AcDbEntity
  8
RACCORDO
100
AcDbCircle
 62
253
  6
CONTINUOUS
 10
-8.676669177
 20
3.4105926877
 40
2.9489817302
100
AcDbArc
 50
37.0817161531
 51
144.1489062879
  0
ARC
  5
586
100
AcDbEntity
  8
RACCORDO
100
AcDbCircle
 62
7
  6
CONTINUOUS
 10
-8.676669177
 20
3.4105926877
 40
2.8
100
AcDbArc
 50
152.6192098778
 51
207.3807901222
  0
ARC
  5
587
100
AcDbEntity
  8
RACCORDO
100
AcDbCircle
 62
253
  6
CONTINUOUS
 10
-8.676669177
 20
3.4105926877
 40
2.6501233207
100
AcDbArc
 50
37.0816714185
 51
144.1488523241
  0
ARC
  5
588
100
AcDbEntity
  8
RACCORDO
100
AcDbCircle
 62
253
  6
CONTINUOUS
 10
-8.676669177
 20
3.4105926877
 40
2.6501233207
100
AcDbArc
 50
215.8511507721
 51
322.9183291502
  0
ARC
  5
589
100
AcDbEntity
  8
RACCORDO
100
AcDbCircle
 62
253
  6
CONTINUOUS
 10
-8.676669177
 20
3.4105926877
 40
2.5328850864
100
AcDbArc
 50
210.3274350156
 51
149.672564984
  0
ARC
  5
58A
100
AcDbEntity
  8
RACCORDO
100
AcDbCircle
 62
7
  6
CONTINUOUS
 10
-8.676669177
 20
3.4105926877
 40
2.5164425432
100
AcDbArc
 50
151.0837798565
 51
208.9162201436
  0
CIRCLE
  5
58B
100
AcDbEntity
  8
RACCORDO
100
AcDbCircle
 62
253
  6
CONTINUOUS
 10
-8.676669177
 20
3.4105926877
 40
2.2351212409
  0
CIRCLE
  5
58C
100
AcDbEntity
  8
DRAFT
100
AcDbCircle
 62
7
  6
CONTINUOUS
 10
-8.676669177
 20
3.4105926877
 40
1.85
  0
ARC
  5
58D
100
AcDbEntity
  8
RACCORDO
100
AcDbCircle
 62
253
  6
CONTINUOUS
 10
-10.663970966
 20
4.843576991
 40
0.4989236349
100
AcDbArc
 50
143.8697817241
 51
179.9188046554
  0
ARC
  5
58E
100
AcDbEntity
  8
RACCORDO
100
AcDbCircle
 62
253
  6
CONTINUOUS
 10
-10.660709711
 20
4.844388801
 40
0.2022287559
100
AcDbArc
 50
144.1871544777
 51
180.0296848739
  0
ARC
  5
58F
100
AcDbEntity
  8
RACCORDO
100
AcDbCircle
 62
7
  6
CONTINUOUS
 10
-5.8219404652
 20
3.3233149556
 40
5.2228594335
100
AcDbArc
 50
164.8357090736
 51
165.5413078074
  0
ARC
  5
590
100
AcDbEntity
  8
RACCORDO
100
AcDbCircle
 62
253
  6
CONTINUOUS
 10
-5.9266691788
 20
1.1237503745
 40
0.5005875506
100
AcDbArc
 50
40.0389719257
 51
139.9607255149
  0
ARC
  5
591
100
AcDbEntity
  8
0
100
AcDbCircle
 62
7
  6
CONTINUOUS
 10
-2.128808457
 20
3.3333626068
 40
0.3820294204
100
AcDbArc
 50
293.0830055596
 51
295.9850545356
  0
ARC
  5
592
100
AcDbEntity
  8
RACCORDO
100
AcDbCircle
 62
7
  6
CONTINUOUS
 10
-5.8219395084
 20
3.4978706728
 40
5.2228604232
100
AcDbArc
 50
194.4586922594
 51
195.1642908596
  0
ARC
  5
593
100
AcDbEntity
  8
RACCORDO
100
AcDbCircle
 62
253
  6
CONTINUOUS
 10
-3.176669177
 20
3.4105926877
 40
3.3748993522
100
AcDbArc
 50
39.6985058816
 51
140.3014941269
  0
ARC
  5
594
100
AcDbEntity
  8
RACCORDO
100
AcDbCircle
 62
253
  6
CONTINUOUS
 10
-3.176669177
 20
3.4105926877
 40
3.3748993522
100
AcDbArc
 50
219.6985062371
 51
320.3014941269
  0
ARC
  5
595
100
AcDbEntity
  8
RACCORDO
100
AcDbCircle
 62
253
  6
CONTINUOUS
 10
-3.176669177
 20
3.4105926877
 40
3.0760409428
100
AcDbArc
 50
219.6985561996
 51
320.301493744
  0
ARC
  5
596
100
AcDbEntity
  8
RACCORDO
100
AcDbCircle
 62
253
  6
CONTINUOUS
 10
-3.176669177
 20
3.4105926877
 40
3.0760409428
100
AcDbArc
 50
39.6985557411
 51
140.301493744
  0
ARC
  5
597
100
AcDbEntity
  8
RACCORDO
100
AcDbCircle
 62
253
  6
CONTINUOUS
 10
-3.176669177
 20
3.4105926877
 40
2.9489817302
100
AcDbArc
 50
217.0817151279
 51
322.9181950646
  0
ARC
  5
598
100
AcDbEntity
  8
RACCORDO
100
AcDbCircle
 62
253
  6
CONTINUOUS
 10
-3.176669177
 20
3.4105926877
 40
2.9489817302
100
AcDbArc
 50
37.0817161531
 51
142.9181987637
  0
ARC
  5
599
100
AcDbEntity
  8
RACCORDO
100
AcDbCircle
 62
253
  6
CONTINUOUS
 10
-3.176669177
 20
3.4105926877
 40
2.6501233207
100
AcDbArc
 50
37.0816714185
 51
142.9183286164
  0
ARC
  5
59A
100
AcDbEntity
  8
RACCORDO
100
AcDbCircle
 62
253
  6
CONTINUOUS
 10
-3.176669177
 20
3.4105926877
 40
2.6501233207
100
AcDbArc
 50
217.0816708788
 51
322.9183286164
  0
CIRCLE
  5
59B
100
AcDbEntity
  8
RACCORDO
100
AcDbCircle
 62
253
  6
CONTINUOUS
 10
-3.176669177
 20
3.4105926877
 40
2.4328850864
  0
CIRCLE
  5
59C
100
AcDbEntity
  8
RACCORDO
100
AcDbCircle
 62
253
  6
CONTINUOUS
 10
-3.176669177
 20
3.4105926877
 40
2.1351212409
  0
CIRCLE
  5
59D
100
AcDbEntity
  8
DRAFT
100
AcDbCircle
 62
7
  6
CONTINUOUS
 10
-3.176669177
 20
3.4105926877
 40
1.75
  0
ARC
  5
59E
100
AcDbEntity
  8
RACCORDO
100
AcDbCircle
 62
253
  6
CONTINUOUS
 10
-5.9266691755
 20
5.697434927
 40
0.5005875493
100
AcDbArc
 50
220.0389682052
 51
319.9607292499
  0
ARC
  5
59F
100
AcDbEntity
  8
RACCORDO
100
AcDbCircle
 62
7
  6
CONTINUOUS
 10
-16.452233124
 20
10.3370992497
 40
22.3492362276
100
AcDbArc
 50
283.689943222
 51
284.4392374199
  0
ARC
  5
5A0
100
AcDbEntity
  8
RACCORDO
100
AcDbCircle
 62
253
  6
CONTINUOUS
 10
-10.3535487732
 20
10.1370008693
 40
1.5002431513
100
AcDbArc
 50
90.000007412
 51
90.9825436789
  0
ARC
  5
5A1
100
AcDbEntity
  8
RACCORDO
100
AcDbCircle
 62
253
  6
CONTINUOUS
 10
-10.3537011278
 20
10.1370132515
 40
1.0003069331
100
AcDbArc
 50
89.9912845194
 51
90.9738255401
  0
ARC
  5
5A2
100
AcDbEntity
  8
RACCORDO
100
AcDbCircle
 62
253
  6
CONTINUOUS
 10
-10.2095948225
 20
9.9935183331
 40
1.0002157485
100
AcDbArc
 50
90.0209464775
 51
179.9790535225
  0
ARC
  5
5A3
100
AcDbEntity
  8
RACCORDO
100
AcDbCircle
 62
7
  6
CONTINUOUS
 10
-16.4522331238
 20
23.837099249
 40
22.3492362268
100
AcDbArc
 50
283.689943222
 51
284.4392374199
  0
ARC
  5
5A4
100
AcDbEntity
  8
RACCORDO
100
AcDbCircle
 62
253
  6
CONTINUOUS
 10
-9.3791223439
 20
19.6003389854
 40
1.9999999706
100
AcDbArc
 50
135.0036142072
 51
179.9963857928
  0
ARC
  5
5A5
100
AcDbEntity
  8
RACCORDO
100
AcDbCircle
 62
253
  6
CONTINUOUS
 10
-9.7950300648
 20
20.5984087197
 40
1.0001669283
100
AcDbArc
 50
90.0075747888
 51
134.9924252112
  0
ARC
  5
5A6
100
AcDbEntity
  8
RACCORDO
100
AcDbCircle
 62
253
  6
CONTINUOUS
 10
-9.3794394655
 20
19.6004703415
 40
0.9998351499
100
AcDbArc
 50
134.9997022169
 51
180.0002977831
  0
ARC
  5
5A7
100
AcDbEntity
  8
0
100
AcDbCircle
 62
7
  6
CONTINUOUS
 10
-4.426669177
 20
25.1605926877
 40
0.5
100
AcDbArc
 50
144.3637748935
 51
215.6362251065
  0
ARC
  5
5A8
100
AcDbEntity
  8
0
100
AcDbCircle
 62
7
  6
CONTINUOUS
 10
-11.0771224118
 20
23.9106095792
 40
0.4999831086
100
AcDbArc
 50
89.9987915599
 51
179.9999963836
  0
ARC
  5
5A9
100
AcDbEntity
  8
RACCORDO
100
AcDbCircle
 62
7
  6
CONTINUOUS
 10
-6.7021693772
 20
21.6105926877
 40
0.4
100
AcDbArc
 50
90.0
 51
141.3178125465
  0
ARC
  5
5AA
100
AcDbEntity
  8
RACCORDO
100
AcDbCircle
 62
7
  6
CONTINUOUS
 10
-7.326669177
 20
22.1105926877
 40
0.4
100
AcDbArc
 50
180.0
 51
321.3178125465
  0
ARC
  5
5AB
100
AcDbEntity
  8
0
100
AcDbCircle
 62
7
  6
CONTINUOUS
 10
-8.426669177
 20
22.6105926877
 40
0.3
100
AcDbArc
 50
90.0
 51
123.451025304
  0
ARC
  5
5AC
100
AcDbEntity
  8
RACCORDO
100
AcDbCircle
 62
7
  6
CONTINUOUS
 10
-8.026669177
 20
22.6105926877
 40
0.3
100
AcDbArc
 50
0.0
 51
90.0
  0
ARC
  5
5AD
100
AcDbEntity
  8
RACCORDO
100
AcDbCircle
 62
7
  6
CONTINUOUS
 10
-8.426669177
 20
22.6105926877
 40
0.3
100
AcDbArc
 50
90.0
 51
123.4499355247
  0
ARC
  5
5AE
100
AcDbEntity
  8
0
100
AcDbCircle
 62
7
  6
CONTINUOUS
 10
-10.3260586446
 20
26.2589467751
 40
0.2517327723
100
AcDbArc
 50
100.9754118398
 51
119.9333941587
  0
ARC
  5
5AF
100
AcDbEntity
  8
0
100
AcDbCircle
 62
7
  6
CONTINUOUS
 10
-7.9283150896
 20
26.2599821552
 40
0.2517327723
100
AcDbArc
 50
10.9754118398
 51
29.9333941588
  0
ARC
  5
5B0
100
AcDbEntity
  8
0
100
AcDbCircle
 62
7
  6
CONTINUOUS
 10
-10.3266208949
 20
26.2600377366
 40
0.2505549566
100
AcDbArc
 50
90.0120084182
 51
100.8966878703
  0
ARC
  5
5B1
100
AcDbEntity
  8
0
100
AcDbCircle
 62
7
  6
CONTINUOUS
 10
-7.9272241281
 20
26.2605444056
 40
0.2505549566
100
AcDbArc
 50
0.0120084182
 51
10.8966878703
  0
ARC
  5
5B2
100
AcDbEntity
  8
0
100
AcDbCircle
 62
7
  6
CONTINUOUS
 10
-10.3222907251
 20
26.2562142357
 40
0.2500066182
100
AcDbArc
 50
90.0024862874
 51
179.9975137126
  0
ARC
  5
5B3
100
AcDbEntity
  8
0
100
AcDbCircle
 62
7
  6
CONTINUOUS
 10
-7.9310476285
 20
26.2562142362
 40
0.2500066177
100
AcDbArc
 50
0.0024861811
 51
89.9975138189
  0
ARC
  5
5B4
100
AcDbEntity
  8
RACCORDO
100
AcDbCircle
 62
7
  6
CONTINUOUS
 10
15.5988947699
 20
-30.5159138743
 40
22.3492362275
100
AcDbArc
 50
103.689943222
 51
104.4392374199
  0
ARC
  5
5B5
100
AcDbEntity
  8
0
100
AcDbCircle
 62
7
  6
CONTINUOUS
 10
3.573330823
 20
-21.1394073123
 40
0.5
100
AcDbArc
 50
324.3637748935
 51
35.6362251065
  0
ARC
  5
5B6
100
AcDbEntity
  8
0
100
AcDbCircle
 62
7
  6
CONTINUOUS
 10
10.2237840577
 20
-19.8894242038
 40
0.4999831086
100
AcDbArc
 50
269.9987915599
 51
359.9999963836
  0
ARC
  5
5B7
100
AcDbEntity
  8
RACCORDO
100
AcDbCircle
 62
7
  6
CONTINUOUS
 10
6.473330823
 20
-18.0894073123
 40
0.4
100
AcDbArc
 50
0.0
 51
141.3178125465
  0
ARC
  5
5B8
100
AcDbEntity
  8
0
100
AcDbCircle
 62
7
  6
CONTINUOUS
 10
7.573330823
 20
-18.5894073123
 40
0.3
100
AcDbArc
 50
270.0
 51
303.451025304
  0
ARC
  5
5B9
100
AcDbEntity
  8
RACCORDO
100
AcDbCircle
 62
7
  6
CONTINUOUS
 10
7.173330823
 20
-18.5894073123
 40
0.3
100
AcDbArc
 50
180.0
 51
270.0
  0
ARC
  5
5BA
100
AcDbEntity
  8
RACCORDO
100
AcDbCircle
 62
7
  6
CONTINUOUS
 10
7.573330823
 20
-18.5894073123
 40
0.3
100
AcDbArc
 50
270.0
 51
303.4499355247
  0
ARC
  5
5BB
100
AcDbEntity
  8
0
100
AcDbCircle
 62
7
  6
CONTINUOUS
 10
9.4727202905
 20
-22.2377613997
 40
0.2517327723
100
AcDbArc
 50
280.9754118398
 51
299.9333941588
  0
ARC
  5
5BC
100
AcDbEntity
  8
0
100
AcDbCircle
 62
7
  6
CONTINUOUS
 10
7.0749767356
 20
-22.2387967799
 40
0.2517327723
100
AcDbArc
 50
190.9754118398
 51
209.9333941588
  0
ARC
  5
5BD
100
AcDbEntity
  8
0
100
AcDbCircle
 62
7
  6
CONTINUOUS
 10
9.4732825408
 20
-22.2388523612
 40
0.2505549566
100
AcDbArc
 50
270.0120084182
 51
280.8966878703
  0
ARC
  5
5BE
100
AcDbEntity
  8
0
100
AcDbCircle
 62
7
  6
CONTINUOUS
 10
7.073885774
 20
-22.2393590302
 40
0.2505549566
100
AcDbArc
 50
180.0120084182
 51
190.8966878703
  0
ARC
  5
5BF
100
AcDbEntity
  8
0
100
AcDbCircle
 62
7
  6
CONTINUOUS
 10
9.468952371
 20
-22.2350288603
 40
0.2500066182
100
AcDbArc
 50
270.0024862874
 51
359.9975137126
  0
ARC
  5
5C0
100
AcDbEntity
  8
0
100
AcDbCircle
 62
7
  6
CONTINUOUS
 10
7.0777092745
 20
-22.2350288608
 40
0.2500066177
100
AcDbArc
 50
180.0024861811
 51
269.9975138189
  0
ARC
  5
5C1
100
AcDbEntity
  8
RACCORDO
100
AcDbCircle
 62
7
  6
CONTINUOUS
 10
15.5988947698
 20
-17.0159138741
 40
22.3492362273
100
AcDbArc
 50
103.689943222
 51
104.4392374199
  0
ARC
  5
5C2
100
AcDbEntity
  8
0
100
AcDbCircle
 62
7
  6
CONTINUOUS
 10
8.3240254294
 20
-14.9885703004
 40
3.3977231123
100
AcDbArc
 50
96.5688356917
 51
97.7536375415
  0
ARC
  5
5C3
100
AcDbEntity
  8
0
100
AcDbCircle
 62
7
  6
CONTINUOUS
 10
8.1741426696
 20
-13.9036220874
 40
2.3024739526
100
AcDbArc
 50
97.700436954
 51
99.246209559
  0
ARC
  5
5C4
100
AcDbEntity
  8
RACCORDO
100
AcDbCircle
 62
253
  6
CONTINUOUS
 10
8.35646986
 20
-15.5090214012
 40
1.9999999706
100
AcDbArc
 50
315.0036142072
 51
359.9963857928
  0
ARC
  5
5C5
100
AcDbEntity
  8
0
100
AcDbCircle
 62
7
  6
CONTINUOUS
 10
8.0626617966
 20
-13.227869295
 40
1.6175894288
100
AcDbArc
 50
99.1946979835
 51
101.1316841445
  0
ARC
  5
5C6
100
AcDbEntity
  8
0
100
AcDbCircle
 62
7
  6
CONTINUOUS
 10
1.4251040956
 20
-12.9940411559
 40
1.4
100
AcDbArc
 50
75.8
 51
90.0
  0
ARC
  5
5C7
100
AcDbEntity
  8
0
100
AcDbCircle
 62
7
  6
CONTINUOUS
 10
8.2215575503
 20
-12.9940411559
 40
1.4
100
AcDbArc
 50
90.0
 51
104.2
  0
ARC
  5
5C8
100
AcDbEntity
  8
RACCORDO
100
AcDbCircle
 62
253
  6
CONTINUOUS
 10
8.8715595019
 20
-16.4079092145
 40
1.0001669283
100
AcDbArc
 50
270.0075747888
 51
314.9924252112
  0
ARC
  5
5C9
100
AcDbEntity
  8
RACCORDO
100
AcDbCircle
 62
253
  6
CONTINUOUS
 10
8.3567869791
 20
-15.509152756
 40
0.9998351525
100
AcDbArc
 50
314.999702265
 51
359.9988320832
  0
ARC
  5
5CA
100
AcDbEntity
  8
RACCORDO
100
AcDbCircle
 62
7
  6
CONTINUOUS
 10
5.8488310231
 20
-17.5894073123
 40
0.4
100
AcDbArc
 50
270.0
 51
321.3178125465
  0
ARC
  5
5CB
100
AcDbEntity
  8
RACCORDO
100
AcDbCircle
 62
253
  6
CONTINUOUS
 10
-0.4266691785
 20
-12.3762496031
 40
0.5005875493
100
AcDbArc
 50
40.0389727188
 51
139.9607247363
  0
ARC
  5
5CC
100
AcDbEntity
  8
RACCORDO
100
AcDbCircle
 62
253
  6
CONTINUOUS
 10
2.323330823
 20
-10.0894073123
 40
3.3748993522
100
AcDbArc
 50
39.6985062371
 51
140.3014941269
  0
ARC
  5
5CD
100
AcDbEntity
  8
RACCORDO
100
AcDbCircle
 62
253
  6
CONTINUOUS
 10
2.323330823
 20
-10.0894073123
 40
3.3748993522
100
AcDbArc
 50
219.6985058816
 51
320.3014941269
  0
ARC
  5
5CE
100
AcDbEntity
  8
RACCORDO
100
AcDbCircle
 62
253
  6
CONTINUOUS
 10
2.323330823
 20
-10.0894073123
 40
3.0760409428
100
AcDbArc
 50
219.6985557411
 51
320.301493744
  0
ARC
  5
5CF
100
AcDbEntity
  8
RACCORDO
100
AcDbCircle
 62
253
  6
CONTINUOUS
 10
2.323330823
 20
-10.0894073123
 40
3.0760409428
100
AcDbArc
 50
39.6985561996
 51
140.301493744
  0
ARC
  5
5D0
100
AcDbEntity
  8
RACCORDO
100
AcDbCircle
 62
253
  6
CONTINUOUS
 10
2.323330823
 20
-10.0894073123
 40
2.9489817302
100
AcDbArc
 50
217.0817161531
 51
322.9181431834
  0
ARC
  5
5D1
100
AcDbEntity
  8
RACCORDO
100
AcDbCircle
 62
253
  6
CONTINUOUS
 10
2.323330823
 20
-10.0894073123
 40
2.9489817302
100
AcDbArc
 50
37.0817151279
 51
142.9182111098
  0
ARC
  5
5D2
100
AcDbEntity
  8
RACCORDO
100
AcDbCircle
 62
253
  6
CONTINUOUS
 10
2.323330823
 20
-10.0894073123
 40
2.6501233207
100
AcDbArc
 50
37.0816708788
 51
142.9183286164
  0
ARC
  5
5D3
100
AcDbEntity
  8
RACCORDO
100
AcDbCircle
 62
253
  6
CONTINUOUS
 10
2.323330823
 20
-10.0894073123
 40
2.6501233207
100
AcDbArc
 50
217.0816714185
 51
322.9183286164
  0
CIRCLE
  5
5D4
100
AcDbEntity
  8
RACCORDO
100
AcDbCircle
 62
253
  6
CONTINUOUS
 10
2.323330823
 20
-10.0894073123
 40
2.4328850864
  0
CIRCLE
  5
5D5
100
AcDbEntity
  8
RACCORDO
100
AcDbCircle
 62
253
  6
CONTINUOUS
 10
2.323330823
 20
-10.0894073123
 40
2.1351212409
  0
CIRCLE
  5
5D6
100
AcDbEntity
  8
DRAFT
100
AcDbCircle
 62
7
  6
CONTINUOUS
 10
2.323330823
 20
-10.0894073123
 40
1.75
  0
ARC
  5
5D7
100
AcDbEntity
  8
RACCORDO
100
AcDbCircle
 62
253
  6
CONTINUOUS
 10
-0.4266691755
 20
-7.802565073
 40
0.5005875493
100
AcDbArc
 50
220.0389682052
 51
319.9607292499
  0
ARC
  5
5D8
100
AcDbEntity
  8
RACCORDO
100
AcDbCircle
 62
7
  6
CONTINUOUS
 10
4.968601155
 20
-10.1766852973
 40
5.2228604225
100
AcDbArc
 50
14.4586922593
 51
15.1642908596
  0
ARC
  5
5D9
100
AcDbEntity
  8
RACCORDO
100
AcDbCircle
 62
253
  6
CONTINUOUS
 10
5.0733308215
 20
-12.3762496031
 40
0.5005875493
100
AcDbArc
 50
40.0389727188
 51
139.9607247363
  0
ARC
  5
5DA
100
AcDbEntity
  8
RACCORDO
100
AcDbCircle
 62
253
  6
CONTINUOUS
 10
9.8106326104
 20
-11.5223916701
 40
0.4989236365
100
AcDbArc
 50
323.8697790844
 51
359.918804741
  0
ARC
  5
5DB
100
AcDbEntity
  8
RACCORDO
100
AcDbCircle
 62
253
  6
CONTINUOUS
 10
9.8073715228
 20
-11.523203506
 40
0.2022285901
100
AcDbArc
 50
324.1871319337
 51
0.0296924333
  0
ARC
  5
5DC
100
AcDbEntity
  8
RACCORDO
100
AcDbCircle
 62
7
  6
CONTINUOUS
 10
4.9686021112
 20
-10.0021295802
 40
5.2228594334
100
AcDbArc
 50
344.8357090736
 51
345.5413078074
  0
ARC
  5
5DD
100
AcDbEntity
  8
RACCORDO
100
AcDbCircle
 62
253
  6
CONTINUOUS
 10
7.823330823
 20
-10.0894073123
 40
3.3748993522
100
AcDbArc
 50
62.9787241689
 51
140.3014937738
  0
ARC
  5
5DE
100
AcDbEntity
  8
RACCORDO
100
AcDbCircle
 62
253
  6
CONTINUOUS
 10
7.823330823
 20
-10.0894073123
 40
3.3748993522
100
AcDbArc
 50
219.6985058816
 51
297.0212758043
  0
ARC
  5
5DF
100
AcDbEntity
  8
RACCORDO
100
AcDbCircle
 62
253
  6
CONTINUOUS
 10
7.823330823
 20
-10.0894073123
 40
3.0760409428
100
AcDbArc
 50
62.9786755705
 51
140.3014932824
  0
ARC
  5
5E0
100
AcDbEntity
  8
RACCORDO
100
AcDbCircle
 62
253
  6
CONTINUOUS
 10
7.823330823
 20
-10.0894073123
 40
3.0760409428
100
AcDbArc
 50
219.6985557411
 51
297.0213244295
  0
ARC
  5
5E1
100
AcDbEntity
  8
RACCORDO
100
AcDbCircle
 62
253
  6
CONTINUOUS
 10
7.823330823
 20
-10.0894073123
 40
2.9489817302
100
AcDbArc
 50
35.8510937649
 51
142.9183228184
  0
ARC
  5
5E2
100
AcDbEntity
  8
RACCORDO
100
AcDbCircle
 62
253
  6
CONTINUOUS
 10
7.823330823
 20
-10.0894073123
 40
2.9489817302
100
AcDbArc
 50
217.0817161531
 51
324.148904971
  0
ARC
  5
5E3
100
AcDbEntity
  8
RACCORDO
100
AcDbCircle
 62
7
  6
CONTINUOUS
 10
7.823330823
 20
-10.0894073123
 40
2.8
100
AcDbArc
 50
332.6192098778
 51
27.3807901222
  0
ARC
  5
5E4
100
AcDbEntity
  8
RACCORDO
100
AcDbCircle
 62
253
  6
CONTINUOUS
 10
7.823330823
 20
-10.0894073123
 40
2.6501233207
100
AcDbArc
 50
35.8511475871
 51
142.9183291502
  0
ARC
  5
5E5
100
AcDbEntity
  8
RACCORDO
100
AcDbCircle
 62
253
  6
CONTINUOUS
 10
7.823330823
 20
-10.0894073123
 40
2.6501233207
100
AcDbArc
 50
217.0816714185
 51
324.1488512921
  0
ARC
  5
5E6
100
AcDbEntity
  8
RACCORDO
100
AcDbCircle
 62
253
  6
CONTINUOUS
 10
7.823330823
 20
-10.0894073123
 40
2.5328850864
100
AcDbArc
 50
30.3274350156
 51
329.672564984
  0
ARC
  5
5E7
100
AcDbEntity
  8
RACCORDO
100
AcDbCircle
 62
7
  6
CONTINUOUS
 10
7.823330823
 20
-10.0894073123
 40
2.5164425432
100
AcDbArc
 50
331.0837798565
 51
28.9162201436
  0
CIRCLE
  5
5E8
100
AcDbEntity
  8
RACCORDO
100
AcDbCircle
 62
253
  6
CONTINUOUS
 10
7.823330823
 20
-10.0894073123
 40
2.2351212409
  0
CIRCLE
  5
5E9
100
AcDbEntity
  8
DRAFT
100
AcDbCircle
 62
7
  6
CONTINUOUS
 10
7.823330823
 20
-10.0894073123
 40
1.85
  0
ARC
  5
5EA
100
AcDbEntity
  8
RACCORDO
100
AcDbCircle
 62
253
  6
CONTINUOUS
 10
5.0733308247
 20
-7.8025650506
 40
0.5005875506
100
AcDbArc
 50
220.0389674122
 51
319.9607300285
  0
ARC
  5
5EB
100
AcDbEntity
  8
RACCORDO
100
AcDbCircle
 62
253
  6
CONTINUOUS
 10
9.8106326049
 20
-8.6564230214
 40
0.4989236422
100
AcDbArc
 50
0.0811959275
 51
36.1302189806
  0
ARC
  5
5EC
100
AcDbEntity
  8
RACCORDO
100
AcDbCircle
 62
253
  6
CONTINUOUS
 10
9.8073713349
 20
-8.6556112075
 40
0.202228778
100
AcDbArc
 50
359.9703154856
 51
35.8128426486
  0
ARC
  5
5ED
100
AcDbEntity
  8
RACCORDO
100
AcDbCircle
 62
253
  6
CONTINUOUS
 10
34.0426986858
 20
-8.2032287079
 40
23.964216548
100
AcDbArc
 50
187.9630511139
 51
188.7355350748
  0
ARC
  5
5EE
100
AcDbEntity
  8
RACCORDO
100
AcDbCircle
 62
253
  6
CONTINUOUS
 10
32.8191533252
 20
-11.7960098584
 40
22.7275931341
100
AcDbArc
 50
171.2434601456
 51
172.0579773057
  0
ARC
  5
5EF
100
AcDbEntity
  8
RACCORDO
100
AcDbCircle
 62
253
  6
CONTINUOUS
 10
27.2017992211
 20
-11.0186159657
 40
17.0069253252
100
AcDbArc
 50
182.6892654721
 51
183.6160007526
  0
ARC
  5
5F0
100
AcDbEntity
  8
RACCORDO
100
AcDbCircle
 62
253
  6
CONTINUOUS
 10
27.16490726
 20
-9.1581164802
 40
16.9699762645
100
AcDbArc
 50
176.383157315
 51
177.3119128331
  0
ARC
  5
5F1
100
AcDbEntity
  8
RACCORDO
100
AcDbCircle
 62
253
  6
CONTINUOUS
 10
86.9599612106
 20
-18.9586328582
 40
92.760697486
100
AcDbArc
 50
175.6157249706
 51
175.7313850517
  0
ARC
  5
5F2
100
AcDbEntity
  8
RACCORDO
100
AcDbCircle
 62
253
  6
CONTINUOUS
 10
92.275583932
 20
-18.9447101389
 40
92.5757953748
100
AcDbArc
 50
175.6155932833
 51
175.731484338
  0
ARC
  5
5F3
100
AcDbEntity
  8
RACCORDO
100
AcDbCircle
 62
253
  6
CONTINUOUS
 10
97.7755839297
 20
-18.9447101387
 40
92.5757953725
100
AcDbArc
 50
175.6155932833
 51
175.731484338
  0
ARC
  5
5F4
100
AcDbEntity
  8
RACCORDO
100
AcDbCircle
 62
253
  6
CONTINUOUS
 10
86.9599612094
 20
-5.4586328581
 40
92.7606974849
100
AcDbArc
 50
175.6157249706
 51
175.7313850517
  0
ARC
  5
5F5
100
AcDbEntity
  8
RACCORDO
100
AcDbCircle
 62
253
  6
CONTINUOUS
 10
92.2755839297
 20
-5.4447101387
 40
92.5757953725
100
AcDbArc
 50
175.6155932833
 51
175.731484338
  0
ARC
  5
5F6
100
AcDbEntity
  8
RACCORDO
100
AcDbCircle
 62
253
  6
CONTINUOUS
 10
97.7755839297
 20
-5.4447101387
 40
92.5757953725
100
AcDbArc
 50
175.6155932833
 51
175.731484338
  0
ARC
  5
5F7
100
AcDbEntity
  8
RACCORDO
100
AcDbCircle
 62
253
  6
CONTINUOUS
 10
-0.4266691785
 20
1.1237503969
 40
0.5005875493
100
AcDbArc
 50
40.0389727188
 51
139.9607247363
  0
ARC
  5
5F8
100
AcDbEntity
  8
RACCORDO
100
AcDbCircle
 62
253
  6
CONTINUOUS
 10
2.323330823
 20
3.4105926877
 40
3.3748993522
100
AcDbArc
 50
39.6985062371
 51
140.3014941269
  0
ARC
  5
5F9
100
AcDbEntity
  8
RACCORDO
100
AcDbCircle
 62
253
  6
CONTINUOUS
 10
2.323330823
 20
3.4105926877
 40
3.3748993522
100
AcDbArc
 50
219.6985058816
 51
320.3014941269
  0
ARC
  5
5FA
100
AcDbEntity
  8
RACCORDO
100
AcDbCircle
 62
253
  6
CONTINUOUS
 10
2.323330823
 20
3.4105926877
 40
3.0760409428
100
AcDbArc
 50
219.6985557411
 51
320.301493744
  0
ARC
  5
5FB
100
AcDbEntity
  8
RACCORDO
100
AcDbCircle
 62
253
  6
CONTINUOUS
 10
2.323330823
 20
3.4105926877
 40
3.0760409428
100
AcDbArc
 50
39.6985561996
 51
140.301493744
  0
ARC
  5
5FC
100
AcDbEntity
  8
RACCORDO
100
AcDbCircle
 62
253
  6
CONTINUOUS
 10
2.323330823
 20
3.4105926877
 40
2.9489817302
100
AcDbArc
 50
217.0817161531
 51
322.9181968088
  0
ARC
  5
5FD
100
AcDbEntity
  8
RACCORDO
100
AcDbCircle
 62
253
  6
CONTINUOUS
 10
2.323330823
 20
3.4105926877
 40
2.9489817302
100
AcDbArc
 50
37.0817151279
 51
142.9181737877
  0
ARC
  5
5FE
100
AcDbEntity
  8
RACCORDO
100
AcDbCircle
 62
253
  6
CONTINUOUS
 10
2.323330823
 20
3.4105926877
 40
2.6501233207
100
AcDbArc
 50
37.0816708788
 51
142.9183286164
  0
ARC
  5
5FF
100
AcDbEntity
  8
RACCORDO
100
AcDbCircle
 62
253
  6
CONTINUOUS
 10
2.323330823
 20
3.4105926877
 40
2.6501233207
100
AcDbArc
 50
217.0816714185
 51
322.9183286164
  0
CIRCLE
  5
600
100
AcDbEntity
  8
RACCORDO
100
AcDbCircle
 62
253
  6
CONTINUOUS
 10
2.323330823
 20
3.4105926877
 40
2.4328850864
  0
CIRCLE
  5
601
100
AcDbEntity
  8
RACCORDO
100
AcDbCircle
 62
253
  6
CONTINUOUS
 10
2.323330823
 20
3.4105926877
 40
2.1351212409
  0
CIRCLE
  5
602
100
AcDbEntity
  8
DRAFT
100
AcDbCircle
 62
7
  6
CONTINUOUS
 10
2.323330823
 20
3.4105926877
 40
1.75
  0
ARC
  5
603
100
AcDbEntity
  8
RACCORDO
100
AcDbCircle
 62
253
  6
CONTINUOUS
 10
-0.4266691755
 20
5.697434927
 40
0.5005875493
100
AcDbArc
 50
220.0389682052
 51
319.9607292499
  0
ARC
  5
604
100
AcDbEntity
  8
RACCORDO
100
AcDbCircle
 62
7
  6
CONTINUOUS
 10
4.9686011527
 20
3.3233147021
 40
5.2228604249
100
AcDbArc
 50
14.4586922595
 51
15.1642908594
  0
ARC
  5
605
100
AcDbEntity
  8
RACCORDO
100
AcDbCircle
 62
253
  6
CONTINUOUS
 10
5.0733308215
 20
1.1237503969
 40
0.5005875493
100
AcDbArc
 50
40.0389727188
 51
139.9607247363
  0
ARC
  5
606
100
AcDbEntity
  8
RACCORDO
100
AcDbCircle
 62
253
  6
CONTINUOUS
 10
9.8106326121
 20
1.9776083617
 40
0.4989236347
100
AcDbArc
 50
323.8697807892
 51
359.9188047607
  0
ARC
  5
607
100
AcDbEntity
  8
0
100
AcDbCircle
 62
7
  6
CONTINUOUS
 10
8.371191543
 20
3.3333626068
 40
0.3820294204
100
AcDbArc
 50
293.0830055596
 51
295.9850545356
  0
ARC
  5
608
100
AcDbEntity
  8
RACCORDO
100
AcDbCircle
 62
253
  6
CONTINUOUS
 10
9.8073714241
 20
1.9767965421
 40
0.2022286888
100
AcDbArc
 50
324.1871453633
 51
0.0296878555
  0
ARC
  5
609
100
AcDbEntity
  8
RACCORDO
100
AcDbCircle
 62
7
  6
CONTINUOUS
 10
4.9686021133
 20
3.4978704192
 40
5.2228594313
100
AcDbArc
 50
344.8357090734
 51
345.5413078076
  0
ARC
  5
60A
100
AcDbEntity
  8
RACCORDO
100
AcDbCircle
 62
253
  6
CONTINUOUS
 10
7.823330823
 20
3.4105926877
 40
3.3748993522
100
AcDbArc
 50
62.9787241689
 51
140.3014937738
  0
ARC
  5
60B
100
AcDbEntity
  8
RACCORDO
100
AcDbCircle
 62
253
  6
CONTINUOUS
 10
7.823330823
 20
3.4105926877
 40
3.3748993522
100
AcDbArc
 50
219.6985058816
 51
297.0212758043
  0
ARC
  5
60C
100
AcDbEntity
  8
RACCORDO
100
AcDbCircle
 62
253
  6
CONTINUOUS
 10
7.823330823
 20
3.4105926877
 40
3.0760409428
100
AcDbArc
 50
219.6985557411
 51
297.0213244295
  0
ARC
  5
60D
100
AcDbEntity
  8
RACCORDO
100
AcDbCircle
 62
253
  6
CONTINUOUS
 10
7.823330823
 20
3.4105926877
 40
3.0760409428
100
AcDbArc
 50
62.9786755705
 51
140.3014932824
  0
ARC
  5
60E
100
AcDbEntity
  8
RACCORDO
100
AcDbCircle
 62
253
  6
CONTINUOUS
 10
7.823330823
 20
3.4105926877
 40
2.9489817302
100
AcDbArc
 50
217.0817161531
 51
324.1489057828
  0
ARC
  5
60F
100
AcDbEntity
  8
RACCORDO
100
AcDbCircle
 62
253
  6
CONTINUOUS
 10
7.823330823
 20
3.4105926877
 40
2.9489817302
100
AcDbArc
 50
35.8510937483
 51
142.9183228184
  0
ARC
  5
610
100
AcDbEntity
  8
RACCORDO
100
AcDbCircle
 62
7
  6
CONTINUOUS
 10
7.823330823
 20
3.4105926877
 40
2.8
100
AcDbArc
 50
332.6192098778
 51
27.3807901222
  0
ARC
  5
611
100
AcDbEntity
  8
RACCORDO
100
AcDbCircle
 62
253
  6
CONTINUOUS
 10
7.823330823
 20
3.4105926877
 40
2.6501233207
100
AcDbArc
 50
35.8511484224
 51
142.9183291502
  0
ARC
  5
612
100
AcDbEntity
  8
RACCORDO
100
AcDbCircle
 62
253
  6
CONTINUOUS
 10
7.823330823
 20
3.4105926877
 40
2.6501233207
100
AcDbArc
 50
217.0816714185
 51
324.1488519122
  0
ARC
  5
613
100
AcDbEntity
  8
RACCORDO
100
AcDbCircle
 62
253
  6
CONTINUOUS
 10
7.823330823
 20
3.4105926877
 40
2.5328850864
100
AcDbArc
 50
30.3274350156
 51
329.672564984
  0
ARC
  5
614
100
AcDbEntity
  8
RACCORDO
100
AcDbCircle
 62
7
  6
CONTINUOUS
 10
7.823330823
 20
3.4105926877
 40
2.5164425432
100
AcDbArc
 50
331.0837798564
 51
28.9162201436
  0
CIRCLE
  5
615
100
AcDbEntity
  8
RACCORDO
100
AcDbCircle
 62
253
  6
CONTINUOUS
 10
7.823330823
 20
3.4105926877
 40
2.2351212409
  0
CIRCLE
  5
616
100
AcDbEntity
  8
DRAFT
100
AcDbCircle
 62
7
  6
CONTINUOUS
 10
7.823330823
 20
3.4105926877
 40
1.85
  0
ARC
  5
617
100
AcDbEntity
  8
RACCORDO
100
AcDbCircle
 62
253
  6
CONTINUOUS
 10
5.0733308247
 20
5.6974349494
 40
0.5005875506
100
AcDbArc
 50
220.0389674122
 51
319.9607300285
  0
ARC
  5
618
100
AcDbEntity
  8
RACCORDO
100
AcDbCircle
 62
253
  6
CONTINUOUS
 10
9.8106326839
 20
4.8435770851
 40
0.4989235617
100
AcDbArc
 50
0.0811912596
 51
36.1302162084
  0
ARC
  5
619
100
AcDbEntity
  8
RACCORDO
100
AcDbCircle
 62
253
  6
CONTINUOUS
 10
9.8073715282
 20
4.8443888705
 40
0.2022285847
100
AcDbArc
 50
359.9703119715
 51
35.8128677306
  0
ARC
  5
61A
100
AcDbEntity
  8
RACCORDO
100
AcDbCircle
 62
7
  6
CONTINUOUS
 10
15.4463947952
 20
9.7283794462
 40
21.721718325
100
AcDbArc
 50
255.5499392532
 51
256.3208801049
  0
ARC
  5
61B
100
AcDbEntity
  8
RACCORDO
100
AcDbCircle
 62
253
  6
CONTINUOUS
 10
9.5002107665
 20
10.137036833
 40
1.500207187
100
AcDbArc
 50
89.0174460358
 51
89.324705222
  0
ARC
  5
61C
100
AcDbEntity
  8
RACCORDO
100
AcDbCircle
 62
253
  6
CONTINUOUS
 10
9.500362781
 20
10.1370141148
 40
1.0003060698
100
AcDbArc
 50
89.0261740359
 51
90.0087159046
  0
ARC
  5
61D
100
AcDbEntity
  8
RACCORDO
100
AcDbCircle
 62
253
  6
CONTINUOUS
 10
9.3562564684
 20
9.9935183331
 40
1.0002157485
100
AcDbArc
 50
0.0209464775
 51
89.9790535225
  0
ARC
  5
61E
100
AcDbEntity
  8
RACCORDO
100
AcDbCircle
 62
253
  6
CONTINUOUS
 10
9.1198425673
 20
12.4003205897
 40
0.8607486361
100
AcDbArc
 50
296.2254107837
 51
297.5450296433
  0
ARC
  5
61F
100
AcDbEntity
  8
RACCORDO
100
AcDbCircle
 62
253
  6
CONTINUOUS
 10
0.3128350671
 20
12.2500946404
 40
0.7999855474
100
AcDbArc
 50
179.9997511283
 51
230.0029530954
  0
ARC
  5
620
100
AcDbEntity
  8
RACCORDO
100
AcDbCircle
 62
253
  6
CONTINUOUS
 10
9.0042529323
 20
12.2495937243
 40
0.7993277477
100
AcDbArc
 50
309.9851303385
 51
310.7412780277
  0
ARC
  5
621
100
AcDbEntity
  8
RACCORDO
100
AcDbCircle
 62
253
  6
CONTINUOUS
 10
9.0021869371
 20
12.2520555436
 40
0.5025514824
100
AcDbArc
 50
308.3599745053
 51
309.9851592861
  0
ARC
  5
622
100
AcDbEntity
  8
RACCORDO
100
AcDbCircle
 62
253
  6
CONTINUOUS
 10
0.312823958
 20
12.2500830921
 40
0.4999794145
100
AcDbArc
 50
179.9980146755
 51
230.0029242653
  0
ARC
  5
623
100
AcDbEntity
  8
RACCORDO
100
AcDbCircle
 62
253
  6
CONTINUOUS
 10
9.0038472619
 20
12.2500767832
 40
0.4999684278
100
AcDbArc
 50
309.9850872001
 51
310.7412631582
  0
ARC
  5
624
100
AcDbEntity
  8
RACCORDO
100
AcDbCircle
 62
253
  6
CONTINUOUS
 10
0.3128706453
 20
12.2496202577
 40
0.4996473243
100
AcDbArc
 50
229.9647100102
 51
269.9815538349
  0
ARC
  5
625
100
AcDbEntity
  8
RACCORDO
100
AcDbCircle
 62
253
  6
CONTINUOUS
 10
9.0038160002
 20
12.2495192852
 40
0.4995453986
100
AcDbArc
 50
270.0156046794
 51
308.3939939704
  0
ARC
  5
626
100
AcDbEntity
  8
RACCORDO
100
AcDbCircle
 62
253
  6
CONTINUOUS
 10
34.0426834096
 20
5.2967684479
 40
23.9642010206
100
AcDbArc
 50
187.9630493633
 51
188.7355339565
  0
ARC
  5
627
100
AcDbEntity
  8
RACCORDO
100
AcDbCircle
 62
253
  6
CONTINUOUS
 10
32.8165196968
 20
1.7043725095
 40
22.7249319434
100
AcDbArc
 50
171.2434029065
 51
172.0580144799
  0
ARC
  5
628
100
AcDbEntity
  8
RACCORDO
100
AcDbCircle
 62
253
  6
CONTINUOUS
 10
27.2045041744
 20
2.4815261962
 40
17.0096339437
100
AcDbArc
 50
182.6893161944
 51
183.6159042495
  0
ARC
  5
629
100
AcDbEntity
  8
RACCORDO
100
AcDbCircle
 62
253
  6
CONTINUOUS
 10
27.1569715733
 20
4.3422969684
 40
16.9620299089
100
AcDbArc
 50
176.3828611781
 51
177.3120506926
  0
ARC
  5
62A
100
AcDbEntity
  8
SMUSSO
100
AcDbCircle
 62
7
  6
CONTINUOUS
 10
2.8374468432
 20
15.1574442915
 40
3.2218307403
100
AcDbArc
 50
263.6247876654
 51
269.9999677983
  0
ARC
  5
62B
100
AcDbEntity
  8
SMUSSO
100
AcDbCircle
 62
7
  6
CONTINUOUS
 10
5.544670816
 20
15.1573859213
 40
3.221772437
100
AcDbArc
 50
269.9999784887
 51
275.0000298843
  0
CIRCLE
  5
62C
100
AcDbEntity
  8
0
100
AcDbCircle
 62
7
  6
CONTINUOUS
 10
4.173330823
 20
16.0105926877
 40
3.1
  0
ARC
  5
62D
100
AcDbEntity
  8
SMUSSO
100
AcDbCircle
 62
7
  6
CONTINUOUS
 10
2.8374457762
 20
15.1574256319
 40
2.9998922519
100
AcDbArc
 50
263.6247696688
 51
269.9999857949
  0
ARC
  5
62E
100
AcDbEntity
  8
SMUSSO
100
AcDbCircle
 62
7
  6
CONTINUOUS
 10
5.544671471
 20
15.1573712902
 40
2.9998379724
100
AcDbArc
 50
269.9999643859
 51
275.0000439872
  0
ARC
  5
62F
100
AcDbEntity
  8
RACCORDO
100
AcDbCircle
 62
253
  6
CONTINUOUS
 10
5.9932107784
 20
17.6142615194
 40
0.8054231825
100
AcDbArc
 50
79.438778109
 51
89.8447589099
  0
ARC
  5
630
100
AcDbEntity
  8
RACCORDO
100
AcDbCircle
 62
253
  6
CONTINUOUS
 10
5.9889415903
 20
17.6252543117
 40
0.800489741
100
AcDbArc
 50
0.1058402486
 51
3.6449183294
  0
ARC
  5
631
100
AcDbEntity
  8
RACCORDO
100
AcDbCircle
 62
253
  6
CONTINUOUS
 10
0.3128309976
 20
19.771092513
 40
0.799981478
100
AcDbArc
 50
89.9996237764
 51
180.0003762236
  0
ARC
  5
632
100
AcDbEntity
  8
RACCORDO
100
AcDbCircle
 62
253
  6
CONTINUOUS
 10
5.9960599257
 20
17.6177352178
 40
0.6982324752
100
AcDbArc
 50
59.9466434069
 51
90.0547231819
  0
ARC
  5
633
100
AcDbEntity
  8
RACCORDO
100
AcDbCircle
 62
253
  6
CONTINUOUS
 10
5.9919462829
 20
17.6223326636
 40
0.6982290948
100
AcDbArc
 50
359.9839640707
 51
22.9928899766
  0
ARC
  5
634
100
AcDbEntity
  8
RACCORDO
100
AcDbCircle
 62
253
  6
CONTINUOUS
 10
0.3128188911
 20
19.7711046196
 40
0.4999743477
100
AcDbArc
 50
89.9977223449
 51
180.002251708
  0
ARC
  5
635
100
AcDbEntity
  8
0
100
AcDbCircle
 62
7
  6
CONTINUOUS
 10
3.573330823
 20
25.1605926877
 40
0.5
100
AcDbArc
 50
324.3637748935
 51
35.6362251065
  0
ARC
  5
636
100
AcDbEntity
  8
RACCORDO
100
AcDbCircle
 62
7
  6
CONTINUOUS
 10
5.8488310231
 20
21.6105926877
 40
0.4
100
AcDbArc
 50
38.6821874535
 51
90.0
  0
ARC
  5
637
100
AcDbEntity
  8
RACCORDO
100
AcDbCircle
 62
7
  6
CONTINUOUS
 10
6.473330823
 20
22.1105926877
 40
0.4
100
AcDbArc
 50
218.6821874535
 51
360.0
  0
ARC
  5
638
100
AcDbEntity
  8
0
100
AcDbCircle
 62
7
  6
CONTINUOUS
 10
7.573330823
 20
22.6105926877
 40
0.3
100
AcDbArc
 50
56.548974696
 51
90.0
  0
ARC
  5
639
100
AcDbEntity
  8
RACCORDO
100
AcDbCircle
 62
7
  6
CONTINUOUS
 10
7.173330823
 20
22.6105926877
 40
0.3
100
AcDbArc
 50
90.0
 51
180.0
  0
ARC
  5
63A
100
AcDbEntity
  8
RACCORDO
100
AcDbCircle
 62
7
  6
CONTINUOUS
 10
7.573330823
 20
22.6105926877
 40
0.3
100
AcDbArc
 50
56.5488443604
 51
90.0
  0
ARC
  5
63B
100
AcDbEntity
  8
0
100
AcDbCircle
 62
7
  6
CONTINUOUS
 10
7.0739413554
 20
26.2589467751
 40
0.2517327723
100
AcDbArc
 50
100.9754118398
 51
119.9333941588
  0
ARC
  5
63C
100
AcDbEntity
  8
0
100
AcDbCircle
 62
7
  6
CONTINUOUS
 10
7.0733791051
 20
26.2600377366
 40
0.2505549566
100
AcDbArc
 50
90.0120084182
 51
100.8966878703
  0
ARC
  5
63D
100
AcDbEntity
  8
0
100
AcDbCircle
 62
7
  6
CONTINUOUS
 10
7.0777092745
 20
26.2562142362
 40
0.2500066177
100
AcDbArc
 50
90.0024861811
 51
179.9975138189
  0
ARC
  5
63E
100
AcDbEntity
  8
RACCORDO
100
AcDbCircle
 62
253
  6
CONTINUOUS
 10
14.7323929322
 20
19.5980457624
 40
4.8099638329
100
AcDbArc
 50
177.7476404043
 51
179.9711805689
  0
ARC
  5
63F
100
AcDbEntity
  8
RACCORDO
100
AcDbCircle
 62
253
  6
CONTINUOUS
 10
8.5257839898
 20
19.6003389854
 40
1.9999999706
100
AcDbArc
 50
0.0036142072
 51
44.9963857928
  0
ARC
  5
640
100
AcDbEntity
  8
RACCORDO
100
AcDbCircle
 62
253
  6
CONTINUOUS
 10
8.9416917108
 20
20.5984087197
 40
1.0001669283
100
AcDbArc
 50
45.0075747888
 51
89.9924252112
  0
ARC
  5
641
100
AcDbEntity
  8
RACCORDO
100
AcDbCircle
 62
253
  6
CONTINUOUS
 10
9.0025020382
 20
19.7703907226
 40
0.5009565836
100
AcDbArc
 50
0.0383295553
 51
60.6674112612
  0
ARC
  5
642
100
AcDbEntity
  8
RACCORDO
100
AcDbCircle
 62
253
  6
CONTINUOUS
 10
9.0035710431
 20
19.7723947938
 40
0.4986818097
100
AcDbArc
 50
60.6616892251
 51
89.9712614733
  0
ARC
  5
643
100
AcDbEntity
  8
RACCORDO
100
AcDbCircle
 62
7
  6
CONTINUOUS
 10
8.6895180468
 20
16.0105926877
 40
0.4411849108
100
AcDbArc
 50
89.5021464904
 51
270.4978535096
  0
ARC
  5
644
100
AcDbEntity
  8
RACCORDO
100
AcDbCircle
 62
253
  6
CONTINUOUS
 10
8.6933515559
 20
16.0105926877
 40
0.4144462335
100
AcDbArc
 50
89.999582971
 51
270.0
  0
ARC
  5
645
100
AcDbEntity
  8
RACCORDO
100
AcDbCircle
 62
253
  6
CONTINUOUS
 10
8.69335156
 20
16.0105926877
 40
0.0144614643
100
AcDbArc
 50
90.0000161421
 51
269.9999838579
  0
ARC
  5
646
100
AcDbEntity
  8
RACCORDO
100
AcDbCircle
 62
7
  6
CONTINUOUS
 10
15.4463947948
 20
23.2283794448
 40
21.7217183235
100
AcDbArc
 50
255.5499392532
 51
256.3208801049
  0
ARC
  5
647
100
AcDbEntity
  8
0
100
AcDbCircle
 62
7
  6
CONTINUOUS
 10
10.2237840577
 20
23.9106095792
 40
0.4999831086
100
AcDbArc
 50
0.0000036164
 51
90.0012084401
  0
ARC
  5
648
100
AcDbEntity
  8
0
100
AcDbCircle
 62
7
  6
CONTINUOUS
 10
9.4716849104
 20
26.2599821552
 40
0.2517327723
100
AcDbArc
 50
10.9754118398
 51
29.9333941588
  0
ARC
  5
649
100
AcDbEntity
  8
0
100
AcDbCircle
 62
7
  6
CONTINUOUS
 10
9.4727758719
 20
26.2605444056
 40
0.2505549566
100
AcDbArc
 50
0.0120084182
 51
10.8966878703
  0
ARC
  5
64A
100
AcDbEntity
  8
0
100
AcDbCircle
 62
7
  6
CONTINUOUS
 10
9.468952371
 20
26.2562142357
 40
0.2500066182
100
AcDbArc
 50
0.0024862874
 51
89.9975137126
  0
ARC
  5
64B
100
AcDbEntity
  8
RACCORDO
100
AcDbCircle
 62
253
  6
CONTINUOUS
 10
93.2507424194
 20
-1.1581627671
 40
93.5539032493
100
AcDbArc
 50
184.2704455692
 51
184.3851220907
  0
ARC
  5
64C
100
AcDbEntity
  8
RACCORDO
100
AcDbCircle
 62
253
  6
CONTINUOUS
 10
87.5046302213
 20
12.3234222218
 40
93.3071030765
100
AcDbArc
 50
184.2704226643
 51
184.3854022162
  0
ARC
  5
64D
100
AcDbEntity
  8
RACCORDO
100
AcDbCircle
 62
253
  6
CONTINUOUS
 10
92.5106852047
 20
12.2864634558
 40
92.8117773007
100
AcDbArc
 50
184.2703763263
 51
184.3859689159
  0
ARC
  5
64E
100
AcDbEntity
  8
RACCORDO
100
AcDbCircle
 62
253
  6
CONTINUOUS
 10
86.7907156615
 20
-1.2299954672
 40
92.5911928612
100
AcDbArc
 50
184.2703555308
 51
184.3862232345
  0
SPLINE
  5
64F
100
AcDbEntity
  8
RACCORDO
100
AcDbSpline
 62
253
  6
CONTINUOUS
 70
0
 71
3
 72
23
 73
19
 74
17
 42
0.0000001
 43
0.0000001
 44
0.0000000001
 12
1.465627088
 22
0.9778080991
 32
0.0
 13
1.6728049972
 23
-0.5530776448
 33
0.0
 40
0.0
 40
0.0
 40
0.0
 40
0.0
 40
0.1777156993
 40
0.3508620371
 40
0.5151508398
 40
0.5924873047
 40
0.6657048733
 40
0.7340106431
 40
0.7965691118
 40
0.8524529602
 40
0.9007076015
 40
0.9403638638
 40
0.9566810131
 40
0.9705259588
 40
0.9818080329
 40
0.990464087
 40
0.9964900117
 40
1.0
 40
1.0
 40
1.0
 40
1.0
 10
3.3783617091
 20
15.0871963932
 30
0.0
 10
3.4651833567
 20
15.1451203432
 30
0.0
 10
3.6371280329
 20
15.2586791377
 30
0.0
 10
3.8905726734
 20
15.4239017135
 30
0.0
 10
4.0955915801
 20
15.5554511039
 30
0.0
 10
4.2519143958
 20
15.6542072222
 30
0.0
 10
4.3609297515
 20
15.722301077
 30
0.0
 10
4.4629715765
 20
15.7851732398
 30
0.0
 10
4.5567810879
 20
15.841994134
 30
0.0
 10
4.6410025496
 20
15.8919095494
 30
0.0
 10
4.7142066532
 20
15.934015809
 30
0.0
 10
4.7678278356
 20
15.9635621703
 30
0.0
 10
4.8042194115
 20
15.9824492341
 30
0.0
 10
4.8260753513
 20
15.9931922669
 30
0.0
 10
4.8441276706
 20
16.0013608587
 30
0.0
 10
4.8583869209
 20
16.0070024818
 30
0.0
 10
4.8685085915
 20
16.0099528392
 30
0.0
 10
4.8743488359
 20
16.0107090837
 30
0.0
 10
4.8763060112
 20
16.010061985
 30
0.0
 11
3.3783617091
 21
15.0871963932
 31
0.0
 11
3.6395399521
 21
15.259894302
 31
0.0
 11
3.8951358342
 21
15.4264257755
 31
0.0
 11
4.1388192209
 21
15.5826388055
 31
0.0
 11
4.2540228447
 21
15.6553983645
 31
0.0
 11
4.3634482663
 21
15.7237134998
 31
0.0
 11
4.465928229
 21
15.7868080498
 31
0.0
 11
4.5602299522
 21
15.843865498
 31
0.0
 11
4.6449725796
 21
15.8939956139
 31
0.0
 11
4.7187262883
 21
15.9362861087
 31
0.0
 11
4.7800251454
 21
15.9698141499
 31
0.0
 11
4.8055620832
 21
15.9830182577
 31
0.0
 11
4.8274803132
 21
15.9937237054
 31
0.0
 11
4.8456255987
 21
16.0018393495
 31
0.0
 11
4.8598680565
 21
16.0072927427
 31
0.0
 11
4.8701219051
 21
16.010045295
 31
0.0
 11
4.8763060112
 21
16.010061985
 31
0.0
  0
SPLINE
  5
650
100
AcDbEntity
  8
RACCORDO
100
AcDbSpline
 62
253
  6
CONTINUOUS
 70
0
 71
3
 72
25
 73
21
 74
19
 42
0.0000001
 43
0.0000001
 44
0.0000000001
 12
0.9667311939
 22
1.4449975821
 32
0.0
 13
1.7385101803
 23
0.0130217732
 33
0.0
 40
0.0
 40
0.0
 40
0.0
 40
0.0
 40
0.1798108446
 40
0.3546045831
 40
0.5200303554
 40
0.5977216544
 40
0.6711390484
 40
0.7394789068
 40
0.8018946124
 40
0.8574487095
 40
0.9051765503
 40
0.9257995302
 40
0.9440992974
 40
0.9599669715
 40
0.9733038012
 40
0.9840140413
 40
0.9920265013
 40
0.9973212977
 40
0.9989673611
 40
1.0
 40
1.0
 40
1.0
 40
1.0
 10
3.3783617091
 20
15.0871963932
 30
0.0
 10
3.4363046266
 20
15.1738051384
 30
0.0
 10
3.5506617467
 20
15.3445477277
 30
0.0
 10
3.7196106289
 20
15.5941065763
 30
0.0
 10
3.8563811201
 20
15.7939796379
 30
0.0
 10
3.960648816
 20
15.9449029215
 30
0.0
 10
4.0333191854
 20
16.049270156
 30
0.0
 10
4.1013393587
 20
16.1460870048
 30
0.0
 10
4.1638576089
 20
16.2341162537
 30
0.0
 10
4.2199785541
 20
16.312035468
 30
0.0
 10
4.2624708702
 20
16.3699202307
 30
0.0
 10
4.2926127883
 20
16.410084343
 30
0.0
 10
4.3118939196
 20
16.435311917
 30
0.0
 10
4.328861434
 20
16.4569943667
 30
0.0
 10
4.3434058632
 20
16.4749762088
 30
0.0
 10
4.3554259382
 20
16.489164122
 30
0.0
 10
4.3648309419
 20
16.4993889217
 30
0.0
 10
4.3711241062
 20
16.5054453763
 30
0.0
 10
4.3748995513
 20
16.5080585571
 30
0.0
 10
4.3763928261
 20
16.5086879766
 30
0.0
 10
4.3769912438
 20
16.5086924588
 30
0.0
 11
3.3783617091
 21
15.0871963932
 31
0.0
 11
3.5524977092
 21
15.3468168111
 31
0.0
 11
3.7228686804
 21
15.5984562138
 31
0.0
 11
3.885334131
 21
15.8357748822
 31
0.0
 11
3.9621263995
 21
15.9468923711
 31
0.0
 11
4.0350766523
 21
16.0516318073
 31
0.0
 11
4.1033991123
 21
16.1488354084
 31
0.0
 11
4.1662635885
 21
16.2372843316
 31
0.0
 11
4.2227562066
 21
16.3156237672
 31
0.0
 11
4.2719300264
 21
16.3824610942
 31
0.0
 11
4.2934651975
 21
16.4111275347
 31
0.0
 11
4.3128014595
 21
16.43639248
 31
0.0
 11
4.3298275464
 21
16.4580984395
 31
0.0
 11
4.3444409397
 21
16.4761006458
 31
0.0
 11
4.3565394869
 21
16.4902549329
 31
0.0
 11
4.3660363337
 21
16.5004460339
 31
0.0
 11
4.3728723295
 21
16.5066110152
 31
0.0
 11
4.3752749363
 21
16.5081657679
 31
0.0
 11
4.3769912438
 21
16.5086924588
 31
0.0
  0
SPLINE
  5
651
100
AcDbEntity
  8
RACCORDO
100
AcDbSpline
 62
253
  6
CONTINUOUS
 70
0
 71
3
 72
11
 73
7
 74
5
 42
0.0000001
 43
0.0000001
 44
0.0000000001
 12
-0.0021183732
 22
0.7744520531
 32
0.0
 13
-0.7744281198
 23
0.0064464937
 33
0.0
 40
0.0
 40
0.0
 40
0.0
 40
0.0
 40
0.2501722268
 40
0.5002152747
 40
0.7501292442
 40
1.0
 40
1.0
 40
1.0
 40
1.0
 10
4.8763060112
 20
16.010061985
 30
0.0
 10
4.8761293585
 20
16.0746441165
 30
0.0
 10
4.850164601
 20
16.2050965406
 30
0.0
 10
4.7401062521
 20
16.3702302265
 30
0.0
 10
4.5758011433
 20
16.4814035705
 30
0.0
 10
4.4456012977
 20
16.5081384267
 30
0.0
 10
4.3810989845
 20
16.5086753568
 30
0.0
 11
4.8763060112
 21
16.010061985
 31
0.0
 11
4.8382951665
 21
16.2000438841
 31
0.0
 11
4.7310328414
 21
16.3612703824
 31
0.0
 11
4.5706195001
 21
16.4695664767
 31
0.0
 11
4.3810989845
 21
16.5086753568
 31
0.0
  0
SPLINE
  5
652
100
AcDbEntity
  8
RACCORDO
100
AcDbSpline
 62
7
  6
CONTINUOUS
 70
0
 71
3
 72
14
 73
10
 74
8
 42
0.0000001
 43
0.0000001
 44
0.0000000001
 12
0.3940320363
 22
0.0
 32
0.0
 13
0.1227651272
 23
0.3744195096
 33
0.0
 40
0.0
 40
0.0
 40
0.0
 40
0.0
 40
0.0824315749
 40
0.1711240556
 40
0.270826974
 40
0.3846122441
 40
0.5141638616
 40
0.6601285239
 40
1.0
 40
1.0
 40
1.0
 40
1.0
 10
9.1752129936
 20
3.3105926877
 30
0.0
 10
9.1860398874
 20
3.3105926877
 30
0.0
 10
9.2086308215
 20
3.3141256473
 30
0.0
 10
9.2411782665
 20
3.3293669554
 30
0.0
 10
9.2726021365
 20
3.3540431907
 30
0.0
 10
9.3028140155
 20
3.3876934037
 30
0.0
 10
9.3317025211
 20
3.430025785
 30
0.0
 10
9.3701550027
 20
3.5012354112
 30
0.0
 10
9.3931519091
 20
3.561067736
 30
0.0
 10
9.4070600307
 20
3.6034859065
 30
0.0
 11
9.1752129936
 21
3.3105926877
 31
0.0
 11
9.2073342687
 21
3.3154112293
 31
0.0
 11
9.2391791462
 21
3.3298072021
 31
0.0
 11
9.270396457
 21
3.3536584204
 31
0.0
 11
9.3006877455
 21
3.3867132052
 31
0.0
 11
9.3297705655
 21
3.4286659831
 31
0.0
 11
9.3573743481
 21
3.4791236685
 31
0.0
 11
9.4070600307
 21
3.6034859065
 31
0.0
  0
SPLINE
  5
653
100
AcDbEntity
  8
RACCORDO
100
AcDbSpline
 62
7
  6
CONTINUOUS
 70
0
 71
3
 72
14
 73
10
 74
8
 42
0.0000001
 43
0.0000001
 44
0.0000000001
 12
0.1227651272
 22
-0.3744195096
 32
0.0
 13
0.3940320363
 23
0.0
 33
0.0
 40
0.0
 40
0.0
 40
0.0
 40
0.0
 40
0.3398714761
 40
0.4858361384
 40
0.6153877559
 40
0.729173026
 40
0.8288759444
 40
0.9175684251
 40
1.0
 40
1.0
 40
1.0
 40
1.0
 10
-10.2603983848
 20
3.6034859065
 30
0.0
 10
-10.2464902631
 20
3.561067736
 30
0.0
 10
-10.2234933567
 20
3.5012354112
 30
0.0
 10
-10.1850408752
 20
3.430025785
 30
0.0
 10
-10.1561523695
 20
3.3876934037
 30
0.0
 10
-10.1259404906
 20
3.3540431907
 30
0.0
 10
-10.0945166206
 20
3.3293669554
 30
0.0
 10
-10.0619691755
 20
3.3141256473
 30
0.0
 10
-10.0393782415
 20
3.3105926877
 30
0.0
 10
-10.0285513477
 20
3.3105926877
 30
0.0
 11
-10.2603983848
 21
3.6034859065
 31
0.0
 11
-10.2107127022
 21
3.4791236685
 31
0.0
 11
-10.1831089196
 21
3.4286659831
 31
0.0
 11
-10.1540260996
 21
3.3867132052
 31
0.0
 11
-10.123734811
 21
3.3536584204
 31
0.0
 11
-10.0925175002
 21
3.3298072021
 31
0.0
 11
-10.0606726228
 21
3.3154112293
 31
0.0
 11
-10.0285513477
 21
3.3105926877
 31
0.0
  0
SPLINE
  5
654
100
AcDbEntity
  8
RACCORDO
100
AcDbSpline
 62
253
  6
CONTINUOUS
 70
0
 71
3
 72
12
 73
8
 74
6
 42
0.0000001
 43
0.0000001
 44
0.0000000001
 12
0.0994855792
 22
0.0000000002
 32
0.0
 13
0.0915186818
 23
0.039009119
 33
0.0
 40
0.0
 40
0.0
 40
0.0
 40
0.0
 40
0.3557514205
 40
0.6662835319
 40
0.8901518951
 40
0.9604740158
 40
1.0
 40
1.0
 40
1.0
 40
1.0
 10
6.6901753503
 20
17.6221372434
 30
0.0
 10
6.7019727291
 20
17.6221372435
 30
0.0
 10
6.7240760494
 20
17.6223220395
 30
0.0
 10
6.7535576971
 20
17.6232381795
 30
0.0
 10
6.7736396046
 20
17.624273911
 30
0.0
 10
6.7845796542
 20
17.6256274738
 30
0.0
 10
6.7882241769
 20
17.6262190663
 30
0.0
 10
6.7894299655
 20
17.6267330242
 30
0.0
 11
6.6901753503
 21
17.6221372434
 31
0.0
 11
6.7255658519
 21
17.6224773919
 31
0.0
 11
6.7564439824
 21
17.6234507157
 31
0.0
 11
6.7786660687
 21
17.6249360882
 31
0.0
 11
6.7856070266
 21
17.6258122369
 31
0.0
 11
6.7894299655
 21
17.6267330242
 31
0.0
  0
SPLINE
  5
655
100
AcDbEntity
  8
0
100
AcDbSpline
 62
7
  6
CONTINUOUS
 70
0
 71
3
 72
8
 73
4
 74
2
 42
0.0000001
 43
0.0000001
 44
0.0000000001
 12
-0.0647014934
 22
0.1120714463
 32
0.0
 13
-0.1120714463
 23
0.0647014934
 33
0.0
 40
0.0
 40
0.0
 40
0.0
 40
0.0
 40
1.0
 40
1.0
 40
1.0
 40
1.0
 10
9.6898380574
 20
26.3855950252
 30
0.0
 10
9.668270893
 20
26.422952174
 30
0.0
 10
9.6356903093
 20
26.4555327577
 30
0.0
 10
9.5983331605
 20
26.4770999221
 30
0.0
 11
9.6898380574
 21
26.3855950252
 31
0.0
 11
9.5983331605
 21
26.4770999221
 31
0.0
  0
SPLINE
  5
656
100
AcDbEntity
  8
0
100
AcDbSpline
 62
7
  6
CONTINUOUS
 70
0
 71
3
 72
8
 73
4
 74
2
 42
0.0000001
 43
0.0000001
 44
0.0000000001
 12
-0.1120714453
 22
0.0647014928
 32
0.0
 13
-0.1294074651
 23
0.0
 33
0.0
 40
0.0
 40
0.0
 40
0.0
 40
0.0
 40
1.0
 40
1.0
 40
1.0
 40
1.0
 10
9.5983331605
 20
26.4770999221
 30
0.0
 10
9.560976012
 20
26.4986670864
 30
0.0
 10
9.5164708755
 20
26.5105926877
 30
0.0
 10
9.4733350538
 20
26.5105926877
 30
0.0
 11
9.5983331605
 21
26.4770999221
 31
0.0
 11
9.4733350538
 21
26.5105926877
 31
0.0
  0
SPLINE
  5
657
100
AcDbEntity
  8
0
100
AcDbSpline
 62
7
  6
CONTINUOUS
 70
0
 71
3
 72
8
 73
4
 74
2
 42
0.0000001
 43
0.0000001
 44
0.0000000001
 12
-0.1120714463
 22
-0.0647014934
 32
0.0
 13
-0.0647014934
 23
-0.1120714463
 33
0.0
 40
0.0
 40
0.0
 40
0.0
 40
0.0
 40
1.0
 40
1.0
 40
1.0
 40
1.0
 10
6.9483284854
 20
26.4770999221
 30
0.0
 10
6.9109713367
 20
26.4555327577
 30
0.0
 10
6.878390753
 20
26.422952174
 30
0.0
 10
6.8568235885
 20
26.3855950252
 30
0.0
 11
6.9483284854
 21
26.4770999221
 31
0.0
 11
6.8568235885
 21
26.3855950252
 31
0.0
  0
SPLINE
  5
658
100
AcDbEntity
  8
0
100
AcDbSpline
 62
7
  6
CONTINUOUS
 70
0
 71
3
 72
8
 73
4
 74
2
 42
0.0000001
 43
0.0000001
 44
0.0000000001
 12
-0.0647014928
 22
-0.1120714453
 32
0.0
 13
0.0
 23
-0.1294074651
 33
0.0
 40
0.0
 40
0.0
 40
0.0
 40
0.0
 40
1.0
 40
1.0
 40
1.0
 40
1.0
 10
6.8568235885
 20
26.3855950252
 30
0.0
 10
6.8352564242
 20
26.3482378768
 30
0.0
 10
6.823330823
 20
26.3037327402
 30
0.0
 10
6.823330823
 20
26.2605969185
 30
0.0
 11
6.8568235885
 21
26.3855950252
 31
0.0
 11
6.823330823
 21
26.2605969185
 31
0.0
  0
SPLINE
  5
659
100
AcDbEntity
  8
0
100
AcDbSpline
 62
7
  6
CONTINUOUS
 70
0
 71
3
 72
8
 73
4
 74
2
 42
0.0000001
 43
0.0000001
 44
0.0000000001
 12
-0.1120714463
 22
-0.0647014934
 32
0.0
 13
-0.0647014934
 23
-0.1120714463
 33
0.0
 40
0.0
 40
0.0
 40
0.0
 40
0.0
 40
1.0
 40
1.0
 40
1.0
 40
1.0
 10
-10.4516715146
 20
26.4770999221
 30
0.0
 10
-10.4890286633
 20
26.4555327577
 30
0.0
 10
-10.521609247
 20
26.422952174
 30
0.0
 10
-10.5431764115
 20
26.3855950252
 30
0.0
 11
-10.4516715146
 21
26.4770999221
 31
0.0
 11
-10.5431764115
 21
26.3855950252
 31
0.0
  0
SPLINE
  5
65A
100
AcDbEntity
  8
0
100
AcDbSpline
 62
7
  6
CONTINUOUS
 70
0
 71
3
 72
8
 73
4
 74
2
 42
0.0000001
 43
0.0000001
 44
0.0000000001
 12
-0.0647014928
 22
-0.1120714453
 32
0.0
 13
0.0
 23
-0.1294074651
 33
0.0
 40
0.0
 40
0.0
 40
0.0
 40
0.0
 40
1.0
 40
1.0
 40
1.0
 40
1.0
 10
-10.5431764115
 20
26.3855950252
 30
0.0
 10
-10.5647435758
 20
26.3482378768
 30
0.0
 10
-10.576669177
 20
26.3037327402
 30
0.0
 10
-10.576669177
 20
26.2605969185
 30
0.0
 11
-10.5431764115
 21
26.3855950252
 31
0.0
 11
-10.576669177
 21
26.2605969185
 31
0.0
  0
SPLINE
  5
65B
100
AcDbEntity
  8
0
100
AcDbSpline
 62
7
  6
CONTINUOUS
 70
0
 71
3
 72
8
 73
4
 74
2
 42
0.0000001
 43
0.0000001
 44
0.0000000001
 12
-0.0647014934
 22
0.1120714463
 32
0.0
 13
-0.1120714463
 23
0.0647014934
 33
0.0
 40
0.0
 40
0.0
 40
0.0
 40
0.0
 40
1.0
 40
1.0
 40
1.0
 40
1.0
 10
-7.7101619426
 20
26.3855950252
 30
0.0
 10
-7.731729107
 20
26.422952174
 30
0.0
 10
-7.7643096907
 20
26.4555327577
 30
0.0
 10
-7.8016668395
 20
26.4770999221
 30
0.0
 11
-7.7101619426
 21
26.3855950252
 31
0.0
 11
-7.8016668395
 21
26.4770999221
 31
0.0
  0
SPLINE
  5
65C
100
AcDbEntity
  8
0
100
AcDbSpline
 62
7
  6
CONTINUOUS
 70
0
 71
3
 72
8
 73
4
 74
2
 42
0.0000001
 43
0.0000001
 44
0.0000000001
 12
-0.1120714453
 22
0.0647014928
 32
0.0
 13
-0.1294074651
 23
0.0
 33
0.0
 40
0.0
 40
0.0
 40
0.0
 40
0.0
 40
1.0
 40
1.0
 40
1.0
 40
1.0
 10
-7.8016668395
 20
26.4770999221
 30
0.0
 10
-7.839023988
 20
26.4986670864
 30
0.0
 10
-7.8835291245
 20
26.5105926877
 30
0.0
 10
-7.9266649462
 20
26.5105926877
 30
0.0
 11
-7.8016668395
 21
26.4770999221
 31
0.0
 11
-7.9266649462
 21
26.5105926877
 31
0.0
  0
SPLINE
  5
65D
100
AcDbEntity
  8
0
100
AcDbSpline
 62
7
  6
CONTINUOUS
 70
0
 71
3
 72
8
 73
4
 74
2
 42
0.0000001
 43
0.0000001
 44
0.0000000001
 12
0.1120714463
 22
0.0647014934
 32
0.0
 13
0.0647014934
 23
0.1120714463
 33
0.0
 40
0.0
 40
0.0
 40
0.0
 40
0.0
 40
1.0
 40
1.0
 40
1.0
 40
1.0
 10
9.5983331605
 20
-22.4559145468
 30
0.0
 10
9.6356903093
 20
-22.4343473823
 30
0.0
 10
9.668270893
 20
-22.4017667986
 30
0.0
 10
9.6898380574
 20
-22.3644096498
 30
0.0
 11
9.5983331605
 21
-22.4559145468
 31
0.0
 11
9.6898380574
 21
-22.3644096498
 31
0.0
  0
SPLINE
  5
65E
100
AcDbEntity
  8
0
100
AcDbSpline
 62
7
  6
CONTINUOUS
 70
0
 71
3
 72
8
 73
4
 74
2
 42
0.0000001
 43
0.0000001
 44
0.0000000001
 12
0.0647014928
 22
0.1120714453
 32
0.0
 13
0.0
 23
0.1294074651
 33
0.0
 40
0.0
 40
0.0
 40
0.0
 40
0.0
 40
1.0
 40
1.0
 40
1.0
 40
1.0
 10
9.6898380574
 20
-22.3644096498
 30
0.0
 10
9.7114052217
 20
-22.3270525014
 30
0.0
 10
9.723330823
 20
-22.2825473648
 30
0.0
 10
9.723330823
 20
-22.2394115431
 30
0.0
 11
9.6898380574
 21
-22.3644096498
 31
0.0
 11
9.723330823
 21
-22.2394115431
 31
0.0
  0
SPLINE
  5
65F
100
AcDbEntity
  8
0
100
AcDbSpline
 62
7
  6
CONTINUOUS
 70
0
 71
3
 72
8
 73
4
 74
2
 42
0.0000001
 43
0.0000001
 44
0.0000000001
 12
0.0647014934
 22
-0.1120714463
 32
0.0
 13
0.1120714463
 23
-0.0647014934
 33
0.0
 40
0.0
 40
0.0
 40
0.0
 40
0.0
 40
1.0
 40
1.0
 40
1.0
 40
1.0
 10
6.8568235885
 20
-22.3644096498
 30
0.0
 10
6.878390753
 20
-22.4017667986
 30
0.0
 10
6.9109713367
 20
-22.4343473823
 30
0.0
 10
6.9483284854
 20
-22.4559145468
 30
0.0
 11
6.8568235885
 21
-22.3644096498
 31
0.0
 11
6.9483284854
 21
-22.4559145468
 31
0.0
  0
SPLINE
  5
660
100
AcDbEntity
  8
0
100
AcDbSpline
 62
7
  6
CONTINUOUS
 70
0
 71
3
 72
8
 73
4
 74
2
 42
0.0000001
 43
0.0000001
 44
0.0000000001
 12
0.1120714453
 22
-0.0647014928
 32
0.0
 13
0.1294074651
 23
0.0
 33
0.0
 40
0.0
 40
0.0
 40
0.0
 40
0.0
 40
1.0
 40
1.0
 40
1.0
 40
1.0
 10
6.9483284854
 20
-22.4559145468
 30
0.0
 10
6.9856856339
 20
-22.477481711
 30
0.0
 10
7.0301907705
 20
-22.4894073123
 30
0.0
 10
7.0733265922
 20
-22.4894073123
 30
0.0
 11
6.9483284854
 21
-22.4559145468
 31
0.0
 11
7.0733265922
 21
-22.4894073123
 31
0.0
  0
SPLINE
  5
661
100
AcDbEntity
  8
0
100
AcDbSpline
 62
7
  6
CONTINUOUS
 70
0
 71
3
 72
8
 73
4
 74
2
 42
0.0000001
 43
0.0000001
 44
0.0000000001
 12
0.1120714463
 22
0.0647014934
 32
0.0
 13
0.0647014934
 23
0.1120714463
 33
0.0
 40
0.0
 40
0.0
 40
0.0
 40
0.0
 40
1.0
 40
1.0
 40
1.0
 40
1.0
 10
-7.8016668395
 20
-22.4559145468
 30
0.0
 10
-7.7643096907
 20
-22.4343473823
 30
0.0
 10
-7.731729107
 20
-22.4017667986
 30
0.0
 10
-7.7101619426
 20
-22.3644096498
 30
0.0
 11
-7.8016668395
 21
-22.4559145468
 31
0.0
 11
-7.7101619426
 21
-22.3644096498
 31
0.0
  0
SPLINE
  5
662
100
AcDbEntity
  8
0
100
AcDbSpline
 62
7
  6
CONTINUOUS
 70
0
 71
3
 72
8
 73
4
 74
2
 42
0.0000001
 43
0.0000001
 44
0.0000000001
 12
0.0647014928
 22
0.1120714453
 32
0.0
 13
0.0
 23
0.1294074651
 33
0.0
 40
0.0
 40
0.0
 40
0.0
 40
0.0
 40
1.0
 40
1.0
 40
1.0
 40
1.0
 10
-7.7101619426
 20
-22.3644096498
 30
0.0
 10
-7.6885947783
 20
-22.3270525014
 30
0.0
 10
-7.676669177
 20
-22.2825473648
 30
0.0
 10
-7.676669177
 20
-22.2394115431
 30
0.0
 11
-7.7101619426
 21
-22.3644096498
 31
0.0
 11
-7.676669177
 21
-22.2394115431
 31
0.0
  0
SPLINE
  5
663
100
AcDbEntity
  8
0
100
AcDbSpline
 62
7
  6
CONTINUOUS
 70
0
 71
3
 72
8
 73
4
 74
2
 42
0.0000001
 43
0.0000001
 44
0.0000000001
 12
0.0647014934
 22
-0.1120714463
 32
0.0
 13
0.1120714463
 23
-0.0647014934
 33
0.0
 40
0.0
 40
0.0
 40
0.0
 40
0.0
 40
1.0
 40
1.0
 40
1.0
 40
1.0
 10
-10.5431764115
 20
-22.3644096498
 30
0.0
 10
-10.521609247
 20
-22.4017667986
 30
0.0
 10
-10.4890286633
 20
-22.4343473823
 30
0.0
 10
-10.4516715146
 20
-22.4559145468
 30
0.0
 11
-10.5431764115
 21
-22.3644096498
 31
0.0
 11
-10.4516715146
 21
-22.4559145468
 31
0.0
  0
SPLINE
  5
664
100
AcDbEntity
  8
0
100
AcDbSpline
 62
7
  6
CONTINUOUS
 70
0
 71
3
 72
8
 73
4
 74
2
 42
0.0000001
 43
0.0000001
 44
0.0000000001
 12
0.1120714453
 22
-0.0647014928
 32
0.0
 13
0.1294074651
 23
0.0
 33
0.0
 40
0.0
 40
0.0
 40
0.0
 40
0.0
 40
1.0
 40
1.0
 40
1.0
 40
1.0
 10
-10.4516715146
 20
-22.4559145468
 30
0.0
 10
-10.4143143661
 20
-22.477481711
 30
0.0
 10
-10.3698092295
 20
-22.4894073123
 30
0.0
 10
-10.3266734078
 20
-22.4894073123
 30
0.0
 11
-10.4516715146
 21
-22.4559145468
 31
0.0
 11
-10.3266734078
 21
-22.4894073123
 31
0.0
  0
SPLINE
  5
665
100
AcDbEntity
  8
0
100
AcDbSpline
 62
7
  6
CONTINUOUS
 70
0
 71
3
 72
11
 73
7
 74
5
 42
0.0000001
 43
0.0000001
 44
0.0000000001
 12
0.0
 22
-0.0649331207
 32
0.0
 13
-0.0420652658
 23
-0.0494653776
 33
0.0
 40
0.0
 40
0.0
 40
0.0
 40
0.0
 40
0.1128125205
 40
0.3212841351
 40
0.6204121545
 40
1.0
 40
1.0
 40
1.0
 40
1.0
 10
-3.926669177
 20
25.9647406318
 30
0.0
 10
-3.926669177
 20
25.9622988754
 30
0.0
 10
-3.9302526917
 20
25.955857874
 30
0.0
 10
-3.9375330916
 20
25.9448931324
 30
0.0
 10
-3.949512699
 20
25.929701573
 30
0.0
 10
-3.9588859601
 20
25.9184424188
 30
0.0
 10
-3.964208448
 20
25.9121836001
 30
0.0
 11
-3.926669177
 21
25.9647406318
 31
0.0
 11
-3.9292087532
 21
25.9578696698
 31
0.0
 11
-3.9366206446
 21
25.9465424259
 31
0.0
 11
-3.9484667812
 21
25.9311497574
 31
0.0
 11
-3.964208448
 21
25.9121836001
 31
0.0
  0
SPLINE
  5
666
100
AcDbEntity
  8
0
100
AcDbSpline
 62
7
  6
CONTINUOUS
 70
0
 71
3
 72
10
 73
6
 74
4
 42
0.0000001
 43
0.0000001
 44
0.0000000001
 12
-0.39454775
 22
-0.4639564996
 32
0.0
 13
-0.4199094045
 23
-0.4411345063
 33
0.0
 40
0.0
 40
0.0
 40
0.0
 40
0.0
 40
0.1970182317
 40
0.4446562538
 40
1.0
 40
1.0
 40
1.0
 40
1.0
 10
-3.964208448
 20
25.9121836001
 30
0.0
 10
-3.9901194813
 20
25.8817143037
 30
0.0
 10
-4.0509147333
 20
25.8149462823
 30
0.0
 10
-4.1894717578
 20
25.6665875193
 30
0.0
 10
-4.3019805331
 20
25.5486109321
 30
0.0
 10
-4.379711887
 20
25.4669505024
 30
0.0
 11
-3.964208448
 21
25.9121836001
 31
0.0
 11
-4.0441537848
 21
25.8227041043
 31
0.0
 11
-4.146955856
 21
25.7123480015
 31
0.0
 11
-4.379711887
 21
25.4669505024
 31
0.0
  0
SPLINE
  5
667
100
AcDbEntity
  8
ASSI
100
AcDbSpline
 62
7
  6
CONTINUOUS
 70
0
 71
3
 72
10
 73
6
 74
4
 42
0.0000001
 43
0.0000001
 44
0.0000000001
 12
-0.3506606047
 22
0.613485731
 32
0.0
 13
-0.4079736927
 23
0.5769619293
 33
0.0
 40
0.0
 40
0.0
 40
0.0
 40
0.0
 40
0.2326782901
 40
0.4810106203
 40
1.0
 40
1.0
 40
1.0
 40
1.0
 10
7.300162301
 20
-19.9125758343
 30
0.0
 10
7.2729652643
 20
-19.8649942307
 30
0.0
 10
7.2133118103
 20
-19.7685990001
 30
0.0
 10
7.082501568
 20
-19.5727045177
 30
0.0
 10
6.9780095467
 20
-19.4252066322
 30
0.0
 10
6.9074315421
 20
-19.325394261
 30
0.0
 11
7.300162301
 21
-19.9125758343
 31
0.0
 11
7.2144885669
 21
-19.7722433664
 31
0.0
 11
7.1174749134
 21
-19.6260197088
 31
0.0
 11
6.9074315421
 21
-19.325394261
 31
0.0
  0
SPLINE
  5
668
100
AcDbEntity
  8
ASSI
100
AcDbSpline
 62
7
  6
CONTINUOUS
 70
0
 71
3
 72
10
 73
6
 74
4
 42
0.0000001
 43
0.0000001
 44
0.0000000001
 12
-0.4079736912
 22
-0.5769619272
 32
0.0
 13
-0.3506606034
 23
-0.6134857287
 33
0.0
 40
0.0
 40
0.0
 40
0.0
 40
0.0
 40
0.5189884678
 40
0.7673193289
 40
1.0
 40
1.0
 40
1.0
 40
1.0
 10
-7.7607698962
 20
-19.325394261
 30
0.0
 10
-7.8313477765
 20
-19.4252064565
 30
0.0
 10
-7.9358395102
 20
-19.5727038605
 30
0.0
 10
-8.0666496588
 20
-19.7685984006
 30
0.0
 10
-8.1263033402
 20
-19.8649937439
 30
0.0
 10
-8.153500655
 20
-19.9125758343
 30
0.0
 11
-7.7607698962
 21
-19.325394261
 31
0.0
 11
-7.9708128955
 21
-19.6260191809
 31
0.0
 11
-8.0678259647
 21
-19.7722419796
 31
0.0
 11
-8.153500655
 21
-19.9125758343
 31
0.0
  0
SPLINE
  5
669
100
AcDbEntity
  8
ASSI
100
AcDbSpline
 62
7
  6
CONTINUOUS
 70
0
 71
3
 72
10
 73
6
 74
4
 42
0.0000001
 43
0.0000001
 44
0.0000000001
 12
0.3506606047
 22
-0.613485731
 32
0.0
 13
0.4079736927
 23
-0.5769619293
 33
0.0
 40
0.0
 40
0.0
 40
0.0
 40
0.0
 40
0.2326782901
 40
0.4810106203
 40
1.0
 40
1.0
 40
1.0
 40
1.0
 10
-8.153500655
 20
23.9337612097
 30
0.0
 10
-8.1263036184
 20
23.8861796061
 30
0.0
 10
-8.0666501644
 20
23.7897843754
 30
0.0
 10
-7.9358399221
 20
23.593889893
 30
0.0
 10
-7.8313479008
 20
23.4463920076
 30
0.0
 10
-7.7607698962
 20
23.3465796363
 30
0.0
 11
-8.153500655
 21
23.9337612097
 31
0.0
 11
-8.067826921
 21
23.7934287418
 31
0.0
 11
-7.9708132674
 21
23.6472050841
 31
0.0
 11
-7.7607698962
 21
23.3465796363
 31
0.0
  0
SPLINE
  5
66A
100
AcDbEntity
  8
ASSI
100
AcDbSpline
 62
7
  6
CONTINUOUS
 70
0
 71
3
 72
10
 73
6
 74
4
 42
0.0000001
 43
0.0000001
 44
0.0000000001
 12
0.4079736912
 22
0.5769619272
 32
0.0
 13
0.3506606034
 23
0.6134857287
 33
0.0
 40
0.0
 40
0.0
 40
0.0
 40
0.0
 40
0.5189884678
 40
0.7673193289
 40
1.0
 40
1.0
 40
1.0
 40
1.0
 10
6.9074315421
 20
23.3465796363
 30
0.0
 10
6.9780094224
 20
23.4463918319
 30
0.0
 10
7.0825011562
 20
23.5938892359
 30
0.0
 10
7.2133113047
 20
23.789783776
 30
0.0
 10
7.2729649861
 20
23.8861791193
 30
0.0
 10
7.300162301
 20
23.9337612097
 30
0.0
 11
6.9074315421
 21
23.3465796363
 31
0.0
 11
7.1174745414
 21
23.6472045563
 31
0.0
 11
7.2144876107
 21
23.793427355
 31
0.0
 11
7.300162301
 21
23.9337612097
 31
0.0
  0
SPLINE
  5
66B
100
AcDbEntity
  8
0
100
AcDbSpline
 62
253
  6
CONTINUOUS
 70
0
 71
3
 72
11
 73
7
 74
5
 42
0.0000001
 43
0.0000001
 44
0.0000000001
 12
0.0012232482
 22
0.3641907438
 32
0.0
 13
0.3641916425
 23
0.0009174695
 33
0.0
 40
0.0
 40
0.0
 40
0.0
 40
0.0
 40
0.2331623084
 40
0.476670585
 40
0.7338116789
 40
1.0
 40
1.0
 40
1.0
 40
1.0
 10
-10.572297343
 20
-21.8337448796
 30
0.0
 10
-10.5722022712
 20
-21.8054396948
 30
0.0
 10
-10.5582724135
 20
-21.7468965555
 30
0.0
 10
-10.5013399894
 20
-21.6752354409
 30
0.0
 10
-10.4186719492
 20
-21.6282372437
 30
0.0
 10
-10.3546160944
 20
-21.6173199352
 30
0.0
 10
-10.3223015738
 20
-21.6172385287
 30
0.0
 11
-10.572297343
 21
-21.8337448796
 31
0.0
 11
-10.5530591136
 21
-21.7510368191
 31
0.0
 11
-10.4988185474
 21
-21.6808741092
 31
0.0
 11
-10.4178029996
 21
-21.633899606
 31
0.0
 11
-10.3223015738
 21
-21.6172385287
 31
0.0
  0
SPLINE
  5
66C
100
AcDbEntity
  8
0
100
AcDbSpline
 62
253
  6
CONTINUOUS
 70
0
 71
3
 72
11
 73
7
 74
5
 42
0.0000001
 43
0.0000001
 44
0.0000000001
 12
-0.0012232482
 22
0.3641907438
 32
0.0
 13
-0.3641916425
 23
0.0009174695
 33
0.0
 40
0.0
 40
0.0
 40
0.0
 40
0.0
 40
0.2331623084
 40
0.476670585
 40
0.7338116789
 40
1.0
 40
1.0
 40
1.0
 40
1.0
 10
-7.681041011
 20
-21.8337448796
 30
0.0
 10
-7.6811360828
 20
-21.8054396948
 30
0.0
 10
-7.6950659406
 20
-21.7468965555
 30
0.0
 10
-7.7519983647
 20
-21.6752354409
 30
0.0
 10
-7.8346664049
 20
-21.6282372437
 30
0.0
 10
-7.8987222596
 20
-21.6173199352
 30
0.0
 10
-7.9310367802
 20
-21.6172385287
 30
0.0
 11
-7.681041011
 21
-21.8337448796
 31
0.0
 11
-7.7002792405
 21
-21.7510368191
 31
0.0
 11
-7.7545198066
 21
-21.6808741092
 31
0.0
 11
-7.8355353544
 21
-21.633899606
 31
0.0
 11
-7.9310367802
 21
-21.6172385287
 31
0.0
  0
SPLINE
  5
66D
100
AcDbEntity
  8
0
100
AcDbSpline
 62
253
  6
CONTINUOUS
 70
0
 71
3
 72
11
 73
7
 74
5
 42
0.0000001
 43
0.0000001
 44
0.0000000001
 12
0.0012232482
 22
0.3641907438
 32
0.0
 13
0.3641916425
 23
0.0009174695
 33
0.0
 40
0.0
 40
0.0
 40
0.0
 40
0.0
 40
0.2331623084
 40
0.476670585
 40
0.7338116789
 40
1.0
 40
1.0
 40
1.0
 40
1.0
 10
6.827702657
 20
-21.8337448796
 30
0.0
 10
6.8277977288
 20
-21.8054396948
 30
0.0
 10
6.8417275865
 20
-21.7468965555
 30
0.0
 10
6.8986600106
 20
-21.6752354409
 30
0.0
 10
6.9813280508
 20
-21.6282372437
 30
0.0
 10
7.0453839056
 20
-21.6173199352
 30
0.0
 10
7.0776984262
 20
-21.6172385287
 30
0.0
 11
6.827702657
 21
-21.8337448796
 31
0.0
 11
6.8469408864
 21
-21.7510368191
 31
0.0
 11
6.9011814526
 21
-21.6808741092
 31
0.0
 11
6.9821970004
 21
-21.633899606
 31
0.0
 11
7.0776984262
 21
-21.6172385287
 31
0.0
  0
SPLINE
  5
66E
100
AcDbEntity
  8
0
100
AcDbSpline
 62
253
  6
CONTINUOUS
 70
0
 71
3
 72
11
 73
7
 74
5
 42
0.0000001
 43
0.0000001
 44
0.0000000001
 12
-0.0012232482
 22
0.3641907438
 32
0.0
 13
-0.3641916425
 23
0.0009174695
 33
0.0
 40
0.0
 40
0.0
 40
0.0
 40
0.0
 40
0.2331623084
 40
0.476670585
 40
0.7338116789
 40
1.0
 40
1.0
 40
1.0
 40
1.0
 10
9.718958989
 20
-21.8337448796
 30
0.0
 10
9.7188639172
 20
-21.8054396948
 30
0.0
 10
9.7049340594
 20
-21.7468965555
 30
0.0
 10
9.6480016353
 20
-21.6752354409
 30
0.0
 10
9.5653335951
 20
-21.6282372437
 30
0.0
 10
9.5012777404
 20
-21.6173199352
 30
0.0
 10
9.4689632198
 20
-21.6172385287
 30
0.0
 11
9.718958989
 21
-21.8337448796
 31
0.0
 11
9.6997207595
 21
-21.7510368191
 31
0.0
 11
9.6454801934
 21
-21.6808741092
 31
0.0
 11
9.5644646456
 21
-21.633899606
 31
0.0
 11
9.4689632198
 21
-21.6172385287
 31
0.0
  0
SPLINE
  5
66F
100
AcDbEntity
  8
0
100
AcDbSpline
 62
253
  6
CONTINUOUS
 70
0
 71
3
 72
11
 73
7
 74
5
 42
0.0000001
 43
0.0000001
 44
0.0000000001
 12
0.0012232482
 22
-0.3641907438
 32
0.0
 13
0.3641916425
 23
-0.0009174695
 33
0.0
 40
0.0
 40
0.0
 40
0.0
 40
0.0
 40
0.2331623162
 40
0.4766706026
 40
0.7338117062
 40
1.0
 40
1.0
 40
1.0
 40
1.0
 10
-10.572297343
 20
25.854930255
 30
0.0
 10
-10.5722022712
 20
25.8266250692
 30
0.0
 10
-10.5582724123
 20
25.7680819278
 30
0.0
 10
-10.5013399845
 20
25.6964208117
 30
0.0
 10
-10.4186719437
 20
25.6494226171
 30
0.0
 10
-10.3546160911
 20
25.6385053106
 30
0.0
 10
-10.3223015738
 20
25.638423904
 30
0.0
 11
-10.572297343
 21
25.854930255
 31
0.0
 11
-10.5530591123
 21
25.7722221918
 31
0.0
 11
-10.4988185424
 21
25.7020594803
 31
0.0
 11
-10.4178029902
 21
25.6550849777
 31
0.0
 11
-10.3223015738
 21
25.638423904
 31
0.0
  0
SPLINE
  5
670
100
AcDbEntity
  8
0
100
AcDbSpline
 62
253
  6
CONTINUOUS
 70
0
 71
3
 72
11
 73
7
 74
5
 42
0.0000001
 43
0.0000001
 44
0.0000000001
 12
-0.0012232482
 22
-0.3641907442
 32
0.0
 13
-0.3641916429
 23
-0.0009174695
 33
0.0
 40
0.0
 40
0.0
 40
0.0
 40
0.0
 40
0.2331622206
 40
0.4766705204
 40
0.7338116472
 40
1.0
 40
1.0
 40
1.0
 40
1.0
 10
-7.681041011
 20
25.854930255
 30
0.0
 10
-7.6811360828
 20
25.8266250808
 30
0.0
 10
-7.6950659312
 20
25.7680819494
 30
0.0
 10
-7.7519983461
 20
25.6964208305
 30
0.0
 10
-7.8346663928
 20
25.6494226221
 30
0.0
 10
-7.8987222557
 20
25.6385053106
 30
0.0
 10
-7.9310367802
 20
25.638423904
 30
0.0
 11
-7.681041011
 21
25.854930255
 31
0.0
 11
-7.7002792253
 21
25.7722222237
 31
0.0
 11
-7.7545197883
 21
25.7020595006
 31
0.0
 11
-7.8355353433
 21
25.6550849857
 31
0.0
 11
-7.9310367802
 21
25.638423904
 31
0.0
  0
SPLINE
  5
671
100
AcDbEntity
  8
0
100
AcDbSpline
 62
253
  6
CONTINUOUS
 70
0
 71
3
 72
11
 73
7
 74
5
 42
0.0000001
 43
0.0000001
 44
0.0000000001
 12
-0.0012232482
 22
-0.3641907438
 32
0.0
 13
-0.3641916425
 23
-0.0009174695
 33
0.0
 40
0.0
 40
0.0
 40
0.0
 40
0.0
 40
0.2331623162
 40
0.4766706026
 40
0.7338117062
 40
1.0
 40
1.0
 40
1.0
 40
1.0
 10
9.718958989
 20
25.854930255
 30
0.0
 10
9.7188639172
 20
25.8266250692
 30
0.0
 10
9.7049340583
 20
25.7680819278
 30
0.0
 10
9.6480016304
 20
25.6964208117
 30
0.0
 10
9.5653335896
 20
25.6494226171
 30
0.0
 10
9.5012777371
 20
25.6385053106
 30
0.0
 10
9.4689632198
 20
25.638423904
 30
0.0
 11
9.718958989
 21
25.854930255
 31
0.0
 11
9.6997207582
 21
25.7722221918
 31
0.0
 11
9.6454801884
 21
25.7020594803
 31
0.0
 11
9.5644646361
 21
25.6550849777
 31
0.0
 11
9.4689632198
 21
25.638423904
 31
0.0
  0
SPLINE
  5
672
100
AcDbEntity
  8
0
100
AcDbSpline
 62
253
  6
CONTINUOUS
 70
0
 71
3
 72
11
 73
7
 74
5
 42
0.0000001
 43
0.0000001
 44
0.0000000001
 12
0.0012232482
 22
-0.3641907442
 32
0.0
 13
0.3641916429
 23
-0.0009174695
 33
0.0
 40
0.0
 40
0.0
 40
0.0
 40
0.0
 40
0.2331622206
 40
0.4766705204
 40
0.7338116472
 40
1.0
 40
1.0
 40
1.0
 40
1.0
 10
6.827702657
 20
25.854930255
 30
0.0
 10
6.8277977287
 20
25.8266250808
 30
0.0
 10
6.8417275771
 20
25.7680819494
 30
0.0
 10
6.8986599921
 20
25.6964208305
 30
0.0
 10
6.9813280388
 20
25.6494226221
 30
0.0
 10
7.0453839017
 20
25.6385053106
 30
0.0
 10
7.0776984262
 20
25.638423904
 30
0.0
 11
6.827702657
 21
25.854930255
 31
0.0
 11
6.8469408713
 21
25.7722222237
 31
0.0
 11
6.9011814343
 21
25.7020595006
 31
0.0
 11
6.9821969893
 21
25.6550849857
 31
0.0
 11
7.0776984262
 21
25.638423904
 31
0.0
  0
SPLINE
  5
673
100
AcDbEntity
  8
0
100
AcDbSpline
 62
7
  6
CONTINUOUS
 70
0
 71
3
 72
18
 73
14
 74
12
 42
0.0000001
 43
0.0000001
 44
0.0000000001
 12
-0.4645026772
 22
0.487981829
 32
0.0
 13
-0.0392554892
 23
0.6725682189
 33
0.0
 40
0.0
 40
0.0
 40
0.0
 40
0.0
 40
0.1636778156
 40
0.3250651433
 40
0.4815207483
 40
0.6295730363
 40
0.7642644103
 40
0.8244082433
 40
0.8781857762
 40
0.9241530805
 40
0.9607159207
 40
0.9863262087
 40
1.0
 40
1.0
 40
1.0
 40
1.0
 10
-4.379711887
 20
25.4669505024
 30
0.0
 10
-4.4050548148
 20
25.4935744357
 30
0.0
 10
-4.4553862524
 20
25.5464495712
 30
0.0
 10
-4.5298630997
 20
25.6248490036
 30
0.0
 10
-4.6017551556
 20
25.7008648177
 30
0.0
 10
-4.6692314876
 20
25.7728006975
 30
0.0
 10
-4.721525003
 20
25.8293323509
 30
0.0
 10
-4.7589753212
 20
25.8707288759
 30
0.0
 10
-4.7828070468
 20
25.8976170211
 30
0.0
 10
-4.8026388315
 20
25.9208531734
 30
0.0
 10
-4.8181196267
 20
25.9397864352
 30
0.0
 10
-4.8276538501
 20
25.9535023764
 30
0.0
 10
-4.8325680062
 20
25.9614194416
 30
0.0
 10
-4.83274693
 20
25.9644849607
 30
0.0
 11
-4.379711887
 21
25.4669505024
 31
0.0
 11
-4.4557273131
 21
25.5468350148
 31
0.0
 11
-4.530596342
 21
25.6256801938
 31
0.0
 11
-4.6029976382
 21
25.7022863884
 31
0.0
 11
-4.6711969258
 21
25.7750728438
 31
0.0
 11
-4.7327198763
 21
25.8417757278
 31
0.0
 11
-4.7598839897
 21
25.8718415697
 31
0.0
 11
-4.7838679806
 21
25.8989971517
 31
0.0
 11
-4.803947248
 21
25.9225744149
 31
0.0
 11
-4.8193123034
 21
25.9418277945
 31
0.0
 11
-4.8291441135
 21
25.9560064877
 31
0.0
 11
-4.83274693
 21
25.9644849607
 31
0.0
  0
SPLINE
  5
674
100
AcDbEntity
  8
0
100
AcDbSpline
 62
7
  6
CONTINUOUS
 70
0
 71
3
 72
18
 73
14
 74
12
 42
0.0000001
 43
0.0000001
 44
0.0000000001
 12
-0.4646710751
 22
0.4881587388
 32
0.0
 13
0.0
 23
0.6739570923
 33
0.0
 40
0.0
 40
0.0
 40
0.0
 40
0.0
 40
0.1641060183
 40
0.3259011307
 40
0.482718549
 40
0.6310477659
 40
0.7658671704
 40
0.8259881902
 40
0.8796624717
 40
0.9254267902
 40
0.9616703427
 40
0.9868411377
 40
1.0
 40
1.0
 40
1.0
 40
1.0
 10
3.5263735329
 20
25.4669505024
 30
0.0
 10
3.5009550929
 20
25.4936537647
 30
0.0
 10
3.4504759105
 20
25.5466841021
 30
0.0
 10
3.3757872503
 20
25.6253074888
 30
0.0
 10
3.3037090382
 20
25.7015232396
 30
0.0
 10
3.2360946884
 20
25.7736142394
 30
0.0
 10
3.1837294809
 20
25.8302363072
 30
0.0
 10
3.1462784547
 20
25.8716571547
 30
0.0
 10
3.1224941805
 20
25.8985131428
 30
0.0
 10
3.1027787662
 20
25.9216584144
 30
0.0
 10
3.0874205249
 20
25.9404743136
 30
0.0
 10
3.0781662277
 20
25.9539520683
 30
0.0
 10
3.073330823
 20
25.9617844622
 30
0.0
 10
3.073330823
 20
25.9647406318
 30
0.0
 11
3.5263735329
 21
25.4669505024
 31
0.0
 11
3.4501316913
 21
25.5470731169
 31
0.0
 11
3.37504688
 21
25.6261467472
 31
0.0
 11
3.3024537003
 21
25.7029596905
 31
0.0
 11
3.2341064893
 21
25.7759128628
 31
0.0
 11
3.1725124097
 21
25.8427122801
 31
0.0
 11
3.1453574114
 21
25.8727854313
 31
0.0
 11
3.1214239275
 21
25.8999102981
 31
0.0
 11
3.1014466804
 21
25.923409485
 31
0.0
 11
3.0862444926
 21
25.9425289054
 31
0.0
 11
3.0766415959
 21
25.9565132855
 31
0.0
 11
3.073330823
 21
25.9647406318
 31
0.0
  0
SPLINE
  5
675
100
AcDbEntity
  8
0
100
AcDbSpline
 62
7
  6
CONTINUOUS
 70
0
 71
3
 72
18
 73
14
 74
12
 42
0.0000001
 43
0.0000001
 44
0.0000000001
 12
-0.0392554892
 22
-0.6725682189
 32
0.0
 13
-0.4645026772
 23
-0.4879818289
 33
0.0
 40
0.0
 40
0.0
 40
0.0
 40
0.0
 40
0.013673802
 40
0.0392841065
 40
0.0758469559
 40
0.1218142562
 40
0.1755917792
 40
0.2357356036
 40
0.3704269753
 40
0.5184792767
 40
0.6749348536
 40
0.8363221475
 40
1.0
 40
1.0
 40
1.0
 40
1.0
 10
3.9794085759
 20
25.9644849607
 30
0.0
 10
3.979229652
 20
25.9614194392
 30
0.0
 10
3.9743154912
 20
25.9535023689
 30
0.0
 10
3.9647812626
 20
25.939786422
 30
0.0
 10
3.9493004636
 20
25.9208531568
 30
0.0
 10
3.9294686792
 20
25.8976170057
 30
0.0
 10
3.9056369568
 20
25.8707288644
 30
0.0
 10
3.8681866416
 20
25.8293323429
 30
0.0
 10
3.8158931258
 20
25.7728006891
 30
0.0
 10
3.7484167963
 20
25.7008648123
 30
0.0
 10
3.6765247478
 20
25.6248490061
 30
0.0
 10
3.6020479045
 20
25.5464495777
 30
0.0
 10
3.5517164665
 20
25.4935744417
 30
0.0
 10
3.5263735329
 20
25.4669505024
 30
0.0
 11
3.9794085759
 21
25.9644849607
 31
0.0
 11
3.9758057559
 21
25.9560064813
 31
0.0
 11
3.9659739383
 21
25.9418277798
 31
0.0
 11
3.9506088783
 21
25.9225743959
 31
0.0
 11
3.9305296122
 21
25.8989971352
 31
0.0
 11
3.9065456255
 21
25.8718415584
 31
0.0
 11
3.8793815159
 21
25.8417757209
 31
0.0
 11
3.8178585664
 21
25.775072838
 31
0.0
 11
3.7496592726
 21
25.7022863762
 31
0.0
 11
3.6772579893
 21
25.6256801954
 31
0.0
 11
3.6023889761
 21
25.5468350329
 31
0.0
 11
3.5263735329
 21
25.4669505024
 31
0.0
  0
SPLINE
  5
676
100
AcDbEntity
  8
0
100
AcDbSpline
 62
7
  6
CONTINUOUS
 70
0
 71
3
 72
18
 73
14
 74
12
 42
0.0000001
 43
0.0000001
 44
0.0000000001
 12
0.4646710749
 22
-0.4881587386
 32
0.0
 13
0.0
 23
-0.673957092
 33
0.0
 40
0.0
 40
0.0
 40
0.0
 40
0.0
 40
0.1641064696
 40
0.3259015364
 40
0.4827187367
 40
0.631047858
 40
0.7658671698
 40
0.8259880963
 40
0.879662272
 40
0.9254265467
 40
0.9616701868
 40
0.9868410964
 40
1.0
 40
1.0
 40
1.0
 40
1.0
 10
-4.379711887
 20
-21.445765127
 30
0.0
 10
-4.3542933771
 20
-21.4724684627
 30
0.0
 10
-4.303814132
 20
-21.5254988663
 30
0.0
 10
-4.2291254435
 20
-21.6041222842
 30
0.0
 10
-4.1570472867
 20
-21.6803379761
 30
0.0
 10
-4.0894330001
 20
-21.7524289102
 30
0.0
 10
-4.0370678355
 20
-21.8090509313
 30
0.0
 10
-3.9996168535
 20
-21.8504717305
 30
0.0
 10
-3.9758326147
 20
-21.8773276769
 30
0.0
 10
-3.9561172063
 20
-21.9004729352
 30
0.0
 10
-3.940758938
 20
-21.9192888593
 30
0.0
 10
-3.9315046073
 20
-21.932766654
 30
0.0
 10
-3.926669177
 20
-21.9405990776
 30
0.0
 10
-3.926669177
 20
-21.9435552564
 30
0.0
 11
-4.379711887
 21
-21.445765127
 31
0.0
 11
-4.303469836
 21
-21.5258879621
 31
0.0
 11
-4.2283850464
 21
-21.6049615706
 31
0.0
 11
-4.1557919677
 21
-21.6817744072
 31
0.0
 11
-4.0874448013
 21
-21.7547275329
 31
0.0
 11
-4.0258507643
 21
-21.8215269044
 31
0.0
 11
-3.998695808
 21
-21.851600009
 31
0.0
 11
-3.9747623701
 21
-21.8787248211
 31
0.0
 11
-3.9547851388
 21
-21.9022239827
 31
0.0
 11
-3.9395829096
 21
-21.9213434456
 31
0.0
 11
-3.9299799639
 21
-21.9353278857
 31
0.0
 11
-3.926669177
 21
-21.9435552564
 31
0.0
  0
SPLINE
  5
677
100
AcDbEntity
  8
0
100
AcDbSpline
 62
7
  6
CONTINUOUS
 70
0
 71
3
 72
18
 73
14
 74
12
 42
0.0000001
 43
0.0000001
 44
0.0000000001
 12
0.0392554892
 22
0.6725682188
 32
0.0
 13
0.4645026771
 23
0.4879818289
 33
0.0
 40
0.0
 40
0.0
 40
0.0
 40
0.0
 40
0.0136738202
 40
0.0392842007
 40
0.0758471061
 40
0.1218143585
 40
0.175591793
 40
0.2357355402
 40
0.3704268326
 40
0.5184790161
 40
0.6749344368
 40
0.8363217555
 40
1.0
 40
1.0
 40
1.0
 40
1.0
 10
-4.83274693
 20
-21.9432995854
 30
0.0
 10
-4.8325680058
 20
-21.9402340597
 30
0.0
 10
-4.8276538307
 20
-21.9323169716
 30
0.0
 10
-4.8181195813
 20
-21.9186009996
 30
0.0
 10
-4.8026387679
 20
-21.8996677213
 30
0.0
 10
-4.7828069932
 20
-21.8764315857
 30
0.0
 10
-4.7589753024
 20
-21.8495434806
 30
0.0
 10
-4.721525025
 20
-21.8081469992
 30
0.0
 10
-4.6692315508
 20
-21.7516153909
 30
0.0
 10
-4.601755277
 20
-21.6796795706
 30
0.0
 10
-4.5298632667
 20
-21.6036638054
 30
0.0
 10
-4.4553863837
 20
-21.525264334
 30
0.0
 10
-4.4050548812
 20
-21.4723891301
 30
0.0
 10
-4.379711887
 20
-21.445765127
 30
0.0
 11
-4.83274693
 21
-21.9432995854
 31
0.0
 11
-4.8291441035
 21
-21.9348210953
 31
0.0
 11
-4.8193122541
 21
-21.9206423536
 31
0.0
 11
-4.8039471679
 21
-21.9013889423
 31
0.0
 11
-4.7838679208
 21
-21.8778117079
 31
0.0
 11
-4.759883973
 21
-21.8506561763
 31
0.0
 11
-4.7327198987
 21
-21.820590377
 31
0.0
 11
-4.6711969858
 21
-21.7538875331
 31
0.0
 11
-4.6029977471
 21
-21.6811011285
 31
0.0
 11
-4.5305965363
 21
-21.604495024
 31
0.0
 11
-4.455727512
 21
-21.525649849
 31
0.0
 11
-4.379711887
 21
-21.445765127
 31
0.0
  0
SPLINE
  5
678
100
AcDbEntity
  8
0
100
AcDbSpline
 62
7
  6
CONTINUOUS
 70
0
 71
3
 72
18
 73
14
 74
12
 42
0.0000001
 43
0.0000001
 44
0.0000000001
 12
0.4645026771
 22
-0.4879818288
 32
0.0
 13
0.0392554892
 23
-0.6725682188
 33
0.0
 40
0.0
 40
0.0
 40
0.0
 40
0.0
 40
0.1636782756
 40
0.3250655602
 40
0.4815209525
 40
0.6295731481
 40
0.764264436
 40
0.8244081756
 40
0.878185601
 40
0.9241528523
 40
0.9607157693
 40
0.9863261679
 40
1.0
 40
1.0
 40
1.0
 40
1.0
 10
3.5263735329
 20
-21.445765127
 30
0.0
 10
3.551716532
 20
-21.4723891351
 30
0.0
 10
3.6020480339
 20
-21.5252643386
 30
0.0
 10
3.676524912
 20
-21.6036638049
 30
0.0
 10
3.7484169145
 20
-21.6796795619
 30
0.0
 10
3.8158931854
 20
-21.7516153785
 30
0.0
 10
3.8681866595
 20
-21.8081469869
 30
0.0
 10
3.9056369339
 20
-21.8495434646
 30
0.0
 10
3.9294686223
 20
-21.8764315665
 30
0.0
 10
3.9493003977
 20
-21.899667702
 30
0.0
 10
3.964781216
 20
-21.9186009847
 30
0.0
 10
3.9743154713
 20
-21.9323169635
 30
0.0
 10
3.9792296516
 20
-21.9402340571
 30
0.0
 10
3.9794085759
 20
-21.9432995854
 30
0.0
 11
3.5263735329
 21
-21.445765127
 31
0.0
 11
3.6023891724
 21
-21.5256498642
 31
0.0
 11
3.6772581808
 21
-21.6044950226
 31
0.0
 11
3.7496593784
 21
-21.6811011131
 31
0.0
 11
3.8178586229
 21
-21.7538875235
 31
0.0
 11
3.8793815337
 21
-21.8205903652
 31
0.0
 11
3.9065456048
 21
-21.8506561605
 31
0.0
 11
3.9305295488
 21
-21.8778116873
 31
0.0
 11
3.950608796
 21
-21.9013889207
 31
0.0
 11
3.9659738879
 21
-21.9206423374
 31
0.0
 11
3.9758057455
 21
-21.9348210883
 31
0.0
 11
3.9794085759
 21
-21.9432995854
 31
0.0
  0
SPLINE
  5
679
100
AcDbEntity
  8
0
100
AcDbSpline
 62
7
  6
CONTINUOUS
 70
0
 71
3
 72
11
 73
7
 74
5
 42
0.0000001
 43
0.0000001
 44
0.0000000001
 12
0.0
 22
0.0650116577
 32
0.0
 13
0.0421191248
 23
0.0495226712
 33
0.0
 40
0.0
 40
0.0
 40
0.0
 40
0.0
 40
0.112791836
 40
0.3212660392
 40
0.6204059374
 40
1.0
 40
1.0
 40
1.0
 40
1.0
 10
3.073330823
 20
-21.9435552564
 30
0.0
 10
3.073330823
 20
-21.941110995
 30
0.0
 10
3.0769202109
 20
-21.9346631609
 30
0.0
 10
3.0842101874
 20
-21.9236861949
 30
0.0
 10
3.0962061129
 20
-21.9084769464
 30
0.0
 10
3.1055916414
 20
-21.8972045009
 30
0.0
 10
3.1109210313
 20
-21.8909383303
 30
0.0
 11
3.073330823
 21
-21.9435552564
 31
0.0
 11
3.0758740634
 21
-21.9366776367
 31
0.0
 11
3.0832964367
 21
-21.9253374843
 31
0.0
 11
3.0951587701
 21
-21.9099266621
 31
0.0
 11
3.1109210313
 21
-21.8909383303
 31
0.0
  0
SPLINE
  5
67A
100
AcDbEntity
  8
0
100
AcDbSpline
 62
7
  6
CONTINUOUS
 70
0
 71
3
 72
10
 73
6
 74
4
 42
0.0000001
 43
0.0000001
 44
0.0000000001
 12
0.3945247475
 22
0.4638728708
 32
0.0
 13
0.4198552068
 23
0.4410775691
 33
0.0
 40
0.0
 40
0.0
 40
0.0
 40
0.0
 40
0.1970536341
 40
0.4446913356
 40
1.0
 40
1.0
 40
1.0
 40
1.0
 10
3.1109210313
 20
-21.8909383303
 30
0.0
 10
3.1368352097
 20
-21.860469052
 30
0.0
 10
3.1976279464
 20
-21.7937049757
 30
0.0
 10
3.3361680205
 20
-21.6453661673
 30
0.0
 10
3.4486571215
 20
-21.527409859
 30
0.0
 10
3.5263735329
 20
-21.445765127
 30
0.0
 11
3.1109210313
 21
-21.8909383303
 31
0.0
 11
3.1908727143
 21
-21.8014563631
 31
0.0
 11
3.2936620501
 21
-21.6911152676
 31
0.0
 11
3.5263735329
 21
-21.445765127
 31
0.0
  0
LINE
  5
67B
100
AcDbEntity
  8
RACCORDO
100
AcDbLine
 62
7
  6
CONTINUOUS
 10
-11.1628927484
 20
-11.3772102799
 11
-11.1629841382
 21
-11.3771331813
  0
LINE
  5
67C
100
AcDbEntity
  8
RACCORDO
100
AcDbLine
 62
7
  6
CONTINUOUS
 10
10.3095543943
 20
-8.8016043447
 11
10.3096457842
 21
-8.8016814433
  0
LINE
  5
67D
100
AcDbEntity
  8
RACCORDO
100
AcDbLine
 62
7
  6
CONTINUOUS
 10
10.3095543943
 20
4.6983956553
 11
10.3096457842
 21
4.6983185567
  0
SPLINE
  5
67E
100
AcDbEntity
  8
RACCORDO
100
AcDbSpline
 62
253
  6
CONTINUOUS
 70
0
 71
3
 72
21
 73
17
 74
15
 42
0.0000001
 43
0.0000001
 44
0.0000000001
 12
-0.4243796043
 22
0.0111871517
 32
0.0
 13
-0.0407724234
 23
-0.4225645636
 33
0.0
 40
0.0
 40
0.0
 40
0.0
 40
0.0
 40
0.1673682674
 40
0.3421735161
 40
0.5137318491
 40
0.5949929352
 40
0.6715638688
 40
0.7422731973
 40
0.8060417465
 40
0.8619006379
 40
0.9090090962
 40
0.9466742188
 40
0.9743812552
 40
0.991879434
 40
0.996930182
 40
1.0
 40
1.0
 40
1.0
 40
1.0
 10
9.9261452064
 20
19.7870819932
 30
0.0
 10
9.9024693133
 20
19.7877061179
 30
0.0
 10
9.85405338
 20
19.7885438379
 30
0.0
 10
9.7813537275
 20
19.7887244528
 30
0.0
 10
9.7208426627
 20
19.7879989246
 30
0.0
 10
9.6742442009
 20
19.7868664929
 30
0.0
 10
9.6419210468
 20
19.7857892103
 30
0.0
 10
9.6120832996
 20
19.7844871546
 30
0.0
 10
9.5851908798
 20
19.782982216
 30
0.0
 10
9.5616528706
 20
19.7813010977
 30
0.0
 10
9.541840248
 20
19.7794761144
 30
0.0
 10
9.5260205031
 20
19.7775480865
 30
0.0
 10
9.5144924845
 20
19.7755757345
 30
0.0
 10
9.507530062
 20
19.7737530744
 30
0.0
 10
9.5043107632
 20
19.7721447434
 30
0.0
 10
9.5034996599
 20
19.7711604952
 30
0.0
 10
9.5034579386
 20
19.7707280965
 30
0.0
 11
9.9261452064
 21
19.7870819932
 31
0.0
 11
9.8551042392
 21
19.788353987
 31
0.0
 11
9.7808949314
 21
19.7885448962
 31
0.0
 11
9.7080693659
 21
19.7876430048
 31
0.0
 11
9.6735822135
 21
19.7867969928
 31
0.0
 11
9.6410941753
 21
19.7857036292
 31
0.0
 11
9.6111053618
 21
19.7843797434
 31
0.0
 11
9.5840773873
 21
19.7828457157
 31
0.0
 11
9.5604262782
 21
19.7811251609
 31
0.0
 11
9.540516082
 21
19.7792445628
 31
0.0
 11
9.5246532694
 21
19.7772328757
 31
0.0
 11
9.5130820172
 21
19.7751210417
 31
0.0
 11
9.5059804633
 21
19.7729416379
 31
0.0
 11
9.5041428191
 21
19.7718368448
 31
0.0
 11
9.5034579386
 21
19.7707280965
 31
0.0
  0
SPLINE
  5
67F
100
AcDbEntity
  8
RACCORDO
100
AcDbSpline
 62
253
  6
CONTINUOUS
 70
0
 71
3
 72
20
 73
16
 74
14
 42
0.0000001
 43
0.0000001
 44
0.0000000001
 12
-0.1839878406
 22
-0.3529881224
 32
0.0
 13
-0.3623615897
 23
0.1647610949
 33
0.0
 40
0.0
 40
0.0
 40
0.0
 40
0.0
 40
0.1733547353
 40
0.3501641201
 40
0.5207707956
 40
0.6758702581
 40
0.807045604
 40
0.8614076173
 40
0.9073035047
 40
0.9441782058
 40
0.9591157323
 40
0.9716903948
 40
0.9819181188
 40
0.9898779826
 40
1.0
 40
1.0
 40
1.0
 40
1.0
 10
9.4636538777
 20
20.5380303555
 30
0.0
 10
9.4530221566
 20
20.517632968
 30
0.0
 10
9.4310410629
 20
20.4766938656
 30
0.0
 10
9.3970489435
 20
20.4165280813
 30
0.0
 10
9.3629886235
 20
20.3591991301
 30
0.0
 10
9.3307403324
 20
20.3078592063
 30
0.0
 10
9.3055250797
 20
20.2703319268
 30
0.0
 10
9.2874461416
 20
20.2455047418
 30
0.0
 10
9.276249466
 20
20.2311564451
 30
0.0
 10
9.267807988
 20
20.2213076172
 30
0.0
 10
9.2618453137
 20
20.2151774582
 30
0.0
 10
9.2581731376
 20
20.2117860486
 30
0.0
 10
9.2549224298
 20
20.209249585
 30
0.0
 10
9.2518071385
 20
20.207330833
 30
0.0
 10
9.2491305049
 20
20.2065606828
 30
0.0
 10
9.2479078948
 20
20.2071165877
 30
0.0
 11
9.4636538777
 21
20.5380303555
 31
0.0
 11
9.4310434528
 21
20.4772163572
 31
0.0
 11
9.3964184946
 21
20.4159417856
 31
0.0
 11
9.3616869844
 21
20.3575831423
 31
0.0
 11
9.3287625885
 21
20.3053559081
 31
0.0
 11
9.2994594304
 21
20.2621377827
 31
0.0
 11
9.286680703
 21
20.2446744954
 31
0.0
 11
9.2753921101
 21
20.2303100808
 31
0.0
 11
9.2657497004
 21
20.2192430932
 31
0.0
 11
9.2615884167
 21
20.2149958474
 31
0.0
 11
9.2578867354
 21
20.2116265232
 31
0.0
 11
9.254657637
 21
20.2091470027
 31
0.0
 11
9.2519119696
 21
20.2075656273
 31
0.0
 11
9.2479078948
 21
20.2071165877
 31
0.0
  0
SPLINE
  5
680
100
AcDbEntity
  8
RACCORDO
100
AcDbSpline
 62
253
  6
CONTINUOUS
 70
0
 71
3
 72
11
 73
7
 74
5
 42
0.0000001
 43
0.0000001
 44
0.0000000001
 12
0.0000080157
 22
-0.4291848367
 32
0.0
 13
-0.3251765326
 23
-0.2801068488
 33
0.0
 40
0.0
 40
0.0
 40
0.0
 40
0.0
 40
0.2518387076
 40
0.5005355719
 40
0.7486031474
 40
1.0
 40
1.0
 40
1.0
 40
1.0
 10
9.5034866495
 20
12.2504298614
 30
0.0
 10
9.5034873224
 20
12.2144014098
 30
0.0
 10
9.4957243611
 20
12.1425556212
 30
0.0
 10
9.4615706446
 20
12.0402251394
 30
0.0
 10
9.4066044112
 20
11.9474708608
 30
0.0
 10
9.3573982219
 20
11.8947411081
 30
0.0
 10
9.3301487697
 20
11.871268448
 30
0.0
 11
9.5034866495
 21
12.2504298614
 31
0.0
 11
9.4918599023
 21
12.1429716712
 31
0.0
 11
9.4580750454
 21
12.0417226999
 31
0.0
 11
9.4037627365
 21
11.9501510803
 31
0.0
 11
9.3301487697
 21
11.871268448
 31
0.0
  0
SPLINE
  5
681
100
AcDbEntity
  8
RACCORDO
100
AcDbSpline
 62
253
  6
CONTINUOUS
 70
0
 71
3
 72
24
 73
20
 74
18
 42
0.0000001
 43
0.0000001
 44
0.0000000001
 12
0.0001416357
 22
-0.3077122817
 32
0.0
 13
-0.2995722554
 23
-0.070308834
 33
0.0
 40
0.0
 40
0.0
 40
0.0
 40
0.0
 40
0.1928585915
 40
0.3790708749
 40
0.551318186
 40
0.6300597183
 40
0.7028285585
 40
0.7689083225
 40
0.8276492039
 40
0.8784746059
 40
0.9208874405
 40
0.9388076616
 40
0.9544770619
 40
0.9678603969
 40
0.9789273094
 40
0.9876571361
 40
0.9940419009
 40
0.9981012166
 40
1.0
 40
1.0
 40
1.0
 40
1.0
 10
9.0111821044
 20
20.5784307
 30
0.0
 10
9.0111912096
 20
20.5586490476
 30
0.0
 10
9.0111156326
 20
20.5197673428
 30
0.0
 10
9.0107262031
 20
20.463219334
 30
0.0
 10
9.0101720863
 20
20.4183783797
 30
0.0
 10
9.0095888752
 20
20.3851753599
 30
0.0
 10
9.0091091146
 20
20.3628620563
 30
0.0
 10
9.0085791168
 20
20.3426020078
 30
0.0
 10
9.0080049184
 20
20.3245948423
 30
0.0
 10
9.0073927685
 20
20.3090181959
 30
0.0
 10
9.0068317043
 20
20.2976298201
 30
0.0
 10
9.0063549367
 20
20.2898490586
 30
0.0
 10
9.0060122097
 20
20.2850422247
 30
0.0
 10
9.0056663634
 20
20.2809441527
 30
0.0
 10
9.0053165801
 20
20.2775511886
 30
0.0
 10
9.0049724612
 20
20.2749068808
 30
0.0
 10
9.0046221411
 20
20.2729244303
 30
0.0
 10
9.0043122956
 20
20.271784504
 30
0.0
 10
9.0040125762
 20
20.2711209527
 30
0.0
 10
9.0038229686
 20
20.2710764523
 30
0.0
 11
9.0111821044
 21
20.5784307
 31
0.0
 11
9.011064562
 21
20.5190858529
 31
0.0
 11
9.0106620658
 21
20.4617874539
 31
0.0
 11
9.0099904561
 21
20.4087890904
 31
0.0
 11
9.0095616037
 21
20.3845631468
 31
0.0
 11
9.0090761579
 21
20.3621765413
 31
0.0
 11
9.0085389057
 21
20.3418500831
 31
0.0
 11
9.0079551462
 21
20.3237842195
 31
0.0
 11
9.0073306361
 21
20.3081570912
 31
0.0
 11
9.0066715372
 21
20.2951227932
 31
0.0
 11
9.0063310348
 21
20.2896190434
 31
0.0
 11
9.0059843397
 21
20.2848098565
 31
0.0
 11
9.005632318
 21
20.2807067123
 31
0.0
 11
9.0052758472
 21
20.2773199957
 31
0.0
 11
9.0049157872
 21
20.2746579605
 31
0.0
 11
9.0045529849
 21
20.2727270784
 31
0.0
 11
9.0041883611
 21
20.2715323802
 31
0.0
 11
9.0038229686
 21
20.2710764523
 31
0.0
  0
SPLINE
  5
682
100
AcDbEntity
  8
RACCORDO
100
AcDbSpline
 62
253
  6
CONTINUOUS
 70
0
 71
3
 72
15
 73
11
 74
9
 42
0.0000001
 43
0.0000001
 44
0.0000000001
 12
0.2231528227
 22
-0.2687952698
 32
0.0
 13
0.2231498024
 23
0.2687977771
 33
0.0
 40
0.0
 40
0.0
 40
0.0
 40
0.0
 40
0.1250030475
 40
0.2500039381
 40
0.3750025444
 40
0.4999999835
 40
0.6249974215
 40
0.7499960264
 40
0.8749969247
 40
1.0
 40
1.0
 40
1.0
 40
1.0
 10
4.9200331123
 20
5.5663021054
 30
0.0
 10
4.9293313732
 20
5.5551020294
 30
0.0
 10
4.9504385287
 20
5.5346564148
 30
0.0
 10
4.9879386504
 20
5.5116312396
 30
0.0
 10
5.0295747596
 20
5.4973195655
 30
0.0
 10
5.0733308156
 20
5.4924685554
 30
0.0
 10
5.1170868651
 20
5.4973195728
 30
0.0
 10
5.158722991
 20
5.5116312372
 30
0.0
 10
5.1962230559
 20
5.5346564529
 30
0.0
 10
5.2173303968
 20
5.5551019214
 30
0.0
 10
5.226628534
 20
5.5663021043
 30
0.0
 11
4.9200331123
 21
5.5663021054
 31
0.0
 11
4.951412015
 21
5.5359301004
 31
0.0
 11
4.9886283204
 21
5.5130833276
 31
0.0
 11
5.0299282814
 21
5.4988962935
 31
0.0
 11
5.0733308147
 21
5.4940855549
 31
0.0
 11
5.1167333471
 21
5.4988962979
 31
0.0
 11
5.1580333073
 21
5.5130833329
 31
0.0
 11
5.1952496232
 21
5.5359300936
 31
0.0
 11
5.226628534
 21
5.5663021043
 31
0.0
  0
SPLINE
  5
683
100
AcDbEntity
  8
RACCORDO
100
AcDbSpline
 62
253
  6
CONTINUOUS
 70
0
 71
3
 72
15
 73
11
 74
9
 42
0.0000001
 43
0.0000001
 44
0.0000000001
 12
0.223152816
 22
-0.2687952681
 32
0.0
 13
0.2231497958
 23
0.2687977754
 33
0.0
 40
0.0
 40
0.0
 40
0.0
 40
0.0
 40
0.1250030466
 40
0.2500039374
 40
0.375002544
 40
0.4999999834
 40
0.6249974218
 40
0.7499960271
 40
0.8749969256
 40
1.0
 40
1.0
 40
1.0
 40
1.0
 10
-0.5799668799
 20
5.5663020847
 30
0.0
 10
-0.5706686193
 20
5.5551020089
 30
0.0
 10
-0.5495614714
 20
5.5346563872
 30
0.0
 10
-0.5120613479
 20
5.5116312146
 30
0.0
 10
-0.4704252401
 20
5.4973195398
 30
0.0
 10
-0.4266691844
 20
5.49246853
 30
0.0
 10
-0.3829131353
 20
5.4973195472
 30
0.0
 10
-0.3412770109
 20
5.5116312125
 30
0.0
 10
-0.3037769442
 20
5.5346564258
 30
0.0
 10
-0.2826696108
 20
5.5551019011
 30
0.0
 10
-0.2733714739
 20
5.5663020838
 30
0.0
 11
-0.5799668799
 21
5.5663020847
 31
0.0
 11
-0.548587983
 21
5.5359300751
 31
0.0
 11
-0.5113716785
 21
5.5130833021
 31
0.0
 11
-0.4700717181
 21
5.498896268
 31
0.0
 11
-0.4266691854
 21
5.4940855294
 31
0.0
 11
-0.3832666535
 21
5.4988962725
 31
0.0
 11
-0.341966694
 21
5.5130833076
 31
0.0
 11
-0.304750379
 21
5.5359300687
 31
0.0
 11
-0.2733714739
 21
5.5663020838
 31
0.0
  0
SPLINE
  5
684
100
AcDbEntity
  8
RACCORDO
100
AcDbSpline
 62
253
  6
CONTINUOUS
 70
0
 71
3
 72
15
 73
11
 74
9
 42
0.0000001
 43
0.0000001
 44
0.0000000001
 12
0.223152816
 22
-0.2687952681
 32
0.0
 13
0.2231497958
 23
0.2687977754
 33
0.0
 40
0.0
 40
0.0
 40
0.0
 40
0.0
 40
0.1250030466
 40
0.2500039374
 40
0.375002544
 40
0.4999999834
 40
0.6249974218
 40
0.7499960271
 40
0.8749969256
 40
1.0
 40
1.0
 40
1.0
 40
1.0
 10
-6.0799668799
 20
5.5663020847
 30
0.0
 10
-6.0706686193
 20
5.5551020089
 30
0.0
 10
-6.0495614714
 20
5.5346563872
 30
0.0
 10
-6.0120613479
 20
5.5116312146
 30
0.0
 10
-5.9704252401
 20
5.4973195398
 30
0.0
 10
-5.9266691844
 20
5.49246853
 30
0.0
 10
-5.8829131353
 20
5.4973195472
 30
0.0
 10
-5.8412770109
 20
5.5116312125
 30
0.0
 10
-5.8037769442
 20
5.5346564258
 30
0.0
 10
-5.7826696108
 20
5.5551019011
 30
0.0
 10
-5.7733714739
 20
5.5663020838
 30
0.0
 11
-6.0799668799
 21
5.5663020847
 31
0.0
 11
-6.048587983
 21
5.5359300751
 31
0.0
 11
-6.0113716785
 21
5.5130833021
 31
0.0
 11
-5.9700717181
 21
5.498896268
 31
0.0
 11
-5.9266691854
 21
5.4940855294
 31
0.0
 11
-5.8832666535
 21
5.4988962725
 31
0.0
 11
-5.841966694
 21
5.5130833076
 31
0.0
 11
-5.804750379
 21
5.5359300687
 31
0.0
 11
-5.7733714739
 21
5.5663020838
 31
0.0
  0
SPLINE
  5
685
100
AcDbEntity
  8
RACCORDO
100
AcDbSpline
 62
253
  6
CONTINUOUS
 70
0
 71
3
 72
15
 73
11
 74
9
 42
0.0000001
 43
0.0000001
 44
0.0000000001
 12
-0.2231528227
 22
0.2687952698
 32
0.0
 13
-0.2231498024
 23
-0.2687977771
 33
0.0
 40
0.0
 40
0.0
 40
0.0
 40
0.0
 40
0.1250030475
 40
0.2500039381
 40
0.3750025444
 40
0.4999999835
 40
0.6249974215
 40
0.7499960264
 40
0.8749969247
 40
1.0
 40
1.0
 40
1.0
 40
1.0
 10
-5.7733714663
 20
1.25488327
 30
0.0
 10
-5.7826697273
 20
1.2660833459
 30
0.0
 10
-5.8037768827
 20
1.2865289606
 30
0.0
 10
-5.8412770045
 20
1.3095541358
 30
0.0
 10
-5.8829131136
 20
1.3238658099
 30
0.0
 10
-5.9266691697
 20
1.32871682
 30
0.0
 10
-5.9704252192
 20
1.3238658026
 30
0.0
 10
-6.012061345
 20
1.3095541382
 30
0.0
 10
-6.04956141
 20
1.2865289224
 30
0.0
 10
-6.0706687509
 20
1.266083454
 30
0.0
 10
-6.079966888
 20
1.2548832711
 30
0.0
 11
-5.7733714663
 21
1.25488327
 31
0.0
 11
-5.8047503691
 21
1.2852552749
 31
0.0
 11
-5.8419666745
 21
1.3081020478
 31
0.0
 11
-5.8832666355
 21
1.3222890819
 31
0.0
 11
-5.9266691687
 21
1.3270998204
 31
0.0
 11
-5.9700717012
 21
1.3222890775
 31
0.0
 11
-6.0113716614
 21
1.3081020425
 31
0.0
 11
-6.0485879773
 21
1.2852552817
 31
0.0
 11
-6.079966888
 21
1.2548832711
 31
0.0
  0
SPLINE
  5
686
100
AcDbEntity
  8
RACCORDO
100
AcDbSpline
 62
253
  6
CONTINUOUS
 70
0
 71
3
 72
15
 73
11
 74
9
 42
0.0000001
 43
0.0000001
 44
0.0000000001
 12
-0.223152816
 22
0.2687952681
 32
0.0
 13
-0.2231497958
 23
-0.2687977754
 33
0.0
 40
0.0
 40
0.0
 40
0.0
 40
0.0
 40
0.1250030466
 40
0.2500039374
 40
0.375002544
 40
0.4999999834
 40
0.6249974218
 40
0.7499960271
 40
0.8749969256
 40
1.0
 40
1.0
 40
1.0
 40
1.0
 10
-0.2733714742
 20
1.2548832907
 30
0.0
 10
-0.2826697348
 20
1.2660833665
 30
0.0
 10
-0.3037768826
 20
1.2865289882
 30
0.0
 10
-0.3412770062
 20
1.3095541608
 30
0.0
 10
-0.382913114
 20
1.3238658356
 30
0.0
 10
-0.4266691696
 20
1.3287168454
 30
0.0
 10
-0.4704252187
 20
1.3238658282
 30
0.0
 10
-0.5120613432
 20
1.3095541628
 30
0.0
 10
-0.5495614098
 20
1.2865289496
 30
0.0
 10
-0.5706687433
 20
1.2660834743
 30
0.0
 10
-0.5799668801
 20
1.2548832915
 30
0.0
 11
-0.2733714742
 21
1.2548832907
 31
0.0
 11
-0.3047503711
 21
1.2852553003
 31
0.0
 11
-0.3419666756
 21
1.3081020733
 31
0.0
 11
-0.383266636
 21
1.3222891074
 31
0.0
 11
-0.4266691687
 21
1.3270998459
 31
0.0
 11
-0.4700717005
 21
1.3222891028
 31
0.0
 11
-0.5113716601
 21
1.3081020677
 31
0.0
 11
-0.5485879751
 21
1.2852553067
 31
0.0
 11
-0.5799668801
 21
1.2548832915
 31
0.0
  0
SPLINE
  5
687
100
AcDbEntity
  8
RACCORDO
100
AcDbSpline
 62
253
  6
CONTINUOUS
 70
0
 71
3
 72
15
 73
11
 74
9
 42
0.0000001
 43
0.0000001
 44
0.0000000001
 12
-0.223152816
 22
0.2687952681
 32
0.0
 13
-0.2231497958
 23
-0.2687977754
 33
0.0
 40
0.0
 40
0.0
 40
0.0
 40
0.0
 40
0.1250030466
 40
0.2500039374
 40
0.375002544
 40
0.4999999834
 40
0.6249974218
 40
0.7499960271
 40
0.8749969256
 40
1.0
 40
1.0
 40
1.0
 40
1.0
 10
5.2266285258
 20
1.2548832907
 30
0.0
 10
5.2173302652
 20
1.2660833665
 30
0.0
 10
5.1962231174
 20
1.2865289882
 30
0.0
 10
5.1587229938
 20
1.3095541608
 30
0.0
 10
5.117086886
 20
1.3238658356
 30
0.0
 10
5.0733308304
 20
1.3287168454
 30
0.0
 10
5.0295747813
 20
1.3238658282
 30
0.0
 10
4.9879386568
 20
1.3095541628
 30
0.0
 10
4.9504385902
 20
1.2865289496
 30
0.0
 10
4.9293312567
 20
1.2660834743
 30
0.0
 10
4.9200331199
 20
1.2548832915
 30
0.0
 11
5.2266285258
 21
1.2548832907
 31
0.0
 11
5.1952496289
 21
1.2852553003
 31
0.0
 11
5.1580333244
 21
1.3081020733
 31
0.0
 11
5.116733364
 21
1.3222891074
 31
0.0
 11
5.0733308313
 21
1.3270998459
 31
0.0
 11
5.0299282995
 21
1.3222891028
 31
0.0
 11
4.9886283399
 21
1.3081020677
 31
0.0
 11
4.9514120249
 21
1.2852553067
 31
0.0
 11
4.9200331199
 21
1.2548832915
 31
0.0
  0
SPLINE
  5
688
100
AcDbEntity
  8
RACCORDO
100
AcDbSpline
 62
253
  6
CONTINUOUS
 70
0
 71
3
 72
15
 73
11
 74
9
 42
0.0000001
 43
0.0000001
 44
0.0000000001
 12
0.2231528227
 22
-0.2687952698
 32
0.0
 13
0.2231498024
 23
0.2687977771
 33
0.0
 40
0.0
 40
0.0
 40
0.0
 40
0.0
 40
0.1250030475
 40
0.2500039381
 40
0.3750025444
 40
0.4999999835
 40
0.6249974215
 40
0.7499960264
 40
0.8749969247
 40
1.0
 40
1.0
 40
1.0
 40
1.0
 10
4.9200331123
 20
-7.9336978946
 30
0.0
 10
4.9293313732
 20
-7.9448979706
 30
0.0
 10
4.9504385287
 20
-7.9653435852
 30
0.0
 10
4.9879386504
 20
-7.9883687604
 30
0.0
 10
5.0295747596
 20
-8.0026804345
 30
0.0
 10
5.0733308156
 20
-8.0075314446
 30
0.0
 10
5.1170868651
 20
-8.0026804272
 30
0.0
 10
5.158722991
 20
-7.9883687628
 30
0.0
 10
5.1962230559
 20
-7.9653435471
 30
0.0
 10
5.2173303968
 20
-7.9448980786
 30
0.0
 10
5.226628534
 20
-7.9336978957
 30
0.0
 11
4.9200331123
 21
-7.9336978946
 31
0.0
 11
4.951412015
 21
-7.9640698996
 31
0.0
 11
4.9886283204
 21
-7.9869166724
 31
0.0
 11
5.0299282814
 21
-8.0011037065
 31
0.0
 11
5.0733308147
 21
-8.0059144451
 31
0.0
 11
5.1167333471
 21
-8.0011037021
 31
0.0
 11
5.1580333073
 21
-7.9869166671
 31
0.0
 11
5.1952496232
 21
-7.9640699064
 31
0.0
 11
5.226628534
 21
-7.9336978957
 31
0.0
  0
SPLINE
  5
689
100
AcDbEntity
  8
RACCORDO
100
AcDbSpline
 62
253
  6
CONTINUOUS
 70
0
 71
3
 72
15
 73
11
 74
9
 42
0.0000001
 43
0.0000001
 44
0.0000000001
 12
0.223152816
 22
-0.2687952681
 32
0.0
 13
0.2231497958
 23
0.2687977754
 33
0.0
 40
0.0
 40
0.0
 40
0.0
 40
0.0
 40
0.1250030466
 40
0.2500039374
 40
0.375002544
 40
0.4999999834
 40
0.6249974218
 40
0.7499960271
 40
0.8749969256
 40
1.0
 40
1.0
 40
1.0
 40
1.0
 10
-0.5799668799
 20
-7.9336979153
 30
0.0
 10
-0.5706686193
 20
-7.9448979911
 30
0.0
 10
-0.5495614714
 20
-7.9653436128
 30
0.0
 10
-0.5120613479
 20
-7.9883687854
 30
0.0
 10
-0.4704252401
 20
-8.0026804602
 30
0.0
 10
-0.4266691844
 20
-8.00753147
 30
0.0
 10
-0.3829131353
 20
-8.0026804528
 30
0.0
 10
-0.3412770109
 20
-7.9883687875
 30
0.0
 10
-0.3037769442
 20
-7.9653435742
 30
0.0
 10
-0.2826696108
 20
-7.9448980989
 30
0.0
 10
-0.2733714739
 20
-7.9336979162
 30
0.0
 11
-0.5799668799
 21
-7.9336979153
 31
0.0
 11
-0.548587983
 21
-7.9640699249
 31
0.0
 11
-0.5113716785
 21
-7.9869166979
 31
0.0
 11
-0.4700717181
 21
-8.001103732
 31
0.0
 11
-0.4266691854
 21
-8.0059144706
 31
0.0
 11
-0.3832666535
 21
-8.0011037275
 31
0.0
 11
-0.341966694
 21
-7.9869166924
 31
0.0
 11
-0.304750379
 21
-7.9640699313
 31
0.0
 11
-0.2733714739
 21
-7.9336979162
 31
0.0
  0
SPLINE
  5
68A
100
AcDbEntity
  8
RACCORDO
100
AcDbSpline
 62
253
  6
CONTINUOUS
 70
0
 71
3
 72
15
 73
11
 74
9
 42
0.0000001
 43
0.0000001
 44
0.0000000001
 12
0.223152816
 22
-0.2687952681
 32
0.0
 13
0.2231497958
 23
0.2687977754
 33
0.0
 40
0.0
 40
0.0
 40
0.0
 40
0.0
 40
0.1250030466
 40
0.2500039374
 40
0.375002544
 40
0.4999999834
 40
0.6249974218
 40
0.7499960271
 40
0.8749969256
 40
1.0
 40
1.0
 40
1.0
 40
1.0
 10
-6.0799668799
 20
-7.9336979153
 30
0.0
 10
-6.0706686193
 20
-7.9448979911
 30
0.0
 10
-6.0495614714
 20
-7.9653436128
 30
0.0
 10
-6.0120613479
 20
-7.9883687854
 30
0.0
 10
-5.9704252401
 20
-8.0026804602
 30
0.0
 10
-5.9266691844
 20
-8.00753147
 30
0.0
 10
-5.8829131353
 20
-8.0026804528
 30
0.0
 10
-5.8412770109
 20
-7.9883687875
 30
0.0
 10
-5.8037769442
 20
-7.9653435742
 30
0.0
 10
-5.7826696108
 20
-7.9448980989
 30
0.0
 10
-5.7733714739
 20
-7.9336979162
 30
0.0
 11
-6.0799668799
 21
-7.9336979153
 31
0.0
 11
-6.048587983
 21
-7.9640699249
 31
0.0
 11
-6.0113716785
 21
-7.9869166979
 31
0.0
 11
-5.9700717181
 21
-8.001103732
 31
0.0
 11
-5.9266691854
 21
-8.0059144706
 31
0.0
 11
-5.8832666535
 21
-8.0011037275
 31
0.0
 11
-5.841966694
 21
-7.9869166924
 31
0.0
 11
-5.804750379
 21
-7.9640699313
 31
0.0
 11
-5.7733714739
 21
-7.9336979162
 31
0.0
  0
SPLINE
  5
68B
100
AcDbEntity
  8
RACCORDO
100
AcDbSpline
 62
253
  6
CONTINUOUS
 70
0
 71
3
 72
15
 73
11
 74
9
 42
0.0000001
 43
0.0000001
 44
0.0000000001
 12
-0.2231528227
 22
0.2687952698
 32
0.0
 13
-0.2231498024
 23
-0.2687977771
 33
0.0
 40
0.0
 40
0.0
 40
0.0
 40
0.0
 40
0.1250030475
 40
0.2500039381
 40
0.3750025444
 40
0.4999999835
 40
0.6249974215
 40
0.7499960264
 40
0.8749969247
 40
1.0
 40
1.0
 40
1.0
 40
1.0
 10
-5.7733714663
 20
-12.24511673
 30
0.0
 10
-5.7826697273
 20
-12.2339166541
 30
0.0
 10
-5.8037768827
 20
-12.2134710394
 30
0.0
 10
-5.8412770045
 20
-12.1904458642
 30
0.0
 10
-5.8829131136
 20
-12.1761341901
 30
0.0
 10
-5.9266691697
 20
-12.17128318
 30
0.0
 10
-5.9704252192
 20
-12.1761341974
 30
0.0
 10
-6.012061345
 20
-12.1904458618
 30
0.0
 10
-6.04956141
 20
-12.2134710776
 30
0.0
 10
-6.0706687509
 20
-12.233916546
 30
0.0
 10
-6.079966888
 20
-12.2451167289
 30
0.0
 11
-5.7733714663
 21
-12.24511673
 31
0.0
 11
-5.8047503691
 21
-12.2147447251
 31
0.0
 11
-5.8419666745
 21
-12.1918979522
 31
0.0
 11
-5.8832666355
 21
-12.1777109181
 31
0.0
 11
-5.9266691687
 21
-12.1729001796
 31
0.0
 11
-5.9700717012
 21
-12.1777109225
 31
0.0
 11
-6.0113716614
 21
-12.1918979575
 31
0.0
 11
-6.0485879773
 21
-12.2147447183
 31
0.0
 11
-6.079966888
 21
-12.2451167289
 31
0.0
  0
SPLINE
  5
68C
100
AcDbEntity
  8
RACCORDO
100
AcDbSpline
 62
253
  6
CONTINUOUS
 70
0
 71
3
 72
15
 73
11
 74
9
 42
0.0000001
 43
0.0000001
 44
0.0000000001
 12
-0.223152816
 22
0.2687952681
 32
0.0
 13
-0.2231497958
 23
-0.2687977754
 33
0.0
 40
0.0
 40
0.0
 40
0.0
 40
0.0
 40
0.1250030466
 40
0.2500039374
 40
0.375002544
 40
0.4999999834
 40
0.6249974218
 40
0.7499960271
 40
0.8749969256
 40
1.0
 40
1.0
 40
1.0
 40
1.0
 10
-0.2733714742
 20
-12.2451167093
 30
0.0
 10
-0.2826697348
 20
-12.2339166335
 30
0.0
 10
-0.3037768826
 20
-12.2134710118
 30
0.0
 10
-0.3412770062
 20
-12.1904458392
 30
0.0
 10
-0.382913114
 20
-12.1761341644
 30
0.0
 10
-0.4266691696
 20
-12.1712831546
 30
0.0
 10
-0.4704252187
 20
-12.1761341718
 30
0.0
 10
-0.5120613432
 20
-12.1904458372
 30
0.0
 10
-0.5495614098
 20
-12.2134710504
 30
0.0
 10
-0.5706687433
 20
-12.2339165257
 30
0.0
 10
-0.5799668801
 20
-12.2451167085
 30
0.0
 11
-0.2733714742
 21
-12.2451167093
 31
0.0
 11
-0.3047503711
 21
-12.2147446997
 31
0.0
 11
-0.3419666756
 21
-12.1918979267
 31
0.0
 11
-0.383266636
 21
-12.1777108926
 31
0.0
 11
-0.4266691687
 21
-12.1729001541
 31
0.0
 11
-0.4700717005
 21
-12.1777108972
 31
0.0
 11
-0.5113716601
 21
-12.1918979323
 31
0.0
 11
-0.5485879751
 21
-12.2147446933
 31
0.0
 11
-0.5799668801
 21
-12.2451167085
 31
0.0
  0
SPLINE
  5
68D
100
AcDbEntity
  8
RACCORDO
100
AcDbSpline
 62
253
  6
CONTINUOUS
 70
0
 71
3
 72
15
 73
11
 74
9
 42
0.0000001
 43
0.0000001
 44
0.0000000001
 12
-0.223152816
 22
0.2687952681
 32
0.0
 13
-0.2231497958
 23
-0.2687977754
 33
0.0
 40
0.0
 40
0.0
 40
0.0
 40
0.0
 40
0.1250030466
 40
0.2500039374
 40
0.375002544
 40
0.4999999834
 40
0.6249974218
 40
0.7499960271
 40
0.8749969256
 40
1.0
 40
1.0
 40
1.0
 40
1.0
 10
5.2266285258
 20
-12.2451167093
 30
0.0
 10
5.2173302652
 20
-12.2339166335
 30
0.0
 10
5.1962231174
 20
-12.2134710118
 30
0.0
 10
5.1587229938
 20
-12.1904458392
 30
0.0
 10
5.117086886
 20
-12.1761341644
 30
0.0
 10
5.0733308304
 20
-12.1712831546
 30
0.0
 10
5.0295747813
 20
-12.1761341718
 30
0.0
 10
4.9879386568
 20
-12.1904458372
 30
0.0
 10
4.9504385902
 20
-12.2134710504
 30
0.0
 10
4.9293312567
 20
-12.2339165257
 30
0.0
 10
4.9200331199
 20
-12.2451167085
 30
0.0
 11
5.2266285258
 21
-12.2451167093
 31
0.0
 11
5.1952496289
 21
-12.2147446997
 31
0.0
 11
5.1580333244
 21
-12.1918979267
 31
0.0
 11
5.116733364
 21
-12.1777108926
 31
0.0
 11
5.0733308313
 21
-12.1729001541
 31
0.0
 11
5.0299282995
 21
-12.1777108972
 31
0.0
 11
4.9886283399
 21
-12.1918979323
 31
0.0
 11
4.9514120249
 21
-12.2147446933
 31
0.0
 11
4.9200331199
 21
-12.2451167085
 31
0.0
  0
LINE
  5
68E
100
AcDbEntity
  8
RACCORDO
100
AcDbLine
 62
7
  6
CONTINUOUS
 10
-11.1629841382
 20
4.6983185567
 11
-11.1628927484
 21
4.6983956553
  0
SPLINE
  5
68F
100
AcDbEntity
  8
RACCORDO
100
AcDbSpline
 62
253
  6
CONTINUOUS
 70
0
 71
3
 72
11
 73
7
 74
5
 42
0.0000001
 43
0.0000001
 44
0.0000000001
 12
-0.115259124
 22
-0.1620089561
 32
0.0
 13
0.0530601063
 23
-0.1916146984
 33
0.0
 40
0.0
 40
0.0
 40
0.0
 40
0.0
 40
0.2315642374
 40
0.4734478533
 40
0.729250277
 40
1.0
 40
1.0
 40
1.0
 40
1.0
 10
10.2287308331
 20
-12.0912302508
 30
0.0
 10
10.2198342027
 20
-12.103735411
 30
0.0
 10
10.2050358412
 20
-12.1318703947
 30
0.0
 10
10.1936569942
 20
-12.1792816713
 30
0.0
 10
10.192961095
 20
-12.2305709083
 30
0.0
 10
10.1993906256
 20
-12.2651109364
 30
0.0
 10
10.2041792952
 20
-12.2824041452
 30
0.0
 11
10.2287308331
 21
-12.0912302508
 31
0.0
 11
10.2071312358
 21
-12.1318900462
 31
0.0
 11
10.1956020507
 21
-12.1785802843
 31
0.0
 11
10.1946045913
 21
-12.2294305394
 31
0.0
 11
10.2041792952
 21
-12.2824041452
 31
0.0
  0
SPLINE
  5
690
100
AcDbEntity
  8
RACCORDO
100
AcDbSpline
 62
253
  6
CONTINUOUS
 70
0
 71
3
 72
11
 73
7
 74
5
 42
0.0000001
 43
0.0000001
 44
0.0000000001
 12
0.1152596969
 22
-0.1620081968
 32
0.0
 13
-0.0530596819
 23
-0.1916145186
 33
0.0
 40
0.0
 40
0.0
 40
0.0
 40
0.0
 40
0.2315642597
 40
0.4734478452
 40
0.729250246
 40
1.0
 40
1.0
 40
1.0
 40
1.0
 10
-11.0820696112
 20
-12.0912308211
 30
0.0
 10
-11.0731729357
 20
-12.1037359239
 30
0.0
 10
-11.0583744703
 20
-12.1318708024
 30
0.0
 10
-11.0469954624
 20
-12.179281969
 30
0.0
 10
-11.0462994152
 20
-12.2305711314
 30
0.0
 10
-11.0527288636
 20
-12.2651111257
 30
0.0
 10
-11.0575174956
 20
-12.2824043203
 30
0.0
 11
-11.0820696112
 21
-12.0912308211
 31
0.0
 11
-11.0604698658
 21
-12.1318904676
 31
0.0
 11
-11.0489405251
 21
-12.1785805898
 31
0.0
 11
-11.0479429186
 21
-12.2294307642
 31
0.0
 11
-11.0575174956
 21
-12.2824043203
 31
0.0
  0
SPLINE
  5
691
100
AcDbEntity
  8
RACCORDO
100
AcDbSpline
 62
253
  6
CONTINUOUS
 70
0
 71
3
 72
11
 73
7
 74
5
 42
0.0000001
 43
0.0000001
 44
0.0000000001
 12
0.1152591314
 22
0.1620089561
 32
0.0
 13
-0.0530601143
 23
0.1916147007
 33
0.0
 40
0.0
 40
0.0
 40
0.0
 40
0.0
 40
0.2315642334
 40
0.4734478476
 40
0.7292502727
 40
1.0
 40
1.0
 40
1.0
 40
1.0
 10
-11.0820691818
 20
-8.0875843702
 30
0.0
 10
-11.073172551
 20
-8.0750792103
 30
0.0
 10
-11.0583741889
 20
-8.0469442264
 30
0.0
 10
-11.046995342
 20
-7.999532949
 30
0.0
 10
-11.046299444
 20
-7.9482437105
 30
0.0
 10
-11.0527289758
 20
-7.9137036815
 30
0.0
 10
-11.0575176463
 20
-7.8964104722
 30
0.0
 11
-11.0820691818
 21
-8.0875843702
 31
0.0
 11
-11.0604695838
 21
-8.046924575
 31
0.0
 11
-11.0489403987
 21
-8.0002343362
 31
0.0
 11
-11.0479429403
 21
-7.9493840796
 31
0.0
 11
-11.0575176463
 21
-7.8964104722
 31
0.0
  0
SPLINE
  5
692
100
AcDbEntity
  8
RACCORDO
100
AcDbSpline
 62
253
  6
CONTINUOUS
 70
0
 71
3
 72
11
 73
7
 74
5
 42
0.0000001
 43
0.0000001
 44
0.0000000001
 12
-0.1152597771
 22
0.1620082086
 32
0.0
 13
0.0530598032
 23
0.1916145432
 33
0.0
 40
0.0
 40
0.0
 40
0.0
 40
0.0
 40
0.231564255
 40
0.473447826
 40
0.7292502241
 40
1.0
 40
1.0
 40
1.0
 40
1.0
 10
10.2287312658
 20
-8.087583991
 30
0.0
 10
10.2198345844
 20
-8.0750788876
 30
0.0
 10
10.2050361102
 20
-8.0469440041
 30
0.0
 10
10.1936571046
 20
-7.9995328232
 30
0.0
 10
10.1929610752
 20
-7.9482436451
 30
0.0
 10
10.1993905435
 20
-7.9137036428
 30
0.0
 10
10.2041791868
 20
-7.8964104446
 30
0.0
 11
10.2287312658
 21
-8.087583991
 31
0.0
 11
10.2071315081
 21
-8.0469243374
 31
0.0
 11
10.1956021697
 21
-8.0002342037
 31
0.0
 11
10.1946045799
 21
-7.9493840152
 31
0.0
 11
10.2041791868
 21
-7.8964104446
 31
0.0
  0
SPLINE
  5
693
100
AcDbEntity
  8
RACCORDO
100
AcDbSpline
 62
253
  6
CONTINUOUS
 70
0
 71
3
 72
11
 73
7
 74
5
 42
0.0000001
 43
0.0000001
 44
0.0000000001
 12
-0.1152591314
 22
-0.1620089561
 32
0.0
 13
0.0530601143
 23
-0.1916147007
 33
0.0
 40
0.0
 40
0.0
 40
0.0
 40
0.0
 40
0.2315642334
 40
0.4734478476
 40
0.7292502727
 40
1.0
 40
1.0
 40
1.0
 40
1.0
 10
10.2287308278
 20
1.4087697456
 30
0.0
 10
10.2198341969
 20
1.3962645857
 30
0.0
 10
10.2050358348
 20
1.3681296018
 30
0.0
 10
10.193656988
 20
1.3207183243
 30
0.0
 10
10.1929610899
 20
1.2694290859
 30
0.0
 10
10.1993906218
 20
1.2348890569
 30
0.0
 10
10.2041792923
 20
1.2175958476
 30
0.0
 11
10.2287308278
 21
1.4087697456
 31
0.0
 11
10.2071312297
 21
1.3681099504
 31
0.0
 11
10.1956020446
 21
1.3214197116
 31
0.0
 11
10.1946045863
 21
1.270569455
 31
0.0
 11
10.2041792923
 21
1.2175958476
 31
0.0
  0
SPLINE
  5
694
100
AcDbEntity
  8
RACCORDO
100
AcDbSpline
 62
253
  6
CONTINUOUS
 70
0
 71
3
 72
11
 73
7
 74
5
 42
0.0000001
 43
0.0000001
 44
0.0000000001
 12
0.1152597096
 22
-0.1620082704
 32
0.0
 13
-0.0530598199
 23
-0.1916145502
 33
0.0
 40
0.0
 40
0.0
 40
0.0
 40
0.0
 40
0.2315642607
 40
0.4734478394
 40
0.7292502377
 40
1.0
 40
1.0
 40
1.0
 40
1.0
 10
-11.0820696428
 20
1.4087695697
 30
0.0
 10
-11.0731729663
 20
1.3962644612
 30
0.0
 10
-11.0583745023
 20
1.3681295697
 30
0.0
 10
-11.0469955088
 20
1.3207183826
 30
0.0
 10
-11.046299488
 20
1.2694292022
 30
0.0
 10
-11.0527289596
 20
1.2348891995
 30
0.0
 10
-11.0575176041
 20
1.2175960016
 30
0.0
 11
-11.0820696428
 21
1.4087695697
 31
0.0
 11
-11.0604698995
 21
1.3681099042
 31
0.0
 11
-11.048940573
 21
1.3214197632
 31
0.0
 11
-11.047942992
 21
1.2705695716
 31
0.0
 11
-11.0575176041
 21
1.2175960016
 31
0.0
  0
SPLINE
  5
695
100
AcDbEntity
  8
RACCORDO
100
AcDbSpline
 62
253
  6
CONTINUOUS
 70
0
 71
3
 72
11
 73
7
 74
5
 42
0.0000001
 43
0.0000001
 44
0.0000000001
 12
0.1152591218
 22
0.1620089415
 32
0.0
 13
-0.0530600846
 23
0.1916146908
 33
0.0
 40
0.0
 40
0.0
 40
0.0
 40
0.0
 40
0.2315642429
 40
0.4734478607
 40
0.7292502824
 40
1.0
 40
1.0
 40
1.0
 40
1.0
 10
-11.0820692161
 20
5.4124155967
 30
0.0
 10
-11.0731725856
 20
5.424920756
 30
0.0
 10
-11.0583742235
 20
5.4530557375
 30
0.0
 10
-11.0469953737
 20
5.5004670104
 30
0.0
 10
-11.04629947
 20
5.5517562435
 30
0.0
 10
-11.0527289968
 20
5.5862962695
 30
0.0
 10
-11.0575176645
 20
5.6035894773
 30
0.0
 11
-11.0820692161
 21
5.4124155967
 31
0.0
 11
-11.0604696178
 21
5.4530753892
 31
0.0
 11
-11.0489404299
 21
5.4997656238
 31
0.0
 11
-11.0479429663
 21
5.5506158752
 31
0.0
 11
-11.0575176645
 21
5.6035894773
 31
0.0
  0
SPLINE
  5
696
100
AcDbEntity
  8
RACCORDO
100
AcDbSpline
 62
253
  6
CONTINUOUS
 70
0
 71
3
 72
11
 73
7
 74
5
 42
0.0000001
 43
0.0000001
 44
0.0000000001
 12
-0.1152596896
 22
0.1620082004
 32
0.0
 13
0.0530596785
 23
0.1916145182
 33
0.0
 40
0.0
 40
0.0
 40
0.0
 40
0.0
 40
0.2315642602
 40
0.4734478468
 40
0.7292502477
 40
1.0
 40
1.0
 40
1.0
 40
1.0
 10
10.2287312583
 20
5.4124161901
 30
0.0
 10
10.2198345834
 20
5.4249212931
 30
0.0
 10
10.205036119
 20
5.4530561719
 30
0.0
 10
10.1936571117
 20
5.5004673385
 30
0.0
 10
10.1929610644
 20
5.5517565005
 30
0.0
 10
10.1993905124
 20
5.5862964945
 30
0.0
 10
10.204179144
 20
5.6035896889
 30
0.0
 11
10.2287312583
 21
5.4124161901
 31
0.0
 11
10.2071315143
 21
5.4530758371
 31
0.0
 11
10.1956021743
 21
5.4997659593
 31
0.0
 11
10.1946045678
 21
5.5506161334
 31
0.0
 11
10.204179144
 21
5.6035896889
 31
0.0
  0
SPLINE
  5
697
100
AcDbEntity
  8
RACCORDO
100
AcDbSpline
 62
253
  6
CONTINUOUS
 70
0
 71
3
 72
11
 73
7
 74
5
 42
0.0000001
 43
0.0000001
 44
0.0000000001
 12
0.2166741649
 22
-0.1878774798
 32
0.0
 13
0.0126158352
 23
-0.2865073853
 33
0.0
 40
0.0
 40
0.0
 40
0.0
 40
0.0
 40
0.2781625123
 40
0.5323635472
 40
0.7705925926
 40
1.0
 40
1.0
 40
1.0
 40
1.0
 10
10.2287318979
 20
5.4124156437
 30
0.0
 10
10.2488221079
 20
5.3949954865
 30
0.0
 10
10.2843180641
 20
5.3579940619
 30
0.0
 10
10.3240811249
 20
5.2954137261
 30
0.0
 10
10.3486966052
 20
5.2304424485
 30
0.0
 10
10.3555051046
 20
5.1858611754
 30
0.0
 10
10.3564698266
 20
5.1639522032
 30
0.0
 11
10.2287318979
 21
5.4124156437
 31
0.0
 11
10.2837246268
 21
5.3546271888
 31
0.0
 11
10.3226089538
 21
5.2929621937
 31
0.0
 11
10.3466258159
 21
5.2290021778
 31
0.0
 11
10.3564698266
 21
5.1639522032
 31
0.0
  0
SPLINE
  5
698
100
AcDbEntity
  8
RACCORDO
100
AcDbSpline
 62
253
  6
CONTINUOUS
 70
0
 71
3
 72
11
 73
7
 74
5
 42
0.0000001
 43
0.0000001
 44
0.0000000001
 12
-0.0126156878
 22
-0.2865070627
 32
0.0
 13
-0.2166739903
 23
-0.1878771792
 33
0.0
 40
0.0
 40
0.0
 40
0.0
 40
0.0
 40
0.2294076406
 40
0.4676367328
 40
0.7218376269
 40
1.0
 40
1.0
 40
1.0
 40
1.0
 10
10.3564698266
 20
1.6572332225
 30
0.0
 10
10.3555051149
 20
1.6353242528
 30
0.0
 10
10.3486966244
 20
1.5907430034
 30
0.0
 10
10.3240811991
 20
1.5257717744
 30
0.0
 10
10.2843181707
 20
1.4631915436
 30
0.0
 10
10.2488222751
 20
1.4261901803
 30
0.0
 10
10.2287320913
 20
1.4087700596
 30
0.0
 11
10.3564698266
 21
1.6572332225
 31
0.0
 11
10.3466258352
 21
1.5921832536
 31
0.0
 11
10.3226090126
 21
1.5282232923
 31
0.0
 11
10.2837247402
 21
1.4665584093
 31
0.0
 11
10.2287320913
 21
1.4087700596
 31
0.0
  0
SPLINE
  5
699
100
AcDbEntity
  8
RACCORDO
100
AcDbSpline
 62
253
  6
CONTINUOUS
 70
0
 71
3
 72
11
 73
7
 74
5
 42
0.0000001
 43
0.0000001
 44
0.0000000001
 12
0.2166740425
 22
-0.1878777932
 32
0.0
 13
0.0126158408
 23
-0.2865074981
 33
0.0
 40
0.0
 40
0.0
 40
0.0
 40
0.0
 40
0.2781631451
 40
0.5323638731
 40
0.7705924872
 40
1.0
 40
1.0
 40
1.0
 40
1.0
 10
10.2287314451
 20
-8.0875841414
 30
0.0
 10
10.2488216895
 20
-8.1050043674
 30
0.0
 10
10.28431768
 20
-8.1420058139
 30
0.0
 10
10.3240809462
 20
-8.2045860309
 30
0.0
 10
10.3486966101
 20
-8.2695572145
 30
0.0
 10
10.3555051037
 20
-8.3141384821
 30
0.0
 10
10.3564698266
 20
-8.3360474729
 30
0.0
 11
10.2287314451
 21
-8.0875841414
 31
0.0
 11
10.2837243336
 21
-8.1453727384
 31
0.0
 11
10.3226087893
 21
-8.2070375821
 31
0.0
 11
10.3466257772
 21
-8.2709974474
 31
0.0
 11
10.3564698266
 21
-8.3360474729
 31
0.0
  0
SPLINE
  5
69A
100
AcDbEntity
  8
RACCORDO
100
AcDbSpline
 62
253
  6
CONTINUOUS
 70
0
 71
3
 72
11
 73
7
 74
5
 42
0.0000001
 43
0.0000001
 44
0.0000000001
 12
-0.012615672
 22
-0.2865069979
 32
0.0
 13
-0.2166739804
 23
-0.1878770908
 33
0.0
 40
0.0
 40
0.0
 40
0.0
 40
0.0
 40
0.2294078313
 40
0.4676369594
 40
0.7218377767
 40
1.0
 40
1.0
 40
1.0
 40
1.0
 10
10.3564698266
 20
-11.8427667538
 30
0.0
 10
10.3555051153
 20
-11.8646757368
 30
0.0
 10
10.3486966396
 20
-11.9092569991
 30
0.0
 10
10.3240812325
 20
-11.9742282353
 30
0.0
 10
10.2843182177
 20
-12.0368084342
 30
0.0
 10
10.2488223401
 20
-12.0738097685
 30
0.0
 10
10.228732168
 20
-12.0912298716
 30
0.0
 11
10.3564698266
 21
-11.8427667538
 31
0.0
 11
10.3466258445
 21
-11.9078167642
 31
0.0
 11
10.3226090377
 21
-11.9717767258
 31
0.0
 11
10.2837247837
 21
-12.0334415747
 31
0.0
 11
10.228732168
 21
-12.0912298716
 31
0.0
  0
SPLINE
  5
69B
100
AcDbEntity
  8
RACCORDO
100
AcDbSpline
 62
253
  6
CONTINUOUS
 70
0
 71
3
 72
11
 73
7
 74
5
 42
0.0000001
 43
0.0000001
 44
0.0000000001
 12
-0.2166741743
 22
0.187877511
 32
0.0
 13
-0.0126158368
 23
0.2865074128
 33
0.0
 40
0.0
 40
0.0
 40
0.0
 40
0.0
 40
0.2781625497
 40
0.5323636
 40
0.7705926239
 40
1.0
 40
1.0
 40
1.0
 40
1.0
 10
-11.0820702235
 20
-12.0912302982
 30
0.0
 10
-11.1021604371
 20
-12.0738101357
 30
0.0
 10
-11.1376563999
 20
-12.0368087038
 30
0.0
 10
-11.1774194668
 20
-11.9742283604
 30
0.0
 10
-11.2020349565
 20
-11.9092570833
 30
0.0
 10
-11.2088434586
 20
-11.8646758109
 30
0.0
 10
-11.2098081807
 20
-11.8427668397
 30
0.0
 11
-11.0820702235
 21
-12.0912302982
 31
0.0
 11
-11.1370629638
 21
-12.0334418288
 31
0.0
 11
-11.1759472985
 21
-11.9717768251
 31
0.0
 11
-11.1999641669
 21
-11.9078168112
 31
0.0
 11
-11.2098081807
 21
-11.8427668397
 31
0.0
  0
SPLINE
  5
69C
100
AcDbEntity
  8
RACCORDO
100
AcDbSpline
 62
253
  6
CONTINUOUS
 70
0
 71
3
 72
11
 73
7
 74
5
 42
0.0000001
 43
0.0000001
 44
0.0000000001
 12
0.0126156878
 22
0.2865070628
 32
0.0
 13
0.2166739903
 23
0.1878771793
 33
0.0
 40
0.0
 40
0.0
 40
0.0
 40
0.0
 40
0.2294076405
 40
0.4676367326
 40
0.7218376268
 40
1.0
 40
1.0
 40
1.0
 40
1.0
 10
-11.2098081807
 20
-8.3360478471
 30
0.0
 10
-11.2088434689
 20
-8.3141388774
 30
0.0
 10
-11.2020349784
 20
-8.2695576281
 30
0.0
 10
-11.1774195531
 20
-8.204586399
 30
0.0
 10
-11.1376565247
 20
-8.1420061681
 30
0.0
 10
-11.1021606291
 20
-8.1050048048
 30
0.0
 10
-11.0820704453
 20
-8.0875846841
 30
0.0
 11
-11.2098081807
 21
-8.3360478471
 31
0.0
 11
-11.1999641892
 21
-8.2709978783
 31
0.0
 11
-11.1759473666
 21
-8.2070379169
 31
0.0
 11
-11.1370630942
 21
-8.1453730339
 31
0.0
 11
-11.0820704453
 21
-8.0875846841
 31
0.0
  0
SPLINE
  5
69D
100
AcDbEntity
  8
RACCORDO
100
AcDbSpline
 62
253
  6
CONTINUOUS
 70
0
 71
3
 72
11
 73
7
 74
5
 42
0.0000001
 43
0.0000001
 44
0.0000000001
 12
-0.2166740095
 22
0.1878775539
 32
0.0
 13
-0.0126158001
 23
0.286507318
 33
0.0
 40
0.0
 40
0.0
 40
0.0
 40
0.0
 40
0.2781625074
 40
0.532363125
 40
0.7705920214
 40
1.0
 40
1.0
 40
1.0
 40
1.0
 10
-11.0820699972
 20
1.4087698708
 30
0.0
 10
-11.1021601925
 20
1.4261900346
 30
0.0
 10
-11.1376561718
 20
1.4631913438
 30
0.0
 10
-11.1774194175
 20
1.5257714791
 30
0.0
 10
-11.2020349916
 20
1.5907427184
 30
0.0
 10
-11.2088434589
 20
1.6353240293
 30
0.0
 10
-11.2098081807
 20
1.6572330508
 30
0.0
 11
-11.0820699972
 21
1.4087698708
 31
0.0
 11
-11.1370627891
 21
1.4665582374
 31
0.0
 11
-11.1759472224
 21
1.5282230033
 31
0.0
 11
-11.1999641584
 21
1.5921829282
 31
0.0
 11
-11.2098081807
 21
1.6572330508
 31
0.0
  0
SPLINE
  5
69E
100
AcDbEntity
  8
RACCORDO
100
AcDbSpline
 62
253
  6
CONTINUOUS
 70
0
 71
3
 72
11
 73
7
 74
5
 42
0.0000001
 43
0.0000001
 44
0.0000000001
 12
0.0126156514
 22
0.2865068867
 32
0.0
 13
0.2166739228
 23
0.1878769862
 33
0.0
 40
0.0
 40
0.0
 40
0.0
 40
0.0
 40
0.2294079932
 40
0.4676371229
 40
0.7218378625
 40
1.0
 40
1.0
 40
1.0
 40
1.0
 10
-11.2098081807
 20
5.1639521405
 30
0.0
 10
-11.2088434702
 20
5.1858611304
 30
0.0
 10
-11.2020350074
 20
5.2304423926
 30
0.0
 10
-11.1774196094
 20
5.2954136141
 30
0.0
 10
-11.1376565996
 20
5.357993764
 30
0.0
 10
-11.1021607408
 20
5.3949950659
 30
0.0
 10
-11.0820705803
 20
5.4124151539
 30
0.0
 11
-11.2098081807
 21
5.1639521405
 31
0.0
 11
-11.1999642055
 21
5.2290021729
 31
0.0
 11
-11.1759474089
 21
5.2929621103
 31
0.0
 11
-11.1370631682
 21
5.3546269076
 31
0.0
 11
-11.0820705803
 21
5.4124151539
 31
0.0
  0
SPLINE
  5
69F
100
AcDbEntity
  8
RACCORDO
100
AcDbSpline
 62
253
  6
CONTINUOUS
 70
0
 71
3
 72
17
 73
13
 74
11
 42
0.0000001
 43
0.0000001
 44
0.0000000001
 12
1.9479431087
 22
-0.050149029
 32
0.0
 13
0.0230954246
 23
-1.9484516625
 33
0.0
 40
0.0
 40
0.0
 40
0.0
 40
0.0
 40
0.0705699339
 40
0.1400286942
 40
0.2078029508
 40
0.2738383563
 40
0.4013644715
 40
0.5247880206
 40
0.645546376
 40
0.7645929299
 40
0.8825798744
 40
1.0
 40
1.0
 40
1.0
 40
1.0
 10
9.5259362612
 20
11.6370234338
 30
0.0
 10
9.5717583333
 20
11.6358437626
 30
0.0
 10
9.6626909898
 20
11.6241794724
 30
0.0
 10
9.7914668624
 20
11.5814391097
 30
0.0
 10
9.9083979048
 20
11.5189133076
 30
0.0
 10
10.0451723232
 20
11.4175861761
 30
0.0
 10
10.1864884865
 20
11.26537188
 30
0.0
 10
10.3154930678
 20
11.0601037901
 30
0.0
 10
10.4102499593
 20
10.8432289025
 30
0.0
 10
10.4757288015
 20
10.6196756223
 30
0.0
 10
10.5150359445
 20
10.3923818284
 30
0.0
 10
10.5248800005
 20
10.2394606547
 30
0.0
 10
10.5257839564
 20
10.163198175
 30
0.0
 11
9.5259362612
 21
11.6370234338
 31
0.0
 11
9.6623568587
 21
11.6197345405
 31
0.0
 11
9.7909481704
 21
11.5775094109
 31
0.0
 11
9.9076170106
 21
11.5156279224
 31
0.0
 11
10.0112429703
 21
11.439344695
 31
0.0
 11
10.1819176403
 21
11.2587335597
 31
0.0
 11
10.3110413768
 21
11.0558342385
 31
0.0
 11
10.4059614851
 21
10.8405200701
 31
0.0
 11
10.471611118
 21
10.6180307837
 31
0.0
 11
10.5110138469
 21
10.3915244554
 31
0.0
 11
10.5257839564
 21
10.163198175
 31
0.0
  0
SPLINE
  5
6A0
100
AcDbEntity
  8
RACCORDO
100
AcDbSpline
 62
253
  6
CONTINUOUS
 70
0
 71
3
 72
17
 73
13
 74
11
 42
0.0000001
 43
0.0000001
 44
0.0000000001
 12
1.544475773
 22
-0.0262630437
 32
0.0
 13
0.0413021087
 23
-1.544146786
 33
0.0
 40
0.0
 40
0.0
 40
0.0
 40
0.0
 40
0.0886893984
 40
0.1740290627
 40
0.2542828216
 40
0.3291430523
 40
0.4645289849
 40
0.5855694491
 40
0.6967517768
 40
0.8013382305
 40
0.901762852
 40
1.0
 40
1.0
 40
1.0
 40
1.0
 10
9.5173636339
 20
11.1371757039
 30
0.0
 10
9.5630231763
 20
11.1363992861
 30
0.0
 10
9.6526307611
 20
11.1288854006
 30
0.0
 10
9.7809127897
 20
11.1010835147
 30
0.0
 10
9.8980798264
 20
11.0601324416
 30
0.0
 10
10.0329319577
 20
10.9948279081
 30
0.0
 10
10.1740913316
 20
10.896805595
 30
0.0
 10
10.3067673049
 20
10.7603772299
 30
0.0
 10
10.4044309003
 20
10.616044956
 30
0.0
 10
10.4722644648
 20
10.4672360094
 30
0.0
 10
10.5134965365
 20
10.3159783395
 30
0.0
 10
10.5244314884
 20
10.2137623172
 30
0.0
 10
10.5257839555
 20
10.1631981251
 30
0.0
 11
9.5173636339
 21
11.1371757039
 31
0.0
 11
9.6538848229
 21
11.1257505254
 31
0.0
 11
9.7827216231
 21
11.0978458331
 31
0.0
 11
9.8997501324
 21
11.056951218
 31
0.0
 11
10.0038196118
 21
11.0065394146
 31
0.0
 11
10.1755449259
 21
10.8871828412
 31
0.0
 11
10.3058491256
 21
10.7530970323
 31
0.0
 11
10.4020217629
 21
10.6108066144
 31
0.0
 11
10.468965553
 21
10.4637745893
 31
0.0
 11
10.5096857894
 21
10.3140886459
 31
0.0
 11
10.5257839555
 21
10.1631981251
 31
0.0
  0
SPLINE
  5
6A1
100
AcDbEntity
  8
RACCORDO
100
AcDbSpline
 62
253
  6
CONTINUOUS
 70
0
 71
3
 72
11
 73
7
 74
5
 42
0.0000001
 43
0.0000001
 44
0.0000000001
 12
-0.5318765953
 22
0.0000013036
 32
0.0
 13
-0.4710473278
 23
0.2469962097
 33
0.0
 40
0.0
 40
0.0
 40
0.0
 40
0.0
 40
0.2501112604
 40
0.5001060462
 40
0.7500193864
 40
1.0
 40
1.0
 40
1.0
 40
1.0
 10
0.3127082405
 20
11.5202061167
 30
0.0
 10
0.2683654653
 20
11.5202062254
 30
0.0
 10
0.1796310638
 20
11.5248076452
 30
0.0
 10
0.0480612384
 20
11.5457995507
 30
0.0
 10
-0.080258552
 20
11.5817037061
 30
0.0
 10
-0.1621028878
 20
11.6166622331
 30
0.0
 10
-0.2013537878
 20
11.6372436545
 30
0.0
 11
0.3127082405
 21
11.5202061167
 31
0.0
 11
0.1798617269
 21
11.5271587587
 31
0.0
 11
0.04858496
 21
11.5482885367
 31
0.0
 11
-0.0793231047
 21
11.5844557308
 31
0.0
 11
-0.2013537878
 21
11.6372436545
 31
0.0
  0
SPLINE
  5
6A2
100
AcDbEntity
  8
RACCORDO
100
AcDbSpline
 62
253
  6
CONTINUOUS
 70
0
 71
3
 72
11
 73
7
 74
5
 42
0.0000001
 43
0.0000001
 44
0.0000000001
 12
-0.4588797981
 22
-0.2269577915
 32
0.0
 13
-0.5119379925
 23
-0.0000011086
 33
0.0
 40
0.0
 40
0.0
 40
0.0
 40
0.0
 40
0.2499730689
 40
0.4998875363
 40
0.7498886212
 40
1.0
 40
1.0
 40
1.0
 40
1.0
 10
9.5002106132
 20
11.6281752908
 30
0.0
 10
9.4619747494
 20
11.6092641789
 30
0.0
 10
9.3826392856
 20
11.577073919
 30
0.0
 10
9.2587770793
 20
11.5439016145
 30
0.0
 10
9.1320380399
 20
11.5244701584
 30
0.0
 10
9.0466339112
 20
11.5202062091
 30
0.0
 10
9.0039534054
 20
11.5202061167
 30
0.0
 11
9.5002106132
 21
11.6281752908
 31
0.0
 11
9.3818215384
 21
11.5795900062
 31
0.0
 11
9.2583159838
 21
11.5461953443
 31
0.0
 11
9.1318329096
 21
11.5266452583
 31
0.0
 11
9.0039534054
 21
11.5202061167
 31
0.0
  0
SPLINE
  5
6A3
100
AcDbEntity
  8
RACCORDO
100
AcDbSpline
 62
253
  6
CONTINUOUS
 70
0
 71
3
 72
17
 73
13
 74
11
 42
0.0000001
 43
0.0000001
 44
0.0000000001
 12
0.0230950847
 22
1.948451667
 32
0.0
 13
1.9479431102
 23
0.0501489882
 33
0.0
 40
0.0
 40
0.0
 40
0.0
 40
0.0
 40
0.1174201267
 40
0.2354070702
 40
0.354453624
 40
0.4752119794
 40
0.5986355285
 40
0.7261616437
 40
0.7921970492
 40
0.8599713058
 40
0.9294300661
 40
1.0
 40
1.0
 40
1.0
 40
1.0
 10
-11.3791223105
 20
10.1631981744
 30
0.0
 10
-11.3782183679
 20
10.2394606549
 30
0.0
 10
-11.3683742899
 20
10.3923818283
 30
0.0
 10
-11.3290671581
 20
10.6196756228
 30
0.0
 10
-11.2635883127
 20
10.8432289022
 30
0.0
 10
-11.1688314222
 20
11.0601037899
 30
0.0
 10
-11.0398268406
 20
11.2653718798
 30
0.0
 10
-10.8985106774
 20
11.417586176
 30
0.0
 10
-10.7617362589
 20
11.5189133075
 30
0.0
 10
-10.6448052165
 20
11.5814391098
 30
0.0
 10
-10.5160293439
 20
11.6241794719
 30
0.0
 10
-10.4250966874
 20
11.6358437636
 30
0.0
 10
-10.3792746153
 20
11.6370234338
 30
0.0
 11
-11.3791223105
 21
10.1631981744
 31
0.0
 11
-11.3643521995
 21
10.3915244569
 31
0.0
 11
-11.3249494723
 21
10.6180307836
 31
0.0
 11
-11.2592998393
 21
10.8405200698
 31
0.0
 11
-11.1643797309
 21
11.0558342382
 31
0.0
 11
-11.0352559944
 21
11.2587335595
 31
0.0
 11
-10.8645813244
 21
11.4393446949
 31
0.0
 11
-10.7609553648
 21
11.5156279224
 31
0.0
 11
-10.6442865245
 21
11.5775094109
 31
0.0
 11
-10.5156952128
 21
11.6197345405
 31
0.0
 11
-10.3792746153
 21
11.6370234338
 31
0.0
  0
SPLINE
  5
6A4
100
AcDbEntity
  8
RACCORDO
100
AcDbSpline
 62
253
  6
CONTINUOUS
 70
0
 71
3
 72
17
 73
13
 74
11
 42
0.0000001
 43
0.0000001
 44
0.0000000001
 12
0.0413016098
 22
1.5441467991
 32
0.0
 13
1.5444757728
 23
0.0262630394
 33
0.0
 40
0.0
 40
0.0
 40
0.0
 40
0.0
 40
0.0982371462
 40
0.198661769
 40
0.303248223
 40
0.4144305507
 40
0.5354710149
 40
0.6708569476
 40
0.7457171783
 40
0.8259709372
 40
0.9113106015
 40
1.0
 40
1.0
 40
1.0
 40
1.0
 10
-11.3791223096
 20
10.1631981251
 30
0.0
 10
-11.3777698588
 20
10.2137623167
 30
0.0
 10
-11.3668348793
 20
10.3159783375
 30
0.0
 10
-11.3256028226
 20
10.4672360087
 30
0.0
 10
-11.2577692536
 20
10.6160449557
 30
0.0
 10
-11.1601056593
 20
10.7603772298
 30
0.0
 10
-11.0274296857
 20
10.8968055949
 30
0.0
 10
-10.8862703118
 20
10.9948279081
 30
0.0
 10
-10.7514181805
 20
11.0601324416
 30
0.0
 10
-10.6342511438
 20
11.1010835147
 30
0.0
 10
-10.5059691152
 20
11.1288854005
 30
0.0
 10
-10.4163615304
 20
11.1363992862
 30
0.0
 10
-10.370701988
 20
11.1371757039
 30
0.0
 11
-11.3791223096
 21
10.1631981251
 31
0.0
 11
-11.3630241419
 21
10.3140886429
 31
0.0
 11
-11.3223039073
 21
10.4637745888
 31
0.0
 11
-11.255360117
 21
10.6108066144
 31
0.0
 11
-11.1591874797
 21
10.7530970322
 31
0.0
 11
-11.02888328
 21
10.8871828411
 31
0.0
 11
-10.8571579659
 21
11.0065394145
 31
0.0
 11
-10.7530884866
 21
11.056951218
 31
0.0
 11
-10.6360599772
 21
11.0978458331
 31
0.0
 11
-10.507223177
 21
11.1257505254
 31
0.0
 11
-10.370701988
 21
11.1371757039
 31
0.0
  0
SPLINE
  5
6A5
100
AcDbEntity
  8
RACCORDO
100
AcDbSpline
 62
253
  6
CONTINUOUS
 70
0
 71
3
 72
15
 73
11
 74
9
 42
0.0000001
 43
0.0000001
 44
0.0000000001
 12
-0.5512979977
 22
-0.7384860391
 32
0.0
 13
-0.55130148
 23
0.7384834394
 33
0.0
 40
0.0
 40
0.0
 40
0.0
 40
0.0
 40
0.124883436
 40
0.2498576849
 40
0.3749073022
 40
0.5000000439
 40
0.6250927885
 40
0.7501423978
 40
0.8751166603
 40
1.0
 40
1.0
 40
1.0
 40
1.0
 10
5.470701577
 20
5.1886898102
 30
0.0
 10
5.4477522476
 20
5.1579482522
 30
0.0
 10
5.3946709597
 20
5.1014286672
 30
0.0
 10
5.2979546227
 20
5.0371016599
 30
0.0
 10
5.1888625908
 20
4.9967814568
 30
0.0
 10
5.073329791
 20
4.9830531187
 30
0.0
 10
4.9577970362
 20
4.9967819271
 30
0.0
 10
4.8487052109
 20
5.0371026155
 30
0.0
 10
4.7519890171
 20
5.1014299034
 30
0.0
 10
4.6989083518
 20
5.1579499601
 30
0.0
 10
4.6759588951
 20
5.1886913862
 30
0.0
 11
5.470701577
 21
5.1886898102
 31
0.0
 11
5.3918484447
 21
5.1048589119
 31
0.0
 11
5.2959221293
 21
5.041118433
 31
0.0
 11
5.187807844
 21
5.0012184089
 31
0.0
 11
5.073329799
 21
4.9876298357
 31
0.0
 11
4.9588518075
 21
5.0012188823
 31
0.0
 11
4.8507376955
 21
5.0411193544
 31
0.0
 11
4.7548116367
 21
5.1048602423
 31
0.0
 11
4.6759588951
 21
5.1886913862
 31
0.0
  0
LINE
  5
6A6
100
AcDbEntity
  8
RACCORDO
100
AcDbLine
 62
253
  6
CONTINUOUS
 10
5.456575082
 20
5.3754069632
 11
5.4707016451
 21
5.1886897579
  0
SPLINE
  5
6A7
100
AcDbEntity
  8
RACCORDO
100
AcDbSpline
 62
253
  6
CONTINUOUS
 70
0
 71
3
 72
15
 73
11
 74
9
 42
0.0000001
 43
0.0000001
 44
0.0000000001
 12
-0.5512970569
 22
-0.7384963268
 32
0.0
 13
-0.5513060437
 23
0.738489618
 33
0.0
 40
0.0
 40
0.0
 40
0.0
 40
0.0
 40
0.1248834384
 40
0.2498576824
 40
0.3749072976
 40
0.500000039
 40
0.6250927849
 40
0.7501423961
 40
0.8751166602
 40
1.0
 40
1.0
 40
1.0
 40
1.0
 10
-0.0292938174
 20
5.1886960024
 30
0.0
 10
-0.052243108
 20
5.1579540155
 30
0.0
 10
-0.1053237041
 20
5.1014329455
 30
0.0
 10
-0.2020401838
 20
5.0371042775
 30
0.0
 10
-0.3111326691
 20
4.9967825329
 30
0.0
 10
-0.4266663374
 20
4.9830530628
 30
0.0
 10
-0.5422001661
 20
4.9967811942
 30
0.0
 10
-0.6512931143
 20
5.0371017006
 30
0.0
 10
-0.748010311
 20
5.1014292618
 30
0.0
 10
-0.8010914749
 20
5.1579497554
 30
0.0
 10
-0.8240411215
 20
5.1886914387
 30
0.0
 11
-0.0292938174
 21
5.1886960024
 31
0.0
 11
-0.1081464177
 21
5.1048632838
 31
0.0
 11
-0.2040727283
 21
5.0411210712
 31
0.0
 11
-0.3121874841
 21
5.0012195538
 31
0.0
 11
-0.426666363
 21
4.9876298558
 31
0.0
 11
-0.5411454029
 21
5.0012182318
 31
0.0
 11
-0.6492606102
 21
5.0411185155
 31
0.0
 11
-0.7451876495
 21
5.1048596648
 31
0.0
 11
-0.8240411215
 21
5.1886914387
 31
0.0
  0
SPLINE
  5
6A8
100
AcDbEntity
  8
RACCORDO
100
AcDbSpline
 62
253
  6
CONTINUOUS
 70
0
 71
3
 72
15
 73
11
 74
9
 42
0.0000001
 43
0.0000001
 44
0.0000000001
 12
-0.5512972173
 22
-0.7384946036
 32
0.0
 13
-0.551305275
 23
0.7384885883
 33
0.0
 40
0.0
 40
0.0
 40
0.0
 40
0.0
 40
0.1248834378
 40
0.2498576827
 40
0.3749072983
 40
0.5000000399
 40
0.6250927856
 40
0.7501423965
 40
0.8751166603
 40
1.0
 40
1.0
 40
1.0
 40
1.0
 10
-5.5292945917
 20
5.1886949662
 30
0.0
 10
-5.5522438889
 20
5.1579530513
 30
0.0
 10
-5.6053246013
 20
5.1014322302
 30
0.0
 10
-5.7020410576
 20
5.0371038408
 30
0.0
 10
-5.8111334675
 20
4.996782355
 30
0.0
 10
-5.9266669907
 20
4.9830530755
 30
0.0
 10
-6.0422006397
 20
4.9967813216
 30
0.0
 10
-6.1512933995
 20
5.0371018601
 30
0.0
 10
-6.2480104276
 20
5.1014293768
 30
0.0
 10
-6.3010915069
 20
5.1579497983
 30
0.0
 10
-6.3240411215
 20
5.1886914387
 30
0.0
 11
-5.5292945917
 21
5.1886949662
 31
0.0
 11
-5.6081472816
 21
5.1048625529
 31
0.0
 11
-5.7040735935
 21
5.0411206311
 31
0.0
 11
-5.8121882711
 21
5.0012193644
 31
0.0
 11
-5.9266670107
 21
4.9876298558
 31
0.0
 11
-6.0411458751
 21
5.0012183454
 31
0.0
 11
-6.1492608986
 21
5.0411186622
 31
0.0
 11
-6.245187773
 21
5.1048597692
 31
0.0
 11
-6.3240411215
 21
5.1886914387
 31
0.0
  0
SPLINE
  5
6A9
100
AcDbEntity
  8
RACCORDO
100
AcDbSpline
 62
253
  6
CONTINUOUS
 70
0
 71
3
 72
15
 73
11
 74
9
 42
0.0000001
 43
0.0000001
 44
0.0000000001
 12
-0.5512969849
 22
-0.7384971001
 32
0.0
 13
-0.5513063886
 23
0.7384900801
 33
0.0
 40
0.0
 40
0.0
 40
0.0
 40
0.0
 40
0.1248834386
 40
0.2498576823
 40
0.3749072973
 40
0.5000000387
 40
0.6250927846
 40
0.7501423959
 40
0.8751166601
 40
1.0
 40
1.0
 40
1.0
 40
1.0
 10
-5.5292934699
 20
-8.3113035326
 30
0.0
 10
-5.5522427576
 20
-8.3420455517
 30
0.0
 10
-5.6053233014
 20
-8.3985667335
 30
0.0
 10
-5.7020397916
 20
-8.4628955266
 30
0.0
 10
-5.8111323108
 20
-8.5032173872
 30
0.0
 10
-5.9266660443
 20
-8.5169469428
 30
0.0
 10
-6.0421999536
 20
-8.5032188629
 30
0.0
 10
-6.1512929863
 20
-8.4628983709
 30
0.0
 10
-6.2480102587
 20
-8.3985707899
 30
0.0
 10
-6.3010914605
 20
-8.3420502638
 30
0.0
 10
-6.3240411215
 20
-8.3113085613
 30
0.0
 11
-5.5292934699
 21
-8.3113035326
 31
0.0
 11
-5.60814603
 21
-8.3951363882
 31
0.0
 11
-5.70407234
 21
-8.4588787313
 31
0.0
 11
-5.812187131
 21
-8.4987803613
 31
0.0
 11
-5.9266660724
 21
-8.5123701442
 31
0.0
 11
-6.041145191
 21
-8.4987818192
 31
0.0
 11
-6.1492604807
 21
-8.4588815503
 31
0.0
 11
-6.2451875941
 21
-8.3951403821
 31
0.0
 11
-6.3240411215
 21
-8.3113085613
 31
0.0
  0
SPLINE
  5
6AA
100
AcDbEntity
  8
RACCORDO
100
AcDbSpline
 62
253
  6
CONTINUOUS
 70
0
 71
3
 72
15
 73
11
 74
9
 42
0.0000001
 43
0.0000001
 44
0.0000000001
 12
-0.5512972966
 22
-0.7384937518
 32
0.0
 13
-0.551304895
 23
0.7384880793
 33
0.0
 40
0.0
 40
0.0
 40
0.0
 40
0.0
 40
0.1248834376
 40
0.2498576829
 40
0.3749072986
 40
0.5000000403
 40
0.6250927859
 40
0.7501423967
 40
0.8751166604
 40
1.0
 40
1.0
 40
1.0
 40
1.0
 10
-0.0292949744
 20
-8.311305546
 30
0.0
 10
-0.0522442749
 20
-8.3420474254
 30
0.0
 10
-0.1053250449
 20
-8.3985681233
 30
0.0
 10
-0.2020414895
 20
-8.4628963751
 30
0.0
 10
-0.3111338621
 20
-8.5032177329
 30
0.0
 10
-0.4266673137
 20
-8.5169469183
 30
0.0
 10
-0.5422008738
 20
-8.5032186154
 30
0.0
 10
-0.6512935404
 20
-8.4628980611
 30
0.0
 10
-0.7480104852
 20
-8.3985705663
 30
0.0
 10
-0.8010915227
 20
-8.3420501805
 30
0.0
 10
-0.8240411215
 20
-8.3113085613
 30
0.0
 11
-0.0292949744
 21
-8.311305546
 31
0.0
 11
-0.1081477086
 21
-8.3951378084
 31
0.0
 11
-0.2040740212
 21
-8.4588795865
 31
0.0
 11
-0.3121886601
 21
-8.4987807292
 31
0.0
 11
-0.4266673308
 21
-8.5123701442
 31
0.0
 11
-0.5411461085
 21
-8.4987815984
 31
0.0
 11
-0.6492610411
 21
-8.4588812652
 31
0.0
 11
-0.745187834
 21
-8.3951401792
 31
0.0
 11
-0.8240411215
 21
-8.3113085613
 31
0.0
  0
LINE
  5
6AB
100
AcDbEntity
  8
RACCORDO
100
AcDbLine
 62
253
  6
CONTINUOUS
 10
5.456575082
 20
-8.1245930368
 11
5.4707016451
 21
-8.3113102421
  0
SPLINE
  5
6AC
100
AcDbEntity
  8
RACCORDO
100
AcDbSpline
 62
253
  6
CONTINUOUS
 70
0
 71
3
 72
15
 73
11
 74
9
 42
0.0000001
 43
0.0000001
 44
0.0000000001
 12
-0.5512979977
 22
-0.7384860391
 32
0.0
 13
-0.55130148
 23
0.7384834394
 33
0.0
 40
0.0
 40
0.0
 40
0.0
 40
0.0
 40
0.124883436
 40
0.2498576849
 40
0.3749073022
 40
0.5000000439
 40
0.6250927885
 40
0.7501423978
 40
0.8751166603
 40
1.0
 40
1.0
 40
1.0
 40
1.0
 10
5.470701577
 20
-8.3113101898
 30
0.0
 10
5.4477522476
 20
-8.3420517478
 30
0.0
 10
5.3946709597
 20
-8.3985713328
 30
0.0
 10
5.2979546227
 20
-8.4628983401
 30
0.0
 10
5.1888625908
 20
-8.5032185432
 30
0.0
 10
5.073329791
 20
-8.5169468813
 30
0.0
 10
4.9577970362
 20
-8.5032180729
 30
0.0
 10
4.8487052109
 20
-8.4628973845
 30
0.0
 10
4.7519890171
 20
-8.3985700966
 30
0.0
 10
4.6989083518
 20
-8.3420500399
 30
0.0
 10
4.6759588951
 20
-8.3113086138
 30
0.0
 11
5.470701577
 21
-8.3113101898
 31
0.0
 11
5.3918484447
 21
-8.3951410881
 31
0.0
 11
5.2959221293
 21
-8.458881567
 31
0.0
 11
5.187807844
 21
-8.4987815911
 31
0.0
 11
5.073329799
 21
-8.5123701643
 31
0.0
 11
4.9588518075
 21
-8.4987811177
 31
0.0
 11
4.8507376955
 21
-8.4588806456
 31
0.0
 11
4.7548116367
 21
-8.3951397577
 31
0.0
 11
4.6759588951
 21
-8.3113086138
 31
0.0
  0
SPLINE
  5
6AD
100
AcDbEntity
  8
RACCORDO
100
AcDbSpline
 62
253
  6
CONTINUOUS
 70
0
 71
3
 72
15
 73
11
 74
9
 42
0.0000001
 43
0.0000001
 44
0.0000000001
 12
0.5512979977
 22
0.7384860391
 32
0.0
 13
0.55130148
 23
-0.7384834394
 33
0.0
 40
0.0
 40
0.0
 40
0.0
 40
0.0
 40
0.124883436
 40
0.2498576849
 40
0.3749073022
 40
0.5000000439
 40
0.6250927885
 40
0.7501423978
 40
0.8751166603
 40
1.0
 40
1.0
 40
1.0
 40
1.0
 10
-6.3240399311
 20
1.6324955652
 30
0.0
 10
-6.3010906017
 20
1.6632371232
 30
0.0
 10
-6.2480093138
 20
1.7197567082
 30
0.0
 10
-6.1512929768
 20
1.7840837155
 30
0.0
 10
-6.0422009449
 20
1.8244039186
 30
0.0
 10
-5.9266681451
 20
1.8381322567
 30
0.0
 10
-5.8111353903
 20
1.8244034483
 30
0.0
 10
-5.702043565
 20
1.7840827599
 30
0.0
 10
-5.6053273711
 20
1.719755472
 30
0.0
 10
-5.5522467058
 20
1.6632354153
 30
0.0
 10
-5.5292972492
 20
1.6324939892
 30
0.0
 11
-6.3240399311
 21
1.6324955652
 31
0.0
 11
-6.2451867987
 21
1.7163264635
 31
0.0
 11
-6.1492604833
 21
1.7800669424
 31
0.0
 11
-6.041146198
 21
1.8199669665
 31
0.0
 11
-5.9266681531
 21
1.8335555396
 31
0.0
 11
-5.8121901616
 21
1.8199664931
 31
0.0
 11
-5.7040760496
 21
1.7800660209
 31
0.0
 11
-5.6081499908
 21
1.7163251331
 31
0.0
 11
-5.5292972492
 21
1.6324939892
 31
0.0
  0
LINE
  5
6AE
100
AcDbEntity
  8
RACCORDO
100
AcDbLine
 62
253
  6
CONTINUOUS
 10
-6.309913436
 20
1.4457784121
 11
-6.3240399992
 21
1.6324956175
  0
SPLINE
  5
6AF
100
AcDbEntity
  8
RACCORDO
100
AcDbSpline
 62
253
  6
CONTINUOUS
 70
0
 71
3
 72
15
 73
11
 74
9
 42
0.0000001
 43
0.0000001
 44
0.0000000001
 12
0.5512971935
 22
0.7384948588
 32
0.0
 13
0.5513053888
 23
-0.7384887408
 33
0.0
 40
0.0
 40
0.0
 40
0.0
 40
0.0
 40
0.1248834379
 40
0.2498576827
 40
0.3749072982
 40
0.5000000397
 40
0.6250927855
 40
0.7501423964
 40
0.8751166603
 40
1.0
 40
1.0
 40
1.0
 40
1.0
 10
-0.8240438771
 20
1.6324902557
 30
0.0
 10
-0.8010945808
 20
1.6632321813
 30
0.0
 10
-0.7480138856
 20
1.7197530392
 30
0.0
 10
-0.6512974259
 20
1.7840814699
 30
0.0
 10
-0.5422050048
 20
1.824402994
 30
0.0
 10
-0.4266714601
 20
1.8381323018
 30
0.0
 10
-0.3111377845
 20
1.8244040726
 30
0.0
 10
-0.2020449968
 20
1.7840835389
 30
0.0
 10
-0.1053279437
 20
1.7197560156
 30
0.0
 10
-0.0522468519
 20
1.6632355834
 30
0.0
 10
-0.0292972325
 20
1.6324939366
 30
0.0
 11
-0.8240438771
 21
1.6324902557
 31
0.0
 11
-0.7451912004
 21
1.7163227142
 31
0.0
 11
-0.6492648887
 21
1.7800646791
 31
0.0
 11
-0.5411501995
 21
1.8199659829
 31
0.0
 11
-0.4266714393
 21
1.8335555196
 31
0.0
 11
-0.3121925489
 21
1.8199670468
 31
0.0
 11
-0.2040774982
 21
1.7800667349
 31
0.0
 11
-0.1081505994
 21
1.7163256217
 31
0.0
 11
-0.0292972325
 21
1.6324939366
 31
0.0
  0
SPLINE
  5
6B0
100
AcDbEntity
  8
RACCORDO
100
AcDbSpline
 62
253
  6
CONTINUOUS
 70
0
 71
3
 72
15
 73
11
 74
9
 42
0.0000001
 43
0.0000001
 44
0.0000000001
 12
0.5512972047
 22
0.7384947385
 32
0.0
 13
0.5513053352
 23
-0.7384886689
 33
0.0
 40
0.0
 40
0.0
 40
0.0
 40
0.0
 40
0.1248834379
 40
0.2498576827
 40
0.3749072982
 40
0.5000000398
 40
0.6250927856
 40
0.7501423965
 40
0.8751166603
 40
1.0
 40
1.0
 40
1.0
 40
1.0
 10
4.675956177
 20
1.632490328
 30
0.0
 10
4.6989054737
 20
1.6632322486
 30
0.0
 10
4.751986177
 20
1.7197530892
 30
0.0
 10
4.8487026351
 20
1.7840815004
 30
0.0
 10
4.9577950509
 20
1.8244030064
 30
0.0
 10
5.0733285855
 20
1.8381323009
 30
0.0
 10
5.1888622486
 20
1.8244040637
 30
0.0
 10
5.2979550231
 20
1.7840835278
 30
0.0
 10
5.3946720644
 20
1.7197560075
 30
0.0
 10
5.4477531503
 20
1.6632355804
 30
0.0
 10
5.4707027675
 20
1.6324939366
 30
0.0
 11
4.675956177
 21
1.632490328
 31
0.0
 11
4.7548088599
 21
1.7163227653
 31
0.0
 11
4.8507351717
 21
1.7800647098
 31
0.0
 11
4.9588498554
 21
1.8199659962
 31
0.0
 11
5.0733286059
 21
1.8335555196
 31
0.0
 11
5.187807484
 21
1.8199670388
 31
0.0
 11
5.2959225219
 21
1.7800667246
 31
0.0
 11
5.3918494093
 21
1.7163256144
 31
0.0
 11
5.4707027675
 21
1.6324939366
 31
0.0
  0
SPLINE
  5
6B1
100
AcDbEntity
  8
RACCORDO
100
AcDbSpline
 62
253
  6
CONTINUOUS
 70
0
 71
3
 72
15
 73
11
 74
9
 42
0.0000001
 43
0.0000001
 44
0.0000000001
 12
0.5512968604
 22
0.7384984383
 32
0.0
 13
0.5513069856
 23
-0.7384908797
 33
0.0
 40
0.0
 40
0.0
 40
0.0
 40
0.0
 40
0.124883439
 40
0.2498576821
 40
0.3749072967
 40
0.500000038
 40
0.6250927841
 40
0.7501423956
 40
0.87511666
 40
1.0
 40
1.0
 40
1.0
 40
1.0
 10
4.6759545145
 20
-11.8675118966
 30
0.0
 10
4.6989037971
 20
-11.8367698217
 30
0.0
 10
4.7519842506
 20
-11.7802484465
 30
0.0
 10
4.848700759
 20
-11.7159194372
 30
0.0
 10
4.9577933368
 20
-11.6755973756
 30
0.0
 10
5.0733271829
 20
-11.661867672
 30
0.0
 10
5.1888612318
 20
-11.6755956628
 30
0.0
 10
5.2979544108
 20
-11.7159161299
 30
0.0
 10
5.3946718142
 20
-11.7802437454
 30
0.0
 10
5.4477530816
 20
-11.8367643275
 30
0.0
 10
5.4707027675
 20
-11.8675060634
 30
0.0
 11
4.6759545145
 21
-11.8675118966
 31
0.0
 11
4.754807005
 21
-11.783678804
 31
0.0
 11
4.850733314
 21
-11.7199362351
 31
0.0
 11
4.9588481658
 21
-11.6800344104
 31
0.0
 11
5.0733272154
 21
-11.6664444804
 31
0.0
 11
5.1878064703
 21
-11.6800327172
 31
0.0
 11
5.2959219027
 21
-11.7199329604
 31
0.0
 11
5.3918491442
 21
-11.7836741615
 31
0.0
 11
5.4707027675
 21
-11.8675060634
 31
0.0
  0
LINE
  5
6B2
100
AcDbEntity
  8
RACCORDO
100
AcDbLine
 62
253
  6
CONTINUOUS
 10
-0.8099134198
 20
-12.0542215691
 11
-0.8240395435
 21
-11.8675037784
  0
SPLINE
  5
6B3
100
AcDbEntity
  8
RACCORDO
100
AcDbSpline
 62
253
  6
CONTINUOUS
 70
0
 71
3
 72
15
 73
11
 74
9
 42
0.0000001
 43
0.0000001
 44
0.0000000001
 12
0.5512981082
 22
0.7384850302
 32
0.0
 13
0.5513010046
 23
-0.738482868
 33
0.0
 40
0.0
 40
0.0
 40
0.0
 40
0.0
 40
0.1248834349
 40
0.2498576843
 40
0.3749073022
 40
0.5000000444
 40
0.6250927894
 40
0.7501423988
 40
0.8751166612
 40
1.0
 40
1.0
 40
1.0
 40
1.0
 10
-0.8240394606
 20
-11.8675038345
 30
0.0
 10
-0.8010901268
 20
-11.8367623188
 30
0.0
 10
-0.7480087679
 20
-11.7802428813
 30
0.0
 10
-0.6512924419
 20
-11.7159160393
 30
0.0
 10
-0.5422004512
 20
-11.6755959912
 30
0.0
 10
-0.4266677338
 20
-11.6618677703
 30
0.0
 10
-0.3111350833
 20
-11.6755966539
 30
0.0
 10
-0.2020433703
 20
-11.7159173706
 30
0.0
 10
-0.105327279
 20
-11.7802446407
 30
0.0
 10
-0.0522466692
 20
-11.8367646613
 30
0.0
 10
-0.0292972325
 20
-11.8675060634
 30
0.0
 11
-0.8240394606
 21
-11.8675038345
 31
0.0
 11
-0.7451862729
 21
-11.783673117
 31
0.0
 11
-0.6492599536
 21
-11.7199328107
 31
0.0
 11
-0.5411457111
 21
-11.680032937
 31
0.0
 11
-0.4266677454
 21
-11.6664444804
 31
0.0
 11
-0.3121898559
 21
-11.6800336013
 31
0.0
 11
-0.2040758532
 21
-11.7199341019
 31
0.0
 11
-0.1081498952
 21
-11.7836749737
 31
0.0
 11
-0.0292972325
 21
-11.8675060634
 31
0.0
  0
LINE
  5
6B4
100
AcDbEntity
  8
RACCORDO
100
AcDbLine
 62
253
  6
CONTINUOUS
 10
-6.309913436
 20
-12.0542215879
 11
-6.3240399992
 21
-11.8675043825
  0
SPLINE
  5
6B5
100
AcDbEntity
  8
RACCORDO
100
AcDbSpline
 62
253
  6
CONTINUOUS
 70
0
 71
3
 72
15
 73
11
 74
9
 42
0.0000001
 43
0.0000001
 44
0.0000000001
 12
0.5512979977
 22
0.7384860391
 32
0.0
 13
0.55130148
 23
-0.7384834394
 33
0.0
 40
0.0
 40
0.0
 40
0.0
 40
0.0
 40
0.124883436
 40
0.2498576849
 40
0.3749073022
 40
0.5000000439
 40
0.6250927885
 40
0.7501423978
 40
0.8751166603
 40
1.0
 40
1.0
 40
1.0
 40
1.0
 10
-6.3240399311
 20
-11.8675044348
 30
0.0
 10
-6.3010906017
 20
-11.8367628768
 30
0.0
 10
-6.2480093138
 20
-11.7802432918
 30
0.0
 10
-6.1512929768
 20
-11.7159162845
 30
0.0
 10
-6.0422009449
 20
-11.6755960814
 30
0.0
 10
-5.9266681451
 20
-11.6618677433
 30
0.0
 10
-5.8111353903
 20
-11.6755965517
 30
0.0
 10
-5.702043565
 20
-11.7159172401
 30
0.0
 10
-5.6053273711
 20
-11.780244528
 30
0.0
 10
-5.5522467058
 20
-11.8367645847
 30
0.0
 10
-5.5292972492
 20
-11.8675060108
 30
0.0
 11
-6.3240399311
 21
-11.8675044348
 31
0.0
 11
-6.2451867987
 21
-11.7836735365
 31
0.0
 11
-6.1492604833
 21
-11.7199330576
 31
0.0
 11
-6.041146198
 21
-11.6800330335
 31
0.0
 11
-5.9266681531
 21
-11.6664444604
 31
0.0
 11
-5.8121901616
 21
-11.6800335069
 31
0.0
 11
-5.7040760496
 21
-11.7199339791
 31
0.0
 11
-5.6081499908
 21
-11.7836748669
 31
0.0
 11
-5.5292972492
 21
-11.8675060108
 31
0.0
  0
SPLINE
  5
6B6
100
AcDbEntity
  8
RACCORDO
100
AcDbSpline
 62
253
  6
CONTINUOUS
 70
0
 71
3
 72
11
 73
7
 74
5
 42
0.0000001
 43
0.0000001
 44
0.0000000001
 12
0.0093970949
 22
0.4727064535
 32
0.0
 13
0.291343012
 23
0.3723693676
 33
0.0
 40
0.0
 40
0.0
 40
0.0
 40
0.0
 40
0.2441426435
 40
0.4907270402
 40
0.7418138531
 40
1.0
 40
1.0
 40
1.0
 40
1.0
 10
-11.2098081807
 20
5.1639521405
 30
0.0
 10
-11.2090434368
 20
5.2024214082
 30
0.0
 10
-11.2017190704
 20
5.2797520781
 30
0.0
 10
-11.173197738
 20
5.3935885672
 30
0.0
 10
-11.126319228
 20
5.5036382936
 30
0.0
 10
-11.0825911349
 20
5.5715426065
 30
0.0
 10
-11.0575175583
 20
5.6035894773
 30
0.0
 11
-11.2098081807
 21
5.1639521405
 31
0.0
 11
-11.1988983728
 21
5.2788660239
 31
0.0
 11
-11.1704908702
 21
5.3919372018
 31
0.0
 11
-11.1238078712
 21
5.5010869411
 31
0.0
 11
-11.0575175583
 21
5.6035894773
 31
0.0
  0
SPLINE
  5
6B7
100
AcDbEntity
  8
RACCORDO
100
AcDbSpline
 62
253
  6
CONTINUOUS
 70
0
 71
3
 72
12
 73
8
 74
6
 42
0.0000001
 43
0.0000001
 44
0.0000000001
 12
0.7270715642
 22
0.929276175
 32
0.0
 13
0.9834061189
 23
0.6519966828
 33
0.0
 40
0.0
 40
0.0
 40
0.0
 40
0.0
 40
0.1041389656
 40
0.2177208231
 40
0.4637434832
 40
0.7269052435
 40
1.0
 40
1.0
 40
1.0
 40
1.0
 10
-11.0575175583
 20
5.6035894773
 30
0.0
 10
-11.0322787314
 20
5.6358474305
 30
0.0
 10
-10.9791566532
 20
5.7030160975
 30
0.0
 10
-10.8625662686
 20
5.8432983165
 30
0.0
 10
-10.6965153264
 20
6.0237098901
 30
0.0
 10
-10.4690512485
 20
6.231521146
 30
0.0
 10
-10.2994789123
 20
6.3577290516
 30
0.0
 10
-10.2099578941
 20
6.4170813434
 30
0.0
 11
-11.0575175583
 21
5.6035894773
 31
0.0
 11
-10.9810910594
 21
5.6998035906
 31
0.0
 11
-10.8953172633
 21
5.8027756199
 31
0.0
 11
-10.6982160732
 21
6.0158865007
 31
0.0
 11
-10.468653546
 21
6.2249695925
 31
0.0
 11
-10.2099578941
 21
6.4170813434
 31
0.0
  0
SPLINE
  5
6B8
100
AcDbEntity
  8
RACCORDO
100
AcDbSpline
 62
253
  6
CONTINUOUS
 70
0
 71
3
 72
11
 73
7
 74
5
 42
0.0000001
 43
0.0000001
 44
0.0000000001
 12
0.0093971101
 22
0.4727064829
 32
0.0
 13
0.2913429456
 23
0.3723694573
 33
0.0
 40
0.0
 40
0.0
 40
0.0
 40
0.0
 40
0.2441424909
 40
0.490726902
 40
0.7418138043
 40
1.0
 40
1.0
 40
1.0
 40
1.0
 10
-11.2098081807
 20
-8.3360478471
 30
0.0
 10
-11.209043436
 20
-8.2975786011
 30
0.0
 10
-11.201719052
 20
-8.220247949
 30
0.0
 10
-11.1731977057
 20
-8.1064114665
 30
0.0
 10
-11.1263192165
 20
-7.9963616973
 30
0.0
 10
-11.0825911158
 20
-7.9284573567
 30
0.0
 10
-11.0575175402
 20
-7.8964104722
 30
0.0
 11
-11.2098081807
 21
-8.3360478471
 31
0.0
 11
-11.198898362
 21
-8.2211340298
 31
0.0
 11
-11.1704908486
 21
-8.1080628401
 31
0.0
 11
-11.1238078516
 21
-7.9989130458
 31
0.0
 11
-11.0575175402
 21
-7.8964104722
 31
0.0
  0
SPLINE
  5
6B9
100
AcDbEntity
  8
RACCORDO
100
AcDbSpline
 62
253
  6
CONTINUOUS
 70
0
 71
3
 72
12
 73
8
 74
6
 42
0.0000001
 43
0.0000001
 44
0.0000000001
 12
0.7270715292
 22
0.9292761378
 32
0.0
 13
0.9834060765
 23
0.6519966547
 33
0.0
 40
0.0
 40
0.0
 40
0.0
 40
0.0
 40
0.1041389605
 40
0.2177208203
 40
0.4637434825
 40
0.7269052436
 40
1.0
 40
1.0
 40
1.0
 40
1.0
 10
-11.0575175402
 20
-7.8964104722
 30
0.0
 10
-11.0322787158
 20
-7.8641525218
 30
0.0
 10
-10.9791566194
 20
-7.7969838754
 30
0.0
 10
-10.8625662504
 20
-7.6567016543
 30
0.0
 10
-10.6965153063
 20
-7.4762900932
 30
0.0
 10
-10.4690512383
 20
-7.2684788453
 30
0.0
 10
-10.2994789084
 20
-7.1422709458
 30
0.0
 10
-10.2099578941
 20
-7.0829186566
 30
0.0
 11
-11.0575175402
 21
-7.8964104722
 31
0.0
 11
-10.9810910342
 21
-7.8001963789
 31
0.0
 11
-10.8953172394
 21
-7.6972243525
 31
0.0
 11
-10.6982160544
 21
-7.4841134805
 31
0.0
 11
-10.4686535352
 21
-7.2750303986
 31
0.0
 11
-10.2099578941
 21
-7.0829186566
 31
0.0
  0
SPLINE
  5
6BA
100
AcDbEntity
  8
RACCORDO
100
AcDbSpline
 62
253
  6
CONTINUOUS
 70
0
 71
3
 72
12
 73
8
 74
6
 42
0.0000001
 43
0.0000001
 44
0.0000000001
 12
-0.9834062378
 22
0.6519966826
 32
0.0
 13
-0.7270716531
 23
0.9292762312
 33
0.0
 40
0.0
 40
0.0
 40
0.0
 40
0.0
 40
0.2730947561
 40
0.536256514
 40
0.7822791682
 40
0.8958610212
 40
1.0
 40
1.0
 40
1.0
 40
1.0
 10
-10.2099578955
 20
0.404104033
 30
0.0
 10
-10.2994789244
 20
0.4634563246
 30
0.0
 10
-10.4690512673
 20
0.5896642493
 30
0.0
 10
-10.6965153662
 20
0.7974755163
 30
0.0
 10
-10.8625663013
 20
0.977887116
 30
0.0
 10
-10.9791567211
 20
1.118169328
 30
0.0
 10
-11.0322787568
 20
1.1853380423
 30
0.0
 10
-11.05751759
 20
1.2175960016
 30
0.0
 11
-10.2099578955
 21
0.404104033
 31
0.0
 11
-10.4686535678
 21
0.5962158009
 31
0.0
 11
-10.6982161096
 21
0.8052989111
 31
0.0
 11
-10.8953173084
 21
1.0184098076
 31
0.0
 11
-10.981091107
 21
1.1213818424
 31
0.0
 11
-11.05751759
 21
1.2175960016
 31
0.0
  0
SPLINE
  5
6BB
100
AcDbEntity
  8
RACCORDO
100
AcDbSpline
 62
253
  6
CONTINUOUS
 70
0
 71
3
 72
11
 73
7
 74
5
 42
0.0000001
 43
0.0000001
 44
0.0000000001
 12
-0.2913422983
 22
0.3723695288
 32
0.0
 13
-0.0093971841
 23
0.4727061388
 33
0.0
 40
0.0
 40
0.0
 40
0.0
 40
0.0
 40
0.2581864108
 40
0.509273174
 40
0.7558574077
 40
1.0
 40
1.0
 40
1.0
 40
1.0
 10
-11.05751759
 20
1.2175960016
 30
0.0
 10
-11.0825911308
 20
1.2496429189
 30
0.0
 10
-11.1263191351
 20
1.3175472551
 30
0.0
 10
-11.1731977161
 20
1.4275968669
 30
0.0
 10
-11.2017190834
 20
1.5414332306
 30
0.0
 10
-11.2090434297
 20
1.6187638168
 30
0.0
 10
-11.2098081807
 20
1.6572330508
 30
0.0
 11
-11.05751759
 21
1.2175960016
 31
0.0
 11
-11.1238078379
 21
1.3200986321
 31
0.0
 11
-11.1704908519
 21
1.429248254
 31
0.0
 11
-11.1988983724
 21
1.5423192684
 31
0.0
 11
-11.2098081807
 21
1.6572330508
 31
0.0
  0
SPLINE
  5
6BC
100
AcDbEntity
  8
RACCORDO
100
AcDbSpline
 62
253
  6
CONTINUOUS
 70
0
 71
3
 72
27
 73
23
 74
21
 42
0.0000001
 43
0.0000001
 44
0.0000000001
 12
-0.1836004916
 22
0.231927584
 32
0.0
 13
-0.2954873843
 23
-0.0136656666
 33
0.0
 40
0.0
 40
0.0
 40
0.0
 40
0.0
 40
0.1947953064
 40
0.3817750856
 40
0.4701348207
 40
0.5539605502
 40
0.6324675515
 40
0.7049213272
 40
0.7706439662
 40
0.8290207936
 40
0.8795060942
 40
0.9216283072
 40
0.9394277298
 40
0.9549948804
 40
0.9682949481
 40
0.9792967474
 40
0.9879761881
 40
0.9943160971
 40
0.9966056598
 40
0.998309502
 40
0.9994328184
 40
1.0
 40
1.0
 40
1.0
 40
1.0
 10
9.5002106122
 20
11.6281752905
 30
0.0
 10
9.4882891075
 20
11.6432347588
 30
0.0
 10
9.4648927509
 20
11.6727244363
 30
0.0
 10
9.4360004532
 20
11.7089749467
 30
0.0
 10
9.4138742641
 20
11.7366261563
 30
0.0
 10
9.3984034086
 20
11.7559046317
 30
0.0
 10
9.3838857636
 20
11.7739371109
 30
0.0
 10
9.3704573129
 20
11.7905548675
 30
0.0
 10
9.3582438594
 20
11.8056024777
 30
0.0
 10
9.3473600026
 20
11.8189393795
 30
0.0
 10
9.3379077713
 20
11.8304409142
 30
0.0
 10
9.3309569704
 20
11.8388193721
 30
0.0
 10
9.326172638
 20
11.8445213413
 30
0.0
 10
9.3231987033
 20
11.8480326273
 30
0.0
 10
9.320639726
 20
11.8510166432
 30
0.0
 10
9.3185019211
 20
11.8534678906
 30
0.0
 10
9.3167908616
 20
11.8553782655
 30
0.0
 10
9.3156264253
 20
11.856629692
 30
0.0
 10
9.314906802
 20
11.8573466544
 30
0.0
 10
9.3145343506
 20
11.857695416
 30
0.0
 10
9.3142780631
 20
11.8578941512
 30
0.0
 10
9.3141263054
 20
11.8579938813
 30
0.0
 10
9.3140704404
 20
11.8579912977
 30
0.0
 11
9.5002106122
 21
11.6281752905
 31
0.0
 11
9.4643966704
 21
11.6733145229
 31
0.0
 11
9.4299207875
 21
11.7165640707
 31
0.0
 11
9.4135900518
 21
11.736971294
 31
0.0
 11
9.3980699433
 21
11.7563094406
 31
0.0
 11
9.3835057854
 21
11.7743974355
 31
0.0
 11
9.3700338799
 21
11.7910659975
 31
0.0
 11
9.35778033
 21
11.8061591007
 31
0.0
 11
9.3468598114
 21
11.8195354958
 31
0.0
 11
9.3373745163
 21
11.8310700093
 31
0.0
 11
9.3294132088
 21
11.8406547027
 31
0.0
 11
9.3260278457
 21
11.8446871801
 31
0.0
 11
9.3230503886
 21
11.8481998792
 31
0.0
 11
9.3204875972
 21
11.8511848502
 31
0.0
 11
9.3183456213
 21
11.8536349213
 31
0.0
 11
9.3166294118
 21
11.8555444241
 31
0.0
 11
9.3153429167
 21
11.8569089482
 31
0.0
 11
9.3148618769
 21
11.8573856891
 31
0.0
 11
9.3144893074
 21
11.857725115
 31
0.0
 11
9.3142254234
 21
11.8579270449
 31
0.0
 11
9.3140704404
 21
11.8579912977
 31
0.0
  0
SPLINE
  5
6BD
100
AcDbEntity
  8
RACCORDO
100
AcDbSpline
 62
253
  6
CONTINUOUS
 70
0
 71
3
 72
12
 73
8
 74
6
 42
0.0000001
 43
0.0000001
 44
0.0000000001
 12
-0.9834059715
 22
0.6519965061
 32
0.0
 13
-0.7270714302
 23
0.9292759999
 33
0.0
 40
0.0
 40
0.0
 40
0.0
 40
0.0
 40
0.2730947568
 40
0.5362565202
 40
0.7822791893
 40
0.8958610568
 40
1.0
 40
1.0
 40
1.0
 40
1.0
 10
-10.2099578955
 20
-13.095895967
 30
0.0
 10
-10.2994789004
 20
-13.0365436913
 30
0.0
 10
-10.4690512044
 20
-12.9103358047
 30
0.0
 10
-10.6965152413
 20
-12.7025245858
 30
0.0
 10
-10.862566191
 20
-12.5221130659
 30
0.0
 10
-10.9791565076
 20
-12.3818308382
 30
0.0
 10
-11.0322786647
 20
-12.3146622605
 30
0.0
 10
-11.0575174815
 20
-12.2824043203
 30
0.0
 11
-10.2099578955
 21
-13.095895967
 31
0.0
 11
-10.4686535012
 21
-12.9037842542
 31
0.0
 11
-10.6982159935
 21
-12.694701205
 31
0.0
 11
-10.8953171609
 21
-12.4815903626
 31
0.0
 11
-10.9810909513
 21
-12.3786183458
 31
0.0
 11
-11.0575174815
 21
-12.2824043203
 31
0.0
  0
SPLINE
  5
6BE
100
AcDbEntity
  8
RACCORDO
100
AcDbSpline
 62
253
  6
CONTINUOUS
 70
0
 71
3
 72
11
 73
7
 74
5
 42
0.0000001
 43
0.0000001
 44
0.0000000001
 12
-0.2913429594
 22
0.3723695946
 32
0.0
 13
-0.0093972072
 23
0.4727065977
 33
0.0
 40
0.0
 40
0.0
 40
0.0
 40
0.0
 40
0.2581861972
 40
0.5092731998
 40
0.7558576241
 40
1.0
 40
1.0
 40
1.0
 40
1.0
 10
-11.0575174815
 20
-12.2824043203
 30
0.0
 10
-11.0825910584
 20
-12.2503574238
 30
0.0
 10
-11.1263192097
 20
-12.1824530716
 30
0.0
 10
-11.1731976626
 20
-12.0724032332
 30
0.0
 10
-11.2017190422
 20
-11.9585667326
 30
0.0
 10
-11.2090434285
 20
-11.881236077
 30
0.0
 10
-11.2098081807
 20
-11.8427668397
 30
0.0
 11
-11.0575174815
 21
-12.2824043203
 31
0.0
 11
-11.1238078193
 21
-12.179901727
 31
0.0
 11
-11.1704908219
 21
-12.0707518517
 31
0.0
 11
-11.1988983517
 21
-11.95768063
 31
0.0
 11
-11.2098081807
 21
-11.8427668397
 31
0.0
  0
LINE
  5
6BF
100
AcDbEntity
  8
RACCORDO
100
AcDbLine
 62
253
  6
CONTINUOUS
 10
8.9694778925
 20
20.5710739913
 11
9.011182108
 21
20.5784307036
  0
SPLINE
  5
6C0
100
AcDbEntity
  8
RACCORDO
100
AcDbSpline
 62
253
  6
CONTINUOUS
 70
0
 71
3
 72
11
 73
7
 74
5
 42
0.0000001
 43
0.0000001
 44
0.0000000001
 12
0.4532355263
 22
0.0799097041
 32
0.0
 13
0.4232975936
 23
-0.1806298712
 33
0.0
 40
0.0
 40
0.0
 40
0.0
 40
0.0
 40
0.2513997016
 40
0.5015513579
 40
0.7507412989
 40
1.0
 40
1.0
 40
1.0
 40
1.0
 10
9.011182108
 20
20.5784307036
 30
0.0
 10
9.0491632
 20
20.5851271289
 30
0.0
 10
9.125760318
 20
20.5943168552
 30
0.0
 10
9.241265686
 20
20.593649121
 30
0.0
 10
9.3552596587
 20
20.5766204204
 30
0.0
 10
9.4284836514
 20
20.5530382888
 30
0.0
 10
9.4636538542
 20
20.5380304331
 30
0.0
 11
9.011182108
 21
20.5784307036
 31
0.0
 11
9.1260939064
 21
20.5919187633
 31
0.0
 11
9.2412157837
 21
20.5909090986
 31
0.0
 11
9.3545799108
 21
20.5735618971
 31
0.0
 11
9.4636538542
 21
20.5380304331
 31
0.0
  0
SPLINE
  5
6C1
100
AcDbEntity
  8
RACCORDO
100
AcDbSpline
 62
253
  6
CONTINUOUS
 70
0
 71
3
 72
15
 73
11
 74
9
 42
0.0000001
 43
0.0000001
 44
0.0000000001
 12
0.8498045126
 22
-0.3888367266
 32
0.0
 13
-0.0364817396
 23
-0.9338258897
 33
0.0
 40
0.0
 40
0.0
 40
0.0
 40
0.0
 40
0.1244807786
 40
0.2491246966
 40
0.373996728
 40
0.4990977497
 40
0.6243643872
 40
0.7496851183
 40
0.8749319527
 40
1.0
 40
1.0
 40
1.0
 40
1.0
 10
9.463653812
 20
20.538030391
 30
0.0
 10
9.4989152545
 20
20.5218961582
 30
0.0
 10
9.567227732
 20
20.4843862924
 30
0.0
 10
9.660376735
 20
20.4137473028
 30
0.0
 10
9.7423286305
 20
20.3300671632
 30
0.0
 10
9.8111948108
 20
20.2350891253
 30
0.0
 10
9.8653720029
 20
20.130870122
 30
0.0
 10
9.9035778876
 20
20.0197422204
 30
0.0
 10
9.9249418341
 20
19.9042778354
 30
0.0
 10
9.9276660881
 20
19.8260125843
 30
0.0
 10
9.9261451881
 20
19.7870819908
 30
0.0
 11
9.463653812
 21
20.538030391
 31
0.0
 11
9.5656189074
 21
20.4820280297
 31
0.0
 11
9.658433176
 21
20.4116422933
 31
0.0
 11
9.7400805566
 21
20.3282633058
 31
0.0
 11
9.8087066786
 21
20.233612378
 31
0.0
 11
9.8626996316
 21
20.1297407381
 31
0.0
 11
9.9007785095
 21
20.0189869835
 31
0.0
 11
9.9220698433
 21
19.9038917926
 31
0.0
 11
9.9261451881
 21
19.7870819908
 31
0.0
  0
SPLINE
  5
6C2
100
AcDbEntity
  8
RACCORDO
100
AcDbSpline
 62
253
  6
CONTINUOUS
 70
0
 71
3
 72
14
 73
10
 74
8
 42
0.0000001
 43
0.0000001
 44
0.0000000001
 12
-0.0000029869
 22
-0.7571372369
 32
0.0
 13
-0.6483982458
 23
-0.3909431037
 33
0.0
 40
0.0
 40
0.0
 40
0.0
 40
0.0
 40
0.1257617181
 40
0.2509983274
 40
0.3755844317
 40
0.4998159908
 40
0.6241528752
 40
0.7489671323
 40
1.0
 40
1.0
 40
1.0
 40
1.0
 10
9.9224297077
 20
12.2504285678
 30
0.0
 10
9.9224295825
 20
12.2186889412
 30
0.0
 10
9.9170113824
 20
12.1552140669
 30
0.0
 10
9.893322092
 20
12.0630268394
 30
0.0
 10
9.855812178
 20
11.976009201
 30
0.0
 10
9.8065505674
 20
11.895416559
 30
0.0
 10
9.7474408991
 20
11.8217215723
 30
0.0
 10
9.6576149034
 20
11.7327466717
 30
0.0
 10
9.5801861513
 20
11.6766861484
 30
0.0
 10
9.5259297276
 20
11.6439729589
 30
0.0
 11
9.9224297077
 21
12.2504285678
 31
0.0
 11
9.9143858799
 21
12.1555500565
 31
0.0
 11
9.8909452074
 21
12.0636718009
 31
0.0
 11
9.8537969608
 21
11.9769658249
 31
0.0
 11
9.804931856
 21
11.8965945055
 31
0.0
 11
9.746196225
 21
11.8230249379
 31
0.0
 11
9.6791866723
 21
11.756389681
 31
0.0
 11
9.5259297276
 21
11.6439729589
 31
0.0
  0
SPLINE
  5
6C3
100
AcDbEntity
  8
RACCORDO
100
AcDbSpline
 62
253
  6
CONTINUOUS
 70
0
 71
3
 72
15
 73
11
 74
9
 42
0.0000001
 43
0.0000001
 44
0.0000000001
 12
-0.8864204563
 22
-1.1728345995
 32
0.0
 13
-0.8864304614
 23
1.1728270377
 33
0.0
 40
0.0
 40
0.0
 40
0.0
 40
0.0
 40
0.125004536
 40
0.2500057648
 40
0.3750037549
 40
0.5000000383
 40
0.6249963254
 40
0.7499943114
 40
0.8749955628
 40
1.0
 40
1.0
 40
1.0
 40
1.0
 10
-5.2908762568
 20
-8.4915079669
 30
0.0
 10
-5.3278117827
 20
-8.5403778485
 30
0.0
 10
-5.4131795933
 20
-8.6300093462
 30
0.0
 10
-5.5682254668
 20
-8.7315364811
 30
0.0
 10
-5.7424988627
 20
-8.7949011484
 30
0.0
 10
-5.9266692607
 20
-8.8164222021
 30
0.0
 10
-6.1108396869
 20
-8.7949011864
 30
0.0
 10
-6.2851130179
 20
-8.7315364552
 30
0.0
 10
-6.4401591215
 20
-8.6300095266
 30
0.0
 10
-6.5255261831
 20
-8.5403774923
 30
0.0
 10
-6.5624620967
 20
-8.4915079644
 30
0.0
 11
-5.2908762568
 21
-8.4915079669
 31
0.0
 11
-5.417680205
 21
-8.6245239222
 31
0.0
 11
-5.5714320731
 21
-8.7251770978
 31
0.0
 11
-5.7441495653
 21
-8.7879275293
 31
0.0
 11
-5.9266692639
 21
-8.8092485564
 31
0.0
 11
-6.1091889706
 21
-8.7879275501
 31
0.0
 11
-6.2819064561
 21
-8.7251771181
 31
0.0
 11
-6.4356583323
 21
-8.6245238944
 31
0.0
 11
-6.5624620967
 21
-8.4915079644
 31
0.0
  0
SPLINE
  5
6C4
100
AcDbEntity
  8
RACCORDO
100
AcDbSpline
 62
253
  6
CONTINUOUS
 70
0
 71
3
 72
15
 73
11
 74
9
 42
0.0000001
 43
0.0000001
 44
0.0000000001
 12
-0.8864204563
 22
-1.1728345995
 32
0.0
 13
-0.8864304614
 23
1.1728270377
 33
0.0
 40
0.0
 40
0.0
 40
0.0
 40
0.0
 40
0.125004536
 40
0.2500057648
 40
0.3750037549
 40
0.5000000383
 40
0.6249963254
 40
0.7499943114
 40
0.8749955628
 40
1.0
 40
1.0
 40
1.0
 40
1.0
 10
0.2091237432
 20
-8.4915079669
 30
0.0
 10
0.1721882173
 20
-8.5403778485
 30
0.0
 10
0.0868204067
 20
-8.6300093462
 30
0.0
 10
-0.0682254668
 20
-8.7315364811
 30
0.0
 10
-0.2424988627
 20
-8.7949011484
 30
0.0
 10
-0.4266692607
 20
-8.8164222021
 30
0.0
 10
-0.6108396869
 20
-8.7949011864
 30
0.0
 10
-0.7851130179
 20
-8.7315364552
 30
0.0
 10
-0.9401591215
 20
-8.6300095266
 30
0.0
 10
-1.0255261831
 20
-8.5403774923
 30
0.0
 10
-1.0624620967
 20
-8.4915079644
 30
0.0
 11
0.2091237432
 21
-8.4915079669
 31
0.0
 11
0.082319795
 21
-8.6245239222
 31
0.0
 11
-0.0714320731
 21
-8.7251770978
 31
0.0
 11
-0.2441495653
 21
-8.7879275293
 31
0.0
 11
-0.4266692639
 21
-8.8092485564
 31
0.0
 11
-0.6091889706
 21
-8.7879275501
 31
0.0
 11
-0.7819064561
 21
-8.7251771181
 31
0.0
 11
-0.9356583323
 21
-8.6245238944
 31
0.0
 11
-1.0624620967
 21
-8.4915079644
 31
0.0
  0
SPLINE
  5
6C5
100
AcDbEntity
  8
RACCORDO
100
AcDbSpline
 62
253
  6
CONTINUOUS
 70
0
 71
3
 72
15
 73
11
 74
9
 42
0.0000001
 43
0.0000001
 44
0.0000000001
 12
-0.8864204539
 22
-1.1728345955
 32
0.0
 13
-0.8864304593
 23
1.1728270335
 33
0.0
 40
0.0
 40
0.0
 40
0.0
 40
0.0
 40
0.1250045357
 40
0.2500057646
 40
0.3750037548
 40
0.5000000383
 40
0.6249963256
 40
0.7499943117
 40
0.8749955632
 40
1.0
 40
1.0
 40
1.0
 40
1.0
 10
5.7091237361
 20
-8.4915079924
 30
0.0
 10
5.6721882103
 20
-8.5403778737
 30
0.0
 10
5.5868204095
 20
-8.6300093802
 30
0.0
 10
5.4317745319
 20
-8.7315365099
 30
0.0
 10
5.257501137
 20
-8.7949011768
 30
0.0
 10
5.0733307392
 20
-8.8164222297
 30
0.0
 10
4.8891603132
 20
-8.7949012151
 30
0.0
 10
4.7148869831
 20
-8.7315364844
 30
0.0
 10
4.5598408752
 20
-8.6300095613
 30
0.0
 10
4.4744738238
 20
-8.5403775179
 30
0.0
 10
4.4375379103
 20
-8.4915079903
 30
0.0
 11
5.7091237361
 21
-8.4915079924
 31
0.0
 11
5.5823197949
 21
-8.624523953
 31
0.0
 11
5.4285679266
 21
-8.7251771274
 31
0.0
 11
5.2558504343
 21
-8.7879275577
 31
0.0
 11
5.073330736
 21
-8.8092485844
 31
0.0
 11
4.8908110296
 21
-8.7879275787
 31
0.0
 11
4.718093544
 21
-8.7251771481
 31
0.0
 11
4.5643416674
 21
-8.6245239257
 31
0.0
 11
4.4375379103
 21
-8.4915079903
 31
0.0
  0
SPLINE
  5
6C6
100
AcDbEntity
  8
RACCORDO
100
AcDbSpline
 62
253
  6
CONTINUOUS
 70
0
 71
3
 72
15
 73
11
 74
9
 42
0.0000001
 43
0.0000001
 44
0.0000000001
 12
0.8864204563
 22
1.1728345995
 32
0.0
 13
0.8864304614
 23
-1.1728270377
 33
0.0
 40
0.0
 40
0.0
 40
0.0
 40
0.0
 40
0.125004536
 40
0.2500057648
 40
0.3750037549
 40
0.5000000383
 40
0.6249963254
 40
0.7499943114
 40
0.8749955628
 40
1.0
 40
1.0
 40
1.0
 40
1.0
 10
4.4375379027
 20
-11.6873066578
 30
0.0
 10
4.4744734286
 20
-11.6384367761
 30
0.0
 10
4.5598412393
 20
-11.5488052784
 30
0.0
 10
4.7148871128
 20
-11.4472781435
 30
0.0
 10
4.8891605087
 20
-11.3839134763
 30
0.0
 10
5.0733309067
 20
-11.3623924226
 30
0.0
 10
5.2575013329
 20
-11.3839134382
 30
0.0
 10
5.4317746639
 20
-11.4472781694
 30
0.0
 10
5.5868207674
 20
-11.548805098
 30
0.0
 10
5.672187829
 20
-11.6384371323
 30
0.0
 10
5.7091237426
 20
-11.6873066603
 30
0.0
 11
4.4375379027
 21
-11.6873066578
 31
0.0
 11
4.564341851
 21
-11.5542907024
 31
0.0
 11
4.718093719
 21
-11.4536375268
 31
0.0
 11
4.8908112112
 21
-11.3908870953
 31
0.0
 11
5.0733309099
 21
-11.3695660682
 31
0.0
 11
5.2558506165
 21
-11.3908870745
 31
0.0
 11
5.428568102
 21
-11.4536375065
 31
0.0
 11
5.5823199783
 21
-11.5542907303
 31
0.0
 11
5.7091237426
 21
-11.6873066603
 31
0.0
  0
SPLINE
  5
6C7
100
AcDbEntity
  8
RACCORDO
100
AcDbSpline
 62
253
  6
CONTINUOUS
 70
0
 71
3
 72
15
 73
11
 74
9
 42
0.0000001
 43
0.0000001
 44
0.0000000001
 12
0.8864204563
 22
1.1728345995
 32
0.0
 13
0.8864304614
 23
-1.1728270377
 33
0.0
 40
0.0
 40
0.0
 40
0.0
 40
0.0
 40
0.125004536
 40
0.2500057648
 40
0.3750037549
 40
0.5000000383
 40
0.6249963254
 40
0.7499943114
 40
0.8749955628
 40
1.0
 40
1.0
 40
1.0
 40
1.0
 10
-1.0624620973
 20
-11.6873066578
 30
0.0
 10
-1.0255265714
 20
-11.6384367761
 30
0.0
 10
-0.9401587607
 20
-11.5488052784
 30
0.0
 10
-0.7851128872
 20
-11.4472781435
 30
0.0
 10
-0.6108394913
 20
-11.3839134763
 30
0.0
 10
-0.4266690933
 20
-11.3623924226
 30
0.0
 10
-0.2424986671
 20
-11.3839134382
 30
0.0
 10
-0.0682253361
 20
-11.4472781694
 30
0.0
 10
0.0868207674
 20
-11.548805098
 30
0.0
 10
0.172187829
 20
-11.6384371323
 30
0.0
 10
0.2091237426
 20
-11.6873066603
 30
0.0
 11
-1.0624620973
 21
-11.6873066578
 31
0.0
 11
-0.935658149
 21
-11.5542907024
 31
0.0
 11
-0.781906281
 21
-11.4536375268
 31
0.0
 11
-0.6091887888
 21
-11.3908870953
 31
0.0
 11
-0.4266690901
 21
-11.3695660682
 31
0.0
 11
-0.2441493835
 21
-11.3908870745
 31
0.0
 11
-0.071431898
 21
-11.4536375065
 31
0.0
 11
0.0823199783
 21
-11.5542907303
 31
0.0
 11
0.2091237426
 21
-11.6873066603
 31
0.0
  0
SPLINE
  5
6C8
100
AcDbEntity
  8
RACCORDO
100
AcDbSpline
 62
253
  6
CONTINUOUS
 70
0
 71
3
 72
15
 73
11
 74
9
 42
0.0000001
 43
0.0000001
 44
0.0000000001
 12
0.8864204539
 22
1.1728345955
 32
0.0
 13
0.8864304593
 23
-1.1728270335
 33
0.0
 40
0.0
 40
0.0
 40
0.0
 40
0.0
 40
0.1250045357
 40
0.2500057646
 40
0.3750037548
 40
0.5000000383
 40
0.6249963256
 40
0.7499943117
 40
0.8749955632
 40
1.0
 40
1.0
 40
1.0
 40
1.0
 10
-6.5624620901
 20
-11.6873066322
 30
0.0
 10
-6.5255265644
 20
-11.6384367509
 30
0.0
 10
-6.4401587636
 20
-11.5488052445
 30
0.0
 10
-6.285112886
 20
-11.4472781147
 30
0.0
 10
-6.1108394911
 20
-11.3839134479
 30
0.0
 10
-5.9266690933
 20
-11.3623923949
 30
0.0
 10
-5.7424986672
 20
-11.3839134096
 30
0.0
 10
-5.5682253372
 20
-11.4472781402
 30
0.0
 10
-5.4131792293
 20
-11.5488050633
 30
0.0
 10
-5.3278121779
 20
-11.6384371067
 30
0.0
 10
-5.2908762644
 20
-11.6873066343
 30
0.0
 11
-6.5624620901
 21
-11.6873066322
 31
0.0
 11
-6.4356581489
 21
-11.5542906717
 31
0.0
 11
-6.2819062806
 21
-11.4536374972
 31
0.0
 11
-6.1091887884
 21
-11.390887067
 31
0.0
 11
-5.9266690901
 21
-11.3695660403
 31
0.0
 11
-5.7441493837
 21
-11.3908870459
 31
0.0
 11
-5.5714318981
 21
-11.4536374765
 31
0.0
 11
-5.4176800215
 21
-11.5542906989
 31
0.0
 11
-5.2908762644
 21
-11.6873066343
 31
0.0
  0
SPLINE
  5
6C9
100
AcDbEntity
  8
RACCORDO
100
AcDbSpline
 62
253
  6
CONTINUOUS
 70
0
 71
3
 72
15
 73
11
 74
9
 42
0.0000001
 43
0.0000001
 44
0.0000000001
 12
-0.8864204563
 22
-1.1728345995
 32
0.0
 13
-0.8864304614
 23
1.1728270377
 33
0.0
 40
0.0
 40
0.0
 40
0.0
 40
0.0
 40
0.125004536
 40
0.2500057648
 40
0.3750037549
 40
0.5000000383
 40
0.6249963254
 40
0.7499943114
 40
0.8749955628
 40
1.0
 40
1.0
 40
1.0
 40
1.0
 10
-5.2908762568
 20
5.0084920331
 30
0.0
 10
-5.3278117827
 20
4.9596221515
 30
0.0
 10
-5.4131795933
 20
4.8699906538
 30
0.0
 10
-5.5682254668
 20
4.7684635189
 30
0.0
 10
-5.7424988627
 20
4.7050988516
 30
0.0
 10
-5.9266692607
 20
4.6835777979
 30
0.0
 10
-6.1108396869
 20
4.7050988136
 30
0.0
 10
-6.2851130179
 20
4.7684635448
 30
0.0
 10
-6.4401591215
 20
4.8699904734
 30
0.0
 10
-6.5255261831
 20
4.9596225077
 30
0.0
 10
-6.5624620967
 20
5.0084920356
 30
0.0
 11
-5.2908762568
 21
5.0084920331
 31
0.0
 11
-5.417680205
 21
4.8754760778
 31
0.0
 11
-5.5714320731
 21
4.7748229022
 31
0.0
 11
-5.7441495653
 21
4.7120724707
 31
0.0
 11
-5.9266692639
 21
4.6907514436
 31
0.0
 11
-6.1091889706
 21
4.7120724499
 31
0.0
 11
-6.2819064561
 21
4.7748228819
 31
0.0
 11
-6.4356583323
 21
4.8754761056
 31
0.0
 11
-6.5624620967
 21
5.0084920356
 31
0.0
  0
SPLINE
  5
6CA
100
AcDbEntity
  8
RACCORDO
100
AcDbSpline
 62
253
  6
CONTINUOUS
 70
0
 71
3
 72
15
 73
11
 74
9
 42
0.0000001
 43
0.0000001
 44
0.0000000001
 12
-0.8864204563
 22
-1.1728345995
 32
0.0
 13
-0.8864304614
 23
1.1728270377
 33
0.0
 40
0.0
 40
0.0
 40
0.0
 40
0.0
 40
0.125004536
 40
0.2500057648
 40
0.3750037549
 40
0.5000000383
 40
0.6249963254
 40
0.7499943114
 40
0.8749955628
 40
1.0
 40
1.0
 40
1.0
 40
1.0
 10
0.2091237432
 20
5.0084920331
 30
0.0
 10
0.1721882173
 20
4.9596221515
 30
0.0
 10
0.0868204067
 20
4.8699906538
 30
0.0
 10
-0.0682254668
 20
4.7684635189
 30
0.0
 10
-0.2424988627
 20
4.7050988516
 30
0.0
 10
-0.4266692607
 20
4.6835777979
 30
0.0
 10
-0.6108396869
 20
4.7050988136
 30
0.0
 10
-0.7851130179
 20
4.7684635448
 30
0.0
 10
-0.9401591215
 20
4.8699904734
 30
0.0
 10
-1.0255261831
 20
4.9596225077
 30
0.0
 10
-1.0624620967
 20
5.0084920356
 30
0.0
 11
0.2091237432
 21
5.0084920331
 31
0.0
 11
0.082319795
 21
4.8754760778
 31
0.0
 11
-0.0714320731
 21
4.7748229022
 31
0.0
 11
-0.2441495653
 21
4.7120724707
 31
0.0
 11
-0.4266692639
 21
4.6907514436
 31
0.0
 11
-0.6091889706
 21
4.7120724499
 31
0.0
 11
-0.7819064561
 21
4.7748228819
 31
0.0
 11
-0.9356583323
 21
4.8754761056
 31
0.0
 11
-1.0624620967
 21
5.0084920356
 31
0.0
  0
SPLINE
  5
6CB
100
AcDbEntity
  8
RACCORDO
100
AcDbSpline
 62
253
  6
CONTINUOUS
 70
0
 71
3
 72
15
 73
11
 74
9
 42
0.0000001
 43
0.0000001
 44
0.0000000001
 12
-0.8864204539
 22
-1.1728345955
 32
0.0
 13
-0.8864304593
 23
1.1728270335
 33
0.0
 40
0.0
 40
0.0
 40
0.0
 40
0.0
 40
0.1250045357
 40
0.2500057646
 40
0.3750037548
 40
0.5000000383
 40
0.6249963256
 40
0.7499943117
 40
0.8749955632
 40
1.0
 40
1.0
 40
1.0
 40
1.0
 10
5.7091237361
 20
5.0084920076
 30
0.0
 10
5.6721882103
 20
4.9596221263
 30
0.0
 10
5.5868204095
 20
4.8699906198
 30
0.0
 10
5.4317745319
 20
4.7684634901
 30
0.0
 10
5.257501137
 20
4.7050988232
 30
0.0
 10
5.0733307392
 20
4.6835777703
 30
0.0
 10
4.8891603132
 20
4.7050987849
 30
0.0
 10
4.7148869831
 20
4.7684635156
 30
0.0
 10
4.5598408752
 20
4.8699904387
 30
0.0
 10
4.4744738238
 20
4.9596224821
 30
0.0
 10
4.4375379103
 20
5.0084920097
 30
0.0
 11
5.7091237361
 21
5.0084920076
 31
0.0
 11
5.5823197949
 21
4.875476047
 31
0.0
 11
5.4285679266
 21
4.7748228726
 31
0.0
 11
5.2558504343
 21
4.7120724423
 31
0.0
 11
5.073330736
 21
4.6907514156
 31
0.0
 11
4.8908110296
 21
4.7120724213
 31
0.0
 11
4.718093544
 21
4.7748228519
 31
0.0
 11
4.5643416674
 21
4.8754760743
 31
0.0
 11
4.4375379103
 21
5.0084920097
 31
0.0
  0
SPLINE
  5
6CC
100
AcDbEntity
  8
RACCORDO
100
AcDbSpline
 62
253
  6
CONTINUOUS
 70
0
 71
3
 72
15
 73
11
 74
9
 42
0.0000001
 43
0.0000001
 44
0.0000000001
 12
0.8864204563
 22
1.1728345995
 32
0.0
 13
0.8864304614
 23
-1.1728270377
 33
0.0
 40
0.0
 40
0.0
 40
0.0
 40
0.0
 40
0.125004536
 40
0.2500057648
 40
0.3750037549
 40
0.5000000383
 40
0.6249963254
 40
0.7499943114
 40
0.8749955628
 40
1.0
 40
1.0
 40
1.0
 40
1.0
 10
4.4375379027
 20
1.8126933422
 30
0.0
 10
4.4744734286
 20
1.8615632239
 30
0.0
 10
4.5598412393
 20
1.9511947216
 30
0.0
 10
4.7148871128
 20
2.0527218565
 30
0.0
 10
4.8891605087
 20
2.1160865237
 30
0.0
 10
5.0733309067
 20
2.1376075774
 30
0.0
 10
5.2575013329
 20
2.1160865618
 30
0.0
 10
5.4317746639
 20
2.0527218306
 30
0.0
 10
5.5868207674
 20
1.951194902
 30
0.0
 10
5.672187829
 20
1.8615628677
 30
0.0
 10
5.7091237426
 20
1.8126933397
 30
0.0
 11
4.4375379027
 21
1.8126933422
 31
0.0
 11
4.564341851
 21
1.9457092976
 31
0.0
 11
4.718093719
 21
2.0463624732
 31
0.0
 11
4.8908112112
 21
2.1091129047
 31
0.0
 11
5.0733309099
 21
2.1304339318
 31
0.0
 11
5.2558506165
 21
2.1091129255
 31
0.0
 11
5.428568102
 21
2.0463624935
 31
0.0
 11
5.5823199783
 21
1.9457092697
 31
0.0
 11
5.7091237426
 21
1.8126933397
 31
0.0
  0
SPLINE
  5
6CD
100
AcDbEntity
  8
RACCORDO
100
AcDbSpline
 62
253
  6
CONTINUOUS
 70
0
 71
3
 72
15
 73
11
 74
9
 42
0.0000001
 43
0.0000001
 44
0.0000000001
 12
0.8864204563
 22
1.1728345995
 32
0.0
 13
0.8864304614
 23
-1.1728270377
 33
0.0
 40
0.0
 40
0.0
 40
0.0
 40
0.0
 40
0.125004536
 40
0.2500057648
 40
0.3750037549
 40
0.5000000383
 40
0.6249963254
 40
0.7499943114
 40
0.8749955628
 40
1.0
 40
1.0
 40
1.0
 40
1.0
 10
-1.0624620973
 20
1.8126933422
 30
0.0
 10
-1.0255265714
 20
1.8615632239
 30
0.0
 10
-0.9401587607
 20
1.9511947216
 30
0.0
 10
-0.7851128872
 20
2.0527218565
 30
0.0
 10
-0.6108394913
 20
2.1160865237
 30
0.0
 10
-0.4266690933
 20
2.1376075774
 30
0.0
 10
-0.2424986671
 20
2.1160865618
 30
0.0
 10
-0.0682253361
 20
2.0527218306
 30
0.0
 10
0.0868207674
 20
1.951194902
 30
0.0
 10
0.172187829
 20
1.8615628677
 30
0.0
 10
0.2091237426
 20
1.8126933397
 30
0.0
 11
-1.0624620973
 21
1.8126933422
 31
0.0
 11
-0.935658149
 21
1.9457092976
 31
0.0
 11
-0.781906281
 21
2.0463624732
 31
0.0
 11
-0.6091887888
 21
2.1091129047
 31
0.0
 11
-0.4266690901
 21
2.1304339318
 31
0.0
 11
-0.2441493835
 21
2.1091129255
 31
0.0
 11
-0.071431898
 21
2.0463624935
 31
0.0
 11
0.0823199783
 21
1.9457092697
 31
0.0
 11
0.2091237426
 21
1.8126933397
 31
0.0
  0
SPLINE
  5
6CE
100
AcDbEntity
  8
RACCORDO
100
AcDbSpline
 62
253
  6
CONTINUOUS
 70
0
 71
3
 72
15
 73
11
 74
9
 42
0.0000001
 43
0.0000001
 44
0.0000000001
 12
0.8864204539
 22
1.1728345955
 32
0.0
 13
0.8864304593
 23
-1.1728270335
 33
0.0
 40
0.0
 40
0.0
 40
0.0
 40
0.0
 40
0.1250045357
 40
0.2500057646
 40
0.3750037548
 40
0.5000000383
 40
0.6249963256
 40
0.7499943117
 40
0.8749955632
 40
1.0
 40
1.0
 40
1.0
 40
1.0
 10
-6.5624620901
 20
1.8126933678
 30
0.0
 10
-6.5255265644
 20
1.8615632491
 30
0.0
 10
-6.4401587636
 20
1.9511947555
 30
0.0
 10
-6.285112886
 20
2.0527218853
 30
0.0
 10
-6.1108394911
 20
2.1160865521
 30
0.0
 10
-5.9266690933
 20
2.1376076051
 30
0.0
 10
-5.7424986672
 20
2.1160865904
 30
0.0
 10
-5.5682253372
 20
2.0527218598
 30
0.0
 10
-5.4131792293
 20
1.9511949367
 30
0.0
 10
-5.3278121779
 20
1.8615628933
 30
0.0
 10
-5.2908762644
 20
1.8126933657
 30
0.0
 11
-6.5624620901
 21
1.8126933678
 31
0.0
 11
-6.4356581489
 21
1.9457093283
 31
0.0
 11
-6.2819062806
 21
2.0463625028
 31
0.0
 11
-6.1091887884
 21
2.109112933
 31
0.0
 11
-5.9266690901
 21
2.1304339597
 31
0.0
 11
-5.7441493837
 21
2.1091129541
 31
0.0
 11
-5.5714318981
 21
2.0463625235
 31
0.0
 11
-5.4176800215
 21
1.9457093011
 31
0.0
 11
-5.2908762644
 21
1.8126933657
 31
0.0
  0
SPLINE
  5
6CF
100
AcDbEntity
  8
RACCORDO
100
AcDbSpline
 62
253
  6
CONTINUOUS
 70
0
 71
3
 72
11
 73
7
 74
5
 42
0.0000001
 43
0.0000001
 44
0.0000000001
 12
-0.0093971039
 22
-0.4727065065
 32
0.0
 13
-0.2913430208
 23
-0.3723694283
 33
0.0
 40
0.0
 40
0.0
 40
0.0
 40
0.0
 40
0.2441425772
 40
0.4907269908
 40
0.7418138484
 40
1.0
 40
1.0
 40
1.0
 40
1.0
 10
10.3564698266
 20
-11.8427667538
 30
0.0
 10
10.3557050822
 20
-11.8812360154
 30
0.0
 10
10.3483807074
 20
-11.9585666857
 30
0.0
 10
10.319859369
 20
-12.0724031844
 30
0.0
 10
10.2729808732
 20
-12.1824529434
 30
0.0
 10
10.2292527669
 20
-12.2503572686
 30
0.0
 10
10.2041791891
 20
-12.2824041452
 30
0.0
 11
10.3564698266
 21
-11.8427667538
 31
0.0
 11
10.3455600135
 21
-11.9576806183
 31
0.0
 11
10.3171525062
 21
-12.0707518167
 31
0.0
 11
10.2704695077
 21
-12.1799015938
 31
0.0
 11
10.2041791891
 21
-12.2824041452
 31
0.0
  0
SPLINE
  5
6D0
100
AcDbEntity
  8
RACCORDO
100
AcDbSpline
 62
253
  6
CONTINUOUS
 70
0
 71
3
 72
12
 73
8
 74
6
 42
0.0000001
 43
0.0000001
 44
0.0000000001
 12
-0.7270715343
 22
-0.9292761435
 32
0.0
 13
-0.9834060828
 23
-0.6519966589
 33
0.0
 40
0.0
 40
0.0
 40
0.0
 40
0.0
 40
0.1041389611
 40
0.2177208205
 40
0.4637434825
 40
0.7269052435
 40
1.0
 40
1.0
 40
1.0
 40
1.0
 10
10.2041791891
 20
-12.2824041452
 30
0.0
 10
10.1789403643
 20
-12.3146620959
 30
0.0
 10
10.1258182703
 20
-12.381830745
 30
0.0
 10
10.0092278993
 20
-12.5221129659
 30
0.0
 10
9.8431769553
 20
-12.7025245288
 30
0.0
 10
9.6157128858
 20
-12.910335778
 30
0.0
 10
9.4461405549
 20
-13.0365436784
 30
0.0
 10
9.35661954
 20
-13.095895968
 30
0.0
 11
10.2041791891
 21
-12.2824041452
 31
0.0
 11
10.127752684
 21
-12.3786182411
 31
0.0
 11
10.041978889
 21
-12.4815902679
 31
0.0
 11
9.8448777032
 21
-12.6947011412
 31
0.0
 11
9.6153151828
 21
-12.9037842247
 31
0.0
 11
9.35661954
 21
-13.095895968
 31
0.0
  0
SPLINE
  5
6D1
100
AcDbEntity
  8
RACCORDO
100
AcDbSpline
 62
253
  6
CONTINUOUS
 70
0
 71
3
 72
12
 73
8
 74
6
 42
0.0000001
 43
0.0000001
 44
0.0000000001
 12
0.9834060864
 22
-0.6519965823
 32
0.0
 13
0.7270715273
 23
-0.9292760991
 33
0.0
 40
0.0
 40
0.0
 40
0.0
 40
0.0
 40
0.2730947562
 40
0.5362565168
 40
0.7822791792
 40
0.8958610403
 40
1.0
 40
1.0
 40
1.0
 40
1.0
 10
9.3566195414
 20
-7.0829186576
 30
0.0
 10
9.4461405566
 20
-7.1422709401
 30
0.0
 10
9.6157128771
 20
-7.268478843
 30
0.0
 10
9.8431769408
 20
-7.4762900822
 30
0.0
 10
10.0092278833
 20
-7.6567016369
 30
0.0
 10
10.1258182461
 20
-7.7969838568
 30
0.0
 10
10.1789403485
 20
-7.8641524958
 30
0.0
 10
10.2041791726
 20
-7.8964104446
 30
0.0
 11
9.3566195414
 21
-7.0829186576
 31
0.0
 11
9.6153151755
 21
-7.2750303939
 31
0.0
 11
9.844877689
 21
-7.4841134692
 31
0.0
 11
10.0419788698
 21
-7.6972243346
 31
0.0
 11
10.1277526637
 21
-7.8001963591
 31
0.0
 11
10.2041791726
 21
-7.8964104446
 31
0.0
  0
SPLINE
  5
6D2
100
AcDbEntity
  8
RACCORDO
100
AcDbSpline
 62
253
  6
CONTINUOUS
 70
0
 71
3
 72
11
 73
7
 74
5
 42
0.0000001
 43
0.0000001
 44
0.0000000001
 12
0.2913422243
 22
-0.3723695633
 32
0.0
 13
0.0093971999
 23
-0.4727061201
 33
0.0
 40
0.0
 40
0.0
 40
0.0
 40
0.0
 40
0.2581865194
 40
0.5092734695
 40
0.7558576244
 40
1.0
 40
1.0
 40
1.0
 40
1.0
 10
10.2041791726
 20
-7.8964104446
 30
0.0
 10
10.2292527176
 20
-7.9284573784
 30
0.0
 10
10.2729807428
 20
-7.9963617558
 30
0.0
 10
10.3198592747
 20
-8.1064114176
 30
0.0
 10
10.3483807139
 20
-8.2202477364
 30
0.0
 10
10.355705075
 20
-8.2975782745
 30
0.0
 10
10.3564698266
 20
-8.3360474729
 30
0.0
 11
10.2041791726
 21
-7.8964104446
 31
0.0
 11
10.2704694283
 21
-7.9989131256
 31
0.0
 11
10.3171524463
 21
-8.1080628368
 31
0.0
 11
10.3455600007
 21
-8.2211337996
 31
0.0
 11
10.3564698266
 21
-8.3360474729
 31
0.0
  0
SPLINE
  5
6D3
100
AcDbEntity
  8
RACCORDO
100
AcDbSpline
 62
253
  6
CONTINUOUS
 70
0
 71
3
 72
11
 73
7
 74
5
 42
0.0000001
 43
0.0000001
 44
0.0000000001
 12
-0.0093971101
 22
-0.4727064829
 32
0.0
 13
-0.2913429457
 23
-0.3723694573
 33
0.0
 40
0.0
 40
0.0
 40
0.0
 40
0.0
 40
0.244142491
 40
0.4907269021
 40
0.7418138044
 40
1.0
 40
1.0
 40
1.0
 40
1.0
 10
10.3564698266
 20
1.6572332225
 30
0.0
 10
10.355705082
 20
1.6187639764
 30
0.0
 10
10.3483806979
 20
1.5414333244
 30
0.0
 10
10.3198593516
 20
1.4275968419
 30
0.0
 10
10.2729808625
 20
1.3175470727
 30
0.0
 10
10.2292527617
 20
1.2496427321
 30
0.0
 10
10.2041791861
 20
1.2175958476
 30
0.0
 11
10.3564698266
 21
1.6572332225
 31
0.0
 11
10.3455600079
 21
1.5423194052
 31
0.0
 11
10.3171524945
 21
1.4292482155
 31
0.0
 11
10.2704694976
 21
1.3200984212
 31
0.0
 11
10.2041791861
 21
1.2175958476
 31
0.0
  0
SPLINE
  5
6D4
100
AcDbEntity
  8
RACCORDO
100
AcDbSpline
 62
253
  6
CONTINUOUS
 70
0
 71
3
 72
12
 73
8
 74
6
 42
0.0000001
 43
0.0000001
 44
0.0000000001
 12
-0.7270715293
 22
-0.9292761379
 32
0.0
 13
-0.9834060765
 23
-0.6519966547
 33
0.0
 40
0.0
 40
0.0
 40
0.0
 40
0.0
 40
0.1041389605
 40
0.2177208203
 40
0.4637434825
 40
0.7269052436
 40
1.0
 40
1.0
 40
1.0
 40
1.0
 10
10.2041791861
 20
1.2175958476
 30
0.0
 10
10.1789403617
 20
1.1853378972
 30
0.0
 10
10.1258182653
 20
1.1181692508
 30
0.0
 10
10.0092278964
 20
0.9778870297
 30
0.0
 10
9.8431769523
 20
0.7974754686
 30
0.0
 10
9.6157128842
 20
0.5896642207
 30
0.0
 10
9.4461405543
 20
0.4634563212
 30
0.0
 10
9.35661954
 20
0.404104032
 30
0.0
 11
10.2041791861
 21
1.2175958476
 31
0.0
 11
10.1277526801
 21
1.1213817543
 31
0.0
 11
10.0419788854
 21
1.0184097279
 31
0.0
 11
9.8448777004
 21
0.8052988559
 31
0.0
 11
9.6153151812
 21
0.5962157739
 31
0.0
 11
9.35661954
 21
0.404104032
 31
0.0
  0
SPLINE
  5
6D5
100
AcDbEntity
  8
RACCORDO
100
AcDbSpline
 62
253
  6
CONTINUOUS
 70
0
 71
3
 72
13
 73
9
 74
7
 42
0.0000001
 43
0.0000001
 44
0.0000000001
 12
0.9026293685
 22
0.8708093285
 32
0.0
 13
1.1172984745
 23
0.5698182012
 33
0.0
 40
0.0
 40
0.0
 40
0.0
 40
0.0
 40
0.0966108677
 40
0.2048649821
 40
0.3224305081
 40
0.4476851078
 40
0.7162343435
 40
1.0
 40
1.0
 40
1.0
 40
1.0
 10
-11.082070335
 20
-8.0875848666
 30
0.0
 10
-11.0530023995
 20
-8.0595416516
 30
0.0
 10
-10.9911327909
 20
-8.000310594
 30
0.0
 10
-10.891703459
 20
-7.9092673662
 30
0.0
 10
-10.780411789
 20
-7.8135296927
 30
0.0
 10
-10.6132663099
 20
-7.680160726
 30
0.0
 10
-10.3808092497
 20
-7.5176168707
 30
0.0
 10
-10.179866155
 20
-7.4030529811
 30
0.0
 10
-10.07418251
 20
-7.3491547024
 30
0.0
 11
-11.082070335
 21
-8.0875848666
 31
0.0
 11
-10.9943587382
 21
-8.0039847662
 31
0.0
 11
-10.8941270682
 21
-7.9123982161
 31
0.0
 11
-10.7822882689
 21
-7.8163033902
 31
0.0
 11
-10.6594573578
 21
-7.7183662723
 31
0.0
 11
-10.3833208441
 21
-7.5255066398
 31
0.0
 11
-10.07418251
 21
-7.3491547024
 31
0.0
  0
SPLINE
  5
6D6
100
AcDbEntity
  8
RACCORDO
100
AcDbSpline
 62
253
  6
CONTINUOUS
 70
0
 71
3
 72
13
 73
9
 74
7
 42
0.0000001
 43
0.0000001
 44
0.0000000001
 12
-1.1172980865
 22
0.5698179978
 32
0.0
 13
-0.9026290902
 23
0.8708089861
 33
0.0
 40
0.0
 40
0.0
 40
0.0
 40
0.0
 40
0.2837656318
 40
0.5523148554
 40
0.6775694567
 40
0.7951349916
 40
0.9033891266
 40
1.0
 40
1.0
 40
1.0
 40
1.0
 10
-10.07418251
 20
-12.8296599222
 30
0.0
 10
-10.1798661091
 20
-12.7757616675
 30
0.0
 10
-10.3808091219
 20
-12.6611978292
 30
0.0
 10
-10.6132660985
 20
-12.4986540532
 30
0.0
 10
-10.7804115289
 20
-12.3652851464
 30
0.0
 10
-10.8917031788
 20
-12.2695475082
 30
0.0
 10
-10.991132491
 20
-12.1785043068
 30
0.0
 10
-11.0530020959
 20
-12.1192732727
 30
0.0
 10
-11.0820700241
 20
-12.0912300671
 30
0.0
 11
-10.07418251
 21
-12.8296599222
 31
0.0
 11
-10.3833207128
 21
-12.6533080681
 31
0.0
 11
-10.6594571289
 21
-12.4604485276
 31
0.0
 11
-10.7822880062
 21
-12.3625114523
 31
0.0
 11
-10.894126783
 21
-12.2664166618
 31
0.0
 11
-10.9943584438
 21
-12.1748301339
 31
0.0
 11
-11.0820700241
 21
-12.0912300671
 31
0.0
  0
SPLINE
  5
6D7
100
AcDbEntity
  8
RACCORDO
100
AcDbSpline
 62
253
  6
CONTINUOUS
 70
0
 71
3
 72
13
 73
9
 74
7
 42
0.0000001
 43
0.0000001
 44
0.0000000001
 12
1.1172976749
 22
-0.5698177879
 32
0.0
 13
0.9026288087
 23
-0.8708086124
 33
0.0
 40
0.0
 40
0.0
 40
0.0
 40
0.0
 40
0.283765575
 40
0.5523147605
 40
0.6775693537
 40
0.79513489
 40
0.9033890392
 40
1.0
 40
1.0
 40
1.0
 40
1.0
 10
9.2208441559
 20
-7.3491547024
 30
0.0
 10
9.326527695
 20
-7.4030529265
 30
0.0
 10
9.5274706019
 20
-7.5176166973
 30
0.0
 10
9.7599274693
 20
-7.6801603709
 30
0.0
 10
9.9270728379
 20
-7.813529199
 30
0.0
 10
10.0383644578
 20
-7.9092667937
 30
0.0
 10
10.1377937812
 20
-8.0003099734
 30
0.0
 10
10.199663384
 20
-8.0595410256
 30
0.0
 10
10.2287313295
 20
-8.0875842445
 30
0.0
 11
9.2208441559
 21
-7.3491547024
 31
0.0
 11
9.5299821878
 21
-7.525506448
 31
0.0
 11
9.8061184773
 21
-7.7183658693
 31
0.0
 11
9.9289493114
 21
-7.8163028897
 31
0.0
 11
10.0407880588
 21
-7.9123976337
 31
0.0
 11
10.1410197053
 21
-8.0039841296
 31
0.0
 11
10.2287313295
 21
-8.0875842445
 31
0.0
  0
SPLINE
  5
6D8
100
AcDbEntity
  8
RACCORDO
100
AcDbSpline
 62
253
  6
CONTINUOUS
 70
0
 71
3
 72
13
 73
9
 74
7
 42
0.0000001
 43
0.0000001
 44
0.0000000001
 12
-0.9026294352
 22
-0.8708094182
 32
0.0
 13
-1.1172985727
 23
-0.5698182513
 33
0.0
 40
0.0
 40
0.0
 40
0.0
 40
0.0
 40
0.0966108573
 40
0.2048649675
 40
0.322430492
 40
0.4476850924
 40
0.7162343338
 40
1.0
 40
1.0
 40
1.0
 40
1.0
 10
10.2287320606
 20
-12.0912296817
 30
0.0
 10
10.1996641261
 20
-12.1192728965
 30
0.0
 10
10.1377945166
 20
-12.1785039553
 30
0.0
 10
10.0383651833
 20
-12.2695471891
 30
0.0
 10
9.9270735073
 20
-12.3652848722
 30
0.0
 10
9.7599280148
 20
-12.4986538556
 30
0.0
 10
9.5274709312
 20
-12.6611977329
 30
0.0
 10
9.3265278138
 20
-12.775761637
 30
0.0
 10
9.2208441559
 20
-12.8296599222
 30
0.0
 11
10.2287320606
 21
-12.0912296817
 31
0.0
 11
10.1410204663
 21
-12.1748297814
 31
0.0
 11
10.0407887934
 21
-12.266416338
 31
0.0
 11
9.9289499879
 21
-12.3625111738
 31
0.0
 11
9.8061190675
 21
-12.4604483035
 31
0.0
 11
9.5299825267
 21
-12.6533079615
 31
0.0
 11
9.2208441559
 21
-12.8296599222
 31
0.0
  0
SPLINE
  5
6D9
100
AcDbEntity
  8
RACCORDO
100
AcDbSpline
 62
253
  6
CONTINUOUS
 70
0
 71
3
 72
13
 73
9
 74
7
 42
0.0000001
 43
0.0000001
 44
0.0000000001
 12
-1.1172980464
 22
0.5698179774
 32
0.0
 13
-0.9026290634
 23
0.8708089491
 33
0.0
 40
0.0
 40
0.0
 40
0.0
 40
0.0
 40
0.2837655969
 40
0.5523147918
 40
0.6775693823
 40
0.795134909
 40
0.9033890384
 40
1.0
 40
1.0
 40
1.0
 40
1.0
 10
-10.07418251
 20
0.6703400778
 30
0.0
 10
-10.1798660923
 20
0.724238324
 30
0.0
 10
-10.3808090756
 20
0.8388021432
 30
0.0
 10
-10.6132660211
 20
1.001345891
 30
0.0
 10
-10.7804114349
 20
1.1347147747
 30
0.0
 10
-10.8917030732
 20
1.2304524023
 30
0.0
 10
-10.9911324174
 20
1.3214956079
 30
0.0
 10
-11.0530020248
 20
1.3807266851
 30
0.0
 10
-11.0820699787
 20
1.4087699151
 30
0.0
 11
-10.07418251
 21
0.6703400778
 31
0.0
 11
-10.383320665
 21
0.8466919015
 31
0.0
 11
-10.6594570456
 21
1.0395514087
 31
0.0
 11
-10.7822879108
 21
1.1374884686
 31
0.0
 11
-10.8941266788
 21
1.2335832453
 31
0.0
 11
-10.9943583339
 21
1.3251697619
 31
0.0
 11
-11.0820699787
 21
1.4087699151
 31
0.0
  0
SPLINE
  5
6DA
100
AcDbEntity
  8
RACCORDO
100
AcDbSpline
 62
253
  6
CONTINUOUS
 70
0
 71
3
 72
13
 73
9
 74
7
 42
0.0000001
 43
0.0000001
 44
0.0000000001
 12
0.9026295046
 22
0.8708095108
 32
0.0
 13
1.1172986745
 23
0.5698183032
 33
0.0
 40
0.0
 40
0.0
 40
0.0
 40
0.0
 40
0.0966108558
 40
0.2048649607
 40
0.3224304828
 40
0.4476850826
 40
0.7162343272
 40
1.0
 40
1.0
 40
1.0
 40
1.0
 10
-11.0820704958
 20
5.4124149764
 30
0.0
 10
-11.0530025595
 20
5.4404581938
 30
0.0
 10
-10.9911329488
 20
5.4996892585
 30
0.0
 10
-10.8917036104
 20
5.5907324994
 30
0.0
 10
-10.7804119292
 20
5.6864701915
 30
0.0
 10
-10.6132664241
 20
5.8198391905
 30
0.0
 10
-10.3808093187
 20
5.9823830886
 30
0.0
 10
-10.17986618
 20
6.0969470062
 30
0.0
 10
-10.07418251
 20
6.1508452976
 30
0.0
 11
-11.0820704958
 21
5.4124149764
 31
0.0
 11
-10.9943588972
 21
5.4960150848
 31
0.0
 11
-10.8941272218
 21
5.5876016473
 31
0.0
 11
-10.7822884105
 21
5.6836964923
 31
0.0
 11
-10.6594574815
 21
5.781633633
 31
0.0
 11
-10.3833209152
 21
5.9744933151
 31
0.0
 11
-10.07418251
 21
6.1508452976
 31
0.0
  0
SPLINE
  5
6DB
100
AcDbEntity
  8
RACCORDO
100
AcDbSpline
 62
253
  6
CONTINUOUS
 70
0
 71
3
 72
13
 73
9
 74
7
 42
0.0000001
 43
0.0000001
 44
0.0000000001
 12
-0.9026293686
 22
-0.8708093286
 32
0.0
 13
-1.1172984746
 23
-0.5698182012
 33
0.0
 40
0.0
 40
0.0
 40
0.0
 40
0.0
 40
0.0966108677
 40
0.2048649821
 40
0.3224305081
 40
0.4476851078
 40
0.7162343435
 40
1.0
 40
1.0
 40
1.0
 40
1.0
 10
10.228731981
 20
1.408770242
 30
0.0
 10
10.1996640455
 20
1.3807270271
 30
0.0
 10
10.1377944369
 20
1.3214959694
 30
0.0
 10
10.038365105
 20
1.2304527416
 30
0.0
 10
9.927073435
 20
1.1347150681
 30
0.0
 10
9.7599279559
 20
1.0013461014
 30
0.0
 10
9.5274708956
 20
0.8388022461
 30
0.0
 10
9.326527801
 20
0.7242383565
 30
0.0
 10
9.2208441559
 20
0.6703400778
 30
0.0
 11
10.228731981
 21
1.408770242
 31
0.0
 11
10.1410203842
 21
1.3251701416
 31
0.0
 11
10.0407887142
 21
1.2335835916
 31
0.0
 11
9.9289499149
 21
1.1374887656
 31
0.0
 11
9.8061190038
 21
1.0395516477
 31
0.0
 11
9.5299824901
 21
0.8466920152
 31
0.0
 11
9.2208441559
 21
0.6703400778
 31
0.0
  0
SPLINE
  5
6DC
100
AcDbEntity
  8
RACCORDO
100
AcDbSpline
 62
253
  6
CONTINUOUS
 70
0
 71
3
 72
13
 73
9
 74
7
 42
0.0000001
 43
0.0000001
 44
0.0000000001
 12
1.1172981258
 22
-0.5698180179
 32
0.0
 13
0.9026291172
 23
-0.8708090217
 33
0.0
 40
0.0
 40
0.0
 40
0.0
 40
0.0
 40
0.2837656353
 40
0.5523148609
 40
0.6775694623
 40
0.7951349966
 40
0.9033891298
 40
1.0
 40
1.0
 40
1.0
 40
1.0
 10
9.2208441559
 20
6.1508452976
 30
0.0
 10
9.3265277601
 20
6.0969470403
 30
0.0
 10
9.5274707817
 20
5.9823831963
 30
0.0
 10
9.7599277674
 20
5.8198394118
 30
0.0
 10
9.9270732031
 20
5.6864704985
 30
0.0
 10
10.0383648552
 20
5.5907328566
 30
0.0
 10
10.1377941684
 20
5.4996896527
 30
0.0
 10
10.1996637736
 20
5.4404586176
 30
0.0
 10
10.2287317018
 20
5.4124154118
 30
0.0
 11
9.2208441559
 21
6.1508452976
 31
0.0
 11
9.5299823731
 21
5.9744934344
 31
0.0
 11
9.8061187997
 21
5.7816338839
 31
0.0
 11
9.9289496806
 21
5.683696804
 31
0.0
 11
10.0407884598
 21
5.5876020097
 31
0.0
 11
10.1410201218
 21
5.4960154793
 31
0.0
 11
10.2287317018
 21
5.4124154118
 31
0.0
  0
SPLINE
  5
6DD
100
AcDbEntity
  8
RACCORDO
100
AcDbSpline
 62
253
  6
CONTINUOUS
 70
0
 71
3
 72
12
 73
8
 74
6
 42
0.0000001
 43
0.0000001
 44
0.0000000001
 12
0.9834059772
 22
-0.6519965098
 32
0.0
 13
0.7270714349
 23
-0.9292760049
 33
0.0
 40
0.0
 40
0.0
 40
0.0
 40
0.0
 40
0.2730947569
 40
0.5362565201
 40
0.7822791889
 40
0.8958610561
 40
1.0
 40
1.0
 40
1.0
 40
1.0
 10
9.3566195414
 20
6.4170813424
 30
0.0
 10
9.4461405469
 20
6.3577290663
 30
0.0
 10
9.6157128517
 20
6.2315211789
 30
0.0
 10
9.8431768899
 20
6.0237099589
 30
0.0
 10
10.0092278394
 20
5.8432984374
 30
0.0
 10
10.125818158
 20
5.7030162099
 30
0.0
 10
10.1789403128
 20
5.6358476295
 30
0.0
 10
10.2041791299
 20
5.6035896889
 30
0.0
 11
9.3566195414
 21
6.4170813424
 31
0.0
 11
9.6153151485
 21
6.2249696284
 31
0.0
 11
9.8448776419
 21
6.0158865778
 31
0.0
 11
10.04197881
 21
5.8027757343
 31
0.0
 11
10.1277526006
 21
5.699803717
 31
0.0
 11
10.2041791299
 21
5.6035896889
 31
0.0
  0
SPLINE
  5
6DE
100
AcDbEntity
  8
RACCORDO
100
AcDbSpline
 62
253
  6
CONTINUOUS
 70
0
 71
3
 72
11
 73
7
 74
5
 42
0.0000001
 43
0.0000001
 44
0.0000000001
 12
0.2913429832
 22
-0.3723695835
 32
0.0
 13
0.0093972073
 23
-0.4727066036
 33
0.0
 40
0.0
 40
0.0
 40
0.0
 40
0.0
 40
0.258186186
 40
0.5092731782
 40
0.7558576084
 40
1.0
 40
1.0
 40
1.0
 40
1.0
 10
10.2041791299
 20
5.6035896889
 30
0.0
 10
10.2292527078
 20
5.5715427948
 30
0.0
 10
10.272980859
 20
5.5036384452
 30
0.0
 10
10.3198593139
 20
5.3935886086
 30
0.0
 10
10.3483806893
 20
5.2797521034
 30
0.0
 10
10.3557050744
 20
5.2024214434
 30
0.0
 10
10.3564698266
 20
5.1639522032
 30
0.0
 11
10.2041791299
 21
5.6035896889
 31
0.0
 11
10.2704694687
 21
5.5010871007
 31
0.0
 11
10.3171524711
 21
5.3919372291
 31
0.0
 11
10.3455599988
 21
5.2788660025
 31
0.0
 11
10.3564698266
 21
5.1639522032
 31
0.0
  0
LINE
  5
6DF
100
AcDbEntity
  8
RACCORDO
100
AcDbLine
 62
253
  6
CONTINUOUS
 10
8.969477891
 20
20.2710789669
 11
9.0038211724
 21
20.2710765403
  0
LINE
  5
6E0
100
AcDbEntity
  8
RACCORDO
100
AcDbLine
 62
253
  6
CONTINUOUS
 10
9.5034579392
 20
19.7707258502
 11
9.5034866496
 21
19.6004649531
  0
LINE
  5
6E1
100
AcDbEntity
  8
RACCORDO
100
AcDbLine
 62
7
  6
CONTINUOUS
 10
10.3096457842
 20
-11.3771331813
 11
10.3095543943
 21
-11.3772102799
  0
LINE
  5
6E2
100
AcDbEntity
  8
RACCORDO
100
AcDbLine
 62
7
  6
CONTINUOUS
 10
10.3096457842
 20
2.1228668187
 11
10.3095543943
 21
2.1227897201
  0
LINE
  5
6E3
100
AcDbEntity
  8
RACCORDO
100
AcDbLine
 62
7
  6
CONTINUOUS
 10
-11.1629841382
 20
-8.8016814433
 11
-11.1628927484
 21
-8.8016043447
  0
LINE
  5
6E4
100
AcDbEntity
  8
RACCORDO
100
AcDbLine
 62
7
  6
CONTINUOUS
 10
-11.1628927484
 20
2.1227897201
 11
-11.1629841382
 21
2.1228668187
  0
LINE
  5
6E5
100
AcDbEntity
  8
0
100
AcDbLine
 62
7
  6
CONTINUOUS
 10
-2.8761642758
 20
-11.6831009592
 11
-2.8767306947
 21
-11.6821248799
  0
SPLINE
  5
6E6
100
AcDbEntity
  8
0
100
AcDbSpline
 62
7
  6
CONTINUOUS
 70
0
 71
3
 72
9
 73
5
 74
3
 42
0.0000001
 43
0.0000001
 44
0.0000000001
 12
0.1307978605
 22
-0.0151647496
 32
0.0
 13
0.1299714313
 23
-0.0211063257
 33
0.0
 40
0.0
 40
0.0
 40
0.0
 40
0.0
 40
0.2724052491
 40
1.0
 40
1.0
 40
1.0
 40
1.0
 10
-8.7894377839
 20
-11.6130650346
 30
0.0
 10
-8.7775611093
 20
-11.6144420204
 30
0.0
 10
-8.7339845701
 20
-11.6196832528
 30
0.0
 10
-8.690495525
 20
-11.6257094987
 30
0.0
 10
-8.6589733479
 20
-11.6308284493
 30
0.0
 11
-8.7894377839
 21
-11.6130650346
 31
0.0
 11
-8.7538266457
 21
-11.6173557505
 31
0.0
 11
-8.6589733479
 21
-11.6308284493
 31
0.0
  0
SPLINE
  5
6E7
100
AcDbEntity
  8
0
100
AcDbSpline
 62
7
  6
CONTINUOUS
 70
0
 71
3
 72
9
 73
5
 74
3
 42
0.0000001
 43
0.0000001
 44
0.0000000001
 12
0.05399261
 22
-0.00876797
 32
0.0
 13
0.0536786583
 23
-0.0105204977
 33
0.0
 40
0.0
 40
0.0
 40
0.0
 40
0.0
 40
0.263193907
 40
1.0
 40
1.0
 40
1.0
 40
1.0
 10
-8.6589733479
 20
-11.6308284493
 30
0.0
 10
-8.6542365059
 20
-11.6315976747
 30
0.0
 10
-8.636249766
 20
-11.6345859171
 30
0.0
 10
-8.6183064238
 20
-11.6378392544
 30
0.0
 10
-8.6051228363
 20
-11.64042311
 30
0.0
 11
-8.6589733479
 21
-11.6308284493
 31
0.0
 11
-8.6447715114
 21
-11.6331890125
 31
0.0
 11
-8.6051228363
 21
-11.64042311
 31
0.0
  0
SPLINE
  5
6E8
100
AcDbEntity
  8
0
100
AcDbSpline
 62
7
  6
CONTINUOUS
 70
0
 71
3
 72
9
 73
5
 74
3
 42
0.0000001
 43
0.0000001
 44
0.0000000001
 12
0.0458187642
 22
-0.0089800345
 32
0.0
 13
0.0454023365
 23
-0.010891649
 33
0.0
 40
0.0
 40
0.0
 40
0.0
 40
0.0
 40
0.2666858966
 40
1.0
 40
1.0
 40
1.0
 40
1.0
 10
-8.6051228363
 20
-11.64042311
 30
0.0
 10
-8.6010497636
 20
-11.6412213929
 30
0.0
 10
-8.5857904849
 20
-11.6442830601
 30
0.0
 10
-8.5705855915
 20
-11.6476222366
 30
0.0
 10
-8.5594875336
 20
-11.6502845699
 30
0.0
 11
-8.6051228363
 21
-11.64042311
 31
0.0
 11
-8.5929147627
 21
-11.6428741366
 31
0.0
 11
-8.5594875336
 21
-11.6502845699
 31
0.0
  0
SPLINE
  5
6E9
100
AcDbEntity
  8
0
100
AcDbSpline
 62
7
  6
CONTINUOUS
 70
0
 71
3
 72
9
 73
5
 74
3
 42
0.0000001
 43
0.0000001
 44
0.0000000001
 12
0.0819412033
 22
-0.0196570241
 32
0.0
 13
0.0679762132
 23
-0.0497995364
 33
0.0
 40
0.0
 40
0.0
 40
0.0
 40
0.0
 40
0.6355827558
 40
1.0
 40
1.0
 40
1.0
 40
1.0
 10
-8.5594875336
 20
-11.6502845699
 30
0.0
 10
-8.542127395
 20
-11.654449125
 30
0.0
 10
-8.5153786423
 20
-11.662194698
 30
0.0
 10
-8.4882736287
 20
-11.6716040751
 30
0.0
 10
-8.4800163939
 20
-11.6776533451
 30
0.0
 11
-8.5594875336
 21
-11.6502845699
 31
0.0
 11
-8.507981386
 21
-11.6649671496
 31
0.0
 11
-8.4800163939
 21
-11.6776533451
 31
0.0
  0
SPLINE
  5
6EA
100
AcDbEntity
  8
0
100
AcDbSpline
 62
7
  6
CONTINUOUS
 70
0
 71
3
 72
9
 73
5
 74
3
 42
0.0000001
 43
0.0000001
 44
0.0000000001
 12
0.0046256594
 22
-0.0033887691
 32
0.0
 13
-0.0010956296
 23
-0.0056285057
 33
0.0
 40
0.0
 40
0.0
 40
0.0
 40
0.0
 40
0.356236234
 40
1.0
 40
1.0
 40
1.0
 40
1.0
 10
-8.4800163939
 20
-11.6776533451
 30
0.0
 10
-8.4794671181
 20
-11.6780557458
 30
0.0
 10
-8.4780532537
 20
-11.6791827407
 30
0.0
 10
-8.4764193501
 20
-11.6809700501
 30
0.0
 10
-8.476654459
 20
-11.6821778595
 30
0.0
 11
-8.4800163939
 21
-11.6776533451
 31
0.0
 11
-8.4784318547
 21
-11.6789424954
 31
0.0
 11
-8.476654459
 21
-11.6821778595
 31
0.0
  0
SPLINE
  5
6EB
100
AcDbEntity
  8
0
100
AcDbSpline
 62
7
  6
CONTINUOUS
 70
0
 71
3
 72
11
 73
7
 74
5
 42
0.0000001
 43
0.0000001
 44
0.0000000001
 12
-0.0097023139
 22
0.050430621
 32
0.0
 13
0.0491170941
 23
0.0149964495
 33
0.0
 40
0.0
 40
0.0
 40
0.0
 40
0.0
 40
0.092922586
 40
0.2922488172
 40
0.5977105026
 40
1.0
 40
1.0
 40
1.0
 40
1.0
 10
-2.8767306947
 20
-11.6821248799
 30
0.0
 10
-2.877031216
 20
-11.680562832
 30
0.0
 10
-2.8722976844
 20
-11.6764495456
 30
0.0
 10
-2.8639744852
 20
-11.6721654473
 30
0.0
 10
-2.8491911341
 20
-11.6660537117
 30
0.0
 10
-2.8377935211
 20
-11.6623459484
 30
0.0
 10
-2.8312070908
 20
-11.660334977
 30
0.0
 11
-2.8767306947
 21
-11.6821248799
 31
0.0
 11
-2.874088217
 21
-11.6781512075
 31
0.0
 11
-2.8652656888
 21
-11.6729599941
 31
0.0
 11
-2.8507947626
 21
-11.6669037479
 31
0.0
 11
-2.8312070908
 21
-11.660334977
 31
0.0
  0
SPLINE
  5
6EC
100
AcDbEntity
  8
0
100
AcDbSpline
 62
7
  6
CONTINUOUS
 70
0
 71
3
 72
9
 73
5
 74
3
 42
0.0000001
 43
0.0000001
 44
0.0000000001
 12
0.0357373306
 22
0.0109113351
 32
0.0
 13
0.0363224278
 23
0.0087689947
 33
0.0
 40
0.0
 40
0.0
 40
0.0
 40
0.0
 40
0.2276871949
 40
1.0
 40
1.0
 40
1.0
 40
1.0
 10
-2.8312070908
 20
-11.660334977
 30
0.0
 10
-2.8284947799
 20
-11.6595068532
 30
0.0
 10
-2.8165474643
 20
-11.6559839956
 30
0.0
 10
-2.8044831455
 20
-11.652866592
 30
0.0
 10
-2.7951323868
 20
-11.650609123
 30
0.0
 11
-2.8312070908
 21
-11.660334977
 31
0.0
 11
-2.8230482127
 21
-11.6579236534
 31
0.0
 11
-2.7951323868
 21
-11.650609123
 31
0.0
  0
SPLINE
  5
6ED
100
AcDbEntity
  8
0
100
AcDbSpline
 62
7
  6
CONTINUOUS
 70
0
 71
3
 72
9
 73
5
 74
3
 42
0.0000001
 43
0.0000001
 44
0.0000000001
 12
0.0452604657
 22
0.0109268242
 32
0.0
 13
0.0456801514
 23
0.0090127134
 33
0.0
 40
0.0
 40
0.0
 40
0.0
 40
0.0
 40
0.2327178682
 40
1.0
 40
1.0
 40
1.0
 40
1.0
 10
-2.7951323868
 20
-11.650609123
 30
0.0
 10
-2.7916214138
 20
-11.6497615006
 30
0.0
 10
-2.7765116936
 20
-11.6462141863
 30
0.0
 10
-2.7613206227
 20
-11.6430182097
 30
0.0
 10
-2.7496374347
 20
-11.6407131117
 30
0.0
 11
-2.7951323868
 21
-11.650609123
 31
0.0
 11
-2.7845844043
 21
-11.6481294814
 31
0.0
 11
-2.7496374347
 21
-11.6407131117
 31
0.0
  0
LINE
  5
6EE
100
AcDbEntity
  8
0
100
AcDbLine
 62
7
  6
CONTINUOUS
 10
7.6238357242
 20
-11.6831009592
 11
7.6232693053
 21
-11.6821248799
  0
SPLINE
  5
6EF
100
AcDbEntity
  8
0
100
AcDbSpline
 62
7
  6
CONTINUOUS
 70
0
 71
3
 72
9
 73
5
 74
3
 42
0.0000001
 43
0.0000001
 44
0.0000000001
 12
0.1307978605
 22
-0.0151647496
 32
0.0
 13
0.1299714313
 23
-0.0211063257
 33
0.0
 40
0.0
 40
0.0
 40
0.0
 40
0.0
 40
0.2724052491
 40
1.0
 40
1.0
 40
1.0
 40
1.0
 10
1.7105622161
 20
-11.6130650346
 30
0.0
 10
1.7224388907
 20
-11.6144420204
 30
0.0
 10
1.7660154299
 20
-11.6196832528
 30
0.0
 10
1.809504475
 20
-11.6257094987
 30
0.0
 10
1.8410266521
 20
-11.6308284493
 30
0.0
 11
1.7105622161
 21
-11.6130650346
 31
0.0
 11
1.7461733543
 21
-11.6173557505
 31
0.0
 11
1.8410266521
 21
-11.6308284493
 31
0.0
  0
SPLINE
  5
6F0
100
AcDbEntity
  8
0
100
AcDbSpline
 62
7
  6
CONTINUOUS
 70
0
 71
3
 72
9
 73
5
 74
3
 42
0.0000001
 43
0.0000001
 44
0.0000000001
 12
0.05399261
 22
-0.00876797
 32
0.0
 13
0.0536786583
 23
-0.0105204977
 33
0.0
 40
0.0
 40
0.0
 40
0.0
 40
0.0
 40
0.263193907
 40
1.0
 40
1.0
 40
1.0
 40
1.0
 10
1.8410266521
 20
-11.6308284493
 30
0.0
 10
1.8457634941
 20
-11.6315976747
 30
0.0
 10
1.863750234
 20
-11.6345859171
 30
0.0
 10
1.8816935762
 20
-11.6378392544
 30
0.0
 10
1.8948771637
 20
-11.64042311
 30
0.0
 11
1.8410266521
 21
-11.6308284493
 31
0.0
 11
1.8552284886
 21
-11.6331890125
 31
0.0
 11
1.8948771637
 21
-11.64042311
 31
0.0
  0
SPLINE
  5
6F1
100
AcDbEntity
  8
0
100
AcDbSpline
 62
7
  6
CONTINUOUS
 70
0
 71
3
 72
9
 73
5
 74
3
 42
0.0000001
 43
0.0000001
 44
0.0000000001
 12
0.0458187642
 22
-0.0089800345
 32
0.0
 13
0.0454023365
 23
-0.010891649
 33
0.0
 40
0.0
 40
0.0
 40
0.0
 40
0.0
 40
0.2666858966
 40
1.0
 40
1.0
 40
1.0
 40
1.0
 10
1.8948771637
 20
-11.64042311
 30
0.0
 10
1.8989502364
 20
-11.6412213929
 30
0.0
 10
1.9142095151
 20
-11.6442830601
 30
0.0
 10
1.9294144085
 20
-11.6476222366
 30
0.0
 10
1.9405124664
 20
-11.6502845699
 30
0.0
 11
1.8948771637
 21
-11.64042311
 31
0.0
 11
1.9070852373
 21
-11.6428741366
 31
0.0
 11
1.9405124664
 21
-11.6502845699
 31
0.0
  0
SPLINE
  5
6F2
100
AcDbEntity
  8
0
100
AcDbSpline
 62
7
  6
CONTINUOUS
 70
0
 71
3
 72
9
 73
5
 74
3
 42
0.0000001
 43
0.0000001
 44
0.0000000001
 12
0.0819412033
 22
-0.0196570241
 32
0.0
 13
0.0679762132
 23
-0.0497995364
 33
0.0
 40
0.0
 40
0.0
 40
0.0
 40
0.0
 40
0.6355827558
 40
1.0
 40
1.0
 40
1.0
 40
1.0
 10
1.9405124664
 20
-11.6502845699
 30
0.0
 10
1.957872605
 20
-11.654449125
 30
0.0
 10
1.9846213577
 20
-11.662194698
 30
0.0
 10
2.0117263713
 20
-11.6716040751
 30
0.0
 10
2.0199836061
 20
-11.6776533451
 30
0.0
 11
1.9405124664
 21
-11.6502845699
 31
0.0
 11
1.992018614
 21
-11.6649671496
 31
0.0
 11
2.0199836061
 21
-11.6776533451
 31
0.0
  0
SPLINE
  5
6F3
100
AcDbEntity
  8
0
100
AcDbSpline
 62
7
  6
CONTINUOUS
 70
0
 71
3
 72
9
 73
5
 74
3
 42
0.0000001
 43
0.0000001
 44
0.0000000001
 12
0.0046256594
 22
-0.0033887691
 32
0.0
 13
-0.0010956296
 23
-0.0056285057
 33
0.0
 40
0.0
 40
0.0
 40
0.0
 40
0.0
 40
0.356236234
 40
1.0
 40
1.0
 40
1.0
 40
1.0
 10
2.0199836061
 20
-11.6776533451
 30
0.0
 10
2.0205328819
 20
-11.6780557458
 30
0.0
 10
2.0219467463
 20
-11.6791827407
 30
0.0
 10
2.0235806499
 20
-11.6809700501
 30
0.0
 10
2.023345541
 20
-11.6821778595
 30
0.0
 11
2.0199836061
 21
-11.6776533451
 31
0.0
 11
2.0215681453
 21
-11.6789424954
 31
0.0
 11
2.023345541
 21
-11.6821778595
 31
0.0
  0
SPLINE
  5
6F4
100
AcDbEntity
  8
0
100
AcDbSpline
 62
7
  6
CONTINUOUS
 70
0
 71
3
 72
11
 73
7
 74
5
 42
0.0000001
 43
0.0000001
 44
0.0000000001
 12
-0.0097023139
 22
0.050430621
 32
0.0
 13
0.0491170941
 23
0.0149964495
 33
0.0
 40
0.0
 40
0.0
 40
0.0
 40
0.0
 40
0.092922586
 40
0.2922488172
 40
0.5977105026
 40
1.0
 40
1.0
 40
1.0
 40
1.0
 10
7.6232693053
 20
-11.6821248799
 30
0.0
 10
7.622968784
 20
-11.680562832
 30
0.0
 10
7.6277023156
 20
-11.6764495456
 30
0.0
 10
7.6360255148
 20
-11.6721654473
 30
0.0
 10
7.6508088659
 20
-11.6660537117
 30
0.0
 10
7.6622064789
 20
-11.6623459484
 30
0.0
 10
7.6687929092
 20
-11.660334977
 30
0.0
 11
7.6232693053
 21
-11.6821248799
 31
0.0
 11
7.625911783
 21
-11.6781512075
 31
0.0
 11
7.6347343112
 21
-11.6729599941
 31
0.0
 11
7.6492052374
 21
-11.6669037479
 31
0.0
 11
7.6687929092
 21
-11.660334977
 31
0.0
  0
SPLINE
  5
6F5
100
AcDbEntity
  8
0
100
AcDbSpline
 62
7
  6
CONTINUOUS
 70
0
 71
3
 72
9
 73
5
 74
3
 42
0.0000001
 43
0.0000001
 44
0.0000000001
 12
0.0357373306
 22
0.0109113351
 32
0.0
 13
0.0363224278
 23
0.0087689947
 33
0.0
 40
0.0
 40
0.0
 40
0.0
 40
0.0
 40
0.2276871949
 40
1.0
 40
1.0
 40
1.0
 40
1.0
 10
7.6687929092
 20
-11.660334977
 30
0.0
 10
7.6715052201
 20
-11.6595068532
 30
0.0
 10
7.6834525357
 20
-11.6559839956
 30
0.0
 10
7.6955168545
 20
-11.652866592
 30
0.0
 10
7.7048676132
 20
-11.650609123
 30
0.0
 11
7.6687929092
 21
-11.660334977
 31
0.0
 11
7.6769517873
 21
-11.6579236534
 31
0.0
 11
7.7048676132
 21
-11.650609123
 31
0.0
  0
SPLINE
  5
6F6
100
AcDbEntity
  8
0
100
AcDbSpline
 62
7
  6
CONTINUOUS
 70
0
 71
3
 72
9
 73
5
 74
3
 42
0.0000001
 43
0.0000001
 44
0.0000000001
 12
0.0452604657
 22
0.0109268242
 32
0.0
 13
0.0456801514
 23
0.0090127134
 33
0.0
 40
0.0
 40
0.0
 40
0.0
 40
0.0
 40
0.2327178682
 40
1.0
 40
1.0
 40
1.0
 40
1.0
 10
7.7048676132
 20
-11.650609123
 30
0.0
 10
7.7083785862
 20
-11.6497615006
 30
0.0
 10
7.7234883064
 20
-11.6462141863
 30
0.0
 10
7.7386793773
 20
-11.6430182097
 30
0.0
 10
7.7503625653
 20
-11.6407131117
 30
0.0
 11
7.7048676132
 21
-11.650609123
 31
0.0
 11
7.7154155957
 21
-11.6481294814
 31
0.0
 11
7.7503625653
 21
-11.6407131117
 31
0.0
  0
SPLINE
  5
6F7
100
AcDbEntity
  8
0
100
AcDbSpline
 62
7
  6
CONTINUOUS
 70
0
 71
3
 72
9
 73
5
 74
3
 42
0.0000001
 43
0.0000001
 44
0.0000000001
 12
-0.1739935653
 22
0.1078958666
 32
0.0
 13
-0.1018478288
 23
0.1776015162
 33
0.0
 40
0.0
 40
0.0
 40
0.0
 40
0.0
 40
0.2479238924
 40
1.0
 40
1.0
 40
1.0
 40
1.0
 10
-2.326669177
 20
3.0091435008
 30
0.0
 10
-2.341048231
 20
3.0180601552
 30
0.0
 10
-2.3966692115
 20
3.0577668884
 30
0.0
 10
-2.4419829168
 20
3.1115812283
 30
0.0
 10
-2.4675153563
 20
3.1561045139
 30
0.0
 11
-2.326669177
 21
3.0091435008
 31
0.0
 11
-2.3679942213
 21
3.0386157927
 31
0.0
 11
-2.4675153563
 21
3.1561045139
 31
0.0
  0
SPLINE
  5
6F8
100
AcDbEntity
  8
0
100
AcDbSpline
 62
7
  6
CONTINUOUS
 70
0
 71
3
 72
9
 73
5
 74
3
 42
0.0000001
 43
0.0000001
 44
0.0000000001
 12
-0.2096264633
 22
0.0
 32
0.0
 13
-0.1781529897
 23
0.1104751844
 33
0.0
 40
0.0
 40
0.0
 40
0.0
 40
0.0
 40
0.746714815
 40
1.0
 40
1.0
 40
1.0
 40
1.0
 10
-2.126669177
 20
2.9515500264
 30
0.0
 10
-2.178846239
 20
2.9515500264
 30
0.0
 10
-2.2498205635
 20
2.967055322
 30
0.0
 10
-2.311628006
 20
2.9998162583
 30
0.0
 10
-2.326669177
 20
3.0091435008
 30
0.0
 11
-2.126669177
 21
2.9515500264
 31
0.0
 11
-2.2797301005
 21
2.9843275464
 31
0.0
 11
-2.326669177
 21
3.0091435008
 31
0.0
  0
SPLINE
  5
6F9
100
AcDbEntity
  8
0
100
AcDbSpline
 62
7
  6
CONTINUOUS
 70
0
 71
3
 72
8
 73
4
 74
2
 42
0.0000001
 43
0.0000001
 44
0.0000000001
 12
-0.1386640489
 22
-0.0590963755
 32
0.0
 13
-0.1507318814
 23
0.0
 33
0.0
 40
0.0
 40
0.0
 40
0.0
 40
0.0
 40
1.0
 40
1.0
 40
1.0
 40
1.0
 10
-1.9790283704
 20
2.9819192918
 30
0.0
 10
-2.02524972
 20
2.9622205
 30
0.0
 10
-2.0764252166
 20
2.9515500264
 30
0.0
 10
-2.126669177
 20
2.9515500264
 30
0.0
 11
-1.9790283704
 21
2.9819192918
 31
0.0
 11
-2.126669177
 21
2.9515500264
 31
0.0
  0
SPLINE
  5
6FA
100
AcDbEntity
  8
0
100
AcDbSpline
 62
7
  6
CONTINUOUS
 70
0
 71
3
 72
8
 73
4
 74
2
 42
0.0000001
 43
0.0000001
 44
0.0000000001
 12
0.0762454352
 22
0.0371633908
 32
0.0
 13
0.0848203042
 23
0.0
 33
0.0
 40
0.0
 40
0.0
 40
0.0
 40
0.0
 40
1.0
 40
1.0
 40
1.0
 40
1.0
 10
-1.9614273537
 20
2.9899531657
 30
0.0
 10
-1.9360122086
 20
3.0023409626
 30
0.0
 10
-1.9070798768
 20
3.0091435008
 30
0.0
 10
-1.878806442
 20
3.0091435008
 30
0.0
 11
-1.9614273537
 21
2.9899531657
 31
0.0
 11
-1.878806442
 21
3.0091435008
 31
0.0
  0
SPLINE
  5
6FB
100
AcDbEntity
  8
0
100
AcDbSpline
 62
7
  6
CONTINUOUS
 70
0
 71
3
 72
8
 73
4
 74
2
 42
0.0000001
 43
0.0000001
 44
0.0000000001
 12
0.0848203042
 22
0.0
 32
0.0
 13
0.0762454352
 23
-0.0371633908
 33
0.0
 40
0.0
 40
0.0
 40
0.0
 40
0.0
 40
1.0
 40
1.0
 40
1.0
 40
1.0
 10
-9.474531912
 20
3.0091435008
 30
0.0
 10
-9.4462584773
 20
3.0091435008
 30
0.0
 10
-9.4173261454
 20
3.0023409626
 30
0.0
 10
-9.3919110004
 20
2.9899531657
 30
0.0
 11
-9.474531912
 21
3.0091435008
 31
0.0
 11
-9.3919110004
 21
2.9899531657
 31
0.0
  0
SPLINE
  5
6FC
100
AcDbEntity
  8
0
100
AcDbSpline
 62
7
  6
CONTINUOUS
 70
0
 71
3
 72
9
 73
5
 74
3
 42
0.0000001
 43
0.0000001
 44
0.0000000001
 12
-0.1704622828
 22
0.0
 32
0.0
 13
-0.153229478
 23
0.0746867922
 33
0.0
 40
0.0
 40
0.0
 40
0.0
 40
0.0
 40
0.7477625691
 40
1.0
 40
1.0
 40
1.0
 40
1.0
 10
-9.226669177
 20
2.9515500264
 30
0.0
 10
-9.2691576152
 20
2.9515500264
 30
0.0
 10
-9.3266042624
 20
2.961644029
 30
0.0
 10
-9.3790275971
 20
2.9836735641
 30
0.0
 10
-9.3919110004
 20
2.9899531657
 30
0.0
 11
-9.226669177
 21
2.9515500264
 31
0.0
 11
-9.3522617407
 21
2.9733196004
 31
0.0
 11
-9.3919110004
 21
2.9899531657
 31
0.0
  0
SPLINE
  5
6FD
100
AcDbEntity
  8
0
100
AcDbSpline
 62
7
  6
CONTINUOUS
 70
0
 71
3
 72
9
 73
5
 74
3
 42
0.0000001
 43
0.0000001
 44
0.0000000001
 12
-0.1781529897
 22
-0.1104751844
 32
0.0
 13
-0.2096264633
 23
-0.0
 33
0.0
 40
0.0
 40
0.0
 40
0.0
 40
0.0
 40
0.253285185
 40
1.0
 40
1.0
 40
1.0
 40
1.0
 10
-9.026669177
 20
3.0091435008
 30
0.0
 10
-9.041710348
 20
2.9998162583
 30
0.0
 10
-9.1035177905
 20
2.967055322
 30
0.0
 10
-9.1744921151
 20
2.9515500264
 30
0.0
 10
-9.226669177
 20
2.9515500264
 30
0.0
 11
-9.026669177
 21
3.0091435008
 31
0.0
 11
-9.0736082535
 21
2.9843275464
 31
0.0
 11
-9.226669177
 21
2.9515500264
 31
0.0
  0
SPLINE
  5
6FE
100
AcDbEntity
  8
0
100
AcDbSpline
 62
7
  6
CONTINUOUS
 70
0
 71
3
 72
9
 73
5
 74
3
 42
0.0000001
 43
0.0000001
 44
0.0000000001
 12
-0.1018381922
 22
-0.177584712
 32
0.0
 13
-0.1739771025
 23
-0.1078856578
 33
0.0
 40
0.0
 40
0.0
 40
0.0
 40
0.0
 40
0.2538408492
 40
1.0
 40
1.0
 40
1.0
 40
1.0
 10
-8.8858229978
 20
3.1561045139
 30
0.0
 10
-8.8944398955
 20
3.1410784292
 30
0.0
 10
-8.9319084747
 20
3.0839903931
 30
0.0
 10
-8.9833976414
 20
3.0359767911
 30
0.0
 10
-9.026669177
 20
3.0091435008
 30
0.0
 11
-8.8858229978
 21
3.1561045139
 31
0.0
 11
-8.9143654265
 21
3.1126805909
 31
0.0
 11
-9.026669177
 21
3.0091435008
 31
0.0
  0
SPLINE
  5
6FF
100
AcDbEntity
  8
0
100
AcDbSpline
 62
7
  6
CONTINUOUS
 70
0
 71
3
 72
9
 73
5
 74
3
 42
0.0000001
 43
0.0000001
 44
0.0000000001
 12
-0.1739935653
 22
0.1078958666
 32
0.0
 13
-0.1018478288
 23
0.1776015162
 33
0.0
 40
0.0
 40
0.0
 40
0.0
 40
0.0
 40
0.2479238924
 40
1.0
 40
1.0
 40
1.0
 40
1.0
 10
8.173330823
 20
3.0091435008
 30
0.0
 10
8.158951769
 20
3.0180601552
 30
0.0
 10
8.1033307885
 20
3.0577668884
 30
0.0
 10
8.0580170832
 20
3.1115812283
 30
0.0
 10
8.0324846437
 20
3.1561045139
 30
0.0
 11
8.173330823
 21
3.0091435008
 31
0.0
 11
8.1320057787
 21
3.0386157927
 31
0.0
 11
8.0324846437
 21
3.1561045139
 31
0.0
  0
SPLINE
  5
700
100
AcDbEntity
  8
0
100
AcDbSpline
 62
7
  6
CONTINUOUS
 70
0
 71
3
 72
9
 73
5
 74
3
 42
0.0000001
 43
0.0000001
 44
0.0000000001
 12
-0.2096264633
 22
0.0
 32
0.0
 13
-0.1781529897
 23
0.1104751844
 33
0.0
 40
0.0
 40
0.0
 40
0.0
 40
0.0
 40
0.746714815
 40
1.0
 40
1.0
 40
1.0
 40
1.0
 10
8.373330823
 20
2.9515500264
 30
0.0
 10
8.321153761
 20
2.9515500264
 30
0.0
 10
8.2501794365
 20
2.967055322
 30
0.0
 10
8.188371994
 20
2.9998162583
 30
0.0
 10
8.173330823
 20
3.0091435008
 30
0.0
 11
8.373330823
 21
2.9515500264
 31
0.0
 11
8.2202698995
 21
2.9843275464
 31
0.0
 11
8.173330823
 21
3.0091435008
 31
0.0
  0
SPLINE
  5
701
100
AcDbEntity
  8
0
100
AcDbSpline
 62
7
  6
CONTINUOUS
 70
0
 71
3
 72
8
 73
4
 74
2
 42
0.0000001
 43
0.0000001
 44
0.0000000001
 12
-0.1386640489
 22
-0.0590963755
 32
0.0
 13
-0.1507318814
 23
0.0
 33
0.0
 40
0.0
 40
0.0
 40
0.0
 40
0.0
 40
1.0
 40
1.0
 40
1.0
 40
1.0
 10
8.5209716296
 20
2.9819192918
 30
0.0
 10
8.47475028
 20
2.9622205
 30
0.0
 10
8.4235747834
 20
2.9515500264
 30
0.0
 10
8.373330823
 20
2.9515500264
 30
0.0
 11
8.5209716296
 21
2.9819192918
 31
0.0
 11
8.373330823
 21
2.9515500264
 31
0.0
  0
SPLINE
  5
702
100
AcDbEntity
  8
0
100
AcDbSpline
 62
7
  6
CONTINUOUS
 70
0
 71
3
 72
8
 73
4
 74
2
 42
0.0000001
 43
0.0000001
 44
0.0000000001
 12
0.0762454352
 22
0.0371633908
 32
0.0
 13
0.0848203042
 23
0.0
 33
0.0
 40
0.0
 40
0.0
 40
0.0
 40
0.0
 40
1.0
 40
1.0
 40
1.0
 40
1.0
 10
8.5385726463
 20
2.9899531657
 30
0.0
 10
8.5639877914
 20
3.0023409626
 30
0.0
 10
8.5929201232
 20
3.0091435008
 30
0.0
 10
8.621193558
 20
3.0091435008
 30
0.0
 11
8.5385726463
 21
2.9899531657
 31
0.0
 11
8.621193558
 21
3.0091435008
 31
0.0
  0
SPLINE
  5
703
100
AcDbEntity
  8
0
100
AcDbSpline
 62
7
  6
CONTINUOUS
 70
0
 71
3
 72
8
 73
4
 74
2
 42
0.0000001
 43
0.0000001
 44
0.0000000001
 12
0.0848203042
 22
0.0
 32
0.0
 13
0.0762454352
 23
-0.0371633908
 33
0.0
 40
0.0
 40
0.0
 40
0.0
 40
0.0
 40
1.0
 40
1.0
 40
1.0
 40
1.0
 10
1.025468088
 20
3.0091435008
 30
0.0
 10
1.0537415227
 20
3.0091435008
 30
0.0
 10
1.0826738546
 20
3.0023409626
 30
0.0
 10
1.1080889996
 20
2.9899531657
 30
0.0
 11
1.025468088
 21
3.0091435008
 31
0.0
 11
1.1080889996
 21
2.9899531657
 31
0.0
  0
SPLINE
  5
704
100
AcDbEntity
  8
0
100
AcDbSpline
 62
7
  6
CONTINUOUS
 70
0
 71
3
 72
9
 73
5
 74
3
 42
0.0000001
 43
0.0000001
 44
0.0000000001
 12
-0.1704622828
 22
0.0
 32
0.0
 13
-0.153229478
 23
0.0746867922
 33
0.0
 40
0.0
 40
0.0
 40
0.0
 40
0.0
 40
0.7477625691
 40
1.0
 40
1.0
 40
1.0
 40
1.0
 10
1.273330823
 20
2.9515500264
 30
0.0
 10
1.2308423848
 20
2.9515500264
 30
0.0
 10
1.1733957376
 20
2.961644029
 30
0.0
 10
1.1209724029
 20
2.9836735641
 30
0.0
 10
1.1080889996
 20
2.9899531657
 30
0.0
 11
1.273330823
 21
2.9515500264
 31
0.0
 11
1.1477382593
 21
2.9733196004
 31
0.0
 11
1.1080889996
 21
2.9899531657
 31
0.0
  0
SPLINE
  5
705
100
AcDbEntity
  8
0
100
AcDbSpline
 62
7
  6
CONTINUOUS
 70
0
 71
3
 72
9
 73
5
 74
3
 42
0.0000001
 43
0.0000001
 44
0.0000000001
 12
-0.1781529897
 22
-0.1104751844
 32
0.0
 13
-0.2096264633
 23
0.0
 33
0.0
 40
0.0
 40
0.0
 40
0.0
 40
0.0
 40
0.253285185
 40
1.0
 40
1.0
 40
1.0
 40
1.0
 10
1.473330823
 20
3.0091435008
 30
0.0
 10
1.458289652
 20
2.9998162583
 30
0.0
 10
1.3964822095
 20
2.967055322
 30
0.0
 10
1.3255078849
 20
2.9515500264
 30
0.0
 10
1.273330823
 20
2.9515500264
 30
0.0
 11
1.473330823
 21
3.0091435008
 31
0.0
 11
1.4263917465
 21
2.9843275464
 31
0.0
 11
1.273330823
 21
2.9515500264
 31
0.0
  0
SPLINE
  5
706
100
AcDbEntity
  8
0
100
AcDbSpline
 62
7
  6
CONTINUOUS
 70
0
 71
3
 72
9
 73
5
 74
3
 42
0.0000001
 43
0.0000001
 44
0.0000000001
 12
-0.1018381922
 22
-0.177584712
 32
0.0
 13
-0.1739771025
 23
-0.1078856578
 33
0.0
 40
0.0
 40
0.0
 40
0.0
 40
0.0
 40
0.2538408492
 40
1.0
 40
1.0
 40
1.0
 40
1.0
 10
1.6141770022
 20
3.1561045139
 30
0.0
 10
1.6055601045
 20
3.1410784292
 30
0.0
 10
1.5680915253
 20
3.0839903931
 30
0.0
 10
1.5166023586
 20
3.0359767911
 30
0.0
 10
1.473330823
 20
3.0091435008
 30
0.0
 11
1.6141770022
 21
3.1561045139
 31
0.0
 11
1.5856345735
 21
3.1126805909
 31
0.0
 11
1.473330823
 21
3.0091435008
 31
0.0
  0
ELLIPSE
  5
707
100
AcDbEntity
  8
RACCORDO
100
AcDbEllipse
 62
7
  6
CONTINUOUS
 10
4.3797340551
 20
16.0086924588
 30
0.0
 11
0.426340999
 21
0.2633315858
 31
0.0
 40
0.9969414855
 41
-0.5519313763
 42
1.0161258948
  0
ELLIPSE
  5
708
100
AcDbEntity
  8
0
100
AcDbEllipse
 62
7
  6
CONTINUOUS
 10
-11.6232648419
 20
2.0262934746
 30
0.0
 11
1.7408984904
 21
-1.7408984904
 31
0.0
 40
0.9489645667
 41
1.2320297285
 42
1.3541399973
  0
ELLIPSE
  5
709
100
AcDbEntity
  8
0
100
AcDbEllipse
 62
7
  6
CONTINUOUS
 10
10.7699264878
 20
2.0262934746
 30
0.0
 11
1.7408984904
 21
1.7408984904
 31
0.0
 40
0.9489645667
 41
1.7874526563
 42
1.9103551723
  0
ELLIPSE
  5
70A
100
AcDbEntity
  8
0
100
AcDbEllipse
 62
7
  6
CONTINUOUS
 10
-2.926669177
 20
24.369286096
 30
0.0
 11
1.0
 21
-0.0
 31
0.0
 40
0.0058178298
 41
-3.1415926536
 42
-2.0943951024
  0
ELLIPSE
  5
70B
100
AcDbEntity
  8
0
100
AcDbEllipse
 62
7
  6
CONTINUOUS
 10
-2.926669177
 20
-20.3481007207
 30
0.0
 11
1.0
 21
-0.0
 31
0.0
 40
0.0058178298
 41
2.0943951024
 42
3.1415926536
  0
ELLIPSE
  5
70C
100
AcDbEntity
  8
0
100
AcDbEllipse
 62
7
  6
CONTINUOUS
 10
2.073330823
 20
24.369286096
 30
0.0
 11
1.0
 21
-0.0
 31
0.0
 40
0.0058178298
 41
5.235987756
 42
6.2831853072
  0
ELLIPSE
  5
70D
100
AcDbEntity
  8
0
100
AcDbEllipse
 62
7
  6
CONTINUOUS
 10
2.073330823
 20
-20.3481007207
 30
0.0
 11
1.0
 21
-0.0
 31
0.0
 40
0.0058178298
 41
-0.0
 42
1.0471975512
  0
ELLIPSE
  5
70E
100
AcDbEntity
  8
0
100
AcDbEllipse
 62
7
  6
CONTINUOUS
 10
-1.626669177
 20
25.8047714732
 30
0.0
 11
-0.0
 21
-0.2000033847
 31
0.0
 40
0.9999830769
 41
1.5707963268
 42
3.1415926536
  0
ELLIPSE
  5
70F
100
AcDbEntity
  8
0
100
AcDbEllipse
 62
7
  6
CONTINUOUS
 10
-4.379711887
 20
24.3666857746
 30
0.0
 11
0.4530427099
 21
-0.0
 31
0.0
 40
0.0058178298
 41
-3.1357748894
 42
-0.0
  0
ELLIPSE
  5
710
100
AcDbEntity
  8
0
100
AcDbEllipse
 62
7
  6
CONTINUOUS
 10
3.5263735329
 20
24.3666857746
 30
0.0
 11
0.4530427099
 21
-0.0
 31
0.0
 40
0.0058178298
 41
-3.1415926536
 42
-0.0058177642
  0
ELLIPSE
  5
711
100
AcDbEntity
  8
0
100
AcDbEllipse
 62
7
  6
CONTINUOUS
 10
3.5263735329
 20
-20.3455003992
 30
0.0
 11
0.4530427099
 21
-0.0
 31
0.0
 40
0.0058178298
 41
0.0058177642
 42
3.1415926536
  0
ELLIPSE
  5
712
100
AcDbEntity
  8
0
100
AcDbEllipse
 62
7
  6
CONTINUOUS
 10
-4.379711887
 20
-20.3455003992
 30
0.0
 11
0.4530427099
 21
-0.0
 31
0.0
 40
0.0058178298
 41
0.0
 42
3.1357748894
  0
ELLIPSE
  5
713
100
AcDbEntity
  8
0
100
AcDbEllipse
 62
7
  6
CONTINUOUS
 10
-4.8330354534
 20
25.4669505024
 30
0.0
 11
0.0
 21
0.5
 31
0.0
 40
0.0058178298
 41
-0.0993492953
 42
-0.0058177642
  0
ELLIPSE
  5
714
100
AcDbEntity
  8
0
100
AcDbEllipse
 62
7
  6
CONTINUOUS
 10
3.9796970994
 20
25.4669505024
 30
0.0
 11
-0.0
 21
0.5
 31
0.0
 40
0.0058178298
 41
0.0058177642
 42
0.0993492953
  0
ELLIPSE
  5
715
100
AcDbEntity
  8
0
100
AcDbEllipse
 62
7
  6
CONTINUOUS
 10
-10.3266649462
 20
-21.4007321777
 30
0.0
 11
-0.0029088041
 21
0.2886641433
 31
0.0
 40
0.8660144118
 41
-0.0087264124
 42
1.5591610446
  0
ELLIPSE
  5
716
100
AcDbEntity
  8
0
100
AcDbEllipse
 62
7
  6
CONTINUOUS
 10
-7.9266734079
 20
-21.4007321777
 30
0.0
 11
0.0029088041
 21
0.2886641433
 31
0.0
 40
0.8660144118
 41
-1.5591610446
 42
0.0087264124
  0
ELLIPSE
  5
717
100
AcDbEntity
  8
0
100
AcDbEllipse
 62
7
  6
CONTINUOUS
 10
7.0733350538
 20
-21.4007321777
 30
0.0
 11
-0.0029088041
 21
0.2886641433
 31
0.0
 40
0.8660144118
 41
-0.0087264124
 42
1.5591610446
  0
ELLIPSE
  5
718
100
AcDbEntity
  8
0
100
AcDbEllipse
 62
7
  6
CONTINUOUS
 10
9.4733265921
 20
-21.4007321777
 30
0.0
 11
0.0029088041
 21
0.2886641433
 31
0.0
 40
0.8660144118
 41
-1.5591610446
 42
0.0087264124
  0
ELLIPSE
  5
719
100
AcDbEntity
  8
0
100
AcDbEllipse
 62
7
  6
CONTINUOUS
 10
-10.3266649462
 20
25.4219175531
 30
0.0
 11
0.0029088041
 21
0.2886641433
 31
0.0
 40
0.8660144118
 41
-4.7007536982
 42
-3.1328662412
  0
ELLIPSE
  5
71A
100
AcDbEntity
  8
0
100
AcDbEllipse
 62
7
  6
CONTINUOUS
 10
-7.9266734079
 20
25.4219175531
 30
0.0
 11
-0.0029088041
 21
0.2886641433
 31
0.0
 40
0.8660144118
 41
-3.150319066
 42
-1.582431609
  0
ELLIPSE
  5
71B
100
AcDbEntity
  8
0
100
AcDbEllipse
 62
7
  6
CONTINUOUS
 10
9.4733265921
 20
25.4219175531
 30
0.0
 11
-0.0029088041
 21
0.2886641433
 31
0.0
 40
0.8660144118
 41
-3.150319066
 42
-1.582431609
  0
ELLIPSE
  5
71C
100
AcDbEntity
  8
0
100
AcDbEllipse
 62
7
  6
CONTINUOUS
 10
7.0733350538
 20
25.4219175531
 30
0.0
 11
0.0029088041
 21
0.2886641433
 31
0.0
 40
0.8660144118
 41
-4.7007536982
 42
-3.1328662411
  0
ELLIPSE
  5
71D
100
AcDbEntity
  8
0
100
AcDbEllipse
 62
7
  6
CONTINUOUS
 10
-11.0683596134
 20
-19.8835810208
 30
0.0
 11
0.4160498344
 21
0.2773626446
 31
0.0
 40
0.9999450019
 41
2.5536219432
 42
4.1243675013
  0
ELLIPSE
  5
71E
100
AcDbEntity
  8
0
100
AcDbEllipse
 62
7
  6
CONTINUOUS
 10
-11.0683596134
 20
23.9047663962
 30
0.0
 11
-0.4160498344
 21
0.2773626446
 31
0.0
 40
0.9999450019
 41
-0.9827748477
 42
0.5879707104
  0
ELLIPSE
  5
71F
100
AcDbEntity
  8
0
100
AcDbEllipse
 62
7
  6
CONTINUOUS
 10
10.2150212594
 20
-19.8835810208
 30
0.0
 11
0.4160498344
 21
-0.2773626446
 31
0.0
 40
0.9999450019
 41
-0.9827748477
 42
0.5879707104
  0
ELLIPSE
  5
720
100
AcDbEntity
  8
0
100
AcDbEllipse
 62
7
  6
CONTINUOUS
 10
10.2150212594
 20
23.9047663962
 30
0.0
 11
-0.4160498344
 21
-0.2773626446
 31
0.0
 40
0.9999450019
 41
2.5536219432
 42
4.1243675013
  0
ELLIPSE
  5
721
100
AcDbEntity
  8
0
100
AcDbEllipse
 62
7
  6
CONTINUOUS
 10
0.773330823
 20
-21.7835860978
 30
0.0
 11
0.0
 21
0.2000033847
 31
0.0
 40
0.9999830769
 41
1.5707963268
 42
3.1415926536
  0
ELLIPSE
  5
722
100
AcDbEntity
  8
0
100
AcDbEllipse
 62
7
  6
CONTINUOUS
 10
-1.626669177
 20
-21.7835860978
 30
0.0
 11
-0.0
 21
-0.2000033847
 31
0.0
 40
0.9999830769
 41
0.0
 42
1.5707963268
  0
ELLIPSE
  5
723
100
AcDbEntity
  8
0
100
AcDbEllipse
 62
7
  6
CONTINUOUS
 10
0.773330823
 20
25.8047714732
 30
0.0
 11
0.0
 21
0.2000033847
 31
0.0
 40
0.9999830769
 41
0.0
 42
1.5707963268
  0
ELLIPSE
  5
724
100
AcDbEntity
  8
RACCORDO
100
AcDbEllipse
 62
7
  6
CONTINUOUS
 10
2.4732546589
 20
143.8862351237
 30
0.0
 11
-0.4997620717
 21
162.4815824859
 31
0.0
 40
0.000109066
 41
-3.0552031411
 42
-3.0483969569
  0
ELLIPSE
  5
725
100
AcDbEntity
  8
RACCORDO
100
AcDbEllipse
 62
7
  6
CONTINUOUS
 10
2.4732546589
 20
-139.8650497483
 30
0.0
 11
0.4997620717
 21
162.4815824859
 31
0.0
 40
0.000109066
 41
-0.0931956966
 42
-0.0863895125
  0
ELLIPSE
  5
726
100
AcDbEntity
  8
RACCORDO
100
AcDbEllipse
 62
7
  6
CONTINUOUS
 10
-3.326593013
 20
143.8862351237
 30
0.0
 11
0.4997620717
 21
162.4815824859
 31
0.0
 40
0.000109066
 41
-3.2347883502
 42
-3.227982166
  0
ELLIPSE
  5
727
100
AcDbEntity
  8
RACCORDO
100
AcDbEllipse
 62
7
  6
CONTINUOUS
 10
-3.326593013
 20
-139.8650497483
 30
0.0
 11
-0.4997620717
 21
162.4815824859
 31
0.0
 40
0.000109066
 41
0.0863895125
 42
0.0931956966
  0
ELLIPSE
  5
728
100
AcDbEntity
  8
RACCORDO
100
AcDbEllipse
 62
7
  6
CONTINUOUS
 10
-9.5763645209
 20
19.6820393703
 30
0.0
 11
1.8480888181
 21
-0.7655034529
 31
0.0
 40
0.9998215708
 41
2.7489566578
 42
3.5342286494
  0
ELLIPSE
  5
729
100
AcDbEntity
  8
RACCORDO
100
AcDbEllipse
 62
7
  6
CONTINUOUS
 10
-9.5763645209
 20
-15.6608539949
 30
0.0
 11
1.8480888181
 21
0.7655034529
 31
0.0
 40
0.9998215708
 41
2.7489566578
 42
3.5342286494
  0
ELLIPSE
  5
72A
100
AcDbEntity
  8
RACCORDO
100
AcDbEllipse
 62
7
  6
CONTINUOUS
 10
8.7230261669
 20
-15.6608539949
 30
0.0
 11
1.8480888181
 21
-0.7655034529
 31
0.0
 40
0.9998215708
 41
-0.3926359958
 42
0.3926359958
  0
ELLIPSE
  5
72B
100
AcDbEntity
  8
RACCORDO
100
AcDbEllipse
 62
7
  6
CONTINUOUS
 10
8.7230261669
 20
19.6820393703
 30
0.0
 11
1.8480888181
 21
0.7655034529
 31
0.0
 40
0.9998215708
 41
-0.3926359958
 42
0.3926359958
  0
ELLIPSE
  5
72C
100
AcDbEntity
  8
DRAFT
100
AcDbEllipse
 62
7
  6
CONTINUOUS
 10
4.823330823
 20
9.9818277665
 30
0.0
 11
2.75839524
 21
-0.0
 31
0.0
 40
0.0058178298
 41
-3.1415926536
 42
-0.0
  0
ELLIPSE
  5
72D
100
AcDbEntity
  8
DRAFT
100
AcDbEllipse
 62
7
  6
CONTINUOUS
 10
-5.676669177
 20
9.9818277665
 30
0.0
 11
2.75839524
 21
-0.0
 31
0.0
 40
0.0058178298
 41
-3.1415926536
 42
-0.0
  0
ELLIPSE
  5
72E
100
AcDbEntity
  8
DRAFT
100
AcDbEllipse
 62
7
  6
CONTINUOUS
 10
-5.676669177
 20
-16.0606423911
 30
0.0
 11
2.75839524
 21
-0.0
 31
0.0
 40
0.0058178298
 41
-0.0
 42
3.1415926536
  0
ELLIPSE
  5
72F
100
AcDbEntity
  8
DRAFT
100
AcDbEllipse
 62
7
  6
CONTINUOUS
 10
4.823330823
 20
-16.0606423911
 30
0.0
 11
2.75839524
 21
0.0
 31
0.0
 40
0.0058178298
 41
-0.0
 42
3.1415926536
  0
ELLIPSE
  5
730
100
AcDbEntity
  8
DRAFT
100
AcDbEllipse
 62
7
  6
CONTINUOUS
 10
-5.676669177
 20
9.9873547048
 30
0.0
 11
2.75
 21
-0.0
 31
0.0
 40
0.0058178298
 41
0.0087266463
 42
3.1328660073
  0
ELLIPSE
  5
731
100
AcDbEntity
  8
DRAFT
100
AcDbEllipse
 62
7
  6
CONTINUOUS
 10
4.823330823
 20
9.9873547048
 30
0.0
 11
2.75
 21
-0.0
 31
0.0
 40
0.0058178298
 41
0.0087266463
 42
3.1328660073
  0
ELLIPSE
  5
732
100
AcDbEntity
  8
DRAFT
100
AcDbEllipse
 62
7
  6
CONTINUOUS
 10
4.823330823
 20
-16.0661693294
 30
0.0
 11
2.75
 21
-0.0
 31
0.0
 40
0.0058178298
 41
-3.1328660073
 42
-0.0087266463
  0
ELLIPSE
  5
733
100
AcDbEntity
  8
DRAFT
100
AcDbEllipse
 62
7
  6
CONTINUOUS
 10
-5.676669177
 20
-16.0661693294
 30
0.0
 11
2.75
 21
-0.0
 31
0.0
 40
0.0058178298
 41
-3.1328660073
 42
-0.0087266463
  0
ELLIPSE
  5
734
100
AcDbEntity
  8
RACCORDO
100
AcDbEllipse
 62
7
  6
CONTINUOUS
 10
0.1733232073
 20
16.310585072
 30
0.0
 11
0.1414321262
 21
0.1414321262
 31
0.0
 40
0.9999238505
 41
-0.7853600872
 42
0.7853600872
  0
ELLIPSE
  5
735
100
AcDbEntity
  8
RACCORDO
100
AcDbEllipse
 62
7
  6
CONTINUOUS
 10
0.1733232073
 20
15.7106003034
 30
0.0
 11
0.1414321262
 21
-0.1414321262
 31
0.0
 40
0.9999238505
 41
-0.7853600871
 42
0.7853600873
  0
ELLIPSE
  5
736
100
AcDbEntity
  8
0
100
AcDbEllipse
 62
7
  6
CONTINUOUS
 10
-5.676669177
 20
-17.4962370104
 30
0.0
 11
3.3022581827
 21
-0.0
 31
0.0
 40
0.0174559514
 41
3.1402413834
 42
6.2845365774
  0
ELLIPSE
  5
737
100
AcDbEntity
  8
0
100
AcDbEllipse
 62
7
  6
CONTINUOUS
 10
4.823330823
 20
-17.4962370104
 30
0.0
 11
3.3022581827
 21
-0.0
 31
0.0
 40
0.0174559514
 41
3.1402413834
 42
6.2845365774
  0
ELLIPSE
  5
738
100
AcDbEntity
  8
RACCORDO
100
AcDbEllipse
 62
7
  6
CONTINUOUS
 10
4.4733232073
 20
20.0106003034
 30
0.0
 11
0.1414321262
 21
-0.1414321262
 31
0.0
 40
0.9999238505
 41
-0.7853600872
 42
0.7853600872
  0
ELLIPSE
  5
739
100
AcDbEntity
  8
RACCORDO
100
AcDbEllipse
 62
7
  6
CONTINUOUS
 10
3.8733384386
 20
20.0106003034
 30
0.0
 11
0.1414321262
 21
0.1414321262
 31
0.0
 40
0.9999238505
 41
2.3562325664
 42
3.9269527408
  0
ELLIPSE
  5
73A
100
AcDbEntity
  8
RACCORDO
100
AcDbEllipse
 62
7
  6
CONTINUOUS
 10
8.1733384386
 20
16.310585072
 30
0.0
 11
0.1414321262
 21
-0.1414321262
 31
0.0
 40
0.9999238505
 41
2.3562325665
 42
3.9269527409
  0
ELLIPSE
  5
73B
100
AcDbEntity
  8
RACCORDO
100
AcDbEllipse
 62
7
  6
CONTINUOUS
 10
8.1733384386
 20
15.7106003034
 30
0.0
 11
0.1414321262
 21
0.1414321262
 31
0.0
 40
0.9999238505
 41
2.3562325664
 42
3.9269527408
  0
ELLIPSE
  5
73C
100
AcDbEntity
  8
RACCORDO
100
AcDbEllipse
 62
7
  6
CONTINUOUS
 10
1.9753351274
 20
-17.8915639448
 30
0.0
 11
1.0000047088
 21
-0.0000084854
 31
0.0
 40
0.0176698676
 41
0.0754195703
 42
1.5712765441
  0
ELLIPSE
  5
73D
100
AcDbEntity
  8
RACCORDO
100
AcDbEllipse
 62
7
  6
CONTINUOUS
 10
-2.8286734815
 20
-17.8915639448
 30
0.0
 11
1.0000047088
 21
0.0000084854
 31
0.0
 40
0.0176698676
 41
1.5703161095
 42
3.0661730833
  0
ELLIPSE
  5
73E
100
AcDbEntity
  8
RACCORDO
100
AcDbEllipse
 62
7
  6
CONTINUOUS
 10
1.9753351274
 20
21.9127493202
 30
0.0
 11
1.0000047088
 21
0.0000084854
 31
0.0
 40
0.0176698676
 41
-1.5712765441
 42
-0.0754195703
  0
ELLIPSE
  5
73F
100
AcDbEntity
  8
RACCORDO
100
AcDbEllipse
 62
7
  6
CONTINUOUS
 10
-2.8286734815
 20
21.9127493202
 30
0.0
 11
1.0000047088
 21
-0.0000084854
 31
0.0
 40
0.0176698676
 41
-3.0661730833
 42
-1.5703161095
  0
ELLIPSE
  5
740
100
AcDbEntity
  8
RACCORDO
100
AcDbEllipse
 62
7
  6
CONTINUOUS
 10
-9.8045614539
 20
20.6214195285
 30
0.0
 11
-0.3827517265
 21
0.924044409
 31
0.0
 40
0.9998215708
 41
-0.3926359958
 42
0.3926359958
  0
ELLIPSE
  5
741
100
AcDbEntity
  8
RACCORDO
100
AcDbEllipse
 62
7
  6
CONTINUOUS
 10
8.9512230999
 20
20.6214195285
 30
0.0
 11
0.3827517265
 21
0.924044409
 31
0.0
 40
0.9998215708
 41
-0.3926359958
 42
0.3926359958
  0
ELLIPSE
  5
742
100
AcDbEntity
  8
RACCORDO
100
AcDbEllipse
 62
7
  6
CONTINUOUS
 10
8.9512230999
 20
-16.6002341531
 30
0.0
 11
-0.3827517265
 21
0.924044409
 31
0.0
 40
0.9998215708
 41
-3.5342286494
 42
-2.7489566578
  0
ELLIPSE
  5
743
100
AcDbEntity
  8
RACCORDO
100
AcDbEllipse
 62
7
  6
CONTINUOUS
 10
-9.8045614539
 20
-16.6002341531
 30
0.0
 11
0.3827517265
 21
0.924044409
 31
0.0
 40
0.9998215708
 41
-3.5342286494
 42
-2.7489566578
  0
ELLIPSE
  5
744
100
AcDbEntity
  8
RACCORDO
100
AcDbEllipse
 62
7
  6
CONTINUOUS
 10
2.0295917685
 20
9.9938839961
 30
0.0
 11
0.0
 21
1.0
 31
0.0
 40
0.0087268678
 41
1.0852306877
 42
1.5707963268
  0
ELLIPSE
  5
745
100
AcDbEntity
  8
RACCORDO
100
AcDbEllipse
 62
7
  6
CONTINUOUS
 10
2.2990564175
 20
9.9938839961
 30
0.0
 11
-0.5774011102
 21
0.9999928594
 31
0.0
 40
0.0065449328
 41
0.0136742321
 42
1.0814516273
  0
ELLIPSE
  5
746
100
AcDbEntity
  8
RACCORDO
100
AcDbEllipse
 62
7
  6
CONTINUOUS
 10
-3.1523947716
 20
9.9938839961
 30
0.0
 11
0.5774011102
 21
0.9999928594
 31
0.0
 40
0.0065449328
 41
-1.0814516273
 42
-0.0136742321
  0
ELLIPSE
  5
747
100
AcDbEntity
  8
RACCORDO
100
AcDbEllipse
 62
7
  6
CONTINUOUS
 10
-2.8829301225
 20
9.9938839961
 30
0.0
 11
-0.0
 21
1.0
 31
0.0
 40
0.0087268678
 41
-1.5707963268
 42
-1.0852306877
  0
ELLIPSE
  5
748
100
AcDbEntity
  8
RACCORDO
100
AcDbEllipse
 62
7
  6
CONTINUOUS
 10
-8.4704082315
 20
9.9938839961
 30
0.0
 11
-0.0
 21
1.0
 31
0.0
 40
0.0087268678
 41
1.0852306877
 42
1.5707963268
  0
ELLIPSE
  5
749
100
AcDbEntity
  8
RACCORDO
100
AcDbEllipse
 62
7
  6
CONTINUOUS
 10
-8.2009435825
 20
9.9938839961
 30
0.0
 11
-0.5774011102
 21
0.9999928594
 31
0.0
 40
0.0065449328
 41
0.0136742321
 42
1.0814516273
  0
ELLIPSE
  5
74A
100
AcDbEntity
  8
RACCORDO
100
AcDbEllipse
 62
7
  6
CONTINUOUS
 10
-8.3946691898
 20
-16.4082284389
 30
0.0
 11
0.5774011102
 21
0.9999928594
 31
0.0
 40
0.0065449328
 41
-4.5770518843
 42
-3.1552668857
  0
ELLIPSE
  5
74B
100
AcDbEntity
  8
RACCORDO
100
AcDbEllipse
 62
7
  6
CONTINUOUS
 10
-8.4704082315
 20
-16.4082284389
 30
0.0
 11
-0.0
 21
1.0
 31
0.0
 40
0.0087268678
 41
1.5707963268
 42
1.7023543624
  0
ELLIPSE
  5
74C
100
AcDbEntity
  8
RACCORDO
100
AcDbEllipse
 62
7
  6
CONTINUOUS
 10
2.1053308102
 20
-16.4082284389
 30
0.0
 11
0.5774011102
 21
0.9999928594
 31
0.0
 40
0.0065449328
 41
-4.5770518843
 42
-3.1552668857
  0
ELLIPSE
  5
74D
100
AcDbEntity
  8
RACCORDO
100
AcDbEllipse
 62
7
  6
CONTINUOUS
 10
2.0295917685
 20
-16.4082284389
 30
0.0
 11
0.0
 21
1.0
 31
0.0
 40
0.0087268678
 41
1.5707963268
 42
1.7023543624
  0
ELLIPSE
  5
74E
100
AcDbEntity
  8
RACCORDO
100
AcDbEllipse
 62
7
  6
CONTINUOUS
 10
-2.8829301225
 20
-16.4082284389
 30
0.0
 11
-0.0
 21
1.0
 31
0.0
 40
0.0087268678
 41
-1.7023543624
 42
-1.5707963268
  0
ELLIPSE
  5
74F
100
AcDbEntity
  8
RACCORDO
100
AcDbEllipse
 62
7
  6
CONTINUOUS
 10
-2.9586691643
 20
-16.4082284389
 30
0.0
 11
-0.5774011102
 21
0.9999928594
 31
0.0
 40
0.0065449328
 41
-3.1279184215
 42
-1.7061334228
  0
ELLIPSE
  5
750
100
AcDbEntity
  8
RACCORDO
100
AcDbEllipse
 62
7
  6
CONTINUOUS
 10
7.6170698775
 20
-16.4082284389
 30
0.0
 11
0.0
 21
1.0
 31
0.0
 40
0.0087268678
 41
-1.7023543624
 42
-1.5707963268
  0
ELLIPSE
  5
751
100
AcDbEntity
  8
RACCORDO
100
AcDbEllipse
 62
7
  6
CONTINUOUS
 10
7.5413308357
 20
-16.4082284389
 30
0.0
 11
-0.5774011102
 21
0.9999928594
 31
0.0
 40
0.0065449328
 41
-3.1279184215
 42
-1.7061334228
  0
ELLIPSE
  5
752
100
AcDbEntity
  8
RACCORDO
100
AcDbEllipse
 62
7
  6
CONTINUOUS
 10
5.5423430066
 20
15.2107069228
 30
0.0
 11
-0.1308631545
 21
2.9972590087
 31
0.0
 40
0.9999618505
 41
3.0979610848
 42
3.1852242224
  0
ELLIPSE
  5
753
100
AcDbEntity
  8
RACCORDO
100
AcDbEllipse
 62
7
  6
CONTINUOUS
 10
2.8404127339
 20
15.2107069228
 30
0.0
 11
-0.1668234227
 21
-2.9954728334
 31
0.0
 40
0.999961805
 41
-0.0556322584
 42
0.0556322584
  0
ELLIPSE
  5
754
100
AcDbEntity
  8
RACCORDO
100
AcDbEllipse
 62
7
  6
CONTINUOUS
 10
0.3733391163
 20
19.7105843944
 30
0.0
 11
0.353565119
 21
-0.353565119
 31
0.0
 40
0.9999668281
 41
2.3562110764
 42
3.9269742308
  0
ELLIPSE
  5
755
100
AcDbEntity
  8
RACCORDO
100
AcDbEllipse
 62
7
  6
CONTINUOUS
 10
8.9433225296
 20
19.7105843944
 30
0.0
 11
-0.353565119
 21
-0.353565119
 31
0.0
 40
0.9999668281
 41
2.3562110764
 42
3.9269742308
  0
ELLIPSE
  5
756
100
AcDbEntity
  8
0
100
AcDbEllipse
 62
7
  6
CONTINUOUS
 10
4.823330823
 20
11.0818584878
 30
0.0
 11
3.1085301141
 21
0.0
 31
0.0
 40
0.0174559514
 41
-0.0013512702
 42
3.1429439238
  0
ELLIPSE
  5
757
100
AcDbEntity
  8
0
100
AcDbEllipse
 62
7
  6
CONTINUOUS
 10
-5.676669177
 20
11.0818584878
 30
0.0
 11
3.1085301141
 21
-0.0
 31
0.0
 40
0.0174559514
 41
-0.0013512702
 42
3.1429439238
  0
ELLIPSE
  5
758
100
AcDbEntity
  8
RACCORDO
100
AcDbEllipse
 62
7
  6
CONTINUOUS
 10
7.3476052284
 20
9.9938839961
 30
0.0
 11
0.5774011102
 21
0.9999928594
 31
0.0
 40
0.0065449328
 41
-1.0814516273
 42
-0.0136742321
  0
ELLIPSE
  5
759
100
AcDbEntity
  8
RACCORDO
100
AcDbEllipse
 62
7
  6
CONTINUOUS
 10
7.6170698775
 20
9.9938839961
 30
0.0
 11
-0.0
 21
1.0
 31
0.0
 40
0.0087268678
 41
-1.5707963268
 42
-1.0852306877
  0
ELLIPSE
  5
75A
100
AcDbEntity
  8
RACCORDO
100
AcDbEllipse
 62
7
  6
CONTINUOUS
 10
9.4997753951
 20
16.025054152
 30
0.0
 11
-0.0
 21
0.4
 31
0.0
 40
0.0057596502
 41
-1.5707963268
 42
-0.0087266463
  0
ELLIPSE
  5
75B
100
AcDbEntity
  8
RACCORDO
100
AcDbEllipse
 62
7
  6
CONTINUOUS
 10
9.4997753951
 20
15.9961312234
 30
0.0
 11
-0.0
 21
0.4
 31
0.0
 40
0.0057596502
 41
-3.1328660073
 42
-1.5707963268
  0
ELLIPSE
  5
75C
100
AcDbEntity
  8
RACCORDO
100
AcDbEllipse
 62
7
  6
CONTINUOUS
 10
8.979608326
 20
12.2743151846
 30
0.0
 11
0.353565119
 21
-0.353565119
 31
0.0
 40
0.9999668281
 41
-0.7853815772
 42
0.7719160662
  0
ELLIPSE
  5
75D
100
AcDbEntity
  8
RACCORDO
100
AcDbEllipse
 62
7
  6
CONTINUOUS
 10
0.3370533199
 20
12.2743151846
 30
0.0
 11
-0.353565119
 21
-0.353565119
 31
0.0
 40
0.9999668281
 41
-0.7382461048
 42
0.7853815772
  0
ELLIPSE
  5
75E
100
AcDbEntity
  8
RACCORDO
100
AcDbEllipse
 62
7
  6
CONTINUOUS
 10
8.2281432415
 20
16.2557802692
 30
0.0
 11
0.1863969272
 21
-0.0781626821
 31
0.0
 40
0.9877345005
 41
1.9635525228
 42
3.5342726972
  0
ELLIPSE
  5
75F
100
AcDbEntity
  8
RACCORDO
100
AcDbEllipse
 62
7
  6
CONTINUOUS
 10
8.2281432415
 20
15.7654051062
 30
0.0
 11
0.1863969272
 21
0.0781626821
 31
0.0
 40
0.9877345005
 41
2.74891261
 42
4.3196327844
  0
ELLIPSE
  5
760
100
AcDbEntity
  8
RACCORDO
100
AcDbEllipse
 62
7
  6
CONTINUOUS
 10
8.9793193557
 20
12.274604155
 30
0.0
 11
-0.2140261914
 21
0.4558612013
 31
0.0
 40
0.9919078658
 41
-2.0206254146
 42
-2.0071599036
  0
ELLIPSE
  5
761
100
AcDbEntity
  8
RACCORDO
100
AcDbEllipse
 62
7
  6
CONTINUOUS
 10
0.3375066049
 20
12.2747684696
 30
0.0
 11
0.2194608921
 21
0.4533047048
 31
0.0
 40
0.9919068676
 41
-4.2640248374
 42
-4.216889365
  0
ELLIPSE
  5
762
100
AcDbEntity
  8
RACCORDO
100
AcDbEllipse
 62
7
  6
CONTINUOUS
 10
0.1185184045
 20
16.2557802692
 30
0.0
 11
0.1863969272
 21
0.0781626821
 31
0.0
 40
0.9877345005
 41
-0.3926800436
 42
1.1780401308
  0
ELLIPSE
  5
763
100
AcDbEntity
  8
RACCORDO
100
AcDbEllipse
 62
7
  6
CONTINUOUS
 10
0.1185184045
 20
15.7654051062
 30
0.0
 11
0.1863969272
 21
-0.0781626821
 31
0.0
 40
0.9877345005
 41
-1.1780401308
 42
0.3926800436
  0
ELLIPSE
  5
764
100
AcDbEntity
  8
RACCORDO
100
AcDbEllipse
 62
7
  6
CONTINUOUS
 10
4.4185184045
 20
20.0654051062
 30
0.0
 11
-0.0781626821
 21
0.1863969272
 31
0.0
 40
0.9877345005
 41
-3.5342726972
 42
-1.9635525228
  0
ELLIPSE
  5
765
100
AcDbEntity
  8
RACCORDO
100
AcDbEllipse
 62
7
  6
CONTINUOUS
 10
3.9281432415
 20
20.0654051062
 30
0.0
 11
0.0781626821
 21
0.1863969272
 31
0.0
 40
0.9877345005
 41
-4.3196327844
 42
-2.74891261
  0
ELLIPSE
  5
766
100
AcDbEntity
  8
RACCORDO
100
AcDbEllipse
 62
7
  6
CONTINUOUS
 10
-0.3324729066
 20
15.596360453
 30
0.0
 11
0.4
 21
0.0
 31
0.0
 40
0.0087268678
 41
0.0087266462
 42
1.1943281933
  0
ELLIPSE
  5
767
100
AcDbEntity
  8
RACCORDO
100
AcDbEllipse
 62
7
  6
CONTINUOUS
 10
-0.3324729066
 20
16.4248249224
 30
0.0
 11
0.4
 21
0.0
 31
0.0
 40
0.0087268678
 41
-1.1943281933
 42
-0.0087266462
  0
ELLIPSE
  5
768
100
AcDbEntity
  8
RACCORDO
100
AcDbEllipse
 62
7
  6
CONTINUOUS
 10
3.759602996
 20
20.516900825
 30
0.0
 11
-0.0
 21
0.4
 31
0.0
 40
0.0087268678
 41
-3.1328660074
 42
-2.2381368816
  0
ELLIPSE
  5
769
100
AcDbEntity
  8
RACCORDO
100
AcDbEllipse
 62
7
  6
CONTINUOUS
 10
4.5870586499
 20
20.516900825
 30
0.0
 11
0.0
 21
0.4
 31
0.0
 40
0.0087268678
 41
-4.0450484256
 42
-3.1503192998
  0
ENDSEC
  0
SECTION
  2
OBJECTS
  0
DICTIONARY
  5
C
100
AcDbDictionary
280
0
281
1
  3
ACAD_GROUP
350
D
  3
ACAD_MLINESTYLE
350
17
  3
ACAD_LAYOUT
350
1A
  3
ACAD_PLOTSETTINGS
350
19
  3
ACAD_PLOTSTYLENAME
350
E
  0
DICTIONARY
  5
D
102
{ACAD_REACTORS
330
C
102
}
100
AcDbDictionary
280
0
281
1
  0
ACDBDICTIONARYWDFLT
  5
E
102
{ACAD_REACTORS
330
C
102
}
100
AcDbDictionary
281
1
  3
Normal
350
F
100
AcDbDictionaryWithDefault
340
F
  0
DICTIONARY
  5
17
102
{ACAD_REACTORS
330
C
102
}
100
AcDbDictionary
280
0
281
1
  3
Standard
350
18
  0
DICTIONARY
  5
19
102
{ACAD_REACTORS
330
C
102
}
100
AcDbDictionary
281
1
  0
DICTIONARY
  5
1A
102
{ACAD_REACTORS
330
C
102
}
100
AcDbDictionary
281
1
  3
Model
350
76A
  3
Layout1
350
76B
  0
ACDBPLACEHOLDER
  5
F
102
{ACAD_REACTORS
330
E
102
}
  0
MLINESTYLE
  5
18
102
{ACAD_REACTORS
330
17
102
}
100
AcDbMlineStyle
  2
STANDARD
 70
0
  3

 62
256
 51
90.0
 52
90.0
 71
2
 49
0.5
 62
256
  6
BYLAYER
 49
-0.5
 62
256
  6
BYLAYER
  0
LAYOUT
  5
76A
102
{ACAD_REACTORS
330
1A
102
}
100
AcDbPlotSettings
  1

  2
none_device
  4
ISO_A4_(297.00_x_210.00_MM)
  6

 40
0.0
 41
0.0
 42
0.0
 43
0.0
 44
297.0
 45
210.0
 46
0.0
 47
0.0
 48
0.0
 49
0.0
140
0.0
141
0.0
142
1.0
143
1.0
 70
1024
 72
1
 73
0
 74
0
  7

 75
0
147
1.0
148
0.0
149
0.0
100
AcDbLayout
  1
Model
 70
0
 71
0
 10
0.0
 20
0.0
 11
297.0
 21
210.0
 12
0.0
 22
0.0
 32
0.0
 14
0.0
 24
0.0
 34
0.0
 15
0.0
 25
0.0
 35
0.0
146
0.0
 13
0.0
 23
0.0
 33
0.0
 16
1.0
 26
0.0
 36
0.0
 17
0.0
 27
1.0
 37
0.0
 76
0
330
219
345
0
346
0
  0
LAYOUT
  5
76B
102
{ACAD_REACTORS
330
1A
102
}
100
AcDbPlotSettings
  1

  2
none_device
  4
ISO_A4_(297.00_x_210.00_MM)
  6

 40
0.0
 41
0.0
 42
0.0
 43
0.0
 44
297.0
 45
210.0
 46
0.0
 47
0.0
 48
0.0
 49
0.0
140
0.0
141
0.0
142
1.0
143
1.0
 70
0
 72
1
 73
0
 74
0
  7

 75
0
147
1.0
148
0.0
149
0.0
100
AcDbLayout
  1
Layout1
 70
0
 71
1
 10
0.0
 20
0.0
 11
297.0
 21
210.0
 12
0.0
 22
0.0
 32
0.0
 14
0.0
 24
0.0
 34
0.0
 15
0.0
 25
0.0
 35
0.0
146
0.0
 13
0.0
 23
0.0
 33
0.0
 16
1.0
 26
0.0
 36
0.0
 17
0.0
 27
1.0
 37
0.0
 76
0
330
21A
345
0
346
0
  0
ENDSEC
  0
EOF
