  0
SECTION
  2
HEADER
  9
$ACADVER
  1
AC1015
  9
$DWGCODEPAGE
  3
ANSI_1252
  9
$EXTMAX
 10
297.0
 20
210.0
 30
0.0
  9
$EXTMIN
 10
0.0
 20
0.0
 30
0.0
  9
$LIMMIN
 10
0.0
 20
0.0
  9
$LIMMAX
 10
297.0
 20
210.0
  9
$VIEWCTR
 10
148.5
 20
105.0
  9
$VIEWSIZE
 40
210.0
  9
$CLAYER
  8
0
  9
$LTSCALE
 40
16.335
  9
$CELTYPE
  6
BYLAYER
  9
$DIMSCALE
 40
1.0
  9
$DIMASZ
 40
3.0
  9
$DIMEXO
 40
1.85625
  9
$DIMDLI
 40
11.286
  9
$DIMEXE
 40
5.346
  9
$DIMCEN
 40
2.673
  9
$DIMLFAC
 40
1.0
  9
$DIMBLK
  1
_FILLED
  9
$DIMTXT
 40
3.0
  9
$DIMTOL
 70
1
  9
$DIMLIM
 70
0
  9
$DIMTFAC
 40
1.0
  9
$DIMTP
 40
0.01
  9
$DIMTM
 40
0.01
  9
$PDMODE
 70
3
  9
$PDSIZE
 40
3.0
  9
$HANDSEED
  5
774
  9
$TILEMODE
 70
1
  9
$MEASUREMENT
 70
1
  9
$INSUNITS
 70
4
  0
ENDSEC
  0
SECTION
  2
CLASSES
  0
CLASS
  1
ACDBDICTIONARYWDFLT
  2
AcDbDictionaryWithDefault
  3
AutoCAD 2000
 90
0
280
0
281
0
  0
CLASS
  1
ACDBPLACEHOLDER
  2
AcDbPlaceHolder
  3
AutoCAD 2000
 90
0
280
0
281
0
  0
CLASS
  1
LAYOUT
  2
AcDbLayout
  3
AutoCAD 2000
 90
0
280
0
281
0
  0
ENDSEC
  0
SECTION
  2
TABLES
  0
TABLE
  2
VPORT
  5
8
100
AcDbSymbolTable
 70
2
  0
VPORT
  5
1F4
100
AcDbSymbolTableRecord
100
AcDbViewportTableRecord
  2
*ACTIVE
 70
0
 10
0.0
 20
0.0
 11
1.0
 21
1.0
 12
148.5
 22
105.0
 13
0.0
 23
0.0
 14
1.0
 24
1.0
 15
0.0
 25
0.0
 16
0.0
 26
0.0
 36
1.0
 17
0.0
 27
0.0
 37
0.0
 40
210.0
 41
1.4142857143
 42
50.0
 43
0.0
 44
0.0
 50
0.0
 51
0.0
 71
0
 72
100
 73
1
 74
1
 75
0
 76
0
 77
0
 78
0
  0
ENDTAB
  0
TABLE
  2
LTYPE
  5
5
100
AcDbSymbolTable
 70
6
  0
LTYPE
  5
14
100
AcDbSymbolTableRecord
100
AcDbLinetypeTableRecord
  2
BYBLOCK
 70
0
  3

 72
65
 73
0
 40
0.0
  0
LTYPE
  5
15
100
AcDbSymbolTableRecord
100
AcDbLinetypeTableRecord
  2
BYLAYER
 70
0
  3

 72
65
 73
0
 40
0.0
  0
LTYPE
  5
16
100
AcDbSymbolTableRecord
100
AcDbLinetypeTableRecord
  2
CONTINUOUS
 70
64
  3
Solid line
 72
65
 73
0
 40
0.0
  0
LTYPE
  5
1F5
100
AcDbSymbolTableRecord
100
AcDbLinetypeTableRecord
  2
CENTER
 70
64
  3
____ _ ____ _ ____ _ ____ _ ____ _ ____ _ ____
 72
65
 73
4
 40
0.6
 49
0.375
 74
0
 49
-0.075
 74
0
 49
0.075
 74
0
 49
-0.075
 74
0
  0
LTYPE
  5
1F6
100
AcDbSymbolTableRecord
100
AcDbLinetypeTableRecord
  2
HIDDEN
 70
64
  3
- - - - - - - - - - - - - - - - - - - -
 72
65
 73
2
 40
0.2
 49
0.1
 74
0
 49
-0.1
 74
0
  0
LTYPE
  5
1F7
100
AcDbSymbolTableRecord
100
AcDbLinetypeTableRecord
  2
PHANTOM
 70
64
  3
_____ _ _ _____ _ _ _____ _ _ _____
 72
65
 73
6
 40
0.8
 49
0.45
 74
0
 49
-0.05
 74
0
 49
0.1
 74
0
 49
-0.05
 74
0
 49
0.1
 74
0
 49
-0.05
 74
0
  0
LTYPE
  5
1F8
100
AcDbSymbolTableRecord
100
AcDbLinetypeTableRecord
  2
DOT
 70
64
  3
. . . . . . . . . . . . . . . . . . . .
 72
65
 73
2
 40
0.2
 49
0.1
 74
0
 49
-0.1
 74
0
  0
LTYPE
  5
1F9
100
AcDbSymbolTableRecord
100
AcDbLinetypeTableRecord
  2
DASHED
 70
64
  3
- - - - - - - - - - - - - - - - - - - -
 72
65
 73
2
 40
0.2
 49
0.1
 74
0
 49
-0.1
 74
0
  0
ENDTAB
  0
TABLE
  2
LAYER
  5
2
100
AcDbSymbolTable
 70
36
  0
LAYER
  5
10
100
AcDbSymbolTableRecord
100
AcDbLayerTableRecord
  2
0
 70
0
 62
7
  6
CONTINUOUS
370
-3
390
F
  0
LAYER
  5
1FA
100
AcDbSymbolTableRecord
100
AcDbLayerTableRecord
  2
DEFAULT_1
 70
0
 62
7
  6
CENTER
370
-3
390
F
  0
LAYER
  5
1FB
100
AcDbSymbolTableRecord
100
AcDbLayerTableRecord
  2
DEFAULT_2
 70
0
 62
7
  6
HIDDEN
370
-3
390
F
  0
LAYER
  5
1FC
100
AcDbSymbolTableRecord
100
AcDbLayerTableRecord
  2
DEFAULT_3
 70
0
 62
7
  6
PHANTOM
370
-3
390
F
  0
LAYER
  5
1FD
100
AcDbSymbolTableRecord
100
AcDbLayerTableRecord
  2
ASSI
 70
0
 62
7
  6
CONTINUOUS
370
-3
390
F
  0
LAYER
  5
1FE
100
AcDbSymbolTableRecord
100
AcDbLayerTableRecord
  2
COORDINATE
 70
0
 62
7
  6
CONTINUOUS
370
-3
390
F
  0
LAYER
  5
1FF
100
AcDbSymbolTableRecord
100
AcDbLayerTableRecord
  2
COORD_ORIGINE
 70
0
 62
7
  6
CONTINUOUS
370
-3
390
F
  0
LAYER
  5
200
100
AcDbSymbolTableRecord
100
AcDbLayerTableRecord
  2
COPY_PUBLISH
 70
0
 62
7
  6
CONTINUOUS
370
-3
390
F
  0
LAYER
  5
201
100
AcDbSymbolTableRecord
100
AcDbLayerTableRecord
  2
COSMETIC
 70
0
 62
7
  6
CONTINUOUS
370
-3
390
F
  0
LAYER
  5
202
100
AcDbSymbolTableRecord
100
AcDbLayerTableRecord
  2
COSMETICI
 70
0
 62
7
  6
CONTINUOUS
370
-3
390
F
  0
LAYER
  5
203
100
AcDbSymbolTableRecord
100
AcDbLayerTableRecord
  2
CURVE
 70
0
 62
7
  6
CONTINUOUS
370
-3
390
F
  0
LAYER
  5
204
100
AcDbSymbolTableRecord
100
AcDbLayerTableRecord
  2
DRAFT
 70
0
 62
7
  6
CONTINUOUS
370
-3
390
F
  0
LAYER
  5
205
100
AcDbSymbolTableRecord
100
AcDbLayerTableRecord
  2
IMPORT
 70
0
 62
7
  6
CONTINUOUS
370
-3
390
F
  0
LAYER
  5
206
100
AcDbSymbolTableRecord
100
AcDbLayerTableRecord
  2
IMPORT_IGES
 70
0
 62
7
  6
CONTINUOUS
370
-3
390
F
  0
LAYER
  5
207
100
AcDbSymbolTableRecord
100
AcDbLayerTableRecord
  2
NOTE
 70
0
 62
7
  6
CONTINUOUS
370
-3
390
F
  0
LAYER
  5
208
100
AcDbSymbolTableRecord
100
AcDbLayerTableRecord
  2
PIANI
 70
0
 62
7
  6
CONTINUOUS
370
-3
390
F
  0
LAYER
  5
209
100
AcDbSymbolTableRecord
100
AcDbLayerTableRecord
  2
PIANI_ORIGINE
 70
0
 62
7
  6
CONTINUOUS
370
-3
390
F
  0
LAYER
  5
20A
100
AcDbSymbolTableRecord
100
AcDbLayerTableRecord
  2
PIANI_RIFERIMENTO
 70
0
 62
7
  6
CONTINUOUS
370
-3
390
F
  0
LAYER
  5
20B
100
AcDbSymbolTableRecord
100
AcDbLayerTableRecord
  2
PUNTI
 70
0
 62
7
  6
CONTINUOUS
370
-3
390
F
  0
LAYER
  5
20C
100
AcDbSymbolTableRecord
100
AcDbLayerTableRecord
  2
RACCORDO
 70
0
 62
7
  6
CONTINUOUS
370
-3
390
F
  0
LAYER
  5
20D
100
AcDbSymbolTableRecord
100
AcDbLayerTableRecord
  2
SMUSSO
 70
0
 62
7
  6
CONTINUOUS
370
-3
390
F
  0
LAYER
  5
20E
100
AcDbSymbolTableRecord
100
AcDbLayerTableRecord
  2
SNAPLINE
 70
0
 62
7
  6
CONTINUOUS
370
-3
390
F
  0
LAYER
  5
20F
100
AcDbSymbolTableRecord
100
AcDbLayerTableRecord
  2
SUPERFICI
 70
0
 62
7
  6
CONTINUOUS
370
-3
390
F
  0
LAYER
  5
210
100
AcDbSymbolTableRecord
100
AcDbLayerTableRecord
  2
TRASH
 70
0
 62
7
  6
CONTINUOUS
370
-3
390
F
  0
LAYER
  5
211
100
AcDbSymbolTableRecord
100
AcDbLayerTableRecord
  2
XSEC_DATUMS
 70
0
 62
7
  6
CONTINUOUS
370
-3
390
F
  0
ENDTAB
  0
TABLE
  2
STYLE
  5
3
100
AcDbSymbolTable
 70
1
  0
STYLE
  5
11
100
AcDbSymbolTableRecord
100
AcDbTextStyleTableRecord
  2
STANDARD
 70
0
 40
0.0
 41
0.8
 50
0.0
 71
0
 42
0.2
  3
txt
  4

  0
STYLE
  5
212
100
AcDbSymbolTableRecord
100
AcDbTextStyleTableRecord
  2
TEXTSTYLE_1
 70
0
 40
0.0
 41
0.8
 50
0.0
 71
0
 42
0.2
  3
gdt
  4

  0
ENDTAB
  0
TABLE
  2
VIEW
  5
6
100
AcDbSymbolTable
 70
0
  0
ENDTAB
  0
TABLE
  2
UCS
  5
7
100
AcDbSymbolTable
 70
0
  0
ENDTAB
  0
TABLE
  2
APPID
  5
9
100
AcDbSymbolTable
 70
1
  0
APPID
  5
213
100
AcDbSymbolTableRecord
100
AcDbRegAppTableRecord
  2
ACAD
 70
0
  0
ENDTAB
  0
TABLE
  2
BLOCK_RECORD
  5
1
100
AcDbSymbolTable
 70
0
  0
BLOCK_RECORD
  5
214
100
AcDbSymbolTableRecord
100
AcDbBlockTableRecord
  2
*Model_Space
  0
BLOCK_RECORD
  5
215
100
AcDbSymbolTableRecord
100
AcDbBlockTableRecord
  2
*Paper_Space
  0
ENDTAB
  0
TABLE
  2
DIMSTYLE
  5
A
100
AcDbSymbolTable
 70
1
100
AcDbDimStyleTable
 71
0
  0
DIMSTYLE
105
216
100
AcDbSymbolTableRecord
100
AcDbDimStyleTableRecord
  2
STANDARD
 70
0
  3

  4

 40
1.0
 41
3.0
 42
0.0625
 43
0.38
 44
0.18
 45
0.0
 46
0.0
 47
0.01
 48
0.01
140
3.0
141
0.09
142
0.0
143
25.4
144
1.0
145
0.0
146
1.0
147
0.09
 71
1.0
 72
0.0
 73
0
 74
0
 75
0
 76
0
 77
1
 78
8
170
0
171
2
172
0
173
0
174
0
175
0
176
0
177
0
178
0
270
2
271
2
272
2
273
2
274
2
275
0
280
0
281
0
282
0
283
1
284
8
285
0
286
0
287
3
288
0
340
11
  0
ENDTAB
  0
ENDSEC
  0
SECTION
  2
BLOCKS
  0
BLOCK
  5
20
100
AcDbEntity
  8
0
100
AcDbBlockBegin
  2
*Model_Space
 70
0
 10
0.0
 20
0.0
 30
0.0
  3
*Model_Space
  1

  0
ENDBLK
  5
21
100
AcDbEntity
  8
0
100
AcDbBlockEnd
  0
BLOCK
  5
1C
100
AcDbEntity
  8
0
100
AcDbBlockBegin
  2
*Paper_Space
 70
0
 10
0.0
 20
0.0
 30
0.0
  3
*Paper_Space
  1

  0
ENDBLK
  5
1D
100
AcDbEntity
  8
0
100
AcDbBlockEnd
  0
ENDSEC
  0
SECTION
  2
ENTITIES
  0
LINE
  5
217
100
AcDbEntity
  8
0
100
AcDbLine
 62
253
  6
CONTINUOUS
 10
-18.6747775975
 20
24.5
 11
-18.6791494315
 21
24.495628166
  0
LINE
  5
218
100
AcDbEntity
  8
0
100
AcDbLine
 62
253
  6
CONTINUOUS
 10
-18.4247818283
 20
24.2500042308
 11
-18.4291536623
 21
24.2456323968
  0
LINE
  5
219
100
AcDbEntity
  8
0
100
AcDbLine
 62
7
  6
CONTINUOUS
 10
-22.3164913039
 20
18.5082905244
 11
-18.4305996581
 21
22.3941821702
  0
LINE
  5
21A
100
AcDbEntity
  8
0
100
AcDbLine
 62
253
  6
CONTINUOUS
 10
-18.6747775975
 20
-24.5
 11
-18.6791494315
 21
-24.495628166
  0
LINE
  5
21B
100
AcDbEntity
  8
0
100
AcDbLine
 62
253
  6
CONTINUOUS
 10
-18.4247818283
 20
-24.2500042308
 11
-18.4291536623
 21
-24.2456323968
  0
LINE
  5
21C
100
AcDbEntity
  8
0
100
AcDbLine
 62
7
  6
CONTINUOUS
 10
-18.4305996581
 20
-22.3941821702
 11
-22.3164913039
 21
-18.5082905244
  0
LINE
  5
21D
100
AcDbEntity
  8
0
100
AcDbLine
 62
7
  6
CONTINUOUS
 10
-18.7934109784
 20
20.9
 11
-20.8422368932
 21
18.8511740852
  0
LINE
  5
21E
100
AcDbEntity
  8
RACCORDO
100
AcDbLine
 62
7
  6
CONTINUOUS
 10
-18.3805164251
 20
19.7942654032
 11
-18.4835086961
 21
19.6912731322
  0
LINE
  5
21F
100
AcDbEntity
  8
0
100
AcDbLine
 62
7
  6
CONTINUOUS
 10
-20.8422368932
 20
-18.8511740852
 11
-18.7934109784
 21
-20.9
  0
LINE
  5
220
100
AcDbEntity
  8
RACCORDO
100
AcDbLine
 62
7
  6
CONTINUOUS
 10
-18.3805164251
 20
-19.7942654032
 11
-18.4835086961
 21
-19.6912731322
  0
LINE
  5
221
100
AcDbEntity
  8
RACCORDO
100
AcDbLine
 62
7
  6
CONTINUOUS
 10
-15.7862366626
 20
20.0942654032
 11
-15.9922368932
 21
19.9912731322
  0
LINE
  5
222
100
AcDbEntity
  8
0
100
AcDbLine
 62
7
  6
CONTINUOUS
 10
-1.2747775975
 20
-24.5
 11
-3.6747860591
 21
-24.5
  0
LINE
  5
223
100
AcDbEntity
  8
0
100
AcDbLine
 62
7
  6
CONTINUOUS
 10
-18.6747775975
 20
-24.5
 11
-21.0747860591
 21
-24.5
  0
LINE
  5
224
100
AcDbEntity
  8
0
100
AcDbLine
 62
253
  6
CONTINUOUS
 10
-21.0704142251
 20
-24.495628166
 11
-18.6791494315
 21
-24.495628166
  0
LINE
  5
225
100
AcDbEntity
  8
0
100
AcDbLine
 62
253
  6
CONTINUOUS
 10
-3.6704142251
 20
-24.495628166
 11
-1.2791494315
 21
-24.495628166
  0
LINE
  5
226
100
AcDbEntity
  8
0
100
AcDbLine
 62
253
  6
CONTINUOUS
 10
-1.0291536623
 20
-24.2456323968
 11
-3.9204099943
 21
-24.2456323968
  0
LINE
  5
227
100
AcDbEntity
  8
0
100
AcDbLine
 62
253
  6
CONTINUOUS
 10
-18.4291536623
 20
-24.2456323968
 11
-21.3204099943
 21
-24.2456323968
  0
LINE
  5
228
100
AcDbEntity
  8
RACCORDO
100
AcDbLine
 62
7
  6
CONTINUOUS
 10
-15.7862366626
 20
-20.0942654032
 11
-15.9922368932
 21
-19.9912731322
  0
LINE
  5
229
100
AcDbEntity
  8
0
100
AcDbLine
 62
7
  6
CONTINUOUS
 10
-22.3252181717
 20
21.900016923
 11
-22.3252181717
 21
-21.900016923
  0
LINE
  5
22A
100
AcDbEntity
  8
0
100
AcDbLine
 62
7
  6
CONTINUOUS
 10
-22.3164913039
 20
21.8941990932
 11
-22.3164913039
 21
18.5082905244
  0
LINE
  5
22B
100
AcDbEntity
  8
0
100
AcDbLine
 62
7
  6
CONTINUOUS
 10
-22.3164913039
 20
-18.5082905244
 11
-22.3164913039
 21
-21.8941990932
  0
LINE
  5
22C
100
AcDbEntity
  8
0
100
AcDbLine
 62
7
  6
CONTINUOUS
 10
-22.3077644361
 20
18.5170173922
 11
-22.3077644361
 21
-18.5170173922
  0
LINE
  5
22D
100
AcDbEntity
  8
0
100
AcDbLine
 62
7
  6
CONTINUOUS
 10
-15.6247818283
 20
-24.0
 11
-12.3747818283
 21
-24.0
  0
LINE
  5
22E
100
AcDbEntity
  8
0
100
AcDbLine
 62
7
  6
CONTINUOUS
 10
-9.9747818283
 20
-24.0
 11
-6.7247818283
 21
-24.0
  0
LINE
  5
22F
100
AcDbEntity
  8
0
100
AcDbLine
 62
7
  6
CONTINUOUS
 10
-14.6747818283
 20
-23.9941821702
 11
-12.3747818283
 21
-23.9941821702
  0
LINE
  5
230
100
AcDbEntity
  8
0
100
AcDbLine
 62
7
  6
CONTINUOUS
 10
-9.9747818283
 20
-23.9941821702
 11
-7.6747818283
 21
-23.9941821702
  0
LINE
  5
231
100
AcDbEntity
  8
0
100
AcDbLine
 62
253
  6
CONTINUOUS
 10
-15.5811311814
 20
-23.9563493531
 11
-14.6747818283
 21
-23.9563493531
  0
LINE
  5
232
100
AcDbEntity
  8
0
100
AcDbLine
 62
253
  6
CONTINUOUS
 10
-7.6747818283
 20
-23.9563493531
 11
-6.7684324752
 21
-23.9563493531
  0
LINE
  5
233
100
AcDbEntity
  8
0
100
AcDbLine
 62
253
  6
CONTINUOUS
 10
-1.0291536623
 20
-23.8443375673
 11
-3.9204099943
 21
-23.8443375673
  0
LINE
  5
234
100
AcDbEntity
  8
0
100
AcDbLine
 62
253
  6
CONTINUOUS
 10
-18.4291536623
 20
-23.8443375673
 11
-21.3204099943
 21
-23.8443375673
  0
LINE
  5
235
100
AcDbEntity
  8
0
100
AcDbLine
 62
253
  6
CONTINUOUS
 10
-1.2791494315
 20
-23.6278312164
 11
-3.6704142251
 21
-23.6278312164
  0
LINE
  5
236
100
AcDbEntity
  8
0
100
AcDbLine
 62
253
  6
CONTINUOUS
 10
-18.6791494315
 20
-23.6278312164
 11
-21.0704142251
 21
-23.6278312164
  0
LINE
  5
237
100
AcDbEntity
  8
0
100
AcDbLine
 62
7
  6
CONTINUOUS
 10
-21.0755048262
 20
-23.1226497308
 11
-18.6740588304
 21
-23.1226497308
  0
LINE
  5
238
100
AcDbEntity
  8
0
100
AcDbLine
 62
7
  6
CONTINUOUS
 10
-1.2740588304
 20
-23.1226497308
 11
-3.6755048262
 21
-23.1226497308
  0
LINE
  5
239
100
AcDbEntity
  8
0
100
AcDbLine
 62
7
  6
CONTINUOUS
 10
-0.5252739818
 20
-22.4
 11
-6.7247818283
 21
-22.4
  0
LINE
  5
23A
100
AcDbEntity
  8
0
100
AcDbLine
 62
7
  6
CONTINUOUS
 10
-10.1747818283
 20
-22.4
 11
-12.1747818283
 21
-22.4
  0
LINE
  5
23B
100
AcDbEntity
  8
0
100
AcDbLine
 62
7
  6
CONTINUOUS
 10
-15.6247818283
 20
-22.4
 11
-21.8242896748
 21
-22.4
  0
LINE
  5
23C
100
AcDbEntity
  8
0
100
AcDbLine
 62
7
  6
CONTINUOUS
 10
-12.1747818283
 20
-22.3947639644
 11
-10.1747818283
 21
-22.3947639644
  0
LINE
  5
23D
100
AcDbEntity
  8
0
100
AcDbLine
 62
7
  6
CONTINUOUS
 10
-21.81649765
 20
-22.3941821702
 11
-18.4305996581
 21
-22.3941821702
  0
LINE
  5
23E
100
AcDbEntity
  8
0
100
AcDbLine
 62
7
  6
CONTINUOUS
 10
-14.6747818283
 20
-22.3941821702
 11
-14.1747818283
 21
-22.3941821702
  0
LINE
  5
23F
100
AcDbEntity
  8
0
100
AcDbLine
 62
7
  6
CONTINUOUS
 10
-8.1747818283
 20
-22.3941821702
 11
-7.6747818283
 21
-22.3941821702
  0
LINE
  5
240
100
AcDbEntity
  8
0
100
AcDbLine
 62
7
  6
CONTINUOUS
 10
-3.9189639985
 20
-22.3941821702
 11
-0.5330660066
 21
-22.3941821702
  0
LINE
  5
241
100
AcDbEntity
  8
0
100
AcDbLine
 62
253
  6
CONTINUOUS
 10
-18.4888118028
 20
-22.3359700255
 11
-14.1747818283
 21
-22.3359700255
  0
LINE
  5
242
100
AcDbEntity
  8
0
100
AcDbLine
 62
253
  6
CONTINUOUS
 10
-8.1747818283
 20
-22.3359700255
 11
-3.8607518538
 21
-22.3359700255
  0
LINE
  5
243
100
AcDbEntity
  8
RACCORDO
100
AcDbLine
 62
7
  6
CONTINUOUS
 10
-0.0660825241
 20
-22.1
 11
21.8253895092
 21
-22.1
  0
LINE
  5
244
100
AcDbEntity
  8
0
100
AcDbLine
 62
253
  6
CONTINUOUS
 10
-21.3204099943
 20
-23.8443375673
 11
-21.3247818283
 21
-23.4104851482
  0
LINE
  5
245
100
AcDbEntity
  8
0
100
AcDbLine
 62
253
  6
CONTINUOUS
 10
-21.0704142251
 20
-23.6278312164
 11
-21.0755048262
 21
-23.1226497308
  0
LINE
  5
246
100
AcDbEntity
  8
0
100
AcDbLine
 62
7
  6
CONTINUOUS
 10
-21.3247818283
 20
-22.4
 11
-21.3247818283
 21
-24.2500042308
  0
LINE
  5
247
100
AcDbEntity
  8
0
100
AcDbLine
 62
7
  6
CONTINUOUS
 10
-21.3247818283
 20
22.4
 11
-21.3247818283
 21
24.2500042308
  0
LINE
  5
248
100
AcDbEntity
  8
0
100
AcDbLine
 62
253
  6
CONTINUOUS
 10
-21.3204099943
 20
24.2456323968
 11
-21.3204099943
 21
23.8443375673
  0
LINE
  5
249
100
AcDbEntity
  8
0
100
AcDbLine
 62
253
  6
CONTINUOUS
 10
-21.3204099943
 20
-23.8443375673
 11
-21.3204099943
 21
-24.2456323968
  0
LINE
  5
24A
100
AcDbEntity
  8
0
100
AcDbLine
 62
253
  6
CONTINUOUS
 10
-21.0704142251
 20
-23.6278312164
 11
-21.0704142251
 21
-24.495628166
  0
LINE
  5
24B
100
AcDbEntity
  8
0
100
AcDbLine
 62
253
  6
CONTINUOUS
 10
-21.0704142251
 20
23.6278312164
 11
-21.0704142251
 21
24.495628166
  0
LINE
  5
24C
100
AcDbEntity
  8
0
100
AcDbLine
 62
7
  6
CONTINUOUS
 10
-20.8422368932
 20
-18.8511740852
 11
-20.8422368932
 21
18.8511740852
  0
LINE
  5
24D
100
AcDbEntity
  8
0
100
AcDbLine
 62
7
  6
CONTINUOUS
 10
-20.8247818283
 20
18.8686291501
 11
-20.8247818283
 21
-18.8686291501
  0
LINE
  5
24E
100
AcDbEntity
  8
0
100
AcDbLine
 62
7
  6
CONTINUOUS
 10
-19.6247818283
 20
18.6146359382
 11
-19.6247818283
 21
-18.6146359382
  0
LINE
  5
24F
100
AcDbEntity
  8
0
100
AcDbLine
 62
253
  6
CONTINUOUS
 10
-21.3247818283
 20
23.4104851482
 11
-21.3204099943
 21
23.8443375673
  0
LINE
  5
250
100
AcDbEntity
  8
0
100
AcDbLine
 62
253
  6
CONTINUOUS
 10
-21.0755048262
 20
23.1226497308
 11
-21.0704142251
 21
23.6278312164
  0
LINE
  5
251
100
AcDbEntity
  8
0
100
AcDbLine
 62
7
  6
CONTINUOUS
 10
-6.7684324752
 20
23.9563493531
 11
-6.7247818283
 21
24.0
  0
LINE
  5
252
100
AcDbEntity
  8
RACCORDO
100
AcDbLine
 62
253
  6
CONTINUOUS
 10
-14.6904775943
 20
15.5946985136
 11
-14.6573267634
 21
15.6278543944
  0
LINE
  5
253
100
AcDbEntity
  8
0
100
AcDbLine
 62
7
  6
CONTINUOUS
 10
-6.7247818283
 20
22.4
 11
-6.7687040754
 21
22.356077753
  0
LINE
  5
254
100
AcDbEntity
  8
RACCORDO
100
AcDbLine
 62
7
  6
CONTINUOUS
 10
-7.4862366626
 20
20.0942654032
 11
-7.6922368932
 21
19.9912731322
  0
LINE
  5
255
100
AcDbEntity
  8
0
100
AcDbLine
 62
7
  6
CONTINUOUS
 10
-14.1747818283
 20
-21.7
 11
-8.1747818283
 21
-21.7
  0
LINE
  5
256
100
AcDbEntity
  8
0
100
AcDbLine
 62
253
  6
CONTINUOUS
 10
-18.7414274825
 20
-21.3359869487
 11
-14.1747818283
 21
-21.3359869487
  0
LINE
  5
257
100
AcDbEntity
  8
0
100
AcDbLine
 62
253
  6
CONTINUOUS
 10
-8.1747818283
 20
-21.3359869487
 11
-3.6081361741
 21
-21.3359869487
  0
LINE
  5
258
100
AcDbEntity
  8
0
100
AcDbLine
 62
7
  6
CONTINUOUS
 10
-2.9422368932
 20
-20.9
 11
-3.6081361741
 21
-20.9
  0
LINE
  5
259
100
AcDbEntity
  8
RACCORDO
100
AcDbLine
 62
7
  6
CONTINUOUS
 10
-3.6081361741
 20
-20.9
 11
-4.1690396161
 21
-20.9
  0
LINE
  5
25A
100
AcDbEntity
  8
RACCORDO
100
AcDbLine
 62
7
  6
CONTINUOUS
 10
-18.1805240405
 20
-20.9
 11
-18.7414274825
 21
-20.9
  0
LINE
  5
25B
100
AcDbEntity
  8
0
100
AcDbLine
 62
7
  6
CONTINUOUS
 10
-18.7414274825
 20
-20.9
 11
-19.4073267634
 21
-20.9
  0
LINE
  5
25C
100
AcDbEntity
  8
0
100
AcDbLine
 62
7
  6
CONTINUOUS
 10
-14.1747818283
 20
-20.8
 11
-8.1747818283
 21
-20.8
  0
LINE
  5
25D
100
AcDbEntity
  8
RACCORDO
100
AcDbLine
 62
7
  6
CONTINUOUS
 10
-0.0243454849
 20
-20.6
 11
0.7252181717
 21
-20.6
  0
LINE
  5
25E
100
AcDbEntity
  8
DRAFT
100
AcDbLine
 62
7
  6
CONTINUOUS
 10
1.5252181717
 20
-20.6
 11
18.8252181717
 21
-20.6
  0
LINE
  5
25F
100
AcDbEntity
  8
RACCORDO
100
AcDbLine
 62
7
  6
CONTINUOUS
 10
18.8252181717
 20
-20.6
 11
20.8253209742
 21
-20.6
  0
LINE
  5
260
100
AcDbEntity
  8
DRAFT
100
AcDbLine
 62
7
  6
CONTINUOUS
 10
1.5577740828
 20
-20.5023124269
 11
3.9229432702
 21
-20.5022749015
  0
LINE
  5
261
100
AcDbEntity
  8
DRAFT
100
AcDbLine
 62
7
  6
CONTINUOUS
 10
5.3252181717
 20
-20.5022749015
 11
17.3252181717
 21
-20.5022749015
  0
LINE
  5
262
100
AcDbEntity
  8
DRAFT
100
AcDbLine
 62
7
  6
CONTINUOUS
 10
18.7274930732
 20
-20.5022749015
 11
19.177871192
 21
-20.5022749015
  0
LINE
  5
263
100
AcDbEntity
  8
RACCORDO
100
AcDbLine
 62
253
  6
CONTINUOUS
 10
-4.3805240405
 20
-20.2942577878
 11
-6.7633269951
 21
-20.2942577878
  0
LINE
  5
264
100
AcDbEntity
  8
RACCORDO
100
AcDbLine
 62
253
  6
CONTINUOUS
 10
-7.2862366615
 20
-20.2942577878
 11
-15.0633269951
 21
-20.2942577878
  0
LINE
  5
265
100
AcDbEntity
  8
RACCORDO
100
AcDbLine
 62
253
  6
CONTINUOUS
 10
-15.5862366615
 20
-20.2942577878
 11
-17.9690396161
 21
-20.2942577878
  0
LINE
  5
266
100
AcDbEntity
  8
RACCORDO
100
AcDbLine
 62
253
  6
CONTINUOUS
 10
-4.5805164251
 20
-20.0942654032
 11
-6.563326994
 21
-20.0942654032
  0
LINE
  5
267
100
AcDbEntity
  8
RACCORDO
100
AcDbLine
 62
253
  6
CONTINUOUS
 10
-7.4862366626
 20
-20.0942654032
 11
-14.863326994
 21
-20.0942654032
  0
LINE
  5
268
100
AcDbEntity
  8
RACCORDO
100
AcDbLine
 62
253
  6
CONTINUOUS
 10
-15.7862366626
 20
-20.0942654032
 11
-17.7690472315
 21
-20.0942654032
  0
LINE
  5
269
100
AcDbEntity
  8
0
100
AcDbLine
 62
7
  6
CONTINUOUS
 10
5.3252181717
 20
-20.0
 11
4.4252181717
 21
-20.0
  0
LINE
  5
26A
100
AcDbEntity
  8
0
100
AcDbLine
 62
7
  6
CONTINUOUS
 10
17.3252181717
 20
-20.0
 11
18.2252181717
 21
-20.0
  0
LINE
  5
26B
100
AcDbEntity
  8
RACCORDO
100
AcDbLine
 62
253
  6
CONTINUOUS
 10
-4.1690396161
 20
-19.9942577878
 11
-4.3805240405
 21
-19.9942577878
  0
LINE
  5
26C
100
AcDbEntity
  8
RACCORDO
100
AcDbLine
 62
253
  6
CONTINUOUS
 10
-17.9690396161
 20
-19.9942577878
 11
-18.1805240405
 21
-19.9942577878
  0
LINE
  5
26D
100
AcDbEntity
  8
DRAFT
100
AcDbLine
 62
7
  6
CONTINUOUS
 10
-17.6660549605
 20
-19.9912731322
 11
-15.9922368932
 21
-19.9912731322
  0
LINE
  5
26E
100
AcDbEntity
  8
DRAFT
100
AcDbLine
 62
7
  6
CONTINUOUS
 10
-14.6573267634
 20
-19.9912731322
 11
-7.6922368932
 21
-19.9912731322
  0
LINE
  5
26F
100
AcDbEntity
  8
DRAFT
100
AcDbLine
 62
7
  6
CONTINUOUS
 10
-6.3573267634
 20
-19.9912731322
 11
-4.6835086961
 21
-19.9912731322
  0
LINE
  5
270
100
AcDbEntity
  8
RACCORDO
100
AcDbLine
 62
253
  6
CONTINUOUS
 10
-3.9690472315
 20
-19.7942654032
 11
-4.5805164251
 21
-19.7942654032
  0
LINE
  5
271
100
AcDbEntity
  8
RACCORDO
100
AcDbLine
 62
253
  6
CONTINUOUS
 10
-17.7690472315
 20
-19.7942654032
 11
-18.3805164251
 21
-19.7942654032
  0
LINE
  5
272
100
AcDbEntity
  8
DRAFT
100
AcDbLine
 62
7
  6
CONTINUOUS
 10
-18.4835086961
 20
-19.6912731322
 11
-17.6660549605
 21
-19.6912731322
  0
LINE
  5
273
100
AcDbEntity
  8
DRAFT
100
AcDbLine
 62
7
  6
CONTINUOUS
 10
-4.6835086961
 20
-19.6912731322
 11
-3.8660549605
 21
-19.6912731322
  0
LINE
  5
274
100
AcDbEntity
  8
RACCORDO
100
AcDbLine
 62
7
  6
CONTINUOUS
 10
-7.4862366626
 20
-20.0942654032
 11
-7.6922368932
 21
-19.9912731322
  0
LINE
  5
275
100
AcDbEntity
  8
0
100
AcDbLine
 62
7
  6
CONTINUOUS
 10
-6.7247818283
 20
-24.0
 11
-6.7684324752
 21
-23.9563493531
  0
LINE
  5
276
100
AcDbEntity
  8
0
100
AcDbLine
 62
7
  6
CONTINUOUS
 10
-6.7247818283
 20
-22.4
 11
-6.7687040754
 21
-22.356077753
  0
LINE
  5
277
100
AcDbEntity
  8
RACCORDO
100
AcDbLine
 62
253
  6
CONTINUOUS
 10
-14.6573267634
 20
-15.6278543944
 11
-14.6904775943
 21
-15.5946985136
  0
LINE
  5
278
100
AcDbEntity
  8
0
100
AcDbLine
 62
253
  6
CONTINUOUS
 10
-18.6791494315
 20
23.6278312164
 11
-18.6740588304
 21
23.1226497308
  0
LINE
  5
279
100
AcDbEntity
  8
0
100
AcDbLine
 62
253
  6
CONTINUOUS
 10
-18.4291536623
 20
23.8443375673
 11
-18.4247818283
 21
23.4104851482
  0
LINE
  5
27A
100
AcDbEntity
  8
0
100
AcDbLine
 62
7
  6
CONTINUOUS
 10
-19.4073267634
 20
-21.4174550649
 11
-19.4073267634
 21
-20.9
  0
LINE
  5
27B
100
AcDbEntity
  8
0
100
AcDbLine
 62
7
  6
CONTINUOUS
 10
-19.4073267634
 20
20.9
 11
-19.4073267634
 21
21.4174550649
  0
LINE
  5
27C
100
AcDbEntity
  8
0
100
AcDbLine
 62
253
  6
CONTINUOUS
 10
-19.2413513301
 20
21.5834304982
 11
-19.2413513301
 21
20.9
  0
LINE
  5
27D
100
AcDbEntity
  8
0
100
AcDbLine
 62
253
  6
CONTINUOUS
 10
-19.2413513301
 20
-20.9
 11
-19.2413513301
 21
-21.5834304982
  0
LINE
  5
27E
100
AcDbEntity
  8
0
100
AcDbLine
 62
253
  6
CONTINUOUS
 10
-18.7414274825
 20
21.3359869487
 11
-18.7414274825
 21
20.9
  0
LINE
  5
27F
100
AcDbEntity
  8
0
100
AcDbLine
 62
253
  6
CONTINUOUS
 10
-18.7414274825
 20
-20.9
 11
-18.7414274825
 21
-21.3359869487
  0
LINE
  5
280
100
AcDbEntity
  8
0
100
AcDbLine
 62
253
  6
CONTINUOUS
 10
-18.6791494315
 20
-23.6278312164
 11
-18.6791494315
 21
-24.495628166
  0
LINE
  5
281
100
AcDbEntity
  8
0
100
AcDbLine
 62
253
  6
CONTINUOUS
 10
-18.6791494315
 20
23.6278312164
 11
-18.6791494315
 21
24.495628166
  0
LINE
  5
282
100
AcDbEntity
  8
DRAFT
100
AcDbLine
 62
7
  6
CONTINUOUS
 10
-18.4835086961
 20
-20.9
 11
-18.4835086961
 21
-19.6912731322
  0
LINE
  5
283
100
AcDbEntity
  8
DRAFT
100
AcDbLine
 62
7
  6
CONTINUOUS
 10
-18.4835086961
 20
19.6912731322
 11
-18.4835086961
 21
20.9
  0
LINE
  5
284
100
AcDbEntity
  8
0
100
AcDbLine
 62
253
  6
CONTINUOUS
 10
-18.4291536623
 20
-24.2456323968
 11
-18.4291536623
 21
-23.8443375673
  0
LINE
  5
285
100
AcDbEntity
  8
0
100
AcDbLine
 62
253
  6
CONTINUOUS
 10
-18.4291536623
 20
23.8443375673
 11
-18.4291536623
 21
24.2456323968
  0
LINE
  5
286
100
AcDbEntity
  8
0
100
AcDbLine
 62
7
  6
CONTINUOUS
 10
-18.4247818283
 20
-22.4
 11
-18.4247818283
 21
-24.2500042308
  0
LINE
  5
287
100
AcDbEntity
  8
0
100
AcDbLine
 62
7
  6
CONTINUOUS
 10
-18.4247818283
 20
22.4
 11
-18.4247818283
 21
24.2500042308
  0
LINE
  5
288
100
AcDbEntity
  8
RACCORDO
100
AcDbLine
 62
253
  6
CONTINUOUS
 10
-18.3805164251
 20
20.9
 11
-18.3805164251
 21
19.7942654032
  0
LINE
  5
289
100
AcDbEntity
  8
RACCORDO
100
AcDbLine
 62
253
  6
CONTINUOUS
 10
-18.3805164251
 20
-19.7942654032
 11
-18.3805164251
 21
-20.9
  0
LINE
  5
28A
100
AcDbEntity
  8
RACCORDO
100
AcDbLine
 62
253
  6
CONTINUOUS
 10
-18.1805240405
 20
20.9
 11
-18.1805240405
 21
19.9942577878
  0
LINE
  5
28B
100
AcDbEntity
  8
RACCORDO
100
AcDbLine
 62
253
  6
CONTINUOUS
 10
-18.1805240405
 20
-19.9942577878
 11
-18.1805240405
 21
-20.9
  0
LINE
  5
28C
100
AcDbEntity
  8
RACCORDO
100
AcDbLine
 62
253
  6
CONTINUOUS
 10
-17.9690396161
 20
-20.2942577878
 11
-17.9690396161
 21
-19.9942577878
  0
LINE
  5
28D
100
AcDbEntity
  8
RACCORDO
100
AcDbLine
 62
253
  6
CONTINUOUS
 10
-17.9690396161
 20
19.9942577878
 11
-17.9690396161
 21
20.2942577878
  0
LINE
  5
28E
100
AcDbEntity
  8
RACCORDO
100
AcDbLine
 62
253
  6
CONTINUOUS
 10
-17.7690472315
 20
-20.0942654032
 11
-17.7690472315
 21
-19.7942654032
  0
LINE
  5
28F
100
AcDbEntity
  8
RACCORDO
100
AcDbLine
 62
253
  6
CONTINUOUS
 10
-17.7690472315
 20
19.7942654032
 11
-17.7690472315
 21
20.0942654032
  0
LINE
  5
290
100
AcDbEntity
  8
DRAFT
100
AcDbLine
 62
7
  6
CONTINUOUS
 10
-17.6660549605
 20
19.9912731322
 11
-17.6660549605
 21
19.6912731322
  0
LINE
  5
291
100
AcDbEntity
  8
DRAFT
100
AcDbLine
 62
7
  6
CONTINUOUS
 10
-17.6660549605
 20
-19.6912731322
 11
-17.6660549605
 21
-19.9912731322
  0
LINE
  5
292
100
AcDbEntity
  8
0
100
AcDbLine
 62
253
  6
CONTINUOUS
 10
-18.6740588304
 20
-23.1226497308
 11
-18.6791494315
 21
-23.6278312164
  0
LINE
  5
293
100
AcDbEntity
  8
0
100
AcDbLine
 62
253
  6
CONTINUOUS
 10
-18.4247818283
 20
-23.4104851482
 11
-18.4291536623
 21
-23.8443375673
  0
LWPOLYLINE
  5
294
100
AcDbEntity
  8
RACCORDO
100
AcDbPolyline
 62
7
  6
CONTINUOUS
 90
25
 70
0
 10
-12.4788691802
 20
14.92203372
 10
-12.5048083101
 20
14.8927579654
 10
-12.5400042217
 20
14.8508337658
 10
-12.5738840179
 20
14.8078299306
 10
-12.6064141501
 20
14.7637868015
 10
-12.6375622775
 20
14.7187460169
 10
-12.6672986293
 20
14.6727512219
 10
-12.6955940317
 20
14.6258458855
 10
-12.7224197713
 20
14.5780738948
 10
-12.7477499298
 20
14.5294812019
 10
-12.7715601643
 20
14.4801134468
 10
-12.7938257989
 20
14.4300172089
 10
-12.8145239175
 20
14.3792412952
 10
-12.8336346421
 20
14.3278339554
 10
-12.8511384402
 20
14.2758429262
 10
-12.8670164721
 20
14.2233176009
 10
-12.8812532117
 20
14.1703085471
 10
-12.8938340578
 20
14.1168654667
 10
-12.9047446984
 20
14.0630376247
 10
-12.9139733688
 20
14.0088745472
 10
-12.9215099376
 20
13.9544253929
 10
-12.9273444272
 20
13.8997384407
 10
-12.9314685366
 20
13.8448661921
 10
-12.9338768677
 20
13.7898673785
 10
-12.9345396733
 20
13.7512316418
  0
LINE
  5
295
100
AcDbEntity
  8
0
100
AcDbLine
 62
253
  6
CONTINUOUS
 10
-1.2747775975
 20
24.5
 11
-1.2791494315
 21
24.495628166
  0
LINE
  5
296
100
AcDbEntity
  8
0
100
AcDbLine
 62
253
  6
CONTINUOUS
 10
-1.0247818283
 20
24.2500042308
 11
-1.0291536623
 21
24.2456323968
  0
LINE
  5
297
100
AcDbEntity
  8
RACCORDO
100
AcDbLine
 62
7
  6
CONTINUOUS
 10
-4.5805164251
 20
20.0942654032
 11
-4.6835086961
 21
19.9912731322
  0
LINE
  5
298
100
AcDbEntity
  8
0
100
AcDbLine
 62
253
  6
CONTINUOUS
 10
-0.5243391388
 20
22.4
 11
-0.5330660066
 21
22.3941821702
  0
LINE
  5
299
100
AcDbEntity
  8
0
100
AcDbLine
 62
253
  6
CONTINUOUS
 10
-0.0243454849
 20
21.900016923
 11
-0.0330723527
 21
21.8941990932
  0
LINE
  5
29A
100
AcDbEntity
  8
RACCORDO
100
AcDbLine
 62
253
  6
CONTINUOUS
 10
-15.7862062005
 20
-19.0166572575
 11
-15.5862366615
 21
-19.0166572575
  0
LINE
  5
29B
100
AcDbEntity
  8
RACCORDO
100
AcDbLine
 62
253
  6
CONTINUOUS
 10
-7.4862062005
 20
-19.0166572575
 11
-7.2862366615
 21
-19.0166572575
  0
LINE
  5
29C
100
AcDbEntity
  8
RACCORDO
100
AcDbLine
 62
253
  6
CONTINUOUS
 10
-6.5633574561
 20
-19.0166572575
 11
-6.7633269951
 21
-19.0166572575
  0
LINE
  5
29D
100
AcDbEntity
  8
RACCORDO
100
AcDbLine
 62
253
  6
CONTINUOUS
 10
-14.8633574561
 20
-19.0166572575
 11
-15.0633269951
 21
-19.0166572575
  0
LINE
  5
29E
100
AcDbEntity
  8
0
100
AcDbLine
 62
7
  6
CONTINUOUS
 10
-20.8247818283
 20
-18.6146359382
 11
-19.6247818283
 21
-18.6146359382
  0
LINE
  5
29F
100
AcDbEntity
  8
0
100
AcDbLine
 62
7
  6
CONTINUOUS
 10
-1.5247818283
 20
-18.6146359382
 11
-2.7247818283
 21
-18.6146359382
  0
LINE
  5
2A0
100
AcDbEntity
  8
0
100
AcDbLine
 62
253
  6
CONTINUOUS
 10
-0.5330660066
 20
-22.3941821702
 11
-0.5243391388
 21
-22.4
  0
LINE
  5
2A1
100
AcDbEntity
  8
0
100
AcDbLine
 62
253
  6
CONTINUOUS
 10
-0.0330723527
 20
-21.8941990932
 11
-0.0243454849
 21
-21.900016923
  0
LINE
  5
2A2
100
AcDbEntity
  8
0
100
AcDbLine
 62
253
  6
CONTINUOUS
 10
-1.2747775975
 20
-24.5
 11
-1.2791494315
 21
-24.495628166
  0
LINE
  5
2A3
100
AcDbEntity
  8
0
100
AcDbLine
 62
253
  6
CONTINUOUS
 10
-1.0247818283
 20
-24.2500042308
 11
-1.0291536623
 21
-24.2456323968
  0
LINE
  5
2A4
100
AcDbEntity
  8
RACCORDO
100
AcDbLine
 62
7
  6
CONTINUOUS
 10
-4.5805164251
 20
-20.0942654032
 11
-4.6835086961
 21
-19.9912731322
  0
LWPOLYLINE
  5
2A5
100
AcDbEntity
  8
RACCORDO
100
AcDbPolyline
 62
7
  6
CONTINUOUS
 90
49
 70
0
 10
-12.4788707346
 20
-14.9220319874
 10
-12.4475489477
 20
-14.955972375
 10
-12.4041698489
 20
-15.0001641328
 10
-12.3592511629
 20
-15.0428028948
 10
-12.3128464196
 20
-15.0838344985
 10
-12.2650145274
 20
-15.1232071738
 10
-12.2158175201
 20
-15.1608691022
 10
-12.1653156032
 20
-15.1967716823
 10
-12.1135722214
 20
-15.230870656
 10
-12.0606547712
 20
-15.2631213002
 10
-12.006628497
 20
-15.293481958
 10
-11.9515613969
 20
-15.3219156547
 10
-11.895525397
 20
-15.3483853265
 10
-11.8385900416
 20
-15.3728567609
 10
-11.7808269273
 20
-15.3953007884
 10
-11.7223113363
 20
-15.4156885614
 10
-11.6631170794
 20
-15.4339934886
 10
-11.6033175766
 20
-15.4501948362
 10
-11.5429875956
 20
-15.464272866
 10
-11.4822029129
 20
-15.4762090377
 10
-11.4210390556
 20
-15.4859904286
 10
-11.3595703296
 20
-15.4936055045
 10
-11.2978733022
 20
-15.4990436912
 10
-11.2360250602
 20
-15.5022998253
 10
-11.1741006134
 20
-15.503370035
 10
-11.1121772179
 20
-15.5022516907
 10
-11.0503320458
 20
-15.4989475934
 10
-10.9886399807
 20
-15.4934615434
 10
-10.927178108
 20
-15.485798866
 10
-10.8660229578
 20
-15.4759702821
 10
-10.8052486557
 20
-15.4639872143
 10
-10.7449306803
 20
-15.4498627228
 10
-10.6851447933
 20
-15.4336154704
 10
-10.6259656335
 20
-15.4152650585
 10
-10.5674665556
 20
-15.3948323396
 10
-10.509721358
 20
-15.3723440061
 10
-10.4528052662
 20
-15.3478287665
 10
-10.396789818
 20
-15.3213159062
 10
-10.3417445285
 20
-15.2928397152
 10
-10.2877412932
 20
-15.2624371073
 10
-10.2348480457
 20
-15.2301451651
 10
-10.1831300029
 20
-15.1960056064
 10
-10.1326545553
 20
-15.1600629956
 10
-10.0834850774
 20
-15.1223616897
 10
-10.0356817546
 20
-15.082950338
 10
-9.9893066412
 20
-15.0418805964
 10
-9.9444185491
 20
-14.999204304
 10
-9.9010710227
 20
-14.9549756814
 10
-9.8706922306
 20
-14.9220312312
  0
LINE
  5
2A6
100
AcDbEntity
  8
RACCORDO
100
AcDbLine
 62
253
  6
CONTINUOUS
 10
-15.9590860623
 20
-15.5946985136
 11
-15.7862062005
 21
-19.0166572575
  0
LINE
  5
2A7
100
AcDbEntity
  8
RACCORDO
100
AcDbLine
 62
7
  6
CONTINUOUS
 10
-15.9922368932
 20
19.9912731322
 11
-15.9922368932
 21
15.6278543944
  0
LINE
  5
2A8
100
AcDbEntity
  8
RACCORDO
100
AcDbLine
 62
7
  6
CONTINUOUS
 10
-15.9922368932
 20
-15.6278543944
 11
-15.9922368932
 21
-19.9912731322
  0
LINE
  5
2A9
100
AcDbEntity
  8
RACCORDO
100
AcDbLine
 62
253
  6
CONTINUOUS
 10
-15.7862062005
 20
-20.0942882488
 11
-15.7862062005
 21
-19.0166572575
  0
LINE
  5
2AA
100
AcDbEntity
  8
RACCORDO
100
AcDbLine
 62
253
  6
CONTINUOUS
 10
-15.7862062005
 20
19.0166572575
 11
-15.7862062005
 21
20.0942882488
  0
LINE
  5
2AB
100
AcDbEntity
  8
0
100
AcDbLine
 62
7
  6
CONTINUOUS
 10
-15.6247818283
 20
24.0
 11
-15.6247818283
 21
23.3679449472
  0
LINE
  5
2AC
100
AcDbEntity
  8
0
100
AcDbLine
 62
7
  6
CONTINUOUS
 10
-15.6247818283
 20
22.9320550528
 11
-15.6247818283
 21
22.4
  0
LINE
  5
2AD
100
AcDbEntity
  8
0
100
AcDbLine
 62
7
  6
CONTINUOUS
 10
-15.6247818283
 20
-22.4
 11
-15.6247818283
 21
-22.9320550528
  0
LINE
  5
2AE
100
AcDbEntity
  8
0
100
AcDbLine
 62
7
  6
CONTINUOUS
 10
-15.6247818283
 20
-23.3679449472
 11
-15.6247818283
 21
-24.0
  0
LINE
  5
2AF
100
AcDbEntity
  8
RACCORDO
100
AcDbLine
 62
253
  6
CONTINUOUS
 10
-15.5862366615
 20
-20.2942577878
 11
-15.5862366615
 21
-19.0166572575
  0
LINE
  5
2B0
100
AcDbEntity
  8
RACCORDO
100
AcDbLine
 62
253
  6
CONTINUOUS
 10
-15.5862366615
 20
19.0166572575
 11
-15.5862366615
 21
20.2942577878
  0
LINE
  5
2B1
100
AcDbEntity
  8
0
100
AcDbLine
 62
7
  6
CONTINUOUS
 10
-15.5811481047
 20
-22.8586815327
 11
-15.5811481047
 21
-23.4413184673
  0
LINE
  5
2B2
100
AcDbEntity
  8
0
100
AcDbLine
 62
7
  6
CONTINUOUS
 10
-15.5811481047
 20
22.8586815327
 11
-15.5811481047
 21
23.4413184673
  0
LINE
  5
2B3
100
AcDbEntity
  8
0
100
AcDbLine
 62
253
  6
CONTINUOUS
 10
-15.5808595813
 20
-23.9538922731
 11
-15.5811481047
 21
-23.4413184673
  0
LINE
  5
2B4
100
AcDbEntity
  8
0
100
AcDbLine
 62
253
  6
CONTINUOUS
 10
-15.5811481047
 20
-22.8586815327
 11
-15.5808595813
 21
-22.356077753
  0
LINE
  5
2B5
100
AcDbEntity
  8
0
100
AcDbLine
 62
253
  6
CONTINUOUS
 10
-15.5808595813
 20
22.356077753
 11
-15.5811481047
 21
22.8586815327
  0
LINE
  5
2B6
100
AcDbEntity
  8
0
100
AcDbLine
 62
253
  6
CONTINUOUS
 10
-15.5811481047
 20
23.4413184673
 11
-15.5808595813
 21
23.9538922731
  0
LINE
  5
2B7
100
AcDbEntity
  8
RACCORDO
100
AcDbLine
 62
253
  6
CONTINUOUS
 10
-15.7862062005
 20
19.0166572575
 11
-15.9590860623
 21
15.5946985136
  0
LINE
  5
2B8
100
AcDbEntity
  8
RACCORDO
100
AcDbLine
 62
7
  6
CONTINUOUS
 10
-4.5805164251
 20
19.7942654032
 11
-4.6835086961
 21
19.6912731322
  0
LINE
  5
2B9
100
AcDbEntity
  8
RACCORDO
100
AcDbLine
 62
253
  6
CONTINUOUS
 10
-6.3904775943
 20
15.5946985136
 11
-6.3573267634
 21
15.6278543944
  0
LINE
  5
2BA
100
AcDbEntity
  8
0
100
AcDbLine
 62
7
  6
CONTINUOUS
 10
3.2752181717
 20
-17.25
 11
19.3752181717
 21
-17.25
  0
LINE
  5
2BB
100
AcDbEntity
  8
ASSI
100
AcDbLine
 62
7
  6
CONTINUOUS
 10
17.4443595174
 20
-17.1530070922
 11
5.206076826
 21
-17.1530070922
  0
LINE
  5
2BC
100
AcDbEntity
  8
RACCORDO
100
AcDbLine
 62
7
  6
CONTINUOUS
 10
17.4443595174
 20
-17.1530070922
 11
5.206076826
 21
-17.1530070922
  0
LINE
  5
2BD
100
AcDbEntity
  8
DRAFT
100
AcDbLine
 62
7
  6
CONTINUOUS
 10
-0.0243454849
 20
-17.1495750868
 11
0.6846680248
 21
-17.1711544917
  0
LINE
  5
2BE
100
AcDbEntity
  8
DRAFT
100
AcDbLine
 62
7
  6
CONTINUOUS
 10
1.5659268883
 20
-17.1979763246
 11
3.2752181717
 21
-17.25
  0
LINE
  5
2BF
100
AcDbEntity
  8
RACCORDO
100
AcDbLine
 62
7
  6
CONTINUOUS
 10
-4.5805164251
 20
-19.7942654032
 11
-4.6835086961
 21
-19.6912731322
  0
LINE
  5
2C0
100
AcDbEntity
  8
RACCORDO
100
AcDbLine
 62
253
  6
CONTINUOUS
 10
-6.3573267634
 20
-15.6278543944
 11
-6.3904775943
 21
-15.5946985136
  0
LINE
  5
2C1
100
AcDbEntity
  8
RACCORDO
100
AcDbLine
 62
253
  6
CONTINUOUS
 10
-14.8633574561
 20
19.0166572575
 11
-14.6904775943
 21
15.5946985136
  0
LWPOLYLINE
  5
2C2
100
AcDbEntity
  8
RACCORDO
100
AcDbPolyline
 62
7
  6
CONTINUOUS
 90
25
 70
0
 10
-12.9345396398
 20
-13.7512316446
 10
-12.9338380445
 20
-13.7912274244
 10
-12.9313871835
 20
-13.846225822
 10
-12.9272205329
 20
-13.9010959815
 10
-12.9213435004
 20
-13.9557793505
 10
-12.9137645538
 20
-14.0102237845
 10
-12.9044936492
 20
-14.0643809055
 10
-12.8935408887
 20
-14.1182015447
 10
-12.8809182065
 20
-14.171636094
 10
-12.8666399683
 20
-14.2246351423
 10
-12.8507207469
 20
-14.2771489539
 10
-12.8331761555
 20
-14.3291270315
 10
-12.8140251801
 20
-14.3805200099
 10
-12.793287328
 20
-14.4312801247
 10
-12.7709824769
 20
-14.4813591585
 10
-12.7471337133
 20
-14.5307084039
 10
-12.7217656966
 20
-14.5792812966
 10
-12.694902737
 20
-14.6270321761
 10
-12.6665708998
 20
-14.6739151595
 10
-12.6367989659
 20
-14.7198863931
 10
-12.6056160651
 20
-14.7649023976
 10
-12.573052009
 20
-14.8089195626
 10
-12.5391392981
 20
-14.8518963382
 10
-12.5039114444
 20
-14.8937923719
 10
-12.4788684992
 20
-14.9220344647
  0
LINE
  5
2C3
100
AcDbEntity
  8
RACCORDO
100
AcDbLine
 62
7
  6
CONTINUOUS
 10
-12.934539912
 20
-13.7512314714
 11
-12.9700568717
 21
-7.9831258159
  0
LINE
  5
2C4
100
AcDbEntity
  8
RACCORDO
100
AcDbLine
 62
253
  6
CONTINUOUS
 10
-15.0633269951
 20
20.2942577878
 11
-15.0633269951
 21
19.0166572575
  0
LINE
  5
2C5
100
AcDbEntity
  8
RACCORDO
100
AcDbLine
 62
253
  6
CONTINUOUS
 10
-15.0633269951
 20
-19.0166572575
 11
-15.0633269951
 21
-20.2942577878
  0
LINE
  5
2C6
100
AcDbEntity
  8
RACCORDO
100
AcDbLine
 62
253
  6
CONTINUOUS
 10
-14.8633574561
 20
20.0942882488
 11
-14.8633574561
 21
19.0166572575
  0
LINE
  5
2C7
100
AcDbEntity
  8
RACCORDO
100
AcDbLine
 62
253
  6
CONTINUOUS
 10
-14.8633574561
 20
-19.0166572575
 11
-14.8633574561
 21
-20.0942882488
  0
LINE
  5
2C8
100
AcDbEntity
  8
0
100
AcDbLine
 62
7
  6
CONTINUOUS
 10
-14.6747818283
 20
-22.3560930869
 11
-14.6747818283
 21
-23.9941821702
  0
LINE
  5
2C9
100
AcDbEntity
  8
0
100
AcDbLine
 62
7
  6
CONTINUOUS
 10
-14.6747818283
 20
22.3560930869
 11
-14.6747818283
 21
23.9941821702
  0
LINE
  5
2CA
100
AcDbEntity
  8
RACCORDO
100
AcDbLine
 62
7
  6
CONTINUOUS
 10
-14.6573267634
 20
19.9912731322
 11
-14.6573267634
 21
15.6278543944
  0
LINE
  5
2CB
100
AcDbEntity
  8
RACCORDO
100
AcDbLine
 62
7
  6
CONTINUOUS
 10
-14.6573267634
 20
-15.6278543944
 11
-14.6573267634
 21
-19.9912731322
  0
LINE
  5
2CC
100
AcDbEntity
  8
0
100
AcDbLine
 62
7
  6
CONTINUOUS
 10
-14.1747818283
 20
-20.8
 11
-14.1747818283
 21
-22.3941821702
  0
LINE
  5
2CD
100
AcDbEntity
  8
0
100
AcDbLine
 62
7
  6
CONTINUOUS
 10
-14.1747818283
 20
20.8
 11
-14.1747818283
 21
22.3941821702
  0
LINE
  5
2CE
100
AcDbEntity
  8
RACCORDO
100
AcDbLine
 62
253
  6
CONTINUOUS
 10
-13.8295067368
 20
13.8
 11
-13.8295067368
 21
7.875
  0
LINE
  5
2CF
100
AcDbEntity
  8
RACCORDO
100
AcDbLine
 62
253
  6
CONTINUOUS
 10
-13.8295067368
 20
-7.875
 11
-13.8295067368
 21
-13.8
  0
LINE
  5
2D0
100
AcDbEntity
  8
RACCORDO
100
AcDbLine
 62
7
  6
CONTINUOUS
 10
-13.6295067368
 20
13.8
 11
-13.6295067368
 21
7.875
  0
LINE
  5
2D1
100
AcDbEntity
  8
RACCORDO
100
AcDbLine
 62
7
  6
CONTINUOUS
 10
-13.6295067368
 20
-7.875
 11
-13.6295067368
 21
-13.8
  0
LINE
  5
2D2
100
AcDbEntity
  8
RACCORDO
100
AcDbLine
 62
253
  6
CONTINUOUS
 10
-13.3599537687
 20
-3.0957775713
 11
-13.3599537687
 21
3.0957775713
  0
LINE
  5
2D3
100
AcDbEntity
  8
RACCORDO
100
AcDbLine
 62
253
  6
CONTINUOUS
 10
-13.1599613841
 20
-2.8951662984
 11
-13.1599613841
 21
2.8951662984
  0
LINE
  5
2D4
100
AcDbEntity
  8
DRAFT
100
AcDbLine
 62
7
  6
CONTINUOUS
 10
-13.1093303199
 20
-2.3875793553
 11
-13.1093303199
 21
-0.8
  0
LINE
  5
2D5
100
AcDbEntity
  8
DRAFT
100
AcDbLine
 62
7
  6
CONTINUOUS
 10
-13.1093303199
 20
0.8
 11
-13.1093303199
 21
2.3875793553
  0
LINE
  5
2D6
100
AcDbEntity
  8
RACCORDO
100
AcDbLine
 62
7
  6
CONTINUOUS
 10
-12.9700569198
 20
-7.9831101978
 11
-12.9700569198
 21
-7.875
  0
LINE
  5
2D7
100
AcDbEntity
  8
RACCORDO
100
AcDbLine
 62
7
  6
CONTINUOUS
 10
-12.9700569198
 20
7.875
 11
-12.9700569198
 21
7.9831101978
  0
LINE
  5
2D8
100
AcDbEntity
  8
RACCORDO
100
AcDbLine
 62
7
  6
CONTINUOUS
 10
-12.9700568717
 20
7.9831258159
 11
-12.934539912
 21
13.7512314714
  0
LWPOLYLINE
  5
2D9
100
AcDbEntity
  8
RACCORDO
100
AcDbPolyline
 62
7
  6
CONTINUOUS
 90
61
 70
0
 10
-13.6295062153
 20
-7.875
 10
-13.6294673449
 20
-7.8699461257
 10
-13.6287222685
 20
-7.8522736586
 10
-13.6270306522
 20
-7.8346669979
 10
-13.6243974402
 20
-7.8171798449
 10
-13.6208309169
 20
-7.7998600845
 10
-13.6163397428
 20
-7.7827539107
 10
-13.6109370971
 20
-7.7659095351
 10
-13.6046381324
 20
-7.7493770467
 10
-13.5974602134
 20
-7.7332047618
 10
-13.5894246767
 20
-7.7174389181
 10
-13.5805535755
 20
-7.7021254571
 10
-13.570872662
 20
-7.6873085785
 10
-13.5604100039
 20
-7.6730310189
 10
-13.5491946904
 20
-7.6593346514
 10
-13.5372597026
 20
-7.6462585158
 10
-13.5246388493
 20
-7.6338407693
 10
-13.5113681689
 20
-7.6221175829
 10
-13.4974866454
 20
-7.6111225637
 10
-13.4830335308
 20
-7.6008883986
 10
-13.468050786
 20
-7.5914441757
 10
-13.4525819853
 20
-7.5828174985
 10
-13.4366713162
 20
-7.5750340623
 10
-13.4203650898
 20
-7.5681154636
 10
-13.4037103433
 20
-7.5620826279
 10
-13.3867551173
 20
-7.5569529077
 10
-13.3695485355
 20
-7.5527406027
 10
-13.352140233
 20
-7.5494590253
 10
-13.3345806003
 20
-7.5471167506
 10
-13.3169203344
 20
-7.5457208646
 10
-13.2992105548
 20
-7.5452759243
 10
-13.2815024309
 20
-7.5457822308
 10
-13.2638471299
 20
-7.5472392963
 10
-13.2462957538
 20
-7.5496424007
 10
-13.2288989719
 20
-7.5529842648
 10
-13.2117071462
 20
-7.5572561455
 10
-13.1947698615
 20
-7.56244456
 10
-13.1781361854
 20
-7.5685350249
 10
-13.161854105
 20
-7.5755100363
 10
-13.1459705807
 20
-7.5833484934
 10
-13.1305318456
 20
-7.5920286367
 10
-13.1155820031
 20
-7.6015246275
 10
-13.1011645268
 20
-7.6118086917
 10
-13.0873212836
 20
-7.6228516038
 10
-13.0740914048
 20
-7.6346205385
 10
-13.0615137502
 20
-7.6470817426
 10
-13.0496242454
 20
-7.6601989265
 10
-13.0384565469
 20
-7.6739338109
 10
-13.0280434896
 20
-7.6882472591
 10
-13.018414022
 20
-7.7030973027
 10
-13.0095960478
 20
-7.7184411023
 10
-13.0016151691
 20
-7.734234401
 10
-12.9944932745
 20
-7.7504311825
 10
-12.9882515375
 20
-7.7669851367
 10
-12.9829071671
 20
-7.7838479204
 10
-12.9784751332
 20
-7.8009693894
 10
-12.9749684637
 20
-7.8183012815
 10
-12.9723956654
 20
-7.8357974002
 10
-12.9707648549
 20
-7.8534098547
 10
-12.9700808228
 20
-7.87108495
 10
-12.9700574824
 20
-7.875
  0
LWPOLYLINE
  5
2DA
100
AcDbEntity
  8
RACCORDO
100
AcDbPolyline
 62
7
  6
CONTINUOUS
 90
61
 70
0
 10
-12.9700574836
 20
7.875
 10
-12.9700963819
 20
7.8699427572
 10
-12.970841748
 20
7.8522676359
 10
-12.972533941
 20
7.8346594891
 10
-12.9751676804
 20
7.8171716033
 10
-12.9787346947
 20
7.7998517843
 10
-12.9832261971
 20
7.7827461483
 10
-12.9886288087
 20
7.7659030153
 10
-12.9949274577
 20
7.7493724098
 10
-13.0021046603
 20
7.733202208
 10
-13.010139105
 20
7.717438643
 10
-13.0190087718
 20
7.7021276369
 10
-13.0286879142
 20
7.6873129929
 10
-13.0391486369
 20
7.6730374997
 10
-13.0503617877
 20
7.6593429741
 10
-13.0622945422
 20
7.6462682479
 10
-13.0749133152
 20
7.6338515217
 10
-13.0881819244
 20
7.6221289223
 10
-13.1020614737
 20
7.6111341862
 10
-13.1165127851
 20
7.60090002
 10
-13.1314938303
 20
7.5914554476
 10
-13.1469610749
 20
7.5828282904
 10
-13.1628702717
 20
7.5750441408
 10
-13.1791751506
 20
7.568124637
 10
-13.1958287072
 20
7.5620908305
 10
-13.2127828282
 20
7.5569599251
 10
-13.229988461
 20
7.5527463714
 10
-13.2473960139
 20
7.549463453
 10
-13.2649550834
 20
7.5471196936
 10
-13.2826150007
 20
7.5457223639
 10
-13.3003246656
 20
7.5452758746
 10
-13.31803292
 20
7.5457806389
 10
-13.3356885865
 20
7.5472362602
 10
-13.3532405411
 20
7.5496378832
 10
-13.3706380859
 20
7.5529784212
 10
-13.3878308765
 20
7.5572490528
 10
-13.4047692779
 20
7.5624362946
 10
-13.4214041562
 20
7.5685258011
 10
-13.4376875967
 20
7.5754999159
 10
-13.4535725995
 20
7.5833376806
 10
-13.4690129024
 20
7.5920173536
 10
-13.4839644508
 20
7.6015130113
 10
-13.4983837328
 20
7.6117970974
 10
-13.5122289592
 20
7.6228403069
 10
-13.5254609084
 20
7.6346098541
 10
-13.538040646
 20
7.6470721013
 10
-13.549932385
 20
7.6601907188
 10
-13.5611022359
 20
7.6739274792
 10
-13.5715172294
 20
7.6882430148
 10
-13.5811484565
 20
7.7030953187
 10
-13.5899678494
 20
7.7184415985
 10
-13.5979498088
 20
7.7342371903
 10
-13.6050723945
 20
7.750436068
 10
-13.6113144309
 20
7.7669919058
 10
-13.6166588159
 20
7.7838559214
 10
-13.6210904931
 20
7.8009779086
 10
-13.6245966632
 20
7.8183097177
 10
-13.6271689189
 20
7.8358050739
 10
-13.6287991486
 20
7.8534159889
 10
-13.6294828989
 20
7.8710883467
 10
-13.6295062165
 20
7.875
  0
LINE
  5
2DB
100
AcDbEntity
  8
RACCORDO
100
AcDbLine
 62
253
  6
CONTINUOUS
 10
-14.6904775943
 20
-15.5946985136
 11
-14.8633574561
 21
-19.0166572575
  0
LINE
  5
2DC
100
AcDbEntity
  8
RACCORDO
100
AcDbLine
 62
7
  6
CONTINUOUS
 10
-12.3144263391
 20
-14.8055381835
 11
-10.035136023
 21
-14.8055381835
  0
LINE
  5
2DD
100
AcDbEntity
  8
RACCORDO
100
AcDbLine
 62
253
  6
CONTINUOUS
 10
-8.7200569198
 20
-13.8
 11
-8.5200569198
 21
-13.8
  0
LINE
  5
2DE
100
AcDbEntity
  8
RACCORDO
100
AcDbLine
 62
253
  6
CONTINUOUS
 10
-13.6295067368
 20
-13.8
 11
-13.8295067368
 21
-13.8
  0
LINE
  5
2DF
100
AcDbEntity
  8
DRAFT
100
AcDbLine
 62
7
  6
CONTINUOUS
 10
-13.1093303199
 20
2.3875793553
 11
-13.1486012249
 21
2.7812783412
  0
LINE
  5
2E0
100
AcDbEntity
  8
RACCORDO
100
AcDbLine
 62
7
  6
CONTINUOUS
 10
-13.1486012249
 20
2.7812783412
 11
-13.1599613841
 21
2.8951662984
  0
LINE
  5
2E1
100
AcDbEntity
  8
RACCORDO
100
AcDbLine
 62
253
  6
CONTINUOUS
 10
-11.7515367078
 20
2.366045926
 11
-11.7791452622
 21
2.6428274224
  0
LINE
  5
2E2
100
AcDbEntity
  8
RACCORDO
100
AcDbLine
 62
253
  6
CONTINUOUS
 10
-11.4515481309
 20
2.6649043354
 11
-11.4631562698
 21
2.7812783412
  0
LINE
  5
2E3
100
AcDbEntity
  8
RACCORDO
100
AcDbLine
 62
7
  6
CONTINUOUS
 10
-10.5982322812
 20
-2.6649043354
 11
-10.5866241423
 21
-2.7812783412
  0
LWPOLYLINE
  5
2E4
100
AcDbEntity
  8
RACCORDO
100
AcDbPolyline
 62
7
  6
CONTINUOUS
 90
5
 70
0
 10
-11.76036474
 20
1.218178374
 10
-11.7604658063
 20
1.2194553099
 10
-11.760478736
 20
1.219644899
 10
-11.7604201132
 20
1.2186664197
 10
-11.7603309244
 20
1.2169953907
  0
LINE
  5
2E5
100
AcDbEntity
  8
RACCORDO
100
AcDbLine
 62
7
  6
CONTINUOUS
 10
-11.7603309244
 20
1.2169953907
 11
-11.7600901049
 21
1.2117642889
  0
LINE
  5
2E6
100
AcDbEntity
  8
RACCORDO
100
AcDbLine
 62
7
  6
CONTINUOUS
 10
-11.7600901049
 20
1.2117642889
 11
-11.7597984444
 21
1.2043238461
  0
LINE
  5
2E7
100
AcDbEntity
  8
RACCORDO
100
AcDbLine
 62
7
  6
CONTINUOUS
 10
-11.7597984444
 20
1.2043238461
 11
-11.759478289
 21
1.1948840058
  0
LINE
  5
2E8
100
AcDbEntity
  8
RACCORDO
100
AcDbLine
 62
7
  6
CONTINUOUS
 10
-11.759478289
 20
1.1948840058
 11
-11.7589720888
 21
1.1772162724
  0
LINE
  5
2E9
100
AcDbEntity
  8
RACCORDO
100
AcDbLine
 62
7
  6
CONTINUOUS
 10
-11.7589720888
 20
1.1772162724
 11
-11.7582747204
 21
1.1470615481
  0
LINE
  5
2EA
100
AcDbEntity
  8
RACCORDO
100
AcDbLine
 62
7
  6
CONTINUOUS
 10
-11.7582747204
 20
1.1470615481
 11
-11.7572081785
 21
1.0874139139
  0
LINE
  5
2EB
100
AcDbEntity
  8
RACCORDO
100
AcDbLine
 62
7
  6
CONTINUOUS
 10
-11.7572081785
 20
1.0874139139
 11
-11.7558022885
 21
0.9807413966
  0
LINE
  5
2EC
100
AcDbEntity
  8
RACCORDO
100
AcDbLine
 62
7
  6
CONTINUOUS
 10
-11.7558022885
 20
0.9807413966
 11
-11.7541516656
 21
0.7977978648
  0
LINE
  5
2ED
100
AcDbEntity
  8
RACCORDO
100
AcDbLine
 62
253
  6
CONTINUOUS
 10
-12.7345437033
 20
-13.7847296355
 11
-12.7701630248
 21
-8.0
  0
LINE
  5
2EE
100
AcDbEntity
  8
RACCORDO
100
AcDbLine
 62
253
  6
CONTINUOUS
 10
-11.754159484
 20
-0.800000008
 11
-11.7541629839
 21
-0.7978196696
  0
LINE
  5
2EF
100
AcDbEntity
  8
RACCORDO
100
AcDbLine
 62
253
  6
CONTINUOUS
 10
-12.7700569198
 20
-8.0
 11
-12.7700569198
 21
-7.875
  0
LINE
  5
2F0
100
AcDbEntity
  8
RACCORDO
100
AcDbLine
 62
253
  6
CONTINUOUS
 10
-12.7700569198
 20
7.875
 11
-12.7700569198
 21
8.0
  0
LINE
  5
2F1
100
AcDbEntity
  8
0
100
AcDbLine
 62
253
  6
CONTINUOUS
 10
-12.3747818283
 20
-24.0
 11
-12.3747818283
 21
-23.9941821702
  0
LINE
  5
2F2
100
AcDbEntity
  8
0
100
AcDbLine
 62
253
  6
CONTINUOUS
 10
-12.3747818283
 20
23.9941821702
 11
-12.3747818283
 21
24.0
  0
LINE
  5
2F3
100
AcDbEntity
  8
0
100
AcDbLine
 62
7
  6
CONTINUOUS
 10
-12.1747818283
 20
23.7941787855
 11
-12.1747818283
 21
22.3947639644
  0
LINE
  5
2F4
100
AcDbEntity
  8
0
100
AcDbLine
 62
7
  6
CONTINUOUS
 10
-12.1747818283
 20
-22.3947639644
 11
-12.1747818283
 21
-23.7941787855
  0
LINE
  5
2F5
100
AcDbEntity
  8
RACCORDO
100
AcDbLine
 62
7
  6
CONTINUOUS
 10
-11.7791452622
 20
-2.6428274224
 11
-11.7791452622
 21
-0.9
  0
LINE
  5
2F6
100
AcDbEntity
  8
RACCORDO
100
AcDbLine
 62
7
  6
CONTINUOUS
 10
-11.7791452622
 20
0.9
 11
-11.7791452622
 21
2.6428274224
  0
LINE
  5
2F7
100
AcDbEntity
  8
RACCORDO
100
AcDbLine
 62
7
  6
CONTINUOUS
 10
-11.745960318
 20
-1.6687096373
 11
-11.745960318
 21
-1.3
  0
LINE
  5
2F8
100
AcDbEntity
  8
RACCORDO
100
AcDbLine
 62
7
  6
CONTINUOUS
 10
-11.745960318
 20
1.3
 11
-11.745960318
 21
1.6687096373
  0
LINE
  5
2F9
100
AcDbEntity
  8
0
100
AcDbLine
 62
7
  6
CONTINUOUS
 10
-11.6997818283
 20
-5.6964918067
 11
-11.6997818283
 21
-12.5370254557
  0
LINE
  5
2FA
100
AcDbEntity
  8
0
100
AcDbLine
 62
7
  6
CONTINUOUS
 10
-11.6997818283
 20
5.6964918067
 11
-11.6997818283
 21
12.5370254557
  0
LINE
  5
2FB
100
AcDbEntity
  8
RACCORDO
100
AcDbLine
 62
253
  6
CONTINUOUS
 10
-11.4459717411
 20
-1.6687096373
 11
-11.4459717411
 21
-1.3
  0
LINE
  5
2FC
100
AcDbEntity
  8
RACCORDO
100
AcDbLine
 62
253
  6
CONTINUOUS
 10
-11.4459717411
 20
1.3
 11
-11.4459717411
 21
1.6687096373
  0
LINE
  5
2FD
100
AcDbEntity
  8
RACCORDO
100
AcDbLine
 62
253
  6
CONTINUOUS
 10
-11.754159484
 20
0.8000000082
 11
-11.7541619014
 21
0.7976840619
  0
LINE
  5
2FE
100
AcDbEntity
  8
RACCORDO
100
AcDbLine
 62
253
  6
CONTINUOUS
 10
-12.7701630248
 20
8.0
 11
-12.7345437033
 21
13.7847296355
  0
LINE
  5
2FF
100
AcDbEntity
  8
RACCORDO
100
AcDbLine
 62
7
  6
CONTINUOUS
 10
-11.7541514976
 20
-0.7978043974
 11
-11.7557967756
 21
-0.9800585343
  0
LINE
  5
300
100
AcDbEntity
  8
RACCORDO
100
AcDbLine
 62
7
  6
CONTINUOUS
 10
-11.7557967756
 20
-0.9800585343
 11
-11.7571446242
 21
-1.0834862686
  0
LINE
  5
301
100
AcDbEntity
  8
RACCORDO
100
AcDbLine
 62
7
  6
CONTINUOUS
 10
-11.7571446242
 20
-1.0834862686
 11
-11.7581786799
 21
-1.1422461578
  0
LINE
  5
302
100
AcDbEntity
  8
RACCORDO
100
AcDbLine
 62
7
  6
CONTINUOUS
 10
-11.7581786799
 20
-1.1422461578
 11
-11.7588511591
 21
-1.1724765665
  0
LINE
  5
303
100
AcDbEntity
  8
RACCORDO
100
AcDbLine
 62
7
  6
CONTINUOUS
 10
-11.7588511591
 20
-1.1724765665
 11
-11.7593418135
 21
-1.1905148244
  0
LINE
  5
304
100
AcDbEntity
  8
RACCORDO
100
AcDbLine
 62
7
  6
CONTINUOUS
 10
-11.7593418135
 20
-1.1905148244
 11
-11.7596554488
 21
-1.2003347258
  0
LINE
  5
305
100
AcDbEntity
  8
RACCORDO
100
AcDbLine
 62
7
  6
CONTINUOUS
 10
-11.7596554488
 20
-1.2003347258
 11
-11.7599506394
 21
-1.2083809376
  0
LWPOLYLINE
  5
306
100
AcDbEntity
  8
RACCORDO
100
AcDbPolyline
 62
7
  6
CONTINUOUS
 90
6
 70
0
 10
-11.7599506394
 20
-1.2083809376
 10
-11.760211768
 20
-1.2145071537
 10
-11.7603247358
 20
-1.2168429411
 10
-11.7604099633
 20
-1.2184508387
 10
-11.7604683426
 20
-1.2194484132
 10
-11.7604774569
 20
-1.2195922401
  0
LINE
  5
307
100
AcDbEntity
  8
RACCORDO
100
AcDbLine
 62
7
  6
CONTINUOUS
 10
-13.1599613841
 20
-2.8951662984
 11
-13.1485992461
 21
-2.7812585026
  0
LINE
  5
308
100
AcDbEntity
  8
DRAFT
100
AcDbLine
 62
7
  6
CONTINUOUS
 10
-13.1485992461
 20
-2.7812585026
 11
-13.1093303199
 21
-2.3875793553
  0
LINE
  5
309
100
AcDbEntity
  8
RACCORDO
100
AcDbLine
 62
253
  6
CONTINUOUS
 10
-11.7791452622
 20
-2.6428274224
 11
-11.7515367078
 21
-2.366045926
  0
LINE
  5
30A
100
AcDbEntity
  8
RACCORDO
100
AcDbLine
 62
253
  6
CONTINUOUS
 10
-11.4631562698
 20
-2.7812783412
 11
-11.4515481309
 21
-2.6649043354
  0
LINE
  5
30B
100
AcDbEntity
  8
RACCORDO
100
AcDbLine
 62
7
  6
CONTINUOUS
 10
-10.5982322812
 20
2.6649043354
 11
-10.5866241423
 21
2.7812783412
  0
LINE
  5
30C
100
AcDbEntity
  8
DRAFT
100
AcDbLine
 62
7
  6
CONTINUOUS
 10
-13.113051839
 20
0.7925563948
 11
-13.1093303199
 21
0.8
  0
LINE
  5
30D
100
AcDbEntity
  8
ASSI
100
AcDbLine
 62
7
  6
CONTINUOUS
 10
-4.1246848283
 20
12.0
 11
-6.1747818283
 21
11.341786
  0
LINE
  5
30E
100
AcDbEntity
  8
ASSI
100
AcDbLine
 62
7
  6
CONTINUOUS
 10
-5.5362838283
 20
11.136765
 11
-4.1246848283
 21
11.589979
  0
LINE
  5
30F
100
AcDbEntity
  8
0
100
AcDbLine
 62
7
  6
CONTINUOUS
 10
-11.6997818283
 20
-12.5370254557
 11
-10.6497818283
 21
-12.5370254557
  0
LINE
  5
310
100
AcDbEntity
  8
0
100
AcDbLine
 62
7
  6
CONTINUOUS
 10
-6.1304458283
 20
-12.000014
 11
-4.1311088283
 21
-12.000014
  0
LINE
  5
311
100
AcDbEntity
  8
0
100
AcDbLine
 62
7
  6
CONTINUOUS
 10
-4.1311088283
 20
-11.656277
 11
-5.5432018283
 21
-11.656269
  0
LINE
  5
312
100
AcDbEntity
  8
DRAFT
100
AcDbLine
 62
7
  6
CONTINUOUS
 10
-13.1093303199
 20
-0.8
 11
-13.113051839
 21
-0.7925563948
  0
LINE
  5
313
100
AcDbEntity
  8
RACCORDO
100
AcDbLine
 62
7
  6
CONTINUOUS
 10
-9.1896022725
 20
-2.8951662984
 11
-9.2009644105
 21
-2.7812585026
  0
LINE
  5
314
100
AcDbEntity
  8
DRAFT
100
AcDbLine
 62
7
  6
CONTINUOUS
 10
-9.2009644105
 20
-2.7812585026
 11
-9.2402333367
 21
-2.3875793553
  0
LWPOLYLINE
  5
315
100
AcDbEntity
  8
RACCORDO
100
AcDbPolyline
 62
7
  6
CONTINUOUS
 90
25
 70
0
 10
-9.4150240168
 20
13.7512316446
 10
-9.4157256121
 20
13.7912274244
 10
-9.4181764731
 20
13.846225822
 10
-9.4223431237
 20
13.9010959815
 10
-9.4282201562
 20
13.9557793505
 10
-9.4357991028
 20
14.0102237845
 10
-9.4450700074
 20
14.0643809055
 10
-9.4560227679
 20
14.1182015447
 10
-9.4686454501
 20
14.171636094
 10
-9.4829236883
 20
14.2246351423
 10
-9.4988429097
 20
14.2771489539
 10
-9.5163875011
 20
14.3291270315
 10
-9.5355384765
 20
14.3805200099
 10
-9.5562763286
 20
14.4312801247
 10
-9.5785811797
 20
14.4813591585
 10
-9.6024299433
 20
14.5307084039
 10
-9.62779796
 20
14.5792812966
 10
-9.6546609196
 20
14.627032176
 10
-9.6829927568
 20
14.6739151595
 10
-9.7127646907
 20
14.719886393
 10
-9.7439475915
 20
14.7649023976
 10
-9.7765116476
 20
14.8089195626
 10
-9.8104243585
 20
14.8518963381
 10
-9.8456522121
 20
14.8937923719
 10
-9.8706951574
 20
14.9220344647
  0
LINE
  5
316
100
AcDbEntity
  8
RACCORDO
100
AcDbLine
 62
253
  6
CONTINUOUS
 10
-9.6150199533
 20
13.7847296355
 11
-9.5794006318
 21
8.0
  0
LINE
  5
317
100
AcDbEntity
  8
RACCORDO
100
AcDbLine
 62
7
  6
CONTINUOUS
 10
-9.4150237446
 20
13.7512314714
 11
-9.3795067849
 21
7.9831258159
  0
LINE
  5
318
100
AcDbEntity
  8
0
100
AcDbLine
 62
7
  6
CONTINUOUS
 10
-10.6497818283
 20
-5.6964918067
 11
-10.6497818283
 21
-12.5370254557
  0
LINE
  5
319
100
AcDbEntity
  8
0
100
AcDbLine
 62
7
  6
CONTINUOUS
 10
-10.6497818283
 20
5.6964918067
 11
-10.6497818283
 21
12.5370254557
  0
LINE
  5
31A
100
AcDbEntity
  8
RACCORDO
100
AcDbLine
 62
7
  6
CONTINUOUS
 10
-10.6061985524
 20
1.6687096373
 11
-10.6061985524
 21
1.3
  0
LINE
  5
31B
100
AcDbEntity
  8
RACCORDO
100
AcDbLine
 62
7
  6
CONTINUOUS
 10
-10.6061985524
 20
-1.3
 11
-10.6061985524
 21
-1.6687096373
  0
LINE
  5
31C
100
AcDbEntity
  8
DRAFT
100
AcDbLine
 62
7
  6
CONTINUOUS
 10
-10.568545944
 20
2.7812783412
 11
-10.568545944
 21
0.9
  0
LINE
  5
31D
100
AcDbEntity
  8
DRAFT
100
AcDbLine
 62
7
  6
CONTINUOUS
 10
-10.568545944
 20
-0.9
 11
-10.568545944
 21
-2.7812783412
  0
LINE
  5
31E
100
AcDbEntity
  8
0
100
AcDbLine
 62
7
  6
CONTINUOUS
 10
-10.1747818283
 20
23.7941787855
 11
-10.1747818283
 21
22.3947639644
  0
LINE
  5
31F
100
AcDbEntity
  8
0
100
AcDbLine
 62
7
  6
CONTINUOUS
 10
-10.1747818283
 20
-22.3947639644
 11
-10.1747818283
 21
-23.7941787855
  0
LINE
  5
320
100
AcDbEntity
  8
0
100
AcDbLine
 62
253
  6
CONTINUOUS
 10
-9.9747818283
 20
24.0
 11
-9.9747818283
 21
23.9941821702
  0
LINE
  5
321
100
AcDbEntity
  8
0
100
AcDbLine
 62
253
  6
CONTINUOUS
 10
-9.9747818283
 20
-23.9941821702
 11
-9.9747818283
 21
-24.0
  0
LINE
  5
322
100
AcDbEntity
  8
RACCORDO
100
AcDbLine
 62
253
  6
CONTINUOUS
 10
-9.5795067368
 20
8.0
 11
-9.5795067368
 21
7.875
  0
LINE
  5
323
100
AcDbEntity
  8
RACCORDO
100
AcDbLine
 62
253
  6
CONTINUOUS
 10
-9.5795067368
 20
-7.875
 11
-9.5795067368
 21
-8.0
  0
LINE
  5
324
100
AcDbEntity
  8
RACCORDO
100
AcDbLine
 62
7
  6
CONTINUOUS
 10
-9.3795067368
 20
7.9831101978
 11
-9.3795067368
 21
7.875
  0
LINE
  5
325
100
AcDbEntity
  8
RACCORDO
100
AcDbLine
 62
7
  6
CONTINUOUS
 10
-9.3795067368
 20
-7.875
 11
-9.3795067368
 21
-7.9831101978
  0
LINE
  5
326
100
AcDbEntity
  8
DRAFT
100
AcDbLine
 62
7
  6
CONTINUOUS
 10
-9.2402333367
 20
-0.8
 11
-9.2402333367
 21
-2.3875793553
  0
LINE
  5
327
100
AcDbEntity
  8
DRAFT
100
AcDbLine
 62
7
  6
CONTINUOUS
 10
-9.2402333367
 20
0.8
 11
-9.2402333367
 21
2.3875793553
  0
LINE
  5
328
100
AcDbEntity
  8
RACCORDO
100
AcDbLine
 62
253
  6
CONTINUOUS
 10
-9.1896022725
 20
2.8951662984
 11
-9.1896022725
 21
-2.8951662984
  0
LINE
  5
329
100
AcDbEntity
  8
RACCORDO
100
AcDbLine
 62
253
  6
CONTINUOUS
 10
-8.9896098879
 20
3.0957775713
 11
-8.9896098879
 21
-3.0957775713
  0
LINE
  5
32A
100
AcDbEntity
  8
RACCORDO
100
AcDbLine
 62
7
  6
CONTINUOUS
 10
-8.7200569198
 20
-13.8
 11
-8.7200569198
 21
-7.875
  0
LINE
  5
32B
100
AcDbEntity
  8
RACCORDO
100
AcDbLine
 62
7
  6
CONTINUOUS
 10
-8.7200569198
 20
7.875
 11
-8.7200569198
 21
13.8
  0
LINE
  5
32C
100
AcDbEntity
  8
RACCORDO
100
AcDbLine
 62
253
  6
CONTINUOUS
 10
-9.5794006318
 20
-8.0
 11
-9.6150199533
 21
-13.7847296355
  0
LINE
  5
32D
100
AcDbEntity
  8
RACCORDO
100
AcDbLine
 62
7
  6
CONTINUOUS
 10
-9.3795067849
 20
-7.9831258159
 11
-9.4150237446
 21
-13.7512314714
  0
LWPOLYLINE
  5
32E
100
AcDbEntity
  8
RACCORDO
100
AcDbPolyline
 62
7
  6
CONTINUOUS
 90
61
 70
0
 10
-9.379506173
 20
-7.875
 10
-9.3794672747
 20
-7.8699427572
 10
-9.3787219086
 20
-7.8522676359
 10
-9.3770297156
 20
-7.8346594891
 10
-9.3743959762
 20
-7.8171716033
 10
-9.3708289619
 20
-7.7998517843
 10
-9.3663374595
 20
-7.7827461483
 10
-9.3609348479
 20
-7.7659030153
 10
-9.3546361989
 20
-7.7493724098
 10
-9.3474589963
 20
-7.733202208
 10
-9.3394245516
 20
-7.717438643
 10
-9.3305548848
 20
-7.7021276369
 10
-9.3208757424
 20
-7.6873129929
 10
-9.3104150197
 20
-7.6730374997
 10
-9.2992018689
 20
-7.6593429741
 10
-9.2872691144
 20
-7.6462682479
 10
-9.2746503414
 20
-7.6338515217
 10
-9.2613817322
 20
-7.6221289223
 10
-9.2475021829
 20
-7.6111341862
 10
-9.2330508715
 20
-7.60090002
 10
-9.2180698263
 20
-7.5914554476
 10
-9.2026025817
 20
-7.5828282904
 10
-9.1866933849
 20
-7.5750441408
 10
-9.170388506
 20
-7.568124637
 10
-9.1537349495
 20
-7.5620908305
 10
-9.1367808284
 20
-7.5569599251
 10
-9.1195751956
 20
-7.5527463714
 10
-9.1021676427
 20
-7.549463453
 10
-9.0846085732
 20
-7.5471196936
 10
-9.0669486559
 20
-7.5457223639
 10
-9.049238991
 20
-7.5452758746
 10
-9.0315307366
 20
-7.5457806389
 10
-9.0138750702
 20
-7.5472362602
 10
-8.9963231155
 20
-7.5496378832
 10
-8.9789255707
 20
-7.5529784212
 10
-8.9617327801
 20
-7.5572490528
 10
-8.9447943787
 20
-7.5624362946
 10
-8.9281595004
 20
-7.5685258011
 10
-8.91187606
 20
-7.5754999159
 10
-8.8959910571
 20
-7.5833376806
 10
-8.8805507543
 20
-7.5920173536
 10
-8.8655992058
 20
-7.6015130113
 10
-8.8511799238
 20
-7.6117970974
 10
-8.8373346974
 20
-7.6228403069
 10
-8.8241027482
 20
-7.6346098541
 10
-8.8115230106
 20
-7.6470721013
 10
-8.7996312716
 20
-7.6601907188
 10
-8.7884614208
 20
-7.6739274792
 10
-8.7780464272
 20
-7.6882430148
 10
-8.7684152002
 20
-7.7030953187
 10
-8.7595958072
 20
-7.7184415985
 10
-8.7516138478
 20
-7.7342371903
 10
-8.7444912621
 20
-7.750436068
 10
-8.7382492257
 20
-7.7669919058
 10
-8.7329048408
 20
-7.7838559214
 10
-8.7284731636
 20
-7.8009779086
 10
-8.7249669934
 20
-7.8183097177
 10
-8.7223947377
 20
-7.8358050739
 10
-8.720764508
 20
-7.8534159889
 10
-8.7200807577
 20
-7.8710883467
 10
-8.7200574401
 20
-7.875
  0
LWPOLYLINE
  5
32F
100
AcDbEntity
  8
RACCORDO
100
AcDbPolyline
 62
7
  6
CONTINUOUS
 90
61
 70
0
 10
-8.7200574413
 20
7.875
 10
-8.7200963117
 20
7.8699461257
 10
-8.7208413882
 20
7.8522736586
 10
-8.7225330044
 20
7.8346669979
 10
-8.7251662165
 20
7.8171798449
 10
-8.7287327397
 20
7.7998600845
 10
-8.7332239138
 20
7.7827539107
 10
-8.7386265595
 20
7.7659095351
 10
-8.7449255242
 20
7.7493770467
 10
-8.7521034432
 20
7.7332047618
 10
-8.7601389799
 20
7.7174389181
 10
-8.7690100811
 20
7.7021254571
 10
-8.7786909946
 20
7.6873085785
 10
-8.7891536527
 20
7.6730310189
 10
-8.8003689662
 20
7.6593346514
 10
-8.812303954
 20
7.6462585158
 10
-8.8249248073
 20
7.6338407693
 10
-8.8381954877
 20
7.6221175829
 10
-8.8520770112
 20
7.6111225637
 10
-8.8665301258
 20
7.6008883986
 10
-8.8815128706
 20
7.5914441757
 10
-8.8969816713
 20
7.5828174985
 10
-8.9128923404
 20
7.5750340623
 10
-8.9291985668
 20
7.5681154636
 10
-8.9458533133
 20
7.5620826279
 10
-8.9628085393
 20
7.5569529077
 10
-8.9800151211
 20
7.5527406027
 10
-8.9974234236
 20
7.5494590253
 10
-9.0149830563
 20
7.5471167506
 10
-9.0326433223
 20
7.5457208646
 10
-9.0503531018
 20
7.5452759243
 10
-9.0680612257
 20
7.5457822308
 10
-9.0857165267
 20
7.5472392963
 10
-9.1032679028
 20
7.5496424007
 10
-9.1206646847
 20
7.5529842648
 10
-9.1378565104
 20
7.5572561455
 10
-9.1547937951
 20
7.56244456
 10
-9.1714274712
 20
7.5685350249
 10
-9.1877095516
 20
7.5755100363
 10
-9.2035930759
 20
7.5833484934
 10
-9.219031811
 20
7.5920286367
 10
-9.2339816535
 20
7.6015246275
 10
-9.2483991298
 20
7.6118086917
 10
-9.262242373
 20
7.6228516038
 10
-9.2754722518
 20
7.6346205385
 10
-9.2880499065
 20
7.6470817426
 10
-9.2999394112
 20
7.6601989265
 10
-9.3111071098
 20
7.6739338109
 10
-9.321520167
 20
7.6882472591
 10
-9.3311496347
 20
7.7030973027
 10
-9.3399676088
 20
7.7184411023
 10
-9.3479484875
 20
7.734234401
 10
-9.3550703821
 20
7.7504311825
 10
-9.3613121191
 20
7.7669851367
 10
-9.3666564895
 20
7.7838479204
 10
-9.3710885235
 20
7.8009693894
 10
-9.3745951929
 20
7.8183012815
 10
-9.3771679912
 20
7.8357974002
 10
-9.3787988017
 20
7.8534098547
 10
-9.3794828339
 20
7.87108495
 10
-9.3795061742
 20
7.875
  0
LINE
  5
330
100
AcDbEntity
  8
DRAFT
100
AcDbLine
 62
7
  6
CONTINUOUS
 10
-9.2009624317
 20
2.7812783412
 11
-9.2402333367
 21
2.3875793553
  0
LINE
  5
331
100
AcDbEntity
  8
RACCORDO
100
AcDbLine
 62
7
  6
CONTINUOUS
 10
-9.1896022725
 20
2.8951662984
 11
-9.2009624317
 21
2.7812783412
  0
LINE
  5
332
100
AcDbEntity
  8
ASSI
100
AcDbLine
 62
7
  6
CONTINUOUS
 10
-4.8228788283
 20
8.770163
 11
-6.1747768283
 21
8.382519
  0
LINE
  5
333
100
AcDbEntity
  8
ASSI
100
AcDbLine
 62
7
  6
CONTINUOUS
 10
-5.4597778283
 20
8.177514
 11
-4.1246848283
 21
8.560346
  0
LINE
  5
334
100
AcDbEntity
  8
0
100
AcDbLine
 62
7
  6
CONTINUOUS
 10
-4.1311088283
 20
-10.385405
 11
-6.1304458283
 21
-10.385405
  0
LINE
  5
335
100
AcDbEntity
  8
0
100
AcDbLine
 62
7
  6
CONTINUOUS
 10
-10.6497818283
 20
-10.2335172624
 11
-11.6997818283
 21
-10.2335172624
  0
LINE
  5
336
100
AcDbEntity
  8
ASSI
100
AcDbLine
 62
7
  6
CONTINUOUS
 10
12.8252181717
 20
-8.5530070922
 11
9.8252181717
 21
-8.5530070922
  0
LINE
  5
337
100
AcDbEntity
  8
DRAFT
100
AcDbLine
 62
7
  6
CONTINUOUS
 10
12.8252181717
 20
-8.5530070922
 11
9.8252181717
 21
-8.5530070922
  0
LINE
  5
338
100
AcDbEntity
  8
0
100
AcDbLine
 62
7
  6
CONTINUOUS
 10
-6.1304458283
 20
-10.729138
 11
-4.7337648283
 21
-10.733982
  0
LINE
  5
339
100
AcDbEntity
  8
0
100
AcDbLine
 62
7
  6
CONTINUOUS
 10
-4.9538168283
 20
-7.243404
 11
-4.1311088283
 21
-8.103269
  0
LINE
  5
33A
100
AcDbEntity
  8
0
100
AcDbLine
 62
7
  6
CONTINUOUS
 10
-5.4375398283
 20
-6.738141
 11
-5.1994078283
 21
-6.993477
  0
LINE
  5
33B
100
AcDbEntity
  8
RACCORDO
100
AcDbLine
 62
253
  6
CONTINUOUS
 10
-7.6590860623
 20
-15.5946985136
 11
-7.4862062005
 21
-19.0166572575
  0
LINE
  5
33C
100
AcDbEntity
  8
RACCORDO
100
AcDbLine
 62
253
  6
CONTINUOUS
 10
-8.5200569198
 20
-13.8
 11
-8.5200569198
 21
-7.875
  0
LINE
  5
33D
100
AcDbEntity
  8
RACCORDO
100
AcDbLine
 62
253
  6
CONTINUOUS
 10
-8.5200569198
 20
7.875
 11
-8.5200569198
 21
13.8
  0
LINE
  5
33E
100
AcDbEntity
  8
0
100
AcDbLine
 62
7
  6
CONTINUOUS
 10
-8.1747818283
 20
-20.8
 11
-8.1747818283
 21
-22.3941821702
  0
LINE
  5
33F
100
AcDbEntity
  8
0
100
AcDbLine
 62
7
  6
CONTINUOUS
 10
-8.1747818283
 20
20.8
 11
-8.1747818283
 21
22.3941821702
  0
LINE
  5
340
100
AcDbEntity
  8
RACCORDO
100
AcDbLine
 62
7
  6
CONTINUOUS
 10
-7.6922368932
 20
19.9912731322
 11
-7.6922368932
 21
15.6278543944
  0
LINE
  5
341
100
AcDbEntity
  8
RACCORDO
100
AcDbLine
 62
7
  6
CONTINUOUS
 10
-7.6922368932
 20
-15.6278543944
 11
-7.6922368932
 21
-19.9912731322
  0
LINE
  5
342
100
AcDbEntity
  8
0
100
AcDbLine
 62
7
  6
CONTINUOUS
 10
-7.6747818283
 20
-22.3560930869
 11
-7.6747818283
 21
-23.9941821702
  0
LINE
  5
343
100
AcDbEntity
  8
0
100
AcDbLine
 62
7
  6
CONTINUOUS
 10
-7.6747818283
 20
22.3560930869
 11
-7.6747818283
 21
23.9941821702
  0
LINE
  5
344
100
AcDbEntity
  8
RACCORDO
100
AcDbLine
 62
253
  6
CONTINUOUS
 10
-7.4862062005
 20
-20.0942882488
 11
-7.4862062005
 21
-19.0166572575
  0
LINE
  5
345
100
AcDbEntity
  8
RACCORDO
100
AcDbLine
 62
253
  6
CONTINUOUS
 10
-7.4862062005
 20
19.0166572575
 11
-7.4862062005
 21
20.0942882488
  0
LINE
  5
346
100
AcDbEntity
  8
RACCORDO
100
AcDbLine
 62
253
  6
CONTINUOUS
 10
-7.2862366615
 20
-20.2942577878
 11
-7.2862366615
 21
-19.0166572575
  0
LINE
  5
347
100
AcDbEntity
  8
RACCORDO
100
AcDbLine
 62
253
  6
CONTINUOUS
 10
-7.2862366615
 20
19.0166572575
 11
-7.2862366615
 21
20.2942577878
  0
LINE
  5
348
100
AcDbEntity
  8
0
100
AcDbLine
 62
253
  6
CONTINUOUS
 10
-6.7687040754
 20
-23.9538922731
 11
-6.7684155519
 21
-23.4413184673
  0
LINE
  5
349
100
AcDbEntity
  8
0
100
AcDbLine
 62
253
  6
CONTINUOUS
 10
-6.7684155519
 20
-22.8586815327
 11
-6.7687040754
 21
-22.356077753
  0
LINE
  5
34A
100
AcDbEntity
  8
0
100
AcDbLine
 62
253
  6
CONTINUOUS
 10
-6.7687040754
 20
22.356077753
 11
-6.7684155519
 21
22.8586815327
  0
LINE
  5
34B
100
AcDbEntity
  8
0
100
AcDbLine
 62
253
  6
CONTINUOUS
 10
-6.7684155519
 20
23.4413184673
 11
-6.7687040754
 21
23.9538922731
  0
LINE
  5
34C
100
AcDbEntity
  8
0
100
AcDbLine
 62
7
  6
CONTINUOUS
 10
-6.7684155519
 20
-22.8586815327
 11
-6.7684155519
 21
-23.4413184673
  0
LINE
  5
34D
100
AcDbEntity
  8
0
100
AcDbLine
 62
7
  6
CONTINUOUS
 10
-6.7684155519
 20
22.8586815327
 11
-6.7684155519
 21
23.4413184673
  0
LINE
  5
34E
100
AcDbEntity
  8
RACCORDO
100
AcDbLine
 62
253
  6
CONTINUOUS
 10
-6.7633269951
 20
20.2942577878
 11
-6.7633269951
 21
19.0166572575
  0
LINE
  5
34F
100
AcDbEntity
  8
RACCORDO
100
AcDbLine
 62
253
  6
CONTINUOUS
 10
-6.7633269951
 20
-19.0166572575
 11
-6.7633269951
 21
-20.2942577878
  0
LINE
  5
350
100
AcDbEntity
  8
0
100
AcDbLine
 62
7
  6
CONTINUOUS
 10
-6.7247818283
 20
-24.0
 11
-6.7247818283
 21
-23.3679449472
  0
LINE
  5
351
100
AcDbEntity
  8
0
100
AcDbLine
 62
7
  6
CONTINUOUS
 10
-6.7247818283
 20
-22.9320550528
 11
-6.7247818283
 21
-22.4
  0
LINE
  5
352
100
AcDbEntity
  8
0
100
AcDbLine
 62
7
  6
CONTINUOUS
 10
-6.7247818283
 20
22.4
 11
-6.7247818283
 21
22.9320550528
  0
LINE
  5
353
100
AcDbEntity
  8
0
100
AcDbLine
 62
7
  6
CONTINUOUS
 10
-6.7247818283
 20
23.3679449472
 11
-6.7247818283
 21
24.0
  0
LINE
  5
354
100
AcDbEntity
  8
RACCORDO
100
AcDbLine
 62
253
  6
CONTINUOUS
 10
-6.5633574561
 20
20.0942882488
 11
-6.5633574561
 21
19.0166572575
  0
LINE
  5
355
100
AcDbEntity
  8
RACCORDO
100
AcDbLine
 62
253
  6
CONTINUOUS
 10
-6.5633574561
 20
-19.0166572575
 11
-6.5633574561
 21
-20.0942882488
  0
LINE
  5
356
100
AcDbEntity
  8
RACCORDO
100
AcDbLine
 62
7
  6
CONTINUOUS
 10
-6.3573267634
 20
19.9912731322
 11
-6.3573267634
 21
15.6278543944
  0
LINE
  5
357
100
AcDbEntity
  8
RACCORDO
100
AcDbLine
 62
7
  6
CONTINUOUS
 10
-6.3573267634
 20
-15.6278543944
 11
-6.3573267634
 21
-19.9912731322
  0
LINE
  5
358
100
AcDbEntity
  8
RACCORDO
100
AcDbLine
 62
253
  6
CONTINUOUS
 10
-7.4862062005
 20
19.0166572575
 11
-7.6590860623
 21
15.5946985136
  0
LINE
  5
359
100
AcDbEntity
  8
DRAFT
100
AcDbLine
 62
7
  6
CONTINUOUS
 10
-9.2402333367
 20
-0.8
 11
-9.2365118176
 21
-0.7925563948
  0
LINE
  5
35A
100
AcDbEntity
  8
ASSI
100
AcDbLine
 62
7
  6
CONTINUOUS
 10
-4.7631778283
 20
6.038282
 11
-5.3820928283
 21
5.839571
  0
LINE
  5
35B
100
AcDbEntity
  8
ASSI
100
AcDbLine
 62
7
  6
CONTINUOUS
 10
-5.7716078283
 20
5.7145
 11
-6.1747718283
 21
5.585063
  0
LINE
  5
35C
100
AcDbEntity
  8
ASSI
100
AcDbLine
 62
7
  6
CONTINUOUS
 10
-6.1747768283
 20
5.175043
 11
-4.1246788283
 21
5.833262
  0
LINE
  5
35D
100
AcDbEntity
  8
RACCORDO
100
AcDbLine
 62
7
  6
CONTINUOUS
 10
-12.7701630248
 20
-8.0
 11
-11.6997818283
 21
-8.0
  0
LINE
  5
35E
100
AcDbEntity
  8
RACCORDO
100
AcDbLine
 62
7
  6
CONTINUOUS
 10
-10.6497818283
 20
-8.0
 11
-9.5794006318
 21
-8.0
  0
LINE
  5
35F
100
AcDbEntity
  8
RACCORDO
100
AcDbLine
 62
253
  6
CONTINUOUS
 10
-12.9700569198
 20
-7.875
 11
-12.7700569198
 21
-7.875
  0
LINE
  5
360
100
AcDbEntity
  8
RACCORDO
100
AcDbLine
 62
253
  6
CONTINUOUS
 10
-8.7200569198
 20
-7.875
 11
-8.5200569198
 21
-7.875
  0
LINE
  5
361
100
AcDbEntity
  8
RACCORDO
100
AcDbLine
 62
253
  6
CONTINUOUS
 10
-9.3795067368
 20
-7.875
 11
-9.5795067368
 21
-7.875
  0
LINE
  5
362
100
AcDbEntity
  8
RACCORDO
100
AcDbLine
 62
253
  6
CONTINUOUS
 10
-13.6295067368
 20
-7.875
 11
-13.8295067368
 21
-7.875
  0
LINE
  5
363
100
AcDbEntity
  8
ASSI
100
AcDbLine
 62
7
  6
CONTINUOUS
 10
5.206076826
 20
-7.8530070922
 11
9.6252486327
 21
-7.8530070922
  0
LINE
  5
364
100
AcDbEntity
  8
RACCORDO
100
AcDbLine
 62
7
  6
CONTINUOUS
 10
5.206076826
 20
-7.8530070922
 11
9.6252486327
 21
-7.8530070922
  0
LINE
  5
365
100
AcDbEntity
  8
ASSI
100
AcDbLine
 62
7
  6
CONTINUOUS
 10
13.0251877107
 20
-7.8530070922
 11
17.4443595174
 21
-7.8530070922
  0
LINE
  5
366
100
AcDbEntity
  8
RACCORDO
100
AcDbLine
 62
7
  6
CONTINUOUS
 10
13.0251877107
 20
-7.8530070922
 11
17.4443595174
 21
-7.8530070922
  0
LINE
  5
367
100
AcDbEntity
  8
0
100
AcDbLine
 62
253
  6
CONTINUOUS
 10
3.2752181717
 20
-7.75
 11
19.3752181717
 21
-7.75
  0
LINE
  5
368
100
AcDbEntity
  8
RACCORDO
100
AcDbLine
 62
7
  6
CONTINUOUS
 10
-0.0243454849
 20
-7.0017301425
 11
0.708652354
 21
-7.0017301425
  0
LINE
  5
369
100
AcDbEntity
  8
RACCORDO
100
AcDbLine
 62
253
  6
CONTINUOUS
 10
-0.0243454849
 20
-6.8017377579
 11
0.7103824965
 21
-6.8017377579
  0
LINE
  5
36A
100
AcDbEntity
  8
0
100
AcDbLine
 62
7
  6
CONTINUOUS
 10
-5.0028238283
 20
-6.738141
 11
-4.1311088283
 21
-6.738148
  0
LINE
  5
36B
100
AcDbEntity
  8
0
100
AcDbLine
 62
7
  6
CONTINUOUS
 10
-6.1304458283
 20
-6.738148
 11
-5.4375398283
 21
-6.738141
  0
LINE
  5
36C
100
AcDbEntity
  8
RACCORDO
100
AcDbLine
 62
253
  6
CONTINUOUS
 10
0.7103824965
 20
-6.3982622421
 11
-0.0243454849
 21
-6.3982622421
  0
LINE
  5
36D
100
AcDbEntity
  8
0
100
AcDbLine
 62
7
  6
CONTINUOUS
 10
-4.1311088283
 20
-6.381087
 11
-6.1304458283
 21
-6.381087
  0
LINE
  5
36E
100
AcDbEntity
  8
0
100
AcDbLine
 62
7
  6
CONTINUOUS
 10
-4.1311088283
 20
-7.624509
 11
-5.0028238283
 21
-6.738141
  0
LINE
  5
36F
100
AcDbEntity
  8
DRAFT
100
AcDbLine
 62
7
  6
CONTINUOUS
 10
-9.2365118176
 20
0.7925563948
 11
-9.2402333367
 21
0.8
  0
LINE
  5
370
100
AcDbEntity
  8
RACCORDO
100
AcDbLine
 62
253
  6
CONTINUOUS
 10
-6.5633574561
 20
19.0166572575
 11
-6.3904775943
 21
15.5946985136
  0
LINE
  5
371
100
AcDbEntity
  8
0
100
AcDbLine
 62
253
  6
CONTINUOUS
 10
-3.9204099943
 20
-23.8443375673
 11
-3.9247818283
 21
-23.4104851482
  0
LINE
  5
372
100
AcDbEntity
  8
ASSI
100
AcDbLine
 62
7
  6
CONTINUOUS
 10
-6.1747718283
 20
5.585063
 11
-6.1747768283
 21
5.175043
  0
LINE
  5
373
100
AcDbEntity
  8
ASSI
100
AcDbLine
 62
7
  6
CONTINUOUS
 10
-6.1747768283
 20
9.180179
 11
-6.1747768283
 21
8.770163
  0
LINE
  5
374
100
AcDbEntity
  8
ASSI
100
AcDbLine
 62
7
  6
CONTINUOUS
 10
-6.1747768283
 20
7.584864
 11
-6.1747768283
 21
7.174848
  0
LINE
  5
375
100
AcDbEntity
  8
ASSI
100
AcDbLine
 62
7
  6
CONTINUOUS
 10
-6.1747718283
 20
4.901701
 11
-6.1747718283
 21
4.49168
  0
LINE
  5
376
100
AcDbEntity
  8
ASSI
100
AcDbLine
 62
7
  6
CONTINUOUS
 10
-6.1747718283
 20
3.722894
 11
-6.1747668283
 21
3.261075
  0
LINE
  5
377
100
AcDbEntity
  8
ASSI
100
AcDbLine
 62
7
  6
CONTINUOUS
 10
-6.1747768283
 20
6.901506
 11
-6.1747718283
 21
6.491491
  0
LINE
  5
378
100
AcDbEntity
  8
ASSI
100
AcDbLine
 62
7
  6
CONTINUOUS
 10
-6.1747768283
 20
8.382519
 11
-6.1747718283
 21
7.972514
  0
LINE
  5
379
100
AcDbEntity
  8
ASSI
100
AcDbLine
 62
7
  6
CONTINUOUS
 10
-6.1747818283
 20
10.000199
 11
-6.1747768283
 21
9.590184
  0
LINE
  5
37A
100
AcDbEntity
  8
ASSI
100
AcDbLine
 62
7
  6
CONTINUOUS
 10
-6.1747818283
 20
11.341786
 11
-6.1747768283
 21
10.931755
  0
LINE
  5
37B
100
AcDbEntity
  8
0
100
AcDbLine
 62
7
  6
CONTINUOUS
 10
-6.1304458283
 20
-3.7489
 11
-6.1304458283
 21
-5.169957
  0
LINE
  5
37C
100
AcDbEntity
  8
0
100
AcDbLine
 62
7
  6
CONTINUOUS
 10
-6.1304458283
 20
-5.599378
 11
-6.1304458283
 21
-5.956453
  0
LINE
  5
37D
100
AcDbEntity
  8
0
100
AcDbLine
 62
7
  6
CONTINUOUS
 10
-6.1304458283
 20
-6.381087
 11
-6.1304458283
 21
-6.738148
  0
LINE
  5
37E
100
AcDbEntity
  8
0
100
AcDbLine
 62
7
  6
CONTINUOUS
 10
-6.1304458283
 20
-7.658816
 11
-6.1304458283
 21
-8.107982
  0
LINE
  5
37F
100
AcDbEntity
  8
0
100
AcDbLine
 62
7
  6
CONTINUOUS
 10
-6.1304458283
 20
-10.385405
 11
-6.1304458283
 21
-10.729138
  0
LINE
  5
380
100
AcDbEntity
  8
0
100
AcDbLine
 62
7
  6
CONTINUOUS
 10
-6.1304458283
 20
-11.64322
 11
-6.1304458283
 21
-12.000014
  0
LINE
  5
381
100
AcDbEntity
  8
0
100
AcDbLine
 62
7
  6
CONTINUOUS
 10
-5.8131288283
 20
-5.169957
 11
-5.8131388283
 21
-4.105954
  0
LINE
  5
382
100
AcDbEntity
  8
ASSI
100
AcDbLine
 62
7
  6
CONTINUOUS
 10
-5.7716078283
 20
6.362049
 11
-5.7716078283
 21
5.7145
  0
LINE
  5
383
100
AcDbEntity
  8
ASSI
100
AcDbLine
 62
7
  6
CONTINUOUS
 10
-5.3820878283
 20
4.491634
 11
-5.3820928283
 21
4.133781
  0
LINE
  5
384
100
AcDbEntity
  8
ASSI
100
AcDbLine
 62
7
  6
CONTINUOUS
 10
-5.3820928283
 20
5.839571
 11
-5.3820928283
 21
6.236984
  0
LINE
  5
385
100
AcDbEntity
  8
0
100
AcDbLine
 62
7
  6
CONTINUOUS
 10
-5.2629048283
 20
-4.105954
 11
-5.2628968283
 21
-5.090277
  0
LINE
  5
386
100
AcDbEntity
  8
ASSI
100
AcDbLine
 62
7
  6
CONTINUOUS
 10
-5.0028228283
 20
3.9984815699
 11
-5.0028228283
 21
4.497333
  0
LINE
  5
387
100
AcDbEntity
  8
0
100
AcDbLine
 62
7
  6
CONTINUOUS
 10
-4.9455728283
 20
-5.090277
 11
-4.9455658283
 21
-4.105954
  0
LINE
  5
388
100
AcDbEntity
  8
DRAFT
100
AcDbLine
 62
7
  6
CONTINUOUS
 10
-4.6835086961
 20
-19.9912731322
 11
-4.6835086961
 21
-19.6912731322
  0
LINE
  5
389
100
AcDbEntity
  8
DRAFT
100
AcDbLine
 62
7
  6
CONTINUOUS
 10
-4.6835086961
 20
19.6912731322
 11
-4.6835086961
 21
19.9912731322
  0
LINE
  5
38A
100
AcDbEntity
  8
RACCORDO
100
AcDbLine
 62
253
  6
CONTINUOUS
 10
-4.5805164251
 20
20.0942654032
 11
-4.5805164251
 21
19.7942654032
  0
LINE
  5
38B
100
AcDbEntity
  8
RACCORDO
100
AcDbLine
 62
253
  6
CONTINUOUS
 10
-4.5805164251
 20
-19.7942654032
 11
-4.5805164251
 21
-20.0942654032
  0
LINE
  5
38C
100
AcDbEntity
  8
ASSI
100
AcDbLine
 62
7
  6
CONTINUOUS
 10
-4.5039448283
 20
4.497338
 11
-4.5039448283
 21
3.9985044301
  0
LINE
  5
38D
100
AcDbEntity
  8
0
100
AcDbLine
 62
7
  6
CONTINUOUS
 10
-4.4484228283
 20
-4.105954
 11
-4.4484258283
 21
-5.16192
  0
LINE
  5
38E
100
AcDbEntity
  8
RACCORDO
100
AcDbLine
 62
253
  6
CONTINUOUS
 10
-4.3805240405
 20
20.2942577878
 11
-4.3805240405
 21
19.9942577878
  0
LINE
  5
38F
100
AcDbEntity
  8
RACCORDO
100
AcDbLine
 62
253
  6
CONTINUOUS
 10
-4.3805240405
 20
-19.9942577878
 11
-4.3805240405
 21
-20.2942577878
  0
LINE
  5
390
100
AcDbEntity
  8
RACCORDO
100
AcDbLine
 62
253
  6
CONTINUOUS
 10
-4.1690396161
 20
-20.9
 11
-4.1690396161
 21
-19.9942577878
  0
LINE
  5
391
100
AcDbEntity
  8
RACCORDO
100
AcDbLine
 62
253
  6
CONTINUOUS
 10
-4.1690396161
 20
19.9942577878
 11
-4.1690396161
 21
20.9
  0
LINE
  5
392
100
AcDbEntity
  8
0
100
AcDbLine
 62
7
  6
CONTINUOUS
 10
-4.1311088283
 20
-12.000014
 11
-4.1311088283
 21
-11.656277
  0
LINE
  5
393
100
AcDbEntity
  8
0
100
AcDbLine
 62
7
  6
CONTINUOUS
 10
-4.1311088283
 20
-10.734288
 11
-4.1311088283
 21
-10.385405
  0
LINE
  5
394
100
AcDbEntity
  8
0
100
AcDbLine
 62
7
  6
CONTINUOUS
 10
-4.1311088283
 20
-8.103269
 11
-4.1311088283
 21
-7.624509
  0
LINE
  5
395
100
AcDbEntity
  8
0
100
AcDbLine
 62
7
  6
CONTINUOUS
 10
-4.1311088283
 20
-6.738148
 11
-4.1311088283
 21
-6.381087
  0
LINE
  5
396
100
AcDbEntity
  8
0
100
AcDbLine
 62
7
  6
CONTINUOUS
 10
-4.1311088283
 20
-5.956453
 11
-4.1311088283
 21
-5.599378
  0
LINE
  5
397
100
AcDbEntity
  8
0
100
AcDbLine
 62
7
  6
CONTINUOUS
 10
-4.1311088283
 20
-5.16192
 11
-4.1311088283
 21
-3.7489
  0
LINE
  5
398
100
AcDbEntity
  8
ASSI
100
AcDbLine
 62
7
  6
CONTINUOUS
 10
-4.1246848283
 20
7.174848
 11
-4.1246848283
 21
7.794681
  0
LINE
  5
399
100
AcDbEntity
  8
ASSI
100
AcDbLine
 62
7
  6
CONTINUOUS
 10
-4.1246848283
 20
8.560346
 11
-4.1246848283
 21
9.180179
  0
LINE
  5
39A
100
AcDbEntity
  8
ASSI
100
AcDbLine
 62
7
  6
CONTINUOUS
 10
-4.1246848283
 20
9.590179
 11
-4.1246848283
 21
10.000194
  0
LINE
  5
39B
100
AcDbEntity
  8
ASSI
100
AcDbLine
 62
7
  6
CONTINUOUS
 10
-4.1246848283
 20
10.273536
 11
-4.1246848283
 21
10.683557
  0
LINE
  5
39C
100
AcDbEntity
  8
ASSI
100
AcDbLine
 62
7
  6
CONTINUOUS
 10
-4.1246848283
 20
11.589979
 11
-4.1246848283
 21
12.0
  0
LINE
  5
39D
100
AcDbEntity
  8
ASSI
100
AcDbLine
 62
7
  6
CONTINUOUS
 10
-4.1246788283
 20
3.9415820299
 11
-4.1246788283
 21
4.901701
  0
LINE
  5
39E
100
AcDbEntity
  8
ASSI
100
AcDbLine
 62
7
  6
CONTINUOUS
 10
-4.1246788283
 20
5.833262
 11
-4.1246788283
 21
6.243298
  0
LINE
  5
39F
100
AcDbEntity
  8
0
100
AcDbLine
 62
253
  6
CONTINUOUS
 10
-3.9247818283
 20
23.4104851482
 11
-3.9204099943
 21
23.8443375673
  0
LINE
  5
3A0
100
AcDbEntity
  8
RACCORDO
100
AcDbLine
 62
253
  6
CONTINUOUS
 10
-6.3904775943
 20
-15.5946985136
 11
-6.5633574561
 21
-19.0166572575
  0
LINE
  5
3A1
100
AcDbEntity
  8
DRAFT
100
AcDbLine
 62
7
  6
CONTINUOUS
 10
0.6928053815
 20
20.5027418769
 11
0.7252181717
 21
20.6
  0
LINE
  5
3A2
100
AcDbEntity
  8
RACCORDO
100
AcDbLine
 62
7
  6
CONTINUOUS
 10
7.0249713937
 20
20.5027418762
 11
7.0532376654
 21
20.5451466669
  0
LINE
  5
3A3
100
AcDbEntity
  8
ASSI
100
AcDbLine
 62
7
  6
CONTINUOUS
 10
-5.3820928283
 20
4.133781
 11
-6.1747718283
 21
3.722894
  0
LINE
  5
3A4
100
AcDbEntity
  8
ASSI
100
AcDbLine
 62
7
  6
CONTINUOUS
 10
-6.1747668283
 20
3.261075
 11
-5.3327832315
 21
3.6975158277
  0
LINE
  5
3A5
100
AcDbEntity
  8
RACCORDO
100
AcDbLine
 62
7
  6
CONTINUOUS
 10
0.708652354
 20
-6.1982698575
 11
-0.0243454849
 21
-6.1982698575
  0
LINE
  5
3A6
100
AcDbEntity
  8
0
100
AcDbLine
 62
7
  6
CONTINUOUS
 10
21.8252181717
 20
-6.0
 11
21.1063951278
 21
-6.0
  0
LINE
  5
3A7
100
AcDbEntity
  8
DRAFT
100
AcDbLine
 62
7
  6
CONTINUOUS
 10
1.5252181717
 20
-6.0
 11
0.8252181717
 21
-6.0
  0
LINE
  5
3A8
100
AcDbEntity
  8
0
100
AcDbLine
 62
7
  6
CONTINUOUS
 10
-6.1304458283
 20
-5.956453
 11
-4.1311088283
 21
-5.956453
  0
LINE
  5
3A9
100
AcDbEntity
  8
0
100
AcDbLine
 62
7
  6
CONTINUOUS
 10
-11.6997818283
 20
-5.6964918067
 11
-10.6497818283
 21
-5.6964918067
  0
LINE
  5
3AA
100
AcDbEntity
  8
0
100
AcDbLine
 62
7
  6
CONTINUOUS
 10
-4.1311088283
 20
-5.599378
 11
-6.1304458283
 21
-5.599378
  0
LINE
  5
3AB
100
AcDbEntity
  8
0
100
AcDbLine
 62
7
  6
CONTINUOUS
 10
-6.1304458283
 20
-5.169957
 11
-5.8131288283
 21
-5.169957
  0
LINE
  5
3AC
100
AcDbEntity
  8
0
100
AcDbLine
 62
7
  6
CONTINUOUS
 10
-4.4484258283
 20
-5.16192
 11
-4.1311088283
 21
-5.16192
  0
LINE
  5
3AD
100
AcDbEntity
  8
0
100
AcDbLine
 62
7
  6
CONTINUOUS
 10
-5.2628968283
 20
-5.090277
 11
-4.9455728283
 21
-5.090277
  0
LINE
  5
3AE
100
AcDbEntity
  8
DRAFT
100
AcDbLine
 62
7
  6
CONTINUOUS
 10
0.7252181717
 20
-20.6
 11
0.6926688479
 21
-20.5023321929
  0
LINE
  5
3AF
100
AcDbEntity
  8
0
100
AcDbLine
 62
253
  6
CONTINUOUS
 10
-3.6704142251
 20
-23.6278312164
 11
-3.6755048262
 21
-23.1226497308
  0
LINE
  5
3B0
100
AcDbEntity
  8
RACCORDO
100
AcDbLine
 62
253
  6
CONTINUOUS
 10
-3.9690472315
 20
-20.9
 11
-3.9690472315
 21
-19.7942654032
  0
LINE
  5
3B1
100
AcDbEntity
  8
RACCORDO
100
AcDbLine
 62
253
  6
CONTINUOUS
 10
-3.9690472315
 20
19.7942654032
 11
-3.9690472315
 21
20.9
  0
LINE
  5
3B2
100
AcDbEntity
  8
0
100
AcDbLine
 62
7
  6
CONTINUOUS
 10
-3.9247818283
 20
-22.4
 11
-3.9247818283
 21
-24.2500042308
  0
LINE
  5
3B3
100
AcDbEntity
  8
0
100
AcDbLine
 62
7
  6
CONTINUOUS
 10
-3.9247818283
 20
22.4
 11
-3.9247818283
 21
24.2500042308
  0
LINE
  5
3B4
100
AcDbEntity
  8
0
100
AcDbLine
 62
253
  6
CONTINUOUS
 10
-3.9204099943
 20
24.2456323968
 11
-3.9204099943
 21
23.8443375673
  0
LINE
  5
3B5
100
AcDbEntity
  8
0
100
AcDbLine
 62
253
  6
CONTINUOUS
 10
-3.9204099943
 20
-23.8443375673
 11
-3.9204099943
 21
-24.2456323968
  0
LINE
  5
3B6
100
AcDbEntity
  8
DRAFT
100
AcDbLine
 62
7
  6
CONTINUOUS
 10
-3.8660549605
 20
20.9
 11
-3.8660549605
 21
19.6912731322
  0
LINE
  5
3B7
100
AcDbEntity
  8
DRAFT
100
AcDbLine
 62
7
  6
CONTINUOUS
 10
-3.8660549605
 20
-19.6912731322
 11
-3.8660549605
 21
-20.9
  0
LINE
  5
3B8
100
AcDbEntity
  8
0
100
AcDbLine
 62
253
  6
CONTINUOUS
 10
-3.6704142251
 20
-23.6278312164
 11
-3.6704142251
 21
-24.495628166
  0
LINE
  5
3B9
100
AcDbEntity
  8
0
100
AcDbLine
 62
253
  6
CONTINUOUS
 10
-3.6704142251
 20
23.6278312164
 11
-3.6704142251
 21
24.495628166
  0
LINE
  5
3BA
100
AcDbEntity
  8
0
100
AcDbLine
 62
253
  6
CONTINUOUS
 10
-3.6081361741
 20
21.3359869487
 11
-3.6081361741
 21
20.9
  0
LINE
  5
3BB
100
AcDbEntity
  8
0
100
AcDbLine
 62
253
  6
CONTINUOUS
 10
-3.6081361741
 20
-20.9
 11
-3.6081361741
 21
-21.3359869487
  0
LINE
  5
3BC
100
AcDbEntity
  8
0
100
AcDbLine
 62
253
  6
CONTINUOUS
 10
-3.1082123265
 20
21.5834304982
 11
-3.1082123265
 21
20.9
  0
LINE
  5
3BD
100
AcDbEntity
  8
0
100
AcDbLine
 62
253
  6
CONTINUOUS
 10
-3.1082123265
 20
-20.9
 11
-3.1082123265
 21
-21.5834304982
  0
LINE
  5
3BE
100
AcDbEntity
  8
0
100
AcDbLine
 62
7
  6
CONTINUOUS
 10
-2.9422368932
 20
21.4174550649
 11
-2.9422368932
 21
20.9
  0
LINE
  5
3BF
100
AcDbEntity
  8
0
100
AcDbLine
 62
7
  6
CONTINUOUS
 10
-2.9422368932
 20
-20.9
 11
-2.9422368932
 21
-21.4174550649
  0
LINE
  5
3C0
100
AcDbEntity
  8
0
100
AcDbLine
 62
7
  6
CONTINUOUS
 10
-2.7247818283
 20
-18.6146359382
 11
-2.7247818283
 21
18.6146359382
  0
LINE
  5
3C1
100
AcDbEntity
  8
0
100
AcDbLine
 62
253
  6
CONTINUOUS
 10
-3.6755048262
 20
23.1226497308
 11
-3.6704142251
 21
23.6278312164
  0
LINE
  5
3C2
100
AcDbEntity
  8
RACCORDO
100
AcDbLine
 62
7
  6
CONTINUOUS
 10
0.6867064997
 20
6.1763240033
 11
0.708652354
 21
6.1982698575
  0
LINE
  5
3C3
100
AcDbEntity
  8
0
100
AcDbLine
 62
7
  6
CONTINUOUS
 10
8.2127181717
 20
7.9042553306
 11
8.3377181642
 21
7.9680851102
  0
LINE
  5
3C4
100
AcDbEntity
  8
0
100
AcDbLine
 62
7
  6
CONTINUOUS
 10
12.7752182909
 20
7.3297872245
 11
12.9627182909
 21
7.3936170042
  0
LINE
  5
3C5
100
AcDbEntity
  8
0
100
AcDbLine
 62
7
  6
CONTINUOUS
 10
-5.8131388283
 20
-4.105954
 11
-5.2629048283
 21
-4.105954
  0
LINE
  5
3C6
100
AcDbEntity
  8
0
100
AcDbLine
 62
7
  6
CONTINUOUS
 10
-4.9455658283
 20
-4.105954
 11
-4.4484228283
 21
-4.105954
  0
LINE
  5
3C7
100
AcDbEntity
  8
0
100
AcDbLine
 62
7
  6
CONTINUOUS
 10
-4.1311088283
 20
-3.7489
 11
-6.1304458283
 21
-3.7489
  0
LINE
  5
3C8
100
AcDbEntity
  8
RACCORDO
100
AcDbLine
 62
253
  6
CONTINUOUS
 10
-8.9896098879
 20
-3.0957775713
 11
-13.3599537687
 21
-3.0957775713
  0
LINE
  5
3C9
100
AcDbEntity
  8
RACCORDO
100
AcDbLine
 62
253
  6
CONTINUOUS
 10
-9.1888488275
 20
-2.8965386317
 11
-13.1607148291
 21
-2.8965386317
  0
LINE
  5
3CA
100
AcDbEntity
  8
DRAFT
100
AcDbLine
 62
7
  6
CONTINUOUS
 10
-13.1486002355
 20
-2.7812783412
 11
-9.2009634211
 21
-2.7812783412
  0
LINE
  5
3CB
100
AcDbEntity
  8
RACCORDO
100
AcDbLine
 62
253
  6
CONTINUOUS
 10
-11.4515481309
 20
-2.6649043354
 11
-10.5982322812
 21
-2.6649043354
  0
LINE
  5
3CC
100
AcDbEntity
  8
RACCORDO
100
AcDbLine
 62
7
  6
CONTINUOUS
 10
0.6846680248
 20
-6.1742855284
 11
0.708652354
 21
-6.1982698575
  0
LINE
  5
3CD
100
AcDbEntity
  8
DRAFT
100
AcDbLine
 62
7
  6
CONTINUOUS
 10
-13.6295067368
 20
9.1630423509
 11
-12.9668737195
 21
8.5000833057
  0
LINE
  5
3CE
100
AcDbEntity
  8
DRAFT
100
AcDbLine
 62
7
  6
CONTINUOUS
 10
-0.0243454849
 20
-4.4488128961
 11
0.6846680248
 21
-5.1581752537
  0
LINE
  5
3CF
100
AcDbEntity
  8
DRAFT
100
AcDbLine
 62
7
  6
CONTINUOUS
 10
1.5659268883
 20
-6.0398677131
 11
3.2752181717
 21
-7.75
  0
LINE
  5
3D0
100
AcDbEntity
  8
0
100
AcDbLine
 62
253
  6
CONTINUOUS
 10
-1.2791494315
 20
23.6278312164
 11
-1.2740588304
 21
23.1226497308
  0
LINE
  5
3D1
100
AcDbEntity
  8
0
100
AcDbLine
 62
253
  6
CONTINUOUS
 10
-1.0291536623
 20
23.8443375673
 11
-1.0247818283
 21
23.4104851482
  0
LINE
  5
3D2
100
AcDbEntity
  8
0
100
AcDbLine
 62
7
  6
CONTINUOUS
 10
-1.5247818283
 20
-18.8686291501
 11
-1.5247818283
 21
18.8686291501
  0
LINE
  5
3D3
100
AcDbEntity
  8
0
100
AcDbLine
 62
7
  6
CONTINUOUS
 10
-1.5073267634
 20
18.8511740852
 11
-1.5073267634
 21
-18.8511740852
  0
LINE
  5
3D4
100
AcDbEntity
  8
0
100
AcDbLine
 62
253
  6
CONTINUOUS
 10
-1.2791494315
 20
-23.6278312164
 11
-1.2791494315
 21
-24.495628166
  0
LINE
  5
3D5
100
AcDbEntity
  8
0
100
AcDbLine
 62
253
  6
CONTINUOUS
 10
-1.2791494315
 20
23.6278312164
 11
-1.2791494315
 21
24.495628166
  0
LINE
  5
3D6
100
AcDbEntity
  8
0
100
AcDbLine
 62
253
  6
CONTINUOUS
 10
-1.0291536623
 20
-24.2456323968
 11
-1.0291536623
 21
-23.8443375673
  0
LINE
  5
3D7
100
AcDbEntity
  8
0
100
AcDbLine
 62
253
  6
CONTINUOUS
 10
-1.0291536623
 20
23.8443375673
 11
-1.0291536623
 21
24.2456323968
  0
LINE
  5
3D8
100
AcDbEntity
  8
0
100
AcDbLine
 62
7
  6
CONTINUOUS
 10
-1.0247818283
 20
-22.4
 11
-1.0247818283
 21
-24.2500042308
  0
LINE
  5
3D9
100
AcDbEntity
  8
0
100
AcDbLine
 62
7
  6
CONTINUOUS
 10
-1.0247818283
 20
22.4
 11
-1.0247818283
 21
24.2500042308
  0
LINE
  5
3DA
100
AcDbEntity
  8
0
100
AcDbLine
 62
7
  6
CONTINUOUS
 10
-0.0417992205
 20
-18.5170173922
 11
-0.0417992205
 21
18.5170173922
  0
LINE
  5
3DB
100
AcDbEntity
  8
0
100
AcDbLine
 62
7
  6
CONTINUOUS
 10
-0.0330723527
 20
21.8941990932
 11
-0.0330723527
 21
18.5082905244
  0
LINE
  5
3DC
100
AcDbEntity
  8
0
100
AcDbLine
 62
7
  6
CONTINUOUS
 10
-0.0330723527
 20
-18.5082905244
 11
-0.0330723527
 21
-21.8941990932
  0
LINE
  5
3DD
100
AcDbEntity
  8
0
100
AcDbLine
 62
7
  6
CONTINUOUS
 10
-0.0243454849
 20
21.900016923
 11
-0.0243454849
 21
-21.900016923
  0
LINE
  5
3DE
100
AcDbEntity
  8
0
100
AcDbLine
 62
253
  6
CONTINUOUS
 10
-1.2740588304
 20
-23.1226497308
 11
-1.2791494315
 21
-23.6278312164
  0
LINE
  5
3DF
100
AcDbEntity
  8
0
100
AcDbLine
 62
253
  6
CONTINUOUS
 10
-1.0247818283
 20
-23.4104851482
 11
-1.0291536623
 21
-23.8443375673
  0
LINE
  5
3E0
100
AcDbEntity
  8
DRAFT
100
AcDbLine
 62
7
  6
CONTINUOUS
 10
18.8252181717
 20
20.6
 11
18.2252181717
 21
20.0
  0
LINE
  5
3E1
100
AcDbEntity
  8
RACCORDO
100
AcDbLine
 62
253
  6
CONTINUOUS
 10
-15.9922368932
 20
-15.6278543944
 11
-15.9590860623
 21
-15.5946985136
  0
LINE
  5
3E2
100
AcDbEntity
  8
RACCORDO
100
AcDbLine
 62
253
  6
CONTINUOUS
 10
20.7280628202
 20
20.502741846
 11
20.8253209742
 21
20.6
  0
LINE
  5
3E3
100
AcDbEntity
  8
0
100
AcDbLine
 62
7
  6
CONTINUOUS
 10
10.0733861717
 20
11.090385
 11
11.0483921717
 21
12.049272
  0
LINE
  5
3E4
100
AcDbEntity
  8
0
100
AcDbLine
 62
7
  6
CONTINUOUS
 10
11.5750291717
 20
12.049272
 11
10.6291761717
 21
11.144293
  0
LINE
  5
3E5
100
AcDbEntity
  8
0
100
AcDbLine
 62
7
  6
CONTINUOUS
 10
10.3542561717
 20
10.874142
 11
10.0733861717
 21
10.612197
  0
LINE
  5
3E6
100
AcDbEntity
  8
0
100
AcDbLine
 62
7
  6
CONTINUOUS
 10
8.3689681791
 20
7.8085106611
 11
8.2752181791
 21
7.7446808815
  0
LINE
  5
3E7
100
AcDbEntity
  8
0
100
AcDbLine
 62
7
  6
CONTINUOUS
 10
9.8064681717
 20
7.8085106611
 11
9.7127181717
 21
7.7446808815
  0
LINE
  5
3E8
100
AcDbEntity
  8
0
100
AcDbLine
 62
7
  6
CONTINUOUS
 10
11.1814682909
 20
7.8085106611
 11
11.0877182909
 21
7.7446808815
  0
LINE
  5
3E9
100
AcDbEntity
  8
0
100
AcDbLine
 62
7
  6
CONTINUOUS
 10
10.1189682313
 20
6.6914893612
 11
10.2127182313
 21
6.7553191409
  0
LINE
  5
3EA
100
AcDbEntity
  8
0
100
AcDbLine
 62
7
  6
CONTINUOUS
 10
9.6189681717
 20
7.8723404408
 11
9.7752181121
 21
7.9680851102
  0
LINE
  5
3EB
100
AcDbEntity
  8
0
100
AcDbLine
 62
7
  6
CONTINUOUS
 10
10.9939681121
 20
7.8723404408
 11
11.1502180525
 21
7.9680851102
  0
LINE
  5
3EC
100
AcDbEntity
  8
0
100
AcDbLine
 62
7
  6
CONTINUOUS
 10
10.3064682313
 20
6.6276595704
 11
10.1502181121
 21
6.5319148926
  0
LINE
  5
3ED
100
AcDbEntity
  8
0
100
AcDbLine
 62
7
  6
CONTINUOUS
 10
12.3377181717
 20
7.9042553306
 11
12.4627180525
 21
7.9680851102
  0
LINE
  5
3EE
100
AcDbEntity
  8
0
100
AcDbLine
 62
7
  6
CONTINUOUS
 10
13.7127182909
 20
7.9042553306
 11
13.8377181717
 21
7.9680851102
  0
LINE
  5
3EF
100
AcDbEntity
  8
0
100
AcDbLine
 62
7
  6
CONTINUOUS
 10
12.9627182909
 20
6.6914893612
 11
13.0252180525
 21
6.723404251
  0
LINE
  5
3F0
100
AcDbEntity
  8
0
100
AcDbLine
 62
7
  6
CONTINUOUS
 10
13.0877181717
 20
6.5957446806
 11
12.9627182909
 21
6.5319148926
  0
LINE
  5
3F1
100
AcDbEntity
  8
RACCORDO
100
AcDbLine
 62
253
  6
CONTINUOUS
 10
-11.745960318
 20
-1.6687096373
 11
-10.6061985524
 21
-1.6687096373
  0
LINE
  5
3F2
100
AcDbEntity
  8
RACCORDO
100
AcDbLine
 62
253
  6
CONTINUOUS
 10
-10.6061985524
 20
-1.3
 11
-11.745960318
 21
-1.3
  0
LINE
  5
3F3
100
AcDbEntity
  8
0
100
AcDbLine
 62
7
  6
CONTINUOUS
 10
-13.1093303199
 20
-0.9
 11
-11.7549924117
 21
-0.9
  0
LINE
  5
3F4
100
AcDbEntity
  8
DRAFT
100
AcDbLine
 62
7
  6
CONTINUOUS
 10
-13.1093303199
 20
-0.9
 11
-11.7549924117
 21
-0.9
  0
LINE
  5
3F5
100
AcDbEntity
  8
0
100
AcDbLine
 62
7
  6
CONTINUOUS
 10
-10.5896318449
 20
-0.9
 11
-9.2402333367
 21
-0.9
  0
LINE
  5
3F6
100
AcDbEntity
  8
DRAFT
100
AcDbLine
 62
7
  6
CONTINUOUS
 10
-10.5896318449
 20
-0.9
 11
-9.2402333367
 21
-0.9
  0
LINE
  5
3F7
100
AcDbEntity
  8
DRAFT
100
AcDbLine
 62
7
  6
CONTINUOUS
 10
-9.2402333367
 20
-0.8
 11
-10.5914577008
 21
-0.8
  0
LINE
  5
3F8
100
AcDbEntity
  8
RACCORDO
100
AcDbLine
 62
253
  6
CONTINUOUS
 10
-11.7503237519
 20
-0.8
 11
-11.7541611411
 21
-0.8
  0
LINE
  5
3F9
100
AcDbEntity
  8
DRAFT
100
AcDbLine
 62
7
  6
CONTINUOUS
 10
-11.7541514976
 20
-0.8
 11
-13.1093303199
 21
-0.8
  0
LINE
  5
3FA
100
AcDbEntity
  8
DRAFT
100
AcDbLine
 62
7
  6
CONTINUOUS
 10
-13.113051839
 20
-0.7925563948
 11
-11.7541514976
 21
-0.7925563948
  0
LINE
  5
3FB
100
AcDbEntity
  8
DRAFT
100
AcDbLine
 62
7
  6
CONTINUOUS
 10
-10.59156602
 20
-0.7925563948
 11
-9.2365118176
 21
-0.7925563948
  0
LINE
  5
3FC
100
AcDbEntity
  8
RACCORDO
100
AcDbLine
 62
7
  6
CONTINUOUS
 10
-10.5992170581
 20
-0.5
 11
-11.450335175
 21
-0.5
  0
LINE
  5
3FD
100
AcDbEntity
  8
0
100
AcDbLine
 62
7
  6
CONTINUOUS
 10
-20.8247818283
 20
-0.0
 11
-19.6247818283
 21
-0.0
  0
LINE
  5
3FE
100
AcDbEntity
  8
0
100
AcDbLine
 62
7
  6
CONTINUOUS
 10
-1.5247818283
 20
-0.0
 11
-2.7247818283
 21
-0.0
  0
LINE
  5
3FF
100
AcDbEntity
  8
DRAFT
100
AcDbLine
 62
7
  6
CONTINUOUS
 10
18.8252181717
 20
-20.6
 11
18.2252181717
 21
-20.0
  0
LINE
  5
400
100
AcDbEntity
  8
RACCORDO
100
AcDbLine
 62
253
  6
CONTINUOUS
 10
20.8253209742
 20
-20.6
 11
20.7279821707
 21
-20.5026611965
  0
LINE
  5
401
100
AcDbEntity
  8
RACCORDO
100
AcDbLine
 62
253
  6
CONTINUOUS
 10
-15.9590860623
 20
15.5946985136
 11
-15.9922368932
 21
15.6278543944
  0
LINE
  5
402
100
AcDbEntity
  8
DRAFT
100
AcDbLine
 62
7
  6
CONTINUOUS
 10
0.6846680248
 20
-5.1581752537
 11
0.6846680248
 21
-6.1742855284
  0
LINE
  5
403
100
AcDbEntity
  8
DRAFT
100
AcDbLine
 62
7
  6
CONTINUOUS
 10
0.6846680248
 20
-7.0257144716
 11
0.6846680248
 21
-17.1711544917
  0
LINE
  5
404
100
AcDbEntity
  8
RACCORDO
100
AcDbLine
 62
7
  6
CONTINUOUS
 10
0.7103824965
 20
6.8017377579
 11
0.7103824965
 21
6.3982622421
  0
LINE
  5
405
100
AcDbEntity
  8
RACCORDO
100
AcDbLine
 62
7
  6
CONTINUOUS
 10
0.7103824965
 20
-6.3982622421
 11
0.7103824965
 21
-6.8017377579
  0
LINE
  5
406
100
AcDbEntity
  8
DRAFT
100
AcDbLine
 62
7
  6
CONTINUOUS
 10
0.7252181717
 20
-20.6
 11
0.7252181717
 21
20.6
  0
LINE
  5
407
100
AcDbEntity
  8
0
100
AcDbLine
 62
7
  6
CONTINUOUS
 10
0.8252181717
 20
6.0
 11
0.8252181717
 21
-6.0
  0
LINE
  5
408
100
AcDbEntity
  8
DRAFT
100
AcDbLine
 62
7
  6
CONTINUOUS
 10
1.5252181717
 20
20.6
 11
1.5252181717
 21
6.0
  0
LINE
  5
409
100
AcDbEntity
  8
DRAFT
100
AcDbLine
 62
7
  6
CONTINUOUS
 10
1.5252181717
 20
-6.0
 11
1.5252181717
 21
-20.6
  0
LINE
  5
40A
100
AcDbEntity
  8
DRAFT
100
AcDbLine
 62
7
  6
CONTINUOUS
 10
1.5313807592
 20
6.0
 11
1.5313807592
 21
-6.0
  0
LINE
  5
40B
100
AcDbEntity
  8
DRAFT
100
AcDbLine
 62
7
  6
CONTINUOUS
 10
1.5659268883
 20
-17.1979763246
 11
1.5659268883
 21
-6.0398677131
  0
LINE
  5
40C
100
AcDbEntity
  8
RACCORDO
100
AcDbLine
 62
253
  6
CONTINUOUS
 10
7.0209404086
 20
18.7872935857
 11
7.0322915875
 21
18.8213748155
  0
LINE
  5
40D
100
AcDbEntity
  8
RACCORDO
100
AcDbLine
 62
253
  6
CONTINUOUS
 10
7.3200649947
 20
18.4852135335
 11
7.3322458961
 21
18.5217859551
  0
LINE
  5
40E
100
AcDbEntity
  8
RACCORDO
100
AcDbLine
 62
7
  6
CONTINUOUS
 10
14.8249713861
 20
20.5027418649
 11
14.8532376654
 21
20.5451466669
  0
LINE
  5
40F
100
AcDbEntity
  8
0
100
AcDbLine
 62
7
  6
CONTINUOUS
 10
8.0877181736
 20
7.7765957713
 11
8.2127181717
 21
7.9042553306
  0
LINE
  5
410
100
AcDbEntity
  8
0
100
AcDbLine
 62
7
  6
CONTINUOUS
 10
9.5252181717
 20
7.7765957713
 11
9.6189681717
 21
7.8723404408
  0
LINE
  5
411
100
AcDbEntity
  8
0
100
AcDbLine
 62
7
  6
CONTINUOUS
 10
10.9002181121
 20
7.7765957713
 11
10.9939681121
 21
7.8723404408
  0
LINE
  5
412
100
AcDbEntity
  8
RACCORDO
100
AcDbLine
 62
253
  6
CONTINUOUS
 10
21.0268323221
 20
20.2017169529
 11
21.1252181717
 21
20.3001028025
  0
LINE
  5
413
100
AcDbEntity
  8
RACCORDO
100
AcDbLine
 62
7
  6
CONTINUOUS
 10
-17.7690472315
 20
-19.7942654032
 11
-17.6660549605
 21
-19.6912731322
  0
LINE
  5
414
100
AcDbEntity
  8
RACCORDO
100
AcDbLine
 62
7
  6
CONTINUOUS
 10
-17.7690472315
 20
-20.0942654032
 11
-17.6660549605
 21
-19.9912731322
  0
LINE
  5
415
100
AcDbEntity
  8
0
100
AcDbLine
 62
253
  6
CONTINUOUS
 10
-21.3247818283
 20
-24.2500042308
 11
-21.3204099943
 21
-24.2456323968
  0
LINE
  5
416
100
AcDbEntity
  8
0
100
AcDbLine
 62
253
  6
CONTINUOUS
 10
-21.0747860591
 20
-24.5
 11
-21.0704142251
 21
-24.495628166
  0
LINE
  5
417
100
AcDbEntity
  8
0
100
AcDbLine
 62
7
  6
CONTINUOUS
 10
8.0252181717
 20
6.6595744714
 11
8.9002181419
 21
7.4574467838
  0
LINE
  5
418
100
AcDbEntity
  8
0
100
AcDbLine
 62
7
  6
CONTINUOUS
 10
9.0564681717
 20
7.3617021143
 11
8.2752181791
 21
6.6595744714
  0
LINE
  5
419
100
AcDbEntity
  8
0
100
AcDbLine
 62
7
  6
CONTINUOUS
 10
13.1502182909
 20
7.3617021143
 11
13.0252180525
 21
7.2659574449
  0
LINE
  5
41A
100
AcDbEntity
  8
0
100
AcDbLine
 62
7
  6
CONTINUOUS
 10
12.4939682909
 20
7.8085106611
 11
12.4002182909
 21
7.7446808815
  0
LINE
  5
41B
100
AcDbEntity
  8
0
100
AcDbLine
 62
7
  6
CONTINUOUS
 10
11.4939681717
 20
6.6914893612
 11
11.5877181717
 21
6.7553191409
  0
LINE
  5
41C
100
AcDbEntity
  8
0
100
AcDbLine
 62
7
  6
CONTINUOUS
 10
13.8689680525
 20
7.8085106611
 11
13.7752180525
 21
7.7446808815
  0
LINE
  5
41D
100
AcDbEntity
  8
0
100
AcDbLine
 62
7
  6
CONTINUOUS
 10
13.1814681717
 20
6.6595744714
 11
13.0877181717
 21
6.5957446806
  0
LINE
  5
41E
100
AcDbEntity
  8
0
100
AcDbLine
 62
7
  6
CONTINUOUS
 10
11.6814681717
 20
6.6276595704
 11
11.5252180525
 21
6.5319148926
  0
LINE
  5
41F
100
AcDbEntity
  8
RACCORDO
100
AcDbLine
 62
7
  6
CONTINUOUS
 10
-11.450335175
 20
0.5
 11
-10.5992170581
 21
0.5
  0
LINE
  5
420
100
AcDbEntity
  8
DRAFT
100
AcDbLine
 62
7
  6
CONTINUOUS
 10
-13.113051839
 20
0.7925563948
 11
-11.7541516656
 21
0.7925563948
  0
LINE
  5
421
100
AcDbEntity
  8
DRAFT
100
AcDbLine
 62
7
  6
CONTINUOUS
 10
-10.59156602
 20
0.7925563948
 11
-9.2365118176
 21
0.7925563948
  0
LINE
  5
422
100
AcDbEntity
  8
RACCORDO
100
AcDbLine
 62
253
  6
CONTINUOUS
 10
-11.7541611871
 20
0.8
 11
-11.7503237519
 21
0.8
  0
LINE
  5
423
100
AcDbEntity
  8
DRAFT
100
AcDbLine
 62
7
  6
CONTINUOUS
 10
-9.2402333367
 20
0.8
 11
-10.5914577008
 21
0.8
  0
LINE
  5
424
100
AcDbEntity
  8
DRAFT
100
AcDbLine
 62
7
  6
CONTINUOUS
 10
-11.7541516656
 20
0.8
 11
-13.1093303199
 21
0.8
  0
LINE
  5
425
100
AcDbEntity
  8
0
100
AcDbLine
 62
7
  6
CONTINUOUS
 10
-13.1093303199
 20
0.9
 11
-11.7549946594
 21
0.9
  0
LINE
  5
426
100
AcDbEntity
  8
DRAFT
100
AcDbLine
 62
7
  6
CONTINUOUS
 10
-13.1093303199
 20
0.9
 11
-11.7549946594
 21
0.9
  0
LINE
  5
427
100
AcDbEntity
  8
0
100
AcDbLine
 62
7
  6
CONTINUOUS
 10
-10.5896318449
 20
0.9
 11
-9.2402333367
 21
0.9
  0
LINE
  5
428
100
AcDbEntity
  8
DRAFT
100
AcDbLine
 62
7
  6
CONTINUOUS
 10
-10.5896318449
 20
0.9
 11
-9.2402333367
 21
0.9
  0
LINE
  5
429
100
AcDbEntity
  8
RACCORDO
100
AcDbLine
 62
253
  6
CONTINUOUS
 10
-11.745960318
 20
1.3
 11
-10.6061985524
 21
1.3
  0
LINE
  5
42A
100
AcDbEntity
  8
RACCORDO
100
AcDbLine
 62
253
  6
CONTINUOUS
 10
-10.6061985524
 20
1.6687096373
 11
-11.745960318
 21
1.6687096373
  0
LINE
  5
42B
100
AcDbEntity
  8
RACCORDO
100
AcDbLine
 62
253
  6
CONTINUOUS
 10
21.1252181717
 20
-20.3001028025
 11
21.0267525418
 21
-20.2016371726
  0
LINE
  5
42C
100
AcDbEntity
  8
RACCORDO
100
AcDbLine
 62
7
  6
CONTINUOUS
 10
-17.7690472315
 20
19.7942654032
 11
-17.6660549605
 21
19.6912731322
  0
LINE
  5
42D
100
AcDbEntity
  8
RACCORDO
100
AcDbLine
 62
7
  6
CONTINUOUS
 10
-17.7690472315
 20
20.0942654032
 11
-17.6660549605
 21
19.9912731322
  0
LINE
  5
42E
100
AcDbEntity
  8
0
100
AcDbLine
 62
253
  6
CONTINUOUS
 10
-21.3247818283
 20
24.2500042308
 11
-21.3204099943
 21
24.2456323968
  0
LINE
  5
42F
100
AcDbEntity
  8
0
100
AcDbLine
 62
253
  6
CONTINUOUS
 10
-21.0747860591
 20
24.5
 11
-21.0704142251
 21
24.495628166
  0
LINE
  5
430
100
AcDbEntity
  8
0
100
AcDbLine
 62
253
  6
CONTINUOUS
 10
3.2752181717
 20
-17.25
 11
3.2752181717
 21
-7.75
  0
LINE
  5
431
100
AcDbEntity
  8
ASSI
100
AcDbLine
 62
7
  6
CONTINUOUS
 10
3.3252181717
 20
11.5598951074
 11
3.3252181717
 21
12.4027364257
  0
LINE
  5
432
100
AcDbEntity
  8
RACCORDO
100
AcDbLine
 62
253
  6
CONTINUOUS
 10
7.0322915875
 20
19.7607860213
 11
7.0532376654
 21
19.929435023
  0
LINE
  5
433
100
AcDbEntity
  8
ASSI
100
AcDbLine
 62
7
  6
CONTINUOUS
 10
7.4769191717
 20
14.105729
 11
7.9743441717
 21
15.655045
  0
LINE
  5
434
100
AcDbEntity
  8
ASSI
100
AcDbLine
 62
7
  6
CONTINUOUS
 10
8.4243661717
 20
15.655045
 11
7.7019301717
 21
13.404944
  0
LINE
  5
435
100
AcDbEntity
  8
0
100
AcDbLine
 62
7
  6
CONTINUOUS
 10
8.9002181419
 20
7.4574467838
 11
8.9627181717
 21
7.585106343
  0
LINE
  5
436
100
AcDbEntity
  8
0
100
AcDbLine
 62
7
  6
CONTINUOUS
 10
8.2752181791
 20
7.7446808815
 11
8.2127181717
 21
7.6489362121
  0
LINE
  5
437
100
AcDbEntity
  8
0
100
AcDbLine
 62
7
  6
CONTINUOUS
 10
9.1189682015
 20
7.4574467838
 11
9.0564681717
 21
7.3617021143
  0
LINE
  5
438
100
AcDbEntity
  8
0
100
AcDbLine
 62
7
  6
CONTINUOUS
 10
9.7127181717
 20
7.7446808815
 11
9.5877181121
 21
7.5531914532
  0
LWPOLYLINE
  5
439
100
AcDbEntity
  8
RACCORDO
100
AcDbPolyline
 62
7
  6
CONTINUOUS
 90
25
 70
0
 10
-9.8706944764
 20
-14.92203372
 10
-9.8447553465
 20
-14.8927579654
 10
-9.8095594349
 20
-14.8508337658
 10
-9.7756796387
 20
-14.8078299306
 10
-9.7431495065
 20
-14.7637868015
 10
-9.7120013792
 20
-14.7187460169
 10
-9.6822650273
 20
-14.6727512219
 10
-9.6539696249
 20
-14.6258458855
 10
-9.6271438853
 20
-14.5780738948
 10
-9.6018137268
 20
-14.5294812019
 10
-9.5780034923
 20
-14.4801134468
 10
-9.5557378577
 20
-14.4300172089
 10
-9.5350397391
 20
-14.3792412952
 10
-9.5159290145
 20
-14.3278339554
 10
-9.4984252164
 20
-14.2758429262
 10
-9.4825471846
 20
-14.2233176009
 10
-9.4683104449
 20
-14.1703085471
 10
-9.4557295988
 20
-14.1168654667
 10
-9.4448189582
 20
-14.0630376247
 10
-9.4355902878
 20
-14.0088745472
 10
-9.428053719
 20
-13.9544253929
 10
-9.4222192294
 20
-13.8997384407
 10
-9.41809512
 20
-13.8448661921
 10
-9.4156867889
 20
-13.7898673785
 10
-9.4150239833
 20
-13.7512316418
  0
LINE
  5
43A
100
AcDbEntity
  8
0
100
AcDbLine
 62
7
  6
CONTINUOUS
 10
10.4002182313
 20
6.723404251
 11
10.3064682313
 21
6.6276595704
  0
LINE
  5
43B
100
AcDbEntity
  8
0
100
AcDbLine
 62
7
  6
CONTINUOUS
 10
12.2127182909
 20
7.7765957713
 11
12.3377181717
 21
7.9042553306
  0
LINE
  5
43C
100
AcDbEntity
  8
0
100
AcDbLine
 62
7
  6
CONTINUOUS
 10
11.7752181717
 20
6.723404251
 11
11.6814681717
 21
6.6276595704
  0
LINE
  5
43D
100
AcDbEntity
  8
0
100
AcDbLine
 62
7
  6
CONTINUOUS
 10
12.9627182909
 20
7.3936170042
 11
13.0252180525
 21
7.4574467838
  0
LINE
  5
43E
100
AcDbEntity
  8
0
100
AcDbLine
 62
7
  6
CONTINUOUS
 10
13.5877180525
 20
7.7765957713
 11
13.7127182909
 21
7.9042553306
  0
LINE
  5
43F
100
AcDbEntity
  8
0
100
AcDbLine
 62
7
  6
CONTINUOUS
 10
13.0252180525
 20
6.723404251
 11
13.0877181717
 21
6.787234053
  0
LINE
  5
440
100
AcDbEntity
  8
0
100
AcDbLine
 62
7
  6
CONTINUOUS
 10
13.5252182909
 20
6.6595744714
 11
14.4002181717
 21
7.4574467838
  0
LINE
  5
441
100
AcDbEntity
  8
0
100
AcDbLine
 62
7
  6
CONTINUOUS
 10
14.5564679333
 20
7.3617021143
 11
13.7752180525
 21
6.6595744714
  0
LINE
  5
442
100
AcDbEntity
  8
0
100
AcDbLine
 62
7
  6
CONTINUOUS
 10
-6.1304458283
 20
-8.107982
 11
-4.9538168283
 21
-7.243404
  0
LINE
  5
443
100
AcDbEntity
  8
0
100
AcDbLine
 62
7
  6
CONTINUOUS
 10
-5.1994078283
 20
-6.993477
 11
-6.1304458283
 21
-7.658816
  0
LINE
  5
444
100
AcDbEntity
  8
0
100
AcDbLine
 62
7
  6
CONTINUOUS
 10
12.9627182909
 20
6.5319148926
 11
12.8377180525
 21
6.5
  0
LINE
  5
445
100
AcDbEntity
  8
0
100
AcDbLine
 62
7
  6
CONTINUOUS
 10
12.8064681717
 20
6.6595744714
 11
12.9627182909
 21
6.6914893612
  0
LINE
  5
446
100
AcDbEntity
  8
0
100
AcDbLine
 62
7
  6
CONTINUOUS
 10
11.3377180525
 20
6.6595744714
 11
11.4939681717
 21
6.6914893612
  0
LINE
  5
447
100
AcDbEntity
  8
0
100
AcDbLine
 62
7
  6
CONTINUOUS
 10
9.9627181121
 20
6.6595744714
 11
10.1189682313
 21
6.6914893612
  0
LINE
  5
448
100
AcDbEntity
  8
0
100
AcDbLine
 62
7
  6
CONTINUOUS
 10
11.5252180525
 20
6.5319148926
 11
11.3377180525
 21
6.5
  0
LINE
  5
449
100
AcDbEntity
  8
RACCORDO
100
AcDbLine
 62
253
  6
CONTINUOUS
 10
-10.5982322812
 20
2.6649043354
 11
-11.4515481309
 21
2.6649043354
  0
LINE
  5
44A
100
AcDbEntity
  8
DRAFT
100
AcDbLine
 62
7
  6
CONTINUOUS
 10
-13.1486012249
 20
2.7812783412
 11
-9.2009624317
 21
2.7812783412
  0
LINE
  5
44B
100
AcDbEntity
  8
RACCORDO
100
AcDbLine
 62
253
  6
CONTINUOUS
 10
-13.1607148291
 20
2.8965386317
 11
-9.1888488275
 21
2.8965386317
  0
LINE
  5
44C
100
AcDbEntity
  8
RACCORDO
100
AcDbLine
 62
253
  6
CONTINUOUS
 10
-13.3599537687
 20
3.0957775713
 11
-8.9896098879
 21
3.0957775713
  0
LINE
  5
44D
100
AcDbEntity
  8
ASSI
100
AcDbLine
 62
7
  6
CONTINUOUS
 10
-5.0028228283
 20
4.497333
 11
-4.5039448283
 21
4.497338
  0
LINE
  5
44E
100
AcDbEntity
  8
ASSI
100
AcDbLine
 62
7
  6
CONTINUOUS
 10
-6.1747718283
 20
4.49168
 11
-5.3820878283
 21
4.491634
  0
LINE
  5
44F
100
AcDbEntity
  8
ASSI
100
AcDbLine
 62
7
  6
CONTINUOUS
 10
-6.1747718283
 20
6.491491
 11
-5.7716078283
 21
6.362049
  0
LINE
  5
450
100
AcDbEntity
  8
ASSI
100
AcDbLine
 62
7
  6
CONTINUOUS
 10
-5.3820928283
 20
6.236984
 11
-4.7631778283
 21
6.038282
  0
LINE
  5
451
100
AcDbEntity
  8
ASSI
100
AcDbLine
 62
7
  6
CONTINUOUS
 10
-4.1246788283
 20
6.243298
 11
-6.1747768283
 21
6.901506
  0
LWPOLYLINE
  5
452
100
AcDbEntity
  8
RACCORDO
100
AcDbPolyline
 62
7
  6
CONTINUOUS
 90
49
 70
0
 10
-9.870692922
 20
14.9220319874
 10
-9.9020147089
 20
14.9559723749
 10
-9.9453938077
 20
15.0001641328
 10
-9.9903124937
 20
15.0428028947
 10
-10.036717237
 20
15.0838344985
 10
-10.0845491292
 20
15.1232071738
 10
-10.1337461365
 20
15.1608691022
 10
-10.1842480533
 20
15.1967716823
 10
-10.2359914352
 20
15.2308706559
 10
-10.2889088853
 20
15.2631213002
 10
-10.3429351596
 20
15.293481958
 10
-10.3980022597
 20
15.3219156547
 10
-10.4540382596
 20
15.3483853264
 10
-10.510973615
 20
15.3728567609
 10
-10.5687367293
 20
15.3953007884
 10
-10.6272523202
 20
15.4156885614
 10
-10.6864465772
 20
15.4339934886
 10
-10.7462460799
 20
15.4501948361
 10
-10.806576061
 20
15.464272866
 10
-10.8673607437
 20
15.4762090377
 10
-10.928524601
 20
15.4859904286
 10
-10.989993327
 20
15.4936055045
 10
-11.0516903543
 20
15.4990436912
 10
-11.1135385964
 20
15.5022998253
 10
-11.1754630432
 20
15.503370035
 10
-11.2373864387
 20
15.5022516907
 10
-11.2992316108
 20
15.4989475934
 10
-11.3609236759
 20
15.4934615434
 10
-11.4223855486
 20
15.485798866
 10
-11.4835406987
 20
15.4759702821
 10
-11.5443150009
 20
15.4639872143
 10
-11.6046329763
 20
15.4498627228
 10
-11.6644188632
 20
15.4336154704
 10
-11.7235980231
 20
15.4152650585
 10
-11.782097101
 20
15.3948323396
 10
-11.8398422986
 20
15.3723440061
 10
-11.8967583904
 20
15.3478287665
 10
-11.9527738386
 20
15.3213159062
 10
-12.0078191281
 20
15.2928397152
 10
-12.0618223634
 20
15.2624371073
 10
-12.114715611
 20
15.2301451651
 10
-12.1664336537
 20
15.1960056064
 10
-12.2169091013
 20
15.1600629956
 10
-12.2660785792
 20
15.1223616898
 10
-12.313881902
 20
15.082950338
 10
-12.3602570154
 20
15.0418805964
 10
-12.4051451075
 20
14.999204304
 10
-12.4484926339
 20
14.9549756814
 10
-12.478871426
 20
14.9220312312
  0
LINE
  5
453
100
AcDbEntity
  8
DRAFT
100
AcDbLine
 62
7
  6
CONTINUOUS
 10
5.3252181717
 20
-20.6
 11
5.3252181717
 21
-20.0
  0
LINE
  5
454
100
AcDbEntity
  8
DRAFT
100
AcDbLine
 62
7
  6
CONTINUOUS
 10
5.3252181717
 20
20.0
 11
5.3252181717
 21
20.6
  0
LINE
  5
455
100
AcDbEntity
  8
0
100
AcDbLine
 62
7
  6
CONTINUOUS
 10
6.7852181717
 20
9.85
 11
6.7852181717
 21
12.049272
  0
LINE
  5
456
100
AcDbEntity
  8
RACCORDO
100
AcDbLine
 62
253
  6
CONTINUOUS
 10
7.3367536329
 20
19.5
 11
7.353191974
 21
19.6323546024
  0
LINE
  5
457
100
AcDbEntity
  8
0
100
AcDbLine
 62
7
  6
CONTINUOUS
 10
8.0564681726
 20
7.6489362121
 11
8.0877181736
 21
7.7765957713
  0
LINE
  5
458
100
AcDbEntity
  8
ASSI
100
AcDbLine
 62
7
  6
CONTINUOUS
 10
10.7248791717
 20
14.189699
 11
11.1450601717
 21
15.655045
  0
LINE
  5
459
100
AcDbEntity
  8
ASSI
100
AcDbLine
 62
7
  6
CONTINUOUS
 10
11.3753421717
 20
14.888734
 11
10.9498791717
 21
13.404949
  0
LINE
  5
45A
100
AcDbEntity
  8
0
100
AcDbLine
 62
7
  6
CONTINUOUS
 10
9.4314681717
 20
7.5531914532
 11
9.4627181419
 21
7.6489362121
  0
LINE
  5
45B
100
AcDbEntity
  8
0
100
AcDbLine
 62
7
  6
CONTINUOUS
 10
9.4627181419
 20
7.6489362121
 11
9.5252181717
 21
7.7765957713
  0
LINE
  5
45C
100
AcDbEntity
  8
0
100
AcDbLine
 62
7
  6
CONTINUOUS
 10
10.8377181717
 20
7.6489362121
 11
10.9002181121
 21
7.7765957713
  0
LINE
  5
45D
100
AcDbEntity
  8
0
100
AcDbLine
 62
7
  6
CONTINUOUS
 10
10.4627181717
 20
6.8510638326
 11
10.4002182313
 21
6.723404251
  0
LINE
  5
45E
100
AcDbEntity
  8
0
100
AcDbLine
 62
7
  6
CONTINUOUS
 10
10.2127182313
 20
6.7553191409
 11
10.3377181121
 21
6.9468085021
  0
LINE
  5
45F
100
AcDbEntity
  8
0
100
AcDbLine
 62
7
  6
CONTINUOUS
 10
11.0877182909
 20
7.7446808815
 11
10.9627182313
 21
7.5531914532
  0
LINE
  5
460
100
AcDbEntity
  8
0
100
AcDbLine
 62
7
  6
CONTINUOUS
 10
11.5877181717
 20
6.7553191409
 11
11.7127180525
 21
6.9468085021
  0
LINE
  5
461
100
AcDbEntity
  8
0
100
AcDbLine
 62
7
  6
CONTINUOUS
 10
12.4002182909
 20
7.7446808815
 11
12.3377181717
 21
7.6489362121
  0
LINE
  5
462
100
AcDbEntity
  8
0
100
AcDbLine
 62
7
  6
CONTINUOUS
 10
-15.6247818283
 20
-22.4
 11
-15.5808595813
 21
-22.356077753
  0
LINE
  5
463
100
AcDbEntity
  8
RACCORDO
100
AcDbLine
 62
7
  6
CONTINUOUS
 10
0.6846680248
 20
-7.0257144716
 11
0.708652354
 21
-7.0017301425
  0
LINE
  5
464
100
AcDbEntity
  8
RACCORDO
100
AcDbLine
 62
253
  6
CONTINUOUS
 10
-7.6922368932
 20
-15.6278543944
 11
-7.6590860623
 21
-15.5946985136
  0
LINE
  5
465
100
AcDbEntity
  8
0
100
AcDbLine
 62
7
  6
CONTINUOUS
 10
-15.5811311814
 20
-23.9563493531
 11
-15.6247818283
 21
-24.0
  0
LINE
  5
466
100
AcDbEntity
  8
0
100
AcDbLine
 62
253
  6
CONTINUOUS
 10
-22.3252181717
 20
-21.900016923
 11
-22.3164913039
 21
-21.8941990932
  0
LINE
  5
467
100
AcDbEntity
  8
0
100
AcDbLine
 62
253
  6
CONTINUOUS
 10
-21.8252245178
 20
-22.4
 11
-21.81649765
 21
-22.3941821702
  0
LINE
  5
468
100
AcDbEntity
  8
0
100
AcDbLine
 62
7
  6
CONTINUOUS
 10
-5.5432018283
 20
-11.656269
 11
-4.1311088283
 21
-10.734288
  0
LINE
  5
469
100
AcDbEntity
  8
0
100
AcDbLine
 62
7
  6
CONTINUOUS
 10
-4.7337648283
 20
-10.733982
 11
-6.1304458283
 21
-11.64322
  0
LINE
  5
46A
100
AcDbEntity
  8
0
100
AcDbLine
 62
7
  6
CONTINUOUS
 10
14.0252181717
 20
7.8404255509
 11
13.8689680525
 21
7.8085106611
  0
LINE
  5
46B
100
AcDbEntity
  8
0
100
AcDbLine
 62
7
  6
CONTINUOUS
 10
12.6502180525
 20
7.8404255509
 11
12.4939682909
 21
7.8085106611
  0
LINE
  5
46C
100
AcDbEntity
  8
0
100
AcDbLine
 62
7
  6
CONTINUOUS
 10
11.3377180525
 20
7.8404255509
 11
11.1814682909
 21
7.8085106611
  0
LINE
  5
46D
100
AcDbEntity
  8
0
100
AcDbLine
 62
7
  6
CONTINUOUS
 10
9.9627181121
 20
7.8404255509
 11
9.8064681717
 21
7.8085106611
  0
LINE
  5
46E
100
AcDbEntity
  8
0
100
AcDbLine
 62
7
  6
CONTINUOUS
 10
8.5252181866
 20
7.8404255509
 11
8.3689681791
 21
7.8085106611
  0
LINE
  5
46F
100
AcDbEntity
  8
0
100
AcDbLine
 62
7
  6
CONTINUOUS
 10
10.1502181121
 20
6.5319148926
 11
9.9627181121
 21
6.5
  0
LINE
  5
470
100
AcDbEntity
  8
0
100
AcDbLine
 62
7
  6
CONTINUOUS
 10
11.1502180525
 20
7.9680851102
 11
11.3377180525
 21
8.0
  0
LINE
  5
471
100
AcDbEntity
  8
0
100
AcDbLine
 62
7
  6
CONTINUOUS
 10
9.7752181121
 20
7.9680851102
 11
9.9627181121
 21
8.0
  0
LINE
  5
472
100
AcDbEntity
  8
0
100
AcDbLine
 62
7
  6
CONTINUOUS
 10
13.8377181717
 20
7.9680851102
 11
14.0564684101
 21
8.0
  0
LINE
  5
473
100
AcDbEntity
  8
0
100
AcDbLine
 62
7
  6
CONTINUOUS
 10
12.4627180525
 20
7.9680851102
 11
12.6814682909
 21
8.0
  0
LINE
  5
474
100
AcDbEntity
  8
0
100
AcDbLine
 62
7
  6
CONTINUOUS
 10
8.3377181642
 20
7.9680851102
 11
8.5564681568
 21
8.0
  0
LINE
  5
475
100
AcDbEntity
  8
ASSI
100
AcDbLine
 62
7
  6
CONTINUOUS
 10
-4.1246788283
 20
4.901701
 11
-6.1747718283
 21
4.901701
  0
LINE
  5
476
100
AcDbEntity
  8
0
100
AcDbLine
 62
7
  6
CONTINUOUS
 10
-11.6997818283
 20
5.6964918067
 11
-10.6497818283
 21
5.6964918067
  0
LINE
  5
477
100
AcDbEntity
  8
0
100
AcDbLine
 62
7
  6
CONTINUOUS
 10
21.8252181717
 20
6.0
 11
21.1063951278
 21
6.0
  0
LINE
  5
478
100
AcDbEntity
  8
DRAFT
100
AcDbLine
 62
7
  6
CONTINUOUS
 10
1.5252181717
 20
6.0
 11
0.8252181717
 21
6.0
  0
LINE
  5
479
100
AcDbEntity
  8
RACCORDO
100
AcDbLine
 62
7
  6
CONTINUOUS
 10
-0.0243454849
 20
6.1982698575
 11
0.708652354
 21
6.1982698575
  0
LINE
  5
47A
100
AcDbEntity
  8
RACCORDO
100
AcDbLine
 62
253
  6
CONTINUOUS
 10
-0.0243454849
 20
6.3982622421
 11
0.7103824965
 21
6.3982622421
  0
LINE
  5
47B
100
AcDbEntity
  8
0
100
AcDbLine
 62
7
  6
CONTINUOUS
 10
14.6502179333
 20
6.5
 11
13.5252182909
 21
6.5
  0
LINE
  5
47C
100
AcDbEntity
  8
0
100
AcDbLine
 62
7
  6
CONTINUOUS
 10
12.8377180525
 20
6.5
 11
12.5877182909
 21
6.5
  0
LINE
  5
47D
100
AcDbEntity
  8
0
100
AcDbLine
 62
7
  6
CONTINUOUS
 10
9.1502181717
 20
6.5
 11
8.0252181717
 21
6.5
  0
LINE
  5
47E
100
AcDbEntity
  8
0
100
AcDbLine
 62
7
  6
CONTINUOUS
 10
8.2752181791
 20
6.6595744714
 11
9.1502181717
 21
6.6595744714
  0
LINE
  5
47F
100
AcDbEntity
  8
0
100
AcDbLine
 62
7
  6
CONTINUOUS
 10
12.6189681717
 20
6.6595744714
 11
12.8064681717
 21
6.6595744714
  0
LINE
  5
480
100
AcDbEntity
  8
0
100
AcDbLine
 62
7
  6
CONTINUOUS
 10
13.7752180525
 20
6.6595744714
 11
14.6502179333
 21
6.6595744714
  0
LINE
  5
481
100
AcDbEntity
  8
RACCORDO
100
AcDbLine
 62
253
  6
CONTINUOUS
 10
0.7103824965
 20
6.8017377579
 11
-0.0243454849
 21
6.8017377579
  0
LINE
  5
482
100
AcDbEntity
  8
0
100
AcDbLine
 62
7
  6
CONTINUOUS
 10
12.1502181717
 20
6.8510638326
 11
12.3064682909
 21
6.8510638326
  0
LINE
  5
483
100
AcDbEntity
  8
ASSI
100
AcDbLine
 62
7
  6
CONTINUOUS
 10
-6.1747718283
 20
7.972514
 11
-4.8228788283
 21
7.584869
  0
LINE
  5
484
100
AcDbEntity
  8
ASSI
100
AcDbLine
 62
7
  6
CONTINUOUS
 10
-4.1246848283
 20
7.794681
 11
-5.4597778283
 21
8.177514
  0
LINE
  5
485
100
AcDbEntity
  8
0
100
AcDbLine
 62
253
  6
CONTINUOUS
 10
-22.3164913039
 20
21.8941990932
 11
-22.3252181717
 21
21.900016923
  0
LINE
  5
486
100
AcDbEntity
  8
0
100
AcDbLine
 62
253
  6
CONTINUOUS
 10
-21.81649765
 20
22.3941821702
 11
-21.8252245178
 21
22.4
  0
LINE
  5
487
100
AcDbEntity
  8
0
100
AcDbLine
 62
7
  6
CONTINUOUS
 10
-15.6247818283
 20
22.4
 11
-15.5808595813
 21
22.356077753
  0
LINE
  5
488
100
AcDbEntity
  8
RACCORDO
100
AcDbLine
 62
7
  6
CONTINUOUS
 10
0.686858866
 20
7.0235236305
 11
0.708652354
 21
7.0017301425
  0
LINE
  5
489
100
AcDbEntity
  8
0
100
AcDbLine
 62
7
  6
CONTINUOUS
 10
-15.5811311814
 20
23.9563493531
 11
-15.6247818283
 21
24.0
  0
LINE
  5
48A
100
AcDbEntity
  8
RACCORDO
100
AcDbLine
 62
253
  6
CONTINUOUS
 10
-7.6590860623
 20
15.5946985136
 11
-7.6922368932
 21
15.6278543944
  0
LINE
  5
48B
100
AcDbEntity
  8
RACCORDO
100
AcDbLine
 62
253
  6
CONTINUOUS
 10
7.0322915875
 20
18.8213748155
 11
7.0322915875
 21
19.7607860213
  0
LINE
  5
48C
100
AcDbEntity
  8
RACCORDO
100
AcDbLine
 62
253
  6
CONTINUOUS
 10
7.0532376654
 20
19.929435023
 11
7.0532376654
 21
20.5451466669
  0
LINE
  5
48D
100
AcDbEntity
  8
0
100
AcDbLine
 62
7
  6
CONTINUOUS
 10
7.1779781717
 20
11.700227
 11
7.1779781717
 21
11.153369
  0
LINE
  5
48E
100
AcDbEntity
  8
0
100
AcDbLine
 62
7
  6
CONTINUOUS
 10
7.1779781717
 20
10.804296
 11
7.1779781717
 21
10.199038
  0
LINE
  5
48F
100
AcDbEntity
  8
RACCORDO
100
AcDbLine
 62
253
  6
CONTINUOUS
 10
7.3322458961
 20
18.5217859551
 11
7.3322458961
 21
19.5
  0
LINE
  5
490
100
AcDbEntity
  8
RACCORDO
100
AcDbLine
 62
253
  6
CONTINUOUS
 10
7.353191974
 20
19.6323546024
 11
7.353191974
 21
20.5528653412
  0
LINE
  5
491
100
AcDbEntity
  8
RACCORDO
100
AcDbLine
 62
253
  6
CONTINUOUS
 10
7.4972443694
 20
19.6323546024
 11
7.4972443694
 21
20.5528653412
  0
LINE
  5
492
100
AcDbEntity
  8
RACCORDO
100
AcDbLine
 62
253
  6
CONTINUOUS
 10
7.5181904473
 20
18.5217859551
 11
7.5181904473
 21
19.5
  0
LINE
  5
493
100
AcDbEntity
  8
RACCORDO
100
AcDbLine
 62
253
  6
CONTINUOUS
 10
7.7971986779
 20
20.5451466669
 11
7.7971986779
 21
19.929435023
  0
LINE
  5
494
100
AcDbEntity
  8
RACCORDO
100
AcDbLine
 62
253
  6
CONTINUOUS
 10
7.8181447559
 20
19.7607860213
 11
7.8181447559
 21
18.8213748155
  0
LINE
  5
495
100
AcDbEntity
  8
0
100
AcDbLine
 62
7
  6
CONTINUOUS
 10
8.0252181717
 20
6.5
 11
8.0252181717
 21
6.6595744714
  0
LINE
  5
496
100
AcDbEntity
  8
0
100
AcDbLine
 62
7
  6
CONTINUOUS
 10
8.2607341717
 20
11.153361
 11
8.2607341717
 21
10.804304
  0
LINE
  5
497
100
AcDbEntity
  8
0
100
AcDbLine
 62
7
  6
CONTINUOUS
 10
8.3395421717
 20
12.049272
 11
8.3395421717
 21
11.700223
  0
LINE
  5
498
100
AcDbEntity
  8
0
100
AcDbLine
 62
7
  6
CONTINUOUS
 10
8.3483821717
 20
10.199049
 11
8.3483821717
 21
9.85
  0
LINE
  5
499
100
AcDbEntity
  8
ASSI
100
AcDbLine
 62
7
  6
CONTINUOUS
 10
8.7243701717
 20
13.404938
 11
8.7243751717
 21
15.655045
  0
LINE
  5
49A
100
AcDbEntity
  8
0
100
AcDbLine
 62
7
  6
CONTINUOUS
 10
8.8207461717
 20
9.85
 11
8.8207461717
 21
12.049272
  0
LINE
  5
49B
100
AcDbEntity
  8
0
100
AcDbLine
 62
7
  6
CONTINUOUS
 10
8.9627181717
 20
7.585106343
 11
8.9627181717
 21
7.6489362121
  0
LINE
  5
49C
100
AcDbEntity
  8
0
100
AcDbLine
 62
7
  6
CONTINUOUS
 10
9.5877181121
 20
7.5531914532
 11
9.5564682313
 21
7.3617021143
  0
LINE
  5
49D
100
AcDbEntity
  8
0
100
AcDbLine
 62
7
  6
CONTINUOUS
 10
10.3377181121
 20
6.9468085021
 11
10.3689681717
 21
7.1382978857
  0
LINE
  5
49E
100
AcDbEntity
  8
0
100
AcDbLine
 62
7
  6
CONTINUOUS
 10
9.4002182015
 20
7.3936170042
 11
9.4314681717
 21
7.5531914532
  0
LINE
  5
49F
100
AcDbEntity
  8
0
100
AcDbLine
 62
7
  6
CONTINUOUS
 10
10.5252181121
 20
7.1063829958
 11
10.4939682313
 21
6.9468085021
  0
LINE
  5
4A0
100
AcDbEntity
  8
0
100
AcDbLine
 62
7
  6
CONTINUOUS
 10
9.1502181717
 20
7.585106343
 11
9.1189682015
 21
7.4574467838
  0
LINE
  5
4A1
100
AcDbEntity
  8
ASSI
100
AcDbLine
 62
7
  6
CONTINUOUS
 10
12.1253741717
 20
13.404944
 11
12.8477991717
 21
15.655051
  0
LINE
  5
4A2
100
AcDbEntity
  8
ASSI
100
AcDbLine
 62
7
  6
CONTINUOUS
 10
12.7174621717
 20
13.847446
 11
12.5753911717
 21
13.404949
  0
LINE
  5
4A3
100
AcDbEntity
  8
ASSI
100
AcDbLine
 62
7
  6
CONTINUOUS
 10
13.0728161717
 20
14.95426
 11
12.8547291717
 21
14.274962
  0
LINE
  5
4A4
100
AcDbEntity
  8
0
100
AcDbLine
 62
7
  6
CONTINUOUS
 10
10.4939682313
 20
6.9468085021
 11
10.4627181717
 21
6.8510638326
  0
LINE
  5
4A5
100
AcDbEntity
  8
0
100
AcDbLine
 62
7
  6
CONTINUOUS
 10
10.8064681121
 20
7.5531914532
 11
10.8377181717
 21
7.6489362121
  0
LINE
  5
4A6
100
AcDbEntity
  8
0
100
AcDbLine
 62
7
  6
CONTINUOUS
 10
11.8689681717
 20
6.9468085021
 11
11.8377182909
 21
6.8510638326
  0
LINE
  5
4A7
100
AcDbEntity
  8
RACCORDO
100
AcDbLine
 62
253
  6
CONTINUOUS
 10
14.8209377994
 20
18.7872857518
 11
14.8322915875
 21
18.8213748155
  0
LINE
  5
4A8
100
AcDbEntity
  8
RACCORDO
100
AcDbLine
 62
253
  6
CONTINUOUS
 10
15.1200612869
 20
18.4852024012
 11
15.1322458961
 21
18.5217859551
  0
LINE
  5
4A9
100
AcDbEntity
  8
DRAFT
100
AcDbLine
 62
7
  6
CONTINUOUS
 10
1.5252181717
 20
-20.6
 11
1.5577740828
 21
-20.5023124269
  0
LINE
  5
4AA
100
AcDbEntity
  8
0
100
AcDbLine
 62
7
  6
CONTINUOUS
 10
11.8377182909
 20
6.8510638326
 11
11.7752181717
 21
6.723404251
  0
LINE
  5
4AB
100
AcDbEntity
  8
0
100
AcDbLine
 62
7
  6
CONTINUOUS
 10
13.0252180525
 20
7.4574467838
 11
13.0877181717
 21
7.585106343
  0
LINE
  5
4AC
100
AcDbEntity
  8
0
100
AcDbLine
 62
7
  6
CONTINUOUS
 10
13.0877181717
 20
6.787234053
 11
13.1189680525
 21
6.8510638326
  0
LINE
  5
4AD
100
AcDbEntity
  8
0
100
AcDbLine
 62
7
  6
CONTINUOUS
 10
13.2127180525
 20
7.4574467838
 11
13.1502182909
 21
7.3617021143
  0
LINE
  5
4AE
100
AcDbEntity
  8
0
100
AcDbLine
 62
7
  6
CONTINUOUS
 10
13.7752180525
 20
7.7446808815
 11
13.7127182909
 21
7.6489362121
  0
LINE
  5
4AF
100
AcDbEntity
  8
0
100
AcDbLine
 62
7
  6
CONTINUOUS
 10
13.2439682909
 20
6.7553191409
 11
13.1814681717
 21
6.6595744714
  0
LINE
  5
4B0
100
AcDbEntity
  8
0
100
AcDbLine
 62
7
  6
CONTINUOUS
 10
14.6189684101
 20
7.4574467838
 11
14.5564679333
 21
7.3617021143
  0
LINE
  5
4B1
100
AcDbEntity
  8
RACCORDO
100
AcDbLine
 62
7
  6
CONTINUOUS
 10
0.708652354
 20
7.0017301425
 11
-0.0243454849
 21
7.0017301425
  0
LINE
  5
4B2
100
AcDbEntity
  8
ASSI
100
AcDbLine
 62
7
  6
CONTINUOUS
 10
-6.1747768283
 20
7.174848
 11
-4.1246848283
 21
7.174848
  0
LINE
  5
4B3
100
AcDbEntity
  8
0
100
AcDbLine
 62
7
  6
CONTINUOUS
 10
12.7752182909
 20
7.2021276653
 11
12.6502180525
 21
7.2021276653
  0
LINE
  5
4B4
100
AcDbEntity
  8
0
100
AcDbLine
 62
7
  6
CONTINUOUS
 10
12.6502180525
 20
7.3297872245
 11
12.7752182909
 21
7.3297872245
  0
LINE
  5
4B5
100
AcDbEntity
  8
ASSI
100
AcDbLine
 62
7
  6
CONTINUOUS
 10
-4.8228788283
 20
7.584869
 11
-6.1747768283
 21
7.584864
  0
LINE
  5
4B6
100
AcDbEntity
  8
0
100
AcDbLine
 62
7
  6
CONTINUOUS
 10
13.7127182909
 20
7.6489362121
 11
13.5564681717
 21
7.6489362121
  0
LINE
  5
4B7
100
AcDbEntity
  8
0
100
AcDbLine
 62
7
  6
CONTINUOUS
 10
12.3377181717
 20
7.6489362121
 11
12.1814680525
 21
7.6489362121
  0
LINE
  5
4B8
100
AcDbEntity
  8
0
100
AcDbLine
 62
7
  6
CONTINUOUS
 10
8.2127181717
 20
7.6489362121
 11
8.0564681726
 21
7.6489362121
  0
LINE
  5
4B9
100
AcDbEntity
  8
0
100
AcDbLine
 62
7
  6
CONTINUOUS
 10
14.1502184101
 20
7.8404255509
 11
14.0252181717
 21
7.8404255509
  0
LINE
  5
4BA
100
AcDbEntity
  8
0
100
AcDbLine
 62
7
  6
CONTINUOUS
 10
12.7752182909
 20
7.8404255509
 11
12.6502180525
 21
7.8404255509
  0
LINE
  5
4BB
100
AcDbEntity
  8
0
100
AcDbLine
 62
7
  6
CONTINUOUS
 10
8.6502181568
 20
7.8404255509
 11
8.5252181866
 21
7.8404255509
  0
LINE
  5
4BC
100
AcDbEntity
  8
RACCORDO
100
AcDbLine
 62
253
  6
CONTINUOUS
 10
-12.9700569198
 20
7.875
 11
-12.7700569198
 21
7.875
  0
LINE
  5
4BD
100
AcDbEntity
  8
RACCORDO
100
AcDbLine
 62
253
  6
CONTINUOUS
 10
-8.7200569198
 20
7.875
 11
-8.5200569198
 21
7.875
  0
LINE
  5
4BE
100
AcDbEntity
  8
RACCORDO
100
AcDbLine
 62
253
  6
CONTINUOUS
 10
-9.3795067368
 20
7.875
 11
-9.5795067368
 21
7.875
  0
LINE
  5
4BF
100
AcDbEntity
  8
RACCORDO
100
AcDbLine
 62
253
  6
CONTINUOUS
 10
-13.6295067368
 20
7.875
 11
-13.8295067368
 21
7.875
  0
LINE
  5
4C0
100
AcDbEntity
  8
RACCORDO
100
AcDbLine
 62
7
  6
CONTINUOUS
 10
-12.7700569198
 20
8.0
 11
-11.6997818283
 21
8.0
  0
LINE
  5
4C1
100
AcDbEntity
  8
RACCORDO
100
AcDbLine
 62
7
  6
CONTINUOUS
 10
-10.6497818283
 20
8.0
 11
-9.5795067368
 21
8.0
  0
LINE
  5
4C2
100
AcDbEntity
  8
0
100
AcDbLine
 62
7
  6
CONTINUOUS
 10
8.5564681568
 20
8.0
 11
8.6814681717
 21
8.0
  0
LINE
  5
4C3
100
AcDbEntity
  8
0
100
AcDbLine
 62
7
  6
CONTINUOUS
 10
12.6814682909
 20
8.0
 11
12.7439680525
 21
8.0
  0
LINE
  5
4C4
100
AcDbEntity
  8
0
100
AcDbLine
 62
7
  6
CONTINUOUS
 10
14.0564684101
 20
8.0
 11
14.1814679333
 21
8.0
  0
LINE
  5
4C5
100
AcDbEntity
  8
ASSI
100
AcDbLine
 62
7
  6
CONTINUOUS
 10
-6.1747768283
 20
8.770163
 11
-4.8228788283
 21
8.770163
  0
LINE
  5
4C6
100
AcDbEntity
  8
0
100
AcDbLine
 62
7
  6
CONTINUOUS
 10
9.9627181121
 20
6.5
 11
9.7752181121
 21
6.5319148926
  0
LINE
  5
4C7
100
AcDbEntity
  8
0
100
AcDbLine
 62
7
  6
CONTINUOUS
 10
11.3377180525
 20
6.5
 11
11.1502180525
 21
6.5319148926
  0
LINE
  5
4C8
100
AcDbEntity
  8
0
100
AcDbLine
 62
7
  6
CONTINUOUS
 10
9.8064681717
 20
6.6914893612
 11
9.9627181121
 21
6.6595744714
  0
LINE
  5
4C9
100
AcDbEntity
  8
0
100
AcDbLine
 62
7
  6
CONTINUOUS
 10
11.1814682909
 20
6.6914893612
 11
11.3377180525
 21
6.6595744714
  0
LINE
  5
4CA
100
AcDbEntity
  8
0
100
AcDbLine
 62
7
  6
CONTINUOUS
 10
12.4627180525
 20
6.6914893612
 11
12.6189681717
 21
6.6595744714
  0
LINE
  5
4CB
100
AcDbEntity
  8
ASSI
100
AcDbLine
 62
7
  6
CONTINUOUS
 10
-6.1747768283
 20
10.931755
 11
-4.1246848283
 21
10.273536
  0
LINE
  5
4CC
100
AcDbEntity
  8
ASSI
100
AcDbLine
 62
7
  6
CONTINUOUS
 10
-4.1246848283
 20
10.683557
 11
-5.5362838283
 21
11.136765
  0
LINE
  5
4CD
100
AcDbEntity
  8
DRAFT
100
AcDbLine
 62
7
  6
CONTINUOUS
 10
1.5576309618
 20
20.5027418772
 11
1.5252181717
 21
20.6
  0
LINE
  5
4CE
100
AcDbEntity
  8
0
100
AcDbLine
 62
7
  6
CONTINUOUS
 10
9.1502181717
 20
7.6489362121
 11
9.1502181717
 21
7.585106343
  0
LINE
  5
4CF
100
AcDbEntity
  8
0
100
AcDbLine
 62
7
  6
CONTINUOUS
 10
9.1502181717
 20
6.6595744714
 11
9.1502181717
 21
6.5
  0
LINE
  5
4D0
100
AcDbEntity
  8
ASSI
100
AcDbLine
 62
7
  6
CONTINUOUS
 10
9.1743921717
 20
15.655045
 11
9.1743871717
 21
13.404944
  0
LINE
  5
4D1
100
AcDbEntity
  8
0
100
AcDbLine
 62
7
  6
CONTINUOUS
 10
9.2135291717
 20
12.049272
 11
9.2135291717
 21
9.85
  0
LINE
  5
4D2
100
AcDbEntity
  8
0
100
AcDbLine
 62
7
  6
CONTINUOUS
 10
9.4002182015
 20
7.1063829958
 11
9.4002182015
 21
7.3936170042
  0
LINE
  5
4D3
100
AcDbEntity
  8
0
100
AcDbLine
 62
7
  6
CONTINUOUS
 10
9.5564682313
 20
7.3617021143
 11
9.5564682313
 21
7.1382978857
  0
LINE
  5
4D4
100
AcDbEntity
  8
ASSI
100
AcDbLine
 62
7
  6
CONTINUOUS
 10
9.6243921717
 20
13.404944
 11
9.6243921717
 21
15.655045
  0
LINE
  5
4D5
100
AcDbEntity
  8
0
100
AcDbLine
 62
7
  6
CONTINUOUS
 10
9.6806271717
 20
9.85
 11
9.6806271717
 21
12.049272
  0
LINE
  5
4D6
100
AcDbEntity
  8
ASSI
100
AcDbLine
 62
7
  6
CONTINUOUS
 10
9.8252181717
 20
-8.0529766312
 11
9.8252181717
 21
-8.5530070922
  0
LINE
  5
4D7
100
AcDbEntity
  8
RACCORDO
100
AcDbLine
 62
7
  6
CONTINUOUS
 10
9.8252181717
 20
-8.0529766312
 11
9.8252181717
 21
-8.5530070922
  0
LINE
  5
4D8
100
AcDbEntity
  8
0
100
AcDbLine
 62
7
  6
CONTINUOUS
 10
10.0733941717
 20
12.049272
 11
10.0733861717
 21
11.090385
  0
LINE
  5
4D9
100
AcDbEntity
  8
0
100
AcDbLine
 62
7
  6
CONTINUOUS
 10
10.0733861717
 20
10.612197
 11
10.0733941717
 21
9.85
  0
LINE
  5
4DA
100
AcDbEntity
  8
ASSI
100
AcDbLine
 62
7
  6
CONTINUOUS
 10
10.0744091717
 20
14.888734
 11
10.0744091717
 21
13.404944
  0
LINE
  5
4DB
100
AcDbEntity
  8
0
100
AcDbLine
 62
7
  6
CONTINUOUS
 10
10.3689681717
 20
7.1382978857
 11
10.3689681717
 21
7.3617021143
  0
LINE
  5
4DC
100
AcDbEntity
  8
0
100
AcDbLine
 62
7
  6
CONTINUOUS
 10
10.5252181121
 20
7.3936170042
 11
10.5252181121
 21
7.1063829958
  0
LINE
  5
4DD
100
AcDbEntity
  8
0
100
AcDbLine
 62
7
  6
CONTINUOUS
 10
10.7752182313
 20
7.1063829958
 11
10.7752182313
 21
7.3936170042
  0
LINE
  5
4DE
100
AcDbEntity
  8
0
100
AcDbLine
 62
7
  6
CONTINUOUS
 10
10.9314681717
 20
7.3617021143
 11
10.9314681717
 21
7.1382978857
  0
LINE
  5
4DF
100
AcDbEntity
  8
0
100
AcDbLine
 62
7
  6
CONTINUOUS
 10
10.9627182313
 20
7.5531914532
 11
10.9314681717
 21
7.3617021143
  0
LINE
  5
4E0
100
AcDbEntity
  8
0
100
AcDbLine
 62
7
  6
CONTINUOUS
 10
11.7127180525
 20
6.9468085021
 11
11.7439682909
 21
7.1382978857
  0
LINE
  5
4E1
100
AcDbEntity
  8
0
100
AcDbLine
 62
7
  6
CONTINUOUS
 10
10.7752182313
 20
7.3936170042
 11
10.8064681121
 21
7.5531914532
  0
LINE
  5
4E2
100
AcDbEntity
  8
0
100
AcDbLine
 62
7
  6
CONTINUOUS
 10
11.9002180525
 20
7.1063829958
 11
11.8689681717
 21
6.9468085021
  0
LINE
  5
4E3
100
AcDbEntity
  8
0
100
AcDbLine
 62
7
  6
CONTINUOUS
 10
12.1814680525
 20
7.6489362121
 11
12.2127182909
 21
7.7765957713
  0
LINE
  5
4E4
100
AcDbEntity
  8
0
100
AcDbLine
 62
7
  6
CONTINUOUS
 10
13.2439682909
 20
7.585106343
 11
13.2127180525
 21
7.4574467838
  0
LINE
  5
4E5
100
AcDbEntity
  8
0
100
AcDbLine
 62
7
  6
CONTINUOUS
 10
13.2752181717
 20
6.8510638326
 11
13.2439682909
 21
6.7553191409
  0
LINE
  5
4E6
100
AcDbEntity
  8
0
100
AcDbLine
 62
7
  6
CONTINUOUS
 10
14.4002181717
 20
7.4574467838
 11
14.4627179333
 21
7.585106343
  0
LINE
  5
4E7
100
AcDbEntity
  8
RACCORDO
100
AcDbLine
 62
7
  6
CONTINUOUS
 10
-3.9690472315
 20
-19.7942654032
 11
-3.8660549605
 21
-19.6912731322
  0
LINE
  5
4E8
100
AcDbEntity
  8
RACCORDO
100
AcDbLine
 62
7
  6
CONTINUOUS
 10
-14.863326994
 20
-20.0942654032
 11
-14.6573267634
 21
-19.9912731322
  0
LINE
  5
4E9
100
AcDbEntity
  8
ASSI
100
AcDbLine
 62
7
  6
CONTINUOUS
 10
-4.1246848283
 20
9.180179
 11
-6.1747768283
 21
9.180179
  0
LINE
  5
4EA
100
AcDbEntity
  8
ASSI
100
AcDbLine
 62
7
  6
CONTINUOUS
 10
-6.1747768283
 20
9.590184
 11
-4.1246848283
 21
9.590179
  0
LINE
  5
4EB
100
AcDbEntity
  8
0
100
AcDbLine
 62
7
  6
CONTINUOUS
 10
15.8614521717
 20
9.85
 11
15.4689791717
 21
9.85
  0
LINE
  5
4EC
100
AcDbEntity
  8
0
100
AcDbLine
 62
7
  6
CONTINUOUS
 10
14.4634881717
 20
9.85
 11
14.0853811717
 21
9.85
  0
LINE
  5
4ED
100
AcDbEntity
  8
0
100
AcDbLine
 62
7
  6
CONTINUOUS
 10
11.5802131717
 20
9.85
 11
11.0861301717
 21
9.85
  0
LINE
  5
4EE
100
AcDbEntity
  8
0
100
AcDbLine
 62
7
  6
CONTINUOUS
 10
10.0733941717
 20
9.85
 11
9.6806271717
 21
9.85
  0
LINE
  5
4EF
100
AcDbEntity
  8
0
100
AcDbLine
 62
7
  6
CONTINUOUS
 10
9.2135291717
 20
9.85
 11
8.8207461717
 21
9.85
  0
LINE
  5
4F0
100
AcDbEntity
  8
0
100
AcDbLine
 62
7
  6
CONTINUOUS
 10
8.3483821717
 20
9.85
 11
6.7852181717
 21
9.85
  0
LINE
  5
4F1
100
AcDbEntity
  8
ASSI
100
AcDbLine
 62
7
  6
CONTINUOUS
 10
-4.1246848283
 20
10.000194
 11
-6.1747818283
 21
10.000199
  0
LINE
  5
4F2
100
AcDbEntity
  8
0
100
AcDbLine
 62
7
  6
CONTINUOUS
 10
7.1779781717
 20
10.199038
 11
8.3483821717
 21
10.199049
  0
LINE
  5
4F3
100
AcDbEntity
  8
0
100
AcDbLine
 62
7
  6
CONTINUOUS
 10
-10.6497818283
 20
10.2335172624
 11
-11.6997818283
 21
10.2335172624
  0
LINE
  5
4F4
100
AcDbEntity
  8
0
100
AcDbLine
 62
7
  6
CONTINUOUS
 10
8.2607341717
 20
10.804304
 11
7.1779781717
 21
10.804296
  0
LINE
  5
4F5
100
AcDbEntity
  8
0
100
AcDbLine
 62
7
  6
CONTINUOUS
 10
7.1779781717
 20
11.153369
 11
8.2607341717
 21
11.153361
  0
LINE
  5
4F6
100
AcDbEntity
  8
0
100
AcDbLine
 62
7
  6
CONTINUOUS
 10
12.7439680525
 20
8.0
 11
12.9627182909
 21
7.9680851102
  0
LINE
  5
4F7
100
AcDbEntity
  8
0
100
AcDbLine
 62
7
  6
CONTINUOUS
 10
12.9627182909
 20
7.1702127755
 11
12.7752182909
 21
7.2021276653
  0
LINE
  5
4F8
100
AcDbEntity
  8
0
100
AcDbLine
 62
7
  6
CONTINUOUS
 10
8.6814681717
 20
8.0
 11
8.8689681717
 21
7.9680851102
  0
LINE
  5
4F9
100
AcDbEntity
  8
0
100
AcDbLine
 62
7
  6
CONTINUOUS
 10
9.9627181121
 20
8.0
 11
10.1502181121
 21
7.9680851102
  0
LINE
  5
4FA
100
AcDbEntity
  8
0
100
AcDbLine
 62
7
  6
CONTINUOUS
 10
11.3377180525
 20
8.0
 11
11.5252180525
 21
7.9680851102
  0
LINE
  5
4FB
100
AcDbEntity
  8
0
100
AcDbLine
 62
7
  6
CONTINUOUS
 10
14.1814679333
 20
8.0
 11
14.3689679333
 21
7.9680851102
  0
LINE
  5
4FC
100
AcDbEntity
  8
0
100
AcDbLine
 62
7
  6
CONTINUOUS
 10
8.8064681419
 20
7.8085106611
 11
8.6502181568
 21
7.8404255509
  0
LINE
  5
4FD
100
AcDbEntity
  8
0
100
AcDbLine
 62
7
  6
CONTINUOUS
 10
10.1189682313
 20
7.8085106611
 11
9.9627181121
 21
7.8404255509
  0
LINE
  5
4FE
100
AcDbEntity
  8
0
100
AcDbLine
 62
7
  6
CONTINUOUS
 10
11.4939681717
 20
7.8085106611
 11
11.3377180525
 21
7.8404255509
  0
LINE
  5
4FF
100
AcDbEntity
  8
0
100
AcDbLine
 62
7
  6
CONTINUOUS
 10
12.9314680525
 20
7.8085106611
 11
12.7752182909
 21
7.8404255509
  0
LINE
  5
500
100
AcDbEntity
  8
0
100
AcDbLine
 62
7
  6
CONTINUOUS
 10
14.3064681717
 20
7.8085106611
 11
14.1502184101
 21
7.8404255509
  0
LINE
  5
501
100
AcDbEntity
  8
0
100
AcDbLine
 62
7
  6
CONTINUOUS
 10
12.5877182909
 20
6.5
 11
12.4627180525
 21
6.5319148926
  0
LINE
  5
502
100
AcDbEntity
  8
RACCORDO
100
AcDbLine
 62
7
  6
CONTINUOUS
 10
-14.863326994
 20
20.0942654032
 11
-14.6573267634
 21
19.9912731322
  0
LINE
  5
503
100
AcDbEntity
  8
0
100
AcDbLine
 62
7
  6
CONTINUOUS
 10
8.8689681717
 20
7.9680851102
 11
8.9939681419
 21
7.9042553306
  0
LINE
  5
504
100
AcDbEntity
  8
0
100
AcDbLine
 62
7
  6
CONTINUOUS
 10
9.7752181121
 20
6.5319148926
 11
9.6189681717
 21
6.6276595704
  0
LINE
  5
505
100
AcDbEntity
  8
0
100
AcDbLine
 62
7
  6
CONTINUOUS
 10
9.7127181717
 20
6.7553191409
 11
9.8064681717
 21
6.6914893612
  0
LINE
  5
506
100
AcDbEntity
  8
RACCORDO
100
AcDbLine
 62
7
  6
CONTINUOUS
 10
-3.9690472315
 20
19.7942654032
 11
-3.8660549605
 21
19.6912731322
  0
LINE
  5
507
100
AcDbEntity
  8
0
100
AcDbLine
 62
7
  6
CONTINUOUS
 10
9.4627181419
 20
6.8510638326
 11
9.4314681717
 21
6.9468085021
  0
LINE
  5
508
100
AcDbEntity
  8
ASSI
100
AcDbLine
 62
7
  6
CONTINUOUS
 10
7.2518971717
 20
13.404938
 11
6.5294671717
 21
15.655045
  0
LINE
  5
509
100
AcDbEntity
  8
0
100
AcDbLine
 62
7
  6
CONTINUOUS
 10
9.1189682015
 20
7.7765957713
 11
9.1502181717
 21
7.6489362121
  0
LINE
  5
50A
100
AcDbEntity
  8
0
100
AcDbLine
 62
7
  6
CONTINUOUS
 10
9.4314681717
 20
6.9468085021
 11
9.4002182015
 21
7.1063829958
  0
LINE
  5
50B
100
AcDbEntity
  8
0
100
AcDbLine
 62
7
  6
CONTINUOUS
 10
9.5564682313
 20
7.1382978857
 11
9.5877181121
 21
6.9468085021
  0
LINE
  5
50C
100
AcDbEntity
  8
RACCORDO
100
AcDbLine
 62
253
  6
CONTINUOUS
 10
7.4972443694
 20
19.6323546024
 11
7.5136827105
 21
19.5
  0
LINE
  5
50D
100
AcDbEntity
  8
RACCORDO
100
AcDbLine
 62
253
  6
CONTINUOUS
 10
7.7971986779
 20
19.929435023
 11
7.8181447559
 21
19.7607860213
  0
LINE
  5
50E
100
AcDbEntity
  8
ASSI
100
AcDbLine
 62
7
  6
CONTINUOUS
 10
11.3753481717
 20
13.404944
 11
11.3753421717
 21
14.888734
  0
LINE
  5
50F
100
AcDbEntity
  8
0
100
AcDbLine
 62
7
  6
CONTINUOUS
 10
11.7439682909
 20
7.1382978857
 11
11.7439682909
 21
7.3617021143
  0
LINE
  5
510
100
AcDbEntity
  8
ASSI
100
AcDbLine
 62
7
  6
CONTINUOUS
 10
11.8253651717
 20
15.655045
 11
11.8253651717
 21
13.404944
  0
LINE
  5
511
100
AcDbEntity
  8
0
100
AcDbLine
 62
7
  6
CONTINUOUS
 10
11.9002180525
 20
7.3936170042
 11
11.9002180525
 21
7.1063829958
  0
LINE
  5
512
100
AcDbEntity
  8
0
100
AcDbLine
 62
7
  6
CONTINUOUS
 10
12.6502180525
 20
7.2021276653
 11
12.6502180525
 21
7.3297872245
  0
LINE
  5
513
100
AcDbEntity
  8
ASSI
100
AcDbLine
 62
7
  6
CONTINUOUS
 10
12.8252181717
 20
-8.0529766312
 11
12.8252181717
 21
-8.5530070922
  0
LINE
  5
514
100
AcDbEntity
  8
RACCORDO
100
AcDbLine
 62
7
  6
CONTINUOUS
 10
12.8252181717
 20
-8.0529766312
 11
12.8252181717
 21
-8.5530070922
  0
LINE
  5
515
100
AcDbEntity
  8
0
100
AcDbLine
 62
7
  6
CONTINUOUS
 10
13.0877181717
 20
7.585106343
 11
13.0877181717
 21
7.6489362121
  0
LINE
  5
516
100
AcDbEntity
  8
0
100
AcDbLine
 62
7
  6
CONTINUOUS
 10
13.1189680525
 20
6.8510638326
 11
13.1189680525
 21
6.9787233919
  0
LINE
  5
517
100
AcDbEntity
  8
0
100
AcDbLine
 62
7
  6
CONTINUOUS
 10
13.2439682909
 20
7.6489362121
 11
13.2439682909
 21
7.585106343
  0
LINE
  5
518
100
AcDbEntity
  8
0
100
AcDbLine
 62
7
  6
CONTINUOUS
 10
13.2752181717
 20
6.9787233919
 11
13.2752181717
 21
6.8510638326
  0
LINE
  5
519
100
AcDbEntity
  8
0
100
AcDbLine
 62
7
  6
CONTINUOUS
 10
13.5252182909
 20
6.5
 11
13.5252182909
 21
6.6595744714
  0
LINE
  5
51A
100
AcDbEntity
  8
RACCORDO
100
AcDbLine
 62
253
  6
CONTINUOUS
 10
14.8322915875
 20
19.7607860213
 11
14.8532376654
 21
19.929435023
  0
LINE
  5
51B
100
AcDbEntity
  8
RACCORDO
100
AcDbLine
 62
253
  6
CONTINUOUS
 10
15.1367536329
 20
19.5
 11
15.153191974
 21
19.6323546024
  0
LINE
  5
51C
100
AcDbEntity
  8
0
100
AcDbLine
 62
7
  6
CONTINUOUS
 10
13.5564681717
 20
7.6489362121
 11
13.5877180525
 21
7.7765957713
  0
LINE
  5
51D
100
AcDbEntity
  8
0
100
AcDbLine
 62
7
  6
CONTINUOUS
 10
14.6502179333
 20
7.585106343
 11
14.6189684101
 21
7.4574467838
  0
LINE
  5
51E
100
AcDbEntity
  8
0
100
AcDbLine
 62
7
  6
CONTINUOUS
 10
-3.5561526782
 20
-20.9
 11
-1.5073267634
 21
-18.8511740852
  0
LINE
  5
51F
100
AcDbEntity
  8
0
100
AcDbLine
 62
7
  6
CONTINUOUS
 10
-0.0330723527
 20
-18.5082905244
 11
-3.9189639985
 21
-22.3941821702
  0
LINE
  5
520
100
AcDbEntity
  8
DRAFT
100
AcDbLine
 62
7
  6
CONTINUOUS
 10
1.562761625
 20
11.5598951074
 11
3.3252181717
 21
11.5598951074
  0
LINE
  5
521
100
AcDbEntity
  8
ASSI
100
AcDbLine
 62
7
  6
CONTINUOUS
 10
19.3252181717
 20
11.5598951074
 11
20.7680304669
 21
11.5598951074
  0
LINE
  5
522
100
AcDbEntity
  8
0
100
AcDbLine
 62
7
  6
CONTINUOUS
 10
8.3395421717
 20
11.700223
 11
7.1779781717
 21
11.700227
  0
LINE
  5
523
100
AcDbEntity
  8
0
100
AcDbLine
 62
7
  6
CONTINUOUS
 10
6.7852181717
 20
12.049272
 11
8.3395421717
 21
12.049272
  0
LINE
  5
524
100
AcDbEntity
  8
0
100
AcDbLine
 62
7
  6
CONTINUOUS
 10
8.8207461717
 20
12.049272
 11
9.2135291717
 21
12.049272
  0
LINE
  5
525
100
AcDbEntity
  8
0
100
AcDbLine
 62
7
  6
CONTINUOUS
 10
9.6806271717
 20
12.049272
 11
10.0733941717
 21
12.049272
  0
LINE
  5
526
100
AcDbEntity
  8
0
100
AcDbLine
 62
7
  6
CONTINUOUS
 10
11.0483921717
 20
12.049272
 11
11.5750291717
 21
12.049272
  0
LINE
  5
527
100
AcDbEntity
  8
0
100
AcDbLine
 62
7
  6
CONTINUOUS
 10
14.0853811717
 20
12.049272
 11
14.4691531717
 21
12.049272
  0
LINE
  5
528
100
AcDbEntity
  8
0
100
AcDbLine
 62
7
  6
CONTINUOUS
 10
15.4833411717
 20
12.049272
 11
15.8614521717
 21
12.049272
  0
LINE
  5
529
100
AcDbEntity
  8
ASSI
100
AcDbLine
 62
7
  6
CONTINUOUS
 10
20.8288241556
 20
12.4027364257
 11
19.3252181717
 21
12.4027364257
  0
LINE
  5
52A
100
AcDbEntity
  8
DRAFT
100
AcDbLine
 62
7
  6
CONTINUOUS
 10
3.3252181717
 20
12.4027364257
 11
1.5626100425
 21
12.4027364257
  0
LINE
  5
52B
100
AcDbEntity
  8
0
100
AcDbLine
 62
7
  6
CONTINUOUS
 10
-11.6997818283
 20
12.5370254557
 11
-10.6497818283
 21
12.5370254557
  0
LINE
  5
52C
100
AcDbEntity
  8
ASSI
100
AcDbLine
 62
7
  6
CONTINUOUS
 10
16.1209691717
 20
13.404955
 11
15.6140951717
 21
13.404949
  0
LINE
  5
52D
100
AcDbEntity
  8
ASSI
100
AcDbLine
 62
7
  6
CONTINUOUS
 10
12.5753911717
 20
13.404949
 11
12.1253741717
 21
13.404944
  0
LINE
  5
52E
100
AcDbEntity
  8
ASSI
100
AcDbLine
 62
7
  6
CONTINUOUS
 10
9.1743871717
 20
13.404944
 11
8.7243701717
 21
13.404938
  0
LINE
  5
52F
100
AcDbEntity
  8
ASSI
100
AcDbLine
 62
7
  6
CONTINUOUS
 10
10.9498791717
 20
13.404949
 11
10.4998731717
 21
13.404944
  0
LINE
  5
530
100
AcDbEntity
  8
ASSI
100
AcDbLine
 62
7
  6
CONTINUOUS
 10
7.7019301717
 20
13.404944
 11
7.2518971717
 21
13.404938
  0
LINE
  5
531
100
AcDbEntity
  8
ASSI
100
AcDbLine
 62
7
  6
CONTINUOUS
 10
11.8253651717
 20
13.404944
 11
11.3753481717
 21
13.404944
  0
LINE
  5
532
100
AcDbEntity
  8
ASSI
100
AcDbLine
 62
7
  6
CONTINUOUS
 10
10.0744091717
 20
13.404944
 11
9.6243921717
 21
13.404944
  0
LINE
  5
533
100
AcDbEntity
  8
ASSI
100
AcDbLine
 62
7
  6
CONTINUOUS
 10
14.7703061717
 20
13.404949
 11
14.3202831717
 21
13.404949
  0
LINE
  5
534
100
AcDbEntity
  8
ASSI
100
AcDbLine
 62
7
  6
CONTINUOUS
 10
14.0202741717
 20
13.404944
 11
13.5702511717
 21
13.404949
  0
LINE
  5
535
100
AcDbEntity
  8
0
100
AcDbLine
 62
7
  6
CONTINUOUS
 10
13.0252180525
 20
7.2659574449
 11
13.1814681717
 21
7.2021276653
  0
LINE
  5
536
100
AcDbEntity
  8
0
100
AcDbLine
 62
7
  6
CONTINUOUS
 10
12.4627180525
 20
6.5319148926
 11
12.3377181717
 21
6.5957446806
  0
LINE
  5
537
100
AcDbEntity
  8
0
100
AcDbLine
 62
7
  6
CONTINUOUS
 10
12.4002182909
 20
6.723404251
 11
12.4627180525
 21
6.6914893612
  0
LINE
  5
538
100
AcDbEntity
  8
0
100
AcDbLine
 62
7
  6
CONTINUOUS
 10
12.9627182909
 20
7.9680851102
 11
13.0877181717
 21
7.9042553306
  0
LINE
  5
539
100
AcDbEntity
  8
0
100
AcDbLine
 62
7
  6
CONTINUOUS
 10
11.1502180525
 20
6.5319148926
 11
10.9939681121
 21
6.6276595704
  0
LINE
  5
53A
100
AcDbEntity
  8
0
100
AcDbLine
 62
7
  6
CONTINUOUS
 10
10.1502181121
 20
7.9680851102
 11
10.3064682313
 21
7.8723404408
  0
LINE
  5
53B
100
AcDbEntity
  8
0
100
AcDbLine
 62
7
  6
CONTINUOUS
 10
11.5252180525
 20
7.9680851102
 11
11.6814681717
 21
7.8723404408
  0
LINE
  5
53C
100
AcDbEntity
  8
0
100
AcDbLine
 62
7
  6
CONTINUOUS
 10
8.9002181419
 20
7.7446808815
 11
8.8064681419
 21
7.8085106611
  0
LINE
  5
53D
100
AcDbEntity
  8
0
100
AcDbLine
 62
7
  6
CONTINUOUS
 10
11.0877182909
 20
6.7553191409
 11
11.1814682909
 21
6.6914893612
  0
LINE
  5
53E
100
AcDbEntity
  8
0
100
AcDbLine
 62
7
  6
CONTINUOUS
 10
10.2127182313
 20
7.7446808815
 11
10.1189682313
 21
7.8085106611
  0
LINE
  5
53F
100
AcDbEntity
  8
0
100
AcDbLine
 62
7
  6
CONTINUOUS
 10
12.3377181717
 20
6.5957446806
 11
12.2439681717
 21
6.6595744714
  0
LINE
  5
540
100
AcDbEntity
  8
0
100
AcDbLine
 62
7
  6
CONTINUOUS
 10
11.5877181717
 20
7.7446808815
 11
11.4939681717
 21
7.8085106611
  0
LINE
  5
541
100
AcDbEntity
  8
0
100
AcDbLine
 62
7
  6
CONTINUOUS
 10
13.0564682909
 20
7.1063829958
 11
12.9627182909
 21
7.1702127755
  0
LINE
  5
542
100
AcDbEntity
  8
0
100
AcDbLine
 62
7
  6
CONTINUOUS
 10
-1.5073267634
 20
18.8511740852
 11
-3.5561526782
 21
20.9
  0
LINE
  5
543
100
AcDbEntity
  8
0
100
AcDbLine
 62
7
  6
CONTINUOUS
 10
-0.0330723527
 20
18.5082905244
 11
-3.9189639985
 21
22.3941821702
  0
LINE
  5
544
100
AcDbEntity
  8
0
100
AcDbLine
 62
7
  6
CONTINUOUS
 10
9.6189681717
 20
6.6276595704
 11
9.5252181717
 21
6.723404251
  0
LINE
  5
545
100
AcDbEntity
  8
0
100
AcDbLine
 62
7
  6
CONTINUOUS
 10
8.9939681419
 20
7.9042553306
 11
9.1189682015
 21
7.7765957713
  0
LINE
  5
546
100
AcDbEntity
  8
0
100
AcDbLine
 62
7
  6
CONTINUOUS
 10
10.9939681121
 20
6.6276595704
 11
10.9002181121
 21
6.723404251
  0
LINE
  5
547
100
AcDbEntity
  8
0
100
AcDbLine
 62
7
  6
CONTINUOUS
 10
10.3064682313
 20
7.8723404408
 11
10.4002182313
 21
7.7765957713
  0
LINE
  5
548
100
AcDbEntity
  8
0
100
AcDbLine
 62
7
  6
CONTINUOUS
 10
8.9627181717
 20
7.6489362121
 11
8.9002181419
 21
7.7446808815
  0
LINE
  5
549
100
AcDbEntity
  8
0
100
AcDbLine
 62
7
  6
CONTINUOUS
 10
9.5877181121
 20
6.9468085021
 11
9.7127181717
 21
6.7553191409
  0
LINE
  5
54A
100
AcDbEntity
  8
0
100
AcDbLine
 62
7
  6
CONTINUOUS
 10
10.3377181121
 20
7.5531914532
 11
10.2127182313
 21
7.7446808815
  0
LINE
  5
54B
100
AcDbEntity
  8
0
100
AcDbLine
 62
7
  6
CONTINUOUS
 10
10.9627182313
 20
6.9468085021
 11
11.0877182909
 21
6.7553191409
  0
LINE
  5
54C
100
AcDbEntity
  8
0
100
AcDbLine
 62
7
  6
CONTINUOUS
 10
9.5252181717
 20
6.723404251
 11
9.4627181419
 21
6.8510638326
  0
LINE
  5
54D
100
AcDbEntity
  8
0
100
AcDbLine
 62
7
  6
CONTINUOUS
 10
10.9002181121
 20
6.723404251
 11
10.8377181717
 21
6.8510638326
  0
LINE
  5
54E
100
AcDbEntity
  8
0
100
AcDbLine
 62
7
  6
CONTINUOUS
 10
10.4002182313
 20
7.7765957713
 11
10.4627181717
 21
7.6489362121
  0
LINE
  5
54F
100
AcDbEntity
  8
RACCORDO
100
AcDbLine
 62
253
  6
CONTINUOUS
 10
7.5181904473
 20
18.5217859551
 11
7.5303713962
 21
18.485213391
  0
LINE
  5
550
100
AcDbEntity
  8
RACCORDO
100
AcDbLine
 62
253
  6
CONTINUOUS
 10
7.8181447559
 20
18.8213748155
 11
7.8294960692
 21
18.7872931822
  0
LINE
  5
551
100
AcDbEntity
  8
0
100
AcDbLine
 62
7
  6
CONTINUOUS
 10
10.4627181717
 20
7.6489362121
 11
10.4939682313
 21
7.5531914532
  0
LINE
  5
552
100
AcDbEntity
  8
0
100
AcDbLine
 62
7
  6
CONTINUOUS
 10
10.8377181717
 20
6.8510638326
 11
10.8064681121
 21
6.9468085021
  0
LINE
  5
553
100
AcDbEntity
  8
ASSI
100
AcDbLine
 62
7
  6
CONTINUOUS
 10
6.9794891717
 20
15.655045
 11
7.4769191717
 21
14.105729
  0
LINE
  5
554
100
AcDbEntity
  8
0
100
AcDbLine
 62
7
  6
CONTINUOUS
 10
10.4939682313
 20
7.5531914532
 11
10.5252181121
 21
7.3936170042
  0
LINE
  5
555
100
AcDbEntity
  8
0
100
AcDbLine
 62
7
  6
CONTINUOUS
 10
10.8064681121
 20
6.9468085021
 11
10.7752182313
 21
7.1063829958
  0
LINE
  5
556
100
AcDbEntity
  8
0
100
AcDbLine
 62
7
  6
CONTINUOUS
 10
11.8689681717
 20
7.5531914532
 11
11.9002180525
 21
7.3936170042
  0
LINE
  5
557
100
AcDbEntity
  8
0
100
AcDbLine
 62
7
  6
CONTINUOUS
 10
10.3689681717
 20
7.3617021143
 11
10.3377181121
 21
7.5531914532
  0
LINE
  5
558
100
AcDbEntity
  8
0
100
AcDbLine
 62
7
  6
CONTINUOUS
 10
10.9314681717
 20
7.1382978857
 11
10.9627182313
 21
6.9468085021
  0
LINE
  5
559
100
AcDbEntity
  8
0
100
AcDbLine
 62
7
  6
CONTINUOUS
 10
11.7439682909
 20
7.3617021143
 11
11.7127180525
 21
7.5531914532
  0
LINE
  5
55A
100
AcDbEntity
  8
0
100
AcDbLine
 62
7
  6
CONTINUOUS
 10
14.0853811717
 20
9.85
 11
14.0853811717
 21
12.049272
  0
LINE
  5
55B
100
AcDbEntity
  8
ASSI
100
AcDbLine
 62
7
  6
CONTINUOUS
 10
14.3202831717
 20
13.404949
 11
14.3202831717
 21
15.655051
  0
LINE
  5
55C
100
AcDbEntity
  8
0
100
AcDbLine
 62
7
  6
CONTINUOUS
 10
14.4627179333
 20
7.585106343
 11
14.4627179333
 21
7.6489362121
  0
LINE
  5
55D
100
AcDbEntity
  8
0
100
AcDbLine
 62
7
  6
CONTINUOUS
 10
14.6502179333
 20
7.6489362121
 11
14.6502179333
 21
7.585106343
  0
LINE
  5
55E
100
AcDbEntity
  8
0
100
AcDbLine
 62
7
  6
CONTINUOUS
 10
14.6502179333
 20
6.6595744714
 11
14.6502179333
 21
6.5
  0
LINE
  5
55F
100
AcDbEntity
  8
ASSI
100
AcDbLine
 62
7
  6
CONTINUOUS
 10
14.7640961717
 20
15.238784
 11
14.7641011717
 21
14.691235
  0
LINE
  5
560
100
AcDbEntity
  8
RACCORDO
100
AcDbLine
 62
253
  6
CONTINUOUS
 10
14.8322915875
 20
18.8213748155
 11
14.8322915875
 21
19.7607860213
  0
LINE
  5
561
100
AcDbEntity
  8
RACCORDO
100
AcDbLine
 62
253
  6
CONTINUOUS
 10
14.8532376654
 20
19.929435023
 11
14.8532376654
 21
20.5451466669
  0
LINE
  5
562
100
AcDbEntity
  8
RACCORDO
100
AcDbLine
 62
253
  6
CONTINUOUS
 10
15.1322458961
 20
18.5217859551
 11
15.1322458961
 21
19.5
  0
LINE
  5
563
100
AcDbEntity
  8
RACCORDO
100
AcDbLine
 62
253
  6
CONTINUOUS
 10
15.153191974
 20
19.6323546024
 11
15.153191974
 21
20.5528653412
  0
LINE
  5
564
100
AcDbEntity
  8
RACCORDO
100
AcDbLine
 62
253
  6
CONTINUOUS
 10
15.2972443694
 20
19.6323546024
 11
15.2972443694
 21
20.5528653412
  0
LINE
  5
565
100
AcDbEntity
  8
RACCORDO
100
AcDbLine
 62
253
  6
CONTINUOUS
 10
15.3181904473
 20
18.5217859551
 11
15.3181904473
 21
19.5
  0
LINE
  5
566
100
AcDbEntity
  8
0
100
AcDbLine
 62
7
  6
CONTINUOUS
 10
15.4833331717
 20
10.495969
 11
15.4833411717
 21
12.049272
  0
LINE
  5
567
100
AcDbEntity
  8
RACCORDO
100
AcDbLine
 62
253
  6
CONTINUOUS
 10
15.5971986779
 20
20.5451466669
 11
15.5971986779
 21
19.929435023
  0
LINE
  5
568
100
AcDbEntity
  8
RACCORDO
100
AcDbLine
 62
253
  6
CONTINUOUS
 10
15.6181447559
 20
19.7607860213
 11
15.6181447559
 21
18.8213748155
  0
LINE
  5
569
100
AcDbEntity
  8
ASSI
100
AcDbLine
 62
7
  6
CONTINUOUS
 10
14.7703561717
 20
14.274968
 11
14.7703061717
 21
13.404949
  0
LINE
  5
56A
100
AcDbEntity
  8
0
100
AcDbLine
 62
7
  6
CONTINUOUS
 10
14.4688161717
 20
11.38635
 11
14.4634881717
 21
9.85
  0
LINE
  5
56B
100
AcDbEntity
  8
0
100
AcDbLine
 62
253
  6
CONTINUOUS
 10
-3.9247818283
 20
-24.2500042308
 11
-3.9204099943
 21
-24.2456323968
  0
LINE
  5
56C
100
AcDbEntity
  8
0
100
AcDbLine
 62
253
  6
CONTINUOUS
 10
-3.6747860591
 20
-24.5
 11
-3.6704142251
 21
-24.495628166
  0
LINE
  5
56D
100
AcDbEntity
  8
RACCORDO
100
AcDbLine
 62
7
  6
CONTINUOUS
 10
-6.563326994
 20
-20.0942654032
 11
-6.3573267634
 21
-19.9912731322
  0
LINE
  5
56E
100
AcDbEntity
  8
RACCORDO
100
AcDbLine
 62
253
  6
CONTINUOUS
 10
-8.7200569198
 20
13.8
 11
-8.5200569198
 21
13.8
  0
LINE
  5
56F
100
AcDbEntity
  8
RACCORDO
100
AcDbLine
 62
253
  6
CONTINUOUS
 10
-13.6295067368
 20
13.8
 11
-13.8295067368
 21
13.8
  0
LINE
  5
570
100
AcDbEntity
  8
ASSI
100
AcDbLine
 62
7
  6
CONTINUOUS
 10
13.4281861717
 20
13.847446
 11
12.7174621717
 21
13.847446
  0
LINE
  5
571
100
AcDbEntity
  8
ASSI
100
AcDbLine
 62
7
  6
CONTINUOUS
 10
12.8547291717
 20
14.274962
 11
13.2909141717
 21
14.274962
  0
LINE
  5
572
100
AcDbEntity
  8
ASSI
100
AcDbLine
 62
7
  6
CONTINUOUS
 10
15.1631221717
 20
14.274962
 11
14.7703561717
 21
14.274968
  0
LINE
  5
573
100
AcDbEntity
  8
ASSI
100
AcDbLine
 62
7
  6
CONTINUOUS
 10
14.7641011717
 20
14.691235
 11
15.3116179343
 21
14.691235
  0
LINE
  5
574
100
AcDbEntity
  8
RACCORDO
100
AcDbLine
 62
7
  6
CONTINUOUS
 10
-12.3144300294
 20
14.8055381835
 11
-10.0351336272
 21
14.8055381835
  0
LINE
  5
575
100
AcDbEntity
  8
ASSI
100
AcDbLine
 62
7
  6
CONTINUOUS
 10
15.3116047904
 20
15.238784
 11
14.7640961717
 21
15.238784
  0
LINE
  5
576
100
AcDbEntity
  8
ASSI
100
AcDbLine
 62
7
  6
CONTINUOUS
 10
6.5294671717
 20
15.655045
 11
6.9794891717
 21
15.655045
  0
LINE
  5
577
100
AcDbEntity
  8
ASSI
100
AcDbLine
 62
7
  6
CONTINUOUS
 10
7.9743441717
 20
15.655045
 11
8.4243661717
 21
15.655045
  0
LINE
  5
578
100
AcDbEntity
  8
ASSI
100
AcDbLine
 62
7
  6
CONTINUOUS
 10
8.7243751717
 20
15.655045
 11
9.1743921717
 21
15.655045
  0
LINE
  5
579
100
AcDbEntity
  8
ASSI
100
AcDbLine
 62
7
  6
CONTINUOUS
 10
9.6243921717
 20
15.655045
 11
10.3046971717
 21
15.655045
  0
LINE
  5
57A
100
AcDbEntity
  8
ASSI
100
AcDbLine
 62
7
  6
CONTINUOUS
 10
11.1450601717
 20
15.655045
 11
11.8253651717
 21
15.655045
  0
LINE
  5
57B
100
AcDbEntity
  8
ASSI
100
AcDbLine
 62
7
  6
CONTINUOUS
 10
12.8477991717
 20
15.655051
 11
13.2978381717
 21
15.655051
  0
LINE
  5
57C
100
AcDbEntity
  8
ASSI
100
AcDbLine
 62
7
  6
CONTINUOUS
 10
14.3202831717
 20
15.655051
 11
15.3740750203
 21
15.655051
  0
LINE
  5
57D
100
AcDbEntity
  8
RACCORDO
100
AcDbLine
 62
7
  6
CONTINUOUS
 10
-6.563326994
 20
20.0942654032
 11
-6.3573267634
 21
19.9912731322
  0
LINE
  5
57E
100
AcDbEntity
  8
0
100
AcDbLine
 62
7
  6
CONTINUOUS
 10
14.3689679333
 20
7.9680851102
 11
14.4939681717
 21
7.9042553306
  0
LINE
  5
57F
100
AcDbEntity
  8
0
100
AcDbLine
 62
7
  6
CONTINUOUS
 10
13.0252180525
 20
7.7446808815
 11
12.9314680525
 21
7.8085106611
  0
LINE
  5
580
100
AcDbEntity
  8
0
100
AcDbLine
 62
7
  6
CONTINUOUS
 10
14.4002181717
 20
7.7446808815
 11
14.3064681717
 21
7.8085106611
  0
LINE
  5
581
100
AcDbEntity
  8
0
100
AcDbLine
 62
253
  6
CONTINUOUS
 10
-3.9247818283
 20
24.2500042308
 11
-3.9204099943
 21
24.2456323968
  0
LINE
  5
582
100
AcDbEntity
  8
0
100
AcDbLine
 62
253
  6
CONTINUOUS
 10
-3.6747860591
 20
24.5
 11
-3.6704142251
 21
24.495628166
  0
LINE
  5
583
100
AcDbEntity
  8
0
100
AcDbLine
 62
7
  6
CONTINUOUS
 10
12.3377181717
 20
6.787234053
 11
12.4002182909
 21
6.723404251
  0
LINE
  5
584
100
AcDbEntity
  8
0
100
AcDbLine
 62
7
  6
CONTINUOUS
 10
11.6814681717
 20
7.8723404408
 11
11.7752181717
 21
7.7765957713
  0
LINE
  5
585
100
AcDbEntity
  8
0
100
AcDbLine
 62
7
  6
CONTINUOUS
 10
13.0877181717
 20
7.9042553306
 11
13.2127180525
 21
7.7765957713
  0
LINE
  5
586
100
AcDbEntity
  8
0
100
AcDbLine
 62
7
  6
CONTINUOUS
 10
10.6291761717
 20
11.144293
 11
11.5802131717
 21
9.85
  0
LINE
  5
587
100
AcDbEntity
  8
0
100
AcDbLine
 62
7
  6
CONTINUOUS
 10
11.0861301717
 20
9.85
 11
10.3542561717
 21
10.874142
  0
LINE
  5
588
100
AcDbEntity
  8
0
100
AcDbLine
 62
7
  6
CONTINUOUS
 10
12.2439681717
 20
6.6595744714
 11
12.1814680525
 21
6.7553191409
  0
LINE
  5
589
100
AcDbEntity
  8
0
100
AcDbLine
 62
7
  6
CONTINUOUS
 10
11.7127180525
 20
7.5531914532
 11
11.5877181717
 21
7.7446808815
  0
LINE
  5
58A
100
AcDbEntity
  8
0
100
AcDbLine
 62
7
  6
CONTINUOUS
 10
13.1814681717
 20
7.2021276653
 11
13.2439682909
 21
7.1063829958
  0
LINE
  5
58B
100
AcDbEntity
  8
0
100
AcDbLine
 62
7
  6
CONTINUOUS
 10
13.0877181717
 20
7.6489362121
 11
13.0252180525
 21
7.7446808815
  0
LINE
  5
58C
100
AcDbEntity
  8
0
100
AcDbLine
 62
7
  6
CONTINUOUS
 10
11.7752181717
 20
7.7765957713
 11
11.8377182909
 21
7.6489362121
  0
LINE
  5
58D
100
AcDbEntity
  8
0
100
AcDbLine
 62
7
  6
CONTINUOUS
 10
12.3064682909
 20
6.8510638326
 11
12.3377181717
 21
6.787234053
  0
LINE
  5
58E
100
AcDbEntity
  8
0
100
AcDbLine
 62
7
  6
CONTINUOUS
 10
13.1189680525
 20
6.9787233919
 11
13.0564682909
 21
7.1063829958
  0
LINE
  5
58F
100
AcDbEntity
  8
0
100
AcDbLine
 62
7
  6
CONTINUOUS
 10
11.8377182909
 20
7.6489362121
 11
11.8689681717
 21
7.5531914532
  0
LINE
  5
590
100
AcDbEntity
  8
0
100
AcDbLine
 62
7
  6
CONTINUOUS
 10
12.1814680525
 20
6.7553191409
 11
12.1502181717
 21
6.8510638326
  0
LINE
  5
591
100
AcDbEntity
  8
ASSI
100
AcDbLine
 62
7
  6
CONTINUOUS
 10
10.4998731717
 20
13.404944
 11
10.0744091717
 21
14.888734
  0
LINE
  5
592
100
AcDbEntity
  8
ASSI
100
AcDbLine
 62
7
  6
CONTINUOUS
 10
10.3046971717
 20
15.655045
 11
10.7248791717
 21
14.189699
  0
LINE
  5
593
100
AcDbEntity
  8
0
100
AcDbLine
 62
7
  6
CONTINUOUS
 10
13.2439682909
 20
7.1063829958
 11
13.2752181717
 21
6.9787233919
  0
LINE
  5
594
100
AcDbEntity
  8
0
100
AcDbLine
 62
7
  6
CONTINUOUS
 10
13.2127180525
 20
7.7765957713
 11
13.2439682909
 21
7.6489362121
  0
LINE
  5
595
100
AcDbEntity
  8
0
100
AcDbLine
 62
7
  6
CONTINUOUS
 10
15.8614521717
 20
12.049272
 11
15.8614521717
 21
9.85
  0
LINE
  5
596
100
AcDbEntity
  8
DRAFT
100
AcDbLine
 62
7
  6
CONTINUOUS
 10
17.3252181717
 20
20.6
 11
17.3252181717
 21
20.0
  0
LINE
  5
597
100
AcDbEntity
  8
DRAFT
100
AcDbLine
 62
7
  6
CONTINUOUS
 10
17.3252181717
 20
-20.0
 11
17.3252181717
 21
-20.6
  0
LINE
  5
598
100
AcDbEntity
  8
DRAFT
100
AcDbLine
 62
7
  6
CONTINUOUS
 10
4.4252181717
 20
-20.0
 11
3.8252181717
 21
-20.6
  0
LINE
  5
599
100
AcDbEntity
  8
DRAFT
100
AcDbLine
 62
7
  6
CONTINUOUS
 10
-0.0243454849
 20
17.0412015181
 11
0.6890663251
 21
17.0592244131
  0
LINE
  5
59A
100
AcDbEntity
  8
DRAFT
100
AcDbLine
 62
7
  6
CONTINUOUS
 10
1.5613498458
 20
17.0812608779
 11
21.0181512786
 21
17.5727972993
  0
LINE
  5
59B
100
AcDbEntity
  8
DRAFT
100
AcDbLine
 62
7
  6
CONTINUOUS
 10
-12.7655914978
 20
15.6691646347
 11
-9.6787035
 21
15.7459266481
  0
LINE
  5
59C
100
AcDbEntity
  8
DRAFT
100
AcDbLine
 62
7
  6
CONTINUOUS
 10
-0.0243454849
 20
15.9860027246
 11
0.6884739282
 21
16.0037284902
  0
LINE
  5
59D
100
AcDbEntity
  8
DRAFT
100
AcDbLine
 62
7
  6
CONTINUOUS
 10
1.5619585087
 20
16.0254495359
 11
21.0152358252
 21
16.5091965116
  0
LINE
  5
59E
100
AcDbEntity
  8
DRAFT
100
AcDbLine
 62
7
  6
CONTINUOUS
 10
4.4252181717
 20
20.0
 11
3.8252181717
 21
20.6
  0
LINE
  5
59F
100
AcDbEntity
  8
0
100
AcDbLine
 62
7
  6
CONTINUOUS
 10
14.4939681717
 20
7.9042553306
 11
14.6189684101
 21
7.7765957713
  0
LINE
  5
5A0
100
AcDbEntity
  8
RACCORDO
100
AcDbLine
 62
7
  6
CONTINUOUS
 10
7.8254649501
 20
20.5027418756
 11
7.7971986779
 21
20.5451466669
  0
LINE
  5
5A1
100
AcDbEntity
  8
0
100
AcDbLine
 62
7
  6
CONTINUOUS
 10
14.4627179333
 20
7.6489362121
 11
14.4002181717
 21
7.7446808815
  0
LINE
  5
5A2
100
AcDbEntity
  8
ASSI
100
AcDbLine
 62
7
  6
CONTINUOUS
 10
13.5702511717
 20
13.404949
 11
13.4281861717
 21
13.847446
  0
LINE
  5
5A3
100
AcDbEntity
  8
ASSI
100
AcDbLine
 62
7
  6
CONTINUOUS
 10
13.2909141717
 20
14.274962
 11
13.0728161717
 21
14.95426
  0
LINE
  5
5A4
100
AcDbEntity
  8
ASSI
100
AcDbLine
 62
7
  6
CONTINUOUS
 10
13.2978381717
 20
15.655051
 11
14.0202741717
 21
13.404944
  0
LINE
  5
5A5
100
AcDbEntity
  8
0
100
AcDbLine
 62
7
  6
CONTINUOUS
 10
14.6189684101
 20
7.7765957713
 11
14.6502179333
 21
7.6489362121
  0
LINE
  5
5A6
100
AcDbEntity
  8
RACCORDO
100
AcDbLine
 62
253
  6
CONTINUOUS
 10
15.2972443694
 20
19.6323546024
 11
15.3136827105
 21
19.5
  0
LINE
  5
5A7
100
AcDbEntity
  8
RACCORDO
100
AcDbLine
 62
253
  6
CONTINUOUS
 10
15.5971986779
 20
19.929435023
 11
15.6181447559
 21
19.7607860213
  0
LINE
  5
5A8
100
AcDbEntity
  8
ASSI
100
AcDbLine
 62
7
  6
CONTINUOUS
 10
19.3252181717
 20
12.4027364257
 11
19.3252181717
 21
11.5598951074
  0
LINE
  5
5A9
100
AcDbEntity
  8
0
100
AcDbLine
 62
7
  6
CONTINUOUS
 10
19.3752181717
 20
-7.75
 11
19.3752181717
 21
-17.25
  0
LINE
  5
5AA
100
AcDbEntity
  8
ASSI
100
AcDbLine
 62
7
  6
CONTINUOUS
 10
21.0144082555
 20
14.9756671173
 11
20.8288241556
 21
12.4027364257
  0
LINE
  5
5AB
100
AcDbEntity
  8
ASSI
100
AcDbLine
 62
7
  6
CONTINUOUS
 10
20.7680304669
 20
11.5598951074
 11
19.3752181717
 21
-7.75
  0
LINE
  5
5AC
100
AcDbEntity
  8
RACCORDO
100
AcDbLine
 62
253
  6
CONTINUOUS
 10
15.3181904473
 20
18.5217859551
 11
15.1322458961
 21
18.5217859551
  0
LINE
  5
5AD
100
AcDbEntity
  8
RACCORDO
100
AcDbLine
 62
253
  6
CONTINUOUS
 10
7.5181904473
 20
18.5217859551
 11
7.3322458961
 21
18.5217859551
  0
LINE
  5
5AE
100
AcDbEntity
  8
0
100
AcDbLine
 62
7
  6
CONTINUOUS
 10
-20.8247818283
 20
18.6146359382
 11
-19.6247818283
 21
18.6146359382
  0
LINE
  5
5AF
100
AcDbEntity
  8
0
100
AcDbLine
 62
7
  6
CONTINUOUS
 10
-1.5247818283
 20
18.6146359382
 11
-2.7247818283
 21
18.6146359382
  0
LINE
  5
5B0
100
AcDbEntity
  8
RACCORDO
100
AcDbLine
 62
253
  6
CONTINUOUS
 10
7.0322915875
 20
18.8213748155
 11
7.8181447559
 21
18.8213748155
  0
LINE
  5
5B1
100
AcDbEntity
  8
RACCORDO
100
AcDbLine
 62
253
  6
CONTINUOUS
 10
14.8322915875
 20
18.8213748155
 11
15.6181447559
 21
18.8213748155
  0
LINE
  5
5B2
100
AcDbEntity
  8
RACCORDO
100
AcDbLine
 62
253
  6
CONTINUOUS
 10
-15.7862062005
 20
19.0166572575
 11
-15.5862366615
 21
19.0166572575
  0
LINE
  5
5B3
100
AcDbEntity
  8
RACCORDO
100
AcDbLine
 62
253
  6
CONTINUOUS
 10
-7.4862062005
 20
19.0166572575
 11
-7.2862366615
 21
19.0166572575
  0
LINE
  5
5B4
100
AcDbEntity
  8
RACCORDO
100
AcDbLine
 62
253
  6
CONTINUOUS
 10
-6.5633574561
 20
19.0166572575
 11
-6.7633269951
 21
19.0166572575
  0
LINE
  5
5B5
100
AcDbEntity
  8
RACCORDO
100
AcDbLine
 62
253
  6
CONTINUOUS
 10
-14.8633574561
 20
19.0166572575
 11
-15.0633269951
 21
19.0166572575
  0
LINE
  5
5B6
100
AcDbEntity
  8
RACCORDO
100
AcDbLine
 62
7
  6
CONTINUOUS
 10
7.3322458961
 20
19.5
 11
7.5181904473
 21
19.5
  0
LINE
  5
5B7
100
AcDbEntity
  8
RACCORDO
100
AcDbLine
 62
7
  6
CONTINUOUS
 10
15.1322458961
 20
19.5
 11
15.3181904473
 21
19.5
  0
LINE
  5
5B8
100
AcDbEntity
  8
RACCORDO
100
AcDbLine
 62
253
  6
CONTINUOUS
 10
7.353191974
 20
19.6323546024
 11
7.4972443694
 21
19.6323546024
  0
LINE
  5
5B9
100
AcDbEntity
  8
RACCORDO
100
AcDbLine
 62
253
  6
CONTINUOUS
 10
15.153191974
 20
19.6323546024
 11
15.2972443694
 21
19.6323546024
  0
LINE
  5
5BA
100
AcDbEntity
  8
DRAFT
100
AcDbLine
 62
7
  6
CONTINUOUS
 10
-3.8660549605
 20
19.6912731322
 11
-4.6835086961
 21
19.6912731322
  0
LINE
  5
5BB
100
AcDbEntity
  8
DRAFT
100
AcDbLine
 62
7
  6
CONTINUOUS
 10
-17.6660549605
 20
19.6912731322
 11
-18.4835086961
 21
19.6912731322
  0
LINE
  5
5BC
100
AcDbEntity
  8
RACCORDO
100
AcDbLine
 62
253
  6
CONTINUOUS
 10
-18.3805164251
 20
19.7942654032
 11
-17.7690472315
 21
19.7942654032
  0
LINE
  5
5BD
100
AcDbEntity
  8
RACCORDO
100
AcDbLine
 62
253
  6
CONTINUOUS
 10
-4.5805164251
 20
19.7942654032
 11
-3.9690472315
 21
19.7942654032
  0
LINE
  5
5BE
100
AcDbEntity
  8
RACCORDO
100
AcDbLine
 62
253
  6
CONTINUOUS
 10
7.0532376654
 20
19.929435023
 11
7.7971986779
 21
19.929435023
  0
LINE
  5
5BF
100
AcDbEntity
  8
RACCORDO
100
AcDbLine
 62
253
  6
CONTINUOUS
 10
14.8532376654
 20
19.929435023
 11
15.5971986779
 21
19.929435023
  0
LINE
  5
5C0
100
AcDbEntity
  8
DRAFT
100
AcDbLine
 62
7
  6
CONTINUOUS
 10
-4.6835086961
 20
19.9912731322
 11
-6.3573267634
 21
19.9912731322
  0
LINE
  5
5C1
100
AcDbEntity
  8
DRAFT
100
AcDbLine
 62
7
  6
CONTINUOUS
 10
-7.6922368932
 20
19.9912731322
 11
-14.6573267634
 21
19.9912731322
  0
LINE
  5
5C2
100
AcDbEntity
  8
DRAFT
100
AcDbLine
 62
7
  6
CONTINUOUS
 10
-15.9922368932
 20
19.9912731322
 11
-17.6660549605
 21
19.9912731322
  0
LINE
  5
5C3
100
AcDbEntity
  8
RACCORDO
100
AcDbLine
 62
253
  6
CONTINUOUS
 10
-18.1805240405
 20
19.9942577878
 11
-17.9690396161
 21
19.9942577878
  0
LINE
  5
5C4
100
AcDbEntity
  8
RACCORDO
100
AcDbLine
 62
253
  6
CONTINUOUS
 10
-4.3805240405
 20
19.9942577878
 11
-4.1690396161
 21
19.9942577878
  0
LINE
  5
5C5
100
AcDbEntity
  8
0
100
AcDbLine
 62
7
  6
CONTINUOUS
 10
5.3252181717
 20
20.0
 11
4.4252181717
 21
20.0
  0
LINE
  5
5C6
100
AcDbEntity
  8
0
100
AcDbLine
 62
7
  6
CONTINUOUS
 10
17.3252181717
 20
20.0
 11
18.2252181717
 21
20.0
  0
LINE
  5
5C7
100
AcDbEntity
  8
RACCORDO
100
AcDbLine
 62
253
  6
CONTINUOUS
 10
-17.7690472315
 20
20.0942654032
 11
-15.7862366626
 21
20.0942654032
  0
LINE
  5
5C8
100
AcDbEntity
  8
RACCORDO
100
AcDbLine
 62
253
  6
CONTINUOUS
 10
-14.863326994
 20
20.0942654032
 11
-7.4862366626
 21
20.0942654032
  0
LINE
  5
5C9
100
AcDbEntity
  8
RACCORDO
100
AcDbLine
 62
253
  6
CONTINUOUS
 10
-6.563326994
 20
20.0942654032
 11
-4.5805164251
 21
20.0942654032
  0
LINE
  5
5CA
100
AcDbEntity
  8
0
100
AcDbLine
 62
7
  6
CONTINUOUS
 10
14.4691531717
 20
12.049272
 11
15.4833331717
 21
10.495969
  0
LINE
  5
5CB
100
AcDbEntity
  8
0
100
AcDbLine
 62
7
  6
CONTINUOUS
 10
15.4689791717
 20
9.85
 11
14.4688161717
 21
11.38635
  0
LINE
  5
5CC
100
AcDbEntity
  8
ASSI
100
AcDbLine
 62
7
  6
CONTINUOUS
 10
15.6140951717
 20
13.404949
 11
15.1631221717
 21
14.274962
  0
LINE
  5
5CD
100
AcDbEntity
  8
ASSI
100
AcDbLine
 62
7
  6
CONTINUOUS
 10
21.0144082555
 20
14.9756671173
 11
21.0144082555
 21
12.2496349296
  0
LINE
  5
5CE
100
AcDbEntity
  8
ASSI
100
AcDbLine
 62
7
  6
CONTINUOUS
 10
21.0144082555
 20
11.7503650704
 11
21.0144082555
 21
1.6650519167
  0
LINE
  5
5CF
100
AcDbEntity
  8
ASSI
100
AcDbLine
 62
7
  6
CONTINUOUS
 10
21.0144082555
 20
-1.6650519167
 11
21.0144082555
 21
-16.5586659207
  0
LINE
  5
5D0
100
AcDbEntity
  8
0
100
AcDbLine
 62
7
  6
CONTINUOUS
 10
21.1063951278
 20
6.0
 11
21.1063951278
 21
-6.0
  0
LINE
  5
5D1
100
AcDbEntity
  8
RACCORDO
100
AcDbLine
 62
7
  6
CONTINUOUS
 10
21.1252181717
 20
20.3001028025
 11
21.1252181717
 21
6.0
  0
LINE
  5
5D2
100
AcDbEntity
  8
RACCORDO
100
AcDbLine
 62
7
  6
CONTINUOUS
 10
21.1252181717
 20
-6.0
 11
21.1252181717
 21
-20.3001028025
  0
LINE
  5
5D3
100
AcDbEntity
  8
0
100
AcDbLine
 62
7
  6
CONTINUOUS
 10
21.8252181717
 20
6.0
 11
21.8252181717
 21
-6.0
  0
LINE
  5
5D4
100
AcDbEntity
  8
RACCORDO
100
AcDbLine
 62
7
  6
CONTINUOUS
 10
22.3252181717
 20
-21.6001713375
 11
22.3252181717
 21
21.6001713375
  0
LINE
  5
5D5
100
AcDbEntity
  8
RACCORDO
100
AcDbLine
 62
253
  6
CONTINUOUS
 10
-17.9690396161
 20
20.2942577878
 11
-15.5862366615
 21
20.2942577878
  0
LINE
  5
5D6
100
AcDbEntity
  8
RACCORDO
100
AcDbLine
 62
253
  6
CONTINUOUS
 10
-15.0633269951
 20
20.2942577878
 11
-7.2862366615
 21
20.2942577878
  0
LINE
  5
5D7
100
AcDbEntity
  8
RACCORDO
100
AcDbLine
 62
253
  6
CONTINUOUS
 10
-6.7633269951
 20
20.2942577878
 11
-4.3805240405
 21
20.2942577878
  0
LINE
  5
5D8
100
AcDbEntity
  8
DRAFT
100
AcDbLine
 62
7
  6
CONTINUOUS
 10
7.8254649501
 20
20.5027418756
 11
14.8249713861
 21
20.5027418649
  0
LINE
  5
5D9
100
AcDbEntity
  8
RACCORDO
100
AcDbLine
 62
7
  6
CONTINUOUS
 10
15.2972443694
 20
20.5528653412
 11
15.153191974
 21
20.5528653412
  0
LINE
  5
5DA
100
AcDbEntity
  8
RACCORDO
100
AcDbLine
 62
7
  6
CONTINUOUS
 10
7.4972443694
 20
20.5528653412
 11
7.353191974
 21
20.5528653412
  0
LINE
  5
5DB
100
AcDbEntity
  8
RACCORDO
100
AcDbLine
 62
7
  6
CONTINUOUS
 10
-0.0243454849
 20
20.6
 11
0.7252181717
 21
20.6
  0
LINE
  5
5DC
100
AcDbEntity
  8
DRAFT
100
AcDbLine
 62
7
  6
CONTINUOUS
 10
1.5252181717
 20
20.6
 11
18.8252181717
 21
20.6
  0
LINE
  5
5DD
100
AcDbEntity
  8
RACCORDO
100
AcDbLine
 62
7
  6
CONTINUOUS
 10
18.8252181717
 20
20.6
 11
20.8253209742
 21
20.6
  0
LINE
  5
5DE
100
AcDbEntity
  8
0
100
AcDbLine
 62
7
  6
CONTINUOUS
 10
-14.1747818283
 20
20.8
 11
-8.1747818283
 21
20.8
  0
LINE
  5
5DF
100
AcDbEntity
  8
RACCORDO
100
AcDbLine
 62
7
  6
CONTINUOUS
 10
-18.7414274825
 20
20.9
 11
-18.1805240405
 21
20.9
  0
LINE
  5
5E0
100
AcDbEntity
  8
RACCORDO
100
AcDbLine
 62
7
  6
CONTINUOUS
 10
-4.1690396161
 20
20.9
 11
-3.6081361741
 21
20.9
  0
LINE
  5
5E1
100
AcDbEntity
  8
0
100
AcDbLine
 62
7
  6
CONTINUOUS
 10
-2.9422368932
 20
20.9
 11
-3.6081361741
 21
20.9
  0
LINE
  5
5E2
100
AcDbEntity
  8
0
100
AcDbLine
 62
7
  6
CONTINUOUS
 10
-18.7414274825
 20
20.9
 11
-19.4073267634
 21
20.9
  0
LINE
  5
5E3
100
AcDbEntity
  8
0
100
AcDbLine
 62
253
  6
CONTINUOUS
 10
-3.6081361741
 20
21.3359869487
 11
-8.1747818283
 21
21.3359869487
  0
LINE
  5
5E4
100
AcDbEntity
  8
0
100
AcDbLine
 62
253
  6
CONTINUOUS
 10
-14.1747818283
 20
21.3359869487
 11
-18.7414274825
 21
21.3359869487
  0
LINE
  5
5E5
100
AcDbEntity
  8
0
100
AcDbLine
 62
7
  6
CONTINUOUS
 10
-8.1747818283
 20
21.7
 11
-14.1747818283
 21
21.7
  0
LINE
  5
5E6
100
AcDbEntity
  8
RACCORDO
100
AcDbLine
 62
7
  6
CONTINUOUS
 10
-0.0660825241
 20
22.1
 11
21.8253895092
 21
22.1
  0
LINE
  5
5E7
100
AcDbEntity
  8
0
100
AcDbLine
 62
253
  6
CONTINUOUS
 10
-3.8607518538
 20
22.3359700255
 11
-8.1747818283
 21
22.3359700255
  0
LINE
  5
5E8
100
AcDbEntity
  8
0
100
AcDbLine
 62
253
  6
CONTINUOUS
 10
-14.1747818283
 20
22.3359700255
 11
-18.4888118028
 21
22.3359700255
  0
LINE
  5
5E9
100
AcDbEntity
  8
ASSI
100
AcDbLine
 62
7
  6
CONTINUOUS
 10
15.6419492838
 20
14.329082713
 11
16.1209691717
 21
13.404955
  0
LINE
  5
5EA
100
AcDbEntity
  8
RACCORDO
100
AcDbLine
 62
253
  6
CONTINUOUS
 10
15.3181904473
 20
18.5217859551
 11
15.3303752185
 21
18.4852019146
  0
LINE
  5
5EB
100
AcDbEntity
  8
RACCORDO
100
AcDbLine
 62
253
  6
CONTINUOUS
 10
15.6181447559
 20
18.8213748155
 11
15.6294990023
 21
18.7872843756
  0
LINE
  5
5EC
100
AcDbEntity
  8
DRAFT
100
AcDbLine
 62
7
  6
CONTINUOUS
 10
19.3752181717
 20
-17.25
 11
21.0144082555
 21
-16.5586659207
  0
LINE
  5
5ED
100
AcDbEntity
  8
0
100
AcDbLine
 62
7
  6
CONTINUOUS
 10
-21.81649765
 20
22.3941821702
 11
-18.4305996581
 21
22.3941821702
  0
LINE
  5
5EE
100
AcDbEntity
  8
0
100
AcDbLine
 62
7
  6
CONTINUOUS
 10
-8.1747818283
 20
22.3941821702
 11
-7.6747818283
 21
22.3941821702
  0
LINE
  5
5EF
100
AcDbEntity
  8
0
100
AcDbLine
 62
7
  6
CONTINUOUS
 10
-3.9189639985
 20
22.3941821702
 11
-0.5330660066
 21
22.3941821702
  0
LINE
  5
5F0
100
AcDbEntity
  8
0
100
AcDbLine
 62
7
  6
CONTINUOUS
 10
-14.1747818283
 20
22.3941821702
 11
-14.6747818283
 21
22.3941821702
  0
LINE
  5
5F1
100
AcDbEntity
  8
0
100
AcDbLine
 62
7
  6
CONTINUOUS
 10
-12.1747818283
 20
22.3947639644
 11
-10.1747818283
 21
22.3947639644
  0
LINE
  5
5F2
100
AcDbEntity
  8
0
100
AcDbLine
 62
7
  6
CONTINUOUS
 10
-0.5243391388
 20
22.4
 11
-6.7247818283
 21
22.4
  0
LINE
  5
5F3
100
AcDbEntity
  8
0
100
AcDbLine
 62
7
  6
CONTINUOUS
 10
-10.1747818283
 20
22.4
 11
-12.1747818283
 21
22.4
  0
LINE
  5
5F4
100
AcDbEntity
  8
0
100
AcDbLine
 62
7
  6
CONTINUOUS
 10
-15.6247818283
 20
22.4
 11
-21.8252245178
 21
22.4
  0
LINE
  5
5F5
100
AcDbEntity
  8
0
100
AcDbLine
 62
7
  6
CONTINUOUS
 10
-21.0755048262
 20
23.1226497308
 11
-18.6740588304
 21
23.1226497308
  0
LINE
  5
5F6
100
AcDbEntity
  8
0
100
AcDbLine
 62
7
  6
CONTINUOUS
 10
-1.2740588304
 20
23.1226497308
 11
-3.6755048262
 21
23.1226497308
  0
LINE
  5
5F7
100
AcDbEntity
  8
0
100
AcDbLine
 62
253
  6
CONTINUOUS
 10
-21.0704142251
 20
23.6278312164
 11
-18.6791494315
 21
23.6278312164
  0
LINE
  5
5F8
100
AcDbEntity
  8
0
100
AcDbLine
 62
253
  6
CONTINUOUS
 10
-3.6704142251
 20
23.6278312164
 11
-1.2791494315
 21
23.6278312164
  0
LINE
  5
5F9
100
AcDbEntity
  8
0
100
AcDbLine
 62
253
  6
CONTINUOUS
 10
-1.0291536623
 20
23.8443375673
 11
-3.9204099943
 21
23.8443375673
  0
LINE
  5
5FA
100
AcDbEntity
  8
0
100
AcDbLine
 62
253
  6
CONTINUOUS
 10
-18.4291536623
 20
23.8443375673
 11
-21.3204099943
 21
23.8443375673
  0
LINE
  5
5FB
100
AcDbEntity
  8
0
100
AcDbLine
 62
253
  6
CONTINUOUS
 10
-15.5811311814
 20
23.9563493531
 11
-14.6747818283
 21
23.9563493531
  0
LINE
  5
5FC
100
AcDbEntity
  8
0
100
AcDbLine
 62
253
  6
CONTINUOUS
 10
-7.6747818283
 20
23.9563493531
 11
-6.7684324752
 21
23.9563493531
  0
LINE
  5
5FD
100
AcDbEntity
  8
0
100
AcDbLine
 62
7
  6
CONTINUOUS
 10
-14.6747818283
 20
23.9941821702
 11
-12.3747818283
 21
23.9941821702
  0
LINE
  5
5FE
100
AcDbEntity
  8
0
100
AcDbLine
 62
7
  6
CONTINUOUS
 10
-9.9747818283
 20
23.9941821702
 11
-7.6747818283
 21
23.9941821702
  0
LINE
  5
5FF
100
AcDbEntity
  8
0
100
AcDbLine
 62
7
  6
CONTINUOUS
 10
-6.7247818283
 20
24.0
 11
-9.9747818283
 21
24.0
  0
LINE
  5
600
100
AcDbEntity
  8
0
100
AcDbLine
 62
7
  6
CONTINUOUS
 10
-12.3747818283
 20
24.0
 11
-15.6247818283
 21
24.0
  0
LINE
  5
601
100
AcDbEntity
  8
0
100
AcDbLine
 62
253
  6
CONTINUOUS
 10
-1.0291536623
 20
24.2456323968
 11
-3.9204099943
 21
24.2456323968
  0
LINE
  5
602
100
AcDbEntity
  8
0
100
AcDbLine
 62
253
  6
CONTINUOUS
 10
-18.4291536623
 20
24.2456323968
 11
-21.3204099943
 21
24.2456323968
  0
LINE
  5
603
100
AcDbEntity
  8
0
100
AcDbLine
 62
253
  6
CONTINUOUS
 10
-1.2791494315
 20
24.495628166
 11
-3.6704142251
 21
24.495628166
  0
LINE
  5
604
100
AcDbEntity
  8
0
100
AcDbLine
 62
253
  6
CONTINUOUS
 10
-18.6791494315
 20
24.495628166
 11
-21.0704142251
 21
24.495628166
  0
LINE
  5
605
100
AcDbEntity
  8
0
100
AcDbLine
 62
7
  6
CONTINUOUS
 10
-21.0747860591
 20
24.5
 11
-18.6747775975
 21
24.5
  0
LINE
  5
606
100
AcDbEntity
  8
0
100
AcDbLine
 62
7
  6
CONTINUOUS
 10
-3.6747860591
 20
24.5
 11
-1.2747775975
 21
24.5
  0
LINE
  5
607
100
AcDbEntity
  8
RACCORDO
100
AcDbLine
 62
7
  6
CONTINUOUS
 10
15.6254649586
 20
20.5027418629
 11
15.5971986779
 21
20.5451466669
  0
ARC
  5
608
100
AcDbEntity
  8
RACCORDO
100
AcDbCircle
 62
253
  6
CONTINUOUS
 10
-49.0042985694
 20
-0.5602767096
 40
37.250878078
100
AcDbArc
 50
359.204928069
 51
359.5387782519
  0
ARC
  5
609
100
AcDbEntity
  8
RACCORDO
100
AcDbCircle
 62
7
  6
CONTINUOUS
 10
-15.3247164701
 20
-15.6278037722
 40
0.6675153415
100
AcDbArc
 50
94.3137095404
 51
180.0043450909
  0
ARC
  5
60A
100
AcDbEntity
  8
RACCORDO
100
AcDbCircle
 62
7
  6
CONTINUOUS
 10
-15.3248471884
 20
-15.6278037771
 40
0.6675153371
100
AcDbArc
 50
359.9956553256
 51
85.6933599278
  0
ARC
  5
60B
100
AcDbEntity
  8
0
100
AcDbCircle
 62
7
  6
CONTINUOUS
 10
-15.1747818283
 20
-23.15
 40
0.5
100
AcDbArc
 50
144.3637748935
 51
215.6362251065
  0
ARC
  5
60C
100
AcDbEntity
  8
0
100
AcDbCircle
 62
7
  6
CONTINUOUS
 10
-21.82523467
 20
-21.9000167264
 40
0.4999835017
100
AcDbArc
 50
180.0000225334
 51
270.0547276689
  0
ARC
  5
60D
100
AcDbEntity
  8
0
100
AcDbCircle
 62
253
  6
CONTINUOUS
 10
-21.0704033763
 20
-24.245621548
 40
0.2500066182
100
AcDbArc
 50
180.0024862874
 51
269.9975137126
  0
ARC
  5
60E
100
AcDbEntity
  8
0
100
AcDbCircle
 62
253
  6
CONTINUOUS
 10
-18.6791602798
 20
-24.2456215485
 40
0.2500066177
100
AcDbArc
 50
270.0024861811
 51
359.9975138189
  0
ARC
  5
60F
100
AcDbEntity
  8
0
100
AcDbCircle
 62
7
  6
CONTINUOUS
 10
-21.074787177
 20
-24.2500053487
 40
0.2499946513
100
AcDbArc
 50
179.9997437926
 51
270.0002562074
  0
ARC
  5
610
100
AcDbEntity
  8
0
100
AcDbCircle
 62
7
  6
CONTINUOUS
 10
-18.6747764796
 20
-24.2500053487
 40
0.2499946513
100
AcDbArc
 50
269.9997437926
 51
0.0002562074
  0
ARC
  5
611
100
AcDbEntity
  8
RACCORDO
100
AcDbCircle
 62
253
  6
CONTINUOUS
 10
-43.2044897552
 20
0.6232555838
 40
31.4507589598
100
AcDbArc
 50
0.4188061126
 51
0.826659239
  0
ARC
  5
612
100
AcDbEntity
  8
RACCORDO
100
AcDbCircle
 62
7
  6
CONTINUOUS
 10
-15.3248472719
 20
15.6278038512
 40
0.6675153413
100
AcDbArc
 50
274.3144349139
 51
0.0043383138
  0
ARC
  5
613
100
AcDbEntity
  8
RACCORDO
100
AcDbCircle
 62
7
  6
CONTINUOUS
 10
-15.3247163877
 20
15.6278038519
 40
0.6675153368
100
AcDbArc
 50
179.9956617509
 51
265.693987601
  0
ARC
  5
614
100
AcDbEntity
  8
0
100
AcDbCircle
 62
7
  6
CONTINUOUS
 10
-15.1747818283
 20
23.15
 40
0.5
100
AcDbArc
 50
144.3637748935
 51
215.6362251065
  0
ARC
  5
615
100
AcDbEntity
  8
0
100
AcDbCircle
 62
7
  6
CONTINUOUS
 10
-21.82523467
 20
21.9000167264
 40
0.4999835017
100
AcDbArc
 50
89.9452723186
 51
179.9999774666
  0
ARC
  5
616
100
AcDbEntity
  8
0
100
AcDbCircle
 62
253
  6
CONTINUOUS
 10
-21.0704033763
 20
24.245621548
 40
0.2500066182
100
AcDbArc
 50
90.0024862874
 51
179.9975137126
  0
ARC
  5
617
100
AcDbEntity
  8
0
100
AcDbCircle
 62
253
  6
CONTINUOUS
 10
-18.6791602798
 20
24.2456215485
 40
0.2500066177
100
AcDbArc
 50
0.0024861811
 51
89.9975138189
  0
ARC
  5
618
100
AcDbEntity
  8
0
100
AcDbCircle
 62
7
  6
CONTINUOUS
 10
-21.074787177
 20
24.2500053487
 40
0.2499946513
100
AcDbArc
 50
89.9997437926
 51
180.0002562074
  0
ARC
  5
619
100
AcDbEntity
  8
0
100
AcDbCircle
 62
7
  6
CONTINUOUS
 10
-18.6747764796
 20
24.2500053487
 40
0.2499946513
100
AcDbArc
 50
359.9997437926
 51
90.0002562074
  0
ARC
  5
61A
100
AcDbEntity
  8
RACCORDO
100
AcDbCircle
 62
253
  6
CONTINUOUS
 10
-11.1747818283
 20
-13.8
 40
2.6547249021
100
AcDbArc
 50
180.0
 51
360.0
  0
ARC
  5
61B
100
AcDbEntity
  8
RACCORDO
100
AcDbCircle
 62
7
  6
CONTINUOUS
 10
-11.1747818283
 20
-13.8
 40
2.4547249085
100
AcDbArc
 50
180.0
 51
360.0
  0
ARC
  5
61C
100
AcDbEntity
  8
RACCORDO
100
AcDbCircle
 62
7
  6
CONTINUOUS
 10
-11.1747818283
 20
-13.75
 40
1.75
100
AcDbArc
 50
221.9489482236
 51
221.9999998324
  0
ARC
  5
61D
100
AcDbEntity
  8
RACCORDO
100
AcDbCircle
 62
7
  6
CONTINUOUS
 10
-11.1747818283
 20
-13.75
 40
1.75
100
AcDbArc
 50
317.99999741
 51
318.0509581375
  0
ARC
  5
61E
100
AcDbEntity
  8
RACCORDO
100
AcDbCircle
 62
253
  6
CONTINUOUS
 10
-11.1748330082
 20
-13.7751252223
 40
1.5598426238
100
AcDbArc
 50
318.2773476295
 51
359.64721068
  0
ARC
  5
61F
100
AcDbEntity
  8
RACCORDO
100
AcDbCircle
 62
253
  6
CONTINUOUS
 10
-11.1747320168
 20
-13.7751257599
 40
1.5598412522
100
AcDbArc
 50
180.352769885
 51
221.7226715773
  0
ARC
  5
620
100
AcDbEntity
  8
RACCORDO
100
AcDbCircle
 62
253
  6
CONTINUOUS
 10
-11.1747811811
 20
-13.7500069654
 40
1.5533632025
100
AcDbArc
 50
222.8056354761
 51
317.1943645239
  0
ARC
  5
621
100
AcDbEntity
  8
RACCORDO
100
AcDbCircle
 62
7
  6
CONTINUOUS
 10
-7.0247164701
 20
-15.6278037722
 40
0.6675153415
100
AcDbArc
 50
94.3137621934
 51
180.0043450929
  0
ARC
  5
622
100
AcDbEntity
  8
RACCORDO
100
AcDbCircle
 62
7
  6
CONTINUOUS
 10
-7.0248471884
 20
-15.627803777
 40
0.667515337
100
AcDbArc
 50
359.9956553209
 51
85.6933836169
  0
ARC
  5
623
100
AcDbEntity
  8
0
100
AcDbCircle
 62
7
  6
CONTINUOUS
 10
-7.1747818283
 20
-23.15
 40
0.5
100
AcDbArc
 50
324.3637748935
 51
35.6362251065
  0
ARC
  5
624
100
AcDbEntity
  8
0
100
AcDbCircle
 62
7
  6
CONTINUOUS
 10
-0.5243289866
 20
-21.9000167264
 40
0.4999835017
100
AcDbArc
 50
269.9452723186
 51
359.9999774666
  0
ARC
  5
625
100
AcDbEntity
  8
0
100
AcDbCircle
 62
253
  6
CONTINUOUS
 10
-1.2791602803
 20
-24.245621548
 40
0.2500066182
100
AcDbArc
 50
270.0024862874
 51
359.9975137126
  0
ARC
  5
626
100
AcDbEntity
  8
0
100
AcDbCircle
 62
253
  6
CONTINUOUS
 10
-3.6704033768
 20
-24.2456215485
 40
0.2500066177
100
AcDbArc
 50
180.0024861811
 51
269.9975138189
  0
ARC
  5
627
100
AcDbEntity
  8
0
100
AcDbCircle
 62
7
  6
CONTINUOUS
 10
-1.2747764796
 20
-24.2500053487
 40
0.2499946513
100
AcDbArc
 50
269.9997437926
 51
0.0002562074
  0
ARC
  5
628
100
AcDbEntity
  8
0
100
AcDbCircle
 62
7
  6
CONTINUOUS
 10
-3.674787177
 20
-24.2500053487
 40
0.2499946513
100
AcDbArc
 50
179.9997437926
 51
270.0002562074
  0
ARC
  5
629
100
AcDbEntity
  8
0
100
AcDbCircle
 62
7
  6
CONTINUOUS
 10
-12.3747833476
 20
-23.7999988303
 40
0.2000011697
100
AcDbArc
 50
270.000435239
 51
357.5006380757
  0
ARC
  5
62A
100
AcDbEntity
  8
0
100
AcDbCircle
 62
7
  6
CONTINUOUS
 10
-9.974780309
 20
-23.7999988303
 40
0.2000011697
100
AcDbArc
 50
182.4993619243
 51
269.999564761
  0
ARC
  5
62B
100
AcDbEntity
  8
RACCORDO
100
AcDbCircle
 62
253
  6
CONTINUOUS
 10
-9.0497818283
 20
-7.8750004859
 40
0.5297249085
100
AcDbArc
 50
0.0000525582
 51
179.9999474418
  0
ARC
  5
62C
100
AcDbEntity
  8
RACCORDO
100
AcDbCircle
 62
253
  6
CONTINUOUS
 10
-13.2997818283
 20
-7.8750004859
 40
0.5297249085
100
AcDbArc
 50
0.0000525582
 51
179.9999474418
  0
ARC
  5
62D
100
AcDbEntity
  8
RACCORDO
100
AcDbCircle
 62
7
  6
CONTINUOUS
 10
-11.4503294633
 20
-0.7999942886
 40
0.2999942886
100
AcDbArc
 50
90.0010908669
 51
180.0010908224
  0
ARC
  5
62E
100
AcDbEntity
  8
RACCORDO
100
AcDbCircle
 62
7
  6
CONTINUOUS
 10
-11.454165203
 20
-0.799994281
 40
0.299994281
100
AcDbArc
 50
90.0010894169
 51
180.0010922723
  0
ARC
  5
62F
100
AcDbEntity
  8
ASSI
100
AcDbCircle
 62
7
  6
CONTINUOUS
 10
5.2093058793
 20
-15.9482924714
 40
1.2056702709
100
AcDbArc
 50
228.4709219315
 51
242.2371334878
  0
ARC
  5
630
100
AcDbEntity
  8
ASSI
100
AcDbCircle
 62
7
  6
CONTINUOUS
 10
5.2109321914
 20
-15.9502662058
 40
1.2055759183
100
AcDbArc
 50
200.7513317148
 51
214.4920560778
  0
ARC
  5
631
100
AcDbEntity
  8
RACCORDO
100
AcDbCircle
 62
7
  6
CONTINUOUS
 10
5.209171671
 20
-15.9484870089
 40
1.2054356882
100
AcDbArc
 50
228.4695669312
 51
242.2384710584
  0
ARC
  5
632
100
AcDbEntity
  8
RACCORDO
100
AcDbCircle
 62
7
  6
CONTINUOUS
 10
5.2108039121
 20
-15.95033494
 40
1.2054316076
100
AcDbArc
 50
200.7504369736
 51
214.4928162897
  0
ARC
  5
633
100
AcDbEntity
  8
ASSI
100
AcDbCircle
 62
7
  6
CONTINUOUS
 10
5.2067059126
 20
-15.9479098102
 40
1.2050974462
100
AcDbArc
 50
256.2241635319
 51
269.9700903768
  0
ARC
  5
634
100
AcDbEntity
  8
RACCORDO
100
AcDbCircle
 62
7
  6
CONTINUOUS
 10
5.2066874018
 20
-15.9480516808
 40
1.2049555661
100
AcDbArc
 50
256.2234119673
 51
269.9709670472
  0
ARC
  5
635
100
AcDbEntity
  8
RACCORDO
100
AcDbCircle
 62
7
  6
CONTINUOUS
 10
5.2087390165
 20
-15.9505310784
 40
1.2036190745
100
AcDbArc
 50
214.5407857427
 51
228.4204708162
  0
ARC
  5
636
100
AcDbEntity
  8
ASSI
100
AcDbCircle
 62
7
  6
CONTINUOUS
 10
5.2085481856
 20
-15.9507015065
 40
1.2033649105
100
AcDbArc
 50
214.5392532276
 51
228.4218821711
  0
ARC
  5
637
100
AcDbEntity
  8
RACCORDO
100
AcDbCircle
 62
7
  6
CONTINUOUS
 10
5.2072894128
 20
-15.9498439768
 40
1.2033586175
100
AcDbArc
 50
242.2876809108
 51
256.1752510232
  0
ARC
  5
638
100
AcDbEntity
  8
ASSI
100
AcDbCircle
 62
7
  6
CONTINUOUS
 10
5.2071951563
 20
-15.9500897044
 40
1.2030971685
100
AcDbArc
 50
242.2862128236
 51
256.1768135431
  0
ARC
  5
639
100
AcDbEntity
  8
ASSI
100
AcDbCircle
 62
7
  6
CONTINUOUS
 10
8.3252181717
 20
-12.5030070922
 40
10.95
100
AcDbArc
 50
339.2784041022
 51
20.7215957051
  0
ARC
  5
63A
100
AcDbEntity
  8
RACCORDO
100
AcDbCircle
 62
7
  6
CONTINUOUS
 10
8.3252181717
 20
-12.5030070922
 40
10.95
100
AcDbArc
 50
339.2784041022
 51
20.7215957051
  0
ARC
  5
63B
100
AcDbEntity
  8
ASSI
100
AcDbCircle
 62
7
  6
CONTINUOUS
 10
17.4411310289
 20
-15.9482921633
 40
1.2056702032
100
AcDbArc
 50
297.7544959104
 51
311.5207573693
  0
ARC
  5
63C
100
AcDbEntity
  8
ASSI
100
AcDbCircle
 62
7
  6
CONTINUOUS
 10
17.4395040717
 20
-15.9502660872
 40
1.205576031
100
AcDbArc
 50
325.505151218
 51
339.248662613
  0
ARC
  5
63D
100
AcDbEntity
  8
RACCORDO
100
AcDbCircle
 62
7
  6
CONTINUOUS
 10
17.4412654563
 20
-15.9484865831
 40
1.2054355929
100
AcDbArc
 50
297.7531448972
 51
311.5220992534
  0
ARC
  5
63E
100
AcDbEntity
  8
RACCORDO
100
AcDbCircle
 62
7
  6
CONTINUOUS
 10
17.4396308403
 20
-15.95033395
 40
1.2054334416
100
AcDbArc
 50
325.5043972043
 51
339.2495440617
  0
ARC
  5
63F
100
AcDbEntity
  8
ASSI
100
AcDbCircle
 62
7
  6
CONTINUOUS
 10
17.4437305542
 20
-15.9479100849
 40
1.2050971714
100
AcDbArc
 50
270.0299037617
 51
283.7729187565
  0
ARC
  5
640
100
AcDbEntity
  8
RACCORDO
100
AcDbCircle
 62
7
  6
CONTINUOUS
 10
17.4437493773
 20
-15.9480539135
 40
1.2049533332
100
AcDbArc
 50
270.0290122892
 51
283.7736777268
  0
ARC
  5
641
100
AcDbEntity
  8
RACCORDO
100
AcDbCircle
 62
7
  6
CONTINUOUS
 10
17.4416915312
 20
-15.9505256483
 40
1.2036269388
100
AcDbArc
 50
311.5712590474
 51
325.4563630304
  0
ARC
  5
642
100
AcDbEntity
  8
ASSI
100
AcDbCircle
 62
7
  6
CONTINUOUS
 10
17.4418867605
 20
-15.9506997133
 40
1.2033671059
100
AcDbArc
 50
311.5698041705
 51
325.4579188241
  0
ARC
  5
643
100
AcDbEntity
  8
RACCORDO
100
AcDbCircle
 62
7
  6
CONTINUOUS
 10
17.4431499097
 20
-15.9498511824
 40
1.2033508966
100
AcDbArc
 50
283.8217738674
 51
297.703996957
  0
ARC
  5
644
100
AcDbEntity
  8
ASSI
100
AcDbCircle
 62
7
  6
CONTINUOUS
 10
17.4432424176
 20
-15.950091757
 40
1.2030948522
100
AcDbArc
 50
283.8202329349
 51
297.7054228735
  0
ARC
  5
645
100
AcDbEntity
  8
ASSI
100
AcDbCircle
 62
7
  6
CONTINUOUS
 10
14.3252181717
 20
-12.5030070922
 40
10.95
100
AcDbArc
 50
159.2784041022
 51
200.721595705
  0
ARC
  5
646
100
AcDbEntity
  8
RACCORDO
100
AcDbCircle
 62
7
  6
CONTINUOUS
 10
14.3252181717
 20
-12.5030070922
 40
10.95
100
AcDbArc
 50
159.2784041022
 51
200.721595705
  0
ARC
  5
647
100
AcDbEntity
  8
RACCORDO
100
AcDbCircle
 62
253
  6
CONTINUOUS
 10
14.6581438656
 20
-0.6844339031
 40
26.4291340254
100
AcDbArc
 50
180.4683276306
 51
180.8984850892
  0
ARC
  5
648
100
AcDbEntity
  8
ASSI
100
AcDbCircle
 62
7
  6
CONTINUOUS
 10
17.4411304641
 20
-9.057721713
 40
1.2056702709
100
AcDbArc
 50
48.4709219317
 51
62.2371334879
  0
ARC
  5
649
100
AcDbEntity
  8
ASSI
100
AcDbCircle
 62
7
  6
CONTINUOUS
 10
5.2093053145
 20
-9.0577220211
 40
1.2056702032
100
AcDbArc
 50
117.7544959104
 51
131.5207573693
  0
ARC
  5
64A
100
AcDbEntity
  8
ASSI
100
AcDbCircle
 62
7
  6
CONTINUOUS
 10
5.2109322717
 20
-9.0557480972
 40
1.205576031
100
AcDbArc
 50
145.5051512179
 51
159.248662613
  0
ARC
  5
64B
100
AcDbEntity
  8
ASSI
100
AcDbCircle
 62
7
  6
CONTINUOUS
 10
17.439504152
 20
-9.0557479785
 40
1.2055759182
100
AcDbArc
 50
20.7513317148
 51
34.492056078
  0
ARC
  5
64C
100
AcDbEntity
  8
RACCORDO
100
AcDbCircle
 62
7
  6
CONTINUOUS
 10
17.4412646724
 20
-9.0575271755
 40
1.2054356882
100
AcDbArc
 50
48.4695669315
 51
62.2384710586
  0
ARC
  5
64D
100
AcDbEntity
  8
RACCORDO
100
AcDbCircle
 62
7
  6
CONTINUOUS
 10
5.2091708871
 20
-9.0575276013
 40
1.2054355929
100
AcDbArc
 50
117.7531448972
 51
131.5220992534
  0
ARC
  5
64E
100
AcDbEntity
  8
RACCORDO
100
AcDbCircle
 62
7
  6
CONTINUOUS
 10
5.210805503
 20
-9.0556802344
 40
1.2054334416
100
AcDbArc
 50
145.5043972043
 51
159.2495440617
  0
ARC
  5
64F
100
AcDbEntity
  8
RACCORDO
100
AcDbCircle
 62
7
  6
CONTINUOUS
 10
17.4396324313
 20
-9.0556792443
 40
1.2054316075
100
AcDbArc
 50
20.7504369736
 51
34.4928162899
  0
ARC
  5
650
100
AcDbEntity
  8
ASSI
100
AcDbCircle
 62
7
  6
CONTINUOUS
 10
17.4437304307
 20
-9.0581043741
 40
1.2050974462
100
AcDbArc
 50
76.2241635319
 51
89.9700903768
  0
ARC
  5
651
100
AcDbEntity
  8
ASSI
100
AcDbCircle
 62
7
  6
CONTINUOUS
 10
5.2067057892
 20
-9.0581040995
 40
1.2050971714
100
AcDbArc
 50
90.0299037617
 51
103.7729187565
  0
ARC
  5
652
100
AcDbEntity
  8
RACCORDO
100
AcDbCircle
 62
7
  6
CONTINUOUS
 10
17.4437489416
 20
-9.0579625036
 40
1.2049555661
100
AcDbArc
 50
76.2234119674
 51
89.9709670472
  0
ARC
  5
653
100
AcDbEntity
  8
RACCORDO
100
AcDbCircle
 62
7
  6
CONTINUOUS
 10
5.2066869661
 20
-9.0579602709
 40
1.2049533332
100
AcDbArc
 50
90.0290122892
 51
103.7736777268
  0
ARC
  5
654
100
AcDbEntity
  8
RACCORDO
100
AcDbCircle
 62
7
  6
CONTINUOUS
 10
5.2087448122
 20
-9.0554885361
 40
1.2036269388
100
AcDbArc
 50
131.5712590474
 51
145.4563630304
  0
ARC
  5
655
100
AcDbEntity
  8
RACCORDO
100
AcDbCircle
 62
7
  6
CONTINUOUS
 10
17.4416973269
 20
-9.055483106
 40
1.2036190745
100
AcDbArc
 50
34.5407857429
 51
48.4204708165
  0
ARC
  5
656
100
AcDbEntity
  8
ASSI
100
AcDbCircle
 62
7
  6
CONTINUOUS
 10
5.2085495829
 20
-9.0553144711
 40
1.2033671059
100
AcDbArc
 50
131.5698041705
 51
145.4579188241
  0
ARC
  5
657
100
AcDbEntity
  8
ASSI
100
AcDbCircle
 62
7
  6
CONTINUOUS
 10
17.4418881578
 20
-9.0553126779
 40
1.2033649105
100
AcDbArc
 50
34.5392532278
 51
48.4218821714
  0
ARC
  5
658
100
AcDbEntity
  8
RACCORDO
100
AcDbCircle
 62
7
  6
CONTINUOUS
 10
17.4431469305
 20
-9.0561702076
 40
1.2033586175
100
AcDbArc
 50
62.287680911
 51
76.1752510233
  0
ARC
  5
659
100
AcDbEntity
  8
RACCORDO
100
AcDbCircle
 62
7
  6
CONTINUOUS
 10
5.2072864336
 20
-9.056163002
 40
1.2033508966
100
AcDbArc
 50
103.8217738674
 51
117.703996957
  0
ARC
  5
65A
100
AcDbEntity
  8
ASSI
100
AcDbCircle
 62
7
  6
CONTINUOUS
 10
17.4432411871
 20
-9.05592448
 40
1.2030971685
100
AcDbArc
 50
62.2862128238
 51
76.1768135432
  0
ARC
  5
65B
100
AcDbEntity
  8
ASSI
100
AcDbCircle
 62
7
  6
CONTINUOUS
 10
5.2071939258
 20
-9.0559224274
 40
1.2030948522
100
AcDbArc
 50
103.8202329349
 51
117.7054228735
  0
ARC
  5
65C
100
AcDbEntity
  8
ASSI
100
AcDbCircle
 62
7
  6
CONTINUOUS
 10
11.3252181717
 20
-8.17
 40
0.3872983346
100
AcDbArc
 50
278.0036217996
 51
261.9963782004
  0
ARC
  5
65D
100
AcDbEntity
  8
RACCORDO
100
AcDbCircle
 62
253
  6
CONTINUOUS
 10
20.0267800954
 20
0.6203577545
 40
31.7981210059
100
AcDbArc
 50
179.1374116495
 51
179.4952743709
  0
ARC
  5
65E
100
AcDbEntity
  8
RACCORDO
100
AcDbCircle
 62
253
  6
CONTINUOUS
 10
-11.1747818283
 20
13.8
 40
2.6547249021
100
AcDbArc
 50
0.0
 51
180.0
  0
ARC
  5
65F
100
AcDbEntity
  8
RACCORDO
100
AcDbCircle
 62
7
  6
CONTINUOUS
 10
-11.1747818283
 20
13.8
 40
2.4547249085
100
AcDbArc
 50
0.0
 51
180.0
  0
ARC
  5
660
100
AcDbEntity
  8
RACCORDO
100
AcDbCircle
 62
7
  6
CONTINUOUS
 10
-11.1747818283
 20
13.75
 40
1.75
100
AcDbArc
 50
138.0000000001
 51
179.9652612179
  0
ARC
  5
661
100
AcDbEntity
  8
RACCORDO
100
AcDbCircle
 62
7
  6
CONTINUOUS
 10
-11.1747818283
 20
13.75
 40
1.75
100
AcDbArc
 50
41.9490467086
 51
42.0
  0
ARC
  5
662
100
AcDbEntity
  8
RACCORDO
100
AcDbCircle
 62
253
  6
CONTINUOUS
 10
-11.1747306484
 20
13.7751252223
 40
1.5598426238
100
AcDbArc
 50
138.2773476295
 51
179.6472106799
  0
ARC
  5
663
100
AcDbEntity
  8
RACCORDO
100
AcDbCircle
 62
253
  6
CONTINUOUS
 10
-11.1748316398
 20
13.7751257599
 40
1.5598412522
100
AcDbArc
 50
0.352769885
 51
41.7226715773
  0
ARC
  5
664
100
AcDbEntity
  8
RACCORDO
100
AcDbCircle
 62
253
  6
CONTINUOUS
 10
-11.1747813627
 20
13.7500070492
 40
1.5533631187
100
AcDbArc
 50
42.8056341261
 51
137.1943658739
  0
ARC
  5
665
100
AcDbEntity
  8
ASSI
100
AcDbCircle
 62
7
  6
CONTINUOUS
 10
15.3740701717
 20
14.965008
 40
0.6900438394
100
AcDbArc
 50
292.8429211273
 51
89.9995974084
  0
ARC
  5
666
100
AcDbEntity
  8
RACCORDO
100
AcDbCircle
 62
7
  6
CONTINUOUS
 10
-7.0248472719
 20
15.6278038512
 40
0.6675153413
100
AcDbArc
 50
274.3143753262
 51
0.0043383098
  0
ARC
  5
667
100
AcDbEntity
  8
RACCORDO
100
AcDbCircle
 62
7
  6
CONTINUOUS
 10
-7.0247163877
 20
15.627803852
 40
0.6675153369
100
AcDbArc
 50
179.9956617541
 51
265.6939579948
  0
ARC
  5
668
100
AcDbEntity
  8
ASSI
100
AcDbCircle
 62
7
  6
CONTINUOUS
 10
-4.7533848283
 20
3.941583
 40
0.6287061425
100
AcDbArc
 50
202.8428890097
 51
359.9999115901
  0
ARC
  5
669
100
AcDbEntity
  8
RACCORDO
100
AcDbCircle
 62
253
  6
CONTINUOUS
 10
-9.0497818283
 20
7.8750004859
 40
0.5297249085
100
AcDbArc
 50
180.0000525582
 51
359.9999474418
  0
ARC
  5
66A
100
AcDbEntity
  8
RACCORDO
100
AcDbCircle
 62
253
  6
CONTINUOUS
 10
-13.2997818283
 20
7.8750004859
 40
0.5297249085
100
AcDbArc
 50
180.0000525582
 51
359.9999474418
  0
ARC
  5
66B
100
AcDbEntity
  8
0
100
AcDbCircle
 62
7
  6
CONTINUOUS
 10
-7.1747818283
 20
23.15
 40
0.5
100
AcDbArc
 50
324.3637748935
 51
35.6362251065
  0
ARC
  5
66C
100
AcDbEntity
  8
0
100
AcDbCircle
 62
7
  6
CONTINUOUS
 10
-0.5243289866
 20
21.9000167264
 40
0.4999835017
100
AcDbArc
 50
0.0000225334
 51
90.0547276689
  0
ARC
  5
66D
100
AcDbEntity
  8
RACCORDO
100
AcDbCircle
 62
7
  6
CONTINUOUS
 10
-11.4513490729
 20
0.8006278786
 40
0.3028379692
100
AcDbArc
 50
187.5483654257
 51
202.4062066607
  0
ARC
  5
66E
100
AcDbEntity
  8
RACCORDO
100
AcDbCircle
 62
253
  6
CONTINUOUS
 10
7.5180613363
 20
18.8218951022
 40
0.300097064
100
AcDbArc
 50
270.0246494087
 51
359.9006602849
  0
ARC
  5
66F
100
AcDbEntity
  8
RACCORDO
100
AcDbCircle
 62
253
  6
CONTINUOUS
 10
15.3180613364
 20
18.8218951021
 40
0.3000970639
100
AcDbArc
 50
270.0246493986
 51
359.900660295
  0
ARC
  5
670
100
AcDbEntity
  8
RACCORDO
100
AcDbCircle
 62
253
  6
CONTINUOUS
 10
7.3323745006
 20
18.821894992
 40
0.3000967794
100
AcDbArc
 50
180.099318844
 51
269.9754472763
  0
ARC
  5
671
100
AcDbEntity
  8
RACCORDO
100
AcDbCircle
 62
253
  6
CONTINUOUS
 10
15.1323745006
 20
18.8218949921
 40
0.3000967795
100
AcDbArc
 50
180.0993188532
 51
269.9754472671
  0
ARC
  5
672
100
AcDbEntity
  8
RACCORDO
100
AcDbCircle
 62
7
  6
CONTINUOUS
 10
-11.4541392458
 20
0.8000315885
 40
0.3000315902
100
AcDbArc
 50
202.5040305965
 51
269.9939537707
  0
ARC
  5
673
100
AcDbEntity
  8
RACCORDO
100
AcDbCircle
 62
7
  6
CONTINUOUS
 10
-11.4503294635
 20
0.7999942884
 40
0.2999942884
100
AcDbArc
 50
179.9989091413
 51
269.9989091707
  0
ARC
  5
674
100
AcDbEntity
  8
RACCORDO
100
AcDbCircle
 62
7
  6
CONTINUOUS
 10
-11.4557379676
 20
0.8001286956
 40
0.2984215442
100
AcDbArc
 50
180.0247090604
 51
187.5640479339
  0
ARC
  5
675
100
AcDbEntity
  8
ASSI
100
AcDbCircle
 62
7
  6
CONTINUOUS
 10
15.3116091717
 20
14.965008
 40
0.273775
100
AcDbArc
 50
270.0018338493
 51
90.0009169146
  0
ARC
  5
676
100
AcDbEntity
  8
0
100
AcDbCircle
 62
253
  6
CONTINUOUS
 10
-3.6704033763
 20
24.245621548
 40
0.2500066182
100
AcDbArc
 50
90.0024862874
 51
179.9975137126
  0
ARC
  5
677
100
AcDbEntity
  8
0
100
AcDbCircle
 62
253
  6
CONTINUOUS
 10
-1.2791602803
 20
24.245621548
 40
0.2500066182
100
AcDbArc
 50
0.0024862874
 51
89.9975137126
  0
ARC
  5
678
100
AcDbEntity
  8
0
100
AcDbCircle
 62
7
  6
CONTINUOUS
 10
-3.674787177
 20
24.2500053487
 40
0.2499946513
100
AcDbArc
 50
89.9997437926
 51
180.0002562074
  0
ARC
  5
679
100
AcDbEntity
  8
0
100
AcDbCircle
 62
7
  6
CONTINUOUS
 10
-1.2747764796
 20
24.2500053487
 40
0.2499946513
100
AcDbArc
 50
359.9997437926
 51
90.0002562074
  0
ARC
  5
67A
100
AcDbEntity
  8
ASSI
100
AcDbCircle
 62
7
  6
CONTINUOUS
 10
-4.7533848283
 20
3.998493
 40
0.249439
100
AcDbArc
 50
180.0026254771
 51
0.002625456
  0
ARC
  5
67B
100
AcDbEntity
  8
0
100
AcDbCircle
 62
7
  6
CONTINUOUS
 10
-12.3747833476
 20
23.7999988303
 40
0.2000011697
100
AcDbArc
 50
2.4993619243
 51
89.999564761
  0
ARC
  5
67C
100
AcDbEntity
  8
0
100
AcDbCircle
 62
7
  6
CONTINUOUS
 10
-9.974780309
 20
23.7999988303
 40
0.2000011697
100
AcDbArc
 50
90.000435239
 51
177.5006380757
  0
SPLINE
  5
67D
100
AcDbEntity
  8
0
100
AcDbSpline
 62
7
  6
CONTINUOUS
 70
0
 71
3
 72
8
 73
4
 74
2
 42
0.0000001
 43
0.0000001
 44
0.0000000001
 12
0.0
 22
0.722154378
 32
0.0
 13
-0.3942889025
 23
0.4303921441
 33
0.0
 40
0.0
 40
0.0
 40
0.0
 40
0.0
 40
1.0
 40
1.0
 40
1.0
 40
1.0
 10
13.3036455336
 20
10.9496440138
 30
0.0
 10
13.3036455336
 20
11.1903621398
 30
0.0
 10
13.2288894777
 20
11.4184739329
 30
0.0
 10
13.0974598436
 20
11.561937981
 30
0.0
 11
13.3036455336
 21
10.9496440138
 31
0.0
 11
13.0974598436
 21
11.561937981
 31
0.0
  0
SPLINE
  5
67E
100
AcDbEntity
  8
0
100
AcDbSpline
 62
7
  6
CONTINUOUS
 70
0
 71
3
 72
8
 73
4
 74
2
 42
0.0000001
 43
0.0000001
 44
0.0000000001
 12
0.3942844394
 22
0.4303729499
 32
0.0
 13
0.0
 23
0.7221194537
 33
0.0
 40
0.0
 40
0.0
 40
0.0
 40
0.0
 40
1.0
 40
1.0
 40
1.0
 40
1.0
 10
13.0974598436
 20
10.3373616881
 30
0.0
 10
13.22888799
 20
10.480819338
 30
0.0
 10
13.3036455336
 20
10.7089375293
 30
0.0
 10
13.3036455336
 20
10.9496440138
 30
0.0
 11
13.0974598436
 21
10.3373616881
 31
0.0
 11
13.3036455336
 21
10.9496440138
 31
0.0
  0
SPLINE
  5
67F
100
AcDbEntity
  8
0
100
AcDbSpline
 62
7
  6
CONTINUOUS
 70
0
 71
3
 72
8
 73
4
 74
2
 42
0.0000001
 43
0.0000001
 44
0.0000000001
 12
0.522561632
 22
0.0
 32
0.0
 13
0.3450647679
 23
0.3766482449
 33
0.0
 40
0.0
 40
0.0
 40
0.0
 40
0.0
 40
1.0
 40
1.0
 40
1.0
 40
1.0
 10
12.6423138774
 20
10.1494297995
 30
0.0
 10
12.8165010881
 20
10.1494297995
 30
0.0
 10
12.9824382542
 20
10.2118122731
 30
0.0
 10
13.0974598436
 20
10.3373616881
 30
0.0
 11
12.6423138774
 21
10.1494297995
 31
0.0
 11
13.0974598436
 21
10.3373616881
 31
0.0
  0
SPLINE
  5
680
100
AcDbEntity
  8
0
100
AcDbSpline
 62
7
  6
CONTINUOUS
 70
0
 71
3
 72
8
 73
4
 74
2
 42
0.0000001
 43
0.0000001
 44
0.0000000001
 12
0.3446918411
 22
-0.37628675
 32
0.0
 13
0.5231437048
 23
0.0
 33
0.0
 40
0.0
 40
0.0
 40
0.0
 40
0.0
 40
1.0
 40
1.0
 40
1.0
 40
1.0
 10
12.1849948397
 20
10.3373616881
 30
0.0
 10
12.2998921201
 20
10.2119327714
 30
0.0
 10
12.4679326425
 20
10.1494297995
 30
0.0
 10
12.6423138774
 20
10.1494297995
 30
0.0
 11
12.1849948397
 21
10.3373616881
 31
0.0
 11
12.6423138774
 21
10.1494297995
 31
0.0
  0
SPLINE
  5
681
100
AcDbEntity
  8
0
100
AcDbSpline
 62
7
  6
CONTINUOUS
 70
0
 71
3
 72
8
 73
4
 74
2
 42
0.0000001
 43
0.0000001
 44
0.0000000001
 12
0.0
 22
-0.7221194537
 32
0.0
 13
0.3942637913
 23
-0.4304025305
 33
0.0
 40
0.0
 40
0.0
 40
0.0
 40
0.0
 40
1.0
 40
1.0
 40
1.0
 40
1.0
 10
11.9788052692
 20
10.9496440138
 30
0.0
 10
11.9788052692
 20
10.7089375293
 30
0.0
 10
12.0535735759
 20
10.4808291983
 30
0.0
 10
12.1849948397
 20
10.3373616881
 30
0.0
 11
11.9788052692
 21
10.9496440138
 31
0.0
 11
12.1849948397
 21
10.3373616881
 31
0.0
  0
SPLINE
  5
682
100
AcDbEntity
  8
0
100
AcDbSpline
 62
7
  6
CONTINUOUS
 70
0
 71
3
 72
8
 73
4
 74
2
 42
0.0000001
 43
0.0000001
 44
0.0000000001
 12
-0.3942960808
 22
-0.4303962328
 32
0.0
 13
0.0
 23
-0.722154378
 33
0.0
 40
0.0
 40
0.0
 40
0.0
 40
0.0
 40
1.0
 40
1.0
 40
1.0
 40
1.0
 10
12.1849948397
 20
11.561937981
 30
0.0
 10
12.0535628127
 20
11.4184725701
 30
0.0
 10
11.9788052692
 20
11.1903621398
 30
0.0
 10
11.9788052692
 20
10.9496440138
 30
0.0
 11
12.1849948397
 21
11.561937981
 31
0.0
 11
11.9788052692
 21
10.9496440138
 31
0.0
  0
SPLINE
  5
683
100
AcDbEntity
  8
0
100
AcDbSpline
 62
7
  6
CONTINUOUS
 70
0
 71
3
 72
8
 73
4
 74
2
 42
0.0000001
 43
0.0000001
 44
0.0000000001
 12
-0.5231437048
 22
0.0
 32
0.0
 13
-0.3446918411
 23
-0.3762751085
 33
0.0
 40
0.0
 40
0.0
 40
0.0
 40
0.0
 40
1.0
 40
1.0
 40
1.0
 40
1.0
 10
12.6423138774
 20
11.7498698695
 30
0.0
 10
12.4679326425
 20
11.7498698695
 30
0.0
 10
12.2998921201
 20
11.6873630172
 30
0.0
 10
12.1849948397
 20
11.561937981
 30
0.0
 11
12.6423138774
 21
11.7498698695
 31
0.0
 11
12.1849948397
 21
11.561937981
 31
0.0
  0
SPLINE
  5
684
100
AcDbEntity
  8
0
100
AcDbSpline
 62
7
  6
CONTINUOUS
 70
0
 71
3
 72
8
 73
4
 74
2
 42
0.0000001
 43
0.0000001
 44
0.0000000001
 12
-0.3450527262
 22
0.3766476351
 32
0.0
 13
-0.522561632
 23
0.0
 33
0.0
 40
0.0
 40
0.0
 40
0.0
 40
0.0
 40
1.0
 40
1.0
 40
1.0
 40
1.0
 10
13.0974598436
 20
11.561937981
 30
0.0
 10
12.9824422682
 20
11.6874871927
 30
0.0
 10
12.8165010881
 20
11.7498698695
 30
0.0
 10
12.6423138774
 20
11.7498698695
 30
0.0
 11
13.0974598436
 21
11.561937981
 31
0.0
 11
12.6423138774
 21
11.7498698695
 31
0.0
  0
SPLINE
  5
685
100
AcDbEntity
  8
0
100
AcDbSpline
 62
7
  6
CONTINUOUS
 70
0
 71
3
 72
8
 73
4
 74
2
 42
0.0000001
 43
0.0000001
 44
0.0000000001
 12
-0.5862753153
 22
-0.6886851949
 32
0.0
 13
-0.9097913497
 23
0.0
 33
0.0
 40
0.0
 40
0.0
 40
0.0
 40
0.0
 40
1.0
 40
1.0
 40
1.0
 40
1.0
 10
13.4240414612
 20
10.1397867943
 30
0.0
 10
13.2286163561
 20
9.9102250627
 30
0.0
 10
12.9445532126
 20
9.80123
 30
0.0
 10
12.6412894294
 20
9.80123
 30
0.0
 11
13.4240414612
 21
10.1397867943
 31
0.0
 11
12.6412894294
 21
9.80123
 31
0.0
  0
SPLINE
  5
686
100
AcDbEntity
  8
0
100
AcDbSpline
 62
7
  6
CONTINUOUS
 70
0
 71
3
 72
8
 73
4
 74
2
 42
0.0000001
 43
0.0000001
 44
0.0000000001
 12
0.0
 22
-0.8936330102
 32
0.0
 13
-0.5284319884
 23
-0.620737864
 33
0.0
 40
0.0
 40
0.0
 40
0.0
 40
0.0
 40
1.0
 40
1.0
 40
1.0
 40
1.0
 10
13.6988690503
 20
10.9498574405
 30
0.0
 10
13.6988690503
 20
10.6519797704
 30
0.0
 10
13.6001854573
 20
10.3466994156
 30
0.0
 10
13.4240414612
 20
10.1397867943
 30
0.0
 11
13.6988690503
 21
10.9498574405
 31
0.0
 11
13.4240414612
 21
10.1397867943
 31
0.0
  0
SPLINE
  5
687
100
AcDbEntity
  8
0
100
AcDbSpline
 62
7
  6
CONTINUOUS
 70
0
 71
3
 72
8
 73
4
 74
2
 42
0.0000001
 43
0.0000001
 44
0.0000000001
 12
0.5284638497
 22
-0.6207223806
 32
0.0
 13
0.0
 23
-0.8936679345
 33
0.0
 40
0.0
 40
0.0
 40
0.0
 40
0.0
 40
1.0
 40
1.0
 40
1.0
 40
1.0
 10
13.4240414612
 20
11.7599319671
 30
0.0
 10
13.6001960777
 20
11.5530245069
 30
0.0
 10
13.6988690503
 20
11.247746752
 30
0.0
 10
13.6988690503
 20
10.9498574405
 30
0.0
 11
13.4240414612
 21
11.7599319671
 31
0.0
 11
13.6988690503
 21
10.9498574405
 31
0.0
  0
SPLINE
  5
688
100
AcDbEntity
  8
0
100
AcDbSpline
 62
7
  6
CONTINUOUS
 70
0
 71
3
 72
8
 73
4
 74
2
 42
0.0000001
 43
0.0000001
 44
0.0000000001
 12
0.9098146326
 22
0.0
 32
0.0
 13
0.5863140729
 23
-0.6886720205
 33
0.0
 40
0.0
 40
0.0
 40
0.0
 40
0.0
 40
1.0
 40
1.0
 40
1.0
 40
1.0
 10
12.6412894294
 20
12.098484881
 30
0.0
 10
12.9445609736
 20
12.098484881
 30
0.0
 10
13.2286034369
 20
11.9894893073
 30
0.0
 10
13.4240414612
 20
11.7599319671
 30
0.0
 11
12.6412894294
 21
12.098484881
 31
0.0
 11
13.4240414612
 21
11.7599319671
 31
0.0
  0
SPLINE
  5
689
100
AcDbEntity
  8
0
100
AcDbSpline
 62
7
  6
CONTINUOUS
 70
0
 71
3
 72
8
 73
4
 74
2
 42
0.0000001
 43
0.0000001
 44
0.0000000001
 12
0.5863218811
 22
0.6887084778
 32
0.0
 13
0.9097913497
 23
0.0
 33
0.0
 40
0.0
 40
0.0
 40
0.0
 40
0.0
 40
1.0
 40
1.0
 40
1.0
 40
1.0
 10
11.8584209831
 20
11.7599319671
 30
0.0
 10
12.0538616101
 20
11.9895014597
 30
0.0
 10
12.3380256462
 20
12.098484881
 30
0.0
 10
12.6412894294
 20
12.098484881
 30
0.0
 11
11.8584209831
 21
11.7599319671
 31
0.0
 11
12.6412894294
 21
12.098484881
 31
0.0
  0
SPLINE
  5
68A
100
AcDbEntity
  8
0
100
AcDbSpline
 62
7
  6
CONTINUOUS
 70
0
 71
3
 72
8
 73
4
 74
2
 42
0.0000001
 43
0.0000001
 44
0.0000000001
 12
0.0
 22
0.8936330102
 32
0.0
 13
0.5284522083
 23
0.6206990977
 33
0.0
 40
0.0
 40
0.0
 40
0.0
 40
0.0
 40
1.0
 40
1.0
 40
1.0
 40
1.0
 10
11.5835817525
 20
10.9498574405
 30
0.0
 10
11.5835817525
 20
11.2477351105
 30
0.0
 10
11.682270247
 20
11.5530322679
 30
0.0
 10
11.8584209831
 20
11.7599319671
 30
0.0
 11
11.5835817525
 21
10.9498574405
 31
0.0
 11
11.8584209831
 21
11.7599319671
 31
0.0
  0
SPLINE
  5
68B
100
AcDbEntity
  8
0
100
AcDbSpline
 62
7
  6
CONTINUOUS
 70
0
 71
3
 72
8
 73
4
 74
2
 42
0.0000001
 43
0.0000001
 44
0.0000000001
 12
-0.5284522083
 22
0.6206758148
 32
0.0
 13
0.0
 23
0.8936097273
 33
0.0
 40
0.0
 40
0.0
 40
0.0
 40
0.0
 40
1.0
 40
1.0
 40
1.0
 40
1.0
 10
11.8584209831
 20
10.1397867943
 30
0.0
 10
11.682270247
 20
10.3466787326
 30
0.0
 10
11.5835817525
 20
10.6519875314
 30
0.0
 10
11.5835817525
 20
10.9498574405
 30
0.0
 11
11.8584209831
 21
10.1397867943
 31
0.0
 11
11.5835817525
 21
10.9498574405
 31
0.0
  0
SPLINE
  5
68C
100
AcDbEntity
  8
0
100
AcDbSpline
 62
7
  6
CONTINUOUS
 70
0
 71
3
 72
8
 73
4
 74
2
 42
0.0000001
 43
0.0000001
 44
0.0000000001
 12
-0.9097680668
 22
0.0
 32
0.0
 13
-0.5863435793
 23
0.6886701827
 33
0.0
 40
0.0
 40
0.0
 40
0.0
 40
0.0
 40
1.0
 40
1.0
 40
1.0
 40
1.0
 10
12.6412894294
 20
9.80123
 30
0.0
 10
12.3380334071
 20
9.80123
 30
0.0
 10
12.0538688428
 20
9.9102300667
 30
0.0
 10
11.8584209831
 20
10.1397867943
 30
0.0
 11
12.6412894294
 21
9.80123
 31
0.0
 11
11.8584209831
 21
10.1397867943
 31
0.0
  0
LINE
  5
68D
100
AcDbEntity
  8
DRAFT
100
AcDbLine
 62
7
  6
CONTINUOUS
 10
-0.0243454849
 20
-7.025586895
 11
0.6846680248
 21
-7.0257144716
  0
LINE
  5
68E
100
AcDbEntity
  8
DRAFT
100
AcDbLine
 62
7
  6
CONTINUOUS
 10
0.6846680248
 20
-6.1742855284
 11
-0.0243454849
 21
-6.174413105
  0
LINE
  5
68F
100
AcDbEntity
  8
DRAFT
100
AcDbLine
 62
7
  6
CONTINUOUS
 10
0.6908022858
 20
20.5027418769
 11
0.6908022858
 21
17.0592244097
  0
LINE
  5
690
100
AcDbEntity
  8
RACCORDO
100
AcDbLine
 62
7
  6
CONTINUOUS
 10
15.1200612869
 20
18.4852024012
 11
15.3303752185
 21
18.4852019146
  0
LINE
  5
691
100
AcDbEntity
  8
RACCORDO
100
AcDbLine
 62
7
  6
CONTINUOUS
 10
15.6294990023
 20
18.7872843756
 11
15.6254649586
 21
20.5027418629
  0
SPLINE
  5
692
100
AcDbEntity
  8
RACCORDO
100
AcDbSpline
 62
7
  6
CONTINUOUS
 70
0
 71
3
 72
9
 73
5
 74
3
 42
0.0000001
 43
0.0000001
 44
0.0000000001
 12
-0.0097279773
 22
-2.628916027
 32
0.0
 13
-0.007637998
 23
-2.62892293
 33
0.0
 40
0.0
 40
0.0
 40
0.0
 40
0.0
 40
0.2496396594
 40
1.0
 40
1.0
 40
1.0
 40
1.0
 10
21.0268323221
 20
20.2017169529
 30
0.0
 10
21.0260228258
 20
19.9829563857
 30
0.0
 10
21.0228676398
 20
19.1066507218
 30
0.0
 10
21.0200616955
 20
18.2303438009
 30
0.0
 10
21.0181512786
 20
17.5727972993
 30
0.0
 11
21.0268323221
 21
20.2017169529
 31
0.0
 11
21.0244692714
 21
19.5454350123
 31
0.0
 11
21.0181512786
 21
17.5727972993
 31
0.0
  0
LINE
  5
693
100
AcDbEntity
  8
DRAFT
100
AcDbLine
 62
7
  6
CONTINUOUS
 10
1.5596222943
 20
17.0812608801
 11
1.5596222943
 21
20.5027418772
  0
LINE
  5
694
100
AcDbEntity
  8
RACCORDO
100
AcDbLine
 62
7
  6
CONTINUOUS
 10
7.0249713937
 20
20.5027418762
 11
7.0209404086
 21
18.7872935857
  0
LINE
  5
695
100
AcDbEntity
  8
RACCORDO
100
AcDbLine
 62
7
  6
CONTINUOUS
 10
7.3200649947
 20
18.4852135335
 11
7.5303713962
 21
18.485213391
  0
LINE
  5
696
100
AcDbEntity
  8
RACCORDO
100
AcDbLine
 62
7
  6
CONTINUOUS
 10
7.8294960692
 20
18.7872931822
 11
7.8254649501
 21
20.5027418756
  0
LINE
  5
697
100
AcDbEntity
  8
RACCORDO
100
AcDbLine
 62
7
  6
CONTINUOUS
 10
14.8249713861
 20
20.5027418649
 11
14.8209377994
 21
18.7872857518
  0
LINE
  5
698
100
AcDbEntity
  8
DRAFT
100
AcDbLine
 62
7
  6
CONTINUOUS
 10
0.6890663251
 20
17.0592244131
 11
0.6884739282
 21
16.0037284902
  0
LINE
  5
699
100
AcDbEntity
  8
DRAFT
100
AcDbLine
 62
7
  6
CONTINUOUS
 10
1.5619585087
 20
16.0254495359
 11
1.5613498458
 21
17.0812608779
  0
LINE
  5
69A
100
AcDbEntity
  8
DRAFT
100
AcDbLine
 62
7
  6
CONTINUOUS
 10
21.0181512786
 20
17.5727972993
 11
21.0152358252
 21
16.5091965116
  0
LINE
  5
69B
100
AcDbEntity
  8
DRAFT
100
AcDbLine
 62
7
  6
CONTINUOUS
 10
-0.0243454849
 20
6.1763240033
 11
0.6867064997
 21
6.1763240033
  0
LINE
  5
69C
100
AcDbEntity
  8
DRAFT
100
AcDbLine
 62
7
  6
CONTINUOUS
 10
0.6867064997
 20
6.1763240033
 11
0.6846680248
 21
-5.1581752537
  0
LINE
  5
69D
100
AcDbEntity
  8
DRAFT
100
AcDbLine
 62
7
  6
CONTINUOUS
 10
0.686858866
 20
7.0235236305
 11
-0.0243454849
 21
7.0235236305
  0
LINE
  5
69E
100
AcDbEntity
  8
DRAFT
100
AcDbLine
 62
7
  6
CONTINUOUS
 10
0.6884739282
 20
16.0037284902
 11
0.686858866
 21
7.0235236305
  0
LINE
  5
69F
100
AcDbEntity
  8
DRAFT
100
AcDbLine
 62
7
  6
CONTINUOUS
 10
1.5626100425
 20
12.4027364257
 11
1.5619585087
 21
16.0254495359
  0
LINE
  5
6A0
100
AcDbEntity
  8
DRAFT
100
AcDbLine
 62
7
  6
CONTINUOUS
 10
1.5659268883
 20
-6.0398677131
 11
1.5659197169
 21
-5.99999268
  0
LINE
  5
6A1
100
AcDbEntity
  8
DRAFT
100
AcDbLine
 62
7
  6
CONTINUOUS
 10
1.5659197169
 20
-5.99999268
 11
1.5637615538
 21
6.0000069319
  0
LINE
  5
6A2
100
AcDbEntity
  8
DRAFT
100
AcDbLine
 62
7
  6
CONTINUOUS
 10
1.5637615538
 20
6.0000069319
 11
1.562761625
 21
11.5598951074
  0
SPLINE
  5
6A3
100
AcDbEntity
  8
ASSI
100
AcDbSpline
 62
7
  6
CONTINUOUS
 70
0
 71
3
 72
9
 73
5
 74
3
 42
0.0000001
 43
0.0000001
 44
0.0000000001
 12
0.2698026622
 22
0.1572795974
 32
0.0
 13
0.2092096977
 23
0.2318655876
 33
0.0
 40
0.0
 40
0.0
 40
0.0
 40
0.0
 40
0.4987377101
 40
1.0
 40
1.0
 40
1.0
 40
1.0
 10
20.7680304669
 20
11.5598951074
 30
0.0
 10
20.8128840542
 20
11.5860421962
 30
0.0
 10
20.9004033442
 20
11.6427148157
 30
0.0
 10
20.9794519447
 20
11.7116232453
 30
0.0
 10
21.0144082555
 20
11.7503650704
 30
0.0
 11
20.7680304669
 21
11.5598951074
 31
0.0
 11
20.8980754014
 21
11.645615268
 31
0.0
 11
21.0144082555
 21
11.7503650704
 31
0.0
  0
SPLINE
  5
6A4
100
AcDbEntity
  8
ASSI
100
AcDbSpline
 62
7
  6
CONTINUOUS
 70
0
 71
3
 72
17
 73
13
 74
11
 42
0.0000001
 43
0.0000001
 44
0.0000000001
 12
-2.9816539112
 22
2.5743802421
 32
0.0
 13
2.9816539112
 23
2.5743802421
 33
0.0
 40
0.0
 40
0.0
 40
0.0
 40
0.0
 40
0.1238837256
 40
0.2484074309
 40
0.3737072049
 40
0.4367906381
 40
0.4999910256
 40
0.5631967655
 40
0.6262890498
 40
0.7515947364
 40
0.8761176256
 40
1.0
 40
1.0
 40
1.0
 40
1.0
 10
21.0144082555
 20
-1.6650519167
 30
0.0
 10
20.8912821238
 20
-1.5587439782
 30
0.0
 10
20.6551427599
 20
-1.3323793467
 30
0.0
 10
20.3517128146
 20
-0.9440744137
 30
0.0
 10
20.1684821285
 20
-0.5710183768
 30
0.0
 10
20.0890167631
 20
-0.2491199293
 30
0.0
 10
20.068314905
 20
-0.000028763
 30
0.0
 10
20.0890103754
 20
0.2490746326
 30
0.0
 10
20.1684726658
 20
0.5710014801
 30
0.0
 10
20.35171245
 20
0.9440746083
 30
0.0
 10
20.6551459509
 20
1.3323826452
 30
0.0
 10
20.8912834667
 20
1.5587451377
 30
0.0
 10
21.0144082555
 20
1.6650519167
 30
0.0
 11
21.0144082555
 21
-1.6650519167
 31
0.0
 11
20.6643183248
 21
-1.3250668595
 31
0.0
 11
20.3663933701
 21
-0.9353740875
 31
0.0
 11
20.1545280543
 21
-0.4895698744
 31
0.0
 11
20.095564504
 21
-0.2481651003
 31
0.0
 11
20.0752186546
 21
-0.0000356999
 31
0.0
 11
20.0955581437
 21
0.2481153772
 31
0.0
 11
20.1545238582
 21
0.4895555143
 31
0.0
 11
20.3663978999
 21
0.9353813679
 31
0.0
 11
20.6643218805
 21
1.325070838
 31
0.0
 11
21.0144082555
 21
1.6650519167
 31
0.0
  0
SPLINE
  5
6A5
100
AcDbEntity
  8
ASSI
100
AcDbSpline
 62
7
  6
CONTINUOUS
 70
0
 71
3
 72
9
 73
5
 74
3
 42
0.0000001
 43
0.0000001
 44
0.0000000001
 12
-0.1614531918
 22
0.1789373992
 32
0.0
 13
-0.2021326983
 23
0.1312558503
 33
0.0
 40
0.0
 40
0.0
 40
0.0
 40
0.0
 40
0.2511922575
 40
1.0
 40
1.0
 40
1.0
 40
1.0
 10
21.0144082555
 20
12.2496349296
 30
0.0
 10
21.0008896582
 20
12.2646174926
 30
0.0
 10
20.9442141484
 20
12.3216926057
 30
0.0
 10
20.8792769988
 20
12.3699746267
 30
0.0
 10
20.8288241556
 20
12.4027364257
 30
0.0
 11
21.0144082555
 21
12.2496349296
 31
0.0
 11
20.9718954705
 21
12.2927363231
 31
0.0
 11
20.8288241556
 21
12.4027364257
 31
0.0
  0
LINE
  5
6A6
100
AcDbEntity
  8
RACCORDO
100
AcDbLine
 62
7
  6
CONTINUOUS
 10
-0.0243454115
 20
-20.5023481062
 11
0.6926688479
 21
-20.5023321929
  0
SPLINE
  5
6A7
100
AcDbEntity
  8
RACCORDO
100
AcDbSpline
 62
253
  6
CONTINUOUS
 70
0
 71
3
 72
11
 73
7
 74
5
 42
0.0000001
 43
0.0000001
 44
0.0000000001
 12
0.0003566883
 22
-0.4672101413
 32
0.0
 13
0.4672101434
 23
-0.0003540022
 33
0.0
 40
0.0
 40
0.0
 40
0.0
 40
0.0
 40
0.2495384966
 40
0.4993839669
 40
0.7495902003
 40
1.0
 40
1.0
 40
1.0
 40
1.0
 10
-11.7515367078
 20
-2.366045926
 30
0.0
 10
-11.7515070386
 20
-2.4049082314
 30
0.0
 10
-11.7358250121
 20
-2.4835216959
 30
0.0
 10
-11.6690110398
 20
-2.582816432
 30
0.0
 10
-11.5693451187
 20
-2.6492927943
 30
0.0
 10
-11.4905461303
 20
-2.6648747867
 30
0.0
 10
-11.4515481309
 20
-2.6649043353
 30
0.0
 11
-11.7515367078
 21
-2.366045926
 31
0.0
 11
-11.7286359943
 21
-2.4803616042
 31
0.0
 11
-11.6635914845
 21
-2.5772903995
 31
0.0
 11
-11.5662961346
 21
-2.6420898846
 31
0.0
 11
-11.4515481309
 21
-2.6649043353
 31
0.0
  0
LINE
  5
6A8
100
AcDbEntity
  8
RACCORDO
100
AcDbLine
 62
7
  6
CONTINUOUS
 10
19.177871192
 20
-20.5022749015
 11
20.7279821707
 21
-20.5026611965
  0
SPLINE
  5
6A9
100
AcDbEntity
  8
RACCORDO
100
AcDbSpline
 62
253
  6
CONTINUOUS
 70
0
 71
3
 72
11
 73
7
 74
5
 42
0.0000001
 43
0.0000001
 44
0.0000000001
 12
0.0003566887
 22
0.4672101405
 32
0.0
 13
0.4672101426
 23
0.0003540065
 33
0.0
 40
0.0
 40
0.0
 40
0.0
 40
0.0
 40
0.2495385311
 40
0.4993840178
 40
0.7495902289
 40
1.0
 40
1.0
 40
1.0
 40
1.0
 10
-11.7515367078
 20
2.366045926
 30
0.0
 10
-11.7515070386
 20
2.4049082367
 30
0.0
 10
-11.7358250065
 20
2.483521709
 30
0.0
 10
-11.6690110256
 20
2.5828164446
 30
0.0
 10
-11.5693451059
 20
2.649292798
 30
0.0
 10
-11.4905461258
 20
2.6648747865
 30
0.0
 10
-11.4515481309
 20
2.6649043354
 30
0.0
 11
-11.7515367078
 21
2.366045926
 31
0.0
 11
-11.7286359869
 21
2.4803616189
 31
0.0
 11
-11.6635914666
 21
2.5772904163
 31
0.0
 11
-11.5662961218
 21
2.6420898899
 31
0.0
 11
-11.4515481309
 21
2.6649043354
 31
0.0
  0
SPLINE
  5
6AA
100
AcDbEntity
  8
RACCORDO
100
AcDbSpline
 62
253
  6
CONTINUOUS
 70
0
 71
3
 72
13
 73
9
 74
7
 42
0.0000001
 43
0.0000001
 44
0.0000000001
 12
-0.0000001667
 22
0.9962319207
 32
0.0
 13
-0.0694612135
 23
0.9938074158
 33
0.0
 40
0.0
 40
0.0
 40
0.0
 40
0.0
 40
0.3637301193
 40
0.6781324542
 40
0.8029931608
 40
0.9002922276
 40
0.9667251088
 40
1.0
 40
1.0
 40
1.0
 40
1.0
 10
-11.4459717411
 20
1.6687096373
 30
0.0
 10
-11.4459717613
 20
1.7894961557
 30
0.0
 10
-11.4462291717
 20
2.0146876399
 30
0.0
 10
-11.4471067098
 20
2.2813454231
 30
0.0
 10
-11.4483196603
 20
2.4595172455
 30
0.0
 10
-11.4491081981
 20
2.5553573976
 30
0.0
 10
-11.4502816778
 20
2.6207533246
 30
0.0
 10
-11.4507776928
 20
2.6538813908
 30
0.0
 10
-11.4515481309
 20
2.6649043354
 30
0.0
 11
-11.4459717411
 21
1.6687096373
 31
0.0
 11
-11.4463870461
 21
2.0310689546
 31
0.0
 11
-11.4475766329
 21
2.3442843376
 31
0.0
 11
-11.448415072
 21
2.4686717335
 31
0.0
 11
-11.4493789605
 21
2.5655993771
 31
0.0
 11
-11.4504357253
 21
2.6317734965
 31
0.0
 11
-11.4515481309
 21
2.6649043354
 31
0.0
  0
SPLINE
  5
6AB
100
AcDbEntity
  8
RACCORDO
100
AcDbSpline
 62
253
  6
CONTINUOUS
 70
0
 71
3
 72
13
 73
9
 74
7
 42
0.0000001
 43
0.0000001
 44
0.0000000001
 12
0.0694615215
 22
0.9938073942
 32
0.0
 13
0.0000001489
 23
0.9962319207
 33
0.0
 40
0.0
 40
0.0
 40
0.0
 40
0.0
 40
0.0332748949
 40
0.09970777
 40
0.1970068399
 40
0.3218675458
 40
0.6362698808
 40
1.0
 40
1.0
 40
1.0
 40
1.0
 10
-11.4515481309
 20
-2.6649043354
 30
0.0
 10
-11.4507776893
 20
-2.6538813898
 30
0.0
 10
-11.4502816802
 20
-2.620753324
 30
0.0
 10
-11.4491081979
 20
-2.555357397
 30
0.0
 10
-11.4483196604
 20
-2.459517246
 30
0.0
 10
-11.4471067099
 20
-2.2813454229
 30
0.0
 10
-11.4462291736
 20
-2.0146876398
 30
0.0
 10
-11.4459717591
 20
-1.7894961557
 30
0.0
 10
-11.4459717411
 20
-1.6687096373
 30
0.0
 11
-11.4515481309
 21
-2.6649043354
 31
0.0
 11
-11.4504357249
 21
-2.6317734928
 31
0.0
 11
-11.4493789611
 21
-2.5655993795
 31
0.0
 11
-11.4484150721
 21
-2.4686717327
 31
0.0
 11
-11.447576633
 21
-2.3442843376
 31
0.0
 11
-11.4463870467
 21
-2.0310689546
 31
0.0
 11
-11.4459717411
 21
-1.6687096373
 31
0.0
  0
LINE
  5
6AC
100
AcDbEntity
  8
RACCORDO
100
AcDbLine
 62
7
  6
CONTINUOUS
 10
-0.0243454849
 20
20.5027418765
 11
0.6928053815
 21
20.5027418769
  0
SPLINE
  5
6AD
100
AcDbEntity
  8
RACCORDO
100
AcDbSpline
 62
253
  6
CONTINUOUS
 70
0
 71
3
 72
22
 73
18
 74
16
 42
0.0000001
 43
0.0000001
 44
0.0000000001
 12
0.7999528206
 22
-0.0127935677
 32
0.0
 13
-0.0000005055
 23
0.8000551172
 33
0.0
 40
0.0
 40
0.0
 40
0.0
 40
0.0
 40
0.0012330052
 40
0.0048532214
 40
0.0108620235
 40
0.0192475673
 40
0.0299965167
 40
0.0430903856
 40
0.0761553447
 40
0.1181019152
 40
0.1685671985
 40
0.2270462337
 40
0.2929630316
 40
0.4445679399
 40
0.6174549072
 40
0.8050626974
 40
1.0
 40
1.0
 40
1.0
 40
1.0
 10
-11.450335175
 20
0.5
 30
0.0
 10
-11.450006393
 20
0.4999947418
 30
0.0
 10
-11.4503057996
 20
0.502036603
 30
0.0
 10
-11.4496931745
 20
0.5042074146
 30
0.0
 10
-11.4497389065
 20
0.509415932
 30
0.0
 10
-11.4494283247
 20
0.5159385804
 30
0.0
 10
-11.4492656234
 20
0.5246003335
 30
0.0
 10
-11.4489522026
 20
0.5397411584
 30
0.0
 10
-11.4486220422
 20
0.563256436
 30
0.0
 10
-11.4482394766
 20
0.5967079781
 30
0.0
 10
-11.4478821157
 20
0.6369499812
 30
0.0
 10
-11.4475429602
 20
0.6835805356
 30
0.0
 10
-11.447105126
 20
0.7571849573
 30
0.0
 10
-11.4466545521
 20
0.8612999438
 30
0.0
 10
-11.4462655179
 20
0.99786884
 30
0.0
 10
-11.4460256069
 20
1.1459940695
 30
0.0
 10
-11.4459717082
 20
1.2480131379
 30
0.0
 10
-11.4459717411
 20
1.3
 30
0.0
 11
-11.450335175
 21
0.5
 31
0.0
 11
-11.4501215336
 21
0.50096306
 31
0.0
 11
-11.449908114
 21
0.5038515588
 31
0.0
 11
-11.4496955212
 21
0.5086542288
 31
0.0
 11
-11.4494843604
 21
0.5153598021
 31
0.0
 11
-11.4492752365
 21
0.523957011
 31
0.0
 11
-11.4490687317
 21
0.5344307922
 31
0.0
 11
-11.4486655043
 21
0.5608815086
 31
0.0
 11
-11.448278407
 21
0.5944388445
 31
0.0
 11
-11.4479111182
 21
0.6348121819
 31
0.0
 11
-11.4475670967
 21
0.6815973685
 31
0.0
 11
-11.4472496916
 21
0.7343334848
 31
0.0
 11
-11.4467070513
 21
0.8556245536
 31
0.0
 11
-11.4463038759
 21
0.9939430689
 31
0.0
 11
-11.4460555505
 21
1.1440394361
 31
0.0
 11
-11.4459717411
 21
1.3
 31
0.0
  0
SPLINE
  5
6AE
100
AcDbEntity
  8
RACCORDO
100
AcDbSpline
 62
253
  6
CONTINUOUS
 70
0
 71
3
 72
22
 73
18
 74
16
 42
0.0000001
 43
0.0000001
 44
0.0000000001
 12
0.0000004943
 22
0.8000551162
 32
0.0
 13
-0.7999551412
 23
-0.0126475714
 33
0.0
 40
0.0
 40
0.0
 40
0.0
 40
0.0
 40
0.1949373028
 40
0.382545093
 40
0.5554320613
 40
0.7070369691
 40
0.7729537645
 40
0.8314327992
 40
0.8818980878
 40
0.9238446675
 40
0.9569096251
 40
0.9700034843
 40
0.9807524173
 40
0.9891379445
 40
0.9951467383
 40
0.9987669627
 40
1.0
 40
1.0
 40
1.0
 40
1.0
 10
-11.4459717411
 20
-1.3
 30
0.0
 10
-11.445971709
 20
-1.2480131378
 30
0.0
 10
-11.4460256021
 20
-1.1459940695
 30
0.0
 10
-11.4462655171
 20
-0.9978688399
 30
0.0
 10
-11.4466545551
 20
-0.8612999438
 30
0.0
 10
-11.4471051252
 20
-0.7571849579
 30
0.0
 10
-11.4475429601
 20
-0.6835805373
 30
0.0
 10
-11.4478821166
 20
-0.6369499821
 30
0.0
 10
-11.4482394772
 20
-0.5967079759
 30
0.0
 10
-11.4486220409
 20
-0.5632564286
 30
0.0
 10
-11.4489521993
 20
-0.5397411557
 30
0.0
 10
-11.4492656213
 20
-0.5246003319
 30
0.0
 10
-11.4494283226
 20
-0.5159386037
 30
0.0
 10
-11.4497389098
 20
-0.5094159315
 30
0.0
 10
-11.4496931709
 20
-0.5042074974
 30
0.0
 10
-11.4503058144
 20
-0.5020365422
 30
0.0
 10
-11.4500063835
 20
-0.4999948017
 30
0.0
 10
-11.450335175
 20
-0.5
 30
0.0
 11
-11.4459717411
 21
-1.3
 31
0.0
 11
-11.4460555477
 21
-1.144039436
 31
0.0
 11
-11.4463038752
 21
-0.9939430691
 31
0.0
 11
-11.4467070529
 21
-0.8556245532
 31
0.0
 11
-11.4472496912
 21
-0.7343334849
 31
0.0
 11
-11.4475670967
 21
-0.6815973707
 31
0.0
 11
-11.4479111188
 21
-0.6348121846
 31
0.0
 11
-11.4482784072
 21
-0.5944388429
 31
0.0
 11
-11.4486655027
 21
-0.5608814997
 31
0.0
 11
-11.4490687291
 21
-0.5344307846
 31
0.0
 11
-11.4492752344
 21
-0.5239570111
 31
0.0
 11
-11.4494843596
 21
-0.5153598154
 31
0.0
 11
-11.4496955221
 21
-0.5086542554
 31
0.0
 11
-11.449908116
 21
-0.5038515922
 31
0.0
 11
-11.4501215356
 21
-0.5009630868
 31
0.0
 11
-11.450335175
 21
-0.5
 31
0.0
  0
SPLINE
  5
6AF
100
AcDbEntity
  8
RACCORDO
100
AcDbSpline
 62
7
  6
CONTINUOUS
 70
0
 71
3
 72
11
 73
7
 74
5
 42
0.0000001
 43
0.0000001
 44
0.0000000001
 12
-0.4693587929
 22
0.0000003095
 32
0.0
 13
0.001019846
 23
0.4693576849
 33
0.0
 40
0.0
 40
0.0
 40
0.0
 40
0.0
 40
0.2508297559
 40
0.5011721334
 40
0.7508314433
 40
1.0
 40
1.0
 40
1.0
 40
1.0
 10
7.3200649947
 20
18.4852135335
 30
0.0
 10
7.2808219442
 20
18.4852135594
 30
0.0
 10
7.2015264553
 20
18.5011324383
 30
0.0
 10
7.1019432463
 20
18.5689523623
 30
0.0
 10
7.0360199502
 20
18.669396734
 30
0.0
 10
7.0208557041
 20
18.7483105267
 30
0.0
 10
7.0209404086
 20
18.7872935857
 30
0.0
 11
7.3200649947
 21
18.4852135335
 31
0.0
 11
7.2046617658
 21
18.5084997499
 31
0.0
 11
7.1074473617
 21
18.5744974976
 31
0.0
 11
7.0431734439
 21
18.6724769201
 31
0.0
 11
7.0209404086
 21
18.7872935857
 31
0.0
  0
LINE
  5
6B0
100
AcDbEntity
  8
DRAFT
100
AcDbLine
 62
7
  6
CONTINUOUS
 10
1.5576309618
 20
20.5027418772
 11
3.922476295
 21
20.5027418768
  0
LINE
  5
6B1
100
AcDbEntity
  8
DRAFT
100
AcDbLine
 62
7
  6
CONTINUOUS
 10
5.3252181717
 20
20.5027418766
 11
7.0249713937
 21
20.5027418762
  0
LINE
  5
6B2
100
AcDbEntity
  8
DRAFT
100
AcDbLine
 62
7
  6
CONTINUOUS
 10
21.0144082555
 20
14.9756671173
 11
21.0152358252
 21
16.5091965116
  0
SPLINE
  5
6B3
100
AcDbEntity
  8
RACCORDO
100
AcDbSpline
 62
253
  6
CONTINUOUS
 70
0
 71
3
 72
11
 73
7
 74
5
 42
0.0000001
 43
0.0000001
 44
0.0000000001
 12
0.0011417499
 22
-0.4655639069
 32
0.0
 13
0.4655639598
 23
-0.0011199765
 33
0.0
 40
0.0
 40
0.0
 40
0.0
 40
0.0
 40
0.2487755422
 40
0.4984070311
 40
0.7489637461
 40
1.0
 40
1.0
 40
1.0
 40
1.0
 10
7.0532376654
 20
19.929435023
 30
0.0
 10
7.0533323453
 20
19.8908280519
 30
0.0
 10
7.0691513432
 20
19.8126705234
 30
0.0
 10
7.1360389482
 20
19.7140571292
 30
0.0
 10
7.235597046
 20
19.6480171777
 30
0.0
 10
7.3142341632
 20
19.6324483206
 30
0.0
 10
7.353191974
 20
19.6323546024
 30
0.0
 11
7.0532376654
 21
19.929435023
 31
0.0
 11
7.0762726029
 21
19.8159275064
 31
0.0
 11
7.1413409889
 21
19.7196303729
 31
0.0
 11
7.2385682135
 21
19.6551772178
 31
0.0
 11
7.353191974
 21
19.6323546024
 31
0.0
  0
SPLINE
  5
6B4
100
AcDbEntity
  8
RACCORDO
100
AcDbSpline
 62
7
  6
CONTINUOUS
 70
0
 71
3
 72
11
 73
7
 74
5
 42
0.0000001
 43
0.0000001
 44
0.0000000001
 12
0.0087485779
 22
-0.4357670639
 32
0.0
 13
0.4358548745
 23
0.0
 33
0.0
 40
0.0
 40
0.0
 40
0.0
 40
0.0
 40
0.2072017273
 40
0.4340860202
 40
0.6972655333
 40
1.0
 40
1.0
 40
1.0
 40
1.0
 10
7.0322915875
 20
19.7607860213
 30
0.0
 10
7.0328958277
 20
19.7306887919
 30
0.0
 10
7.0471545211
 20
19.6673172804
 30
0.0
 10
7.1068665098
 20
19.5824587259
 30
0.0
 10
7.2053633786
 20
19.5182032821
 30
0.0
 10
7.2882631317
 20
19.5
 30
0.0
 10
7.3322458961
 20
19.5
 30
0.0
 11
7.0322915875
 21
19.7607860213
 31
0.0
 11
7.0517290782
 21
19.6725927172
 31
0.0
 11
7.1078130651
 21
19.59114613
 31
0.0
 11
7.2031721638
 21
19.5273920363
 31
0.0
 11
7.3322458961
 21
19.5
 31
0.0
  0
SPLINE
  5
6B5
100
AcDbEntity
  8
RACCORDO
100
AcDbSpline
 62
253
  6
CONTINUOUS
 70
0
 71
3
 72
11
 73
7
 74
5
 42
0.0000001
 43
0.0000001
 44
0.0000000001
 12
-0.0011417496
 22
-0.4655637538
 32
0.0
 13
-0.4655638067
 23
-0.0011199761
 33
0.0
 40
0.0
 40
0.0
 40
0.0
 40
0.0
 40
0.2488076262
 40
0.4984314966
 40
0.748973283
 40
1.0
 40
1.0
 40
1.0
 40
1.0
 10
7.7971986779
 20
19.929435023
 30
0.0
 10
7.7971039859
 20
19.8908230855
 30
0.0
 10
7.7812810242
 20
19.8126617386
 30
0.0
 10
7.7143892858
 20
19.7140499477
 30
0.0
 10
7.6148339334
 20
19.6480154304
 30
0.0
 10
7.5362006874
 20
19.632448317
 30
0.0
 10
7.4972443694
 20
19.6323546024
 30
0.0
 11
7.7971986779
 21
19.929435023
 31
0.0
 11
7.7741572666
 21
19.8159136175
 31
0.0
 11
7.7090869782
 21
19.7196220964
 31
0.0
 11
7.611863955
 21
19.655175252
 31
0.0
 11
7.4972443694
 21
19.6323546024
 31
0.0
  0
SPLINE
  5
6B6
100
AcDbEntity
  8
RACCORDO
100
AcDbSpline
 62
7
  6
CONTINUOUS
 70
0
 71
3
 72
11
 73
7
 74
5
 42
0.0000001
 43
0.0000001
 44
0.0000000001
 12
-0.0088377716
 22
-0.4402098092
 32
0.0
 13
-0.440298515
 23
0.0
 33
0.0
 40
0.0
 40
0.0
 40
0.0
 40
0.0
 40
0.206801351
 40
0.4335194186
 40
0.6970838653
 40
1.0
 40
1.0
 40
1.0
 40
1.0
 10
7.8181447559
 20
19.7607860213
 30
0.0
 10
7.8175355348
 20
19.7304406936
 30
0.0
 10
7.8030456983
 20
19.6664781551
 30
0.0
 10
7.7422601529
 20
19.5811537323
 30
0.0
 10
7.6422557986
 20
19.5165195588
 30
0.0
 10
7.5581405519
 20
19.5
 30
0.0
 10
7.5136827105
 20
19.5
 30
0.0
 11
7.8181447559
 21
19.7607860213
 31
0.0
 11
7.7984063707
 21
19.6718968389
 31
0.0
 11
7.7413972364
 21
19.5899534718
 31
0.0
 11
7.6444690521
 21
19.5261424908
 31
0.0
 11
7.5136827105
 21
19.5
 31
0.0
  0
LINE
  5
6B7
100
AcDbEntity
  8
RACCORDO
100
AcDbLine
 62
7
  6
CONTINUOUS
 10
15.6254649586
 20
20.5027418629
 11
17.3252181717
 21
20.5027418574
  0
LINE
  5
6B8
100
AcDbEntity
  8
RACCORDO
100
AcDbLine
 62
7
  6
CONTINUOUS
 10
18.7279600243
 20
20.5027418527
 11
20.7280628202
 21
20.502741846
  0
SPLINE
  5
6B9
100
AcDbEntity
  8
DRAFT
100
AcDbSpline
 62
7
  6
CONTINUOUS
 70
0
 71
3
 72
9
 73
5
 74
3
 42
0.0000001
 43
0.0000001
 44
0.0000000001
 12
0.008989488
 22
3.3043339518
 32
0.0
 13
0.0073248486
 23
3.3043380611
 33
0.0
 40
0.0
 40
0.0
 40
0.0
 40
0.0
 40
0.248562634
 40
1.0
 40
1.0
 40
1.0
 40
1.0
 10
1.5577740828
 20
-20.5023124269
 30
0.0
 10
1.5585188997
 20
-20.2285344434
 30
0.0
 10
1.5614452773
 20
-19.127089603
 30
0.0
 10
1.5640921666
 20
-18.0256440209
 30
0.0
 10
1.5659268883
 20
-17.1979763246
 30
0.0
 11
1.5577740828
 21
-20.5023124269
 31
0.0
 11
1.5599564082
 21
-19.680978336
 31
0.0
 11
1.5659268883
 21
-17.1979763246
 31
0.0
  0
LINE
  5
6BA
100
AcDbEntity
  8
DRAFT
100
AcDbLine
 62
253
  6
CONTINUOUS
 10
3.2752181717
 20
-17.25
 11
3.1629246145
 21
-20.5022749015
  0
SPLINE
  5
6BB
100
AcDbEntity
  8
DRAFT
100
AcDbSpline
 62
7
  6
CONTINUOUS
 70
0
 71
3
 72
9
 73
5
 74
3
 42
0.0000001
 43
0.0000001
 44
0.0000000001
 12
0.0071708288
 22
-3.3311796108
 32
0.0
 13
0.0088399973
 23
-3.3311755995
 33
0.0
 40
0.0
 40
0.0
 40
0.0
 40
0.0
 40
0.2513554175
 40
1.0
 40
1.0
 40
1.0
 40
1.0
 10
0.6846680248
 20
-17.1711544917
 30
0.0
 10
0.6852688337
 20
-17.450257839
 30
0.0
 10
0.6877279571
 20
-18.5606508933
 30
0.0
 10
0.6904628426
 20
-19.6710433376
 30
0.0
 10
0.6926688479
 20
-20.5023321929
 30
0.0
 11
0.6846680248
 21
-17.1711544917
 31
0.0
 11
0.6865224842
 21
-18.00846442
 31
0.0
 11
0.6926688479
 21
-20.5023321929
 31
0.0
  0
SPLINE
  5
6BC
100
AcDbEntity
  8
DRAFT
100
AcDbSpline
 62
7
  6
CONTINUOUS
 70
0
 71
3
 72
9
 73
5
 74
3
 42
0.0000001
 43
0.0000001
 44
0.0000000001
 12
-0.1967318688
 22
-3.2523121795
 32
0.0
 13
-0.1980477313
 23
-3.252232316
 33
0.0
 40
0.0
 40
0.0
 40
0.0
 40
0.0
 40
0.2506055429
 40
1.0
 40
1.0
 40
1.0
 40
1.0
 10
19.3752181717
 20
-17.25
 30
0.0
 10
19.3587841394
 20
-17.5216824865
 30
0.0
 10
19.293162493
 20
-18.6057838618
 30
0.0
 10
19.2273431494
 20
-19.6898732779
 30
0.0
 10
19.177871192
 20
-20.5022749015
 30
0.0
 11
19.3752181717
 21
-17.25
 31
0.0
 11
19.3258814268
 21
-18.065045363
 31
0.0
 11
19.177871192
 21
-20.5022749015
 31
0.0
  0
SPLINE
  5
6BD
100
AcDbEntity
  8
RACCORDO
100
AcDbSpline
 62
253
  6
CONTINUOUS
 70
0
 71
3
 72
13
 73
9
 74
7
 42
0.0000001
 43
0.0000001
 44
0.0000000001
 12
-0.0000000582
 22
0.6973894506
 32
0.0
 13
-0.0693292942
 23
0.6939347915
 33
0.0
 40
0.0
 40
0.0
 40
0.0
 40
0.0
 40
0.3637103398
 40
0.6781032568
 40
0.8029590386
 40
0.9002600234
 40
0.9667065928
 40
1.0
 40
1.0
 40
1.0
 40
1.0
 10
-11.745960318
 20
1.6687096373
 30
0.0
 10
-11.7459603251
 20
1.7532588886
 30
0.0
 10
-11.746217624
 20
1.9108916064
 30
0.0
 10
-11.7470953986
 20
2.0975528004
 30
0.0
 10
-11.7483081417
 20
2.2222690316
 30
0.0
 10
-11.7490973598
 20
2.2893658772
 30
0.0
 10
-11.7502696184
 20
2.3351342113
 30
0.0
 10
-11.750767305
 20
2.3583447748
 30
0.0
 10
-11.7515367078
 20
2.366045926
 30
0.0
 11
-11.745960318
 21
1.6687096373
 31
0.0
 11
-11.7463755734
 21
1.9223570514
 31
0.0
 11
-11.7475652223
 21
2.1416081276
 31
0.0
 11
-11.7484037083
 21
2.2286771955
 31
0.0
 11
-11.7493676008
 21
2.2965270294
 31
0.0
 11
-11.7504243844
 21
2.3428541142
 31
0.0
 11
-11.7515367078
 21
2.366045926
 31
0.0
  0
SPLINE
  5
6BE
100
AcDbEntity
  8
ASSI
100
AcDbSpline
 62
7
  6
CONTINUOUS
 70
0
 71
3
 72
15
 73
11
 74
9
 42
0.0000001
 43
0.0000001
 44
0.0000000001
 12
1.7316980133
 22
0.0
 32
0.0
 13
-1.7316980133
 23
0.0
 33
0.0
 40
0.0
 40
0.0
 40
0.0
 40
0.0
 40
0.1275717096
 40
0.2535471376
 40
0.3773595268
 40
0.499710482
 40
0.6221935465
 40
0.746274754
 40
0.8724181451
 40
1.0
 40
1.0
 40
1.0
 40
1.0
 10
16.3252181717
 20
-19.8343915603
 30
0.0
 10
16.3988567304
 20
-19.8343915603
 30
0.0
 10
16.5467129339
 20
-19.8067366352
 30
0.0
 10
16.7352101625
 20
-19.6875117395
 30
0.0
 10
16.8626242386
 20
-19.5073408816
 30
0.0
 10
16.9076068757
 20
-19.2931001351
 30
0.0
 10
16.8625810444
 20
-19.0787345653
 30
0.0
 10
16.7352698813
 20
-18.8981310967
 30
0.0
 10
16.5468315783
 20
-18.7783115879
 30
0.0
 10
16.3988625866
 20
-18.750463691
 30
0.0
 10
16.3252181717
 20
-18.750463691
 30
0.0
 11
16.3252181717
 21
-19.8343915603
 31
0.0
 11
16.5422755245
 21
-19.7932838789
 31
0.0
 11
16.7263074769
 21
-19.6761417721
 31
0.0
 11
16.8494018383
 21
-19.5005924377
 31
0.0
 11
16.8926676918
 21
-19.2931821155
 31
0.0
 11
16.8494185655
 21
-19.0855346163
 31
0.0
 11
16.7263028129
 21
-18.909431988
 31
0.0
 11
16.542254933
 21
-18.7917740145
 31
0.0
 11
16.3252181717
 21
-18.750463691
 31
0.0
  0
SPLINE
  5
6BF
100
AcDbEntity
  8
RACCORDO
100
AcDbSpline
 62
253
  6
CONTINUOUS
 70
0
 71
3
 72
21
 73
17
 74
15
 42
0.0000001
 43
0.0000001
 44
0.0000000001
 12
0.4999712058
 22
-0.0107838411
 32
0.0
 13
-0.0000003429
 23
0.5000874902
 33
0.0
 40
0.0
 40
0.0
 40
0.0
 40
0.0
 40
0.0012739905
 40
0.004908365
 40
0.0109268407
 40
0.0193203266
 40
0.0431750048
 40
0.0762471869
 40
0.1181963154
 40
0.1686594279
 40
0.2271332985
 40
0.2930435341
 40
0.4446356143
 40
0.6175033038
 40
0.8050854867
 40
1.0
 40
1.0
 40
1.0
 40
1.0
 10
-11.7503237519
 20
0.8
 30
0.0
 10
-11.7501114324
 20
0.7999954205
 30
0.0
 10
-11.7501316435
 20
0.8012404072
 30
0.0
 10
-11.7497862214
 20
0.8026410291
 30
0.0
 10
-11.7496789288
 20
0.8058737373
 30
0.0
 10
-11.7493159339
 20
0.8121059913
 30
0.0
 10
-11.7490081679
 20
0.8230924804
 30
0.0
 10
-11.7486002694
 20
0.8395210353
 30
0.0
 10
-11.748232021
 20
0.8604542999
 30
0.0
 10
-11.7478695484
 20
0.8855971909
 30
0.0
 10
-11.7475320306
 20
0.9147437693
 30
0.0
 10
-11.7470934285
 20
0.9607448804
 30
0.0
 10
-11.7466431783
 20
1.0258170012
 30
0.0
 10
-11.7462539599
 20
1.1111712293
 30
0.0
 10
-11.746014153
 20
1.2037479603
 30
0.0
 10
-11.7459602957
 20
1.2675085634
 30
0.0
 10
-11.745960318
 20
1.3
 30
0.0
 11
-11.7503237519
 21
0.8
 31
0.0
 11
-11.7501101093
 21
0.8006002182
 31
0.0
 11
-11.74989671
 21
0.8024051519
 31
0.0
 11
-11.7496841507
 21
0.8054074011
 31
0.0
 11
-11.7494730279
 21
0.8095995656
 31
0.0
 11
-11.749057458
 21
0.8215217512
 31
0.0
 11
-11.7486542503
 21
0.8380558201
 31
0.0
 11
-11.7482671428
 21
0.8590304826
 31
0.0
 11
-11.7478998246
 21
0.8842637805
 31
0.0
 11
-11.7475557615
 21
0.9135038074
 31
0.0
 11
-11.7472383064
 21
0.946463163
 31
0.0
 11
-11.7466955707
 21
1.0222705231
 31
0.0
 11
-11.7462923651
 21
1.1087185517
 31
0.0
 11
-11.7460440888
 21
1.2025257262
 31
0.0
 11
-11.745960318
 21
1.3
 31
0.0
  0
LINE
  5
6C0
100
AcDbEntity
  8
RACCORDO
100
AcDbLine
 62
253
  6
CONTINUOUS
 10
-11.7541611411
 20
-0.8
 11
-11.7542465257
 21
-0.8116145523
  0
LINE
  5
6C1
100
AcDbEntity
  8
RACCORDO
100
AcDbLine
 62
253
  6
CONTINUOUS
 10
-11.7542465257
 20
-0.8116145523
 11
-11.7546274113
 21
-0.8601370082
  0
SPLINE
  5
6C2
100
AcDbEntity
  8
RACCORDO
100
AcDbSpline
 62
253
  6
CONTINUOUS
 70
0
 71
3
 72
21
 73
17
 74
15
 42
0.0000001
 43
0.0000001
 44
0.0000000001
 12
-0.0027848256
 22
-0.1878582559
 32
0.0
 13
-0.0105816129
 23
0.1875806734
 33
0.0
 40
0.0
 40
0.0
 40
0.0
 40
0.0
 40
0.4916638785
 40
0.6697676251
 40
0.8010409391
 40
0.8488038321
 40
0.8844900109
 40
0.9080183261
 40
0.9152441128
 40
0.9194969708
 40
0.921104187
 40
0.9234846874
 40
0.9287099626
 40
0.936923312
 40
0.9624054302
 40
1.0
 40
1.0
 40
1.0
 40
1.0
 10
-11.7570069608
 20
-1.0771765111
 30
0.0
 10
-11.7574633602
 20
-1.1079642174
 30
0.0
 10
-11.758167857
 20
-1.1499048461
 30
0.0
 10
-11.7594398019
 20
-1.2000536592
 30
0.0
 10
-11.7602322142
 20
-1.2224091957
 30
0.0
 10
-11.7608667411
 20
-1.2358380826
 30
0.0
 10
-11.7613659385
 20
-1.2425274299
 30
0.0
 10
-11.7616459834
 20
-1.2466635746
 30
0.0
 10
-11.762112662
 20
-1.2488411472
 30
0.0
 10
-11.7621717982
 20
-1.2496230693
 30
0.0
 10
-11.762641773
 20
-1.250109807
 30
0.0
 10
-11.762909349
 20
-1.2493186446
 30
0.0
 10
-11.7630822692
 20
-1.2485115488
 30
0.0
 10
-11.7634539358
 20
-1.2459774765
 30
0.0
 10
-11.763817868
 20
-1.2416273576
 30
0.0
 10
-11.764076396
 20
-1.2376478001
 30
0.0
 10
-11.7642089997
 20
-1.2352971285
 30
0.0
 11
-11.7570069608
 21
-1.0771765111
 31
0.0
 11
-11.7586911343
 21
-1.1695344234
 31
0.0
 11
-11.7595788503
 21
-1.2029845814
 31
0.0
 11
-11.7604883786
 21
-1.2276312905
 31
0.0
 11
-11.7609492113
 21
-1.2365930894
 31
0.0
 11
-11.7614129638
 21
-1.2432817116
 31
0.0
 11
-11.7618787893
 21
-1.2476775728
 31
0.0
 11
-11.7621122121
 21
-1.2490149275
 31
0.0
 11
-11.7623458317
 21
-1.2497790339
 31
0.0
 11
-11.762579541
 21
-1.2499702433
 31
0.0
 11
-11.7628132325
 21
-1.2495889074
 31
0.0
 11
-11.763046799
 21
-1.2486353777
 31
0.0
 11
-11.7632801331
 21
-1.2471100059
 31
0.0
 11
-11.763745675
 21
-1.2423451421
 31
0.0
 11
-11.7642089997
 21
-1.2352971285
 31
0.0
  0
SPLINE
  5
6C3
100
AcDbEntity
  8
RACCORDO
100
AcDbSpline
 62
253
  6
CONTINUOUS
 70
0
 71
3
 72
9
 73
5
 74
3
 42
0.0000001
 43
0.0000001
 44
0.0000000001
 12
-0.0076867962
 22
0.1362641431
 32
0.0
 13
-0.002196
 23
0.1364631127
 33
0.0
 40
0.0
 40
0.0
 40
0.0
 40
0.0
 40
0.37253366
 40
1.0
 40
1.0
 40
1.0
 40
1.0
 10
-11.7642089997
 20
-1.2352971285
 30
0.0
 10
-11.7651635299
 20
-1.2183761352
 30
0.0
 10
-11.7663797465
 20
-1.172888816
 30
0.0
 10
-11.7672813247
 20
-1.1274079958
 30
0.0
 10
-11.7677406301
 20
-1.0988659925
 30
0.0
 11
-11.7642089997
 21
-1.2352971285
 31
0.0
 11
-11.7660260272
 21
-1.1844859221
 31
0.0
 11
-11.7677406301
 21
-1.0988659925
 31
0.0
  0
SPLINE
  5
6C4
100
AcDbEntity
  8
RACCORDO
100
AcDbSpline
 62
253
  6
CONTINUOUS
 70
0
 71
3
 72
21
 73
17
 74
15
 42
0.0000001
 43
0.0000001
 44
0.0000000001
 12
0.0000003279
 22
0.5000874895
 32
0.0
 13
-0.4999711365
 23
-0.0107870184
 33
0.0
 40
0.0
 40
0.0
 40
0.0
 40
0.0
 40
0.1949145477
 40
0.3824966451
 40
0.5553642799
 40
0.7069564669
 40
0.772866771
 40
0.8313406743
 40
0.8818037433
 40
0.9237527549
 40
0.9568248352
 40
0.98067952
 40
0.9890730506
 40
0.995091578
 40
0.9987259944
 40
1.0
 40
1.0
 40
1.0
 40
1.0
 10
-11.745960318
 20
-1.3
 30
0.0
 10
-11.7459602967
 20
-1.2675085577
 30
0.0
 10
-11.7460141514
 20
-1.2037479633
 30
0.0
 10
-11.7462539594
 20
-1.11117125
 30
0.0
 10
-11.7466431797
 20
-1.0258170276
 30
0.0
 10
-11.7470934285
 20
-0.9607448867
 30
0.0
 10
-11.7475320302
 20
-0.9147437411
 30
0.0
 10
-11.7478695477
 20
-0.885597153
 30
0.0
 10
-11.7482320202
 20
-0.8604542834
 30
0.0
 10
-11.7486002691
 20
-0.8395210625
 30
0.0
 10
-11.7490081686
 20
-0.8230925432
 30
0.0
 10
-11.7493159345
 20
-0.8121060618
 30
0.0
 10
-11.74967893
 20
-0.8058737922
 30
0.0
 10
-11.7497862199
 20
-0.8026410567
 30
0.0
 10
-11.7501316469
 20
-0.8012404255
 30
0.0
 10
-11.7501114299
 20
-0.7999954191
 30
0.0
 10
-11.7503237519
 20
-0.8
 30
0.0
 11
-11.745960318
 21
-1.3
 31
0.0
 11
-11.746044088
 21
-1.2025257092
 31
0.0
 11
-11.7462923647
 21
-1.1087185776
 31
0.0
 11
-11.7466955713
 21
-1.0222705763
 31
0.0
 11
-11.7472383062
 21
-0.9464631629
 31
0.0
 11
-11.7475557611
 21
-0.9135037732
 31
0.0
 11
-11.7478998241
 21
-0.8842637299
 31
0.0
 11
-11.7482671425
 21
-0.8590304538
 31
0.0
 11
-11.7486542502
 21
-0.8380558498
 31
0.0
 11
-11.7490574581
 21
-0.8215218319
 31
0.0
 11
-11.749473028
 21
-0.809599643
 31
0.0
 11
-11.7496841507
 21
-0.8054074562
 31
0.0
 11
-11.7498967101
 21
-0.802405181
 31
0.0
 11
-11.7501101093
 21
-0.8006002261
 31
0.0
 11
-11.7503237519
 21
-0.8
 31
0.0
  0
SPLINE
  5
6C5
100
AcDbEntity
  8
ASSI
100
AcDbSpline
 62
7
  6
CONTINUOUS
 70
0
 71
3
 72
15
 73
11
 74
9
 42
0.0000001
 43
0.0000001
 44
0.0000000001
 12
-1.7316982503
 22
0.0
 32
0.0
 13
1.7316982503
 23
-0.0
 33
0.0
 40
0.0
 40
0.0
 40
0.0
 40
0.0
 40
0.1275750372
 40
0.2536993997
 40
0.3777635452
 40
0.5002411671
 40
0.6226110588
 40
0.7464492695
 40
0.8724290102
 40
1.0
 40
1.0
 40
1.0
 40
1.0
 10
16.3252181717
 20
-18.750463691
 30
0.0
 10
16.2515776821
 20
-18.750463691
 30
0.0
 10
16.1036240727
 20
-18.7783075408
 30
0.0
 10
15.9152014014
 20
-18.8981006528
 30
0.0
 10
15.7878841049
 20
-19.0786681537
 30
0.0
 10
15.7428283004
 20
-19.2930246249
 30
0.0
 10
15.7877888847
 20
-19.5072959746
 30
0.0
 10
15.9152120524
 20
-19.6874985556
 30
0.0
 10
16.1037208546
 20
-19.8067386843
 30
0.0
 10
16.2515800184
 20
-19.8343915603
 30
0.0
 10
16.3252181717
 20
-19.8343915603
 30
0.0
 11
16.3252181717
 21
-18.750463691
 31
0.0
 11
16.1081925134
 21
-18.7917693683
 31
0.0
 11
15.9241653494
 21
-18.9093986238
 31
0.0
 11
15.8010462057
 21
-19.0854628648
 31
0.0
 11
15.7577688859
 21
-19.2930948919
 31
0.0
 11
15.8010154329
 21
-19.5005427674
 31
0.0
 11
15.9241257697
 21
-19.6761355477
 31
0.0
 11
16.1081618061
 21
-19.793285202
 31
0.0
 11
16.3252181717
 21
-19.8343915603
 31
0.0
  0
SPLINE
  5
6C6
100
AcDbEntity
  8
RACCORDO
100
AcDbSpline
 62
253
  6
CONTINUOUS
 70
0
 71
3
 72
13
 73
9
 74
7
 42
0.0000001
 43
0.0000001
 44
0.0000000001
 12
0.0693280443
 22
0.6939349164
 32
0.0
 13
0.0000000431
 23
0.6973894507
 33
0.0
 40
0.0
 40
0.0
 40
0.0
 40
0.0
 40
0.0332933167
 40
0.0997399118
 40
0.1970410319
 40
0.3218967381
 40
0.6362896342
 40
1.0
 40
1.0
 40
1.0
 40
1.0
 10
-11.7515367078
 20
-2.366045926
 30
0.0
 10
-11.750767321
 20
-2.3583447943
 30
0.0
 10
-11.7502696015
 20
-2.3351342489
 30
0.0
 10
-11.7490973674
 20
-2.2893658962
 30
0.0
 10
-11.7483081403
 20
-2.2222690318
 30
0.0
 10
-11.7470953997
 20
-2.0975527911
 30
0.0
 10
-11.7462176248
 20
-1.9108916138
 30
0.0
 10
-11.7459603232
 20
-1.7532588947
 30
0.0
 10
-11.745960318
 20
-1.6687096373
 30
0.0
 11
-11.7515367078
 21
-2.366045926
 31
0.0
 11
-11.7504243842
 21
-2.3428541774
 31
0.0
 11
-11.7493676009
 21
-2.2965270747
 31
0.0
 11
-11.7484037087
 21
-2.2286771463
 31
0.0
 11
-11.7475652224
 21
-2.1416081313
 31
0.0
 11
-11.7463755737
 21
-1.9223570696
 31
0.0
 11
-11.745960318
 21
-1.6687096373
 31
0.0
  0
SPLINE
  5
6C7
100
AcDbEntity
  8
ASSI
100
AcDbSpline
 62
7
  6
CONTINUOUS
 70
0
 71
3
 72
15
 73
11
 74
9
 42
0.0000001
 43
0.0000001
 44
0.0000000001
 12
1.7316980117
 22
0.0
 32
0.0
 13
-1.7316980117
 23
0.0
 33
0.0
 40
0.0
 40
0.0
 40
0.0
 40
0.0
 40
0.1275731152
 40
0.2535521929
 40
0.3773680627
 40
0.4997200228
 40
0.622201042
 40
0.7462792282
 40
0.8724199194
 40
1.0
 40
1.0
 40
1.0
 40
1.0
 10
6.3252181717
 20
-19.8343915603
 30
0.0
 10
6.3988575417
 20
-19.8343915603
 30
0.0
 10
6.5467167068
 20
-19.8067357588
 30
0.0
 10
6.7352172914
 20
-19.6875059254
 30
0.0
 10
6.8626297832
 20
-19.5073276888
 30
0.0
 10
6.9076069418
 20
-19.293084302
 30
0.0
 10
6.8625757765
 20
-19.0787223933
 30
0.0
 10
6.7352634081
 20
-18.8981257736
 30
0.0
 10
6.5468279115
 20
-18.7783107067
 30
0.0
 10
6.3988615623
 20
-18.750463691
 30
0.0
 10
6.3252181717
 20
-18.750463691
 30
0.0
 11
6.3252181717
 21
-19.8343915603
 31
0.0
 11
6.5422778199
 21
-19.7932829184
 31
0.0
 11
6.7263137984
 21
-19.6761353676
 31
0.0
 11
6.8494074473
 21
-19.5005781723
 31
0.0
 11
6.8926678154
 21
-19.2931649286
 31
0.0
 11
6.849413707
 21
-19.0855220853
 31
0.0
 11
6.7262972058
 21
-18.9094263644
 31
0.0
 11
6.5422520277
 21
-18.7917728453
 31
0.0
 11
6.3252181717
 21
-18.750463691
 31
0.0
  0
SPLINE
  5
6C8
100
AcDbEntity
  8
ASSI
100
AcDbSpline
 62
7
  6
CONTINUOUS
 70
0
 71
3
 72
15
 73
11
 74
9
 42
0.0000001
 43
0.0000001
 44
0.0000000001
 12
-1.7316982718
 22
0.0
 32
0.0
 13
1.7316982718
 23
0.0
 33
0.0
 40
0.0
 40
0.0
 40
0.0
 40
0.0
 40
0.1275776468
 40
0.2537061667
 40
0.3777737051
 40
0.5002518034
 40
0.6226193606
 40
0.7464541726
 40
0.872430685
 40
1.0
 40
1.0
 40
1.0
 40
1.0
 10
6.3252181717
 20
-18.750463691
 30
0.0
 10
6.2515761749
 20
-18.750463691
 30
0.0
 10
6.1036185676
 20
-18.7783088612
 30
0.0
 10
5.9151922451
 20
-18.8981083837
 30
0.0
 10
5.7878777519
 20
-19.0786839761
 30
0.0
 10
5.7428281546
 20
-19.2930426226
 30
0.0
 10
5.7877947025
 20
-19.5073095094
 30
0.0
 10
5.9152191895
 20
-19.6875041846
 30
0.0
 10
6.1037246649
 20
-19.8067396849
 30
0.0
 10
6.2515809842
 20
-19.8343915603
 30
0.0
 10
6.3252181717
 20
-19.8343915603
 30
0.0
 11
6.3252181717
 21
-18.750463691
 31
0.0
 11
6.1081882413
 21
-18.7917711069
 31
0.0
 11
5.9241568844
 21
-18.9094071754
 31
0.0
 11
5.8010395676
 21
-19.0854798664
 31
0.0
 11
5.7577686641
 21
-19.2931140762
 31
0.0
 11
5.8010207823
 21
-19.5005566634
 31
0.0
 11
5.9241319595
 21
-19.6761416698
 31
0.0
 11
6.1081645374
 21
-19.7932863511
 31
0.0
 11
6.3252181717
 21
-19.8343915603
 31
0.0
  0
SPLINE
  5
6C9
100
AcDbEntity
  8
RACCORDO
100
AcDbSpline
 62
7
  6
CONTINUOUS
 70
0
 71
3
 72
9
 73
5
 74
3
 42
0.0000001
 43
0.0000001
 44
0.0000000001
 12
0.0104709347
 22
-3.6429772086
 32
0.0
 13
0.0142220048
 23
-3.6429644958
 33
0.0
 40
0.0
 40
0.0
 40
0.0
 40
0.0
 40
0.2504575346
 40
1.0
 40
1.0
 40
1.0
 40
1.0
 10
21.0144082555
 20
-16.5586659207
 30
0.0
 10
21.0152824303
 20
-16.8628029508
 30
0.0
 10
21.0189288649
 20
-18.0771282332
 30
0.0
 10
21.0231992096
 20
-19.2914516428
 30
0.0
 10
21.0267525418
 20
-20.2016371726
 30
0.0
 11
21.0144082555
 21
-16.5586659207
 31
0.0
 11
21.0171481216
 21
-17.4710766662
 31
0.0
 11
21.0267525418
 21
-20.2016371726
 31
0.0
  0
SPLINE
  5
6CA
100
AcDbEntity
  8
RACCORDO
100
AcDbSpline
 62
7
  6
CONTINUOUS
 70
0
 71
3
 72
11
 73
7
 74
5
 42
0.0000001
 43
0.0000001
 44
0.0000000001
 12
0.0010199151
 22
-0.4693576759
 32
0.0
 13
-0.469358784
 23
0.0000003269
 33
0.0
 40
0.0
 40
0.0
 40
0.0
 40
0.0
 40
0.2491680335
 40
0.4988275215
 40
0.7491701325
 40
1.0
 40
1.0
 40
1.0
 40
1.0
 10
7.8294960692
 20
18.7872931822
 30
0.0
 10
7.8295807792
 20
18.7483102059
 30
0.0
 10
7.8144165972
 20
18.6693964703
 30
0.0
 10
7.7484933653
 20
18.5689520608
 30
0.0
 10
7.6489100314
 20
18.50113214
 30
0.0
 10
7.5696144634
 20
18.4852133636
 30
0.0
 10
7.5303713962
 20
18.485213391
 30
0.0
 11
7.8294960692
 21
18.7872931822
 31
0.0
 11
7.8072631456
 21
18.6724767474
 31
0.0
 11
7.7429892331
 21
18.5744972241
 31
0.0
 11
7.6457747041
 21
18.5084994691
 31
0.0
 11
7.5303713962
 21
18.485213391
 31
0.0
  0
SPLINE
  5
6CB
100
AcDbEntity
  8
RACCORDO
100
AcDbSpline
 62
7
  6
CONTINUOUS
 70
0
 71
3
 72
11
 73
7
 74
5
 42
0.0000001
 43
0.0000001
 44
0.0000000001
 12
0.0017331501
 22
0.4683713859
 32
0.0
 13
-0.4683745926
 23
0.0000000019
 33
0.0
 40
0.0
 40
0.0
 40
0.0
 40
0.0
 40
0.2489188362
 40
0.4984310804
 40
0.7488688518
 40
1.0
 40
1.0
 40
1.0
 40
1.0
 10
21.0268323221
 20
20.2017169529
 30
0.0
 10
21.0269761266
 20
20.2405791063
 30
0.0
 10
21.0118955829
 20
20.3192964696
 30
0.0
 10
20.9459985909
 20
20.4194230724
 30
0.0
 10
20.8464601262
 20
20.4869290587
 30
0.0
 10
20.7672706367
 20
20.5027418459
 30
0.0
 10
20.7280628202
 20
20.502741846
 30
0.0
 11
21.0268323221
 21
20.2017169529
 31
0.0
 11
21.0047358874
 21
20.3161911265
 31
0.0
 11
20.9405347357
 21
20.4138419641
 31
0.0
 11
20.8433812743
 21
20.4795700966
 31
0.0
 11
20.7280628202
 21
20.502741846
 31
0.0
  0
SPLINE
  5
6CC
100
AcDbEntity
  8
RACCORDO
100
AcDbSpline
 62
7
  6
CONTINUOUS
 70
0
 71
3
 72
11
 73
7
 74
5
 42
0.0000001
 43
0.0000001
 44
0.0000000001
 12
0.4683905651
 22
-0.0000988283
 32
0.0
 13
-0.0018285663
 23
0.4683870062
 33
0.0
 40
0.0
 40
0.0
 40
0.0
 40
0.0
 40
0.2511688628
 40
0.5016277236
 40
0.7511698961
 40
1.0
 40
1.0
 40
1.0
 40
1.0
 10
20.7279821707
 20
-20.5026611965
 30
0.0
 10
20.7671972126
 20
-20.5026694707
 30
0.0
 10
20.8464028917
 20
-20.4868586274
 30
0.0
 10
20.9459497478
 20
-20.4193319169
 30
0.0
 10
21.0118376406
 20
-20.3192004472
 30
0.0
 10
21.0269042092
 20
-20.2404867684
 30
0.0
 10
21.0267525418
 20
-20.2016371726
 30
0.0
 11
20.7279821707
 21
-20.5026611965
 31
0.0
 11
20.8433237954
 21
-20.4794947164
 31
0.0
 11
20.9404839404
 21
-20.4137516917
 31
0.0
 11
21.0046837067
 21
-20.3160783951
 31
0.0
 11
21.0267525418
 21
-20.2016371726
 31
0.0
  0
SPLINE
  5
6CD
100
AcDbEntity
  8
RACCORDO
100
AcDbSpline
 62
7
  6
CONTINUOUS
 70
0
 71
3
 72
11
 73
7
 74
5
 42
0.0000001
 43
0.0000001
 44
0.0000000001
 12
0.0088377716
 22
-0.4402098092
 32
0.0
 13
0.440298515
 23
0.0
 33
0.0
 40
0.0
 40
0.0
 40
0.0
 40
0.0
 40
0.206801351
 40
0.4335194186
 40
0.6970838653
 40
1.0
 40
1.0
 40
1.0
 40
1.0
 10
14.8322915875
 20
19.7607860213
 30
0.0
 10
14.8329008086
 20
19.7304406936
 30
0.0
 10
14.8473906451
 20
19.6664781551
 30
0.0
 10
14.9081761905
 20
19.5811537323
 30
0.0
 10
15.0081805448
 20
19.5165195588
 30
0.0
 10
15.0922957915
 20
19.5
 30
0.0
 10
15.1367536329
 20
19.5
 30
0.0
 11
14.8322915875
 21
19.7607860213
 31
0.0
 11
14.8520299727
 21
19.6718968389
 31
0.0
 11
14.909039107
 21
19.5899534718
 31
0.0
 11
15.0059672913
 21
19.5261424908
 31
0.0
 11
15.1367536329
 21
19.5
 31
0.0
  0
SPLINE
  5
6CE
100
AcDbEntity
  8
RACCORDO
100
AcDbSpline
 62
253
  6
CONTINUOUS
 70
0
 71
3
 72
11
 73
7
 74
5
 42
0.0000001
 43
0.0000001
 44
0.0000000001
 12
0.0011417499
 22
-0.4655639069
 32
0.0
 13
0.4655639598
 23
-0.0011199765
 33
0.0
 40
0.0
 40
0.0
 40
0.0
 40
0.0
 40
0.2487755422
 40
0.4984070311
 40
0.7489637461
 40
1.0
 40
1.0
 40
1.0
 40
1.0
 10
14.8532376654
 20
19.929435023
 30
0.0
 10
14.8533323453
 20
19.8908280519
 30
0.0
 10
14.8691513432
 20
19.8126705234
 30
0.0
 10
14.9360389482
 20
19.7140571292
 30
0.0
 10
15.035597046
 20
19.6480171777
 30
0.0
 10
15.1142341632
 20
19.6324483206
 30
0.0
 10
15.153191974
 20
19.6323546024
 30
0.0
 11
14.8532376654
 21
19.929435023
 31
0.0
 11
14.8762726029
 21
19.8159275064
 31
0.0
 11
14.9413409889
 21
19.7196303729
 31
0.0
 11
15.0385682135
 21
19.6551772178
 31
0.0
 11
15.153191974
 21
19.6323546024
 31
0.0
  0
SPLINE
  5
6CF
100
AcDbEntity
  8
RACCORDO
100
AcDbSpline
 62
7
  6
CONTINUOUS
 70
0
 71
3
 72
11
 73
7
 74
5
 42
0.0000001
 43
0.0000001
 44
0.0000000001
 12
-0.4693605954
 22
0.0000010737
 32
0.0
 13
0.0010211866
 23
0.4693594845
 33
0.0
 40
0.0
 40
0.0
 40
0.0
 40
0.0
 40
0.250832213
 40
0.5011752999
 40
0.7508334476
 40
1.0
 40
1.0
 40
1.0
 40
1.0
 10
15.1200612869
 20
18.4852024012
 30
0.0
 10
15.0808177013
 20
18.485202491
 30
0.0
 10
15.0015213893
 20
18.5011221035
 30
0.0
 10
14.9019384676
 20
18.5689439439
 30
0.0
 10
14.8360165956
 20
18.6693892541
 30
0.0
 10
14.8208529843
 20
18.748302857
 30
0.0
 10
14.8209377994
 20
18.7872857518
 30
0.0
 11
15.1200612869
 21
18.4852024012
 31
0.0
 11
15.0046566388
 21
18.5084897004
 31
0.0
 11
14.9074424818
 21
18.5744892084
 31
0.0
 11
14.8431699281
 21
18.6724694114
 31
0.0
 11
14.8209377994
 21
18.7872857518
 31
0.0
  0
SPLINE
  5
6D0
100
AcDbEntity
  8
RACCORDO
100
AcDbSpline
 62
7
  6
CONTINUOUS
 70
0
 71
3
 72
11
 73
7
 74
5
 42
0.0000001
 43
0.0000001
 44
0.0000000001
 12
0.0010214226
 22
-0.4693594557
 32
0.0
 13
-0.4693605671
 23
0.0000010981
 33
0.0
 40
0.0
 40
0.0
 40
0.0
 40
0.0
 40
0.2491654362
 40
0.4988238371
 40
0.7491675715
 40
1.0
 40
1.0
 40
1.0
 40
1.0
 10
15.6294990023
 20
18.7872843756
 30
0.0
 10
15.6295838367
 20
18.7483016578
 30
0.0
 10
15.6144203972
 20
18.6693881914
 30
0.0
 10
15.5484986483
 20
18.5689427956
 30
0.0
 10
15.4489153668
 20
18.5011210659
 30
0.0
 10
15.3696188355
 20
18.4852018228
 30
0.0
 10
15.3303752185
 20
18.4852019146
 30
0.0
 11
15.6294990023
 21
18.7872843756
 31
0.0
 11
15.607267139
 21
18.6724685246
 31
0.0
 11
15.5429946149
 21
18.5744881684
 31
0.0
 11
15.4457800637
 21
18.5084887127
 31
0.0
 11
15.3303752185
 21
18.4852019146
 31
0.0
  0
SPLINE
  5
6D1
100
AcDbEntity
  8
RACCORDO
100
AcDbSpline
 62
7
  6
CONTINUOUS
 70
0
 71
3
 72
11
 73
7
 74
5
 42
0.0000001
 43
0.0000001
 44
0.0000000001
 12
-0.0087485779
 22
-0.4357670639
 32
0.0
 13
-0.4358548745
 23
0.0
 33
0.0
 40
0.0
 40
0.0
 40
0.0
 40
0.0
 40
0.2072017273
 40
0.4340860202
 40
0.6972655333
 40
1.0
 40
1.0
 40
1.0
 40
1.0
 10
15.6181447559
 20
19.7607860213
 30
0.0
 10
15.6175405157
 20
19.7306887919
 30
0.0
 10
15.6032818223
 20
19.6673172804
 30
0.0
 10
15.5435698336
 20
19.5824587259
 30
0.0
 10
15.4450729648
 20
19.5182032821
 30
0.0
 10
15.3621732116
 20
19.5
 30
0.0
 10
15.3181904473
 20
19.5
 30
0.0
 11
15.6181447559
 21
19.7607860213
 31
0.0
 11
15.5987072652
 21
19.6725927172
 31
0.0
 11
15.5426232783
 21
19.59114613
 31
0.0
 11
15.4472641796
 21
19.5273920363
 31
0.0
 11
15.3181904473
 21
19.5
 31
0.0
  0
SPLINE
  5
6D2
100
AcDbEntity
  8
RACCORDO
100
AcDbSpline
 62
253
  6
CONTINUOUS
 70
0
 71
3
 72
11
 73
7
 74
5
 42
0.0000001
 43
0.0000001
 44
0.0000000001
 12
-0.0011417496
 22
-0.4655637538
 32
0.0
 13
-0.4655638067
 23
-0.0011199761
 33
0.0
 40
0.0
 40
0.0
 40
0.0
 40
0.0
 40
0.2488076262
 40
0.4984314966
 40
0.748973283
 40
1.0
 40
1.0
 40
1.0
 40
1.0
 10
15.5971986779
 20
19.929435023
 30
0.0
 10
15.5971039859
 20
19.8908230855
 30
0.0
 10
15.5812810242
 20
19.8126617386
 30
0.0
 10
15.5143892858
 20
19.7140499477
 30
0.0
 10
15.4148339334
 20
19.6480154304
 30
0.0
 10
15.3362006874
 20
19.632448317
 30
0.0
 10
15.2972443694
 20
19.6323546024
 30
0.0
 11
15.5971986779
 21
19.929435023
 31
0.0
 11
15.5741572666
 21
19.8159136175
 31
0.0
 11
15.5090869782
 21
19.7196220964
 31
0.0
 11
15.411863955
 21
19.655175252
 31
0.0
 11
15.2972443694
 21
19.6323546024
 31
0.0
  0
SPLINE
  5
6D3
100
AcDbEntity
  8
RACCORDO
100
AcDbSpline
 62
253
  6
CONTINUOUS
 70
0
 71
3
 72
20
 73
16
 74
14
 42
0.0000001
 43
0.0000001
 44
0.0000000001
 12
0.0025435718
 22
0.1579360684
 32
0.0
 13
0.013142723
 23
-0.1574088317
 33
0.0
 40
0.0
 40
0.0
 40
0.0
 40
0.0
 40
0.2632110037
 40
0.4856432971
 40
0.6661752627
 40
0.7404407262
 40
0.8038865896
 40
0.8563999575
 40
0.8978814102
 40
0.9283055149
 40
0.947694279
 40
0.9562028525
 40
0.9601813231
 40
0.9745691452
 40
1.0
 40
1.0
 40
1.0
 40
1.0
 10
-11.7677374052
 20
1.099060599
 30
0.0
 10
-11.7675142398
 20
1.112917436
 30
0.0
 10
-11.7670694499
 20
1.1384830409
 30
0.0
 10
-11.7663255467
 20
1.1735536415
 30
0.0
 10
-11.7656587604
 20
1.1986655425
 30
0.0
 10
-11.7650997208
 20
1.2154232263
 30
0.0
 10
-11.7647045485
 20
1.2254068808
 30
0.0
 10
-11.7643141749
 20
1.2337563494
 30
0.0
 10
-11.7639126938
 20
1.2401143504
 30
0.0
 10
-11.7635511905
 20
1.245333055
 30
0.0
 10
-11.76314668
 20
1.2475652213
 30
0.0
 10
-11.7628603179
 20
1.2503616422
 30
0.0
 10
-11.7617600505
 20
1.2488679946
 30
0.0
 10
-11.7619352438
 20
1.2466841402
 30
0.0
 10
-11.7615194804
 20
1.2445540385
 30
0.0
 10
-11.7614080702
 20
1.2432196914
 30
0.0
 11
-11.7677374052
 21
1.099060599
 31
0.0
 11
-11.7670034562
 21
1.1406300221
 31
0.0
 11
-11.7662443147
 21
1.1757564574
 31
0.0
 11
-11.7654643077
 21
1.2042619939
 31
0.0
 11
-11.7650678684
 21
1.2159860095
 31
0.0
 11
-11.764667879
 21
1.2259997137
 31
0.0
 11
-11.7642648952
 21
1.2342847493
 31
0.0
 11
-11.7638594748
 21
1.2408244617
 31
0.0
 11
-11.7634521907
 21
1.2456128585
 31
0.0
 11
-11.7630436216
 21
1.2486480655
 31
0.0
 11
-11.7626343463
 21
1.2499282175
 31
0.0
 11
-11.7622249435
 21
1.2494514493
 31
0.0
 11
-11.7618159918
 21
1.2472158957
 31
0.0
 11
-11.7614080702
 21
1.2432196914
 31
0.0
  0
SPLINE
  5
6D4
100
AcDbEntity
  8
RACCORDO
100
AcDbSpline
 62
253
  6
CONTINUOUS
 70
0
 71
3
 72
9
 73
5
 74
3
 42
0.0000001
 43
0.0000001
 44
0.0000000001
 12
0.0138350641
 22
-0.1657009181
 32
0.0
 13
0.0024630234
 23
-0.1662592456
 33
0.0
 40
0.0
 40
0.0
 40
0.0
 40
0.0
 40
0.337147241
 40
1.0
 40
1.0
 40
1.0
 40
1.0
 10
-11.7614080702
 20
1.2432196914
 30
0.0
 10
-11.7598532523
 20
1.2245978223
 30
0.0
 10
-11.7588172476
 20
1.1691312881
 30
0.0
 10
-11.7575484201
 20
1.1137441816
 30
0.0
 10
-11.7570042128
 20
1.0770090484
 30
0.0
 11
-11.7614080702
 21
1.2432196914
 31
0.0
 11
-11.7591282155
 21
1.1872060727
 31
0.0
 11
-11.7570042128
 21
1.0770090484
 31
0.0
  0
LINE
  5
6D5
100
AcDbEntity
  8
RACCORDO
100
AcDbLine
 62
253
  6
CONTINUOUS
 10
-11.7545709901
 20
0.8531442932
 11
-11.7542799566
 21
0.816027036
  0
LINE
  5
6D6
100
AcDbEntity
  8
RACCORDO
100
AcDbLine
 62
253
  6
CONTINUOUS
 10
-11.7542799566
 20
0.816027036
 11
-11.7541611871
 21
0.8
  0
SPLINE
  5
6D7
100
AcDbEntity
  8
0
100
AcDbSpline
 62
7
  6
CONTINUOUS
 70
0
 71
3
 72
8
 73
4
 74
2
 42
0.0000001
 43
0.0000001
 44
0.0000000001
 12
-0.6564715741
 22
0.0
 32
0.0
 13
-0.391247745
 23
0.358440041
 33
0.0
 40
0.0
 40
0.0
 40
0.0
 40
0.0
 40
1.0
 40
1.0
 40
1.0
 40
1.0
 10
-5.1307701325
 20
-9.6747371304
 30
0.0
 10
-5.3495939905
 20
-9.6747371304
 30
0.0
 10
-5.556973957
 20
-9.6067757951
 30
0.0
 10
-5.687389872
 20
-9.4872957815
 30
0.0
 11
-5.1307701325
 21
-9.6747371304
 31
0.0
 11
-5.687389872
 21
-9.4872957815
 31
0.0
  0
SPLINE
  5
6D8
100
AcDbEntity
  8
0
100
AcDbSpline
 62
7
  6
CONTINUOUS
 70
0
 71
3
 72
8
 73
4
 74
2
 42
0.0000001
 43
0.0000001
 44
0.0000000001
 12
-0.3424071529
 22
0.3136949299
 32
0.0
 13
0.0
 23
0.4750555541
 33
0.0
 40
0.0
 40
0.0
 40
0.0
 40
0.0
 40
1.0
 40
1.0
 40
1.0
 40
1.0
 10
-5.687389872
 20
-9.4872957815
 30
0.0
 10
-5.8015255896
 20
-9.3827308048
 30
0.0
 10
-5.8582368725
 20
-9.2318789865
 30
0.0
 10
-5.8582368725
 20
-9.0735271351
 30
0.0
 11
-5.687389872
 21
-9.4872957815
 31
0.0
 11
-5.8582368725
 21
-9.0735271351
 31
0.0
  0
SPLINE
  5
6D9
100
AcDbEntity
  8
0
100
AcDbSpline
 62
7
  6
CONTINUOUS
 70
0
 71
3
 72
8
 73
4
 74
2
 42
0.0000001
 43
0.0000001
 44
0.0000000001
 12
0.0
 22
0.4755847106
 32
0.0
 13
0.3420785215
 23
0.3133559058
 33
0.0
 40
0.0
 40
0.0
 40
0.0
 40
0.0
 40
1.0
 40
1.0
 40
1.0
 40
1.0
 10
-5.8582368725
 20
-9.0735271351
 30
0.0
 10
-5.8582368725
 20
-8.9149988983
 30
0.0
 10
-5.8014160458
 20
-8.7622349397
 30
0.0
 10
-5.687389872
 20
-8.6577829711
 30
0.0
 11
-5.8582368725
 21
-9.0735271351
 31
0.0
 11
-5.687389872
 21
-8.6577829711
 31
0.0
  0
SPLINE
  5
6DA
100
AcDbEntity
  8
0
100
AcDbSpline
 62
7
  6
CONTINUOUS
 70
0
 71
3
 72
8
 73
4
 74
2
 42
0.0000001
 43
0.0000001
 44
0.0000000001
 12
0.3912746365
 22
0.35842127
 32
0.0
 13
0.6564715741
 23
0.0
 33
0.0
 40
0.0
 40
0.0
 40
0.0
 40
0.0
 40
1.0
 40
1.0
 40
1.0
 40
1.0
 10
-5.687389872
 20
-8.6577829711
 30
0.0
 10
-5.5569649932
 20
-8.5383092144
 30
0.0
 10
-5.3495939905
 20
-8.4703380945
 30
0.0
 10
-5.1307701325
 20
-8.4703380945
 30
0.0
 11
-5.687389872
 21
-8.6577829711
 31
0.0
 11
-5.1307701325
 21
-8.4703380945
 31
0.0
  0
SPLINE
  5
6DB
100
AcDbEntity
  8
0
100
AcDbSpline
 62
7
  6
CONTINUOUS
 70
0
 71
3
 72
8
 73
4
 74
2
 42
0.0000001
 43
0.0000001
 44
0.0000000001
 12
0.6565033235
 22
0.0
 32
0.0
 13
0.3912689113
 23
-0.3584506241
 33
0.0
 40
0.0
 40
0.0
 40
0.0
 40
0.0
 40
1.0
 40
1.0
 40
1.0
 40
1.0
 10
-5.1307701325
 20
-8.4703380945
 30
0.0
 10
-4.9119356913
 20
-8.4703380945
 30
0.0
 10
-4.7045627803
 20
-8.5382994297
 30
0.0
 10
-4.5741398099
 20
-8.6577829711
 30
0.0
 11
-5.1307701325
 21
-8.4703380945
 31
0.0
 11
-4.5741398099
 21
-8.6577829711
 31
0.0
  0
SPLINE
  5
6DC
100
AcDbEntity
  8
0
100
AcDbSpline
 62
7
  6
CONTINUOUS
 70
0
 71
3
 72
8
 73
4
 74
2
 42
0.0000001
 43
0.0000001
 44
0.0000000001
 12
0.3420679384
 22
-0.3133559058
 32
0.0
 13
0.0
 23
-0.4755847106
 33
0.0
 40
0.0
 40
0.0
 40
0.0
 40
0.0
 40
1.0
 40
1.0
 40
1.0
 40
1.0
 10
-4.5741398099
 20
-8.6577829711
 30
0.0
 10
-4.4601171637
 20
-8.7622349397
 30
0.0
 10
-4.4032928093
 20
-8.9149988983
 30
0.0
 10
-4.4032928093
 20
-9.0735271351
 30
0.0
 11
-4.5741398099
 21
-8.6577829711
 31
0.0
 11
-4.4032928093
 21
-9.0735271351
 31
0.0
  0
SPLINE
  5
6DD
100
AcDbEntity
  8
0
100
AcDbSpline
 62
7
  6
CONTINUOUS
 70
0
 71
3
 72
8
 73
4
 74
2
 42
0.0000001
 43
0.0000001
 44
0.0000000001
 12
0.0
 22
-0.4750555541
 32
0.0
 13
-0.3424065986
 23
-0.3136839829
 33
0.0
 40
0.0
 40
0.0
 40
0.0
 40
0.0
 40
1.0
 40
1.0
 40
1.0
 40
1.0
 10
-4.4032928093
 20
-9.0735271351
 30
0.0
 10
-4.4032928093
 20
-9.2318789865
 30
0.0
 10
-4.460004277
 20
-9.3827344539
 30
0.0
 10
-4.5741398099
 20
-9.4872957815
 30
0.0
 11
-4.4032928093
 21
-9.0735271351
 31
0.0
 11
-4.5741398099
 21
-9.4872957815
 31
0.0
  0
SPLINE
  5
6DE
100
AcDbEntity
  8
0
100
AcDbSpline
 62
7
  6
CONTINUOUS
 70
0
 71
3
 72
8
 73
4
 74
2
 42
0.0000001
 43
0.0000001
 44
0.0000000001
 12
-0.3912651943
 22
-0.3584440984
 32
0.0
 13
-0.6565033235
 23
0.0
 33
0.0
 40
0.0
 40
0.0
 40
0.0
 40
0.0
 40
1.0
 40
1.0
 40
1.0
 40
1.0
 10
-4.5741398099
 20
-9.4872957815
 30
0.0
 10
-4.7045615413
 20
-9.6067771476
 30
0.0
 10
-4.9119356913
 20
-9.6747371304
 30
0.0
 10
-5.1307701325
 20
-9.6747371304
 30
0.0
 11
-4.5741398099
 21
-9.4872957815
 31
0.0
 11
-5.1307701325
 21
-9.6747371304
 31
0.0
  0
SPLINE
  5
6DF
100
AcDbEntity
  8
0
100
AcDbSpline
 62
7
  6
CONTINUOUS
 70
0
 71
3
 72
8
 73
4
 74
2
 42
0.0000001
 43
0.0000001
 44
0.0000000001
 12
0.0
 22
-0.8270822181
 32
0.0
 13
0.6260768238
 23
-0.5329770263
 33
0.0
 40
0.0
 40
0.0
 40
0.0
 40
0.0
 40
1.0
 40
1.0
 40
1.0
 40
1.0
 10
-6.1747818283
 20
-9.0725958197
 30
0.0
 10
-6.1747818283
 20
-9.3482898924
 30
0.0
 10
-6.0756955068
 20
-9.6065288554
 30
0.0
 10
-5.8670032322
 20
-9.7841878642
 30
0.0
 11
-6.1747818283
 21
-9.0725958197
 31
0.0
 11
-5.8670032322
 21
-9.7841878642
 31
0.0
  0
SPLINE
  5
6E0
100
AcDbEntity
  8
0
100
AcDbSpline
 62
7
  6
CONTINUOUS
 70
0
 71
3
 72
8
 73
4
 74
2
 42
0.0000001
 43
0.0000001
 44
0.0000000001
 12
0.5643065848
 22
-0.4803922363
 32
0.0
 13
0.8123928332
 23
0.0
 33
0.0
 40
0.0
 40
0.0
 40
0.0
 40
0.0
 40
1.0
 40
1.0
 40
1.0
 40
1.0
 10
-5.8670032322
 20
-9.7841878642
 30
0.0
 10
-5.6789010372
 20
-9.9443186097
 30
0.0
 10
-5.4013737195
 20
-10.0340308772
 30
0.0
 10
-5.1305761084
 20
-10.0340308772
 30
0.0
 11
-5.8670032322
 21
-9.7841878642
 31
0.0
 11
-5.1305761084
 21
-10.0340308772
 31
0.0
  0
SPLINE
  5
6E1
100
AcDbEntity
  8
0
100
AcDbSpline
 62
7
  6
CONTINUOUS
 70
0
 71
3
 72
8
 73
4
 74
2
 42
0.0000001
 43
0.0000001
 44
0.0000000001
 12
0.8124245826
 22
0.0
 32
0.0
 13
0.564292509
 23
0.4804212011
 33
0.0
 40
0.0
 40
0.0
 40
0.0
 40
0.0
 40
1.0
 40
1.0
 40
1.0
 40
1.0
 10
-5.1305761084
 20
-10.0340308772
 30
0.0
 10
-4.8597679142
 20
-10.0340308772
 30
0.0
 10
-4.58224296
 20
-9.9443282646
 30
0.0
 10
-4.394145457
 20
-9.7841878642
 30
0.0
 11
-5.1305761084
 21
-10.0340308772
 31
0.0
 11
-4.394145457
 21
-9.7841878642
 31
0.0
  0
SPLINE
  5
6E2
100
AcDbEntity
  8
0
100
AcDbSpline
 62
7
  6
CONTINUOUS
 70
0
 71
3
 72
8
 73
4
 74
2
 42
0.0000001
 43
0.0000001
 44
0.0000000001
 12
0.6260648471
 22
0.5330122606
 32
0.0
 13
0.0
 23
0.8271033844
 33
0.0
 40
0.0
 40
0.0
 40
0.0
 40
0.0
 40
1.0
 40
1.0
 40
1.0
 40
1.0
 10
-4.394145457
 20
-9.7841878642
 30
0.0
 10
-4.1854571746
 20
-9.6065171107
 30
0.0
 10
-4.0863703886
 20
-9.3482969478
 30
0.0
 10
-4.0863703886
 20
-9.0725958197
 30
0.0
 11
-4.394145457
 21
-9.7841878642
 31
0.0
 11
-4.0863703886
 21
-9.0725958197
 31
0.0
  0
SPLINE
  5
6E3
100
AcDbEntity
  8
0
100
AcDbSpline
 62
7
  6
CONTINUOUS
 70
0
 71
3
 72
8
 73
4
 74
2
 42
0.0000001
 43
0.0000001
 44
0.0000000001
 12
0.0
 22
0.8270822181
 32
0.0
 13
-0.6260979901
 23
0.5330193589
 33
0.0
 40
0.0
 40
0.0
 40
0.0
 40
0.0
 40
1.0
 40
1.0
 40
1.0
 40
1.0
 10
-4.0863703886
 20
-9.0725958197
 30
0.0
 10
-4.0863703886
 20
-8.796901747
 30
0.0
 10
-4.185446127
 20
-8.5385710634
 30
0.0
 10
-4.394145457
 20
-8.3608979438
 30
0.0
 11
-4.0863703886
 21
-9.0725958197
 31
0.0
 11
-4.394145457
 21
-8.3608979438
 31
0.0
  0
SPLINE
  5
6E4
100
AcDbEntity
  8
0
100
AcDbSpline
 62
7
  6
CONTINUOUS
 70
0
 71
3
 72
8
 73
4
 74
2
 42
0.0000001
 43
0.0000001
 44
0.0000000001
 12
-0.5642713427
 22
0.480410618
 32
0.0
 13
-0.8123928332
 23
0.0
 33
0.0
 40
0.0
 40
0.0
 40
0.0
 40
0.0
 40
1.0
 40
1.0
 40
1.0
 40
1.0
 10
-4.394145457
 20
-8.3608979438
 30
0.0
 10
-4.5822359046
 20
-8.2007610711
 30
0.0
 10
-4.8597784974
 20
-8.1110443476
 30
0.0
 10
-5.1305761084
 20
-8.1110443476
 30
0.0
 11
-4.394145457
 21
-8.3608979438
 31
0.0
 11
-5.1305761084
 21
-8.1110443476
 31
0.0
  0
SPLINE
  5
6E5
100
AcDbEntity
  8
0
100
AcDbSpline
 62
7
  6
CONTINUOUS
 70
0
 71
3
 72
8
 73
4
 74
2
 42
0.0000001
 43
0.0000001
 44
0.0000000001
 12
-0.812371667
 22
0.0
 32
0.0
 13
-0.5642501765
 23
-0.480410618
 33
0.0
 40
0.0
 40
0.0
 40
0.0
 40
0.0
 40
1.0
 40
1.0
 40
1.0
 40
1.0
 10
-5.1305761084
 20
-8.1110443476
 30
0.0
 10
-5.4013666641
 20
-8.1110443476
 30
0.0
 10
-5.67891984
 20
-8.2007610711
 30
0.0
 10
-5.8670032322
 20
-8.3608979438
 30
0.0
 11
-5.1305761084
 21
-8.1110443476
 31
0.0
 11
-5.8670032322
 21
-8.3608979438
 31
0.0
  0
SPLINE
  5
6E6
100
AcDbEntity
  8
0
100
AcDbSpline
 62
7
  6
CONTINUOUS
 70
0
 71
3
 72
8
 73
4
 74
2
 42
0.0000001
 43
0.0000001
 44
0.0000000001
 12
-0.6260631764
 22
-0.5330390845
 32
0.0
 13
0.0
 23
-0.8270610518
 33
0.0
 40
0.0
 40
0.0
 40
0.0
 40
0.0
 40
1.0
 40
1.0
 40
1.0
 40
1.0
 10
-5.8670032322
 20
-8.3608979438
 30
0.0
 10
-6.0756909576
 20
-8.5385776386
 30
0.0
 10
-6.1747818283
 20
-8.7969088024
 30
0.0
 10
-6.1747818283
 20
-9.0725958197
 30
0.0
 11
-5.8670032322
 21
-8.3608979438
 31
0.0
 11
-6.1747818283
 21
-9.0725958197
 31
0.0
  0
SPLINE
  5
6E7
100
AcDbEntity
  8
RACCORDO
100
AcDbSpline
 62
7
  6
CONTINUOUS
 70
0
 71
3
 72
23
 73
19
 74
17
 42
0.0000001
 43
0.0000001
 44
0.0000000001
 12
0.005515625
 22
-1.9889271056
 32
0.0
 13
0.005515625
 23
1.9889271056
 33
0.0
 40
0.0
 40
0.0
 40
0.0
 40
0.0
 40
0.062124251
 40
0.1243041712
 40
0.1865884446
 40
0.2490100511
 40
0.3115822427
 40
0.3742954475
 40
0.4371178959
 40
0.5
 40
0.5628821041
 40
0.6257045525
 40
0.6884177573
 40
0.7509899489
 40
0.8134115554
 40
0.8756958288
 40
0.937875749
 40
1.0
 40
1.0
 40
1.0
 40
1.0
 10
-15.9590860623
 20
15.5946985136
 30
0.0
 10
-15.9589718442
 20
15.5535116447
 30
0.0
 10
-15.9507133801
 20
15.4709003704
 30
0.0
 10
-15.9146572811
 20
15.3517897907
 30
0.0
 10
-15.8561530916
 20
15.2416695003
 30
0.0
 10
-15.7772336567
 20
15.1447931172
 30
0.0
 10
-15.6807334183
 20
15.0649498317
 30
0.0
 10
-15.5702442136
 20
15.0053856778
 30
0.0
 10
-15.4500142121
 20
14.9685927244
 30
0.0
 10
-15.3247818283
 20
14.9561481555
 30
0.0
 10
-15.1995494445
 20
14.9685927244
 30
0.0
 10
-15.079319443
 20
15.0053856778
 30
0.0
 10
-14.9688302383
 20
15.0649498317
 30
0.0
 10
-14.8723299999
 20
15.1447931172
 30
0.0
 10
-14.7934105651
 20
15.2416695003
 30
0.0
 10
-14.7349063755
 20
15.3517897907
 30
0.0
 10
-14.6988502765
 20
15.4709003704
 30
0.0
 10
-14.6905918124
 20
15.5535116447
 30
0.0
 10
-14.6904775943
 20
15.5946985136
 30
0.0
 11
-15.9590860623
 21
15.5946985136
 31
0.0
 11
-15.9467801308
 21
15.4717517568
 31
0.0
 11
-15.9109557073
 21
15.3533823104
 31
0.0
 11
-15.8528254049
 21
15.2439886965
 31
0.0
 11
-15.7744074222
 21
15.1477366113
 31
0.0
 11
-15.6785161226
 21
15.0684071681
 31
0.0
 11
-15.5687189891
 21
15.0092228867
 31
0.0
 11
-15.4492374137
 21
14.9726634365
 31
0.0
 11
-15.3247818283
 21
14.9602976573
 31
0.0
 11
-15.2003262429
 21
14.9726634365
 31
0.0
 11
-15.0808446675
 21
15.0092228867
 31
0.0
 11
-14.971047534
 21
15.0684071681
 31
0.0
 11
-14.8751562344
 21
15.1477366113
 31
0.0
 11
-14.7967382518
 21
15.2439886965
 31
0.0
 11
-14.7386079493
 21
15.3533823104
 31
0.0
 11
-14.7027835258
 21
15.4717517568
 31
0.0
 11
-14.6904775943
 21
15.5946985136
 31
0.0
  0
SPLINE
  5
6E8
100
AcDbEntity
  8
RACCORDO
100
AcDbSpline
 62
7
  6
CONTINUOUS
 70
0
 71
3
 72
23
 73
19
 74
17
 42
0.0000001
 43
0.0000001
 44
0.0000000001
 12
0.005515625
 22
-1.9889271056
 32
0.0
 13
0.005515625
 23
1.9889271056
 33
0.0
 40
0.0
 40
0.0
 40
0.0
 40
0.0
 40
0.062124251
 40
0.1243041712
 40
0.1865884446
 40
0.2490100511
 40
0.3115822427
 40
0.3742954475
 40
0.4371178959
 40
0.5
 40
0.5628821041
 40
0.6257045525
 40
0.6884177573
 40
0.7509899489
 40
0.8134115554
 40
0.8756958288
 40
0.937875749
 40
1.0
 40
1.0
 40
1.0
 40
1.0
 10
-7.6590860623
 20
15.5946985136
 30
0.0
 10
-7.6589718442
 20
15.5535116447
 30
0.0
 10
-7.6507133801
 20
15.4709003704
 30
0.0
 10
-7.6146572811
 20
15.3517897907
 30
0.0
 10
-7.5561530916
 20
15.2416695003
 30
0.0
 10
-7.4772336567
 20
15.1447931172
 30
0.0
 10
-7.3807334183
 20
15.0649498317
 30
0.0
 10
-7.2702442136
 20
15.0053856778
 30
0.0
 10
-7.1500142121
 20
14.9685927244
 30
0.0
 10
-7.0247818283
 20
14.9561481555
 30
0.0
 10
-6.8995494445
 20
14.9685927244
 30
0.0
 10
-6.779319443
 20
15.0053856778
 30
0.0
 10
-6.6688302383
 20
15.0649498317
 30
0.0
 10
-6.5723299999
 20
15.1447931172
 30
0.0
 10
-6.4934105651
 20
15.2416695003
 30
0.0
 10
-6.4349063755
 20
15.3517897907
 30
0.0
 10
-6.3988502765
 20
15.4709003704
 30
0.0
 10
-6.3905918124
 20
15.5535116447
 30
0.0
 10
-6.3904775943
 20
15.5946985136
 30
0.0
 11
-7.6590860623
 21
15.5946985136
 31
0.0
 11
-7.6467801308
 21
15.4717517568
 31
0.0
 11
-7.6109557073
 21
15.3533823104
 31
0.0
 11
-7.5528254049
 21
15.2439886965
 31
0.0
 11
-7.4744074222
 21
15.1477366113
 31
0.0
 11
-7.3785161226
 21
15.0684071681
 31
0.0
 11
-7.2687189891
 21
15.0092228867
 31
0.0
 11
-7.1492374137
 21
14.9726634365
 31
0.0
 11
-7.0247818283
 21
14.9602976573
 31
0.0
 11
-6.9003262429
 21
14.9726634365
 31
0.0
 11
-6.7808446675
 21
15.0092228867
 31
0.0
 11
-6.671047534
 21
15.0684071681
 31
0.0
 11
-6.5751562344
 21
15.1477366113
 31
0.0
 11
-6.4967382518
 21
15.2439886965
 31
0.0
 11
-6.4386079493
 21
15.3533823104
 31
0.0
 11
-6.4027835258
 21
15.4717517568
 31
0.0
 11
-6.3904775943
 21
15.5946985136
 31
0.0
  0
SPLINE
  5
6E9
100
AcDbEntity
  8
RACCORDO
100
AcDbSpline
 62
7
  6
CONTINUOUS
 70
0
 71
3
 72
23
 73
19
 74
17
 42
0.0000001
 43
0.0000001
 44
0.0000000001
 12
0.005515625
 22
1.9889271056
 32
0.0
 13
0.005515625
 23
-1.9889271056
 33
0.0
 40
0.0
 40
0.0
 40
0.0
 40
0.0
 40
0.062124251
 40
0.1243041712
 40
0.1865884446
 40
0.2490100511
 40
0.3115822427
 40
0.3742954475
 40
0.4371178959
 40
0.5
 40
0.5628821041
 40
0.6257045525
 40
0.6884177573
 40
0.7509899489
 40
0.8134115554
 40
0.8756958288
 40
0.937875749
 40
1.0
 40
1.0
 40
1.0
 40
1.0
 10
-15.9590860623
 20
-15.5946985136
 30
0.0
 10
-15.9589718442
 20
-15.5535116447
 30
0.0
 10
-15.9507133801
 20
-15.4709003704
 30
0.0
 10
-15.9146572811
 20
-15.3517897907
 30
0.0
 10
-15.8561530916
 20
-15.2416695003
 30
0.0
 10
-15.7772336567
 20
-15.1447931172
 30
0.0
 10
-15.6807334183
 20
-15.0649498317
 30
0.0
 10
-15.5702442136
 20
-15.0053856778
 30
0.0
 10
-15.4500142121
 20
-14.9685927244
 30
0.0
 10
-15.3247818283
 20
-14.9561481555
 30
0.0
 10
-15.1995494445
 20
-14.9685927244
 30
0.0
 10
-15.079319443
 20
-15.0053856778
 30
0.0
 10
-14.9688302383
 20
-15.0649498317
 30
0.0
 10
-14.8723299999
 20
-15.1447931172
 30
0.0
 10
-14.7934105651
 20
-15.2416695003
 30
0.0
 10
-14.7349063755
 20
-15.3517897907
 30
0.0
 10
-14.6988502765
 20
-15.4709003704
 30
0.0
 10
-14.6905918124
 20
-15.5535116447
 30
0.0
 10
-14.6904775943
 20
-15.5946985136
 30
0.0
 11
-15.9590860623
 21
-15.5946985136
 31
0.0
 11
-15.9467801308
 21
-15.4717517568
 31
0.0
 11
-15.9109557073
 21
-15.3533823104
 31
0.0
 11
-15.8528254049
 21
-15.2439886965
 31
0.0
 11
-15.7744074222
 21
-15.1477366113
 31
0.0
 11
-15.6785161226
 21
-15.0684071681
 31
0.0
 11
-15.5687189891
 21
-15.0092228867
 31
0.0
 11
-15.4492374137
 21
-14.9726634365
 31
0.0
 11
-15.3247818283
 21
-14.9602976573
 31
0.0
 11
-15.2003262429
 21
-14.9726634365
 31
0.0
 11
-15.0808446675
 21
-15.0092228867
 31
0.0
 11
-14.971047534
 21
-15.0684071681
 31
0.0
 11
-14.8751562344
 21
-15.1477366113
 31
0.0
 11
-14.7967382518
 21
-15.2439886965
 31
0.0
 11
-14.7386079493
 21
-15.3533823104
 31
0.0
 11
-14.7027835258
 21
-15.4717517568
 31
0.0
 11
-14.6904775943
 21
-15.5946985136
 31
0.0
  0
SPLINE
  5
6EA
100
AcDbEntity
  8
RACCORDO
100
AcDbSpline
 62
7
  6
CONTINUOUS
 70
0
 71
3
 72
23
 73
19
 74
17
 42
0.0000001
 43
0.0000001
 44
0.0000000001
 12
0.005515625
 22
1.9889271056
 32
0.0
 13
0.005515625
 23
-1.9889271056
 33
0.0
 40
0.0
 40
0.0
 40
0.0
 40
0.0
 40
0.062124251
 40
0.1243041712
 40
0.1865884446
 40
0.2490100511
 40
0.3115822427
 40
0.3742954475
 40
0.4371178959
 40
0.5
 40
0.5628821041
 40
0.6257045525
 40
0.6884177573
 40
0.7509899489
 40
0.8134115554
 40
0.8756958288
 40
0.937875749
 40
1.0
 40
1.0
 40
1.0
 40
1.0
 10
-7.6590860623
 20
-15.5946985136
 30
0.0
 10
-7.6589718442
 20
-15.5535116447
 30
0.0
 10
-7.6507133801
 20
-15.4709003704
 30
0.0
 10
-7.6146572811
 20
-15.3517897907
 30
0.0
 10
-7.5561530916
 20
-15.2416695003
 30
0.0
 10
-7.4772336567
 20
-15.1447931172
 30
0.0
 10
-7.3807334183
 20
-15.0649498317
 30
0.0
 10
-7.2702442136
 20
-15.0053856778
 30
0.0
 10
-7.1500142121
 20
-14.9685927244
 30
0.0
 10
-7.0247818283
 20
-14.9561481555
 30
0.0
 10
-6.8995494445
 20
-14.9685927244
 30
0.0
 10
-6.779319443
 20
-15.0053856778
 30
0.0
 10
-6.6688302383
 20
-15.0649498317
 30
0.0
 10
-6.5723299999
 20
-15.1447931172
 30
0.0
 10
-6.4934105651
 20
-15.2416695003
 30
0.0
 10
-6.4349063755
 20
-15.3517897907
 30
0.0
 10
-6.3988502765
 20
-15.4709003704
 30
0.0
 10
-6.3905918124
 20
-15.5535116447
 30
0.0
 10
-6.3904775943
 20
-15.5946985136
 30
0.0
 11
-7.6590860623
 21
-15.5946985136
 31
0.0
 11
-7.6467801308
 21
-15.4717517568
 31
0.0
 11
-7.6109557073
 21
-15.3533823104
 31
0.0
 11
-7.5528254049
 21
-15.2439886965
 31
0.0
 11
-7.4744074222
 21
-15.1477366113
 31
0.0
 11
-7.3785161226
 21
-15.0684071681
 31
0.0
 11
-7.2687189891
 21
-15.0092228867
 31
0.0
 11
-7.1492374137
 21
-14.9726634365
 31
0.0
 11
-7.0247818283
 21
-14.9602976573
 31
0.0
 11
-6.9003262429
 21
-14.9726634365
 31
0.0
 11
-6.7808446675
 21
-15.0092228867
 31
0.0
 11
-6.671047534
 21
-15.0684071681
 31
0.0
 11
-6.5751562344
 21
-15.1477366113
 31
0.0
 11
-6.4967382518
 21
-15.2439886965
 31
0.0
 11
-6.4386079493
 21
-15.3533823104
 31
0.0
 11
-6.4027835258
 21
-15.4717517568
 31
0.0
 11
-6.3904775943
 21
-15.5946985136
 31
0.0
  0
SPLINE
  5
6EB
100
AcDbEntity
  8
RACCORDO
100
AcDbSpline
 62
253
  6
CONTINUOUS
 70
0
 71
3
 72
18
 73
14
 74
12
 42
0.0000001
 43
0.0000001
 44
0.0000000001
 12
0.0014001778
 22
0.2077066521
 32
0.0
 13
0.2077076678
 23
-0.0012403898
 33
0.0
 40
0.0
 40
0.0
 40
0.0
 40
0.0
 40
0.0170215888
 40
0.038352204
 40
0.0662583361
 40
0.1016026597
 40
0.144586636
 40
0.1951031615
 40
0.3173521521
 40
0.4645647517
 40
0.6315713693
 40
0.8122700175
 40
1.0
 40
1.0
 40
1.0
 40
1.0
 10
-12.934539468
 20
13.7512316406
 30
0.0
 10
-12.9345315236
 20
13.7524101397
 30
0.0
 10
-12.9336514208
 20
13.7550649417
 30
0.0
 10
-12.9304277397
 20
13.7584327786
 30
0.0
 10
-12.9255011271
 20
13.7616458317
 30
0.0
 10
-12.9188084081
 20
13.7647390685
 30
0.0
 10
-12.9103880874
 20
13.7677099088
 30
0.0
 10
-12.895988882
 20
13.7717169494
 30
0.0
 10
-12.8742205119
 20
13.7759830055
 30
0.0
 10
-12.8442518167
 20
13.7799523767
 30
0.0
 10
-12.8100956026
 20
13.7828412508
 30
0.0
 10
-12.7730547527
 20
13.7845318826
 30
0.0
 10
-12.7475413556
 20
13.784807255
 30
0.0
 10
-12.7345437033
 20
13.7847296355
 30
0.0
 11
-12.934539468
 21
13.7512316406
 31
0.0
 11
-12.9335561113
 21
13.7546277145
 31
0.0
 11
-12.9306590018
 21
13.757979889
 31
0.0
 11
-12.9258758698
 21
13.7612540521
 31
0.0
 11
-12.9192521775
 21
13.7644199827
 31
0.0
 11
-12.9108529305
 21
13.7674476038
 31
0.0
 11
-12.900757274
 21
13.7703072824
 31
0.0
 11
-12.8758838103
 21
13.775415133
 31
0.0
 11
-12.8455866256
 21
13.7795477152
 31
0.0
 11
-12.8110273037
 21
13.782546386
 31
0.0
 11
-12.7735349452
 21
13.784296089
 31
0.0
 11
-12.7345437033
 21
13.7847296355
 31
0.0
  0
LINE
  5
6EC
100
AcDbEntity
  8
RACCORDO
100
AcDbLine
 62
7
  6
CONTINUOUS
 10
-4.1690396161
 20
19.9942577878
 11
-3.9690472315
 21
19.7942654032
  0
LINE
  5
6ED
100
AcDbEntity
  8
RACCORDO
100
AcDbLine
 62
7
  6
CONTINUOUS
 10
-4.3805240405
 20
19.9942577878
 11
-4.5805164251
 21
19.7942654032
  0
LINE
  5
6EE
100
AcDbEntity
  8
RACCORDO
100
AcDbLine
 62
7
  6
CONTINUOUS
 10
-4.5805164251
 20
20.0942654032
 11
-4.3805240405
 21
20.2942577878
  0
LINE
  5
6EF
100
AcDbEntity
  8
RACCORDO
100
AcDbLine
 62
7
  6
CONTINUOUS
 10
-6.5633574561
 20
20.0942882488
 11
-6.7633269951
 21
20.2942577878
  0
SPLINE
  5
6F0
100
AcDbEntity
  8
RACCORDO
100
AcDbSpline
 62
253
  6
CONTINUOUS
 70
0
 71
3
 72
19
 73
15
 74
13
 42
0.0000001
 43
0.0000001
 44
0.0000000001
 12
-0.0000362598
 22
-0.8421863581
 32
0.0
 13
-0.0000363711
 23
0.8421863581
 33
0.0
 40
0.0
 40
0.0
 40
0.0
 40
0.0
 40
0.1247733822
 40
0.2494914641
 40
0.3121248901
 40
0.3747534079
 40
0.4373779755
 40
0.4999999956
 40
0.5626220162
 40
0.6252465843
 40
0.6878751026
 40
0.750508529
 40
0.8752266126
 40
1.0
 40
1.0
 40
1.0
 40
1.0
 10
-6.7633269951
 20
19.0166572575
 30
0.0
 10
-6.7633285032
 20
18.9816297774
 30
0.0
 10
-6.7760712275
 20
18.9109547153
 30
0.0
 10
-6.8229857095
 20
18.8343245815
 30
0.0
 10
-6.8756058452
 20
18.7872794172
 30
0.0
 10
-6.9214997631
 20
18.7605166894
 30
0.0
 10
-6.9719423745
 20
18.7438281944
 30
0.0
 10
-7.0247818316
 20
18.7381482045
 30
0.0
 10
-7.0776212893
 20
18.7438281903
 30
0.0
 10
-7.1280639022
 20
18.7605166825
 30
0.0
 10
-7.1739578213
 20
18.7872794096
 30
0.0
 10
-7.2265779561
 20
18.8343245747
 30
0.0
 10
-7.2734924497
 20
18.9109547083
 30
0.0
 10
-7.2862351488
 20
18.9816297759
 30
0.0
 10
-7.2862366615
 20
19.0166572575
 30
0.0
 11
-6.7633269951
 21
19.0166572575
 31
0.0
 11
-6.7822661786
 21
18.9132956272
 31
0.0
 11
-6.8373146943
 21
18.8238406423
 31
0.0
 11
-6.8766643811
 21
18.7887114388
 31
0.0
 11
-6.922259374
 21
18.7621950411
 31
0.0
 11
-6.9723428425
 21
18.7456627098
 31
0.0
 11
-7.0247818315
 21
18.7400415081
 31
0.0
 11
-7.0772208214
 21
18.7456627059
 31
0.0
 11
-7.1273042912
 21
18.7621950345
 31
0.0
 11
-7.1728992851
 21
18.7887114314
 31
0.0
 11
-7.2122489722
 21
18.8238406351
 31
0.0
 11
-7.2672974896
 21
18.9132956206
 31
0.0
 11
-7.2862366615
 21
19.0166572575
 31
0.0
  0
SPLINE
  5
6F1
100
AcDbEntity
  8
RACCORDO
100
AcDbSpline
 62
253
  6
CONTINUOUS
 70
0
 71
3
 72
23
 73
19
 74
17
 42
0.0000001
 43
0.0000001
 44
0.0000000001
 12
-0.0035743635
 22
-1.4516896996
 32
0.0
 13
-0.0035743923
 23
1.4516896996
 33
0.0
 40
0.0
 40
0.0
 40
0.0
 40
0.0
 40
0.062210466
 40
0.1244617472
 40
0.186795864
 40
0.2492357899
 40
0.3117916219
 40
0.374456171
 40
0.4372050889
 40
0.4999999984
 40
0.5627949075
 40
0.6255438248
 40
0.6882083739
 40
0.7507642064
 40
0.8132041338
 40
0.8755382525
 40
0.937789528
 40
1.0
 40
1.0
 40
1.0
 40
1.0
 10
-6.5633577679
 20
19.0166572575
 30
0.0
 10
-6.5634318888
 20
18.9865538266
 30
0.0
 10
-6.5694003977
 20
18.9261807387
 30
0.0
 10
-6.5955305651
 20
18.8390894526
 30
0.0
 10
-6.637971279
 20
18.7585056335
 30
0.0
 10
-6.6952911278
 20
18.6875379382
 30
0.0
 10
-6.7654618211
 20
18.6289774475
 30
0.0
 10
-6.8458947555
 20
18.58524162
 30
0.0
 10
-6.9334944453
 20
18.5582029717
 30
0.0
 10
-7.0247818439
 20
18.5490518797
 30
0.0
 10
-7.1160692454
 20
18.5582029477
 30
0.0
 10
-7.2036689379
 20
18.5852415895
 30
0.0
 10
-7.2841018698
 20
18.6289774225
 30
0.0
 10
-7.3542725563
 20
18.6875379238
 30
0.0
 10
-7.4115923962
 20
18.7585056264
 30
0.0
 10
-7.4540331156
 20
18.8390894452
 30
0.0
 10
-7.4801632333
 20
18.9261807427
 30
0.0
 10
-7.4861318008
 20
18.9865538237
 30
0.0
 10
-7.4862059223
 20
19.0166572575
 30
0.0
 11
-6.5633577679
 21
19.0166572575
 31
0.0
 11
-6.5722570582
 21
18.926786233
 31
0.0
 11
-6.5982263127
 21
18.8402281499
 31
0.0
 11
-6.6404092006
 21
18.7601715657
 31
0.0
 11
-6.6973747959
 21
18.6896648551
 31
0.0
 11
-6.7671081049
 21
18.6314920725
 31
0.0
 11
-6.847033928
 21
18.5880483232
 31
0.0
 11
-6.934077028
 21
18.5611914095
 31
0.0
 11
-7.0247818446
 21
18.5521029846
 31
0.0
 11
-7.1154866627
 21
18.5611913883
 31
0.0
 11
-7.2025297641
 21
18.5880482945
 31
0.0
 11
-7.2824555849
 21
18.6314920481
 31
0.0
 11
-7.3521888874
 21
18.6896648398
 31
0.0
 11
-7.4091544771
 21
18.7601715576
 31
0.0
 11
-7.45133736
 21
18.8402281474
 31
0.0
 11
-7.4773065946
 21
18.926786228
 31
0.0
 11
-7.4862059223
 21
19.0166572575
 31
0.0
  0
SPLINE
  5
6F2
100
AcDbEntity
  8
0
100
AcDbSpline
 62
7
  6
CONTINUOUS
 70
0
 71
3
 72
10
 73
6
 74
4
 42
0.0000001
 43
0.0000001
 44
0.0000000001
 12
-0.3103186344
 22
0.4388568214
 32
0.0
 13
-0.2908027307
 23
0.4520251502
 33
0.0
 40
0.0
 40
0.0
 40
0.0
 40
0.0
 40
0.5094714195
 40
0.7584830929
 40
1.0
 40
1.0
 40
1.0
 40
1.0
 10
-18.7414274825
 20
21.3359869487
 30
0.0
 10
-18.7941269743
 20
21.4105152846
 30
0.0
 10
-18.8726144654
 20
21.5214539873
 30
0.0
 10
-18.9739790497
 20
21.6691892134
 30
0.0
 10
-19.0225146292
 20
21.7424653683
 30
0.0
 10
-19.0459258879
 20
21.7788559404
 30
0.0
 11
-18.7414274825
 21
21.3359869487
 31
0.0
 11
-18.8988429583
 21
21.5600533485
 31
0.0
 11
-18.9744329574
 21
21.6705046238
 31
0.0
 11
-19.0459258879
 21
21.7788559404
 31
0.0
  0
SPLINE
  5
6F3
100
AcDbEntity
  8
0
100
AcDbSpline
 62
7
  6
CONTINUOUS
 70
0
 71
3
 72
10
 73
6
 74
4
 42
0.0000001
 43
0.0000001
 44
0.0000000001
 12
-0.2908027307
 22
-0.4520251502
 32
0.0
 13
-0.3103186344
 23
-0.4388568214
 33
0.0
 40
0.0
 40
0.0
 40
0.0
 40
0.0
 40
0.2415169071
 40
0.4905285805
 40
1.0
 40
1.0
 40
1.0
 40
1.0
 10
-3.3036377687
 20
21.7788559404
 30
0.0
 10
-3.3270490274
 20
21.7424653683
 30
0.0
 10
-3.3755846069
 20
21.6691892134
 30
0.0
 10
-3.4769491912
 20
21.5214539873
 30
0.0
 10
-3.5554366823
 20
21.4105152846
 30
0.0
 10
-3.6081361741
 20
21.3359869487
 30
0.0
 11
-3.3036377687
 21
21.7788559404
 31
0.0
 11
-3.3751306992
 21
21.6705046238
 31
0.0
 11
-3.4507206983
 21
21.5600533485
 31
0.0
 11
-3.6081361741
 21
21.3359869487
 31
0.0
  0
SPLINE
  5
6F4
100
AcDbEntity
  8
0
100
AcDbSpline
 62
7
  6
CONTINUOUS
 70
0
 71
3
 72
10
 73
6
 74
4
 42
0.0000001
 43
0.0000001
 44
0.0000000001
 12
0.3103186344
 22
-0.4388568214
 32
0.0
 13
0.2908027307
 23
-0.4520251502
 33
0.0
 40
0.0
 40
0.0
 40
0.0
 40
0.0
 40
0.5094714195
 40
0.7584830929
 40
1.0
 40
1.0
 40
1.0
 40
1.0
 10
-3.6081361741
 20
-21.3359869487
 30
0.0
 10
-3.5554366823
 20
-21.4105152846
 30
0.0
 10
-3.4769491912
 20
-21.5214539873
 30
0.0
 10
-3.3755846069
 20
-21.6691892134
 30
0.0
 10
-3.3270490274
 20
-21.7424653683
 30
0.0
 10
-3.3036377687
 20
-21.7788559404
 30
0.0
 11
-3.6081361741
 21
-21.3359869487
 31
0.0
 11
-3.4507206983
 21
-21.5600533485
 31
0.0
 11
-3.3751306992
 21
-21.6705046238
 31
0.0
 11
-3.3036377687
 21
-21.7788559404
 31
0.0
  0
SPLINE
  5
6F5
100
AcDbEntity
  8
0
100
AcDbSpline
 62
7
  6
CONTINUOUS
 70
0
 71
3
 72
10
 73
6
 74
4
 42
0.0000001
 43
0.0000001
 44
0.0000000001
 12
0.2908027307
 22
0.4520251502
 32
0.0
 13
0.3103186344
 23
0.4388568214
 33
0.0
 40
0.0
 40
0.0
 40
0.0
 40
0.0
 40
0.2415169071
 40
0.4905285805
 40
1.0
 40
1.0
 40
1.0
 40
1.0
 10
-19.0459258879
 20
-21.7788559404
 30
0.0
 10
-19.0225146292
 20
-21.7424653683
 30
0.0
 10
-18.9739790497
 20
-21.6691892134
 30
0.0
 10
-18.8726144654
 20
-21.5214539873
 30
0.0
 10
-18.7941269743
 20
-21.4105152846
 30
0.0
 10
-18.7414274825
 20
-21.3359869487
 30
0.0
 11
-19.0459258879
 21
-21.7788559404
 31
0.0
 11
-18.9744329574
 21
-21.6705046238
 31
0.0
 11
-18.8988429583
 21
-21.5600533485
 31
0.0
 11
-18.7414274825
 21
-21.3359869487
 31
0.0
  0
LINE
  5
6F6
100
AcDbEntity
  8
RACCORDO
100
AcDbLine
 62
7
  6
CONTINUOUS
 10
-7.4862062005
 20
20.0942882488
 11
-7.2862366615
 21
20.2942577878
  0
SPLINE
  5
6F7
100
AcDbEntity
  8
0
100
AcDbSpline
 62
7
  6
CONTINUOUS
 70
0
 71
3
 72
23
 73
19
 74
17
 42
0.0000001
 43
0.0000001
 44
0.0000000001
 12
0.46454071
 22
-0.4880217841
 32
0.0
 13
0.0392587033
 23
-0.6726232877
 33
0.0
 40
0.0
 40
0.0
 40
0.0
 40
0.0
 40
0.163664415
 40
0.3250385296
 40
0.4814813254
 40
0.5568172515
 40
0.6295216413
 40
0.6989250156
 40
0.7642024601
 40
0.824341369
 40
0.878114499
 40
0.9240780399
 40
0.9436356275
 40
0.9606400715
 40
0.9749007804
 40
0.9862568181
 40
0.9946065954
 40
1.0
 40
1.0
 40
1.0
 40
1.0
 10
-7.2217391184
 20
-23.4563578147
 30
0.0
 10
-7.1963961905
 20
-23.482981748
 30
0.0
 10
-7.1460647841
 20
-23.5358568625
 30
0.0
 10
-7.0715877999
 20
-23.6142563877
 30
0.0
 10
-7.0109160197
 20
-23.6784084789
 30
0.0
 10
-6.9640831255
 20
-23.72823833
 30
0.0
 10
-6.9307374316
 20
-23.7639171991
 30
0.0
 10
-6.8990617434
 20
-23.7980644824
 30
0.0
 10
-6.869470849
 20
-23.830295631
 30
0.0
 10
-6.8424690048
 20
-23.8601375406
 30
0.0
 10
-6.8186658922
 20
-23.8870207399
 30
0.0
 10
-6.8012333637
 20
-23.907370397
 30
0.0
 10
-6.7895043054
 20
-23.9217215301
 30
0.0
 10
-6.7824669395
 20
-23.9307122338
 30
0.0
 10
-6.7768034206
 20
-23.9384248657
 30
0.0
 10
-6.7725700952
 20
-23.9447942731
 30
0.0
 10
-6.7698694589
 20
-23.9497148641
 30
0.0
 10
-6.7687746547
 20
-23.9526830299
 30
0.0
 10
-6.7687040754
 20
-23.9538922731
 30
0.0
 11
-7.2217391184
 21
-23.4563578147
 31
0.0
 11
-7.1457236923
 21
-23.5362423272
 31
0.0
 11
-7.0708546633
 21
-23.6150875061
 31
0.0
 11
-6.9984533671
 21
-23.6916937007
 31
0.0
 11
-6.9636959207
 21
-23.7286854514
 31
0.0
 11
-6.9302540795
 21
-23.7644801561
 31
0.0
 11
-6.8984619491
 21
-23.798771903
 31
0.0
 11
-6.868731129
 21
-23.8311830401
 31
0.0
 11
-6.8415670157
 21
-23.861248882
 31
0.0
 11
-6.8175830247
 21
-23.888404464
 31
0.0
 11
-6.7975037573
 21
-23.9119817272
 31
0.0
 11
-6.7891797
 21
-23.922196946
 31
0.0
 11
-6.7821387019
 21
-23.9312351068
 31
0.0
 11
-6.7764829272
 21
-23.9390025867
 31
0.0
 11
-6.7723068918
 21
-23.9454138
 31
0.0
 11
-6.7696930805
 21
-23.9503955427
 31
0.0
 11
-6.7687040754
 21
-23.9538922731
 31
0.0
  0
SPLINE
  5
6F8
100
AcDbEntity
  8
0
100
AcDbSpline
 62
7
  6
CONTINUOUS
 70
0
 71
3
 72
23
 73
19
 74
17
 42
0.0000001
 43
0.0000001
 44
0.0000000001
 12
0.4647144834
 22
-0.4882043413
 32
0.0
 13
-0.0
 23
-0.6740200516
 33
0.0
 40
0.0
 40
0.0
 40
0.0
 40
0.0
 40
0.1640906894
 40
0.3258706887
 40
0.4826734589
 40
0.5581608052
 40
0.6309889728
 40
0.700479632
 40
0.7657962682
 40
0.8259116722
 40
0.8795809401
 40
0.9253409837
 40
0.9447540241
 40
0.9615834617
 40
0.9756387549
 40
0.9867611716
 40
0.9948562975
 40
1.0
 40
1.0
 40
1.0
 40
1.0
 10
-15.1278245382
 20
-23.4563578147
 30
0.0
 10
-15.1024060983
 20
-23.483061077
 30
0.0
 10
-15.0519269554
 20
-23.5360913891
 30
0.0
 10
-14.9772381213
 20
-23.6147148874
 30
0.0
 10
-14.9164033719
 20
-23.679041974
 30
0.0
 10
-14.869457528
 20
-23.7289966183
 30
0.0
 10
-14.8360463073
 20
-23.7647507233
 30
0.0
 10
-14.8043242812
 20
-23.7989554865
 30
0.0
 10
-14.7747121848
 20
-23.831220793
 30
0.0
 10
-14.7477215595
 20
-23.8610664924
 30
0.0
 10
-14.7239709409
 20
-23.8879147589
 30
0.0
 10
-14.7066134039
 20
-23.908208502
 30
0.0
 10
-14.694974424
 20
-23.9224901924
 30
0.0
 10
-14.6880253297
 20
-23.9314063343
 30
0.0
 10
-14.6824664575
 20
-23.9390274298
 30
0.0
 10
-14.6783497652
 20
-23.9452953282
 30
0.0
 10
-14.6757799096
 20
-23.9500925843
 30
0.0
 10
-14.6747818283
 20
-23.9529922912
 30
0.0
 10
-14.6747818283
 20
-23.9541479441
 30
0.0
 11
-15.1278245382
 21
-23.4563578147
 31
0.0
 11
-15.0515826966
 21
-23.5364804293
 31
0.0
 11
-14.9764978854
 21
-23.6155540595
 31
0.0
 11
-14.9039047057
 21
-23.6923670029
 31
0.0
 11
-14.869066144
 21
-23.7294486358
 31
0.0
 11
-14.8355574946
 21
-23.7653201751
 31
0.0
 11
-14.8037174038
 21
-23.7996715363
 31
0.0
 11
-14.7739634151
 21
-23.8321195924
 31
0.0
 11
-14.7468084167
 21
-23.8621927437
 31
0.0
 11
-14.7228749328
 21
-23.8893176104
 31
0.0
 11
-14.7028976857
 21
-23.9128167973
 31
0.0
 11
-14.6946469794
 21
-23.9229724496
 31
0.0
 11
-14.6876954979
 21
-23.9319362177
 31
0.0
 11
-14.6821458724
 21
-23.9396140947
 31
0.0
 11
-14.6780926013
 21
-23.9459205978
 31
0.0
 11
-14.6756175531
 21
-23.9507832203
 31
0.0
 11
-14.6747818283
 21
-23.9541479441
 31
0.0
  0
LINE
  5
6F9
100
AcDbEntity
  8
RACCORDO
100
AcDbLine
 62
7
  6
CONTINUOUS
 10
-15.7862062005
 20
20.0942882488
 11
-15.5862366615
 21
20.2942577878
  0
SPLINE
  5
6FA
100
AcDbEntity
  8
0
100
AcDbSpline
 62
7
  6
CONTINUOUS
 70
0
 71
3
 72
23
 73
19
 74
17
 42
0.0000001
 43
0.0000001
 44
0.0000000001
 12
0.0392587033
 22
0.6726232875
 32
0.0
 13
0.4645407098
 23
0.488021784
 33
0.0
 40
0.0
 40
0.0
 40
0.0
 40
0.0
 40
0.0053934099
 40
0.0137431924
 40
0.0250992416
 40
0.0393599555
 40
0.0563644072
 40
0.0759219962
 40
0.1218855331
 40
0.1756586533
 40
0.2357975537
 40
0.3010749936
 40
0.3704783702
 40
0.443182767
 40
0.5185186995
 40
0.6749614672
 40
0.836335548
 40
1.0
 40
1.0
 40
1.0
 40
1.0
 10
-15.5808595813
 20
-23.9538922731
 30
0.0
 10
-15.5807890018
 20
-23.9526830287
 30
0.0
 10
-15.5796941945
 20
-23.9497148613
 30
0.0
 10
-15.5769935579
 20
-23.9447942652
 30
0.0
 10
-15.5727602278
 20
-23.9384248548
 30
0.0
 10
-15.567096706
 20
-23.9307122184
 30
0.0
 10
-15.5600593371
 20
-23.921721513
 30
0.0
 10
-15.5483302781
 20
-23.907370379
 30
0.0
 10
-15.5308977508
 20
-23.8870207245
 30
0.0
 10
-15.5070946415
 20
-23.8601375291
 30
0.0
 10
-15.4800928006
 20
-23.8302956235
 30
0.0
 10
-15.4505019079
 20
-23.7980644766
 30
0.0
 10
-15.4188262189
 20
-23.7639171926
 30
0.0
 10
-15.3854805227
 20
-23.7282383208
 30
0.0
 10
-15.3386476305
 20
-23.6784084724
 30
0.0
 10
-15.277975859
 20
-23.6142563902
 30
0.0
 10
-15.2034988787
 20
-23.535856869
 30
0.0
 10
-15.1531674718
 20
-23.482981754
 30
0.0
 10
-15.1278245382
 20
-23.4563578147
 30
0.0
 11
-15.5808595813
 21
-23.9538922731
 31
0.0
 11
-15.5798705739
 21
-23.9503955396
 31
0.0
 11
-15.5772567612
 21
-23.9454137936
 31
0.0
 11
-15.5730807208
 21
-23.9390025744
 31
0.0
 11
-15.5674249437
 21
-23.9312350921
 31
0.0
 11
-15.5603839418
 21
-23.9221969276
 31
0.0
 11
-15.5520598837
 21
-23.9119817082
 31
0.0
 11
-15.5319806176
 21
-23.8884044476
 31
0.0
 11
-15.5079966308
 21
-23.8612488708
 31
0.0
 11
-15.4808325212
 21
-23.8311830332
 31
0.0
 11
-15.4511017032
 21
-23.7987718983
 31
0.0
 11
-15.4193095718
 21
-23.7644801503
 31
0.0
 11
-15.3858677273
 21
-23.7286854422
 31
0.0
 11
-15.3511102779
 21
-23.6916936885
 31
0.0
 11
-15.2787089946
 21
-23.6150875077
 31
0.0
 11
-15.2038399815
 21
-23.5362423452
 31
0.0
 11
-15.1278245382
 21
-23.4563578147
 31
0.0
  0
SPLINE
  5
6FB
100
AcDbEntity
  8
RACCORDO
100
AcDbSpline
 62
253
  6
CONTINUOUS
 70
0
 71
3
 72
19
 73
15
 74
13
 42
0.0000001
 43
0.0000001
 44
0.0000000001
 12
-0.0000362598
 22
-0.8421863581
 32
0.0
 13
-0.0000363711
 23
0.8421863581
 33
0.0
 40
0.0
 40
0.0
 40
0.0
 40
0.0
 40
0.1247733822
 40
0.2494914641
 40
0.3121248901
 40
0.3747534079
 40
0.4373779755
 40
0.4999999956
 40
0.5626220162
 40
0.6252465843
 40
0.6878751026
 40
0.750508529
 40
0.8752266126
 40
1.0
 40
1.0
 40
1.0
 40
1.0
 10
-15.0633269951
 20
19.0166572575
 30
0.0
 10
-15.0633285032
 20
18.9816297774
 30
0.0
 10
-15.0760712275
 20
18.9109547153
 30
0.0
 10
-15.1229857095
 20
18.8343245815
 30
0.0
 10
-15.1756058452
 20
18.7872794172
 30
0.0
 10
-15.2214997631
 20
18.7605166894
 30
0.0
 10
-15.2719423745
 20
18.7438281944
 30
0.0
 10
-15.3247818316
 20
18.7381482045
 30
0.0
 10
-15.3776212893
 20
18.7438281903
 30
0.0
 10
-15.4280639022
 20
18.7605166825
 30
0.0
 10
-15.4739578213
 20
18.7872794096
 30
0.0
 10
-15.5265779561
 20
18.8343245747
 30
0.0
 10
-15.5734924497
 20
18.9109547083
 30
0.0
 10
-15.5862351488
 20
18.9816297759
 30
0.0
 10
-15.5862366615
 20
19.0166572575
 30
0.0
 11
-15.0633269951
 21
19.0166572575
 31
0.0
 11
-15.0822661786
 21
18.9132956272
 31
0.0
 11
-15.1373146943
 21
18.8238406423
 31
0.0
 11
-15.1766643811
 21
18.7887114388
 31
0.0
 11
-15.222259374
 21
18.7621950411
 31
0.0
 11
-15.2723428425
 21
18.7456627098
 31
0.0
 11
-15.3247818315
 21
18.7400415081
 31
0.0
 11
-15.3772208214
 21
18.7456627059
 31
0.0
 11
-15.4273042912
 21
18.7621950345
 31
0.0
 11
-15.4728992851
 21
18.7887114314
 31
0.0
 11
-15.5122489722
 21
18.8238406351
 31
0.0
 11
-15.5672974896
 21
18.9132956206
 31
0.0
 11
-15.5862366615
 21
19.0166572575
 31
0.0
  0
SPLINE
  5
6FC
100
AcDbEntity
  8
RACCORDO
100
AcDbSpline
 62
253
  6
CONTINUOUS
 70
0
 71
3
 72
23
 73
19
 74
17
 42
0.0000001
 43
0.0000001
 44
0.0000000001
 12
-0.0035743635
 22
-1.4516896996
 32
0.0
 13
-0.0035743923
 23
1.4516896996
 33
0.0
 40
0.0
 40
0.0
 40
0.0
 40
0.0
 40
0.062210466
 40
0.1244617472
 40
0.186795864
 40
0.2492357899
 40
0.3117916219
 40
0.374456171
 40
0.4372050889
 40
0.4999999984
 40
0.5627949075
 40
0.6255438248
 40
0.6882083739
 40
0.7507642064
 40
0.8132041338
 40
0.8755382525
 40
0.937789528
 40
1.0
 40
1.0
 40
1.0
 40
1.0
 10
-14.8633577679
 20
19.0166572575
 30
0.0
 10
-14.8634318888
 20
18.9865538266
 30
0.0
 10
-14.8694003977
 20
18.9261807387
 30
0.0
 10
-14.8955305651
 20
18.8390894526
 30
0.0
 10
-14.937971279
 20
18.7585056335
 30
0.0
 10
-14.9952911278
 20
18.6875379382
 30
0.0
 10
-15.0654618211
 20
18.6289774475
 30
0.0
 10
-15.1458947555
 20
18.58524162
 30
0.0
 10
-15.2334944453
 20
18.5582029717
 30
0.0
 10
-15.3247818439
 20
18.5490518797
 30
0.0
 10
-15.4160692454
 20
18.5582029477
 30
0.0
 10
-15.5036689379
 20
18.5852415895
 30
0.0
 10
-15.5841018698
 20
18.6289774225
 30
0.0
 10
-15.6542725563
 20
18.6875379238
 30
0.0
 10
-15.7115923962
 20
18.7585056264
 30
0.0
 10
-15.7540331156
 20
18.8390894452
 30
0.0
 10
-15.7801632333
 20
18.9261807427
 30
0.0
 10
-15.7861318008
 20
18.9865538237
 30
0.0
 10
-15.7862059223
 20
19.0166572575
 30
0.0
 11
-14.8633577679
 21
19.0166572575
 31
0.0
 11
-14.8722570582
 21
18.926786233
 31
0.0
 11
-14.8982263127
 21
18.8402281499
 31
0.0
 11
-14.9404092006
 21
18.7601715657
 31
0.0
 11
-14.9973747959
 21
18.6896648551
 31
0.0
 11
-15.0671081049
 21
18.6314920725
 31
0.0
 11
-15.147033928
 21
18.5880483232
 31
0.0
 11
-15.234077028
 21
18.5611914095
 31
0.0
 11
-15.3247818446
 21
18.5521029846
 31
0.0
 11
-15.4154866627
 21
18.5611913883
 31
0.0
 11
-15.5025297641
 21
18.5880482945
 31
0.0
 11
-15.5824555849
 21
18.6314920481
 31
0.0
 11
-15.6521888874
 21
18.6896648398
 31
0.0
 11
-15.7091544771
 21
18.7601715576
 31
0.0
 11
-15.75133736
 21
18.8402281474
 31
0.0
 11
-15.7773065946
 21
18.926786228
 31
0.0
 11
-15.7862059223
 21
19.0166572575
 31
0.0
  0
LINE
  5
6FD
100
AcDbEntity
  8
RACCORDO
100
AcDbLine
 62
7
  6
CONTINUOUS
 10
-14.8633574561
 20
20.0942882488
 11
-15.0633269951
 21
20.2942577878
  0
LINE
  5
6FE
100
AcDbEntity
  8
RACCORDO
100
AcDbLine
 62
7
  6
CONTINUOUS
 10
-17.9690396161
 20
20.2942577878
 11
-17.7690472315
 21
20.0942654032
  0
LINE
  5
6FF
100
AcDbEntity
  8
RACCORDO
100
AcDbLine
 62
7
  6
CONTINUOUS
 10
-17.9690396161
 20
19.9942577878
 11
-17.7690472315
 21
19.7942654032
  0
LINE
  5
700
100
AcDbEntity
  8
RACCORDO
100
AcDbLine
 62
7
  6
CONTINUOUS
 10
-18.1805240405
 20
19.9942577878
 11
-18.3805164251
 21
19.7942654032
  0
LINE
  5
701
100
AcDbEntity
  8
RACCORDO
100
AcDbLine
 62
7
  6
CONTINUOUS
 10
-18.1805240405
 20
-19.9942577878
 11
-18.3805164251
 21
-19.7942654032
  0
SPLINE
  5
702
100
AcDbEntity
  8
0
100
AcDbSpline
 62
253
  6
CONTINUOUS
 70
0
 71
3
 72
13
 73
9
 74
7
 42
0.0000001
 43
0.0000001
 44
0.0000000001
 12
-0.0012265944
 22
-0.3651869708
 32
0.0
 13
-0.3651878719
 23
-0.0009199792
 33
0.0
 40
0.0
 40
0.0
 40
0.0
 40
0.0
 40
0.1162394861
 40
0.2339784844
 40
0.3543712552
 40
0.4780982232
 40
0.7345378384
 40
1.0
 40
1.0
 40
1.0
 40
1.0
 10
-1.0291536623
 20
23.8443375673
 30
0.0
 10
-1.0292011885
 20
23.830187852
 30
0.0
 10
-1.032559723
 20
23.8016148352
 30
0.0
 10
-1.0471163087
 20
23.7606544996
 30
0.0
 10
-1.0705871807
 20
23.7229827179
 30
0.0
 10
-1.1128899045
 20
23.6786209833
 30
0.0
 10
-1.1828161726
 20
23.6387868014
 30
0.0
 10
-1.2468349109
 20
23.6279126229
 30
0.0
 10
-1.2791494315
 20
23.6278312164
 30
0.0
 11
-1.0291536623
 21
23.8443375673
 31
0.0
 11
-1.03408139
 21
23.8021751692
 31
0.0
 11
-1.0483918917
 21
23.7616295068
 31
0.0
 11
-1.071537558
 21
23.7242490603
 31
0.0
 11
-1.1026324579
 21
23.6914667969
 31
0.0
 11
-1.1836480057
 21
23.6444922937
 31
0.0
 11
-1.2791494315
 21
23.6278312164
 31
0.0
  0
SPLINE
  5
703
100
AcDbEntity
  8
0
100
AcDbSpline
 62
253
  6
CONTINUOUS
 70
0
 71
3
 72
13
 73
9
 74
7
 42
0.0000001
 43
0.0000001
 44
0.0000000001
 12
0.0012265944
 22
-0.3651869708
 32
0.0
 13
0.3651878719
 23
-0.0009199792
 33
0.0
 40
0.0
 40
0.0
 40
0.0
 40
0.0
 40
0.1162394861
 40
0.2339784844
 40
0.3543712552
 40
0.4780982232
 40
0.7345378384
 40
1.0
 40
1.0
 40
1.0
 40
1.0
 10
-3.9204099943
 20
23.8443375673
 30
0.0
 10
-3.9203624681
 20
23.830187852
 30
0.0
 10
-3.9170039336
 20
23.8016148352
 30
0.0
 10
-3.9024473479
 20
23.7606544996
 30
0.0
 10
-3.8789764759
 20
23.7229827179
 30
0.0
 10
-3.8366737521
 20
23.6786209833
 30
0.0
 10
-3.766747484
 20
23.6387868014
 30
0.0
 10
-3.7027287457
 20
23.6279126229
 30
0.0
 10
-3.6704142251
 20
23.6278312164
 30
0.0
 11
-3.9204099943
 21
23.8443375673
 31
0.0
 11
-3.9154822666
 21
23.8021751692
 31
0.0
 11
-3.9011717649
 21
23.7616295068
 31
0.0
 11
-3.8780260986
 21
23.7242490603
 31
0.0
 11
-3.8469311987
 21
23.6914667969
 31
0.0
 11
-3.7659156509
 21
23.6444922937
 31
0.0
 11
-3.6704142251
 21
23.6278312164
 31
0.0
  0
LINE
  5
704
100
AcDbEntity
  8
RACCORDO
100
AcDbLine
 62
7
  6
CONTINUOUS
 10
-17.9690396161
 20
-19.9942577878
 11
-17.7690472315
 21
-19.7942654032
  0
LINE
  5
705
100
AcDbEntity
  8
RACCORDO
100
AcDbLine
 62
7
  6
CONTINUOUS
 10
-17.9690396161
 20
-20.2942577878
 11
-17.7690472315
 21
-20.0942654032
  0
LINE
  5
706
100
AcDbEntity
  8
RACCORDO
100
AcDbLine
 62
7
  6
CONTINUOUS
 10
-15.7862062005
 20
-20.0942882488
 11
-15.5862366615
 21
-20.2942577878
  0
SPLINE
  5
707
100
AcDbEntity
  8
0
100
AcDbSpline
 62
253
  6
CONTINUOUS
 70
0
 71
3
 72
13
 73
9
 74
7
 42
0.0000001
 43
0.0000001
 44
0.0000000001
 12
-0.0012265944
 22
-0.3651869708
 32
0.0
 13
-0.3651878719
 23
-0.0009199792
 33
0.0
 40
0.0
 40
0.0
 40
0.0
 40
0.0
 40
0.1162394861
 40
0.2339784844
 40
0.3543712552
 40
0.4780982232
 40
0.7345378384
 40
1.0
 40
1.0
 40
1.0
 40
1.0
 10
-18.4291536623
 20
23.8443375673
 30
0.0
 10
-18.4292011885
 20
23.830187852
 30
0.0
 10
-18.432559723
 20
23.8016148352
 30
0.0
 10
-18.4471163087
 20
23.7606544996
 30
0.0
 10
-18.4705871807
 20
23.7229827179
 30
0.0
 10
-18.5128899045
 20
23.6786209833
 30
0.0
 10
-18.5828161726
 20
23.6387868014
 30
0.0
 10
-18.6468349109
 20
23.6279126229
 30
0.0
 10
-18.6791494315
 20
23.6278312164
 30
0.0
 11
-18.4291536623
 21
23.8443375673
 31
0.0
 11
-18.43408139
 21
23.8021751692
 31
0.0
 11
-18.4483918917
 21
23.7616295068
 31
0.0
 11
-18.471537558
 21
23.7242490603
 31
0.0
 11
-18.5026324579
 21
23.6914667969
 31
0.0
 11
-18.5836480057
 21
23.6444922937
 31
0.0
 11
-18.6791494315
 21
23.6278312164
 31
0.0
  0
SPLINE
  5
708
100
AcDbEntity
  8
0
100
AcDbSpline
 62
253
  6
CONTINUOUS
 70
0
 71
3
 72
13
 73
9
 74
7
 42
0.0000001
 43
0.0000001
 44
0.0000000001
 12
0.0012265944
 22
-0.3651869708
 32
0.0
 13
0.3651878719
 23
-0.0009199792
 33
0.0
 40
0.0
 40
0.0
 40
0.0
 40
0.0
 40
0.1162394861
 40
0.2339784844
 40
0.3543712552
 40
0.4780982232
 40
0.7345378384
 40
1.0
 40
1.0
 40
1.0
 40
1.0
 10
-21.3204099943
 20
23.8443375673
 30
0.0
 10
-21.3203624681
 20
23.830187852
 30
0.0
 10
-21.3170039336
 20
23.8016148352
 30
0.0
 10
-21.3024473479
 20
23.7606544996
 30
0.0
 10
-21.2789764759
 20
23.7229827179
 30
0.0
 10
-21.2366737521
 20
23.6786209833
 30
0.0
 10
-21.166747484
 20
23.6387868014
 30
0.0
 10
-21.1027287457
 20
23.6279126229
 30
0.0
 10
-21.0704142251
 20
23.6278312164
 30
0.0
 11
-21.3204099943
 21
23.8443375673
 31
0.0
 11
-21.3154822666
 21
23.8021751692
 31
0.0
 11
-21.3011717649
 21
23.7616295068
 31
0.0
 11
-21.2780260986
 21
23.7242490603
 31
0.0
 11
-21.2469311987
 21
23.6914667969
 31
0.0
 11
-21.1659156509
 21
23.6444922937
 31
0.0
 11
-21.0704142251
 21
23.6278312164
 31
0.0
  0
SPLINE
  5
709
100
AcDbEntity
  8
0
100
AcDbSpline
 62
253
  6
CONTINUOUS
 70
0
 71
3
 72
13
 73
9
 74
7
 42
0.0000001
 43
0.0000001
 44
0.0000000001
 12
-0.0012265944
 22
0.3651869709
 32
0.0
 13
-0.3651878721
 23
0.0009199792
 33
0.0
 40
0.0
 40
0.0
 40
0.0
 40
0.0
 40
0.1162394899
 40
0.2339784923
 40
0.3543712679
 40
0.4780982409
 40
0.7345378657
 40
1.0
 40
1.0
 40
1.0
 40
1.0
 10
-1.0291536623
 20
-23.8443375673
 30
0.0
 10
-1.0292011885
 20
-23.8301878516
 30
0.0
 10
-1.0325597232
 20
-23.8016148337
 30
0.0
 10
-1.0471163101
 20
-23.7606544968
 30
0.0
 10
-1.0705871834
 20
-23.7229827139
 30
0.0
 10
-1.1128899102
 20
-23.6786209789
 30
0.0
 10
-1.1828161781
 20
-23.6387867994
 30
0.0
 10
-1.2468349142
 20
-23.6279126229
 30
0.0
 10
-1.2791494315
 20
-23.6278312164
 30
0.0
 11
-1.0291536623
 21
-23.8443375673
 31
0.0
 11
-1.0340813903
 21
-23.8021751679
 31
0.0
 11
-1.0483918931
 21
-23.7616295042
 31
0.0
 11
-1.0715375609
 21
-23.7242490565
 31
0.0
 11
-1.1026324629
 21
-23.6914667926
 31
0.0
 11
-1.1836480151
 21
-23.6444922901
 31
0.0
 11
-1.2791494315
 21
-23.6278312164
 31
0.0
  0
SPLINE
  5
70A
100
AcDbEntity
  8
0
100
AcDbSpline
 62
253
  6
CONTINUOUS
 70
0
 71
3
 72
13
 73
9
 74
7
 42
0.0000001
 43
0.0000001
 44
0.0000000001
 12
0.0012265943
 22
0.3651869702
 32
0.0
 13
0.3651878714
 23
0.0009199792
 33
0.0
 40
0.0
 40
0.0
 40
0.0
 40
0.0
 40
0.1162393822
 40
0.2339783947
 40
0.3543711753
 40
0.4780981573
 40
0.7345378061
 40
1.0
 40
1.0
 40
1.0
 40
1.0
 10
-3.9204099943
 20
-23.8443375673
 30
0.0
 10
-3.9203624681
 20
-23.8301878647
 30
0.0
 10
-3.9170039351
 20
-23.8016148597
 30
0.0
 10
-3.9024473652
 20
-23.7606545287
 30
0.0
 10
-3.878976493
 20
-23.7229827412
 30
0.0
 10
-3.8366737711
 20
-23.6786209956
 30
0.0
 10
-3.7667474957
 20
-23.6387868046
 30
0.0
 10
-3.7027287496
 20
-23.6279126229
 30
0.0
 10
-3.6704142251
 20
-23.6278312164
 30
0.0
 11
-3.9204099943
 21
-23.8443375673
 31
0.0
 11
-3.9154822739
 21
-23.8021752067
 31
0.0
 11
-3.90117178
 21
-23.761629536
 31
0.0
 11
-3.8780261163
 21
-23.7242490838
 31
0.0
 11
-3.846931217
 21
-23.6914668129
 31
0.0
 11
-3.765915662
 21
-23.644492298
 31
0.0
 11
-3.6704142251
 21
-23.6278312164
 31
0.0
  0
SPLINE
  5
70B
100
AcDbEntity
  8
0
100
AcDbSpline
 62
253
  6
CONTINUOUS
 70
0
 71
3
 72
13
 73
9
 74
7
 42
0.0000001
 43
0.0000001
 44
0.0000000001
 12
0.0012265944
 22
0.3651869709
 32
0.0
 13
0.3651878721
 23
0.0009199792
 33
0.0
 40
0.0
 40
0.0
 40
0.0
 40
0.0
 40
0.1162394899
 40
0.2339784923
 40
0.3543712679
 40
0.4780982409
 40
0.7345378657
 40
1.0
 40
1.0
 40
1.0
 40
1.0
 10
-21.3204099943
 20
-23.8443375673
 30
0.0
 10
-21.3203624681
 20
-23.8301878516
 30
0.0
 10
-21.3170039335
 20
-23.8016148337
 30
0.0
 10
-21.3024473465
 20
-23.7606544968
 30
0.0
 10
-21.2789764732
 20
-23.7229827139
 30
0.0
 10
-21.2366737464
 20
-23.6786209789
 30
0.0
 10
-21.1667474786
 20
-23.6387867994
 30
0.0
 10
-21.1027287424
 20
-23.6279126229
 30
0.0
 10
-21.0704142251
 20
-23.6278312164
 30
0.0
 11
-21.3204099943
 21
-23.8443375673
 31
0.0
 11
-21.3154822663
 21
-23.8021751679
 31
0.0
 11
-21.3011717635
 21
-23.7616295042
 31
0.0
 11
-21.2780260957
 21
-23.7242490565
 31
0.0
 11
-21.2469311937
 21
-23.6914667926
 31
0.0
 11
-21.1659156415
 21
-23.6444922901
 31
0.0
 11
-21.0704142251
 21
-23.6278312164
 31
0.0
  0
SPLINE
  5
70C
100
AcDbEntity
  8
0
100
AcDbSpline
 62
253
  6
CONTINUOUS
 70
0
 71
3
 72
13
 73
9
 74
7
 42
0.0000001
 43
0.0000001
 44
0.0000000001
 12
-0.0012265943
 22
0.3651869702
 32
0.0
 13
-0.3651878714
 23
0.0009199792
 33
0.0
 40
0.0
 40
0.0
 40
0.0
 40
0.0
 40
0.1162393822
 40
0.2339783947
 40
0.3543711753
 40
0.4780981573
 40
0.7345378061
 40
1.0
 40
1.0
 40
1.0
 40
1.0
 10
-18.4291536623
 20
-23.8443375673
 30
0.0
 10
-18.4292011885
 20
-23.8301878647
 30
0.0
 10
-18.4325597215
 20
-23.8016148597
 30
0.0
 10
-18.4471162914
 20
-23.7606545287
 30
0.0
 10
-18.4705871636
 20
-23.7229827412
 30
0.0
 10
-18.5128898855
 20
-23.6786209956
 30
0.0
 10
-18.5828161609
 20
-23.6387868046
 30
0.0
 10
-18.646834907
 20
-23.6279126229
 30
0.0
 10
-18.6791494315
 20
-23.6278312164
 30
0.0
 11
-18.4291536623
 21
-23.8443375673
 31
0.0
 11
-18.4340813827
 21
-23.8021752067
 31
0.0
 11
-18.4483918766
 21
-23.761629536
 31
0.0
 11
-18.4715375403
 21
-23.7242490838
 31
0.0
 11
-18.5026324396
 21
-23.6914668129
 31
0.0
 11
-18.5836479946
 21
-23.644492298
 31
0.0
 11
-18.6791494315
 21
-23.6278312164
 31
0.0
  0
SPLINE
  5
70D
100
AcDbEntity
  8
RACCORDO
100
AcDbSpline
 62
253
  6
CONTINUOUS
 70
0
 71
3
 72
19
 73
15
 74
13
 42
0.0000001
 43
0.0000001
 44
0.0000000001
 12
0.000036369
 22
0.8421863581
 32
0.0
 13
0.0000362627
 23
-0.8421863581
 33
0.0
 40
0.0
 40
0.0
 40
0.0
 40
0.0
 40
0.1247733874
 40
0.249491471
 40
0.3121248974
 40
0.3747534157
 40
0.4373779838
 40
0.5000000044
 40
0.5626220245
 40
0.6252465921
 40
0.6878751099
 40
0.7505085359
 40
0.8752266178
 40
1.0
 40
1.0
 40
1.0
 40
1.0
 10
-15.5862366615
 20
-19.0166572575
 30
0.0
 10
-15.5862351488
 20
-18.9816297759
 30
0.0
 10
-15.5734924497
 20
-18.9109547083
 30
0.0
 10
-15.5265779561
 20
-18.8343245747
 30
0.0
 10
-15.4739578213
 20
-18.7872794096
 30
0.0
 10
-15.4280639022
 20
-18.7605166825
 30
0.0
 10
-15.3776212893
 20
-18.7438281903
 30
0.0
 10
-15.3247818316
 20
-18.7381482045
 30
0.0
 10
-15.2719423745
 20
-18.7438281944
 30
0.0
 10
-15.2214997631
 20
-18.7605166894
 30
0.0
 10
-15.1756058452
 20
-18.7872794173
 30
0.0
 10
-15.1229857095
 20
-18.8343245815
 30
0.0
 10
-15.0760712274
 20
-18.9109547153
 30
0.0
 10
-15.0633285033
 20
-18.9816297774
 30
0.0
 10
-15.0633269951
 20
-19.0166572575
 30
0.0
 11
-15.5862366615
 21
-19.0166572575
 31
0.0
 11
-15.5672974896
 21
-18.9132956206
 31
0.0
 11
-15.5122489722
 21
-18.8238406351
 31
0.0
 11
-15.472899285
 21
-18.7887114314
 31
0.0
 11
-15.4273042912
 21
-18.7621950345
 31
0.0
 11
-15.3772208214
 21
-18.7456627059
 31
0.0
 11
-15.3247818315
 21
-18.7400415081
 31
0.0
 11
-15.2723428425
 21
-18.7456627098
 31
0.0
 11
-15.222259374
 21
-18.7621950411
 31
0.0
 11
-15.1766643811
 21
-18.7887114388
 31
0.0
 11
-15.1373146943
 21
-18.8238406423
 31
0.0
 11
-15.0822661786
 21
-18.9132956272
 31
0.0
 11
-15.0633269951
 21
-19.0166572575
 31
0.0
  0
SPLINE
  5
70E
100
AcDbEntity
  8
RACCORDO
100
AcDbSpline
 62
253
  6
CONTINUOUS
 70
0
 71
3
 72
23
 73
19
 74
17
 42
0.0000001
 43
0.0000001
 44
0.0000000001
 12
0.0035743867
 22
1.4516896996
 32
0.0
 13
0.0035743693
 23
-1.4516896996
 33
0.0
 40
0.0
 40
0.0
 40
0.0
 40
0.0
 40
0.062210472
 40
0.1244617475
 40
0.1867958662
 40
0.2492357936
 40
0.3117916261
 40
0.3744561752
 40
0.4372050925
 40
0.5000000016
 40
0.5627949111
 40
0.625543829
 40
0.6882083781
 40
0.7507642101
 40
0.813204136
 40
0.8755382528
 40
0.937789534
 40
1.0
 40
1.0
 40
1.0
 40
1.0
 10
-15.7862059223
 20
-19.0166572575
 30
0.0
 10
-15.7861318009
 20
-18.9865538237
 30
0.0
 10
-15.7801632331
 20
-18.9261807427
 30
0.0
 10
-15.7540331156
 20
-18.8390894452
 30
0.0
 10
-15.7115923962
 20
-18.7585056264
 30
0.0
 10
-15.6542725563
 20
-18.6875379238
 30
0.0
 10
-15.5841018698
 20
-18.6289774225
 30
0.0
 10
-15.5036689379
 20
-18.5852415895
 30
0.0
 10
-15.4160692454
 20
-18.5582029477
 30
0.0
 10
-15.3247818439
 20
-18.5490518797
 30
0.0
 10
-15.2334944453
 20
-18.5582029718
 30
0.0
 10
-15.1458947554
 20
-18.58524162
 30
0.0
 10
-15.0654618211
 20
-18.6289774475
 30
0.0
 10
-14.9952911278
 20
-18.6875379382
 30
0.0
 10
-14.937971279
 20
-18.7585056335
 30
0.0
 10
-14.8955305651
 20
-18.8390894526
 30
0.0
 10
-14.8694003974
 20
-18.9261807387
 30
0.0
 10
-14.863431889
 20
-18.9865538266
 30
0.0
 10
-14.8633577679
 20
-19.0166572575
 30
0.0
 11
-15.7862059223
 21
-19.0166572575
 31
0.0
 11
-15.7773065945
 21
-18.926786228
 31
0.0
 11
-15.7513373601
 21
-18.8402281474
 31
0.0
 11
-15.7091544771
 21
-18.7601715575
 31
0.0
 11
-15.6521888874
 21
-18.6896648398
 31
0.0
 11
-15.5824555849
 21
-18.6314920481
 31
0.0
 11
-15.5025297641
 21
-18.5880482945
 31
0.0
 11
-15.4154866627
 21
-18.5611913883
 31
0.0
 11
-15.3247818446
 21
-18.5521029846
 31
0.0
 11
-15.234077028
 21
-18.5611914095
 31
0.0
 11
-15.147033928
 21
-18.5880483232
 31
0.0
 11
-15.0671081049
 21
-18.6314920725
 31
0.0
 11
-14.9973747959
 21
-18.6896648551
 31
0.0
 11
-14.9404092006
 21
-18.7601715657
 31
0.0
 11
-14.8982263127
 21
-18.8402281499
 31
0.0
 11
-14.8722570581
 21
-18.926786233
 31
0.0
 11
-14.8633577679
 21
-19.0166572575
 31
0.0
  0
LINE
  5
70F
100
AcDbEntity
  8
RACCORDO
100
AcDbLine
 62
7
  6
CONTINUOUS
 10
-14.8633574561
 20
-20.0942882488
 11
-15.0633269951
 21
-20.2942577878
  0
LINE
  5
710
100
AcDbEntity
  8
RACCORDO
100
AcDbLine
 62
7
  6
CONTINUOUS
 10
-6.5633574561
 20
-20.0942882488
 11
-6.7633269951
 21
-20.2942577878
  0
SPLINE
  5
711
100
AcDbEntity
  8
RACCORDO
100
AcDbSpline
 62
253
  6
CONTINUOUS
 70
0
 71
3
 72
23
 73
19
 74
17
 42
0.0000001
 43
0.0000001
 44
0.0000000001
 12
0.0035743867
 22
1.4516896996
 32
0.0
 13
0.0035743693
 23
-1.4516896996
 33
0.0
 40
0.0
 40
0.0
 40
0.0
 40
0.0
 40
0.062210472
 40
0.1244617475
 40
0.1867958662
 40
0.2492357936
 40
0.3117916261
 40
0.3744561752
 40
0.4372050925
 40
0.5000000016
 40
0.5627949111
 40
0.625543829
 40
0.6882083781
 40
0.7507642101
 40
0.813204136
 40
0.8755382528
 40
0.937789534
 40
1.0
 40
1.0
 40
1.0
 40
1.0
 10
-7.4862059223
 20
-19.0166572575
 30
0.0
 10
-7.4861318009
 20
-18.9865538237
 30
0.0
 10
-7.4801632331
 20
-18.9261807427
 30
0.0
 10
-7.4540331156
 20
-18.8390894452
 30
0.0
 10
-7.4115923962
 20
-18.7585056264
 30
0.0
 10
-7.3542725563
 20
-18.6875379238
 30
0.0
 10
-7.2841018698
 20
-18.6289774225
 30
0.0
 10
-7.2036689379
 20
-18.5852415895
 30
0.0
 10
-7.1160692454
 20
-18.5582029477
 30
0.0
 10
-7.0247818439
 20
-18.5490518797
 30
0.0
 10
-6.9334944453
 20
-18.5582029718
 30
0.0
 10
-6.8458947554
 20
-18.58524162
 30
0.0
 10
-6.7654618211
 20
-18.6289774475
 30
0.0
 10
-6.6952911278
 20
-18.6875379382
 30
0.0
 10
-6.637971279
 20
-18.7585056335
 30
0.0
 10
-6.5955305651
 20
-18.8390894526
 30
0.0
 10
-6.5694003974
 20
-18.9261807387
 30
0.0
 10
-6.563431889
 20
-18.9865538266
 30
0.0
 10
-6.5633577679
 20
-19.0166572575
 30
0.0
 11
-7.4862059223
 21
-19.0166572575
 31
0.0
 11
-7.4773065945
 21
-18.926786228
 31
0.0
 11
-7.4513373601
 21
-18.8402281474
 31
0.0
 11
-7.4091544771
 21
-18.7601715575
 31
0.0
 11
-7.3521888874
 21
-18.6896648398
 31
0.0
 11
-7.2824555849
 21
-18.6314920481
 31
0.0
 11
-7.2025297641
 21
-18.5880482945
 31
0.0
 11
-7.1154866627
 21
-18.5611913883
 31
0.0
 11
-7.0247818446
 21
-18.5521029846
 31
0.0
 11
-6.934077028
 21
-18.5611914095
 31
0.0
 11
-6.847033928
 21
-18.5880483232
 31
0.0
 11
-6.7671081049
 21
-18.6314920725
 31
0.0
 11
-6.6973747959
 21
-18.6896648551
 31
0.0
 11
-6.6404092006
 21
-18.7601715657
 31
0.0
 11
-6.5982263127
 21
-18.8402281499
 31
0.0
 11
-6.5722570581
 21
-18.926786233
 31
0.0
 11
-6.5633577679
 21
-19.0166572575
 31
0.0
  0
SPLINE
  5
712
100
AcDbEntity
  8
RACCORDO
100
AcDbSpline
 62
253
  6
CONTINUOUS
 70
0
 71
3
 72
19
 73
15
 74
13
 42
0.0000001
 43
0.0000001
 44
0.0000000001
 12
0.000036369
 22
0.8421863581
 32
0.0
 13
0.0000362627
 23
-0.8421863581
 33
0.0
 40
0.0
 40
0.0
 40
0.0
 40
0.0
 40
0.1247733874
 40
0.249491471
 40
0.3121248974
 40
0.3747534157
 40
0.4373779838
 40
0.5000000044
 40
0.5626220245
 40
0.6252465921
 40
0.6878751099
 40
0.7505085359
 40
0.8752266178
 40
1.0
 40
1.0
 40
1.0
 40
1.0
 10
-7.2862366615
 20
-19.0166572575
 30
0.0
 10
-7.2862351488
 20
-18.9816297759
 30
0.0
 10
-7.2734924497
 20
-18.9109547083
 30
0.0
 10
-7.2265779561
 20
-18.8343245747
 30
0.0
 10
-7.1739578213
 20
-18.7872794096
 30
0.0
 10
-7.1280639022
 20
-18.7605166825
 30
0.0
 10
-7.0776212893
 20
-18.7438281903
 30
0.0
 10
-7.0247818316
 20
-18.7381482045
 30
0.0
 10
-6.9719423745
 20
-18.7438281944
 30
0.0
 10
-6.9214997631
 20
-18.7605166894
 30
0.0
 10
-6.8756058452
 20
-18.7872794173
 30
0.0
 10
-6.8229857095
 20
-18.8343245815
 30
0.0
 10
-6.7760712274
 20
-18.9109547153
 30
0.0
 10
-6.7633285033
 20
-18.9816297774
 30
0.0
 10
-6.7633269951
 20
-19.0166572575
 30
0.0
 11
-7.2862366615
 21
-19.0166572575
 31
0.0
 11
-7.2672974896
 21
-18.9132956206
 31
0.0
 11
-7.2122489722
 21
-18.8238406351
 31
0.0
 11
-7.172899285
 21
-18.7887114314
 31
0.0
 11
-7.1273042912
 21
-18.7621950345
 31
0.0
 11
-7.0772208214
 21
-18.7456627059
 31
0.0
 11
-7.0247818315
 21
-18.7400415081
 31
0.0
 11
-6.9723428425
 21
-18.7456627098
 31
0.0
 11
-6.922259374
 21
-18.7621950411
 31
0.0
 11
-6.8766643811
 21
-18.7887114388
 31
0.0
 11
-6.8373146943
 21
-18.8238406423
 31
0.0
 11
-6.7822661786
 21
-18.9132956272
 31
0.0
 11
-6.7633269951
 21
-19.0166572575
 31
0.0
  0
LINE
  5
713
100
AcDbEntity
  8
RACCORDO
100
AcDbLine
 62
7
  6
CONTINUOUS
 10
-7.4862062005
 20
-20.0942882488
 11
-7.2862366615
 21
-20.2942577878
  0
LINE
  5
714
100
AcDbEntity
  8
RACCORDO
100
AcDbLine
 62
7
  6
CONTINUOUS
 10
-4.3805240405
 20
-20.2942577878
 11
-4.5805164251
 21
-20.0942654032
  0
LINE
  5
715
100
AcDbEntity
  8
RACCORDO
100
AcDbLine
 62
7
  6
CONTINUOUS
 10
-4.3805240405
 20
-19.9942577878
 11
-4.5805164251
 21
-19.7942654032
  0
LINE
  5
716
100
AcDbEntity
  8
RACCORDO
100
AcDbLine
 62
7
  6
CONTINUOUS
 10
-4.1690396161
 20
-19.9942577878
 11
-3.9690472315
 21
-19.7942654032
  0
SPLINE
  5
717
100
AcDbEntity
  8
RACCORDO
100
AcDbSpline
 62
253
  6
CONTINUOUS
 70
0
 71
3
 72
18
 73
14
 74
12
 42
0.0000001
 43
0.0000001
 44
0.0000000001
 12
0.0014002795
 22
-0.2077066484
 32
0.0
 13
0.2077076648
 23
0.0012403893
 33
0.0
 40
0.0
 40
0.0
 40
0.0
 40
0.0
 40
0.0170215899
 40
0.0383522087
 40
0.0662583447
 40
0.101602672
 40
0.1445866512
 40
0.1951031789
 40
0.3173521712
 40
0.4645647692
 40
0.6315713825
 40
0.8122700246
 40
1.0
 40
1.0
 40
1.0
 40
1.0
 10
-12.934539468
 20
-13.7512316435
 30
0.0
 10
-12.934531523
 20
-13.7524101427
 30
0.0
 10
-12.9336514188
 20
-13.7550649445
 30
0.0
 10
-12.9304277367
 20
-13.7584327809
 30
0.0
 10
-12.9255011231
 20
-13.7616458337
 30
0.0
 10
-12.9188084032
 20
-13.7647390702
 30
0.0
 10
-12.910388082
 20
-13.7677099103
 30
0.0
 10
-12.8959888762
 20
-13.7717169505
 30
0.0
 10
-12.8742205062
 20
-13.7759830062
 30
0.0
 10
-12.8442518117
 20
-13.779952377
 30
0.0
 10
-12.8100955988
 20
-13.7828412508
 30
0.0
 10
-12.7730547507
 20
-13.7845318826
 30
0.0
 10
-12.7475413549
 20
-13.784807255
 30
0.0
 10
-12.7345437033
 20
-13.7847296355
 30
0.0
 11
-12.934539468
 21
-13.7512316435
 31
0.0
 11
-12.9335561098
 21
-13.7546277172
 31
0.0
 11
-12.9306589989
 21
-13.7579798914
 31
0.0
 11
-12.9258758658
 21
-13.7612540542
 31
0.0
 11
-12.9192521726
 21
-13.7644199846
 31
0.0
 11
-12.9108529251
 21
-13.7674476054
 31
0.0
 11
-12.9007572681
 21
-13.7703072837
 31
0.0
 11
-12.8758838043
 21
-13.7754151338
 31
0.0
 11
-12.8455866204
 21
-13.7795477156
 31
0.0
 11
-12.8110272998
 21
-13.7825463861
 31
0.0
 11
-12.7735349432
 21
-13.784296089
 31
0.0
 11
-12.7345437033
 21
-13.7847296355
 31
0.0
  0
LINE
  5
718
100
AcDbEntity
  8
RACCORDO
100
AcDbLine
 62
7
  6
CONTINUOUS
 10
-9.1888488275
 20
-2.8965386317
 11
-8.9896098879
 21
-3.0957775713
  0
LINE
  5
719
100
AcDbEntity
  8
RACCORDO
100
AcDbLine
 62
7
  6
CONTINUOUS
 10
-13.1607148291
 20
-2.8965386317
 11
-13.3599537687
 21
-3.0957775713
  0
LINE
  5
71A
100
AcDbEntity
  8
RACCORDO
100
AcDbLine
 62
7
  6
CONTINUOUS
 10
-9.1888488275
 20
2.8965386317
 11
-8.9896098879
 21
3.0957775713
  0
LINE
  5
71B
100
AcDbEntity
  8
RACCORDO
100
AcDbLine
 62
7
  6
CONTINUOUS
 10
-13.1607148291
 20
2.8965386317
 11
-13.3599537687
 21
3.0957775713
  0
SPLINE
  5
71C
100
AcDbEntity
  8
0
100
AcDbSpline
 62
7
  6
CONTINUOUS
 70
0
 71
3
 72
23
 73
19
 74
17
 42
0.0000001
 43
0.0000001
 44
0.0000000001
 12
-0.4647144829
 22
0.4882043407
 32
0.0
 13
-0.0
 23
0.6740200508
 33
0.0
 40
0.0
 40
0.0
 40
0.0
 40
0.0
 40
0.1640911407
 40
0.3258710946
 40
0.482673647
 40
0.5581609258
 40
0.6309890654
 40
0.7004796834
 40
0.7657962682
 40
0.825911579
 40
0.879580741
 40
0.925340741
 40
0.9447537967
 40
0.9615833066
 40
0.9756386498
 40
0.9867611309
 40
0.9948562821
 40
1.0
 40
1.0
 40
1.0
 40
1.0
 10
-7.2217391184
 20
23.4563578147
 30
0.0
 10
-7.2471576282
 20
23.4830611504
 30
0.0
 10
-7.2976368338
 20
23.5360915286
 30
0.0
 10
-7.3723256961
 20
23.6147150582
 30
0.0
 10
-7.4331603947
 20
23.6790420904
 30
0.0
 10
-7.4801061897
 20
23.728996684
 30
0.0
 10
-7.5135173894
 20
23.7647507666
 30
0.0
 10
-7.5452393972
 20
23.7989555098
 30
0.0
 10
-7.5748514649
 20
23.8312207858
 30
0.0
 10
-7.6018420525
 20
23.8610664434
 30
0.0
 10
-7.6255926351
 20
23.8879146688
 30
0.0
 10
-7.6429501572
 20
23.9082083851
 30
0.0
 10
-7.654589143
 20
23.9224900832
 30
0.0
 10
-7.661538262
 20
23.9314062454
 30
0.0
 10
-7.6670971582
 20
23.9390273746
 30
0.0
 10
-7.6712138758
 20
23.9452952951
 30
0.0
 10
-7.6737837366
 20
23.9500925738
 30
0.0
 10
-7.6747818283
 20
23.9529922878
 30
0.0
 10
-7.6747818283
 20
23.9541479441
 30
0.0
 11
-7.2217391184
 21
23.4563578147
 31
0.0
 11
-7.2979811694
 21
23.5364806498
 31
0.0
 11
-7.3730659589
 21
23.6155542583
 31
0.0
 11
-7.4456590376
 21
23.6923670949
 31
0.0
 11
-7.4804975678
 21
23.7294486949
 31
0.0
 11
-7.5140062041
 21
23.7653202206
 31
0.0
 11
-7.545846276
 21
23.7996715614
 31
0.0
 11
-7.575600241
 21
23.8321195921
 31
0.0
 11
-7.6027551973
 21
23.8621926967
 31
0.0
 11
-7.6266886353
 21
23.8893175088
 31
0.0
 11
-7.6466658666
 21
23.9128166704
 31
0.0
 11
-7.6549165807
 21
23.9229723296
 31
0.0
 11
-7.6618680957
 21
23.9319361333
 31
0.0
 11
-7.6674177432
 21
23.9396140361
 31
0.0
 11
-7.6714710414
 21
23.9459205734
 31
0.0
 11
-7.6739460969
 21
23.9507832113
 31
0.0
 11
-7.6747818283
 21
23.9541479441
 31
0.0
  0
SPLINE
  5
71D
100
AcDbEntity
  8
RACCORDO
100
AcDbSpline
 62
7
  6
CONTINUOUS
 70
0
 71
3
 72
17
 73
13
 74
11
 42
0.0000001
 43
0.0000001
 44
0.0000000001
 12
-0.1332258115
 22
-0.1183833861
 32
0.0
 13
-0.1197746591
 23
0.1319764145
 33
0.0
 40
0.0
 40
0.0
 40
0.0
 40
0.0
 40
0.1995429143
 40
0.3881903004
 40
0.5597753285
 40
0.7086886908
 40
0.830124991
 40
0.9202583058
 40
0.9527360981
 40
0.9765755102
 40
0.991907128
 40
1.0
 40
1.0
 40
1.0
 40
1.0
 10
-12.3389583697
 20
-14.8132402675
 30
0.0
 10
-12.347819792
 20
-14.8211144561
 30
0.0
 10
-12.3651491251
 20
-14.8363315098
 30
0.0
 10
-12.3904177148
 20
-14.8579530429
 30
0.0
 10
-12.4136870113
 20
-14.8772778481
 30
0.0
 10
-12.4341936772
 20
-14.8936809051
 30
0.0
 10
-12.4512409934
 20
-14.9066319593
 30
0.0
 10
-12.4631438056
 20
-14.9149578178
 30
0.0
 10
-12.4705411734
 20
-14.9194967204
 30
0.0
 10
-12.4743985151
 20
-14.9214209567
 30
0.0
 10
-12.4769147307
 20
-14.9224356613
 30
0.0
 10
-12.4785479908
 20
-14.9223872106
 30
0.0
 10
-12.4788710978
 20
-14.9220311879
 30
0.0
 11
-12.3389583697
 21
-14.8132402675
 31
0.0
 11
-12.3656867258
 21
-14.8366996758
 31
0.0
 11
-12.3912434434
 21
-14.8585458899
 31
0.0
 11
-12.4147874143
 21
-14.8780612989
 31
0.0
 11
-12.4355415211
 21
-14.8946031873
 31
0.0
 11
-12.4528246392
 21
-14.9076303357
 31
0.0
 11
-12.466071002
 21
-14.9167178535
 31
0.0
 11
-12.4710397972
 21
-14.9196869767
 31
0.0
 11
-12.4748478537
 21
-14.9215712799
 31
0.0
 11
-12.4774655456
 21
-14.9223548789
 31
0.0
 11
-12.4788710978
 21
-14.9220311879
 31
0.0
  0
SPLINE
  5
71E
100
AcDbEntity
  8
RACCORDO
100
AcDbSpline
 62
7
  6
CONTINUOUS
 70
0
 71
3
 72
9
 73
5
 74
3
 42
0.0000001
 43
0.0000001
 44
0.0000000001
 12
0.0195393773
 22
0.0173625337
 32
0.0
 13
0.0261389526
 23
0.0
 33
0.0
 40
0.0
 40
0.0
 40
0.0
 40
0.0
 40
0.4981232359
 40
1.0
 40
1.0
 40
1.0
 40
1.0
 10
-12.3389583697
 20
-14.8132402675
 30
0.0
 10
-12.3357140305
 20
-14.8103573737
 30
0.0
 10
-12.3275758322
 20
-14.8063387784
 30
0.0
 10
-12.3188028737
 20
-14.8055381835
 30
0.0
 10
-12.3144300294
 20
-14.8055381835
 30
0.0
 11
-12.3389583697
 21
-14.8132402675
 31
0.0
 11
-12.3274488782
 21
-14.8071523343
 31
0.0
 11
-12.3144300294
 21
-14.8055381835
 31
0.0
  0
SPLINE
  5
71F
100
AcDbEntity
  8
RACCORDO
100
AcDbSpline
 62
7
  6
CONTINUOUS
 70
0
 71
3
 72
17
 73
13
 74
11
 42
0.0000001
 43
0.0000001
 44
0.0000000001
 12
0.1332257751
 22
-0.1183831423
 32
0.0
 13
0.1197754562
 23
0.1319754357
 33
0.0
 40
0.0
 40
0.0
 40
0.0
 40
0.0
 40
0.1995430871
 40
0.3881906457
 40
0.5597758442
 40
0.7086893738
 40
0.8301258378
 40
0.9202593031
 40
0.9527371943
 40
0.9765768638
 40
0.9919083678
 40
1.0
 40
1.0
 40
1.0
 40
1.0
 10
-10.0106052835
 20
-14.8132402525
 30
0.0
 10
-10.001743856
 20
-14.8211144318
 30
0.0
 10
-9.9844145119
 20
-14.8363314669
 30
0.0
 10
-9.9591459029
 20
-14.8579529708
 30
0.0
 10
-9.9358765867
 20
-14.8772777482
 30
0.0
 10
-9.9153698919
 20
-14.8936807761
 30
0.0
 10
-9.8983225596
 20
-14.9066318079
 30
0.0
 10
-9.8864196936
 20
-14.9149576329
 30
0.0
 10
-9.8790223414
 20
-14.9194965541
 30
0.0
 10
-9.8751648694
 20
-14.9214206748
 30
0.0
 10
-9.8726488018
 20
-14.9224352796
 30
0.0
 10
-9.871015583
 20
-14.9223870983
 30
0.0
 10
-9.8706925233
 20
-14.9220311327
 30
0.0
 11
-10.0106052835
 21
-14.8132402525
 31
0.0
 11
-9.9838769109
 21
-14.8366996315
 31
0.0
 11
-9.9583201743
 21
-14.8585458158
 31
0.0
 11
-9.9347761818
 21
-14.8780611955
 31
0.0
 11
-9.91402205
 21
-14.8946030551
 31
0.0
 11
-9.8967389027
 21
-14.9076301753
 31
0.0
 11
-9.8834925144
 21
-14.9167176731
 31
0.0
 11
-9.8785236921
 21
-14.9196867734
 31
0.0
 11
-9.8747155483
 21
-14.9215709933
 31
0.0
 11
-9.8720978919
 21
-14.9223546299
 31
0.0
 11
-9.8706925233
 21
-14.9220311327
 31
0.0
  0
SPLINE
  5
720
100
AcDbEntity
  8
RACCORDO
100
AcDbSpline
 62
7
  6
CONTINUOUS
 70
0
 71
3
 72
17
 73
13
 74
11
 42
0.0000001
 43
0.0000001
 44
0.0000000001
 12
-0.1332257751
 22
0.1183831423
 32
0.0
 13
-0.1197754563
 23
-0.1319754357
 33
0.0
 40
0.0
 40
0.0
 40
0.0
 40
0.0
 40
0.1995430871
 40
0.3881906457
 40
0.5597758442
 40
0.7086893738
 40
0.8301258378
 40
0.9202593031
 40
0.9527371943
 40
0.9765768638
 40
0.9919083678
 40
1.0
 40
1.0
 40
1.0
 40
1.0
 10
-12.3389583732
 20
14.8132402525
 30
0.0
 10
-12.3478198006
 20
14.8211144318
 30
0.0
 10
-12.3651491447
 20
14.8363314669
 30
0.0
 10
-12.3904177537
 20
14.8579529708
 30
0.0
 10
-12.41368707
 20
14.8772777482
 30
0.0
 10
-12.4341937647
 20
14.8936807761
 30
0.0
 10
-12.451241097
 20
14.9066318079
 30
0.0
 10
-12.463143963
 20
14.9149576329
 30
0.0
 10
-12.4705413152
 20
14.9194965541
 30
0.0
 10
-12.4743987872
 20
14.9214206748
 30
0.0
 10
-12.4769148548
 20
14.9224352796
 30
0.0
 10
-12.4785480736
 20
14.9223870983
 30
0.0
 10
-12.4788711333
 20
14.9220311327
 30
0.0
 11
-12.3389583732
 21
14.8132402525
 31
0.0
 11
-12.3656867457
 21
14.8366996315
 31
0.0
 11
-12.3912434823
 21
14.8585458158
 31
0.0
 11
-12.4147874748
 21
14.8780611955
 31
0.0
 11
-12.4355416066
 21
14.8946030551
 31
0.0
 11
-12.4528247539
 21
14.9076301753
 31
0.0
 11
-12.4660711422
 21
14.9167176731
 31
0.0
 11
-12.4710399645
 21
14.9196867734
 31
0.0
 11
-12.4748481084
 21
14.9215709933
 31
0.0
 11
-12.4774657647
 21
14.9223546299
 31
0.0
 11
-12.4788711333
 21
14.9220311327
 31
0.0
  0
SPLINE
  5
721
100
AcDbEntity
  8
RACCORDO
100
AcDbSpline
 62
7
  6
CONTINUOUS
 70
0
 71
3
 72
17
 73
13
 74
11
 42
0.0000001
 43
0.0000001
 44
0.0000000001
 12
0.1332258026
 22
0.1183833782
 32
0.0
 13
0.1197746104
 23
-0.1319764427
 33
0.0
 40
0.0
 40
0.0
 40
0.0
 40
0.0
 40
0.1995429265
 40
0.3881903242
 40
0.559775363
 40
0.708688735
 40
0.8301250435
 40
0.9202583609
 40
0.9527361574
 40
0.9765755931
 40
0.9919071736
 40
1.0
 40
1.0
 40
1.0
 40
1.0
 10
-10.0106052869
 20
14.8132402675
 30
0.0
 10
-10.0017438647
 20
14.8211144561
 30
0.0
 10
-9.9844145316
 20
14.8363315096
 30
0.0
 10
-9.9591459421
 20
14.8579530427
 30
0.0
 10
-9.9358766456
 20
14.8772778479
 30
0.0
 10
-9.91536998
 20
14.8936809046
 30
0.0
 10
-9.8983226633
 20
14.9066319594
 30
0.0
 10
-9.8864198525
 20
14.9149578164
 30
0.0
 10
-9.8790224818
 20
14.9194967216
 30
0.0
 10
-9.8751651442
 20
14.9214209542
 30
0.0
 10
-9.8726489267
 20
14.9224356677
 30
0.0
 10
-9.8710156777
 20
14.9223871962
 30
0.0
 10
-9.8706925727
 20
14.9220311754
 30
0.0
 11
-10.0106052869
 21
14.8132402675
 31
0.0
 11
-9.983876931
 21
14.8366996757
 31
0.0
 11
-9.9583202135
 21
14.8585458896
 31
0.0
 11
-9.9347762427
 21
14.8780612985
 31
0.0
 11
-9.914022136
 21
14.8946031869
 31
0.0
 11
-9.8967390178
 21
14.9076303355
 31
0.0
 11
-9.8834926555
 21
14.9167178529
 31
0.0
 11
-9.87852386
 21
14.9196869763
 31
0.0
 11
-9.8747158005
 21
14.9215712822
 31
0.0
 11
-9.8720981142
 21
14.9223548761
 31
0.0
 11
-9.8706925727
 21
14.9220311754
 31
0.0
  0
SPLINE
  5
722
100
AcDbEntity
  8
0
100
AcDbSpline
 62
7
  6
CONTINUOUS
 70
0
 71
3
 72
23
 73
19
 74
17
 42
0.0000001
 43
0.0000001
 44
0.0000000001
 12
-0.0392587033
 22
-0.6726232873
 32
0.0
 13
-0.4645407097
 23
-0.4880217838
 33
0.0
 40
0.0
 40
0.0
 40
0.0
 40
0.0
 40
0.0053934142
 40
0.0137432105
 40
0.0250992971
 40
0.0393600495
 40
0.0563645523
 40
0.0759221464
 40
0.1218856354
 40
0.175658667
 40
0.2357974902
 40
0.3010748926
 40
0.3704782274
 40
0.4431825845
 40
0.5185184388
 40
0.6749610503
 40
0.836335156
 40
1.0
 40
1.0
 40
1.0
 40
1.0
 10
-6.7687040754
 20
23.9538922731
 30
0.0
 10
-6.7687746548
 20
23.9526830277
 30
0.0
 10
-6.7698694655
 20
23.949714857
 30
0.0
 10
-6.772570107
 20
23.9447942497
 30
0.0
 10
-6.7768034512
 20
23.9384248242
 30
0.0
 10
-6.7824669901
 20
23.9307121651
 30
0.0
 10
-6.7895043751
 20
23.9217214453
 30
0.0
 10
-6.8012334352
 20
23.9073703098
 30
0.0
 10
-6.8186659462
 20
23.8870206801
 30
0.0
 10
-6.8424690234
 20
23.8601375205
 30
0.0
 10
-6.8694708333
 20
23.8302956484
 30
0.0
 10
-6.8990617018
 20
23.798064527
 30
0.0
 10
-6.9307373728
 20
23.7639172627
 30
0.0
 10
-6.9640830444
 20
23.7282384172
 30
0.0
 10
-7.0109158932
 20
23.6784086124
 30
0.0
 10
-7.0715876329
 20
23.6142565649
 30
0.0
 10
-7.1460646528
 20
23.5358570006
 30
0.0
 10
-7.1963961241
 20
23.4829818177
 30
0.0
 10
-7.2217391184
 20
23.4563578147
 30
0.0
 11
-6.7687040754
 21
23.9538922731
 31
0.0
 11
-6.7696930846
 21
23.9503955371
 31
0.0
 11
-6.7723069018
 21
23.945413783
 31
0.0
 11
-6.7764829575
 21
23.9390025437
 31
0.0
 11
-6.7821387512
 21
23.9312350413
 31
0.0
 11
-6.7891797763
 21
23.9221968514
 31
0.0
 11
-6.7975038374
 21
23.91198163
 31
0.0
 11
-6.8175830845
 21
23.8884043956
 31
0.0
 11
-6.8415670323
 21
23.861248864
 31
0.0
 11
-6.8687311067
 21
23.8311830647
 31
0.0
 11
-6.8984619072
 21
23.7987719481
 31
0.0
 11
-6.9302540195
 21
23.7644802208
 31
0.0
 11
-6.9636958455
 21
23.7286855321
 31
0.0
 11
-6.9984532583
 21
23.6916938162
 31
0.0
 11
-7.070854469
 21
23.6150877117
 31
0.0
 11
-7.1457234933
 21
23.5362425367
 31
0.0
 11
-7.2217391184
 21
23.4563578147
 31
0.0
  0
SPLINE
  5
723
100
AcDbEntity
  8
0
100
AcDbSpline
 62
7
  6
CONTINUOUS
 70
0
 71
3
 72
23
 73
19
 74
17
 42
0.0000001
 43
0.0000001
 44
0.0000000001
 12
-0.4645407095
 22
0.4880217837
 32
0.0
 13
-0.0392587033
 23
0.6726232871
 33
0.0
 40
0.0
 40
0.0
 40
0.0
 40
0.0
 40
0.1636648751
 40
0.3250389467
 40
0.4814815299
 40
0.5568173902
 40
0.6295217535
 40
0.6989250898
 40
0.7642024862
 40
0.8243413018
 40
0.8781143244
 40
0.9240778123
 40
0.9436354095
 40
0.9606399207
 40
0.9749006781
 40
0.9862567779
 40
0.9946065803
 40
1.0
 40
1.0
 40
1.0
 40
1.0
 10
-15.1278245382
 20
23.4563578147
 30
0.0
 10
-15.1531675373
 20
23.4829818228
 30
0.0
 10
-15.2034990082
 20
23.5358570052
 30
0.0
 10
-15.2779760231
 20
23.6142565644
 30
0.0
 10
-15.3386477541
 20
23.6784086027
 30
0.0
 10
-15.3854806005
 20
23.7282384046
 30
0.0
 10
-15.4188262743
 20
23.7639172524
 30
0.0
 10
-15.4505019455
 20
23.7980645169
 30
0.0
 10
-15.4800928121
 20
23.8302956363
 30
0.0
 10
-15.5070946188
 20
23.8601375045
 30
0.0
 10
-15.5308976935
 20
23.887020661
 30
0.0
 10
-15.5483302042
 20
23.907370289
 30
0.0
 10
-15.5600592657
 20
23.9217214262
 30
0.0
 10
-15.5670966541
 20
23.9307121481
 30
0.0
 10
-15.5727601962
 20
23.9384248121
 30
0.0
 10
-15.5769935457
 20
23.9447942409
 30
0.0
 10
-15.5796941877
 20
23.9497148539
 30
0.0
 10
-15.5807890017
 20
23.9526830265
 30
0.0
 10
-15.5808595813
 20
23.9538922731
 30
0.0
 11
-15.1278245382
 21
23.4563578147
 31
0.0
 11
-15.2038401777
 21
23.5362425519
 31
0.0
 11
-15.2787091861
 21
23.6150877103
 31
0.0
 11
-15.3511103838
 21
23.6916938008
 31
0.0
 11
-15.3858677994
 21
23.7286855195
 31
0.0
 11
-15.4193096282
 21
23.7644802112
 31
0.0
 11
-15.4511017412
 21
23.7987719393
 31
0.0
 11
-15.4808325391
 21
23.8311830528
 31
0.0
 11
-15.5079966101
 21
23.8612488482
 31
0.0
 11
-15.5319805542
 21
23.888404375
 31
0.0
 11
-15.5520598014
 21
23.9119816084
 31
0.0
 11
-15.5603838641
 21
23.9221968312
 31
0.0
 11
-15.5674248933
 21
23.9312350251
 31
0.0
 11
-15.5730806894
 21
23.9390025299
 31
0.0
 11
-15.5772567508
 21
23.945413776
 31
0.0
 11
-15.5798705697
 21
23.9503955339
 31
0.0
 11
-15.5808595813
 21
23.9538922731
 31
0.0
  0
SPLINE
  5
724
100
AcDbEntity
  8
0
100
AcDbSpline
 62
7
  6
CONTINUOUS
 70
0
 71
3
 72
23
 73
19
 74
17
 42
0.0000001
 43
0.0000001
 44
0.0000000001
 12
0.0
 22
-0.6740200511
 32
0.0
 13
-0.4647144831
 23
-0.4882043409
 33
0.0
 40
0.0
 40
0.0
 40
0.0
 40
0.0
 40
0.0051437122
 40
0.0132388572
 40
0.0243613244
 40
0.0384166626
 40
0.0552461634
 40
0.0746592157
 40
0.1204192161
 40
0.1740883867
 40
0.2342037046
 40
0.2995202952
 40
0.369010912
 40
0.4418390457
 40
0.5173263191
 40
0.6741289015
 40
0.8359088897
 40
1.0
 40
1.0
 40
1.0
 40
1.0
 10
-14.6747818283
 20
23.9541479441
 30
0.0
 10
-14.6747818283
 20
23.952992289
 30
0.0
 10
-14.6757799164
 20
23.950092577
 30
0.0
 10
-14.6783497769
 20
23.9452953042
 30
0.0
 10
-14.6824664889
 20
23.9390273872
 30
0.0
 10
-14.6880253818
 20
23.9314062631
 30
0.0
 10
-14.6949744972
 20
23.9224901032
 30
0.0
 10
-14.7066134814
 20
23.9082084072
 30
0.0
 10
-14.7239710034
 20
23.8879146893
 30
0.0
 10
-14.7477215883
 20
23.861066461
 30
0.0
 10
-14.774712179
 20
23.8312207997
 30
0.0
 10
-14.8043242485
 20
23.7989555216
 30
0.0
 10
-14.8360462561
 20
23.7647507787
 30
0.0
 10
-14.8694574538
 20
23.7289966982
 30
0.0
 10
-14.9164032514
 20
23.6790421012
 30
0.0
 10
-14.9772379593
 20
23.6147150594
 30
0.0
 10
-15.0519268269
 20
23.5360915243
 30
0.0
 10
-15.1024060331
 20
23.4830611455
 30
0.0
 10
-15.1278245382
 20
23.4563578147
 30
0.0
 11
-14.6747818283
 21
23.9541479441
 31
0.0
 11
-14.6756175573
 21
23.9507832146
 31
0.0
 11
-14.6780926112
 21
23.9459205806
 31
0.0
 11
-14.6821459034
 21
23.9396140505
 31
0.0
 11
-14.6876955484
 21
23.9319361502
 31
0.0
 11
-14.694647059
 21
23.9229723507
 31
0.0
 11
-14.7028977713
 21
23.9128166931
 31
0.0
 11
-14.7228750023
 21
23.8893175308
 31
0.0
 11
-14.7468084437
 21
23.862192714
 31
0.0
 11
-14.7739634031
 21
23.8321196057
 31
0.0
 11
-14.8037173707
 21
23.799671572
 31
0.0
 11
-14.8355574421
 21
23.7653202319
 31
0.0
 11
-14.8690660757
 21
23.7294487091
 31
0.0
 11
-14.9039046032
 21
23.6923671116
 31
0.0
 11
-14.9764976958
 21
23.6155542602
 31
0.0
 11
-15.0515825013
 21
23.536480635
 31
0.0
 11
-15.1278245382
 21
23.4563578147
 31
0.0
  0
SPLINE
  5
725
100
AcDbEntity
  8
RACCORDO
100
AcDbSpline
 62
253
  6
CONTINUOUS
 70
0
 71
3
 72
18
 73
14
 74
12
 42
0.0000001
 43
0.0000001
 44
0.0000000001
 12
-0.0014002795
 22
0.2077066484
 32
0.0
 13
-0.2077076648
 23
-0.0012403893
 33
0.0
 40
0.0
 40
0.0
 40
0.0
 40
0.0
 40
0.0170215899
 40
0.0383522087
 40
0.0662583447
 40
0.101602672
 40
0.1445866512
 40
0.1951031789
 40
0.3173521712
 40
0.4645647692
 40
0.6315713825
 40
0.8122700246
 40
1.0
 40
1.0
 40
1.0
 40
1.0
 10
-9.4150241886
 20
13.7512316435
 30
0.0
 10
-9.4150321336
 20
13.7524101427
 30
0.0
 10
-9.4159122378
 20
13.7550649445
 30
0.0
 10
-9.4191359199
 20
13.7584327809
 30
0.0
 10
-9.4240625335
 20
13.7616458337
 30
0.0
 10
-9.4307552534
 20
13.7647390702
 30
0.0
 10
-9.4391755747
 20
13.7677099103
 30
0.0
 10
-9.4535747804
 20
13.7717169505
 30
0.0
 10
-9.4753431504
 20
13.7759830062
 30
0.0
 10
-9.5053118449
 20
13.779952377
 30
0.0
 10
-9.5394680578
 20
13.7828412508
 30
0.0
 10
-9.5765089059
 20
13.7845318826
 30
0.0
 10
-9.6020223017
 20
13.784807255
 30
0.0
 10
-9.6150199533
 20
13.7847296355
 30
0.0
 11
-9.4150241886
 21
13.7512316435
 31
0.0
 11
-9.4160075469
 21
13.7546277172
 31
0.0
 11
-9.4189046577
 21
13.7579798914
 31
0.0
 11
-9.4236877908
 21
13.7612540542
 31
0.0
 11
-9.430311484
 21
13.7644199846
 31
0.0
 11
-9.4387107316
 21
13.7674476054
 31
0.0
 11
-9.4488063885
 21
13.7703072837
 31
0.0
 11
-9.4736798523
 21
13.7754151338
 31
0.0
 11
-9.5039770362
 21
13.7795477156
 31
0.0
 11
-9.5385363568
 21
13.7825463861
 31
0.0
 11
-9.5760287135
 21
13.784296089
 31
0.0
 11
-9.6150199533
 21
13.7847296355
 31
0.0
  0
SPLINE
  5
726
100
AcDbEntity
  8
RACCORDO
100
AcDbSpline
 62
7
  6
CONTINUOUS
 70
0
 71
3
 72
9
 73
5
 74
3
 42
0.0000001
 43
0.0000001
 44
0.0000000001
 12
-0.0195393773
 22
-0.0173625337
 32
0.0
 13
-0.0261389526
 23
0.0
 33
0.0
 40
0.0
 40
0.0
 40
0.0
 40
0.0
 40
0.4981232359
 40
1.0
 40
1.0
 40
1.0
 40
1.0
 10
-10.0106052869
 20
14.8132402675
 30
0.0
 10
-10.0138496261
 20
14.8103573737
 30
0.0
 10
-10.0219878244
 20
14.8063387784
 30
0.0
 10
-10.0307607829
 20
14.8055381835
 30
0.0
 10
-10.0351336272
 20
14.8055381835
 30
0.0
 11
-10.0106052869
 21
14.8132402675
 31
0.0
 11
-10.0221147785
 21
14.8071523343
 31
0.0
 11
-10.0351336272
 21
14.8055381835
 31
0.0
  0
SPLINE
  5
727
100
AcDbEntity
  8
RACCORDO
100
AcDbSpline
 62
7
  6
CONTINUOUS
 70
0
 71
3
 72
9
 73
5
 74
3
 42
0.0000001
 43
0.0000001
 44
0.0000000001
 12
0.0195393913
 22
-0.0173625152
 32
0.0
 13
0.0261389507
 23
0.0
 33
0.0
 40
0.0
 40
0.0
 40
0.0
 40
0.0
 40
0.4981232407
 40
1.0
 40
1.0
 40
1.0
 40
1.0
 10
-12.3389583732
 20
14.8132402525
 30
0.0
 10
-12.3357140315
 20
14.8103573618
 30
0.0
 10
-12.3275758314
 20
14.8063387719
 30
0.0
 10
-12.3188028733
 20
14.8055381835
 30
0.0
 10
-12.3144300294
 20
14.8055381835
 30
0.0
 11
-12.3389583732
 21
14.8132402525
 31
0.0
 11
-12.3274488779
 21
14.8071523281
 31
0.0
 11
-12.3144300294
 21
14.8055381835
 31
0.0
  0
SPLINE
  5
728
100
AcDbEntity
  8
RACCORDO
100
AcDbSpline
 62
7
  6
CONTINUOUS
 70
0
 71
3
 72
9
 73
5
 74
3
 42
0.0000001
 43
0.0000001
 44
0.0000000001
 12
-0.0195393913
 22
0.0173625152
 32
0.0
 13
-0.0261389507
 23
0.0
 33
0.0
 40
0.0
 40
0.0
 40
0.0
 40
0.0
 40
0.4981232407
 40
1.0
 40
1.0
 40
1.0
 40
1.0
 10
-10.0106052835
 20
-14.8132402525
 30
0.0
 10
-10.0138496251
 20
-14.8103573618
 30
0.0
 10
-10.0219878252
 20
-14.8063387719
 30
0.0
 10
-10.0307607833
 20
-14.8055381835
 30
0.0
 10
-10.0351336272
 20
-14.8055381835
 30
0.0
 11
-10.0106052835
 21
-14.8132402525
 31
0.0
 11
-10.0221147788
 21
-14.8071523281
 31
0.0
 11
-10.0351336272
 21
-14.8055381835
 31
0.0
  0
SPLINE
  5
729
100
AcDbEntity
  8
RACCORDO
100
AcDbSpline
 62
7
  6
CONTINUOUS
 70
0
 71
3
 72
18
 73
14
 74
12
 42
0.0000001
 43
0.0000001
 44
0.0000000001
 12
-0.0014564893
 22
0.2023025782
 32
0.0
 13
-0.2023078212
 23
0.0
 33
0.0
 40
0.0
 40
0.0
 40
0.0
 40
0.0
 40
0.0097053568
 40
0.0169668387
 40
0.0262286416
 40
0.0511076631
 40
0.0846334081
 40
0.1769052776
 40
0.3002558501
 40
0.4502551492
 40
0.6213133847
 40
0.806925368
 40
1.0
 40
1.0
 40
1.0
 40
1.0
 10
-9.3795071976
 20
7.9831226702
 30
0.0
 10
-9.3795119095
 20
7.9837771431
 30
0.0
 10
-9.380315712
 20
7.9848205737
 30
0.0
 10
-9.3817695709
 20
7.9857697945
 30
0.0
 10
-9.3842972798
 20
7.9870058779
 30
0.0
 10
-9.3886493411
 20
7.9883961543
 30
0.0
 10
-9.3985522027
 20
7.9907067395
 30
0.0
 10
-9.415195324
 20
7.9931477243
 30
0.0
 10
-9.439730313
 20
7.9955977223
 30
0.0
 10
-9.469638924
 20
7.9975894163
 30
0.0
 10
-9.5037775187
 20
7.9990397512
 30
0.0
 10
-9.5408423434
 20
7.9999226591
 30
0.0
 10
-9.5663804625
 20
8.0
 30
0.0
 10
-9.5794006318
 20
8.0
 30
0.0
 11
-9.3795071976
 21
7.9831226702
 31
0.0
 11
-9.3804762105
 21
7.9848303666
 31
0.0
 11
-9.3816766342
 21
7.9856771867
 31
0.0
 11
-9.3833520124
 21
7.9865162287
 31
0.0
 11
-9.3881081203
 21
7.9881632706
 31
0.0
 11
-9.3947008812
 21
7.9897564081
 31
0.0
 11
-9.4131312973
 21
7.9927209709
 31
0.0
 11
-9.4379529106
 21
7.9952956235
 31
0.0
 11
-9.4682271649
 21
7.9973815636
 31
0.0
 11
-9.502800474
 21
7.9988950128
 31
0.0
 11
-9.5403407257
 21
7.9997831424
 31
0.0
 11
-9.5794006318
 21
8.0
 31
0.0
  0
SPLINE
  5
72A
100
AcDbEntity
  8
0
100
AcDbSpline
 62
7
  6
CONTINUOUS
 70
0
 71
3
 72
9
 73
5
 74
3
 42
0.0000001
 43
0.0000001
 44
0.0000000001
 12
0.0
 22
0.0104266992
 32
0.0
 13
0.0054511496
 23
0.008888252
 33
0.0
 40
0.0
 40
0.0
 40
0.0
 40
0.0
 40
0.3811291802
 40
1.0
 40
1.0
 40
1.0
 40
1.0
 10
-7.6747818283
 20
-23.9541479441
 30
0.0
 10
-7.6747818283
 20
-23.9528233043
 30
0.0
 10
-7.6735042705
 20
-23.9494563487
 30
0.0
 10
-7.6718192112
 20
-23.9464599451
 30
0.0
 10
-7.6706946921
 20
-23.9446263852
 30
0.0
 11
-7.6747818283
 21
-23.9541479441
 31
0.0
 11
-7.6737488058
 21
-23.9503106405
 31
0.0
 11
-7.6706946921
 21
-23.9446263852
 31
0.0
  0
SPLINE
  5
72B
100
AcDbEntity
  8
0
100
AcDbSpline
 62
7
  6
CONTINUOUS
 70
0
 71
3
 72
17
 73
13
 74
11
 42
0.0000001
 43
0.0000001
 44
0.0000000001
 12
0.346925237
 22
0.5656713114
 32
0.0
 13
0.4575178354
 23
0.4806439253
 33
0.0
 40
0.0
 40
0.0
 40
0.0
 40
0.0
 40
0.0246514688
 40
0.0589902972
 40
0.1017393961
 40
0.1515749208
 40
0.2677908088
 40
0.3998580092
 40
0.5423774702
 40
0.6916184532
 40
0.8448689529
 40
1.0
 40
1.0
 40
1.0
 40
1.0
 10
-7.6706946921
 20
-23.9446263852
 30
0.0
 10
-7.6678439532
 20
-23.9399781756
 30
0.0
 10
-7.660143803
 20
-23.9294121395
 30
0.0
 10
-7.6460478005
 20
-23.9118761389
 30
0.0
 10
-7.6278314286
 20
-23.8905060885
 30
0.0
 10
-7.5972953826
 20
-23.8558563268
 30
0.0
 10
-7.5528812426
 20
-23.8071090629
 30
0.0
 10
-7.494038136
 20
-23.7437854305
 30
0.0
 10
-7.4298208821
 20
-23.6754848666
 30
0.0
 10
-7.3621538423
 20
-23.6039979482
 30
0.0
 10
-7.2924276112
 20
-23.530619249
 30
0.0
 10
-7.2453975253
 20
-23.4812120798
 30
0.0
 10
-7.2217391184
 20
-23.4563578147
 30
0.0
 11
-7.6706946921
 21
-23.9446263852
 31
0.0
 11
-7.6613257239
 21
-23.9312168545
 31
0.0
 11
-7.647136985
 21
-23.9133868175
 31
0.0
 11
-7.6287947507
 21
-23.891747051
 31
0.0
 11
-7.6069622566
 21
-23.8669082814
 31
0.0
 11
-7.5551563838
 21
-23.8097816016
 31
0.0
 11
-7.495551749
 21
-23.7455351559
 31
0.0
 11
-7.4308017405
 21
-23.6766036218
 31
0.0
 11
-7.3627407483
 21
-23.6046636256
 31
0.0
 11
-7.2927034882
 21
-23.5309309376
 31
0.0
 11
-7.2217391184
 21
-23.4563578147
 31
0.0
  0
SPLINE
  5
72C
100
AcDbEntity
  8
RACCORDO
100
AcDbSpline
 62
7
  6
CONTINUOUS
 70
0
 71
3
 72
18
 73
14
 74
12
 42
0.0000001
 43
0.0000001
 44
0.0000000001
 12
0.0014564893
 22
-0.2023025782
 32
0.0
 13
0.2023078212
 23
-0.0
 33
0.0
 40
0.0
 40
0.0
 40
0.0
 40
0.0
 40
0.0097053568
 40
0.0169668387
 40
0.0262286416
 40
0.0511076631
 40
0.0846334081
 40
0.1769052776
 40
0.3002558501
 40
0.4502551492
 40
0.6213133847
 40
0.806925368
 40
1.0
 40
1.0
 40
1.0
 40
1.0
 10
-12.970056459
 20
-7.9831226702
 30
0.0
 10
-12.9700517471
 20
-7.9837771431
 30
0.0
 10
-12.9692479446
 20
-7.9848205737
 30
0.0
 10
-12.9677940857
 20
-7.9857697945
 30
0.0
 10
-12.9652663768
 20
-7.9870058779
 30
0.0
 10
-12.9609143155
 20
-7.9883961543
 30
0.0
 10
-12.9510114539
 20
-7.9907067395
 30
0.0
 10
-12.9343683327
 20
-7.9931477243
 30
0.0
 10
-12.9098333436
 20
-7.9955977223
 30
0.0
 10
-12.8799247326
 20
-7.9975894163
 30
0.0
 10
-12.8457861379
 20
-7.9990397512
 30
0.0
 10
-12.8087213132
 20
-7.9999226591
 30
0.0
 10
-12.7831831942
 20
-8.0
 30
0.0
 10
-12.7701630248
 20
-8.0
 30
0.0
 11
-12.970056459
 21
-7.9831226702
 31
0.0
 11
-12.9690874461
 21
-7.9848303666
 31
0.0
 11
-12.9678870224
 21
-7.9856771867
 31
0.0
 11
-12.9662116442
 21
-7.9865162287
 31
0.0
 11
-12.9614555363
 21
-7.9881632706
 31
0.0
 11
-12.9548627754
 21
-7.9897564081
 31
0.0
 11
-12.9364323593
 21
-7.9927209709
 31
0.0
 11
-12.911610746
 21
-7.9952956235
 31
0.0
 11
-12.8813364917
 21
-7.9973815636
 31
0.0
 11
-12.8467631826
 21
-7.9988950128
 31
0.0
 11
-12.8092229309
 21
-7.9997831424
 31
0.0
 11
-12.7701630248
 21
-8.0
 31
0.0
  0
SPLINE
  5
72D
100
AcDbEntity
  8
RACCORDO
100
AcDbSpline
 62
253
  6
CONTINUOUS
 70
0
 71
3
 72
18
 73
14
 74
12
 42
0.0000001
 43
0.0000001
 44
0.0000000001
 12
-0.0014001778
 22
-0.2077066521
 32
0.0
 13
-0.2077076678
 23
0.0012403898
 33
0.0
 40
0.0
 40
0.0
 40
0.0
 40
0.0
 40
0.0170215888
 40
0.038352204
 40
0.0662583361
 40
0.1016026597
 40
0.144586636
 40
0.1951031615
 40
0.3173521521
 40
0.4645647517
 40
0.6315713693
 40
0.8122700175
 40
1.0
 40
1.0
 40
1.0
 40
1.0
 10
-9.4150241886
 20
-13.7512316406
 30
0.0
 10
-9.415032133
 20
-13.7524101397
 30
0.0
 10
-9.4159122358
 20
-13.7550649417
 30
0.0
 10
-9.4191359169
 20
-13.7584327787
 30
0.0
 10
-9.4240625295
 20
-13.7616458317
 30
0.0
 10
-9.4307552485
 20
-13.7647390685
 30
0.0
 10
-9.4391755692
 20
-13.7677099088
 30
0.0
 10
-9.4535747746
 20
-13.7717169494
 30
0.0
 10
-9.4753431447
 20
-13.7759830055
 30
0.0
 10
-9.5053118399
 20
-13.7799523767
 30
0.0
 10
-9.5394680541
 20
-13.7828412508
 30
0.0
 10
-9.5765089039
 20
-13.7845318826
 30
0.0
 10
-9.602022301
 20
-13.784807255
 30
0.0
 10
-9.6150199533
 20
-13.7847296355
 30
0.0
 11
-9.4150241886
 21
-13.7512316406
 31
0.0
 11
-9.4160075453
 21
-13.7546277145
 31
0.0
 11
-9.4189046548
 21
-13.757979889
 31
0.0
 11
-9.4236877868
 21
-13.7612540521
 31
0.0
 11
-9.4303114791
 21
-13.7644199827
 31
0.0
 11
-9.4387107261
 21
-13.7674476038
 31
0.0
 11
-9.4488063827
 21
-13.7703072825
 31
0.0
 11
-9.4736798464
 21
-13.775415133
 31
0.0
 11
-9.503977031
 21
-13.7795477152
 31
0.0
 11
-9.538536353
 21
-13.782546386
 31
0.0
 11
-9.5760287114
 21
-13.784296089
 31
0.0
 11
-9.6150199533
 21
-13.7847296355
 31
0.0
  0
SPLINE
  5
72E
100
AcDbEntity
  8
RACCORDO
100
AcDbSpline
 62
7
  6
CONTINUOUS
 70
0
 71
3
 72
18
 73
14
 74
12
 42
0.0000001
 43
0.0000001
 44
0.0000000001
 12
0.0014564893
 22
0.2023025782
 32
0.0
 13
0.2023078212
 23
0.0
 33
0.0
 40
0.0
 40
0.0
 40
0.0
 40
0.0
 40
0.0097053568
 40
0.0169668387
 40
0.0262286416
 40
0.0511076631
 40
0.0846334081
 40
0.1769052776
 40
0.3002558501
 40
0.4502551492
 40
0.6213133847
 40
0.806925368
 40
1.0
 40
1.0
 40
1.0
 40
1.0
 10
-12.970056459
 20
7.9831226702
 30
0.0
 10
-12.9700517471
 20
7.9837771431
 30
0.0
 10
-12.9692479446
 20
7.9848205737
 30
0.0
 10
-12.9677940857
 20
7.9857697945
 30
0.0
 10
-12.9652663768
 20
7.9870058779
 30
0.0
 10
-12.9609143155
 20
7.9883961543
 30
0.0
 10
-12.9510114539
 20
7.9907067395
 30
0.0
 10
-12.9343683327
 20
7.9931477243
 30
0.0
 10
-12.9098333436
 20
7.9955977223
 30
0.0
 10
-12.8799247326
 20
7.9975894163
 30
0.0
 10
-12.8457861379
 20
7.9990397512
 30
0.0
 10
-12.8087213132
 20
7.9999226591
 30
0.0
 10
-12.7831831942
 20
8.0
 30
0.0
 10
-12.7701630248
 20
8.0
 30
0.0
 11
-12.970056459
 21
7.9831226702
 31
0.0
 11
-12.9690874461
 21
7.9848303666
 31
0.0
 11
-12.9678870224
 21
7.9856771867
 31
0.0
 11
-12.9662116442
 21
7.9865162287
 31
0.0
 11
-12.9614555363
 21
7.9881632706
 31
0.0
 11
-12.9548627754
 21
7.9897564081
 31
0.0
 11
-12.9364323593
 21
7.9927209709
 31
0.0
 11
-12.911610746
 21
7.9952956235
 31
0.0
 11
-12.8813364917
 21
7.9973815636
 31
0.0
 11
-12.8467631826
 21
7.9988950128
 31
0.0
 11
-12.8092229309
 21
7.9997831424
 31
0.0
 11
-12.7701630248
 21
8.0
 31
0.0
  0
SPLINE
  5
72F
100
AcDbEntity
  8
RACCORDO
100
AcDbSpline
 62
7
  6
CONTINUOUS
 70
0
 71
3
 72
18
 73
14
 74
12
 42
0.0000001
 43
0.0000001
 44
0.0000000001
 12
-0.0014564893
 22
-0.2023025782
 32
0.0
 13
-0.2023078212
 23
-0.0
 33
0.0
 40
0.0
 40
0.0
 40
0.0
 40
0.0
 40
0.0097053568
 40
0.0169668387
 40
0.0262286416
 40
0.0511076631
 40
0.0846334081
 40
0.1769052776
 40
0.3002558501
 40
0.4502551492
 40
0.6213133847
 40
0.806925368
 40
1.0
 40
1.0
 40
1.0
 40
1.0
 10
-9.3795071976
 20
-7.9831226702
 30
0.0
 10
-9.3795119095
 20
-7.9837771431
 30
0.0
 10
-9.380315712
 20
-7.9848205737
 30
0.0
 10
-9.3817695709
 20
-7.9857697945
 30
0.0
 10
-9.3842972798
 20
-7.9870058779
 30
0.0
 10
-9.3886493411
 20
-7.9883961543
 30
0.0
 10
-9.3985522027
 20
-7.9907067395
 30
0.0
 10
-9.415195324
 20
-7.9931477243
 30
0.0
 10
-9.439730313
 20
-7.9955977223
 30
0.0
 10
-9.469638924
 20
-7.9975894163
 30
0.0
 10
-9.5037775187
 20
-7.9990397512
 30
0.0
 10
-9.5408423434
 20
-7.9999226591
 30
0.0
 10
-9.5663804625
 20
-8.0
 30
0.0
 10
-9.5794006318
 20
-8.0
 30
0.0
 11
-9.3795071976
 21
-7.9831226702
 31
0.0
 11
-9.3804762105
 21
-7.9848303666
 31
0.0
 11
-9.3816766342
 21
-7.9856771867
 31
0.0
 11
-9.3833520124
 21
-7.9865162287
 31
0.0
 11
-9.3881081203
 21
-7.9881632706
 31
0.0
 11
-9.3947008812
 21
-7.9897564081
 31
0.0
 11
-9.4131312973
 21
-7.9927209709
 31
0.0
 11
-9.4379529106
 21
-7.9952956235
 31
0.0
 11
-9.4682271649
 21
-7.9973815636
 31
0.0
 11
-9.502800474
 21
-7.9988950128
 31
0.0
 11
-9.5403407257
 21
-7.9997831424
 31
0.0
 11
-9.5794006318
 21
-8.0
 31
0.0
  0
ELLIPSE
  5
730
100
AcDbEntity
  8
ASSI
100
AcDbEllipse
 62
7
  6
CONTINUOUS
 10
9.6251877061
 20
-8.0530375578
 30
0.0
 11
0.1414644378
 21
0.1414644378
 31
0.0
 40
0.9996954599
 41
5.497939437
 42
7.0684311773
  0
ELLIPSE
  5
731
100
AcDbEntity
  8
ASSI
100
AcDbEllipse
 62
7
  6
CONTINUOUS
 10
13.0252486373
 20
-8.0530375578
 30
0.0
 11
0.1414644378
 21
-0.1414644378
 31
0.0
 40
0.9996954599
 41
8.6395320906
 42
10.2100238309
  0
ELLIPSE
  5
732
100
AcDbEntity
  8
RACCORDO
100
AcDbEllipse
 62
7
  6
CONTINUOUS
 10
13.0252486373
 20
-8.0530375578
 30
0.0
 11
0.1414644378
 21
-0.1414644378
 31
0.0
 40
0.9996954599
 41
2.3563467834
 42
3.9268385237
  0
ELLIPSE
  5
733
100
AcDbEntity
  8
RACCORDO
100
AcDbEllipse
 62
7
  6
CONTINUOUS
 10
9.6251877061
 20
-8.0530375578
 30
0.0
 11
0.1414644378
 21
0.1414644378
 31
0.0
 40
0.9996954599
 41
-0.7852458701
 42
0.7852458701
  0
ELLIPSE
  5
734
100
AcDbEntity
  8
RACCORDO
100
AcDbEllipse
 62
7
  6
CONTINUOUS
 10
21.8250467754
 20
-21.5998286038
 30
0.0
 11
-0.35379574
 21
0.35379574
 31
0.0
 40
0.999315002
 41
2.3565371065
 42
3.9266482006
  0
ELLIPSE
  5
735
100
AcDbEntity
  8
RACCORDO
100
AcDbEllipse
 62
7
  6
CONTINUOUS
 10
21.8250467754
 20
21.5998286038
 30
0.0
 11
0.35379574
 21
0.35379574
 31
0.0
 40
0.999315002
 41
-0.7850555471
 42
0.7850555471
  0
ELLIPSE
  5
736
100
AcDbEntity
  8
RACCORDO
100
AcDbEllipse
 62
7
  6
CONTINUOUS
 10
-10.595381326
 20
-0.8
 30
0.0
 11
0.0
 21
0.3
 31
0.0
 40
0.0087268678
 41
-0.8762980612
 42
0.0
  0
ELLIPSE
  5
737
100
AcDbEntity
  8
DRAFT
100
AcDbEllipse
 62
7
  6
CONTINUOUS
 10
1.5705978842
 20
12.0
 30
0.0
 11
-0.0
 21
1.0
 31
0.0
 40
0.0087268678
 41
1.1562918433
 42
2.0265118107
  0
ELLIPSE
  5
738
100
AcDbEntity
  8
RACCORDO
100
AcDbEllipse
 62
7
  6
CONTINUOUS
 10
0.7086371229
 20
6.8017377579
 30
0.0
 11
0.0
 21
0.2
 31
0.0
 40
0.0087268678
 41
-1.5707963268
 42
-0.0087266463
  0
ELLIPSE
  5
739
100
AcDbEntity
  8
RACCORDO
100
AcDbEllipse
 62
7
  6
CONTINUOUS
 10
0.7086371229
 20
6.3982622421
 30
0.0
 11
0.0
 21
0.2
 31
0.0
 40
0.0087268678
 41
-3.1328660073
 42
-1.5707963268
  0
ELLIPSE
  5
73A
100
AcDbEntity
  8
RACCORDO
100
AcDbEllipse
 62
7
  6
CONTINUOUS
 10
0.7086371229
 20
-6.3982622421
 30
0.0
 11
-0.0
 21
0.2
 31
0.0
 40
0.0087268678
 41
-1.5707963268
 42
-0.0087266463
  0
ELLIPSE
  5
73B
100
AcDbEntity
  8
RACCORDO
100
AcDbEllipse
 62
7
  6
CONTINUOUS
 10
0.7086371229
 20
-6.8017377579
 30
0.0
 11
0.0
 21
0.2
 31
0.0
 40
0.0087268678
 41
-3.1328660073
 42
-1.5707963268
  0
ELLIPSE
  5
73C
100
AcDbEntity
  8
RACCORDO
100
AcDbEllipse
 62
7
  6
CONTINUOUS
 10
-11.4791338387
 20
-2.6425983805
 30
0.0
 11
0.0298916691
 21
0.2996701959
 31
0.0
 40
0.9961570542
 41
-4.6125882877
 42
-4.133997219
  0
ELLIPSE
  5
73D
100
AcDbEntity
  8
RACCORDO
100
AcDbEllipse
 62
7
  6
CONTINUOUS
 10
-10.5869994432
 20
-0.0
 30
0.0
 11
-0.0
 21
0.95
 31
0.0
 40
0.0087268678
 41
2.2652945924
 42
3.4640614415
  0
ELLIPSE
  5
73E
100
AcDbEntity
  8
RACCORDO
100
AcDbEllipse
 62
7
  6
CONTINUOUS
 10
-10.5869994432
 20
-0.0
 30
0.0
 11
-0.0
 21
0.95
 31
0.0
 40
0.0087268678
 41
-0.322468788
 42
0.8762980612
  0
ELLIPSE
  5
73F
100
AcDbEntity
  8
RACCORDO
100
AcDbEllipse
 62
7
  6
CONTINUOUS
 10
-11.4791338387
 20
2.6425983805
 30
0.0
 11
-0.0298916691
 21
0.2996701959
 31
0.0
 40
0.9961570542
 41
0.9924045655
 42
1.4709956341
  0
ELLIPSE
  5
740
100
AcDbEntity
  8
RACCORDO
100
AcDbEllipse
 62
7
  6
CONTINUOUS
 10
7.353191974
 20
20.5450095647
 30
0.0
 11
0.3
 21
-0.0
 31
0.0
 40
0.0261859216
 41
1.5707963268
 42
3.1241393611
  0
ELLIPSE
  5
741
100
AcDbEntity
  8
ASSI
100
AcDbEllipse
 62
7
  6
CONTINUOUS
 10
21.146166909
 20
-0.0
 30
0.0
 11
-0.0
 21
5.3
 31
0.0
 40
0.0261859216
 41
1.2512238213
 42
1.8903688323
  0
ELLIPSE
  5
742
100
AcDbEntity
  8
ASSI
100
AcDbEllipse
 62
7
  6
CONTINUOUS
 10
20.9890513795
 20
12.0
 30
0.0
 11
-0.0
 21
1.0
 31
0.0
 40
0.0261859216
 41
-1.8230995571
 42
-1.3184930964
  0
ELLIPSE
  5
743
100
AcDbEntity
  8
RACCORDO
100
AcDbEllipse
 62
7
  6
CONTINUOUS
 10
7.4972443694
 20
20.5450095647
 30
0.0
 11
0.3
 21
-0.0
 31
0.0
 40
0.0261859216
 41
0.0174532925
 42
1.5707963268
  0
ELLIPSE
  5
744
100
AcDbEntity
  8
RACCORDO
100
AcDbEllipse
 62
7
  6
CONTINUOUS
 10
-10.5992170581
 20
1.3
 30
0.0
 11
0.0
 21
0.8
 31
0.0
 40
0.0087268678
 41
-4.7123889804
 42
-3.1415926536
  0
ELLIPSE
  5
745
100
AcDbEntity
  8
RACCORDO
100
AcDbEllipse
 62
7
  6
CONTINUOUS
 10
-10.5974716846
 20
1.6687096373
 30
0.0
 11
0.0
 21
1.0
 31
0.0
 40
0.0087268678
 41
0.0872664626
 42
1.5707963268
  0
ELLIPSE
  5
746
100
AcDbEntity
  8
RACCORDO
100
AcDbEllipse
 62
7
  6
CONTINUOUS
 10
-10.5974716846
 20
-1.6687096373
 30
0.0
 11
-0.0
 21
1.0
 31
0.0
 40
0.0087268678
 41
-4.7123889804
 42
-3.2288591162
  0
ELLIPSE
  5
747
100
AcDbEntity
  8
RACCORDO
100
AcDbEllipse
 62
7
  6
CONTINUOUS
 10
-10.5992170581
 20
-1.3
 30
0.0
 11
-0.0
 21
0.8
 31
0.0
 40
0.0087268678
 41
-0.0
 42
1.5707963268
  0
ELLIPSE
  5
748
100
AcDbEntity
  8
RACCORDO
100
AcDbEllipse
 62
7
  6
CONTINUOUS
 10
20.8251153339
 20
20.2998971623
 30
0.0
 11
0.212277444
 21
0.212277444
 31
0.0
 40
0.999315002
 41
-0.7850555471
 42
0.7850555471
  0
ELLIPSE
  5
749
100
AcDbEntity
  8
RACCORDO
100
AcDbEllipse
 62
7
  6
CONTINUOUS
 10
20.8251153339
 20
-20.2998971623
 30
0.0
 11
-0.212277444
 21
0.212277444
 31
0.0
 40
0.999315002
 41
-3.9266482006
 42
-2.3565371065
  0
ELLIPSE
  5
74A
100
AcDbEntity
  8
RACCORDO
100
AcDbEllipse
 62
7
  6
CONTINUOUS
 10
15.153191974
 20
20.5450095647
 30
0.0
 11
0.3
 21
-0.0
 31
0.0
 40
0.0261859216
 41
1.5707963268
 42
3.1241393611
  0
ELLIPSE
  5
74B
100
AcDbEntity
  8
RACCORDO
100
AcDbEllipse
 62
7
  6
CONTINUOUS
 10
15.2972443694
 20
20.5450095647
 30
0.0
 11
0.3
 21
0.0
 31
0.0
 40
0.0261859216
 41
0.0174532925
 42
1.5707963268
  0
ELLIPSE
  5
74C
100
AcDbEntity
  8
0
100
AcDbEllipse
 62
7
  6
CONTINUOUS
 10
-12.3747818283
 20
23.7941787855
 30
0.0
 11
-0.0
 21
-0.2000033847
 31
0.0
 40
0.9999830769
 41
1.5707963268
 42
3.1415926536
  0
ELLIPSE
  5
74D
100
AcDbEntity
  8
0
100
AcDbEllipse
 62
7
  6
CONTINUOUS
 10
-9.9747818283
 20
23.7941787855
 30
0.0
 11
0.0
 21
0.2000033847
 31
0.0
 40
0.9999830769
 41
6.2831853072
 42
7.853981634
  0
ELLIPSE
  5
74E
100
AcDbEntity
  8
0
100
AcDbEllipse
 62
7
  6
CONTINUOUS
 10
-15.5811481047
 20
23.4563578147
 30
0.0
 11
-0.0
 21
0.5
 31
0.0
 40
0.0058178298
 41
-0.0993492953
 42
-0.0058177642
  0
ELLIPSE
  5
74F
100
AcDbEntity
  8
RACCORDO
100
AcDbEllipse
 62
7
  6
CONTINUOUS
 10
-6.5632965295
 20
20.2942577878
 30
0.0
 11
0.0
 21
0.2
 31
0.0
 40
0.0174550649
 41
-3.1590459461
 42
-3.1503192999
  0
ELLIPSE
  5
750
100
AcDbEntity
  8
0
100
AcDbEllipse
 62
7
  6
CONTINUOUS
 10
-7.2217391184
 20
-22.3560930869
 30
0.0
 11
0.4530427099
 21
-0.0
 31
0.0
 40
0.0058178298
 41
0.0058177642
 42
3.1415926536
  0
ELLIPSE
  5
751
100
AcDbEntity
  8
0
100
AcDbEllipse
 62
7
  6
CONTINUOUS
 10
-15.1278245382
 20
-22.3560930869
 30
0.0
 11
0.4530427099
 21
0.0
 31
0.0
 40
0.0058178298
 41
0.0
 42
3.1357748894
  0
ELLIPSE
  5
752
100
AcDbEntity
  8
0
100
AcDbEllipse
 62
7
  6
CONTINUOUS
 10
-7.2217391184
 20
22.3560930869
 30
0.0
 11
0.4530427099
 21
-0.0
 31
0.0
 40
0.0058178298
 41
-3.1415926536
 42
-0.0058177642
  0
ELLIPSE
  5
753
100
AcDbEntity
  8
0
100
AcDbEllipse
 62
7
  6
CONTINUOUS
 10
-6.7684155519
 20
23.4563578147
 30
0.0
 11
-0.0
 21
0.5
 31
0.0
 40
0.0058178298
 41
0.0058177642
 42
0.0993492953
  0
ELLIPSE
  5
754
100
AcDbEntity
  8
0
100
AcDbEllipse
 62
7
  6
CONTINUOUS
 10
-15.1278245382
 20
22.3560930869
 30
0.0
 11
0.4530427099
 21
-0.0
 31
0.0
 40
0.0058178298
 41
-3.1357748894
 42
-0.0
  0
ELLIPSE
  5
755
100
AcDbEntity
  8
0
100
AcDbEllipse
 62
7
  6
CONTINUOUS
 10
-12.3747818283
 20
-23.7941787855
 30
0.0
 11
-0.0
 21
-0.2000033847
 31
0.0
 40
0.9999830769
 41
-0.0
 42
1.5707963268
  0
ELLIPSE
  5
756
100
AcDbEntity
  8
0
100
AcDbEllipse
 62
7
  6
CONTINUOUS
 10
-6.7684155519
 20
-23.4563578147
 30
0.0
 11
0.0
 21
0.5
 31
0.0
 40
0.0058178298
 41
-3.2409419489
 42
-3.1474104178
  0
ELLIPSE
  5
757
100
AcDbEntity
  8
RACCORDO
100
AcDbEllipse
 62
7
  6
CONTINUOUS
 10
-7.4862671271
 20
20.2942577878
 30
0.0
 11
0.0
 21
0.2
 31
0.0
 40
0.0174550649
 41
-3.1328660073
 42
-3.1241393611
  0
ELLIPSE
  5
758
100
AcDbEntity
  8
RACCORDO
100
AcDbEllipse
 62
7
  6
CONTINUOUS
 10
-14.8632965295
 20
20.2942577878
 30
0.0
 11
-0.0
 21
0.2
 31
0.0
 40
0.0174550649
 41
-3.1590459461
 42
-3.1503192999
  0
ELLIPSE
  5
759
100
AcDbEntity
  8
RACCORDO
100
AcDbEllipse
 62
7
  6
CONTINUOUS
 10
-15.7862671271
 20
20.2942577878
 30
0.0
 11
-0.0
 21
0.2
 31
0.0
 40
0.0174550649
 41
-3.1328660073
 42
-3.1241393611
  0
ELLIPSE
  5
75A
100
AcDbEntity
  8
0
100
AcDbEllipse
 62
7
  6
CONTINUOUS
 10
-1.2747860592
 20
23.4113248654
 30
0.0
 11
-0.0029088041
 21
0.2886641433
 31
0.0
 40
0.8660144118
 41
-3.150319066
 42
-1.582431609
  0
ELLIPSE
  5
75B
100
AcDbEntity
  8
0
100
AcDbEllipse
 62
7
  6
CONTINUOUS
 10
-3.6747775974
 20
23.4113248654
 30
0.0
 11
0.0029088041
 21
0.2886641433
 31
0.0
 40
0.8660144118
 41
-4.7007536982
 42
-3.1328662412
  0
ELLIPSE
  5
75C
100
AcDbEntity
  8
RACCORDO
100
AcDbEllipse
 62
7
  6
CONTINUOUS
 10
-15.7862671271
 20
-20.2942577878
 30
0.0
 11
0.0
 21
0.2
 31
0.0
 40
0.0174550649
 41
-0.0174532925
 42
-0.0087266463
  0
ELLIPSE
  5
75D
100
AcDbEntity
  8
0
100
AcDbEllipse
 62
7
  6
CONTINUOUS
 10
-18.6747860592
 20
23.4113248654
 30
0.0
 11
-0.0029088041
 21
0.2886641433
 31
0.0
 40
0.8660144118
 41
-3.150319066
 42
-1.582431609
  0
ELLIPSE
  5
75E
100
AcDbEntity
  8
0
100
AcDbEllipse
 62
7
  6
CONTINUOUS
 10
-21.0747775974
 20
23.4113248654
 30
0.0
 11
0.0029088041
 21
0.2886641433
 31
0.0
 40
0.8660144118
 41
-4.7007536982
 42
-3.1328662412
  0
ELLIPSE
  5
75F
100
AcDbEntity
  8
0
100
AcDbEllipse
 62
7
  6
CONTINUOUS
 10
-1.2747860592
 20
-23.4113248654
 30
0.0
 11
0.0029088041
 21
0.2886641433
 31
0.0
 40
0.8660144118
 41
-1.5591610446
 42
0.0087264124
  0
ELLIPSE
  5
760
100
AcDbEntity
  8
0
100
AcDbEllipse
 62
7
  6
CONTINUOUS
 10
-3.6747775974
 20
-23.4113248654
 30
0.0
 11
-0.0029088041
 21
0.2886641433
 31
0.0
 40
0.8660144118
 41
-0.0087264124
 42
1.5591610446
  0
ELLIPSE
  5
761
100
AcDbEntity
  8
0
100
AcDbEllipse
 62
7
  6
CONTINUOUS
 10
-21.0747775974
 20
-23.4113248654
 30
0.0
 11
-0.0029088041
 21
0.2886641433
 31
0.0
 40
0.8660144118
 41
-0.0087264124
 42
1.5591610446
  0
ELLIPSE
  5
762
100
AcDbEntity
  8
0
100
AcDbEllipse
 62
7
  6
CONTINUOUS
 10
-18.6747860592
 20
-23.4113248654
 30
0.0
 11
0.0029088041
 21
0.2886641433
 31
0.0
 40
0.8660144118
 41
-1.5591610446
 42
0.0087264124
  0
ELLIPSE
  5
763
100
AcDbEntity
  8
RACCORDO
100
AcDbEllipse
 62
7
  6
CONTINUOUS
 10
-7.4862671271
 20
-20.2942577878
 30
0.0
 11
0.0
 21
0.2
 31
0.0
 40
0.0174550649
 41
-0.0174532925
 42
-0.0087266463
  0
ELLIPSE
  5
764
100
AcDbEntity
  8
RACCORDO
100
AcDbEllipse
 62
7
  6
CONTINUOUS
 10
-14.8632965295
 20
-20.2942577878
 30
0.0
 11
0.0
 21
0.2
 31
0.0
 40
0.0174550649
 41
0.0087266463
 42
0.0174532925
  0
ELLIPSE
  5
765
100
AcDbEntity
  8
RACCORDO
100
AcDbEllipse
 62
7
  6
CONTINUOUS
 10
-6.5632965295
 20
-20.2942577878
 30
0.0
 11
0.0
 21
0.2
 31
0.0
 40
0.0174550649
 41
0.0087266463
 42
0.0174532925
  0
ELLIPSE
  5
766
100
AcDbEntity
  8
0
100
AcDbEllipse
 62
7
  6
CONTINUOUS
 10
-9.9747818283
 20
-23.7941787855
 30
0.0
 11
0.0
 21
0.2000033847
 31
0.0
 40
0.9999830769
 41
7.853981634
 42
9.4247779608
  0
ELLIPSE
  5
767
100
AcDbEntity
  8
0
100
AcDbEllipse
 62
7
  6
CONTINUOUS
 10
-15.5811481047
 20
-23.4563578147
 30
0.0
 11
-0.0
 21
0.5
 31
0.0
 40
0.0058178298
 41
-3.1357748894
 42
-3.0422433583
  0
ELLIPSE
  5
768
100
AcDbEntity
  8
RACCORDO
100
AcDbEllipse
 62
7
  6
CONTINUOUS
 10
-8.9896098879
 20
2.8950136038
 30
0.0
 11
0.2
 21
0.0
 31
0.0
 40
0.0874886635
 41
3.054326191
 42
3.1328660073
  0
ELLIPSE
  5
769
100
AcDbEntity
  8
RACCORDO
100
AcDbEllipse
 62
7
  6
CONTINUOUS
 10
-13.3599537687
 20
2.8950136038
 30
0.0
 11
0.2
 21
0.0
 31
0.0
 40
0.0874886635
 41
0.0087266463
 42
0.0872664626
  0
ELLIPSE
  5
76A
100
AcDbEntity
  8
RACCORDO
100
AcDbEllipse
 62
7
  6
CONTINUOUS
 10
-13.3599537687
 20
-2.8950136038
 30
0.0
 11
0.2
 21
0.0
 31
0.0
 40
0.0874886635
 41
-0.0872664626
 42
-0.0087266463
  0
ELLIPSE
  5
76B
100
AcDbEntity
  8
0
100
AcDbEllipse
 62
7
  6
CONTINUOUS
 10
-0.5330913919
 20
21.8941737085
 30
0.0
 11
-0.4160498344
 21
-0.2773626446
 31
0.0
 40
0.9999450019
 41
2.5536219432
 42
4.1243675013
  0
ELLIPSE
  5
76C
100
AcDbEntity
  8
0
100
AcDbEllipse
 62
7
  6
CONTINUOUS
 10
-0.5330913919
 20
-21.8941737085
 30
0.0
 11
0.4160498344
 21
-0.2773626446
 31
0.0
 40
0.9999450019
 41
-0.9827748477
 42
0.5879707104
  0
ELLIPSE
  5
76D
100
AcDbEntity
  8
0
100
AcDbEllipse
 62
7
  6
CONTINUOUS
 10
-21.8164722647
 20
21.8941737085
 30
0.0
 11
-0.4160498344
 21
0.2773626446
 31
0.0
 40
0.9999450019
 41
-0.9827748477
 42
0.5879707104
  0
ELLIPSE
  5
76E
100
AcDbEntity
  8
0
100
AcDbEllipse
 62
7
  6
CONTINUOUS
 10
-21.8164722647
 20
-21.8941737085
 30
0.0
 11
0.4160498344
 21
0.2773626446
 31
0.0
 40
0.9999450019
 41
2.5536219432
 42
4.1243675013
  0
ELLIPSE
  5
76F
100
AcDbEntity
  8
RACCORDO
100
AcDbEllipse
 62
7
  6
CONTINUOUS
 10
-8.9896098879
 20
-2.8950136038
 30
0.0
 11
0.2
 21
0.0
 31
0.0
 40
0.0874886635
 41
-3.1328660073
 42
-3.054326191
  0
ELLIPSE
  5
770
100
AcDbEntity
  8
DRAFT
100
AcDbEllipse
 62
7
  6
CONTINUOUS
 10
-13.1093303199
 20
-0.0
 30
0.0
 11
0.0
 21
0.9
 31
0.0
 40
0.0087268678
 41
0.4936309723
 42
2.6479616813
  0
ELLIPSE
  5
771
100
AcDbEntity
  8
DRAFT
100
AcDbEllipse
 62
7
  6
CONTINUOUS
 10
-9.2402333367
 20
-0.0
 30
0.0
 11
-0.0
 21
0.9
 31
0.0
 40
0.0087268678
 41
-2.6479616813
 42
-0.4936309723
  0
ENDSEC
  0
SECTION
  2
OBJECTS
  0
DICTIONARY
  5
C
100
AcDbDictionary
280
0
281
1
  3
ACAD_GROUP
350
D
  3
ACAD_MLINESTYLE
350
17
  3
ACAD_LAYOUT
350
1A
  3
ACAD_PLOTSETTINGS
350
19
  3
ACAD_PLOTSTYLENAME
350
E
  0
DICTIONARY
  5
D
102
{ACAD_REACTORS
330
C
102
}
100
AcDbDictionary
280
0
281
1
  0
ACDBDICTIONARYWDFLT
  5
E
102
{ACAD_REACTORS
330
C
102
}
100
AcDbDictionary
281
1
  3
Normal
350
F
100
AcDbDictionaryWithDefault
340
F
  0
DICTIONARY
  5
17
102
{ACAD_REACTORS
330
C
102
}
100
AcDbDictionary
280
0
281
1
  3
Standard
350
18
  0
DICTIONARY
  5
19
102
{ACAD_REACTORS
330
C
102
}
100
AcDbDictionary
281
1
  0
DICTIONARY
  5
1A
102
{ACAD_REACTORS
330
C
102
}
100
AcDbDictionary
281
1
  3
Model
350
772
  3
Layout1
350
773
  0
ACDBPLACEHOLDER
  5
F
102
{ACAD_REACTORS
330
E
102
}
  0
MLINESTYLE
  5
18
102
{ACAD_REACTORS
330
17
102
}
100
AcDbMlineStyle
  2
STANDARD
 70
0
  3

 62
256
 51
90.0
 52
90.0
 71
2
 49
0.5
 62
256
  6
BYLAYER
 49
-0.5
 62
256
  6
BYLAYER
  0
LAYOUT
  5
772
102
{ACAD_REACTORS
330
1A
102
}
100
AcDbPlotSettings
  1

  2
none_device
  4
ISO_A4_(297.00_x_210.00_MM)
  6

 40
0.0
 41
0.0
 42
0.0
 43
0.0
 44
297.0
 45
210.0
 46
0.0
 47
0.0
 48
0.0
 49
0.0
140
0.0
141
0.0
142
1.0
143
1.0
 70
1024
 72
1
 73
0
 74
0
  7

 75
0
147
1.0
148
0.0
149
0.0
100
AcDbLayout
  1
Model
 70
0
 71
0
 10
0.0
 20
0.0
 11
297.0
 21
210.0
 12
0.0
 22
0.0
 32
0.0
 14
0.0
 24
0.0
 34
0.0
 15
0.0
 25
0.0
 35
0.0
146
0.0
 13
0.0
 23
0.0
 33
0.0
 16
1.0
 26
0.0
 36
0.0
 17
0.0
 27
1.0
 37
0.0
 76
0
330
214
345
0
346
0
  0
LAYOUT
  5
773
102
{ACAD_REACTORS
330
1A
102
}
100
AcDbPlotSettings
  1

  2
none_device
  4
ISO_A4_(297.00_x_210.00_MM)
  6

 40
0.0
 41
0.0
 42
0.0
 43
0.0
 44
297.0
 45
210.0
 46
0.0
 47
0.0
 48
0.0
 49
0.0
140
0.0
141
0.0
142
1.0
143
1.0
 70
0
 72
1
 73
0
 74
0
  7

 75
0
147
1.0
148
0.0
149
0.0
100
AcDbLayout
  1
Layout1
 70
0
 71
1
 10
0.0
 20
0.0
 11
297.0
 21
210.0
 12
0.0
 22
0.0
 32
0.0
 14
0.0
 24
0.0
 34
0.0
 15
0.0
 25
0.0
 35
0.0
146
0.0
 13
0.0
 23
0.0
 33
0.0
 16
1.0
 26
0.0
 36
0.0
 17
0.0
 27
1.0
 37
0.0
 76
0
330
215
345
0
346
0
  0
ENDSEC
  0
EOF
