  0
SECTION
  2
HEADER
  9
$ACADVER
  1
AC1015
  9
$DWGCODEPAGE
  3
ANSI_1252
  9
$EXTMAX
 10
297.0
 20
210.0
 30
0.0
  9
$EXTMIN
 10
0.0
 20
0.0
 30
0.0
  9
$LIMMIN
 10
0.0
 20
0.0
  9
$LIMMAX
 10
297.0
 20
210.0
  9
$VIEWCTR
 10
148.5
 20
105.0
  9
$VIEWSIZE
 40
210.0
  9
$CLAYER
  8
0
  9
$LTSCALE
 40
16.335
  9
$CELTYPE
  6
BYLAYER
  9
$DIMSCALE
 40
1.0
  9
$DIMASZ
 40
3.0
  9
$DIMEXO
 40
0.5
  9
$DIMDLI
 40
11.286
  9
$DIMEXE
 40
1.5
  9
$DIMCEN
 40
2.673
  9
$DIMLFAC
 40
1.0
  9
$DIMBLK
  1
_FILLED
  9
$DIMTXT
 40
3.0
  9
$DIMTOL
 70
1
  9
$DIMLIM
 70
0
  9
$DIMTFAC
 40
1.0
  9
$DIMTP
 40
0.01
  9
$DIMTM
 40
0.01
  9
$DIMGAP
 40
0.625
  9
$DIMDSEP
 70
44
  9
$PDMODE
 70
3
  9
$PDSIZE
 40
3.0
  9
$HANDSEED
  5
792
  9
$TILEMODE
 70
1
  9
$MEASUREMENT
 70
1
  9
$INSUNITS
 70
4
  0
ENDSEC
  0
SECTION
  2
CLASSES
  0
CLASS
  1
ACDBDICTIONARYWDFLT
  2
AcDbDictionaryWithDefault
  3
AutoCAD 2000
 90
0
280
0
281
0
  0
CLASS
  1
ACDBPLACEHOLDER
  2
AcDbPlaceHolder
  3
AutoCAD 2000
 90
0
280
0
281
0
  0
CLASS
  1
LAYOUT
  2
AcDbLayout
  3
AutoCAD 2000
 90
0
280
0
281
0
  0
ENDSEC
  0
SECTION
  2
TABLES
  0
TABLE
  2
VPORT
  5
8
100
AcDbSymbolTable
 70
2
  0
VPORT
  5
1F4
100
AcDbSymbolTableRecord
100
AcDbViewportTableRecord
  2
*ACTIVE
 70
0
 10
0.0
 20
0.0
 11
1.0
 21
1.0
 12
148.5
 22
105.0
 13
0.0
 23
0.0
 14
1.0
 24
1.0
 15
0.0
 25
0.0
 16
0.0
 26
0.0
 36
1.0
 17
0.0
 27
0.0
 37
0.0
 40
210.0
 41
1.4142857143
 42
50.0
 43
0.0
 44
0.0
 50
0.0
 51
0.0
 71
0
 72
100
 73
1
 74
1
 75
0
 76
0
 77
0
 78
0
  0
ENDTAB
  0
TABLE
  2
LTYPE
  5
5
100
AcDbSymbolTable
 70
6
  0
LTYPE
  5
14
100
AcDbSymbolTableRecord
100
AcDbLinetypeTableRecord
  2
BYBLOCK
 70
0
  3

 72
65
 73
0
 40
0.0
  0
LTYPE
  5
15
100
AcDbSymbolTableRecord
100
AcDbLinetypeTableRecord
  2
BYLAYER
 70
0
  3

 72
65
 73
0
 40
0.0
  0
LTYPE
  5
16
100
AcDbSymbolTableRecord
100
AcDbLinetypeTableRecord
  2
CONTINUOUS
 70
64
  3
Solid line
 72
65
 73
0
 40
0.0
  0
LTYPE
  5
1F5
100
AcDbSymbolTableRecord
100
AcDbLinetypeTableRecord
  2
CENTER
 70
64
  3
____ _ ____ _ ____ _ ____ _ ____ _ ____ _ ____
 72
65
 73
4
 40
0.6
 49
0.375
 74
0
 49
-0.075
 74
0
 49
0.075
 74
0
 49
-0.075
 74
0
  0
LTYPE
  5
1F6
100
AcDbSymbolTableRecord
100
AcDbLinetypeTableRecord
  2
HIDDEN
 70
64
  3
- - - - - - - - - - - - - - - - - - - -
 72
65
 73
2
 40
0.2
 49
0.1
 74
0
 49
-0.1
 74
0
  0
LTYPE
  5
1F7
100
AcDbSymbolTableRecord
100
AcDbLinetypeTableRecord
  2
PHANTOM
 70
64
  3
_____ _ _ _____ _ _ _____ _ _ _____
 72
65
 73
6
 40
0.8
 49
0.45
 74
0
 49
-0.05
 74
0
 49
0.1
 74
0
 49
-0.05
 74
0
 49
0.1
 74
0
 49
-0.05
 74
0
  0
LTYPE
  5
1F8
100
AcDbSymbolTableRecord
100
AcDbLinetypeTableRecord
  2
DOT
 70
64
  3
. . . . . . . . . . . . . . . . . . . .
 72
65
 73
2
 40
0.2
 49
0.1
 74
0
 49
-0.1
 74
0
  0
LTYPE
  5
1F9
100
AcDbSymbolTableRecord
100
AcDbLinetypeTableRecord
  2
DASHED
 70
64
  3
- - - - - - - - - - - - - - - - - - - -
 72
65
 73
2
 40
0.2
 49
0.1
 74
0
 49
-0.1
 74
0
  0
ENDTAB
  0
TABLE
  2
LAYER
  5
2
100
AcDbSymbolTable
 70
36
  0
LAYER
  5
10
100
AcDbSymbolTableRecord
100
AcDbLayerTableRecord
  2
0
 70
0
 62
7
  6
CONTINUOUS
370
-3
390
F
  0
LAYER
  5
1FA
100
AcDbSymbolTableRecord
100
AcDbLayerTableRecord
  2
DEFAULT_1
 70
0
 62
7
  6
CENTER
370
-3
390
F
  0
LAYER
  5
1FB
100
AcDbSymbolTableRecord
100
AcDbLayerTableRecord
  2
DEFAULT_2
 70
0
 62
7
  6
HIDDEN
370
-3
390
F
  0
LAYER
  5
1FC
100
AcDbSymbolTableRecord
100
AcDbLayerTableRecord
  2
DEFAULT_3
 70
0
 62
7
  6
PHANTOM
370
-3
390
F
  0
LAYER
  5
1FD
100
AcDbSymbolTableRecord
100
AcDbLayerTableRecord
  2
ASSI
 70
0
 62
7
  6
CONTINUOUS
370
-3
390
F
  0
LAYER
  5
1FE
100
AcDbSymbolTableRecord
100
AcDbLayerTableRecord
  2
COLOR4
 70
0
 62
7
  6
CONTINUOUS
370
-3
390
F
  0
LAYER
  5
1FF
100
AcDbSymbolTableRecord
100
AcDbLayerTableRecord
  2
COLOR9
 70
0
 62
7
  6
CONTINUOUS
370
-3
390
F
  0
LAYER
  5
200
100
AcDbSymbolTableRecord
100
AcDbLayerTableRecord
  2
COLORE_MATERIALE
 70
0
 62
7
  6
CONTINUOUS
370
-3
390
F
  0
LAYER
  5
201
100
AcDbSymbolTableRecord
100
AcDbLayerTableRecord
  2
COORDINATE
 70
0
 62
7
  6
CONTINUOUS
370
-3
390
F
  0
LAYER
  5
202
100
AcDbSymbolTableRecord
100
AcDbLayerTableRecord
  2
COORD_ORIGINE
 70
0
 62
7
  6
CONTINUOUS
370
-3
390
F
  0
LAYER
  5
203
100
AcDbSymbolTableRecord
100
AcDbLayerTableRecord
  2
COPY
 70
0
 62
7
  6
CONTINUOUS
370
-3
390
F
  0
LAYER
  5
204
100
AcDbSymbolTableRecord
100
AcDbLayerTableRecord
  2
COPY_GEOMETRY
 70
0
 62
7
  6
CONTINUOUS
370
-3
390
F
  0
LAYER
  5
205
100
AcDbSymbolTableRecord
100
AcDbLayerTableRecord
  2
COPY_PUBLISH
 70
0
 62
7
  6
CONTINUOUS
370
-3
390
F
  0
LAYER
  5
206
100
AcDbSymbolTableRecord
100
AcDbLayerTableRecord
  2
COSMETIC
 70
0
 62
7
  6
CONTINUOUS
370
-3
390
F
  0
LAYER
  5
207
100
AcDbSymbolTableRecord
100
AcDbLayerTableRecord
  2
COSMETICI
 70
0
 62
7
  6
CONTINUOUS
370
-3
390
F
  0
LAYER
  5
208
100
AcDbSymbolTableRecord
100
AcDbLayerTableRecord
  2
CURVE
 70
0
 62
7
  6
CONTINUOUS
370
-3
390
F
  0
LAYER
  5
209
100
AcDbSymbolTableRecord
100
AcDbLayerTableRecord
  2
DRAFT
 70
0
 62
7
  6
CONTINUOUS
370
-3
390
F
  0
LAYER
  5
20A
100
AcDbSymbolTableRecord
100
AcDbLayerTableRecord
  2
IGES
 70
0
 62
7
  6
CONTINUOUS
370
-3
390
F
  0
LAYER
  5
20B
100
AcDbSymbolTableRecord
100
AcDbLayerTableRecord
  2
IGS
 70
0
 62
7
  6
CONTINUOUS
370
-3
390
F
  0
LAYER
  5
20C
100
AcDbSymbolTableRecord
100
AcDbLayerTableRecord
  2
IGS_SCRITTE
 70
0
 62
7
  6
CONTINUOUS
370
-3
390
F
  0
LAYER
  5
20D
100
AcDbSymbolTableRecord
100
AcDbLayerTableRecord
  2
IMPORT_IGES
 70
0
 62
7
  6
CONTINUOUS
370
-3
390
F
  0
LAYER
  5
20E
100
AcDbSymbolTableRecord
100
AcDbLayerTableRecord
  2
INTFCLR_137
 70
0
 62
7
  6
CONTINUOUS
370
-3
390
F
  0
LAYER
  5
20F
100
AcDbSymbolTableRecord
100
AcDbLayerTableRecord
  2
INTFCLR_20107
 70
0
 62
7
  6
CONTINUOUS
370
-3
390
F
  0
LAYER
  5
210
100
AcDbSymbolTableRecord
100
AcDbLayerTableRecord
  2
INTFCLR_20625
 70
0
 62
7
  6
CONTINUOUS
370
-3
390
F
  0
LAYER
  5
211
100
AcDbSymbolTableRecord
100
AcDbLayerTableRecord
  2
INTFCLR_4627
 70
0
 62
7
  6
CONTINUOUS
370
-3
390
F
  0
LAYER
  5
212
100
AcDbSymbolTableRecord
100
AcDbLayerTableRecord
  2
INTFCLR_6275
 70
0
 62
7
  6
CONTINUOUS
370
-3
390
F
  0
LAYER
  5
213
100
AcDbSymbolTableRecord
100
AcDbLayerTableRecord
  2
INTF_1
 70
0
 62
7
  6
CONTINUOUS
370
-3
390
F
  0
LAYER
  5
214
100
AcDbSymbolTableRecord
100
AcDbLayerTableRecord
  2
INTF_11
 70
0
 62
7
  6
CONTINUOUS
370
-3
390
F
  0
LAYER
  5
215
100
AcDbSymbolTableRecord
100
AcDbLayerTableRecord
  2
INTF_12
 70
0
 62
7
  6
CONTINUOUS
370
-3
390
F
  0
LAYER
  5
216
100
AcDbSymbolTableRecord
100
AcDbLayerTableRecord
  2
INTF_6
 70
0
 62
7
  6
CONTINUOUS
370
-3
390
F
  0
LAYER
  5
217
100
AcDbSymbolTableRecord
100
AcDbLayerTableRecord
  2
INTF_YELLOW
 70
0
 62
7
  6
CONTINUOUS
370
-3
390
F
  0
LAYER
  5
218
100
AcDbSymbolTableRecord
100
AcDbLayerTableRecord
  2
NOTE
 70
0
 62
7
  6
CONTINUOUS
370
-3
390
F
  0
LAYER
  5
219
100
AcDbSymbolTableRecord
100
AcDbLayerTableRecord
  2
PIANI
 70
0
 62
7
  6
CONTINUOUS
370
-3
390
F
  0
LAYER
  5
21A
100
AcDbSymbolTableRecord
100
AcDbLayerTableRecord
  2
PIANI_ORIGINE
 70
0
 62
7
  6
CONTINUOUS
370
-3
390
F
  0
LAYER
  5
21B
100
AcDbSymbolTableRecord
100
AcDbLayerTableRecord
  2
PIANI_RIFERIMENTO
 70
0
 62
7
  6
CONTINUOUS
370
-3
390
F
  0
LAYER
  5
21C
100
AcDbSymbolTableRecord
100
AcDbLayerTableRecord
  2
PIANI_SFORMO
 70
0
 62
7
  6
CONTINUOUS
370
-3
390
F
  0
LAYER
  5
21D
100
AcDbSymbolTableRecord
100
AcDbLayerTableRecord
  2
PUBLISH_GEOMETRY
 70
0
 62
7
  6
CONTINUOUS
370
-3
390
F
  0
LAYER
  5
21E
100
AcDbSymbolTableRecord
100
AcDbLayerTableRecord
  2
PUNTI
 70
0
 62
7
  6
CONTINUOUS
370
-3
390
F
  0
LAYER
  5
21F
100
AcDbSymbolTableRecord
100
AcDbLayerTableRecord
  2
RACCORDO
 70
0
 62
7
  6
CONTINUOUS
370
-3
390
F
  0
LAYER
  5
220
100
AcDbSymbolTableRecord
100
AcDbLayerTableRecord
  2
SIMBOLI
 70
0
 62
7
  6
CONTINUOUS
370
-3
390
F
  0
LAYER
  5
221
100
AcDbSymbolTableRecord
100
AcDbLayerTableRecord
  2
SMUSSO
 70
0
 62
7
  6
CONTINUOUS
370
-3
390
F
  0
LAYER
  5
222
100
AcDbSymbolTableRecord
100
AcDbLayerTableRecord
  2
SNAPLINE
 70
0
 62
7
  6
CONTINUOUS
370
-3
390
F
  0
LAYER
  5
223
100
AcDbSymbolTableRecord
100
AcDbLayerTableRecord
  2
SOLIDO
 70
0
 62
7
  6
CONTINUOUS
370
-3
390
F
  0
LAYER
  5
224
100
AcDbSymbolTableRecord
100
AcDbLayerTableRecord
  2
SUPERFICI
 70
0
 62
7
  6
CONTINUOUS
370
-3
390
F
  0
LAYER
  5
225
100
AcDbSymbolTableRecord
100
AcDbLayerTableRecord
  2
TRASH
 70
0
 62
7
  6
CONTINUOUS
370
-3
390
F
  0
LAYER
  5
226
100
AcDbSymbolTableRecord
100
AcDbLayerTableRecord
  2
WHITE
 70
0
 62
7
  6
CONTINUOUS
370
-3
390
F
  0
LAYER
  5
227
100
AcDbSymbolTableRecord
100
AcDbLayerTableRecord
  2
XSEC_DATUMS
 70
0
 62
7
  6
CONTINUOUS
370
-3
390
F
  0
ENDTAB
  0
TABLE
  2
STYLE
  5
3
100
AcDbSymbolTable
 70
1
  0
STYLE
  5
11
100
AcDbSymbolTableRecord
100
AcDbTextStyleTableRecord
  2
STANDARD
 70
0
 40
0.0
 41
0.8
 50
0.0
 71
0
 42
0.2
  3
txt
  4

  0
STYLE
  5
228
100
AcDbSymbolTableRecord
100
AcDbTextStyleTableRecord
  2
TEXTSTYLE_1
 70
0
 40
0.0
 41
0.8
 50
0.0
 71
0
 42
0.2
  3
gdt
  4

  0
ENDTAB
  0
TABLE
  2
VIEW
  5
6
100
AcDbSymbolTable
 70
0
  0
ENDTAB
  0
TABLE
  2
UCS
  5
7
100
AcDbSymbolTable
 70
0
  0
ENDTAB
  0
TABLE
  2
APPID
  5
9
100
AcDbSymbolTable
 70
1
  0
APPID
  5
229
100
AcDbSymbolTableRecord
100
AcDbRegAppTableRecord
  2
ACAD
 70
0
  0
ENDTAB
  0
TABLE
  2
BLOCK_RECORD
  5
1
100
AcDbSymbolTable
 70
0
  0
BLOCK_RECORD
  5
22A
100
AcDbSymbolTableRecord
100
AcDbBlockTableRecord
  2
*Model_Space
  0
BLOCK_RECORD
  5
22B
100
AcDbSymbolTableRecord
100
AcDbBlockTableRecord
  2
*Paper_Space
  0
ENDTAB
  0
TABLE
  2
DIMSTYLE
  5
A
100
AcDbSymbolTable
 70
1
100
AcDbDimStyleTable
 71
0
  0
DIMSTYLE
105
22C
100
AcDbSymbolTableRecord
100
AcDbDimStyleTableRecord
  2
STANDARD
 70
0
  3

  4

 40
1.0
 41
3.0
 42
0.5
 43
0.38
 44
1.5
 45
0.0
 46
0.0
 47
0.01
 48
0.01
140
3.0
141
0.09
142
0.0
143
25.4
144
1.0
145
0.0
146
1.0
147
0.625
 71
1.0
 72
0.0
 73
0
 74
0
 75
0
 76
0
 77
1
 78
8
170
0
171
2
172
0
173
0
174
0
175
0
176
0
177
0
178
0
270
2
271
2
272
2
273
2
274
2
275
0
280
0
281
0
282
0
283
1
284
8
285
0
286
0
287
3
288
0
340
11
278
44
  0
ENDTAB
  0
ENDSEC
  0
SECTION
  2
BLOCKS
  0
BLOCK
  5
20
100
AcDbEntity
  8
0
100
AcDbBlockBegin
  2
*Model_Space
 70
0
 10
0.0
 20
0.0
 30
0.0
  3
*Model_Space
  1

  0
ENDBLK
  5
21
100
AcDbEntity
  8
0
100
AcDbBlockEnd
  0
BLOCK
  5
1C
100
AcDbEntity
  8
0
100
AcDbBlockBegin
  2
*Paper_Space
 70
0
 10
0.0
 20
0.0
 30
0.0
  3
*Paper_Space
  1

  0
ENDBLK
  5
1D
100
AcDbEntity
  8
0
100
AcDbBlockEnd
  0
ENDSEC
  0
SECTION
  2
ENTITIES
  0
LWPOLYLINE
  5
22D
100
AcDbEntity
  8
0
100
AcDbPolyline
 62
7
  6
CONTINUOUS
 90
18
 70
0
 10
-28.4745803504
 20
33.0861853752
 10
-28.4855183474
 20
33.0815015216
 10
-28.4962210887
 20
33.0763025182
 10
-28.5066643294
 20
33.070600141
 10
-28.516824407
 20
33.0644073075
 10
-28.5266783063
 20
33.0577380449
 10
-28.536203705
 20
33.0506074601
 10
-28.5453790202
 20
33.0430317083
 10
-28.5541834672
 20
33.0350279499
 10
-28.5625971016
 20
33.0266143155
 10
-28.57060086
 20
33.0178098685
 10
-28.5781766118
 20
33.0086345532
 10
-28.5853071966
 20
32.9991091545
 10
-28.5919764593
 20
32.9892552553
 10
-28.5981692928
 20
32.9790951777
 10
-28.60387167
 20
32.968651937
 10
-28.6090706733
 20
32.9579491957
 10
-28.6137545269
 20
32.9470111987
  0
LWPOLYLINE
  5
22E
100
AcDbEntity
  8
0
100
AcDbPolyline
 62
7
  6
CONTINUOUS
 90
9
 70
0
 10
-28.4745803504
 20
-15.8779998764
 10
-28.4634318749
 20
-15.8821579719
 10
-28.4520981801
 20
-15.8857808923
 10
-28.4406049399
 20
-15.8888604323
 10
-28.4289781886
 20
-15.8913896183
 10
-28.4172442673
 20
-15.8933627247
 10
-28.4054297567
 20
-15.8947752848
 10
-28.3935614172
 20
-15.8956241004
 10
-28.3816661319
 20
-15.8959072506
  0
LINE
  5
22F
100
AcDbEntity
  8
RACCORDO
100
AcDbLine
 62
7
  6
CONTINUOUS
 10
-27.2816619011
 20
29.4540927494
 11
-29.0459646816
 21
27.6897899689
  0
LINE
  5
230
100
AcDbEntity
  8
0
100
AcDbLine
 62
7
  6
CONTINUOUS
 10
-29.6229350333
 20
27.1128196172
 11
-25.7374797309
 21
30.9982749196
  0
LINE
  5
231
100
AcDbEntity
  8
0
100
AcDbLine
 62
7
  6
CONTINUOUS
 10
-26.7142068362
 20
30.0092061595
 11
-26.5482314029
 21
30.1751815928
  0
LINE
  5
232
100
AcDbEntity
  8
0
100
AcDbLine
 62
7
  6
CONTINUOUS
 10
-27.1088655743
 20
29.4540927494
 11
-28.9237792271
 21
27.6391790965
  0
LINE
  5
233
100
AcDbEntity
  8
RACCORDO
100
AcDbLine
 62
7
  6
CONTINUOUS
 10
-27.1088655743
 20
29.4540927494
 11
-28.9237792271
 21
27.6391790965
  0
LINE
  5
234
100
AcDbEntity
  8
DRAFT
100
AcDbLine
 62
7
  6
CONTINUOUS
 10
-26.1249743608
 20
29.5040927494
 11
-26.1749743608
 21
29.4540927494
  0
LINE
  5
235
100
AcDbEntity
  8
DRAFT
100
AcDbLine
 62
7
  6
CONTINUOUS
 10
-26.1002910512
 20
29.5040927494
 11
-26.1502910512
 21
29.4540927494
  0
LINE
  5
236
100
AcDbEntity
  8
DRAFT
100
AcDbLine
 62
7
  6
CONTINUOUS
 10
-25.7729353656
 20
29.5128192849
 11
-25.7816619011
 21
29.5040927494
  0
LINE
  5
237
100
AcDbEntity
  8
DRAFT
100
AcDbLine
 62
7
  6
CONTINUOUS
 10
-25.6769394876
 20
29.6000882951
 11
-25.7729353656
 21
29.5040930817
  0
LINE
  5
238
100
AcDbEntity
  8
RACCORDO
100
AcDbLine
 62
7
  6
CONTINUOUS
 10
-29.2018701365
 20
25.9023969962
 11
-28.579966148
 21
26.5243009848
  0
LINE
  5
239
100
AcDbEntity
  8
ASSI
100
AcDbLine
 62
7
  6
CONTINUOUS
 10
-29.2018701365
 20
25.9023969962
 11
-28.579966148
 21
26.5243009848
  0
LINE
  5
23A
100
AcDbEntity
  8
0
100
AcDbLine
 62
253
  6
CONTINUOUS
 10
-19.6902115008
 20
32.5983914044
 11
-19.6816593627
 21
32.6040927494
  0
LINE
  5
23B
100
AcDbEntity
  8
0
100
AcDbLine
 62
7
  6
CONTINUOUS
 10
-26.5482314029
 20
29.5958010136
 11
-26.7142068362
 21
29.5128196172
  0
LINE
  5
23C
100
AcDbEntity
  8
0
100
AcDbLine
 62
7
  6
CONTINUOUS
 10
-26.5482314029
 20
30.0578281765
 11
-26.7142068362
 21
30.0092061595
  0
LWPOLYLINE
  5
23D
100
AcDbEntity
  8
0
100
AcDbPolyline
 62
7
  6
CONTINUOUS
 90
6
 70
0
 10
-8.546079535
 20
-15.8933627247
 10
-8.5343456137
 20
-15.8913896183
 10
-8.5227188623
 20
-15.8888604323
 10
-8.5112256221
 20
-15.8857808923
 10
-8.4998919274
 20
-15.8821579719
 10
-8.4887434518
 20
-15.8779998764
  0
LWPOLYLINE
  5
23E
100
AcDbEntity
  8
0
100
AcDbPolyline
 62
7
  6
CONTINUOUS
 90
4
 70
0
 10
-8.5816576703
 20
-15.8959072506
 10
-8.5697623851
 20
-15.8956241004
 10
-8.5578940456
 20
-15.8947752848
 10
-8.546079535
 20
-15.8933627247
  0
LWPOLYLINE
  5
23F
100
AcDbEntity
  8
0
100
AcDbPolyline
 62
7
  6
CONTINUOUS
 90
34
 70
0
 10
-8.5860295044
 20
-15.8915354166
 10
-8.5741540328
 20
-15.8912527969
 10
-8.5623002903
 20
-15.8904058951
 10
-8.5504951148
 20
-15.8889958992
 10
-8.5387636201
 20
-15.8870249532
 10
-8.5271341849
 20
-15.8844969633
 10
-8.5156382192
 20
-15.8814183847
 10
-8.5043034541
 20
-15.8777967749
 10
-8.4931538422
 20
-15.8736399205
 10
-8.482214441
 20
-15.8689571469
 10
-8.4715099062
 20
-15.8637589616
 10
-8.4610646527
 20
-15.8580571731
 10
-8.4509025771
 20
-15.8518648107
 10
-8.4410467924
 20
-15.8451959735
 10
-8.431519531
 20
-15.8380657201
 10
-8.4223423177
 20
-15.8304901592
 10
-8.4135359261
 20
-15.8224864277
 10
-8.4051203399
 20
-15.8140726761
 10
-8.3971146458
 20
-15.8052679805
 10
-8.3895369892
 20
-15.7960922935
 10
-8.3824045382
 20
-15.7865663993
 10
-8.3757334581
 20
-15.7767118832
 10
-8.3695388658
 20
-15.766551071
 10
-8.3638348005
 20
-15.7561069858
 10
-8.3586341929
 20
-15.7454032994
 10
-8.3539488286
 20
-15.7344642658
 10
-8.3497893243
 20
-15.7233146695
 10
-8.3461651072
 20
-15.711979777
 10
-8.3430843886
 20
-15.7004852659
 10
-8.3405541515
 20
-15.6888571866
 10
-8.3385801329
 20
-15.6771219069
 10
-8.3371668041
 20
-15.6653060246
 10
-8.336317364
 20
-15.6534363063
 10
-8.3360337351
 20
-15.6415396474
  0
LWPOLYLINE
  5
240
100
AcDbEntity
  8
0
100
AcDbPolyline
 62
7
  6
CONTINUOUS
 90
4
 70
0
 10
-25.9816576703
 20
-15.8959072506
 10
-25.9697623851
 20
-15.8956241004
 10
-25.9578940456
 20
-15.8947752848
 10
-25.946079535
 20
-15.8933627247
  0
LWPOLYLINE
  5
241
100
AcDbEntity
  8
0
100
AcDbPolyline
 62
7
  6
CONTINUOUS
 90
34
 70
0
 10
-25.9860295044
 20
-15.8915354166
 10
-25.9741344828
 20
-15.8912518658
 10
-25.9622664062
 20
-15.8904026609
 10
-25.9504521582
 20
-15.8889897254
 10
-25.938718501
 20
-15.8870162602
 10
-25.9270920138
 20
-15.8844867354
 10
-25.9155990332
 20
-15.881406881
 10
-25.9042655933
 20
-15.8777836736
 10
-25.8931173671
 20
-15.8736253206
 10
-25.8821796077
 20
-15.8689412415
 10
-25.8714770915
 20
-15.8637420468
 10
-25.8610340623
 20
-15.858039514
 10
-25.8508741757
 20
-15.8518465604
 10
-25.8410204462
 20
-15.8451772146
 10
-25.8314951947
 20
-15.838046584
 10
-25.822319998
 20
-15.8304708213
 10
-25.8135156401
 20
-15.822467087
 10
-25.8051020647
 20
-15.8140535116
 10
-25.7970983305
 20
-15.8052491537
 10
-25.7895225677
 20
-15.796073957
 10
-25.7823919371
 20
-15.7865487056
 10
-25.7757225913
 20
-15.7766949761
 10
-25.7695296378
 20
-15.7665350895
 10
-25.7638271049
 20
-15.7560920602
 10
-25.7586279103
 20
-15.745389544
 10
-25.7539438312
 20
-15.7344517846
 10
-25.7497854781
 20
-15.7233035584
 10
-25.7461622707
 20
-15.7119701186
 10
-25.7430824163
 20
-15.700477138
 10
-25.7405528916
 20
-15.6888506507
 10
-25.7385794263
 20
-15.6771169935
 10
-25.7371664909
 20
-15.6653027456
 10
-25.7363172859
 20
-15.6534346689
 10
-25.7360337351
 20
-15.6415396474
  0
LWPOLYLINE
  5
242
100
AcDbEntity
  8
0
100
AcDbPolyline
 62
7
  6
CONTINUOUS
 90
37
 70
0
 10
-19.6816593627
 20
-15.3959072506
 10
-19.672935709
 20
-15.3957169169
 10
-19.6642286543
 20
-15.3951462717
 10
-19.65555477
 20
-15.3941963984
 10
-19.6469305632
 20
-15.3928691028
 10
-19.6383724497
 20
-15.3911669079
 10
-19.629896723
 20
-15.3890930492
 10
-19.621519515
 20
-15.3866514712
 10
-19.613256771
 20
-15.3838468189
 10
-19.6051242238
 20
-15.3806844274
 10
-19.5971373531
 20
-15.3771703136
 10
-19.5893113618
 20
-15.3733111645
 10
-19.5816611523
 20
-15.369114324
 10
-19.5742012867
 20
-15.3645877787
 10
-19.5669459651
 20
-15.3597401433
 10
-19.5599090041
 20
-15.3545806452
 10
-19.5531037989
 20
-15.3491191041
 10
-19.5465433034
 20
-15.3433659151
 10
-19.5402400114
 20
-15.3373320312
 10
-19.5342059213
 20
-15.3310289372
 10
-19.5284525192
 20
-15.3244686304
 10
-19.5229907614
 20
-15.317663602
 10
-19.5178310443
 20
-15.3106268051
 10
-19.5129831893
 20
-15.303371634
 10
-19.5084564271
 20
-15.2959119033
 10
-19.5042593742
 20
-15.2882618128
 10
-19.5004000191
 20
-15.2804359244
 10
-19.4968857089
 20
-15.2724491392
 10
-19.4937231326
 20
-15.2643166604
 10
-19.4909183089
 20
-15.2560539678
 10
-19.4884765759
 20
-15.2476767934
 10
-19.4864025806
 20
-15.2392010834
 10
-19.4847002694
 20
-15.2306429704
 10
-19.4833728801
 20
-15.2220187477
 10
-19.4824229376
 20
-15.2133448317
 10
-19.4818522496
 20
-15.2046377314
 10
-19.4816619011
 20
-15.1959140198
  0
LINE
  5
243
100
AcDbEntity
  8
0
100
AcDbLine
 62
7
  6
CONTINUOUS
 10
-28.3772942979
 20
-15.8915354166
 11
-25.9860295044
 21
-15.8915354166
  0
LINE
  5
244
100
AcDbEntity
  8
0
100
AcDbLine
 62
7
  6
CONTINUOUS
 10
-10.9772942979
 20
-15.8915354166
 11
-8.5860295044
 21
-15.8915354166
  0
LINE
  5
245
100
AcDbEntity
  8
0
100
AcDbLine
 62
253
  6
CONTINUOUS
 10
-8.3360337351
 20
-15.6415396474
 11
-11.2272900671
 21
-15.6415396474
  0
LINE
  5
246
100
AcDbEntity
  8
0
100
AcDbLine
 62
253
  6
CONTINUOUS
 10
-25.7360337351
 20
-15.6415396474
 11
-28.6272900671
 21
-15.6415396474
  0
LINE
  5
247
100
AcDbEntity
  8
0
100
AcDbLine
 62
7
  6
CONTINUOUS
 10
-22.9316619011
 20
-15.3959072506
 11
-19.6816593627
 21
-15.3959072506
  0
LINE
  5
248
100
AcDbEntity
  8
0
100
AcDbLine
 62
7
  6
CONTINUOUS
 10
-17.2816644396
 20
-15.3959072506
 11
-14.0316619011
 21
-15.3959072506
  0
LINE
  5
249
100
AcDbEntity
  8
0
100
AcDbLine
 62
7
  6
CONTINUOUS
 10
-22.0165196174
 20
-15.3902059056
 11
-19.6902115008
 21
-15.3902059056
  0
LINE
  5
24A
100
AcDbEntity
  8
0
100
AcDbLine
 62
7
  6
CONTINUOUS
 10
-17.2731123015
 20
-15.3902059056
 11
-14.9468041849
 21
-15.3902059056
  0
LINE
  5
24B
100
AcDbEntity
  8
0
100
AcDbLine
 62
7
  6
CONTINUOUS
 10
-22.8880112543
 20
-15.3522566037
 11
-22.0161884389
 21
-15.3522566037
  0
LINE
  5
24C
100
AcDbEntity
  8
0
100
AcDbLine
 62
7
  6
CONTINUOUS
 10
-14.9471353634
 20
-15.3522566037
 11
-14.075312548
 21
-15.3522566037
  0
LINE
  5
24D
100
AcDbEntity
  8
0
100
AcDbLine
 62
253
  6
CONTINUOUS
 10
-8.3360337351
 20
-15.2402448179
 11
-11.2272900671
 21
-15.2402448179
  0
LINE
  5
24E
100
AcDbEntity
  8
0
100
AcDbLine
 62
253
  6
CONTINUOUS
 10
-25.7360337351
 20
-15.2402448179
 11
-28.6272900671
 21
-15.2402448179
  0
LINE
  5
24F
100
AcDbEntity
  8
0
100
AcDbLine
 62
253
  6
CONTINUOUS
 10
-8.5860295044
 20
-15.0237384669
 11
-10.9772942979
 21
-15.0237384669
  0
LINE
  5
250
100
AcDbEntity
  8
0
100
AcDbLine
 62
253
  6
CONTINUOUS
 10
-25.9860295044
 20
-15.0237384669
 11
-28.3772942979
 21
-15.0237384669
  0
LWPOLYLINE
  5
251
100
AcDbEntity
  8
0
100
AcDbPolyline
 62
7
  6
CONTINUOUS
 90
37
 70
0
 10
-17.2816644396
 20
-15.3959072506
 10
-17.2903880933
 20
-15.3957169169
 10
-17.299095148
 20
-15.3951462717
 10
-17.3077690322
 20
-15.3941963984
 10
-17.316393239
 20
-15.3928691028
 10
-17.3249513525
 20
-15.3911669079
 10
-17.3334270793
 20
-15.3890930492
 10
-17.3418042873
 20
-15.3866514712
 10
-17.3500670313
 20
-15.3838468189
 10
-17.3581995784
 20
-15.3806844274
 10
-17.3661864491
 20
-15.3771703136
 10
-17.3740124405
 20
-15.3733111645
 10
-17.38166265
 20
-15.369114324
 10
-17.3891225156
 20
-15.3645877787
 10
-17.3963778372
 20
-15.3597401433
 10
-17.4034147981
 20
-15.3545806452
 10
-17.4102200034
 20
-15.3491191041
 10
-17.4167804988
 20
-15.3433659151
 10
-17.4230837909
 20
-15.3373320312
 10
-17.429117881
 20
-15.3310289372
 10
-17.434871283
 20
-15.3244686304
 10
-17.4403330409
 20
-15.317663602
 10
-17.445492758
 20
-15.3106268051
 10
-17.450340613
 20
-15.303371634
 10
-17.4548673752
 20
-15.2959119033
 10
-17.459064428
 20
-15.2882618128
 10
-17.4629237832
 20
-15.2804359244
 10
-17.4664380934
 20
-15.2724491392
 10
-17.4696006697
 20
-15.2643166604
 10
-17.4724054934
 20
-15.2560539678
 10
-17.4748472263
 20
-15.2476767934
 10
-17.4769212217
 20
-15.2392010834
 10
-17.4786235329
 20
-15.2306429704
 10
-17.4799509222
 20
-15.2220187477
 10
-17.4809008646
 20
-15.2133448317
 10
-17.4814715527
 20
-15.2046377314
 10
-17.4816619011
 20
-15.1959140198
  0
LINE
  5
252
100
AcDbEntity
  8
0
100
AcDbLine
 62
7
  6
CONTINUOUS
 10
-26.5482314029
 20
-12.8496426777
 11
-26.7142068362
 21
-12.8010206607
  0
LINE
  5
253
100
AcDbEntity
  8
0
100
AcDbLine
 62
7
  6
CONTINUOUS
 10
-26.5482314029
 20
-12.3876155148
 11
-26.7142068362
 21
-12.3046341184
  0
LINE
  5
254
100
AcDbEntity
  8
0
100
AcDbLine
 62
253
  6
CONTINUOUS
 10
-19.6816593627
 20
-15.3959072506
 11
-19.6902115008
 21
-15.3902059056
  0
LINE
  5
255
100
AcDbEntity
  8
RACCORDO
100
AcDbLine
 62
7
  6
CONTINUOUS
 10
-29.0459646816
 20
-10.4816044701
 11
-27.2816619011
 21
-12.2459072506
  0
LINE
  5
256
100
AcDbEntity
  8
0
100
AcDbLine
 62
7
  6
CONTINUOUS
 10
-25.7374797309
 20
-13.7900894208
 11
-29.6229350333
 21
-9.9046341184
  0
LINE
  5
257
100
AcDbEntity
  8
0
100
AcDbLine
 62
7
  6
CONTINUOUS
 10
-26.7142068362
 20
-12.8010206607
 11
-26.5482314029
 21
-12.966996094
  0
LINE
  5
258
100
AcDbEntity
  8
0
100
AcDbLine
 62
7
  6
CONTINUOUS
 10
-28.9237792271
 20
-10.4309935977
 11
-27.1088655743
 21
-12.2459072506
  0
LINE
  5
259
100
AcDbEntity
  8
RACCORDO
100
AcDbLine
 62
7
  6
CONTINUOUS
 10
-28.9237792271
 20
-10.4309935977
 11
-27.1088655743
 21
-12.2459072506
  0
LINE
  5
25A
100
AcDbEntity
  8
DRAFT
100
AcDbLine
 62
7
  6
CONTINUOUS
 10
-26.1749743608
 20
-12.2459072506
 11
-26.1249743608
 21
-12.2959072506
  0
LINE
  5
25B
100
AcDbEntity
  8
DRAFT
100
AcDbLine
 62
7
  6
CONTINUOUS
 10
-26.1502910512
 20
-12.2459072506
 11
-26.1002910512
 21
-12.2959072506
  0
LINE
  5
25C
100
AcDbEntity
  8
DRAFT
100
AcDbLine
 62
7
  6
CONTINUOUS
 10
-25.6769394876
 20
-12.3919027963
 11
-25.7729350333
 21
-12.2959072506
  0
LINE
  5
25D
100
AcDbEntity
  8
RACCORDO
100
AcDbLine
 62
7
  6
CONTINUOUS
 10
-29.2018701365
 20
-8.6942114974
 11
-28.579966148
 21
-9.3161154859
  0
LINE
  5
25E
100
AcDbEntity
  8
ASSI
100
AcDbLine
 62
7
  6
CONTINUOUS
 10
-29.2018701365
 20
-8.6942114974
 11
-28.579966148
 21
-9.3161154859
  0
LWPOLYLINE
  5
25F
100
AcDbEntity
  8
0
100
AcDbPolyline
 62
7
  6
CONTINUOUS
 90
18
 70
0
 10
-28.6137545269
 20
-15.7388256999
 10
-28.6090706733
 20
-15.7497636969
 10
-28.60387167
 20
-15.7604664382
 10
-28.5981692928
 20
-15.7709096789
 10
-28.5919764593
 20
-15.7810697565
 10
-28.5853071966
 20
-15.7909236557
 10
-28.5781766118
 20
-15.8004490544
 10
-28.57060086
 20
-15.8096243697
 10
-28.5625971016
 20
-15.8184288167
 10
-28.5541834672
 20
-15.8268424511
 10
-28.5453790202
 20
-15.8348462095
 10
-28.536203705
 20
-15.8424219613
 10
-28.5266783063
 20
-15.8495525461
 10
-28.516824407
 20
-15.8562218087
 10
-28.5066643294
 20
-15.8624146422
 10
-28.4962210887
 20
-15.8681170194
 10
-28.4855183474
 20
-15.8733160228
 10
-28.4745803504
 20
-15.8779998764
  0
LWPOLYLINE
  5
260
100
AcDbEntity
  8
0
100
AcDbPolyline
 62
7
  6
CONTINUOUS
 90
9
 70
0
 10
-28.6137545269
 20
32.9470111987
 10
-28.6179126225
 20
32.9358627232
 10
-28.6215355428
 20
32.9245290284
 10
-28.6246150829
 20
32.9130357882
 10
-28.6271442689
 20
32.9014090369
 10
-28.6291173753
 20
32.8896751155
 10
-28.6305299354
 20
32.877860605
 10
-28.6313787509
 20
32.8659922654
 10
-28.6316619011
 20
32.8540969802
  0
LWPOLYLINE
  5
261
100
AcDbEntity
  8
0
100
AcDbPolyline
 62
7
  6
CONTINUOUS
 90
5
 70
0
 10
-22.0157461788
 20
32.5097641218
 10
-22.0223310976
 20
32.5020385572
 10
-22.0295758218
 20
32.4936340791
 10
-22.0374946416
 20
32.4845506875
 10
-22.0461044466
 20
32.4747929276
  0
LINE
  5
262
100
AcDbEntity
  8
0
100
AcDbLine
 62
7
  6
CONTINUOUS
 10
-22.0461044466
 20
32.4747929276
 11
-22.0654174946
 21
32.4532270316
  0
LINE
  5
263
100
AcDbEntity
  8
0
100
AcDbLine
 62
7
  6
CONTINUOUS
 10
-22.0654174946
 20
32.4532270316
 11
-22.0875189804
 21
32.4288935598
  0
LINE
  5
264
100
AcDbEntity
  8
0
100
AcDbLine
 62
7
  6
CONTINUOUS
 10
-22.0875189804
 20
32.4288935598
 11
-22.1124515542
 21
32.4017560183
  0
LINE
  5
265
100
AcDbEntity
  8
0
100
AcDbLine
 62
7
  6
CONTINUOUS
 10
-22.1124515542
 20
32.4017560183
 11
-22.1402879983
 21
32.3717227696
  0
LINE
  5
266
100
AcDbEntity
  8
0
100
AcDbLine
 62
7
  6
CONTINUOUS
 10
-22.1402879983
 20
32.3717227696
 11
-22.1713004682
 21
32.3384936787
  0
LINE
  5
267
100
AcDbEntity
  8
0
100
AcDbLine
 62
7
  6
CONTINUOUS
 10
-22.1713004682
 20
32.3384936787
 11
-22.2236202614
 21
32.2828271351
  0
LINE
  5
268
100
AcDbEntity
  8
0
100
AcDbLine
 62
7
  6
CONTINUOUS
 10
-22.2236202614
 20
32.2828271351
 11
-22.2825920722
 21
32.2204542637
  0
LWPOLYLINE
  5
269
100
AcDbEntity
  8
0
100
AcDbPolyline
 62
7
  6
CONTINUOUS
 90
4
 70
0
 10
-22.2825920722
 20
32.2204542637
 10
-22.3687463975
 20
32.1297601833
 10
-22.3907277425
 20
32.1067259348
 10
-22.4347046111
 20
32.0604505641
  0
LINE
  5
26A
100
AcDbEntity
  8
0
100
AcDbLine
 62
7
  6
CONTINUOUS
 10
-25.8816619011
 20
28.3040927494
 11
-25.9183175375
 21
28.2674371131
  0
LINE
  5
26B
100
AcDbEntity
  8
DRAFT
100
AcDbLine
 62
7
  6
CONTINUOUS
 10
-25.8816619011
 20
28.3040927494
 11
-25.9183175375
 21
28.2674371131
  0
LINE
  5
26C
100
AcDbEntity
  8
DRAFT
100
AcDbLine
 62
7
  6
CONTINUOUS
 10
-25.6769394876
 20
28.4088151629
 11
-25.7772984672
 21
28.3084561833
  0
LINE
  5
26D
100
AcDbEntity
  8
0
100
AcDbLine
 62
253
  6
CONTINUOUS
 10
-19.4902292711
 20
32.3983880192
 11
-19.4816619011
 21
32.4040995186
  0
LINE
  5
26E
100
AcDbEntity
  8
0
100
AcDbLine
 62
7
  6
CONTINUOUS
 10
-19.4903358545
 20
30.9988884619
 11
-19.4816619011
 21
31.0040927494
  0
LINE
  5
26F
100
AcDbEntity
  8
0
100
AcDbLine
 62
7
  6
CONTINUOUS
 10
-25.9183175375
 20
26.870262217
 11
-25.9357726024
 21
26.8615353492
  0
LINE
  5
270
100
AcDbEntity
  8
DRAFT
100
AcDbLine
 62
7
  6
CONTINUOUS
 10
-25.9183175375
 20
26.870262217
 11
-25.9357726024
 21
26.8615353492
  0
LWPOLYLINE
  5
271
100
AcDbEntity
  8
0
100
AcDbPolyline
 62
7
  6
CONTINUOUS
 90
18
 70
0
 10
-11.0745803504
 20
33.0861853752
 10
-11.0855183474
 20
33.0815015216
 10
-11.0962210887
 20
33.0763025182
 10
-11.1066643294
 20
33.070600141
 10
-11.116824407
 20
33.0644073075
 10
-11.1266783063
 20
33.0577380449
 10
-11.136203705
 20
33.0506074601
 10
-11.1453790202
 20
33.0430317083
 10
-11.1541834672
 20
33.0350279499
 10
-11.1625971016
 20
33.0266143155
 10
-11.17060086
 20
33.0178098685
 10
-11.1781766118
 20
33.0086345532
 10
-11.1853071966
 20
32.9991091545
 10
-11.1919764593
 20
32.9892552553
 10
-11.1981692928
 20
32.9790951777
 10
-11.20387167
 20
32.968651937
 10
-11.2090706733
 20
32.9579491957
 10
-11.2137545269
 20
32.9470111987
  0
LWPOLYLINE
  5
272
100
AcDbEntity
  8
0
100
AcDbPolyline
 62
7
  6
CONTINUOUS
 90
6
 70
0
 10
-25.946079535
 20
-15.8933627247
 10
-25.9343456137
 20
-15.8913896183
 10
-25.9227188623
 20
-15.8888604323
 10
-25.9112256221
 20
-15.8857808923
 10
-25.8998919274
 20
-15.8821579719
 10
-25.8887434518
 20
-15.8779998764
  0
LINE
  5
273
100
AcDbEntity
  8
0
100
AcDbLine
 62
7
  6
CONTINUOUS
 10
-28.382384899
 20
-14.5185569814
 11
-25.9809389033
 21
-14.5185569814
  0
LINE
  5
274
100
AcDbEntity
  8
0
100
AcDbLine
 62
7
  6
CONTINUOUS
 10
-8.5809389033
 20
-14.5185569814
 11
-10.982384899
 21
-14.5185569814
  0
LINE
  5
275
100
AcDbEntity
  8
0
100
AcDbLine
 62
7
  6
CONTINUOUS
 10
-7.8312813014
 20
-13.7959072506
 11
-14.0316619011
 21
-13.7959072506
  0
LINE
  5
276
100
AcDbEntity
  8
0
100
AcDbLine
 62
7
  6
CONTINUOUS
 10
-17.4816619011
 20
-13.7959072506
 11
-19.4816619011
 21
-13.7959072506
  0
LINE
  5
277
100
AcDbEntity
  8
0
100
AcDbLine
 62
7
  6
CONTINUOUS
 10
-22.9316619011
 20
-13.7959072506
 11
-29.1320425009
 21
-13.7959072506
  0
LINE
  5
278
100
AcDbEntity
  8
0
100
AcDbLine
 62
7
  6
CONTINUOUS
 10
-19.4903358545
 20
-13.7907029631
 11
-17.4729879477
 21
-13.7907029631
  0
LINE
  5
279
100
AcDbEntity
  8
0
100
AcDbLine
 62
7
  6
CONTINUOUS
 10
-29.1229413794
 20
-13.7900894208
 11
-25.7374797309
 21
-13.7900894208
  0
LINE
  5
27A
100
AcDbEntity
  8
0
100
AcDbLine
 62
7
  6
CONTINUOUS
 10
-11.2258440713
 20
-13.7900894208
 11
-7.8403824228
 21
-13.7900894208
  0
LINE
  5
27B
100
AcDbEntity
  8
0
100
AcDbLine
 62
253
  6
CONTINUOUS
 10
-25.6722035273
 20
-13.7318772761
 11
-21.4872119275
 21
-13.7318772761
  0
LINE
  5
27C
100
AcDbEntity
  8
0
100
AcDbLine
 62
253
  6
CONTINUOUS
 10
-15.4761118748
 20
-13.7318772761
 11
-11.2911202749
 21
-13.7318772761
  0
LINE
  5
27D
100
AcDbEntity
  8
0
100
AcDbLine
 62
7
  6
CONTINUOUS
 10
-21.4816619011
 20
-13.0959072506
 11
-15.4816619011
 21
-13.0959072506
  0
LWPOLYLINE
  5
27E
100
AcDbEntity
  8
0
100
AcDbPolyline
 62
7
  6
CONTINUOUS
 90
9
 70
0
 10
-11.0745803504
 20
-15.8779998764
 10
-11.0634318749
 20
-15.8821579719
 10
-11.0520981801
 20
-15.8857808923
 10
-11.0406049399
 20
-15.8888604323
 10
-11.0289781886
 20
-15.8913896183
 10
-11.0172442673
 20
-15.8933627247
 10
-11.0054297567
 20
-15.8947752848
 10
-10.9935614172
 20
-15.8956241004
 10
-10.9816661319
 20
-15.8959072506
  0
LINE
  5
27F
100
AcDbEntity
  8
0
100
AcDbLine
 62
7
  6
CONTINUOUS
 10
-19.4816619011
 20
-13.7959072506
 11
-19.4903358545
 21
-13.7907029631
  0
LINE
  5
280
100
AcDbEntity
  8
0
100
AcDbLine
 62
253
  6
CONTINUOUS
 10
-19.4816619011
 20
-15.1959140198
 11
-19.4902292711
 21
-15.1902025204
  0
LINE
  5
281
100
AcDbEntity
  8
0
100
AcDbLine
 62
7
  6
CONTINUOUS
 10
-25.8816619011
 20
-11.0959072506
 11
-25.9183175375
 21
-11.0592516142
  0
LINE
  5
282
100
AcDbEntity
  8
DRAFT
100
AcDbLine
 62
7
  6
CONTINUOUS
 10
-25.8816619011
 20
-11.0959072506
 11
-25.9183175375
 21
-11.0592516142
  0
LINE
  5
283
100
AcDbEntity
  8
DRAFT
100
AcDbLine
 62
7
  6
CONTINUOUS
 10
-25.6769394876
 20
-11.2006296641
 11
-25.7772984672
 21
-11.1002706845
  0
LINE
  5
284
100
AcDbEntity
  8
0
100
AcDbLine
 62
7
  6
CONTINUOUS
 10
-22.4129130991
 20
-14.8752457925
 11
-22.3472997067
 21
-14.9441056818
  0
LINE
  5
285
100
AcDbEntity
  8
0
100
AcDbLine
 62
7
  6
CONTINUOUS
 10
-22.4347046111
 20
-14.8522650653
 11
-22.4129130991
 21
-14.8752457925
  0
LINE
  5
286
100
AcDbEntity
  8
0
100
AcDbLine
 62
7
  6
CONTINUOUS
 10
-22.3472997067
 20
-14.9441056818
 11
-22.2628403373
 21
-15.033143063
  0
LINE
  5
287
100
AcDbEntity
  8
0
100
AcDbLine
 62
7
  6
CONTINUOUS
 10
-22.2628403373
 20
-15.033143063
 11
-22.2061427847
 21
-15.0932054579
  0
LINE
  5
288
100
AcDbEntity
  8
0
100
AcDbLine
 62
7
  6
CONTINUOUS
 10
-22.2061427847
 20
-15.0932054579
 11
-22.1720930596
 21
-15.1294645016
  0
LINE
  5
289
100
AcDbEntity
  8
0
100
AcDbLine
 62
7
  6
CONTINUOUS
 10
-22.1720930596
 20
-15.1294645016
 11
-22.1410220717
 21
-15.1627483322
  0
LINE
  5
28A
100
AcDbEntity
  8
0
100
AcDbLine
 62
7
  6
CONTINUOUS
 10
-22.1410220717
 20
-15.1627483322
 11
-22.1127963908
 21
-15.1931919081
  0
LINE
  5
28B
100
AcDbEntity
  8
0
100
AcDbLine
 62
7
  6
CONTINUOUS
 10
-22.1127963908
 20
-15.1931919081
 11
-22.0875126619
 21
-15.2207122443
  0
LINE
  5
28C
100
AcDbEntity
  8
0
100
AcDbLine
 62
7
  6
CONTINUOUS
 10
-22.0875126619
 20
-15.2207122443
 11
-22.0651993254
 21
-15.2452833749
  0
LWPOLYLINE
  5
28D
100
AcDbEntity
  8
0
100
AcDbPolyline
 62
7
  6
CONTINUOUS
 90
6
 70
0
 10
-22.0651993254
 20
-15.2452833749
 10
-22.0458989066
 20
-15.2668398017
 10
-22.0373301498
 20
-15.2765524744
 10
-22.029458458
 20
-15.2855881852
 10
-22.0222697181
 20
-15.2939302347
 10
-22.0157461788
 20
-15.301578623
  0
LWPOLYLINE
  5
28E
100
AcDbEntity
  8
0
100
AcDbPolyline
 62
7
  6
CONTINUOUS
 90
13
 70
0
 10
-19.983186136
 20
-11.2803939302
 10
-20.1060583625
 20
-11.2805360671
 10
-20.2239301907
 20
-11.2809165411
 10
-20.3368016204
 20
-11.2815353524
 10
-20.446157403
 20
-11.282407317
 10
-20.5505127871
 20
-11.2835176189
 10
-20.6454135194
 20
-11.2848218097
 10
-20.7304816037
 20
-11.2863318317
 10
-20.8060950362
 20
-11.2880357427
 10
-20.8689335523
 20
-11.2898532676
 10
-20.9178903969
 20
-11.291757648
 10
-20.954072325
 20
-11.2937756424
 10
-20.9774793366
 20
-11.2959072506
  0
LINE
  5
28F
100
AcDbEntity
  8
0
100
AcDbLine
 62
253
  6
CONTINUOUS
 10
-26.0483075554
 20
-12.7318941992
 11
-21.4784852074
 21
-12.7318941992
  0
LINE
  5
290
100
AcDbEntity
  8
0
100
AcDbLine
 62
253
  6
CONTINUOUS
 10
-15.4848385949
 20
-12.7318941992
 11
-10.9150162469
 21
-12.7318941992
  0
LINE
  5
291
100
AcDbEntity
  8
DRAFT
100
AcDbLine
 62
7
  6
CONTINUOUS
 10
-26.0483075554
 20
-12.3919027963
 11
-25.6769394876
 21
-12.3919027963
  0
LINE
  5
292
100
AcDbEntity
  8
DRAFT
100
AcDbLine
 62
7
  6
CONTINUOUS
 10
-10.9150162469
 20
-12.3919027963
 11
-11.2863843146
 21
-12.3919027963
  0
LINE
  5
293
100
AcDbEntity
  8
0
100
AcDbLine
 62
7
  6
CONTINUOUS
 10
-26.7142068362
 20
-12.3046341184
 11
-26.5482314029
 21
-12.3046341184
  0
LINE
  5
294
100
AcDbEntity
  8
0
100
AcDbLine
 62
7
  6
CONTINUOUS
 10
-10.4150923993
 20
-12.3046341184
 11
-10.2491169661
 21
-12.3046341184
  0
LINE
  5
295
100
AcDbEntity
  8
DRAFT
100
AcDbLine
 62
7
  6
CONTINUOUS
 10
-11.1816619011
 20
-12.2959072506
 11
-10.863032751
 21
-12.2959072506
  0
LINE
  5
296
100
AcDbEntity
  8
DRAFT
100
AcDbLine
 62
7
  6
CONTINUOUS
 10
-10.4150923993
 20
-12.2959072506
 11
-10.8506910962
 21
-12.2959072506
  0
LINE
  5
297
100
AcDbEntity
  8
DRAFT
100
AcDbLine
 62
7
  6
CONTINUOUS
 10
-25.7729350333
 20
-12.2959072506
 11
-26.1002910512
 21
-12.2959072506
  0
LINE
  5
298
100
AcDbEntity
  8
DRAFT
100
AcDbLine
 62
7
  6
CONTINUOUS
 10
-26.112632706
 20
-12.2959072506
 11
-26.5482314029
 21
-12.2959072506
  0
LINE
  5
299
100
AcDbEntity
  8
0
100
AcDbLine
 62
7
  6
CONTINUOUS
 10
-27.2816619011
 20
-12.2459072506
 11
-25.8816619011
 21
-12.2459072506
  0
LINE
  5
29A
100
AcDbEntity
  8
DRAFT
100
AcDbLine
 62
7
  6
CONTINUOUS
 10
-27.2816619011
 20
-12.2459072506
 11
-25.8816619011
 21
-12.2459072506
  0
LINE
  5
29B
100
AcDbEntity
  8
0
100
AcDbLine
 62
7
  6
CONTINUOUS
 10
-9.6816619011
 20
-12.2459072506
 11
-11.0816619011
 21
-12.2459072506
  0
LINE
  5
29C
100
AcDbEntity
  8
DRAFT
100
AcDbLine
 62
7
  6
CONTINUOUS
 10
-9.6816619011
 20
-12.2459072506
 11
-11.0816619011
 21
-12.2459072506
  0
LINE
  5
29D
100
AcDbEntity
  8
0
100
AcDbLine
 62
7
  6
CONTINUOUS
 10
-21.4738077201
 20
-12.1959072506
 11
-15.4895160821
 21
-12.1959072506
  0
LINE
  5
29E
100
AcDbEntity
  8
DRAFT
100
AcDbLine
 62
7
  6
CONTINUOUS
 10
-25.0863843146
 20
-11.5006296641
 11
-11.8769394876
 21
-11.5006296641
  0
LINE
  5
29F
100
AcDbEntity
  8
DRAFT
100
AcDbLine
 62
7
  6
CONTINUOUS
 10
-15.9816619011
 20
-11.4666002636
 11
-16.0404013193
 21
-11.4666002636
  0
LINE
  5
2A0
100
AcDbEntity
  8
DRAFT
100
AcDbLine
 62
7
  6
CONTINUOUS
 10
-20.922922483
 20
-11.4666002636
 11
-20.9816619011
 21
-11.4666002636
  0
LINE
  5
2A1
100
AcDbEntity
  8
DRAFT
100
AcDbLine
 62
7
  6
CONTINUOUS
 10
-21.9818153358
 20
-11.4134891162
 11
-20.9810458681
 21
-11.4134891162
  0
LINE
  5
2A2
100
AcDbEntity
  8
DRAFT
100
AcDbLine
 62
7
  6
CONTINUOUS
 10
-15.9822779341
 20
-11.4134891162
 11
-14.9815084665
 21
-11.4134891162
  0
LINE
  5
2A3
100
AcDbEntity
  8
DRAFT
100
AcDbLine
 62
7
  6
CONTINUOUS
 10
-24.986025335
 20
-11.4002706845
 11
-20.9810219708
 21
-11.4002706845
  0
LINE
  5
2A4
100
AcDbEntity
  8
DRAFT
100
AcDbLine
 62
7
  6
CONTINUOUS
 10
-15.9823018315
 20
-11.4002706845
 11
-11.9772984672
 21
-11.4002706845
  0
LINE
  5
2A5
100
AcDbEntity
  8
DRAFT
100
AcDbLine
 62
7
  6
CONTINUOUS
 10
-25.8816619011
 20
-11.3959072506
 11
-25.7772984672
 21
-11.3959072506
  0
LINE
  5
2A6
100
AcDbEntity
  8
DRAFT
100
AcDbLine
 62
7
  6
CONTINUOUS
 10
-11.186025335
 20
-11.3959072506
 11
-11.0816619011
 21
-11.3959072506
  0
LINE
  5
2A7
100
AcDbEntity
  8
0
100
AcDbLine
 62
7
  6
CONTINUOUS
 10
-14.9816619011
 20
-11.2959072506
 11
-15.9871836209
 21
-11.2959072506
  0
LINE
  5
2A8
100
AcDbEntity
  8
0
100
AcDbLine
 62
7
  6
CONTINUOUS
 10
-20.9761401814
 20
-11.2959072506
 11
-21.9816619011
 21
-11.2959072506
  0
LINE
  5
2A9
100
AcDbEntity
  8
0
100
AcDbLine
 62
7
  6
CONTINUOUS
 10
-16.9801376663
 20
-11.2803939302
 11
-19.983186136
 21
-11.2803939302
  0
LINE
  5
2AA
100
AcDbEntity
  8
0
100
AcDbLine
 62
7
  6
CONTINUOUS
 10
-15.0183175375
 20
-11.2592516142
 11
-21.9450062648
 21
-11.2592516142
  0
LINE
  5
2AB
100
AcDbEntity
  8
DRAFT
100
AcDbLine
 62
7
  6
CONTINUOUS
 10
-15.0183175375
 20
-11.2592516142
 11
-21.9450062648
 21
-11.2592516142
  0
LINE
  5
2AC
100
AcDbEntity
  8
DRAFT
100
AcDbLine
 62
7
  6
CONTINUOUS
 10
-25.6769394876
 20
-11.2006296641
 11
-25.0863843146
 21
-11.2006296641
  0
LINE
  5
2AD
100
AcDbEntity
  8
DRAFT
100
AcDbLine
 62
7
  6
CONTINUOUS
 10
-11.8769394876
 20
-11.2006296641
 11
-11.2863843146
 21
-11.2006296641
  0
LINE
  5
2AE
100
AcDbEntity
  8
DRAFT
100
AcDbLine
 62
7
  6
CONTINUOUS
 10
-25.7772984672
 20
-11.1002706845
 11
-24.986025335
 21
-11.1002706845
  0
LINE
  5
2AF
100
AcDbEntity
  8
DRAFT
100
AcDbLine
 62
7
  6
CONTINUOUS
 10
-11.9772984672
 20
-11.1002706845
 11
-11.186025335
 21
-11.1002706845
  0
LINE
  5
2B0
100
AcDbEntity
  8
0
100
AcDbLine
 62
7
  6
CONTINUOUS
 10
-25.8816619011
 20
-11.0959072506
 11
-21.9816619011
 21
-11.0959072506
  0
LINE
  5
2B1
100
AcDbEntity
  8
DRAFT
100
AcDbLine
 62
7
  6
CONTINUOUS
 10
-25.8816619011
 20
-11.0959072506
 11
-21.9816619011
 21
-11.0959072506
  0
LINE
  5
2B2
100
AcDbEntity
  8
0
100
AcDbLine
 62
7
  6
CONTINUOUS
 10
-14.9816619011
 20
-11.0959072506
 11
-11.0816619011
 21
-11.0959072506
  0
LINE
  5
2B3
100
AcDbEntity
  8
DRAFT
100
AcDbLine
 62
7
  6
CONTINUOUS
 10
-14.9816619011
 20
-11.0959072506
 11
-11.0816619011
 21
-11.0959072506
  0
LINE
  5
2B4
100
AcDbEntity
  8
0
100
AcDbLine
 62
7
  6
CONTINUOUS
 10
-25.9183175375
 20
-11.0592516142
 11
-21.9450062648
 21
-11.0592516142
  0
LINE
  5
2B5
100
AcDbEntity
  8
DRAFT
100
AcDbLine
 62
7
  6
CONTINUOUS
 10
-25.9183175375
 20
-11.0592516142
 11
-21.9450062648
 21
-11.0592516142
  0
LINE
  5
2B6
100
AcDbEntity
  8
0
100
AcDbLine
 62
7
  6
CONTINUOUS
 10
-15.0183175375
 20
-11.0592516142
 11
-11.0450062648
 21
-11.0592516142
  0
LINE
  5
2B7
100
AcDbEntity
  8
DRAFT
100
AcDbLine
 62
7
  6
CONTINUOUS
 10
-15.0183175375
 20
-11.0592516142
 11
-11.0450062648
 21
-11.0592516142
  0
LINE
  5
2B8
100
AcDbEntity
  8
RACCORDO
100
AcDbLine
 62
7
  6
CONTINUOUS
 10
-22.1947636259
 20
-11.0089975523
 11
-9.090437511
 21
-11.0089975523
  0
LINE
  5
2B9
100
AcDbEntity
  8
ASSI
100
AcDbLine
 62
7
  6
CONTINUOUS
 10
-22.1947636259
 20
-11.0089975523
 11
-9.090437511
 21
-11.0089975523
  0
LWPOLYLINE
  5
2BA
100
AcDbEntity
  8
0
100
AcDbPolyline
 62
7
  6
CONTINUOUS
 90
13
 70
0
 10
-16.9801376663
 20
-11.2803939302
 10
-16.8572654397
 20
-11.2805360671
 10
-16.7393936116
 20
-11.2809165411
 10
-16.6265221818
 20
-11.2815353524
 10
-16.5171663993
 20
-11.282407317
 10
-16.4128110152
 20
-11.2835176189
 10
-16.3179102829
 20
-11.2848218097
 10
-16.2328421986
 20
-11.2863318317
 10
-16.157228766
 20
-11.2880357427
 10
-16.09439025
 20
-11.2898532676
 10
-16.0454334054
 20
-11.291757648
 10
-16.0092514773
 20
-11.2937756424
 10
-15.9858444656
 20
-11.2959072506
  0
LWPOLYLINE
  5
2BB
100
AcDbEntity
  8
0
100
AcDbPolyline
 62
7
  6
CONTINUOUS
 90
6
 70
0
 10
-28.6291173753
 20
-15.6814896167
 10
-28.6271442689
 20
-15.6932235381
 10
-28.6246150829
 20
-15.7048502894
 10
-28.6215355428
 20
-15.7163435296
 10
-28.6179126225
 20
-15.7276772244
 10
-28.6137545269
 20
-15.7388256999
  0
LWPOLYLINE
  5
2BC
100
AcDbEntity
  8
RACCORDO
100
AcDbPolyline
 62
253
  6
CONTINUOUS
 90
4
 70
0
 10
-29.1401978556
 20
20.4540927494
 10
-29.1386783719
 20
20.4594431955
 10
-29.1371833351
 20
20.4754328047
 10
-29.1357127452
 20
20.5019298892
  0
LWPOLYLINE
  5
2BD
100
AcDbEntity
  8
ASSI
100
AcDbPolyline
 62
253
  6
CONTINUOUS
 90
4
 70
0
 10
-29.1401978556
 20
20.4540927494
 10
-29.1386783719
 20
20.4594431955
 10
-29.1371833351
 20
20.4754328047
 10
-29.1357127452
 20
20.5019298892
  0
LWPOLYLINE
  5
2BE
100
AcDbEntity
  8
RACCORDO
100
AcDbPolyline
 62
253
  6
CONTINUOUS
 90
4
 70
0
 10
-29.1401978556
 20
15.4540927494
 10
-29.1386783719
 20
15.4594431955
 10
-29.1371833351
 20
15.4754328047
 10
-29.1357127452
 20
15.5019298892
  0
LWPOLYLINE
  5
2BF
100
AcDbEntity
  8
ASSI
100
AcDbPolyline
 62
253
  6
CONTINUOUS
 90
4
 70
0
 10
-29.1401978556
 20
15.4540927494
 10
-29.1386783719
 20
15.4594431955
 10
-29.1371833351
 20
15.4754328047
 10
-29.1357127452
 20
15.5019298892
  0
LINE
  5
2C0
100
AcDbEntity
  8
0
100
AcDbLine
 62
7
  6
CONTINUOUS
 10
-14.075312548
 20
32.5604421025
 11
-14.0316619011
 21
32.6040927494
  0
LINE
  5
2C1
100
AcDbEntity
  8
ASSI
100
AcDbLine
 62
7
  6
CONTINUOUS
 10
-22.4947522028
 20
-9.9959072506
 11
-27.6816619011
 21
-9.9959072506
  0
LINE
  5
2C2
100
AcDbEntity
  8
0
100
AcDbLine
 62
7
  6
CONTINUOUS
 10
-15.9816619011
 20
-9.6959072506
 11
-20.9816619011
 21
-9.6959072506
  0
LINE
  5
2C3
100
AcDbEntity
  8
ASSI
100
AcDbLine
 62
7
  6
CONTINUOUS
 10
-15.9816619011
 20
-9.6959072506
 11
-20.9816619011
 21
-9.6959072506
  0
LINE
  5
2C4
100
AcDbEntity
  8
RACCORDO
100
AcDbLine
 62
7
  6
CONTINUOUS
 10
-27.8728862912
 20
-9.6089975523
 11
-22.4947522028
 21
-9.6089975523
  0
LINE
  5
2C5
100
AcDbEntity
  8
ASSI
100
AcDbLine
 62
7
  6
CONTINUOUS
 10
-27.8728862912
 20
-9.6089975523
 11
-22.4947522028
 21
-9.6089975523
  0
LINE
  5
2C6
100
AcDbEntity
  8
ASSI
100
AcDbLine
 62
7
  6
CONTINUOUS
 10
-20.9816619011
 20
-9.5959072506
 11
-15.9816619011
 21
-9.5959072506
  0
LINE
  5
2C7
100
AcDbEntity
  8
0
100
AcDbLine
 62
253
  6
CONTINUOUS
 10
-16.7295674478
 20
-8.6816556009
 11
-16.6790558581
 21
-8.6937612612
  0
LINE
  5
2C8
100
AcDbEntity
  8
RACCORDO
100
AcDbLine
 62
253
  6
CONTINUOUS
 10
-16.7295674478
 20
-8.6816556009
 11
-16.6790558581
 21
-8.6937612612
  0
LINE
  5
2C9
100
AcDbEntity
  8
0
100
AcDbLine
 62
7
  6
CONTINUOUS
 10
-14.0316619011
 20
-15.3959072506
 11
-14.075312548
 21
-15.3522566037
  0
LWPOLYLINE
  5
2CA
100
AcDbEntity
  8
0
100
AcDbPolyline
 62
7
  6
CONTINUOUS
 90
4
 70
0
 10
-28.6316619011
 20
-15.6459114814
 10
-28.6313787509
 20
-15.6578067666
 10
-28.6305299354
 20
-15.6696751062
 10
-28.6291173753
 20
-15.6814896167
  0
LWPOLYLINE
  5
2CB
100
AcDbEntity
  8
0
100
AcDbPolyline
 62
7
  6
CONTINUOUS
 90
34
 70
0
 10
-28.6272900671
 20
-15.6415396474
 10
-28.6270064383
 20
-15.6534363063
 10
-28.6261569982
 20
-15.6653060246
 10
-28.6247436693
 20
-15.6771219069
 10
-28.6227696507
 20
-15.6888571866
 10
-28.6202394137
 20
-15.7004852659
 10
-28.6171586951
 20
-15.711979777
 10
-28.613534478
 20
-15.7233146695
 10
-28.6093749737
 20
-15.7344642658
 10
-28.6046896094
 20
-15.7454032994
 10
-28.5994890017
 20
-15.7561069858
 10
-28.5937849365
 20
-15.766551071
 10
-28.5875903442
 20
-15.7767118832
 10
-28.5809192641
 20
-15.7865663993
 10
-28.573786813
 20
-15.7960922935
 10
-28.5662091565
 20
-15.8052679805
 10
-28.5582034624
 20
-15.8140726761
 10
-28.5497878761
 20
-15.8224864277
 10
-28.5409814845
 20
-15.8304901592
 10
-28.5318042713
 20
-15.8380657201
 10
-28.5222770098
 20
-15.8451959735
 10
-28.5124212251
 20
-15.8518648107
 10
-28.5022591495
 20
-15.8580571731
 10
-28.4918138961
 20
-15.8637589616
 10
-28.4811093613
 20
-15.8689571469
 10
-28.4701699601
 20
-15.8736399205
 10
-28.4590203481
 20
-15.8777967749
 10
-28.447685583
 20
-15.8814183847
 10
-28.4361896174
 20
-15.8844969633
 10
-28.4245601822
 20
-15.8870249532
 10
-28.4128286875
 20
-15.8889958992
 10
-28.401023512
 20
-15.8904058951
 10
-28.3891697695
 20
-15.8912527969
 10
-28.3772942979
 20
-15.8915354166
  0
LWPOLYLINE
  5
2CC
100
AcDbEntity
  8
0
100
AcDbPolyline
 62
7
  6
CONTINUOUS
 90
40
 70
0
 10
-29.6316619011
 20
-13.2956783985
 10
-29.6312630553
 20
-13.3158071939
 10
-29.6300562274
 20
-13.3358984452
 10
-29.628043468
 20
-13.3559198235
 10
-29.6252284906
 20
-13.3758351575
 10
-29.6216158438
 20
-13.3956163918
 10
-29.6172095473
 20
-13.4152433907
 10
-29.612015324
 20
-13.4346859067
 10
-29.6060406305
 20
-13.4539106084
 10
-29.5992920855
 20
-13.4728926189
 10
-29.5917744169
 20
-13.4916112067
 10
-29.5835016422
 20
-13.5100243418
 10
-29.5744986153
 20
-13.5280768448
 10
-29.5647903472
 20
-13.5457244626
 10
-29.5543861126
 20
-13.5629556113
 10
-29.5432892101
 20
-13.5797649404
 10
-29.5315049877
 20
-13.5961393111
 10
-29.5190612457
 20
-13.6120352611
 10
-29.5059968543
 20
-13.6274035081
 10
-29.4923487409
 20
-13.6422055547
 10
-29.4781274808
 20
-13.6564346137
 10
-29.4633339114
 20
-13.6700900004
 10
-29.4479753858
 20
-13.6831607829
 10
-29.4320899711
 20
-13.6956105486
 10
-29.4157254565
 20
-13.7074016974
 10
-29.3989246094
 20
-13.7185066301
 10
-29.3817010811
 20
-13.7289194503
 10
-29.3640604153
 20
-13.7386368036
 10
-29.3460131703
 20
-13.7476496756
 10
-29.3276045337
 20
-13.7559323758
 10
-29.308893002
 20
-13.7634589266
 10
-29.2899236607
 20
-13.7702144092
 10
-29.2707145453
 20
-13.7761955857
 10
-29.2512851304
 20
-13.7813979125
 10
-29.2316556121
 20
-13.7858158359
 10
-29.2118690778
 20
-13.7894395476
 10
-29.1919797683
 20
-13.7922612185
 10
-29.1720276447
 20
-13.7942789578
 10
-29.1520378004
 20
-13.7954938767
 10
-29.1320425009
 20
-13.7959072506
  0
LINE
  5
2CD
100
AcDbEntity
  8
RACCORDO
100
AcDbLine
 62
7
  6
CONTINUOUS
 10
-29.4321631073
 20
9.8712308876
 11
-29.4309848403
 21
9.8123364587
  0
LINE
  5
2CE
100
AcDbEntity
  8
ASSI
100
AcDbLine
 62
7
  6
CONTINUOUS
 10
-29.4321626277
 20
9.8712302963
 11
-29.4309951938
 21
9.8128969314
  0
LINE
  5
2CF
100
AcDbEntity
  8
RACCORDO
100
AcDbLine
 62
7
  6
CONTINUOUS
 10
-29.4321631073
 20
14.8712308876
 11
-29.4309848403
 21
14.8123364587
  0
LINE
  5
2D0
100
AcDbEntity
  8
ASSI
100
AcDbLine
 62
7
  6
CONTINUOUS
 10
-29.4321626277
 20
14.8712302963
 11
-29.4309951938
 21
14.8128969314
  0
LINE
  5
2D1
100
AcDbEntity
  8
RACCORDO
100
AcDbLine
 62
7
  6
CONTINUOUS
 10
-29.4321631073
 20
19.8712308876
 11
-29.4309848403
 21
19.8123364587
  0
LINE
  5
2D2
100
AcDbEntity
  8
ASSI
100
AcDbLine
 62
7
  6
CONTINUOUS
 10
-29.4321626277
 20
19.8712302963
 11
-29.4309951938
 21
19.8128969314
  0
LINE
  5
2D3
100
AcDbEntity
  8
RACCORDO
100
AcDbLine
 62
7
  6
CONTINUOUS
 10
-29.4321631073
 20
24.8712308876
 11
-29.4309848403
 21
24.8123364587
  0
LINE
  5
2D4
100
AcDbEntity
  8
ASSI
100
AcDbLine
 62
7
  6
CONTINUOUS
 10
-29.4321626277
 20
24.8712302963
 11
-29.4309951938
 21
24.8128969314
  0
LINE
  5
2D5
100
AcDbEntity
  8
ASSI
100
AcDbLine
 62
7
  6
CONTINUOUS
 10
-29.4309951938
 20
9.8128969314
 11
-29.4298322387
 21
9.7448076812
  0
LINE
  5
2D6
100
AcDbEntity
  8
RACCORDO
100
AcDbLine
 62
7
  6
CONTINUOUS
 10
-29.4309848403
 20
9.8123364587
 11
-29.4298621066
 21
9.7466912417
  0
LINE
  5
2D7
100
AcDbEntity
  8
ASSI
100
AcDbLine
 62
7
  6
CONTINUOUS
 10
-29.4309951938
 20
14.8128969314
 11
-29.4298322387
 21
14.7448076812
  0
LINE
  5
2D8
100
AcDbEntity
  8
RACCORDO
100
AcDbLine
 62
7
  6
CONTINUOUS
 10
-29.4309848403
 20
14.8123364587
 11
-29.4298621066
 21
14.7466912417
  0
LINE
  5
2D9
100
AcDbEntity
  8
ASSI
100
AcDbLine
 62
7
  6
CONTINUOUS
 10
-29.4309951938
 20
19.8128969314
 11
-29.4298322387
 21
19.7448076812
  0
LINE
  5
2DA
100
AcDbEntity
  8
RACCORDO
100
AcDbLine
 62
7
  6
CONTINUOUS
 10
-29.4309848403
 20
19.8123364587
 11
-29.4298621066
 21
19.7466912417
  0
LINE
  5
2DB
100
AcDbEntity
  8
ASSI
100
AcDbLine
 62
7
  6
CONTINUOUS
 10
-29.4309951938
 20
24.8128969314
 11
-29.4298322387
 21
24.7448076812
  0
LINE
  5
2DC
100
AcDbEntity
  8
RACCORDO
100
AcDbLine
 62
7
  6
CONTINUOUS
 10
-29.4309848403
 20
24.8123364587
 11
-29.4298621066
 21
24.7466912417
  0
LINE
  5
2DD
100
AcDbEntity
  8
RACCORDO
100
AcDbLine
 62
7
  6
CONTINUOUS
 10
-29.4298621066
 20
9.7466912417
 11
-29.4287447787
 21
9.6710273455
  0
LINE
  5
2DE
100
AcDbEntity
  8
RACCORDO
100
AcDbLine
 62
7
  6
CONTINUOUS
 10
-29.4298621066
 20
14.7466912417
 11
-29.4287447787
 21
14.6710273455
  0
LINE
  5
2DF
100
AcDbEntity
  8
RACCORDO
100
AcDbLine
 62
7
  6
CONTINUOUS
 10
-29.4298621066
 20
19.7466912417
 11
-29.4287447787
 21
19.6710273455
  0
LINE
  5
2E0
100
AcDbEntity
  8
RACCORDO
100
AcDbLine
 62
7
  6
CONTINUOUS
 10
-29.4298621066
 20
24.7466912417
 11
-29.4287447787
 21
24.6710273455
  0
LINE
  5
2E1
100
AcDbEntity
  8
ASSI
100
AcDbLine
 62
7
  6
CONTINUOUS
 10
-29.4298322387
 20
9.7448076812
 11
-29.4286746132
 21
9.6659079901
  0
LINE
  5
2E2
100
AcDbEntity
  8
ASSI
100
AcDbLine
 62
7
  6
CONTINUOUS
 10
-29.4298322387
 20
14.7448076812
 11
-29.4286746132
 21
14.6659079901
  0
LINE
  5
2E3
100
AcDbEntity
  8
ASSI
100
AcDbLine
 62
7
  6
CONTINUOUS
 10
-29.4298322387
 20
19.7448076812
 11
-29.4286746132
 21
19.6659079901
  0
LINE
  5
2E4
100
AcDbEntity
  8
ASSI
100
AcDbLine
 62
7
  6
CONTINUOUS
 10
-29.4298322387
 20
24.7448076812
 11
-29.4286746132
 21
24.6659079901
  0
LINE
  5
2E5
100
AcDbEntity
  8
RACCORDO
100
AcDbLine
 62
7
  6
CONTINUOUS
 10
-29.4287447787
 20
9.6710273455
 11
-29.4274227863
 21
9.5669409309
  0
LINE
  5
2E6
100
AcDbEntity
  8
RACCORDO
100
AcDbLine
 62
7
  6
CONTINUOUS
 10
-29.4287447787
 20
14.6710273455
 11
-29.4274227863
 21
14.5669409309
  0
LINE
  5
2E7
100
AcDbEntity
  8
RACCORDO
100
AcDbLine
 62
7
  6
CONTINUOUS
 10
-29.4287447787
 20
19.6710273455
 11
-29.4274227863
 21
19.5669409309
  0
LINE
  5
2E8
100
AcDbEntity
  8
RACCORDO
100
AcDbLine
 62
7
  6
CONTINUOUS
 10
-29.4287447787
 20
24.6710273455
 11
-29.4274227863
 21
24.5669409309
  0
LINE
  5
2E9
100
AcDbEntity
  8
ASSI
100
AcDbLine
 62
7
  6
CONTINUOUS
 10
-29.4286746132
 20
9.6659079901
 11
-29.4273050748
 21
9.5568637445
  0
LINE
  5
2EA
100
AcDbEntity
  8
ASSI
100
AcDbLine
 62
7
  6
CONTINUOUS
 10
-29.4286746132
 20
14.6659079901
 11
-29.4273050748
 21
14.5568637445
  0
LINE
  5
2EB
100
AcDbEntity
  8
ASSI
100
AcDbLine
 62
7
  6
CONTINUOUS
 10
-29.4286746132
 20
19.6659079901
 11
-29.4273050748
 21
19.5568637445
  0
LINE
  5
2EC
100
AcDbEntity
  8
ASSI
100
AcDbLine
 62
7
  6
CONTINUOUS
 10
-29.4286746132
 20
24.6659079901
 11
-29.4273050748
 21
24.5568637445
  0
LINE
  5
2ED
100
AcDbEntity
  8
RACCORDO
100
AcDbLine
 62
7
  6
CONTINUOUS
 10
-29.4274227863
 20
9.5669409309
 11
-29.4261359993
 21
9.448435996
  0
LINE
  5
2EE
100
AcDbEntity
  8
ASSI
100
AcDbLine
 62
7
  6
CONTINUOUS
 10
-29.4273050748
 20
9.5568637445
 11
-29.4261928119
 21
9.4540843086
  0
LINE
  5
2EF
100
AcDbEntity
  8
RACCORDO
100
AcDbLine
 62
7
  6
CONTINUOUS
 10
-29.4274227863
 20
14.5669409309
 11
-29.4261359993
 21
14.448435996
  0
LINE
  5
2F0
100
AcDbEntity
  8
ASSI
100
AcDbLine
 62
7
  6
CONTINUOUS
 10
-29.4273050748
 20
14.5568637445
 11
-29.4261928119
 21
14.4540843086
  0
LINE
  5
2F1
100
AcDbEntity
  8
RACCORDO
100
AcDbLine
 62
7
  6
CONTINUOUS
 10
-29.4274227863
 20
19.5669409309
 11
-29.4261359993
 21
19.448435996
  0
LINE
  5
2F2
100
AcDbEntity
  8
ASSI
100
AcDbLine
 62
7
  6
CONTINUOUS
 10
-29.4273050748
 20
19.5568637445
 11
-29.4261928119
 21
19.4540843086
  0
LINE
  5
2F3
100
AcDbEntity
  8
RACCORDO
100
AcDbLine
 62
7
  6
CONTINUOUS
 10
-29.4274227863
 20
24.5669409309
 11
-29.4261359993
 21
24.448435996
  0
LINE
  5
2F4
100
AcDbEntity
  8
ASSI
100
AcDbLine
 62
7
  6
CONTINUOUS
 10
-29.4273050748
 20
24.5568637445
 11
-29.4261928119
 21
24.4540843086
  0
LINE
  5
2F5
100
AcDbEntity
  8
0
100
AcDbLine
 62
253
  6
CONTINUOUS
 10
-28.6272900671
 20
-15.2402448179
 11
-28.6316619011
 21
-14.8063923988
  0
LINE
  5
2F6
100
AcDbEntity
  8
0
100
AcDbLine
 62
253
  6
CONTINUOUS
 10
-28.3772942979
 20
-15.0237384669
 11
-28.382384899
 21
-14.5185569814
  0
LINE
  5
2F7
100
AcDbEntity
  8
RACCORDO
100
AcDbLine
 62
7
  6
CONTINUOUS
 10
-29.4261359993
 20
9.448435996
 11
-29.4249086936
 21
9.3155279621
  0
LINE
  5
2F8
100
AcDbEntity
  8
ASSI
100
AcDbLine
 62
7
  6
CONTINUOUS
 10
-29.4261928119
 20
9.4540843086
 11
-29.4249169518
 21
9.316496421
  0
LINE
  5
2F9
100
AcDbEntity
  8
RACCORDO
100
AcDbLine
 62
7
  6
CONTINUOUS
 10
-29.4261359993
 20
14.448435996
 11
-29.4249086936
 21
14.3155279621
  0
LINE
  5
2FA
100
AcDbEntity
  8
ASSI
100
AcDbLine
 62
7
  6
CONTINUOUS
 10
-29.4261928119
 20
14.4540843086
 11
-29.4249169518
 21
14.316496421
  0
LINE
  5
2FB
100
AcDbEntity
  8
RACCORDO
100
AcDbLine
 62
7
  6
CONTINUOUS
 10
-29.4261359993
 20
19.448435996
 11
-29.4249086936
 21
19.3155279621
  0
LINE
  5
2FC
100
AcDbEntity
  8
ASSI
100
AcDbLine
 62
7
  6
CONTINUOUS
 10
-29.4261928119
 20
19.4540843086
 11
-29.4249169518
 21
19.316496421
  0
LINE
  5
2FD
100
AcDbEntity
  8
RACCORDO
100
AcDbLine
 62
7
  6
CONTINUOUS
 10
-29.4261359993
 20
24.448435996
 11
-29.4249086936
 21
24.3155279621
  0
LINE
  5
2FE
100
AcDbEntity
  8
ASSI
100
AcDbLine
 62
7
  6
CONTINUOUS
 10
-29.4261928119
 20
24.4540843086
 11
-29.4249169518
 21
24.316496421
  0
LINE
  5
2FF
100
AcDbEntity
  8
ASSI
100
AcDbLine
 62
7
  6
CONTINUOUS
 10
-29.4249169518
 20
9.316496421
 11
-29.4237135297
 21
9.1635491153
  0
LINE
  5
300
100
AcDbEntity
  8
RACCORDO
100
AcDbLine
 62
7
  6
CONTINUOUS
 10
-29.4249086936
 20
9.3155279621
 11
-29.4237483936
 21
9.1683498115
  0
LINE
  5
301
100
AcDbEntity
  8
ASSI
100
AcDbLine
 62
7
  6
CONTINUOUS
 10
-29.4249169518
 20
14.316496421
 11
-29.4237135297
 21
14.1635491153
  0
LINE
  5
302
100
AcDbEntity
  8
RACCORDO
100
AcDbLine
 62
7
  6
CONTINUOUS
 10
-29.4249086936
 20
14.3155279621
 11
-29.4237483936
 21
14.1683498115
  0
LINE
  5
303
100
AcDbEntity
  8
ASSI
100
AcDbLine
 62
7
  6
CONTINUOUS
 10
-29.4249169518
 20
19.316496421
 11
-29.4237135297
 21
19.1635491153
  0
LINE
  5
304
100
AcDbEntity
  8
RACCORDO
100
AcDbLine
 62
7
  6
CONTINUOUS
 10
-29.4249086936
 20
19.3155279621
 11
-29.4237483936
 21
19.1683498115
  0
LINE
  5
305
100
AcDbEntity
  8
ASSI
100
AcDbLine
 62
7
  6
CONTINUOUS
 10
-29.4249169518
 20
24.316496421
 11
-29.4237135297
 21
24.1635491153
  0
LINE
  5
306
100
AcDbEntity
  8
RACCORDO
100
AcDbLine
 62
7
  6
CONTINUOUS
 10
-29.4249086936
 20
24.3155279621
 11
-29.4237483936
 21
24.1683498115
  0
LINE
  5
307
100
AcDbEntity
  8
ASSI
100
AcDbLine
 62
7
  6
CONTINUOUS
 10
-29.4237135297
 20
9.1635491153
 11
-29.4226038419
 21
8.9957445174
  0
LINE
  5
308
100
AcDbEntity
  8
RACCORDO
100
AcDbLine
 62
7
  6
CONTINUOUS
 10
-29.4237483936
 20
9.1683498115
 11
-29.4226737853
 21
9.0072924022
  0
LINE
  5
309
100
AcDbEntity
  8
ASSI
100
AcDbLine
 62
7
  6
CONTINUOUS
 10
-29.4237135297
 20
14.1635491153
 11
-29.4226038419
 21
13.9957445174
  0
LINE
  5
30A
100
AcDbEntity
  8
RACCORDO
100
AcDbLine
 62
7
  6
CONTINUOUS
 10
-29.4237483936
 20
14.1683498115
 11
-29.4226737853
 21
14.0072924022
  0
LINE
  5
30B
100
AcDbEntity
  8
ASSI
100
AcDbLine
 62
7
  6
CONTINUOUS
 10
-29.4237135297
 20
19.1635491153
 11
-29.4226038419
 21
18.9957445174
  0
LINE
  5
30C
100
AcDbEntity
  8
RACCORDO
100
AcDbLine
 62
7
  6
CONTINUOUS
 10
-29.4237483936
 20
19.1683498115
 11
-29.4226737853
 21
19.0072924022
  0
LINE
  5
30D
100
AcDbEntity
  8
ASSI
100
AcDbLine
 62
7
  6
CONTINUOUS
 10
-29.4237135297
 20
24.1635491153
 11
-29.4226038419
 21
23.9957445174
  0
LINE
  5
30E
100
AcDbEntity
  8
RACCORDO
100
AcDbLine
 62
7
  6
CONTINUOUS
 10
-29.4237483936
 20
24.1683498115
 11
-29.4226737853
 21
24.0072924022
  0
LINE
  5
30F
100
AcDbEntity
  8
ASSI
100
AcDbLine
 62
7
  6
CONTINUOUS
 10
-29.4226038419
 20
8.9957445174
 11
-29.421608718
 21
8.8138115404
  0
LINE
  5
310
100
AcDbEntity
  8
RACCORDO
100
AcDbLine
 62
7
  6
CONTINUOUS
 10
-29.4226737853
 20
9.0072924022
 11
-29.4217047332
 21
8.8329305058
  0
LINE
  5
311
100
AcDbEntity
  8
ASSI
100
AcDbLine
 62
7
  6
CONTINUOUS
 10
-29.4226038419
 20
13.9957445174
 11
-29.421608718
 21
13.8138115404
  0
LINE
  5
312
100
AcDbEntity
  8
RACCORDO
100
AcDbLine
 62
7
  6
CONTINUOUS
 10
-29.4226737853
 20
14.0072924022
 11
-29.4217047332
 21
13.8329305058
  0
LINE
  5
313
100
AcDbEntity
  8
ASSI
100
AcDbLine
 62
7
  6
CONTINUOUS
 10
-29.4226038419
 20
18.9957445174
 11
-29.421608718
 21
18.8138115404
  0
LINE
  5
314
100
AcDbEntity
  8
RACCORDO
100
AcDbLine
 62
7
  6
CONTINUOUS
 10
-29.4226737853
 20
19.0072924022
 11
-29.4217047332
 21
18.8329305058
  0
LINE
  5
315
100
AcDbEntity
  8
ASSI
100
AcDbLine
 62
7
  6
CONTINUOUS
 10
-29.4226038419
 20
23.9957445174
 11
-29.421608718
 21
23.8138115404
  0
LINE
  5
316
100
AcDbEntity
  8
RACCORDO
100
AcDbLine
 62
7
  6
CONTINUOUS
 10
-29.4226737853
 20
24.0072924022
 11
-29.4217047332
 21
23.8329305058
  0
LINE
  5
317
100
AcDbEntity
  8
RACCORDO
100
AcDbLine
 62
7
  6
CONTINUOUS
 10
-29.4217047332
 20
13.8329305058
 11
-29.4208464904
 21
13.6460466991
  0
LINE
  5
318
100
AcDbEntity
  8
RACCORDO
100
AcDbLine
 62
7
  6
CONTINUOUS
 10
-29.4217047332
 20
18.8329305058
 11
-29.4208464904
 21
18.6460466991
  0
LINE
  5
319
100
AcDbEntity
  8
RACCORDO
100
AcDbLine
 62
7
  6
CONTINUOUS
 10
-29.4217047332
 20
23.8329305058
 11
-29.4208464904
 21
23.6460466991
  0
LINE
  5
31A
100
AcDbEntity
  8
ASSI
100
AcDbLine
 62
7
  6
CONTINUOUS
 10
-29.421608718
 20
8.8138115404
 11
-29.4207359678
 21
8.6187384561
  0
LINE
  5
31B
100
AcDbEntity
  8
ASSI
100
AcDbLine
 62
7
  6
CONTINUOUS
 10
-29.421608718
 20
13.8138115404
 11
-29.4207359678
 21
13.6187384561
  0
LINE
  5
31C
100
AcDbEntity
  8
ASSI
100
AcDbLine
 62
7
  6
CONTINUOUS
 10
-29.421608718
 20
18.8138115404
 11
-29.4207359678
 21
18.6187384561
  0
LINE
  5
31D
100
AcDbEntity
  8
ASSI
100
AcDbLine
 62
7
  6
CONTINUOUS
 10
-29.421608718
 20
23.8138115404
 11
-29.4207359678
 21
23.6187384561
  0
LINE
  5
31E
100
AcDbEntity
  8
RACCORDO
100
AcDbLine
 62
7
  6
CONTINUOUS
 10
-29.4217047332
 20
8.8329305058
 11
-29.4205898516
 21
8.5811448126
  0
LINE
  5
31F
100
AcDbEntity
  8
ASSI
100
AcDbLine
 62
7
  6
CONTINUOUS
 10
-29.4207359678
 20
8.6187384561
 11
-29.4200133679
 21
8.4118140419
  0
LINE
  5
320
100
AcDbEntity
  8
RACCORDO
100
AcDbLine
 62
7
  6
CONTINUOUS
 10
-29.4208464904
 20
13.6460466991
 11
-29.4201249507
 21
13.4476891872
  0
LINE
  5
321
100
AcDbEntity
  8
RACCORDO
100
AcDbLine
 62
7
  6
CONTINUOUS
 10
-29.4208464904
 20
18.6460466991
 11
-29.4201249507
 21
18.4476891872
  0
LINE
  5
322
100
AcDbEntity
  8
RACCORDO
100
AcDbLine
 62
7
  6
CONTINUOUS
 10
-29.4208464904
 20
23.6460466991
 11
-29.4201249507
 21
23.4476891872
  0
LINE
  5
323
100
AcDbEntity
  8
RACCORDO
100
AcDbLine
 62
7
  6
CONTINUOUS
 10
-29.4205898516
 20
8.5811448126
 11
-29.4199165286
 21
8.3792256236
  0
LINE
  5
324
100
AcDbEntity
  8
ASSI
100
AcDbLine
 62
7
  6
CONTINUOUS
 10
-29.4207359678
 20
13.6187384561
 11
-29.4199079675
 21
13.3762756391
  0
LINE
  5
325
100
AcDbEntity
  8
ASSI
100
AcDbLine
 62
7
  6
CONTINUOUS
 10
-29.4207359678
 20
18.6187384561
 11
-29.4199079675
 21
18.3762756391
  0
LINE
  5
326
100
AcDbEntity
  8
ASSI
100
AcDbLine
 62
7
  6
CONTINUOUS
 10
-29.4207359678
 20
23.6187384561
 11
-29.4199079675
 21
23.3762756391
  0
LINE
  5
327
100
AcDbEntity
  8
RACCORDO
100
AcDbLine
 62
7
  6
CONTINUOUS
 10
-29.4201249507
 20
13.4476891872
 11
-29.4195468644
 21
13.2391547742
  0
LINE
  5
328
100
AcDbEntity
  8
RACCORDO
100
AcDbLine
 62
7
  6
CONTINUOUS
 10
-29.4201249507
 20
18.4476891872
 11
-29.4195468644
 21
18.2391547742
  0
LINE
  5
329
100
AcDbEntity
  8
RACCORDO
100
AcDbLine
 62
7
  6
CONTINUOUS
 10
-29.4201249507
 20
23.4476891872
 11
-29.4195468644
 21
23.2391547742
  0
LINE
  5
32A
100
AcDbEntity
  8
ASSI
100
AcDbLine
 62
7
  6
CONTINUOUS
 10
-29.4200133679
 20
8.4118140419
 11
-29.4194456519
 21
8.1946631972
  0
LINE
  5
32B
100
AcDbEntity
  8
RACCORDO
100
AcDbLine
 62
7
  6
CONTINUOUS
 10
-29.4199165286
 20
8.3792256236
 11
-29.4193882644
 21
8.1677325248
  0
LINE
  5
32C
100
AcDbEntity
  8
ASSI
100
AcDbLine
 62
7
  6
CONTINUOUS
 10
-29.4199079675
 20
13.3762756391
 11
-29.4193675395
 21
13.157653434
  0
LINE
  5
32D
100
AcDbEntity
  8
ASSI
100
AcDbLine
 62
7
  6
CONTINUOUS
 10
-29.4199079675
 20
18.3762756391
 11
-29.4193675395
 21
18.157653434
  0
LINE
  5
32E
100
AcDbEntity
  8
ASSI
100
AcDbLine
 62
7
  6
CONTINUOUS
 10
-29.4199079675
 20
23.3762756391
 11
-29.4193675395
 21
23.157653434
  0
LINE
  5
32F
100
AcDbEntity
  8
RACCORDO
100
AcDbLine
 62
7
  6
CONTINUOUS
 10
-29.4195468644
 20
13.2391547742
 11
-29.4191291475
 21
13.0226618145
  0
LINE
  5
330
100
AcDbEntity
  8
RACCORDO
100
AcDbLine
 62
7
  6
CONTINUOUS
 10
-29.4195468644
 20
18.2391547742
 11
-29.4191291475
 21
18.0226618145
  0
LINE
  5
331
100
AcDbEntity
  8
RACCORDO
100
AcDbLine
 62
7
  6
CONTINUOUS
 10
-29.4195468644
 20
23.2391547742
 11
-29.4191291475
 21
23.0226618145
  0
LINE
  5
332
100
AcDbEntity
  8
ASSI
100
AcDbLine
 62
7
  6
CONTINUOUS
 10
-29.4194456519
 20
8.1946631972
 11
-29.4190553713
 21
7.9699493232
  0
LINE
  5
333
100
AcDbEntity
  8
RACCORDO
100
AcDbLine
 62
7
  6
CONTINUOUS
 10
-29.4193882644
 20
8.1677325248
 11
-29.4190292207
 21
7.9492293363
  0
LINE
  5
334
100
AcDbEntity
  8
ASSI
100
AcDbLine
 62
7
  6
CONTINUOUS
 10
-29.4193675395
 20
13.157653434
 11
-29.4190086558
 21
12.9319883532
  0
LINE
  5
335
100
AcDbEntity
  8
ASSI
100
AcDbLine
 62
7
  6
CONTINUOUS
 10
-29.4193675395
 20
18.157653434
 11
-29.4190086558
 21
17.9319883532
  0
LINE
  5
336
100
AcDbEntity
  8
ASSI
100
AcDbLine
 62
7
  6
CONTINUOUS
 10
-29.4193675395
 20
23.157653434
 11
-29.4190086558
 21
22.9319883532
  0
LINE
  5
337
100
AcDbEntity
  8
RACCORDO
100
AcDbLine
 62
7
  6
CONTINUOUS
 10
-29.4191291475
 20
13.0226618145
 11
-29.4188860232
 21
12.8011534678
  0
LINE
  5
338
100
AcDbEntity
  8
RACCORDO
100
AcDbLine
 62
7
  6
CONTINUOUS
 10
-29.4191291475
 20
18.0226618145
 11
-29.4188860232
 21
17.8011534678
  0
LINE
  5
339
100
AcDbEntity
  8
RACCORDO
100
AcDbLine
 62
7
  6
CONTINUOUS
 10
-29.4191291475
 20
23.0226618145
 11
-29.4188860232
 21
22.8011534678
  0
LINE
  5
33A
100
AcDbEntity
  8
ASSI
100
AcDbLine
 62
7
  6
CONTINUOUS
 10
-29.4190553713
 20
7.9699493232
 11
-29.418849039
 21
7.7409094811
  0
LINE
  5
33B
100
AcDbEntity
  8
RACCORDO
100
AcDbLine
 62
7
  6
CONTINUOUS
 10
-29.4190292207
 20
7.9492293363
 11
-29.4188422031
 21
7.7267376509
  0
LINE
  5
33C
100
AcDbEntity
  8
ASSI
100
AcDbLine
 62
7
  6
CONTINUOUS
 10
-29.4190086558
 20
12.9319883532
 11
-29.4188322137
 21
12.7025548403
  0
LINE
  5
33D
100
AcDbEntity
  8
ASSI
100
AcDbLine
 62
7
  6
CONTINUOUS
 10
-29.4190086558
 20
17.9319883532
 11
-29.4188322137
 21
17.7025548403
  0
LINE
  5
33E
100
AcDbEntity
  8
ASSI
100
AcDbLine
 62
7
  6
CONTINUOUS
 10
-29.4190086558
 20
22.9319883532
 11
-29.4188322137
 21
22.7025548403
  0
LINE
  5
33F
100
AcDbEntity
  8
RACCORDO
100
AcDbLine
 62
7
  6
CONTINUOUS
 10
-29.6316619011
 20
26.2757917981
 11
-29.6316619011
 21
-9.0676062993
  0
LINE
  5
340
100
AcDbEntity
  8
0
100
AcDbLine
 62
7
  6
CONTINUOUS
 10
-29.6316619011
 20
30.5041096724
 11
-29.6316619011
 21
-13.2959241736
  0
LINE
  5
341
100
AcDbEntity
  8
0
100
AcDbLine
 62
7
  6
CONTINUOUS
 10
-29.6229350333
 20
30.4982918426
 11
-29.6229350333
 21
27.1128196172
  0
LINE
  5
342
100
AcDbEntity
  8
0
100
AcDbLine
 62
7
  6
CONTINUOUS
 10
-29.6229350333
 20
-9.9046341184
 11
-29.6229350333
 21
-13.2901063438
  0
LINE
  5
343
100
AcDbEntity
  8
0
100
AcDbLine
 62
7
  6
CONTINUOUS
 10
-29.6142081656
 20
27.121546485
 11
-29.6142081656
 21
26.5233821617
  0
LINE
  5
344
100
AcDbEntity
  8
0
100
AcDbLine
 62
7
  6
CONTINUOUS
 10
-29.6142081656
 20
-9.3151966629
 11
-29.6142081656
 21
-9.9133609862
  0
LINE
  5
345
100
AcDbEntity
  8
0
100
AcDbLine
 62
7
  6
CONTINUOUS
 10
-29.5094764466
 20
26.2251809257
 11
-29.5094764466
 21
-9.0169954269
  0
LINE
  5
346
100
AcDbEntity
  8
RACCORDO
100
AcDbLine
 62
7
  6
CONTINUOUS
 10
-29.5094764466
 20
26.2251809257
 11
-29.5094764466
 21
-9.0169954269
  0
LINE
  5
347
100
AcDbEntity
  8
RACCORDO
100
AcDbLine
 62
7
  6
CONTINUOUS
 10
-29.4947522028
 20
25.1953171395
 11
-29.4947522028
 21
25.0540927494
  0
LINE
  5
348
100
AcDbEntity
  8
ASSI
100
AcDbLine
 62
7
  6
CONTINUOUS
 10
-29.4947522028
 20
25.1953171395
 11
-29.4947522028
 21
25.0540927494
  0
LINE
  5
349
100
AcDbEntity
  8
RACCORDO
100
AcDbLine
 62
7
  6
CONTINUOUS
 10
-29.4947522028
 20
20.1540927494
 11
-29.4947522028
 21
20.0540927494
  0
LINE
  5
34A
100
AcDbEntity
  8
ASSI
100
AcDbLine
 62
7
  6
CONTINUOUS
 10
-29.4947522028
 20
20.1540927494
 11
-29.4947522028
 21
20.0540927494
  0
LINE
  5
34B
100
AcDbEntity
  8
RACCORDO
100
AcDbLine
 62
7
  6
CONTINUOUS
 10
-29.4947522028
 20
15.1540927494
 11
-29.4947522028
 21
15.0540927494
  0
LINE
  5
34C
100
AcDbEntity
  8
ASSI
100
AcDbLine
 62
7
  6
CONTINUOUS
 10
-29.4947522028
 20
15.1540927494
 11
-29.4947522028
 21
15.0540927494
  0
LINE
  5
34D
100
AcDbEntity
  8
RACCORDO
100
AcDbLine
 62
7
  6
CONTINUOUS
 10
-29.4947522028
 20
10.1540927494
 11
-29.4947522028
 21
10.0540927494
  0
LINE
  5
34E
100
AcDbEntity
  8
ASSI
100
AcDbLine
 62
7
  6
CONTINUOUS
 10
-29.4947522028
 20
10.1540927494
 11
-29.4947522028
 21
10.0540927494
  0
LINE
  5
34F
100
AcDbEntity
  8
RACCORDO
100
AcDbLine
 62
7
  6
CONTINUOUS
 10
-29.4947522028
 20
5.1540927494
 11
-29.4947522028
 21
-7.9871316407
  0
LINE
  5
350
100
AcDbEntity
  8
ASSI
100
AcDbLine
 62
7
  6
CONTINUOUS
 10
-29.4947522028
 20
5.1540927494
 11
-29.4947522028
 21
-7.9871316407
  0
LINE
  5
351
100
AcDbEntity
  8
ASSI
100
AcDbLine
 62
7
  6
CONTINUOUS
 10
-29.4816619011
 20
24.9673206444
 11
-29.4816619011
 21
20.2408648544
  0
LINE
  5
352
100
AcDbEntity
  8
ASSI
100
AcDbLine
 62
7
  6
CONTINUOUS
 10
-29.4816619011
 20
19.9673206444
 11
-29.4816619011
 21
15.2408648544
  0
LINE
  5
353
100
AcDbEntity
  8
ASSI
100
AcDbLine
 62
7
  6
CONTINUOUS
 10
-29.4816619011
 20
14.9673206444
 11
-29.4816619011
 21
10.2408648544
  0
LINE
  5
354
100
AcDbEntity
  8
ASSI
100
AcDbLine
 62
7
  6
CONTINUOUS
 10
-29.4816619011
 20
9.9673206444
 11
-29.4816619011
 21
5.2408648544
  0
LINE
  5
355
100
AcDbEntity
  8
0
100
AcDbLine
 62
7
  6
CONTINUOUS
 10
-28.6316619011
 20
-15.2402448179
 11
-28.6316619011
 21
-13.7959072506
  0
LINE
  5
356
100
AcDbEntity
  8
0
100
AcDbLine
 62
7
  6
CONTINUOUS
 10
-28.6316619011
 20
31.0040927494
 11
-28.6316619011
 21
32.4484303167
  0
LINE
  5
357
100
AcDbEntity
  8
0
100
AcDbLine
 62
7
  6
CONTINUOUS
 10
-28.6272900671
 20
32.8497251462
 11
-28.6272900671
 21
32.4484303167
  0
LINE
  5
358
100
AcDbEntity
  8
0
100
AcDbLine
 62
7
  6
CONTINUOUS
 10
-28.6272900671
 20
-15.2402448179
 11
-28.6272900671
 21
-15.6415396474
  0
LINE
  5
359
100
AcDbEntity
  8
RACCORDO
100
AcDbLine
 62
7
  6
CONTINUOUS
 10
-29.4188860232
 20
22.8011534678
 11
-29.4188211493
 21
22.5405668861
  0
LINE
  5
35A
100
AcDbEntity
  8
RACCORDO
100
AcDbLine
 62
7
  6
CONTINUOUS
 10
-29.4188860232
 20
17.8011534678
 11
-29.4188211493
 21
17.5405668861
  0
LINE
  5
35B
100
AcDbEntity
  8
RACCORDO
100
AcDbLine
 62
7
  6
CONTINUOUS
 10
-29.4188860232
 20
12.8011534678
 11
-29.4188211493
 21
12.5405668861
  0
LINE
  5
35C
100
AcDbEntity
  8
ASSI
100
AcDbLine
 62
7
  6
CONTINUOUS
 10
-29.418849039
 20
7.7409094811
 11
-29.4188297482
 21
7.5109398863
  0
LINE
  5
35D
100
AcDbEntity
  8
RACCORDO
100
AcDbLine
 62
7
  6
CONTINUOUS
 10
-29.4188422031
 20
7.7267376509
 11
-29.4188324499
 21
7.5034226786
  0
LINE
  5
35E
100
AcDbEntity
  8
ASSI
100
AcDbLine
 62
7
  6
CONTINUOUS
 10
-29.4188322137
 20
22.7025548403
 11
-29.4188456322
 21
22.4727652328
  0
LINE
  5
35F
100
AcDbEntity
  8
ASSI
100
AcDbLine
 62
7
  6
CONTINUOUS
 10
-29.4188322137
 20
17.7025548403
 11
-29.4188456322
 21
17.4727652328
  0
LINE
  5
360
100
AcDbEntity
  8
ASSI
100
AcDbLine
 62
7
  6
CONTINUOUS
 10
-29.4188322137
 20
12.7025548403
 11
-29.4188456322
 21
12.4727652328
  0
LINE
  5
361
100
AcDbEntity
  8
RACCORDO
100
AcDbLine
 62
7
  6
CONTINUOUS
 10
-29.4188211493
 20
22.5405668861
 11
-29.418962421
 21
22.3190104659
  0
LINE
  5
362
100
AcDbEntity
  8
RACCORDO
100
AcDbLine
 62
7
  6
CONTINUOUS
 10
-29.4188211493
 20
17.5405668861
 11
-29.418962421
 21
17.3190104659
  0
LINE
  5
363
100
AcDbEntity
  8
RACCORDO
100
AcDbLine
 62
7
  6
CONTINUOUS
 10
-29.4188211493
 20
12.5405668861
 11
-29.418962421
 21
12.3190104659
  0
LINE
  5
364
100
AcDbEntity
  8
ASSI
100
AcDbLine
 62
7
  6
CONTINUOUS
 10
-29.4188297482
 20
7.5109398863
 11
-29.4190008439
 21
7.2834718022
  0
LINE
  5
365
100
AcDbEntity
  8
RACCORDO
100
AcDbLine
 62
7
  6
CONTINUOUS
 10
-29.4188324499
 20
7.5034226786
 11
-29.4190019763
 21
7.2824810684
  0
LINE
  5
366
100
AcDbEntity
  8
ASSI
100
AcDbLine
 62
7
  6
CONTINUOUS
 10
-29.4188456322
 20
22.4727652328
 11
-29.4190460096
 21
22.246041613
  0
LINE
  5
367
100
AcDbEntity
  8
ASSI
100
AcDbLine
 62
7
  6
CONTINUOUS
 10
-29.4188456322
 20
17.4727652328
 11
-29.4190460096
 21
17.246041613
  0
LINE
  5
368
100
AcDbEntity
  8
ASSI
100
AcDbLine
 62
7
  6
CONTINUOUS
 10
-29.4188456322
 20
12.4727652328
 11
-29.4190460096
 21
12.246041613
  0
LINE
  5
369
100
AcDbEntity
  8
RACCORDO
100
AcDbLine
 62
7
  6
CONTINUOUS
 10
-29.418962421
 20
22.3190104659
 11
-29.4192674711
 21
22.1024153217
  0
LINE
  5
36A
100
AcDbEntity
  8
RACCORDO
100
AcDbLine
 62
7
  6
CONTINUOUS
 10
-29.418962421
 20
17.3190104659
 11
-29.4192674711
 21
17.1024153217
  0
LINE
  5
36B
100
AcDbEntity
  8
RACCORDO
100
AcDbLine
 62
7
  6
CONTINUOUS
 10
-29.418962421
 20
12.3190104659
 11
-29.4192674711
 21
12.1024153217
  0
LINE
  5
36C
100
AcDbEntity
  8
RACCORDO
100
AcDbLine
 62
7
  6
CONTINUOUS
 10
-29.4190019763
 20
7.2824810684
 11
-29.4193344496
 21
7.0670022803
  0
LINE
  5
36D
100
AcDbEntity
  8
ASSI
100
AcDbLine
 62
7
  6
CONTINUOUS
 10
-29.4190008439
 20
7.2834718022
 11
-29.4193446805
 21
7.0618169236
  0
LINE
  5
36E
100
AcDbEntity
  8
ASSI
100
AcDbLine
 62
7
  6
CONTINUOUS
 10
-29.4190460096
 20
22.246041613
 11
-29.4194190473
 21
22.025660899
  0
LINE
  5
36F
100
AcDbEntity
  8
ASSI
100
AcDbLine
 62
7
  6
CONTINUOUS
 10
-29.4190460096
 20
17.246041613
 11
-29.4194190473
 21
17.025660899
  0
LINE
  5
370
100
AcDbEntity
  8
ASSI
100
AcDbLine
 62
7
  6
CONTINUOUS
 10
-29.4190460096
 20
12.246041613
 11
-29.4194190473
 21
12.025660899
  0
LINE
  5
371
100
AcDbEntity
  8
RACCORDO
100
AcDbLine
 62
7
  6
CONTINUOUS
 10
-29.4192674711
 20
22.1024153217
 11
-29.4197356626
 21
21.8936881307
  0
LINE
  5
372
100
AcDbEntity
  8
RACCORDO
100
AcDbLine
 62
7
  6
CONTINUOUS
 10
-29.4192674711
 20
17.1024153217
 11
-29.4197356626
 21
16.8936881307
  0
LINE
  5
373
100
AcDbEntity
  8
RACCORDO
100
AcDbLine
 62
7
  6
CONTINUOUS
 10
-29.4192674711
 20
12.1024153217
 11
-29.4197356626
 21
11.8936881307
  0
LINE
  5
374
100
AcDbEntity
  8
RACCORDO
100
AcDbLine
 62
7
  6
CONTINUOUS
 10
-29.4193344496
 20
7.0670022803
 11
-29.4198281579
 21
6.8598508498
  0
LINE
  5
375
100
AcDbEntity
  8
ASSI
100
AcDbLine
 62
7
  6
CONTINUOUS
 10
-29.4193446805
 20
7.0618169236
 11
-29.4198586801
 21
6.8490336503
  0
LINE
  5
376
100
AcDbEntity
  8
ASSI
100
AcDbLine
 62
7
  6
CONTINUOUS
 10
-29.4194190473
 20
22.025660899
 11
-29.4199587652
 21
21.8146329384
  0
LINE
  5
377
100
AcDbEntity
  8
ASSI
100
AcDbLine
 62
7
  6
CONTINUOUS
 10
-29.4194190473
 20
17.025660899
 11
-29.4199587652
 21
16.8146329384
  0
LINE
  5
378
100
AcDbEntity
  8
ASSI
100
AcDbLine
 62
7
  6
CONTINUOUS
 10
-29.4194190473
 20
12.025660899
 11
-29.4199587652
 21
11.8146329384
  0
LINE
  5
379
100
AcDbEntity
  8
RACCORDO
100
AcDbLine
 62
7
  6
CONTINUOUS
 10
-29.4197356626
 20
21.8936881307
 11
-29.4203423343
 21
21.6953562665
  0
LINE
  5
37A
100
AcDbEntity
  8
RACCORDO
100
AcDbLine
 62
7
  6
CONTINUOUS
 10
-29.4197356626
 20
16.8936881307
 11
-29.4203423343
 21
16.6953562665
  0
LINE
  5
37B
100
AcDbEntity
  8
RACCORDO
100
AcDbLine
 62
7
  6
CONTINUOUS
 10
-29.4197356626
 20
11.8936881307
 11
-29.4203423343
 21
11.6953562665
  0
LINE
  5
37C
100
AcDbEntity
  8
RACCORDO
100
AcDbLine
 62
7
  6
CONTINUOUS
 10
-29.4198281579
 20
6.8598508498
 11
-29.420455472
 21
6.6634220244
  0
LINE
  5
37D
100
AcDbEntity
  8
ASSI
100
AcDbLine
 62
7
  6
CONTINUOUS
 10
-29.4198586801
 20
6.8490336503
 11
-29.420513118
 21
6.6476418875
  0
LINE
  5
37E
100
AcDbEntity
  8
ASSI
100
AcDbLine
 62
7
  6
CONTINUOUS
 10
-29.4199587652
 20
21.8146329384
 11
-29.4206350689
 21
21.6152707125
  0
LINE
  5
37F
100
AcDbEntity
  8
ASSI
100
AcDbLine
 62
7
  6
CONTINUOUS
 10
-29.4199587652
 20
16.8146329384
 11
-29.4206350689
 21
16.6152707125
  0
LINE
  5
380
100
AcDbEntity
  8
ASSI
100
AcDbLine
 62
7
  6
CONTINUOUS
 10
-29.4199587652
 20
11.8146329384
 11
-29.4206350689
 21
11.6152707125
  0
LINE
  5
381
100
AcDbEntity
  8
RACCORDO
100
AcDbLine
 62
7
  6
CONTINUOUS
 10
-29.4203423343
 20
21.6953562665
 11
-29.421073198
 21
21.5086847661
  0
LINE
  5
382
100
AcDbEntity
  8
RACCORDO
100
AcDbLine
 62
7
  6
CONTINUOUS
 10
-29.4203423343
 20
16.6953562665
 11
-29.421073198
 21
16.5086847661
  0
LINE
  5
383
100
AcDbEntity
  8
RACCORDO
100
AcDbLine
 62
7
  6
CONTINUOUS
 10
-29.4203423343
 20
11.6953562665
 11
-29.421073198
 21
11.5086847661
  0
LINE
  5
384
100
AcDbEntity
  8
ASSI
100
AcDbLine
 62
7
  6
CONTINUOUS
 10
-29.420513118
 20
6.6476418875
 11
-29.4210228453
 21
6.5202552656
  0
LINE
  5
385
100
AcDbEntity
  8
RACCORDO
100
AcDbLine
 62
7
  6
CONTINUOUS
 10
-29.420455472
 20
6.6634220244
 11
-29.4212067389
 21
6.4787396728
  0
LINE
  5
386
100
AcDbEntity
  8
ASSI
100
AcDbLine
 62
7
  6
CONTINUOUS
 10
-29.4206350689
 20
21.6152707125
 11
-29.4214416832
 21
21.428426125
  0
LINE
  5
387
100
AcDbEntity
  8
ASSI
100
AcDbLine
 62
7
  6
CONTINUOUS
 10
-29.4206350689
 20
16.6152707125
 11
-29.4214416832
 21
16.428426125
  0
LINE
  5
388
100
AcDbEntity
  8
ASSI
100
AcDbLine
 62
7
  6
CONTINUOUS
 10
-29.4206350689
 20
11.6152707125
 11
-29.4214416832
 21
11.428426125
  0
LINE
  5
389
100
AcDbEntity
  8
RACCORDO
100
AcDbLine
 62
7
  6
CONTINUOUS
 10
-29.4212067389
 20
6.4787396728
 11
-29.4214830095
 21
6.4198602583
  0
LINE
  5
38A
100
AcDbEntity
  8
RACCORDO
100
AcDbLine
 62
7
  6
CONTINUOUS
 10
-29.421073198
 20
21.5086847661
 11
-29.4219180405
 21
21.3340982582
  0
LINE
  5
38B
100
AcDbEntity
  8
RACCORDO
100
AcDbLine
 62
7
  6
CONTINUOUS
 10
-29.421073198
 20
16.5086847661
 11
-29.4219180405
 21
16.3340982582
  0
LINE
  5
38C
100
AcDbEntity
  8
RACCORDO
100
AcDbLine
 62
7
  6
CONTINUOUS
 10
-29.421073198
 20
11.5086847661
 11
-29.4219180405
 21
11.3340982582
  0
LINE
  5
38D
100
AcDbEntity
  8
ASSI
100
AcDbLine
 62
7
  6
CONTINUOUS
 10
-29.4210228453
 20
6.5202552656
 11
-29.4218877693
 21
6.3398295005
  0
LINE
  5
38E
100
AcDbEntity
  8
ASSI
100
AcDbLine
 62
7
  6
CONTINUOUS
 10
-29.4214416832
 20
21.428426125
 11
-29.4223571203
 21
21.254503791
  0
LINE
  5
38F
100
AcDbEntity
  8
ASSI
100
AcDbLine
 62
7
  6
CONTINUOUS
 10
-29.4214416832
 20
16.428426125
 11
-29.4223571203
 21
16.254503791
  0
LINE
  5
390
100
AcDbEntity
  8
ASSI
100
AcDbLine
 62
7
  6
CONTINUOUS
 10
-29.4214416832
 20
11.428426125
 11
-29.4223571203
 21
11.254503791
  0
LINE
  5
391
100
AcDbEntity
  8
RACCORDO
100
AcDbLine
 62
7
  6
CONTINUOUS
 10
-29.4214830095
 20
6.4198602583
 11
-29.4225319663
 21
6.2245673106
  0
LINE
  5
392
100
AcDbEntity
  8
RACCORDO
100
AcDbLine
 62
7
  6
CONTINUOUS
 10
-29.4219180405
 20
21.3340982582
 11
-29.4228538273
 21
21.1718757683
  0
LINE
  5
393
100
AcDbEntity
  8
RACCORDO
100
AcDbLine
 62
7
  6
CONTINUOUS
 10
-29.4219180405
 20
16.3340982582
 11
-29.4228538273
 21
16.1718757683
  0
LINE
  5
394
100
AcDbEntity
  8
RACCORDO
100
AcDbLine
 62
7
  6
CONTINUOUS
 10
-29.4219180405
 20
11.3340982582
 11
-29.4228538273
 21
11.1718757683
  0
LINE
  5
395
100
AcDbEntity
  8
ASSI
100
AcDbLine
 62
7
  6
CONTINUOUS
 10
-29.4218877693
 20
6.3398295005
 11
-29.4228500846
 21
6.1724713223
  0
LINE
  5
396
100
AcDbEntity
  8
ASSI
100
AcDbLine
 62
7
  6
CONTINUOUS
 10
-29.4223571203
 20
21.254503791
 11
-29.4233668944
 21
21.0937419592
  0
LINE
  5
397
100
AcDbEntity
  8
ASSI
100
AcDbLine
 62
7
  6
CONTINUOUS
 10
-29.4223571203
 20
16.254503791
 11
-29.4233668944
 21
16.0937419592
  0
LINE
  5
398
100
AcDbEntity
  8
ASSI
100
AcDbLine
 62
7
  6
CONTINUOUS
 10
-29.4223571203
 20
11.254503791
 11
-29.4233668944
 21
11.0937419592
  0
LINE
  5
399
100
AcDbEntity
  8
RACCORDO
100
AcDbLine
 62
7
  6
CONTINUOUS
 10
-29.4225319663
 20
6.2245673106
 11
-29.4235272163
 21
6.0706554352
  0
LINE
  5
39A
100
AcDbEntity
  8
RACCORDO
100
AcDbLine
 62
7
  6
CONTINUOUS
 10
-29.4228538273
 20
21.1718757683
 11
-29.4238779054
 21
21.0221253159
  0
LINE
  5
39B
100
AcDbEntity
  8
RACCORDO
100
AcDbLine
 62
7
  6
CONTINUOUS
 10
-29.4228538273
 20
16.1718757683
 11
-29.4238779054
 21
16.0221253159
  0
LINE
  5
39C
100
AcDbEntity
  8
RACCORDO
100
AcDbLine
 62
7
  6
CONTINUOUS
 10
-29.4228538273
 20
11.1718757683
 11
-29.4238779054
 21
11.0221253159
  0
LINE
  5
39D
100
AcDbEntity
  8
ASSI
100
AcDbLine
 62
7
  6
CONTINUOUS
 10
-29.4228500846
 20
6.1724713223
 11
-29.4239061966
 21
6.0183211731
  0
LINE
  5
39E
100
AcDbEntity
  8
ASSI
100
AcDbLine
 62
7
  6
CONTINUOUS
 10
-29.4233668944
 20
21.0937419592
 11
-29.4244652318
 21
20.9462106998
  0
LINE
  5
39F
100
AcDbEntity
  8
ASSI
100
AcDbLine
 62
7
  6
CONTINUOUS
 10
-29.4233668944
 20
16.0937419592
 11
-29.4244652318
 21
15.9462106998
  0
LINE
  5
3A0
100
AcDbEntity
  8
ASSI
100
AcDbLine
 62
7
  6
CONTINUOUS
 10
-29.4233668944
 20
11.0937419592
 11
-29.4244652318
 21
10.9462106998
  0
LINE
  5
3A1
100
AcDbEntity
  8
RACCORDO
100
AcDbLine
 62
7
  6
CONTINUOUS
 10
-29.4235272163
 20
6.0706554352
 11
-29.4246032865
 21
5.9292296905
  0
LINE
  5
3A2
100
AcDbEntity
  8
RACCORDO
100
AcDbLine
 62
7
  6
CONTINUOUS
 10
-29.4238779054
 20
21.0221253159
 11
-29.4249759483
 21
20.884862908
  0
LINE
  5
3A3
100
AcDbEntity
  8
RACCORDO
100
AcDbLine
 62
7
  6
CONTINUOUS
 10
-29.4238779054
 20
16.0221253159
 11
-29.4249759483
 21
15.884862908
  0
LINE
  5
3A4
100
AcDbEntity
  8
RACCORDO
100
AcDbLine
 62
7
  6
CONTINUOUS
 10
-29.4238779054
 20
11.0221253159
 11
-29.4249759483
 21
10.884862908
  0
LINE
  5
3A5
100
AcDbEntity
  8
ASSI
100
AcDbLine
 62
7
  6
CONTINUOUS
 10
-29.4239061966
 20
6.0183211731
 11
-29.4250403154
 21
5.8774128383
  0
LINE
  5
3A6
100
AcDbEntity
  8
ASSI
100
AcDbLine
 62
7
  6
CONTINUOUS
 10
-29.4244652318
 20
20.9462106998
 11
-29.4256306832
 21
20.8119235542
  0
LINE
  5
3A7
100
AcDbEntity
  8
ASSI
100
AcDbLine
 62
7
  6
CONTINUOUS
 10
-29.4244652318
 20
15.9462106998
 11
-29.4256306832
 21
15.8119235542
  0
LINE
  5
3A8
100
AcDbEntity
  8
ASSI
100
AcDbLine
 62
7
  6
CONTINUOUS
 10
-29.4244652318
 20
10.9462106998
 11
-29.4256306832
 21
10.8119235542
  0
LINE
  5
3A9
100
AcDbEntity
  8
RACCORDO
100
AcDbLine
 62
7
  6
CONTINUOUS
 10
-29.4246032865
 20
5.9292296905
 11
-29.4257405525
 21
5.8002851096
  0
LINE
  5
3AA
100
AcDbEntity
  8
RACCORDO
100
AcDbLine
 62
7
  6
CONTINUOUS
 10
-29.4249759483
 20
20.884862908
 11
-29.4261329083
 21
20.7600612962
  0
LINE
  5
3AB
100
AcDbEntity
  8
RACCORDO
100
AcDbLine
 62
7
  6
CONTINUOUS
 10
-29.4249759483
 20
15.884862908
 11
-29.4261329083
 21
15.7600612962
  0
LINE
  5
3AC
100
AcDbEntity
  8
RACCORDO
100
AcDbLine
 62
7
  6
CONTINUOUS
 10
-29.4249759483
 20
10.884862908
 11
-29.4261329083
 21
10.7600612962
  0
LINE
  5
3AD
100
AcDbEntity
  8
ASSI
100
AcDbLine
 62
7
  6
CONTINUOUS
 10
-29.4250403154
 20
5.8774128383
 11
-29.426237053
 21
5.7497249215
  0
LINE
  5
3AE
100
AcDbEntity
  8
0
100
AcDbLine
 62
253
  6
CONTINUOUS
 10
-28.6316619011
 20
32.0145778976
 11
-28.6272900671
 21
32.4484303167
  0
LINE
  5
3AF
100
AcDbEntity
  8
0
100
AcDbLine
 62
253
  6
CONTINUOUS
 10
-28.382384899
 20
31.7267424802
 11
-28.3772942979
 21
32.2319239658
  0
LINE
  5
3B0
100
AcDbEntity
  8
ASSI
100
AcDbLine
 62
7
  6
CONTINUOUS
 10
-29.4256306832
 20
20.8119235542
 11
-29.4268589256
 21
20.6907970757
  0
LINE
  5
3B1
100
AcDbEntity
  8
ASSI
100
AcDbLine
 62
7
  6
CONTINUOUS
 10
-29.4256306832
 20
15.8119235542
 11
-29.4268589256
 21
15.6907970757
  0
LINE
  5
3B2
100
AcDbEntity
  8
ASSI
100
AcDbLine
 62
7
  6
CONTINUOUS
 10
-29.4256306832
 20
10.8119235542
 11
-29.4268589256
 21
10.6907970757
  0
LINE
  5
3B3
100
AcDbEntity
  8
RACCORDO
100
AcDbLine
 62
7
  6
CONTINUOUS
 10
-29.4257405525
 20
5.8002851096
 11
-29.4269370135
 21
5.6837200762
  0
LINE
  5
3B4
100
AcDbEntity
  8
RACCORDO
100
AcDbLine
 62
7
  6
CONTINUOUS
 10
-29.4261329083
 20
20.7600612962
 11
-29.4273479041
 21
20.6475893798
  0
LINE
  5
3B5
100
AcDbEntity
  8
RACCORDO
100
AcDbLine
 62
7
  6
CONTINUOUS
 10
-29.4261329083
 20
15.7600612962
 11
-29.4273479041
 21
15.6475893798
  0
LINE
  5
3B6
100
AcDbEntity
  8
RACCORDO
100
AcDbLine
 62
7
  6
CONTINUOUS
 10
-29.4261329083
 20
10.7600612962
 11
-29.4273479041
 21
10.6475893798
  0
LINE
  5
3B7
100
AcDbEntity
  8
ASSI
100
AcDbLine
 62
7
  6
CONTINUOUS
 10
-29.426237053
 20
5.7497249215
 11
-29.4274946358
 21
5.6351204718
  0
LINE
  5
3B8
100
AcDbEntity
  8
ASSI
100
AcDbLine
 62
7
  6
CONTINUOUS
 10
-29.4268589256
 20
20.6907970757
 11
-29.4281414205
 21
20.5826799856
  0
LINE
  5
3B9
100
AcDbEntity
  8
ASSI
100
AcDbLine
 62
7
  6
CONTINUOUS
 10
-29.4268589256
 20
15.6907970757
 11
-29.4281414205
 21
15.5826799856
  0
LINE
  5
3BA
100
AcDbEntity
  8
ASSI
100
AcDbLine
 62
7
  6
CONTINUOUS
 10
-29.4268589256
 20
10.6907970757
 11
-29.4281414205
 21
10.5826799856
  0
LINE
  5
3BB
100
AcDbEntity
  8
RACCORDO
100
AcDbLine
 62
7
  6
CONTINUOUS
 10
-29.4269370135
 20
5.6837200762
 11
-29.4281837167
 21
5.5793865333
  0
LINE
  5
3BC
100
AcDbEntity
  8
RACCORDO
100
AcDbLine
 62
7
  6
CONTINUOUS
 10
-29.4273479041
 20
20.6475893798
 11
-29.4286068068
 21
20.5473267896
  0
LINE
  5
3BD
100
AcDbEntity
  8
RACCORDO
100
AcDbLine
 62
7
  6
CONTINUOUS
 10
-29.4273479041
 20
15.6475893798
 11
-29.4286068068
 21
15.5473267896
  0
LINE
  5
3BE
100
AcDbEntity
  8
RACCORDO
100
AcDbLine
 62
7
  6
CONTINUOUS
 10
-29.4273479041
 20
10.6475893798
 11
-29.4286068068
 21
10.5473267896
  0
LINE
  5
3BF
100
AcDbEntity
  8
ASSI
100
AcDbLine
 62
7
  6
CONTINUOUS
 10
-29.4274946358
 20
5.6351204718
 11
-29.4287961983
 21
5.5334952411
  0
LINE
  5
3C0
100
AcDbEntity
  8
ASSI
100
AcDbLine
 62
7
  6
CONTINUOUS
 10
-29.4281414205
 20
20.5826799856
 11
-29.4294583955
 21
20.4876204716
  0
LINE
  5
3C1
100
AcDbEntity
  8
ASSI
100
AcDbLine
 62
7
  6
CONTINUOUS
 10
-29.4281414205
 20
15.5826799856
 11
-29.4294583955
 21
15.4876204716
  0
LINE
  5
3C2
100
AcDbEntity
  8
ASSI
100
AcDbLine
 62
7
  6
CONTINUOUS
 10
-29.4281414205
 20
10.5826799856
 11
-29.4294583955
 21
10.4876204716
  0
LINE
  5
3C3
100
AcDbEntity
  8
RACCORDO
100
AcDbLine
 62
7
  6
CONTINUOUS
 10
-29.4281837167
 20
5.5793865333
 11
-29.4294624459
 21
5.487351583
  0
LINE
  5
3C4
100
AcDbEntity
  8
RACCORDO
100
AcDbLine
 62
7
  6
CONTINUOUS
 10
-29.4286068068
 20
20.5473267896
 11
-29.4298945886
 21
20.4594605244
  0
LINE
  5
3C5
100
AcDbEntity
  8
RACCORDO
100
AcDbLine
 62
7
  6
CONTINUOUS
 10
-29.4286068068
 20
15.5473267896
 11
-29.4298945886
 21
15.4594605244
  0
LINE
  5
3C6
100
AcDbEntity
  8
RACCORDO
100
AcDbLine
 62
7
  6
CONTINUOUS
 10
-29.4286068068
 20
10.5473267896
 11
-29.4298945886
 21
10.4594605244
  0
LINE
  5
3C7
100
AcDbEntity
  8
ASSI
100
AcDbLine
 62
7
  6
CONTINUOUS
 10
-29.4287961983
 20
5.5334952411
 11
-29.4299036568
 21
5.4588919614
  0
LINE
  5
3C8
100
AcDbEntity
  8
ASSI
100
AcDbLine
 62
7
  6
CONTINUOUS
 10
-29.4294583955
 20
20.4876204716
 11
-29.4305758767
 21
20.4185959744
  0
LINE
  5
3C9
100
AcDbEntity
  8
ASSI
100
AcDbLine
 62
7
  6
CONTINUOUS
 10
-29.4294583955
 20
15.4876204716
 11
-29.4305758767
 21
15.4185959744
  0
LINE
  5
3CA
100
AcDbEntity
  8
ASSI
100
AcDbLine
 62
7
  6
CONTINUOUS
 10
-29.4294583955
 20
10.4876204716
 11
-29.4305758767
 21
10.4185959744
  0
LINE
  5
3CB
100
AcDbEntity
  8
RACCORDO
100
AcDbLine
 62
7
  6
CONTINUOUS
 10
-29.4294624459
 20
5.487351583
 11
-29.4307652036
 21
5.4078880706
  0
LINE
  5
3CC
100
AcDbEntity
  8
RACCORDO
100
AcDbLine
 62
7
  6
CONTINUOUS
 10
-29.4298945886
 20
20.4594605244
 11
-29.4309835863
 21
20.3958745021
  0
LINE
  5
3CD
100
AcDbEntity
  8
RACCORDO
100
AcDbLine
 62
7
  6
CONTINUOUS
 10
-29.4298945886
 20
15.4594605244
 11
-29.4309835863
 21
15.3958745021
  0
LINE
  5
3CE
100
AcDbEntity
  8
RACCORDO
100
AcDbLine
 62
7
  6
CONTINUOUS
 10
-29.4298945886
 20
10.4594605244
 11
-29.4309835863
 21
10.3958745021
  0
LINE
  5
3CF
100
AcDbEntity
  8
ASSI
100
AcDbLine
 62
7
  6
CONTINUOUS
 10
-29.4299036568
 20
5.4588919614
 11
-29.4310257353
 21
5.3935968323
  0
LINE
  5
3D0
100
AcDbEntity
  8
ASSI
100
AcDbLine
 62
7
  6
CONTINUOUS
 10
-29.4305758767
 20
20.4185959744
 11
-29.4317003642
 21
20.3588901833
  0
LINE
  5
3D1
100
AcDbEntity
  8
ASSI
100
AcDbLine
 62
7
  6
CONTINUOUS
 10
-29.4305758767
 20
15.4185959744
 11
-29.4317003642
 21
15.3588901833
  0
LINE
  5
3D2
100
AcDbEntity
  8
ASSI
100
AcDbLine
 62
7
  6
CONTINUOUS
 10
-29.4305758767
 20
10.4185959744
 11
-29.4317003642
 21
10.3588901833
  0
LINE
  5
3D3
100
AcDbEntity
  8
RACCORDO
100
AcDbLine
 62
7
  6
CONTINUOUS
 10
-29.4307652036
 20
5.4078880706
 11
-29.4318563228
 21
5.3513217338
  0
LINE
  5
3D4
100
AcDbEntity
  8
RACCORDO
100
AcDbLine
 62
7
  6
CONTINUOUS
 10
-29.4309835863
 20
20.3958745021
 11
-29.4321630375
 21
20.3369546972
  0
LINE
  5
3D5
100
AcDbEntity
  8
RACCORDO
100
AcDbLine
 62
7
  6
CONTINUOUS
 10
-29.4309835863
 20
15.3958745021
 11
-29.4321630375
 21
15.3369546972
  0
LINE
  5
3D6
100
AcDbEntity
  8
RACCORDO
100
AcDbLine
 62
7
  6
CONTINUOUS
 10
-29.4309835863
 20
10.3958745021
 11
-29.4321630375
 21
10.3369546972
  0
LINE
  5
3D7
100
AcDbEntity
  8
RACCORDO
100
AcDbLine
 62
7
  6
CONTINUOUS
 10
-29.4318563228
 20
5.3513217338
 11
-29.4321630375
 21
5.3369546972
  0
LINE
  5
3D8
100
AcDbEntity
  8
ASSI
100
AcDbLine
 62
7
  6
CONTINUOUS
 10
-29.4317003642
 20
20.3588901833
 11
-29.4321624187
 21
20.3369554602
  0
LINE
  5
3D9
100
AcDbEntity
  8
ASSI
100
AcDbLine
 62
7
  6
CONTINUOUS
 10
-29.4317003642
 20
15.3588901833
 11
-29.4321624187
 21
15.3369554602
  0
LINE
  5
3DA
100
AcDbEntity
  8
ASSI
100
AcDbLine
 62
7
  6
CONTINUOUS
 10
-29.4317003642
 20
10.3588901833
 11
-29.4321624187
 21
10.3369554602
  0
LINE
  5
3DB
100
AcDbEntity
  8
ASSI
100
AcDbLine
 62
7
  6
CONTINUOUS
 10
-29.4310257353
 20
5.3935968323
 11
-29.4321624187
 21
5.3369554602
  0
LWPOLYLINE
  5
3DC
100
AcDbEntity
  8
RACCORDO
100
AcDbPolyline
 62
253
  6
CONTINUOUS
 90
43
 70
0
 10
-29.1357127452
 20
20.5019298892
 10
-29.1342598676
 20
20.5387495682
 10
-29.1328314368
 20
20.585660572
 10
-29.1314476568
 20
20.6423920141
 10
-29.1301094229
 20
20.7086128388
 10
-29.1288158397
 20
20.7839639631
 10
-29.1275844253
 20
20.868085735
 10
-29.1264160685
 20
20.9605411599
 10
-29.1253098804
 20
21.0608610092
 10
-29.1242807129
 20
21.1686095833
 10
-29.1233295102
 20
21.283257899
 10
-29.1224553281
 20
21.4042465443
 10
-29.1216701853
 20
21.5310728929
 10
-29.1209750878
 20
21.6631546193
 10
-29.1203690297
 20
21.7998352907
 10
-29.1198610112
 20
21.9404755898
 10
-29.1194524015
 20
22.0844106269
 10
-29.1191418315
 20
22.2309355968
 10
-29.1189341931
 20
22.3793259611
 10
-29.1188311209
 20
22.5288947071
 10
-29.1188309804
 20
22.6788834733
 10
-29.1189337601
 20
22.8284497065
 10
-29.1191410861
 20
22.9768336125
 10
-29.1194513322
 20
23.123350015
 10
-29.1198596085
 20
23.2672792475
 10
-29.1203672747
 20
23.407917022
 10
-29.120972971
 20
23.5445981909
 10
-29.1216677281
 20
23.6766866093
 10
-29.1224525448
 20
23.803525475
 10
-29.1233264224
 20
23.9245321032
 10
-29.1242773952
 20
24.0392061414
 10
-29.1253064205
 20
24.14698818
 10
-29.126412541
 20
24.2473465878
 10
-29.1275809203
 20
24.3398434643
 10
-29.1288124561
 20
24.4240083259
 10
-29.1301062506
 20
24.4994025442
 10
-29.1314447736
 20
24.5656641258
 10
-29.1328289336
 20
24.6224330142
 10
-29.1342578222
 20
24.6693766493
 10
-29.1357111842
 20
24.7062221421
 10
-29.1371822679
 20
24.7327376988
 10
-29.1386778251
 20
24.7487385303
 10
-29.1401978556
 20
24.7540927494
  0
LWPOLYLINE
  5
3DD
100
AcDbEntity
  8
ASSI
100
AcDbPolyline
 62
253
  6
CONTINUOUS
 90
43
 70
0
 10
-29.1357127452
 20
20.5019298892
 10
-29.1342598676
 20
20.5387495682
 10
-29.1328314368
 20
20.585660572
 10
-29.1314476568
 20
20.6423920141
 10
-29.1301094229
 20
20.7086128388
 10
-29.1288158397
 20
20.7839639631
 10
-29.1275844253
 20
20.868085735
 10
-29.1264160685
 20
20.9605411599
 10
-29.1253098804
 20
21.0608610092
 10
-29.1242807129
 20
21.1686095833
 10
-29.1233295102
 20
21.283257899
 10
-29.1224553281
 20
21.4042465443
 10
-29.1216701853
 20
21.5310728929
 10
-29.1209750878
 20
21.6631546193
 10
-29.1203690297
 20
21.7998352907
 10
-29.1198610112
 20
21.9404755898
 10
-29.1194524015
 20
22.0844106269
 10
-29.1191418315
 20
22.2309355968
 10
-29.1189341931
 20
22.3793259611
 10
-29.1188311209
 20
22.5288947071
 10
-29.1188309804
 20
22.6788834733
 10
-29.1189337601
 20
22.8284497065
 10
-29.1191410861
 20
22.9768336125
 10
-29.1194513322
 20
23.123350015
 10
-29.1198596085
 20
23.2672792475
 10
-29.1203672747
 20
23.407917022
 10
-29.120972971
 20
23.5445981909
 10
-29.1216677281
 20
23.6766866093
 10
-29.1224525448
 20
23.803525475
 10
-29.1233264224
 20
23.9245321032
 10
-29.1242773952
 20
24.0392061414
 10
-29.1253064205
 20
24.14698818
 10
-29.126412541
 20
24.2473465878
 10
-29.1275809203
 20
24.3398434643
 10
-29.1288124561
 20
24.4240083259
 10
-29.1301062506
 20
24.4994025442
 10
-29.1314447736
 20
24.5656641258
 10
-29.1328289336
 20
24.6224330142
 10
-29.1342578222
 20
24.6693766493
 10
-29.1357111842
 20
24.7062221421
 10
-29.1371822679
 20
24.7327376988
 10
-29.1386778251
 20
24.7487385303
 10
-29.1401978556
 20
24.7540927494
  0
LWPOLYLINE
  5
3DE
100
AcDbEntity
  8
RACCORDO
100
AcDbPolyline
 62
253
  6
CONTINUOUS
 90
43
 70
0
 10
-29.1357127452
 20
15.5019298892
 10
-29.1342598676
 20
15.5387495682
 10
-29.1328314368
 20
15.585660572
 10
-29.1314476568
 20
15.6423920141
 10
-29.1301094229
 20
15.7086128388
 10
-29.1288158397
 20
15.7839639631
 10
-29.1275844253
 20
15.868085735
 10
-29.1264160685
 20
15.9605411599
 10
-29.1253098804
 20
16.0608610092
 10
-29.1242807129
 20
16.1686095833
 10
-29.1233295102
 20
16.283257899
 10
-29.1224553281
 20
16.4042465443
 10
-29.1216701853
 20
16.5310728929
 10
-29.1209750878
 20
16.6631546193
 10
-29.1203690297
 20
16.7998352907
 10
-29.1198610112
 20
16.9404755898
 10
-29.1194524015
 20
17.0844106269
 10
-29.1191418315
 20
17.2309355968
 10
-29.1189341931
 20
17.3793259611
 10
-29.1188311209
 20
17.5288947071
 10
-29.1188309804
 20
17.6788834733
 10
-29.1189337601
 20
17.8284497065
 10
-29.1191410861
 20
17.9768336125
 10
-29.1194513322
 20
18.123350015
 10
-29.1198596085
 20
18.2672792475
 10
-29.1203672747
 20
18.407917022
 10
-29.120972971
 20
18.5445981909
 10
-29.1216677281
 20
18.6766866093
 10
-29.1224525448
 20
18.803525475
 10
-29.1233264224
 20
18.9245321032
 10
-29.1242773952
 20
19.0392061414
 10
-29.1253064205
 20
19.14698818
 10
-29.126412541
 20
19.2473465878
 10
-29.1275809203
 20
19.3398434643
 10
-29.1288124561
 20
19.4240083259
 10
-29.1301062506
 20
19.4994025442
 10
-29.1314447736
 20
19.5656641258
 10
-29.1328289336
 20
19.6224330142
 10
-29.1342578222
 20
19.6693766493
 10
-29.1357111842
 20
19.7062221421
 10
-29.1371822679
 20
19.7327376988
 10
-29.1386778251
 20
19.7487385303
 10
-29.1401978556
 20
19.7540927494
  0
LWPOLYLINE
  5
3DF
100
AcDbEntity
  8
ASSI
100
AcDbPolyline
 62
253
  6
CONTINUOUS
 90
43
 70
0
 10
-29.1357127452
 20
15.5019298892
 10
-29.1342598676
 20
15.5387495682
 10
-29.1328314368
 20
15.585660572
 10
-29.1314476568
 20
15.6423920141
 10
-29.1301094229
 20
15.7086128388
 10
-29.1288158397
 20
15.7839639631
 10
-29.1275844253
 20
15.868085735
 10
-29.1264160685
 20
15.9605411599
 10
-29.1253098804
 20
16.0608610092
 10
-29.1242807129
 20
16.1686095833
 10
-29.1233295102
 20
16.283257899
 10
-29.1224553281
 20
16.4042465443
 10
-29.1216701853
 20
16.5310728929
 10
-29.1209750878
 20
16.6631546193
 10
-29.1203690297
 20
16.7998352907
 10
-29.1198610112
 20
16.9404755898
 10
-29.1194524015
 20
17.0844106269
 10
-29.1191418315
 20
17.2309355968
 10
-29.1189341931
 20
17.3793259611
 10
-29.1188311209
 20
17.5288947071
 10
-29.1188309804
 20
17.6788834733
 10
-29.1189337601
 20
17.8284497065
 10
-29.1191410861
 20
17.9768336125
 10
-29.1194513322
 20
18.123350015
 10
-29.1198596085
 20
18.2672792475
 10
-29.1203672747
 20
18.407917022
 10
-29.120972971
 20
18.5445981909
 10
-29.1216677281
 20
18.6766866093
 10
-29.1224525448
 20
18.803525475
 10
-29.1233264224
 20
18.9245321032
 10
-29.1242773952
 20
19.0392061414
 10
-29.1253064205
 20
19.14698818
 10
-29.126412541
 20
19.2473465878
 10
-29.1275809203
 20
19.3398434643
 10
-29.1288124561
 20
19.4240083259
 10
-29.1301062506
 20
19.4994025442
 10
-29.1314447736
 20
19.5656641258
 10
-29.1328289336
 20
19.6224330142
 10
-29.1342578222
 20
19.6693766493
 10
-29.1357111842
 20
19.7062221421
 10
-29.1371822679
 20
19.7327376988
 10
-29.1386778251
 20
19.7487385303
 10
-29.1401978556
 20
19.7540927494
  0
LWPOLYLINE
  5
3E0
100
AcDbEntity
  8
RACCORDO
100
AcDbPolyline
 62
253
  6
CONTINUOUS
 90
43
 70
0
 10
-29.1357127452
 20
10.5019298892
 10
-29.1342598676
 20
10.5387495682
 10
-29.1328314368
 20
10.585660572
 10
-29.1314476568
 20
10.6423920141
 10
-29.1301094229
 20
10.7086128388
 10
-29.1288158397
 20
10.7839639631
 10
-29.1275844253
 20
10.868085735
 10
-29.1264160685
 20
10.9605411599
 10
-29.1253098804
 20
11.0608610092
 10
-29.1242807129
 20
11.1686095833
 10
-29.1233295102
 20
11.283257899
 10
-29.1224553281
 20
11.4042465443
 10
-29.1216701853
 20
11.5310728929
 10
-29.1209750878
 20
11.6631546193
 10
-29.1203690297
 20
11.7998352907
 10
-29.1198610112
 20
11.9404755898
 10
-29.1194524015
 20
12.0844106269
 10
-29.1191418315
 20
12.2309355968
 10
-29.1189341931
 20
12.3793259611
 10
-29.1188311209
 20
12.5288947071
 10
-29.1188309804
 20
12.6788834733
 10
-29.1189337601
 20
12.8284497065
 10
-29.1191410861
 20
12.9768336125
 10
-29.1194513322
 20
13.123350015
 10
-29.1198596085
 20
13.2672792475
 10
-29.1203672747
 20
13.407917022
 10
-29.120972971
 20
13.5445981909
 10
-29.1216677281
 20
13.6766866093
 10
-29.1224525448
 20
13.803525475
 10
-29.1233264224
 20
13.9245321032
 10
-29.1242773952
 20
14.0392061414
 10
-29.1253064205
 20
14.14698818
 10
-29.126412541
 20
14.2473465878
 10
-29.1275809203
 20
14.3398434643
 10
-29.1288124561
 20
14.4240083259
 10
-29.1301062506
 20
14.4994025442
 10
-29.1314447736
 20
14.5656641258
 10
-29.1328289336
 20
14.6224330142
 10
-29.1342578222
 20
14.6693766493
 10
-29.1357111842
 20
14.7062221421
 10
-29.1371822679
 20
14.7327376988
 10
-29.1386778251
 20
14.7487385303
 10
-29.1401978556
 20
14.7540927494
  0
LWPOLYLINE
  5
3E1
100
AcDbEntity
  8
ASSI
100
AcDbPolyline
 62
253
  6
CONTINUOUS
 90
43
 70
0
 10
-29.1357127452
 20
10.5019298892
 10
-29.1342598676
 20
10.5387495682
 10
-29.1328314368
 20
10.585660572
 10
-29.1314476568
 20
10.6423920141
 10
-29.1301094229
 20
10.7086128388
 10
-29.1288158397
 20
10.7839639631
 10
-29.1275844253
 20
10.868085735
 10
-29.1264160685
 20
10.9605411599
 10
-29.1253098804
 20
11.0608610092
 10
-29.1242807129
 20
11.1686095833
 10
-29.1233295102
 20
11.283257899
 10
-29.1224553281
 20
11.4042465443
 10
-29.1216701853
 20
11.5310728929
 10
-29.1209750878
 20
11.6631546193
 10
-29.1203690297
 20
11.7998352907
 10
-29.1198610112
 20
11.9404755898
 10
-29.1194524015
 20
12.0844106269
 10
-29.1191418315
 20
12.2309355968
 10
-29.1189341931
 20
12.3793259611
 10
-29.1188311209
 20
12.5288947071
 10
-29.1188309804
 20
12.6788834733
 10
-29.1189337601
 20
12.8284497065
 10
-29.1191410861
 20
12.9768336125
 10
-29.1194513322
 20
13.123350015
 10
-29.1198596085
 20
13.2672792475
 10
-29.1203672747
 20
13.407917022
 10
-29.120972971
 20
13.5445981909
 10
-29.1216677281
 20
13.6766866093
 10
-29.1224525448
 20
13.803525475
 10
-29.1233264224
 20
13.9245321032
 10
-29.1242773952
 20
14.0392061414
 10
-29.1253064205
 20
14.14698818
 10
-29.126412541
 20
14.2473465878
 10
-29.1275809203
 20
14.3398434643
 10
-29.1288124561
 20
14.4240083259
 10
-29.1301062506
 20
14.4994025442
 10
-29.1314447736
 20
14.5656641258
 10
-29.1328289336
 20
14.6224330142
 10
-29.1342578222
 20
14.6693766493
 10
-29.1357111842
 20
14.7062221421
 10
-29.1371822679
 20
14.7327376988
 10
-29.1386778251
 20
14.7487385303
 10
-29.1401978556
 20
14.7540927494
  0
LWPOLYLINE
  5
3E2
100
AcDbEntity
  8
RACCORDO
100
AcDbPolyline
 62
253
  6
CONTINUOUS
 90
43
 70
0
 10
-29.1357127452
 20
5.5019298892
 10
-29.1342598676
 20
5.5387495682
 10
-29.1328314368
 20
5.585660572
 10
-29.1314476568
 20
5.6423920141
 10
-29.1301094229
 20
5.7086128388
 10
-29.1288158397
 20
5.7839639631
 10
-29.1275844253
 20
5.868085735
 10
-29.1264160685
 20
5.9605411599
 10
-29.1253098804
 20
6.0608610092
 10
-29.1242807129
 20
6.1686095833
 10
-29.1233295102
 20
6.283257899
 10
-29.1224553281
 20
6.4042465443
 10
-29.1216701853
 20
6.5310728929
 10
-29.1209750878
 20
6.6631546193
 10
-29.1203690297
 20
6.7998352907
 10
-29.1198610112
 20
6.9404755898
 10
-29.1194524015
 20
7.0844106269
 10
-29.1191418315
 20
7.2309355968
 10
-29.1189341931
 20
7.3793259611
 10
-29.1188311209
 20
7.5288947071
 10
-29.1188309804
 20
7.6788834733
 10
-29.1189337601
 20
7.8284497065
 10
-29.1191410861
 20
7.9768336125
 10
-29.1194513322
 20
8.123350015
 10
-29.1198596085
 20
8.2672792475
 10
-29.1203672747
 20
8.407917022
 10
-29.120972971
 20
8.5445981909
 10
-29.1216677281
 20
8.6766866093
 10
-29.1224525448
 20
8.803525475
 10
-29.1233264224
 20
8.9245321032
 10
-29.1242773952
 20
9.0392061414
 10
-29.1253064205
 20
9.14698818
 10
-29.126412541
 20
9.2473465878
 10
-29.1275809203
 20
9.3398434643
 10
-29.1288124561
 20
9.4240083259
 10
-29.1301062506
 20
9.4994025442
 10
-29.1314447736
 20
9.5656641258
 10
-29.1328289336
 20
9.6224330142
 10
-29.1342578222
 20
9.6693766493
 10
-29.1357111842
 20
9.7062221421
 10
-29.1371822679
 20
9.7327376988
 10
-29.1386778251
 20
9.7487385303
 10
-29.1401978556
 20
9.7540927494
  0
LWPOLYLINE
  5
3E3
100
AcDbEntity
  8
ASSI
100
AcDbPolyline
 62
253
  6
CONTINUOUS
 90
43
 70
0
 10
-29.1357127452
 20
5.5019298892
 10
-29.1342598676
 20
5.5387495682
 10
-29.1328314368
 20
5.585660572
 10
-29.1314476568
 20
5.6423920141
 10
-29.1301094229
 20
5.7086128388
 10
-29.1288158397
 20
5.7839639631
 10
-29.1275844253
 20
5.868085735
 10
-29.1264160685
 20
5.9605411599
 10
-29.1253098804
 20
6.0608610092
 10
-29.1242807129
 20
6.1686095833
 10
-29.1233295102
 20
6.283257899
 10
-29.1224553281
 20
6.4042465443
 10
-29.1216701853
 20
6.5310728929
 10
-29.1209750878
 20
6.6631546193
 10
-29.1203690297
 20
6.7998352907
 10
-29.1198610112
 20
6.9404755898
 10
-29.1194524015
 20
7.0844106269
 10
-29.1191418315
 20
7.2309355968
 10
-29.1189341931
 20
7.3793259611
 10
-29.1188311209
 20
7.5288947071
 10
-29.1188309804
 20
7.6788834733
 10
-29.1189337601
 20
7.8284497065
 10
-29.1191410861
 20
7.9768336125
 10
-29.1194513322
 20
8.123350015
 10
-29.1198596085
 20
8.2672792475
 10
-29.1203672747
 20
8.407917022
 10
-29.120972971
 20
8.5445981909
 10
-29.1216677281
 20
8.6766866093
 10
-29.1224525448
 20
8.803525475
 10
-29.1233264224
 20
8.9245321032
 10
-29.1242773952
 20
9.0392061414
 10
-29.1253064205
 20
9.14698818
 10
-29.126412541
 20
9.2473465878
 10
-29.1275809203
 20
9.3398434643
 10
-29.1288124561
 20
9.4240083259
 10
-29.1301062506
 20
9.4994025442
 10
-29.1314447736
 20
9.5656641258
 10
-29.1328289336
 20
9.6224330142
 10
-29.1342578222
 20
9.6693766493
 10
-29.1357111842
 20
9.7062221421
 10
-29.1371822679
 20
9.7327376988
 10
-29.1386778251
 20
9.7487385303
 10
-29.1401978556
 20
9.7540927494
  0
LWPOLYLINE
  5
3E4
100
AcDbEntity
  8
RACCORDO
100
AcDbPolyline
 62
253
  6
CONTINUOUS
 90
4
 70
0
 10
-29.1401978556
 20
10.4540927494
 10
-29.1386783719
 20
10.4594431955
 10
-29.1371833351
 20
10.4754328047
 10
-29.1357127452
 20
10.5019298892
  0
LWPOLYLINE
  5
3E5
100
AcDbEntity
  8
ASSI
100
AcDbPolyline
 62
253
  6
CONTINUOUS
 90
4
 70
0
 10
-29.1401978556
 20
10.4540927494
 10
-29.1386783719
 20
10.4594431955
 10
-29.1371833351
 20
10.4754328047
 10
-29.1357127452
 20
10.5019298892
  0
LINE
  5
3E6
100
AcDbEntity
  8
0
100
AcDbLine
 62
7
  6
CONTINUOUS
 10
-14.1444182736
 20
32.4698488474
 11
-14.163740934
 21
32.4483474806
  0
LINE
  5
3E7
100
AcDbEntity
  8
0
100
AcDbLine
 62
7
  6
CONTINUOUS
 10
-14.163740934
 20
32.4483474806
 11
-14.1858894218
 21
32.4240242207
  0
LINE
  5
3E8
100
AcDbEntity
  8
0
100
AcDbLine
 62
7
  6
CONTINUOUS
 10
-14.1858894218
 20
32.4240242207
 11
-14.2109653725
 21
32.3967707659
  0
LINE
  5
3E9
100
AcDbEntity
  8
0
100
AcDbLine
 62
7
  6
CONTINUOUS
 10
-14.2109653725
 20
32.3967707659
 11
-14.2390187644
 21
32.366549117
  0
LINE
  5
3EA
100
AcDbEntity
  8
0
100
AcDbLine
 62
7
  6
CONTINUOUS
 10
-14.2390187644
 20
32.366549117
 11
-14.270049578
 21
32.3333306694
  0
LINE
  5
3EB
100
AcDbEntity
  8
0
100
AcDbLine
 62
7
  6
CONTINUOUS
 10
-14.270049578
 20
32.3333306694
 11
-14.3218992038
 21
32.2781994822
  0
LINE
  5
3EC
100
AcDbEntity
  8
0
100
AcDbLine
 62
7
  6
CONTINUOUS
 10
-14.3218992038
 20
32.2781994822
 11
-14.399705653
 21
32.1960144304
  0
LWPOLYLINE
  5
3ED
100
AcDbEntity
  8
0
100
AcDbPolyline
 62
7
  6
CONTINUOUS
 90
3
 70
0
 10
-14.399705653
 20
32.1960144304
 10
-14.4630338331
 20
32.1293681852
 10
-14.5286191912
 20
32.0604505641
  0
LINE
  5
3EE
100
AcDbEntity
  8
0
100
AcDbLine
 62
7
  6
CONTINUOUS
 10
-14.0316619011
 20
31.0040927494
 11
-14.0755841482
 21
30.9601705024
  0
LINE
  5
3EF
100
AcDbEntity
  8
0
100
AcDbLine
 62
7
  6
CONTINUOUS
 10
-15.0183175375
 20
28.4674371131
 11
-14.9816619011
 21
28.5040927494
  0
LINE
  5
3F0
100
AcDbEntity
  8
DRAFT
100
AcDbLine
 62
7
  6
CONTINUOUS
 10
-15.0183175375
 20
28.4674371131
 11
-14.9816619011
 21
28.5040927494
  0
LINE
  5
3F1
100
AcDbEntity
  8
0
100
AcDbLine
 62
7
  6
CONTINUOUS
 10
-11.2911202749
 20
30.9400627749
 11
-11.2258440713
 21
30.9982749196
  0
LINE
  5
3F2
100
AcDbEntity
  8
0
100
AcDbLine
 62
253
  6
CONTINUOUS
 10
-7.831655555
 20
31.0040927494
 11
-7.8403824228
 21
30.9982749196
  0
LWPOLYLINE
  5
3F3
100
AcDbEntity
  8
0
100
AcDbPolyline
 62
253
  6
CONTINUOUS
 90
4
 70
0
 10
-16.5883397104
 20
25.9489069203
 10
-16.6313852444
 20
25.9218567893
 10
-16.6789099645
 20
25.9019942932
 10
-16.7295194358
 20
25.8898486754
  0
LWPOLYLINE
  5
3F4
100
AcDbEntity
  8
RACCORDO
100
AcDbPolyline
 62
253
  6
CONTINUOUS
 90
4
 70
0
 10
-16.5883397104
 20
25.9489069203
 10
-16.6313852444
 20
25.9218567893
 10
-16.6789099645
 20
25.9019942932
 10
-16.7295194358
 20
25.8898486754
  0
LINE
  5
3F5
100
AcDbEntity
  8
0
100
AcDbLine
 62
253
  6
CONTINUOUS
 10
-7.9173591206
 20
27.6897899689
 11
-8.0395445751
 21
27.6391790965
  0
LINE
  5
3F6
100
AcDbEntity
  8
RACCORDO
100
AcDbLine
 62
253
  6
CONTINUOUS
 10
-7.9173591206
 20
27.6897899689
 11
-8.0395445751
 21
27.6391790965
  0
LINE
  5
3F7
100
AcDbEntity
  8
ASSI
100
AcDbLine
 62
7
  6
CONTINUOUS
 10
-20.9816619011
 20
-8.8959072506
 11
-15.9816619011
 21
-8.8959072506
  0
LINE
  5
3F8
100
AcDbEntity
  8
RACCORDO
100
AcDbLine
 62
7
  6
CONTINUOUS
 10
-16.7990840139
 20
-8.6959072506
 11
-20.1642397883
 21
-8.6959072506
  0
LINE
  5
3F9
100
AcDbEntity
  8
ASSI
100
AcDbLine
 62
7
  6
CONTINUOUS
 10
-16.7990840139
 20
-8.6959072506
 11
-20.1642397883
 21
-8.6959072506
  0
LINE
  5
3FA
100
AcDbEntity
  8
0
100
AcDbLine
 62
253
  6
CONTINUOUS
 10
-20.1816619011
 20
-8.6775790933
 11
-16.7816619011
 21
-8.6775790933
  0
LINE
  5
3FB
100
AcDbEntity
  8
RACCORDO
100
AcDbLine
 62
253
  6
CONTINUOUS
 10
-20.1816619011
 20
-8.6775790933
 11
-16.7816619011
 21
-8.6775790933
  0
LINE
  5
3FC
100
AcDbEntity
  8
0
100
AcDbLine
 62
7
  6
CONTINUOUS
 10
-20.1816619011
 20
-8.6459072506
 11
-16.7816619011
 21
-8.6459072506
  0
LINE
  5
3FD
100
AcDbEntity
  8
RACCORDO
100
AcDbLine
 62
7
  6
CONTINUOUS
 10
-20.1816619011
 20
-8.6459072506
 11
-16.7816619011
 21
-8.6459072506
  0
LINE
  5
3FE
100
AcDbEntity
  8
0
100
AcDbLine
 62
7
  6
CONTINUOUS
 10
-15.9816619011
 20
-8.4459072506
 11
-20.9816619011
 21
-8.4459072506
  0
LINE
  5
3FF
100
AcDbEntity
  8
0
100
AcDbLine
 62
7
  6
CONTINUOUS
 10
-20.9816619011
 20
-7.9959072506
 11
-15.9816619011
 21
-7.9959072506
  0
LINE
  5
400
100
AcDbEntity
  8
ASSI
100
AcDbLine
 62
7
  6
CONTINUOUS
 10
-20.9816619011
 20
-7.9959072506
 11
-15.9816619011
 21
-7.9959072506
  0
LINE
  5
401
100
AcDbEntity
  8
0
100
AcDbLine
 62
253
  6
CONTINUOUS
 10
-16.7816619011
 20
-8.6775790933
 11
-16.7295674478
 21
-8.6816556009
  0
LINE
  5
402
100
AcDbEntity
  8
RACCORDO
100
AcDbLine
 62
253
  6
CONTINUOUS
 10
-16.7816619011
 20
-8.6775790933
 11
-16.7295674478
 21
-8.6816556009
  0
LINE
  5
403
100
AcDbEntity
  8
0
100
AcDbLine
 62
253
  6
CONTINUOUS
 10
-8.0395445751
 20
-10.4309935977
 11
-7.9173591206
 21
-10.4816044701
  0
LINE
  5
404
100
AcDbEntity
  8
RACCORDO
100
AcDbLine
 62
253
  6
CONTINUOUS
 10
-8.0395445751
 20
-10.4309935977
 11
-7.9173591206
 21
-10.4816044701
  0
LWPOLYLINE
  5
405
100
AcDbEntity
  8
0
100
AcDbPolyline
 62
253
  6
CONTINUOUS
 90
3
 70
0
 10
-16.6790558581
 20
-8.6937612612
 10
-16.6316619011
 20
-8.7135282498
 10
-16.5888256182
 20
-8.7403559568
  0
LWPOLYLINE
  5
406
100
AcDbEntity
  8
RACCORDO
100
AcDbPolyline
 62
253
  6
CONTINUOUS
 90
3
 70
0
 10
-16.6790558581
 20
-8.6937612612
 10
-16.6316619011
 20
-8.7135282498
 10
-16.5888256182
 20
-8.7403559568
  0
LINE
  5
407
100
AcDbEntity
  8
0
100
AcDbLine
 62
253
  6
CONTINUOUS
 10
-7.8403824228
 20
-13.7900894208
 11
-7.831655555
 21
-13.7959072506
  0
LINE
  5
408
100
AcDbEntity
  8
0
100
AcDbLine
 62
7
  6
CONTINUOUS
 10
-11.2911202749
 20
-13.7318772761
 11
-11.2258440713
 21
-13.7900894208
  0
LINE
  5
409
100
AcDbEntity
  8
0
100
AcDbLine
 62
7
  6
CONTINUOUS
 10
-14.0316619011
 20
-13.7959072506
 11
-14.0755841482
 21
-13.7519850035
  0
LINE
  5
40A
100
AcDbEntity
  8
0
100
AcDbLine
 62
7
  6
CONTINUOUS
 10
-14.9816619011
 20
-11.2959072506
 11
-15.0183175375
 21
-11.2592516142
  0
LINE
  5
40B
100
AcDbEntity
  8
DRAFT
100
AcDbLine
 62
7
  6
CONTINUOUS
 10
-14.9816619011
 20
-11.2959072506
 11
-15.0183175375
 21
-11.2592516142
  0
LINE
  5
40C
100
AcDbEntity
  8
0
100
AcDbLine
 62
7
  6
CONTINUOUS
 10
-14.5065670259
 20
-14.8755114113
 11
-14.4415461442
 21
-14.9437605309
  0
LINE
  5
40D
100
AcDbEntity
  8
0
100
AcDbLine
 62
7
  6
CONTINUOUS
 10
-14.5286191912
 20
-14.8522650653
 11
-14.5065670259
 21
-14.8755114113
  0
LINE
  5
40E
100
AcDbEntity
  8
0
100
AcDbLine
 62
7
  6
CONTINUOUS
 10
-14.4415461442
 20
-14.9437605309
 11
-14.3596394787
 21
-15.0301019538
  0
LINE
  5
40F
100
AcDbEntity
  8
0
100
AcDbLine
 62
7
  6
CONTINUOUS
 10
-14.3596394787
 20
-15.0301019538
 11
-14.3038337131
 21
-15.0891926973
  0
LINE
  5
410
100
AcDbEntity
  8
0
100
AcDbLine
 62
7
  6
CONTINUOUS
 10
-14.3038337131
 20
-15.0891926973
 11
-14.2540457487
 21
-15.1422529198
  0
LINE
  5
411
100
AcDbEntity
  8
0
100
AcDbLine
 62
7
  6
CONTINUOUS
 10
-14.2540457487
 20
-15.1422529198
 11
-14.2245018359
 21
-15.1739726176
  0
LINE
  5
412
100
AcDbEntity
  8
0
100
AcDbLine
 62
7
  6
CONTINUOUS
 10
-14.2245018359
 20
-15.1739726176
 11
-14.1979415425
 21
-15.2027102333
  0
LINE
  5
413
100
AcDbEntity
  8
0
100
AcDbLine
 62
7
  6
CONTINUOUS
 10
-14.1979415425
 20
-15.2027102333
 11
-14.1743509623
 21
-15.2284691842
  0
LWPOLYLINE
  5
414
100
AcDbEntity
  8
0
100
AcDbPolyline
 62
7
  6
CONTINUOUS
 90
19
 70
0
 10
-14.1743509623
 20
-15.2284691842
 10
-14.153624773
 20
-15.2513833725
 10
-14.1443073627
 20
-15.2617875429
 10
-14.1356601689
 20
-15.2715387232
 10
-14.1276763237
 20
-15.2806314219
 10
-14.1203369193
 20
-15.2890711306
 10
-14.1136058433
 20
-15.296922193
 10
-14.1074759722
 20
-15.3041856916
 10
-14.1019320743
 20
-15.3108605439
 10
-14.0969374124
 20
-15.3170078468
 10
-14.092483585
 20
-15.3226373681
 10
-14.0885684207
 20
-15.32773934
 10
-14.0851757518
 20
-15.3323455567
 10
-14.0823010053
 20
-15.3364605445
 10
-14.079942938
 20
-15.3400797771
 10
-14.0780956106
 20
-15.3432214698
 10
-14.0767555246
 20
-15.3458916943
 10
-14.0759197823
 20
-15.3480843789
 10
-14.0755841482
 20
-15.3497995236
  0
LWPOLYLINE
  5
415
100
AcDbEntity
  8
0
100
AcDbPolyline
 62
253
  6
CONTINUOUS
 90
34
 70
0
 10
-28.6272900671
 20
32.4484303167
 10
-28.6269734164
 20
32.4381475492
 10
-28.6260932547
 20
32.4278879892
 10
-28.6246515684
 20
32.4176747921
 10
-28.6226516113
 20
32.4075310084
 10
-28.6200978973
 20
32.397479532
 10
-28.6169961899
 20
32.3875430485
 10
-28.6133534895
 20
32.377743984
 10
-28.6091780174
 20
32.3681044544
 10
-28.6044791975
 20
32.3586462155
 10
-28.5992676347
 20
32.349390614
 10
-28.5935550912
 20
32.3403585392
 10
-28.5873544598
 20
32.3315703761
 10
-28.5806797351
 20
32.323045959
 10
-28.5735459814
 20
32.3148045269
 10
-28.5659692993
 20
32.3068646804
 10
-28.5579667888
 20
32.2992443391
 10
-28.5495565113
 20
32.2919607018
 10
-28.540757448
 20
32.2850302072
 10
-28.5315894581
 20
32.278468497
 10
-28.5220732331
 20
32.2722903805
 10
-28.5122302507
 20
32.2665098015
 10
-28.5020827257
 20
32.2611398063
 10
-28.4916535606
 20
32.2561925148
 10
-28.4809662935
 20
32.2516790926
 10
-28.4700450447
 20
32.2476097264
 10
-28.4589144631
 20
32.2439936003
 10
-28.4475996695
 20
32.2408388758
 10
-28.4361262008
 20
32.2381526729
 10
-28.424519952
 20
32.2359410543
 10
-28.4128071177
 20
32.2342090114
 10
-28.4010141331
 20
32.2329604533
 10
-28.3891676142
 20
32.232198198
 10
-28.3772942979
 20
32.2319239658
  0
LWPOLYLINE
  5
416
100
AcDbEntity
  8
0
100
AcDbPolyline
 62
253
  6
CONTINUOUS
 90
34
 70
0
 10
-25.7360337351
 20
-15.2402448179
 10
-25.7363498623
 20
-15.2299710401
 10
-25.7372287746
 20
-15.2197181297
 10
-25.7386688661
 20
-15.2095092198
 10
-25.7406674321
 20
-15.1993666205
 10
-25.743220248
 20
-15.1893140309
 10
-25.7463211681
 20
-15.1793764102
 10
-25.7499628761
 20
-15.169576978
 10
-25.7541373815
 20
-15.1599370422
 10
-25.7588353621
 20
-15.1504781717
 10
-25.7640463186
 20
-15.1412216047
 10
-25.7697584598
 20
-15.1321883762
 10
-25.775958792
 20
-15.1233990649
 10
-25.7826332681
 20
-15.1148735732
 10
-25.7897668659
 20
-15.1066310793
 10
-25.7973434999
 20
-15.098690172
 10
-25.8053460821
 20
-15.0910687674
 10
-25.8137565404
 20
-15.0837840831
 10
-25.8225558728
 20
-15.0768525798
 10
-25.8317242097
 20
-15.0702899087
 10
-25.8412408615
 20
-15.0641108787
 10
-25.8510843466
 20
-15.0583294375
 10
-25.8612324453
 20
-15.0529586355
 10
-25.8716622502
 20
-15.0480105965
 10
-25.8823502176
 20
-15.04349649
 10
-25.8932722343
 20
-15.0394265011
 10
-25.9044036334
 20
-15.0358098227
 10
-25.9157192478
 20
-15.0326546291
 10
-25.9271935057
 20
-15.0299680433
 10
-25.9388005314
 20
-15.0277561168
 10
-25.9505141651
 20
-15.0260238321
 10
-25.96230798
 20
-15.0247750982
 10
-25.9741553406
 20
-15.0240127362
 10
-25.9860295044
 20
-15.0237384669
  0
LINE
  5
417
100
AcDbEntity
  8
0
100
AcDbLine
 62
253
  6
CONTINUOUS
 10
-28.3772942979
 20
-15.8915354166
 11
-28.3772942979
 21
-15.0237384669
  0
LINE
  5
418
100
AcDbEntity
  8
0
100
AcDbLine
 62
253
  6
CONTINUOUS
 10
-28.3772942979
 20
32.2319239658
 11
-28.3772942979
 21
33.0997209154
  0
LINE
  5
419
100
AcDbEntity
  8
ASSI
100
AcDbLine
 62
7
  6
CONTINUOUS
 10
-28.2816619011
 20
5.4540927494
 11
-28.2816619011
 21
9.7540927494
  0
LINE
  5
41A
100
AcDbEntity
  8
ASSI
100
AcDbLine
 62
7
  6
CONTINUOUS
 10
-28.2816619011
 20
10.4540927494
 11
-28.2816619011
 21
14.7540927494
  0
LINE
  5
41B
100
AcDbEntity
  8
ASSI
100
AcDbLine
 62
7
  6
CONTINUOUS
 10
-28.2816619011
 20
15.4540927494
 11
-28.2816619011
 21
19.7540927494
  0
LINE
  5
41C
100
AcDbEntity
  8
ASSI
100
AcDbLine
 62
7
  6
CONTINUOUS
 10
-28.2816619011
 20
20.4540927494
 11
-28.2816619011
 21
24.7540927494
  0
LINE
  5
41D
100
AcDbEntity
  8
0
100
AcDbLine
 62
253
  6
CONTINUOUS
 10
-27.6816619011
 20
-9.9959072506
 11
-27.6816619011
 21
-9.6089975523
  0
LINE
  5
41E
100
AcDbEntity
  8
0
100
AcDbLine
 62
7
  6
CONTINUOUS
 10
-27.0816619011
 20
29.4540927494
 11
-27.0816619011
 21
26.8615353492
  0
LINE
  5
41F
100
AcDbEntity
  8
DRAFT
100
AcDbLine
 62
7
  6
CONTINUOUS
 10
-27.0816619011
 20
29.4540927494
 11
-27.0816619011
 21
26.8615353492
  0
LINE
  5
420
100
AcDbEntity
  8
0
100
AcDbLine
 62
7
  6
CONTINUOUS
 10
-27.0816619011
 20
-9.9959072506
 11
-27.0816619011
 21
-12.2459072506
  0
LINE
  5
421
100
AcDbEntity
  8
DRAFT
100
AcDbLine
 62
7
  6
CONTINUOUS
 10
-27.0816619011
 20
-9.9959072506
 11
-27.0816619011
 21
-12.2459072506
  0
LINE
  5
422
100
AcDbEntity
  8
0
100
AcDbLine
 62
7
  6
CONTINUOUS
 10
-26.7142068362
 20
-12.8010206607
 11
-26.7142068362
 21
-12.3046341184
  0
LINE
  5
423
100
AcDbEntity
  8
0
100
AcDbLine
 62
7
  6
CONTINUOUS
 10
-26.7142068362
 20
29.5128196172
 11
-26.7142068362
 21
30.0092061595
  0
LINE
  5
424
100
AcDbEntity
  8
0
100
AcDbLine
 62
7
  6
CONTINUOUS
 10
-26.5482314029
 20
30.1875232476
 11
-26.5482314029
 21
30.1751815928
  0
LINE
  5
425
100
AcDbEntity
  8
0
100
AcDbLine
 62
253
  6
CONTINUOUS
 10
-26.5482314029
 20
30.0578281765
 11
-26.5482314029
 21
29.5958010136
  0
LINE
  5
426
100
AcDbEntity
  8
0
100
AcDbLine
 62
7
  6
CONTINUOUS
 10
-26.5482314029
 20
29.5128196172
 11
-26.5482314029
 21
29.5040927494
  0
LINE
  5
427
100
AcDbEntity
  8
0
100
AcDbLine
 62
7
  6
CONTINUOUS
 10
-26.5482314029
 20
-12.2959072506
 11
-26.5482314029
 21
-12.3046341184
  0
LINE
  5
428
100
AcDbEntity
  8
0
100
AcDbLine
 62
253
  6
CONTINUOUS
 10
-26.5482314029
 20
-12.3876155148
 11
-26.5482314029
 21
-12.8496426777
  0
LINE
  5
429
100
AcDbEntity
  8
0
100
AcDbLine
 62
7
  6
CONTINUOUS
 10
-26.5482314029
 20
-12.966996094
 11
-26.5482314029
 21
-12.9793377488
  0
LWPOLYLINE
  5
42A
100
AcDbEntity
  8
0
100
AcDbPolyline
 62
253
  6
CONTINUOUS
 90
34
 70
0
 10
-28.6272900671
 20
-15.2402448179
 10
-28.6269734051
 20
-15.2299618568
 10
-28.6260932109
 20
-15.2197021046
 10
-28.6246514711
 20
-15.2094887179
 10
-28.622651441
 20
-15.1993447541
 10
-28.620097634
 20
-15.1892931027
 10
-28.6169958086
 20
-15.179356434
 10
-28.6133529579
 20
-15.1695571636
 10
-28.609177305
 20
-15.1599174223
 10
-28.6044782827
 20
-15.1504589893
 10
-28.5992665027
 20
-15.1412032201
 10
-28.593553725
 20
-15.1321709969
 10
-28.5873528419
 20
-15.1233827018
 10
-28.5806778482
 20
-15.1148581692
 10
-28.5735438107
 20
-15.1066166404
 10
-28.5659668311
 20
-15.0986767165
 10
-28.5579640115
 20
-15.0910563184
 10
-28.5495534144
 20
-15.0837726452
 10
-28.5407540219
 20
-15.0768421356
 10
-28.531585696
 20
-15.070280433
 10
-28.5220691285
 20
-15.0641023462
 10
-28.5122257923
 20
-15.0583218159
 10
-28.502077891
 20
-15.0529518834
 10
-28.49164834
 20
-15.0480046771
 10
-28.4809607124
 20
-15.0434913771
 10
-28.4700391525
 20
-15.0394221741
 10
-28.4589082928
 20
-15.0358062402
 10
-28.4475932292
 20
-15.0326517263
 10
-28.4361192072
 20
-15.0299656901
 10
-28.4245124098
 20
-15.0277542801
 10
-28.4127999008
 20
-15.0260225976
 10
-28.4010084239
 20
-15.0247744689
 10
-28.3891643132
 20
-15.0240125549
 10
-28.3772942979
 20
-15.0237384669
  0
LWPOLYLINE
  5
42B
100
AcDbEntity
  8
0
100
AcDbPolyline
 62
253
  6
CONTINUOUS
 90
34
 70
0
 10
-25.7360337351
 20
32.4484303167
 10
-25.7363503859
 20
32.4381475492
 10
-25.7372305476
 20
32.4278879892
 10
-25.7386722339
 20
32.4176747921
 10
-25.740672191
 20
32.4075310084
 10
-25.743225905
 20
32.397479532
 10
-25.7463276124
 20
32.3875430485
 10
-25.7499703128
 20
32.377743984
 10
-25.7541457848
 20
32.3681044544
 10
-25.7588446047
 20
32.3586462155
 10
-25.7640561676
 20
32.349390614
 10
-25.7697687111
 20
32.3403585392
 10
-25.7759693424
 20
32.3315703761
 10
-25.7826440672
 20
32.323045959
 10
-25.7897778209
 20
32.3148045269
 10
-25.797354503
 20
32.3068646804
 10
-25.8053570134
 20
32.2992443391
 10
-25.813767291
 20
32.2919607018
 10
-25.8225663542
 20
32.2850302072
 10
-25.8317343442
 20
32.278468497
 10
-25.8412505691
 20
32.2722903805
 10
-25.8510935516
 20
32.2665098015
 10
-25.8612410766
 20
32.2611398063
 10
-25.8716702416
 20
32.2561925148
 10
-25.8823575088
 20
32.2516790926
 10
-25.8932787575
 20
32.2476097264
 10
-25.9044093392
 20
32.2439936003
 10
-25.9157241328
 20
32.2408388758
 10
-25.9271976015
 20
32.2381526729
 10
-25.9388038502
 20
32.2359410543
 10
-25.9505166845
 20
32.2342090114
 10
-25.9623096692
 20
32.2329604533
 10
-25.9741561881
 20
32.232198198
 10
-25.9860295044
 20
32.2319239658
  0
LWPOLYLINE
  5
42C
100
AcDbEntity
  8
RACCORDO
100
AcDbPolyline
 62
253
  6
CONTINUOUS
 90
4
 70
0
 10
-29.1401978556
 20
5.4540927494
 10
-29.1386783719
 20
5.4594431955
 10
-29.1371833351
 20
5.4754328047
 10
-29.1357127452
 20
5.5019298892
  0
LWPOLYLINE
  5
42D
100
AcDbEntity
  8
ASSI
100
AcDbPolyline
 62
253
  6
CONTINUOUS
 90
4
 70
0
 10
-29.1401978556
 20
5.4540927494
 10
-29.1386783719
 20
5.4594431955
 10
-29.1371833351
 20
5.4754328047
 10
-29.1357127452
 20
5.5019298892
  0
LINE
  5
42E
100
AcDbEntity
  8
0
100
AcDbLine
 62
7
  6
CONTINUOUS
 10
-14.9816619011
 20
28.3040927494
 11
-15.0183175375
 21
28.2674371131
  0
LINE
  5
42F
100
AcDbEntity
  8
DRAFT
100
AcDbLine
 62
7
  6
CONTINUOUS
 10
-14.9816619011
 20
28.3040927494
 11
-15.0183175375
 21
28.2674371131
  0
LINE
  5
430
100
AcDbEntity
  8
0
100
AcDbLine
 62
253
  6
CONTINUOUS
 10
-7.3316619011
 20
30.5041096724
 11
-7.3403887689
 21
30.4982918426
  0
LINE
  5
431
100
AcDbEntity
  8
0
100
AcDbLine
 62
253
  6
CONTINUOUS
 10
-7.3316619011
 20
26.2757917981
 11
-7.4538473556
 21
26.2251809257
  0
LINE
  5
432
100
AcDbEntity
  8
RACCORDO
100
AcDbLine
 62
253
  6
CONTINUOUS
 10
-7.3316619011
 20
26.2757917981
 11
-7.4538473556
 21
26.2251809257
  0
LWPOLYLINE
  5
433
100
AcDbEntity
  8
0
100
AcDbPolyline
 62
253
  6
CONTINUOUS
 90
3
 70
0
 10
-20.2844138377
 20
-8.6938087944
 10
-20.2338043664
 20
-8.6816631766
 10
-20.1816619011
 20
-8.6775790933
  0
LWPOLYLINE
  5
434
100
AcDbEntity
  8
RACCORDO
100
AcDbPolyline
 62
253
  6
CONTINUOUS
 90
3
 70
0
 10
-20.2844138377
 20
-8.6938087944
 10
-20.2338043664
 20
-8.6816631766
 10
-20.1816619011
 20
-8.6775790933
  0
LINE
  5
435
100
AcDbEntity
  8
0
100
AcDbLine
 62
253
  6
CONTINUOUS
 10
-7.4538473556
 20
-9.0169954269
 11
-7.3316619011
 21
-9.0676062993
  0
LINE
  5
436
100
AcDbEntity
  8
RACCORDO
100
AcDbLine
 62
253
  6
CONTINUOUS
 10
-7.4538473556
 20
-9.0169954269
 11
-7.3316619011
 21
-9.0676062993
  0
LINE
  5
437
100
AcDbEntity
  8
0
100
AcDbLine
 62
253
  6
CONTINUOUS
 10
-7.3403887689
 20
-13.2901063438
 11
-7.3316619011
 21
-13.2959241736
  0
LWPOLYLINE
  5
438
100
AcDbEntity
  8
0
100
AcDbPolyline
 62
253
  6
CONTINUOUS
 90
4
 70
0
 10
-16.5888256182
 20
-8.7403559568
 10
-16.5518485682
 20
-8.7734292358
 10
-16.52185428
 20
-8.8117431719
 10
-16.4997541149
 20
-8.8541336158
  0
LWPOLYLINE
  5
439
100
AcDbEntity
  8
RACCORDO
100
AcDbPolyline
 62
253
  6
CONTINUOUS
 90
4
 70
0
 10
-16.5888256182
 20
-8.7403559568
 10
-16.5518485682
 20
-8.7734292358
 10
-16.52185428
 20
-8.8117431719
 10
-16.4997541149
 20
-8.8541336158
  0
LINE
  5
43A
100
AcDbEntity
  8
0
100
AcDbLine
 62
7
  6
CONTINUOUS
 10
-14.9816619011
 20
-11.0959072506
 11
-15.0183175375
 21
-11.0592516142
  0
LINE
  5
43B
100
AcDbEntity
  8
DRAFT
100
AcDbLine
 62
7
  6
CONTINUOUS
 10
-14.9816619011
 20
-11.0959072506
 11
-15.0183175375
 21
-11.0592516142
  0
LWPOLYLINE
  5
43C
100
AcDbEntity
  8
0
100
AcDbPolyline
 62
7
  6
CONTINUOUS
 90
34
 70
0
 10
-25.7360337351
 20
32.8497251462
 10
-25.7363172859
 20
32.8616201677
 10
-25.7371664909
 20
32.8734882444
 10
-25.7385794263
 20
32.8853024923
 10
-25.7405528916
 20
32.8970361495
 10
-25.7430824163
 20
32.9086626368
 10
-25.7461622707
 20
32.9201556174
 10
-25.7497854781
 20
32.9314890572
 10
-25.7539438312
 20
32.9426372834
 10
-25.7586279103
 20
32.9535750429
 10
-25.7638271049
 20
32.964277559
 10
-25.7695296378
 20
32.9747205883
 10
-25.7757225913
 20
32.9848804749
 10
-25.7823919371
 20
32.9947342044
 10
-25.7895225677
 20
33.0042594559
 10
-25.7970983305
 20
33.0134346525
 10
-25.8051020647
 20
33.0222390105
 10
-25.8135156401
 20
33.0306525859
 10
-25.822319998
 20
33.0386563201
 10
-25.8314951947
 20
33.0462320828
 10
-25.8410204462
 20
33.0533627134
 10
-25.8508741757
 20
33.0600320592
 10
-25.8610340623
 20
33.0662250128
 10
-25.8714770915
 20
33.0719275456
 10
-25.8821796077
 20
33.0771267403
 10
-25.8931173671
 20
33.0818108194
 10
-25.9042655933
 20
33.0859691724
 10
-25.9155990332
 20
33.0895923798
 10
-25.9270920138
 20
33.0926722342
 10
-25.938718501
 20
33.095201759
 10
-25.9504521582
 20
33.0971752243
 10
-25.9622664062
 20
33.0985881597
 10
-25.9741344828
 20
33.0994373646
 10
-25.9860295044
 20
33.0997209154
  0
LWPOLYLINE
  5
43D
100
AcDbEntity
  8
0
100
AcDbPolyline
 62
7
  6
CONTINUOUS
 90
4
 70
0
 10
-25.7316619011
 20
32.8540969802
 10
-25.7319450514
 20
32.8659922654
 10
-25.7327938669
 20
32.877860605
 10
-25.734206427
 20
32.8896751155
  0
LINE
  5
43E
100
AcDbEntity
  8
0
100
AcDbLine
 62
253
  6
CONTINUOUS
 10
-25.9860295044
 20
32.2319239658
 11
-25.9809389033
 21
31.7267424802
  0
LINE
  5
43F
100
AcDbEntity
  8
0
100
AcDbLine
 62
253
  6
CONTINUOUS
 10
-25.7360337351
 20
32.4484303167
 11
-25.7316619011
 21
32.0145778976
  0
LINE
  5
440
100
AcDbEntity
  8
0
100
AcDbLine
 62
253
  6
CONTINUOUS
 10
-26.0483075554
 20
29.9400796981
 11
-26.0483075554
 21
29.6000882951
  0
LINE
  5
441
100
AcDbEntity
  8
0
100
AcDbLine
 62
253
  6
CONTINUOUS
 10
-26.0483075554
 20
-12.3919027963
 11
-26.0483075554
 21
-12.7318941992
  0
LINE
  5
442
100
AcDbEntity
  8
0
100
AcDbLine
 62
253
  6
CONTINUOUS
 10
-25.9860295044
 20
-15.8915354166
 11
-25.9860295044
 21
-15.0237384669
  0
LINE
  5
443
100
AcDbEntity
  8
0
100
AcDbLine
 62
253
  6
CONTINUOUS
 10
-25.9860295044
 20
32.2319239658
 11
-25.9860295044
 21
33.0997209154
  0
LINE
  5
444
100
AcDbEntity
  8
0
100
AcDbLine
 62
7
  6
CONTINUOUS
 10
-25.9357726024
 20
-12.2459072506
 11
-25.9357726024
 21
-9.9959072506
  0
LINE
  5
445
100
AcDbEntity
  8
DRAFT
100
AcDbLine
 62
7
  6
CONTINUOUS
 10
-25.9357726024
 20
-12.2459072506
 11
-25.9357726024
 21
-9.9959072506
  0
LINE
  5
446
100
AcDbEntity
  8
0
100
AcDbLine
 62
7
  6
CONTINUOUS
 10
-25.9357726024
 20
26.8615353492
 11
-25.9357726024
 21
29.4540927494
  0
LINE
  5
447
100
AcDbEntity
  8
DRAFT
100
AcDbLine
 62
7
  6
CONTINUOUS
 10
-25.9357726024
 20
26.8615353492
 11
-25.9357726024
 21
29.4540927494
  0
LINE
  5
448
100
AcDbEntity
  8
0
100
AcDbLine
 62
7
  6
CONTINUOUS
 10
-25.9183175375
 20
28.2674371131
 11
-25.9183175375
 21
26.870262217
  0
LINE
  5
449
100
AcDbEntity
  8
DRAFT
100
AcDbLine
 62
7
  6
CONTINUOUS
 10
-25.9183175375
 20
28.2674371131
 11
-25.9183175375
 21
26.870262217
  0
LINE
  5
44A
100
AcDbEntity
  8
0
100
AcDbLine
 62
7
  6
CONTINUOUS
 10
-25.9183175375
 20
-11.0592516142
 11
-25.9183175375
 21
-9.9959072506
  0
LINE
  5
44B
100
AcDbEntity
  8
DRAFT
100
AcDbLine
 62
7
  6
CONTINUOUS
 10
-25.9183175375
 20
-11.0592516142
 11
-25.9183175375
 21
-9.9959072506
  0
LINE
  5
44C
100
AcDbEntity
  8
0
100
AcDbLine
 62
7
  6
CONTINUOUS
 10
-25.8816619011
 20
-12.2459072506
 11
-25.8816619011
 21
-11.0959072506
  0
LINE
  5
44D
100
AcDbEntity
  8
DRAFT
100
AcDbLine
 62
7
  6
CONTINUOUS
 10
-25.8816619011
 20
-12.2459072506
 11
-25.8816619011
 21
-11.0959072506
  0
LINE
  5
44E
100
AcDbEntity
  8
0
100
AcDbLine
 62
7
  6
CONTINUOUS
 10
-25.8816619011
 20
28.3040927494
 11
-25.8816619011
 21
29.4540927494
  0
LINE
  5
44F
100
AcDbEntity
  8
DRAFT
100
AcDbLine
 62
7
  6
CONTINUOUS
 10
-25.8816619011
 20
28.3040927494
 11
-25.8816619011
 21
29.4540927494
  0
LINE
  5
450
100
AcDbEntity
  8
DRAFT
100
AcDbLine
 62
7
  6
CONTINUOUS
 10
-25.7816619011
 20
-12.2959072506
 11
-25.7816619011
 21
-11.3959072506
  0
LINE
  5
451
100
AcDbEntity
  8
DRAFT
100
AcDbLine
 62
7
  6
CONTINUOUS
 10
-25.7816619011
 20
28.6040927494
 11
-25.7816619011
 21
29.5040927494
  0
LINE
  5
452
100
AcDbEntity
  8
DRAFT
100
AcDbLine
 62
7
  6
CONTINUOUS
 10
-25.7772984672
 20
-11.1002706845
 11
-25.7772984672
 21
-11.3959072506
  0
LINE
  5
453
100
AcDbEntity
  8
DRAFT
100
AcDbLine
 62
7
  6
CONTINUOUS
 10
-25.7772984672
 20
28.3084561833
 11
-25.7772984672
 21
28.6040927494
  0
LINE
  5
454
100
AcDbEntity
  8
0
100
AcDbLine
 62
7
  6
CONTINUOUS
 10
-25.7360337351
 20
-15.6415396474
 11
-25.7360337351
 21
-15.2402448179
  0
LINE
  5
455
100
AcDbEntity
  8
0
100
AcDbLine
 62
7
  6
CONTINUOUS
 10
-25.7360337351
 20
32.4484303167
 11
-25.7360337351
 21
32.8497251462
  0
LINE
  5
456
100
AcDbEntity
  8
0
100
AcDbLine
 62
7
  6
CONTINUOUS
 10
-25.7316619011
 20
-15.2402448179
 11
-25.7316619011
 21
-13.7959072506
  0
LINE
  5
457
100
AcDbEntity
  8
0
100
AcDbLine
 62
7
  6
CONTINUOUS
 10
-25.7316619011
 20
31.0040927494
 11
-25.7316619011
 21
32.4484303167
  0
LINE
  5
458
100
AcDbEntity
  8
DRAFT
100
AcDbLine
 62
7
  6
CONTINUOUS
 10
-25.6769394876
 20
29.6000882951
 11
-25.6769394876
 21
28.4088151629
  0
LINE
  5
459
100
AcDbEntity
  8
DRAFT
100
AcDbLine
 62
7
  6
CONTINUOUS
 10
-25.6769394876
 20
-11.2006296641
 11
-25.6769394876
 21
-12.3919027963
  0
LINE
  5
45A
100
AcDbEntity
  8
DRAFT
100
AcDbLine
 62
7
  6
CONTINUOUS
 10
-25.0863843146
 20
28.7088151629
 11
-25.0863843146
 21
28.4088151629
  0
LINE
  5
45B
100
AcDbEntity
  8
DRAFT
100
AcDbLine
 62
7
  6
CONTINUOUS
 10
-25.0863843146
 20
-11.2006296641
 11
-25.0863843146
 21
-11.5006296641
  0
LINE
  5
45C
100
AcDbEntity
  8
DRAFT
100
AcDbLine
 62
7
  6
CONTINUOUS
 10
-24.986025335
 20
28.6084561833
 11
-24.986025335
 21
28.3084561833
  0
LINE
  5
45D
100
AcDbEntity
  8
DRAFT
100
AcDbLine
 62
7
  6
CONTINUOUS
 10
-24.986025335
 20
-11.1002706845
 11
-24.986025335
 21
-11.4002706845
  0
LINE
  5
45E
100
AcDbEntity
  8
0
100
AcDbLine
 62
253
  6
CONTINUOUS
 10
-25.9809389033
 20
-14.5185569814
 11
-25.9860295044
 21
-15.0237384669
  0
LINE
  5
45F
100
AcDbEntity
  8
0
100
AcDbLine
 62
253
  6
CONTINUOUS
 10
-25.7316619011
 20
-14.8063923988
 11
-25.7360337351
 21
-15.2402448179
  0
LINE
  5
460
100
AcDbEntity
  8
DRAFT
100
AcDbLine
 62
7
  6
CONTINUOUS
 10
-11.8769394876
 20
28.7088151629
 11
-11.9772984672
 21
28.6084561833
  0
LINE
  5
461
100
AcDbEntity
  8
DRAFT
100
AcDbLine
 62
7
  6
CONTINUOUS
 10
-11.8769394876
 20
28.4088151629
 11
-11.9772984672
 21
28.3084561833
  0
LINE
  5
462
100
AcDbEntity
  8
SMUSSO
100
AcDbLine
 62
7
  6
CONTINUOUS
 10
-18.7316619011
 20
20.3540927494
 11
-18.2316619011
 21
20.8540927494
  0
LINE
  5
463
100
AcDbEntity
  8
ASSI
100
AcDbLine
 62
7
  6
CONTINUOUS
 10
-18.7316619011
 20
20.3540927494
 11
-18.2316619011
 21
20.8540927494
  0
LINE
  5
464
100
AcDbEntity
  8
SMUSSO
100
AcDbLine
 62
7
  6
CONTINUOUS
 10
-13.7316619011
 20
24.8540927494
 11
-14.2316619011
 21
24.3540927494
  0
LINE
  5
465
100
AcDbEntity
  8
ASSI
100
AcDbLine
 62
7
  6
CONTINUOUS
 10
-13.7316619011
 20
24.8540927494
 11
-14.2316619011
 21
24.3540927494
  0
LINE
  5
466
100
AcDbEntity
  8
DRAFT
100
AcDbLine
 62
7
  6
CONTINUOUS
 10
-11.8769394876
 20
-11.5006296641
 11
-11.9772984672
 21
-11.4002706845
  0
LINE
  5
467
100
AcDbEntity
  8
DRAFT
100
AcDbLine
 62
7
  6
CONTINUOUS
 10
-11.8769394876
 20
-11.2006296641
 11
-11.9772984672
 21
-11.1002706845
  0
LINE
  5
468
100
AcDbEntity
  8
CURVE
100
AcDbLine
 62
7
  6
CONTINUOUS
 10
-24.3566619011
 20
17.9865367494
 11
-24.3566619011
 21
19.4470367494
  0
LINE
  5
469
100
AcDbEntity
  8
ASSI
100
AcDbLine
 62
253
  6
CONTINUOUS
 10
-24.1816619011
 20
-9.9959072506
 11
-24.1816619011
 21
-9.6089975523
  0
LINE
  5
46A
100
AcDbEntity
  8
CURVE
100
AcDbLine
 62
7
  6
CONTINUOUS
 10
-23.6066619011
 20
19.4470367494
 11
-23.6066619011
 21
17.9865367494
  0
LINE
  5
46B
100
AcDbEntity
  8
ASSI
100
AcDbLine
 62
7
  6
CONTINUOUS
 10
-23.1816619011
 20
-9.6089975523
 11
-23.1816619011
 21
-9.9959072506
  0
LINE
  5
46C
100
AcDbEntity
  8
0
100
AcDbLine
 62
7
  6
CONTINUOUS
 10
-22.9316619011
 20
32.6040927494
 11
-22.9316619011
 21
31.9720376966
  0
LINE
  5
46D
100
AcDbEntity
  8
0
100
AcDbLine
 62
7
  6
CONTINUOUS
 10
-22.9316619011
 20
31.5361478022
 11
-22.9316619011
 21
31.0040927494
  0
LINE
  5
46E
100
AcDbEntity
  8
0
100
AcDbLine
 62
7
  6
CONTINUOUS
 10
-22.9316619011
 20
-13.7959072506
 11
-22.9316619011
 21
-14.3279623034
  0
LINE
  5
46F
100
AcDbEntity
  8
0
100
AcDbLine
 62
7
  6
CONTINUOUS
 10
-22.9316619011
 20
-14.7638521978
 11
-22.9316619011
 21
-15.3959072506
  0
LINE
  5
470
100
AcDbEntity
  8
0
100
AcDbLine
 62
7
  6
CONTINUOUS
 10
-22.8877396541
 20
-15.3497995236
 11
-22.8877396541
 21
-13.7519850035
  0
LINE
  5
471
100
AcDbEntity
  8
0
100
AcDbLine
 62
7
  6
CONTINUOUS
 10
-22.8877396541
 20
30.9601705024
 11
-22.8877396541
 21
32.5579850225
  0
LINE
  5
472
100
AcDbEntity
  8
RACCORDO
100
AcDbLine
 62
7
  6
CONTINUOUS
 10
-22.4947522028
 20
27.9171944742
 11
-22.4947522028
 21
27.117171628
  0
LINE
  5
473
100
AcDbEntity
  8
ASSI
100
AcDbLine
 62
7
  6
CONTINUOUS
 10
-22.4947522028
 20
27.9171944742
 11
-22.4947522028
 21
27.117171628
  0
LINE
  5
474
100
AcDbEntity
  8
RACCORDO
100
AcDbLine
 62
7
  6
CONTINUOUS
 10
-22.4947522028
 20
-10.7090089754
 11
-22.4947522028
 21
-9.6089975523
  0
LINE
  5
475
100
AcDbEntity
  8
ASSI
100
AcDbLine
 62
7
  6
CONTINUOUS
 10
-22.4947522028
 20
-10.7090089754
 11
-22.4947522028
 21
-9.6089975523
  0
LWPOLYLINE
  5
476
100
AcDbEntity
  8
0
100
AcDbPolyline
 62
7
  6
CONTINUOUS
 90
5
 70
0
 10
-10.6639751933
 20
30.3014820116
 10
-10.6906240447
 20
30.2620847001
 10
-10.7176313774
 20
30.222351951
 10
-10.7449971915
 20
30.1823618705
 10
-10.7727845956
 20
30.1422307099
  0
LWPOLYLINE
  5
477
100
AcDbEntity
  8
0
100
AcDbPolyline
 62
7
  6
CONTINUOUS
 90
4
 70
0
 10
-10.7727845956
 20
30.1422307099
 10
-10.8576666084
 20
30.0210893062
 10
-10.8862568501
 20
29.9805586238
 10
-10.9150162469
 20
29.9400796981
  0
LWPOLYLINE
  5
478
100
AcDbEntity
  8
0
100
AcDbPolyline
 62
7
  6
CONTINUOUS
 90
3
 70
0
 10
-10.9150162469
 20
-12.7318941992
 10
-10.8862568501
 20
-12.772373125
 10
-10.8576666084
 20
-12.8129038074
  0
LWPOLYLINE
  5
479
100
AcDbEntity
  8
0
100
AcDbPolyline
 62
7
  6
CONTINUOUS
 90
6
 70
0
 10
-10.8576666084
 20
-12.8129038074
 10
-10.7727845956
 20
-12.9340452111
 10
-10.7449971915
 20
-12.9741763717
 10
-10.7176313774
 20
-13.0141664522
 10
-10.6906240447
 20
-13.0538992013
 10
-10.6639751933
 20
-13.0932965128
  0
LINE
  5
47A
100
AcDbEntity
  8
DRAFT
100
AcDbLine
 62
7
  6
CONTINUOUS
 10
-21.9822026245
 20
28.6660535107
 11
-21.9818153358
 21
28.621674615
  0
LINE
  5
47B
100
AcDbEntity
  8
0
100
AcDbLine
 62
7
  6
CONTINUOUS
 10
-22.0022163643
 20
30.9594009334
 11
-22.0165196174
 21
32.5983914044
  0
LINE
  5
47C
100
AcDbEntity
  8
0
100
AcDbLine
 62
7
  6
CONTINUOUS
 10
-21.4738077201
 20
29.4040927494
 11
-21.4873652259
 21
30.9576290397
  0
LINE
  5
47D
100
AcDbEntity
  8
0
100
AcDbLine
 62
7
  6
CONTINUOUS
 10
-21.9816619011
 20
-11.2959072506
 11
-21.9816619011
 21
-11.0959072506
  0
LINE
  5
47E
100
AcDbEntity
  8
DRAFT
100
AcDbLine
 62
7
  6
CONTINUOUS
 10
-21.9816619011
 20
-11.2959072506
 11
-21.9816619011
 21
-11.0959072506
  0
LINE
  5
47F
100
AcDbEntity
  8
0
100
AcDbLine
 62
7
  6
CONTINUOUS
 10
-21.9816619011
 20
28.3040927494
 11
-21.9816619011
 21
28.5040927494
  0
LINE
  5
480
100
AcDbEntity
  8
DRAFT
100
AcDbLine
 62
7
  6
CONTINUOUS
 10
-21.9816619011
 20
28.3040927494
 11
-21.9816619011
 21
28.5040927494
  0
LINE
  5
481
100
AcDbEntity
  8
0
100
AcDbLine
 62
7
  6
CONTINUOUS
 10
-21.9450062648
 20
-11.2592516142
 11
-21.9450062648
 21
-11.0592516142
  0
LINE
  5
482
100
AcDbEntity
  8
DRAFT
100
AcDbLine
 62
7
  6
CONTINUOUS
 10
-21.9450062648
 20
-11.2592516142
 11
-21.9450062648
 21
-11.0592516142
  0
LINE
  5
483
100
AcDbEntity
  8
0
100
AcDbLine
 62
7
  6
CONTINUOUS
 10
-21.9450062648
 20
28.2674371131
 11
-21.9450062648
 21
28.4674371131
  0
LINE
  5
484
100
AcDbEntity
  8
DRAFT
100
AcDbLine
 62
7
  6
CONTINUOUS
 10
-21.9450062648
 20
28.2674371131
 11
-21.9450062648
 21
28.4674371131
  0
LINE
  5
485
100
AcDbEntity
  8
0
100
AcDbLine
 62
7
  6
CONTINUOUS
 10
-20.9816619011
 20
-9.6959072506
 11
-20.9816619011
 21
-7.9959072506
  0
LINE
  5
486
100
AcDbEntity
  8
ASSI
100
AcDbLine
 62
7
  6
CONTINUOUS
 10
-20.9816619011
 20
-9.6959072506
 11
-20.9816619011
 21
-7.9959072506
  0
LINE
  5
487
100
AcDbEntity
  8
0
100
AcDbLine
 62
7
  6
CONTINUOUS
 10
-20.9816619011
 20
25.2040927494
 11
-20.9816619011
 21
26.9040927494
  0
LINE
  5
488
100
AcDbEntity
  8
ASSI
100
AcDbLine
 62
7
  6
CONTINUOUS
 10
-20.9816619011
 20
25.2040927494
 11
-20.9816619011
 21
26.9040927494
  0
LINE
  5
489
100
AcDbEntity
  8
0
100
AcDbLine
 62
253
  6
CONTINUOUS
 10
-20.6281085105
 20
26.8366327661
 11
-20.6281085105
 21
26.9040927494
  0
LINE
  5
48A
100
AcDbEntity
  8
RACCORDO
100
AcDbLine
 62
253
  6
CONTINUOUS
 10
-20.6281085105
 20
26.8366327661
 11
-20.6281085105
 21
26.9040927494
  0
LINE
  5
48B
100
AcDbEntity
  8
0
100
AcDbLine
 62
7
  6
CONTINUOUS
 10
-20.5816619011
 20
26.8040927494
 11
-20.5816619011
 21
26.8362739514
  0
LINE
  5
48C
100
AcDbEntity
  8
0
100
AcDbLine
 62
7
  6
CONTINUOUS
 10
-20.4816619011
 20
26.8040927494
 11
-20.4816619011
 21
26.8371413383
  0
LINE
  5
48D
100
AcDbEntity
  8
RACCORDO
100
AcDbLine
 62
7
  6
CONTINUOUS
 10
-20.4816619011
 20
26.8040927494
 11
-20.4816619011
 21
26.8371413383
  0
LINE
  5
48E
100
AcDbEntity
  8
0
100
AcDbLine
 62
7
  6
CONTINUOUS
 10
-22.0165196174
 20
-15.3902059056
 11
-22.0022163643
 21
-13.7512154346
  0
LINE
  5
48F
100
AcDbEntity
  8
DRAFT
100
AcDbLine
 62
7
  6
CONTINUOUS
 10
-21.9822026245
 20
-11.4578680119
 11
-21.9818153358
 21
-11.4134891162
  0
LINE
  5
490
100
AcDbEntity
  8
0
100
AcDbLine
 62
7
  6
CONTINUOUS
 10
-21.4873652259
 20
-13.7494435409
 11
-21.4738077201
 21
-12.1959072506
  0
LWPOLYLINE
  5
491
100
AcDbEntity
  8
0
100
AcDbPolyline
 62
253
  6
CONTINUOUS
 90
5
 70
0
 10
-16.4861145392
 20
26.1080340314
 10
-16.4994154554
 20
26.0631556553
 10
-16.5212767256
 20
26.020827419
 10
-16.5512019661
 20
25.9823063277
 10
-16.5883397104
 20
25.9489069203
  0
LWPOLYLINE
  5
492
100
AcDbEntity
  8
RACCORDO
100
AcDbPolyline
 62
253
  6
CONTINUOUS
 90
5
 70
0
 10
-16.4861145392
 20
26.1080340314
 10
-16.4994154554
 20
26.0631556553
 10
-16.5212767256
 20
26.020827419
 10
-16.5512019661
 20
25.9823063277
 10
-16.5883397104
 20
25.9489069203
  0
LINE
  5
493
100
AcDbEntity
  8
0
100
AcDbLine
 62
7
  6
CONTINUOUS
 10
-16.4910895535
 20
26.8357102479
 11
-16.5006584171
 21
26.8040927494
  0
LINE
  5
494
100
AcDbEntity
  8
RACCORDO
100
AcDbLine
 62
7
  6
CONTINUOUS
 10
-16.4910895535
 20
26.8357102479
 11
-16.5006584171
 21
26.8040927494
  0
LINE
  5
495
100
AcDbEntity
  8
SMUSSO
100
AcDbLine
 62
7
  6
CONTINUOUS
 10
-18.7316619011
 20
15.3540927494
 11
-18.2316619011
 21
15.8540927494
  0
LINE
  5
496
100
AcDbEntity
  8
ASSI
100
AcDbLine
 62
7
  6
CONTINUOUS
 10
-18.7316619011
 20
15.3540927494
 11
-18.2316619011
 21
15.8540927494
  0
LINE
  5
497
100
AcDbEntity
  8
SMUSSO
100
AcDbLine
 62
7
  6
CONTINUOUS
 10
-13.7316619011
 20
19.8540927494
 11
-14.2316619011
 21
19.3540927494
  0
LINE
  5
498
100
AcDbEntity
  8
ASSI
100
AcDbLine
 62
7
  6
CONTINUOUS
 10
-13.7316619011
 20
19.8540927494
 11
-14.2316619011
 21
19.3540927494
  0
LINE
  5
499
100
AcDbEntity
  8
CURVE
100
AcDbLine
 62
253
  6
CONTINUOUS
 10
-9.2959476071
 20
20.0612356508
 11
-9.1102333131
 21
20.1540927494
  0
LINE
  5
49A
100
AcDbEntity
  8
CURVE
100
AcDbLine
 62
253
  6
CONTINUOUS
 10
-8.3673761758
 20
19.596949848
 11
-8.5530904504
 21
19.5040927494
  0
LINE
  5
49B
100
AcDbEntity
  8
CURVE
100
AcDbLine
 62
253
  6
CONTINUOUS
 10
-8.1816619011
 20
19.1326640451
 11
-9.4816619011
 21
18.7612356508
  0
LWPOLYLINE
  5
49C
100
AcDbEntity
  8
0
100
AcDbPolyline
 62
7
  6
CONTINUOUS
 90
18
 70
0
 10
-11.2137545269
 20
-15.7388256999
 10
-11.2090706733
 20
-15.7497636969
 10
-11.20387167
 20
-15.7604664382
 10
-11.1981692928
 20
-15.7709096789
 10
-11.1919764593
 20
-15.7810697565
 10
-11.1853071966
 20
-15.7909236557
 10
-11.1781766118
 20
-15.8004490544
 10
-11.17060086
 20
-15.8096243697
 10
-11.1625971016
 20
-15.8184288167
 10
-11.1541834672
 20
-15.8268424511
 10
-11.1453790202
 20
-15.8348462095
 10
-11.136203705
 20
-15.8424219613
 10
-11.1266783063
 20
-15.8495525461
 10
-11.116824407
 20
-15.8562218087
 10
-11.1066643294
 20
-15.8624146422
 10
-11.0962210887
 20
-15.8681170194
 10
-11.0855183474
 20
-15.8733160228
 10
-11.0745803504
 20
-15.8779998764
  0
LINE
  5
49D
100
AcDbEntity
  8
0
100
AcDbLine
 62
253
  6
CONTINUOUS
 10
-16.4997541149
 20
-8.8541336158
 11
-16.4862195752
 21
-8.8993125551
  0
LINE
  5
49E
100
AcDbEntity
  8
RACCORDO
100
AcDbLine
 62
253
  6
CONTINUOUS
 10
-16.4997541149
 20
-8.8541336158
 11
-16.4862195752
 21
-8.8993125551
  0
LWPOLYLINE
  5
49F
100
AcDbEntity
  8
0
100
AcDbPolyline
 62
7
  6
CONTINUOUS
 90
6
 70
0
 10
-25.734206427
 20
32.8896751155
 10
-25.7361795334
 20
32.9014090369
 10
-25.7387087194
 20
32.9130357882
 10
-25.7417882594
 20
32.9245290284
 10
-25.7454111798
 20
32.9358627232
 10
-25.7495692754
 20
32.9470111987
  0
LINE
  5
4A0
100
AcDbEntity
  8
0
100
AcDbLine
 62
253
  6
CONTINUOUS
 10
-19.9826163275
 20
-11.4655290024
 11
-19.983186136
 21
-11.2803939302
  0
LINE
  5
4A1
100
AcDbEntity
  8
RACCORDO
100
AcDbLine
 62
7
  6
CONTINUOUS
 10
-20.4642512119
 20
-9.6959072506
 11
-20.4642512119
 21
-9.5959072506
  0
LINE
  5
4A2
100
AcDbEntity
  8
ASSI
100
AcDbLine
 62
7
  6
CONTINUOUS
 10
-20.4642512119
 20
-9.6959072506
 11
-20.4642512119
 21
-9.5959072506
  0
LINE
  5
4A3
100
AcDbEntity
  8
RACCORDO
100
AcDbLine
 62
7
  6
CONTINUOUS
 10
-20.3856663554
 20
26.8040927494
 11
-20.3856663554
 21
26.9040927494
  0
LINE
  5
4A4
100
AcDbEntity
  8
ASSI
100
AcDbLine
 62
7
  6
CONTINUOUS
 10
-20.3856663554
 20
26.8040927494
 11
-20.3856663554
 21
26.9040927494
  0
LINE
  5
4A5
100
AcDbEntity
  8
0
100
AcDbLine
 62
253
  6
CONTINUOUS
 10
-20.1816619011
 20
-8.6959072506
 11
-20.1816619011
 21
-8.6459072506
  0
LINE
  5
4A6
100
AcDbEntity
  8
RACCORDO
100
AcDbLine
 62
253
  6
CONTINUOUS
 10
-20.1816619011
 20
-8.6959072506
 11
-20.1816619011
 21
-8.6459072506
  0
LINE
  5
4A7
100
AcDbEntity
  8
0
100
AcDbLine
 62
253
  6
CONTINUOUS
 10
-20.1816619011
 20
25.8540927494
 11
-20.1816619011
 21
25.9200606678
  0
LINE
  5
4A8
100
AcDbEntity
  8
RACCORDO
100
AcDbLine
 62
253
  6
CONTINUOUS
 10
-20.1816619011
 20
25.8540927494
 11
-20.1816619011
 21
25.9200606678
  0
LINE
  5
4A9
100
AcDbEntity
  8
0
100
AcDbLine
 62
7
  6
CONTINUOUS
 10
-19.4903358545
 20
-13.7907029631
 11
-19.4902292711
 21
-15.1902025204
  0
LINE
  5
4AA
100
AcDbEntity
  8
0
100
AcDbLine
 62
7
  6
CONTINUOUS
 10
-19.4816619011
 20
32.4040995186
 11
-19.4816619011
 21
31.0040927494
  0
LINE
  5
4AB
100
AcDbEntity
  8
0
100
AcDbLine
 62
7
  6
CONTINUOUS
 10
-19.4816619011
 20
-13.7959072506
 11
-19.4816619011
 21
-15.1959140198
  0
LINE
  5
4AC
100
AcDbEntity
  8
SMUSSO
100
AcDbLine
 62
7
  6
CONTINUOUS
 10
-18.7316619011
 20
5.1040927494
 11
-18.7316619011
 21
10.1040927494
  0
LINE
  5
4AD
100
AcDbEntity
  8
ASSI
100
AcDbLine
 62
7
  6
CONTINUOUS
 10
-18.7316619011
 20
5.1040927494
 11
-18.7316619011
 21
10.1040927494
  0
LINE
  5
4AE
100
AcDbEntity
  8
SMUSSO
100
AcDbLine
 62
7
  6
CONTINUOUS
 10
-18.7316619011
 20
10.3540927494
 11
-18.7316619011
 21
14.8540927494
  0
LINE
  5
4AF
100
AcDbEntity
  8
ASSI
100
AcDbLine
 62
7
  6
CONTINUOUS
 10
-18.7316619011
 20
10.3540927494
 11
-18.7316619011
 21
14.8540927494
  0
LINE
  5
4B0
100
AcDbEntity
  8
SMUSSO
100
AcDbLine
 62
7
  6
CONTINUOUS
 10
-18.7316619011
 20
15.3540927494
 11
-18.7316619011
 21
19.8540927494
  0
LINE
  5
4B1
100
AcDbEntity
  8
ASSI
100
AcDbLine
 62
7
  6
CONTINUOUS
 10
-18.7316619011
 20
15.3540927494
 11
-18.7316619011
 21
19.8540927494
  0
LINE
  5
4B2
100
AcDbEntity
  8
SMUSSO
100
AcDbLine
 62
7
  6
CONTINUOUS
 10
-18.7316619011
 20
20.3540927494
 11
-18.7316619011
 21
24.8540927494
  0
LINE
  5
4B3
100
AcDbEntity
  8
ASSI
100
AcDbLine
 62
7
  6
CONTINUOUS
 10
-18.7316619011
 20
20.3540927494
 11
-18.7316619011
 21
24.8540927494
  0
LINE
  5
4B4
100
AcDbEntity
  8
0
100
AcDbLine
 62
7
  6
CONTINUOUS
 10
-19.4903358545
 20
30.9988884619
 11
-19.4902292711
 21
32.3983880192
  0
LINE
  5
4B5
100
AcDbEntity
  8
0
100
AcDbLine
 62
253
  6
CONTINUOUS
 10
-19.983186136
 20
28.488579429
 11
-19.9826163275
 21
28.6737145012
  0
LWPOLYLINE
  5
4B6
100
AcDbEntity
  8
0
100
AcDbPolyline
 62
7
  6
CONTINUOUS
 90
17
 70
0
 10
-14.0755841482
 20
32.5579850225
 10
-14.0759203006
 20
32.5562689965
 10
-14.076757837
 20
32.5540727163
 10
-14.0781015363
 20
32.551396182
 10
-14.0799550863
 20
32.5482452928
 10
-14.0823223931
 20
32.5446141494
 10
-14.0852088258
 20
32.5404850541
 10
-14.0886160789
 20
32.5358609354
 10
-14.0925483766
 20
32.5307388647
 10
-14.0970184704
 20
32.5250923583
 10
-14.1020254947
 20
32.5189329899
 10
-14.107578276
 20
32.5122491858
 10
-14.1137147934
 20
32.5049797408
 10
-14.120449846
 20
32.4971262801
 10
-14.1277899169
 20
32.4886871786
 10
-14.1357730882
 20
32.479596356
 10
-14.1444182736
 20
32.4698488474
  0
LWPOLYLINE
  5
4B7
100
AcDbEntity
  8
0
100
AcDbPolyline
 62
7
  6
CONTINUOUS
 90
9
 70
0
 10
-11.2137545269
 20
32.9470111987
 10
-11.2179126225
 20
32.9358627232
 10
-11.2215355428
 20
32.9245290284
 10
-11.2246150829
 20
32.9130357882
 10
-11.2271442689
 20
32.9014090369
 10
-11.2291173753
 20
32.8896751155
 10
-11.2305299354
 20
32.877860605
 10
-11.2313787509
 20
32.8659922654
 10
-11.2316619011
 20
32.8540969802
  0
LINE
  5
4B8
100
AcDbEntity
  8
CURVE
100
AcDbLine
 62
253
  6
CONTINUOUS
 10
-8.3673761758
 20
21.4540927494
 11
-8.1816619011
 21
21.639807024
  0
LINE
  5
4B9
100
AcDbEntity
  8
CURVE
100
AcDbLine
 62
253
  6
CONTINUOUS
 10
-8.9245190385
 20
20.5255212987
 11
-8.7388047251
 21
20.7112356508
  0
LINE
  5
4BA
100
AcDbEntity
  8
CURVE
100
AcDbLine
 62
253
  6
CONTINUOUS
 10
-8.3673761758
 20
20.5564737165
 11
-8.1816619011
 21
20.7112356508
  0
LINE
  5
4BB
100
AcDbEntity
  8
0
100
AcDbLine
 62
253
  6
CONTINUOUS
 10
-16.9807074748
 20
28.6737145012
 11
-16.9801376663
 21
28.488579429
  0
LINE
  5
4BC
100
AcDbEntity
  8
SMUSSO
100
AcDbLine
 62
7
  6
CONTINUOUS
 10
-18.2316619011
 20
5.6040927494
 11
-18.2316619011
 21
9.6040927494
  0
LINE
  5
4BD
100
AcDbEntity
  8
ASSI
100
AcDbLine
 62
7
  6
CONTINUOUS
 10
-18.2316619011
 20
5.6040927494
 11
-18.2316619011
 21
9.6040927494
  0
LINE
  5
4BE
100
AcDbEntity
  8
SMUSSO
100
AcDbLine
 62
7
  6
CONTINUOUS
 10
-18.2316619011
 20
10.8540927494
 11
-18.2316619011
 21
14.3540927494
  0
LINE
  5
4BF
100
AcDbEntity
  8
ASSI
100
AcDbLine
 62
7
  6
CONTINUOUS
 10
-18.2316619011
 20
10.8540927494
 11
-18.2316619011
 21
14.3540927494
  0
LINE
  5
4C0
100
AcDbEntity
  8
SMUSSO
100
AcDbLine
 62
7
  6
CONTINUOUS
 10
-18.2316619011
 20
15.8540927494
 11
-18.2316619011
 21
19.3540927494
  0
LINE
  5
4C1
100
AcDbEntity
  8
ASSI
100
AcDbLine
 62
7
  6
CONTINUOUS
 10
-18.2316619011
 20
15.8540927494
 11
-18.2316619011
 21
19.3540927494
  0
LINE
  5
4C2
100
AcDbEntity
  8
SMUSSO
100
AcDbLine
 62
7
  6
CONTINUOUS
 10
-18.2316619011
 20
20.8540927494
 11
-18.2316619011
 21
24.3540927494
  0
LINE
  5
4C3
100
AcDbEntity
  8
ASSI
100
AcDbLine
 62
7
  6
CONTINUOUS
 10
-18.2316619011
 20
20.8540927494
 11
-18.2316619011
 21
24.3540927494
  0
LINE
  5
4C4
100
AcDbEntity
  8
0
100
AcDbLine
 62
7
  6
CONTINUOUS
 10
-17.8816619011
 20
24.1040927494
 11
-17.8816619011
 21
21.1040927494
  0
LINE
  5
4C5
100
AcDbEntity
  8
0
100
AcDbLine
 62
7
  6
CONTINUOUS
 10
-17.8816619011
 20
19.1040927494
 11
-17.8816619011
 21
16.1040927494
  0
LINE
  5
4C6
100
AcDbEntity
  8
0
100
AcDbLine
 62
7
  6
CONTINUOUS
 10
-17.8816619011
 20
14.1040927494
 11
-17.8816619011
 21
11.1040927494
  0
LINE
  5
4C7
100
AcDbEntity
  8
0
100
AcDbLine
 62
7
  6
CONTINUOUS
 10
-17.8816619011
 20
9.1040927494
 11
-17.8816619011
 21
6.1040927494
  0
LINE
  5
4C8
100
AcDbEntity
  8
0
100
AcDbLine
 62
7
  6
CONTINUOUS
 10
-17.4816619011
 20
32.4040995186
 11
-17.4816619011
 21
31.0040927494
  0
LINE
  5
4C9
100
AcDbEntity
  8
0
100
AcDbLine
 62
7
  6
CONTINUOUS
 10
-17.4816619011
 20
-13.7959072506
 11
-17.4816619011
 21
-15.1959140198
  0
LINE
  5
4CA
100
AcDbEntity
  8
0
100
AcDbLine
 62
7
  6
CONTINUOUS
 10
-17.4729879477
 20
30.9988884619
 11
-17.4730945311
 21
32.3983880192
  0
LINE
  5
4CB
100
AcDbEntity
  8
0
100
AcDbLine
 62
253
  6
CONTINUOUS
 10
-16.7816619011
 20
25.9200606678
 11
-16.7816619011
 21
25.8540927494
  0
LINE
  5
4CC
100
AcDbEntity
  8
RACCORDO
100
AcDbLine
 62
253
  6
CONTINUOUS
 10
-16.7816619011
 20
25.9200606678
 11
-16.7816619011
 21
25.8540927494
  0
LINE
  5
4CD
100
AcDbEntity
  8
0
100
AcDbLine
 62
253
  6
CONTINUOUS
 10
-16.7816619011
 20
-8.6959072506
 11
-16.7816619011
 21
-8.6459072506
  0
LINE
  5
4CE
100
AcDbEntity
  8
RACCORDO
100
AcDbLine
 62
253
  6
CONTINUOUS
 10
-16.7816619011
 20
-8.6959072506
 11
-16.7816619011
 21
-8.6459072506
  0
LINE
  5
4CF
100
AcDbEntity
  8
RACCORDO
100
AcDbLine
 62
7
  6
CONTINUOUS
 10
-16.5776574468
 20
26.8040927494
 11
-16.5776574468
 21
26.9040927494
  0
LINE
  5
4D0
100
AcDbEntity
  8
ASSI
100
AcDbLine
 62
7
  6
CONTINUOUS
 10
-16.5776574468
 20
26.8040927494
 11
-16.5776574468
 21
26.9040927494
  0
LINE
  5
4D1
100
AcDbEntity
  8
0
100
AcDbLine
 62
7
  6
CONTINUOUS
 10
-17.4729879477
 20
-13.7907029631
 11
-17.4730945311
 21
-15.1902025204
  0
LINE
  5
4D2
100
AcDbEntity
  8
0
100
AcDbLine
 62
253
  6
CONTINUOUS
 10
-16.9801376663
 20
-11.2803939302
 11
-16.9807074748
 21
-11.4655290024
  0
LWPOLYLINE
  5
4D3
100
AcDbEntity
  8
0
100
AcDbPolyline
 62
7
  6
CONTINUOUS
 90
17
 70
0
 10
-22.8877396541
 20
-15.3497995236
 10
-22.8874036728
 20
-15.3480830695
 10
-22.8865670625
 20
-15.3458888636
 10
-22.885225685
 20
-15.3432169061
 10
-22.8833767336
 20
-15.340073155
 10
-22.8810168133
 20
-15.3364516522
 10
-22.8781401198
 20
-15.3323345239
 10
-22.8747455353
 20
-15.3277262874
 10
-22.8708285983
 20
-15.3226224254
 10
-22.8663732809
 20
-15.3169915117
 10
-22.8613776859
 20
-15.3108435536
 10
-22.855833415
 20
-15.3041685439
 10
-22.8497033502
 20
-15.2969050346
 10
-22.8429721183
 20
-15.2890540437
 10
-22.8356327207
 20
-15.2806145533
 10
-22.8276489203
 20
-15.2715220617
 10
-22.8190018213
 20
-15.2617711546
  0
LINE
  5
4D4
100
AcDbEntity
  8
CURVE
100
AcDbLine
 62
253
  6
CONTINUOUS
 10
-9.4816619011
 20
19.8755212987
 11
-9.2959476071
 21
20.0612356508
  0
LINE
  5
4D5
100
AcDbEntity
  8
SMUSSO
100
AcDbLine
 62
7
  6
CONTINUOUS
 10
-18.7316619011
 20
10.3540927494
 11
-18.2316619011
 21
10.8540927494
  0
LINE
  5
4D6
100
AcDbEntity
  8
ASSI
100
AcDbLine
 62
7
  6
CONTINUOUS
 10
-18.7316619011
 20
10.3540927494
 11
-18.2316619011
 21
10.8540927494
  0
LINE
  5
4D7
100
AcDbEntity
  8
SMUSSO
100
AcDbLine
 62
7
  6
CONTINUOUS
 10
-13.7316619011
 20
14.8540927494
 11
-14.2316619011
 21
14.3540927494
  0
LINE
  5
4D8
100
AcDbEntity
  8
ASSI
100
AcDbLine
 62
7
  6
CONTINUOUS
 10
-13.7316619011
 20
14.8540927494
 11
-14.2316619011
 21
14.3540927494
  0
LINE
  5
4D9
100
AcDbEntity
  8
CURVE
100
AcDbLine
 62
253
  6
CONTINUOUS
 10
-10.5816619011
 20
17.4255213047
 11
-10.8530904564
 21
17.1540927494
  0
LINE
  5
4DA
100
AcDbEntity
  8
CURVE
100
AcDbLine
 62
253
  6
CONTINUOUS
 10
-8.1816619011
 20
19.7826642001
 11
-8.3673761758
 21
19.596949848
  0
LINE
  5
4DB
100
AcDbEntity
  8
0
100
AcDbLine
 62
7
  6
CONTINUOUS
 10
-15.4759585763
 20
-13.7494435409
 11
-15.4895160821
 21
-12.1959072506
  0
LINE
  5
4DC
100
AcDbEntity
  8
DRAFT
100
AcDbLine
 62
7
  6
CONTINUOUS
 10
-14.9815084665
 20
-11.4134891162
 11
-14.9811211778
 21
-11.4578680119
  0
LINE
  5
4DD
100
AcDbEntity
  8
0
100
AcDbLine
 62
7
  6
CONTINUOUS
 10
-14.961107438
 20
-13.7512154346
 11
-14.9468041849
 21
-15.3902059056
  0
LINE
  5
4DE
100
AcDbEntity
  8
RACCORDO
100
AcDbLine
 62
7
  6
CONTINUOUS
 10
-16.4990725904
 20
-9.6959072506
 11
-16.4990725904
 21
-9.5959072506
  0
LINE
  5
4DF
100
AcDbEntity
  8
ASSI
100
AcDbLine
 62
7
  6
CONTINUOUS
 10
-16.4990725904
 20
-9.6959072506
 11
-16.4990725904
 21
-9.5959072506
  0
LINE
  5
4E0
100
AcDbEntity
  8
0
100
AcDbLine
 62
7
  6
CONTINUOUS
 10
-16.4816619011
 20
26.8371413383
 11
-16.4816619011
 21
26.8040927494
  0
LINE
  5
4E1
100
AcDbEntity
  8
RACCORDO
100
AcDbLine
 62
7
  6
CONTINUOUS
 10
-16.4816619011
 20
26.8371413383
 11
-16.4816619011
 21
26.8040927494
  0
LINE
  5
4E2
100
AcDbEntity
  8
0
100
AcDbLine
 62
7
  6
CONTINUOUS
 10
-16.3816619011
 20
26.8040927494
 11
-16.3816619011
 21
26.8362739514
  0
LINE
  5
4E3
100
AcDbEntity
  8
0
100
AcDbLine
 62
253
  6
CONTINUOUS
 10
-16.3352152917
 20
26.9040927494
 11
-16.3352152917
 21
26.8366327661
  0
LINE
  5
4E4
100
AcDbEntity
  8
RACCORDO
100
AcDbLine
 62
253
  6
CONTINUOUS
 10
-16.3352152917
 20
26.9040927494
 11
-16.3352152917
 21
26.8366327661
  0
LINE
  5
4E5
100
AcDbEntity
  8
0
100
AcDbLine
 62
7
  6
CONTINUOUS
 10
-15.9816619011
 20
26.9040927494
 11
-15.9816619011
 21
25.2040927494
  0
LINE
  5
4E6
100
AcDbEntity
  8
ASSI
100
AcDbLine
 62
7
  6
CONTINUOUS
 10
-15.9816619011
 20
26.9040927494
 11
-15.9816619011
 21
25.2040927494
  0
LINE
  5
4E7
100
AcDbEntity
  8
0
100
AcDbLine
 62
7
  6
CONTINUOUS
 10
-15.9816619011
 20
-7.9959072506
 11
-15.9816619011
 21
-9.6959072506
  0
LINE
  5
4E8
100
AcDbEntity
  8
ASSI
100
AcDbLine
 62
7
  6
CONTINUOUS
 10
-15.9816619011
 20
-7.9959072506
 11
-15.9816619011
 21
-9.6959072506
  0
LINE
  5
4E9
100
AcDbEntity
  8
0
100
AcDbLine
 62
7
  6
CONTINUOUS
 10
-15.0183175375
 20
-11.2592516142
 11
-15.0183175375
 21
-11.0592516142
  0
LINE
  5
4EA
100
AcDbEntity
  8
DRAFT
100
AcDbLine
 62
7
  6
CONTINUOUS
 10
-15.0183175375
 20
-11.2592516142
 11
-15.0183175375
 21
-11.0592516142
  0
LINE
  5
4EB
100
AcDbEntity
  8
0
100
AcDbLine
 62
7
  6
CONTINUOUS
 10
-15.0183175375
 20
28.2674371131
 11
-15.0183175375
 21
28.4674371131
  0
LINE
  5
4EC
100
AcDbEntity
  8
DRAFT
100
AcDbLine
 62
7
  6
CONTINUOUS
 10
-15.0183175375
 20
28.2674371131
 11
-15.0183175375
 21
28.4674371131
  0
LINE
  5
4ED
100
AcDbEntity
  8
0
100
AcDbLine
 62
7
  6
CONTINUOUS
 10
-14.9816619011
 20
-11.2959072506
 11
-14.9816619011
 21
-11.0959072506
  0
LINE
  5
4EE
100
AcDbEntity
  8
DRAFT
100
AcDbLine
 62
7
  6
CONTINUOUS
 10
-14.9816619011
 20
-11.2959072506
 11
-14.9816619011
 21
-11.0959072506
  0
LINE
  5
4EF
100
AcDbEntity
  8
0
100
AcDbLine
 62
7
  6
CONTINUOUS
 10
-14.9816619011
 20
28.3040927494
 11
-14.9816619011
 21
28.5040927494
  0
LINE
  5
4F0
100
AcDbEntity
  8
DRAFT
100
AcDbLine
 62
7
  6
CONTINUOUS
 10
-14.9816619011
 20
28.3040927494
 11
-14.9816619011
 21
28.5040927494
  0
LINE
  5
4F1
100
AcDbEntity
  8
0
100
AcDbLine
 62
7
  6
CONTINUOUS
 10
-14.9416619011
 20
5.6040927494
 11
-14.9416619011
 21
9.6040927494
  0
LINE
  5
4F2
100
AcDbEntity
  8
0
100
AcDbLine
 62
7
  6
CONTINUOUS
 10
-14.9416619011
 20
10.8540927494
 11
-14.9416619011
 21
14.3540927494
  0
LINE
  5
4F3
100
AcDbEntity
  8
0
100
AcDbLine
 62
7
  6
CONTINUOUS
 10
-14.9416619011
 20
15.8540927494
 11
-14.9416619011
 21
19.3540927494
  0
LINE
  5
4F4
100
AcDbEntity
  8
0
100
AcDbLine
 62
7
  6
CONTINUOUS
 10
-14.9416619011
 20
20.8540927494
 11
-14.9416619011
 21
24.3540927494
  0
LINE
  5
4F5
100
AcDbEntity
  8
0
100
AcDbLine
 62
7
  6
CONTINUOUS
 10
-15.4895160821
 20
29.4040927494
 11
-15.4759585763
 21
30.9576290397
  0
LINE
  5
4F6
100
AcDbEntity
  8
DRAFT
100
AcDbLine
 62
7
  6
CONTINUOUS
 10
-14.9815084665
 20
28.621674615
 11
-14.9811211778
 21
28.6660535107
  0
LINE
  5
4F7
100
AcDbEntity
  8
0
100
AcDbLine
 62
7
  6
CONTINUOUS
 10
-14.961107438
 20
30.9594009334
 11
-14.9468041849
 21
32.5983914044
  0
LINE
  5
4F8
100
AcDbEntity
  8
0
100
AcDbLine
 62
253
  6
CONTINUOUS
 10
-20.4760411579
 20
-8.8959072506
 11
-20.4639083469
 21
-8.8549701565
  0
LINE
  5
4F9
100
AcDbEntity
  8
RACCORDO
100
AcDbLine
 62
253
  6
CONTINUOUS
 10
-20.4760411579
 20
-8.8959072506
 11
-20.4639083469
 21
-8.8549701565
  0
LWPOLYLINE
  5
4FA
100
AcDbEntity
  8
0
100
AcDbPolyline
 62
7
  6
CONTINUOUS
 90
9
 70
0
 10
-25.7495692754
 20
-15.7388256999
 10
-25.7454111798
 20
-15.7276772244
 10
-25.7417882594
 20
-15.7163435296
 10
-25.7387087194
 20
-15.7048502894
 10
-25.7361795334
 20
-15.6932235381
 10
-25.734206427
 20
-15.6814896167
 10
-25.7327938669
 20
-15.6696751062
 10
-25.7319450514
 20
-15.6578067666
 10
-25.7316619011
 20
-15.6459114814
  0
LINE
  5
4FB
100
AcDbEntity
  8
CURVE
100
AcDbLine
 62
253
  6
CONTINUOUS
 10
-8.9864237967
 20
17.8017117823
 11
-9.1721380907
 21
17.5540927494
  0
LINE
  5
4FC
100
AcDbEntity
  8
CURVE
100
AcDbLine
 62
253
  6
CONTINUOUS
 10
-9.2959476071
 20
13.963616618
 11
-9.1102333131
 21
14.0564734066
  0
LINE
  5
4FD
100
AcDbEntity
  8
CURVE
100
AcDbLine
 62
253
  6
CONTINUOUS
 10
-10.5816619011
 20
13.2040927494
 11
-12.4816619011
 21
12.2540927494
  0
LINE
  5
4FE
100
AcDbEntity
  8
CURVE
100
AcDbLine
 62
253
  6
CONTINUOUS
 10
-8.3673761758
 20
13.4993308151
 11
-8.5530904504
 21
13.4064734066
  0
LINE
  5
4FF
100
AcDbEntity
  8
SMUSSO
100
AcDbLine
 62
7
  6
CONTINUOUS
 10
-13.7316619011
 20
5.1040927494
 11
-18.7316619011
 21
5.1040927494
  0
LINE
  5
500
100
AcDbEntity
  8
ASSI
100
AcDbLine
 62
7
  6
CONTINUOUS
 10
-13.7316619011
 20
5.1040927494
 11
-18.7316619011
 21
5.1040927494
  0
LINE
  5
501
100
AcDbEntity
  8
RACCORDO
100
AcDbLine
 62
7
  6
CONTINUOUS
 10
-29.1947407793
 20
5.4540927494
 11
-28.2816619011
 21
5.4540927494
  0
LINE
  5
502
100
AcDbEntity
  8
ASSI
100
AcDbLine
 62
7
  6
CONTINUOUS
 10
-29.1947407793
 20
5.4540927494
 11
-28.2816619011
 21
5.4540927494
  0
LINE
  5
503
100
AcDbEntity
  8
SMUSSO
100
AcDbLine
 62
7
  6
CONTINUOUS
 10
-14.2316619011
 20
5.6040927494
 11
-18.2316619011
 21
5.6040927494
  0
LINE
  5
504
100
AcDbEntity
  8
ASSI
100
AcDbLine
 62
7
  6
CONTINUOUS
 10
-14.2316619011
 20
5.6040927494
 11
-18.2316619011
 21
5.6040927494
  0
LINE
  5
505
100
AcDbEntity
  8
0
100
AcDbLine
 62
7
  6
CONTINUOUS
 10
-17.8816619011
 20
6.1040927494
 11
-14.9416619011
 21
6.1040927494
  0
LINE
  5
506
100
AcDbEntity
  8
SMUSSO
100
AcDbLine
 62
7
  6
CONTINUOUS
 10
-18.7316619011
 20
10.1040927494
 11
-18.2316619011
 21
9.6040927494
  0
LINE
  5
507
100
AcDbEntity
  8
ASSI
100
AcDbLine
 62
7
  6
CONTINUOUS
 10
-18.7316619011
 20
10.1040927494
 11
-18.2316619011
 21
9.6040927494
  0
LINE
  5
508
100
AcDbEntity
  8
SMUSSO
100
AcDbLine
 62
7
  6
CONTINUOUS
 10
-13.7316619011
 20
5.1040927494
 11
-14.2316619011
 21
5.6040927494
  0
LINE
  5
509
100
AcDbEntity
  8
ASSI
100
AcDbLine
 62
7
  6
CONTINUOUS
 10
-13.7316619011
 20
5.1040927494
 11
-14.2316619011
 21
5.6040927494
  0
LWPOLYLINE
  5
50A
100
AcDbEntity
  8
0
100
AcDbPolyline
 62
7
  6
CONTINUOUS
 90
18
 70
0
 10
-25.7495692754
 20
32.9470111987
 10
-25.754253129
 20
32.9579491957
 10
-25.7594521323
 20
32.968651937
 10
-25.7651545095
 20
32.9790951777
 10
-25.771347343
 20
32.9892552553
 10
-25.7780166057
 20
32.9991091545
 10
-25.7851471904
 20
33.0086345532
 10
-25.7927229423
 20
33.0178098685
 10
-25.8007267007
 20
33.0266143155
 10
-25.809140335
 20
33.0350279499
 10
-25.8179447821
 20
33.0430317083
 10
-25.8271200973
 20
33.0506074601
 10
-25.836645496
 20
33.0577380449
 10
-25.8464993952
 20
33.0644073075
 10
-25.8566594729
 20
33.070600141
 10
-25.8671027135
 20
33.0763025182
 10
-25.8778054548
 20
33.0815015216
 10
-25.8887434518
 20
33.0861853752
  0
LINE
  5
50B
100
AcDbEntity
  8
0
100
AcDbLine
 62
7
  6
CONTINUOUS
 10
-20.462673286
 20
26.8040927494
 11
-20.4722342487
 21
26.8357102479
  0
LINE
  5
50C
100
AcDbEntity
  8
RACCORDO
100
AcDbLine
 62
7
  6
CONTINUOUS
 10
-20.462673286
 20
26.8040927494
 11
-20.4722342487
 21
26.8357102479
  0
LWPOLYLINE
  5
50D
100
AcDbEntity
  8
0
100
AcDbPolyline
 62
253
  6
CONTINUOUS
 90
5
 70
0
 10
-20.4760411579
 20
26.1040927494
 10
-20.4639083469
 20
26.0631556553
 10
-20.4420470767
 20
26.020827419
 10
-20.4121218362
 20
25.9823063277
 10
-20.3749840919
 20
25.9489069203
  0
LWPOLYLINE
  5
50E
100
AcDbEntity
  8
RACCORDO
100
AcDbPolyline
 62
253
  6
CONTINUOUS
 90
5
 70
0
 10
-20.4760411579
 20
26.1040927494
 10
-20.4639083469
 20
26.0631556553
 10
-20.4420470767
 20
26.020827419
 10
-20.4121218362
 20
25.9823063277
 10
-20.3749840919
 20
25.9489069203
  0
LWPOLYLINE
  5
50F
100
AcDbEntity
  8
0
100
AcDbPolyline
 62
7
  6
CONTINUOUS
 90
6
 70
0
 10
-11.2291173753
 20
-15.6814896167
 10
-11.2271442689
 20
-15.6932235381
 10
-11.2246150829
 20
-15.7048502894
 10
-11.2215355428
 20
-15.7163435296
 10
-11.2179126225
 20
-15.7276772244
 10
-11.2137545269
 20
-15.7388256999
  0
LINE
  5
510
100
AcDbEntity
  8
SMUSSO
100
AcDbLine
 62
7
  6
CONTINUOUS
 10
-14.2316619011
 20
24.3540927494
 11
-14.2316619011
 21
20.8540927494
  0
LINE
  5
511
100
AcDbEntity
  8
ASSI
100
AcDbLine
 62
7
  6
CONTINUOUS
 10
-14.2316619011
 20
24.3540927494
 11
-14.2316619011
 21
20.8540927494
  0
LINE
  5
512
100
AcDbEntity
  8
SMUSSO
100
AcDbLine
 62
7
  6
CONTINUOUS
 10
-14.2316619011
 20
19.3540927494
 11
-14.2316619011
 21
15.8540927494
  0
LINE
  5
513
100
AcDbEntity
  8
ASSI
100
AcDbLine
 62
7
  6
CONTINUOUS
 10
-14.2316619011
 20
19.3540927494
 11
-14.2316619011
 21
15.8540927494
  0
LINE
  5
514
100
AcDbEntity
  8
SMUSSO
100
AcDbLine
 62
7
  6
CONTINUOUS
 10
-14.2316619011
 20
14.3540927494
 11
-14.2316619011
 21
10.8540927494
  0
LINE
  5
515
100
AcDbEntity
  8
ASSI
100
AcDbLine
 62
7
  6
CONTINUOUS
 10
-14.2316619011
 20
14.3540927494
 11
-14.2316619011
 21
10.8540927494
  0
LINE
  5
516
100
AcDbEntity
  8
SMUSSO
100
AcDbLine
 62
7
  6
CONTINUOUS
 10
-14.2316619011
 20
9.6040927494
 11
-14.2316619011
 21
5.6040927494
  0
LINE
  5
517
100
AcDbEntity
  8
ASSI
100
AcDbLine
 62
7
  6
CONTINUOUS
 10
-14.2316619011
 20
9.6040927494
 11
-14.2316619011
 21
5.6040927494
  0
LINE
  5
518
100
AcDbEntity
  8
0
100
AcDbLine
 62
7
  6
CONTINUOUS
 10
-14.0755841482
 20
-15.3497995236
 11
-14.0755841482
 21
-13.7519850035
  0
LINE
  5
519
100
AcDbEntity
  8
0
100
AcDbLine
 62
7
  6
CONTINUOUS
 10
-14.0755841482
 20
30.9601705024
 11
-14.0755841482
 21
32.5579850225
  0
LINE
  5
51A
100
AcDbEntity
  8
0
100
AcDbLine
 62
7
  6
CONTINUOUS
 10
-14.0316619011
 20
-15.3959072506
 11
-14.0316619011
 21
-14.7638521978
  0
LINE
  5
51B
100
AcDbEntity
  8
0
100
AcDbLine
 62
7
  6
CONTINUOUS
 10
-14.0316619011
 20
-14.3279623034
 11
-14.0316619011
 21
-13.7959072506
  0
LINE
  5
51C
100
AcDbEntity
  8
0
100
AcDbLine
 62
7
  6
CONTINUOUS
 10
-14.0316619011
 20
31.0040927494
 11
-14.0316619011
 21
31.5361478022
  0
LINE
  5
51D
100
AcDbEntity
  8
0
100
AcDbLine
 62
7
  6
CONTINUOUS
 10
-14.0316619011
 20
31.9720376966
 11
-14.0316619011
 21
32.6040927494
  0
LINE
  5
51E
100
AcDbEntity
  8
SMUSSO
100
AcDbLine
 62
7
  6
CONTINUOUS
 10
-13.7316619011
 20
24.8540927494
 11
-13.7316619011
 21
20.3540927494
  0
LINE
  5
51F
100
AcDbEntity
  8
ASSI
100
AcDbLine
 62
7
  6
CONTINUOUS
 10
-13.7316619011
 20
24.8540927494
 11
-13.7316619011
 21
20.3540927494
  0
LINE
  5
520
100
AcDbEntity
  8
SMUSSO
100
AcDbLine
 62
7
  6
CONTINUOUS
 10
-13.7316619011
 20
19.8540927494
 11
-13.7316619011
 21
15.3540927494
  0
LINE
  5
521
100
AcDbEntity
  8
ASSI
100
AcDbLine
 62
7
  6
CONTINUOUS
 10
-13.7316619011
 20
19.8540927494
 11
-13.7316619011
 21
15.3540927494
  0
LINE
  5
522
100
AcDbEntity
  8
SMUSSO
100
AcDbLine
 62
7
  6
CONTINUOUS
 10
-13.7316619011
 20
14.8540927494
 11
-13.7316619011
 21
10.3540927494
  0
LINE
  5
523
100
AcDbEntity
  8
ASSI
100
AcDbLine
 62
7
  6
CONTINUOUS
 10
-13.7316619011
 20
14.8540927494
 11
-13.7316619011
 21
10.3540927494
  0
LINE
  5
524
100
AcDbEntity
  8
SMUSSO
100
AcDbLine
 62
7
  6
CONTINUOUS
 10
-13.7316619011
 20
10.1040927494
 11
-13.7316619011
 21
5.1040927494
  0
LINE
  5
525
100
AcDbEntity
  8
ASSI
100
AcDbLine
 62
7
  6
CONTINUOUS
 10
-13.7316619011
 20
10.1040927494
 11
-13.7316619011
 21
5.1040927494
  0
LINE
  5
526
100
AcDbEntity
  8
SMUSSO
100
AcDbLine
 62
7
  6
CONTINUOUS
 10
-13.7316619011
 20
10.1040927494
 11
-14.2316619011
 21
9.6040927494
  0
LINE
  5
527
100
AcDbEntity
  8
ASSI
100
AcDbLine
 62
7
  6
CONTINUOUS
 10
-13.7316619011
 20
10.1040927494
 11
-14.2316619011
 21
9.6040927494
  0
LINE
  5
528
100
AcDbEntity
  8
SMUSSO
100
AcDbLine
 62
7
  6
CONTINUOUS
 10
-18.7316619011
 20
5.1040927494
 11
-18.2316619011
 21
5.6040927494
  0
LINE
  5
529
100
AcDbEntity
  8
ASSI
100
AcDbLine
 62
7
  6
CONTINUOUS
 10
-18.7316619011
 20
5.1040927494
 11
-18.2316619011
 21
5.6040927494
  0
LINE
  5
52A
100
AcDbEntity
  8
CURVE
100
AcDbLine
 62
253
  6
CONTINUOUS
 10
-8.9245190385
 20
14.4279024208
 11
-8.7388047251
 21
14.613616618
  0
LINE
  5
52B
100
AcDbEntity
  8
CURVE
100
AcDbLine
 62
253
  6
CONTINUOUS
 10
-9.4816619011
 20
13.7779024208
 11
-9.2959476071
 21
13.963616618
  0
LINE
  5
52C
100
AcDbEntity
  8
CURVE
100
AcDbLine
 62
253
  6
CONTINUOUS
 10
-8.1816619011
 20
13.6850450123
 11
-8.3673761758
 21
13.4993308151
  0
LINE
  5
52D
100
AcDbEntity
  8
CURVE
100
AcDbLine
 62
253
  6
CONTINUOUS
 10
-12.2102333176
 20
7.1540927494
 11
-11.938804734
 21
7.1540927494
  0
LINE
  5
52E
100
AcDbEntity
  8
CURVE
100
AcDbLine
 62
253
  6
CONTINUOUS
 10
-11.1245190116
 20
8.1040927494
 11
-10.8530904564
 21
8.1040927494
  0
LINE
  5
52F
100
AcDbEntity
  8
CURVE
100
AcDbLine
 62
253
  6
CONTINUOUS
 10
-8.4816619011
 20
8.4165927494
 11
-8.5441619011
 21
8.4165927494
  0
LINE
  5
530
100
AcDbEntity
  8
CURVE
100
AcDbLine
 62
253
  6
CONTINUOUS
 10
-9.3566619011
 20
8.6040927494
 11
-9.5441619011
 21
8.6040927494
  0
LINE
  5
531
100
AcDbEntity
  8
CURVE
100
AcDbLine
 62
253
  6
CONTINUOUS
 10
-12.4816619011
 20
7.4255213047
 11
-12.2102333176
 21
7.1540927494
  0
LINE
  5
532
100
AcDbEntity
  8
SMUSSO
100
AcDbLine
 62
7
  6
CONTINUOUS
 10
-18.7316619011
 20
14.8540927494
 11
-18.2316619011
 21
14.3540927494
  0
LINE
  5
533
100
AcDbEntity
  8
ASSI
100
AcDbLine
 62
7
  6
CONTINUOUS
 10
-18.7316619011
 20
14.8540927494
 11
-18.2316619011
 21
14.3540927494
  0
LWPOLYLINE
  5
534
100
AcDbEntity
  8
0
100
AcDbPolyline
 62
7
  6
CONTINUOUS
 90
4
 70
0
 10
-11.2316619011
 20
-15.6459114814
 10
-11.2313787509
 20
-15.6578067666
 10
-11.2305299354
 20
-15.6696751062
 10
-11.2291173753
 20
-15.6814896167
  0
LWPOLYLINE
  5
535
100
AcDbEntity
  8
0
100
AcDbPolyline
 62
7
  6
CONTINUOUS
 90
34
 70
0
 10
-11.2272900671
 20
-15.6415396474
 10
-11.2270065163
 20
-15.6534346689
 10
-11.2261573114
 20
-15.6653027456
 10
-11.224744376
 20
-15.6771169935
 10
-11.2227709107
 20
-15.6888506507
 10
-11.2202413859
 20
-15.700477138
 10
-11.2171615315
 20
-15.7119701186
 10
-11.2135383241
 20
-15.7233035584
 10
-11.2093799711
 20
-15.7344517846
 10
-11.204695892
 20
-15.745389544
 10
-11.1994966974
 20
-15.7560920602
 10
-11.1937941645
 20
-15.7665350895
 10
-11.187601211
 20
-15.7766949761
 10
-11.1809318651
 20
-15.7865487056
 10
-11.1738012346
 20
-15.796073957
 10
-11.1662254718
 20
-15.8052491537
 10
-11.1582217376
 20
-15.8140535116
 10
-11.1498081622
 20
-15.822467087
 10
-11.1410038042
 20
-15.8304708213
 10
-11.1318286076
 20
-15.838046584
 10
-11.1223033561
 20
-15.8451772146
 10
-11.1124496266
 20
-15.8518465604
 10
-11.10228974
 20
-15.858039514
 10
-11.0918467107
 20
-15.8637420468
 10
-11.0811441946
 20
-15.8689412415
 10
-11.0702064352
 20
-15.8736253206
 10
-11.0590582089
 20
-15.8777836736
 10
-11.0477247691
 20
-15.881406881
 10
-11.0362317885
 20
-15.8844867354
 10
-11.0246053013
 20
-15.8870162602
 10
-11.012871644
 20
-15.8889897254
 10
-11.0010573961
 20
-15.8904026609
 10
-10.9891893195
 20
-15.8912518658
 10
-10.9772942979
 20
-15.8915354166
  0
LINE
  5
536
100
AcDbEntity
  8
0
100
AcDbLine
 62
253
  6
CONTINUOUS
 10
-11.2272900671
 20
-15.2402448179
 11
-11.2316619011
 21
-14.8063923988
  0
LINE
  5
537
100
AcDbEntity
  8
0
100
AcDbLine
 62
253
  6
CONTINUOUS
 10
-10.9772942979
 20
-15.0237384669
 11
-10.982384899
 21
-14.5185569814
  0
LINE
  5
538
100
AcDbEntity
  8
CURVE
100
AcDbLine
 62
253
  6
CONTINUOUS
 10
-12.4816619011
 20
22.9040927494
 11
-12.4816619011
 21
22.2255213047
  0
LINE
  5
539
100
AcDbEntity
  8
CURVE
100
AcDbLine
 62
253
  6
CONTINUOUS
 10
-12.4816619011
 20
7.9683784576
 11
-12.4816619011
 21
7.4255213047
  0
LINE
  5
53A
100
AcDbEntity
  8
DRAFT
100
AcDbLine
 62
7
  6
CONTINUOUS
 10
-11.9772984672
 20
-11.4002706845
 11
-11.9772984672
 21
-11.1002706845
  0
LINE
  5
53B
100
AcDbEntity
  8
DRAFT
100
AcDbLine
 62
7
  6
CONTINUOUS
 10
-11.9772984672
 20
28.3084561833
 11
-11.9772984672
 21
28.6084561833
  0
LINE
  5
53C
100
AcDbEntity
  8
DRAFT
100
AcDbLine
 62
7
  6
CONTINUOUS
 10
-11.8769394876
 20
-11.5006296641
 11
-11.8769394876
 21
-11.2006296641
  0
LINE
  5
53D
100
AcDbEntity
  8
DRAFT
100
AcDbLine
 62
7
  6
CONTINUOUS
 10
-11.8769394876
 20
28.4088151629
 11
-11.8769394876
 21
28.7088151629
  0
LINE
  5
53E
100
AcDbEntity
  8
CURVE
100
AcDbLine
 62
253
  6
CONTINUOUS
 10
-11.6673761788
 20
17.4255213047
 11
-11.6673761788
 21
18.1040927494
  0
LINE
  5
53F
100
AcDbEntity
  8
DRAFT
100
AcDbLine
 62
7
  6
CONTINUOUS
 10
-11.2863843146
 20
-12.3919027963
 11
-11.2863843146
 21
-11.2006296641
  0
LINE
  5
540
100
AcDbEntity
  8
DRAFT
100
AcDbLine
 62
7
  6
CONTINUOUS
 10
-11.2863843146
 20
28.4088151629
 11
-11.2863843146
 21
29.6000882951
  0
LINE
  5
541
100
AcDbEntity
  8
0
100
AcDbLine
 62
7
  6
CONTINUOUS
 10
-11.2316619011
 20
-15.2402448179
 11
-11.2316619011
 21
-13.7959072506
  0
LINE
  5
542
100
AcDbEntity
  8
0
100
AcDbLine
 62
7
  6
CONTINUOUS
 10
-11.2316619011
 20
31.0040927494
 11
-11.2316619011
 21
32.4484303167
  0
LINE
  5
543
100
AcDbEntity
  8
0
100
AcDbLine
 62
7
  6
CONTINUOUS
 10
-11.2272900671
 20
32.8497251462
 11
-11.2272900671
 21
32.4484303167
  0
LINE
  5
544
100
AcDbEntity
  8
0
100
AcDbLine
 62
7
  6
CONTINUOUS
 10
-11.2272900671
 20
-15.2402448179
 11
-11.2272900671
 21
-15.6415396474
  0
LINE
  5
545
100
AcDbEntity
  8
DRAFT
100
AcDbLine
 62
7
  6
CONTINUOUS
 10
-11.186025335
 20
-11.1002706845
 11
-11.186025335
 21
-11.3959072506
  0
LINE
  5
546
100
AcDbEntity
  8
DRAFT
100
AcDbLine
 62
7
  6
CONTINUOUS
 10
-11.186025335
 20
28.3084561833
 11
-11.186025335
 21
28.6040927494
  0
LINE
  5
547
100
AcDbEntity
  8
DRAFT
100
AcDbLine
 62
7
  6
CONTINUOUS
 10
-11.1816619011
 20
29.5040927494
 11
-11.1816619011
 21
28.6040927494
  0
LINE
  5
548
100
AcDbEntity
  8
DRAFT
100
AcDbLine
 62
7
  6
CONTINUOUS
 10
-11.1816619011
 20
-11.3959072506
 11
-11.1816619011
 21
-12.2959072506
  0
LINE
  5
549
100
AcDbEntity
  8
0
100
AcDbLine
 62
7
  6
CONTINUOUS
 10
-11.0816619011
 20
29.4540927494
 11
-11.0816619011
 21
28.3040927494
  0
LINE
  5
54A
100
AcDbEntity
  8
DRAFT
100
AcDbLine
 62
7
  6
CONTINUOUS
 10
-11.0816619011
 20
29.4540927494
 11
-11.0816619011
 21
28.3040927494
  0
LINE
  5
54B
100
AcDbEntity
  8
0
100
AcDbLine
 62
7
  6
CONTINUOUS
 10
-11.0816619011
 20
-11.0959072506
 11
-11.0816619011
 21
-12.2459072506
  0
LINE
  5
54C
100
AcDbEntity
  8
DRAFT
100
AcDbLine
 62
7
  6
CONTINUOUS
 10
-11.0816619011
 20
-11.0959072506
 11
-11.0816619011
 21
-12.2459072506
  0
LINE
  5
54D
100
AcDbEntity
  8
0
100
AcDbLine
 62
7
  6
CONTINUOUS
 10
-11.0450062648
 20
29.4540927494
 11
-11.0450062648
 21
28.2674371131
  0
LINE
  5
54E
100
AcDbEntity
  8
DRAFT
100
AcDbLine
 62
7
  6
CONTINUOUS
 10
-11.0450062648
 20
29.4540927494
 11
-11.0450062648
 21
28.2674371131
  0
LINE
  5
54F
100
AcDbEntity
  8
0
100
AcDbLine
 62
7
  6
CONTINUOUS
 10
-11.0450062648
 20
-11.0592516142
 11
-11.0450062648
 21
-12.2459072506
  0
LINE
  5
550
100
AcDbEntity
  8
DRAFT
100
AcDbLine
 62
7
  6
CONTINUOUS
 10
-11.0450062648
 20
-11.0592516142
 11
-11.0450062648
 21
-12.2459072506
  0
LINE
  5
551
100
AcDbEntity
  8
0
100
AcDbLine
 62
253
  6
CONTINUOUS
 10
-10.9772942979
 20
-15.8915354166
 11
-10.9772942979
 21
-15.0237384669
  0
LINE
  5
552
100
AcDbEntity
  8
0
100
AcDbLine
 62
253
  6
CONTINUOUS
 10
-10.9772942979
 20
32.2319239658
 11
-10.9772942979
 21
33.0997209154
  0
LINE
  5
553
100
AcDbEntity
  8
0
100
AcDbLine
 62
253
  6
CONTINUOUS
 10
-10.9150162469
 20
29.9400796981
 11
-10.9150162469
 21
29.6000882951
  0
LINE
  5
554
100
AcDbEntity
  8
0
100
AcDbLine
 62
253
  6
CONTINUOUS
 10
-10.9150162469
 20
-12.3919027963
 11
-10.9150162469
 21
-12.7318941992
  0
LINE
  5
555
100
AcDbEntity
  8
CURVE
100
AcDbLine
 62
253
  6
CONTINUOUS
 10
-10.5816619011
 20
18.1040927494
 11
-10.5816619011
 21
17.4255213047
  0
LINE
  5
556
100
AcDbEntity
  8
CURVE
100
AcDbLine
 62
253
  6
CONTINUOUS
 10
-10.5816619011
 20
7.8326641658
 11
-10.5816619011
 21
7.289807027
  0
LINE
  5
557
100
AcDbEntity
  8
0
100
AcDbLine
 62
253
  6
CONTINUOUS
 10
-11.2316619011
 20
32.0145778976
 11
-11.2272900671
 21
32.4484303167
  0
LINE
  5
558
100
AcDbEntity
  8
0
100
AcDbLine
 62
253
  6
CONTINUOUS
 10
-10.982384899
 20
31.7267424802
 11
-10.9772942979
 21
32.2319239658
  0
LWPOLYLINE
  5
559
100
AcDbEntity
  8
0
100
AcDbPolyline
 62
253
  6
CONTINUOUS
 90
4
 70
0
 10
-20.4639083469
 20
-8.8549701565
 10
-20.4420470767
 20
-8.8126419202
 10
-20.4121218362
 20
-8.7741208289
 10
-20.3749840919
 20
-8.7407214215
  0
LWPOLYLINE
  5
55A
100
AcDbEntity
  8
RACCORDO
100
AcDbPolyline
 62
253
  6
CONTINUOUS
 90
4
 70
0
 10
-20.4639083469
 20
-8.8549701565
 10
-20.4420470767
 20
-8.8126419202
 10
-20.4121218362
 20
-8.7741208289
 10
-20.3749840919
 20
-8.7407214215
  0
LWPOLYLINE
  5
55B
100
AcDbEntity
  8
0
100
AcDbPolyline
 62
7
  6
CONTINUOUS
 90
5
 70
0
 10
-26.299348609
 20
-13.0932965128
 10
-26.2726997576
 20
-13.0538992013
 10
-26.2456924249
 20
-13.0141664522
 10
-26.2183266108
 20
-12.9741763717
 10
-26.1905392066
 20
-12.9340452111
  0
LWPOLYLINE
  5
55C
100
AcDbEntity
  8
0
100
AcDbPolyline
 62
7
  6
CONTINUOUS
 90
4
 70
0
 10
-26.1905392066
 20
-12.9340452111
 10
-26.1056571939
 20
-12.8129038074
 10
-26.0770669521
 20
-12.772373125
 10
-26.0483075554
 20
-12.7318941992
  0
LINE
  5
55D
100
AcDbEntity
  8
CURVE
100
AcDbLine
 62
253
  6
CONTINUOUS
 10
-11.938804734
 20
7.1540927494
 11
-11.1245190116
 21
8.1040927494
  0
LINE
  5
55E
100
AcDbEntity
  8
CURVE
100
AcDbLine
 62
253
  6
CONTINUOUS
 10
-12.3459476094
 20
8.1040927494
 11
-12.4816619011
 21
7.9683784576
  0
LINE
  5
55F
100
AcDbEntity
  8
CURVE
100
AcDbLine
 62
253
  6
CONTINUOUS
 10
-9.7316619011
 20
8.5415927494
 11
-9.8566619011
 21
8.4165927494
  0
LINE
  5
560
100
AcDbEntity
  8
CURVE
100
AcDbLine
 62
253
  6
CONTINUOUS
 10
-8.5441619011
 20
8.4165927494
 11
-8.6691619011
 21
8.3540927494
  0
LINE
  5
561
100
AcDbEntity
  8
CURVE
100
AcDbLine
 62
253
  6
CONTINUOUS
 10
-9.5441619011
 20
8.6040927494
 11
-9.7316619011
 21
8.5415927494
  0
LINE
  5
562
100
AcDbEntity
  8
0
100
AcDbLine
 62
7
  6
CONTINUOUS
 10
-14.9416619011
 20
9.1040927494
 11
-17.8816619011
 21
9.1040927494
  0
LINE
  5
563
100
AcDbEntity
  8
SMUSSO
100
AcDbLine
 62
7
  6
CONTINUOUS
 10
-18.2316619011
 20
9.6040927494
 11
-14.2316619011
 21
9.6040927494
  0
LINE
  5
564
100
AcDbEntity
  8
ASSI
100
AcDbLine
 62
7
  6
CONTINUOUS
 10
-18.2316619011
 20
9.6040927494
 11
-14.2316619011
 21
9.6040927494
  0
LINE
  5
565
100
AcDbEntity
  8
RACCORDO
100
AcDbLine
 62
7
  6
CONTINUOUS
 10
-29.1947407793
 20
9.7540927494
 11
-28.2816619011
 21
9.7540927494
  0
LINE
  5
566
100
AcDbEntity
  8
ASSI
100
AcDbLine
 62
7
  6
CONTINUOUS
 10
-29.1947407793
 20
9.7540927494
 11
-28.2816619011
 21
9.7540927494
  0
LINE
  5
567
100
AcDbEntity
  8
SMUSSO
100
AcDbLine
 62
7
  6
CONTINUOUS
 10
-18.7316619011
 20
10.1040927494
 11
-13.7316619011
 21
10.1040927494
  0
LINE
  5
568
100
AcDbEntity
  8
ASSI
100
AcDbLine
 62
7
  6
CONTINUOUS
 10
-18.7316619011
 20
10.1040927494
 11
-13.7316619011
 21
10.1040927494
  0
LINE
  5
569
100
AcDbEntity
  8
SMUSSO
100
AcDbLine
 62
7
  6
CONTINUOUS
 10
-13.7316619011
 20
10.3540927494
 11
-18.7316619011
 21
10.3540927494
  0
LINE
  5
56A
100
AcDbEntity
  8
ASSI
100
AcDbLine
 62
7
  6
CONTINUOUS
 10
-13.7316619011
 20
10.3540927494
 11
-18.7316619011
 21
10.3540927494
  0
LINE
  5
56B
100
AcDbEntity
  8
RACCORDO
100
AcDbLine
 62
7
  6
CONTINUOUS
 10
-29.1947407793
 20
10.4540927494
 11
-28.2816619011
 21
10.4540927494
  0
LINE
  5
56C
100
AcDbEntity
  8
ASSI
100
AcDbLine
 62
7
  6
CONTINUOUS
 10
-29.1947407793
 20
10.4540927494
 11
-28.2816619011
 21
10.4540927494
  0
LINE
  5
56D
100
AcDbEntity
  8
CURVE
100
AcDbLine
 62
253
  6
CONTINUOUS
 10
-9.1691619011
 20
8.5415927494
 11
-9.3566619011
 21
8.6040927494
  0
LINE
  5
56E
100
AcDbEntity
  8
CURVE
100
AcDbLine
 62
253
  6
CONTINUOUS
 10
-8.2941619011
 20
8.3540927494
 11
-8.4816619011
 21
8.4165927494
  0
LINE
  5
56F
100
AcDbEntity
  8
SMUSSO
100
AcDbLine
 62
7
  6
CONTINUOUS
 10
-13.7316619011
 20
10.3540927494
 11
-14.2316619011
 21
10.8540927494
  0
LINE
  5
570
100
AcDbEntity
  8
ASSI
100
AcDbLine
 62
7
  6
CONTINUOUS
 10
-13.7316619011
 20
10.3540927494
 11
-14.2316619011
 21
10.8540927494
  0
LINE
  5
571
100
AcDbEntity
  8
CURVE
100
AcDbLine
 62
253
  6
CONTINUOUS
 10
-10.8530904564
 20
8.1040927494
 11
-10.5816619011
 21
7.8326641658
  0
LINE
  5
572
100
AcDbEntity
  8
CURVE
100
AcDbLine
 62
253
  6
CONTINUOUS
 10
-9.7941619011
 20
7.4790927494
 11
-9.6691619011
 21
7.3540927494
  0
LWPOLYLINE
  5
573
100
AcDbEntity
  8
0
100
AcDbPolyline
 62
7
  6
CONTINUOUS
 90
3
 70
0
 10
-26.0483075554
 20
29.9400796981
 10
-26.0770669521
 20
29.9805586238
 10
-26.1056571939
 20
30.0210893062
  0
LWPOLYLINE
  5
574
100
AcDbEntity
  8
0
100
AcDbPolyline
 62
7
  6
CONTINUOUS
 90
6
 70
0
 10
-26.1056571939
 20
30.0210893062
 10
-26.1905392066
 20
30.1422307099
 10
-26.2183266108
 20
30.1823618705
 10
-26.2456924249
 20
30.222351951
 10
-26.2726997576
 20
30.2620847001
 10
-26.299348609
 20
30.3014820116
  0
LINE
  5
575
100
AcDbEntity
  8
CURVE
100
AcDbLine
 62
253
  6
CONTINUOUS
 10
-9.9191619011
 20
7.6665927494
 11
-9.7941619011
 21
7.4790927494
  0
LWPOLYLINE
  5
576
100
AcDbEntity
  8
0
100
AcDbPolyline
 62
253
  6
CONTINUOUS
 90
34
 70
0
 10
-11.2272900671
 20
32.4484303167
 10
-11.2269734164
 20
32.4381475492
 10
-11.2260932547
 20
32.4278879892
 10
-11.2246515684
 20
32.4176747921
 10
-11.2226516113
 20
32.4075310084
 10
-11.2200978973
 20
32.397479532
 10
-11.2169961899
 20
32.3875430485
 10
-11.2133534895
 20
32.377743984
 10
-11.2091780174
 20
32.3681044544
 10
-11.2044791975
 20
32.3586462155
 10
-11.1992676347
 20
32.349390614
 10
-11.1935550912
 20
32.3403585392
 10
-11.1873544598
 20
32.3315703761
 10
-11.1806797351
 20
32.323045959
 10
-11.1735459814
 20
32.3148045269
 10
-11.1659692993
 20
32.3068646804
 10
-11.1579667888
 20
32.2992443391
 10
-11.1495565113
 20
32.2919607018
 10
-11.140757448
 20
32.2850302072
 10
-11.1315894581
 20
32.278468497
 10
-11.1220732331
 20
32.2722903805
 10
-11.1122302507
 20
32.2665098015
 10
-11.1020827257
 20
32.2611398063
 10
-11.0916535606
 20
32.2561925148
 10
-11.0809662935
 20
32.2516790926
 10
-11.0700450447
 20
32.2476097264
 10
-11.0589144631
 20
32.2439936003
 10
-11.0475996695
 20
32.2408388758
 10
-11.0361262008
 20
32.2381526729
 10
-11.024519952
 20
32.2359410543
 10
-11.0128071177
 20
32.2342090114
 10
-11.0010141331
 20
32.2329604533
 10
-10.9891676142
 20
32.232198198
 10
-10.9772942979
 20
32.2319239658
  0
LWPOLYLINE
  5
577
100
AcDbEntity
  8
0
100
AcDbPolyline
 62
253
  6
CONTINUOUS
 90
34
 70
0
 10
-8.3360337351
 20
-15.2402448179
 10
-8.3363503971
 20
-15.2299618568
 10
-8.3372305914
 20
-15.2197021046
 10
-8.3386723312
 20
-15.2094887179
 10
-8.3406723613
 20
-15.1993447541
 10
-8.3432261682
 20
-15.1892931027
 10
-8.3463279936
 20
-15.179356434
 10
-8.3499708443
 20
-15.1695571636
 10
-8.3541464973
 20
-15.1599174223
 10
-8.3588455195
 20
-15.1504589893
 10
-8.3640572996
 20
-15.1412032201
 10
-8.3697700773
 20
-15.1321709969
 10
-8.3759709604
 20
-15.1233827018
 10
-8.3826459541
 20
-15.1148581692
 10
-8.3897799916
 20
-15.1066166404
 10
-8.3973569711
 20
-15.0986767165
 10
-8.4053597907
 20
-15.0910563184
 10
-8.4137703878
 20
-15.0837726452
 10
-8.4225697804
 20
-15.0768421356
 10
-8.4317381063
 20
-15.070280433
 10
-8.4412546738
 20
-15.0641023462
 10
-8.4510980099
 20
-15.0583218159
 10
-8.4612459113
 20
-15.0529518834
 10
-8.4716754622
 20
-15.0480046771
 10
-8.4823630899
 20
-15.0434913771
 10
-8.4932846497
 20
-15.0394221741
 10
-8.5044155095
 20
-15.0358062402
 10
-8.5157305731
 20
-15.0326517263
 10
-8.5272045951
 20
-15.0299656901
 10
-8.5388113925
 20
-15.0277542801
 10
-8.5505239014
 20
-15.0260225976
 10
-8.5623153783
 20
-15.0247744689
 10
-8.5741594891
 20
-15.0240125549
 10
-8.5860295044
 20
-15.0237384669
  0
LINE
  5
578
100
AcDbEntity
  8
0
100
AcDbLine
 62
253
  6
CONTINUOUS
 10
-10.4150923993
 20
30.0578281765
 11
-10.4150923993
 21
29.5958010136
  0
LINE
  5
579
100
AcDbEntity
  8
0
100
AcDbLine
 62
253
  6
CONTINUOUS
 10
-10.4150923993
 20
-12.3876155148
 11
-10.4150923993
 21
-12.8496426777
  0
LINE
  5
57A
100
AcDbEntity
  8
0
100
AcDbLine
 62
7
  6
CONTINUOUS
 10
-10.4150923993
 20
-12.9793377488
 11
-10.4150923993
 21
-12.966996094
  0
LINE
  5
57B
100
AcDbEntity
  8
0
100
AcDbLine
 62
7
  6
CONTINUOUS
 10
-10.4150923993
 20
-12.3046341184
 11
-10.4150923993
 21
-12.2959072506
  0
LINE
  5
57C
100
AcDbEntity
  8
0
100
AcDbLine
 62
7
  6
CONTINUOUS
 10
-10.4150923993
 20
29.5040927494
 11
-10.4150923993
 21
29.5128196172
  0
LINE
  5
57D
100
AcDbEntity
  8
0
100
AcDbLine
 62
7
  6
CONTINUOUS
 10
-10.4150923993
 20
30.1751815928
 11
-10.4150923993
 21
30.1875232476
  0
LINE
  5
57E
100
AcDbEntity
  8
0
100
AcDbLine
 62
7
  6
CONTINUOUS
 10
-10.2491169661
 20
30.0092061595
 11
-10.2491169661
 21
29.5128196172
  0
LINE
  5
57F
100
AcDbEntity
  8
0
100
AcDbLine
 62
7
  6
CONTINUOUS
 10
-10.2491169661
 20
-12.3046341184
 11
-10.2491169661
 21
-12.8010206607
  0
LINE
  5
580
100
AcDbEntity
  8
CURVE
100
AcDbLine
 62
253
  6
CONTINUOUS
 10
-9.9816619011
 20
8.1040927494
 11
-9.9816619011
 21
7.9165927494
  0
LINE
  5
581
100
AcDbEntity
  8
CURVE
100
AcDbLine
 62
253
  6
CONTINUOUS
 10
-9.4816619011
 20
21.0826642001
 11
-9.4816619011
 21
20.6183783973
  0
LINE
  5
582
100
AcDbEntity
  8
CURVE
100
AcDbLine
 62
253
  6
CONTINUOUS
 10
-9.4816619011
 20
14.9850450123
 11
-9.4816619011
 21
14.613616618
  0
LINE
  5
583
100
AcDbEntity
  8
CURVE
100
AcDbLine
 62
253
  6
CONTINUOUS
 10
-9.4816619011
 20
12.013616618
 11
-9.4816619011
 21
11.4564734066
  0
LINE
  5
584
100
AcDbEntity
  8
CURVE
100
AcDbLine
 62
253
  6
CONTINUOUS
 10
-9.4816619011
 20
13.6850450123
 11
-9.4816619011
 21
13.7779024208
  0
LINE
  5
585
100
AcDbEntity
  8
CURVE
100
AcDbLine
 62
253
  6
CONTINUOUS
 10
-9.4816619011
 20
19.7826642001
 11
-9.4816619011
 21
19.8755212987
  0
LINE
  5
586
100
AcDbEntity
  8
CURVE
100
AcDbLine
 62
253
  6
CONTINUOUS
 10
-9.4816619011
 20
21.4540927494
 11
-9.4816619011
 21
22.1040927494
  0
LINE
  5
587
100
AcDbEntity
  8
CURVE
100
AcDbLine
 62
253
  6
CONTINUOUS
 10
-8.8566619011
 20
7.9790927494
 11
-8.8566619011
 21
7.9165927494
  0
LINE
  5
588
100
AcDbEntity
  8
CURVE
100
AcDbLine
 62
253
  6
CONTINUOUS
 10
-8.7388047251
 20
13.0350450123
 11
-8.7388047251
 21
12.3850450123
  0
LINE
  5
589
100
AcDbEntity
  8
CURVE
100
AcDbLine
 62
253
  6
CONTINUOUS
 10
-8.7388047251
 20
14.613616618
 11
-8.7388047251
 21
14.9850450123
  0
LINE
  5
58A
100
AcDbEntity
  8
CURVE
100
AcDbLine
 62
253
  6
CONTINUOUS
 10
-8.7388047251
 20
20.7112356508
 11
-8.7388047251
 21
20.8969499255
  0
LINE
  5
58B
100
AcDbEntity
  8
RACCORDO
100
AcDbLine
 62
7
  6
CONTINUOUS
 10
-8.6842799615
 20
-10.9222151253
 11
-8.6842799615
 21
-10.9985255929
  0
LINE
  5
58C
100
AcDbEntity
  8
ASSI
100
AcDbLine
 62
7
  6
CONTINUOUS
 10
-8.6842799615
 20
-10.9222151253
 11
-8.6842799615
 21
-10.9985255929
  0
LINE
  5
58D
100
AcDbEntity
  8
0
100
AcDbLine
 62
253
  6
CONTINUOUS
 10
-8.5860295044
 20
-15.8915354166
 11
-8.5860295044
 21
-15.0237384669
  0
LINE
  5
58E
100
AcDbEntity
  8
0
100
AcDbLine
 62
253
  6
CONTINUOUS
 10
-8.5860295044
 20
32.2319239658
 11
-8.5860295044
 21
33.0997209154
  0
LWPOLYLINE
  5
58F
100
AcDbEntity
  8
0
100
AcDbPolyline
 62
253
  6
CONTINUOUS
 90
34
 70
0
 10
-11.2272900671
 20
-15.2402448179
 10
-11.2269739399
 20
-15.2299710401
 10
-11.2260950277
 20
-15.2197181297
 10
-11.2246549361
 20
-15.2095092198
 10
-11.2226563702
 20
-15.1993666205
 10
-11.2201035543
 20
-15.1893140309
 10
-11.2170026342
 20
-15.1793764102
 10
-11.2133609262
 20
-15.169576978
 10
-11.2091864208
 20
-15.1599370422
 10
-11.2044884402
 20
-15.1504781717
 10
-11.1992774837
 20
-15.1412216047
 10
-11.1935653425
 20
-15.1321883762
 10
-11.1873650102
 20
-15.1233990649
 10
-11.1806905342
 20
-15.1148735732
 10
-11.1735569364
 20
-15.1066310793
 10
-11.1659803024
 20
-15.098690172
 10
-11.1579777201
 20
-15.0910687674
 10
-11.1495672619
 20
-15.0837840831
 10
-11.1407679294
 20
-15.0768525798
 10
-11.1315995926
 20
-15.0702899087
 10
-11.1220829408
 20
-15.0641108787
 10
-11.1122394557
 20
-15.0583294375
 10
-11.1020913569
 20
-15.0529586355
 10
-11.091661552
 20
-15.0480105965
 10
-11.0809735847
 20
-15.04349649
 10
-11.070051568
 20
-15.0394265011
 10
-11.0589201688
 20
-15.0358098227
 10
-11.0476045545
 20
-15.0326546291
 10
-11.0361302966
 20
-15.0299680433
 10
-11.0245232708
 20
-15.0277561168
 10
-11.0128096371
 20
-15.0260238321
 10
-11.0010158223
 20
-15.0247750982
 10
-10.9891684616
 20
-15.0240127362
 10
-10.9772942979
 20
-15.0237384669
  0
LWPOLYLINE
  5
590
100
AcDbEntity
  8
0
100
AcDbPolyline
 62
253
  6
CONTINUOUS
 90
34
 70
0
 10
-8.3360337351
 20
32.4484303167
 10
-8.3363503859
 20
32.4381475492
 10
-8.3372305476
 20
32.4278879892
 10
-8.3386722339
 20
32.4176747921
 10
-8.340672191
 20
32.4075310084
 10
-8.343225905
 20
32.397479532
 10
-8.3463276124
 20
32.3875430485
 10
-8.3499703128
 20
32.377743984
 10
-8.3541457848
 20
32.3681044544
 10
-8.3588446047
 20
32.3586462155
 10
-8.3640561676
 20
32.349390614
 10
-8.3697687111
 20
32.3403585392
 10
-8.3759693424
 20
32.3315703761
 10
-8.3826440672
 20
32.323045959
 10
-8.3897778209
 20
32.3148045269
 10
-8.397354503
 20
32.3068646804
 10
-8.4053570134
 20
32.2992443391
 10
-8.413767291
 20
32.2919607018
 10
-8.4225663542
 20
32.2850302072
 10
-8.4317343442
 20
32.278468497
 10
-8.4412505691
 20
32.2722903805
 10
-8.4510935516
 20
32.2665098015
 10
-8.4612410766
 20
32.2611398063
 10
-8.4716702416
 20
32.2561925148
 10
-8.4823575088
 20
32.2516790926
 10
-8.4932787575
 20
32.2476097264
 10
-8.5044093392
 20
32.2439936003
 10
-8.5157241328
 20
32.2408388758
 10
-8.5271976015
 20
32.2381526729
 10
-8.5388038502
 20
32.2359410543
 10
-8.5505166845
 20
32.2342090114
 10
-8.5623096692
 20
32.2329604533
 10
-8.5741561881
 20
32.232198198
 10
-8.5860295044
 20
32.2319239658
  0
LINE
  5
591
100
AcDbEntity
  8
CURVE
100
AcDbLine
 62
253
  6
CONTINUOUS
 10
-9.9191619011
 20
8.2915927494
 11
-9.9816619011
 21
8.1040927494
  0
LINE
  5
592
100
AcDbEntity
  8
CURVE
100
AcDbLine
 62
253
  6
CONTINUOUS
 10
-8.7941619011
 20
8.1665927494
 11
-8.8566619011
 21
7.9790927494
  0
LINE
  5
593
100
AcDbEntity
  8
CURVE
100
AcDbLine
 62
253
  6
CONTINUOUS
 10
-9.8566619011
 20
8.4165927494
 11
-9.9191619011
 21
8.2915927494
  0
LINE
  5
594
100
AcDbEntity
  8
CURVE
100
AcDbLine
 62
253
  6
CONTINUOUS
 10
-8.7316619011
 20
8.2915927494
 11
-8.7941619011
 21
8.1665927494
  0
LINE
  5
595
100
AcDbEntity
  8
CURVE
100
AcDbLine
 62
253
  6
CONTINUOUS
 10
-10.5816619011
 20
7.289807027
 11
-10.7173762354
 21
7.1540927494
  0
LINE
  5
596
100
AcDbEntity
  8
CURVE
100
AcDbLine
 62
253
  6
CONTINUOUS
 10
-8.6691619011
 20
8.3540927494
 11
-8.7316619011
 21
8.2915927494
  0
LINE
  5
597
100
AcDbEntity
  8
SMUSSO
100
AcDbLine
 62
7
  6
CONTINUOUS
 10
-14.2316619011
 20
10.8540927494
 11
-18.2316619011
 21
10.8540927494
  0
LINE
  5
598
100
AcDbEntity
  8
ASSI
100
AcDbLine
 62
7
  6
CONTINUOUS
 10
-14.2316619011
 20
10.8540927494
 11
-18.2316619011
 21
10.8540927494
  0
LINE
  5
599
100
AcDbEntity
  8
0
100
AcDbLine
 62
7
  6
CONTINUOUS
 10
-17.8816619011
 20
11.1040927494
 11
-14.9416619011
 21
11.1040927494
  0
LINE
  5
59A
100
AcDbEntity
  8
CURVE
100
AcDbLine
 62
253
  6
CONTINUOUS
 10
-12.4816619011
 20
12.2540927494
 11
-10.5816619011
 21
12.2540927494
  0
LINE
  5
59B
100
AcDbEntity
  8
CURVE
100
AcDbLine
 62
253
  6
CONTINUOUS
 10
-8.1816619011
 20
12.3850450123
 11
-9.4816619011
 21
12.3850450123
  0
LINE
  5
59C
100
AcDbEntity
  8
CURVE
100
AcDbLine
 62
253
  6
CONTINUOUS
 10
-9.0441619011
 20
8.4165927494
 11
-9.1691619011
 21
8.5415927494
  0
LINE
  5
59D
100
AcDbEntity
  8
CURVE
100
AcDbLine
 62
253
  6
CONTINUOUS
 10
-8.1691619011
 20
8.2290927494
 11
-8.2941619011
 21
8.3540927494
  0
LINE
  5
59E
100
AcDbEntity
  8
SMUSSO
100
AcDbLine
 62
7
  6
CONTINUOUS
 10
-18.7316619011
 20
19.8540927494
 11
-18.2316619011
 21
19.3540927494
  0
LINE
  5
59F
100
AcDbEntity
  8
ASSI
100
AcDbLine
 62
7
  6
CONTINUOUS
 10
-18.7316619011
 20
19.8540927494
 11
-18.2316619011
 21
19.3540927494
  0
LINE
  5
5A0
100
AcDbEntity
  8
SMUSSO
100
AcDbLine
 62
7
  6
CONTINUOUS
 10
-13.7316619011
 20
15.3540927494
 11
-14.2316619011
 21
15.8540927494
  0
LINE
  5
5A1
100
AcDbEntity
  8
ASSI
100
AcDbLine
 62
7
  6
CONTINUOUS
 10
-13.7316619011
 20
15.3540927494
 11
-14.2316619011
 21
15.8540927494
  0
LINE
  5
5A2
100
AcDbEntity
  8
CURVE
100
AcDbLine
 62
253
  6
CONTINUOUS
 10
-8.9191619011
 20
8.1665927494
 11
-9.0441619011
 21
8.4165927494
  0
LINE
  5
5A3
100
AcDbEntity
  8
CURVE
100
AcDbLine
 62
253
  6
CONTINUOUS
 10
-9.9816619011
 20
7.9165927494
 11
-9.9191619011
 21
7.6665927494
  0
LINE
  5
5A4
100
AcDbEntity
  8
CURVE
100
AcDbLine
 62
253
  6
CONTINUOUS
 10
-8.8566619011
 20
7.9165927494
 11
-8.9191619011
 21
8.1665927494
  0
LWPOLYLINE
  5
5A5
100
AcDbEntity
  8
0
100
AcDbPolyline
 62
7
  6
CONTINUOUS
 90
34
 70
0
 10
-8.3360337351
 20
32.8497251462
 10
-8.336317364
 20
32.8616218051
 10
-8.3371668041
 20
32.8734915234
 10
-8.3385801329
 20
32.8853074057
 10
-8.3405541515
 20
32.8970426854
 10
-8.3430843886
 20
32.9086707647
 10
-8.3461651072
 20
32.9201652758
 10
-8.3497893243
 20
32.9315001683
 10
-8.3539488286
 20
32.9426497646
 10
-8.3586341929
 20
32.9535887982
 10
-8.3638348005
 20
32.9642924846
 10
-8.3695388658
 20
32.9747365698
 10
-8.3757334581
 20
32.984897382
 10
-8.3824045382
 20
32.9947518981
 10
-8.3895369892
 20
33.0042777923
 10
-8.3971146458
 20
33.0134534793
 10
-8.4051203399
 20
33.0222581749
 10
-8.4135359261
 20
33.0306719265
 10
-8.4223423177
 20
33.038675658
 10
-8.431519531
 20
33.0462512189
 10
-8.4410467924
 20
33.0533814723
 10
-8.4509025771
 20
33.0600503095
 10
-8.4610646527
 20
33.0662426719
 10
-8.4715099062
 20
33.0719444604
 10
-8.482214441
 20
33.0771426457
 10
-8.4931538422
 20
33.0818254193
 10
-8.5043034541
 20
33.0859822737
 10
-8.5156382192
 20
33.0896038835
 10
-8.5271341849
 20
33.0926824621
 10
-8.5387636201
 20
33.095210452
 10
-8.5504951148
 20
33.097181398
 10
-8.5623002903
 20
33.098591394
 10
-8.5741540328
 20
33.0994382957
 10
-8.5860295044
 20
33.0997209154
  0
LWPOLYLINE
  5
5A6
100
AcDbEntity
  8
0
100
AcDbPolyline
 62
7
  6
CONTINUOUS
 90
4
 70
0
 10
-8.3316619011
 20
32.8540969802
 10
-8.3319450514
 20
32.8659922654
 10
-8.3327938669
 20
32.877860605
 10
-8.334206427
 20
32.8896751155
  0
LWPOLYLINE
  5
5A7
100
AcDbEntity
  8
0
100
AcDbPolyline
 62
7
  6
CONTINUOUS
 90
40
 70
0
 10
-7.3316619011
 20
30.5038638973
 10
-7.3320607469
 20
30.5239926927
 10
-7.3332675749
 20
30.544083944
 10
-7.3352803342
 20
30.5641053224
 10
-7.3380953117
 20
30.5840206563
 10
-7.3417079585
 20
30.6038018906
 10
-7.3461142549
 20
30.6234288895
 10
-7.3513084782
 20
30.6428714056
 10
-7.3572831717
 20
30.6620961072
 10
-7.3640317167
 20
30.6810781177
 10
-7.3715493854
 20
30.6997967055
 10
-7.3798221601
 20
30.7182098406
 10
-7.388825187
 20
30.7362623436
 10
-7.398533455
 20
30.7539099614
 10
-7.4089376897
 20
30.7711411101
 10
-7.4200345922
 20
30.7879504392
 10
-7.4318188145
 20
30.8043248099
 10
-7.4442625566
 20
30.8202207599
 10
-7.457326948
 20
30.8355890069
 10
-7.4709750614
 20
30.8503910535
 10
-7.4851963214
 20
30.8646201125
 10
-7.4999898909
 20
30.8782754992
 10
-7.5153484165
 20
30.8913462817
 10
-7.5312338311
 20
30.9037960474
 10
-7.5475983458
 20
30.9155871962
 10
-7.5643991929
 20
30.9266921289
 10
-7.5816227212
 20
30.9371049491
 10
-7.599263387
 20
30.9468223024
 10
-7.617310632
 20
30.9558351744
 10
-7.6357192685
 20
30.9641178746
 10
-7.6544308003
 20
30.9716444254
 10
-7.6734001416
 20
30.978399908
 10
-7.692609257
 20
30.9843810846
 10
-7.7120386719
 20
30.9895834113
 10
-7.7316681902
 20
30.9940013347
 10
-7.7514547245
 20
30.9976250464
 10
-7.7713440339
 20
31.0004467173
 10
-7.7912961575
 20
31.0024644566
 10
-7.8112860019
 20
31.0036793755
 10
-7.8312813014
 20
31.0040927494
  0
LINE
  5
5A8
100
AcDbEntity
  8
0
100
AcDbLine
 62
253
  6
CONTINUOUS
 10
-8.5860295044
 20
32.2319239658
 11
-8.5809389033
 21
31.7267424802
  0
LINE
  5
5A9
100
AcDbEntity
  8
0
100
AcDbLine
 62
253
  6
CONTINUOUS
 10
-8.3360337351
 20
32.4484303167
 11
-8.3316619011
 21
32.0145778976
  0
LINE
  5
5AA
100
AcDbEntity
  8
CURVE
100
AcDbLine
 62
253
  6
CONTINUOUS
 10
-8.5530904504
 20
12.013616618
 11
-8.5530904504
 21
11.4564734066
  0
LINE
  5
5AB
100
AcDbEntity
  8
0
100
AcDbLine
 62
7
  6
CONTINUOUS
 10
-8.3360337351
 20
-15.6415396474
 11
-8.3360337351
 21
-15.2402448179
  0
LINE
  5
5AC
100
AcDbEntity
  8
0
100
AcDbLine
 62
7
  6
CONTINUOUS
 10
-8.3360337351
 20
32.4484303167
 11
-8.3360337351
 21
32.8497251462
  0
LINE
  5
5AD
100
AcDbEntity
  8
0
100
AcDbLine
 62
7
  6
CONTINUOUS
 10
-8.3316619011
 20
-15.2402448179
 11
-8.3316619011
 21
-13.7959072506
  0
LINE
  5
5AE
100
AcDbEntity
  8
0
100
AcDbLine
 62
7
  6
CONTINUOUS
 10
-8.3316619011
 20
31.0040927494
 11
-8.3316619011
 21
32.4484303167
  0
LINE
  5
5AF
100
AcDbEntity
  8
CURVE
100
AcDbLine
 62
253
  6
CONTINUOUS
 10
-8.1816619011
 20
19.8755212987
 11
-8.1816619011
 21
19.7826642001
  0
LINE
  5
5B0
100
AcDbEntity
  8
CURVE
100
AcDbLine
 62
253
  6
CONTINUOUS
 10
-8.1816619011
 20
14.9850450123
 11
-8.1816619011
 21
14.4279024208
  0
LINE
  5
5B1
100
AcDbEntity
  8
CURVE
100
AcDbLine
 62
253
  6
CONTINUOUS
 10
-8.1816619011
 20
13.7779024208
 11
-8.1816619011
 21
13.6850450123
  0
LINE
  5
5B2
100
AcDbEntity
  8
CURVE
100
AcDbLine
 62
253
  6
CONTINUOUS
 10
-8.1816619011
 20
20.7112356508
 11
-8.1816619011
 21
21.0826642001
  0
LINE
  5
5B3
100
AcDbEntity
  8
CURVE
100
AcDbLine
 62
253
  6
CONTINUOUS
 10
-8.1816619011
 20
21.639807024
 11
-8.1816619011
 21
21.9183784554
  0
LINE
  5
5B4
100
AcDbEntity
  8
CURVE
100
AcDbLine
 62
253
  6
CONTINUOUS
 10
-8.1066619011
 20
7.9165927494
 11
-8.1066619011
 21
8.0415927494
  0
LINE
  5
5B5
100
AcDbEntity
  8
RACCORDO
100
AcDbLine
 62
7
  6
CONTINUOUS
 10
-7.4685715994
 20
-9.3871316407
 11
-7.4685715994
 21
26.5953171395
  0
LINE
  5
5B6
100
AcDbEntity
  8
ASSI
100
AcDbLine
 62
7
  6
CONTINUOUS
 10
-7.4685715994
 20
-9.3871316407
 11
-7.4685715994
 21
26.5953171395
  0
LINE
  5
5B7
100
AcDbEntity
  8
0
100
AcDbLine
 62
7
  6
CONTINUOUS
 10
-7.4538473556
 20
-9.0169954269
 11
-7.4538473556
 21
26.2251809257
  0
LINE
  5
5B8
100
AcDbEntity
  8
RACCORDO
100
AcDbLine
 62
7
  6
CONTINUOUS
 10
-7.4538473556
 20
-9.0169954269
 11
-7.4538473556
 21
26.2251809257
  0
LINE
  5
5B9
100
AcDbEntity
  8
0
100
AcDbLine
 62
7
  6
CONTINUOUS
 10
-7.3491156367
 20
-9.9133609862
 11
-7.3491156367
 21
-9.3151966629
  0
LINE
  5
5BA
100
AcDbEntity
  8
0
100
AcDbLine
 62
7
  6
CONTINUOUS
 10
-7.3491156367
 20
26.5233821617
 11
-7.3491156367
 21
27.121546485
  0
LINE
  5
5BB
100
AcDbEntity
  8
0
100
AcDbLine
 62
7
  6
CONTINUOUS
 10
-7.3403887689
 20
30.4982918426
 11
-7.3403887689
 21
27.1128196172
  0
LINE
  5
5BC
100
AcDbEntity
  8
0
100
AcDbLine
 62
7
  6
CONTINUOUS
 10
-7.3403887689
 20
-9.9046341184
 11
-7.3403887689
 21
-13.2901063438
  0
LINE
  5
5BD
100
AcDbEntity
  8
0
100
AcDbLine
 62
7
  6
CONTINUOUS
 10
-7.3316619011
 20
-13.2959241736
 11
-7.3316619011
 21
30.5041096724
  0
LINE
  5
5BE
100
AcDbEntity
  8
RACCORDO
100
AcDbLine
 62
7
  6
CONTINUOUS
 10
-7.3316619011
 20
-9.0676062993
 11
-7.3316619011
 21
26.2757917981
  0
LINE
  5
5BF
100
AcDbEntity
  8
0
100
AcDbLine
 62
253
  6
CONTINUOUS
 10
-8.5809389033
 20
-14.5185569814
 11
-8.5860295044
 21
-15.0237384669
  0
LINE
  5
5C0
100
AcDbEntity
  8
0
100
AcDbLine
 62
253
  6
CONTINUOUS
 10
-8.3316619011
 20
-14.8063923988
 11
-8.3360337351
 21
-15.2402448179
  0
LWPOLYLINE
  5
5C1
100
AcDbEntity
  8
0
100
AcDbPolyline
 62
7
  6
CONTINUOUS
 90
40
 70
0
 10
-7.3316619011
 20
-13.2956783985
 10
-7.3320607469
 20
-13.3158071939
 10
-7.3332675749
 20
-13.3358984452
 10
-7.3352803342
 20
-13.3559198235
 10
-7.3380953117
 20
-13.3758351575
 10
-7.3417079585
 20
-13.3956163918
 10
-7.3461142549
 20
-13.4152433907
 10
-7.3513084782
 20
-13.4346859067
 10
-7.3572831717
 20
-13.4539106084
 10
-7.3640317167
 20
-13.4728926189
 10
-7.3715493854
 20
-13.4916112067
 10
-7.3798221601
 20
-13.5100243418
 10
-7.388825187
 20
-13.5280768448
 10
-7.398533455
 20
-13.5457244626
 10
-7.4089376897
 20
-13.5629556113
 10
-7.4200345922
 20
-13.5797649404
 10
-7.4318188145
 20
-13.5961393111
 10
-7.4442625566
 20
-13.6120352611
 10
-7.457326948
 20
-13.6274035081
 10
-7.4709750614
 20
-13.6422055547
 10
-7.4851963214
 20
-13.6564346137
 10
-7.4999898909
 20
-13.6700900004
 10
-7.5153484165
 20
-13.6831607829
 10
-7.5312338311
 20
-13.6956105486
 10
-7.5475983458
 20
-13.7074016974
 10
-7.5643991929
 20
-13.7185066301
 10
-7.5816227212
 20
-13.7289194503
 10
-7.599263387
 20
-13.7386368036
 10
-7.617310632
 20
-13.7476496756
 10
-7.6357192685
 20
-13.7559323758
 10
-7.6544308003
 20
-13.7634589266
 10
-7.6734001416
 20
-13.7702144092
 10
-7.692609257
 20
-13.7761955857
 10
-7.7120386719
 20
-13.7813979125
 10
-7.7316681902
 20
-13.7858158359
 10
-7.7514547245
 20
-13.7894395476
 10
-7.7713440339
 20
-13.7922612185
 10
-7.7912961575
 20
-13.7942789578
 10
-7.8112860019
 20
-13.7954938767
 10
-7.8312813014
 20
-13.7959072506
  0
LINE
  5
5C2
100
AcDbEntity
  8
CURVE
100
AcDbLine
 62
253
  6
CONTINUOUS
 10
-8.1691619011
 20
7.6665927494
 11
-8.1066619011
 21
7.9165927494
  0
LINE
  5
5C3
100
AcDbEntity
  8
CURVE
100
AcDbLine
 62
253
  6
CONTINUOUS
 10
-8.2316619011
 20
7.4790927494
 11
-8.1691619011
 21
7.6665927494
  0
LINE
  5
5C4
100
AcDbEntity
  8
CURVE
100
AcDbLine
 62
253
  6
CONTINUOUS
 10
-8.2941619011
 20
7.3540927494
 11
-8.2316619011
 21
7.4790927494
  0
LINE
  5
5C5
100
AcDbEntity
  8
DRAFT
100
AcDbLine
 62
7
  6
CONTINUOUS
 10
-25.0863843146
 20
-11.2006296641
 11
-24.986025335
 21
-11.1002706845
  0
LINE
  5
5C6
100
AcDbEntity
  8
DRAFT
100
AcDbLine
 62
7
  6
CONTINUOUS
 10
-25.0863843146
 20
-11.5006296641
 11
-24.986025335
 21
-11.4002706845
  0
LINE
  5
5C7
100
AcDbEntity
  8
CURVE
100
AcDbLine
 62
253
  6
CONTINUOUS
 10
-9.4816619011
 20
13.0350450123
 11
-8.1816619011
 21
13.0350450123
  0
LINE
  5
5C8
100
AcDbEntity
  8
CURVE
100
AcDbLine
 62
253
  6
CONTINUOUS
 10
-12.4816619011
 20
13.2040927494
 11
-10.5816619011
 21
13.2040927494
  0
LINE
  5
5C9
100
AcDbEntity
  8
CURVE
100
AcDbLine
 62
253
  6
CONTINUOUS
 10
-8.5530904504
 20
13.4064734066
 11
-9.1102333131
 21
13.4064734066
  0
LINE
  5
5CA
100
AcDbEntity
  8
CURVE
100
AcDbLine
 62
253
  6
CONTINUOUS
 10
-9.1102333131
 20
14.0564734066
 11
-8.5530904504
 21
14.0564734066
  0
LINE
  5
5CB
100
AcDbEntity
  8
0
100
AcDbLine
 62
7
  6
CONTINUOUS
 10
-14.9416619011
 20
14.1040927494
 11
-17.8816619011
 21
14.1040927494
  0
LINE
  5
5CC
100
AcDbEntity
  8
SMUSSO
100
AcDbLine
 62
7
  6
CONTINUOUS
 10
-18.2316619011
 20
14.3540927494
 11
-14.2316619011
 21
14.3540927494
  0
LINE
  5
5CD
100
AcDbEntity
  8
ASSI
100
AcDbLine
 62
7
  6
CONTINUOUS
 10
-18.2316619011
 20
14.3540927494
 11
-14.2316619011
 21
14.3540927494
  0
LINE
  5
5CE
100
AcDbEntity
  8
CURVE
100
AcDbLine
 62
253
  6
CONTINUOUS
 10
-9.2959476071
 20
14.4279024208
 11
-8.9245190385
 21
14.4279024208
  0
LINE
  5
5CF
100
AcDbEntity
  8
RACCORDO
100
AcDbLine
 62
7
  6
CONTINUOUS
 10
-29.1947407793
 20
14.7540927494
 11
-28.2816619011
 21
14.7540927494
  0
LINE
  5
5D0
100
AcDbEntity
  8
ASSI
100
AcDbLine
 62
7
  6
CONTINUOUS
 10
-29.1947407793
 20
14.7540927494
 11
-28.2816619011
 21
14.7540927494
  0
LINE
  5
5D1
100
AcDbEntity
  8
CURVE
100
AcDbLine
 62
253
  6
CONTINUOUS
 10
-9.1102333131
 20
13.4064734066
 11
-9.2959476071
 21
13.4993308151
  0
LINE
  5
5D2
100
AcDbEntity
  8
CURVE
100
AcDbLine
 62
253
  6
CONTINUOUS
 10
-8.5530904504
 20
11.4564734066
 11
-9.4816619011
 21
12.013616618
  0
LINE
  5
5D3
100
AcDbEntity
  8
DRAFT
100
AcDbLine
 62
7
  6
CONTINUOUS
 10
-25.0863843146
 20
28.4088151629
 11
-24.986025335
 21
28.3084561833
  0
LINE
  5
5D4
100
AcDbEntity
  8
DRAFT
100
AcDbLine
 62
7
  6
CONTINUOUS
 10
-25.0863843146
 20
28.7088151629
 11
-24.986025335
 21
28.6084561833
  0
LINE
  5
5D5
100
AcDbEntity
  8
CURVE
100
AcDbLine
 62
253
  6
CONTINUOUS
 10
-9.2959476071
 20
13.4993308151
 11
-9.4816619011
 21
13.6850450123
  0
LINE
  5
5D6
100
AcDbEntity
  8
CURVE
100
AcDbLine
 62
253
  6
CONTINUOUS
 10
-8.1066619011
 20
8.0415927494
 11
-8.1691619011
 21
8.2290927494
  0
LINE
  5
5D7
100
AcDbEntity
  8
0
100
AcDbLine
 62
7
  6
CONTINUOUS
 10
-21.9816619011
 20
-11.0959072506
 11
-21.9450062648
 21
-11.0592516142
  0
LINE
  5
5D8
100
AcDbEntity
  8
DRAFT
100
AcDbLine
 62
7
  6
CONTINUOUS
 10
-21.9816619011
 20
-11.0959072506
 11
-21.9450062648
 21
-11.0592516142
  0
LINE
  5
5D9
100
AcDbEntity
  8
0
100
AcDbLine
 62
7
  6
CONTINUOUS
 10
-21.9816619011
 20
-11.2959072506
 11
-21.9450062648
 21
-11.2592516142
  0
LINE
  5
5DA
100
AcDbEntity
  8
DRAFT
100
AcDbLine
 62
7
  6
CONTINUOUS
 10
-21.9816619011
 20
-11.2959072506
 11
-21.9450062648
 21
-11.2592516142
  0
LINE
  5
5DB
100
AcDbEntity
  8
0
100
AcDbLine
 62
7
  6
CONTINUOUS
 10
-25.6722035273
 20
-13.7318772761
 11
-25.7374797309
 21
-13.7900894208
  0
LINE
  5
5DC
100
AcDbEntity
  8
SMUSSO
100
AcDbLine
 62
7
  6
CONTINUOUS
 10
-18.7316619011
 20
14.8540927494
 11
-13.7316619011
 21
14.8540927494
  0
LINE
  5
5DD
100
AcDbEntity
  8
ASSI
100
AcDbLine
 62
7
  6
CONTINUOUS
 10
-18.7316619011
 20
14.8540927494
 11
-13.7316619011
 21
14.8540927494
  0
LINE
  5
5DE
100
AcDbEntity
  8
CURVE
100
AcDbLine
 62
253
  6
CONTINUOUS
 10
-8.7388047251
 20
14.9850450123
 11
-8.1816619011
 21
14.9850450123
  0
LINE
  5
5DF
100
AcDbEntity
  8
SMUSSO
100
AcDbLine
 62
7
  6
CONTINUOUS
 10
-13.7316619011
 20
15.3540927494
 11
-18.7316619011
 21
15.3540927494
  0
LINE
  5
5E0
100
AcDbEntity
  8
ASSI
100
AcDbLine
 62
7
  6
CONTINUOUS
 10
-13.7316619011
 20
15.3540927494
 11
-18.7316619011
 21
15.3540927494
  0
LINE
  5
5E1
100
AcDbEntity
  8
RACCORDO
100
AcDbLine
 62
7
  6
CONTINUOUS
 10
-29.1947407793
 20
15.4540927494
 11
-28.2816619011
 21
15.4540927494
  0
LINE
  5
5E2
100
AcDbEntity
  8
ASSI
100
AcDbLine
 62
7
  6
CONTINUOUS
 10
-29.1947407793
 20
15.4540927494
 11
-28.2816619011
 21
15.4540927494
  0
LINE
  5
5E3
100
AcDbEntity
  8
SMUSSO
100
AcDbLine
 62
7
  6
CONTINUOUS
 10
-14.2316619011
 20
15.8540927494
 11
-18.2316619011
 21
15.8540927494
  0
LINE
  5
5E4
100
AcDbEntity
  8
ASSI
100
AcDbLine
 62
7
  6
CONTINUOUS
 10
-14.2316619011
 20
15.8540927494
 11
-18.2316619011
 21
15.8540927494
  0
LINE
  5
5E5
100
AcDbEntity
  8
0
100
AcDbLine
 62
7
  6
CONTINUOUS
 10
-17.8816619011
 20
16.1040927494
 11
-14.9416619011
 21
16.1040927494
  0
LINE
  5
5E6
100
AcDbEntity
  8
CURVE
100
AcDbLine
 62
253
  6
CONTINUOUS
 10
-8.5530904504
 20
14.0564734066
 11
-8.3673761758
 21
13.963616618
  0
LINE
  5
5E7
100
AcDbEntity
  8
0
100
AcDbLine
 62
7
  6
CONTINUOUS
 10
-25.6722035273
 20
30.9400627749
 11
-25.7374797309
 21
30.9982749196
  0
LINE
  5
5E8
100
AcDbEntity
  8
CURVE
100
AcDbLine
 62
253
  6
CONTINUOUS
 10
-9.4816619011
 20
14.613616618
 11
-9.2959476071
 21
14.4279024208
  0
LINE
  5
5E9
100
AcDbEntity
  8
CURVE
100
AcDbLine
 62
253
  6
CONTINUOUS
 10
-8.3673761758
 20
13.963616618
 11
-8.1816619011
 21
13.7779024208
  0
LINE
  5
5EA
100
AcDbEntity
  8
CURVE
100
AcDbLine
 62
253
  6
CONTINUOUS
 10
-11.3959475669
 20
17.1540927494
 11
-11.6673761788
 21
17.4255213047
  0
LINE
  5
5EB
100
AcDbEntity
  8
SMUSSO
100
AcDbLine
 62
7
  6
CONTINUOUS
 10
-18.7316619011
 20
24.8540927494
 11
-18.2316619011
 21
24.3540927494
  0
LINE
  5
5EC
100
AcDbEntity
  8
ASSI
100
AcDbLine
 62
7
  6
CONTINUOUS
 10
-18.7316619011
 20
24.8540927494
 11
-18.2316619011
 21
24.3540927494
  0
LINE
  5
5ED
100
AcDbEntity
  8
0
100
AcDbLine
 62
7
  6
CONTINUOUS
 10
-21.9816619011
 20
28.3040927494
 11
-21.9450062648
 21
28.2674371131
  0
LINE
  5
5EE
100
AcDbEntity
  8
DRAFT
100
AcDbLine
 62
7
  6
CONTINUOUS
 10
-21.9816619011
 20
28.3040927494
 11
-21.9450062648
 21
28.2674371131
  0
LINE
  5
5EF
100
AcDbEntity
  8
0
100
AcDbLine
 62
7
  6
CONTINUOUS
 10
-21.9450062648
 20
28.4674371131
 11
-21.9816619011
 21
28.5040927494
  0
LINE
  5
5F0
100
AcDbEntity
  8
DRAFT
100
AcDbLine
 62
7
  6
CONTINUOUS
 10
-21.9450062648
 20
28.4674371131
 11
-21.9816619011
 21
28.5040927494
  0
LINE
  5
5F1
100
AcDbEntity
  8
SMUSSO
100
AcDbLine
 62
7
  6
CONTINUOUS
 10
-13.7316619011
 20
20.3540927494
 11
-14.2316619011
 21
20.8540927494
  0
LINE
  5
5F2
100
AcDbEntity
  8
ASSI
100
AcDbLine
 62
7
  6
CONTINUOUS
 10
-13.7316619011
 20
20.3540927494
 11
-14.2316619011
 21
20.8540927494
  0
LINE
  5
5F3
100
AcDbEntity
  8
CURVE
100
AcDbLine
 62
253
  6
CONTINUOUS
 10
-9.079280934
 20
18.0183785522
 11
-8.9864237967
 21
17.8017117823
  0
LINE
  5
5F4
100
AcDbEntity
  8
CURVE
100
AcDbLine
 62
253
  6
CONTINUOUS
 10
-9.1721380907
 20
17.5540927494
 11
-9.079280934
 21
17.3064737165
  0
LINE
  5
5F5
100
AcDbEntity
  8
0
100
AcDbLine
 62
7
  6
CONTINUOUS
 10
-22.8190018213
 20
-15.2617711546
 11
-22.799673439
 21
-15.2402620785
  0
LINE
  5
5F6
100
AcDbEntity
  8
0
100
AcDbLine
 62
7
  6
CONTINUOUS
 10
-22.799673439
 20
-15.2402620785
 11
-22.777527772
 21
-15.2159408769
  0
LINE
  5
5F7
100
AcDbEntity
  8
0
100
AcDbLine
 62
7
  6
CONTINUOUS
 10
-22.777527772
 20
-15.2159408769
 11
-22.7524553752
 21
-15.1886901787
  0
LINE
  5
5F8
100
AcDbEntity
  8
0
100
AcDbLine
 62
7
  6
CONTINUOUS
 10
-22.7524553752
 20
-15.1886901787
 11
-22.7244036166
 21
-15.1584694554
  0
LINE
  5
5F9
100
AcDbEntity
  8
0
100
AcDbLine
 62
7
  6
CONTINUOUS
 10
-22.7244036166
 20
-15.1584694554
 11
-22.6933725033
 21
-15.1252502484
  0
LINE
  5
5FA
100
AcDbEntity
  8
0
100
AcDbLine
 62
7
  6
CONTINUOUS
 10
-22.6933725033
 20
-15.1252502484
 11
-22.6414913837
 21
-15.0700844744
  0
LINE
  5
5FB
100
AcDbEntity
  8
0
100
AcDbLine
 62
7
  6
CONTINUOUS
 10
-22.6414913837
 20
-15.0700844744
 11
-22.6036791261
 21
-15.0300964077
  0
LINE
  5
5FC
100
AcDbEntity
  8
0
100
AcDbLine
 62
7
  6
CONTINUOUS
 10
-22.6036791261
 20
-15.0300964077
 11
-22.5217702359
 21
-14.9437526911
  0
LINE
  5
5FD
100
AcDbEntity
  8
0
100
AcDbLine
 62
7
  6
CONTINUOUS
 10
-22.5217702359
 20
-14.9437526911
 11
-22.4347046111
 21
-14.8522650653
  0
LINE
  5
5FE
100
AcDbEntity
  8
0
100
AcDbLine
 62
7
  6
CONTINUOUS
 10
-22.9316619011
 20
-13.7959072506
 11
-22.8877396541
 21
-13.7519850035
  0
LINE
  5
5FF
100
AcDbEntity
  8
0
100
AcDbLine
 62
7
  6
CONTINUOUS
 10
-22.8880112543
 20
-15.3522566037
 11
-22.9316619011
 21
-15.3959072506
  0
LINE
  5
600
100
AcDbEntity
  8
0
100
AcDbLine
 62
253
  6
CONTINUOUS
 10
-29.6316619011
 20
-13.2959241736
 11
-29.6229350333
 21
-13.2901063438
  0
LINE
  5
601
100
AcDbEntity
  8
0
100
AcDbLine
 62
253
  6
CONTINUOUS
 10
-29.1316682472
 20
-13.7959072506
 11
-29.1229413794
 21
-13.7900894208
  0
LINE
  5
602
100
AcDbEntity
  8
0
100
AcDbLine
 62
253
  6
CONTINUOUS
 10
-29.6316619011
 20
-9.0676062993
 11
-29.5094764466
 21
-9.0169954269
  0
LINE
  5
603
100
AcDbEntity
  8
RACCORDO
100
AcDbLine
 62
253
  6
CONTINUOUS
 10
-29.6316619011
 20
-9.0676062993
 11
-29.5094764466
 21
-9.0169954269
  0
LINE
  5
604
100
AcDbEntity
  8
CURVE
100
AcDbLine
 62
253
  6
CONTINUOUS
 10
-10.8530904564
 20
17.1540927494
 11
-11.3959475669
 21
17.1540927494
  0
LINE
  5
605
100
AcDbEntity
  8
CURVE
100
AcDbLine
 62
7
  6
CONTINUOUS
 10
-21.4336219011
 20
17.5865367494
 11
-22.1844419011
 21
17.5865367494
  0
LINE
  5
606
100
AcDbEntity
  8
CURVE
100
AcDbLine
 62
7
  6
CONTINUOUS
 10
-25.7788819011
 20
17.5865367494
 11
-26.5297019011
 21
17.5865367494
  0
LINE
  5
607
100
AcDbEntity
  8
CURVE
100
AcDbLine
 62
7
  6
CONTINUOUS
 10
-23.6066619011
 20
17.9865367494
 11
-24.3566619011
 21
17.9865367494
  0
LINE
  5
608
100
AcDbEntity
  8
CURVE
100
AcDbLine
 62
253
  6
CONTINUOUS
 10
-12.4816619011
 20
18.1040927494
 11
-10.5816619011
 21
18.1040927494
  0
LINE
  5
609
100
AcDbEntity
  8
0
100
AcDbLine
 62
253
  6
CONTINUOUS
 10
-29.5094764466
 20
26.2251809257
 11
-29.6316619011
 21
26.2757917981
  0
LINE
  5
60A
100
AcDbEntity
  8
RACCORDO
100
AcDbLine
 62
253
  6
CONTINUOUS
 10
-29.5094764466
 20
26.2251809257
 11
-29.6316619011
 21
26.2757917981
  0
LINE
  5
60B
100
AcDbEntity
  8
0
100
AcDbLine
 62
253
  6
CONTINUOUS
 10
-29.6229350333
 20
30.4982918426
 11
-29.6316619011
 21
30.5041096724
  0
LINE
  5
60C
100
AcDbEntity
  8
0
100
AcDbLine
 62
253
  6
CONTINUOUS
 10
-29.1229413794
 20
30.9982749196
 11
-29.1316682472
 21
31.0040927494
  0
LINE
  5
60D
100
AcDbEntity
  8
0
100
AcDbLine
 62
7
  6
CONTINUOUS
 10
-22.9316619011
 20
31.0040927494
 11
-22.8877396541
 21
30.9601705024
  0
LINE
  5
60E
100
AcDbEntity
  8
0
100
AcDbLine
 62
7
  6
CONTINUOUS
 10
-22.8880112543
 20
32.5604421025
 11
-22.9316619011
 21
32.6040927494
  0
LINE
  5
60F
100
AcDbEntity
  8
0
100
AcDbLine
 62
7
  6
CONTINUOUS
 10
-22.456731835
 20
32.0836708208
 11
-22.5217298462
 21
32.1518954701
  0
LINE
  5
610
100
AcDbEntity
  8
0
100
AcDbLine
 62
7
  6
CONTINUOUS
 10
-22.4347046111
 20
32.0604505641
 11
-22.456731835
 21
32.0836708208
  0
LINE
  5
611
100
AcDbEntity
  8
0
100
AcDbLine
 62
7
  6
CONTINUOUS
 10
-22.5217298462
 20
32.1518954701
 11
-22.6036318548
 21
32.238231902
  0
LINE
  5
612
100
AcDbEntity
  8
0
100
AcDbLine
 62
7
  6
CONTINUOUS
 10
-22.6036318548
 20
32.238231902
 11
-22.6593742056
 21
32.2972556298
  0
LINE
  5
613
100
AcDbEntity
  8
0
100
AcDbLine
 62
7
  6
CONTINUOUS
 10
-22.6593742056
 20
32.2972556298
 11
-22.709133429
 21
32.3502835848
  0
LINE
  5
614
100
AcDbEntity
  8
0
100
AcDbLine
 62
7
  6
CONTINUOUS
 10
-22.709133429
 20
32.3502835848
 11
-22.7386789919
 21
32.3820039051
  0
LINE
  5
615
100
AcDbEntity
  8
0
100
AcDbLine
 62
7
  6
CONTINUOUS
 10
-22.7386789919
 20
32.3820039051
 11
-22.7652469203
 21
32.4107486661
  0
LINE
  5
616
100
AcDbEntity
  8
0
100
AcDbLine
 62
7
  6
CONTINUOUS
 10
-22.7652469203
 20
32.4107486661
 11
-22.788846726
 21
32.4365158138
  0
LWPOLYLINE
  5
617
100
AcDbEntity
  8
0
100
AcDbPolyline
 62
7
  6
CONTINUOUS
 90
19
 70
0
 10
-22.788846726
 20
32.4365158138
 10
-22.8095732539
 20
32.4594292623
 10
-22.8188873875
 20
32.4698284983
 10
-22.8275327155
 20
32.4795759766
 10
-22.8355159756
 20
32.488666725
 10
-22.842856163
 20
32.4971057157
 10
-22.8495916239
 20
32.504959327
 10
-22.855728795
 20
32.5122292428
 10
-22.861282464
 20
32.5189137791
 10
-22.8662908031
 20
32.525074262
 10
-22.8707625646
 20
32.5307223723
 10
-22.87469675
 20
32.5358464293
 10
-22.878106103
 20
32.5404727167
 10
-22.8809947582
 20
32.5446042488
 10
-22.8833641859
 20
32.5482380114
 10
-22.8852195532
 20
32.551391246
 10
-22.8865646616
 20
32.5540696996
 10
-22.8874031321
 20
32.5562676251
 10
-22.8877396541
 20
32.5579850225
  0
LINE
  5
618
100
AcDbEntity
  8
CURVE
100
AcDbLine
 62
253
  6
CONTINUOUS
 10
-8.7388047251
 20
20.7112356508
 11
-8.6459476265
 21
20.5564737165
  0
LWPOLYLINE
  5
619
100
AcDbEntity
  8
0
100
AcDbPolyline
 62
7
  6
CONTINUOUS
 90
6
 70
0
 10
-8.334206427
 20
32.8896751155
 10
-8.3361795334
 20
32.9014090369
 10
-8.3387087194
 20
32.9130357882
 10
-8.3417882594
 20
32.9245290284
 10
-8.3454111798
 20
32.9358627232
 10
-8.3495692754
 20
32.9470111987
  0
LWPOLYLINE
  5
61A
100
AcDbEntity
  8
0
100
AcDbPolyline
 62
253
  6
CONTINUOUS
 90
3
 70
0
 10
-20.3749840919
 20
-8.7407214215
 10
-20.3319385578
 20
-8.7136712905
 10
-20.2844138377
 20
-8.6938087944
  0
LWPOLYLINE
  5
61B
100
AcDbEntity
  8
RACCORDO
100
AcDbPolyline
 62
253
  6
CONTINUOUS
 90
3
 70
0
 10
-20.3749840919
 20
-8.7407214215
 10
-20.3319385578
 20
-8.7136712905
 10
-20.2844138377
 20
-8.6938087944
  0
LINE
  5
61C
100
AcDbEntity
  8
0
100
AcDbLine
 62
253
  6
CONTINUOUS
 10
-29.0459646816
 20
-10.4816044701
 11
-28.9237792271
 21
-10.4309935977
  0
LINE
  5
61D
100
AcDbEntity
  8
RACCORDO
100
AcDbLine
 62
253
  6
CONTINUOUS
 10
-29.0459646816
 20
-10.4816044701
 11
-28.9237792271
 21
-10.4309935977
  0
LINE
  5
61E
100
AcDbEntity
  8
0
100
AcDbLine
 62
7
  6
CONTINUOUS
 10
-14.9416619011
 20
19.1040927494
 11
-17.8816619011
 21
19.1040927494
  0
LINE
  5
61F
100
AcDbEntity
  8
SMUSSO
100
AcDbLine
 62
7
  6
CONTINUOUS
 10
-18.2316619011
 20
19.3540927494
 11
-14.2316619011
 21
19.3540927494
  0
LINE
  5
620
100
AcDbEntity
  8
ASSI
100
AcDbLine
 62
7
  6
CONTINUOUS
 10
-18.2316619011
 20
19.3540927494
 11
-14.2316619011
 21
19.3540927494
  0
LINE
  5
621
100
AcDbEntity
  8
CURVE
100
AcDbLine
 62
253
  6
CONTINUOUS
 10
-8.5530904504
 20
19.5040927494
 11
-9.1102333131
 21
19.5040927494
  0
LINE
  5
622
100
AcDbEntity
  8
RACCORDO
100
AcDbLine
 62
7
  6
CONTINUOUS
 10
-29.1947407793
 20
19.7540927494
 11
-28.2816619011
 21
19.7540927494
  0
LINE
  5
623
100
AcDbEntity
  8
ASSI
100
AcDbLine
 62
7
  6
CONTINUOUS
 10
-29.1947407793
 20
19.7540927494
 11
-28.2816619011
 21
19.7540927494
  0
LINE
  5
624
100
AcDbEntity
  8
SMUSSO
100
AcDbLine
 62
7
  6
CONTINUOUS
 10
-18.7316619011
 20
19.8540927494
 11
-13.7316619011
 21
19.8540927494
  0
LINE
  5
625
100
AcDbEntity
  8
ASSI
100
AcDbLine
 62
7
  6
CONTINUOUS
 10
-18.7316619011
 20
19.8540927494
 11
-13.7316619011
 21
19.8540927494
  0
LINE
  5
626
100
AcDbEntity
  8
CURVE
100
AcDbLine
 62
253
  6
CONTINUOUS
 10
-9.1102333131
 20
20.1540927494
 11
-8.5530904504
 21
20.1540927494
  0
LINE
  5
627
100
AcDbEntity
  8
SMUSSO
100
AcDbLine
 62
7
  6
CONTINUOUS
 10
-13.7316619011
 20
20.3540927494
 11
-18.7316619011
 21
20.3540927494
  0
LINE
  5
628
100
AcDbEntity
  8
ASSI
100
AcDbLine
 62
7
  6
CONTINUOUS
 10
-13.7316619011
 20
20.3540927494
 11
-18.7316619011
 21
20.3540927494
  0
LINE
  5
629
100
AcDbEntity
  8
RACCORDO
100
AcDbLine
 62
7
  6
CONTINUOUS
 10
-29.1947407793
 20
20.4540927494
 11
-28.2816619011
 21
20.4540927494
  0
LINE
  5
62A
100
AcDbEntity
  8
ASSI
100
AcDbLine
 62
7
  6
CONTINUOUS
 10
-29.1947407793
 20
20.4540927494
 11
-28.2816619011
 21
20.4540927494
  0
LINE
  5
62B
100
AcDbEntity
  8
CURVE
100
AcDbLine
 62
253
  6
CONTINUOUS
 10
-9.3888047541
 20
20.5255212987
 11
-8.9245190385
 21
20.5255212987
  0
LINE
  5
62C
100
AcDbEntity
  8
CURVE
100
AcDbLine
 62
253
  6
CONTINUOUS
 10
-8.6459476265
 20
20.5564737165
 11
-8.3673761758
 21
20.5564737165
  0
LINE
  5
62D
100
AcDbEntity
  8
CURVE
100
AcDbLine
 62
253
  6
CONTINUOUS
 10
-9.4816619011
 20
18.7612356508
 11
-8.1816619011
 21
18.3898069466
  0
LINE
  5
62E
100
AcDbEntity
  8
0
100
AcDbLine
 62
253
  6
CONTINUOUS
 10
-28.9237792271
 20
27.6391790965
 11
-29.0459646816
 21
27.6897899689
  0
LINE
  5
62F
100
AcDbEntity
  8
RACCORDO
100
AcDbLine
 62
253
  6
CONTINUOUS
 10
-28.9237792271
 20
27.6391790965
 11
-29.0459646816
 21
27.6897899689
  0
LINE
  5
630
100
AcDbEntity
  8
CURVE
100
AcDbLine
 62
253
  6
CONTINUOUS
 10
-9.1102333131
 20
19.5040927494
 11
-9.2959476071
 21
19.596949848
  0
LWPOLYLINE
  5
631
100
AcDbEntity
  8
0
100
AcDbPolyline
 62
253
  6
CONTINUOUS
 90
4
 70
0
 10
-20.3749840919
 20
25.9489069203
 10
-20.3319385578
 20
25.9218567893
 10
-20.2844138377
 20
25.9019942932
 10
-20.2338043664
 20
25.8898486754
  0
LWPOLYLINE
  5
632
100
AcDbEntity
  8
RACCORDO
100
AcDbPolyline
 62
253
  6
CONTINUOUS
 90
4
 70
0
 10
-20.3749840919
 20
25.9489069203
 10
-20.3319385578
 20
25.9218567893
 10
-20.2844138377
 20
25.9019942932
 10
-20.2338043664
 20
25.8898486754
  0
LINE
  5
633
100
AcDbEntity
  8
CURVE
100
AcDbLine
 62
253
  6
CONTINUOUS
 10
-9.2959476071
 20
19.596949848
 11
-9.4816619011
 21
19.7826642001
  0
LINE
  5
634
100
AcDbEntity
  8
CURVE
100
AcDbLine
 62
253
  6
CONTINUOUS
 10
-9.4816619011
 20
20.6183783973
 11
-9.3888047541
 21
20.5255212987
  0
LINE
  5
635
100
AcDbEntity
  8
CURVE
100
AcDbLine
 62
253
  6
CONTINUOUS
 10
-8.3673761758
 20
20.0612356508
 11
-8.1816619011
 21
19.8755212987
  0
LWPOLYLINE
  5
636
100
AcDbEntity
  8
0
100
AcDbPolyline
 62
7
  6
CONTINUOUS
 90
9
 70
0
 10
-8.3495692754
 20
-15.7388256999
 10
-8.3454111798
 20
-15.7276772244
 10
-8.3417882594
 20
-15.7163435296
 10
-8.3387087194
 20
-15.7048502894
 10
-8.3361795334
 20
-15.6932235381
 10
-8.334206427
 20
-15.6814896167
 10
-8.3327938669
 20
-15.6696751062
 10
-8.3319450514
 20
-15.6578067666
 10
-8.3316619011
 20
-15.6459114814
  0
LWPOLYLINE
  5
637
100
AcDbEntity
  8
0
100
AcDbPolyline
 62
7
  6
CONTINUOUS
 90
5
 70
0
 10
-14.9475776234
 20
-15.301578623
 10
-14.9410526966
 20
-15.2939286695
 10
-14.9338621835
 20
-15.2855845874
 10
-14.9259882975
 20
-15.2765463768
 10
-14.9174167535
 20
-15.2668305692
  0
LINE
  5
638
100
AcDbEntity
  8
SMUSSO
100
AcDbLine
 62
7
  6
CONTINUOUS
 10
-14.2316619011
 20
20.8540927494
 11
-18.2316619011
 21
20.8540927494
  0
LINE
  5
639
100
AcDbEntity
  8
ASSI
100
AcDbLine
 62
7
  6
CONTINUOUS
 10
-14.2316619011
 20
20.8540927494
 11
-18.2316619011
 21
20.8540927494
  0
LINE
  5
63A
100
AcDbEntity
  8
0
100
AcDbLine
 62
7
  6
CONTINUOUS
 10
-17.8816619011
 20
21.1040927494
 11
-14.9416619011
 21
21.1040927494
  0
LINE
  5
63B
100
AcDbEntity
  8
CURVE
100
AcDbLine
 62
253
  6
CONTINUOUS
 10
-8.5530904504
 20
21.4540927494
 11
-8.3673761758
 21
21.4540927494
  0
LINE
  5
63C
100
AcDbEntity
  8
CURVE
100
AcDbLine
 62
7
  6
CONTINUOUS
 10
-21.4336219011
 20
21.9716467494
 11
-22.1844419011
 21
21.9716467494
  0
LINE
  5
63D
100
AcDbEntity
  8
CURVE
100
AcDbLine
 62
7
  6
CONTINUOUS
 10
-25.7788819011
 20
21.9716467494
 11
-26.5297019011
 21
21.9716467494
  0
LINE
  5
63E
100
AcDbEntity
  8
CURVE
100
AcDbLine
 62
253
  6
CONTINUOUS
 10
-8.5530904504
 20
20.1540927494
 11
-8.3673761758
 21
20.0612356508
  0
LINE
  5
63F
100
AcDbEntity
  8
CURVE
100
AcDbLine
 62
253
  6
CONTINUOUS
 10
-8.1816619011
 20
21.9183784554
 11
-8.4602333518
 21
22.1040927494
  0
LINE
  5
640
100
AcDbEntity
  8
CURVE
100
AcDbLine
 62
253
  6
CONTINUOUS
 10
-9.4816619011
 20
22.1040927494
 11
-8.5530904504
 21
21.4540927494
  0
LWPOLYLINE
  5
641
100
AcDbEntity
  8
0
100
AcDbPolyline
 62
7
  6
CONTINUOUS
 90
18
 70
0
 10
-8.3495692754
 20
32.9470111987
 10
-8.354253129
 20
32.9579491957
 10
-8.3594521323
 20
32.968651937
 10
-8.3651545095
 20
32.9790951777
 10
-8.371347343
 20
32.9892552553
 10
-8.3780166057
 20
32.9991091545
 10
-8.3851471904
 20
33.0086345532
 10
-8.3927229423
 20
33.0178098685
 10
-8.4007267007
 20
33.0266143155
 10
-8.409140335
 20
33.0350279499
 10
-8.4179447821
 20
33.0430317083
 10
-8.4271200973
 20
33.0506074601
 10
-8.436645496
 20
33.0577380449
 10
-8.4464993952
 20
33.0644073075
 10
-8.4566594729
 20
33.070600141
 10
-8.4671027135
 20
33.0763025182
 10
-8.4778054548
 20
33.0815015216
 10
-8.4887434518
 20
33.0861853752
  0
LINE
  5
642
100
AcDbEntity
  8
0
100
AcDbLine
 62
7
  6
CONTINUOUS
 10
-14.9174167535
 20
-15.2668305692
 11
-14.8981096822
 21
-15.2452669736
  0
LINE
  5
643
100
AcDbEntity
  8
0
100
AcDbLine
 62
7
  6
CONTINUOUS
 10
-14.8981096822
 20
-15.2452669736
 11
-14.8757894267
 21
-15.2206883694
  0
LINE
  5
644
100
AcDbEntity
  8
0
100
AcDbLine
 62
7
  6
CONTINUOUS
 10
-14.8757894267
 20
-15.2206883694
 11
-14.8505023267
 21
-15.1931648528
  0
LINE
  5
645
100
AcDbEntity
  8
0
100
AcDbLine
 62
7
  6
CONTINUOUS
 10
-14.8505023267
 20
-15.1931648528
 11
-14.8222780286
 21
-15.162722861
  0
LINE
  5
646
100
AcDbEntity
  8
0
100
AcDbLine
 62
7
  6
CONTINUOUS
 10
-14.8222780286
 20
-15.162722861
 11
-14.7912109331
 21
-15.1294434703
  0
LINE
  5
647
100
AcDbEntity
  8
0
100
AcDbLine
 62
7
  6
CONTINUOUS
 10
-14.7912109331
 20
-15.1294434703
 11
-14.7390244886
 21
-15.0739238344
  0
LINE
  5
648
100
AcDbEntity
  8
0
100
AcDbLine
 62
7
  6
CONTINUOUS
 10
-14.7390244886
 20
-15.0739238344
 11
-14.6800562356
 21
-15.0115543734
  0
LWPOLYLINE
  5
649
100
AcDbEntity
  8
0
100
AcDbPolyline
 62
7
  6
CONTINUOUS
 90
4
 70
0
 10
-14.6800562356
 20
-15.0115543734
 10
-14.5940664601
 20
-14.9210375085
 10
-14.572218257
 20
-14.8981431016
 10
-14.5286191912
 20
-14.8522650653
  0
LINE
  5
64A
100
AcDbEntity
  8
DRAFT
100
AcDbLine
 62
7
  6
CONTINUOUS
 10
-11.2863843146
 20
-11.2006296641
 11
-11.186025335
 21
-11.1002706845
  0
LINE
  5
64B
100
AcDbEntity
  8
0
100
AcDbLine
 62
7
  6
CONTINUOUS
 10
-11.0816619011
 20
-11.0959072506
 11
-11.0450062648
 21
-11.0592516142
  0
LINE
  5
64C
100
AcDbEntity
  8
DRAFT
100
AcDbLine
 62
7
  6
CONTINUOUS
 10
-11.0816619011
 20
-11.0959072506
 11
-11.0450062648
 21
-11.0592516142
  0
LINE
  5
64D
100
AcDbEntity
  8
DRAFT
100
AcDbLine
 62
7
  6
CONTINUOUS
 10
-11.2863843146
 20
-12.3919027963
 11
-11.1903884366
 21
-12.2959075829
  0
LINE
  5
64E
100
AcDbEntity
  8
DRAFT
100
AcDbLine
 62
7
  6
CONTINUOUS
 10
-11.1903884366
 20
-12.3046337861
 11
-11.1816619011
 21
-12.2959072506
  0
LINE
  5
64F
100
AcDbEntity
  8
CURVE
100
AcDbLine
 62
253
  6
CONTINUOUS
 10
-10.5816619011
 20
22.9040927494
 11
-12.4816619011
 21
22.9040927494
  0
LINE
  5
650
100
AcDbEntity
  8
0
100
AcDbLine
 62
253
  6
CONTINUOUS
 10
-28.3412026737
 20
23.169643051
 11
-28.2816619011
 21
23.169643051
  0
LINE
  5
651
100
AcDbEntity
  8
RACCORDO
100
AcDbLine
 62
253
  6
CONTINUOUS
 10
-28.3412026737
 20
23.169643051
 11
-28.2816619011
 21
23.169643051
  0
LINE
  5
652
100
AcDbEntity
  8
0
100
AcDbLine
 62
253
  6
CONTINUOUS
 10
-28.340275221
 20
23.4695973596
 11
-28.2816619011
 21
23.4695973596
  0
LINE
  5
653
100
AcDbEntity
  8
RACCORDO
100
AcDbLine
 62
253
  6
CONTINUOUS
 10
-28.340275221
 20
23.4695973596
 11
-28.2816619011
 21
23.4695973596
  0
LINE
  5
654
100
AcDbEntity
  8
0
100
AcDbLine
 62
7
  6
CONTINUOUS
 10
-28.3402284229
 20
23.4819072949
 11
-28.2816619011
 21
23.4819072949
  0
LINE
  5
655
100
AcDbEntity
  8
RACCORDO
100
AcDbLine
 62
7
  6
CONTINUOUS
 10
-28.3402284229
 20
23.4819072949
 11
-28.2816619011
 21
23.4819072949
  0
LINE
  5
656
100
AcDbEntity
  8
0
100
AcDbLine
 62
7
  6
CONTINUOUS
 10
-14.9416619011
 20
24.1040927494
 11
-17.8816619011
 21
24.1040927494
  0
LINE
  5
657
100
AcDbEntity
  8
SMUSSO
100
AcDbLine
 62
7
  6
CONTINUOUS
 10
-18.2316619011
 20
24.3540927494
 11
-14.2316619011
 21
24.3540927494
  0
LINE
  5
658
100
AcDbEntity
  8
ASSI
100
AcDbLine
 62
7
  6
CONTINUOUS
 10
-18.2316619011
 20
24.3540927494
 11
-14.2316619011
 21
24.3540927494
  0
LINE
  5
659
100
AcDbEntity
  8
DRAFT
100
AcDbLine
 62
7
  6
CONTINUOUS
 10
-11.2863843146
 20
28.4088151629
 11
-11.186025335
 21
28.3084561833
  0
LINE
  5
65A
100
AcDbEntity
  8
0
100
AcDbLine
 62
7
  6
CONTINUOUS
 10
-11.0816619011
 20
28.3040927494
 11
-11.0450062648
 21
28.2674371131
  0
LINE
  5
65B
100
AcDbEntity
  8
DRAFT
100
AcDbLine
 62
7
  6
CONTINUOUS
 10
-11.0816619011
 20
28.3040927494
 11
-11.0450062648
 21
28.2674371131
  0
LINE
  5
65C
100
AcDbEntity
  8
DRAFT
100
AcDbLine
 62
7
  6
CONTINUOUS
 10
-11.2863843146
 20
29.6000882951
 11
-11.1903887689
 21
29.5040927494
  0
LINE
  5
65D
100
AcDbEntity
  8
0
100
AcDbLine
 62
7
  6
CONTINUOUS
 10
-14.5503342935
 20
32.0833516981
 11
-14.6159164321
 21
32.1521771487
  0
LINE
  5
65E
100
AcDbEntity
  8
0
100
AcDbLine
 62
7
  6
CONTINUOUS
 10
-14.5286191912
 20
32.0604505641
 11
-14.5503342935
 21
32.0833516981
  0
LINE
  5
65F
100
AcDbEntity
  8
0
100
AcDbLine
 62
7
  6
CONTINUOUS
 10
-14.6159164321
 20
32.1521771487
 11
-14.7005066273
 21
32.2413528688
  0
LINE
  5
660
100
AcDbEntity
  8
0
100
AcDbLine
 62
7
  6
CONTINUOUS
 10
-14.7005066273
 20
32.2413528688
 11
-14.7571825982
 21
32.3013929328
  0
LINE
  5
661
100
AcDbEntity
  8
0
100
AcDbLine
 62
7
  6
CONTINUOUS
 10
-14.7571825982
 20
32.3013929328
 11
-14.7912092777
 21
32.3376274766
  0
LINE
  5
662
100
AcDbEntity
  8
0
100
AcDbLine
 62
7
  6
CONTINUOUS
 10
-14.7912092777
 20
32.3376274766
 11
-14.8222702872
 21
32.3709000406
  0
LINE
  5
663
100
AcDbEntity
  8
0
100
AcDbLine
 62
7
  6
CONTINUOUS
 10
-14.8222702872
 20
32.3709000406
 11
-14.850525597
 21
32.4013747762
  0
LINE
  5
664
100
AcDbEntity
  8
0
100
AcDbLine
 62
7
  6
CONTINUOUS
 10
-14.850525597
 20
32.4013747762
 11
-14.8758329908
 21
32.4289215521
  0
LINE
  5
665
100
AcDbEntity
  8
0
100
AcDbLine
 62
7
  6
CONTINUOUS
 10
-14.8758329908
 20
32.4289215521
 11
-14.8981549271
 21
32.4535026308
  0
LWPOLYLINE
  5
666
100
AcDbEntity
  8
0
100
AcDbPolyline
 62
7
  6
CONTINUOUS
 90
6
 70
0
 10
-14.8981549271
 20
32.4535026308
 10
-14.917446456
 20
32.4750498009
 10
-14.9260091866
 20
32.484755662
 10
-14.9338755839
 20
32.4937856566
 10
-14.9410591004
 20
32.5021218098
 10
-14.9475776234
 20
32.5097641218
  0
LINE
  5
667
100
AcDbEntity
  8
DRAFT
100
AcDbLine
 62
7
  6
CONTINUOUS
 10
-10.863032751
 20
-12.2959072506
 11
-10.813032751
 21
-12.2459072506
  0
LINE
  5
668
100
AcDbEntity
  8
DRAFT
100
AcDbLine
 62
7
  6
CONTINUOUS
 10
-10.8383494415
 20
-12.2959072506
 11
-10.7883494415
 21
-12.2459072506
  0
LINE
  5
669
100
AcDbEntity
  8
RACCORDO
100
AcDbLine
 62
7
  6
CONTINUOUS
 10
-8.4913502284
 20
-10.8092980158
 11
-8.6805775134
 21
-10.9985251941
  0
LINE
  5
66A
100
AcDbEntity
  8
ASSI
100
AcDbLine
 62
7
  6
CONTINUOUS
 10
-8.4913502284
 20
-10.8092980158
 11
-8.6805775134
 21
-10.9985251941
  0
LINE
  5
66B
100
AcDbEntity
  8
RACCORDO
100
AcDbLine
 62
7
  6
CONTINUOUS
 10
-7.7614536658
 20
-10.0942114974
 11
-8.3833576543
 21
-10.7161154859
  0
LINE
  5
66C
100
AcDbEntity
  8
ASSI
100
AcDbLine
 62
7
  6
CONTINUOUS
 10
-7.7614536658
 20
-10.0942114974
 11
-8.3833576543
 21
-10.7161154859
  0
LINE
  5
66D
100
AcDbEntity
  8
0
100
AcDbLine
 62
7
  6
CONTINUOUS
 10
-9.854458228
 20
-12.2459072506
 11
-8.0395445751
 21
-10.4309935977
  0
LINE
  5
66E
100
AcDbEntity
  8
RACCORDO
100
AcDbLine
 62
7
  6
CONTINUOUS
 10
-9.854458228
 20
-12.2459072506
 11
-8.0395445751
 21
-10.4309935977
  0
LINE
  5
66F
100
AcDbEntity
  8
0
100
AcDbLine
 62
7
  6
CONTINUOUS
 10
-10.2491169661
 20
-12.8010206607
 11
-10.4150923993
 21
-12.966996094
  0
LINE
  5
670
100
AcDbEntity
  8
RACCORDO
100
AcDbLine
 62
7
  6
CONTINUOUS
 10
-9.6816619011
 20
-12.2459072506
 11
-7.9173591206
 21
-10.4816044701
  0
LINE
  5
671
100
AcDbEntity
  8
0
100
AcDbLine
 62
7
  6
CONTINUOUS
 10
-11.2258440713
 20
-13.7900894208
 11
-7.3403887689
 21
-9.9046341184
  0
LINE
  5
672
100
AcDbEntity
  8
0
100
AcDbLine
 62
253
  6
CONTINUOUS
 10
-17.4730945311
 20
-15.1902025204
 11
-17.4816619011
 21
-15.1959140198
  0
LINE
  5
673
100
AcDbEntity
  8
0
100
AcDbLine
 62
253
  6
CONTINUOUS
 10
-17.2731123015
 20
-15.3902059056
 11
-17.2816644396
 21
-15.3959072506
  0
LINE
  5
674
100
AcDbEntity
  8
0
100
AcDbLine
 62
7
  6
CONTINUOUS
 10
-17.4816619011
 20
-13.7959072506
 11
-17.4729879477
 21
-13.7907029631
  0
LWPOLYLINE
  5
675
100
AcDbEntity
  8
0
100
AcDbPolyline
 62
7
  6
CONTINUOUS
 90
18
 70
0
 10
-25.8887434518
 20
-15.8779998764
 10
-25.8778054548
 20
-15.8733160228
 10
-25.8671027135
 20
-15.8681170194
 10
-25.8566594729
 20
-15.8624146422
 10
-25.8464993952
 20
-15.8562218087
 10
-25.836645496
 20
-15.8495525461
 10
-25.8271200973
 20
-15.8424219613
 10
-25.8179447821
 20
-15.8348462095
 10
-25.809140335
 20
-15.8268424511
 10
-25.8007267007
 20
-15.8184288167
 10
-25.7927229423
 20
-15.8096243697
 10
-25.7851471904
 20
-15.8004490544
 10
-25.7780166057
 20
-15.7909236557
 10
-25.771347343
 20
-15.7810697565
 10
-25.7651545095
 20
-15.7709096789
 10
-25.7594521323
 20
-15.7604664382
 10
-25.754253129
 20
-15.7497636969
 10
-25.7495692754
 20
-15.7388256999
  0
LINE
  5
676
100
AcDbEntity
  8
0
100
AcDbLine
 62
253
  6
CONTINUOUS
 10
-16.7295194358
 20
25.8898486754
 11
-16.7816619011
 21
25.8857645921
  0
LINE
  5
677
100
AcDbEntity
  8
RACCORDO
100
AcDbLine
 62
253
  6
CONTINUOUS
 10
-16.7295194358
 20
25.8898486754
 11
-16.7816619011
 21
25.8857645921
  0
LINE
  5
678
100
AcDbEntity
  8
RACCORDO
100
AcDbLine
 62
7
  6
CONTINUOUS
 10
-29.1947407793
 20
24.7540927494
 11
-28.2816619011
 21
24.7540927494
  0
LINE
  5
679
100
AcDbEntity
  8
ASSI
100
AcDbLine
 62
7
  6
CONTINUOUS
 10
-29.1947407793
 20
24.7540927494
 11
-28.2816619011
 21
24.7540927494
  0
LINE
  5
67A
100
AcDbEntity
  8
SMUSSO
100
AcDbLine
 62
7
  6
CONTINUOUS
 10
-18.7316619011
 20
24.8540927494
 11
-13.7316619011
 21
24.8540927494
  0
LINE
  5
67B
100
AcDbEntity
  8
ASSI
100
AcDbLine
 62
7
  6
CONTINUOUS
 10
-18.7316619011
 20
24.8540927494
 11
-13.7316619011
 21
24.8540927494
  0
LINE
  5
67C
100
AcDbEntity
  8
0
100
AcDbLine
 62
7
  6
CONTINUOUS
 10
-15.9816619011
 20
25.2040927494
 11
-20.9816619011
 21
25.2040927494
  0
LINE
  5
67D
100
AcDbEntity
  8
ASSI
100
AcDbLine
 62
7
  6
CONTINUOUS
 10
-15.9816619011
 20
25.2040927494
 11
-20.9816619011
 21
25.2040927494
  0
LINE
  5
67E
100
AcDbEntity
  8
0
100
AcDbLine
 62
7
  6
CONTINUOUS
 10
-20.1816619011
 20
25.8540927494
 11
-16.7816619011
 21
25.8540927494
  0
LINE
  5
67F
100
AcDbEntity
  8
RACCORDO
100
AcDbLine
 62
7
  6
CONTINUOUS
 10
-20.1816619011
 20
25.8540927494
 11
-16.7816619011
 21
25.8540927494
  0
LINE
  5
680
100
AcDbEntity
  8
0
100
AcDbLine
 62
253
  6
CONTINUOUS
 10
-20.1816619011
 20
25.8857645921
 11
-16.7816619011
 21
25.8857645921
  0
LINE
  5
681
100
AcDbEntity
  8
RACCORDO
100
AcDbLine
 62
253
  6
CONTINUOUS
 10
-20.1816619011
 20
25.8857645921
 11
-16.7816619011
 21
25.8857645921
  0
LINE
  5
682
100
AcDbEntity
  8
RACCORDO
100
AcDbLine
 62
7
  6
CONTINUOUS
 10
-16.8776688703
 20
25.9040927494
 11
-20.0856549319
 21
25.9040927494
  0
LINE
  5
683
100
AcDbEntity
  8
ASSI
100
AcDbLine
 62
7
  6
CONTINUOUS
 10
-16.8776688703
 20
25.9040927494
 11
-20.0856549319
 21
25.9040927494
  0
LINE
  5
684
100
AcDbEntity
  8
ASSI
100
AcDbLine
 62
7
  6
CONTINUOUS
 10
-15.9816619011
 20
26.1040927494
 11
-20.9816619011
 21
26.1040927494
  0
LINE
  5
685
100
AcDbEntity
  8
0
100
AcDbLine
 62
253
  6
CONTINUOUS
 10
-20.2338043664
 20
25.8898486754
 11
-20.1816619011
 21
25.8857645921
  0
LINE
  5
686
100
AcDbEntity
  8
RACCORDO
100
AcDbLine
 62
253
  6
CONTINUOUS
 10
-20.2338043664
 20
25.8898486754
 11
-20.1816619011
 21
25.8857645921
  0
LINE
  5
687
100
AcDbEntity
  8
0
100
AcDbLine
 62
7
  6
CONTINUOUS
 10
-17.4729879477
 20
30.9988884619
 11
-17.4816619011
 21
31.0040927494
  0
LINE
  5
688
100
AcDbEntity
  8
0
100
AcDbLine
 62
253
  6
CONTINUOUS
 10
-17.4816619011
 20
32.4040995186
 11
-17.4730945311
 21
32.3983880192
  0
LINE
  5
689
100
AcDbEntity
  8
0
100
AcDbLine
 62
253
  6
CONTINUOUS
 10
-17.2816644396
 20
32.6040927494
 11
-17.2731123015
 21
32.5983914044
  0
LINE
  5
68A
100
AcDbEntity
  8
DRAFT
100
AcDbLine
 62
7
  6
CONTINUOUS
 10
-10.813032751
 20
29.4540927494
 11
-10.863032751
 21
29.5040927494
  0
LINE
  5
68B
100
AcDbEntity
  8
DRAFT
100
AcDbLine
 62
7
  6
CONTINUOUS
 10
-10.7883494415
 20
29.4540927494
 11
-10.8383494415
 21
29.5040927494
  0
LINE
  5
68C
100
AcDbEntity
  8
RACCORDO
100
AcDbLine
 62
7
  6
CONTINUOUS
 10
-8.3833576543
 20
27.9243009848
 11
-7.7614536658
 21
27.3023969962
  0
LINE
  5
68D
100
AcDbEntity
  8
ASSI
100
AcDbLine
 62
7
  6
CONTINUOUS
 10
-8.3833576543
 20
27.9243009848
 11
-7.7614536658
 21
27.3023969962
  0
LINE
  5
68E
100
AcDbEntity
  8
0
100
AcDbLine
 62
7
  6
CONTINUOUS
 10
-8.0395445751
 20
27.6391790965
 11
-9.854458228
 21
29.4540927494
  0
LINE
  5
68F
100
AcDbEntity
  8
RACCORDO
100
AcDbLine
 62
7
  6
CONTINUOUS
 10
-8.0395445751
 20
27.6391790965
 11
-9.854458228
 21
29.4540927494
  0
LINE
  5
690
100
AcDbEntity
  8
0
100
AcDbLine
 62
7
  6
CONTINUOUS
 10
-10.2491169661
 20
30.0092061595
 11
-10.4150923993
 21
30.1751815928
  0
LINE
  5
691
100
AcDbEntity
  8
RACCORDO
100
AcDbLine
 62
7
  6
CONTINUOUS
 10
-7.9173591207
 20
27.6897899689
 11
-9.6816619011
 21
29.4540927494
  0
LINE
  5
692
100
AcDbEntity
  8
0
100
AcDbLine
 62
7
  6
CONTINUOUS
 10
-7.3403887689
 20
27.1128196172
 11
-11.2258440713
 21
30.9982749196
  0
LINE
  5
693
100
AcDbEntity
  8
0
100
AcDbLine
 62
7
  6
CONTINUOUS
 10
-10.4150923993
 20
-12.3876155148
 11
-10.2491169661
 21
-12.3046341184
  0
LINE
  5
694
100
AcDbEntity
  8
0
100
AcDbLine
 62
7
  6
CONTINUOUS
 10
-16.3352152917
 20
26.8366327661
 11
-15.9811001556
 21
26.839723082
  0
LINE
  5
695
100
AcDbEntity
  8
RACCORDO
100
AcDbLine
 62
7
  6
CONTINUOUS
 10
-16.3352152917
 20
26.8366327661
 11
-15.9811001556
 21
26.839723082
  0
LWPOLYLINE
  5
696
100
AcDbEntity
  8
0
100
AcDbPolyline
 62
7
  6
CONTINUOUS
 90
13
 70
0
 10
-16.9801376663
 20
28.488579429
 10
-16.8572654397
 20
28.4887215659
 10
-16.7393936116
 20
28.4891020399
 10
-16.6265221818
 20
28.4897208512
 10
-16.5171663993
 20
28.4905928158
 10
-16.4128110152
 20
28.4917031177
 10
-16.3179102829
 20
28.4930073085
 10
-16.2328421986
 20
28.4945173305
 10
-16.157228766
 20
28.4962212415
 10
-16.09439025
 20
28.4980387664
 10
-16.0454334054
 20
28.4999431468
 10
-16.0092514773
 20
28.5019611412
 10
-15.9858444656
 20
28.5040927494
  0
LINE
  5
697
100
AcDbEntity
  8
ASSI
100
AcDbLine
 62
7
  6
CONTINUOUS
 10
-15.9816619011
 20
26.8040927494
 11
-20.9816619011
 21
26.8040927494
  0
LINE
  5
698
100
AcDbEntity
  8
RACCORDO
100
AcDbLine
 62
7
  6
CONTINUOUS
 10
-27.8728862912
 20
26.8171830511
 11
-22.7947407797
 21
26.8171830511
  0
LINE
  5
699
100
AcDbEntity
  8
ASSI
100
AcDbLine
 62
7
  6
CONTINUOUS
 10
-27.8728862912
 20
26.8171830511
 11
-22.7947407797
 21
26.8171830511
  0
LINE
  5
69A
100
AcDbEntity
  8
0
100
AcDbLine
 62
7
  6
CONTINUOUS
 10
-27.0816619011
 20
26.8615353492
 11
-25.9357726024
 21
26.8615353492
  0
LINE
  5
69B
100
AcDbEntity
  8
DRAFT
100
AcDbLine
 62
7
  6
CONTINUOUS
 10
-27.0816619011
 20
26.8615353492
 11
-25.9357726024
 21
26.8615353492
  0
LINE
  5
69C
100
AcDbEntity
  8
0
100
AcDbLine
 62
7
  6
CONTINUOUS
 10
-22.6249442559
 20
26.870262217
 11
-25.9183175375
 21
26.870262217
  0
LINE
  5
69D
100
AcDbEntity
  8
DRAFT
100
AcDbLine
 62
7
  6
CONTINUOUS
 10
-22.6249442559
 20
26.870262217
 11
-25.9183175375
 21
26.870262217
  0
LINE
  5
69E
100
AcDbEntity
  8
0
100
AcDbLine
 62
7
  6
CONTINUOUS
 10
-27.0816619011
 20
26.870262217
 11
-27.7478504072
 21
26.870262217
  0
LINE
  5
69F
100
AcDbEntity
  8
RACCORDO
100
AcDbLine
 62
7
  6
CONTINUOUS
 10
-27.0816619011
 20
26.870262217
 11
-27.7478504072
 21
26.870262217
  0
LINE
  5
6A0
100
AcDbEntity
  8
0
100
AcDbLine
 62
7
  6
CONTINUOUS
 10
-20.9816619011
 20
26.9040927494
 11
-15.9816619011
 21
26.9040927494
  0
LINE
  5
6A1
100
AcDbEntity
  8
ASSI
100
AcDbLine
 62
7
  6
CONTINUOUS
 10
-20.9816619011
 20
26.9040927494
 11
-15.9816619011
 21
26.9040927494
  0
LINE
  5
6A2
100
AcDbEntity
  8
RACCORDO
100
AcDbLine
 62
7
  6
CONTINUOUS
 10
-9.090437511
 20
28.2171830511
 11
-22.1947636259
 21
28.2171830511
  0
LINE
  5
6A3
100
AcDbEntity
  8
ASSI
100
AcDbLine
 62
7
  6
CONTINUOUS
 10
-9.090437511
 20
28.2171830511
 11
-22.1947636259
 21
28.2171830511
  0
LINE
  5
6A4
100
AcDbEntity
  8
0
100
AcDbLine
 62
7
  6
CONTINUOUS
 10
-11.0450062648
 20
28.2674371131
 11
-15.0183175375
 21
28.2674371131
  0
LINE
  5
6A5
100
AcDbEntity
  8
DRAFT
100
AcDbLine
 62
7
  6
CONTINUOUS
 10
-11.0450062648
 20
28.2674371131
 11
-15.0183175375
 21
28.2674371131
  0
LINE
  5
6A6
100
AcDbEntity
  8
0
100
AcDbLine
 62
7
  6
CONTINUOUS
 10
-21.9450062648
 20
28.2674371131
 11
-25.9183175375
 21
28.2674371131
  0
LINE
  5
6A7
100
AcDbEntity
  8
DRAFT
100
AcDbLine
 62
7
  6
CONTINUOUS
 10
-21.9450062648
 20
28.2674371131
 11
-25.9183175375
 21
28.2674371131
  0
LINE
  5
6A8
100
AcDbEntity
  8
0
100
AcDbLine
 62
7
  6
CONTINUOUS
 10
-11.0816619011
 20
28.3040927494
 11
-14.9816619011
 21
28.3040927494
  0
LINE
  5
6A9
100
AcDbEntity
  8
DRAFT
100
AcDbLine
 62
7
  6
CONTINUOUS
 10
-11.0816619011
 20
28.3040927494
 11
-14.9816619011
 21
28.3040927494
  0
LINE
  5
6AA
100
AcDbEntity
  8
0
100
AcDbLine
 62
7
  6
CONTINUOUS
 10
-21.9816619011
 20
28.3040927494
 11
-25.8816619011
 21
28.3040927494
  0
LINE
  5
6AB
100
AcDbEntity
  8
DRAFT
100
AcDbLine
 62
7
  6
CONTINUOUS
 10
-21.9816619011
 20
28.3040927494
 11
-25.8816619011
 21
28.3040927494
  0
LINE
  5
6AC
100
AcDbEntity
  8
DRAFT
100
AcDbLine
 62
7
  6
CONTINUOUS
 10
-11.186025335
 20
28.3084561833
 11
-11.9772984672
 21
28.3084561833
  0
LINE
  5
6AD
100
AcDbEntity
  8
DRAFT
100
AcDbLine
 62
7
  6
CONTINUOUS
 10
-24.986025335
 20
28.3084561833
 11
-25.7772984672
 21
28.3084561833
  0
LINE
  5
6AE
100
AcDbEntity
  8
DRAFT
100
AcDbLine
 62
7
  6
CONTINUOUS
 10
-11.2863843146
 20
28.4088151629
 11
-11.8769394876
 21
28.4088151629
  0
LINE
  5
6AF
100
AcDbEntity
  8
DRAFT
100
AcDbLine
 62
7
  6
CONTINUOUS
 10
-25.0863843146
 20
28.4088151629
 11
-25.6769394876
 21
28.4088151629
  0
LINE
  5
6B0
100
AcDbEntity
  8
0
100
AcDbLine
 62
7
  6
CONTINUOUS
 10
-15.0183175375
 20
28.4674371131
 11
-21.9450062648
 21
28.4674371131
  0
LINE
  5
6B1
100
AcDbEntity
  8
DRAFT
100
AcDbLine
 62
7
  6
CONTINUOUS
 10
-15.0183175375
 20
28.4674371131
 11
-21.9450062648
 21
28.4674371131
  0
LINE
  5
6B2
100
AcDbEntity
  8
0
100
AcDbLine
 62
7
  6
CONTINUOUS
 10
-16.9801376663
 20
28.488579429
 11
-19.983186136
 21
28.488579429
  0
LINE
  5
6B3
100
AcDbEntity
  8
0
100
AcDbLine
 62
7
  6
CONTINUOUS
 10
-14.9816619011
 20
28.5040927494
 11
-15.9871836209
 21
28.5040927494
  0
LINE
  5
6B4
100
AcDbEntity
  8
0
100
AcDbLine
 62
7
  6
CONTINUOUS
 10
-20.9761401814
 20
28.5040927494
 11
-21.9816619011
 21
28.5040927494
  0
LINE
  5
6B5
100
AcDbEntity
  8
DRAFT
100
AcDbLine
 62
7
  6
CONTINUOUS
 10
-25.8816619011
 20
28.6040927494
 11
-25.7772984672
 21
28.6040927494
  0
LINE
  5
6B6
100
AcDbEntity
  8
DRAFT
100
AcDbLine
 62
7
  6
CONTINUOUS
 10
-11.186025335
 20
28.6040927494
 11
-11.0816619011
 21
28.6040927494
  0
LINE
  5
6B7
100
AcDbEntity
  8
DRAFT
100
AcDbLine
 62
7
  6
CONTINUOUS
 10
-11.9772984672
 20
28.6084561833
 11
-15.9823018315
 21
28.6084561833
  0
LINE
  5
6B8
100
AcDbEntity
  8
DRAFT
100
AcDbLine
 62
7
  6
CONTINUOUS
 10
-20.9810219708
 20
28.6084561833
 11
-24.986025335
 21
28.6084561833
  0
LINE
  5
6B9
100
AcDbEntity
  8
DRAFT
100
AcDbLine
 62
7
  6
CONTINUOUS
 10
-21.9818153358
 20
28.621674615
 11
-20.9810458681
 21
28.621674615
  0
LINE
  5
6BA
100
AcDbEntity
  8
DRAFT
100
AcDbLine
 62
7
  6
CONTINUOUS
 10
-15.9822779341
 20
28.621674615
 11
-14.9815084665
 21
28.621674615
  0
LINE
  5
6BB
100
AcDbEntity
  8
DRAFT
100
AcDbLine
 62
7
  6
CONTINUOUS
 10
-15.9816619011
 20
28.6747857624
 11
-16.0404013193
 21
28.6747857624
  0
LINE
  5
6BC
100
AcDbEntity
  8
DRAFT
100
AcDbLine
 62
7
  6
CONTINUOUS
 10
-20.922922483
 20
28.6747857624
 11
-20.9816619011
 21
28.6747857624
  0
LWPOLYLINE
  5
6BD
100
AcDbEntity
  8
0
100
AcDbPolyline
 62
7
  6
CONTINUOUS
 90
13
 70
0
 10
-19.983186136
 20
28.488579429
 10
-20.1060583625
 20
28.4887215659
 10
-20.2239301907
 20
28.4891020399
 10
-20.3368016204
 20
28.4897208512
 10
-20.446157403
 20
28.4905928158
 10
-20.5505127871
 20
28.4917031177
 10
-20.6454135194
 20
28.4930073085
 10
-20.7304816037
 20
28.4945173305
 10
-20.8060950362
 20
28.4962212415
 10
-20.8689335523
 20
28.4980387664
 10
-20.9178903969
 20
28.4999431468
 10
-20.954072325
 20
28.5019611412
 10
-20.9774793366
 20
28.5040927494
  0
LINE
  5
6BE
100
AcDbEntity
  8
0
100
AcDbLine
 62
7
  6
CONTINUOUS
 10
-20.6281085105
 20
26.8366327661
 11
-20.9822236467
 21
26.839723082
  0
LINE
  5
6BF
100
AcDbEntity
  8
RACCORDO
100
AcDbLine
 62
7
  6
CONTINUOUS
 10
-20.6281085105
 20
26.8366327661
 11
-20.9822236467
 21
26.839723082
  0
LWPOLYLINE
  5
6C0
100
AcDbEntity
  8
0
100
AcDbPolyline
 62
7
  6
CONTINUOUS
 90
9
 70
0
 10
-25.8887434518
 20
33.0861853752
 10
-25.8998919274
 20
33.0903434707
 10
-25.9112256221
 20
33.0939663911
 10
-25.9227188623
 20
33.0970459311
 10
-25.9343456137
 20
33.0995751171
 10
-25.946079535
 20
33.1015482236
 10
-25.9578940456
 20
33.1029607836
 10
-25.9697623851
 20
33.1038095992
 10
-25.9816576703
 20
33.1040927494
  0
LINE
  5
6C1
100
AcDbEntity
  8
0
100
AcDbLine
 62
7
  6
CONTINUOUS
 10
-10.4150923993
 20
29.5958010136
 11
-10.2491169661
 21
29.5128196172
  0
LINE
  5
6C2
100
AcDbEntity
  8
0
100
AcDbLine
 62
7
  6
CONTINUOUS
 10
-10.4150923993
 20
-12.8496426777
 11
-10.2491169661
 21
-12.8010206607
  0
LINE
  5
6C3
100
AcDbEntity
  8
DRAFT
100
AcDbLine
 62
7
  6
CONTINUOUS
 10
-11.8769394876
 20
28.7088151629
 11
-25.0863843146
 21
28.7088151629
  0
LINE
  5
6C4
100
AcDbEntity
  8
0
100
AcDbLine
 62
7
  6
CONTINUOUS
 10
-21.4738077201
 20
29.4040927494
 11
-15.4895160821
 21
29.4040927494
  0
LINE
  5
6C5
100
AcDbEntity
  8
0
100
AcDbLine
 62
7
  6
CONTINUOUS
 10
-9.6816619011
 20
29.4540927494
 11
-11.0816619011
 21
29.4540927494
  0
LINE
  5
6C6
100
AcDbEntity
  8
DRAFT
100
AcDbLine
 62
7
  6
CONTINUOUS
 10
-9.6816619011
 20
29.4540927494
 11
-11.0816619011
 21
29.4540927494
  0
LINE
  5
6C7
100
AcDbEntity
  8
0
100
AcDbLine
 62
7
  6
CONTINUOUS
 10
-25.8816619011
 20
29.4540927494
 11
-27.2816619011
 21
29.4540927494
  0
LINE
  5
6C8
100
AcDbEntity
  8
DRAFT
100
AcDbLine
 62
7
  6
CONTINUOUS
 10
-25.8816619011
 20
29.4540927494
 11
-27.2816619011
 21
29.4540927494
  0
LINE
  5
6C9
100
AcDbEntity
  8
DRAFT
100
AcDbLine
 62
7
  6
CONTINUOUS
 10
-26.5482314029
 20
29.5040927494
 11
-26.112632706
 21
29.5040927494
  0
LINE
  5
6CA
100
AcDbEntity
  8
DRAFT
100
AcDbLine
 62
7
  6
CONTINUOUS
 10
-10.4150923993
 20
29.5040927494
 11
-10.8506910962
 21
29.5040927494
  0
LINE
  5
6CB
100
AcDbEntity
  8
DRAFT
100
AcDbLine
 62
7
  6
CONTINUOUS
 10
-10.863032751
 20
29.5040927494
 11
-11.1903887689
 21
29.5040927494
  0
LINE
  5
6CC
100
AcDbEntity
  8
DRAFT
100
AcDbLine
 62
7
  6
CONTINUOUS
 10
-25.7816619011
 20
29.5040927494
 11
-26.1002910512
 21
29.5040927494
  0
LINE
  5
6CD
100
AcDbEntity
  8
0
100
AcDbLine
 62
7
  6
CONTINUOUS
 10
-10.2491169661
 20
29.5128196172
 11
-10.4150923993
 21
29.5128196172
  0
LINE
  5
6CE
100
AcDbEntity
  8
0
100
AcDbLine
 62
7
  6
CONTINUOUS
 10
-26.5482314029
 20
29.5128196172
 11
-26.7142068362
 21
29.5128196172
  0
LINE
  5
6CF
100
AcDbEntity
  8
DRAFT
100
AcDbLine
 62
7
  6
CONTINUOUS
 10
-26.0483075554
 20
29.6000882951
 11
-25.6769394876
 21
29.6000882951
  0
LINE
  5
6D0
100
AcDbEntity
  8
DRAFT
100
AcDbLine
 62
7
  6
CONTINUOUS
 10
-10.9150162469
 20
29.6000882951
 11
-11.2863843146
 21
29.6000882951
  0
LINE
  5
6D1
100
AcDbEntity
  8
0
100
AcDbLine
 62
253
  6
CONTINUOUS
 10
-10.9150162469
 20
29.9400796981
 11
-15.4848385949
 21
29.9400796981
  0
LINE
  5
6D2
100
AcDbEntity
  8
0
100
AcDbLine
 62
253
  6
CONTINUOUS
 10
-21.4784852074
 20
29.9400796981
 11
-26.0483075554
 21
29.9400796981
  0
LINE
  5
6D3
100
AcDbEntity
  8
0
100
AcDbLine
 62
7
  6
CONTINUOUS
 10
-15.4816619011
 20
30.3040927494
 11
-21.4816619011
 21
30.3040927494
  0
LINE
  5
6D4
100
AcDbEntity
  8
0
100
AcDbLine
 62
7
  6
CONTINUOUS
 10
-10.4150923993
 20
30.0578281765
 11
-10.2491169661
 21
30.0092061595
  0
LWPOLYLINE
  5
6D5
100
AcDbEntity
  8
0
100
AcDbPolyline
 62
7
  6
CONTINUOUS
 90
6
 70
0
 10
-11.0172442673
 20
33.1015482236
 10
-11.0289781886
 20
33.0995751171
 10
-11.0406049399
 20
33.0970459311
 10
-11.0520981801
 20
33.0939663911
 10
-11.0634318749
 20
33.0903434707
 10
-11.0745803504
 20
33.0861853752
  0
LWPOLYLINE
  5
6D6
100
AcDbEntity
  8
0
100
AcDbPolyline
 62
7
  6
CONTINUOUS
 90
40
 70
0
 10
-29.1320425009
 20
31.0040927494
 10
-29.1520378004
 20
31.0036793755
 10
-29.1720276447
 20
31.0024644566
 10
-29.1919797683
 20
31.0004467173
 10
-29.2118690778
 20
30.9976250464
 10
-29.2316556121
 20
30.9940013347
 10
-29.2512851304
 20
30.9895834113
 10
-29.2707145453
 20
30.9843810846
 10
-29.2899236607
 20
30.978399908
 10
-29.308893002
 20
30.9716444254
 10
-29.3276045337
 20
30.9641178746
 10
-29.3460131703
 20
30.9558351744
 10
-29.3640604153
 20
30.9468223024
 10
-29.3817010811
 20
30.9371049491
 10
-29.3989246094
 20
30.9266921289
 10
-29.4157254565
 20
30.9155871962
 10
-29.4320899711
 20
30.9037960474
 10
-29.4479753858
 20
30.8913462817
 10
-29.4633339114
 20
30.8782754992
 10
-29.4781274808
 20
30.8646201125
 10
-29.4923487409
 20
30.8503910535
 10
-29.5059968543
 20
30.8355890069
 10
-29.5190612457
 20
30.8202207599
 10
-29.5315049877
 20
30.8043248099
 10
-29.5432892101
 20
30.7879504392
 10
-29.5543861126
 20
30.7711411101
 10
-29.5647903472
 20
30.7539099614
 10
-29.5744986153
 20
30.7362623436
 10
-29.5835016422
 20
30.7182098406
 10
-29.5917744169
 20
30.6997967055
 10
-29.5992920855
 20
30.6810781177
 10
-29.6060406305
 20
30.6620961072
 10
-29.612015324
 20
30.6428714056
 10
-29.6172095473
 20
30.6234288895
 10
-29.6216158438
 20
30.6038018906
 10
-29.6252284906
 20
30.5840206563
 10
-29.628043468
 20
30.5641053224
 10
-29.6300562274
 20
30.544083944
 10
-29.6312630553
 20
30.5239926927
 10
-29.6316619011
 20
30.5038638973
  0
LINE
  5
6D7
100
AcDbEntity
  8
0
100
AcDbLine
 62
253
  6
CONTINUOUS
 10
-11.2911202749
 20
30.9400627749
 11
-15.4761118748
 21
30.9400627749
  0
LINE
  5
6D8
100
AcDbEntity
  8
0
100
AcDbLine
 62
253
  6
CONTINUOUS
 10
-21.4872119275
 20
30.9400627749
 11
-25.6722035273
 21
30.9400627749
  0
LINE
  5
6D9
100
AcDbEntity
  8
0
100
AcDbLine
 62
7
  6
CONTINUOUS
 10
-29.1229413794
 20
30.9982749196
 11
-25.7374797309
 21
30.9982749196
  0
LINE
  5
6DA
100
AcDbEntity
  8
0
100
AcDbLine
 62
7
  6
CONTINUOUS
 10
-11.2258440713
 20
30.9982749196
 11
-7.8403824228
 21
30.9982749196
  0
LINE
  5
6DB
100
AcDbEntity
  8
0
100
AcDbLine
 62
7
  6
CONTINUOUS
 10
-19.4903358545
 20
30.9988884619
 11
-17.4729879477
 21
30.9988884619
  0
LINE
  5
6DC
100
AcDbEntity
  8
0
100
AcDbLine
 62
7
  6
CONTINUOUS
 10
-7.831655555
 20
31.0040927494
 11
-14.0316619011
 21
31.0040927494
  0
LINE
  5
6DD
100
AcDbEntity
  8
0
100
AcDbLine
 62
7
  6
CONTINUOUS
 10
-17.4816619011
 20
31.0040927494
 11
-19.4816619011
 21
31.0040927494
  0
LINE
  5
6DE
100
AcDbEntity
  8
0
100
AcDbLine
 62
7
  6
CONTINUOUS
 10
-22.9316619011
 20
31.0040927494
 11
-29.1316682472
 21
31.0040927494
  0
LINE
  5
6DF
100
AcDbEntity
  8
0
100
AcDbLine
 62
7
  6
CONTINUOUS
 10
-28.382384899
 20
31.7267424802
 11
-25.9809389033
 21
31.7267424802
  0
LINE
  5
6E0
100
AcDbEntity
  8
0
100
AcDbLine
 62
7
  6
CONTINUOUS
 10
-8.5809389033
 20
31.7267424802
 11
-10.982384899
 21
31.7267424802
  0
LINE
  5
6E1
100
AcDbEntity
  8
0
100
AcDbLine
 62
253
  6
CONTINUOUS
 10
-28.3772942979
 20
32.2319239658
 11
-25.9860295044
 21
32.2319239658
  0
LINE
  5
6E2
100
AcDbEntity
  8
0
100
AcDbLine
 62
253
  6
CONTINUOUS
 10
-10.9772942979
 20
32.2319239658
 11
-8.5860295044
 21
32.2319239658
  0
LINE
  5
6E3
100
AcDbEntity
  8
0
100
AcDbLine
 62
253
  6
CONTINUOUS
 10
-8.3360337351
 20
32.4484303167
 11
-11.2272900671
 21
32.4484303167
  0
LINE
  5
6E4
100
AcDbEntity
  8
0
100
AcDbLine
 62
253
  6
CONTINUOUS
 10
-25.7360337351
 20
32.4484303167
 11
-28.6272900671
 21
32.4484303167
  0
LINE
  5
6E5
100
AcDbEntity
  8
0
100
AcDbLine
 62
7
  6
CONTINUOUS
 10
-22.8880112543
 20
32.5604421025
 11
-22.0161884389
 21
32.5604421025
  0
LINE
  5
6E6
100
AcDbEntity
  8
0
100
AcDbLine
 62
7
  6
CONTINUOUS
 10
-14.9471353634
 20
32.5604421025
 11
-14.075312548
 21
32.5604421025
  0
LINE
  5
6E7
100
AcDbEntity
  8
0
100
AcDbLine
 62
7
  6
CONTINUOUS
 10
-14.9468041849
 20
32.5983914044
 11
-17.2731123015
 21
32.5983914044
  0
LINE
  5
6E8
100
AcDbEntity
  8
0
100
AcDbLine
 62
7
  6
CONTINUOUS
 10
-19.6902115008
 20
32.5983914044
 11
-22.0165196174
 21
32.5983914044
  0
LINE
  5
6E9
100
AcDbEntity
  8
0
100
AcDbLine
 62
7
  6
CONTINUOUS
 10
-14.0316619011
 20
32.6040927494
 11
-17.2816644396
 21
32.6040927494
  0
LINE
  5
6EA
100
AcDbEntity
  8
0
100
AcDbLine
 62
7
  6
CONTINUOUS
 10
-19.6816593627
 20
32.6040927494
 11
-22.9316619011
 21
32.6040927494
  0
LWPOLYLINE
  5
6EB
100
AcDbEntity
  8
0
100
AcDbPolyline
 62
7
  6
CONTINUOUS
 90
37
 70
0
 10
-19.6816593627
 20
32.6040927494
 10
-19.672935709
 20
32.6039024157
 10
-19.6642286543
 20
32.6033317705
 10
-19.65555477
 20
32.6023818972
 10
-19.6469305632
 20
32.6010546016
 10
-19.6383724497
 20
32.5993524068
 10
-19.629896723
 20
32.597278548
 10
-19.621519515
 20
32.5948369701
 10
-19.613256771
 20
32.5920323177
 10
-19.6051242238
 20
32.5888699262
 10
-19.5971373531
 20
32.5853558124
 10
-19.5893113618
 20
32.5814966633
 10
-19.5816611523
 20
32.5772998228
 10
-19.5742012867
 20
32.5727732775
 10
-19.5669459651
 20
32.5679256421
 10
-19.5599090041
 20
32.562766144
 10
-19.5531037989
 20
32.5573046029
 10
-19.5465433034
 20
32.5515514139
 10
-19.5402400114
 20
32.54551753
 10
-19.5342059213
 20
32.539214436
 10
-19.5284525192
 20
32.5326541293
 10
-19.5229907614
 20
32.5258491009
 10
-19.5178310443
 20
32.5188123039
 10
-19.5129831893
 20
32.5115571328
 10
-19.5084564271
 20
32.5040974021
 10
-19.5042593742
 20
32.4964473116
 10
-19.5004000191
 20
32.4886214232
 10
-19.4968857089
 20
32.480634638
 10
-19.4937231326
 20
32.4725021592
 10
-19.4909183089
 20
32.4642394666
 10
-19.4884765759
 20
32.4558622922
 10
-19.4864025806
 20
32.4473865822
 10
-19.4847002694
 20
32.4388284692
 10
-19.4833728801
 20
32.4302042465
 10
-19.4824229376
 20
32.4215303305
 10
-19.4818522496
 20
32.4128232302
 10
-19.4816619011
 20
32.4040995186
  0
LWPOLYLINE
  5
6EC
100
AcDbEntity
  8
0
100
AcDbPolyline
 62
7
  6
CONTINUOUS
 90
18
 70
0
 10
-8.4887434518
 20
-15.8779998764
 10
-8.4778054548
 20
-15.8733160228
 10
-8.4671027135
 20
-15.8681170194
 10
-8.4566594729
 20
-15.8624146422
 10
-8.4464993952
 20
-15.8562218087
 10
-8.436645496
 20
-15.8495525461
 10
-8.4271200973
 20
-15.8424219613
 10
-8.4179447821
 20
-15.8348462095
 10
-8.409140335
 20
-15.8268424511
 10
-8.4007267007
 20
-15.8184288167
 10
-8.3927229423
 20
-15.8096243697
 10
-8.3851471904
 20
-15.8004490544
 10
-8.3780166057
 20
-15.7909236557
 10
-8.371347343
 20
-15.7810697565
 10
-8.3651545095
 20
-15.7709096789
 10
-8.3594521323
 20
-15.7604664382
 10
-8.354253129
 20
-15.7497636969
 10
-8.3495692754
 20
-15.7388256999
  0
LWPOLYLINE
  5
6ED
100
AcDbEntity
  8
0
100
AcDbPolyline
 62
7
  6
CONTINUOUS
 90
34
 70
0
 10
-10.9772942979
 20
33.0997209154
 10
-10.9891697695
 20
33.0994382957
 10
-11.001023512
 20
33.098591394
 10
-11.0128286875
 20
33.097181398
 10
-11.0245601822
 20
33.095210452
 10
-11.0361896174
 20
33.0926824621
 10
-11.047685583
 20
33.0896038835
 10
-11.0590203481
 20
33.0859822737
 10
-11.0701699601
 20
33.0818254193
 10
-11.0811093613
 20
33.0771426457
 10
-11.0918138961
 20
33.0719444604
 10
-11.1022591495
 20
33.0662426719
 10
-11.1124212251
 20
33.0600503095
 10
-11.1222770098
 20
33.0533814723
 10
-11.1318042713
 20
33.0462512189
 10
-11.1409814845
 20
33.038675658
 10
-11.1497878761
 20
33.0306719265
 10
-11.1582034624
 20
33.0222581749
 10
-11.1662091565
 20
33.0134534793
 10
-11.173786813
 20
33.0042777923
 10
-11.1809192641
 20
32.9947518981
 10
-11.1875903442
 20
32.984897382
 10
-11.1937849365
 20
32.9747365698
 10
-11.1994890017
 20
32.9642924846
 10
-11.2046896094
 20
32.9535887982
 10
-11.2093749737
 20
32.9426497646
 10
-11.213534478
 20
32.9315001683
 10
-11.2171586951
 20
32.9201652758
 10
-11.2202394137
 20
32.9086707647
 10
-11.2227696507
 20
32.8970426854
 10
-11.2247436693
 20
32.8853074057
 10
-11.2261569982
 20
32.8734915234
 10
-11.2270064383
 20
32.8616218051
 10
-11.2272900671
 20
32.8497251462
  0
LWPOLYLINE
  5
6EE
100
AcDbEntity
  8
0
100
AcDbPolyline
 62
7
  6
CONTINUOUS
 90
4
 70
0
 10
-10.9816661319
 20
33.1040927494
 10
-10.9935614172
 20
33.1038095992
 10
-11.0054297567
 20
33.1029607836
 10
-11.0172442673
 20
33.1015482236
  0
LWPOLYLINE
  5
6EF
100
AcDbEntity
  8
0
100
AcDbPolyline
 62
7
  6
CONTINUOUS
 90
34
 70
0
 10
-28.3772942979
 20
33.0997209154
 10
-28.3891697695
 20
33.0994382957
 10
-28.401023512
 20
33.098591394
 10
-28.4128286875
 20
33.097181398
 10
-28.4245601822
 20
33.095210452
 10
-28.4361896174
 20
33.0926824621
 10
-28.447685583
 20
33.0896038835
 10
-28.4590203481
 20
33.0859822737
 10
-28.4701699601
 20
33.0818254193
 10
-28.4811093613
 20
33.0771426457
 10
-28.4918138961
 20
33.0719444604
 10
-28.5022591495
 20
33.0662426719
 10
-28.5124212251
 20
33.0600503095
 10
-28.5222770098
 20
33.0533814723
 10
-28.5318042713
 20
33.0462512189
 10
-28.5409814845
 20
33.038675658
 10
-28.5497878761
 20
33.0306719265
 10
-28.5582034624
 20
33.0222581749
 10
-28.5662091565
 20
33.0134534793
 10
-28.573786813
 20
33.0042777923
 10
-28.5809192641
 20
32.9947518981
 10
-28.5875903442
 20
32.984897382
 10
-28.5937849365
 20
32.9747365698
 10
-28.5994890017
 20
32.9642924846
 10
-28.6046896094
 20
32.9535887982
 10
-28.6093749737
 20
32.9426497646
 10
-28.613534478
 20
32.9315001683
 10
-28.6171586951
 20
32.9201652758
 10
-28.6202394137
 20
32.9086707647
 10
-28.6227696507
 20
32.8970426854
 10
-28.6247436693
 20
32.8853074057
 10
-28.6261569982
 20
32.8734915234
 10
-28.6270064383
 20
32.8616218051
 10
-28.6272900671
 20
32.8497251462
  0
LWPOLYLINE
  5
6F0
100
AcDbEntity
  8
0
100
AcDbPolyline
 62
7
  6
CONTINUOUS
 90
4
 70
0
 10
-28.3816661319
 20
33.1040927494
 10
-28.3935614172
 20
33.1038095992
 10
-28.4054297567
 20
33.1029607836
 10
-28.4172442673
 20
33.1015482236
  0
LWPOLYLINE
  5
6F1
100
AcDbEntity
  8
0
100
AcDbPolyline
 62
7
  6
CONTINUOUS
 90
37
 70
0
 10
-17.2816644396
 20
32.6040927494
 10
-17.2903880933
 20
32.6039024157
 10
-17.299095148
 20
32.6033317705
 10
-17.3077690322
 20
32.6023818972
 10
-17.316393239
 20
32.6010546016
 10
-17.3249513525
 20
32.5993524068
 10
-17.3334270793
 20
32.597278548
 10
-17.3418042873
 20
32.5948369701
 10
-17.3500670313
 20
32.5920323177
 10
-17.3581995784
 20
32.5888699262
 10
-17.3661864491
 20
32.5853558124
 10
-17.3740124405
 20
32.5814966633
 10
-17.38166265
 20
32.5772998228
 10
-17.3891225156
 20
32.5727732775
 10
-17.3963778372
 20
32.5679256421
 10
-17.4034147981
 20
32.562766144
 10
-17.4102200034
 20
32.5573046029
 10
-17.4167804988
 20
32.5515514139
 10
-17.4230837909
 20
32.54551753
 10
-17.429117881
 20
32.539214436
 10
-17.434871283
 20
32.5326541293
 10
-17.4403330409
 20
32.5258491009
 10
-17.445492758
 20
32.5188123039
 10
-17.450340613
 20
32.5115571328
 10
-17.4548673752
 20
32.5040974021
 10
-17.459064428
 20
32.4964473116
 10
-17.4629237832
 20
32.4886214232
 10
-17.4664380934
 20
32.480634638
 10
-17.4696006697
 20
32.4725021592
 10
-17.4724054934
 20
32.4642394666
 10
-17.4748472263
 20
32.4558622922
 10
-17.4769212217
 20
32.4473865822
 10
-17.4786235329
 20
32.4388284692
 10
-17.4799509222
 20
32.4302042465
 10
-17.4809008646
 20
32.4215303305
 10
-17.4814715527
 20
32.4128232302
 10
-17.4816619011
 20
32.4040995186
  0
LINE
  5
6F2
100
AcDbEntity
  8
0
100
AcDbLine
 62
253
  6
CONTINUOUS
 10
-8.3360337351
 20
32.8497251462
 11
-11.2272900671
 21
32.8497251462
  0
LINE
  5
6F3
100
AcDbEntity
  8
0
100
AcDbLine
 62
253
  6
CONTINUOUS
 10
-25.7360337351
 20
32.8497251462
 11
-28.6272900671
 21
32.8497251462
  0
LINE
  5
6F4
100
AcDbEntity
  8
0
100
AcDbLine
 62
7
  6
CONTINUOUS
 10
-8.5860295044
 20
33.0997209154
 11
-10.9772942979
 21
33.0997209154
  0
LINE
  5
6F5
100
AcDbEntity
  8
0
100
AcDbLine
 62
7
  6
CONTINUOUS
 10
-25.9860295044
 20
33.0997209154
 11
-28.3772942979
 21
33.0997209154
  0
LWPOLYLINE
  5
6F6
100
AcDbEntity
  8
0
100
AcDbPolyline
 62
7
  6
CONTINUOUS
 90
9
 70
0
 10
-8.4887434518
 20
33.0861853752
 10
-8.4998919274
 20
33.0903434707
 10
-8.5112256221
 20
33.0939663911
 10
-8.5227188623
 20
33.0970459311
 10
-8.5343456137
 20
33.0995751171
 10
-8.546079535
 20
33.1015482236
 10
-8.5578940456
 20
33.1029607836
 10
-8.5697623851
 20
33.1038095992
 10
-8.5816576703
 20
33.1040927494
  0
LWPOLYLINE
  5
6F7
100
AcDbEntity
  8
0
100
AcDbPolyline
 62
7
  6
CONTINUOUS
 90
6
 70
0
 10
-28.4172442673
 20
33.1015482236
 10
-28.4289781886
 20
33.0995751171
 10
-28.4406049399
 20
33.0970459311
 10
-28.4520981801
 20
33.0939663911
 10
-28.4634318749
 20
33.0903434707
 10
-28.4745803504
 20
33.0861853752
  0
ARC
  5
6F8
100
AcDbEntity
  8
0
100
AcDbCircle
 62
7
  6
CONTINUOUS
 10
-27.6816619011
 20
-8.5959072506
 40
1.4
100
AcDbArc
 50
189.8532892494
 51
270.0
  0
ARC
  5
6F9
100
AcDbEntity
  8
ASSI
100
AcDbCircle
 62
7
  6
CONTINUOUS
 10
-27.9875702718
 20
-8.8859072506
 40
0.71
100
AcDbArc
 50
229.7010712477
 51
265.2998279782
  0
ARC
  5
6FA
100
AcDbEntity
  8
ASSI
100
AcDbCircle
 62
7
  6
CONTINUOUS
 10
-28.7716619011
 20
-8.1018156213
 40
0.71
100
AcDbArc
 50
184.7001961556
 51
220.2989529286
  0
ARC
  5
6FB
100
AcDbEntity
  8
0
100
AcDbCircle
 62
7
  6
CONTINUOUS
 10
-22.4816619011
 20
-14.5459072506
 40
0.5
100
AcDbArc
 50
144.3637748935
 51
215.6362251065
  0
ARC
  5
6FC
100
AcDbEntity
  8
0
100
AcDbCircle
 62
7
  6
CONTINUOUS
 10
-20.1816619011
 20
-8.9459072506
 40
0.3
100
AcDbArc
 50
90.0
 51
170.0
  0
ARC
  5
6FD
100
AcDbEntity
  8
RACCORDO
100
AcDbCircle
 62
7
  6
CONTINUOUS
 10
-20.1816619011
 20
-8.9459072506
 40
0.3
100
AcDbArc
 50
90.0
 51
170.0
  0
ARC
  5
6FE
100
AcDbEntity
  8
CURVE
100
AcDbCircle
 62
7
  6
CONTINUOUS
 10
-23.9816619011
 20
17.6865367494
 40
2.5499986575
100
AcDbArc
 50
357.7524617393
 51
182.2474682623
  0
ARC
  5
6FF
100
AcDbEntity
  8
CURVE
100
AcDbCircle
 62
7
  6
CONTINUOUS
 10
-23.9816619011
 20
22.0716467494
 40
2.5499985399
100
AcDbArc
 50
357.7525290943
 51
182.2474682623
  0
ARC
  5
700
100
AcDbEntity
  8
CURVE
100
AcDbCircle
 62
7
  6
CONTINUOUS
 10
-23.9816619011
 20
17.6865367494
 40
1.7999999246
100
AcDbArc
 50
356.8152613297
 51
77.9753174348
  0
ARC
  5
701
100
AcDbEntity
  8
CURVE
100
AcDbCircle
 62
7
  6
CONTINUOUS
 10
-23.9816619011
 20
22.0716467494
 40
1.7999999246
100
AcDbArc
 50
356.8152613297
 51
183.1847351336
  0
ARC
  5
702
100
AcDbEntity
  8
CURVE
100
AcDbCircle
 62
7
  6
CONTINUOUS
 10
-23.9816619011
 20
17.6865367494
 40
1.7999968808
100
AcDbArc
 50
102.0247203293
 51
183.1848322474
  0
ARC
  5
703
100
AcDbEntity
  8
ASSI
100
AcDbCircle
 62
7
  6
CONTINUOUS
 10
-28.7716619011
 20
25.3100011201
 40
0.71
100
AcDbArc
 50
139.7020215745
 51
175.2988538673
  0
ARC
  5
704
100
AcDbEntity
  8
ASSI
100
AcDbCircle
 62
7
  6
CONTINUOUS
 10
-27.9875702718
 20
26.0940927494
 40
0.71
100
AcDbArc
 50
94.7020215745
 51
130.2988538673
  0
ARC
  5
705
100
AcDbEntity
  8
0
100
AcDbCircle
 62
7
  6
CONTINUOUS
 10
-22.4816619011
 20
31.7540927494
 40
0.5
100
AcDbArc
 50
144.3637748935
 51
215.6362251065
  0
ARC
  5
706
100
AcDbEntity
  8
0
100
AcDbCircle
 62
7
  6
CONTINUOUS
 10
-20.1816619011
 20
26.1540927494
 40
0.3
100
AcDbArc
 50
189.5979508052
 51
270.0
  0
ARC
  5
707
100
AcDbEntity
  8
RACCORDO
100
AcDbCircle
 62
7
  6
CONTINUOUS
 10
-20.1816619011
 20
26.1540927494
 40
0.3
100
AcDbArc
 50
189.5979508052
 51
270.0
  0
ARC
  5
708
100
AcDbEntity
  8
ASSI
100
AcDbCircle
 62
7
  6
CONTINUOUS
 10
-8.9757535304
 20
-10.2859072506
 40
0.71
100
AcDbArc
 50
289.9961491498
 51
294.2412807351
  0
ARC
  5
709
100
AcDbEntity
  8
ASSI
100
AcDbCircle
 62
7
  6
CONTINUOUS
 10
-8.1916619011
 20
-9.5018156213
 40
0.71
100
AcDbArc
 50
319.7010712477
 51
355.2998279782
  0
ARC
  5
70A
100
AcDbEntity
  8
0
100
AcDbCircle
 62
7
  6
CONTINUOUS
 10
-14.4816619011
 20
-14.5459072506
 40
0.5
100
AcDbArc
 50
324.3637748935
 51
35.6362251065
  0
ARC
  5
70B
100
AcDbEntity
  8
0
100
AcDbCircle
 62
7
  6
CONTINUOUS
 10
-16.7816619011
 20
-8.9459072506
 40
0.3
100
AcDbArc
 50
9.8838085533
 51
90.0
  0
ARC
  5
70C
100
AcDbEntity
  8
RACCORDO
100
AcDbCircle
 62
7
  6
CONTINUOUS
 10
-16.7816619011
 20
-8.9459072506
 40
0.3
100
AcDbArc
 50
9.8838085533
 51
90.0
  0
ARC
  5
70D
100
AcDbEntity
  8
ASSI
100
AcDbCircle
 62
7
  6
CONTINUOUS
 10
-8.9757535304
 20
27.4940927494
 40
0.71
100
AcDbArc
 50
49.7020215745
 51
85.2988538673
  0
ARC
  5
70E
100
AcDbEntity
  8
ASSI
100
AcDbCircle
 62
7
  6
CONTINUOUS
 10
-8.1916619011
 20
26.7100011201
 40
0.71
100
AcDbArc
 50
4.7020215745
 51
40.2988538673
  0
ARC
  5
70F
100
AcDbEntity
  8
0
100
AcDbCircle
 62
7
  6
CONTINUOUS
 10
-14.4816619011
 20
31.7540927494
 40
0.5
100
AcDbArc
 50
324.3637748935
 51
35.6362251065
  0
ARC
  5
710
100
AcDbEntity
  8
0
100
AcDbCircle
 62
7
  6
CONTINUOUS
 10
-16.7816619011
 20
26.1540927494
 40
0.3
100
AcDbArc
 50
270.0
 51
350.0
  0
ARC
  5
711
100
AcDbEntity
  8
RACCORDO
100
AcDbCircle
 62
7
  6
CONTINUOUS
 10
-16.7816619011
 20
26.1540927494
 40
0.3
100
AcDbArc
 50
270.0
 51
350.0
  0
ELLIPSE
  5
712
100
AcDbEntity
  8
0
100
AcDbEllipse
 62
7
  6
CONTINUOUS
 10
-27.7478123296
 20
26.3702431778
 30
0.0
 11
0.3535803156
 21
-0.3535803156
 31
0.0
 40
0.9999238505
 41
2.3562325664
 42
2.8453801602
  0
ELLIPSE
  5
713
100
AcDbEntity
  8
0
100
AcDbEllipse
 62
7
  6
CONTINUOUS
 10
-20.2745551199
 20
26.8397181798
 30
0.0
 11
0.5
 21
0.0
 31
0.0
 40
0.0087268678
 41
-2.3561944902
 42
-1.97725418
  0
ELLIPSE
  5
714
100
AcDbEntity
  8
0
100
AcDbEllipse
 62
7
  6
CONTINUOUS
 10
-16.6887686823
 20
26.8397181798
 30
0.0
 11
0.5
 21
0.0
 31
0.0
 40
0.0087268678
 41
-1.1643384736
 42
-0.7853981634
  0
ELLIPSE
  5
715
100
AcDbEntity
  8
0
100
AcDbEllipse
 62
7
  6
CONTINUOUS
 10
-27.631357245
 20
-9.0673539332
 30
0.0
 11
1.8480888181
 21
0.7655034529
 31
0.0
 40
0.9998215708
 41
2.7489566578
 42
3.5342286494
  0
ELLIPSE
  5
716
100
AcDbEntity
  8
0
100
AcDbEllipse
 62
7
  6
CONTINUOUS
 10
-27.631357245
 20
26.275539432
 30
0.0
 11
1.8480888181
 21
-0.7655034529
 31
0.0
 40
0.9998215708
 41
2.7489566578
 42
3.5342286494
  0
ELLIPSE
  5
717
100
AcDbEntity
  8
0
100
AcDbEllipse
 62
7
  6
CONTINUOUS
 10
-9.3319665572
 20
26.275539432
 30
0.0
 11
1.8480888181
 21
0.7655034529
 31
0.0
 40
0.9998215708
 41
-0.3926359958
 42
0.3926359958
  0
ELLIPSE
  5
718
100
AcDbEntity
  8
0
100
AcDbEllipse
 62
7
  6
CONTINUOUS
 10
-9.3319665572
 20
-9.0673539332
 30
0.0
 11
1.8480888181
 21
-0.7655034529
 31
0.0
 40
0.9998215708
 41
-0.3926359958
 42
0.3926359958
  0
ELLIPSE
  5
719
100
AcDbEntity
  8
0
100
AcDbEllipse
 62
7
  6
CONTINUOUS
 10
-27.5091717905
 20
-9.0167430608
 30
0.0
 11
-1.8480888181
 21
-0.7655034529
 31
0.0
 40
0.9998215708
 41
-0.3926359958
 42
0.3926359958
  0
ELLIPSE
  5
71A
100
AcDbEntity
  8
0
100
AcDbEllipse
 62
7
  6
CONTINUOUS
 10
-27.5091717905
 20
26.2249285596
 30
0.0
 11
1.8480888181
 21
-0.7655034529
 31
0.0
 40
0.9998215708
 41
2.7489566578
 42
3.5342286494
  0
ELLIPSE
  5
71B
100
AcDbEntity
  8
0
100
AcDbEllipse
 62
7
  6
CONTINUOUS
 10
-9.4541520117
 20
26.2249285596
 30
0.0
 11
1.8480888181
 21
0.7655034529
 31
0.0
 40
0.9998215708
 41
-0.3926359958
 42
-0.278861721
  0
ELLIPSE
  5
71C
100
AcDbEntity
  8
0
100
AcDbEllipse
 62
7
  6
CONTINUOUS
 10
-9.4541520117
 20
26.2249285596
 30
0.0
 11
1.8480888181
 21
0.7655034529
 31
0.0
 40
0.9998215708
 41
6.4756880539
 42
6.675821303
  0
ELLIPSE
  5
71D
100
AcDbEntity
  8
0
100
AcDbEllipse
 62
7
  6
CONTINUOUS
 10
-9.4541520117
 20
-9.0167430608
 30
0.0
 11
-1.8480888181
 21
0.7655034529
 31
0.0
 40
0.9998215708
 41
9.032141965
 42
9.2322752141
  0
ELLIPSE
  5
71E
100
AcDbEntity
  8
0
100
AcDbEllipse
 62
7
  6
CONTINUOUS
 10
-9.4541520117
 20
-9.0167430608
 30
0.0
 11
-1.8480888181
 21
0.7655034529
 31
0.0
 40
0.9998215708
 41
3.4204543746
 42
3.5342286494
  0
ELLIPSE
  5
71F
100
AcDbEntity
  8
RACCORDO
100
AcDbEllipse
 62
7
  6
CONTINUOUS
 10
-27.7478123296
 20
26.3702431778
 30
0.0
 11
0.3535803156
 21
-0.3535803156
 31
0.0
 40
0.9999238505
 41
2.3562325664
 42
2.8453801602
  0
ELLIPSE
  5
720
100
AcDbEntity
  8
RACCORDO
100
AcDbEllipse
 62
7
  6
CONTINUOUS
 10
-20.2745551199
 20
26.8397181798
 30
0.0
 11
0.5
 21
0.0
 31
0.0
 40
0.0087268678
 41
-2.3561944902
 42
-1.97725418
  0
ELLIPSE
  5
721
100
AcDbEntity
  8
RACCORDO
100
AcDbEllipse
 62
7
  6
CONTINUOUS
 10
-16.6887686823
 20
26.8397181798
 30
0.0
 11
0.5
 21
0.0
 31
0.0
 40
0.0087268678
 41
-1.1643384736
 42
-0.7853981634
  0
ELLIPSE
  5
722
100
AcDbEntity
  8
RACCORDO
100
AcDbEllipse
 62
7
  6
CONTINUOUS
 10
-27.631357245
 20
-9.0673539332
 30
0.0
 11
1.8480888181
 21
0.7655034529
 31
0.0
 40
0.9998215708
 41
2.7489566578
 42
3.5342286494
  0
ELLIPSE
  5
723
100
AcDbEntity
  8
RACCORDO
100
AcDbEllipse
 62
7
  6
CONTINUOUS
 10
-27.631357245
 20
26.275539432
 30
0.0
 11
1.8480888181
 21
-0.7655034529
 31
0.0
 40
0.9998215708
 41
2.7489566578
 42
3.5342286494
  0
ELLIPSE
  5
724
100
AcDbEntity
  8
RACCORDO
100
AcDbEllipse
 62
7
  6
CONTINUOUS
 10
-9.3319665572
 20
26.275539432
 30
0.0
 11
1.8480888181
 21
0.7655034529
 31
0.0
 40
0.9998215708
 41
-0.3926359958
 42
0.3926359958
  0
ELLIPSE
  5
725
100
AcDbEntity
  8
RACCORDO
100
AcDbEllipse
 62
7
  6
CONTINUOUS
 10
-9.3319665572
 20
-9.0673539332
 30
0.0
 11
1.8480888181
 21
-0.7655034529
 31
0.0
 40
0.9998215708
 41
-0.3926359958
 42
0.3926359958
  0
ELLIPSE
  5
726
100
AcDbEntity
  8
0
100
AcDbEllipse
 62
7
  6
CONTINUOUS
 10
-16.4817380652
 20
150.4797351854
 30
0.0
 11
-0.4997620717
 21
162.4815824859
 31
0.0
 40
0.000109066
 41
3.2227835669
 42
3.234898768
  0
ELLIPSE
  5
727
100
AcDbEntity
  8
0
100
AcDbEllipse
 62
7
  6
CONTINUOUS
 10
-16.4817380652
 20
-133.2715496866
 30
0.0
 11
0.4997620717
 21
162.4815824859
 31
0.0
 40
0.000109066
 41
-0.0933061144
 42
-0.0811909133
  0
ELLIPSE
  5
728
100
AcDbEntity
  8
0
100
AcDbEllipse
 62
7
  6
CONTINUOUS
 10
-20.4815857371
 20
150.4797351854
 30
0.0
 11
0.4997620717
 21
162.4815824859
 31
0.0
 40
0.000109066
 41
-3.234898768
 42
-3.2227835669
  0
ELLIPSE
  5
729
100
AcDbEntity
  8
0
100
AcDbEllipse
 62
7
  6
CONTINUOUS
 10
-20.4815857371
 20
-133.2715496866
 30
0.0
 11
-0.4997620717
 21
162.4815824859
 31
0.0
 40
0.000109066
 41
6.3643762205
 42
6.3764914216
  0
ELLIPSE
  5
72A
100
AcDbEntity
  8
RACCORDO
100
AcDbEllipse
 62
7
  6
CONTINUOUS
 10
-27.5091717905
 20
-9.0167430608
 30
0.0
 11
-1.8480888181
 21
-0.7655034529
 31
0.0
 40
0.9998215708
 41
-0.3926359958
 42
0.3926359958
  0
ELLIPSE
  5
72B
100
AcDbEntity
  8
RACCORDO
100
AcDbEllipse
 62
7
  6
CONTINUOUS
 10
-27.5091717905
 20
26.2249285596
 30
0.0
 11
1.8480888181
 21
-0.7655034529
 31
0.0
 40
0.9998215708
 41
2.7489566578
 42
3.5342286494
  0
ELLIPSE
  5
72C
100
AcDbEntity
  8
RACCORDO
100
AcDbEllipse
 62
7
  6
CONTINUOUS
 10
-9.4541520117
 20
26.2249285596
 30
0.0
 11
1.8480888181
 21
0.7655034529
 31
0.0
 40
0.9998215708
 41
-0.3926359958
 42
-0.278861721
  0
ELLIPSE
  5
72D
100
AcDbEntity
  8
RACCORDO
100
AcDbEllipse
 62
7
  6
CONTINUOUS
 10
-9.4541520117
 20
26.2249285596
 30
0.0
 11
1.8480888181
 21
0.7655034529
 31
0.0
 40
0.9998215708
 41
6.4756880539
 42
6.675821303
  0
ELLIPSE
  5
72E
100
AcDbEntity
  8
RACCORDO
100
AcDbEllipse
 62
7
  6
CONTINUOUS
 10
-9.4541520117
 20
-9.0167430608
 30
0.0
 11
-1.8480888181
 21
0.7655034529
 31
0.0
 40
0.9998215708
 41
9.032141965
 42
9.2322752141
  0
ELLIPSE
  5
72F
100
AcDbEntity
  8
RACCORDO
100
AcDbEllipse
 62
7
  6
CONTINUOUS
 10
-9.4541520117
 20
-9.0167430608
 30
0.0
 11
-1.8480888181
 21
0.7655034529
 31
0.0
 40
0.9998215708
 41
3.4204543746
 42
3.5342286494
  0
ELLIPSE
  5
730
100
AcDbEntity
  8
0
100
AcDbEllipse
 62
7
  6
CONTINUOUS
 10
-15.9816619011
 20
-13.7546009604
 30
0.0
 11
1.0205840068
 21
-0.0
 31
0.0
 40
0.0058178298
 41
0.0000507714
 42
1.0523815008
  0
ELLIPSE
  5
731
100
AcDbEntity
  8
0
100
AcDbEllipse
 62
7
  6
CONTINUOUS
 10
-20.9816619011
 20
-13.7546009604
 30
0.0
 11
1.0205840068
 21
0.0
 31
0.0
 40
0.0058178298
 41
8.37239646
 42
9.4247271893
  0
ELLIPSE
  5
732
100
AcDbEntity
  8
0
100
AcDbEllipse
 62
7
  6
CONTINUOUS
 10
-20.9816619011
 20
30.9627864592
 30
0.0
 11
1.0205840068
 21
0.0
 31
0.0
 40
0.0058178298
 41
-3.1415418822
 42
-2.0892111528
  0
ELLIPSE
  5
733
100
AcDbEntity
  8
DRAFT
100
AcDbEllipse
 62
7
  6
CONTINUOUS
 10
-15.9816619011
 20
-11.4578686769
 30
0.0
 11
1.0005407263
 21
-0.0
 31
0.0
 40
0.0087268678
 41
-1.5707963268
 42
0.0000761582
  0
ELLIPSE
  5
734
100
AcDbEntity
  8
DRAFT
100
AcDbEllipse
 62
7
  6
CONTINUOUS
 10
-15.9816619011
 20
28.6660541757
 30
0.0
 11
1.0005407263
 21
0.0
 31
0.0
 40
0.0087268678
 41
-0.0000761582
 42
1.5707963268
  0
ELLIPSE
  5
735
100
AcDbEntity
  8
0
100
AcDbEllipse
 62
7
  6
CONTINUOUS
 10
-15.9816619011
 20
30.9627864592
 30
0.0
 11
1.0205840068
 21
0.0
 31
0.0
 40
0.0058178298
 41
-1.0523815008
 42
-0.0000507714
  0
ELLIPSE
  5
736
100
AcDbEntity
  8
DRAFT
100
AcDbEllipse
 62
7
  6
CONTINUOUS
 10
-20.9816619011
 20
28.6660541757
 30
0.0
 11
1.0005407263
 21
0.0
 31
0.0
 40
0.0087268678
 41
1.5707963268
 42
3.1416688118
  0
ELLIPSE
  5
737
100
AcDbEntity
  8
DRAFT
100
AcDbEllipse
 62
7
  6
CONTINUOUS
 10
-18.4816619011
 20
28.8039280536
 30
0.0
 11
14.9982560202
 21
0.0
 31
0.0
 40
0.0087268678
 41
-1.7342933984
 42
-1.4072992552
  0
ELLIPSE
  5
738
100
AcDbEntity
  8
DRAFT
100
AcDbEllipse
 62
7
  6
CONTINUOUS
 10
-18.4816619011
 20
-11.5957425548
 30
0.0
 11
14.9982560202
 21
0.0
 31
0.0
 40
0.0087268678
 41
1.4072992552
 42
1.7342933984
  0
ELLIPSE
  5
739
100
AcDbEntity
  8
DRAFT
100
AcDbEllipse
 62
7
  6
CONTINUOUS
 10
-20.9816619011
 20
-11.4578686769
 30
0.0
 11
1.0005407263
 21
-0.0
 31
0.0
 40
0.0087268678
 41
3.1415164954
 42
4.7123889804
  0
ELLIPSE
  5
73A
100
AcDbEntity
  8
0
100
AcDbEllipse
 62
7
  6
CONTINUOUS
 10
-14.5286191912
 20
-13.7520003375
 30
0.0
 11
0.4530427099
 21
-0.0
 31
0.0
 40
0.0058178298
 41
0.0058177642
 42
2.8392117832
  0
ELLIPSE
  5
73B
100
AcDbEntity
  8
0
100
AcDbEllipse
 62
7
  6
CONTINUOUS
 10
-22.4347046111
 20
-13.7520003375
 30
0.0
 11
0.4530427099
 21
-0.0
 31
0.0
 40
0.0058178298
 41
0.3023808704
 42
3.1357748894
  0
ELLIPSE
  5
73C
100
AcDbEntity
  8
0
100
AcDbEllipse
 62
7
  6
CONTINUOUS
 10
-22.4347046111
 20
30.9601858363
 30
0.0
 11
0.4530427099
 21
0.0
 31
0.0
 40
0.0058178298
 41
-3.1357748894
 42
-0.3023808704
  0
ELLIPSE
  5
73D
100
AcDbEntity
  8
0
100
AcDbEllipse
 62
7
  6
CONTINUOUS
 10
-14.5286191912
 20
30.9601858363
 30
0.0
 11
0.4530427099
 21
0.0
 31
0.0
 40
0.0058178298
 41
-2.8392117832
 42
-0.0058177642
  0
ELLIPSE
  5
73E
100
AcDbEntity
  8
0
100
AcDbEllipse
 62
7
  6
CONTINUOUS
 10
-26.6722584046
 20
29.9400796981
 30
0.0
 11
1.0000571192
 21
0.9999809595
 31
0.0
 40
0.0061705924
 41
-1.1948539202
 42
0.0003532199
  0
ELLIPSE
  5
73F
100
AcDbEntity
  8
0
100
AcDbEllipse
 62
7
  6
CONTINUOUS
 10
-10.2910653977
 20
29.9400796981
 30
0.0
 11
1.0000571192
 21
-0.9999809595
 31
0.0
 40
0.0061705924
 41
3.1412394337
 42
4.3364465738
  0
ELLIPSE
  5
740
100
AcDbEntity
  8
0
100
AcDbEllipse
 62
7
  6
CONTINUOUS
 10
-10.2910653977
 20
-12.7318941992
 30
0.0
 11
1.0000571192
 21
0.9999809595
 31
0.0
 40
0.0061705924
 41
1.9467387334
 42
3.1419458735
  0
ELLIPSE
  5
741
100
AcDbEntity
  8
0
100
AcDbEllipse
 62
7
  6
CONTINUOUS
 10
-26.6722584046
 20
-12.7318941992
 30
0.0
 11
1.0000571192
 21
-0.9999809595
 31
0.0
 40
0.0061705924
 41
-0.0003532199
 42
1.1948539202
  0
ELLIPSE
  5
742
100
AcDbEntity
  8
0
100
AcDbEllipse
 62
7
  6
CONTINUOUS
 10
-8.581666132
 20
32.0154176148
 30
0.0
 11
-0.0029088041
 21
0.2886641433
 31
0.0
 40
0.8660144118
 41
-3.150319066
 42
-1.582431609
  0
ELLIPSE
  5
743
100
AcDbEntity
  8
0
100
AcDbEllipse
 62
7
  6
CONTINUOUS
 10
-10.9816576703
 20
32.0154176148
 30
0.0
 11
0.0029088041
 21
0.2886641433
 31
0.0
 40
0.8660144118
 41
-4.7007536982
 42
-3.1328662412
  0
ELLIPSE
  5
744
100
AcDbEntity
  8
0
100
AcDbEllipse
 62
7
  6
CONTINUOUS
 10
-25.981666132
 20
32.0154176148
 30
0.0
 11
-0.0029088041
 21
0.2886641433
 31
0.0
 40
0.8660144118
 41
-3.150319066
 42
-1.582431609
  0
ELLIPSE
  5
745
100
AcDbEntity
  8
0
100
AcDbEllipse
 62
7
  6
CONTINUOUS
 10
-28.3816576703
 20
32.0154176148
 30
0.0
 11
0.0029088041
 21
0.2886641433
 31
0.0
 40
0.8660144118
 41
-4.7007536982
 42
-3.1328662412
  0
ELLIPSE
  5
746
100
AcDbEntity
  8
0
100
AcDbEllipse
 62
7
  6
CONTINUOUS
 10
-8.581666132
 20
-14.807232116
 30
0.0
 11
0.0029088041
 21
0.2886641433
 31
0.0
 40
0.8660144118
 41
-1.5591610446
 42
0.0087264124
  0
ELLIPSE
  5
747
100
AcDbEntity
  8
0
100
AcDbEllipse
 62
7
  6
CONTINUOUS
 10
-10.9816576703
 20
-14.807232116
 30
0.0
 11
-0.0029088041
 21
0.2886641433
 31
0.0
 40
0.8660144118
 41
-0.0087264124
 42
1.5591610446
  0
ELLIPSE
  5
748
100
AcDbEntity
  8
0
100
AcDbEllipse
 62
7
  6
CONTINUOUS
 10
-28.3816576703
 20
-14.807232116
 30
0.0
 11
-0.0029088041
 21
0.2886641433
 31
0.0
 40
0.8660144118
 41
-0.0087264124
 42
1.5591610446
  0
ELLIPSE
  5
749
100
AcDbEntity
  8
0
100
AcDbEllipse
 62
7
  6
CONTINUOUS
 10
-25.981666132
 20
-14.807232116
 30
0.0
 11
0.0029088041
 21
0.2886641433
 31
0.0
 40
0.8660144118
 41
-1.5591610446
 42
0.0087264124
  0
ELLIPSE
  5
74A
100
AcDbEntity
  8
0
100
AcDbEllipse
 62
7
  6
CONTINUOUS
 10
-7.8404078081
 20
30.4982664579
 30
0.0
 11
-0.4160498344
 21
-0.2773626446
 31
0.0
 40
0.9999450019
 41
2.5536219432
 42
4.1243675013
  0
ELLIPSE
  5
74B
100
AcDbEntity
  8
0
100
AcDbEllipse
 62
7
  6
CONTINUOUS
 10
-7.8404078081
 20
-13.2900809591
 30
0.0
 11
0.4160498344
 21
-0.2773626446
 31
0.0
 40
0.9999450019
 41
-0.9827748477
 42
0.5879707104
  0
ELLIPSE
  5
74C
100
AcDbEntity
  8
0
100
AcDbEllipse
 62
7
  6
CONTINUOUS
 10
-29.1229159942
 20
-13.2900809591
 30
0.0
 11
0.4160498344
 21
0.2773626446
 31
0.0
 40
0.9999450019
 41
2.5536219432
 42
4.1243675013
  0
ELLIPSE
  5
74D
100
AcDbEntity
  8
0
100
AcDbEllipse
 62
7
  6
CONTINUOUS
 10
-29.1229159942
 20
30.4982664579
 30
0.0
 11
-0.4160498344
 21
0.2773626446
 31
0.0
 40
0.9999450019
 41
-0.9827748477
 42
0.5879707104
  0
ELLIPSE
  5
74E
100
AcDbEntity
  8
0
100
AcDbEllipse
 62
7
  6
CONTINUOUS
 10
-10.9150162469
 20
-13.3496742211
 30
0.0
 11
0.4999904798
 21
0.5000285596
 31
0.0
 40
0.0061705924
 41
0.0112823085
 42
1.0386206835
  0
ELLIPSE
  5
74F
100
AcDbEntity
  8
0
100
AcDbEllipse
 62
7
  6
CONTINUOUS
 10
-26.0483075554
 20
-13.3496742211
 30
0.0
 11
-0.4999904798
 21
0.5000285596
 31
0.0
 40
0.0061705924
 41
-1.0386206835
 42
-0.0112823085
  0
ELLIPSE
  5
750
100
AcDbEntity
  8
0
100
AcDbEllipse
 62
7
  6
CONTINUOUS
 10
-26.0483075554
 20
30.5578597199
 30
0.0
 11
0.4999904798
 21
0.5000285596
 31
0.0
 40
0.0061705924
 41
-3.1303103451
 42
-2.1029719701
  0
ELLIPSE
  5
751
100
AcDbEntity
  8
0
100
AcDbEllipse
 62
7
  6
CONTINUOUS
 10
-10.9150162469
 20
30.5578597199
 30
0.0
 11
-0.4999904798
 21
0.5000285596
 31
0.0
 40
0.0061705924
 41
-4.1802133371
 42
-3.1528749621
  0
ELLIPSE
  5
752
100
AcDbEntity
  8
0
100
AcDbEllipse
 62
7
  6
CONTINUOUS
 10
-10.9150162469
 20
-12.3875393624
 30
0.0
 11
0.5
 21
0.0
 31
0.0
 40
0.0087268678
 41
-1.5707963268
 42
-0.0174532925
  0
ELLIPSE
  5
753
100
AcDbEntity
  8
0
100
AcDbEllipse
 62
7
  6
CONTINUOUS
 10
-26.0483075554
 20
-12.3875393624
 30
0.0
 11
0.5
 21
-0.0
 31
0.0
 40
0.0087268678
 41
-3.1241393611
 42
-1.5707963268
  0
ELLIPSE
  5
754
100
AcDbEntity
  8
0
100
AcDbEllipse
 62
7
  6
CONTINUOUS
 10
-26.0483075554
 20
29.5957248612
 30
0.0
 11
0.5
 21
0.0
 31
0.0
 40
0.0087268678
 41
1.5707963268
 42
3.1241393611
  0
ELLIPSE
  5
755
100
AcDbEntity
  8
0
100
AcDbEllipse
 62
7
  6
CONTINUOUS
 10
-10.9150162469
 20
29.5957248612
 30
0.0
 11
0.5
 21
0.0
 31
0.0
 40
0.0087268678
 41
0.0174532925
 42
1.5707963268
  0
ELLIPSE
  5
756
100
AcDbEntity
  8
0
100
AcDbEllipse
 62
7
  6
CONTINUOUS
 10
-19.6902368876
 20
32.3983778648
 30
0.0
 11
0.1243375101
 21
0.1566832126
 31
0.0
 40
0.9998696711
 41
-0.900007342
 42
0.6707382162
  0
ELLIPSE
  5
757
100
AcDbEntity
  8
0
100
AcDbEllipse
 62
7
  6
CONTINUOUS
 10
-17.2730869147
 20
32.3983778648
 30
0.0
 11
-0.1243375101
 21
0.1566832125
 31
0.0
 40
0.9998696711
 41
-0.6707382163
 42
0.9000073418
  0
ELLIPSE
  5
758
100
AcDbEntity
  8
0
100
AcDbEllipse
 62
7
  6
CONTINUOUS
 10
-17.2730869147
 20
-15.190192366
 30
0.0
 11
0.1243375101
 21
0.1566832125
 31
0.0
 40
0.9998696711
 41
-4.0415999955
 42
-2.4708544373
  0
ELLIPSE
  5
759
100
AcDbEntity
  8
0
100
AcDbEllipse
 62
7
  6
CONTINUOUS
 10
-19.6902368876
 20
-15.190192366
 30
0.0
 11
-0.1243375101
 21
0.1566832125
 31
0.0
 40
0.9998696711
 41
-3.8123308699
 42
-2.2415853117
  0
ELLIPSE
  5
75A
100
AcDbEntity
  8
RACCORDO
100
AcDbEllipse
 62
7
  6
CONTINUOUS
 10
-20.1642397883
 20
-8.9959072506
 30
0.0
 11
0.3000114235
 21
0.0
 31
0.0
 40
0.9999619231
 41
1.5707963268
 42
2.80137059
  0
ELLIPSE
  5
75B
100
AcDbEntity
  8
RACCORDO
100
AcDbEllipse
 62
7
  6
CONTINUOUS
 10
-29.1947407793
 20
5.1540927494
 30
0.0
 11
0.3000114235
 21
0.0
 31
0.0
 40
0.9999619231
 41
1.5707963268
 42
3.1415926536
  0
ELLIPSE
  5
75C
100
AcDbEntity
  8
RACCORDO
100
AcDbEllipse
 62
7
  6
CONTINUOUS
 10
-29.1947407793
 20
10.1540927494
 30
0.0
 11
0.3000114235
 21
0.0
 31
0.0
 40
0.9999619231
 41
1.5707963268
 42
3.1415926536
  0
ELLIPSE
  5
75D
100
AcDbEntity
  8
DRAFT
100
AcDbEllipse
 62
7
  6
CONTINUOUS
 10
-28.3231145231
 20
7.6040927494
 30
0.0
 11
0.0
 21
2.15
 31
0.0
 40
0.0087268678
 41
0.0
 42
3.1415926536
  0
ELLIPSE
  5
75E
100
AcDbEntity
  8
DRAFT
100
AcDbEllipse
 62
7
  6
CONTINUOUS
 10
-28.3231145231
 20
22.6040927494
 30
0.0
 11
0.0
 21
2.15
 31
0.0
 40
0.0087268678
 41
-0.0
 42
3.1415926536
  0
ELLIPSE
  5
75F
100
AcDbEntity
  8
DRAFT
100
AcDbEllipse
 62
7
  6
CONTINUOUS
 10
-28.3231145231
 20
17.6040927494
 30
0.0
 11
-0.0
 21
2.15
 31
0.0
 40
0.0087268678
 41
0.0
 42
3.1415926536
  0
ELLIPSE
  5
760
100
AcDbEntity
  8
DRAFT
100
AcDbEllipse
 62
7
  6
CONTINUOUS
 10
-28.3231145231
 20
12.6040927494
 30
0.0
 11
-0.0
 21
2.15
 31
0.0
 40
0.0087268678
 41
-0.0
 42
3.1415926536
  0
ELLIPSE
  5
761
100
AcDbEntity
  8
RACCORDO
100
AcDbEllipse
 62
7
  6
CONTINUOUS
 10
-22.1947407793
 20
27.9171716276
 30
0.0
 11
0.2121481893
 21
-0.2121481893
 31
0.0
 40
0.9999238505
 41
2.3562325664
 42
3.9269527408
  0
ELLIPSE
  5
762
100
AcDbEntity
  8
RACCORDO
100
AcDbEllipse
 62
7
  6
CONTINUOUS
 10
-9.0904690556
 20
27.2171449727
 30
0.0
 11
0.3827005044
 21
0.9239207481
 31
0.0
 40
0.9999553905
 41
-0.3926833098
 42
0.3926833098
  0
ELLIPSE
  5
763
100
AcDbEntity
  8
RACCORDO
100
AcDbEllipse
 62
7
  6
CONTINUOUS
 10
-8.4686096778
 20
26.5952855949
 30
0.0
 11
0.9239207481
 21
0.3827005044
 31
0.0
 40
0.9999553905
 41
-0.3926833098
 42
0.3926833098
  0
ELLIPSE
  5
764
100
AcDbEntity
  8
RACCORDO
100
AcDbEllipse
 62
7
  6
CONTINUOUS
 10
-8.4686096778
 20
-9.3871000961
 30
0.0
 11
0.9239207481
 21
-0.3827005044
 31
0.0
 40
0.9999553905
 41
-0.3926833098
 42
0.3926833098
  0
ELLIPSE
  5
765
100
AcDbEntity
  8
RACCORDO
100
AcDbEllipse
 62
7
  6
CONTINUOUS
 10
-9.0904690556
 20
-10.0089594739
 30
0.0
 11
-0.3827005044
 21
0.9239207481
 31
0.0
 40
0.9999553905
 41
2.7489093438
 42
3.5342759634
  0
ELLIPSE
  5
766
100
AcDbEntity
  8
RACCORDO
100
AcDbEllipse
 62
7
  6
CONTINUOUS
 10
-22.1947407793
 20
-10.7089861288
 30
0.0
 11
-0.2121481893
 21
-0.2121481893
 31
0.0
 40
0.9999238505
 41
-0.7853600872
 42
0.7853600872
  0
ELLIPSE
  5
767
100
AcDbEntity
  8
RACCORDO
100
AcDbEllipse
 62
7
  6
CONTINUOUS
 10
-27.8728547467
 20
-8.6089594739
 30
0.0
 11
-0.3827005044
 21
-0.9239207481
 31
0.0
 40
0.9999553905
 41
-0.3926833098
 42
0.3926833098
  0
ELLIPSE
  5
768
100
AcDbEntity
  8
RACCORDO
100
AcDbEllipse
 62
7
  6
CONTINUOUS
 10
-28.4947141244
 20
-7.9871000961
 30
0.0
 11
0.9239207481
 21
0.3827005044
 31
0.0
 40
0.9999553905
 41
2.7489093438
 42
3.5342759634
  0
ELLIPSE
  5
769
100
AcDbEntity
  8
RACCORDO
100
AcDbEllipse
 62
7
  6
CONTINUOUS
 10
-29.1947407793
 20
10.0540927494
 30
0.0
 11
-0.3000114235
 21
-0.0
 31
0.0
 40
0.9999619231
 41
0.0
 42
1.5707963268
  0
ELLIPSE
  5
76A
100
AcDbEntity
  8
RACCORDO
100
AcDbEllipse
 62
7
  6
CONTINUOUS
 10
-29.1947407793
 20
15.0540927494
 30
0.0
 11
-0.3000114235
 21
-0.0
 31
0.0
 40
0.9999619231
 41
0.0
 42
1.5707963268
  0
ELLIPSE
  5
76B
100
AcDbEntity
  8
RACCORDO
100
AcDbEllipse
 62
7
  6
CONTINUOUS
 10
-29.1947407793
 20
15.1540927494
 30
0.0
 11
0.3000114235
 21
0.0
 31
0.0
 40
0.9999619231
 41
1.5707963268
 42
3.1415926536
  0
ELLIPSE
  5
76C
100
AcDbEntity
  8
RACCORDO
100
AcDbEllipse
 62
7
  6
CONTINUOUS
 10
-29.1947407793
 20
20.0540927494
 30
0.0
 11
-0.3000114235
 21
-0.0
 31
0.0
 40
0.9999619231
 41
0.0
 42
1.5707963268
  0
ELLIPSE
  5
76D
100
AcDbEntity
  8
RACCORDO
100
AcDbEllipse
 62
7
  6
CONTINUOUS
 10
-29.1947407793
 20
20.1540927494
 30
0.0
 11
0.3000114235
 21
0.0
 31
0.0
 40
0.9999619231
 41
1.5707963268
 42
3.1415926536
  0
ELLIPSE
  5
76E
100
AcDbEntity
  8
RACCORDO
100
AcDbEllipse
 62
7
  6
CONTINUOUS
 10
-29.1947407793
 20
25.0540927494
 30
0.0
 11
-0.3000114235
 21
-0.0
 31
0.0
 40
0.9999619231
 41
0.0
 42
1.5707963268
  0
ELLIPSE
  5
76F
100
AcDbEntity
  8
RACCORDO
100
AcDbEllipse
 62
7
  6
CONTINUOUS
 10
-28.4947141244
 20
25.1952855949
 30
0.0
 11
-0.9239207481
 21
0.3827005044
 31
0.0
 40
0.9999553905
 41
-0.3926833098
 42
0.3926833098
  0
ELLIPSE
  5
770
100
AcDbEntity
  8
RACCORDO
100
AcDbEllipse
 62
7
  6
CONTINUOUS
 10
-27.8728547467
 20
25.8171449727
 30
0.0
 11
-0.3827005044
 21
0.9239207481
 31
0.0
 40
0.9999553905
 41
-0.3926833098
 42
0.3926833098
  0
ELLIPSE
  5
771
100
AcDbEntity
  8
RACCORDO
100
AcDbEllipse
 62
7
  6
CONTINUOUS
 10
-22.7947636263
 20
27.1171944746
 30
0.0
 11
0.2121481893
 21
-0.2121481893
 31
0.0
 40
0.9999238505
 41
-0.7853600872
 42
0.7853600872
  0
ELLIPSE
  5
772
100
AcDbEntity
  8
RACCORDO
100
AcDbEllipse
 62
7
  6
CONTINUOUS
 10
-16.7990840139
 20
-8.9959072506
 30
0.0
 11
0.3000114235
 21
0.0
 31
0.0
 40
0.9999619231
 41
0.3402220636
 42
1.5707963268
  0
ELLIPSE
  5
773
100
AcDbEntity
  8
RACCORDO
100
AcDbEllipse
 62
7
  6
CONTINUOUS
 10
-16.8776688703
 20
26.2040927494
 30
0.0
 11
-0.3000114235
 21
-0.0
 31
0.0
 40
0.9999619231
 41
1.5707963268
 42
2.80137059
  0
ELLIPSE
  5
774
100
AcDbEntity
  8
RACCORDO
100
AcDbEllipse
 62
7
  6
CONTINUOUS
 10
-20.0856549319
 20
26.2040927494
 30
0.0
 11
-0.3000114235
 21
-0.0
 31
0.0
 40
0.9999619231
 41
0.3402220636
 42
1.5707963268
  0
ELLIPSE
  5
775
100
AcDbEntity
  8
ASSI
100
AcDbEllipse
 62
7
  6
CONTINUOUS
 10
-22.1947407793
 20
27.9171716276
 30
0.0
 11
0.2121481893
 21
-0.2121481893
 31
0.0
 40
0.9999238505
 41
2.3562325664
 42
3.9269527408
  0
ELLIPSE
  5
776
100
AcDbEntity
  8
ASSI
100
AcDbEllipse
 62
7
  6
CONTINUOUS
 10
-9.0904690556
 20
27.2171449727
 30
0.0
 11
0.3827005044
 21
0.9239207481
 31
0.0
 40
0.9999553905
 41
-0.3926833098
 42
0.3926833098
  0
ELLIPSE
  5
777
100
AcDbEntity
  8
ASSI
100
AcDbEllipse
 62
7
  6
CONTINUOUS
 10
-8.4686096778
 20
26.5952855949
 30
0.0
 11
0.9239207481
 21
0.3827005044
 31
0.0
 40
0.9999553905
 41
-0.3926833098
 42
0.3926833098
  0
ELLIPSE
  5
778
100
AcDbEntity
  8
ASSI
100
AcDbEllipse
 62
7
  6
CONTINUOUS
 10
-8.4686096778
 20
-9.3871000961
 30
0.0
 11
0.9239207481
 21
-0.3827005044
 31
0.0
 40
0.9999553905
 41
-0.3926833098
 42
0.3926833098
  0
ELLIPSE
  5
779
100
AcDbEntity
  8
ASSI
100
AcDbEllipse
 62
7
  6
CONTINUOUS
 10
-9.0904690556
 20
-10.0089594739
 30
0.0
 11
-0.3827005044
 21
0.9239207481
 31
0.0
 40
0.9999553905
 41
2.7489093438
 42
3.5342759634
  0
ELLIPSE
  5
77A
100
AcDbEntity
  8
ASSI
100
AcDbEllipse
 62
7
  6
CONTINUOUS
 10
-22.1947407793
 20
-10.7089861288
 30
0.0
 11
-0.2121481893
 21
-0.2121481893
 31
0.0
 40
0.9999238505
 41
-0.7853600872
 42
0.7853600872
  0
ELLIPSE
  5
77B
100
AcDbEntity
  8
ASSI
100
AcDbEllipse
 62
7
  6
CONTINUOUS
 10
-27.8728547467
 20
-8.6089594739
 30
0.0
 11
-0.3827005044
 21
-0.9239207481
 31
0.0
 40
0.9999553905
 41
-0.3926833098
 42
0.3926833098
  0
ELLIPSE
  5
77C
100
AcDbEntity
  8
ASSI
100
AcDbEllipse
 62
7
  6
CONTINUOUS
 10
-28.4947141244
 20
-7.9871000961
 30
0.0
 11
0.9239207481
 21
0.3827005044
 31
0.0
 40
0.9999553905
 41
2.7489093438
 42
3.5342759634
  0
ELLIPSE
  5
77D
100
AcDbEntity
  8
ASSI
100
AcDbEllipse
 62
7
  6
CONTINUOUS
 10
-29.1947407793
 20
10.0540927494
 30
0.0
 11
-0.3000114235
 21
-0.0
 31
0.0
 40
0.9999619231
 41
0.0
 42
1.5707963268
  0
ELLIPSE
  5
77E
100
AcDbEntity
  8
ASSI
100
AcDbEllipse
 62
7
  6
CONTINUOUS
 10
-29.1947407793
 20
15.0540927494
 30
0.0
 11
-0.3000114235
 21
-0.0
 31
0.0
 40
0.9999619231
 41
0.0
 42
1.5707963268
  0
ELLIPSE
  5
77F
100
AcDbEntity
  8
ASSI
100
AcDbEllipse
 62
7
  6
CONTINUOUS
 10
-29.1947407793
 20
15.1540927494
 30
0.0
 11
0.3000114235
 21
0.0
 31
0.0
 40
0.9999619231
 41
1.5707963268
 42
3.1415926536
  0
ELLIPSE
  5
780
100
AcDbEntity
  8
ASSI
100
AcDbEllipse
 62
7
  6
CONTINUOUS
 10
-29.1947407793
 20
20.0540927494
 30
0.0
 11
-0.3000114235
 21
-0.0
 31
0.0
 40
0.9999619231
 41
0.0
 42
1.5707963268
  0
ELLIPSE
  5
781
100
AcDbEntity
  8
ASSI
100
AcDbEllipse
 62
7
  6
CONTINUOUS
 10
-29.1947407793
 20
20.1540927494
 30
0.0
 11
0.3000114235
 21
0.0
 31
0.0
 40
0.9999619231
 41
1.5707963268
 42
3.1415926536
  0
ELLIPSE
  5
782
100
AcDbEntity
  8
ASSI
100
AcDbEllipse
 62
7
  6
CONTINUOUS
 10
-29.1947407793
 20
25.0540927494
 30
0.0
 11
-0.3000114235
 21
-0.0
 31
0.0
 40
0.9999619231
 41
0.0
 42
1.5707963268
  0
ELLIPSE
  5
783
100
AcDbEntity
  8
ASSI
100
AcDbEllipse
 62
7
  6
CONTINUOUS
 10
-28.4947141244
 20
25.1952855949
 30
0.0
 11
-0.9239207481
 21
0.3827005044
 31
0.0
 40
0.9999553905
 41
-0.3926833098
 42
0.3926833098
  0
ELLIPSE
  5
784
100
AcDbEntity
  8
ASSI
100
AcDbEllipse
 62
7
  6
CONTINUOUS
 10
-27.8728547467
 20
25.8171449727
 30
0.0
 11
-0.3827005044
 21
0.9239207481
 31
0.0
 40
0.9999553905
 41
-0.3926833098
 42
0.3926833098
  0
ELLIPSE
  5
785
100
AcDbEntity
  8
ASSI
100
AcDbEllipse
 62
7
  6
CONTINUOUS
 10
-16.7990840139
 20
-8.9959072506
 30
0.0
 11
0.3000114235
 21
0.0
 31
0.0
 40
0.9999619231
 41
0.3402220636
 42
1.5707963268
  0
ELLIPSE
  5
786
100
AcDbEntity
  8
ASSI
100
AcDbEllipse
 62
7
  6
CONTINUOUS
 10
-16.8776688703
 20
26.2040927494
 30
0.0
 11
-0.3000114235
 21
-0.0
 31
0.0
 40
0.9999619231
 41
1.5707963268
 42
2.80137059
  0
ELLIPSE
  5
787
100
AcDbEntity
  8
ASSI
100
AcDbEllipse
 62
7
  6
CONTINUOUS
 10
-20.0856549319
 20
26.2040927494
 30
0.0
 11
-0.3000114235
 21
-0.0
 31
0.0
 40
0.9999619231
 41
0.3402220636
 42
1.5707963268
  0
ELLIPSE
  5
788
100
AcDbEntity
  8
ASSI
100
AcDbEllipse
 62
7
  6
CONTINUOUS
 10
-20.1642397883
 20
-8.9959072506
 30
0.0
 11
0.3000114235
 21
0.0
 31
0.0
 40
0.9999619231
 41
1.5707963268
 42
2.80137059
  0
ELLIPSE
  5
789
100
AcDbEntity
  8
ASSI
100
AcDbEllipse
 62
7
  6
CONTINUOUS
 10
-29.1947407793
 20
5.1540927494
 30
0.0
 11
0.3000114235
 21
0.0
 31
0.0
 40
0.9999619231
 41
1.5707963268
 42
3.1415926536
  0
ELLIPSE
  5
78A
100
AcDbEntity
  8
ASSI
100
AcDbEllipse
 62
7
  6
CONTINUOUS
 10
-29.1947407793
 20
10.1540927494
 30
0.0
 11
0.3000114235
 21
0.0
 31
0.0
 40
0.9999619231
 41
1.5707963268
 42
3.1415926536
  0
ELLIPSE
  5
78B
100
AcDbEntity
  8
ASSI
100
AcDbEllipse
 62
7
  6
CONTINUOUS
 10
-28.3231145231
 20
7.6040927494
 30
0.0
 11
0.0
 21
2.15
 31
0.0
 40
0.0087268678
 41
0.0
 42
3.1415926536
  0
ELLIPSE
  5
78C
100
AcDbEntity
  8
ASSI
100
AcDbEllipse
 62
7
  6
CONTINUOUS
 10
-28.3231145231
 20
22.6040927494
 30
0.0
 11
0.0
 21
2.15
 31
0.0
 40
0.0087268678
 41
-0.0
 42
3.1415926536
  0
ELLIPSE
  5
78D
100
AcDbEntity
  8
ASSI
100
AcDbEllipse
 62
7
  6
CONTINUOUS
 10
-28.3231145231
 20
17.6040927494
 30
0.0
 11
-0.0
 21
2.15
 31
0.0
 40
0.0087268678
 41
0.0
 42
3.1415926536
  0
ELLIPSE
  5
78E
100
AcDbEntity
  8
ASSI
100
AcDbEllipse
 62
7
  6
CONTINUOUS
 10
-28.3231145231
 20
12.6040927494
 30
0.0
 11
-0.0
 21
2.15
 31
0.0
 40
0.0087268678
 41
-0.0
 42
3.1415926536
  0
ELLIPSE
  5
78F
100
AcDbEntity
  8
ASSI
100
AcDbEllipse
 62
7
  6
CONTINUOUS
 10
-22.7947636263
 20
27.1171944746
 30
0.0
 11
0.2121481893
 21
-0.2121481893
 31
0.0
 40
0.9999238505
 41
-0.7853600872
 42
0.7853600872
  0
ENDSEC
  0
SECTION
  2
OBJECTS
  0
DICTIONARY
  5
C
100
AcDbDictionary
280
0
281
1
  3
ACAD_GROUP
350
D
  3
ACAD_MLINESTYLE
350
17
  3
ACAD_LAYOUT
350
1A
  3
ACAD_PLOTSETTINGS
350
19
  3
ACAD_PLOTSTYLENAME
350
E
  0
DICTIONARY
  5
D
102
{ACAD_REACTORS
330
C
102
}
100
AcDbDictionary
280
0
281
1
  0
ACDBDICTIONARYWDFLT
  5
E
102
{ACAD_REACTORS
330
C
102
}
100
AcDbDictionary
281
1
  3
Normal
350
F
100
AcDbDictionaryWithDefault
340
F
  0
DICTIONARY
  5
17
102
{ACAD_REACTORS
330
C
102
}
100
AcDbDictionary
280
0
281
1
  3
Standard
350
18
  0
DICTIONARY
  5
19
102
{ACAD_REACTORS
330
C
102
}
100
AcDbDictionary
281
1
  0
DICTIONARY
  5
1A
102
{ACAD_REACTORS
330
C
102
}
100
AcDbDictionary
281
1
  3
Model
350
790
  3
Layout1
350
791
  0
ACDBPLACEHOLDER
  5
F
102
{ACAD_REACTORS
330
E
102
}
  0
MLINESTYLE
  5
18
102
{ACAD_REACTORS
330
17
102
}
100
AcDbMlineStyle
  2
STANDARD
 70
0
  3

 62
256
 51
90.0
 52
90.0
 71
2
 49
0.5
 62
256
  6
BYLAYER
 49
-0.5
 62
256
  6
BYLAYER
  0
LAYOUT
  5
790
102
{ACAD_REACTORS
330
1A
102
}
100
AcDbPlotSettings
  1

  2
none_device
  4
ISO_A4_(297.00_x_210.00_MM)
  6

 40
0.0
 41
0.0
 42
0.0
 43
0.0
 44
297.0
 45
210.0
 46
0.0
 47
0.0
 48
0.0
 49
0.0
140
0.0
141
0.0
142
1.0
143
1.0
 70
1024
 72
1
 73
0
 74
0
  7

 75
0
147
1.0
148
0.0
149
0.0
100
AcDbLayout
  1
Model
 70
0
 71
0
 10
0.0
 20
0.0
 11
297.0
 21
210.0
 12
0.0
 22
0.0
 32
0.0
 14
0.0
 24
0.0
 34
0.0
 15
0.0
 25
0.0
 35
0.0
146
0.0
 13
0.0
 23
0.0
 33
0.0
 16
1.0
 26
0.0
 36
0.0
 17
0.0
 27
1.0
 37
0.0
 76
0
330
22A
345
0
346
0
  0
LAYOUT
  5
791
102
{ACAD_REACTORS
330
1A
102
}
100
AcDbPlotSettings
  1

  2
none_device
  4
ISO_A4_(297.00_x_210.00_MM)
  6

 40
0.0
 41
0.0
 42
0.0
 43
0.0
 44
297.0
 45
210.0
 46
0.0
 47
0.0
 48
0.0
 49
0.0
140
0.0
141
0.0
142
1.0
143
1.0
 70
0
 72
1
 73
0
 74
0
  7

 75
0
147
1.0
148
0.0
149
0.0
100
AcDbLayout
  1
Layout1
 70
0
 71
1
 10
0.0
 20
0.0
 11
297.0
 21
210.0
 12
0.0
 22
0.0
 32
0.0
 14
0.0
 24
0.0
 34
0.0
 15
0.0
 25
0.0
 35
0.0
146
0.0
 13
0.0
 23
0.0
 33
0.0
 16
1.0
 26
0.0
 36
0.0
 17
0.0
 27
1.0
 37
0.0
 76
0
330
22B
345
0
346
0
  0
ENDSEC
  0
EOF
