0
SECTION
2
HEADER
9
$ACADVER
1
AC1014
9
$HANDSEED
5
       3B8
9
$EXTMAX
10
297.0000000000
20
210.0000000000
9
$EXTMIN
10
0.0000000000
20
0.0000000000
9
$LIMMIN
10
0.0000000000
20
0.0000000000
9
$LIMMAX
10
297.0000000000
20
210.0000000000
9
$VIEWCTR
10
148.5000000000
20
105.0000000000
9
$VIEWSIZE
40
210.0000000000
9
$CLAYER
8
0
9
$LTSCALE
40
16.3350000000
9
$CELTYPE
6
BYLAYER
9
$DIMSCALE
40
1
9
$DIMASZ
40
3.0000000000
9
$DIMEXO
40
1.8562500000
9
$DIMDLI
40
11.2860000000
9
$DIMEXE
40
5.3460000000
9
$DIMCEN
40
2.6730000000
9
$DIMLFAC
40
1.0000000000
9
$DIMTXT
40
3.0000000000
9
$DIMTOL
70
1
9
$DIMLIM
70
0
9
$DIMTFAC
40
1.0000000000
9
$DIMTP
40
0.0100000000
9
$DIMTM
40
0.0100000000
9
$MEASUREMENT
70
1
0
ENDSEC
0
SECTION
2
CLASSES
0
ENDSEC
0
SECTION
2
TABLES
0
TABLE
2
VPORT
5
8
100
AcDbSymbolTable
70
2
0
VPORT
5
1F4
100
AcDbSymbolTableRecord
100
AcDbViewportTableRecord
2
*ACTIVE
70
0
10
0.0
20
0.0
11
1.0
21
1.0
12
148.5000000000
22
105.0000000000
13
0.0
23
0.0
14
1.0
24
1.0
15
0.0
25
0.0
16
0.0
26
0.0
36
1.0
17
0.0
27
0.0
37
0.0
40
210.0000000000
41
1.4142857143
42
50.0
43
0.0
44
0.0
50
0.0
51
0.0
71
0
72
100
73
1
74
1
75
0
76
0
77
0
78
0
0
ENDTAB
0
TABLE
2
LTYPE
5
5
100
AcDbSymbolTable
70
6
0
LTYPE
5
14
100
AcDbSymbolTableRecord
100
AcDbLinetypeTableRecord
2
BYBLOCK
70
0
3

72
65
73
0
40
0.0
0
LTYPE
5
15
100
AcDbSymbolTableRecord
100
AcDbLinetypeTableRecord
2
BYLAYER
70
0
3

72
65
73
0
40
0.0
0
LTYPE
5
16
100
AcDbSymbolTableRecord
100
AcDbLinetypeTableRecord
2
CONTINUOUS
70
64
3
Solid line
72
65
73
0
40
0
0
LTYPE
5
1F5
100
AcDbSymbolTableRecord
100
AcDbLinetypeTableRecord
2
CENTER
70
64
3
____ _ ____ _ ____ _ ____ _ ____ _ ____ _ ____
72
65
73
4
40
0.6
49
0.375
74
0
49
-0.075
74
0
49
0.075
74
0
49
-0.075
74
0
0
LTYPE
5
1F6
100
AcDbSymbolTableRecord
100
AcDbLinetypeTableRecord
2
HIDDEN
70
64
3
- - - - - - - - - - - - - - - - - - - -
72
65
73
2
40
0.2
49
0.1
74
0
49
-0.1
74
0
0
LTYPE
5
1F7
100
AcDbSymbolTableRecord
100
AcDbLinetypeTableRecord
2
PHANTOM
70
64
3
_____ _ _ _____ _ _ _____ _ _ _____
72
65
73
6
40
0.8
49
0.45
74
0
49
-0.05
74
0
49
0.1
74
0
49
-0.05
74
0
49
0.1
74
0
49
-0.05
74
0
0
LTYPE
5
1F8
100
AcDbSymbolTableRecord
100
AcDbLinetypeTableRecord
2
DOT
70
64
3
. . . . . . . . . . . . . . . . . . . .
72
65
73
2
40
0.2
49
0.1
74
0
49
-0.1
74
0
0
LTYPE
5
1F9
100
AcDbSymbolTableRecord
100
AcDbLinetypeTableRecord
2
DASHED
70
64
3
- - - - - - - - - - - - - - - - - - - -
72
65
73
2
40
0.2
49
0.1
74
0
49
-0.1
74
0
0
ENDTAB
0
TABLE
2
LAYER
5
2
100
AcDbSymbolTable
70
36
0
LAYER
5
10
100
AcDbSymbolTableRecord
100
AcDbLayerTableRecord
2
0
70
0
62
7
6
CONTINUOUS
0
LAYER
5
1FA
100
AcDbSymbolTableRecord
100
AcDbLayerTableRecord
2
DEFAULT_1
70
0
62
7
6
CENTER
0
LAYER
5
1FB
100
AcDbSymbolTableRecord
100
AcDbLayerTableRecord
2
DEFAULT_2
70
0
62
8
6
HIDDEN
0
LAYER
5
1FC
100
AcDbSymbolTableRecord
100
AcDbLayerTableRecord
2
DEFAULT_3
70
0
62
7
6
PHANTOM
0
LAYER
5
1FD
100
AcDbSymbolTableRecord
100
AcDbLayerTableRecord
2
_BLACK_HOLE
70
0
62
7
6
CONTINUOUS
0
LAYER
5
1FE
100
AcDbSymbolTableRecord
100
AcDbLayerTableRecord
2
ASSI
70
0
62
7
6
CONTINUOUS
0
LAYER
5
1FF
100
AcDbSymbolTableRecord
100
AcDbLayerTableRecord
2
COORDINATE
70
0
62
7
6
CONTINUOUS
0
LAYER
5
200
100
AcDbSymbolTableRecord
100
AcDbLayerTableRecord
2
COORD_ORIGINE
70
0
62
7
6
CONTINUOUS
0
LAYER
5
201
100
AcDbSymbolTableRecord
100
AcDbLayerTableRecord
2
CURVE
70
0
62
7
6
CONTINUOUS
0
LAYER
5
202
100
AcDbSymbolTableRecord
100
AcDbLayerTableRecord
2
DRAFT
70
0
62
7
6
CONTINUOUS
0
LAYER
5
203
100
AcDbSymbolTableRecord
100
AcDbLayerTableRecord
2
IGS
70
0
62
7
6
CONTINUOUS
0
LAYER
5
204
100
AcDbSymbolTableRecord
100
AcDbLayerTableRecord
2
IMPORT_FEATURES
70
0
62
7
6
CONTINUOUS
0
LAYER
5
205
100
AcDbSymbolTableRecord
100
AcDbLayerTableRecord
2
INTF_1
70
0
62
7
6
CONTINUOUS
0
LAYER
5
206
100
AcDbSymbolTableRecord
100
AcDbLayerTableRecord
2
LAY0001
70
0
62
7
6
CONTINUOUS
0
LAYER
5
207
100
AcDbSymbolTableRecord
100
AcDbLayerTableRecord
2
MAGNETOTERMICO
70
0
62
7
6
CONTINUOUS
0
LAYER
5
208
100
AcDbSymbolTableRecord
100
AcDbLayerTableRecord
2
MEC
70
0
62
7
6
CONTINUOUS
0
LAYER
5
209
100
AcDbSymbolTableRecord
100
AcDbLayerTableRecord
2
NOTE
70
0
62
7
6
CONTINUOUS
0
LAYER
5
20A
100
AcDbSymbolTableRecord
100
AcDbLayerTableRecord
2
PIANI
70
0
62
7
6
CONTINUOUS
0
LAYER
5
20B
100
AcDbSymbolTableRecord
100
AcDbLayerTableRecord
2
PIANI_ORIGINE
70
0
62
7
6
CONTINUOUS
0
LAYER
5
20C
100
AcDbSymbolTableRecord
100
AcDbLayerTableRecord
2
PIANI_RIFERIMENTO
70
0
62
7
6
CONTINUOUS
0
LAYER
5
20D
100
AcDbSymbolTableRecord
100
AcDbLayerTableRecord
2
PIANI_SFORMO
70
0
62
7
6
CONTINUOUS
0
LAYER
5
20E
100
AcDbSymbolTableRecord
100
AcDbLayerTableRecord
2
PORTATASTO
70
0
62
7
6
CONTINUOUS
0
LAYER
5
20F
100
AcDbSymbolTableRecord
100
AcDbLayerTableRecord
2
PRO
70
0
62
7
6
CONTINUOUS
0
LAYER
5
210
100
AcDbSymbolTableRecord
100
AcDbLayerTableRecord
2
PUBLISH
70
0
62
7
6
CONTINUOUS
0
LAYER
5
211
100
AcDbSymbolTableRecord
100
AcDbLayerTableRecord
2
PUNTI
70
0
62
7
6
CONTINUOUS
0
LAYER
5
212
100
AcDbSymbolTableRecord
100
AcDbLayerTableRecord
2
RACCORDO
70
0
62
7
6
CONTINUOUS
0
LAYER
5
213
100
AcDbSymbolTableRecord
100
AcDbLayerTableRecord
2
RGB____0____0____0__
70
0
62
7
6
CONTINUOUS
0
LAYER
5
214
100
AcDbSymbolTableRecord
100
AcDbLayerTableRecord
2
SKELETON
70
0
62
7
6
CONTINUOUS
0
LAYER
5
215
100
AcDbSymbolTableRecord
100
AcDbLayerTableRecord
2
SMUSSO
70
0
62
7
6
CONTINUOUS
0
LAYER
5
216
100
AcDbSymbolTableRecord
100
AcDbLayerTableRecord
2
SUPERFICI
70
0
62
7
6
CONTINUOUS
0
LAYER
5
217
100
AcDbSymbolTableRecord
100
AcDbLayerTableRecord
2
TRASH
70
0
62
7
6
CONTINUOUS
0
LAYER
5
218
100
AcDbSymbolTableRecord
100
AcDbLayerTableRecord
2
XSEC_DATUMS
70
0
62
7
6
CONTINUOUS
0
ENDTAB
0
TABLE
2
STYLE
5
3
100
AcDbSymbolTable
70
1
0
STYLE
5
11
100
AcDbSymbolTableRecord
100
AcDbTextStyleTableRecord
2
STANDARD
70
0
40
0.0
41
0.8000000000
50
0.0
71
0
42
0.2
3
txt
4

0
ENDTAB
0
TABLE
2
VIEW
5
6
100
AcDbSymbolTable
70
0
0
ENDTAB
0
TABLE
2
UCS
5
7
100
AcDbSymbolTable
70
0
0
ENDTAB
0
TABLE
2
APPID
5
9
100
AcDbSymbolTable
70
1
0
APPID
5
219
100
AcDbSymbolTableRecord
100
AcDbRegAppTableRecord
2
ACAD
70
0
0
ENDTAB
0
TABLE
2
DIMSTYLE
5
A
100
AcDbSymbolTable
70
1
0
DIMSTYLE
105
21A
100
AcDbSymbolTableRecord
100
AcDbDimStyleTableRecord
2
STANDARD
70
0
3

4

5

6

7

40
1.0
41
3.0000000000
42
0.0625
43
0.38
44
0.18
45
0.0
46
0.0
47
0.0100000000
48
0.0100000000
140
3.0000000000
141
0.09
142
0.0
143
25.4
144
1.0000000000
145
0.0
146
1.0000000000
147
0.09
71
1
72
0
73
0
74
0
75
0
76
0
77
1
78
8
170
0
171
2
172
0
173
0
174
0
175
0
176
0
177
0
178
0
270
2
271
2
272
2
273
2
274
2
340
11
275
0
280
0
281
0
282
0
283
1
284
8
285
0
286
0
287
3
288
0
0
ENDTAB
0
TABLE
2
BLOCK_RECORD
5
1
100
AcDbSymbolTable
70
0
0
BLOCK_RECORD
5
1B
100
AcDbSymbolTableRecord
100
AcDbBlockTableRecord
2
*MODEL_SPACE
0
BLOCK_RECORD
5
1C
100
AcDbSymbolTableRecord
100
AcDbBlockTableRecord
2
*PAPER_SPACE
0
ENDTAB
0
ENDSEC
0
SECTION
2
BLOCKS
0
BLOCK
5
1E
100
AcDbEntity
8
0
100
AcDbBlockBegin
2
*MODEL_SPACE
70
0
10
0.0
20
0.0
30
0.0
3
*MODEL_SPACE
1

0
ENDBLK
5
1F
100
AcDbEntity
8
0
100
AcDbBlockEnd
0
BLOCK
5
20
100
AcDbEntity
8
0
100
AcDbBlockBegin
2
*PAPER_SPACE
70
0
10
0.0
20
0.0
30
0.0
3
*PAPER_SPACE
1

0
ENDBLK
5
21
100
AcDbEntity
8
0
100
AcDbBlockEnd
0
ENDSEC
0
SECTION
2
ENTITIES
0
LINE
5
21B
100
AcDbEntity
8
0
100
AcDbLine
62
7
6
CONTINUOUS
10
9.8558538668
20
-24.6591570375
11
7.4558454052
21
-24.6591570375
0
LINE
5
21C
100
AcDbEntity
8
0
100
AcDbLine
62
7
6
CONTINUOUS
10
-7.5441461332
20
-24.6591570375
11
-9.9441545948
21
-24.6591570375
0
LINE
5
21D
100
AcDbEntity
8
0
100
AcDbLine
62
7
6
CONTINUOUS
10
-9.9397827608
20
-24.6547852035
11
-7.5485179672
21
-24.6547852035
0
LINE
5
21E
100
AcDbEntity
8
0
100
AcDbLine
62
7
6
CONTINUOUS
10
7.4602172392
20
-24.6547852035
11
9.8514820328
21
-24.6547852035
0
LINE
5
21F
100
AcDbEntity
8
0
100
AcDbLine
62
9
6
CONTINUOUS
10
7.2102214700
20
-24.4047894342
11
10.1014778020
21
-24.4047894342
0
LINE
5
220
100
AcDbEntity
8
0
100
AcDbLine
62
9
6
CONTINUOUS
10
-7.2985221980
20
-24.4047894342
11
-10.1897785300
21
-24.4047894342
0
LINE
5
221
100
AcDbEntity
8
0
100
AcDbLine
62
7
6
CONTINUOUS
10
-4.4941503640
20
-24.1591570375
11
-1.2441503640
21
-24.1591570375
0
LINE
5
222
100
AcDbEntity
8
0
100
AcDbLine
62
7
6
CONTINUOUS
10
1.1558496360
20
-24.1591570375
11
4.4058496360
21
-24.1591570375
0
LINE
5
223
100
AcDbEntity
8
0
100
AcDbLine
62
7
6
CONTINUOUS
10
-3.5441503640
20
-24.1533392076
11
-1.2441503640
21
-24.1533392076
0
LINE
5
224
100
AcDbEntity
8
0
100
AcDbLine
62
7
6
CONTINUOUS
10
1.1558496360
20
-24.1533392076
11
3.4558496360
21
-24.1533392076
0
LINE
5
225
100
AcDbEntity
8
0
100
AcDbLine
62
7
6
CONTINUOUS
10
-4.4504997171
20
-24.1155063906
11
-3.5441503640
21
-24.1155063906
0
LINE
5
226
100
AcDbEntity
8
0
100
AcDbLine
62
7
6
CONTINUOUS
10
3.4558496360
20
-24.1155063906
11
4.3621989892
21
-24.1155063906
0
LINE
5
227
100
AcDbEntity
8
0
100
AcDbLine
62
9
6
CONTINUOUS
10
7.2102214700
20
-24.0034946047
11
10.1014778020
21
-24.0034946047
0
LINE
5
228
100
AcDbEntity
8
0
100
AcDbLine
62
9
6
CONTINUOUS
10
-7.2985221980
20
-24.0034946047
11
-10.1897785300
21
-24.0034946047
0
LINE
5
229
100
AcDbEntity
8
0
100
AcDbLine
62
9
6
CONTINUOUS
10
9.8514820328
20
-23.7869882538
11
7.4602172392
21
-23.7869882538
0
LINE
5
22A
100
AcDbEntity
8
0
100
AcDbLine
62
9
6
CONTINUOUS
10
-7.5485179672
20
-23.7869882538
11
-9.9397827608
21
-23.7869882538
0
LINE
5
22B
100
AcDbEntity
8
0
100
AcDbLine
62
9
6
CONTINUOUS
10
-7.5441461332
20
24.3408429625
11
-7.5485179672
21
24.3364711285
0
LINE
5
22C
100
AcDbEntity
8
0
100
AcDbLine
62
9
6
CONTINUOUS
10
-7.2941503640
20
24.0908471933
11
-7.2985221980
21
24.0864753593
0
LINE
5
22D
100
AcDbEntity
8
0
100
AcDbLine
62
7
6
CONTINUOUS
10
-10.8441503640
20
19.3908429625
11
-8.6441503640
21
21.5908429625
0
LINE
5
22E
100
AcDbEntity
8
0
100
AcDbLine
62
7
6
CONTINUOUS
10
-11.1858598396
20
18.3491334869
11
-10.8441503640
21
18.6908429625
0
LINE
5
22F
100
AcDbEntity
8
0
100
AcDbLine
62
7
6
CONTINUOUS
10
-7.9441503640
20
21.5908429625
11
-7.2999681938
21
22.2350251327
0
LINE
5
230
100
AcDbEntity
8
0
100
AcDbLine
62
7
6
CONTINUOUS
10
-9.9448733618
20
-23.2818067683
11
-7.5434273661
21
-23.2818067683
0
LINE
5
231
100
AcDbEntity
8
0
100
AcDbLine
62
7
6
CONTINUOUS
10
9.8565726339
20
-23.2818067683
11
7.4551266382
21
-23.2818067683
0
LINE
5
232
100
AcDbEntity
8
0
100
AcDbLine
62
7
6
CONTINUOUS
10
0.9558496360
20
-22.5591570375
11
-1.0441503640
21
-22.5591570375
0
LINE
5
233
100
AcDbEntity
8
0
100
AcDbLine
62
7
6
CONTINUOUS
10
4.4058496360
20
-22.5591570375
11
10.6053574825
21
-22.5591570375
0
LINE
5
234
100
AcDbEntity
8
0
100
AcDbLine
62
7
6
CONTINUOUS
10
-4.4941503640
20
-22.5591570375
11
-10.6936582105
21
-22.5591570375
0
LINE
5
235
100
AcDbEntity
8
0
100
AcDbLine
62
7
6
CONTINUOUS
10
-10.6858661857
20
-22.5533392076
11
-7.2999681938
21
-22.5533392076
0
LINE
5
236
100
AcDbEntity
8
0
100
AcDbLine
62
7
6
CONTINUOUS
10
3.4558496360
20
-22.5533392076
11
0.9558496360
21
-22.5533392076
0
LINE
5
237
100
AcDbEntity
8
0
100
AcDbLine
62
7
6
CONTINUOUS
10
-1.0441503640
20
-22.5533392076
11
-3.5441503640
21
-22.5533392076
0
LINE
5
238
100
AcDbEntity
8
0
100
AcDbLine
62
7
6
CONTINUOUS
10
7.2116674658
20
-22.5533392076
11
10.5975654577
21
-22.5533392076
0
LINE
5
239
100
AcDbEntity
8
0
100
AcDbLine
62
9
6
CONTINUOUS
10
-7.3581803385
20
-22.4951270630
11
7.2698796105
21
-22.4951270630
0
LINE
5
23A
100
AcDbEntity
8
0
100
AcDbLine
62
7
6
CONTINUOUS
10
-8.6441503640
20
-21.9091570375
11
8.5558496360
21
-21.9091570375
0
LINE
5
23B
100
AcDbEntity
8
0
100
AcDbLine
62
9
6
CONTINUOUS
10
-9.5941503640
20
-20.9091570375
11
-0.0441503640
21
-20.9091570375
0
LINE
5
23C
100
AcDbEntity
8
0
100
AcDbLine
62
9
6
CONTINUOUS
10
1.2058496360
20
-20.9091570375
11
9.5558496360
21
-20.9091570375
0
LINE
5
23D
100
AcDbEntity
8
0
100
AcDbLine
62
9
6
CONTINUOUS
10
-7.5441461332
20
-24.6591570375
11
-7.5485179672
21
-24.6547852035
0
LINE
5
23E
100
AcDbEntity
8
0
100
AcDbLine
62
9
6
CONTINUOUS
10
-7.2941503640
20
-24.4091612682
11
-7.2985221980
21
-24.4047894342
0
LINE
5
23F
100
AcDbEntity
8
0
100
AcDbLine
62
7
6
CONTINUOUS
10
-8.6441503640
20
-21.9091570375
11
-10.8441503640
21
-19.7091570375
0
LINE
5
240
100
AcDbEntity
8
0
100
AcDbLine
62
7
6
CONTINUOUS
10
-11.1858598396
20
-18.6674475619
11
-10.8441503640
21
-19.0091570375
0
LINE
5
241
100
AcDbEntity
8
0
100
AcDbLine
62
7
6
CONTINUOUS
10
-7.2999681938
20
-22.5533392076
11
-7.9441503640
21
-21.9091570375
0
LINE
5
242
100
AcDbEntity
8
0
100
AcDbLine
62
9
6
CONTINUOUS
10
-0.0441503640
20
-19.9091570375
11
1.2058496360
21
-19.9091570375
0
LINE
5
243
100
AcDbEntity
8
0
100
AcDbLine
62
9
6
CONTINUOUS
10
-8.5941503640
20
-17.7591570375
11
-2.2941503640
21
-17.7591570375
0
LINE
5
244
100
AcDbEntity
8
0
100
AcDbLine
62
9
6
CONTINUOUS
10
2.2058496360
20
-17.7591570375
11
8.5058496360
21
-17.7591570375
0
LINE
5
245
100
AcDbEntity
8
0
100
AcDbLine
62
7
6
CONTINUOUS
10
-8.5941503640
20
-17.2591570375
11
-2.2941503640
21
-17.2591570375
0
LINE
5
246
100
AcDbEntity
8
0
100
AcDbLine
62
7
6
CONTINUOUS
10
2.2058496360
20
-17.2591570375
11
8.5058496360
21
-17.2591570375
0
LINE
5
247
100
AcDbEntity
8
0
100
AcDbLine
62
7
6
CONTINUOUS
10
4.3621989892
20
23.7971923157
11
4.4058496360
21
23.8408429625
0
LINE
5
248
100
AcDbEntity
8
0
100
AcDbLine
62
9
6
CONTINUOUS
10
-1.2941503640
20
-16.2591570375
11
-0.7941503640
21
-16.2591570375
0
LINE
5
249
100
AcDbEntity
8
0
100
AcDbLine
62
9
6
CONTINUOUS
10
9.5058496360
20
-16.2591570375
11
10.0058496360
21
-16.2591570375
0
LINE
5
24A
100
AcDbEntity
8
0
100
AcDbLine
62
9
6
CONTINUOUS
10
-1.2941503640
20
-14.2591570375
11
-0.7941503640
21
-14.2591570374
0
LINE
5
24B
100
AcDbEntity
8
0
100
AcDbLine
62
9
6
CONTINUOUS
10
9.5058496360
20
-14.2591570375
11
10.0058496360
21
-14.2591570374
0
LINE
5
24C
100
AcDbEntity
8
0
100
AcDbLine
62
7
6
CONTINUOUS
10
4.4058496360
20
-24.1591570375
11
4.3621989892
21
-24.1155063906
0
LINE
5
24D
100
AcDbEntity
8
0
100
AcDbLine
62
7
6
CONTINUOUS
10
-11.1269483640
20
4.2385777346
11
-11.1932780095
21
8.1736165821
0
LINE
5
24E
100
AcDbEntity
8
0
100
AcDbLine
62
9
6
CONTINUOUS
10
-10.1897785300
20
-24.0034946047
11
-10.1941503640
21
-23.5696421857
0
LINE
5
24F
100
AcDbEntity
8
0
100
AcDbLine
62
9
6
CONTINUOUS
10
-9.9397827608
20
-23.7869882538
11
-9.9448733618
21
-23.2818067683
0
LINE
5
250
100
AcDbEntity
8
0
100
AcDbLine
62
7
6
CONTINUOUS
10
-11.1945865579
20
-8.4919247415
11
-11.1657880437
21
-11.9091570375
0
LINE
5
251
100
AcDbEntity
8
0
100
AcDbLine
62
7
6
CONTINUOUS
10
-11.1945867074
20
21.7408598856
11
-11.1945865579
21
8.1736106666
0
LINE
5
252
100
AcDbEntity
8
0
100
AcDbLine
62
7
6
CONTINUOUS
10
-11.1945865579
20
-8.4919247415
11
-11.1945867074
21
-22.0591739605
0
LINE
5
253
100
AcDbEntity
8
0
100
AcDbLine
62
7
6
CONTINUOUS
10
-11.1858598396
20
21.7350420558
11
-11.1858598396
21
18.3491334869
0
LINE
5
254
100
AcDbEntity
8
0
100
AcDbLine
62
7
6
CONTINUOUS
10
-11.1858598396
20
-18.6674475619
11
-11.1858598396
21
-22.0533561307
0
LINE
5
255
100
AcDbEntity
8
0
100
AcDbLine
62
7
6
CONTINUOUS
10
-11.1657880437
20
18.3692052829
11
-11.1657880437
21
11.5908429625
0
LINE
5
256
100
AcDbEntity
8
0
100
AcDbLine
62
7
6
CONTINUOUS
10
-11.1657880437
20
-11.9091570375
11
-11.1657880437
21
-18.6875193578
0
LINE
5
257
100
AcDbEntity
8
0
100
AcDbLine
62
7
6
CONTINUOUS
10
-11.1269483640
20
-4.5568918095
11
-11.1269483640
21
4.2385777346
0
LINE
5
258
100
AcDbEntity
8
0
100
AcDbLine
62
9
6
CONTINUOUS
10
-10.9941503640
20
4.2385777346
11
-10.9941503640
21
-4.5568918095
0
LINE
5
259
100
AcDbEntity
8
0
100
AcDbLine
62
7
6
CONTINUOUS
10
-10.8441503640
20
-19.7091570375
11
-10.8441503640
21
19.3908429625
0
LINE
5
25A
100
AcDbEntity
8
0
100
AcDbLine
62
7
6
CONTINUOUS
10
-10.1941503640
20
-22.5591570375
11
-10.1941503640
21
-24.4091612682
0
LINE
5
25B
100
AcDbEntity
8
0
100
AcDbLine
62
7
6
CONTINUOUS
10
-10.1941503640
20
22.2408429625
11
-10.1941503640
21
24.0908471933
0
LINE
5
25C
100
AcDbEntity
8
0
100
AcDbLine
62
7
6
CONTINUOUS
10
-10.1897785300
20
24.0864753593
11
-10.1897785300
21
23.6851805298
0
LINE
5
25D
100
AcDbEntity
8
0
100
AcDbLine
62
7
6
CONTINUOUS
10
-10.1897785300
20
-24.0034946047
11
-10.1897785300
21
-24.4047894342
0
LINE
5
25E
100
AcDbEntity
8
0
100
AcDbLine
62
9
6
CONTINUOUS
10
-9.9397827608
20
-23.7869882538
11
-9.9397827608
21
-24.6547852035
0
LINE
5
25F
100
AcDbEntity
8
0
100
AcDbLine
62
9
6
CONTINUOUS
10
-9.9397827608
20
23.4686741789
11
-9.9397827608
21
24.3364711285
0
LINE
5
260
100
AcDbEntity
8
0
100
AcDbLine
62
7
6
CONTINUOUS
10
-11.1945865579
20
8.1736106666
11
-11.1657880437
21
11.5908429625
0
LINE
5
261
100
AcDbEntity
8
0
100
AcDbLine
62
9
6
CONTINUOUS
10
-10.1941503640
20
23.2513281108
11
-10.1897785300
21
23.6851805298
0
LINE
5
262
100
AcDbEntity
8
0
100
AcDbLine
62
9
6
CONTINUOUS
10
-9.9448733618
20
22.9634926934
11
-9.9397827608
21
23.4686741789
0
LINE
5
263
100
AcDbEntity
8
0
100
AcDbLine
62
7
6
CONTINUOUS
10
-11.1932780095
20
-8.4919306570
11
-11.1269483640
21
-4.5568918095
0
LINE
5
264
100
AcDbEntity
8
0
100
AcDbLine
62
7
6
CONTINUOUS
10
4.4058496360
20
22.2408429625
11
4.3619273890
21
22.1969207155
0
LINE
5
265
100
AcDbEntity
8
0
100
AcDbLine
62
9
6
CONTINUOUS
10
9.8558538668
20
24.3408429625
11
9.8514820328
21
24.3364711285
0
LINE
5
266
100
AcDbEntity
8
0
100
AcDbLine
62
9
6
CONTINUOUS
10
10.1058496360
20
24.0908471933
11
10.1014778020
21
24.0864753593
0
LINE
5
267
100
AcDbEntity
8
0
100
AcDbLine
62
9
6
CONTINUOUS
10
10.6062923255
20
22.2408429625
11
10.5975654577
21
22.2350251327
0
LINE
5
268
100
AcDbEntity
8
0
100
AcDbLine
62
9
6
CONTINUOUS
10
11.1062859794
20
21.7408598856
11
11.0975591116
21
21.7350420558
0
LINE
5
269
100
AcDbEntity
8
0
100
AcDbLine
62
7
6
CONTINUOUS
10
8.5058496360
20
-13.2591570375
11
2.2058496360
21
-13.2591570375
0
LINE
5
26A
100
AcDbEntity
8
0
100
AcDbLine
62
7
6
CONTINUOUS
10
-2.2941503640
20
-13.2591570375
11
-8.5941503640
21
-13.2591570375
0
LINE
5
26B
100
AcDbEntity
8
0
100
AcDbLine
62
7
6
CONTINUOUS
10
9.5058496360
20
-13.2591570375
11
10.7558496360
21
-13.2591570375
0
LINE
5
26C
100
AcDbEntity
8
0
100
AcDbLine
62
9
6
CONTINUOUS
10
10.7558496360
20
-12.8663367144
11
9.5058496360
21
-12.8663367144
0
LINE
5
26D
100
AcDbEntity
8
0
100
AcDbLine
62
9
6
CONTINUOUS
10
1.2058496360
20
-12.8663367144
11
-0.0441503640
21
-12.8663367144
0
LINE
5
26E
100
AcDbEntity
8
0
100
AcDbLine
62
9
6
CONTINUOUS
10
-9.5941503640
20
-12.8663367144
11
-10.8441503640
21
-12.8663367144
0
LINE
5
26F
100
AcDbEntity
8
0
100
AcDbLine
62
9
6
CONTINUOUS
10
8.5058496360
20
-12.7591570375
11
2.2058496360
21
-12.7591570375
0
LINE
5
270
100
AcDbEntity
8
0
100
AcDbLine
62
9
6
CONTINUOUS
10
-2.2941503640
20
-12.7591570375
11
-8.5941503640
21
-12.7591570375
0
LINE
5
271
100
AcDbEntity
8
0
100
AcDbLine
62
7
6
CONTINUOUS
10
11.0774873157
20
-11.9091570375
11
10.7558496360
21
-11.9091570375
0
LINE
5
272
100
AcDbEntity
8
0
100
AcDbLine
62
7
6
CONTINUOUS
10
-10.8441503640
20
-11.9091570375
11
-11.1657880437
21
-11.9091570375
0
LINE
5
273
100
AcDbEntity
8
0
100
AcDbLine
62
9
6
CONTINUOUS
10
10.7558496360
20
-11.8663367144
11
9.5058496360
21
-11.8663367144
0
LINE
5
274
100
AcDbEntity
8
0
100
AcDbLine
62
9
6
CONTINUOUS
10
1.2058496360
20
-11.8663367144
11
-0.0441503640
21
-11.8663367144
0
LINE
5
275
100
AcDbEntity
8
0
100
AcDbLine
62
9
6
CONTINUOUS
10
-9.5941503640
20
-11.8663367144
11
-10.8441503640
21
-11.8663367144
0
LINE
5
276
100
AcDbEntity
8
0
100
AcDbLine
62
9
6
CONTINUOUS
10
10.5975654577
20
-22.5533392076
11
10.6062923255
21
-22.5591570375
0
LINE
5
277
100
AcDbEntity
8
0
100
AcDbLine
62
9
6
CONTINUOUS
10
11.0975591116
20
-22.0533561307
11
11.1062859794
21
-22.0591739605
0
LINE
5
278
100
AcDbEntity
8
0
100
AcDbLine
62
7
6
CONTINUOUS
10
4.4058496360
20
-22.5591570375
11
4.3619273890
21
-22.5152347904
0
LINE
5
279
100
AcDbEntity
8
0
100
AcDbLine
62
9
6
CONTINUOUS
10
9.8558538668
20
-24.6591570375
11
9.8514820328
21
-24.6547852035
0
LINE
5
27A
100
AcDbEntity
8
0
100
AcDbLine
62
9
6
CONTINUOUS
10
10.1058496360
20
-24.4091612682
11
10.1014778020
21
-24.4047894342
0
LINE
5
27B
100
AcDbEntity
8
0
100
AcDbLine
62
9
6
CONTINUOUS
10
-7.5485179672
20
23.4686741789
11
-7.5434273661
21
22.9634926934
0
LINE
5
27C
100
AcDbEntity
8
0
100
AcDbLine
62
9
6
CONTINUOUS
10
-7.2985221980
20
23.6851805298
11
-7.2941503640
21
23.2513281108
0
LINE
5
27D
100
AcDbEntity
8
0
100
AcDbLine
62
7
6
CONTINUOUS
10
-9.5941503640
20
-20.9591570375
11
-9.5941503640
21
-9.5591570375
0
LINE
5
27E
100
AcDbEntity
8
0
100
AcDbLine
62
7
6
CONTINUOUS
10
-9.5941503640
20
9.2408429625
11
-9.5941503640
21
20.6408429625
0
LINE
5
27F
100
AcDbEntity
8
0
100
AcDbLine
62
9
6
CONTINUOUS
10
-8.5941503640
20
12.9408429625
11
-8.5941503640
21
12.4408429625
0
LINE
5
280
100
AcDbEntity
8
0
100
AcDbLine
62
9
6
CONTINUOUS
10
-8.5941503640
20
-17.2591570375
11
-8.5941503640
21
-17.7591570375
0
LINE
5
281
100
AcDbEntity
8
0
100
AcDbLine
62
9
6
CONTINUOUS
10
-8.5941503640
20
-13.2591570375
11
-8.5941503640
21
-12.7591570375
0
LINE
5
282
100
AcDbEntity
8
0
100
AcDbLine
62
9
6
CONTINUOUS
10
-8.5941503640
20
16.9408429625
11
-8.5941503640
21
17.4408429625
0
LINE
5
283
100
AcDbEntity
8
0
100
AcDbLine
62
9
6
CONTINUOUS
10
-7.5485179672
20
-23.7869882538
11
-7.5485179672
21
-24.6547852035
0
LINE
5
284
100
AcDbEntity
8
0
100
AcDbLine
62
9
6
CONTINUOUS
10
-7.5485179672
20
23.4686741789
11
-7.5485179672
21
24.3364711285
0
LINE
5
285
100
AcDbEntity
8
0
100
AcDbLine
62
7
6
CONTINUOUS
10
-7.2985221980
20
-24.4047894342
11
-7.2985221980
21
-24.0034946047
0
LINE
5
286
100
AcDbEntity
8
0
100
AcDbLine
62
7
6
CONTINUOUS
10
-7.2985221980
20
23.6851805298
11
-7.2985221980
21
24.0864753593
0
LINE
5
287
100
AcDbEntity
8
0
100
AcDbLine
62
7
6
CONTINUOUS
10
-7.2941503640
20
-22.5591570375
11
-7.2941503640
21
-24.4091612682
0
LINE
5
288
100
AcDbEntity
8
0
100
AcDbLine
62
7
6
CONTINUOUS
10
-7.2941503640
20
22.2408429625
11
-7.2941503640
21
24.0908471933
0
LINE
5
289
100
AcDbEntity
8
0
100
AcDbLine
62
9
6
CONTINUOUS
10
-7.5434273661
20
-23.2818067683
11
-7.5485179672
21
-23.7869882538
0
LINE
5
28A
100
AcDbEntity
8
0
100
AcDbLine
62
9
6
CONTINUOUS
10
-7.2941503640
20
-23.5696421857
11
-7.2985221980
21
-24.0034946047
0
LINE
5
28B
100
AcDbEntity
8
0
100
AcDbLine
62
7
6
CONTINUOUS
10
10.7558496360
20
-9.5591570375
11
9.5058496360
21
-9.5591570375
0
LINE
5
28C
100
AcDbEntity
8
0
100
AcDbLine
62
7
6
CONTINUOUS
10
1.2058496360
20
-9.5591570375
11
-0.0441503640
21
-9.5591570375
0
LINE
5
28D
100
AcDbEntity
8
0
100
AcDbLine
62
7
6
CONTINUOUS
10
-9.5941503640
20
-9.5591570375
11
-10.8441503640
21
-9.5591570375
0
LINE
5
28E
100
AcDbEntity
8
0
100
AcDbLine
62
7
6
CONTINUOUS
10
-4.4941503640
20
23.8408429625
11
-4.4941503640
21
23.2087879097
0
LINE
5
28F
100
AcDbEntity
8
0
100
AcDbLine
62
7
6
CONTINUOUS
10
-4.4941503640
20
22.7728980154
11
-4.4941503640
21
22.2408429625
0
LINE
5
290
100
AcDbEntity
8
0
100
AcDbLine
62
7
6
CONTINUOUS
10
-4.4941503640
20
-22.5591570375
11
-4.4941503640
21
-23.0912120903
0
LINE
5
291
100
AcDbEntity
8
0
100
AcDbLine
62
7
6
CONTINUOUS
10
-4.4941503640
20
-23.5271019846
11
-4.4941503640
21
-24.1591570375
0
LINE
5
292
100
AcDbEntity
8
0
100
AcDbLine
62
7
6
CONTINUOUS
10
-4.4502281169
20
-24.1130493105
11
-4.4502281169
21
-22.5152347904
0
LINE
5
293
100
AcDbEntity
8
0
100
AcDbLine
62
7
6
CONTINUOUS
10
-4.4502281169
20
22.1969207155
11
-4.4502281169
21
23.7947352356
0
LINE
5
294
100
AcDbEntity
8
0
100
AcDbLine
62
7
6
CONTINUOUS
10
-3.5441503640
20
-22.5152501243
11
-3.5441503640
21
-24.1533392076
0
LINE
5
295
100
AcDbEntity
8
0
100
AcDbLine
62
7
6
CONTINUOUS
10
-3.5441503640
20
22.1969360494
11
-3.5441503640
21
23.8350251327
0
LINE
5
296
100
AcDbEntity
8
0
100
AcDbLine
62
7
6
CONTINUOUS
10
11.0386476361
20
-4.5568918095
11
10.9058496360
21
-4.5568918095
0
LINE
5
297
100
AcDbEntity
8
0
100
AcDbLine
62
7
6
CONTINUOUS
10
-10.9941503640
20
-4.5568918095
11
-11.1269483640
21
-4.5568918095
0
LINE
5
298
100
AcDbEntity
8
0
100
AcDbLine
62
9
6
CONTINUOUS
10
-2.2941503640
20
12.9408429625
11
-2.2941503639
21
12.4408429626
0
LINE
5
299
100
AcDbEntity
8
0
100
AcDbLine
62
9
6
CONTINUOUS
10
-2.2941503640
20
-17.2591570375
11
-2.2941503639
21
-17.7591570374
0
LINE
5
29A
100
AcDbEntity
8
0
100
AcDbLine
62
9
6
CONTINUOUS
10
-2.2941503640
20
-13.2591570375
11
-2.2941503640
21
-12.7591570375
0
LINE
5
29B
100
AcDbEntity
8
0
100
AcDbLine
62
9
6
CONTINUOUS
10
-2.2941503640
20
16.9408429625
11
-2.2941503640
21
17.4408429625
0
LINE
5
29C
100
AcDbEntity
8
0
100
AcDbLine
62
7
6
CONTINUOUS
10
-1.2941503640
20
-16.2591570375
11
-1.2941503640
21
-14.2591570375
0
LINE
5
29D
100
AcDbEntity
8
0
100
AcDbLine
62
7
6
CONTINUOUS
10
-1.2941503640
20
13.9408429625
11
-1.2941503640
21
15.9408429625
0
LINE
5
29E
100
AcDbEntity
8
0
100
AcDbLine
62
9
6
CONTINUOUS
10
-1.2441503640
20
23.8350251327
11
-1.2441503640
21
23.8408429625
0
LINE
5
29F
100
AcDbEntity
8
0
100
AcDbLine
62
7
6
CONTINUOUS
10
-1.0441503640
20
23.6350217481
11
-1.0441503640
21
22.2350251327
0
LINE
5
2A0
100
AcDbEntity
8
0
100
AcDbLine
62
7
6
CONTINUOUS
10
-1.0441503640
20
-22.5533392076
11
-1.0441503640
21
-23.9533358230
0
LINE
5
2A1
100
AcDbEntity
8
0
100
AcDbLine
62
9
6
CONTINUOUS
10
-0.7941503640
20
-16.2591570375
11
-0.7941503640
21
-14.2591570375
0
LINE
5
2A2
100
AcDbEntity
8
0
100
AcDbLine
62
9
6
CONTINUOUS
10
-0.7941503640
20
13.9408429625
11
-0.7941503640
21
15.9408429625
0
LINE
5
2A3
100
AcDbEntity
8
0
100
AcDbLine
62
7
6
CONTINUOUS
10
-0.0441503640
20
-21.9091570375
11
-0.0441503640
21
-9.5591570375
0
LINE
5
2A4
100
AcDbEntity
8
0
100
AcDbLine
62
7
6
CONTINUOUS
10
-0.0441503640
20
9.2408429625
11
-0.0441503640
21
21.5908429625
0
LINE
5
2A5
100
AcDbEntity
8
0
100
AcDbLine
62
7
6
CONTINUOUS
10
0.9558496360
20
23.6350217481
11
0.9558496360
21
22.2350251327
0
LINE
5
2A6
100
AcDbEntity
8
0
100
AcDbLine
62
7
6
CONTINUOUS
10
0.9558496360
20
-22.5533392076
11
0.9558496360
21
-23.9533358230
0
LINE
5
2A7
100
AcDbEntity
8
0
100
AcDbLine
62
9
6
CONTINUOUS
10
1.1558496360
20
23.8408429625
11
1.1558496360
21
23.8350251327
0
LINE
5
2A8
100
AcDbEntity
8
0
100
AcDbLine
62
9
6
CONTINUOUS
10
1.1558496360
20
-24.1533392076
11
1.1558496360
21
-24.1591570375
0
LINE
5
2A9
100
AcDbEntity
8
0
100
AcDbLine
62
7
6
CONTINUOUS
10
1.2058496360
20
-21.9091570375
11
1.2058496360
21
-9.5591570375
0
LINE
5
2AA
100
AcDbEntity
8
0
100
AcDbLine
62
7
6
CONTINUOUS
10
1.2058496360
20
9.2408429625
11
1.2058496360
21
21.5908429625
0
LINE
5
2AB
100
AcDbEntity
8
0
100
AcDbLine
62
9
6
CONTINUOUS
10
2.2058496360
20
12.9408429625
11
2.2058496360
21
12.4408429625
0
LINE
5
2AC
100
AcDbEntity
8
0
100
AcDbLine
62
9
6
CONTINUOUS
10
2.2058496360
20
-17.2591570375
11
2.2058496360
21
-17.7591570375
0
LINE
5
2AD
100
AcDbEntity
8
0
100
AcDbLine
62
9
6
CONTINUOUS
10
2.2058496360
20
-13.2591570375
11
2.2058496360
21
-12.7591570375
0
LINE
5
2AE
100
AcDbEntity
8
0
100
AcDbLine
62
9
6
CONTINUOUS
10
2.2058496360
20
16.9408429625
11
2.2058496360
21
17.4408429625
0
LINE
5
2AF
100
AcDbEntity
8
0
100
AcDbLine
62
7
6
CONTINUOUS
10
3.4558496360
20
-22.5152501243
11
3.4558496360
21
-24.1533392076
0
LINE
5
2B0
100
AcDbEntity
8
0
100
AcDbLine
62
7
6
CONTINUOUS
10
3.4558496360
20
22.1969360494
11
3.4558496360
21
23.8350251327
0
LINE
5
2B1
100
AcDbEntity
8
0
100
AcDbLine
62
9
6
CONTINUOUS
10
7.2102214700
20
-24.0034946047
11
7.2058496360
21
-23.5696421857
0
LINE
5
2B2
100
AcDbEntity
8
0
100
AcDbLine
62
9
6
CONTINUOUS
10
7.4602172392
20
-23.7869882538
11
7.4551266382
21
-23.2818067683
0
LINE
5
2B3
100
AcDbEntity
8
0
100
AcDbLine
62
7
6
CONTINUOUS
10
4.3619273890
20
-24.1130493105
11
4.3619273890
21
-22.5152347904
0
LINE
5
2B4
100
AcDbEntity
8
0
100
AcDbLine
62
7
6
CONTINUOUS
10
4.3619273890
20
22.1969207155
11
4.3619273890
21
23.7947352356
0
LINE
5
2B5
100
AcDbEntity
8
0
100
AcDbLine
62
7
6
CONTINUOUS
10
4.4058496360
20
-24.1591570375
11
4.4058496360
21
-23.5271019846
0
LINE
5
2B6
100
AcDbEntity
8
0
100
AcDbLine
62
7
6
CONTINUOUS
10
4.4058496360
20
-23.0912120903
11
4.4058496360
21
-22.5591570375
0
LINE
5
2B7
100
AcDbEntity
8
0
100
AcDbLine
62
7
6
CONTINUOUS
10
4.4058496360
20
22.2408429625
11
4.4058496360
21
22.7728980154
0
LINE
5
2B8
100
AcDbEntity
8
0
100
AcDbLine
62
7
6
CONTINUOUS
10
4.4058496360
20
23.2087879097
11
4.4058496360
21
23.8408429625
0
LINE
5
2B9
100
AcDbEntity
8
0
100
AcDbLine
62
7
6
CONTINUOUS
10
7.2058496360
20
-22.5591570375
11
7.2058496360
21
-24.4091612682
0
LINE
5
2BA
100
AcDbEntity
8
0
100
AcDbLine
62
7
6
CONTINUOUS
10
7.2058496360
20
22.2408429625
11
7.2058496360
21
24.0908471933
0
LINE
5
2BB
100
AcDbEntity
8
0
100
AcDbLine
62
7
6
CONTINUOUS
10
7.2102214700
20
24.0864753593
11
7.2102214700
21
23.6851805298
0
LINE
5
2BC
100
AcDbEntity
8
0
100
AcDbLine
62
7
6
CONTINUOUS
10
7.2102214700
20
-24.0034946047
11
7.2102214700
21
-24.4047894342
0
LINE
5
2BD
100
AcDbEntity
8
0
100
AcDbLine
62
9
6
CONTINUOUS
10
7.2058496360
20
23.2513281108
11
7.2102214700
21
23.6851805298
0
LINE
5
2BE
100
AcDbEntity
8
0
100
AcDbLine
62
9
6
CONTINUOUS
10
7.4551266382
20
22.9634926934
11
7.4602172392
21
23.4686741789
0
LINE
5
2BF
100
AcDbEntity
8
0
100
AcDbLine
62
7
6
CONTINUOUS
10
11.0386476361
20
4.2385777346
11
10.9058496360
21
4.2385777346
0
LINE
5
2C0
100
AcDbEntity
8
0
100
AcDbLine
62
7
6
CONTINUOUS
10
-10.9941503640
20
4.2385777346
11
-11.1269483640
21
4.2385777346
0
LINE
5
2C1
100
AcDbEntity
8
0
100
AcDbLine
62
9
6
CONTINUOUS
10
9.8514820328
20
23.4686741789
11
9.8565726339
21
22.9634926934
0
LINE
5
2C2
100
AcDbEntity
8
0
100
AcDbLine
62
9
6
CONTINUOUS
10
10.1014778020
20
23.6851805298
11
10.1058496360
21
23.2513281108
0
LINE
5
2C3
100
AcDbEntity
8
0
100
AcDbLine
62
9
6
CONTINUOUS
10
7.4602172392
20
-23.7869882538
11
7.4602172392
21
-24.6547852035
0
LINE
5
2C4
100
AcDbEntity
8
0
100
AcDbLine
62
9
6
CONTINUOUS
10
7.4602172392
20
23.4686741789
11
7.4602172392
21
24.3364711285
0
LINE
5
2C5
100
AcDbEntity
8
0
100
AcDbLine
62
9
6
CONTINUOUS
10
8.5058496360
20
12.9408429625
11
8.5058496361
21
12.4408429626
0
LINE
5
2C6
100
AcDbEntity
8
0
100
AcDbLine
62
9
6
CONTINUOUS
10
8.5058496360
20
-17.2591570375
11
8.5058496361
21
-17.7591570374
0
LINE
5
2C7
100
AcDbEntity
8
0
100
AcDbLine
62
9
6
CONTINUOUS
10
8.5058496360
20
-13.2591570375
11
8.5058496360
21
-12.7591570375
0
LINE
5
2C8
100
AcDbEntity
8
0
100
AcDbLine
62
9
6
CONTINUOUS
10
8.5058496360
20
16.9408429625
11
8.5058496360
21
17.4408429625
0
LINE
5
2C9
100
AcDbEntity
8
0
100
AcDbLine
62
7
6
CONTINUOUS
10
9.5058496360
20
-16.2591570375
11
9.5058496360
21
-14.2591570375
0
LINE
5
2CA
100
AcDbEntity
8
0
100
AcDbLine
62
7
6
CONTINUOUS
10
9.5058496360
20
-13.2591570375
11
9.5058496360
21
-9.5591570375
0
LINE
5
2CB
100
AcDbEntity
8
0
100
AcDbLine
62
7
6
CONTINUOUS
10
9.5058496360
20
9.2408429625
11
9.5058496360
21
12.9408429625
0
LINE
5
2CC
100
AcDbEntity
8
0
100
AcDbLine
62
7
6
CONTINUOUS
10
9.5058496360
20
13.9408429625
11
9.5058496360
21
15.9408429625
0
LINE
5
2CD
100
AcDbEntity
8
0
100
AcDbLine
62
9
6
CONTINUOUS
10
9.8514820328
20
-23.7869882538
11
9.8514820328
21
-24.6547852035
0
LINE
5
2CE
100
AcDbEntity
8
0
100
AcDbLine
62
9
6
CONTINUOUS
10
9.8514820328
20
23.4686741789
11
9.8514820328
21
24.3364711285
0
LINE
5
2CF
100
AcDbEntity
8
0
100
AcDbLine
62
9
6
CONTINUOUS
10
10.0058496360
20
-16.2591570375
11
10.0058496360
21
-14.2591570375
0
LINE
5
2D0
100
AcDbEntity
8
0
100
AcDbLine
62
9
6
CONTINUOUS
10
10.0058496360
20
13.9408429625
11
10.0058496360
21
15.9408429625
0
LINE
5
2D1
100
AcDbEntity
8
0
100
AcDbLine
62
7
6
CONTINUOUS
10
10.1014778020
20
-24.4047894342
11
10.1014778020
21
-24.0034946047
0
LINE
5
2D2
100
AcDbEntity
8
0
100
AcDbLine
62
7
6
CONTINUOUS
10
10.1014778020
20
23.6851805298
11
10.1014778020
21
24.0864753593
0
LINE
5
2D3
100
AcDbEntity
8
0
100
AcDbLine
62
7
6
CONTINUOUS
10
10.1058496360
20
-22.5591570375
11
10.1058496360
21
-24.4091612682
0
LINE
5
2D4
100
AcDbEntity
8
0
100
AcDbLine
62
7
6
CONTINUOUS
10
10.1058496360
20
22.2408429625
11
10.1058496360
21
24.0908471933
0
LINE
5
2D5
100
AcDbEntity
8
0
100
AcDbLine
62
9
6
CONTINUOUS
10
9.8565726339
20
-23.2818067683
11
9.8514820328
21
-23.7869882538
0
LINE
5
2D6
100
AcDbEntity
8
0
100
AcDbLine
62
9
6
CONTINUOUS
10
10.1058496360
20
-23.5696421857
11
10.1014778020
21
-24.0034946047
0
LINE
5
2D7
100
AcDbEntity
8
0
100
AcDbLine
62
9
6
CONTINUOUS
10
-10.1941503640
20
-24.4091612682
11
-10.1897785300
21
-24.4047894342
0
LINE
5
2D8
100
AcDbEntity
8
0
100
AcDbLine
62
9
6
CONTINUOUS
10
-9.9441545948
20
-24.6591570375
11
-9.9397827608
21
-24.6547852035
0
LINE
5
2D9
100
AcDbEntity
8
0
100
AcDbLine
62
7
6
CONTINUOUS
10
10.7558496360
20
9.2408429625
11
9.5058496360
21
9.2408429625
0
LINE
5
2DA
100
AcDbEntity
8
0
100
AcDbLine
62
7
6
CONTINUOUS
10
1.2058496360
20
9.2408429625
11
-0.0441503640
21
9.2408429625
0
LINE
5
2DB
100
AcDbEntity
8
0
100
AcDbLine
62
7
6
CONTINUOUS
10
-9.5941503640
20
9.2408429625
11
-10.8441503640
21
9.2408429625
0
LINE
5
2DC
100
AcDbEntity
8
0
100
AcDbLine
62
9
6
CONTINUOUS
10
-10.1941503640
20
24.0908471933
11
-10.1897785300
21
24.0864753593
0
LINE
5
2DD
100
AcDbEntity
8
0
100
AcDbLine
62
9
6
CONTINUOUS
10
-9.9441545948
20
24.3408429625
11
-9.9397827608
21
24.3364711285
0
LINE
5
2DE
100
AcDbEntity
8
0
100
AcDbLine
62
7
6
CONTINUOUS
10
11.1049772815
20
-8.4919306570
11
11.0386476361
21
-4.5568918095
0
LINE
5
2DF
100
AcDbEntity
8
0
100
AcDbLine
62
7
6
CONTINUOUS
10
11.1062858299
20
8.1736106666
11
11.0774873157
21
11.5908429625
0
LINE
5
2E0
100
AcDbEntity
8
0
100
AcDbLine
62
7
6
CONTINUOUS
10
10.7558496360
20
-19.7091570375
11
10.7558496360
21
19.3908429625
0
LINE
5
2E1
100
AcDbEntity
8
0
100
AcDbLine
62
9
6
CONTINUOUS
10
10.9058496360
20
-4.5568918095
11
10.9058496360
21
4.2385777346
0
LINE
5
2E2
100
AcDbEntity
8
0
100
AcDbLine
62
7
6
CONTINUOUS
10
11.0386476361
20
-4.5568918095
11
11.0386476361
21
4.2385777346
0
LINE
5
2E3
100
AcDbEntity
8
0
100
AcDbLine
62
7
6
CONTINUOUS
10
11.0774873157
20
-18.6875193578
11
11.0774873157
21
-11.9091570375
0
LINE
5
2E4
100
AcDbEntity
8
0
100
AcDbLine
62
7
6
CONTINUOUS
10
11.0774873157
20
11.5908429625
11
11.0774873157
21
18.3692052829
0
LINE
5
2E5
100
AcDbEntity
8
0
100
AcDbLine
62
7
6
CONTINUOUS
10
11.0975591116
20
21.7350420558
11
11.0975591116
21
18.3491334869
0
LINE
5
2E6
100
AcDbEntity
8
0
100
AcDbLine
62
7
6
CONTINUOUS
10
11.0975591116
20
-18.6674475619
11
11.0975591116
21
-22.0533561307
0
LINE
5
2E7
100
AcDbEntity
8
0
100
AcDbLine
62
7
6
CONTINUOUS
10
11.1062859794
20
21.7408598856
11
11.1062858299
21
8.1736106666
0
LINE
5
2E8
100
AcDbEntity
8
0
100
AcDbLine
62
7
6
CONTINUOUS
10
11.1062858299
20
-8.4919247415
11
11.1062859794
21
-22.0591739605
0
LINE
5
2E9
100
AcDbEntity
8
0
100
AcDbLine
62
7
6
CONTINUOUS
10
11.1062858299
20
-8.4919247415
11
11.0774873157
21
-11.9091570375
0
LINE
5
2EA
100
AcDbEntity
8
0
100
AcDbLine
62
7
6
CONTINUOUS
10
11.0386476361
20
4.2385777346
11
11.1049772815
21
8.1736165821
0
LINE
5
2EB
100
AcDbEntity
8
0
100
AcDbLine
62
7
6
CONTINUOUS
10
-4.4941503640
20
-22.5591570375
11
-4.4502281169
21
-22.5152347904
0
LINE
5
2EC
100
AcDbEntity
8
0
100
AcDbLine
62
7
6
CONTINUOUS
10
-4.4504997171
20
-24.1155063906
11
-4.4941503640
21
-24.1591570375
0
LINE
5
2ED
100
AcDbEntity
8
0
100
AcDbLine
62
9
6
CONTINUOUS
10
-11.1945867074
20
-22.0591739605
11
-11.1858598396
21
-22.0533561307
0
LINE
5
2EE
100
AcDbEntity
8
0
100
AcDbLine
62
9
6
CONTINUOUS
10
-10.6945930535
20
-22.5591570375
11
-10.6858661857
21
-22.5533392076
0
LINE
5
2EF
100
AcDbEntity
8
0
100
AcDbLine
62
9
6
CONTINUOUS
10
-10.8441503640
20
11.5480226395
11
-9.5941503640
21
11.5480226395
0
LINE
5
2F0
100
AcDbEntity
8
0
100
AcDbLine
62
9
6
CONTINUOUS
10
-0.0441503640
20
11.5480226395
11
1.2058496360
21
11.5480226395
0
LINE
5
2F1
100
AcDbEntity
8
0
100
AcDbLine
62
9
6
CONTINUOUS
10
9.5058496360
20
11.5480226395
11
10.7558496360
21
11.5480226395
0
LINE
5
2F2
100
AcDbEntity
8
0
100
AcDbLine
62
7
6
CONTINUOUS
10
-11.1657880437
20
11.5908429625
11
-10.8441503640
21
11.5908429625
0
LINE
5
2F3
100
AcDbEntity
8
0
100
AcDbLine
62
7
6
CONTINUOUS
10
10.7558496360
20
11.5908429625
11
11.0774873157
21
11.5908429625
0
LINE
5
2F4
100
AcDbEntity
8
0
100
AcDbLine
62
9
6
CONTINUOUS
10
-8.5941503640
20
12.4408429625
11
-2.2941503640
21
12.4408429625
0
LINE
5
2F5
100
AcDbEntity
8
0
100
AcDbLine
62
9
6
CONTINUOUS
10
2.2058496360
20
12.4408429625
11
8.5058496360
21
12.4408429625
0
LINE
5
2F6
100
AcDbEntity
8
0
100
AcDbLine
62
9
6
CONTINUOUS
10
-10.8441503640
20
12.5480226395
11
-9.5941503640
21
12.5480226395
0
LINE
5
2F7
100
AcDbEntity
8
0
100
AcDbLine
62
9
6
CONTINUOUS
10
-0.0441503640
20
12.5480226395
11
1.2058496360
21
12.5480226395
0
LINE
5
2F8
100
AcDbEntity
8
0
100
AcDbLine
62
9
6
CONTINUOUS
10
9.5058496360
20
12.5480226395
11
10.7558496360
21
12.5480226395
0
LINE
5
2F9
100
AcDbEntity
8
0
100
AcDbLine
62
7
6
CONTINUOUS
10
10.7558496360
20
12.9408429625
11
9.5058496360
21
12.9408429625
0
LINE
5
2FA
100
AcDbEntity
8
0
100
AcDbLine
62
7
6
CONTINUOUS
10
-8.5941503640
20
12.9408429625
11
-2.2941503640
21
12.9408429625
0
LINE
5
2FB
100
AcDbEntity
8
0
100
AcDbLine
62
7
6
CONTINUOUS
10
2.2058496360
20
12.9408429625
11
8.5058496360
21
12.9408429625
0
LINE
5
2FC
100
AcDbEntity
8
0
100
AcDbLine
62
9
6
CONTINUOUS
10
-1.2941503640
20
13.9408429625
11
-0.7941503640
21
13.9408429625
0
LINE
5
2FD
100
AcDbEntity
8
0
100
AcDbLine
62
9
6
CONTINUOUS
10
9.5058496360
20
13.9408429625
11
10.0058496360
21
13.9408429625
0
LINE
5
2FE
100
AcDbEntity
8
0
100
AcDbLine
62
9
6
CONTINUOUS
10
-11.1858598396
20
21.7350420558
11
-11.1945867074
21
21.7408598856
0
LINE
5
2FF
100
AcDbEntity
8
0
100
AcDbLine
62
9
6
CONTINUOUS
10
-10.6858661857
20
22.2350251327
11
-10.6945930535
21
22.2408429625
0
LINE
5
300
100
AcDbEntity
8
0
100
AcDbLine
62
7
6
CONTINUOUS
10
-4.4941503640
20
22.2408429625
11
-4.4502281169
21
22.1969207155
0
LINE
5
301
100
AcDbEntity
8
0
100
AcDbLine
62
7
6
CONTINUOUS
10
-4.4504997171
20
23.7971923157
11
-4.4941503640
21
23.8408429625
0
LINE
5
302
100
AcDbEntity
8
0
100
AcDbLine
62
9
6
CONTINUOUS
10
-1.2941503640
20
15.9408429625
11
-0.7941503640
21
15.9408429626
0
LINE
5
303
100
AcDbEntity
8
0
100
AcDbLine
62
9
6
CONTINUOUS
10
9.5058496360
20
15.9408429625
11
10.0058496360
21
15.9408429626
0
LINE
5
304
100
AcDbEntity
8
0
100
AcDbLine
62
7
6
CONTINUOUS
10
8.5058496360
20
16.9408429625
11
2.2058496360
21
16.9408429625
0
LINE
5
305
100
AcDbEntity
8
0
100
AcDbLine
62
7
6
CONTINUOUS
10
-2.2941503640
20
16.9408429625
11
-8.5941503640
21
16.9408429625
0
LINE
5
306
100
AcDbEntity
8
0
100
AcDbLine
62
9
6
CONTINUOUS
10
8.5058496360
20
17.4408429625
11
2.2058496360
21
17.4408429625
0
LINE
5
307
100
AcDbEntity
8
0
100
AcDbLine
62
9
6
CONTINUOUS
10
-2.2941503640
20
17.4408429625
11
-8.5941503640
21
17.4408429625
0
LINE
5
308
100
AcDbEntity
8
0
100
AcDbLine
62
9
6
CONTINUOUS
10
1.2058496360
20
19.5908429625
11
-0.0441503640
21
19.5908429625
0
LINE
5
309
100
AcDbEntity
8
0
100
AcDbLine
62
9
6
CONTINUOUS
10
-9.5941503640
20
20.5908429625
11
-0.0441503640
21
20.5908429625
0
LINE
5
30A
100
AcDbEntity
8
0
100
AcDbLine
62
9
6
CONTINUOUS
10
1.2058496360
20
20.5908429625
11
9.5558496360
21
20.5908429625
0
LINE
5
30B
100
AcDbEntity
8
0
100
AcDbLine
62
7
6
CONTINUOUS
10
7.8558496360
20
-21.9091570375
11
7.2116674658
21
-22.5533392076
0
LINE
5
30C
100
AcDbEntity
8
0
100
AcDbLine
62
7
6
CONTINUOUS
10
10.7558496360
20
-19.0091570375
11
11.0975591116
21
-18.6674475619
0
LINE
5
30D
100
AcDbEntity
8
0
100
AcDbLine
62
7
6
CONTINUOUS
10
10.7558496360
20
-19.7091570375
11
8.5558496360
21
-21.9091570375
0
LINE
5
30E
100
AcDbEntity
8
0
100
AcDbLine
62
9
6
CONTINUOUS
10
7.2058496360
20
-24.4091612682
11
7.2102214700
21
-24.4047894342
0
LINE
5
30F
100
AcDbEntity
8
0
100
AcDbLine
62
9
6
CONTINUOUS
10
7.4558454052
20
-24.6591570375
11
7.4602172392
21
-24.6547852035
0
LINE
5
310
100
AcDbEntity
8
0
100
AcDbLine
62
7
6
CONTINUOUS
10
-8.6441503640
20
21.5908429625
11
8.5558496360
21
21.5908429625
0
LINE
5
311
100
AcDbEntity
8
0
100
AcDbLine
62
9
6
CONTINUOUS
10
7.2698796105
20
22.1768129881
11
-7.3581803385
21
22.1768129881
0
LINE
5
312
100
AcDbEntity
8
0
100
AcDbLine
62
7
6
CONTINUOUS
10
-10.6858661857
20
22.2350251327
11
-7.2999681938
21
22.2350251327
0
LINE
5
313
100
AcDbEntity
8
0
100
AcDbLine
62
7
6
CONTINUOUS
10
-3.5441503640
20
22.2350251327
11
-1.0441503640
21
22.2350251327
0
LINE
5
314
100
AcDbEntity
8
0
100
AcDbLine
62
7
6
CONTINUOUS
10
0.9558496360
20
22.2350251327
11
3.4558496360
21
22.2350251327
0
LINE
5
315
100
AcDbEntity
8
0
100
AcDbLine
62
7
6
CONTINUOUS
10
7.2116674658
20
22.2350251327
11
10.5975654577
21
22.2350251327
0
LINE
5
316
100
AcDbEntity
8
0
100
AcDbLine
62
7
6
CONTINUOUS
10
0.9558496360
20
22.2408429625
11
-1.0441503640
21
22.2408429625
0
LINE
5
317
100
AcDbEntity
8
0
100
AcDbLine
62
7
6
CONTINUOUS
10
4.4058496360
20
22.2408429625
11
10.6062923255
21
22.2408429625
0
LINE
5
318
100
AcDbEntity
8
0
100
AcDbLine
62
7
6
CONTINUOUS
10
-4.4941503640
20
22.2408429625
11
-10.6945930535
21
22.2408429625
0
LINE
5
319
100
AcDbEntity
8
0
100
AcDbLine
62
7
6
CONTINUOUS
10
-9.9448733618
20
22.9634926934
11
-7.5434273661
21
22.9634926934
0
LINE
5
31A
100
AcDbEntity
8
0
100
AcDbLine
62
7
6
CONTINUOUS
10
9.8565726339
20
22.9634926934
11
7.4551266382
21
22.9634926934
0
LINE
5
31B
100
AcDbEntity
8
0
100
AcDbLine
62
9
6
CONTINUOUS
10
-9.9397827608
20
23.4686741789
11
-7.5485179672
21
23.4686741789
0
LINE
5
31C
100
AcDbEntity
8
0
100
AcDbLine
62
9
6
CONTINUOUS
10
7.4602172392
20
23.4686741789
11
9.8514820328
21
23.4686741789
0
LINE
5
31D
100
AcDbEntity
8
0
100
AcDbLine
62
9
6
CONTINUOUS
10
7.2102214700
20
23.6851805298
11
10.1014778020
21
23.6851805298
0
LINE
5
31E
100
AcDbEntity
8
0
100
AcDbLine
62
9
6
CONTINUOUS
10
-7.2985221980
20
23.6851805298
11
-10.1897785300
21
23.6851805298
0
LINE
5
31F
100
AcDbEntity
8
0
100
AcDbLine
62
7
6
CONTINUOUS
10
-4.4504997171
20
23.7971923157
11
-3.5441503640
21
23.7971923157
0
LINE
5
320
100
AcDbEntity
8
0
100
AcDbLine
62
7
6
CONTINUOUS
10
3.4558496360
20
23.7971923157
11
4.3621989892
21
23.7971923157
0
LINE
5
321
100
AcDbEntity
8
0
100
AcDbLine
62
7
6
CONTINUOUS
10
-3.5441503640
20
23.8350251327
11
-1.2441503640
21
23.8350251327
0
LINE
5
322
100
AcDbEntity
8
0
100
AcDbLine
62
7
6
CONTINUOUS
10
1.1558496360
20
23.8350251327
11
3.4558496360
21
23.8350251327
0
LINE
5
323
100
AcDbEntity
8
0
100
AcDbLine
62
7
6
CONTINUOUS
10
4.4058496360
20
23.8408429625
11
1.1558496360
21
23.8408429625
0
LINE
5
324
100
AcDbEntity
8
0
100
AcDbLine
62
7
6
CONTINUOUS
10
-1.2441503640
20
23.8408429625
11
-4.4941503640
21
23.8408429625
0
LINE
5
325
100
AcDbEntity
8
0
100
AcDbLine
62
9
6
CONTINUOUS
10
7.2102214700
20
24.0864753593
11
10.1014778020
21
24.0864753593
0
LINE
5
326
100
AcDbEntity
8
0
100
AcDbLine
62
9
6
CONTINUOUS
10
-7.2985221980
20
24.0864753593
11
-10.1897785300
21
24.0864753593
0
LINE
5
327
100
AcDbEntity
8
0
100
AcDbLine
62
7
6
CONTINUOUS
10
11.0975591116
20
18.3491334869
11
10.7558496360
21
18.6908429625
0
LINE
5
328
100
AcDbEntity
8
0
100
AcDbLine
62
7
6
CONTINUOUS
10
7.8558496360
20
21.5908429625
11
7.2116674658
21
22.2350251327
0
LINE
5
329
100
AcDbEntity
8
0
100
AcDbLine
62
7
6
CONTINUOUS
10
8.5558496360
20
21.5908429625
11
10.7558496360
21
19.3908429625
0
LINE
5
32A
100
AcDbEntity
8
0
100
AcDbLine
62
9
6
CONTINUOUS
10
7.2058496360
20
24.0908471933
11
7.2102214700
21
24.0864753593
0
LINE
5
32B
100
AcDbEntity
8
0
100
AcDbLine
62
9
6
CONTINUOUS
10
7.4558454052
20
24.3408429625
11
7.4602172392
21
24.3364711285
0
LINE
5
32C
100
AcDbEntity
8
0
100
AcDbLine
62
7
6
CONTINUOUS
10
9.8514820328
20
24.3364711285
11
7.4602172392
21
24.3364711285
0
LINE
5
32D
100
AcDbEntity
8
0
100
AcDbLine
62
7
6
CONTINUOUS
10
-7.5485179672
20
24.3364711285
11
-9.9397827608
21
24.3364711285
0
LINE
5
32E
100
AcDbEntity
8
0
100
AcDbLine
62
7
6
CONTINUOUS
10
-9.9441545948
20
24.3408429625
11
-7.5441461332
21
24.3408429625
0
LINE
5
32F
100
AcDbEntity
8
0
100
AcDbLine
62
7
6
CONTINUOUS
10
7.4558454052
20
24.3408429625
11
9.8558538668
21
24.3408429625
0
ARC
5
330
100
AcDbEntity
8
0
100
AcDbCircle
62
7
6
CONTINUOUS
10
-4.0441503640
20
22.9908429625
40
0.5000000000
100
AcDbArc
50
144.3637748935
51
215.6362251065
0
ARC
5
331
100
AcDbEntity
8
0
100
AcDbCircle
62
7
6
CONTINUOUS
10
3.9558496360
20
22.9908429625
40
0.5000000000
100
AcDbArc
50
324.3637748935
51
35.6362251065
0
ARC
5
332
100
AcDbEntity
8
0
100
AcDbCircle
62
7
6
CONTINUOUS
10
3.9558496360
20
-23.3091570375
40
0.5000000000
100
AcDbArc
50
324.3637748935
51
35.6362251065
0
ARC
5
333
100
AcDbEntity
8
0
100
AcDbCircle
62
7
6
CONTINUOUS
10
-4.0441503640
20
-23.3091570375
40
0.5000000000
100
AcDbArc
50
144.3637748935
51
215.6362251065
0
ARC
5
334
100
AcDbEntity
8
0
100
AcDbCircle
62
7
6
CONTINUOUS
10
2.2058496360
20
13.9408429625
40
1.0000000000
100
AcDbArc
50
184.4174546887
51
270.0000000000
0
ARC
5
335
100
AcDbEntity
8
0
100
AcDbCircle
62
7
6
CONTINUOUS
10
8.5058496360
20
13.9408429625
40
1.0000000000
100
AcDbArc
50
270.0000000000
51
360.0000000000
0
ARC
5
336
100
AcDbEntity
8
0
100
AcDbCircle
62
7
6
CONTINUOUS
10
8.5058496360
20
15.9408429625
40
1.0000000000
100
AcDbArc
50
0.0000000000
51
90.0000000000
0
ARC
5
337
100
AcDbEntity
8
0
100
AcDbCircle
62
7
6
CONTINUOUS
10
2.2058496360
20
15.9408429625
40
1.0000000000
100
AcDbArc
50
90.0000000000
51
175.5895871091
0
ARC
5
338
100
AcDbEntity
8
0
100
AcDbCircle
62
7
6
CONTINUOUS
10
2.2058496360
20
-16.2591570375
40
1.0000000000
100
AcDbArc
50
184.4174546887
51
270.0000000000
0
ARC
5
339
100
AcDbEntity
8
0
100
AcDbCircle
62
7
6
CONTINUOUS
10
8.5058496360
20
-16.2591570375
40
1.0000000000
100
AcDbArc
50
270.0000000000
51
360.0000000000
0
ARC
5
33A
100
AcDbEntity
8
0
100
AcDbCircle
62
7
6
CONTINUOUS
10
8.5058496360
20
-14.2591570375
40
1.0000000000
100
AcDbArc
50
0.0000000000
51
90.0000000000
0
ARC
5
33B
100
AcDbEntity
8
0
100
AcDbCircle
62
7
6
CONTINUOUS
10
2.2058496360
20
-14.2591570375
40
1.0000000000
100
AcDbArc
50
90.0000000000
51
175.5895871091
0
ARC
5
33C
100
AcDbEntity
8
0
100
AcDbCircle
62
7
6
CONTINUOUS
10
-8.5941503640
20
13.9408429625
40
1.0000000000
100
AcDbArc
50
184.4174546887
51
270.0000000000
0
ARC
5
33D
100
AcDbEntity
8
0
100
AcDbCircle
62
7
6
CONTINUOUS
10
-2.2941503640
20
13.9408429625
40
1.0000000000
100
AcDbArc
50
270.0000000000
51
360.0000000000
0
ARC
5
33E
100
AcDbEntity
8
0
100
AcDbCircle
62
7
6
CONTINUOUS
10
-2.2941503640
20
15.9408429625
40
1.0000000000
100
AcDbArc
50
0.0000000000
51
90.0000000000
0
ARC
5
33F
100
AcDbEntity
8
0
100
AcDbCircle
62
7
6
CONTINUOUS
10
-8.5941503640
20
15.9408429625
40
1.0000000000
100
AcDbArc
50
90.0000000000
51
175.5895871091
0
ARC
5
340
100
AcDbEntity
8
0
100
AcDbCircle
62
7
6
CONTINUOUS
10
-8.5941503640
20
-16.2591570375
40
1.0000000000
100
AcDbArc
50
184.4174546887
51
270.0000000000
0
ARC
5
341
100
AcDbEntity
8
0
100
AcDbCircle
62
7
6
CONTINUOUS
10
-2.2941503640
20
-16.2591570375
40
1.0000000000
100
AcDbArc
50
270.0000000000
51
360.0000000000
0
ARC
5
342
100
AcDbEntity
8
0
100
AcDbCircle
62
7
6
CONTINUOUS
10
-2.2941503640
20
-14.2591570375
40
1.0000000000
100
AcDbArc
50
0.0000000000
51
90.0000000000
0
ARC
5
343
100
AcDbEntity
8
0
100
AcDbCircle
62
7
6
CONTINUOUS
10
-8.5941503640
20
-14.2591570375
40
1.0000000000
100
AcDbArc
50
90.0000000000
51
175.5895871091
0
ARC
5
344
100
AcDbEntity
8
0
100
AcDbCircle
62
9
6
CONTINUOUS
10
2.2058496360
20
13.9408429625
40
1.5000000000
100
AcDbArc
50
228.1896851042
51
270.0000000000
0
ARC
5
345
100
AcDbEntity
8
0
100
AcDbCircle
62
9
6
CONTINUOUS
10
8.5058496360
20
13.9408429625
40
1.4999931099
100
AcDbArc
50
270.0000000000
51
311.8103148958
0
ARC
5
346
100
AcDbEntity
8
0
100
AcDbCircle
62
9
6
CONTINUOUS
10
8.5058496360
20
13.9408429625
40
1.4999928972
100
AcDbArc
50
318.1896851042
51
360.0000000000
0
ARC
5
347
100
AcDbEntity
8
0
100
AcDbCircle
62
9
6
CONTINUOUS
10
8.5058496360
20
15.9408429625
40
1.4999924313
100
AcDbArc
50
0.0000000000
51
90.0000000000
0
ARC
5
348
100
AcDbEntity
8
0
100
AcDbCircle
62
9
6
CONTINUOUS
10
2.2058496360
20
15.9408429625
40
1.5000000000
100
AcDbArc
50
90.0000000000
51
131.8103148958
0
ARC
5
349
100
AcDbEntity
8
0
100
AcDbCircle
62
9
6
CONTINUOUS
10
2.2058496360
20
-16.2591570375
40
1.5000000000
100
AcDbArc
50
228.1896851042
51
270.0000000000
0
ARC
5
34A
100
AcDbEntity
8
0
100
AcDbCircle
62
9
6
CONTINUOUS
10
8.5058496360
20
-16.2591570375
40
1.4999924313
100
AcDbArc
50
270.0000000000
51
360.0000000000
0
ARC
5
34B
100
AcDbEntity
8
0
100
AcDbCircle
62
9
6
CONTINUOUS
10
8.5058496360
20
-14.2591570375
40
1.4999931099
100
AcDbArc
50
0.0000000000
51
41.8103148958
0
ARC
5
34C
100
AcDbEntity
8
0
100
AcDbCircle
62
9
6
CONTINUOUS
10
8.5058496360
20
-14.2591570375
40
1.4999928972
100
AcDbArc
50
48.1896851042
51
90.0000000000
0
ARC
5
34D
100
AcDbEntity
8
0
100
AcDbCircle
62
9
6
CONTINUOUS
10
2.2058496360
20
-14.2591570375
40
1.5000000000
100
AcDbArc
50
90.0000000000
51
131.8103148958
0
ARC
5
34E
100
AcDbEntity
8
0
100
AcDbCircle
62
9
6
CONTINUOUS
10
-8.5941503640
20
13.9408429625
40
1.5000000000
100
AcDbArc
50
228.1896851042
51
270.0000000000
0
ARC
5
34F
100
AcDbEntity
8
0
100
AcDbCircle
62
9
6
CONTINUOUS
10
-2.2941503640
20
13.9408429625
40
1.4999924313
100
AcDbArc
50
270.0000000000
51
360.0000000000
0
ARC
5
350
100
AcDbEntity
8
0
100
AcDbCircle
62
9
6
CONTINUOUS
10
-2.2941503640
20
15.9408429625
40
1.4999924313
100
AcDbArc
50
0.0000000000
51
90.0000000000
0
ARC
5
351
100
AcDbEntity
8
0
100
AcDbCircle
62
9
6
CONTINUOUS
10
-8.5941503640
20
15.9408429625
40
1.5000000000
100
AcDbArc
50
90.0000000000
51
131.8103148958
0
ARC
5
352
100
AcDbEntity
8
0
100
AcDbCircle
62
9
6
CONTINUOUS
10
-8.5941503640
20
-16.2591570375
40
1.5000000000
100
AcDbArc
50
228.1896851042
51
270.0000000000
0
ARC
5
353
100
AcDbEntity
8
0
100
AcDbCircle
62
9
6
CONTINUOUS
10
-2.2941503640
20
-16.2591570375
40
1.4999924313
100
AcDbArc
50
270.0000000000
51
360.0000000000
0
ARC
5
354
100
AcDbEntity
8
0
100
AcDbCircle
62
9
6
CONTINUOUS
10
-2.2941503640
20
-14.2591570375
40
1.4999924313
100
AcDbArc
50
0.0000000000
51
90.0000000000
0
ARC
5
355
100
AcDbEntity
8
0
100
AcDbCircle
62
9
6
CONTINUOUS
10
-8.5941503640
20
-14.2591570375
40
1.5000000000
100
AcDbArc
50
90.0000000000
51
131.8103148958
0
SPLINE
5
356
100
AcDbEntity
8
0
100
AcDbSpline
62
7
6
CONTINUOUS
70
0
71
3
72
18
73
14
74
12
42
0.0000001000
43
0.0000001000
44
0.0000000001
12
0.0000132796
22
-0.3923546691
32
0.0000000000
13
0.3923546691
23
-0.0000132796
33
0.0000000000
40
0.0000000000
40
0.0000000000
40
0.0000000000
40
0.0000000000
40
0.0909209466
40
0.1818426652
40
0.2727646341
40
0.3636866866
40
0.4546085102
40
0.5455298998
40
0.6364502323
40
0.7273711591
40
0.8182867494
40
0.9092020002
40
1.0000000000
40
1.0000000000
40
1.0000000000
40
1.0000000000
10
-10.1897785300
20
-24.4047894342
30
0.0000000000
10
-10.1897781275
20
-24.4166805202
30
0.0000000000
10
-10.1880747325
20
-24.4404976670
30
0.0000000000
10
-10.1804639342
20
-24.4754682294
30
0.0000000000
10
-10.1679523885
20
-24.5090071275
30
0.0000000000
10
-10.1507949160
20
-24.5404218521
30
0.0000000000
10
-10.1293409317
20
-24.5690752720
30
0.0000000000
10
-10.1040274498
20
-24.5943832415
30
0.0000000000
10
-10.0753696632
20
-24.6158308107
30
0.0000000000
10
-10.0439522927
20
-24.6329809764
30
0.0000000000
10
-10.0104125319
20
-24.6454848774
30
0.0000000000
10
-9.9754578430
20
-24.6530849424
30
0.0000000000
10
-9.9516577671
20
-24.6547848015
30
0.0000000000
10
-9.9397827608
20
-24.6547852035
30
0.0000000000
11
-10.1897785300
21
-24.4047894342
31
0.0000000000
11
-10.1872321322
21
-24.4403716937
31
0.0000000000
11
-10.1796471579
21
-24.4752295638
31
0.0000000000
11
-10.1671780722
21
-24.5086530862
31
0.0000000000
11
-10.1500788070
21
-24.5399616700
31
0.0000000000
11
-10.1286976193
21
-24.5685177674
31
0.0000000000
11
-10.1034699474
21
-24.5937399461
31
0.0000000000
11
-10.0749096880
21
-24.6151145975
31
0.0000000000
11
-10.0435978241
21
-24.6322069337
31
0.0000000000
11
-10.0101740459
21
-24.6446681715
31
0.0000000000
11
-9.9753171504
21
-24.6522456860
31
0.0000000000
11
-9.9397827608
21
-24.6547852035
31
0.0000000000
0
SPLINE
5
357
100
AcDbEntity
8
0
100
AcDbSpline
62
7
6
CONTINUOUS
70
0
71
3
72
9
73
5
74
3
42
0.0000001000
43
0.0000001000
44
0.0000000001
12
0.0000000000
22
-0.0475573588
32
0.0000000000
13
0.0090083279
23
-0.0467385388
33
0.0000000000
40
0.0000000000
40
0.0000000000
40
0.0000000000
40
0.0000000000
40
0.7500208510
40
1.0000000000
40
1.0000000000
40
1.0000000000
40
1.0000000000
10
-10.1941503640
20
-24.4091612682
30
0.0000000000
10
-10.1941503640
20
-24.4210509385
30
0.0000000000
10
-10.1930156507
20
-24.4369266701
30
0.0000000000
10
-10.1903834053
20
-24.4525787797
30
0.0000000000
10
-10.1896327740
20
-24.4564733331
30
0.0000000000
11
-10.1941503640
21
-24.4091612682
31
0.0000000000
11
-10.1916058381
21
-24.4447394036
31
0.0000000000
11
-10.1896327740
21
-24.4564733331
31
0.0000000000
0
SPLINE
5
358
100
AcDbEntity
8
0
100
AcDbSpline
62
7
6
CONTINUOUS
70
0
71
3
72
10
73
6
74
4
42
0.0000001000
43
0.0000001000
44
0.0000000001
12
0.0157652643
22
-0.0817960248
32
0.0000000000
13
0.0416482642
23
-0.0721402392
33
0.0000000000
40
0.0000000000
40
0.0000000000
40
0.0000000000
40
0.0000000000
40
0.2857257878
40
0.7142907385
40
1.0000000000
40
1.0000000000
40
1.0000000000
40
1.0000000000
10
-10.1896327740
20
-24.4564733331
30
0.0000000000
10
-10.1881312598
20
-24.4642637443
30
0.0000000000
10
-10.1834510703
20
-24.4835575941
30
0.0000000000
10
-10.1737230258
20
-24.5096411830
30
0.0000000000
10
-10.1646240300
20
-24.5272889968
30
0.0000000000
10
-10.1606575984
20
-24.5341593750
30
0.0000000000
11
-10.1896327740
21
-24.4564733331
31
0.0000000000
11
-10.1840240057
21
-24.4795933165
31
0.0000000000
11
-10.1715591362
21
-24.5130134838
31
0.0000000000
11
-10.1606575984
21
-24.5341593750
31
0.0000000000
0
SPLINE
5
359
100
AcDbEntity
8
0
100
AcDbSpline
62
7
6
CONTINUOUS
70
0
71
3
72
12
73
8
74
6
42
0.0000001000
43
0.0000001000
44
0.0000000001
12
0.0654463912
22
-0.1133617068
32
0.0000000000
13
0.1133617068
23
-0.0654463912
33
0.0000000000
40
0.0000000000
40
0.0000000000
40
0.0000000000
40
0.0000000000
40
0.0909094935
40
0.3636364896
40
0.6363635104
40
0.9090905065
40
1.0000000000
40
1.0000000000
40
1.0000000000
40
1.0000000000
10
-10.1606575984
20
-24.5341593750
30
0.0000000000
10
-10.1586743657
20
-24.5375945934
30
0.0000000000
10
-10.1504146241
20
-24.5511466718
30
0.0000000000
10
-10.1337325384
20
-24.5734315354
30
0.0000000000
10
-10.1084248620
20
-24.5987392119
30
0.0000000000
10
-10.0861399983
20
-24.6154212975
30
0.0000000000
10
-10.0725879199
20
-24.6236810391
30
0.0000000000
10
-10.0691527015
20
-24.6256642719
30
0.0000000000
11
-10.1606575984
21
-24.5341593750
31
0.0000000000
11
-10.1544649221
21
-24.5443195434
31
0.0000000000
11
-10.1330893228
21
-24.5728741565
31
0.0000000000
11
-10.1078674830
21
-24.5980959963
31
0.0000000000
11
-10.0793128699
21
-24.6194715956
31
0.0000000000
11
-10.0691527015
21
-24.6256642719
31
0.0000000000
0
SPLINE
5
35A
100
AcDbEntity
8
0
100
AcDbSpline
62
7
6
CONTINUOUS
70
0
71
3
72
11
73
7
74
5
42
0.0000001000
43
0.0000001000
44
0.0000000001
12
0.1133614279
22
-0.0654462302
32
0.0000000000
13
0.1307863814
23
0.0000000000
33
0.0000000000
40
0.0000000000
40
0.0000000000
40
0.0000000000
40
0.0000000000
40
0.1818178798
40
0.4545453732
40
0.7272727455
40
1.0000000000
40
1.0000000000
40
1.0000000000
40
1.0000000000
10
-10.0691527015
20
-24.6256642719
30
0.0000000000
10
-10.0622823233
20
-24.6296307035
30
0.0000000000
10
-10.0446345095
20
-24.6387296992
30
0.0000000000
10
-10.0148251675
20
-24.6498472877
30
0.0000000000
10
-9.9798585297
20
-24.6574549199
30
0.0000000000
10
-9.9560442650
20
-24.6591570375
30
0.0000000000
10
-9.9441545948
20
-24.6591570375
30
0.0000000000
11
-10.0691527015
21
-24.6256642719
31
0.0000000000
11
-10.0480068103
21
-24.6365658096
31
0.0000000000
11
-10.0145866430
21
-24.6490306792
31
0.0000000000
11
-9.9797327301
21
-24.6566125116
31
0.0000000000
11
-9.9441545948
21
-24.6591570375
31
0.0000000000
0
SPLINE
5
35B
100
AcDbEntity
8
0
100
AcDbSpline
62
7
6
CONTINUOUS
70
0
71
3
72
18
73
14
74
12
42
0.0000001000
43
0.0000001000
44
0.0000000001
12
0.3923546692
22
0.0000132796
32
0.0000000000
13
0.0000132796
23
0.3923546692
33
0.0000000000
40
0.0000000000
40
0.0000000000
40
0.0000000000
40
0.0000000000
40
0.0909083271
40
0.1818170744
40
0.2727261901
40
0.3636355924
40
0.4545451767
40
0.5454548233
40
0.6363644076
40
0.7272738099
40
0.8181829256
40
0.9090916729
40
1.0000000000
40
1.0000000000
40
1.0000000000
40
1.0000000000
10
-7.5485179672
20
-24.6547852035
30
0.0000000000
10
-7.5366285316
20
-24.6547848010
30
0.0000000000
10
-7.5128147463
20
-24.6530818836
30
0.0000000000
10
-7.4778489163
20
-24.6454732166
30
0.0000000000
10
-7.4443141516
20
-24.6329651371
30
0.0000000000
10
-7.4129025952
20
-24.6158122676
30
0.0000000000
10
-7.3842511188
20
-24.5943637631
30
0.0000000000
10
-7.3589436383
20
-24.5690562826
30
0.0000000000
10
-7.3374951338
20
-24.5404048062
30
0.0000000000
10
-7.3203422644
20
-24.5089932498
30
0.0000000000
10
-7.3078341848
20
-24.4754584851
30
0.0000000000
10
-7.3002255178
20
-24.4404926552
30
0.0000000000
10
-7.2985226004
20
-24.4166788698
30
0.0000000000
10
-7.2985221980
20
-24.4047894342
30
0.0000000000
11
-7.5485179672
21
-24.6547852035
31
0.0000000000
11
-7.5129406211
21
-24.6522395123
31
0.0000000000
11
-7.4780874960
21
-24.6446566679
31
0.0000000000
11
-7.4446680705
21
-24.6321910283
31
0.0000000000
11
-7.4133626385
21
-24.6150963473
31
0.0000000000
11
-7.3848084609
21
-24.5937206081
31
0.0000000000
11
-7.3595867933
21
-24.5684989406
31
0.0000000000
11
-7.3382110542
21
-24.5399447629
31
0.0000000000
11
-7.3211163731
21
-24.5086393309
31
0.0000000000
11
-7.3086507336
21
-24.4752199054
31
0.0000000000
11
-7.3010678891
21
-24.4403667803
31
0.0000000000
11
-7.2985221980
21
-24.4047894342
31
0.0000000000
0
SPLINE
5
35C
100
AcDbEntity
8
0
100
AcDbSpline
62
7
6
CONTINUOUS
70
0
71
3
72
9
73
5
74
3
42
0.0000001000
43
0.0000001000
44
0.0000000001
12
0.0475573588
22
0.0000000000
32
0.0000000000
13
0.0467385388
23
0.0090083279
33
0.0000000000
40
0.0000000000
40
0.0000000000
40
0.0000000000
40
0.0000000000
40
0.7500208510
40
1.0000000000
40
1.0000000000
40
1.0000000000
40
1.0000000000
10
-7.5441461332
20
-24.6591570375
30
0.0000000000
10
-7.5322564629
20
-24.6591570375
30
0.0000000000
10
-7.5163807313
20
-24.6580223242
30
0.0000000000
10
-7.5007286217
20
-24.6553900788
30
0.0000000000
10
-7.4968340683
20
-24.6546394474
30
0.0000000000
11
-7.5441461332
21
-24.6591570375
31
0.0000000000
11
-7.5085679978
21
-24.6566125116
31
0.0000000000
11
-7.4968340683
21
-24.6546394474
31
0.0000000000
0
SPLINE
5
35D
100
AcDbEntity
8
0
100
AcDbSpline
62
7
6
CONTINUOUS
70
0
71
3
72
10
73
6
74
4
42
0.0000001000
43
0.0000001000
44
0.0000000001
12
0.0817960248
22
0.0157652643
32
0.0000000000
13
0.0721402392
23
0.0416482642
33
0.0000000000
40
0.0000000000
40
0.0000000000
40
0.0000000000
40
0.0000000000
40
0.2857257878
40
0.7142907385
40
1.0000000000
40
1.0000000000
40
1.0000000000
40
1.0000000000
10
-7.4968340683
20
-24.6546394474
30
0.0000000000
10
-7.4890436571
20
-24.6531379333
30
0.0000000000
10
-7.4697498074
20
-24.6484577438
30
0.0000000000
10
-7.4436662185
20
-24.6387296992
30
0.0000000000
10
-7.4260184046
20
-24.6296307035
30
0.0000000000
10
-7.4191480264
20
-24.6256642719
30
0.0000000000
11
-7.4968340683
21
-24.6546394474
31
0.0000000000
11
-7.4737140850
21
-24.6490306792
31
0.0000000000
11
-7.4402939177
21
-24.6365658096
31
0.0000000000
11
-7.4191480264
21
-24.6256642719
31
0.0000000000
0
SPLINE
5
35E
100
AcDbEntity
8
0
100
AcDbSpline
62
7
6
CONTINUOUS
70
0
71
3
72
12
73
8
74
6
42
0.0000001000
43
0.0000001000
44
0.0000000001
12
0.1133617068
22
0.0654463912
32
0.0000000000
13
0.0654463912
23
0.1133617068
33
0.0000000000
40
0.0000000000
40
0.0000000000
40
0.0000000000
40
0.0000000000
40
0.0909094935
40
0.3636364896
40
0.6363635104
40
0.9090905065
40
1.0000000000
40
1.0000000000
40
1.0000000000
40
1.0000000000
10
-7.4191480264
20
-24.6256642719
30
0.0000000000
10
-7.4157128080
20
-24.6236810391
30
0.0000000000
10
-7.4021607297
20
-24.6154212975
30
0.0000000000
10
-7.3798758660
20
-24.5987392119
30
0.0000000000
10
-7.3545681896
20
-24.5734315354
30
0.0000000000
10
-7.3378861039
20
-24.5511466718
30
0.0000000000
10
-7.3296263623
20
-24.5375945934
30
0.0000000000
10
-7.3276431295
20
-24.5341593750
30
0.0000000000
11
-7.4191480264
21
-24.6256642719
31
0.0000000000
11
-7.4089878581
21
-24.6194715956
31
0.0000000000
11
-7.3804332449
21
-24.5980959963
31
0.0000000000
11
-7.3552114051
21
-24.5728741565
31
0.0000000000
11
-7.3338358058
21
-24.5443195434
31
0.0000000000
11
-7.3276431295
21
-24.5341593750
31
0.0000000000
0
SPLINE
5
35F
100
AcDbEntity
8
0
100
AcDbSpline
62
7
6
CONTINUOUS
70
0
71
3
72
11
73
7
74
5
42
0.0000001000
43
0.0000001000
44
0.0000000001
12
0.0654462302
22
0.1133614279
32
0.0000000000
13
0.0000000000
23
0.1307863814
33
0.0000000000
40
0.0000000000
40
0.0000000000
40
0.0000000000
40
0.0000000000
40
0.1818178798
40
0.4545453732
40
0.7272727455
40
1.0000000000
40
1.0000000000
40
1.0000000000
40
1.0000000000
10
-7.3276431295
20
-24.5341593750
30
0.0000000000
10
-7.3236766979
20
-24.5272889968
30
0.0000000000
10
-7.3145777022
20
-24.5096411830
30
0.0000000000
10
-7.3034601137
20
-24.4798318410
30
0.0000000000
10
-7.2958524815
20
-24.4448652031
30
0.0000000000
10
-7.2941503640
20
-24.4210509385
30
0.0000000000
10
-7.2941503640
20
-24.4091612682
30
0.0000000000
11
-7.3276431295
21
-24.5341593750
31
0.0000000000
11
-7.3167415918
21
-24.5130134838
31
0.0000000000
11
-7.3042767223
21
-24.4795933165
31
0.0000000000
11
-7.2966948898
21
-24.4447394036
31
0.0000000000
11
-7.2941503640
21
-24.4091612682
31
0.0000000000
0
SPLINE
5
360
100
AcDbEntity
8
0
100
AcDbSpline
62
7
6
CONTINUOUS
70
0
71
3
72
18
73
14
74
12
42
0.0000001000
43
0.0000001000
44
0.0000000001
12
0.3923546691
22
0.0000132796
32
0.0000000000
13
0.0000132796
23
0.3923546691
33
0.0000000000
40
0.0000000000
40
0.0000000000
40
0.0000000000
40
0.0000000000
40
0.0907979998
40
0.1817132506
40
0.2726288409
40
0.3635497677
40
0.4544701002
40
0.5453914898
40
0.6363133134
40
0.7272353659
40
0.8181573348
40
0.9090790534
40
1.0000000000
40
1.0000000000
40
1.0000000000
40
1.0000000000
10
9.8514820328
20
-24.6547852035
30
0.0000000000
10
9.8633570392
20
-24.6547848015
30
0.0000000000
10
9.8871571151
20
-24.6530849424
30
0.0000000000
10
9.9221118039
20
-24.6454848774
30
0.0000000000
10
9.9556515648
20
-24.6329809764
30
0.0000000000
10
9.9870689353
20
-24.6158308107
30
0.0000000000
10
10.0157267219
20
-24.5943832415
30
0.0000000000
10
10.0410402037
20
-24.5690752720
30
0.0000000000
10
10.0624941881
20
-24.5404218521
30
0.0000000000
10
10.0796516606
20
-24.5090071275
30
0.0000000000
10
10.0921632062
20
-24.4754682294
30
0.0000000000
10
10.0997740045
20
-24.4404976670
30
0.0000000000
10
10.1014773996
20
-24.4166805202
30
0.0000000000
10
10.1014778020
20
-24.4047894342
30
0.0000000000
11
9.8514820328
21
-24.6547852035
31
0.0000000000
11
9.8870164224
21
-24.6522456860
31
0.0000000000
11
9.9218733179
21
-24.6446681715
31
0.0000000000
11
9.9552970962
21
-24.6322069337
31
0.0000000000
11
9.9866089600
21
-24.6151145975
31
0.0000000000
11
10.0151692194
21
-24.5937399461
31
0.0000000000
11
10.0403968914
21
-24.5685177674
31
0.0000000000
11
10.0617780791
21
-24.5399616700
31
0.0000000000
11
10.0788773443
21
-24.5086530862
31
0.0000000000
11
10.0913464300
21
-24.4752295638
31
0.0000000000
11
10.0989314042
21
-24.4403716937
31
0.0000000000
11
10.1014778020
21
-24.4047894342
31
0.0000000000
0
SPLINE
5
361
100
AcDbEntity
8
0
100
AcDbSpline
62
7
6
CONTINUOUS
70
0
71
3
72
9
73
5
74
3
42
0.0000001000
43
0.0000001000
44
0.0000000001
12
0.0475573588
22
0.0000000000
32
0.0000000000
13
0.0467385388
23
0.0090083279
33
0.0000000000
40
0.0000000000
40
0.0000000000
40
0.0000000000
40
0.0000000000
40
0.7500208510
40
1.0000000000
40
1.0000000000
40
1.0000000000
40
1.0000000000
10
9.8558538668
20
-24.6591570375
30
0.0000000000
10
9.8677435371
20
-24.6591570375
30
0.0000000000
10
9.8836192687
20
-24.6580223242
30
0.0000000000
10
9.8992713783
20
-24.6553900788
30
0.0000000000
10
9.9031659317
20
-24.6546394474
30
0.0000000000
11
9.8558538668
21
-24.6591570375
31
0.0000000000
11
9.8914320022
21
-24.6566125116
31
0.0000000000
11
9.9031659317
21
-24.6546394474
31
0.0000000000
0
SPLINE
5
362
100
AcDbEntity
8
0
100
AcDbSpline
62
7
6
CONTINUOUS
70
0
71
3
72
10
73
6
74
4
42
0.0000001000
43
0.0000001000
44
0.0000000001
12
0.0817960248
22
0.0157652643
32
0.0000000000
13
0.0721402392
23
0.0416482642
33
0.0000000000
40
0.0000000000
40
0.0000000000
40
0.0000000000
40
0.0000000000
40
0.2857257878
40
0.7142907385
40
1.0000000000
40
1.0000000000
40
1.0000000000
40
1.0000000000
10
9.9031659317
20
-24.6546394474
30
0.0000000000
10
9.9109563429
20
-24.6531379333
30
0.0000000000
10
9.9302501926
20
-24.6484577438
30
0.0000000000
10
9.9563337815
20
-24.6387296992
30
0.0000000000
10
9.9739815954
20
-24.6296307035
30
0.0000000000
10
9.9808519736
20
-24.6256642719
30
0.0000000000
11
9.9031659317
21
-24.6546394474
31
0.0000000000
11
9.9262859150
21
-24.6490306792
31
0.0000000000
11
9.9597060823
21
-24.6365658096
31
0.0000000000
11
9.9808519736
21
-24.6256642719
31
0.0000000000
0
SPLINE
5
363
100
AcDbEntity
8
0
100
AcDbSpline
62
7
6
CONTINUOUS
70
0
71
3
72
12
73
8
74
6
42
0.0000001000
43
0.0000001000
44
0.0000000001
12
0.1133617068
22
0.0654463912
32
0.0000000000
13
0.0654463912
23
0.1133617068
33
0.0000000000
40
0.0000000000
40
0.0000000000
40
0.0000000000
40
0.0000000000
40
0.0909094935
40
0.3636364896
40
0.6363635104
40
0.9090905065
40
1.0000000000
40
1.0000000000
40
1.0000000000
40
1.0000000000
10
9.9808519736
20
-24.6256642719
30
0.0000000000
10
9.9842871920
20
-24.6236810391
30
0.0000000000
10
9.9978392703
20
-24.6154212975
30
0.0000000000
10
10.0201241340
20
-24.5987392119
30
0.0000000000
10
10.0454318104
20
-24.5734315354
30
0.0000000000
10
10.0621138961
20
-24.5511466718
30
0.0000000000
10
10.0703736377
20
-24.5375945934
30
0.0000000000
10
10.0723568705
20
-24.5341593750
30
0.0000000000
11
9.9808519736
21
-24.6256642719
31
0.0000000000
11
9.9910121419
21
-24.6194715956
31
0.0000000000
11
10.0195667551
21
-24.5980959963
31
0.0000000000
11
10.0447885949
21
-24.5728741565
31
0.0000000000
11
10.0661641942
21
-24.5443195434
31
0.0000000000
11
10.0723568705
21
-24.5341593750
31
0.0000000000
0
SPLINE
5
364
100
AcDbEntity
8
0
100
AcDbSpline
62
7
6
CONTINUOUS
70
0
71
3
72
11
73
7
74
5
42
0.0000001000
43
0.0000001000
44
0.0000000001
12
0.0654462302
22
0.1133614279
32
0.0000000000
13
-0.0000000000
23
0.1307863814
33
0.0000000000
40
0.0000000000
40
0.0000000000
40
0.0000000000
40
0.0000000000
40
0.1818178798
40
0.4545453732
40
0.7272727455
40
1.0000000000
40
1.0000000000
40
1.0000000000
40
1.0000000000
10
10.0723568705
20
-24.5341593750
30
0.0000000000
10
10.0763233021
20
-24.5272889968
30
0.0000000000
10
10.0854222978
20
-24.5096411830
30
0.0000000000
10
10.0965398863
20
-24.4798318410
30
0.0000000000
10
10.1041475185
20
-24.4448652031
30
0.0000000000
10
10.1058496360
20
-24.4210509385
30
0.0000000000
10
10.1058496360
20
-24.4091612682
30
0.0000000000
11
10.0723568705
21
-24.5341593750
31
0.0000000000
11
10.0832584082
21
-24.5130134838
31
0.0000000000
11
10.0957232777
21
-24.4795933165
31
0.0000000000
11
10.1033051102
21
-24.4447394036
31
0.0000000000
11
10.1058496360
21
-24.4091612682
31
0.0000000000
0
SPLINE
5
365
100
AcDbEntity
8
0
100
AcDbSpline
62
7
6
CONTINUOUS
70
0
71
3
72
18
73
14
74
12
42
0.0000001000
43
0.0000001000
44
0.0000000001
12
0.0000132796
22
-0.3923546692
32
0.0000000000
13
0.3923546692
23
-0.0000132796
33
0.0000000000
40
0.0000000000
40
0.0000000000
40
0.0000000000
40
0.0000000000
40
0.0909083271
40
0.1818170744
40
0.2727261901
40
0.3636355924
40
0.4545451767
40
0.5454548233
40
0.6363644076
40
0.7272738099
40
0.8181829256
40
0.9090916729
40
1.0000000000
40
1.0000000000
40
1.0000000000
40
1.0000000000
10
7.2102214700
20
-24.4047894342
30
0.0000000000
10
7.2102218724
20
-24.4166788698
30
0.0000000000
10
7.2119247899
20
-24.4404926552
30
0.0000000000
10
7.2195334568
20
-24.4754584851
30
0.0000000000
10
7.2320415364
20
-24.5089932498
30
0.0000000000
10
7.2491944059
20
-24.5404048062
30
0.0000000000
10
7.2706429103
20
-24.5690562826
30
0.0000000000
10
7.2959503909
20
-24.5943637631
30
0.0000000000
10
7.3246018673
20
-24.6158122676
30
0.0000000000
10
7.3560134236
20
-24.6329651371
30
0.0000000000
10
7.3895481884
20
-24.6454732166
30
0.0000000000
10
7.4245140183
20
-24.6530818836
30
0.0000000000
10
7.4483278037
20
-24.6547848010
30
0.0000000000
10
7.4602172392
20
-24.6547852035
30
0.0000000000
11
7.2102214700
21
-24.4047894342
31
0.0000000000
11
7.2127671612
21
-24.4403667803
31
0.0000000000
11
7.2203500056
21
-24.4752199054
31
0.0000000000
11
7.2328156451
21
-24.5086393309
31
0.0000000000
11
7.2499103262
21
-24.5399447629
31
0.0000000000
11
7.2712860654
21
-24.5684989406
31
0.0000000000
11
7.2965077329
21
-24.5937206081
31
0.0000000000
11
7.3250619106
21
-24.6150963473
31
0.0000000000
11
7.3563673426
21
-24.6321910283
31
0.0000000000
11
7.3897867681
21
-24.6446566679
31
0.0000000000
11
7.4246398931
21
-24.6522395123
31
0.0000000000
11
7.4602172392
21
-24.6547852035
31
0.0000000000
0
SPLINE
5
366
100
AcDbEntity
8
0
100
AcDbSpline
62
7
6
CONTINUOUS
70
0
71
3
72
9
73
5
74
3
42
0.0000001000
43
0.0000001000
44
0.0000000001
12
0.0000000000
22
-0.0475573588
32
0.0000000000
13
0.0090083279
23
-0.0467385388
33
0.0000000000
40
0.0000000000
40
0.0000000000
40
0.0000000000
40
0.0000000000
40
0.7500208510
40
1.0000000000
40
1.0000000000
40
1.0000000000
40
1.0000000000
10
7.2058496360
20
-24.4091612682
30
0.0000000000
10
7.2058496360
20
-24.4210509385
30
0.0000000000
10
7.2069843493
20
-24.4369266701
30
0.0000000000
10
7.2096165947
20
-24.4525787797
30
0.0000000000
10
7.2103672260
20
-24.4564733331
30
0.0000000000
11
7.2058496360
21
-24.4091612682
31
0.0000000000
11
7.2083941619
21
-24.4447394036
31
0.0000000000
11
7.2103672260
21
-24.4564733331
31
0.0000000000
0
SPLINE
5
367
100
AcDbEntity
8
0
100
AcDbSpline
62
7
6
CONTINUOUS
70
0
71
3
72
10
73
6
74
4
42
0.0000001000
43
0.0000001000
44
0.0000000001
12
0.0157652643
22
-0.0817960248
32
0.0000000000
13
0.0416482642
23
-0.0721402392
33
0.0000000000
40
0.0000000000
40
0.0000000000
40
0.0000000000
40
0.0000000000
40
0.2857257878
40
0.7142907385
40
1.0000000000
40
1.0000000000
40
1.0000000000
40
1.0000000000
10
7.2103672260
20
-24.4564733331
30
0.0000000000
10
7.2118687402
20
-24.4642637443
30
0.0000000000
10
7.2165489297
20
-24.4835575941
30
0.0000000000
10
7.2262769742
20
-24.5096411830
30
0.0000000000
10
7.2353759700
20
-24.5272889968
30
0.0000000000
10
7.2393424016
20
-24.5341593750
30
0.0000000000
11
7.2103672260
21
-24.4564733331
31
0.0000000000
11
7.2159759943
21
-24.4795933165
31
0.0000000000
11
7.2284408638
21
-24.5130134838
31
0.0000000000
11
7.2393424016
21
-24.5341593750
31
0.0000000000
0
SPLINE
5
368
100
AcDbEntity
8
0
100
AcDbSpline
62
7
6
CONTINUOUS
70
0
71
3
72
12
73
8
74
6
42
0.0000001000
43
0.0000001000
44
0.0000000001
12
0.0654463912
22
-0.1133617068
32
0.0000000000
13
0.1133617068
23
-0.0654463912
33
0.0000000000
40
0.0000000000
40
0.0000000000
40
0.0000000000
40
0.0000000000
40
0.0909094935
40
0.3636364896
40
0.6363635104
40
0.9090905065
40
1.0000000000
40
1.0000000000
40
1.0000000000
40
1.0000000000
10
7.2393424016
20
-24.5341593750
30
0.0000000000
10
7.2413256343
20
-24.5375945934
30
0.0000000000
10
7.2495853759
20
-24.5511466718
30
0.0000000000
10
7.2662674616
20
-24.5734315354
30
0.0000000000
10
7.2915751380
20
-24.5987392119
30
0.0000000000
10
7.3138600017
20
-24.6154212975
30
0.0000000000
10
7.3274120801
20
-24.6236810391
30
0.0000000000
10
7.3308472985
20
-24.6256642719
30
0.0000000000
11
7.2393424016
21
-24.5341593750
31
0.0000000000
11
7.2455350779
21
-24.5443195434
31
0.0000000000
11
7.2669106772
21
-24.5728741565
31
0.0000000000
11
7.2921325170
21
-24.5980959963
31
0.0000000000
11
7.3206871301
21
-24.6194715956
31
0.0000000000
11
7.3308472985
21
-24.6256642719
31
0.0000000000
0
SPLINE
5
369
100
AcDbEntity
8
0
100
AcDbSpline
62
7
6
CONTINUOUS
70
0
71
3
72
11
73
7
74
5
42
0.0000001000
43
0.0000001000
44
0.0000000001
12
0.1133614279
22
-0.0654462302
32
0.0000000000
13
0.1307863814
23
0.0000000000
33
0.0000000000
40
0.0000000000
40
0.0000000000
40
0.0000000000
40
0.0000000000
40
0.1818178798
40
0.4545453732
40
0.7272727455
40
1.0000000000
40
1.0000000000
40
1.0000000000
40
1.0000000000
10
7.3308472985
20
-24.6256642719
30
0.0000000000
10
7.3377176767
20
-24.6296307035
30
0.0000000000
10
7.3553654905
20
-24.6387296992
30
0.0000000000
10
7.3851748325
20
-24.6498472877
30
0.0000000000
10
7.4201414703
20
-24.6574549199
30
0.0000000000
10
7.4439557350
20
-24.6591570375
30
0.0000000000
10
7.4558454052
20
-24.6591570375
30
0.0000000000
11
7.3308472985
21
-24.6256642719
31
0.0000000000
11
7.3519931897
21
-24.6365658096
31
0.0000000000
11
7.3854133570
21
-24.6490306792
31
0.0000000000
11
7.4202672699
21
-24.6566125116
31
0.0000000000
11
7.4558454052
21
-24.6591570375
31
0.0000000000
0
SPLINE
5
36A
100
AcDbEntity
8
0
100
AcDbSpline
62
7
6
CONTINUOUS
70
0
71
3
72
18
73
14
74
12
42
0.0000001000
43
0.0000001000
44
0.0000000001
12
-0.3923546691
22
-0.0000132796
32
0.0000000000
13
-0.0000132796
23
-0.3923546691
33
0.0000000000
40
0.0000000000
40
0.0000000000
40
0.0000000000
40
0.0000000000
40
0.0907979998
40
0.1817132506
40
0.2726288409
40
0.3635497677
40
0.4544701002
40
0.5453914898
40
0.6363133134
40
0.7272353659
40
0.8181573348
40
0.9090790534
40
1.0000000000
40
1.0000000000
40
1.0000000000
40
1.0000000000
10
-9.9397827608
20
24.3364711285
30
0.0000000000
10
-9.9516577671
20
24.3364707266
30
0.0000000000
10
-9.9754578430
20
24.3347708675
30
0.0000000000
10
-10.0104125319
20
24.3271708024
30
0.0000000000
10
-10.0439522927
20
24.3146669015
30
0.0000000000
10
-10.0753696632
20
24.2975167358
30
0.0000000000
10
-10.1040274498
20
24.2760691666
30
0.0000000000
10
-10.1293409317
20
24.2507611971
30
0.0000000000
10
-10.1507949160
20
24.2221077772
30
0.0000000000
10
-10.1679523885
20
24.1906930526
30
0.0000000000
10
-10.1804639342
20
24.1571541545
30
0.0000000000
10
-10.1880747325
20
24.1221835921
30
0.0000000000
10
-10.1897781275
20
24.0983664453
30
0.0000000000
10
-10.1897785300
20
24.0864753593
30
0.0000000000
11
-9.9397827608
21
24.3364711285
31
0.0000000000
11
-9.9753171504
21
24.3339316111
31
0.0000000000
11
-10.0101740459
21
24.3263540966
31
0.0000000000
11
-10.0435978241
21
24.3138928588
31
0.0000000000
11
-10.0749096880
21
24.2968005226
31
0.0000000000
11
-10.1034699474
21
24.2754258712
31
0.0000000000
11
-10.1286976193
21
24.2502036925
31
0.0000000000
11
-10.1500788070
21
24.2216475951
31
0.0000000000
11
-10.1671780722
21
24.1903390113
31
0.0000000000
11
-10.1796471579
21
24.1569154889
31
0.0000000000
11
-10.1872321322
21
24.1220576188
31
0.0000000000
11
-10.1897785300
21
24.0864753593
31
0.0000000000
0
SPLINE
5
36B
100
AcDbEntity
8
0
100
AcDbSpline
62
7
6
CONTINUOUS
70
0
71
3
72
9
73
5
74
3
42
0.0000001000
43
0.0000001000
44
0.0000000001
12
-0.0475573588
22
0.0000000000
32
0.0000000000
13
-0.0467385388
23
-0.0090083279
33
0.0000000000
40
0.0000000000
40
0.0000000000
40
0.0000000000
40
0.0000000000
40
0.7500208510
40
1.0000000000
40
1.0000000000
40
1.0000000000
40
1.0000000000
10
-9.9441545948
20
24.3408429625
30
0.0000000000
10
-9.9560442650
20
24.3408429625
30
0.0000000000
10
-9.9719199966
20
24.3397082493
30
0.0000000000
10
-9.9875721062
20
24.3370760039
30
0.0000000000
10
-9.9914666596
20
24.3363253725
30
0.0000000000
11
-9.9441545948
21
24.3408429625
31
0.0000000000
11
-9.9797327301
21
24.3382984367
31
0.0000000000
11
-9.9914666596
21
24.3363253725
31
0.0000000000
0
SPLINE
5
36C
100
AcDbEntity
8
0
100
AcDbSpline
62
7
6
CONTINUOUS
70
0
71
3
72
10
73
6
74
4
42
0.0000001000
43
0.0000001000
44
0.0000000001
12
-0.0817960248
22
-0.0157652643
32
0.0000000000
13
-0.0721402392
23
-0.0416482642
33
0.0000000000
40
0.0000000000
40
0.0000000000
40
0.0000000000
40
0.0000000000
40
0.2857257878
40
0.7142907385
40
1.0000000000
40
1.0000000000
40
1.0000000000
40
1.0000000000
10
-9.9914666596
20
24.3363253725
30
0.0000000000
10
-9.9992570708
20
24.3348238584
30
0.0000000000
10
-10.0185509206
20
24.3301436689
30
0.0000000000
10
-10.0446345095
20
24.3204156243
30
0.0000000000
10
-10.0622823233
20
24.3113166286
30
0.0000000000
10
-10.0691527015
20
24.3073501970
30
0.0000000000
11
-9.9914666596
21
24.3363253725
31
0.0000000000
11
-10.0145866430
21
24.3307166043
31
0.0000000000
11
-10.0480068103
21
24.3182517347
31
0.0000000000
11
-10.0691527015
21
24.3073501970
31
0.0000000000
0
SPLINE
5
36D
100
AcDbEntity
8
0
100
AcDbSpline
62
7
6
CONTINUOUS
70
0
71
3
72
12
73
8
74
6
42
0.0000001000
43
0.0000001000
44
0.0000000001
12
-0.1133617068
22
-0.0654463912
32
0.0000000000
13
-0.0654463912
23
-0.1133617068
33
0.0000000000
40
0.0000000000
40
0.0000000000
40
0.0000000000
40
0.0000000000
40
0.0909094935
40
0.3636364896
40
0.6363635104
40
0.9090905065
40
1.0000000000
40
1.0000000000
40
1.0000000000
40
1.0000000000
10
-10.0691527015
20
24.3073501970
30
0.0000000000
10
-10.0725879199
20
24.3053669642
30
0.0000000000
10
-10.0861399983
20
24.2971072226
30
0.0000000000
10
-10.1084248620
20
24.2804251370
30
0.0000000000
10
-10.1337325384
20
24.2551174605
30
0.0000000000
10
-10.1504146241
20
24.2328325968
30
0.0000000000
10
-10.1586743657
20
24.2192805185
30
0.0000000000
10
-10.1606575984
20
24.2158453001
30
0.0000000000
11
-10.0691527015
21
24.3073501970
31
0.0000000000
11
-10.0793128699
21
24.3011575207
31
0.0000000000
11
-10.1078674830
21
24.2797819214
31
0.0000000000
11
-10.1330893228
21
24.2545600816
31
0.0000000000
11
-10.1544649221
21
24.2260054685
31
0.0000000000
11
-10.1606575984
21
24.2158453001
31
0.0000000000
0
SPLINE
5
36E
100
AcDbEntity
8
0
100
AcDbSpline
62
7
6
CONTINUOUS
70
0
71
3
72
11
73
7
74
5
42
0.0000001000
43
0.0000001000
44
0.0000000001
12
-0.0654462302
22
-0.1133614279
32
0.0000000000
13
0.0000000000
23
-0.1307863814
33
0.0000000000
40
0.0000000000
40
0.0000000000
40
0.0000000000
40
0.0000000000
40
0.1818178798
40
0.4545453732
40
0.7272727455
40
1.0000000000
40
1.0000000000
40
1.0000000000
40
1.0000000000
10
-10.1606575984
20
24.2158453001
30
0.0000000000
10
-10.1646240300
20
24.2089749219
30
0.0000000000
10
-10.1737230258
20
24.1913271081
30
0.0000000000
10
-10.1848406142
20
24.1615177661
30
0.0000000000
10
-10.1924482464
20
24.1265511282
30
0.0000000000
10
-10.1941503640
20
24.1027368636
30
0.0000000000
10
-10.1941503640
20
24.0908471933
30
0.0000000000
11
-10.1606575984
21
24.2158453001
31
0.0000000000
11
-10.1715591362
21
24.1946994088
31
0.0000000000
11
-10.1840240057
21
24.1612792416
31
0.0000000000
11
-10.1916058381
21
24.1264253287
31
0.0000000000
11
-10.1941503640
21
24.0908471933
31
0.0000000000
0
SPLINE
5
36F
100
AcDbEntity
8
0
100
AcDbSpline
62
7
6
CONTINUOUS
70
0
71
3
72
18
73
14
74
12
42
0.0000001000
43
0.0000001000
44
0.0000000001
12
-0.0000132796
22
0.3923546692
32
0.0000000000
13
-0.3923546692
23
0.0000132796
33
0.0000000000
40
0.0000000000
40
0.0000000000
40
0.0000000000
40
0.0000000000
40
0.0909083271
40
0.1818170744
40
0.2727261901
40
0.3636355924
40
0.4545451767
40
0.5454548233
40
0.6363644076
40
0.7272738099
40
0.8181829256
40
0.9090916729
40
1.0000000000
40
1.0000000000
40
1.0000000000
40
1.0000000000
10
-7.2985221980
20
24.0864753593
30
0.0000000000
10
-7.2985226004
20
24.0983647949
30
0.0000000000
10
-7.3002255178
20
24.1221785803
30
0.0000000000
10
-7.3078341848
20
24.1571444102
30
0.0000000000
10
-7.3203422644
20
24.1906791749
30
0.0000000000
10
-7.3374951338
20
24.2220907313
30
0.0000000000
10
-7.3589436383
20
24.2507422077
30
0.0000000000
10
-7.3842511188
20
24.2760496882
30
0.0000000000
10
-7.4129025952
20
24.2974981927
30
0.0000000000
10
-7.4443141516
20
24.3146510622
30
0.0000000000
10
-7.4778489163
20
24.3271591417
30
0.0000000000
10
-7.5128147463
20
24.3347678087
30
0.0000000000
10
-7.5366285316
20
24.3364707261
30
0.0000000000
10
-7.5485179672
20
24.3364711285
30
0.0000000000
11
-7.2985221980
21
24.0864753593
31
0.0000000000
11
-7.3010678891
21
24.1220527054
31
0.0000000000
11
-7.3086507336
21
24.1569058305
31
0.0000000000
11
-7.3211163731
21
24.1903252560
31
0.0000000000
11
-7.3382110542
21
24.2216306880
31
0.0000000000
11
-7.3595867933
21
24.2501848657
31
0.0000000000
11
-7.3848084609
21
24.2754065332
31
0.0000000000
11
-7.4133626385
21
24.2967822724
31
0.0000000000
11
-7.4446680705
21
24.3138769534
31
0.0000000000
11
-7.4780874960
21
24.3263425930
31
0.0000000000
11
-7.5129406211
21
24.3339254374
31
0.0000000000
11
-7.5485179672
21
24.3364711285
31
0.0000000000
0
SPLINE
5
370
100
AcDbEntity
8
0
100
AcDbSpline
62
7
6
CONTINUOUS
70
0
71
3
72
9
73
5
74
3
42
0.0000001000
43
0.0000001000
44
0.0000000001
12
0.0000000000
22
0.0475573588
32
0.0000000000
13
-0.0090083279
23
0.0467385388
33
0.0000000000
40
0.0000000000
40
0.0000000000
40
0.0000000000
40
0.0000000000
40
0.7500208510
40
1.0000000000
40
1.0000000000
40
1.0000000000
40
1.0000000000
10
-7.2941503640
20
24.0908471933
30
0.0000000000
10
-7.2941503640
20
24.1027368636
30
0.0000000000
10
-7.2952850772
20
24.1186125952
30
0.0000000000
10
-7.2979173226
20
24.1342647048
30
0.0000000000
10
-7.2986679540
20
24.1381592582
30
0.0000000000
11
-7.2941503640
21
24.0908471933
31
0.0000000000
11
-7.2966948898
21
24.1264253287
31
0.0000000000
11
-7.2986679540
21
24.1381592582
31
0.0000000000
0
SPLINE
5
371
100
AcDbEntity
8
0
100
AcDbSpline
62
7
6
CONTINUOUS
70
0
71
3
72
10
73
6
74
4
42
0.0000001000
43
0.0000001000
44
0.0000000001
12
-0.0157652643
22
0.0817960248
32
0.0000000000
13
-0.0416482642
23
0.0721402392
33
0.0000000000
40
0.0000000000
40
0.0000000000
40
0.0000000000
40
0.0000000000
40
0.2857257878
40
0.7142907385
40
1.0000000000
40
1.0000000000
40
1.0000000000
40
1.0000000000
10
-7.2986679540
20
24.1381592582
30
0.0000000000
10
-7.3001694682
20
24.1459496694
30
0.0000000000
10
-7.3048496576
20
24.1652435192
30
0.0000000000
10
-7.3145777022
20
24.1913271081
30
0.0000000000
10
-7.3236766979
20
24.2089749219
30
0.0000000000
10
-7.3276431295
20
24.2158453001
30
0.0000000000
11
-7.2986679540
21
24.1381592582
31
0.0000000000
11
-7.3042767223
21
24.1612792416
31
0.0000000000
11
-7.3167415918
21
24.1946994088
31
0.0000000000
11
-7.3276431295
21
24.2158453001
31
0.0000000000
0
SPLINE
5
372
100
AcDbEntity
8
0
100
AcDbSpline
62
7
6
CONTINUOUS
70
0
71
3
72
12
73
8
74
6
42
0.0000001000
43
0.0000001000
44
0.0000000001
12
-0.0654463912
22
0.1133617068
32
0.0000000000
13
-0.1133617068
23
0.0654463912
33
0.0000000000
40
0.0000000000
40
0.0000000000
40
0.0000000000
40
0.0000000000
40
0.0909094935
40
0.3636364896
40
0.6363635104
40
0.9090905065
40
1.0000000000
40
1.0000000000
40
1.0000000000
40
1.0000000000
10
-7.3276431295
20
24.2158453001
30
0.0000000000
10
-7.3296263623
20
24.2192805185
30
0.0000000000
10
-7.3378861039
20
24.2328325968
30
0.0000000000
10
-7.3545681896
20
24.2551174605
30
0.0000000000
10
-7.3798758660
20
24.2804251370
30
0.0000000000
10
-7.4021607297
20
24.2971072226
30
0.0000000000
10
-7.4157128080
20
24.3053669642
30
0.0000000000
10
-7.4191480264
20
24.3073501970
30
0.0000000000
11
-7.3276431295
21
24.2158453001
31
0.0000000000
11
-7.3338358058
21
24.2260054685
31
0.0000000000
11
-7.3552114051
21
24.2545600816
31
0.0000000000
11
-7.3804332449
21
24.2797819214
31
0.0000000000
11
-7.4089878581
21
24.3011575207
31
0.0000000000
11
-7.4191480264
21
24.3073501970
31
0.0000000000
0
SPLINE
5
373
100
AcDbEntity
8
0
100
AcDbSpline
62
7
6
CONTINUOUS
70
0
71
3
72
11
73
7
74
5
42
0.0000001000
43
0.0000001000
44
0.0000000001
12
-0.1133614279
22
0.0654462302
32
0.0000000000
13
-0.1307863814
23
0.0000000000
33
0.0000000000
40
0.0000000000
40
0.0000000000
40
0.0000000000
40
0.0000000000
40
0.1818178798
40
0.4545453732
40
0.7272727455
40
1.0000000000
40
1.0000000000
40
1.0000000000
40
1.0000000000
10
-7.4191480264
20
24.3073501970
30
0.0000000000
10
-7.4260184046
20
24.3113166286
30
0.0000000000
10
-7.4436662185
20
24.3204156243
30
0.0000000000
10
-7.4734755604
20
24.3315332128
30
0.0000000000
10
-7.5084421983
20
24.3391408450
30
0.0000000000
10
-7.5322564629
20
24.3408429625
30
0.0000000000
10
-7.5441461332
20
24.3408429625
30
0.0000000000
11
-7.4191480264
21
24.3073501970
31
0.0000000000
11
-7.4402939177
21
24.3182517347
31
0.0000000000
11
-7.4737140850
21
24.3307166043
31
0.0000000000
11
-7.5085679978
21
24.3382984367
31
0.0000000000
11
-7.5441461332
21
24.3408429625
31
0.0000000000
0
SPLINE
5
374
100
AcDbEntity
8
0
100
AcDbSpline
62
7
6
CONTINUOUS
70
0
71
3
72
18
73
14
74
12
42
0.0000001000
43
0.0000001000
44
0.0000000001
12
-0.3923546691
22
-0.0000132796
32
0.0000000000
13
-0.0000132796
23
-0.3923546691
33
0.0000000000
40
0.0000000000
40
0.0000000000
40
0.0000000000
40
0.0000000000
40
0.0907979998
40
0.1817132506
40
0.2726288409
40
0.3635497677
40
0.4544701002
40
0.5453914898
40
0.6363133134
40
0.7272353659
40
0.8181573348
40
0.9090790534
40
1.0000000000
40
1.0000000000
40
1.0000000000
40
1.0000000000
10
7.4602172392
20
24.3364711285
30
0.0000000000
10
7.4483422329
20
24.3364707266
30
0.0000000000
10
7.4245421570
20
24.3347708675
30
0.0000000000
10
7.3895874681
20
24.3271708024
30
0.0000000000
10
7.3560477073
20
24.3146669015
30
0.0000000000
10
7.3246303368
20
24.2975167358
30
0.0000000000
10
7.2959725502
20
24.2760691666
30
0.0000000000
10
7.2706590683
20
24.2507611971
30
0.0000000000
10
7.2492050840
20
24.2221077772
30
0.0000000000
10
7.2320476115
20
24.1906930526
30
0.0000000000
10
7.2195360658
20
24.1571541545
30
0.0000000000
10
7.2119252675
20
24.1221835921
30
0.0000000000
10
7.2102218725
20
24.0983664453
30
0.0000000000
10
7.2102214700
20
24.0864753593
30
0.0000000000
11
7.4602172392
21
24.3364711285
31
0.0000000000
11
7.4246828496
21
24.3339316111
31
0.0000000000
11
7.3898259541
21
24.3263540966
31
0.0000000000
11
7.3564021759
21
24.3138928588
31
0.0000000000
11
7.3250903120
21
24.2968005226
31
0.0000000000
11
7.2965300526
21
24.2754258712
31
0.0000000000
11
7.2713023807
21
24.2502036925
31
0.0000000000
11
7.2499211930
21
24.2216475951
31
0.0000000000
11
7.2328219278
21
24.1903390113
31
0.0000000000
11
7.2203528421
21
24.1569154889
31
0.0000000000
11
7.2127678678
21
24.1220576188
31
0.0000000000
11
7.2102214700
21
24.0864753593
31
0.0000000000
0
SPLINE
5
375
100
AcDbEntity
8
0
100
AcDbSpline
62
7
6
CONTINUOUS
70
0
71
3
72
9
73
5
74
3
42
0.0000001000
43
0.0000001000
44
0.0000000001
12
-0.0475573588
22
0.0000000000
32
0.0000000000
13
-0.0467385388
23
-0.0090083279
33
0.0000000000
40
0.0000000000
40
0.0000000000
40
0.0000000000
40
0.0000000000
40
0.7500208510
40
1.0000000000
40
1.0000000000
40
1.0000000000
40
1.0000000000
10
7.4558454052
20
24.3408429625
30
0.0000000000
10
7.4439557350
20
24.3408429625
30
0.0000000000
10
7.4280800034
20
24.3397082493
30
0.0000000000
10
7.4124278938
20
24.3370760039
30
0.0000000000
10
7.4085333404
20
24.3363253725
30
0.0000000000
11
7.4558454052
21
24.3408429625
31
0.0000000000
11
7.4202672699
21
24.3382984367
31
0.0000000000
11
7.4085333404
21
24.3363253725
31
0.0000000000
0
SPLINE
5
376
100
AcDbEntity
8
0
100
AcDbSpline
62
7
6
CONTINUOUS
70
0
71
3
72
10
73
6
74
4
42
0.0000001000
43
0.0000001000
44
0.0000000001
12
-0.0817960248
22
-0.0157652643
32
0.0000000000
13
-0.0721402392
23
-0.0416482642
33
0.0000000000
40
0.0000000000
40
0.0000000000
40
0.0000000000
40
0.0000000000
40
0.2857257878
40
0.7142907385
40
1.0000000000
40
1.0000000000
40
1.0000000000
40
1.0000000000
10
7.4085333404
20
24.3363253725
30
0.0000000000
10
7.4007429292
20
24.3348238584
30
0.0000000000
10
7.3814490794
20
24.3301436689
30
0.0000000000
10
7.3553654905
20
24.3204156243
30
0.0000000000
10
7.3377176767
20
24.3113166286
30
0.0000000000
10
7.3308472985
20
24.3073501970
30
0.0000000000
11
7.4085333404
21
24.3363253725
31
0.0000000000
11
7.3854133570
21
24.3307166043
31
0.0000000000
11
7.3519931897
21
24.3182517347
31
0.0000000000
11
7.3308472985
21
24.3073501970
31
0.0000000000
0
SPLINE
5
377
100
AcDbEntity
8
0
100
AcDbSpline
62
7
6
CONTINUOUS
70
0
71
3
72
12
73
8
74
6
42
0.0000001000
43
0.0000001000
44
0.0000000001
12
-0.1133617068
22
-0.0654463912
32
0.0000000000
13
-0.0654463912
23
-0.1133617068
33
0.0000000000
40
0.0000000000
40
0.0000000000
40
0.0000000000
40
0.0000000000
40
0.0909094935
40
0.3636364896
40
0.6363635104
40
0.9090905065
40
1.0000000000
40
1.0000000000
40
1.0000000000
40
1.0000000000
10
7.3308472985
20
24.3073501970
30
0.0000000000
10
7.3274120801
20
24.3053669642
30
0.0000000000
10
7.3138600017
20
24.2971072226
30
0.0000000000
10
7.2915751380
20
24.2804251370
30
0.0000000000
10
7.2662674616
20
24.2551174605
30
0.0000000000
10
7.2495853759
20
24.2328325968
30
0.0000000000
10
7.2413256343
20
24.2192805185
30
0.0000000000
10
7.2393424016
20
24.2158453001
30
0.0000000000
11
7.3308472985
21
24.3073501970
31
0.0000000000
11
7.3206871301
21
24.3011575207
31
0.0000000000
11
7.2921325170
21
24.2797819214
31
0.0000000000
11
7.2669106772
21
24.2545600816
31
0.0000000000
11
7.2455350779
21
24.2260054685
31
0.0000000000
11
7.2393424016
21
24.2158453001
31
0.0000000000
0
SPLINE
5
378
100
AcDbEntity
8
0
100
AcDbSpline
62
7
6
CONTINUOUS
70
0
71
3
72
11
73
7
74
5
42
0.0000001000
43
0.0000001000
44
0.0000000001
12
-0.0654462302
22
-0.1133614279
32
0.0000000000
13
-0.0000000000
23
-0.1307863814
33
0.0000000000
40
0.0000000000
40
0.0000000000
40
0.0000000000
40
0.0000000000
40
0.1818178798
40
0.4545453732
40
0.7272727455
40
1.0000000000
40
1.0000000000
40
1.0000000000
40
1.0000000000
10
7.2393424016
20
24.2158453001
30
0.0000000000
10
7.2353759700
20
24.2089749219
30
0.0000000000
10
7.2262769742
20
24.1913271081
30
0.0000000000
10
7.2151593858
20
24.1615177661
30
0.0000000000
10
7.2075517536
20
24.1265511282
30
0.0000000000
10
7.2058496360
20
24.1027368636
30
0.0000000000
10
7.2058496360
20
24.0908471933
30
0.0000000000
11
7.2393424016
21
24.2158453001
31
0.0000000000
11
7.2284408638
21
24.1946994088
31
0.0000000000
11
7.2159759943
21
24.1612792416
31
0.0000000000
11
7.2083941619
21
24.1264253287
31
0.0000000000
11
7.2058496360
21
24.0908471933
31
0.0000000000
0
SPLINE
5
379
100
AcDbEntity
8
0
100
AcDbSpline
62
7
6
CONTINUOUS
70
0
71
3
72
18
73
14
74
12
42
0.0000001000
43
0.0000001000
44
0.0000000001
12
-0.0000132796
22
0.3923546691
32
0.0000000000
13
-0.3923546691
23
0.0000132796
33
0.0000000000
40
0.0000000000
40
0.0000000000
40
0.0000000000
40
0.0000000000
40
0.0909209466
40
0.1818426652
40
0.2727646341
40
0.3636866866
40
0.4546085102
40
0.5455298998
40
0.6364502323
40
0.7273711591
40
0.8182867494
40
0.9092020002
40
1.0000000000
40
1.0000000000
40
1.0000000000
40
1.0000000000
10
10.1014778020
20
24.0864753593
30
0.0000000000
10
10.1014773996
20
24.0983664453
30
0.0000000000
10
10.0997740045
20
24.1221835921
30
0.0000000000
10
10.0921632062
20
24.1571541545
30
0.0000000000
10
10.0796516606
20
24.1906930526
30
0.0000000000
10
10.0624941881
20
24.2221077772
30
0.0000000000
10
10.0410402037
20
24.2507611971
30
0.0000000000
10
10.0157267219
20
24.2760691666
30
0.0000000000
10
9.9870689353
20
24.2975167358
30
0.0000000000
10
9.9556515648
20
24.3146669015
30
0.0000000000
10
9.9221118039
20
24.3271708024
30
0.0000000000
10
9.8871571151
20
24.3347708675
30
0.0000000000
10
9.8633570392
20
24.3364707266
30
0.0000000000
10
9.8514820328
20
24.3364711285
30
0.0000000000
11
10.1014778020
21
24.0864753593
31
0.0000000000
11
10.0989314042
21
24.1220576188
31
0.0000000000
11
10.0913464300
21
24.1569154889
31
0.0000000000
11
10.0788773443
21
24.1903390113
31
0.0000000000
11
10.0617780791
21
24.2216475951
31
0.0000000000
11
10.0403968914
21
24.2502036925
31
0.0000000000
11
10.0151692194
21
24.2754258712
31
0.0000000000
11
9.9866089600
21
24.2968005226
31
0.0000000000
11
9.9552970962
21
24.3138928588
31
0.0000000000
11
9.9218733179
21
24.3263540966
31
0.0000000000
11
9.8870164224
21
24.3339316111
31
0.0000000000
11
9.8514820328
21
24.3364711285
31
0.0000000000
0
SPLINE
5
37A
100
AcDbEntity
8
0
100
AcDbSpline
62
7
6
CONTINUOUS
70
0
71
3
72
9
73
5
74
3
42
0.0000001000
43
0.0000001000
44
0.0000000001
12
0.0000000000
22
0.0475573588
32
0.0000000000
13
-0.0090083279
23
0.0467385388
33
0.0000000000
40
0.0000000000
40
0.0000000000
40
0.0000000000
40
0.0000000000
40
0.7500208510
40
1.0000000000
40
1.0000000000
40
1.0000000000
40
1.0000000000
10
10.1058496360
20
24.0908471933
30
0.0000000000
10
10.1058496360
20
24.1027368636
30
0.0000000000
10
10.1047149228
20
24.1186125952
30
0.0000000000
10
10.1020826774
20
24.1342647048
30
0.0000000000
10
10.1013320460
20
24.1381592582
30
0.0000000000
11
10.1058496360
21
24.0908471933
31
0.0000000000
11
10.1033051102
21
24.1264253287
31
0.0000000000
11
10.1013320460
21
24.1381592582
31
0.0000000000
0
SPLINE
5
37B
100
AcDbEntity
8
0
100
AcDbSpline
62
7
6
CONTINUOUS
70
0
71
3
72
10
73
6
74
4
42
0.0000001000
43
0.0000001000
44
0.0000000001
12
-0.0157652643
22
0.0817960248
32
0.0000000000
13
-0.0416482642
23
0.0721402392
33
0.0000000000
40
0.0000000000
40
0.0000000000
40
0.0000000000
40
0.0000000000
40
0.2857257878
40
0.7142907385
40
1.0000000000
40
1.0000000000
40
1.0000000000
40
1.0000000000
10
10.1013320460
20
24.1381592582
30
0.0000000000
10
10.0998305318
20
24.1459496694
30
0.0000000000
10
10.0951503424
20
24.1652435192
30
0.0000000000
10
10.0854222978
20
24.1913271081
30
0.0000000000
10
10.0763233021
20
24.2089749219
30
0.0000000000
10
10.0723568705
20
24.2158453001
30
0.0000000000
11
10.1013320460
21
24.1381592582
31
0.0000000000
11
10.0957232777
21
24.1612792416
31
0.0000000000
11
10.0832584082
21
24.1946994088
31
0.0000000000
11
10.0723568705
21
24.2158453001
31
0.0000000000
0
SPLINE
5
37C
100
AcDbEntity
8
0
100
AcDbSpline
62
7
6
CONTINUOUS
70
0
71
3
72
12
73
8
74
6
42
0.0000001000
43
0.0000001000
44
0.0000000001
12
-0.0654463912
22
0.1133617068
32
0.0000000000
13
-0.1133617068
23
0.0654463912
33
0.0000000000
40
0.0000000000
40
0.0000000000
40
0.0000000000
40
0.0000000000
40
0.0909094935
40
0.3636364896
40
0.6363635104
40
0.9090905065
40
1.0000000000
40
1.0000000000
40
1.0000000000
40
1.0000000000
10
10.0723568705
20
24.2158453001
30
0.0000000000
10
10.0703736377
20
24.2192805185
30
0.0000000000
10
10.0621138961
20
24.2328325968
30
0.0000000000
10
10.0454318104
20
24.2551174605
30
0.0000000000
10
10.0201241340
20
24.2804251370
30
0.0000000000
10
9.9978392703
20
24.2971072226
30
0.0000000000
10
9.9842871920
20
24.3053669642
30
0.0000000000
10
9.9808519736
20
24.3073501970
30
0.0000000000
11
10.0723568705
21
24.2158453001
31
0.0000000000
11
10.0661641942
21
24.2260054685
31
0.0000000000
11
10.0447885949
21
24.2545600816
31
0.0000000000
11
10.0195667551
21
24.2797819214
31
0.0000000000
11
9.9910121419
21
24.3011575207
31
0.0000000000
11
9.9808519736
21
24.3073501970
31
0.0000000000
0
SPLINE
5
37D
100
AcDbEntity
8
0
100
AcDbSpline
62
7
6
CONTINUOUS
70
0
71
3
72
11
73
7
74
5
42
0.0000001000
43
0.0000001000
44
0.0000000001
12
-0.1133614279
22
0.0654462302
32
0.0000000000
13
-0.1307863814
23
0.0000000000
33
0.0000000000
40
0.0000000000
40
0.0000000000
40
0.0000000000
40
0.0000000000
40
0.1818178798
40
0.4545453732
40
0.7272727455
40
1.0000000000
40
1.0000000000
40
1.0000000000
40
1.0000000000
10
9.9808519736
20
24.3073501970
30
0.0000000000
10
9.9739815954
20
24.3113166286
30
0.0000000000
10
9.9563337815
20
24.3204156243
30
0.0000000000
10
9.9265244396
20
24.3315332128
30
0.0000000000
10
9.8915578017
20
24.3391408450
30
0.0000000000
10
9.8677435371
20
24.3408429625
30
0.0000000000
10
9.8558538668
20
24.3408429625
30
0.0000000000
11
9.9808519736
21
24.3073501970
31
0.0000000000
11
9.9597060823
21
24.3182517347
31
0.0000000000
11
9.9262859150
21
24.3307166043
31
0.0000000000
11
9.8914320022
21
24.3382984367
31
0.0000000000
11
9.8558538668
21
24.3408429625
31
0.0000000000
0
SPLINE
5
37E
100
AcDbEntity
8
0
100
AcDbSpline
62
7
6
CONTINUOUS
70
0
71
3
72
18
73
14
74
12
42
0.0000001000
43
0.0000001000
44
0.0000000001
12
0.7847139466
22
-0.0000000469
32
0.0000000000
13
0.0000032739
23
-0.7847139466
33
0.0000000000
40
0.0000000000
40
0.0000000000
40
0.0000000000
40
0.0000000000
40
0.0907391908
40
0.1817921437
40
0.2724591538
40
0.3635248552
40
0.4546600141
40
0.5453720289
40
0.6365009470
40
0.7275719278
40
0.8182352352
40
0.9093007165
40
1.0000000000
40
1.0000000000
40
1.0000000000
40
1.0000000000
10
10.6062923255
20
22.2408429625
30
0.0000000000
10
10.6300270950
20
22.2408429611
30
0.0000000000
10
10.6776480789
20
22.2374458274
30
0.0000000000
10
10.7475157899
20
22.2222566686
30
0.0000000000
10
10.8146052736
20
22.1972537947
30
0.0000000000
10
10.8774733081
20
22.1629507663
30
0.0000000000
10
10.9348173009
20
22.1200247308
30
0.0000000000
10
10.9854768880
20
22.0693640250
30
0.0000000000
10
11.0284018209
20
22.0120195773
30
0.0000000000
10
11.0627031859
20
21.9491519610
30
0.0000000000
10
11.0877056296
20
21.8820583864
30
0.0000000000
10
11.1028903871
20
21.8121979337
30
0.0000000000
10
11.1062858804
20
21.7645842165
30
0.0000000000
10
11.1062859794
20
21.7408598856
30
0.0000000000
11
10.6062923255
21
22.2408429625
31
0.0000000000
11
10.6773159155
21
22.2357731286
31
0.0000000000
11
10.7471360990
21
22.2205968619
31
0.0000000000
11
10.8138040659
21
22.1957498749
31
0.0000000000
11
10.8765342948
21
22.1615223254
31
0.0000000000
11
10.9337855723
21
22.1186656950
31
0.0000000000
11
10.9841189959
21
22.0683311784
31
0.0000000000
11
11.0269717363
21
22.0110831063
31
0.0000000000
11
11.0612001188
21
21.9483486125
31
0.0000000000
11
11.0860443919
21
21.8816827351
31
0.0000000000
11
11.1012200516
21
21.8118523589
31
0.0000000000
11
11.1062859794
21
21.7408598856
31
0.0000000000
0
SPLINE
5
37F
100
AcDbEntity
8
0
100
AcDbSpline
62
7
6
CONTINUOUS
70
0
71
3
72
21
73
17
74
15
42
0.0000001000
43
0.0000001000
44
0.0000000001
12
0.0000001837
22
-0.7849697828
32
0.0000000000
13
-0.7849697828
23
0.0000001757
33
0.0000000000
40
0.0000000000
40
0.0000000000
40
0.0000000000
40
0.0000000000
40
0.0711908854
40
0.1427671954
40
0.2142133748
40
0.2853888390
40
0.3569816745
40
0.4286651053
40
0.4999795810
40
0.5712985856
40
0.6429883397
40
0.7145781663
40
0.7857510700
40
0.8572137083
40
0.9288030760
40
1.0000000000
40
1.0000000000
40
1.0000000000
40
1.0000000000
10
11.1062859794
20
-22.0591739605
30
0.0000000000
10
11.1062859838
20
-22.0778015251
30
0.0000000000
10
11.1041940837
20
-22.1151910615
30
0.0000000000
10
11.0947998227
20
-22.1705628438
30
0.0000000000
10
11.0792584176
20
-22.2245354236
30
0.0000000000
10
11.0577801728
20
-22.2764335382
30
0.0000000000
10
11.0305986136
20
-22.3256587549
30
0.0000000000
10
10.9980398890
20
-22.3715500422
30
0.0000000000
10
10.9605916693
20
-22.4134485253
30
0.0000000000
10
10.9186930216
20
-22.4508990705
30
0.0000000000
10
10.8728007564
20
-22.4834600028
30
0.0000000000
10
10.8235759938
20
-22.5106427530
30
0.0000000000
10
10.7716759362
20
-22.5321237066
30
0.0000000000
10
10.7176969221
20
-22.5476684832
30
0.0000000000
10
10.6623160078
20
-22.5570648179
30
0.0000000000
10
10.6249214702
20
-22.5591570416
30
0.0000000000
10
10.6062923255
20
-22.5591570375
30
0.0000000000
11
11.1062859794
21
-22.0591739605
31
0.0000000000
11
11.1031630734
21
-22.1149693270
31
0.0000000000
11
11.0937660046
21
-22.1703631566
31
0.0000000000
11
11.0782470503
21
-22.2242563404
31
0.0000000000
11
11.0568822726
21
-22.2758806462
31
0.0000000000
11
11.0297166225
21
-22.3250768508
31
0.0000000000
11
10.9971571290
21
-22.3709692963
31
0.0000000000
11
10.9598522444
21
-22.4127074484
31
0.0000000000
11
10.9181125294
21
-22.4500159192
31
0.0000000000
11
10.8722167587
21
-22.4825793040
31
0.0000000000
11
10.8230232381
21
-22.5097449285
31
0.0000000000
11
10.7714014623
21
-22.5311105634
31
0.0000000000
11
10.7174962686
21
-22.5466345002
31
0.0000000000
11
10.6620924210
21
-22.5560337991
31
0.0000000000
11
10.6062923255
21
-22.5591570375
31
0.0000000000
0
SPLINE
5
380
100
AcDbEntity
8
0
100
AcDbSpline
62
7
6
CONTINUOUS
70
0
71
3
72
18
73
14
74
12
42
0.0000001000
43
0.0000001000
44
0.0000000001
12
0.0000032739
22
0.7847139466
32
0.0000000000
13
0.7847139466
23
0.0000000469
33
0.0000000000
40
0.0000000000
40
0.0000000000
40
0.0000000000
40
0.0000000000
40
0.0906992835
40
0.1817647648
40
0.2724280722
40
0.3634990530
40
0.4546279711
40
0.5453399859
40
0.6364751448
40
0.7275408462
40
0.8182078563
40
0.9092608092
40
1.0000000000
40
1.0000000000
40
1.0000000000
40
1.0000000000
10
-11.1945867074
20
21.7408598856
30
0.0000000000
10
-11.1945866084
20
21.7645842165
30
0.0000000000
10
-11.1911911150
20
21.8121979337
30
0.0000000000
10
-11.1760063575
20
21.8820583864
30
0.0000000000
10
-11.1510039139
20
21.9491519610
30
0.0000000000
10
-11.1167025488
20
22.0120195773
30
0.0000000000
10
-11.0737776160
20
22.0693640250
30
0.0000000000
10
-11.0231180288
20
22.1200247308
30
0.0000000000
10
-10.9657740360
20
22.1629507663
30
0.0000000000
10
-10.9029060015
20
22.1972537947
30
0.0000000000
10
-10.8358165178
20
22.2222566686
30
0.0000000000
10
-10.7659488068
20
22.2374458274
30
0.0000000000
10
-10.7183278229
20
22.2408429611
30
0.0000000000
10
-10.6945930535
20
22.2408429625
30
0.0000000000
11
-11.1945867074
21
21.7408598856
31
0.0000000000
11
-11.1895207796
21
21.8118523589
31
0.0000000000
11
-11.1743451198
21
21.8816827351
31
0.0000000000
11
-11.1495008468
21
21.9483486125
31
0.0000000000
11
-11.1152724643
21
22.0110831063
31
0.0000000000
11
-11.0724197238
21
22.0683311784
31
0.0000000000
11
-11.0220863002
21
22.1186656950
31
0.0000000000
11
-10.9648350228
21
22.1615223254
31
0.0000000000
11
-10.9021047938
21
22.1957498749
31
0.0000000000
11
-10.8354368269
21
22.2205968619
31
0.0000000000
11
-10.7656166434
21
22.2357731286
31
0.0000000000
11
-10.6945930535
21
22.2408429625
31
0.0000000000
0
SPLINE
5
381
100
AcDbEntity
8
0
100
AcDbSpline
62
7
6
CONTINUOUS
70
0
71
3
72
21
73
17
74
15
42
0.0000001000
43
0.0000001000
44
0.0000000001
12
-0.7849697828
22
-0.0000001757
32
0.0000000000
13
0.0000001837
23
0.7849697828
33
0.0000000000
40
0.0000000000
40
0.0000000000
40
0.0000000000
40
0.0000000000
40
0.0711969240
40
0.1427862917
40
0.2142489300
40
0.2854218337
40
0.3570116603
40
0.4287014144
40
0.5000204190
40
0.5713348947
40
0.6430183255
40
0.7146111610
40
0.7857866252
40
0.8572328046
40
0.9288091146
40
1.0000000000
40
1.0000000000
40
1.0000000000
40
1.0000000000
10
-10.6945930535
20
-22.5591570375
30
0.0000000000
10
-10.7132221981
20
-22.5591570416
30
0.0000000000
10
-10.7506167357
20
-22.5570648179
30
0.0000000000
10
-10.8059976501
20
-22.5476684832
30
0.0000000000
10
-10.8599766641
20
-22.5321237066
30
0.0000000000
10
-10.9118767218
20
-22.5106427530
30
0.0000000000
10
-10.9611014844
20
-22.4834600028
30
0.0000000000
10
-11.0069937495
20
-22.4508990705
30
0.0000000000
10
-11.0488923972
20
-22.4134485253
30
0.0000000000
10
-11.0863406169
20
-22.3715500422
30
0.0000000000
10
-11.1188993416
20
-22.3256587549
30
0.0000000000
10
-11.1460809007
20
-22.2764335382
30
0.0000000000
10
-11.1675591456
20
-22.2245354236
30
0.0000000000
10
-11.1831005507
20
-22.1705628438
30
0.0000000000
10
-11.1924948117
20
-22.1151910615
30
0.0000000000
10
-11.1945867117
20
-22.0778015251
30
0.0000000000
10
-11.1945867074
20
-22.0591739605
30
0.0000000000
11
-10.6945930535
21
-22.5591570375
31
0.0000000000
11
-10.7503931490
21
-22.5560337991
31
0.0000000000
11
-10.8057969965
21
-22.5466345002
31
0.0000000000
11
-10.8597021902
21
-22.5311105634
31
0.0000000000
11
-10.9113239660
21
-22.5097449285
31
0.0000000000
11
-10.9605174866
21
-22.4825793040
31
0.0000000000
11
-11.0064132573
21
-22.4500159192
31
0.0000000000
11
-11.0481529724
21
-22.4127074484
31
0.0000000000
11
-11.0854578569
21
-22.3709692963
31
0.0000000000
11
-11.1180173505
21
-22.3250768508
31
0.0000000000
11
-11.1451830006
21
-22.2758806462
31
0.0000000000
11
-11.1665477782
21
-22.2242563404
31
0.0000000000
11
-11.1820667326
21
-22.1703631566
31
0.0000000000
11
-11.1914638014
21
-22.1149693270
31
0.0000000000
11
-11.1945867074
21
-22.0591739605
31
0.0000000000
0
SPLINE
5
382
100
AcDbEntity
8
0
100
AcDbSpline
62
7
6
CONTINUOUS
70
0
71
3
72
18
73
14
74
12
42
0.0000001000
43
0.0000001000
44
0.0000000001
12
0.0000000000
22
-0.4220894472
32
0.0000000000
13
-0.4220894472
23
0.0000000000
33
0.0000000000
40
0.0000000000
40
0.0000000000
40
0.0000000000
40
0.0000000000
40
0.1059090351
40
0.2101669191
40
0.3119275375
40
0.4100581264
40
0.5041875836
40
0.5942815516
40
0.6804273975
40
0.7634029300
40
0.8436506062
40
0.9223347281
40
1.0000000000
40
1.0000000000
40
1.0000000000
40
1.0000000000
10
-7.2941503640
20
23.2513281108
30
0.0000000000
10
-7.2941503640
20
23.2364270821
30
0.0000000000
10
-7.2961361939
20
23.2068182090
30
0.0000000000
10
-7.3049401064
20
23.1636938788
30
0.0000000000
10
-7.3191220819
20
23.1231770847
30
0.0000000000
10
-7.3380532187
20
23.0862480160
30
0.0000000000
10
-7.3609725498
20
23.0536405329
30
0.0000000000
10
-7.3871026144
20
23.0258177026
30
0.0000000000
10
-7.4157231526
20
23.0030071283
30
0.0000000000
10
-7.4461656891
20
22.9853104576
30
0.0000000000
10
-7.4779182716
20
22.9727038778
30
0.0000000000
10
-7.5104663952
20
22.9651667993
30
0.0000000000
10
-7.5325001355
20
22.9634926934
30
0.0000000000
10
-7.5434273661
20
22.9634926934
30
0.0000000000
11
-7.2941503640
21
23.2513281108
31
0.0000000000
11
-7.2971538488
21
23.2067260370
31
0.0000000000
11
-7.3059816076
21
23.1636144128
31
0.0000000000
11
-7.3202113227
21
23.1230879195
31
0.0000000000
11
-7.3391515514
21
23.0862521394
31
0.0000000000
11
-7.3620443294
21
23.0537794263
31
0.0000000000
11
-7.3881182095
21
23.0260980293
31
0.0000000000
11
-7.4165851039
21
23.0034755491
31
0.0000000000
11
-7.4468859675
21
22.9859120939
31
0.0000000000
11
-7.4783791122
21
22.9734431840
31
0.0000000000
11
-7.5107395496
21
22.9659717985
31
0.0000000000
11
-7.5434273661
21
22.9634926934
31
0.0000000000
0
SPLINE
5
383
100
AcDbEntity
8
0
100
AcDbSpline
62
9
6
CONTINUOUS
70
0
71
3
72
18
73
14
74
12
42
0.0000001000
43
0.0000001000
44
0.0000000001
12
-0.0012300469
22
-0.3662148900
32
0.0000000000
13
-0.3662157937
23
-0.0009225687
33
0.0000000000
40
0.0000000000
40
0.0000000000
40
0.0000000000
40
0.0000000000
40
0.0842901845
40
0.1691825236
40
0.2551733573
40
0.3426537911
40
0.4318785657
40
0.5229513183
40
0.6158248362
40
0.7103132260
40
0.8061126036
40
0.9028273866
40
1.0000000000
40
1.0000000000
40
1.0000000000
40
1.0000000000
10
-7.2985221980
20
23.6851805298
30
0.0000000000
10
-7.2985567583
20
23.6748910896
30
0.0000000000
10
-7.3003368283
20
23.6542047971
30
0.0000000000
10
-7.3080662003
20
23.6238948980
30
0.0000000000
10
-7.3206899621
20
23.5948471684
30
0.0000000000
10
-7.3379372700
20
23.5676652019
30
0.0000000000
10
-7.3594448348
20
23.5428936907
30
0.0000000000
10
-7.3847669126
20
23.5210274709
30
0.0000000000
10
-7.4133854864
20
23.5024992984
30
0.0000000000
10
-7.4447196108
20
23.4876746429
30
0.0000000000
10
-7.4781391598
20
23.4768453225
30
0.0000000000
10
-7.5129652452
20
23.4702244549
30
0.0000000000
10
-7.5366559186
20
23.4687040617
30
0.0000000000
10
-7.5485179672
20
23.4686741789
30
0.0000000000
11
-7.2985221980
21
23.6851805298
31
0.0000000000
11
-7.3011606967
21
23.6544250052
31
0.0000000000
11
-7.3088160752
21
23.6242932617
31
0.0000000000
11
-7.3213330676
21
23.5953964286
31
0.0000000000
11
-7.3384578053
21
23.5683205892
31
0.0000000000
11
-7.3598429658
21
23.5436148935
31
0.0000000000
11
-7.3850548171
21
23.5217804203
31
0.0000000000
11
-7.4135820144
21
23.5032600146
31
0.0000000000
11
-7.4448459716
21
23.4884293058
31
0.0000000000
11
-7.4782125956
21
23.4775890889
31
0.0000000000
11
-7.5130051474
21
23.4709592245
31
0.0000000000
11
-7.5485179672
21
23.4686741789
31
0.0000000000
0
SPLINE
5
384
100
AcDbEntity
8
0
100
AcDbSpline
62
9
6
CONTINUOUS
70
0
71
3
72
18
73
14
74
12
42
0.0000001000
43
0.0000001000
44
0.0000000001
12
0.0012300469
22
-0.3662148900
32
0.0000000000
13
0.3662157937
23
-0.0009225687
33
0.0000000000
40
0.0000000000
40
0.0000000000
40
0.0000000000
40
0.0000000000
40
0.0842901845
40
0.1691825236
40
0.2551733573
40
0.3426537911
40
0.4318785657
40
0.5229513183
40
0.6158248362
40
0.7103132260
40
0.8061126036
40
0.9028273866
40
1.0000000000
40
1.0000000000
40
1.0000000000
40
1.0000000000
10
-10.1897785300
20
23.6851805298
30
0.0000000000
10
-10.1897439697
20
23.6748910896
30
0.0000000000
10
-10.1879638996
20
23.6542047971
30
0.0000000000
10
-10.1802345277
20
23.6238948980
30
0.0000000000
10
-10.1676107659
20
23.5948471684
30
0.0000000000
10
-10.1503634579
20
23.5676652019
30
0.0000000000
10
-10.1288558931
20
23.5428936907
30
0.0000000000
10
-10.1035338154
20
23.5210274709
30
0.0000000000
10
-10.0749152416
20
23.5024992984
30
0.0000000000
10
-10.0435811172
20
23.4876746429
30
0.0000000000
10
-10.0101615682
20
23.4768453225
30
0.0000000000
10
-9.9753354828
20
23.4702244549
30
0.0000000000
10
-9.9516448093
20
23.4687040617
30
0.0000000000
10
-9.9397827608
20
23.4686741789
30
0.0000000000
11
-10.1897785300
21
23.6851805298
31
0.0000000000
11
-10.1871400312
21
23.6544250052
31
0.0000000000
11
-10.1794846527
21
23.6242932617
31
0.0000000000
11
-10.1669676604
21
23.5953964286
31
0.0000000000
11
-10.1498429227
21
23.5683205892
31
0.0000000000
11
-10.1284577621
21
23.5436148935
31
0.0000000000
11
-10.1032459109
21
23.5217804203
31
0.0000000000
11
-10.0747187135
21
23.5032600146
31
0.0000000000
11
-10.0434547563
21
23.4884293058
31
0.0000000000
11
-10.0100881323
21
23.4775890889
31
0.0000000000
11
-9.9752955806
21
23.4709592245
31
0.0000000000
11
-9.9397827608
21
23.4686741789
31
0.0000000000
0
SPLINE
5
385
100
AcDbEntity
8
0
100
AcDbSpline
62
7
6
CONTINUOUS
70
0
71
3
72
18
73
14
74
12
42
0.0000001000
43
0.0000001000
44
0.0000000001
12
-0.4220894472
22
0.0000000000
32
0.0000000000
13
0.0000000000
23
0.4220894472
33
0.0000000000
40
0.0000000000
40
0.0000000000
40
0.0000000000
40
0.0000000000
40
0.0776652719
40
0.1563493938
40
0.2365970700
40
0.3195726025
40
0.4057184484
40
0.4958124164
40
0.5899418736
40
0.6880724625
40
0.7898330809
40
0.8940909649
40
1.0000000000
40
1.0000000000
40
1.0000000000
40
1.0000000000
10
-9.9448733618
20
22.9634926934
30
0.0000000000
10
-9.9558005924
20
22.9634926934
30
0.0000000000
10
-9.9778343327
20
22.9651667993
30
0.0000000000
10
-10.0103824564
20
22.9727038778
30
0.0000000000
10
-10.0421350388
20
22.9853104576
30
0.0000000000
10
-10.0725775753
20
23.0030071283
30
0.0000000000
10
-10.1011981136
20
23.0258177026
30
0.0000000000
10
-10.1273281781
20
23.0536405329
30
0.0000000000
10
-10.1502475093
20
23.0862480160
30
0.0000000000
10
-10.1691786460
20
23.1231770847
30
0.0000000000
10
-10.1833606215
20
23.1636938788
30
0.0000000000
10
-10.1921645340
20
23.2068182090
30
0.0000000000
10
-10.1941503640
20
23.2364270821
30
0.0000000000
10
-10.1941503640
20
23.2513281108
30
0.0000000000
11
-9.9448733618
21
22.9634926934
31
0.0000000000
11
-9.9775611783
21
22.9659717985
31
0.0000000000
11
-10.0099216157
21
22.9734431840
31
0.0000000000
11
-10.0414147604
21
22.9859120939
31
0.0000000000
11
-10.0717156241
21
23.0034755491
31
0.0000000000
11
-10.1001825184
21
23.0260980293
31
0.0000000000
11
-10.1262563986
21
23.0537794263
31
0.0000000000
11
-10.1491491765
21
23.0862521394
31
0.0000000000
11
-10.1680894052
21
23.1230879195
31
0.0000000000
11
-10.1823191203
21
23.1636144128
31
0.0000000000
11
-10.1911468792
21
23.2067260370
31
0.0000000000
11
-10.1941503640
21
23.2513281108
31
0.0000000000
0
SPLINE
5
386
100
AcDbEntity
8
0
100
AcDbSpline
62
9
6
CONTINUOUS
70
0
71
3
72
18
73
14
74
12
42
0.0000001000
43
0.0000001000
44
0.0000000001
12
-0.0012300469
22
0.3662148875
32
0.0000000000
13
-0.3662157912
23
0.0009225687
33
0.0000000000
40
0.0000000000
40
0.0000000000
40
0.0000000000
40
0.0000000000
40
0.0842917733
40
0.1691857338
40
0.2551786798
40
0.3426611748
40
0.4318880673
40
0.5229629903
40
0.6158387450
40
0.7103295894
40
0.8061307215
40
0.9028472123
40
1.0000000000
40
1.0000000000
40
1.0000000000
40
1.0000000000
10
10.1014778020
20
-24.0034946047
30
0.0000000000
10
10.1014432411
20
-23.9932049707
30
0.0000000000
10
10.0996631046
20
-23.9725182844
30
0.0000000000
10
10.0919334303
20
-23.9422077845
30
0.0000000000
10
10.0793091536
20
-23.9131594976
30
0.0000000000
10
10.0620611271
20
-23.8859770685
30
0.0000000000
10
10.0405527044
20
-23.8612052667
30
0.0000000000
10
10.0152296603
20
-23.8393389379
30
0.0000000000
10
9.9866100328
20
-23.8208108415
30
0.0000000000
10
9.9552748808
20
-23.8059865040
30
0.0000000000
10
9.9218543946
20
-23.7951577245
30
0.0000000000
10
9.8870301070
20
-23.7885380822
30
0.0000000000
10
9.8633416611
20
-23.7870181305
30
0.0000000000
10
9.8514820328
20
-23.7869882538
30
0.0000000000
11
10.1014778020
21
-24.0034946047
31
0.0000000000
11
10.0988392060
21
-23.9727385047
31
0.0000000000
11
10.0911835435
21
-23.9426062209
31
0.0000000000
11
10.0786660176
21
-23.9137087761
31
0.0000000000
11
10.0615405768
21
-23.8866324886
31
0.0000000000
11
10.0401545660
21
-23.8619265033
31
0.0000000000
11
10.0149417568
21
-23.8400919225
31
0.0000000000
11
9.9864135272
21
-23.8215716028
31
0.0000000000
11
9.9551484473
21
-23.8067411640
31
0.0000000000
11
9.9217809641
21
-23.7959015132
31
0.0000000000
11
9.8869876357
21
-23.7892723844
31
0.0000000000
11
9.8514820328
21
-23.7869882538
31
0.0000000000
0
SPLINE
5
387
100
AcDbEntity
8
0
100
AcDbSpline
62
7
6
CONTINUOUS
70
0
71
3
72
18
73
14
74
12
42
0.0000001000
43
0.0000001000
44
0.0000000001
12
0.4220894472
22
0.0000000000
32
0.0000000000
13
0.0000000000
23
-0.4220894472
33
0.0000000000
40
0.0000000000
40
0.0000000000
40
0.0000000000
40
0.0000000000
40
0.0776652719
40
0.1563493938
40
0.2365970700
40
0.3195726025
40
0.4057184484
40
0.4958124164
40
0.5899418736
40
0.6880724625
40
0.7898330809
40
0.8940909649
40
1.0000000000
40
1.0000000000
40
1.0000000000
40
1.0000000000
10
9.8565726339
20
-23.2818067683
30
0.0000000000
10
9.8674998645
20
-23.2818067683
30
0.0000000000
10
9.8895336048
20
-23.2834808742
30
0.0000000000
10
9.9220817284
20
-23.2910179528
30
0.0000000000
10
9.9538343109
20
-23.3036245325
30
0.0000000000
10
9.9842768474
20
-23.3213212032
30
0.0000000000
10
10.0128973856
20
-23.3441317775
30
0.0000000000
10
10.0390274502
20
-23.3719546078
30
0.0000000000
10
10.0619467813
20
-23.4045620909
30
0.0000000000
10
10.0808779181
20
-23.4414911597
30
0.0000000000
10
10.0950598936
20
-23.4820079537
30
0.0000000000
10
10.1038638061
20
-23.5251322839
30
0.0000000000
10
10.1058496360
20
-23.5547411570
30
0.0000000000
10
10.1058496360
20
-23.5696421857
30
0.0000000000
11
9.8565726339
21
-23.2818067683
31
0.0000000000
11
9.8892604504
21
-23.2842858734
31
0.0000000000
11
9.9216208878
21
-23.2917572589
31
0.0000000000
11
9.9531140325
21
-23.3042261688
31
0.0000000000
11
9.9834148961
21
-23.3217896240
31
0.0000000000
11
10.0118817905
21
-23.3444121042
31
0.0000000000
11
10.0379556706
21
-23.3720935012
31
0.0000000000
11
10.0608484486
21
-23.4045662143
31
0.0000000000
11
10.0797886773
21
-23.4414019944
31
0.0000000000
11
10.0940183924
21
-23.4819284877
31
0.0000000000
11
10.1028461512
21
-23.5250401119
31
0.0000000000
11
10.1058496360
21
-23.5696421857
31
0.0000000000
0
SPLINE
5
388
100
AcDbEntity
8
0
100
AcDbSpline
62
7
6
CONTINUOUS
70
0
71
3
72
18
73
14
74
12
42
0.0000001000
43
0.0000001000
44
0.0000000001
12
0.0000000000
22
0.4220894472
32
0.0000000000
13
0.4220894472
23
0.0000000000
33
0.0000000000
40
0.0000000000
40
0.0000000000
40
0.0000000000
40
0.0000000000
40
0.1059090351
40
0.2101669191
40
0.3119275375
40
0.4100581264
40
0.5041875836
40
0.5942815516
40
0.6804273975
40
0.7634029300
40
0.8436506062
40
0.9223347281
40
1.0000000000
40
1.0000000000
40
1.0000000000
40
1.0000000000
10
7.2058496360
20
-23.5696421857
30
0.0000000000
10
7.2058496360
20
-23.5547411570
30
0.0000000000
10
7.2078354660
20
-23.5251322839
30
0.0000000000
10
7.2166393785
20
-23.4820079537
30
0.0000000000
10
7.2308213540
20
-23.4414911597
30
0.0000000000
10
7.2497524907
20
-23.4045620909
30
0.0000000000
10
7.2726718219
20
-23.3719546078
30
0.0000000000
10
7.2988018864
20
-23.3441317775
30
0.0000000000
10
7.3274224247
20
-23.3213212032
30
0.0000000000
10
7.3578649612
20
-23.3036245325
30
0.0000000000
10
7.3896175436
20
-23.2910179528
30
0.0000000000
10
7.4221656673
20
-23.2834808742
30
0.0000000000
10
7.4441994076
20
-23.2818067683
30
0.0000000000
10
7.4551266382
20
-23.2818067683
30
0.0000000000
11
7.2058496360
21
-23.5696421857
31
0.0000000000
11
7.2088531208
21
-23.5250401119
31
0.0000000000
11
7.2176808797
21
-23.4819284877
31
0.0000000000
11
7.2319105948
21
-23.4414019944
31
0.0000000000
11
7.2508508235
21
-23.4045662143
31
0.0000000000
11
7.2737436014
21
-23.3720935012
31
0.0000000000
11
7.2998174816
21
-23.3444121042
31
0.0000000000
11
7.3282843759
21
-23.3217896240
31
0.0000000000
11
7.3585852396
21
-23.3042261688
31
0.0000000000
11
7.3900783843
21
-23.2917572589
31
0.0000000000
11
7.4224388217
21
-23.2842858734
31
0.0000000000
11
7.4551266382
21
-23.2818067683
31
0.0000000000
0
SPLINE
5
389
100
AcDbEntity
8
0
100
AcDbSpline
62
9
6
CONTINUOUS
70
0
71
3
72
18
73
14
74
12
42
0.0000001000
43
0.0000001000
44
0.0000000001
12
0.0012300470
22
0.3662149009
32
0.0000000000
13
0.3662158046
23
0.0009225687
33
0.0000000000
40
0.0000000000
40
0.0000000000
40
0.0000000000
40
0.0000000000
40
0.0842351835
40
0.1691282730
40
0.2551195891
40
0.3426056523
40
0.4318362164
40
0.5229156189
40
0.6157961265
40
0.7102918552
40
0.8060988660
40
0.9028204681
40
1.0000000000
40
1.0000000000
40
1.0000000000
40
1.0000000000
10
7.2102214700
20
-24.0034946047
30
0.0000000000
10
7.2102560078
20
-23.9932118783
30
0.0000000000
10
7.2120343715
20
-23.9725322798
30
0.0000000000
10
7.2197589449
20
-23.9422279246
30
0.0000000000
10
7.2323801573
20
-23.9131781670
30
0.0000000000
10
7.2496258447
20
-23.8859934113
30
0.0000000000
10
7.2711330360
20
-23.8612186143
30
0.0000000000
10
7.2964556167
20
-23.8393493006
30
0.0000000000
10
7.3250754975
20
-23.8208183825
30
0.0000000000
10
7.3564115575
20
-23.8059914880
30
0.0000000000
10
7.3898334094
20
-23.7951605648
30
0.0000000000
10
7.4246619895
20
-23.7885387440
30
0.0000000000
10
7.4483543458
20
-23.7870181387
30
0.0000000000
10
7.4602172392
20
-23.7869882538
30
0.0000000000
11
7.2102214700
21
-24.0034946047
31
0.0000000000
11
7.2128566010
21
-23.9727590067
31
0.0000000000
11
7.2205089029
21
-23.9426261971
31
0.0000000000
11
7.2330230970
21
-23.9137279585
31
0.0000000000
11
7.2501465269
21
-23.8866488518
31
0.0000000000
11
7.2715312348
21
-23.8619399588
31
0.0000000000
11
7.2967436077
21
-23.8401023666
31
0.0000000000
11
7.3252720815
21
-23.8215792243
31
0.0000000000
11
7.3565379525
21
-23.8067462768
31
0.0000000000
11
7.3899069827
21
-23.7959044160
31
0.0000000000
11
7.4247019000
21
-23.7892736189
31
0.0000000000
11
7.4602172392
21
-23.7869882538
31
0.0000000000
0
SPLINE
5
38A
100
AcDbEntity
8
0
100
AcDbSpline
62
7
6
CONTINUOUS
70
0
71
3
72
18
73
14
74
12
42
0.0000001000
43
0.0000001000
44
0.0000000001
12
0.0000000000
22
0.4220894472
32
0.0000000000
13
0.4220894472
23
-0.0000000000
33
0.0000000000
40
0.0000000000
40
0.0000000000
40
0.0000000000
40
0.0000000000
40
0.1059090351
40
0.2101669191
40
0.3119275375
40
0.4100581264
40
0.5041875836
40
0.5942815516
40
0.6804273975
40
0.7634029300
40
0.8436506062
40
0.9223347281
40
1.0000000000
40
1.0000000000
40
1.0000000000
40
1.0000000000
10
-10.1941503640
20
-23.5696421857
30
0.0000000000
10
-10.1941503640
20
-23.5547411570
30
0.0000000000
10
-10.1921645340
20
-23.5251322839
30
0.0000000000
10
-10.1833606215
20
-23.4820079537
30
0.0000000000
10
-10.1691786460
20
-23.4414911597
30
0.0000000000
10
-10.1502475093
20
-23.4045620909
30
0.0000000000
10
-10.1273281781
20
-23.3719546078
30
0.0000000000
10
-10.1011981136
20
-23.3441317775
30
0.0000000000
10
-10.0725775753
20
-23.3213212032
30
0.0000000000
10
-10.0421350388
20
-23.3036245325
30
0.0000000000
10
-10.0103824564
20
-23.2910179528
30
0.0000000000
10
-9.9778343327
20
-23.2834808742
30
0.0000000000
10
-9.9558005924
20
-23.2818067683
30
0.0000000000
10
-9.9448733618
20
-23.2818067683
30
0.0000000000
11
-10.1941503640
21
-23.5696421857
31
0.0000000000
11
-10.1911468792
21
-23.5250401119
31
0.0000000000
11
-10.1823191203
21
-23.4819284877
31
0.0000000000
11
-10.1680894052
21
-23.4414019944
31
0.0000000000
11
-10.1491491765
21
-23.4045662143
31
0.0000000000
11
-10.1262563986
21
-23.3720935012
31
0.0000000000
11
-10.1001825184
21
-23.3444121042
31
0.0000000000
11
-10.0717156241
21
-23.3217896240
31
0.0000000000
11
-10.0414147604
21
-23.3042261688
31
0.0000000000
11
-10.0099216157
21
-23.2917572589
31
0.0000000000
11
-9.9775611783
21
-23.2842858734
31
0.0000000000
11
-9.9448733618
21
-23.2818067683
31
0.0000000000
0
SPLINE
5
38B
100
AcDbEntity
8
0
100
AcDbSpline
62
9
6
CONTINUOUS
70
0
71
3
72
18
73
14
74
12
42
0.0000001000
43
0.0000001000
44
0.0000000001
12
0.0012300469
22
0.3662148875
32
0.0000000000
13
0.3662157912
23
0.0009225687
33
0.0000000000
40
0.0000000000
40
0.0000000000
40
0.0000000000
40
0.0000000000
40
0.0842917733
40
0.1691857338
40
0.2551786798
40
0.3426611748
40
0.4318880673
40
0.5229629903
40
0.6158387450
40
0.7103295894
40
0.8061307215
40
0.9028472123
40
1.0000000000
40
1.0000000000
40
1.0000000000
40
1.0000000000
10
-10.1897785300
20
-24.0034946047
30
0.0000000000
10
-10.1897439690
20
-23.9932049707
30
0.0000000000
10
-10.1879638326
20
-23.9725182844
30
0.0000000000
10
-10.1802341582
20
-23.9422077845
30
0.0000000000
10
-10.1676098815
20
-23.9131594976
30
0.0000000000
10
-10.1503618550
20
-23.8859770685
30
0.0000000000
10
-10.1288534323
20
-23.8612052667
30
0.0000000000
10
-10.1035303883
20
-23.8393389379
30
0.0000000000
10
-10.0749107607
20
-23.8208108415
30
0.0000000000
10
-10.0435756087
20
-23.8059865040
30
0.0000000000
10
-10.0101551226
20
-23.7951577245
30
0.0000000000
10
-9.9753308350
20
-23.7885380822
30
0.0000000000
10
-9.9516423891
20
-23.7870181305
30
0.0000000000
10
-9.9397827608
20
-23.7869882538
30
0.0000000000
11
-10.1897785300
21
-24.0034946047
31
0.0000000000
11
-10.1871399339
21
-23.9727385047
31
0.0000000000
11
-10.1794842715
21
-23.9426062209
31
0.0000000000
11
-10.1669667456
21
-23.9137087761
31
0.0000000000
11
-10.1498413047
21
-23.8866324886
31
0.0000000000
11
-10.1284552940
21
-23.8619265033
31
0.0000000000
11
-10.1032424847
21
-23.8400919225
31
0.0000000000
11
-10.0747142552
21
-23.8215716028
31
0.0000000000
11
-10.0434491752
21
-23.8067411640
31
0.0000000000
11
-10.0100816920
21
-23.7959015132
31
0.0000000000
11
-9.9752883637
21
-23.7892723844
31
0.0000000000
11
-9.9397827608
21
-23.7869882538
31
0.0000000000
0
SPLINE
5
38C
100
AcDbEntity
8
0
100
AcDbSpline
62
9
6
CONTINUOUS
70
0
71
3
72
18
73
14
74
12
42
0.0000001000
43
0.0000001000
44
0.0000000001
12
-0.0012300470
22
0.3662149009
32
0.0000000000
13
-0.3662158046
23
0.0009225687
33
0.0000000000
40
0.0000000000
40
0.0000000000
40
0.0000000000
40
0.0000000000
40
0.0842351835
40
0.1691282730
40
0.2551195891
40
0.3426056523
40
0.4318362164
40
0.5229156189
40
0.6157961265
40
0.7102918552
40
0.8060988660
40
0.9028204681
40
1.0000000000
40
1.0000000000
40
1.0000000000
40
1.0000000000
10
-7.2985221980
20
-24.0034946047
30
0.0000000000
10
-7.2985567357
20
-23.9932118783
30
0.0000000000
10
-7.3003350995
20
-23.9725322798
30
0.0000000000
10
-7.3080596729
20
-23.9422279246
30
0.0000000000
10
-7.3206808852
20
-23.9131781670
30
0.0000000000
10
-7.3379265726
20
-23.8859934113
30
0.0000000000
10
-7.3594337640
20
-23.8612186143
30
0.0000000000
10
-7.3847563447
20
-23.8393493006
30
0.0000000000
10
-7.4133762255
20
-23.8208183825
30
0.0000000000
10
-7.4447122854
20
-23.8059914880
30
0.0000000000
10
-7.4781341374
20
-23.7951605648
30
0.0000000000
10
-7.5129627174
20
-23.7885387440
30
0.0000000000
10
-7.5366550737
20
-23.7870181387
30
0.0000000000
10
-7.5485179672
20
-23.7869882538
30
0.0000000000
11
-7.2985221980
21
-24.0034946047
31
0.0000000000
11
-7.3011573290
21
-23.9727590067
31
0.0000000000
11
-7.3088096309
21
-23.9426261971
31
0.0000000000
11
-7.3213238249
21
-23.9137279585
31
0.0000000000
11
-7.3384472549
21
-23.8866488518
31
0.0000000000
11
-7.3598319627
21
-23.8619399588
31
0.0000000000
11
-7.3850443357
21
-23.8401023666
31
0.0000000000
11
-7.4135728094
21
-23.8215792243
31
0.0000000000
11
-7.4448386805
21
-23.8067462768
31
0.0000000000
11
-7.4782077106
21
-23.7959044160
31
0.0000000000
11
-7.5130026280
21
-23.7892736189
31
0.0000000000
11
-7.5485179672
21
-23.7869882538
31
0.0000000000
0
SPLINE
5
38D
100
AcDbEntity
8
0
100
AcDbSpline
62
7
6
CONTINUOUS
70
0
71
3
72
18
73
14
74
12
42
0.0000001000
43
0.0000001000
44
0.0000000001
12
0.4220894472
22
0.0000000000
32
0.0000000000
13
-0.0000000000
23
-0.4220894472
33
0.0000000000
40
0.0000000000
40
0.0000000000
40
0.0000000000
40
0.0000000000
40
0.0776652719
40
0.1563493938
40
0.2365970700
40
0.3195726025
40
0.4057184484
40
0.4958124164
40
0.5899418736
40
0.6880724625
40
0.7898330809
40
0.8940909649
40
1.0000000000
40
1.0000000000
40
1.0000000000
40
1.0000000000
10
-7.5434273661
20
-23.2818067683
30
0.0000000000
10
-7.5325001355
20
-23.2818067683
30
0.0000000000
10
-7.5104663952
20
-23.2834808742
30
0.0000000000
10
-7.4779182716
20
-23.2910179528
30
0.0000000000
10
-7.4461656891
20
-23.3036245325
30
0.0000000000
10
-7.4157231526
20
-23.3213212032
30
0.0000000000
10
-7.3871026144
20
-23.3441317775
30
0.0000000000
10
-7.3609725498
20
-23.3719546078
30
0.0000000000
10
-7.3380532187
20
-23.4045620909
30
0.0000000000
10
-7.3191220819
20
-23.4414911597
30
0.0000000000
10
-7.3049401064
20
-23.4820079537
30
0.0000000000
10
-7.2961361939
20
-23.5251322839
30
0.0000000000
10
-7.2941503640
20
-23.5547411570
30
0.0000000000
10
-7.2941503640
20
-23.5696421857
30
0.0000000000
11
-7.5434273661
21
-23.2818067683
31
0.0000000000
11
-7.5107395496
21
-23.2842858734
31
0.0000000000
11
-7.4783791122
21
-23.2917572589
31
0.0000000000
11
-7.4468859675
21
-23.3042261688
31
0.0000000000
11
-7.4165851039
21
-23.3217896240
31
0.0000000000
11
-7.3881182095
21
-23.3444121042
31
0.0000000000
11
-7.3620443294
21
-23.3720935012
31
0.0000000000
11
-7.3391515514
21
-23.4045662143
31
0.0000000000
11
-7.3202113227
21
-23.4414019944
31
0.0000000000
11
-7.3059816076
21
-23.4819284877
31
0.0000000000
11
-7.2971538488
21
-23.5250401119
31
0.0000000000
11
-7.2941503640
21
-23.5696421857
31
0.0000000000
0
SPLINE
5
38E
100
AcDbEntity
8
0
100
AcDbSpline
62
7
6
CONTINUOUS
70
0
71
3
72
9
73
5
74
3
42
0.0000001000
43
0.0000001000
44
0.0000000001
12
-0.1476155725
22
-0.0335419752
32
0.0000000000
13
-0.1510312364
23
0.0000000000
33
0.0000000000
40
0.0000000000
40
0.0000000000
40
0.0000000000
40
0.0000000000
40
0.0547674361
40
1.0000000000
40
1.0000000000
40
1.0000000000
40
1.0000000000
10
-10.8440917252
20
-4.5400410528
30
0.0000000000
10
-10.8467865674
20
-4.5406533888
30
0.0000000000
10
-10.8960622111
20
-4.5515330642
30
0.0000000000
10
-10.9465638164
20
-4.5568918095
30
0.0000000000
10
-10.9941503640
20
-4.5568918095
30
0.0000000000
11
-10.8440917252
21
-4.5400410528
31
0.0000000000
11
-10.8521876459
21
-4.5418285328
31
0.0000000000
11
-10.9941503640
21
-4.5568918095
31
0.0000000000
0
SPLINE
5
38F
100
AcDbEntity
8
0
100
AcDbSpline
62
7
6
CONTINUOUS
70
0
71
3
72
9
73
5
74
3
42
0.0000001000
43
0.0000001000
44
0.0000000001
12
0.1476155725
22
0.0335419752
32
0.0000000000
13
0.1510312364
23
0.0000000000
33
0.0000000000
40
0.0000000000
40
0.0000000000
40
0.0000000000
40
0.0000000000
40
0.0547674361
40
1.0000000000
40
1.0000000000
40
1.0000000000
40
1.0000000000
10
10.7557909973
20
4.2217269779
30
0.0000000000
10
10.7584858394
20
4.2223393139
30
0.0000000000
10
10.8077614831
20
4.2332189893
30
0.0000000000
10
10.8582630884
20
4.2385777346
30
0.0000000000
10
10.9058496360
20
4.2385777346
30
0.0000000000
11
10.7557909973
21
4.2217269779
31
0.0000000000
11
10.7638869180
21
4.2235144579
31
0.0000000000
11
10.9058496360
21
4.2385777346
31
0.0000000000
0
SPLINE
5
390
100
AcDbEntity
8
0
100
AcDbSpline
62
7
6
CONTINUOUS
70
0
71
3
72
9
73
5
74
3
42
0.0000001000
43
0.0000001000
44
0.0000000001
12
-0.0001229116
22
-0.0021058575
32
0.0000000000
13
-0.0026060595
23
-0.0009722932
33
0.0000000000
40
0.0000000000
40
0.0000000000
40
0.0000000000
40
0.0000000000
40
0.8427341930
40
1.0000000000
40
1.0000000000
40
1.0000000000
40
1.0000000000
10
-4.4502281169
20
-24.1130493105
30
0.0000000000
10
-4.4502626442
20
-24.1136408699
30
0.0000000000
10
-4.4498851669
20
-24.1145450291
30
0.0000000000
10
-4.4505455939
20
-24.1149662851
30
0.0000000000
10
-4.4506822086
20
-24.1150172545
30
0.0000000000
11
-4.4502281169
21
-24.1130493105
31
0.0000000000
11
-4.4503635387
21
-24.1148218433
31
0.0000000000
11
-4.4506822086
21
-24.1150172545
31
0.0000000000
0
SPLINE
5
391
100
AcDbEntity
8
0
100
AcDbSpline
62
7
6
CONTINUOUS
70
0
71
3
72
11
73
7
74
5
42
0.0000001000
43
0.0000001000
44
0.0000000001
12
0.0000000000
22
0.0649382085
32
0.0000000000
13
0.0420122218
23
0.0494420004
33
0.0000000000
40
0.0000000000
40
0.0000000000
40
0.0000000000
40
0.0000000000
40
0.1050234638
40
0.3021860866
40
0.5981132932
40
1.0000000000
40
1.0000000000
40
1.0000000000
40
1.0000000000
10
3.4558496360
20
-24.1133049815
30
0.0000000000
10
3.4558496360
20
-24.1110316363
30
0.0000000000
10
3.4591044924
20
-24.1049360799
30
0.0000000000
10
3.4660902134
20
-24.0943169762
30
0.0000000000
10
3.4781145788
20
-24.0789559857
30
0.0000000000
10
3.4877608558
20
-24.0673713107
30
0.0000000000
10
3.4933889070
20
-24.0607479498
30
0.0000000000
11
3.4558496360
21
-24.1133049815
31
0.0000000000
11
3.4581452214
21
-24.1068828967
31
0.0000000000
11
3.4650751031
21
-24.0961170493
31
0.0000000000
11
3.4767396845
21
-24.0808451810
31
0.0000000000
11
3.4933889070
21
-24.0607479498
31
0.0000000000
0
SPLINE
5
392
100
AcDbEntity
8
0
100
AcDbSpline
62
7
6
CONTINUOUS
70
0
71
3
72
16
73
12
74
10
42
0.0000001000
43
0.0000001000
44
0.0000000001
12
0.3940237865
22
0.4637061161
32
0.0000000000
13
0.4199141259
23
0.4411394664
33
0.0000000000
40
0.0000000000
40
0.0000000000
40
0.0000000000
40
0.0000000000
40
0.0555057941
40
0.1248040123
40
0.2087952621
40
0.3080339199
40
0.4231630014
40
0.5535741923
40
0.6963838821
40
0.8468540534
40
1.0000000000
40
1.0000000000
40
1.0000000000
40
1.0000000000
10
3.4933889070
20
-24.0607479498
30
0.0000000000
10
3.5006791080
20
-24.0521684911
30
0.0000000000
10
3.5173447101
20
-24.0330607242
30
0.0000000000
10
3.5456363160
20
-24.0015053824
30
0.0000000000
10
3.5802359467
20
-23.9636702037
30
0.0000000000
10
3.6214170507
20
-23.9192530422
30
0.0000000000
10
3.6692602816
20
-23.8681610623
30
0.0000000000
10
3.7233523135
20
-23.8108036793
30
0.0000000000
10
3.7825186636
20
-23.7483699547
30
0.0000000000
10
3.8449586730
20
-23.6826800582
30
0.0000000000
10
3.8874562972
20
-23.6380344259
30
0.0000000000
10
3.9088923460
20
-23.6155148522
30
0.0000000000
11
3.4933889070
21
-24.0607479498
31
0.0000000000
11
3.5155514598
21
-24.0352210461
31
0.0000000000
11
3.5436928423
21
-24.0037668294
31
0.0000000000
11
3.5781858313
21
-23.9659913882
31
0.0000000000
11
3.6192577475
21
-23.9216500926
31
0.0000000000
11
3.6671678321
21
-23.8704522715
31
0.0000000000
11
3.7216476633
21
-23.8126559391
31
0.0000000000
11
3.7814643154
21
-23.7495134123
31
0.0000000000
11
3.8445922578
21
-23.6830812429
31
0.0000000000
11
3.9088923460
21
-23.6155148522
31
0.0000000000
0
SPLINE
5
393
100
AcDbEntity
8
0
100
AcDbSpline
62
7
6
CONTINUOUS
70
0
71
3
72
17
73
13
74
11
42
0.0000001000
43
0.0000001000
44
0.0000000001
12
0.0000000000
22
-0.3138390385
32
0.0000000000
13
0.3138390385
23
-0.0000000000
33
0.0000000000
40
0.0000000000
40
0.0000000000
40
0.0000000000
40
0.0000000000
40
0.1000013680
40
0.2000016332
40
0.3000034370
40
0.4000022503
40
0.5000058131
40
0.6000087280
40
0.7000059548
40
0.8000051471
40
0.9000022532
40
1.0000000000
40
1.0000000000
40
1.0000000000
40
1.0000000000
10
0.9558496360
20
-23.9533358230
30
0.0000000000
10
0.9558496360
20
-23.9637972673
30
0.0000000000
10
0.9574979627
20
-23.9847572011
30
0.0000000000
10
0.9648545569
20
-24.0153937769
30
0.0000000000
10
0.9769140330
20
-24.0445100456
30
0.0000000000
10
0.9933796967
20
-24.0713795213
30
0.0000000000
10
1.0138460841
20
-24.0953430517
30
0.0000000000
10
1.0378093315
20
-24.1158095143
30
0.0000000000
10
1.0646782611
20
-24.1322750989
30
0.0000000000
10
1.0937937520
20
-24.1443344398
30
0.0000000000
10
1.1244293464
20
-24.1516909119
30
0.0000000000
10
1.1453885705
20
-24.1533392076
30
0.0000000000
10
1.1558496360
20
-24.1533392076
30
0.0000000000
11
0.9558496360
21
-23.9533358230
31
0.0000000000
11
0.9583119941
21
-23.9846234109
31
0.0000000000
11
0.9656383370
21
-24.0151402808
31
0.0000000000
11
0.9776485097
21
-24.0441358099
31
0.0000000000
11
0.9940461776
21
-24.0708947809
31
0.0000000000
11
1.0144289718
21
-24.0947602645
31
0.0000000000
11
1.0382941534
21
-24.1151430992
31
0.0000000000
11
1.0650525926
21
-24.1315406819
31
0.0000000000
11
1.0940473023
21
-24.1435506913
31
0.0000000000
11
1.1245631837
21
-24.1508769039
31
0.0000000000
11
1.1558496360
21
-24.1533392076
31
0.0000000000
0
SPLINE
5
394
100
AcDbEntity
8
0
100
AcDbSpline
62
7
6
CONTINUOUS
70
0
71
3
72
20
73
16
74
14
42
0.0000001000
43
0.0000001000
44
0.0000000001
12
0.4645166834
22
-0.4879965431
32
0.0000000000
13
0.0392566728
23
-0.6725884989
33
0.0000000000
40
0.0000000000
40
0.0000000000
40
0.0000000000
40
0.0000000000
40
0.1376924970
40
0.2732041083
40
0.4019552266
40
0.5195374983
40
0.6233985078
40
0.7130440951
40
0.7890379647
40
0.8518561666
40
0.9022776034
40
0.9412923958
40
0.9701171226
40
0.9894788456
40
1.0000000000
40
1.0000000000
40
1.0000000000
40
1.0000000000
10
3.9088923460
20
-23.6155148522
30
0.0000000000
10
3.9302125000
20
-23.6379126730
30
0.0000000000
10
3.9725151786
20
-23.6823535093
30
0.0000000000
10
4.0347073176
20
-23.7477816859
30
0.0000000000
10
4.0936952032
20
-23.8100245226
30
0.0000000000
10
4.1476561672
20
-23.8672380634
30
0.0000000000
10
4.1954135952
20
-23.9182304136
30
0.0000000000
10
4.2365687705
20
-23.9626074779
30
0.0000000000
10
4.2712032351
20
-24.0004638705
30
0.0000000000
10
4.2995807015
20
-24.0320911831
30
0.0000000000
10
4.3220832644
20
-24.0578613228
30
0.0000000000
10
4.3390746475
20
-24.0782196337
30
0.0000000000
10
4.3512378973
20
-24.0937073212
30
0.0000000000
10
4.3584422352
20
-24.1045225265
30
0.0000000000
10
4.3617897138
20
-24.1106905080
30
0.0000000000
10
4.3619273890
20
-24.1130493105
30
0.0000000000
11
3.9088923460
21
-23.6155148522
31
0.0000000000
11
3.9728448806
21
-23.6827158598
31
0.0000000000
11
4.0357364554
21
-23.7488981559
31
0.0000000000
11
4.0953941584
21
-23.8118700731
31
0.0000000000
11
4.1497347698
21
-23.8695134590
31
0.0000000000
11
4.1975508681
21
-23.9206022669
31
0.0000000000
11
4.2385997618
21
-23.9649058864
31
0.0000000000
11
4.2731324034
21
-24.0027066099
31
0.0000000000
11
4.3013643016
21
-24.0342370929
31
0.0000000000
11
4.3236520384
21
-24.0598741374
31
0.0000000000
11
4.3404446629
21
-24.0800963628
31
0.0000000000
11
4.3522686956
21
-24.0955020573
31
0.0000000000
11
4.3593929356
21
-24.1064294405
31
0.0000000000
11
4.3619273890
21
-24.1130493105
31
0.0000000000
0
SPLINE
5
395
100
AcDbEntity
8
0
100
AcDbSpline
62
7
6
CONTINUOUS
70
0
71
3
72
20
73
16
74
14
42
0.0000001000
43
0.0000001000
44
0.0000000001
12
0.4646868985
22
-0.4881753620
32
0.0000000000
13
0.0000000000
23
-0.6739800425
33
0.0000000000
40
0.0000000000
40
0.0000000000
40
0.0000000000
40
0.0000000000
40
0.1383453987
40
0.2743387740
40
0.4034314658
40
0.5212850016
40
0.6253097961
40
0.7149830465
40
0.7908869774
40
0.8535154546
40
0.9036785302
40
0.9423973740
40
0.9709008363
40
0.9898871653
40
1.0000000000
40
1.0000000000
40
1.0000000000
40
1.0000000000
10
-3.9971930739
20
-23.6155148522
30
0.0000000000
10
-3.9757639758
20
-23.6380271238
30
0.0000000000
10
-3.9332700394
20
-23.6826688824
30
0.0000000000
10
-3.8708270742
20
-23.7483618483
30
0.0000000000
10
-3.8116496892
20
-23.8108072017
30
0.0000000000
10
-3.7575517169
20
-23.8681709448
30
0.0000000000
10
-3.7097097223
20
-23.9192616942
30
0.0000000000
10
-3.6685301839
20
-23.9636772433
30
0.0000000000
10
-3.6339292850
20
-24.0015139162
30
0.0000000000
10
-3.6056351226
20
-24.0330723194
30
0.0000000000
10
-3.5832463428
20
-24.0587423845
30
0.0000000000
10
-3.5664051598
20
-24.0789684552
30
0.0000000000
10
-3.5543846026
20
-24.0943258281
30
0.0000000000
10
-3.5474023773
20
-24.1049406303
30
0.0000000000
10
-3.5441503640
20
-24.1110330320
30
0.0000000000
10
-3.5441503640
20
-24.1133049815
30
0.0000000000
11
-3.9971930739
21
-23.6155148522
31
0.0000000000
11
-3.9329138300
21
-23.6830593293
31
0.0000000000
11
-3.8697760888
21
-23.7495017740
31
0.0000000000
11
-3.8099396098
21
-23.8126652290
31
0.0000000000
11
-3.7554563381
21
-23.8704652802
31
0.0000000000
11
-3.7075516169
21
-23.9216574562
31
0.0000000000
11
-3.6664814439
21
-23.9659969470
31
0.0000000000
11
-3.6319861183
21
-24.0037750666
31
0.0000000000
11
-3.6038416391
21
-24.0352329973
31
0.0000000000
11
-3.5816769993
21
-24.0607628085
31
0.0000000000
11
-3.5650295204
21
-24.0808587899
31
0.0000000000
11
-3.5533693136
21
-24.0961261753
31
0.0000000000
11
-3.5464439471
21
-24.1068866273
31
0.0000000000
11
-3.5441503640
21
-24.1133049815
31
0.0000000000
0
SPLINE
5
396
100
AcDbEntity
8
0
100
AcDbSpline
62
7
6
CONTINUOUS
70
0
71
3
72
20
73
16
74
14
42
0.0000001000
43
0.0000001000
44
0.0000000001
12
0.0392566707
22
0.6725884623
32
0.0000000000
13
0.4645166581
23
0.4879965165
33
0.0000000000
40
0.0000000000
40
0.0000000000
40
0.0000000000
40
0.0000000000
40
0.0105272862
40
0.0298989129
40
0.0587327465
40
0.0977498622
40
0.1481655874
40
0.2109758150
40
0.2869640673
40
0.3766131765
40
0.4804862274
40
0.5980619866
40
0.7267707712
40
0.8622612818
40
1.0000000000
40
1.0000000000
40
1.0000000000
40
1.0000000000
10
-4.4502281169
20
-24.1130493105
30
0.0000000000
10
-4.4500903615
20
-24.1106891334
30
0.0000000000
10
-4.4467402097
20
-24.1045181431
30
0.0000000000
10
-4.4395324172
20
-24.0936987221
30
0.0000000000
10
-4.4273655941
20
-24.0782076451
30
0.0000000000
10
-4.4103730860
20
-24.0578486357
30
0.0000000000
10
-4.3878719967
20
-24.0320805942
30
0.0000000000
10
-4.3594973384
20
-24.0004565925
30
0.0000000000
10
-4.3248643603
20
-23.9626019078
30
0.0000000000
10
-4.2837076398
20
-23.9182232352
30
0.0000000000
10
-4.2359487865
20
-23.8672294401
30
0.0000000000
10
-4.1819934694
20
-23.8100219411
30
0.0000000000
10
-4.1230164016
20
-23.7477905010
30
0.0000000000
10
-4.0608269497
20
-23.6823651104
30
0.0000000000
10
-4.0185203836
20
-23.6379201904
30
0.0000000000
10
-3.9971930739
20
-23.6155148522
30
0.0000000000
11
-4.4502281169
21
-24.1130493105
31
0.0000000000
11
-4.4476916526
21
-24.1064257872
31
0.0000000000
11
-4.4405630908
21
-24.0954932572
31
0.0000000000
11
-4.4287347618
21
-24.0800831272
31
0.0000000000
11
-4.4119407445
21
-24.0598600257
31
0.0000000000
11
-4.3896553043
21
-24.0342260859
31
0.0000000000
11
-4.3614268815
21
-24.0026997057
31
0.0000000000
11
-4.3268967475
21
-23.9649018213
31
0.0000000000
11
-4.2858462144
21
-23.9205964904
31
0.0000000000
11
-4.2380245387
21
-23.8695017960
31
0.0000000000
11
-4.1836869095
21
-23.8118616348
31
0.0000000000
11
-4.1240488273
21
-23.7489104246
31
0.0000000000
11
-4.0611670676
21
-23.6827384195
31
0.0000000000
11
-3.9971930739
21
-23.6155148522
31
0.0000000000
0
SPLINE
5
397
100
AcDbEntity
8
0
100
AcDbSpline
62
7
6
CONTINUOUS
70
0
71
3
72
9
73
5
74
3
42
0.0000001000
43
0.0000001000
44
0.0000000001
12
0.1510367909
22
0.0000000000
32
0.0000000000
13
0.1476195239
23
-0.0335449161
33
0.0000000000
40
0.0000000000
40
0.0000000000
40
0.0000000000
40
0.0000000000
40
0.9418717489
40
1.0000000000
40
1.0000000000
40
1.0000000000
40
1.0000000000
10
-10.9941503640
20
4.2385777346
30
0.0000000000
10
-10.9467312685
20
4.2385777346
30
0.0000000000
10
-10.8962294278
20
4.2332382413
30
0.0000000000
10
-10.8469482274
20
4.2223760669
30
0.0000000000
10
-10.8440879392
20
4.2217260978
30
0.0000000000
11
-10.9941503640
21
4.2385777346
31
0.0000000000
11
-10.8526816118
21
4.2236202048
31
0.0000000000
11
-10.8440879392
21
4.2217260978
31
0.0000000000
0
SPLINE
5
398
100
AcDbEntity
8
0
100
AcDbSpline
62
7
6
CONTINUOUS
70
0
71
3
72
9
73
5
74
3
42
0.0000001000
43
0.0000001000
44
0.0000000001
12
-0.1510367909
22
0.0000000000
32
0.0000000000
13
-0.1476195239
23
0.0335449161
33
0.0000000000
40
0.0000000000
40
0.0000000000
40
0.0000000000
40
0.0000000000
40
0.9418717489
40
1.0000000000
40
1.0000000000
40
1.0000000000
40
1.0000000000
10
10.9058496360
20
-4.5568918095
30
0.0000000000
10
10.8584305406
20
-4.5568918095
30
0.0000000000
10
10.8079286999
20
-4.5515523162
30
0.0000000000
10
10.7586474995
20
-4.5406901418
30
0.0000000000
10
10.7557872112
20
-4.5400401727
30
0.0000000000
11
10.9058496360
21
-4.5568918095
31
0.0000000000
11
10.7643808839
21
-4.5419342797
31
0.0000000000
11
10.7557872112
21
-4.5400401727
31
0.0000000000
0
SPLINE
5
399
100
AcDbEntity
8
0
100
AcDbSpline
62
7
6
CONTINUOUS
70
0
71
3
72
9
73
5
74
3
42
0.0000001000
43
0.0000001000
44
0.0000000001
12
0.0001229116
22
-0.0021058575
32
0.0000000000
13
0.0026060595
23
-0.0009722932
33
0.0000000000
40
0.0000000000
40
0.0000000000
40
0.0000000000
40
0.0000000000
40
0.8427341930
40
1.0000000000
40
1.0000000000
40
1.0000000000
40
1.0000000000
10
4.3619273890
20
-24.1130493105
30
0.0000000000
10
4.3619619163
20
-24.1136408699
30
0.0000000000
10
4.3615844390
20
-24.1145450291
30
0.0000000000
10
4.3622448660
20
-24.1149662851
30
0.0000000000
10
4.3623814806
20
-24.1150172545
30
0.0000000000
11
4.3619273890
21
-24.1130493105
31
0.0000000000
11
4.3620628108
21
-24.1148218433
31
0.0000000000
11
4.3623814806
21
-24.1150172545
31
0.0000000000
0
SPLINE
5
39A
100
AcDbEntity
8
0
100
AcDbSpline
62
7
6
CONTINUOUS
70
0
71
3
72
12
73
8
74
6
42
0.0000001000
43
0.0000001000
44
0.0000000001
12
0.0000000000
22
0.7821559123
32
0.0000000000
13
-0.7821559123
23
-0.0000000000
33
0.0000000000
40
0.0000000000
40
0.0000000000
40
0.0000000000
40
0.0000000000
40
0.1999987770
40
0.3999952256
40
0.5999906045
40
0.7999923092
40
1.0000000000
40
1.0000000000
40
1.0000000000
40
1.0000000000
10
11.0975591116
20
21.7350420558
30
0.0000000000
10
11.0975591116
20
21.7871854644
30
0.0000000000
10
11.0809729101
20
21.8922067483
30
0.0000000000
10
11.0087869496
20
22.0337725622
30
0.0000000000
10
10.8963059277
20
22.1462523290
30
0.0000000000
10
10.7547361836
20
22.2184387013
30
0.0000000000
10
10.6497111903
20
22.2350251327
30
0.0000000000
10
10.5975654577
20
22.2350251327
30
0.0000000000
11
11.0975591116
21
21.7350420558
31
0.0000000000
11
11.0730882339
21
21.8895463978
31
0.0000000000
11
11.0020710649
21
22.0289250458
31
0.0000000000
11
10.8914595717
21
22.1395355409
31
0.0000000000
11
10.7520767511
21
22.2105535761
31
0.0000000000
11
10.5975654577
21
22.2350251327
31
0.0000000000
0
SPLINE
5
39B
100
AcDbEntity
8
0
100
AcDbSpline
62
7
6
CONTINUOUS
70
0
71
3
72
21
73
17
74
15
42
0.0000001000
43
0.0000001000
44
0.0000000001
12
0.7849697828
22
0.0000000000
32
0.0000000000
13
-0.0000000000
23
0.7849697828
33
0.0000000000
40
0.0000000000
40
0.0000000000
40
0.0000000000
40
0.0000000000
40
0.0711969240
40
0.1427862917
40
0.2142489300
40
0.2854218337
40
0.3570116603
40
0.4287014144
40
0.5000204190
40
0.5713348947
40
0.6430183255
40
0.7146111610
40
0.7857866252
40
0.8572328046
40
0.9288091146
40
1.0000000000
40
1.0000000000
40
1.0000000000
40
1.0000000000
10
10.5975654577
20
-22.5533392076
30
0.0000000000
10
10.6161946024
20
-22.5533392076
30
0.0000000000
10
10.6535891400
20
-22.5512469900
30
0.0000000000
10
10.7089700543
20
-22.5418506529
30
0.0000000000
10
10.7629490684
20
-22.5263058769
30
0.0000000000
10
10.8148491260
20
-22.5048249231
30
0.0000000000
10
10.8640738886
20
-22.4776421730
30
0.0000000000
10
10.9099661538
20
-22.4450812407
30
0.0000000000
10
10.9518648015
20
-22.4076306955
30
0.0000000000
10
10.9893130212
20
-22.3657322124
30
0.0000000000
10
11.0218717458
20
-22.3198409251
30
0.0000000000
10
11.0490533049
20
-22.2706157083
30
0.0000000000
10
11.0705315500
20
-22.2187175938
30
0.0000000000
10
11.0860729544
20
-22.1647450140
30
0.0000000000
10
11.0954672180
20
-22.1093732317
30
0.0000000000
10
11.0975591116
20
-22.0719836953
30
0.0000000000
10
11.0975591116
20
-22.0533561307
30
0.0000000000
11
10.5975654577
21
-22.5533392076
31
0.0000000000
11
10.6533655533
21
-22.5502159692
31
0.0000000000
11
10.7087694008
21
-22.5408166704
31
0.0000000000
11
10.7626745945
21
-22.5252927336
31
0.0000000000
11
10.8142963703
21
-22.5039270987
31
0.0000000000
11
10.8634898909
21
-22.4767614742
31
0.0000000000
11
10.9093856616
21
-22.4441980894
31
0.0000000000
11
10.9511253766
21
-22.4068896186
31
0.0000000000
11
10.9884302612
21
-22.3651514665
31
0.0000000000
11
11.0209897548
21
-22.3192590210
31
0.0000000000
11
11.0481554048
21
-22.2700628163
31
0.0000000000
11
11.0695201825
21
-22.2184385106
31
0.0000000000
11
11.0850391368
21
-22.1645453267
31
0.0000000000
11
11.0944362057
21
-22.1091514972
31
0.0000000000
11
11.0975591116
21
-22.0533561307
31
0.0000000000
0
SPLINE
5
39C
100
AcDbEntity
8
0
100
AcDbSpline
62
7
6
CONTINUOUS
70
0
71
3
72
12
73
8
74
6
42
0.0000001000
43
0.0000001000
44
0.0000000001
12
-0.7821559123
22
0.0000000000
32
0.0000000000
13
0.0000000000
23
-0.7821559123
33
0.0000000000
40
0.0000000000
40
0.0000000000
40
0.0000000000
40
0.0000000000
40
0.2000076908
40
0.4000093955
40
0.6000047744
40
0.8000012230
40
1.0000000000
40
1.0000000000
40
1.0000000000
40
1.0000000000
10
-10.6858661857
20
22.2350251327
30
0.0000000000
10
-10.7380119183
20
22.2350251327
30
0.0000000000
10
-10.8430369115
20
22.2184387013
30
0.0000000000
10
-10.9846066557
20
22.1462523290
30
0.0000000000
10
-11.0970876775
20
22.0337725622
30
0.0000000000
10
-11.1692736380
20
21.8922067483
30
0.0000000000
10
-11.1858598396
20
21.7871854644
30
0.0000000000
10
-11.1858598396
20
21.7350420558
30
0.0000000000
11
-10.6858661857
21
22.2350251327
31
0.0000000000
11
-10.8403774791
21
22.2105535761
31
0.0000000000
11
-10.9797602997
21
22.1395355409
31
0.0000000000
11
-11.0903717929
21
22.0289250458
31
0.0000000000
11
-11.1613889618
21
21.8895463978
31
0.0000000000
11
-11.1858598396
21
21.7350420558
31
0.0000000000
0
SPLINE
5
39D
100
AcDbEntity
8
0
100
AcDbSpline
62
7
6
CONTINUOUS
70
0
71
3
72
21
73
17
74
15
42
0.0000001000
43
0.0000001000
44
0.0000000001
12
0.0000000000
22
-0.7849697828
32
0.0000000000
13
0.7849697828
23
0.0000000000
33
0.0000000000
40
0.0000000000
40
0.0000000000
40
0.0000000000
40
0.0000000000
40
0.0711908854
40
0.1427671954
40
0.2142133748
40
0.2853888390
40
0.3569816745
40
0.4286651053
40
0.4999795810
40
0.5712985856
40
0.6429883397
40
0.7145781663
40
0.7857510700
40
0.8572137083
40
0.9288030760
40
1.0000000000
40
1.0000000000
40
1.0000000000
40
1.0000000000
10
-11.1858598396
20
-22.0533561307
30
0.0000000000
10
-11.1858598396
20
-22.0719836953
30
0.0000000000
10
-11.1837679459
20
-22.1093732317
30
0.0000000000
10
-11.1743736824
20
-22.1647450140
30
0.0000000000
10
-11.1588322779
20
-22.2187175938
30
0.0000000000
10
-11.1373540329
20
-22.2706157083
30
0.0000000000
10
-11.1101724738
20
-22.3198409251
30
0.0000000000
10
-11.0776137491
20
-22.3657322124
30
0.0000000000
10
-11.0401655294
20
-22.4076306955
30
0.0000000000
10
-10.9982668818
20
-22.4450812407
30
0.0000000000
10
-10.9523746166
20
-22.4776421730
30
0.0000000000
10
-10.9031498540
20
-22.5048249231
30
0.0000000000
10
-10.8512497963
20
-22.5263058769
30
0.0000000000
10
-10.7972707823
20
-22.5418506529
30
0.0000000000
10
-10.7418898679
20
-22.5512469900
30
0.0000000000
10
-10.7044953303
20
-22.5533392076
30
0.0000000000
10
-10.6858661857
20
-22.5533392076
30
0.0000000000
11
-11.1858598396
21
-22.0533561307
31
0.0000000000
11
-11.1827369336
21
-22.1091514972
31
0.0000000000
11
-11.1733398648
21
-22.1645453267
31
0.0000000000
11
-11.1578209105
21
-22.2184385106
31
0.0000000000
11
-11.1364561328
21
-22.2700628163
31
0.0000000000
11
-11.1092904827
21
-22.3192590210
31
0.0000000000
11
-11.0767309892
21
-22.3651514665
31
0.0000000000
11
-11.0394261046
21
-22.4068896186
31
0.0000000000
11
-10.9976863895
21
-22.4441980894
31
0.0000000000
11
-10.9517906188
21
-22.4767614742
31
0.0000000000
11
-10.9025970982
21
-22.5039270987
31
0.0000000000
11
-10.8509753225
21
-22.5252927336
31
0.0000000000
11
-10.7970701287
21
-22.5408166704
31
0.0000000000
11
-10.7416662812
21
-22.5502159692
31
0.0000000000
11
-10.6858661857
21
-22.5533392076
31
0.0000000000
0
SPLINE
5
39E
100
AcDbEntity
8
0
100
AcDbSpline
62
7
6
CONTINUOUS
70
0
71
3
72
16
73
12
74
10
42
0.0000001000
43
0.0000001000
44
0.0000000001
12
0.0000000000
22
-0.9061184303
32
0.0000000000
13
0.6407224866
23
0.6407224866
33
0.0000000000
40
0.0000000000
40
0.0000000000
40
0.0000000000
40
0.0000000000
40
0.0300591153
40
0.1165806892
40
0.2491758065
40
0.4119115349
40
0.5852329438
40
0.7483128924
40
0.8815551012
40
0.9689488616
40
1.0000000000
40
1.0000000000
40
1.0000000000
40
1.0000000000
10
3.4558496360
20
22.1969360494
30
0.0000000000
10
3.4558496360
20
22.1878570100
30
0.0000000000
10
3.5126079786
20
22.2073868390
30
0.0000000000
10
3.5681155004
20
22.1883027403
30
0.0000000000
10
3.6935802003
20
22.1972036737
30
0.0000000000
10
3.8313095721
20
22.1936026200
30
0.0000000000
10
3.9835148184
20
22.1939324547
30
0.0000000000
10
4.1239996703
20
22.1963447959
30
0.0000000000
10
4.2429011455
20
22.1904075735
30
0.0000000000
10
4.3131102093
20
22.2038247701
30
0.0000000000
10
4.3552956681
20
22.1902889946
30
0.0000000000
10
4.3619273890
20
22.1969207155
30
0.0000000000
11
3.4558496360
21
22.1969360494
31
0.0000000000
11
3.4830718850
21
22.1960361714
31
0.0000000000
11
3.5614666799
21
22.1952444400
31
0.0000000000
11
3.6816121184
21
22.1946559990
31
0.0000000000
11
3.8290696259
21
22.1943415581
31
0.0000000000
11
3.9861193488
21
22.1943389003
31
0.0000000000
11
4.1338887718
21
22.1946483451
31
0.0000000000
11
4.2546205788
21
22.1952327096
31
0.0000000000
11
4.3338057443
21
22.1960217742
31
0.0000000000
11
4.3619273890
21
22.1969207155
31
0.0000000000
0
SPLINE
5
39F
100
AcDbEntity
8
0
100
AcDbSpline
62
7
6
CONTINUOUS
70
0
71
3
72
16
73
12
74
10
42
0.0000001000
43
0.0000001000
44
0.0000000001
12
0.6407224866
22
-0.6407224866
32
0.0000000000
13
0.0000000000
23
0.9061184303
33
0.0000000000
40
0.0000000000
40
0.0000000000
40
0.0000000000
40
0.0000000000
40
0.0310511384
40
0.1184448988
40
0.2516871076
40
0.4147670562
40
0.5880884651
40
0.7508241935
40
0.8834193108
40
0.9699408847
40
1.0000000000
40
1.0000000000
40
1.0000000000
40
1.0000000000
10
-4.4502281169
20
22.1969207155
30
0.0000000000
10
-4.4435963960
20
22.1902889946
30
0.0000000000
10
-4.4014109373
20
22.2038247701
30
0.0000000000
10
-4.3312018734
20
22.1904075735
30
0.0000000000
10
-4.2123003983
20
22.1963447959
30
0.0000000000
10
-4.0718155464
20
22.1939324547
30
0.0000000000
10
-3.9196103001
20
22.1936026200
30
0.0000000000
10
-3.7818809282
20
22.1972036737
30
0.0000000000
10
-3.6564162284
20
22.1883027403
30
0.0000000000
10
-3.6009087065
20
22.2073868390
30
0.0000000000
10
-3.5441503640
20
22.1878570100
30
0.0000000000
10
-3.5441503640
20
22.1969360494
30
0.0000000000
11
-4.4502281169
21
22.1969207155
31
0.0000000000
11
-4.4221064723
21
22.1960217742
31
0.0000000000
11
-4.3429213067
21
22.1952327096
31
0.0000000000
11
-4.2221894998
21
22.1946483451
31
0.0000000000
11
-4.0744200768
21
22.1943389003
31
0.0000000000
11
-3.9173703538
21
22.1943415581
31
0.0000000000
11
-3.7699128464
21
22.1946559990
31
0.0000000000
11
-3.6497674078
21
22.1952444400
31
0.0000000000
11
-3.5713726129
21
22.1960361714
31
0.0000000000
11
-3.5441503640
21
22.1969360494
31
0.0000000000
0
SPLINE
5
3A0
100
AcDbEntity
8
0
100
AcDbSpline
62
7
6
CONTINUOUS
70
0
71
3
72
8
73
4
74
2
42
0.0000001000
43
0.0000001000
44
0.0000000001
12
-0.0186501966
22
-0.0289899545
32
0.0000000000
13
-0.0188446635
23
-0.0288643216
33
0.0000000000
40
0.0000000000
40
0.0000000000
40
0.0000000000
40
0.0000000000
40
1.0000000000
40
1.0000000000
40
1.0000000000
40
1.0000000000
10
7.8269936956
20
21.6196989029
30
0.0000000000
10
7.8207769634
20
21.6100355848
30
0.0000000000
10
7.8145259564
20
21.6003943015
30
0.0000000000
10
7.8082444019
20
21.5907728609
30
0.0000000000
11
7.8269936956
21
21.6196989029
31
0.0000000000
11
7.8082444019
21
21.5907728609
31
0.0000000000
0
SPLINE
5
3A1
100
AcDbEntity
8
0
100
AcDbSpline
62
7
6
CONTINUOUS
70
0
71
3
72
8
73
4
74
2
42
0.0000001000
43
0.0000001000
44
0.0000000001
12
-0.0188446635
22
0.0288643216
32
0.0000000000
13
-0.0186501966
23
0.0289899545
33
0.0000000000
40
0.0000000000
40
0.0000000000
40
0.0000000000
40
0.0000000000
40
1.0000000000
40
1.0000000000
40
1.0000000000
40
1.0000000000
10
-7.8965451298
20
21.5907728609
30
0.0000000000
10
-7.9028266843
20
21.6003943015
30
0.0000000000
10
-7.9090776914
20
21.6100355848
30
0.0000000000
10
-7.9152944236
20
21.6196989029
30
0.0000000000
11
-7.8965451298
21
21.5907728609
31
0.0000000000
11
-7.9152944236
21
21.6196989029
31
0.0000000000
0
SPLINE
5
3A2
100
AcDbEntity
8
0
100
AcDbSpline
62
7
6
CONTINUOUS
70
0
71
3
72
17
73
13
74
11
42
0.0000001000
43
0.0000001000
44
0.0000000001
12
0.3138390385
22
0.0000000000
32
0.0000000000
13
0.0000000000
23
0.3138390385
33
0.0000000000
40
0.0000000000
40
0.0000000000
40
0.0000000000
40
0.0000000000
40
0.0999977468
40
0.1999948529
40
0.2999940452
40
0.3999912720
40
0.4999941869
40
0.5999977497
40
0.6999965630
40
0.7999983668
40
0.8999986320
40
1.0000000000
40
1.0000000000
40
1.0000000000
40
1.0000000000
10
-1.2441503640
20
-24.1533392076
30
0.0000000000
10
-1.2336892984
20
-24.1533392076
30
0.0000000000
10
-1.2127300743
20
-24.1516909119
30
0.0000000000
10
-1.1820944799
20
-24.1443344398
30
0.0000000000
10
-1.1529789890
20
-24.1322750989
30
0.0000000000
10
-1.1261100595
20
-24.1158095143
30
0.0000000000
10
-1.1021468120
20
-24.0953430517
30
0.0000000000
10
-1.0816804246
20
-24.0713795213
30
0.0000000000
10
-1.0652147609
20
-24.0445100456
30
0.0000000000
10
-1.0531552848
20
-24.0153937769
30
0.0000000000
10
-1.0457986907
20
-23.9847572011
30
0.0000000000
10
-1.0441503640
20
-23.9637972673
30
0.0000000000
10
-1.0441503640
20
-23.9533358230
30
0.0000000000
11
-1.2441503640
21
-24.1533392076
31
0.0000000000
11
-1.2128639117
21
-24.1508769039
31
0.0000000000
11
-1.1823480302
21
-24.1435506913
31
0.0000000000
11
-1.1533533206
21
-24.1315406819
31
0.0000000000
11
-1.1265948813
21
-24.1151430992
31
0.0000000000
11
-1.1027296997
21
-24.0947602645
31
0.0000000000
11
-1.0823469055
21
-24.0708947809
31
0.0000000000
11
-1.0659492376
21
-24.0441358099
31
0.0000000000
11
-1.0539390649
21
-24.0151402808
31
0.0000000000
11
-1.0466127221
21
-23.9846234109
31
0.0000000000
11
-1.0441503640
21
-23.9533358230
31
0.0000000000
0
SPLINE
5
3A3
100
AcDbEntity
8
0
100
AcDbSpline
62
7
6
CONTINUOUS
70
0
71
3
72
8
73
4
74
2
42
0.0000001000
43
0.0000001000
44
0.0000000001
12
0.0186501966
22
0.0289899545
32
0.0000000000
13
0.0188446635
23
0.0288643216
33
0.0000000000
40
0.0000000000
40
0.0000000000
40
0.0000000000
40
0.0000000000
40
1.0000000000
40
1.0000000000
40
1.0000000000
40
1.0000000000
10
-7.9152944236
20
-21.9380129779
30
0.0000000000
10
-7.9090776914
20
-21.9283496597
30
0.0000000000
10
-7.9028266843
20
-21.9187083764
30
0.0000000000
10
-7.8965451298
20
-21.9090869358
30
0.0000000000
11
-7.9152944236
21
-21.9380129779
31
0.0000000000
11
-7.8965451298
21
-21.9090869358
31
0.0000000000
0
SPLINE
5
3A4
100
AcDbEntity
8
0
100
AcDbSpline
62
7
6
CONTINUOUS
70
0
71
3
72
8
73
4
74
2
42
0.0000001000
43
0.0000001000
44
0.0000000001
12
0.0188446635
22
-0.0288643216
32
0.0000000000
13
0.0186501966
23
-0.0289899545
33
0.0000000000
40
0.0000000000
40
0.0000000000
40
0.0000000000
40
0.0000000000
40
1.0000000000
40
1.0000000000
40
1.0000000000
40
1.0000000000
10
7.8082444019
20
-21.9090869358
30
0.0000000000
10
7.8145259564
20
-21.9187083764
30
0.0000000000
10
7.8207769634
20
-21.9283496597
30
0.0000000000
10
7.8269936956
20
-21.9380129779
30
0.0000000000
11
7.8082444019
21
-21.9090869358
31
0.0000000000
11
7.8269936956
21
-21.9380129779
31
0.0000000000
0
SPLINE
5
3A5
100
AcDbEntity
8
0
100
AcDbSpline
62
7
6
CONTINUOUS
70
0
71
3
72
32
73
28
74
26
42
0.0000001000
43
0.0000001000
44
0.0000000001
12
0.0000000000
22
0.9061332577
32
0.0000000000
13
-0.6407329712
23
-0.6407329712
33
0.0000000000
40
0.0000000000
40
0.0000000000
40
0.0000000000
40
0.0000000000
40
0.0039446364
40
0.0156719118
40
0.0350066868
40
0.0616465951
40
0.0951734750
40
0.1350608537
40
0.1806820209
40
0.2313203329
40
0.2861800920
40
0.3443994434
40
0.4050636009
40
0.4672194752
40
0.5298903678
40
0.5920916211
40
0.6528460500
40
0.7111991275
40
0.7662339826
40
0.8170859850
40
0.8629560978
40
0.9031237499
40
0.9369578409
40
0.9639270654
40
0.9836080847
40
0.9956930275
40
1.0000000000
40
1.0000000000
40
1.0000000000
40
1.0000000000
10
-3.5441503640
20
-22.5152501243
30
0.0000000000
10
-3.5441503640
20
-22.5140586689
30
0.0000000000
10
-3.5517332773
20
-22.5161798513
30
0.0000000000
10
-3.5595702411
20
-22.5136518044
30
0.0000000000
10
-3.5785332334
20
-22.5146280408
30
0.0000000000
10
-3.6018794629
20
-22.5137938984
30
0.0000000000
10
-3.6323508860
20
-22.5137310524
30
0.0000000000
10
-3.6682163474
20
-22.5134099871
30
0.0000000000
10
-3.7093669485
20
-22.5132116375
30
0.0000000000
10
-3.7550022400
20
-22.5130128266
30
0.0000000000
10
-3.8044546678
20
-22.5128577877
30
0.0000000000
10
-3.8569319164
20
-22.5127365584
30
0.0000000000
10
-3.9116140257
20
-22.5126549213
30
0.0000000000
10
-3.9676404486
20
-22.5126131407
30
0.0000000000
10
-4.0241312455
20
-22.5126121980
30
0.0000000000
10
-4.0801986849
20
-22.5126520788
30
0.0000000000
10
-4.1349619965
20
-22.5127319488
30
0.0000000000
10
-4.1875603708
20
-22.5128511905
30
0.0000000000
10
-4.2371686595
20
-22.5130053660
30
0.0000000000
10
-4.2830030750
20
-22.5132000792
30
0.0000000000
10
-4.3243574131
20
-22.5134052976
30
0.0000000000
10
-4.3605384057
20
-22.5137003322
30
0.0000000000
10
-4.3911064133
20
-22.5138333604
30
0.0000000000
10
-4.4152250025
20
-22.5144809671
30
0.0000000000
10
-4.4334050344
20
-22.5139278196
30
0.0000000000
10
-4.4434977923
20
-22.5157320540
30
0.0000000000
10
-4.4493082438
20
-22.5143149173
30
0.0000000000
10
-4.4502281169
20
-22.5152347904
30
0.0000000000
11
-3.5441503640
21
-22.5152501243
31
0.0000000000
11
-3.5477094888
21
-22.5149203912
31
0.0000000000
11
-3.5583310057
21
-22.5145958375
31
0.0000000000
11
-3.5758480694
21
-22.5142815634
31
0.0000000000
11
-3.5999855238
21
-22.5139825067
31
0.0000000000
11
-3.6303640622
21
-22.5137033673
31
0.0000000000
11
-3.6665064443
21
-22.5134485307
31
0.0000000000
11
-3.7078446804
21
-22.5132220018
31
0.0000000000
11
-3.7537293261
21
-22.5130273395
31
0.0000000000
11
-3.8034393217
21
-22.5128676028
31
0.0000000000
11
-3.8561936705
21
-22.5127453012
31
0.0000000000
11
-3.9111634186
21
-22.5126623566
31
0.0000000000
11
-3.9674849075
21
-22.5126200719
31
0.0000000000
11
-4.0242730876
21
-22.5126191118
31
0.0000000000
11
-4.0806356974
21
-22.5126594909
31
0.0000000000
11
-4.1356872463
21
-22.5127405749
31
0.0000000000
11
-4.1885627732
21
-22.5128610898
31
0.0000000000
11
-4.2384314352
21
-22.5130191421
31
0.0000000000
11
-4.2845097212
21
-22.5132122486
31
0.0000000000
11
-4.3260735462
21
-22.5134373747
31
0.0000000000
11
-4.3624699081
21
-22.5136909836
31
0.0000000000
11
-4.3931268418
21
-22.5139690896
31
0.0000000000
11
-4.4175627332
21
-22.5142673235
31
0.0000000000
11
-4.4353936005
21
-22.5145809982
31
0.0000000000
11
-4.4463393694
21
-22.5149051853
31
0.0000000000
11
-4.4502281169
21
-22.5152347904
31
0.0000000000
0
SPLINE
5
3A6
100
AcDbEntity
8
0
100
AcDbSpline
62
7
6
CONTINUOUS
70
0
71
3
72
32
73
28
74
26
42
0.0000001000
43
0.0000001000
44
0.0000000001
12
-0.6407329712
22
0.6407329712
32
0.0000000000
13
0.0000000000
23
-0.9061332577
33
0.0000000000
40
0.0000000000
40
0.0000000000
40
0.0000000000
40
0.0000000000
40
0.0043069725
40
0.0163919153
40
0.0360729346
40
0.0630421591
40
0.0968762501
40
0.1370439022
40
0.1829140150
40
0.2337660174
40
0.2888008725
40
0.3471539500
40
0.4079083789
40
0.4701096322
40
0.5327805248
40
0.5949363991
40
0.6556005566
40
0.7138199080
40
0.7686796671
40
0.8193179791
40
0.8649391463
40
0.9048265250
40
0.9383534049
40
0.9649933132
40
0.9843280882
40
0.9960553636
40
1.0000000000
40
1.0000000000
40
1.0000000000
40
1.0000000000
10
4.3619273890
20
-22.5152347904
30
0.0000000000
10
4.3610075159
20
-22.5143149173
30
0.0000000000
10
4.3551970644
20
-22.5157320540
30
0.0000000000
10
4.3451043065
20
-22.5139278196
30
0.0000000000
10
4.3269242745
20
-22.5144809671
30
0.0000000000
10
4.3028056853
20
-22.5138333604
30
0.0000000000
10
4.2722376778
20
-22.5137003322
30
0.0000000000
10
4.2360566852
20
-22.5134052976
30
0.0000000000
10
4.1947023471
20
-22.5132000792
30
0.0000000000
10
4.1488679316
20
-22.5130053660
30
0.0000000000
10
4.0992596429
20
-22.5128511905
30
0.0000000000
10
4.0466612685
20
-22.5127319488
30
0.0000000000
10
3.9918979569
20
-22.5126520788
30
0.0000000000
10
3.9358305176
20
-22.5126121980
30
0.0000000000
10
3.8793397207
20
-22.5126131407
30
0.0000000000
10
3.8233132978
20
-22.5126549213
30
0.0000000000
10
3.7686311884
20
-22.5127365584
30
0.0000000000
10
3.7161539398
20
-22.5128577877
30
0.0000000000
10
3.6667015121
20
-22.5130128266
30
0.0000000000
10
3.6210662206
20
-22.5132116375
30
0.0000000000
10
3.5799156195
20
-22.5134099871
30
0.0000000000
10
3.5440501580
20
-22.5137310524
30
0.0000000000
10
3.5135787350
20
-22.5137938984
30
0.0000000000
10
3.4902325054
20
-22.5146280408
30
0.0000000000
10
3.4712695131
20
-22.5136518044
30
0.0000000000
10
3.4634325493
20
-22.5161798513
30
0.0000000000
10
3.4558496360
20
-22.5140586689
30
0.0000000000
10
3.4558496360
20
-22.5152501243
30
0.0000000000
11
4.3619273890
21
-22.5152347904
31
0.0000000000
11
4.3580386415
21
-22.5149051853
31
0.0000000000
11
4.3470928726
21
-22.5145809982
31
0.0000000000
11
4.3292620053
21
-22.5142673235
31
0.0000000000
11
4.3048261139
21
-22.5139690896
31
0.0000000000
11
4.2741691802
21
-22.5136909836
31
0.0000000000
11
4.2377728183
21
-22.5134373747
31
0.0000000000
11
4.1962089932
21
-22.5132122486
31
0.0000000000
11
4.1501307072
21
-22.5130191421
31
0.0000000000
11
4.1002620452
21
-22.5128610898
31
0.0000000000
11
4.0473865183
21
-22.5127405749
31
0.0000000000
11
3.9923349694
21
-22.5126594909
31
0.0000000000
11
3.9359723597
21
-22.5126191118
31
0.0000000000
11
3.8791841795
21
-22.5126200719
31
0.0000000000
11
3.8228626906
21
-22.5126623566
31
0.0000000000
11
3.7678929425
21
-22.5127453012
31
0.0000000000
11
3.7151385937
21
-22.5128676028
31
0.0000000000
11
3.6654285981
21
-22.5130273395
31
0.0000000000
11
3.6195439525
21
-22.5132220018
31
0.0000000000
11
3.5782057163
21
-22.5134485307
31
0.0000000000
11
3.5420633343
21
-22.5137033673
31
0.0000000000
11
3.5116847958
21
-22.5139825067
31
0.0000000000
11
3.4875473415
21
-22.5142815634
31
0.0000000000
11
3.4700302777
21
-22.5145958375
31
0.0000000000
11
3.4594087609
21
-22.5149203912
31
0.0000000000
11
3.4558496360
21
-22.5152501243
31
0.0000000000
0
SPLINE
5
3A7
100
AcDbEntity
8
0
100
AcDbSpline
62
7
6
CONTINUOUS
70
0
71
3
72
20
73
16
74
14
42
0.0000001000
43
0.0000001000
44
0.0000000001
12
-0.4646867855
22
0.4881752433
32
0.0000000000
13
0.0000000000
23
0.6739798786
33
0.0000000000
40
0.0000000000
40
0.0000000000
40
0.0000000000
40
0.0000000000
40
0.1388713231
40
0.2749115227
40
0.4037834237
40
0.5214526785
40
0.6254136342
40
0.7150230414
40
0.7908650114
40
0.8533989954
40
0.9034986065
40
0.9422325024
40
0.9708206345
40
0.9898666645
40
1.0000000000
40
1.0000000000
40
1.0000000000
40
1.0000000000
10
3.9088923460
20
23.2972007773
30
0.0000000000
10
3.8873817897
20
23.3197986246
30
0.0000000000
10
3.8447991458
20
23.3645335714
30
0.0000000000
10
3.7823020036
20
23.4302841025
30
0.0000000000
10
3.7231804529
20
23.4926714561
30
0.0000000000
10
3.6691551717
20
23.5499589231
30
0.0000000000
10
3.6213613826
20
23.6009987727
30
0.0000000000
10
3.5802110470
20
23.6453832769
30
0.0000000000
10
3.5456436183
20
23.6831834720
30
0.0000000000
10
3.5173821339
20
23.7147048060
30
0.0000000000
10
3.4950132984
20
23.7403496277
30
0.0000000000
10
3.4781647777
20
23.7605800272
30
0.0000000000
10
3.4661183284
20
23.7759633318
30
0.0000000000
10
3.4591138234
20
23.7866062524
30
0.0000000000
10
3.4558496360
20
23.7927143519
30
0.0000000000
10
3.4558496360
20
23.7949909066
30
0.0000000000
11
3.9088923460
21
23.2972007773
31
0.0000000000
11
3.8443688203
21
23.3650020695
31
0.0000000000
11
3.7812096598
21
23.4314676643
31
0.0000000000
11
3.7214759781
21
23.4945234933
31
0.0000000000
11
3.6670782876
21
23.5522335057
31
0.0000000000
11
3.6192032595
21
23.6033945179
31
0.0000000000
11
3.5781625424
21
23.6477026211
31
0.0000000000
11
3.5436954098
21
23.6854499165
31
0.0000000000
11
3.5155929469
21
23.7168599694
31
0.0000000000
11
3.4934549325
21
23.7423562406
31
0.0000000000
11
3.4767983386
21
23.7624578361
31
0.0000000000
11
3.4651001036
21
23.7777679768
31
0.0000000000
11
3.4581498273
21
23.7885602431
31
0.0000000000
11
3.4558496360
21
23.7949909066
31
0.0000000000
0
SPLINE
5
3A8
100
AcDbEntity
8
0
100
AcDbSpline
62
7
6
CONTINUOUS
70
0
71
3
72
20
73
16
74
14
42
0.0000001000
43
0.0000001000
44
0.0000000001
12
-0.0392566671
22
-0.6725884001
32
0.0000000000
13
-0.4645166152
23
-0.4879964714
33
0.0000000000
40
0.0000000000
40
0.0000000000
40
0.0000000000
40
0.0000000000
40
0.0105350590
40
0.0299438888
40
0.0588398542
40
0.0978545055
40
0.1482120786
40
0.2109386931
40
0.2868777404
40
0.3764553953
40
0.4802422333
40
0.5976470591
40
0.7262204869
40
0.8618061527
40
1.0000000000
40
1.0000000000
40
1.0000000000
40
1.0000000000
10
4.3619273890
20
23.7947352356
30
0.0000000000
10
4.3617895319
20
23.7923733161
30
0.0000000000
10
4.3584332794
20
23.7861934659
30
0.0000000000
10
4.3512108862
20
23.7753555427
30
0.0000000000
10
4.3390284070
20
23.7598487704
30
0.0000000000
10
4.3220343874
20
23.7394906232
30
0.0000000000
10
4.2995540766
20
23.7137474811
30
0.0000000000
10
4.2712080988
20
23.6821553631
30
0.0000000000
10
4.2366063535
20
23.6443342911
30
0.0000000000
10
4.1954815934
20
23.5999893485
30
0.0000000000
10
4.1477736116
20
23.5490490261
30
0.0000000000
10
4.0938792714
20
23.4919051945
30
0.0000000000
10
4.0349352873
20
23.4297077385
30
0.0000000000
10
3.9726818942
20
23.3642145743
30
0.0000000000
10
3.9302901254
20
23.3196801472
30
0.0000000000
10
3.9088923460
20
23.2972007773
30
0.0000000000
11
4.3619273890
21
23.7947352356
31
0.0000000000
11
4.3593883751
21
23.7881070818
31
0.0000000000
11
4.3522446231
21
23.7771545356
31
0.0000000000
11
4.3403888037
21
23.7617127389
31
0.0000000000
11
4.3235942561
21
23.7414922391
31
0.0000000000
11
4.3013338005
21
23.7158884975
31
0.0000000000
11
4.2731429048
21
23.6844041359
31
0.0000000000
11
4.2386353810
21
23.6466305041
31
0.0000000000
11
4.1976179208
21
23.6023601663
31
0.0000000000
11
4.1498363555
21
23.5513074963
31
0.0000000000
11
4.0955782033
21
23.4937506905
31
0.0000000000
11
4.0360033074
21
23.4308652510
31
0.0000000000
11
3.9730776693
21
23.3646465154
31
0.0000000000
11
3.9088923460
21
23.2972007773
31
0.0000000000
0
SPLINE
5
3A9
100
AcDbEntity
8
0
100
AcDbSpline
62
7
6
CONTINUOUS
70
0
71
3
72
20
73
16
74
14
42
0.0000001000
43
0.0000001000
44
0.0000000001
12
-0.4645165876
22
0.4879964425
32
0.0000000000
13
-0.0392566647
23
0.6725883602
33
0.0000000000
40
0.0000000000
40
0.0000000000
40
0.0000000000
40
0.0000000000
40
0.1382329167
40
0.2737962112
40
0.4023280308
40
0.5197265990
40
0.6235247092
40
0.7131061512
40
0.7890389568
40
0.8517593797
40
0.9021124849
40
0.9411324929
40
0.9700381349
40
0.9894583388
40
1.0000000000
40
1.0000000000
40
1.0000000000
40
1.0000000000
10
-3.9971930739
20
23.2972007773
30
0.0000000000
10
-4.0185969015
20
23.3196865011
30
0.0000000000
10
-4.0609912535
20
23.3642236416
30
0.0000000000
10
-4.1232407721
20
23.4297127630
30
0.0000000000
10
-4.1821739009
20
23.4918987677
30
0.0000000000
10
-4.2360626373
20
23.5490365814
30
0.0000000000
10
-4.2837720213
20
23.5999782932
30
0.0000000000
10
-4.3248981768
20
23.6443246371
30
0.0000000000
10
-4.3594986827
20
23.6821442078
30
0.0000000000
10
-4.3878422566
20
23.7137333763
30
0.0000000000
10
-4.4103220405
20
23.7394754012
30
0.0000000000
10
-4.4273179392
20
23.7598350300
30
0.0000000000
10
-4.4395047524
20
23.7753460528
30
0.0000000000
10
-4.4467309625
20
23.7861886016
30
0.0000000000
10
-4.4500901734
20
23.7923718361
30
0.0000000000
10
-4.4502281169
20
23.7947352356
30
0.0000000000
11
-3.9971930739
21
23.2972007773
31
0.0000000000
11
-4.0613965350
21
23.3646655836
31
0.0000000000
11
-4.1243117723
21
23.4308734032
31
0.0000000000
11
-4.1838673913
21
23.4937384828
31
0.0000000000
11
-4.2381226900
21
23.5512921781
31
0.0000000000
11
-4.2859094948
21
23.6023503404
31
0.0000000000
11
-4.3269287393
21
23.6466224985
31
0.0000000000
11
-4.3614335061
21
23.6843929490
31
0.0000000000
11
-4.3896217731
21
23.7158740617
31
0.0000000000
11
-4.4118805368
21
23.7414752827
31
0.0000000000
11
-4.4286778393
21
23.7616981837
31
0.0000000000
11
-4.4405382507
21
23.7771446727
31
0.0000000000
11
-4.4476869370
21
23.7881031487
31
0.0000000000
11
-4.4502281169
21
23.7947352356
31
0.0000000000
0
SPLINE
5
3AA
100
AcDbEntity
8
0
100
AcDbSpline
62
7
6
CONTINUOUS
70
0
71
3
72
11
73
7
74
5
42
0.0000001000
43
0.0000001000
44
0.0000000001
12
0.0000000000
22
-0.0650167575
32
0.0000000000
13
-0.0420659776
23
-0.0494993135
33
0.0000000000
40
0.0000000000
40
0.0000000000
40
0.0000000000
40
0.0000000000
40
0.1049754499
40
0.3022888118
40
0.5985372888
40
1.0000000000
40
1.0000000000
40
1.0000000000
40
1.0000000000
10
-3.5441503640
20
23.7949909066
30
0.0000000000
10
-3.5441503640
20
23.7927158522
30
0.0000000000
10
-3.5474114178
20
23.7866112851
30
0.0000000000
10
-3.5544120510
20
23.7759731007
30
0.0000000000
10
-3.5664539165
20
23.7605942867
30
0.0000000000
10
-3.5761112652
20
23.7489980234
30
0.0000000000
10
-3.5817405723
20
23.7423739805
30
0.0000000000
11
-3.5441503640
21
23.7949909066
31
0.0000000000
11
-3.5464484020
21
23.7885642530
31
0.0000000000
11
-3.5533935545
21
23.7777781621
31
0.0000000000
11
-3.5650870500
21
23.7624728450
31
0.0000000000
11
-3.5817405723
21
23.7423739805
31
0.0000000000
0
SPLINE
5
3AB
100
AcDbEntity
8
0
100
AcDbSpline
62
7
6
CONTINUOUS
70
0
71
3
72
16
73
12
74
10
42
0.0000001000
43
0.0000001000
44
0.0000000001
12
-0.3940004393
22
-0.4636229176
32
0.0000000000
13
-0.4198599192
23
-0.4410825197
33
0.0000000000
40
0.0000000000
40
0.0000000000
40
0.0000000000
40
0.0000000000
40
0.0554530572
40
0.1246695785
40
0.2086153044
40
0.3077875392
40
0.4228360716
40
0.5530765658
40
0.6957543055
40
0.8463438697
40
1.0000000000
40
1.0000000000
40
1.0000000000
40
1.0000000000
10
-3.5817405723
20
23.7423739805
30
0.0000000000
10
-3.5890234153
20
23.7338042111
30
0.0000000000
10
-3.6056694160
20
23.7147199373
30
0.0000000000
10
-3.6339330446
20
23.6831959110
30
0.0000000000
10
-3.6685014802
20
23.6453944426
30
0.0000000000
10
-3.7096503770
20
23.6010113671
30
0.0000000000
10
-3.7574429621
20
23.5499726819
30
0.0000000000
10
-3.8114741711
20
23.4926788462
30
0.0000000000
10
-3.8706068458
20
23.4302797544
30
0.0000000000
10
-3.9331081397
20
23.3645248880
30
0.0000000000
10
-3.9756883904
20
23.3197924550
30
0.0000000000
10
-3.9971930739
20
23.2972007773
30
0.0000000000
11
-3.5817405723
21
23.7423739805
31
0.0000000000
11
-3.6038800767
21
23.7168753749
31
0.0000000000
11
-3.6319848113
21
23.6854624364
31
0.0000000000
11
-3.6664544746
21
23.6477121793
31
0.0000000000
11
-3.7074932947
21
23.6034059980
31
0.0000000000
11
-3.7553632931
21
23.5522502404
31
0.0000000000
11
-3.8097643359
21
23.4945365800
31
0.0000000000
11
-3.8695175555
21
23.4314601117
31
0.0000000000
11
-3.9326871598
21
23.3649835543
31
0.0000000000
11
-3.9971930739
21
23.2972007773
31
0.0000000000
0
SPLINE
5
3AC
100
AcDbEntity
8
0
100
AcDbSpline
62
7
6
CONTINUOUS
70
0
71
3
72
8
73
4
74
2
42
0.0000001000
43
0.0000001000
44
0.0000000001
12
-0.0017480002
22
-0.0017480002
32
0.0000000000
13
-0.0001440396
23
-0.0024678456
33
0.0000000000
40
0.0000000000
40
0.0000000000
40
0.0000000000
40
0.0000000000
40
1.0000000000
40
1.0000000000
40
1.0000000000
40
1.0000000000
10
4.3621989892
20
23.7971923157
30
0.0000000000
10
4.3616163224
20
23.7966096490
30
0.0000000000
10
4.3619754022
20
23.7955578508
30
0.0000000000
10
4.3619273890
20
23.7947352356
30
0.0000000000
11
4.3621989892
21
23.7971923157
31
0.0000000000
11
4.3619273890
21
23.7947352356
31
0.0000000000
0
SPLINE
5
3AD
100
AcDbEntity
8
0
100
AcDbSpline
62
7
6
CONTINUOUS
70
0
71
3
72
18
73
14
74
12
42
0.0000001000
43
0.0000001000
44
0.0000000001
12
0.0000000000
22
-0.4220894472
32
0.0000000000
13
-0.4220894472
23
0.0000000000
33
0.0000000000
40
0.0000000000
40
0.0000000000
40
0.0000000000
40
0.0000000000
40
0.1059090351
40
0.2101669191
40
0.3119275375
40
0.4100581264
40
0.5041875836
40
0.5942815516
40
0.6804273975
40
0.7634029300
40
0.8436506062
40
0.9223347281
40
1.0000000000
40
1.0000000000
40
1.0000000000
40
1.0000000000
10
10.1058496360
20
23.2513281108
30
0.0000000000
10
10.1058496360
20
23.2364270821
30
0.0000000000
10
10.1038638061
20
23.2068182090
30
0.0000000000
10
10.0950598936
20
23.1636938788
30
0.0000000000
10
10.0808779181
20
23.1231770847
30
0.0000000000
10
10.0619467813
20
23.0862480160
30
0.0000000000
10
10.0390274502
20
23.0536405329
30
0.0000000000
10
10.0128973856
20
23.0258177026
30
0.0000000000
10
9.9842768474
20
23.0030071283
30
0.0000000000
10
9.9538343109
20
22.9853104576
30
0.0000000000
10
9.9220817284
20
22.9727038778
30
0.0000000000
10
9.8895336048
20
22.9651667993
30
0.0000000000
10
9.8674998645
20
22.9634926934
30
0.0000000000
10
9.8565726339
20
22.9634926934
30
0.0000000000
11
10.1058496360
21
23.2513281108
31
0.0000000000
11
10.1028461512
21
23.2067260370
31
0.0000000000
11
10.0940183924
21
23.1636144128
31
0.0000000000
11
10.0797886773
21
23.1230879195
31
0.0000000000
11
10.0608484486
21
23.0862521394
31
0.0000000000
11
10.0379556706
21
23.0537794263
31
0.0000000000
11
10.0118817905
21
23.0260980293
31
0.0000000000
11
9.9834148961
21
23.0034755491
31
0.0000000000
11
9.9531140325
21
22.9859120939
31
0.0000000000
11
9.9216208878
21
22.9734431840
31
0.0000000000
11
9.8892604504
21
22.9659717985
31
0.0000000000
11
9.8565726339
21
22.9634926934
31
0.0000000000
0
SPLINE
5
3AE
100
AcDbEntity
8
0
100
AcDbSpline
62
9
6
CONTINUOUS
70
0
71
3
72
18
73
14
74
12
42
0.0000001000
43
0.0000001000
44
0.0000000001
12
-0.0012300469
22
-0.3662148900
32
0.0000000000
13
-0.3662157937
23
-0.0009225687
33
0.0000000000
40
0.0000000000
40
0.0000000000
40
0.0000000000
40
0.0000000000
40
0.0842901845
40
0.1691825236
40
0.2551733573
40
0.3426537911
40
0.4318785657
40
0.5229513183
40
0.6158248362
40
0.7103132260
40
0.8061126036
40
0.9028273866
40
1.0000000000
40
1.0000000000
40
1.0000000000
40
1.0000000000
10
10.1014778020
20
23.6851805298
30
0.0000000000
10
10.1014432417
20
23.6748910896
30
0.0000000000
10
10.0996631717
20
23.6542047971
30
0.0000000000
10
10.0919337997
20
23.6238948980
30
0.0000000000
10
10.0793100379
20
23.5948471684
30
0.0000000000
10
10.0620627300
20
23.5676652019
30
0.0000000000
10
10.0405551652
20
23.5428936907
30
0.0000000000
10
10.0152330874
20
23.5210274709
30
0.0000000000
10
9.9866145136
20
23.5024992984
30
0.0000000000
10
9.9552803892
20
23.4876746429
30
0.0000000000
10
9.9218608402
20
23.4768453225
30
0.0000000000
10
9.8870347548
20
23.4702244549
30
0.0000000000
10
9.8633440814
20
23.4687040617
30
0.0000000000
10
9.8514820328
20
23.4686741789
30
0.0000000000
11
10.1014778020
21
23.6851805298
31
0.0000000000
11
10.0988393033
21
23.6544250052
31
0.0000000000
11
10.0911839248
21
23.6242932617
31
0.0000000000
11
10.0786669324
21
23.5953964286
31
0.0000000000
11
10.0615421947
21
23.5683205892
31
0.0000000000
11
10.0401570342
21
23.5436148935
31
0.0000000000
11
10.0149451829
21
23.5217804203
31
0.0000000000
11
9.9864179856
21
23.5032600146
31
0.0000000000
11
9.9551540284
21
23.4884293058
31
0.0000000000
11
9.9217874044
21
23.4775890889
31
0.0000000000
11
9.8869948526
21
23.4709592245
31
0.0000000000
11
9.8514820328
21
23.4686741789
31
0.0000000000
0
SPLINE
5
3AF
100
AcDbEntity
8
0
100
AcDbSpline
62
9
6
CONTINUOUS
70
0
71
3
72
18
73
14
74
12
42
0.0000001000
43
0.0000001000
44
0.0000000001
12
0.0012300469
22
-0.3662148900
32
0.0000000000
13
0.3662157937
23
-0.0009225687
33
0.0000000000
40
0.0000000000
40
0.0000000000
40
0.0000000000
40
0.0000000000
40
0.0842901845
40
0.1691825236
40
0.2551733573
40
0.3426537911
40
0.4318785657
40
0.5229513183
40
0.6158248362
40
0.7103132260
40
0.8061126036
40
0.9028273866
40
1.0000000000
40
1.0000000000
40
1.0000000000
40
1.0000000000
10
7.2102214700
20
23.6851805298
30
0.0000000000
10
7.2102560303
20
23.6748910896
30
0.0000000000
10
7.2120361004
20
23.6542047971
30
0.0000000000
10
7.2197654723
20
23.6238948980
30
0.0000000000
10
7.2323892341
20
23.5948471684
30
0.0000000000
10
7.2496365421
20
23.5676652019
30
0.0000000000
10
7.2711441069
20
23.5428936907
30
0.0000000000
10
7.2964661846
20
23.5210274709
30
0.0000000000
10
7.3250847584
20
23.5024992984
30
0.0000000000
10
7.3564188828
20
23.4876746429
30
0.0000000000
10
7.3898384318
20
23.4768453225
30
0.0000000000
10
7.4246645172
20
23.4702244549
30
0.0000000000
10
7.4483551907
20
23.4687040617
30
0.0000000000
10
7.4602172392
20
23.4686741789
30
0.0000000000
11
7.2102214700
21
23.6851805298
31
0.0000000000
11
7.2128599688
21
23.6544250052
31
0.0000000000
11
7.2205153473
21
23.6242932617
31
0.0000000000
11
7.2330323396
21
23.5953964286
31
0.0000000000
11
7.2501570773
21
23.5683205892
31
0.0000000000
11
7.2715422379
21
23.5436148935
31
0.0000000000
11
7.2967540891
21
23.5217804203
31
0.0000000000
11
7.3252812865
21
23.5032600146
31
0.0000000000
11
7.3565452437
21
23.4884293058
31
0.0000000000
11
7.3899118677
21
23.4775890889
31
0.0000000000
11
7.4247044194
21
23.4709592245
31
0.0000000000
11
7.4602172392
21
23.4686741789
31
0.0000000000
0
SPLINE
5
3B0
100
AcDbEntity
8
0
100
AcDbSpline
62
7
6
CONTINUOUS
70
0
71
3
72
18
73
14
74
12
42
0.0000001000
43
0.0000001000
44
0.0000000001
12
-0.4220894472
22
0.0000000000
32
0.0000000000
13
-0.0000000000
23
0.4220894472
33
0.0000000000
40
0.0000000000
40
0.0000000000
40
0.0000000000
40
0.0000000000
40
0.0776652719
40
0.1563493938
40
0.2365970700
40
0.3195726025
40
0.4057184484
40
0.4958124164
40
0.5899418736
40
0.6880724625
40
0.7898330809
40
0.8940909649
40
1.0000000000
40
1.0000000000
40
1.0000000000
40
1.0000000000
10
7.4551266382
20
22.9634926934
30
0.0000000000
10
7.4441994076
20
22.9634926934
30
0.0000000000
10
7.4221656673
20
22.9651667993
30
0.0000000000
10
7.3896175436
20
22.9727038778
30
0.0000000000
10
7.3578649612
20
22.9853104576
30
0.0000000000
10
7.3274224247
20
23.0030071283
30
0.0000000000
10
7.2988018864
20
23.0258177026
30
0.0000000000
10
7.2726718219
20
23.0536405329
30
0.0000000000
10
7.2497524907
20
23.0862480160
30
0.0000000000
10
7.2308213540
20
23.1231770847
30
0.0000000000
10
7.2166393785
20
23.1636938788
30
0.0000000000
10
7.2078354660
20
23.2068182090
30
0.0000000000
10
7.2058496360
20
23.2364270821
30
0.0000000000
10
7.2058496360
20
23.2513281108
30
0.0000000000
11
7.4551266382
21
22.9634926934
31
0.0000000000
11
7.4224388217
21
22.9659717985
31
0.0000000000
11
7.3900783843
21
22.9734431840
31
0.0000000000
11
7.3585852396
21
22.9859120939
31
0.0000000000
11
7.3282843759
21
23.0034755491
31
0.0000000000
11
7.2998174816
21
23.0260980293
31
0.0000000000
11
7.2737436014
21
23.0537794263
31
0.0000000000
11
7.2508508235
21
23.0862521394
31
0.0000000000
11
7.2319105948
21
23.1230879195
31
0.0000000000
11
7.2176808797
21
23.1636144128
31
0.0000000000
11
7.2088531208
21
23.2067260370
31
0.0000000000
11
7.2058496360
21
23.2513281108
31
0.0000000000
0
SPLINE
5
3B1
100
AcDbEntity
8
0
100
AcDbSpline
62
7
6
CONTINUOUS
70
0
71
3
72
17
73
13
74
11
42
0.0000001000
43
0.0000001000
44
0.0000000001
12
0.0000000000
22
0.3138390385
32
0.0000000000
13
-0.3138390385
23
0.0000000000
33
0.0000000000
40
0.0000000000
40
0.0000000000
40
0.0000000000
40
0.0000000000
40
0.1000013680
40
0.2000016332
40
0.3000034370
40
0.4000022503
40
0.5000058131
40
0.6000087280
40
0.7000059548
40
0.8000051471
40
0.9000022532
40
1.0000000000
40
1.0000000000
40
1.0000000000
40
1.0000000000
10
-1.0441503640
20
23.6350217481
30
0.0000000000
10
-1.0441503640
20
23.6454831924
30
0.0000000000
10
-1.0457986907
20
23.6664431262
30
0.0000000000
10
-1.0531552848
20
23.6970797020
30
0.0000000000
10
-1.0652147609
20
23.7261959707
30
0.0000000000
10
-1.0816804246
20
23.7530654464
30
0.0000000000
10
-1.1021468120
20
23.7770289768
30
0.0000000000
10
-1.1261100595
20
23.7974954394
30
0.0000000000
10
-1.1529789890
20
23.8139610240
30
0.0000000000
10
-1.1820944799
20
23.8260203649
30
0.0000000000
10
-1.2127300743
20
23.8333768370
30
0.0000000000
10
-1.2336892984
20
23.8350251327
30
0.0000000000
10
-1.2441503640
20
23.8350251327
30
0.0000000000
11
-1.0441503640
21
23.6350217481
31
0.0000000000
11
-1.0466127221
21
23.6663093360
31
0.0000000000
11
-1.0539390649
21
23.6968262059
31
0.0000000000
11
-1.0659492376
21
23.7258217350
31
0.0000000000
11
-1.0823469055
21
23.7525807060
31
0.0000000000
11
-1.1027296997
21
23.7764461896
31
0.0000000000
11
-1.1265948813
21
23.7968290243
31
0.0000000000
11
-1.1533533206
21
23.8132266070
31
0.0000000000
11
-1.1823480302
21
23.8252366164
31
0.0000000000
11
-1.2128639117
21
23.8325628290
31
0.0000000000
11
-1.2441503640
21
23.8350251327
31
0.0000000000
0
SPLINE
5
3B2
100
AcDbEntity
8
0
100
AcDbSpline
62
7
6
CONTINUOUS
70
0
71
3
72
8
73
4
74
2
42
0.0000001000
43
0.0000001000
44
0.0000000001
12
0.0017480002
22
-0.0017480002
32
0.0000000000
13
0.0001440396
23
-0.0024678456
33
0.0000000000
40
0.0000000000
40
0.0000000000
40
0.0000000000
40
0.0000000000
40
1.0000000000
40
1.0000000000
40
1.0000000000
40
1.0000000000
10
-4.4504997171
20
23.7971923157
30
0.0000000000
10
-4.4499170504
20
23.7966096490
30
0.0000000000
10
-4.4502761301
20
23.7955578508
30
0.0000000000
10
-4.4502281169
20
23.7947352356
30
0.0000000000
11
-4.4504997171
21
23.7971923157
31
0.0000000000
11
-4.4502281169
21
23.7947352356
31
0.0000000000
0
SPLINE
5
3B3
100
AcDbEntity
8
0
100
AcDbSpline
62
7
6
CONTINUOUS
70
0
71
3
72
17
73
13
74
11
42
0.0000001000
43
0.0000001000
44
0.0000000001
12
-0.3138390385
22
0.0000000000
32
0.0000000000
13
0.0000000000
23
-0.3138390385
33
0.0000000000
40
0.0000000000
40
0.0000000000
40
0.0000000000
40
0.0000000000
40
0.0999977468
40
0.1999948529
40
0.2999940452
40
0.3999912720
40
0.4999941869
40
0.5999977497
40
0.6999965630
40
0.7999983668
40
0.8999986320
40
1.0000000000
40
1.0000000000
40
1.0000000000
40
1.0000000000
10
1.1558496360
20
23.8350251327
30
0.0000000000
10
1.1453885705
20
23.8350251327
30
0.0000000000
10
1.1244293464
20
23.8333768370
30
0.0000000000
10
1.0937937520
20
23.8260203649
30
0.0000000000
10
1.0646782611
20
23.8139610240
30
0.0000000000
10
1.0378093315
20
23.7974954394
30
0.0000000000
10
1.0138460841
20
23.7770289768
30
0.0000000000
10
0.9933796967
20
23.7530654464
30
0.0000000000
10
0.9769140330
20
23.7261959707
30
0.0000000000
10
0.9648545569
20
23.6970797020
30
0.0000000000
10
0.9574979627
20
23.6664431262
30
0.0000000000
10
0.9558496360
20
23.6454831924
30
0.0000000000
10
0.9558496360
20
23.6350217481
30
0.0000000000
11
1.1558496360
21
23.8350251327
31
0.0000000000
11
1.1245631837
21
23.8325628290
31
0.0000000000
11
1.0940473023
21
23.8252366164
31
0.0000000000
11
1.0650525926
21
23.8132266070
31
0.0000000000
11
1.0382941534
21
23.7968290243
31
0.0000000000
11
1.0144289718
21
23.7764461896
31
0.0000000000
11
0.9940461776
21
23.7525807060
31
0.0000000000
11
0.9776485097
21
23.7258217350
31
0.0000000000
11
0.9656383370
21
23.6968262059
31
0.0000000000
11
0.9583119941
21
23.6663093360
31
0.0000000000
11
0.9558496360
21
23.6350217481
31
0.0000000000
0
ENDSEC
0
SECTION
2
OBJECTS
0
DICTIONARY
5
3B4
100
AcDbDictionary
3
ACAD_GROUP
350
3B5
3
ACAD_MLINESTYLE
350
3B6
0
DICTIONARY
5
3B5
102
{ACAD_REACTORS
330
3B4
102
}
100
AcDbDictionary
0
DICTIONARY
5
3B6
102
{ACAD_REACTORS
330
3B4
102
}
100
AcDbDictionary
3
STANDARD
350
3B7
0
MLINESTYLE
5
3B7
102
{ACAD_REACTORS
330
3B6
102
}
100
AcDbMlineStyle
2
STANDARD
70
0
3

62
256
51
90.0
52
90.0
71
2
49
0.5
62
256
6
BYLAYER
49
-0.5
62
256
6
BYLAYER
0
ENDSEC
0
EOF
