0
SECTION
2
HEADER
9
$ACADVER
1
AC1014
9
$HANDSEED
5
       3BA
9
$EXTMAX
10
297.0000000000
20
210.0000000000
9
$EXTMIN
10
0.0000000000
20
0.0000000000
9
$LIMMIN
10
0.0000000000
20
0.0000000000
9
$LIMMAX
10
297.0000000000
20
210.0000000000
9
$VIEWCTR
10
148.5000000000
20
105.0000000000
9
$VIEWSIZE
40
210.0000000000
9
$CLAYER
8
0
9
$LTSCALE
40
16.3350000000
9
$CELTYPE
6
BYLAYER
9
$DIMSCALE
40
1
9
$DIMASZ
40
3.0000000000
9
$DIMEXO
40
1.8562500000
9
$DIMDLI
40
11.2860000000
9
$DIMEXE
40
5.3460000000
9
$DIMCEN
40
2.6730000000
9
$DIMLFAC
40
1.0000000000
9
$DIMTXT
40
3.0000000000
9
$DIMTOL
70
1
9
$DIMLIM
70
0
9
$DIMTFAC
40
1.0000000000
9
$DIMTP
40
0.0100000000
9
$DIMTM
40
0.0100000000
9
$MEASUREMENT
70
1
0
ENDSEC
0
SECTION
2
CLASSES
0
ENDSEC
0
SECTION
2
TABLES
0
TABLE
2
VPORT
5
8
100
AcDbSymbolTable
70
2
0
VPORT
5
1F4
100
AcDbSymbolTableRecord
100
AcDbViewportTableRecord
2
*ACTIVE
70
0
10
0.0
20
0.0
11
1.0
21
1.0
12
148.5000000000
22
105.0000000000
13
0.0
23
0.0
14
1.0
24
1.0
15
0.0
25
0.0
16
0.0
26
0.0
36
1.0
17
0.0
27
0.0
37
0.0
40
210.0000000000
41
1.4142857143
42
50.0
43
0.0
44
0.0
50
0.0
51
0.0
71
0
72
100
73
1
74
1
75
0
76
0
77
0
78
0
0
ENDTAB
0
TABLE
2
LTYPE
5
5
100
AcDbSymbolTable
70
6
0
LTYPE
5
14
100
AcDbSymbolTableRecord
100
AcDbLinetypeTableRecord
2
BYBLOCK
70
0
3

72
65
73
0
40
0.0
0
LTYPE
5
15
100
AcDbSymbolTableRecord
100
AcDbLinetypeTableRecord
2
BYLAYER
70
0
3

72
65
73
0
40
0.0
0
LTYPE
5
16
100
AcDbSymbolTableRecord
100
AcDbLinetypeTableRecord
2
CONTINUOUS
70
64
3
Solid line
72
65
73
0
40
0
0
LTYPE
5
1F5
100
AcDbSymbolTableRecord
100
AcDbLinetypeTableRecord
2
CENTER
70
64
3
____ _ ____ _ ____ _ ____ _ ____ _ ____ _ ____
72
65
73
4
40
0.6
49
0.375
74
0
49
-0.075
74
0
49
0.075
74
0
49
-0.075
74
0
0
LTYPE
5
1F6
100
AcDbSymbolTableRecord
100
AcDbLinetypeTableRecord
2
HIDDEN
70
64
3
- - - - - - - - - - - - - - - - - - - -
72
65
73
2
40
0.2
49
0.1
74
0
49
-0.1
74
0
0
LTYPE
5
1F7
100
AcDbSymbolTableRecord
100
AcDbLinetypeTableRecord
2
PHANTOM
70
64
3
_____ _ _ _____ _ _ _____ _ _ _____
72
65
73
6
40
0.8
49
0.45
74
0
49
-0.05
74
0
49
0.1
74
0
49
-0.05
74
0
49
0.1
74
0
49
-0.05
74
0
0
LTYPE
5
1F8
100
AcDbSymbolTableRecord
100
AcDbLinetypeTableRecord
2
DOT
70
64
3
. . . . . . . . . . . . . . . . . . . .
72
65
73
2
40
0.2
49
0.1
74
0
49
-0.1
74
0
0
LTYPE
5
1F9
100
AcDbSymbolTableRecord
100
AcDbLinetypeTableRecord
2
DASHED
70
64
3
- - - - - - - - - - - - - - - - - - - -
72
65
73
2
40
0.2
49
0.1
74
0
49
-0.1
74
0
0
ENDTAB
0
TABLE
2
LAYER
5
2
100
AcDbSymbolTable
70
36
0
LAYER
5
10
100
AcDbSymbolTableRecord
100
AcDbLayerTableRecord
2
0
70
0
62
7
6
CONTINUOUS
0
LAYER
5
1FA
100
AcDbSymbolTableRecord
100
AcDbLayerTableRecord
2
DEFAULT_1
70
0
62
7
6
CENTER
0
LAYER
5
1FB
100
AcDbSymbolTableRecord
100
AcDbLayerTableRecord
2
DEFAULT_2
70
0
62
8
6
HIDDEN
0
LAYER
5
1FC
100
AcDbSymbolTableRecord
100
AcDbLayerTableRecord
2
DEFAULT_3
70
0
62
7
6
PHANTOM
0
LAYER
5
1FD
100
AcDbSymbolTableRecord
100
AcDbLayerTableRecord
2
_BLACK_HOLE
70
0
62
7
6
CONTINUOUS
0
LAYER
5
1FE
100
AcDbSymbolTableRecord
100
AcDbLayerTableRecord
2
ASSI
70
0
62
7
6
CONTINUOUS
0
LAYER
5
1FF
100
AcDbSymbolTableRecord
100
AcDbLayerTableRecord
2
COLOR5
70
0
62
7
6
CONTINUOUS
0
LAYER
5
200
100
AcDbSymbolTableRecord
100
AcDbLayerTableRecord
2
COORDINATE
70
0
62
7
6
CONTINUOUS
0
LAYER
5
201
100
AcDbSymbolTableRecord
100
AcDbLayerTableRecord
2
COORD_ORIGINE
70
0
62
7
6
CONTINUOUS
0
LAYER
5
202
100
AcDbSymbolTableRecord
100
AcDbLayerTableRecord
2
COPERCHIO
70
0
62
7
6
CONTINUOUS
0
LAYER
5
203
100
AcDbSymbolTableRecord
100
AcDbLayerTableRecord
2
CORPO
70
0
62
7
6
CONTINUOUS
0
LAYER
5
204
100
AcDbSymbolTableRecord
100
AcDbLayerTableRecord
2
COSMETICI
70
0
62
7
6
CONTINUOUS
0
LAYER
5
205
100
AcDbSymbolTableRecord
100
AcDbLayerTableRecord
2
CURVE
70
0
62
7
6
CONTINUOUS
0
LAYER
5
206
100
AcDbSymbolTableRecord
100
AcDbLayerTableRecord
2
DRAFT
70
0
62
7
6
CONTINUOUS
0
LAYER
5
207
100
AcDbSymbolTableRecord
100
AcDbLayerTableRecord
2
IGES
70
0
62
7
6
CONTINUOUS
0
LAYER
5
208
100
AcDbSymbolTableRecord
100
AcDbLayerTableRecord
2
IGES_SCRITTE
70
0
62
7
6
CONTINUOUS
0
LAYER
5
209
100
AcDbSymbolTableRecord
100
AcDbLayerTableRecord
2
IMPORT
70
0
62
7
6
CONTINUOUS
0
LAYER
5
20A
100
AcDbSymbolTableRecord
100
AcDbLayerTableRecord
2
IMPORT_SCRITTE
70
0
62
7
6
CONTINUOUS
0
LAYER
5
20B
100
AcDbSymbolTableRecord
100
AcDbLayerTableRecord
2
INTFCLR_1
70
0
62
7
6
CONTINUOUS
0
LAYER
5
20C
100
AcDbSymbolTableRecord
100
AcDbLayerTableRecord
2
NOTE
70
0
62
7
6
CONTINUOUS
0
LAYER
5
20D
100
AcDbSymbolTableRecord
100
AcDbLayerTableRecord
2
PIANI
70
0
62
7
6
CONTINUOUS
0
LAYER
5
20E
100
AcDbSymbolTableRecord
100
AcDbLayerTableRecord
2
PIANI_DI_RIFERIMENTO
70
0
62
7
6
CONTINUOUS
0
LAYER
5
20F
100
AcDbSymbolTableRecord
100
AcDbLayerTableRecord
2
PIANI_ORIGINE
70
0
62
7
6
CONTINUOUS
0
LAYER
5
210
100
AcDbSymbolTableRecord
100
AcDbLayerTableRecord
2
PIANI_RIFERIMENTO
70
0
62
7
6
CONTINUOUS
0
LAYER
5
211
100
AcDbSymbolTableRecord
100
AcDbLayerTableRecord
2
PIANI_STAMPO
70
0
62
7
6
CONTINUOUS
0
LAYER
5
212
100
AcDbSymbolTableRecord
100
AcDbLayerTableRecord
2
PUNTI
70
0
62
7
6
CONTINUOUS
0
LAYER
5
213
100
AcDbSymbolTableRecord
100
AcDbLayerTableRecord
2
RACCORDO
70
0
62
7
6
CONTINUOUS
0
LAYER
5
214
100
AcDbSymbolTableRecord
100
AcDbLayerTableRecord
2
SMUSSO
70
0
62
7
6
CONTINUOUS
0
LAYER
5
215
100
AcDbSymbolTableRecord
100
AcDbLayerTableRecord
2
SNAPLINE
70
0
62
7
6
CONTINUOUS
0
LAYER
5
216
100
AcDbSymbolTableRecord
100
AcDbLayerTableRecord
2
SUPERFICI
70
0
62
7
6
CONTINUOUS
0
LAYER
5
217
100
AcDbSymbolTableRecord
100
AcDbLayerTableRecord
2
TRASH
70
0
62
7
6
CONTINUOUS
0
LAYER
5
218
100
AcDbSymbolTableRecord
100
AcDbLayerTableRecord
2
XSEC_DATUMS
70
0
62
7
6
CONTINUOUS
0
ENDTAB
0
TABLE
2
STYLE
5
3
100
AcDbSymbolTable
70
1
0
STYLE
5
11
100
AcDbSymbolTableRecord
100
AcDbTextStyleTableRecord
2
STANDARD
70
0
40
0.0
41
0.8000000000
50
0.0
71
0
42
0.2
3
txt
4

0
ENDTAB
0
TABLE
2
VIEW
5
6
100
AcDbSymbolTable
70
0
0
ENDTAB
0
TABLE
2
UCS
5
7
100
AcDbSymbolTable
70
0
0
ENDTAB
0
TABLE
2
APPID
5
9
100
AcDbSymbolTable
70
1
0
APPID
5
219
100
AcDbSymbolTableRecord
100
AcDbRegAppTableRecord
2
ACAD
70
0
0
ENDTAB
0
TABLE
2
DIMSTYLE
5
A
100
AcDbSymbolTable
70
1
0
DIMSTYLE
105
21A
100
AcDbSymbolTableRecord
100
AcDbDimStyleTableRecord
2
STANDARD
70
0
3

4

5

6

7

40
1.0
41
3.0000000000
42
0.0625
43
0.38
44
0.18
45
0.0
46
0.0
47
0.0100000000
48
0.0100000000
140
3.0000000000
141
0.09
142
0.0
143
25.4
144
1.0000000000
145
0.0
146
1.0000000000
147
0.09
71
1
72
0
73
0
74
0
75
0
76
0
77
1
78
8
170
0
171
2
172
0
173
0
174
0
175
0
176
0
177
0
178
0
270
2
271
2
272
2
273
2
274
2
340
11
275
0
280
0
281
0
282
0
283
1
284
8
285
0
286
0
287
3
288
0
0
ENDTAB
0
TABLE
2
BLOCK_RECORD
5
1
100
AcDbSymbolTable
70
0
0
BLOCK_RECORD
5
1B
100
AcDbSymbolTableRecord
100
AcDbBlockTableRecord
2
*MODEL_SPACE
0
BLOCK_RECORD
5
1C
100
AcDbSymbolTableRecord
100
AcDbBlockTableRecord
2
*PAPER_SPACE
0
ENDTAB
0
ENDSEC
0
SECTION
2
BLOCKS
0
BLOCK
5
1E
100
AcDbEntity
8
0
100
AcDbBlockBegin
2
*MODEL_SPACE
70
0
10
0.0
20
0.0
30
0.0
3
*MODEL_SPACE
1

0
ENDBLK
5
1F
100
AcDbEntity
8
0
100
AcDbBlockEnd
0
BLOCK
5
20
100
AcDbEntity
8
0
100
AcDbBlockBegin
2
*PAPER_SPACE
70
0
10
0.0
20
0.0
30
0.0
3
*PAPER_SPACE
1

0
ENDBLK
5
21
100
AcDbEntity
8
0
100
AcDbBlockEnd
0
ENDSEC
0
SECTION
2
ENTITIES
0
LINE
5
21B
100
AcDbEntity
8
0
100
AcDbLine
62
7
6
CONTINUOUS
10
-70.2231057523
20
-45.9669717273
11
-70.2254127540
21
-45.9655358879
0
LINE
5
21C
100
AcDbEntity
8
0
100
AcDbLine
62
7
6
CONTINUOUS
10
69.6350197310
20
-46.2694776939
11
-69.1202632475
21
-46.2694776939
0
LINE
5
21D
100
AcDbEntity
8
0
100
AcDbLine
62
9
6
CONTINUOUS
10
69.6350197355
20
-46.2645720927
11
-69.1202630702
21
-46.2645720926
0
LINE
5
21E
100
AcDbEntity
8
0
100
AcDbLine
62
7
6
CONTINUOUS
10
72.4720532847
20
-43.0639959850
11
-71.9572959097
21
-43.0639959850
0
LINE
5
21F
100
AcDbEntity
8
0
100
AcDbLine
62
7
6
CONTINUOUS
10
-72.0428022644
20
-42.8767121171
11
72.5575589268
21
-42.8767121171
0
LINE
5
220
100
AcDbEntity
8
0
100
AcDbLine
62
7
6
CONTINUOUS
10
-74.0426216688
20
-41.1455185680
11
-74.0426254111
21
40.5066358673
0
LINE
5
221
100
AcDbEntity
8
0
100
AcDbLine
62
9
6
CONTINUOUS
10
72.4428960537
20
-27.3885597094
11
73.4411986762
21
-27.3610576368
0
LINE
5
222
100
AcDbEntity
8
0
100
AcDbLine
62
9
6
CONTINUOUS
10
-70.9718192466
20
-29.4380799667
11
71.4865759114
21
-29.4380799693
0
LINE
5
223
100
AcDbEntity
8
0
100
AcDbLine
62
9
6
CONTINUOUS
10
-70.9718192680
20
-28.6568950903
11
71.4865759324
21
-28.6568950970
0
LINE
5
224
100
AcDbEntity
8
0
100
AcDbLine
62
7
6
CONTINUOUS
10
37.1573783312
20
-25.9416463930
11
40.1573783312
21
-25.9416463930
0
LINE
5
225
100
AcDbEntity
8
0
100
AcDbLine
62
7
6
CONTINUOUS
10
-36.6426216688
20
-25.9416463930
11
-39.6426216688
21
-25.9416463930
0
LINE
5
226
100
AcDbEntity
8
0
100
AcDbLine
62
7
6
CONTINUOUS
10
37.1922884611
20
-25.2137059245
11
40.1224682014
21
-25.2137059245
0
LINE
5
227
100
AcDbEntity
8
0
100
AcDbLine
62
7
6
CONTINUOUS
10
-36.6775317986
20
-25.2137059245
11
-39.6077115389
21
-25.2137059245
0
LINE
5
228
100
AcDbEntity
8
0
100
AcDbLine
62
9
6
CONTINUOUS
10
-71.9281393900
20
-27.3885596963
11
-72.9264272009
21
-27.3610584278
0
LINE
5
229
100
AcDbEntity
8
0
100
AcDbLine
62
9
6
CONTINUOUS
10
-70.9718192680
20
-28.6568950903
11
-70.9718192662
21
-29.4380799667
0
LINE
5
22A
100
AcDbEntity
8
0
100
AcDbLine
62
9
6
CONTINUOUS
10
-70.7394848610
20
12.1758504994
11
-70.7394848423
21
12.5481781808
0
LINE
5
22B
100
AcDbEntity
8
0
100
AcDbLine
62
9
6
CONTINUOUS
10
-70.2492386204
20
38.9078351680
11
-70.2492386153
21
38.6088921836
0
LINE
5
22C
100
AcDbEntity
8
0
100
AcDbLine
62
9
6
CONTINUOUS
10
-69.1202632612
20
-46.2694776939
11
-69.1202632478
21
-46.2645719929
0
LINE
5
22D
100
AcDbEntity
8
0
100
AcDbLine
62
9
6
CONTINUOUS
10
-68.9298865451
20
32.9227352106
11
-68.9298865974
21
33.8758637701
0
LINE
5
22E
100
AcDbEntity
8
0
100
AcDbLine
62
9
6
CONTINUOUS
10
-71.9572959097
20
-43.0639959850
11
-71.9571452504
21
-43.0375376483
0
LINE
5
22F
100
AcDbEntity
8
0
100
AcDbLine
62
7
6
CONTINUOUS
10
-39.5029676850
20
-19.2137059245
11
-36.6775317986
21
-19.2137059245
0
LINE
5
230
100
AcDbEntity
8
0
100
AcDbLine
62
7
6
CONTINUOUS
10
37.1922884611
20
-19.2137059245
11
40.0177243475
21
-19.2137059245
0
LINE
5
231
100
AcDbEntity
8
0
100
AcDbLine
62
7
6
CONTINUOUS
10
37.3219593312
20
-19.0304688538
11
37.1922884611
21
-19.0304688538
0
LINE
5
232
100
AcDbEntity
8
0
100
AcDbLine
62
7
6
CONTINUOUS
10
37.3219593312
20
-18.9304688538
11
37.1922884611
21
-18.9304688538
0
LINE
5
233
100
AcDbEntity
8
0
100
AcDbLine
62
7
6
CONTINUOUS
10
37.1922884611
20
-18.4975557448
11
37.3099907308
21
-18.4975557448
0
LINE
5
234
100
AcDbEntity
8
0
100
AcDbLine
62
7
6
CONTINUOUS
10
-58.7426216688
20
13.3808256288
11
-58.7426216688
21
21.3037538825
0
LINE
5
235
100
AcDbEntity
8
0
100
AcDbLine
62
7
6
CONTINUOUS
10
-58.7175989958
20
21.9576520942
11
-58.7175989958
21
13.6866237137
0
LINE
5
236
100
AcDbEntity
8
0
100
AcDbLine
62
7
6
CONTINUOUS
10
-58.5426216688
20
23.1882829486
11
-58.5426216688
21
21.3037538825
0
LINE
5
237
100
AcDbEntity
8
0
100
AcDbLine
62
7
6
CONTINUOUS
10
-58.3938909408
20
21.3037538825
11
-58.3938909408
21
12.1758504994
0
LINE
5
238
100
AcDbEntity
8
0
100
AcDbLine
62
7
6
CONTINUOUS
10
37.1573783312
20
-13.2441361073
11
40.1573783312
21
-13.2441361073
0
LINE
5
239
100
AcDbEntity
8
0
100
AcDbLine
62
7
6
CONTINUOUS
10
-36.6426216688
20
-13.2441361073
11
-39.6426216688
21
-13.2441361073
0
LINE
5
23A
100
AcDbEntity
8
0
100
AcDbLine
62
9
6
CONTINUOUS
10
38.2192585466
20
-2.7462461175
11
37.7573783312
21
-2.7462461175
0
LINE
5
23B
100
AcDbEntity
8
0
100
AcDbLine
62
9
6
CONTINUOUS
10
-37.7045018841
20
-2.7462461175
11
-37.2426216688
21
-2.7462461175
0
LINE
5
23C
100
AcDbEntity
8
0
100
AcDbLine
62
9
6
CONTINUOUS
10
-33.2045018841
20
-2.7462461175
11
-32.7426216688
21
-2.7462461175
0
LINE
5
23D
100
AcDbEntity
8
0
100
AcDbLine
62
9
6
CONTINUOUS
10
33.7192585466
20
-2.7462461175
11
33.2573783312
21
-2.7462461175
0
LINE
5
23E
100
AcDbEntity
8
0
100
AcDbLine
62
9
6
CONTINUOUS
10
-31.7807414534
20
-2.7462461175
11
-32.2426216688
21
-2.7462461175
0
LINE
5
23F
100
AcDbEntity
8
0
100
AcDbLine
62
9
6
CONTINUOUS
10
32.2954981159
20
-2.7462461175
11
32.7573783312
21
-2.7462461175
0
LINE
5
240
100
AcDbEntity
8
0
100
AcDbLine
62
9
6
CONTINUOUS
10
-36.2807414534
20
-2.7462461175
11
-36.7426216688
21
-2.7462461175
0
LINE
5
241
100
AcDbEntity
8
0
100
AcDbLine
62
9
6
CONTINUOUS
10
36.7954981159
20
-2.7462461175
11
37.2573783312
21
-2.7462461175
0
LINE
5
242
100
AcDbEntity
8
0
100
AcDbLine
62
9
6
CONTINUOUS
10
8.2192585466
20
-1.9962461175
11
7.7573783312
21
-1.9962461175
0
LINE
5
243
100
AcDbEntity
8
0
100
AcDbLine
62
9
6
CONTINUOUS
10
-7.7045018841
20
-1.9962461175
11
-7.2426216688
21
-1.9962461175
0
LINE
5
244
100
AcDbEntity
8
0
100
AcDbLine
62
9
6
CONTINUOUS
10
6.7954981159
20
-1.9962461175
11
7.2573783312
21
-1.9962461175
0
LINE
5
245
100
AcDbEntity
8
0
100
AcDbLine
62
9
6
CONTINUOUS
10
-6.2807414534
20
-1.9962461175
11
-6.7426216688
21
-1.9962461175
0
LINE
5
246
100
AcDbEntity
8
0
100
AcDbLine
62
9
6
CONTINUOUS
10
38.2192585466
20
-0.2462461175
11
37.7573783312
21
-0.2462461175
0
LINE
5
247
100
AcDbEntity
8
0
100
AcDbLine
62
9
6
CONTINUOUS
10
-37.7045018841
20
-0.2462461175
11
-37.2426216688
21
-0.2462461175
0
LINE
5
248
100
AcDbEntity
8
0
100
AcDbLine
62
9
6
CONTINUOUS
10
-33.2045018841
20
-0.2462461175
11
-32.7426216688
21
-0.2462461175
0
LINE
5
249
100
AcDbEntity
8
0
100
AcDbLine
62
9
6
CONTINUOUS
10
33.7192585466
20
-0.2462461175
11
33.2573783312
21
-0.2462461175
0
LINE
5
24A
100
AcDbEntity
8
0
100
AcDbLine
62
9
6
CONTINUOUS
10
-31.7807414534
20
-0.2462461175
11
-32.2426216688
21
-0.2462461175
0
LINE
5
24B
100
AcDbEntity
8
0
100
AcDbLine
62
9
6
CONTINUOUS
10
32.2954981159
20
-0.2462461175
11
32.7573783312
21
-0.2462461175
0
LINE
5
24C
100
AcDbEntity
8
0
100
AcDbLine
62
9
6
CONTINUOUS
10
-36.2807414534
20
-0.2462461175
11
-36.7426216688
21
-0.2462461175
0
LINE
5
24D
100
AcDbEntity
8
0
100
AcDbLine
62
9
6
CONTINUOUS
10
36.7954981159
20
-0.2462461175
11
37.2573783312
21
-0.2462461175
0
LINE
5
24E
100
AcDbEntity
8
0
100
AcDbLine
62
9
6
CONTINUOUS
10
8.2192585466
20
1.0037538825
11
7.7573783312
21
1.0037538825
0
LINE
5
24F
100
AcDbEntity
8
0
100
AcDbLine
62
9
6
CONTINUOUS
10
-7.7045018841
20
1.0037538825
11
-7.2426216688
21
1.0037538825
0
LINE
5
250
100
AcDbEntity
8
0
100
AcDbLine
62
9
6
CONTINUOUS
10
6.7954981159
20
1.0037538825
11
7.2573783312
21
1.0037538825
0
LINE
5
251
100
AcDbEntity
8
0
100
AcDbLine
62
9
6
CONTINUOUS
10
-6.2807414534
20
1.0037538825
11
-6.7426216688
21
1.0037538825
0
LINE
5
252
100
AcDbEntity
8
0
100
AcDbLine
62
7
6
CONTINUOUS
10
-36.6775317986
20
-25.2137059245
11
-36.6426216688
21
-25.9416463930
0
LINE
5
253
100
AcDbEntity
8
0
100
AcDbLine
62
7
6
CONTINUOUS
10
-39.4692050303
20
-19.2137059245
11
-39.6426216688
21
-13.2441361073
0
LINE
5
254
100
AcDbEntity
8
0
100
AcDbLine
62
7
6
CONTINUOUS
10
-41.0913523968
20
17.1550231545
11
-41.0913523968
21
21.3037538825
0
LINE
5
255
100
AcDbEntity
8
0
100
AcDbLine
62
7
6
CONTINUOUS
10
-40.9426216688
20
17.3037538825
11
-40.9426216688
21
21.3037538825
0
LINE
5
256
100
AcDbEntity
8
0
100
AcDbLine
62
7
6
CONTINUOUS
10
-40.7426216688
20
18.3037538825
11
-40.7426216688
21
21.3037538825
0
LINE
5
257
100
AcDbEntity
8
0
100
AcDbLine
62
7
6
CONTINUOUS
10
-39.6426216688
20
-25.9416463930
11
-39.6426216688
21
-13.2441361073
0
LINE
5
258
100
AcDbEntity
8
0
100
AcDbLine
62
7
6
CONTINUOUS
10
-35.2413070509
20
24.1349868778
11
-35.1100740556
21
24.0037538825
0
LINE
5
259
100
AcDbEntity
8
0
100
AcDbLine
62
7
6
CONTINUOUS
10
-37.7045018841
20
-0.2462461175
11
-37.7045018841
21
-2.7462461175
0
LINE
5
25A
100
AcDbEntity
8
0
100
AcDbLine
62
7
6
CONTINUOUS
10
-37.2426216688
20
-0.2462461175
11
-37.2426216688
21
-2.7462461175
0
LINE
5
25B
100
AcDbEntity
8
0
100
AcDbLine
62
7
6
CONTINUOUS
10
-36.7426216688
20
-2.7462461175
11
-36.7426216688
21
-0.2462461175
0
LINE
5
25C
100
AcDbEntity
8
0
100
AcDbLine
62
7
6
CONTINUOUS
10
-36.6775317986
20
-14.4458573453
11
-36.6775317986
21
-25.2137059245
0
LINE
5
25D
100
AcDbEntity
8
0
100
AcDbLine
62
7
6
CONTINUOUS
10
-36.6426216688
20
-25.9416463930
11
-36.6426216688
21
-13.2441361073
0
LINE
5
25E
100
AcDbEntity
8
0
100
AcDbLine
62
7
6
CONTINUOUS
10
-36.2807414534
20
-2.7462461175
11
-36.2807414534
21
-0.2462461175
0
LINE
5
25F
100
AcDbEntity
8
0
100
AcDbLine
62
7
6
CONTINUOUS
10
-35.2426216688
20
17.5037538825
11
-35.2426216688
21
17.3037538825
0
LINE
5
260
100
AcDbEntity
8
0
100
AcDbLine
62
7
6
CONTINUOUS
10
-35.2413070509
20
24.1349868778
11
-35.2413070509
21
21.0037538825
0
LINE
5
261
100
AcDbEntity
8
0
100
AcDbLine
62
7
6
CONTINUOUS
10
-35.1100740556
20
24.0037538825
11
-35.1100740556
21
21.0037538825
0
LINE
5
262
100
AcDbEntity
8
0
100
AcDbLine
62
7
6
CONTINUOUS
10
-33.2045018841
20
-0.2462461175
11
-33.2045018841
21
-2.7462461175
0
LINE
5
263
100
AcDbEntity
8
0
100
AcDbLine
62
7
6
CONTINUOUS
10
-32.7426216688
20
-0.2462461175
11
-32.7426216688
21
-2.7462461175
0
LINE
5
264
100
AcDbEntity
8
0
100
AcDbLine
62
7
6
CONTINUOUS
10
-32.2426216688
20
-2.7462461175
11
-32.2426216688
21
-0.2462461175
0
LINE
5
265
100
AcDbEntity
8
0
100
AcDbLine
62
7
6
CONTINUOUS
10
-31.7807414534
20
-2.7462461175
11
-31.7807414534
21
-0.2462461175
0
LINE
5
266
100
AcDbEntity
8
0
100
AcDbLine
62
7
6
CONTINUOUS
10
-36.6426216688
20
-13.2441361073
11
-36.8160383073
21
-19.2137059245
0
LINE
5
267
100
AcDbEntity
8
0
100
AcDbLine
62
7
6
CONTINUOUS
10
-39.6077115389
20
-25.2137059245
11
-39.6426216688
21
-25.9416463930
0
LINE
5
268
100
AcDbEntity
8
0
100
AcDbLine
62
9
6
CONTINUOUS
10
70.8076333846
20
19.7980802605
11
71.8048440293
21
19.8306079668
0
LINE
5
269
100
AcDbEntity
8
0
100
AcDbLine
62
9
6
CONTINUOUS
10
73.1254725197
20
19.9455828424
11
72.8996763749
21
19.9401916224
0
LINE
5
26A
100
AcDbEntity
8
0
100
AcDbLine
62
9
6
CONTINUOUS
10
71.2542415234
20
12.1758504994
11
58.9086476032
21
12.1758504994
0
LINE
5
26B
100
AcDbEntity
8
0
100
AcDbLine
62
9
6
CONTINUOUS
10
-58.3938909408
20
12.1758504994
11
-70.7394848609
21
12.1758504994
0
LINE
5
26C
100
AcDbEntity
8
0
100
AcDbLine
62
7
6
CONTINUOUS
10
-70.5277782581
20
12.5406779146
11
-59.5426216688
21
12.5406779146
0
LINE
5
26D
100
AcDbEntity
8
0
100
AcDbLine
62
7
6
CONTINUOUS
10
60.0573783312
20
12.5406779146
11
71.0425349205
21
12.5406779146
0
LINE
5
26E
100
AcDbEntity
8
0
100
AcDbLine
62
9
6
CONTINUOUS
10
59.6605590989
20
12.6521580624
11
58.9390858597
21
12.6521580624
0
LINE
5
26F
100
AcDbEntity
8
0
100
AcDbLine
62
9
6
CONTINUOUS
10
-58.4243291973
20
12.6521580624
11
-59.1457420056
21
12.6521580624
0
LINE
5
270
100
AcDbEntity
8
0
100
AcDbLine
62
7
6
CONTINUOUS
10
-41.0913523968
20
17.1550231545
11
41.6061090592
21
17.1550231545
0
LINE
5
271
100
AcDbEntity
8
0
100
AcDbLine
62
7
6
CONTINUOUS
10
41.4573783312
20
17.3037538825
11
-40.9426216688
21
17.3037538825
0
LINE
5
272
100
AcDbEntity
8
0
100
AcDbLine
62
7
6
CONTINUOUS
10
40.4573783312
20
17.5037538825
11
-39.9426216688
21
17.5037538825
0
LINE
5
273
100
AcDbEntity
8
0
100
AcDbLine
62
9
6
CONTINUOUS
10
-72.6107326684
20
19.9455832434
11
-72.3849197134
21
19.9401915841
0
LINE
5
274
100
AcDbEntity
8
0
100
AcDbLine
62
9
6
CONTINUOUS
10
-70.2928767221
20
19.7980802605
11
-71.2900873654
21
19.8306079668
0
LINE
5
275
100
AcDbEntity
8
0
100
AcDbLine
62
7
6
CONTINUOUS
10
-26.3751692820
20
21.0037538825
11
-26.3751692820
21
24.0037538825
0
LINE
5
276
100
AcDbEntity
8
0
100
AcDbLine
62
7
6
CONTINUOUS
10
-26.2439362867
20
21.0037538825
11
-26.2439362867
21
24.1349868778
0
LINE
5
277
100
AcDbEntity
8
0
100
AcDbLine
62
7
6
CONTINUOUS
10
-26.2426216688
20
17.3037538825
11
-26.2426216688
21
17.5037538825
0
LINE
5
278
100
AcDbEntity
8
0
100
AcDbLine
62
7
6
CONTINUOUS
10
-35.2413070509
20
21.0037538825
11
-26.2439362867
21
21.0037538825
0
LINE
5
279
100
AcDbEntity
8
0
100
AcDbLine
62
7
6
CONTINUOUS
10
26.7586929491
20
21.0037538825
11
35.7560637133
21
21.0037538825
0
LINE
5
27A
100
AcDbEntity
8
0
100
AcDbLine
62
9
6
CONTINUOUS
10
59.0573783312
20
21.3037538825
11
58.9086476032
21
21.3037538825
0
LINE
5
27B
100
AcDbEntity
8
0
100
AcDbLine
62
9
6
CONTINUOUS
10
-58.5426216688
20
21.3037538825
11
-58.3938909408
21
21.3037538825
0
LINE
5
27C
100
AcDbEntity
8
0
100
AcDbLine
62
9
6
CONTINUOUS
10
41.6061090592
20
21.3037538825
11
41.4573783312
21
21.3037538825
0
LINE
5
27D
100
AcDbEntity
8
0
100
AcDbLine
62
9
6
CONTINUOUS
10
-41.0913523968
20
21.3037538825
11
-40.9426216688
21
21.3037538825
0
LINE
5
27E
100
AcDbEntity
8
0
100
AcDbLine
62
7
6
CONTINUOUS
10
35.6248307180
20
21.3037538825
11
26.8899259444
21
21.3037538825
0
LINE
5
27F
100
AcDbEntity
8
0
100
AcDbLine
62
7
6
CONTINUOUS
10
-26.3751692820
20
21.3037538825
11
-35.1100740556
21
21.3037538825
0
LINE
5
280
100
AcDbEntity
8
0
100
AcDbLine
62
9
6
CONTINUOUS
10
5.9648893704
20
21.3966887530
11
-5.4501327079
21
21.3966887530
0
LINE
5
281
100
AcDbEntity
8
0
100
AcDbLine
62
9
6
CONTINUOUS
10
5.9648893704
20
22.1627331961
11
-5.4501327079
21
22.1627331961
0
LINE
5
282
100
AcDbEntity
8
0
100
AcDbLine
62
7
6
CONTINUOUS
10
35.6248307180
20
24.0037538825
11
26.8899259444
21
24.0037538825
0
LINE
5
283
100
AcDbEntity
8
0
100
AcDbLine
62
7
6
CONTINUOUS
10
-26.3751692820
20
24.0037538825
11
-35.1100740556
21
24.0037538825
0
LINE
5
284
100
AcDbEntity
8
0
100
AcDbLine
62
7
6
CONTINUOUS
10
35.7560637133
20
24.1349868778
11
26.7586929491
21
24.1349868778
0
LINE
5
285
100
AcDbEntity
8
0
100
AcDbLine
62
7
6
CONTINUOUS
10
-26.2439362867
20
24.1349868778
11
-35.2413070509
21
24.1349868778
0
LINE
5
286
100
AcDbEntity
8
0
100
AcDbLine
62
9
6
CONTINUOUS
10
-7.2591839132
20
22.2534191494
11
-17.9285008343
21
32.9227360705
0
LINE
5
287
100
AcDbEntity
8
0
100
AcDbLine
62
9
6
CONTINUOUS
10
-6.5700321555
20
22.9425709072
11
-17.2406805407
21
33.6132192925
0
LINE
5
288
100
AcDbEntity
8
0
100
AcDbLine
62
9
6
CONTINUOUS
10
-17.9285023306
20
32.9227360705
11
-17.9285023306
21
33.8758638079
0
LINE
5
289
100
AcDbEntity
8
0
100
AcDbLine
62
9
6
CONTINUOUS
10
-15.1393643084
20
36.2524229421
11
-15.1393643094
21
37.2241716504
0
LINE
5
28A
100
AcDbEntity
8
0
100
AcDbLine
62
9
6
CONTINUOUS
10
70.4270242353
20
31.9266111811
11
71.4239027795
21
31.9567922349
0
LINE
5
28B
100
AcDbEntity
8
0
100
AcDbLine
62
9
6
CONTINUOUS
10
72.7476131325
20
36.9473934144
11
72.4942242642
21
36.9421726262
0
LINE
5
28C
100
AcDbEntity
8
0
100
AcDbLine
62
9
6
CONTINUOUS
10
-11.2015310466
20
31.5485452372
11
11.7162877090
21
31.5485452372
0
LINE
5
28D
100
AcDbEntity
8
0
100
AcDbLine
62
9
6
CONTINUOUS
10
-11.2015310466
20
32.3145896803
11
11.7162877090
21
32.3145896803
0
LINE
5
28E
100
AcDbEntity
8
0
100
AcDbLine
62
9
6
CONTINUOUS
10
69.4446432075
20
32.9227352086
11
18.4432574943
21
32.9227360681
0
LINE
5
28F
100
AcDbEntity
8
0
100
AcDbLine
62
9
6
CONTINUOUS
10
-17.9285008343
20
32.9227360705
11
-68.9298865451
21
32.9227352106
0
LINE
5
290
100
AcDbEntity
8
0
100
AcDbLine
62
9
6
CONTINUOUS
10
69.4446432272
20
33.8758637697
11
18.4445951679
21
33.8758638076
0
LINE
5
291
100
AcDbEntity
8
0
100
AcDbLine
62
9
6
CONTINUOUS
10
-17.9298385060
20
33.8758638079
11
-68.9298865649
21
33.8758637701
0
LINE
5
292
100
AcDbEntity
8
0
100
AcDbLine
62
9
6
CONTINUOUS
10
-72.2328466811
20
36.9473932118
11
-71.9794675960
21
36.9421726523
0
LINE
5
293
100
AcDbEntity
8
0
100
AcDbLine
62
9
6
CONTINUOUS
10
-69.9122675729
20
31.9266111857
11
-70.9091708745
21
31.9567930542
0
LINE
5
294
100
AcDbEntity
8
0
100
AcDbLine
62
9
6
CONTINUOUS
10
-11.8906828043
20
31.6254379226
11
-16.8224730247
21
36.5572281429
0
LINE
5
295
100
AcDbEntity
8
0
100
AcDbLine
62
9
6
CONTINUOUS
10
-11.2015310466
20
32.3145896803
11
-15.1393643084
21
36.2524229421
0
LINE
5
296
100
AcDbEntity
8
0
100
AcDbLine
62
9
6
CONTINUOUS
10
-6.5700321555
20
22.9425709072
11
-11.8906828043
21
31.6254379226
0
LINE
5
297
100
AcDbEntity
8
0
100
AcDbLine
62
9
6
CONTINUOUS
10
-5.4501327079
20
22.1627331961
11
-11.2015310466
21
31.5485452372
0
LINE
5
298
100
AcDbEntity
8
0
100
AcDbLine
62
9
6
CONTINUOUS
10
-11.2015310466
20
32.3145896803
11
-11.2015310466
21
31.5485452372
0
LINE
5
299
100
AcDbEntity
8
0
100
AcDbLine
62
7
6
CONTINUOUS
10
-7.7045018841
20
1.0037538825
11
-7.7045018841
21
-1.9962461175
0
LINE
5
29A
100
AcDbEntity
8
0
100
AcDbLine
62
7
6
CONTINUOUS
10
-7.2426216688
20
1.0037538825
11
-7.2426216688
21
-1.9962461175
0
LINE
5
29B
100
AcDbEntity
8
0
100
AcDbLine
62
9
6
CONTINUOUS
10
15.6541209708
20
36.2524229421
11
-15.1393643084
21
36.2524229421
0
LINE
5
29C
100
AcDbEntity
8
0
100
AcDbLine
62
9
6
CONTINUOUS
10
15.6541209708
20
37.2241716505
11
-15.1393643084
21
37.2241716505
0
LINE
5
29D
100
AcDbEntity
8
0
100
AcDbLine
62
7
6
CONTINUOUS
10
70.5449422920
20
38.6218960485
11
-70.0301856295
21
38.6218960485
0
LINE
5
29E
100
AcDbEntity
8
0
100
AcDbLine
62
9
6
CONTINUOUS
10
-70.2492386202
20
38.9078351680
11
70.7639952818
21
38.9078351680
0
LINE
5
29F
100
AcDbEntity
8
0
100
AcDbLine
62
7
6
CONTINUOUS
10
72.5579622165
20
42.5037538825
11
-72.0431805379
21
42.5037538825
0
LINE
5
2A0
100
AcDbEntity
8
0
100
AcDbLine
62
9
6
CONTINUOUS
10
7.7739405757
20
22.2534191494
11
7.0847888179
21
22.9425709071
0
LINE
5
2A1
100
AcDbEntity
8
0
100
AcDbLine
62
7
6
CONTINUOUS
10
-6.7426216688
20
-1.9962461175
11
-6.7426216688
21
1.0037538825
0
LINE
5
2A2
100
AcDbEntity
8
0
100
AcDbLine
62
7
6
CONTINUOUS
10
-6.2807414534
20
-1.9962461175
11
-6.2807414534
21
1.0037538825
0
LINE
5
2A3
100
AcDbEntity
8
0
100
AcDbLine
62
9
6
CONTINUOUS
10
-5.4501327079
20
21.3966887530
11
-5.4501327079
21
22.1627331961
0
LINE
5
2A4
100
AcDbEntity
8
0
100
AcDbLine
62
7
6
CONTINUOUS
10
-5.2426216688
20
26.3521018100
11
-5.2426216688
21
27.9590708342
0
LINE
5
2A5
100
AcDbEntity
8
0
100
AcDbLine
62
7
6
CONTINUOUS
10
-3.3426216688
20
29.4789435829
11
-3.3426216688
21
29.2931154543
0
LINE
5
2A6
100
AcDbEntity
8
0
100
AcDbLine
62
7
6
CONTINUOUS
10
-41.0913523968
20
17.1550231545
11
-40.9426216688
21
17.3037538825
0
LINE
5
2A7
100
AcDbEntity
8
0
100
AcDbLine
62
9
6
CONTINUOUS
10
-17.2393505729
20
33.6118893246
11
-17.9285023306
21
32.9227375668
0
LINE
5
2A8
100
AcDbEntity
8
0
100
AcDbLine
62
7
6
CONTINUOUS
10
-26.2439362867
20
24.1349868778
11
-26.3751692820
21
24.0037538825
0
LINE
5
2A9
100
AcDbEntity
8
0
100
AcDbLine
62
9
6
CONTINUOUS
10
11.7162877090
20
32.3145896803
11
12.4054394668
21
31.6254379226
0
LINE
5
2AA
100
AcDbEntity
8
0
100
AcDbLine
62
7
6
CONTINUOUS
10
26.7586929491
20
24.1349868778
11
26.8899259444
21
24.0037538825
0
LINE
5
2AB
100
AcDbEntity
8
0
100
AcDbLine
62
9
6
CONTINUOUS
10
18.4432589931
20
32.9227375668
11
17.7541072353
21
33.6118893246
0
LINE
5
2AC
100
AcDbEntity
8
0
100
AcDbLine
62
7
6
CONTINUOUS
10
3.8573783312
20
29.4789435829
11
3.8573783312
21
29.2931154543
0
LINE
5
2AD
100
AcDbEntity
8
0
100
AcDbLine
62
7
6
CONTINUOUS
10
5.7573783312
20
27.9590708342
11
5.7573783312
21
26.3521018100
0
LINE
5
2AE
100
AcDbEntity
8
0
100
AcDbLine
62
9
6
CONTINUOUS
10
5.9648893704
20
21.3966887530
11
5.9648893704
21
22.1627331961
0
LINE
5
2AF
100
AcDbEntity
8
0
100
AcDbLine
62
7
6
CONTINUOUS
10
6.7954981159
20
1.0037538825
11
6.7954981159
21
-1.9962461175
0
LINE
5
2B0
100
AcDbEntity
8
0
100
AcDbLine
62
7
6
CONTINUOUS
10
7.2573783312
20
1.0037538825
11
7.2573783312
21
-1.9962461175
0
LINE
5
2B1
100
AcDbEntity
8
0
100
AcDbLine
62
7
6
CONTINUOUS
10
7.7573783312
20
-1.9962461175
11
7.7573783312
21
1.0037538825
0
LINE
5
2B2
100
AcDbEntity
8
0
100
AcDbLine
62
7
6
CONTINUOUS
10
8.2192585466
20
-1.9962461175
11
8.2192585466
21
1.0037538825
0
LINE
5
2B3
100
AcDbEntity
8
0
100
AcDbLine
62
9
6
CONTINUOUS
10
-11.2015310466
20
32.3145896803
11
-11.8906828043
21
31.6254379226
0
LINE
5
2B4
100
AcDbEntity
8
0
100
AcDbLine
62
7
6
CONTINUOUS
10
41.6061090592
20
17.1550231545
11
41.4573783312
21
17.3037538825
0
LINE
5
2B5
100
AcDbEntity
8
0
100
AcDbLine
62
9
6
CONTINUOUS
10
11.7162877090
20
31.5485452372
11
11.7162877090
21
32.3145896803
0
LINE
5
2B6
100
AcDbEntity
8
0
100
AcDbLine
62
9
6
CONTINUOUS
10
15.6541209708
20
36.2524229421
11
15.6541209708
21
37.2241716505
0
LINE
5
2B7
100
AcDbEntity
8
0
100
AcDbLine
62
9
6
CONTINUOUS
10
-7.2591839132
20
22.2534191494
11
-6.5700321555
21
22.9425709072
0
LINE
5
2B8
100
AcDbEntity
8
0
100
AcDbLine
62
9
6
CONTINUOUS
10
18.4432589931
20
32.9227360681
11
18.4432589931
21
33.8758638076
0
LINE
5
2B9
100
AcDbEntity
8
0
100
AcDbLine
62
9
6
CONTINUOUS
10
11.7162877090
20
31.5485452372
11
5.9648893704
21
22.1627331961
0
LINE
5
2BA
100
AcDbEntity
8
0
100
AcDbLine
62
9
6
CONTINUOUS
10
12.4054394668
20
31.6254379226
11
7.0847888179
21
22.9425709072
0
LINE
5
2BB
100
AcDbEntity
8
0
100
AcDbLine
62
9
6
CONTINUOUS
10
15.6541209708
20
36.2524229421
11
11.7162877090
21
32.3145896803
0
LINE
5
2BC
100
AcDbEntity
8
0
100
AcDbLine
62
9
6
CONTINUOUS
10
17.3372296871
20
36.5572281429
11
12.4054394668
21
31.6254379226
0
LINE
5
2BD
100
AcDbEntity
8
0
100
AcDbLine
62
9
6
CONTINUOUS
10
17.7554372027
20
33.6132192919
11
7.0847888179
21
22.9425709072
0
LINE
5
2BE
100
AcDbEntity
8
0
100
AcDbLine
62
9
6
CONTINUOUS
10
18.4432574943
20
32.9227360681
11
7.7739405757
21
22.2534191494
0
LINE
5
2BF
100
AcDbEntity
8
0
100
AcDbLine
62
7
6
CONTINUOUS
10
26.7573783312
20
17.5037538825
11
26.7573783312
21
17.3037538825
0
LINE
5
2C0
100
AcDbEntity
8
0
100
AcDbLine
62
7
6
CONTINUOUS
10
26.7586929491
20
24.1349868778
11
26.7586929491
21
21.0037538825
0
LINE
5
2C1
100
AcDbEntity
8
0
100
AcDbLine
62
7
6
CONTINUOUS
10
26.8899259444
20
24.0037538825
11
26.8899259444
21
21.0037538825
0
LINE
5
2C2
100
AcDbEntity
8
0
100
AcDbLine
62
7
6
CONTINUOUS
10
32.2954981159
20
-0.2462461175
11
32.2954981159
21
-2.7462461175
0
LINE
5
2C3
100
AcDbEntity
8
0
100
AcDbLine
62
7
6
CONTINUOUS
10
32.7573783312
20
-0.2462461175
11
32.7573783312
21
-2.7462461175
0
LINE
5
2C4
100
AcDbEntity
8
0
100
AcDbLine
62
7
6
CONTINUOUS
10
33.2573783312
20
-2.7462461175
11
33.2573783312
21
-0.2462461175
0
LINE
5
2C5
100
AcDbEntity
8
0
100
AcDbLine
62
7
6
CONTINUOUS
10
33.7192585466
20
-2.7462461175
11
33.7192585466
21
-0.2462461175
0
LINE
5
2C6
100
AcDbEntity
8
0
100
AcDbLine
62
7
6
CONTINUOUS
10
40.1573783312
20
-25.9416463930
11
40.1224682014
21
-25.2137059245
0
LINE
5
2C7
100
AcDbEntity
8
0
100
AcDbLine
62
7
6
CONTINUOUS
10
37.3307949697
20
-19.2137059245
11
37.1573783312
21
-13.2441361073
0
LINE
5
2C8
100
AcDbEntity
8
0
100
AcDbLine
62
7
6
CONTINUOUS
10
35.6248307180
20
21.0037538825
11
35.6248307180
21
24.0037538825
0
LINE
5
2C9
100
AcDbEntity
8
0
100
AcDbLine
62
7
6
CONTINUOUS
10
35.7560637133
20
21.0037538825
11
35.7560637133
21
24.1349868778
0
LINE
5
2CA
100
AcDbEntity
8
0
100
AcDbLine
62
7
6
CONTINUOUS
10
35.7573783312
20
17.3037538825
11
35.7573783312
21
17.5037538825
0
LINE
5
2CB
100
AcDbEntity
8
0
100
AcDbLine
62
7
6
CONTINUOUS
10
36.7954981159
20
-0.2462461175
11
36.7954981159
21
-2.7462461175
0
LINE
5
2CC
100
AcDbEntity
8
0
100
AcDbLine
62
7
6
CONTINUOUS
10
37.1573783312
20
-25.9416463930
11
37.1573783312
21
-13.2441361073
0
LINE
5
2CD
100
AcDbEntity
8
0
100
AcDbLine
62
7
6
CONTINUOUS
10
37.1922884611
20
-25.2137059245
11
37.1922884611
21
-14.4458573453
0
LINE
5
2CE
100
AcDbEntity
8
0
100
AcDbLine
62
7
6
CONTINUOUS
10
37.2573783312
20
-0.2462461175
11
37.2573783312
21
-2.7462461175
0
LINE
5
2CF
100
AcDbEntity
8
0
100
AcDbLine
62
7
6
CONTINUOUS
10
37.7573783312
20
-2.7462461175
11
37.7573783312
21
-0.2462461175
0
LINE
5
2D0
100
AcDbEntity
8
0
100
AcDbLine
62
7
6
CONTINUOUS
10
38.2192585466
20
-2.7462461175
11
38.2192585466
21
-0.2462461175
0
LINE
5
2D1
100
AcDbEntity
8
0
100
AcDbLine
62
7
6
CONTINUOUS
10
40.1573783312
20
-25.9416463930
11
40.1573783312
21
-13.2441361073
0
LINE
5
2D2
100
AcDbEntity
8
0
100
AcDbLine
62
7
6
CONTINUOUS
10
41.2573783312
20
21.3037538825
11
41.2573783312
21
18.3037538825
0
LINE
5
2D3
100
AcDbEntity
8
0
100
AcDbLine
62
7
6
CONTINUOUS
10
41.4573783312
20
21.3037538825
11
41.4573783312
21
17.3037538825
0
LINE
5
2D4
100
AcDbEntity
8
0
100
AcDbLine
62
7
6
CONTINUOUS
10
41.6061090592
20
21.3037538825
11
41.6061090592
21
17.1550231545
0
LINE
5
2D5
100
AcDbEntity
8
0
100
AcDbLine
62
7
6
CONTINUOUS
10
40.1573783312
20
-13.2441361073
11
39.9839616927
21
-19.2137059245
0
LINE
5
2D6
100
AcDbEntity
8
0
100
AcDbLine
62
7
6
CONTINUOUS
10
37.1573783312
20
-25.9416463930
11
37.1922884611
21
-25.2137059245
0
LINE
5
2D7
100
AcDbEntity
8
0
100
AcDbLine
62
7
6
CONTINUOUS
10
35.7560637133
20
24.1349868778
11
35.6248307180
21
24.0037538825
0
LINE
5
2D8
100
AcDbEntity
8
0
100
AcDbLine
62
7
6
CONTINUOUS
10
58.9086476032
20
12.1758504994
11
58.9086476032
21
21.3037538825
0
LINE
5
2D9
100
AcDbEntity
8
0
100
AcDbLine
62
7
6
CONTINUOUS
10
59.0573783312
20
23.1882829486
11
59.0573783312
21
21.3037538825
0
LINE
5
2DA
100
AcDbEntity
8
0
100
AcDbLine
62
7
6
CONTINUOUS
10
59.2323556583
20
21.9576520942
11
59.2323556583
21
13.6866237137
0
LINE
5
2DB
100
AcDbEntity
8
0
100
AcDbLine
62
7
6
CONTINUOUS
10
59.2573783312
20
13.3808256288
11
59.2573783312
21
21.3037538825
0
LINE
5
2DC
100
AcDbEntity
8
0
100
AcDbLine
62
9
6
CONTINUOUS
10
72.4720532847
20
-43.0639959850
11
72.4719019092
21
-43.0375376483
0
LINE
5
2DD
100
AcDbEntity
8
0
100
AcDbLine
62
9
6
CONTINUOUS
10
69.4446432075
20
32.9227352086
11
69.4446432295
21
33.8758637697
0
LINE
5
2DE
100
AcDbEntity
8
0
100
AcDbLine
62
9
6
CONTINUOUS
10
69.6350197310
20
-46.2694776939
11
69.6350197543
21
-46.2645720927
0
LINE
5
2DF
100
AcDbEntity
8
0
100
AcDbLine
62
9
6
CONTINUOUS
10
70.7639952820
20
38.9078351680
11
70.7639952915
21
38.6088921850
0
LINE
5
2E0
100
AcDbEntity
8
0
100
AcDbLine
62
9
6
CONTINUOUS
10
71.2542415234
20
12.1758504994
11
71.2542415234
21
12.5481769197
0
LINE
5
2E1
100
AcDbEntity
8
0
100
AcDbLine
62
9
6
CONTINUOUS
10
71.4865759324
20
-28.6568950970
11
71.4865759287
21
-29.4380799494
0
LINE
5
2E2
100
AcDbEntity
8
0
100
AcDbLine
62
7
6
CONTINUOUS
10
74.5573820735
20
40.5066358677
11
74.5573783312
21
-41.1455185680
0
LINE
5
2E3
100
AcDbEntity
8
0
100
AcDbLine
62
7
6
CONTINUOUS
10
70.7398916497
20
-45.9657090271
11
70.7378829108
21
-45.9669590016
0
CIRCLE
5
2E4
100
AcDbEntity
8
0
100
AcDbCircle
62
7
6
CONTINUOUS
10
-57.7426216688
20
-20.4962461175
40
6.0000000000
0
CIRCLE
5
2E5
100
AcDbEntity
8
0
100
AcDbCircle
62
7
6
CONTINUOUS
10
-57.7426216688
20
-20.4962461175
40
4.0481345110
0
CIRCLE
5
2E6
100
AcDbEntity
8
0
100
AcDbCircle
62
7
6
CONTINUOUS
10
58.2573783312
20
-20.4962461175
40
6.0000000000
0
CIRCLE
5
2E7
100
AcDbEntity
8
0
100
AcDbCircle
62
7
6
CONTINUOUS
10
58.2573783312
20
-20.4962461175
40
4.0481345110
0
CIRCLE
5
2E8
100
AcDbEntity
8
0
100
AcDbCircle
62
7
6
CONTINUOUS
10
-49.7426216688
20
21.3037538825
40
6.0000000000
0
CIRCLE
5
2E9
100
AcDbEntity
8
0
100
AcDbCircle
62
7
6
CONTINUOUS
10
-49.7426216688
20
21.3037538825
40
4.0481345110
0
CIRCLE
5
2EA
100
AcDbEntity
8
0
100
AcDbCircle
62
7
6
CONTINUOUS
10
50.2573783312
20
21.3037538825
40
6.0000000000
0
CIRCLE
5
2EB
100
AcDbEntity
8
0
100
AcDbCircle
62
7
6
CONTINUOUS
10
50.2573783312
20
21.3037538825
40
4.0481345110
0
ARC
5
2EC
100
AcDbEntity
8
0
100
AcDbCircle
62
7
6
CONTINUOUS
10
50.2573783312
20
21.3037538825
40
9.0000000000
100
AcDbArc
50
0.0000000000
51
180.0000000000
0
ARC
5
2ED
100
AcDbEntity
8
0
100
AcDbCircle
62
7
6
CONTINUOUS
10
40.4573783312
20
18.3037538825
40
0.8000000000
100
AcDbArc
50
270.0000000000
51
360.0000000000
0
ARC
5
2EE
100
AcDbEntity
8
0
100
AcDbCircle
62
7
6
CONTINUOUS
10
-39.9426216688
20
18.3037538825
40
0.8000000000
100
AcDbArc
50
180.0000000000
51
270.0000000000
0
ARC
5
2EF
100
AcDbEntity
8
0
100
AcDbCircle
62
7
6
CONTINUOUS
10
-49.7426216688
20
21.3037538825
40
9.0000000000
100
AcDbArc
50
0.0000000000
51
180.0000000000
0
ARC
5
2F0
100
AcDbEntity
8
0
100
AcDbCircle
62
7
6
CONTINUOUS
10
50.2573783312
20
21.3037538825
40
8.8000000000
100
AcDbArc
50
0.0000000000
51
180.0000000000
0
CIRCLE
5
2F1
100
AcDbEntity
8
0
100
AcDbCircle
62
7
6
CONTINUOUS
10
-57.7426216688
20
-20.4962461175
40
6.8660254038
0
CIRCLE
5
2F2
100
AcDbEntity
8
0
100
AcDbCircle
62
7
6
CONTINUOUS
10
58.2573783312
20
-20.4962461175
40
6.8660254038
0
CIRCLE
5
2F3
100
AcDbEntity
8
0
100
AcDbCircle
62
7
6
CONTINUOUS
10
-49.7426216688
20
21.3037538825
40
6.8660254038
0
ARC
5
2F4
100
AcDbEntity
8
0
100
AcDbCircle
62
7
6
CONTINUOUS
10
-49.7426216688
20
21.3037538825
40
8.8000000000
100
AcDbArc
50
0.0000000000
51
180.0000000000
0
CIRCLE
5
2F5
100
AcDbEntity
8
0
100
AcDbCircle
62
7
6
CONTINUOUS
10
50.2573783312
20
21.3037538825
40
6.8660254038
0
ARC
5
2F6
100
AcDbEntity
8
0
100
AcDbCircle
62
7
6
CONTINUOUS
10
35.2573783312
20
-2.7462461175
40
2.9618802154
100
AcDbArc
50
180.0000000000
51
360.0000000000
0
ARC
5
2F7
100
AcDbEntity
8
0
100
AcDbCircle
62
7
6
CONTINUOUS
10
35.2573783312
20
-0.2462461175
40
2.9618802154
100
AcDbArc
50
0.0000000000
51
180.0000000000
0
ARC
5
2F8
100
AcDbEntity
8
0
100
AcDbCircle
62
7
6
CONTINUOUS
10
35.2573783312
20
-0.2462461175
40
1.5381197846
100
AcDbArc
50
0.0000000000
51
180.0000000000
0
ARC
5
2F9
100
AcDbEntity
8
0
100
AcDbCircle
62
7
6
CONTINUOUS
10
35.2573783312
20
-2.7462461175
40
1.5381197846
100
AcDbArc
50
180.0000000000
51
360.0000000000
0
ARC
5
2FA
100
AcDbEntity
8
0
100
AcDbCircle
62
7
6
CONTINUOUS
10
-34.7426216688
20
-2.7462461175
40
2.9618802154
100
AcDbArc
50
180.0000000000
51
360.0000000000
0
ARC
5
2FB
100
AcDbEntity
8
0
100
AcDbCircle
62
7
6
CONTINUOUS
10
-34.7426216688
20
-0.2462461175
40
2.9618802154
100
AcDbArc
50
0.0000000000
51
180.0000000000
0
ARC
5
2FC
100
AcDbEntity
8
0
100
AcDbCircle
62
7
6
CONTINUOUS
10
-34.7426216688
20
-0.2462461175
40
1.5381197846
100
AcDbArc
50
0.0000000000
51
180.0000000000
0
ARC
5
2FD
100
AcDbEntity
8
0
100
AcDbCircle
62
7
6
CONTINUOUS
10
-34.7426216688
20
-2.7462461175
40
1.5381197846
100
AcDbArc
50
180.0000000000
51
360.0000000000
0
ARC
5
2FE
100
AcDbEntity
8
0
100
AcDbCircle
62
7
6
CONTINUOUS
10
0.2573783312
20
1.0037538825
40
6.5381197846
100
AcDbArc
50
0.0000000000
51
180.0000000000
0
ARC
5
2FF
100
AcDbEntity
8
0
100
AcDbCircle
62
7
6
CONTINUOUS
10
0.2573783312
20
-1.9962461175
40
6.5381197846
100
AcDbArc
50
180.0000000000
51
360.0000000000
0
ARC
5
300
100
AcDbEntity
8
0
100
AcDbCircle
62
7
6
CONTINUOUS
10
0.2573783312
20
-1.9962461175
40
7.9618802154
100
AcDbArc
50
180.0000000000
51
360.0000000000
0
ARC
5
301
100
AcDbEntity
8
0
100
AcDbCircle
62
7
6
CONTINUOUS
10
0.2573783312
20
1.0037538825
40
7.5000000000
100
AcDbArc
50
0.0000000000
51
180.0000000000
0
ARC
5
302
100
AcDbEntity
8
0
100
AcDbCircle
62
7
6
CONTINUOUS
10
0.2573783312
20
-1.9962461175
40
7.5000000000
100
AcDbArc
50
180.0000000000
51
360.0000000000
0
ARC
5
303
100
AcDbEntity
8
0
100
AcDbCircle
62
7
6
CONTINUOUS
10
0.2573783312
20
1.0037538825
40
7.0000000000
100
AcDbArc
50
0.0000000000
51
180.0000000000
0
ARC
5
304
100
AcDbEntity
8
0
100
AcDbCircle
62
7
6
CONTINUOUS
10
0.2573783312
20
-1.9962461175
40
7.0000000000
100
AcDbArc
50
180.0000000000
51
360.0000000000
0
ARC
5
305
100
AcDbEntity
8
0
100
AcDbCircle
62
7
6
CONTINUOUS
10
-34.7426216688
20
-0.2462461175
40
2.0000000000
100
AcDbArc
50
0.0000000000
51
180.0000000000
0
ARC
5
306
100
AcDbEntity
8
0
100
AcDbCircle
62
7
6
CONTINUOUS
10
0.2573783312
20
1.0037538825
40
7.9618802154
100
AcDbArc
50
0.0000000000
51
180.0000000000
0
ARC
5
307
100
AcDbEntity
8
0
100
AcDbCircle
62
7
6
CONTINUOUS
10
-34.7426216688
20
-2.7462461175
40
2.0000000000
100
AcDbArc
50
180.0000000000
51
360.0000000000
0
ARC
5
308
100
AcDbEntity
8
0
100
AcDbCircle
62
7
6
CONTINUOUS
10
-34.7426216688
20
-0.2462461175
40
2.5000000000
100
AcDbArc
50
0.0000000000
51
180.0000000000
0
ARC
5
309
100
AcDbEntity
8
0
100
AcDbCircle
62
7
6
CONTINUOUS
10
-34.7426216688
20
-2.7462461175
40
2.5000000000
100
AcDbArc
50
180.0000000000
51
360.0000000000
0
ARC
5
30A
100
AcDbEntity
8
0
100
AcDbCircle
62
7
6
CONTINUOUS
10
35.2573783312
20
-0.2462461175
40
2.0000000000
100
AcDbArc
50
0.0000000000
51
180.0000000000
0
ARC
5
30B
100
AcDbEntity
8
0
100
AcDbCircle
62
7
6
CONTINUOUS
10
35.2573783312
20
-2.7462461175
40
2.0000000000
100
AcDbArc
50
180.0000000000
51
360.0000000000
0
ARC
5
30C
100
AcDbEntity
8
0
100
AcDbCircle
62
7
6
CONTINUOUS
10
35.2573783312
20
-0.2462461175
40
2.5000000000
100
AcDbArc
50
0.0000000000
51
180.0000000000
0
ARC
5
30D
100
AcDbEntity
8
0
100
AcDbCircle
62
7
6
CONTINUOUS
10
35.2573783312
20
-2.7462461175
40
2.5000000000
100
AcDbArc
50
180.0000000000
51
360.0000000000
0
ARC
5
30E
100
AcDbEntity
8
0
100
AcDbCircle
62
7
6
CONTINUOUS
10
-49.7426216688
20
21.3037538825
40
8.6512692720
100
AcDbArc
50
0.0000000000
51
180.0000000000
0
ARC
5
30F
100
AcDbEntity
8
0
100
AcDbCircle
62
7
6
CONTINUOUS
10
50.2573783312
20
21.3037538825
40
8.6512692720
100
AcDbArc
50
0.0000000000
51
180.0000000000
0
SPLINE
5
310
100
AcDbEntity
8
0
100
AcDbSpline
62
7
6
CONTINUOUS
70
0
71
3
72
11
73
7
74
5
42
0.0000001000
43
0.0000001000
44
0.0000000001
12
0.0000000000
22
-1.2800843460
32
0.0000000000
13
1.2800843460
23
0.0000000000
33
0.0000000000
40
0.0000000000
40
0.0000000000
40
0.0000000000
40
0.0000000000
40
0.2599718425
40
0.5131415236
40
0.7599088721
40
1.0000000000
40
1.0000000000
40
1.0000000000
40
1.0000000000
10
59.2573783312
20
13.3808256288
30
0.0000000000
10
59.2573783312
20
13.2698970001
30
0.0000000000
10
59.2995138963
20
13.0486135603
30
0.0000000000
10
59.4791135971
20
12.7692576413
30
0.0000000000
10
59.7448656079
20
12.5839033337
30
0.0000000000
10
59.9549326997
20
12.5406779146
30
0.0000000000
10
60.0573783312
20
12.5406779146
30
0.0000000000
11
59.2573783312
21
13.3808256288
31
0.0000000000
11
59.3203860246
21
13.0540589284
31
0.0000000000
11
59.4963661970
21
12.7819231484
31
0.0000000000
11
59.7563140791
21
12.6024539845
31
0.0000000000
11
60.0573783312
21
12.5406779146
31
0.0000000000
0
SPLINE
5
311
100
AcDbEntity
8
0
100
AcDbSpline
62
7
6
CONTINUOUS
70
0
71
3
72
11
73
7
74
5
42
0.0000001000
43
0.0000001000
44
0.0000000001
12
1.2800839881
22
0.0000000000
32
0.0000000000
13
0.0000000000
23
1.2800839881
33
0.0000000000
40
0.0000000000
40
0.0000000000
40
0.0000000000
40
0.0000000000
40
0.2404565417
40
0.4874220317
40
0.7404755609
40
1.0000000000
40
1.0000000000
40
1.0000000000
40
1.0000000000
10
-59.5426216688
20
12.5406779146
30
0.0000000000
10
-59.4400201458
20
12.5406779146
30
0.0000000000
10
-59.2297026511
20
12.5840239693
30
0.0000000000
10
-58.9639241968
20
12.7697023294
30
0.0000000000
10
-58.7846346595
20
13.0490572074
30
0.0000000000
10
-58.7426216688
20
13.2700879358
30
0.0000000000
10
-58.7426216688
20
13.3808256288
30
0.0000000000
11
-59.5426216688
21
12.5406779146
31
0.0000000000
11
-59.2411184742
21
12.6026414223
31
0.0000000000
11
-58.9810982249
21
12.7824518793
31
0.0000000000
11
-58.8054118659
21
13.0546003676
31
0.0000000000
11
-58.7426216688
21
13.3808256288
31
0.0000000000
0
SPLINE
5
312
100
AcDbEntity
8
0
100
AcDbSpline
62
7
6
CONTINUOUS
70
0
71
3
72
12
73
8
74
6
42
0.0000001000
43
0.0000001000
44
0.0000000001
12
3.0856562875
22
-0.0000090782
32
0.0000000000
13
0.0644619499
23
-3.0849828819
33
0.0000000000
40
0.0000000000
40
0.0000000000
40
0.0000000000
40
0.0000000000
40
0.1965085884
40
0.3956952425
40
0.5944864266
40
0.7972682121
40
1.0000000000
40
1.0000000000
40
1.0000000000
40
1.0000000000
10
70.5449422920
20
38.6218960485
30
0.0000000000
10
70.7470616124
20
38.6218954538
30
0.0000000000
10
71.1568789575
20
38.5580357387
30
0.0000000000
10
71.7110496111
20
38.2771981983
30
0.0000000000
10
72.1567144586
20
37.8346662072
30
0.0000000000
10
72.4475174655
20
37.2744363421
30
0.0000000000
10
72.5198986457
20
36.8559561515
30
0.0000000000
10
72.5242548078
20
36.6474814531
30
0.0000000000
11
70.5449422920
21
38.6218960485
31
0.0000000000
11
71.1440042852
21
38.5281159571
31
0.0000000000
11
71.6924420024
21
38.2506709676
31
0.0000000000
11
72.1281073848
21
37.8188645423
31
0.0000000000
11
72.4168440303
21
37.2637516934
31
0.0000000000
11
72.5242548078
21
36.6474814531
31
0.0000000000
0
SPLINE
5
313
100
AcDbEntity
8
0
100
AcDbSpline
62
7
6
CONTINUOUS
70
0
71
3
72
12
73
8
74
6
42
0.0000001000
43
0.0000001000
44
0.0000000001
12
0.0644617378
22
3.0849828801
32
0.0000000000
13
3.0856562813
23
0.0000108584
33
0.0000000000
40
0.0000000000
40
0.0000000000
40
0.0000000000
40
0.0000000000
40
0.2027317880
40
0.4055135736
40
0.6043047577
40
0.8034914116
40
1.0000000000
40
1.0000000000
40
1.0000000000
40
1.0000000000
10
-72.0094981454
20
36.6474814531
30
0.0000000000
10
-72.0051419976
20
36.8559561515
30
0.0000000000
10
-71.9327607937
20
37.2744363396
30
0.0000000000
10
-71.6419577945
20
37.8346662080
30
0.0000000000
10
-71.1962929448
20
38.2771981793
30
0.0000000000
10
-70.6421222919
20
38.5580357834
30
0.0000000000
10
-70.2323049495
20
38.6218953372
30
0.0000000000
10
-70.0301856295
20
38.6218960485
30
0.0000000000
11
-72.0094981454
21
36.6474814531
31
0.0000000000
11
-71.9020873657
21
37.2637516921
31
0.0000000000
11
-71.6133507190
21
37.8188645391
31
0.0000000000
11
-71.1776853364
21
38.2506709627
31
0.0000000000
11
-70.6292476204
21
38.5281159505
31
0.0000000000
11
-70.0301856295
21
38.6218960485
31
0.0000000000
0
SPLINE
5
314
100
AcDbEntity
8
0
100
AcDbSpline
62
7
6
CONTINUOUS
70
0
71
3
72
10
73
6
74
4
42
0.0000001000
43
0.0000001000
44
0.0000000001
12
0.4029142532
22
16.7131850657
32
0.0000000000
13
0.3492604042
23
16.7143923642
33
0.0000000000
40
0.0000000000
40
0.0000000000
40
0.0000000000
40
0.0000000000
40
0.3189676999
40
0.6523004257
40
1.0000000000
40
1.0000000000
40
1.0000000000
40
1.0000000000
10
-72.3850760107
20
19.9336661413
30
0.0000000000
10
-72.3422371331
20
21.7106548741
30
0.0000000000
10
-72.2565874524
20
25.3447082636
30
0.0000000000
10
-72.1312494048
20
30.9159798701
30
0.0000000000
10
-72.0499773766
20
34.7102857501
30
0.0000000000
10
-72.0094981454
20
36.6474814531
30
0.0000000000
11
-72.3850760107
21
19.9336661413
31
0.0000000000
11
-72.2594041641
21
25.2647001612
31
0.0000000000
11
-72.1340292685
21
30.8359598073
31
0.0000000000
11
-72.0094981454
21
36.6474814531
31
0.0000000000
0
SPLINE
5
315
100
AcDbEntity
8
0
100
AcDbSpline
62
7
6
CONTINUOUS
70
0
71
3
72
8
73
4
74
2
42
0.0000001000
43
0.0000001000
44
0.0000000001
12
0.0000000000
22
-0.8609204854
32
0.0000000000
13
-0.3087736836
23
-0.8091343652
33
0.0000000000
40
0.0000000000
40
0.0000000000
40
0.0000000000
40
0.0000000000
40
1.0000000000
40
1.0000000000
40
1.0000000000
40
1.0000000000
10
5.7573783312
20
26.3521018100
30
0.0000000000
10
5.7573783312
20
26.0651283149
30
0.0000000000
10
5.7005201557
20
25.7758501694
30
0.0000000000
10
5.5975955945
20
25.5061387144
30
0.0000000000
11
5.7573783312
21
26.3521018100
31
0.0000000000
11
5.5975955945
21
25.5061387144
31
0.0000000000
0
SPLINE
5
316
100
AcDbEntity
8
0
100
AcDbSpline
62
7
6
CONTINUOUS
70
0
71
3
72
19
73
15
74
13
42
0.0000001000
43
0.0000001000
44
0.0000000001
12
-4.8293265366
22
-12.6551395698
32
0.0000000000
13
0.0000000000
23
13.4650922885
33
0.0000000000
40
0.0000000000
40
0.0000000000
40
0.0000000000
40
0.0000000000
40
0.0687100523
40
0.1451434375
40
0.2299629264
40
0.3219855881
40
0.4187928796
40
0.5172699065
40
0.6140771980
40
0.7060998598
40
0.7909193487
40
0.8673527339
40
0.9360627861
40
1.0000000000
40
1.0000000000
40
1.0000000000
40
1.0000000000
10
5.5975955945
20
25.5061387144
30
0.0000000000
10
5.4869878349
20
25.2162936139
30
0.0000000000
10
5.1409580914
20
24.6517574404
30
0.0000000000
10
4.3673549767
20
23.9516458645
30
0.0000000000
10
3.3670221134
20
23.3950813043
30
0.0000000000
10
2.1949968482
20
23.0073019417
30
0.0000000000
10
0.9154597737
20
22.8081233838
30
0.0000000000
10
-0.4007031112
20
22.8081233838
30
0.0000000000
10
-1.6802401857
20
23.0073019417
30
0.0000000000
10
-2.8522654509
20
23.3950813043
30
0.0000000000
10
-3.8525983142
20
23.9516458645
30
0.0000000000
10
-4.6262014290
20
24.6517574404
30
0.0000000000
10
-5.1246609212
20
25.4649777480
30
0.0000000000
10
-5.2426216688
20
26.0651283149
30
0.0000000000
10
-5.2426216688
20
26.3521018100
30
0.0000000000
11
5.5975955945
21
25.5061387144
31
0.0000000000
11
5.1274951722
21
24.7092843118
31
0.0000000000
11
4.3743521300
21
24.0078626467
31
0.0000000000
11
3.3819097667
21
23.4426585279
31
0.0000000000
11
2.2078380787
21
23.0465414956
31
0.0000000000
11
0.9203794594
21
22.8425503611
31
0.0000000000
11
-0.4056227969
21
22.8425503611
31
0.0000000000
11
-1.6930814162
21
23.0465414956
31
0.0000000000
11
-2.8671531042
21
23.4426585279
31
0.0000000000
11
-3.8595954675
21
24.0078626467
31
0.0000000000
11
-4.6127385098
21
24.7092843118
31
0.0000000000
11
-5.0828389320
21
25.5061387144
31
0.0000000000
11
-5.2426216688
21
26.3521018100
31
0.0000000000
0
SPLINE
5
317
100
AcDbEntity
8
0
100
AcDbSpline
62
7
6
CONTINUOUS
70
0
71
3
72
8
73
4
74
2
42
0.0000001000
43
0.0000001000
44
0.0000000001
12
0.0057899407
22
-0.3036058606
32
0.0000000000
13
0.0000000000
23
-0.3005880555
33
0.0000000000
40
0.0000000000
40
0.0000000000
40
0.0000000000
40
0.0000000000
40
1.0000000000
40
1.0000000000
40
1.0000000000
40
1.0000000000
10
-26.5721486410
20
21.3037474989
30
0.0000000000
10
-26.5702186608
20
21.2025455454
30
0.0000000000
10
-26.5676443417
20
21.1039499010
30
0.0000000000
10
-26.5676443417
20
21.0037538825
30
0.0000000000
11
-26.5721486410
21
21.3037474989
31
0.0000000000
11
-26.5676443417
21
21.0037538825
31
0.0000000000
0
SPLINE
5
318
100
AcDbEntity
8
0
100
AcDbSpline
62
7
6
CONTINUOUS
70
0
71
3
72
8
73
4
74
2
42
0.0000001000
43
0.0000001000
44
0.0000000001
12
-0.0057899246
22
-0.3036058750
32
0.0000000000
13
0.0000000000
23
-0.3005880497
33
0.0000000000
40
0.0000000000
40
0.0000000000
40
0.0000000000
40
0.0000000000
40
1.0000000000
40
1.0000000000
40
1.0000000000
40
1.0000000000
10
-34.9130947016
20
21.3037474990
30
0.0000000000
10
-34.9150246765
20
21.2025455407
30
0.0000000000
10
-34.9175989958
20
21.1039498991
30
0.0000000000
10
-34.9175989958
20
21.0037538825
30
0.0000000000
11
-34.9130947016
21
21.3037474990
31
0.0000000000
11
-34.9175989958
21
21.0037538825
31
0.0000000000
0
SPLINE
5
319
100
AcDbEntity
8
0
100
AcDbSpline
62
7
6
CONTINUOUS
70
0
71
3
72
8
73
4
74
2
42
0.0000001000
43
0.0000001000
44
0.0000000001
12
0.0057899407
22
-0.3036058606
32
0.0000000000
13
0.0000000000
23
-0.3005880555
33
0.0000000000
40
0.0000000000
40
0.0000000000
40
0.0000000000
40
0.0000000000
40
1.0000000000
40
1.0000000000
40
1.0000000000
40
1.0000000000
10
35.4278513590
20
21.3037474989
30
0.0000000000
10
35.4297813392
20
21.2025455454
30
0.0000000000
10
35.4323556583
20
21.1039499010
30
0.0000000000
10
35.4323556583
20
21.0037538825
30
0.0000000000
11
35.4278513590
21
21.3037474989
31
0.0000000000
11
35.4323556583
21
21.0037538825
31
0.0000000000
0
SPLINE
5
31A
100
AcDbEntity
8
0
100
AcDbSpline
62
7
6
CONTINUOUS
70
0
71
3
72
8
73
4
74
2
42
0.0000001000
43
0.0000001000
44
0.0000000001
12
-0.0057899246
22
-0.3036058750
32
0.0000000000
13
0.0000000000
23
-0.3005880497
33
0.0000000000
40
0.0000000000
40
0.0000000000
40
0.0000000000
40
0.0000000000
40
1.0000000000
40
1.0000000000
40
1.0000000000
40
1.0000000000
10
27.0869052984
20
21.3037474990
30
0.0000000000
10
27.0849753235
20
21.2025455407
30
0.0000000000
10
27.0824010042
20
21.1039498991
30
0.0000000000
10
27.0824010042
20
21.0037538825
30
0.0000000000
11
27.0869052984
21
21.3037474990
31
0.0000000000
11
27.0824010042
21
21.0037538825
31
0.0000000000
0
SPLINE
5
31B
100
AcDbEntity
8
0
100
AcDbSpline
62
7
6
CONTINUOUS
70
0
71
3
72
10
73
6
74
4
42
0.0000001000
43
0.0000001000
44
0.0000000001
12
0.3492596702
22
-16.7143923796
32
0.0000000000
13
0.4029142532
23
-16.7131850657
33
0.0000000000
40
0.0000000000
40
0.0000000000
40
0.0000000000
40
0.0000000000
40
0.3477034183
40
0.6810361442
40
1.0000000000
40
1.0000000000
40
1.0000000000
40
1.0000000000
10
72.5242548078
20
36.6474814531
30
0.0000000000
10
72.5647344015
20
34.7102643316
30
0.0000000000
10
72.6460070336
20
30.9159370376
30
0.0000000000
10
72.7713451020
20
25.3446654316
30
0.0000000000
10
72.8569943119
20
21.7106334583
30
0.0000000000
10
72.8998326731
20
19.9336661413
30
0.0000000000
11
72.5242548078
21
36.6474814531
31
0.0000000000
11
72.6487873424
21
30.8358955587
31
0.0000000000
11
72.7741623071
21
25.2646359122
31
0.0000000000
11
72.8998326731
21
19.9336661413
31
0.0000000000
0
SPLINE
5
31C
100
AcDbEntity
8
0
100
AcDbSpline
62
7
6
CONTINUOUS
70
0
71
3
72
12
73
8
74
6
42
0.0000001000
43
0.0000001000
44
0.0000000001
12
-1.0739308302
22
0.0000000000
32
0.0000000000
13
-0.1848690393
23
1.0578992704
33
0.0000000000
40
0.0000000000
40
0.0000000000
40
0.0000000000
40
0.0000000000
40
0.2726386328
40
0.5245020940
40
0.7354744859
40
0.8939879070
40
1.0000000000
40
1.0000000000
40
1.0000000000
40
1.0000000000
10
-70.5277791939
20
12.5406779146
30
0.0000000000
10
-70.6253775383
20
12.5406779146
30
0.0000000000
10
-70.8132923776
20
12.5494833447
30
0.0000000000
10
-71.0741972482
20
12.5874033702
30
0.0000000000
10
-71.2894172660
20
12.6488771553
30
0.0000000000
10
-71.4426896218
20
12.7221092957
30
0.0000000000
10
-71.5100765987
20
12.8010979700
30
0.0000000000
10
-71.5166093833
20
12.8384813419
30
0.0000000000
11
-70.5277791939
21
12.5406779146
31
0.0000000000
11
-70.8202354019
21
12.5547597448
31
0.0000000000
11
-71.0875561479
21
12.5960050878
31
0.0000000000
11
-71.3046924886
21
12.6607017947
31
0.0000000000
11
-71.4531923689
21
12.7439296299
31
0.0000000000
11
-71.5166093833
21
12.8384813419
31
0.0000000000
0
SPLINE
5
31D
100
AcDbEntity
8
0
100
AcDbSpline
62
7
6
CONTINUOUS
70
0
71
3
72
10
73
6
74
4
42
0.0000001000
43
0.0000001000
44
0.0000000001
12
-0.3498362657
22
1.7942275412
32
0.0000000000
13
-0.4026568121
23
1.7831167584
33
0.0000000000
40
0.0000000000
40
0.0000000000
40
0.0000000000
40
0.0000000000
40
0.3525319938
40
0.6858566836
40
1.0000000000
40
1.0000000000
40
1.0000000000
40
1.0000000000
10
-71.9540445000
20
15.2140773154
30
0.0000000000
10
-71.9951539921
20
15.4249181862
30
0.0000000000
10
-72.0768422666
20
15.8347823694
30
0.0000000000
10
-72.2015149853
20
16.4312388087
30
0.0000000000
10
-72.2861801332
20
16.8165836320
30
0.0000000000
10
-72.3283441154
20
17.0033017026
30
0.0000000000
11
-71.9540445000
21
15.2140773154
31
0.0000000000
11
-72.0801389979
21
15.8460543291
31
0.0000000000
11
-72.2049515466
21
16.4424566013
31
0.0000000000
11
-72.3283441154
21
17.0033017026
31
0.0000000000
0
SPLINE
5
31E
100
AcDbEntity
8
0
100
AcDbSpline
62
7
6
CONTINUOUS
70
0
71
3
72
10
73
6
74
4
42
0.0000001000
43
0.0000001000
44
0.0000000001
12
-0.4158217108
22
2.3795087388
32
0.0000000000
13
-0.4622792842
23
2.3709212126
33
0.0000000000
40
0.0000000000
40
0.0000000000
40
0.0000000000
40
0.0000000000
40
0.3512109828
40
0.6845631986
40
1.0000000000
40
1.0000000000
40
1.0000000000
40
1.0000000000
10
-71.5166093833
20
12.8384813419
30
0.0000000000
10
-71.5652897672
20
13.1170512095
30
0.0000000000
10
-71.6616911441
20
13.6597627851
30
0.0000000000
10
-71.8074218999
20
14.4516595715
30
0.0000000000
10
-71.9054378671
20
14.9647853809
30
0.0000000000
10
-71.9540445000
20
15.2140773154
30
0.0000000000
11
-71.5166093833
21
12.8384813419
31
0.0000000000
11
-71.6650905868
21
13.6737608703
31
0.0000000000
11
-71.8109481256
21
14.4656756264
31
0.0000000000
11
-71.9540445000
21
15.2140773154
31
0.0000000000
0
SPLINE
5
31F
100
AcDbEntity
8
0
100
AcDbSpline
62
7
6
CONTINUOUS
70
0
71
3
72
12
73
8
74
6
42
0.0000001000
43
0.0000001000
44
0.0000000001
12
-0.1848700673
22
-1.0579051532
32
0.0000000000
13
-1.0739368021
23
0.0000000000
33
0.0000000000
40
0.0000000000
40
0.0000000000
40
0.0000000000
40
0.0000000000
40
0.1057936561
40
0.2643811805
40
0.4757614953
40
0.7276542215
40
1.0000000000
40
1.0000000000
40
1.0000000000
40
1.0000000000
10
72.0313660457
20
12.8384813419
30
0.0000000000
10
72.0248466856
20
12.8011747906
30
0.0000000000
10
71.9575793611
20
12.7221896436
30
0.0000000000
10
71.8042119800
20
12.6488744167
30
0.0000000000
10
71.5888144435
20
12.5873676174
30
0.0000000000
10
71.3278503116
20
12.5494696767
30
0.0000000000
10
71.1400299078
20
12.5406779146
30
0.0000000000
10
71.0425358563
20
12.5406779146
30
0.0000000000
11
72.0313660457
21
12.8384813419
31
0.0000000000
11
71.9681361751
21
12.7440858394
31
0.0000000000
11
71.8195979170
21
12.6607617935
31
0.0000000000
11
71.6020388686
21
12.5959451932
31
0.0000000000
11
71.3346803021
21
12.5547290159
31
0.0000000000
11
71.0425358563
21
12.5406779146
31
0.0000000000
0
SPLINE
5
320
100
AcDbEntity
8
0
100
AcDbSpline
62
7
6
CONTINUOUS
70
0
71
3
72
10
73
6
74
4
42
0.0000001000
43
0.0000001000
44
0.0000000001
12
-0.4622792842
22
-2.3709212126
32
0.0000000000
13
-0.4158217108
23
-2.3795087388
33
0.0000000000
40
0.0000000000
40
0.0000000000
40
0.0000000000
40
0.0000000000
40
0.3154368014
40
0.6487890172
40
1.0000000000
40
1.0000000000
40
1.0000000000
40
1.0000000000
10
72.4688011625
20
15.2140773154
30
0.0000000000
10
72.4201945296
20
14.9647853809
30
0.0000000000
10
72.3221785623
20
14.4516595715
30
0.0000000000
10
72.1764478066
20
13.6597627851
30
0.0000000000
10
72.0800464296
20
13.1170512095
30
0.0000000000
10
72.0313660457
20
12.8384813419
30
0.0000000000
11
72.4688011625
21
15.2140773154
31
0.0000000000
11
72.3257047880
21
14.4656756264
31
0.0000000000
11
72.1798472493
21
13.6737608703
31
0.0000000000
11
72.0313660457
21
12.8384813419
31
0.0000000000
0
SPLINE
5
321
100
AcDbEntity
8
0
100
AcDbSpline
62
7
6
CONTINUOUS
70
0
71
3
72
10
73
6
74
4
42
0.0000001000
43
0.0000001000
44
0.0000000001
12
-0.4026568121
22
-1.7831167584
32
0.0000000000
13
-0.3498362657
23
-1.7942275412
33
0.0000000000
40
0.0000000000
40
0.0000000000
40
0.0000000000
40
0.0000000000
40
0.3141433164
40
0.6474680062
40
1.0000000000
40
1.0000000000
40
1.0000000000
40
1.0000000000
10
72.8431007778
20
17.0033017026
30
0.0000000000
10
72.8009367957
20
16.8165836320
30
0.0000000000
10
72.7162716478
20
16.4312388087
30
0.0000000000
10
72.5915989290
20
15.8347823694
30
0.0000000000
10
72.5099106546
20
15.4249181862
30
0.0000000000
10
72.4688011625
20
15.2140773154
30
0.0000000000
11
72.8431007778
21
17.0033017026
31
0.0000000000
11
72.7197082091
21
16.4424566013
31
0.0000000000
11
72.5948956604
21
15.8460543291
31
0.0000000000
11
72.4688011625
21
15.2140773154
31
0.0000000000
0
SPLINE
5
322
100
AcDbEntity
8
0
100
AcDbSpline
62
7
6
CONTINUOUS
70
0
71
3
72
8
73
4
74
2
42
0.0000001000
43
0.0000001000
44
0.0000000001
12
0.0000000000
22
0.8609204854
32
0.0000000000
13
-0.3087736836
23
0.8091343652
33
0.0000000000
40
0.0000000000
40
0.0000000000
40
0.0000000000
40
0.0000000000
40
1.0000000000
40
1.0000000000
40
1.0000000000
40
1.0000000000
10
5.7573783312
20
26.8100041696
30
0.0000000000
10
5.7573783312
20
27.0969776647
30
0.0000000000
10
5.7005201557
20
27.3862558101
30
0.0000000000
10
5.5975955945
20
27.6559672652
30
0.0000000000
11
5.7573783312
21
26.8100041696
31
0.0000000000
11
5.5975955945
21
27.6559672652
31
0.0000000000
0
SPLINE
5
323
100
AcDbEntity
8
0
100
AcDbSpline
62
7
6
CONTINUOUS
70
0
71
3
72
8
73
4
74
2
42
0.0000001000
43
0.0000001000
44
0.0000000001
12
-0.1069346875
22
0.2802198993
32
0.0000000000
13
-0.1379442013
23
0.2656481901
33
0.0000000000
40
0.0000000000
40
0.0000000000
40
0.0000000000
40
0.0000000000
40
1.0000000000
40
1.0000000000
40
1.0000000000
40
1.0000000000
10
5.5975955945
20
27.6559672652
30
0.0000000000
10
5.5619506986
20
27.7493738983
30
0.0000000000
10
5.5207806945
20
27.8404337425
30
0.0000000000
10
5.4747992941
20
27.9289831392
30
0.0000000000
11
5.5975955945
21
27.6559672652
31
0.0000000000
11
5.4747992941
21
27.9289831392
31
0.0000000000
0
SPLINE
5
324
100
AcDbEntity
8
0
100
AcDbSpline
62
7
6
CONTINUOUS
70
0
71
3
72
10
73
6
74
4
42
0.0000001000
43
0.0000001000
44
0.0000000001
12
-1.0484465672
22
2.0190622749
32
0.0000000000
13
-1.9833589237
23
1.1044236424
33
0.0000000000
40
0.0000000000
40
0.0000000000
40
0.0000000000
40
0.0000000000
40
0.2766979657
40
0.7308572619
40
1.0000000000
40
1.0000000000
40
1.0000000000
40
1.0000000000
10
5.4747992941
20
27.9289831392
30
0.0000000000
10
5.3780982834
20
28.1152066138
30
0.0000000000
10
5.0664690447
20
28.5777611994
30
0.0000000000
10
4.5003141459
20
29.0901319368
30
0.0000000000
10
4.0370053581
20
29.3828986553
30
0.0000000000
10
3.8590698076
20
29.4819811897
30
0.0000000000
11
5.4747992941
21
27.9289831392
31
0.0000000000
11
5.1274951722
21
28.4528216678
31
0.0000000000
11
4.3743521300
21
29.1542433329
31
0.0000000000
11
3.8590698076
21
29.4819811897
31
0.0000000000
0
SPLINE
5
325
100
AcDbEntity
8
0
100
AcDbSpline
62
7
6
CONTINUOUS
70
0
71
3
72
8
73
4
74
2
42
0.0000001000
43
0.0000001000
44
0.0000000001
12
-0.1230108541
22
0.0684979879
32
0.0000000000
13
-0.1247048163
23
0.0653912076
33
0.0000000000
40
0.0000000000
40
0.0000000000
40
0.0000000000
40
0.0000000000
40
1.0000000000
40
1.0000000000
40
1.0000000000
40
1.0000000000
10
3.8590698076
20
29.4819811897
30
0.0000000000
10
3.8180661896
20
29.5048138523
30
0.0000000000
10
3.7767685384
20
29.5271230899
30
0.0000000000
10
3.7352002663
20
29.5489201591
30
0.0000000000
11
3.8590698076
21
29.4819811897
31
0.0000000000
11
3.7352002663
21
29.5489201591
31
0.0000000000
0
SPLINE
5
326
100
AcDbEntity
8
0
100
AcDbSpline
62
7
6
CONTINUOUS
70
0
71
3
72
14
73
10
74
8
42
0.0000001000
43
0.0000001000
44
0.0000000001
12
-6.3834906515
22
3.3472978418
32
0.0000000000
13
-6.3834906515
23
-3.3472978418
33
0.0000000000
40
0.0000000000
40
0.0000000000
40
0.0000000000
40
0.0000000000
40
0.0544362307
40
0.2266638449
40
0.4078462681
40
0.5921537319
40
0.7733361551
40
0.9455637693
40
1.0000000000
40
1.0000000000
40
1.0000000000
40
1.0000000000
10
3.7352002663
20
29.5489201591
30
0.0000000000
10
3.6193692096
20
29.6096582517
30
0.0000000000
10
3.1283175632
20
29.8460030908
30
0.0000000000
10
2.1949968482
20
30.1548040379
30
0.0000000000
10
0.9154597737
20
30.3539825958
30
0.0000000000
10
-0.4007031112
20
30.3539825958
30
0.0000000000
10
-1.6802401857
20
30.1548040379
30
0.0000000000
10
-2.6135609007
20
29.8460030908
30
0.0000000000
10
-3.1046125471
20
29.6096582517
30
0.0000000000
10
-3.2204436038
20
29.5489201591
30
0.0000000000
11
3.7352002663
21
29.5489201591
31
0.0000000000
11
3.3819097667
21
29.7194474517
31
0.0000000000
11
2.2078380787
21
30.1155644840
31
0.0000000000
11
0.9203794594
21
30.3195556185
31
0.0000000000
11
-0.4056227969
21
30.3195556185
31
0.0000000000
11
-1.6930814162
21
30.1155644840
31
0.0000000000
11
-2.8671531042
21
29.7194474517
31
0.0000000000
11
-3.2204436038
21
29.5489201591
31
0.0000000000
0
SPLINE
5
327
100
AcDbEntity
8
0
100
AcDbSpline
62
7
6
CONTINUOUS
70
0
71
3
72
8
73
4
74
2
42
0.0000001000
43
0.0000001000
44
0.0000000001
12
-0.1247048163
22
-0.0653912076
32
0.0000000000
13
-0.1230108541
23
-0.0684979879
33
0.0000000000
40
0.0000000000
40
0.0000000000
40
0.0000000000
40
0.0000000000
40
1.0000000000
40
1.0000000000
40
1.0000000000
40
1.0000000000
10
-3.2204436038
20
29.5489201591
30
0.0000000000
10
-3.2620118759
20
29.5271230899
30
0.0000000000
10
-3.3033095271
20
29.5048138523
30
0.0000000000
10
-3.3443131451
20
29.4819811897
30
0.0000000000
11
-3.2204436038
21
29.5489201591
31
0.0000000000
11
-3.3443131451
21
29.4819811897
31
0.0000000000
0
SPLINE
5
328
100
AcDbEntity
8
0
100
AcDbSpline
62
7
6
CONTINUOUS
70
0
71
3
72
10
73
6
74
4
42
0.0000001000
43
0.0000001000
44
0.0000000001
12
-1.9833589237
22
-1.1044236424
32
0.0000000000
13
-1.0484465672
23
-2.0190622749
33
0.0000000000
40
0.0000000000
40
0.0000000000
40
0.0000000000
40
0.0000000000
40
0.2691427381
40
0.7233020343
40
1.0000000000
40
1.0000000000
40
1.0000000000
40
1.0000000000
10
-3.3443131451
20
29.4819811897
30
0.0000000000
10
-3.5222486956
20
29.3828986553
30
0.0000000000
10
-3.9855574834
20
29.0901319368
30
0.0000000000
10
-4.5517123822
20
28.5777611994
30
0.0000000000
10
-4.8633416209
20
28.1152066138
30
0.0000000000
10
-4.9600426316
20
27.9289831392
30
0.0000000000
11
-3.3443131451
21
29.4819811897
31
0.0000000000
11
-3.8595954675
21
29.1542433329
31
0.0000000000
11
-4.6127385098
21
28.4528216678
31
0.0000000000
11
-4.9600426316
21
27.9289831392
31
0.0000000000
0
SPLINE
5
329
100
AcDbEntity
8
0
100
AcDbSpline
62
7
6
CONTINUOUS
70
0
71
3
72
8
73
4
74
2
42
0.0000001000
43
0.0000001000
44
0.0000000001
12
-0.1379442013
22
-0.2656481901
32
0.0000000000
13
-0.1069346875
23
-0.2802198993
33
0.0000000000
40
0.0000000000
40
0.0000000000
40
0.0000000000
40
0.0000000000
40
1.0000000000
40
1.0000000000
40
1.0000000000
40
1.0000000000
10
-4.9600426316
20
27.9289831392
30
0.0000000000
10
-5.0060240321
20
27.8404337425
30
0.0000000000
10
-5.0471940362
20
27.7493738983
30
0.0000000000
10
-5.0828389320
20
27.6559672652
30
0.0000000000
11
-4.9600426316
21
27.9289831392
31
0.0000000000
11
-5.0828389320
21
27.6559672652
31
0.0000000000
0
SPLINE
5
32A
100
AcDbEntity
8
0
100
AcDbSpline
62
7
6
CONTINUOUS
70
0
71
3
72
8
73
4
74
2
42
0.0000001000
43
0.0000001000
44
0.0000000001
12
-0.3087736836
22
-0.8091343652
32
0.0000000000
13
0.0000000000
23
-0.8609204854
33
0.0000000000
40
0.0000000000
40
0.0000000000
40
0.0000000000
40
0.0000000000
40
1.0000000000
40
1.0000000000
40
1.0000000000
40
1.0000000000
10
-5.0828389320
20
27.6559672652
30
0.0000000000
10
-5.1857634932
20
27.3862558101
30
0.0000000000
10
-5.2426216688
20
27.0969776647
30
0.0000000000
10
-5.2426216688
20
26.8100041696
30
0.0000000000
11
-5.0828389320
21
27.6559672652
31
0.0000000000
11
-5.2426216688
21
26.8100041696
31
0.0000000000
0
SPLINE
5
32B
100
AcDbEntity
8
0
100
AcDbSpline
62
7
6
CONTINUOUS
70
0
71
3
72
13
73
9
74
7
42
0.0000001000
43
0.0000001000
44
0.0000000001
12
0.6461470394
22
2.8613836391
32
0.0000000000
13
-0.0706973680
23
2.9325797873
33
0.0000000000
40
0.0000000000
40
0.0000000000
40
0.0000000000
40
0.0000000000
40
0.0750723780
40
0.1972729134
40
0.3582411108
40
0.5534908320
40
0.7731104079
40
1.0000000000
40
1.0000000000
40
1.0000000000
40
1.0000000000
10
72.8431007778
20
17.0033017026
30
0.0000000000
10
72.8592700427
20
17.0749053274
30
0.0000000000
10
72.8783664808
20
17.2676092117
30
0.0000000000
10
72.8991855546
20
17.6169347992
30
0.0000000000
10
72.9116164358
20
18.0847985258
30
0.0000000000
10
72.9167286899
20
18.6477894678
30
0.0000000000
10
72.9130882156
20
19.2753390854
30
0.0000000000
10
72.9051795055
20
19.7118755307
30
0.0000000000
10
72.8998326731
20
19.9336661413
30
0.0000000000
11
72.8431007778
21
17.0033017026
31
0.0000000000
11
72.8726991191
21
17.2215232781
31
0.0000000000
11
72.8952381257
21
17.5792809346
31
0.0000000000
11
72.9094814727
21
18.0512552986
31
0.0000000000
11
72.9151752773
21
18.6239787442
31
0.0000000000
11
72.9118289090
21
19.2682091086
31
0.0000000000
11
72.8998326731
21
19.9336661413
31
0.0000000000
0
SPLINE
5
32C
100
AcDbEntity
8
0
100
AcDbSpline
62
7
6
CONTINUOUS
70
0
71
3
72
13
73
9
74
7
42
0.0000001000
43
0.0000001000
44
0.0000000001
12
-0.0706973842
22
-2.9325804597
32
0.0000000000
13
0.6461471876
23
-2.8613842952
33
0.0000000000
40
0.0000000000
40
0.0000000000
40
0.0000000000
40
0.0000000000
40
0.2272882147
40
0.4472415878
40
0.6426484130
40
0.8037348475
40
0.9251319109
40
1.0000000000
40
1.0000000000
40
1.0000000000
40
1.0000000000
10
-72.3850760107
20
19.9336661413
30
0.0000000000
10
-72.3904322381
20
19.7114858155
30
0.0000000000
10
-72.3983493592
20
19.2742330971
30
0.0000000000
10
-72.4019745854
20
18.6458132625
30
0.0000000000
10
-72.3968191708
20
18.0822269799
30
0.0000000000
10
-72.3843466002
20
17.6148805839
30
0.0000000000
10
-72.3635058147
20
17.2664247015
30
0.0000000000
10
-72.3444693838
20
17.0747104941
30
0.0000000000
10
-72.3283441154
20
17.0033017026
30
0.0000000000
11
-72.3850760107
21
19.9336661413
31
0.0000000000
11
-72.3970860561
21
19.2670396823
31
0.0000000000
11
-72.4004143092
21
18.6218298920
31
0.0000000000
11
-72.3946746794
21
18.0486458951
31
0.0000000000
11
-72.3803509386
21
17.5763268558
31
0.0000000000
11
-72.3578883199
21
17.2209259155
31
0.0000000000
11
-72.3283441154
21
17.0033017026
31
0.0000000000
0
SPLINE
5
32D
100
AcDbEntity
8
0
100
AcDbSpline
62
9
6
CONTINUOUS
70
0
71
3
72
10
73
6
74
4
42
0.0000001000
43
0.0000001000
44
0.0000000001
12
0.5572218601
22
0.5063496426
32
0.0000000000
13
0.7529166920
23
0.0016176481
33
0.0000000000
40
0.0000000000
40
0.0000000000
40
0.0000000000
40
0.0000000000
40
0.3306182712
40
0.6644472192
40
1.0000000000
40
1.0000000000
40
1.0000000000
40
1.0000000000
10
17.7541072353
20
33.6118893246
30
0.0000000000
10
17.8155164780
20
33.6676921391
30
0.0000000000
10
17.9537922573
20
33.7645574198
30
0.0000000000
10
18.1903620453
20
33.8549058850
30
0.0000000000
10
18.3590445632
20
33.8756829383
30
0.0000000000
10
18.4432589931
20
33.8758638738
30
0.0000000000
11
17.7541072353
21
33.6118893246
31
0.0000000000
11
17.9578066014
21
33.7549697599
31
0.0000000000
11
18.1925227144
21
33.8448760535
31
0.0000000000
11
18.4432589931
21
33.8758638738
31
0.0000000000
0
SPLINE
5
32E
100
AcDbEntity
8
0
100
AcDbSpline
62
9
6
CONTINUOUS
70
0
71
3
72
10
73
6
74
4
42
0.0000001000
43
0.0000001000
44
0.0000000001
12
0.5516009180
22
0.5218116943
32
0.0000000000
13
0.7591973120
23
0.0130559767
33
0.0000000000
40
0.0000000000
40
0.0000000000
40
0.0000000000
40
0.0000000000
40
0.3325368721
40
0.6663141447
40
1.0000000000
40
1.0000000000
40
1.0000000000
40
1.0000000000
10
17.3372281997
20
36.5572296303
30
0.0000000000
10
17.3983707477
20
36.6150701732
30
0.0000000000
10
17.5360372605
20
36.7160296732
30
0.0000000000
10
17.7726419326
20
36.8122483822
30
0.0000000000
10
17.9419369766
20
36.8362177647
30
0.0000000000
10
18.0263814447
20
36.8376699629
30
0.0000000000
11
17.3372281997
21
36.5572296303
31
0.0000000000
11
17.5407590283
21
36.7066640908
31
0.0000000000
11
17.7755068784
21
36.8021911570
31
0.0000000000
11
18.0263814447
21
36.8376699629
31
0.0000000000
0
SPLINE
5
32F
100
AcDbEntity
8
0
100
AcDbSpline
62
9
6
CONTINUOUS
70
0
71
3
72
10
73
6
74
4
42
0.0000001000
43
0.0000001000
44
0.0000000001
12
-0.5516001224
22
0.5218134957
32
0.0000000000
13
-0.7591977684
23
0.0130678141
33
0.0000000000
40
0.0000000000
40
0.0000000000
40
0.0000000000
40
0.0000000000
40
0.3325371117
40
0.6663145288
40
1.0000000000
40
1.0000000000
40
1.0000000000
40
1.0000000000
10
-16.8224730247
20
36.5572281429
30
0.0000000000
10
-16.8836155285
20
36.6150689271
30
0.0000000000
10
-17.0212817274
20
36.7160291476
30
0.0000000000
10
-17.2578856308
20
36.8122500892
30
0.0000000000
10
-17.4271803607
20
36.8362218185
30
0.0000000000
10
-17.5116247824
20
36.8376753318
30
0.0000000000
11
-16.8224730247
21
36.5572281429
31
0.0000000000
11
-17.0260034903
21
36.7066637759
31
0.0000000000
11
-17.2607507701
21
36.8021931191
31
0.0000000000
11
-17.5116247824
21
36.8376753318
31
0.0000000000
0
SPLINE
5
330
100
AcDbEntity
8
0
100
AcDbSpline
62
9
6
CONTINUOUS
70
0
71
3
72
10
73
6
74
4
42
0.0000001000
43
0.0000001000
44
0.0000000001
12
-0.5558689748
22
0.5078343380
32
0.0000000000
13
-0.7529120902
23
0.0030686130
33
0.0000000000
40
0.0000000000
40
0.0000000000
40
0.0000000000
40
0.0000000000
40
0.3310015057
40
0.6652164147
40
1.0000000000
40
1.0000000000
40
1.0000000000
40
1.0000000000
10
-17.2393505729
20
33.6118893246
30
0.0000000000
10
-17.3006817287
20
33.6679206348
30
0.0000000000
10
-17.4393549786
20
33.7646178976
30
0.0000000000
10
-17.6758791109
20
33.8550642833
30
0.0000000000
10
-17.8444814610
20
33.8755214334
30
0.0000000000
10
-17.9285023306
20
33.8758638738
30
0.0000000000
11
-17.2393505729
21
33.6118893246
31
0.0000000000
11
-17.4433067467
21
33.7551061000
31
0.0000000000
11
-17.6783322159
21
33.8450170276
31
0.0000000000
11
-17.9285023306
21
33.8758638738
31
0.0000000000
0
SPLINE
5
331
100
AcDbEntity
8
0
100
AcDbSpline
62
9
6
CONTINUOUS
70
0
71
3
72
13
73
9
74
7
42
0.0000001000
43
0.0000001000
44
0.0000000001
12
-3.0333251270
22
-0.0269268381
32
0.0000000000
13
-0.1245523261
23
-3.0308865202
33
0.0000000000
40
0.0000000000
40
0.0000000000
40
0.0000000000
40
0.0000000000
40
0.1569821411
40
0.3224359765
40
0.4918552989
40
0.6615317368
40
0.8305433182
40
1.0000000000
40
1.0000000000
40
1.0000000000
40
1.0000000000
10
-68.9298865890
20
33.8758596010
30
0.0000000000
10
-69.0886125467
20
33.8744505901
30
0.0000000000
10
-69.4155753403
20
33.8322283961
30
0.0000000000
10
-69.8832468558
20
33.6485938129
30
0.0000000000
10
-70.3004661438
20
33.3451285607
30
0.0000000000
10
-70.6286950544
20
32.9423845448
30
0.0000000000
10
-70.8436281655
20
32.4697419546
30
0.0000000000
10
-70.9021377762
20
32.1279943777
30
0.0000000000
10
-70.9091731841
20
31.9567930535
30
0.0000000000
11
-68.9298865890
21
33.8758596010
31
0.0000000000
11
-69.4021538030
21
33.8148111518
31
0.0000000000
11
-69.8693464524
21
33.6314272111
31
0.0000000000
11
-70.2849385556
21
33.3291008631
31
0.0000000000
11
-70.6101678662
21
32.9301695578
31
0.0000000000
11
-70.8223319224
21
32.4634419544
31
0.0000000000
11
-70.9091731841
21
31.9567930535
31
0.0000000000
0
SPLINE
5
332
100
AcDbEntity
8
0
100
AcDbSpline
62
9
6
CONTINUOUS
70
0
71
3
72
13
73
9
74
7
42
0.0000001000
43
0.0000001000
44
0.0000000001
12
-0.1245529451
22
3.0308864860
32
0.0000000000
13
-3.0333251077
23
0.0269280122
33
0.0000000000
40
0.0000000000
40
0.0000000000
40
0.0000000000
40
0.0000000000
40
0.1694566016
40
0.3384684603
40
0.5081450946
40
0.6775645179
40
0.8430188874
40
1.0000000000
40
1.0000000000
40
1.0000000000
40
1.0000000000
10
71.4239298464
20
31.9567930488
30
0.0000000000
10
71.4168944068
20
32.1279942900
30
0.0000000000
10
71.3583848429
20
32.4697420641
30
0.0000000000
10
71.1434514954
20
32.9423850257
30
0.0000000000
10
70.8152220011
20
33.3451293228
30
0.0000000000
10
70.3980018800
20
33.6485948878
30
0.0000000000
10
69.9303304150
20
33.8322286569
30
0.0000000000
10
69.6033681681
20
33.8744505337
30
0.0000000000
10
69.4446432513
20
33.8758595968
30
0.0000000000
11
71.4239298464
21
31.9567930488
31
0.0000000000
11
71.3370886623
21
32.4634417145
31
0.0000000000
11
71.1249242140
21
32.9301700622
31
0.0000000000
11
70.7996943401
21
33.3291016751
31
0.0000000000
11
70.3841018094
21
33.6314279533
31
0.0000000000
11
69.9169074114
21
33.8148118687
31
0.0000000000
11
69.4446432513
21
33.8758595968
31
0.0000000000
0
SPLINE
5
333
100
AcDbEntity
8
0
100
AcDbSpline
62
9
6
CONTINUOUS
70
0
71
3
72
10
73
6
74
4
42
0.0000001000
43
0.0000001000
44
0.0000000001
12
-0.3672127822
22
-12.1289463886
32
0.0000000000
13
-0.3956010808
23
-12.1280536571
33
0.0000000000
40
0.0000000000
40
0.0000000000
40
0.0000000000
40
0.0000000000
40
0.3429631567
40
0.6762144158
40
1.0000000000
40
1.0000000000
40
1.0000000000
40
1.0000000000
10
-69.9122675729
20
31.9266111857
30
0.0000000000
10
-69.9542477245
20
30.5400172720
30
0.0000000000
10
-70.0379260911
20
27.8061218024
30
0.0000000000
10
-70.1647113862
20
23.7632743129
30
0.0000000000
10
-70.2501800798
20
21.1070432401
30
0.0000000000
10
-70.2928767221
20
19.7980802604
30
0.0000000000
11
-69.9122675729
21
31.9266111857
31
0.0000000000
11
-70.0396566803
21
27.7668735563
31
0.0000000000
11
-70.1664687308
21
23.7250237013
31
0.0000000000
11
-70.2928767221
21
19.7980802604
31
0.0000000000
0
SPLINE
5
334
100
AcDbEntity
8
0
100
AcDbSpline
62
9
6
CONTINUOUS
70
0
71
3
72
13
73
9
74
7
42
0.0000001000
43
0.0000001000
44
0.0000000001
12
-1.5444845053
22
0.0003538002
32
0.0000000000
13
-0.0462422586
23
-1.5437921382
33
0.0000000000
40
0.0000000000
40
0.0000000000
40
0.0000000000
40
0.0000000000
40
0.1539938997
40
0.3168031710
40
0.4846957308
40
0.6548172619
40
0.8264516094
40
1.0000000000
40
1.0000000000
40
1.0000000000
40
1.0000000000
10
-68.9298865451
20
32.9227352106
30
0.0000000000
10
-69.0091669425
20
32.9227533716
30
0.0000000000
10
-69.1729913352
20
32.9022090618
30
0.0000000000
10
-69.4070399230
20
32.8078612356
30
0.0000000000
10
-69.6149788909
20
32.6502283268
30
0.0000000000
10
-69.7773180416
20
32.4402870721
30
0.0000000000
10
-69.8822662521
20
32.1936948501
30
0.0000000000
10
-69.9095924830
20
32.0159187326
30
0.0000000000
10
-69.9122675729
20
31.9266111857
30
0.0000000000
11
-68.9298865451
21
32.9227352106
31
0.0000000000
11
-69.1658697438
21
32.8930642559
31
0.0000000000
11
-69.3991602895
21
32.7992247967
31
0.0000000000
11
-69.6059924794
21
32.6428252888
31
0.0000000000
11
-69.7671085657
21
32.4352699733
31
0.0000000000
11
-69.8712516038
21
32.1914972683
31
0.0000000000
11
-69.9122675729
21
31.9266111857
31
0.0000000000
0
SPLINE
5
335
100
AcDbEntity
8
0
100
AcDbSpline
62
9
6
CONTINUOUS
70
0
71
3
72
12
73
8
74
6
42
0.0000001000
43
0.0000001000
44
0.0000000001
12
-2.0503539323
22
0.0002111963
32
0.0000000000
13
-1.4499580667
23
1.4496802741
33
0.0000000000
40
0.0000000000
40
0.0000000000
40
0.0000000000
40
0.0000000000
40
0.1699290118
40
0.3532688166
40
0.5513431650
40
0.7662052333
40
1.0000000000
40
1.0000000000
40
1.0000000000
40
1.0000000000
10
-5.4501327079
20
21.3966887530
30
0.0000000000
10
-5.5662709138
20
21.3967007158
30
0.0000000000
10
-5.8081433320
20
21.4205239104
30
0.0000000000
10
-6.1725489488
20
21.5227077460
30
0.0000000000
10
-6.5439495828
20
21.6943732439
30
0.0000000000
10
-6.9148015150
20
21.9374868397
30
0.0000000000
10
-7.1461863773
20
22.1404432623
30
0.0000000000
10
-7.2591839132
20
22.2534191494
30
0.0000000000
11
-5.4501327079
21
21.3966887530
31
0.0000000000
11
-5.7970218626
21
21.4292565499
31
0.0000000000
11
-6.1594547972
21
21.5290153463
31
0.0000000000
11
-6.5287955815
21
21.6979025496
31
0.0000000000
11
-6.8980081237
21
21.9382366674
31
0.0000000000
11
-7.2591839132
21
22.2534191494
31
0.0000000000
0
SPLINE
5
336
100
AcDbEntity
8
0
100
AcDbSpline
62
9
6
CONTINUOUS
70
0
71
3
72
12
73
8
74
6
42
0.0000001000
43
0.0000001000
44
0.0000000001
12
-1.4499575010
22
-1.4496808863
32
0.0000000000
13
-2.0503539658
23
-0.0002035669
33
0.0000000000
40
0.0000000000
40
0.0000000000
40
0.0000000000
40
0.0000000000
40
0.2337947635
40
0.4486568299
40
0.6467311718
40
0.8300709801
40
1.0000000000
40
1.0000000000
40
1.0000000000
40
1.0000000000
10
7.7739405757
20
22.2534191494
30
0.0000000000
10
7.6609430853
20
22.1404432161
30
0.0000000000
10
7.4295581577
20
21.9374868718
30
0.0000000000
10
7.0587063019
20
21.6943731315
30
0.0000000000
10
6.6873055045
20
21.5227080050
30
0.0000000000
10
6.3229000886
20
21.4205236154
30
0.0000000000
10
6.0810275837
20
21.3967002837
30
0.0000000000
10
5.9648893704
20
21.3966887530
30
0.0000000000
11
7.7739405757
21
22.2534191494
31
0.0000000000
11
7.4127647959
21
21.9382366545
31
0.0000000000
11
7.0435522565
21
21.6979025267
31
0.0000000000
11
6.6742114221
21
21.5290154496
31
0.0000000000
11
6.3117785708
21
21.4292563011
31
0.0000000000
11
5.9648893704
21
21.3966887530
31
0.0000000000
0
SPLINE
5
337
100
AcDbEntity
8
0
100
AcDbSpline
62
9
6
CONTINUOUS
70
0
71
3
72
15
73
11
74
9
42
0.0000001000
43
0.0000001000
44
0.0000000001
12
0.0906797416
22
1.7564140788
32
0.0000000000
13
-1.6685738190
23
-0.5559448195
33
0.0000000000
40
0.0000000000
40
0.0000000000
40
0.0000000000
40
0.0000000000
40
0.0244013203
40
0.0667527201
40
0.1405787248
40
0.2494548565
40
0.3915688879
40
0.5644734043
40
0.7675059770
40
1.0000000000
40
1.0000000000
40
1.0000000000
40
1.0000000000
10
17.3372296871
20
36.5572281429
30
0.0000000000
10
17.3379672556
20
36.5715144170
30
0.0000000000
10
17.3139119550
20
36.6106241789
30
0.0000000000
10
17.2271851653
20
36.6225916999
30
0.0000000000
10
17.0974568729
20
36.6223856070
30
0.0000000000
10
16.9073114406
20
36.5955033432
30
0.0000000000
10
16.6641975530
20
36.5463237752
30
0.0000000000
10
16.3694112787
20
36.4720417717
30
0.0000000000
10
16.0266813263
20
36.3732991593
30
0.0000000000
10
15.7834321175
20
36.2955075580
30
0.0000000000
10
15.6541209708
20
36.2524229421
30
0.0000000000
11
17.3372296871
21
36.5572281429
31
0.0000000000
11
17.3180920240
21
36.5956407005
31
0.0000000000
11
17.2472278705
21
36.6185838046
31
0.0000000000
11
17.1173936051
21
36.6199761235
31
0.0000000000
11
16.9273293021
21
36.5966834711
31
0.0000000000
11
16.6821448231
21
36.5481413596
31
0.0000000000
11
16.3870105509
21
36.4748585048
31
0.0000000000
11
16.0437297687
21
36.3765353733
31
0.0000000000
11
15.6541209708
21
36.2524229421
31
0.0000000000
0
SPLINE
5
338
100
AcDbEntity
8
0
100
AcDbSpline
62
9
6
CONTINUOUS
70
0
71
3
72
10
73
6
74
4
42
0.0000001000
43
0.0000001000
44
0.0000000001
12
0.6890894078
22
-0.1744665457
32
0.0000000000
13
0.5947691418
23
0.3892716987
33
0.0000000000
40
0.0000000000
40
0.0000000000
40
0.0000000000
40
0.0000000000
40
0.3626529934
40
0.6963683951
40
1.0000000000
40
1.0000000000
40
1.0000000000
40
1.0000000000
10
11.7162877090
20
31.5485452372
30
0.0000000000
10
11.7995878212
20
31.5274549655
30
0.0000000000
10
11.9645236042
20
31.5033601065
30
0.0000000000
10
12.2028366357
20
31.5267347581
30
0.0000000000
10
12.3452425638
20
31.5860395257
30
0.0000000000
10
12.4054394668
20
31.6254379226
30
0.0000000000
11
11.7162877090
21
31.5485452372
31
0.0000000000
11
11.9716535699
21
31.5133081644
31
0.0000000000
11
12.2074063859
21
31.5396124825
31
0.0000000000
11
12.4054394668
21
31.6254379226
31
0.0000000000
0
SPLINE
5
339
100
AcDbEntity
8
0
100
AcDbSpline
62
9
6
CONTINUOUS
70
0
71
3
72
12
73
8
74
6
42
0.0000001000
43
0.0000001000
44
0.0000000001
12
-0.9032075246
22
-1.0522803656
32
0.0000000000
13
-1.3615047578
23
-0.2634057608
33
0.0000000000
40
0.0000000000
40
0.0000000000
40
0.0000000000
40
0.0000000000
40
0.2514009783
40
0.4760145331
40
0.6748639701
40
0.8491461525
40
1.0000000000
40
1.0000000000
40
1.0000000000
40
1.0000000000
10
7.0847888179
20
22.9425709072
30
0.0000000000
10
7.0090997328
20
22.8543894694
30
0.0000000000
10
6.8582058296
20
22.6936831680
30
0.0000000000
10
6.6225690574
20
22.4884203995
30
0.0000000000
10
6.3944910138
20
22.3311856068
30
0.0000000000
10
6.1778144814
20
22.2211900320
30
0.0000000000
10
6.0333521141
20
22.1759784536
30
0.0000000000
10
5.9648893704
20
22.1627331961
30
0.0000000000
11
7.0847888179
21
22.9425709072
31
0.0000000000
11
6.8454433463
21
22.6890813070
31
0.0000000000
11
6.6097128302
21
22.4854816981
31
0.0000000000
11
6.3817310198
21
22.3303530321
31
0.0000000000
11
6.1652493905
21
22.2228923136
31
0.0000000000
11
5.9648893704
21
22.1627331961
31
0.0000000000
0
SPLINE
5
33A
100
AcDbEntity
8
0
100
AcDbSpline
62
9
6
CONTINUOUS
70
0
71
3
72
10
73
6
74
4
42
0.0000001000
43
0.0000001000
44
0.0000000001
12
-0.6890896590
22
-0.1744666093
32
0.0000000000
13
-0.5947693586
23
0.3892718407
33
0.0000000000
40
0.0000000000
40
0.0000000000
40
0.0000000000
40
0.0000000000
40
0.3625018685
40
0.6966355479
40
1.0000000000
40
1.0000000000
40
1.0000000000
40
1.0000000000
10
-11.2015310466
20
31.5485452372
30
0.0000000000
10
-11.2847964762
20
31.5274637466
30
0.0000000000
10
-11.4497912163
20
31.5033527870
30
0.0000000000
10
-11.6881140857
20
31.5267344947
30
0.0000000000
10
-11.8305388441
20
31.5860741763
30
0.0000000000
10
-11.8906828043
20
31.6254379226
30
0.0000000000
11
-11.2015310466
21
31.5485452372
31
0.0000000000
11
-11.4567888316
21
31.5133101359
31
0.0000000000
11
-11.6928357565
21
31.5396605954
31
0.0000000000
11
-11.8906828043
21
31.6254379226
31
0.0000000000
0
SPLINE
5
33B
100
AcDbEntity
8
0
100
AcDbSpline
62
9
6
CONTINUOUS
70
0
71
3
72
10
73
6
74
4
42
0.0000001000
43
0.0000001000
44
0.0000000001
12
-0.0700932984
22
2.9798137208
32
0.0000000000
13
-0.8234759541
23
2.8646274163
33
0.0000000000
40
0.0000000000
40
0.0000000000
40
0.0000000000
40
0.0000000000
40
0.3260286948
40
0.6602702983
40
1.0000000000
40
1.0000000000
40
1.0000000000
40
1.0000000000
10
17.7554372027
20
33.6132192919
30
0.0000000000
10
17.7478197271
20
33.9370542179
30
0.0000000000
10
17.7094330825
20
34.5925580710
30
0.0000000000
10
17.5798963776
20
35.5785932550
30
0.0000000000
10
17.4304827672
20
36.2328284703
30
0.0000000000
10
17.3372296871
20
36.5572281429
30
0.0000000000
11
17.7554372027
21
33.6132192919
31
0.0000000000
11
17.6984162872
21
34.5833184530
31
0.0000000000
11
17.5653317380
21
35.5706426095
31
0.0000000000
11
17.3372296871
21
36.5572281429
31
0.0000000000
0
SPLINE
5
33C
100
AcDbEntity
8
0
100
AcDbSpline
62
9
6
CONTINUOUS
70
0
71
3
72
10
73
6
74
4
42
0.0000001000
43
0.0000001000
44
0.0000000001
12
-0.8234759099
22
-2.8646274283
32
0.0000000000
13
-0.0700932518
23
-2.9798137212
33
0.0000000000
40
0.0000000000
40
0.0000000000
40
0.0000000000
40
0.0000000000
40
0.3397297015
40
0.6739713066
40
1.0000000000
40
1.0000000000
40
1.0000000000
40
1.0000000000
10
-16.8224730247
20
36.5572281429
30
0.0000000000
10
-16.9157260997
20
36.2328284692
30
0.0000000000
10
-17.0651397233
20
35.5785932556
30
0.0000000000
10
-17.1946764074
20
34.5925580691
30
0.0000000000
10
-17.2330630703
20
33.9370542172
30
0.0000000000
10
-17.2406805407
20
33.6132192925
30
0.0000000000
11
-16.8224730247
21
36.5572281429
31
0.0000000000
11
-17.0505750766
21
35.5706426105
31
0.0000000000
11
-17.1836596203
21
34.5833184490
31
0.0000000000
11
-17.2406805407
21
33.6132192925
31
0.0000000000
0
SPLINE
5
33D
100
AcDbEntity
8
0
100
AcDbSpline
62
9
6
CONTINUOUS
70
0
71
3
72
12
73
8
74
6
42
0.0000001000
43
0.0000001000
44
0.0000000001
12
-1.3615046922
22
0.2634060329
32
0.0000000000
13
-0.9032076563
23
1.0522802359
33
0.0000000000
40
0.0000000000
40
0.0000000000
40
0.0000000000
40
0.0000000000
40
0.1508538203
40
0.3251360293
40
0.5239854606
40
0.7485990229
40
1.0000000000
40
1.0000000000
40
1.0000000000
40
1.0000000000
10
-5.4501327079
20
22.1627331961
30
0.0000000000
10
-5.5185954360
20
22.1759784649
30
0.0000000000
10
-5.6630577469
20
22.2211901923
30
0.0000000000
10
-5.8797343894
20
22.3311855196
30
0.0000000000
10
-6.1078123772
20
22.4884204364
30
0.0000000000
10
-6.3434491870
20
22.6936831453
30
0.0000000000
10
-6.4943430597
20
22.8543894807
30
0.0000000000
10
-6.5700321555
20
22.9425709072
30
0.0000000000
11
-5.4501327079
21
22.1627331961
31
0.0000000000
11
-5.6504926641
21
22.2228923890
31
0.0000000000
11
-5.8669743762
21
22.3303530185
31
0.0000000000
11
-6.0949561637
21
22.4854816998
31
0.0000000000
11
-6.3306866920
21
22.6890813060
31
0.0000000000
11
-6.5700321555
21
22.9425709072
31
0.0000000000
0
SPLINE
5
33E
100
AcDbEntity
8
0
100
AcDbSpline
62
9
6
CONTINUOUS
70
0
71
3
72
15
73
11
74
9
42
0.0000001000
43
0.0000001000
44
0.0000000001
12
-1.6685736492
22
0.5559453173
32
0.0000000000
13
0.0906778816
23
-1.7564141711
33
0.0000000000
40
0.0000000000
40
0.0000000000
40
0.0000000000
40
0.0000000000
40
0.2324940236
40
0.4355265966
40
0.6084311134
40
0.7505451452
40
0.8594212766
40
0.9332472832
40
0.9755986808
40
1.0000000000
40
1.0000000000
40
1.0000000000
40
1.0000000000
10
-15.1393643084
20
36.2524229421
30
0.0000000000
10
-15.2686754421
20
36.2955075967
30
0.0000000000
10
-15.5119246684
20
36.3732991457
30
0.0000000000
10
-15.8546546157
20
36.4720417732
30
0.0000000000
10
-16.1494408907
20
36.5463237744
30
0.0000000000
10
-16.3925547773
20
36.5955033470
30
0.0000000000
10
-16.5827002124
20
36.6223855982
30
0.0000000000
10
-16.7124285003
20
36.6225917129
30
0.0000000000
10
-16.7991552959
20
36.6106241689
30
0.0000000000
10
-16.8232105780
20
36.5715144171
30
0.0000000000
10
-16.8224730247
20
36.5572281429
30
0.0000000000
11
-15.1393643084
21
36.2524229421
31
0.0000000000
11
-15.5289731060
21
36.3765353742
31
0.0000000000
11
-15.8722538886
21
36.4748585038
31
0.0000000000
11
-16.1673881606
21
36.5481413601
31
0.0000000000
11
-16.4125726397
21
36.5966834713
31
0.0000000000
11
-16.6026369421
21
36.6199761221
31
0.0000000000
11
-16.7324712105
21
36.6185838082
31
0.0000000000
11
-16.8033353573
21
36.5956406960
31
0.0000000000
11
-16.8224730247
21
36.5572281429
31
0.0000000000
0
SPLINE
5
33F
100
AcDbEntity
8
0
100
AcDbSpline
62
9
6
CONTINUOUS
70
0
71
3
72
13
73
9
74
7
42
0.0000001000
43
0.0000001000
44
0.0000000001
12
-0.0462418833
22
1.5437921270
32
0.0000000000
13
-1.5444844826
23
-0.0003553269
33
0.0000000000
40
0.0000000000
40
0.0000000000
40
0.0000000000
40
0.0000000000
40
0.1735483934
40
0.3451827456
40
0.5153042861
40
0.6831968622
40
0.8460061365
40
1.0000000000
40
1.0000000000
40
1.0000000000
40
1.0000000000
10
70.4270242353
20
31.9266111811
30
0.0000000000
10
70.4243491671
20
32.0159187289
30
0.0000000000
10
70.3970228191
20
32.1936948180
30
0.0000000000
10
70.2920747888
20
32.4402871399
30
0.0000000000
10
70.1297354388
20
32.6502282228
30
0.0000000000
10
69.9217966700
20
32.8078614693
30
0.0000000000
10
69.6877478946
20
32.9022087484
30
0.0000000000
10
69.5239235850
20
32.9227534480
30
0.0000000000
10
69.4446432075
20
32.9227352086
30
0.0000000000
11
70.4270242353
21
31.9266111811
31
0.0000000000
11
70.3860082308
21
32.1914972587
31
0.0000000000
11
70.2818652515
21
32.4352699925
31
0.0000000000
11
70.1207490963
21
32.6428252680
31
0.0000000000
11
69.9139169620
21
32.7992248850
31
0.0000000000
11
69.6806263314
21
32.8930641361
31
0.0000000000
11
69.4446432075
21
32.9227352086
31
0.0000000000
0
SPLINE
5
340
100
AcDbEntity
8
0
100
AcDbSpline
62
9
6
CONTINUOUS
70
0
71
3
72
10
73
6
74
4
42
0.0000001000
43
0.0000001000
44
0.0000000001
12
-0.3956010813
22
12.1280536525
32
0.0000000000
13
-0.3672127819
23
12.1289463840
33
0.0000000000
40
0.0000000000
40
0.0000000000
40
0.0000000000
40
0.0000000000
40
0.3237855905
40
0.6570368498
40
1.0000000000
40
1.0000000000
40
1.0000000000
40
1.0000000000
10
70.8076333846
20
19.7980802605
30
0.0000000000
10
70.7649367414
20
21.1070432649
30
0.0000000000
10
70.6794680471
20
23.7632743631
30
0.0000000000
10
70.5526827520
20
27.8061218511
30
0.0000000000
10
70.4690043861
20
30.5400172944
30
0.0000000000
10
70.4270242353
20
31.9266111811
30
0.0000000000
11
70.8076333846
21
19.7980802605
31
0.0000000000
11
70.6812253909
21
23.7250237756
31
0.0000000000
11
70.5544133404
21
27.7668736326
31
0.0000000000
11
70.4270242353
21
31.9266111811
31
0.0000000000
0
SPLINE
5
341
100
AcDbEntity
8
0
100
AcDbSpline
62
9
6
CONTINUOUS
70
0
71
3
72
10
73
6
74
4
42
0.0000001000
43
0.0000001000
44
0.0000000001
12
-0.2329641605
22
7.2574648668
32
0.0000000000
13
-0.2367250369
23
7.2573431674
33
0.0000000000
40
0.0000000000
40
0.0000000000
40
0.0000000000
40
0.0000000000
40
0.3332401865
40
0.6665735415
40
1.0000000000
40
1.0000000000
40
1.0000000000
40
1.0000000000
10
71.0425349205
20
12.5406779146
30
0.0000000000
10
71.0166572471
20
13.3468375632
30
0.0000000000
10
70.9647439570
20
14.9593774155
30
0.0000000000
10
70.8864298287
20
17.3785111251
30
0.0000000000
10
70.8339435148
20
18.9914835170
30
0.0000000000
10
70.8076333846
20
19.7980802605
30
0.0000000000
11
71.0425349205
21
12.5406779146
31
0.0000000000
11
70.9646790243
21
14.9591496959
31
0.0000000000
11
70.8863697388
21
17.3782837085
31
0.0000000000
11
70.8076333846
21
19.7980802605
31
0.0000000000
0
SPLINE
5
342
100
AcDbEntity
8
0
100
AcDbSpline
62
7
6
CONTINUOUS
70
0
71
3
72
11
73
7
74
5
42
0.0000001000
43
0.0000001000
44
0.0000000001
12
0.0000000000
22
3.5657503979
32
0.0000000000
13
3.1637912899
23
1.6589907207
33
0.0000000000
40
0.0000000000
40
0.0000000000
40
0.0000000000
40
0.0000000000
40
0.2414416012
40
0.5009065361
40
0.7895365496
40
1.0000000000
40
1.0000000000
40
1.0000000000
40
1.0000000000
10
-5.2426216688
20
27.9590708342
30
0.0000000000
10
-5.2426216688
20
28.2460443294
30
0.0000000000
10
-5.1246609212
20
28.8461948963
30
0.0000000000
10
-4.6262014290
20
29.6594152039
30
0.0000000000
10
-3.9504437192
20
30.2709765925
30
0.0000000000
10
-3.4423977475
20
30.5816011867
30
0.0000000000
10
-3.2204436038
20
30.6979868238
30
0.0000000000
11
-5.2426216688
21
27.9590708342
31
0.0000000000
11
-5.0828389320
21
28.8050339299
31
0.0000000000
11
-4.6127385098
21
29.6018883325
31
0.0000000000
11
-3.8595954675
21
30.3033099976
31
0.0000000000
11
-3.2204436038
21
30.6979868238
31
0.0000000000
0
SPLINE
5
343
100
AcDbEntity
8
0
100
AcDbSpline
62
7
6
CONTINUOUS
70
0
71
3
72
8
73
4
74
2
42
0.0000001000
43
0.0000001000
44
0.0000000001
12
0.0404816275
22
0.0212272676
32
0.0000000000
13
0.0406503297
23
0.0209045955
33
0.0000000000
40
0.0000000000
40
0.0000000000
40
0.0000000000
40
0.0000000000
40
1.0000000000
40
1.0000000000
40
1.0000000000
40
1.0000000000
10
-3.2204436038
20
30.6979868238
30
0.0000000000
10
-3.2069497280
20
30.7050625797
30
0.0000000000
10
-3.1934273347
20
30.7120843643
30
0.0000000000
10
-3.1798772248
20
30.7190525628
30
0.0000000000
11
-3.2204436038
21
30.6979868238
31
0.0000000000
11
-3.1798772248
21
30.7190525628
31
0.0000000000
0
SPLINE
5
344
100
AcDbEntity
8
0
100
AcDbSpline
62
7
6
CONTINUOUS
70
0
71
3
72
14
73
10
74
8
42
0.0000001000
43
0.0000001000
44
0.0000000001
12
6.3287923905
22
3.2546069371
32
0.0000000000
13
6.3287923905
23
-3.2546069371
33
0.0000000000
40
0.0000000000
40
0.0000000000
40
0.0000000000
40
0.0000000000
40
0.0487124487
40
0.2231525258
40
0.4066624468
40
0.5933375532
40
0.7768474742
40
0.9512875513
40
1.0000000000
40
1.0000000000
40
1.0000000000
40
1.0000000000
10
-3.1798772248
20
30.7190525628
30
0.0000000000
10
-3.0771135666
20
30.7718991873
30
0.0000000000
10
-2.5990486708
20
30.9998713100
30
0.0000000000
10
-1.6802401857
20
31.3038707025
30
0.0000000000
10
-0.4007031112
20
31.5030492605
30
0.0000000000
10
0.9154597737
20
31.5030492605
30
0.0000000000
10
2.1949968482
20
31.3038707025
30
0.0000000000
10
3.1138053332
20
30.9998713100
30
0.0000000000
10
3.5918702290
20
30.7718991873
30
0.0000000000
10
3.6946338872
20
30.7190525628
30
0.0000000000
11
-3.1798772248
21
30.7190525628
31
0.0000000000
11
-2.8671531042
21
30.8685141164
31
0.0000000000
11
-1.6930814162
21
31.2646311487
31
0.0000000000
11
-0.4056227969
21
31.4686222832
31
0.0000000000
11
0.9203794594
21
31.4686222832
31
0.0000000000
11
2.2078380787
21
31.2646311487
31
0.0000000000
11
3.3819097667
21
30.8685141164
31
0.0000000000
11
3.6946338872
21
30.7190525628
31
0.0000000000
0
SPLINE
5
345
100
AcDbEntity
8
0
100
AcDbSpline
62
7
6
CONTINUOUS
70
0
71
3
72
8
73
4
74
2
42
0.0000001000
43
0.0000001000
44
0.0000000001
12
0.0406503297
22
-0.0209045955
32
0.0000000000
13
0.0404816275
23
-0.0212272676
33
0.0000000000
40
0.0000000000
40
0.0000000000
40
0.0000000000
40
0.0000000000
40
1.0000000000
40
1.0000000000
40
1.0000000000
40
1.0000000000
10
3.6946338872
20
30.7190525628
30
0.0000000000
10
3.7081839971
20
30.7120843643
30
0.0000000000
10
3.7217063904
20
30.7050625797
30
0.0000000000
10
3.7352002663
20
30.6979868238
30
0.0000000000
11
3.6946338872
21
30.7190525628
31
0.0000000000
11
3.7352002663
21
30.6979868238
31
0.0000000000
0
SPLINE
5
346
100
AcDbEntity
8
0
100
AcDbSpline
62
7
6
CONTINUOUS
70
0
71
3
72
11
73
7
74
5
42
0.0000001000
43
0.0000001000
44
0.0000000001
12
3.1637912899
22
-1.6589907207
32
0.0000000000
13
0.0000000000
23
-3.5657503979
33
0.0000000000
40
0.0000000000
40
0.0000000000
40
0.0000000000
40
0.0000000000
40
0.2104634504
40
0.4990934639
40
0.7585583988
40
1.0000000000
40
1.0000000000
40
1.0000000000
40
1.0000000000
10
3.7352002663
20
30.6979868238
30
0.0000000000
10
3.9571544100
20
30.5816011867
30
0.0000000000
10
4.4652003816
20
30.2709765925
30
0.0000000000
10
5.1409580914
20
29.6594152039
30
0.0000000000
10
5.6394175837
20
28.8461948963
30
0.0000000000
10
5.7573783312
20
28.2460443294
30
0.0000000000
10
5.7573783312
20
27.9590708342
30
0.0000000000
11
3.7352002663
21
30.6979868238
31
0.0000000000
11
4.3743521300
21
30.3033099976
31
0.0000000000
11
5.1274951722
21
29.6018883325
31
0.0000000000
11
5.5975955945
21
28.8050339299
31
0.0000000000
11
5.7573783312
21
27.9590708342
31
0.0000000000
0
SPLINE
5
347
100
AcDbEntity
8
0
100
AcDbSpline
62
9
6
CONTINUOUS
70
0
71
3
72
10
73
6
74
4
42
0.0000001000
43
0.0000001000
44
0.0000000001
12
0.9404428001
22
4.7254196332
32
0.0000000000
13
1.3252400021
23
4.6322524011
33
0.0000000000
40
0.0000000000
40
0.0000000000
40
0.0000000000
40
0.0000000000
40
0.3780175214
40
0.7105994361
40
1.0000000000
40
1.0000000000
40
1.0000000000
40
1.0000000000
10
71.4239274045
20
31.9567930186
30
0.0000000000
10
71.5424286899
20
32.5522234910
30
0.0000000000
10
71.7755918963
20
33.6695037356
30
0.0000000000
10
72.1405567712
20
35.2336798171
30
0.0000000000
10
72.3964369813
20
36.1995085022
30
0.0000000000
10
72.5242787159
20
36.6463673212
30
0.0000000000
11
71.4239274045
21
31.9567930186
31
0.0000000000
11
71.7979092199
21
33.7393074282
31
0.0000000000
11
72.1645733067
21
35.2992040656
31
0.0000000000
11
72.5242787159
21
36.6463673212
31
0.0000000000
0
SPLINE
5
348
100
AcDbEntity
8
0
100
AcDbSpline
62
9
6
CONTINUOUS
70
0
71
3
72
10
73
6
74
4
42
0.0000001000
43
0.0000001000
44
0.0000000001
12
-0.3958948341
22
12.1257077531
32
0.0000000000
13
-0.3675357779
23
12.1266004587
33
0.0000000000
40
0.0000000000
40
0.0000000000
40
0.0000000000
40
0.0000000000
40
0.3237785198
40
0.6570294433
40
1.0000000000
40
1.0000000000
40
1.0000000000
40
1.0000000000
10
71.8048440279
20
19.8306079668
30
0.0000000000
10
71.7621166134
20
21.1392892028
30
0.0000000000
10
71.6765838195
20
23.7949765954
30
0.0000000000
10
71.5496976127
20
27.8370421763
30
0.0000000000
10
71.4659453880
20
30.5704373818
30
0.0000000000
10
71.4239274045
20
31.9567930186
30
0.0000000000
11
71.8048440279
21
19.8306079668
31
0.0000000000
11
71.6783426595
21
23.7567061938
31
0.0000000000
11
71.5514290048
21
27.7977702363
31
0.0000000000
11
71.4239274045
21
31.9567930186
31
0.0000000000
0
SPLINE
5
349
100
AcDbEntity
8
0
100
AcDbSpline
62
9
6
CONTINUOUS
70
0
71
3
72
9
73
5
74
3
42
0.0000001000
43
0.0000001000
44
0.0000000001
12
-0.6254298764
22
4.6219384713
32
0.0000000000
13
-0.7023786256
23
4.6108721549
33
0.0000000000
40
0.0000000000
40
0.0000000000
40
0.0000000000
40
0.0000000000
40
0.2498378969
40
1.0000000000
40
1.0000000000
40
1.0000000000
40
1.0000000000
10
72.4688011625
20
15.2140773154
30
0.0000000000
10
72.4167158008
20
15.5989891112
30
0.0000000000
10
72.2050231821
20
17.1391984062
30
0.0000000000
10
71.9804766369
20
18.6776407826
30
0.0000000000
10
71.8048440279
20
19.8306079668
30
0.0000000000
11
72.4688011625
21
15.2140773154
31
0.0000000000
11
72.3101357946
21
16.3684841242
31
0.0000000000
11
71.8048440279
21
19.8306079668
31
0.0000000000
0
SPLINE
5
34A
100
AcDbEntity
8
0
100
AcDbSpline
62
9
6
CONTINUOUS
70
0
71
3
72
10
73
6
74
4
42
0.0000001000
43
0.0000001000
44
0.0000000001
12
-0.2247314205
22
6.9921845021
32
0.0000000000
13
-0.2282090281
23
6.9920718648
33
0.0000000000
40
0.0000000000
40
0.0000000000
40
0.0000000000
40
0.0000000000
40
0.3332450164
40
0.6665783681
40
1.0000000000
40
1.0000000000
40
1.0000000000
40
1.0000000000
10
72.0313660397
20
12.8384813086
30
0.0000000000
10
72.0064024977
20
13.6151848549
30
0.0000000000
10
71.9563285602
20
15.1687933293
30
0.0000000000
10
71.8808098088
20
17.4995018766
30
0.0000000000
10
71.8302073034
20
19.0535052963
30
0.0000000000
10
71.8048440279
20
19.8306079668
30
0.0000000000
11
72.0313660397
21
12.8384813086
31
0.0000000000
11
71.9562689065
21
15.1685853012
31
0.0000000000
11
71.8807539918
21
17.4992940920
31
0.0000000000
11
71.8048440279
21
19.8306079668
31
0.0000000000
0
SPLINE
5
34B
100
AcDbEntity
8
0
100
AcDbSpline
62
9
6
CONTINUOUS
70
0
71
3
72
10
73
6
74
4
42
0.0000001000
43
0.0000001000
44
0.0000000001
12
1.3251725081
22
-4.6320218745
32
0.0000000000
13
0.9403959223
23
-4.7251840527
33
0.0000000000
40
0.0000000000
40
0.0000000000
40
0.0000000000
40
0.0000000000
40
0.2894070059
40
0.6220036460
40
1.0000000000
40
1.0000000000
40
1.0000000000
40
1.0000000000
10
-72.0095274190
20
36.6461172854
30
0.0000000000
10
-71.8816893497
20
36.1992707580
30
0.0000000000
10
-71.6257129060
20
35.2334840996
30
0.0000000000
10
-71.2608206321
20
33.6693716858
30
0.0000000000
10
-71.0276594852
20
32.5521604711
30
0.0000000000
10
-70.9091707419
20
31.9567930230
30
0.0000000000
11
-72.0095274190
21
36.6461172854
31
0.0000000000
11
-71.6497677165
21
35.2990083531
31
0.0000000000
11
-71.2831108060
21
33.7391192144
31
0.0000000000
11
-70.9091707419
21
31.9567930230
31
0.0000000000
0
SPLINE
5
34C
100
AcDbEntity
8
0
100
AcDbSpline
62
9
6
CONTINUOUS
70
0
71
3
72
10
73
6
74
4
42
0.0000001000
43
0.0000001000
44
0.0000000001
12
-0.2367250369
22
-7.2573431674
32
0.0000000000
13
-0.2329641605
23
-7.2574648667
33
0.0000000000
40
0.0000000000
40
0.0000000000
40
0.0000000000
40
0.0000000000
40
0.3334264585
40
0.6667598135
40
1.0000000000
40
1.0000000000
40
1.0000000000
40
1.0000000000
10
-70.2928767221
20
19.7980802604
30
0.0000000000
10
-70.3191868524
20
18.9914835169
30
0.0000000000
10
-70.3716731663
20
17.3785111251
30
0.0000000000
10
-70.4499872945
20
14.9593774155
30
0.0000000000
10
-70.5019005847
20
13.3468375633
30
0.0000000000
10
-70.5277782581
20
12.5406779146
30
0.0000000000
11
-70.2928767221
21
19.7980802604
31
0.0000000000
11
-70.3716130763
21
17.3782837085
31
0.0000000000
11
-70.4499223618
21
14.9591496959
31
0.0000000000
11
-70.5277782581
21
12.5406779146
31
0.0000000000
0
SPLINE
5
34D
100
AcDbEntity
8
0
100
AcDbSpline
62
9
6
CONTINUOUS
70
0
71
3
72
10
73
6
74
4
42
0.0000001000
43
0.0000001000
44
0.0000000001
12
-0.3675357781
22
-12.1266004632
32
0.0000000000
13
-0.3958948339
23
-12.1257077576
33
0.0000000000
40
0.0000000000
40
0.0000000000
40
0.0000000000
40
0.0000000000
40
0.3429705632
40
0.6762214864
40
1.0000000000
40
1.0000000000
40
1.0000000000
40
1.0000000000
10
-70.9091707419
20
31.9567930230
30
0.0000000000
10
-70.9511887262
20
30.5704373594
30
0.0000000000
10
-71.0349409517
20
27.8370421276
30
0.0000000000
10
-71.1618271586
20
23.7949765453
30
0.0000000000
10
-71.2473599518
20
21.1392891780
30
0.0000000000
10
-71.2900873654
20
19.8306079668
30
0.0000000000
11
-70.9091707419
21
31.9567930230
31
0.0000000000
11
-71.0366723447
21
27.7977701601
31
0.0000000000
11
-71.1635859994
21
23.7567061195
31
0.0000000000
11
-71.2900873654
21
19.8306079668
31
0.0000000000
0
SPLINE
5
34E
100
AcDbEntity
8
0
100
AcDbSpline
62
9
6
CONTINUOUS
70
0
71
3
72
9
73
5
74
3
42
0.0000001000
43
0.0000001000
44
0.0000000001
12
0.6254298764
22
4.6219384713
32
0.0000000000
13
0.7023786256
23
4.6108721549
33
0.0000000000
40
0.0000000000
40
0.0000000000
40
0.0000000000
40
0.0000000000
40
0.2498378969
40
1.0000000000
40
1.0000000000
40
1.0000000000
40
1.0000000000
10
-71.9540445000
20
15.2140773154
30
0.0000000000
10
-71.9019591384
20
15.5989891112
30
0.0000000000
10
-71.6902665197
20
17.1391984062
30
0.0000000000
10
-71.4657199744
20
18.6776407826
30
0.0000000000
10
-71.2900873654
20
19.8306079668
30
0.0000000000
11
-71.9540445000
21
15.2140773154
31
0.0000000000
11
-71.7953791321
21
16.3684841242
31
0.0000000000
11
-71.2900873654
21
19.8306079668
31
0.0000000000
0
SPLINE
5
34F
100
AcDbEntity
8
0
100
AcDbSpline
62
9
6
CONTINUOUS
70
0
71
3
72
10
73
6
74
4
42
0.0000001000
43
0.0000001000
44
0.0000000001
12
-0.2282090281
22
-6.9920718648
32
0.0000000000
13
-0.2247314205
23
-6.9921845021
33
0.0000000000
40
0.0000000000
40
0.0000000000
40
0.0000000000
40
0.0000000000
40
0.3334216319
40
0.6667549836
40
1.0000000000
40
1.0000000000
40
1.0000000000
40
1.0000000000
10
-71.2900873654
20
19.8306079668
30
0.0000000000
10
-71.3154506410
20
19.0535052964
30
0.0000000000
10
-71.3660531464
20
17.4995018766
30
0.0000000000
10
-71.4415718977
20
15.1687933294
30
0.0000000000
10
-71.4916458353
20
13.6151848550
30
0.0000000000
10
-71.5166093773
20
12.8384813086
30
0.0000000000
11
-71.2900873654
21
19.8306079668
31
0.0000000000
11
-71.3659973293
21
17.4992940920
31
0.0000000000
11
-71.4415122440
21
15.1685853013
31
0.0000000000
11
-71.5166093773
21
12.8384813086
31
0.0000000000
0
SPLINE
5
350
100
AcDbEntity
8
0
100
AcDbSpline
62
9
6
CONTINUOUS
70
0
71
3
72
10
73
6
74
4
42
0.0000001000
43
0.0000001000
44
0.0000000001
12
-0.8240815857
22
-2.8827640954
32
0.0000000000
13
-0.0701152991
23
-2.9974194125
33
0.0000000000
40
0.0000000000
40
0.0000000000
40
0.0000000000
40
0.0000000000
40
0.3395259155
40
0.6736263991
40
1.0000000000
40
1.0000000000
40
1.0000000000
40
1.0000000000
10
-17.5116247824
20
36.8376755043
30
0.0000000000
10
-17.6048904674
20
36.5114177980
30
0.0000000000
10
-17.7542957762
20
35.8534870836
30
0.0000000000
10
-17.8839148768
20
34.8615476768
30
0.0000000000
10
-17.9222105785
20
34.2019566636
30
0.0000000000
10
-17.9298385060
20
33.8758638079
30
0.0000000000
11
-17.5116247824
21
36.8376755043
31
0.0000000000
11
-17.7397254340
21
35.8455800944
31
0.0000000000
11
-17.8728094555
21
34.8527467638
31
0.0000000000
11
-17.9298385060
21
33.8758638079
31
0.0000000000
0
SPLINE
5
351
100
AcDbEntity
8
0
100
AcDbSpline
62
9
6
CONTINUOUS
70
0
71
3
72
15
73
11
74
9
42
0.0000001000
43
0.0000001000
44
0.0000000001
12
-2.4504936162
22
-0.0000630703
32
0.0000000000
13
-0.6702688910
23
-2.3570444588
33
0.0000000000
40
0.0000000000
40
0.0000000000
40
0.0000000000
40
0.0000000000
40
0.2131980928
40
0.4035246162
40
0.5699541905
40
0.7116405653
40
0.8258744262
40
0.9102031632
40
0.9661613556
40
1.0000000000
40
1.0000000000
40
1.0000000000
40
1.0000000000
10
-15.1393643084
20
37.2241716505
30
0.0000000000
10
-15.3135111635
20
37.2241671684
30
0.0000000000
10
-15.6431555895
20
37.2189877966
30
0.0000000000
10
-16.1082173256
20
37.1954547018
30
0.0000000000
10
-16.5138341485
20
37.1588089560
30
0.0000000000
10
-16.8556389917
20
37.1105911302
30
0.0000000000
10
-17.1278902637
20
37.0535614414
30
0.0000000000
10
-17.3263380204
20
36.9888790626
30
0.0000000000
10
-17.4531073023
20
36.9234982107
30
0.0000000000
10
-17.5040644522
20
36.8642619006
30
0.0000000000
10
-17.5116247824
20
36.8376755043
30
0.0000000000
11
-15.1393643084
21
37.2241716505
31
0.0000000000
11
-15.6617327209
21
37.2154891312
31
0.0000000000
11
-16.1274935077
21
37.1911953427
31
0.0000000000
11
-16.5335670650
21
37.1533359368
31
0.0000000000
11
-16.8771391507
21
37.1032645559
31
0.0000000000
11
-17.1504742365
21
37.0428628164
31
0.0000000000
11
-17.3458396822
21
36.9755178948
31
0.0000000000
11
-17.4636120915
21
36.9052827310
31
0.0000000000
11
-17.5116247824
21
36.8376755043
31
0.0000000000
0
SPLINE
5
352
100
AcDbEntity
8
0
100
AcDbSpline
62
9
6
CONTINUOUS
70
0
71
3
72
15
73
11
74
9
42
0.0000001000
43
0.0000001000
44
0.0000000001
12
-0.6702671293
22
2.3570449627
32
0.0000000000
13
-2.4504936190
23
0.0000631933
33
0.0000000000
40
0.0000000000
40
0.0000000000
40
0.0000000000
40
0.0000000000
40
0.0338386418
40
0.0897968396
40
0.1741255743
40
0.2883594355
40
0.4300458109
40
0.5964753829
40
0.7868019094
40
1.0000000000
40
1.0000000000
40
1.0000000000
40
1.0000000000
10
18.0263814449
20
36.8376755043
30
0.0000000000
10
18.0188211351
20
36.8642619043
30
0.0000000000
10
17.9678639634
20
36.9234982178
30
0.0000000000
10
17.8410946851
20
36.9888790537
30
0.0000000000
10
17.6426469254
20
37.0535614461
30
0.0000000000
10
17.3703956542
20
37.1105911293
30
0.0000000000
10
17.0285908113
20
37.1588089529
30
0.0000000000
10
16.6229739878
20
37.1954547104
30
0.0000000000
10
16.1579122508
20
37.2189877826
30
0.0000000000
10
15.8282678243
20
37.2241671596
30
0.0000000000
10
15.6541209708
20
37.2241716505
30
0.0000000000
11
18.0263814449
21
36.8376755043
31
0.0000000000
11
17.9783687656
21
36.9052827318
31
0.0000000000
11
17.8605963398
21
36.9755178942
31
0.0000000000
11
17.6652309004
21
37.0428628167
31
0.0000000000
11
17.3918958134
21
37.1032645560
31
0.0000000000
11
17.0483237258
21
37.1533359360
31
0.0000000000
11
16.6422501739
21
37.1911953456
31
0.0000000000
11
16.1764893783
21
37.2154891230
31
0.0000000000
11
15.6541209708
21
37.2241716505
31
0.0000000000
0
SPLINE
5
353
100
AcDbEntity
8
0
100
AcDbSpline
62
9
6
CONTINUOUS
70
0
71
3
72
10
73
6
74
4
42
0.0000001000
43
0.0000001000
44
0.0000000001
12
-0.0701153457
22
2.9974194119
32
0.0000000000
13
-0.8240816238
23
2.8827640850
33
0.0000000000
40
0.0000000000
40
0.0000000000
40
0.0000000000
40
0.0000000000
40
0.3263736008
40
0.6604740847
40
1.0000000000
40
1.0000000000
40
1.0000000000
40
1.0000000000
10
18.4445951679
20
33.8758638076
30
0.0000000000
10
18.4369672353
20
34.2019566632
30
0.0000000000
10
18.3986715512
20
34.8615476777
30
0.0000000000
10
18.2690524315
20
35.8534870823
30
0.0000000000
10
18.1196471341
20
36.5114177993
30
0.0000000000
10
18.0263814449
20
36.8376755043
30
0.0000000000
11
18.4445951679
21
33.8758638076
31
0.0000000000
11
18.3875661224
21
34.8527467638
31
0.0000000000
11
18.2544820954
21
35.8455800943
31
0.0000000000
11
18.0263814449
21
36.8376755043
31
0.0000000000
0
SPLINE
5
354
100
AcDbEntity
8
0
100
AcDbSpline
62
9
6
CONTINUOUS
70
0
71
3
72
10
73
6
74
4
42
0.0000001000
43
0.0000001000
44
0.0000000001
12
0.9402000135
22
4.7814209844
32
0.0000000000
13
1.3263139596
23
4.6890141796
33
0.0000000000
40
0.0000000000
40
0.0000000000
40
0.0000000000
40
0.0000000000
40
0.3780380856
40
0.7105714461
40
1.0000000000
40
1.0000000000
40
1.0000000000
40
1.0000000000
10
69.4446432272
20
33.8758637697
30
0.0000000000
10
69.5631203650
20
34.4783835148
30
0.0000000000
10
69.7961399686
20
35.6089303364
30
0.0000000000
10
70.1615520438
20
37.1917714524
30
0.0000000000
10
70.4167309282
20
38.1695178507
30
0.0000000000
10
70.5446886386
20
38.6218960485
30
0.0000000000
11
69.4446432272
21
33.8758637697
31
0.0000000000
11
69.8186004505
21
35.6796813530
31
0.0000000000
11
70.1852802166
21
37.2580784392
31
0.0000000000
11
70.5446886386
21
38.6218960485
31
0.0000000000
0
SPLINE
5
355
100
AcDbEntity
8
0
100
AcDbSpline
62
9
6
CONTINUOUS
70
0
71
3
72
10
73
6
74
4
42
0.0000001000
43
0.0000001000
44
0.0000000001
12
1.3263083968
22
-4.6889945248
32
0.0000000000
13
0.9401960752
23
-4.7814009409
33
0.0000000000
40
0.0000000000
40
0.0000000000
40
0.0000000000
40
0.0000000000
40
0.2894702908
40
0.6220091383
40
1.0000000000
40
1.0000000000
40
1.0000000000
40
1.0000000000
10
-70.0298518404
20
38.6218960485
30
0.0000000000
10
-69.9018762146
20
38.1694545122
30
0.0000000000
10
-69.6467970411
20
37.1916068238
30
0.0000000000
10
-69.2813381366
20
35.6087853034
30
0.0000000000
10
-69.0483484065
20
34.4783057240
30
0.0000000000
10
-68.9298865649
20
33.8758637701
30
0.0000000000
11
-70.0298518404
21
38.6218960485
31
0.0000000000
11
-69.6704712798
21
37.2578668871
31
0.0000000000
11
-69.3037928546
21
35.6794490130
31
0.0000000000
11
-68.9298865649
21
33.8758637701
31
0.0000000000
0
SPLINE
5
356
100
AcDbEntity
8
0
100
AcDbSpline
62
7
6
CONTINUOUS
70
0
71
3
72
11
73
7
74
5
42
0.0000001000
43
0.0000001000
44
0.0000000001
12
0.9855295030
22
-0.6144796167
32
0.0000000000
13
1.1608785625
23
-0.0000360001
33
0.0000000000
40
0.0000000000
40
0.0000000000
40
0.0000000000
40
0.0000000000
40
0.0453240945
40
0.3974327211
40
0.7632035094
40
1.0000000000
40
1.0000000000
40
1.0000000000
40
1.0000000000
10
-70.2254554903
20
-45.9655014460
30
0.0000000000
10
-70.2105660795
20
-45.9747850234
30
0.0000000000
10
-70.0788552209
20
-46.0543356830
30
0.0000000000
10
-69.8076900834
20
-46.1755554835
30
0.0000000000
10
-69.4452499207
20
-46.2555752815
30
0.0000000000
10
-69.2118939191
20
-46.2694557836
30
0.0000000000
10
-69.1202632625
20
-46.2694586252
30
0.0000000000
11
-70.2254554903
21
-45.9655014460
31
0.0000000000
11
-70.1804013853
21
-45.9927156504
31
0.0000000000
11
-69.8083391118
21
-46.1604307609
31
0.0000000000
11
-69.3945927929
21
-46.2528900329
31
0.0000000000
11
-69.1202632625
21
-46.2694586252
31
0.0000000000
0
SPLINE
5
357
100
AcDbEntity
8
0
100
AcDbSpline
62
7
6
CONTINUOUS
70
0
71
3
72
11
73
7
74
5
42
0.0000001000
43
0.0000001000
44
0.0000000001
12
1.1604615472
22
0.0000431511
32
0.0000000000
13
0.9853534923
23
0.6141210564
33
0.0000000000
40
0.0000000000
40
0.0000000000
40
0.0000000000
40
0.0000000000
40
0.2465582619
40
0.6104935464
40
0.9609526708
40
1.0000000000
40
1.0000000000
40
1.0000000000
40
1.0000000000
10
69.6350197316
20
-46.2694598164
30
0.0000000000
10
69.7303935256
20
-46.2694562700
30
0.0000000000
10
69.9667584125
20
-46.2548193823
30
0.0000000000
10
70.3310814611
20
-46.1725667559
30
0.0000000000
10
70.5982018274
20
-46.0518408092
30
0.0000000000
10
70.7271058220
20
-45.9736715813
30
0.0000000000
10
70.7399309628
20
-45.9656783189
30
0.0000000000
11
69.6350197316
21
-46.2694598164
31
0.0000000000
11
69.9205126133
21
-46.2514976963
31
0.0000000000
11
70.3316310137
21
-46.1575754100
31
0.0000000000
11
70.7011686818
21
-45.9891858743
31
0.0000000000
11
70.7399309628
21
-45.9656783189
31
0.0000000000
0
SPLINE
5
358
100
AcDbEntity
8
0
100
AcDbSpline
62
7
6
CONTINUOUS
70
0
71
3
72
10
73
6
74
4
42
0.0000001000
43
0.0000001000
44
0.0000000001
12
4.4814384094
22
2.7836363587
32
0.0000000000
13
2.5736928908
23
4.6034616518
33
0.0000000000
40
0.0000000000
40
0.0000000000
40
0.0000000000
40
0.0000000000
40
0.2862308311
40
0.6322999141
40
1.0000000000
40
1.0000000000
40
1.0000000000
40
1.0000000000
10
70.7378742103
20
-45.9669412146
30
0.0000000000
10
71.1654494905
20
-45.7013536984
30
0.0000000000
10
72.0588605678
20
-45.0281304340
30
0.0000000000
10
73.2551468888
20
-43.7282797877
30
0.0000000000
10
73.9426062912
20
-42.6717951716
30
0.0000000000
10
74.2580553236
20
-42.1075640900
30
0.0000000000
11
70.7378742103
21
-45.9669412146
31
0.0000000000
11
71.9462377854
21
-45.0613754415
31
0.0000000000
11
73.1901501822
21
-43.7261445034
31
0.0000000000
11
74.2580553236
21
-42.1075640900
31
0.0000000000
0
SPLINE
5
359
100
AcDbEntity
8
0
100
AcDbSpline
62
7
6
CONTINUOUS
70
0
71
3
72
8
73
4
74
2
42
0.0000001000
43
0.0000001000
44
0.0000000001
12
-0.1116421732
22
0.1996631079
32
0.0000000000
13
-0.0814075524
23
0.2138565811
33
0.0000000000
40
0.0000000000
40
0.0000000000
40
0.0000000000
40
0.0000000000
40
1.0000000000
40
1.0000000000
40
1.0000000000
40
1.0000000000
10
-73.7432964720
20
-42.1075675307
30
0.0000000000
10
-73.7805105297
20
-42.0410131613
30
0.0000000000
10
-73.8129368459
20
-41.9717588060
30
0.0000000000
10
-73.8400726967
20
-41.9004732789
30
0.0000000000
11
-73.7432964720
21
-42.1075675307
31
0.0000000000
11
-73.8400726967
21
-41.9004732789
31
0.0000000000
0
SPLINE
5
35A
100
AcDbEntity
8
0
100
AcDbSpline
62
7
6
CONTINUOUS
70
0
71
3
72
10
73
6
74
4
42
0.0000001000
43
0.0000001000
44
0.0000000001
12
2.5737398382
22
-4.6035485851
32
0.0000000000
13
4.4814114778
23
-2.7835716489
33
0.0000000000
40
0.0000000000
40
0.0000000000
40
0.0000000000
40
0.0000000000
40
0.3665735987
40
0.7126921620
40
1.0000000000
40
1.0000000000
40
1.0000000000
40
1.0000000000
10
-73.7432967600
20
-42.1075675923
30
0.0000000000
10
-73.4288084018
20
-42.6700807162
30
0.0000000000
10
-72.7426151555
20
-43.7250845335
30
0.0000000000
10
-71.5470763341
20
-45.0256219012
30
0.0000000000
10
-70.6522790215
20
-45.7003744116
30
0.0000000000
10
-70.2230974739
20
-45.9669550624
30
0.0000000000
11
-73.7432967600
21
-42.1075675923
31
0.0000000000
11
-72.6790418853
21
-43.7214690353
31
0.0000000000
11
-71.4357079647
21
-45.0576067618
31
0.0000000000
11
-70.2230974739
21
-45.9669550624
31
0.0000000000
0
SPLINE
5
35B
100
AcDbEntity
8
0
100
AcDbSpline
62
7
6
CONTINUOUS
70
0
71
3
72
8
73
4
74
2
42
0.0000001000
43
0.0000001000
44
0.0000000001
12
-0.0814107283
22
-0.2138737420
32
0.0000000000
13
-0.1116502187
23
-0.1996786827
33
0.0000000000
40
0.0000000000
40
0.0000000000
40
0.0000000000
40
0.0000000000
40
1.0000000000
40
1.0000000000
40
1.0000000000
40
1.0000000000
10
74.3548369855
20
-41.9004534566
30
0.0000000000
10
74.3277000760
20
-41.9717447040
30
0.0000000000
10
74.2952718123
20
-42.0410044883
30
0.0000000000
10
74.2580550727
20
-42.1075640492
30
0.0000000000
11
74.3548369855
21
-41.9004534566
31
0.0000000000
11
74.2580550727
21
-42.1075640492
31
0.0000000000
0
SPLINE
5
35C
100
AcDbEntity
8
0
100
AcDbSpline
62
9
6
CONTINUOUS
70
0
71
3
72
8
73
4
74
2
42
0.0000001000
43
0.0000001000
44
0.0000000001
12
0.1502058356
22
0.0002260699
32
0.0000000000
13
0.1499583465
23
0.0098709093
33
0.0000000000
40
0.0000000000
40
0.0000000000
40
0.0000000000
40
0.0000000000
40
1.0000000000
40
1.0000000000
40
1.0000000000
40
1.0000000000
10
72.4719019079
20
-43.0375350565
30
0.0000000000
10
72.5219705198
20
-43.0374596999
30
0.0000000000
10
72.5720596071
20
-43.0357822970
30
0.0000000000
10
72.6220457226
20
-43.0324919939
30
0.0000000000
11
72.4719019079
21
-43.0375350565
31
0.0000000000
11
72.6220457226
21
-43.0324919939
31
0.0000000000
0
SPLINE
5
35D
100
AcDbEntity
8
0
100
AcDbSpline
62
9
6
CONTINUOUS
70
0
71
3
72
9
73
5
74
3
42
0.0000001000
43
0.0000001000
44
0.0000000001
12
0.1477294043
22
0.0097241906
32
0.0000000000
13
0.1467888634
23
0.0191473227
33
0.0000000000
40
0.0000000000
40
0.0000000000
40
0.0000000000
40
0.0000000000
40
0.5010291559
40
1.0000000000
40
1.0000000000
40
1.0000000000
40
1.0000000000
10
72.6220457226
20
-43.0324919939
30
0.0000000000
10
72.6467179689
20
-43.0308679596
30
0.0000000000
10
72.6959110341
20
-43.0268422972
30
0.0000000000
10
72.7449450323
20
-43.0212461265
30
0.0000000000
10
72.7693594867
20
-43.0180614745
30
0.0000000000
11
72.6220457226
21
-43.0324919939
31
0.0000000000
11
72.6959723581
21
-43.0264397661
31
0.0000000000
11
72.7693594867
21
-43.0180614745
31
0.0000000000
0
SPLINE
5
35E
100
AcDbEntity
8
0
100
AcDbSpline
62
9
6
CONTINUOUS
70
0
71
3
72
16
73
12
74
10
42
0.0000001000
43
0.0000001000
44
0.0000000001
12
1.6503131258
22
0.2152689061
32
0.0000000000
13
0.9260953134
23
1.3832489465
33
0.0000000000
40
0.0000000000
40
0.0000000000
40
0.0000000000
40
0.0000000000
40
0.0883849854
40
0.2200400045
40
0.3495032979
40
0.4758124818
40
0.5999166830
40
0.7229026771
40
0.8436691671
40
0.9612804385
40
1.0000000000
40
1.0000000000
40
1.0000000000
40
1.0000000000
10
72.7693594867
20
-43.0180614745
30
0.0000000000
10
72.8179804538
20
-43.0117192948
30
0.0000000000
10
72.9385111938
20
-42.9920563620
30
0.0000000000
10
73.1269540561
20
-42.9454045814
30
0.0000000000
10
73.3296979186
20
-42.8732361703
30
0.0000000000
10
73.5203355615
20
-42.7827437285
30
0.0000000000
10
73.6975246036
20
-42.6748592204
30
0.0000000000
10
73.8596904099
20
-42.5504276127
30
0.0000000000
10
74.0043777938
20
-42.4111568786
30
0.0000000000
10
74.1023220424
20
-42.2923034284
30
0.0000000000
10
74.1520176350
20
-42.2211835442
30
0.0000000000
10
74.1639703031
20
-42.2033306133
30
0.0000000000
11
72.7693594867
21
-43.0180614745
31
0.0000000000
11
72.9145041724
21
-42.9943566633
31
0.0000000000
11
73.1270826260
21
-42.9416074497
31
0.0000000000
11
73.3299417579
21
-42.8692450522
31
0.0000000000
11
73.5197020893
21
-42.7789877029
31
0.0000000000
11
73.6959552347
21
-42.6714608944
31
0.0000000000
11
73.8581590002
21
-42.5467515381
31
0.0000000000
11
74.0027699805
21
-42.4072781876
31
0.0000000000
11
74.1270595288
21
-42.2561636495
31
0.0000000000
11
74.1639703031
21
-42.2033306133
31
0.0000000000
0
SPLINE
5
35F
100
AcDbEntity
8
0
100
AcDbSpline
62
9
6
CONTINUOUS
70
0
71
3
72
9
73
5
74
3
42
0.0000001000
43
0.0000001000
44
0.0000000001
12
0.0818493538
22
0.1222531102
32
0.0000000000
13
0.0702068820
23
0.1292950242
33
0.0000000000
40
0.0000000000
40
0.0000000000
40
0.0000000000
40
0.0000000000
40
0.8724328093
40
1.0000000000
40
1.0000000000
40
1.0000000000
40
1.0000000000
10
74.1639703031
20
-42.2033306133
30
0.0000000000
10
74.1877729903
20
-42.1677780719
30
0.0000000000
10
74.2134388317
20
-42.1259444262
30
0.0000000000
10
74.2370994234
20
-42.0829866618
30
0.0000000000
10
74.2400847883
20
-42.0774887274
30
0.0000000000
11
74.1639703031
21
-42.2033306133
31
0.0000000000
11
74.2310301607
21
-42.0939283712
31
0.0000000000
11
74.2400847883
21
-42.0774887274
31
0.0000000000
0
SPLINE
5
360
100
AcDbEntity
8
0
100
AcDbSpline
62
7
6
CONTINUOUS
70
0
71
3
72
8
73
4
74
2
42
0.0000001000
43
0.0000001000
44
0.0000000001
12
-0.0004126499
22
0.1608251059
32
0.0000000000
13
0.0001487025
23
0.1608258251
33
0.0000000000
40
0.0000000000
40
0.0000000000
40
0.0000000000
40
0.0000000000
40
1.0000000000
40
1.0000000000
40
1.0000000000
40
1.0000000000
10
72.4719019092
20
-43.0375376483
30
0.0000000000
10
72.4717643592
20
-42.9839292797
30
0.0000000000
10
72.4718047072
20
-42.9303206814
30
0.0000000000
10
72.4718542747
20
-42.8767120731
30
0.0000000000
11
72.4719019092
21
-43.0375376483
31
0.0000000000
11
72.4718542747
21
-42.8767120731
31
0.0000000000
0
SPLINE
5
361
100
AcDbEntity
8
0
100
AcDbSpline
62
7
6
CONTINUOUS
70
0
71
3
72
8
73
4
74
2
42
0.0000001000
43
0.0000001000
44
0.0000000001
12
0.0004122912
22
0.1608251066
32
0.0000000000
13
-0.0001485732
23
0.1608258246
33
0.0000000000
40
0.0000000000
40
0.0000000000
40
0.0000000000
40
0.0000000000
40
1.0000000000
40
1.0000000000
40
1.0000000000
40
1.0000000000
10
-71.9571452504
20
-43.0375376483
30
0.0000000000
10
-71.9570078200
20
-42.9839292794
30
0.0000000000
10
-71.9570481329
20
-42.9303206813
30
0.0000000000
10
-71.9570976573
20
-42.8767120732
30
0.0000000000
11
-71.9571452504
21
-43.0375376483
31
0.0000000000
11
-71.9570976573
21
-42.8767120732
31
0.0000000000
0
SPLINE
5
362
100
AcDbEntity
8
0
100
AcDbSpline
62
9
6
CONTINUOUS
70
0
71
3
72
9
73
5
74
3
42
0.0000001000
43
0.0000001000
44
0.0000000001
12
0.0702069096
22
-0.1292950887
32
0.0000000000
13
0.0818493927
23
-0.1222531682
33
0.0000000000
40
0.0000000000
40
0.0000000000
40
0.0000000000
40
0.0000000000
40
0.1275676041
40
1.0000000000
40
1.0000000000
40
1.0000000000
40
1.0000000000
10
-73.7253281647
20
-42.0774886759
30
0.0000000000
10
-73.7223427890
20
-42.0829866308
30
0.0000000000
10
-73.6986821870
20
-42.1259444162
30
0.0000000000
10
-73.6730163335
20
-42.1677780817
30
0.0000000000
10
-73.6492136462
20
-42.2033306231
30
0.0000000000
11
-73.7253281647
21
-42.0774886759
31
0.0000000000
11
-73.7162735039
21
-42.0939283809
31
0.0000000000
11
-73.6492136462
21
-42.2033306231
31
0.0000000000
0
SPLINE
5
363
100
AcDbEntity
8
0
100
AcDbSpline
62
9
6
CONTINUOUS
70
0
71
3
72
16
73
12
74
10
42
0.0000001000
43
0.0000001000
44
0.0000000001
12
0.9260953145
22
-1.3832489476
32
0.0000000000
13
1.6503131272
23
-0.2152689071
33
0.0000000000
40
0.0000000000
40
0.0000000000
40
0.0000000000
40
0.0000000000
40
0.0387195615
40
0.1563308329
40
0.2770973229
40
0.4000833169
40
0.5241875181
40
0.6504967019
40
0.7799599955
40
0.9116150147
40
1.0000000000
40
1.0000000000
40
1.0000000000
40
1.0000000000
10
-73.6492136462
20
-42.2033306231
30
0.0000000000
10
-73.6372609781
20
-42.2211835541
30
0.0000000000
10
-73.5875653855
20
-42.2923034383
30
0.0000000000
10
-73.4896211368
20
-42.4111568886
30
0.0000000000
10
-73.3449337528
20
-42.5504276228
30
0.0000000000
10
-73.1827679465
20
-42.6748592307
30
0.0000000000
10
-73.0055789044
20
-42.7827437390
30
0.0000000000
10
-72.8149412614
20
-42.8732361812
30
0.0000000000
10
-72.6121973987
20
-42.9454045925
30
0.0000000000
10
-72.4237545361
20
-42.9920563733
30
0.0000000000
10
-72.3032237961
20
-43.0117193063
30
0.0000000000
10
-72.2546028289
20
-43.0180614860
30
0.0000000000
11
-73.6492136462
21
-42.2033306231
31
0.0000000000
11
-73.6123028718
21
-42.2561636593
31
0.0000000000
11
-73.4880133235
21
-42.4072781975
31
0.0000000000
11
-73.3434023432
21
-42.5467515482
31
0.0000000000
11
-73.1811985776
21
-42.6714609047
31
0.0000000000
11
-73.0049454322
21
-42.7789877134
31
0.0000000000
11
-72.8151851008
21
-42.8692450630
31
0.0000000000
11
-72.6123259686
21
-42.9416074609
31
0.0000000000
11
-72.3997475147
21
-42.9943566746
31
0.0000000000
11
-72.2546028289
21
-43.0180614860
31
0.0000000000
0
SPLINE
5
364
100
AcDbEntity
8
0
100
AcDbSpline
62
9
6
CONTINUOUS
70
0
71
3
72
9
73
5
74
3
42
0.0000001000
43
0.0000001000
44
0.0000000001
12
0.2055235160
22
-0.0268087443
32
0.0000000000
13
0.2070969416
23
-0.0083604721
33
0.0000000000
40
0.0000000000
40
0.0000000000
40
0.0000000000
40
0.0000000000
40
0.3563746116
40
1.0000000000
40
1.0000000000
40
1.0000000000
40
1.0000000000
10
-72.2546028289
20
-43.0180614860
30
0.0000000000
10
-72.2301883745
20
-43.0212461380
30
0.0000000000
10
-72.1615343943
20
-43.0290815054
30
0.0000000000
10
-72.0925685849
20
-43.0338381041
30
0.0000000000
10
-72.0481376350
20
-43.0356317748
30
0.0000000000
11
-72.2546028289
21
-43.0180614860
31
0.0000000000
11
-72.1812157003
21
-43.0264397776
31
0.0000000000
11
-72.0481376350
21
-43.0356317748
31
0.0000000000
0
SPLINE
5
365
100
AcDbEntity
8
0
100
AcDbSpline
62
9
6
CONTINUOUS
70
0
71
3
72
8
73
4
74
2
42
0.0000001000
43
0.0000001000
44
0.0000000001
12
0.0909600348
22
-0.0036720428
32
0.0000000000
13
0.0909972892
23
-0.0001369570
33
0.0000000000
40
0.0000000000
40
0.0000000000
40
0.0000000000
40
0.0000000000
40
1.0000000000
40
1.0000000000
40
1.0000000000
40
1.0000000000
10
-72.0481376350
20
-43.0356317748
30
0.0000000000
10
-72.0178176234
20
-43.0368557891
30
0.0000000000
10
-71.9874776789
20
-43.0374894157
30
0.0000000000
10
-71.9571452492
20
-43.0375350681
30
0.0000000000
11
-72.0481376350
21
-43.0356317748
31
0.0000000000
11
-71.9571452492
21
-43.0375350681
31
0.0000000000
0
SPLINE
5
366
100
AcDbEntity
8
0
100
AcDbSpline
62
9
6
CONTINUOUS
70
0
71
3
72
10
73
6
74
4
42
0.0000001000
43
0.0000001000
44
0.0000000001
12
-0.9018689395
22
-0.0065592631
32
0.0000000000
13
-0.8245273676
23
0.3685827406
33
0.0000000000
40
0.0000000000
40
0.0000000000
40
0.0000000000
40
0.0000000000
40
0.3987900314
40
0.7978156691
40
1.0000000000
40
1.0000000000
40
1.0000000000
40
1.0000000000
10
-69.1202632469
20
-46.2645706863
30
0.0000000000
10
-69.2401486945
20
-46.2654426092
30
0.0000000000
10
-69.4806083753
20
-46.2482454350
30
0.0000000000
10
-69.7741508945
20
-46.1769903103
30
0.0000000000
10
-69.9428834054
20
-46.1109272421
30
0.0000000000
10
-69.9984522434
20
-46.0860866905
30
0.0000000000
11
-69.1202632469
21
-46.2645706863
31
0.0000000000
11
-69.4789715745
21
-46.2383435473
31
0.0000000000
11
-69.8285190890
21
-46.1527342060
31
0.0000000000
11
-69.9984522434
21
-46.0860866905
31
0.0000000000
0
SPLINE
5
367
100
AcDbEntity
8
0
100
AcDbSpline
62
9
6
CONTINUOUS
70
0
71
3
72
8
73
4
74
2
42
0.0000001000
43
0.0000001000
44
0.0000000001
12
-0.0546003711
22
0.0244076246
32
0.0000000000
13
-0.0538124827
23
0.0260961206
33
0.0000000000
40
0.0000000000
40
0.0000000000
40
0.0000000000
40
0.0000000000
40
1.0000000000
40
1.0000000000
40
1.0000000000
40
1.0000000000
10
-69.9984522434
20
-46.0860866905
30
0.0000000000
10
-70.0166523671
20
-46.0779508157
30
0.0000000000
10
-70.0347264269
20
-46.0695334780
30
0.0000000000
10
-70.0526639212
20
-46.0608347711
30
0.0000000000
11
-69.9984522434
21
-46.0860866905
31
0.0000000000
11
-70.0526639212
21
-46.0608347711
31
0.0000000000
0
SPLINE
5
368
100
AcDbEntity
8
0
100
AcDbSpline
62
9
6
CONTINUOUS
70
0
71
3
72
8
73
4
74
2
42
0.0000001000
43
0.0000001000
44
0.0000000001
12
-0.0445802286
22
0.0216189806
32
0.0000000000
13
-0.0439999605
23
0.0227774553
33
0.0000000000
40
0.0000000000
40
0.0000000000
40
0.0000000000
40
0.0000000000
40
1.0000000000
40
1.0000000000
40
1.0000000000
40
1.0000000000
10
-70.0526639212
20
-46.0608347711
30
0.0000000000
10
-70.0675239974
20
-46.0536284443
30
0.0000000000
10
-70.0822903476
20
-46.0462290117
30
0.0000000000
10
-70.0969570011
20
-46.0386365266
30
0.0000000000
11
-70.0526639212
21
-46.0608347711
31
0.0000000000
11
-70.0969570011
21
-46.0386365266
31
0.0000000000
0
SPLINE
5
369
100
AcDbEntity
8
0
100
AcDbSpline
62
9
6
CONTINUOUS
70
0
71
3
72
9
73
5
74
3
42
0.0000001000
43
0.0000001000
44
0.0000000001
12
-0.0741057321
22
0.0383623073
32
0.0000000000
13
-0.0723227197
23
0.0416456859
33
0.0000000000
40
0.0000000000
40
0.0000000000
40
0.0000000000
40
0.0000000000
40
0.7349141692
40
1.0000000000
40
1.0000000000
40
1.0000000000
40
1.0000000000
10
-70.0969570011
20
-46.0386365266
30
0.0000000000
10
-70.1151107853
20
-46.0292388588
30
0.0000000000
10
-70.1396048619
20
-46.0160489738
30
0.0000000000
10
-70.1637951742
20
-46.0023116617
30
0.0000000000
10
-70.1701857503
20
-45.9986317679
30
0.0000000000
11
-70.0969570011
21
-46.0386365266
31
0.0000000000
11
-70.1509488105
21
-46.0095563273
31
0.0000000000
11
-70.1701857503
21
-45.9986317679
31
0.0000000000
0
SPLINE
5
36A
100
AcDbEntity
8
0
100
AcDbSpline
62
9
6
CONTINUOUS
70
0
71
3
72
8
73
4
74
2
42
0.0000001000
43
0.0000001000
44
0.0000000001
12
-0.0534416801
22
0.0307733923
32
0.0000000000
13
-0.0523809652
23
0.0325510978
33
0.0000000000
40
0.0000000000
40
0.0000000000
40
0.0000000000
40
0.0000000000
40
1.0000000000
40
1.0000000000
40
1.0000000000
40
1.0000000000
10
-70.1701857503
20
-45.9986317679
30
0.0000000000
10
-70.1879996436
20
-45.9883739705
30
0.0000000000
10
-70.2056431114
20
-45.9778183613
30
0.0000000000
10
-70.2231034331
20
-45.9669679954
30
0.0000000000
11
-70.1701857503
21
-45.9986317679
31
0.0000000000
11
-70.2231034331
21
-45.9669679954
31
0.0000000000
0
SPLINE
5
36B
100
AcDbEntity
8
0
100
AcDbSpline
62
7
6
CONTINUOUS
70
0
71
3
72
8
73
4
74
2
42
0.0000001000
43
0.0000001000
44
0.0000000001
12
-0.1513472328
22
0.0000000079
32
0.0000000000
13
-0.1512535026
23
0.0096861093
33
0.0000000000
40
0.0000000000
40
0.0000000000
40
0.0000000000
40
0.0000000000
40
1.0000000000
40
1.0000000000
40
1.0000000000
40
1.0000000000
10
-71.9571452490
20
-43.0639933493
30
0.0000000000
10
-72.0075943266
20
-43.0639933466
30
0.0000000000
10
-72.0580906996
20
-43.0623847291
30
0.0000000000
10
-72.1085085338
20
-43.0591560260
30
0.0000000000
11
-71.9571452490
21
-43.0639933493
31
0.0000000000
11
-72.1085085338
21
-43.0591560260
31
0.0000000000
0
SPLINE
5
36C
100
AcDbEntity
8
0
100
AcDbSpline
62
7
6
CONTINUOUS
70
0
71
3
72
8
73
4
74
2
42
0.0000001000
43
0.0000001000
44
0.0000000001
12
-0.1502365230
22
0.0096209831
32
0.0000000000
13
-0.1494016660
23
0.0192449436
33
0.0000000000
40
0.0000000000
40
0.0000000000
40
0.0000000000
40
0.0000000000
40
1.0000000000
40
1.0000000000
40
1.0000000000
40
1.0000000000
10
-72.1085085338
20
-43.0591560260
30
0.0000000000
10
-72.1585873748
20
-43.0559490317
30
0.0000000000
10
-72.2085887296
20
-43.0511436643
30
0.0000000000
10
-72.2583892849
20
-43.0447286831
30
0.0000000000
11
-72.1085085338
21
-43.0591560260
31
0.0000000000
11
-72.2583892849
21
-43.0447286831
31
0.0000000000
0
SPLINE
5
36D
100
AcDbEntity
8
0
100
AcDbSpline
62
7
6
CONTINUOUS
70
0
71
3
72
12
73
8
74
6
42
0.0000001000
43
0.0000001000
44
0.0000000001
12
-1.8057270490
22
0.2326019263
32
0.0000000000
13
-0.8887691224
23
1.5894925740
33
0.0000000000
40
0.0000000000
40
0.0000000000
40
0.0000000000
40
0.0000000000
40
0.0821388410
40
0.3243942579
40
0.5585636996
40
0.7829994199
40
1.0000000000
40
1.0000000000
40
1.0000000000
40
1.0000000000
10
-72.2583892849
20
-43.0447286831
30
0.0000000000
10
-72.3078293939
20
-43.0383601322
30
0.0000000000
10
-72.5023036352
20
-43.0069433295
30
0.0000000000
10
-72.8286070292
20
-42.9099473650
30
0.0000000000
10
-73.2055300597
20
-42.7080156219
30
0.0000000000
10
-73.5191714813
20
-42.4400472193
30
0.0000000000
10
-73.6790086669
20
-42.2225411342
30
0.0000000000
10
-73.7432964720
20
-42.1075675307
30
0.0000000000
11
-72.2583892849
21
-43.0447286831
31
0.0000000000
11
-72.4059952472
21
-43.0208528376
31
0.0000000000
11
-72.8276171396
21
-42.8944427392
31
0.0000000000
11
-73.2019689511
21
-42.6922360780
31
0.0000000000
11
-73.5109666835
21
-42.4261336326
31
0.0000000000
11
-73.7432964720
21
-42.1075675307
31
0.0000000000
0
SPLINE
5
36E
100
AcDbEntity
8
0
100
AcDbSpline
62
7
6
CONTINUOUS
70
0
71
3
72
12
73
8
74
6
42
0.0000001000
43
0.0000001000
44
0.0000000001
12
-0.8887468972
22
-1.5894622665
32
0.0000000000
13
-1.8056826973
23
-0.2326323330
33
0.0000000000
40
0.0000000000
40
0.0000000000
40
0.0000000000
40
0.0000000000
40
0.2172481100
40
0.4415614418
40
0.6755873263
40
0.9178516696
40
1.0000000000
40
1.0000000000
40
1.0000000000
40
1.0000000000
10
74.2580550727
20
-42.1075640492
30
0.0000000000
10
74.1936955448
20
-42.2226666070
30
0.0000000000
10
74.0337835889
20
-42.4402117381
30
0.0000000000
10
73.7201156218
20
-42.7081091505
30
0.0000000000
10
73.3433368321
20
-42.9099489501
30
0.0000000000
10
73.0171163340
20
-43.0069303536
30
0.0000000000
10
72.8226360259
20
-43.0383526917
30
0.0000000000
10
72.7731914196
20
-43.0447228110
30
0.0000000000
11
74.2580550727
21
-42.1075640492
31
0.0000000000
11
74.0254251204
21
-42.4264556928
31
0.0000000000
11
73.7165559624
21
-42.6923525509
31
0.0000000000
11
73.3424349425
21
-42.8944174432
31
0.0000000000
11
72.9208106369
21
-43.0208413541
31
0.0000000000
11
72.7731914196
21
-43.0447228110
31
0.0000000000
0
SPLINE
5
36F
100
AcDbEntity
8
0
100
AcDbSpline
62
7
6
CONTINUOUS
70
0
71
3
72
8
73
4
74
2
42
0.0000001000
43
0.0000001000
44
0.0000000001
12
-0.2087835737
22
-0.0268983083
32
0.0000000000
13
-0.2101271945
23
-0.0081296419
33
0.0000000000
40
0.0000000000
40
0.0000000000
40
0.0000000000
40
0.0000000000
40
1.0000000000
40
1.0000000000
40
1.0000000000
40
1.0000000000
10
72.7731914196
20
-43.0447228110
30
0.0000000000
10
72.7035968950
20
-43.0536889137
30
0.0000000000
10
72.6336101647
20
-43.0595115648
30
0.0000000000
10
72.5635677665
20
-43.0622214455
30
0.0000000000
11
72.7731914196
21
-43.0447228110
31
0.0000000000
11
72.5635677665
21
-43.0622214455
31
0.0000000000
0
SPLINE
5
370
100
AcDbEntity
8
0
100
AcDbSpline
62
7
6
CONTINUOUS
70
0
71
3
72
8
73
4
74
2
42
0.0000001000
43
0.0000001000
44
0.0000000001
12
-0.0916620152
22
-0.0035463252
32
0.0000000000
13
-0.0916417668
23
-0.0000000048
33
0.0000000000
40
0.0000000000
40
0.0000000000
40
0.0000000000
40
0.0000000000
40
1.0000000000
40
1.0000000000
40
1.0000000000
40
1.0000000000
10
72.5635677665
20
-43.0622214455
30
0.0000000000
10
72.5330137614
20
-43.0634035539
30
0.0000000000
10
72.5024491634
20
-43.0639933354
30
0.0000000000
10
72.4719019077
20
-43.0639933370
30
0.0000000000
11
72.5635677665
21
-43.0622214455
31
0.0000000000
11
72.4719019077
21
-43.0639933370
31
0.0000000000
0
SPLINE
5
371
100
AcDbEntity
8
0
100
AcDbSpline
62
9
6
CONTINUOUS
70
0
71
3
72
8
73
4
74
2
42
0.0000001000
43
0.0000001000
44
0.0000000001
12
-0.0483610763
22
-0.0300538530
32
0.0000000000
13
-0.0492677906
23
-0.0285392213
33
0.0000000000
40
0.0000000000
40
0.0000000000
40
0.0000000000
40
0.0000000000
40
1.0000000000
40
1.0000000000
40
1.0000000000
40
1.0000000000
10
70.7378805632
20
-45.9669552241
30
0.0000000000
10
70.7217602045
20
-45.9769731751
30
0.0000000000
10
70.7054837223
20
-45.9867398840
30
0.0000000000
10
70.6890611255
20
-45.9962529578
30
0.0000000000
11
70.7378805632
21
-45.9669552241
31
0.0000000000
11
70.6890611255
21
-45.9962529578
31
0.0000000000
0
SPLINE
5
372
100
AcDbEntity
8
0
100
AcDbSpline
62
9
6
CONTINUOUS
70
0
71
3
72
9
73
5
74
3
42
0.0000001000
43
0.0000001000
44
0.0000000001
12
-0.0702680324
22
-0.0407039751
32
0.0000000000
13
-0.0719678200
23
-0.0375961428
33
0.0000000000
40
0.0000000000
40
0.0000000000
40
0.0000000000
40
0.0000000000
40
0.3458338552
40
1.0000000000
40
1.0000000000
40
1.0000000000
40
1.0000000000
10
70.6890611255
20
-45.9962529578
30
0.0000000000
10
70.6809607706
20
-46.0009452286
30
0.0000000000
10
70.6574353031
20
-46.0143347910
30
0.0000000000
10
70.6336226541
20
-46.0272060127
30
0.0000000000
10
70.6179296836
20
-46.0354040540
30
0.0000000000
11
70.6890611255
21
-45.9962529578
31
0.0000000000
11
70.6646546172
21
-46.0101443625
31
0.0000000000
11
70.6179296836
21
-46.0354040540
31
0.0000000000
0
SPLINE
5
373
100
AcDbEntity
8
0
100
AcDbSpline
62
9
6
CONTINUOUS
70
0
71
3
72
8
73
4
74
2
42
0.0000001000
43
0.0000001000
44
0.0000000001
12
-0.0470279432
22
-0.0245674979
32
0.0000000000
13
-0.0476977053
23
-0.0232389388
33
0.0000000000
40
0.0000000000
40
0.0000000000
40
0.0000000000
40
0.0000000000
40
1.0000000000
40
1.0000000000
40
1.0000000000
40
1.0000000000
10
70.6179296836
20
-46.0354040540
30
0.0000000000
10
70.6022537025
20
-46.0435932200
30
0.0000000000
10
70.5864624299
20
-46.0515609898
30
0.0000000000
10
70.5705631948
20
-46.0593073028
30
0.0000000000
11
70.6179296836
21
-46.0354040540
31
0.0000000000
11
70.5705631948
21
-46.0593073028
31
0.0000000000
0
SPLINE
5
374
100
AcDbEntity
8
0
100
AcDbSpline
62
9
6
CONTINUOUS
70
0
71
3
72
8
73
4
74
2
42
0.0000001000
43
0.0000001000
44
0.0000000001
12
-0.0543671584
22
-0.0264883826
32
0.0000000000
13
-0.0551761913
23
-0.0247618021
33
0.0000000000
40
0.0000000000
40
0.0000000000
40
0.0000000000
40
0.0000000000
40
1.0000000000
40
1.0000000000
40
1.0000000000
40
1.0000000000
10
70.5705631948
20
-46.0593073028
30
0.0000000000
10
70.5524408086
20
-46.0681367636
30
0.0000000000
10
70.5341781569
20
-46.0766785061
30
0.0000000000
10
70.5157860932
20
-46.0849324401
30
0.0000000000
11
70.5705631948
21
-46.0593073028
31
0.0000000000
11
70.5157860932
21
-46.0849324401
31
0.0000000000
0
SPLINE
5
375
100
AcDbEntity
8
0
100
AcDbSpline
62
9
6
CONTINUOUS
70
0
71
3
72
10
73
6
74
4
42
0.0000001000
43
0.0000001000
44
0.0000000001
12
-0.8265626248
22
-0.3709422418
32
0.0000000000
13
-0.9046913958
23
0.0065797943
33
0.0000000000
40
0.0000000000
40
0.0000000000
40
0.0000000000
40
0.0000000000
40
0.2055997024
40
0.6028713503
40
1.0000000000
40
1.0000000000
40
1.0000000000
40
1.0000000000
10
70.5157860932
20
-46.0849324401
30
0.0000000000
10
70.4591390833
20
-46.1103543116
30
0.0000000000
10
70.2894357105
20
-46.1768921049
30
0.0000000000
10
69.9949580160
20
-46.2482844728
30
0.0000000000
10
69.7547795359
20
-46.2654417002
30
0.0000000000
10
69.6350199118
20
-46.2645706920
30
0.0000000000
11
70.5157860932
21
-46.0849324401
31
0.0000000000
11
70.3424792793
21
-46.1530047819
31
0.0000000000
11
69.9933540161
21
-46.2384018985
31
0.0000000000
11
69.6350199118
21
-46.2645706920
31
0.0000000000
0
SPLINE
5
376
100
AcDbEntity
8
0
100
AcDbSpline
62
9
6
CONTINUOUS
70
0
71
3
72
10
73
6
74
4
42
0.0000001000
43
0.0000001000
44
0.0000000001
12
2.0779756292
22
-3.7851379862
32
0.0000000000
13
3.6538880339
23
-2.3009464413
33
0.0000000000
40
0.0000000000
40
0.0000000000
40
0.0000000000
40
0.0000000000
40
0.3582574195
40
0.6896595086
40
1.0000000000
40
1.0000000000
40
1.0000000000
40
1.0000000000
10
-71.9571451587
20
-43.0639961412
30
0.0000000000
10
-71.7089950965
20
-43.5160140637
30
0.0000000000
10
-71.1778387001
20
-44.3590844162
30
0.0000000000
10
-70.2288139247
20
-45.4495600485
30
0.0000000000
10
-69.4982462063
20
-46.0265464761
30
0.0000000000
10
-69.1202630702
20
-46.2645720926
30
0.0000000000
11
-71.9571451587
21
-43.0639961412
31
0.0000000000
11
-71.1238702526
21
-44.3673536637
31
0.0000000000
11
-70.1764142886
21
-45.4397741713
31
0.0000000000
11
-69.1202630702
21
-46.2645720926
31
0.0000000000
0
SPLINE
5
377
100
AcDbEntity
8
0
100
AcDbSpline
62
9
6
CONTINUOUS
70
0
71
3
72
10
73
6
74
4
42
0.0000001000
43
0.0000001000
44
0.0000000001
12
3.6538880977
22
2.3009463404
32
0.0000000000
13
2.0779756678
23
3.7851379653
33
0.0000000000
40
0.0000000000
40
0.0000000000
40
0.0000000000
40
0.0000000000
40
0.3103395386
40
0.6417415356
40
1.0000000000
40
1.0000000000
40
1.0000000000
40
1.0000000000
10
69.6350197355
20
-46.2645720927
30
0.0000000000
10
70.0130017176
20
-46.0265472175
30
0.0000000000
10
70.7435683924
20
-45.4495619800
30
0.0000000000
10
71.6925937478
20
-44.3590868377
30
0.0000000000
10
72.2237510265
20
-43.5160153802
30
0.0000000000
10
72.4719018171
20
-43.0639961419
30
0.0000000000
11
69.6350197355
21
-46.2645720927
31
0.0000000000
11
70.6911679527
21
-45.4397770131
31
0.0000000000
11
71.6386242029
21
-44.3673572882
31
0.0000000000
11
72.4719018171
21
-43.0639961419
31
0.0000000000
0
SPLINE
5
378
100
AcDbEntity
8
0
100
AcDbSpline
62
7
6
CONTINUOUS
70
0
71
3
72
12
73
8
74
6
42
0.0000001000
43
0.0000001000
44
0.0000000001
12
3.1261215922
22
0.0000020859
32
0.0000000000
13
0.0000105543
23
-3.1261215921
33
0.0000000000
40
0.0000000000
40
0.0000000000
40
0.0000000000
40
0.0000000000
40
0.1991023794
40
0.4003486986
40
0.5998211528
40
0.8013045376
40
1.0000000000
40
1.0000000000
40
1.0000000000
40
1.0000000000
10
72.5579106676
20
42.5037538825
30
0.0000000000
10
72.7653834167
20
42.5037540209
30
0.0000000000
10
73.1854495471
20
42.4378871170
30
0.0000000000
10
73.7516123795
20
42.1501227848
30
0.0000000000
10
74.2031402109
20
41.6993485233
30
0.0000000000
10
74.4914608875
20
41.1335761290
30
0.0000000000
10
74.5573813745
20
40.7136845928
30
0.0000000000
10
74.5573820735
20
40.5066358677
30
0.0000000000
11
72.5579106676
21
42.5037538825
31
0.0000000000
11
73.1727670198
21
42.4070267362
31
0.0000000000
11
73.7336701387
21
42.1221052574
31
0.0000000000
11
74.1749398683
21
41.6815068137
31
0.0000000000
11
74.4607364468
21
41.1202173163
31
0.0000000000
11
74.5573820735
21
40.5066358677
31
0.0000000000
0
SPLINE
5
379
100
AcDbEntity
8
0
100
AcDbSpline
62
7
6
CONTINUOUS
70
0
71
3
72
12
73
8
74
6
42
0.0000001000
43
0.0000001000
44
0.0000000001
12
0.0000105554
22
3.1261215919
32
0.0000000000
13
3.1261215919
23
-0.0000001872
33
0.0000000000
40
0.0000000000
40
0.0000000000
40
0.0000000000
40
0.0000000000
40
0.1986954627
40
0.4001788476
40
0.5996513018
40
0.8008976209
40
1.0000000000
40
1.0000000000
40
1.0000000000
40
1.0000000000
10
-74.0426254111
20
40.5066358673
30
0.0000000000
10
-74.0426247120
20
40.7136845927
30
0.0000000000
10
-73.9767042256
20
41.1335761282
30
0.0000000000
10
-73.6883835478
20
41.6993485278
30
0.0000000000
10
-73.2368557160
20
42.1501227691
30
0.0000000000
10
-72.6706928835
20
42.4378871744
30
0.0000000000
10
-72.2506267539
20
42.5037538949
30
0.0000000000
10
-72.0431540051
20
42.5037538825
30
0.0000000000
11
-74.0426254111
21
40.5066358673
31
0.0000000000
11
-73.9459797845
21
41.1202173166
31
0.0000000000
11
-73.6601832051
21
41.6815068143
31
0.0000000000
11
-73.2189134752
21
42.1221052572
31
0.0000000000
11
-72.6580103561
21
42.4070267352
31
0.0000000000
11
-72.0431540051
21
42.5037538825
31
0.0000000000
0
SPLINE
5
37A
100
AcDbEntity
8
0
100
AcDbSpline
62
7
6
CONTINUOUS
70
0
71
3
72
15
73
11
74
9
42
0.0000001000
43
0.0000001000
44
0.0000000001
12
1.2420576025
22
-1.5106877730
32
0.0000000000
13
0.0000000000
23
-6.0028179033
33
0.0000000000
40
0.0000000000
40
0.0000000000
40
0.0000000000
40
0.0000000000
40
0.0007556529
40
0.0174632674
40
0.0862514835
40
0.2025507097
40
0.3623373908
40
0.5545001420
40
0.7715595737
40
1.0000000000
40
1.0000000000
40
1.0000000000
40
1.0000000000
10
40.0121651581
20
-19.2182038977
30
0.0000000000
10
40.0124780129
20
-19.2185844162
30
0.0000000000
10
40.0198176191
20
-19.2289117306
30
0.0000000000
10
40.0688178955
20
-19.4592751733
30
0.0000000000
10
40.0506331350
20
-19.7978347662
30
0.0000000000
10
40.0909742432
20
-20.5259841061
30
0.0000000000
10
40.0979328881
20
-21.4463651503
30
0.0000000000
10
40.1137388416
20
-22.5907541131
30
0.0000000000
10
40.1204500307
20
-23.8647256377
30
0.0000000000
10
40.1224682014
20
-24.7566104975
30
0.0000000000
10
40.1224682014
20
-25.2137059245
30
0.0000000000
11
40.0121651581
21
-19.2182038977
31
0.0000000000
11
40.0131180304
21
-19.2195461564
31
0.0000000000
11
40.0370813110
21
-19.3169340424
31
0.0000000000
11
40.0602088701
21
-19.7292089894
31
0.0000000000
11
40.0808848562
21
-20.4270258239
31
0.0000000000
11
40.0983887997
21
-21.3860364451
31
0.0000000000
11
40.1114903872
21
-22.5394800425
31
0.0000000000
11
40.1196962835
21
-23.8424224451
31
0.0000000000
11
40.1224682014
21
-25.2137059245
31
0.0000000000
0
SPLINE
5
37B
100
AcDbEntity
8
0
100
AcDbSpline
62
7
6
CONTINUOUS
70
0
71
3
72
15
73
11
74
9
42
0.0000001000
43
0.0000001000
44
0.0000000001
12
-1.2420579979
22
-1.5106881178
32
0.0000000000
13
0.0000000000
23
-6.0028179060
33
0.0000000000
40
0.0000000000
40
0.0000000000
40
0.0000000000
40
0.0000000000
40
0.0007556547
40
0.0174632621
40
0.0862514736
40
0.2025506978
40
0.3623373793
40
0.5545001331
40
0.7715595688
40
1.0000000000
40
1.0000000000
40
1.0000000000
40
1.0000000000
10
-39.4974084893
20
-19.2182039033
30
0.0000000000
10
-39.4977213449
20
-19.2185844228
30
0.0000000000
10
-39.5050609516
20
-19.2289117396
30
0.0000000000
10
-39.5540612439
20
-19.4592751192
30
0.0000000000
10
-39.5358764603
20
-19.7978347236
30
0.0000000000
10
-39.5762175843
20
-20.5259840311
30
0.0000000000
10
-39.5831762229
20
-21.4463650861
30
0.0000000000
10
-39.5989821794
20
-22.5907540608
30
0.0000000000
10
-39.6056933680
20
-23.8647256098
30
0.0000000000
10
-39.6077115389
20
-24.7566104876
30
0.0000000000
10
-39.6077115389
20
-25.2137059245
30
0.0000000000
11
-39.4974084893
21
-19.2182039033
31
0.0000000000
11
-39.4983613642
21
-19.2195461658
31
0.0000000000
11
-39.5223246454
21
-19.3169340083
31
0.0000000000
11
-39.5454522052
21
-19.7292089272
31
0.0000000000
11
-39.5661281921
21
-20.4270257498
31
0.0000000000
11
-39.5836321363
21
-21.3860363745
31
0.0000000000
11
-39.5967337243
21
-22.5394799880
31
0.0000000000
11
-39.6049396210
21
-23.8424224154
31
0.0000000000
11
-39.6077115389
21
-25.2137059245
31
0.0000000000
0
SPLINE
5
37C
100
AcDbEntity
8
0
100
AcDbSpline
62
7
6
CONTINUOUS
70
0
71
3
72
8
73
4
74
2
42
0.0000001000
43
0.0000001000
44
0.0000000001
12
0.0000000210
22
-0.5405626349
32
0.0000000000
13
-0.1895833591
23
-0.5097883370
33
0.0000000000
40
0.0000000000
40
0.0000000000
40
0.0000000000
40
0.0000000000
40
1.0000000000
40
1.0000000000
40
1.0000000000
40
1.0000000000
10
74.5573783312
20
-41.1455185680
30
0.0000000000
10
74.5573783382
20
-41.3257061130
30
0.0000000000
10
74.5239090119
20
-41.5074387979
30
0.0000000000
10
74.4607145589
20
-41.6773682435
30
0.0000000000
11
74.5573783312
21
-41.1455185680
31
0.0000000000
11
74.4607145589
21
-41.6773682435
31
0.0000000000
0
SPLINE
5
37D
100
AcDbEntity
8
0
100
AcDbSpline
62
7
6
CONTINUOUS
70
0
71
3
72
8
73
4
74
2
42
0.0000001000
43
0.0000001000
44
0.0000000001
12
-0.0647599260
22
-0.1741389915
32
0.0000000000
13
-0.0845980470
23
-0.1651361414
33
0.0000000000
40
0.0000000000
40
0.0000000000
40
0.0000000000
40
0.0000000000
40
1.0000000000
40
1.0000000000
40
1.0000000000
40
1.0000000000
10
74.4607145589
20
-41.6773682435
30
0.0000000000
10
74.4391279169
20
-41.7354145740
30
0.0000000000
10
74.4140728206
20
-41.7920836524
30
0.0000000000
10
74.3858734716
20
-41.8471290328
30
0.0000000000
11
74.4607145589
21
-41.6773682435
31
0.0000000000
11
74.3858734716
21
-41.8471290328
31
0.0000000000
0
SPLINE
5
37E
100
AcDbEntity
8
0
100
AcDbSpline
62
7
6
CONTINUOUS
70
0
71
3
72
8
73
4
74
2
42
0.0000001000
43
0.0000001000
44
0.0000000001
12
-0.0282028173
22
-0.0550521507
32
0.0000000000
13
-0.0302634658
23
-0.0539420262
33
0.0000000000
40
0.0000000000
40
0.0000000000
40
0.0000000000
40
0.0000000000
40
1.0000000000
40
1.0000000000
40
1.0000000000
40
1.0000000000
10
74.3858734716
20
-41.8471290328
30
0.0000000000
10
74.3764725325
20
-41.8654797497
30
0.0000000000
10
74.3667221460
20
-41.8836500114
30
0.0000000000
10
74.3566343241
20
-41.9016306867
30
0.0000000000
11
74.3858734716
21
-41.8471290328
31
0.0000000000
11
74.3566343241
21
-41.9016306867
31
0.0000000000
0
SPLINE
5
37F
100
AcDbEntity
8
0
100
AcDbSpline
62
7
6
CONTINUOUS
70
0
71
3
72
9
73
5
74
3
42
0.0000001000
43
0.0000001000
44
0.0000000001
12
-0.2504119875
22
-0.4463378414
32
0.0000000000
13
-0.3686966114
23
-0.3542886410
33
0.0000000000
40
0.0000000000
40
0.0000000000
40
0.0000000000
40
0.0000000000
40
0.6245426339
40
1.0000000000
40
1.0000000000
40
1.0000000000
40
1.0000000000
10
74.3566343241
20
-41.9016306867
30
0.0000000000
10
74.3045033367
20
-41.9945496904
30
0.0000000000
10
74.2066040236
20
-42.1352223136
30
0.0000000000
10
74.0898519056
20
-42.2596841419
30
0.0000000000
10
74.0437086194
20
-42.3040242352
30
0.0000000000
11
74.3566343241
21
-41.9016306867
31
0.0000000000
11
74.1748651444
21
-42.1639387143
31
0.0000000000
11
74.0437086194
21
-42.3040242352
31
0.0000000000
0
SPLINE
5
380
100
AcDbEntity
8
0
100
AcDbSpline
62
7
6
CONTINUOUS
70
0
71
3
72
10
73
6
74
4
42
0.0000001000
43
0.0000001000
44
0.0000000001
12
-1.1770077712
22
-1.1310125204
32
0.0000000000
13
-1.6260389605
23
-0.0000021046
33
0.0000000000
40
0.0000000000
40
0.0000000000
40
0.0000000000
40
0.0000000000
40
0.2413591602
40
0.6183433068
40
1.0000000000
40
1.0000000000
40
1.0000000000
40
1.0000000000
10
74.0437086194
20
-42.3040242352
30
0.0000000000
10
73.9490147503
20
-42.3950176459
30
0.0000000000
10
73.6815164830
20
-42.6023490857
30
0.0000000000
10
73.1778357697
20
-42.8211967197
30
0.0000000000
10
72.7644218110
20
-42.8767118494
30
0.0000000000
10
72.5575589268
20
-42.8767121171
30
0.0000000000
11
74.0437086194
21
-42.3040242352
31
0.0000000000
11
73.7334924217
21
-42.5459026822
31
0.0000000000
11
73.1724600382
21
-42.7928855163
31
0.0000000000
11
72.5575589268
21
-42.8767121171
31
0.0000000000
0
SPLINE
5
381
100
AcDbEntity
8
0
100
AcDbSpline
62
7
6
CONTINUOUS
70
0
71
3
72
10
73
6
74
4
42
0.0000001000
43
0.0000001000
44
0.0000000001
12
-1.6260389611
22
0.0000009054
32
0.0000000000
13
-1.1770077711
23
1.1310125497
33
0.0000000000
40
0.0000000000
40
0.0000000000
40
0.0000000000
40
0.0000000000
40
0.3816566929
40
0.7586408386
40
1.0000000000
40
1.0000000000
40
1.0000000000
40
1.0000000000
10
-72.0428022644
20
-42.8767121171
30
0.0000000000
10
-72.2496651485
20
-42.8767120019
30
0.0000000000
10
-72.6630791062
20
-42.8211966464
30
0.0000000000
10
-73.1667598199
20
-42.6023490923
30
0.0000000000
10
-73.4342580876
20
-42.3950176495
30
0.0000000000
10
-73.5289519571
20
-42.3040242360
30
0.0000000000
11
-72.0428022644
21
-42.8767121171
31
0.0000000000
11
-72.6577033752
21
-42.7928855141
31
0.0000000000
11
-73.2187357577
21
-42.5459026808
31
0.0000000000
11
-73.5289519571
21
-42.3040242360
31
0.0000000000
0
SPLINE
5
382
100
AcDbEntity
8
0
100
AcDbSpline
62
7
6
CONTINUOUS
70
0
71
3
72
9
73
5
74
3
42
0.0000001000
43
0.0000001000
44
0.0000000001
12
-0.3686810751
22
0.3542737211
32
0.0000000000
13
-0.2504072761
23
0.4463157504
33
0.0000000000
40
0.0000000000
40
0.0000000000
40
0.0000000000
40
0.0000000000
40
0.3754731831
40
1.0000000000
40
1.0000000000
40
1.0000000000
40
1.0000000000
10
-73.5289519571
20
-42.3040242360
30
0.0000000000
10
-73.5750952427
20
-42.2596841421
30
0.0000000000
10
-73.6918424410
20
-42.1352275546
30
0.0000000000
10
-73.7897384232
20
-41.9945615422
30
0.0000000000
10
-73.8418671095
20
-41.9016494905
30
0.0000000000
11
-73.5289519571
21
-42.3040242360
31
0.0000000000
11
-73.6601084805
21
-42.1639387135
31
0.0000000000
11
-73.8418671095
21
-41.9016494905
31
0.0000000000
0
SPLINE
5
383
100
AcDbEntity
8
0
100
AcDbSpline
62
7
6
CONTINUOUS
70
0
71
3
72
8
73
4
74
2
42
0.0000001000
43
0.0000001000
44
0.0000000001
12
-0.0302747221
22
0.0539604340
32
0.0000000000
13
-0.0282126492
23
0.0550713421
33
0.0000000000
40
0.0000000000
40
0.0000000000
40
0.0000000000
40
0.0000000000
40
1.0000000000
40
1.0000000000
40
1.0000000000
40
1.0000000000
10
-73.8418671095
20
-41.9016494905
30
0.0000000000
10
-73.8519586836
20
-41.8836626792
30
0.0000000000
10
-73.8617125910
20
-41.8654861462
30
0.0000000000
10
-73.8711168074
20
-41.8471290322
30
0.0000000000
11
-73.8418671095
21
-41.9016494905
31
0.0000000000
11
-73.8711168074
21
-41.8471290322
31
0.0000000000
0
SPLINE
5
384
100
AcDbEntity
8
0
100
AcDbSpline
62
7
6
CONTINUOUS
70
0
71
3
72
8
73
4
74
2
42
0.0000001000
43
0.0000001000
44
0.0000000001
12
-0.0845980475
22
0.1651361409
32
0.0000000000
13
-0.0647599267
23
0.1741389914
33
0.0000000000
40
0.0000000000
40
0.0000000000
40
0.0000000000
40
0.0000000000
40
1.0000000000
40
1.0000000000
40
1.0000000000
40
1.0000000000
10
-73.8711168074
20
-41.8471290322
30
0.0000000000
10
-73.8993161566
20
-41.7920836519
30
0.0000000000
10
-73.9243712531
20
-41.7354145738
30
0.0000000000
10
-73.9459578953
20
-41.6773682433
30
0.0000000000
11
-73.8711168074
21
-41.8471290322
31
0.0000000000
11
-73.9459578953
21
-41.6773682433
31
0.0000000000
0
SPLINE
5
385
100
AcDbEntity
8
0
100
AcDbSpline
62
7
6
CONTINUOUS
70
0
71
3
72
8
73
4
74
2
42
0.0000001000
43
0.0000001000
44
0.0000000001
12
-0.1895833605
22
0.5097883349
32
0.0000000000
13
0.0000000218
23
0.5405626349
33
0.0000000000
40
0.0000000000
40
0.0000000000
40
0.0000000000
40
0.0000000000
40
1.0000000000
40
1.0000000000
40
1.0000000000
40
1.0000000000
10
-73.9459578953
20
-41.6773682433
30
0.0000000000
10
-74.0091523488
20
-41.5074387983
30
0.0000000000
10
-74.0426216760
20
-41.3257061130
30
0.0000000000
10
-74.0426216688
20
-41.1455185680
30
0.0000000000
11
-73.9459578953
21
-41.6773682433
31
0.0000000000
11
-74.0426216688
21
-41.1455185680
31
0.0000000000
0
SPLINE
5
386
100
AcDbEntity
8
0
100
AcDbSpline
62
7
6
CONTINUOUS
70
0
71
3
72
13
73
9
74
7
42
0.0000001000
43
0.0000001000
44
0.0000000001
12
-6.5293541262
22
3.6336469177
32
0.0000000000
13
-6.5293541262
23
-3.6336469177
33
0.0000000000
40
0.0000000000
40
0.0000000000
40
0.0000000000
40
0.0000000000
40
0.1576902746
40
0.3259766273
40
0.5000000000
40
0.6740233727
40
0.8423097254
40
1.0000000000
40
1.0000000000
40
1.0000000000
40
1.0000000000
10
3.8573783312
20
29.2931154543
30
0.0000000000
10
3.5141731162
20
29.4841123810
30
0.0000000000
10
2.7620088183
20
29.8046666771
30
0.0000000000
10
1.5448457801
20
30.0911013880
30
0.0000000000
10
0.2573783312
20
30.1884747926
30
0.0000000000
10
-1.0300891176
20
30.0911013880
30
0.0000000000
10
-2.2472521558
20
29.8046666771
30
0.0000000000
10
-2.9994164538
20
29.4841123810
30
0.0000000000
10
-3.3426216688
20
29.2931154543
30
0.0000000000
11
3.8573783312
21
29.2931154543
31
0.0000000000
11
2.7767775586
21
29.7629332711
31
0.0000000000
11
1.5539173867
21
30.0560219539
31
0.0000000000
11
0.2573783312
21
30.1556563498
31
0.0000000000
11
-1.0391607243
21
30.0560219539
31
0.0000000000
11
-2.2620208962
21
29.7629332711
31
0.0000000000
11
-3.3426216688
21
29.2931154543
31
0.0000000000
0
SPLINE
5
387
100
AcDbEntity
8
0
100
AcDbSpline
62
7
6
CONTINUOUS
70
0
71
3
72
8
73
4
74
2
42
0.0000001000
43
0.0000001000
44
0.0000000001
12
-0.0049795566
22
0.0169589849
32
0.0000000000
13
-0.0049850614
23
0.0169574025
33
0.0000000000
40
0.0000000000
40
0.0000000000
40
0.0000000000
40
0.0000000000
40
1.0000000000
40
1.0000000000
40
1.0000000000
40
1.0000000000
10
-58.7175989958
20
13.6866237137
30
0.0000000000
10
-58.7192588480
20
13.6922767087
30
0.0000000000
10
-58.7209196161
20
13.6979294406
30
0.0000000000
10
-58.7225813032
20
13.7035819082
30
0.0000000000
11
-58.7175989958
21
13.6866237137
31
0.0000000000
11
-58.7225813032
21
13.7035819082
31
0.0000000000
0
SPLINE
5
388
100
AcDbEntity
8
0
100
AcDbSpline
62
7
6
CONTINUOUS
70
0
71
3
72
8
73
4
74
2
42
0.0000001000
43
0.0000001000
44
0.0000000001
12
-0.0049850614
22
-0.0169574025
32
0.0000000000
13
-0.0049795566
23
-0.0169589849
33
0.0000000000
40
0.0000000000
40
0.0000000000
40
0.0000000000
40
0.0000000000
40
1.0000000000
40
1.0000000000
40
1.0000000000
40
1.0000000000
10
59.2373379657
20
13.7035819082
30
0.0000000000
10
59.2356762786
20
13.6979294406
30
0.0000000000
10
59.2340155105
20
13.6922767087
30
0.0000000000
10
59.2323556583
20
13.6866237137
30
0.0000000000
11
59.2373379657
21
13.7035819082
31
0.0000000000
11
59.2323556583
21
13.6866237137
31
0.0000000000
0
SPLINE
5
389
100
AcDbEntity
8
0
100
AcDbSpline
62
7
6
CONTINUOUS
70
0
71
3
72
9
73
5
74
3
42
0.0000001000
43
0.0000001000
44
0.0000000001
12
0.1912562705
22
0.6980308500
32
0.0000000000
13
0.1995314374
23
0.6957120760
33
0.0000000000
40
0.0000000000
40
0.0000000000
40
0.0000000000
40
0.0000000000
40
0.5047841289
40
1.0000000000
40
1.0000000000
40
1.0000000000
40
1.0000000000
10
58.9390858597
20
12.6521580624
30
0.0000000000
10
58.9712669030
20
12.7696096939
30
0.0000000000
10
59.0356773830
20
13.0021069403
30
0.0000000000
10
59.1014658390
20
13.2342177080
30
0.0000000000
10
59.1344028838
20
13.3490602619
30
0.0000000000
11
58.9390858597
21
12.6521580624
31
0.0000000000
11
59.0366447970
21
13.0042330565
31
0.0000000000
11
59.1344028838
21
13.3490602619
31
0.0000000000
0
SPLINE
5
38A
100
AcDbEntity
8
0
100
AcDbSpline
62
7
6
CONTINUOUS
70
0
71
3
72
8
73
4
74
2
42
0.0000001000
43
0.0000001000
44
0.0000000001
12
0.0648126511
22
0.2259841588
32
0.0000000000
13
0.0657537534
23
0.2257120103
33
0.0000000000
40
0.0000000000
40
0.0000000000
40
0.0000000000
40
0.0000000000
40
1.0000000000
40
1.0000000000
40
1.0000000000
40
1.0000000000
10
59.1344028838
20
13.3490602619
30
0.0000000000
10
59.1560071009
20
13.4243883149
30
0.0000000000
10
59.1777651523
20
13.4996723192
30
0.0000000000
10
59.1996830701
20
13.5749096560
30
0.0000000000
11
59.1344028838
21
13.3490602619
31
0.0000000000
11
59.1996830701
21
13.5749096560
31
0.0000000000
0
SPLINE
5
38B
100
AcDbEntity
8
0
100
AcDbSpline
62
7
6
CONTINUOUS
70
0
71
3
72
8
73
4
74
2
42
0.0000001000
43
0.0000001000
44
0.0000000001
12
0.0325542977
22
0.1117486928
32
0.0000000000
13
0.0327916107
23
0.1116791048
33
0.0000000000
40
0.0000000000
40
0.0000000000
40
0.0000000000
40
0.0000000000
40
1.0000000000
40
1.0000000000
40
1.0000000000
40
1.0000000000
10
59.1996830701
20
13.5749096560
30
0.0000000000
10
59.2105345027
20
13.6121592203
30
0.0000000000
10
59.2214251214
20
13.6493973455
30
0.0000000000
10
59.2323556583
20
13.6866237137
30
0.0000000000
11
59.1996830701
21
13.5749096560
31
0.0000000000
11
59.2323556583
21
13.6866237137
31
0.0000000000
0
SPLINE
5
38C
100
AcDbEntity
8
0
100
AcDbSpline
62
7
6
CONTINUOUS
70
0
71
3
72
8
73
4
74
2
42
0.0000001000
43
0.0000001000
44
0.0000000001
12
0.0990246929
22
-0.3372505600
32
0.0000000000
13
0.0969010146
23
-0.3378675908
33
0.0000000000
40
0.0000000000
40
0.0000000000
40
0.0000000000
40
0.0000000000
40
1.0000000000
40
1.0000000000
40
1.0000000000
40
1.0000000000
10
-58.7175989958
20
13.6866237137
30
0.0000000000
10
-58.6845907648
20
13.5742068604
30
0.0000000000
10
-58.6519465596
20
13.4616827922
30
0.0000000000
10
-58.6196462214
20
13.3490602619
30
0.0000000000
11
-58.7175989958
21
13.6866237137
31
0.0000000000
11
-58.6196462214
21
13.3490602619
31
0.0000000000
0
SPLINE
5
38D
100
AcDbEntity
8
0
100
AcDbSpline
62
7
6
CONTINUOUS
70
0
71
3
72
8
73
4
74
2
42
0.0000001000
43
0.0000001000
44
0.0000000001
12
0.0327247931
22
-0.1141024894
32
0.0000000000
13
0.0324916224
23
-0.1141690388
33
0.0000000000
40
0.0000000000
40
0.0000000000
40
0.0000000000
40
0.0000000000
40
1.0000000000
40
1.0000000000
40
1.0000000000
40
1.0000000000
10
-58.6196462214
20
13.3490602619
30
0.0000000000
10
-58.6087379570
20
13.3110260988
30
0.0000000000
10
-58.5978689109
20
13.2729807060
30
0.0000000000
10
-58.5870383700
20
13.2349243597
30
0.0000000000
11
-58.6196462214
21
13.3490602619
31
0.0000000000
11
-58.5870383700
21
13.2349243597
31
0.0000000000
0
SPLINE
5
38E
100
AcDbEntity
8
0
100
AcDbSpline
62
7
6
CONTINUOUS
70
0
71
3
72
8
73
4
74
2
42
0.0000001000
43
0.0000001000
44
0.0000000001
12
0.0327024902
22
-0.1149099857
32
0.0000000000
13
0.0324706301
23
-0.1149757176
33
0.0000000000
40
0.0000000000
40
0.0000000000
40
0.0000000000
40
0.0000000000
40
1.0000000000
40
1.0000000000
40
1.0000000000
40
1.0000000000
10
-58.5870383700
20
13.2349243597
30
0.0000000000
10
-58.5761375400
20
13.1966210311
30
0.0000000000
10
-58.5652757167
20
13.1583066064
30
0.0000000000
10
-58.5544521733
20
13.1199813672
30
0.0000000000
11
-58.5870383700
21
13.2349243597
31
0.0000000000
11
-58.5544521733
21
13.1199813672
31
0.0000000000
0
SPLINE
5
38F
100
AcDbEntity
8
0
100
AcDbSpline
62
7
6
CONTINUOUS
70
0
71
3
72
9
73
5
74
3
42
0.0000001000
43
0.0000001000
44
0.0000000001
12
0.1319732543
22
-0.4673059802
32
0.0000000000
13
0.1283175020
23
-0.4683222921
33
0.0000000000
40
0.0000000000
40
0.0000000000
40
0.0000000000
40
0.0000000000
40
0.2476230567
40
1.0000000000
40
1.0000000000
40
1.0000000000
40
1.0000000000
10
-58.5544521733
20
13.1199813672
30
0.0000000000
10
-58.5435589665
20
13.0814094555
30
0.0000000000
10
-58.4997244676
20
12.9255965580
30
0.0000000000
10
-58.4565102405
20
12.7696096939
30
0.0000000000
10
-58.4243291973
20
12.6521580624
30
0.0000000000
11
-58.5544521733
21
13.1199813672
31
0.0000000000
11
-58.5218881346
21
13.0042330565
31
0.0000000000
11
-58.4243291973
21
12.6521580624
31
0.0000000000
0
SPLINE
5
390
100
AcDbEntity
8
0
100
AcDbSpline
62
9
6
CONTINUOUS
70
0
71
3
72
15
73
11
74
9
42
0.0000001000
43
0.0000001000
44
0.0000000001
12
4.1289468981
22
-0.0000040622
32
0.0000000000
13
1.1370960347
23
-3.9692839524
33
0.0000000000
40
0.0000000000
40
0.0000000000
40
0.0000000000
40
0.0000000000
40
0.0315845247
40
0.0735455254
40
0.1326237681
40
0.2161093924
40
0.3326379089
40
0.4928242483
40
0.7098115111
40
1.0000000000
40
1.0000000000
40
1.0000000000
40
1.0000000000
10
-72.0431805379
20
42.5037538825
30
0.0000000000
10
-71.9997102627
20
42.5037538397
30
0.0000000000
10
-71.8983941266
20
42.4780223132
30
0.0000000000
10
-71.7464365125
20
42.3729642019
30
0.0000000000
10
-71.5737534346
20
42.1849258757
30
0.0000000000
10
-71.3744960031
20
41.8880911274
30
0.0000000000
10
-71.1429864683
20
41.4489822087
30
0.0000000000
10
-70.8742192525
20
40.8243253171
30
0.0000000000
10
-70.5631434212
20
39.9596490532
30
0.0000000000
10
-70.3592293469
20
39.2917820055
30
0.0000000000
10
-70.2492386202
20
38.9078351680
30
0.0000000000
11
-72.0431805379
21
42.5037538825
31
0.0000000000
11
-71.9158331464
21
42.4756536108
31
0.0000000000
11
-71.7697077934
21
42.3825698451
31
0.0000000000
11
-71.6006772414
21
42.2066978192
31
0.0000000000
11
-71.4043103278
21
41.9233897884
31
0.0000000000
11
-71.1758717641
21
41.4999378117
31
0.0000000000
11
-70.9104655989
21
40.8941237282
31
0.0000000000
11
-70.6032123949
21
40.0525276037
31
0.0000000000
11
-70.2492386202
21
38.9078351680
31
0.0000000000
0
SPLINE
5
391
100
AcDbEntity
8
0
100
AcDbSpline
62
9
6
CONTINUOUS
70
0
71
3
72
9
73
5
74
3
42
0.0000001000
43
0.0000001000
44
0.0000000001
12
-0.8961846427
22
13.4516358598
32
0.0000000000
13
-1.2090269000
23
13.4271332820
33
0.0000000000
40
0.0000000000
40
0.0000000000
40
0.0000000000
40
0.0000000000
40
0.4761136205
40
1.0000000000
40
1.0000000000
40
1.0000000000
40
1.0000000000
10
72.5574346956
20
-42.8767121171
30
0.0000000000
10
72.4152061239
20
-40.7418764334
30
0.0000000000
10
72.0821453680
20
-36.2602638401
30
0.0000000000
10
71.6977068199
20
-31.7828440499
30
0.0000000000
10
71.4865759114
20
-29.4380799693
30
0.0000000000
11
72.5574346956
21
-42.8767121171
31
0.0000000000
11
72.0864100665
21
-36.4753132803
31
0.0000000000
11
71.4865759114
21
-29.4380799693
31
0.0000000000
0
SPLINE
5
392
100
AcDbEntity
8
0
100
AcDbSpline
62
9
6
CONTINUOUS
70
0
71
3
72
9
73
5
74
3
42
0.0000001000
43
0.0000001000
44
0.0000000001
12
-1.2090273129
22
-13.4271378702
32
0.0000000000
13
-0.8961849747
23
-13.4516404546
33
0.0000000000
40
0.0000000000
40
0.0000000000
40
0.0000000000
40
0.0000000000
40
0.5238873545
40
1.0000000000
40
1.0000000000
40
1.0000000000
40
1.0000000000
10
-70.9718192466
20
-29.4380799667
30
0.0000000000
10
-71.1829506201
20
-31.7828492126
30
0.0000000000
10
-71.5673549343
20
-36.2602730629
30
0.0000000000
10
-71.9005124332
20
-40.7418800762
30
0.0000000000
10
-72.0427407663
20
-42.8767121171
30
0.0000000000
11
-70.9718192466
21
-29.4380799667
31
0.0000000000
11
-71.5716546422
21
-36.4753287871
31
0.0000000000
11
-72.0427407663
21
-42.8767121171
31
0.0000000000
0
SPLINE
5
393
100
AcDbEntity
8
0
100
AcDbSpline
62
7
6
CONTINUOUS
70
0
71
3
72
11
73
7
74
5
42
0.0000001000
43
0.0000001000
44
0.0000000001
12
0.1262999935
22
-0.4609589616
32
0.0000000000
13
0.0000000000
23
-0.4779485878
33
0.0000000000
40
0.0000000000
40
0.0000000000
40
0.0000000000
40
0.0000000000
40
0.1490269150
40
0.3839274221
40
0.6777015596
40
1.0000000000
40
1.0000000000
40
1.0000000000
40
1.0000000000
10
-58.4243291973
20
12.6521580624
30
0.0000000000
10
-58.4180551645
20
12.6292596318
30
0.0000000000
10
-58.4097990919
20
12.5683632952
30
0.0000000000
10
-58.4007812714
20
12.4608819757
30
0.0000000000
10
-58.3952175556
20
12.3253364318
30
0.0000000000
10
-58.3938909408
20
12.2271978609
30
0.0000000000
10
-58.3938909408
20
12.1758504994
30
0.0000000000
11
-58.4243291973
21
12.6521580624
31
0.0000000000
11
-58.4121199555
21
12.5819850694
31
0.0000000000
11
-58.4022710975
21
12.4701475310
31
0.0000000000
11
-58.3960182881
21
12.3298778936
31
0.0000000000
11
-58.3938909408
21
12.1758504994
31
0.0000000000
0
SPLINE
5
394
100
AcDbEntity
8
0
100
AcDbSpline
62
9
6
CONTINUOUS
70
0
71
3
72
10
73
6
74
4
42
0.0000001000
43
0.0000001000
44
0.0000000001
12
0.0267569300
22
0.5097247096
32
0.0000000000
13
0.4643895966
23
0.2268681901
33
0.0000000000
40
0.0000000000
40
0.0000000000
40
0.0000000000
40
0.0000000000
40
0.4725983169
40
0.9565454221
40
1.0000000000
40
1.0000000000
40
1.0000000000
40
1.0000000000
10
-71.7326072706
20
12.3404297521
30
0.0000000000
10
-71.7283921772
20
12.4207280988
30
0.0000000000
10
-71.6744404049
20
12.5836438754
30
0.0000000000
10
-71.5438479532
20
12.7027355553
30
0.0000000000
10
-71.4630915895
20
12.7443828071
30
0.0000000000
10
-71.4563649716
20
12.7476689609
30
0.0000000000
11
-71.7326072706
21
12.3404297521
31
0.0000000000
11
-71.6577575320
21
12.5697501393
31
0.0000000000
11
-71.4763185598
21
12.7373762022
31
0.0000000000
11
-71.4563649716
21
12.7476689609
31
0.0000000000
0
SPLINE
5
395
100
AcDbEntity
8
0
100
AcDbSpline
62
9
6
CONTINUOUS
70
0
71
3
72
9
73
5
74
3
42
0.0000001000
43
0.0000001000
44
0.0000000001
12
0.0210437316
22
0.4695737024
32
0.0000000000
13
0.4046586384
23
0.2496587530
33
0.0000000000
40
0.0000000000
40
0.0000000000
40
0.0000000000
40
0.0000000000
40
0.5217060855
40
1.0000000000
40
1.0000000000
40
1.0000000000
40
1.0000000000
10
-72.1994591889
20
14.8769154177
30
0.0000000000
10
-72.1957996413
20
14.9585752371
30
0.0000000000
10
-72.1456539338
20
15.1159055333
30
0.0000000000
10
-72.0298908827
20
15.2292332809
30
0.0000000000
10
-71.9653756280
20
15.2690367016
30
0.0000000000
11
-72.1994591889
21
14.8769154177
31
0.0000000000
11
-72.1256174523
21
15.1107590908
31
0.0000000000
11
-71.9653756280
21
15.2690367016
31
0.0000000000
0
SPLINE
5
396
100
AcDbEntity
8
0
100
AcDbSpline
62
9
6
CONTINUOUS
70
0
71
3
72
9
73
5
74
3
42
0.0000001000
43
0.0000001000
44
0.0000000001
12
0.0179049925
22
0.4747335392
32
0.0000000000
13
0.4079665181
23
0.2540841525
33
0.0000000000
40
0.0000000000
40
0.0000000000
40
0.0000000000
40
0.0000000000
40
0.5224211252
40
1.0000000000
40
1.0000000000
40
1.0000000000
40
1.0000000000
10
-72.5450198074
20
16.5278376555
30
0.0000000000
10
-72.5419018253
20
16.6105079321
30
0.0000000000
10
-72.4926682533
20
16.7699352409
30
0.0000000000
10
-72.3764628604
20
16.8854373725
30
0.0000000000
10
-72.3115174635
20
16.9258857804
30
0.0000000000
11
-72.5450198074
21
16.5278376555
31
0.0000000000
11
-72.4721823031
21
16.7650960925
31
0.0000000000
11
-72.3115174635
21
16.9258857804
31
0.0000000000
0
SPLINE
5
397
100
AcDbEntity
8
0
100
AcDbSpline
62
9
6
CONTINUOUS
70
0
71
3
72
9
73
5
74
3
42
0.0000001000
43
0.0000001000
44
0.0000000001
12
-0.0179660854
22
0.4747047049
32
0.0000000000
13
-0.4079564487
23
0.2540478577
33
0.0000000000
40
0.0000000000
40
0.0000000000
40
0.0000000000
40
0.0000000000
40
0.5224208325
40
1.0000000000
40
1.0000000000
40
1.0000000000
40
1.0000000000
10
73.0597923732
20
16.5278380656
30
0.0000000000
10
73.0566637541
20
16.6105032747
30
0.0000000000
10
73.0074152137
20
16.7699149166
30
0.0000000000
10
72.8912084513
20
16.8854012775
30
0.0000000000
10
72.8262646176
20
16.9258439323
30
0.0000000000
11
73.0597923732
21
16.5278380656
31
0.0000000000
11
72.9869323531
21
16.7650749575
31
0.0000000000
11
72.8262646176
21
16.9258439323
31
0.0000000000
0
SPLINE
5
398
100
AcDbEntity
8
0
100
AcDbSpline
62
9
6
CONTINUOUS
70
0
71
3
72
9
73
5
74
3
42
0.0000001000
43
0.0000001000
44
0.0000000001
12
-0.0210437346
22
0.4695736957
32
0.0000000000
13
-0.4046586310
23
0.2496587522
33
0.0000000000
40
0.0000000000
40
0.0000000000
40
0.0000000000
40
0.0000000000
40
0.5217060880
40
1.0000000000
40
1.0000000000
40
1.0000000000
40
1.0000000000
10
72.7142158474
20
14.8769154176
30
0.0000000000
10
72.7105562992
20
14.9585752362
30
0.0000000000
10
72.6604105918
20
15.1159055298
30
0.0000000000
10
72.5446475426
20
15.2292332760
30
0.0000000000
10
72.4801322894
20
15.2690366964
30
0.0000000000
11
72.7142158474
21
14.8769154176
31
0.0000000000
11
72.6403741104
21
15.1107590882
31
0.0000000000
11
72.4801322894
21
15.2690366964
31
0.0000000000
0
SPLINE
5
399
100
AcDbEntity
8
0
100
AcDbSpline
62
9
6
CONTINUOUS
70
0
71
3
72
10
73
6
74
4
42
0.0000001000
43
0.0000001000
44
0.0000000001
12
-0.0267557458
22
0.5097036985
32
0.0000000000
13
-0.4643608825
23
0.2268779360
33
0.0000000000
40
0.0000000000
40
0.0000000000
40
0.0000000000
40
0.0000000000
40
0.4726178580
40
0.9565849848
40
1.0000000000
40
1.0000000000
40
1.0000000000
40
1.0000000000
10
72.2473639769
20
12.3404297483
30
0.0000000000
10
72.2431488958
20
12.4207281051
30
0.0000000000
10
72.1891971335
20
12.5836439117
30
0.0000000000
10
72.0586100678
20
12.7027306862
30
0.0000000000
10
71.9778609576
20
12.7443763380
30
0.0000000000
10
71.9711408793
20
12.7476596411
30
0.0000000000
11
72.2473639769
21
12.3404297483
31
0.0000000000
11
72.1725142556
21
12.5697501710
31
0.0000000000
11
71.9910752639
21
12.7373762641
31
0.0000000000
11
71.9711408793
21
12.7476596411
31
0.0000000000
0
SPLINE
5
39A
100
AcDbEntity
8
0
100
AcDbSpline
62
7
6
CONTINUOUS
70
0
71
3
72
11
73
7
74
5
42
0.0000001000
43
0.0000001000
44
0.0000000001
12
0.0000000000
22
0.4779485878
32
0.0000000000
13
0.1262999935
23
0.4609589616
33
0.0000000000
40
0.0000000000
40
0.0000000000
40
0.0000000000
40
0.0000000000
40
0.3222984404
40
0.6160725779
40
0.8509730850
40
1.0000000000
40
1.0000000000
40
1.0000000000
40
1.0000000000
10
58.9086476032
20
12.1758504994
30
0.0000000000
10
58.9086476032
20
12.2271978609
30
0.0000000000
10
58.9099742180
20
12.3253364318
30
0.0000000000
10
58.9155379339
20
12.4608819757
30
0.0000000000
10
58.9245557543
20
12.5683632952
30
0.0000000000
10
58.9328118269
20
12.6292596318
30
0.0000000000
10
58.9390858597
20
12.6521580624
30
0.0000000000
11
58.9086476032
21
12.1758504994
31
0.0000000000
11
58.9107749505
21
12.3298778936
31
0.0000000000
11
58.9170277600
21
12.4701475310
31
0.0000000000
11
58.9268766180
21
12.5819850694
31
0.0000000000
11
58.9390858597
21
12.6521580624
31
0.0000000000
0
SPLINE
5
39B
100
AcDbEntity
8
0
100
AcDbSpline
62
9
6
CONTINUOUS
70
0
71
3
72
14
73
10
74
8
42
0.0000001000
43
0.0000001000
44
0.0000000001
12
-1.0207654974
22
0.0164304070
32
0.0000000000
13
-0.3603589680
23
0.9551824816
33
0.0000000000
40
0.0000000000
40
0.0000000000
40
0.0000000000
40
0.0000000000
40
0.1966441810
40
0.3944524684
40
0.5869853710
40
0.7523646803
40
0.8773615620
40
0.9564718517
40
1.0000000000
40
1.0000000000
40
1.0000000000
40
1.0000000000
10
-70.7394848610
20
12.1758504994
30
0.0000000000
10
-70.8063940594
20
12.1769274807
30
0.0000000000
10
-70.9405921447
20
12.1812085033
30
0.0000000000
10
-71.1399222498
20
12.1942967921
30
0.0000000000
10
-71.3281461407
20
12.2143937329
30
0.0000000000
10
-71.4901888319
20
12.2402234249
30
0.0000000000
10
-71.6133866197
20
12.2703419940
30
0.0000000000
10
-71.6908550097
20
12.2995521667
30
0.0000000000
10
-71.7273786494
20
12.3265706376
30
0.0000000000
10
-71.7326072356
20
12.3404297458
30
0.0000000000
11
-70.7394848610
21
12.1758504994
31
0.0000000000
11
-70.9401342585
21
12.1823177851
31
0.0000000000
11
-71.1416254371
21
12.1958043876
31
0.0000000000
11
-71.3370171767
21
12.2171699463
31
0.0000000000
11
-71.5035391679
21
12.2450232280
31
0.0000000000
11
-71.6271098777
21
12.2768720066
31
0.0000000000
11
-71.7012199222
21
12.3089725763
31
0.0000000000
11
-71.7326072356
21
12.3404297458
31
0.0000000000
0
SPLINE
5
39C
100
AcDbEntity
8
0
100
AcDbSpline
62
9
6
CONTINUOUS
70
0
71
3
72
15
73
11
74
9
42
0.0000001000
43
0.0000001000
44
0.0000000001
12
-0.3604439540
22
-0.9554043934
32
0.0000000000
13
-1.0210031397
23
-0.0164312987
33
0.0000000000
40
0.0000000000
40
0.0000000000
40
0.0000000000
40
0.0000000000
40
0.0364423444
40
0.0989010207
40
0.1952239598
40
0.3253051360
40
0.4820594584
40
0.6539312584
40
0.8275047175
40
1.0000000000
40
1.0000000000
40
1.0000000000
40
1.0000000000
10
72.2473638980
20
12.3404297458
30
0.0000000000
10
72.2429854238
20
12.3288240205
30
0.0000000000
10
72.2153344764
20
12.3054867498
30
0.0000000000
10
72.1549311555
20
12.2795198440
30
0.0000000000
10
72.0597454726
20
12.2524052408
30
0.0000000000
10
71.9317712384
20
12.2277504687
30
0.0000000000
10
71.7769442810
20
12.2066560400
30
0.0000000000
10
71.6067239937
20
12.1907811257
30
0.0000000000
10
71.4307064158
20
12.1803219750
30
0.0000000000
10
71.3129475985
20
12.1767952733
30
0.0000000000
10
71.2542415234
20
12.1758504994
30
0.0000000000
11
72.2473638980
21
12.3404297458
31
0.0000000000
11
72.2222077081
21
12.3130081998
31
0.0000000000
11
72.1649147728
21
12.2849858860
31
0.0000000000
11
72.0706858689
21
12.2567837775
31
0.0000000000
11
71.9404717396
21
12.2305498521
31
0.0000000000
11
71.7819406450
21
12.2084261539
31
0.0000000000
11
71.6072245098
21
12.1918112169
31
0.0000000000
11
71.4303021792
21
12.1811710326
31
0.0000000000
11
71.2542415234
21
12.1758504994
31
0.0000000000
0
SPLINE
5
39D
100
AcDbEntity
8
0
100
AcDbSpline
62
9
6
CONTINUOUS
70
0
71
3
72
16
73
12
74
10
42
0.0000001000
43
0.0000001000
44
0.0000000001
12
0.0728835824
22
3.0823262171
32
0.0000000000
13
3.0831754485
23
0.0087223402
33
0.0000000000
40
0.0000000000
40
0.0000000000
40
0.0000000000
40
0.0000000000
40
0.1315058078
40
0.2689328257
40
0.4050642151
40
0.5324119646
40
0.6470036540
40
0.7492016397
40
0.8402531368
40
0.9226724275
40
1.0000000000
40
1.0000000000
40
1.0000000000
40
1.0000000000
10
-72.2328556392
20
36.9473933922
30
0.0000000000
10
-72.2296607677
20
37.0825079919
30
0.0000000000
10
-72.1954470578
20
37.3589409548
30
0.0000000000
10
-72.0604039424
20
37.7558498948
30
0.0000000000
10
-71.8478999431
20
38.1124189842
30
0.0000000000
10
-71.5839708456
20
38.4010096086
30
0.0000000000
10
-71.2992733979
20
38.6140077346
30
0.0000000000
10
-71.0165184962
20
38.7588957974
30
0.0000000000
10
-70.7469268083
20
38.8490739040
30
0.0000000000
10
-70.4930251527
20
38.8972490316
30
0.0000000000
10
-70.3287101184
20
38.9076099804
30
0.0000000000
10
-70.2492386274
20
38.9078348062
30
0.0000000000
11
-72.2328556392
21
36.9473933922
31
0.0000000000
11
-72.1829427695
21
37.3497665595
31
0.0000000000
11
-72.0463939494
21
37.7508742543
31
0.0000000000
11
-71.8314253762
21
38.1113631541
31
0.0000000000
11
-71.5664065728
21
38.4010679485
31
0.0000000000
11
-71.2834943845
21
38.6126973953
31
0.0000000000
11
-71.0030675028
21
38.7563845180
31
0.0000000000
11
-70.7368399944
21
38.8454440982
31
0.0000000000
11
-70.4871805935
21
38.8928169265
31
0.0000000000
11
-70.2492386274
21
38.9078348062
31
0.0000000000
0
SPLINE
5
39E
100
AcDbEntity
8
0
100
AcDbSpline
62
9
6
CONTINUOUS
70
0
71
3
72
16
73
12
74
10
42
0.0000001000
43
0.0000001000
44
0.0000000001
12
3.0831497455
22
-0.0087232330
32
0.0000000000
13
0.0728820384
23
-3.0823005461
33
0.0000000000
40
0.0000000000
40
0.0000000000
40
0.0000000000
40
0.0000000000
40
0.0768713812
40
0.1585648456
40
0.2488076497
40
0.3503390419
40
0.4646147891
40
0.5921985547
40
0.7291029748
40
0.8675446074
40
1.0000000000
40
1.0000000000
40
1.0000000000
40
1.0000000000
10
70.7639952891
20
38.9078347928
30
0.0000000000
10
70.8429972823
20
38.9076112705
30
0.0000000000
10
71.0060936292
20
38.8973853436
30
0.0000000000
10
71.2580267418
20
38.8499177656
30
0.0000000000
10
71.5256685043
20
38.7611295480
30
0.0000000000
10
71.8072815703
20
38.6181157324
30
0.0000000000
10
72.0922809907
20
38.4068366976
30
0.0000000000
10
72.3579774034
20
38.1188867725
30
0.0000000000
10
72.5728680736
20
37.7612654027
30
0.0000000000
10
72.7097275827
20
37.3619384943
30
0.0000000000
10
72.7443944280
20
37.0834824900
30
0.0000000000
10
72.7476123010
20
36.9473933804
30
0.0000000000
11
70.7639952891
21
38.9078347928
31
0.0000000000
11
71.0005368569
21
38.8929899048
31
0.0000000000
11
71.2480554930
21
38.8463515795
31
0.0000000000
11
71.5121343870
21
38.7587385276
31
0.0000000000
11
71.7912462582
21
38.6170021901
31
0.0000000000
11
72.0742991363
21
38.4071976238
31
0.0000000000
11
72.3410897570
21
38.1181371137
31
0.0000000000
11
72.5585896368
21
37.7563900191
31
0.0000000000
11
72.6970464760
21
37.3526322007
31
0.0000000000
11
72.7476123010
21
36.9473933804
31
0.0000000000
0
SPLINE
5
39F
100
AcDbEntity
8
0
100
AcDbSpline
62
9
6
CONTINUOUS
70
0
71
3
72
17
73
13
74
11
42
0.0000001000
43
0.0000001000
44
0.0000000001
12
-0.0375833554
22
-3.1621484278
32
0.0000000000
13
3.1618820987
23
-0.0556487401
33
0.0000000000
40
0.0000000000
40
0.0000000000
40
0.0000000000
40
0.0000000000
40
0.1141595867
40
0.2339528556
40
0.3547407030
40
0.4719024763
40
0.5809666521
40
0.6807387400
40
0.7715565366
40
0.8540724209
40
0.9292466332
40
1.0000000000
40
1.0000000000
40
1.0000000000
40
1.0000000000
10
-72.9264207749
20
-27.3610847705
30
0.0000000000
10
-72.9278509417
20
-27.4814146230
30
0.0000000000
10
-72.9097884610
20
-27.7287632900
30
0.0000000000
10
-72.8175955614
20
-28.0931692929
30
0.0000000000
10
-72.6596723678
20
-28.4379884491
30
0.0000000000
10
-72.4483414326
20
-28.7390236771
30
0.0000000000
10
-72.2033813641
20
-28.9824390714
30
0.0000000000
10
-71.9445988393
20
-29.1658932277
30
0.0000000000
10
-71.6861726994
20
-29.2950839083
30
0.0000000000
10
-71.4370103654
20
-29.3784951511
30
0.0000000000
10
-71.2001797204
20
-29.4251631217
30
0.0000000000
10
-71.0463905330
20
-29.4367787105
30
0.0000000000
10
-70.9718192650
20
-29.4380911558
30
0.0000000000
11
-72.9264207749
21
-27.3610847705
31
0.0000000000
11
-72.9000470322
21
-27.7211351764
31
0.0000000000
11
-72.8070244546
21
-28.0883675470
31
0.0000000000
11
-72.6477981283
21
-28.4355745479
31
0.0000000000
11
-72.4347684563
21
-28.7387169897
31
0.0000000000
11
-72.1900090579
21
-28.9817187613
31
0.0000000000
11
-71.9325493429
21
-29.1641060286
31
0.0000000000
11
-71.6756340477
21
-29.2924733217
31
0.0000000000
11
-71.4281777824
21
-29.3752873360
31
0.0000000000
11
-71.1949320745
21
-29.4212375826
31
0.0000000000
11
-70.9718192650
21
-29.4380911558
31
0.0000000000
0
SPLINE
5
3A0
100
AcDbEntity
8
0
100
AcDbSpline
62
9
6
CONTINUOUS
70
0
71
3
72
17
73
13
74
11
42
0.0000001000
43
0.0000001000
44
0.0000000001
12
3.1618498147
22
0.0556691880
32
0.0000000000
13
-0.0375912785
23
3.1621164123
33
0.0000000000
40
0.0000000000
40
0.0000000000
40
0.0000000000
40
0.0000000000
40
0.0703227350
40
0.1444126371
40
0.2255750909
40
0.3150810521
40
0.4139096766
40
0.5227003742
40
0.6405208131
40
0.7626590447
40
0.8841419016
40
1.0000000000
40
1.0000000000
40
1.0000000000
40
1.0000000000
10
71.4865759294
20
-29.4380911665
30
0.0000000000
10
71.5606925716
20
-29.4367862300
30
0.0000000000
10
71.7128836152
20
-29.4253465250
30
0.0000000000
10
71.9467942943
20
-29.3796401265
30
0.0000000000
10
72.1924624361
20
-29.2983732971
30
0.0000000000
10
72.4481687499
20
-29.1723615831
30
0.0000000000
10
72.7060939179
20
-28.9923883700
30
0.0000000000
10
72.9526354242
20
-28.7514340320
30
0.0000000000
10
73.1674072360
20
-28.4505527932
30
0.0000000000
10
73.3291374410
20
-28.1031193149
30
0.0000000000
10
73.4239855228
20
-27.7341532873
30
0.0000000000
10
73.4426292151
20
-27.4832058233
30
0.0000000000
10
73.4411774638
20
-27.3610868918
30
0.0000000000
11
71.4865759294
21
-29.4380911665
31
0.0000000000
11
71.7083344793
21
-29.4214190012
31
0.0000000000
11
71.9382852784
21
-29.3764976808
31
0.0000000000
11
72.1819693331
21
-29.2959116308
31
0.0000000000
11
72.4358878382
21
-29.1708447905
31
0.0000000000
11
72.6922476556
21
-28.9920866979
31
0.0000000000
11
72.9383925648
21
-28.7517296770
31
0.0000000000
11
73.1550076397
21
-28.4485796691
31
0.0000000000
11
73.3181876154
21
-28.0985001936
31
0.0000000000
11
73.4139477122
21
-27.7264563072
31
0.0000000000
11
73.4411774638
21
-27.3610868918
31
0.0000000000
0
SPLINE
5
3A1
100
AcDbEntity
8
0
100
AcDbSpline
62
9
6
CONTINUOUS
70
0
71
3
72
10
73
6
74
4
42
0.0000001000
43
0.0000001000
44
0.0000000001
12
-1.0900490239
22
39.5672797982
32
0.0000000000
13
-1.2688032456
23
39.5619511125
33
0.0000000000
40
0.0000000000
40
0.0000000000
40
0.0000000000
40
0.0000000000
40
0.3277242824
40
0.6609711205
40
1.0000000000
40
1.0000000000
40
1.0000000000
40
1.0000000000
10
72.4428960537
20
-27.3885597094
30
0.0000000000
10
72.3238175424
20
-23.0661735834
30
0.0000000000
10
72.0752222254
20
-14.3487945380
30
0.0000000000
10
71.6772788477
20
-1.1606952253
30
0.0000000000
10
71.3976285043
20
7.7049691808
30
0.0000000000
10
71.2542415234
20
12.1758504994
30
0.0000000000
11
72.4428960537
21
-27.3885597094
31
0.0000000000
11
72.0737508986
21
-14.4217349061
31
0.0000000000
11
71.6766010119
21
-1.2370413880
31
0.0000000000
11
71.2542415234
21
12.1758504994
31
0.0000000000
0
SPLINE
5
3A2
100
AcDbEntity
8
0
100
AcDbSpline
62
9
6
CONTINUOUS
70
0
71
3
72
17
73
13
74
11
42
0.0000001000
43
0.0000001000
44
0.0000000001
12
1.7654841069
22
0.0000156190
32
0.0000000000
13
-0.0486322336
23
1.7648141652
33
0.0000000000
40
0.0000000000
40
0.0000000000
40
0.0000000000
40
0.0000000000
40
0.0629812989
40
0.1295175765
40
0.2032005569
40
0.2861012508
40
0.3803217397
40
0.4878178660
40
0.6087921559
40
0.7386742027
40
0.8713728193
40
1.0000000000
40
1.0000000000
40
1.0000000000
40
1.0000000000
10
71.4865759324
20
-28.6568950970
30
0.0000000000
10
71.5236400931
20
-28.6568947691
30
0.0000000000
10
71.5999721196
20
-28.6514706803
30
0.0000000000
10
71.7171428351
20
-28.6255162660
30
0.0000000000
10
71.8399293139
20
-28.5774141644
30
0.0000000000
10
71.9672480583
20
-28.5013772356
30
0.0000000000
10
72.0948979483
20
-28.3916307328
30
0.0000000000
10
72.2157504290
20
-28.2438813416
30
0.0000000000
10
72.3194666788
20
-28.0590503237
30
0.0000000000
10
72.3958265317
20
-27.8455527324
30
0.0000000000
10
72.4386086753
20
-27.6184676728
30
0.0000000000
10
72.4449811961
20
-27.4642273995
30
0.0000000000
10
72.4428960537
20
-27.3885597094
30
0.0000000000
11
71.4865759324
21
-28.6568950970
31
0.0000000000
11
71.5974870801
21
-28.6489903259
31
0.0000000000
11
71.7121911889
21
-28.6236551238
31
0.0000000000
11
71.8333770376
21
-28.5763646227
31
0.0000000000
11
71.9592067347
21
-28.5016110593
31
0.0000000000
11
72.0856879443
21
-28.3935689934
31
0.0000000000
11
72.2063990650
21
-28.2471234419
31
0.0000000000
11
72.3116181357
21
-28.0612616956
31
0.0000000000
11
72.3895014385
21
-27.8455887215
31
0.0000000000
11
72.4333281345
21
-27.6154473011
31
0.0000000000
11
72.4428960537
21
-27.3885597094
31
0.0000000000
0
SPLINE
5
3A3
100
AcDbEntity
8
0
100
AcDbSpline
62
9
6
CONTINUOUS
70
0
71
3
72
17
73
13
74
11
42
0.0000001000
43
0.0000001000
44
0.0000000001
12
-0.0486314262
22
-1.7648223196
32
0.0000000000
13
1.7654922360
23
-0.0000111463
33
0.0000000000
40
0.0000000000
40
0.0000000000
40
0.0000000000
40
0.0000000000
40
0.1267519597
40
0.2576642432
40
0.3862459238
40
0.5067421903
40
0.6147101213
40
0.7099788254
40
0.7941762824
40
0.8691183804
40
0.9366336018
40
1.0000000000
40
1.0000000000
40
1.0000000000
40
1.0000000000
10
-71.9281393900
20
-27.3885596963
30
0.0000000000
10
-71.9301940996
20
-27.4631245922
30
0.0000000000
10
-71.9240626937
20
-27.6151937215
30
0.0000000000
10
-71.8825307486
20
-27.8395059465
30
0.0000000000
10
-71.8080278787
20
-28.0513977094
30
0.0000000000
10
-71.7060591162
20
-28.2362936545
30
0.0000000000
10
-71.5860782497
20
-28.3855390915
30
0.0000000000
10
-71.4580718124
20
-28.4974338680
30
0.0000000000
10
-71.3294267861
20
-28.5754358413
30
0.0000000000
10
-71.2048920015
20
-28.6248515346
30
0.0000000000
10
-71.0862473813
20
-28.6513794513
30
0.0000000000
10
-71.0091102294
20
-28.6568948549
30
0.0000000000
10
-70.9718192680
20
-28.6568950903
30
0.0000000000
11
-71.9281393900
21
-27.3885596963
31
0.0000000000
11
-71.9189408337
21
-27.6121501619
31
0.0000000000
11
-71.8764327382
21
-27.8393321414
31
0.0000000000
11
-71.8005001460
21
-28.0532661565
31
0.0000000000
11
-71.6970775295
21
-28.2391694580
31
0.0000000000
11
-71.5770856875
21
-28.3872796355
31
0.0000000000
11
-71.4500906713
21
-28.4975620602
31
0.0000000000
11
-71.3227962674
21
-28.5743275755
31
0.0000000000
11
-71.1997472160
21
-28.6229566370
31
0.0000000000
11
-71.0834055974
21
-28.6488930091
31
0.0000000000
11
-70.9718192680
21
-28.6568950903
31
0.0000000000
0
SPLINE
5
3A4
100
AcDbEntity
8
0
100
AcDbSpline
62
9
6
CONTINUOUS
70
0
71
3
72
10
73
6
74
4
42
0.0000001000
43
0.0000001000
44
0.0000000001
12
-1.2688032453
22
-39.5619510995
32
0.0000000000
13
-1.0900490238
23
-39.5672797852
33
0.0000000000
40
0.0000000000
40
0.0000000000
40
0.0000000000
40
0.0000000000
40
0.3390288778
40
0.6722757168
40
1.0000000000
40
1.0000000000
40
1.0000000000
40
1.0000000000
10
-70.7394848609
20
12.1758504994
30
0.0000000000
10
-70.8828718410
20
7.7049692045
30
0.0000000000
10
-71.1625221840
20
-1.1606951877
30
0.0000000000
10
-71.5604655622
20
-14.3487944960
30
0.0000000000
10
-71.8090608784
20
-23.0661735608
30
0.0000000000
10
-71.9281393900
20
-27.3885596963
30
0.0000000000
11
-70.7394848609
21
12.1758504994
31
0.0000000000
11
-71.1618443473
21
-1.2370413169
31
0.0000000000
11
-71.5589942349
21
-14.4217348645
31
0.0000000000
11
-71.9281393900
21
-27.3885596963
31
0.0000000000
0
SPLINE
5
3A5
100
AcDbEntity
8
0
100
AcDbSpline
62
9
6
CONTINUOUS
70
0
71
3
72
10
73
6
74
4
42
0.0000001000
43
0.0000001000
44
0.0000000001
12
-0.4956597732
22
-2.5310569391
32
0.0000000000
13
-0.4420741972
23
-2.5409640383
33
0.0000000000
40
0.0000000000
40
0.0000000000
40
0.0000000000
40
0.0000000000
40
0.3139457594
40
0.6473185515
40
1.0000000000
40
1.0000000000
40
1.0000000000
40
1.0000000000
10
72.7142158495
20
14.8769154177
30
0.0000000000
10
72.6623457548
20
14.6120438868
30
0.0000000000
10
72.5576779126
20
14.0654617769
30
0.0000000000
10
72.4021609105
20
13.2199275193
30
0.0000000000
10
72.2993344083
20
12.6391467119
30
0.0000000000
10
72.2473639523
20
12.3404297527
30
0.0000000000
11
72.7142158495
21
14.8769154177
31
0.0000000000
11
72.5617597524
21
14.0816896322
31
0.0000000000
11
72.4060767379
21
13.2360887289
31
0.0000000000
11
72.2473639523
21
12.3404297527
31
0.0000000000
0
SPLINE
5
3A6
100
AcDbEntity
8
0
100
AcDbSpline
62
9
6
CONTINUOUS
70
0
71
3
72
9
73
5
74
3
42
0.0000001000
43
0.0000001000
44
0.0000000001
12
-1.2273669303
22
18.4264829835
32
0.0000000000
13
-2.4540700009
23
18.3035309477
33
0.0000000000
40
0.0000000000
40
0.0000000000
40
0.0000000000
40
0.0000000000
40
0.2495811003
40
1.0000000000
40
1.0000000000
40
1.0000000000
40
1.0000000000
10
74.5573783312
20
-3.4962461175
30
0.0000000000
10
74.4552691349
20
-1.9632788180
30
0.0000000000
10
73.9946278643
20
4.1753477416
30
0.0000000000
10
73.3280760194
20
10.2984768998
30
0.0000000000
10
72.7142158495
20
14.8769154177
30
0.0000000000
11
74.5573783312
21
-3.4962461175
31
0.0000000000
11
74.2125081055
21
1.0999261803
31
0.0000000000
11
72.7142158495
21
14.8769154177
31
0.0000000000
0
SPLINE
5
3A7
100
AcDbEntity
8
0
100
AcDbSpline
62
9
6
CONTINUOUS
70
0
71
3
72
9
73
5
74
3
42
0.0000001000
43
0.0000001000
44
0.0000000001
12
-0.9292902588
22
13.7986317964
32
0.0000000000
13
-1.2626849798
23
13.7721257066
33
0.0000000000
40
0.0000000000
40
0.0000000000
40
0.0000000000
40
0.0000000000
40
0.4755457428
40
1.0000000000
40
1.0000000000
40
1.0000000000
40
1.0000000000
10
74.5573783312
20
-41.1456161548
30
0.0000000000
10
74.4100716558
20
-38.9583226188
30
0.0000000000
10
74.0632401993
20
-34.3612536462
30
0.0000000000
10
73.6619398468
20
-29.7687095637
30
0.0000000000
10
73.4411996757
20
-27.3610929114
30
0.0000000000
11
74.5573783312
21
-41.1456161548
31
0.0000000000
11
74.0678854099
21
-34.5871127354
31
0.0000000000
11
73.4411996757
21
-27.3610929114
31
0.0000000000
0
SPLINE
5
3A8
100
AcDbEntity
8
0
100
AcDbSpline
62
9
6
CONTINUOUS
70
0
71
3
72
10
73
6
74
4
42
0.0000001000
43
0.0000001000
44
0.0000000001
12
-1.0945883855
22
39.7044132506
32
0.0000000000
13
-1.2743991081
23
39.6990486312
33
0.0000000000
40
0.0000000000
40
0.0000000000
40
0.0000000000
40
0.0000000000
40
0.3277136948
40
0.6609593379
40
1.0000000000
40
1.0000000000
40
1.0000000000
40
1.0000000000
10
73.4411996757
20
-27.3610929114
30
0.0000000000
10
73.3216291410
20
-23.0238662561
30
0.0000000000
10
73.0719620418
20
-14.2764316573
30
0.0000000000
10
72.6722815978
20
-1.0426284366
30
0.0000000000
10
72.3913883247
20
7.8538991755
30
0.0000000000
10
72.2473639523
20
12.3404297527
30
0.0000000000
11
73.4411996757
21
-27.3610929114
31
0.0000000000
11
73.0704857417
21
-14.3497493710
31
0.0000000000
11
72.6716016845
21
-1.1194112236
31
0.0000000000
11
72.2473639523
21
12.3404297527
31
0.0000000000
0
SPLINE
5
3A9
100
AcDbEntity
8
0
100
AcDbSpline
62
9
6
CONTINUOUS
70
0
71
3
72
10
73
6
74
4
42
0.0000001000
43
0.0000001000
44
0.0000000001
12
-0.3700007608
22
-1.6456695511
32
0.0000000000
13
-0.3243132093
23
-1.6552793651
33
0.0000000000
40
0.0000000000
40
0.0000000000
40
0.0000000000
40
0.0000000000
40
0.3152893430
40
0.6486150917
40
1.0000000000
40
1.0000000000
40
1.0000000000
40
1.0000000000
10
73.0597923673
20
16.5278380654
30
0.0000000000
10
73.0209066017
20
16.3548840416
30
0.0000000000
10
72.9428295987
20
15.9986484206
30
0.0000000000
10
72.8277132298
20
15.4483017010
30
0.0000000000
10
72.7522021052
20
15.0707954803
30
0.0000000000
10
72.7142158495
20
14.8769154177
30
0.0000000000
11
73.0597923673
21
16.5278380654
31
0.0000000000
11
72.9458066637
21
16.0083825490
31
0.0000000000
11
72.8305766262
21
15.4580798337
31
0.0000000000
11
72.7142158495
21
14.8769154177
31
0.0000000000
0
SPLINE
5
3AA
100
AcDbEntity
8
0
100
AcDbSpline
62
9
6
CONTINUOUS
70
0
71
3
72
12
73
8
74
6
42
0.0000001000
43
0.0000001000
44
0.0000000001
12
0.0816477299
22
-3.4202269164
32
0.0000000000
13
-0.7510854610
23
-3.3377371289
33
0.0000000000
40
0.0000000000
40
0.0000000000
40
0.0000000000
40
0.0000000000
40
0.2607605874
40
0.5216976422
40
0.7465419474
40
0.9097753435
40
1.0000000000
40
1.0000000000
40
1.0000000000
40
1.0000000000
10
73.1254893316
20
19.9455832434
30
0.0000000000
10
73.1325861682
20
19.6482964501
30
0.0000000000
10
73.1428574678
20
19.0533848234
30
0.0000000000
10
73.1446103051
20
18.2021354090
30
0.0000000000
10
73.1336246016
20
17.4616250064
30
0.0000000000
10
73.1068676928
20
16.9175458339
30
0.0000000000
10
73.0823811766
20
16.6282201274
30
0.0000000000
10
73.0597923673
20
16.5278380654
30
0.0000000000
11
73.1254893316
21
19.9455832434
31
0.0000000000
11
73.1405939273
21
19.0535966549
31
0.0000000000
11
73.1419934685
21
18.1608795541
31
0.0000000000
11
73.1274992805
21
17.3917784830
31
0.0000000000
11
73.0985081646
21
16.8340771893
31
0.0000000000
11
73.0597923673
21
16.5278380654
31
0.0000000000
0
SPLINE
5
3AB
100
AcDbEntity
8
0
100
AcDbSpline
62
9
6
CONTINUOUS
70
0
71
3
72
10
73
6
74
4
42
0.0000001000
43
0.0000001000
44
0.0000000001
12
0.3505901141
22
-17.0024014554
32
0.0000000000
13
0.4061547911
23
-17.0011648708
33
0.0000000000
40
0.0000000000
40
0.0000000000
40
0.0000000000
40
0.0000000000
40
0.3469705263
40
0.6801648654
40
1.0000000000
40
1.0000000000
40
1.0000000000
40
1.0000000000
10
72.7476121938
20
36.9473933855
30
0.0000000000
10
72.7881603393
20
34.9809493251
30
0.0000000000
10
72.8697039685
20
31.1261793390
30
0.0000000000
10
72.9958060345
20
25.4589091994
30
0.0000000000
10
73.0821884741
20
21.7581065282
30
0.0000000000
10
73.1254893316
20
19.9455832434
30
0.0000000000
11
72.7476121938
21
36.9473933855
31
0.0000000000
11
72.8724554462
21
31.0481280316
31
0.0000000000
11
72.9985408614
21
25.3832228680
31
0.0000000000
11
73.1254893316
21
19.9455832434
31
0.0000000000
0
SPLINE
5
3AC
100
AcDbEntity
8
0
100
AcDbSpline
62
9
6
CONTINUOUS
70
0
71
3
72
15
73
11
74
9
42
0.0000001000
43
0.0000001000
44
0.0000000001
12
1.1452351288
22
3.9456020351
32
0.0000000000
13
4.1069458737
23
-0.1110608386
33
0.0000000000
40
0.0000000000
40
0.0000000000
40
0.0000000000
40
0.0000000000
40
0.2910786985
40
0.5102916675
40
0.6723191495
40
0.7895658296
40
0.8725302792
40
0.9301720347
40
0.9703145667
40
1.0000000000
40
1.0000000000
40
1.0000000000
40
1.0000000000
10
72.7476121938
20
36.9473933855
30
0.0000000000
10
72.8587300441
20
37.3302202872
30
0.0000000000
10
73.0654589765
20
37.9980693782
30
0.0000000000
10
73.3817913686
20
38.8632523244
30
0.0000000000
10
73.6566663490
20
39.4887582607
30
0.0000000000
10
73.8936140810
20
39.9254753277
30
0.0000000000
10
74.0966465522
20
40.2155669608
30
0.0000000000
10
74.2704422519
20
40.3941271949
30
0.0000000000
10
74.4204787057
20
40.4875422019
30
0.0000000000
10
74.5167432491
20
40.5083662193
30
0.0000000000
10
74.5573820718
20
40.5072672563
30
0.0000000000
11
72.7476121938
21
36.9473933855
31
0.0000000000
11
73.1054302753
21
38.0884887979
31
0.0000000000
11
73.4188960480
21
38.9328018093
31
0.0000000000
11
73.6910137288
21
39.5403243581
31
0.0000000000
11
73.9251897128
21
39.9612735648
31
0.0000000000
11
74.1251100139
21
40.2373424863
31
0.0000000000
11
74.2945908372
21
40.4027482566
31
0.0000000000
11
74.4374384920
21
40.4851758027
31
0.0000000000
11
74.5573820718
21
40.5072672563
31
0.0000000000
0
SPLINE
5
3AD
100
AcDbEntity
8
0
100
AcDbSpline
62
9
6
CONTINUOUS
70
0
71
3
72
10
73
6
74
4
42
0.0000001000
43
0.0000001000
44
0.0000000001
12
-0.4420741972
22
2.5409640383
32
0.0000000000
13
-0.4956597732
23
2.5310569391
33
0.0000000000
40
0.0000000000
40
0.0000000000
40
0.0000000000
40
0.0000000000
40
0.3526814484
40
0.6860542406
40
1.0000000000
40
1.0000000000
40
1.0000000000
40
1.0000000000
10
-71.7326072898
20
12.3404297527
30
0.0000000000
10
-71.7845777459
20
12.6391467119
30
0.0000000000
10
-71.8874042480
20
13.2199275193
30
0.0000000000
10
-72.0429212501
20
14.0654617769
30
0.0000000000
10
-72.1475890924
20
14.6120438868
30
0.0000000000
10
-72.1994591870
20
14.8769154177
30
0.0000000000
11
-71.7326072898
21
12.3404297527
31
0.0000000000
11
-71.8913200755
21
13.2360887288
31
0.0000000000
11
-72.0470030900
21
14.0816896322
31
0.0000000000
11
-72.1994591870
21
14.8769154177
31
0.0000000000
0
SPLINE
5
3AE
100
AcDbEntity
8
0
100
AcDbSpline
62
9
6
CONTINUOUS
70
0
71
3
72
10
73
6
74
4
42
0.0000001000
43
0.0000001000
44
0.0000000001
12
-1.2743990232
22
-39.6990459844
32
0.0000000000
13
-1.0945883193
23
-39.7044106033
33
0.0000000000
40
0.0000000000
40
0.0000000000
40
0.0000000000
40
0.0000000000
40
0.3390406846
40
0.6722863494
40
1.0000000000
40
1.0000000000
40
1.0000000000
40
1.0000000000
10
-71.7326072898
20
12.3404297527
30
0.0000000000
10
-71.8766316622
20
7.8538991767
30
0.0000000000
10
-72.1575249351
20
-1.0426284274
30
0.0000000000
10
-72.5572053520
20
-14.2764307657
30
0.0000000000
10
-72.8068724291
20
-23.0238644833
30
0.0000000000
10
-72.9264429404
20
-27.3610902643
30
0.0000000000
11
-71.7326072898
21
12.3404297527
31
0.0000000000
11
-72.1568450220
21
-1.1194112199
31
0.0000000000
11
-72.5557290785
21
-14.3497493469
31
0.0000000000
11
-72.9264429404
21
-27.3610902643
31
0.0000000000
0
SPLINE
5
3AF
100
AcDbEntity
8
0
100
AcDbSpline
62
9
6
CONTINUOUS
70
0
71
3
72
9
73
5
74
3
42
0.0000001000
43
0.0000001000
44
0.0000000001
12
-1.2626834455
22
-13.7721089188
32
0.0000000000
13
-0.9292891159
23
-13.7986149773
33
0.0000000000
40
0.0000000000
40
0.0000000000
40
0.0000000000
40
0.0000000000
40
0.5244554330
40
1.0000000000
40
1.0000000000
40
1.0000000000
40
1.0000000000
10
-72.9264429404
20
-27.3610902643
30
0.0000000000
10
-73.1471833381
20
-29.7687093795
30
0.0000000000
10
-73.5484821830
20
-34.3612479430
30
0.0000000000
10
-73.8953155387
20
-38.9583111375
30
0.0000000000
10
-74.0426216688
20
-41.1455965992
30
0.0000000000
11
-72.9264429404
21
-27.3610902643
31
0.0000000000
11
-73.5531291335
21
-34.5871174965
31
0.0000000000
11
-74.0426216688
21
-41.1455965992
31
0.0000000000
0
SPLINE
5
3B0
100
AcDbEntity
8
0
100
AcDbSpline
62
9
6
CONTINUOUS
70
0
71
3
72
9
73
5
74
3
42
0.0000001000
43
0.0000001000
44
0.0000000001
12
1.2273669303
22
18.4264829835
32
0.0000000000
13
2.4540700009
23
18.3035309477
33
0.0000000000
40
0.0000000000
40
0.0000000000
40
0.0000000000
40
0.0000000000
40
0.2495811003
40
1.0000000000
40
1.0000000000
40
1.0000000000
40
1.0000000000
10
-74.0426216688
20
-3.4962461175
30
0.0000000000
10
-73.9405124724
20
-1.9632788180
30
0.0000000000
10
-73.4798712019
20
4.1753477416
30
0.0000000000
10
-72.8133193569
20
10.2984768998
30
0.0000000000
10
-72.1994591870
20
14.8769154177
30
0.0000000000
11
-74.0426216688
21
-3.4962461175
31
0.0000000000
11
-73.6977514430
21
1.0999261803
31
0.0000000000
11
-72.1994591870
21
14.8769154177
31
0.0000000000
0
SPLINE
5
3B1
100
AcDbEntity
8
0
100
AcDbSpline
62
9
6
CONTINUOUS
70
0
71
3
72
10
73
6
74
4
42
0.0000001000
43
0.0000001000
44
0.0000000001
12
0.4061547802
22
17.0011648832
32
0.0000000000
13
0.3505901201
23
17.0024014674
33
0.0000000000
40
0.0000000000
40
0.0000000000
40
0.0000000000
40
0.0000000000
40
0.3198351376
40
0.6530294770
40
1.0000000000
40
1.0000000000
40
1.0000000000
40
1.0000000000
10
-72.6107326691
20
19.9455832434
30
0.0000000000
10
-72.5674318124
20
21.7581065466
30
0.0000000000
10
-72.4810493706
20
25.4589092390
30
0.0000000000
10
-72.3549473050
20
31.1261793827
30
0.0000000000
10
-72.2734036769
20
34.9809493545
30
0.0000000000
10
-72.2328555311
20
36.9473933976
30
0.0000000000
11
-72.6107326691
21
19.9455832434
31
0.0000000000
11
-72.4837841977
21
25.3832229231
31
0.0000000000
11
-72.3576987824
21
31.0481280954
31
0.0000000000
11
-72.2328555311
21
36.9473933976
31
0.0000000000
0
SPLINE
5
3B2
100
AcDbEntity
8
0
100
AcDbSpline
62
9
6
CONTINUOUS
70
0
71
3
72
12
73
8
74
6
42
0.0000001000
43
0.0000001000
44
0.0000000001
12
-0.7500220763
22
3.3379825214
32
0.0000000000
13
0.0817734299
23
3.4202300411
33
0.0000000000
40
0.0000000000
40
0.0000000000
40
0.0000000000
40
0.0000000000
40
0.0880086218
40
0.2494345433
40
0.4742559259
40
0.7364410404
40
1.0000000000
40
1.0000000000
40
1.0000000000
40
1.0000000000
10
-72.5450357049
20
16.5278380654
30
0.0000000000
10
-72.5670385080
20
16.6257618126
30
0.0000000000
10
-72.5917235802
20
16.9104051719
30
0.0000000000
10
-72.6184910053
20
17.4499036036
30
0.0000000000
10
-72.6298168527
20
18.1897340877
30
0.0000000000
10
-72.6282050545
20
19.0455780934
30
0.0000000000
10
-72.6179167092
20
19.6451058196
30
0.0000000000
10
-72.6107326691
20
19.9455832434
30
0.0000000000
11
-72.5450357049
21
16.5278380654
31
0.0000000000
11
-72.5831374564
21
16.8265133221
31
0.0000000000
11
-72.6122834870
21
17.3780152630
31
0.0000000000
11
-72.6271285776
21
18.1470325813
31
0.0000000000
11
-72.6259301217
21
19.0440214480
31
0.0000000000
11
-72.6107326691
21
19.9455832434
31
0.0000000000
0
SPLINE
5
3B3
100
AcDbEntity
8
0
100
AcDbSpline
62
9
6
CONTINUOUS
70
0
71
3
72
10
73
6
74
4
42
0.0000001000
43
0.0000001000
44
0.0000000001
12
-0.3243132093
22
1.6552793651
32
0.0000000000
13
-0.3700007608
23
1.6456695511
33
0.0000000000
40
0.0000000000
40
0.0000000000
40
0.0000000000
40
0.0000000000
40
0.3513849083
40
0.6847106570
40
1.0000000000
40
1.0000000000
40
1.0000000000
40
1.0000000000
10
-72.1994591870
20
14.8769154177
30
0.0000000000
10
-72.2374454428
20
15.0707954803
30
0.0000000000
10
-72.3129565673
20
15.4483017010
30
0.0000000000
10
-72.4280729363
20
15.9986484207
30
0.0000000000
10
-72.5061499393
20
16.3548840416
30
0.0000000000
10
-72.5450357049
20
16.5278380654
30
0.0000000000
11
-72.1994591870
21
14.8769154177
31
0.0000000000
11
-72.3158199638
21
15.4580798336
31
0.0000000000
11
-72.4310500012
21
16.0083825491
31
0.0000000000
11
-72.5450357049
21
16.5278380654
31
0.0000000000
0
SPLINE
5
3B4
100
AcDbEntity
8
0
100
AcDbSpline
62
9
6
CONTINUOUS
70
0
71
3
72
15
73
11
74
9
42
0.0000001000
43
0.0000001000
44
0.0000000001
12
4.1068221039
22
0.1110562178
32
0.0000000000
13
1.1452005397
23
-3.9454831137
33
0.0000000000
40
0.0000000000
40
0.0000000000
40
0.0000000000
40
0.0000000000
40
0.0317666400
40
0.0736207135
40
0.1324120714
40
0.2155409030
40
0.3317605759
40
0.4918279901
40
0.7090698438
40
1.0000000000
40
1.0000000000
40
1.0000000000
40
1.0000000000
10
-74.0426254100
20
40.5070566099
30
0.0000000000
10
-73.9991387636
20
40.5082325708
30
0.0000000000
10
-73.8976143305
20
40.4849232870
30
0.0000000000
10
-73.7441160773
20
40.3843118930
30
0.0000000000
10
-73.5699904571
20
40.2005504022
30
0.0000000000
10
-73.3689767028
20
39.9086419495
30
0.0000000000
10
-73.1353609546
20
39.4746157044
30
0.0000000000
10
-72.8639799931
20
38.8550363877
30
0.0000000000
10
-72.5497682674
20
37.9950734648
30
0.0000000000
10
-72.3439133217
20
37.3300134038
30
0.0000000000
10
-72.2328555311
20
36.9473933976
30
0.0000000000
11
-74.0426254100
21
40.5070566099
31
0.0000000000
11
-73.9145375360
21
40.4820418497
31
0.0000000000
11
-73.7674361280
21
40.3930025189
31
0.0000000000
11
-73.5971611331
21
40.2216985294
31
0.0000000000
11
-73.3992064252
21
39.9434002546
31
0.0000000000
11
-73.1687554989
21
39.5252279641
31
0.0000000000
11
-72.9008290775
21
38.9246743508
31
0.0000000000
11
-72.5904647502
21
38.0878769637
31
0.0000000000
11
-72.2328555311
21
36.9473933976
31
0.0000000000
0
SPLINE
5
3B5
100
AcDbEntity
8
0
100
AcDbSpline
62
9
6
CONTINUOUS
70
0
71
3
72
15
73
11
74
9
42
0.0000001000
43
0.0000001000
44
0.0000000001
12
1.1371278517
22
3.9693950351
32
0.0000000000
13
4.1290624475
23
0.0000034293
33
0.0000000000
40
0.0000000000
40
0.0000000000
40
0.0000000000
40
0.0000000000
40
0.2903693373
40
0.5093433594
40
0.6714875990
40
0.7890360211
40
0.8723468643
40
0.9302592948
40
0.9704907236
40
1.0000000000
40
1.0000000000
40
1.0000000000
40
1.0000000000
10
70.7639952818
20
38.9078351680
30
0.0000000000
10
70.8740576354
20
39.2920320366
30
0.0000000000
10
71.0788589846
20
39.9627680568
30
0.0000000000
10
71.3920646584
20
40.8327529105
30
0.0000000000
10
71.6642991942
20
41.4634063671
30
0.0000000000
10
71.8990959973
20
41.9052138789
30
0.0000000000
10
72.1003190343
20
42.2002843755
30
0.0000000000
10
72.2726572365
20
42.3830022631
30
0.0000000000
10
72.4211838903
20
42.4810265289
30
0.0000000000
10
72.5173470015
20
42.5037538488
30
0.0000000000
10
72.5579622165
20
42.5037538825
30
0.0000000000
11
70.7639952818
21
38.9078351680
31
0.0000000000
11
71.1182178857
21
40.0532673774
31
0.0000000000
11
71.4285728763
21
40.9024907905
31
0.0000000000
11
71.6981288838
21
41.5153323285
31
0.0000000000
11
71.9302389275
21
41.9415997243
31
0.0000000000
11
72.1285297258
21
42.2226936288
31
0.0000000000
11
72.2967546536
21
42.3926367989
31
0.0000000000
11
72.4386571977
21
42.4790016368
31
0.0000000000
11
72.5579622165
21
42.5037538825
31
0.0000000000
0
ENDSEC
0
SECTION
2
OBJECTS
0
DICTIONARY
5
3B6
100
AcDbDictionary
3
ACAD_GROUP
350
3B7
3
ACAD_MLINESTYLE
350
3B8
0
DICTIONARY
5
3B7
102
{ACAD_REACTORS
330
3B6
102
}
100
AcDbDictionary
0
DICTIONARY
5
3B8
102
{ACAD_REACTORS
330
3B6
102
}
100
AcDbDictionary
3
STANDARD
350
3B9
0
MLINESTYLE
5
3B9
102
{ACAD_REACTORS
330
3B8
102
}
100
AcDbMlineStyle
2
STANDARD
70
0
3

62
256
51
90.0
52
90.0
71
2
49
0.5
62
256
6
BYLAYER
49
-0.5
62
256
6
BYLAYER
0
ENDSEC
0
EOF
