  0
SECTION
  2
HEADER
  9
$ACADVER
  1
AC1024
  9
$DWGCODEPAGE
  3
ANSI_1252
  9
$EXTMAX
 10
558.8
 20
431.8
 30
0.0
  9
$EXTMIN
 10
0.0
 20
0.0
 30
0.0
  9
$LIMMIN
 10
0.0
 20
0.0
  9
$LIMMAX
 10
558.8
 20
431.8
  9
$VIEWCTR
 10
279.4
 20
215.9
  9
$VIEWSIZE
 40
431.8
  9
$CLAYER
  8
0
  9
$LTSCALE
 40
30.734
  9
$CELTYPE
  6
BYLAYER
  9
$DIMSCALE
 40
1.0
  9
$DIMASZ
 40
3.0
  9
$DIMEXO
 40
0.5
  9
$DIMDLI
 40
21.2344
  9
$DIMEXE
 40
1.5
  9
$DIMCEN
 40
5.0292
  9
$DIMLFAC
 40
1.0
  9
$DIMBLK
  1
_FILLED
  9
$DIMALT
 70
0
  9
$DIMALTF
 40
0.0393700787
  9
$DIMTXT
 40
3.0
  9
$DIMTOL
 70
1
  9
$DIMLIM
 70
0
  9
$DIMTFAC
 40
1.0
  9
$DIMTP
 40
0.01
  9
$DIMTM
 40
0.01
  9
$DIMGAP
 40
0.625
  9
$DIMDSEP
 70
44
  9
$AUNITS
 70
0
  9
$PDMODE
 70
3
  9
$PDSIZE
 40
3.0
  9
$HANDSEED
  5
77D
  9
$TILEMODE
 70
1
  9
$MEASUREMENT
 70
1
  9
$INSUNITS
 70
4
  0
ENDSEC
  0
SECTION
  2
CLASSES
  0
CLASS
  1
ACDBDICTIONARYWDFLT
  2
AcDbDictionaryWithDefault
  3
AutoCAD 2000
 90
0
 91
1
280
0
281
0
  0
CLASS
  1
ACDBPLACEHOLDER
  2
AcDbPlaceHolder
  3
AutoCAD 2000
 90
0
 91
1
280
0
281
0
  0
CLASS
  1
LAYOUT
  2
AcDbLayout
  3
AutoCAD 2000
 90
0
 91
0
280
0
281
0
  0
ENDSEC
  0
SECTION
  2
TABLES
  0
TABLE
  2
VPORT
  5
8
100
AcDbSymbolTable
 70
2
  0
VPORT
  5
1F4
100
AcDbSymbolTableRecord
100
AcDbViewportTableRecord
  2
*ACTIVE
 70
0
 10
0.0
 20
0.0
 11
1.0
 21
1.0
 12
279.4
 22
215.9
 13
0.0
 23
0.0
 14
1.0
 24
1.0
 15
0.0
 25
0.0
 16
0.0
 26
0.0
 36
1.0
 17
0.0
 27
0.0
 37
0.0
 40
431.8
 41
1.2941176471
 42
50.0
 43
0.0
 44
0.0
 50
0.0
 51
0.0
 71
0
 72
100
 73
1
 74
1
 75
0
 76
0
 77
0
 78
0
  0
ENDTAB
  0
TABLE
  2
LTYPE
  5
5
100
AcDbSymbolTable
 70
6
  0
LTYPE
  5
14
100
AcDbSymbolTableRecord
100
AcDbLinetypeTableRecord
  2
BYBLOCK
 70
0
  3

 72
65
 73
0
 40
0.0
  0
LTYPE
  5
15
100
AcDbSymbolTableRecord
100
AcDbLinetypeTableRecord
  2
BYLAYER
 70
0
  3

 72
65
 73
0
 40
0.0
  0
LTYPE
  5
16
100
AcDbSymbolTableRecord
100
AcDbLinetypeTableRecord
  2
CONTINUOUS
 70
64
  3
Solid line
 72
65
 73
0
 40
0.0
  0
LTYPE
  5
1F5
100
AcDbSymbolTableRecord
100
AcDbLinetypeTableRecord
  2
CENTER
 70
64
  3
____ _ ____ _ ____ _ ____ _ ____ _ ____ _ ____
 72
65
 73
4
 40
0.6
 49
0.375
 74
0
 49
-0.075
 74
0
 49
0.075
 74
0
 49
-0.075
 74
0
  0
LTYPE
  5
1F6
100
AcDbSymbolTableRecord
100
AcDbLinetypeTableRecord
  2
HIDDEN
 70
64
  3
- - - - - - - - - - - - - - - - - - - -
 72
65
 73
2
 40
0.2
 49
0.1
 74
0
 49
-0.1
 74
0
  0
LTYPE
  5
1F7
100
AcDbSymbolTableRecord
100
AcDbLinetypeTableRecord
  2
PHANTOM
 70
64
  3
_____ _ _ _____ _ _ _____ _ _ _____
 72
65
 73
6
 40
0.8
 49
0.45
 74
0
 49
-0.05
 74
0
 49
0.1
 74
0
 49
-0.05
 74
0
 49
0.1
 74
0
 49
-0.05
 74
0
  0
LTYPE
  5
1F8
100
AcDbSymbolTableRecord
100
AcDbLinetypeTableRecord
  2
DOT
 70
64
  3
. . . . . . . . . . . . . . . . . . . .
 72
65
 73
2
 40
0.2
 49
0.1
 74
0
 49
-0.1
 74
0
  0
LTYPE
  5
1F9
100
AcDbSymbolTableRecord
100
AcDbLinetypeTableRecord
  2
DASHED
 70
64
  3
- - - - - - - - - - - - - - - - - - - -
 72
65
 73
2
 40
0.2
 49
0.1
 74
0
 49
-0.1
 74
0
  0
ENDTAB
  0
TABLE
  2
LAYER
  5
2
100
AcDbSymbolTable
 70
36
  0
LAYER
  5
10
100
AcDbSymbolTableRecord
100
AcDbLayerTableRecord
  2
0
 70
0
 62
7
  6
CONTINUOUS
370
-3
390
F
  0
LAYER
  5
1FA
100
AcDbSymbolTableRecord
100
AcDbLayerTableRecord
  2
DEFAULT_1
 70
0
 62
7
  6
CENTER
370
-3
390
F
  0
LAYER
  5
1FB
100
AcDbSymbolTableRecord
100
AcDbLayerTableRecord
  2
DEFAULT_2
 70
0
 62
7
  6
HIDDEN
370
-3
390
F
  0
LAYER
  5
1FC
100
AcDbSymbolTableRecord
100
AcDbLayerTableRecord
  2
DEFAULT_3
 70
0
 62
7
  6
PHANTOM
370
-3
390
F
  0
LAYER
  5
1FD
100
AcDbSymbolTableRecord
100
AcDbLayerTableRecord
  2
ASSI
 70
0
 62
7
  6
CONTINUOUS
370
-3
390
F
  0
LAYER
  5
1FE
100
AcDbSymbolTableRecord
100
AcDbLayerTableRecord
  2
COLOR5
 70
0
 62
7
  6
CONTINUOUS
370
-3
390
F
  0
LAYER
  5
1FF
100
AcDbSymbolTableRecord
100
AcDbLayerTableRecord
  2
COORDINATE
 70
0
 62
7
  6
CONTINUOUS
370
-3
390
F
  0
LAYER
  5
200
100
AcDbSymbolTableRecord
100
AcDbLayerTableRecord
  2
COORD_ORIGINE
 70
0
 62
7
  6
CONTINUOUS
370
-3
390
F
  0
LAYER
  5
201
100
AcDbSymbolTableRecord
100
AcDbLayerTableRecord
  2
COPY_PUBLISH
 70
0
 62
7
  6
CONTINUOUS
370
-3
390
F
  0
LAYER
  5
202
100
AcDbSymbolTableRecord
100
AcDbLayerTableRecord
  2
COSMETICI
 70
0
 62
7
  6
CONTINUOUS
370
-3
390
F
  0
LAYER
  5
203
100
AcDbSymbolTableRecord
100
AcDbLayerTableRecord
  2
CURVE
 70
0
 62
7
  6
CONTINUOUS
370
-3
390
F
  0
LAYER
  5
204
100
AcDbSymbolTableRecord
100
AcDbLayerTableRecord
  2
DRAFT
 70
0
 62
7
  6
CONTINUOUS
370
-3
390
F
  0
LAYER
  5
205
100
AcDbSymbolTableRecord
100
AcDbLayerTableRecord
  2
IMPORT_IGES
 70
0
 62
7
  6
CONTINUOUS
370
-3
390
F
  0
LAYER
  5
206
100
AcDbSymbolTableRecord
100
AcDbLayerTableRecord
  2
INTF_1
 70
0
 62
7
  6
CONTINUOUS
370
-3
390
F
  0
LAYER
  5
207
100
AcDbSymbolTableRecord
100
AcDbLayerTableRecord
  2
INTF_11
 70
0
 62
7
  6
CONTINUOUS
370
-3
390
F
  0
LAYER
  5
208
100
AcDbSymbolTableRecord
100
AcDbLayerTableRecord
  2
INTF_12
 70
0
 62
7
  6
CONTINUOUS
370
-3
390
F
  0
LAYER
  5
209
100
AcDbSymbolTableRecord
100
AcDbLayerTableRecord
  2
INTF_2
 70
0
 62
7
  6
CONTINUOUS
370
-3
390
F
  0
LAYER
  5
20A
100
AcDbSymbolTableRecord
100
AcDbLayerTableRecord
  2
INTF_3
 70
0
 62
7
  6
CONTINUOUS
370
-3
390
F
  0
LAYER
  5
20B
100
AcDbSymbolTableRecord
100
AcDbLayerTableRecord
  2
INTF_4
 70
0
 62
7
  6
CONTINUOUS
370
-3
390
F
  0
LAYER
  5
20C
100
AcDbSymbolTableRecord
100
AcDbLayerTableRecord
  2
NOTE
 70
0
 62
7
  6
CONTINUOUS
370
-3
390
F
  0
LAYER
  5
20D
100
AcDbSymbolTableRecord
100
AcDbLayerTableRecord
  2
PIANI
 70
0
 62
7
  6
CONTINUOUS
370
-3
390
F
  0
LAYER
  5
20E
100
AcDbSymbolTableRecord
100
AcDbLayerTableRecord
  2
PIANI_ORIGINE
 70
0
 62
7
  6
CONTINUOUS
370
-3
390
F
  0
LAYER
  5
20F
100
AcDbSymbolTableRecord
100
AcDbLayerTableRecord
  2
PUNTI
 70
0
 62
7
  6
CONTINUOUS
370
-3
390
F
  0
LAYER
  5
210
100
AcDbSymbolTableRecord
100
AcDbLayerTableRecord
  2
RACCORDO
 70
0
 62
7
  6
CONTINUOUS
370
-3
390
F
  0
LAYER
  5
211
100
AcDbSymbolTableRecord
100
AcDbLayerTableRecord
  2
RGB__255__255__255__
 70
0
 62
7
  6
CONTINUOUS
370
-3
390
F
  0
LAYER
  5
212
100
AcDbSymbolTableRecord
100
AcDbLayerTableRecord
  2
RGB____0____0____0__
 70
0
 62
7
  6
CONTINUOUS
370
-3
390
F
  0
LAYER
  5
213
100
AcDbSymbolTableRecord
100
AcDbLayerTableRecord
  2
SIMBOLI
 70
0
 62
7
  6
CONTINUOUS
370
-3
390
F
  0
LAYER
  5
214
100
AcDbSymbolTableRecord
100
AcDbLayerTableRecord
  2
SMUSSO
 70
0
 62
7
  6
CONTINUOUS
370
-3
390
F
  0
LAYER
  5
215
100
AcDbSymbolTableRecord
100
AcDbLayerTableRecord
  2
SNAPLINE
 70
0
 62
7
  6
CONTINUOUS
370
-3
390
F
  0
LAYER
  5
216
100
AcDbSymbolTableRecord
100
AcDbLayerTableRecord
  2
SUPERFICI
 70
0
 62
7
  6
CONTINUOUS
370
-3
390
F
  0
LAYER
  5
217
100
AcDbSymbolTableRecord
100
AcDbLayerTableRecord
  2
TRASH
 70
0
 62
7
  6
CONTINUOUS
370
-3
390
F
  0
ENDTAB
  0
TABLE
  2
STYLE
  5
3
100
AcDbSymbolTable
 70
1
  0
STYLE
  5
11
100
AcDbSymbolTableRecord
100
AcDbTextStyleTableRecord
  2
STANDARD
 70
0
 40
0.0
 41
0.8
 50
0.0
 71
0
 42
0.2
  3
txt
  4

  0
STYLE
  5
218
100
AcDbSymbolTableRecord
100
AcDbTextStyleTableRecord
  2
TEXTSTYLE_1
 70
0
 40
0.0
 41
0.8
 50
0.0
 71
0
 42
0.2
  3
gdt
  4

  0
ENDTAB
  0
TABLE
  2
VIEW
  5
6
100
AcDbSymbolTable
 70
0
  0
ENDTAB
  0
TABLE
  2
UCS
  5
7
100
AcDbSymbolTable
 70
0
  0
ENDTAB
  0
TABLE
  2
APPID
  5
9
100
AcDbSymbolTable
 70
1
  0
APPID
  5
219
100
AcDbSymbolTableRecord
100
AcDbRegAppTableRecord
  2
ACAD
 70
0
  0
ENDTAB
  0
TABLE
  2
BLOCK_RECORD
  5
1
100
AcDbSymbolTable
 70
0
  0
BLOCK_RECORD
  5
21A
100
AcDbSymbolTableRecord
100
AcDbBlockTableRecord
  2
*Model_Space
  0
BLOCK_RECORD
  5
21B
100
AcDbSymbolTableRecord
100
AcDbBlockTableRecord
  2
*Paper_Space
  0
BLOCK_RECORD
  5
21C
100
AcDbSymbolTableRecord
100
AcDbBlockTableRecord
  2
_FILLED
  0
ENDTAB
  0
TABLE
  2
DIMSTYLE
  5
A
100
AcDbSymbolTable
 70
1
100
AcDbDimStyleTable
 71
0
  0
DIMSTYLE
105
21D
100
AcDbSymbolTableRecord
100
AcDbDimStyleTableRecord
  2
STANDARD
 70
0
  3

  4

 40
1.0
 41
3.0
 42
0.5
 43
0.38
 44
1.5
 45
0.0
 46
0.0
 47
0.01
 48
0.01
140
3.0
141
0.09
142
0.0
143
25.4
144
1.0
145
0.0
146
1.0
147
0.625
 71
1
 72
0
 73
0
 74
0
 75
0
 76
0
 77
1
 78
8
 79
2
170
0
171
1
172
0
173
0
174
0
175
0
176
0
177
0
178
0
270
2
179
2
271
2
272
2
273
2
274
2
275
0
280
0
281
0
282
0
283
1
284
8
285
0
286
0
287
3
288
0
340
11
278
44
341
21C
342
21C
343
21C
344
21C
  0
ENDTAB
  0
ENDSEC
  0
SECTION
  2
BLOCKS
  0
BLOCK
  5
20
100
AcDbEntity
  8
0
100
AcDbBlockBegin
  2
*Model_Space
 70
0
 10
0.0
 20
0.0
 30
0.0
  3
*Model_Space
  1

  0
ENDBLK
  5
21
100
AcDbEntity
  8
0
100
AcDbBlockEnd
  0
BLOCK
  5
1C
100
AcDbEntity
  8
0
100
AcDbBlockBegin
  2
*Paper_Space
 70
0
 10
0.0
 20
0.0
 30
0.0
  3
*Paper_Space
  1

  0
ENDBLK
  5
1D
100
AcDbEntity
  8
0
100
AcDbBlockEnd
  0
BLOCK
  5
21E
100
AcDbEntity
  8
0
100
AcDbBlockBegin
  2
_FILLED
 70
64
 10
0.0
 20
0.0
  3
_FILLED
  1

  0
SOLID
  5
21F
100
AcDbEntity
  8
0
  6
BYBLOCK
 62
0
100
AcDbTrace
 10
0.0
 20
0.0
 11
-1.0
 21
0.3166666667
 12
-1.0
 22
-0.3166666667
 13
-1.0
 23
-0.3166666667
  0
ENDBLK
  5
220
100
AcDbEntity
  8
0
  6
BYBLOCK
 62
0
100
AcDbBlockEnd
  0
ENDSEC
  0
SECTION
  2
ENTITIES
  0
LINE
  5
221
100
AcDbEntity
  8
DRAFT
100
AcDbLine
 62
7
  6
CONTINUOUS
 10
-105.0384128464
 20
9.35
 11
-105.0384128464
 21
-3.65
  0
LINE
  5
222
100
AcDbEntity
  8
RACCORDO
100
AcDbLine
 62
7
  6
CONTINUOUS
 10
-104.9615871536
 20
53.6000571154
 11
-104.9615871536
 21
9.35
  0
LINE
  5
223
100
AcDbEntity
  8
RACCORDO
100
AcDbLine
 62
7
  6
CONTINUOUS
 10
-104.9615871536
 20
-3.65
 11
-104.9615871536
 21
-47.9000571154
  0
LINE
  5
224
100
AcDbEntity
  8
RACCORDO
100
AcDbLine
 62
250
  6
CONTINUOUS
 10
-104.6797835631
 20
-17.1326224212
 11
-104.6797835631
 21
22.8326224212
  0
LINE
  5
225
100
AcDbEntity
  8
RACCORDO
100
AcDbLine
 62
250
  6
CONTINUOUS
 10
-104.4702589461
 20
-17.1849836279
 11
-104.4702589461
 21
-46.9098901385
  0
LINE
  5
226
100
AcDbEntity
  8
RACCORDO
100
AcDbLine
 62
250
  6
CONTINUOUS
 10
-104.4702589461
 20
22.8849836279
 11
-104.4702589461
 21
52.6098901385
  0
LINE
  5
227
100
AcDbEntity
  8
RACCORDO
100
AcDbLine
 62
7
  6
CONTINUOUS
 10
-103.7615871536
 20
38.4
 11
-103.7615871536
 21
29.4
  0
LINE
  5
228
100
AcDbEntity
  8
RACCORDO
100
AcDbLine
 62
250
  6
CONTINUOUS
 10
-103.2615871536
 20
38.9
 11
-103.2615871536
 21
28.9
  0
LINE
  5
229
100
AcDbEntity
  8
RACCORDO
100
AcDbLine
 62
7
  6
CONTINUOUS
 10
-102.9615871536
 20
9.6
 11
-102.9615871536
 21
-3.9
  0
LINE
  5
22A
100
AcDbEntity
  8
RACCORDO
100
AcDbLine
 62
250
  6
CONTINUOUS
 10
-102.8615871536
 20
28.9
 11
-102.8615871536
 21
38.9
  0
LINE
  5
22B
100
AcDbEntity
  8
RACCORDO
100
AcDbLine
 62
250
  6
CONTINUOUS
 10
-102.681001909
 20
-15.1511972268
 11
-102.681001909
 21
-3.9
  0
LINE
  5
22C
100
AcDbEntity
  8
RACCORDO
100
AcDbLine
 62
250
  6
CONTINUOUS
 10
-102.681001909
 20
9.6
 11
-102.681001909
 21
20.8511972268
  0
LINE
  5
22D
100
AcDbEntity
  8
DRAFT
100
AcDbLine
 62
7
  6
CONTINUOUS
 10
-102.4790408891
 20
20.85
 11
-102.4790408891
 21
17.75
  0
LINE
  5
22E
100
AcDbEntity
  8
RACCORDO
100
AcDbLine
 62
250
  6
CONTINUOUS
 10
-102.4714772921
 20
29.0872472287
 11
-102.4714772921
 21
20.8850597818
  0
LINE
  5
22F
100
AcDbEntity
  8
RACCORDO
100
AcDbLine
 62
250
  6
CONTINUOUS
 10
-102.4714772921
 20
-15.1850597818
 11
-102.4714772921
 21
-48.9086717926
  0
LINE
  5
230
100
AcDbEntity
  8
RACCORDO
100
AcDbLine
 62
250
  6
CONTINUOUS
 10
-102.4714772921
 20
38.7127527713
 11
-102.4714772921
 21
54.6086717926
  0
LINE
  5
231
100
AcDbEntity
  8
RACCORDO
100
AcDbLine
 62
7
  6
CONTINUOUS
 10
-102.4057847241
 20
-3.9
 11
-102.4057847241
 21
-3.65
  0
LINE
  5
232
100
AcDbEntity
  8
RACCORDO
100
AcDbLine
 62
7
  6
CONTINUOUS
 10
-102.4057847241
 20
9.35
 11
-102.4057847241
 21
9.6
  0
LINE
  5
233
100
AcDbEntity
  8
RACCORDO
100
AcDbLine
 62
7
  6
CONTINUOUS
 10
-102.4057847241
 20
17.75
 11
-102.4057847241
 21
20.818583276
  0
LINE
  5
234
100
AcDbEntity
  8
RACCORDO
100
AcDbLine
 62
7
  6
CONTINUOUS
 10
-102.3615871536
 20
29.4
 11
-102.3615871536
 21
38.4
  0
LINE
  5
235
100
AcDbEntity
  8
RACCORDO
100
AcDbLine
 62
7
  6
CONTINUOUS
 10
-102.0615871536
 20
18.15
 11
-102.0615871536
 21
22.8849836279
  0
LINE
  5
236
100
AcDbEntity
  8
DRAFT
100
AcDbLine
 62
7
  6
CONTINUOUS
 10
-101.9615871536
 20
-3.9
 11
-101.9615871536
 21
-3.65
  0
LINE
  5
237
100
AcDbEntity
  8
DRAFT
100
AcDbLine
 62
7
  6
CONTINUOUS
 10
-101.9615871536
 20
9.35
 11
-101.9615871536
 21
9.6
  0
LINE
  5
238
100
AcDbEntity
  8
DRAFT
100
AcDbLine
 62
7
  6
CONTINUOUS
 10
-101.9615871536
 20
17.75
 11
-101.9615871536
 21
18.15
  0
LINE
  5
239
100
AcDbEntity
  8
DRAFT
100
AcDbLine
 62
7
  6
CONTINUOUS
 10
-100.9615871536
 20
-53.4
 11
-100.9615871536
 21
-51.9
  0
LINE
  5
23A
100
AcDbEntity
  8
0
100
AcDbLine
 62
7
  6
CONTINUOUS
 10
-100.1615871536
 20
9.35
 11
-100.1615871536
 21
-3.65
  0
LINE
  5
23B
100
AcDbEntity
  8
0
100
AcDbLine
 62
7
  6
CONTINUOUS
 10
-99.9615871536
 20
-3.9
 11
-99.9615871536
 21
9.6
  0
LINE
  5
23C
100
AcDbEntity
  8
DRAFT
100
AcDbLine
 62
7
  6
CONTINUOUS
 10
-99.5143073399
 20
31.5
 11
-99.5143073399
 21
36.3
  0
LINE
  5
23D
100
AcDbEntity
  8
RACCORDO
100
AcDbLine
 62
7
  6
CONTINUOUS
 10
-99.3615871536
 20
-34.65
 11
-99.3615871536
 21
-42.65
  0
LINE
  5
23E
100
AcDbEntity
  8
DRAFT
100
AcDbLine
 62
7
  6
CONTINUOUS
 10
-99.3615871536
 20
31.5
 11
-99.3615871536
 21
36.3
  0
LINE
  5
23F
100
AcDbEntity
  8
RACCORDO
100
AcDbLine
 62
250
  6
CONTINUOUS
 10
-98.8615871536
 20
-34.15
 11
-98.8615871536
 21
-43.15
  0
LINE
  5
240
100
AcDbEntity
  8
DRAFT
100
AcDbLine
 62
7
  6
CONTINUOUS
 10
-98.4615871536
 20
-51.9
 11
-98.4615871536
 21
-49.4
  0
LINE
  5
241
100
AcDbEntity
  8
RACCORDO
100
AcDbLine
 62
250
  6
CONTINUOUS
 10
-98.4615871536
 20
-43.15
 11
-98.4615871536
 21
-34.15
  0
LINE
  5
242
100
AcDbEntity
  8
RACCORDO
100
AcDbLine
 62
7
  6
CONTINUOUS
 10
-97.9615871536
 20
-42.65
 11
-97.9615871536
 21
-34.65
  0
LINE
  5
243
100
AcDbEntity
  8
DRAFT
100
AcDbLine
 62
7
  6
CONTINUOUS
 10
-96.9615871536
 20
-49.4
 11
-96.9615871536
 21
-53.4
  0
LINE
  5
244
100
AcDbEntity
  8
DRAFT
100
AcDbLine
 62
7
  6
CONTINUOUS
 10
-94.1615871536
 20
36.3
 11
-94.1615871536
 21
31.5
  0
LINE
  5
245
100
AcDbEntity
  8
RACCORDO
100
AcDbLine
 62
7
  6
CONTINUOUS
 10
-94.0615871536
 20
18.15
 11
-94.0615871536
 21
22.8849836279
  0
LINE
  5
246
100
AcDbEntity
  8
DRAFT
100
AcDbLine
 62
7
  6
CONTINUOUS
 10
-94.0088669672
 20
36.3
 11
-94.0088669672
 21
31.5
  0
LINE
  5
247
100
AcDbEntity
  8
DRAFT
100
AcDbLine
 62
7
  6
CONTINUOUS
 10
-93.6615871536
 20
20.85
 11
-93.6615871536
 21
17.75
  0
LINE
  5
248
100
AcDbEntity
  8
RACCORDO
100
AcDbLine
 62
7
  6
CONTINUOUS
 10
-91.1615871536
 20
38.4
 11
-91.1615871536
 21
29.4
  0
LINE
  5
249
100
AcDbEntity
  8
RACCORDO
100
AcDbLine
 62
250
  6
CONTINUOUS
 10
-90.6615871536
 20
38.9
 11
-90.6615871536
 21
28.9
  0
LINE
  5
24A
100
AcDbEntity
  8
RACCORDO
100
AcDbLine
 62
250
  6
CONTINUOUS
 10
-90.2615871536
 20
28.9
 11
-90.2615871536
 21
38.9
  0
LINE
  5
24B
100
AcDbEntity
  8
RACCORDO
100
AcDbLine
 62
7
  6
CONTINUOUS
 10
-89.7615871536
 20
29.4
 11
-89.7615871536
 21
38.4
  0
LINE
  5
24C
100
AcDbEntity
  8
DRAFT
100
AcDbLine
 62
7
  6
CONTINUOUS
 10
-82.4615871536
 20
25.75
 11
-82.4572127204
 21
25.7
  0
LINE
  5
24D
100
AcDbEntity
  8
0
100
AcDbLine
 62
7
  6
CONTINUOUS
 10
-83.9615871536
 20
-32.2
 11
-83.9615871536
 21
-20.0
  0
LINE
  5
24E
100
AcDbEntity
  8
0
100
AcDbLine
 62
7
  6
CONTINUOUS
 10
-83.9615871536
 20
25.7
 11
-83.9615871536
 21
37.9
  0
LINE
  5
24F
100
AcDbEntity
  8
DRAFT
100
AcDbLine
 62
7
  6
CONTINUOUS
 10
-82.3481292315
 20
-32.2
 11
-82.3481292315
 21
-25.4
  0
LINE
  5
250
100
AcDbEntity
  8
0
100
AcDbLine
 62
7
  6
CONTINUOUS
 10
-81.9615871536
 20
37.9
 11
-81.9615871536
 21
25.7
  0
LINE
  5
251
100
AcDbEntity
  8
0
100
AcDbLine
 62
7
  6
CONTINUOUS
 10
-81.9615871536
 20
-20.0
 11
-81.9615871536
 21
-32.2
  0
LINE
  5
252
100
AcDbEntity
  8
0
100
AcDbLine
 62
7
  6
CONTINUOUS
 10
-78.9615871536
 20
-32.2
 11
-78.9615871536
 21
-20.0
  0
LINE
  5
253
100
AcDbEntity
  8
0
100
AcDbLine
 62
7
  6
CONTINUOUS
 10
-78.9615871536
 20
25.7
 11
-78.9615871536
 21
37.9
  0
LINE
  5
254
100
AcDbEntity
  8
DRAFT
100
AcDbLine
 62
7
  6
CONTINUOUS
 10
-82.4572127204
 20
-20.0
 11
-82.4615871536
 21
-20.05
  0
LINE
  5
255
100
AcDbEntity
  8
DRAFT
100
AcDbLine
 62
7
  6
CONTINUOUS
 10
-77.4615871536
 20
25.75
 11
-77.4572127204
 21
25.7
  0
LINE
  5
256
100
AcDbEntity
  8
ASSI
100
AcDbLine
 62
7
  6
CONTINUOUS
 10
-77.9846802844
 20
3.7531942447
 11
-77.9846802844
 21
1.85
  0
LINE
  5
257
100
AcDbEntity
  8
ASSI
100
AcDbLine
 62
7
  6
CONTINUOUS
 10
-77.7309210518
 20
1.85
 11
-77.7309210518
 21
3.7531942447
  0
LINE
  5
258
100
AcDbEntity
  8
DRAFT
100
AcDbLine
 62
7
  6
CONTINUOUS
 10
-77.3481292315
 20
-32.2
 11
-77.3481292315
 21
-25.4
  0
LINE
  5
259
100
AcDbEntity
  8
ASSI
100
AcDbLine
 62
7
  6
CONTINUOUS
 10
-77.3041441606
 20
3.7531942447
 11
-77.3041441606
 21
1.85
  0
LINE
  5
25A
100
AcDbEntity
  8
ASSI
100
AcDbLine
 62
7
  6
CONTINUOUS
 10
-77.0503849279
 20
1.85
 11
-77.0503849279
 21
3.4648314804
  0
LINE
  5
25B
100
AcDbEntity
  8
0
100
AcDbLine
 62
7
  6
CONTINUOUS
 10
-76.9615871536
 20
37.9
 11
-76.9615871536
 21
25.7
  0
LINE
  5
25C
100
AcDbEntity
  8
0
100
AcDbLine
 62
7
  6
CONTINUOUS
 10
-76.9615871536
 20
-20.0
 11
-76.9615871536
 21
-32.2
  0
LINE
  5
25D
100
AcDbEntity
  8
ASSI
100
AcDbLine
 62
7
  6
CONTINUOUS
 10
-75.7239162119
 20
3.4417624592
 11
-75.7239162119
 21
1.85
  0
LINE
  5
25E
100
AcDbEntity
  8
ASSI
100
AcDbLine
 62
7
  6
CONTINUOUS
 10
-75.4701569793
 20
1.85
 11
-75.4701569793
 21
3.7531942447
  0
LINE
  5
25F
100
AcDbEntity
  8
0
100
AcDbLine
 62
7
  6
CONTINUOUS
 10
-73.9615871536
 20
-32.2
 11
-73.9615871536
 21
-20.0
  0
LINE
  5
260
100
AcDbEntity
  8
0
100
AcDbLine
 62
7
  6
CONTINUOUS
 10
-73.9615871536
 20
25.7
 11
-73.9615871536
 21
37.9
  0
LINE
  5
261
100
AcDbEntity
  8
ASSI
100
AcDbLine
 62
7
  6
CONTINUOUS
 10
-73.2901344807
 20
3.7531942447
 11
-73.2901344807
 21
1.85
  0
LINE
  5
262
100
AcDbEntity
  8
ASSI
100
AcDbLine
 62
7
  6
CONTINUOUS
 10
-73.0363752481
 20
1.85
 11
-73.0363752481
 21
2.6920192719
  0
LINE
  5
263
100
AcDbEntity
  8
ASSI
100
AcDbLine
 62
7
  6
CONTINUOUS
 10
-73.0363752481
 20
2.9111749728
 11
-73.0363752481
 21
3.5340385438
  0
LINE
  5
264
100
AcDbEntity
  8
DRAFT
100
AcDbLine
 62
7
  6
CONTINUOUS
 10
-72.3481292315
 20
-32.2
 11
-72.3481292315
 21
-25.4
  0
LINE
  5
265
100
AcDbEntity
  8
0
100
AcDbLine
 62
7
  6
CONTINUOUS
 10
-71.9615871536
 20
37.9
 11
-71.9615871536
 21
25.7
  0
LINE
  5
266
100
AcDbEntity
  8
0
100
AcDbLine
 62
7
  6
CONTINUOUS
 10
-71.9615871536
 20
-20.0
 11
-71.9615871536
 21
-32.2
  0
LINE
  5
267
100
AcDbEntity
  8
DRAFT
100
AcDbLine
 62
7
  6
CONTINUOUS
 10
-77.4572127204
 20
-20.0
 11
-77.4615871536
 21
-20.05
  0
LINE
  5
268
100
AcDbEntity
  8
DRAFT
100
AcDbLine
 62
7
  6
CONTINUOUS
 10
-72.4572127204
 20
-20.0
 11
-72.4615871536
 21
-20.05
  0
LINE
  5
269
100
AcDbEntity
  8
ASSI
100
AcDbLine
 62
7
  6
CONTINUOUS
 10
-75.0087765563
 20
1.85
 11
-74.8081841396
 21
2.4267255287
  0
LINE
  5
26A
100
AcDbEntity
  8
ASSI
100
AcDbLine
 62
7
  6
CONTINUOUS
 10
-76.2856828699
 20
1.85
 11
-75.7239162119
 21
3.4417624592
  0
LINE
  5
26B
100
AcDbEntity
  8
ASSI
100
AcDbLine
 62
7
  6
CONTINUOUS
 10
-75.8003322784
 20
3.7531942447
 11
-76.2710844582
 21
2.4319521836
  0
LINE
  5
26C
100
AcDbEntity
  8
ASSI
100
AcDbLine
 62
7
  6
CONTINUOUS
 10
-74.735913175
 20
2.634346719
 11
-74.5302745089
 21
3.1899857509
  0
LINE
  5
26D
100
AcDbEntity
  8
ASSI
100
AcDbLine
 62
7
  6
CONTINUOUS
 10
-78.4691297285
 20
3.7531942447
 11
-78.9932289538
 21
2.3740994012
  0
LINE
  5
26E
100
AcDbEntity
  8
ASSI
100
AcDbLine
 62
7
  6
CONTINUOUS
 10
-74.5531633006
 20
3.7531942447
 11
-75.2765933362
 21
1.85
  0
LINE
  5
26F
100
AcDbEntity
  8
ASSI
100
AcDbLine
 62
7
  6
CONTINUOUS
 10
-78.9568231273
 20
1.85
 11
-78.1977081831
 21
3.7531942447
  0
LINE
  5
270
100
AcDbEntity
  8
ASSI
100
AcDbLine
 62
7
  6
CONTINUOUS
 10
-79.9615871536
 20
3.7531942447
 11
-79.229866738
 21
1.85
  0
LINE
  5
271
100
AcDbEntity
  8
ASSI
100
AcDbLine
 62
7
  6
CONTINUOUS
 10
-79.1976060135
 20
2.3740994012
 11
-79.6917878494
 21
3.7531942447
  0
LINE
  5
272
100
AcDbEntity
  8
ASSI
100
AcDbLine
 62
7
  6
CONTINUOUS
 10
-77.0503849279
 20
3.4648314804
 11
-76.5015944403
 21
1.85
  0
LINE
  5
273
100
AcDbEntity
  8
ASSI
100
AcDbLine
 62
7
  6
CONTINUOUS
 10
-76.4666304496
 20
2.4085227035
 11
-76.9173775094
 21
3.7531942447
  0
LINE
  5
274
100
AcDbEntity
  8
DRAFT
100
AcDbLine
 62
7
  6
CONTINUOUS
 10
-72.4615871536
 20
25.75
 11
-72.4572127204
 21
25.7
  0
LINE
  5
275
100
AcDbEntity
  8
DRAFT
100
AcDbLine
 62
7
  6
CONTINUOUS
 10
-67.4615871536
 20
25.75
 11
-67.4572127204
 21
25.7
  0
LINE
  5
276
100
AcDbEntity
  8
0
100
AcDbLine
 62
7
  6
CONTINUOUS
 10
-68.9615871536
 20
-32.2
 11
-68.9615871536
 21
-20.0
  0
LINE
  5
277
100
AcDbEntity
  8
0
100
AcDbLine
 62
7
  6
CONTINUOUS
 10
-68.9615871536
 20
25.7
 11
-68.9615871536
 21
37.9
  0
LINE
  5
278
100
AcDbEntity
  8
ASSI
100
AcDbLine
 62
7
  6
CONTINUOUS
 10
-68.8724169308
 20
3.7531942447
 11
-68.8724169308
 21
1.85
  0
LINE
  5
279
100
AcDbEntity
  8
ASSI
100
AcDbLine
 62
7
  6
CONTINUOUS
 10
-68.6186576982
 20
1.85
 11
-68.6186576982
 21
2.634346719
  0
LINE
  5
27A
100
AcDbEntity
  8
ASSI
100
AcDbLine
 62
7
  6
CONTINUOUS
 10
-68.6186576982
 20
2.85350242
 11
-68.6186576982
 21
3.5340385438
  0
LINE
  5
27B
100
AcDbEntity
  8
DRAFT
100
AcDbLine
 62
7
  6
CONTINUOUS
 10
-67.3481292315
 20
-32.2
 11
-67.3481292315
 21
-25.4
  0
LINE
  5
27C
100
AcDbEntity
  8
0
100
AcDbLine
 62
7
  6
CONTINUOUS
 10
-66.9615871536
 20
37.9
 11
-66.9615871536
 21
25.7
  0
LINE
  5
27D
100
AcDbEntity
  8
0
100
AcDbLine
 62
7
  6
CONTINUOUS
 10
-66.9615871536
 20
-20.0
 11
-66.9615871536
 21
-32.2
  0
LINE
  5
27E
100
AcDbEntity
  8
0
100
AcDbLine
 62
7
  6
CONTINUOUS
 10
-63.9615871536
 20
-32.2
 11
-63.9615871536
 21
-20.0
  0
LINE
  5
27F
100
AcDbEntity
  8
0
100
AcDbLine
 62
7
  6
CONTINUOUS
 10
-63.9615871536
 20
25.7
 11
-63.9615871536
 21
37.9
  0
LINE
  5
280
100
AcDbEntity
  8
ASSI
100
AcDbLine
 62
7
  6
CONTINUOUS
 10
-62.8167988794
 20
3.7531942447
 11
-62.8167988794
 21
1.85
  0
LINE
  5
281
100
AcDbEntity
  8
ASSI
100
AcDbLine
 62
7
  6
CONTINUOUS
 10
-62.5630396467
 20
1.85
 11
-62.5630396467
 21
3.7531942447
  0
LINE
  5
282
100
AcDbEntity
  8
DRAFT
100
AcDbLine
 62
7
  6
CONTINUOUS
 10
-62.3481292315
 20
-32.2
 11
-62.3481292315
 21
-25.4
  0
LINE
  5
283
100
AcDbEntity
  8
DRAFT
100
AcDbLine
 62
7
  6
CONTINUOUS
 10
-67.4572127204
 20
-20.0
 11
-67.4615871536
 21
-20.05
  0
LINE
  5
284
100
AcDbEntity
  8
ASSI
100
AcDbLine
 62
7
  6
CONTINUOUS
 10
-67.0614987707
 20
1.85
 11
-66.860906354
 21
2.4267255287
  0
LINE
  5
285
100
AcDbEntity
  8
ASSI
100
AcDbLine
 62
7
  6
CONTINUOUS
 10
-66.7886353894
 20
2.634346719
 11
-66.5829967233
 21
3.1899857509
  0
LINE
  5
286
100
AcDbEntity
  8
ASSI
100
AcDbLine
 62
7
  6
CONTINUOUS
 10
-66.605885515
 20
3.7531942447
 11
-67.3293155506
 21
1.85
  0
LINE
  5
287
100
AcDbEntity
  8
ASSI
100
AcDbLine
 62
7
  6
CONTINUOUS
 10
-73.5163189553
 20
1.85
 11
-74.27867803
 21
3.7531942447
  0
LINE
  5
288
100
AcDbEntity
  8
ASSI
100
AcDbLine
 62
7
  6
CONTINUOUS
 10
-74.2799396364
 20
3.1573647434
 11
-74.0750217122
 21
2.634346719
  0
LINE
  5
289
100
AcDbEntity
  8
ASSI
100
AcDbLine
 62
7
  6
CONTINUOUS
 10
-73.9984254162
 20
2.4267255287
 11
-73.7861184354
 21
1.85
  0
LINE
  5
28A
100
AcDbEntity
  8
DRAFT
100
AcDbLine
 62
7
  6
CONTINUOUS
 10
-62.4615871536
 20
25.75
 11
-62.4572127204
 21
25.7
  0
LINE
  5
28B
100
AcDbEntity
  8
DRAFT
100
AcDbLine
 62
7
  6
CONTINUOUS
 10
-57.4615871536
 20
25.75
 11
-57.4572127204
 21
25.7
  0
LINE
  5
28C
100
AcDbEntity
  8
0
100
AcDbLine
 62
7
  6
CONTINUOUS
 10
-61.9615871536
 20
37.9
 11
-61.9615871536
 21
25.7
  0
LINE
  5
28D
100
AcDbEntity
  8
0
100
AcDbLine
 62
7
  6
CONTINUOUS
 10
-61.9615871536
 20
-20.0
 11
-61.9615871536
 21
-32.2
  0
LINE
  5
28E
100
AcDbEntity
  8
ASSI
100
AcDbLine
 62
7
  6
CONTINUOUS
 10
-60.3599481271
 20
3.7531942447
 11
-60.3599481271
 21
1.85
  0
LINE
  5
28F
100
AcDbEntity
  8
ASSI
100
AcDbLine
 62
7
  6
CONTINUOUS
 10
-60.1061888944
 20
2.0691557009
 11
-60.1061888944
 21
3.7531942447
  0
LINE
  5
290
100
AcDbEntity
  8
ASSI
100
AcDbLine
 62
7
  6
CONTINUOUS
 10
-59.1603590273
 20
1.85
 11
-59.1603590273
 21
2.0691557009
  0
LINE
  5
291
100
AcDbEntity
  8
0
100
AcDbLine
 62
7
  6
CONTINUOUS
 10
-58.9615871536
 20
-32.2
 11
-58.9615871536
 21
-20.0
  0
LINE
  5
292
100
AcDbEntity
  8
0
100
AcDbLine
 62
7
  6
CONTINUOUS
 10
-58.9615871536
 20
25.7
 11
-58.9615871536
 21
37.9
  0
LINE
  5
293
100
AcDbEntity
  8
ASSI
100
AcDbLine
 62
7
  6
CONTINUOUS
 10
-58.8604617524
 20
3.7531942447
 11
-58.8604617524
 21
1.85
  0
LINE
  5
294
100
AcDbEntity
  8
ASSI
100
AcDbLine
 62
7
  6
CONTINUOUS
 10
-58.6067025198
 20
2.0691557009
 11
-58.6067025198
 21
2.7266228036
  0
LINE
  5
295
100
AcDbEntity
  8
ASSI
100
AcDbLine
 62
7
  6
CONTINUOUS
 10
-58.6067025198
 20
2.9457785045
 11
-58.6067025198
 21
3.5340385438
  0
LINE
  5
296
100
AcDbEntity
  8
ASSI
100
AcDbLine
 62
7
  6
CONTINUOUS
 10
-57.5685965681
 20
2.7266228036
 11
-57.5685965681
 21
2.9457785045
  0
LINE
  5
297
100
AcDbEntity
  8
ASSI
100
AcDbLine
 62
7
  6
CONTINUOUS
 10
-57.4993895047
 20
3.5340385438
 11
-57.4993895047
 21
3.7531942447
  0
LINE
  5
298
100
AcDbEntity
  8
ASSI
100
AcDbLine
 62
7
  6
CONTINUOUS
 10
-57.4532514624
 20
1.85
 11
-57.4532514624
 21
2.0691557009
  0
LINE
  5
299
100
AcDbEntity
  8
DRAFT
100
AcDbLine
 62
7
  6
CONTINUOUS
 10
-57.3481292315
 20
-32.2
 11
-57.3481292315
 21
-25.4
  0
LINE
  5
29A
100
AcDbEntity
  8
0
100
AcDbLine
 62
7
  6
CONTINUOUS
 10
-56.9615871536
 20
37.9
 11
-56.9615871536
 21
25.7
  0
LINE
  5
29B
100
AcDbEntity
  8
0
100
AcDbLine
 62
7
  6
CONTINUOUS
 10
-56.9615871536
 20
-20.0
 11
-56.9615871536
 21
-32.2
  0
LINE
  5
29C
100
AcDbEntity
  8
ASSI
100
AcDbLine
 62
7
  6
CONTINUOUS
 10
-54.5696238188
 20
3.7531942447
 11
-54.5696238188
 21
1.85
  0
LINE
  5
29D
100
AcDbEntity
  8
ASSI
100
AcDbLine
 62
7
  6
CONTINUOUS
 10
-54.3158645862
 20
1.85
 11
-54.3158645862
 21
3.7531942447
  0
LINE
  5
29E
100
AcDbEntity
  8
DRAFT
100
AcDbLine
 62
7
  6
CONTINUOUS
 10
-62.4572127204
 20
-20.0
 11
-62.4615871536
 21
-20.05
  0
LINE
  5
29F
100
AcDbEntity
  8
DRAFT
100
AcDbLine
 62
7
  6
CONTINUOUS
 10
-57.4572127204
 20
-20.0
 11
-57.4615871536
 21
-20.05
  0
LINE
  5
2A0
100
AcDbEntity
  8
ASSI
100
AcDbLine
 62
7
  6
CONTINUOUS
 10
-62.0555211815
 20
1.85
 11
-61.8549287648
 21
2.4267255287
  0
LINE
  5
2A1
100
AcDbEntity
  8
ASSI
100
AcDbLine
 62
7
  6
CONTINUOUS
 10
-61.7826578002
 20
2.634346719
 11
-61.5770191341
 21
3.1899857509
  0
LINE
  5
2A2
100
AcDbEntity
  8
ASSI
100
AcDbLine
 62
7
  6
CONTINUOUS
 10
-63.3012483235
 20
3.7531942447
 11
-63.8253475487
 21
2.3740994012
  0
LINE
  5
2A3
100
AcDbEntity
  8
ASSI
100
AcDbLine
 62
7
  6
CONTINUOUS
 10
-61.5999079258
 20
3.7531942447
 11
-62.3233379614
 21
1.85
  0
LINE
  5
2A4
100
AcDbEntity
  8
ASSI
100
AcDbLine
 62
7
  6
CONTINUOUS
 10
-63.7889417222
 20
1.85
 11
-63.029826778
 21
3.7531942447
  0
LINE
  5
2A5
100
AcDbEntity
  8
RACCORDO
100
AcDbLine
 62
7
  6
CONTINUOUS
 10
4.7384585379
 20
-55.1
 11
-4.661632845
 21
-55.1
  0
LINE
  5
2A6
100
AcDbEntity
  8
ASSI
100
AcDbLine
 62
7
  6
CONTINUOUS
 10
-72.187867715
 20
2.2455977196
 11
-71.9384339898
 21
1.85
  0
LINE
  5
2A7
100
AcDbEntity
  8
ASSI
100
AcDbLine
 62
7
  6
CONTINUOUS
 10
-71.6403390097
 20
1.85
 11
-71.9636657647
 21
2.3674310865
  0
LINE
  5
2A8
100
AcDbEntity
  8
ASSI
100
AcDbLine
 62
7
  6
CONTINUOUS
 10
-65.5690411697
 20
1.85
 11
-66.3314002444
 21
3.7531942447
  0
LINE
  5
2A9
100
AcDbEntity
  8
ASSI
100
AcDbLine
 62
7
  6
CONTINUOUS
 10
-60.5630635804
 20
1.85
 11
-61.3254226552
 21
3.7531942447
  0
LINE
  5
2AA
100
AcDbEntity
  8
ASSI
100
AcDbLine
 62
7
  6
CONTINUOUS
 10
-66.3326618508
 20
3.1573647434
 11
-66.1277439266
 21
2.634346719
  0
LINE
  5
2AB
100
AcDbEntity
  8
ASSI
100
AcDbLine
 62
7
  6
CONTINUOUS
 10
-61.3266842616
 20
3.1573647434
 11
-61.1217663374
 21
2.634346719
  0
LINE
  5
2AC
100
AcDbEntity
  8
ASSI
100
AcDbLine
 62
7
  6
CONTINUOUS
 10
-64.7937057485
 20
3.7531942447
 11
-64.0619853329
 21
1.85
  0
LINE
  5
2AD
100
AcDbEntity
  8
ASSI
100
AcDbLine
 62
7
  6
CONTINUOUS
 10
-66.0511476306
 20
2.4267255287
 11
-65.8388406498
 21
1.85
  0
LINE
  5
2AE
100
AcDbEntity
  8
ASSI
100
AcDbLine
 62
7
  6
CONTINUOUS
 10
-61.0451700414
 20
2.4267255287
 11
-60.8328630606
 21
1.85
  0
LINE
  5
2AF
100
AcDbEntity
  8
ASSI
100
AcDbLine
 62
7
  6
CONTINUOUS
 10
-64.0297246084
 20
2.3740994012
 11
-64.5239064443
 21
3.7531942447
  0
LINE
  5
2B0
100
AcDbEntity
  8
DRAFT
100
AcDbLine
 62
7
  6
CONTINUOUS
 10
-52.4615871536
 20
25.75
 11
-52.4572127204
 21
25.7
  0
LINE
  5
2B1
100
AcDbEntity
  8
0
100
AcDbLine
 62
7
  6
CONTINUOUS
 10
-53.9615871536
 20
-32.2
 11
-53.9615871536
 21
-20.0
  0
LINE
  5
2B2
100
AcDbEntity
  8
0
100
AcDbLine
 62
7
  6
CONTINUOUS
 10
-53.9615871536
 20
25.7
 11
-53.9615871536
 21
37.9
  0
LINE
  5
2B3
100
AcDbEntity
  8
DRAFT
100
AcDbLine
 62
7
  6
CONTINUOUS
 10
-52.3481292315
 20
-32.2
 11
-52.3481292315
 21
-25.4
  0
LINE
  5
2B4
100
AcDbEntity
  8
0
100
AcDbLine
 62
7
  6
CONTINUOUS
 10
-51.9615871536
 20
37.9
 11
-51.9615871536
 21
25.7
  0
LINE
  5
2B5
100
AcDbEntity
  8
0
100
AcDbLine
 62
7
  6
CONTINUOUS
 10
-51.9615871536
 20
-20.0
 11
-51.9615871536
 21
-32.2
  0
LINE
  5
2B6
100
AcDbEntity
  8
ASSI
100
AcDbLine
 62
7
  6
CONTINUOUS
 10
-51.9397554079
 20
3.7531942447
 11
-51.9397554079
 21
1.85
  0
LINE
  5
2B7
100
AcDbEntity
  8
ASSI
100
AcDbLine
 62
7
  6
CONTINUOUS
 10
-51.6859961753
 20
2.0691557009
 11
-51.6859961753
 21
2.7266228036
  0
LINE
  5
2B8
100
AcDbEntity
  8
ASSI
100
AcDbLine
 62
7
  6
CONTINUOUS
 10
-51.6859961753
 20
2.9457785045
 11
-51.6859961753
 21
3.5340385438
  0
LINE
  5
2B9
100
AcDbEntity
  8
ASSI
100
AcDbLine
 62
7
  6
CONTINUOUS
 10
-50.6478902236
 20
2.7266228036
 11
-50.6478902236
 21
2.9457785045
  0
LINE
  5
2BA
100
AcDbEntity
  8
ASSI
100
AcDbLine
 62
7
  6
CONTINUOUS
 10
-50.5786831601
 20
3.5340385438
 11
-50.5786831601
 21
3.7531942447
  0
LINE
  5
2BB
100
AcDbEntity
  8
ASSI
100
AcDbLine
 62
7
  6
CONTINUOUS
 10
-50.5325451178
 20
1.85
 11
-50.5325451178
 21
2.0691557009
  0
LINE
  5
2BC
100
AcDbEntity
  8
ASSI
100
AcDbLine
 62
7
  6
CONTINUOUS
 10
-50.17497529
 20
3.7531942447
 11
-50.17497529
 21
1.85
  0
LINE
  5
2BD
100
AcDbEntity
  8
ASSI
100
AcDbLine
 62
7
  6
CONTINUOUS
 10
-49.9212160574
 20
1.85
 11
-49.9212160574
 21
3.3096563641
  0
LINE
  5
2BE
100
AcDbEntity
  8
0
100
AcDbLine
 62
7
  6
CONTINUOUS
 10
-48.9615871536
 20
-32.2
 11
-48.9615871536
 21
-20.0
  0
LINE
  5
2BF
100
AcDbEntity
  8
0
100
AcDbLine
 62
7
  6
CONTINUOUS
 10
-48.9615871536
 20
25.7
 11
-48.9615871536
 21
37.9
  0
LINE
  5
2C0
100
AcDbEntity
  8
ASSI
100
AcDbLine
 62
7
  6
CONTINUOUS
 10
-48.9523171692
 20
3.7531942447
 11
-48.9523171692
 21
2.2935380567
  0
LINE
  5
2C1
100
AcDbEntity
  8
ASSI
100
AcDbLine
 62
7
  6
CONTINUOUS
 10
-48.6985579365
 20
1.85
 11
-48.6985579365
 21
3.7531942447
  0
LINE
  5
2C2
100
AcDbEntity
  8
ASSI
100
AcDbLine
 62
7
  6
CONTINUOUS
 10
-48.4332641933
 20
2.0783474043
 11
-48.4332641933
 21
1.85
  0
LINE
  5
2C3
100
AcDbEntity
  8
ASSI
100
AcDbLine
 62
7
  6
CONTINUOUS
 10
-48.3179190876
 20
3.7531942447
 11
-48.3179190876
 21
3.5340385438
  0
LINE
  5
2C4
100
AcDbEntity
  8
DRAFT
100
AcDbLine
 62
7
  6
CONTINUOUS
 10
-47.3481292315
 20
-32.2
 11
-47.3481292315
 21
-25.4
  0
LINE
  5
2C5
100
AcDbEntity
  8
ASSI
100
AcDbLine
 62
7
  6
CONTINUOUS
 10
-46.9683813504
 20
3.5340385438
 11
-46.9683813504
 21
3.7531942447
  0
LINE
  5
2C6
100
AcDbEntity
  8
0
100
AcDbLine
 62
7
  6
CONTINUOUS
 10
-46.9615871536
 20
37.9
 11
-46.9615871536
 21
25.7
  0
LINE
  5
2C7
100
AcDbEntity
  8
0
100
AcDbLine
 62
7
  6
CONTINUOUS
 10
-46.9615871536
 20
-20.0
 11
-46.9615871536
 21
-32.2
  0
LINE
  5
2C8
100
AcDbEntity
  8
ASSI
100
AcDbLine
 62
7
  6
CONTINUOUS
 10
-46.9222433081
 20
1.85
 11
-46.9222433081
 21
2.0691557009
  0
LINE
  5
2C9
100
AcDbEntity
  8
DRAFT
100
AcDbLine
 62
7
  6
CONTINUOUS
 10
-52.4572127204
 20
-20.0
 11
-52.4615871536
 21
-20.05
  0
LINE
  5
2CA
100
AcDbEntity
  8
ASSI
100
AcDbLine
 62
7
  6
CONTINUOUS
 10
-55.0540732629
 20
3.7531942447
 11
-55.5781724881
 21
2.3740994012
  0
LINE
  5
2CB
100
AcDbEntity
  8
ASSI
100
AcDbLine
 62
7
  6
CONTINUOUS
 10
-55.5417666616
 20
1.85
 11
-54.7826517175
 21
3.7531942447
  0
LINE
  5
2CC
100
AcDbEntity
  8
RACCORDO
100
AcDbLine
 62
7
  6
CONTINUOUS
 10
100.7384128464
 20
-53.4
 11
97.3384128464
 21
-53.4
  0
LINE
  5
2CD
100
AcDbEntity
  8
DRAFT
100
AcDbLine
 62
7
  6
CONTINUOUS
 10
-96.9615871536
 20
-53.4
 11
-100.9615871536
 21
-53.4
  0
LINE
  5
2CE
100
AcDbEntity
  8
DRAFT
100
AcDbLine
 62
7
  6
CONTINUOUS
 10
-2.6115871536
 20
-52.6
 11
2.6884128464
 21
-52.6
  0
LINE
  5
2CF
100
AcDbEntity
  8
DRAFT
100
AcDbLine
 62
7
  6
CONTINUOUS
 10
-100.9615871536
 20
-51.9
 11
-98.4615871536
 21
-51.9
  0
LINE
  5
2D0
100
AcDbEntity
  8
RACCORDO
100
AcDbLine
 62
7
  6
CONTINUOUS
 10
98.8384128464
 20
-51.9
 11
100.7384128464
 21
-51.9
  0
LINE
  5
2D1
100
AcDbEntity
  8
DRAFT
100
AcDbLine
 62
7
  6
CONTINUOUS
 10
2.6884128464
 20
-51.4
 11
-2.6115871536
 21
-51.4
  0
LINE
  5
2D2
100
AcDbEntity
  8
RACCORDO
100
AcDbLine
 62
7
  6
CONTINUOUS
 10
-4.9615871536
 20
-49.4
 11
-103.461644269
 21
-49.4
  0
LINE
  5
2D3
100
AcDbEntity
  8
RACCORDO
100
AcDbLine
 62
7
  6
CONTINUOUS
 10
5.0384128464
 20
-49.4
 11
103.5384699618
 21
-49.4
  0
LINE
  5
2D4
100
AcDbEntity
  8
RACCORDO
100
AcDbLine
 62
7
  6
CONTINUOUS
 10
7.2884128464
 20
-49.276973193
 11
5.0384128464
 21
-49.276973193
  0
LINE
  5
2D5
100
AcDbEntity
  8
RACCORDO
100
AcDbLine
 62
7
  6
CONTINUOUS
 10
-4.9615871536
 20
-49.276973193
 11
-7.2115871536
 21
-49.276973193
  0
LINE
  5
2D6
100
AcDbEntity
  8
RACCORDO
100
AcDbLine
 62
250
  6
CONTINUOUS
 10
50.5384128464
 20
-49.0483548705
 11
64.5384128464
 21
-49.0483548705
  0
LINE
  5
2D7
100
AcDbEntity
  8
RACCORDO
100
AcDbLine
 62
250
  6
CONTINUOUS
 10
-102.4714772921
 20
-48.9086717926
 11
-7.2115871536
 21
-48.9086717926
  0
LINE
  5
2D8
100
AcDbEntity
  8
RACCORDO
100
AcDbLine
 62
250
  6
CONTINUOUS
 10
102.548302985
 20
-48.9086717926
 11
64.5384128464
 21
-48.9086717926
  0
LINE
  5
2D9
100
AcDbEntity
  8
RACCORDO
100
AcDbLine
 62
250
  6
CONTINUOUS
 10
7.2884128464
 20
-48.9086717926
 11
50.5384128464
 21
-48.9086717926
  0
LINE
  5
2DA
100
AcDbEntity
  8
RACCORDO
100
AcDbLine
 62
7
  6
CONTINUOUS
 10
74.0384128464
 20
-47.05
 11
83.0384128464
 21
-47.05
  0
LINE
  5
2DB
100
AcDbEntity
  8
RACCORDO
100
AcDbLine
 62
250
  6
CONTINUOUS
 10
52.5371945005
 20
-47.0495732165
 11
62.5396311924
 21
-47.0495732165
  0
LINE
  5
2DC
100
AcDbEntity
  8
DRAFT
100
AcDbLine
 62
7
  6
CONTINUOUS
 10
5.2884128464
 20
-46.9537025486
 11
5.0384128464
 21
-46.9537025486
  0
LINE
  5
2DD
100
AcDbEntity
  8
DRAFT
100
AcDbLine
 62
7
  6
CONTINUOUS
 10
-4.9615871536
 20
-46.9537025486
 11
-5.2115871536
 21
-46.9537025486
  0
LINE
  5
2DE
100
AcDbEntity
  8
RACCORDO
100
AcDbLine
 62
250
  6
CONTINUOUS
 10
5.2884128464
 20
-46.9098901385
 11
52.5384128464
 21
-46.9098901385
  0
LINE
  5
2DF
100
AcDbEntity
  8
RACCORDO
100
AcDbLine
 62
250
  6
CONTINUOUS
 10
62.5384128464
 20
-46.9098901385
 11
73.6913118695
 21
-46.9098901385
  0
LINE
  5
2E0
100
AcDbEntity
  8
RACCORDO
100
AcDbLine
 62
250
  6
CONTINUOUS
 10
83.3855138234
 20
-46.9098901385
 11
104.547084639
 21
-46.9098901385
  0
LINE
  5
2E1
100
AcDbEntity
  8
RACCORDO
100
AcDbLine
 62
250
  6
CONTINUOUS
 10
-5.2115871536
 20
-46.9098901385
 11
-104.4702589461
 21
-46.9098901384
  0
LINE
  5
2E2
100
AcDbEntity
  8
RACCORDO
100
AcDbLine
 62
7
  6
CONTINUOUS
 10
5.5563620389
 20
-46.8
 11
-5.479536346
 21
-46.8
  0
LINE
  5
2E3
100
AcDbEntity
  8
RACCORDO
100
AcDbLine
 62
250
  6
CONTINUOUS
 10
73.5384128464
 20
-46.55
 11
83.5384128464
 21
-46.55
  0
LINE
  5
2E4
100
AcDbEntity
  8
ASSI
100
AcDbLine
 62
7
  6
CONTINUOUS
 10
-56.5465306879
 20
3.7531942447
 11
-55.8148102724
 21
1.85
  0
LINE
  5
2E5
100
AcDbEntity
  8
ASSI
100
AcDbLine
 62
7
  6
CONTINUOUS
 10
-55.7825495479
 20
2.3740994012
 11
-56.2767313838
 21
3.7531942447
  0
LINE
  5
2E6
100
AcDbEntity
  8
DRAFT
100
AcDbLine
 62
7
  6
CONTINUOUS
 10
-47.4615871536
 20
25.75
 11
-47.4572127204
 21
25.7
  0
LINE
  5
2E7
100
AcDbEntity
  8
DRAFT
100
AcDbLine
 62
7
  6
CONTINUOUS
 10
-42.4615871536
 20
25.75
 11
-42.4572127204
 21
25.7
  0
LINE
  5
2E8
100
AcDbEntity
  8
ASSI
100
AcDbLine
 62
7
  6
CONTINUOUS
 10
-44.0732191963
 20
3.2860466545
 11
-44.0732191963
 21
3.0596819505
  0
LINE
  5
2E9
100
AcDbEntity
  8
0
100
AcDbLine
 62
7
  6
CONTINUOUS
 10
-43.9615871536
 20
-32.2
 11
-43.9615871536
 21
-20.0
  0
LINE
  5
2EA
100
AcDbEntity
  8
0
100
AcDbLine
 62
7
  6
CONTINUOUS
 10
-43.9615871536
 20
25.7
 11
-43.9615871536
 21
37.9
  0
LINE
  5
2EB
100
AcDbEntity
  8
ASSI
100
AcDbLine
 62
7
  6
CONTINUOUS
 10
-43.6003042628
 20
3.3419169126
 11
-43.6003042628
 21
1.85
  0
LINE
  5
2EC
100
AcDbEntity
  8
ASSI
100
AcDbLine
 62
7
  6
CONTINUOUS
 10
-43.3696140513
 20
1.85
 11
-43.3696140513
 21
3.7647287553
  0
LINE
  5
2ED
100
AcDbEntity
  8
ASSI
100
AcDbLine
 62
7
  6
CONTINUOUS
 10
-42.8505610754
 20
2.5190016133
 11
-42.8505610754
 21
2.2998459124
  0
LINE
  5
2EE
100
AcDbEntity
  8
DRAFT
100
AcDbLine
 62
7
  6
CONTINUOUS
 10
-42.3481292315
 20
-32.2
 11
-42.3481292315
 21
-25.4
  0
LINE
  5
2EF
100
AcDbEntity
  8
ASSI
100
AcDbLine
 62
7
  6
CONTINUOUS
 10
-42.0085418035
 20
3.3682300643
 11
-42.0085418035
 21
2.5190016133
  0
LINE
  5
2F0
100
AcDbEntity
  8
ASSI
100
AcDbLine
 62
7
  6
CONTINUOUS
 10
-42.0085418035
 20
2.2998459124
 11
-42.0085418035
 21
1.85
  0
LINE
  5
2F1
100
AcDbEntity
  8
0
100
AcDbLine
 62
7
  6
CONTINUOUS
 10
-41.9615871536
 20
37.9
 11
-41.9615871536
 21
25.7
  0
LINE
  5
2F2
100
AcDbEntity
  8
0
100
AcDbLine
 62
7
  6
CONTINUOUS
 10
-41.9615871536
 20
-20.0
 11
-41.9615871536
 21
-32.2
  0
LINE
  5
2F3
100
AcDbEntity
  8
ASSI
100
AcDbLine
 62
7
  6
CONTINUOUS
 10
-41.777851592
 20
1.85
 11
-41.777851592
 21
2.2998459124
  0
LINE
  5
2F4
100
AcDbEntity
  8
ASSI
100
AcDbLine
 62
7
  6
CONTINUOUS
 10
-41.777851592
 20
2.5190016133
 11
-41.777851592
 21
3.7531942447
  0
LINE
  5
2F5
100
AcDbEntity
  8
ASSI
100
AcDbLine
 62
7
  6
CONTINUOUS
 10
-41.5240923594
 20
2.2998459124
 11
-41.5240923594
 21
2.5190016133
  0
LINE
  5
2F6
100
AcDbEntity
  8
0
100
AcDbLine
 62
7
  6
CONTINUOUS
 10
-38.9615871536
 20
-32.2
 11
-38.9615871536
 21
-20.0
  0
LINE
  5
2F7
100
AcDbEntity
  8
0
100
AcDbLine
 62
7
  6
CONTINUOUS
 10
-38.9615871536
 20
25.7
 11
-38.9615871536
 21
37.9
  0
LINE
  5
2F8
100
AcDbEntity
  8
DRAFT
100
AcDbLine
 62
7
  6
CONTINUOUS
 10
-47.4572127204
 20
-20.0
 11
-47.4615871536
 21
-20.05
  0
LINE
  5
2F9
100
AcDbEntity
  8
DRAFT
100
AcDbLine
 62
7
  6
CONTINUOUS
 10
-42.4572127204
 20
-20.0
 11
-42.4615871536
 21
-20.05
  0
LINE
  5
2FA
100
AcDbEntity
  8
ASSI
100
AcDbLine
 62
7
  6
CONTINUOUS
 10
-40.0647964543
 20
2.9573130151
 11
-40.091470065
 21
2.7496918248
  0
LINE
  5
2FB
100
AcDbEntity
  8
ASSI
100
AcDbLine
 62
7
  6
CONTINUOUS
 10
-46.599277012
 20
1.85
 11
-46.3986845953
 21
2.4267255287
  0
LINE
  5
2FC
100
AcDbEntity
  8
ASSI
100
AcDbLine
 62
7
  6
CONTINUOUS
 10
-46.3264136308
 20
2.634346719
 11
-46.1207749647
 21
3.1899857509
  0
LINE
  5
2FD
100
AcDbEntity
  8
ASSI
100
AcDbLine
 62
7
  6
CONTINUOUS
 10
-46.1436637564
 20
3.7531942447
 11
-46.8670937919
 21
1.85
  0
LINE
  5
2FE
100
AcDbEntity
  8
ASSI
100
AcDbLine
 62
7
  6
CONTINUOUS
 10
-47.461301404
 20
3.3060517745
 11
-48.4332641933
 21
2.0783474043
  0
LINE
  5
2FF
100
AcDbEntity
  8
RACCORDO
100
AcDbLine
 62
250
  6
CONTINUOUS
 10
-104.9615871536
 20
-47.401218346
 11
-104.4702589461
 21
-46.9098901385
  0
LINE
  5
300
100
AcDbEntity
  8
RACCORDO
100
AcDbLine
 62
250
  6
CONTINUOUS
 10
104.547084639
 20
-17.1849836279
 11
104.7566092559
 21
-17.1326224212
  0
LINE
  5
301
100
AcDbEntity
  8
RACCORDO
100
AcDbLine
 62
250
  6
CONTINUOUS
 10
102.548302985
 20
-15.1850597818
 11
102.6885955376
 21
-15.15
  0
LINE
  5
302
100
AcDbEntity
  8
RACCORDO
100
AcDbLine
 62
250
  6
CONTINUOUS
 10
83.5384128464
 20
-46.15
 11
73.5384128464
 21
-46.15
  0
LINE
  5
303
100
AcDbEntity
  8
RACCORDO
100
AcDbLine
 62
250
  6
CONTINUOUS
 10
7.2884128464
 20
-45.8
 11
-7.2115871536
 21
-45.8
  0
LINE
  5
304
100
AcDbEntity
  8
RACCORDO
100
AcDbLine
 62
7
  6
CONTINUOUS
 10
83.0384128464
 20
-45.65
 11
74.0384128464
 21
-45.65
  0
LINE
  5
305
100
AcDbEntity
  8
RACCORDO
100
AcDbLine
 62
7
  6
CONTINUOUS
 10
-98.8615871536
 20
-43.15
 11
-98.4615871536
 21
-43.15
  0
LINE
  5
306
100
AcDbEntity
  8
DRAFT
100
AcDbLine
 62
7
  6
CONTINUOUS
 10
80.9384128464
 20
-42.9027201863
 11
76.1384128464
 21
-42.9027201863
  0
LINE
  5
307
100
AcDbEntity
  8
DRAFT
100
AcDbLine
 62
7
  6
CONTINUOUS
 10
80.9384128464
 20
-42.75
 11
76.1384128464
 21
-42.75
  0
LINE
  5
308
100
AcDbEntity
  8
RACCORDO
100
AcDbLine
 62
250
  6
CONTINUOUS
 10
-104.4702589461
 20
-17.1849836279
 11
-104.6797835631
 21
-17.1326224212
  0
LINE
  5
309
100
AcDbEntity
  8
RACCORDO
100
AcDbLine
 62
250
  6
CONTINUOUS
 10
-102.4714772921
 20
-15.1850597818
 11
-102.6117698447
 21
-15.15
  0
LINE
  5
30A
100
AcDbEntity
  8
ASSI
100
AcDbLine
 62
7
  6
CONTINUOUS
 10
-49.9212160574
 20
3.3096563641
 11
-48.9683572407
 21
1.85
  0
LINE
  5
30B
100
AcDbEntity
  8
ASSI
100
AcDbLine
 62
7
  6
CONTINUOUS
 10
-48.9523171692
 20
2.2935380567
 11
-49.9051758099
 21
3.7531942447
  0
LINE
  5
30C
100
AcDbEntity
  8
ASSI
100
AcDbLine
 62
7
  6
CONTINUOUS
 10
-45.106819411
 20
1.85
 11
-45.8691784858
 21
3.7531942447
  0
LINE
  5
30D
100
AcDbEntity
  8
ASSI
100
AcDbLine
 62
7
  6
CONTINUOUS
 10
-45.8704400921
 20
3.1573647434
 11
-45.665522168
 21
2.634346719
  0
LINE
  5
30E
100
AcDbEntity
  8
ASSI
100
AcDbLine
 62
7
  6
CONTINUOUS
 10
-45.5889258719
 20
2.4267255287
 11
-45.3766188912
 21
1.85
  0
LINE
  5
30F
100
AcDbEntity
  8
0
100
AcDbLine
 62
7
  6
CONTINUOUS
 10
-36.9615871536
 20
37.9
 11
-36.9615871536
 21
25.7
  0
LINE
  5
310
100
AcDbEntity
  8
0
100
AcDbLine
 62
7
  6
CONTINUOUS
 10
-36.9615871536
 20
-20.0
 11
-36.9615871536
 21
-32.2
  0
LINE
  5
311
100
AcDbEntity
  8
0
100
AcDbLine
 62
7
  6
CONTINUOUS
 10
-33.9615871536
 20
-32.2
 11
-33.9615871536
 21
-20.0
  0
LINE
  5
312
100
AcDbEntity
  8
0
100
AcDbLine
 62
7
  6
CONTINUOUS
 10
-33.9615871536
 20
25.7
 11
-33.9615871536
 21
37.9
  0
LINE
  5
313
100
AcDbEntity
  8
ASSI
100
AcDbLine
 62
7
  6
CONTINUOUS
 10
-32.3656909635
 20
3.7531942447
 11
-32.3656909635
 21
1.85
  0
LINE
  5
314
100
AcDbEntity
  8
ASSI
100
AcDbLine
 62
7
  6
CONTINUOUS
 10
-32.1119317309
 20
1.85
 11
-32.1119317309
 21
3.4648314804
  0
LINE
  5
315
100
AcDbEntity
  8
0
100
AcDbLine
 62
7
  6
CONTINUOUS
 10
-31.9615871536
 20
37.9
 11
-31.9615871536
 21
25.7
  0
LINE
  5
316
100
AcDbEntity
  8
0
100
AcDbLine
 62
7
  6
CONTINUOUS
 10
-31.9615871536
 20
-20.0
 11
-31.9615871536
 21
-32.2
  0
LINE
  5
317
100
AcDbEntity
  8
ASSI
100
AcDbLine
 62
7
  6
CONTINUOUS
 10
-30.7854630148
 20
3.4417624592
 11
-30.7854630148
 21
1.85
  0
LINE
  5
318
100
AcDbEntity
  8
ASSI
100
AcDbLine
 62
7
  6
CONTINUOUS
 10
-34.1591270403
 20
2.9573130151
 11
-34.185800651
 21
2.7496918248
  0
LINE
  5
319
100
AcDbEntity
  8
ASSI
100
AcDbLine
 62
7
  6
CONTINUOUS
 10
-41.9624037612
 20
3.7531942447
 11
-42.8505610754
 21
2.5190016133
  0
LINE
  5
31A
100
AcDbEntity
  8
ASSI
100
AcDbLine
 62
7
  6
CONTINUOUS
 10
-42.619510405
 20
2.5190016133
 11
-42.0085418035
 21
3.3682300643
  0
LINE
  5
31B
100
AcDbEntity
  8
RACCORDO
100
AcDbLine
 62
250
  6
CONTINUOUS
 10
-102.9628054995
 20
-49.4
 11
-102.4714772921
 21
-48.9086717926
  0
LWPOLYLINE
  5
31C
100
AcDbEntity
  8
0
100
AcDbPolyline
 62
7
  6
CONTINUOUS
 90
14
 70
0
 10
3.2464391471
 20
-33.0125505274
 10
3.2466448742
 20
-33.0125049725
 10
3.2462696074
 20
-33.0125820678
 10
3.2450689143
 20
-33.0128148412
 10
3.2432148321
 20
-33.0131532536
 10
3.2407183277
 20
-33.0135837163
 10
3.2375446214
 20
-33.0141016859
 10
3.2338037655
 20
-33.0146808435
 10
3.2295039968
 20
-33.0153139314
 10
3.2246219167
 20
-33.0159989049
 10
3.219224713
 20
-33.0167218587
 10
3.2133216116
 20
-33.0174782459
 10
3.2068919859
 20
-33.0182676439
 10
3.1999574719
 20
-33.0190846493
  0
LWPOLYLINE
  5
31D
100
AcDbEntity
  8
0
100
AcDbPolyline
 62
7
  6
CONTINUOUS
 90
13
 70
0
 10
-3.1697821257
 20
-33.273201416
 10
-3.1696963899
 20
-33.2731836308
 10
-3.1688638102
 20
-33.2730178939
 10
-3.167141115
 20
-33.2726959343
 10
-3.1647413709
 20
-33.2722742712
 10
-3.1616923668
 20
-33.2717685354
 10
-3.1579523746
 20
-33.271181471
 10
-3.1536333863
 20
-33.2705383457
 10
-3.1487464105
 20
-33.2698462001
 10
-3.1432685536
 20
-33.2691067302
 10
-3.1372611918
 20
-33.2683322791
 10
-3.1307273723
 20
-33.2675263081
 10
-3.123652987
 20
-33.2666899175
  0
LINE
  5
31E
100
AcDbEntity
  8
0
100
AcDbLine
 62
7
  6
CONTINUOUS
 10
3.1999574719
 20
-33.0190846493
 11
3.1845527746
 21
-33.0207947272
  0
LINE
  5
31F
100
AcDbEntity
  8
0
100
AcDbLine
 62
7
  6
CONTINUOUS
 10
-3.123652987
 20
-33.2666899175
 11
-3.1079885142
 21
-33.2649475279
  0
LWPOLYLINE
  5
320
100
AcDbEntity
  8
0
100
AcDbPolyline
 62
7
  6
CONTINUOUS
 90
36
 70
0
 10
-3.1676209134
 20
-32.6682894706
 10
-3.1792696217
 20
-32.6695545365
 10
-3.1905303671
 20
-32.6708315714
 10
-3.2014045473
 20
-32.6721215736
 10
-3.2119098224
 20
-32.6734275966
 10
-3.2221143646
 20
-32.6747598159
 10
-3.2320128271
 20
-32.6761198788
 10
-3.2416302313
 20
-32.6775138672
 10
-3.2510816708
 20
-32.6789629163
 10
-3.2603482168
 20
-32.6804701699
 10
-3.2694678811
 20
-32.6820486445
 10
-3.2786429563
 20
-32.6837448798
 10
-3.2878506397
 20
-32.6855709045
 10
-3.2971292418
 20
-32.6875529097
 10
-3.3067808825
 20
-32.6897850076
 10
-3.3167702106
 20
-32.692300511
 10
-3.3271498032
 20
-32.6951609862
 10
-3.3383633145
 20
-32.6985643547
 10
-3.3503974784
 20
-32.7026154268
 10
-3.3632455641
 20
-32.7074403828
 10
-3.3773378349
 20
-32.7133834922
 10
-3.3928215632
 20
-32.7207779897
 10
-3.4093361228
 20
-32.7297751145
 10
-3.4265006214
 20
-32.7405017925
 10
-3.4441862398
 20
-32.7532568088
 10
-3.4620361234
 20
-32.7682356514
 10
-3.4793373544
 20
-32.7852871723
 10
-3.4957679046
 20
-32.8044564804
 10
-3.5111177931
 20
-32.8258267567
 10
-3.5249392435
 20
-32.8491043302
 10
-3.5369392821
 20
-32.874098045
 10
-3.5469054697
 20
-32.9007718257
 10
-3.5545436783
 20
-32.9289574006
 10
-3.5595405029
 20
-32.9584508656
 10
-3.5615613777
 20
-32.9890135911
 10
-3.561587141
 20
-32.9928651259
  0
LINE
  5
321
100
AcDbEntity
  8
0
100
AcDbLine
 62
7
  6
CONTINUOUS
 10
3.1845527746
 20
-33.0207947272
 11
3.1670649425
 21
-33.0225964511
  0
LINE
  5
322
100
AcDbEntity
  8
0
100
AcDbLine
 62
7
  6
CONTINUOUS
 10
-3.1079885142
 20
-33.2649475279
 11
-3.0902933741
 21
-33.2631232171
  0
LINE
  5
323
100
AcDbEntity
  8
0
100
AcDbLine
 62
7
  6
CONTINUOUS
 10
-3.1430192586
 20
-32.6657781266
 11
-3.1676209134
 21
-32.6682894706
  0
LINE
  5
324
100
AcDbEntity
  8
0
100
AcDbLine
 62
7
  6
CONTINUOUS
 10
3.1670649425
 20
-33.0225964511
 11
3.1474265011
 21
-33.0244821448
  0
LINE
  5
325
100
AcDbEntity
  8
0
100
AcDbLine
 62
7
  6
CONTINUOUS
 10
-3.0902933741
 20
-33.2631232171
 11
-3.0706078891
 21
-33.2612327978
  0
LINE
  5
326
100
AcDbEntity
  8
0
100
AcDbLine
 62
7
  6
CONTINUOUS
 10
-3.1166029476
 20
-32.6632828769
 11
-3.1430192586
 21
-32.6657781266
  0
LINE
  5
327
100
AcDbEntity
  8
0
100
AcDbLine
 62
7
  6
CONTINUOUS
 10
3.1474265011
 20
-33.0244821448
 11
3.1255463523
 21
-33.0264473266
  0
LINE
  5
328
100
AcDbEntity
  8
0
100
AcDbLine
 62
7
  6
CONTINUOUS
 10
-3.0706078891
 20
-33.2612327978
 11
-3.0489446739
 21
-33.259286452
  0
LINE
  5
329
100
AcDbEntity
  8
0
100
AcDbLine
 62
7
  6
CONTINUOUS
 10
-3.0882495659
 20
-32.6607918391
 11
-3.1166029476
 21
-32.6632828769
  0
LINE
  5
32A
100
AcDbEntity
  8
0
100
AcDbLine
 62
7
  6
CONTINUOUS
 10
-3.0489446739
 20
-33.259286452
 11
-3.0252982488
 21
-33.2572909445
  0
LINE
  5
32B
100
AcDbEntity
  8
0
100
AcDbLine
 62
7
  6
CONTINUOUS
 10
3.1255463523
 20
-33.0264473266
 11
3.1013002941
 21
-33.0284907354
  0
LINE
  5
32C
100
AcDbEntity
  8
0
100
AcDbLine
 62
7
  6
CONTINUOUS
 10
-3.0578736249
 20
-32.6582982651
 11
-3.0882495659
 21
-32.6607918391
  0
LINE
  5
32D
100
AcDbEntity
  8
0
100
AcDbLine
 62
7
  6
CONTINUOUS
 10
-3.0252982488
 20
-33.2572909445
 11
-2.9996737607
 21
-33.2552526476
  0
LINE
  5
32E
100
AcDbEntity
  8
0
100
AcDbLine
 62
7
  6
CONTINUOUS
 10
3.1013002941
 20
-33.0284907354
 11
3.0745853104
 21
-33.03060936
  0
LINE
  5
32F
100
AcDbEntity
  8
0
100
AcDbLine
 62
7
  6
CONTINUOUS
 10
-3.0254065361
 20
-32.6557976944
 11
-3.0578736249
 21
-32.6582982651
  0
LINE
  5
330
100
AcDbEntity
  8
0
100
AcDbLine
 62
7
  6
CONTINUOUS
 10
-2.9996737607
 20
-33.2552526476
 11
-2.957513211
 21
-33.2521242261
  0
LINE
  5
331
100
AcDbEntity
  8
0
100
AcDbLine
 62
7
  6
CONTINUOUS
 10
3.0745853104
 20
-33.03060936
 11
3.0297345138
 21
-33.033917237
  0
LINE
  5
332
100
AcDbEntity
  8
0
100
AcDbLine
 62
7
  6
CONTINUOUS
 10
-2.9726607192
 20
-32.6520270901
 11
-3.0254065361
 21
-32.6557976944
  0
LINE
  5
333
100
AcDbEntity
  8
0
100
AcDbLine
 62
7
  6
CONTINUOUS
 10
-2.957513211
 20
-33.2521242261
 11
-2.9108581147
 21
-33.2489202399
  0
LINE
  5
334
100
AcDbEntity
  8
0
100
AcDbLine
 62
7
  6
CONTINUOUS
 10
3.0297345138
 20
-33.033917237
 11
2.9790392891
 21
-33.0373628782
  0
LINE
  5
335
100
AcDbEntity
  8
0
100
AcDbLine
 62
7
  6
CONTINUOUS
 10
-2.9149328491
 20
-32.6482274963
 11
-2.9726607192
 21
-32.6520270901
  0
LINE
  5
336
100
AcDbEntity
  8
0
100
AcDbLine
 62
7
  6
CONTINUOUS
 10
2.9790392891
 20
-33.0373628782
 11
2.9224095293
 21
-33.0409287684
  0
LINE
  5
337
100
AcDbEntity
  8
0
100
AcDbLine
 62
7
  6
CONTINUOUS
 10
-2.9108581147
 20
-33.2489202399
 11
-2.8416133046
 21
-33.2445449378
  0
LINE
  5
338
100
AcDbEntity
  8
0
100
AcDbLine
 62
7
  6
CONTINUOUS
 10
-2.8298471297
 20
-32.6430999627
 11
-2.9149328491
 21
-32.6482274963
  0
LINE
  5
339
100
AcDbEntity
  8
0
100
AcDbLine
 62
7
  6
CONTINUOUS
 10
2.9224095293
 20
-33.0409287684
 11
2.8375428071
 21
-33.0458472567
  0
LINE
  5
33A
100
AcDbEntity
  8
0
100
AcDbLine
 62
7
  6
CONTINUOUS
 10
-2.8416133046
 20
-33.2445449378
 11
-2.7642410973
 21
-33.2400627586
  0
LINE
  5
33B
100
AcDbEntity
  8
0
100
AcDbLine
 62
7
  6
CONTINUOUS
 10
-2.7351513265
 20
-32.6378917214
 11
-2.8298471297
 21
-32.6430999627
  0
LINE
  5
33C
100
AcDbEntity
  8
0
100
AcDbLine
 62
7
  6
CONTINUOUS
 10
-2.7642410973
 20
-33.2400627586
 11
-2.655944373
 21
-33.2343211563
  0
LINE
  5
33D
100
AcDbEntity
  8
0
100
AcDbLine
 62
7
  6
CONTINUOUS
 10
2.8375428071
 20
-33.0458472567
 11
2.7158982472
 21
-33.052242474
  0
LINE
  5
33E
100
AcDbEntity
  8
0
100
AcDbLine
 62
7
  6
CONTINUOUS
 10
-2.6028500003
 20
-32.6312582134
 11
-2.7351513265
 21
-32.6378917214
  0
LWPOLYLINE
  5
33F
100
AcDbEntity
  8
0
100
AcDbPolyline
 62
7
  6
CONTINUOUS
 90
30
 70
0
 10
1.6075881437
 20
-33.0950226095
 10
1.7594299374
 20
-33.0879797524
 10
1.9047734759
 20
-33.0796063616
 10
2.0435388044
 20
-33.0699518956
 10
2.1755718184
 20
-33.0590705515
 10
2.3006877072
 20
-33.0470240788
 10
2.418876717
 20
-33.0338629387
 10
2.53021115
 20
-33.0196286259
 10
2.634764886
 20
-33.0043614593
 10
2.7326691883
 20
-32.9880928102
 10
2.8240986565
 20
-32.9708442294
 10
2.9093364034
 20
-32.9526094326
 10
2.9885888691
 20
-32.9333877539
 10
3.06215626
 20
-32.9131463414
 10
3.1305995464
 20
-32.8917482008
 10
3.1942809275
 20
-32.8690636478
 10
3.2533955925
 20
-32.8449872299
 10
3.3083573366
 20
-32.8192818714
 10
3.3595016089
 20
-32.7916586748
 10
3.4068861172
 20
-32.7618968648
 10
3.4505036339
 20
-32.7297613209
 10
3.4902836844
 20
-32.6949877235
 10
3.5261080867
 20
-32.6572412302
 10
3.5577893324
 20
-32.6162666505
 10
3.5853654944
 20
-32.5713217614
 10
3.6078623452
 20
-32.5230600016
 10
3.6240970513
 20
-32.473923797
 10
3.6340820733
 20
-32.4252433914
 10
3.6382550198
 20
-32.3768097656
 10
3.6384011919
 20
-32.3655250532
  0
LINE
  5
340
100
AcDbEntity
  8
0
100
AcDbLine
 62
7
  6
CONTINUOUS
 10
-2.655944373
 20
-33.2343211563
 11
-2.5088011295
 21
-33.2272403022
  0
LINE
  5
341
100
AcDbEntity
  8
0
100
AcDbLine
 62
7
  6
CONTINUOUS
 10
2.7158982472
 20
-33.052242474
 11
2.5461647587
 21
-33.0602632415
  0
LINE
  5
342
100
AcDbEntity
  8
0
100
AcDbLine
 62
7
  6
CONTINUOUS
 10
-2.4231831887
 20
-32.6231084933
 11
-2.6028500003
 21
-32.6312582134
  0
LINE
  5
343
100
AcDbEntity
  8
0
100
AcDbLine
 62
7
  6
CONTINUOUS
 10
-2.5088011295
 20
-33.2272403022
 11
-2.2832248433
 21
-33.2174925283
  0
LINE
  5
344
100
AcDbEntity
  8
0
100
AcDbLine
 62
7
  6
CONTINUOUS
 10
2.5461647587
 20
-33.0602632415
 11
2.3141636862
 21
-33.0700813959
  0
LINE
  5
345
100
AcDbEntity
  8
0
100
AcDbLine
 62
7
  6
CONTINUOUS
 10
-2.1477233545
 20
-32.6119114844
 11
-2.4231831887
 21
-32.6231084933
  0
LINE
  5
346
100
AcDbEntity
  8
0
100
AcDbLine
 62
7
  6
CONTINUOUS
 10
-2.2832248433
 20
-33.2174925283
 11
-1.9895161848
 21
-33.2061253425
  0
LINE
  5
347
100
AcDbEntity
  8
0
100
AcDbLine
 62
7
  6
CONTINUOUS
 10
2.3141636862
 20
-33.0700813959
 11
2.00317697
 21
-33.081891525
  0
LINE
  5
348
100
AcDbEntity
  8
0
100
AcDbLine
 62
7
  6
CONTINUOUS
 10
-1.7027130561
 20
-32.5958853415
 11
-2.1477233545
 21
-32.6119114844
  0
LINE
  5
349
100
AcDbEntity
  8
0
100
AcDbLine
 62
7
  6
CONTINUOUS
 10
-1.9895161848
 20
-33.2061253425
 11
-1.6150261461
 21
-33.1930121209
  0
LWPOLYLINE
  5
34A
100
AcDbEntity
  8
0
100
AcDbPolyline
 62
7
  6
CONTINUOUS
 90
3
 70
0
 10
2.00317697
 20
-33.081891525
 10
1.643500398
 20
-33.0943141518
 10
1.4849866211
 20
-33.0994965641
  0
LINE
  5
34B
100
AcDbEntity
  8
0
100
AcDbLine
 62
7
  6
CONTINUOUS
 10
1.577829116
 20
-32.4961178995
 11
1.3205165633
 21
-32.5047322598
  0
LINE
  5
34C
100
AcDbEntity
  8
0
100
AcDbLine
 62
7
  6
CONTINUOUS
 10
-1.6150261461
 20
-33.1930121209
 11
-1.1036452109
 21
-33.1766193991
  0
LINE
  5
34D
100
AcDbEntity
  8
0
100
AcDbLine
 62
7
  6
CONTINUOUS
 10
1.3205165633
 20
-32.5047322598
 11
0.5523465644
 21
-32.5279215645
  0
LWPOLYLINE
  5
34E
100
AcDbEntity
  8
0
100
AcDbPolyline
 62
7
  6
CONTINUOUS
 90
3
 70
0
 10
-1.1036452109
 20
-33.1766193991
 10
-0.2835907332
 20
-33.1521910328
 10
1.4719470444
 20
-33.0999724235
  0
LINE
  5
34F
100
AcDbEntity
  8
0
100
AcDbLine
 62
7
  6
CONTINUOUS
 10
0.5523465644
 20
-32.5279215645
 11
-1.7027130561
 21
-32.5958853415
  0
LINE
  5
350
100
AcDbEntity
  8
RACCORDO
100
AcDbLine
 62
7
  6
CONTINUOUS
 10
65.0384128464
 20
-37.8973819397
 11
70.6384128464
 21
-37.8973819397
  0
LINE
  5
351
100
AcDbEntity
  8
RACCORDO
100
AcDbLine
 62
7
  6
CONTINUOUS
 10
72.0384128464
 20
-37.8973819397
 11
84.0384128464
 21
-37.8973819397
  0
LINE
  5
352
100
AcDbEntity
  8
0
100
AcDbLine
 62
7
  6
CONTINUOUS
 10
5.1384128464
 20
-37.6
 11
-5.0615871536
 21
-37.6
  0
LINE
  5
353
100
AcDbEntity
  8
DRAFT
100
AcDbLine
 62
7
  6
CONTINUOUS
 10
76.1384128464
 20
-37.3972798137
 11
80.9384128464
 21
-37.3972798137
  0
LINE
  5
354
100
AcDbEntity
  8
RACCORDO
100
AcDbLine
 62
7
  6
CONTINUOUS
 10
74.0384128464
 20
-34.65
 11
83.0384128464
 21
-34.65
  0
LINE
  5
355
100
AcDbEntity
  8
RACCORDO
100
AcDbLine
 62
250
  6
CONTINUOUS
 10
73.5384128464
 20
-34.15
 11
83.5384128464
 21
-34.15
  0
LINE
  5
356
100
AcDbEntity
  8
RACCORDO
100
AcDbLine
 62
7
  6
CONTINUOUS
 10
-98.4615871536
 20
-34.15
 11
-98.8615871536
 21
-34.15
  0
LINE
  5
357
100
AcDbEntity
  8
RACCORDO
100
AcDbLine
 62
250
  6
CONTINUOUS
 10
83.5384128464
 20
-33.75
 11
73.5384128464
 21
-33.75
  0
LINE
  5
358
100
AcDbEntity
  8
DRAFT
100
AcDbLine
 62
7
  6
CONTINUOUS
 10
-8.2163175431
 20
-33.4
 11
-5.0615871536
 21
-33.4
  0
LINE
  5
359
100
AcDbEntity
  8
0
100
AcDbLine
 62
7
  6
CONTINUOUS
 10
1.3400640638
 20
-33.4
 11
-3.9615871536
 21
-33.4
  0
LINE
  5
35A
100
AcDbEntity
  8
DRAFT
100
AcDbLine
 62
7
  6
CONTINUOUS
 10
5.1384128464
 20
-33.4
 11
8.293143236
 21
-33.4
  0
LINE
  5
35B
100
AcDbEntity
  8
RACCORDO
100
AcDbLine
 62
7
  6
CONTINUOUS
 10
83.0384128464
 20
-33.25
 11
74.0384128464
 21
-33.25
  0
LINE
  5
35C
100
AcDbEntity
  8
DRAFT
100
AcDbLine
 62
7
  6
CONTINUOUS
 10
-8.1115871536
 20
-32.4
 11
-7.9615871536
 21
-32.4
  0
LINE
  5
35D
100
AcDbEntity
  8
DRAFT
100
AcDbLine
 62
7
  6
CONTINUOUS
 10
-3.9615871536
 20
-32.4
 11
-3.567138429
 21
-32.4
  0
LINE
  5
35E
100
AcDbEntity
  8
ASSI
100
AcDbLine
 62
7
  6
CONTINUOUS
 10
-3.567138429
 20
-32.4
 11
2.6322344303
 21
-32.4
  0
LINE
  5
35F
100
AcDbEntity
  8
DRAFT
100
AcDbLine
 62
7
  6
CONTINUOUS
 10
3.6439641219
 20
-32.4
 11
4.0384128464
 21
-32.4
  0
LINE
  5
360
100
AcDbEntity
  8
ASSI
100
AcDbLine
 62
7
  6
CONTINUOUS
 10
3.6362569945
 20
-32.4
 11
3.6439641219
 21
-32.4
  0
LINE
  5
361
100
AcDbEntity
  8
DRAFT
100
AcDbLine
 62
7
  6
CONTINUOUS
 10
8.0384128464
 20
-32.4
 11
8.1884128464
 21
-32.4
  0
LINE
  5
362
100
AcDbEntity
  8
0
100
AcDbLine
 62
7
  6
CONTINUOUS
 10
88.0384128464
 20
-32.2
 11
86.0384128464
 21
-32.2
  0
LINE
  5
363
100
AcDbEntity
  8
0
100
AcDbLine
 62
7
  6
CONTINUOUS
 10
83.0384128464
 20
-32.2
 11
81.0384128464
 21
-32.2
  0
LINE
  5
364
100
AcDbEntity
  8
0
100
AcDbLine
 62
7
  6
CONTINUOUS
 10
78.0384128464
 20
-32.2
 11
76.0384128464
 21
-32.2
  0
LINE
  5
365
100
AcDbEntity
  8
0
100
AcDbLine
 62
7
  6
CONTINUOUS
 10
73.0384128464
 20
-32.2
 11
71.0384128464
 21
-32.2
  0
LINE
  5
366
100
AcDbEntity
  8
0
100
AcDbLine
 62
7
  6
CONTINUOUS
 10
68.0384128464
 20
-32.2
 11
66.0384128464
 21
-32.2
  0
LINE
  5
367
100
AcDbEntity
  8
0
100
AcDbLine
 62
7
  6
CONTINUOUS
 10
48.0384128464
 20
-32.2
 11
46.0384128464
 21
-32.2
  0
LINE
  5
368
100
AcDbEntity
  8
0
100
AcDbLine
 62
7
  6
CONTINUOUS
 10
43.0384128464
 20
-32.2
 11
41.0384128464
 21
-32.2
  0
LINE
  5
369
100
AcDbEntity
  8
0
100
AcDbLine
 62
7
  6
CONTINUOUS
 10
38.0384128464
 20
-32.2
 11
36.0384128464
 21
-32.2
  0
LINE
  5
36A
100
AcDbEntity
  8
0
100
AcDbLine
 62
7
  6
CONTINUOUS
 10
-11.9615871536
 20
-32.2
 11
-13.9615871536
 21
-32.2
  0
LINE
  5
36B
100
AcDbEntity
  8
0
100
AcDbLine
 62
7
  6
CONTINUOUS
 10
-16.9615871536
 20
-32.2
 11
-18.9615871536
 21
-32.2
  0
LINE
  5
36C
100
AcDbEntity
  8
0
100
AcDbLine
 62
7
  6
CONTINUOUS
 10
-21.9615871536
 20
-32.2
 11
-23.9615871536
 21
-32.2
  0
LINE
  5
36D
100
AcDbEntity
  8
0
100
AcDbLine
 62
7
  6
CONTINUOUS
 10
-26.9615871536
 20
-32.2
 11
-28.9615871536
 21
-32.2
  0
LINE
  5
36E
100
AcDbEntity
  8
0
100
AcDbLine
 62
7
  6
CONTINUOUS
 10
-31.9615871536
 20
-32.2
 11
-33.9615871536
 21
-32.2
  0
LINE
  5
36F
100
AcDbEntity
  8
0
100
AcDbLine
 62
7
  6
CONTINUOUS
 10
-36.9615871536
 20
-32.2
 11
-38.9615871536
 21
-32.2
  0
LINE
  5
370
100
AcDbEntity
  8
0
100
AcDbLine
 62
7
  6
CONTINUOUS
 10
-41.9615871536
 20
-32.2
 11
-43.9615871536
 21
-32.2
  0
LINE
  5
371
100
AcDbEntity
  8
0
100
AcDbLine
 62
7
  6
CONTINUOUS
 10
-46.9615871536
 20
-32.2
 11
-48.9615871536
 21
-32.2
  0
LINE
  5
372
100
AcDbEntity
  8
0
100
AcDbLine
 62
7
  6
CONTINUOUS
 10
-51.9615871536
 20
-32.2
 11
-53.9615871536
 21
-32.2
  0
LINE
  5
373
100
AcDbEntity
  8
0
100
AcDbLine
 62
7
  6
CONTINUOUS
 10
-56.9615871536
 20
-32.2
 11
-58.9615871536
 21
-32.2
  0
LINE
  5
374
100
AcDbEntity
  8
0
100
AcDbLine
 62
7
  6
CONTINUOUS
 10
-61.9615871536
 20
-32.2
 11
-63.9615871536
 21
-32.2
  0
LINE
  5
375
100
AcDbEntity
  8
0
100
AcDbLine
 62
7
  6
CONTINUOUS
 10
-66.9615871536
 20
-32.2
 11
-68.9615871536
 21
-32.2
  0
LINE
  5
376
100
AcDbEntity
  8
0
100
AcDbLine
 62
7
  6
CONTINUOUS
 10
-71.9615871536
 20
-32.2
 11
-73.9615871536
 21
-32.2
  0
LINE
  5
377
100
AcDbEntity
  8
0
100
AcDbLine
 62
7
  6
CONTINUOUS
 10
-76.9615871536
 20
-32.2
 11
-78.9615871536
 21
-32.2
  0
LINE
  5
378
100
AcDbEntity
  8
0
100
AcDbLine
 62
7
  6
CONTINUOUS
 10
-81.9615871536
 20
-32.2
 11
-83.9615871536
 21
-32.2
  0
LINE
  5
379
100
AcDbEntity
  8
DRAFT
100
AcDbLine
 62
7
  6
CONTINUOUS
 10
68.0384128464
 20
-30.9
 11
66.0384128464
 21
-30.9
  0
LINE
  5
37A
100
AcDbEntity
  8
DRAFT
100
AcDbLine
 62
7
  6
CONTINUOUS
 10
48.0384128464
 20
-30.9
 11
46.0384128464
 21
-30.9
  0
LINE
  5
37B
100
AcDbEntity
  8
DRAFT
100
AcDbLine
 62
7
  6
CONTINUOUS
 10
43.0384128464
 20
-30.9
 11
41.0384128464
 21
-30.9
  0
LINE
  5
37C
100
AcDbEntity
  8
0
100
AcDbLine
 62
7
  6
CONTINUOUS
 10
-1.9864884294
 20
-33.3798441553
 11
-1.394208372
 21
-33.4
  0
LINE
  5
37D
100
AcDbEntity
  8
0
100
AcDbLine
 62
7
  6
CONTINUOUS
 10
-2.3008955625
 20
-33.3677366842
 11
-1.9864884294
 21
-33.3798441553
  0
LINE
  5
37E
100
AcDbEntity
  8
0
100
AcDbLine
 62
7
  6
CONTINUOUS
 10
-2.5268944448
 20
-33.3580039579
 11
-2.3008955625
 21
-33.3677366842
  0
LINE
  5
37F
100
AcDbEntity
  8
0
100
AcDbLine
 62
7
  6
CONTINUOUS
 10
-2.6868839004
 20
-33.3503184766
 11
-2.5268944448
 21
-33.3580039579
  0
LINE
  5
380
100
AcDbEntity
  8
0
100
AcDbLine
 62
7
  6
CONTINUOUS
 10
-2.798228902
 20
-33.3444044056
 11
-2.6868839004
 21
-33.3503184766
  0
LINE
  5
381
100
AcDbEntity
  8
0
100
AcDbLine
 62
7
  6
CONTINUOUS
 10
-2.8728973175
 20
-33.3400815852
 11
-2.798228902
 21
-33.3444044056
  0
LINE
  5
382
100
AcDbEntity
  8
0
100
AcDbLine
 62
7
  6
CONTINUOUS
 10
2.9841262878
 20
-32.9477465523
 11
2.9404007093
 21
-32.9450751799
  0
LINE
  5
383
100
AcDbEntity
  8
0
100
AcDbLine
 62
7
  6
CONTINUOUS
 10
-2.9404822926
 20
-33.3358420479
 11
-2.8728973175
 21
-33.3400815852
  0
LINE
  5
384
100
AcDbEntity
  8
0
100
AcDbLine
 62
7
  6
CONTINUOUS
 10
3.0430785379
 20
-32.9515900109
 11
2.9841262878
 21
-32.9477465523
  0
LINE
  5
385
100
AcDbEntity
  8
0
100
AcDbLine
 62
7
  6
CONTINUOUS
 10
-3.0011378379
 20
-33.3316919424
 11
-2.9404822926
 21
-33.3358420479
  0
LINE
  5
386
100
AcDbEntity
  8
0
100
AcDbLine
 62
7
  6
CONTINUOUS
 10
3.0969084795
 20
-32.9554018535
 11
3.0430785379
 21
-32.9515900109
  0
LINE
  5
387
100
AcDbEntity
  8
0
100
AcDbLine
 62
7
  6
CONTINUOUS
 10
-3.0377769615
 20
-33.3289819248
 11
-3.0011378379
 21
-33.3316919424
  0
LINE
  5
388
100
AcDbEntity
  8
0
100
AcDbLine
 62
7
  6
CONTINUOUS
 10
3.1300355188
 20
-32.9579293532
 11
3.0969084795
 21
-32.9554018535
  0
LINE
  5
389
100
AcDbEntity
  8
0
100
AcDbLine
 62
7
  6
CONTINUOUS
 10
-3.0714795473
 20
-33.3263192926
 11
-3.0377769615
 21
-33.3289819248
  0
LINE
  5
38A
100
AcDbEntity
  8
0
100
AcDbLine
 62
7
  6
CONTINUOUS
 10
3.1610167137
 20
-32.9604489646
 11
3.1300355188
 21
-32.9579293532
  0
LINE
  5
38B
100
AcDbEntity
  8
0
100
AcDbLine
 62
7
  6
CONTINUOUS
 10
-3.1023307281
 20
-33.3237071174
 11
-3.0714795473
 21
-33.3263192926
  0
LINE
  5
38C
100
AcDbEntity
  8
0
100
AcDbLine
 62
7
  6
CONTINUOUS
 10
3.1899194467
 20
-32.9629648712
 11
3.1610167137
 21
-32.9604489646
  0
LINE
  5
38D
100
AcDbEntity
  8
0
100
AcDbLine
 62
7
  6
CONTINUOUS
 10
-3.1305961418
 20
-33.3211329383
 11
-3.1023307281
 21
-33.3237071174
  0
LINE
  5
38E
100
AcDbEntity
  8
0
100
AcDbLine
 62
7
  6
CONTINUOUS
 10
3.2168276356
 20
-32.9654834097
 11
3.1899194467
 21
-32.9629648712
  0
LINE
  5
38F
100
AcDbEntity
  8
RACCORDO
100
AcDbLine
 62
250
  6
CONTINUOUS
 10
-104.9615871536
 20
53.101218346
 11
-104.4702589461
 21
52.6098901385
  0
LINE
  5
390
100
AcDbEntity
  8
RACCORDO
100
AcDbLine
 62
250
  6
CONTINUOUS
 10
-102.9628054995
 20
55.1
 11
-102.4714772921
 21
54.6086717926
  0
LINE
  5
391
100
AcDbEntity
  8
ASSI
100
AcDbLine
 62
7
  6
CONTINUOUS
 10
-30.5317037822
 20
1.85
 11
-30.5317037822
 21
3.7531942447
  0
LINE
  5
392
100
AcDbEntity
  8
0
100
AcDbLine
 62
7
  6
CONTINUOUS
 10
-28.9615871536
 20
-32.2
 11
-28.9615871536
 21
-20.0
  0
LINE
  5
393
100
AcDbEntity
  8
0
100
AcDbLine
 62
7
  6
CONTINUOUS
 10
-28.9615871536
 20
25.7
 11
-28.9615871536
 21
37.9
  0
LINE
  5
394
100
AcDbEntity
  8
ASSI
100
AcDbLine
 62
7
  6
CONTINUOUS
 10
-28.3516812837
 20
3.7531942447
 11
-28.3516812837
 21
1.85
  0
LINE
  5
395
100
AcDbEntity
  8
ASSI
100
AcDbLine
 62
7
  6
CONTINUOUS
 10
-28.097922051
 20
1.85
 11
-28.097922051
 21
2.6920192719
  0
LINE
  5
396
100
AcDbEntity
  8
ASSI
100
AcDbLine
 62
7
  6
CONTINUOUS
 10
-28.097922051
 20
2.9111749728
 11
-28.097922051
 21
3.5340385438
  0
LINE
  5
397
100
AcDbEntity
  8
0
100
AcDbLine
 62
7
  6
CONTINUOUS
 10
-26.9615871536
 20
37.9
 11
-26.9615871536
 21
25.7
  0
LINE
  5
398
100
AcDbEntity
  8
0
100
AcDbLine
 62
7
  6
CONTINUOUS
 10
-26.9615871536
 20
-20.0
 11
-26.9615871536
 21
-32.2
  0
LINE
  5
399
100
AcDbEntity
  8
0
100
AcDbLine
 62
7
  6
CONTINUOUS
 10
-23.9615871536
 20
-32.2
 11
-23.9615871536
 21
-20.0
  0
LINE
  5
39A
100
AcDbEntity
  8
0
100
AcDbLine
 62
7
  6
CONTINUOUS
 10
-23.9615871536
 20
25.7
 11
-23.9615871536
 21
37.9
  0
LINE
  5
39B
100
AcDbEntity
  8
ASSI
100
AcDbLine
 62
7
  6
CONTINUOUS
 10
-22.7574436552
 20
3.7531942447
 11
-22.7574436552
 21
3.5340385438
  0
LINE
  5
39C
100
AcDbEntity
  8
ASSI
100
AcDbLine
 62
7
  6
CONTINUOUS
 10
-30.0703233592
 20
1.85
 11
-29.8697309425
 21
2.4267255287
  0
LINE
  5
39D
100
AcDbEntity
  8
ASSI
100
AcDbLine
 62
7
  6
CONTINUOUS
 10
-31.3472296729
 20
1.85
 11
-30.7854630148
 21
3.4417624592
  0
LINE
  5
39E
100
AcDbEntity
  8
ASSI
100
AcDbLine
 62
7
  6
CONTINUOUS
 10
-30.8618790814
 20
3.7531942447
 11
-31.3326312612
 21
2.4319521836
  0
LINE
  5
39F
100
AcDbEntity
  8
ASSI
100
AcDbLine
 62
7
  6
CONTINUOUS
 10
-29.7974599779
 20
2.634346719
 11
-29.5918213119
 21
3.1899857509
  0
LINE
  5
3A0
100
AcDbEntity
  8
ASSI
100
AcDbLine
 62
7
  6
CONTINUOUS
 10
-29.6147101035
 20
3.7531942447
 11
-30.3381401391
 21
1.85
  0
LWPOLYLINE
  5
3A1
100
AcDbEntity
  8
0
100
AcDbPolyline
 62
7
  6
CONTINUOUS
 90
30
 70
0
 10
0.9684852388
 20
-28.7019176788
 10
1.1386550348
 20
-28.6591003259
 10
1.3062373464
 20
-28.6161893225
 10
1.4700199
 20
-28.5733745748
 10
1.6295927921
 20
-28.5306499883
 10
1.7845830111
 20
-28.4880042749
 10
1.9339944633
 20
-28.4456108001
 10
2.0775309536
 20
-28.4034660849
 10
2.2150031001
 20
-28.361543281
 10
2.3457797311
 20
-28.3199655509
 10
2.46967683
 20
-28.2787394271
 10
2.5867420626
 20
-28.2378040105
 10
2.6968851233
 20
-28.1971522754
 10
2.8001280259
 20
-28.1567464548
 10
2.896577982
 20
-28.116519937
 10
2.9864321435
 20
-28.0763649813
 10
3.0697861602
 20
-28.0362128348
 10
3.146866726
 20
-27.9959258665
 10
3.2181709774
 20
-27.955183147
 10
3.2837985671
 20
-27.9138286701
 10
3.3439329224
 20
-27.8716189949
 10
3.3991630241
 20
-27.8278987935
 10
3.4495294323
 20
-27.7822183676
 10
3.494752783
 20
-27.7342837443
 10
3.534836106
 20
-27.6834425939
 10
3.5700494495
 20
-27.6282046274
 10
3.5989465367
 20
-27.5693000246
 10
3.6197745029
 20
-27.509995535
 10
3.6326022373
 20
-27.4519220749
 10
3.6381334303
 20
-27.3945038141
  0
LINE
  5
3A2
100
AcDbEntity
  8
0
100
AcDbLine
 62
7
  6
CONTINUOUS
 10
-0.9172569579
 20
-29.1631460027
 11
-0.5866293459
 21
-29.0805240475
  0
LINE
  5
3A3
100
AcDbEntity
  8
0
100
AcDbLine
 62
7
  6
CONTINUOUS
 10
0.6225240074
 20
-28.787236924
 11
0.9684852388
 21
-28.7019176788
  0
LINE
  5
3A4
100
AcDbEntity
  8
0
100
AcDbLine
 62
7
  6
CONTINUOUS
 10
-0.5866293459
 20
-29.0805240475
 11
-0.2463450242
 21
-28.9973871676
  0
LINE
  5
3A5
100
AcDbEntity
  8
0
100
AcDbLine
 62
7
  6
CONTINUOUS
 10
-0.2463450242
 20
-28.9973871676
 11
0.6225240074
 21
-28.787236924
  0
LINE
  5
3A6
100
AcDbEntity
  8
RACCORDO
100
AcDbLine
 62
7
  6
CONTINUOUS
 10
2.0384889989
 20
-30.1
 11
-1.961663306
 21
-30.1
  0
LINE
  5
3A7
100
AcDbEntity
  8
DRAFT
100
AcDbLine
 62
7
  6
CONTINUOUS
 10
36.0384128464
 20
-29.4
 11
38.0384128464
 21
-29.4
  0
LINE
  5
3A8
100
AcDbEntity
  8
DRAFT
100
AcDbLine
 62
7
  6
CONTINUOUS
 10
41.0384128464
 20
-29.4
 11
43.0384128464
 21
-29.4
  0
LINE
  5
3A9
100
AcDbEntity
  8
DRAFT
100
AcDbLine
 62
7
  6
CONTINUOUS
 10
46.0384128464
 20
-29.4
 11
48.0384128464
 21
-29.4
  0
LINE
  5
3AA
100
AcDbEntity
  8
DRAFT
100
AcDbLine
 62
7
  6
CONTINUOUS
 10
66.0384128464
 20
-29.4
 11
68.0384128464
 21
-29.4
  0
LINE
  5
3AB
100
AcDbEntity
  8
DRAFT
100
AcDbLine
 62
7
  6
CONTINUOUS
 10
71.0384128464
 20
-29.4
 11
73.0384128464
 21
-29.4
  0
LINE
  5
3AC
100
AcDbEntity
  8
DRAFT
100
AcDbLine
 62
7
  6
CONTINUOUS
 10
76.0384128464
 20
-29.4
 11
78.0384128464
 21
-29.4
  0
LINE
  5
3AD
100
AcDbEntity
  8
DRAFT
100
AcDbLine
 62
7
  6
CONTINUOUS
 10
81.0384128464
 20
-29.4
 11
83.0384128464
 21
-29.4
  0
LINE
  5
3AE
100
AcDbEntity
  8
DRAFT
100
AcDbLine
 62
7
  6
CONTINUOUS
 10
86.0384128464
 20
-29.4
 11
88.0384128464
 21
-29.4
  0
LINE
  5
3AF
100
AcDbEntity
  8
RACCORDO
100
AcDbLine
 62
7
  6
CONTINUOUS
 10
3.0385651513
 20
-28.6
 11
2.5384128464
 21
-28.6
  0
LINE
  5
3B0
100
AcDbEntity
  8
RACCORDO
100
AcDbLine
 62
7
  6
CONTINUOUS
 10
-2.4615871536
 20
-28.6
 11
-2.9617394584
 21
-28.6
  0
LINE
  5
3B1
100
AcDbEntity
  8
RACCORDO
100
AcDbLine
 62
7
  6
CONTINUOUS
 10
88.0384128464
 20
-28.0
 11
86.0384128464
 21
-28.0
  0
LINE
  5
3B2
100
AcDbEntity
  8
RACCORDO
100
AcDbLine
 62
7
  6
CONTINUOUS
 10
83.0384128464
 20
-28.0
 11
81.0384128464
 21
-28.0
  0
LINE
  5
3B3
100
AcDbEntity
  8
RACCORDO
100
AcDbLine
 62
7
  6
CONTINUOUS
 10
78.0384128464
 20
-28.0
 11
76.0384128464
 21
-28.0
  0
LINE
  5
3B4
100
AcDbEntity
  8
RACCORDO
100
AcDbLine
 62
7
  6
CONTINUOUS
 10
73.0384128464
 20
-28.0
 11
71.0384128464
 21
-28.0
  0
LINE
  5
3B5
100
AcDbEntity
  8
RACCORDO
100
AcDbLine
 62
7
  6
CONTINUOUS
 10
68.0384128464
 20
-28.0
 11
66.0384128464
 21
-28.0
  0
LINE
  5
3B6
100
AcDbEntity
  8
RACCORDO
100
AcDbLine
 62
7
  6
CONTINUOUS
 10
48.0384128464
 20
-28.0
 11
46.0384128464
 21
-28.0
  0
LINE
  5
3B7
100
AcDbEntity
  8
RACCORDO
100
AcDbLine
 62
7
  6
CONTINUOUS
 10
43.0384128464
 20
-28.0
 11
41.0384128464
 21
-28.0
  0
LINE
  5
3B8
100
AcDbEntity
  8
RACCORDO
100
AcDbLine
 62
7
  6
CONTINUOUS
 10
38.0384128464
 20
-28.0
 11
36.0384128464
 21
-28.0
  0
LINE
  5
3B9
100
AcDbEntity
  8
RACCORDO
100
AcDbLine
 62
7
  6
CONTINUOUS
 10
36.0384128464
 20
-26.7
 11
38.0384128464
 21
-26.7
  0
LINE
  5
3BA
100
AcDbEntity
  8
RACCORDO
100
AcDbLine
 62
7
  6
CONTINUOUS
 10
41.0384128464
 20
-26.7
 11
43.0384128464
 21
-26.7
  0
LINE
  5
3BB
100
AcDbEntity
  8
RACCORDO
100
AcDbLine
 62
7
  6
CONTINUOUS
 10
46.0384128464
 20
-26.7
 11
48.0384128464
 21
-26.7
  0
LINE
  5
3BC
100
AcDbEntity
  8
RACCORDO
100
AcDbLine
 62
7
  6
CONTINUOUS
 10
66.0384128464
 20
-26.7
 11
68.0384128464
 21
-26.7
  0
LINE
  5
3BD
100
AcDbEntity
  8
RACCORDO
100
AcDbLine
 62
7
  6
CONTINUOUS
 10
71.0384128464
 20
-26.7
 11
73.0384128464
 21
-26.7
  0
LINE
  5
3BE
100
AcDbEntity
  8
RACCORDO
100
AcDbLine
 62
7
  6
CONTINUOUS
 10
76.0384128464
 20
-26.7
 11
78.0384128464
 21
-26.7
  0
LINE
  5
3BF
100
AcDbEntity
  8
RACCORDO
100
AcDbLine
 62
7
  6
CONTINUOUS
 10
81.0384128464
 20
-26.7
 11
83.0384128464
 21
-26.7
  0
LINE
  5
3C0
100
AcDbEntity
  8
RACCORDO
100
AcDbLine
 62
7
  6
CONTINUOUS
 10
86.0384128464
 20
-26.7
 11
88.0384128464
 21
-26.7
  0
LINE
  5
3C1
100
AcDbEntity
  8
DRAFT
100
AcDbLine
 62
7
  6
CONTINUOUS
 10
42.4249549244
 20
-25.4
 11
43.0384128464
 21
-25.4
  0
LINE
  5
3C2
100
AcDbEntity
  8
DRAFT
100
AcDbLine
 62
7
  6
CONTINUOUS
 10
-42.3481292315
 20
-25.4
 11
-43.9615871536
 21
-25.4
  0
LINE
  5
3C3
100
AcDbEntity
  8
DRAFT
100
AcDbLine
 62
7
  6
CONTINUOUS
 10
47.4249549244
 20
-25.4
 11
48.0384128464
 21
-25.4
  0
LINE
  5
3C4
100
AcDbEntity
  8
DRAFT
100
AcDbLine
 62
7
  6
CONTINUOUS
 10
-47.3481292315
 20
-25.4
 11
-48.9615871536
 21
-25.4
  0
LINE
  5
3C5
100
AcDbEntity
  8
DRAFT
100
AcDbLine
 62
7
  6
CONTINUOUS
 10
-52.3481292315
 20
-25.4
 11
-53.9615871536
 21
-25.4
  0
LINE
  5
3C6
100
AcDbEntity
  8
DRAFT
100
AcDbLine
 62
7
  6
CONTINUOUS
 10
-57.3481292315
 20
-25.4
 11
-58.9615871536
 21
-25.4
  0
LINE
  5
3C7
100
AcDbEntity
  8
DRAFT
100
AcDbLine
 62
7
  6
CONTINUOUS
 10
-62.3481292315
 20
-25.4
 11
-63.9615871536
 21
-25.4
  0
LINE
  5
3C8
100
AcDbEntity
  8
DRAFT
100
AcDbLine
 62
7
  6
CONTINUOUS
 10
67.4249549244
 20
-25.4
 11
68.0384128464
 21
-25.4
  0
LINE
  5
3C9
100
AcDbEntity
  8
DRAFT
100
AcDbLine
 62
7
  6
CONTINUOUS
 10
-67.3481292315
 20
-25.4
 11
-68.9615871536
 21
-25.4
  0
LINE
  5
3CA
100
AcDbEntity
  8
DRAFT
100
AcDbLine
 62
7
  6
CONTINUOUS
 10
72.4249549244
 20
-25.4
 11
73.0384128464
 21
-25.4
  0
LINE
  5
3CB
100
AcDbEntity
  8
DRAFT
100
AcDbLine
 62
7
  6
CONTINUOUS
 10
-72.3481292315
 20
-25.4
 11
-73.9615871536
 21
-25.4
  0
LINE
  5
3CC
100
AcDbEntity
  8
DRAFT
100
AcDbLine
 62
7
  6
CONTINUOUS
 10
77.4249549244
 20
-25.4
 11
78.0384128464
 21
-25.4
  0
LINE
  5
3CD
100
AcDbEntity
  8
DRAFT
100
AcDbLine
 62
7
  6
CONTINUOUS
 10
-77.3481292315
 20
-25.4
 11
-78.9615871536
 21
-25.4
  0
LINE
  5
3CE
100
AcDbEntity
  8
DRAFT
100
AcDbLine
 62
7
  6
CONTINUOUS
 10
82.4249549244
 20
-25.4
 11
83.0384128464
 21
-25.4
  0
LINE
  5
3CF
100
AcDbEntity
  8
DRAFT
100
AcDbLine
 62
7
  6
CONTINUOUS
 10
-82.3481292315
 20
-25.4
 11
-83.9615871536
 21
-25.4
  0
LINE
  5
3D0
100
AcDbEntity
  8
DRAFT
100
AcDbLine
 62
7
  6
CONTINUOUS
 10
8.293143236
 20
-24.4
 11
-8.2163175431
 21
-24.4
  0
LINE
  5
3D1
100
AcDbEntity
  8
0
100
AcDbLine
 62
7
  6
CONTINUOUS
 10
0.6563762953
 20
-30.9781759643
 11
-0.3604932195
 21
-30.7320189019
  0
LINE
  5
3D2
100
AcDbEntity
  8
0
100
AcDbLine
 62
7
  6
CONTINUOUS
 10
-0.6568865792
 20
-31.2600205289
 11
0.3744270444
 21
-31.5098272844
  0
LWPOLYLINE
  5
3D3
100
AcDbEntity
  8
0
100
AcDbPolyline
 62
7
  6
CONTINUOUS
 90
23
 70
0
 10
0.3744270444
 20
-31.5098272844
 10
0.7094114222
 20
-31.5918761214
 10
0.8737907842
 20
-31.6328091758
 10
1.0359261203
 20
-31.6737862867
 10
1.1950623184
 20
-31.7147279636
 10
1.3503081739
 20
-31.7555107291
 10
1.5016667293
 20
-31.7962399103
 10
1.6482959922
 20
-31.8367916813
 10
1.7882115423
 20
-31.8766917298
 10
1.9210299822
 20
-31.9158725554
 10
2.0467856357
 20
-31.954374619
 10
2.1644161811
 20
-31.9918760172
 10
2.2734855155
 20
-32.0281972397
 10
2.3745828413
 20
-32.0634766343
 10
2.4682364724
 20
-32.0978462575
 10
2.5545176232
 20
-32.1312760768
 10
2.6334801155
 20
-32.1637134431
 10
2.7054369411
 20
-32.1952029029
 10
2.7706788452
 20
-32.2257879141
 10
2.8289584116
 20
-32.2552437498
 10
2.8797593582
 20
-32.2831164891
 10
2.9233360796
 20
-32.3092688651
 10
2.9484453363
 20
-32.3259028659
  0
LWPOLYLINE
  5
3D4
100
AcDbEntity
  8
0
100
AcDbPolyline
 62
7
  6
CONTINUOUS
 90
24
 70
0
 10
-0.3604932195
 20
-30.7320189019
 10
-0.6915212615
 20
-30.6506537982
 10
-0.8531942328
 20
-30.610198274
 10
-1.0117545723
 20
-30.5698973966
 10
-1.1666418172
 20
-30.5297966313
 10
-1.3174757753
 20
-30.4899012332
 10
-1.4638825669
 20
-30.4502199729
 10
-1.6053317663
 20
-30.4108118304
 10
-1.7415282186
 20
-30.3716799789
 10
-1.8721334799
 20
-30.3328471817
 10
-1.9965856134
 20
-30.2944162928
 10
-2.1146905332
 20
-30.2563935673
 10
-2.2261727022
 20
-30.2188217679
 10
-2.3304076459
 20
-30.1818864411
 10
-2.4273315056
 20
-30.1456070895
 10
-2.5167678924
 20
-30.110061385
 10
-2.5980292018
 20
-30.0755786701
 10
-2.6712338671
 20
-30.0422119268
 10
-2.7363516758
 20
-30.0101098901
 10
-2.7926820309
 20
-29.9798502831
 10
-2.8405009712
 20
-29.9516337429
 10
-2.8801959145
 20
-29.9256556342
 10
-2.9115827673
 20
-29.9026256932
 10
-2.9353807203
 20
-29.8828096766
  0
LINE
  5
3D5
100
AcDbEntity
  8
0
100
AcDbLine
 62
7
  6
CONTINUOUS
 10
-2.9353807203
 20
-29.8828096766
 11
-2.9397427027
 21
-29.8786259077
  0
LINE
  5
3D6
100
AcDbEntity
  8
ASSI
100
AcDbLine
 62
7
  6
CONTINUOUS
 10
-28.5778657582
 20
1.85
 11
-29.340224833
 21
3.7531942447
  0
LINE
  5
3D7
100
AcDbEntity
  8
ASSI
100
AcDbLine
 62
7
  6
CONTINUOUS
 10
-29.3414864393
 20
3.1573647434
 11
-29.1365685151
 21
2.634346719
  0
LINE
  5
3D8
100
AcDbEntity
  8
ASSI
100
AcDbLine
 62
7
  6
CONTINUOUS
 10
-29.0599722191
 20
2.4267255287
 11
-28.8476652384
 21
1.85
  0
LINE
  5
3D9
100
AcDbEntity
  8
ASSI
100
AcDbLine
 62
7
  6
CONTINUOUS
 10
-32.1119317309
 20
3.4648314804
 11
-31.5631412432
 21
1.85
  0
LINE
  5
3DA
100
AcDbEntity
  8
ASSI
100
AcDbLine
 62
7
  6
CONTINUOUS
 10
-31.5281772525
 20
2.4085227035
 11
-31.9789243123
 21
3.7531942447
  0
LINE
  5
3DB
100
AcDbEntity
  8
ASSI
100
AcDbLine
 62
7
  6
CONTINUOUS
 10
-22.1345800842
 20
3.5340385438
 11
-22.1345800842
 21
1.85
  0
LINE
  5
3DC
100
AcDbEntity
  8
0
100
AcDbLine
 62
7
  6
CONTINUOUS
 10
-21.9615871536
 20
37.9
 11
-21.9615871536
 21
25.7
  0
LINE
  5
3DD
100
AcDbEntity
  8
0
100
AcDbLine
 62
7
  6
CONTINUOUS
 10
-21.9615871536
 20
-20.0
 11
-21.9615871536
 21
-32.2
  0
LINE
  5
3DE
100
AcDbEntity
  8
ASSI
100
AcDbLine
 62
7
  6
CONTINUOUS
 10
-21.8808208515
 20
1.85
 11
-21.8808208515
 21
3.5340385438
  0
LINE
  5
3DF
100
AcDbEntity
  8
ASSI
100
AcDbLine
 62
7
  6
CONTINUOUS
 10
-21.2579572805
 20
3.5340385438
 11
-21.2579572805
 21
3.7531942447
  0
LINE
  5
3E0
100
AcDbEntity
  8
ASSI
100
AcDbLine
 62
7
  6
CONTINUOUS
 10
-20.9695945162
 20
3.7531942447
 11
-20.9695945162
 21
1.85
  0
LINE
  5
3E1
100
AcDbEntity
  8
ASSI
100
AcDbLine
 62
7
  6
CONTINUOUS
 10
-20.7158352835
 20
1.85
 11
-20.7158352835
 21
3.7531942447
  0
LINE
  5
3E2
100
AcDbEntity
  8
0
100
AcDbLine
 62
7
  6
CONTINUOUS
 10
-18.9615871536
 20
-32.2
 11
-18.9615871536
 21
-20.0
  0
LINE
  5
3E3
100
AcDbEntity
  8
0
100
AcDbLine
 62
7
  6
CONTINUOUS
 10
-18.9615871536
 20
25.7
 11
-18.9615871536
 21
37.9
  0
LINE
  5
3E4
100
AcDbEntity
  8
0
100
AcDbLine
 62
7
  6
CONTINUOUS
 10
-16.9615871536
 20
37.9
 11
-16.9615871536
 21
25.7
  0
LINE
  5
3E5
100
AcDbEntity
  8
0
100
AcDbLine
 62
7
  6
CONTINUOUS
 10
-16.9615871536
 20
-20.0
 11
-16.9615871536
 21
-32.2
  0
LINE
  5
3E6
100
AcDbEntity
  8
ASSI
100
AcDbLine
 62
7
  6
CONTINUOUS
 10
-18.293588063
 20
1.85
 11
-18.0929956463
 21
2.4267255287
  0
LINE
  5
3E7
100
AcDbEntity
  8
ASSI
100
AcDbLine
 62
7
  6
CONTINUOUS
 10
-18.0207246817
 20
2.634346719
 11
-17.8150860156
 21
3.1899857509
  0
LINE
  5
3E8
100
AcDbEntity
  8
ASSI
100
AcDbLine
 62
7
  6
CONTINUOUS
 10
-17.8379748073
 20
3.7531942447
 11
-18.5614048429
 21
1.85
  0
LINE
  5
3E9
100
AcDbEntity
  8
ASSI
100
AcDbLine
 62
7
  6
CONTINUOUS
 10
-14.5333376158
 20
3.7531942447
 11
-15.057436841
 21
2.3740994012
  0
LINE
  5
3EA
100
AcDbEntity
  8
RACCORDO
100
AcDbLine
 62
7
  6
CONTINUOUS
 10
10.2585377622
 20
-20.2
 11
-10.1817120694
 21
-20.2
  0
LINE
  5
3EB
100
AcDbEntity
  8
0
100
AcDbLine
 62
7
  6
CONTINUOUS
 10
42.5384128464
 20
-20.05
 11
43.0384128464
 21
-20.05
  0
LINE
  5
3EC
100
AcDbEntity
  8
0
100
AcDbLine
 62
7
  6
CONTINUOUS
 10
-42.4615871536
 20
-20.05
 11
-43.9615871536
 21
-20.05
  0
LINE
  5
3ED
100
AcDbEntity
  8
0
100
AcDbLine
 62
7
  6
CONTINUOUS
 10
47.5384128464
 20
-20.05
 11
48.0384128464
 21
-20.05
  0
LINE
  5
3EE
100
AcDbEntity
  8
0
100
AcDbLine
 62
7
  6
CONTINUOUS
 10
-47.4615871536
 20
-20.05
 11
-48.9615871536
 21
-20.05
  0
LINE
  5
3EF
100
AcDbEntity
  8
0
100
AcDbLine
 62
7
  6
CONTINUOUS
 10
-52.4615871536
 20
-20.05
 11
-53.9615871536
 21
-20.05
  0
LINE
  5
3F0
100
AcDbEntity
  8
0
100
AcDbLine
 62
7
  6
CONTINUOUS
 10
-57.4615871536
 20
-20.05
 11
-58.9615871536
 21
-20.05
  0
LINE
  5
3F1
100
AcDbEntity
  8
0
100
AcDbLine
 62
7
  6
CONTINUOUS
 10
-62.4615871536
 20
-20.05
 11
-63.9615871536
 21
-20.05
  0
LINE
  5
3F2
100
AcDbEntity
  8
0
100
AcDbLine
 62
7
  6
CONTINUOUS
 10
67.5384128464
 20
-20.05
 11
68.0384128464
 21
-20.05
  0
LINE
  5
3F3
100
AcDbEntity
  8
0
100
AcDbLine
 62
7
  6
CONTINUOUS
 10
-67.4615871536
 20
-20.05
 11
-68.9615871536
 21
-20.05
  0
LINE
  5
3F4
100
AcDbEntity
  8
0
100
AcDbLine
 62
7
  6
CONTINUOUS
 10
72.5384128464
 20
-20.05
 11
73.0384128464
 21
-20.05
  0
LINE
  5
3F5
100
AcDbEntity
  8
0
100
AcDbLine
 62
7
  6
CONTINUOUS
 10
-72.4615871536
 20
-20.05
 11
-73.9615871536
 21
-20.05
  0
LINE
  5
3F6
100
AcDbEntity
  8
0
100
AcDbLine
 62
7
  6
CONTINUOUS
 10
77.5384128464
 20
-20.05
 11
78.0384128464
 21
-20.05
  0
LINE
  5
3F7
100
AcDbEntity
  8
0
100
AcDbLine
 62
7
  6
CONTINUOUS
 10
-77.4615871536
 20
-20.05
 11
-78.9615871536
 21
-20.05
  0
LINE
  5
3F8
100
AcDbEntity
  8
0
100
AcDbLine
 62
7
  6
CONTINUOUS
 10
82.5384128464
 20
-20.05
 11
83.0384128464
 21
-20.05
  0
LINE
  5
3F9
100
AcDbEntity
  8
0
100
AcDbLine
 62
7
  6
CONTINUOUS
 10
-82.4615871536
 20
-20.05
 11
-83.9615871536
 21
-20.05
  0
LINE
  5
3FA
100
AcDbEntity
  8
0
100
AcDbLine
 62
7
  6
CONTINUOUS
 10
87.5384128464
 20
-20.05
 11
88.0384128464
 21
-20.05
  0
LINE
  5
3FB
100
AcDbEntity
  8
0
100
AcDbLine
 62
7
  6
CONTINUOUS
 10
-83.9615871536
 20
-20.0
 11
-81.9615871536
 21
-20.0
  0
LINE
  5
3FC
100
AcDbEntity
  8
0
100
AcDbLine
 62
7
  6
CONTINUOUS
 10
-78.9615871536
 20
-20.0
 11
-76.9615871536
 21
-20.0
  0
LINE
  5
3FD
100
AcDbEntity
  8
0
100
AcDbLine
 62
7
  6
CONTINUOUS
 10
-73.9615871536
 20
-20.0
 11
-71.9615871536
 21
-20.0
  0
LINE
  5
3FE
100
AcDbEntity
  8
0
100
AcDbLine
 62
7
  6
CONTINUOUS
 10
-68.9615871536
 20
-20.0
 11
-66.9615871536
 21
-20.0
  0
LINE
  5
3FF
100
AcDbEntity
  8
0
100
AcDbLine
 62
7
  6
CONTINUOUS
 10
-63.9615871536
 20
-20.0
 11
-61.9615871536
 21
-20.0
  0
LINE
  5
400
100
AcDbEntity
  8
0
100
AcDbLine
 62
7
  6
CONTINUOUS
 10
-58.9615871536
 20
-20.0
 11
-56.9615871536
 21
-20.0
  0
LINE
  5
401
100
AcDbEntity
  8
0
100
AcDbLine
 62
7
  6
CONTINUOUS
 10
-53.9615871536
 20
-20.0
 11
-51.9615871536
 21
-20.0
  0
LINE
  5
402
100
AcDbEntity
  8
0
100
AcDbLine
 62
7
  6
CONTINUOUS
 10
-48.9615871536
 20
-20.0
 11
-46.9615871536
 21
-20.0
  0
LINE
  5
403
100
AcDbEntity
  8
0
100
AcDbLine
 62
7
  6
CONTINUOUS
 10
-43.9615871536
 20
-20.0
 11
-41.9615871536
 21
-20.0
  0
LINE
  5
404
100
AcDbEntity
  8
0
100
AcDbLine
 62
7
  6
CONTINUOUS
 10
-38.9615871536
 20
-20.0
 11
-36.9615871536
 21
-20.0
  0
LINE
  5
405
100
AcDbEntity
  8
0
100
AcDbLine
 62
7
  6
CONTINUOUS
 10
-33.9615871536
 20
-20.0
 11
-31.9615871536
 21
-20.0
  0
LINE
  5
406
100
AcDbEntity
  8
0
100
AcDbLine
 62
7
  6
CONTINUOUS
 10
-28.9615871536
 20
-20.0
 11
-26.9615871536
 21
-20.0
  0
LINE
  5
407
100
AcDbEntity
  8
0
100
AcDbLine
 62
7
  6
CONTINUOUS
 10
-23.9615871536
 20
-20.0
 11
-21.9615871536
 21
-20.0
  0
LINE
  5
408
100
AcDbEntity
  8
0
100
AcDbLine
 62
7
  6
CONTINUOUS
 10
-18.9615871536
 20
-20.0
 11
-16.9615871536
 21
-20.0
  0
LINE
  5
409
100
AcDbEntity
  8
0
100
AcDbLine
 62
7
  6
CONTINUOUS
 10
-13.9615871536
 20
-20.0
 11
-11.9615871536
 21
-20.0
  0
LINE
  5
40A
100
AcDbEntity
  8
0
100
AcDbLine
 62
7
  6
CONTINUOUS
 10
36.0384128464
 20
-20.0
 11
38.0384128464
 21
-20.0
  0
LINE
  5
40B
100
AcDbEntity
  8
0
100
AcDbLine
 62
7
  6
CONTINUOUS
 10
41.0384128464
 20
-20.0
 11
43.0384128464
 21
-20.0
  0
LINE
  5
40C
100
AcDbEntity
  8
0
100
AcDbLine
 62
7
  6
CONTINUOUS
 10
46.0384128464
 20
-20.0
 11
48.0384128464
 21
-20.0
  0
LINE
  5
40D
100
AcDbEntity
  8
0
100
AcDbLine
 62
7
  6
CONTINUOUS
 10
66.0384128464
 20
-20.0
 11
68.0384128464
 21
-20.0
  0
LINE
  5
40E
100
AcDbEntity
  8
0
100
AcDbLine
 62
7
  6
CONTINUOUS
 10
71.0384128464
 20
-20.0
 11
73.0384128464
 21
-20.0
  0
LINE
  5
40F
100
AcDbEntity
  8
0
100
AcDbLine
 62
7
  6
CONTINUOUS
 10
76.0384128464
 20
-20.0
 11
78.0384128464
 21
-20.0
  0
LINE
  5
410
100
AcDbEntity
  8
0
100
AcDbLine
 62
7
  6
CONTINUOUS
 10
81.0384128464
 20
-20.0
 11
83.0384128464
 21
-20.0
  0
LINE
  5
411
100
AcDbEntity
  8
0
100
AcDbLine
 62
7
  6
CONTINUOUS
 10
86.0384128464
 20
-20.0
 11
88.0384128464
 21
-20.0
  0
LINE
  5
412
100
AcDbEntity
  8
DRAFT
100
AcDbLine
 62
7
  6
CONTINUOUS
 10
8.1884128464
 20
-19.65
 11
8.0384128464
 21
-19.65
  0
LINE
  5
413
100
AcDbEntity
  8
DRAFT
100
AcDbLine
 62
7
  6
CONTINUOUS
 10
-7.9615871536
 20
-19.65
 11
-8.1115871536
 21
-19.65
  0
LINE
  5
414
100
AcDbEntity
  8
RACCORDO
100
AcDbLine
 62
7
  6
CONTINUOUS
 10
8.0384128464
 20
-19.5323659172
 11
-7.9615871536
 21
-19.5323659172
  0
LINE
  5
415
100
AcDbEntity
  8
RACCORDO
100
AcDbLine
 62
250
  6
CONTINUOUS
 10
7.9994241273
 20
-19.390104091
 11
-7.9225984345
 21
-19.390104091
  0
LINE
  5
416
100
AcDbEntity
  8
RACCORDO
100
AcDbLine
 62
250
  6
CONTINUOUS
 10
8.2588423719
 20
-17.1849836279
 11
52.5384128464
 21
-17.1849836279
  0
LINE
  5
417
100
AcDbEntity
  8
RACCORDO
100
AcDbLine
 62
250
  6
CONTINUOUS
 10
62.5384128464
 20
-17.1849836279
 11
104.547084639
 21
-17.1849836279
  0
LINE
  5
418
100
AcDbEntity
  8
RACCORDO
100
AcDbLine
 62
250
  6
CONTINUOUS
 10
-8.182016679
 20
-17.1849836279
 11
-104.4702589461
 21
-17.1849836279
  0
LINE
  5
419
100
AcDbEntity
  8
RACCORDO
100
AcDbLine
 62
250
  6
CONTINUOUS
 10
62.5384890003
 20
-17.1500761568
 11
52.5383366926
 21
-17.1500761568
  0
LINE
  5
41A
100
AcDbEntity
  8
RACCORDO
100
AcDbLine
 62
250
  6
CONTINUOUS
 10
102.548302985
 20
-15.1850597818
 11
64.5384128464
 21
-15.1850597818
  0
LINE
  5
41B
100
AcDbEntity
  8
RACCORDO
100
AcDbLine
 62
250
  6
CONTINUOUS
 10
50.5384128464
 20
-15.1850597818
 11
10.2585377622
 21
-15.1850597818
  0
LINE
  5
41C
100
AcDbEntity
  8
RACCORDO
100
AcDbLine
 62
250
  6
CONTINUOUS
 10
-10.1817120694
 20
-15.1850597818
 11
-102.4714772921
 21
-15.1850597818
  0
LINE
  5
41D
100
AcDbEntity
  8
RACCORDO
100
AcDbLine
 62
7
  6
CONTINUOUS
 10
102.6885955376
 20
-15.15
 11
10.188412858
 21
-15.15
  0
LINE
  5
41E
100
AcDbEntity
  8
RACCORDO
100
AcDbLine
 62
7
  6
CONTINUOUS
 10
-10.1115871652
 20
-15.15
 11
-102.6117698447
 21
-15.15
  0
LWPOLYLINE
  5
41F
100
AcDbEntity
  8
0
100
AcDbPolyline
 62
7
  6
CONTINUOUS
 90
22
 70
0
 10
3.4619678878
 20
-31.9873354859
 10
3.4086798513
 20
-31.9373884038
 10
3.3385199446
 20
-31.8815208542
 10
3.2606663805
 20
-31.8282471218
 10
3.1754122667
 20
-31.7770758808
 10
3.082676019
 20
-31.7274350524
 10
2.9823427516
 20
-31.6788856555
 10
2.8745396527
 20
-31.631192199
 10
2.7594593876
 20
-31.5841838024
 10
2.6375597274
 20
-31.5378116696
 10
2.5091692118
 20
-31.491979135
 10
2.3746767511
 20
-31.4466207058
 10
2.235043804
 20
-31.4018564536
 10
2.0910629536
 20
-31.3577316626
 10
1.9429844363
 20
-31.3141287292
 10
1.7911459335
 20
-31.270973121
 10
1.6361657796
 20
-31.2282775321
 10
1.4784369477
 20
-31.1859958857
 10
1.3179623647
 20
-31.1439883265
 10
1.1552067359
 20
-31.1022458684
 10
0.9906344881
 20
-31.0607613582
 10
0.6563762953
 20
-30.9781759643
  0
LINE
  5
420
100
AcDbEntity
  8
0
100
AcDbLine
 62
7
  6
CONTINUOUS
 10
3.4619678878
 20
-31.9873354859
 11
3.4617242134
 21
-31.9870871773
  0
LINE
  5
421
100
AcDbEntity
  8
ASSI
100
AcDbLine
 62
7
  6
CONTINUOUS
 10
-27.2494145179
 20
2.2455977196
 11
-26.9999807927
 21
1.85
  0
LINE
  5
422
100
AcDbEntity
  8
ASSI
100
AcDbLine
 62
7
  6
CONTINUOUS
 10
-26.7018858126
 20
1.85
 11
-27.0252125676
 21
2.3674310865
  0
LINE
  5
423
100
AcDbEntity
  8
ASSI
100
AcDbLine
 62
7
  6
CONTINUOUS
 10
-16.8011304619
 20
1.85
 11
-17.5634895367
 21
3.7531942447
  0
LINE
  5
424
100
AcDbEntity
  8
ASSI
100
AcDbLine
 62
7
  6
CONTINUOUS
 10
-17.5647511431
 20
3.1573647434
 11
-17.3598332189
 21
2.634346719
  0
LINE
  5
425
100
AcDbEntity
  8
ASSI
100
AcDbLine
 62
7
  6
CONTINUOUS
 10
-17.2832369229
 20
2.4267255287
 11
-17.0709299421
 21
1.85
  0
LINE
  5
426
100
AcDbEntity
  8
RACCORDO
100
AcDbLine
 62
7
  6
CONTINUOUS
 10
-7.9608494706
 20
-14.6906307787
 11
-7.9225984345
 21
-19.390104091
  0
LINE
  5
427
100
AcDbEntity
  8
ASSI
100
AcDbLine
 62
7
  6
CONTINUOUS
 10
-14.0488881717
 20
3.7531942447
 11
-14.0488881717
 21
1.85
  0
LINE
  5
428
100
AcDbEntity
  8
0
100
AcDbLine
 62
7
  6
CONTINUOUS
 10
-13.9615871536
 20
-32.2
 11
-13.9615871536
 21
-20.0
  0
LINE
  5
429
100
AcDbEntity
  8
0
100
AcDbLine
 62
7
  6
CONTINUOUS
 10
-13.9615871536
 20
25.7
 11
-13.9615871536
 21
37.9
  0
LINE
  5
42A
100
AcDbEntity
  8
ASSI
100
AcDbLine
 62
7
  6
CONTINUOUS
 10
-13.795128939
 20
1.85
 11
-13.795128939
 21
3.7531942447
  0
LINE
  5
42B
100
AcDbEntity
  8
ASSI
100
AcDbLine
 62
7
  6
CONTINUOUS
 10
-12.5724708182
 20
3.7531942447
 11
-12.5724708182
 21
1.85
  0
LINE
  5
42C
100
AcDbEntity
  8
ASSI
100
AcDbLine
 62
7
  6
CONTINUOUS
 10
-12.3187115855
 20
1.85
 11
-12.3187115855
 21
3.7531942447
  0
LINE
  5
42D
100
AcDbEntity
  8
ASSI
100
AcDbLine
 62
7
  6
CONTINUOUS
 10
-12.0072798
 20
3.7531942447
 11
-12.0072798
 21
3.5340385438
  0
LINE
  5
42E
100
AcDbEntity
  8
0
100
AcDbLine
 62
7
  6
CONTINUOUS
 10
-11.9615871536
 20
37.9
 11
-11.9615871536
 21
25.7
  0
LINE
  5
42F
100
AcDbEntity
  8
0
100
AcDbLine
 62
7
  6
CONTINUOUS
 10
-11.9615871536
 20
-20.0
 11
-11.9615871536
 21
-32.2
  0
LINE
  5
430
100
AcDbEntity
  8
ASSI
100
AcDbLine
 62
7
  6
CONTINUOUS
 10
-11.384416229
 20
3.5340385438
 11
-11.384416229
 21
1.85
  0
LINE
  5
431
100
AcDbEntity
  8
ASSI
100
AcDbLine
 62
7
  6
CONTINUOUS
 10
-11.1306569964
 20
1.85
 11
-11.1306569964
 21
3.5340385438
  0
LINE
  5
432
100
AcDbEntity
  8
ASSI
100
AcDbLine
 62
7
  6
CONTINUOUS
 10
-10.5077934254
 20
3.5340385438
 11
-10.5077934254
 21
3.7531942447
  0
LINE
  5
433
100
AcDbEntity
  8
RACCORDO
100
AcDbLine
 62
250
  6
CONTINUOUS
 10
-10.1817120694
 20
-20.2
 11
-10.1817120694
 21
-15.1850597818
  0
LINE
  5
434
100
AcDbEntity
  8
ASSI
100
AcDbLine
 62
7
  6
CONTINUOUS
 10
-8.5007885855
 20
3.7531942447
 11
-8.5007885855
 21
1.85
  0
LINE
  5
435
100
AcDbEntity
  8
ASSI
100
AcDbLine
 62
7
  6
CONTINUOUS
 10
-8.2470293528
 20
2.0691557009
 11
-8.2470293528
 21
3.7531942447
  0
LINE
  5
436
100
AcDbEntity
  8
DRAFT
100
AcDbLine
 62
7
  6
CONTINUOUS
 10
-8.2163175431
 20
-24.4
 11
-8.2163175431
 21
-33.4
  0
LINE
  5
437
100
AcDbEntity
  8
RACCORDO
100
AcDbLine
 62
250
  6
CONTINUOUS
 10
-8.182016679
 20
-20.2
 11
-8.182016679
 21
-17.1849836279
  0
LINE
  5
438
100
AcDbEntity
  8
RACCORDO
100
AcDbLine
 62
7
  6
CONTINUOUS
 10
-8.1115871536
 20
-20.2
 11
-8.1115871536
 21
-17.1497715471
  0
LINE
  5
439
100
AcDbEntity
  8
RACCORDO
100
AcDbLine
 62
7
  6
CONTINUOUS
 10
-8.1115871536
 20
-24.4
 11
-8.1115871536
 21
-33.4
  0
LINE
  5
43A
100
AcDbEntity
  8
RACCORDO
100
AcDbLine
 62
7
  6
CONTINUOUS
 10
-7.9615871536
 20
-33.4
 11
-7.9615871536
 21
-24.4
  0
LINE
  5
43B
100
AcDbEntity
  8
RACCORDO
100
AcDbLine
 62
7
  6
CONTINUOUS
 10
-7.9615871536
 20
-20.2
 11
-7.9615871536
 21
-14.635976293
  0
LINE
  5
43C
100
AcDbEntity
  8
ASSI
100
AcDbLine
 62
7
  6
CONTINUOUS
 10
-7.3011994858
 20
1.85
 11
-7.3011994858
 21
2.0691557009
  0
LINE
  5
43D
100
AcDbEntity
  8
RACCORDO
100
AcDbLine
 62
250
  6
CONTINUOUS
 10
-7.2115871536
 20
-49.276973193
 11
-7.2115871536
 21
-45.8
  0
LINE
  5
43E
100
AcDbEntity
  8
ASSI
100
AcDbLine
 62
7
  6
CONTINUOUS
 10
-10.1963616399
 20
1.85
 11
-9.9957692232
 21
2.4267255287
  0
LINE
  5
43F
100
AcDbEntity
  8
ASSI
100
AcDbLine
 62
7
  6
CONTINUOUS
 10
-9.9234982586
 20
2.634346719
 11
-9.7178595925
 21
3.1899857509
  0
LINE
  5
440
100
AcDbEntity
  8
ASSI
100
AcDbLine
 62
7
  6
CONTINUOUS
 10
-9.7407483842
 20
3.7531942447
 11
-10.4641784198
 21
1.85
  0
LINE
  5
441
100
AcDbEntity
  8
ASSI
100
AcDbLine
 62
7
  6
CONTINUOUS
 10
-15.0210310145
 20
1.85
 11
-14.2619160703
 21
3.7531942447
  0
LINE
  5
442
100
AcDbEntity
  8
RACCORDO
100
AcDbLine
 62
250
  6
CONTINUOUS
 10
-7.9608494706
 20
-14.6906307787
 11
8.0376751635
 21
-14.6906307787
  0
LINE
  5
443
100
AcDbEntity
  8
RACCORDO
100
AcDbLine
 62
7
  6
CONTINUOUS
 10
-7.9598416471
 20
-14.6
 11
8.0366673399
 21
-14.6
  0
LINE
  5
444
100
AcDbEntity
  8
ASSI
100
AcDbLine
 62
7
  6
CONTINUOUS
 10
-52.262721704
 20
2.4543002868
 11
-52.5164809366
 21
2.5179204124
  0
LINE
  5
445
100
AcDbEntity
  8
RACCORDO
100
AcDbLine
 62
250
  6
CONTINUOUS
 10
8.1884128464
 20
-17.1497715471
 11
8.2588423719
 21
-17.1849836279
  0
LINE
  5
446
100
AcDbEntity
  8
RACCORDO
100
AcDbLine
 62
250
  6
CONTINUOUS
 10
10.188412858
 20
-15.15
 11
10.2585377622
 21
-15.1850597818
  0
LINE
  5
447
100
AcDbEntity
  8
ASSI
100
AcDbLine
 62
7
  6
CONTINUOUS
 10
-8.7039040389
 20
1.85
 11
-9.4662631136
 21
3.7531942447
  0
LINE
  5
448
100
AcDbEntity
  8
ASSI
100
AcDbLine
 62
7
  6
CONTINUOUS
 10
-9.46752472
 20
3.1573647434
 11
-9.2626067958
 21
2.634346719
  0
LINE
  5
449
100
AcDbEntity
  8
ASSI
100
AcDbLine
 62
7
  6
CONTINUOUS
 10
-16.0257950408
 20
3.7531942447
 11
-15.2940746252
 21
1.85
  0
LINE
  5
44A
100
AcDbEntity
  8
ASSI
100
AcDbLine
 62
7
  6
CONTINUOUS
 10
-9.1860104998
 20
2.4267255287
 11
-8.973703519
 21
1.85
  0
LINE
  5
44B
100
AcDbEntity
  8
ASSI
100
AcDbLine
 62
7
  6
CONTINUOUS
 10
-15.2618139007
 20
2.3740994012
 11
-15.7559957366
 21
3.7531942447
  0
LWPOLYLINE
  5
44C
100
AcDbEntity
  8
0
100
AcDbPolyline
 62
7
  6
CONTINUOUS
 90
30
 70
0
 10
-3.5615823937
 20
-29.8772778822
 10
-3.5611049504
 20
-29.8995395475
 10
-3.5542333822
 20
-29.9611057906
 10
-3.5392641577
 20
-30.0223553607
 10
-3.5159171479
 20
-30.0835227513
 10
-3.4843847842
 20
-30.143348604
 10
-3.4461181017
 20
-30.1995844278
 10
-3.402283324
 20
-30.2517904513
 10
-3.3525921457
 20
-30.301264437
 10
-3.2967086438
 20
-30.3488820848
 10
-3.2345016138
 20
-30.3950971833
 10
-3.1658887882
 20
-30.440208205
 10
-3.0905554735
 20
-30.4845866175
 10
-3.0082906948
 20
-30.5284670634
 10
-2.9188669354
 20
-30.572054806
 10
-2.8221650928
 20
-30.6154784604
 10
-2.7180038453
 20
-30.6588823965
 10
-2.6063554087
 20
-30.7023382629
 10
-2.4876820289
 20
-30.745745618
 10
-2.3620633847
 20
-30.7891701186
 10
-2.2296610338
 20
-30.8326509934
 10
-2.0914314864
 20
-30.8759878678
 10
-1.947903029
 20
-30.9191478752
 10
-1.7992206955
 20
-30.9622174327
 10
-1.6460049378
 20
-31.0051449167
 10
-1.4887384981
 20
-31.0479255393
 10
-1.3277753067
 20
-31.0905912656
 10
-1.1636397434
 20
-31.1331294364
 10
-0.9967799894
 20
-31.175549141
 10
-0.6568865792
 20
-31.2600205289
  0
LWPOLYLINE
  5
44D
100
AcDbEntity
  8
0
100
AcDbPolyline
 62
7
  6
CONTINUOUS
 90
38
 70
0
 10
-3.56158714
 20
-32.9928488472
 10
-3.5615311346
 20
-32.9985260757
 10
-3.5593498293
 20
-33.0288352981
 10
-3.5542057503
 20
-33.0582701795
 10
-3.5463552595
 20
-33.086632597
 10
-3.5360636634
 20
-33.1136489434
 10
-3.5236504185
 20
-33.1389890826
 10
-3.5093186571
 20
-33.1626035802
 10
-3.4933570766
 20
-33.1842835308
 10
-3.4763219792
 20
-33.2036080633
 10
-3.4584656194
 20
-33.2206665983
 10
-3.4401302396
 20
-33.2355511993
 10
-3.4221355659
 20
-33.2480842654
 10
-3.4049206293
 20
-33.2584646446
 10
-3.3885657735
 20
-33.267064194
 10
-3.373359574
 20
-33.2740811743
 10
-3.3596670902
 20
-33.2796723257
 10
-3.3473359705
 20
-33.2841707266
 10
-3.3358241231
 20
-33.2879507172
 10
-3.3251258077
 20
-33.2911320473
 10
-3.3152763048
 20
-33.2938041595
 10
-3.3057650303
 20
-33.2961729933
 10
-3.2965115294
 20
-33.2982980927
 10
-3.2875773394
 20
-33.3001995043
 10
-3.2786600885
 20
-33.3019661161
 10
-3.2696967817
 20
-33.303624689
 10
-3.260720843
 20
-33.3051815393
 10
-3.2515790348
 20
-33.3066727338
 10
-3.2422412001
 20
-33.3081092153
 10
-3.2327125687
 20
-33.3094954939
 10
-3.2228996563
 20
-33.3108491078
 10
-3.2127928288
 20
-33.312173988
 10
-3.2023811215
 20
-33.3134738802
 10
-3.1915691145
 20
-33.3147619939
 10
-3.180333502
 20
-33.3160414608
 10
-3.1686695561
 20
-33.3173130835
 10
-3.1565046766
 20
-33.3185846288
 10
-3.1305961418
 20
-33.3211329383
  0
LINE
  5
44E
100
AcDbEntity
  8
ASSI
100
AcDbLine
 62
7
  6
CONTINUOUS
 10
-6.4808073992
 20
2.6561543099
 11
-6.4808073992
 21
1.85
  0
LINE
  5
44F
100
AcDbEntity
  8
ASSI
100
AcDbLine
 62
7
  6
CONTINUOUS
 10
-6.2270481665
 20
1.85
 11
-6.2270481665
 21
2.6561543099
  0
LINE
  5
450
100
AcDbEntity
  8
RACCORDO
100
AcDbLine
 62
7
  6
CONTINUOUS
 10
-5.2115871536
 20
-47.2033412824
 11
-5.2115871536
 21
-46.8
  0
LINE
  5
451
100
AcDbEntity
  8
0
100
AcDbLine
 62
7
  6
CONTINUOUS
 10
-5.0615871536
 20
-37.6
 11
-5.0615871536
 21
-33.4
  0
LINE
  5
452
100
AcDbEntity
  8
RACCORDO
100
AcDbLine
 62
7
  6
CONTINUOUS
 10
-4.9615871536
 20
-54.8000456915
 11
-4.9615871536
 21
-46.8
  0
LINE
  5
453
100
AcDbEntity
  8
ASSI
100
AcDbLine
 62
7
  6
CONTINUOUS
 10
-3.567138429
 20
-32.4
 11
-3.567138429
 21
-28.8053953814
  0
LINE
  5
454
100
AcDbEntity
  8
DRAFT
100
AcDbLine
 62
7
  6
CONTINUOUS
 10
-2.6115871536
 20
-51.4
 11
-2.6115871536
 21
-52.6
  0
LINE
  5
455
100
AcDbEntity
  8
RACCORDO
100
AcDbLine
 62
7
  6
CONTINUOUS
 10
-2.4615871536
 20
-29.6000761524
 11
-2.4615871536
 21
-28.6
  0
LINE
  5
456
100
AcDbEntity
  8
CURVE
100
AcDbLine
 62
250
  6
CONTINUOUS
 10
0.0384128464
 20
-24.4
 11
0.0384128464
 21
-29.7
  0
LINE
  5
457
100
AcDbEntity
  8
ASSI
100
AcDbLine
 62
7
  6
CONTINUOUS
 10
-6.2270481665
 20
2.6561543099
 11
-5.4657704686
 21
3.7531942447
  0
LINE
  5
458
100
AcDbEntity
  8
RACCORDO
100
AcDbLine
 62
7
  6
CONTINUOUS
 10
-99.9615871536
 20
-3.9
 11
-102.9615871536
 21
-3.9
  0
LINE
  5
459
100
AcDbEntity
  8
0
100
AcDbLine
 62
7
  6
CONTINUOUS
 10
-100.1615871536
 20
-3.65
 11
-102.9615871536
 21
-3.65
  0
LINE
  5
45A
100
AcDbEntity
  8
DRAFT
100
AcDbLine
 62
7
  6
CONTINUOUS
 10
-104.9615871536
 20
-3.65
 11
-105.0384128464
 21
-3.65
  0
LINE
  5
45B
100
AcDbEntity
  8
ASSI
100
AcDbLine
 62
7
  6
CONTINUOUS
 10
37.0384128464
 20
-2.122628
 11
43.0384128464
 21
-2.122628
  0
LINE
  5
45C
100
AcDbEntity
  8
ASSI
100
AcDbLine
 62
7
  6
CONTINUOUS
 10
43.0384128464
 20
-0.622628
 11
37.0384128464
 21
-0.622628
  0
LINE
  5
45D
100
AcDbEntity
  8
ASSI
100
AcDbLine
 62
7
  6
CONTINUOUS
 10
49.7508144212
 20
-0.2
 11
50.767480358
 21
-0.2
  0
LINE
  5
45E
100
AcDbEntity
  8
ASSI
100
AcDbLine
 62
7
  6
CONTINUOUS
 10
-40.53212445
 20
3.2687448006
 11
-40.3014342385
 21
3.2341412689
  0
LINE
  5
45F
100
AcDbEntity
  8
ASSI
100
AcDbLine
 62
7
  6
CONTINUOUS
 10
-34.626455036
 20
3.2687448006
 11
-34.3957648245
 21
3.2341412689
  0
LINE
  5
460
100
AcDbEntity
  8
ASSI
100
AcDbLine
 62
7
  6
CONTINUOUS
 10
-18.6626924013
 20
2.4543002868
 11
-18.916451634
 21
2.5179204124
  0
LINE
  5
461
100
AcDbEntity
  8
ASSI
100
AcDbLine
 62
7
  6
CONTINUOUS
 10
-7.2074815653
 20
3.7531942447
 11
-6.4808073992
 21
2.6561543099
  0
LINE
  5
462
100
AcDbEntity
  8
ASSI
100
AcDbLine
 62
7
  6
CONTINUOUS
 10
-6.538840411
 20
3.1725038435
 11
-6.9056017662
 21
3.7531942447
  0
LWPOLYLINE
  5
463
100
AcDbEntity
  8
0
100
AcDbPolyline
 62
7
  6
CONTINUOUS
 90
10
 70
0
 10
3.6384108554
 20
-32.3661900897
 10
3.6382162062
 20
-32.352794433
 10
3.6334669947
 20
-32.3011688216
 10
3.6226132638
 20
-32.2501690897
 10
3.6057293443
 20
-32.1995548354
 10
3.5831512052
 20
-32.150114655
 10
3.5559899671
 20
-32.1033908494
 10
3.5250673432
 20
-32.059556285
 10
3.490421879
 20
-32.0177444747
 10
3.4617242134
 20
-31.9870871773
  0
LWPOLYLINE
  5
464
100
AcDbEntity
  8
0
100
AcDbPolyline
 62
7
  6
CONTINUOUS
 90
37
 70
0
 10
3.6384128335
 20
-33.2928652557
 10
3.6383843004
 20
-33.2888121081
 10
3.6363223866
 20
-33.2580834655
 10
3.6312600077
 20
-33.2284637007
 10
3.6235457021
 20
-33.2001984582
 10
3.6135030113
 20
-33.1734857507
 10
3.6014276869
 20
-33.1484769939
 10
3.5875359974
 20
-33.1252060883
 10
3.5721254658
 20
-33.1038626741
 10
3.5556383406
 20
-33.0847267971
 10
3.5382816563
 20
-33.0677106243
 10
3.5203824473
 20
-33.0527696988
 10
3.5026543005
 20
-33.0400529781
 10
3.4854543928
 20
-33.0293643824
 10
3.4689088928
 20
-33.0204034485
 10
3.4533932166
 20
-33.0130399807
 10
3.4392628962
 20
-33.0071207076
 10
3.4263708092
 20
-33.0023141064
 10
3.4142892133
 20
-32.998278518
 10
3.403021401
 20
-32.9948868711
 10
3.3925805209
 20
-32.9920346182
 10
3.3825339206
 20
-32.9895277292
 10
3.3728403086
 20
-32.9873067191
 10
3.3635266874
 20
-32.9853356115
 10
3.3542739223
 20
-32.9835173768
 10
3.3450378873
 20
-32.9818252608
 10
3.3358466791
 20
-32.9802486137
 10
3.3264959595
 20
-32.9787411534
 10
3.3169460226
 20
-32.9772899176
 10
3.3072162781
 20
-32.9758920562
 10
3.2971923918
 20
-32.9745268758
 10
3.2868487982
 20
-32.9731883941
 10
3.2761902136
 20
-32.9718750089
 10
3.2651491236
 20
-32.9705768104
 10
3.253707374
 20
-32.9692907931
 10
3.2418629956
 20
-32.9680159783
 10
3.2168276356
 20
-32.9654834097
  0
LINE
  5
465
100
AcDbEntity
  8
RACCORDO
100
AcDbLine
 62
7
  6
CONTINUOUS
 10
2.5384128464
 20
-28.6
 11
2.5384128464
 21
-29.6000761524
  0
LINE
  5
466
100
AcDbEntity
  8
DRAFT
100
AcDbLine
 62
7
  6
CONTINUOUS
 10
2.6884128464
 20
-52.6
 11
2.6884128464
 21
-51.4
  0
LINE
  5
467
100
AcDbEntity
  8
ASSI
100
AcDbLine
 62
7
  6
CONTINUOUS
 10
3.6439641219
 20
-32.4
 11
3.6439641219
 21
-28.8053953824
  0
LINE
  5
468
100
AcDbEntity
  8
RACCORDO
100
AcDbLine
 62
7
  6
CONTINUOUS
 10
5.0384128464
 20
-46.8
 11
5.0384128464
 21
-54.8000456915
  0
LINE
  5
469
100
AcDbEntity
  8
0
100
AcDbLine
 62
7
  6
CONTINUOUS
 10
5.1384128464
 20
-37.6
 11
5.1384128464
 21
-33.4
  0
LINE
  5
46A
100
AcDbEntity
  8
RACCORDO
100
AcDbLine
 62
7
  6
CONTINUOUS
 10
5.2884128464
 20
-46.8
 11
5.2884128464
 21
-47.2033412824
  0
LINE
  5
46B
100
AcDbEntity
  8
RACCORDO
100
AcDbLine
 62
250
  6
CONTINUOUS
 10
7.2884128464
 20
-45.8
 11
7.2884128464
 21
-49.276973193
  0
LINE
  5
46C
100
AcDbEntity
  8
RACCORDO
100
AcDbLine
 62
7
  6
CONTINUOUS
 10
8.0384128464
 20
-24.4
 11
8.0384128464
 21
-33.4
  0
LINE
  5
46D
100
AcDbEntity
  8
RACCORDO
100
AcDbLine
 62
7
  6
CONTINUOUS
 10
8.0384128464
 20
-20.2
 11
8.0384128464
 21
-14.635976293
  0
LINE
  5
46E
100
AcDbEntity
  8
RACCORDO
100
AcDbLine
 62
7
  6
CONTINUOUS
 10
8.1884128464
 20
-33.4
 11
8.1884128464
 21
-24.4
  0
LINE
  5
46F
100
AcDbEntity
  8
RACCORDO
100
AcDbLine
 62
7
  6
CONTINUOUS
 10
8.1884128464
 20
-20.2
 11
8.1884128464
 21
-17.1497715471
  0
LINE
  5
470
100
AcDbEntity
  8
RACCORDO
100
AcDbLine
 62
250
  6
CONTINUOUS
 10
8.2588423719
 20
-17.1849836279
 11
8.2588423719
 21
-20.2
  0
LINE
  5
471
100
AcDbEntity
  8
DRAFT
100
AcDbLine
 62
7
  6
CONTINUOUS
 10
8.293143236
 20
-33.4
 11
8.293143236
 21
-24.4
  0
LINE
  5
472
100
AcDbEntity
  8
RACCORDO
100
AcDbLine
 62
7
  6
CONTINUOUS
 10
8.0376751635
 20
-14.6906307787
 11
7.9994241273
 21
-19.390104091
  0
LINE
  5
473
100
AcDbEntity
  8
0
100
AcDbLine
 62
7
  6
CONTINUOUS
 10
3.6381334303
 20
-27.3945038141
 11
3.638385826
 21
-27.37883933
  0
LWPOLYLINE
  5
474
100
AcDbEntity
  8
0
100
AcDbPolyline
 62
7
  6
CONTINUOUS
 90
15
 70
0
 10
-2.9656514193
 20
-29.9034042485
 10
-2.9659067072
 20
-29.9041367973
 10
-2.9675022649
 20
-29.9082339242
 10
-2.9670452917
 20
-29.907900792
 10
-2.9621129808
 20
-29.9014885062
 10
-2.9504515978
 20
-29.8886536785
 10
-2.9315435008
 20
-29.8709482046
 10
-2.9054656563
 20
-29.8498018016
 10
-2.8716890896
 20
-29.825672478
 10
-2.8294750653
 20
-29.7987493111
 10
-2.778894536
 20
-29.7696290527
 10
-2.71950966
 20
-29.7384717173
 10
-2.6511049755
 20
-29.7055030506
 10
-2.5742792326
 20
-29.6712388489
 10
-2.48899486
 20
-29.6358019112
  0
LINE
  5
475
100
AcDbEntity
  8
ASSI
100
AcDbLine
 62
7
  6
CONTINUOUS
 10
-18.9625896763
 20
3.1721433846
 11
-18.7088304436
 21
3.2305368554
  0
LINE
  5
476
100
AcDbEntity
  8
ASSI
100
AcDbLine
 62
7
  6
CONTINUOUS
 10
-34.4188338457
 20
2.3805874864
 11
-34.6495240572
 21
2.3459839547
  0
LINE
  5
477
100
AcDbEntity
  8
ASSI
100
AcDbLine
 62
7
  6
CONTINUOUS
 10
-40.3245032597
 20
2.3805874864
 11
-40.5551934712
 21
2.3459839547
  0
LINE
  5
478
100
AcDbEntity
  8
ASSI
100
AcDbLine
 62
7
  6
CONTINUOUS
 10
-35.1455080119
 20
3.2687448006
 11
-34.9148178004
 21
3.2918138218
  0
LINE
  5
479
100
AcDbEntity
  8
ASSI
100
AcDbLine
 62
7
  6
CONTINUOUS
 10
-38.0983427189
 20
3.2687448006
 11
-37.8676525074
 21
3.2918138218
  0
LINE
  5
47A
100
AcDbEntity
  8
ASSI
100
AcDbLine
 62
7
  6
CONTINUOUS
 10
-24.2223264981
 20
2.4843980816
 11
-24.4645512202
 21
2.472863571
  0
LINE
  5
47B
100
AcDbEntity
  8
ASSI
100
AcDbLine
 62
7
  6
CONTINUOUS
 10
-70.4872484112
 20
2.4843980816
 11
-70.7294731333
 21
2.472863571
  0
LINE
  5
47C
100
AcDbEntity
  8
ASSI
100
AcDbLine
 62
7
  6
CONTINUOUS
 10
-23.2649621204
 20
3.2110722478
 11
-23.0112028878
 21
3.2226067583
  0
LINE
  5
47D
100
AcDbEntity
  8
ASSI
100
AcDbLine
 62
7
  6
CONTINUOUS
 10
-69.5298840335
 20
3.2110722478
 11
-69.2761248009
 21
3.2226067583
  0
LINE
  5
47E
100
AcDbEntity
  8
ASSI
100
AcDbLine
 62
7
  6
CONTINUOUS
 10
38.8057584947
 20
1.1302216218
 11
39.2543564947
 21
1.1302216218
  0
LINE
  5
47F
100
AcDbEntity
  8
ASSI
100
AcDbLine
 62
7
  6
CONTINUOUS
 10
39.2543564947
 20
1.7283536218
 11
40.4985109484
 21
1.7283535905
  0
LINE
  5
480
100
AcDbEntity
  8
ASSI
100
AcDbLine
 62
7
  6
CONTINUOUS
 10
40.4985107403
 20
1.8031196649
 11
38.8742694947
 21
1.8031196218
  0
LINE
  5
481
100
AcDbEntity
  8
ASSI
100
AcDbLine
 62
7
  6
CONTINUOUS
 10
-79.229866738
 20
1.85
 11
-78.9568231273
 21
1.85
  0
LINE
  5
482
100
AcDbEntity
  8
ASSI
100
AcDbLine
 62
7
  6
CONTINUOUS
 10
-77.9846802844
 20
1.85
 11
-77.7309210518
 21
1.85
  0
LINE
  5
483
100
AcDbEntity
  8
ASSI
100
AcDbLine
 62
7
  6
CONTINUOUS
 10
-77.3041441606
 20
1.85
 11
-77.0503849279
 21
1.85
  0
LINE
  5
484
100
AcDbEntity
  8
ASSI
100
AcDbLine
 62
7
  6
CONTINUOUS
 10
-76.5015944403
 20
1.85
 11
-76.2856828699
 21
1.85
  0
LINE
  5
485
100
AcDbEntity
  8
ASSI
100
AcDbLine
 62
7
  6
CONTINUOUS
 10
-75.7239162119
 20
1.85
 11
-75.4701569793
 21
1.85
  0
LINE
  5
486
100
AcDbEntity
  8
ASSI
100
AcDbLine
 62
7
  6
CONTINUOUS
 10
-75.2765933362
 20
1.85
 11
-75.0087765563
 21
1.85
  0
LINE
  5
487
100
AcDbEntity
  8
ASSI
100
AcDbLine
 62
7
  6
CONTINUOUS
 10
-73.7861184354
 20
1.85
 11
-73.5163189553
 21
1.85
  0
LINE
  5
488
100
AcDbEntity
  8
ASSI
100
AcDbLine
 62
7
  6
CONTINUOUS
 10
-73.2901344807
 20
1.85
 11
-73.0363752481
 21
1.85
  0
LINE
  5
489
100
AcDbEntity
  8
ASSI
100
AcDbLine
 62
7
  6
CONTINUOUS
 10
-71.9384339898
 20
1.85
 11
-71.6403390097
 21
1.85
  0
LINE
  5
48A
100
AcDbEntity
  8
ASSI
100
AcDbLine
 62
7
  6
CONTINUOUS
 10
-68.8724169308
 20
1.85
 11
-68.6186576982
 21
1.85
  0
LINE
  5
48B
100
AcDbEntity
  8
ASSI
100
AcDbLine
 62
7
  6
CONTINUOUS
 10
-67.3293155506
 20
1.85
 11
-67.0614987707
 21
1.85
  0
LINE
  5
48C
100
AcDbEntity
  8
ASSI
100
AcDbLine
 62
7
  6
CONTINUOUS
 10
-65.8388406498
 20
1.85
 11
-65.5690411697
 21
1.85
  0
LINE
  5
48D
100
AcDbEntity
  8
ASSI
100
AcDbLine
 62
7
  6
CONTINUOUS
 10
-64.0619853329
 20
1.85
 11
-63.7889417222
 21
1.85
  0
LINE
  5
48E
100
AcDbEntity
  8
ASSI
100
AcDbLine
 62
7
  6
CONTINUOUS
 10
-62.8167988794
 20
1.85
 11
-62.5630396467
 21
1.85
  0
LINE
  5
48F
100
AcDbEntity
  8
ASSI
100
AcDbLine
 62
7
  6
CONTINUOUS
 10
-62.3233379614
 20
1.85
 11
-62.0555211815
 21
1.85
  0
LINE
  5
490
100
AcDbEntity
  8
ASSI
100
AcDbLine
 62
7
  6
CONTINUOUS
 10
-60.3599481271
 20
1.85
 11
-59.1603590273
 21
1.85
  0
LINE
  5
491
100
AcDbEntity
  8
ASSI
100
AcDbLine
 62
7
  6
CONTINUOUS
 10
-60.8328630606
 20
1.85
 11
-60.5630635804
 21
1.85
  0
LINE
  5
492
100
AcDbEntity
  8
ASSI
100
AcDbLine
 62
7
  6
CONTINUOUS
 10
-58.8604617524
 20
1.85
 11
-57.4532514624
 21
1.85
  0
LINE
  5
493
100
AcDbEntity
  8
ASSI
100
AcDbLine
 62
7
  6
CONTINUOUS
 10
-55.8148102724
 20
1.85
 11
-55.5417666616
 21
1.85
  0
LINE
  5
494
100
AcDbEntity
  8
ASSI
100
AcDbLine
 62
7
  6
CONTINUOUS
 10
-54.5696238188
 20
1.85
 11
-54.3158645862
 21
1.85
  0
LINE
  5
495
100
AcDbEntity
  8
ASSI
100
AcDbLine
 62
7
  6
CONTINUOUS
 10
-51.9397554079
 20
1.85
 11
-50.5325451178
 21
1.85
  0
LINE
  5
496
100
AcDbEntity
  8
ASSI
100
AcDbLine
 62
7
  6
CONTINUOUS
 10
-50.17497529
 20
1.85
 11
-49.9212160574
 21
1.85
  0
LINE
  5
497
100
AcDbEntity
  8
ASSI
100
AcDbLine
 62
7
  6
CONTINUOUS
 10
-48.9683572407
 20
1.85
 11
-48.6985579365
 21
1.85
  0
LINE
  5
498
100
AcDbEntity
  8
ASSI
100
AcDbLine
 62
7
  6
CONTINUOUS
 10
-48.4332641933
 20
1.85
 11
-46.9222433081
 21
1.85
  0
LINE
  5
499
100
AcDbEntity
  8
ASSI
100
AcDbLine
 62
7
  6
CONTINUOUS
 10
-46.8670937919
 20
1.85
 11
-46.599277012
 21
1.85
  0
LINE
  5
49A
100
AcDbEntity
  8
ASSI
100
AcDbLine
 62
7
  6
CONTINUOUS
 10
-45.3766188912
 20
1.85
 11
-45.106819411
 21
1.85
  0
LINE
  5
49B
100
AcDbEntity
  8
ASSI
100
AcDbLine
 62
7
  6
CONTINUOUS
 10
-43.6003042628
 20
1.85
 11
-43.3696140513
 21
1.85
  0
LINE
  5
49C
100
AcDbEntity
  8
ASSI
100
AcDbLine
 62
7
  6
CONTINUOUS
 10
-42.0085418035
 20
1.85
 11
-41.777851592
 21
1.85
  0
LINE
  5
49D
100
AcDbEntity
  8
ASSI
100
AcDbLine
 62
7
  6
CONTINUOUS
 10
-32.3656909635
 20
1.85
 11
-32.1119317309
 21
1.85
  0
LINE
  5
49E
100
AcDbEntity
  8
ASSI
100
AcDbLine
 62
7
  6
CONTINUOUS
 10
-31.5631412432
 20
1.85
 11
-31.3472296729
 21
1.85
  0
LINE
  5
49F
100
AcDbEntity
  8
ASSI
100
AcDbLine
 62
7
  6
CONTINUOUS
 10
-30.7854630148
 20
1.85
 11
-30.5317037822
 21
1.85
  0
LINE
  5
4A0
100
AcDbEntity
  8
ASSI
100
AcDbLine
 62
7
  6
CONTINUOUS
 10
-30.3381401391
 20
1.85
 11
-30.0703233592
 21
1.85
  0
LINE
  5
4A1
100
AcDbEntity
  8
ASSI
100
AcDbLine
 62
7
  6
CONTINUOUS
 10
-28.8476652384
 20
1.85
 11
-28.5778657582
 21
1.85
  0
LINE
  5
4A2
100
AcDbEntity
  8
ASSI
100
AcDbLine
 62
7
  6
CONTINUOUS
 10
-28.3516812837
 20
1.85
 11
-28.097922051
 21
1.85
  0
LINE
  5
4A3
100
AcDbEntity
  8
ASSI
100
AcDbLine
 62
7
  6
CONTINUOUS
 10
-26.9999807927
 20
1.85
 11
-26.7018858126
 21
1.85
  0
LINE
  5
4A4
100
AcDbEntity
  8
ASSI
100
AcDbLine
 62
7
  6
CONTINUOUS
 10
-22.1345800842
 20
1.85
 11
-21.8808208515
 21
1.85
  0
LINE
  5
4A5
100
AcDbEntity
  8
ASSI
100
AcDbLine
 62
7
  6
CONTINUOUS
 10
-20.9695945162
 20
1.85
 11
-20.7158352835
 21
1.85
  0
LINE
  5
4A6
100
AcDbEntity
  8
ASSI
100
AcDbLine
 62
7
  6
CONTINUOUS
 10
-18.5614048429
 20
1.85
 11
-18.293588063
 21
1.85
  0
LINE
  5
4A7
100
AcDbEntity
  8
ASSI
100
AcDbLine
 62
7
  6
CONTINUOUS
 10
-17.0709299421
 20
1.85
 11
-16.8011304619
 21
1.85
  0
LINE
  5
4A8
100
AcDbEntity
  8
ASSI
100
AcDbLine
 62
7
  6
CONTINUOUS
 10
-15.2940746252
 20
1.85
 11
-15.0210310145
 21
1.85
  0
LINE
  5
4A9
100
AcDbEntity
  8
ASSI
100
AcDbLine
 62
7
  6
CONTINUOUS
 10
-14.0488881717
 20
1.85
 11
-13.795128939
 21
1.85
  0
LINE
  5
4AA
100
AcDbEntity
  8
ASSI
100
AcDbLine
 62
7
  6
CONTINUOUS
 10
-12.5724708182
 20
1.85
 11
-12.3187115855
 21
1.85
  0
LINE
  5
4AB
100
AcDbEntity
  8
ASSI
100
AcDbLine
 62
7
  6
CONTINUOUS
 10
-11.384416229
 20
1.85
 11
-11.1306569964
 21
1.85
  0
LINE
  5
4AC
100
AcDbEntity
  8
ASSI
100
AcDbLine
 62
7
  6
CONTINUOUS
 10
-10.4641784198
 20
1.85
 11
-10.1963616399
 21
1.85
  0
LINE
  5
4AD
100
AcDbEntity
  8
ASSI
100
AcDbLine
 62
7
  6
CONTINUOUS
 10
-8.973703519
 20
1.85
 11
-8.7039040389
 21
1.85
  0
LINE
  5
4AE
100
AcDbEntity
  8
ASSI
100
AcDbLine
 62
7
  6
CONTINUOUS
 10
-8.5007885855
 20
1.85
 11
-7.3011994858
 21
1.85
  0
LINE
  5
4AF
100
AcDbEntity
  8
ASSI
100
AcDbLine
 62
7
  6
CONTINUOUS
 10
-6.4808073992
 20
1.85
 11
-6.2270481665
 21
1.85
  0
LINE
  5
4B0
100
AcDbEntity
  8
ASSI
100
AcDbLine
 62
7
  6
CONTINUOUS
 10
-7.3011994858
 20
2.0691557009
 11
-8.2470293528
 21
2.0691557009
  0
LINE
  5
4B1
100
AcDbEntity
  8
ASSI
100
AcDbLine
 62
7
  6
CONTINUOUS
 10
-46.9222433081
 20
2.0691557009
 11
-48.1458024004
 21
2.0691557009
  0
LINE
  5
4B2
100
AcDbEntity
  8
ASSI
100
AcDbLine
 62
7
  6
CONTINUOUS
 10
-50.5325451178
 20
2.0691557009
 11
-51.6859961753
 21
2.0691557009
  0
LINE
  5
4B3
100
AcDbEntity
  8
ASSI
100
AcDbLine
 62
7
  6
CONTINUOUS
 10
-57.4532514624
 20
2.0691557009
 11
-58.6067025198
 21
2.0691557009
  0
LINE
  5
4B4
100
AcDbEntity
  8
ASSI
100
AcDbLine
 62
7
  6
CONTINUOUS
 10
-59.1603590273
 20
2.0691557009
 11
-60.1061888944
 21
2.0691557009
  0
LINE
  5
4B5
100
AcDbEntity
  8
ASSI
100
AcDbLine
 62
7
  6
CONTINUOUS
 10
-42.8505610754
 20
2.2998459124
 11
-42.0085418035
 21
2.2998459124
  0
LINE
  5
4B6
100
AcDbEntity
  8
ASSI
100
AcDbLine
 62
7
  6
CONTINUOUS
 10
-41.777851592
 20
2.2998459124
 11
-41.5240923594
 21
2.2998459124
  0
LINE
  5
4B7
100
AcDbEntity
  8
ASSI
100
AcDbLine
 62
7
  6
CONTINUOUS
 10
-74.8081841396
 20
2.4267255287
 11
-73.9984254162
 21
2.4267255287
  0
LINE
  5
4B8
100
AcDbEntity
  8
ASSI
100
AcDbLine
 62
7
  6
CONTINUOUS
 10
-66.860906354
 20
2.4267255287
 11
-66.0511476306
 21
2.4267255287
  0
LINE
  5
4B9
100
AcDbEntity
  8
ASSI
100
AcDbLine
 62
7
  6
CONTINUOUS
 10
-61.8549287648
 20
2.4267255287
 11
-61.0451700414
 21
2.4267255287
  0
LINE
  5
4BA
100
AcDbEntity
  8
ASSI
100
AcDbLine
 62
7
  6
CONTINUOUS
 10
-46.3986845953
 20
2.4267255287
 11
-45.5889258719
 21
2.4267255287
  0
LINE
  5
4BB
100
AcDbEntity
  8
ASSI
100
AcDbLine
 62
7
  6
CONTINUOUS
 10
-29.8697309425
 20
2.4267255287
 11
-29.0599722191
 21
2.4267255287
  0
LINE
  5
4BC
100
AcDbEntity
  8
ASSI
100
AcDbLine
 62
7
  6
CONTINUOUS
 10
-18.0929956463
 20
2.4267255287
 11
-17.2832369229
 21
2.4267255287
  0
LINE
  5
4BD
100
AcDbEntity
  8
ASSI
100
AcDbLine
 62
7
  6
CONTINUOUS
 10
-9.9957692232
 20
2.4267255287
 11
-9.1860104998
 21
2.4267255287
  0
LINE
  5
4BE
100
AcDbEntity
  8
ASSI
100
AcDbLine
 62
7
  6
CONTINUOUS
 10
28.6102868464
 20
2.467488
 11
30.0988228464
 21
2.467488
  0
LINE
  5
4BF
100
AcDbEntity
  8
ASSI
100
AcDbLine
 62
7
  6
CONTINUOUS
 10
-41.5240923594
 20
2.5190016133
 11
-41.777851592
 21
2.5190016133
  0
LINE
  5
4C0
100
AcDbEntity
  8
ASSI
100
AcDbLine
 62
7
  6
CONTINUOUS
 10
-42.0085418035
 20
2.5190016133
 11
-42.619510405
 21
2.5190016133
  0
LINE
  5
4C1
100
AcDbEntity
  8
ASSI
100
AcDbLine
 62
7
  6
CONTINUOUS
 10
-68.6186576982
 20
2.634346719
 11
-68.1450218467
 21
2.634346719
  0
LINE
  5
4C2
100
AcDbEntity
  8
ASSI
100
AcDbLine
 62
7
  6
CONTINUOUS
 10
-9.2626067958
 20
2.634346719
 11
-9.9234982586
 21
2.634346719
  0
LINE
  5
4C3
100
AcDbEntity
  8
ASSI
100
AcDbLine
 62
7
  6
CONTINUOUS
 10
-17.3598332189
 20
2.634346719
 11
-18.0207246817
 21
2.634346719
  0
LINE
  5
4C4
100
AcDbEntity
  8
ASSI
100
AcDbLine
 62
7
  6
CONTINUOUS
 10
-29.1365685151
 20
2.634346719
 11
-29.7974599779
 21
2.634346719
  0
LINE
  5
4C5
100
AcDbEntity
  8
ASSI
100
AcDbLine
 62
7
  6
CONTINUOUS
 10
-45.665522168
 20
2.634346719
 11
-46.3264136308
 21
2.634346719
  0
LINE
  5
4C6
100
AcDbEntity
  8
ASSI
100
AcDbLine
 62
7
  6
CONTINUOUS
 10
-61.1217663374
 20
2.634346719
 11
-61.7826578002
 21
2.634346719
  0
LINE
  5
4C7
100
AcDbEntity
  8
ASSI
100
AcDbLine
 62
7
  6
CONTINUOUS
 10
-66.1277439266
 20
2.634346719
 11
-66.7886353894
 21
2.634346719
  0
LINE
  5
4C8
100
AcDbEntity
  8
ASSI
100
AcDbLine
 62
7
  6
CONTINUOUS
 10
-74.0750217122
 20
2.634346719
 11
-74.735913175
 21
2.634346719
  0
LINE
  5
4C9
100
AcDbEntity
  8
ASSI
100
AcDbLine
 62
7
  6
CONTINUOUS
 10
-73.0363752481
 20
2.6920192719
 11
-72.7471113364
 21
2.6920192719
  0
LINE
  5
4CA
100
AcDbEntity
  8
ASSI
100
AcDbLine
 62
7
  6
CONTINUOUS
 10
-28.097922051
 20
2.6920192719
 11
-27.8086581393
 21
2.6920192719
  0
LINE
  5
4CB
100
AcDbEntity
  8
ASSI
100
AcDbLine
 62
7
  6
CONTINUOUS
 10
-58.6067025198
 20
2.7266228036
 11
-57.5685965681
 21
2.7266228036
  0
LINE
  5
4CC
100
AcDbEntity
  8
ASSI
100
AcDbLine
 62
7
  6
CONTINUOUS
 10
-51.6859961753
 20
2.7266228036
 11
-50.6478902236
 21
2.7266228036
  0
LINE
  5
4CD
100
AcDbEntity
  8
ASSI
100
AcDbLine
 62
7
  6
CONTINUOUS
 10
-68.1423184046
 20
2.85350242
 11
-68.6186576982
 21
2.85350242
  0
LINE
  5
4CE
100
AcDbEntity
  8
ASSI
100
AcDbLine
 62
7
  6
CONTINUOUS
 10
-27.5619276803
 20
2.9111749728
 11
-28.097922051
 21
2.9111749728
  0
LINE
  5
4CF
100
AcDbEntity
  8
ASSI
100
AcDbLine
 62
7
  6
CONTINUOUS
 10
-72.5003808774
 20
2.9111749728
 11
-73.0363752481
 21
2.9111749728
  0
LINE
  5
4D0
100
AcDbEntity
  8
ASSI
100
AcDbLine
 62
7
  6
CONTINUOUS
 10
-50.6478902236
 20
2.9457785045
 11
-51.6859961753
 21
2.9457785045
  0
LINE
  5
4D1
100
AcDbEntity
  8
ASSI
100
AcDbLine
 62
7
  6
CONTINUOUS
 10
-57.5685965681
 20
2.9457785045
 11
-58.6067025198
 21
2.9457785045
  0
LINE
  5
4D2
100
AcDbEntity
  8
ASSI
100
AcDbLine
 62
7
  6
CONTINUOUS
 10
30.0988228464
 20
3.232488
 11
28.6102863821
 21
3.232488
  0
LINE
  5
4D3
100
AcDbEntity
  8
ASSI
100
AcDbLine
 62
7
  6
CONTINUOUS
 10
-73.0363752481
 20
3.5340385438
 11
-72.4398246528
 21
3.5340385438
  0
LINE
  5
4D4
100
AcDbEntity
  8
ASSI
100
AcDbLine
 62
7
  6
CONTINUOUS
 10
-68.6186576982
 20
3.5340385438
 11
-68.1473646539
 21
3.5340385438
  0
LINE
  5
4D5
100
AcDbEntity
  8
ASSI
100
AcDbLine
 62
7
  6
CONTINUOUS
 10
-58.6067025198
 20
3.5340385438
 11
-57.4993895047
 21
3.5340385438
  0
LINE
  5
4D6
100
AcDbEntity
  8
ASSI
100
AcDbLine
 62
7
  6
CONTINUOUS
 10
-51.6859961753
 20
3.5340385438
 11
-50.5786831601
 21
3.5340385438
  0
LINE
  5
4D7
100
AcDbEntity
  8
ASSI
100
AcDbLine
 62
7
  6
CONTINUOUS
 10
-48.3179190876
 20
3.5340385438
 11
-47.2632322
 21
3.5340385438
  0
LINE
  5
4D8
100
AcDbEntity
  8
ASSI
100
AcDbLine
 62
7
  6
CONTINUOUS
 10
-28.097922051
 20
3.5340385438
 11
-27.5013714558
 21
3.5340385438
  0
LINE
  5
4D9
100
AcDbEntity
  8
ASSI
100
AcDbLine
 62
7
  6
CONTINUOUS
 10
-22.7574436552
 20
3.5340385438
 11
-22.1345800842
 21
3.5340385438
  0
LINE
  5
4DA
100
AcDbEntity
  8
ASSI
100
AcDbLine
 62
7
  6
CONTINUOUS
 10
-21.8808208515
 20
3.5340385438
 11
-21.2579572805
 21
3.5340385438
  0
LINE
  5
4DB
100
AcDbEntity
  8
ASSI
100
AcDbLine
 62
7
  6
CONTINUOUS
 10
-12.0072798
 20
3.5340385438
 11
-11.384416229
 21
3.5340385438
  0
LINE
  5
4DC
100
AcDbEntity
  8
ASSI
100
AcDbLine
 62
7
  6
CONTINUOUS
 10
-11.1306569964
 20
3.5340385438
 11
-10.5077934254
 21
3.5340385438
  0
LINE
  5
4DD
100
AcDbEntity
  8
ASSI
100
AcDbLine
 62
7
  6
CONTINUOUS
 10
-5.4657704686
 20
3.7531942447
 11
-5.7719755993
 21
3.7531942447
  0
LINE
  5
4DE
100
AcDbEntity
  8
ASSI
100
AcDbLine
 62
7
  6
CONTINUOUS
 10
-6.9056017662
 20
3.7531942447
 11
-7.2074815653
 21
3.7531942447
  0
LINE
  5
4DF
100
AcDbEntity
  8
ASSI
100
AcDbLine
 62
7
  6
CONTINUOUS
 10
-8.2470293528
 20
3.7531942447
 11
-8.5007885855
 21
3.7531942447
  0
LINE
  5
4E0
100
AcDbEntity
  8
ASSI
100
AcDbLine
 62
7
  6
CONTINUOUS
 10
-9.4662631136
 20
3.7531942447
 11
-9.7407483842
 21
3.7531942447
  0
LINE
  5
4E1
100
AcDbEntity
  8
ASSI
100
AcDbLine
 62
7
  6
CONTINUOUS
 10
-10.5077934254
 20
3.7531942447
 11
-12.0072798
 21
3.7531942447
  0
LINE
  5
4E2
100
AcDbEntity
  8
ASSI
100
AcDbLine
 62
7
  6
CONTINUOUS
 10
-12.3187115855
 20
3.7531942447
 11
-12.5724708182
 21
3.7531942447
  0
LINE
  5
4E3
100
AcDbEntity
  8
ASSI
100
AcDbLine
 62
7
  6
CONTINUOUS
 10
-13.795128939
 20
3.7531942447
 11
-14.0488881717
 21
3.7531942447
  0
LINE
  5
4E4
100
AcDbEntity
  8
ASSI
100
AcDbLine
 62
7
  6
CONTINUOUS
 10
-14.2619160703
 20
3.7531942447
 11
-14.5333376158
 21
3.7531942447
  0
LINE
  5
4E5
100
AcDbEntity
  8
ASSI
100
AcDbLine
 62
7
  6
CONTINUOUS
 10
-15.7559957366
 20
3.7531942447
 11
-16.0257950408
 21
3.7531942447
  0
LINE
  5
4E6
100
AcDbEntity
  8
ASSI
100
AcDbLine
 62
7
  6
CONTINUOUS
 10
-17.5634895367
 20
3.7531942447
 11
-17.8379748073
 21
3.7531942447
  0
LINE
  5
4E7
100
AcDbEntity
  8
ASSI
100
AcDbLine
 62
7
  6
CONTINUOUS
 10
-20.7158352835
 20
3.7531942447
 11
-20.9695945162
 21
3.7531942447
  0
LINE
  5
4E8
100
AcDbEntity
  8
ASSI
100
AcDbLine
 62
7
  6
CONTINUOUS
 10
-21.2579572805
 20
3.7531942447
 11
-22.7574436552
 21
3.7531942447
  0
LINE
  5
4E9
100
AcDbEntity
  8
ASSI
100
AcDbLine
 62
7
  6
CONTINUOUS
 10
-27.51164436
 20
3.7531942447
 11
-28.3516812837
 21
3.7531942447
  0
LINE
  5
4EA
100
AcDbEntity
  8
ASSI
100
AcDbLine
 62
7
  6
CONTINUOUS
 10
-29.340224833
 20
3.7531942447
 11
-29.6147101035
 21
3.7531942447
  0
LINE
  5
4EB
100
AcDbEntity
  8
ASSI
100
AcDbLine
 62
7
  6
CONTINUOUS
 10
-30.5317037822
 20
3.7531942447
 11
-30.8618790814
 21
3.7531942447
  0
LINE
  5
4EC
100
AcDbEntity
  8
ASSI
100
AcDbLine
 62
7
  6
CONTINUOUS
 10
-31.9789243123
 20
3.7531942447
 11
-32.3656909635
 21
3.7531942447
  0
LINE
  5
4ED
100
AcDbEntity
  8
ASSI
100
AcDbLine
 62
7
  6
CONTINUOUS
 10
-41.777851592
 20
3.7531942447
 11
-41.9624037612
 21
3.7531942447
  0
LINE
  5
4EE
100
AcDbEntity
  8
ASSI
100
AcDbLine
 62
7
  6
CONTINUOUS
 10
-45.8691784858
 20
3.7531942447
 11
-46.1436637564
 21
3.7531942447
  0
LINE
  5
4EF
100
AcDbEntity
  8
ASSI
100
AcDbLine
 62
7
  6
CONTINUOUS
 10
-46.9683813504
 20
3.7531942447
 11
-48.3179190876
 21
3.7531942447
  0
LINE
  5
4F0
100
AcDbEntity
  8
ASSI
100
AcDbLine
 62
7
  6
CONTINUOUS
 10
-48.6985579365
 20
3.7531942447
 11
-48.9523171692
 21
3.7531942447
  0
LINE
  5
4F1
100
AcDbEntity
  8
ASSI
100
AcDbLine
 62
7
  6
CONTINUOUS
 10
-49.9051758099
 20
3.7531942447
 11
-50.17497529
 21
3.7531942447
  0
LINE
  5
4F2
100
AcDbEntity
  8
ASSI
100
AcDbLine
 62
7
  6
CONTINUOUS
 10
-50.5786831601
 20
3.7531942447
 11
-51.9397554079
 21
3.7531942447
  0
LINE
  5
4F3
100
AcDbEntity
  8
ASSI
100
AcDbLine
 62
7
  6
CONTINUOUS
 10
-54.3158645862
 20
3.7531942447
 11
-54.5696238188
 21
3.7531942447
  0
LINE
  5
4F4
100
AcDbEntity
  8
ASSI
100
AcDbLine
 62
7
  6
CONTINUOUS
 10
-54.7826517175
 20
3.7531942447
 11
-55.0540732629
 21
3.7531942447
  0
LINE
  5
4F5
100
AcDbEntity
  8
ASSI
100
AcDbLine
 62
7
  6
CONTINUOUS
 10
-56.2767313838
 20
3.7531942447
 11
-56.5465306879
 21
3.7531942447
  0
LINE
  5
4F6
100
AcDbEntity
  8
ASSI
100
AcDbLine
 62
7
  6
CONTINUOUS
 10
-57.4993895047
 20
3.7531942447
 11
-58.8604617524
 21
3.7531942447
  0
LINE
  5
4F7
100
AcDbEntity
  8
ASSI
100
AcDbLine
 62
7
  6
CONTINUOUS
 10
-60.1061888944
 20
3.7531942447
 11
-60.3599481271
 21
3.7531942447
  0
LINE
  5
4F8
100
AcDbEntity
  8
ASSI
100
AcDbLine
 62
7
  6
CONTINUOUS
 10
-61.3254226552
 20
3.7531942447
 11
-61.5999079258
 21
3.7531942447
  0
LINE
  5
4F9
100
AcDbEntity
  8
ASSI
100
AcDbLine
 62
7
  6
CONTINUOUS
 10
-62.5630396467
 20
3.7531942447
 11
-62.8167988794
 21
3.7531942447
  0
LINE
  5
4FA
100
AcDbEntity
  8
ASSI
100
AcDbLine
 62
7
  6
CONTINUOUS
 10
-63.029826778
 20
3.7531942447
 11
-63.3012483235
 21
3.7531942447
  0
LINE
  5
4FB
100
AcDbEntity
  8
ASSI
100
AcDbLine
 62
7
  6
CONTINUOUS
 10
-64.5239064443
 20
3.7531942447
 11
-64.7937057485
 21
3.7531942447
  0
LINE
  5
4FC
100
AcDbEntity
  8
ASSI
100
AcDbLine
 62
7
  6
CONTINUOUS
 10
-66.3314002444
 20
3.7531942447
 11
-66.605885515
 21
3.7531942447
  0
LINE
  5
4FD
100
AcDbEntity
  8
ASSI
100
AcDbLine
 62
7
  6
CONTINUOUS
 10
-68.1713348225
 20
3.7531942447
 11
-68.8724169308
 21
3.7531942447
  0
LINE
  5
4FE
100
AcDbEntity
  8
ASSI
100
AcDbLine
 62
7
  6
CONTINUOUS
 10
-72.4500975571
 20
3.7531942447
 11
-73.2901344807
 21
3.7531942447
  0
LINE
  5
4FF
100
AcDbEntity
  8
ASSI
100
AcDbLine
 62
7
  6
CONTINUOUS
 10
-74.27867803
 20
3.7531942447
 11
-74.5531633006
 21
3.7531942447
  0
LINE
  5
500
100
AcDbEntity
  8
ASSI
100
AcDbLine
 62
7
  6
CONTINUOUS
 10
-75.4701569793
 20
3.7531942447
 11
-75.8003322784
 21
3.7531942447
  0
LINE
  5
501
100
AcDbEntity
  8
ASSI
100
AcDbLine
 62
7
  6
CONTINUOUS
 10
-76.9173775094
 20
3.7531942447
 11
-77.3041441606
 21
3.7531942447
  0
LINE
  5
502
100
AcDbEntity
  8
ASSI
100
AcDbLine
 62
7
  6
CONTINUOUS
 10
-77.7309210518
 20
3.7531942447
 11
-77.9846802844
 21
3.7531942447
  0
LINE
  5
503
100
AcDbEntity
  8
ASSI
100
AcDbLine
 62
7
  6
CONTINUOUS
 10
-78.1977081831
 20
3.7531942447
 11
-78.4691297285
 21
3.7531942447
  0
LINE
  5
504
100
AcDbEntity
  8
ASSI
100
AcDbLine
 62
7
  6
CONTINUOUS
 10
-79.6917878494
 20
3.7531942447
 11
-79.9615871536
 21
3.7531942447
  0
LINE
  5
505
100
AcDbEntity
  8
ASSI
100
AcDbLine
 62
7
  6
CONTINUOUS
 10
-43.3696140513
 20
3.7647287553
 11
-43.5183010824
 21
3.7647287553
  0
LINE
  5
506
100
AcDbEntity
  8
ASSI
100
AcDbLine
 62
7
  6
CONTINUOUS
 10
39.5441704947
 20
5.2797546218
 11
40.8525824947
 21
5.2797546218
  0
LINE
  5
507
100
AcDbEntity
  8
ASSI
100
AcDbLine
 62
7
  6
CONTINUOUS
 10
40.7778154947
 20
5.3545216218
 11
39.6189374947
 21
5.3545216218
  0
LINE
  5
508
100
AcDbEntity
  8
ASSI
100
AcDbLine
 62
7
  6
CONTINUOUS
 10
39.6189374947
 20
5.5788216218
 11
40.7778154947
 21
5.5788216218
  0
LINE
  5
509
100
AcDbEntity
  8
ASSI
100
AcDbLine
 62
7
  6
CONTINUOUS
 10
40.8525824947
 20
5.6535866218
 11
39.5441704947
 21
5.6535866218
  0
LINE
  5
50A
100
AcDbEntity
  8
ASSI
100
AcDbLine
 62
7
  6
CONTINUOUS
 10
41.5668424947
 20
5.6535866218
 11
42.2357604947
 21
5.6535866218
  0
LINE
  5
50B
100
AcDbEntity
  8
ASSI
100
AcDbLine
 62
7
  6
CONTINUOUS
 10
42.1609934947
 20
5.7283536218
 11
41.5734954947
 21
5.7283536218
  0
LINE
  5
50C
100
AcDbEntity
  8
ASSI
100
AcDbLine
 62
7
  6
CONTINUOUS
 10
41.6322554947
 20
6.4012496218
 11
42.0349214947
 21
6.4012496218
  0
LINE
  5
50D
100
AcDbEntity
  8
ASSI
100
AcDbLine
 62
7
  6
CONTINUOUS
 10
41.4133304947
 20
6.4012496218
 11
41.5572024947
 21
6.4012496218
  0
LINE
  5
50E
100
AcDbEntity
  8
ASSI
100
AcDbLine
 62
7
  6
CONTINUOUS
 10
42.1096884947
 20
6.4760166218
 11
41.6387954947
 21
6.4760166218
  0
LINE
  5
50F
100
AcDbEntity
  8
ASSI
100
AcDbLine
 62
7
  6
CONTINUOUS
 10
41.5637434947
 20
6.4760166218
 11
41.3385634947
 21
6.4760166218
  0
LINE
  5
510
100
AcDbEntity
  8
ASSI
100
AcDbLine
 62
7
  6
CONTINUOUS
 10
37.7497794947
 20
6.7750816218
 11
38.3642264947
 21
6.7750816218
  0
LINE
  5
511
100
AcDbEntity
  8
ASSI
100
AcDbLine
 62
7
  6
CONTINUOUS
 10
38.4392794947
 20
6.7750816218
 11
41.5899094947
 21
6.7750816218
  0
LINE
  5
512
100
AcDbEntity
  8
ASSI
100
AcDbLine
 62
7
  6
CONTINUOUS
 10
41.6649604947
 20
6.7750816218
 11
41.8993104947
 21
6.7750816218
  0
LINE
  5
513
100
AcDbEntity
  8
ASSI
100
AcDbLine
 62
7
  6
CONTINUOUS
 10
41.3843594852
 20
7.0741476196
 11
38.9086574947
 21
7.0741476218
  0
LINE
  5
514
100
AcDbEntity
  8
ASSI
100
AcDbLine
 62
7
  6
CONTINUOUS
 10
38.5348254947
 20
7.0741476218
 11
38.4131144947
 21
7.0741476218
  0
LINE
  5
515
100
AcDbEntity
  8
ASSI
100
AcDbLine
 62
7
  6
CONTINUOUS
 10
38.3380624947
 20
7.0741476218
 11
37.7497794947
 21
7.0741476218
  0
LINE
  5
516
100
AcDbEntity
  8
ASSI
100
AcDbLine
 62
7
  6
CONTINUOUS
 10
38.8338904947
 20
7.1489146218
 11
38.6095924947
 21
7.1489146218
  0
LINE
  5
517
100
AcDbEntity
  8
ASSI
100
AcDbLine
 62
7
  6
CONTINUOUS
 10
39.6937044947
 20
7.3732136218
 11
40.7030494947
 21
7.3732136218
  0
LINE
  5
518
100
AcDbEntity
  8
ASSI
100
AcDbLine
 62
7
  6
CONTINUOUS
 10
40.6282824947
 20
7.4479796218
 11
39.7684704947
 21
7.4479796218
  0
LINE
  5
519
100
AcDbEntity
  8
ASSI
100
AcDbLine
 62
7
  6
CONTINUOUS
 10
38.6095924947
 20
7.6348946218
 11
38.8338904947
 21
7.6348946218
  0
LINE
  5
51A
100
AcDbEntity
  8
ASSI
100
AcDbLine
 62
7
  6
CONTINUOUS
 10
38.9086574947
 20
7.7096616218
 11
38.5348254947
 21
7.7096616218
  0
LINE
  5
51B
100
AcDbEntity
  8
ASSI
100
AcDbLine
 62
7
  6
CONTINUOUS
 10
39.7684704947
 20
7.7470446218
 11
40.6282824947
 21
7.7470446218
  0
LINE
  5
51C
100
AcDbEntity
  8
ASSI
100
AcDbLine
 62
7
  6
CONTINUOUS
 10
40.7030494947
 20
7.8218116218
 11
39.6937044947
 21
7.8218116218
  0
LINE
  5
51D
100
AcDbEntity
  8
RACCORDO
100
AcDbLine
 62
250
  6
CONTINUOUS
 10
10.2585377622
 20
-15.1850597818
 11
10.2585377622
 21
-20.2
  0
LWPOLYLINE
  5
51E
100
AcDbEntity
  8
0
100
AcDbPolyline
 62
7
  6
CONTINUOUS
 90
6
 70
0
 10
3.6180992351
 20
-33.4
 10
3.6236014749
 20
-33.3853438106
 10
3.6312585104
 20
-33.3572573328
 10
3.6362617647
 20
-33.3281329777
 10
3.6383637407
 20
-33.2981643939
 10
3.638412834
 20
-33.2928492009
  0
LINE
  5
51F
100
AcDbEntity
  8
RACCORDO
100
AcDbLine
 62
250
  6
CONTINUOUS
 10
-10.1817120694
 20
-15.1850597818
 11
-10.1115871652
 21
-15.15
  0
LINE
  5
520
100
AcDbEntity
  8
RACCORDO
100
AcDbLine
 62
250
  6
CONTINUOUS
 10
-8.182016679
 20
-17.1849836279
 11
-8.1115871536
 21
-17.1497715471
  0
LINE
  5
521
100
AcDbEntity
  8
ASSI
100
AcDbLine
 62
7
  6
CONTINUOUS
 10
-52.5626189789
 20
3.1721433846
 11
-52.3088597463
 21
3.2305368554
  0
LINE
  5
522
100
AcDbEntity
  8
0
100
AcDbLine
 62
7
  6
CONTINUOUS
 10
-100.1615871536
 20
9.35
 11
-102.9615871536
 21
9.35
  0
LINE
  5
523
100
AcDbEntity
  8
DRAFT
100
AcDbLine
 62
7
  6
CONTINUOUS
 10
-104.9615871536
 20
9.35
 11
-105.0384128464
 21
9.35
  0
LINE
  5
524
100
AcDbEntity
  8
RACCORDO
100
AcDbLine
 62
7
  6
CONTINUOUS
 10
-99.9615871536
 20
9.6
 11
-102.9615871536
 21
9.6
  0
LWPOLYLINE
  5
525
100
AcDbEntity
  8
0
100
AcDbPolyline
 62
7
  6
CONTINUOUS
 90
25
 70
0
 10
3.065783098
 20
-32.2793800829
 10
3.0697080419
 20
-32.2743254887
 10
3.0736017551
 20
-32.2700886448
 10
3.0728685051
 20
-32.2706754588
 10
3.0667293007
 20
-32.275016263
 10
3.0542154904
 20
-32.2825075654
 10
3.0346909788
 20
-32.2924984239
 10
3.0083842753
 20
-32.3041208248
 10
2.9749080645
 20
-32.3169959835
 10
2.9340532457
 20
-32.330746987
 10
2.8865337843
 20
-32.3448116615
 10
2.8323335643
 20
-32.3589786574
 10
2.7712587063
 20
-32.3731130004
 10
2.7038095512
 20
-32.3869571441
 10
2.6299943076
 20
-32.4004082088
 10
2.5497567816
 20
-32.4133871615
 10
2.4635296212
 20
-32.4257554599
 10
2.3713882791
 20
-32.4374527986
 10
2.2733710276
 20
-32.448429721
 10
2.1699027451
 20
-32.4586044185
 10
2.0611279891
 20
-32.4679381511
 10
1.9471694125
 20
-32.4763974367
 10
1.8284700687
 20
-32.4839317206
 10
1.7053168691
 20
-32.4905112706
 10
1.577829116
 20
-32.4961178995
  0
LINE
  5
526
100
AcDbEntity
  8
ASSI
100
AcDbLine
 62
7
  6
CONTINUOUS
 10
36.6656664947
 20
7.7609676218
 11
36.5599304947
 21
7.6552316218
  0
LINE
  5
527
100
AcDbEntity
  8
DRAFT
100
AcDbLine
 62
7
  6
CONTINUOUS
 10
102.555866582
 20
17.75
 11
93.7384128464
 21
17.75
  0
LINE
  5
528
100
AcDbEntity
  8
DRAFT
100
AcDbLine
 62
7
  6
CONTINUOUS
 10
-93.6615871536
 20
17.75
 11
-102.4790408891
 21
17.75
  0
LINE
  5
529
100
AcDbEntity
  8
RACCORDO
100
AcDbLine
 62
7
  6
CONTINUOUS
 10
-102.0615871536
 20
18.15
 11
-94.0615871536
 21
18.15
  0
LINE
  5
52A
100
AcDbEntity
  8
RACCORDO
100
AcDbLine
 62
7
  6
CONTINUOUS
 10
94.1384128464
 20
18.15
 11
102.1384128464
 21
18.15
  0
LINE
  5
52B
100
AcDbEntity
  8
RACCORDO
100
AcDbLine
 62
250
  6
CONTINUOUS
 10
-102.0615871536
 20
18.8911809549
 11
-94.0615871536
 21
18.8911809549
  0
LINE
  5
52C
100
AcDbEntity
  8
RACCORDO
100
AcDbLine
 62
250
  6
CONTINUOUS
 10
94.1384128464
 20
18.8911809549
 11
102.1384128464
 21
18.8911809549
  0
LINE
  5
52D
100
AcDbEntity
  8
DRAFT
100
AcDbLine
 62
7
  6
CONTINUOUS
 10
-102.4790408891
 20
20.818583276
 11
-102.0615871536
 21
20.818583276
  0
LINE
  5
52E
100
AcDbEntity
  8
DRAFT
100
AcDbLine
 62
7
  6
CONTINUOUS
 10
102.555866582
 20
20.818583276
 11
102.1384128464
 21
20.818583276
  0
LINE
  5
52F
100
AcDbEntity
  8
DRAFT
100
AcDbLine
 62
7
  6
CONTINUOUS
 10
-94.0615871536
 20
20.818583276
 11
-93.6615871536
 21
20.818583276
  0
LINE
  5
530
100
AcDbEntity
  8
DRAFT
100
AcDbLine
 62
7
  6
CONTINUOUS
 10
94.1384128464
 20
20.818583276
 11
93.7384128464
 21
20.818583276
  0
LINE
  5
531
100
AcDbEntity
  8
RACCORDO
100
AcDbLine
 62
7
  6
CONTINUOUS
 10
102.6885955376
 20
20.85
 11
102.555866582
 21
20.85
  0
LINE
  5
532
100
AcDbEntity
  8
DRAFT
100
AcDbLine
 62
7
  6
CONTINUOUS
 10
-102.0615871536
 20
20.85
 11
-94.0615871536
 21
20.85
  0
LINE
  5
533
100
AcDbEntity
  8
DRAFT
100
AcDbLine
 62
7
  6
CONTINUOUS
 10
102.1384128464
 20
20.85
 11
94.1384128464
 21
20.85
  0
LINE
  5
534
100
AcDbEntity
  8
DRAFT
100
AcDbLine
 62
7
  6
CONTINUOUS
 10
93.7384128464
 20
20.85
 11
-93.6615871536
 21
20.85
  0
LINE
  5
535
100
AcDbEntity
  8
RACCORDO
100
AcDbLine
 62
7
  6
CONTINUOUS
 10
-102.4790408891
 20
20.85
 11
-102.6117698447
 21
20.85
  0
LINE
  5
536
100
AcDbEntity
  8
RACCORDO
100
AcDbLine
 62
250
  6
CONTINUOUS
 10
50.5384128464
 20
20.8501523106
 11
64.5384128464
 21
20.8501523106
  0
LINE
  5
537
100
AcDbEntity
  8
RACCORDO
100
AcDbLine
 62
250
  6
CONTINUOUS
 10
-102.4714772921
 20
20.8850597818
 11
-102.0615871536
 21
20.8850597818
  0
LINE
  5
538
100
AcDbEntity
  8
RACCORDO
100
AcDbLine
 62
250
  6
CONTINUOUS
 10
-94.0615871536
 20
20.8850597818
 11
50.5384128464
 21
20.8850597818
  0
LINE
  5
539
100
AcDbEntity
  8
RACCORDO
100
AcDbLine
 62
250
  6
CONTINUOUS
 10
64.5384128464
 20
20.8850597818
 11
94.1384128464
 21
20.8850597818
  0
LINE
  5
53A
100
AcDbEntity
  8
RACCORDO
100
AcDbLine
 62
250
  6
CONTINUOUS
 10
102.1384128464
 20
20.8850597818
 11
102.548302985
 21
20.8850597818
  0
LINE
  5
53B
100
AcDbEntity
  8
RACCORDO
100
AcDbLine
 62
250
  6
CONTINUOUS
 10
52.5383366926
 20
22.8500761568
 11
62.5384890003
 21
22.8500761568
  0
LINE
  5
53C
100
AcDbEntity
  8
RACCORDO
100
AcDbLine
 62
250
  6
CONTINUOUS
 10
-104.4702589461
 20
22.8849836279
 11
-102.0615871536
 21
22.8849836279
  0
LINE
  5
53D
100
AcDbEntity
  8
RACCORDO
100
AcDbLine
 62
250
  6
CONTINUOUS
 10
-94.0615871536
 20
22.8849836279
 11
52.5384128464
 21
22.8849836279
  0
LINE
  5
53E
100
AcDbEntity
  8
RACCORDO
100
AcDbLine
 62
250
  6
CONTINUOUS
 10
62.5384128464
 20
22.8849836279
 11
94.1384128464
 21
22.8849836279
  0
LINE
  5
53F
100
AcDbEntity
  8
RACCORDO
100
AcDbLine
 62
250
  6
CONTINUOUS
 10
102.1384128464
 20
22.8849836279
 11
104.547084639
 21
22.8849836279
  0
LINE
  5
540
100
AcDbEntity
  8
ASSI
100
AcDbLine
 62
7
  6
CONTINUOUS
 10
26.2738228464
 20
0.31277
 11
26.2738228464
 21
1.083296
  0
LINE
  5
541
100
AcDbEntity
  8
ASSI
100
AcDbLine
 62
7
  6
CONTINUOUS
 10
26.2738228464
 20
4.61668
 11
26.2738228464
 21
5.387206
  0
LINE
  5
542
100
AcDbEntity
  8
ASSI
100
AcDbLine
 62
7
  6
CONTINUOUS
 10
30.0988228464
 20
2.467488
 11
30.0988228464
 21
3.232488
  0
LINE
  5
543
100
AcDbEntity
  8
ASSI
100
AcDbLine
 62
7
  6
CONTINUOUS
 10
30.6088228464
 20
0.31277
 11
30.6088228464
 21
1.0832964445
  0
LINE
  5
544
100
AcDbEntity
  8
ASSI
100
AcDbLine
 62
7
  6
CONTINUOUS
 10
30.6088228464
 20
4.61668
 11
30.6088228464
 21
5.387206
  0
LINE
  5
545
100
AcDbEntity
  8
ASSI
100
AcDbLine
 62
7
  6
CONTINUOUS
 10
39.9244174947
 20
4.2907456218
 11
38.7586234947
 21
3.1249526218
  0
LINE
  5
546
100
AcDbEntity
  8
ASSI
100
AcDbLine
 62
7
  6
CONTINUOUS
 10
38.6896104947
 20
3.0559386218
 11
36.5599304947
 21
0.9262596218
  0
LINE
  5
547
100
AcDbEntity
  8
ASSI
100
AcDbLine
 62
7
  6
CONTINUOUS
 10
42.0349214947
 20
6.4012496218
 11
41.5936484947
 21
5.9599766218
  0
LINE
  5
548
100
AcDbEntity
  8
ASSI
100
AcDbLine
 62
7
  6
CONTINUOUS
 10
41.3385634947
 20
5.7048926218
 11
40.0301524947
 21
4.3964806218
  0
LINE
  5
549
100
AcDbEntity
  8
ASSI
100
AcDbLine
 62
7
  6
CONTINUOUS
 10
43.3946384947
 20
7.7609676218
 11
42.1096884947
 21
6.4760166218
  0
LINE
  5
54A
100
AcDbEntity
  8
ASSI
100
AcDbLine
 62
7
  6
CONTINUOUS
 10
41.5114004947
 20
5.8777296218
 11
41.4133304947
 21
5.7796586218
  0
LINE
  5
54B
100
AcDbEntity
  8
ASSI
100
AcDbLine
 62
7
  6
CONTINUOUS
 10
36.6656664947
 20
0.8205236218
 11
38.7066234947
 21
2.8614796218
  0
LINE
  5
54C
100
AcDbEntity
  8
ASSI
100
AcDbLine
 62
7
  6
CONTINUOUS
 10
38.7756364947
 20
2.9304946218
 11
40.0301524947
 21
4.1850106218
  0
LINE
  5
54D
100
AcDbEntity
  8
ASSI
100
AcDbLine
 62
7
  6
CONTINUOUS
 10
40.1358874947
 20
4.2907456218
 11
41.4911254947
 21
5.6459836218
  0
LINE
  5
54E
100
AcDbEntity
  8
ASSI
100
AcDbLine
 62
7
  6
CONTINUOUS
 10
41.5734954947
 20
5.7283536218
 11
42.1609934947
 21
6.3158516218
  0
LINE
  5
54F
100
AcDbEntity
  8
ASSI
100
AcDbLine
 62
7
  6
CONTINUOUS
 10
42.2357604947
 20
6.3906166218
 11
43.5003744947
 21
7.6552316218
  0
LINE
  5
550
100
AcDbEntity
  8
ASSI
100
AcDbLine
 62
7
  6
CONTINUOUS
 10
43.3946384947
 20
0.8205236218
 11
43.5003744947
 21
0.9262596218
  0
LINE
  5
551
100
AcDbEntity
  8
0
100
AcDbLine
 62
7
  6
CONTINUOUS
 10
-2.48899486
 20
-29.6358019112
 11
-2.4602108001
 21
-29.6245929782
  0
LWPOLYLINE
  5
552
100
AcDbEntity
  8
0
100
AcDbPolyline
 62
7
  6
CONTINUOUS
 90
12
 70
0
 10
-2.3951633529
 20
-29.5992625529
 10
-2.2934907915
 20
-29.5619524341
 10
-2.1841250585
 20
-29.523937793
 10
-2.0671566348
 20
-29.4852462228
 10
-1.9433384169
 20
-29.4460970831
 10
-1.8129678232
 20
-29.4065310394
 10
-1.6762709155
 20
-29.3665552346
 10
-1.5339881374
 20
-29.3263118574
 10
-1.3865538044
 20
-29.2858368684
 10
-1.2342610804
 20
-29.2451197896
 10
-1.0776854682
 20
-29.2042188967
 10
-0.9172569579
 20
-29.1631460027
  0
LWPOLYLINE
  5
553
100
AcDbEntity
  8
0
100
AcDbPolyline
 62
7
  6
CONTINUOUS
 90
20
 70
0
 10
-2.4615871536
 20
-29.0024688643
 10
-2.526387147
 20
-29.0252764749
 10
-2.6402046676
 20
-29.067685753
 10
-2.7469404751
 20
-29.1100138799
 10
-2.846442677
 20
-29.1522542403
 10
-2.9387932137
 20
-29.1944851397
 10
-3.0241768335
 20
-29.2368364643
 10
-3.1028462497
 20
-29.2794919601
 10
-3.174991266
 20
-29.3226316407
 10
-3.2408327445
 20
-29.3664895122
 10
-3.3007952004
 20
-29.4115212461
 10
-3.3548632481
 20
-29.4579720085
 10
-3.4031617712
 20
-29.5063080094
 10
-3.4461593663
 20
-29.5576137154
 10
-3.4840320905
 20
-29.6132117028
 10
-3.51548814
 20
-29.6726767211
 10
-3.5390277272
 20
-29.734032482
 10
-3.5542526725
 20
-29.7961462288
 10
-3.5611739472
 20
-29.8591807968
 10
-3.5615304372
 20
-29.8772789057
  0
LINE
  5
554
100
AcDbEntity
  8
0
100
AcDbLine
 62
7
  6
CONTINUOUS
 10
88.0384128464
 20
25.7
 11
86.0384128464
 21
25.7
  0
LINE
  5
555
100
AcDbEntity
  8
0
100
AcDbLine
 62
7
  6
CONTINUOUS
 10
83.0384128464
 20
25.7
 11
81.0384128464
 21
25.7
  0
LINE
  5
556
100
AcDbEntity
  8
0
100
AcDbLine
 62
7
  6
CONTINUOUS
 10
78.0384128464
 20
25.7
 11
76.0384128464
 21
25.7
  0
LINE
  5
557
100
AcDbEntity
  8
0
100
AcDbLine
 62
7
  6
CONTINUOUS
 10
73.0384128464
 20
25.7
 11
71.0384128464
 21
25.7
  0
LINE
  5
558
100
AcDbEntity
  8
0
100
AcDbLine
 62
7
  6
CONTINUOUS
 10
68.0384128464
 20
25.7
 11
66.0384128464
 21
25.7
  0
LINE
  5
559
100
AcDbEntity
  8
0
100
AcDbLine
 62
7
  6
CONTINUOUS
 10
48.0384128464
 20
25.7
 11
46.0384128464
 21
25.7
  0
LINE
  5
55A
100
AcDbEntity
  8
0
100
AcDbLine
 62
7
  6
CONTINUOUS
 10
43.0384128464
 20
25.7
 11
41.0384128464
 21
25.7
  0
LINE
  5
55B
100
AcDbEntity
  8
0
100
AcDbLine
 62
7
  6
CONTINUOUS
 10
38.0384128464
 20
25.7
 11
36.0384128464
 21
25.7
  0
LINE
  5
55C
100
AcDbEntity
  8
0
100
AcDbLine
 62
7
  6
CONTINUOUS
 10
-11.9615871536
 20
25.7
 11
-13.9615871536
 21
25.7
  0
LINE
  5
55D
100
AcDbEntity
  8
0
100
AcDbLine
 62
7
  6
CONTINUOUS
 10
-16.9615871536
 20
25.7
 11
-18.9615871536
 21
25.7
  0
LINE
  5
55E
100
AcDbEntity
  8
0
100
AcDbLine
 62
7
  6
CONTINUOUS
 10
-21.9615871536
 20
25.7
 11
-23.9615871536
 21
25.7
  0
LINE
  5
55F
100
AcDbEntity
  8
0
100
AcDbLine
 62
7
  6
CONTINUOUS
 10
-26.9615871536
 20
25.7
 11
-28.9615871536
 21
25.7
  0
LINE
  5
560
100
AcDbEntity
  8
0
100
AcDbLine
 62
7
  6
CONTINUOUS
 10
-31.9615871536
 20
25.7
 11
-33.9615871536
 21
25.7
  0
LINE
  5
561
100
AcDbEntity
  8
0
100
AcDbLine
 62
7
  6
CONTINUOUS
 10
-36.9615871536
 20
25.7
 11
-38.9615871536
 21
25.7
  0
LINE
  5
562
100
AcDbEntity
  8
0
100
AcDbLine
 62
7
  6
CONTINUOUS
 10
-41.9615871536
 20
25.7
 11
-43.9615871536
 21
25.7
  0
LINE
  5
563
100
AcDbEntity
  8
0
100
AcDbLine
 62
7
  6
CONTINUOUS
 10
-46.9615871536
 20
25.7
 11
-48.9615871536
 21
25.7
  0
LINE
  5
564
100
AcDbEntity
  8
0
100
AcDbLine
 62
7
  6
CONTINUOUS
 10
-51.9615871536
 20
25.7
 11
-53.9615871536
 21
25.7
  0
LINE
  5
565
100
AcDbEntity
  8
0
100
AcDbLine
 62
7
  6
CONTINUOUS
 10
-56.9615871536
 20
25.7
 11
-58.9615871536
 21
25.7
  0
LINE
  5
566
100
AcDbEntity
  8
0
100
AcDbLine
 62
7
  6
CONTINUOUS
 10
-61.9615871536
 20
25.7
 11
-63.9615871536
 21
25.7
  0
LINE
  5
567
100
AcDbEntity
  8
0
100
AcDbLine
 62
7
  6
CONTINUOUS
 10
-66.9615871536
 20
25.7
 11
-68.9615871536
 21
25.7
  0
LINE
  5
568
100
AcDbEntity
  8
0
100
AcDbLine
 62
7
  6
CONTINUOUS
 10
-71.9615871536
 20
25.7
 11
-73.9615871536
 21
25.7
  0
LINE
  5
569
100
AcDbEntity
  8
0
100
AcDbLine
 62
7
  6
CONTINUOUS
 10
-76.9615871536
 20
25.7
 11
-78.9615871536
 21
25.7
  0
LINE
  5
56A
100
AcDbEntity
  8
0
100
AcDbLine
 62
7
  6
CONTINUOUS
 10
-81.9615871536
 20
25.7
 11
-83.9615871536
 21
25.7
  0
LINE
  5
56B
100
AcDbEntity
  8
0
100
AcDbLine
 62
7
  6
CONTINUOUS
 10
42.5384128464
 20
25.75
 11
43.0384128464
 21
25.75
  0
LINE
  5
56C
100
AcDbEntity
  8
0
100
AcDbLine
 62
7
  6
CONTINUOUS
 10
-42.4615871536
 20
25.75
 11
-43.9615871536
 21
25.75
  0
LINE
  5
56D
100
AcDbEntity
  8
0
100
AcDbLine
 62
7
  6
CONTINUOUS
 10
47.5384128464
 20
25.75
 11
48.0384128464
 21
25.75
  0
LINE
  5
56E
100
AcDbEntity
  8
0
100
AcDbLine
 62
7
  6
CONTINUOUS
 10
-47.4615871536
 20
25.75
 11
-48.9615871536
 21
25.75
  0
LINE
  5
56F
100
AcDbEntity
  8
0
100
AcDbLine
 62
7
  6
CONTINUOUS
 10
-52.4615871536
 20
25.75
 11
-53.9615871536
 21
25.75
  0
LINE
  5
570
100
AcDbEntity
  8
0
100
AcDbLine
 62
7
  6
CONTINUOUS
 10
-57.4615871536
 20
25.75
 11
-58.9615871536
 21
25.75
  0
LINE
  5
571
100
AcDbEntity
  8
0
100
AcDbLine
 62
7
  6
CONTINUOUS
 10
-62.4615871536
 20
25.75
 11
-63.9615871536
 21
25.75
  0
LINE
  5
572
100
AcDbEntity
  8
0
100
AcDbLine
 62
7
  6
CONTINUOUS
 10
67.5384128464
 20
25.75
 11
68.0384128464
 21
25.75
  0
LINE
  5
573
100
AcDbEntity
  8
0
100
AcDbLine
 62
7
  6
CONTINUOUS
 10
-67.4615871536
 20
25.75
 11
-68.9615871536
 21
25.75
  0
LINE
  5
574
100
AcDbEntity
  8
0
100
AcDbLine
 62
7
  6
CONTINUOUS
 10
72.5384128464
 20
25.75
 11
73.0384128464
 21
25.75
  0
LINE
  5
575
100
AcDbEntity
  8
0
100
AcDbLine
 62
7
  6
CONTINUOUS
 10
-72.4615871536
 20
25.75
 11
-73.9615871536
 21
25.75
  0
LINE
  5
576
100
AcDbEntity
  8
0
100
AcDbLine
 62
7
  6
CONTINUOUS
 10
77.5384128464
 20
25.75
 11
78.0384128464
 21
25.75
  0
LINE
  5
577
100
AcDbEntity
  8
0
100
AcDbLine
 62
7
  6
CONTINUOUS
 10
-77.4615871536
 20
25.75
 11
-78.9615871536
 21
25.75
  0
LINE
  5
578
100
AcDbEntity
  8
0
100
AcDbLine
 62
7
  6
CONTINUOUS
 10
82.5384128464
 20
25.75
 11
83.0384128464
 21
25.75
  0
LINE
  5
579
100
AcDbEntity
  8
0
100
AcDbLine
 62
7
  6
CONTINUOUS
 10
-82.4615871536
 20
25.75
 11
-83.9615871536
 21
25.75
  0
LINE
  5
57A
100
AcDbEntity
  8
0
100
AcDbLine
 62
7
  6
CONTINUOUS
 10
87.5384128464
 20
25.75
 11
88.0384128464
 21
25.75
  0
LINE
  5
57B
100
AcDbEntity
  8
RACCORDO
100
AcDbLine
 62
7
  6
CONTINUOUS
 10
-103.2615871536
 20
28.9
 11
-102.8615871536
 21
28.9
  0
LINE
  5
57C
100
AcDbEntity
  8
RACCORDO
100
AcDbLine
 62
7
  6
CONTINUOUS
 10
-90.6615871536
 20
28.9
 11
-90.2615871536
 21
28.9
  0
LINE
  5
57D
100
AcDbEntity
  8
DRAFT
100
AcDbLine
 62
250
  6
CONTINUOUS
 10
-94.1615871536
 20
31.5
 11
-94.0088669672
 21
31.5
  0
LINE
  5
57E
100
AcDbEntity
  8
DRAFT
100
AcDbLine
 62
250
  6
CONTINUOUS
 10
-99.3615871536
 20
31.5
 11
-99.5143073399
 21
31.5
  0
LINE
  5
57F
100
AcDbEntity
  8
DRAFT
100
AcDbLine
 62
7
  6
CONTINUOUS
 10
36.0384128464
 20
32.2362938651
 11
38.0384128464
 21
32.2362938651
  0
LINE
  5
580
100
AcDbEntity
  8
DRAFT
100
AcDbLine
 62
7
  6
CONTINUOUS
 10
41.0384128464
 20
32.2362938651
 11
43.0384128464
 21
32.2362938651
  0
LINE
  5
581
100
AcDbEntity
  8
DRAFT
100
AcDbLine
 62
7
  6
CONTINUOUS
 10
46.0384128464
 20
32.2362938651
 11
48.0384128464
 21
32.2362938651
  0
LINE
  5
582
100
AcDbEntity
  8
DRAFT
100
AcDbLine
 62
7
  6
CONTINUOUS
 10
66.0384128464
 20
32.2362938651
 11
68.0384128464
 21
32.2362938651
  0
LINE
  5
583
100
AcDbEntity
  8
DRAFT
100
AcDbLine
 62
7
  6
CONTINUOUS
 10
71.0384128464
 20
32.2362938651
 11
73.0384128464
 21
32.2362938651
  0
LINE
  5
584
100
AcDbEntity
  8
DRAFT
100
AcDbLine
 62
7
  6
CONTINUOUS
 10
76.0384128464
 20
32.2362938651
 11
78.0384128464
 21
32.2362938651
  0
LINE
  5
585
100
AcDbEntity
  8
DRAFT
100
AcDbLine
 62
7
  6
CONTINUOUS
 10
81.0384128464
 20
32.2362938651
 11
83.0384128464
 21
32.2362938651
  0
LINE
  5
586
100
AcDbEntity
  8
DRAFT
100
AcDbLine
 62
7
  6
CONTINUOUS
 10
86.0384128464
 20
32.2362938651
 11
88.0384128464
 21
32.2362938651
  0
LINE
  5
587
100
AcDbEntity
  8
DRAFT
100
AcDbLine
 62
7
  6
CONTINUOUS
 10
36.0384128464
 20
32.256365661
 11
38.0384128464
 21
32.256365661
  0
LINE
  5
588
100
AcDbEntity
  8
DRAFT
100
AcDbLine
 62
7
  6
CONTINUOUS
 10
41.0384128464
 20
32.256365661
 11
43.0384128464
 21
32.256365661
  0
LINE
  5
589
100
AcDbEntity
  8
DRAFT
100
AcDbLine
 62
7
  6
CONTINUOUS
 10
46.0384128464
 20
32.256365661
 11
48.0384128464
 21
32.256365661
  0
LINE
  5
58A
100
AcDbEntity
  8
DRAFT
100
AcDbLine
 62
7
  6
CONTINUOUS
 10
66.0384128464
 20
32.256365661
 11
68.0384128464
 21
32.256365661
  0
LINE
  5
58B
100
AcDbEntity
  8
DRAFT
100
AcDbLine
 62
7
  6
CONTINUOUS
 10
71.0384128464
 20
32.256365661
 11
73.0384128464
 21
32.256365661
  0
LINE
  5
58C
100
AcDbEntity
  8
DRAFT
100
AcDbLine
 62
7
  6
CONTINUOUS
 10
76.0384128464
 20
32.256365661
 11
78.0384128464
 21
32.256365661
  0
LINE
  5
58D
100
AcDbEntity
  8
DRAFT
100
AcDbLine
 62
7
  6
CONTINUOUS
 10
81.0384128464
 20
32.256365661
 11
83.0384128464
 21
32.256365661
  0
LINE
  5
58E
100
AcDbEntity
  8
DRAFT
100
AcDbLine
 62
7
  6
CONTINUOUS
 10
86.0384128464
 20
32.256365661
 11
88.0384128464
 21
32.256365661
  0
LINE
  5
58F
100
AcDbEntity
  8
ASSI
100
AcDbLine
 62
7
  6
CONTINUOUS
 10
36.5599304947
 20
0.9262596218
 11
36.6656664947
 21
0.8205236218
  0
LINE
  5
590
100
AcDbEntity
  8
ASSI
100
AcDbLine
 62
7
  6
CONTINUOUS
 10
38.5350784947
 20
5.6800836218
 11
39.9244174947
 21
4.2907456218
  0
LINE
  5
591
100
AcDbEntity
  8
ASSI
100
AcDbLine
 62
7
  6
CONTINUOUS
 10
36.5599304947
 20
7.6552316218
 11
38.4528314947
 21
5.7623316218
  0
LINE
  5
592
100
AcDbEntity
  8
ASSI
100
AcDbLine
 62
7
  6
CONTINUOUS
 10
41.3250684947
 20
2.8900946218
 11
43.3946384947
 21
0.8205236218
  0
LINE
  5
593
100
AcDbEntity
  8
ASSI
100
AcDbLine
 62
7
  6
CONTINUOUS
 10
40.0301524947
 20
4.1850106218
 11
41.2560544947
 21
2.9591076218
  0
LINE
  5
594
100
AcDbEntity
  8
ASSI
100
AcDbLine
 62
7
  6
CONTINUOUS
 10
43.5003744947
 20
0.9262596218
 11
41.3420814947
 21
3.0845516218
  0
LINE
  5
595
100
AcDbEntity
  8
ASSI
100
AcDbLine
 62
7
  6
CONTINUOUS
 10
41.2730664947
 20
3.1535666218
 11
40.1358874947
 21
4.2907456218
  0
LINE
  5
596
100
AcDbEntity
  8
ASSI
100
AcDbLine
 62
7
  6
CONTINUOUS
 10
40.0301524947
 20
4.3964806218
 11
38.5148034947
 21
5.9118296218
  0
LINE
  5
597
100
AcDbEntity
  8
ASSI
100
AcDbLine
 62
7
  6
CONTINUOUS
 10
38.4325564947
 20
5.9940776218
 11
36.6656664947
 21
7.7609676218
  0
LINE
  5
598
100
AcDbEntity
  8
ASSI
100
AcDbLine
 62
7
  6
CONTINUOUS
 10
38.4528314947
 20
5.7623316218
 11
38.6896104947
 21
3.0559386218
  0
LINE
  5
599
100
AcDbEntity
  8
ASSI
100
AcDbLine
 62
7
  6
CONTINUOUS
 10
38.7066234947
 20
2.8614796218
 11
38.8057584947
 21
1.7283536218
  0
LINE
  5
59A
100
AcDbEntity
  8
ASSI
100
AcDbLine
 62
7
  6
CONTINUOUS
 10
38.3642264947
 20
6.7750816218
 11
38.4325564947
 21
5.9940776218
  0
LINE
  5
59B
100
AcDbEntity
  8
ASSI
100
AcDbLine
 62
7
  6
CONTINUOUS
 10
38.3153986651
 20
7.3331872127
 11
38.3380624947
 21
7.0741476218
  0
LINE
  5
59C
100
AcDbEntity
  8
ASSI
100
AcDbLine
 62
7
  6
CONTINUOUS
 10
38.4131144947
 20
7.0741476218
 11
38.3946855303
 21
7.2847985328
  0
LINE
  5
59D
100
AcDbEntity
  8
ASSI
100
AcDbLine
 62
7
  6
CONTINUOUS
 10
38.8742694947
 20
1.8031196218
 11
38.7756364947
 21
2.9304946218
  0
LINE
  5
59E
100
AcDbEntity
  8
ASSI
100
AcDbLine
 62
7
  6
CONTINUOUS
 10
38.7586234947
 20
3.1249526218
 11
38.5350784947
 21
5.6800836218
  0
LINE
  5
59F
100
AcDbEntity
  8
ASSI
100
AcDbLine
 62
7
  6
CONTINUOUS
 10
38.5148034947
 20
5.9118296218
 11
38.4392794947
 21
6.7750816218
  0
LINE
  5
5A0
100
AcDbEntity
  8
0
100
AcDbLine
 62
7
  6
CONTINUOUS
 10
36.0384128464
 20
-32.2
 11
36.0384128464
 21
-20.0
  0
LINE
  5
5A1
100
AcDbEntity
  8
0
100
AcDbLine
 62
7
  6
CONTINUOUS
 10
36.0384128464
 20
25.7
 11
36.0384128464
 21
37.9
  0
LINE
  5
5A2
100
AcDbEntity
  8
ASSI
100
AcDbLine
 62
7
  6
CONTINUOUS
 10
37.0384128464
 20
-0.622628
 11
37.0384128464
 21
-2.122628
  0
LINE
  5
5A3
100
AcDbEntity
  8
ASSI
100
AcDbLine
 62
7
  6
CONTINUOUS
 10
37.7497794947
 20
7.0741476218
 11
37.7497794947
 21
6.7750816218
  0
LINE
  5
5A4
100
AcDbEntity
  8
0
100
AcDbLine
 62
7
  6
CONTINUOUS
 10
38.0384128464
 20
37.9
 11
38.0384128464
 21
25.7
  0
LINE
  5
5A5
100
AcDbEntity
  8
0
100
AcDbLine
 62
7
  6
CONTINUOUS
 10
38.0384128464
 20
-20.0
 11
38.0384128464
 21
-32.2
  0
LINE
  5
5A6
100
AcDbEntity
  8
ASSI
100
AcDbLine
 62
7
  6
CONTINUOUS
 10
38.5348254947
 20
7.7096616218
 11
38.5348253491
 21
7.4169630403
  0
LINE
  5
5A7
100
AcDbEntity
  8
ASSI
100
AcDbLine
 62
7
  6
CONTINUOUS
 10
38.5348254947
 20
7.3377087237
 11
38.5348254947
 21
7.0741476218
  0
LINE
  5
5A8
100
AcDbEntity
  8
ASSI
100
AcDbLine
 62
7
  6
CONTINUOUS
 10
38.6095924947
 20
7.1489146218
 11
38.6095923948
 21
7.3634249221
  0
LINE
  5
5A9
100
AcDbEntity
  8
ASSI
100
AcDbLine
 62
7
  6
CONTINUOUS
 10
38.6095925577
 20
7.4421344282
 11
38.6095924947
 21
7.6348946218
  0
LINE
  5
5AA
100
AcDbEntity
  8
ASSI
100
AcDbLine
 62
7
  6
CONTINUOUS
 10
38.8057584947
 20
1.7283536218
 11
38.8057584947
 21
1.1302216218
  0
LINE
  5
5AB
100
AcDbEntity
  8
ASSI
100
AcDbLine
 62
7
  6
CONTINUOUS
 10
38.8338904947
 20
7.6348946218
 11
38.8338904433
 21
7.5078278187
  0
LINE
  5
5AC
100
AcDbEntity
  8
ASSI
100
AcDbLine
 62
7
  6
CONTINUOUS
 10
38.8338905761
 20
7.430508316
 11
38.8338904947
 21
7.1489146218
  0
LINE
  5
5AD
100
AcDbEntity
  8
ASSI
100
AcDbLine
 62
7
  6
CONTINUOUS
 10
38.908657464
 20
7.5265457496
 11
38.9086574947
 21
7.7096616218
  0
LINE
  5
5AE
100
AcDbEntity
  8
ASSI
100
AcDbLine
 62
7
  6
CONTINUOUS
 10
38.9086574947
 20
7.0741476218
 11
38.9086574947
 21
7.449614753
  0
LINE
  5
5AF
100
AcDbEntity
  8
ASSI
100
AcDbLine
 62
7
  6
CONTINUOUS
 10
39.2543564947
 20
1.1302216218
 11
39.2543564947
 21
1.7283536218
  0
LINE
  5
5B0
100
AcDbEntity
  8
ASSI
100
AcDbLine
 62
7
  6
CONTINUOUS
 10
39.5441704947
 20
5.6535866218
 11
39.5441704947
 21
5.2797546218
  0
LINE
  5
5B1
100
AcDbEntity
  8
ASSI
100
AcDbLine
 62
7
  6
CONTINUOUS
 10
39.6189374947
 20
5.3545216218
 11
39.6189374947
 21
5.5788216218
  0
LINE
  5
5B2
100
AcDbEntity
  8
ASSI
100
AcDbLine
 62
7
  6
CONTINUOUS
 10
39.6937044991
 20
7.5579054933
 11
39.6937044947
 21
7.3732136218
  0
LINE
  5
5B3
100
AcDbEntity
  8
ASSI
100
AcDbLine
 62
7
  6
CONTINUOUS
 10
39.6937044947
 20
7.8218116218
 11
39.6937044991
 21
7.6327134904
  0
LINE
  5
5B4
100
AcDbEntity
  8
ASSI
100
AcDbLine
 62
7
  6
CONTINUOUS
 10
39.7684704964
 20
7.6344945037
 11
39.7684704947
 21
7.7470446218
  0
LINE
  5
5B5
100
AcDbEntity
  8
ASSI
100
AcDbLine
 62
7
  6
CONTINUOUS
 10
39.7684704947
 20
7.4479796218
 11
39.7684705025
 21
7.5597200884
  0
LINE
  5
5B6
100
AcDbEntity
  8
DRAFT
100
AcDbLine
 62
7
  6
CONTINUOUS
 10
42.5384128464
 20
25.75
 11
42.5340384133
 21
25.7
  0
LINE
  5
5B7
100
AcDbEntity
  8
RACCORDO
100
AcDbLine
 62
250
  6
CONTINUOUS
 10
103.0396311924
 20
55.1
 11
102.548302985
 21
54.6086717926
  0
LINE
  5
5B8
100
AcDbEntity
  8
RACCORDO
100
AcDbLine
 62
250
  6
CONTINUOUS
 10
105.0384128464
 20
53.101218346
 11
104.547084639
 21
52.6098901385
  0
LINE
  5
5B9
100
AcDbEntity
  8
DRAFT
100
AcDbLine
 62
7
  6
CONTINUOUS
 10
36.0384128464
 20
34.6
 11
38.0384128464
 21
34.6
  0
LINE
  5
5BA
100
AcDbEntity
  8
DRAFT
100
AcDbLine
 62
7
  6
CONTINUOUS
 10
41.0384128464
 20
34.6
 11
43.0384128464
 21
34.6
  0
LINE
  5
5BB
100
AcDbEntity
  8
DRAFT
100
AcDbLine
 62
7
  6
CONTINUOUS
 10
46.0384128464
 20
34.6
 11
48.0384128464
 21
34.6
  0
LINE
  5
5BC
100
AcDbEntity
  8
DRAFT
100
AcDbLine
 62
7
  6
CONTINUOUS
 10
66.0384128464
 20
34.6
 11
68.0384128464
 21
34.6
  0
LINE
  5
5BD
100
AcDbEntity
  8
DRAFT
100
AcDbLine
 62
7
  6
CONTINUOUS
 10
71.0384128464
 20
34.6
 11
73.0384128464
 21
34.6
  0
LINE
  5
5BE
100
AcDbEntity
  8
DRAFT
100
AcDbLine
 62
7
  6
CONTINUOUS
 10
76.0384128464
 20
34.6
 11
78.0384128464
 21
34.6
  0
LINE
  5
5BF
100
AcDbEntity
  8
DRAFT
100
AcDbLine
 62
7
  6
CONTINUOUS
 10
81.0384128464
 20
34.6
 11
83.0384128464
 21
34.6
  0
LINE
  5
5C0
100
AcDbEntity
  8
DRAFT
100
AcDbLine
 62
7
  6
CONTINUOUS
 10
86.0384128464
 20
34.6
 11
88.0384128464
 21
34.6
  0
LINE
  5
5C1
100
AcDbEntity
  8
DRAFT
100
AcDbLine
 62
250
  6
CONTINUOUS
 10
-94.1615871536
 20
36.3
 11
-94.0088669672
 21
36.3
  0
LINE
  5
5C2
100
AcDbEntity
  8
DRAFT
100
AcDbLine
 62
250
  6
CONTINUOUS
 10
-99.3615871536
 20
36.3
 11
-99.5143073399
 21
36.3
  0
LINE
  5
5C3
100
AcDbEntity
  8
0
100
AcDbLine
 62
7
  6
CONTINUOUS
 10
-83.9615871536
 20
37.9
 11
-81.9615871536
 21
37.9
  0
LINE
  5
5C4
100
AcDbEntity
  8
0
100
AcDbLine
 62
7
  6
CONTINUOUS
 10
-78.9615871536
 20
37.9
 11
-76.9615871536
 21
37.9
  0
LINE
  5
5C5
100
AcDbEntity
  8
0
100
AcDbLine
 62
7
  6
CONTINUOUS
 10
-73.9615871536
 20
37.9
 11
-71.9615871536
 21
37.9
  0
LINE
  5
5C6
100
AcDbEntity
  8
0
100
AcDbLine
 62
7
  6
CONTINUOUS
 10
-68.9615871536
 20
37.9
 11
-66.9615871536
 21
37.9
  0
LINE
  5
5C7
100
AcDbEntity
  8
0
100
AcDbLine
 62
7
  6
CONTINUOUS
 10
-63.9615871536
 20
37.9
 11
-61.9615871536
 21
37.9
  0
LINE
  5
5C8
100
AcDbEntity
  8
0
100
AcDbLine
 62
7
  6
CONTINUOUS
 10
-58.9615871536
 20
37.9
 11
-56.9615871536
 21
37.9
  0
LINE
  5
5C9
100
AcDbEntity
  8
0
100
AcDbLine
 62
7
  6
CONTINUOUS
 10
-53.9615871536
 20
37.9
 11
-51.9615871536
 21
37.9
  0
LINE
  5
5CA
100
AcDbEntity
  8
0
100
AcDbLine
 62
7
  6
CONTINUOUS
 10
-48.9615871536
 20
37.9
 11
-46.9615871536
 21
37.9
  0
LINE
  5
5CB
100
AcDbEntity
  8
0
100
AcDbLine
 62
7
  6
CONTINUOUS
 10
-43.9615871536
 20
37.9
 11
-41.9615871536
 21
37.9
  0
LINE
  5
5CC
100
AcDbEntity
  8
0
100
AcDbLine
 62
7
  6
CONTINUOUS
 10
-38.9615871536
 20
37.9
 11
-36.9615871536
 21
37.9
  0
LINE
  5
5CD
100
AcDbEntity
  8
0
100
AcDbLine
 62
7
  6
CONTINUOUS
 10
-33.9615871536
 20
37.9
 11
-31.9615871536
 21
37.9
  0
LINE
  5
5CE
100
AcDbEntity
  8
0
100
AcDbLine
 62
7
  6
CONTINUOUS
 10
-28.9615871536
 20
37.9
 11
-26.9615871536
 21
37.9
  0
LINE
  5
5CF
100
AcDbEntity
  8
0
100
AcDbLine
 62
7
  6
CONTINUOUS
 10
-23.9615871536
 20
37.9
 11
-21.9615871536
 21
37.9
  0
LINE
  5
5D0
100
AcDbEntity
  8
0
100
AcDbLine
 62
7
  6
CONTINUOUS
 10
-18.9615871536
 20
37.9
 11
-16.9615871536
 21
37.9
  0
LINE
  5
5D1
100
AcDbEntity
  8
0
100
AcDbLine
 62
7
  6
CONTINUOUS
 10
-13.9615871536
 20
37.9
 11
-11.9615871536
 21
37.9
  0
LINE
  5
5D2
100
AcDbEntity
  8
0
100
AcDbLine
 62
7
  6
CONTINUOUS
 10
36.0384128464
 20
37.9
 11
38.0384128464
 21
37.9
  0
LINE
  5
5D3
100
AcDbEntity
  8
0
100
AcDbLine
 62
7
  6
CONTINUOUS
 10
41.0384128464
 20
37.9
 11
43.0384128464
 21
37.9
  0
LINE
  5
5D4
100
AcDbEntity
  8
0
100
AcDbLine
 62
7
  6
CONTINUOUS
 10
46.0384128464
 20
37.9
 11
48.0384128464
 21
37.9
  0
LINE
  5
5D5
100
AcDbEntity
  8
0
100
AcDbLine
 62
7
  6
CONTINUOUS
 10
66.0384128464
 20
37.9
 11
68.0384128464
 21
37.9
  0
LINE
  5
5D6
100
AcDbEntity
  8
0
100
AcDbLine
 62
7
  6
CONTINUOUS
 10
71.0384128464
 20
37.9
 11
73.0384128464
 21
37.9
  0
LINE
  5
5D7
100
AcDbEntity
  8
0
100
AcDbLine
 62
7
  6
CONTINUOUS
 10
76.0384128464
 20
37.9
 11
78.0384128464
 21
37.9
  0
LINE
  5
5D8
100
AcDbEntity
  8
0
100
AcDbLine
 62
7
  6
CONTINUOUS
 10
81.0384128464
 20
37.9
 11
83.0384128464
 21
37.9
  0
LINE
  5
5D9
100
AcDbEntity
  8
0
100
AcDbLine
 62
7
  6
CONTINUOUS
 10
86.0384128464
 20
37.9
 11
88.0384128464
 21
37.9
  0
LINE
  5
5DA
100
AcDbEntity
  8
RACCORDO
100
AcDbLine
 62
7
  6
CONTINUOUS
 10
-90.2615871536
 20
38.9
 11
-90.6615871536
 21
38.9
  0
LINE
  5
5DB
100
AcDbEntity
  8
RACCORDO
100
AcDbLine
 62
7
  6
CONTINUOUS
 10
-102.8615871536
 20
38.9
 11
-103.2615871536
 21
38.9
  0
LINE
  5
5DC
100
AcDbEntity
  8
RACCORDO
100
AcDbLine
 62
7
  6
CONTINUOUS
 10
98.5384128464
 20
39.85
 11
98.9384128464
 21
39.85
  0
LINE
  5
5DD
100
AcDbEntity
  8
ASSI
100
AcDbLine
 62
7
  6
CONTINUOUS
 10
43.5003744947
 20
7.6552316218
 11
43.3946384947
 21
7.7609676218
  0
LINE
  5
5DE
100
AcDbEntity
  8
RACCORDO
100
AcDbLine
 62
250
  6
CONTINUOUS
 10
103.0396311924
 20
-49.4
 11
102.548302985
 21
-48.9086717926
  0
LINE
  5
5DF
100
AcDbEntity
  8
DRAFT
100
AcDbLine
 62
7
  6
CONTINUOUS
 10
42.5340384133
 20
-20.0
 11
42.5384128464
 21
-20.05
  0
LINE
  5
5E0
100
AcDbEntity
  8
DRAFT
100
AcDbLine
 62
7
  6
CONTINUOUS
 10
47.5340384133
 20
-20.0
 11
47.5384128464
 21
-20.05
  0
LINE
  5
5E1
100
AcDbEntity
  8
ASSI
100
AcDbLine
 62
7
  6
CONTINUOUS
 10
40.628282606
 20
7.4753091434
 11
40.6282824947
 21
7.4479796218
  0
LINE
  5
5E2
100
AcDbEntity
  8
ASSI
100
AcDbLine
 62
7
  6
CONTINUOUS
 10
40.6282824947
 20
7.7470446218
 11
40.6282825189
 21
7.5517267374
  0
LINE
  5
5E3
100
AcDbEntity
  8
ASSI
100
AcDbLine
 62
7
  6
CONTINUOUS
 10
40.7030494947
 20
7.3732136218
 11
40.7030495014
 21
7.4585716505
  0
LINE
  5
5E4
100
AcDbEntity
  8
ASSI
100
AcDbLine
 62
7
  6
CONTINUOUS
 10
40.7030495366
 20
7.5353238044
 11
40.7030494947
 21
7.8218116218
  0
LINE
  5
5E5
100
AcDbEntity
  8
ASSI
100
AcDbLine
 62
7
  6
CONTINUOUS
 10
40.7778154947
 20
5.5788216218
 11
40.7778154947
 21
5.3545216218
  0
LINE
  5
5E6
100
AcDbEntity
  8
ASSI
100
AcDbLine
 62
7
  6
CONTINUOUS
 10
40.8525824947
 20
5.2797546218
 11
40.8525824947
 21
5.6535866218
  0
LINE
  5
5E7
100
AcDbEntity
  8
0
100
AcDbLine
 62
7
  6
CONTINUOUS
 10
41.0384128464
 20
-32.2
 11
41.0384128464
 21
-20.0
  0
LINE
  5
5E8
100
AcDbEntity
  8
0
100
AcDbLine
 62
7
  6
CONTINUOUS
 10
41.0384128464
 20
25.7
 11
41.0384128464
 21
37.9
  0
LINE
  5
5E9
100
AcDbEntity
  8
ASSI
100
AcDbLine
 62
7
  6
CONTINUOUS
 10
41.3385634947
 20
6.4760166218
 11
41.3385634947
 21
5.7048926218
  0
LINE
  5
5EA
100
AcDbEntity
  8
ASSI
100
AcDbLine
 62
7
  6
CONTINUOUS
 10
41.4133304947
 20
5.7796586218
 11
41.4133304947
 21
6.4012496218
  0
LINE
  5
5EB
100
AcDbEntity
  8
ASSI
100
AcDbLine
 62
7
  6
CONTINUOUS
 10
41.8993104947
 20
6.7750816218
 11
41.8993106159
 21
6.8691634404
  0
LINE
  5
5EC
100
AcDbEntity
  8
ASSI
100
AcDbLine
 62
7
  6
CONTINUOUS
 10
42.1609934947
 20
6.3158516218
 11
42.1609934947
 21
5.7283536218
  0
LINE
  5
5ED
100
AcDbEntity
  8
ASSI
100
AcDbLine
 62
7
  6
CONTINUOUS
 10
42.2357604947
 20
5.6535866218
 11
42.2357604947
 21
6.3906166218
  0
LINE
  5
5EE
100
AcDbEntity
  8
DRAFT
100
AcDbLine
 62
7
  6
CONTINUOUS
 10
42.4249549244
 20
-26.7
 11
42.4249549244
 21
-25.4
  0
LINE
  5
5EF
100
AcDbEntity
  8
0
100
AcDbLine
 62
7
  6
CONTINUOUS
 10
43.0384128464
 20
37.9
 11
43.0384128464
 21
25.7
  0
LINE
  5
5F0
100
AcDbEntity
  8
0
100
AcDbLine
 62
7
  6
CONTINUOUS
 10
43.0384128464
 20
-20.0
 11
43.0384128464
 21
-32.2
  0
LINE
  5
5F1
100
AcDbEntity
  8
ASSI
100
AcDbLine
 62
7
  6
CONTINUOUS
 10
43.0384128464
 20
-2.122628
 11
43.0384128464
 21
-0.622628
  0
LINE
  5
5F2
100
AcDbEntity
  8
0
100
AcDbLine
 62
7
  6
CONTINUOUS
 10
46.0384128464
 20
-32.2
 11
46.0384128464
 21
-20.0
  0
LINE
  5
5F3
100
AcDbEntity
  8
0
100
AcDbLine
 62
7
  6
CONTINUOUS
 10
46.0384128464
 20
25.7
 11
46.0384128464
 21
37.9
  0
LINE
  5
5F4
100
AcDbEntity
  8
DRAFT
100
AcDbLine
 62
7
  6
CONTINUOUS
 10
47.4249549244
 20
-26.7
 11
47.4249549244
 21
-25.4
  0
LINE
  5
5F5
100
AcDbEntity
  8
0
100
AcDbLine
 62
7
  6
CONTINUOUS
 10
48.0384128464
 20
37.9
 11
48.0384128464
 21
25.7
  0
LINE
  5
5F6
100
AcDbEntity
  8
0
100
AcDbLine
 62
7
  6
CONTINUOUS
 10
48.0384128464
 20
-20.0
 11
48.0384128464
 21
-32.2
  0
LINE
  5
5F7
100
AcDbEntity
  8
ASSI
100
AcDbLine
 62
7
  6
CONTINUOUS
 10
41.5899094947
 20
6.7750816218
 11
41.5637434947
 21
6.4760166218
  0
LINE
  5
5F8
100
AcDbEntity
  8
ASSI
100
AcDbLine
 62
7
  6
CONTINUOUS
 10
41.4911254947
 20
5.6459836218
 11
41.2730664947
 21
3.1535666218
  0
LINE
  5
5F9
100
AcDbEntity
  8
ASSI
100
AcDbLine
 62
7
  6
CONTINUOUS
 10
41.2560544947
 20
2.9591076218
 11
41.2086654288
 21
2.4174528691
  0
LINE
  5
5FA
100
AcDbEntity
  8
ASSI
100
AcDbLine
 62
7
  6
CONTINUOUS
 10
41.5572024947
 20
6.4012496218
 11
41.5114004947
 21
5.8777296218
  0
LINE
  5
5FB
100
AcDbEntity
  8
ASSI
100
AcDbLine
 62
7
  6
CONTINUOUS
 10
41.5936484947
 20
5.9599766218
 11
41.6322554947
 21
6.4012496218
  0
LINE
  5
5FC
100
AcDbEntity
  8
ASSI
100
AcDbLine
 62
7
  6
CONTINUOUS
 10
41.6387954947
 20
6.4760166218
 11
41.6649604947
 21
6.7750816218
  0
LINE
  5
5FD
100
AcDbEntity
  8
ASSI
100
AcDbLine
 62
7
  6
CONTINUOUS
 10
41.3420814947
 20
3.0845516218
 11
41.5668424947
 21
5.6535866218
  0
LINE
  5
5FE
100
AcDbEntity
  8
ASSI
100
AcDbLine
 62
7
  6
CONTINUOUS
 10
41.282774385
 20
2.4066660857
 11
41.3250684947
 21
2.8900946218
  0
LINE
  5
5FF
100
AcDbEntity
  8
DRAFT
100
AcDbLine
 62
7
  6
CONTINUOUS
 10
47.5384128464
 20
25.75
 11
47.5340384133
 21
25.7
  0
LINE
  5
600
100
AcDbEntity
  8
ASSI
100
AcDbLine
 62
7
  6
CONTINUOUS
 10
51.4098642199
 20
3.4761252653
 11
50.8571381451
 21
2.2513941147
  0
LINE
  5
601
100
AcDbEntity
  8
ASSI
100
AcDbLine
 62
7
  6
CONTINUOUS
 10
50.3239132487
 20
1.0698736077
 11
49.7508144212
 21
-0.2
  0
LINE
  5
602
100
AcDbEntity
  8
ASSI
100
AcDbLine
 62
7
  6
CONTINUOUS
 10
51.4889482652
 20
1.2964203239
 11
51.7194581476
 21
1.7745268551
  0
LINE
  5
603
100
AcDbEntity
  8
ASSI
100
AcDbLine
 62
7
  6
CONTINUOUS
 10
50.767480358
 20
-0.2
 11
51.0378678594
 21
0.3608192328
  0
LINE
  5
604
100
AcDbEntity
  8
RACCORDO
100
AcDbLine
 62
250
  6
CONTINUOUS
 10
-102.6117698447
 20
20.85
 11
-102.4714772921
 21
20.8850597818
  0
LINE
  5
605
100
AcDbEntity
  8
RACCORDO
100
AcDbLine
 62
250
  6
CONTINUOUS
 10
-104.6797835631
 20
22.8326224212
 11
-104.4702589461
 21
22.8849836279
  0
LINE
  5
606
100
AcDbEntity
  8
RACCORDO
100
AcDbLine
 62
250
  6
CONTINUOUS
 10
102.548302985
 20
20.8850597818
 11
102.6885955376
 21
20.85
  0
LINE
  5
607
100
AcDbEntity
  8
RACCORDO
100
AcDbLine
 62
250
  6
CONTINUOUS
 10
104.547084639
 20
22.8849836279
 11
104.7566092559
 21
22.8326224212
  0
LINE
  5
608
100
AcDbEntity
  8
RACCORDO
100
AcDbLine
 62
250
  6
CONTINUOUS
 10
105.0384128464
 20
-47.401218346
 11
104.547084639
 21
-46.9098901385
  0
LINE
  5
609
100
AcDbEntity
  8
RACCORDO
100
AcDbLine
 62
250
  6
CONTINUOUS
 10
50.5384128464
 20
-15.1501523106
 11
50.5384128464
 21
-49.0483548705
  0
LINE
  5
60A
100
AcDbEntity
  8
RACCORDO
100
AcDbLine
 62
250
  6
CONTINUOUS
 10
50.5384128464
 20
20.8501523106
 11
50.5384128464
 21
54.7483548705
  0
LINE
  5
60B
100
AcDbEntity
  8
RACCORDO
100
AcDbLine
 62
7
  6
CONTINUOUS
 10
52.5384128464
 20
-46.9797316775
 11
52.5384128464
 21
-17.1675298924
  0
LINE
  5
60C
100
AcDbEntity
  8
RACCORDO
100
AcDbLine
 62
7
  6
CONTINUOUS
 10
52.5384128464
 20
22.8675298924
 11
52.5384128464
 21
52.6797316775
  0
LINE
  5
60D
100
AcDbEntity
  8
ASSI
100
AcDbLine
 62
7
  6
CONTINUOUS
 10
52.8008144205
 20
-0.2
 11
52.8008144205
 21
0.8166670313
  0
LINE
  5
60E
100
AcDbEntity
  8
ASSI
100
AcDbLine
 62
7
  6
CONTINUOUS
 10
52.8008144205
 20
4.8833340618
 11
52.8008144205
 21
5.8999999985
  0
LINE
  5
60F
100
AcDbEntity
  8
RACCORDO
100
AcDbLine
 62
7
  6
CONTINUOUS
 10
98.9384128464
 20
48.85
 11
98.5384128464
 21
48.85
  0
LINE
  5
610
100
AcDbEntity
  8
RACCORDO
100
AcDbLine
 62
250
  6
CONTINUOUS
 10
62.5384128464
 20
52.6098901385
 11
104.547084639
 21
52.6098901384
  0
LINE
  5
611
100
AcDbEntity
  8
RACCORDO
100
AcDbLine
 62
250
  6
CONTINUOUS
 10
52.5384128464
 20
52.6098901385
 11
-104.4702589461
 21
52.6098901385
  0
LINE
  5
612
100
AcDbEntity
  8
RACCORDO
100
AcDbLine
 62
250
  6
CONTINUOUS
 10
62.5396311924
 20
52.7495732165
 11
52.5371945005
 21
52.7495732165
  0
LINE
  5
613
100
AcDbEntity
  8
RACCORDO
100
AcDbLine
 62
250
  6
CONTINUOUS
 10
102.548302985
 20
54.6086717926
 11
64.5384128464
 21
54.6086717926
  0
LINE
  5
614
100
AcDbEntity
  8
RACCORDO
100
AcDbLine
 62
250
  6
CONTINUOUS
 10
50.5384128464
 20
54.6086717926
 11
-102.4714772921
 21
54.6086717926
  0
LINE
  5
615
100
AcDbEntity
  8
RACCORDO
100
AcDbLine
 62
250
  6
CONTINUOUS
 10
64.5384128464
 20
54.7483548705
 11
50.5384128464
 21
54.7483548705
  0
LINE
  5
616
100
AcDbEntity
  8
RACCORDO
100
AcDbLine
 62
7
  6
CONTINUOUS
 10
-103.461644269
 20
55.1
 11
103.5384699618
 21
55.1
  0
LINE
  5
617
100
AcDbEntity
  8
RACCORDO
100
AcDbLine
 62
7
  6
CONTINUOUS
 10
62.5384128464
 20
52.6797316775
 11
62.5384128464
 21
22.8675298924
  0
LINE
  5
618
100
AcDbEntity
  8
RACCORDO
100
AcDbLine
 62
7
  6
CONTINUOUS
 10
62.5384128464
 20
-17.1675298924
 11
62.5384128464
 21
-46.9797316775
  0
LINE
  5
619
100
AcDbEntity
  8
DRAFT
100
AcDbLine
 62
7
  6
CONTINUOUS
 10
67.5340384133
 20
-20.0
 11
67.5384128464
 21
-20.05
  0
LINE
  5
61A
100
AcDbEntity
  8
DRAFT
100
AcDbLine
 62
7
  6
CONTINUOUS
 10
72.5340384133
 20
-20.0
 11
72.5384128464
 21
-20.05
  0
LINE
  5
61B
100
AcDbEntity
  8
RACCORDO
100
AcDbLine
 62
250
  6
CONTINUOUS
 10
64.5384128464
 20
-15.1501523106
 11
64.5384128464
 21
-49.0483548705
  0
LINE
  5
61C
100
AcDbEntity
  8
RACCORDO
100
AcDbLine
 62
250
  6
CONTINUOUS
 10
64.5384128464
 20
20.8501523106
 11
64.5384128464
 21
54.7483548705
  0
LINE
  5
61D
100
AcDbEntity
  8
0
100
AcDbLine
 62
7
  6
CONTINUOUS
 10
66.0384128464
 20
-32.2
 11
66.0384128464
 21
-20.0
  0
LINE
  5
61E
100
AcDbEntity
  8
0
100
AcDbLine
 62
7
  6
CONTINUOUS
 10
66.0384128464
 20
25.7
 11
66.0384128464
 21
37.9
  0
LINE
  5
61F
100
AcDbEntity
  8
DRAFT
100
AcDbLine
 62
7
  6
CONTINUOUS
 10
67.4249549244
 20
-26.7
 11
67.4249549244
 21
-25.4
  0
LINE
  5
620
100
AcDbEntity
  8
0
100
AcDbLine
 62
7
  6
CONTINUOUS
 10
68.0384128464
 20
37.9
 11
68.0384128464
 21
25.7
  0
LINE
  5
621
100
AcDbEntity
  8
0
100
AcDbLine
 62
7
  6
CONTINUOUS
 10
68.0384128464
 20
-20.0
 11
68.0384128464
 21
-32.2
  0
LINE
  5
622
100
AcDbEntity
  8
0
100
AcDbLine
 62
7
  6
CONTINUOUS
 10
71.0384128464
 20
-32.2
 11
71.0384128464
 21
-20.0
  0
LINE
  5
623
100
AcDbEntity
  8
0
100
AcDbLine
 62
7
  6
CONTINUOUS
 10
71.0384128464
 20
25.7
 11
71.0384128464
 21
37.9
  0
LINE
  5
624
100
AcDbEntity
  8
DRAFT
100
AcDbLine
 62
7
  6
CONTINUOUS
 10
72.0384128464
 20
-32.2
 11
72.0384128464
 21
-29.4
  0
LINE
  5
625
100
AcDbEntity
  8
DRAFT
100
AcDbLine
 62
7
  6
CONTINUOUS
 10
67.5384128464
 20
25.75
 11
67.5340384133
 21
25.7
  0
LINE
  5
626
100
AcDbEntity
  8
DRAFT
100
AcDbLine
 62
7
  6
CONTINUOUS
 10
72.5384128464
 20
25.75
 11
72.5340384133
 21
25.7
  0
LINE
  5
627
100
AcDbEntity
  8
DRAFT
100
AcDbLine
 62
7
  6
CONTINUOUS
 10
77.5340384133
 20
-20.0
 11
77.5384128464
 21
-20.05
  0
LINE
  5
628
100
AcDbEntity
  8
DRAFT
100
AcDbLine
 62
7
  6
CONTINUOUS
 10
72.4249549244
 20
-26.7
 11
72.4249549244
 21
-25.4
  0
LINE
  5
629
100
AcDbEntity
  8
0
100
AcDbLine
 62
7
  6
CONTINUOUS
 10
73.0384128464
 20
37.9
 11
73.0384128464
 21
25.7
  0
LINE
  5
62A
100
AcDbEntity
  8
0
100
AcDbLine
 62
7
  6
CONTINUOUS
 10
73.0384128464
 20
-20.0
 11
73.0384128464
 21
-32.2
  0
LINE
  5
62B
100
AcDbEntity
  8
RACCORDO
100
AcDbLine
 62
7
  6
CONTINUOUS
 10
73.5384128464
 20
-33.75
 11
73.5384128464
 21
-34.15
  0
LINE
  5
62C
100
AcDbEntity
  8
RACCORDO
100
AcDbLine
 62
7
  6
CONTINUOUS
 10
73.5384128464
 20
-46.15
 11
73.5384128464
 21
-46.55
  0
LINE
  5
62D
100
AcDbEntity
  8
0
100
AcDbLine
 62
7
  6
CONTINUOUS
 10
76.0384128464
 20
-32.2
 11
76.0384128464
 21
-20.0
  0
LINE
  5
62E
100
AcDbEntity
  8
0
100
AcDbLine
 62
7
  6
CONTINUOUS
 10
76.0384128464
 20
25.7
 11
76.0384128464
 21
37.9
  0
LINE
  5
62F
100
AcDbEntity
  8
DRAFT
100
AcDbLine
 62
250
  6
CONTINUOUS
 10
76.1384128464
 20
-37.55
 11
76.1384128464
 21
-37.3972798137
  0
LINE
  5
630
100
AcDbEntity
  8
DRAFT
100
AcDbLine
 62
250
  6
CONTINUOUS
 10
76.1384128464
 20
-42.75
 11
76.1384128464
 21
-42.9027201863
  0
LINE
  5
631
100
AcDbEntity
  8
DRAFT
100
AcDbLine
 62
7
  6
CONTINUOUS
 10
77.4249549244
 20
-26.7
 11
77.4249549244
 21
-25.4
  0
LINE
  5
632
100
AcDbEntity
  8
0
100
AcDbLine
 62
7
  6
CONTINUOUS
 10
78.0384128464
 20
37.9
 11
78.0384128464
 21
25.7
  0
LINE
  5
633
100
AcDbEntity
  8
0
100
AcDbLine
 62
7
  6
CONTINUOUS
 10
78.0384128464
 20
-20.0
 11
78.0384128464
 21
-32.2
  0
LINE
  5
634
100
AcDbEntity
  8
DRAFT
100
AcDbLine
 62
7
  6
CONTINUOUS
 10
77.5384128464
 20
25.75
 11
77.5340384133
 21
25.7
  0
LINE
  5
635
100
AcDbEntity
  8
DRAFT
100
AcDbLine
 62
7
  6
CONTINUOUS
 10
82.5384128464
 20
25.75
 11
82.5340384133
 21
25.7
  0
LINE
  5
636
100
AcDbEntity
  8
DRAFT
100
AcDbLine
 62
7
  6
CONTINUOUS
 10
82.5340384133
 20
-20.0
 11
82.5384128464
 21
-20.05
  0
LINE
  5
637
100
AcDbEntity
  8
DRAFT
100
AcDbLine
 62
7
  6
CONTINUOUS
 10
87.5340384133
 20
-20.0
 11
87.5384128464
 21
-20.05
  0
LINE
  5
638
100
AcDbEntity
  8
DRAFT
100
AcDbLine
 62
250
  6
CONTINUOUS
 10
80.9384128464
 20
-37.55
 11
80.9384128464
 21
-37.3972798137
  0
LINE
  5
639
100
AcDbEntity
  8
DRAFT
100
AcDbLine
 62
250
  6
CONTINUOUS
 10
80.9384128464
 20
-42.75
 11
80.9384128464
 21
-42.9027201863
  0
LINE
  5
63A
100
AcDbEntity
  8
0
100
AcDbLine
 62
7
  6
CONTINUOUS
 10
81.0384128464
 20
-32.2
 11
81.0384128464
 21
-20.0
  0
LINE
  5
63B
100
AcDbEntity
  8
0
100
AcDbLine
 62
7
  6
CONTINUOUS
 10
81.0384128464
 20
25.7
 11
81.0384128464
 21
37.9
  0
LINE
  5
63C
100
AcDbEntity
  8
DRAFT
100
AcDbLine
 62
7
  6
CONTINUOUS
 10
82.4249549244
 20
-26.7
 11
82.4249549244
 21
-25.4
  0
LINE
  5
63D
100
AcDbEntity
  8
0
100
AcDbLine
 62
7
  6
CONTINUOUS
 10
83.0384128464
 20
37.9
 11
83.0384128464
 21
25.7
  0
LINE
  5
63E
100
AcDbEntity
  8
0
100
AcDbLine
 62
7
  6
CONTINUOUS
 10
83.0384128464
 20
-20.0
 11
83.0384128464
 21
-32.2
  0
LINE
  5
63F
100
AcDbEntity
  8
RACCORDO
100
AcDbLine
 62
7
  6
CONTINUOUS
 10
83.5384128464
 20
-46.55
 11
83.5384128464
 21
-46.15
  0
LINE
  5
640
100
AcDbEntity
  8
RACCORDO
100
AcDbLine
 62
7
  6
CONTINUOUS
 10
83.5384128464
 20
-34.15
 11
83.5384128464
 21
-33.75
  0
LINE
  5
641
100
AcDbEntity
  8
0
100
AcDbLine
 62
7
  6
CONTINUOUS
 10
86.0384128464
 20
-32.2
 11
86.0384128464
 21
-20.0
  0
LINE
  5
642
100
AcDbEntity
  8
0
100
AcDbLine
 62
7
  6
CONTINUOUS
 10
86.0384128464
 20
25.7
 11
86.0384128464
 21
37.9
  0
LINE
  5
643
100
AcDbEntity
  8
DRAFT
100
AcDbLine
 62
7
  6
CONTINUOUS
 10
87.0384128464
 20
-20.0
 11
87.0384128464
 21
-22.15
  0
LINE
  5
644
100
AcDbEntity
  8
DRAFT
100
AcDbLine
 62
7
  6
CONTINUOUS
 10
87.0384128464
 20
25.7
 11
87.0384128464
 21
27.85
  0
LINE
  5
645
100
AcDbEntity
  8
0
100
AcDbLine
 62
7
  6
CONTINUOUS
 10
88.0384128464
 20
37.9
 11
88.0384128464
 21
25.7
  0
LINE
  5
646
100
AcDbEntity
  8
0
100
AcDbLine
 62
7
  6
CONTINUOUS
 10
88.0384128464
 20
-20.0
 11
88.0384128464
 21
-32.2
  0
LINE
  5
647
100
AcDbEntity
  8
DRAFT
100
AcDbLine
 62
7
  6
CONTINUOUS
 10
87.5384128464
 20
25.75
 11
87.5340384133
 21
25.7
  0
LINE
  5
648
100
AcDbEntity
  8
DRAFT
100
AcDbLine
 62
7
  6
CONTINUOUS
 10
93.7384128464
 20
20.85
 11
93.7384128464
 21
17.75
  0
LINE
  5
649
100
AcDbEntity
  8
RACCORDO
100
AcDbLine
 62
7
  6
CONTINUOUS
 10
94.1384128464
 20
18.15
 11
94.1384128464
 21
22.8849836279
  0
LINE
  5
64A
100
AcDbEntity
  8
RACCORDO
100
AcDbLine
 62
7
  6
CONTINUOUS
 10
97.0384128464
 20
-53.1
 11
97.0384128464
 21
-49.4
  0
LINE
  5
64B
100
AcDbEntity
  8
RACCORDO
100
AcDbLine
 62
7
  6
CONTINUOUS
 10
98.0384128464
 20
48.35
 11
98.0384128464
 21
40.35
  0
LINE
  5
64C
100
AcDbEntity
  8
RACCORDO
100
AcDbLine
 62
250
  6
CONTINUOUS
 10
98.5384128464
 20
48.85
 11
98.5384128464
 21
39.85
  0
LINE
  5
64D
100
AcDbEntity
  8
RACCORDO
100
AcDbLine
 62
7
  6
CONTINUOUS
 10
98.5384128464
 20
-49.4
 11
98.5384128464
 21
-51.6
  0
LINE
  5
64E
100
AcDbEntity
  8
RACCORDO
100
AcDbLine
 62
250
  6
CONTINUOUS
 10
98.9384128464
 20
39.85
 11
98.9384128464
 21
48.85
  0
LINE
  5
64F
100
AcDbEntity
  8
RACCORDO
100
AcDbLine
 62
7
  6
CONTINUOUS
 10
99.4384128464
 20
40.35
 11
99.4384128464
 21
48.35
  0
LINE
  5
650
100
AcDbEntity
  8
DRAFT
100
AcDbLine
 62
7
  6
CONTINUOUS
 10
100.2747067116
 20
18.15
 11
100.2747067116
 21
17.75
  0
LINE
  5
651
100
AcDbEntity
  8
DRAFT
100
AcDbLine
 62
7
  6
CONTINUOUS
 10
100.3384128464
 20
18.15
 11
100.3384128464
 21
17.75
  0
LINE
  5
652
100
AcDbEntity
  8
RACCORDO
100
AcDbLine
 62
7
  6
CONTINUOUS
 10
101.0384128464
 20
-52.2
 11
101.0384128464
 21
-53.1
  0
LINE
  5
653
100
AcDbEntity
  8
RACCORDO
100
AcDbLine
 62
7
  6
CONTINUOUS
 10
102.1384128464
 20
18.15
 11
102.1384128464
 21
22.8849836279
  0
LINE
  5
654
100
AcDbEntity
  8
DRAFT
100
AcDbLine
 62
7
  6
CONTINUOUS
 10
102.4982661971
 20
20.818583276
 11
102.4982661971
 21
17.75
  0
LINE
  5
655
100
AcDbEntity
  8
DRAFT
100
AcDbLine
 62
7
  6
CONTINUOUS
 10
102.5384128464
 20
20.818583276
 11
102.5384128464
 21
17.75
  0
LINE
  5
656
100
AcDbEntity
  8
RACCORDO
100
AcDbLine
 62
250
  6
CONTINUOUS
 10
102.548302985
 20
-15.1850597818
 11
102.5483029848
 21
-48.9086717926
  0
LINE
  5
657
100
AcDbEntity
  8
RACCORDO
100
AcDbLine
 62
250
  6
CONTINUOUS
 10
102.548302985
 20
20.8850597818
 11
102.548302985
 21
54.6086717926
  0
LINE
  5
658
100
AcDbEntity
  8
DRAFT
100
AcDbLine
 62
7
  6
CONTINUOUS
 10
102.555866582
 20
20.85
 11
102.555866582
 21
17.75
  0
LINE
  5
659
100
AcDbEntity
  8
RACCORDO
100
AcDbLine
 62
250
  6
CONTINUOUS
 10
102.7578276019
 20
20.8511972268
 11
102.7578276019
 21
-15.1511972268
  0
LINE
  5
65A
100
AcDbEntity
  8
RACCORDO
100
AcDbLine
 62
250
  6
CONTINUOUS
 10
104.547084639
 20
-46.9098901385
 11
104.547084639
 21
-17.1849836279
  0
LINE
  5
65B
100
AcDbEntity
  8
RACCORDO
100
AcDbLine
 62
250
  6
CONTINUOUS
 10
104.547084639
 20
22.8849836279
 11
104.547084639
 21
52.6098901385
  0
LINE
  5
65C
100
AcDbEntity
  8
RACCORDO
100
AcDbLine
 62
250
  6
CONTINUOUS
 10
104.7566092559
 20
22.8326224212
 11
104.7566092559
 21
-17.1326224212
  0
LINE
  5
65D
100
AcDbEntity
  8
RACCORDO
100
AcDbLine
 62
7
  6
CONTINUOUS
 10
105.0384128464
 20
53.6000571154
 11
105.0384128464
 21
-47.9000571154
  0
ARC
  5
65E
100
AcDbEntity
  8
RACCORDO
100
AcDbCircle
 62
250
  6
CONTINUOUS
 10
-102.4685845173
 20
-46.9069973638
 40
2.0016807752
100
AcDbArc
 50
180.0828025113
 51
269.9171974887
  0
ARC
  5
65F
100
AcDbEntity
  8
RACCORDO
100
AcDbCircle
 62
250
  6
CONTINUOUS
 10
-10.1822019507
 20
-17.1852291328
 40
2.0001773489
100
AcDbArc
 50
0.007032546
 51
89.985967121
  0
ARC
  5
660
100
AcDbEntity
  8
RACCORDO
100
AcDbCircle
 62
250
  6
CONTINUOUS
 10
-102.4701329404
 20
-17.1851060895
 40
2.0000883033
100
AcDbArc
 50
90.0385119417
 51
179.9964919543
  0
ARC
  5
661
100
AcDbEntity
  8
RACCORDO
100
AcDbCircle
 62
250
  6
CONTINUOUS
 10
-7.2109374695
 20
-46.9092368712
 40
1.9993911058
100
AcDbArc
 50
269.9813826644
 51
359.9812791887
  0
ARC
  5
662
100
AcDbEntity
  8
RACCORDO
100
AcDbCircle
 62
7
  6
CONTINUOUS
 10
-98.8615871536
 20
-42.65
 40
0.5
100
AcDbArc
 50
180.0
 51
270.0
  0
ARC
  5
663
100
AcDbEntity
  8
RACCORDO
100
AcDbCircle
 62
7
  6
CONTINUOUS
 10
-98.8615871536
 20
-34.65
 40
0.5
100
AcDbArc
 50
90.0
 51
180.0
  0
ARC
  5
664
100
AcDbEntity
  8
RACCORDO
100
AcDbCircle
 62
7
  6
CONTINUOUS
 10
-98.4615871536
 20
-42.65
 40
0.5
100
AcDbArc
 50
270.0
 51
360.0
  0
ARC
  5
665
100
AcDbEntity
  8
RACCORDO
100
AcDbCircle
 62
7
  6
CONTINUOUS
 10
-98.4615871536
 20
-34.65
 40
0.5
100
AcDbArc
 50
0.0
 51
90.0
  0
ARC
  5
666
100
AcDbEntity
  8
ASSI
100
AcDbCircle
 62
7
  6
CONTINUOUS
 10
-11.3820046944
 20
0.9646458886
 40
3.9364146972
100
AcDbArc
 50
159.0191965858
 51
163.7921491218
  0
ARC
  5
667
100
AcDbEntity
  8
ASSI
100
AcDbCircle
 62
7
  6
CONTINUOUS
 10
-51.9027403415
 20
0.9646458886
 40
3.9364146972
100
AcDbArc
 50
159.0191965858
 51
163.7921491218
  0
ARC
  5
668
100
AcDbEntity
  8
ASSI
100
AcDbCircle
 62
7
  6
CONTINUOUS
 10
-60.1499154021
 20
0.9646458886
 40
3.9364146972
100
AcDbArc
 50
159.0191965858
 51
163.7921491218
  0
ARC
  5
669
100
AcDbEntity
  8
ASSI
100
AcDbCircle
 62
7
  6
CONTINUOUS
 10
-75.3177968071
 20
0.9646458886
 40
3.9364146972
100
AcDbArc
 50
159.0191965858
 51
163.7921491218
  0
ARC
  5
66A
100
AcDbEntity
  8
DRAFT
100
AcDbCircle
 62
7
  6
CONTINUOUS
 10
-96.7615871536
 20
36.3
 40
2.7527201863
100
AcDbArc
 50
0.0
 51
180.0
  0
ARC
  5
66B
100
AcDbEntity
  8
DRAFT
100
AcDbCircle
 62
7
  6
CONTINUOUS
 10
-96.7615871536
 20
31.5
 40
2.7527201863
100
AcDbArc
 50
180.0
 51
360.0
  0
ARC
  5
66C
100
AcDbEntity
  8
DRAFT
100
AcDbCircle
 62
7
  6
CONTINUOUS
 10
-96.7615871536
 20
31.5
 40
2.6
100
AcDbArc
 50
180.0
 51
360.0
  0
ARC
  5
66D
100
AcDbEntity
  8
DRAFT
100
AcDbCircle
 62
7
  6
CONTINUOUS
 10
-96.7615871536
 20
36.3
 40
2.6
100
AcDbArc
 50
0.0
 51
180.0
  0
ARC
  5
66E
100
AcDbEntity
  8
ASSI
100
AcDbCircle
 62
7
  6
CONTINUOUS
 10
-11.7115414401
 20
4.0190921041
 40
2.159209266
100
AcDbArc
 50
337.4191892411
 51
347.6454766647
  0
ARC
  5
66F
100
AcDbEntity
  8
ASSI
100
AcDbCircle
 62
7
  6
CONTINUOUS
 10
-19.8087678632
 20
4.0190921041
 40
2.159209266
100
AcDbArc
 50
337.4191892411
 51
347.6454766647
  0
ARC
  5
670
100
AcDbEntity
  8
ASSI
100
AcDbCircle
 62
7
  6
CONTINUOUS
 10
-31.5855031595
 20
4.0190921041
 40
2.159209266
100
AcDbArc
 50
337.4191892411
 51
347.6454766647
  0
ARC
  5
671
100
AcDbEntity
  8
ASSI
100
AcDbCircle
 62
7
  6
CONTINUOUS
 10
-48.1144568123
 20
4.0190921041
 40
2.159209266
100
AcDbArc
 50
337.4191892411
 51
347.6454766647
  0
ARC
  5
672
100
AcDbEntity
  8
ASSI
100
AcDbCircle
 62
7
  6
CONTINUOUS
 10
-63.5707009817
 20
4.0190921041
 40
2.159209266
100
AcDbArc
 50
337.4191892411
 51
347.6454766647
  0
ARC
  5
673
100
AcDbEntity
  8
ASSI
100
AcDbCircle
 62
7
  6
CONTINUOUS
 10
-68.5766785709
 20
4.0190921041
 40
2.159209266
100
AcDbArc
 50
337.4191892411
 51
347.6454766647
  0
ARC
  5
674
100
AcDbEntity
  8
ASSI
100
AcDbCircle
 62
7
  6
CONTINUOUS
 10
-76.5239563565
 20
4.0190921041
 40
2.159209266
100
AcDbArc
 50
337.4191892411
 51
347.6454766647
  0
ARC
  5
675
100
AcDbEntity
  8
RACCORDO
100
AcDbCircle
 62
250
  6
CONTINUOUS
 10
-102.4685845172
 20
52.6069973636
 40
2.0016807754
100
AcDbArc
 50
90.0828025153
 51
179.9171974847
  0
ARC
  5
676
100
AcDbEntity
  8
RACCORDO
100
AcDbCircle
 62
250
  6
CONTINUOUS
 10
-102.4701329457
 20
22.885106092
 40
2.0000883037
100
AcDbArc
 50
180.0035081149
 51
269.9614882102
  0
ARC
  5
677
100
AcDbEntity
  8
RACCORDO
100
AcDbCircle
 62
7
  6
CONTINUOUS
 10
-102.8615871536
 20
29.4
 40
0.5
100
AcDbArc
 50
270.0
 51
360.0
  0
ARC
  5
678
100
AcDbEntity
  8
RACCORDO
100
AcDbCircle
 62
7
  6
CONTINUOUS
 10
-102.8615871536
 20
38.4
 40
0.5
100
AcDbArc
 50
0.0
 51
90.0
  0
ARC
  5
679
100
AcDbEntity
  8
RACCORDO
100
AcDbCircle
 62
7
  6
CONTINUOUS
 10
-90.6615871536
 20
29.4
 40
0.5
100
AcDbArc
 50
180.0
 51
270.0
  0
ARC
  5
67A
100
AcDbEntity
  8
RACCORDO
100
AcDbCircle
 62
7
  6
CONTINUOUS
 10
-90.6615871536
 20
38.4
 40
0.5
100
AcDbArc
 50
90.0
 51
180.0
  0
ARC
  5
67B
100
AcDbEntity
  8
RACCORDO
100
AcDbCircle
 62
7
  6
CONTINUOUS
 10
-90.2615871536
 20
29.4
 40
0.5
100
AcDbArc
 50
270.0
 51
360.0
  0
ARC
  5
67C
100
AcDbEntity
  8
RACCORDO
100
AcDbCircle
 62
7
  6
CONTINUOUS
 10
-90.2615871536
 20
38.4
 40
0.5
100
AcDbArc
 50
0.0
 51
90.0
  0
ARC
  5
67D
100
AcDbEntity
  8
RACCORDO
100
AcDbCircle
 62
7
  6
CONTINUOUS
 10
-103.2615871536
 20
38.4
 40
0.5
100
AcDbArc
 50
90.0
 51
180.0
  0
ARC
  5
67E
100
AcDbEntity
  8
RACCORDO
100
AcDbCircle
 62
7
  6
CONTINUOUS
 10
-103.2615871536
 20
29.4
 40
0.5
100
AcDbArc
 50
180.0
 51
270.0
  0
ARC
  5
67F
100
AcDbEntity
  8
RACCORDO
100
AcDbCircle
 62
7
  6
CONTINUOUS
 10
91.0384128464
 20
-22.15
 40
4.0
100
AcDbArc
 50
180.0
 51
221.3939685908
  0
ARC
  5
680
100
AcDbEntity
  8
DRAFT
100
AcDbCircle
 62
7
  6
CONTINUOUS
 10
80.9384128464
 20
-40.15
 40
2.7527201863
100
AcDbArc
 50
270.0
 51
90.0
  0
ARC
  5
681
100
AcDbEntity
  8
DRAFT
100
AcDbCircle
 62
7
  6
CONTINUOUS
 10
76.1384128464
 20
-40.15
 40
2.7527201863
100
AcDbArc
 50
90.0
 51
270.0
  0
ARC
  5
682
100
AcDbEntity
  8
DRAFT
100
AcDbCircle
 62
7
  6
CONTINUOUS
 10
76.1384128464
 20
-40.15
 40
2.6
100
AcDbArc
 50
119.9254616586
 51
270.0
  0
ARC
  5
683
100
AcDbEntity
  8
DRAFT
100
AcDbCircle
 62
7
  6
CONTINUOUS
 10
80.9384128464
 20
-40.15
 40
2.6
100
AcDbArc
 50
270.0
 51
60.0745383414
  0
ARC
  5
684
100
AcDbEntity
  8
RACCORDO
100
AcDbCircle
 62
250
  6
CONTINUOUS
 10
102.5453742655
 20
-46.9069614191
 40
2.00172501
100
AcDbArc
 50
270.0838298822
 51
359.9161701178
  0
ARC
  5
685
100
AcDbEntity
  8
RACCORDO
100
AcDbCircle
 62
250
  6
CONTINUOUS
 10
10.2590276436
 20
-17.1852291328
 40
2.0001773489
100
AcDbArc
 50
90.0140328791
 51
179.9929674541
  0
ARC
  5
686
100
AcDbEntity
  8
RACCORDO
100
AcDbCircle
 62
250
  6
CONTINUOUS
 10
102.5469586333
 20
-17.1851060895
 40
2.0000883033
100
AcDbArc
 50
0.0035080454
 51
89.9614880586
  0
ARC
  5
687
100
AcDbEntity
  8
RACCORDO
100
AcDbCircle
 62
250
  6
CONTINUOUS
 10
50.5384509227
 20
-17.1850217056
 40
1.9999619242
100
AcDbArc
 50
0.0010908654
 51
90.0010908239
  0
ARC
  5
688
100
AcDbEntity
  8
RACCORDO
100
AcDbCircle
 62
250
  6
CONTINUOUS
 10
64.5383747702
 20
-17.1850217056
 40
1.9999619242
100
AcDbArc
 50
89.9989091761
 51
179.9989091346
  0
ARC
  5
689
100
AcDbEntity
  8
RACCORDO
100
AcDbCircle
 62
250
  6
CONTINUOUS
 10
50.5390625328
 20
-46.909236866
 40
1.9993911054
100
AcDbArc
 50
269.9813825966
 51
359.9812790404
  0
ARC
  5
68A
100
AcDbEntity
  8
RACCORDO
100
AcDbCircle
 62
250
  6
CONTINUOUS
 10
64.5377631601
 20
-46.909236866
 40
1.9993911054
100
AcDbArc
 50
180.0187209605
 51
270.0186174025
  0
ARC
  5
68B
100
AcDbEntity
  8
RACCORDO
100
AcDbCircle
 62
250
  6
CONTINUOUS
 10
7.2877631624
 20
-46.9092368712
 40
1.9993911058
100
AcDbArc
 50
180.0187208112
 51
270.0186173358
  0
ARC
  5
68C
100
AcDbEntity
  8
RACCORDO
100
AcDbCircle
 62
7
  6
CONTINUOUS
 10
83.0384128464
 20
-46.15
 40
0.5
100
AcDbArc
 50
0.0
 51
90.0
  0
ARC
  5
68D
100
AcDbEntity
  8
RACCORDO
100
AcDbCircle
 62
7
  6
CONTINUOUS
 10
74.0384128464
 20
-46.15
 40
0.5
100
AcDbArc
 50
90.0
 51
180.0
  0
ARC
  5
68E
100
AcDbEntity
  8
RACCORDO
100
AcDbCircle
 62
7
  6
CONTINUOUS
 10
74.0384128464
 20
-46.55
 40
0.5
100
AcDbArc
 50
180.0
 51
270.0
  0
ARC
  5
68F
100
AcDbEntity
  8
RACCORDO
100
AcDbCircle
 62
7
  6
CONTINUOUS
 10
83.0384128464
 20
-46.55
 40
0.5
100
AcDbArc
 50
270.0
 51
360.0
  0
ARC
  5
690
100
AcDbEntity
  8
RACCORDO
100
AcDbCircle
 62
7
  6
CONTINUOUS
 10
83.0384128464
 20
-33.75
 40
0.5
100
AcDbArc
 50
0.0
 51
90.0
  0
ARC
  5
691
100
AcDbEntity
  8
RACCORDO
100
AcDbCircle
 62
7
  6
CONTINUOUS
 10
74.0384128464
 20
-33.75
 40
0.5
100
AcDbArc
 50
90.0
 51
180.0
  0
ARC
  5
692
100
AcDbEntity
  8
RACCORDO
100
AcDbCircle
 62
7
  6
CONTINUOUS
 10
74.0384128464
 20
-34.15
 40
0.5
100
AcDbArc
 50
180.0
 51
270.0
  0
ARC
  5
693
100
AcDbEntity
  8
RACCORDO
100
AcDbCircle
 62
7
  6
CONTINUOUS
 10
83.0384128464
 20
-34.15
 40
0.5
100
AcDbArc
 50
270.0
 51
360.0
  0
ARC
  5
694
100
AcDbEntity
  8
RACCORDO
100
AcDbCircle
 62
7
  6
CONTINUOUS
 10
98.8384128464
 20
-51.6
 40
0.3
100
AcDbArc
 50
180.0
 51
270.0
  0
ARC
  5
695
100
AcDbEntity
  8
RACCORDO
100
AcDbCircle
 62
7
  6
CONTINUOUS
 10
97.3384128464
 20
-53.1
 40
0.3
100
AcDbArc
 50
180.0
 51
270.0
  0
ARC
  5
696
100
AcDbEntity
  8
RACCORDO
100
AcDbCircle
 62
7
  6
CONTINUOUS
 10
100.7384128464
 20
-52.2
 40
0.3
100
AcDbArc
 50
0.0
 51
90.0
  0
ARC
  5
697
100
AcDbEntity
  8
RACCORDO
100
AcDbCircle
 62
7
  6
CONTINUOUS
 10
100.7384128464
 20
-53.1
 40
0.3
100
AcDbArc
 50
270.0
 51
360.0
  0
ARC
  5
698
100
AcDbEntity
  8
0
100
AcDbCircle
 62
250
  6
CONTINUOUS
 10
3.2589750911
 20
-32.1856632081
 40
0.2837594129
100
AcDbArc
 50
44.4040598445
 51
48.7819651187
  0
ARC
  5
699
100
AcDbEntity
  8
0
100
AcDbCircle
 62
250
  6
CONTINUOUS
 10
1.4702258668
 20
-33.0441802147
 40
0.0557517592
100
AcDbArc
 50
271.7687254018
 51
276.3644625696
  0
ARC
  5
69A
100
AcDbEntity
  8
0
100
AcDbCircle
 62
7
  6
CONTINUOUS
 10
1.4702291874
 20
-33.1556899094
 40
0.0556207884
100
AcDbArc
 50
88.2422515597
 51
96.4098641654
  0
ARC
  5
69B
100
AcDbEntity
  8
ASSI
100
AcDbCircle
 62
7
  6
CONTINUOUS
 10
39.8245444016
 20
3.7096568615
 40
3.9252386973
100
AcDbArc
 50
66.1507656662
 51
77.0671262523
  0
ARC
  5
69C
100
AcDbEntity
  8
ASSI
100
AcDbCircle
 62
7
  6
CONTINUOUS
 10
39.8245454947
 20
3.7096616218
 40
3.9252342465
100
AcDbArc
 50
104.6184599962
 51
108.0305274071
  0
ARC
  5
69D
100
AcDbEntity
  8
ASSI
100
AcDbCircle
 62
7
  6
CONTINUOUS
 10
39.8245454947
 20
3.7096616218
 40
3.9252339881
100
AcDbArc
 50
109.1820962274
 51
112.6110327739
  0
ARC
  5
69E
100
AcDbEntity
  8
ASSI
100
AcDbCircle
 62
7
  6
CONTINUOUS
 10
39.8245454947
 20
3.7096616218
 40
3.9252334397
100
AcDbArc
 50
78.1844571259
 51
90.8185424079
  0
ARC
  5
69F
100
AcDbEntity
  8
ASSI
100
AcDbCircle
 62
7
  6
CONTINUOUS
 10
39.8245454947
 20
3.7096616218
 40
3.9252331561
100
AcDbArc
 50
91.9102115712
 51
103.4934032385
  0
ARC
  5
6A0
100
AcDbEntity
  8
ASSI
100
AcDbCircle
 62
7
  6
CONTINUOUS
 10
39.8245454947
 20
3.7096616218
 40
3.8504679521
100
AcDbArc
 50
109.5695884542
 51
111.7987181432
  0
ARC
  5
6A1
100
AcDbEntity
  8
ASSI
100
AcDbCircle
 62
7
  6
CONTINUOUS
 10
39.824545291
 20
3.7096607527
 40
3.8504678375
100
AcDbArc
 50
66.0805562364
 51
76.8115157989
  0
ARC
  5
6A2
100
AcDbEntity
  8
ASSI
100
AcDbCircle
 62
7
  6
CONTINUOUS
 10
39.8245454947
 20
3.7096616218
 40
3.8504675379
100
AcDbArc
 50
91.9473168422
 51
103.7605121028
  0
ARC
  5
6A3
100
AcDbEntity
  8
ASSI
100
AcDbCircle
 62
7
  6
CONTINUOUS
 10
39.8245454947
 20
3.7096616218
 40
3.8504671521
100
AcDbArc
 50
104.9088315982
 51
108.3930507127
  0
ARC
  5
6A4
100
AcDbEntity
  8
ASSI
100
AcDbCircle
 62
7
  6
CONTINUOUS
 10
39.8245454947
 20
3.7096616218
 40
3.8504668031
100
AcDbArc
 50
77.9516186991
 51
90.8344375197
  0
ARC
  5
6A5
100
AcDbEntity
  8
ASSI
100
AcDbCircle
 62
7
  6
CONTINUOUS
 10
26.0188228464
 20
2.849988
 40
2.5500000352
100
AcDbArc
 50
84.2608296022
 51
275.7391703978
  0
ARC
  5
6A6
100
AcDbEntity
  8
ASSI
100
AcDbCircle
 62
7
  6
CONTINUOUS
 10
30.3538228464
 20
2.849988
 40
2.5500000352
100
AcDbArc
 50
84.2608296022
 51
275.7391703978
  0
ARC
  5
6A7
100
AcDbEntity
  8
RACCORDO
100
AcDbCircle
 62
250
  6
CONTINUOUS
 10
50.5384509227
 20
22.8850217056
 40
1.9999619242
100
AcDbArc
 50
269.9989091761
 51
359.9989091346
  0
ARC
  5
6A8
100
AcDbEntity
  8
ASSI
100
AcDbCircle
 62
7
  6
CONTINUOUS
 10
30.3538228464
 20
2.849988
 40
1.7850001745
100
AcDbArc
 50
81.7867901066
 51
167.6263761709
  0
ARC
  5
6A9
100
AcDbEntity
  8
ASSI
100
AcDbCircle
 62
7
  6
CONTINUOUS
 10
26.0188228464
 20
2.849988
 40
1.7850001745
100
AcDbArc
 50
81.7867901066
 51
278.2132098934
  0
ARC
  5
6AA
100
AcDbEntity
  8
ASSI
100
AcDbCircle
 62
7
  6
CONTINUOUS
 10
30.3538228464
 20
2.849988
 40
1.7849997292
100
AcDbArc
 50
192.373627023
 51
278.2132119317
  0
ARC
  5
6AB
100
AcDbEntity
  8
ASSI
100
AcDbCircle
 62
7
  6
CONTINUOUS
 10
41.1516474947
 20
1.7657366218
 40
0.6542057106
100
AcDbArc
 50
84.9999868542
 51
176.7241833468
  0
ARC
  5
6AC
100
AcDbEntity
  8
ASSI
100
AcDbCircle
 62
7
  6
CONTINUOUS
 10
41.1516474947
 20
1.7657366218
 40
0.6542055022
100
AcDbArc
 50
183.2758166532
 51
78.4374939936
  0
CIRCLE
  5
6AD
100
AcDbEntity
  8
ASSI
100
AcDbCircle
 62
7
  6
CONTINUOUS
 10
52.8008138464
 20
2.850001
 40
0.508333
  0
CIRCLE
  5
6AE
100
AcDbEntity
  8
ASSI
100
AcDbCircle
 62
7
  6
CONTINUOUS
 10
41.1516474947
 20
1.7657366218
 40
0.373832
  0
ARC
  5
6AF
100
AcDbEntity
  8
ASSI
100
AcDbCircle
 62
7
  6
CONTINUOUS
 10
41.7123954636
 20
7.1489146683
 40
0.3364491397
100
AcDbArc
 50
303.748776311
 51
153.3682546595
  0
ARC
  5
6B0
100
AcDbEntity
  8
ASSI
100
AcDbCircle
 62
7
  6
CONTINUOUS
 10
41.712395563
 20
7.1489146373
 40
0.3364487707
100
AcDbArc
 50
166.153055358
 51
192.8396974407
  0
CIRCLE
  5
6B1
100
AcDbEntity
  8
ASSI
100
AcDbCircle
 62
7
  6
CONTINUOUS
 10
41.1516474947
 20
1.7657366218
 40
0.224299
  0
ARC
  5
6B2
100
AcDbEntity
  8
RACCORDO
100
AcDbCircle
 62
250
  6
CONTINUOUS
 10
50.5390625328
 20
52.6092368662
 40
1.9993911054
100
AcDbArc
 50
0.0187209535
 51
90.0186174036
  0
ARC
  5
6B3
100
AcDbEntity
  8
RACCORDO
100
AcDbCircle
 62
250
  6
CONTINUOUS
 10
102.5469586386
 20
22.885106092
 40
2.0000883037
100
AcDbArc
 50
270.0385117898
 51
359.9964918854
  0
ARC
  5
6B4
100
AcDbEntity
  8
RACCORDO
100
AcDbCircle
 62
250
  6
CONTINUOUS
 10
64.5383747702
 20
22.8850217056
 40
1.9999619242
100
AcDbArc
 50
180.0010908654
 51
270.0010908239
  0
ARC
  5
6B5
100
AcDbEntity
  8
RACCORDO
100
AcDbCircle
 62
7
  6
CONTINUOUS
 10
91.0384128464
 20
27.85
 40
4.0
100
AcDbArc
 50
138.6060314092
 51
180.0
  0
ARC
  5
6B6
100
AcDbEntity
  8
RACCORDO
100
AcDbCircle
 62
250
  6
CONTINUOUS
 10
102.5453742655
 20
52.6069614191
 40
2.00172501
100
AcDbArc
 50
0.0838298822
 51
89.9161701178
  0
ARC
  5
6B7
100
AcDbEntity
  8
RACCORDO
100
AcDbCircle
 62
250
  6
CONTINUOUS
 10
64.53776316
 20
52.6092368662
 40
1.9993911054
100
AcDbArc
 50
89.9813825964
 51
179.9812790465
  0
ARC
  5
6B8
100
AcDbEntity
  8
RACCORDO
100
AcDbCircle
 62
7
  6
CONTINUOUS
 10
98.9384128464
 20
48.35
 40
0.5
100
AcDbArc
 50
0.0
 51
90.0
  0
ARC
  5
6B9
100
AcDbEntity
  8
RACCORDO
100
AcDbCircle
 62
7
  6
CONTINUOUS
 10
98.9384128464
 20
40.35
 40
0.5
100
AcDbArc
 50
270.0
 51
360.0
  0
ARC
  5
6BA
100
AcDbEntity
  8
RACCORDO
100
AcDbCircle
 62
7
  6
CONTINUOUS
 10
98.5384128464
 20
48.35
 40
0.5
100
AcDbArc
 50
90.0
 51
180.0
  0
ARC
  5
6BB
100
AcDbEntity
  8
RACCORDO
100
AcDbCircle
 62
7
  6
CONTINUOUS
 10
98.5384128464
 20
40.35
 40
0.5
100
AcDbArc
 50
180.0
 51
270.0
  0
SPLINE
  5
6BC
100
AcDbEntity
  8
0
100
AcDbSpline
 62
7
  6
CONTINUOUS
 70
0
 71
3
 72
9
 73
5
 74
0
 42
0.0000001
 43
0.0000001
 44
0.0000000001
 40
0.0
 40
0.0
 40
0.0
 40
0.0
 40
0.2415690858
 40
1.0
 40
1.0
 40
1.0
 40
1.0
 10
1.463998614
 20
-33.1004185774
 30
0.0
 10
1.4619303225
 20
-33.1006507892
 30
0.0
 10
1.4534209961
 20
-33.1020822675
 30
0.0
 10
1.4452898984
 20
-33.1054270684
 30
0.0
 10
1.4396085369
 20
-33.1086551735
 30
0.0
  0
SPLINE
  5
6BD
100
AcDbEntity
  8
0
100
AcDbSpline
 62
7
  6
CONTINUOUS
 70
0
 71
3
 72
11
 73
7
 74
0
 42
0.0000001
 43
0.0000001
 44
0.0000000001
 40
0.0
 40
0.0
 40
0.0
 40
0.0
 40
0.1753649431
 40
0.4082928485
 40
0.6907001037
 40
1.0
 40
1.0
 40
1.0
 40
1.0
 10
1.4396085369
 20
-33.1086551735
 30
0.0
 10
1.4234531823
 20
-33.1178345195
 30
0.0
 10
1.3933354302
 20
-33.15135414
 30
0.0
 10
1.3637880243
 20
-33.218737361
 30
0.0
 10
1.3446290329
 20
-33.3044632378
 30
0.0
 10
1.3400640638
 20
-33.3672276536
 30
0.0
 10
1.3400640638
 20
-33.4
 30
0.0
  0
SPLINE
  5
6BE
100
AcDbEntity
  8
0
100
AcDbSpline
 62
7
  6
CONTINUOUS
 70
0
 71
3
 72
16
 73
12
 74
0
 42
0.0000001
 43
0.0000001
 44
0.0000000001
 40
0.0
 40
0.0
 40
0.0
 40
0.0
 40
0.167518131
 40
0.329965155
 40
0.4821791146
 40
0.5531999653
 40
0.6201164844
 40
0.7399081459
 40
0.8410686311
 40
0.9257760628
 40
1.0
 40
1.0
 40
1.0
 40
1.0
 10
1.3400640638
 20
-33.4
 30
0.0
 10
1.3400640638
 20
-33.4196604726
 30
0.0
 10
1.3418005656
 20
-33.4584070046
 30
0.0
 10
1.3491912738
 20
-33.5145781108
 30
0.0
 10
1.3592810215
 20
-33.558796597
 30
0.0
 10
1.3697140333
 20
-33.5912354405
 30
0.0
 10
1.3808019611
 20
-33.6193907343
 30
0.0
 10
1.3965614404
 20
-33.6494760657
 30
0.0
 10
1.4192271404
 20
-33.6776257421
 30
0.0
 10
1.4442857567
 20
-33.6959900926
 30
0.0
 10
1.463239508
 20
-33.7001733874
 30
0.0
 10
1.4719465154
 20
-33.6999043608
 30
0.0
  0
SPLINE
  5
6BF
100
AcDbEntity
  8
0
100
AcDbSpline
 62
250
  6
CONTINUOUS
 70
0
 71
3
 72
8
 73
4
 74
0
 42
0.0000001
 43
0.0000001
 44
0.0000000001
 40
0.0
 40
0.0
 40
0.0
 40
0.0
 40
1.0
 40
1.0
 40
1.0
 40
1.0
 10
2.963196583
 20
-32.2
 30
0.0
 10
2.963196583
 20
-32.2383929578
 30
0.0
 10
2.9709470881
 20
-32.277390123
 30
0.0
 10
2.9851110052
 20
-32.3130748909
 30
0.0
  0
SPLINE
  5
6C0
100
AcDbEntity
  8
0
100
AcDbSpline
 62
7
  6
CONTINUOUS
 70
0
 71
3
 72
11
 73
7
 74
0
 42
0.0000001
 43
0.0000001
 44
0.0000000001
 40
0.0
 40
0.0
 40
0.0
 40
0.0
 40
0.3092998985
 40
0.5917071542
 40
0.8246350587
 40
1.0
 40
1.0
 40
1.0
 40
1.0
 10
1.6003943073
 20
-33.4
 30
0.0
 10
1.6003943073
 20
-33.3672276531
 30
0.0
 10
1.595829338
 20
-33.3044632365
 30
0.0
 10
1.5766703461
 20
-33.2187373587
 30
0.0
 10
1.5471229395
 20
-33.1513541376
 30
0.0
 10
1.5170051866
 20
-33.1178345175
 30
0.0
 10
1.5008498316
 20
-33.108655172
 30
0.0
  0
SPLINE
  5
6C1
100
AcDbEntity
  8
0
100
AcDbSpline
 62
7
  6
CONTINUOUS
 70
0
 71
3
 72
9
 73
5
 74
0
 42
0.0000001
 43
0.0000001
 44
0.0000000001
 40
0.0
 40
0.0
 40
0.0
 40
0.0
 40
0.2630632907
 40
1.0
 40
1.0
 40
1.0
 40
1.0
 10
1.5008498316
 20
-33.108655172
 30
0.0
 10
1.4985381254
 20
-33.1073416788
 30
0.0
 10
1.489517872
 20
-33.1027843133
 30
0.0
 10
1.479380066
 20
-33.1003238149
 30
0.0
 10
1.4719352819
 20
-33.1000952932
 30
0.0
  0
SPLINE
  5
6C2
100
AcDbEntity
  8
0
100
AcDbSpline
 62
7
  6
CONTINUOUS
 70
0
 71
3
 72
13
 73
9
 74
0
 42
0.0000001
 43
0.0000001
 44
0.0000000001
 40
0.0
 40
0.0
 40
0.0
 40
0.0
 40
0.0745222189
 40
0.1602906905
 40
0.2624544361
 40
0.3829169037
 40
0.6721856479
 40
1.0
 40
1.0
 40
1.0
 40
1.0
 10
1.4719465154
 20
-33.6999043608
 30
0.0
 10
1.4805972007
 20
-33.6996370745
 30
0.0
 10
1.4991786942
 20
-33.6943690495
 30
0.0
 10
1.5235149185
 20
-33.6752583935
 30
0.0
 10
1.5456042245
 20
-33.6467410211
 30
0.0
 10
1.5725805086
 20
-33.5934627589
 30
0.0
 10
1.594334782
 20
-33.509791781
 30
0.0
 10
1.6003943073
 20
-33.4380714925
 30
0.0
 10
1.6003943073
 20
-33.4
 30
0.0
  0
SPLINE
  5
6C3
100
AcDbEntity
  8
0
100
AcDbSpline
 62
250
  6
CONTINUOUS
 70
0
 71
3
 72
16
 73
12
 74
0
 42
0.0000001
 43
0.0000001
 44
0.0000000001
 40
0.0
 40
0.0
 40
0.0
 40
0.0
 40
0.1675080295
 40
0.3299410517
 40
0.4821569673
 40
0.5531907285
 40
0.620122515
 40
0.7399322367
 40
0.8410875017
 40
0.9257801066
 40
1.0
 40
1.0
 40
1.0
 40
1.0
 10
1.6003943073
 20
-32.8
 30
0.0
 10
1.6003943073
 20
-32.7803405083
 30
0.0
 10
1.5986506588
 20
-32.741596489
 30
0.0
 10
1.5912517039
 20
-32.6854287719
 30
0.0
 10
1.5811639381
 20
-32.6412096466
 30
0.0
 10
1.5707370593
 20
-32.6087648082
 30
0.0
 10
1.5596552961
 20
-32.5806009384
 30
0.0
 10
1.5439010692
 20
-32.5505084448
 30
0.0
 10
1.5212345024
 20
-32.5223578742
 30
0.0
 10
1.4961705954
 20
-32.5040042562
 30
0.0
 10
1.477219079
 20
-32.4998258641
 30
0.0
 10
1.4685124456
 20
-32.5000945661
 30
0.0
  0
SPLINE
  5
6C4
100
AcDbEntity
  8
0
100
AcDbSpline
 62
250
  6
CONTINUOUS
 70
0
 71
3
 72
9
 73
5
 74
0
 42
0.0000001
 43
0.0000001
 44
0.0000000001
 40
0.0
 40
0.0
 40
0.0
 40
0.0
 40
0.2415607742
 40
1.0
 40
1.0
 40
1.0
 40
1.0
 10
1.476421962
 20
-33.0995869698
 30
0.0
 10
1.478496504
 20
-33.0993556645
 30
0.0
 10
1.4870320869
 20
-33.0979253828
 30
0.0
 10
1.4951884923
 20
-33.0945712198
 30
0.0
 10
1.5008861541
 20
-33.0913323647
 30
0.0
  0
SPLINE
  5
6C5
100
AcDbEntity
  8
0
100
AcDbSpline
 62
250
  6
CONTINUOUS
 70
0
 71
3
 72
11
 73
7
 74
0
 42
0.0000001
 43
0.0000001
 44
0.0000000001
 40
0.0
 40
0.0
 40
0.0
 40
0.0
 40
0.1753679545
 40
0.4083464981
 40
0.6907490581
 40
1.0
 40
1.0
 40
1.0
 40
1.0
 10
1.5008861541
 20
-33.0913323647
 30
0.0
 10
1.5170381952
 20
-33.082150682
 30
0.0
 10
1.5471525655
 20
-33.0486255368
 30
0.0
 10
1.576665284
 20
-32.9812291336
 30
0.0
 10
1.5958132755
 20
-32.8955146867
 30
0.0
 10
1.6003943073
 20
-32.8327635525
 30
0.0
 10
1.6003943073
 20
-32.8
 30
0.0
  0
SPLINE
  5
6C6
100
AcDbEntity
  8
0
100
AcDbSpline
 62
250
  6
CONTINUOUS
 70
0
 71
3
 72
13
 73
9
 74
0
 42
0.0000001
 43
0.0000001
 44
0.0000000001
 40
0.0
 40
0.0
 40
0.0
 40
0.0
 40
0.2473883871
 40
0.3717494649
 40
0.4963783316
 40
0.6216774235
 40
0.7478882568
 40
1.0
 40
1.0
 40
1.0
 40
1.0
 10
3.4459516208
 20
-31.972217239
 30
0.0
 10
3.4045477454
 20
-31.9359618908
 30
0.0
 10
3.3241035807
 20
-31.8985898636
 30
0.0
 10
3.2124155888
 20
-31.8992531807
 30
0.0
 10
3.1317676927
 20
-31.9242904555
 30
0.0
 10
3.0607350869
 20
-31.9707772699
 30
0.0
 10
2.9881549452
 20
-32.0576464169
 30
0.0
 10
2.963196583
 20
-32.143915335
 30
0.0
 10
2.963196583
 20
-32.2
 30
0.0
  0
SPLINE
  5
6C7
100
AcDbEntity
  8
ASSI
100
AcDbSpline
 62
7
  6
CONTINUOUS
 70
0
 71
3
 72
12
 73
8
 74
0
 42
0.0000001
 43
0.0000001
 44
0.0000000001
 40
0.0
 40
0.0
 40
0.0
 40
0.0
 40
0.160170272
 40
0.373833895
 40
0.5801046928
 40
0.7863141084
 40
1.0
 40
1.0
 40
1.0
 40
1.0
 10
50.8571381451
 20
2.2513941147
 30
0.0
 10
50.7978153148
 20
2.4442368083
 30
0.0
 10
50.7268407187
 20
2.9175007039
 30
0.0
 10
50.8743884596
 20
3.653761718
 30
0.0
 10
51.3273931324
 20
4.3235904963
 30
0.0
 10
51.9964752973
 20
4.7756863582
 30
0.0
 10
52.5316416243
 20
4.8833340618
 30
0.0
 10
52.8008144205
 20
4.8833340618
 30
0.0
  0
SPLINE
  5
6C8
100
AcDbEntity
  8
ASSI
100
AcDbSpline
 62
7
  6
CONTINUOUS
 70
0
 71
3
 72
13
 73
9
 74
0
 42
0.0000001
 43
0.0000001
 44
0.0000000001
 40
0.0
 40
0.0
 40
0.0
 40
0.0
 40
0.1820448067
 40
0.3577131209
 40
0.5334393081
 40
0.7154636694
 40
0.860240729
 40
1.0
 40
1.0
 40
1.0
 40
1.0
 10
52.8008144205
 20
5.8999999985
 30
0.0
 10
52.3970519428
 20
5.8999999985
 30
0.0
 10
51.5943378776
 20
5.7384208676
 30
0.0
 10
50.5906868056
 20
5.0603647543
 30
0.0
 10
49.9110814022
 20
4.0557813265
 30
0.0
 10
49.6864780961
 20
2.9321288411
 30
0.0
 10
49.8506263814
 20
1.8942190107
 30
0.0
 10
50.14279913
 20
1.3214345223
 30
0.0
 10
50.3239132487
 20
1.0698736077
 30
0.0
  0
SPLINE
  5
6C9
100
AcDbEntity
  8
ASSI
100
AcDbSpline
 62
7
  6
CONTINUOUS
 70
0
 71
3
 72
9
 73
5
 74
0
 42
0.0000001
 43
0.0000001
 44
0.0000000001
 40
0.0
 40
0.0
 40
0.0
 40
0.0
 40
0.2458206488
 40
1.0
 40
1.0
 40
1.0
 40
1.0
 10
51.0378678594
 20
0.3608192328
 30
0.0
 10
51.162602232
 20
0.2723165647
 30
0.0
 10
51.6958649038
 20
-0.0502125316
 30
0.0
 10
52.3315860585
 20
-0.2
 30
0.0
 10
52.8008144205
 20
-0.2
 30
0.0
  0
SPLINE
  5
6CA
100
AcDbEntity
  8
ASSI
100
AcDbSpline
 62
7
  6
CONTINUOUS
 70
0
 71
3
 72
9
 73
5
 74
0
 42
0.0000001
 43
0.0000001
 44
0.0000000001
 40
0.0
 40
0.0
 40
0.0
 40
0.0
 40
0.2600413185
 40
1.0
 40
1.0
 40
1.0
 40
1.0
 10
52.8008144205
 20
0.8166670313
 30
0.0
 10
52.6782827696
 20
0.8166670313
 30
0.0
 10
52.2075092686
 20
0.8573406865
 30
0.0
 10
51.7552315171
 20
1.0713332355
 30
0.0
 10
51.4889450099
 20
1.2964164726
 30
0.0
  0
SPLINE
  5
6CB
100
AcDbEntity
  8
ASSI
100
AcDbSpline
 62
7
  6
CONTINUOUS
 70
0
 71
3
 72
16
 73
12
 74
0
 42
0.0000001
 43
0.0000001
 44
0.0000000001
 40
0.0
 40
0.0
 40
0.0
 40
0.0
 40
0.1216765773
 40
0.2476390351
 40
0.3732356714
 40
0.4944866233
 40
0.6157375752
 40
0.7413342114
 40
0.8669308477
 40
0.9881817996
 40
1.0
 40
1.0
 40
1.0
 40
1.0
 10
51.7194581476
 20
1.7745268551
 30
0.0
 10
51.8577386661
 20
1.6362463366
 30
0.0
 10
52.1968028575
 20
1.4064618773
 30
0.0
 10
52.8000510839
 20
1.2838555899
 30
0.0
 10
53.4036284652
 20
1.4052953024
 30
0.0
 10
53.9059697042
 20
1.7448432939
 30
0.0
 10
54.2454838469
 20
2.2472270131
 30
0.0
 10
54.3669882105
 20
2.8500014914
 30
0.0
 10
54.2442990846
 20
3.4527671199
 30
0.0
 10
54.0097485096
 20
3.8058141915
 30
0.0
 10
53.8513070669
 20
3.9551117617
 30
0.0
 10
53.8369541613
 20
3.9681089605
 30
0.0
  0
SPLINE
  5
6CC
100
AcDbEntity
  8
ASSI
100
AcDbSpline
 62
7
  6
CONTINUOUS
 70
0
 71
3
 72
9
 73
5
 74
0
 42
0.0000001
 43
0.0000001
 44
0.0000000001
 40
0.0
 40
0.0
 40
0.0
 40
0.0
 40
0.506587071
 40
1.0
 40
1.0
 40
1.0
 40
1.0
 10
52.8008144205
 20
4.3749999989
 30
0.0
 10
52.5092403443
 20
4.3749999989
 30
0.0
 10
51.9205879034
 20
4.202056929
 30
0.0
 10
51.5265863789
 20
3.7350210583
 30
0.0
 10
51.4098649251
 20
3.4761249474
 30
0.0
  0
LINE
  5
6CD
100
AcDbEntity
  8
ASSI
100
AcDbLine
 62
7
  6
CONTINUOUS
 10
-5.7719755993
 20
3.7531942447
 11
-6.3452767679
 21
2.8662985369
  0
SPLINE
  5
6CE
100
AcDbEntity
  8
ASSI
100
AcDbSpline
 62
7
  6
CONTINUOUS
 70
0
 71
3
 72
8
 73
4
 74
0
 42
0.0000001
 43
0.0000001
 44
0.0000000001
 40
0.0
 40
0.0
 40
0.0
 40
0.0
 40
1.0
 40
1.0
 40
1.0
 40
1.0
 10
-6.3452767679
 20
2.8662985369
 30
0.0
 10
-6.4027519418
 20
2.9724943797
 30
0.0
 10
-6.4682576996
 20
3.0745291861
 30
0.0
 10
-6.538840411
 20
3.1725038435
 30
0.0
  0
SPLINE
  5
6CF
100
AcDbEntity
  8
ASSI
100
AcDbSpline
 62
7
  6
CONTINUOUS
 70
0
 71
3
 72
9
 73
5
 74
0
 42
0.0000001
 43
0.0000001
 44
0.0000000001
 40
0.0
 40
0.0
 40
0.0
 40
0.0
 40
0.7097160398
 40
1.0
 40
1.0
 40
1.0
 40
1.0
 10
-9.6023342573
 20
3.557107565
 30
0.0
 10
-9.57434171
 20
3.4613036472
 30
0.0
 10
-9.5293057322
 20
3.3279679677
 30
0.0
 10
-9.4815910722
 20
3.1956883989
 30
0.0
 10
-9.46752472
 20
3.1573647434
 30
0.0
  0
SPLINE
  5
6D0
100
AcDbEntity
  8
ASSI
100
AcDbSpline
 62
7
  6
CONTINUOUS
 70
0
 71
3
 72
8
 73
4
 74
0
 42
0.0000001
 43
0.0000001
 44
0.0000000001
 40
0.0
 40
0.0
 40
0.0
 40
0.0
 40
1.0
 40
1.0
 40
1.0
 40
1.0
 10
-15.1619683541
 20
2.0633885336
 30
0.0
 10
-15.1910105508
 20
2.1682266807
 30
0.0
 10
-15.2249501384
 20
2.2717492703
 30
0.0
 10
-15.2618139007
 20
2.3740994012
 30
0.0
  0
SPLINE
  5
6D1
100
AcDbEntity
  8
ASSI
100
AcDbSpline
 62
7
  6
CONTINUOUS
 70
0
 71
3
 72
9
 73
5
 74
0
 42
0.0000001
 43
0.0000001
 44
0.0000000001
 40
0.0
 40
0.0
 40
0.0
 40
0.0
 40
0.7097160398
 40
1.0
 40
1.0
 40
1.0
 40
1.0
 10
-17.6995606804
 20
3.557107565
 30
0.0
 10
-17.6715681331
 20
3.4613036472
 30
0.0
 10
-17.6265321553
 20
3.3279679677
 30
0.0
 10
-17.5788174953
 20
3.1956883989
 30
0.0
 10
-17.5647511431
 20
3.1573647434
 30
0.0
  0
SPLINE
  5
6D2
100
AcDbEntity
  8
ASSI
100
AcDbSpline
 62
7
  6
CONTINUOUS
 70
0
 71
3
 72
17
 73
13
 74
0
 42
0.0000001
 43
0.0000001
 44
0.0000000001
 40
0.0
 40
0.0
 40
0.0
 40
0.0
 40
0.1860451082
 40
0.2705259002
 40
0.3141542026
 40
0.3603530295
 40
0.5121184572
 40
0.5895792025
 40
0.6716563947
 40
0.7632308695
 40
0.8657555241
 40
1.0
 40
1.0
 40
1.0
 40
1.0
 10
-18.916451634
 20
2.5179204124
 30
0.0
 10
-18.9456785805
 20
2.3834154825
 30
0.0
 10
-19.0397922343
 20
2.1833973097
 30
0.0
 10
-19.2493531117
 20
2.0691792598
 30
0.0
 10
-19.3753086378
 20
2.0392342376
 30
0.0
 10
-19.5538542113
 20
2.0261297631
 30
0.0
 10
-19.7629936081
 20
2.0800695928
 30
0.0
 10
-19.9417773911
 20
2.2318832161
 30
0.0
 10
-20.0321402413
 20
2.3980698418
 30
0.0
 10
-20.0827541674
 20
2.5973605483
 30
0.0
 10
-20.1007456723
 20
2.8402047153
 30
0.0
 10
-20.0815284015
 20
3.0171981848
 30
0.0
 10
-20.0553963018
 20
3.1133621945
 30
0.0
  0
SPLINE
  5
6D3
100
AcDbEntity
  8
ASSI
100
AcDbSpline
 62
7
  6
CONTINUOUS
 70
0
 71
3
 72
9
 73
5
 74
0
 42
0.0000001
 43
0.0000001
 44
0.0000000001
 40
0.0
 40
0.0
 40
0.0
 40
0.0
 40
0.4786249203
 40
1.0
 40
1.0
 40
1.0
 40
1.0
 10
-19.466143093
 20
3.5686420756
 30
0.0
 10
-19.3569858285
 20
3.5686420756
 30
0.0
 10
-19.11214321
 20
3.5090042294
 30
0.0
 10
-18.9983821339
 20
3.285535565
 30
0.0
 10
-18.9625896763
 20
3.1721433846
 30
0.0
  0
SPLINE
  5
6D4
100
AcDbEntity
  8
ASSI
100
AcDbSpline
 62
7
  6
CONTINUOUS
 70
0
 71
3
 72
25
 73
21
 74
0
 42
0.0000001
 43
0.0000001
 44
0.0000000001
 40
0.0
 40
0.0
 40
0.0
 40
0.0
 40
0.0888847953
 40
0.1718004827
 40
0.2552805514
 40
0.2993533532
 40
0.346394781
 40
0.3886666315
 40
0.4297437762
 40
0.4702843229
 40
0.5109724255
 40
0.5911642652
 40
0.6732957874
 40
0.7613184488
 40
0.8083486364
 40
0.85815985
 40
0.9045619297
 40
0.949869011
 40
0.9945301458
 40
1.0
 40
1.0
 40
1.0
 40
1.0
 10
-18.7088304436
 20
3.2305368554
 30
0.0
 10
-18.7325382975
 20
3.3131211616
 30
0.0
 10
-18.7988743851
 20
3.4686930208
 30
0.0
 10
-18.9696998097
 20
3.6536704539
 30
0.0
 10
-19.1556559204
 20
3.7469466064
 30
0.0
 10
-19.321259146
 20
3.7822873756
 30
0.0
 10
-19.4503728439
 20
3.7903666043
 30
0.0
 10
-19.5764783779
 20
3.7832253229
 30
0.0
 10
-19.6946158689
 20
3.7616470007
 30
0.0
 10
-19.8074732564
 20
3.7252764877
 30
0.0
 10
-19.9490361922
 20
3.6589025188
 30
0.0
 10
-20.1079996583
 20
3.5381758829
 30
0.0
 10
-20.2467052071
 20
3.3355091473
 30
0.0
 10
-20.3153099757
 20
3.1346016723
 30
0.0
 10
-20.342414094
 20
2.957686575
 30
0.0
 10
-20.348858509
 20
2.8191239109
 30
0.0
 10
-20.3427080264
 20
2.682277353
 30
0.0
 10
-20.323850869
 20
2.5515797325
 30
0.0
 10
-20.3013790203
 20
2.4619386091
 30
0.0
 10
-20.2869416808
 20
2.4156593458
 30
0.0
 10
-20.2853347031
 20
2.4106199025
 30
0.0
  0
SPLINE
  5
6D5
100
AcDbEntity
  8
ASSI
100
AcDbSpline
 62
7
  6
CONTINUOUS
 70
0
 71
3
 72
11
 73
7
 74
0
 42
0.0000001
 43
0.0000001
 44
0.0000000001
 40
0.0
 40
0.0
 40
0.0
 40
0.0
 40
0.2525992429
 40
0.4888102636
 40
0.730558892
 40
1.0
 40
1.0
 40
1.0
 40
1.0
 10
-19.4513644518
 20
1.8153964683
 30
0.0
 10
-19.3588066558
 20
1.8153964683
 30
0.0
 10
-19.1776163098
 20
1.8388304219
 30
0.0
 10
-18.9358057742
 20
1.9672731932
 30
0.0
 10
-18.7541253159
 20
2.1802616147
 30
0.0
 10
-18.6870411283
 20
2.3586208301
 30
0.0
 10
-18.6626924013
 20
2.4543002868
 30
0.0
  0
SPLINE
  5
6D6
100
AcDbEntity
  8
ASSI
100
AcDbSpline
 62
7
  6
CONTINUOUS
 70
0
 71
3
 72
12
 73
8
 74
0
 42
0.0000001
 43
0.0000001
 44
0.0000000001
 40
0.0
 40
0.0
 40
0.0
 40
0.0
 40
0.1606441131
 40
0.3160528741
 40
0.4695579901
 40
0.6257786262
 40
1.0
 40
1.0
 40
1.0
 40
1.0
 10
-24.4645512202
 20
2.472863571
 30
0.0
 10
-24.4628803456
 20
2.4105812385
 30
0.0
 10
-24.4450248369
 20
2.2875882426
 30
0.0
 10
-24.3687321738
 20
2.1196967542
 30
0.0
 10
-24.2495982654
 20
1.9805638877
 30
0.0
 10
-24.0198533296
 20
1.8402624483
 30
0.0
 10
-23.8066000597
 20
1.8153964683
 30
0.0
 10
-23.6614608114
 20
1.8153964683
 30
0.0
  0
SPLINE
  5
6D7
100
AcDbEntity
  8
ASSI
100
AcDbSpline
 62
7
  6
CONTINUOUS
 70
0
 71
3
 72
15
 73
11
 74
0
 42
0.0000001
 43
0.0000001
 44
0.0000000001
 40
0.0
 40
0.0
 40
0.0
 40
0.0
 40
0.1205523663
 40
0.2334839557
 40
0.3389214346
 40
0.4385318437
 40
0.6258636217
 40
0.7171536601
 40
0.8046135431
 40
1.0
 40
1.0
 40
1.0
 40
1.0
 10
-23.6614608114
 20
1.8153964683
 30
0.0
 10
-23.5972977802
 20
1.8153964683
 30
0.0
 10
-23.4724709089
 20
1.826455277
 30
0.0
 10
-23.2993506297
 20
1.8820189741
 30
0.0
 10
-23.1530520415
 20
1.9714604012
 30
0.0
 10
-23.0132064543
 20
2.1300575038
 30
0.0
 10
-22.9511681853
 20
2.3348120074
 30
0.0
 10
-22.9772993605
 20
2.5301123737
 30
0.0
 10
-23.0616376898
 20
2.7143637232
 30
0.0
 10
-23.1935382831
 20
2.8073458435
 30
0.0
 10
-23.2878509121
 20
2.8511596127
 30
0.0
  0
SPLINE
  5
6D8
100
AcDbEntity
  8
ASSI
100
AcDbSpline
 62
7
  6
CONTINUOUS
 70
0
 71
3
 72
9
 73
5
 74
0
 42
0.0000001
 43
0.0000001
 44
0.0000000001
 40
0.0
 40
0.0
 40
0.0
 40
0.0
 40
0.1708537376
 40
1.0
 40
1.0
 40
1.0
 40
1.0
 10
-23.2878509121
 20
2.8511596127
 30
0.0
 10
-23.3101386503
 20
2.8613482783
 30
0.0
 10
-23.444448674
 20
2.9122810571
 30
0.0
 10
-23.5843379501
 20
2.9460001602
 30
0.0
 10
-23.7001195064
 20
2.9731730332
 30
0.0
  0
SPLINE
  5
6D9
100
AcDbEntity
  8
ASSI
100
AcDbSpline
 62
7
  6
CONTINUOUS
 70
0
 71
3
 72
9
 73
5
 74
0
 42
0.0000001
 43
0.0000001
 44
0.0000000001
 40
0.0
 40
0.0
 40
0.0
 40
0.0
 40
0.6350560901
 40
1.0
 40
1.0
 40
1.0
 40
1.0
 10
-23.7001195064
 20
2.9731730332
 30
0.0
 10
-23.7817171522
 20
2.9923232548
 30
0.0
 10
-23.9071868834
 20
3.0268031815
 30
0.0
 10
-24.0345120316
 20
3.077037239
 30
0.0
 10
-24.069494189
 20
3.1101453242
 30
0.0
  0
SPLINE
  5
6DA
100
AcDbEntity
  8
ASSI
100
AcDbSpline
 62
7
  6
CONTINUOUS
 70
0
 71
3
 72
14
 73
10
 74
0
 42
0.0000001
 43
0.0000001
 44
0.0000000001
 40
0.0
 40
0.0
 40
0.0
 40
0.0
 40
0.1221754561
 40
0.2479284667
 40
0.3235721644
 40
0.3974374623
 40
0.5551234414
 40
0.7467267791
 40
1.0
 40
1.0
 40
1.0
 40
1.0
 10
-24.069494189
 20
3.1101453242
 30
0.0
 10
-24.092291115
 20
3.1312894489
 30
0.0
 10
-24.130884696
 20
3.1842253648
 30
0.0
 10
-24.1448925042
 20
3.2677929943
 30
0.0
 10
-24.1376092191
 20
3.3379198055
 30
0.0
 10
-24.1107769538
 20
3.4120795416
 30
0.0
 10
-24.0392388483
 20
3.4979648451
 30
0.0
 10
-23.894743935
 20
3.5613078182
 30
0.0
 10
-23.7803458867
 20
3.5686420756
 30
0.0
 10
-23.7158892337
 20
3.5686420756
 30
0.0
  0
SPLINE
  5
6DB
100
AcDbEntity
  8
ASSI
100
AcDbSpline
 62
7
  6
CONTINUOUS
 70
0
 71
3
 72
9
 73
5
 74
0
 42
0.0000001
 43
0.0000001
 44
0.0000000001
 40
0.0
 40
0.0
 40
0.0
 40
0.0
 40
0.5306823676
 40
1.0
 40
1.0
 40
1.0
 40
1.0
 10
-23.7158892337
 20
3.5686420756
 30
0.0
 10
-23.6041843501
 20
3.5686420756
 30
0.0
 10
-23.366451532
 20
3.5338178063
 30
0.0
 10
-23.2754756744
 20
3.3092992412
 30
0.0
 10
-23.2649621204
 20
3.2110722478
 30
0.0
  0
SPLINE
  5
6DC
100
AcDbEntity
  8
ASSI
100
AcDbSpline
 62
7
  6
CONTINUOUS
 70
0
 71
3
 72
20
 73
16
 74
0
 42
0.0000001
 43
0.0000001
 44
0.0000000001
 40
0.0
 40
0.0
 40
0.0
 40
0.0
 40
0.1573317713
 40
0.2361791109
 40
0.3195933993
 40
0.4109088545
 40
0.4598620877
 40
0.5115766229
 40
0.5588578561
 40
0.6043116697
 40
0.6913315838
 40
0.7718242667
 40
0.8471214746
 40
0.9894569562
 40
1.0
 40
1.0
 40
1.0
 40
1.0
 10
-23.0112028878
 20
3.2226067583
 30
0.0
 10
-23.0152565417
 20
3.3266518233
 30
0.0
 10
-23.0622996318
 20
3.4866245718
 30
0.0
 10
-23.2071548009
 20
3.6449058679
 30
0.0
 10
-23.3553171171
 20
3.7286189022
 30
0.0
 10
-23.4989448616
 20
3.7688837615
 30
0.0
 10
-23.6250873037
 20
3.7851864874
 30
0.0
 10
-23.7230468304
 20
3.7891138836
 30
0.0
 10
-23.8186887444
 20
3.7852819451
 30
0.0
 10
-23.9367287735
 20
3.7692710634
 30
0.0
 10
-24.0731507182
 20
3.7303164501
 30
0.0
 10
-24.2156324938
 20
3.6511152653
 30
0.0
 10
-24.3503306866
 20
3.503059614
 30
0.0
 10
-24.3971037095
 20
3.3489573912
 30
0.0
 10
-24.3952457767
 20
3.2471228743
 30
0.0
 10
-24.3949584586
 20
3.2401128996
 30
0.0
  0
SPLINE
  5
6DD
100
AcDbEntity
  8
ASSI
100
AcDbSpline
 62
7
  6
CONTINUOUS
 70
0
 71
3
 72
9
 73
5
 74
0
 42
0.0000001
 43
0.0000001
 44
0.0000000001
 40
0.0
 40
0.0
 40
0.0
 40
0.0
 40
0.1806469784
 40
1.0
 40
1.0
 40
1.0
 40
1.0
 10
-24.1199575627
 20
2.84521204
 30
0.0
 10
-24.0995694161
 20
2.8345553708
 30
0.0
 10
-23.9826326828
 20
2.7835319367
 30
0.0
 10
-23.8588634016
 20
2.7508461664
 30
0.0
 10
-23.7576118298
 20
2.7256316295
 30
0.0
  0
SPLINE
  5
6DE
100
AcDbEntity
  8
ASSI
100
AcDbSpline
 62
7
  6
CONTINUOUS
 70
0
 71
3
 72
9
 73
5
 74
0
 42
0.0000001
 43
0.0000001
 44
0.0000000001
 40
0.0
 40
0.0
 40
0.0
 40
0.0
 40
0.3500357027
 40
1.0
 40
1.0
 40
1.0
 40
1.0
 10
-23.7576118298
 20
2.7256316295
 30
0.0
 10
-23.7187967732
 20
2.7159655704
 30
0.0
 10
-23.6083505393
 20
2.6871176317
 30
0.0
 10
-23.496768968
 20
2.659789568
 30
0.0
 10
-23.4278869283
 20
2.6320039118
 30
0.0
  0
SPLINE
  5
6DF
100
AcDbEntity
  8
ASSI
100
AcDbSpline
 62
7
  6
CONTINUOUS
 70
0
 71
3
 72
16
 73
12
 74
0
 42
0.0000001
 43
0.0000001
 44
0.0000000001
 40
0.0
 40
0.0
 40
0.0
 40
0.0
 40
0.1566468856
 40
0.220189847
 40
0.2871042189
 40
0.4238330589
 40
0.5820227078
 40
0.6769136751
 40
0.7814331672
 40
0.9003632222
 40
1.0
 40
1.0
 40
1.0
 40
1.0
 10
-23.4278869283
 20
2.6320039118
 30
0.0
 10
-23.3665718817
 20
2.6077630838
 30
0.0
 10
-23.2780936247
 20
2.5589016063
 30
0.0
 10
-23.2259761932
 20
2.4467856652
 30
0.0
 10
-23.2106064231
 20
2.3343035824
 30
0.0
 10
-23.2589361639
 20
2.1782148663
 30
0.0
 10
-23.4033675297
 20
2.0804460533
 30
0.0
 10
-23.5488458865
 20
2.0409086787
 30
0.0
 10
-23.6832263504
 20
2.0307412602
 30
0.0
 10
-23.8195926582
 20
2.0425650839
 30
0.0
 10
-23.9080621273
 20
2.0699644966
 30
0.0
 10
-23.9467732307
 20
2.0864292066
 30
0.0
  0
SPLINE
  5
6E0
100
AcDbEntity
  8
ASSI
100
AcDbSpline
 62
7
  6
CONTINUOUS
 70
0
 71
3
 72
23
 73
19
 74
0
 42
0.0000001
 43
0.0000001
 44
0.0000000001
 40
0.0
 40
0.0
 40
0.0
 40
0.0
 40
0.1084614748
 40
0.1620300211
 40
0.2177464023
 40
0.2573464431
 40
0.2956467235
 40
0.3712230697
 40
0.4467423271
 40
0.5246924863
 40
0.6091734529
 40
0.6546650189
 40
0.7029278553
 40
0.7773481255
 40
0.8442886394
 40
0.9057717315
 40
0.9643873549
 40
1.0
 40
1.0
 40
1.0
 40
1.0
 10
-26.0822662842
 20
3.385261398
 30
0.0
 10
-26.0211993353
 20
3.4432237117
 30
0.0
 10
-25.9131250594
 20
3.5152571458
 30
0.0
 10
-25.7495881684
 20
3.5614832659
 30
0.0
 10
-25.6337437284
 20
3.5712804196
 30
0.0
 10
-25.5299527993
 20
3.5648978194
 30
0.0
 10
-25.4128304189
 20
3.5411993059
 30
0.0
 10
-25.2764389938
 20
3.4807033215
 30
0.0
 10
-25.1392467179
 20
3.3633553745
 30
0.0
 10
-25.0410960574
 20
3.2038093168
 30
0.0
 10
-24.993953921
 20
3.0478707453
 30
0.0
 10
-24.975040099
 20
2.9106332756
 30
0.0
 10
-24.9697826649
 20
2.7800406452
 30
0.0
 10
-24.978529089
 20
2.6326218267
 30
0.0
 10
-25.0122289409
 20
2.4780379401
 30
0.0
 10
-25.0698879101
 20
2.3435814776
 30
0.0
 10
-25.141907167
 20
2.2452585683
 30
0.0
 10
-25.1948568975
 20
2.1943636005
 30
0.0
 10
-25.2160638962
 20
2.1765537739
 30
0.0
  0
SPLINE
  5
6E1
100
AcDbEntity
  8
ASSI
100
AcDbSpline
 62
7
  6
CONTINUOUS
 70
0
 71
3
 72
9
 73
5
 74
0
 42
0.0000001
 43
0.0000001
 44
0.0000000001
 40
0.0
 40
0.0
 40
0.0
 40
0.0
 40
0.7911658617
 40
1.0
 40
1.0
 40
1.0
 40
1.0
 10
-26.2754693803
 20
2.7731213049
 30
0.0
 10
-26.2754693803
 20
2.9453454373
 30
0.0
 10
-26.250105821
 20
3.1787168937
 30
0.0
 10
-26.1152384715
 20
3.3539655121
 30
0.0
 10
-26.0822662842
 20
3.385261398
 30
0.0
  0
SPLINE
  5
6E2
100
AcDbEntity
  8
ASSI
100
AcDbSpline
 62
7
  6
CONTINUOUS
 70
0
 71
3
 72
16
 73
12
 74
0
 42
0.0000001
 43
0.0000001
 44
0.0000000001
 40
0.0
 40
0.0
 40
0.0
 40
0.0
 40
0.1522543123
 40
0.2694555914
 40
0.3706433414
 40
0.4732597487
 40
0.6190505678
 40
0.6948201622
 40
0.775286542
 40
0.8735743773
 40
1.0
 40
1.0
 40
1.0
 40
1.0
 10
-27.5013714558
 20
3.5340385438
 30
0.0
 10
-27.4399894166
 20
3.5340385438
 30
0.0
 10
-27.3301407454
 20
3.5262390333
 30
0.0
 10
-27.1903965818
 20
3.4607935642
 30
0.0
 10
-27.1098073533
 20
3.3531494243
 30
0.0
 10
-27.0827154425
 20
3.2110141502
 30
0.0
 10
-27.1215130209
 20
3.0777332162
 30
0.0
 10
-27.2057036689
 20
2.9867947175
 30
0.0
 10
-27.2987141184
 20
2.9392736822
 30
0.0
 10
-27.4202471392
 20
2.9151396837
 30
0.0
 10
-27.5109585984
 20
2.9111749728
 30
0.0
 10
-27.5619276803
 20
2.9111749728
 30
0.0
  0
SPLINE
  5
6E3
100
AcDbEntity
  8
ASSI
100
AcDbSpline
 62
7
  6
CONTINUOUS
 70
0
 71
3
 72
16
 73
12
 74
0
 42
0.0000001
 43
0.0000001
 44
0.0000000001
 40
0.0
 40
0.0
 40
0.0
 40
0.0
 40
0.1089696409
 40
0.1828936499
 40
0.2222819345
 40
0.2625064106
 40
0.3465431344
 40
0.4482180559
 40
0.5822445398
 40
0.7621351793
 40
1.0
 40
1.0
 40
1.0
 40
1.0
 10
-27.8086581393
 20
2.6920192719
 30
0.0
 10
-27.7810135662
 20
2.6920192719
 30
0.0
 10
-27.734707039
 20
2.6909523441
 30
0.0
 10
-27.6781536773
 20
2.6864497271
 30
0.0
 10
-27.6407349616
 20
2.6751833923
 30
0.0
 10
-27.6019994723
 20
2.6602610794
 30
0.0
 10
-27.5508479326
 20
2.6335488701
 30
0.0
 10
-27.4887942941
 20
2.5803757944
 30
0.0
 10
-27.4210697381
 20
2.4992821367
 30
0.0
 10
-27.3399972085
 20
2.3851127331
 30
0.0
 10
-27.2819052505
 20
2.296448077
 30
0.0
 10
-27.2494145179
 20
2.2455977196
 30
0.0
  0
SPLINE
  5
6E4
100
AcDbEntity
  8
ASSI
100
AcDbSpline
 62
7
  6
CONTINUOUS
 70
0
 71
3
 72
9
 73
5
 74
0
 42
0.0000001
 43
0.0000001
 44
0.0000000001
 40
0.0
 40
0.0
 40
0.0
 40
0.0
 40
0.2659540588
 40
1.0
 40
1.0
 40
1.0
 40
1.0
 10
-27.0252125676
 20
2.3674310865
 30
0.0
 10
-27.0409468678
 20
2.3911943083
 30
0.0
 10
-27.1019736381
 20
2.4792627512
 30
0.0
 10
-27.1710252752
 20
2.5620228586
 30
0.0
 10
-27.2268861852
 20
2.6174055001
 30
0.0
  0
SPLINE
  5
6E5
100
AcDbEntity
  8
ASSI
100
AcDbSpline
 62
7
  6
CONTINUOUS
 70
0
 71
3
 72
9
 73
5
 74
0
 42
0.0000001
 43
0.0000001
 44
0.0000000001
 40
0.0
 40
0.0
 40
0.0
 40
0.0
 40
0.209446698
 40
1.0
 40
1.0
 40
1.0
 40
1.0
 10
-27.2268861852
 20
2.6174055001
 30
0.0
 10
-27.23563494
 20
2.6259307434
 30
0.0
 10
-27.2798569546
 20
2.6641207951
 30
0.0
 10
-27.3306982503
 20
2.693821347
 30
0.0
 10
-27.3716081678
 20
2.7150882931
 30
0.0
  0
SPLINE
  5
6E6
100
AcDbEntity
  8
ASSI
100
AcDbSpline
 62
7
  6
CONTINUOUS
 70
0
 71
3
 72
19
 73
15
 74
0
 42
0.0000001
 43
0.0000001
 44
0.0000000001
 40
0.0
 40
0.0
 40
0.0
 40
0.0
 40
0.136569576
 40
0.2487419393
 40
0.3510973289
 40
0.4029098052
 40
0.4575312966
 40
0.5006597919
 40
0.54259345
 40
0.6258399794
 40
0.7059972618
 40
0.7829904054
 40
0.8757620861
 40
1.0
 40
1.0
 40
1.0
 40
1.0
 10
-27.3716081678
 20
2.7150882931
 30
0.0
 10
-27.2909934478
 20
2.7262833115
 30
0.0
 10
-27.1442337876
 20
2.7597253661
 30
0.0
 10
-26.9645915487
 20
2.8776078045
 30
0.0
 10
-26.8780174813
 20
3.0165145303
 30
0.0
 10
-26.8455915219
 20
3.1372457515
 30
0.0
 10
-26.8386613459
 20
3.226588841
 30
0.0
 10
-26.8437748116
 20
3.309875979
 30
0.0
 10
-26.863342263
 20
3.4085628108
 30
0.0
 10
-26.9123685911
 20
3.5223542573
 30
0.0
 10
-27.0035084979
 20
3.6359930913
 30
0.0
 10
-27.1344992628
 20
3.7135096489
 30
0.0
 10
-27.3083226941
 20
3.7475616966
 30
0.0
 10
-27.4376050491
 20
3.7531942447
 30
0.0
 10
-27.51164436
 20
3.7531942447
 30
0.0
  0
SPLINE
  5
6E7
100
AcDbEntity
  8
ASSI
100
AcDbSpline
 62
7
  6
CONTINUOUS
 70
0
 71
3
 72
9
 73
5
 74
0
 42
0.0000001
 43
0.0000001
 44
0.0000000001
 40
0.0
 40
0.0
 40
0.0
 40
0.0
 40
0.7097160398
 40
1.0
 40
1.0
 40
1.0
 40
1.0
 10
-29.4762959766
 20
3.557107565
 30
0.0
 10
-29.4483034293
 20
3.4613036472
 30
0.0
 10
-29.4032674515
 20
3.3279679677
 30
0.0
 10
-29.3555527916
 20
3.1956883989
 30
0.0
 10
-29.3414864393
 20
3.1573647434
 30
0.0
  0
SPLINE
  5
6E8
100
AcDbEntity
  8
ASSI
100
AcDbSpline
 62
7
  6
CONTINUOUS
 70
0
 71
3
 72
9
 73
5
 74
0
 42
0.0000001
 43
0.0000001
 44
0.0000000001
 40
0.0
 40
0.0
 40
0.0
 40
0.0
 40
0.3106214921
 40
1.0
 40
1.0
 40
1.0
 40
1.0
 10
-31.3326312612
 20
2.4319521836
 30
0.0
 10
-31.3437431458
 20
2.4005343179
 30
0.0
 10
-31.3793105294
 20
2.2993191403
 30
0.0
 10
-31.414399674
 20
2.1979190038
 30
0.0
 10
-31.4371627743
 20
2.1275491717
 30
0.0
  0
SPLINE
  5
6E9
100
AcDbEntity
  8
ASSI
100
AcDbSpline
 62
7
  6
CONTINUOUS
 70
0
 71
3
 72
9
 73
5
 74
0
 42
0.0000001
 43
0.0000001
 44
0.0000000001
 40
0.0
 40
0.0
 40
0.0
 40
0.0
 40
0.1862683768
 40
1.0
 40
1.0
 40
1.0
 40
1.0
 10
-31.4371627743
 20
2.1275491717
 30
0.0
 10
-31.4425533908
 20
2.1450771016
 30
0.0
 10
-31.4720738378
 20
2.2389985879
 30
0.0
 10
-31.5029312579
 20
2.332492711
 30
0.0
 10
-31.5281772525
 20
2.4085227035
 30
0.0
  0
SPLINE
  5
6EA
100
AcDbEntity
  8
ASSI
100
AcDbSpline
 62
7
  6
CONTINUOUS
 70
0
 71
3
 72
22
 73
18
 74
0
 42
0.0000001
 43
0.0000001
 44
0.0000000001
 40
0.0
 40
0.0
 40
0.0
 40
0.0
 40
0.1245167122
 40
0.2419987357
 40
0.3009613969
 40
0.3584696942
 40
0.4171258175
 40
0.4793882064
 40
0.544834558
 40
0.6069895135
 40
0.6683671276
 40
0.7315742793
 40
0.7950400525
 40
0.8573180853
 40
0.9211191536
 40
0.988971738
 40
1.0
 40
1.0
 40
1.0
 40
1.0
 10
-34.0165676354
 20
2.7756445176
 30
0.0
 10
-33.965253215
 20
2.7756445176
 30
0.0
 10
-33.8637971989
 20
2.7608735394
 30
0.0
 10
-33.756371146
 20
2.6916770463
 30
0.0
 10
-33.69340958
 20
2.6179715367
 30
0.0
 10
-33.6588545391
 20
2.5539378863
 30
0.0
 10
-33.6385174452
 20
2.4827116362
 30
0.0
 10
-33.6323417792
 20
2.4057652944
 30
0.0
 10
-33.6388088834
 20
2.3273804739
 30
0.0
 10
-33.660267388
 20
2.2519422069
 30
0.0
 10
-33.6966368839
 20
2.1834719635
 30
0.0
 10
-33.7464775464
 20
2.1235081674
 30
0.0
 10
-33.8068077858
 20
2.0734764714
 30
0.0
 10
-33.8766395321
 20
2.0371405155
 30
0.0
 10
-33.9542107215
 20
2.0157488811
 30
0.0
 10
-34.0131144316
 20
2.0110888897
 30
0.0
 10
-34.0456784309
 20
2.0115536664
 30
0.0
 10
-34.0502288477
 20
2.0116813877
 30
0.0
  0
SPLINE
  5
6EB
100
AcDbEntity
  8
ASSI
100
AcDbSpline
 62
7
  6
CONTINUOUS
 70
0
 71
3
 72
24
 73
20
 74
0
 42
0.0000001
 43
0.0000001
 44
0.0000000001
 40
0.0
 40
0.0
 40
0.0
 40
0.0
 40
0.1121967685
 40
0.166093767
 40
0.2210720507
 40
0.2764710866
 40
0.3317147037
 40
0.3888826938
 40
0.4498582523
 40
0.5174707333
 40
0.5809499684
 40
0.6426255879
 40
0.7050295449
 40
0.7665006467
 40
0.8252721578
 40
0.8839358525
 40
0.9450972128
 40
0.9900525909
 40
1.0
 40
1.0
 40
1.0
 40
1.0
 10
-34.6495240572
 20
2.3459839547
 30
0.0
 10
-34.6422094818
 20
2.272613189
 30
0.0
 10
-34.6141326011
 20
2.1638259065
 30
0.0
 10
-34.5368363265
 20
2.0398409401
 30
0.0
 10
-34.4626514109
 20
1.9605161685
 30
0.0
 10
-34.3745827516
 20
1.8954379951
 30
0.0
 10
-34.2739565648
 20
1.8485510016
 30
0.0
 10
-34.1627442648
 20
1.8208894217
 30
0.0
 10
-34.0405018344
 20
1.8123143503
 30
0.0
 10
-33.9140652267
 20
1.8218862253
 30
0.0
 10
-33.7908055242
 20
1.8544115123
 30
0.0
 10
-33.6795961343
 20
1.9096371922
 30
0.0
 10
-33.5833498025
 20
1.9857556634
 30
0.0
 10
-33.5037127031
 20
2.0765227042
 30
0.0
 10
-33.4453462353
 20
2.1796274249
 30
0.0
 10
-33.4107800263
 20
2.2927538122
 30
0.0
 10
-33.4011934568
 20
2.4013020245
 30
0.0
 10
-33.4061172985
 20
2.4776580187
 30
0.0
 10
-33.4119603877
 20
2.5132943651
 30
0.0
 10
-33.4131393325
 20
2.5197295799
 30
0.0
  0
SPLINE
  5
6EC
100
AcDbEntity
  8
ASSI
100
AcDbSpline
 62
7
  6
CONTINUOUS
 70
0
 71
3
 72
17
 73
13
 74
0
 42
0.0000001
 43
0.0000001
 44
0.0000000001
 40
0.0
 40
0.0
 40
0.0
 40
0.0
 40
0.157922234
 40
0.3041160209
 40
0.4632412459
 40
0.5463538059
 40
0.6330895823
 40
0.7233063267
 40
0.8160954785
 40
0.8830771286
 40
0.946013392
 40
1.0
 40
1.0
 40
1.0
 40
1.0
 10
-33.769296664
 20
2.881077178
 30
0.0
 10
-33.6925337644
 20
2.916629407
 30
0.0
 10
-33.5540654389
 20
3.02230066
 30
0.0
 10
-33.4840005911
 20
3.2757043949
 30
0.0
 10
-33.5453911624
 20
3.4858199305
 30
0.0
 10
-33.657336747
 20
3.624578302
 30
0.0
 10
-33.7742803398
 20
3.7035744471
 30
0.0
 10
-33.9110497233
 20
3.754276716
 30
0.0
 10
-34.0454876348
 20
3.7683943739
 30
0.0
 10
-34.1649039924
 20
3.7597991987
 30
0.0
 10
-34.261089029
 20
3.7365649161
 30
0.0
 10
-34.3188422834
 20
3.7108561753
 30
0.0
 10
-34.3443603483
 20
3.6968479778
 30
0.0
  0
SPLINE
  5
6ED
100
AcDbEntity
  8
ASSI
100
AcDbSpline
 62
7
  6
CONTINUOUS
 70
0
 71
3
 72
16
 73
12
 74
0
 42
0.0000001
 43
0.0000001
 44
0.0000000001
 40
0.0
 40
0.0
 40
0.0
 40
0.0
 40
0.2754465559
 40
0.3950325473
 40
0.4565247543
 40
0.5218606479
 40
0.5875789382
 40
0.6488150883
 40
0.7664059399
 40
0.8813245124
 40
1.0
 40
1.0
 40
1.0
 40
1.0
 10
-34.3957648245
 20
3.2341412689
 30
0.0
 10
-34.3816128347
 20
3.3253428743
 30
0.0
 10
-34.3308672895
 20
3.4634154058
 30
0.0
 10
-34.195617371
 20
3.5448377299
 30
0.0
 10
-34.1153195506
 20
3.5655004936
 30
0.0
 10
-34.0506770028
 20
3.5702625083
 30
0.0
 10
-33.9861518578
 20
3.5655079043
 30
0.0
 10
-33.9063387214
 20
3.5449738826
 30
0.0
 10
-33.8207169083
 20
3.4908171304
 30
0.0
 10
-33.7513586133
 20
3.3915359993
 30
0.0
 10
-33.7382977218
 20
3.311753181
 30
0.0
 10
-33.7382977218
 20
3.2719889312
 30
0.0
  0
SPLINE
  5
6EE
100
AcDbEntity
  8
ASSI
100
AcDbSpline
 62
7
  6
CONTINUOUS
 70
0
 71
3
 72
11
 73
7
 74
0
 42
0.0000001
 43
0.0000001
 44
0.0000000001
 40
0.0
 40
0.0
 40
0.0
 40
0.0
 40
0.2589066357
 40
0.4973886641
 40
0.7458566114
 40
1.0
 40
1.0
 40
1.0
 40
1.0
 10
-33.7382977218
 20
3.2719889312
 30
0.0
 10
-33.7382977218
 20
3.2240322807
 30
0.0
 10
-33.7531050839
 20
3.1279745363
 30
0.0
 10
-33.8529511453
 20
3.023414789
 30
0.0
 10
-33.9804686095
 20
2.9675106368
 30
0.0
 10
-34.0740247827
 20
2.954609749
 30
0.0
 10
-34.1210991485
 20
2.954609749
 30
0.0
  0
SPLINE
  5
6EF
100
AcDbEntity
  8
ASSI
100
AcDbSpline
 62
7
  6
CONTINUOUS
 70
0
 71
3
 72
8
 73
4
 74
0
 42
0.0000001
 43
0.0000001
 44
0.0000000001
 40
0.0
 40
0.0
 40
0.0
 40
0.0
 40
1.0
 40
1.0
 40
1.0
 40
1.0
 10
-34.1210991485
 20
2.954609749
 30
0.0
 10
-34.1338070996
 20
2.954609749
 30
0.0
 10
-34.1464991393
 20
2.9558888876
 30
0.0
 10
-34.1591270403
 20
2.9573130151
 30
0.0
  0
SPLINE
  5
6F0
100
AcDbEntity
  8
ASSI
100
AcDbSpline
 62
7
  6
CONTINUOUS
 70
0
 71
3
 72
9
 73
5
 74
0
 42
0.0000001
 43
0.0000001
 44
0.0000000001
 40
0.0
 40
0.0
 40
0.0
 40
0.0
 40
0.290916541
 40
1.0
 40
1.0
 40
1.0
 40
1.0
 10
-34.185800651
 20
2.7496918248
 30
0.0
 10
-34.1696976291
 20
2.7538178674
 30
0.0
 10
-34.1141281067
 20
2.7668606026
 30
0.0
 10
-34.0570852781
 20
2.7756445176
 30
0.0
 10
-34.0165676354
 20
2.7756445176
 30
0.0
  0
SPLINE
  5
6F1
100
AcDbEntity
  8
ASSI
100
AcDbSpline
 62
7
  6
CONTINUOUS
 70
0
 71
3
 72
14
 73
10
 74
0
 42
0.0000001
 43
0.0000001
 44
0.0000000001
 40
0.0
 40
0.0
 40
0.0
 40
0.0
 40
0.1531755028
 40
0.3079996746
 40
0.4958433067
 40
0.5877948367
 40
0.6835810267
 40
0.8209533056
 40
1.0
 40
1.0
 40
1.0
 40
1.0
 10
-35.6714095319
 20
3.5062837323
 30
0.0
 10
-35.6421307044
 20
3.5264639323
 30
0.0
 10
-35.5767210242
 20
3.5587214802
 30
0.0
 10
-35.4613805786
 20
3.5748766388
 30
0.0
 10
-35.358872611
 20
3.556985477
 30
0.0
 10
-35.2827003123
 20
3.5135224581
 30
0.0
 10
-35.2243607509
 20
3.4644320663
 30
0.0
 10
-35.1750750169
 20
3.3802441064
 30
0.0
 10
-35.1547381574
 20
3.3092726785
 30
0.0
 10
-35.1455080119
 20
3.2687448006
 30
0.0
  0
SPLINE
  5
6F2
100
AcDbEntity
  8
ASSI
100
AcDbSpline
 62
7
  6
CONTINUOUS
 70
0
 71
3
 72
24
 73
20
 74
0
 42
0.0000001
 43
0.0000001
 44
0.0000000001
 40
0.0
 40
0.0
 40
0.0
 40
0.0
 40
0.0822880068
 40
0.1577312241
 40
0.2333251367
 40
0.2732926312
 40
0.3163027384
 40
0.3737228611
 40
0.4272843912
 40
0.4797850241
 40
0.5341863781
 40
0.6021263291
 40
0.6793833912
 40
0.7687493608
 40
0.818588534
 40
0.8720749546
 40
0.919827556
 40
0.9642108003
 40
1.0
 40
1.0
 40
1.0
 40
1.0
 10
-34.9148178004
 20
3.2918138218
 30
0.0
 10
-34.9235595222
 20
3.3598113733
 30
0.0
 10
-34.9576529759
 20
3.4898637953
 30
0.0
 10
-35.0782379081
 20
3.6488593702
 30
0.0
 10
-35.2205104448
 20
3.7296682739
 30
0.0
 10
-35.3496645564
 20
3.76007325
 30
0.0
 10
-35.4667748949
 20
3.7679014897
 30
0.0
 10
-35.5954085113
 20
3.7566799652
 30
0.0
 10
-35.7265154296
 20
3.7153551869
 30
0.0
 10
-35.8415914913
 20
3.6447928962
 30
0.0
 10
-35.9455729448
 20
3.5409712143
 30
0.0
 10
-36.032247288
 20
3.3970608399
 30
0.0
 10
-36.0943825672
 20
3.2105795225
 30
0.0
 10
-36.1235745134
 20
3.0320296172
 30
0.0
 10
-36.1355584924
 20
2.8718899669
 30
0.0
 10
-36.1384142819
 20
2.7459989002
 30
0.0
 10
-36.135772706
 20
2.6246552848
 30
0.0
 10
-36.1276740224
 20
2.5183426264
 30
0.0
 10
-36.118738661
 20
2.452066489
 30
0.0
 10
-36.1138067755
 20
2.4226373728
 30
0.0
  0
SPLINE
  5
6F3
100
AcDbEntity
  8
ASSI
100
AcDbSpline
 62
7
  6
CONTINUOUS
 70
0
 71
3
 72
11
 73
7
 74
0
 42
0.0000001
 43
0.0000001
 44
0.0000000001
 40
0.0
 40
0.0
 40
0.0
 40
0.0
 40
0.3426107936
 40
0.6044566108
 40
0.8143265955
 40
1.0
 40
1.0
 40
1.0
 40
1.0
 10
-35.9067857098
 20
2.8316950052
 30
0.0
 10
-35.9060390269
 20
2.91601558
 30
0.0
 10
-35.8986125816
 20
3.0650547881
 30
0.0
 10
-35.8521271859
 20
3.2619255332
 30
0.0
 10
-35.7748534507
 20
3.4058703073
 30
0.0
 10
-35.7076749284
 20
3.4784781941
 30
0.0
 10
-35.6714095319
 20
3.5062837323
 30
0.0
  0
SPLINE
  5
6F4
100
AcDbEntity
  8
ASSI
100
AcDbSpline
 62
7
  6
CONTINUOUS
 70
0
 71
3
 72
13
 73
9
 74
0
 42
0.0000001
 43
0.0000001
 44
0.0000000001
 40
0.0
 40
0.0
 40
0.0
 40
0.0
 40
0.2591153923
 40
0.3783559876
 40
0.5002774492
 40
0.6221918058
 40
0.741366948
 40
1.0
 40
1.0
 40
1.0
 40
1.0
 10
-36.7004140709
 20
2.1643154571
 30
0.0
 10
-36.7342343942
 20
2.1186108339
 30
0.0
 10
-36.7962438873
 20
2.0580596833
 30
0.0
 10
-36.8995546695
 20
2.0175124947
 30
0.0
 10
-36.9794941363
 20
2.0084408533
 30
0.0
 10
-37.0594156463
 20
2.017487733
 30
0.0
 10
-37.1626656067
 20
2.0578236846
 30
0.0
 10
-37.2247286365
 20
2.1181320111
 30
0.0
 10
-37.2585762274
 20
2.163684654
 30
0.0
  0
SPLINE
  5
6F5
100
AcDbEntity
  8
ASSI
100
AcDbSpline
 62
7
  6
CONTINUOUS
 70
0
 71
3
 72
9
 73
5
 74
0
 42
0.0000001
 43
0.0000001
 44
0.0000000001
 40
0.0
 40
0.0
 40
0.0
 40
0.0
 40
0.3855604367
 40
1.0
 40
1.0
 40
1.0
 40
1.0
 10
-37.2585762274
 20
2.163684654
 30
0.0
 10
-37.3078150884
 20
2.2299511206
 30
0.0
 10
-37.3628757324
 20
2.446753449
 30
0.0
 10
-37.3716685527
 20
2.658497127
 30
0.0
 10
-37.3716685527
 20
2.7900626998
 30
0.0
  0
SPLINE
  5
6F6
100
AcDbEntity
  8
ASSI
100
AcDbSpline
 62
7
  6
CONTINUOUS
 70
0
 71
3
 72
9
 73
5
 74
0
 42
0.0000001
 43
0.0000001
 44
0.0000000001
 40
0.0
 40
0.0
 40
0.0
 40
0.0
 40
0.6001364234
 40
1.0
 40
1.0
 40
1.0
 40
1.0
 10
-37.3716685527
 20
2.7900626998
 30
0.0
 10
-37.3716685527
 20
2.9220481479
 30
0.0
 10
-37.3617665155
 20
3.140714771
 30
0.0
 10
-37.3004208247
 20
3.3603296869
 30
0.0
 10
-37.2500154152
 20
3.4323907024
 30
0.0
  0
SPLINE
  5
6F7
100
AcDbEntity
  8
ASSI
100
AcDbSpline
 62
7
  6
CONTINUOUS
 70
0
 71
3
 72
13
 73
9
 74
0
 42
0.0000001
 43
0.0000001
 44
0.0000000001
 40
0.0
 40
0.0
 40
0.0
 40
0.0
 40
0.2418297111
 40
0.3587506684
 40
0.4819025475
 40
0.6099630364
 40
0.7339475358
 40
1.0
 40
1.0
 40
1.0
 40
1.0
 10
-37.2500154152
 20
3.4323907024
 30
0.0
 10
-37.2188863517
 20
3.4740430445
 30
0.0
 10
-37.1591723706
 20
3.528568325
 30
0.0
 10
-37.0605303164
 20
3.5634587479
 30
0.0
 10
-36.9811490753
 20
3.5714850196
 30
0.0
 10
-36.9001883541
 20
3.5626624309
 30
0.0
 10
-36.7951371113
 20
3.5219899033
 30
0.0
 10
-36.7324866488
 20
3.4605507649
 30
0.0
 10
-36.6989722351
 20
3.4141877891
 30
0.0
  0
SPLINE
  5
6F8
100
AcDbEntity
  8
ASSI
100
AcDbSpline
 62
7
  6
CONTINUOUS
 70
0
 71
3
 72
17
 73
13
 74
0
 42
0.0000001
 43
0.0000001
 44
0.0000000001
 40
0.0
 40
0.0
 40
0.0
 40
0.0
 40
0.0844580526
 40
0.1939587312
 40
0.3316668575
 40
0.4116386184
 40
0.4991820578
 40
0.5872976204
 40
0.6677250704
 40
0.8060064882
 40
0.915671004
 40
1.0
 40
1.0
 40
1.0
 40
1.0
 10
-36.6989722351
 20
3.4141877891
 30
0.0
 10
-36.6777765457
 20
3.3848662189
 30
0.0
 10
-36.6424810928
 20
3.3081939031
 30
0.0
 10
-36.6099659795
 20
3.1695666696
 30
0.0
 10
-36.59477565
 20
3.0299328746
 30
0.0
 10
-36.5883299364
 20
2.8993366432
 30
0.0
 10
-36.5867918137
 20
2.7898176677
 30
0.0
 10
-36.5883417577
 20
2.6801029896
 30
0.0
 10
-36.5948650828
 20
2.5488243798
 30
0.0
 10
-36.6102294366
 20
2.4086864528
 30
0.0
 10
-36.6431245153
 20
2.2698763145
 30
0.0
 10
-36.678925829
 20
2.1933545646
 30
0.0
 10
-36.7004140709
 20
2.1643154571
 30
0.0
  0
SPLINE
  5
6F9
100
AcDbEntity
  8
ASSI
100
AcDbSpline
 62
7
  6
CONTINUOUS
 70
0
 71
3
 72
14
 73
10
 74
0
 42
0.0000001
 43
0.0000001
 44
0.0000000001
 40
0.0
 40
0.0
 40
0.0
 40
0.0
 40
0.1531755028
 40
0.3079996746
 40
0.4958433067
 40
0.5877948367
 40
0.6835810267
 40
0.8209533056
 40
1.0
 40
1.0
 40
1.0
 40
1.0
 10
-38.6242442388
 20
3.5062837323
 30
0.0
 10
-38.5949654114
 20
3.5264639323
 30
0.0
 10
-38.5295557312
 20
3.5587214802
 30
0.0
 10
-38.4142152856
 20
3.5748766388
 30
0.0
 10
-38.311707318
 20
3.556985477
 30
0.0
 10
-38.2355350193
 20
3.5135224581
 30
0.0
 10
-38.1771954579
 20
3.4644320663
 30
0.0
 10
-38.1279097239
 20
3.3802441064
 30
0.0
 10
-38.1075728644
 20
3.3092726785
 30
0.0
 10
-38.0983427189
 20
3.2687448006
 30
0.0
  0
SPLINE
  5
6FA
100
AcDbEntity
  8
ASSI
100
AcDbSpline
 62
7
  6
CONTINUOUS
 70
0
 71
3
 72
24
 73
20
 74
0
 42
0.0000001
 43
0.0000001
 44
0.0000000001
 40
0.0
 40
0.0
 40
0.0
 40
0.0
 40
0.0822880068
 40
0.1577312241
 40
0.2333251367
 40
0.2732926312
 40
0.3163027384
 40
0.3737228611
 40
0.4272843912
 40
0.4797850241
 40
0.5341863781
 40
0.6021263291
 40
0.6793833912
 40
0.7687493608
 40
0.8185885339
 40
0.8720749546
 40
0.919827556
 40
0.9642108003
 40
1.0
 40
1.0
 40
1.0
 40
1.0
 10
-37.8676525074
 20
3.2918138218
 30
0.0
 10
-37.8763942292
 20
3.3598113733
 30
0.0
 10
-37.9104876829
 20
3.4898637953
 30
0.0
 10
-38.0310726151
 20
3.6488593702
 30
0.0
 10
-38.1733451518
 20
3.7296682739
 30
0.0
 10
-38.3024992634
 20
3.76007325
 30
0.0
 10
-38.4196096019
 20
3.7679014897
 30
0.0
 10
-38.5482432183
 20
3.7566799652
 30
0.0
 10
-38.6793501366
 20
3.7153551869
 30
0.0
 10
-38.7944261983
 20
3.6447928962
 30
0.0
 10
-38.8984076518
 20
3.5409712143
 30
0.0
 10
-38.985081995
 20
3.3970608399
 30
0.0
 10
-39.0472172742
 20
3.2105795225
 30
0.0
 10
-39.0764092204
 20
3.0320296172
 30
0.0
 10
-39.0883931994
 20
2.8718899669
 30
0.0
 10
-39.0912489889
 20
2.7459989002
 30
0.0
 10
-39.088607413
 20
2.6246552848
 30
0.0
 10
-39.0805087294
 20
2.5183426264
 30
0.0
 10
-39.071573368
 20
2.452066489
 30
0.0
 10
-39.0666414825
 20
2.4226373728
 30
0.0
  0
SPLINE
  5
6FB
100
AcDbEntity
  8
ASSI
100
AcDbSpline
 62
7
  6
CONTINUOUS
 70
0
 71
3
 72
11
 73
7
 74
0
 42
0.0000001
 43
0.0000001
 44
0.0000000001
 40
0.0
 40
0.0
 40
0.0
 40
0.0
 40
0.3426107936
 40
0.6044566108
 40
0.8143265955
 40
1.0
 40
1.0
 40
1.0
 40
1.0
 10
-38.8596204168
 20
2.8316950052
 30
0.0
 10
-38.8588737339
 20
2.91601558
 30
0.0
 10
-38.8514472885
 20
3.0650547881
 30
0.0
 10
-38.8049618929
 20
3.2619255332
 30
0.0
 10
-38.7276881577
 20
3.4058703073
 30
0.0
 10
-38.6605096354
 20
3.4784781941
 30
0.0
 10
-38.6242442388
 20
3.5062837323
 30
0.0
  0
SPLINE
  5
6FC
100
AcDbEntity
  8
ASSI
100
AcDbSpline
 62
7
  6
CONTINUOUS
 70
0
 71
3
 72
24
 73
20
 74
0
 42
0.0000001
 43
0.0000001
 44
0.0000000001
 40
0.0
 40
0.0
 40
0.0
 40
0.0
 40
0.1121967685
 40
0.166093767
 40
0.2210720507
 40
0.2764710866
 40
0.3317147037
 40
0.3888826938
 40
0.4498582523
 40
0.5174707333
 40
0.5809499684
 40
0.6426255879
 40
0.7050295449
 40
0.7665006467
 40
0.8252721578
 40
0.8839358525
 40
0.9450972128
 40
0.9900525909
 40
1.0
 40
1.0
 40
1.0
 40
1.0
 10
-40.5551934712
 20
2.3459839547
 30
0.0
 10
-40.5478788958
 20
2.272613189
 30
0.0
 10
-40.5198020151
 20
2.1638259065
 30
0.0
 10
-40.4425057405
 20
2.0398409401
 30
0.0
 10
-40.3683208249
 20
1.9605161685
 30
0.0
 10
-40.2802521655
 20
1.8954379951
 30
0.0
 10
-40.1796259788
 20
1.8485510016
 30
0.0
 10
-40.0684136788
 20
1.8208894217
 30
0.0
 10
-39.9461712484
 20
1.8123143503
 30
0.0
 10
-39.8197346407
 20
1.8218862253
 30
0.0
 10
-39.6964749382
 20
1.8544115123
 30
0.0
 10
-39.5852655483
 20
1.9096371922
 30
0.0
 10
-39.4890192165
 20
1.9857556634
 30
0.0
 10
-39.4093821171
 20
2.0765227042
 30
0.0
 10
-39.3510156493
 20
2.1796274249
 30
0.0
 10
-39.3164494403
 20
2.2927538122
 30
0.0
 10
-39.3068628708
 20
2.4013020245
 30
0.0
 10
-39.3117867125
 20
2.4776580187
 30
0.0
 10
-39.3176298017
 20
2.5132943651
 30
0.0
 10
-39.3188087465
 20
2.5197295799
 30
0.0
  0
SPLINE
  5
6FD
100
AcDbEntity
  8
ASSI
100
AcDbSpline
 62
7
  6
CONTINUOUS
 70
0
 71
3
 72
17
 73
13
 74
0
 42
0.0000001
 43
0.0000001
 44
0.0000000001
 40
0.0
 40
0.0
 40
0.0
 40
0.0
 40
0.157922234
 40
0.3041160209
 40
0.4632412459
 40
0.5463538059
 40
0.6330895823
 40
0.7233063267
 40
0.8160954785
 40
0.8830771286
 40
0.946013392
 40
1.0
 40
1.0
 40
1.0
 40
1.0
 10
-39.674966078
 20
2.881077178
 30
0.0
 10
-39.5982031784
 20
2.916629407
 30
0.0
 10
-39.4597348529
 20
3.02230066
 30
0.0
 10
-39.3896700051
 20
3.2757043949
 30
0.0
 10
-39.4510605764
 20
3.4858199305
 30
0.0
 10
-39.563006161
 20
3.624578302
 30
0.0
 10
-39.6799497538
 20
3.7035744471
 30
0.0
 10
-39.8167191373
 20
3.754276716
 30
0.0
 10
-39.9511570488
 20
3.7683943739
 30
0.0
 10
-40.0705734064
 20
3.7597991987
 30
0.0
 10
-40.166758443
 20
3.7365649161
 30
0.0
 10
-40.2245116974
 20
3.7108561753
 30
0.0
 10
-40.2500297623
 20
3.6968479778
 30
0.0
  0
SPLINE
  5
6FE
100
AcDbEntity
  8
ASSI
100
AcDbSpline
 62
7
  6
CONTINUOUS
 70
0
 71
3
 72
16
 73
12
 74
0
 42
0.0000001
 43
0.0000001
 44
0.0000000001
 40
0.0
 40
0.0
 40
0.0
 40
0.0
 40
0.2754465559
 40
0.3950325473
 40
0.4565247543
 40
0.5218606479
 40
0.5875789382
 40
0.6488150883
 40
0.7664059399
 40
0.8813245124
 40
1.0
 40
1.0
 40
1.0
 40
1.0
 10
-40.3014342385
 20
3.2341412689
 30
0.0
 10
-40.2872822487
 20
3.3253428743
 30
0.0
 10
-40.2365367035
 20
3.4634154058
 30
0.0
 10
-40.1012867849
 20
3.5448377299
 30
0.0
 10
-40.0209889646
 20
3.5655004936
 30
0.0
 10
-39.9563464168
 20
3.5702625083
 30
0.0
 10
-39.8918212718
 20
3.5655079043
 30
0.0
 10
-39.8120081354
 20
3.5449738826
 30
0.0
 10
-39.7263863223
 20
3.4908171304
 30
0.0
 10
-39.6570280273
 20
3.3915359993
 30
0.0
 10
-39.6439671358
 20
3.311753181
 30
0.0
 10
-39.6439671358
 20
3.2719889312
 30
0.0
  0
SPLINE
  5
6FF
100
AcDbEntity
  8
ASSI
100
AcDbSpline
 62
7
  6
CONTINUOUS
 70
0
 71
3
 72
11
 73
7
 74
0
 42
0.0000001
 43
0.0000001
 44
0.0000000001
 40
0.0
 40
0.0
 40
0.0
 40
0.0
 40
0.2589066357
 40
0.4973886641
 40
0.7458566114
 40
1.0
 40
1.0
 40
1.0
 40
1.0
 10
-39.6439671358
 20
3.2719889312
 30
0.0
 10
-39.6439671358
 20
3.2240322807
 30
0.0
 10
-39.6587744979
 20
3.1279745363
 30
0.0
 10
-39.7586205593
 20
3.023414789
 30
0.0
 10
-39.8861380234
 20
2.9675106368
 30
0.0
 10
-39.9796941967
 20
2.954609749
 30
0.0
 10
-40.0267685625
 20
2.954609749
 30
0.0
  0
SPLINE
  5
700
100
AcDbEntity
  8
ASSI
100
AcDbSpline
 62
7
  6
CONTINUOUS
 70
0
 71
3
 72
8
 73
4
 74
0
 42
0.0000001
 43
0.0000001
 44
0.0000000001
 40
0.0
 40
0.0
 40
0.0
 40
0.0
 40
1.0
 40
1.0
 40
1.0
 40
1.0
 10
-40.0267685625
 20
2.954609749
 30
0.0
 10
-40.0394765136
 20
2.954609749
 30
0.0
 10
-40.0521685533
 20
2.9558888876
 30
0.0
 10
-40.0647964543
 20
2.9573130151
 30
0.0
  0
SPLINE
  5
701
100
AcDbEntity
  8
ASSI
100
AcDbSpline
 62
7
  6
CONTINUOUS
 70
0
 71
3
 72
9
 73
5
 74
0
 42
0.0000001
 43
0.0000001
 44
0.0000000001
 40
0.0
 40
0.0
 40
0.0
 40
0.0
 40
0.290916541
 40
1.0
 40
1.0
 40
1.0
 40
1.0
 10
-40.091470065
 20
2.7496918248
 30
0.0
 10
-40.0753670431
 20
2.7538178674
 30
0.0
 10
-40.0197975206
 20
2.7668606026
 30
0.0
 10
-39.9627546921
 20
2.7756445176
 30
0.0
 10
-39.9222370494
 20
2.7756445176
 30
0.0
  0
SPLINE
  5
702
100
AcDbEntity
  8
ASSI
100
AcDbSpline
 62
7
  6
CONTINUOUS
 70
0
 71
3
 72
22
 73
18
 74
0
 42
0.0000001
 43
0.0000001
 44
0.0000000001
 40
0.0
 40
0.0
 40
0.0
 40
0.0
 40
0.1245167122
 40
0.2419987357
 40
0.3009613969
 40
0.3584696942
 40
0.4171258175
 40
0.4793882064
 40
0.544834558
 40
0.6069895135
 40
0.6683671276
 40
0.7315742793
 40
0.7950400525
 40
0.8573180853
 40
0.9211191536
 40
0.988971738
 40
1.0
 40
1.0
 40
1.0
 40
1.0
 10
-39.9222370494
 20
2.7756445176
 30
0.0
 10
-39.870922629
 20
2.7756445176
 30
0.0
 10
-39.7694666129
 20
2.7608735394
 30
0.0
 10
-39.66204056
 20
2.6916770463
 30
0.0
 10
-39.599078994
 20
2.6179715367
 30
0.0
 10
-39.5645239531
 20
2.5539378863
 30
0.0
 10
-39.5441868592
 20
2.4827116362
 30
0.0
 10
-39.5380111932
 20
2.4057652944
 30
0.0
 10
-39.5444782973
 20
2.3273804739
 30
0.0
 10
-39.565936802
 20
2.2519422069
 30
0.0
 10
-39.6023062979
 20
2.1834719635
 30
0.0
 10
-39.6521469604
 20
2.1235081674
 30
0.0
 10
-39.7124771998
 20
2.0734764714
 30
0.0
 10
-39.7823089461
 20
2.0371405155
 30
0.0
 10
-39.8598801355
 20
2.0157488811
 30
0.0
 10
-39.9187838456
 20
2.0110888897
 30
0.0
 10
-39.9513478449
 20
2.0115536664
 30
0.0
 10
-39.9558982617
 20
2.0116813877
 30
0.0
  0
SPLINE
  5
703
100
AcDbEntity
  8
ASSI
100
AcDbSpline
 62
7
  6
CONTINUOUS
 70
0
 71
3
 72
11
 73
7
 74
0
 42
0.0000001
 43
0.0000001
 44
0.0000000001
 40
0.0
 40
0.0
 40
0.0
 40
0.0
 40
0.2023283395
 40
0.445343536
 40
0.7157738534
 40
1.0
 40
1.0
 40
1.0
 40
1.0
 10
-43.5183010824
 20
3.7647287553
 30
0.0
 10
-43.540640104
 20
3.7197886022
 30
0.0
 10
-43.6041177484
 20
3.6280260396
 30
0.0
 10
-43.7298492242
 20
3.5019264246
 30
0.0
 10
-43.8880036755
 20
3.3818695931
 30
0.0
 10
-44.0093344715
 20
3.3158634047
 30
0.0
 10
-44.0732191963
 20
3.2860466545
 30
0.0
  0
SPLINE
  5
704
100
AcDbEntity
  8
ASSI
100
AcDbSpline
 62
7
  6
CONTINUOUS
 70
0
 71
3
 72
13
 73
9
 74
0
 42
0.0000001
 43
0.0000001
 44
0.0000000001
 40
0.0
 40
0.0
 40
0.0
 40
0.0
 40
0.2307998936
 40
0.3606885394
 40
0.5005072743
 40
0.6401943536
 40
0.7697765133
 40
1.0
 40
1.0
 40
1.0
 40
1.0
 10
-44.0732191963
 20
3.0596819505
 30
0.0
 10
-44.0332295484
 20
3.0743186393
 30
0.0
 10
-43.9721611795
 20
3.1011409733
 30
0.0
 10
-43.8900316657
 20
3.1433686688
 30
0.0
 10
-43.8241199748
 20
3.1802984011
 30
0.0
 10
-43.7595865352
 20
3.2195039821
 30
0.0
 10
-43.6832680951
 20
3.2711771816
 30
0.0
 10
-43.6312078079
 20
3.3127736613
 30
0.0
 10
-43.6003042628
 20
3.3419169126
 30
0.0
  0
SPLINE
  5
705
100
AcDbEntity
  8
ASSI
100
AcDbSpline
 62
7
  6
CONTINUOUS
 70
0
 71
3
 72
9
 73
5
 74
0
 42
0.0000001
 43
0.0000001
 44
0.0000000001
 40
0.0
 40
0.0
 40
0.0
 40
0.0
 40
0.7097160398
 40
1.0
 40
1.0
 40
1.0
 40
1.0
 10
-46.0052496295
 20
3.557107565
 30
0.0
 10
-45.9772570822
 20
3.4613036472
 30
0.0
 10
-45.9322211044
 20
3.3279679677
 30
0.0
 10
-45.8845064444
 20
3.1956883989
 30
0.0
 10
-45.8704400921
 20
3.1573647434
 30
0.0
  0
SPLINE
  5
706
100
AcDbEntity
  8
ASSI
100
AcDbSpline
 62
7
  6
CONTINUOUS
 70
0
 71
3
 72
9
 73
5
 74
0
 42
0.0000001
 43
0.0000001
 44
0.0000000001
 40
0.0
 40
0.0
 40
0.0
 40
0.0
 40
0.0986341094
 40
1.0
 40
1.0
 40
1.0
 40
1.0
 10
-48.1458024004
 20
2.0691557009
 30
0.0
 10
-48.1071137258
 20
2.117336344
 30
0.0
 10
-47.714894444
 20
2.6058350163
 30
0.0
 10
-47.3221663592
 20
3.0939249059
 30
0.0
 10
-46.9683813504
 20
3.5340385438
 30
0.0
  0
SPLINE
  5
707
100
AcDbEntity
  8
ASSI
100
AcDbSpline
 62
7
  6
CONTINUOUS
 70
0
 71
3
 72
9
 73
5
 74
0
 42
0.0000001
 43
0.0000001
 44
0.0000000001
 40
0.0
 40
0.0
 40
0.0
 40
0.0
 40
0.2319301259
 40
1.0
 40
1.0
 40
1.0
 40
1.0
 10
-47.2632322
 20
3.5340385438
 30
0.0
 10
-47.2793550342
 20
3.5171450382
 30
0.0
 10
-47.3479017147
 20
3.4433814432
 30
0.0
 10
-47.4128677025
 20
3.3663416591
 30
0.0
 10
-47.461301404
 20
3.3060517745
 30
0.0
  0
SPLINE
  5
708
100
AcDbEntity
  8
ASSI
100
AcDbSpline
 62
7
  6
CONTINUOUS
 70
0
 71
3
 72
17
 73
13
 74
0
 42
0.0000001
 43
0.0000001
 44
0.0000000001
 40
0.0
 40
0.0
 40
0.0
 40
0.0
 40
0.1860451082
 40
0.2705259002
 40
0.3141542026
 40
0.3603530295
 40
0.5121184572
 40
0.5895792025
 40
0.6716563947
 40
0.7632308695
 40
0.8657555241
 40
1.0
 40
1.0
 40
1.0
 40
1.0
 10
-52.5164809366
 20
2.5179204124
 30
0.0
 10
-52.5457078831
 20
2.3834154825
 30
0.0
 10
-52.6398215369
 20
2.1833973097
 30
0.0
 10
-52.8493824143
 20
2.0691792598
 30
0.0
 10
-52.9753379405
 20
2.0392342376
 30
0.0
 10
-53.1538835139
 20
2.0261297631
 30
0.0
 10
-53.3630229107
 20
2.0800695928
 30
0.0
 10
-53.5418066937
 20
2.2318832161
 30
0.0
 10
-53.6321695439
 20
2.3980698418
 30
0.0
 10
-53.6827834701
 20
2.5973605483
 30
0.0
 10
-53.7007749749
 20
2.8402047153
 30
0.0
 10
-53.6815577041
 20
3.0171981848
 30
0.0
 10
-53.6554256044
 20
3.1133621945
 30
0.0
  0
SPLINE
  5
709
100
AcDbEntity
  8
ASSI
100
AcDbSpline
 62
7
  6
CONTINUOUS
 70
0
 71
3
 72
9
 73
5
 74
0
 42
0.0000001
 43
0.0000001
 44
0.0000000001
 40
0.0
 40
0.0
 40
0.0
 40
0.0
 40
0.4786249203
 40
1.0
 40
1.0
 40
1.0
 40
1.0
 10
-53.0661723957
 20
3.5686420756
 30
0.0
 10
-52.9570151312
 20
3.5686420756
 30
0.0
 10
-52.7121725126
 20
3.5090042294
 30
0.0
 10
-52.5984114365
 20
3.285535565
 30
0.0
 10
-52.5626189789
 20
3.1721433846
 30
0.0
  0
SPLINE
  5
70A
100
AcDbEntity
  8
ASSI
100
AcDbSpline
 62
7
  6
CONTINUOUS
 70
0
 71
3
 72
25
 73
21
 74
0
 42
0.0000001
 43
0.0000001
 44
0.0000000001
 40
0.0
 40
0.0
 40
0.0
 40
0.0
 40
0.0888847953
 40
0.1718004827
 40
0.2552805514
 40
0.2993533532
 40
0.346394781
 40
0.3886666315
 40
0.4297437762
 40
0.4702843229
 40
0.5109724255
 40
0.5911642652
 40
0.6732957874
 40
0.7613184488
 40
0.8083486364
 40
0.85815985
 40
0.9045619297
 40
0.949869011
 40
0.9945301458
 40
1.0
 40
1.0
 40
1.0
 40
1.0
 10
-52.3088597463
 20
3.2305368554
 30
0.0
 10
-52.3325676001
 20
3.3131211616
 30
0.0
 10
-52.3989036877
 20
3.4686930208
 30
0.0
 10
-52.5697291123
 20
3.6536704539
 30
0.0
 10
-52.7556852231
 20
3.7469466064
 30
0.0
 10
-52.9212884487
 20
3.7822873756
 30
0.0
 10
-53.0504021465
 20
3.7903666043
 30
0.0
 10
-53.1765076806
 20
3.7832253229
 30
0.0
 10
-53.2946451715
 20
3.7616470007
 30
0.0
 10
-53.407502559
 20
3.7252764877
 30
0.0
 10
-53.5490654949
 20
3.6589025188
 30
0.0
 10
-53.7080289609
 20
3.5381758829
 30
0.0
 10
-53.8467345097
 20
3.3355091473
 30
0.0
 10
-53.9153392784
 20
3.1346016723
 30
0.0
 10
-53.9424433966
 20
2.957686575
 30
0.0
 10
-53.9488878116
 20
2.8191239109
 30
0.0
 10
-53.942737329
 20
2.682277353
 30
0.0
 10
-53.9238801716
 20
2.5515797325
 30
0.0
 10
-53.9014083229
 20
2.4619386091
 30
0.0
 10
-53.8869709835
 20
2.4156593458
 30
0.0
 10
-53.8853640057
 20
2.4106199025
 30
0.0
  0
SPLINE
  5
70B
100
AcDbEntity
  8
ASSI
100
AcDbSpline
 62
7
  6
CONTINUOUS
 70
0
 71
3
 72
11
 73
7
 74
0
 42
0.0000001
 43
0.0000001
 44
0.0000000001
 40
0.0
 40
0.0
 40
0.0
 40
0.0
 40
0.2525992429
 40
0.4888102636
 40
0.730558892
 40
1.0
 40
1.0
 40
1.0
 40
1.0
 10
-53.0513937545
 20
1.8153964683
 30
0.0
 10
-52.9588359584
 20
1.8153964683
 30
0.0
 10
-52.7776456124
 20
1.8388304219
 30
0.0
 10
-52.5358350768
 20
1.9672731932
 30
0.0
 10
-52.3541546185
 20
2.1802616147
 30
0.0
 10
-52.2870704309
 20
2.3586208301
 30
0.0
 10
-52.262721704
 20
2.4543002868
 30
0.0
  0
SPLINE
  5
70C
100
AcDbEntity
  8
ASSI
100
AcDbSpline
 62
7
  6
CONTINUOUS
 70
0
 71
3
 72
8
 73
4
 74
0
 42
0.0000001
 43
0.0000001
 44
0.0000000001
 40
0.0
 40
0.0
 40
0.0
 40
0.0
 40
1.0
 40
1.0
 40
1.0
 40
1.0
 10
-55.6827040012
 20
2.0633885336
 30
0.0
 10
-55.7117461979
 20
2.1682266807
 30
0.0
 10
-55.7456857855
 20
2.2717492703
 30
0.0
 10
-55.7825495479
 20
2.3740994012
 30
0.0
  0
SPLINE
  5
70D
100
AcDbEntity
  8
ASSI
100
AcDbSpline
 62
7
  6
CONTINUOUS
 70
0
 71
3
 72
9
 73
5
 74
0
 42
0.0000001
 43
0.0000001
 44
0.0000000001
 40
0.0
 40
0.0
 40
0.0
 40
0.0
 40
0.7097160398
 40
1.0
 40
1.0
 40
1.0
 40
1.0
 10
-61.4614937989
 20
3.557107565
 30
0.0
 10
-61.4335012516
 20
3.4613036472
 30
0.0
 10
-61.3884652738
 20
3.3279679677
 30
0.0
 10
-61.3407506138
 20
3.1956883989
 30
0.0
 10
-61.3266842616
 20
3.1573647434
 30
0.0
  0
SPLINE
  5
70E
100
AcDbEntity
  8
ASSI
100
AcDbSpline
 62
7
  6
CONTINUOUS
 70
0
 71
3
 72
8
 73
4
 74
0
 42
0.0000001
 43
0.0000001
 44
0.0000000001
 40
0.0
 40
0.0
 40
0.0
 40
0.0
 40
1.0
 40
1.0
 40
1.0
 40
1.0
 10
-63.9298790618
 20
2.0633885336
 30
0.0
 10
-63.9589212585
 20
2.1682266807
 30
0.0
 10
-63.9928608461
 20
2.2717492703
 30
0.0
 10
-64.0297246084
 20
2.3740994012
 30
0.0
  0
SPLINE
  5
70F
100
AcDbEntity
  8
ASSI
100
AcDbSpline
 62
7
  6
CONTINUOUS
 70
0
 71
3
 72
9
 73
5
 74
0
 42
0.0000001
 43
0.0000001
 44
0.0000000001
 40
0.0
 40
0.0
 40
0.0
 40
0.0
 40
0.7097160398
 40
1.0
 40
1.0
 40
1.0
 40
1.0
 10
-66.4674713881
 20
3.557107565
 30
0.0
 10
-66.4394788408
 20
3.4613036472
 30
0.0
 10
-66.394442863
 20
3.3279679677
 30
0.0
 10
-66.346728203
 20
3.1956883989
 30
0.0
 10
-66.3326618508
 20
3.1573647434
 30
0.0
  0
SPLINE
  5
710
100
AcDbEntity
  8
ASSI
100
AcDbSpline
 62
7
  6
CONTINUOUS
 70
0
 71
3
 72
15
 73
11
 74
0
 42
0.0000001
 43
0.0000001
 44
0.0000000001
 40
0.0
 40
0.0
 40
0.0
 40
0.0
 40
0.1818234323
 40
0.2742230203
 40
0.3716340726
 40
0.4851660516
 40
0.5943000072
 40
0.6975375539
 40
0.7935178969
 40
1.0
 40
1.0
 40
1.0
 40
1.0
 10
-67.6035306529
 20
2.8008762925
 30
0.0
 10
-67.5552640416
 20
2.8545123357
 30
0.0
 10
-67.4964731286
 20
2.9502092284
 30
0.0
 10
-67.4594470861
 20
3.0936584319
 30
0.0
 10
-67.4500765975
 20
3.2141959702
 30
0.0
 10
-67.4622296367
 20
3.3416549907
 30
0.0
 10
-67.5048832585
 20
3.4649516534
 30
0.0
 10
-67.5695865149
 20
3.5701691433
 30
0.0
 10
-67.6882241273
 20
3.6820041043
 30
0.0
 10
-67.8077554552
 20
3.7215625998
 30
0.0
 10
-67.8885591719
 20
3.735171649
 30
0.0
  0
SPLINE
  5
711
100
AcDbEntity
  8
ASSI
100
AcDbSpline
 62
7
  6
CONTINUOUS
 70
0
 71
3
 72
9
 73
5
 74
0
 42
0.0000001
 43
0.0000001
 44
0.0000000001
 40
0.0
 40
0.0
 40
0.0
 40
0.0
 40
0.1935112737
 40
1.0
 40
1.0
 40
1.0
 40
1.0
 10
-67.8885591719
 20
3.735171649
 30
0.0
 10
-67.9065469008
 20
3.7384904071
 30
0.0
 10
-68.0002773296
 20
3.7513553266
 30
0.0
 10
-68.095102846
 20
3.7531942447
 30
0.0
 10
-68.1713348225
 20
3.7531942447
 30
0.0
  0
SPLINE
  5
712
100
AcDbEntity
  8
ASSI
100
AcDbSpline
 62
7
  6
CONTINUOUS
 70
0
 71
3
 72
9
 73
5
 74
0
 42
0.0000001
 43
0.0000001
 44
0.0000000001
 40
0.0
 40
0.0
 40
0.0
 40
0.0
 40
0.3152731366
 40
1.0
 40
1.0
 40
1.0
 40
1.0
 10
-68.1450218467
 20
2.634346719
 30
0.0
 10
-68.0846868664
 20
2.634346719
 30
0.0
 10
-67.8964827137
 20
2.6425397758
 30
0.0
 10
-67.6911850742
 20
2.703470732
 30
0.0
 10
-67.6035306529
 20
2.8008762925
 30
0.0
  0
SPLINE
  5
713
100
AcDbEntity
  8
ASSI
100
AcDbSpline
 62
7
  6
CONTINUOUS
 70
0
 71
3
 72
9
 73
5
 74
0
 42
0.0000001
 43
0.0000001
 44
0.0000000001
 40
0.0
 40
0.0
 40
0.0
 40
0.0
 40
0.8336714283
 40
1.0
 40
1.0
 40
1.0
 40
1.0
 10
-68.1473646539
 20
3.5340385438
 30
0.0
 10
-68.0838903942
 20
3.5340385438
 30
0.0
 10
-68.0073263109
 20
3.5336991172
 30
0.0
 10
-67.9321271769
 20
3.5204627248
 30
0.0
 10
-67.9199185731
 20
3.5170973249
 30
0.0
  0
SPLINE
  5
714
100
AcDbEntity
  8
ASSI
100
AcDbSpline
 62
7
  6
CONTINUOUS
 70
0
 71
3
 72
16
 73
12
 74
0
 42
0.0000001
 43
0.0000001
 44
0.0000000001
 40
0.0
 40
0.0
 40
0.0
 40
0.0
 40
0.1830996794
 40
0.2824687972
 40
0.3347380912
 40
0.3901799081
 40
0.4651885762
 40
0.533460504
 40
0.6606216576
 40
0.804680395
 40
1.0
 40
1.0
 40
1.0
 40
1.0
 10
-67.9199185731
 20
3.5170973249
 30
0.0
 10
-67.8588201971
 20
3.4996900203
 30
0.0
 10
-67.772395575
 20
3.4347909157
 30
0.0
 10
-67.7239530412
 20
3.3276000379
 30
0.0
 10
-67.7096163987
 20
3.2569174074
 30
0.0
 10
-67.7059747544
 20
3.1934843116
 30
0.0
 10
-67.711009859
 20
3.1243397518
 30
0.0
 10
-67.7347863407
 20
3.0332241786
 30
0.0
 10
-67.8023352604
 20
2.9299799001
 30
0.0
 10
-67.9559114138
 20
2.8609378997
 30
0.0
 10
-68.074548758
 20
2.85350242
 30
0.0
 10
-68.1423184046
 20
2.85350242
 30
0.0
  0
SPLINE
  5
715
100
AcDbEntity
  8
ASSI
100
AcDbSpline
 62
7
  6
CONTINUOUS
 70
0
 71
3
 72
16
 73
12
 74
0
 42
0.0000001
 43
0.0000001
 44
0.0000000001
 40
0.0
 40
0.0
 40
0.0
 40
0.0
 40
0.1566468856
 40
0.220189847
 40
0.2871042189
 40
0.4238330589
 40
0.5820227078
 40
0.6769136751
 40
0.7814331672
 40
0.9003632222
 40
1.0
 40
1.0
 40
1.0
 40
1.0
 10
-69.6928088414
 20
2.6320039118
 30
0.0
 10
-69.6314937948
 20
2.6077630838
 30
0.0
 10
-69.5430155378
 20
2.5589016063
 30
0.0
 10
-69.4908981063
 20
2.4467856652
 30
0.0
 10
-69.4755283362
 20
2.3343035824
 30
0.0
 10
-69.523858077
 20
2.1782148663
 30
0.0
 10
-69.6682894428
 20
2.0804460533
 30
0.0
 10
-69.8137677996
 20
2.0409086787
 30
0.0
 10
-69.9481482635
 20
2.0307412602
 30
0.0
 10
-70.0845145713
 20
2.0425650839
 30
0.0
 10
-70.1729840404
 20
2.0699644966
 30
0.0
 10
-70.2116951438
 20
2.0864292066
 30
0.0
  0
SPLINE
  5
716
100
AcDbEntity
  8
ASSI
100
AcDbSpline
 62
7
  6
CONTINUOUS
 70
0
 71
3
 72
12
 73
8
 74
0
 42
0.0000001
 43
0.0000001
 44
0.0000000001
 40
0.0
 40
0.0
 40
0.0
 40
0.0
 40
0.1606441131
 40
0.3160528741
 40
0.4695579901
 40
0.6257786262
 40
1.0
 40
1.0
 40
1.0
 40
1.0
 10
-70.7294731333
 20
2.472863571
 30
0.0
 10
-70.7278022587
 20
2.4105812385
 30
0.0
 10
-70.70994675
 20
2.2875882426
 30
0.0
 10
-70.6336540869
 20
2.1196967542
 30
0.0
 10
-70.5145201785
 20
1.9805638877
 30
0.0
 10
-70.2847752427
 20
1.8402624483
 30
0.0
 10
-70.0715219728
 20
1.8153964683
 30
0.0
 10
-69.9263827245
 20
1.8153964683
 30
0.0
  0
SPLINE
  5
717
100
AcDbEntity
  8
ASSI
100
AcDbSpline
 62
7
  6
CONTINUOUS
 70
0
 71
3
 72
15
 73
11
 74
0
 42
0.0000001
 43
0.0000001
 44
0.0000000001
 40
0.0
 40
0.0
 40
0.0
 40
0.0
 40
0.1205523663
 40
0.2334839557
 40
0.3389214346
 40
0.4385318437
 40
0.6258636217
 40
0.7171536601
 40
0.8046135431
 40
1.0
 40
1.0
 40
1.0
 40
1.0
 10
-69.9263827245
 20
1.8153964683
 30
0.0
 10
-69.8622196933
 20
1.8153964683
 30
0.0
 10
-69.737392822
 20
1.826455277
 30
0.0
 10
-69.5642725429
 20
1.8820189741
 30
0.0
 10
-69.4179739546
 20
1.9714604012
 30
0.0
 10
-69.2781283674
 20
2.1300575038
 30
0.0
 10
-69.2160900984
 20
2.3348120074
 30
0.0
 10
-69.2422212736
 20
2.5301123737
 30
0.0
 10
-69.3265596029
 20
2.7143637232
 30
0.0
 10
-69.4584601962
 20
2.8073458435
 30
0.0
 10
-69.5527728252
 20
2.8511596127
 30
0.0
  0
SPLINE
  5
718
100
AcDbEntity
  8
ASSI
100
AcDbSpline
 62
7
  6
CONTINUOUS
 70
0
 71
3
 72
9
 73
5
 74
0
 42
0.0000001
 43
0.0000001
 44
0.0000000001
 40
0.0
 40
0.0
 40
0.0
 40
0.0
 40
0.1708537376
 40
1.0
 40
1.0
 40
1.0
 40
1.0
 10
-69.5527728252
 20
2.8511596127
 30
0.0
 10
-69.5750605634
 20
2.8613482783
 30
0.0
 10
-69.7093705871
 20
2.9122810571
 30
0.0
 10
-69.8492598632
 20
2.9460001602
 30
0.0
 10
-69.9650414195
 20
2.9731730332
 30
0.0
  0
SPLINE
  5
719
100
AcDbEntity
  8
ASSI
100
AcDbSpline
 62
7
  6
CONTINUOUS
 70
0
 71
3
 72
9
 73
5
 74
0
 42
0.0000001
 43
0.0000001
 44
0.0000000001
 40
0.0
 40
0.0
 40
0.0
 40
0.0
 40
0.6350560901
 40
1.0
 40
1.0
 40
1.0
 40
1.0
 10
-69.9650414195
 20
2.9731730332
 30
0.0
 10
-70.0466390654
 20
2.9923232548
 30
0.0
 10
-70.1721087965
 20
3.0268031815
 30
0.0
 10
-70.2994339447
 20
3.077037239
 30
0.0
 10
-70.3344161021
 20
3.1101453242
 30
0.0
  0
SPLINE
  5
71A
100
AcDbEntity
  8
ASSI
100
AcDbSpline
 62
7
  6
CONTINUOUS
 70
0
 71
3
 72
14
 73
10
 74
0
 42
0.0000001
 43
0.0000001
 44
0.0000000001
 40
0.0
 40
0.0
 40
0.0
 40
0.0
 40
0.1221754561
 40
0.2479284667
 40
0.3235721644
 40
0.3974374623
 40
0.5551234414
 40
0.7467267791
 40
1.0
 40
1.0
 40
1.0
 40
1.0
 10
-70.3344161021
 20
3.1101453242
 30
0.0
 10
-70.3572130281
 20
3.1312894489
 30
0.0
 10
-70.3958066091
 20
3.1842253648
 30
0.0
 10
-70.4098144174
 20
3.2677929943
 30
0.0
 10
-70.4025311322
 20
3.3379198055
 30
0.0
 10
-70.3756988669
 20
3.4120795416
 30
0.0
 10
-70.3041607614
 20
3.4979648451
 30
0.0
 10
-70.1596658481
 20
3.5613078182
 30
0.0
 10
-70.0452677998
 20
3.5686420756
 30
0.0
 10
-69.9808111468
 20
3.5686420756
 30
0.0
  0
SPLINE
  5
71B
100
AcDbEntity
  8
ASSI
100
AcDbSpline
 62
7
  6
CONTINUOUS
 70
0
 71
3
 72
9
 73
5
 74
0
 42
0.0000001
 43
0.0000001
 44
0.0000000001
 40
0.0
 40
0.0
 40
0.0
 40
0.0
 40
0.5306823676
 40
1.0
 40
1.0
 40
1.0
 40
1.0
 10
-69.9808111468
 20
3.5686420756
 30
0.0
 10
-69.8691062632
 20
3.5686420756
 30
0.0
 10
-69.6313734451
 20
3.5338178063
 30
0.0
 10
-69.5403975875
 20
3.3092992412
 30
0.0
 10
-69.5298840335
 20
3.2110722478
 30
0.0
  0
SPLINE
  5
71C
100
AcDbEntity
  8
ASSI
100
AcDbSpline
 62
7
  6
CONTINUOUS
 70
0
 71
3
 72
20
 73
16
 74
0
 42
0.0000001
 43
0.0000001
 44
0.0000000001
 40
0.0
 40
0.0
 40
0.0
 40
0.0
 40
0.1573317713
 40
0.2361791109
 40
0.3195933993
 40
0.4109088545
 40
0.4598620877
 40
0.5115766229
 40
0.5588578561
 40
0.6043116697
 40
0.6913315838
 40
0.7718242667
 40
0.8471214746
 40
0.9894569562
 40
1.0
 40
1.0
 40
1.0
 40
1.0
 10
-69.2761248009
 20
3.2226067583
 30
0.0
 10
-69.2801784548
 20
3.3266518233
 30
0.0
 10
-69.3272215449
 20
3.4866245718
 30
0.0
 10
-69.472076714
 20
3.6449058679
 30
0.0
 10
-69.6202390302
 20
3.7286189022
 30
0.0
 10
-69.7638667747
 20
3.7688837615
 30
0.0
 10
-69.8900092168
 20
3.7851864874
 30
0.0
 10
-69.9879687435
 20
3.7891138836
 30
0.0
 10
-70.0836106575
 20
3.7852819451
 30
0.0
 10
-70.2016506866
 20
3.7692710634
 30
0.0
 10
-70.3380726313
 20
3.7303164501
 30
0.0
 10
-70.4805544069
 20
3.6511152653
 30
0.0
 10
-70.6152525997
 20
3.503059614
 30
0.0
 10
-70.6620256226
 20
3.3489573912
 30
0.0
 10
-70.6601676898
 20
3.2471228743
 30
0.0
 10
-70.6598803717
 20
3.2401128996
 30
0.0
  0
SPLINE
  5
71D
100
AcDbEntity
  8
ASSI
100
AcDbSpline
 62
7
  6
CONTINUOUS
 70
0
 71
3
 72
9
 73
5
 74
0
 42
0.0000001
 43
0.0000001
 44
0.0000000001
 40
0.0
 40
0.0
 40
0.0
 40
0.0
 40
0.1806469784
 40
1.0
 40
1.0
 40
1.0
 40
1.0
 10
-70.3848794759
 20
2.84521204
 30
0.0
 10
-70.3644913292
 20
2.8345553708
 30
0.0
 10
-70.2475545959
 20
2.7835319367
 30
0.0
 10
-70.1237853147
 20
2.7508461664
 30
0.0
 10
-70.0225337429
 20
2.7256316295
 30
0.0
  0
SPLINE
  5
71E
100
AcDbEntity
  8
ASSI
100
AcDbSpline
 62
7
  6
CONTINUOUS
 70
0
 71
3
 72
9
 73
5
 74
0
 42
0.0000001
 43
0.0000001
 44
0.0000000001
 40
0.0
 40
0.0
 40
0.0
 40
0.0
 40
0.3500357027
 40
1.0
 40
1.0
 40
1.0
 40
1.0
 10
-70.0225337429
 20
2.7256316295
 30
0.0
 10
-69.9837186863
 20
2.7159655704
 30
0.0
 10
-69.8732724524
 20
2.6871176317
 30
0.0
 10
-69.7616908811
 20
2.659789568
 30
0.0
 10
-69.6928088414
 20
2.6320039118
 30
0.0
  0
SPLINE
  5
71F
100
AcDbEntity
  8
ASSI
100
AcDbSpline
 62
7
  6
CONTINUOUS
 70
0
 71
3
 72
16
 73
12
 74
0
 42
0.0000001
 43
0.0000001
 44
0.0000000001
 40
0.0
 40
0.0
 40
0.0
 40
0.0
 40
0.1089696409
 40
0.1828936499
 40
0.2222819345
 40
0.2625064106
 40
0.3465431344
 40
0.4482180559
 40
0.5822445398
 40
0.7621351793
 40
1.0
 40
1.0
 40
1.0
 40
1.0
 10
-72.7471113364
 20
2.6920192719
 30
0.0
 10
-72.7194667633
 20
2.6920192719
 30
0.0
 10
-72.6731602361
 20
2.6909523441
 30
0.0
 10
-72.6166068744
 20
2.6864497271
 30
0.0
 10
-72.5791881587
 20
2.6751833923
 30
0.0
 10
-72.5404526693
 20
2.6602610794
 30
0.0
 10
-72.4893011297
 20
2.6335488701
 30
0.0
 10
-72.4272474912
 20
2.5803757944
 30
0.0
 10
-72.3595229352
 20
2.4992821367
 30
0.0
 10
-72.2784504056
 20
2.3851127331
 30
0.0
 10
-72.2203584475
 20
2.296448077
 30
0.0
 10
-72.187867715
 20
2.2455977196
 30
0.0
  0
SPLINE
  5
720
100
AcDbEntity
  8
ASSI
100
AcDbSpline
 62
7
  6
CONTINUOUS
 70
0
 71
3
 72
9
 73
5
 74
0
 42
0.0000001
 43
0.0000001
 44
0.0000000001
 40
0.0
 40
0.0
 40
0.0
 40
0.0
 40
0.2659540588
 40
1.0
 40
1.0
 40
1.0
 40
1.0
 10
-71.9636657647
 20
2.3674310865
 30
0.0
 10
-71.9794000649
 20
2.3911943083
 30
0.0
 10
-72.0404268352
 20
2.4792627512
 30
0.0
 10
-72.1094784723
 20
2.5620228586
 30
0.0
 10
-72.1653393823
 20
2.6174055001
 30
0.0
  0
SPLINE
  5
721
100
AcDbEntity
  8
ASSI
100
AcDbSpline
 62
7
  6
CONTINUOUS
 70
0
 71
3
 72
9
 73
5
 74
0
 42
0.0000001
 43
0.0000001
 44
0.0000000001
 40
0.0
 40
0.0
 40
0.0
 40
0.0
 40
0.209446698
 40
1.0
 40
1.0
 40
1.0
 40
1.0
 10
-72.1653393823
 20
2.6174055001
 30
0.0
 10
-72.1740881371
 20
2.6259307434
 30
0.0
 10
-72.2183101516
 20
2.6641207951
 30
0.0
 10
-72.2691514474
 20
2.693821347
 30
0.0
 10
-72.3100613649
 20
2.7150882931
 30
0.0
  0
SPLINE
  5
722
100
AcDbEntity
  8
ASSI
100
AcDbSpline
 62
7
  6
CONTINUOUS
 70
0
 71
3
 72
19
 73
15
 74
0
 42
0.0000001
 43
0.0000001
 44
0.0000000001
 40
0.0
 40
0.0
 40
0.0
 40
0.0
 40
0.136569576
 40
0.2487419393
 40
0.3510973289
 40
0.4029098052
 40
0.4575312966
 40
0.5006597919
 40
0.54259345
 40
0.6258399794
 40
0.7059972618
 40
0.7829904054
 40
0.8757620861
 40
1.0
 40
1.0
 40
1.0
 40
1.0
 10
-72.3100613649
 20
2.7150882931
 30
0.0
 10
-72.2294466448
 20
2.7262833115
 30
0.0
 10
-72.0826869846
 20
2.7597253661
 30
0.0
 10
-71.9030447457
 20
2.8776078045
 30
0.0
 10
-71.8164706784
 20
3.0165145303
 30
0.0
 10
-71.784044719
 20
3.1372457515
 30
0.0
 10
-71.777114543
 20
3.226588841
 30
0.0
 10
-71.7822280086
 20
3.309875979
 30
0.0
 10
-71.8017954601
 20
3.4085628108
 30
0.0
 10
-71.8508217882
 20
3.5223542573
 30
0.0
 10
-71.941961695
 20
3.6359930913
 30
0.0
 10
-72.0729524599
 20
3.7135096489
 30
0.0
 10
-72.2467758912
 20
3.7475616966
 30
0.0
 10
-72.3760582462
 20
3.7531942447
 30
0.0
 10
-72.4500975571
 20
3.7531942447
 30
0.0
  0
SPLINE
  5
723
100
AcDbEntity
  8
ASSI
100
AcDbSpline
 62
7
  6
CONTINUOUS
 70
0
 71
3
 72
16
 73
12
 74
0
 42
0.0000001
 43
0.0000001
 44
0.0000000001
 40
0.0
 40
0.0
 40
0.0
 40
0.0
 40
0.1522543123
 40
0.2694555914
 40
0.3706433414
 40
0.4732597487
 40
0.6190505678
 40
0.6948201622
 40
0.775286542
 40
0.8735743773
 40
1.0
 40
1.0
 40
1.0
 40
1.0
 10
-72.4398246528
 20
3.5340385438
 30
0.0
 10
-72.3784426137
 20
3.5340385438
 30
0.0
 10
-72.2685939425
 20
3.5262390333
 30
0.0
 10
-72.1288497789
 20
3.4607935642
 30
0.0
 10
-72.0482605504
 20
3.3531494243
 30
0.0
 10
-72.0211686396
 20
3.2110141502
 30
0.0
 10
-72.059966218
 20
3.0777332162
 30
0.0
 10
-72.1441568659
 20
2.9867947175
 30
0.0
 10
-72.2371673155
 20
2.9392736822
 30
0.0
 10
-72.3587003363
 20
2.9151396837
 30
0.0
 10
-72.4494117954
 20
2.9111749728
 30
0.0
 10
-72.5003808774
 20
2.9111749728
 30
0.0
  0
SPLINE
  5
724
100
AcDbEntity
  8
ASSI
100
AcDbSpline
 62
7
  6
CONTINUOUS
 70
0
 71
3
 72
9
 73
5
 74
0
 42
0.0000001
 43
0.0000001
 44
0.0000000001
 40
0.0
 40
0.0
 40
0.0
 40
0.0
 40
0.7097160398
 40
1.0
 40
1.0
 40
1.0
 40
1.0
 10
-74.4147491737
 20
3.557107565
 30
0.0
 10
-74.3867566264
 20
3.4613036472
 30
0.0
 10
-74.3417206486
 20
3.3279679677
 30
0.0
 10
-74.2940059886
 20
3.1956883989
 30
0.0
 10
-74.2799396364
 20
3.1573647434
 30
0.0
  0
SPLINE
  5
725
100
AcDbEntity
  8
ASSI
100
AcDbSpline
 62
7
  6
CONTINUOUS
 70
0
 71
3
 72
9
 73
5
 74
0
 42
0.0000001
 43
0.0000001
 44
0.0000000001
 40
0.0
 40
0.0
 40
0.0
 40
0.0
 40
0.3106214921
 40
1.0
 40
1.0
 40
1.0
 40
1.0
 10
-76.2710844582
 20
2.4319521836
 30
0.0
 10
-76.2821963429
 20
2.4005343179
 30
0.0
 10
-76.3177637264
 20
2.2993191403
 30
0.0
 10
-76.352852871
 20
2.1979190038
 30
0.0
 10
-76.3756159713
 20
2.1275491717
 30
0.0
  0
SPLINE
  5
726
100
AcDbEntity
  8
ASSI
100
AcDbSpline
 62
7
  6
CONTINUOUS
 70
0
 71
3
 72
9
 73
5
 74
0
 42
0.0000001
 43
0.0000001
 44
0.0000000001
 40
0.0
 40
0.0
 40
0.0
 40
0.0
 40
0.1862683768
 40
1.0
 40
1.0
 40
1.0
 40
1.0
 10
-76.3756159713
 20
2.1275491717
 30
0.0
 10
-76.3810065878
 20
2.1450771016
 30
0.0
 10
-76.4105270349
 20
2.2389985879
 30
0.0
 10
-76.441384455
 20
2.332492711
 30
0.0
 10
-76.4666304496
 20
2.4085227035
 30
0.0
  0
SPLINE
  5
727
100
AcDbEntity
  8
ASSI
100
AcDbSpline
 62
7
  6
CONTINUOUS
 70
0
 71
3
 72
8
 73
4
 74
0
 42
0.0000001
 43
0.0000001
 44
0.0000000001
 40
0.0
 40
0.0
 40
0.0
 40
0.0
 40
1.0
 40
1.0
 40
1.0
 40
1.0
 10
-79.0977604668
 20
2.0633885336
 30
0.0
 10
-79.1268026635
 20
2.1682266807
 30
0.0
 10
-79.1607422511
 20
2.2717492703
 30
0.0
 10
-79.1976060135
 20
2.3740994012
 30
0.0
  0
SPLINE
  5
728
100
AcDbEntity
  8
ASSI
100
AcDbSpline
 62
7
  6
CONTINUOUS
 70
0
 71
3
 72
29
 73
25
 74
0
 42
0.0000001
 43
0.0000001
 44
0.0000000001
 40
0.0
 40
0.0
 40
0.0
 40
0.0
 40
0.0356756609
 40
0.0800743562
 40
0.1648581527
 40
0.2455182361
 40
0.3251916009
 40
0.3657353528
 40
0.4062140955
 40
0.4474175219
 40
0.4900951157
 40
0.5539687363
 40
0.613857537
 40
0.6723265521
 40
0.7321238034
 40
0.7934593331
 40
0.8247695254
 40
0.8568795699
 40
0.8901839737
 40
0.9249781797
 40
0.9615095894
 40
0.9804982722
 40
0.9901836714
 40
1.0
 40
1.0
 40
1.0
 40
1.0
 10
-24.7186604272
 20
2.830667313
 30
0.0
 10
-24.7194501387
 20
2.866379996
 30
0.0
 10
-24.7242520215
 20
2.946460245
 30
0.0
 10
-24.7495557146
 20
3.1097464789
 30
0.0
 10
-24.8171482314
 20
3.3108485884
 30
0.0
 10
-24.9542835477
 20
3.5182596096
 30
0.0
 10
-25.1133953497
 20
3.6463414012
 30
0.0
 10
-25.2570646576
 20
3.7194296055
 30
0.0
 10
-25.3731815259
 20
3.7592024714
 30
0.0
 10
-25.4957654945
 20
3.7828781544
 30
0.0
 10
-25.6436978192
 20
3.7914091777
 30
0.0
 10
-25.8106450457
 20
3.7777715648
 30
0.0
 10
-25.9872915641
 20
3.7273211127
 30
0.0
 10
-26.1451123796
 20
3.6413013317
 30
0.0
 10
-26.281795093
 20
3.5226052512
 30
0.0
 10
-26.3744443942
 20
3.3997975614
 30
0.0
 10
-26.4322969749
 20
3.2889262654
 30
0.0
 10
-26.4678398001
 20
3.1987079441
 30
0.0
 10
-26.4954160922
 20
3.102144308
 30
0.0
 10
-26.5150675489
 20
2.9991702266
 30
0.0
 10
-26.5247028927
 20
2.9092083934
 30
0.0
 10
-26.528085616
 20
2.8440322537
 30
0.0
 10
-26.5290624518
 20
2.8055247593
 30
0.0
 10
-26.529237103
 20
2.7860087002
 30
0.0
 10
-26.5292286129
 20
2.776185206
 30
0.0
  0
SPLINE
  5
729
100
AcDbEntity
  8
ASSI
100
AcDbSpline
 62
7
  6
CONTINUOUS
 70
0
 71
3
 72
27
 73
23
 74
0
 42
0.0000001
 43
0.0000001
 44
0.0000000001
 40
0.0
 40
0.0
 40
0.0
 40
0.0
 40
0.0052129271
 40
0.0104072108
 40
0.0207459653
 40
0.041268333
 40
0.08205139
 40
0.1229976731
 40
0.1638963418
 40
0.2444177426
 40
0.3245451876
 40
0.4061500071
 40
0.4479339316
 40
0.4913767295
 40
0.6494860786
 40
0.7289017971
 40
0.8105874161
 40
0.8534559229
 40
0.8970940618
 40
0.942157345
 40
0.9892417994
 40
1.0
 40
1.0
 40
1.0
 40
1.0
 10
-26.5292286129
 20
2.776185206
 30
0.0
 10
-26.5292241043
 20
2.7709684736
 30
0.0
 10
-26.5291608277
 20
2.7605536929
 30
0.0
 10
-26.5287373112
 20
2.7397964796
 30
0.0
 10
-26.5272706727
 20
2.703740509
 30
0.0
 10
-26.521387138
 20
2.6322523699
 30
0.0
 10
-26.5043273032
 20
2.531126467
 30
0.0
 10
-26.4703096273
 20
2.4129211185
 30
0.0
 10
-26.4077992354
 20
2.2627059784
 30
0.0
 10
-26.2962362562
 20
2.0912126062
 30
0.0
 10
-26.1064102759
 20
1.9349550509
 30
0.0
 10
-25.9170130727
 20
1.8525002985
 30
0.0
 10
-25.7525847948
 20
1.8205743582
 30
0.0
 10
-25.5094095227
 20
1.8052695425
 30
0.0
 10
-25.2217002525
 20
1.8750618706
 30
0.0
 10
-24.9639901553
 20
2.0710488555
 30
0.0
 10
-24.8472414596
 20
2.2426248449
 30
0.0
 10
-24.7809021153
 20
2.3975845517
 30
0.0
 10
-24.7444492186
 20
2.5244891568
 30
0.0
 10
-24.7228170769
 20
2.6589418171
 30
0.0
 10
-24.7178017823
 20
2.7619784502
 30
0.0
 10
-24.7184222851
 20
2.8198979482
 30
0.0
 10
-24.7186604272
 20
2.830667313
 30
0.0
  0
SPLINE
  5
72A
100
AcDbEntity
  8
ASSI
100
AcDbSpline
 62
7
  6
CONTINUOUS
 70
0
 71
3
 72
20
 73
16
 74
0
 42
0.0000001
 43
0.0000001
 44
0.0000000001
 40
0.0
 40
0.0
 40
0.0
 40
0.0
 40
0.056993967
 40
0.1256281149
 40
0.1895670145
 40
0.2513099568
 40
0.3661710324
 40
0.4798635818
 40
0.5615404775
 40
0.6427660144
 40
0.7262959247
 40
0.8154334154
 40
0.9078772166
 40
0.9537839177
 40
1.0
 40
1.0
 40
1.0
 40
1.0
 10
-35.111247622
 20
2.4300745235
 30
0.0
 10
-35.1119953534
 20
2.4055888947
 30
0.0
 10
-35.1163912735
 20
2.3517231593
 30
0.0
 10
-35.1340541289
 20
2.2718802787
 30
0.0
 10
-35.1671900926
 20
2.194612696
 30
0.0
 10
-35.2273992165
 20
2.1101106511
 30
0.0
 10
-35.3288878851
 20
2.030480616
 30
0.0
 10
-35.4640909625
 20
2.0048256504
 30
0.0
 10
-35.5830548045
 20
2.0208528864
 30
0.0
 10
-35.6808192091
 20
2.0652190294
 30
0.0
 10
-35.76424574
 20
2.1379472969
 30
0.0
 10
-35.8245956294
 20
2.2360224831
 30
0.0
 10
-35.8569042997
 20
2.3290016161
 30
0.0
 10
-35.8701108073
 20
2.4073002372
 30
0.0
 10
-35.8721603258
 20
2.4468832706
 30
0.0
 10
-35.872182178
 20
2.4667359448
 30
0.0
  0
SPLINE
  5
72B
100
AcDbEntity
  8
ASSI
100
AcDbSpline
 62
7
  6
CONTINUOUS
 70
0
 71
3
 72
23
 73
19
 74
0
 42
0.0000001
 43
0.0000001
 44
0.0000000001
 40
0.0
 40
0.0
 40
0.0
 40
0.0
 40
0.0347638563
 40
0.0680301853
 40
0.1312339517
 40
0.2519486401
 40
0.3118327503
 40
0.369444337
 40
0.4272209104
 40
0.4875799959
 40
0.5499206087
 40
0.6081877135
 40
0.7222944188
 40
0.7818693912
 40
0.8433407373
 40
0.9092387339
 40
0.9816309716
 40
1.0
 40
1.0
 40
1.0
 40
1.0
 10
-35.872182178
 20
2.4667359448
 30
0.0
 10
-35.8721986154
 20
2.4816691774
 30
0.0
 10
-35.8711165086
 20
2.5108864829
 30
0.0
 10
-35.8643932057
 20
2.5668912792
 30
0.0
 10
-35.8407555119
 20
2.6576600053
 30
0.0
 10
-35.7818886197
 20
2.7484445166
 30
0.0
 10
-35.7030864836
 20
2.8143940185
 30
0.0
 10
-35.6365697989
 20
2.8507627756
 30
0.0
 10
-35.5636383108
 20
2.872244549
 30
0.0
 10
-35.486008417
 20
2.8787753538
 30
0.0
 10
-35.4081468855
 20
2.8723285972
 30
0.0
 10
-35.3106289658
 20
2.844402634
 30
0.0
 10
-35.2266514692
 20
2.784179013
 30
0.0
 10
-35.1665674315
 20
2.7023229035
 30
0.0
 10
-35.1337671523
 20
2.6283910622
 30
0.0
 10
-35.1145975249
 20
2.5443325358
 30
0.0
 10
-35.1104556933
 20
2.4769836159
 30
0.0
 10
-35.1110066298
 20
2.437966187
 30
0.0
 10
-35.111247622
 20
2.4300745235
 30
0.0
  0
SPLINE
  5
72C
100
AcDbEntity
  8
ASSI
100
AcDbSpline
 62
7
  6
CONTINUOUS
 70
0
 71
3
 72
25
 73
21
 74
0
 42
0.0000001
 43
0.0000001
 44
0.0000000001
 40
0.0
 40
0.0
 40
0.0
 40
0.0
 40
0.0514509122
 40
0.0974915596
 40
0.1736562047
 40
0.2358848562
 40
0.2912931023
 40
0.3421729313
 40
0.3923748328
 40
0.4443027499
 40
0.5000924408
 40
0.5383666631
 40
0.574021779
 40
0.6411427859
 40
0.7101283661
 40
0.788009064
 40
0.8825725913
 40
0.9382660506
 40
0.9683742185
 40
1.0
 40
1.0
 40
1.0
 40
1.0
 10
-36.356631498
 20
2.7895204077
 30
0.0
 10
-36.3566016737
 20
2.8343624008
 30
0.0
 10
-36.3581799359
 20
2.9193221241
 30
0.0
 10
-36.3677102831
 20
3.0703431817
 30
0.0
 10
-36.3918734564
 20
3.2299290418
 30
0.0
 10
-36.4446180428
 20
3.3909249341
 30
0.0
 10
-36.5087044611
 20
3.5237776815
 30
0.0
 10
-36.5947346312
 20
3.6316477286
 30
0.0
 10
-36.7055561538
 20
3.7089251555
 30
0.0
 10
-36.8365477099
 20
3.7557732395
 30
0.0
 10
-36.9642692165
 20
3.7678627647
 30
0.0
 10
-37.0773721822
 20
3.7606323135
 30
0.0
 10
-37.1979118039
 20
3.7344190198
 30
0.0
 10
-37.3338805057
 20
3.6633424631
 30
0.0
 10
-37.4582539904
 20
3.5197611872
 30
0.0
 10
-37.5453832719
 20
3.3258447352
 30
0.0
 10
-37.5839236848
 20
3.1295456435
 30
0.0
 10
-37.5975177103
 20
2.9729485234
 30
0.0
 10
-37.6016816429
 20
2.8706921305
 30
0.0
 10
-37.6023678952
 20
2.8168994842
 30
0.0
 10
-37.6023587642
 20
2.7893417819
 30
0.0
  0
SPLINE
  5
72D
100
AcDbEntity
  8
ASSI
100
AcDbSpline
 62
7
  6
CONTINUOUS
 70
0
 71
3
 72
26
 73
22
 74
0
 42
0.0000001
 43
0.0000001
 44
0.0000000001
 40
0.0
 40
0.0
 40
0.0
 40
0.0
 40
0.0252741961
 40
0.0496764813
 40
0.0959388808
 40
0.1389595113
 40
0.1789319094
 40
0.2504850255
 40
0.3127323825
 40
0.3588069517
 40
0.4037833605
 40
0.4502161924
 40
0.5004382742
 40
0.5389263601
 40
0.5747448729
 40
0.6420799547
 40
0.7111715415
 40
0.7890227331
 40
0.8832899337
 40
0.9386812444
 40
1.0
 40
1.0
 40
1.0
 40
1.0
 10
-37.6023587642
 20
2.7893417819
 30
0.0
 10
-37.6023514669
 20
2.7673186495
 30
0.0
 10
-37.6018843491
 20
2.7240319099
 30
0.0
 10
-37.5989612716
 20
2.6404804798
 30
0.0
 10
-37.5918073516
 20
2.5416324712
 30
0.0
 10
-37.5772417576
 20
2.429870083
 30
0.0
 10
-37.5510822227
 20
2.2977113352
 30
0.0
 10
-37.5060402966
 20
2.1523902776
 30
0.0
 10
-37.4274687835
 20
2.0144590923
 30
0.0
 10
-37.3308360509
 20
1.9203099658
 30
0.0
 10
-37.2269316292
 20
1.8584548494
 30
0.0
 10
-37.1077526493
 20
1.8223613333
 30
0.0
 10
-36.9897073068
 20
1.812622478
 30
0.0
 10
-36.8810970049
 20
1.8195015341
 30
0.0
 10
-36.7600584862
 20
1.8458511857
 30
0.0
 10
-36.6237855311
 20
1.9173335796
 30
0.0
 10
-36.4995396167
 20
2.0613856421
 30
0.0
 10
-36.4130485935
 20
2.255374613
 30
0.0
 10
-36.374910647
 20
2.4511610842
 30
0.0
 10
-36.3590670753
 20
2.6343467873
 30
0.0
 10
-36.3566670422
 20
2.7360781052
 30
0.0
 10
-36.356631498
 20
2.7895204077
 30
0.0
  0
SPLINE
  5
72E
100
AcDbEntity
  8
ASSI
100
AcDbSpline
 62
7
  6
CONTINUOUS
 70
0
 71
3
 72
20
 73
16
 74
0
 42
0.0000001
 43
0.0000001
 44
0.0000000001
 40
0.0
 40
0.0
 40
0.0
 40
0.0
 40
0.056993967
 40
0.1256281149
 40
0.1895670145
 40
0.2513099568
 40
0.3661710324
 40
0.4798635818
 40
0.5615404775
 40
0.6427660144
 40
0.7262959247
 40
0.8154334154
 40
0.9078772166
 40
0.9537839177
 40
1.0
 40
1.0
 40
1.0
 40
1.0
 10
-38.064082329
 20
2.4300745235
 30
0.0
 10
-38.0648300604
 20
2.4055888947
 30
0.0
 10
-38.0692259805
 20
2.3517231593
 30
0.0
 10
-38.0868888359
 20
2.2718802787
 30
0.0
 10
-38.1200247996
 20
2.194612696
 30
0.0
 10
-38.1802339235
 20
2.1101106511
 30
0.0
 10
-38.2817225921
 20
2.030480616
 30
0.0
 10
-38.4169256695
 20
2.0048256504
 30
0.0
 10
-38.5358895115
 20
2.0208528864
 30
0.0
 10
-38.6336539161
 20
2.0652190294
 30
0.0
 10
-38.717080447
 20
2.1379472969
 30
0.0
 10
-38.7774303364
 20
2.2360224831
 30
0.0
 10
-38.8097390067
 20
2.3290016161
 30
0.0
 10
-38.8229455143
 20
2.4073002372
 30
0.0
 10
-38.8249950328
 20
2.4468832706
 30
0.0
 10
-38.825016885
 20
2.4667359448
 30
0.0
  0
SPLINE
  5
72F
100
AcDbEntity
  8
ASSI
100
AcDbSpline
 62
7
  6
CONTINUOUS
 70
0
 71
3
 72
23
 73
19
 74
0
 42
0.0000001
 43
0.0000001
 44
0.0000000001
 40
0.0
 40
0.0
 40
0.0
 40
0.0
 40
0.0347638563
 40
0.0680301853
 40
0.1312339517
 40
0.2519486401
 40
0.3118327503
 40
0.369444337
 40
0.4272209104
 40
0.4875799959
 40
0.5499206087
 40
0.6081877135
 40
0.7222944188
 40
0.7818693912
 40
0.8433407373
 40
0.9092387339
 40
0.9816309716
 40
1.0
 40
1.0
 40
1.0
 40
1.0
 10
-38.825016885
 20
2.4667359448
 30
0.0
 10
-38.8250333224
 20
2.4816691774
 30
0.0
 10
-38.8239512156
 20
2.5108864829
 30
0.0
 10
-38.8172279127
 20
2.5668912792
 30
0.0
 10
-38.7935902189
 20
2.6576600053
 30
0.0
 10
-38.7347233267
 20
2.7484445166
 30
0.0
 10
-38.6559211906
 20
2.8143940185
 30
0.0
 10
-38.5894045059
 20
2.8507627756
 30
0.0
 10
-38.5164730178
 20
2.872244549
 30
0.0
 10
-38.438843124
 20
2.8787753538
 30
0.0
 10
-38.3609815925
 20
2.8723285972
 30
0.0
 10
-38.2634636728
 20
2.844402634
 30
0.0
 10
-38.1794861762
 20
2.784179013
 30
0.0
 10
-38.1194021385
 20
2.7023229035
 30
0.0
 10
-38.0866018593
 20
2.6283910622
 30
0.0
 10
-38.0674322319
 20
2.5443325358
 30
0.0
 10
-38.0632904003
 20
2.4769836159
 30
0.0
 10
-38.0638413368
 20
2.437966187
 30
0.0
 10
-38.064082329
 20
2.4300745235
 30
0.0
  0
SPLINE
  5
730
100
AcDbEntity
  8
ASSI
100
AcDbSpline
 62
7
  6
CONTINUOUS
 70
0
 71
3
 72
8
 73
4
 74
0
 42
0.0000001
 43
0.0000001
 44
0.0000000001
 40
0.0
 40
0.0
 40
0.0
 40
0.0
 40
1.0
 40
1.0
 40
1.0
 40
1.0
 10
53.8369541613
 20
3.9681089605
 30
0.0
 10
53.5573135824
 20
4.2213360281
 30
0.0
 10
53.1708817338
 20
4.3749999989
 30
0.0
 10
52.8008144205
 20
4.3749999989
 30
0.0
  0
SPLINE
  5
731
100
AcDbEntity
  8
ASSI
100
AcDbSpline
 62
7
  6
CONTINUOUS
 70
0
 71
3
 72
11
 73
7
 74
0
 42
0.0000001
 43
0.0000001
 44
0.0000000001
 40
0.0
 40
0.0
 40
0.0
 40
0.0
 40
0.089231307
 40
0.3113901877
 40
0.5291800206
 40
1.0
 40
1.0
 40
1.0
 40
1.0
 10
-20.0553963018
 20
3.1133621945
 30
0.0
 10
-20.0491185336
 20
3.1364638727
 30
0.0
 10
-20.0241425262
 20
3.2162381595
 30
0.0
 10
-19.9620980817
 20
3.3454297704
 30
0.0
 10
-19.7861823361
 20
3.5209081875
 30
0.0
 10
-19.5920365418
 20
3.5686420756
 30
0.0
 10
-19.466143093
 20
3.5686420756
 30
0.0
  0
SPLINE
  5
732
100
AcDbEntity
  8
ASSI
100
AcDbSpline
 62
7
  6
CONTINUOUS
 70
0
 71
3
 72
12
 73
8
 74
0
 42
0.0000001
 43
0.0000001
 44
0.0000000001
 40
0.0
 40
0.0
 40
0.0
 40
0.0
 40
0.1025765978
 40
0.2161664823
 40
0.3240892025
 40
0.5317789563
 40
1.0
 40
1.0
 40
1.0
 40
1.0
 10
-20.2853347031
 20
2.4106199025
 30
0.0
 10
-20.2738728707
 20
2.3746758726
 30
0.0
 10
-20.2463198977
 20
2.3000161832
 30
0.0
 10
-20.1934289187
 20
2.1928221971
 30
0.0
 10
-20.1038209045
 20
2.0624954892
 30
0.0
 10
-19.8879410233
 20
1.862731922
 30
0.0
 10
-19.6235072659
 20
1.8153964683
 30
0.0
 10
-19.4513644518
 20
1.8153964683
 30
0.0
  0
SPLINE
  5
733
100
AcDbEntity
  8
ASSI
100
AcDbSpline
 62
7
  6
CONTINUOUS
 70
0
 71
3
 72
10
 73
6
 74
0
 42
0.0000001
 43
0.0000001
 44
0.0000000001
 40
0.0
 40
0.0
 40
0.0
 40
0.0
 40
0.2101723731
 40
0.4563781437
 40
1.0
 40
1.0
 40
1.0
 40
1.0
 10
-24.3949584586
 20
3.2401128996
 30
0.0
 10
-24.3935091084
 20
3.2047517237
 30
0.0
 10
-24.3815659965
 20
3.1286792517
 30
0.0
 10
-24.3118092913
 20
2.9735595522
 30
0.0
 10
-24.200854766
 20
2.8869722245
 30
0.0
 10
-24.1199575627
 20
2.84521204
 30
0.0
  0
SPLINE
  5
734
100
AcDbEntity
  8
ASSI
100
AcDbSpline
 62
7
  6
CONTINUOUS
 70
0
 71
3
 72
12
 73
8
 74
0
 42
0.0000001
 43
0.0000001
 44
0.0000000001
 40
0.0
 40
0.0
 40
0.0
 40
0.0
 40
0.0289732385
 40
0.2799194297
 40
0.5034135291
 40
0.7337877942
 40
1.0
 40
1.0
 40
1.0
 40
1.0
 10
-23.9467732307
 20
2.0864292066
 30
0.0
 10
-23.9513272864
 20
2.0883661497
 30
0.0
 10
-23.9951089598
 20
2.1076109582
 30
0.0
 10
-24.0698580747
 20
2.1514387351
 30
0.0
 10
-24.1522506101
 20
2.241688917
 30
0.0
 10
-24.2013843398
 20
2.3557996788
 30
0.0
 10
-24.2172778946
 20
2.4393492247
 30
0.0
 10
-24.2223264981
 20
2.4843980816
 30
0.0
  0
SPLINE
  5
735
100
AcDbEntity
  8
ASSI
100
AcDbSpline
 62
7
  6
CONTINUOUS
 70
0
 71
3
 72
18
 73
14
 74
0
 42
0.0000001
 43
0.0000001
 44
0.0000000001
 40
0.0
 40
0.0
 40
0.0
 40
0.0
 40
0.0314188831
 40
0.1137535795
 40
0.1972542334
 40
0.2856797666
 40
0.3727265689
 40
0.4553305989
 40
0.5371666397
 40
0.6220093251
 40
0.7093561403
 40
0.7991650126
 40
1.0
 40
1.0
 40
1.0
 40
1.0
 10
-25.2160638962
 20
2.1765537739
 30
0.0
 10
-25.2284801716
 20
2.1661264753
 30
0.0
 10
-25.2749171921
 20
2.1301429995
 30
0.0
 10
-25.3641019283
 20
2.0797480247
 30
0.0
 10
-25.4906443935
 20
2.0420575109
 30
0.0
 10
-25.6243191927
 20
2.0307064185
 30
0.0
 10
-25.7575323101
 20
2.0420178242
 30
0.0
 10
-25.8826404475
 20
2.079453012
 30
0.0
 10
-25.9954377625
 20
2.1429302199
 30
0.0
 10
-26.0942626039
 20
2.2300465451
 30
0.0
 10
-26.1762453443
 20
2.3385924597
 30
0.0
 10
-26.2570254951
 20
2.5172658481
 30
0.0
 10
-26.2754693803
 20
2.6696604871
 30
0.0
 10
-26.2754693803
 20
2.7731213049
 30
0.0
  0
SPLINE
  5
736
100
AcDbEntity
  8
ASSI
100
AcDbSpline
 62
7
  6
CONTINUOUS
 70
0
 71
3
 72
12
 73
8
 74
0
 42
0.0000001
 43
0.0000001
 44
0.0000000001
 40
0.0
 40
0.0
 40
0.0
 40
0.0
 40
0.1009982855
 40
0.217704019
 40
0.4410700438
 40
0.688240277
 40
1.0
 40
1.0
 40
1.0
 40
1.0
 10
-34.0502288477
 20
2.0116813877
 30
0.0
 10
-34.0694139709
 20
2.0122198765
 30
0.0
 10
-34.1106787474
 20
2.01578459
 30
0.0
 10
-34.1922579106
 20
2.0358329934
 30
0.0
 10
-34.2916404948
 20
2.0936903048
 30
0.0
 10
-34.3769529915
 20
2.2198053183
 30
0.0
 10
-34.4066514402
 20
2.3227079034
 30
0.0
 10
-34.4188338457
 20
2.3805874864
 30
0.0
  0
SPLINE
  5
737
100
AcDbEntity
  8
ASSI
100
AcDbSpline
 62
7
  6
CONTINUOUS
 70
0
 71
3
 72
10
 73
6
 74
0
 42
0.0000001
 43
0.0000001
 44
0.0000000001
 40
0.0
 40
0.0
 40
0.0
 40
0.0
 40
0.1187441487
 40
0.4134156441
 40
1.0
 40
1.0
 40
1.0
 40
1.0
 10
-33.4131393325
 20
2.5197295799
 30
0.0
 10
-33.4169373034
 20
2.5404606244
 30
0.0
 10
-33.4345061732
 20
2.6118618246
 30
0.0
 10
-33.5184346417
 20
2.7725502203
 30
0.0
 10
-33.6679375379
 20
2.8576364984
 30
0.0
 10
-33.769296664
 20
2.881077178
 30
0.0
  0
SPLINE
  5
738
100
AcDbEntity
  8
ASSI
100
AcDbSpline
 62
7
  6
CONTINUOUS
 70
0
 71
3
 72
10
 73
6
 74
0
 42
0.0000001
 43
0.0000001
 44
0.0000000001
 40
0.0
 40
0.0
 40
0.0
 40
0.0
 40
0.2047034631
 40
0.5819525333
 40
1.0
 40
1.0
 40
1.0
 40
1.0
 10
-34.3443603483
 20
3.6968479778
 30
0.0
 10
-34.3761685376
 20
3.6793868028
 30
0.0
 10
-34.4615241722
 20
3.6203035522
 30
0.0
 10
-34.5720255691
 20
3.4778644269
 30
0.0
 10
-34.6134658028
 20
3.3412079641
 30
0.0
 10
-34.626455036
 20
3.2687448006
 30
0.0
  0
SPLINE
  5
739
100
AcDbEntity
  8
ASSI
100
AcDbSpline
 62
7
  6
CONTINUOUS
 70
0
 71
3
 72
24
 73
20
 74
0
 42
0.0000001
 43
0.0000001
 44
0.0000000001
 40
0.0
 40
0.0
 40
0.0
 40
0.0
 40
0.0514309364
 40
0.1320192791
 40
0.2025663583
 40
0.2672995774
 40
0.3293613968
 40
0.391969746
 40
0.4582630153
 40
0.4978444158
 40
0.5359032638
 40
0.6101097289
 40
0.6842934869
 40
0.7619758951
 40
0.8427348527
 40
0.8835541282
 40
0.9253641986
 40
0.9872211791
 40
1.0
 40
1.0
 40
1.0
 40
1.0
 10
-36.1138067755
 20
2.4226373728
 30
0.0
 10
-36.1078187301
 20
2.3869060314
 30
0.0
 10
-36.088879077
 20
2.2957795011
 30
0.0
 10
-36.0426147864
 20
2.159862297
 30
0.0
 10
-35.9601293278
 20
2.0303244276
 30
0.0
 10
-35.8584710655
 20
1.9339610819
 30
0.0
 10
-35.743465278
 20
1.8643263084
 30
0.0
 10
-35.6141190144
 20
1.8235214963
 30
0.0
 10
-35.4951940384
 20
1.812782424
 30
0.0
 10
-35.3938227536
 20
1.8185760808
 30
0.0
 10
-35.288576877
 20
1.8388253514
 30
0.0
 10
-35.165945195
 20
1.8907090853
 30
0.0
 10
-35.0416110647
 20
1.9937913387
 30
0.0
 10
-34.9506119149
 20
2.1322747251
 30
0.0
 10
-34.9025693102
 20
2.2654567561
 30
0.0
 10
-34.8832895396
 20
2.379090945
 30
0.0
 10
-34.8779921966
 20
2.4808335932
 30
0.0
 10
-34.8839921719
 20
2.5629604913
 30
0.0
 10
-34.8936284754
 20
2.6146984938
 30
0.0
 10
-34.8954536309
 20
2.6235208313
 30
0.0
  0
SPLINE
  5
73A
100
AcDbEntity
  8
ASSI
100
AcDbSpline
 62
7
  6
CONTINUOUS
 70
0
 71
3
 72
16
 73
12
 74
0
 42
0.0000001
 43
0.0000001
 44
0.0000000001
 40
0.0
 40
0.0
 40
0.0
 40
0.0
 40
0.0716681923
 40
0.1602407834
 40
0.2489751931
 40
0.3359464937
 40
0.4188868604
 40
0.501429145
 40
0.5872567632
 40
0.7870946486
 40
1.0
 40
1.0
 40
1.0
 40
1.0
 10
-34.8954536309
 20
2.6235208313
 30
0.0
 10
-34.9018524998
 20
2.6544513352
 30
0.0
 10
-34.9209763409
 20
2.7226179965
 30
0.0
 10
-34.969270664
 20
2.8218783476
 30
0.0
 10
-35.0416337526
 20
2.9138994412
 30
0.0
 10
-35.1277192884
 20
2.9893721923
 30
0.0
 10
-35.2249743747
 20
3.0447663175
 30
0.0
 10
-35.3315669475
 20
3.077464494
 30
0.0
 10
-35.4935770709
 20
3.092548484
 30
0.0
 10
-35.7166206952
 20
3.0417196668
 30
0.0
 10
-35.8551999446
 20
2.9098985434
 30
0.0
 10
-35.9067857098
 20
2.8316950052
 30
0.0
  0
SPLINE
  5
73B
100
AcDbEntity
  8
ASSI
100
AcDbSpline
 62
7
  6
CONTINUOUS
 70
0
 71
3
 72
24
 73
20
 74
0
 42
0.0000001
 43
0.0000001
 44
0.0000000001
 40
0.0
 40
0.0
 40
0.0
 40
0.0
 40
0.0514309364
 40
0.1320192791
 40
0.2025663583
 40
0.2672995774
 40
0.3293613968
 40
0.391969746
 40
0.4582630153
 40
0.4978444158
 40
0.5359032638
 40
0.6101097289
 40
0.6842934869
 40
0.7619758951
 40
0.8427348527
 40
0.8835541282
 40
0.9253641986
 40
0.9872211791
 40
1.0
 40
1.0
 40
1.0
 40
1.0
 10
-39.0666414825
 20
2.4226373728
 30
0.0
 10
-39.0606534371
 20
2.3869060314
 30
0.0
 10
-39.041713784
 20
2.2957795011
 30
0.0
 10
-38.9954494934
 20
2.159862297
 30
0.0
 10
-38.9129640348
 20
2.0303244276
 30
0.0
 10
-38.8113057725
 20
1.9339610819
 30
0.0
 10
-38.696299985
 20
1.8643263084
 30
0.0
 10
-38.5669537214
 20
1.8235214963
 30
0.0
 10
-38.4480287454
 20
1.812782424
 30
0.0
 10
-38.3466574606
 20
1.8185760808
 30
0.0
 10
-38.241411584
 20
1.8388253514
 30
0.0
 10
-38.118779902
 20
1.8907090853
 30
0.0
 10
-37.9944457716
 20
1.9937913387
 30
0.0
 10
-37.9034466219
 20
2.1322747251
 30
0.0
 10
-37.8554040172
 20
2.2654567561
 30
0.0
 10
-37.8361242466
 20
2.379090945
 30
0.0
 10
-37.8308269036
 20
2.4808335932
 30
0.0
 10
-37.8368268789
 20
2.5629604913
 30
0.0
 10
-37.8464631824
 20
2.6146984938
 30
0.0
 10
-37.8482883379
 20
2.6235208313
 30
0.0
  0
SPLINE
  5
73C
100
AcDbEntity
  8
ASSI
100
AcDbSpline
 62
7
  6
CONTINUOUS
 70
0
 71
3
 72
16
 73
12
 74
0
 42
0.0000001
 43
0.0000001
 44
0.0000000001
 40
0.0
 40
0.0
 40
0.0
 40
0.0
 40
0.0716681923
 40
0.1602407834
 40
0.2489751931
 40
0.3359464937
 40
0.4188868604
 40
0.501429145
 40
0.5872567632
 40
0.7870946486
 40
1.0
 40
1.0
 40
1.0
 40
1.0
 10
-37.8482883379
 20
2.6235208313
 30
0.0
 10
-37.8546872068
 20
2.6544513352
 30
0.0
 10
-37.8738110479
 20
2.7226179965
 30
0.0
 10
-37.922105371
 20
2.8218783476
 30
0.0
 10
-37.9944684596
 20
2.9138994412
 30
0.0
 10
-38.0805539954
 20
2.9893721923
 30
0.0
 10
-38.1778090817
 20
3.0447663175
 30
0.0
 10
-38.2844016545
 20
3.077464494
 30
0.0
 10
-38.4464117779
 20
3.092548484
 30
0.0
 10
-38.6694554022
 20
3.0417196668
 30
0.0
 10
-38.8080346516
 20
2.9098985434
 30
0.0
 10
-38.8596204168
 20
2.8316950052
 30
0.0
  0
SPLINE
  5
73D
100
AcDbEntity
  8
ASSI
100
AcDbSpline
 62
7
  6
CONTINUOUS
 70
0
 71
3
 72
10
 73
6
 74
0
 42
0.0000001
 43
0.0000001
 44
0.0000000001
 40
0.0
 40
0.0
 40
0.0
 40
0.0
 40
0.1187441487
 40
0.4134156441
 40
1.0
 40
1.0
 40
1.0
 40
1.0
 10
-39.3188087465
 20
2.5197295799
 30
0.0
 10
-39.3226067174
 20
2.5404606244
 30
0.0
 10
-39.3401755872
 20
2.6118618246
 30
0.0
 10
-39.4241040557
 20
2.7725502203
 30
0.0
 10
-39.5736069519
 20
2.8576364984
 30
0.0
 10
-39.674966078
 20
2.881077178
 30
0.0
  0
SPLINE
  5
73E
100
AcDbEntity
  8
ASSI
100
AcDbSpline
 62
7
  6
CONTINUOUS
 70
0
 71
3
 72
10
 73
6
 74
0
 42
0.0000001
 43
0.0000001
 44
0.0000000001
 40
0.0
 40
0.0
 40
0.0
 40
0.0
 40
0.2047034631
 40
0.5819525333
 40
1.0
 40
1.0
 40
1.0
 40
1.0
 10
-40.2500297623
 20
3.6968479778
 30
0.0
 10
-40.2818379515
 20
3.6793868028
 30
0.0
 10
-40.3671935862
 20
3.6203035522
 30
0.0
 10
-40.4776949831
 20
3.4778644269
 30
0.0
 10
-40.5191352167
 20
3.3412079641
 30
0.0
 10
-40.53212445
 20
3.2687448006
 30
0.0
  0
SPLINE
  5
73F
100
AcDbEntity
  8
ASSI
100
AcDbSpline
 62
7
  6
CONTINUOUS
 70
0
 71
3
 72
12
 73
8
 74
0
 42
0.0000001
 43
0.0000001
 44
0.0000000001
 40
0.0
 40
0.0
 40
0.0
 40
0.0
 40
0.1009982855
 40
0.217704019
 40
0.4410700438
 40
0.688240277
 40
1.0
 40
1.0
 40
1.0
 40
1.0
 10
-39.9558982617
 20
2.0116813877
 30
0.0
 10
-39.9750833849
 20
2.0122198765
 30
0.0
 10
-40.0163481614
 20
2.01578459
 30
0.0
 10
-40.0979273246
 20
2.0358329934
 30
0.0
 10
-40.1973099087
 20
2.0936903048
 30
0.0
 10
-40.2826224055
 20
2.2198053183
 30
0.0
 10
-40.3123208542
 20
2.3227079034
 30
0.0
 10
-40.3245032597
 20
2.3805874864
 30
0.0
  0
SPLINE
  5
740
100
AcDbEntity
  8
ASSI
100
AcDbSpline
 62
7
  6
CONTINUOUS
 70
0
 71
3
 72
11
 73
7
 74
0
 42
0.0000001
 43
0.0000001
 44
0.0000000001
 40
0.0
 40
0.0
 40
0.0
 40
0.0
 40
0.089231307
 40
0.3113901877
 40
0.5291800206
 40
1.0
 40
1.0
 40
1.0
 40
1.0
 10
-53.6554256044
 20
3.1133621945
 30
0.0
 10
-53.6491478362
 20
3.1364638727
 30
0.0
 10
-53.6241718288
 20
3.2162381595
 30
0.0
 10
-53.5621273844
 20
3.3454297704
 30
0.0
 10
-53.3862116387
 20
3.5209081875
 30
0.0
 10
-53.1920658444
 20
3.5686420756
 30
0.0
 10
-53.0661723957
 20
3.5686420756
 30
0.0
  0
SPLINE
  5
741
100
AcDbEntity
  8
ASSI
100
AcDbSpline
 62
7
  6
CONTINUOUS
 70
0
 71
3
 72
12
 73
8
 74
0
 42
0.0000001
 43
0.0000001
 44
0.0000000001
 40
0.0
 40
0.0
 40
0.0
 40
0.0
 40
0.1025765978
 40
0.2161664823
 40
0.3240892025
 40
0.5317789563
 40
1.0
 40
1.0
 40
1.0
 40
1.0
 10
-53.8853640057
 20
2.4106199025
 30
0.0
 10
-53.8739021733
 20
2.3746758726
 30
0.0
 10
-53.8463492004
 20
2.3000161832
 30
0.0
 10
-53.7934582213
 20
2.1928221971
 30
0.0
 10
-53.7038502072
 20
2.0624954892
 30
0.0
 10
-53.487970326
 20
1.862731922
 30
0.0
 10
-53.2235365685
 20
1.8153964683
 30
0.0
 10
-53.0513937545
 20
1.8153964683
 30
0.0
  0
SPLINE
  5
742
100
AcDbEntity
  8
ASSI
100
AcDbSpline
 62
7
  6
CONTINUOUS
 70
0
 71
3
 72
12
 73
8
 74
0
 42
0.0000001
 43
0.0000001
 44
0.0000000001
 40
0.0
 40
0.0
 40
0.0
 40
0.0
 40
0.0289732385
 40
0.2799194297
 40
0.5034135291
 40
0.7337877942
 40
1.0
 40
1.0
 40
1.0
 40
1.0
 10
-70.2116951438
 20
2.0864292066
 30
0.0
 10
-70.2162491995
 20
2.0883661497
 30
0.0
 10
-70.2600308729
 20
2.1076109582
 30
0.0
 10
-70.3347799878
 20
2.1514387351
 30
0.0
 10
-70.4171725232
 20
2.241688917
 30
0.0
 10
-70.4663062529
 20
2.3557996788
 30
0.0
 10
-70.4821998077
 20
2.4393492247
 30
0.0
 10
-70.4872484112
 20
2.4843980816
 30
0.0
  0
SPLINE
  5
743
100
AcDbEntity
  8
ASSI
100
AcDbSpline
 62
7
  6
CONTINUOUS
 70
0
 71
3
 72
10
 73
6
 74
0
 42
0.0000001
 43
0.0000001
 44
0.0000000001
 40
0.0
 40
0.0
 40
0.0
 40
0.0
 40
0.2101723731
 40
0.4563781437
 40
1.0
 40
1.0
 40
1.0
 40
1.0
 10
-70.6598803717
 20
3.2401128996
 30
0.0
 10
-70.6584310215
 20
3.2047517237
 30
0.0
 10
-70.6464879096
 20
3.1286792517
 30
0.0
 10
-70.5767312044
 20
2.9735595522
 30
0.0
 10
-70.4657766791
 20
2.8869722245
 30
0.0
 10
-70.3848794759
 20
2.84521204
 30
0.0
  0
SPLINE
  5
744
100
AcDbEntity
  8
RACCORDO
100
AcDbSpline
 62
7
  6
CONTINUOUS
 70
0
 71
3
 72
13
 73
9
 74
0
 42
0.0000001
 43
0.0000001
 44
0.0000000001
 40
0.0
 40
0.0
 40
0.0
 40
0.0
 40
0.0828320369
 40
0.1853340887
 40
0.3032114663
 40
0.4320386148
 40
0.7097459213
 40
1.0
 40
1.0
 40
1.0
 40
1.0
 10
-5.479536346
 20
-46.8
 30
0.0
 10
-5.5351835448
 20
-46.8
 30
0.0
 10
-5.6587820231
 20
-46.7713739443
 30
0.0
 10
-5.8458850333
 20
-46.6910817165
 30
0.0
 10
-6.0524987451
 20
-46.5792142714
 30
0.0
 10
-6.3530646745
 20
-46.3953896694
 30
0.0
 10
-6.7408417194
 20
-46.1328339544
 30
0.0
 10
-7.0523744679
 20
-45.9125803697
 30
0.0
 10
-7.2115871536
 20
-45.8
 30
0.0
  0
SPLINE
  5
745
100
AcDbEntity
  8
RACCORDO
100
AcDbSpline
 62
7
  6
CONTINUOUS
 70
0
 71
3
 72
13
 73
9
 74
0
 42
0.0000001
 43
0.0000001
 44
0.0000000001
 40
0.0
 40
0.0
 40
0.0
 40
0.0
 40
0.2902523906
 40
0.5679594584
 40
0.6967865609
 40
0.8146640264
 40
0.9171667297
 40
1.0
 40
1.0
 40
1.0
 40
1.0
 10
7.2884128464
 20
-45.8
 30
0.0
 10
7.1292010845
 20
-45.9125797165
 30
0.0
 10
6.8176692758
 20
-46.1328323952
 30
0.0
 10
6.4298935598
 20
-46.395387713
 30
0.0
 10
6.129327853
 20
-46.579212441
 30
0.0
 10
5.9227138229
 20
-46.6910802698
 30
0.0
 10
5.7356098035
 20
-46.7713734833
 30
0.0
 10
5.6120100671
 20
-46.8
 30
0.0
 10
5.5563620389
 20
-46.8
 30
0.0
  0
SPLINE
  5
746
100
AcDbEntity
  8
RACCORDO
100
AcDbSpline
 62
7
  6
CONTINUOUS
 70
0
 71
3
 72
13
 73
9
 74
0
 42
0.0000001
 43
0.0000001
 44
0.0000000001
 40
0.0
 40
0.0
 40
0.0
 40
0.0
 40
0.2158485605
 40
0.4464673086
 40
0.5720590714
 40
0.7064164091
 40
0.8499553926
 40
1.0
 40
1.0
 40
1.0
 40
1.0
 10
104.7566092559
 20
-17.1326224212
 30
0.0
 10
104.7488042009
 20
-16.9109206664
 30
0.0
 10
104.6539275846
 20
-16.4519525509
 30
0.0
 10
104.3430544113
 20
-15.9385085453
 30
0.0
 10
103.97727289
 20
-15.5879888306
 30
0.0
 10
103.626573646
 20
-15.3614301562
 30
0.0
 10
103.2133922984
 20
-15.2017848888
 30
0.0
 10
102.9119442593
 20
-15.1565291155
 30
0.0
 10
102.7578276019
 20
-15.1511972268
 30
0.0
  0
SPLINE
  5
747
100
AcDbEntity
  8
RACCORDO
100
AcDbSpline
 62
7
  6
CONTINUOUS
 70
0
 71
3
 72
13
 73
9
 74
0
 42
0.0000001
 43
0.0000001
 44
0.0000000001
 40
0.0
 40
0.0
 40
0.0
 40
0.0
 40
0.1500446074
 40
0.2935835909
 40
0.4279409286
 40
0.5535326914
 40
0.7841514395
 40
1.0
 40
1.0
 40
1.0
 40
1.0
 10
102.7578276019
 20
20.8511972268
 30
0.0
 10
102.9119442593
 20
20.8565291155
 30
0.0
 10
103.2133922984
 20
20.9017848888
 30
0.0
 10
103.626573646
 20
21.0614301562
 30
0.0
 10
103.97727289
 20
21.2879888306
 30
0.0
 10
104.3430544113
 20
21.6385085453
 30
0.0
 10
104.6539275846
 20
22.1519525509
 30
0.0
 10
104.7488042009
 20
22.6109206664
 30
0.0
 10
104.7566092559
 20
22.8326224212
 30
0.0
  0
SPLINE
  5
748
100
AcDbEntity
  8
RACCORDO
100
AcDbSpline
 62
7
  6
CONTINUOUS
 70
0
 71
3
 72
13
 73
9
 74
0
 42
0.0000001
 43
0.0000001
 44
0.0000000001
 40
0.0
 40
0.0
 40
0.0
 40
0.0
 40
0.1500446074
 40
0.2935835909
 40
0.4279409286
 40
0.5535326914
 40
0.7841514395
 40
1.0
 40
1.0
 40
1.0
 40
1.0
 10
-102.681001909
 20
-15.1511972268
 30
0.0
 10
-102.8351185664
 20
-15.1565291155
 30
0.0
 10
-103.1365666055
 20
-15.2017848888
 30
0.0
 10
-103.5497479531
 20
-15.3614301562
 30
0.0
 10
-103.9004471971
 20
-15.5879888306
 30
0.0
 10
-104.2662287184
 20
-15.9385085453
 30
0.0
 10
-104.5771018917
 20
-16.4519525509
 30
0.0
 10
-104.6719785081
 20
-16.9109206664
 30
0.0
 10
-104.6797835631
 20
-17.1326224212
 30
0.0
  0
SPLINE
  5
749
100
AcDbEntity
  8
RACCORDO
100
AcDbSpline
 62
7
  6
CONTINUOUS
 70
0
 71
3
 72
13
 73
9
 74
0
 42
0.0000001
 43
0.0000001
 44
0.0000000001
 40
0.0
 40
0.0
 40
0.0
 40
0.0
 40
0.2158485605
 40
0.4464673086
 40
0.5720590714
 40
0.7064164091
 40
0.8499553926
 40
1.0
 40
1.0
 40
1.0
 40
1.0
 10
-104.6797835631
 20
22.8326224212
 30
0.0
 10
-104.6719785081
 20
22.6109206664
 30
0.0
 10
-104.5771018917
 20
22.1519525509
 30
0.0
 10
-104.2662287184
 20
21.6385085453
 30
0.0
 10
-103.9004471971
 20
21.2879888306
 30
0.0
 10
-103.5497479531
 20
21.0614301562
 30
0.0
 10
-103.1365666055
 20
20.9017848888
 30
0.0
 10
-102.8351185664
 20
20.8565291155
 30
0.0
 10
-102.681001909
 20
20.8511972268
 30
0.0
  0
SPLINE
  5
74A
100
AcDbEntity
  8
RACCORDO
100
AcDbSpline
 62
7
  6
CONTINUOUS
 70
0
 71
3
 72
13
 73
9
 74
0
 42
0.0000001
 43
0.0000001
 44
0.0000000001
 40
0.0
 40
0.0
 40
0.0
 40
0.0
 40
0.1498063231
 40
0.2931070866
 40
0.4272776998
 40
0.5527900353
 40
0.7836212783
 40
1.0
 40
1.0
 40
1.0
 40
1.0
 10
62.5396311924
 20
-47.0495732165
 30
0.0
 10
62.5450246623
 20
-47.2041161287
 30
0.0
 10
62.5909138056
 20
-47.5063841647
 30
0.0
 10
62.7526156661
 20
-47.9201592598
 30
0.0
 10
62.9816758263
 20
-48.2708078671
 30
0.0
 10
63.3356917825
 20
-48.6362311705
 30
0.0
 10
63.8534440092
 20
-48.9461599318
 30
0.0
 10
64.3151926439
 20
-49.0405645978
 30
0.0
 10
64.5384128464
 20
-49.0483548705
 30
0.0
  0
SPLINE
  5
74B
100
AcDbEntity
  8
RACCORDO
100
AcDbSpline
 62
7
  6
CONTINUOUS
 70
0
 71
3
 72
13
 73
9
 74
0
 42
0.0000001
 43
0.0000001
 44
0.0000000001
 40
0.0
 40
0.0
 40
0.0
 40
0.0
 40
0.2163787217
 40
0.4472099647
 40
0.5727223002
 40
0.7068929134
 40
0.8501936769
 40
1.0
 40
1.0
 40
1.0
 40
1.0
 10
50.5384128464
 20
-49.0483548705
 30
0.0
 10
50.761633049
 20
-49.0405645978
 30
0.0
 10
51.2233816836
 20
-48.9461599318
 30
0.0
 10
51.7411339104
 20
-48.6362311705
 30
0.0
 10
52.0951498665
 20
-48.2708078671
 30
0.0
 10
52.3242100268
 20
-47.9201592598
 30
0.0
 10
52.4859118873
 20
-47.5063841647
 30
0.0
 10
52.5318010306
 20
-47.2041161287
 30
0.0
 10
52.5371945005
 20
-47.0495732165
 30
0.0
  0
SPLINE
  5
74C
100
AcDbEntity
  8
RACCORDO
100
AcDbSpline
 62
7
  6
CONTINUOUS
 70
0
 71
3
 72
13
 73
9
 74
0
 42
0.0000001
 43
0.0000001
 44
0.0000000001
 40
0.0
 40
0.0
 40
0.0
 40
0.0
 40
0.1498063231
 40
0.2931070866
 40
0.4272776998
 40
0.5527900353
 40
0.7836212783
 40
1.0
 40
1.0
 40
1.0
 40
1.0
 10
52.5371945005
 20
52.7495732165
 30
0.0
 10
52.5318010306
 20
52.9041161287
 30
0.0
 10
52.4859118873
 20
53.2063841647
 30
0.0
 10
52.3242100268
 20
53.6201592598
 30
0.0
 10
52.0951498665
 20
53.9708078671
 30
0.0
 10
51.7411339104
 20
54.3362311705
 30
0.0
 10
51.2233816836
 20
54.6461599318
 30
0.0
 10
50.761633049
 20
54.7405645978
 30
0.0
 10
50.5384128464
 20
54.7483548705
 30
0.0
  0
SPLINE
  5
74D
100
AcDbEntity
  8
RACCORDO
100
AcDbSpline
 62
7
  6
CONTINUOUS
 70
0
 71
3
 72
13
 73
9
 74
0
 42
0.0000001
 43
0.0000001
 44
0.0000000001
 40
0.0
 40
0.0
 40
0.0
 40
0.0
 40
0.2163787217
 40
0.4472099647
 40
0.5727223002
 40
0.7068929134
 40
0.8501936769
 40
1.0
 40
1.0
 40
1.0
 40
1.0
 10
64.5384128464
 20
54.7483548705
 30
0.0
 10
64.3151926439
 20
54.7405645978
 30
0.0
 10
63.8534440092
 20
54.6461599318
 30
0.0
 10
63.3356917825
 20
54.3362311705
 30
0.0
 10
62.9816758263
 20
53.9708078671
 30
0.0
 10
62.7526156661
 20
53.6201592598
 30
0.0
 10
62.5909138056
 20
53.2063841647
 30
0.0
 10
62.5450246623
 20
52.9041161287
 30
0.0
 10
62.5396311924
 20
52.7495732165
 30
0.0
  0
SPLINE
  5
74E
100
AcDbEntity
  8
RACCORDO
100
AcDbSpline
 62
7
  6
CONTINUOUS
 70
0
 71
3
 72
13
 73
9
 74
0
 42
0.0000001
 43
0.0000001
 44
0.0000000001
 40
0.0
 40
0.0
 40
0.0
 40
0.0
 40
0.1505774469
 40
0.2942842791
 40
0.4283730485
 40
0.5534824523
 40
0.7834156823
 40
1.0
 40
1.0
 40
1.0
 40
1.0
 10
62.5384890003
 20
22.8500761568
 30
0.0
 10
62.5398565892
 20
22.6933600232
 30
0.0
 10
62.578882543
 20
22.3861663376
 30
0.0
 10
62.7352760751
 20
21.9649081103
 30
0.0
 10
62.9634119517
 20
21.6093120604
 30
0.0
 10
63.3197059764
 20
21.2418888255
 30
0.0
 10
63.8455091659
 20
20.9359587119
 30
0.0
 10
64.312998898
 20
20.8521193935
 30
0.0
 10
64.5384128464
 20
20.8501523106
 30
0.0
  0
SPLINE
  5
74F
100
AcDbEntity
  8
RACCORDO
100
AcDbSpline
 62
7
  6
CONTINUOUS
 70
0
 71
3
 72
13
 73
9
 74
0
 42
0.0000001
 43
0.0000001
 44
0.0000000001
 40
0.0
 40
0.0
 40
0.0
 40
0.0
 40
0.2165843177
 40
0.4465175477
 40
0.5716269515
 40
0.7057157209
 40
0.8494225531
 40
1.0
 40
1.0
 40
1.0
 40
1.0
 10
50.5384128464
 20
20.8501523106
 30
0.0
 10
50.7638267949
 20
20.8521193935
 30
0.0
 10
51.231316527
 20
20.9359587119
 30
0.0
 10
51.7571197164
 20
21.2418888255
 30
0.0
 10
52.1134137412
 20
21.6093120604
 30
0.0
 10
52.3415496178
 20
21.9649081103
 30
0.0
 10
52.4979431499
 20
22.3861663376
 30
0.0
 10
52.5369691037
 20
22.6933600232
 30
0.0
 10
52.5383366926
 20
22.8500761568
 30
0.0
  0
SPLINE
  5
750
100
AcDbEntity
  8
RACCORDO
100
AcDbSpline
 62
7
  6
CONTINUOUS
 70
0
 71
3
 72
13
 73
9
 74
0
 42
0.0000001
 43
0.0000001
 44
0.0000000001
 40
0.0
 40
0.0
 40
0.0
 40
0.0
 40
0.1505774469
 40
0.2942842791
 40
0.4283730485
 40
0.5534824523
 40
0.7834156823
 40
1.0
 40
1.0
 40
1.0
 40
1.0
 10
52.5383366926
 20
-17.1500761568
 30
0.0
 10
52.5369691037
 20
-16.9933600232
 30
0.0
 10
52.4979431499
 20
-16.6861663376
 30
0.0
 10
52.3415496178
 20
-16.2649081103
 30
0.0
 10
52.1134137412
 20
-15.9093120604
 30
0.0
 10
51.7571197164
 20
-15.5418888255
 30
0.0
 10
51.231316527
 20
-15.2359587119
 30
0.0
 10
50.7638267949
 20
-15.1521193935
 30
0.0
 10
50.5384128464
 20
-15.1501523106
 30
0.0
  0
SPLINE
  5
751
100
AcDbEntity
  8
RACCORDO
100
AcDbSpline
 62
7
  6
CONTINUOUS
 70
0
 71
3
 72
13
 73
9
 74
0
 42
0.0000001
 43
0.0000001
 44
0.0000000001
 40
0.0
 40
0.0
 40
0.0
 40
0.0
 40
0.2165843177
 40
0.4465175477
 40
0.5716269515
 40
0.7057157209
 40
0.8494225531
 40
1.0
 40
1.0
 40
1.0
 40
1.0
 10
64.5384128464
 20
-15.1501523106
 30
0.0
 10
64.312998898
 20
-15.1521193935
 30
0.0
 10
63.8455091659
 20
-15.2359587119
 30
0.0
 10
63.3197059764
 20
-15.5418888255
 30
0.0
 10
62.9634119517
 20
-15.9093120604
 30
0.0
 10
62.7352760751
 20
-16.2649081103
 30
0.0
 10
62.578882543
 20
-16.6861663376
 30
0.0
 10
62.5398565892
 20
-16.9933600232
 30
0.0
 10
62.5384890003
 20
-17.1500761568
 30
0.0
  0
ELLIPSE
  5
752
100
AcDbEntity
  8
RACCORDO
100
AcDbEllipse
 62
7
  6
CONTINUOUS
 10
2.0383366824
 20
-29.599923836
 30
0.0
 11
0.3536610946
 21
-0.3536610946
 31
0.0
 40
0.9996954599
 41
-0.7852458701
 42
0.7852458701
  0
ELLIPSE
  5
753
100
AcDbEntity
  8
RACCORDO
100
AcDbEllipse
 62
7
  6
CONTINUOUS
 10
-1.9615109895
 20
-29.599923836
 30
0.0
 11
-0.3536610946
 21
-0.3536610946
 31
0.0
 40
0.9996954599
 41
-0.7852458701
 42
0.7852458701
  0
ELLIPSE
  5
754
100
AcDbEntity
  8
RACCORDO
100
AcDbEllipse
 62
7
  6
CONTINUOUS
 10
4.738367148
 20
-54.7999543016
 30
0.0
 11
-0.2121966568
 21
0.2121966568
 31
0.0
 40
0.9996954599
 41
2.3563467834
 42
3.9268385237
  0
ELLIPSE
  5
755
100
AcDbEntity
  8
RACCORDO
100
AcDbEllipse
 62
7
  6
CONTINUOUS
 10
-4.6615414551
 20
-54.7999543016
 30
0.0
 11
0.2121966568
 21
0.2121966568
 31
0.0
 40
0.9996954599
 41
2.3563467834
 42
3.9268385237
  0
ELLIPSE
  5
756
100
AcDbEntity
  8
RACCORDO
100
AcDbEllipse
 62
7
  6
CONTINUOUS
 10
8.0366673399
 20
-14.7569685577
 30
0.0
 11
0.0
 21
0.1569685577
 31
0.0
 40
0.0174550649
 41
-0.6906913887
 42
0.0000001811
  0
ELLIPSE
  5
757
100
AcDbEntity
  8
RACCORDO
100
AcDbEllipse
 62
7
  6
CONTINUOUS
 10
3.0382605184
 20
-29.600152328
 30
0.0
 11
0.7073221892
 21
0.7073221892
 31
0.0
 40
0.9996954599
 41
-0.7852458701
 42
0.7852458701
  0
ELLIPSE
  5
758
100
AcDbEntity
  8
RACCORDO
100
AcDbEllipse
 62
7
  6
CONTINUOUS
 10
-2.9614348255
 20
-29.600152328
 30
0.0
 11
0.7073221892
 21
-0.7073221892
 31
0.0
 40
0.9996954599
 41
2.3563467834
 42
3.9268385237
  0
ELLIPSE
  5
759
100
AcDbEntity
  8
RACCORDO
100
AcDbEllipse
 62
7
  6
CONTINUOUS
 10
-7.9598416471
 20
-14.7569685577
 30
0.0
 11
0.0
 21
0.1569685577
 31
0.0
 40
0.0174550649
 41
-0.0000001811
 42
0.6906913887
  0
ELLIPSE
  5
75A
100
AcDbEntity
  8
RACCORDO
100
AcDbEllipse
 62
7
  6
CONTINUOUS
 10
8.0401583529
 20
-14.7569685577
 30
0.0
 11
0.0
 21
0.1569685577
 31
0.0
 40
0.0174550649
 41
0.7622693727
 42
1.1344640138
  0
ELLIPSE
  5
75B
100
AcDbEntity
  8
RACCORDO
100
AcDbEllipse
 62
7
  6
CONTINUOUS
 10
8.0010060935
 20
-19.4323659172
 30
0.0
 11
0.0
 21
0.1
 31
0.0
 40
0.0174550649
 41
1.1344640138
 42
3.1415926536
  0
ELLIPSE
  5
75C
100
AcDbEntity
  8
RACCORDO
100
AcDbEllipse
 62
7
  6
CONTINUOUS
 10
-7.9633326601
 20
-14.7569685577
 30
0.0
 11
0.0
 21
0.1569685577
 31
0.0
 40
0.0174550649
 41
-1.1344640138
 42
-0.6906913887
  0
ELLIPSE
  5
75D
100
AcDbEntity
  8
RACCORDO
100
AcDbEllipse
 62
7
  6
CONTINUOUS
 10
-7.9241804006
 20
-19.4323659172
 30
0.0
 11
-0.0
 21
0.1
 31
0.0
 40
0.0174550649
 41
-3.1415926536
 42
-1.1344640138
  0
ELLIPSE
  5
75E
100
AcDbEntity
  8
RACCORDO
100
AcDbEllipse
 62
7
  6
CONTINUOUS
 10
-103.461530036
 20
53.5999428824
 30
0.0
 11
1.0607409467
 21
-1.0607409467
 31
0.0
 40
0.9999238505
 41
2.3562325664
 42
3.9269527408
  0
ELLIPSE
  5
75F
100
AcDbEntity
  8
RACCORDO
100
AcDbEllipse
 62
7
  6
CONTINUOUS
 10
-103.461530036
 20
-47.8999428824
 30
0.0
 11
-1.0607409467
 21
-1.0607409467
 31
0.0
 40
0.9999238505
 41
-0.7853600872
 42
0.7853600872
  0
ELLIPSE
  5
760
100
AcDbEntity
  8
RACCORDO
100
AcDbEllipse
 62
7
  6
CONTINUOUS
 10
103.5383557289
 20
53.5999428824
 30
0.0
 11
1.0607409467
 21
1.0607409467
 31
0.0
 40
0.9999238505
 41
-0.7853600872
 42
0.7853600872
  0
ELLIPSE
  5
761
100
AcDbEntity
  8
RACCORDO
100
AcDbEllipse
 62
7
  6
CONTINUOUS
 10
103.5383557289
 20
-47.8999428824
 30
0.0
 11
-1.0607409467
 21
1.0607409467
 31
0.0
 40
0.9999238505
 41
2.3562325664
 42
3.9269527408
  0
ELLIPSE
  5
762
100
AcDbEntity
  8
RACCORDO
100
AcDbEllipse
 62
7
  6
CONTINUOUS
 10
103.0371937578
 20
-47.3987809114
 30
0.0
 11
1.4159370892
 21
-1.4159370892
 31
0.0
 40
0.998782766
 41
0.5754927014
 42
0.7847891758
  0
ELLIPSE
  5
763
100
AcDbEntity
  8
RACCORDO
100
AcDbEllipse
 62
7
  6
CONTINUOUS
 10
103.0371937578
 20
-47.3987809114
 30
0.0
 11
-1.4159370892
 21
1.4159370892
 31
0.0
 40
0.998782766
 41
-2.6185219291
 42
-2.5660999522
  0
ELLIPSE
  5
764
100
AcDbEntity
  8
RACCORDO
100
AcDbEllipse
 62
7
  6
CONTINUOUS
 10
103.0371937578
 20
-47.3987809114
 30
0.0
 11
1.4159370892
 21
-1.4159370892
 31
0.0
 40
0.998782766
 41
-0.5754926252
 42
0.5230707245
  0
ELLIPSE
  5
765
100
AcDbEntity
  8
RACCORDO
100
AcDbEllipse
 62
7
  6
CONTINUOUS
 10
103.0371937578
 20
-47.3987809114
 30
0.0
 11
-1.4159370892
 21
1.4159370892
 31
0.0
 40
0.998782766
 41
-3.9263818294
 42
-3.7170852788
  0
ELLIPSE
  5
766
100
AcDbEntity
  8
RACCORDO
100
AcDbEllipse
 62
7
  6
CONTINUOUS
 10
103.0371937578
 20
53.0987809114
 30
0.0
 11
1.4159370892
 21
1.4159370892
 31
0.0
 40
0.998782766
 41
-0.7847891758
 42
0.7847891758
  0
ELLIPSE
  5
767
100
AcDbEntity
  8
RACCORDO
100
AcDbEllipse
 62
7
  6
CONTINUOUS
 10
-102.960368065
 20
53.0987809114
 30
0.0
 11
1.4159370892
 21
-1.4159370892
 31
0.0
 40
0.998782766
 41
-2.6185219291
 42
-2.3568034778
  0
ELLIPSE
  5
768
100
AcDbEntity
  8
RACCORDO
100
AcDbEllipse
 62
7
  6
CONTINUOUS
 10
-102.960368065
 20
53.0987809114
 30
0.0
 11
-1.4159370892
 21
1.4159370892
 31
0.0
 40
0.998782766
 41
-0.5230706132
 42
0.5230707245
  0
ELLIPSE
  5
769
100
AcDbEntity
  8
RACCORDO
100
AcDbEllipse
 62
7
  6
CONTINUOUS
 10
-102.960368065
 20
53.0987809114
 30
0.0
 11
1.4159370892
 21
-1.4159370892
 31
0.0
 40
0.998782766
 41
2.3568034778
 42
2.6185220404
  0
ELLIPSE
  5
76A
100
AcDbEntity
  8
RACCORDO
100
AcDbEllipse
 62
7
  6
CONTINUOUS
 10
-102.960368065
 20
-47.3987809114
 30
0.0
 11
1.4159370892
 21
1.4159370892
 31
0.0
 40
0.998782766
 41
-3.9263818294
 42
-2.3568034778
  0
ELLIPSE
  5
76B
100
AcDbEntity
  8
RACCORDO
100
AcDbEllipse
 62
7
  6
CONTINUOUS
 10
64.5384128464
 20
52.6797316775
 30
0.0
 11
-0.0
 21
2.0012190886
 31
0.0
 40
0.999390827
 41
1.5358897418
 42
1.5707963268
  0
ELLIPSE
  5
76C
100
AcDbEntity
  8
RACCORDO
100
AcDbEllipse
 62
7
  6
CONTINUOUS
 10
50.5384128464
 20
52.6797316775
 30
0.0
 11
0.0
 21
2.0012190886
 31
0.0
 40
0.999390827
 41
-1.5707963268
 42
-1.5358897418
  0
ELLIPSE
  5
76D
100
AcDbEntity
  8
RACCORDO
100
AcDbEllipse
 62
7
  6
CONTINUOUS
 10
50.5384128464
 20
22.8675298924
 30
0.0
 11
-0.0
 21
2.0000761568
 31
0.0
 40
0.9999619231
 41
-1.5795229731
 42
-1.5707963268
  0
ELLIPSE
  5
76E
100
AcDbEntity
  8
RACCORDO
100
AcDbEllipse
 62
7
  6
CONTINUOUS
 10
64.5384128464
 20
22.8675298924
 30
0.0
 11
-0.0
 21
2.0000761568
 31
0.0
 40
0.9999619231
 41
-4.7123889804
 42
-4.7036623341
  0
ELLIPSE
  5
76F
100
AcDbEntity
  8
RACCORDO
100
AcDbEllipse
 62
7
  6
CONTINUOUS
 10
50.5384128464
 20
-17.1675298924
 30
0.0
 11
-0.0
 21
2.0000761568
 31
0.0
 40
0.9999619231
 41
-1.5707963268
 42
-1.5620696805
  0
ELLIPSE
  5
770
100
AcDbEntity
  8
RACCORDO
100
AcDbEllipse
 62
7
  6
CONTINUOUS
 10
64.5384128464
 20
-17.1675298924
 30
0.0
 11
-0.0
 21
2.0000761568
 31
0.0
 40
0.9999619231
 41
1.5620696805
 42
1.5707963268
  0
ELLIPSE
  5
771
100
AcDbEntity
  8
RACCORDO
100
AcDbEllipse
 62
7
  6
CONTINUOUS
 10
50.5384128464
 20
-46.9797316775
 30
0.0
 11
0.0
 21
2.0012190886
 31
0.0
 40
0.999390827
 41
-1.6057029118
 42
-1.5707963268
  0
ELLIPSE
  5
772
100
AcDbEntity
  8
RACCORDO
100
AcDbEllipse
 62
7
  6
CONTINUOUS
 10
64.5384128464
 20
-46.9797316775
 30
0.0
 11
-0.0
 21
2.0012190886
 31
0.0
 40
0.999390827
 41
1.5707963268
 42
1.6057029118
  0
ELLIPSE
  5
773
100
AcDbEntity
  8
RACCORDO
100
AcDbEllipse
 62
7
  6
CONTINUOUS
 10
-102.61116037
 20
-17.1500761568
 30
0.0
 11
1.9415850132
 21
-0.4852114075
 31
0.0
 40
0.9993528196
 41
1.8158377039
 42
1.8504397372
  0
ELLIPSE
  5
774
100
AcDbEntity
  8
RACCORDO
100
AcDbEllipse
 62
7
  6
CONTINUOUS
 10
-102.61116037
 20
22.8500761568
 30
0.0
 11
1.9415850132
 21
0.4852114075
 31
0.0
 40
0.9993528196
 41
-1.8504397372
 42
-1.8158377039
  0
ELLIPSE
  5
775
100
AcDbEntity
  8
RACCORDO
100
AcDbEllipse
 62
7
  6
CONTINUOUS
 10
102.6879860629
 20
22.8500761568
 30
0.0
 11
1.9415850132
 21
-0.4852114075
 31
0.0
 40
0.9993528196
 41
-1.3257549497
 42
-1.2911529164
  0
ELLIPSE
  5
776
100
AcDbEntity
  8
RACCORDO
100
AcDbEllipse
 62
7
  6
CONTINUOUS
 10
102.6879860629
 20
-17.1500761568
 30
0.0
 11
1.9415850132
 21
0.4852114075
 31
0.0
 40
0.9993528196
 41
1.2911529164
 42
1.3257549497
  0
ELLIPSE
  5
777
100
AcDbEntity
  8
RACCORDO
100
AcDbEllipse
 62
7
  6
CONTINUOUS
 10
-7.2115871536
 20
-47.2033412824
 30
0.0
 11
0.0
 21
2.0736319106
 31
0.0
 40
0.9644913303
 41
-3.1415926536
 42
-1.5707963268
  0
ELLIPSE
  5
778
100
AcDbEntity
  8
RACCORDO
100
AcDbEllipse
 62
7
  6
CONTINUOUS
 10
7.2884128464
 20
-47.2033412824
 30
0.0
 11
0.0
 21
2.0736319106
 31
0.0
 40
0.9644913303
 41
1.5707963268
 42
3.1415926536
  0
ELLIPSE
  5
779
100
AcDbEntity
  8
RACCORDO
100
AcDbEllipse
 62
7
  6
CONTINUOUS
 10
-10.1118918096
 20
-17.1500761568
 30
0.0
 11
1.789222233
 21
0.8945429845
 31
0.0
 40
0.9998096356
 41
-0.4635410001
 42
1.1071030277
  0
ELLIPSE
  5
77A
100
AcDbEntity
  8
RACCORDO
100
AcDbEllipse
 62
7
  6
CONTINUOUS
 10
10.1887175025
 20
-17.1500761568
 30
0.0
 11
1.789222233
 21
-0.8945429845
 31
0.0
 40
0.9998096356
 41
2.0344896259
 42
3.6051336537
  0
ENDSEC
  0
SECTION
  2
OBJECTS
  0
DICTIONARY
  5
C
100
AcDbDictionary
280
0
281
1
  3
ACAD_GROUP
350
D
  3
ACAD_MLINESTYLE
350
17
  3
ACAD_LAYOUT
350
1A
  3
ACAD_PLOTSETTINGS
350
19
  3
ACAD_PLOTSTYLENAME
350
E
  0
DICTIONARY
  5
D
102
{ACAD_REACTORS
330
C
102
}
100
AcDbDictionary
280
0
281
1
  0
ACDBDICTIONARYWDFLT
  5
E
102
{ACAD_REACTORS
330
C
102
}
100
AcDbDictionary
281
1
  3
Normal
350
F
100
AcDbDictionaryWithDefault
340
F
  0
DICTIONARY
  5
17
102
{ACAD_REACTORS
330
C
102
}
100
AcDbDictionary
280
0
281
1
  3
Standard
350
18
  0
DICTIONARY
  5
19
102
{ACAD_REACTORS
330
C
102
}
100
AcDbDictionary
281
1
  0
DICTIONARY
  5
1A
102
{ACAD_REACTORS
330
C
102
}
100
AcDbDictionary
281
1
  3
Model
350
77B
  3
Layout1
350
77C
  0
ACDBPLACEHOLDER
  5
F
102
{ACAD_REACTORS
330
E
102
}
  0
MLINESTYLE
  5
18
102
{ACAD_REACTORS
330
17
102
}
100
AcDbMlineStyle
  2
STANDARD
 70
0
  3

 62
256
 51
90.0
 52
90.0
 71
2
 49
0.5
 62
256
  6
BYLAYER
 49
-0.5
 62
256
  6
BYLAYER
  0
LAYOUT
  5
77B
102
{ACAD_REACTORS
330
1A
102
}
100
AcDbPlotSettings
  1

  2
none_device
  4
ANSI_C_(22.00_x_17.00_Inches)
  6

 40
0.0
 41
0.0
 42
0.0
 43
0.0
 44
558.8
 45
431.8
 46
0.0
 47
0.0
 48
0.0
 49
0.0
140
0.0
141
0.0
142
1.0
143
1.0
 70
1024
 72
1
 73
0
 74
0
  7

 75
0
147
1.0
148
0.0
149
0.0
100
AcDbLayout
  1
Model
 70
0
 71
0
 10
0.0
 20
0.0
 11
558.8
 21
431.8
 12
0.0
 22
0.0
 32
0.0
 14
0.0
 24
0.0
 34
0.0
 15
0.0
 25
0.0
 35
0.0
146
0.0
 13
0.0
 23
0.0
 33
0.0
 16
1.0
 26
0.0
 36
0.0
 17
0.0
 27
1.0
 37
0.0
 76
0
330
21A
345
0
346
0
  0
LAYOUT
  5
77C
102
{ACAD_REACTORS
330
1A
102
}
100
AcDbPlotSettings
  1

  2
none_device
  4
ANSI_C_(22.00_x_17.00_Inches)
  6

 40
0.0
 41
0.0
 42
0.0
 43
0.0
 44
558.8
 45
431.8
 46
0.0
 47
0.0
 48
0.0
 49
0.0
140
0.0
141
0.0
142
1.0
143
1.0
 70
0
 72
1
 73
0
 74
0
  7

 75
0
147
1.0
148
0.0
149
0.0
100
AcDbLayout
  1
Layout1
 70
0
 71
1
 10
0.0
 20
0.0
 11
558.8
 21
431.8
 12
0.0
 22
0.0
 32
0.0
 14
0.0
 24
0.0
 34
0.0
 15
0.0
 25
0.0
 35
0.0
146
0.0
 13
0.0
 23
0.0
 33
0.0
 16
1.0
 26
0.0
 36
0.0
 17
0.0
 27
1.0
 37
0.0
 76
0
330
21B
345
0
346
0
  0
ENDSEC
  0
EOF
