  0
SECTION
  2
HEADER
  9
$ACADVER
  1
AC1024
  9
$DWGCODEPAGE
  3
ANSI_1252
  9
$EXTMAX
 10
297.0
 20
210.0
 30
0.0
  9
$EXTMIN
 10
0.0
 20
0.0
 30
0.0
  9
$LIMMIN
 10
0.0
 20
0.0
  9
$LIMMAX
 10
297.0
 20
210.0
  9
$VIEWCTR
 10
148.5
 20
105.0
  9
$VIEWSIZE
 40
210.0
  9
$CLAYER
  8
0
  9
$LTSCALE
 40
16.335
  9
$CELTYPE
  6
BYLAYER
  9
$DIMSCALE
 40
1.0
  9
$DIMASZ
 40
3.0
  9
$DIMEXO
 40
0.5
  9
$DIMDLI
 40
11.286
  9
$DIMEXE
 40
1.5
  9
$DIMCEN
 40
2.673
  9
$DIMLFAC
 40
1.0
  9
$DIMBLK
  1
_FILLED
  9
$DIMALT
 70
0
  9
$DIMALTF
 40
0.0393700787
  9
$DIMTXT
 40
3.0
  9
$DIMTOL
 70
1
  9
$DIMLIM
 70
0
  9
$DIMTFAC
 40
1.0
  9
$DIMTP
 40
0.01
  9
$DIMTM
 40
0.01
  9
$DIMGAP
 40
0.625
  9
$DIMDSEP
 70
44
  9
$AUNITS
 70
0
  9
$PDMODE
 70
3
  9
$PDSIZE
 40
3.0
  9
$HANDSEED
  5
42E
  9
$TILEMODE
 70
1
  9
$MEASUREMENT
 70
1
  9
$INSUNITS
 70
4
  0
ENDSEC
  0
SECTION
  2
CLASSES
  0
CLASS
  1
ACDBDICTIONARYWDFLT
  2
AcDbDictionaryWithDefault
  3
AutoCAD 2000
 90
0
 91
1
280
0
281
0
  0
CLASS
  1
ACDBPLACEHOLDER
  2
AcDbPlaceHolder
  3
AutoCAD 2000
 90
0
 91
1
280
0
281
0
  0
CLASS
  1
LAYOUT
  2
AcDbLayout
  3
AutoCAD 2000
 90
0
 91
0
280
0
281
0
  0
ENDSEC
  0
SECTION
  2
TABLES
  0
TABLE
  2
VPORT
  5
8
100
AcDbSymbolTable
 70
2
  0
VPORT
  5
1F4
100
AcDbSymbolTableRecord
100
AcDbViewportTableRecord
  2
*ACTIVE
 70
0
 10
0.0
 20
0.0
 11
1.0
 21
1.0
 12
148.5
 22
105.0
 13
0.0
 23
0.0
 14
1.0
 24
1.0
 15
0.0
 25
0.0
 16
0.0
 26
0.0
 36
1.0
 17
0.0
 27
0.0
 37
0.0
 40
210.0
 41
1.4142857143
 42
50.0
 43
0.0
 44
0.0
 50
0.0
 51
0.0
 71
0
 72
100
 73
1
 74
1
 75
0
 76
0
 77
0
 78
0
  0
ENDTAB
  0
TABLE
  2
LTYPE
  5
5
100
AcDbSymbolTable
 70
6
  0
LTYPE
  5
14
100
AcDbSymbolTableRecord
100
AcDbLinetypeTableRecord
  2
BYBLOCK
 70
0
  3

 72
65
 73
0
 40
0.0
  0
LTYPE
  5
15
100
AcDbSymbolTableRecord
100
AcDbLinetypeTableRecord
  2
BYLAYER
 70
0
  3

 72
65
 73
0
 40
0.0
  0
LTYPE
  5
16
100
AcDbSymbolTableRecord
100
AcDbLinetypeTableRecord
  2
CONTINUOUS
 70
64
  3
Solid line
 72
65
 73
0
 40
0.0
  0
LTYPE
  5
1F5
100
AcDbSymbolTableRecord
100
AcDbLinetypeTableRecord
  2
CENTER
 70
64
  3
____ _ ____ _ ____ _ ____ _ ____ _ ____ _ ____
 72
65
 73
4
 40
0.6
 49
0.375
 74
0
 49
-0.075
 74
0
 49
0.075
 74
0
 49
-0.075
 74
0
  0
LTYPE
  5
1F6
100
AcDbSymbolTableRecord
100
AcDbLinetypeTableRecord
  2
HIDDEN
 70
64
  3
- - - - - - - - - - - - - - - - - - - -
 72
65
 73
2
 40
0.2
 49
0.1
 74
0
 49
-0.1
 74
0
  0
LTYPE
  5
1F7
100
AcDbSymbolTableRecord
100
AcDbLinetypeTableRecord
  2
PHANTOM
 70
64
  3
_____ _ _ _____ _ _ _____ _ _ _____
 72
65
 73
6
 40
0.8
 49
0.45
 74
0
 49
-0.05
 74
0
 49
0.1
 74
0
 49
-0.05
 74
0
 49
0.1
 74
0
 49
-0.05
 74
0
  0
LTYPE
  5
1F8
100
AcDbSymbolTableRecord
100
AcDbLinetypeTableRecord
  2
DOT
 70
64
  3
. . . . . . . . . . . . . . . . . . . .
 72
65
 73
2
 40
0.2
 49
0.1
 74
0
 49
-0.1
 74
0
  0
LTYPE
  5
1F9
100
AcDbSymbolTableRecord
100
AcDbLinetypeTableRecord
  2
DASHED
 70
64
  3
- - - - - - - - - - - - - - - - - - - -
 72
65
 73
2
 40
0.2
 49
0.1
 74
0
 49
-0.1
 74
0
  0
ENDTAB
  0
TABLE
  2
LAYER
  5
2
100
AcDbSymbolTable
 70
36
  0
LAYER
  5
10
100
AcDbSymbolTableRecord
100
AcDbLayerTableRecord
  2
0
 70
0
 62
7
  6
CONTINUOUS
370
-3
390
F
  0
LAYER
  5
1FA
100
AcDbSymbolTableRecord
100
AcDbLayerTableRecord
  2
DEFAULT_1
 70
0
 62
7
  6
CENTER
370
-3
390
F
  0
LAYER
  5
1FB
100
AcDbSymbolTableRecord
100
AcDbLayerTableRecord
  2
DEFAULT_2
 70
0
 62
7
  6
HIDDEN
370
-3
390
F
  0
LAYER
  5
1FC
100
AcDbSymbolTableRecord
100
AcDbLayerTableRecord
  2
DEFAULT_3
 70
0
 62
7
  6
PHANTOM
370
-3
390
F
  0
LAYER
  5
1FD
100
AcDbSymbolTableRecord
100
AcDbLayerTableRecord
  2
06___PRT_ALL_SURFS
 70
0
 62
7
  6
CONTINUOUS
370
-3
390
F
  0
LAYER
  5
1FE
100
AcDbSymbolTableRecord
100
AcDbLayerTableRecord
  2
06___PRT_ALL_SURFS_3
 70
0
 62
7
  6
CONTINUOUS
370
-3
390
F
  0
LAYER
  5
1FF
100
AcDbSymbolTableRecord
100
AcDbLayerTableRecord
  2
0805_R_REF_60000
 70
0
 62
7
  6
CONTINUOUS
370
-3
390
F
  0
LAYER
  5
200
100
AcDbSymbolTableRecord
100
AcDbLayerTableRecord
  2
0805_R_REF_60000_1
 70
0
 62
7
  6
CONTINUOUS
370
-3
390
F
  0
LAYER
  5
201
100
AcDbSymbolTableRecord
100
AcDbLayerTableRecord
  2
1206_C_REF_180000
 70
0
 62
7
  6
CONTINUOUS
370
-3
390
F
  0
LAYER
  5
202
100
AcDbSymbolTableRecord
100
AcDbLayerTableRecord
  2
43001026A0
 70
0
 62
7
  6
CONTINUOUS
370
-3
390
F
  0
LAYER
  5
203
100
AcDbSymbolTableRecord
100
AcDbLayerTableRecord
  2
ASSI
 70
0
 62
7
  6
CONTINUOUS
370
-3
390
F
  0
LAYER
  5
204
100
AcDbSymbolTableRecord
100
AcDbLayerTableRecord
  2
COLOR2
 70
0
 62
7
  6
CONTINUOUS
370
-3
390
F
  0
LAYER
  5
205
100
AcDbSymbolTableRecord
100
AcDbLayerTableRecord
  2
COORDINATE
 70
0
 62
7
  6
CONTINUOUS
370
-3
390
F
  0
LAYER
  5
206
100
AcDbSymbolTableRecord
100
AcDbLayerTableRecord
  2
COPY_PUBLISH
 70
0
 62
7
  6
CONTINUOUS
370
-3
390
F
  0
LAYER
  5
207
100
AcDbSymbolTableRecord
100
AcDbLayerTableRecord
  2
COSMETICI
 70
0
 62
7
  6
CONTINUOUS
370
-3
390
F
  0
LAYER
  5
208
100
AcDbSymbolTableRecord
100
AcDbLayerTableRecord
  2
CURVE
 70
0
 62
7
  6
CONTINUOUS
370
-3
390
F
  0
LAYER
  5
209
100
AcDbSymbolTableRecord
100
AcDbLayerTableRecord
  2
DRAFT
 70
0
 62
7
  6
CONTINUOUS
370
-3
390
F
  0
LAYER
  5
20A
100
AcDbSymbolTableRecord
100
AcDbLayerTableRecord
  2
GEOMETRIA_SOLIDA
 70
0
 62
7
  6
CONTINUOUS
370
-3
390
F
  0
LAYER
  5
20B
100
AcDbSymbolTableRecord
100
AcDbLayerTableRecord
  2
GEOMETRIA_SOLIDA_1
 70
0
 62
7
  6
CONTINUOUS
370
-3
390
F
  0
LAYER
  5
20C
100
AcDbSymbolTableRecord
100
AcDbLayerTableRecord
  2
IMPORT_IGES
 70
0
 62
7
  6
CONTINUOUS
370
-3
390
F
  0
LAYER
  5
20D
100
AcDbSymbolTableRecord
100
AcDbLayerTableRecord
  2
MINIMELF_R_REF_140000
 70
0
 62
7
  6
CONTINUOUS
370
-3
390
F
  0
LAYER
  5
20E
100
AcDbSymbolTableRecord
100
AcDbLayerTableRecord
  2
MINIMELF_R_REF_140000_1
 70
0
 62
7
  6
CONTINUOUS
370
-3
390
F
  0
LAYER
  5
20F
100
AcDbSymbolTableRecord
100
AcDbLayerTableRecord
  2
NOTE
 70
0
 62
7
  6
CONTINUOUS
370
-3
390
F
  0
LAYER
  5
210
100
AcDbSymbolTableRecord
100
AcDbLayerTableRecord
  2
PIANI
 70
0
 62
7
  6
CONTINUOUS
370
-3
390
F
  0
LAYER
  5
211
100
AcDbSymbolTableRecord
100
AcDbLayerTableRecord
  2
PUNTI
 70
0
 62
7
  6
CONTINUOUS
370
-3
390
F
  0
LAYER
  5
212
100
AcDbSymbolTableRecord
100
AcDbLayerTableRecord
  2
RACCORDO
 70
0
 62
7
  6
CONTINUOUS
370
-3
390
F
  0
LAYER
  5
213
100
AcDbSymbolTableRecord
100
AcDbLayerTableRecord
  2
SIMBOLI
 70
0
 62
7
  6
CONTINUOUS
370
-3
390
F
  0
LAYER
  5
214
100
AcDbSymbolTableRecord
100
AcDbLayerTableRecord
  2
SMUSSO
 70
0
 62
7
  6
CONTINUOUS
370
-3
390
F
  0
LAYER
  5
215
100
AcDbSymbolTableRecord
100
AcDbLayerTableRecord
  2
SUB_SMA_143000
 70
0
 62
7
  6
CONTINUOUS
370
-3
390
F
  0
LAYER
  5
216
100
AcDbSymbolTableRecord
100
AcDbLayerTableRecord
  2
SUPERFICI
 70
0
 62
7
  6
CONTINUOUS
370
-3
390
F
  0
LAYER
  5
217
100
AcDbSymbolTableRecord
100
AcDbLayerTableRecord
  2
TRASH
 70
0
 62
7
  6
CONTINUOUS
370
-3
390
F
  0
LAYER
  5
218
100
AcDbSymbolTableRecord
100
AcDbLayerTableRecord
  2
VG_LED-SMT-1_6-0_75-1_0_100000
 70
0
 62
7
  6
CONTINUOUS
370
-3
390
F
  0
LAYER
  5
219
100
AcDbSymbolTableRecord
100
AcDbLayerTableRecord
  2
___SHELL
 70
0
 62
7
  6
CONTINUOUS
370
-3
390
F
  0
ENDTAB
  0
TABLE
  2
STYLE
  5
3
100
AcDbSymbolTable
 70
1
  0
STYLE
  5
11
100
AcDbSymbolTableRecord
100
AcDbTextStyleTableRecord
  2
STANDARD
 70
0
 40
0.0
 41
0.8
 50
0.0
 71
0
 42
0.2
  3
txt
  4

  0
STYLE
  5
21A
100
AcDbSymbolTableRecord
100
AcDbTextStyleTableRecord
  2
TEXTSTYLE_1
 70
0
 40
0.0
 41
0.8
 50
0.0
 71
0
 42
0.2
  3
gdt
  4

  0
ENDTAB
  0
TABLE
  2
VIEW
  5
6
100
AcDbSymbolTable
 70
0
  0
ENDTAB
  0
TABLE
  2
UCS
  5
7
100
AcDbSymbolTable
 70
0
  0
ENDTAB
  0
TABLE
  2
APPID
  5
9
100
AcDbSymbolTable
 70
1
  0
APPID
  5
21B
100
AcDbSymbolTableRecord
100
AcDbRegAppTableRecord
  2
ACAD
 70
0
  0
ENDTAB
  0
TABLE
  2
BLOCK_RECORD
  5
1
100
AcDbSymbolTable
 70
0
  0
BLOCK_RECORD
  5
21C
100
AcDbSymbolTableRecord
100
AcDbBlockTableRecord
  2
*Model_Space
  0
BLOCK_RECORD
  5
21D
100
AcDbSymbolTableRecord
100
AcDbBlockTableRecord
  2
*Paper_Space
  0
BLOCK_RECORD
  5
21E
100
AcDbSymbolTableRecord
100
AcDbBlockTableRecord
  2
_FILLED
  0
ENDTAB
  0
TABLE
  2
DIMSTYLE
  5
A
100
AcDbSymbolTable
 70
1
100
AcDbDimStyleTable
 71
0
  0
DIMSTYLE
105
21F
100
AcDbSymbolTableRecord
100
AcDbDimStyleTableRecord
  2
STANDARD
 70
0
  3

  4

 40
1.0
 41
3.0
 42
0.5
 43
0.38
 44
1.5
 45
0.0
 46
0.0
 47
0.01
 48
0.01
140
3.0
141
0.09
142
0.0
143
25.4
144
1.0
145
0.0
146
1.0
147
0.625
 71
1
 72
0
 73
0
 74
0
 75
0
 76
0
 77
1
 78
8
 79
2
170
0
171
1
172
0
173
0
174
0
175
0
176
0
177
0
178
0
270
2
179
2
271
2
272
2
273
2
274
2
275
0
280
0
281
0
282
0
283
1
284
8
285
0
286
0
287
3
288
0
340
11
278
44
341
21E
342
21E
343
21E
344
21E
  0
ENDTAB
  0
ENDSEC
  0
SECTION
  2
BLOCKS
  0
BLOCK
  5
20
100
AcDbEntity
  8
0
100
AcDbBlockBegin
  2
*Model_Space
 70
0
 10
0.0
 20
0.0
 30
0.0
  3
*Model_Space
  1

  0
ENDBLK
  5
21
100
AcDbEntity
  8
0
100
AcDbBlockEnd
  0
BLOCK
  5
1C
100
AcDbEntity
  8
0
100
AcDbBlockBegin
  2
*Paper_Space
 70
0
 10
0.0
 20
0.0
 30
0.0
  3
*Paper_Space
  1

  0
ENDBLK
  5
1D
100
AcDbEntity
  8
0
100
AcDbBlockEnd
  0
BLOCK
  5
220
100
AcDbEntity
  8
0
100
AcDbBlockBegin
  2
_FILLED
 70
64
 10
0.0
 20
0.0
  3
_FILLED
  1

  0
SOLID
  5
221
100
AcDbEntity
  8
0
  6
BYBLOCK
 62
0
100
AcDbTrace
 10
0.0
 20
0.0
 11
-1.0
 21
0.3166666667
 12
-1.0
 22
-0.3166666667
 13
-1.0
 23
-0.3166666667
  0
ENDBLK
  5
222
100
AcDbEntity
  8
0
  6
BYBLOCK
 62
0
100
AcDbBlockEnd
  0
ENDSEC
  0
SECTION
  2
ENTITIES
  0
LINE
  5
223
100
AcDbEntity
  8
0
100
AcDbLine
 62
7
  6
CONTINUOUS
 10
-0.8627477766
 20
11.2312391579
 11
-0.4759974978
 21
11.2740665792
  0
LINE
  5
224
100
AcDbEntity
  8
0
100
AcDbLine
 62
7
  6
CONTINUOUS
 10
-0.4759974978
 20
11.2740665792
 11
0.3288931392
 21
11.3536749459
  0
LINE
  5
225
100
AcDbEntity
  8
0
100
AcDbLine
 62
7
  6
CONTINUOUS
 10
0.3288931392
 20
11.3536749459
 11
0.3372522234
 21
11.3541219054
  0
LINE
  5
226
100
AcDbEntity
  8
0
100
AcDbLine
 62
7
  6
CONTINUOUS
 10
-2.703096669
 20
11.1465640807
 11
-2.1376215107
 21
11.135169452
  0
LINE
  5
227
100
AcDbEntity
  8
0
100
AcDbLine
 62
7
  6
CONTINUOUS
 10
-3.3188759456
 20
11.2061104812
 11
-2.703096669
 21
11.1465640807
  0
LINE
  5
228
100
AcDbEntity
  8
0
100
AcDbLine
 62
7
  6
CONTINUOUS
 10
-3.3376215107
 20
11.2092886632
 11
-3.3188759456
 21
11.2061104812
  0
LWPOLYLINE
  5
229
100
AcDbEntity
  8
0
100
AcDbPolyline
 62
7
  6
CONTINUOUS
 90
15
 70
0
 10
-4.9130858079
 20
38.7002293488
 10
-4.9005918065
 20
38.7089357891
 10
-4.8884086974
 20
38.7173257881
 10
-4.8765364803
 20
38.725399346
 10
-4.8649823046
 20
38.7331484046
 10
-4.8537390209
 20
38.740581022
 10
-4.8427851822
 20
38.7477213722
 10
-4.8321199637
 20
38.754570929
 10
-4.8217441902
 20
38.7611282187
 10
-4.811638888
 20
38.7674129936
 10
-4.8018038783
 20
38.773426335
 10
-4.79223934
 20
38.7791671617
 10
-4.7829268368
 20
38.7846519825
 10
-4.7738652213
 20
38.7898825567
 10
-4.7670918335
 20
38.793717365
  0
LWPOLYLINE
  5
22A
100
AcDbEntity
  8
ASSI
100
AcDbPolyline
 62
7
  6
CONTINUOUS
 90
14
 70
0
 10
-4.9130858079
 20
38.7002293488
 10
-4.9005918065
 20
38.7089357891
 10
-4.8884086974
 20
38.7173257881
 10
-4.8765364803
 20
38.725399346
 10
-4.8649823046
 20
38.7331484046
 10
-4.8537390209
 20
38.740581022
 10
-4.8427851822
 20
38.7477213722
 10
-4.8321199637
 20
38.754570929
 10
-4.8217441902
 20
38.7611282187
 10
-4.811638888
 20
38.7674129936
 10
-4.8018038783
 20
38.773426335
 10
-4.79223934
 20
38.7791671617
 10
-4.7829268368
 20
38.7846519825
 10
-4.7738652213
 20
38.7898825567
  0
LINE
  5
22B
100
AcDbEntity
  8
RACCORDO
100
AcDbLine
 62
7
  6
CONTINUOUS
 10
-2.6941473723
 20
39.9573609159
 11
-4.7670919
 21
38.7937167989
  0
LINE
  5
22C
100
AcDbEntity
  8
ASSI
100
AcDbLine
 62
7
  6
CONTINUOUS
 10
-2.6941473723
 20
39.9573609159
 11
-4.7738652213
 21
38.7898825567
  0
LINE
  5
22D
100
AcDbEntity
  8
RACCORDO
100
AcDbLine
 62
250
  6
CONTINUOUS
 10
-2.6197972629
 20
39.9495606965
 11
-4.8707930428
 21
38.6859675492
  0
LINE
  5
22E
100
AcDbEntity
  8
ASSI
100
AcDbLine
 62
250
  6
CONTINUOUS
 10
-2.6197972629
 20
39.9495606965
 11
-4.8707930428
 21
38.6859675492
  0
LWPOLYLINE
  5
22F
100
AcDbEntity
  8
RACCORDO
100
AcDbPolyline
 62
250
  6
CONTINUOUS
 90
10
 70
0
 10
-2.6197970498
 20
39.9495605734
 10
-2.6108519474
 20
39.9541985459
 10
-2.6019139019
 20
39.957949751
 10
-2.5930497895
 20
39.960767034
 10
-2.5843083515
 20
39.962612148
 10
-2.5757808478
 20
39.9634423562
 10
-2.5675934191
 20
39.9632348013
 10
-2.5598255936
 20
39.9619948487
 10
-2.5525169018
 20
39.9597323284
 10
-2.5457226386
 20
39.9564640823
  0
LWPOLYLINE
  5
230
100
AcDbEntity
  8
ASSI
100
AcDbPolyline
 62
250
  6
CONTINUOUS
 90
10
 70
0
 10
-2.6197970498
 20
39.9495605734
 10
-2.6108519474
 20
39.9541985459
 10
-2.6019139019
 20
39.957949751
 10
-2.5930497895
 20
39.960767034
 10
-2.5843083515
 20
39.962612148
 10
-2.5757808478
 20
39.9634423562
 10
-2.5675934191
 20
39.9632348013
 10
-2.5598255936
 20
39.9619948487
 10
-2.5525169018
 20
39.9597323284
 10
-2.5457226386
 20
39.9564640823
  0
LWPOLYLINE
  5
231
100
AcDbEntity
  8
RACCORDO
100
AcDbPolyline
 62
250
  6
CONTINUOUS
 90
8
 70
0
 10
-4.0226888828
 20
38.8604145246
 10
-4.0105441329
 20
38.8666212672
 10
-3.9985041935
 20
38.871152283
 10
-3.986732243
 20
38.8739234047
 10
-3.9753749076
 20
38.8748727413
 10
-3.9646120537
 20
38.8739565665
 10
-3.9546435961
 20
38.8711786509
 10
-3.9476852588
 20
38.8678457013
  0
LWPOLYLINE
  5
232
100
AcDbEntity
  8
ASSI
100
AcDbPolyline
 62
250
  6
CONTINUOUS
 90
8
 70
0
 10
-4.0226888828
 20
38.8604145246
 10
-4.0105441329
 20
38.8666212672
 10
-3.9985041935
 20
38.871152283
 10
-3.986732243
 20
38.8739234047
 10
-3.9753749076
 20
38.8748727413
 10
-3.9646120537
 20
38.8739565665
 10
-3.9546435961
 20
38.8711786509
 10
-3.9476852588
 20
38.8678457013
  0
LINE
  5
233
100
AcDbEntity
  8
RACCORDO
100
AcDbLine
 62
7
  6
CONTINUOUS
 10
-4.2590056873
 20
38.7901292505
 11
-4.0880902446
 21
38.8729353231
  0
LINE
  5
234
100
AcDbEntity
  8
ASSI
100
AcDbLine
 62
7
  6
CONTINUOUS
 10
-4.2590056873
 20
38.7901292505
 11
-4.0880902446
 21
38.8729353231
  0
LINE
  5
235
100
AcDbEntity
  8
RACCORDO
100
AcDbLine
 62
250
  6
CONTINUOUS
 10
-4.1867852572
 20
38.7809121925
 11
-4.0226888828
 21
38.8604145246
  0
LINE
  5
236
100
AcDbEntity
  8
ASSI
100
AcDbLine
 62
250
  6
CONTINUOUS
 10
-4.1867852572
 20
38.7809121925
 11
-4.0226888828
 21
38.8604145246
  0
LINE
  5
237
100
AcDbEntity
  8
RACCORDO
100
AcDbLine
 62
250
  6
CONTINUOUS
 10
-4.2942876806
 20
38.4640021541
 11
-4.3996466229
 21
38.4139335112
  0
LINE
  5
238
100
AcDbEntity
  8
ASSI
100
AcDbLine
 62
250
  6
CONTINUOUS
 10
-4.2942876806
 20
38.4640021541
 11
-4.3996466229
 21
38.4139335112
  0
LWPOLYLINE
  5
239
100
AcDbEntity
  8
RACCORDO
100
AcDbPolyline
 62
250
  6
CONTINUOUS
 90
6
 70
0
 10
-2.6941473723
 20
39.9573609159
 10
-2.6878319802
 20
39.9603516569
 10
-2.6726742803
 20
39.9638594755
 10
-2.6559381478
 20
39.9631957694
 10
-2.6381320718
 20
39.9583807038
 10
-2.6197970498
 20
39.9495605734
  0
LWPOLYLINE
  5
23A
100
AcDbEntity
  8
ASSI
100
AcDbPolyline
 62
250
  6
CONTINUOUS
 90
6
 70
0
 10
-2.6941473723
 20
39.9573609159
 10
-2.6878319802
 20
39.9603516569
 10
-2.6726742803
 20
39.9638594755
 10
-2.6559381478
 20
39.9631957694
 10
-2.6381320718
 20
39.9583807038
 10
-2.6197970498
 20
39.9495605734
  0
LWPOLYLINE
  5
23B
100
AcDbEntity
  8
RACCORDO
100
AcDbPolyline
 62
7
  6
CONTINUOUS
 90
6
 70
0
 10
-4.3279338081
 20
38.4047634732
 10
-4.3314187501
 20
38.4032213662
 10
-4.3463654427
 20
38.3996157308
 10
-4.3625280179
 20
38.4003127784
 10
-4.3802884114
 20
38.4050853719
 10
-4.3996466229
 20
38.4139335112
  0
LWPOLYLINE
  5
23C
100
AcDbEntity
  8
ASSI
100
AcDbPolyline
 62
7
  6
CONTINUOUS
 90
6
 70
0
 10
-4.3279338081
 20
38.4047634732
 10
-4.3314187501
 20
38.4032213662
 10
-4.3463654427
 20
38.3996157308
 10
-4.3625280179
 20
38.4003127784
 10
-4.3802884114
 20
38.4050853719
 10
-4.3996466229
 20
38.4139335112
  0
LINE
  5
23D
100
AcDbEntity
  8
RACCORDO
100
AcDbLine
 62
250
  6
CONTINUOUS
 10
-4.0846651898
 20
38.874408065
 11
-4.0880902446
 21
38.8729353231
  0
LINE
  5
23E
100
AcDbEntity
  8
ASSI
100
AcDbLine
 62
250
  6
CONTINUOUS
 10
-4.0846651898
 20
38.874408065
 11
-4.0880902446
 21
38.8729353231
  0
LINE
  5
23F
100
AcDbEntity
  8
RACCORDO
100
AcDbLine
 62
7
  6
CONTINUOUS
 10
-4.5114060149
 20
38.00888947
 11
-4.4988904963
 21
38.0181642484
  0
LINE
  5
240
100
AcDbEntity
  8
ASSI
100
AcDbLine
 62
7
  6
CONTINUOUS
 10
-4.5114060149
 20
38.00888947
 11
-4.4988904963
 21
38.0181642484
  0
LWPOLYLINE
  5
241
100
AcDbEntity
  8
RACCORDO
100
AcDbPolyline
 62
7
  6
CONTINUOUS
 90
7
 70
0
 10
-4.452524681
 20
37.9368708964
 10
-4.4687176529
 20
37.9249699836
 10
-4.4817063697
 20
37.9100239435
 10
-4.491932619
 20
37.892161276
 10
-4.4991803682
 20
37.8716305033
 10
-4.5036656497
 20
37.8481831031
 10
-4.5053884637
 20
37.8218190755
  0
LWPOLYLINE
  5
242
100
AcDbEntity
  8
RACCORDO
100
AcDbPolyline
 62
7
  6
CONTINUOUS
 90
6
 70
0
 10
-4.2588877241
 20
38.7899142348
 10
-4.2684208104
 20
38.7839360444
 10
-4.2790367231
 20
38.7728525666
 10
-4.2865230985
 20
38.758602119
 10
-4.2912630006
 20
38.740956854
 10
-4.2932564293
 20
38.7199167714
  0
LWPOLYLINE
  5
243
100
AcDbEntity
  8
ASSI
100
AcDbPolyline
 62
7
  6
CONTINUOUS
 90
6
 70
0
 10
-4.2588877241
 20
38.7899142348
 10
-4.2684208104
 20
38.7839360444
 10
-4.2790367231
 20
38.7728525666
 10
-4.2865230985
 20
38.758602119
 10
-4.2912630006
 20
38.740956854
 10
-4.2932564293
 20
38.7199167714
  0
LINE
  5
244
100
AcDbEntity
  8
RACCORDO
100
AcDbLine
 62
250
  6
CONTINUOUS
 10
-4.3987215832
 20
38.0069443224
 11
-4.5407438027
 21
37.9263673975
  0
LINE
  5
245
100
AcDbEntity
  8
ASSI
100
AcDbLine
 62
250
  6
CONTINUOUS
 10
-4.3987215832
 20
38.0069443224
 11
-4.5407438027
 21
37.9263673975
  0
LINE
  5
246
100
AcDbEntity
  8
RACCORDO
100
AcDbLine
 62
7
  6
CONTINUOUS
 10
-4.3627717684
 20
37.9869010763
 11
-4.452525208
 21
37.9368718211
  0
LINE
  5
247
100
AcDbEntity
  8
RACCORDO
100
AcDbLine
 62
250
  6
CONTINUOUS
 10
-4.2904465908
 20
37.9451414252
 11
-4.3286184995
 21
37.9238641107
  0
LWPOLYLINE
  5
248
100
AcDbEntity
  8
RACCORDO
100
AcDbPolyline
 62
7
  6
CONTINUOUS
 90
7
 70
0
 10
-4.4988904963
 20
38.0181642484
 10
-4.4854626216
 20
38.0238659656
 10
-4.4699106887
 20
38.026885114
 10
-4.4534432364
 20
38.0268237354
 10
-4.4363189412
 20
38.023631603
 10
-4.4182791266
 20
38.0173589436
 10
-4.3993237927
 20
38.0080057571
  0
LWPOLYLINE
  5
249
100
AcDbEntity
  8
ASSI
100
AcDbPolyline
 62
7
  6
CONTINUOUS
 90
7
 70
0
 10
-4.4988904963
 20
38.0181642484
 10
-4.4854626216
 20
38.0238659656
 10
-4.4699106887
 20
38.026885114
 10
-4.4534432364
 20
38.0268237354
 10
-4.4363189412
 20
38.023631603
 10
-4.4182791266
 20
38.0173589436
 10
-4.3993237927
 20
38.0080057571
  0
LWPOLYLINE
  5
24A
100
AcDbEntity
  8
RACCORDO
100
AcDbPolyline
 62
7
  6
CONTINUOUS
 90
6
 70
0
 10
-4.6856747825
 20
36.3393423036
 10
-4.6927201755
 20
36.3346584554
 10
-4.7033109747
 20
36.3235638902
 10
-4.7107820415
 20
36.309289514
 10
-4.7155185492
 20
36.2916129763
 10
-4.717520498
 20
36.2705342772
  0
LINE
  5
24B
100
AcDbEntity
  8
RACCORDO
100
AcDbLine
 62
250
  6
CONTINUOUS
 10
-4.5407438027
 20
36.456718179
 11
-4.5053884637
 21
36.4767771846
  0
LINE
  5
24C
100
AcDbEntity
  8
ASSI
100
AcDbLine
 62
250
  6
CONTINUOUS
 10
-4.5407438027
 20
36.456718179
 11
-4.5053884637
 21
36.4767771846
  0
LINE
  5
24D
100
AcDbEntity
  8
RACCORDO
100
AcDbLine
 62
7
  6
CONTINUOUS
 10
-4.5721337021
 20
36.3878704005
 11
-4.5053884637
 21
36.4257386022
  0
LINE
  5
24E
100
AcDbEntity
  8
ASSI
100
AcDbLine
 62
7
  6
CONTINUOUS
 10
-4.5721337021
 20
36.3878704005
 11
-4.5053884637
 21
36.4257386022
  0
LINE
  5
24F
100
AcDbEntity
  8
RACCORDO
100
AcDbLine
 62
7
  6
CONTINUOUS
 10
-4.6858025447
 20
36.3395659246
 11
-4.6097807185
 21
36.3819410732
  0
LINE
  5
250
100
AcDbEntity
  8
RACCORDO
100
AcDbLine
 62
250
  6
CONTINUOUS
 10
-4.6114585195
 20
36.3317612983
 11
-4.5053884637
 21
36.3908855606
  0
LINE
  5
251
100
AcDbEntity
  8
RACCORDO
100
AcDbLine
 62
7
  6
CONTINUOUS
 10
-4.6793948173
 20
36.342350859
 11
-4.6856747825
 21
36.3393423036
  0
LWPOLYLINE
  5
252
100
AcDbEntity
  8
RACCORDO
100
AcDbPolyline
 62
7
  6
CONTINUOUS
 90
6
 70
0
 10
-4.5722622437
 20
36.3880942022
 10
-4.5655451125
 20
36.3925929859
 10
-4.5549537974
 20
36.4036878954
 10
-4.547482434
 20
36.4179625322
 10
-4.5427457692
 20
36.4356392934
 10
-4.5407438027
 20
36.456718179
  0
LWPOLYLINE
  5
253
100
AcDbEntity
  8
ASSI
100
AcDbPolyline
 62
7
  6
CONTINUOUS
 90
6
 70
0
 10
-4.5722622437
 20
36.3880942022
 10
-4.5655451125
 20
36.3925929859
 10
-4.5549537974
 20
36.4036878954
 10
-4.547482434
 20
36.4179625322
 10
-4.5427457692
 20
36.4356392934
 10
-4.5407438027
 20
36.456718179
  0
LINE
  5
254
100
AcDbEntity
  8
0
100
AcDbLine
 62
7
  6
CONTINUOUS
 10
-5.2124952449
 20
34.790934655
 11
-4.9130858079
 21
34.966801004
  0
LINE
  5
255
100
AcDbEntity
  8
ASSI
100
AcDbLine
 62
7
  6
CONTINUOUS
 10
-5.2124952449
 20
34.790934655
 11
-4.9130858079
 21
34.966801004
  0
LWPOLYLINE
  5
256
100
AcDbEntity
  8
RACCORDO
100
AcDbPolyline
 62
250
  6
CONTINUOUS
 90
4
 70
0
 10
-1.0800538789
 20
37.1613739532
 10
-1.067907074
 20
37.1675816089
 10
-1.0558656255
 20
37.1721128056
 10
-1.0440927463
 20
37.174883558
  0
LWPOLYLINE
  5
257
100
AcDbEntity
  8
ASSI
100
AcDbPolyline
 62
250
  6
CONTINUOUS
 90
4
 70
0
 10
-1.0800538789
 20
37.1613739532
 10
-1.067907074
 20
37.1675816089
 10
-1.0558656255
 20
37.1721128056
 10
-1.0440927463
 20
37.174883558
  0
LWPOLYLINE
  5
258
100
AcDbEntity
  8
RACCORDO
100
AcDbPolyline
 62
250
  6
CONTINUOUS
 90
7
 70
0
 10
-0.7272357244
 20
36.8887898717
 10
-0.7394404628
 20
36.882680395
 10
-0.7514705799
 20
36.8782879601
 10
-0.7631660861
 20
36.8756709825
 10
-0.7743714419
 20
36.8748642655
 10
-0.7849376264
 20
36.8758785377
 10
-0.7947241188
 20
36.8787003103
  0
LWPOLYLINE
  5
259
100
AcDbEntity
  8
ASSI
100
AcDbPolyline
 62
250
  6
CONTINUOUS
 90
7
 70
0
 10
-0.7272357244
 20
36.8887898717
 10
-0.7394404628
 20
36.882680395
 10
-0.7514705799
 20
36.8782879601
 10
-0.7631660861
 20
36.8756709825
 10
-0.7743714419
 20
36.8748642655
 10
-0.7849376264
 20
36.8758785377
 10
-0.7947241188
 20
36.8787003103
  0
LWPOLYLINE
  5
25A
100
AcDbEntity
  8
RACCORDO
100
AcDbPolyline
 62
250
  6
CONTINUOUS
 90
4
 70
0
 10
1.7211205893
 20
37.4702945308
 10
1.7121391777
 20
37.4674936311
 10
1.7030116458
 20
37.4636992232
 10
1.6938068863
 20
37.4589397229
  0
LWPOLYLINE
  5
25B
100
AcDbEntity
  8
ASSI
100
AcDbPolyline
 62
250
  6
CONTINUOUS
 90
4
 70
0
 10
1.7211205893
 20
37.4702945308
 10
1.7121391777
 20
37.4674936311
 10
1.7030116458
 20
37.4636992232
 10
1.6938068863
 20
37.4589397229
  0
LWPOLYLINE
  5
25C
100
AcDbEntity
  8
RACCORDO
100
AcDbPolyline
 62
7
  6
CONTINUOUS
 90
3
 70
0
 10
-4.529978839
 20
37.9826415769
 10
-4.5217974752
 20
37.9969321227
 10
-4.5114060149
 20
38.00888947
  0
LWPOLYLINE
  5
25D
100
AcDbEntity
  8
ASSI
100
AcDbPolyline
 62
7
  6
CONTINUOUS
 90
3
 70
0
 10
-4.529978839
 20
37.9826415769
 10
-4.5217974752
 20
37.9969321227
 10
-4.5114060149
 20
38.00888947
  0
LINE
  5
25E
100
AcDbEntity
  8
RACCORDO
100
AcDbLine
 62
250
  6
CONTINUOUS
 10
-1.0800538789
 20
37.1613739532
 11
-1.2177470861
 21
37.0666267633
  0
LINE
  5
25F
100
AcDbEntity
  8
ASSI
100
AcDbLine
 62
250
  6
CONTINUOUS
 10
-1.0800538789
 20
37.1613739532
 11
-1.2177470861
 21
37.0666267633
  0
LINE
  5
260
100
AcDbEntity
  8
RACCORDO
100
AcDbLine
 62
250
  6
CONTINUOUS
 10
-0.9651472124
 20
36.9832327853
 11
-1.111275914
 21
36.8826811014
  0
LINE
  5
261
100
AcDbEntity
  8
ASSI
100
AcDbLine
 62
250
  6
CONTINUOUS
 10
-0.9651472124
 20
36.9832327853
 11
-1.111275914
 21
36.8826811014
  0
LINE
  5
262
100
AcDbEntity
  8
RACCORDO
100
AcDbLine
 62
250
  6
CONTINUOUS
 10
-1.111275914
 20
36.6376515311
 11
-0.8520413375
 21
36.8131691222
  0
LINE
  5
263
100
AcDbEntity
  8
ASSI
100
AcDbLine
 62
250
  6
CONTINUOUS
 10
-1.111275914
 20
36.6376515311
 11
-0.8520413375
 21
36.8131691222
  0
LINE
  5
264
100
AcDbEntity
  8
RACCORDO
100
AcDbLine
 62
250
  6
CONTINUOUS
 10
-1.0048857204
 20
36.4538411124
 11
-0.7380602599
 21
36.6344981941
  0
LINE
  5
265
100
AcDbEntity
  8
ASSI
100
AcDbLine
 62
250
  6
CONTINUOUS
 10
-1.0048857204
 20
36.4538411124
 11
-0.7380602599
 21
36.6344981941
  0
LINE
  5
266
100
AcDbEntity
  8
RACCORDO
100
AcDbLine
 62
250
  6
CONTINUOUS
 10
-1.0759138438
 20
36.0457932085
 11
-1.0384024136
 21
36.067451875
  0
LWPOLYLINE
  5
267
100
AcDbEntity
  8
RACCORDO
100
AcDbPolyline
 62
250
  6
CONTINUOUS
 90
5
 70
0
 10
-0.796422486
 20
36.8378281332
 10
-0.8058073572
 20
36.8307104549
 10
-0.8181482074
 20
36.8239443292
 10
-0.8335557835
 20
36.8179792851
 10
-0.8520413375
 20
36.8131691222
  0
LWPOLYLINE
  5
268
100
AcDbEntity
  8
ASSI
100
AcDbPolyline
 62
250
  6
CONTINUOUS
 90
5
 70
0
 10
-0.796422486
 20
36.8378281332
 10
-0.8058073572
 20
36.8307104549
 10
-0.8181482074
 20
36.8239443292
 10
-0.8335557835
 20
36.8179792851
 10
-0.8520413375
 20
36.8131691222
  0
LINE
  5
269
100
AcDbEntity
  8
RACCORDO
100
AcDbLine
 62
250
  6
CONTINUOUS
 10
-0.8991438796
 20
35.7396186496
 11
-0.8637885406
 21
35.760032414
  0
LINE
  5
26A
100
AcDbEntity
  8
RACCORDO
100
AcDbLine
 62
250
  6
CONTINUOUS
 10
-0.5337393005
 20
36.1818070744
 11
1.6938070995
 21
37.4589395998
  0
LINE
  5
26B
100
AcDbEntity
  8
ASSI
100
AcDbLine
 62
250
  6
CONTINUOUS
 10
-0.5337393005
 20
36.1818070744
 11
1.6938070995
 21
37.4589395998
  0
LINE
  5
26C
100
AcDbEntity
  8
RACCORDO
100
AcDbLine
 62
250
  6
CONTINUOUS
 10
-0.4276766758
 20
35.9980982353
 11
1.799623554
 21
37.275091053
  0
LINE
  5
26D
100
AcDbEntity
  8
ASSI
100
AcDbLine
 62
250
  6
CONTINUOUS
 10
-0.4276766758
 20
35.9980982353
 11
1.799623554
 21
37.275091053
  0
LWPOLYLINE
  5
26E
100
AcDbEntity
  8
RACCORDO
100
AcDbPolyline
 62
7
  6
CONTINUOUS
 90
6
 70
0
 10
1.7186273187
 20
35.6773573433
 10
1.7376518081
 20
35.6859832768
 10
1.7551069947
 20
35.6905806102
 10
1.7709928783
 20
35.6911493435
 10
1.7856848511
 20
35.6874689228
 10
1.7921918299
 20
35.6842636881
  0
LWPOLYLINE
  5
26F
100
AcDbEntity
  8
ASSI
100
AcDbPolyline
 62
7
  6
CONTINUOUS
 90
6
 70
0
 10
1.7186273187
 20
35.6773573433
 10
1.7376518081
 20
35.6859832768
 10
1.7551069947
 20
35.6905806102
 10
1.7709928783
 20
35.6911493435
 10
1.7856848511
 20
35.6874689228
 10
1.7921918299
 20
35.6842636881
  0
LWPOLYLINE
  5
270
100
AcDbEntity
  8
RACCORDO
100
AcDbPolyline
 62
250
  6
CONTINUOUS
 90
6
 70
0
 10
2.2797431093
 20
36.998215627
 10
2.2962920317
 20
37.0097954962
 10
2.3091288466
 20
37.0228514934
 10
2.3178678248
 20
37.0369913032
 10
2.3222463717
 20
37.0517900429
 10
2.3227555419
 20
37.0589200607
  0
LWPOLYLINE
  5
271
100
AcDbEntity
  8
ASSI
100
AcDbPolyline
 62
250
  6
CONTINUOUS
 90
6
 70
0
 10
2.2797431093
 20
36.998215627
 10
2.2962920317
 20
37.0097954962
 10
2.3091288466
 20
37.0228514934
 10
2.3178678248
 20
37.0369913032
 10
2.3222463717
 20
37.0517900429
 10
2.3227555419
 20
37.0589200607
  0
LINE
  5
272
100
AcDbEntity
  8
RACCORDO
100
AcDbLine
 62
7
  6
CONTINUOUS
 10
-0.8991438796
 20
34.1883173515
 11
-0.8312476618
 21
34.2275198434
  0
LINE
  5
273
100
AcDbEntity
  8
RACCORDO
100
AcDbLine
 62
250
  6
CONTINUOUS
 10
-0.756642857
 20
34.14810865
 11
-0.7930738238
 21
34.1270738306
  0
LINE
  5
274
100
AcDbEntity
  8
RACCORDO
100
AcDbLine
 62
250
  6
CONTINUOUS
 10
1.8406730935
 20
35.6068896425
 11
-0.298099077
 21
34.3719872952
  0
LINE
  5
275
100
AcDbEntity
  8
ASSI
100
AcDbLine
 62
250
  6
CONTINUOUS
 10
1.8406730935
 20
35.6068896425
 11
-0.298099077
 21
34.3719872952
  0
LINE
  5
276
100
AcDbEntity
  8
RACCORDO
100
AcDbLine
 62
250
  6
CONTINUOUS
 10
-0.6516565062
 20
33.9637828597
 11
-0.6870118453
 21
33.9433690953
  0
LINE
  5
277
100
AcDbEntity
  8
RACCORDO
100
AcDbLine
 62
250
  6
CONTINUOUS
 10
1.946735072
 20
35.4231849072
 11
-0.1920370984
 21
34.1882825599
  0
LINE
  5
278
100
AcDbEntity
  8
ASSI
100
AcDbLine
 62
250
  6
CONTINUOUS
 10
1.946735072
 20
35.4231849072
 11
-0.1920370984
 21
34.1882825599
  0
LINE
  5
279
100
AcDbEntity
  8
RACCORDO
100
AcDbLine
 62
7
  6
CONTINUOUS
 10
-0.4276766758
 20
34.4468037768
 11
1.7186273187
 21
35.6773573433
  0
LINE
  5
27A
100
AcDbEntity
  8
ASSI
100
AcDbLine
 62
7
  6
CONTINUOUS
 10
-0.4276766758
 20
34.4468037768
 11
1.7186273187
 21
35.6773573433
  0
LWPOLYLINE
  5
27B
100
AcDbEntity
  8
RACCORDO
100
AcDbPolyline
 62
250
  6
CONTINUOUS
 90
6
 70
0
 10
1.8406730935
 20
35.6068896425
 10
1.8583539358
 20
35.6152038683
 10
1.8757114936
 20
35.6198699477
 10
1.8922202512
 20
35.620619922
 10
1.9074045722
 20
35.6172729381
 10
1.9147493167
 20
35.6137921052
  0
LWPOLYLINE
  5
27C
100
AcDbEntity
  8
ASSI
100
AcDbPolyline
 62
250
  6
CONTINUOUS
 90
6
 70
0
 10
1.8406730935
 20
35.6068896425
 10
1.8583539358
 20
35.6152038683
 10
1.8757114936
 20
35.6198699477
 10
1.8922202512
 20
35.620619922
 10
1.9074045722
 20
35.6172729381
 10
1.9147493167
 20
35.6137921052
  0
LWPOLYLINE
  5
27D
100
AcDbEntity
  8
RACCORDO
100
AcDbPolyline
 62
250
  6
CONTINUOUS
 90
6
 70
0
 10
1.946735072
 20
35.4231849072
 10
1.9627593627
 20
35.4343278228
 10
1.9754734674
 20
35.4470157344
 10
1.984380572
 20
35.4609293787
 10
1.9890833752
 20
35.4757484284
 10
1.9897475046
 20
35.4838893409
  0
LWPOLYLINE
  5
27E
100
AcDbEntity
  8
ASSI
100
AcDbPolyline
 62
250
  6
CONTINUOUS
 90
6
 70
0
 10
1.946735072
 20
35.4231849072
 10
1.9627593627
 20
35.4343278228
 10
1.9754734674
 20
35.4470157344
 10
1.984380572
 20
35.4609293787
 10
1.9890833752
 20
35.4757484284
 10
1.9897475046
 20
35.4838893409
  0
LWPOLYLINE
  5
27F
100
AcDbEntity
  8
0
100
AcDbPolyline
 62
7
  6
CONTINUOUS
 90
26
 70
0
 10
-3.701949269
 20
31.001418174
 10
-3.7710574695
 20
30.9556398936
 10
-3.85387211
 20
30.8815750885
 10
-3.92706596
 20
30.7923295521
 10
-3.9886800763
 20
30.6902918311
 10
-4.0384017517
 20
30.5751164768
 10
-4.0765436933
 20
30.4471489378
 10
-4.1020850791
 20
30.309814108
 10
-4.114685635
 20
30.1628590265
 10
-4.114685635
 20
30.006536654
 10
-4.1020850791
 20
29.8450307664
 10
-4.0765436933
 20
29.6782013845
 10
-4.0384017517
 20
29.5061884874
 10
-3.9886800763
 20
29.3335957886
 10
-3.92706596
 20
29.1604076306
 10
-3.85387211
 20
28.9866396708
 10
-3.7710574695
 20
28.8169425947
 10
-3.678362232
 20
28.6514263353
 10
-3.5760462041
 20
28.4899809595
 10
-3.4668477481
 20
28.336927354
 10
-3.3505810063
 20
28.1924921361
 10
-3.2274318365
 20
28.0564486885
 10
-3.1006961745
 20
27.9324380465
 10
-2.9714726657
 20
27.8216738888
 10
-2.8386626647
 20
27.7229425367
 10
-2.7022661717
 20
27.6362439903
  0
LWPOLYLINE
  5
280
100
AcDbEntity
  8
RACCORDO
100
AcDbPolyline
 62
250
  6
CONTINUOUS
 90
6
 70
0
 10
-0.9651472124
 20
36.9832327853
 10
-0.9530584727
 20
37.0033992381
 10
-0.9443558045
 20
37.0246107542
 10
-0.9393198917
 20
37.0463005735
 10
-0.9381369108
 20
37.0679109072
 10
-0.9408993076
 20
37.0888028499
  0
LWPOLYLINE
  5
281
100
AcDbEntity
  8
ASSI
100
AcDbPolyline
 62
250
  6
CONTINUOUS
 90
6
 70
0
 10
-0.9651472124
 20
36.9832327853
 10
-0.9530584727
 20
37.0033992381
 10
-0.9443558045
 20
37.0246107542
 10
-0.9393198917
 20
37.0463005735
 10
-0.9381369108
 20
37.0679109072
 10
-0.9408993076
 20
37.0888028499
  0
LWPOLYLINE
  5
282
100
AcDbEntity
  8
0
100
AcDbPolyline
 62
7
  6
CONTINUOUS
 90
22
 70
0
 10
-3.7049676211
 20
30.9712600066
 10
-3.7850978088
 20
30.8745777974
 10
-3.8527841396
 20
30.7602713602
 10
-3.9058418393
 20
30.6320302693
 10
-3.9437935906
 20
30.4893998511
 10
-3.9671167107
 20
30.3328347792
 10
-3.9750583778
 20
30.1673886492
 10
-3.9671167107
 20
29.9927716811
 10
-3.9437935906
 20
29.8092736547
 10
-3.9058418393
 20
29.6228175055
 10
-3.8527841396
 20
29.4333067129
 10
-3.7850978088
 20
29.2408377974
 10
-3.7049676211
 20
29.051623256
 10
-3.611987546
 20
28.8657692757
 10
-3.5065636141
 20
28.6831696695
 10
-3.392098691
 20
28.5097183736
 10
-3.2682977782
 20
28.3457138881
 10
-3.1354558742
 20
28.1908577129
 10
-2.9978608399
 20
28.0501482838
 10
-2.8569419621
 20
27.9252517461
 10
-2.7112699539
 20
27.8145019545
 10
-2.5608448154
 20
27.717898909
  0
LINE
  5
283
100
AcDbEntity
  8
0
100
AcDbLine
 62
7
  6
CONTINUOUS
 10
-3.6299078163
 20
31.0346167276
 11
-3.7049676211
 21
30.9712600066
  0
LWPOLYLINE
  5
284
100
AcDbEntity
  8
RACCORDO
100
AcDbPolyline
 62
7
  6
CONTINUOUS
 90
10
 70
0
 10
-5.2124952449
 20
23.0845575989
 10
-5.2104933
 20
23.0611671124
 10
-5.2057567959
 20
23.0380209837
 10
-5.1982857324
 20
23.0151192125
 10
-5.1876949371
 20
22.9917946595
 10
-5.1743695824
 20
22.9687144642
 10
-5.1594651862
 20
22.9478800451
 10
-5.1433669211
 20
22.9299585417
 10
-5.1256896145
 20
22.9142828145
 10
-5.1064332664
 20
22.9008528635
  0
LWPOLYLINE
  5
285
100
AcDbEntity
  8
ASSI
100
AcDbPolyline
 62
7
  6
CONTINUOUS
 90
10
 70
0
 10
-5.2124952449
 20
23.0845575989
 10
-5.2104933
 20
23.0611671124
 10
-5.2057567959
 20
23.0380209837
 10
-5.1982857324
 20
23.0151192125
 10
-5.1876949371
 20
22.9917946595
 10
-5.1743695824
 20
22.9687144642
 10
-5.1594651862
 20
22.9478800451
 10
-5.1433669211
 20
22.9299585417
 10
-5.1256896145
 20
22.9142828145
 10
-5.1064332664
 20
22.9008528635
  0
LINE
  5
286
100
AcDbEntity
  8
RACCORDO
100
AcDbLine
 62
7
  6
CONTINUOUS
 10
-5.2124952449
 20
34.790934655
 11
-5.2124952449
 21
23.0845575989
  0
LINE
  5
287
100
AcDbEntity
  8
ASSI
100
AcDbLine
 62
7
  6
CONTINUOUS
 10
-5.2124952449
 20
34.790934655
 11
-5.2124952449
 21
23.0845575989
  0
LWPOLYLINE
  5
288
100
AcDbEntity
  8
RACCORDO
100
AcDbPolyline
 62
7
  6
CONTINUOUS
 90
4
 70
0
 10
-4.5407438027
 20
37.9263673975
 10
-4.5393655781
 20
37.9474586558
 10
-4.5357772568
 20
37.9662167156
 10
-4.529978839
 20
37.9826415769
  0
LWPOLYLINE
  5
289
100
AcDbEntity
  8
ASSI
100
AcDbPolyline
 62
7
  6
CONTINUOUS
 90
4
 70
0
 10
-4.5407438027
 20
37.9263673975
 10
-4.5393655781
 20
37.9474586558
 10
-4.5357772568
 20
37.9662167156
 10
-4.529978839
 20
37.9826415769
  0
LWPOLYLINE
  5
28A
100
AcDbEntity
  8
RACCORDO
100
AcDbPolyline
 62
7
  6
CONTINUOUS
 90
6
 70
0
 10
-4.2932564293
 20
38.4748872011
 10
-4.2952488703
 20
38.453856621
 10
-4.2999849357
 20
38.4362201749
 10
-4.3074646257
 20
38.4219778629
 10
-4.3180698756
 20
38.4109025475
 10
-4.3279338081
 20
38.4047634732
  0
LWPOLYLINE
  5
28B
100
AcDbEntity
  8
ASSI
100
AcDbPolyline
 62
7
  6
CONTINUOUS
 90
6
 70
0
 10
-4.2932564293
 20
38.4748872011
 10
-4.2952488703
 20
38.453856621
 10
-4.2999849357
 20
38.4362201749
 10
-4.3074646257
 20
38.4219778629
 10
-4.3180698756
 20
38.4109025475
 10
-4.3279338081
 20
38.4047634732
  0
LWPOLYLINE
  5
28C
100
AcDbEntity
  8
RACCORDO
100
AcDbPolyline
 62
7
  6
CONTINUOUS
 90
6
 70
0
 10
-0.298099077
 20
20.1245809652
 10
-0.278842738
 20
20.1157741687
 10
-0.2611654377
 20
20.1110365848
 10
-0.2450671759
 20
20.1103682132
 10
-0.2301627791
 20
20.1139914045
 10
-0.222576083
 20
20.1177544357
  0
LWPOLYLINE
  5
28D
100
AcDbEntity
  8
ASSI
100
AcDbPolyline
 62
7
  6
CONTINUOUS
 90
6
 70
0
 10
-0.298099077
 20
20.1245809652
 10
-0.278842738
 20
20.1157741687
 10
-0.2611654377
 20
20.1110365848
 10
-0.2450671759
 20
20.1103682132
 10
-0.2301627791
 20
20.1139914045
 10
-0.222576083
 20
20.1177544357
  0
LWPOLYLINE
  5
28E
100
AcDbEntity
  8
RACCORDO
100
AcDbPolyline
 62
7
  6
CONTINUOUS
 90
7
 70
0
 10
-0.8637818095
 20
20.8186107098
 10
-0.840087666
 20
20.8069192784
 10
-0.8175381101
 20
20.7990784377
 10
-0.7961331417
 20
20.7950881874
 10
-0.7755495007
 20
20.7950113262
 10
-0.7561104472
 20
20.7987850555
 10
-0.7376943931
 20
20.8068633686
  0
LINE
  5
28F
100
AcDbEntity
  8
RACCORDO
100
AcDbLine
 62
7
  6
CONTINUOUS
 10
-5.1064332664
 20
22.9008528635
 11
-4.3639671074
 21
22.4721622087
  0
LINE
  5
290
100
AcDbEntity
  8
ASSI
100
AcDbLine
 62
7
  6
CONTINUOUS
 10
-5.1064332664
 20
22.9008528635
 11
-4.3639671074
 21
22.4721622087
  0
LINE
  5
291
100
AcDbEntity
  8
DRAFT
100
AcDbLine
 62
7
  6
CONTINUOUS
 10
-4.3286117684
 20
22.451748479
 11
-3.5507943091
 21
22.0026464263
  0
LINE
  5
292
100
AcDbEntity
  8
DRAFT
100
AcDbLine
 62
7
  6
CONTINUOUS
 10
-3.51543897
 20
21.9822326967
 11
-1.8890933733
 21
21.043201132
  0
LINE
  5
293
100
AcDbEntity
  8
ASSI
100
AcDbLine
 62
7
  6
CONTINUOUS
 10
-3.51543897
 20
21.9822326967
 11
-1.8890933733
 21
21.043201132
  0
LINE
  5
294
100
AcDbEntity
  8
DRAFT
100
AcDbLine
 62
7
  6
CONTINUOUS
 10
-1.8537380342
 20
21.0227874024
 11
-1.0759205749
 21
20.5736853497
  0
LINE
  5
295
100
AcDbEntity
  8
RACCORDO
100
AcDbLine
 62
7
  6
CONTINUOUS
 10
-1.0405652359
 20
20.55327162
 11
-0.298099077
 21
20.1245809652
  0
LINE
  5
296
100
AcDbEntity
  8
ASSI
100
AcDbLine
 62
7
  6
CONTINUOUS
 10
-1.0405652359
 20
20.55327162
 11
-0.298099077
 21
20.1245809652
  0
LINE
  5
297
100
AcDbEntity
  8
RACCORDO
100
AcDbLine
 62
7
  6
CONTINUOUS
 10
-4.6114558271
 20
22.939153422
 11
-4.3639671074
 21
22.796256537
  0
LINE
  5
298
100
AcDbEntity
  8
ASSI
100
AcDbLine
 62
7
  6
CONTINUOUS
 10
-4.6114558271
 20
22.939153422
 11
-4.3639671074
 21
22.796256537
  0
LINE
  5
299
100
AcDbEntity
  8
DRAFT
100
AcDbLine
 62
7
  6
CONTINUOUS
 10
-3.51543897
 20
22.306327025
 11
-1.8890933733
 21
21.3672954604
  0
LINE
  5
29A
100
AcDbEntity
  8
ASSI
100
AcDbLine
 62
7
  6
CONTINUOUS
 10
-3.51543897
 20
22.306327025
 11
-1.8890933733
 21
21.3672954604
  0
LINE
  5
29B
100
AcDbEntity
  8
RACCORDO
100
AcDbLine
 62
7
  6
CONTINUOUS
 10
-1.0405652359
 20
20.8773659484
 11
-0.7930765162
 21
20.7344690634
  0
LINE
  5
29C
100
AcDbEntity
  8
ASSI
100
AcDbLine
 62
7
  6
CONTINUOUS
 10
-1.0405652359
 20
20.8773659484
 11
-0.7930765162
 21
20.7344690634
  0
LINE
  5
29D
100
AcDbEntity
  8
RACCORDO
100
AcDbLine
 62
7
  6
CONTINUOUS
 10
-4.5407505339
 20
22.941646368
 11
-4.3286117684
 21
22.8191601036
  0
LINE
  5
29E
100
AcDbEntity
  8
DRAFT
100
AcDbLine
 62
7
  6
CONTINUOUS
 10
-3.5507943091
 20
22.3700580509
 11
-1.8537380342
 21
21.3901990269
  0
LINE
  5
29F
100
AcDbEntity
  8
RACCORDO
100
AcDbLine
 62
7
  6
CONTINUOUS
 10
-1.0759205749
 20
20.9410969743
 11
-0.8637818095
 21
20.8186107098
  0
LWPOLYLINE
  5
2A0
100
AcDbEntity
  8
RACCORDO
100
AcDbPolyline
 62
7
  6
CONTINUOUS
 90
13
 70
0
 10
-4.6114558271
 20
22.939153422
 10
-4.630411161
 20
22.9516893799
 10
-4.6484509756
 20
22.9662486462
 10
-4.6655752708
 20
22.9828312207
 10
-4.682042723
 20
23.0017860431
 10
-4.6975946559
 20
23.0227641738
 10
-4.7114550403
 20
23.0447187942
 10
-4.7235380492
 20
23.0676994498
 10
-4.7339295096
 20
23.091656595
 10
-4.7421108733
 20
23.1153947746
 10
-4.7479092912
 20
23.1385155034
 10
-4.7514976124
 20
23.1614172667
 10
-4.7528758371
 20
23.1841000643
  0
LWPOLYLINE
  5
2A1
100
AcDbEntity
  8
ASSI
100
AcDbPolyline
 62
7
  6
CONTINUOUS
 90
13
 70
0
 10
-4.6114558271
 20
22.939153422
 10
-4.630411161
 20
22.9516893799
 10
-4.6484509756
 20
22.9662486462
 10
-4.6655752708
 20
22.9828312207
 10
-4.682042723
 20
23.0017860431
 10
-4.6975946559
 20
23.0227641738
 10
-4.7114550403
 20
23.0447187942
 10
-4.7235380492
 20
23.0676994498
 10
-4.7339295096
 20
23.091656595
 10
-4.7421108733
 20
23.1153947746
 10
-4.7479092912
 20
23.1385155034
 10
-4.7514976124
 20
23.1614172667
 10
-4.7528758371
 20
23.1841000643
  0
LWPOLYLINE
  5
2A2
100
AcDbEntity
  8
RACCORDO
100
AcDbPolyline
 62
7
  6
CONTINUOUS
 90
13
 70
0
 10
-4.717520498
 20
23.2478209269
 10
-4.7157976841
 20
23.2194674369
 10
-4.7113124025
 20
23.1908405461
 10
-4.7040646533
 20
23.1619402543
 10
-4.6938384041
 20
23.1322685704
 10
-4.6808496872
 20
23.1023234857
 10
-4.6657466001
 20
23.0735989735
 10
-4.6484219146
 20
23.0461569324
 10
-4.6289828588
 20
23.0199354638
 10
-4.6083992147
 20
22.9962428453
 10
-4.5869942428
 20
22.9755151695
 10
-4.5644446825
 20
22.9573163437
 10
-4.5407505339
 20
22.941646368
  0
LINE
  5
2A3
100
AcDbEntity
  8
0
100
AcDbLine
 62
7
  6
CONTINUOUS
 10
-4.9130858079
 20
38.7002293488
 11
-4.9130858079
 21
34.6180593985
  0
LINE
  5
2A4
100
AcDbEntity
  8
ASSI
100
AcDbLine
 62
7
  6
CONTINUOUS
 10
-4.9130858079
 20
38.7002293488
 11
-4.9130858079
 21
34.6180593985
  0
LINE
  5
2A5
100
AcDbEntity
  8
RACCORDO
100
AcDbLine
 62
7
  6
CONTINUOUS
 10
-4.7528758371
 20
23.1841000643
 11
-4.7528758371
 21
36.4567311813
  0
LINE
  5
2A6
100
AcDbEntity
  8
ASSI
100
AcDbLine
 62
7
  6
CONTINUOUS
 10
-4.7528758371
 20
23.1841000643
 11
-4.7528758371
 21
36.4567311813
  0
LINE
  5
2A7
100
AcDbEntity
  8
RACCORDO
100
AcDbLine
 62
7
  6
CONTINUOUS
 10
-4.717520498
 20
36.2705342772
 11
-4.717520498
 21
23.2478209269
  0
LINE
  5
2A8
100
AcDbEntity
  8
RACCORDO
100
AcDbLine
 62
7
  6
CONTINUOUS
 10
-4.5407438027
 20
36.456718179
 11
-4.5407438027
 21
37.9263673975
  0
LINE
  5
2A9
100
AcDbEntity
  8
ASSI
100
AcDbLine
 62
7
  6
CONTINUOUS
 10
-4.5407438027
 20
36.456718179
 11
-4.5407438027
 21
37.9263673975
  0
LINE
  5
2AA
100
AcDbEntity
  8
RACCORDO
100
AcDbLine
 62
7
  6
CONTINUOUS
 10
-4.5053884637
 20
37.8218190755
 11
-4.5053884637
 21
36.2705177775
  0
LINE
  5
2AB
100
AcDbEntity
  8
DRAFT
100
AcDbLine
 62
7
  6
CONTINUOUS
 10
-4.3639671074
 20
22.4721622087
 11
-4.3639671074
 21
22.796256537
  0
LINE
  5
2AC
100
AcDbEntity
  8
ASSI
100
AcDbLine
 62
7
  6
CONTINUOUS
 10
-4.3639671074
 20
22.4721622087
 11
-4.3639671074
 21
22.796256537
  0
LINE
  5
2AD
100
AcDbEntity
  8
DRAFT
100
AcDbLine
 62
7
  6
CONTINUOUS
 10
-4.3286117684
 20
22.8191601036
 11
-4.3286117684
 21
22.451748479
  0
LINE
  5
2AE
100
AcDbEntity
  8
RACCORDO
100
AcDbLine
 62
7
  6
CONTINUOUS
 10
-4.2932564293
 20
38.7199167714
 11
-4.2932564293
 21
38.4748872011
  0
LINE
  5
2AF
100
AcDbEntity
  8
ASSI
100
AcDbLine
 62
7
  6
CONTINUOUS
 10
-4.2932564293
 20
38.7199167714
 11
-4.2932564293
 21
38.4748872011
  0
LWPOLYLINE
  5
2B0
100
AcDbEntity
  8
RACCORDO
100
AcDbPolyline
 62
7
  6
CONTINUOUS
 90
13
 70
0
 10
-3.1618855794
 20
23.7784460237
 10
-3.1605073548
 20
23.7557632261
 10
-3.1569190335
 20
23.7328614629
 10
-3.1511206157
 20
23.709740734
 10
-3.1429392519
 20
23.6860025544
 10
-3.1325477915
 20
23.6620454092
 10
-3.1204647827
 20
23.6390647537
 10
-3.1066043983
 20
23.6171101333
 10
-3.0910524654
 20
23.5961320026
 10
-3.0745850131
 20
23.5771771802
 10
-3.0574607179
 20
23.5605946056
 10
-3.0394209033
 20
23.5460353394
 10
-3.0204655694
 20
23.5334993814
  0
LWPOLYLINE
  5
2B1
100
AcDbEntity
  8
ASSI
100
AcDbPolyline
 62
7
  6
CONTINUOUS
 90
13
 70
0
 10
-3.1618855794
 20
23.7784460237
 10
-3.1605073548
 20
23.7557632261
 10
-3.1569190335
 20
23.7328614629
 10
-3.1511206157
 20
23.709740734
 10
-3.1429392519
 20
23.6860025544
 10
-3.1325477915
 20
23.6620454092
 10
-3.1204647827
 20
23.6390647537
 10
-3.1066043983
 20
23.6171101333
 10
-3.0910524654
 20
23.5961320026
 10
-3.0745850131
 20
23.5771771802
 10
-3.0574607179
 20
23.5605946056
 10
-3.0394209033
 20
23.5460353394
 10
-3.0204655694
 20
23.5334993814
  0
LINE
  5
2B2
100
AcDbEntity
  8
DRAFT
100
AcDbLine
 62
7
  6
CONTINUOUS
 10
-3.5507943091
 20
22.0026464263
 11
-3.5507943091
 21
22.3700580509
  0
LINE
  5
2B3
100
AcDbEntity
  8
DRAFT
100
AcDbLine
 62
7
  6
CONTINUOUS
 10
-3.51543897
 20
21.9822326967
 11
-3.51543897
 21
22.306327025
  0
LINE
  5
2B4
100
AcDbEntity
  8
ASSI
100
AcDbLine
 62
7
  6
CONTINUOUS
 10
-3.51543897
 20
21.9822326967
 11
-3.51543897
 21
22.306327025
  0
LINE
  5
2B5
100
AcDbEntity
  8
0
100
AcDbLine
 62
7
  6
CONTINUOUS
 10
-3.3376215107
 20
11.2092886632
 11
-3.3376215107
 21
21.8795631243
  0
LINE
  5
2B6
100
AcDbEntity
  8
DRAFT
100
AcDbLine
 62
7
  6
CONTINUOUS
 10
-3.1783546979
 20
27.1935423963
 11
-3.179563249
 21
27.1565943348
  0
LWPOLYLINE
  5
2B7
100
AcDbEntity
  8
RACCORDO
100
AcDbPolyline
 62
250
  6
CONTINUOUS
 90
5
 70
0
 10
1.7995012185
 20
37.2750197284
 10
1.8108139587
 20
37.2984850483
 10
1.8185602041
 20
37.3230830556
 10
1.8225056942
 20
37.3480698624
 10
1.8225311105
 20
37.3726898229
  0
LWPOLYLINE
  5
2B8
100
AcDbEntity
  8
ASSI
100
AcDbPolyline
 62
250
  6
CONTINUOUS
 90
5
 70
0
 10
1.7995012185
 20
37.2750197284
 10
1.8108139587
 20
37.2984850483
 10
1.8185602041
 20
37.3230830556
 10
1.8225056942
 20
37.3480698624
 10
1.8225311105
 20
37.3726898229
  0
LWPOLYLINE
  5
2B9
100
AcDbEntity
  8
DRAFT
100
AcDbPolyline
 62
7
  6
CONTINUOUS
 90
8
 70
0
 10
-3.1133690607
 20
27.3984316301
 10
-3.128520359
 20
27.3751096731
 10
-3.1417465103
 20
27.3497549218
 10
-3.1530685065
 20
27.3224034158
 10
-3.1624653556
 20
27.2930191154
 10
-3.1698245093
 20
27.2617329629
 10
-3.1751084513
 20
27.2285886056
 10
-3.1783546979
 20
27.1935423963
  0
LWPOLYLINE
  5
2BA
100
AcDbEntity
  8
DRAFT
100
AcDbPolyline
 62
7
  6
CONTINUOUS
 90
6
 70
0
 10
-3.0862184228
 20
27.3737992853
 10
-3.1130652681
 20
27.3355566091
 10
-3.1341574175
 20
27.2915086854
 10
-3.1491548341
 20
27.2421362755
 10
-3.1583975548
 20
27.186958618
 10
-3.1618855794
 20
27.125975713
  0
LWPOLYLINE
  5
2BB
100
AcDbEntity
  8
ASSI
100
AcDbPolyline
 62
7
  6
CONTINUOUS
 90
6
 70
0
 10
-3.0862184228
 20
27.3737992853
 10
-3.1130652681
 20
27.3355566091
 10
-3.1341574175
 20
27.2915086854
 10
-3.1491548341
 20
27.2421362755
 10
-3.1583975548
 20
27.186958618
 10
-3.1618855794
 20
27.125975713
  0
LWPOLYLINE
  5
2BC
100
AcDbEntity
  8
RACCORDO
100
AcDbPolyline
 62
7
  6
CONTINUOUS
 90
3
 70
0
 10
1.9765895766
 20
34.4713942297
 10
1.9636861204
 20
34.4531733546
 10
1.946735072
 20
34.4364008451
  0
LWPOLYLINE
  5
2BD
100
AcDbEntity
  8
ASSI
100
AcDbPolyline
 62
7
  6
CONTINUOUS
 90
3
 70
0
 10
1.9765895766
 20
34.4713942297
 10
1.9636861204
 20
34.4531733546
 10
1.946735072
 20
34.4364008451
  0
LWPOLYLINE
  5
2BE
100
AcDbEntity
  8
DRAFT
100
AcDbPolyline
 62
7
  6
CONTINUOUS
 90
3
 70
0
 10
-3.0774803022
 20
27.4382928442
 10
-3.0963421887
 20
27.4194817318
 10
-3.1133690607
 20
27.3984316301
  0
LWPOLYLINE
  5
2BF
100
AcDbEntity
  8
DRAFT
100
AcDbPolyline
 62
7
  6
CONTINUOUS
 90
3
 70
0
 10
-3.0280692396
 20
27.4230478505
 10
-3.0546369918
 20
27.4047944295
 10
-3.0862184228
 20
27.3737992853
  0
LWPOLYLINE
  5
2C0
100
AcDbEntity
  8
ASSI
100
AcDbPolyline
 62
7
  6
CONTINUOUS
 90
3
 70
0
 10
-3.0280692396
 20
27.4230478505
 10
-3.0546369918
 20
27.4047944295
 10
-3.0862184228
 20
27.3737992853
  0
LWPOLYLINE
  5
2C1
100
AcDbEntity
  8
DRAFT
100
AcDbPolyline
 62
7
  6
CONTINUOUS
 90
3
 70
0
 10
-3.0439678499
 20
27.4630894388
 10
-3.056742842
 20
27.4548321014
 10
-3.0774803022
 20
27.4382928442
  0
LINE
  5
2C2
100
AcDbEntity
  8
DRAFT
100
AcDbLine
 62
250
  6
CONTINUOUS
 10
-3.179563249
 20
27.1565943348
 11
-3.1594463337
 21
27.1686222831
  0
LINE
  5
2C3
100
AcDbEntity
  8
DRAFT
100
AcDbLine
 62
7
  6
CONTINUOUS
 10
-2.9025393535
 20
27.4964246252
 11
-3.0282829724
 21
27.42292308
  0
LINE
  5
2C4
100
AcDbEntity
  8
ASSI
100
AcDbLine
 62
7
  6
CONTINUOUS
 10
-2.9025393535
 20
27.4964246252
 11
-3.0282829724
 21
27.42292308
  0
LWPOLYLINE
  5
2C5
100
AcDbEntity
  8
DRAFT
100
AcDbPolyline
 62
7
  6
CONTINUOUS
 90
3
 70
0
 10
-2.9769015244
 20
27.4445559992
 10
-3.0181365509
 20
27.4282989803
 10
-3.0280692396
 20
27.4230478505
  0
LWPOLYLINE
  5
2C6
100
AcDbEntity
  8
ASSI
100
AcDbPolyline
 62
7
  6
CONTINUOUS
 90
3
 70
0
 10
-2.9769015244
 20
27.4445559992
 10
-3.0181365509
 20
27.4282989803
 10
-3.0280692396
 20
27.4230478505
  0
LINE
  5
2C7
100
AcDbEntity
  8
0
100
AcDbLine
 62
7
  6
CONTINUOUS
 10
-1.7295909399
 20
27.5498072342
 11
-1.630229307
 21
27.5856318486
  0
LINE
  5
2C8
100
AcDbEntity
  8
RACCORDO
100
AcDbLine
 62
7
  6
CONTINUOUS
 10
-2.3406947393
 20
23.1032666793
 11
-2.3663689114
 21
23.115008655
  0
LWPOLYLINE
  5
2C9
100
AcDbEntity
  8
RACCORDO
100
AcDbPolyline
 62
7
  6
CONTINUOUS
 90
6
 70
0
 10
-2.3840667739
 20
23.1660506928
 10
-2.365111441
 20
23.1566975067
 10
-2.3470716273
 20
23.1504248474
 10
-2.3299473328
 20
23.1472327148
 10
-2.3134798812
 20
23.1471713355
 10
-2.2979279487
 20
23.1501904829
  0
LWPOLYLINE
  5
2CA
100
AcDbEntity
  8
ASSI
100
AcDbPolyline
 62
7
  6
CONTINUOUS
 90
6
 70
0
 10
-2.3840667739
 20
23.1660506928
 10
-2.365111441
 20
23.1566975067
 10
-2.3470716273
 20
23.1504248474
 10
-2.3299473328
 20
23.1472327148
 10
-2.3134798812
 20
23.1471713355
 10
-2.2979279487
 20
23.1501904829
  0
LINE
  5
2CB
100
AcDbEntity
  8
RACCORDO
100
AcDbLine
 62
7
  6
CONTINUOUS
 10
-3.0381634319
 20
23.5028943916
 11
-2.3663689114
 21
23.115008655
  0
LINE
  5
2CC
100
AcDbEntity
  8
RACCORDO
100
AcDbLine
 62
7
  6
CONTINUOUS
 10
-3.0204655694
 20
23.5334993814
 11
-2.3840667739
 21
23.1660506928
  0
LINE
  5
2CD
100
AcDbEntity
  8
ASSI
100
AcDbLine
 62
7
  6
CONTINUOUS
 10
-3.0204655694
 20
23.5334993814
 11
-2.3840667739
 21
23.1660506928
  0
LINE
  5
2CE
100
AcDbEntity
  8
DRAFT
100
AcDbLine
 62
7
  6
CONTINUOUS
 10
-0.1920370984
 20
22.0945417208
 11
-0.4914465354
 21
22.2674169773
  0
LINE
  5
2CF
100
AcDbEntity
  8
ASSI
100
AcDbLine
 62
7
  6
CONTINUOUS
 10
-0.1920370984
 20
22.0945417208
 11
-0.4914465354
 21
22.2674169773
  0
LINE
  5
2D0
100
AcDbEntity
  8
DRAFT
100
AcDbLine
 62
7
  6
CONTINUOUS
 10
0.2986180692
 20
22.3928040862
 11
0.090805614
 21
22.5127923934
  0
LINE
  5
2D1
100
AcDbEntity
  8
ASSI
100
AcDbLine
 62
7
  6
CONTINUOUS
 10
0.2986180692
 20
22.3928040862
 11
0.090805614
 21
22.5127923934
  0
LINE
  5
2D2
100
AcDbEntity
  8
RACCORDO
100
AcDbLine
 62
7
  6
CONTINUOUS
 10
-3.0381634319
 20
23.5028943916
 11
-3.0638376534
 21
23.5208003591
  0
LWPOLYLINE
  5
2D3
100
AcDbEntity
  8
RACCORDO
100
AcDbPolyline
 62
7
  6
CONTINUOUS
 90
3
 70
0
 10
-3.0638376534
 20
23.5208003591
 10
-3.0874059434
 20
23.5416995226
 10
-3.1088683021
 20
23.5655918822
  0
LWPOLYLINE
  5
2D4
100
AcDbEntity
  8
RACCORDO
100
AcDbPolyline
 62
7
  6
CONTINUOUS
 90
5
 70
0
 10
-3.1088683021
 20
23.5655918822
 10
-3.1287378645
 20
23.5933662192
 10
-3.1465014954
 20
23.6241337522
 10
-3.1606197898
 20
23.6552281371
 10
-3.1705796127
 20
23.6857605925
  0
LWPOLYLINE
  5
2D5
100
AcDbEntity
  8
RACCORDO
100
AcDbPolyline
 62
7
  6
CONTINUOUS
 90
3
 70
0
 10
-3.1705796127
 20
23.6857605925
 10
-3.1768940991
 20
23.7166198996
 10
-3.179563249
 20
23.7478060587
  0
LINE
  5
2D6
100
AcDbEntity
  8
RACCORDO
100
AcDbLine
 62
7
  6
CONTINUOUS
 10
-3.179563249
 20
27.1565943348
 11
-3.179563249
 21
23.7478060587
  0
LINE
  5
2D7
100
AcDbEntity
  8
RACCORDO
100
AcDbLine
 62
7
  6
CONTINUOUS
 10
-3.1618855794
 20
27.125975713
 11
-3.1618855794
 21
23.7784460237
  0
LINE
  5
2D8
100
AcDbEntity
  8
ASSI
100
AcDbLine
 62
7
  6
CONTINUOUS
 10
-3.1618855794
 20
27.125975713
 11
-3.1618855794
 21
23.7784460237
  0
LINE
  5
2D9
100
AcDbEntity
  8
RACCORDO
100
AcDbLine
 62
7
  6
CONTINUOUS
 10
-2.2426467639
 20
23.2476890524
 11
-2.2426467639
 21
26.5952187417
  0
LINE
  5
2DA
100
AcDbEntity
  8
ASSI
100
AcDbLine
 62
7
  6
CONTINUOUS
 10
-2.2426467639
 20
23.2476890524
 11
-2.2426467639
 21
26.5952187417
  0
LINE
  5
2DB
100
AcDbEntity
  8
RACCORDO
100
AcDbLine
 62
7
  6
CONTINUOUS
 10
-2.2249690944
 20
23.1966353577
 11
-2.2249690944
 21
26.6054236338
  0
LINE
  5
2DC
100
AcDbEntity
  8
RACCORDO
100
AcDbLine
 62
250
  6
CONTINUOUS
 10
2.2908371263
 20
37.0212805202
 11
2.2797431093
 21
36.998215627
  0
LINE
  5
2DD
100
AcDbEntity
  8
ASSI
100
AcDbLine
 62
250
  6
CONTINUOUS
 10
2.2908371263
 20
37.0212805202
 11
2.2797431093
 21
36.998215627
  0
LWPOLYLINE
  5
2DE
100
AcDbEntity
  8
RACCORDO
100
AcDbPolyline
 62
250
  6
CONTINUOUS
 90
6
 70
0
 10
2.507483835
 20
33.4516464454
 10
2.5219990207
 20
33.4713075093
 10
2.5329768281
 20
33.4922635571
 10
2.5400455601
 20
33.5139040792
 10
2.5429455676
 20
33.5356220046
 10
2.5415218201
 20
33.5567188978
  0
LWPOLYLINE
  5
2DF
100
AcDbEntity
  8
ASSI
100
AcDbPolyline
 62
250
  6
CONTINUOUS
 90
6
 70
0
 10
2.507483835
 20
33.4516464454
 10
2.5219990207
 20
33.4713075093
 10
2.5329768281
 20
33.4922635571
 10
2.5400455601
 20
33.5139040792
 10
2.5429455676
 20
33.5356220046
 10
2.5415218201
 20
33.5567188978
  0
LWPOLYLINE
  5
2E0
100
AcDbEntity
  8
0
100
AcDbPolyline
 62
7
  6
CONTINUOUS
 90
26
 70
0
 10
-1.7025830743
 20
27.5369509138
 10
-1.6334748738
 20
27.5827291942
 10
-1.5506602333
 20
27.6567939992
 10
-1.4774663833
 20
27.7460395357
 10
-1.4158522671
 20
27.8480772566
 10
-1.3661305916
 20
27.963252611
 10
-1.32798865
 20
28.0912201499
 10
-1.3024472642
 20
28.2285549798
 10
-1.2898467083
 20
28.3755100613
 10
-1.2898467083
 20
28.5318324338
 10
-1.3024472642
 20
28.6933383214
 10
-1.32798865
 20
28.8601677033
 10
-1.3661305916
 20
29.0321806004
 10
-1.4158522671
 20
29.2047732992
 10
-1.4774663833
 20
29.3779614572
 10
-1.5506602333
 20
29.551729417
 10
-1.6334748738
 20
29.721426493
 10
-1.7261701113
 20
29.8869427525
 10
-1.8284861393
 20
30.0483881283
 10
-1.9376845952
 20
30.2014417337
 10
-2.053951337
 20
30.3458769517
 10
-2.1771005068
 20
30.4819203993
 10
-2.3038361688
 20
30.6059310412
 10
-2.4330596776
 20
30.716695199
 10
-2.5658696786
 20
30.8154265511
 10
-2.7022661717
 20
30.9021250975
  0
LINE
  5
2E1
100
AcDbEntity
  8
DRAFT
100
AcDbLine
 62
250
  6
CONTINUOUS
 10
-2.22493171
 20
26.6053583189
 11
-2.2426467639
 21
26.5952187417
  0
LINE
  5
2E2
100
AcDbEntity
  8
ASSI
100
AcDbLine
 62
250
  6
CONTINUOUS
 10
-2.22493171
 20
26.6053583189
 11
-2.2426467639
 21
26.5952187417
  0
LINE
  5
2E3
100
AcDbEntity
  8
DRAFT
100
AcDbLine
 62
7
  6
CONTINUOUS
 10
-0.1920370984
 20
23.7474344328
 11
-0.4914465354
 21
23.9203096892
  0
LINE
  5
2E4
100
AcDbEntity
  8
ASSI
100
AcDbLine
 62
7
  6
CONTINUOUS
 10
-0.1920370984
 20
23.7474344328
 11
-0.4914465354
 21
23.9203096892
  0
LINE
  5
2E5
100
AcDbEntity
  8
DRAFT
100
AcDbLine
 62
7
  6
CONTINUOUS
 10
-2.2426467639
 20
26.5952187417
 11
-2.2461347885
 21
26.6602295302
  0
LINE
  5
2E6
100
AcDbEntity
  8
ASSI
100
AcDbLine
 62
7
  6
CONTINUOUS
 10
-2.2426467639
 20
26.5952187417
 11
-2.2461347885
 21
26.6602295302
  0
LWPOLYLINE
  5
2E7
100
AcDbEntity
  8
DRAFT
100
AcDbPolyline
 62
7
  6
CONTINUOUS
 90
31
 70
0
 10
-2.2249690944
 20
26.6054236338
 10
-2.2261776454
 20
26.6437672998
 10
-2.229423892
 20
26.6825621933
 10
-2.234707834
 20
26.7218083144
 10
-2.2420669877
 20
26.7615926331
 10
-2.2514638369
 20
26.8018281793
 10
-2.262785833
 20
26.8422540427
 10
-2.2760119843
 20
26.882882022
 10
-2.2911632826
 20
26.9237003185
 10
-2.3081901546
 20
26.9644126252
 10
-2.3270520411
 20
27.0050049714
 10
-2.3477895013
 20
27.0454913277
 10
-2.3704746386
 20
27.0856172988
 10
-2.395201037
 20
27.1255577693
 10
-2.4218751126
 20
27.1651378544
 10
-2.450288217
 20
27.2035785051
 10
-2.4806333851
 20
27.2409999407
 10
-2.512717582
 20
27.2772819418
 10
-2.5457530545
 20
27.3112848013
 10
-2.579759226
 20
27.3428534799
 10
-2.6147166731
 20
27.3721430168
 10
-2.6497793733
 20
27.3984788224
 10
-2.6847354878
 20
27.421676548
 10
-2.7197968555
 20
27.4419205423
 10
-2.75475297
 20
27.4590892615
 10
-2.7898156702
 20
27.4732429833
 10
-2.8247731173
 20
27.48432143
 10
-2.8587792888
 20
27.4920222258
 10
-2.8918147614
 20
27.496167902
 10
-2.9238989582
 20
27.4969359272
 10
-2.9542441263
 20
27.4945563311
  0
LINE
  5
2E8
100
AcDbEntity
  8
0
100
AcDbLine
 62
7
  6
CONTINUOUS
 10
-2.1376215107
 20
11.135169452
 11
-2.1376215107
 21
21.1866981638
  0
LINE
  5
2E9
100
AcDbEntity
  8
DRAFT
100
AcDbLine
 62
7
  6
CONTINUOUS
 10
-1.8890933733
 20
21.043201132
 11
-1.8890933733
 21
21.3672954604
  0
LINE
  5
2EA
100
AcDbEntity
  8
ASSI
100
AcDbLine
 62
7
  6
CONTINUOUS
 10
-1.8890933733
 20
21.043201132
 11
-1.8890933733
 21
21.3672954604
  0
LINE
  5
2EB
100
AcDbEntity
  8
DRAFT
100
AcDbLine
 62
7
  6
CONTINUOUS
 10
-1.8537380342
 20
21.3901990269
 11
-1.8537380342
 21
21.0227874024
  0
LINE
  5
2EC
100
AcDbEntity
  8
RACCORDO
100
AcDbLine
 62
7
  6
CONTINUOUS
 10
-2.2440249887
 20
23.226597793
 11
-2.2426467639
 21
23.2476890524
  0
LINE
  5
2ED
100
AcDbEntity
  8
ASSI
100
AcDbLine
 62
7
  6
CONTINUOUS
 10
-2.2440249887
 20
23.226597793
 11
-2.2426467639
 21
23.2476890524
  0
LWPOLYLINE
  5
2EE
100
AcDbEntity
  8
RACCORDO
100
AcDbPolyline
 62
7
  6
CONTINUOUS
 90
5
 70
0
 10
-2.2249690944
 20
23.1966353577
 10
-2.2276382653
 20
23.1685314212
 10
-2.233952771
 20
23.1449638972
 10
-2.2439126115
 20
23.1259327855
 10
-2.2580309265
 20
23.1111418685
  0
LWPOLYLINE
  5
2EF
100
AcDbEntity
  8
RACCORDO
100
AcDbPolyline
 62
250
  6
CONTINUOUS
 90
5
 70
0
 10
2.507483835
 20
22.2755123614
 10
2.5180414217
 20
22.2678324364
 10
2.5250538957
 20
22.2622149551
 10
2.5283097637
 20
22.2588293384
 10
2.5284886818
 20
22.2579995213
  0
LWPOLYLINE
  5
2F0
100
AcDbEntity
  8
ASSI
100
AcDbPolyline
 62
250
  6
CONTINUOUS
 90
5
 70
0
 10
2.507483835
 20
22.2755123614
 10
2.5180414217
 20
22.2678324364
 10
2.5250538957
 20
22.2622149551
 10
2.5283097637
 20
22.2588293384
 10
2.5284886818
 20
22.2579995213
  0
LWPOLYLINE
  5
2F1
100
AcDbEntity
  8
DRAFT
100
AcDbPolyline
 62
7
  6
CONTINUOUS
 90
19
 70
0
 10
-2.2461347885
 20
26.6602295302
 10
-2.2553775092
 20
26.7260804497
 10
-2.2703749258
 20
26.7927715004
 10
-2.2914670752
 20
26.8611761096
 10
-2.3183139205
 20
26.9304208499
 10
-2.3498953515
 20
26.9978854388
 10
-2.3863957924
 20
27.063539784
 10
-2.4276308189
 20
27.1274139778
 10
-2.4720270475
 20
27.1869780156
 10
-2.5197903917
 20
27.2421116851
 10
-2.5707149379
 20
27.2929351985
 10
-2.6226095624
 20
27.3372791879
 10
-2.6753906092
 20
27.3747939379
 10
-2.7291417342
 20
27.4058291638
 10
-2.781922781
 20
27.4292646436
 10
-2.8338174054
 20
27.4448472658
 10
-2.8847419516
 20
27.4528301419
 10
-2.9325052958
 20
27.452852385
 10
-2.9769015244
 20
27.4445559992
  0
LWPOLYLINE
  5
2F2
100
AcDbEntity
  8
ASSI
100
AcDbPolyline
 62
7
  6
CONTINUOUS
 90
19
 70
0
 10
-2.2461347885
 20
26.6602295302
 10
-2.2553775092
 20
26.7260804497
 10
-2.2703749258
 20
26.7927715004
 10
-2.2914670752
 20
26.8611761096
 10
-2.3183139205
 20
26.9304208499
 10
-2.3498953515
 20
26.9978854388
 10
-2.3863957924
 20
27.063539784
 10
-2.4276308189
 20
27.1274139778
 10
-2.4720270475
 20
27.1869780156
 10
-2.5197903917
 20
27.2421116851
 10
-2.5707149379
 20
27.2929351985
 10
-2.6226095624
 20
27.3372791879
 10
-2.6753906092
 20
27.3747939379
 10
-2.7291417342
 20
27.4058291638
 10
-2.781922781
 20
27.4292646436
 10
-2.8338174054
 20
27.4448472658
 10
-2.8847419516
 20
27.4528301419
 10
-2.9325052958
 20
27.452852385
 10
-2.9769015244
 20
27.4445559992
  0
LWPOLYLINE
  5
2F3
100
AcDbEntity
  8
RACCORDO
100
AcDbPolyline
 62
7
  6
CONTINUOUS
 90
4
 70
0
 10
-0.8991438796
 20
35.7396186496
 10
-0.9008666936
 20
35.7679721395
 10
-0.9053519752
 20
35.7965990304
 10
-0.9125997243
 20
35.8254993222
  0
LINE
  5
2F4
100
AcDbEntity
  8
RACCORDO
100
AcDbLine
 62
7
  6
CONTINUOUS
 10
-1.111275914
 20
36.8826811014
 11
-1.111275914
 21
36.6376515311
  0
LINE
  5
2F5
100
AcDbEntity
  8
ASSI
100
AcDbLine
 62
7
  6
CONTINUOUS
 10
-1.111275914
 20
36.8826811014
 11
-1.111275914
 21
36.6376515311
  0
LINE
  5
2F6
100
AcDbEntity
  8
DRAFT
100
AcDbLine
 62
7
  6
CONTINUOUS
 10
-1.0759205749
 20
20.5736853497
 11
-1.0759205749
 21
20.9410969743
  0
LINE
  5
2F7
100
AcDbEntity
  8
DRAFT
100
AcDbLine
 62
7
  6
CONTINUOUS
 10
-1.0405652359
 20
20.55327162
 11
-1.0405652359
 21
20.8773659484
  0
LINE
  5
2F8
100
AcDbEntity
  8
ASSI
100
AcDbLine
 62
7
  6
CONTINUOUS
 10
-1.0405652359
 20
20.55327162
 11
-1.0405652359
 21
20.8773659484
  0
LINE
  5
2F9
100
AcDbEntity
  8
RACCORDO
100
AcDbLine
 62
7
  6
CONTINUOUS
 10
-0.8991438796
 20
35.7396186496
 11
-0.8991438796
 21
34.1883173515
  0
LINE
  5
2FA
100
AcDbEntity
  8
RACCORDO
100
AcDbLine
 62
7
  6
CONTINUOUS
 10
-0.8637885406
 20
35.8033395122
 11
-0.8637885406
 21
34.3336902937
  0
LINE
  5
2FB
100
AcDbEntity
  8
ASSI
100
AcDbLine
 62
7
  6
CONTINUOUS
 10
-0.8637885406
 20
35.8033395122
 11
-0.8637885406
 21
34.3336902937
  0
LINE
  5
2FC
100
AcDbEntity
  8
0
100
AcDbLine
 62
7
  6
CONTINUOUS
 10
-0.8627477766
 20
11.2312391579
 11
-0.8627477766
 21
20.4506020476
  0
LINE
  5
2FD
100
AcDbEntity
  8
RACCORDO
100
AcDbLine
 62
7
  6
CONTINUOUS
 10
-0.6870118453
 20
20.920655745
 11
-0.6870118453
 21
33.9433690953
  0
LINE
  5
2FE
100
AcDbEntity
  8
RACCORDO
100
AcDbLine
 62
7
  6
CONTINUOUS
 10
-0.6516565062
 20
34.08873854
 11
-0.6516565062
 21
20.816107423
  0
LINE
  5
2FF
100
AcDbEntity
  8
ASSI
100
AcDbLine
 62
7
  6
CONTINUOUS
 10
-0.6516565062
 20
34.08873854
 11
-0.6516565062
 21
20.816107423
  0
LINE
  5
300
100
AcDbEntity
  8
DRAFT
100
AcDbLine
 62
7
  6
CONTINUOUS
 10
-0.4914465354
 20
22.2674169773
 11
-0.4914465354
 21
23.9203096892
  0
LINE
  5
301
100
AcDbEntity
  8
ASSI
100
AcDbLine
 62
7
  6
CONTINUOUS
 10
-0.4914465354
 20
22.2674169773
 11
-0.4914465354
 21
23.9203096892
  0
LINE
  5
302
100
AcDbEntity
  8
RACCORDO
100
AcDbLine
 62
7
  6
CONTINUOUS
 10
-0.4276766758
 20
35.9980982353
 11
-0.4276766758
 21
34.4468037768
  0
LINE
  5
303
100
AcDbEntity
  8
ASSI
100
AcDbLine
 62
7
  6
CONTINUOUS
 10
-0.4276766758
 20
35.9980982353
 11
-0.4276766758
 21
34.4468037768
  0
LINE
  5
304
100
AcDbEntity
  8
RACCORDO
100
AcDbLine
 62
7
  6
CONTINUOUS
 10
-0.6887346602
 20
20.8942917119
 11
-0.6870118453
 21
20.920655745
  0
LWPOLYLINE
  5
305
100
AcDbEntity
  8
RACCORDO
100
AcDbPolyline
 62
7
  6
CONTINUOUS
 90
4
 70
0
 10
-0.6516565062
 20
20.816107423
 10
-0.6530347311
 20
20.7950161636
 10
-0.6566230527
 20
20.776258103
 10
-0.6624214711
 20
20.7598332412
  0
LWPOLYLINE
  5
306
100
AcDbEntity
  8
ASSI
100
AcDbPolyline
 62
7
  6
CONTINUOUS
 90
4
 70
0
 10
-0.6516565062
 20
20.816107423
 10
-0.6530347311
 20
20.7950161636
 10
-0.6566230527
 20
20.776258103
 10
-0.6624214711
 20
20.7598332412
  0
LINE
  5
307
100
AcDbEntity
  8
DRAFT
100
AcDbLine
 62
7
  6
CONTINUOUS
 10
-4.3639671074
 20
22.4721622087
 11
-4.3286117684
 21
22.4929321998
  0
LINE
  5
308
100
AcDbEntity
  8
ASSI
100
AcDbLine
 62
7
  6
CONTINUOUS
 10
-4.3639671074
 20
22.4721622087
 11
-4.3286117684
 21
22.4929321998
  0
LINE
  5
309
100
AcDbEntity
  8
DRAFT
100
AcDbLine
 62
7
  6
CONTINUOUS
 10
-4.3276064076
 20
22.817433942
 11
-4.3639671074
 21
22.796256537
  0
LINE
  5
30A
100
AcDbEntity
  8
ASSI
100
AcDbLine
 62
7
  6
CONTINUOUS
 10
-4.3276064076
 20
22.817433942
 11
-4.3639671074
 21
22.796256537
  0
LINE
  5
30B
100
AcDbEntity
  8
RACCORDO
100
AcDbLine
 62
250
  6
CONTINUOUS
 10
-4.7528758371
 20
23.1841000643
 11
-4.7137920312
 21
23.206666545
  0
LINE
  5
30C
100
AcDbEntity
  8
ASSI
100
AcDbLine
 62
250
  6
CONTINUOUS
 10
-4.7528758371
 20
23.1841000643
 11
-4.7137920312
 21
23.206666545
  0
LINE
  5
30D
100
AcDbEntity
  8
RACCORDO
100
AcDbLine
 62
250
  6
CONTINUOUS
 10
-4.6114558271
 20
22.939153422
 11
-4.5709315381
 21
22.9625516189
  0
LINE
  5
30E
100
AcDbEntity
  8
ASSI
100
AcDbLine
 62
250
  6
CONTINUOUS
 10
-4.6114558271
 20
22.939153422
 11
-4.5709315381
 21
22.9625516189
  0
LINE
  5
30F
100
AcDbEntity
  8
RACCORDO
100
AcDbLine
 62
250
  6
CONTINUOUS
 10
-3.179563249
 20
23.7478060587
 11
-3.1606861301
 21
23.7587055079
  0
LINE
  5
310
100
AcDbEntity
  8
RACCORDO
100
AcDbLine
 62
250
  6
CONTINUOUS
 10
-3.0381634319
 20
23.5028943916
 11
-3.0028115702
 21
23.5233061835
  0
LINE
  5
311
100
AcDbEntity
  8
RACCORDO
100
AcDbLine
 62
7
  6
CONTINUOUS
 10
2.5065622848
 20
23.8011758508
 11
2.3535473138
 21
23.8895247773
  0
LINE
  5
312
100
AcDbEntity
  8
ASSI
100
AcDbLine
 62
7
  6
CONTINUOUS
 10
2.5065622848
 20
23.8011758508
 11
2.3535473138
 21
23.8895247773
  0
LWPOLYLINE
  5
313
100
AcDbEntity
  8
RACCORDO
100
AcDbPolyline
 62
7
  6
CONTINUOUS
 90
10
 70
0
 10
-0.8637885406
 20
34.3336902937
 10
-0.8617865751
 20
34.3102995907
 10
-0.8570499112
 20
34.2871530499
 10
-0.8495785486
 20
34.2642506714
 10
-0.8389872345
 20
34.2409251771
 10
-0.8256612219
 20
34.2178438452
 10
-0.8107562695
 20
34.1970085093
 10
-0.7946576304
 20
34.1790864474
 10
-0.7769800516
 20
34.1634103817
 10
-0.7577235331
 20
34.149980312
  0
LWPOLYLINE
  5
314
100
AcDbEntity
  8
ASSI
100
AcDbPolyline
 62
7
  6
CONTINUOUS
 90
10
 70
0
 10
-0.8637885406
 20
34.3336902937
 10
-0.8617865751
 20
34.3102995907
 10
-0.8570499112
 20
34.2871530499
 10
-0.8495785486
 20
34.2642506714
 10
-0.8389872345
 20
34.2409251771
 10
-0.8256612219
 20
34.2178438452
 10
-0.8107562695
 20
34.1970085093
 10
-0.7946576304
 20
34.1790864474
 10
-0.7769800516
 20
34.1634103817
 10
-0.7577235331
 20
34.149980312
  0
LWPOLYLINE
  5
315
100
AcDbEntity
  8
RACCORDO
100
AcDbPolyline
 62
7
  6
CONTINUOUS
 90
3
 70
0
 10
-0.6870118453
 20
33.9433690953
 10
-0.6890137941
 20
33.9667595947
 10
-0.6937503018
 20
33.9899057328
  0
LWPOLYLINE
  5
316
100
AcDbEntity
  8
RACCORDO
100
AcDbPolyline
 62
7
  6
CONTINUOUS
 90
10
 70
0
 10
-0.4276766758
 20
35.9980982353
 10
-0.4296787137
 20
36.0214894962
 10
-0.4344153525
 20
36.0446363695
 10
-0.4418865922
 20
36.0675388553
 10
-0.4524776679
 20
36.0908641591
 10
-0.4658033445
 20
36.1139450754
 10
-0.4807079166
 20
36.1347799867
 10
-0.496806149
 20
36.1527016875
 10
-0.514483277
 20
36.1683773834
 10
-0.5337393005
 20
36.1818070744
  0
LWPOLYLINE
  5
317
100
AcDbEntity
  8
ASSI
100
AcDbPolyline
 62
7
  6
CONTINUOUS
 90
10
 70
0
 10
-0.4276766758
 20
35.9980982353
 10
-0.4296787137
 20
36.0214894962
 10
-0.4344153525
 20
36.0446363695
 10
-0.4418865922
 20
36.0675388553
 10
-0.4524776679
 20
36.0908641591
 10
-0.4658033445
 20
36.1139450754
 10
-0.4807079166
 20
36.1347799867
 10
-0.496806149
 20
36.1527016875
 10
-0.514483277
 20
36.1683773834
 10
-0.5337393005
 20
36.1818070744
  0
LWPOLYLINE
  5
318
100
AcDbEntity
  8
RACCORDO
100
AcDbPolyline
 62
7
  6
CONTINUOUS
 90
10
 70
0
 10
-0.1920370984
 20
34.1882825599
 10
-0.1940390472
 20
34.2116730593
 10
-0.198775555
 20
34.2348191974
 10
-0.2062466218
 20
34.2577209742
 10
-0.216837421
 20
34.2810455288
 10
-0.2301627791
 20
34.3041257221
 10
-0.2450671759
 20
34.3249601371
 10
-0.2611654377
 20
34.3428816348
 10
-0.278842738
 20
34.3585573541
 10
-0.298099077
 20
34.3719872952
  0
LWPOLYLINE
  5
319
100
AcDbEntity
  8
ASSI
100
AcDbPolyline
 62
7
  6
CONTINUOUS
 90
10
 70
0
 10
-0.1920370984
 20
34.1882825599
 10
-0.1940390472
 20
34.2116730593
 10
-0.198775555
 20
34.2348191974
 10
-0.2062466218
 20
34.2577209742
 10
-0.216837421
 20
34.2810455288
 10
-0.2301627791
 20
34.3041257221
 10
-0.2450671759
 20
34.3249601371
 10
-0.2611654377
 20
34.3428816348
 10
-0.278842738
 20
34.3585573541
 10
-0.298099077
 20
34.3719872952
  0
LWPOLYLINE
  5
31A
100
AcDbEntity
  8
RACCORDO
100
AcDbPolyline
 62
7
  6
CONTINUOUS
 90
10
 70
0
 10
-1.111275914
 20
36.8826811014
 10
-1.1132693427
 20
36.9060231456
 10
-1.1180092448
 20
36.9291419307
 10
-1.1254956203
 20
36.952037457
 10
-1.1361115329
 20
36.9753799247
 10
-1.1494739189
 20
36.9984991335
 10
-1.1644335865
 20
37.0193844818
 10
-1.1806074715
 20
37.0373657694
 10
-1.1983786381
 20
37.0531131965
 10
-1.2177470861
 20
37.0666267633
  0
LWPOLYLINE
  5
31B
100
AcDbEntity
  8
ASSI
100
AcDbPolyline
 62
7
  6
CONTINUOUS
 90
10
 70
0
 10
-1.111275914
 20
36.8826811014
 10
-1.1132693427
 20
36.9060231456
 10
-1.1180092448
 20
36.9291419307
 10
-1.1254956203
 20
36.952037457
 10
-1.1361115329
 20
36.9753799247
 10
-1.1494739189
 20
36.9984991335
 10
-1.1644335865
 20
37.0193844818
 10
-1.1806074715
 20
37.0373657694
 10
-1.1983786381
 20
37.0531131965
 10
-1.2177470861
 20
37.0666267633
  0
LWPOLYLINE
  5
31C
100
AcDbEntity
  8
RACCORDO
100
AcDbPolyline
 62
250
  6
CONTINUOUS
 90
3
 70
0
 10
-0.9651472124
 20
36.9832327853
 10
-0.9668929419
 20
37.0053455884
 10
-0.9720770719
 20
37.0284780033
  0
LWPOLYLINE
  5
31D
100
AcDbEntity
  8
ASSI
100
AcDbPolyline
 62
250
  6
CONTINUOUS
 90
3
 70
0
 10
-0.9651472124
 20
36.9832327853
 10
-0.9668929419
 20
37.0053455884
 10
-0.9720770719
 20
37.0284780033
  0
LWPOLYLINE
  5
31E
100
AcDbEntity
  8
RACCORDO
100
AcDbPolyline
 62
250
  6
CONTINUOUS
 90
10
 70
0
 10
-0.8520413375
 20
36.8131691222
 10
-0.8504428141
 20
36.7909682803
 10
-0.8454048048
 20
36.767751458
 10
-0.8370802391
 20
36.7442234055
 10
-0.8257218106
 20
36.7210983203
 10
-0.811674306
 20
36.699078168
 10
-0.7953641394
 20
36.6788313736
 10
-0.7772864085
 20
36.6609725317
 10
-0.7579898655
 20
36.64604375
 10
-0.7380602599
 20
36.6344981941
  0
LWPOLYLINE
  5
31F
100
AcDbEntity
  8
ASSI
100
AcDbPolyline
 62
250
  6
CONTINUOUS
 90
10
 70
0
 10
-0.8520413375
 20
36.8131691222
 10
-0.8504428141
 20
36.7909682803
 10
-0.8454048048
 20
36.767751458
 10
-0.8370802391
 20
36.7442234055
 10
-0.8257218106
 20
36.7210983203
 10
-0.811674306
 20
36.699078168
 10
-0.7953641394
 20
36.6788313736
 10
-0.7772864085
 20
36.6609725317
 10
-0.7579898655
 20
36.64604375
 10
-0.7380602599
 20
36.6344981941
  0
LINE
  5
320
100
AcDbEntity
  8
RACCORDO
100
AcDbLine
 62
7
  6
CONTINUOUS
 10
-0.1920370984
 20
20.1858079863
 11
-0.1920370984
 21
22.0945417208
  0
LINE
  5
321
100
AcDbEntity
  8
ASSI
100
AcDbLine
 62
7
  6
CONTINUOUS
 10
-0.1920370984
 20
20.1858079863
 11
-0.1920370984
 21
22.0945417208
  0
LINE
  5
322
100
AcDbEntity
  8
RACCORDO
100
AcDbLine
 62
7
  6
CONTINUOUS
 10
-0.1920370984
 20
23.7474344328
 11
-0.1920370984
 21
34.1882825599
  0
LINE
  5
323
100
AcDbEntity
  8
ASSI
100
AcDbLine
 62
7
  6
CONTINUOUS
 10
-0.1920370984
 20
23.7474344328
 11
-0.1920370984
 21
34.1882825599
  0
LINE
  5
324
100
AcDbEntity
  8
DRAFT
100
AcDbLine
 62
7
  6
CONTINUOUS
 10
0.090805614
 20
22.5127923934
 11
0.090805614
 21
23.9078689274
  0
LINE
  5
325
100
AcDbEntity
  8
ASSI
100
AcDbLine
 62
7
  6
CONTINUOUS
 10
0.090805614
 20
22.5127923934
 11
0.090805614
 21
23.9078689274
  0
LINE
  5
326
100
AcDbEntity
  8
DRAFT
100
AcDbLine
 62
7
  6
CONTINUOUS
 10
0.2986180692
 20
22.3928040862
 11
0.2986180692
 21
24.0257446398
  0
LINE
  5
327
100
AcDbEntity
  8
ASSI
100
AcDbLine
 62
7
  6
CONTINUOUS
 10
0.2986180692
 20
22.3928040862
 11
0.2986180692
 21
24.0257446398
  0
LINE
  5
328
100
AcDbEntity
  8
0
100
AcDbLine
 62
7
  6
CONTINUOUS
 10
0.3372522234
 20
11.3541219054
 11
0.3372522234
 21
20.4520744715
  0
LWPOLYLINE
  5
329
100
AcDbEntity
  8
RACCORDO
100
AcDbPolyline
 62
7
  6
CONTINUOUS
 90
6
 70
0
 10
-2.2845000703
 20
23.1558922015
 10
-2.2719845548
 20
23.1651669775
 10
-2.2615930934
 20
23.1771243247
 10
-2.2534117287
 20
23.1914148706
 10
-2.2476133104
 20
23.2078397324
 10
-2.2440249887
 20
23.226597793
  0
LWPOLYLINE
  5
32A
100
AcDbEntity
  8
ASSI
100
AcDbPolyline
 62
7
  6
CONTINUOUS
 90
6
 70
0
 10
-2.2845000703
 20
23.1558922015
 10
-2.2719845548
 20
23.1651669775
 10
-2.2615930934
 20
23.1771243247
 10
-2.2534117287
 20
23.1914148706
 10
-2.2476133104
 20
23.2078397324
 10
-2.2440249887
 20
23.226597793
  0
LINE
  5
32B
100
AcDbEntity
  8
RACCORDO
100
AcDbLine
 62
7
  6
CONTINUOUS
 10
-2.2580309265
 20
23.1111418685
 11
-2.2683040282
 21
23.1044129036
  0
LINE
  5
32C
100
AcDbEntity
  8
RACCORDO
100
AcDbLine
 62
7
  6
CONTINUOUS
 10
-3.5507943091
 20
22.0026464263
 11
-3.51543897
 21
22.0237789864
  0
LINE
  5
32D
100
AcDbEntity
  8
DRAFT
100
AcDbLine
 62
7
  6
CONTINUOUS
 10
-3.4780904568
 20
22.3280797578
 11
-3.51543897
 21
22.306327025
  0
LINE
  5
32E
100
AcDbEntity
  8
ASSI
100
AcDbLine
 62
7
  6
CONTINUOUS
 10
-3.4780904568
 20
22.3280797578
 11
-3.51543897
 21
22.306327025
  0
LINE
  5
32F
100
AcDbEntity
  8
RACCORDO
100
AcDbLine
 62
250
  6
CONTINUOUS
 10
-2.2426467639
 20
23.2476890524
 11
-2.2249690944
 21
23.2577185552
  0
LINE
  5
330
100
AcDbEntity
  8
ASSI
100
AcDbLine
 62
250
  6
CONTINUOUS
 10
-2.2426467639
 20
23.2476890524
 11
-2.2249690944
 21
23.2577185552
  0
LINE
  5
331
100
AcDbEntity
  8
RACCORDO
100
AcDbLine
 62
7
  6
CONTINUOUS
 10
-2.284499963
 20
23.1558920144
 11
-2.2256685956
 21
23.1892702469
  0
LINE
  5
332
100
AcDbEntity
  8
ASSI
100
AcDbLine
 62
7
  6
CONTINUOUS
 10
-2.284499963
 20
23.1558920144
 11
-2.2256685956
 21
23.1892702469
  0
LINE
  5
333
100
AcDbEntity
  8
RACCORDO
100
AcDbLine
 62
250
  6
CONTINUOUS
 10
-2.3663689114
 20
23.115008655
 11
-2.3026524675
 21
23.1492732966
  0
LWPOLYLINE
  5
334
100
AcDbEntity
  8
RACCORDO
100
AcDbPolyline
 62
7
  6
CONTINUOUS
 90
5
 70
0
 10
-2.2683040282
 20
23.1044129036
 10
-2.2757945762
 20
23.1008873638
 10
-2.2956641415
 20
23.0960579248
 10
-2.3171264826
 20
23.0969497693
 10
-2.3406947393
 20
23.1032666793
  0
LINE
  5
335
100
AcDbEntity
  8
RACCORDO
100
AcDbLine
 62
7
  6
CONTINUOUS
 10
-2.2979279487
 20
23.1501904829
 11
-2.2845000703
 21
23.1558922015
  0
LINE
  5
336
100
AcDbEntity
  8
ASSI
100
AcDbLine
 62
7
  6
CONTINUOUS
 10
-2.2979279487
 20
23.1501904829
 11
-2.2845000703
 21
23.1558922015
  0
LWPOLYLINE
  5
337
100
AcDbEntity
  8
0
100
AcDbPolyline
 62
7
  6
CONTINUOUS
 90
7
 70
0
 10
-2.5608448154
 20
27.717898909
 10
-2.4104196769
 20
27.640794775
 10
-2.2647476687
 20
27.583326183
 10
-2.123828791
 20
27.5454931329
 10
-1.9862337566
 20
27.5273112653
 10
-1.8533918526
 20
27.5287649396
 10
-1.7295909399
 20
27.5498072342
  0
LWPOLYLINE
  5
338
100
AcDbEntity
  8
0
100
AcDbPolyline
 62
7
  6
CONTINUOUS
 90
10
 70
0
 10
-2.7022661717
 20
27.6362439903
 10
-2.5658696786
 20
27.5654352854
 10
-2.4330596776
 20
27.5108009773
 10
-2.3038361688
 20
27.4723410662
 10
-2.1771005068
 20
27.4500005425
 10
-2.053951337
 20
27.4438344156
 10
-1.9376845952
 20
27.4540077145
 10
-1.8284861393
 20
27.4809616801
 10
-1.7261701113
 20
27.5242550715
 10
-1.7025830743
 20
27.5369509138
  0
LWPOLYLINE
  5
339
100
AcDbEntity
  8
RACCORDO
100
AcDbPolyline
 62
7
  6
CONTINUOUS
 90
4
 70
0
 10
1.9897313416
 20
34.5172960727
 10
1.9893183283
 20
34.5093859757
 10
1.9851689807
 20
34.490382351
 10
1.9765895766
 20
34.4713942297
  0
LWPOLYLINE
  5
33A
100
AcDbEntity
  8
ASSI
100
AcDbPolyline
 62
7
  6
CONTINUOUS
 90
4
 70
0
 10
1.9897313416
 20
34.5172960727
 10
1.9893183283
 20
34.5093859757
 10
1.9851689807
 20
34.490382351
 10
1.9765895766
 20
34.4713942297
  0
LWPOLYLINE
  5
33B
100
AcDbEntity
  8
RACCORDO
100
AcDbPolyline
 62
7
  6
CONTINUOUS
 90
3
 70
0
 10
-0.7004676954
 20
20.8503135325
 10
-0.6932199435
 20
20.8708443078
 10
-0.6887346602
 20
20.8942917119
  0
LWPOLYLINE
  5
33C
100
AcDbEntity
  8
RACCORDO
100
AcDbPolyline
 62
7
  6
CONTINUOUS
 90
4
 70
0
 10
-0.6624214711
 20
20.7598332412
 10
-0.6706028357
 20
20.7455426952
 10
-0.6809942972
 20
20.733585348
 10
-0.6926372577
 20
20.7248143856
  0
LWPOLYLINE
  5
33D
100
AcDbEntity
  8
ASSI
100
AcDbPolyline
 62
7
  6
CONTINUOUS
 90
4
 70
0
 10
-0.6624214711
 20
20.7598332412
 10
-0.6706028357
 20
20.7455426952
 10
-0.6809942972
 20
20.733585348
 10
-0.6926372577
 20
20.7248143856
  0
LINE
  5
33E
100
AcDbEntity
  8
RACCORDO
100
AcDbLine
 62
7
  6
CONTINUOUS
 10
2.507483835
 20
25.3328541721
 11
1.8233475585
 21
24.9169773659
  0
LINE
  5
33F
100
AcDbEntity
  8
ASSI
100
AcDbLine
 62
7
  6
CONTINUOUS
 10
2.507483835
 20
25.3328541721
 11
1.8233475585
 21
24.9169773659
  0
LINE
  5
340
100
AcDbEntity
  8
DRAFT
100
AcDbLine
 62
7
  6
CONTINUOUS
 10
-0.1920370984
 20
23.7474344328
 11
0.2986180692
 21
24.0257446398
  0
LINE
  5
341
100
AcDbEntity
  8
ASSI
100
AcDbLine
 62
7
  6
CONTINUOUS
 10
-0.1920370984
 20
23.7474344328
 11
0.2986180692
 21
24.0257446398
  0
LWPOLYLINE
  5
342
100
AcDbEntity
  8
DRAFT
100
AcDbPolyline
 62
7
  6
CONTINUOUS
 90
5
 70
0
 10
-2.9542441263
 20
27.4945563311
 10
-2.9826572307
 20
27.4889264212
 10
-3.0093313063
 20
27.4801488899
 10
-3.0340577047
 20
27.4687618445
 10
-3.0439678499
 20
27.4630894388
  0
LWPOLYLINE
  5
343
100
AcDbEntity
  8
RACCORDO
100
AcDbPolyline
 62
250
  6
CONTINUOUS
 90
5
 70
0
 10
2.0700582706
 20
21.507837668
 10
2.0698315942
 20
21.5087448544
 10
2.0664760328
 20
21.512181959
 10
2.0594611005
 20
21.5177839492
 10
2.0490534238
 20
21.5253505081
  0
LWPOLYLINE
  5
344
100
AcDbEntity
  8
ASSI
100
AcDbPolyline
 62
250
  6
CONTINUOUS
 90
5
 70
0
 10
2.0700582706
 20
21.507837668
 10
2.0698315942
 20
21.5087448544
 10
2.0664760328
 20
21.512181959
 10
2.0594611005
 20
21.5177839492
 10
2.0490534238
 20
21.5253505081
  0
LWPOLYLINE
  5
345
100
AcDbEntity
  8
RACCORDO
100
AcDbPolyline
 62
7
  6
CONTINUOUS
 90
6
 70
0
 10
2.5502437764
 20
23.7405632933
 10
2.5496502256
 20
23.7484583597
 10
2.5452702885
 20
23.7628797992
 10
2.5366307834
 20
23.7762581472
 10
2.5237281156
 20
23.7890234977
 10
2.5065622848
 20
23.8011758508
  0
LWPOLYLINE
  5
346
100
AcDbEntity
  8
ASSI
100
AcDbPolyline
 62
7
  6
CONTINUOUS
 90
6
 70
0
 10
2.5502437764
 20
23.7405632933
 10
2.5496502256
 20
23.7484583597
 10
2.5452702885
 20
23.7628797992
 10
2.5366307834
 20
23.7762581472
 10
2.5237281156
 20
23.7890234977
 10
2.5065622848
 20
23.8011758508
  0
LWPOLYLINE
  5
347
100
AcDbEntity
  8
RACCORDO
100
AcDbPolyline
 62
250
  6
CONTINUOUS
 90
3
 70
0
 10
1.946735072
 20
35.4231849072
 10
1.9452691547
 20
35.445465591
 10
1.9405973296
 20
35.4689136516
  0
LWPOLYLINE
  5
348
100
AcDbEntity
  8
ASSI
100
AcDbPolyline
 62
250
  6
CONTINUOUS
 90
3
 70
0
 10
1.946735072
 20
35.4231849072
 10
1.9452691547
 20
35.445465591
 10
1.9405973296
 20
35.4689136516
  0
LINE
  5
349
100
AcDbEntity
  8
RACCORDO
100
AcDbLine
 62
7
  6
CONTINUOUS
 10
1.8232172279
 20
37.2614715612
 11
1.8232172279
 21
35.6666415862
  0
LINE
  5
34A
100
AcDbEntity
  8
ASSI
100
AcDbLine
 62
7
  6
CONTINUOUS
 10
1.8232172279
 20
37.2614715612
 11
1.8232172279
 21
35.6666415862
  0
LINE
  5
34B
100
AcDbEntity
  8
DRAFT
100
AcDbLine
 62
7
  6
CONTINUOUS
 10
1.8233475585
 20
24.9169773659
 11
1.8233475585
 21
23.2932924341
  0
LINE
  5
34C
100
AcDbEntity
  8
ASSI
100
AcDbLine
 62
7
  6
CONTINUOUS
 10
1.8233475585
 20
24.9169773659
 11
1.8233475585
 21
23.2932924341
  0
LINE
  5
34D
100
AcDbEntity
  8
RACCORDO
100
AcDbLine
 62
250
  6
CONTINUOUS
 10
1.946735072
 20
34.4364008451
 11
1.946735072
 21
35.4231849072
  0
LINE
  5
34E
100
AcDbEntity
  8
ASSI
100
AcDbLine
 62
250
  6
CONTINUOUS
 10
1.946735072
 20
34.4364008451
 11
1.946735072
 21
35.4231849072
  0
LINE
  5
34F
100
AcDbEntity
  8
RACCORDO
100
AcDbLine
 62
7
  6
CONTINUOUS
 10
1.9897475046
 20
34.5172615507
 11
1.9897475046
 21
35.4838893409
  0
LINE
  5
350
100
AcDbEntity
  8
ASSI
100
AcDbLine
 62
7
  6
CONTINUOUS
 10
1.9897475046
 20
34.5172615507
 11
1.9897475046
 21
35.4838893409
  0
LINE
  5
351
100
AcDbEntity
  8
RACCORDO
100
AcDbLine
 62
250
  6
CONTINUOUS
 10
2.2797431093
 20
34.0275454704
 11
2.2797431093
 21
36.9980882309
  0
LINE
  5
352
100
AcDbEntity
  8
ASSI
100
AcDbLine
 62
250
  6
CONTINUOUS
 10
2.2797431093
 20
34.0275454704
 11
2.2797431093
 21
36.9980882309
  0
LINE
  5
353
100
AcDbEntity
  8
RACCORDO
100
AcDbLine
 62
7
  6
CONTINUOUS
 10
2.3227555419
 20
33.9520095351
 11
2.3227555419
 21
37.0589200607
  0
LINE
  5
354
100
AcDbEntity
  8
ASSI
100
AcDbLine
 62
7
  6
CONTINUOUS
 10
2.3227555419
 20
33.9520095351
 11
2.3227555419
 21
37.0589200607
  0
LINE
  5
355
100
AcDbEntity
  8
DRAFT
100
AcDbLine
 62
7
  6
CONTINUOUS
 10
2.3535473138
 20
25.2392783291
 11
2.3535473138
 21
23.8895247773
  0
LINE
  5
356
100
AcDbEntity
  8
ASSI
100
AcDbLine
 62
7
  6
CONTINUOUS
 10
2.3535473138
 20
25.2392783291
 11
2.3535473138
 21
23.8895247773
  0
LINE
  5
357
100
AcDbEntity
  8
RACCORDO
100
AcDbLine
 62
250
  6
CONTINUOUS
 10
2.507483835
 20
33.4516464454
 11
2.507483835
 21
25.3328541721
  0
LINE
  5
358
100
AcDbEntity
  8
ASSI
100
AcDbLine
 62
250
  6
CONTINUOUS
 10
2.507483835
 20
33.4516464454
 11
2.507483835
 21
25.3328541721
  0
LINE
  5
359
100
AcDbEntity
  8
RACCORDO
100
AcDbLine
 62
250
  6
CONTINUOUS
 10
2.507483835
 20
23.6813493043
 11
2.507483835
 21
22.2755123614
  0
LINE
  5
35A
100
AcDbEntity
  8
ASSI
100
AcDbLine
 62
250
  6
CONTINUOUS
 10
2.507483835
 20
23.6813493043
 11
2.507483835
 21
22.2755123614
  0
LINE
  5
35B
100
AcDbEntity
  8
RACCORDO
100
AcDbLine
 62
7
  6
CONTINUOUS
 10
2.5504962677
 20
33.5123508792
 11
2.5504962677
 21
25.3950515551
  0
LINE
  5
35C
100
AcDbEntity
  8
ASSI
100
AcDbLine
 62
7
  6
CONTINUOUS
 10
2.5504962677
 20
33.5123508792
 11
2.5504962677
 21
25.3950515551
  0
LINE
  5
35D
100
AcDbEntity
  8
RACCORDO
100
AcDbLine
 62
7
  6
CONTINUOUS
 10
2.5504962677
 20
23.7405607888
 11
2.5504962677
 21
22.3362167951
  0
LINE
  5
35E
100
AcDbEntity
  8
ASSI
100
AcDbLine
 62
7
  6
CONTINUOUS
 10
2.5504962677
 20
23.7405607888
 11
2.5504962677
 21
22.3362167951
  0
LWPOLYLINE
  5
35F
100
AcDbEntity
  8
RACCORDO
100
AcDbPolyline
 62
250
  6
CONTINUOUS
 90
6
 70
0
 10
2.5504962677
 20
33.5123508792
 10
2.550388102
 20
33.5090624048
 10
2.5468620856
 20
33.4934019466
 10
2.5384380833
 20
33.4783288133
 10
2.5252148935
 20
33.4642324165
 10
2.507483835
 20
33.4516464454
  0
LWPOLYLINE
  5
360
100
AcDbEntity
  8
ASSI
100
AcDbPolyline
 62
250
  6
CONTINUOUS
 90
6
 70
0
 10
2.5504962677
 20
33.5123508792
 10
2.550388102
 20
33.5090624048
 10
2.5468620856
 20
33.4934019466
 10
2.5384380833
 20
33.4783288133
 10
2.5252148935
 20
33.4642324165
 10
2.507483835
 20
33.4516464454
  0
LWPOLYLINE
  5
361
100
AcDbEntity
  8
RACCORDO
100
AcDbPolyline
 62
7
  6
CONTINUOUS
 90
6
 70
0
 10
2.5502437764
 20
25.3950489693
 10
2.5497669999
 20
25.3876461795
 10
2.5456098265
 20
25.3726936883
 10
2.5371751104
 20
25.3588001734
 10
2.5244664466
 20
25.3455203347
 10
2.507483835
 20
25.3328541721
  0
LWPOLYLINE
  5
362
100
AcDbEntity
  8
ASSI
100
AcDbPolyline
 62
7
  6
CONTINUOUS
 90
6
 70
0
 10
2.5502437764
 20
25.3950489693
 10
2.5497669999
 20
25.3876461795
 10
2.5456098265
 20
25.3726936883
 10
2.5371751104
 20
25.3588001734
 10
2.5244664466
 20
25.3455203347
 10
2.507483835
 20
25.3328541721
  0
LWPOLYLINE
  5
363
100
AcDbEntity
  8
RACCORDO
100
AcDbPolyline
 62
250
  6
CONTINUOUS
 90
5
 70
0
 10
2.0490534238
 20
21.5253505081
 10
2.0475875039
 20
21.5051012994
 10
2.0429156721
 20
21.4873115883
 10
2.0351798661
 20
21.4725218538
 10
2.0246151117
 20
21.4611814312
  0
LWPOLYLINE
  5
364
100
AcDbEntity
  8
ASSI
100
AcDbPolyline
 62
250
  6
CONTINUOUS
 90
5
 70
0
 10
2.0490534238
 20
21.5253505081
 10
2.0475875039
 20
21.5051012994
 10
2.0429156721
 20
21.4873115883
 10
2.0351798661
 20
21.4725218538
 10
2.0246151117
 20
21.4611814312
  0
LWPOLYLINE
  5
365
100
AcDbEntity
  8
RACCORDO
100
AcDbPolyline
 62
250
  6
CONTINUOUS
 90
5
 70
0
 10
2.5504962677
 20
22.3362167951
 10
2.5499208744
 20
22.3286381165
 10
2.5454004571
 20
22.3138339927
 10
2.5365875044
 20
22.2997947869
 10
2.5238038129
 20
22.2869008431
  0
LWPOLYLINE
  5
366
100
AcDbEntity
  8
ASSI
100
AcDbPolyline
 62
250
  6
CONTINUOUS
 90
5
 70
0
 10
2.5504962677
 20
22.3362167951
 10
2.5499208744
 20
22.3286381165
 10
2.5454004571
 20
22.3138339927
 10
2.5365875044
 20
22.2997947869
 10
2.5238038129
 20
22.2869008431
  0
LINE
  5
367
100
AcDbEntity
  8
DRAFT
100
AcDbLine
 62
7
  6
CONTINUOUS
 10
1.8233475585
 20
23.2932924341
 11
2.3535473138
 21
23.8895247773
  0
LINE
  5
368
100
AcDbEntity
  8
ASSI
100
AcDbLine
 62
7
  6
CONTINUOUS
 10
1.8233475585
 20
23.2932924341
 11
2.3535473138
 21
23.8895247773
  0
LWPOLYLINE
  5
369
100
AcDbEntity
  8
RACCORDO
100
AcDbPolyline
 62
7
  6
CONTINUOUS
 90
6
 70
0
 10
2.507483835
 20
23.6813493043
 10
2.5244664466
 20
23.6932445083
 10
2.5371751104
 20
23.7058169969
 10
2.5456098265
 20
23.7190667704
 10
2.5497669999
 20
23.7334239226
 10
2.5502437764
 20
23.7405632933
  0
LWPOLYLINE
  5
36A
100
AcDbEntity
  8
ASSI
100
AcDbPolyline
 62
7
  6
CONTINUOUS
 90
6
 70
0
 10
2.507483835
 20
23.6813493043
 10
2.5244664466
 20
23.6932445083
 10
2.5371751104
 20
23.7058169969
 10
2.5456098265
 20
23.7190667704
 10
2.5497669999
 20
23.7334239226
 10
2.5502437764
 20
23.7405632933
  0
LINE
  5
36B
100
AcDbEntity
  8
DRAFT
100
AcDbLine
 62
7
  6
CONTINUOUS
 10
-0.1920370984
 20
22.0945417208
 11
0.2986180692
 21
22.3928040862
  0
LINE
  5
36C
100
AcDbEntity
  8
ASSI
100
AcDbLine
 62
7
  6
CONTINUOUS
 10
-0.1920370984
 20
22.0945417208
 11
0.2986180692
 21
22.3928040862
  0
LINE
  5
36D
100
AcDbEntity
  8
DRAFT
100
AcDbLine
 62
7
  6
CONTINUOUS
 10
-1.8890933733
 20
21.043201132
 11
-1.8537380342
 21
21.0639711231
  0
LINE
  5
36E
100
AcDbEntity
  8
ASSI
100
AcDbLine
 62
7
  6
CONTINUOUS
 10
-1.8890933733
 20
21.043201132
 11
-1.8537380342
 21
21.0639711231
  0
LINE
  5
36F
100
AcDbEntity
  8
DRAFT
100
AcDbLine
 62
7
  6
CONTINUOUS
 10
-1.8527326734
 20
21.3884728653
 11
-1.8890933733
 21
21.3672954604
  0
LINE
  5
370
100
AcDbEntity
  8
ASSI
100
AcDbLine
 62
7
  6
CONTINUOUS
 10
-1.8527326734
 20
21.3884728653
 11
-1.8890933733
 21
21.3672954604
  0
LINE
  5
371
100
AcDbEntity
  8
RACCORDO
100
AcDbLine
 62
7
  6
CONTINUOUS
 10
2.507483835
 20
23.6813493043
 11
1.8233475585
 21
23.2932924341
  0
LINE
  5
372
100
AcDbEntity
  8
ASSI
100
AcDbLine
 62
7
  6
CONTINUOUS
 10
2.507483835
 20
23.6813493043
 11
1.8233475585
 21
23.2932924341
  0
LINE
  5
373
100
AcDbEntity
  8
DRAFT
100
AcDbLine
 62
7
  6
CONTINUOUS
 10
0.090805614
 20
22.5127923934
 11
-0.4914465354
 21
22.2674169773
  0
LINE
  5
374
100
AcDbEntity
  8
ASSI
100
AcDbLine
 62
7
  6
CONTINUOUS
 10
0.090805614
 20
22.5127923934
 11
-0.4914465354
 21
22.2674169773
  0
LWPOLYLINE
  5
375
100
AcDbEntity
  8
0
100
AcDbPolyline
 62
7
  6
CONTINUOUS
 90
10
 70
0
 10
-2.7022661717
 20
30.9021250975
 10
-2.8386626647
 20
30.9729338024
 10
-2.9714726657
 20
31.0275681104
 10
-3.1006961745
 20
31.0660280215
 10
-3.2274318365
 20
31.0883685453
 10
-3.3505810063
 20
31.0945346721
 10
-3.4668477481
 20
31.0843613733
 10
-3.5760462041
 20
31.0574074076
 10
-3.678362232
 20
31.0141140163
 10
-3.701949269
 20
31.001418174
  0
LWPOLYLINE
  5
376
100
AcDbEntity
  8
RACCORDO
100
AcDbPolyline
 62
7
  6
CONTINUOUS
 90
3
 70
0
 10
-0.9125997243
 20
35.8254993222
 10
-0.9228259736
 20
35.855171006
 10
-0.9358146904
 20
35.8851160908
  0
LWPOLYLINE
  5
377
100
AcDbEntity
  8
RACCORDO
100
AcDbPolyline
 62
250
  6
CONTINUOUS
 90
3
 70
0
 10
-0.9408993076
 20
37.0888028499
 10
-0.9475375932
 20
37.1082908431
 10
-0.9551549233
 20
37.1219711606
  0
LWPOLYLINE
  5
378
100
AcDbEntity
  8
ASSI
100
AcDbPolyline
 62
250
  6
CONTINUOUS
 90
3
 70
0
 10
-0.9408993076
 20
37.0888028499
 10
-0.9475375932
 20
37.1082908431
 10
-0.9551549233
 20
37.1219711606
  0
LWPOLYLINE
  5
379
100
AcDbEntity
  8
RACCORDO
100
AcDbPolyline
 62
7
  6
CONTINUOUS
 90
4
 70
0
 10
-0.6937503018
 20
33.9899057328
 10
-0.7012213686
 20
34.0128075096
 10
-0.7118121678
 20
34.0361320642
 10
-0.725137526
 20
34.0592122575
  0
LINE
  5
37A
100
AcDbEntity
  8
RACCORDO
100
AcDbLine
 62
250
  6
CONTINUOUS
 10
2.0490534238
 20
21.5253505081
 11
2.507483835
 21
22.2755123614
  0
LINE
  5
37B
100
AcDbEntity
  8
ASSI
100
AcDbLine
 62
250
  6
CONTINUOUS
 10
2.0490534238
 20
21.5253505081
 11
2.507483835
 21
22.2755123614
  0
LINE
  5
37C
100
AcDbEntity
  8
RACCORDO
100
AcDbLine
 62
7
  6
CONTINUOUS
 10
2.0700582706
 20
21.507837668
 11
2.5284886818
 21
22.2579995213
  0
LINE
  5
37D
100
AcDbEntity
  8
ASSI
100
AcDbLine
 62
7
  6
CONTINUOUS
 10
2.0700582706
 20
21.507837668
 11
2.5284886818
 21
22.2579995213
  0
LWPOLYLINE
  5
37E
100
AcDbEntity
  8
RACCORDO
100
AcDbPolyline
 62
7
  6
CONTINUOUS
 90
4
 70
0
 10
-0.7376943931
 20
20.8068633686
 10
-0.7236826714
 20
20.8175048244
 10
-0.7106939492
 20
20.832450864
 10
-0.7004676954
 20
20.8503135325
  0
LINE
  5
37F
100
AcDbEntity
  8
RACCORDO
100
AcDbLine
 62
250
  6
CONTINUOUS
 10
2.5238038129
 20
22.2869008431
 11
2.507483835
 21
22.2755123614
  0
LINE
  5
380
100
AcDbEntity
  8
ASSI
100
AcDbLine
 62
250
  6
CONTINUOUS
 10
2.5238038129
 20
22.2869008431
 11
2.507483835
 21
22.2755123614
  0
LINE
  5
381
100
AcDbEntity
  8
RACCORDO
100
AcDbLine
 62
250
  6
CONTINUOUS
 10
-0.6870118453
 20
20.920655745
 11
-0.6516565062
 21
20.941788305
  0
LINE
  5
382
100
AcDbEntity
  8
RACCORDO
100
AcDbLine
 62
7
  6
CONTINUOUS
 10
-0.737693844
 20
20.8068624298
 11
-0.6516565062
 21
20.8582885865
  0
LINE
  5
383
100
AcDbEntity
  8
RACCORDO
100
AcDbLine
 62
7
  6
CONTINUOUS
 10
-1.0759205749
 20
20.5736853497
 11
-1.0405652359
 21
20.5948179098
  0
LINE
  5
384
100
AcDbEntity
  8
RACCORDO
100
AcDbLine
 62
250
  6
CONTINUOUS
 10
-0.7930765162
 20
20.7344690634
 11
-0.6522885353
 21
20.8171832015
  0
LINE
  5
385
100
AcDbEntity
  8
ASSI
100
AcDbLine
 62
250
  6
CONTINUOUS
 10
-0.7930765162
 20
20.7344690634
 11
-0.6522885353
 21
20.8171832015
  0
LINE
  5
386
100
AcDbEntity
  8
DRAFT
100
AcDbLine
 62
7
  6
CONTINUOUS
 10
-1.0032167226
 20
20.8991186811
 11
-1.0405652359
 21
20.8773659484
  0
LINE
  5
387
100
AcDbEntity
  8
ASSI
100
AcDbLine
 62
7
  6
CONTINUOUS
 10
-1.0032167226
 20
20.8991186811
 11
-1.0405652359
 21
20.8773659484
  0
LWPOLYLINE
  5
388
100
AcDbEntity
  8
RACCORDO
100
AcDbPolyline
 62
7
  6
CONTINUOUS
 90
7
 70
0
 10
-0.6926372577
 20
20.7248143856
 10
-0.7069376911
 20
20.7186088534
 10
-0.7224896235
 20
20.715589706
 10
-0.7389570751
 20
20.7156510854
 10
-0.7560813696
 20
20.7188432179
 10
-0.7741211833
 20
20.7251158773
 10
-0.7930765162
 20
20.7344690634
  0
LWPOLYLINE
  5
389
100
AcDbEntity
  8
ASSI
100
AcDbPolyline
 62
7
  6
CONTINUOUS
 90
7
 70
0
 10
-0.6926372577
 20
20.7248143856
 10
-0.7069376911
 20
20.7186088534
 10
-0.7224896235
 20
20.715589706
 10
-0.7389570751
 20
20.7156510854
 10
-0.7560813696
 20
20.7188432179
 10
-0.7741211833
 20
20.7251158773
 10
-0.7930765162
 20
20.7344690634
  0
LWPOLYLINE
  5
38A
100
AcDbEntity
  8
RACCORDO
100
AcDbPolyline
 62
250
  6
CONTINUOUS
 90
3
 70
0
 10
-0.9720770719
 20
37.0284780033
 10
-0.9805420615
 20
37.0519271461
 10
-0.9920306955
 20
37.0749805387
  0
LWPOLYLINE
  5
38B
100
AcDbEntity
  8
ASSI
100
AcDbPolyline
 62
250
  6
CONTINUOUS
 90
3
 70
0
 10
-0.9720770719
 20
37.0284780033
 10
-0.9805420615
 20
37.0519271461
 10
-0.9920306955
 20
37.0749805387
  0
LWPOLYLINE
  5
38C
100
AcDbEntity
  8
RACCORDO
100
AcDbPolyline
 62
250
  6
CONTINUOUS
 90
5
 70
0
 10
1.8225311105
 20
37.3726898229
 10
1.8186356842
 20
37.3961983854
 10
1.81093722
 20
37.417884609
 10
1.7996685333
 20
37.4370926633
 10
1.7851704094
 20
37.4532416624
  0
LWPOLYLINE
  5
38D
100
AcDbEntity
  8
ASSI
100
AcDbPolyline
 62
250
  6
CONTINUOUS
 90
5
 70
0
 10
1.8225311105
 20
37.3726898229
 10
1.8186356842
 20
37.3961983854
 10
1.81093722
 20
37.417884609
 10
1.7996685333
 20
37.4370926633
 10
1.7851704094
 20
37.4532416624
  0
LINE
  5
38E
100
AcDbEntity
  8
RACCORDO
100
AcDbLine
 62
250
  6
CONTINUOUS
 10
2.0246151117
 20
21.4611814312
 11
2.0190241709
 21
21.4573016202
  0
LINE
  5
38F
100
AcDbEntity
  8
ASSI
100
AcDbLine
 62
250
  6
CONTINUOUS
 10
2.0246151117
 20
21.4611814312
 11
2.0190241709
 21
21.4573016202
  0
LWPOLYLINE
  5
390
100
AcDbEntity
  8
RACCORDO
100
AcDbPolyline
 62
7
  6
CONTINUOUS
 90
6
 70
0
 10
-0.222576083
 20
20.1177544357
 10
-0.216837421
 20
20.1216838081
 10
-0.2062466218
 20
20.1327783733
 10
-0.198775555
 20
20.1470527495
 10
-0.1940390472
 20
20.1647292872
 10
-0.1920370984
 20
20.1858079863
  0
LWPOLYLINE
  5
391
100
AcDbEntity
  8
ASSI
100
AcDbPolyline
 62
7
  6
CONTINUOUS
 90
6
 70
0
 10
-0.222576083
 20
20.1177544357
 10
-0.216837421
 20
20.1216838081
 10
-0.2062466218
 20
20.1327783733
 10
-0.198775555
 20
20.1470527495
 10
-0.1940390472
 20
20.1647292872
 10
-0.1920370984
 20
20.1858079863
  0
LINE
  5
392
100
AcDbEntity
  8
RACCORDO
100
AcDbLine
 62
250
  6
CONTINUOUS
 10
-0.1920370984
 20
20.1858079863
 11
2.0490534238
 21
21.5253505081
  0
LINE
  5
393
100
AcDbEntity
  8
ASSI
100
AcDbLine
 62
250
  6
CONTINUOUS
 10
-0.1920370984
 20
20.1858079863
 11
2.0490534238
 21
21.5253505081
  0
LINE
  5
394
100
AcDbEntity
  8
RACCORDO
100
AcDbLine
 62
7
  6
CONTINUOUS
 10
-0.2224462977
 20
20.1175319972
 11
2.0190241709
 21
21.4573016202
  0
LINE
  5
395
100
AcDbEntity
  8
ASSI
100
AcDbLine
 62
7
  6
CONTINUOUS
 10
-0.2224462977
 20
20.1175319972
 11
2.0190241709
 21
21.4573016202
  0
LINE
  5
396
100
AcDbEntity
  8
DRAFT
100
AcDbLine
 62
7
  6
CONTINUOUS
 10
-5.2124952449
 20
34.790934655
 11
-4.9130858079
 21
34.6180593985
  0
LINE
  5
397
100
AcDbEntity
  8
ASSI
100
AcDbLine
 62
7
  6
CONTINUOUS
 10
-5.2124952449
 20
34.790934655
 11
-4.9130858079
 21
34.6180593985
  0
LINE
  5
398
100
AcDbEntity
  8
RACCORDO
100
AcDbLine
 62
7
  6
CONTINUOUS
 10
-0.725137526
 20
34.0592122575
 11
-0.7400419227
 21
34.0800466725
  0
LWPOLYLINE
  5
399
100
AcDbEntity
  8
RACCORDO
100
AcDbPolyline
 62
250
  6
CONTINUOUS
 90
6
 70
0
 10
-0.790559788
 20
36.8744893062
 10
-0.7873844806
 20
36.8685675274
 10
-0.7855098362
 20
36.8607294496
 10
-0.7862954712
 20
36.8528228659
 10
-0.7899093965
 20
36.8451502105
 10
-0.796422486
 20
36.8378281332
  0
LWPOLYLINE
  5
39A
100
AcDbEntity
  8
ASSI
100
AcDbPolyline
 62
250
  6
CONTINUOUS
 90
6
 70
0
 10
-0.790559788
 20
36.8744893062
 10
-0.7873844806
 20
36.8685675274
 10
-0.7855098362
 20
36.8607294496
 10
-0.7862954712
 20
36.8528228659
 10
-0.7899093965
 20
36.8451502105
 10
-0.796422486
 20
36.8378281332
  0
LWPOLYLINE
  5
39B
100
AcDbEntity
  8
RACCORDO
100
AcDbPolyline
 62
7
  6
CONTINUOUS
 90
4
 70
0
 10
-0.9358146904
 20
35.8851160908
 10
-0.9509177775
 20
35.913840603
 10
-0.9682424631
 20
35.9412826441
 10
-0.9876815188
 20
35.9675041127
  0
LINE
  5
39C
100
AcDbEntity
  8
RACCORDO
100
AcDbLine
 62
250
  6
CONTINUOUS
 10
2.5415218201
 20
33.5567188978
 11
2.5358056192
 21
33.5764425874
  0
LINE
  5
39D
100
AcDbEntity
  8
ASSI
100
AcDbLine
 62
250
  6
CONTINUOUS
 10
2.5415218201
 20
33.5567188978
 11
2.5358056192
 21
33.5764425874
  0
LWPOLYLINE
  5
39E
100
AcDbEntity
  8
RACCORDO
100
AcDbPolyline
 62
7
  6
CONTINUOUS
 90
3
 70
0
 10
-0.7400419227
 20
34.0800466725
 10
-0.7561401845
 20
34.0979681702
 10
-0.7738174849
 20
34.1136438895
  0
LWPOLYLINE
  5
39F
100
AcDbEntity
  8
RACCORDO
100
AcDbPolyline
 62
7
  6
CONTINUOUS
 90
4
 70
0
 10
-0.9876815188
 20
35.9675041127
 10
-1.008265163
 20
35.9911967312
 10
-1.0296701349
 20
36.011924407
 10
-1.0522196952
 20
36.0301232328
  0
LINE
  5
3A0
100
AcDbEntity
  8
RACCORDO
100
AcDbLine
 62
250
  6
CONTINUOUS
 10
-0.8520413375
 20
36.8131691222
 11
-0.9651472124
 21
36.9832327853
  0
LINE
  5
3A1
100
AcDbEntity
  8
ASSI
100
AcDbLine
 62
250
  6
CONTINUOUS
 10
-0.8520413375
 20
36.8131691222
 11
-0.9651472124
 21
36.9832327853
  0
LINE
  5
3A2
100
AcDbEntity
  8
RACCORDO
100
AcDbLine
 62
7
  6
CONTINUOUS
 10
-0.7905385994
 20
36.8744574477
 11
-0.9551549233
 21
37.1219711606
  0
LINE
  5
3A3
100
AcDbEntity
  8
ASSI
100
AcDbLine
 62
7
  6
CONTINUOUS
 10
-0.7905385994
 20
36.8744574477
 11
-0.9551549233
 21
37.1219711606
  0
LWPOLYLINE
  5
3A4
100
AcDbEntity
  8
RACCORDO
100
AcDbPolyline
 62
250
  6
CONTINUOUS
 90
4
 70
0
 10
-0.9920306955
 20
37.0749805387
 10
-1.0061938693
 20
37.0969376891
 10
-1.022601173
 20
37.1171313886
 10
-1.040754032
 20
37.134948078
  0
LWPOLYLINE
  5
3A5
100
AcDbEntity
  8
ASSI
100
AcDbPolyline
 62
250
  6
CONTINUOUS
 90
4
 70
0
 10
-0.9920306955
 20
37.0749805387
 10
-1.0061938693
 20
37.0969376891
 10
-1.022601173
 20
37.1171313886
 10
-1.040754032
 20
37.134948078
  0
LINE
  5
3A6
100
AcDbEntity
  8
RACCORDO
100
AcDbLine
 62
250
  6
CONTINUOUS
 10
2.5358056192
 20
33.5764425874
 11
2.5308680379
 21
33.5865344357
  0
LINE
  5
3A7
100
AcDbEntity
  8
ASSI
100
AcDbLine
 62
250
  6
CONTINUOUS
 10
2.5358056192
 20
33.5764425874
 11
2.5308680379
 21
33.5865344357
  0
LWPOLYLINE
  5
3A8
100
AcDbEntity
  8
RACCORDO
100
AcDbPolyline
 62
7
  6
CONTINUOUS
 90
7
 70
0
 10
1.8345113473
 20
37.4043231115
 10
1.8422341628
 20
37.3826566717
 10
1.8461587642
 20
37.3591710834
 10
1.8461671435
 20
37.3345748548
 10
1.8422590465
 20
37.3096102612
 10
1.8345519874
 20
37.2850309399
 10
1.8232783577
 20
37.2615787682
  0
LWPOLYLINE
  5
3A9
100
AcDbEntity
  8
ASSI
100
AcDbPolyline
 62
7
  6
CONTINUOUS
 90
7
 70
0
 10
1.8345113473
 20
37.4043231115
 10
1.8422341628
 20
37.3826566717
 10
1.8461587642
 20
37.3591710834
 10
1.8461671435
 20
37.3345748548
 10
1.8422590465
 20
37.3096102612
 10
1.8345519874
 20
37.2850309399
 10
1.8232783577
 20
37.2615787682
  0
LWPOLYLINE
  5
3AA
100
AcDbEntity
  8
RACCORDO
100
AcDbPolyline
 62
250
  6
CONTINUOUS
 90
3
 70
0
 10
1.9405973296
 20
35.4689136516
 10
1.9328615316
 20
35.492816702
 10
1.9222967839
 20
35.5164485315
  0
LWPOLYLINE
  5
3AB
100
AcDbEntity
  8
ASSI
100
AcDbPolyline
 62
250
  6
CONTINUOUS
 90
3
 70
0
 10
1.9405973296
 20
35.4689136516
 10
1.9328615316
 20
35.492816702
 10
1.9222967839
 20
35.5164485315
  0
LINE
  5
3AC
100
AcDbEntity
  8
RACCORDO
100
AcDbLine
 62
7
  6
CONTINUOUS
 10
-4.6114585195
 20
36.3317612983
 11
-4.5053884637
 21
36.2705177775
  0
LINE
  5
3AD
100
AcDbEntity
  8
RACCORDO
100
AcDbLine
 62
7
  6
CONTINUOUS
 10
-0.7930738238
 20
34.1270738306
 11
-0.8991438796
 21
34.1883173515
  0
LINE
  5
3AE
100
AcDbEntity
  8
RACCORDO
100
AcDbLine
 62
7
  6
CONTINUOUS
 10
-4.7528758371
 20
36.4567311813
 11
-4.6468088102
 21
36.3954894094
  0
LINE
  5
3AF
100
AcDbEntity
  8
ASSI
100
AcDbLine
 62
7
  6
CONTINUOUS
 10
-4.7528758371
 20
36.4567311813
 11
-4.6468088102
 21
36.3954894094
  0
LINE
  5
3B0
100
AcDbEntity
  8
RACCORDO
100
AcDbLine
 62
7
  6
CONTINUOUS
 10
-0.7577235331
 20
34.149980312
 11
-0.6516565062
 21
34.08873854
  0
LINE
  5
3B1
100
AcDbEntity
  8
ASSI
100
AcDbLine
 62
7
  6
CONTINUOUS
 10
-0.7577235331
 20
34.149980312
 11
-0.6516565062
 21
34.08873854
  0
LINE
  5
3B2
100
AcDbEntity
  8
RACCORDO
100
AcDbLine
 62
7
  6
CONTINUOUS
 10
-0.7738174849
 20
34.1136438895
 11
-0.7930738238
 21
34.1270738306
  0
LWPOLYLINE
  5
3B3
100
AcDbEntity
  8
RACCORDO
100
AcDbPolyline
 62
250
  6
CONTINUOUS
 90
3
 70
0
 10
1.9222967839
 20
35.5164485315
 10
1.909224058
 20
35.5390911675
 10
1.8940405233
 20
35.5600566891
  0
LWPOLYLINE
  5
3B4
100
AcDbEntity
  8
ASSI
100
AcDbPolyline
 62
250
  6
CONTINUOUS
 90
3
 70
0
 10
1.9222967839
 20
35.5164485315
 10
1.909224058
 20
35.5390911675
 10
1.8940405233
 20
35.5600566891
  0
LINE
  5
3B5
100
AcDbEntity
  8
RACCORDO
100
AcDbLine
 62
250
  6
CONTINUOUS
 10
2.507483835
 20
33.4516464454
 11
1.946735072
 21
34.4364008451
  0
LINE
  5
3B6
100
AcDbEntity
  8
ASSI
100
AcDbLine
 62
250
  6
CONTINUOUS
 10
2.507483835
 20
33.4516464454
 11
1.946735072
 21
34.4364008451
  0
LINE
  5
3B7
100
AcDbEntity
  8
RACCORDO
100
AcDbLine
 62
7
  6
CONTINUOUS
 10
2.5308448073
 20
33.5865752567
 11
1.9981572003
 21
34.5220502843
  0
LINE
  5
3B8
100
AcDbEntity
  8
ASSI
100
AcDbLine
 62
7
  6
CONTINUOUS
 10
2.5308448073
 20
33.5865752567
 11
1.9981572003
 21
34.5220502843
  0
LINE
  5
3B9
100
AcDbEntity
  8
RACCORDO
100
AcDbLine
 62
250
  6
CONTINUOUS
 10
2.5308680379
 20
33.5865344357
 11
2.5308448073
 21
33.5865752567
  0
LINE
  5
3BA
100
AcDbEntity
  8
ASSI
100
AcDbLine
 62
250
  6
CONTINUOUS
 10
2.5308680379
 20
33.5865344357
 11
2.5308448073
 21
33.5865752567
  0
LWPOLYLINE
  5
3BB
100
AcDbEntity
  8
RACCORDO
100
AcDbPolyline
 62
250
  6
CONTINUOUS
 90
6
 70
0
 10
2.2910251878
 20
37.1405489772
 10
2.2987328969
 20
37.1187002464
 10
2.3025901136
 20
37.0950322549
 10
2.3024928637
 20
37.0703913053
 10
2.2985147642
 20
37.0455740593
 10
2.2908371263
 20
37.0212805202
  0
LWPOLYLINE
  5
3BC
100
AcDbEntity
  8
ASSI
100
AcDbPolyline
 62
250
  6
CONTINUOUS
 90
6
 70
0
 10
2.2910251878
 20
37.1405489772
 10
2.2987328969
 20
37.1187002464
 10
2.3025901136
 20
37.0950322549
 10
2.3024928637
 20
37.0703913053
 10
2.2985147642
 20
37.0455740593
 10
2.2908371263
 20
37.0212805202
  0
LWPOLYLINE
  5
3BD
100
AcDbEntity
  8
RACCORDO
100
AcDbPolyline
 62
7
  6
CONTINUOUS
 90
4
 70
0
 10
-4.6114585195
 20
36.3317612983
 10
-4.6307148584
 20
36.3405680948
 10
-4.6483921588
 20
36.3453056787
 10
-4.6644904206
 20
36.3459740503
  0
LWPOLYLINE
  5
3BE
100
AcDbEntity
  8
RACCORDO
100
AcDbPolyline
 62
7
  6
CONTINUOUS
 90
4
 70
0
 10
-4.6468088102
 20
36.3954894094
 10
-4.627552294
 20
36.3866825343
 10
-4.6098747168
 20
36.3819449751
 10
-4.5937760785
 20
36.3812767315
  0
LWPOLYLINE
  5
3BF
100
AcDbEntity
  8
ASSI
100
AcDbPolyline
 62
7
  6
CONTINUOUS
 90
4
 70
0
 10
-4.6468088102
 20
36.3954894094
 10
-4.627552294
 20
36.3866825343
 10
-4.6098747168
 20
36.3819449751
 10
-4.5937760785
 20
36.3812767315
  0
LINE
  5
3C0
100
AcDbEntity
  8
RACCORDO
100
AcDbLine
 62
7
  6
CONTINUOUS
 10
-0.298099077
 20
34.3719872952
 11
-0.4276766758
 21
34.4468037768
  0
LINE
  5
3C1
100
AcDbEntity
  8
ASSI
100
AcDbLine
 62
7
  6
CONTINUOUS
 10
-0.298099077
 20
34.3719872952
 11
-0.4276766758
 21
34.4468037768
  0
LINE
  5
3C2
100
AcDbEntity
  8
RACCORDO
100
AcDbLine
 62
7
  6
CONTINUOUS
 10
-1.0522196952
 20
36.0301232328
 11
-1.0759138438
 21
36.0457932085
  0
LWPOLYLINE
  5
3C3
100
AcDbEntity
  8
RACCORDO
100
AcDbPolyline
 62
7
  6
CONTINUOUS
 90
13
 70
0
 10
-1.0052085506
 20
36.0482861545
 10
-0.9862532167
 20
36.0357501966
 10
-0.9682134021
 20
36.0211909303
 10
-0.9510891069
 20
36.0046083558
 10
-0.9346216546
 20
35.9856535334
 10
-0.9190697217
 20
35.9646754026
 10
-0.9052093373
 20
35.9427207823
 10
-0.8931263285
 20
35.9197401267
 10
-0.8827348681
 20
35.8957829815
 10
-0.8745535043
 20
35.8720448019
 10
-0.8687550865
 20
35.8489240731
 10
-0.8651667652
 20
35.8260223098
 10
-0.8637885406
 20
35.8033395122
  0
LWPOLYLINE
  5
3C4
100
AcDbEntity
  8
ASSI
100
AcDbPolyline
 62
7
  6
CONTINUOUS
 90
13
 70
0
 10
-1.0052085506
 20
36.0482861545
 10
-0.9862532167
 20
36.0357501966
 10
-0.9682134021
 20
36.0211909303
 10
-0.9510891069
 20
36.0046083558
 10
-0.9346216546
 20
35.9856535334
 10
-0.9190697217
 20
35.9646754026
 10
-0.9052093373
 20
35.9427207823
 10
-0.8931263285
 20
35.9197401267
 10
-0.8827348681
 20
35.8957829815
 10
-0.8745535043
 20
35.8720448019
 10
-0.8687550865
 20
35.8489240731
 10
-0.8651667652
 20
35.8260223098
 10
-0.8637885406
 20
35.8033395122
  0
LWPOLYLINE
  5
3C5
100
AcDbEntity
  8
RACCORDO
100
AcDbPolyline
 62
7
  6
CONTINUOUS
 90
7
 70
0
 10
-4.3286184995
 20
37.9238641107
 10
-4.3523126481
 20
37.935555544
 10
-4.3748622084
 20
37.9433963852
 10
-4.3962671803
 20
37.9473866343
 10
-4.4168508245
 20
37.9474634922
 10
-4.4362898802
 20
37.9436897579
 10
-4.452524681
 20
37.9368708964
  0
LWPOLYLINE
  5
3C6
100
AcDbEntity
  8
0
100
AcDbPolyline
 62
7
  6
CONTINUOUS
 90
7
 70
0
 10
-4.8707930428
 20
38.6859675492
 10
-4.8784535718
 20
38.6900056745
 10
-4.8858694068
 20
38.6933793363
 10
-4.8930405479
 20
38.6960885347
 10
-4.8999669951
 20
38.6981332695
 10
-4.9066487484
 20
38.6995135409
 10
-4.9130858079
 20
38.7002293488
  0
LWPOLYLINE
  5
3C7
100
AcDbEntity
  8
ASSI
100
AcDbPolyline
 62
7
  6
CONTINUOUS
 90
7
 70
0
 10
-4.8707930428
 20
38.6859675492
 10
-4.8784535718
 20
38.6900056745
 10
-4.8858694068
 20
38.6933793363
 10
-4.8930405479
 20
38.6960885347
 10
-4.8999669951
 20
38.6981332695
 10
-4.9066487484
 20
38.6995135409
 10
-4.9130858079
 20
38.7002293488
  0
LINE
  5
3C8
100
AcDbEntity
  8
RACCORDO
100
AcDbLine
 62
7
  6
CONTINUOUS
 10
-1.0759138438
 20
36.0457932085
 11
-4.3286184995
 21
37.9238641107
  0
LINE
  5
3C9
100
AcDbEntity
  8
RACCORDO
100
AcDbLine
 62
7
  6
CONTINUOUS
 10
-1.0052085506
 20
36.0482861545
 11
-4.3993237927
 21
38.0080057571
  0
LINE
  5
3CA
100
AcDbEntity
  8
ASSI
100
AcDbLine
 62
7
  6
CONTINUOUS
 10
-1.0052085506
 20
36.0482861545
 11
-4.3993237927
 21
38.0080057571
  0
LINE
  5
3CB
100
AcDbEntity
  8
RACCORDO
100
AcDbLine
 62
7
  6
CONTINUOUS
 10
-0.5337393005
 20
36.1818070744
 11
-1.0048857204
 21
36.4538411124
  0
LINE
  5
3CC
100
AcDbEntity
  8
ASSI
100
AcDbLine
 62
7
  6
CONTINUOUS
 10
-0.5337393005
 20
36.1818070744
 11
-1.0048857204
 21
36.4538411124
  0
LINE
  5
3CD
100
AcDbEntity
  8
RACCORDO
100
AcDbLine
 62
7
  6
CONTINUOUS
 10
-4.3996466229
 20
38.4139335112
 11
-4.8707930428
 21
38.6859675492
  0
LINE
  5
3CE
100
AcDbEntity
  8
ASSI
100
AcDbLine
 62
7
  6
CONTINUOUS
 10
-4.3996466229
 20
38.4139335112
 11
-4.8707930428
 21
38.6859675492
  0
LINE
  5
3CF
100
AcDbEntity
  8
RACCORDO
100
AcDbLine
 62
7
  6
CONTINUOUS
 10
-4.1867852572
 20
38.7809121925
 11
-1.2177470861
 21
37.0666267633
  0
LINE
  5
3D0
100
AcDbEntity
  8
ASSI
100
AcDbLine
 62
7
  6
CONTINUOUS
 10
-4.1867852572
 20
38.7809121925
 11
-1.2177470861
 21
37.0666267633
  0
LWPOLYLINE
  5
3D1
100
AcDbEntity
  8
RACCORDO
100
AcDbPolyline
 62
250
  6
CONTINUOUS
 90
13
 70
0
 10
-0.7272357244
 20
36.8887898717
 10
-0.7041852482
 20
36.8738377325
 10
-0.6850060057
 20
36.857253176
 10
-0.6696979969
 20
36.8390362023
 10
-0.6579258626
 20
36.8188856283
 10
-0.6500249619
 20
36.7971026371
 10
-0.6470013726
 20
36.7745907781
 10
-0.6490139821
 20
36.7513372459
 10
-0.6559039029
 20
36.7273548458
 10
-0.6682005497
 20
36.703585544
 10
-0.6860803938
 20
36.6803433291
 10
-0.7093669639
 20
36.6573142125
 10
-0.7380602599
 20
36.6344981941
  0
LWPOLYLINE
  5
3D2
100
AcDbEntity
  8
ASSI
100
AcDbPolyline
 62
250
  6
CONTINUOUS
 90
13
 70
0
 10
-0.7272357244
 20
36.8887898717
 10
-0.7041852482
 20
36.8738377325
 10
-0.6850060057
 20
36.857253176
 10
-0.6696979969
 20
36.8390362023
 10
-0.6579258626
 20
36.8188856283
 10
-0.6500249619
 20
36.7971026371
 10
-0.6470013726
 20
36.7745907781
 10
-0.6490139821
 20
36.7513372459
 10
-0.6559039029
 20
36.7273548458
 10
-0.6682005497
 20
36.703585544
 10
-0.6860803938
 20
36.6803433291
 10
-0.7093669639
 20
36.6573142125
 10
-0.7380602599
 20
36.6344981941
  0
LWPOLYLINE
  5
3D3
100
AcDbEntity
  8
RACCORDO
100
AcDbPolyline
 62
7
  6
CONTINUOUS
 90
10
 70
0
 10
-1.0048857204
 20
36.4538411124
 10
-1.024243932
 20
36.4673473506
 10
-1.0420043254
 20
36.4830840143
 10
-1.0581669007
 20
36.5010511034
 10
-1.0731135932
 20
36.5219168048
 10
-1.0864624677
 20
36.5450129317
 10
-1.0970677176
 20
36.5683349239
 10
-1.1045474076
 20
36.5912145944
 10
-1.109283473
 20
36.6143201302
 10
-1.111275914
 20
36.6376515311
  0
LWPOLYLINE
  5
3D4
100
AcDbEntity
  8
ASSI
100
AcDbPolyline
 62
7
  6
CONTINUOUS
 90
10
 70
0
 10
-1.0048857204
 20
36.4538411124
 10
-1.024243932
 20
36.4673473506
 10
-1.0420043254
 20
36.4830840143
 10
-1.0581669007
 20
36.5010511034
 10
-1.0731135932
 20
36.5219168048
 10
-1.0864624677
 20
36.5450129317
 10
-1.0970677176
 20
36.5683349239
 10
-1.1045474076
 20
36.5912145944
 10
-1.109283473
 20
36.6143201302
 10
-1.111275914
 20
36.6376515311
  0
LINE
  5
3D5
100
AcDbEntity
  8
RACCORDO
100
AcDbLine
 62
250
  6
CONTINUOUS
 10
-1.040754032
 20
37.134948078
 11
-1.0601008818
 21
37.1498464737
  0
LINE
  5
3D6
100
AcDbEntity
  8
ASSI
100
AcDbLine
 62
250
  6
CONTINUOUS
 10
-1.040754032
 20
37.134948078
 11
-1.0601008818
 21
37.1498464737
  0
LWPOLYLINE
  5
3D7
100
AcDbEntity
  8
RACCORDO
100
AcDbPolyline
 62
250
  6
CONTINUOUS
 90
3
 70
0
 10
1.8940405233
 20
35.5600566891
 10
1.877207479
 20
35.5787081293
 10
1.8592363386
 20
35.5944788272
  0
LWPOLYLINE
  5
3D8
100
AcDbEntity
  8
ASSI
100
AcDbPolyline
 62
250
  6
CONTINUOUS
 90
3
 70
0
 10
1.8940405233
 20
35.5600566891
 10
1.877207479
 20
35.5787081293
 10
1.8592363386
 20
35.5944788272
  0
LWPOLYLINE
  5
3D9
100
AcDbEntity
  8
RACCORDO
100
AcDbPolyline
 62
250
  6
CONTINUOUS
 90
7
 70
0
 10
1.7472793824
 20
37.411641052
 10
1.7624761308
 20
37.3904539148
 10
1.7755248748
 20
37.3675943803
 10
1.7859801691
 20
37.3438884665
 10
1.793555972
 20
37.3201081704
 10
1.7980913977
 20
37.2969266877
 10
1.7995012185
 20
37.2750197284
  0
LWPOLYLINE
  5
3DA
100
AcDbEntity
  8
ASSI
100
AcDbPolyline
 62
250
  6
CONTINUOUS
 90
7
 70
0
 10
1.7472793824
 20
37.411641052
 10
1.7624761308
 20
37.3904539148
 10
1.7755248748
 20
37.3675943803
 10
1.7859801691
 20
37.3438884665
 10
1.793555972
 20
37.3201081704
 10
1.7980913977
 20
37.2969266877
 10
1.7995012185
 20
37.2750197284
  0
LWPOLYLINE
  5
3DB
100
AcDbEntity
  8
RACCORDO
100
AcDbPolyline
 62
7
  6
CONTINUOUS
 90
6
 70
0
 10
-4.1867852572
 20
38.7809121925
 10
-4.2061537052
 20
38.789764824
 10
-4.2239248718
 20
38.7945390946
 10
-4.2400987569
 20
38.7952350041
 10
-4.2550584244
 20
38.7916247048
 10
-4.2588877241
 20
38.7899142348
  0
LWPOLYLINE
  5
3DC
100
AcDbEntity
  8
ASSI
100
AcDbPolyline
 62
7
  6
CONTINUOUS
 90
6
 70
0
 10
-4.1867852572
 20
38.7809121925
 10
-4.2061537052
 20
38.789764824
 10
-4.2239248718
 20
38.7945390946
 10
-4.2400987569
 20
38.7952350041
 10
-4.2550584244
 20
38.7916247048
 10
-4.2588877241
 20
38.7899142348
  0
LINE
  5
3DD
100
AcDbEntity
  8
RACCORDO
100
AcDbLine
 62
250
  6
CONTINUOUS
 10
-0.7272357244
 20
36.8887898717
 11
-0.8454761443
 21
36.9570604083
  0
LINE
  5
3DE
100
AcDbEntity
  8
ASSI
100
AcDbLine
 62
250
  6
CONTINUOUS
 10
-0.7272357244
 20
36.8887898717
 11
-0.8454761443
 21
36.9570604083
  0
LINE
  5
3DF
100
AcDbEntity
  8
RACCORDO
100
AcDbLine
 62
7
  6
CONTINUOUS
 10
-1.0050502549
 20
37.1688051299
 11
-3.9476852588
 21
38.8678457013
  0
LINE
  5
3E0
100
AcDbEntity
  8
ASSI
100
AcDbLine
 62
7
  6
CONTINUOUS
 10
-1.0050502549
 20
37.1688051299
 11
-3.9476852588
 21
38.8678457013
  0
LINE
  5
3E1
100
AcDbEntity
  8
RACCORDO
100
AcDbLine
 62
250
  6
CONTINUOUS
 10
1.8406730935
 20
35.6068896425
 11
1.7186273187
 21
35.6773573433
  0
LINE
  5
3E2
100
AcDbEntity
  8
ASSI
100
AcDbLine
 62
250
  6
CONTINUOUS
 10
1.8406730935
 20
35.6068896425
 11
1.7186273187
 21
35.6773573433
  0
LINE
  5
3E3
100
AcDbEntity
  8
RACCORDO
100
AcDbLine
 62
7
  6
CONTINUOUS
 10
1.9147511286
 20
35.6137910591
 11
1.7923174786
 21
35.6844827142
  0
LINE
  5
3E4
100
AcDbEntity
  8
ASSI
100
AcDbLine
 62
7
  6
CONTINUOUS
 10
1.9147511286
 20
35.6137910591
 11
1.7923174786
 21
35.6844827142
  0
LINE
  5
3E5
100
AcDbEntity
  8
RACCORDO
100
AcDbLine
 62
250
  6
CONTINUOUS
 10
-1.0601008818
 20
37.1498464737
 11
-4.0394316721
 21
38.8700747054
  0
LINE
  5
3E6
100
AcDbEntity
  8
ASSI
100
AcDbLine
 62
250
  6
CONTINUOUS
 10
-1.0601008818
 20
37.1498464737
 11
-4.0394316721
 21
38.8700747054
  0
LINE
  5
3E7
100
AcDbEntity
  8
RACCORDO
100
AcDbLine
 62
250
  6
CONTINUOUS
 10
1.8592363386
 20
35.5944788272
 11
1.8406730935
 21
35.6068896425
  0
LINE
  5
3E8
100
AcDbEntity
  8
ASSI
100
AcDbLine
 62
250
  6
CONTINUOUS
 10
1.8592363386
 20
35.5944788272
 11
1.8406730935
 21
35.6068896425
  0
LWPOLYLINE
  5
3E9
100
AcDbEntity
  8
RACCORDO
100
AcDbPolyline
 62
7
  6
CONTINUOUS
 90
3
 70
0
 10
1.8087113419
 20
37.4396574949
 10
1.8232233809
 20
37.4235165436
 10
1.8345113473
 20
37.4043231115
  0
LWPOLYLINE
  5
3EA
100
AcDbEntity
  8
ASSI
100
AcDbPolyline
 62
7
  6
CONTINUOUS
 90
3
 70
0
 10
1.8087113419
 20
37.4396574949
 10
1.8232233809
 20
37.4235165436
 10
1.8345113473
 20
37.4043231115
  0
LINE
  5
3EB
100
AcDbEntity
  8
RACCORDO
100
AcDbLine
 62
250
  6
CONTINUOUS
 10
1.7304304431
 20
37.4304718638
 11
1.7472793824
 21
37.411641052
  0
LINE
  5
3EC
100
AcDbEntity
  8
ASSI
100
AcDbLine
 62
250
  6
CONTINUOUS
 10
1.7304304431
 20
37.4304718638
 11
1.7472793824
 21
37.411641052
  0
LINE
  5
3ED
100
AcDbEntity
  8
RACCORDO
100
AcDbLine
 62
7
  6
CONTINUOUS
 10
-4.6644904206
 20
36.3459740503
 11
-4.6793948173
 21
36.342350859
  0
LWPOLYLINE
  5
3EE
100
AcDbEntity
  8
RACCORDO
100
AcDbPolyline
 62
7
  6
CONTINUOUS
 90
3
 70
0
 10
-4.5937760785
 20
36.3812767315
 10
-4.578871126
 20
36.3849002008
 10
-4.5722622437
 20
36.3880942022
  0
LWPOLYLINE
  5
3EF
100
AcDbEntity
  8
ASSI
100
AcDbPolyline
 62
7
  6
CONTINUOUS
 90
3
 70
0
 10
-4.5937760785
 20
36.3812767315
 10
-4.578871126
 20
36.3849002008
 10
-4.5722622437
 20
36.3880942022
  0
LWPOLYLINE
  5
3F0
100
AcDbEntity
  8
RACCORDO
100
AcDbPolyline
 62
250
  6
CONTINUOUS
 90
5
 70
0
 10
-1.0440927463
 20
37.174883558
 10
-1.0327350098
 20
37.175832179
 10
-1.0219722938
 20
37.1749151475
 10
-1.0120045567
 20
37.1721365124
 10
-1.0050502549
 20
37.1688051299
  0
LWPOLYLINE
  5
3F1
100
AcDbEntity
  8
ASSI
100
AcDbPolyline
 62
250
  6
CONTINUOUS
 90
5
 70
0
 10
-1.0440927463
 20
37.174883558
 10
-1.0327350098
 20
37.175832179
 10
-1.0219722938
 20
37.1749151475
 10
-1.0120045567
 20
37.1721365124
 10
-1.0050502549
 20
37.1688051299
  0
LWPOLYLINE
  5
3F2
100
AcDbEntity
  8
RACCORDO
100
AcDbPolyline
 62
250
  6
CONTINUOUS
 90
4
 70
0
 10
1.7465191869
 20
37.4725655477
 10
1.7384142473
 20
37.4728409629
 10
1.7299081436
 20
37.4720839683
 10
1.7211205893
 20
37.4702945308
  0
LWPOLYLINE
  5
3F3
100
AcDbEntity
  8
ASSI
100
AcDbPolyline
 62
250
  6
CONTINUOUS
 90
4
 70
0
 10
1.7465191869
 20
37.4725655477
 10
1.7384142473
 20
37.4728409629
 10
1.7299081436
 20
37.4720839683
 10
1.7211205893
 20
37.4702945308
  0
LWPOLYLINE
  5
3F4
100
AcDbEntity
  8
RACCORDO
100
AcDbPolyline
 62
250
  6
CONTINUOUS
 90
4
 70
0
 10
-4.0394316721
 20
38.8700747054
 10
-4.0556657551
 20
38.8757201857
 10
-4.0708978678
 20
38.8771794217
 10
-4.0842661074
 20
38.8744884002
  0
LWPOLYLINE
  5
3F5
100
AcDbEntity
  8
ASSI
100
AcDbPolyline
 62
250
  6
CONTINUOUS
 90
4
 70
0
 10
-4.0394316721
 20
38.8700747054
 10
-4.0556657551
 20
38.8757201857
 10
-4.0708978678
 20
38.8771794217
 10
-4.0842661074
 20
38.8744884002
  0
LWPOLYLINE
  5
3F6
100
AcDbEntity
  8
RACCORDO
100
AcDbPolyline
 62
250
  6
CONTINUOUS
 90
4
 70
0
 10
1.7678812974
 20
37.4658432317
 10
1.7612873124
 20
37.4690324488
 10
1.7541527742
 20
37.4712856204
 10
1.7465191869
 20
37.4725655477
  0
LWPOLYLINE
  5
3F7
100
AcDbEntity
  8
ASSI
100
AcDbPolyline
 62
250
  6
CONTINUOUS
 90
4
 70
0
 10
1.7678812974
 20
37.4658432317
 10
1.7612873124
 20
37.4690324488
 10
1.7541527742
 20
37.4712856204
 10
1.7465191869
 20
37.4725655477
  0
LINE
  5
3F8
100
AcDbEntity
  8
RACCORDO
100
AcDbLine
 62
250
  6
CONTINUOUS
 10
1.799623554
 20
37.275091053
 11
2.2797431093
 21
36.9980882309
  0
LINE
  5
3F9
100
AcDbEntity
  8
ASSI
100
AcDbLine
 62
250
  6
CONTINUOUS
 10
1.799623554
 20
37.275091053
 11
2.2797431093
 21
36.9980882309
  0
LINE
  5
3FA
100
AcDbEntity
  8
RACCORDO
100
AcDbLine
 62
250
  6
CONTINUOUS
 10
1.6938070995
 20
37.4589395998
 11
-2.6197972629
 21
39.9495606965
  0
LINE
  5
3FB
100
AcDbEntity
  8
ASSI
100
AcDbLine
 62
250
  6
CONTINUOUS
 10
1.6938070995
 20
37.4589395998
 11
-2.6197972629
 21
39.9495606965
  0
LINE
  5
3FC
100
AcDbEntity
  8
RACCORDO
100
AcDbLine
 62
7
  6
CONTINUOUS
 10
-2.5457228532
 20
39.9564642061
 11
2.2477557345
 21
37.1888237599
  0
LINE
  5
3FD
100
AcDbEntity
  8
ASSI
100
AcDbLine
 62
7
  6
CONTINUOUS
 10
-2.5457228532
 20
39.9564642061
 11
2.2477557345
 21
37.1888237599
  0
LWPOLYLINE
  5
3FE
100
AcDbEntity
  8
RACCORDO
100
AcDbPolyline
 62
250
  6
CONTINUOUS
 90
3
 70
0
 10
1.6938068863
 20
37.4589397229
 10
1.7124219803
 20
37.4464023325
 10
1.7304304431
 20
37.4304718638
  0
LWPOLYLINE
  5
3FF
100
AcDbEntity
  8
ASSI
100
AcDbPolyline
 62
250
  6
CONTINUOUS
 90
3
 70
0
 10
1.6938068863
 20
37.4589397229
 10
1.7124219803
 20
37.4464023325
 10
1.7304304431
 20
37.4304718638
  0
LINE
  5
400
100
AcDbEntity
  8
RACCORDO
100
AcDbLine
 62
7
  6
CONTINUOUS
 10
1.7914133753
 20
37.4522587448
 11
1.8087113419
 21
37.4396574949
  0
LINE
  5
401
100
AcDbEntity
  8
ASSI
100
AcDbLine
 62
7
  6
CONTINUOUS
 10
1.7914133753
 20
37.4522587448
 11
1.8087113419
 21
37.4396574949
  0
LINE
  5
402
100
AcDbEntity
  8
RACCORDO
100
AcDbLine
 62
250
  6
CONTINUOUS
 10
1.7851704094
 20
37.4532416624
 11
1.7678812974
 21
37.4658432317
  0
LINE
  5
403
100
AcDbEntity
  8
ASSI
100
AcDbLine
 62
250
  6
CONTINUOUS
 10
1.7851704094
 20
37.4532416624
 11
1.7678812974
 21
37.4658432317
  0
LWPOLYLINE
  5
404
100
AcDbEntity
  8
RACCORDO
100
AcDbPolyline
 62
250
  6
CONTINUOUS
 90
4
 70
0
 10
2.2477555419
 20
37.1888238711
 10
2.2651497747
 20
37.1761376269
 10
2.2797201709
 20
37.1598796692
 10
2.2910251878
 20
37.1405489772
  0
LWPOLYLINE
  5
405
100
AcDbEntity
  8
ASSI
100
AcDbPolyline
 62
250
  6
CONTINUOUS
 90
4
 70
0
 10
2.2477555419
 20
37.1888238711
 10
2.2651497747
 20
37.1761376269
 10
2.2797201709
 20
37.1598796692
 10
2.2910251878
 20
37.1405489772
  0
LINE
  5
406
100
AcDbEntity
  8
0
100
AcDbLine
 62
7
  6
CONTINUOUS
 10
-3.3376215107
 20
-1.8359659009
 11
-3.3376215107
 21
8.2090866632
  0
LINE
  5
407
100
AcDbEntity
  8
ASSI
100
AcDbLine
 62
7
  6
CONTINUOUS
 10
-2.9376215107
 20
-2.1571144204
 11
-2.9376215107
 21
-14.0830200528
  0
LINE
  5
408
100
AcDbEntity
  8
ASSI
100
AcDbLine
 62
7
  6
CONTINUOUS
 10
-2.5376215107
 20
-2.1571144204
 11
-2.5376215107
 21
-14.0830200528
  0
LINE
  5
409
100
AcDbEntity
  8
0
100
AcDbLine
 62
7
  6
CONTINUOUS
 10
-2.1376215107
 20
-1.8359659009
 11
-2.1376215107
 21
8.134967452
  0
LWPOLYLINE
  5
40A
100
AcDbEntity
  8
0
100
AcDbPolyline
 62
7
  6
CONTINUOUS
 90
4
 70
0
 10
-2.313357442
 20
-2.0809306569
 10
-2.2157263691
 20
-1.9992757382
 10
-2.1571477253
 20
-1.9176208195
 10
-2.1376215107
 20
-1.8359659009
  0
LWPOLYLINE
  5
40B
100
AcDbEntity
  8
0
100
AcDbPolyline
 62
7
  6
CONTINUOUS
 90
10
 70
0
 10
-3.3376215107
 20
-1.8359659009
 10
-3.3142825656
 20
-1.9229355244
 10
-3.2518911912
 20
-2.009905148
 10
-3.1618855794
 20
-2.0809306569
 10
-3.0388737148
 20
-2.1328987691
 10
-2.8882476128
 20
-2.1689227667
 10
-2.7376215107
 20
-2.1823983811
 10
-2.5962001545
 20
-2.1711241895
 10
-2.4547787982
 20
-2.1373016148
 10
-2.313357442
 20
-2.0809306569
  0
LWPOLYLINE
  5
40C
100
AcDbEntity
  8
ASSI
100
AcDbPolyline
 62
7
  6
CONTINUOUS
 90
8
 70
0
 10
-2.5376215553
 20
-14.0829429847
 10
-2.5383825711
 20
-14.0930845795
 10
-2.5417852121
 20
-14.1063053035
 10
-2.5478579817
 20
-14.1193911463
 10
-2.5563599533
 20
-14.1318229503
 10
-2.5672108183
 20
-14.1434276629
 10
-2.5804908853
 20
-14.1543783366
 10
-2.5962001545
 20
-14.1646749714
  0
LINE
  5
40D
100
AcDbEntity
  8
0
100
AcDbLine
 62
7
  6
CONTINUOUS
 10
-0.8627477766
 20
-3.2649269775
 11
-0.8627477766
 21
8.2310371579
  0
LINE
  5
40E
100
AcDbEntity
  8
ASSI
100
AcDbLine
 62
7
  6
CONTINUOUS
 10
-0.4627477766
 20
-3.586075497
 11
-0.4627477766
 21
-15.5119811294
  0
LWPOLYLINE
  5
40F
100
AcDbEntity
  8
0
100
AcDbPolyline
 62
7
  6
CONTINUOUS
 90
10
 70
0
 10
-0.8627477766
 20
-3.2649269775
 10
-0.8394088314
 20
-3.3518966011
 10
-0.7770174571
 20
-3.4388662246
 10
-0.6870118453
 20
-3.5098917335
 10
-0.5639999807
 20
-3.5618598457
 10
-0.4133738786
 20
-3.5978838433
 10
-0.2627477766
 20
-3.6113594578
 10
-0.1213264203
 20
-3.6000852662
 10
0.0200949359
 20
-3.5662626914
 10
0.1615162922
 20
-3.5098917335
  0
LINE
  5
410
100
AcDbEntity
  8
ASSI
100
AcDbLine
 62
7
  6
CONTINUOUS
 10
-0.0627477766
 20
-3.586075497
 11
-0.0627477766
 21
-15.5119811294
  0
LINE
  5
411
100
AcDbEntity
  8
0
100
AcDbLine
 62
7
  6
CONTINUOUS
 10
0.3372522234
 20
-3.2649269775
 11
0.3372522234
 21
8.3534729459
  0
LWPOLYLINE
  5
412
100
AcDbEntity
  8
0
100
AcDbPolyline
 62
7
  6
CONTINUOUS
 90
4
 70
0
 10
0.1615162922
 20
-3.5098917335
 10
0.2591473651
 20
-3.4282368149
 10
0.3177260089
 20
-3.3465818962
 10
0.3372522234
 20
-3.2649269775
  0
LWPOLYLINE
  5
413
100
AcDbEntity
  8
ASSI
100
AcDbPolyline
 62
7
  6
CONTINUOUS
 90
8
 70
0
 10
-0.0627478211
 20
-15.5119040613
 10
-0.0635088369
 20
-15.5220456561
 10
-0.066911478
 20
-15.5352663801
 10
-0.0729842475
 20
-15.548352223
 10
-0.0814862192
 20
-15.560784027
 10
-0.0923370841
 20
-15.5723887395
 10
-0.1056171512
 20
-15.5833394132
 10
-0.1213264203
 20
-15.5936360481
  0
LWPOLYLINE
  5
414
100
AcDbEntity
  8
ASSI
100
AcDbPolyline
 62
7
  6
CONTINUOUS
 90
22
 70
0
 10
-2.5962001545
 20
-14.1646749714
 10
-2.6140333002
 20
-14.1737453066
 10
-2.6329992015
 20
-14.1814130508
 10
-2.6530978584
 20
-14.1876782043
 10
-2.6746289873
 20
-14.1925871361
 10
-2.6972928717
 20
-14.1960934772
 10
-2.7201903622
 20
-14.1980581195
 10
-2.7433308507
 20
-14.1984190791
 10
-2.7667049452
 20
-14.1972383401
 10
-2.7893853197
 20
-14.194562746
 10
-2.8113440834
 20
-14.1903321964
 10
-2.8326091272
 20
-14.1846067918
 10
-2.852336798
 20
-14.1776136776
 10
-2.8704652859
 20
-14.1693018854
 10
-2.8870564008
 20
-14.1597223836
 10
-2.9014519196
 20
-14.1492552219
 10
-2.9135635685
 20
-14.137864712
 10
-2.9234796212
 20
-14.1255865423
 10
-2.930806676
 20
-14.1129078273
 10
-2.9354406423
 20
-14.0998124633
 10
-2.9374856106
 20
-14.0863165541
 10
-2.9376214662
 20
-14.0830971209
  0
LINE
  5
415
100
AcDbEntity
  8
0
100
AcDbLine
 62
7
  6
CONTINUOUS
 10
-2.703096669
 20
8.1463620807
 11
-3.3188759456
 21
8.2059084812
  0
LINE
  5
416
100
AcDbEntity
  8
0
100
AcDbLine
 62
7
  6
CONTINUOUS
 10
-3.3188759456
 20
8.2059084812
 11
-3.3376215107
 21
8.2090866632
  0
LWPOLYLINE
  5
417
100
AcDbEntity
  8
ASSI
100
AcDbPolyline
 62
7
  6
CONTINUOUS
 90
22
 70
0
 10
-0.1213264203
 20
-15.5936360481
 10
-0.1391595661
 20
-15.6027063832
 10
-0.1581254674
 20
-15.6103741275
 10
-0.1782241242
 20
-15.6166392809
 10
-0.1997552531
 20
-15.6215482128
 10
-0.2224191376
 20
-15.6250545538
 10
-0.245316628
 20
-15.6270191961
 10
-0.2684571165
 20
-15.6273801558
 10
-0.291831211
 20
-15.6261994167
 10
-0.3145115856
 20
-15.6235238227
 10
-0.3364703493
 20
-15.6192932731
 10
-0.357735393
 20
-15.6135678685
 10
-0.3774630638
 20
-15.6065747542
 10
-0.3955915517
 20
-15.5982629621
 10
-0.4121826666
 20
-15.5886834603
 10
-0.4265781854
 20
-15.5782162986
 10
-0.4386898343
 20
-15.5668257887
 10
-0.4486058871
 20
-15.5545476189
 10
-0.4559329418
 20
-15.541868904
 10
-0.4605669081
 20
-15.52877354
 10
-0.4626118764
 20
-15.5152776308
 10
-0.462747732
 20
-15.5120581975
  0
LINE
  5
418
100
AcDbEntity
  8
0
100
AcDbLine
 62
7
  6
CONTINUOUS
 10
-0.4759974978
 20
8.2738645792
 11
-0.8627477766
 21
8.2310371579
  0
LINE
  5
419
100
AcDbEntity
  8
0
100
AcDbLine
 62
7
  6
CONTINUOUS
 10
0.3288931392
 20
8.3534729459
 11
-0.4759974978
 21
8.2738645792
  0
LINE
  5
41A
100
AcDbEntity
  8
0
100
AcDbLine
 62
7
  6
CONTINUOUS
 10
0.3372522234
 20
8.3539199054
 11
0.3288931392
 21
8.3534729459
  0
LINE
  5
41B
100
AcDbEntity
  8
0
100
AcDbLine
 62
7
  6
CONTINUOUS
 10
-2.1376215107
 20
8.134967452
 11
-2.703096669
 21
8.1463620807
  0
ARC
  5
41C
100
AcDbEntity
  8
RACCORDO
100
AcDbCircle
 62
7
  6
CONTINUOUS
 10
1.8397475046
 20
35.4838893409
 40
0.15
100
AcDbArc
 50
0.0007992583
 51
59.9992007462
  0
ARC
  5
41D
100
AcDbEntity
  8
RACCORDO
100
AcDbCircle
 62
7
  6
CONTINUOUS
 10
2.4004962677
 20
33.5123508792
 40
0.15
100
AcDbArc
 50
0.0000000002
 51
29.640546582
  0
ARC
  5
41E
100
AcDbEntity
  8
RACCORDO
100
AcDbCircle
 62
7
  6
CONTINUOUS
 10
-1.0800538789
 20
37.0389034117
 40
0.15
100
AcDbArc
 50
33.6283259998
 51
59.9633827557
  0
ARC
  5
41F
100
AcDbEntity
  8
RACCORDO
100
AcDbCircle
 62
7
  6
CONTINUOUS
 10
-4.0226888828
 20
38.7379439831
 40
0.15
100
AcDbArc
 50
59.9214440864
 51
115.8495205074
  0
ARC
  5
420
100
AcDbEntity
  8
RACCORDO
100
AcDbCircle
 62
7
  6
CONTINUOUS
 10
-2.6207226386
 20
39.8265602718
 40
0.15
100
AcDbArc
 50
60.0032603561
 51
119.3076066771
  0
ARC
  5
421
100
AcDbEntity
  8
RACCORDO
100
AcDbCircle
 62
7
  6
CONTINUOUS
 10
2.1727555419
 20
37.0589200607
 40
0.15
100
AcDbArc
 50
0.0
 51
59.9984452426
  0
ARC
  5
422
100
AcDbEntity
  8
RACCORDO
100
AcDbCircle
 62
7
  6
CONTINUOUS
 10
2.4004962677
 20
22.3362167951
 40
0.15
100
AcDbArc
 50
328.5705362884
 51
0.0025768411
  0
ARC
  5
423
100
AcDbEntity
  8
RACCORDO
100
AcDbCircle
 62
7
  6
CONTINUOUS
 10
1.9420658564
 20
21.5860549418
 40
0.15
100
AcDbArc
 50
300.867565563
 51
328.5705131051
  0
ARC
  5
424
100
AcDbEntity
  8
ASSI
100
AcDbCircle
 62
7
  6
CONTINUOUS
 10
1.8397475046
 20
35.4838893409
 40
0.15
100
AcDbArc
 50
0.0007992583
 51
59.9992007462
  0
ARC
  5
425
100
AcDbEntity
  8
ASSI
100
AcDbCircle
 62
7
  6
CONTINUOUS
 10
2.4004962677
 20
33.5123508792
 40
0.15
100
AcDbArc
 50
0.0000000002
 51
29.640546582
  0
ARC
  5
426
100
AcDbEntity
  8
ASSI
100
AcDbCircle
 62
7
  6
CONTINUOUS
 10
-1.0800538789
 20
37.0389034117
 40
0.15
100
AcDbArc
 50
33.6283259998
 51
59.9633827557
  0
ARC
  5
427
100
AcDbEntity
  8
ASSI
100
AcDbCircle
 62
7
  6
CONTINUOUS
 10
-4.0226888828
 20
38.7379439831
 40
0.15
100
AcDbArc
 50
59.9214440864
 51
115.8495205074
  0
ARC
  5
428
100
AcDbEntity
  8
ASSI
100
AcDbCircle
 62
7
  6
CONTINUOUS
 10
-2.6207226386
 20
39.8265602718
 40
0.15
100
AcDbArc
 50
60.0032603561
 51
119.3076066771
  0
ARC
  5
429
100
AcDbEntity
  8
ASSI
100
AcDbCircle
 62
7
  6
CONTINUOUS
 10
2.1727555419
 20
37.0589200607
 40
0.15
100
AcDbArc
 50
0.0
 51
59.9984452426
  0
ARC
  5
42A
100
AcDbEntity
  8
ASSI
100
AcDbCircle
 62
7
  6
CONTINUOUS
 10
2.4004962677
 20
22.3362167951
 40
0.15
100
AcDbArc
 50
328.5705362884
 51
0.0025768411
  0
ARC
  5
42B
100
AcDbEntity
  8
ASSI
100
AcDbCircle
 62
7
  6
CONTINUOUS
 10
1.9420658564
 20
21.5860549418
 40
0.15
100
AcDbArc
 50
300.867565563
 51
328.5705131051
  0
ENDSEC
  0
SECTION
  2
OBJECTS
  0
DICTIONARY
  5
C
100
AcDbDictionary
280
0
281
1
  3
ACAD_GROUP
350
D
  3
ACAD_MLINESTYLE
350
17
  3
ACAD_LAYOUT
350
1A
  3
ACAD_PLOTSETTINGS
350
19
  3
ACAD_PLOTSTYLENAME
350
E
  0
DICTIONARY
  5
D
102
{ACAD_REACTORS
330
C
102
}
100
AcDbDictionary
280
0
281
1
  0
ACDBDICTIONARYWDFLT
  5
E
102
{ACAD_REACTORS
330
C
102
}
100
AcDbDictionary
281
1
  3
Normal
350
F
100
AcDbDictionaryWithDefault
340
F
  0
DICTIONARY
  5
17
102
{ACAD_REACTORS
330
C
102
}
100
AcDbDictionary
280
0
281
1
  3
Standard
350
18
  0
DICTIONARY
  5
19
102
{ACAD_REACTORS
330
C
102
}
100
AcDbDictionary
281
1
  0
DICTIONARY
  5
1A
102
{ACAD_REACTORS
330
C
102
}
100
AcDbDictionary
281
1
  3
Model
350
42C
  3
Layout1
350
42D
  0
ACDBPLACEHOLDER
  5
F
102
{ACAD_REACTORS
330
E
102
}
  0
MLINESTYLE
  5
18
102
{ACAD_REACTORS
330
17
102
}
100
AcDbMlineStyle
  2
STANDARD
 70
0
  3

 62
256
 51
90.0
 52
90.0
 71
2
 49
0.5
 62
256
  6
BYLAYER
 49
-0.5
 62
256
  6
BYLAYER
  0
LAYOUT
  5
42C
102
{ACAD_REACTORS
330
1A
102
}
100
AcDbPlotSettings
  1

  2
none_device
  4
ISO_A4_(297.00_x_210.00_MM)
  6

 40
0.0
 41
0.0
 42
0.0
 43
0.0
 44
297.0
 45
210.0
 46
0.0
 47
0.0
 48
0.0
 49
0.0
140
0.0
141
0.0
142
1.0
143
1.0
 70
1024
 72
1
 73
0
 74
0
  7

 75
0
147
1.0
148
0.0
149
0.0
100
AcDbLayout
  1
Model
 70
0
 71
0
 10
0.0
 20
0.0
 11
297.0
 21
210.0
 12
0.0
 22
0.0
 32
0.0
 14
0.0
 24
0.0
 34
0.0
 15
0.0
 25
0.0
 35
0.0
146
0.0
 13
0.0
 23
0.0
 33
0.0
 16
1.0
 26
0.0
 36
0.0
 17
0.0
 27
1.0
 37
0.0
 76
0
330
21C
345
0
346
0
  0
LAYOUT
  5
42D
102
{ACAD_REACTORS
330
1A
102
}
100
AcDbPlotSettings
  1

  2
none_device
  4
ISO_A4_(297.00_x_210.00_MM)
  6

 40
0.0
 41
0.0
 42
0.0
 43
0.0
 44
297.0
 45
210.0
 46
0.0
 47
0.0
 48
0.0
 49
0.0
140
0.0
141
0.0
142
1.0
143
1.0
 70
0
 72
1
 73
0
 74
0
  7

 75
0
147
1.0
148
0.0
149
0.0
100
AcDbLayout
  1
Layout1
 70
0
 71
1
 10
0.0
 20
0.0
 11
297.0
 21
210.0
 12
0.0
 22
0.0
 32
0.0
 14
0.0
 24
0.0
 34
0.0
 15
0.0
 25
0.0
 35
0.0
146
0.0
 13
0.0
 23
0.0
 33
0.0
 16
1.0
 26
0.0
 36
0.0
 17
0.0
 27
1.0
 37
0.0
 76
0
330
21D
345
0
346
0
  0
ENDSEC
  0
EOF
