0
SECTION
2
HEADER
9
$ACADVER
1
AC1015
9
$DWGCODEPAGE
3
ANSI_1252
9
$EXTMAX
10
297.0000000000
20
210.0000000000
30
0.0000000000
9
$EXTMIN
10
0.0000000000
20
0.0000000000
30
0.0000000000
9
$LIMMIN
10
0.0000000000
20
0.0000000000
9
$LIMMAX
10
297.0000000000
20
210.0000000000
9
$VIEWCTR
10
148.5000000000
20
105.0000000000
9
$VIEWSIZE
40
210.0000000000
9
$CLAYER
8
0
9
$LTSCALE
40
16.3350000000
9
$CELTYPE
6
BYLAYER
9
$DIMSCALE
40
1
9
$DIMASZ
40
3.0000000000
9
$DIMEXO
40
1.8562500000
9
$DIMDLI
40
11.2860000000
9
$DIMEXE
40
5.3460000000
9
$DIMCEN
40
2.6730000000
9
$DIMLFAC
40
1.0000000000
9
$DIMBLK
1
_FILLED
9
$DIMTXT
40
3.0000000000
9
$DIMTOL
70
1
9
$DIMLIM
70
0
9
$DIMTFAC
40
1.0000000000
9
$DIMTP
40
0.0100000000
9
$DIMTM
40
0.0100000000
9
$PDMODE
70
3
9
$PDSIZE
40
3.0000000000
9
$HANDSEED
5
5EF
9
$MEASUREMENT
70
1
9
$INSUNITS
70
4
0
ENDSEC
0
SECTION
2
CLASSES
0
CLASS
1
ACDBDICTIONARYWDFLT
2
AcDbDictionaryWithDefault
3
AutoCAD 2000
90
0
280
0
281
0
0
CLASS
1
ACDBPLACEHOLDER
2
AcDbPlaceHolder
3
AutoCAD 2000
90
0
280
0
281
0
0
CLASS
1
LAYOUT
2
AcDbLayout
3
AutoCAD 2000
90
0
280
0
281
0
0
ENDSEC
0
SECTION
2
TABLES
0
TABLE
2
VPORT
5
8
100
AcDbSymbolTable
70
2
0
VPORT
5
1F4
100
AcDbSymbolTableRecord
100
AcDbViewportTableRecord
2
*ACTIVE
70
0
10
0.0
20
0.0
11
1.0
21
1.0
12
148.5000000000
22
105.0000000000
13
0.0
23
0.0
14
1.0
24
1.0
15
0.0
25
0.0
16
0.0
26
0.0
36
1.0
17
0.0
27
0.0
37
0.0
40
210.0000000000
41
1.4142857143
42
50.0
43
0.0
44
0.0
50
0.0
51
0.0
71
0
72
100
73
1
74
1
75
0
76
0
77
0
78
0
0
ENDTAB
0
TABLE
2
LTYPE
5
5
100
AcDbSymbolTable
70
6
0
LTYPE
5
14
100
AcDbSymbolTableRecord
100
AcDbLinetypeTableRecord
2
BYBLOCK
70
0
3

72
65
73
0
40
0.0
0
LTYPE
5
15
100
AcDbSymbolTableRecord
100
AcDbLinetypeTableRecord
2
BYLAYER
70
0
3

72
65
73
0
40
0.0
0
LTYPE
5
16
100
AcDbSymbolTableRecord
100
AcDbLinetypeTableRecord
2
CONTINUOUS
70
64
3
Solid line
72
65
73
0
40
0
0
LTYPE
5
1F5
100
AcDbSymbolTableRecord
100
AcDbLinetypeTableRecord
2
CENTER
70
64
3
____ _ ____ _ ____ _ ____ _ ____ _ ____ _ ____
72
65
73
4
40
0.6
49
0.375
74
0
49
-0.075
74
0
49
0.075
74
0
49
-0.075
74
0
0
LTYPE
5
1F6
100
AcDbSymbolTableRecord
100
AcDbLinetypeTableRecord
2
HIDDEN
70
64
3
- - - - - - - - - - - - - - - - - - - -
72
65
73
2
40
0.2
49
0.1
74
0
49
-0.1
74
0
0
LTYPE
5
1F7
100
AcDbSymbolTableRecord
100
AcDbLinetypeTableRecord
2
PHANTOM
70
64
3
_____ _ _ _____ _ _ _____ _ _ _____
72
65
73
6
40
0.8
49
0.45
74
0
49
-0.05
74
0
49
0.1
74
0
49
-0.05
74
0
49
0.1
74
0
49
-0.05
74
0
0
LTYPE
5
1F8
100
AcDbSymbolTableRecord
100
AcDbLinetypeTableRecord
2
DOT
70
64
3
. . . . . . . . . . . . . . . . . . . .
72
65
73
2
40
0.2
49
0.1
74
0
49
-0.1
74
0
0
LTYPE
5
1F9
100
AcDbSymbolTableRecord
100
AcDbLinetypeTableRecord
2
DASHED
70
64
3
- - - - - - - - - - - - - - - - - - - -
72
65
73
2
40
0.2
49
0.1
74
0
49
-0.1
74
0
0
ENDTAB
0
TABLE
2
LAYER
5
2
100
AcDbSymbolTable
70
36
0
LAYER
5
10
100
AcDbSymbolTableRecord
100
AcDbLayerTableRecord
2
0
70
0
62
7
6
CONTINUOUS
370
-3
390
F
0
LAYER
5
1FA
100
AcDbSymbolTableRecord
100
AcDbLayerTableRecord
2
DEFAULT_1
70
0
62
7
6
CENTER
370
-3
390
F
0
LAYER
5
1FB
100
AcDbSymbolTableRecord
100
AcDbLayerTableRecord
2
DEFAULT_2
70
0
62
8
6
HIDDEN
370
-3
390
F
0
LAYER
5
1FC
100
AcDbSymbolTableRecord
100
AcDbLayerTableRecord
2
DEFAULT_3
70
0
62
7
6
PHANTOM
370
-3
390
F
0
LAYER
5
1FD
100
AcDbSymbolTableRecord
100
AcDbLayerTableRecord
2
ASSI
70
0
62
7
6
CONTINUOUS
370
-3
390
F
0
LAYER
5
1FE
100
AcDbSymbolTableRecord
100
AcDbLayerTableRecord
2
COORDINATE
70
0
62
7
6
CONTINUOUS
370
-3
390
F
0
LAYER
5
1FF
100
AcDbSymbolTableRecord
100
AcDbLayerTableRecord
2
COORD_ORIGINE
70
0
62
7
6
CONTINUOUS
370
-3
390
F
0
LAYER
5
200
100
AcDbSymbolTableRecord
100
AcDbLayerTableRecord
2
CURVE
70
0
62
7
6
CONTINUOUS
370
-3
390
F
0
LAYER
5
201
100
AcDbSymbolTableRecord
100
AcDbLayerTableRecord
2
NOTE
70
0
62
7
6
CONTINUOUS
370
-3
390
F
0
LAYER
5
202
100
AcDbSymbolTableRecord
100
AcDbLayerTableRecord
2
PIANI
70
0
62
7
6
CONTINUOUS
370
-3
390
F
0
LAYER
5
203
100
AcDbSymbolTableRecord
100
AcDbLayerTableRecord
2
PIANI_ORIGINE
70
0
62
7
6
CONTINUOUS
370
-3
390
F
0
LAYER
5
204
100
AcDbSymbolTableRecord
100
AcDbLayerTableRecord
2
RACCORDO
70
0
62
7
6
CONTINUOUS
370
-3
390
F
0
LAYER
5
205
100
AcDbSymbolTableRecord
100
AcDbLayerTableRecord
2
TRASH
70
0
62
7
6
CONTINUOUS
370
-3
390
F
0
ENDTAB
0
TABLE
2
STYLE
5
3
100
AcDbSymbolTable
70
1
0
STYLE
5
11
100
AcDbSymbolTableRecord
100
AcDbTextStyleTableRecord
2
STANDARD
70
0
40
0.0
41
0.8000000000
50
0.0
71
0
42
0.2
3
txt
4

0
ENDTAB
0
TABLE
2
VIEW
5
6
100
AcDbSymbolTable
70
0
0
ENDTAB
0
TABLE
2
UCS
5
7
100
AcDbSymbolTable
70
0
0
ENDTAB
0
TABLE
2
APPID
5
9
100
AcDbSymbolTable
70
1
0
APPID
5
206
100
AcDbSymbolTableRecord
100
AcDbRegAppTableRecord
2
ACAD
70
0
0
ENDTAB
0
TABLE
2
BLOCK_RECORD
5
1
100
AcDbSymbolTable
70
0
0
BLOCK_RECORD
5
1F
100
AcDbSymbolTableRecord
100
AcDbBlockTableRecord
2
*MODEL_SPACE
0
BLOCK_RECORD
5
1B
100
AcDbSymbolTableRecord
100
AcDbBlockTableRecord
2
*PAPER_SPACE
0
ENDTAB
0
TABLE
2
DIMSTYLE
5
A
100
AcDbSymbolTable
70
1
100
AcDbDimStyleTable
71
0
0
DIMSTYLE
105
207
100
AcDbSymbolTableRecord
100
AcDbDimStyleTableRecord
2
STANDARD
70
0
3

4

40
1.0
41
3.0000000000
42
0.0625
43
0.38
44
0.18
45
0.0
46
0.0
47
0.0100000000
48
0.0100000000
140
3.0000000000
141
0.09
142
0.0
143
25.4
144
1.0000000000
145
0.0
146
1.0000000000
147
0.09
71
1
72
0
73
0
74
0
75
0
76
0
77
1
78
8
170
0
171
2
172
0
173
0
174
0
175
0
176
0
177
0
178
0
270
2
271
2
272
2
273
2
274
2
275
0
280
0
281
0
282
0
283
1
284
8
285
0
286
0
287
3
288
0
340
11
0
ENDTAB
0
ENDSEC
0
SECTION
2
BLOCKS
0
BLOCK
5
20
100
AcDbEntity
8
0
100
AcDbBlockBegin
2
*MODEL_SPACE
70
0
10
0.0
20
0.0
30
0.0
3
*MODEL_SPACE
1

0
ENDBLK
5
21
100
AcDbEntity
8
0
100
AcDbBlockEnd
0
BLOCK
5
1C
100
AcDbEntity
8
0
100
AcDbBlockBegin
2
*PAPER_SPACE
70
0
10
0.0
20
0.0
30
0.0
3
*PAPER_SPACE
1

0
ENDBLK
5
1D
100
AcDbEntity
8
0
100
AcDbBlockEnd
0
ENDSEC
0
SECTION
2
ENTITIES
0
LINE
5
208
100
AcDbEntity
8
0
100
AcDbLine
62
7
6
CONTINUOUS
10
-178.6612654244
20
-77.9297602158
11
-178.6612654244
21
-76.6307221102
0
LINE
5
209
100
AcDbEntity
8
0
100
AcDbLine
62
9
6
CONTINUOUS
10
-177.7825857679
20
-78.9904203876
11
-177.7825857679
21
-77.6913822819
0
LINE
5
20A
100
AcDbEntity
8
0
100
AcDbLine
62
7
6
CONTINUOUS
10
-175.1409085121
20
-70.5051390134
11
-175.1409085121
21
-69.2061009077
0
LINE
5
20B
100
AcDbEntity
8
0
100
AcDbLine
62
9
6
CONTINUOUS
10
-173.0717331304
20
-69.6849870169
11
-173.0717331304
21
-70.9840251225
0
LINE
5
20C
100
AcDbEntity
8
0
100
AcDbLine
62
9
6
CONTINUOUS
10
-163.7433380977
20
-65.0207895005
11
-163.7433380977
21
-66.3198276062
0
LINE
5
20D
100
AcDbEntity
8
0
100
AcDbLine
62
7
6
CONTINUOUS
10
-163.4448576010
20
-65.9133662729
11
-163.4448576010
21
-65.0207895005
0
LINE
5
20E
100
AcDbEntity
8
0
100
AcDbLine
62
7
6
CONTINUOUS
10
-158.6907026759
20
-99.9215027234
11
-158.6907026759
21
-68.7445881872
0
LINE
5
20F
100
AcDbEntity
8
0
100
AcDbLine
62
7
6
CONTINUOUS
10
-157.6300425041
20
-100.4518328093
11
-157.6300425041
21
-69.2749182731
0
LINE
5
210
100
AcDbEntity
8
0
100
AcDbLine
62
7
6
CONTINUOUS
10
-156.4025788106
20
-61.1359741626
11
-156.4025788106
21
-59.8369360570
0
LINE
5
211
100
AcDbEntity
8
0
100
AcDbLine
62
9
6
CONTINUOUS
10
-154.3334034290
20
-60.3158221661
11
-154.3334034290
21
-61.6148602718
0
LINE
5
212
100
AcDbEntity
8
0
100
AcDbLine
62
7
6
CONTINUOUS
10
-156.5904697614
20
-102.6153280109
11
-157.6511299332
21
-102.0849979250
0
LINE
5
213
100
AcDbEntity
8
0
100
AcDbLine
62
9
6
CONTINUOUS
10
-157.6300425041
20
-100.4518328093
11
-158.6907026759
21
-99.9215027234
0
LINE
5
214
100
AcDbEntity
8
0
100
AcDbLine
62
9
6
CONTINUOUS
10
-153.9177319029
20
-98.7258022671
11
-152.8570717311
21
-99.2561323530
0
LINE
5
215
100
AcDbEntity
8
0
100
AcDbLine
62
9
6
CONTINUOUS
10
-151.4428581687
20
-97.4883654000
11
-150.3821979970
21
-98.0186954859
0
LINE
5
216
100
AcDbEntity
8
0
100
AcDbLine
62
7
6
CONTINUOUS
10
-177.7825857679
20
-78.9904203876
11
-158.6907026759
21
-88.5363619336
0
LINE
5
217
100
AcDbEntity
8
0
100
AcDbLine
62
7
6
CONTINUOUS
10
-151.1162946106
20
-92.3235659663
11
-148.9729198480
21
-93.3952533476
0
LINE
5
218
100
AcDbEntity
8
0
100
AcDbLine
62
7
6
CONTINUOUS
10
-148.6092272240
20
-54.8506615495
11
-148.6092272240
21
-56.1496996552
0
LINE
5
219
100
AcDbEntity
8
0
100
AcDbLine
62
9
6
CONTINUOUS
10
-147.7305475675
20
-55.9113217213
11
-147.7305475675
21
-57.2103598270
0
LINE
5
21A
100
AcDbEntity
8
0
100
AcDbLine
62
7
6
CONTINUOUS
10
-144.1950136616
20
-96.7654073013
11
-144.1950136616
21
-95.8993818975
0
LINE
5
21B
100
AcDbEntity
8
0
100
AcDbLine
62
9
6
CONTINUOUS
10
-144.1950136616
20
-58.9781267800
11
-144.1950136616
21
-57.6790886743
0
LINE
5
21C
100
AcDbEntity
8
0
100
AcDbLine
62
7
6
CONTINUOUS
10
-144.1950136616
20
-59.5263149385
11
-144.1950136616
21
-60.3923403423
0
LINE
5
21D
100
AcDbEntity
8
0
100
AcDbLine
62
7
6
CONTINUOUS
10
-177.7825857679
20
-77.6913822819
11
-158.6907026759
21
-87.2373238280
0
LINE
5
21E
100
AcDbEntity
8
0
100
AcDbLine
62
7
6
CONTINUOUS
10
-149.6914375600
20
-91.7369563859
11
-149.2562729153
21
-91.9545387082
0
LINE
5
21F
100
AcDbEntity
8
0
100
AcDbLine
62
9
6
CONTINUOUS
10
-143.1661341372
20
-94.9996080973
11
-142.8257072678
21
-95.1698215320
0
LINE
5
220
100
AcDbEntity
8
0
100
AcDbLine
62
7
6
CONTINUOUS
10
-133.0580818579
20
-81.2376492559
11
-133.0580818579
21
-63.9171411802
0
LINE
5
221
100
AcDbEntity
8
CURVE
100
AcDbLine
62
7
6
CONTINUOUS
10
-128.1083343896
20
-55.8960197407
11
-128.1083343896
21
-55.1589766736
0
LINE
5
222
100
AcDbEntity
8
CURVE
100
AcDbLine
62
7
6
CONTINUOUS
10
-127.6663926513
20
-58.6232203656
11
-127.6663926513
21
-55.0301361556
0
LINE
5
223
100
AcDbEntity
8
CURVE
100
AcDbLine
62
7
6
CONTINUOUS
10
-127.2244509131
20
-54.0721224775
11
-127.2244509131
21
-58.4022494965
0
LINE
5
224
100
AcDbEntity
8
0
100
AcDbLine
62
7
6
CONTINUOUS
10
-123.5121403119
20
-59.1441704072
11
-123.5121403119
21
-75.4040183111
0
LINE
5
225
100
AcDbEntity
8
0
100
AcDbLine
62
7
6
CONTINUOUS
10
-122.4514801401
20
-58.6138403213
11
-122.4514801401
21
-75.9343483970
0
LINE
5
226
100
AcDbEntity
8
0
100
AcDbLine
62
9
6
CONTINUOUS
10
-153.9177319029
20
-71.2294956970
11
-152.8570717311
21
-71.7598257828
0
LINE
5
227
100
AcDbEntity
8
0
100
AcDbLine
62
9
6
CONTINUOUS
10
-157.6300425041
20
-69.2749182731
11
-158.6907026759
21
-68.7445881872
0
LINE
5
228
100
AcDbEntity
8
0
100
AcDbLine
62
9
6
CONTINUOUS
10
-151.4428581687
20
-69.9920588299
11
-150.3821979970
21
-70.5223889158
0
LINE
5
229
100
AcDbEntity
8
0
100
AcDbLine
62
9
6
CONTINUOUS
10
-154.8016153794
20
-64.3966030955
11
-155.8622755512
21
-63.8662730097
0
LINE
5
22A
100
AcDbEntity
8
0
100
AcDbLine
62
7
6
CONTINUOUS
10
-122.4514801401
20
-75.9343483970
11
-123.5121403119
21
-75.4040183111
0
LINE
5
22B
100
AcDbEntity
8
0
100
AcDbLine
62
7
6
CONTINUOUS
10
-114.3197521565
20
-71.8684844052
11
-114.3197521565
21
-54.5479763295
0
LINE
5
22C
100
AcDbEntity
8
CURVE
100
AcDbLine
62
7
6
CONTINUOUS
10
-110.4306648599
20
-50.0053564699
11
-110.4306648599
21
-49.5447046497
0
LINE
5
22D
100
AcDbEntity
8
CURVE
100
AcDbLine
62
7
6
CONTINUOUS
10
-108.2209561687
20
-45.7680699280
11
-108.2209561687
21
-45.5838089677
0
LINE
5
22E
100
AcDbEntity
8
CURVE
100
AcDbLine
62
7
6
CONTINUOUS
10
-107.7790144305
20
-45.3628380986
11
-107.7790144305
21
-45.5470990589
0
LINE
5
22F
100
AcDbEntity
8
CURVE
100
AcDbLine
62
7
6
CONTINUOUS
10
-107.7790144305
20
-48.2188794350
11
-107.7790144305
21
-48.6795312552
0
LINE
5
230
100
AcDbEntity
8
0
100
AcDbLine
62
9
6
CONTINUOUS
10
-144.2267973861
20
-60.4559077914
11
-143.8414602710
21
-60.6485763489
0
LINE
5
231
100
AcDbEntity
8
0
100
AcDbLine
62
9
6
CONTINUOUS
10
-144.1950136616
20
-59.7646928724
11
-143.1343534898
21
-60.2950229583
0
LINE
5
232
100
AcDbEntity
8
0
100
AcDbLine
62
9
6
CONTINUOUS
10
-144.5485670522
20
-59.2700789319
11
-145.6092272240
21
-58.7397488461
0
LINE
5
233
100
AcDbEntity
8
0
100
AcDbLine
62
7
6
CONTINUOUS
10
-144.4981653352
20
-59.1692754980
11
-145.3856204262
21
-58.7255479524
0
LINE
5
234
100
AcDbEntity
8
0
100
AcDbLine
62
7
6
CONTINUOUS
10
-147.7305475675
20
-57.2103598270
11
-144.1950136616
21
-58.9781267800
0
LINE
5
235
100
AcDbEntity
8
0
100
AcDbLine
62
9
6
CONTINUOUS
10
-144.1950136616
20
-58.9781267800
11
-142.8257072678
21
-59.6627799768
0
LINE
5
236
100
AcDbEntity
8
0
100
AcDbLine
62
7
6
CONTINUOUS
10
-147.7305475675
20
-55.9113217213
11
-144.1950136616
21
-57.6790886743
0
LINE
5
237
100
AcDbEntity
8
CURVE
100
AcDbLine
62
7
6
CONTINUOUS
10
-108.2209561687
20
-45.5838089677
11
-108.3682701517
21
-45.3810749058
0
LINE
5
238
100
AcDbEntity
8
CURVE
100
AcDbLine
62
7
6
CONTINUOUS
10
-107.8526713166
20
-45.0311451372
11
-107.7790144305
21
-45.3628380986
0
LINE
5
239
100
AcDbEntity
8
0
100
AcDbLine
62
7
6
CONTINUOUS
10
-104.7738106104
20
-49.7750055565
11
-104.7738106104
21
-66.0348534604
0
LINE
5
23A
100
AcDbEntity
8
0
100
AcDbLine
62
7
6
CONTINUOUS
10
-103.7131504387
20
-49.2446754706
11
-103.7131504387
21
-66.5651835463
0
LINE
5
23B
100
AcDbEntity
8
0
100
AcDbLine
62
7
6
CONTINUOUS
10
-95.5814224550
20
-62.4993195545
11
-95.5814224550
21
-45.1788114788
0
LINE
5
23C
100
AcDbEntity
8
CURVE
100
AcDbLine
62
7
6
CONTINUOUS
10
-110.3570079014
20
-46.6518348340
11
-110.2833509428
21
-46.2464849502
0
LINE
5
23D
100
AcDbEntity
8
CURVE
100
AcDbLine
62
7
6
CONTINUOUS
10
-107.7790144305
20
-45.5470990589
11
-107.8526713166
21
-45.9524489065
0
LINE
5
23E
100
AcDbEntity
8
0
100
AcDbLine
62
7
6
CONTINUOUS
10
-103.7131504387
20
-66.5651835463
11
-104.7738106104
21
-66.0348534604
0
LINE
5
23F
100
AcDbEntity
8
CURVE
100
AcDbLine
62
7
6
CONTINUOUS
10
-108.1472992826
20
-44.8099377157
11
-107.8526713166
21
-45.0311451372
0
LINE
5
240
100
AcDbEntity
8
CURVE
100
AcDbLine
62
7
6
CONTINUOUS
10
-91.4713642894
20
-40.0650543645
11
-91.6186781999
21
-39.8623202664
0
LINE
5
241
100
AcDbEntity
8
CURVE
100
AcDbLine
62
7
6
CONTINUOUS
10
-89.2616555982
20
-37.3939838562
11
-89.1143416152
21
-37.5967179181
0
LINE
5
242
100
AcDbEntity
8
CURVE
100
AcDbLine
62
7
6
CONTINUOUS
10
-89.4826264673
20
-36.2146441170
11
-89.6299404503
21
-36.0119100551
0
LINE
5
243
100
AcDbEntity
8
CURVE
100
AcDbLine
62
7
6
CONTINUOUS
10
-91.3240503854
20
-39.4386152412
11
-91.2503934202
21
-39.5860474609
0
LINE
5
244
100
AcDbEntity
8
CURVE
100
AcDbLine
62
7
6
CONTINUOUS
10
-89.4089695811
20
-38.1125534346
11
-89.5562833534
21
-37.8176887872
0
LINE
5
245
100
AcDbEntity
8
CURVE
100
AcDbLine
62
7
6
CONTINUOUS
10
-91.6186781999
20
-39.8623202664
11
-91.6923351585
21
-39.6227576278
0
LINE
5
246
100
AcDbEntity
8
CURVE
100
AcDbLine
62
7
6
CONTINUOUS
10
-89.1143416152
20
-37.5967179181
11
-89.0406847290
21
-37.9284110086
0
LINE
5
247
100
AcDbEntity
8
CURVE
100
AcDbLine
62
7
6
CONTINUOUS
10
-89.1879987120
20
-35.6988088349
11
-89.1143416152
21
-36.0305016909
0
LINE
5
248
100
AcDbEntity
8
CURVE
100
AcDbLine
62
7
6
CONTINUOUS
10
-90.5138238214
20
-38.0200679678
11
-90.5138238214
21
-37.6515465633
0
LINE
5
249
100
AcDbEntity
8
CURVE
100
AcDbLine
62
7
6
CONTINUOUS
10
-89.4826264673
20
-36.3989050773
11
-89.4826264673
21
-36.2146441170
0
LINE
5
24A
100
AcDbEntity
8
CURVE
100
AcDbLine
62
7
6
CONTINUOUS
10
-89.4089695811
20
-38.4810748391
11
-89.4089695811
21
-38.1125534346
0
LINE
5
24B
100
AcDbEntity
8
CURVE
100
AcDbLine
62
7
6
CONTINUOUS
10
-89.1143416152
20
-36.0305016909
11
-89.1143416152
21
-36.2147626513
0
LINE
5
24C
100
AcDbEntity
8
CURVE
100
AcDbLine
62
7
6
CONTINUOUS
10
-89.0406847290
20
-37.9284110086
11
-89.0406847290
21
-38.2969324130
0
LINE
5
24D
100
AcDbEntity
8
0
100
AcDbLine
62
7
6
CONTINUOUS
10
-86.0354809090
20
-40.4058407058
11
-86.0354809090
21
-56.6656886097
0
LINE
5
24E
100
AcDbEntity
8
0
100
AcDbLine
62
7
6
CONTINUOUS
10
-84.9748207372
20
-39.8755106199
11
-84.9748207372
21
-57.1960186956
0
LINE
5
24F
100
AcDbEntity
8
CURVE
100
AcDbLine
62
7
6
CONTINUOUS
10
-91.6186781999
20
-37.2826699833
11
-91.5450212413
21
-36.8773200995
0
LINE
5
250
100
AcDbEntity
8
CURVE
100
AcDbLine
62
7
6
CONTINUOUS
10
-89.1143416152
20
-36.2147626513
11
-89.1879987120
21
-36.6201126042
0
LINE
5
251
100
AcDbEntity
8
CURVE
100
AcDbLine
62
7
6
CONTINUOUS
10
-108.3682701517
20
-46.2102483240
11
-108.2209561687
21
-45.7680699280
0
LINE
5
252
100
AcDbEntity
8
CURVE
100
AcDbLine
62
7
6
CONTINUOUS
10
-109.8414091914
20
-46.1176444257
11
-109.9887231217
21
-46.4676924442
0
LINE
5
253
100
AcDbEntity
8
CURVE
100
AcDbLine
62
7
6
CONTINUOUS
10
-107.8526713166
20
-45.9524489065
11
-107.9999852996
21
-46.3024969513
0
LINE
5
254
100
AcDbEntity
8
CURVE
100
AcDbLine
62
7
6
CONTINUOUS
10
-128.1083343896
20
-55.1589766736
11
-127.6663926513
21
-54.2930933467
0
LINE
5
255
100
AcDbEntity
8
CURVE
100
AcDbLine
62
7
6
CONTINUOUS
10
-127.6663926513
20
-55.0301361556
11
-128.1083343896
21
-55.8960197407
0
LINE
5
256
100
AcDbEntity
8
0
100
AcDbLine
62
7
6
CONTINUOUS
10
-84.9748207372
20
-57.1960186956
11
-86.0354809090
21
-56.6656886097
0
LINE
5
257
100
AcDbEntity
8
CURVE
100
AcDbLine
62
7
6
CONTINUOUS
10
-91.2503934202
20
-39.5860474609
11
-91.1030794899
21
-39.6966512625
0
LINE
5
258
100
AcDbEntity
8
CURVE
100
AcDbLine
62
7
6
CONTINUOUS
10
-89.4826264673
20
-35.4776013080
11
-89.1879987120
21
-35.6988088349
0
LINE
5
259
100
AcDbEntity
8
0
100
AcDbLine
62
7
6
CONTINUOUS
10
-76.8430927536
20
-53.1301547037
11
-76.8430927536
21
-35.8096466281
0
LINE
5
25A
100
AcDbEntity
8
CURVE
100
AcDbLine
62
7
6
CONTINUOUS
10
-72.9540054570
20
-29.9772017237
11
-72.9540054570
21
-29.4244194879
0
LINE
5
25B
100
AcDbEntity
8
CURVE
100
AcDbLine
62
7
6
CONTINUOUS
10
-71.1862385041
20
-30.3831432920
11
-71.1862385041
21
-29.0933182472
0
LINE
5
25C
100
AcDbEntity
8
CURVE
100
AcDbLine
62
7
6
CONTINUOUS
10
-71.1862385041
20
-26.7900590820
11
-71.1862385041
21
-28.5405360114
0
LINE
5
25D
100
AcDbEntity
8
CURVE
100
AcDbLine
62
7
6
CONTINUOUS
10
-70.7442967658
20
-25.8320454039
11
-70.7442967658
21
-28.3195651423
0
LINE
5
25E
100
AcDbEntity
8
CURVE
100
AcDbLine
62
7
6
CONTINUOUS
10
-70.7442967658
20
-28.8723473781
11
-70.7442967658
21
-30.1621724228
0
LINE
5
25F
100
AcDbEntity
8
CURVE
100
AcDbLine
62
7
6
CONTINUOUS
10
-70.0077272723
20
-27.9512803956
11
-70.0077272723
21
-28.5040626313
0
LINE
5
260
100
AcDbEntity
8
0
100
AcDbLine
62
7
6
CONTINUOUS
10
-67.2971512075
20
-31.0366758550
11
-67.2971512075
21
-47.2965237590
0
LINE
5
261
100
AcDbEntity
8
0
100
AcDbLine
62
7
6
CONTINUOUS
10
-66.2364910358
20
-30.5063457692
11
-66.2364910358
21
-47.8268538448
0
LINE
5
262
100
AcDbEntity
8
CURVE
100
AcDbLine
62
7
6
CONTINUOUS
10
-89.0406847290
20
-38.2969324130
11
-89.1143416152
21
-38.6101519740
0
LINE
5
263
100
AcDbEntity
8
CURVE
100
AcDbLine
62
7
6
CONTINUOUS
10
-89.6299404503
20
-36.8410834733
11
-89.4826264673
21
-36.3989050773
0
LINE
5
264
100
AcDbEntity
8
CURVE
100
AcDbLine
62
7
6
CONTINUOUS
10
-89.4826264673
20
-38.7021639844
11
-89.4089695811
21
-38.4810748391
0
LINE
5
265
100
AcDbEntity
8
CURVE
100
AcDbLine
62
7
6
CONTINUOUS
10
-91.1030794899
20
-36.7484795749
11
-91.2503934202
21
-37.0985275935
0
LINE
5
266
100
AcDbEntity
8
CURVE
100
AcDbLine
62
7
6
CONTINUOUS
10
-89.1879987120
20
-36.6201126042
11
-89.3353124843
21
-36.9701605437
0
LINE
5
267
100
AcDbEntity
8
CURVE
100
AcDbLine
62
7
6
CONTINUOUS
10
-89.1143416152
20
-38.6101519740
11
-89.2616555982
21
-38.9602000189
0
LINE
5
268
100
AcDbEntity
8
CURVE
100
AcDbLine
62
7
6
CONTINUOUS
10
-110.2833509428
20
-46.2464849502
11
-109.9887231217
21
-45.7306496352
0
LINE
5
269
100
AcDbEntity
8
CURVE
100
AcDbLine
62
7
6
CONTINUOUS
10
-110.4306648599
20
-49.5447046497
11
-108.3682701517
21
-46.2102483240
0
LINE
5
26A
100
AcDbEntity
8
CURVE
100
AcDbLine
62
7
6
CONTINUOUS
10
-107.9999852996
20
-46.3024969513
11
-109.8414091914
21
-49.2500768155
0
LINE
5
26B
100
AcDbEntity
8
CURVE
100
AcDbLine
62
7
6
CONTINUOUS
10
-108.3682701517
20
-45.3810749058
11
-108.5892410208
21
-45.3072996381
0
LINE
5
26C
100
AcDbEntity
8
CURVE
100
AcDbLine
62
7
6
CONTINUOUS
10
-91.2503934202
20
-40.1388296644
11
-91.4713642894
21
-40.0650543645
0
LINE
5
26D
100
AcDbEntity
8
0
100
AcDbLine
62
7
6
CONTINUOUS
10
-66.2364910358
20
-47.8268538448
11
-67.2971512075
21
-47.2965237590
0
LINE
5
26E
100
AcDbEntity
8
0
100
AcDbLine
62
7
6
CONTINUOUS
10
-58.1047630521
20
-43.7609898530
11
-58.1047630521
21
-26.4404817773
0
LINE
5
26F
100
AcDbEntity
8
CURVE
100
AcDbLine
62
7
6
CONTINUOUS
10
-54.2156757556
20
-17.5677348988
11
-54.2156757556
21
-19.9631242861
0
LINE
5
270
100
AcDbEntity
8
CURVE
100
AcDbLine
62
7
6
CONTINUOUS
10
-53.8473909825
20
-19.3183301439
11
-53.8473909825
21
-17.8442442679
0
LINE
5
271
100
AcDbEntity
8
CURVE
100
AcDbLine
62
7
6
CONTINUOUS
10
-51.9323101783
20
-19.2820933820
11
-51.9323101783
21
-19.4663540843
0
LINE
5
272
100
AcDbEntity
8
CURVE
100
AcDbLine
62
7
6
CONTINUOUS
10
-51.7113393091
20
-16.7762184312
11
-51.7113393091
21
-16.3155666756
0
LINE
5
273
100
AcDbEntity
8
CURVE
100
AcDbLine
62
7
6
CONTINUOUS
10
-51.5640253261
20
-19.3743420094
11
-51.5640253261
21
-19.0058206049
0
LINE
5
274
100
AcDbEntity
8
CURVE
100
AcDbLine
62
7
6
CONTINUOUS
10
-91.5450212413
20
-36.8773200995
11
-91.2503934202
21
-36.3614847845
0
LINE
5
275
100
AcDbEntity
8
CURVE
100
AcDbLine
62
7
6
CONTINUOUS
10
-89.7772542225
20
-37.0990010617
11
-89.6299404503
21
-36.8410834733
0
LINE
5
276
100
AcDbEntity
8
CURVE
100
AcDbLine
62
7
6
CONTINUOUS
10
-89.6299404503
20
-38.9600817427
11
-89.4826264673
21
-38.7021639844
0
LINE
5
277
100
AcDbEntity
8
CURVE
100
AcDbLine
62
7
6
CONTINUOUS
10
-89.3353124843
20
-36.9701605437
11
-89.6299404503
21
-37.3938655800
0
LINE
5
278
100
AcDbEntity
8
CURVE
100
AcDbLine
62
7
6
CONTINUOUS
10
-109.6204383223
20
-45.8228982889
11
-109.8414091914
21
-46.1176444257
0
LINE
5
279
100
AcDbEntity
8
CURVE
100
AcDbLine
62
7
6
CONTINUOUS
10
-108.4419270378
20
-44.7729908910
11
-108.1472992826
21
-44.8099377157
0
LINE
5
27A
100
AcDbEntity
8
CURVE
100
AcDbLine
62
7
6
CONTINUOUS
10
-89.5562833534
20
-37.8176887872
11
-89.7772542225
21
-37.7439135195
0
LINE
5
27B
100
AcDbEntity
8
CURVE
100
AcDbLine
62
7
6
CONTINUOUS
10
-89.6299404503
20
-36.0119100551
11
-89.8509113194
21
-35.9381347874
0
LINE
5
27C
100
AcDbEntity
8
0
100
AcDbLine
62
7
6
CONTINUOUS
10
-47.4981613343
20
-38.4576889941
11
-48.5588215061
21
-37.9273589082
0
LINE
5
27D
100
AcDbEntity
8
CURVE
100
AcDbLine
62
7
6
CONTINUOUS
10
-54.0683618385
20
-21.0871620856
11
-53.8473909825
21
-21.3451980944
0
LINE
5
27E
100
AcDbEntity
8
CURVE
100
AcDbLine
62
7
6
CONTINUOUS
10
-52.1532810474
20
-18.8397965808
11
-52.0059670644
21
-19.0425306427
0
LINE
5
27F
100
AcDbEntity
8
CURVE
100
AcDbLine
62
7
6
CONTINUOUS
10
-54.2156757556
20
-20.7922975752
11
-54.0683618385
21
-21.0871620856
0
LINE
5
280
100
AcDbEntity
8
CURVE
100
AcDbLine
62
7
6
CONTINUOUS
10
-53.6264200870
20
-20.8661912099
11
-53.7737340174
21
-20.5713267061
0
LINE
5
281
100
AcDbEntity
8
CURVE
100
AcDbLine
62
7
6
CONTINUOUS
10
-51.5640253261
20
-19.0058206049
11
-51.7113393091
21
-18.6188257117
0
LINE
5
282
100
AcDbEntity
8
CURVE
100
AcDbLine
62
7
6
CONTINUOUS
10
-52.0059670644
20
-19.0425306427
11
-51.9323101783
21
-19.2820933820
0
LINE
5
283
100
AcDbEntity
8
0
100
AcDbLine
62
7
6
CONTINUOUS
10
-48.5588215061
20
-21.6675110043
11
-48.5588215061
21
-37.9273589082
0
LINE
5
284
100
AcDbEntity
8
0
100
AcDbLine
62
7
6
CONTINUOUS
10
-47.4981613343
20
-21.1371809184
11
-47.4981613343
21
-38.4576889941
0
LINE
5
285
100
AcDbEntity
8
0
100
AcDbLine
62
7
6
CONTINUOUS
10
-39.3664333507
20
-34.3918250023
11
-39.3664333507
21
-17.0713169266
0
LINE
5
286
100
AcDbEntity
8
CURVE
100
AcDbLine
62
7
6
CONTINUOUS
10
-51.9323101783
20
-19.4663540843
11
-52.0059670644
21
-19.7795735807
0
LINE
5
287
100
AcDbEntity
8
CURVE
100
AcDbLine
62
7
6
CONTINUOUS
10
-51.7113393091
20
-19.9086508210
11
-51.5640253261
21
-19.3743420094
0
LINE
5
288
100
AcDbEntity
8
CURVE
100
AcDbLine
62
7
6
CONTINUOUS
10
-52.0059670644
20
-19.7795735807
11
-52.1532810474
21
-20.1296216901
0
LINE
5
289
100
AcDbEntity
8
CURVE
100
AcDbLine
62
7
6
CONTINUOUS
10
-51.9323101783
20
-20.3876576923
11
-51.7113393091
21
-19.9086508210
0
LINE
5
28A
100
AcDbEntity
8
CURVE
100
AcDbLine
62
7
6
CONTINUOUS
10
-72.9540054570
20
-29.4244194879
11
-71.1862385041
21
-26.0530162730
0
LINE
5
28B
100
AcDbEntity
8
CURVE
100
AcDbLine
62
7
6
CONTINUOUS
10
-72.4384067800
20
-29.1666201494
11
-71.1862385041
21
-26.7900590820
0
LINE
5
28C
100
AcDbEntity
8
CURVE
100
AcDbLine
62
7
6
CONTINUOUS
10
-90.8821086208
20
-36.4537334381
11
-91.1030794899
21
-36.7484795749
0
LINE
5
28D
100
AcDbEntity
8
CURVE
100
AcDbLine
62
7
6
CONTINUOUS
10
-89.2616555982
20
-38.9602000189
11
-89.4826264673
21
-39.2549461879
0
LINE
5
28E
100
AcDbEntity
8
CURVE
100
AcDbLine
62
7
6
CONTINUOUS
10
-109.9887231217
20
-45.7306496352
11
-109.6940953138
21
-45.3990750290
0
LINE
5
28F
100
AcDbEntity
8
CURVE
100
AcDbLine
62
7
6
CONTINUOUS
10
-91.2503934202
20
-36.3614847845
11
-90.9557656123
21
-36.0299101783
0
LINE
5
290
100
AcDbEntity
8
CURVE
100
AcDbLine
62
7
6
CONTINUOUS
10
-89.7772542225
20
-39.1258689799
11
-89.6299404503
21
-38.9600817427
0
LINE
5
291
100
AcDbEntity
8
CURVE
100
AcDbLine
62
7
6
CONTINUOUS
10
-89.4826264673
20
-39.2549461879
11
-89.7772542225
21
-39.5865207920
0
LINE
5
292
100
AcDbEntity
8
CURVE
100
AcDbLine
62
7
6
CONTINUOUS
10
-90.9557656123
20
-40.1757764869
11
-91.2503934202
21
-40.1388296644
0
LINE
5
293
100
AcDbEntity
8
CURVE
100
AcDbLine
62
7
6
CONTINUOUS
10
-91.1030794899
20
-39.6966512625
11
-90.9557656123
21
-39.7151246748
0
LINE
5
294
100
AcDbEntity
8
CURVE
100
AcDbLine
62
7
6
CONTINUOUS
10
-89.7772542225
20
-35.4406544834
11
-89.4826264673
21
-35.4776013080
0
LINE
5
295
100
AcDbEntity
8
0
100
AcDbLine
62
7
6
CONTINUOUS
10
-28.7598316329
20
-29.0885241434
11
-29.8204918047
21
-28.5581940575
0
LINE
5
296
100
AcDbEntity
8
CURVE
100
AcDbLine
62
7
6
CONTINUOUS
10
-51.7113393091
20
-18.6188257117
11
-51.9323101783
21
-18.3607897418
0
LINE
5
297
100
AcDbEntity
8
CURVE
100
AcDbLine
62
7
6
CONTINUOUS
10
-35.4773460542
20
-10.0411773286
11
-35.4773460542
21
-10.6860897865
0
LINE
5
298
100
AcDbEntity
8
CURVE
100
AcDbLine
62
7
6
CONTINUOUS
10
-35.1090612811
20
-10.0412956443
11
-35.1090612811
21
-9.8570349421
0
LINE
5
299
100
AcDbEntity
8
CURVE
100
AcDbLine
62
7
6
CONTINUOUS
10
-35.0354043159
20
-10.7415100998
11
-35.0354043159
21
-11.0179011531
0
LINE
5
29A
100
AcDbEntity
8
CURVE
100
AcDbLine
62
7
6
CONTINUOUS
10
-33.1939804768
20
-10.0971892336
11
-33.1939804768
21
-9.8207981802
0
LINE
5
29B
100
AcDbEntity
8
CURVE
100
AcDbLine
62
7
6
CONTINUOUS
10
-32.8256956247
20
-10.0051771586
11
-32.8256956247
21
-9.5445252740
0
LINE
5
29C
100
AcDbEntity
8
0
100
AcDbLine
62
7
6
CONTINUOUS
10
-29.8204918047
20
-12.2983461536
11
-29.8204918047
21
-28.5581940575
0
LINE
5
29D
100
AcDbEntity
8
0
100
AcDbLine
62
7
6
CONTINUOUS
10
-28.7598316329
20
-11.7680160677
11
-28.7598316329
21
-29.0885241434
0
LINE
5
29E
100
AcDbEntity
8
CURVE
100
AcDbLine
62
7
6
CONTINUOUS
10
-35.4036890956
20
-9.3594363915
11
-35.4773460542
21
-10.0411773286
0
LINE
5
29F
100
AcDbEntity
8
CURVE
100
AcDbLine
62
7
6
CONTINUOUS
10
-35.1090612811
20
-9.8570349421
11
-35.0354043159
21
-9.2674243528
0
LINE
5
2A0
100
AcDbEntity
8
CURVE
100
AcDbLine
62
7
6
CONTINUOUS
10
-35.0354043159
20
-9.2674243528
11
-34.9617473771
21
-8.9542045719
0
LINE
5
2A1
100
AcDbEntity
8
CURVE
100
AcDbLine
62
7
6
CONTINUOUS
10
-34.9617473771
20
-10.4282904479
11
-35.0354043159
21
-10.7415100998
0
LINE
5
2A2
100
AcDbEntity
8
CURVE
100
AcDbLine
62
7
6
CONTINUOUS
10
-33.2676373629
20
-10.4104087300
11
-33.1939804768
21
-10.0971892336
0
LINE
5
2A3
100
AcDbEntity
8
CURVE
100
AcDbLine
62
7
6
CONTINUOUS
10
-35.2563751850
20
-8.8251274225
11
-35.4036890956
21
-9.3594363915
0
LINE
5
2A4
100
AcDbEntity
8
CURVE
100
AcDbLine
62
7
6
CONTINUOUS
10
-32.9730096077
20
-10.5394859703
11
-32.8256956247
21
-10.0051771586
0
LINE
5
2A5
100
AcDbEntity
8
CURVE
100
AcDbLine
62
7
6
CONTINUOUS
10
-34.9617473771
20
-8.9542045719
11
-34.8144334468
21
-8.6041565534
0
LINE
5
2A6
100
AcDbEntity
8
CURVE
100
AcDbLine
62
7
6
CONTINUOUS
10
-33.4149513459
20
-10.7604568394
11
-33.2676373629
21
-10.4104087300
0
LINE
5
2A7
100
AcDbEntity
8
CURVE
100
AcDbLine
62
7
6
CONTINUOUS
10
-35.0354043159
20
-8.3461205834
11
-35.2563751850
21
-8.8251274225
0
LINE
5
2A8
100
AcDbEntity
8
CURVE
100
AcDbLine
62
7
6
CONTINUOUS
10
-33.1939804768
20
-11.0184928416
11
-32.9730096077
21
-10.5394859703
0
LINE
5
2A9
100
AcDbEntity
8
CURVE
100
AcDbLine
62
7
6
CONTINUOUS
10
-34.8144334468
20
-10.1703727805
11
-34.9617473771
21
-10.4282904479
0
LINE
5
2AA
100
AcDbEntity
8
CURVE
100
AcDbLine
62
7
6
CONTINUOUS
10
-53.7000770785
20
-19.7053249475
11
-53.4054492179
21
-19.2816199639
0
LINE
5
2AB
100
AcDbEntity
8
CURVE
100
AcDbLine
62
7
6
CONTINUOUS
10
-52.1532810474
20
-20.1296216901
11
-52.3742519165
21
-20.4243678269
0
LINE
5
2AC
100
AcDbEntity
8
CURVE
100
AcDbLine
62
7
6
CONTINUOUS
10
-53.4791062094
20
-18.8577967040
11
-53.8473909825
21
-19.3183301439
0
LINE
5
2AD
100
AcDbEntity
8
CURVE
100
AcDbLine
62
7
6
CONTINUOUS
10
-52.3005948196
20
-20.8481910905
11
-51.9323101783
21
-20.3876576923
0
LINE
5
2AE
100
AcDbEntity
8
CURVE
100
AcDbLine
62
7
6
CONTINUOUS
10
-90.2191960661
20
-37.5042326857
11
-89.7772542225
21
-37.0990010617
0
LINE
5
2AF
100
AcDbEntity
8
CURVE
100
AcDbLine
62
7
6
CONTINUOUS
10
-89.7772542225
20
-39.5865207920
11
-90.0718820831
21
-39.8259650815
0
LINE
5
2B0
100
AcDbEntity
8
CURVE
100
AcDbLine
62
7
6
CONTINUOUS
10
-109.2521535228
20
-45.5466255380
11
-109.6204383223
21
-45.8228982889
0
LINE
5
2B1
100
AcDbEntity
8
CURVE
100
AcDbLine
62
7
6
CONTINUOUS
10
-90.5138238214
20
-36.1774606873
11
-90.8821086208
21
-36.4537334381
0
LINE
5
2B2
100
AcDbEntity
8
CURVE
100
AcDbLine
62
7
6
CONTINUOUS
10
98.5842070321
20
56.4368171078
11
98.1422652938
21
56.3079765898
0
LINE
5
2B3
100
AcDbEntity
8
CURVE
100
AcDbLine
62
7
6
CONTINUOUS
10
-89.6299404503
20
-37.3938655800
11
-89.2616555982
21
-37.3939838562
0
LINE
5
2B4
100
AcDbEntity
8
CURVE
100
AcDbLine
62
7
6
CONTINUOUS
10
-53.8473909825
20
-21.3451980944
11
-53.4791062094
21
-21.4374467854
0
LINE
5
2B5
100
AcDbEntity
8
CURVE
100
AcDbLine
62
7
6
CONTINUOUS
10
-51.9323101783
20
-18.3607897418
11
-52.3005948196
21
-18.2685410091
0
LINE
5
2B6
100
AcDbEntity
8
CURVE
100
AcDbLine
62
7
6
CONTINUOUS
10
-53.4054492179
20
-20.9399664776
11
-53.6264200870
21
-20.8661912099
0
LINE
5
2B7
100
AcDbEntity
8
CURVE
100
AcDbLine
62
7
6
CONTINUOUS
10
-52.3742519165
20
-18.7660213131
11
-52.1532810474
21
-18.8397965808
0
LINE
5
2B8
100
AcDbEntity
8
CURVE
100
AcDbLine
62
7
6
CONTINUOUS
10
-33.2676373629
20
-9.5812354409
11
-33.4149513459
21
-9.4706317301
0
LINE
5
2B9
100
AcDbEntity
8
CURVE
100
AcDbLine
62
7
6
CONTINUOUS
10
-32.9730096077
20
-9.1575305099
11
-33.1939804768
21
-8.9916248911
0
LINE
5
2BA
100
AcDbEntity
8
CURVE
100
AcDbLine
62
7
6
CONTINUOUS
10
-35.2563751850
20
-11.6811687589
11
-35.0354043159
21
-11.9392047611
0
LINE
5
2BB
100
AcDbEntity
8
CURVE
100
AcDbLine
62
7
6
CONTINUOUS
10
-33.0466664938
20
-7.7202730769
11
-33.2676373629
21
-7.4622371070
0
LINE
5
2BC
100
AcDbEntity
8
CURVE
100
AcDbLine
62
7
6
CONTINUOUS
10
-34.9617473771
20
-11.2574637371
11
-34.8144334468
21
-11.4601978898
0
LINE
5
2BD
100
AcDbEntity
8
CURVE
100
AcDbLine
62
7
6
CONTINUOUS
10
-33.4886082321
20
-7.9412439460
11
-33.3412942491
21
-8.1439780079
0
LINE
5
2BE
100
AcDbEntity
8
CURVE
100
AcDbLine
62
7
6
CONTINUOUS
10
-35.4036890956
20
-11.2941738941
11
-35.2563751850
21
-11.6811687589
0
LINE
5
2BF
100
AcDbEntity
8
CURVE
100
AcDbLine
62
7
6
CONTINUOUS
10
-32.8256956247
20
-9.5445252740
11
-32.9730096077
21
-9.1575305099
0
LINE
5
2C0
100
AcDbEntity
8
CURVE
100
AcDbLine
62
7
6
CONTINUOUS
10
-35.0354043159
20
-11.0179011531
11
-34.9617473771
21
-11.2574637371
0
LINE
5
2C1
100
AcDbEntity
8
CURVE
100
AcDbLine
62
7
6
CONTINUOUS
10
-33.1939804768
20
-9.8207981802
11
-33.2676373629
21
-9.5812354409
0
LINE
5
2C2
100
AcDbEntity
8
CURVE
100
AcDbLine
62
7
6
CONTINUOUS
10
-32.9730096077
20
-7.9598356872
11
-33.0466664938
21
-7.7202730769
0
LINE
5
2C3
100
AcDbEntity
8
CURVE
100
AcDbLine
62
7
6
CONTINUOUS
10
-35.4773460542
20
-10.6860897865
11
-35.4036890956
21
-11.2941738941
0
LINE
5
2C4
100
AcDbEntity
8
0
100
AcDbLine
62
7
6
CONTINUOUS
10
-20.6281036492
20
-25.0226601516
11
-20.6281036492
21
-7.7021520759
0
LINE
5
2C5
100
AcDbEntity
8
CURVE
100
AcDbLine
62
7
6
CONTINUOUS
10
-16.7390163527
20
0.7099430470
11
-16.7390163527
21
1.1705948027
0
LINE
5
2C6
100
AcDbEntity
8
CURVE
100
AcDbLine
62
7
6
CONTINUOUS
10
-14.0873659233
20
2.4964200174
11
-14.0873659233
21
2.0357682618
0
LINE
5
2C7
100
AcDbEntity
8
0
100
AcDbLine
62
7
6
CONTINUOUS
10
-11.0821621032
20
-2.9291813029
11
-11.0821621032
21
-19.1890292068
0
LINE
5
2C8
100
AcDbEntity
8
0
100
AcDbLine
62
7
6
CONTINUOUS
10
-10.0215019314
20
-2.3988512170
11
-10.0215019314
21
-19.7193592927
0
LINE
5
2C9
100
AcDbEntity
8
CURVE
100
AcDbLine
62
7
6
CONTINUOUS
10
-16.0024468065
20
-2.7912474432
11
-14.5293076615
21
1.8147973926
0
LINE
5
2CA
100
AcDbEntity
8
CURVE
100
AcDbLine
62
7
6
CONTINUOUS
10
-14.0873659233
20
2.0357682618
11
-15.5605050156
21
-2.5702765477
0
LINE
5
2CB
100
AcDbEntity
8
CURVE
100
AcDbLine
62
7
6
CONTINUOUS
10
-34.8144334468
20
-8.6041565534
11
-34.5934625777
21
-8.3094104166
0
LINE
5
2CC
100
AcDbEntity
8
CURVE
100
AcDbLine
62
7
6
CONTINUOUS
10
-34.6671195165
20
-9.4518033575
11
-35.1090612811
21
-10.0412956443
0
LINE
5
2CD
100
AcDbEntity
8
CURVE
100
AcDbLine
62
7
6
CONTINUOUS
10
-34.5934625777
20
-9.8756266437
11
-34.8144334468
21
-10.1703727805
0
LINE
5
2CE
100
AcDbEntity
8
CURVE
100
AcDbLine
62
7
6
CONTINUOUS
10
-33.6359222151
20
-11.0552029762
11
-33.4149513459
21
-10.7604568394
0
LINE
5
2CF
100
AcDbEntity
8
CURVE
100
AcDbLine
62
7
6
CONTINUOUS
10
-34.6671195165
20
-7.8855871304
11
-35.0354043159
21
-8.3461205834
0
LINE
5
2D0
100
AcDbEntity
8
CURVE
100
AcDbLine
62
7
6
CONTINUOUS
10
-33.5622651182
20
-11.4790262398
11
-33.1939804768
21
-11.0184928416
0
LINE
5
2D1
100
AcDbEntity
8
CURVE
100
AcDbLine
62
7
6
CONTINUOUS
10
-34.5934625777
20
-8.3094104166
11
-34.3724917085
21
-8.1067946309
0
LINE
5
2D2
100
AcDbEntity
8
CURVE
100
AcDbLine
62
7
6
CONTINUOUS
10
-34.3724917085
20
-9.6730108580
11
-34.5934625777
21
-9.8756266437
0
LINE
5
2D3
100
AcDbEntity
8
CURVE
100
AcDbLine
62
7
6
CONTINUOUS
10
-33.8568929788
20
-11.2578187092
11
-33.6359222151
21
-11.0552029762
0
LINE
5
2D4
100
AcDbEntity
8
CURVE
100
AcDbLine
62
7
6
CONTINUOUS
10
-53.4054492179
20
-19.2816199639
11
-53.1108214100
21
-19.0421757088
0
LINE
5
2D5
100
AcDbEntity
8
CURVE
100
AcDbLine
62
7
6
CONTINUOUS
10
-52.3742519165
20
-20.4243678269
11
-52.6688796717
21
-20.6638120557
0
LINE
5
2D6
100
AcDbEntity
8
CURVE
100
AcDbLine
62
7
6
CONTINUOUS
10
-90.1455390746
20
-39.4021417571
11
-89.7772542225
21
-39.1258689799
0
LINE
5
2D7
100
AcDbEntity
8
CURVE
100
AcDbLine
62
7
6
CONTINUOUS
10
-53.1108214100
20
-18.5815239532
11
-53.4791062094
21
-18.8577967040
0
LINE
5
2D8
100
AcDbEntity
8
CURVE
100
AcDbLine
62
7
6
CONTINUOUS
10
-52.6688796717
20
-21.1244638758
11
-52.3005948196
21
-20.8481910905
0
LINE
5
2D9
100
AcDbEntity
8
CURVE
100
AcDbLine
62
7
6
CONTINUOUS
10
-34.2988347171
20
-7.6093143795
11
-34.6671195165
21
-7.8855871304
0
LINE
5
2DA
100
AcDbEntity
8
CURVE
100
AcDbLine
62
7
6
CONTINUOUS
10
-34.2988347171
20
-9.1755306067
11
-34.6671195165
21
-9.4518033575
0
LINE
5
2DB
100
AcDbEntity
8
CURVE
100
AcDbLine
62
7
6
CONTINUOUS
10
-109.6940953138
20
-45.3990750290
11
-109.1784966367
21
-45.0491453393
0
LINE
5
2DC
100
AcDbEntity
8
CURVE
100
AcDbLine
62
7
6
CONTINUOUS
10
-90.9557656123
20
-36.0299101783
11
-90.4401669353
21
-35.6799804886
0
LINE
5
2DD
100
AcDbEntity
8
0
100
AcDbLine
62
7
6
CONTINUOUS
10
159.1537954674
20
99.6521701397
11
-147.7305475675
21
-53.7900013777
0
LINE
5
2DE
100
AcDbEntity
8
0
100
AcDbLine
62
7
6
CONTINUOUS
10
-148.6092272240
20
-55.6800818075
11
-156.0346309093
21
-59.3927836501
0
LINE
5
2DF
100
AcDbEntity
8
0
100
AcDbLine
62
7
6
CONTINUOUS
10
-165.5894151297
20
-64.1701757603
11
-174.7729606107
21
-68.7619485009
0
LINE
5
2E0
100
AcDbEntity
8
0
100
AcDbLine
62
9
6
CONTINUOUS
10
166.9319700605
20
97.8844031868
11
-144.1950136616
21
-57.6790886743
0
LINE
5
2E1
100
AcDbEntity
8
0
100
AcDbLine
62
7
6
CONTINUOUS
10
-155.8622755512
20
-63.8662730097
11
-145.6092272240
21
-58.7397488461
0
LINE
5
2E2
100
AcDbEntity
8
0
100
AcDbLine
62
7
6
CONTINUOUS
10
169.0532904041
20
98.5915099680
11
179.3063387313
21
103.7180341316
0
LINE
5
2E3
100
AcDbEntity
8
0
100
AcDbLine
62
7
6
CONTINUOUS
10
-157.6074891828
20
-65.4825136458
11
-160.0695608992
21
-66.7135495040
0
LINE
5
2E4
100
AcDbEntity
8
0
100
AcDbLine
62
7
6
CONTINUOUS
10
-169.6862131234
20
-71.5218756161
11
-177.7825857679
21
-75.5700619384
0
LINE
5
2E5
100
AcDbEntity
8
0
100
AcDbLine
62
7
6
CONTINUOUS
10
-154.8016153794
20
-64.3966030955
11
-144.5485670522
21
-59.2700789319
0
LINE
5
2E6
100
AcDbEntity
8
0
100
AcDbLine
62
7
6
CONTINUOUS
10
170.1139505758
20
98.0611798821
11
180.3669989030
21
103.1877040457
0
LINE
5
2E7
100
AcDbEntity
8
CURVE
100
AcDbLine
62
7
6
CONTINUOUS
10
98.0686084077
20
58.5744071829
11
98.5842070321
21
58.7400761439
0
LINE
5
2E8
100
AcDbEntity
8
CURVE
100
AcDbLine
62
7
6
CONTINUOUS
10
79.4775926892
20
49.2788993236
11
79.9195344275
21
49.4077398416
0
LINE
5
2E9
100
AcDbEntity
8
CURVE
100
AcDbLine
62
7
6
CONTINUOUS
10
42.7168789023
20
30.8064120790
11
42.2749371641
21
30.6775715610
0
LINE
5
2EA
100
AcDbEntity
8
CURVE
100
AcDbLine
62
7
6
CONTINUOUS
10
41.8329954258
20
26.2186040322
11
42.2749371641
21
26.3474445421
0
LINE
5
2EB
100
AcDbEntity
8
CURVE
100
AcDbLine
62
7
6
CONTINUOUS
10
-108.5892410208
20
-45.3072996381
11
-108.9575257676
21
-45.3993116604
0
LINE
5
2EC
100
AcDbEntity
8
CURVE
100
AcDbLine
62
7
6
CONTINUOUS
10
-90.9557656123
20
-39.7151246748
11
-90.5874808129
21
-39.6231126262
0
LINE
5
2ED
100
AcDbEntity
8
CURVE
100
AcDbLine
62
7
6
CONTINUOUS
10
-89.8509113194
20
-35.9381347874
11
-90.2191960661
21
-36.0301468097
0
LINE
5
2EE
100
AcDbEntity
8
CURVE
100
AcDbLine
62
7
6
CONTINUOUS
10
-90.6611378044
20
-40.1205929421
11
-90.9557656123
21
-40.1757764869
0
LINE
5
2EF
100
AcDbEntity
8
CURVE
100
AcDbLine
62
7
6
CONTINUOUS
10
-35.0354043159
20
-11.9392047611
11
-34.6671195165
21
-12.0314534390
0
LINE
5
2F0
100
AcDbEntity
8
CURVE
100
AcDbLine
62
7
6
CONTINUOUS
10
-33.1939804768
20
-8.9916248911
11
-33.5622651182
21
-8.8993761584
0
LINE
5
2F1
100
AcDbEntity
8
CURVE
100
AcDbLine
62
7
6
CONTINUOUS
10
-33.2676373629
20
-7.4622371070
11
-33.6359222151
21
-7.3699884796
0
LINE
5
2F2
100
AcDbEntity
8
CURVE
100
AcDbLine
62
7
6
CONTINUOUS
10
-34.8144334468
20
-11.4601978898
11
-34.5934625777
21
-11.5339731575
0
LINE
5
2F3
100
AcDbEntity
8
CURVE
100
AcDbLine
62
7
6
CONTINUOUS
10
-33.4149513459
20
-9.4706317301
11
-33.6359222151
21
-9.3968564624
0
LINE
5
2F4
100
AcDbEntity
8
CURVE
100
AcDbLine
62
7
6
CONTINUOUS
10
-33.7095791012
20
-7.8674686783
11
-33.4886082321
21
-7.9412439460
0
LINE
5
2F5
100
AcDbEntity
8
0
100
AcDbLine
62
7
6
CONTINUOUS
10
-10.0215019314
20
-19.7193592927
11
-11.0821621032
21
-19.1890292068
0
LINE
5
2F6
100
AcDbEntity
8
0
100
AcDbLine
62
7
6
CONTINUOUS
10
-1.8897739478
20
-15.6534953009
11
-1.8897739478
21
1.6670127748
0
LINE
5
2F7
100
AcDbEntity
8
CURVE
100
AcDbLine
62
7
6
CONTINUOUS
10
1.9993133487
20
7.5915880303
11
1.9993133487
21
7.3151969770
0
LINE
5
2F8
100
AcDbEntity
8
CURVE
100
AcDbLine
62
7
6
CONTINUOUS
10
2.0729703073
20
9.4710236611
11
2.0729703073
21
9.1946326077
0
LINE
5
2F9
100
AcDbEntity
8
CURVE
100
AcDbLine
62
7
6
CONTINUOUS
10
2.3675981218
20
7.7757304169
11
2.3675981218
21
7.4993393635
0
LINE
5
2FA
100
AcDbEntity
8
CURVE
100
AcDbLine
62
7
6
CONTINUOUS
10
2.4412550870
20
9.6551660509
11
2.4412550870
21
9.4709053487
0
LINE
5
2FB
100
AcDbEntity
8
CURVE
100
AcDbLine
62
7
6
CONTINUOUS
10
2.2202842179
20
10.0053326301
11
2.0729703073
21
9.4710236611
0
LINE
5
2FC
100
AcDbEntity
8
CURVE
100
AcDbLine
62
7
6
CONTINUOUS
10
2.1466272659
20
8.1258968736
11
1.9993133487
21
7.5915880303
0
LINE
5
2FD
100
AcDbEntity
8
CURVE
100
AcDbLine
62
7
6
CONTINUOUS
10
4.5036497952
20
8.1067133801
11
4.6509637782
21
8.6410221917
0
LINE
5
2FE
100
AcDbEntity
8
CURVE
100
AcDbLine
62
7
6
CONTINUOUS
10
4.4299929091
20
10.0046225041
11
4.5773068921
21
10.4468009001
0
LINE
5
2FF
100
AcDbEntity
8
CURVE
100
AcDbLine
62
7
6
CONTINUOUS
10
2.5885690173
20
10.0052143276
11
2.4412550870
21
9.6551660509
0
LINE
5
300
100
AcDbEntity
8
CURVE
100
AcDbLine
62
7
6
CONTINUOUS
10
4.0617080570
20
10.0047407803
11
4.2090220399
21
10.3547888252
0
LINE
5
301
100
AcDbEntity
8
CURVE
100
AcDbLine
62
7
6
CONTINUOUS
10
2.5885690173
20
8.2547373981
11
2.3675981218
21
7.7757304169
0
LINE
5
302
100
AcDbEntity
8
CURVE
100
AcDbLine
62
7
6
CONTINUOUS
10
4.0617080570
20
7.9778728621
11
4.2826789261
21
8.4568797656
0
LINE
5
303
100
AcDbEntity
8
CURVE
100
AcDbLine
62
7
6
CONTINUOUS
10
2.4412550870
20
10.3922091180
11
2.2202842179
21
10.0053326301
0
LINE
5
304
100
AcDbEntity
8
CURVE
100
AcDbLine
62
7
6
CONTINUOUS
10
4.2090220399
20
9.6177460162
11
4.4299929091
21
10.0046225041
0
LINE
5
305
100
AcDbEntity
8
CURVE
100
AcDbLine
62
7
6
CONTINUOUS
10
4.2826789261
20
7.7198368599
11
4.5036497952
21
8.1067133801
0
LINE
5
306
100
AcDbEntity
8
CURVE
100
AcDbLine
62
7
6
CONTINUOUS
10
2.8831968252
20
10.4289192849
11
2.5885690173
21
10.0052143276
0
LINE
5
307
100
AcDbEntity
8
CURVE
100
AcDbLine
62
7
6
CONTINUOUS
10
2.4412550870
20
8.5496018375
11
2.1466272659
21
8.1258968736
0
LINE
5
308
100
AcDbEntity
8
CURVE
100
AcDbLine
62
7
6
CONTINUOUS
10
3.7670803017
20
9.5810358493
11
4.0617080570
21
10.0047407803
0
LINE
5
309
100
AcDbEntity
8
CURVE
100
AcDbLine
62
7
6
CONTINUOUS
10
2.8095398864
20
10.8527425711
11
2.4412550870
21
10.3922091180
0
LINE
5
30A
100
AcDbEntity
8
CURVE
100
AcDbLine
62
7
6
CONTINUOUS
10
3.9143942847
20
7.2593034616
11
4.2826789261
21
7.7198368599
0
LINE
5
30B
100
AcDbEntity
8
CURVE
100
AcDbLine
62
7
6
CONTINUOUS
10
2.5885690173
20
8.7153891537
11
2.4412550870
21
8.5496018375
0
LINE
5
30C
100
AcDbEntity
8
CURVE
100
AcDbLine
62
7
6
CONTINUOUS
10
2.8831968252
20
8.5863120043
11
2.5885690173
21
8.2547373981
0
LINE
5
30D
100
AcDbEntity
8
CURVE
100
AcDbLine
62
7
6
CONTINUOUS
10
4.0617080570
20
9.4519586736
11
4.2090220399
21
9.6177460162
0
LINE
5
30E
100
AcDbEntity
8
CURVE
100
AcDbLine
62
7
6
CONTINUOUS
10
3.7670803017
20
7.6462982822
11
4.0617080570
21
7.9778728621
0
LINE
5
30F
100
AcDbEntity
8
CURVE
100
AcDbLine
62
7
6
CONTINUOUS
10
21.7688404043
20
19.9638714255
11
21.5478695878
21
19.7612556662
0
LINE
5
310
100
AcDbEntity
8
CURVE
100
AcDbLine
62
7
6
CONTINUOUS
10
22.2844391340
20
18.3790635099
11
22.5054100031
21
18.5816792956
0
LINE
5
311
100
AcDbEntity
8
CURVE
100
AcDbLine
62
7
6
CONTINUOUS
10
22.5054100031
20
17.0154631329
11
22.2844391340
21
16.8128473472
0
LINE
5
312
100
AcDbEntity
8
CURVE
100
AcDbLine
62
7
6
CONTINUOUS
10
3.1778246858
20
10.6683635663
11
2.8831968252
21
10.4289192849
0
LINE
5
313
100
AcDbEntity
8
CURVE
100
AcDbLine
62
7
6
CONTINUOUS
10
3.4724524411
20
9.3415915679
11
3.7670803017
21
9.5810358493
0
LINE
5
314
100
AcDbEntity
8
CURVE
100
AcDbLine
62
7
6
CONTINUOUS
10
3.1778246858
20
8.8257562858
11
2.8831968252
21
8.5863120043
0
LINE
5
315
100
AcDbEntity
8
CURVE
100
AcDbLine
62
7
6
CONTINUOUS
10
3.4724524411
20
7.4068540008
11
3.7670803017
21
7.6462982822
0
LINE
5
316
100
AcDbEntity
8
CURVE
100
AcDbLine
62
7
6
CONTINUOUS
10
-33.9305499703
20
-11.7552990251
11
-33.5622651182
21
-11.4790262398
0
LINE
5
317
100
AcDbEntity
8
CURVE
100
AcDbLine
62
7
6
CONTINUOUS
10
3.1778246858
20
11.1290153219
11
2.8095398864
21
10.8527425711
0
LINE
5
318
100
AcDbEntity
8
CURVE
100
AcDbLine
62
7
6
CONTINUOUS
10
3.5461094326
20
6.9830306764
11
3.9143942847
21
7.2593034616
0
LINE
5
319
100
AcDbEntity
8
CURVE
100
AcDbLine
62
7
6
CONTINUOUS
10
21.8424973958
20
20.4613516769
11
21.4742125964
21
20.1850789261
0
LINE
5
31A
100
AcDbEntity
8
CURVE
100
AcDbLine
62
7
6
CONTINUOUS
10
22.2107821425
20
17.8815831295
11
22.5790668893
21
18.1578559830
0
LINE
5
31B
100
AcDbEntity
8
CURVE
100
AcDbLine
62
7
6
CONTINUOUS
10
22.2107821425
20
16.3153670313
11
22.5790668893
21
16.5916397639
0
LINE
5
31C
100
AcDbEntity
8
CURVE
100
AcDbLine
62
7
6
CONTINUOUS
10
42.2749371641
20
30.2169198054
11
41.9066523120
21
29.9406470283
0
LINE
5
31D
100
AcDbEntity
8
CURVE
100
AcDbLine
62
7
6
CONTINUOUS
10
42.2749371641
20
30.6775715610
11
41.8329954258
21
30.3644703408
0
LINE
5
31E
100
AcDbEntity
8
0
100
AcDbLine
62
7
6
CONTINUOUS
10
168.1534330160
20
96.4095304664
11
168.3461836229
21
96.5059057698
0
LINE
5
31F
100
AcDbEntity
8
0
100
AcDbLine
62
7
6
CONTINUOUS
10
-143.8414602710
20
-60.6485763489
11
-143.1343483613
21
-60.2950203941
0
LINE
5
320
100
AcDbEntity
8
0
100
AcDbLine
62
9
6
CONTINUOUS
10
168.6997318850
20
95.6220197291
11
-143.1343483613
21
-60.2950203941
0
LINE
5
321
100
AcDbEntity
8
0
100
AcDbLine
62
7
6
CONTINUOUS
10
168.6997318850
20
95.6220197291
11
169.4068437947
21
95.9755756839
0
LINE
5
322
100
AcDbEntity
8
0
100
AcDbLine
62
7
6
CONTINUOUS
10
178.4224552548
20
99.9421155366
11
175.9475815206
21
98.7046786695
0
LINE
5
323
100
AcDbEntity
8
0
100
AcDbLine
62
7
6
CONTINUOUS
10
-150.3821979970
20
-64.4602110893
11
-152.8570717311
21
-65.6976479564
0
LINE
5
324
100
AcDbEntity
8
CURVE
100
AcDbLine
62
7
6
CONTINUOUS
10
154.3572543982
20
86.7187301781
11
154.0626266429
21
86.5714163005
0
LINE
5
325
100
AcDbEntity
8
CURVE
100
AcDbLine
62
7
6
CONTINUOUS
10
136.6501221562
20
77.8651640571
11
134.1457856044
21
76.6129957812
0
LINE
5
326
100
AcDbEntity
8
CURVE
100
AcDbLine
62
7
6
CONTINUOUS
10
-127.6663926513
20
-54.2930933467
11
-127.2244509131
21
-54.0721224775
0
LINE
5
327
100
AcDbEntity
8
CURVE
100
AcDbLine
62
7
6
CONTINUOUS
10
-109.1784966367
20
-45.0491453393
11
-108.8838687761
21
-44.9018314090
0
LINE
5
328
100
AcDbEntity
8
CURVE
100
AcDbLine
62
7
6
CONTINUOUS
10
-90.4401669353
20
-35.6799804886
11
-90.2928529523
21
-35.6063234971
0
LINE
5
329
100
AcDbEntity
8
CURVE
100
AcDbLine
62
7
6
CONTINUOUS
10
-71.1862385041
20
-26.0530162730
11
-70.7442967658
21
-25.8320454039
0
LINE
5
32A
100
AcDbEntity
8
CURVE
100
AcDbLine
62
7
6
CONTINUOUS
10
22.2107821425
20
20.6454940503
11
21.8424973958
21
20.4613516769
0
LINE
5
32B
100
AcDbEntity
8
CURVE
100
AcDbLine
62
7
6
CONTINUOUS
10
3.4724524411
20
11.2763291995
11
3.1778246858
21
11.1290153219
0
LINE
5
32C
100
AcDbEntity
8
CURVE
100
AcDbLine
62
7
6
CONTINUOUS
10
-16.7390163527
20
1.1705948027
11
-14.0873659233
21
2.4964200174
0
LINE
5
32D
100
AcDbEntity
8
CURVE
100
AcDbLine
62
7
6
CONTINUOUS
10
-34.0042069618
20
-7.4620005019
11
-34.2988347171
21
-7.6093143795
0
LINE
5
32E
100
AcDbEntity
8
CURVE
100
AcDbLine
62
7
6
CONTINUOUS
10
-51.7113393091
20
-16.3155666756
11
-54.2156757556
21
-17.5677348988
0
LINE
5
32F
100
AcDbEntity
8
CURVE
100
AcDbLine
62
7
6
CONTINUOUS
10
39.9179144899
20
29.4990602239
11
40.3598562281
21
29.7200310931
0
LINE
5
330
100
AcDbEntity
8
CURVE
100
AcDbLine
62
7
6
CONTINUOUS
10
58.9390869038
20
39.0096464309
11
59.3810286420
21
39.2306173000
0
LINE
5
331
100
AcDbEntity
8
CURVE
100
AcDbLine
62
7
6
CONTINUOUS
10
60.4122261015
20
39.7462160298
11
60.8541678397
21
39.9671868989
0
LINE
5
332
100
AcDbEntity
8
CURVE
100
AcDbLine
62
7
6
CONTINUOUS
10
76.8995991459
20
47.9899025520
11
77.3415408842
21
48.2108734211
0
LINE
5
333
100
AcDbEntity
8
CURVE
100
AcDbLine
62
7
6
CONTINUOUS
10
79.1829647233
20
49.1315853406
11
79.4775926892
21
49.2788993236
0
LINE
5
334
100
AcDbEntity
8
CURVE
100
AcDbLine
62
7
6
CONTINUOUS
10
95.6379288474
20
57.3590674027
11
96.0798705856
21
57.5800382718
0
LINE
5
335
100
AcDbEntity
8
CURVE
100
AcDbLine
62
7
6
CONTINUOUS
10
97.9212944247
20
58.5007501914
11
98.0686084077
21
58.5744071829
0
LINE
5
336
100
AcDbEntity
8
CURVE
100
AcDbLine
62
7
6
CONTINUOUS
10
114.3762585488
20
66.7282322534
11
114.8182002870
21
66.9492031225
0
LINE
5
337
100
AcDbEntity
8
CURVE
100
AcDbLine
62
7
6
CONTINUOUS
10
117.1752229612
20
68.1277144596
11
117.6171644888
21
68.3486852234
0
LINE
5
338
100
AcDbEntity
8
CURVE
100
AcDbLine
62
7
6
CONTINUOUS
10
133.1145882503
20
76.0973971041
11
133.5565299885
21
76.3183679733
0
LINE
5
339
100
AcDbEntity
8
CURVE
100
AcDbLine
62
7
6
CONTINUOUS
10
151.8529179517
20
85.4665619549
11
152.2948596899
21
85.6875328240
0
LINE
5
33A
100
AcDbEntity
8
CURVE
100
AcDbLine
62
7
6
CONTINUOUS
10
98.1422652938
20
58.1505838703
11
97.8476375386
21
58.0032699927
0
LINE
5
33B
100
AcDbEntity
8
CURVE
100
AcDbLine
62
7
6
CONTINUOUS
10
79.4039355924
20
48.7814190196
11
79.1093078371
21
48.6341051420
0
LINE
5
33C
100
AcDbEntity
8
CURVE
100
AcDbLine
62
7
6
CONTINUOUS
10
-53.8473909825
20
-17.8442442679
11
-51.7113393091
21
-16.7762184312
0
LINE
5
33D
100
AcDbEntity
8
CURVE
100
AcDbLine
62
7
6
CONTINUOUS
10
22.2844391340
20
20.2216707904
11
21.7688404043
21
19.9638714255
0
LINE
5
33E
100
AcDbEntity
8
CURVE
100
AcDbLine
62
7
6
CONTINUOUS
10
-34.3724917085
20
-8.1067946309
11
-33.9305499703
21
-7.8858237618
0
LINE
5
33F
100
AcDbEntity
8
CURVE
100
AcDbLine
62
7
6
CONTINUOUS
10
3.4724524411
20
10.8156774439
11
3.1778246858
21
10.6683635663
0
LINE
5
340
100
AcDbEntity
8
CURVE
100
AcDbLine
62
7
6
CONTINUOUS
10
-14.5293076615
20
1.8147973926
11
-16.7390163527
21
0.7099430470
0
LINE
5
341
100
AcDbEntity
8
CURVE
100
AcDbLine
62
7
6
CONTINUOUS
10
-90.2191960661
20
-36.0301468097
11
-90.5138238214
21
-36.1774606873
0
LINE
5
342
100
AcDbEntity
8
CURVE
100
AcDbLine
62
7
6
CONTINUOUS
10
-108.9575257676
20
-45.3993116604
11
-109.2521535228
21
-45.5466255380
0
LINE
5
343
100
AcDbEntity
8
CURVE
100
AcDbLine
62
7
6
CONTINUOUS
10
134.5140703511
20
76.3364863990
11
136.6501221562
21
77.4045123015
0
LINE
5
344
100
AcDbEntity
8
CURVE
100
AcDbLine
62
7
6
CONTINUOUS
10
153.9889697568
20
86.0739361018
11
154.4309114950
21
86.2949069709
0
LINE
5
345
100
AcDbEntity
8
CURVE
100
AcDbLine
62
7
6
CONTINUOUS
10
97.1110680451
20
57.0822031392
11
96.7427831930
21
56.8980607132
0
LINE
5
346
100
AcDbEntity
8
CURVE
100
AcDbLine
62
7
6
CONTINUOUS
10
78.3727383436
20
47.7130382885
11
78.0044534915
21
47.5288958624
0
LINE
5
347
100
AcDbEntity
8
CURVE
100
AcDbLine
62
7
6
CONTINUOUS
10
-33.3412942491
20
-8.1439780079
11
-32.9730096077
21
-7.9598356872
0
LINE
5
348
100
AcDbEntity
8
CURVE
100
AcDbLine
62
7
6
CONTINUOUS
10
-91.2503934202
20
-37.0985275935
11
-91.6186781999
21
-37.2826699833
0
LINE
5
349
100
AcDbEntity
8
CURVE
100
AcDbLine
62
7
6
CONTINUOUS
10
-109.9887231217
20
-46.4676924442
11
-110.3570079014
21
-46.6518348340
0
LINE
5
34A
100
AcDbEntity
8
CURVE
100
AcDbLine
62
7
6
CONTINUOUS
10
155.0201672162
20
86.0367527248
11
155.3884518576
21
86.2208950455
0
LINE
5
34B
100
AcDbEntity
8
CURVE
100
AcDbLine
62
7
6
CONTINUOUS
10
154.4309114950
20
85.1893424993
11
154.0626266429
21
85.0052000733
0
LINE
5
34C
100
AcDbEntity
8
CURVE
100
AcDbLine
62
7
6
CONTINUOUS
10
135.6925817936
20
75.8201776486
11
135.2506400553
21
75.5992067795
0
LINE
5
34D
100
AcDbEntity
8
CURVE
100
AcDbLine
62
7
6
CONTINUOUS
10
-33.9305499703
20
-8.9913882333
11
-34.2988347171
21
-9.1755306067
0
LINE
5
34E
100
AcDbEntity
8
CURVE
100
AcDbLine
62
7
6
CONTINUOUS
10
-52.6688796717
20
-18.3605530840
11
-53.1108214100
21
-18.5815239532
0
LINE
5
34F
100
AcDbEntity
8
CURVE
100
AcDbLine
62
7
6
CONTINUOUS
10
-90.5138238214
20
-37.6515465633
11
-90.2191960661
21
-37.5042326857
0
LINE
5
350
100
AcDbEntity
8
CURVE
100
AcDbLine
62
7
6
CONTINUOUS
10
3.1778246858
20
9.1942776903
11
3.4724524411
21
9.3415915679
0
LINE
5
351
100
AcDbEntity
8
CURVE
100
AcDbLine
62
7
6
CONTINUOUS
10
97.8476375386
20
56.5291841166
11
98.1422652938
21
56.6764979943
0
LINE
5
352
100
AcDbEntity
8
CURVE
100
AcDbLine
62
7
6
CONTINUOUS
10
154.5045683811
20
84.7655191868
11
153.9889697568
21
84.5077198746
0
LINE
5
353
100
AcDbEntity
8
CURVE
100
AcDbLine
62
7
6
CONTINUOUS
10
-53.1108214100
20
-19.0421757088
11
-52.6688796717
21
-18.8212048396
0
LINE
5
354
100
AcDbEntity
8
CURVE
100
AcDbLine
62
7
6
CONTINUOUS
10
-33.8568929788
20
-9.4152114932
11
-34.3724917085
21
-9.6730108580
0
LINE
5
355
100
AcDbEntity
8
CURVE
100
AcDbLine
62
7
6
CONTINUOUS
10
135.2506400553
20
75.1385550239
11
135.6925817936
21
75.3595258930
0
LINE
5
356
100
AcDbEntity
8
CURVE
100
AcDbLine
62
7
6
CONTINUOUS
10
98.1422652938
20
56.3079765898
11
97.8476375386
21
56.1606627121
0
LINE
5
357
100
AcDbEntity
8
CURVE
100
AcDbLine
62
7
6
CONTINUOUS
10
3.4724524411
20
8.9730701634
11
3.1778246858
21
8.8257562858
0
LINE
5
358
100
AcDbEntity
8
CURVE
100
AcDbLine
62
7
6
CONTINUOUS
10
21.7688404043
20
18.1212641450
11
22.2844391340
21
18.3790635099
0
LINE
5
359
100
AcDbEntity
8
CURVE
100
AcDbLine
62
7
6
CONTINUOUS
10
-90.2191960661
20
-37.8727540902
11
-90.5138238214
21
-38.0200679678
0
LINE
5
35A
100
AcDbEntity
8
CURVE
100
AcDbLine
62
7
6
CONTINUOUS
10
-54.2156757556
20
-19.9631242861
11
-53.7000770785
21
-19.7053249475
0
LINE
5
35B
100
AcDbEntity
8
CURVE
100
AcDbLine
62
7
6
CONTINUOUS
10
134.1457856044
20
74.2176063939
11
134.6613843341
21
74.4754057588
0
LINE
5
35C
100
AcDbEntity
8
CURVE
100
AcDbLine
62
7
6
CONTINUOUS
10
117.1752229612
20
65.6401947212
11
115.9230546327
21
65.0141105569
0
LINE
5
35D
100
AcDbEntity
8
CURVE
100
AcDbLine
62
7
6
CONTINUOUS
10
-70.7442967658
20
-28.3195651423
11
-70.0077272723
21
-27.9512803956
0
LINE
5
35E
100
AcDbEntity
8
CURVE
100
AcDbLine
62
7
6
CONTINUOUS
10
-71.1862385041
20
-28.5405360114
11
-72.4384067800
21
-29.1666201494
0
LINE
5
35F
100
AcDbEntity
8
CURVE
100
AcDbLine
62
7
6
CONTINUOUS
10
117.6171644888
20
65.8611654850
11
118.3537341930
21
66.2294503371
0
LINE
5
360
100
AcDbEntity
8
CURVE
100
AcDbLine
62
7
6
CONTINUOUS
10
21.8424973958
20
17.6974407561
11
22.2107821425
21
17.8815831295
0
LINE
5
361
100
AcDbEntity
8
CURVE
100
AcDbLine
62
7
6
CONTINUOUS
10
118.3537341930
20
65.6766681013
11
117.6171644888
21
65.3083832492
0
LINE
5
362
100
AcDbEntity
8
CURVE
100
AcDbLine
62
7
6
CONTINUOUS
10
117.1752229612
20
65.0874124855
11
115.4074559029
21
64.2035289563
0
LINE
5
363
100
AcDbEntity
8
CURVE
100
AcDbLine
62
7
6
CONTINUOUS
10
-70.0077272723
20
-28.5040626313
11
-70.7442967658
21
-28.8723473781
0
LINE
5
364
100
AcDbEntity
8
CURVE
100
AcDbLine
62
7
6
CONTINUOUS
10
-71.1862385041
20
-29.0933182472
11
-72.9540054570
21
-29.9772017237
0
LINE
5
365
100
AcDbEntity
8
CURVE
100
AcDbLine
62
7
6
CONTINUOUS
10
134.5877274480
20
73.6094040266
11
134.1457856044
21
73.3884331048
0
LINE
5
366
100
AcDbEntity
8
CURVE
100
AcDbLine
62
7
6
CONTINUOUS
10
-53.7737340174
20
-20.5713267061
11
-54.2156757556
21
-20.7922975752
0
LINE
5
367
100
AcDbEntity
8
CURVE
100
AcDbLine
62
7
6
CONTINUOUS
10
-91.6923351585
20
-39.6227576278
11
-91.3240503854
21
-39.4386152412
0
LINE
5
368
100
AcDbEntity
8
CURVE
100
AcDbLine
62
7
6
CONTINUOUS
10
21.2532417272
20
16.8500308151
11
20.8849569673
21
16.6658884351
0
LINE
5
369
100
AcDbEntity
8
CURVE
100
AcDbLine
62
7
6
CONTINUOUS
10
96.6691262015
20
54.5579730522
11
97.0374109482
21
54.7421154256
0
LINE
5
36A
100
AcDbEntity
8
0
100
AcDbLine
62
7
6
CONTINUOUS
10
-153.9177319029
20
-71.2294956970
11
-151.4428581687
21
-69.9920588299
0
LINE
5
36B
100
AcDbEntity
8
0
100
AcDbLine
62
7
6
CONTINUOUS
10
174.8869213488
20
93.1728309289
11
177.3617950830
21
94.4102677960
0
LINE
5
36C
100
AcDbEntity
8
CURVE
100
AcDbLine
62
7
6
CONTINUOUS
10
135.6925817936
20
73.5169186770
11
135.2506400553
21
73.2959478079
0
LINE
5
36D
100
AcDbEntity
8
CURVE
100
AcDbLine
62
7
6
CONTINUOUS
10
-109.8414091914
20
-49.2500768155
11
-107.7790144305
21
-48.2188794350
0
LINE
5
36E
100
AcDbEntity
8
CURVE
100
AcDbLine
62
7
6
CONTINUOUS
10
-90.5874808129
20
-39.6231126262
11
-90.1455390746
21
-39.4021417571
0
LINE
5
36F
100
AcDbEntity
8
CURVE
100
AcDbLine
62
7
6
CONTINUOUS
10
22.2844391340
20
16.8128473472
11
21.8424973958
21
16.5918764781
0
LINE
5
370
100
AcDbEntity
8
CURVE
100
AcDbLine
62
7
6
CONTINUOUS
10
-34.3724917085
20
-11.5156180741
11
-33.8568929788
21
-11.2578187092
0
LINE
5
371
100
AcDbEntity
8
CURVE
100
AcDbLine
62
7
6
CONTINUOUS
10
3.1778246858
20
7.2595401231
11
3.4724524411
21
7.4068540008
0
LINE
5
372
100
AcDbEntity
8
CURVE
100
AcDbLine
62
7
6
CONTINUOUS
10
-52.6688796717
20
-20.6638120557
11
-53.1108214100
21
-20.8847829248
0
LINE
5
373
100
AcDbEntity
8
CURVE
100
AcDbLine
62
7
6
CONTINUOUS
10
78.5200521159
20
44.9306538382
11
80.5824468241
21
45.9618511923
0
LINE
5
374
100
AcDbEntity
8
CURVE
100
AcDbLine
62
7
6
CONTINUOUS
10
97.7739806524
20
54.5576181064
11
98.2159223907
21
54.7785889756
0
LINE
5
375
100
AcDbEntity
8
CURVE
100
AcDbLine
62
7
6
CONTINUOUS
10
153.9889697568
20
82.6651126586
11
154.5045683811
21
82.9229119708
0
LINE
5
376
100
AcDbEntity
8
CURVE
100
AcDbLine
62
7
6
CONTINUOUS
10
152.2948596899
20
81.3574058051
11
151.8529179517
21
81.1364349359
0
LINE
5
377
100
AcDbEntity
8
CURVE
100
AcDbLine
62
7
6
CONTINUOUS
10
133.5565299885
20
71.9882409543
11
133.1145882503
21
71.7672700852
0
LINE
5
378
100
AcDbEntity
8
CURVE
100
AcDbLine
62
7
6
CONTINUOUS
10
117.6171644888
20
64.0185582045
11
117.1752229612
21
63.7975874407
0
LINE
5
379
100
AcDbEntity
8
CURVE
100
AcDbLine
62
7
6
CONTINUOUS
10
114.8182002870
20
62.6190761036
11
114.3762585488
21
62.3981052345
0
LINE
5
37A
100
AcDbEntity
8
CURVE
100
AcDbLine
62
7
6
CONTINUOUS
10
98.2895792768
20
54.3547655985
11
97.7003235556
21
54.0601377379
0
LINE
5
37B
100
AcDbEntity
8
CURVE
100
AcDbLine
62
7
6
CONTINUOUS
10
96.0798705856
20
53.2499112529
11
95.6379288474
21
53.0289403838
0
LINE
5
37C
100
AcDbEntity
8
CURVE
100
AcDbLine
62
7
6
CONTINUOUS
10
80.5824468241
20
45.5011993721
11
77.9307965000
21
44.1753742101
0
LINE
5
37D
100
AcDbEntity
8
CURVE
100
AcDbLine
62
7
6
CONTINUOUS
10
77.3415408842
20
43.8807464022
11
76.8995991459
21
43.6597755330
0
LINE
5
37E
100
AcDbEntity
8
CURVE
100
AcDbLine
62
7
6
CONTINUOUS
10
60.8541678397
20
35.6370598800
11
60.4122261015
21
35.4160890108
0
LINE
5
37F
100
AcDbEntity
8
CURVE
100
AcDbLine
62
7
6
CONTINUOUS
10
59.3810286420
20
34.9004902811
11
58.9390869038
21
34.6795194120
0
LINE
5
380
100
AcDbEntity
8
CURVE
100
AcDbLine
62
7
6
CONTINUOUS
10
40.3598562281
20
25.3899040741
11
39.9179144899
21
25.1689332050
0
LINE
5
381
100
AcDbEntity
8
CURVE
100
AcDbLine
62
7
6
CONTINUOUS
10
-53.1108214100
20
-21.3454347449
11
-52.6688796717
21
-21.1244638758
0
LINE
5
382
100
AcDbEntity
8
CURVE
100
AcDbLine
62
7
6
CONTINUOUS
10
-34.2988347171
20
-11.9394413984
11
-33.9305499703
21
-11.7552990251
0
LINE
5
383
100
AcDbEntity
8
CURVE
100
AcDbLine
62
7
6
CONTINUOUS
10
-15.5605050156
20
-2.5702765477
11
-16.0024468065
21
-2.7912474432
0
LINE
5
384
100
AcDbEntity
8
CURVE
100
AcDbLine
62
7
6
CONTINUOUS
10
3.1041676943
20
6.7620598073
11
3.5461094326
21
6.9830306764
0
LINE
5
385
100
AcDbEntity
8
CURVE
100
AcDbLine
62
7
6
CONTINUOUS
10
21.9161543873
20
16.1680531537
11
22.2107821425
21
16.3153670313
0
LINE
5
386
100
AcDbEntity
8
CURVE
100
AcDbLine
62
7
6
CONTINUOUS
10
-70.7442967658
20
-30.1621724228
11
-71.1862385041
21
-30.3831432920
0
LINE
5
387
100
AcDbEntity
8
CURVE
100
AcDbLine
62
7
6
CONTINUOUS
10
-90.0718820831
20
-39.8259650815
11
-90.6611378044
21
-40.1205929421
0
LINE
5
388
100
AcDbEntity
8
CURVE
100
AcDbLine
62
7
6
CONTINUOUS
10
-107.7790144305
20
-48.6795312552
11
-110.4306648599
21
-50.0053564699
0
LINE
5
389
100
AcDbEntity
8
CURVE
100
AcDbLine
62
7
6
CONTINUOUS
10
-127.2244509131
20
-58.4022494965
11
-127.6663926513
21
-58.6232203656
0
LINE
5
38A
100
AcDbEntity
8
CURVE
100
AcDbLine
62
7
6
CONTINUOUS
10
135.2506400553
20
72.8352959878
11
135.6925817936
21
73.0562668569
0
LINE
5
38B
100
AcDbEntity
8
CURVE
100
AcDbLine
62
7
6
CONTINUOUS
10
154.0626266429
20
82.2412892815
11
154.4309114950
21
82.4254317076
0
LINE
5
38C
100
AcDbEntity
8
0
100
AcDbLine
62
7
6
CONTINUOUS
10
-152.8570717311
20
-71.7598257828
11
-150.3821979970
21
-70.5223889158
0
LINE
5
38D
100
AcDbEntity
8
0
100
AcDbLine
62
7
6
CONTINUOUS
10
175.9475815206
20
92.6425008430
11
178.4224552548
21
93.8799377101
0
LINE
5
38E
100
AcDbEntity
8
0
100
AcDbLine
62
7
6
CONTINUOUS
10
-133.0580818579
20
-63.9171411802
11
-122.4514801401
21
-58.6138403213
0
LINE
5
38F
100
AcDbEntity
8
0
100
AcDbLine
62
7
6
CONTINUOUS
10
-114.3197521565
20
-54.5479763295
11
-103.7131504387
21
-49.2446754706
0
LINE
5
390
100
AcDbEntity
8
0
100
AcDbLine
62
7
6
CONTINUOUS
10
-95.5814224550
20
-45.1788114788
11
-84.9748207372
21
-39.8755106199
0
LINE
5
391
100
AcDbEntity
8
0
100
AcDbLine
62
7
6
CONTINUOUS
10
-76.8430927536
20
-35.8096466281
11
-66.2364910358
21
-30.5063457692
0
LINE
5
392
100
AcDbEntity
8
0
100
AcDbLine
62
7
6
CONTINUOUS
10
-58.1047630521
20
-26.4404817773
11
-47.4981613343
21
-21.1371809184
0
LINE
5
393
100
AcDbEntity
8
0
100
AcDbLine
62
7
6
CONTINUOUS
10
-39.3664333507
20
-17.0713169266
11
-28.7598316329
21
-11.7680160677
0
LINE
5
394
100
AcDbEntity
8
0
100
AcDbLine
62
7
6
CONTINUOUS
10
-20.6281036492
20
-7.7021520759
11
-10.0215019314
21
-2.3988512170
0
LINE
5
395
100
AcDbEntity
8
0
100
AcDbLine
62
7
6
CONTINUOUS
10
-1.8897739478
20
1.6670127748
11
8.7168277700
21
6.9703136337
0
LINE
5
396
100
AcDbEntity
8
0
100
AcDbLine
62
7
6
CONTINUOUS
10
16.8485557537
20
11.0361776256
11
27.4551574715
21
16.3394784845
0
LINE
5
397
100
AcDbEntity
8
0
100
AcDbLine
62
7
6
CONTINUOUS
10
35.5868854551
20
20.4053424763
11
46.1934871729
21
25.7086433352
0
LINE
5
398
100
AcDbEntity
8
0
100
AcDbLine
62
7
6
CONTINUOUS
10
54.3252151565
20
29.7745073270
11
64.9318168743
21
35.0778081859
0
LINE
5
399
100
AcDbEntity
8
0
100
AcDbLine
62
7
6
CONTINUOUS
10
73.0635448580
20
39.1436721777
11
83.6701465758
21
44.4469730366
0
LINE
5
39A
100
AcDbEntity
8
0
100
AcDbLine
62
7
6
CONTINUOUS
10
91.8018745594
20
48.5128370284
11
102.4084762772
21
53.8161378873
0
LINE
5
39B
100
AcDbEntity
8
0
100
AcDbLine
62
7
6
CONTINUOUS
10
110.5402042609
20
57.8820018792
11
121.1468059787
21
63.1853027381
0
LINE
5
39C
100
AcDbEntity
8
0
100
AcDbLine
62
7
6
CONTINUOUS
10
129.2785339623
20
67.2511667299
11
139.8851356801
21
72.5544675888
0
LINE
5
39D
100
AcDbEntity
8
0
100
AcDbLine
62
7
6
CONTINUOUS
10
148.0168636638
20
76.6203315806
11
158.6234653816
21
81.9236324395
0
LINE
5
39E
100
AcDbEntity
8
CURVE
100
AcDbLine
62
7
6
CONTINUOUS
10
-53.4791062094
20
-21.4374467854
11
-53.1108214100
21
-21.3454347449
0
LINE
5
39F
100
AcDbEntity
8
CURVE
100
AcDbLine
62
7
6
CONTINUOUS
10
-52.3005948196
20
-18.2685410091
11
-52.6688796717
21
-18.3605530840
0
LINE
5
3A0
100
AcDbEntity
8
CURVE
100
AcDbLine
62
7
6
CONTINUOUS
10
-34.6671195165
20
-12.0314534390
11
-34.2988347171
21
-11.9394413984
0
LINE
5
3A1
100
AcDbEntity
8
CURVE
100
AcDbLine
62
7
6
CONTINUOUS
10
-33.5622651182
20
-8.8993761584
11
-33.9305499703
21
-8.9913882333
0
LINE
5
3A2
100
AcDbEntity
8
CURVE
100
AcDbLine
62
7
6
CONTINUOUS
10
-33.6359222151
20
-7.3699884796
11
-34.0042069618
21
-7.4620005019
0
LINE
5
3A3
100
AcDbEntity
8
CURVE
100
AcDbLine
62
7
6
CONTINUOUS
10
-53.1108214100
20
-20.8847829248
11
-53.4054492179
21
-20.9399664776
0
LINE
5
3A4
100
AcDbEntity
8
CURVE
100
AcDbLine
62
7
6
CONTINUOUS
10
-52.6688796717
20
-18.8212048396
11
-52.3742519165
21
-18.7660213131
0
LINE
5
3A5
100
AcDbEntity
8
CURVE
100
AcDbLine
62
7
6
CONTINUOUS
10
-34.5934625777
20
-11.5339731575
11
-34.3724917085
21
-11.5156180741
0
LINE
5
3A6
100
AcDbEntity
8
CURVE
100
AcDbLine
62
7
6
CONTINUOUS
10
-33.6359222151
20
-9.3968564624
11
-33.8568929788
21
-9.4152114932
0
LINE
5
3A7
100
AcDbEntity
8
CURVE
100
AcDbLine
62
7
6
CONTINUOUS
10
-33.9305499703
20
-7.8858237618
11
-33.7095791012
21
-7.8674686783
0
LINE
5
3A8
100
AcDbEntity
8
0
100
AcDbLine
62
7
6
CONTINUOUS
10
8.7168277700
20
-10.3501944420
11
7.6561675982
21
-9.8198643561
0
LINE
5
3A9
100
AcDbEntity
8
CURVE
100
AcDbLine
62
7
6
CONTINUOUS
10
4.2090220399
20
10.3547888252
11
4.2090220399
21
10.5390495274
0
LINE
5
3AA
100
AcDbEntity
8
CURVE
100
AcDbLine
62
7
6
CONTINUOUS
10
4.2826789261
20
8.4568797656
11
4.2826789261
21
8.7332708190
0
LINE
5
3AB
100
AcDbEntity
8
CURVE
100
AcDbLine
62
7
6
CONTINUOUS
10
4.5773068921
20
10.4468009001
11
4.5773068921
21
10.7231919535
0
LINE
5
3AC
100
AcDbEntity
8
CURVE
100
AcDbLine
62
7
6
CONTINUOUS
10
4.6509637782
20
8.6410221917
11
4.6509637782
21
8.9174132451
0
LINE
5
3AD
100
AcDbEntity
8
0
100
AcDbLine
62
7
6
CONTINUOUS
10
7.6561675982
20
6.4399835478
11
7.6561675982
21
-9.8198643561
0
LINE
5
3AE
100
AcDbEntity
8
0
100
AcDbLine
62
7
6
CONTINUOUS
10
8.7168277700
20
6.9703136337
11
8.7168277700
21
-10.3501944420
0
LINE
5
3AF
100
AcDbEntity
8
0
100
AcDbLine
62
7
6
CONTINUOUS
10
16.8485557537
20
-6.2843304501
11
16.8485557537
21
11.0361776256
0
LINE
5
3B0
100
AcDbEntity
8
CURVE
100
AcDbLine
62
7
6
CONTINUOUS
10
21.1795847884
20
19.1164615109
11
21.1059278233
21
18.8032417168
0
LINE
5
3B1
100
AcDbEntity
8
CURVE
100
AcDbLine
62
7
6
CONTINUOUS
10
20.8849569673
20
19.2455386537
11
20.7376430502
21
18.7112296814
0
LINE
5
3B2
100
AcDbEntity
8
CURVE
100
AcDbLine
62
7
6
CONTINUOUS
10
23.1683226105
20
17.5311801388
11
23.3156365935
21
18.0654889505
0
LINE
5
3B3
100
AcDbEntity
8
CURVE
100
AcDbLine
62
7
6
CONTINUOUS
10
21.3268987187
20
19.4665095294
11
21.1795847884
21
19.1164615109
0
LINE
5
3B4
100
AcDbEntity
8
CURVE
100
AcDbLine
62
7
6
CONTINUOUS
10
22.7263808723
20
18.8764254324
11
22.8736948553
21
19.2264734772
0
LINE
5
3B5
100
AcDbEntity
8
CURVE
100
AcDbLine
62
7
6
CONTINUOUS
10
22.8736948553
20
17.6602573791
11
22.7263808723
21
17.3102092697
0
LINE
5
3B6
100
AcDbEntity
8
CURVE
100
AcDbLine
62
7
6
CONTINUOUS
10
21.1059278233
20
19.7245454862
11
20.8849569673
21
19.2455386537
0
LINE
5
3B7
100
AcDbEntity
8
CURVE
100
AcDbLine
62
7
6
CONTINUOUS
10
22.9473517414
20
17.0521732675
11
23.1683226105
21
17.5311801388
0
LINE
5
3B8
100
AcDbEntity
8
CURVE
100
AcDbLine
62
7
6
CONTINUOUS
10
21.5478695878
20
19.7612556662
11
21.3268987187
21
19.4665095294
0
LINE
5
3B9
100
AcDbEntity
8
CURVE
100
AcDbLine
62
7
6
CONTINUOUS
10
22.5054100031
20
18.5816792956
11
22.7263808723
21
18.8764254324
0
LINE
5
3BA
100
AcDbEntity
8
CURVE
100
AcDbLine
62
7
6
CONTINUOUS
10
22.5790668893
20
18.1578559830
11
23.0210086275
21
18.7473482566
0
LINE
5
3BB
100
AcDbEntity
8
CURVE
100
AcDbLine
62
7
6
CONTINUOUS
10
22.7263808723
20
17.3102092697
11
22.5054100031
21
17.0154631329
0
LINE
5
3BC
100
AcDbEntity
8
CURVE
100
AcDbLine
62
7
6
CONTINUOUS
10
41.9066523120
20
29.9406470283
11
41.6856814428
21
29.6459008914
0
LINE
5
3BD
100
AcDbEntity
8
CURVE
100
AcDbLine
62
7
6
CONTINUOUS
10
21.4742125964
20
20.1850789261
11
21.1059278233
21
19.7245454862
0
LINE
5
3BE
100
AcDbEntity
8
CURVE
100
AcDbLine
62
7
6
CONTINUOUS
10
22.5790668893
20
16.5916397639
11
22.9473517414
21
17.0521732675
0
LINE
5
3BF
100
AcDbEntity
8
CURVE
100
AcDbLine
62
7
6
CONTINUOUS
10
41.8329954258
20
30.3644703408
11
41.4647105737
21
29.9039368614
0
LINE
5
3C0
100
AcDbEntity
8
CURVE
100
AcDbLine
62
7
6
CONTINUOUS
10
42.7168789023
20
26.6605457704
11
43.0851637544
21
27.1210792740
0
LINE
5
3C1
100
AcDbEntity
8
CURVE
100
AcDbLine
62
7
6
CONTINUOUS
10
42.2749371641
20
26.8080963623
11
42.6432218054
21
27.0843690341
0
LINE
5
3C2
100
AcDbEntity
8
CURVE
100
AcDbLine
62
7
6
CONTINUOUS
10
79.1093078371
20
48.6341051420
11
78.7410229850
21
48.3578323648
0
LINE
5
3C3
100
AcDbEntity
8
CURVE
100
AcDbLine
62
7
6
CONTINUOUS
10
97.8476375386
20
58.0032699927
11
97.4793526865
21
57.7269972155
0
LINE
5
3C4
100
AcDbEntity
8
CURVE
100
AcDbLine
62
7
6
CONTINUOUS
10
98.2159223907
20
54.7785889756
11
98.5842070321
21
55.0548616474
0
LINE
5
3C5
100
AcDbEntity
8
CURVE
100
AcDbLine
62
7
6
CONTINUOUS
10
42.2749371641
20
26.3474445421
11
42.7168789023
21
26.6605457704
0
LINE
5
3C6
100
AcDbEntity
8
CURVE
100
AcDbLine
62
7
6
CONTINUOUS
10
78.6673660989
20
48.7816556773
11
79.1829647233
21
49.1315853406
0
LINE
5
3C7
100
AcDbEntity
8
CURVE
100
AcDbLine
62
7
6
CONTINUOUS
10
97.4056958003
20
58.1508205281
11
97.9212944247
21
58.5007501914
0
LINE
5
3C8
100
AcDbEntity
8
0
100
AcDbLine
62
7
6
CONTINUOUS
10
157.5628052098
20
65.1334544497
11
148.0168636638
21
60.3604836767
0
LINE
5
3C9
100
AcDbEntity
8
0
100
AcDbLine
62
7
6
CONTINUOUS
10
138.8244755083
20
55.7642895990
11
129.2785339623
21
50.9913188260
0
LINE
5
3CA
100
AcDbEntity
8
0
100
AcDbLine
62
7
6
CONTINUOUS
10
120.0861458069
20
46.3951247483
11
110.5402042609
21
41.6221539753
0
LINE
5
3CB
100
AcDbEntity
8
0
100
AcDbLine
62
7
6
CONTINUOUS
10
101.3478161054
20
37.0259598975
11
91.8018745594
21
32.2529891245
0
LINE
5
3CC
100
AcDbEntity
8
0
100
AcDbLine
62
7
6
CONTINUOUS
10
82.6094864040
20
27.6567950468
11
73.0635448580
21
22.8838242738
0
LINE
5
3CD
100
AcDbEntity
8
0
100
AcDbLine
62
7
6
CONTINUOUS
10
63.8711567026
20
18.2876301961
11
54.3252151565
21
13.5146594231
0
LINE
5
3CE
100
AcDbEntity
8
0
100
AcDbLine
62
7
6
CONTINUOUS
10
45.1328270011
20
8.9184653454
11
35.5868854551
21
4.1454945724
0
LINE
5
3CF
100
AcDbEntity
8
0
100
AcDbLine
62
7
6
CONTINUOUS
10
26.3944972997
20
-0.4506995053
11
16.8485557537
21
-5.2236702784
0
LINE
5
3D0
100
AcDbEntity
8
0
100
AcDbLine
62
7
6
CONTINUOUS
10
7.6561675982
20
-9.8198643561
11
-1.8897739478
21
-14.5928351291
0
LINE
5
3D1
100
AcDbEntity
8
0
100
AcDbLine
62
7
6
CONTINUOUS
10
-11.0821621032
20
-19.1890292068
11
-20.6281036492
21
-23.9619999798
0
LINE
5
3D2
100
AcDbEntity
8
0
100
AcDbLine
62
7
6
CONTINUOUS
10
-29.8204918047
20
-28.5581940575
11
-39.3664333507
21
-33.3311648305
0
LINE
5
3D3
100
AcDbEntity
8
0
100
AcDbLine
62
7
6
CONTINUOUS
10
-48.5588215061
20
-37.9273589082
11
-58.1047630521
21
-42.7003296812
0
LINE
5
3D4
100
AcDbEntity
8
0
100
AcDbLine
62
7
6
CONTINUOUS
10
-67.2971512075
20
-47.2965237590
11
-76.8430927536
21
-52.0694945320
0
LINE
5
3D5
100
AcDbEntity
8
0
100
AcDbLine
62
7
6
CONTINUOUS
10
-86.0354809090
20
-56.6656886097
11
-95.5814224550
21
-61.4386593827
0
LINE
5
3D6
100
AcDbEntity
8
0
100
AcDbLine
62
7
6
CONTINUOUS
10
-104.7738106104
20
-66.0348534604
11
-114.3197521565
21
-70.8078242334
0
LINE
5
3D7
100
AcDbEntity
8
0
100
AcDbLine
62
7
6
CONTINUOUS
10
-123.5121403119
20
-75.4040183111
11
-133.0580818579
21
-80.1769890841
0
LINE
5
3D8
100
AcDbEntity
8
0
100
AcDbLine
62
7
6
CONTINUOUS
10
158.6234653816
20
64.6031243638
11
148.0168636638
21
59.2998235049
0
LINE
5
3D9
100
AcDbEntity
8
0
100
AcDbLine
62
7
6
CONTINUOUS
10
139.8851356801
20
55.2339595131
11
129.2785339623
21
49.9306586542
0
LINE
5
3DA
100
AcDbEntity
8
0
100
AcDbLine
62
7
6
CONTINUOUS
10
121.1468059787
20
45.8647946624
11
110.5402042609
21
40.5614938035
0
LINE
5
3DB
100
AcDbEntity
8
0
100
AcDbLine
62
7
6
CONTINUOUS
10
102.4084762772
20
36.4956298117
11
91.8018745594
21
31.1923289528
0
LINE
5
3DC
100
AcDbEntity
8
0
100
AcDbLine
62
7
6
CONTINUOUS
10
83.6701465758
20
27.1264649609
11
73.0635448580
21
21.8231641020
0
LINE
5
3DD
100
AcDbEntity
8
0
100
AcDbLine
62
7
6
CONTINUOUS
10
64.9318168743
20
17.7573001102
11
54.3252151565
21
12.4539992513
0
LINE
5
3DE
100
AcDbEntity
8
0
100
AcDbLine
62
7
6
CONTINUOUS
10
46.1934871729
20
8.3881352595
11
35.5868854551
21
3.0848344006
0
LINE
5
3DF
100
AcDbEntity
8
0
100
AcDbLine
62
7
6
CONTINUOUS
10
27.4551574715
20
-0.9810295912
11
16.8485557537
21
-6.2843304501
0
LINE
5
3E0
100
AcDbEntity
8
0
100
AcDbLine
62
7
6
CONTINUOUS
10
8.7168277700
20
-10.3501944420
11
-1.8897739478
21
-15.6534953009
0
LINE
5
3E1
100
AcDbEntity
8
0
100
AcDbLine
62
7
6
CONTINUOUS
10
-10.0215019314
20
-19.7193592927
11
-20.6281036492
21
-25.0226601516
0
LINE
5
3E2
100
AcDbEntity
8
0
100
AcDbLine
62
7
6
CONTINUOUS
10
-28.7598316329
20
-29.0885241434
11
-39.3664333507
21
-34.3918250023
0
LINE
5
3E3
100
AcDbEntity
8
0
100
AcDbLine
62
7
6
CONTINUOUS
10
-47.4981613343
20
-38.4576889941
11
-58.1047630521
21
-43.7609898530
0
LINE
5
3E4
100
AcDbEntity
8
0
100
AcDbLine
62
7
6
CONTINUOUS
10
-66.2364910358
20
-47.8268538448
11
-76.8430927536
21
-53.1301547037
0
LINE
5
3E5
100
AcDbEntity
8
0
100
AcDbLine
62
7
6
CONTINUOUS
10
-84.9748207372
20
-57.1960186956
11
-95.5814224550
21
-62.4993195545
0
LINE
5
3E6
100
AcDbEntity
8
0
100
AcDbLine
62
7
6
CONTINUOUS
10
-103.7131504387
20
-66.5651835463
11
-114.3197521565
21
-71.8684844052
0
LINE
5
3E7
100
AcDbEntity
8
0
100
AcDbLine
62
7
6
CONTINUOUS
10
-122.4514801401
20
-75.9343483970
11
-133.0580818579
21
-81.2376492559
0
LINE
5
3E8
100
AcDbEntity
8
0
100
AcDbLine
62
7
6
CONTINUOUS
10
178.4224552548
20
72.4458089664
11
175.9475815206
21
71.2083720994
0
LINE
5
3E9
100
AcDbEntity
8
0
100
AcDbLine
62
7
6
CONTINUOUS
10
-150.3821979970
20
-91.9565176594
11
-152.8570717311
21
-93.1939545265
0
LINE
5
3EA
100
AcDbEntity
8
CURVE
100
AcDbLine
62
7
6
CONTINUOUS
10
-90.2928529523
20
-35.6063234971
11
-89.7772542225
21
-35.4406544834
0
LINE
5
3EB
100
AcDbEntity
8
CURVE
100
AcDbLine
62
7
6
CONTINUOUS
10
-89.7772542225
20
-37.7439135195
11
-90.2191960661
21
-37.8727540902
0
LINE
5
3EC
100
AcDbEntity
8
CURVE
100
AcDbLine
62
7
6
CONTINUOUS
10
-108.8838687761
20
-44.9018314090
11
-108.4419270378
21
-44.7729908910
0
LINE
5
3ED
100
AcDbEntity
8
CURVE
100
AcDbLine
62
7
6
CONTINUOUS
10
2.7358828949
20
6.6700477667
11
3.1041676943
21
6.7620598073
0
LINE
5
3EE
100
AcDbEntity
8
CURVE
100
AcDbLine
62
7
6
CONTINUOUS
10
3.8407371878
20
11.3683412218
11
3.4724524411
21
11.2763291995
0
LINE
5
3EF
100
AcDbEntity
8
CURVE
100
AcDbLine
62
7
6
CONTINUOUS
10
21.5478695878
20
16.0760411132
11
21.9161543873
21
16.1680531537
0
LINE
5
3F0
100
AcDbEntity
8
CURVE
100
AcDbLine
62
7
6
CONTINUOUS
10
21.4742125964
20
17.6054288366
11
21.8424973958
21
17.6974407561
0
LINE
5
3F1
100
AcDbEntity
8
CURVE
100
AcDbLine
62
7
6
CONTINUOUS
10
22.5790668893
20
20.7375060725
11
22.2107821425
21
20.6454940503
0
LINE
5
3F2
100
AcDbEntity
8
CURVE
100
AcDbLine
62
7
6
CONTINUOUS
10
41.9066523120
20
26.7160842873
11
42.2749371641
21
26.8080963623
0
LINE
5
3F3
100
AcDbEntity
8
CURVE
100
AcDbLine
62
7
6
CONTINUOUS
10
2.8831968252
20
7.2043565439
11
3.1778246858
21
7.2595401231
0
LINE
5
3F4
100
AcDbEntity
8
CURVE
100
AcDbLine
62
7
6
CONTINUOUS
10
3.7670803017
20
9.0282537426
11
3.4724524411
21
8.9730701634
0
LINE
5
3F5
100
AcDbEntity
8
CURVE
100
AcDbLine
62
7
6
CONTINUOUS
10
2.8831968252
20
9.1390941111
11
3.1778246858
21
9.1942776903
0
LINE
5
3F6
100
AcDbEntity
8
CURVE
100
AcDbLine
62
7
6
CONTINUOUS
10
3.7670803017
20
10.8708610231
11
3.4724524411
21
10.8156774439
0
LINE
5
3F7
100
AcDbEntity
8
CURVE
100
AcDbLine
62
7
6
CONTINUOUS
10
21.8424973958
20
16.5918764781
11
21.6215265267
21
16.5735213947
0
LINE
5
3F8
100
AcDbEntity
8
CURVE
100
AcDbLine
62
7
6
CONTINUOUS
10
2.5885690173
20
7.2413033422
11
2.8831968252
21
7.2043565439
0
LINE
5
3F9
100
AcDbEntity
8
CURVE
100
AcDbLine
62
7
6
CONTINUOUS
10
2.4412550870
20
8.7338625397
11
2.5885690173
21
8.7153891537
0
LINE
5
3FA
100
AcDbEntity
8
CURVE
100
AcDbLine
62
7
6
CONTINUOUS
10
4.0617080570
20
8.9913069180
11
3.7670803017
21
9.0282537426
0
LINE
5
3FB
100
AcDbEntity
8
CURVE
100
AcDbLine
62
7
6
CONTINUOUS
10
4.2090220399
20
9.4334853140
11
4.0617080570
21
9.4519586736
0
LINE
5
3FC
100
AcDbEntity
8
CURVE
100
AcDbLine
62
7
6
CONTINUOUS
10
2.3675981218
20
6.7622964577
11
2.7358828949
21
6.6700477667
0
LINE
5
3FD
100
AcDbEntity
8
CURVE
100
AcDbLine
62
7
6
CONTINUOUS
10
4.2090220399
20
11.2760925945
11
3.8407371878
21
11.3683412218
0
LINE
5
3FE
100
AcDbEntity
8
CURVE
100
AcDbLine
62
7
6
CONTINUOUS
10
2.5885690173
20
9.2681712605
11
2.8831968252
21
9.1390941111
0
LINE
5
3FF
100
AcDbEntity
8
CURVE
100
AcDbLine
62
7
6
CONTINUOUS
10
4.5036497952
20
9.3044081382
11
4.2090220399
21
9.4334853140
0
LINE
5
400
100
AcDbEntity
8
CURVE
100
AcDbLine
62
7
6
CONTINUOUS
10
4.0617080570
20
10.7417838474
11
3.7670803017
21
10.8708610231
0
LINE
5
401
100
AcDbEntity
8
0
100
AcDbLine
62
7
6
CONTINUOUS
10
27.4551574715
20
-0.9810295912
11
26.3944972997
21
-0.4506995053
0
LINE
5
402
100
AcDbEntity
8
CURVE
100
AcDbLine
62
7
6
CONTINUOUS
10
2.1466272659
20
6.9282021154
11
2.3675981218
21
6.7622964577
0
LINE
5
403
100
AcDbEntity
8
CURVE
100
AcDbLine
62
7
6
CONTINUOUS
10
2.2202842179
20
8.8997681585
11
2.4412550870
21
8.7338625397
0
LINE
5
404
100
AcDbEntity
8
CURVE
100
AcDbLine
62
7
6
CONTINUOUS
10
4.4299929091
20
11.1101869757
11
4.2090220399
21
11.2760925945
0
LINE
5
405
100
AcDbEntity
8
CURVE
100
AcDbLine
62
7
6
CONTINUOUS
10
2.3675981218
20
7.4993393635
11
2.5885690173
21
7.2413033422
0
LINE
5
406
100
AcDbEntity
8
CURVE
100
AcDbLine
62
7
6
CONTINUOUS
10
4.2826789261
20
8.7332708190
11
4.0617080570
21
8.9913069180
0
LINE
5
407
100
AcDbEntity
8
CURVE
100
AcDbLine
62
7
6
CONTINUOUS
10
2.4412550870
20
9.4709053487
11
2.5885690173
21
9.2681712605
0
LINE
5
408
100
AcDbEntity
8
CURVE
100
AcDbLine
62
7
6
CONTINUOUS
10
4.2090220399
20
10.5390495274
11
4.0617080570
21
10.7417838474
0
LINE
5
409
100
AcDbEntity
8
CURVE
100
AcDbLine
62
7
6
CONTINUOUS
10
2.0729703073
20
9.1946326077
11
2.2202842179
21
8.8997681585
0
LINE
5
40A
100
AcDbEntity
8
CURVE
100
AcDbLine
62
7
6
CONTINUOUS
10
1.9993133487
20
7.3151969770
11
2.1466272659
21
6.9282021154
0
LINE
5
40B
100
AcDbEntity
8
CURVE
100
AcDbLine
62
7
6
CONTINUOUS
10
4.6509637782
20
8.9174132451
11
4.5036497952
21
9.3044081382
0
LINE
5
40C
100
AcDbEntity
8
CURVE
100
AcDbLine
62
7
6
CONTINUOUS
10
4.5773068921
20
10.7231919535
11
4.4299929091
21
11.1101869757
0
LINE
5
40D
100
AcDbEntity
8
CURVE
100
AcDbLine
62
7
6
CONTINUOUS
10
20.7376430502
20
18.7112296814
11
20.7376430502
21
18.3427082769
0
LINE
5
40E
100
AcDbEntity
8
CURVE
100
AcDbLine
62
7
6
CONTINUOUS
10
21.1059278233
20
18.8032417168
11
21.1059278233
21
18.6189810146
0
LINE
5
40F
100
AcDbEntity
8
CURVE
100
AcDbLine
62
7
6
CONTINUOUS
10
22.9473517414
20
19.5396929737
11
22.9473517414
21
19.7239536759
0
LINE
5
410
100
AcDbEntity
8
CURVE
100
AcDbLine
62
7
6
CONTINUOUS
10
23.0210086275
20
18.7473482566
11
23.0210086275
21
18.5630875544
0
LINE
5
411
100
AcDbEntity
8
CURVE
100
AcDbLine
62
7
6
CONTINUOUS
10
23.3892934796
20
18.7472299804
11
23.3892934796
21
19.3921424383
0
LINE
5
412
100
AcDbEntity
8
0
100
AcDbLine
62
7
6
CONTINUOUS
10
26.3944972997
20
15.8091483986
11
26.3944972997
21
-0.4506995053
0
LINE
5
413
100
AcDbEntity
8
0
100
AcDbLine
62
7
6
CONTINUOUS
10
27.4551574715
20
16.3394784845
11
27.4551574715
21
-0.9810295912
0
LINE
5
414
100
AcDbEntity
8
CURVE
100
AcDbLine
62
7
6
CONTINUOUS
10
23.3156365935
20
18.0654889505
11
23.3892934796
21
18.7472299804
0
LINE
5
415
100
AcDbEntity
8
CURVE
100
AcDbLine
62
7
6
CONTINUOUS
10
23.0210086275
20
18.5630875544
11
22.9473517414
21
17.9734768755
0
LINE
5
416
100
AcDbEntity
8
CURVE
100
AcDbLine
62
7
6
CONTINUOUS
10
22.8736948553
20
19.2264734772
11
22.9473517414
21
19.5396929737
0
LINE
5
417
100
AcDbEntity
8
CURVE
100
AcDbLine
62
7
6
CONTINUOUS
10
22.9473517414
20
17.9734768755
11
22.8736948553
21
17.6602573791
0
LINE
5
418
100
AcDbEntity
8
CURVE
100
AcDbLine
62
7
6
CONTINUOUS
10
41.2437397046
20
29.5170603734
11
41.0964258270
21
29.0748820301
0
LINE
5
419
100
AcDbEntity
8
CURVE
100
AcDbLine
62
7
6
CONTINUOUS
10
41.6856814428
20
29.6459008914
11
41.3910536876
21
28.9458046490
0
LINE
5
41A
100
AcDbEntity
8
CURVE
100
AcDbLine
62
7
6
CONTINUOUS
10
42.8641926746
20
27.3791151709
11
43.1588204298
21
28.0792112197
0
LINE
5
41B
100
AcDbEntity
8
CURVE
100
AcDbLine
62
7
6
CONTINUOUS
10
39.4759727516
20
28.6331768970
11
39.9179144899
21
29.4990602239
0
LINE
5
41C
100
AcDbEntity
8
CURVE
100
AcDbLine
62
7
6
CONTINUOUS
10
39.9179144899
20
28.7620174150
11
39.4759727516
21
27.8961338299
0
LINE
5
41D
100
AcDbEntity
8
CURVE
100
AcDbLine
62
7
6
CONTINUOUS
10
41.4647105737
20
29.9039368614
11
41.2437397046
21
29.5170603734
0
LINE
5
41E
100
AcDbEntity
8
CURVE
100
AcDbLine
62
7
6
CONTINUOUS
10
43.0851637544
20
27.1210792740
11
43.3061346235
21
27.5079557942
0
LINE
5
41F
100
AcDbEntity
8
CURVE
100
AcDbLine
62
7
6
CONTINUOUS
10
42.6432218054
20
27.0843690341
11
42.8641926746
21
27.3791151709
0
LINE
5
420
100
AcDbEntity
8
CURVE
100
AcDbLine
62
7
6
CONTINUOUS
10
78.3727383436
20
48.4500810975
11
78.6673660989
21
48.7816556773
0
LINE
5
421
100
AcDbEntity
8
CURVE
100
AcDbLine
62
7
6
CONTINUOUS
10
98.1422652938
20
56.6764979943
11
98.5842070321
21
57.0817295656
0
LINE
5
422
100
AcDbEntity
8
CURVE
100
AcDbLine
62
7
6
CONTINUOUS
10
98.5842070321
20
54.5942098353
11
98.2895792768
21
54.3547655985
0
LINE
5
423
100
AcDbEntity
8
CURVE
100
AcDbLine
62
7
6
CONTINUOUS
10
134.9560120893
20
74.8991106898
11
135.2506400553
21
75.1385550239
0
LINE
5
424
100
AcDbEntity
8
CURVE
100
AcDbLine
62
7
6
CONTINUOUS
10
135.9872095488
20
73.7563629058
11
135.6925817936
21
73.5169186770
0
LINE
5
425
100
AcDbEntity
8
CURVE
100
AcDbLine
62
7
6
CONTINUOUS
10
135.2506400553
20
75.5992067795
11
134.8823552032
21
75.3229340023
0
LINE
5
426
100
AcDbEntity
8
CURVE
100
AcDbLine
62
7
6
CONTINUOUS
10
135.6925817936
20
73.0562668569
11
136.0608664350
21
73.3325395367
0
LINE
5
427
100
AcDbEntity
8
CURVE
100
AcDbLine
62
7
6
CONTINUOUS
10
154.0626266429
20
86.5714163005
11
153.6943417908
21
86.2951435233
0
LINE
5
428
100
AcDbEntity
8
CURVE
100
AcDbLine
62
7
6
CONTINUOUS
10
154.0626266429
20
85.0052000733
11
153.6943417908
21
84.7289272961
0
LINE
5
429
100
AcDbEntity
8
CURVE
100
AcDbLine
62
7
6
CONTINUOUS
10
154.4309114950
20
82.4254317076
11
154.7991961364
21
82.7017043875
0
LINE
5
42A
100
AcDbEntity
8
0
100
AcDbLine
62
7
6
CONTINUOUS
10
-153.9177319029
20
-98.7258022671
11
-151.4428581687
21
-97.4883654000
0
LINE
5
42B
100
AcDbEntity
8
0
100
AcDbLine
62
7
6
CONTINUOUS
10
174.8869213488
20
65.6765243588
11
177.3617950830
21
66.9139612258
0
LINE
5
42C
100
AcDbEntity
8
0
100
AcDbLine
62
7
6
CONTINUOUS
10
-152.8570717311
20
-99.2561323530
11
-150.3821979970
21
-98.0186954859
0
LINE
5
42D
100
AcDbEntity
8
0
100
AcDbLine
62
7
6
CONTINUOUS
10
175.9475815206
20
65.1461942729
11
178.4224552548
21
66.3836311400
0
LINE
5
42E
100
AcDbEntity
8
0
100
AcDbLine
62
7
6
CONTINUOUS
10
169.4068437947
20
61.3345595325
11
168.6997318850
21
60.9810035777
0
LINE
5
42F
100
AcDbEntity
8
0
100
AcDbLine
62
7
6
CONTINUOUS
10
-143.1343483613
20
-94.9360365455
11
-143.8414602710
21
-95.2895925003
0
LINE
5
430
100
AcDbEntity
8
0
100
AcDbLine
62
9
6
CONTINUOUS
10
-143.1343483613
20
-94.9360365455
11
168.6997318850
21
60.9810035777
0
LINE
5
431
100
AcDbEntity
8
0
100
AcDbLine
62
7
6
CONTINUOUS
10
167.8263972515
20
59.7224818458
11
-142.8056065953
21
-95.5935200776
0
LINE
5
432
100
AcDbEntity
8
0
100
AcDbLine
62
7
6
CONTINUOUS
10
180.3669989030
20
65.0825862792
11
170.1139505758
21
59.9560621155
0
LINE
5
433
100
AcDbEntity
8
0
100
AcDbLine
62
7
6
CONTINUOUS
10
-144.5485670522
20
-97.3751966985
11
-154.8016153794
21
-102.5017208621
0
LINE
5
434
100
AcDbEntity
8
CURVE
100
AcDbLine
62
7
6
CONTINUOUS
10
42.6432218054
20
30.3089317750
11
42.2749371641
21
30.2169198054
0
LINE
5
435
100
AcDbEntity
8
CURVE
100
AcDbLine
62
7
6
CONTINUOUS
10
79.7722204445
20
48.8734310945
11
79.4039355924
21
48.7814190196
0
LINE
5
436
100
AcDbEntity
8
CURVE
100
AcDbLine
62
7
6
CONTINUOUS
10
97.4056958003
20
54.4656060315
11
97.7739806524
21
54.5576181064
0
LINE
5
437
100
AcDbEntity
8
CURVE
100
AcDbLine
62
7
6
CONTINUOUS
10
21.5478695878
20
18.1029090879
11
21.7688404043
21
18.1212641450
0
LINE
5
438
100
AcDbEntity
8
CURVE
100
AcDbLine
62
7
6
CONTINUOUS
10
22.5054100031
20
20.2400258738
11
22.2844391340
21
20.2216707904
0
LINE
5
439
100
AcDbEntity
8
CURVE
100
AcDbLine
62
7
6
CONTINUOUS
10
21.1795847884
20
16.1682897910
11
21.5478695878
21
16.0760411132
0
LINE
5
43A
100
AcDbEntity
8
CURVE
100
AcDbLine
62
7
6
CONTINUOUS
10
21.1059278233
20
17.6976775034
11
21.4742125964
21
17.6054288366
0
LINE
5
43B
100
AcDbEntity
8
CURVE
100
AcDbLine
62
7
6
CONTINUOUS
10
22.9473517414
20
20.6452574452
11
22.5790668893
21
20.7375060725
0
LINE
5
43C
100
AcDbEntity
8
CURVE
100
AcDbLine
62
7
6
CONTINUOUS
10
21.6215265267
20
16.5735213947
11
21.4005556575
21
16.6472966624
0
LINE
5
43D
100
AcDbEntity
8
CURVE
100
AcDbLine
62
7
6
CONTINUOUS
10
21.3268987187
20
18.1766843556
11
21.5478695878
21
18.1029090879
0
LINE
5
43E
100
AcDbEntity
8
CURVE
100
AcDbLine
62
7
6
CONTINUOUS
10
22.7263808723
20
20.1662506062
11
22.5054100031
21
20.2400258738
0
LINE
5
43F
100
AcDbEntity
8
0
100
AcDbLine
62
7
6
CONTINUOUS
10
46.1934871729
20
8.3881352595
11
45.1328270011
21
8.9184653454
0
LINE
5
440
100
AcDbEntity
8
CURVE
100
AcDbLine
62
7
6
CONTINUOUS
10
20.9586139193
20
16.4263257932
11
21.1795847884
21
16.1682897910
0
LINE
5
441
100
AcDbEntity
8
CURVE
100
AcDbLine
62
7
6
CONTINUOUS
10
20.8849569673
20
17.9557134799
11
21.1059278233
21
17.6976775034
0
LINE
5
442
100
AcDbEntity
8
CURVE
100
AcDbLine
62
7
6
CONTINUOUS
10
23.1683226105
20
20.3872214753
11
22.9473517414
21
20.6452574452
0
LINE
5
443
100
AcDbEntity
8
CURVE
100
AcDbLine
62
7
6
CONTINUOUS
10
21.4005556575
20
16.6472966624
11
21.2532417272
21
16.8500308151
0
LINE
5
444
100
AcDbEntity
8
CURVE
100
AcDbLine
62
7
6
CONTINUOUS
10
21.1795847884
20
18.3794184438
11
21.3268987187
21
18.1766843556
0
LINE
5
445
100
AcDbEntity
8
CURVE
100
AcDbLine
62
7
6
CONTINUOUS
10
22.8736948553
20
19.9635165443
11
22.7263808723
21
20.1662506062
0
LINE
5
446
100
AcDbEntity
8
CURVE
100
AcDbLine
62
7
6
CONTINUOUS
10
20.7376430502
20
18.3427082769
11
20.8849569673
21
17.9557134799
0
LINE
5
447
100
AcDbEntity
8
CURVE
100
AcDbLine
62
7
6
CONTINUOUS
10
23.3156365935
20
20.0002264531
11
23.1683226105
21
20.3872214753
0
LINE
5
448
100
AcDbEntity
8
CURVE
100
AcDbLine
62
7
6
CONTINUOUS
10
20.8849569673
20
16.6658884351
11
20.9586139193
21
16.4263257932
0
LINE
5
449
100
AcDbEntity
8
CURVE
100
AcDbLine
62
7
6
CONTINUOUS
10
21.1059278233
20
18.6189810146
11
21.1795847884
21
18.3794184438
0
LINE
5
44A
100
AcDbEntity
8
CURVE
100
AcDbLine
62
7
6
CONTINUOUS
10
22.9473517414
20
19.7239536759
11
22.8736948553
21
19.9635165443
0
LINE
5
44B
100
AcDbEntity
8
CURVE
100
AcDbLine
62
7
6
CONTINUOUS
10
23.3892934796
20
19.3921424383
11
23.3156365935
21
20.0002264531
0
LINE
5
44C
100
AcDbEntity
8
0
100
AcDbLine
62
7
6
CONTINUOUS
10
35.5868854551
20
3.0848344006
11
35.5868854551
21
20.4053424763
0
LINE
5
44D
100
AcDbEntity
8
CURVE
100
AcDbLine
62
7
6
CONTINUOUS
10
39.4759727516
20
27.8961338299
11
39.4759727516
21
28.6331768970
0
LINE
5
44E
100
AcDbEntity
8
CURVE
100
AcDbLine
62
7
6
CONTINUOUS
10
39.9179144899
20
25.1689332050
11
39.9179144899
21
28.7620174150
0
LINE
5
44F
100
AcDbEntity
8
CURVE
100
AcDbLine
62
7
6
CONTINUOUS
10
40.3598562281
20
29.7200310931
11
40.3598562281
21
25.3899040741
0
LINE
5
450
100
AcDbEntity
8
CURVE
100
AcDbLine
62
7
6
CONTINUOUS
10
40.9491118440
20
28.2641819716
11
40.9491118440
21
27.4350088115
0
LINE
5
451
100
AcDbEntity
8
CURVE
100
AcDbLine
62
7
6
CONTINUOUS
10
41.3173965907
20
28.3561939938
11
41.3173965907
21
27.7112815360
0
LINE
5
452
100
AcDbEntity
8
CURVE
100
AcDbLine
62
7
6
CONTINUOUS
10
43.2324775267
20
28.6688220040
11
43.2324775267
21
29.3137344618
0
LINE
5
453
100
AcDbEntity
8
CURVE
100
AcDbLine
62
7
6
CONTINUOUS
10
43.6007621681
20
28.7608339735
11
43.6007621681
21
29.5900071336
0
LINE
5
454
100
AcDbEntity
8
0
100
AcDbLine
62
7
6
CONTINUOUS
10
45.1328270011
20
25.1783132493
11
45.1328270011
21
8.9184653454
0
LINE
5
455
100
AcDbEntity
8
CURVE
100
AcDbLine
62
7
6
CONTINUOUS
10
41.3910536876
20
28.9458046490
11
41.3173965907
21
28.3561939938
0
LINE
5
456
100
AcDbEntity
8
CURVE
100
AcDbLine
62
7
6
CONTINUOUS
10
43.1588204298
20
28.0792112197
11
43.2324775267
21
28.6688220040
0
LINE
5
457
100
AcDbEntity
8
CURVE
100
AcDbLine
62
7
6
CONTINUOUS
10
41.0227688355
20
28.7616622229
11
40.9491118440
21
28.2641819716
0
LINE
5
458
100
AcDbEntity
8
CURVE
100
AcDbLine
62
7
6
CONTINUOUS
10
43.5271054927
20
28.2633537512
11
43.6007621681
21
28.7608339735
0
LINE
5
459
100
AcDbEntity
8
CURVE
100
AcDbLine
62
7
6
CONTINUOUS
10
41.0964258270
20
29.0748820301
11
41.0227688355
21
28.7616622229
0
LINE
5
45A
100
AcDbEntity
8
CURVE
100
AcDbLine
62
7
6
CONTINUOUS
10
43.4534483958
20
27.9501341494
11
43.5271054927
21
28.2633537512
0
LINE
5
45B
100
AcDbEntity
8
CURVE
100
AcDbLine
62
7
6
CONTINUOUS
10
43.3061346235
20
27.5079557942
11
43.4534483958
21
27.9501341494
0
LINE
5
45C
100
AcDbEntity
8
CURVE
100
AcDbLine
62
7
6
CONTINUOUS
10
58.4971451655
20
38.1437631039
11
58.9390869038
21
39.0096464309
0
LINE
5
45D
100
AcDbEntity
8
CURVE
100
AcDbLine
62
7
6
CONTINUOUS
10
58.9390869038
20
38.2726036219
11
58.4971451655
21
37.4067200369
0
LINE
5
45E
100
AcDbEntity
8
CURVE
100
AcDbLine
62
7
6
CONTINUOUS
10
59.9702842579
20
38.8803326501
11
60.4122261015
21
39.7462160298
0
LINE
5
45F
100
AcDbEntity
8
CURVE
100
AcDbLine
62
7
6
CONTINUOUS
10
60.4122261015
20
39.0091732208
11
59.9702842579
21
38.1432895830
0
LINE
5
460
100
AcDbEntity
8
CURVE
100
AcDbLine
62
7
6
CONTINUOUS
10
78.0781104830
20
47.9342457627
11
78.3727383436
21
48.4500810975
0
LINE
5
461
100
AcDbEntity
8
CURVE
100
AcDbLine
62
7
6
CONTINUOUS
10
77.9307965000
20
44.6360260302
11
79.9931913136
21
47.9704824086
0
LINE
5
462
100
AcDbEntity
8
CURVE
100
AcDbLine
62
7
6
CONTINUOUS
10
80.3614759550
20
47.8782336760
11
78.5200521159
21
44.9306538382
0
LINE
5
463
100
AcDbEntity
8
CURVE
100
AcDbLine
62
7
6
CONTINUOUS
10
78.7410229850
20
48.3578323648
11
78.5200521159
21
48.0630862280
0
LINE
5
464
100
AcDbEntity
8
CURVE
100
AcDbLine
62
7
6
CONTINUOUS
10
97.4793526865
20
57.7269972155
11
97.2583818173
21
57.4322510787
0
LINE
5
465
100
AcDbEntity
8
CURVE
100
AcDbLine
62
7
6
CONTINUOUS
10
97.1110680451
20
57.8192459482
11
97.4056958003
21
58.1508205281
0
LINE
5
466
100
AcDbEntity
8
CURVE
100
AcDbLine
62
7
6
CONTINUOUS
10
98.5842070321
20
55.0548616474
11
98.7315210151
21
55.2206489900
0
LINE
5
467
100
AcDbEntity
8
CURVE
100
AcDbLine
62
7
6
CONTINUOUS
10
98.8788347873
20
54.9257844394
11
98.5842070321
21
54.5942098353
0
LINE
5
468
100
AcDbEntity
8
CURVE
100
AcDbLine
62
7
6
CONTINUOUS
10
153.7679988877
20
85.8713203161
11
153.9889697568
21
86.0739361018
0
LINE
5
469
100
AcDbEntity
8
CURVE
100
AcDbLine
62
7
6
CONTINUOUS
10
153.9889697568
20
84.5077198746
11
153.7679988877
21
84.3051040889
0
LINE
5
46A
100
AcDbEntity
8
CURVE
100
AcDbLine
62
7
6
CONTINUOUS
10
154.5045683811
20
82.9229119708
11
154.7255392503
21
83.1255277565
0
LINE
5
46B
100
AcDbEntity
8
CURVE
100
AcDbLine
62
7
6
CONTINUOUS
10
98.5105501459
20
58.2425959452
11
98.1422652938
21
58.1505838703
0
LINE
5
46C
100
AcDbEntity
8
CURVE
100
AcDbLine
62
7
6
CONTINUOUS
10
134.8823552032
20
72.7432839209
11
135.2506400553
21
72.8352959878
0
LINE
5
46D
100
AcDbEntity
8
CURVE
100
AcDbLine
62
7
6
CONTINUOUS
10
136.0608664350
20
75.9121896182
11
135.6925817936
21
75.8201776486
0
LINE
5
46E
100
AcDbEntity
8
CURVE
100
AcDbLine
62
7
6
CONTINUOUS
10
153.6943417908
20
82.1492772147
11
154.0626266429
21
82.2412892815
0
LINE
5
46F
100
AcDbEntity
8
CURVE
100
AcDbLine
62
7
6
CONTINUOUS
10
97.7003235556
20
54.0601377379
11
97.4056958003
21
54.0049542194
0
LINE
5
470
100
AcDbEntity
8
CURVE
100
AcDbLine
62
7
6
CONTINUOUS
10
41.4647105737
20
26.3108526837
11
41.8329954258
21
26.2186040322
0
LINE
5
471
100
AcDbEntity
8
CURVE
100
AcDbLine
62
7
6
CONTINUOUS
10
43.0851637544
20
30.7141634517
11
42.7168789023
21
30.8064120790
0
LINE
5
472
100
AcDbEntity
8
CURVE
100
AcDbLine
62
7
6
CONTINUOUS
10
41.6856814428
20
26.7898595550
11
41.9066523120
21
26.7160842873
0
LINE
5
473
100
AcDbEntity
8
CURVE
100
AcDbLine
62
7
6
CONTINUOUS
10
42.8641926746
20
30.2351565073
11
42.6432218054
21
30.3089317750
0
LINE
5
474
100
AcDbEntity
8
0
100
AcDbLine
62
7
6
CONTINUOUS
10
64.9318168743
20
17.7573001102
11
63.8711567026
21
18.2876301961
0
LINE
5
475
100
AcDbEntity
8
CURVE
100
AcDbLine
62
7
6
CONTINUOUS
10
40.9491118440
20
27.4350088115
11
41.0227688355
21
27.0111854226
0
LINE
5
476
100
AcDbEntity
8
CURVE
100
AcDbLine
62
7
6
CONTINUOUS
10
41.3173965907
20
27.7112815360
11
41.3910536876
21
27.1953278486
0
LINE
5
477
100
AcDbEntity
8
0
100
AcDbLine
62
7
6
CONTINUOUS
10
46.1934871729
20
25.7086433352
11
46.1934871729
21
8.3881352595
0
LINE
5
478
100
AcDbEntity
8
0
100
AcDbLine
62
7
6
CONTINUOUS
10
54.3252151565
20
12.4539992513
11
54.3252151565
21
29.7745073270
0
LINE
5
479
100
AcDbEntity
8
CURVE
100
AcDbLine
62
7
6
CONTINUOUS
10
58.4971451655
20
37.4067200369
11
58.4971451655
21
38.1437631039
0
LINE
5
47A
100
AcDbEntity
8
CURVE
100
AcDbLine
62
7
6
CONTINUOUS
10
58.9390869038
20
34.6795194120
11
58.9390869038
21
38.2726036219
0
LINE
5
47B
100
AcDbEntity
8
CURVE
100
AcDbLine
62
7
6
CONTINUOUS
10
59.3810286420
20
39.2306173000
11
59.3810286420
21
34.9004902811
0
LINE
5
47C
100
AcDbEntity
8
CURVE
100
AcDbLine
62
7
6
CONTINUOUS
10
78.5200521159
20
48.0630862280
11
78.3727383436
21
47.7130382885
0
LINE
5
47D
100
AcDbEntity
8
CURVE
100
AcDbLine
62
7
6
CONTINUOUS
10
80.5087901487
20
48.2282818262
11
80.3614759550
21
47.8782336760
0
LINE
5
47E
100
AcDbEntity
8
CURVE
100
AcDbLine
62
7
6
CONTINUOUS
10
76.4576574077
20
47.1240192250
11
76.8995991459
21
47.9899025520
0
LINE
5
47F
100
AcDbEntity
8
CURVE
100
AcDbLine
62
7
6
CONTINUOUS
10
76.8995991459
20
47.2528597430
11
76.4576574077
21
46.3869761579
0
LINE
5
480
100
AcDbEntity
8
CURVE
100
AcDbLine
62
7
6
CONTINUOUS
10
95.1959871091
20
56.4931840757
11
95.6379288474
21
57.3590674027
0
LINE
5
481
100
AcDbEntity
8
CURVE
100
AcDbLine
62
7
6
CONTINUOUS
10
96.8164401845
20
57.3034106134
11
97.1110680451
21
57.8192459482
0
LINE
5
482
100
AcDbEntity
8
CURVE
100
AcDbLine
62
7
6
CONTINUOUS
10
98.5842070321
20
57.0817295656
11
98.7315210151
21
57.3396472594
0
LINE
5
483
100
AcDbEntity
8
CURVE
100
AcDbLine
62
7
6
CONTINUOUS
10
98.7315210151
20
55.2206489900
11
98.8788347873
21
55.4785666429
0
LINE
5
484
100
AcDbEntity
8
CURVE
100
AcDbLine
62
7
6
CONTINUOUS
10
99.0261489810
20
57.2105701890
11
98.7315210151
21
56.7868651526
0
LINE
5
485
100
AcDbEntity
8
CURVE
100
AcDbLine
62
7
6
CONTINUOUS
10
99.0998056564
20
55.2205306084
11
98.8788347873
21
54.9257844394
0
LINE
5
486
100
AcDbEntity
8
CURVE
100
AcDbLine
62
7
6
CONTINUOUS
10
134.8823552032
20
75.3229340023
11
134.5140703511
21
74.8624005229
0
LINE
5
487
100
AcDbEntity
8
CURVE
100
AcDbLine
62
7
6
CONTINUOUS
10
154.7991961364
20
85.2813544689
11
154.4309114950
21
85.1893424993
0
LINE
5
488
100
AcDbEntity
8
CURVE
100
AcDbLine
62
7
6
CONTINUOUS
10
154.7255392503
20
86.8107422530
11
154.3572543982
21
86.7187301781
0
LINE
5
489
100
AcDbEntity
8
CURVE
100
AcDbLine
62
7
6
CONTINUOUS
10
135.2506400553
20
73.2959478079
11
134.9560120893
21
73.2407641760
0
LINE
5
48A
100
AcDbEntity
8
CURVE
100
AcDbLine
62
7
6
CONTINUOUS
10
135.6925817936
20
75.3595258930
11
135.9872095488
21
75.4147094195
0
LINE
5
48B
100
AcDbEntity
8
CURVE
100
AcDbLine
62
7
6
CONTINUOUS
10
98.7315210151
20
56.7868651526
11
99.0998056564
21
56.7867467711
0
LINE
5
48C
100
AcDbEntity
8
CURVE
100
AcDbLine
62
7
6
CONTINUOUS
10
41.2437397046
20
26.4767583348
11
41.4647105737
21
26.3108526837
0
LINE
5
48D
100
AcDbEntity
8
CURVE
100
AcDbLine
62
7
6
CONTINUOUS
10
43.3061346235
20
30.5482578329
11
43.0851637544
21
30.7141634517
0
LINE
5
48E
100
AcDbEntity
8
CURVE
100
AcDbLine
62
7
6
CONTINUOUS
10
41.3910536876
20
27.1953278486
11
41.6856814428
21
26.7898595550
0
LINE
5
48F
100
AcDbEntity
8
CURVE
100
AcDbLine
62
7
6
CONTINUOUS
10
43.1588204298
20
29.8296880201
11
42.8641926746
21
30.2351565073
0
LINE
5
490
100
AcDbEntity
8
CURVE
100
AcDbLine
62
7
6
CONTINUOUS
10
41.0964258270
20
26.7716228650
11
41.2437397046
21
26.4767583348
0
LINE
5
491
100
AcDbEntity
8
CURVE
100
AcDbLine
62
7
6
CONTINUOUS
10
43.4534483958
20
30.2533933146
11
43.3061346235
21
30.5482578329
0
LINE
5
492
100
AcDbEntity
8
CURVE
100
AcDbLine
62
7
6
CONTINUOUS
10
41.0227688355
20
27.0111854226
11
41.0964258270
21
26.7716228650
0
LINE
5
493
100
AcDbEntity
8
CURVE
100
AcDbLine
62
7
6
CONTINUOUS
10
43.5271054927
20
30.0138305515
11
43.4534483958
21
30.2533933146
0
LINE
5
494
100
AcDbEntity
8
CURVE
100
AcDbLine
62
7
6
CONTINUOUS
10
43.6007621681
20
29.5900071336
11
43.5271054927
21
30.0138305515
0
LINE
5
495
100
AcDbEntity
8
CURVE
100
AcDbLine
62
7
6
CONTINUOUS
10
43.2324775267
20
29.3137344618
11
43.1588204298
21
29.8296880201
0
LINE
5
496
100
AcDbEntity
8
CURVE
100
AcDbLine
62
7
6
CONTINUOUS
10
59.9702842579
20
38.1432895830
11
59.9702842579
21
38.8803326501
0
LINE
5
497
100
AcDbEntity
8
CURVE
100
AcDbLine
62
7
6
CONTINUOUS
10
60.4122261015
20
35.4160890108
11
60.4122261015
21
39.0091732208
0
LINE
5
498
100
AcDbEntity
8
CURVE
100
AcDbLine
62
7
6
CONTINUOUS
10
60.8541678397
20
39.9671868989
11
60.8541678397
21
35.6370598800
0
LINE
5
499
100
AcDbEntity
8
0
100
AcDbLine
62
7
6
CONTINUOUS
10
63.8711567026
20
34.5474781000
11
63.8711567026
21
18.2876301961
0
LINE
5
49A
100
AcDbEntity
8
0
100
AcDbLine
62
7
6
CONTINUOUS
10
64.9318168743
20
35.0778081859
11
64.9318168743
21
17.7573001102
0
LINE
5
49B
100
AcDbEntity
8
0
100
AcDbLine
62
7
6
CONTINUOUS
10
73.0635448580
20
21.8231641020
11
73.0635448580
21
39.1436721777
0
LINE
5
49C
100
AcDbEntity
8
CURVE
100
AcDbLine
62
7
6
CONTINUOUS
10
78.0044534915
20
47.5288958624
11
78.0781104830
21
47.9342457627
0
LINE
5
49D
100
AcDbEntity
8
CURVE
100
AcDbLine
62
7
6
CONTINUOUS
10
80.5824468241
20
48.6336315684
11
80.5087901487
21
48.2282818262
0
LINE
5
49E
100
AcDbEntity
8
CURVE
100
AcDbLine
62
7
6
CONTINUOUS
10
79.9931913136
20
47.9704824086
11
80.1405050859
21
48.4126606993
0
LINE
5
49F
100
AcDbEntity
8
CURVE
100
AcDbLine
62
7
6
CONTINUOUS
10
97.2583818173
20
57.4322510787
11
97.1110680451
21
57.0822031392
0
LINE
5
4A0
100
AcDbEntity
8
CURVE
100
AcDbLine
62
7
6
CONTINUOUS
10
99.1734627533
20
57.5606181285
11
99.0261489810
21
57.2105701890
0
LINE
5
4A1
100
AcDbEntity
8
CURVE
100
AcDbLine
62
7
6
CONTINUOUS
10
99.2471198502
20
55.5705787587
11
99.0998056564
21
55.2205306084
0
LINE
5
4A2
100
AcDbEntity
8
CURVE
100
AcDbLine
62
7
6
CONTINUOUS
10
95.6379288474
20
56.6220245937
11
95.1959871091
21
55.7561410086
0
LINE
5
4A3
100
AcDbEntity
8
CURVE
100
AcDbLine
62
7
6
CONTINUOUS
10
113.9343168106
20
65.8623489264
11
114.3762585488
21
66.7282322534
0
LINE
5
4A4
100
AcDbEntity
8
CURVE
100
AcDbLine
62
7
6
CONTINUOUS
10
114.3762585488
20
65.9911894444
11
113.9343168106
21
65.1253058594
0
LINE
5
4A5
100
AcDbEntity
8
CURVE
100
AcDbLine
62
7
6
CONTINUOUS
10
115.4074559029
20
64.7563111921
11
117.1752229612
21
68.1277144596
0
LINE
5
4A6
100
AcDbEntity
8
CURVE
100
AcDbLine
62
7
6
CONTINUOUS
10
115.9230546327
20
65.0141105569
11
117.1752229612
21
67.3906716507
0
LINE
5
4A7
100
AcDbEntity
8
CURVE
100
AcDbLine
62
7
6
CONTINUOUS
10
134.6613843341
20
74.4754057588
11
134.9560120893
21
74.8991106898
0
LINE
5
4A8
100
AcDbEntity
8
CURVE
100
AcDbLine
62
7
6
CONTINUOUS
10
136.2081804179
20
74.0511090426
11
135.9872095488
21
73.7563629058
0
LINE
5
4A9
100
AcDbEntity
8
CURVE
100
AcDbLine
62
7
6
CONTINUOUS
10
153.5470280185
20
85.5765741793
11
153.7679988877
21
85.8713203161
0
LINE
5
4AA
100
AcDbEntity
8
CURVE
100
AcDbLine
62
7
6
CONTINUOUS
10
153.6943417908
20
84.7289272961
11
153.2524000525
21
84.1394350225
0
LINE
5
4AB
100
AcDbEntity
8
CURVE
100
AcDbLine
62
7
6
CONTINUOUS
10
153.7679988877
20
84.3051040889
11
153.5470280185
21
84.0103579521
0
LINE
5
4AC
100
AcDbEntity
8
CURVE
100
AcDbLine
62
7
6
CONTINUOUS
10
136.0608664350
20
73.3325395367
11
136.4291512871
21
73.7930730404
0
LINE
5
4AD
100
AcDbEntity
8
CURVE
100
AcDbLine
62
7
6
CONTINUOUS
10
153.6943417908
20
86.2951435233
11
153.3260571494
21
85.8346101492
0
LINE
5
4AE
100
AcDbEntity
8
CURVE
100
AcDbLine
62
7
6
CONTINUOUS
10
154.7991961364
20
82.7017043875
11
155.1674809885
21
83.1622378911
0
LINE
5
4AF
100
AcDbEntity
8
CURVE
100
AcDbLine
62
7
6
CONTINUOUS
10
153.7679988877
20
82.6467575752
11
153.9889697568
21
82.6651126586
0
LINE
5
4B0
100
AcDbEntity
8
CURVE
100
AcDbLine
62
7
6
CONTINUOUS
10
154.7255392503
20
84.7838742702
11
154.5045683811
21
84.7655191868
0
LINE
5
4B1
100
AcDbEntity
8
CURVE
100
AcDbLine
62
7
6
CONTINUOUS
10
79.9195344275
20
49.4077398416
11
80.2141621827
21
49.3707930170
0
LINE
5
4B2
100
AcDbEntity
8
CURVE
100
AcDbLine
62
7
6
CONTINUOUS
10
97.4056958003
20
54.0049542194
11
97.1110680451
21
54.0419010683
0
LINE
5
4B3
100
AcDbEntity
8
CURVE
100
AcDbLine
62
7
6
CONTINUOUS
10
97.2583818173
20
54.4840793911
11
97.4056958003
21
54.4656060315
0
LINE
5
4B4
100
AcDbEntity
8
CURVE
100
AcDbLine
62
7
6
CONTINUOUS
10
98.5842070321
20
58.7400761439
11
98.8788347873
21
58.7031293193
0
LINE
5
4B5
100
AcDbEntity
8
CURVE
100
AcDbLine
62
7
6
CONTINUOUS
10
79.9931913136
20
48.7996558268
11
79.7722204445
21
48.8734310945
0
LINE
5
4B6
100
AcDbEntity
8
0
100
AcDbLine
62
7
6
CONTINUOUS
10
83.6701465758
20
27.1264649609
11
82.6094864040
21
27.6567950468
0
LINE
5
4B7
100
AcDbEntity
8
CURVE
100
AcDbLine
62
7
6
CONTINUOUS
10
76.4576574077
20
46.3869761579
11
76.4576574077
21
47.1240192250
0
LINE
5
4B8
100
AcDbEntity
8
CURVE
100
AcDbLine
62
7
6
CONTINUOUS
10
76.8995991459
20
43.6597755330
11
76.8995991459
21
47.2528597430
0
LINE
5
4B9
100
AcDbEntity
8
CURVE
100
AcDbLine
62
7
6
CONTINUOUS
10
77.3415408842
20
48.2108734211
11
77.3415408842
21
43.8807464022
0
LINE
5
4BA
100
AcDbEntity
8
CURVE
100
AcDbLine
62
7
6
CONTINUOUS
10
77.9307965000
20
44.1753742101
11
77.9307965000
21
44.6360260302
0
LINE
5
4BB
100
AcDbEntity
8
CURVE
100
AcDbLine
62
7
6
CONTINUOUS
10
80.1405050859
20
48.4126606993
11
80.1405050859
21
48.5969216596
0
LINE
5
4BC
100
AcDbEntity
8
CURVE
100
AcDbLine
62
7
6
CONTINUOUS
10
80.5824468241
20
48.8178925287
11
80.5824468241
21
48.6336315684
0
LINE
5
4BD
100
AcDbEntity
8
CURVE
100
AcDbLine
62
7
6
CONTINUOUS
10
80.5824468241
20
45.9618511923
11
80.5824468241
21
45.5011993721
0
LINE
5
4BE
100
AcDbEntity
8
0
100
AcDbLine
62
7
6
CONTINUOUS
10
82.6094864040
20
43.9166429507
11
82.6094864040
21
27.6567950468
0
LINE
5
4BF
100
AcDbEntity
8
0
100
AcDbLine
62
7
6
CONTINUOUS
10
83.6701465758
20
44.4469730366
11
83.6701465758
21
27.1264649609
0
LINE
5
4C0
100
AcDbEntity
8
CURVE
100
AcDbLine
62
7
6
CONTINUOUS
10
96.7427831930
20
56.8980607132
11
96.8164401845
21
57.3034106134
0
LINE
5
4C1
100
AcDbEntity
8
CURVE
100
AcDbLine
62
7
6
CONTINUOUS
10
99.2471198502
20
57.9659680814
11
99.1734627533
21
57.5606181285
0
LINE
5
4C2
100
AcDbEntity
8
CURVE
100
AcDbLine
62
7
6
CONTINUOUS
10
99.3207765256
20
55.8837982143
11
99.2471198502
21
55.5705787587
0
LINE
5
4C3
100
AcDbEntity
8
CURVE
100
AcDbLine
62
7
6
CONTINUOUS
10
98.7315210151
20
57.3396472594
11
98.8788347873
21
57.7818255500
0
LINE
5
4C4
100
AcDbEntity
8
CURVE
100
AcDbLine
62
7
6
CONTINUOUS
10
98.8788347873
20
55.4785666429
11
98.9524918842
21
55.6996558936
0
LINE
5
4C5
100
AcDbEntity
8
CURVE
100
AcDbLine
62
7
6
CONTINUOUS
10
132.6726465120
20
75.2315137772
11
133.1145882503
21
76.0973971041
0
LINE
5
4C6
100
AcDbEntity
8
CURVE
100
AcDbLine
62
7
6
CONTINUOUS
10
133.1145882503
20
75.3603542952
11
132.6726465120
21
74.4944707101
0
LINE
5
4C7
100
AcDbEntity
8
CURVE
100
AcDbLine
62
7
6
CONTINUOUS
10
154.7255392503
20
83.1255277565
11
154.9465101194
21
83.4202738933
0
LINE
5
4C8
100
AcDbEntity
8
CURVE
100
AcDbLine
62
7
6
CONTINUOUS
10
154.4309114950
20
86.2949069709
11
154.6518823641
21
86.3132620543
0
LINE
5
4C9
100
AcDbEntity
8
CURVE
100
AcDbLine
62
7
6
CONTINUOUS
10
97.1110680451
20
54.0419010683
11
96.8900970706
21
54.1156763155
0
LINE
5
4CA
100
AcDbEntity
8
CURVE
100
AcDbLine
62
7
6
CONTINUOUS
10
98.8051781119
20
56.3630419455
11
98.5842070321
21
56.4368171078
0
LINE
5
4CB
100
AcDbEntity
8
CURVE
100
AcDbLine
62
7
6
CONTINUOUS
10
98.7315210151
20
58.1688206776
11
98.5105501459
21
58.2425959452
0
LINE
5
4CC
100
AcDbEntity
8
0
100
AcDbLine
62
7
6
CONTINUOUS
10
102.4084762772
20
36.4956298117
11
101.3478161054
21
37.0259598975
0
LINE
5
4CD
100
AcDbEntity
8
0
100
AcDbLine
62
7
6
CONTINUOUS
10
91.8018745594
20
31.1923289528
11
91.8018745594
21
48.5128370284
0
LINE
5
4CE
100
AcDbEntity
8
CURVE
100
AcDbLine
62
7
6
CONTINUOUS
10
95.1959871091
20
55.7561410086
11
95.1959871091
21
56.4931840757
0
LINE
5
4CF
100
AcDbEntity
8
CURVE
100
AcDbLine
62
7
6
CONTINUOUS
10
95.6379288474
20
53.0289403838
11
95.6379288474
21
56.6220245937
0
LINE
5
4D0
100
AcDbEntity
8
CURVE
100
AcDbLine
62
7
6
CONTINUOUS
10
96.0798705856
20
57.5800382718
11
96.0798705856
21
53.2499112529
0
LINE
5
4D1
100
AcDbEntity
8
CURVE
100
AcDbLine
62
7
6
CONTINUOUS
10
97.8476375386
20
56.1606627121
11
97.8476375386
21
56.5291841166
0
LINE
5
4D2
100
AcDbEntity
8
CURVE
100
AcDbLine
62
7
6
CONTINUOUS
10
98.8788347873
20
57.7818255500
11
98.8788347873
21
57.9660865103
0
LINE
5
4D3
100
AcDbEntity
8
CURVE
100
AcDbLine
62
7
6
CONTINUOUS
10
98.9524918842
20
55.6996558936
11
98.9524918842
21
56.0681772981
0
LINE
5
4D4
100
AcDbEntity
8
CURVE
100
AcDbLine
62
7
6
CONTINUOUS
10
99.2471198502
20
58.1502290417
11
99.2471198502
21
57.9659680814
0
LINE
5
4D5
100
AcDbEntity
8
CURVE
100
AcDbLine
62
7
6
CONTINUOUS
10
99.3207765256
20
56.2523196187
11
99.3207765256
21
55.8837982143
0
LINE
5
4D6
100
AcDbEntity
8
0
100
AcDbLine
62
7
6
CONTINUOUS
10
101.3478161054
20
53.2858078015
11
101.3478161054
21
37.0259598975
0
LINE
5
4D7
100
AcDbEntity
8
CURVE
100
AcDbLine
62
7
6
CONTINUOUS
10
136.3554941902
20
74.4011570466
11
136.2081804179
21
74.0511090426
0
LINE
5
4D8
100
AcDbEntity
8
CURVE
100
AcDbLine
62
7
6
CONTINUOUS
10
136.4291512871
20
73.7930730404
11
136.6501221562
21
74.2720799117
0
LINE
5
4D9
100
AcDbEntity
8
CURVE
100
AcDbLine
62
7
6
CONTINUOUS
10
151.4109762135
20
84.6006786279
11
151.8529179517
21
85.4665619549
0
LINE
5
4DA
100
AcDbEntity
8
CURVE
100
AcDbLine
62
7
6
CONTINUOUS
10
151.8529179517
20
84.7295191459
11
151.4109762135
21
83.8636355608
0
LINE
5
4DB
100
AcDbEntity
8
CURVE
100
AcDbLine
62
7
6
CONTINUOUS
10
153.5470280185
20
84.0103579521
11
153.3997140355
21
83.7524402584
0
LINE
5
4DC
100
AcDbEntity
8
0
100
AcDbLine
62
7
6
CONTINUOUS
10
121.1468059787
20
45.8647946624
11
120.0861458069
21
46.3951247483
0
LINE
5
4DD
100
AcDbEntity
8
CURVE
100
AcDbLine
62
7
6
CONTINUOUS
10
80.2141621827
20
49.3707930170
11
80.5087901487
21
49.1495855955
0
LINE
5
4DE
100
AcDbEntity
8
CURVE
100
AcDbLine
62
7
6
CONTINUOUS
10
80.1405050859
20
48.5969216596
11
79.9931913136
21
48.7996558268
0
LINE
5
4DF
100
AcDbEntity
8
CURVE
100
AcDbLine
62
7
6
CONTINUOUS
10
80.5087901487
20
49.1495855955
11
80.5824468241
21
48.8178925287
0
LINE
5
4E0
100
AcDbEntity
8
0
100
AcDbLine
62
7
6
CONTINUOUS
10
102.4084762772
20
53.8161378873
11
102.4084762772
21
36.4956298117
0
LINE
5
4E1
100
AcDbEntity
8
0
100
AcDbLine
62
7
6
CONTINUOUS
10
110.5402042609
20
40.5614938035
11
110.5402042609
21
57.8820018792
0
LINE
5
4E2
100
AcDbEntity
8
CURVE
100
AcDbLine
62
7
6
CONTINUOUS
10
113.9343168106
20
65.1253058594
11
113.9343168106
21
65.8623489264
0
LINE
5
4E3
100
AcDbEntity
8
CURVE
100
AcDbLine
62
7
6
CONTINUOUS
10
114.3762585488
20
62.3981052345
11
114.3762585488
21
65.9911894444
0
LINE
5
4E4
100
AcDbEntity
8
CURVE
100
AcDbLine
62
7
6
CONTINUOUS
10
114.8182002870
20
66.9492031225
11
114.8182002870
21
62.6190761036
0
LINE
5
4E5
100
AcDbEntity
8
CURVE
100
AcDbLine
62
7
6
CONTINUOUS
10
136.6501221562
20
74.2720799117
11
136.7974359284
21
74.8063886179
0
LINE
5
4E6
100
AcDbEntity
8
CURVE
100
AcDbLine
62
7
6
CONTINUOUS
10
153.3997140355
20
85.2265261344
11
153.5470280185
21
85.5765741793
0
LINE
5
4E7
100
AcDbEntity
8
CURVE
100
AcDbLine
62
7
6
CONTINUOUS
10
154.9465101194
20
83.4202738933
11
155.0938238916
21
83.7703218973
0
LINE
5
4E8
100
AcDbEntity
8
CURVE
100
AcDbLine
62
7
6
CONTINUOUS
10
153.3260571494
20
85.8346101492
11
153.1050861749
21
85.3556032575
0
LINE
5
4E9
100
AcDbEntity
8
CURVE
100
AcDbLine
62
7
6
CONTINUOUS
10
155.1674809885
20
83.1622378911
11
155.3884518576
21
83.6412447624
0
LINE
5
4EA
100
AcDbEntity
8
CURVE
100
AcDbLine
62
7
6
CONTINUOUS
10
134.5140703511
20
72.8355325724
11
134.8823552032
21
72.7432839209
0
LINE
5
4EB
100
AcDbEntity
8
CURVE
100
AcDbLine
62
7
6
CONTINUOUS
10
136.4291512871
20
75.8199409909
11
136.0608664350
21
75.9121896182
0
LINE
5
4EC
100
AcDbEntity
8
CURVE
100
AcDbLine
62
7
6
CONTINUOUS
10
134.9560120893
20
73.2407641760
11
134.7350412202
21
73.3145394437
0
LINE
5
4ED
100
AcDbEntity
8
0
100
AcDbLine
62
7
6
CONTINUOUS
10
139.8851356801
20
55.2339595131
11
138.8244755083
21
55.7642895990
0
LINE
5
4EE
100
AcDbEntity
8
CURVE
100
AcDbLine
62
7
6
CONTINUOUS
10
97.1110680451
20
54.5946832718
11
97.2583818173
21
54.4840793911
0
LINE
5
4EF
100
AcDbEntity
8
CURVE
100
AcDbLine
62
7
6
CONTINUOUS
10
98.8788347873
20
58.7031293193
11
99.1734627533
21
58.4819218978
0
LINE
5
4F0
100
AcDbEntity
8
CURVE
100
AcDbLine
62
7
6
CONTINUOUS
10
96.8900970706
20
54.1156763155
11
96.7427831930
21
54.3184104301
0
LINE
5
4F1
100
AcDbEntity
8
CURVE
100
AcDbLine
62
7
6
CONTINUOUS
10
99.0998056564
20
56.7867467711
11
99.2471198502
21
56.5840128146
0
LINE
5
4F2
100
AcDbEntity
8
CURVE
100
AcDbLine
62
7
6
CONTINUOUS
10
98.8788347873
20
57.9660865103
11
98.7315210151
21
58.1688206776
0
LINE
5
4F3
100
AcDbEntity
8
CURVE
100
AcDbLine
62
7
6
CONTINUOUS
10
97.0374109482
20
54.7421154256
11
97.1110680451
21
54.5946832718
0
LINE
5
4F4
100
AcDbEntity
8
CURVE
100
AcDbLine
62
7
6
CONTINUOUS
10
98.9524918842
20
56.0681772981
11
98.8051781119
21
56.3630419455
0
LINE
5
4F5
100
AcDbEntity
8
CURVE
100
AcDbLine
62
7
6
CONTINUOUS
10
96.7427831930
20
54.3184104301
11
96.6691262015
21
54.5579730522
0
LINE
5
4F6
100
AcDbEntity
8
CURVE
100
AcDbLine
62
7
6
CONTINUOUS
10
99.2471198502
20
56.5840128146
11
99.3207765256
21
56.2523196187
0
LINE
5
4F7
100
AcDbEntity
8
CURVE
100
AcDbLine
62
7
6
CONTINUOUS
10
99.1734627533
20
58.4819218978
11
99.2471198502
21
58.1502290417
0
LINE
5
4F8
100
AcDbEntity
8
CURVE
100
AcDbLine
62
7
6
CONTINUOUS
10
115.4074559029
20
64.2035289563
11
115.4074559029
21
64.7563111921
0
LINE
5
4F9
100
AcDbEntity
8
CURVE
100
AcDbLine
62
7
6
CONTINUOUS
10
117.1752229612
20
67.3906716507
11
117.1752229612
21
65.6401947212
0
LINE
5
4FA
100
AcDbEntity
8
CURVE
100
AcDbLine
62
7
6
CONTINUOUS
10
117.1752229612
20
63.7975874407
11
117.1752229612
21
65.0874124855
0
LINE
5
4FB
100
AcDbEntity
8
CURVE
100
AcDbLine
62
7
6
CONTINUOUS
10
117.6171644888
20
68.3486852234
11
117.6171644888
21
65.8611654850
0
LINE
5
4FC
100
AcDbEntity
8
CURVE
100
AcDbLine
62
7
6
CONTINUOUS
10
117.6171644888
20
65.3083832492
11
117.6171644888
21
64.0185582045
0
LINE
5
4FD
100
AcDbEntity
8
CURVE
100
AcDbLine
62
7
6
CONTINUOUS
10
118.3537341930
20
66.2294503371
11
118.3537341930
21
65.6766681013
0
LINE
5
4FE
100
AcDbEntity
8
0
100
AcDbLine
62
7
6
CONTINUOUS
10
120.0861458069
20
62.6549726522
11
120.0861458069
21
46.3951247483
0
LINE
5
4FF
100
AcDbEntity
8
0
100
AcDbLine
62
7
6
CONTINUOUS
10
121.1468059787
20
63.1853027381
11
121.1468059787
21
45.8647946624
0
LINE
5
500
100
AcDbEntity
8
CURVE
100
AcDbLine
62
7
6
CONTINUOUS
10
136.4291512871
20
74.7143766484
11
136.3554941902
21
74.4011570466
0
LINE
5
501
100
AcDbEntity
8
CURVE
100
AcDbLine
62
7
6
CONTINUOUS
10
153.1050861749
20
85.3556032575
11
152.9577722973
21
84.8212943050
0
LINE
5
502
100
AcDbEntity
8
CURVE
100
AcDbLine
62
7
6
CONTINUOUS
10
155.3884518576
20
83.6412447624
11
155.5357656299
21
84.1755534687
0
LINE
5
503
100
AcDbEntity
8
CURVE
100
AcDbLine
62
7
6
CONTINUOUS
10
153.3260571494
20
82.2415259715
11
153.6943417908
21
82.1492772147
0
LINE
5
504
100
AcDbEntity
8
CURVE
100
AcDbLine
62
7
6
CONTINUOUS
10
155.1674809885
20
85.1891058416
11
154.7991961364
21
85.2813544689
0
LINE
5
505
100
AcDbEntity
8
CURVE
100
AcDbLine
62
7
6
CONTINUOUS
10
155.0938238916
20
86.7184935203
11
154.7255392503
21
86.8107422530
0
LINE
5
506
100
AcDbEntity
8
CURVE
100
AcDbLine
62
7
6
CONTINUOUS
10
135.9872095488
20
75.4147094195
11
136.2081804179
21
75.3409341518
0
LINE
5
507
100
AcDbEntity
8
CURVE
100
AcDbLine
62
7
6
CONTINUOUS
10
153.5470280185
20
82.7205328429
11
153.7679988877
21
82.6467575752
0
LINE
5
508
100
AcDbEntity
8
0
100
AcDbLine
62
7
6
CONTINUOUS
10
129.2785339623
20
49.9306586542
11
129.2785339623
21
67.2511667299
0
LINE
5
509
100
AcDbEntity
8
CURVE
100
AcDbLine
62
7
6
CONTINUOUS
10
132.6726465120
20
74.4944707101
11
132.6726465120
21
75.2315137772
0
LINE
5
50A
100
AcDbEntity
8
CURVE
100
AcDbLine
62
7
6
CONTINUOUS
10
133.1145882503
20
71.7672700852
11
133.1145882503
21
75.3603542952
0
LINE
5
50B
100
AcDbEntity
8
CURVE
100
AcDbLine
62
7
6
CONTINUOUS
10
133.5565299885
20
76.3183679733
11
133.5565299885
21
71.9882409543
0
LINE
5
50C
100
AcDbEntity
8
CURVE
100
AcDbLine
62
7
6
CONTINUOUS
10
134.1457856044
20
76.6129957812
11
134.1457856044
21
74.2176063939
0
LINE
5
50D
100
AcDbEntity
8
CURVE
100
AcDbLine
62
7
6
CONTINUOUS
10
134.5140703511
20
74.8624005229
11
134.5140703511
21
76.3364863990
0
LINE
5
50E
100
AcDbEntity
8
CURVE
100
AcDbLine
62
7
6
CONTINUOUS
10
136.4291512871
20
74.8986373506
11
136.4291512871
21
74.7143766484
0
LINE
5
50F
100
AcDbEntity
8
CURVE
100
AcDbLine
62
7
6
CONTINUOUS
10
136.6501221562
20
77.4045123015
11
136.6501221562
21
77.8651640571
0
LINE
5
510
100
AcDbEntity
8
CURVE
100
AcDbLine
62
7
6
CONTINUOUS
10
136.7974359284
20
74.8063886179
11
136.7974359284
21
75.1749100224
0
LINE
5
511
100
AcDbEntity
8
0
100
AcDbLine
62
7
6
CONTINUOUS
10
138.8244755083
20
72.0241375029
11
138.8244755083
21
55.7642895990
0
LINE
5
512
100
AcDbEntity
8
0
100
AcDbLine
62
7
6
CONTINUOUS
10
139.8851356801
20
72.5544675888
11
139.8851356801
21
55.2339595131
0
LINE
5
513
100
AcDbEntity
8
CURVE
100
AcDbLine
62
7
6
CONTINUOUS
10
152.9577722973
20
84.8212943050
11
152.8841153058
21
84.1395533514
0
LINE
5
514
100
AcDbEntity
8
CURVE
100
AcDbLine
62
7
6
CONTINUOUS
10
153.2524000525
20
84.3236957247
11
153.3260571494
21
84.9133063799
0
LINE
5
515
100
AcDbEntity
8
CURVE
100
AcDbLine
62
7
6
CONTINUOUS
10
153.3260571494
20
84.9133063799
11
153.3997140355
21
85.2265261344
0
LINE
5
516
100
AcDbEntity
8
CURVE
100
AcDbLine
62
7
6
CONTINUOUS
10
153.3997140355
20
83.7524402584
11
153.3260571494
21
83.4392206329
0
LINE
5
517
100
AcDbEntity
8
CURVE
100
AcDbLine
62
7
6
CONTINUOUS
10
155.0938238916
20
83.7703218973
11
155.1674809885
21
84.0835414991
0
LINE
5
518
100
AcDbEntity
8
CURVE
100
AcDbLine
62
7
6
CONTINUOUS
10
154.9465101194
20
84.7100990026
11
154.7255392503
21
84.7838742702
0
LINE
5
519
100
AcDbEntity
8
CURVE
100
AcDbLine
62
7
6
CONTINUOUS
10
154.6518823641
20
86.3132620543
11
154.8728532333
21
86.2394867867
0
LINE
5
51A
100
AcDbEntity
8
0
100
AcDbLine
62
7
6
CONTINUOUS
10
158.6234653816
20
64.6031243638
11
157.5628052098
21
65.1334544497
0
LINE
5
51B
100
AcDbEntity
8
0
100
AcDbLine
62
7
6
CONTINUOUS
10
148.0168636638
20
70.5358767243
11
157.5628052098
21
65.7629059513
0
LINE
5
51C
100
AcDbEntity
8
0
100
AcDbLine
62
7
6
CONTINUOUS
10
169.8903437781
20
59.9418612219
11
168.8296836063
21
60.4721913078
0
LINE
5
51D
100
AcDbEntity
8
0
100
AcDbLine
62
9
6
CONTINUOUS
10
169.7603971852
20
60.2122981221
11
168.6997370135
21
60.7426282080
0
LINE
5
51E
100
AcDbEntity
8
0
100
AcDbLine
62
9
6
CONTINUOUS
10
169.3750600701
20
61.2709920835
11
169.7603971852
21
61.0783235259
0
LINE
5
51F
100
AcDbEntity
8
0
100
AcDbLine
62
9
6
CONTINUOUS
10
174.8869213488
20
65.6765243588
11
175.9475815206
21
65.1461942729
0
LINE
5
520
100
AcDbEntity
8
0
100
AcDbLine
62
9
6
CONTINUOUS
10
177.3617950830
20
66.9139612258
11
178.4224552548
21
66.3836311400
0
LINE
5
521
100
AcDbEntity
8
0
100
AcDbLine
62
7
6
CONTINUOUS
10
148.0168636638
20
59.2998235049
11
148.0168636638
21
76.6203315806
0
LINE
5
522
100
AcDbEntity
8
CURVE
100
AcDbLine
62
7
6
CONTINUOUS
10
151.4109762135
20
83.8636355608
11
151.4109762135
21
84.6006786279
0
LINE
5
523
100
AcDbEntity
8
CURVE
100
AcDbLine
62
7
6
CONTINUOUS
10
151.8529179517
20
81.1364349359
11
151.8529179517
21
84.7295191459
0
LINE
5
524
100
AcDbEntity
8
CURVE
100
AcDbLine
62
7
6
CONTINUOUS
10
152.2948596899
20
85.6875328240
11
152.2948596899
21
81.3574058051
0
LINE
5
525
100
AcDbEntity
8
CURVE
100
AcDbLine
62
7
6
CONTINUOUS
10
152.8841153058
20
84.1395533514
11
152.8841153058
21
83.4946408935
0
LINE
5
526
100
AcDbEntity
8
CURVE
100
AcDbLine
62
7
6
CONTINUOUS
10
153.2524000525
20
84.1394350225
11
153.2524000525
21
84.3236957247
0
LINE
5
527
100
AcDbEntity
8
CURVE
100
AcDbLine
62
7
6
CONTINUOUS
10
153.3260571494
20
83.4392206329
11
153.3260571494
21
83.1628295795
0
LINE
5
528
100
AcDbEntity
8
CURVE
100
AcDbLine
62
7
6
CONTINUOUS
10
155.1674809885
20
84.0835414991
11
155.1674809885
21
84.3599325525
0
LINE
5
529
100
AcDbEntity
8
CURVE
100
AcDbLine
62
7
6
CONTINUOUS
10
155.5357656299
20
84.1755534687
11
155.5357656299
21
84.6362053533
0
LINE
5
52A
100
AcDbEntity
8
CURVE
100
AcDbLine
62
7
6
CONTINUOUS
10
134.2930995874
20
73.0935686273
11
134.5140703511
21
72.8355325724
0
LINE
5
52B
100
AcDbEntity
8
CURVE
100
AcDbLine
62
7
6
CONTINUOUS
10
136.6501221562
20
75.5619050210
11
136.4291512871
21
75.8199409909
0
LINE
5
52C
100
AcDbEntity
8
CURVE
100
AcDbLine
62
7
6
CONTINUOUS
10
136.2081804179
20
75.3409341518
11
136.3554941902
21
75.1381999846
0
LINE
5
52D
100
AcDbEntity
8
CURVE
100
AcDbLine
62
7
6
CONTINUOUS
10
134.1457856044
20
73.3884331048
11
134.2930995874
21
73.0935686273
0
LINE
5
52E
100
AcDbEntity
8
CURVE
100
AcDbLine
62
7
6
CONTINUOUS
10
134.7350412202
20
73.3145394437
11
134.5877274480
21
73.6094040266
0
LINE
5
52F
100
AcDbEntity
8
CURVE
100
AcDbLine
62
7
6
CONTINUOUS
10
136.7974359284
20
75.1749100224
11
136.6501221562
21
75.5619050210
0
LINE
5
530
100
AcDbEntity
8
CURVE
100
AcDbLine
62
7
6
CONTINUOUS
10
136.3554941902
20
75.1381999846
11
136.4291512871
21
74.8986373506
0
LINE
5
531
100
AcDbEntity
8
0
100
AcDbLine
62
7
6
CONTINUOUS
10
157.5628052098
20
81.3933023536
11
157.5628052098
21
65.1334544497
0
LINE
5
532
100
AcDbEntity
8
0
100
AcDbLine
62
7
6
CONTINUOUS
10
158.6234653816
20
81.9236324395
11
158.6234653816
21
64.6031243638
0
LINE
5
533
100
AcDbEntity
8
0
100
AcDbLine
62
7
6
CONTINUOUS
10
168.6997370135
20
97.9817205708
11
168.6997370135
21
97.1156951670
0
LINE
5
534
100
AcDbEntity
8
0
100
AcDbLine
62
7
6
CONTINUOUS
10
168.6997370135
20
60.7426282080
11
168.6997370135
21
60.9810035777
0
LINE
5
535
100
AcDbEntity
8
0
100
AcDbLine
62
7
6
CONTINUOUS
10
169.7603971852
20
97.4513904849
11
169.7603971852
21
96.5853650811
0
LINE
5
536
100
AcDbEntity
8
0
100
AcDbLine
62
7
6
CONTINUOUS
10
169.7603971852
20
60.2122981221
11
169.7603971852
21
61.0783235259
0
LINE
5
537
100
AcDbEntity
8
0
100
AcDbLine
62
9
6
CONTINUOUS
10
168.3251298093
20
95.8093258954
11
168.6997370135
21
95.6220222933
0
LINE
5
538
100
AcDbEntity
8
0
100
AcDbLine
62
9
6
CONTINUOUS
10
174.8869213488
20
93.1728309289
11
175.9475815206
21
92.6425008430
0
LINE
5
539
100
AcDbEntity
8
0
100
AcDbLine
62
9
6
CONTINUOUS
10
168.3461836229
20
96.5059057698
11
169.4068437947
21
95.9755756839
0
LINE
5
53A
100
AcDbEntity
8
0
100
AcDbLine
62
7
6
CONTINUOUS
10
163.3964361546
20
99.6521701397
11
166.9319700605
21
97.8844031868
0
LINE
5
53B
100
AcDbEntity
8
0
100
AcDbLine
62
9
6
CONTINUOUS
10
168.6997370135
20
97.1156951670
11
169.7603971852
21
96.5853650811
0
LINE
5
53C
100
AcDbEntity
8
0
100
AcDbLine
62
9
6
CONTINUOUS
10
169.7603971852
20
97.4513904849
11
168.6997370135
21
97.9817205708
0
LINE
5
53D
100
AcDbEntity
8
0
100
AcDbLine
62
9
6
CONTINUOUS
10
177.3617950830
20
94.4102677960
11
178.4224552548
21
93.8799377101
0
LINE
5
53E
100
AcDbEntity
8
0
100
AcDbLine
62
9
6
CONTINUOUS
10
170.1139505758
20
98.0611798821
11
169.0532904041
21
98.5915099680
0
LINE
5
53F
100
AcDbEntity
8
CURVE
100
AcDbLine
62
7
6
CONTINUOUS
10
155.0938238916
20
84.5994951864
11
154.9465101194
21
84.7100990026
0
LINE
5
540
100
AcDbEntity
8
CURVE
100
AcDbLine
62
7
6
CONTINUOUS
10
155.3884518576
20
85.0232002228
11
155.1674809885
21
85.1891058416
0
LINE
5
541
100
AcDbEntity
8
CURVE
100
AcDbLine
62
7
6
CONTINUOUS
10
153.1050861749
20
82.4995619210
11
153.3260571494
21
82.2415259715
0
LINE
5
542
100
AcDbEntity
8
CURVE
100
AcDbLine
62
7
6
CONTINUOUS
10
152.8841153058
20
83.4946408935
11
152.9577722973
21
82.8865568024
0
LINE
5
543
100
AcDbEntity
8
0
100
AcDbLine
62
7
6
CONTINUOUS
10
183.1954260278
20
101.1378159929
11
183.1954260278
21
69.9609014567
0
LINE
5
544
100
AcDbEntity
8
0
100
AcDbLine
62
9
6
CONTINUOUS
10
180.3669989030
20
103.1877040457
11
179.3063387313
21
103.7180341316
0
LINE
5
545
100
AcDbEntity
8
0
100
AcDbLine
62
7
6
CONTINUOUS
10
182.1558532850
20
103.3013111945
11
181.0951931133
21
103.8316412804
0
LINE
5
546
100
AcDbEntity
8
CURVE
100
AcDbLine
62
7
6
CONTINUOUS
10
155.3147947608
20
86.4604575504
11
155.0938238916
21
86.7184935203
0
LINE
5
547
100
AcDbEntity
8
CURVE
100
AcDbLine
62
7
6
CONTINUOUS
10
153.3997140355
20
82.9232669692
11
153.5470280185
21
82.7205328429
0
LINE
5
548
100
AcDbEntity
8
CURVE
100
AcDbLine
62
7
6
CONTINUOUS
10
154.8728532333
20
86.2394867867
11
155.0201672162
21
86.0367527248
0
LINE
5
549
100
AcDbEntity
8
CURVE
100
AcDbLine
62
7
6
CONTINUOUS
10
152.9577722973
20
82.8865568024
11
153.1050861749
21
82.4995619210
0
LINE
5
54A
100
AcDbEntity
8
CURVE
100
AcDbLine
62
7
6
CONTINUOUS
10
155.5357656299
20
84.6362053533
11
155.3884518576
21
85.0232002228
0
LINE
5
54B
100
AcDbEntity
8
CURVE
100
AcDbLine
62
7
6
CONTINUOUS
10
153.3260571494
20
83.1628295795
11
153.3997140355
21
82.9232669692
0
LINE
5
54C
100
AcDbEntity
8
CURVE
100
AcDbLine
62
7
6
CONTINUOUS
10
155.1674809885
20
84.3599325525
11
155.0938238916
21
84.5994951864
0
LINE
5
54D
100
AcDbEntity
8
CURVE
100
AcDbLine
62
7
6
CONTINUOUS
10
155.3884518576
20
86.2208950455
11
155.3147947608
21
86.4604575504
0
SPLINE
5
54E
100
AcDbEntity
8
0
100
AcDbSpline
62
7
6
CONTINUOUS
70
0
71
3
72
9
73
5
74
3
42
0.0000001000
43
0.0000001000
44
0.0000000001
12
1.2458637437
22
0.6229318719
32
0.0000000000
13
1.3471239385
23
-0.4053960296
33
0.0000000000
40
0.0000000000
40
0.0000000000
40
0.0000000000
40
0.0000000000
40
0.6317248829
40
1.0000000000
40
1.0000000000
40
1.0000000000
40
1.0000000000
10
-150.3821979970
20
-64.4602110893
30
0.0000000000
10
-150.1198502878
20
-64.3290372347
30
0.0000000000
10
-149.6646637025
20
-64.1787785189
30
0.0000000000
10
-149.1869160810
20
-64.2304533236
30
0.0000000000
10
-149.0215453389
20
-64.2802190803
30
0.0000000000
11
-150.3821979970
21
-64.4602110893
31
0.0000000000
11
-149.5357413277
21
-64.2197797832
31
0.0000000000
11
-149.0215453389
21
-64.2802190803
31
0.0000000000
0
SPLINE
5
54F
100
AcDbEntity
8
0
100
AcDbSpline
62
7
6
CONTINUOUS
70
0
71
3
72
8
73
4
74
2
42
0.0000001000
43
0.0000001000
44
0.0000000001
12
0.2118898980
22
-0.0637649743
32
0.0000000000
13
0.1971330254
23
-0.0981868092
33
0.0000000000
40
0.0000000000
40
0.0000000000
40
0.0000000000
40
0.0000000000
40
1.0000000000
40
1.0000000000
40
1.0000000000
40
1.0000000000
10
-149.0215453389
20
-64.2802190803
30
0.0000000000
10
-148.9509153729
20
-64.3014740718
30
0.0000000000
10
-148.8822138658
20
-64.3283356281
30
0.0000000000
10
-148.8165028573
20
-64.3610645645
30
0.0000000000
11
-149.0215453389
21
-64.2802190803
31
0.0000000000
11
-148.8165028573
21
-64.3610645645
31
0.0000000000
0
SPLINE
5
550
100
AcDbEntity
8
0
100
AcDbSpline
62
7
6
CONTINUOUS
70
0
71
3
72
9
73
5
74
3
42
0.0000001000
43
0.0000001000
44
0.0000000001
12
1.2458637437
22
0.6229318719
32
0.0000000000
13
1.3471239385
23
-0.4053960296
33
0.0000000000
40
0.0000000000
40
0.0000000000
40
0.0000000000
40
0.0000000000
40
0.6317248829
40
1.0000000000
40
1.0000000000
40
1.0000000000
40
1.0000000000
10
-150.3821979970
20
-91.9565176594
30
0.0000000000
10
-150.1198502878
20
-91.8253438048
30
0.0000000000
10
-149.6646637025
20
-91.6750850890
30
0.0000000000
10
-149.1869160810
20
-91.7267598937
30
0.0000000000
10
-149.0215453389
20
-91.7765256505
30
0.0000000000
11
-150.3821979970
21
-91.9565176594
31
0.0000000000
11
-149.5357413277
21
-91.7160863533
31
0.0000000000
11
-149.0215453389
21
-91.7765256505
31
0.0000000000
0
SPLINE
5
551
100
AcDbEntity
8
0
100
AcDbSpline
62
7
6
CONTINUOUS
70
0
71
3
72
8
73
4
74
2
42
0.0000001000
43
0.0000001000
44
0.0000000001
12
0.2118898980
22
-0.0637649743
32
0.0000000000
13
0.1971330254
23
-0.0981868092
33
0.0000000000
40
0.0000000000
40
0.0000000000
40
0.0000000000
40
0.0000000000
40
1.0000000000
40
1.0000000000
40
1.0000000000
40
1.0000000000
10
-149.0215453389
20
-91.7765256505
30
0.0000000000
10
-148.9509153729
20
-91.7977806419
30
0.0000000000
10
-148.8822138658
20
-91.8246421983
30
0.0000000000
10
-148.8165028573
20
-91.8573711347
30
0.0000000000
11
-149.0215453389
21
-91.7765256505
31
0.0000000000
11
-148.8165028573
21
-91.8573711347
31
0.0000000000
0
SPLINE
5
552
100
AcDbEntity
8
0
100
AcDbSpline
62
7
6
CONTINUOUS
70
0
71
3
72
9
73
5
74
3
42
0.0000001000
43
0.0000001000
44
0.0000000001
12
1.2458637437
22
0.6229318719
32
0.0000000000
13
1.3471239385
23
-0.4053960296
33
0.0000000000
40
0.0000000000
40
0.0000000000
40
0.0000000000
40
0.0000000000
40
0.6317248829
40
1.0000000000
40
1.0000000000
40
1.0000000000
40
1.0000000000
10
178.4224552548
20
99.9421155366
30
0.0000000000
10
178.6848029640
20
100.0732893912
30
0.0000000000
10
179.1399895493
20
100.2235481070
30
0.0000000000
10
179.6177371707
20
100.1718733023
30
0.0000000000
10
179.7831079128
20
100.1221075456
30
0.0000000000
11
178.4224552548
21
99.9421155366
31
0.0000000000
11
179.2689119240
21
100.1825468427
31
0.0000000000
11
179.7831079128
21
100.1221075456
31
0.0000000000
0
SPLINE
5
553
100
AcDbEntity
8
0
100
AcDbSpline
62
7
6
CONTINUOUS
70
0
71
3
72
8
73
4
74
2
42
0.0000001000
43
0.0000001000
44
0.0000000001
12
0.2118898980
22
-0.0637649743
32
0.0000000000
13
0.1971330254
23
-0.0981868092
33
0.0000000000
40
0.0000000000
40
0.0000000000
40
0.0000000000
40
0.0000000000
40
1.0000000000
40
1.0000000000
40
1.0000000000
40
1.0000000000
10
179.7831079128
20
100.1221075456
30
0.0000000000
10
179.8537378788
20
100.1008525541
30
0.0000000000
10
179.9224393860
20
100.0739909977
30
0.0000000000
10
179.9881503945
20
100.0412620613
30
0.0000000000
11
179.7831079128
21
100.1221075456
31
0.0000000000
11
179.9881503945
21
100.0412620613
31
0.0000000000
0
SPLINE
5
554
100
AcDbEntity
8
0
100
AcDbSpline
62
7
6
CONTINUOUS
70
0
71
3
72
9
73
5
74
3
42
0.0000001000
43
0.0000001000
44
0.0000000001
12
1.2458637437
22
0.6229318719
32
0.0000000000
13
1.3471239385
23
-0.4053960296
33
0.0000000000
40
0.0000000000
40
0.0000000000
40
0.0000000000
40
0.0000000000
40
0.6317248829
40
1.0000000000
40
1.0000000000
40
1.0000000000
40
1.0000000000
10
178.4224552548
20
72.4458089664
30
0.0000000000
10
178.6848029640
20
72.5769828210
30
0.0000000000
10
179.1399895493
20
72.7272415369
30
0.0000000000
10
179.6177371707
20
72.6755667322
30
0.0000000000
10
179.7831079128
20
72.6258009754
30
0.0000000000
11
178.4224552548
21
72.4458089664
31
0.0000000000
11
179.2689119240
21
72.6862402726
31
0.0000000000
11
179.7831079128
21
72.6258009754
31
0.0000000000
0
SPLINE
5
555
100
AcDbEntity
8
0
100
AcDbSpline
62
7
6
CONTINUOUS
70
0
71
3
72
8
73
4
74
2
42
0.0000001000
43
0.0000001000
44
0.0000000001
12
0.2118898980
22
-0.0637649743
32
0.0000000000
13
0.1971330254
23
-0.0981868092
33
0.0000000000
40
0.0000000000
40
0.0000000000
40
0.0000000000
40
0.0000000000
40
1.0000000000
40
1.0000000000
40
1.0000000000
40
1.0000000000
10
179.7831079128
20
72.6258009754
30
0.0000000000
10
179.8537378788
20
72.6045459840
30
0.0000000000
10
179.9224393860
20
72.5776844276
30
0.0000000000
10
179.9881503945
20
72.5449554912
30
0.0000000000
11
179.7831079128
21
72.6258009754
31
0.0000000000
11
179.9881503945
21
72.5449554912
31
0.0000000000
0
SPLINE
5
556
100
AcDbEntity
8
0
100
AcDbSpline
62
7
6
CONTINUOUS
70
0
71
3
72
12
73
8
74
6
42
0.0000001000
43
0.0000001000
44
0.0000000001
12
5.2587972568
22
2.6293986284
32
0.0000000000
13
0.0000000000
23
5.8795140731
33
0.0000000000
40
0.0000000000
40
0.0000000000
40
0.0000000000
40
0.0000000000
40
0.1801307301
40
0.3830913746
40
0.5948177684
40
0.8054128753
40
1.0000000000
40
1.0000000000
40
1.0000000000
40
1.0000000000
10
180.3669989030
20
65.0825862792
30
0.0000000000
10
180.6827558996
20
65.2404647774
30
0.0000000000
10
181.3009966963
20
65.6848983808
30
0.0000000000
10
182.0732390799
20
66.5681067258
30
0.0000000000
10
182.6897156934
20
67.6361224041
30
0.0000000000
10
183.0901039740
20
68.7841538152
30
0.0000000000
10
183.1954260278
20
69.5795422107
30
0.0000000000
10
183.1954260278
20
69.9609014567
30
0.0000000000
11
180.3669989030
21
65.0825862792
31
0.0000000000
11
181.2374279721
21
65.6859154972
31
0.0000000000
11
182.0308296587
21
66.5772641594
31
0.0000000000
11
182.6550708509
21
67.6542833111
31
0.0000000000
11
183.0579050739
21
68.8251189698
31
0.0000000000
11
183.1954260278
21
69.9609014567
31
0.0000000000
0
SPLINE
5
557
100
AcDbEntity
8
0
100
AcDbSpline
62
7
6
CONTINUOUS
70
0
71
3
72
10
73
6
74
4
42
0.0000001000
43
0.0000001000
44
0.0000000001
12
0.6550251189
22
0.3275125595
32
0.0000000000
13
0.0000000000
23
0.7323403464
33
0.0000000000
40
0.0000000000
40
0.0000000000
40
0.0000000000
40
0.0000000000
40
0.3153195724
40
0.6663864895
40
1.0000000000
40
1.0000000000
40
1.0000000000
40
1.0000000000
10
-144.5485670522
20
-97.3751966985
30
0.0000000000
10
-144.4797196387
20
-97.3407729917
30
0.0000000000
10
-144.3543257416
20
-97.2284879204
30
0.0000000000
10
-144.2320705484
20
-97.0143579741
30
0.0000000000
10
-144.1950136616
20
-96.8468468459
30
0.0000000000
10
-144.1950136616
20
-96.7654073013
30
0.0000000000
11
-144.5485670522
21
-97.3751966985
31
0.0000000000
11
-144.3708869503
21
-97.2277029606
31
0.0000000000
11
-144.2422011401
21
-97.0051257543
31
0.0000000000
11
-144.1950136616
21
-96.7654073013
31
0.0000000000
0
SPLINE
5
558
100
AcDbEntity
8
0
100
AcDbSpline
62
7
6
CONTINUOUS
70
0
71
3
72
9
73
5
74
3
42
0.0000001000
43
0.0000001000
44
0.0000000001
12
0.0000000000
22
0.3100988845
32
0.0000000000
13
-0.2801103567
23
0.1474325856
33
0.0000000000
40
0.0000000000
40
0.0000000000
40
0.0000000000
40
0.0000000000
40
0.6433461140
40
1.0000000000
40
1.0000000000
40
1.0000000000
40
1.0000000000
10
-144.1950136616
20
-59.5263149385
30
0.0000000000
10
-144.1950136616
20
-59.4598146344
30
0.0000000000
10
-144.2111258853
20
-59.3499470473
30
0.0000000000
10
-144.2928564732
20
-59.2743842358
30
0.0000000000
10
-144.3261572889
20
-59.2568567676
30
0.0000000000
11
-144.1950136616
21
-59.5263149385
31
0.0000000000
11
-144.2429041964
21
-59.3326474124
31
0.0000000000
11
-144.3261572889
21
-59.2568567676
31
0.0000000000
0
SPLINE
5
559
100
AcDbEntity
8
0
100
AcDbSpline
62
7
6
CONTINUOUS
70
0
71
3
72
10
73
6
74
4
42
0.0000001000
43
0.0000001000
44
0.0000000001
12
0.0000000000
22
2.5111298787
32
0.0000000000
13
-2.2579806405
23
1.1422706772
33
0.0000000000
40
0.0000000000
40
0.0000000000
40
0.0000000000
40
0.0000000000
40
0.4009437823
40
0.7471202070
40
1.0000000000
40
1.0000000000
40
1.0000000000
40
1.0000000000
10
183.1954260278
20
101.1378159929
30
0.0000000000
10
183.1954260278
20
101.4734232967
30
0.0000000000
10
183.1229695106
20
102.1038149708
30
0.0000000000
10
182.7494728132
20
102.8788463948
30
0.0000000000
10
182.3450202289
20
103.2049574289
30
0.0000000000
10
182.1546876699
20
103.3012431530
30
0.0000000000
11
183.1954260278
21
101.1378159929
31
0.0000000000
11
183.0581609635
21
102.1352369990
31
0.0000000000
11
182.6542827106
21
102.9050125192
31
0.0000000000
11
182.1546876699
21
103.3012431530
31
0.0000000000
0
SPLINE
5
55A
100
AcDbEntity
8
0
100
AcDbSpline
62
7
6
CONTINUOUS
70
0
71
3
72
12
73
8
74
6
42
0.0000001000
43
0.0000001000
44
0.0000000001
12
-3.9025219901
22
1.9512609950
32
0.0000000000
13
-3.9025219901
23
-1.9512609950
33
0.0000000000
40
0.0000000000
40
0.0000000000
40
0.0000000000
40
0.0000000000
40
0.1849337787
40
0.3928775388
40
0.6075028439
40
0.8149061982
40
1.0000000000
40
1.0000000000
40
1.0000000000
40
1.0000000000
10
163.3964361546
20
99.6521701397
30
0.0000000000
10
163.1558667752
20
99.7724548294
30
0.0000000000
10
162.6109861313
20
99.9609881751
30
0.0000000000
10
161.7347274514
20
100.0977546060
30
0.0000000000
10
160.8146242000
20
100.0976322266
30
0.0000000000
10
159.9389547299
20
99.9608569917
30
0.0000000000
10
159.3945730114
20
99.7725589117
30
0.0000000000
10
159.1537954674
20
99.6521701397
30
0.0000000000
11
163.3964361546
21
99.6521701397
31
0.0000000000
11
162.6380674771
21
99.9277699310
31
0.0000000000
11
161.7425075281
21
100.0731935528
31
0.0000000000
11
160.8060646594
21
100.0730624491
31
0.0000000000
11
159.9128440385
21
99.9279432452
31
0.0000000000
11
159.1537954674
21
99.6521701397
31
0.0000000000
0
SPLINE
5
55B
100
AcDbEntity
8
0
100
AcDbSpline
62
7
6
CONTINUOUS
70
0
71
3
72
10
73
6
74
4
42
0.0000001000
43
0.0000001000
44
0.0000000001
12
-1.2850489424
22
-0.6425244712
32
0.0000000000
13
0.0002027153
23
-1.4624470182
33
0.0000000000
40
0.0000000000
40
0.0000000000
40
0.0000000000
40
0.0000000000
40
0.4656624398
40
0.8373030725
40
1.0000000000
40
1.0000000000
40
1.0000000000
40
1.0000000000
10
-147.7305475675
20
-53.7900013777
30
0.0000000000
10
-147.9300139095
20
-53.8897345487
30
0.0000000000
10
-148.2721827455
20
-54.1076950704
30
0.0000000000
10
-148.5694068981
20
-54.5109381470
30
0.0000000000
10
-148.6064338477
20
-54.7714143217
30
0.0000000000
10
-148.6064228539
20
-54.8507262005
30
0.0000000000
11
-147.7305475675
21
-53.7900013777
31
0.0000000000
11
-148.2817471501
21
-54.1691857165
31
0.0000000000
11
-148.5725943937
21
-54.6169656910
31
0.0000000000
11
-148.6064228539
21
-54.8507262005
31
0.0000000000
0
SPLINE
5
55C
100
AcDbEntity
8
0
100
AcDbSpline
62
7
6
CONTINUOUS
70
0
71
3
72
11
73
7
74
5
42
0.0000001000
43
0.0000001000
44
0.0000000001
12
1.7273419924
22
-0.8636709962
32
0.0000000000
13
0.7050348280
23
-1.8036603740
33
0.0000000000
40
0.0000000000
40
0.0000000000
40
0.0000000000
40
0.0000000000
40
0.2925626675
40
0.6164966790
40
0.9554894528
40
1.0000000000
40
1.0000000000
40
1.0000000000
40
1.0000000000
10
166.9319700605
20
97.8844031868
30
0.0000000000
10
167.1004219875
20
97.8001772233
30
0.0000000000
10
167.4253478049
20
97.5616046303
30
0.0000000000
10
167.8244878570
20
97.0881761123
30
0.0000000000
10
168.0438950405
20
96.6858316629
30
0.0000000000
10
168.1371127251
20
96.4564777504
30
0.0000000000
10
168.1475732204
20
96.4297171137
30
0.0000000000
11
166.9319700605
21
97.8844031868
31
0.0000000000
11
167.3936359696
21
97.5586806515
31
0.0000000000
11
167.8011671225
21
97.0840425076
31
0.0000000000
11
168.1151279657
21
96.5095653200
31
0.0000000000
11
168.1475732204
21
96.4297171137
31
0.0000000000
0
SPLINE
5
55D
100
AcDbEntity
8
0
100
AcDbSpline
62
7
6
CONTINUOUS
70
0
71
3
72
8
73
4
74
2
42
0.0000001000
43
0.0000001000
44
0.0000000001
12
0.0281110741
22
-0.0719153556
32
0.0000000000
13
0.0263582900
23
-0.0725726295
33
0.0000000000
40
0.0000000000
40
0.0000000000
40
0.0000000000
40
0.0000000000
40
1.0000000000
40
1.0000000000
40
1.0000000000
40
1.0000000000
10
168.1475732204
20
96.4297171137
30
0.0000000000
10
168.1569435785
20
96.4057453285
30
0.0000000000
10
168.1660261612
20
96.3816602939
30
0.0000000000
10
168.1748122579
20
96.3574694174
30
0.0000000000
11
168.1475732204
21
96.4297171137
31
0.0000000000
11
168.1748122579
21
96.3574694174
31
0.0000000000
0
SPLINE
5
55E
100
AcDbEntity
8
0
100
AcDbSpline
62
7
6
CONTINUOUS
70
0
71
3
72
8
73
4
74
2
42
0.0000001000
43
0.0000001000
44
0.0000000001
12
0.0895386141
22
-0.2465278537
32
0.0000000000
13
0.0679864530
23
-0.2529849025
33
0.0000000000
40
0.0000000000
40
0.0000000000
40
0.0000000000
40
0.0000000000
40
1.0000000000
40
1.0000000000
40
1.0000000000
40
1.0000000000
10
168.1748122579
20
96.3574694174
30
0.0000000000
10
168.2046584626
20
96.2752934662
30
0.0000000000
10
168.2310833714
20
96.1918961546
30
0.0000000000
10
168.2537455224
20
96.1075678538
30
0.0000000000
11
168.1748122579
21
96.3574694174
31
0.0000000000
11
168.2537455224
21
96.1075678538
31
0.0000000000
0
SPLINE
5
55F
100
AcDbEntity
8
0
100
AcDbSpline
62
7
6
CONTINUOUS
70
0
71
3
72
8
73
4
74
2
42
0.0000001000
43
0.0000001000
44
0.0000000001
12
0.0551378356
22
-0.2051738155
32
0.0000000000
13
0.0397418801
23
-0.2083832294
33
0.0000000000
40
0.0000000000
40
0.0000000000
40
0.0000000000
40
0.0000000000
40
1.0000000000
40
1.0000000000
40
1.0000000000
40
1.0000000000
10
168.2537455224
20
96.1075678538
30
0.0000000000
10
168.2721248010
20
96.0391765820
30
0.0000000000
10
168.2880291609
20
95.9701729607
30
0.0000000000
10
168.3012764543
20
95.9007118842
30
0.0000000000
11
168.2537455224
21
96.1075678538
31
0.0000000000
11
168.3012764543
21
95.9007118842
31
0.0000000000
0
SPLINE
5
560
100
AcDbEntity
8
0
100
AcDbSpline
62
7
6
CONTINUOUS
70
0
71
3
72
8
73
4
74
2
42
0.0000001000
43
0.0000001000
44
0.0000000001
12
0.1179189633
22
-0.0589594816
32
0.0000000000
13
0.1232734544
23
-0.0489487235
33
0.0000000000
40
0.0000000000
40
0.0000000000
40
0.0000000000
40
0.0000000000
40
1.0000000000
40
1.0000000000
40
1.0000000000
40
1.0000000000
10
-144.1950136616
20
-95.7842064408
30
0.0000000000
10
-144.1557073405
20
-95.8038596013
30
0.0000000000
10
-144.1154306652
20
-95.8220638793
30
0.0000000000
10
-144.0743395138
20
-95.8383801205
30
0.0000000000
11
-144.1950136616
21
-95.7842064408
31
0.0000000000
11
-144.0743395138
21
-95.8383801205
31
0.0000000000
0
SPLINE
5
561
100
AcDbEntity
8
0
100
AcDbSpline
62
7
6
CONTINUOUS
70
0
71
3
72
8
73
4
74
2
42
0.0000001000
43
0.0000001000
44
0.0000000001
12
0.3267293264
22
-0.1297358261
32
0.0000000000
13
0.3523519094
23
-0.0256269613
33
0.0000000000
40
0.0000000000
40
0.0000000000
40
0.0000000000
40
0.0000000000
40
1.0000000000
40
1.0000000000
40
1.0000000000
40
1.0000000000
10
-144.0743395138
20
-95.8383801205
30
0.0000000000
10
-143.9654297383
20
-95.8816253959
30
0.0000000000
10
-143.8507983889
20
-95.9116074941
30
0.0000000000
10
-143.7333477525
20
-95.9201498146
30
0.0000000000
11
-144.0743395138
21
-95.8383801205
31
0.0000000000
11
-143.7333477525
21
-95.9201498146
31
0.0000000000
0
SPLINE
5
562
100
AcDbEntity
8
0
100
AcDbSpline
62
7
6
CONTINUOUS
70
0
71
3
72
9
73
5
74
3
42
0.0000001000
43
0.0000001000
44
0.0000000001
12
0.4441187967
22
-0.0323012730
32
0.0000000000
13
0.3956125752
23
0.1991023968
33
0.0000000000
40
0.0000000000
40
0.0000000000
40
0.0000000000
40
0.0000000000
40
0.9377577681
40
1.0000000000
40
1.0000000000
40
1.0000000000
40
1.0000000000
10
-143.7333477525
20
-95.9201498146
30
0.0000000000
10
-143.5945224686
20
-95.9302467378
30
0.0000000000
10
-143.4422826208
20
-95.9090722778
30
0.0000000000
10
-143.3091723262
20
-95.8452649688
30
0.0000000000
10
-143.3009643896
20
-95.8411341096
30
0.0000000000
11
-143.7333477525
21
-95.9201498146
31
0.0000000000
11
-143.3258165995
21
-95.8530428237
31
0.0000000000
11
-143.3009643896
21
-95.8411341096
31
0.0000000000
0
SPLINE
5
563
100
AcDbEntity
8
0
100
AcDbSpline
62
7
6
CONTINUOUS
70
0
71
3
72
8
73
4
74
2
42
0.0000001000
43
0.0000001000
44
0.0000000001
12
-0.4166508659
22
0.2083254330
32
0.0000000000
13
-0.3700384442
23
0.2865475802
33
0.0000000000
40
0.0000000000
40
0.0000000000
40
0.0000000000
40
0.0000000000
40
1.0000000000
40
1.0000000000
40
1.0000000000
40
1.0000000000
10
-177.7825857679
20
-78.9904203876
30
0.0000000000
10
-177.9214693899
20
-78.9209785766
30
0.0000000000
10
-178.0559070830
20
-78.8411210171
30
0.0000000000
10
-178.1792532310
20
-78.7456051570
30
0.0000000000
11
-177.7825857679
21
-78.9904203876
31
0.0000000000
11
-178.1792532310
21
-78.7456051570
31
0.0000000000
0
SPLINE
5
564
100
AcDbEntity
8
0
100
AcDbSpline
62
7
6
CONTINUOUS
70
0
71
3
72
10
73
6
74
4
42
0.0000001000
43
0.0000001000
44
0.0000000001
12
-0.7712468625
22
0.5972323300
32
0.0000000000
13
0.0001369890
23
0.9882784504
33
0.0000000000
40
0.0000000000
40
0.0000000000
40
0.0000000000
40
0.0000000000
40
0.2092912972
40
0.7592423104
40
1.0000000000
40
1.0000000000
40
1.0000000000
40
1.0000000000
10
-178.1792532310
20
-78.7456051570
30
0.0000000000
10
-178.2330583164
20
-78.7039399807
30
0.0000000000
10
-178.4205898051
20
-78.5419833657
30
0.0000000000
10
-178.6214450986
20
-78.2694836183
30
0.0000000000
10
-178.6584720481
20
-78.0090074437
30
0.0000000000
10
-178.6584610544
20
-77.9296955649
30
0.0000000000
11
-178.1792532310
21
-78.7456051570
31
0.0000000000
11
-178.3337853506
21
-78.6112360489
31
0.0000000000
11
-178.6246325941
21
-78.1634560744
31
0.0000000000
11
-178.6584610544
21
-77.9296955649
31
0.0000000000
0
SPLINE
5
565
100
AcDbEntity
8
0
100
AcDbSpline
62
7
6
CONTINUOUS
70
0
71
3
72
8
73
4
74
2
42
0.0000001000
43
0.0000001000
44
0.0000000001
12
-0.1845241888
22
-0.1087016938
32
0.0000000000
13
-0.1739297212
23
-0.1287822826
33
0.0000000000
40
0.0000000000
40
0.0000000000
40
0.0000000000
40
0.0000000000
40
1.0000000000
40
1.0000000000
40
1.0000000000
40
1.0000000000
10
-163.7433380977
20
-66.3198276062
30
0.0000000000
10
-163.8048461606
20
-66.3560615041
30
0.0000000000
10
-163.8656852737
20
-66.3951160461
30
0.0000000000
10
-163.9236618475
20
-66.4380434736
30
0.0000000000
11
-163.7433380977
21
-66.3198276062
31
0.0000000000
11
-163.9236618475
21
-66.4380434736
31
0.0000000000
0
SPLINE
5
566
100
AcDbEntity
8
0
100
AcDbSpline
62
7
6
CONTINUOUS
70
0
71
3
72
8
73
4
74
2
42
0.0000001000
43
0.0000001000
44
0.0000000001
12
-0.0489738172
22
-0.0362615424
32
0.0000000000
13
-0.0474652036
23
-0.0381743378
33
0.0000000000
40
0.0000000000
40
0.0000000000
40
0.0000000000
40
0.0000000000
40
1.0000000000
40
1.0000000000
40
1.0000000000
40
1.0000000000
10
-163.9236618475
20
-66.4380434736
30
0.0000000000
10
-163.9399864532
20
-66.4501306544
30
0.0000000000
10
-163.9560841081
20
-66.4625248894
30
0.0000000000
10
-163.9719058426
20
-66.4752496687
30
0.0000000000
11
-163.9236618475
21
-66.4380434736
31
0.0000000000
11
-163.9719058426
21
-66.4752496687
31
0.0000000000
0
SPLINE
5
567
100
AcDbEntity
8
0
100
AcDbSpline
62
7
6
CONTINUOUS
70
0
71
3
72
9
73
5
74
3
42
0.0000001000
43
0.0000001000
44
0.0000000001
12
0.4459212614
22
0.2626885762
32
0.0000000000
13
0.0099274893
23
0.5313171254
33
0.0000000000
40
0.0000000000
40
0.0000000000
40
0.0000000000
40
0.0000000000
40
0.6766048092
40
1.0000000000
40
1.0000000000
40
1.0000000000
40
1.0000000000
10
-163.7433380977
20
-66.3198276062
30
0.0000000000
10
-163.6427672744
20
-66.2605821548
30
0.0000000000
10
-163.4934008497
20
-66.1492149578
30
0.0000000000
10
-163.4502119448
20
-65.9701138160
30
0.0000000000
10
-163.4491417774
20
-65.9128386816
30
0.0000000000
11
-163.7433380977
21
-66.3198276062
31
0.0000000000
11
-163.4892506305
21
-66.0788707945
31
0.0000000000
11
-163.4491417774
21
-65.9128386816
31
0.0000000000
0
SPLINE
5
568
100
AcDbEntity
8
0
100
AcDbSpline
62
7
6
CONTINUOUS
70
0
71
3
72
10
73
6
74
4
42
0.0000001000
43
0.0000001000
44
0.0000000001
12
0.0000000000
22
0.7323445251
32
0.0000000000
13
0.6550288565
23
0.3275144282
33
0.0000000000
40
0.0000000000
40
0.0000000000
40
0.0000000000
40
0.0000000000
40
0.3362619791
40
0.6872392329
40
1.0000000000
40
1.0000000000
40
1.0000000000
40
1.0000000000
10
-144.1950136616
20
-95.8993818975
30
0.0000000000
10
-144.1950136616
20
-95.8172953577
30
0.0000000000
10
-144.1575455608
20
-95.6491576653
30
0.0000000000
10
-144.0348033580
20
-95.4352913934
30
0.0000000000
10
-143.9097493802
20
-95.3237370549
30
0.0000000000
10
-143.8414602710
20
-95.2895925003
30
0.0000000000
11
-144.1950136616
21
-95.8993818975
31
0.0000000000
11
-144.1471231267
21
-95.6578238365
31
0.0000000000
11
-144.0179253608
21
-95.4356176675
31
0.0000000000
11
-143.8414602710
21
-95.2895925003
31
0.0000000000
0
SPLINE
5
569
100
AcDbEntity
8
0
100
AcDbSpline
62
7
6
CONTINUOUS
70
0
71
3
72
9
73
5
74
3
42
0.0000001000
43
0.0000001000
44
0.0000000001
12
0.2036671096
22
0.1018335548
32
0.0000000000
13
0.2054675380
23
-0.1083682865
33
0.0000000000
40
0.0000000000
40
0.0000000000
40
0.0000000000
40
0.0000000000
40
0.7914831957
40
1.0000000000
40
1.0000000000
40
1.0000000000
40
1.0000000000
10
169.4068437947
20
61.3345595325
30
0.0000000000
10
169.4605768262
20
61.3614260483
30
0.0000000000
10
169.5428926296
20
61.3830786396
30
0.0000000000
10
169.6150621738
20
61.3553167667
30
0.0000000000
10
169.6293433187
20
61.3477845638
30
0.0000000000
11
169.4068437947
21
61.3345595325
31
0.0000000000
11
169.5845238966
21
61.3647458965
31
0.0000000000
11
169.6293433187
21
61.3477845638
31
0.0000000000
0
SPLINE
5
56A
100
AcDbEntity
8
0
100
AcDbSpline
62
7
6
CONTINUOUS
70
0
71
3
72
10
73
6
74
4
42
0.0000001000
43
0.0000001000
44
0.0000000001
12
0.1502409727
22
0.6375350212
32
0.0000000000
13
0.5353199748
23
0.3813652820
33
0.0000000000
40
0.0000000000
40
0.0000000000
40
0.0000000000
40
0.0000000000
40
0.3649413632
40
0.7584837556
40
1.0000000000
40
1.0000000000
40
1.0000000000
40
1.0000000000
10
168.3012764543
20
60.3936703290
30
0.0000000000
10
168.3195528361
20
60.4712246290
30
0.0000000000
10
168.3788795213
20
60.6275584692
30
0.0000000000
10
168.4938566514
20
60.8143290930
30
0.0000000000
10
168.5955097394
20
60.9133409966
30
0.0000000000
10
168.6386058961
20
60.9440429668
30
0.0000000000
11
168.3012764543
21
60.3936703290
31
0.0000000000
11
168.3830970503
21
60.6182669678
31
0.0000000000
11
168.5223329670
21
60.8351969094
31
0.0000000000
11
168.6386058961
21
60.9440429668
31
0.0000000000
0
SPLINE
5
56B
100
AcDbEntity
8
0
100
AcDbSpline
62
7
6
CONTINUOUS
70
0
71
3
72
8
73
4
74
2
42
0.0000001000
43
0.0000001000
44
0.0000000001
12
0.0583890980
22
0.0415967568
32
0.0000000000
13
0.0639004221
23
0.0319502110
33
0.0000000000
40
0.0000000000
40
0.0000000000
40
0.0000000000
40
0.0000000000
40
1.0000000000
40
1.0000000000
40
1.0000000000
40
1.0000000000
10
168.6386058961
20
60.9440429668
30
0.0000000000
10
168.6580689287
20
60.9579085524
30
0.0000000000
10
168.6784369166
20
60.9703560497
30
0.0000000000
10
168.6997370573
20
60.9810061200
30
0.0000000000
11
168.6386058961
21
60.9440429668
31
0.0000000000
11
168.6997370573
21
60.9810061200
31
0.0000000000
0
SPLINE
5
56C
100
AcDbEntity
8
0
100
AcDbSpline
62
7
6
CONTINUOUS
70
0
71
3
72
9
73
5
74
3
42
0.0000001000
43
0.0000001000
44
0.0000000001
12
0.2012621717
22
0.1006310858
32
0.0000000000
13
0.2056127895
23
-0.1092991047
33
0.0000000000
40
0.0000000000
40
0.0000000000
40
0.0000000000
40
0.0000000000
40
0.7976515080
40
1.0000000000
40
1.0000000000
40
1.0000000000
40
1.0000000000
10
-143.1343534451
20
-94.9360391320
30
0.0000000000
10
-143.0808410869
20
-94.9092829529
30
0.0000000000
10
-143.0004606668
20
-94.8867740169
30
0.0000000000
10
-142.9277568364
20
-94.9146712445
30
0.0000000000
10
-142.9138883571
20
-94.9220434142
30
0.0000000000
11
-143.1343534451
21
-94.9360391320
31
0.0000000000
11
-142.9574941746
21
-94.9054451965
31
0.0000000000
11
-142.9138883571
21
-94.9220434142
31
0.0000000000
0
SPLINE
5
56D
100
AcDbEntity
8
0
100
AcDbSpline
62
7
6
CONTINUOUS
70
0
71
3
72
9
73
5
74
3
42
0.0000001000
43
0.0000001000
44
0.0000000001
12
-0.7142348237
22
0.3557417039
32
0.0000000000
13
-0.4256070256
23
0.6803909048
33
0.0000000000
40
0.0000000000
40
0.0000000000
40
0.0000000000
40
0.0000000000
40
0.0353843315
40
1.0000000000
40
1.0000000000
40
1.0000000000
40
1.0000000000
10
174.3818863810
20
65.0470477481
30
0.0000000000
10
174.3734621404
20
65.0512436423
30
0.0000000000
10
174.1367729158
20
65.1725495364
30
0.0000000000
10
173.9411270642
20
65.3713150579
30
0.0000000000
10
173.8042779957
20
65.5900869670
30
0.0000000000
11
174.3818863810
21
65.0470477481
31
0.0000000000
11
174.3567633488
21
65.0599252816
31
0.0000000000
11
173.8042779957
21
65.5900869670
31
0.0000000000
0
SPLINE
5
56E
100
AcDbEntity
8
0
100
AcDbSpline
62
7
6
CONTINUOUS
70
0
71
3
72
8
73
4
74
2
42
0.0000001000
43
0.0000001000
44
0.0000000001
12
-0.3105125147
22
0.4963966244
32
0.0000000000
13
-0.1545474498
23
0.5625389216
33
0.0000000000
40
0.0000000000
40
0.0000000000
40
0.0000000000
40
0.0000000000
40
1.0000000000
40
1.0000000000
40
1.0000000000
40
1.0000000000
10
173.8042779957
20
65.5900869670
30
0.0000000000
10
173.7007738241
20
65.7555525085
30
0.0000000000
10
173.6269440311
20
65.9364859672
30
0.0000000000
10
173.5754282145
20
66.1239989411
30
0.0000000000
11
173.8042779957
21
65.5900869670
31
0.0000000000
11
173.5754282145
21
66.1239989411
31
0.0000000000
0
SPLINE
5
56F
100
AcDbEntity
8
0
100
AcDbSpline
62
7
6
CONTINUOUS
70
0
71
3
72
13
73
9
74
7
42
0.0000001000
43
0.0000001000
44
0.0000000001
12
-1.5911464194
22
5.7916309320
32
0.0000000000
13
5.3330235609
23
2.6665117805
33
0.0000000000
40
0.0000000000
40
0.0000000000
40
0.0000000000
40
0.0000000000
40
0.0524797685
40
0.2290308543
40
0.4258612175
40
0.6297133911
40
0.8254028400
40
1.0000000000
40
1.0000000000
40
1.0000000000
40
1.0000000000
10
173.5754282145
20
66.1239989411
30
0.0000000000
10
173.5475938826
20
66.2253134245
30
0.0000000000
10
173.4545488703
20
66.6758500393
30
0.0000000000
10
173.4711191145
20
67.5319523901
30
0.0000000000
10
173.7699994437
20
68.6495108722
30
0.0000000000
10
174.3126388290
20
69.7132061547
30
0.0000000000
10
175.0376212857
20
70.6050814742
30
0.0000000000
10
175.6372045980
20
71.0531836380
30
0.0000000000
10
175.9475815206
20
71.2083720994
30
0.0000000000
11
173.5754282145
21
66.1239989411
31
0.0000000000
11
173.5103066795
21
66.4323026994
31
0.0000000000
11
173.5103066795
21
67.4849888317
31
0.0000000000
11
173.8042779957
21
68.6211758803
31
0.0000000000
11
174.3567633488
21
69.7038229188
31
0.0000000000
11
175.1011248514
21
70.6023467362
31
0.0000000000
11
175.9475815206
21
71.2083720994
31
0.0000000000
0
SPLINE
5
570
100
AcDbEntity
8
0
100
AcDbSpline
62
7
6
CONTINUOUS
70
0
71
3
72
9
73
5
74
3
42
0.0000001000
43
0.0000001000
44
0.0000000001
12
-0.7142348237
22
0.3557417039
32
0.0000000000
13
-0.4256070256
23
0.6803909048
33
0.0000000000
40
0.0000000000
40
0.0000000000
40
0.0000000000
40
0.0000000000
40
0.0353843315
40
1.0000000000
40
1.0000000000
40
1.0000000000
40
1.0000000000
10
174.3818863810
20
92.5433543183
30
0.0000000000
10
174.3734621404
20
92.5475502124
30
0.0000000000
10
174.1367729158
20
92.6688561065
30
0.0000000000
10
173.9411270642
20
92.8676216280
30
0.0000000000
10
173.8042779957
20
93.0863935372
30
0.0000000000
11
174.3818863810
21
92.5433543183
31
0.0000000000
11
174.3567633488
21
92.5562318518
31
0.0000000000
11
173.8042779957
21
93.0863935372
31
0.0000000000
0
SPLINE
5
571
100
AcDbEntity
8
0
100
AcDbSpline
62
7
6
CONTINUOUS
70
0
71
3
72
8
73
4
74
2
42
0.0000001000
43
0.0000001000
44
0.0000000001
12
-0.3105125147
22
0.4963966244
32
0.0000000000
13
-0.1545474498
23
0.5625389216
33
0.0000000000
40
0.0000000000
40
0.0000000000
40
0.0000000000
40
0.0000000000
40
1.0000000000
40
1.0000000000
40
1.0000000000
40
1.0000000000
10
173.8042779957
20
93.0863935372
30
0.0000000000
10
173.7007738241
20
93.2518590786
30
0.0000000000
10
173.6269440311
20
93.4327925374
30
0.0000000000
10
173.5754282145
20
93.6203055112
30
0.0000000000
11
173.8042779957
21
93.0863935372
31
0.0000000000
11
173.5754282145
21
93.6203055112
31
0.0000000000
0
SPLINE
5
572
100
AcDbEntity
8
0
100
AcDbSpline
62
7
6
CONTINUOUS
70
0
71
3
72
13
73
9
74
7
42
0.0000001000
43
0.0000001000
44
0.0000000001
12
-1.5911464194
22
5.7916309320
32
0.0000000000
13
5.3330235609
23
2.6665117805
33
0.0000000000
40
0.0000000000
40
0.0000000000
40
0.0000000000
40
0.0000000000
40
0.0524797685
40
0.2290308543
40
0.4258612175
40
0.6297133911
40
0.8254028400
40
1.0000000000
40
1.0000000000
40
1.0000000000
40
1.0000000000
10
173.5754282145
20
93.6203055112
30
0.0000000000
10
173.5475938826
20
93.7216199947
30
0.0000000000
10
173.4545488703
20
94.1721566094
30
0.0000000000
10
173.4711191145
20
95.0282589602
30
0.0000000000
10
173.7699994437
20
96.1458174424
30
0.0000000000
10
174.3126388290
20
97.2095127249
30
0.0000000000
10
175.0376212857
20
98.1013880443
30
0.0000000000
10
175.6372045980
20
98.5494902082
30
0.0000000000
10
175.9475815206
20
98.7046786695
30
0.0000000000
11
173.5754282145
21
93.6203055112
31
0.0000000000
11
173.5103066795
21
93.9286092696
31
0.0000000000
11
173.5103066795
21
94.9812954019
31
0.0000000000
11
173.8042779957
21
96.1174824504
31
0.0000000000
11
174.3567633488
21
97.2001294889
31
0.0000000000
11
175.1011248514
21
98.0986533064
31
0.0000000000
11
175.9475815206
21
98.7046786695
31
0.0000000000
0
SPLINE
5
573
100
AcDbEntity
8
0
100
AcDbSpline
62
7
6
CONTINUOUS
70
0
71
3
72
9
73
5
74
3
42
0.0000001000
43
0.0000001000
44
0.0000000001
12
-0.7142348237
22
0.3557417039
32
0.0000000000
13
-0.4256070256
23
0.6803909048
33
0.0000000000
40
0.0000000000
40
0.0000000000
40
0.0000000000
40
0.0000000000
40
0.0353843315
40
1.0000000000
40
1.0000000000
40
1.0000000000
40
1.0000000000
10
-154.4227668708
20
-99.3552788777
30
0.0000000000
10
-154.4311911114
20
-99.3510829836
30
0.0000000000
10
-154.6678803360
20
-99.2297770895
30
0.0000000000
10
-154.8635261876
20
-99.0310115680
30
0.0000000000
10
-155.0003752561
20
-98.8122396588
30
0.0000000000
11
-154.4227668708
21
-99.3552788777
31
0.0000000000
11
-154.4478899030
21
-99.3424013443
31
0.0000000000
11
-155.0003752561
21
-98.8122396588
31
0.0000000000
0
SPLINE
5
574
100
AcDbEntity
8
0
100
AcDbSpline
62
7
6
CONTINUOUS
70
0
71
3
72
8
73
4
74
2
42
0.0000001000
43
0.0000001000
44
0.0000000001
12
-0.3105125147
22
0.4963966244
32
0.0000000000
13
-0.1545474498
23
0.5625389216
33
0.0000000000
40
0.0000000000
40
0.0000000000
40
0.0000000000
40
0.0000000000
40
1.0000000000
40
1.0000000000
40
1.0000000000
40
1.0000000000
10
-155.0003752561
20
-98.8122396588
30
0.0000000000
10
-155.1038794276
20
-98.6467741174
30
0.0000000000
10
-155.1777092207
20
-98.4658406587
30
0.0000000000
10
-155.2292250373
20
-98.2783276848
30
0.0000000000
11
-155.0003752561
21
-98.8122396588
31
0.0000000000
11
-155.2292250373
21
-98.2783276848
31
0.0000000000
0
SPLINE
5
575
100
AcDbEntity
8
0
100
AcDbSpline
62
7
6
CONTINUOUS
70
0
71
3
72
13
73
9
74
7
42
0.0000001000
43
0.0000001000
44
0.0000000001
12
-1.5911464194
22
5.7916309320
32
0.0000000000
13
5.3330235609
23
2.6665117805
33
0.0000000000
40
0.0000000000
40
0.0000000000
40
0.0000000000
40
0.0000000000
40
0.0524797685
40
0.2290308543
40
0.4258612175
40
0.6297133911
40
0.8254028400
40
1.0000000000
40
1.0000000000
40
1.0000000000
40
1.0000000000
10
-155.2292250373
20
-98.2783276848
30
0.0000000000
10
-155.2570593692
20
-98.1770132014
30
0.0000000000
10
-155.3501043815
20
-97.7264765866
30
0.0000000000
10
-155.3335341372
20
-96.8703742358
30
0.0000000000
10
-155.0346538081
20
-95.7528157537
30
0.0000000000
10
-154.4920144228
20
-94.6891204711
30
0.0000000000
10
-153.7670319661
20
-93.7972451517
30
0.0000000000
10
-153.1674486538
20
-93.3491429878
30
0.0000000000
10
-152.8570717311
20
-93.1939545265
30
0.0000000000
11
-155.2292250373
21
-98.2783276848
31
0.0000000000
11
-155.2943465722
21
-97.9700239264
31
0.0000000000
11
-155.2943465722
21
-96.9173377942
31
0.0000000000
11
-155.0003752561
21
-95.7811507456
31
0.0000000000
11
-154.4478899030
21
-94.6985037071
31
0.0000000000
11
-153.7035284004
21
-93.7999798897
31
0.0000000000
11
-152.8570717311
21
-93.1939545265
31
0.0000000000
0
SPLINE
5
576
100
AcDbEntity
8
0
100
AcDbSpline
62
7
6
CONTINUOUS
70
0
71
3
72
9
73
5
74
3
42
0.0000001000
43
0.0000001000
44
0.0000000001
12
-0.7142348237
22
0.3557417039
32
0.0000000000
13
-0.4256070256
23
0.6803909048
33
0.0000000000
40
0.0000000000
40
0.0000000000
40
0.0000000000
40
0.0000000000
40
0.0353843315
40
1.0000000000
40
1.0000000000
40
1.0000000000
40
1.0000000000
10
-154.4227668708
20
-71.8589723076
30
0.0000000000
10
-154.4311911114
20
-71.8547764135
30
0.0000000000
10
-154.6678803360
20
-71.7334705194
30
0.0000000000
10
-154.8635261876
20
-71.5347049978
30
0.0000000000
10
-155.0003752561
20
-71.3159330887
30
0.0000000000
11
-154.4227668708
21
-71.8589723076
31
0.0000000000
11
-154.4478899030
21
-71.8460947741
31
0.0000000000
11
-155.0003752561
21
-71.3159330887
31
0.0000000000
0
SPLINE
5
577
100
AcDbEntity
8
0
100
AcDbSpline
62
7
6
CONTINUOUS
70
0
71
3
72
8
73
4
74
2
42
0.0000001000
43
0.0000001000
44
0.0000000001
12
-0.3105125147
22
0.4963966244
32
0.0000000000
13
-0.1545474498
23
0.5625389216
33
0.0000000000
40
0.0000000000
40
0.0000000000
40
0.0000000000
40
0.0000000000
40
1.0000000000
40
1.0000000000
40
1.0000000000
40
1.0000000000
10
-155.0003752561
20
-71.3159330887
30
0.0000000000
10
-155.1038794276
20
-71.1504675472
30
0.0000000000
10
-155.1777092207
20
-70.9695340885
30
0.0000000000
10
-155.2292250373
20
-70.7820211147
30
0.0000000000
11
-155.0003752561
21
-71.3159330887
31
0.0000000000
11
-155.2292250373
21
-70.7820211147
31
0.0000000000
0
SPLINE
5
578
100
AcDbEntity
8
0
100
AcDbSpline
62
7
6
CONTINUOUS
70
0
71
3
72
13
73
9
74
7
42
0.0000001000
43
0.0000001000
44
0.0000000001
12
-1.5911464194
22
5.7916309320
32
0.0000000000
13
5.3330235609
23
2.6665117805
33
0.0000000000
40
0.0000000000
40
0.0000000000
40
0.0000000000
40
0.0000000000
40
0.0524797685
40
0.2290308543
40
0.4258612175
40
0.6297133911
40
0.8254028400
40
1.0000000000
40
1.0000000000
40
1.0000000000
40
1.0000000000
10
-155.2292250373
20
-70.7820211147
30
0.0000000000
10
-155.2570593692
20
-70.6807066312
30
0.0000000000
10
-155.3501043815
20
-70.2301700164
30
0.0000000000
10
-155.3335341372
20
-69.3740676657
30
0.0000000000
10
-155.0346538081
20
-68.2565091835
30
0.0000000000
10
-154.4920144228
20
-67.1928139010
30
0.0000000000
10
-153.7670319661
20
-66.3009385815
30
0.0000000000
10
-153.1674486538
20
-65.8528364177
30
0.0000000000
10
-152.8570717311
20
-65.6976479564
30
0.0000000000
11
-155.2292250373
21
-70.7820211147
31
0.0000000000
11
-155.2943465722
21
-70.4737173563
31
0.0000000000
11
-155.2943465722
21
-69.4210312240
31
0.0000000000
11
-155.0003752561
21
-68.2848441754
31
0.0000000000
11
-154.4478899030
21
-67.2021971369
31
0.0000000000
11
-153.7035284004
21
-66.3036733195
31
0.0000000000
11
-152.8570717311
21
-65.6976479564
31
0.0000000000
0
SPLINE
5
579
100
AcDbEntity
8
0
100
AcDbSpline
62
7
6
CONTINUOUS
70
0
71
3
72
9
73
5
74
3
42
0.0000001000
43
0.0000001000
44
0.0000000001
12
0.7567049734
22
0.3808316099
32
0.0000000000
13
0.1932342949
23
0.8199735933
33
0.0000000000
40
0.0000000000
40
0.0000000000
40
0.0000000000
40
0.0000000000
40
0.4517350583
40
1.0000000000
40
1.0000000000
40
1.0000000000
40
1.0000000000
10
167.8260193324
20
59.7223577514
30
0.0000000000
10
167.9399627209
20
59.7797027479
30
0.0000000000
10
168.1592871093
20
59.9746261508
30
0.0000000000
10
168.2659619245
20
60.2438160709
30
0.0000000000
10
168.3012764543
20
60.3936703290
30
0.0000000000
11
167.8260193324
21
59.7223577514
31
0.0000000000
11
168.1151279657
21
59.9709653818
31
0.0000000000
11
168.3012764543
21
60.3936703290
31
0.0000000000
0
SPLINE
5
57A
100
AcDbEntity
8
0
100
AcDbSpline
62
7
6
CONTINUOUS
70
0
71
3
72
8
73
4
74
2
42
0.0000001000
43
0.0000001000
44
0.0000000001
12
-0.2740265637
22
0.2234385525
32
0.0000000000
13
-0.3129418054
23
0.1665309407
33
0.0000000000
40
0.0000000000
40
0.0000000000
40
0.0000000000
40
0.0000000000
40
1.0000000000
40
1.0000000000
40
1.0000000000
40
1.0000000000
10
-169.3186843779
20
-71.2826613270
30
0.0000000000
10
-169.4100265658
20
-71.2081818095
30
0.0000000000
10
-169.5112467743
20
-71.1454552279
30
0.0000000000
10
-169.6155607095
20
-71.0899449143
30
0.0000000000
11
-169.3186843779
21
-71.2826613270
31
0.0000000000
11
-169.6155607095
21
-71.0899449143
31
0.0000000000
0
SPLINE
5
57B
100
AcDbEntity
8
0
100
AcDbSpline
62
7
6
CONTINUOUS
70
0
71
3
72
8
73
4
74
2
42
0.0000001000
43
0.0000001000
44
0.0000000001
12
-0.4705707312
22
0.2504126493
32
0.0000000000
13
-0.5040176821
23
0.1624179161
33
0.0000000000
40
0.0000000000
40
0.0000000000
40
0.0000000000
40
0.0000000000
40
1.0000000000
40
1.0000000000
40
1.0000000000
40
1.0000000000
10
-169.6155607095
20
-71.0899449143
30
0.0000000000
10
-169.7724176199
20
-71.0064740313
30
0.0000000000
10
-169.9362698018
20
-70.9393199601
30
0.0000000000
10
-170.1042756959
20
-70.8851806547
30
0.0000000000
11
-169.6155607095
21
-71.0899449143
31
0.0000000000
11
-170.1042756959
21
-70.8851806547
31
0.0000000000
0
SPLINE
5
57C
100
AcDbEntity
8
0
100
AcDbSpline
62
7
6
CONTINUOUS
70
0
71
3
72
11
73
7
74
5
42
0.0000001000
43
0.0000001000
44
0.0000000001
12
-2.8781141771
22
0.9274621177
32
0.0000000000
13
-2.7795207226
23
-1.1795786902
33
0.0000000000
40
0.0000000000
40
0.0000000000
40
0.0000000000
40
0.0000000000
40
0.0949424260
40
0.4022547685
40
0.7150294873
40
1.0000000000
40
1.0000000000
40
1.0000000000
40
1.0000000000
10
-170.1042756959
20
-70.8851806547
30
0.0000000000
10
-170.1953607434
20
-70.8558288202
30
0.0000000000
10
-170.5864452216
20
-70.7476778705
30
0.0000000000
10
-171.3061272577
20
-70.6607071122
30
0.0000000000
10
-172.2194803889
20
-70.7170136368
30
0.0000000000
10
-172.8077059820
20
-70.8719767412
30
0.0000000000
10
-173.0717331304
20
-70.9840251225
30
0.0000000000
11
-170.1042756959
21
-70.8851806547
31
0.0000000000
11
-170.3807407316
21
-70.8080752740
31
0.0000000000
11
-171.3010343092
21
-70.6893716790
31
0.0000000000
11
-172.2434328924
21
-70.7509901689
31
0.0000000000
11
-173.0717331304
21
-70.9840251225
31
0.0000000000
0
SPLINE
5
57D
100
AcDbEntity
8
0
100
AcDbSpline
62
7
6
CONTINUOUS
70
0
71
3
72
13
73
9
74
7
42
0.0000001000
43
0.0000001000
44
0.0000000001
12
-0.0759217348
22
-2.3477628612
32
0.0000000000
13
2.1541588981
23
0.9141863599
33
0.0000000000
40
0.0000000000
40
0.0000000000
40
0.0000000000
40
0.0000000000
40
0.0236200607
40
0.1550451491
40
0.3345368784
40
0.5544231571
40
0.7870283025
40
1.0000000000
40
1.0000000000
40
1.0000000000
40
1.0000000000
10
-175.1390874627
20
-70.5060313843
30
0.0000000000
10
-175.1396852214
20
-70.5245161514
30
0.0000000000
10
-175.1332045731
20
-70.6450594450
30
0.0000000000
10
-174.9555240252
20
-70.8725060938
30
0.0000000000
10
-174.5783075830
20
-71.0488964994
30
0.0000000000
10
-174.0890429676
20
-71.1441867306
30
0.0000000000
10
-173.5671487542
20
-71.1317291237
30
0.0000000000
10
-173.2246580895
20
-71.0489237295
30
0.0000000000
10
-173.0717331304
20
-70.9840251225
30
0.0000000000
11
-175.1390874627
21
-70.5060313843
31
0.0000000000
11
-175.1359498910
21
-70.5608928798
31
0.0000000000
11
-174.9710799199
21
-70.8205171631
31
0.0000000000
11
-174.6018898931
21
-71.0208293603
31
0.0000000000
11
-174.0978121116
21
-71.1241574439
31
0.0000000000
11
-173.5536467537
21
-71.1110688561
31
0.0000000000
11
-173.0717331304
21
-70.9840251225
31
0.0000000000
0
SPLINE
5
57E
100
AcDbEntity
8
0
100
AcDbSpline
62
7
6
CONTINUOUS
70
0
71
3
72
8
73
4
74
2
42
0.0000001000
43
0.0000001000
44
0.0000000001
12
-0.1175476350
22
0.0428508299
32
0.0000000000
13
-0.1190504334
23
0.0383635813
33
0.0000000000
40
0.0000000000
40
0.0000000000
40
0.0000000000
40
0.0000000000
40
1.0000000000
40
1.0000000000
40
1.0000000000
40
1.0000000000
10
-151.2476282369
20
-61.5566012521
30
0.0000000000
10
-151.2868107819
20
-61.5423176421
30
0.0000000000
10
-151.3262625166
20
-61.5288036644
30
0.0000000000
10
-151.3659459945
20
-61.5160158040
30
0.0000000000
11
-151.2476282369
21
-61.5566012521
31
0.0000000000
11
-151.3659459945
21
-61.5160158040
31
0.0000000000
0
SPLINE
5
57F
100
AcDbEntity
8
0
100
AcDbSpline
62
7
6
CONTINUOUS
70
0
71
3
72
11
73
7
74
5
42
0.0000001000
43
0.0000001000
44
0.0000000001
12
-2.8781141771
22
0.9274621177
32
0.0000000000
13
-2.7795207226
23
-1.1795786902
33
0.0000000000
40
0.0000000000
40
0.0000000000
40
0.0000000000
40
0.0000000000
40
0.0949424260
40
0.4022547685
40
0.7150294873
40
1.0000000000
40
1.0000000000
40
1.0000000000
40
1.0000000000
10
-151.3659459945
20
-61.5160158040
30
0.0000000000
10
-151.4570310419
20
-61.4866639695
30
0.0000000000
10
-151.8481155201
20
-61.3785130198
30
0.0000000000
10
-152.5677975562
20
-61.2915422615
30
0.0000000000
10
-153.4811506875
20
-61.3478487861
30
0.0000000000
10
-154.0693762805
20
-61.5028118904
30
0.0000000000
10
-154.3334034290
20
-61.6148602718
30
0.0000000000
11
-151.3659459945
21
-61.5160158040
31
0.0000000000
11
-151.6424110301
21
-61.4389104233
31
0.0000000000
11
-152.5627046077
21
-61.3202068282
31
0.0000000000
11
-153.5051031909
21
-61.3818253182
31
0.0000000000
11
-154.3334034290
21
-61.6148602718
31
0.0000000000
0
SPLINE
5
580
100
AcDbEntity
8
0
100
AcDbSpline
62
7
6
CONTINUOUS
70
0
71
3
72
13
73
9
74
7
42
0.0000001000
43
0.0000001000
44
0.0000000001
12
-0.0759217348
22
-2.3477628612
32
0.0000000000
13
2.1541588981
23
0.9141863599
33
0.0000000000
40
0.0000000000
40
0.0000000000
40
0.0000000000
40
0.0000000000
40
0.0236200607
40
0.1550451491
40
0.3345368784
40
0.5544231571
40
0.7870283025
40
1.0000000000
40
1.0000000000
40
1.0000000000
40
1.0000000000
10
-156.4007577613
20
-61.1368665336
30
0.0000000000
10
-156.4013555199
20
-61.1553513007
30
0.0000000000
10
-156.3948748716
20
-61.2758945943
30
0.0000000000
10
-156.2171943238
20
-61.5033412431
30
0.0000000000
10
-155.8399778815
20
-61.6797316487
30
0.0000000000
10
-155.3507132662
20
-61.7750218799
30
0.0000000000
10
-154.8288190528
20
-61.7625642729
30
0.0000000000
10
-154.4863283880
20
-61.6797588788
30
0.0000000000
10
-154.3334034290
20
-61.6148602718
30
0.0000000000
11
-156.4007577613
21
-61.1368665336
31
0.0000000000
11
-156.3976201895
21
-61.1917280290
31
0.0000000000
11
-156.2327502185
21
-61.4513523123
31
0.0000000000
11
-155.8635601916
21
-61.6516645095
31
0.0000000000
11
-155.3594824102
21
-61.7549925932
31
0.0000000000
11
-154.8153170523
21
-61.7419040054
31
0.0000000000
11
-154.3334034290
21
-61.6148602718
31
0.0000000000
0
SPLINE
5
581
100
AcDbEntity
8
0
100
AcDbSpline
62
7
6
CONTINUOUS
70
0
71
3
72
9
73
5
74
3
42
0.0000001000
43
0.0000001000
44
0.0000000001
12
-0.2124581087
22
0.1120552736
32
0.0000000000
13
-0.0357337563
23
0.2372861410
33
0.0000000000
40
0.0000000000
40
0.0000000000
40
0.0000000000
40
0.0000000000
40
0.4748980336
40
1.0000000000
40
1.0000000000
40
1.0000000000
40
1.0000000000
10
-144.0639597950
20
-60.6618013802
30
0.0000000000
10
-144.0975917743
20
-60.6440631038
30
0.0000000000
10
-144.1594490315
20
-60.5863516179
30
0.0000000000
10
-144.1835399559
20
-60.5092294960
30
0.0000000000
10
-144.1897945778
20
-60.4676963562
30
0.0000000000
11
-144.0639597950
21
-60.6618013802
31
0.0000000000
11
-144.1478261831
21
-60.5848713168
31
0.0000000000
11
-144.1897945778
21
-60.4676963562
31
0.0000000000
0
SPLINE
5
582
100
AcDbEntity
8
0
100
AcDbSpline
62
7
6
CONTINUOUS
70
0
71
3
72
8
73
4
74
2
42
0.0000001000
43
0.0000001000
44
0.0000000001
12
-0.0113204683
22
0.0751723444
32
0.0000000000
13
0.0000000000
23
0.0745919090
33
0.0000000000
40
0.0000000000
40
0.0000000000
40
0.0000000000
40
0.0000000000
40
1.0000000000
40
1.0000000000
40
1.0000000000
40
1.0000000000
10
-144.1897945778
20
-60.4676963562
30
0.0000000000
10
-144.1935680672
20
-60.4426389081
30
0.0000000000
10
-144.1950136616
20
-60.4172043120
30
0.0000000000
10
-144.1950136616
20
-60.3923403423
30
0.0000000000
11
-144.1897945778
21
-60.4676963562
31
0.0000000000
11
-144.1950136616
21
-60.3923403423
31
0.0000000000
0
SPLINE
5
583
100
AcDbEntity
8
0
100
AcDbSpline
62
7
6
CONTINUOUS
70
0
71
3
72
9
73
5
74
3
42
0.0000001000
43
0.0000001000
44
0.0000000001
12
-0.2355425530
22
0.1243991073
32
0.0000000000
13
-0.0757020804
23
0.2546208265
33
0.0000000000
40
0.0000000000
40
0.0000000000
40
0.0000000000
40
0.0000000000
40
0.4558676221
40
1.0000000000
40
1.0000000000
40
1.0000000000
40
1.0000000000
10
168.4740633350
20
95.6100750008
30
0.0000000000
10
168.4382712605
20
95.6289781759
30
0.0000000000
10
168.3692129165
20
95.6931926837
30
0.0000000000
10
168.3338914006
20
95.7749944448
30
0.0000000000
10
168.3201607496
20
95.8211769234
30
0.0000000000
11
168.4740633350
21
95.6100750008
31
0.0000000000
11
168.3823193630
21
95.6911797060
31
0.0000000000
11
168.3201607496
21
95.8211769234
31
0.0000000000
0
SPLINE
5
584
100
AcDbEntity
8
0
100
AcDbSpline
62
7
6
CONTINUOUS
70
0
71
3
72
8
73
4
74
2
42
0.0000001000
43
0.0000001000
44
0.0000000001
12
-0.0233590480
22
0.0785671950
32
0.0000000000
13
-0.0152301368
23
0.0798579505
33
0.0000000000
40
0.0000000000
40
0.0000000000
40
0.0000000000
40
0.0000000000
40
1.0000000000
40
1.0000000000
40
1.0000000000
40
1.0000000000
10
168.3201607496
20
95.8211769234
30
0.0000000000
10
168.3123744002
20
95.8473659884
30
0.0000000000
10
168.3063531665
20
95.8740925674
30
0.0000000000
10
168.3012764543
20
95.9007118842
30
0.0000000000
11
168.3201607496
21
95.8211769234
31
0.0000000000
11
168.3012764543
21
95.9007118842
31
0.0000000000
0
SPLINE
5
585
100
AcDbEntity
8
0
100
AcDbSpline
62
7
6
CONTINUOUS
70
0
71
3
72
9
73
5
74
3
42
0.0000001000
43
0.0000001000
44
0.0000000001
12
0.1450620185
22
-0.0763515806
32
0.0000000000
13
0.1596584844
23
0.0446399941
33
0.0000000000
40
0.0000000000
40
0.0000000000
40
0.0000000000
40
0.0000000000
40
0.3026029115
40
1.0000000000
40
1.0000000000
40
1.0000000000
40
1.0000000000
10
169.8915408126
20
59.9428399512
30
0.0000000000
10
169.9061728756
20
59.9351385477
30
0.0000000000
10
169.9571754473
20
59.9156995548
30
0.0000000000
10
170.0130438506
20
59.9208130707
30
0.0000000000
10
170.0501589713
20
59.9311903380
30
0.0000000000
11
169.8915408126
21
59.9428399512
31
0.0000000000
11
169.9374854860
21
59.9256221930
31
0.0000000000
11
170.0501589713
21
59.9311903380
31
0.0000000000
0
SPLINE
5
586
100
AcDbEntity
8
0
100
AcDbSpline
62
7
6
CONTINUOUS
70
0
71
3
72
8
73
4
74
2
42
0.0000001000
43
0.0000001000
44
0.0000000001
12
0.0666846175
22
0.0186448026
32
0.0000000000
13
0.0599933909
23
0.0299966955
33
0.0000000000
40
0.0000000000
40
0.0000000000
40
0.0000000000
40
0.0000000000
40
1.0000000000
40
1.0000000000
40
1.0000000000
40
1.0000000000
10
170.0501589713
20
59.9311903380
30
0.0000000000
10
170.0723871772
20
59.9374052722
30
0.0000000000
10
170.0939527789
20
59.9460632171
30
0.0000000000
10
170.1139505758
20
59.9560621155
30
0.0000000000
11
170.0501589713
21
59.9311903380
31
0.0000000000
11
170.1139505758
21
59.9560621155
31
0.0000000000
0
SPLINE
5
587
100
AcDbEntity
8
0
100
AcDbSpline
62
7
6
CONTINUOUS
70
0
71
3
72
10
73
6
74
4
42
0.0000001000
43
0.0000001000
44
0.0000000001
12
1.6588914674
22
-0.8392025361
32
0.0000000000
13
1.6501063225
23
0.8250531612
33
0.0000000000
40
0.0000000000
40
0.0000000000
40
0.0000000000
40
0.0000000000
40
0.0737634224
40
0.5060541068
40
1.0000000000
40
1.0000000000
40
1.0000000000
40
1.0000000000
10
-156.5893041463
20
-102.6152599694
30
0.0000000000
10
-156.5485156423
20
-102.6358941198
30
0.0000000000
10
-156.2625104113
20
-102.7644185830
30
0.0000000000
10
-155.6251546703
20
-102.8263276076
30
0.0000000000
10
-155.0733031265
20
-102.6375647356
30
0.0000000000
10
-154.8016153794
20
-102.5017208621
30
0.0000000000
11
-156.5893041463
21
-102.6152599694
31
0.0000000000
11
-156.4643621315
21
-102.6712970064
31
0.0000000000
11
-155.6728352023
21
-102.7689026905
31
0.0000000000
11
-154.8016153794
21
-102.5017208621
31
0.0000000000
0
SPLINE
5
588
100
AcDbEntity
8
0
100
AcDbSpline
62
7
6
CONTINUOUS
70
0
71
3
72
9
73
5
74
3
42
0.0000001000
43
0.0000001000
44
0.0000000001
12
-0.2056501249
22
0.1082413731
32
0.0000000000
13
-0.2036315225
23
-0.1018157613
33
0.0000000000
40
0.0000000000
40
0.0000000000
40
0.0000000000
40
0.0000000000
40
0.2134508267
40
1.0000000000
40
1.0000000000
40
1.0000000000
40
1.0000000000
10
-144.3261572889
20
-59.2568567676
30
0.0000000000
10
-144.3407893520
20
-59.2491553641
30
0.0000000000
10
-144.4130941865
20
-59.2215972800
30
0.0000000000
10
-144.4951783169
20
-59.2433845643
30
0.0000000000
10
-144.5485670522
20
-59.2700789319
30
0.0000000000
11
-144.3261572889
21
-59.2568567676
31
0.0000000000
11
-144.3721019624
21
-59.2396390094
31
0.0000000000
11
-144.5485670522
21
-59.2700789319
31
0.0000000000
0
SPLINE
5
589
100
AcDbEntity
8
0
100
AcDbSpline
62
7
6
CONTINUOUS
70
0
71
3
72
10
73
6
74
4
42
0.0000001000
43
0.0000001000
44
0.0000000001
12
-1.3664892706
22
0.6912816685
32
0.0000000000
13
-1.4325392312
23
-0.5318353573
33
0.0000000000
40
0.0000000000
40
0.0000000000
40
0.0000000000
40
0.0000000000
40
0.0895473639
40
0.6143398692
40
1.0000000000
40
1.0000000000
40
1.0000000000
40
1.0000000000
10
182.1546876699
20
103.3012431530
30
0.0000000000
10
182.1138991659
20
103.3218773034
30
0.0000000000
10
181.8278939349
20
103.4504017666
30
0.0000000000
10
181.3028808171
20
103.5013984831
30
0.0000000000
10
180.8501162035
20
103.3864788313
30
0.0000000000
10
180.6659584478
20
103.3181096001
30
0.0000000000
11
182.1546876699
21
103.3012431530
31
0.0000000000
11
182.0297456552
21
103.3572801900
31
0.0000000000
11
181.2382187259
21
103.4548858741
31
0.0000000000
11
180.6659584478
21
103.3181096001
31
0.0000000000
0
SPLINE
5
58A
100
AcDbEntity
8
0
100
AcDbSpline
62
7
6
CONTINUOUS
70
0
71
3
72
8
73
4
74
2
42
0.0000001000
43
0.0000001000
44
0.0000000001
12
-0.3065356071
22
-0.1138024499
32
0.0000000000
13
-0.2908536955
23
-0.1454268477
33
0.0000000000
40
0.0000000000
40
0.0000000000
40
0.0000000000
40
0.0000000000
40
1.0000000000
40
1.0000000000
40
1.0000000000
40
1.0000000000
10
180.6659584478
20
103.3181096001
30
0.0000000000
10
180.5637799120
20
103.2801754501
30
0.0000000000
10
180.4639501349
20
103.2361796616
30
0.0000000000
10
180.3669989030
20
103.1877040457
30
0.0000000000
11
180.6659584478
21
103.3181096001
31
0.0000000000
11
180.3669989030
21
103.1877040457
31
0.0000000000
0
SPLINE
5
58B
100
AcDbEntity
8
0
100
AcDbSpline
62
7
6
CONTINUOUS
70
0
71
3
72
8
73
4
74
2
42
0.0000001000
43
0.0000001000
44
0.0000000001
12
0.3329146597
22
-0.1664573299
32
0.0000000000
13
0.2950029235
23
-0.2300005243
33
0.0000000000
40
0.0000000000
40
0.0000000000
40
0.0000000000
40
0.0000000000
40
1.0000000000
40
1.0000000000
40
1.0000000000
40
1.0000000000
10
-144.1950136616
20
-57.6790886743
30
0.0000000000
10
-144.0840421083
20
-57.7345744509
30
0.0000000000
10
-143.9792574770
20
-57.8026414742
30
0.0000000000
10
-143.8809231692
20
-57.8793083156
30
0.0000000000
11
-144.1950136616
21
-57.6790886743
31
0.0000000000
11
-143.8809231692
21
-57.8793083156
31
0.0000000000
0
SPLINE
5
58C
100
AcDbEntity
8
0
100
AcDbSpline
62
7
6
CONTINUOUS
70
0
71
3
72
11
73
7
74
5
42
0.0000001000
43
0.0000001000
44
0.0000000001
12
1.6721125735
22
-1.3036710418
32
0.0000000000
13
0.3952345077
23
-2.0723791354
33
0.0000000000
40
0.0000000000
40
0.0000000000
40
0.0000000000
40
0.0000000000
40
0.0913836974
40
0.3879096898
40
0.6982203244
40
1.0000000000
40
1.0000000000
40
1.0000000000
40
1.0000000000
10
-143.8809231692
20
-57.8793083156
30
0.0000000000
10
-143.8299885594
20
-57.9190197423
30
0.0000000000
10
-143.6211251434
20
-58.0973827745
30
0.0000000000
10
-143.3024958651
20
-58.4753157488
30
0.0000000000
10
-142.9946472714
20
-59.0398422649
30
0.0000000000
10
-142.8654651817
20
-59.4543126757
30
0.0000000000
10
-142.8257072678
20
-59.6627799768
30
0.0000000000
11
-143.8809231692
21
-57.8793083156
31
0.0000000000
11
-143.7333477525
21
-58.0048112096
31
0.0000000000
11
-143.3258165995
21
-58.4794493534
31
0.0000000000
11
-143.0118557564
21
-59.0539265410
31
0.0000000000
11
-142.8257072678
21
-59.6627799768
31
0.0000000000
0
SPLINE
5
58D
100
AcDbEntity
8
0
100
AcDbSpline
62
7
6
CONTINUOUS
70
0
71
3
72
10
73
6
74
4
42
0.0000001000
43
0.0000001000
44
0.0000000001
12
-0.6550251189
22
-0.3275125595
32
0.0000000000
13
0.0000000000
23
-0.7323403464
33
0.0000000000
40
0.0000000000
40
0.0000000000
40
0.0000000000
40
0.0000000000
40
0.3153195724
40
0.6663864895
40
1.0000000000
40
1.0000000000
40
1.0000000000
40
1.0000000000
10
170.1139505758
20
98.0611798821
30
0.0000000000
10
170.0451031624
20
98.0267561753
30
0.0000000000
10
169.9197092652
20
97.9144711040
30
0.0000000000
10
169.7974540720
20
97.7003411577
30
0.0000000000
10
169.7603971852
20
97.5328300295
30
0.0000000000
10
169.7603971852
20
97.4513904849
30
0.0000000000
11
170.1139505758
21
98.0611798821
31
0.0000000000
11
169.9362704739
21
97.9136861442
31
0.0000000000
11
169.8075846638
21
97.6911089379
31
0.0000000000
11
169.7603971852
21
97.4513904849
31
0.0000000000
0
SPLINE
5
58E
100
AcDbEntity
8
0
100
AcDbSpline
62
7
6
CONTINUOUS
70
0
71
3
72
9
73
5
74
3
42
0.0000001000
43
0.0000001000
44
0.0000000001
12
0.0000000000
22
-0.3100988845
32
0.0000000000
13
0.2801103567
23
-0.1474325856
33
0.0000000000
40
0.0000000000
40
0.0000000000
40
0.0000000000
40
0.0000000000
40
0.6433461140
40
1.0000000000
40
1.0000000000
40
1.0000000000
40
1.0000000000
10
169.7603971852
20
60.2122981221
30
0.0000000000
10
169.7603971852
20
60.1457978180
30
0.0000000000
10
169.7765094090
20
60.0359302309
30
0.0000000000
10
169.8582399968
20
59.9603674194
30
0.0000000000
10
169.8915408126
20
59.9428399512
30
0.0000000000
11
169.7603971852
21
60.2122981221
31
0.0000000000
11
169.8082877201
21
60.0186305960
31
0.0000000000
11
169.8915408126
21
59.9428399512
31
0.0000000000
0
SPLINE
5
58F
100
AcDbEntity
8
0
100
AcDbSpline
62
7
6
CONTINUOUS
70
0
71
3
72
8
73
4
74
2
42
0.0000001000
43
0.0000001000
44
0.0000000001
12
-0.2838170012
22
-0.1419085006
32
0.0000000000
13
-0.3012038049
23
-0.1073861054
33
0.0000000000
40
0.0000000000
40
0.0000000000
40
0.0000000000
40
0.0000000000
40
1.0000000000
40
1.0000000000
40
1.0000000000
40
1.0000000000
10
-152.8570717311
20
-71.7598257828
30
0.0000000000
10
-152.9516773982
20
-71.8071286164
30
0.0000000000
10
-153.0495607423
20
-71.8497172505
30
0.0000000000
10
-153.1499620106
20
-71.8855126190
30
0.0000000000
11
-152.8570717311
21
-71.7598257828
31
0.0000000000
11
-153.1499620106
21
-71.8855126190
31
0.0000000000
0
SPLINE
5
590
100
AcDbEntity
8
0
100
AcDbSpline
62
7
6
CONTINUOUS
70
0
71
3
72
9
73
5
74
3
42
0.0000001000
43
0.0000001000
44
0.0000000001
12
-1.0209823162
22
-0.3640037505
32
0.0000000000
13
-1.0402391139
23
0.3130438073
33
0.0000000000
40
0.0000000000
40
0.0000000000
40
0.0000000000
40
0.0000000000
40
0.5230786657
40
1.0000000000
40
1.0000000000
40
1.0000000000
40
1.0000000000
10
-153.1499620106
20
-71.8855126190
30
0.0000000000
10
-153.3279800332
20
-71.9489801510
30
0.0000000000
10
-153.6834404772
20
-72.0294864495
30
0.0000000000
10
-154.0523536471
20
-71.9895835486
30
0.0000000000
10
-154.2177243891
20
-71.9398177918
30
0.0000000000
11
-153.1499620106
21
-71.8855126190
31
0.0000000000
11
-153.7035284004
21
-72.0002570890
31
0.0000000000
11
-154.2177243891
21
-71.9398177918
31
0.0000000000
0
SPLINE
5
591
100
AcDbEntity
8
0
100
AcDbSpline
62
7
6
CONTINUOUS
70
0
71
3
72
8
73
4
74
2
42
0.0000001000
43
0.0000001000
44
0.0000000001
12
-0.2118898980
22
0.0637649743
32
0.0000000000
13
-0.1971330254
23
0.0981868092
33
0.0000000000
40
0.0000000000
40
0.0000000000
40
0.0000000000
40
0.0000000000
40
1.0000000000
40
1.0000000000
40
1.0000000000
40
1.0000000000
10
-154.2177243891
20
-71.9398177918
30
0.0000000000
10
-154.2883543551
20
-71.9185628004
30
0.0000000000
10
-154.3570558623
20
-71.8917012440
30
0.0000000000
10
-154.4227668708
20
-71.8589723076
30
0.0000000000
11
-154.2177243891
21
-71.9398177918
31
0.0000000000
11
-154.4227668708
21
-71.8589723076
31
0.0000000000
0
SPLINE
5
592
100
AcDbEntity
8
0
100
AcDbSpline
62
7
6
CONTINUOUS
70
0
71
3
72
8
73
4
74
2
42
0.0000001000
43
0.0000001000
44
0.0000000001
12
-0.2838170012
22
-0.1419085006
32
0.0000000000
13
-0.3012038049
23
-0.1073861054
33
0.0000000000
40
0.0000000000
40
0.0000000000
40
0.0000000000
40
0.0000000000
40
1.0000000000
40
1.0000000000
40
1.0000000000
40
1.0000000000
10
-152.8570717311
20
-99.2561323530
30
0.0000000000
10
-152.9516773982
20
-99.3034351865
30
0.0000000000
10
-153.0495607423
20
-99.3460238207
30
0.0000000000
10
-153.1499620106
20
-99.3818191891
30
0.0000000000
11
-152.8570717311
21
-99.2561323530
31
0.0000000000
11
-153.1499620106
21
-99.3818191891
31
0.0000000000
0
SPLINE
5
593
100
AcDbEntity
8
0
100
AcDbSpline
62
7
6
CONTINUOUS
70
0
71
3
72
9
73
5
74
3
42
0.0000001000
43
0.0000001000
44
0.0000000001
12
-1.0209823162
22
-0.3640037505
32
0.0000000000
13
-1.0402391139
23
0.3130438073
33
0.0000000000
40
0.0000000000
40
0.0000000000
40
0.0000000000
40
0.0000000000
40
0.5230786657
40
1.0000000000
40
1.0000000000
40
1.0000000000
40
1.0000000000
10
-153.1499620106
20
-99.3818191891
30
0.0000000000
10
-153.3279800332
20
-99.4452867212
30
0.0000000000
10
-153.6834404772
20
-99.5257930196
30
0.0000000000
10
-154.0523536471
20
-99.4858901187
30
0.0000000000
10
-154.2177243891
20
-99.4361243620
30
0.0000000000
11
-153.1499620106
21
-99.3818191891
31
0.0000000000
11
-153.7035284004
21
-99.4965636591
31
0.0000000000
11
-154.2177243891
21
-99.4361243620
31
0.0000000000
0
SPLINE
5
594
100
AcDbEntity
8
0
100
AcDbSpline
62
7
6
CONTINUOUS
70
0
71
3
72
8
73
4
74
2
42
0.0000001000
43
0.0000001000
44
0.0000000001
12
-0.2118898980
22
0.0637649743
32
0.0000000000
13
-0.1971330254
23
0.0981868092
33
0.0000000000
40
0.0000000000
40
0.0000000000
40
0.0000000000
40
0.0000000000
40
1.0000000000
40
1.0000000000
40
1.0000000000
40
1.0000000000
10
-154.2177243891
20
-99.4361243620
30
0.0000000000
10
-154.2883543551
20
-99.4148693705
30
0.0000000000
10
-154.3570558623
20
-99.3880078141
30
0.0000000000
10
-154.4227668708
20
-99.3552788777
30
0.0000000000
11
-154.2177243891
21
-99.4361243620
31
0.0000000000
11
-154.4227668708
21
-99.3552788777
31
0.0000000000
0
SPLINE
5
595
100
AcDbEntity
8
0
100
AcDbSpline
62
7
6
CONTINUOUS
70
0
71
3
72
8
73
4
74
2
42
0.0000001000
43
0.0000001000
44
0.0000000001
12
-0.2838170012
22
-0.1419085006
32
0.0000000000
13
-0.3012038049
23
-0.1073861054
33
0.0000000000
40
0.0000000000
40
0.0000000000
40
0.0000000000
40
0.0000000000
40
1.0000000000
40
1.0000000000
40
1.0000000000
40
1.0000000000
10
175.9475815206
20
92.6425008430
30
0.0000000000
10
175.8529758535
20
92.5951980095
30
0.0000000000
10
175.7550925094
20
92.5526093754
30
0.0000000000
10
175.6546912411
20
92.5168140069
30
0.0000000000
11
175.9475815206
21
92.6425008430
31
0.0000000000
11
175.6546912411
21
92.5168140069
31
0.0000000000
0
SPLINE
5
596
100
AcDbEntity
8
0
100
AcDbSpline
62
7
6
CONTINUOUS
70
0
71
3
72
9
73
5
74
3
42
0.0000001000
43
0.0000001000
44
0.0000000001
12
-1.0209823162
22
-0.3640037505
32
0.0000000000
13
-1.0402391139
23
0.3130438073
33
0.0000000000
40
0.0000000000
40
0.0000000000
40
0.0000000000
40
0.0000000000
40
0.5230786657
40
1.0000000000
40
1.0000000000
40
1.0000000000
40
1.0000000000
10
175.6546912411
20
92.5168140069
30
0.0000000000
10
175.4766732186
20
92.4533464748
30
0.0000000000
10
175.1212127746
20
92.3728401764
30
0.0000000000
10
174.7522996047
20
92.4127430773
30
0.0000000000
10
174.5869288626
20
92.4625088341
30
0.0000000000
11
175.6546912411
21
92.5168140069
31
0.0000000000
11
175.1011248514
21
92.4020695369
31
0.0000000000
11
174.5869288626
21
92.4625088341
31
0.0000000000
0
SPLINE
5
597
100
AcDbEntity
8
0
100
AcDbSpline
62
7
6
CONTINUOUS
70
0
71
3
72
8
73
4
74
2
42
0.0000001000
43
0.0000001000
44
0.0000000001
12
-0.2118898980
22
0.0637649743
32
0.0000000000
13
-0.1971330254
23
0.0981868092
33
0.0000000000
40
0.0000000000
40
0.0000000000
40
0.0000000000
40
0.0000000000
40
1.0000000000
40
1.0000000000
40
1.0000000000
40
1.0000000000
10
174.5869288626
20
92.4625088341
30
0.0000000000
10
174.5162988966
20
92.4837638255
30
0.0000000000
10
174.4475973894
20
92.5106253819
30
0.0000000000
10
174.3818863810
20
92.5433543183
30
0.0000000000
11
174.5869288626
21
92.4625088341
31
0.0000000000
11
174.3818863810
21
92.5433543183
31
0.0000000000
0
SPLINE
5
598
100
AcDbEntity
8
0
100
AcDbSpline
62
7
6
CONTINUOUS
70
0
71
3
72
8
73
4
74
2
42
0.0000001000
43
0.0000001000
44
0.0000000001
12
-0.2838170012
22
-0.1419085006
32
0.0000000000
13
-0.3012038049
23
-0.1073861054
33
0.0000000000
40
0.0000000000
40
0.0000000000
40
0.0000000000
40
0.0000000000
40
1.0000000000
40
1.0000000000
40
1.0000000000
40
1.0000000000
10
175.9475815206
20
65.1461942729
30
0.0000000000
10
175.8529758535
20
65.0988914393
30
0.0000000000
10
175.7550925094
20
65.0563028052
30
0.0000000000
10
175.6546912411
20
65.0205074367
30
0.0000000000
11
175.9475815206
21
65.1461942729
31
0.0000000000
11
175.6546912411
21
65.0205074367
31
0.0000000000
0
SPLINE
5
599
100
AcDbEntity
8
0
100
AcDbSpline
62
7
6
CONTINUOUS
70
0
71
3
72
9
73
5
74
3
42
0.0000001000
43
0.0000001000
44
0.0000000001
12
-1.0209823162
22
-0.3640037505
32
0.0000000000
13
-1.0402391139
23
0.3130438073
33
0.0000000000
40
0.0000000000
40
0.0000000000
40
0.0000000000
40
0.0000000000
40
0.5230786657
40
1.0000000000
40
1.0000000000
40
1.0000000000
40
1.0000000000
10
175.6546912411
20
65.0205074367
30
0.0000000000
10
175.4766732186
20
64.9570399047
30
0.0000000000
10
175.1212127746
20
64.8765336062
30
0.0000000000
10
174.7522996047
20
64.9164365072
30
0.0000000000
10
174.5869288626
20
64.9662022639
30
0.0000000000
11
175.6546912411
21
65.0205074367
31
0.0000000000
11
175.1011248514
21
64.9057629668
31
0.0000000000
11
174.5869288626
21
64.9662022639
31
0.0000000000
0
SPLINE
5
59A
100
AcDbEntity
8
0
100
AcDbSpline
62
7
6
CONTINUOUS
70
0
71
3
72
8
73
4
74
2
42
0.0000001000
43
0.0000001000
44
0.0000000001
12
-0.2118898980
22
0.0637649743
32
0.0000000000
13
-0.1971330254
23
0.0981868092
33
0.0000000000
40
0.0000000000
40
0.0000000000
40
0.0000000000
40
0.0000000000
40
1.0000000000
40
1.0000000000
40
1.0000000000
40
1.0000000000
10
174.5869288626
20
64.9662022639
30
0.0000000000
10
174.5162988966
20
64.9874572554
30
0.0000000000
10
174.4475973894
20
65.0143188117
30
0.0000000000
10
174.3818863810
20
65.0470477481
30
0.0000000000
11
174.5869288626
21
64.9662022639
31
0.0000000000
11
174.3818863810
21
65.0470477481
31
0.0000000000
0
SPLINE
5
59B
100
AcDbEntity
8
0
100
AcDbSpline
62
7
6
CONTINUOUS
70
0
71
3
72
10
73
6
74
4
42
0.0000001000
43
0.0000001000
44
0.0000000001
12
0.0000000000
22
-0.7323445251
32
0.0000000000
13
-0.6550288565
23
-0.3275144282
33
0.0000000000
40
0.0000000000
40
0.0000000000
40
0.0000000000
40
0.0000000000
40
0.3362619791
40
0.6872392329
40
1.0000000000
40
1.0000000000
40
1.0000000000
40
1.0000000000
10
169.7603971852
20
96.5853650811
30
0.0000000000
10
169.7603971852
20
96.5032785413
30
0.0000000000
10
169.7229290845
20
96.3351408489
30
0.0000000000
10
169.6001868816
20
96.1212745770
30
0.0000000000
10
169.4751329038
20
96.0097202385
30
0.0000000000
10
169.4068437947
20
95.9755756839
30
0.0000000000
11
169.7603971852
21
96.5853650811
31
0.0000000000
11
169.7125066504
21
96.3438070201
31
0.0000000000
11
169.5833088845
21
96.1216008511
31
0.0000000000
11
169.4068437947
21
95.9755756839
31
0.0000000000
0
SPLINE
5
59C
100
AcDbEntity
8
0
100
AcDbSpline
62
7
6
CONTINUOUS
70
0
71
3
72
8
73
4
74
2
42
0.0000001000
43
0.0000001000
44
0.0000000001
12
0.0000000000
22
-0.6921140303
32
0.0000000000
13
0.1303364700
23
-0.6827147255
33
0.0000000000
40
0.0000000000
40
0.0000000000
40
0.0000000000
40
0.0000000000
40
1.0000000000
40
1.0000000000
40
1.0000000000
40
1.0000000000
10
-157.6300425041
20
-100.4518328093
30
0.0000000000
10
-157.6300425041
20
-100.6825374861
30
0.0000000000
10
-157.6116677962
20
-100.9145151444
30
0.0000000000
10
-157.5682223062
20
-101.1420867196
30
0.0000000000
11
-157.6300425041
21
-100.4518328093
31
0.0000000000
11
-157.5682223062
21
-101.1420867196
31
0.0000000000
0
SPLINE
5
59D
100
AcDbEntity
8
0
100
AcDbSpline
62
7
6
CONTINUOUS
70
0
71
3
72
10
73
6
74
4
42
0.0000001000
43
0.0000001000
44
0.0000000001
12
0.3425506407
22
-1.7943125719
32
0.0000000000
13
1.6356392417
23
-0.8274396648
33
0.0000000000
40
0.0000000000
40
0.0000000000
40
0.0000000000
40
0.0000000000
40
0.1730099721
40
0.6509024347
40
1.0000000000
40
1.0000000000
40
1.0000000000
40
1.0000000000
10
-157.5682223062
20
-101.1420867196
30
0.0000000000
10
-157.5484674139
20
-101.2455647089
30
0.0000000000
10
-157.4546433607
20
-101.6314448413
30
0.0000000000
10
-157.1840892895
20
-102.1928632112
30
0.0000000000
10
-156.7796367053
20
-102.5189742453
30
0.0000000000
10
-156.5893041463
20
-102.6152599694
30
0.0000000000
11
-157.5682223062
21
-101.1420867196
31
0.0000000000
11
-157.4927774399
21
-101.4492538154
31
0.0000000000
11
-157.0888991870
21
-102.2190293356
31
0.0000000000
11
-156.5893041463
21
-102.6152599694
31
0.0000000000
0
SPLINE
5
59E
100
AcDbEntity
8
0
100
AcDbSpline
62
7
6
CONTINUOUS
70
0
71
3
72
9
73
5
74
3
42
0.0000001000
43
0.0000001000
44
0.0000000001
12
-0.2036671096
22
-0.1018335548
32
0.0000000000
13
-0.2054675380
23
0.1083682865
33
0.0000000000
40
0.0000000000
40
0.0000000000
40
0.0000000000
40
0.0000000000
40
0.7914831957
40
1.0000000000
40
1.0000000000
40
1.0000000000
40
1.0000000000
10
-143.8414602710
20
-60.6485763489
30
0.0000000000
10
-143.8951933026
20
-60.6754428647
30
0.0000000000
10
-143.9775091059
20
-60.6970954560
30
0.0000000000
10
-144.0496786502
20
-60.6693335831
30
0.0000000000
10
-144.0639597950
20
-60.6618013802
30
0.0000000000
11
-143.8414602710
21
-60.6485763489
31
0.0000000000
11
-144.0191403729
21
-60.6787627129
31
0.0000000000
11
-144.0639597950
21
-60.6618013802
31
0.0000000000
0
SPLINE
5
59F
100
AcDbEntity
8
0
100
AcDbSpline
62
7
6
CONTINUOUS
70
0
71
3
72
9
73
5
74
3
42
0.0000001000
43
0.0000001000
44
0.0000000001
12
-0.2069773305
22
-0.1034886653
32
0.0000000000
13
-0.2068799598
23
0.1092612863
33
0.0000000000
40
0.0000000000
40
0.0000000000
40
0.0000000000
40
0.0000000000
40
0.7819491813
40
1.0000000000
40
1.0000000000
40
1.0000000000
40
1.0000000000
10
168.6997370581
20
95.6220222710
30
0.0000000000
10
168.6457884734
20
95.5950479786
30
0.0000000000
10
168.5615492335
20
95.5741069511
30
0.0000000000
10
168.4891001165
20
95.6021334965
30
0.0000000000
10
168.4740633350
20
95.6100750008
30
0.0000000000
11
168.6997370581
21
95.6220222710
31
0.0000000000
11
168.5212558702
21
95.5922392942
31
0.0000000000
11
168.4740633350
21
95.6100750008
31
0.0000000000
0
SPLINE
5
5A0
100
AcDbEntity
8
0
100
AcDbSpline
62
7
6
CONTINUOUS
70
0
71
3
72
10
73
6
74
4
42
0.0000001000
43
0.0000001000
44
0.0000000001
12
0.1394108715
22
-0.7309892623
32
0.0000000000
13
-0.6656008970
23
-0.3328004485
33
0.0000000000
40
0.0000000000
40
0.0000000000
40
0.0000000000
40
0.0000000000
40
0.3479101067
40
0.6923771067
40
1.0000000000
40
1.0000000000
40
1.0000000000
40
1.0000000000
10
-142.8257072678
20
-59.6627799768
30
0.0000000000
10
-142.8095397841
20
-59.7475528276
30
0.0000000000
10
-142.8219701170
20
-59.9265990471
30
0.0000000000
10
-142.9408162841
20
-60.1498224653
30
0.0000000000
10
-143.0661020881
20
-60.2608973013
30
0.0000000000
10
-143.1343534460
20
-60.2950229802
30
0.0000000000
11
-142.8257072678
21
-59.6627799768
31
0.0000000000
11
-142.8396700643
21
-59.9213055154
31
0.0000000000
11
-142.9585300916
21
-60.1484234017
31
0.0000000000
11
-143.1343534460
21
-60.2950229802
31
0.0000000000
0
SPLINE
5
5A1
100
AcDbEntity
8
0
100
AcDbSpline
62
7
6
CONTINUOUS
70
0
71
3
72
8
73
4
74
2
42
0.0000001000
43
0.0000001000
44
0.0000000001
12
-0.3068865184
22
-0.1534432592
32
0.0000000000
13
-0.2909363632
23
-0.1832132974
33
0.0000000000
40
0.0000000000
40
0.0000000000
40
0.0000000000
40
0.0000000000
40
1.0000000000
40
1.0000000000
40
1.0000000000
40
1.0000000000
10
-154.8016153794
20
-64.3966030955
30
0.0000000000
10
-154.9039108855
20
-64.4477508486
30
0.0000000000
10
-155.0035763742
20
-64.5042613830
30
0.0000000000
10
-155.1005551619
20
-64.5653324822
30
0.0000000000
11
-154.8016153794
21
-64.3966030955
31
0.0000000000
11
-155.1005551619
21
-64.5653324822
31
0.0000000000
0
SPLINE
5
5A2
100
AcDbEntity
8
0
100
AcDbSpline
62
7
6
CONTINUOUS
70
0
71
3
72
8
73
4
74
2
42
0.0000001000
43
0.0000001000
44
0.0000000001
12
-0.6071010550
22
-0.3823137987
32
0.0000000000
13
-0.5353624714
23
-0.4795966512
33
0.0000000000
40
0.0000000000
40
0.0000000000
40
0.0000000000
40
0.0000000000
40
1.0000000000
40
1.0000000000
40
1.0000000000
40
1.0000000000
10
-155.1005551619
20
-64.5653324822
30
0.0000000000
10
-155.3029221803
20
-64.6927704151
30
0.0000000000
10
-155.4935902913
20
-64.8400667631
30
0.0000000000
10
-155.6720444484
20
-64.9999323135
30
0.0000000000
11
-155.1005551619
21
-64.5653324822
31
0.0000000000
11
-155.6720444484
21
-64.9999323135
31
0.0000000000
0
SPLINE
5
5A3
100
AcDbEntity
8
0
100
AcDbSpline
62
7
6
CONTINUOUS
70
0
71
3
72
11
73
7
74
5
42
0.0000001000
43
0.0000001000
44
0.0000000001
12
-3.6044430521
22
-3.2289876669
32
0.0000000000
13
0.0000000000
23
-4.8204329102
33
0.0000000000
40
0.0000000000
40
0.0000000000
40
0.0000000000
40
0.0000000000
40
0.2475524476
40
0.5057965379
40
0.7626607902
40
1.0000000000
40
1.0000000000
40
1.0000000000
40
1.0000000000
10
-155.6720444484
20
-64.9999323135
30
0.0000000000
10
-155.9694740151
20
-65.2663802470
30
0.0000000000
10
-156.5078555562
20
-65.8821235422
30
0.0000000000
10
-157.1243321697
20
-66.9501392205
30
0.0000000000
10
-157.5247204504
20
-68.0981706316
30
0.0000000000
10
-157.6300425041
20
-68.8935590271
30
0.0000000000
10
-157.6300425041
20
-69.2749182731
30
0.0000000000
11
-155.6720444484
21
-64.9999323135
31
0.0000000000
11
-156.4654461351
21
-65.8912809758
31
0.0000000000
11
-157.0896873272
21
-66.9683001275
31
0.0000000000
11
-157.4925215502
21
-68.1391357862
31
0.0000000000
11
-157.6300425041
21
-69.2749182731
31
0.0000000000
0
SPLINE
5
5A4
100
AcDbEntity
8
0
100
AcDbSpline
62
7
6
CONTINUOUS
70
0
71
3
72
15
73
11
74
9
42
0.0000001000
43
0.0000001000
44
0.0000000001
12
6.6001985956
22
-3.2873864677
32
0.0000000000
13
-6.5610124507
23
-3.2805062254
33
0.0000000000
40
0.0000000000
40
0.0000000000
40
0.0000000000
40
0.0000000000
40
0.0038290851
40
0.1082141413
40
0.2298219586
40
0.3733289413
40
0.5333196397
40
0.6990179146
40
0.8580812375
40
1.0000000000
40
1.0000000000
40
1.0000000000
40
1.0000000000
10
179.9881503945
20
72.5449554912
30
0.0000000000
10
179.9965746350
20
72.5407595971
30
0.0000000000
10
180.2332638596
20
72.4194537030
30
0.0000000000
10
180.6487706708
20
71.9973214300
30
0.0000000000
10
180.9192672152
20
71.1114114064
30
0.0000000000
10
180.8989176609
20
70.0600508493
30
0.0000000000
10
180.6000373317
20
68.9424923671
30
0.0000000000
10
180.0573979464
20
67.8787970846
30
0.0000000000
10
179.3324154897
20
66.9869217651
30
0.0000000000
10
178.7328321774
20
66.5388196013
30
0.0000000000
10
178.4224552548
20
66.3836311400
30
0.0000000000
11
179.9881503945
21
72.5449554912
31
0.0000000000
11
180.0132734266
21
72.5320779577
31
0.0000000000
11
180.5657587797
21
72.0019162723
31
0.0000000000
11
180.8597300959
21
71.1597005399
31
0.0000000000
11
180.8597300959
21
70.1070144076
31
0.0000000000
11
180.5657587797
21
68.9708273590
31
0.0000000000
11
180.0132734266
21
67.8881803205
31
0.0000000000
11
179.2689119240
21
66.9896565031
31
0.0000000000
11
178.4224552548
21
66.3836311400
31
0.0000000000
0
SPLINE
5
5A5
100
AcDbEntity
8
0
100
AcDbSpline
62
7
6
CONTINUOUS
70
0
71
3
72
15
73
11
74
9
42
0.0000001000
43
0.0000001000
44
0.0000000001
12
6.6001985956
22
-3.2873864677
32
0.0000000000
13
-6.5610124507
23
-3.2805062254
33
0.0000000000
40
0.0000000000
40
0.0000000000
40
0.0000000000
40
0.0000000000
40
0.0038290851
40
0.1082141413
40
0.2298219586
40
0.3733289413
40
0.5333196397
40
0.6990179146
40
0.8580812375
40
1.0000000000
40
1.0000000000
40
1.0000000000
40
1.0000000000
10
179.9881503945
20
100.0412620613
30
0.0000000000
10
179.9965746350
20
100.0370661672
30
0.0000000000
10
180.2332638596
20
99.9157602731
30
0.0000000000
10
180.6487706708
20
99.4936280002
30
0.0000000000
10
180.9192672152
20
98.6077179765
30
0.0000000000
10
180.8989176609
20
97.5563574194
30
0.0000000000
10
180.6000373317
20
96.4387989373
30
0.0000000000
10
180.0573979464
20
95.3751036547
30
0.0000000000
10
179.3324154897
20
94.4832283353
30
0.0000000000
10
178.7328321774
20
94.0351261714
30
0.0000000000
10
178.4224552548
20
93.8799377101
30
0.0000000000
11
179.9881503945
21
100.0412620613
31
0.0000000000
11
180.0132734266
21
100.0283845279
31
0.0000000000
11
180.5657587797
21
99.4982228424
31
0.0000000000
11
180.8597300959
21
98.6560071100
31
0.0000000000
11
180.8597300959
21
97.6033209778
31
0.0000000000
11
180.5657587797
21
96.4671339292
31
0.0000000000
11
180.0132734266
21
95.3844868907
31
0.0000000000
11
179.2689119240
21
94.4859630733
31
0.0000000000
11
178.4224552548
21
93.8799377101
31
0.0000000000
0
SPLINE
5
5A6
100
AcDbEntity
8
0
100
AcDbSpline
62
7
6
CONTINUOUS
70
0
71
3
72
15
73
11
74
9
42
0.0000001000
43
0.0000001000
44
0.0000000001
12
6.6001985956
22
-3.2873864677
32
0.0000000000
13
-6.5610124507
23
-3.2805062254
33
0.0000000000
40
0.0000000000
40
0.0000000000
40
0.0000000000
40
0.0000000000
40
0.0038290851
40
0.1082141413
40
0.2298219586
40
0.3733289413
40
0.5333196397
40
0.6990179146
40
0.8580812375
40
1.0000000000
40
1.0000000000
40
1.0000000000
40
1.0000000000
10
-148.8165028573
20
-91.8573711347
30
0.0000000000
10
-148.8080786167
20
-91.8615670288
30
0.0000000000
10
-148.5713893921
20
-91.9828729229
30
0.0000000000
10
-148.1558825809
20
-92.4050051959
30
0.0000000000
10
-147.8853860366
20
-93.2909152195
30
0.0000000000
10
-147.9057355909
20
-94.3422757766
30
0.0000000000
10
-148.2046159200
20
-95.4598342588
30
0.0000000000
10
-148.7472553053
20
-96.5235295413
30
0.0000000000
10
-149.4722377620
20
-97.4154048607
30
0.0000000000
10
-150.0718210743
20
-97.8635070246
30
0.0000000000
10
-150.3821979970
20
-98.0186954859
30
0.0000000000
11
-148.8165028573
21
-91.8573711347
31
0.0000000000
11
-148.7913798251
21
-91.8702486682
31
0.0000000000
11
-148.2388944720
21
-92.4004103536
31
0.0000000000
11
-147.9449231558
21
-93.2426260860
31
0.0000000000
11
-147.9449231558
21
-94.2953122182
31
0.0000000000
11
-148.2388944720
21
-95.4314992668
31
0.0000000000
11
-148.7913798251
21
-96.5141463053
31
0.0000000000
11
-149.5357413277
21
-97.4126701228
31
0.0000000000
11
-150.3821979970
21
-98.0186954859
31
0.0000000000
0
SPLINE
5
5A7
100
AcDbEntity
8
0
100
AcDbSpline
62
7
6
CONTINUOUS
70
0
71
3
72
15
73
11
74
9
42
0.0000001000
43
0.0000001000
44
0.0000000001
12
6.6001985956
22
-3.2873864677
32
0.0000000000
13
-6.5610124507
23
-3.2805062254
33
0.0000000000
40
0.0000000000
40
0.0000000000
40
0.0000000000
40
0.0000000000
40
0.0038290851
40
0.1082141413
40
0.2298219586
40
0.3733289413
40
0.5333196397
40
0.6990179146
40
0.8580812375
40
1.0000000000
40
1.0000000000
40
1.0000000000
40
1.0000000000
10
-148.8165028573
20
-64.3610645645
30
0.0000000000
10
-148.8080786167
20
-64.3652604587
30
0.0000000000
10
-148.5713893921
20
-64.4865663527
30
0.0000000000
10
-148.1558825809
20
-64.9086986257
30
0.0000000000
10
-147.8853860366
20
-65.7946086493
30
0.0000000000
10
-147.9057355909
20
-66.8459692065
30
0.0000000000
10
-148.2046159200
20
-67.9635276886
30
0.0000000000
10
-148.7472553053
20
-69.0272229711
30
0.0000000000
10
-149.4722377620
20
-69.9190982906
30
0.0000000000
10
-150.0718210743
20
-70.3672004544
30
0.0000000000
10
-150.3821979970
20
-70.5223889158
30
0.0000000000
11
-148.8165028573
21
-64.3610645645
31
0.0000000000
11
-148.7913798251
21
-64.3739420980
31
0.0000000000
11
-148.2388944720
21
-64.9041037834
31
0.0000000000
11
-147.9449231558
21
-65.7463195158
31
0.0000000000
11
-147.9449231558
21
-66.7990056481
31
0.0000000000
11
-148.2388944720
21
-67.9351926967
31
0.0000000000
11
-148.7913798251
21
-69.0178397352
31
0.0000000000
11
-149.5357413277
21
-69.9163635526
31
0.0000000000
11
-150.3821979970
21
-70.5223889158
31
0.0000000000
0
SPLINE
5
5A8
100
AcDbEntity
8
0
100
AcDbSpline
62
7
6
CONTINUOUS
70
0
71
3
72
9
73
5
74
3
42
0.0000001000
43
0.0000001000
44
0.0000000001
12
0.2797649225
22
-0.1475544292
32
0.0000000000
13
0.0000000000
23
-0.3100458697
33
0.0000000000
40
0.0000000000
40
0.0000000000
40
0.0000000000
40
0.0000000000
40
0.3606454202
40
1.0000000000
40
1.0000000000
40
1.0000000000
40
1.0000000000
10
169.6293433187
20
61.3477845638
30
0.0000000000
10
169.6629752980
20
61.3300462874
30
0.0000000000
10
169.7444289590
20
61.2540517797
30
0.0000000000
10
169.7603971852
20
61.1443999415
30
0.0000000000
10
169.7603971852
20
61.0783235259
30
0.0000000000
11
169.6293433187
21
61.3477845638
31
0.0000000000
11
169.7132097067
21
61.2708545004
31
0.0000000000
11
169.7603971852
21
61.0783235259
31
0.0000000000
0
SPLINE
5
5A9
100
AcDbEntity
8
0
100
AcDbSpline
62
7
6
CONTINUOUS
70
0
71
3
72
9
73
5
74
3
42
0.0000001000
43
0.0000001000
44
0.0000000001
12
0.1954639624
22
-0.1039042180
32
0.0000000000
13
-0.0085745201
23
-0.2215095209
33
0.0000000000
40
0.0000000000
40
0.0000000000
40
0.0000000000
40
0.0000000000
40
0.4782728219
40
1.0000000000
40
1.0000000000
40
1.0000000000
40
1.0000000000
10
-142.9138883571
20
-94.9220434142
30
0.0000000000
10
-142.8827266568
20
-94.9386082687
30
0.0000000000
10
-142.8264712344
20
-94.9914758126
30
0.0000000000
10
-142.8150436461
20
-95.0657689571
30
0.0000000000
10
-142.8165348329
20
-95.1042914695
30
0.0000000000
11
-142.9138883571
21
-94.9220434142
31
0.0000000000
11
-142.8391699157
21
-94.9940794842
31
0.0000000000
11
-142.8165348329
21
-95.1042914695
31
0.0000000000
0
SPLINE
5
5AA
100
AcDbEntity
8
0
100
AcDbSpline
62
7
6
CONTINUOUS
70
0
71
3
72
8
73
4
74
2
42
0.0000001000
43
0.0000001000
44
0.0000000001
12
-0.0025916051
22
-0.0669501256
32
0.0000000000
13
-0.0148299847
23
-0.0629298017
33
0.0000000000
40
0.0000000000
40
0.0000000000
40
0.0000000000
40
0.0000000000
40
1.0000000000
40
1.0000000000
40
1.0000000000
40
1.0000000000
10
-142.8165348329
20
-95.1042914695
30
0.0000000000
10
-142.8173987012
20
-95.1266081780
30
0.0000000000
10
-142.8207639396
20
-95.1488449314
30
0.0000000000
10
-142.8257072678
20
-95.1698215320
30
0.0000000000
11
-142.8165348329
21
-95.1042914695
31
0.0000000000
11
-142.8257072678
21
-95.1698215320
31
0.0000000000
0
SPLINE
5
5AB
100
AcDbEntity
8
0
100
AcDbSpline
62
7
6
CONTINUOUS
70
0
71
3
72
10
73
6
74
4
42
0.0000001000
43
0.0000001000
44
0.0000000001
12
0.0001683167
22
-1.2142856609
32
0.0000000000
13
1.0173118828
23
-0.6282710280
33
0.0000000000
40
0.0000000000
40
0.0000000000
40
0.0000000000
40
0.0000000000
40
0.1965496508
40
0.6430415469
40
1.0000000000
40
1.0000000000
40
1.0000000000
40
1.0000000000
10
-148.6064228539
20
-54.8507262005
30
0.0000000000
10
-148.6064118264
20
-54.9302820080
30
0.0000000000
10
-148.5692274496
20
-55.1905646762
30
0.0000000000
10
-148.3225034447
20
-55.5252735646
30
0.0000000000
10
-148.0649521147
20
-55.7182821557
30
0.0000000000
10
-147.9439060894
20
-55.7930377071
30
0.0000000000
11
-148.6064228539
21
-54.8507262005
31
0.0000000000
11
-148.5723321862
21
-55.0851871254
31
0.0000000000
11
-148.2820937784
21
-55.5317974358
31
0.0000000000
11
-147.9439060894
21
-55.7930377071
31
0.0000000000
0
SPLINE
5
5AC
100
AcDbEntity
8
0
100
AcDbSpline
62
7
6
CONTINUOUS
70
0
71
3
72
8
73
4
74
2
42
0.0000001000
43
0.0000001000
44
0.0000000001
12
0.2078078063
22
-0.1283378542
32
0.0000000000
13
0.2179556514
23
-0.1089778257
33
0.0000000000
40
0.0000000000
40
0.0000000000
40
0.0000000000
40
0.0000000000
40
1.0000000000
40
1.0000000000
40
1.0000000000
40
1.0000000000
10
-147.9439060894
20
-55.7930377071
30
0.0000000000
10
-147.8746368206
20
-55.8358169918
30
0.0000000000
10
-147.8031994513
20
-55.8749957794
30
0.0000000000
10
-147.7305475675
20
-55.9113217213
30
0.0000000000
11
-147.9439060894
21
-55.7930377071
31
0.0000000000
11
-147.7305475675
21
-55.9113217213
31
0.0000000000
0
SPLINE
5
5AD
100
AcDbEntity
8
0
100
AcDbSpline
62
7
6
CONTINUOUS
70
0
71
3
72
9
73
5
74
3
42
0.0000001000
43
0.0000001000
44
0.0000000001
12
0.7567049734
22
0.3808316099
32
0.0000000000
13
0.1932342949
23
0.8199735933
33
0.0000000000
40
0.0000000000
40
0.0000000000
40
0.0000000000
40
0.0000000000
40
0.4517350583
40
1.0000000000
40
1.0000000000
40
1.0000000000
40
1.0000000000
10
-143.3009643896
20
-95.8411341096
30
0.0000000000
10
-143.1870210012
20
-95.7837891131
30
0.0000000000
10
-142.9676966128
20
-95.5888657103
30
0.0000000000
10
-142.8610217976
20
-95.3196757901
30
0.0000000000
10
-142.8257072678
20
-95.1698215320
30
0.0000000000
11
-143.3009643896
21
-95.8411341096
31
0.0000000000
11
-143.0118557564
21
-95.5925264792
31
0.0000000000
11
-142.8257072678
21
-95.1698215320
31
0.0000000000
0
SPLINE
5
5AE
100
AcDbEntity
8
0
100
AcDbSpline
62
7
6
CONTINUOUS
70
0
71
3
72
8
73
4
74
2
42
0.0000001000
43
0.0000001000
44
0.0000000001
12
-0.7870431276
22
-0.3935215638
32
0.0000000000
13
-0.8896688033
23
-0.0430058456
33
0.0000000000
40
0.0000000000
40
0.0000000000
40
0.0000000000
40
0.0000000000
40
1.0000000000
40
1.0000000000
40
1.0000000000
40
1.0000000000
10
174.8869213488
20
65.6765243588
30
0.0000000000
10
174.6245736396
20
65.5453505042
30
0.0000000000
10
174.3370209473
20
65.4504283345
30
0.0000000000
10
174.0404646796
20
65.4360930527
30
0.0000000000
11
174.8869213488
21
65.6765243588
31
0.0000000000
11
174.0404646796
21
65.4360930527
31
0.0000000000
0
SPLINE
5
5AF
100
AcDbEntity
8
0
100
AcDbSpline
62
7
6
CONTINUOUS
70
0
71
3
72
8
73
4
74
2
42
0.0000001000
43
0.0000001000
44
0.0000000001
12
-0.7870431276
22
-0.3935215638
32
0.0000000000
13
-0.8896688033
23
-0.0430058456
33
0.0000000000
40
0.0000000000
40
0.0000000000
40
0.0000000000
40
0.0000000000
40
1.0000000000
40
1.0000000000
40
1.0000000000
40
1.0000000000
10
174.8869213488
20
93.1728309289
30
0.0000000000
10
174.6245736396
20
93.0416570743
30
0.0000000000
10
174.3370209473
20
92.9467349047
30
0.0000000000
10
174.0404646796
20
92.9323996228
30
0.0000000000
11
174.8869213488
21
93.1728309289
31
0.0000000000
11
174.0404646796
21
92.9323996228
31
0.0000000000
0
SPLINE
5
5B0
100
AcDbEntity
8
0
100
AcDbSpline
62
7
6
CONTINUOUS
70
0
71
3
72
8
73
4
74
2
42
0.0000001000
43
0.0000001000
44
0.0000000001
12
-0.7870431276
22
-0.3935215638
32
0.0000000000
13
-0.8896688033
23
-0.0430058456
33
0.0000000000
40
0.0000000000
40
0.0000000000
40
0.0000000000
40
0.0000000000
40
1.0000000000
40
1.0000000000
40
1.0000000000
40
1.0000000000
10
-153.9177319029
20
-98.7258022671
30
0.0000000000
10
-154.1800796121
20
-98.8569761217
30
0.0000000000
10
-154.4676323044
20
-98.9518982914
30
0.0000000000
10
-154.7641885722
20
-98.9662335732
30
0.0000000000
11
-153.9177319029
21
-98.7258022671
31
0.0000000000
11
-154.7641885722
21
-98.9662335732
31
0.0000000000
0
SPLINE
5
5B1
100
AcDbEntity
8
0
100
AcDbSpline
62
7
6
CONTINUOUS
70
0
71
3
72
8
73
4
74
2
42
0.0000001000
43
0.0000001000
44
0.0000000001
12
-0.7870431276
22
-0.3935215638
32
0.0000000000
13
-0.8896688033
23
-0.0430058456
33
0.0000000000
40
0.0000000000
40
0.0000000000
40
0.0000000000
40
0.0000000000
40
1.0000000000
40
1.0000000000
40
1.0000000000
40
1.0000000000
10
-153.9177319029
20
-71.2294956970
30
0.0000000000
10
-154.1800796121
20
-71.3606695516
30
0.0000000000
10
-154.4676323044
20
-71.4555917212
30
0.0000000000
10
-154.7641885722
20
-71.4699270031
30
0.0000000000
11
-153.9177319029
21
-71.2294956970
31
0.0000000000
11
-154.7641885722
21
-71.4699270031
31
0.0000000000
0
SPLINE
5
5B2
100
AcDbEntity
8
0
100
AcDbSpline
62
7
6
CONTINUOUS
70
0
71
3
72
8
73
4
74
2
42
0.0000001000
43
0.0000001000
44
0.0000000001
12
0.2908536955
22
0.1454268477
32
0.0000000000
13
0.3065356071
23
0.1138024499
33
0.0000000000
40
0.0000000000
40
0.0000000000
40
0.0000000000
40
0.0000000000
40
1.0000000000
40
1.0000000000
40
1.0000000000
40
1.0000000000
10
179.3063387313
20
103.7180341316
30
0.0000000000
10
179.4032899631
20
103.7665097475
30
0.0000000000
10
179.5031197403
20
103.8105055360
30
0.0000000000
10
179.6052982760
20
103.8484396860
30
0.0000000000
11
179.3063387313
21
103.7180341316
31
0.0000000000
11
179.6052982760
21
103.8484396860
31
0.0000000000
0
SPLINE
5
5B3
100
AcDbEntity
8
0
100
AcDbSpline
62
7
6
CONTINUOUS
70
0
71
3
72
9
73
5
74
3
42
0.0000001000
43
0.0000001000
44
0.0000000001
12
1.3042591193
22
0.4842109030
32
0.0000000000
13
1.2952549660
23
-0.5084322465
33
0.0000000000
40
0.0000000000
40
0.0000000000
40
0.0000000000
40
0.0000000000
40
0.4235916461
40
1.0000000000
40
1.0000000000
40
1.0000000000
40
1.0000000000
10
179.6052982760
20
103.8484396860
30
0.0000000000
10
179.7894560317
20
103.9168089171
30
0.0000000000
10
180.2422206453
20
104.0317285690
30
0.0000000000
10
180.7202202224
20
103.9852984740
30
0.0000000000
10
180.9690854834
20
103.8876102759
30
0.0000000000
11
179.6052982760
21
103.8484396860
31
0.0000000000
11
180.1775585541
21
103.9852159600
31
0.0000000000
11
180.9690854834
21
103.8876102759
31
0.0000000000
0
SPLINE
5
5B4
100
AcDbEntity
8
0
100
AcDbSpline
62
7
6
CONTINUOUS
70
0
71
3
72
8
73
4
74
2
42
0.0000001000
43
0.0000001000
44
0.0000000001
12
0.1273945104
22
-0.0500067391
32
0.0000000000
13
0.1223655120
23
-0.0619024512
33
0.0000000000
40
0.0000000000
40
0.0000000000
40
0.0000000000
40
0.0000000000
40
1.0000000000
40
1.0000000000
40
1.0000000000
40
1.0000000000
10
180.9690854834
20
103.8876102759
30
0.0000000000
10
181.0115503202
20
103.8709413629
30
0.0000000000
10
181.0532389941
20
103.8522073893
30
0.0000000000
10
181.0940274982
20
103.8315732389
30
0.0000000000
11
180.9690854834
21
103.8876102759
31
0.0000000000
11
181.0940274982
21
103.8315732389
31
0.0000000000
0
SPLINE
5
5B5
100
AcDbEntity
8
0
100
AcDbSpline
62
7
6
CONTINUOUS
70
0
71
3
72
10
73
6
74
4
42
0.0000001000
43
0.0000001000
44
0.0000000001
12
0.0000000000
22
0.7323403464
32
0.0000000000
13
0.6550251189
23
0.3275125595
33
0.0000000000
40
0.0000000000
40
0.0000000000
40
0.0000000000
40
0.0000000000
40
0.3336135105
40
0.6846804276
40
1.0000000000
40
1.0000000000
40
1.0000000000
40
1.0000000000
10
168.6997370135
20
97.9817205708
30
0.0000000000
10
168.6997370135
20
98.0631601154
30
0.0000000000
10
168.7367939003
20
98.2306712436
30
0.0000000000
10
168.8590490935
20
98.4448011899
30
0.0000000000
10
168.9844429906
20
98.5570862612
30
0.0000000000
10
169.0532904041
20
98.5915099680
30
0.0000000000
11
168.6997370135
21
97.9817205708
31
0.0000000000
11
168.7469244920
21
98.2214390238
31
0.0000000000
11
168.8756103022
21
98.4440162301
31
0.0000000000
11
169.0532904041
21
98.5915099680
31
0.0000000000
0
SPLINE
5
5B6
100
AcDbEntity
8
0
100
AcDbSpline
62
7
6
CONTINUOUS
70
0
71
3
72
9
73
5
74
3
42
0.0000001000
43
0.0000001000
44
0.0000000001
12
0.2036315225
22
0.1018157613
32
0.0000000000
13
0.2056501249
23
-0.1082413731
33
0.0000000000
40
0.0000000000
40
0.0000000000
40
0.0000000000
40
0.0000000000
40
0.7865491733
40
1.0000000000
40
1.0000000000
40
1.0000000000
40
1.0000000000
10
-145.6092272240
20
-58.7397488461
30
0.0000000000
10
-145.5558384887
20
-58.7130544784
30
0.0000000000
10
-145.4737543582
20
-58.6912671941
30
0.0000000000
10
-145.4014495237
20
-58.7188252782
30
0.0000000000
10
-145.3868174607
20
-58.7265266817
30
0.0000000000
11
-145.6092272240
21
-58.7397488461
31
0.0000000000
11
-145.4327621341
21
-58.7093089235
31
0.0000000000
11
-145.3868174607
21
-58.7265266817
31
0.0000000000
0
SPLINE
5
5B7
100
AcDbEntity
8
0
100
AcDbSpline
62
7
6
CONTINUOUS
70
0
71
3
72
12
73
8
74
6
42
0.0000001000
43
0.0000001000
44
0.0000000001
12
0.0000000000
22
5.8795140731
32
0.0000000000
13
5.2587972568
23
2.6293986284
33
0.0000000000
40
0.0000000000
40
0.0000000000
40
0.0000000000
40
0.0000000000
40
0.1945871247
40
0.4051822316
40
0.6169086254
40
0.8198692699
40
1.0000000000
40
1.0000000000
40
1.0000000000
40
1.0000000000
10
-158.6907026759
20
-68.7445881872
30
0.0000000000
10
-158.6907026759
20
-68.3632289412
30
0.0000000000
10
-158.5853806222
20
-67.5678405457
30
0.0000000000
10
-158.1849923415
20
-66.4198091346
30
0.0000000000
10
-157.5685157280
20
-65.3517934563
30
0.0000000000
10
-156.7962733444
20
-64.4685851113
30
0.0000000000
10
-156.1780325477
20
-64.0241515079
30
0.0000000000
10
-155.8622755512
20
-63.8662730097
30
0.0000000000
11
-158.6907026759
21
-68.7445881872
31
0.0000000000
11
-158.5531817220
21
-67.6088057003
31
0.0000000000
11
-158.1503474990
21
-66.4379700416
31
0.0000000000
11
-157.5261063069
21
-65.3609508899
31
0.0000000000
11
-156.7327046202
21
-64.4696022277
31
0.0000000000
11
-155.8622755512
21
-63.8662730097
31
0.0000000000
0
SPLINE
5
5B8
100
AcDbEntity
8
0
100
AcDbSpline
62
7
6
CONTINUOUS
70
0
71
3
72
8
73
4
74
2
42
0.0000001000
43
0.0000001000
44
0.0000000001
12
-0.4170934544
22
0.2085467272
32
0.0000000000
13
-0.3703591280
23
0.2869498885
33
0.0000000000
40
0.0000000000
40
0.0000000000
40
0.0000000000
40
0.0000000000
40
1.0000000000
40
1.0000000000
40
1.0000000000
40
1.0000000000
10
-147.7305475675
20
-57.2103598270
30
0.0000000000
10
-147.8695787190
20
-57.1408442513
30
0.0000000000
10
-148.0041621941
20
-57.0608812626
30
0.0000000000
10
-148.1276152367
20
-56.9652312998
30
0.0000000000
11
-147.7305475675
21
-57.2103598270
31
0.0000000000
11
-148.1276152367
21
-56.9652312998
31
0.0000000000
0
SPLINE
5
5B9
100
AcDbEntity
8
0
100
AcDbSpline
62
7
6
CONTINUOUS
70
0
71
3
72
10
73
6
74
4
42
0.0000001000
43
0.0000001000
44
0.0000000001
12
-0.7706115264
22
0.5970607307
32
0.0000000000
13
-0.0001369029
23
0.9876573383
33
0.0000000000
40
0.0000000000
40
0.0000000000
40
0.0000000000
40
0.0000000000
40
0.2094058339
40
0.7583499729
40
1.0000000000
40
1.0000000000
40
1.0000000000
40
1.0000000000
10
-148.1276152367
20
-56.9652312998
30
0.0000000000
10
-148.1814054198
20
-56.9235552997
30
0.0000000000
10
-148.3685508034
20
-56.7618432443
30
0.0000000000
10
-148.5692274496
20
-56.4896027819
30
0.0000000000
10
-148.6064118264
20
-56.2293201137
30
0.0000000000
10
-148.6064228539
20
-56.1497643062
30
0.0000000000
11
-148.1276152367
21
-56.9652312998
31
0.0000000000
11
-148.2820937784
21
-56.8308355415
31
0.0000000000
11
-148.5723321862
21
-56.3842252310
31
0.0000000000
11
-148.6064228539
21
-56.1497643062
31
0.0000000000
0
SPLINE
5
5BA
100
AcDbEntity
8
0
100
AcDbSpline
62
7
6
CONTINUOUS
70
0
71
3
72
10
73
6
74
4
42
0.0000001000
43
0.0000001000
44
0.0000000001
12
-1.2849457610
22
-0.6424728805
32
0.0000000000
13
-0.0002026991
23
-1.4623295929
33
0.0000000000
40
0.0000000000
40
0.0000000000
40
0.0000000000
40
0.0000000000
40
0.4660327374
40
0.8367895830
40
1.0000000000
40
1.0000000000
40
1.0000000000
40
1.0000000000
10
-177.7825857679
20
-75.5700619384
30
0.0000000000
10
-177.9821946981
20
-75.6698664034
30
0.0000000000
10
-178.3241429669
20
-75.8877386143
30
0.0000000000
10
-178.6212656500
20
-76.2908189834
30
0.0000000000
10
-178.6584500268
20
-76.5511016517
30
0.0000000000
10
-178.6584610544
20
-76.6306574592
30
0.0000000000
11
-177.7825857679
21
-75.5700619384
31
0.0000000000
11
-178.3341319788
21
-75.9495862239
31
0.0000000000
11
-178.6243703866
21
-76.3961965343
31
0.0000000000
11
-178.6584610544
21
-76.6306574592
31
0.0000000000
0
SPLINE
5
5BB
100
AcDbEntity
8
0
100
AcDbSpline
62
7
6
CONTINUOUS
70
0
71
3
72
9
73
5
74
3
42
0.0000001000
43
0.0000001000
44
0.0000000001
12
0.9006357954
22
0.4503178977
32
0.0000000000
13
0.2991655343
23
0.9709495999
33
0.0000000000
40
0.0000000000
40
0.0000000000
40
0.0000000000
40
0.0000000000
40
0.6573540313
40
1.0000000000
40
1.0000000000
40
1.0000000000
40
1.0000000000
10
-169.6862131234
20
-71.5218756161
30
0.0000000000
10
-169.4888675997
20
-71.4232028543
30
0.0000000000
10
-169.1992561803
20
-71.2391665854
30
0.0000000000
10
-169.0162119818
20
-70.9321422318
30
0.0000000000
10
-168.9820426937
20
-70.8212449098
30
0.0000000000
11
-169.6862131234
21
-71.5218756161
31
0.0000000000
11
-169.1541623540
21
-71.1281039749
31
0.0000000000
11
-168.9820426937
21
-70.8212449098
31
0.0000000000
0
SPLINE
5
5BC
100
AcDbEntity
8
0
100
AcDbSpline
62
7
6
CONTINUOUS
70
0
71
3
72
9
73
5
74
3
42
0.0000001000
43
0.0000001000
44
0.0000000001
12
0.0551953964
22
0.1791381090
32
0.0000000000
13
-0.0017178933
23
0.1849294078
33
0.0000000000
40
0.0000000000
40
0.0000000000
40
0.0000000000
40
0.0000000000
40
0.8648331262
40
1.0000000000
40
1.0000000000
40
1.0000000000
40
1.0000000000
10
-168.9820426937
20
-70.8212449098
30
0.0000000000
10
-168.9661310913
20
-70.7696033862
30
0.0000000000
10
-168.9548912706
20
-70.7084623013
30
0.0000000000
10
-168.9540942994
20
-70.6468499781
30
0.0000000000
10
-168.9541717002
20
-70.6385178681
30
0.0000000000
11
-168.9820426937
21
-70.8212449098
31
0.0000000000
11
-168.9545005394
21
-70.6634972588
31
0.0000000000
11
-168.9541717002
21
-70.6385178681
31
0.0000000000
0
SPLINE
5
5BD
100
AcDbEntity
8
0
100
AcDbSpline
62
7
6
CONTINUOUS
70
0
71
3
72
9
73
5
74
3
42
0.0000001000
43
0.0000001000
44
0.0000000001
12
-0.5329632562
22
-0.2664816281
32
0.0000000000
13
-0.0193321981
23
-0.5978184869
33
0.0000000000
40
0.0000000000
40
0.0000000000
40
0.0000000000
40
0.0000000000
40
0.6242912347
40
1.0000000000
40
1.0000000000
40
1.0000000000
40
1.0000000000
10
-174.7729606107
20
-68.7619485009
30
0.0000000000
10
-174.8838687071
20
-68.8174025491
30
0.0000000000
10
-175.0610137181
20
-68.9275761825
30
0.0000000000
10
-175.1366663706
20
-69.1321247301
30
0.0000000000
10
-175.1390874627
20
-69.2069932786
30
0.0000000000
11
-174.7729606107
21
-68.7619485009
31
0.0000000000
11
-175.0654932767
21
-68.9917450525
31
0.0000000000
11
-175.1390874627
21
-69.2069932786
31
0.0000000000
0
SPLINE
5
5BE
100
AcDbEntity
8
0
100
AcDbSpline
62
7
6
CONTINUOUS
70
0
71
3
72
9
73
5
74
3
42
0.0000001000
43
0.0000001000
44
0.0000000001
12
-0.5329632562
22
-0.2664816281
32
0.0000000000
13
-0.0193321981
23
-0.5978184869
33
0.0000000000
40
0.0000000000
40
0.0000000000
40
0.0000000000
40
0.0000000000
40
0.6242912347
40
1.0000000000
40
1.0000000000
40
1.0000000000
40
1.0000000000
10
-156.0346309093
20
-59.3927836501
30
0.0000000000
10
-156.1455390057
20
-59.4482376983
30
0.0000000000
10
-156.3226840167
20
-59.5584113317
30
0.0000000000
10
-156.3983366692
20
-59.7629598794
30
0.0000000000
10
-156.4007577613
20
-59.8378284279
30
0.0000000000
11
-156.0346309093
21
-59.3927836501
31
0.0000000000
11
-156.3271635753
21
-59.6225802018
31
0.0000000000
11
-156.4007577613
21
-59.8378284279
31
0.0000000000
0
SPLINE
5
5BF
100
AcDbEntity
8
0
100
AcDbSpline
62
7
6
CONTINUOUS
70
0
71
3
72
10
73
6
74
4
42
0.0000001000
43
0.0000001000
44
0.0000000001
12
0.6550288565
22
0.3275144282
32
0.0000000000
13
0.0000000000
23
0.7323445251
33
0.0000000000
40
0.0000000000
40
0.0000000000
40
0.0000000000
40
0.0000000000
40
0.3127607671
40
0.6637380209
40
1.0000000000
40
1.0000000000
40
1.0000000000
40
1.0000000000
10
168.3461836229
20
96.5059057698
30
0.0000000000
10
168.4144727321
20
96.5400503244
30
0.0000000000
10
168.5395267099
20
96.6516046629
30
0.0000000000
10
168.6622689127
20
96.8654709348
30
0.0000000000
10
168.6997370135
20
97.0336086272
30
0.0000000000
10
168.6997370135
20
97.1156951670
30
0.0000000000
11
168.3461836229
21
96.5059057698
31
0.0000000000
11
168.5226487127
21
96.6519309370
31
0.0000000000
11
168.6518464786
21
96.8741371060
31
0.0000000000
11
168.6997370135
21
97.1156951670
31
0.0000000000
0
SPLINE
5
5C0
100
AcDbEntity
8
0
100
AcDbSpline
62
7
6
CONTINUOUS
70
0
71
3
72
11
73
7
74
5
42
0.0000001000
43
0.0000001000
44
0.0000000001
12
0.7993390750
22
0.3996695375
32
0.0000000000
13
-0.7224857502
23
0.5370019208
33
0.0000000000
40
0.0000000000
40
0.0000000000
40
0.0000000000
40
0.0000000000
40
0.2695279601
40
0.5457945190
40
0.8222161382
40
1.0000000000
40
1.0000000000
40
1.0000000000
40
1.0000000000
10
-144.1950134564
20
-59.7646929750
30
0.0000000000
10
-144.1231987130
20
-59.7287856033
30
0.0000000000
10
-143.9954906543
20
-59.6172187566
30
0.0000000000
10
-143.9062399627
20
-59.3716261608
30
0.0000000000
10
-143.9853090863
20
-59.1533302989
30
0.0000000000
10
-144.0819522248
20
-59.0532205196
30
0.0000000000
10
-144.1247676604
20
-59.0213970945
30
0.0000000000
11
-144.1950134564
21
-59.7646929750
31
0.0000000000
11
-144.0137630251
21
-59.6060469804
31
0.0000000000
11
-143.9361946953
21
-59.3716522763
31
0.0000000000
11
-144.0135706524
21
-59.1370480754
31
0.0000000000
11
-144.1247676604
21
-59.0213970945
31
0.0000000000
0
SPLINE
5
5C1
100
AcDbEntity
8
0
100
AcDbSpline
62
7
6
CONTINUOUS
70
0
71
3
72
8
73
4
74
2
42
0.0000001000
43
0.0000001000
44
0.0000000001
12
-0.0665472664
22
0.0494625809
32
0.0000000000
13
-0.0736261308
23
0.0368130654
33
0.0000000000
40
0.0000000000
40
0.0000000000
40
0.0000000000
40
0.0000000000
40
1.0000000000
40
1.0000000000
40
1.0000000000
40
1.0000000000
10
-144.1247676604
20
-59.0213970945
30
0.0000000000
10
-144.1469500826
20
-59.0049095675
30
0.0000000000
10
-144.1704712952
20
-58.9903979631
30
0.0000000000
10
-144.1950133388
20
-58.9781269413
30
0.0000000000
11
-144.1247676604
21
-59.0213970945
31
0.0000000000
11
-144.1950133388
21
-58.9781269413
31
0.0000000000
0
SPLINE
5
5C2
100
AcDbEntity
8
0
100
AcDbSpline
62
7
6
CONTINUOUS
70
0
71
3
72
8
73
4
74
2
42
0.0000001000
43
0.0000001000
44
0.0000000001
12
0.1162594289
22
-0.1466723924
32
0.0000000000
13
0.0988044731
23
-0.1579524321
33
0.0000000000
40
0.0000000000
40
0.0000000000
40
0.0000000000
40
0.0000000000
40
1.0000000000
40
1.0000000000
40
1.0000000000
40
1.0000000000
10
179.3974712857
20
72.6848726506
30
0.0000000000
10
179.4362244287
20
72.6359818531
30
0.0000000000
10
179.4721637836
20
72.5848971689
30
0.0000000000
10
179.5050986079
20
72.5322463582
30
0.0000000000
11
179.3974712857
21
72.6848726506
31
0.0000000000
11
179.5050986079
21
72.5322463582
31
0.0000000000
0
SPLINE
5
5C3
100
AcDbEntity
8
0
100
AcDbSpline
62
7
6
CONTINUOUS
70
0
71
3
72
8
73
4
74
2
42
0.0000001000
43
0.0000001000
44
0.0000000001
12
0.3105125147
22
-0.4963966244
32
0.0000000000
13
0.1545474498
23
-0.5625389216
33
0.0000000000
40
0.0000000000
40
0.0000000000
40
0.0000000000
40
0.0000000000
40
1.0000000000
40
1.0000000000
40
1.0000000000
40
1.0000000000
10
179.5050986079
20
72.5322463582
30
0.0000000000
10
179.6086027795
20
72.3667808167
30
0.0000000000
10
179.6824325726
20
72.1858473580
30
0.0000000000
10
179.7339483892
20
71.9983343842
30
0.0000000000
11
179.5050986079
21
72.5322463582
31
0.0000000000
11
179.7339483892
21
71.9983343842
31
0.0000000000
0
SPLINE
5
5C4
100
AcDbEntity
8
0
100
AcDbSpline
62
7
6
CONTINUOUS
70
0
71
3
72
8
73
4
74
2
42
0.0000001000
43
0.0000001000
44
0.0000000001
12
0.0835029957
22
-0.3039434504
32
0.0000000000
13
0.0479010474
23
-0.3112620782
33
0.0000000000
40
0.0000000000
40
0.0000000000
40
0.0000000000
40
0.0000000000
40
1.0000000000
40
1.0000000000
40
1.0000000000
40
1.0000000000
10
179.7339483892
20
71.9983343842
30
0.0000000000
10
179.7617827211
20
71.8970199007
30
0.0000000000
10
179.7831029083
20
71.7937846519
30
0.0000000000
10
179.7990699241
20
71.6900306258
30
0.0000000000
11
179.7339483892
21
71.9983343842
31
0.0000000000
11
179.7990699241
21
71.6900306258
31
0.0000000000
0
SPLINE
5
5C5
100
AcDbEntity
8
0
100
AcDbSpline
62
7
6
CONTINUOUS
70
0
71
3
72
11
73
7
74
5
42
0.0000001000
43
0.0000001000
44
0.0000000001
12
0.7054875763
22
-4.5842740651
32
0.0000000000
13
-3.3648576791
23
-3.1813636883
33
0.0000000000
40
0.0000000000
40
0.0000000000
40
0.0000000000
40
0.0000000000
40
0.2284199972
40
0.4830771170
40
0.7468189835
40
1.0000000000
40
1.0000000000
40
1.0000000000
40
1.0000000000
10
179.7990699241
20
71.6900306258
30
0.0000000000
10
179.8527857475
20
71.3409840028
30
0.0000000000
10
179.8382574891
20
70.5903809351
30
0.0000000000
10
179.5393771599
20
69.4728224530
30
0.0000000000
10
178.9967377747
20
68.4091271705
30
0.0000000000
10
178.4922244481
20
67.7884735532
30
0.0000000000
10
178.2082517523
20
67.5199865890
30
0.0000000000
11
179.7990699241
21
71.6900306258
31
0.0000000000
11
179.7990699241
21
70.6373444935
31
0.0000000000
11
179.5050986079
21
69.5011574449
31
0.0000000000
11
178.9526132549
21
68.4185104064
31
0.0000000000
11
178.2082517523
21
67.5199865890
31
0.0000000000
0
SPLINE
5
5C6
100
AcDbEntity
8
0
100
AcDbSpline
62
7
6
CONTINUOUS
70
0
71
3
72
8
73
4
74
2
42
0.0000001000
43
0.0000001000
44
0.0000000001
12
-0.5127011766
22
-0.4847423165
32
0.0000000000
13
-0.5912693738
23
-0.3819644219
33
0.0000000000
40
0.0000000000
40
0.0000000000
40
0.0000000000
40
0.0000000000
40
1.0000000000
40
1.0000000000
40
1.0000000000
40
1.0000000000
10
178.2082517523
20
67.5199865890
30
0.0000000000
10
178.0373513601
20
67.3584058168
30
0.0000000000
10
177.8530972417
20
67.2096826129
30
0.0000000000
10
177.6560074504
20
67.0823611389
30
0.0000000000
11
178.2082517523
21
67.5199865890
31
0.0000000000
11
177.6560074504
21
67.0823611389
31
0.0000000000
0
SPLINE
5
5C7
100
AcDbEntity
8
0
100
AcDbSpline
62
7
6
CONTINUOUS
70
0
71
3
72
8
73
4
74
2
42
0.0000001000
43
0.0000001000
44
0.0000000001
12
-0.2853048064
22
-0.1843090312
32
0.0000000000
13
-0.3030617254
23
-0.1515308627
33
0.0000000000
40
0.0000000000
40
0.0000000000
40
0.0000000000
40
0.0000000000
40
1.0000000000
40
1.0000000000
40
1.0000000000
40
1.0000000000
10
177.6560074504
20
67.0823611389
30
0.0000000000
10
177.5609058483
20
67.0209247952
30
0.0000000000
10
177.4628156581
20
66.9644715134
30
0.0000000000
10
177.3617950830
20
66.9139612258
30
0.0000000000
11
177.6560074504
21
67.0823611389
31
0.0000000000
11
177.3617950830
21
66.9139612258
31
0.0000000000
0
SPLINE
5
5C8
100
AcDbEntity
8
0
100
AcDbSpline
62
7
6
CONTINUOUS
70
0
71
3
72
8
73
4
74
2
42
0.0000001000
43
0.0000001000
44
0.0000000001
12
0.1162594289
22
-0.1466723924
32
0.0000000000
13
0.0988044731
23
-0.1579524321
33
0.0000000000
40
0.0000000000
40
0.0000000000
40
0.0000000000
40
0.0000000000
40
1.0000000000
40
1.0000000000
40
1.0000000000
40
1.0000000000
10
179.3974712857
20
100.1811792207
30
0.0000000000
10
179.4362244287
20
100.1322884233
30
0.0000000000
10
179.4721637836
20
100.0812037390
30
0.0000000000
10
179.5050986079
20
100.0285529283
30
0.0000000000
11
179.3974712857
21
100.1811792207
31
0.0000000000
11
179.5050986079
21
100.0285529283
31
0.0000000000
0
SPLINE
5
5C9
100
AcDbEntity
8
0
100
AcDbSpline
62
7
6
CONTINUOUS
70
0
71
3
72
8
73
4
74
2
42
0.0000001000
43
0.0000001000
44
0.0000000001
12
0.3105125147
22
-0.4963966244
32
0.0000000000
13
0.1545474498
23
-0.5625389216
33
0.0000000000
40
0.0000000000
40
0.0000000000
40
0.0000000000
40
0.0000000000
40
1.0000000000
40
1.0000000000
40
1.0000000000
40
1.0000000000
10
179.5050986079
20
100.0285529283
30
0.0000000000
10
179.6086027795
20
99.8630873869
30
0.0000000000
10
179.6824325726
20
99.6821539282
30
0.0000000000
10
179.7339483892
20
99.4946409543
30
0.0000000000
11
179.5050986079
21
100.0285529283
31
0.0000000000
11
179.7339483892
21
99.4946409543
31
0.0000000000
0
SPLINE
5
5CA
100
AcDbEntity
8
0
100
AcDbSpline
62
7
6
CONTINUOUS
70
0
71
3
72
8
73
4
74
2
42
0.0000001000
43
0.0000001000
44
0.0000000001
12
0.0835029957
22
-0.3039434504
32
0.0000000000
13
0.0479010474
23
-0.3112620782
33
0.0000000000
40
0.0000000000
40
0.0000000000
40
0.0000000000
40
0.0000000000
40
1.0000000000
40
1.0000000000
40
1.0000000000
40
1.0000000000
10
179.7339483892
20
99.4946409543
30
0.0000000000
10
179.7617827211
20
99.3933264708
30
0.0000000000
10
179.7831029083
20
99.2900912220
30
0.0000000000
10
179.7990699241
20
99.1863371959
30
0.0000000000
11
179.7339483892
21
99.4946409543
31
0.0000000000
11
179.7990699241
21
99.1863371959
31
0.0000000000
0
SPLINE
5
5CB
100
AcDbEntity
8
0
100
AcDbSpline
62
7
6
CONTINUOUS
70
0
71
3
72
11
73
7
74
5
42
0.0000001000
43
0.0000001000
44
0.0000000001
12
0.7054875763
22
-4.5842740651
32
0.0000000000
13
-3.3648576791
23
-3.1813636883
33
0.0000000000
40
0.0000000000
40
0.0000000000
40
0.0000000000
40
0.0000000000
40
0.2284199972
40
0.4830771170
40
0.7468189835
40
1.0000000000
40
1.0000000000
40
1.0000000000
40
1.0000000000
10
179.7990699241
20
99.1863371959
30
0.0000000000
10
179.8527857475
20
98.8372905730
30
0.0000000000
10
179.8382574891
20
98.0866875053
30
0.0000000000
10
179.5393771599
20
96.9691290232
30
0.0000000000
10
178.9967377747
20
95.9054337406
30
0.0000000000
10
178.4922244481
20
95.2847801233
30
0.0000000000
10
178.2082517523
20
95.0162931592
30
0.0000000000
11
179.7990699241
21
99.1863371959
31
0.0000000000
11
179.7990699241
21
98.1336510637
31
0.0000000000
11
179.5050986079
21
96.9974640151
31
0.0000000000
11
178.9526132549
21
95.9148169766
31
0.0000000000
11
178.2082517523
21
95.0162931592
31
0.0000000000
0
SPLINE
5
5CC
100
AcDbEntity
8
0
100
AcDbSpline
62
7
6
CONTINUOUS
70
0
71
3
72
8
73
4
74
2
42
0.0000001000
43
0.0000001000
44
0.0000000001
12
-0.5127011766
22
-0.4847423165
32
0.0000000000
13
-0.5912693738
23
-0.3819644219
33
0.0000000000
40
0.0000000000
40
0.0000000000
40
0.0000000000
40
0.0000000000
40
1.0000000000
40
1.0000000000
40
1.0000000000
40
1.0000000000
10
178.2082517523
20
95.0162931592
30
0.0000000000
10
178.0373513601
20
94.8547123870
30
0.0000000000
10
177.8530972417
20
94.7059891830
30
0.0000000000
10
177.6560074504
20
94.5786677091
30
0.0000000000
11
178.2082517523
21
95.0162931592
31
0.0000000000
11
177.6560074504
21
94.5786677091
31
0.0000000000
0
SPLINE
5
5CD
100
AcDbEntity
8
0
100
AcDbSpline
62
7
6
CONTINUOUS
70
0
71
3
72
8
73
4
74
2
42
0.0000001000
43
0.0000001000
44
0.0000000001
12
-0.2853048064
22
-0.1843090312
32
0.0000000000
13
-0.3030617254
23
-0.1515308627
33
0.0000000000
40
0.0000000000
40
0.0000000000
40
0.0000000000
40
0.0000000000
40
1.0000000000
40
1.0000000000
40
1.0000000000
40
1.0000000000
10
177.6560074504
20
94.5786677091
30
0.0000000000
10
177.5609058483
20
94.5172313653
30
0.0000000000
10
177.4628156581
20
94.4607780836
30
0.0000000000
10
177.3617950830
20
94.4102677960
30
0.0000000000
11
177.6560074504
21
94.5786677091
31
0.0000000000
11
177.3617950830
21
94.4102677960
31
0.0000000000
0
SPLINE
5
5CE
100
AcDbEntity
8
0
100
AcDbSpline
62
7
6
CONTINUOUS
70
0
71
3
72
8
73
4
74
2
42
0.0000001000
43
0.0000001000
44
0.0000000001
12
0.1162594289
22
-0.1466723924
32
0.0000000000
13
0.0988044731
23
-0.1579524321
33
0.0000000000
40
0.0000000000
40
0.0000000000
40
0.0000000000
40
0.0000000000
40
1.0000000000
40
1.0000000000
40
1.0000000000
40
1.0000000000
10
-149.4071819661
20
-91.7174539753
30
0.0000000000
10
-149.3684288231
20
-91.7663447728
30
0.0000000000
10
-149.3324894682
20
-91.8174294570
30
0.0000000000
10
-149.2995546438
20
-91.8700802677
30
0.0000000000
11
-149.4071819661
21
-91.7174539753
31
0.0000000000
11
-149.2995546438
21
-91.8700802677
31
0.0000000000
0
SPLINE
5
5CF
100
AcDbEntity
8
0
100
AcDbSpline
62
7
6
CONTINUOUS
70
0
71
3
72
8
73
4
74
2
42
0.0000001000
43
0.0000001000
44
0.0000000001
12
0.3105125147
22
-0.4963966244
32
0.0000000000
13
0.1545474498
23
-0.5625389216
33
0.0000000000
40
0.0000000000
40
0.0000000000
40
0.0000000000
40
0.0000000000
40
1.0000000000
40
1.0000000000
40
1.0000000000
40
1.0000000000
10
-149.2995546438
20
-91.8700802677
30
0.0000000000
10
-149.1960504723
20
-92.0355458091
30
0.0000000000
10
-149.1222206792
20
-92.2164792679
30
0.0000000000
10
-149.0707048626
20
-92.4039922417
30
0.0000000000
11
-149.2995546438
21
-91.8700802677
31
0.0000000000
11
-149.0707048626
21
-92.4039922417
31
0.0000000000
0
SPLINE
5
5D0
100
AcDbEntity
8
0
100
AcDbSpline
62
7
6
CONTINUOUS
70
0
71
3
72
8
73
4
74
2
42
0.0000001000
43
0.0000001000
44
0.0000000001
12
0.0835029957
22
-0.3039434504
32
0.0000000000
13
0.0479010474
23
-0.3112620782
33
0.0000000000
40
0.0000000000
40
0.0000000000
40
0.0000000000
40
0.0000000000
40
1.0000000000
40
1.0000000000
40
1.0000000000
40
1.0000000000
10
-149.0707048626
20
-92.4039922417
30
0.0000000000
10
-149.0428705307
20
-92.5053067252
30
0.0000000000
10
-149.0215503434
20
-92.6085419740
30
0.0000000000
10
-149.0055833276
20
-92.7122960001
30
0.0000000000
11
-149.0707048626
21
-92.4039922417
31
0.0000000000
11
-149.0055833276
21
-92.7122960001
31
0.0000000000
0
SPLINE
5
5D1
100
AcDbEntity
8
0
100
AcDbSpline
62
7
6
CONTINUOUS
70
0
71
3
72
11
73
7
74
5
42
0.0000001000
43
0.0000001000
44
0.0000000001
12
0.7054875763
22
-4.5842740651
32
0.0000000000
13
-3.3648576791
23
-3.1813636883
33
0.0000000000
40
0.0000000000
40
0.0000000000
40
0.0000000000
40
0.0000000000
40
0.2284199972
40
0.4830771170
40
0.7468189835
40
1.0000000000
40
1.0000000000
40
1.0000000000
40
1.0000000000
10
-149.0055833276
20
-92.7122960001
30
0.0000000000
10
-148.9518675042
20
-93.0613426231
30
0.0000000000
10
-148.9663957627
20
-93.8119456907
30
0.0000000000
10
-149.2652760918
20
-94.9295041729
30
0.0000000000
10
-149.8079154771
20
-95.9931994554
30
0.0000000000
10
-150.3124288036
20
-96.6138530727
30
0.0000000000
10
-150.5964014995
20
-96.8823400369
30
0.0000000000
11
-149.0055833276
21
-92.7122960001
31
0.0000000000
11
-149.0055833276
21
-93.7649821324
31
0.0000000000
11
-149.2995546438
21
-94.9011691809
31
0.0000000000
11
-149.8520399969
21
-95.9838162195
31
0.0000000000
11
-150.5964014995
21
-96.8823400369
31
0.0000000000
0
SPLINE
5
5D2
100
AcDbEntity
8
0
100
AcDbSpline
62
7
6
CONTINUOUS
70
0
71
3
72
8
73
4
74
2
42
0.0000001000
43
0.0000001000
44
0.0000000001
12
-0.5127011766
22
-0.4847423165
32
0.0000000000
13
-0.5912693738
23
-0.3819644219
33
0.0000000000
40
0.0000000000
40
0.0000000000
40
0.0000000000
40
0.0000000000
40
1.0000000000
40
1.0000000000
40
1.0000000000
40
1.0000000000
10
-150.5964014995
20
-96.8823400369
30
0.0000000000
10
-150.7673018917
20
-97.0439208090
30
0.0000000000
10
-150.9515560101
20
-97.1926440130
30
0.0000000000
10
-151.1486458013
20
-97.3199654870
30
0.0000000000
11
-150.5964014995
21
-96.8823400369
31
0.0000000000
11
-151.1486458013
21
-97.3199654870
31
0.0000000000
0
SPLINE
5
5D3
100
AcDbEntity
8
0
100
AcDbSpline
62
7
6
CONTINUOUS
70
0
71
3
72
8
73
4
74
2
42
0.0000001000
43
0.0000001000
44
0.0000000001
12
-0.2853048064
22
-0.1843090312
32
0.0000000000
13
-0.3030617254
23
-0.1515308627
33
0.0000000000
40
0.0000000000
40
0.0000000000
40
0.0000000000
40
0.0000000000
40
1.0000000000
40
1.0000000000
40
1.0000000000
40
1.0000000000
10
-151.1486458013
20
-97.3199654870
30
0.0000000000
10
-151.2437474035
20
-97.3814018307
30
0.0000000000
10
-151.3418375936
20
-97.4378551125
30
0.0000000000
10
-151.4428581687
20
-97.4883654000
30
0.0000000000
11
-151.1486458013
21
-97.3199654870
31
0.0000000000
11
-151.4428581687
21
-97.4883654000
31
0.0000000000
0
SPLINE
5
5D4
100
AcDbEntity
8
0
100
AcDbSpline
62
7
6
CONTINUOUS
70
0
71
3
72
8
73
4
74
2
42
0.0000001000
43
0.0000001000
44
0.0000000001
12
0.1162594289
22
-0.1466723924
32
0.0000000000
13
0.0988044731
23
-0.1579524321
33
0.0000000000
40
0.0000000000
40
0.0000000000
40
0.0000000000
40
0.0000000000
40
1.0000000000
40
1.0000000000
40
1.0000000000
40
1.0000000000
10
-149.4071819661
20
-64.2211474051
30
0.0000000000
10
-149.3684288231
20
-64.2700382026
30
0.0000000000
10
-149.3324894682
20
-64.3211228868
30
0.0000000000
10
-149.2995546438
20
-64.3737736975
30
0.0000000000
11
-149.4071819661
21
-64.2211474051
31
0.0000000000
11
-149.2995546438
21
-64.3737736975
31
0.0000000000
0
SPLINE
5
5D5
100
AcDbEntity
8
0
100
AcDbSpline
62
7
6
CONTINUOUS
70
0
71
3
72
8
73
4
74
2
42
0.0000001000
43
0.0000001000
44
0.0000000001
12
0.3105125147
22
-0.4963966244
32
0.0000000000
13
0.1545474498
23
-0.5625389216
33
0.0000000000
40
0.0000000000
40
0.0000000000
40
0.0000000000
40
0.0000000000
40
1.0000000000
40
1.0000000000
40
1.0000000000
40
1.0000000000
10
-149.2995546438
20
-64.3737736975
30
0.0000000000
10
-149.1960504723
20
-64.5392392390
30
0.0000000000
10
-149.1222206792
20
-64.7201726977
30
0.0000000000
10
-149.0707048626
20
-64.9076856716
30
0.0000000000
11
-149.2995546438
21
-64.3737736975
31
0.0000000000
11
-149.0707048626
21
-64.9076856716
31
0.0000000000
0
SPLINE
5
5D6
100
AcDbEntity
8
0
100
AcDbSpline
62
7
6
CONTINUOUS
70
0
71
3
72
8
73
4
74
2
42
0.0000001000
43
0.0000001000
44
0.0000000001
12
0.0835029957
22
-0.3039434504
32
0.0000000000
13
0.0479010474
23
-0.3112620782
33
0.0000000000
40
0.0000000000
40
0.0000000000
40
0.0000000000
40
0.0000000000
40
1.0000000000
40
1.0000000000
40
1.0000000000
40
1.0000000000
10
-149.0707048626
20
-64.9076856716
30
0.0000000000
10
-149.0428705307
20
-65.0090001550
30
0.0000000000
10
-149.0215503434
20
-65.1122354039
30
0.0000000000
10
-149.0055833276
20
-65.2159894299
30
0.0000000000
11
-149.0707048626
21
-64.9076856716
31
0.0000000000
11
-149.0055833276
21
-65.2159894299
31
0.0000000000
0
SPLINE
5
5D7
100
AcDbEntity
8
0
100
AcDbSpline
62
7
6
CONTINUOUS
70
0
71
3
72
11
73
7
74
5
42
0.0000001000
43
0.0000001000
44
0.0000000001
12
0.7054875763
22
-4.5842740651
32
0.0000000000
13
-3.3648576791
23
-3.1813636883
33
0.0000000000
40
0.0000000000
40
0.0000000000
40
0.0000000000
40
0.0000000000
40
0.2284199972
40
0.4830771170
40
0.7468189835
40
1.0000000000
40
1.0000000000
40
1.0000000000
40
1.0000000000
10
-149.0055833276
20
-65.2159894299
30
0.0000000000
10
-148.9518675042
20
-65.5650360529
30
0.0000000000
10
-148.9663957627
20
-66.3156391206
30
0.0000000000
10
-149.2652760918
20
-67.4331976027
30
0.0000000000
10
-149.8079154771
20
-68.4968928853
30
0.0000000000
10
-150.3124288036
20
-69.1175465026
30
0.0000000000
10
-150.5964014995
20
-69.3860334667
30
0.0000000000
11
-149.0055833276
21
-65.2159894299
31
0.0000000000
11
-149.0055833276
21
-66.2686755622
31
0.0000000000
11
-149.2995546438
21
-67.4048626108
31
0.0000000000
11
-149.8520399969
21
-68.4875096493
31
0.0000000000
11
-150.5964014995
21
-69.3860334667
31
0.0000000000
0
SPLINE
5
5D8
100
AcDbEntity
8
0
100
AcDbSpline
62
7
6
CONTINUOUS
70
0
71
3
72
8
73
4
74
2
42
0.0000001000
43
0.0000001000
44
0.0000000001
12
-0.5127011766
22
-0.4847423165
32
0.0000000000
13
-0.5912693738
23
-0.3819644219
33
0.0000000000
40
0.0000000000
40
0.0000000000
40
0.0000000000
40
0.0000000000
40
1.0000000000
40
1.0000000000
40
1.0000000000
40
1.0000000000
10
-150.5964014995
20
-69.3860334667
30
0.0000000000
10
-150.7673018917
20
-69.5476142389
30
0.0000000000
10
-150.9515560101
20
-69.6963374428
30
0.0000000000
10
-151.1486458013
20
-69.8236589168
30
0.0000000000
11
-150.5964014995
21
-69.3860334667
31
0.0000000000
11
-151.1486458013
21
-69.8236589168
31
0.0000000000
0
SPLINE
5
5D9
100
AcDbEntity
8
0
100
AcDbSpline
62
7
6
CONTINUOUS
70
0
71
3
72
8
73
4
74
2
42
0.0000001000
43
0.0000001000
44
0.0000000001
12
-0.2853048064
22
-0.1843090312
32
0.0000000000
13
-0.3030617254
23
-0.1515308627
33
0.0000000000
40
0.0000000000
40
0.0000000000
40
0.0000000000
40
0.0000000000
40
1.0000000000
40
1.0000000000
40
1.0000000000
40
1.0000000000
10
-151.1486458013
20
-69.8236589168
30
0.0000000000
10
-151.2437474035
20
-69.8850952606
30
0.0000000000
10
-151.3418375936
20
-69.9415485423
30
0.0000000000
10
-151.4428581687
20
-69.9920588299
30
0.0000000000
11
-151.1486458013
21
-69.8236589168
31
0.0000000000
11
-151.4428581687
21
-69.9920588299
31
0.0000000000
0
SPLINE
5
5DA
100
AcDbEntity
8
0
100
AcDbSpline
62
7
6
CONTINUOUS
70
0
71
3
72
8
73
4
74
2
42
0.0000001000
43
0.0000001000
44
0.0000000001
12
0.0020326733
22
0.1087882443
32
0.0000000000
13
-0.0303509310
23
0.1013512443
33
0.0000000000
40
0.0000000000
40
0.0000000000
40
0.0000000000
40
0.0000000000
40
1.0000000000
40
1.0000000000
40
1.0000000000
40
1.0000000000
10
-163.4491417774
20
-64.6138005759
30
0.0000000000
10
-163.4484642196
20
-64.5775378278
30
0.0000000000
10
-163.4529564779
20
-64.5415337580
30
0.0000000000
10
-163.4630734548
20
-64.5077500099
30
0.0000000000
11
-163.4491417774
21
-64.6138005759
31
0.0000000000
11
-163.4630734548
21
-64.5077500099
31
0.0000000000
0
SPLINE
5
5DB
100
AcDbEntity
8
0
100
AcDbSpline
62
7
6
CONTINUOUS
70
0
71
3
72
12
73
8
74
6
42
0.0000001000
43
0.0000001000
44
0.0000000001
12
-0.6634715649
22
2.2155389162
32
0.0000000000
13
-2.0719063866
23
-1.0359531933
33
0.0000000000
40
0.0000000000
40
0.0000000000
40
0.0000000000
40
0.0000000000
40
0.1407016594
40
0.3311243224
40
0.5580874744
40
0.7917916831
40
1.0000000000
40
1.0000000000
40
1.0000000000
40
1.0000000000
10
-163.4630734548
20
-64.5077500099
30
0.0000000000
10
-163.4941906382
20
-64.4038400092
30
0.0000000000
10
-163.6926463550
20
-64.2087322448
30
0.0000000000
10
-164.0913799029
20
-64.0449442012
30
0.0000000000
10
-164.5946397965
20
-63.9696361479
30
0.0000000000
10
-165.1126836407
20
-64.0015276685
30
0.0000000000
10
-165.4456190825
20
-64.0982777368
30
0.0000000000
10
-165.5894151297
20
-64.1701757603
30
0.0000000000
11
-163.4630734548
21
-64.5077500099
31
0.0000000000
11
-163.6697296222
21
-64.2557111192
31
0.0000000000
11
-164.0703540166
21
-64.0711161057
31
0.0000000000
11
-164.5896025832
21
-63.9886811202
31
0.0000000000
11
-165.1298220264
21
-64.0239094273
31
0.0000000000
11
-165.5894151297
21
-64.1701757603
31
0.0000000000
0
SPLINE
5
5DC
100
AcDbEntity
8
0
100
AcDbSpline
62
7
6
CONTINUOUS
70
0
71
3
72
9
73
5
74
3
42
0.0000001000
43
0.0000001000
44
0.0000000001
12
-0.0046560307
22
-0.2391190084
32
0.0000000000
13
0.0871528781
23
-0.2238477976
33
0.0000000000
40
0.0000000000
40
0.0000000000
40
0.0000000000
40
0.0000000000
40
0.3169517017
40
1.0000000000
40
1.0000000000
40
1.0000000000
40
1.0000000000
10
-164.3359785197
20
-65.8307555480
30
0.0000000000
10
-164.3364704319
20
-65.8560186069
30
0.0000000000
10
-164.3330964251
20
-65.9354562848
30
0.0000000000
10
-164.3129328513
20
-66.0125496071
30
0.0000000000
10
-164.2930896429
20
-66.0635158928
30
0.0000000000
11
-164.3359785197
21
-65.8307555480
31
0.0000000000
11
-164.3326449848
21
-65.9061389111
31
0.0000000000
11
-164.2930896429
21
-66.0635158928
31
0.0000000000
0
SPLINE
5
5DD
100
AcDbEntity
8
0
100
AcDbSpline
62
7
6
CONTINUOUS
70
0
71
3
72
10
73
6
74
4
42
0.0000001000
43
0.0000001000
44
0.0000000001
12
0.4755640314
22
-1.2214623706
32
0.0000000000
13
1.2287447780
23
-0.4369351739
33
0.0000000000
40
0.0000000000
40
0.0000000000
40
0.0000000000
40
0.0000000000
40
0.2726558716
40
0.7961312038
40
1.0000000000
40
1.0000000000
40
1.0000000000
40
1.0000000000
10
-164.2930896429
20
-66.0635158928
30
0.0000000000
10
-164.2498678678
20
-66.1745288553
30
0.0000000000
10
-164.0395678275
20
-66.4752348332
30
0.0000000000
10
-163.6620630931
20
-66.7007417641
30
0.0000000000
10
-163.3683521234
20
-66.8185457443
30
0.0000000000
10
-163.2848512171
20
-66.8482382270
30
0.0000000000
11
-164.2930896429
21
-66.0635158928
31
0.0000000000
11
-164.0952377948
21
-66.3662856999
31
0.0000000000
11
-163.5314985141
21
-66.7488757110
31
0.0000000000
11
-163.2848512171
21
-66.8482382270
31
0.0000000000
0
SPLINE
5
5DE
100
AcDbEntity
8
0
100
AcDbSpline
62
7
6
CONTINUOUS
70
0
71
3
72
11
73
7
74
5
42
0.0000001000
43
0.0000001000
44
0.0000000001
12
3.1030844032
22
-1.1034404766
32
0.0000000000
13
2.9398321018
23
1.4699160509
33
0.0000000000
40
0.0000000000
40
0.0000000000
40
0.0000000000
40
0.0000000000
40
0.1767498069
40
0.4627589452
40
0.7470937391
40
1.0000000000
40
1.0000000000
40
1.0000000000
40
1.0000000000
10
-163.2848512171
20
-66.8482382270
30
0.0000000000
10
-163.1020280275
20
-66.9132491907
30
0.0000000000
10
-162.6086074969
20
-67.0417007185
30
0.0000000000
10
-161.7876365571
20
-67.1078797668
30
0.0000000000
10
-160.8859686977
20
-67.0165141265
30
0.0000000000
10
-160.3173948807
20
-66.8374664948
30
0.0000000000
10
-160.0695608992
20
-66.7135495040
30
0.0000000000
11
-163.2848512171
21
-66.8482382270
31
0.0000000000
11
-162.7229034738
21
-66.9986138256
31
0.0000000000
11
-161.7863176139
21
-67.0794057960
31
0.0000000000
11
-160.8571041817
21
-66.9795748887
31
0.0000000000
11
-160.0695608992
21
-66.7135495040
31
0.0000000000
0
SPLINE
5
5DF
100
AcDbEntity
8
0
100
AcDbSpline
62
7
6
CONTINUOUS
70
0
71
3
72
9
73
5
74
3
42
0.0000001000
43
0.0000001000
44
0.0000000001
12
-0.2121941054
22
0.1116857155
32
0.0000000000
13
-0.0360260216
23
0.2368256159
33
0.0000000000
40
0.0000000000
40
0.0000000000
40
0.0000000000
40
0.0000000000
40
0.4708068918
40
1.0000000000
40
1.0000000000
40
1.0000000000
40
1.0000000000
10
168.8308806408
20
60.4731700371
30
0.0000000000
10
168.7975798250
20
60.4906975053
30
0.0000000000
10
168.7356658381
20
60.5479391703
30
0.0000000000
10
168.7114078087
20
60.6248670800
30
0.0000000000
10
168.7050529013
20
60.6666425746
30
0.0000000000
11
168.8308806408
21
60.4731700371
31
0.0000000000
11
168.7476275483
21
60.5489606819
31
0.0000000000
11
168.7050529013
21
60.6666425746
31
0.0000000000
0
SPLINE
5
5E0
100
AcDbEntity
8
0
100
AcDbSpline
62
7
6
CONTINUOUS
70
0
71
3
72
8
73
4
74
2
42
0.0000001000
43
0.0000001000
44
0.0000000001
12
-0.0115307272
22
0.0757999757
32
0.0000000000
13
0.0000000000
23
0.0751873440
33
0.0000000000
40
0.0000000000
40
0.0000000000
40
0.0000000000
40
0.0000000000
40
1.0000000000
40
1.0000000000
40
1.0000000000
40
1.0000000000
10
168.7050529013
20
60.6666425746
30
0.0000000000
10
168.7012093256
20
60.6919092332
30
0.0000000000
10
168.6997370135
20
60.7175657600
30
0.0000000000
10
168.6997370135
20
60.7426282080
30
0.0000000000
11
168.7050529013
21
60.6666425746
31
0.0000000000
11
168.6997370135
21
60.7426282080
31
0.0000000000
0
SPLINE
5
5E1
100
AcDbEntity
8
0
100
AcDbSpline
62
7
6
CONTINUOUS
70
0
71
3
72
9
73
5
74
3
42
0.0000001000
43
0.0000001000
44
0.0000000001
12
-0.8183698533
22
0.4139981848
32
0.0000000000
13
-0.4807048090
23
0.7784507735
33
0.0000000000
40
0.0000000000
40
0.0000000000
40
0.0000000000
40
0.0000000000
40
0.6977256978
40
1.0000000000
40
1.0000000000
40
1.0000000000
40
1.0000000000
10
-157.6499643181
20
-102.0849298835
30
0.0000000000
10
-157.8402968771
20
-101.9886441594
30
0.0000000000
10
-158.0849943268
20
-101.7913440518
30
0.0000000000
10
-158.2635465071
20
-101.5434664391
30
0.0000000000
10
-158.3119814107
20
-101.4650312177
30
0.0000000000
11
-157.6499643181
21
-102.0849298835
31
0.0000000000
11
-158.1495593587
21
-101.6886992497
31
0.0000000000
11
-158.3119814107
21
-101.4650312177
31
0.0000000000
0
SPLINE
5
5E2
100
AcDbEntity
8
0
100
AcDbSpline
62
7
6
CONTINUOUS
70
0
71
3
72
9
73
5
74
3
42
0.0000001000
43
0.0000001000
44
0.0000000001
12
-0.8456174499
22
1.3693883350
32
0.0000000000
13
0.0000000000
23
1.6010100337
33
0.0000000000
40
0.0000000000
40
0.0000000000
40
0.0000000000
40
0.0000000000
40
0.3711332907
40
1.0000000000
40
1.0000000000
40
1.0000000000
40
1.0000000000
10
-158.3119814107
20
-101.4650312177
30
0.0000000000
10
-158.4165936730
20
-101.2956226846
30
0.0000000000
10
-158.6288708815
20
-100.7950636840
30
0.0000000000
10
-158.6907026759
20
-100.2571100272
30
0.0000000000
10
-158.6907026759
20
-99.9215027234
30
0.0000000000
11
-158.3119814107
21
-101.4650312177
31
0.0000000000
11
-158.5534376116
21
-100.9189237295
31
0.0000000000
11
-158.6907026759
21
-99.9215027234
31
0.0000000000
0
SPLINE
5
5E3
100
AcDbEntity
8
0
100
AcDbSpline
62
7
6
CONTINUOUS
70
0
71
3
72
13
73
9
74
7
42
0.0000001000
43
0.0000001000
44
0.0000000001
12
-0.0431012172
22
4.6398006897
32
0.0000000000
13
-4.2907126184
23
-1.8209013984
33
0.0000000000
40
0.0000000000
40
0.0000000000
40
0.0000000000
40
0.0000000000
40
0.1008935186
40
0.2387575376
40
0.4137043178
40
0.6127810446
40
0.8153962953
40
1.0000000000
40
1.0000000000
40
1.0000000000
40
1.0000000000
10
-168.9541717002
20
-70.6385178681
30
0.0000000000
10
-168.9556212447
20
-70.4824759290
30
0.0000000000
10
-169.1127010259
20
-70.1097567201
30
0.0000000000
10
-169.6537246733
20
-69.7330416272
30
0.0000000000
10
-170.4101849381
20
-69.4699401305
30
0.0000000000
10
-171.3061272577
20
-69.3616690065
30
0.0000000000
10
-172.2194803889
20
-69.4179755311
30
0.0000000000
10
-172.8077059820
20
-69.5729386355
30
0.0000000000
10
-173.0717331304
20
-69.6849870169
30
0.0000000000
11
-168.9541717002
21
-70.6385178681
31
0.0000000000
11
-169.1160844802
21
-70.1952043288
31
0.0000000000
11
-169.6155607095
21
-69.7909068087
31
0.0000000000
11
-170.3807407316
21
-69.5090371683
31
0.0000000000
11
-171.3010343092
21
-69.3903335733
31
0.0000000000
11
-172.2434328924
21
-69.4519520632
31
0.0000000000
11
-173.0717331304
21
-69.6849870169
31
0.0000000000
0
SPLINE
5
5E4
100
AcDbEntity
8
0
100
AcDbSpline
62
7
6
CONTINUOUS
70
0
71
3
72
13
73
9
74
7
42
0.0000001000
43
0.0000001000
44
0.0000000001
12
-0.0759217348
22
-2.3477628612
32
0.0000000000
13
2.1541588981
23
0.9141863599
33
0.0000000000
40
0.0000000000
40
0.0000000000
40
0.0000000000
40
0.0000000000
40
0.0236200607
40
0.1550451491
40
0.3345368784
40
0.5544231571
40
0.7870283025
40
1.0000000000
40
1.0000000000
40
1.0000000000
40
1.0000000000
10
-175.1390874627
20
-69.2069932786
30
0.0000000000
10
-175.1396852214
20
-69.2254780457
30
0.0000000000
10
-175.1332045731
20
-69.3460213393
30
0.0000000000
10
-174.9555240252
20
-69.5734679881
30
0.0000000000
10
-174.5783075830
20
-69.7498583937
30
0.0000000000
10
-174.0890429676
20
-69.8451486249
30
0.0000000000
10
-173.5671487542
20
-69.8326910180
30
0.0000000000
10
-173.2246580895
20
-69.7498856238
30
0.0000000000
10
-173.0717331304
20
-69.6849870169
30
0.0000000000
11
-175.1390874627
21
-69.2069932786
31
0.0000000000
11
-175.1359498910
21
-69.2618547741
31
0.0000000000
11
-174.9710799199
21
-69.5214790574
31
0.0000000000
11
-174.6018898931
21
-69.7217912546
31
0.0000000000
11
-174.0978121116
21
-69.8251193383
31
0.0000000000
11
-173.5536467537
21
-69.8120307504
31
0.0000000000
11
-173.0717331304
21
-69.6849870169
31
0.0000000000
0
SPLINE
5
5E5
100
AcDbEntity
8
0
100
AcDbSpline
62
7
6
CONTINUOUS
70
0
71
3
72
13
73
9
74
7
42
0.0000001000
43
0.0000001000
44
0.0000000001
12
-1.4760920243
22
4.3028695279
32
0.0000000000
13
-4.0975425560
23
-1.7389234922
33
0.0000000000
40
0.0000000000
40
0.0000000000
40
0.0000000000
40
0.0000000000
40
0.0585070265
40
0.2028703559
40
0.3860646357
40
0.5945264179
40
0.8066935402
40
1.0000000000
40
1.0000000000
40
1.0000000000
40
1.0000000000
10
-150.2532593901
20
-61.0621881208
30
0.0000000000
10
-150.2820466419
20
-60.9782720869
30
0.0000000000
10
-150.4332470926
20
-60.6995966364
30
0.0000000000
10
-150.9153949718
20
-60.3638767765
30
0.0000000000
10
-151.6718552366
20
-60.1007752798
30
0.0000000000
10
-152.5677975562
20
-59.9925041558
30
0.0000000000
10
-153.4811506875
20
-60.0488106804
30
0.0000000000
10
-154.0693762805
20
-60.2037737848
30
0.0000000000
10
-154.3334034290
20
-60.3158221661
30
0.0000000000
11
-150.2532593901
21
-61.0621881208
31
0.0000000000
11
-150.3777547787
21
-60.8260394781
31
0.0000000000
11
-150.8772310080
21
-60.4217419579
31
0.0000000000
11
-151.6424110301
21
-60.1398723176
31
0.0000000000
11
-152.5627046077
21
-60.0211687226
31
0.0000000000
11
-153.5051031909
21
-60.0827872125
31
0.0000000000
11
-154.3334034290
21
-60.3158221661
31
0.0000000000
0
SPLINE
5
5E6
100
AcDbEntity
8
0
100
AcDbSpline
62
7
6
CONTINUOUS
70
0
71
3
72
13
73
9
74
7
42
0.0000001000
43
0.0000001000
44
0.0000000001
12
-0.0759217348
22
-2.3477628612
32
0.0000000000
13
2.1541588981
23
0.9141863599
33
0.0000000000
40
0.0000000000
40
0.0000000000
40
0.0000000000
40
0.0000000000
40
0.0236200607
40
0.1550451491
40
0.3345368784
40
0.5544231571
40
0.7870283025
40
1.0000000000
40
1.0000000000
40
1.0000000000
40
1.0000000000
10
-156.4007577613
20
-59.8378284279
30
0.0000000000
10
-156.4013555199
20
-59.8563131950
30
0.0000000000
10
-156.3948748716
20
-59.9768564886
30
0.0000000000
10
-156.2171943238
20
-60.2043031374
30
0.0000000000
10
-155.8399778815
20
-60.3806935430
30
0.0000000000
10
-155.3507132662
20
-60.4759837742
30
0.0000000000
10
-154.8288190528
20
-60.4635261673
30
0.0000000000
10
-154.4863283880
20
-60.3807207731
30
0.0000000000
10
-154.3334034290
20
-60.3158221661
30
0.0000000000
11
-156.4007577613
21
-59.8378284279
31
0.0000000000
11
-156.3976201895
21
-59.8926899234
31
0.0000000000
11
-156.2327502185
21
-60.1523142067
31
0.0000000000
11
-155.8635601916
21
-60.3526264039
31
0.0000000000
11
-155.3594824102
21
-60.4559544875
31
0.0000000000
11
-154.8153170523
21
-60.4428658997
31
0.0000000000
11
-154.3334034290
21
-60.3158221661
31
0.0000000000
0
SPLINE
5
5E7
100
AcDbEntity
8
0
100
AcDbSpline
62
7
6
CONTINUOUS
70
0
71
3
72
9
73
5
74
3
42
0.0000001000
43
0.0000001000
44
0.0000000001
12
0.4459212614
22
0.2626885762
32
0.0000000000
13
0.0099274893
23
0.5313171254
33
0.0000000000
40
0.0000000000
40
0.0000000000
40
0.0000000000
40
0.0000000000
40
0.6766048092
40
1.0000000000
40
1.0000000000
40
1.0000000000
40
1.0000000000
10
-163.7433380977
20
-65.0207895005
30
0.0000000000
10
-163.6427672744
20
-64.9615440492
30
0.0000000000
10
-163.4934008497
20
-64.8501768521
30
0.0000000000
10
-163.4502119448
20
-64.6710757103
30
0.0000000000
10
-163.4491417774
20
-64.6138005759
30
0.0000000000
11
-163.7433380977
21
-65.0207895005
31
0.0000000000
11
-163.4892506305
21
-64.7798326888
31
0.0000000000
11
-163.4491417774
21
-64.6138005759
31
0.0000000000
0
SPLINE
5
5E8
100
AcDbEntity
8
0
100
AcDbSpline
62
7
6
CONTINUOUS
70
0
71
3
72
8
73
4
74
2
42
0.0000001000
43
0.0000001000
44
0.0000000001
12
-0.2003951930
22
-0.1180511729
32
0.0000000000
13
-0.1872323121
23
-0.1420548192
33
0.0000000000
40
0.0000000000
40
0.0000000000
40
0.0000000000
40
0.0000000000
40
1.0000000000
40
1.0000000000
40
1.0000000000
40
1.0000000000
10
-163.7433380977
20
-65.0207895005
30
0.0000000000
10
-163.8101364954
20
-65.0601398915
30
0.0000000000
10
-163.8761459212
20
-65.1028170026
30
0.0000000000
10
-163.9385566919
20
-65.1501686090
30
0.0000000000
11
-163.7433380977
21
-65.0207895005
31
0.0000000000
11
-163.9385566919
21
-65.1501686090
31
0.0000000000
0
SPLINE
5
5E9
100
AcDbEntity
8
0
100
AcDbSpline
62
7
6
CONTINUOUS
70
0
71
3
72
8
73
4
74
2
42
0.0000001000
43
0.0000001000
44
0.0000000001
12
-0.1101733744
22
-0.0835895183
32
0.0000000000
13
-0.1009797562
23
-0.0941246336
33
0.0000000000
40
0.0000000000
40
0.0000000000
40
0.0000000000
40
0.0000000000
40
1.0000000000
40
1.0000000000
40
1.0000000000
40
1.0000000000
10
-163.9385566919
20
-65.1501686090
30
0.0000000000
10
-163.9752811500
20
-65.1780317818
30
0.0000000000
10
-164.0107595683
20
-65.2075135057
30
0.0000000000
10
-164.0444194870
20
-65.2388883836
30
0.0000000000
11
-163.9385566919
21
-65.1501686090
31
0.0000000000
11
-164.0444194870
21
-65.2388883836
31
0.0000000000
0
SPLINE
5
5EA
100
AcDbEntity
8
0
100
AcDbSpline
62
7
6
CONTINUOUS
70
0
71
3
72
9
73
5
74
3
42
0.0000001000
43
0.0000001000
44
0.0000000001
12
-0.2386718748
22
-0.2224693703
32
0.0000000000
13
-0.1547300204
23
-0.2946739486
33
0.0000000000
40
0.0000000000
40
0.0000000000
40
0.0000000000
40
0.0000000000
40
0.7853846869
40
1.0000000000
40
1.0000000000
40
1.0000000000
40
1.0000000000
10
-164.0444194870
20
-65.2388883836
30
0.0000000000
10
-164.1069025656
20
-65.2971297292
30
0.0000000000
10
-164.1784812059
20
-65.3795923827
30
0.0000000000
10
-164.2339644698
20
-65.4754786565
30
0.0000000000
10
-164.2450336137
20
-65.4965591704
30
0.0000000000
11
-164.0444194870
21
-65.2388883836
31
0.0000000000
11
-164.2094080050
21
-65.4349396195
31
0.0000000000
11
-164.2450336137
21
-65.4965591704
31
0.0000000000
0
SPLINE
5
5EB
100
AcDbEntity
8
0
100
AcDbSpline
62
7
6
CONTINUOUS
70
0
71
3
72
8
73
4
74
2
42
0.0000001000
43
0.0000001000
44
0.0000000001
12
-0.0471720330
22
-0.0898362786
32
0.0000000000
13
-0.0361863359
23
-0.0949110866
33
0.0000000000
40
0.0000000000
40
0.0000000000
40
0.0000000000
40
0.0000000000
40
1.0000000000
40
1.0000000000
40
1.0000000000
40
1.0000000000
10
-164.2450336137
20
-65.4965591704
30
0.0000000000
10
-164.2607576247
20
-65.5265045966
30
0.0000000000
10
-164.2747898039
20
-65.5574627060
30
0.0000000000
10
-164.2868519159
20
-65.5890997349
30
0.0000000000
11
-164.2450336137
21
-65.4965591704
31
0.0000000000
11
-164.2868519159
21
-65.5890997349
31
0.0000000000
0
SPLINE
5
5EC
100
AcDbEntity
8
0
100
AcDbSpline
62
7
6
CONTINUOUS
70
0
71
3
72
8
73
4
74
2
42
0.0000001000
43
0.0000001000
44
0.0000000001
12
-0.0893176358
22
-0.2342661574
32
0.0000000000
13
-0.0047515868
23
-0.2440264699
33
0.0000000000
40
0.0000000000
40
0.0000000000
40
0.0000000000
40
0.0000000000
40
1.0000000000
40
1.0000000000
40
1.0000000000
40
1.0000000000
10
-164.2868519159
20
-65.5890997349
30
0.0000000000
10
-164.3166244612
20
-65.6671884541
30
0.0000000000
10
-164.3343946574
20
-65.7494133914
30
0.0000000000
10
-164.3359785197
20
-65.8307555480
30
0.0000000000
11
-164.2868519159
21
-65.5890997349
31
0.0000000000
11
-164.3359785197
21
-65.8307555480
31
0.0000000000
0
SPLINE
5
5ED
100
AcDbEntity
8
0
100
AcDbSpline
62
7
6
CONTINUOUS
70
0
71
3
72
10
73
6
74
4
42
0.0000001000
43
0.0000001000
44
0.0000000001
12
-0.0001683795
22
-1.2147386141
32
0.0000000000
13
1.0177491136
23
-0.6283271995
33
0.0000000000
40
0.0000000000
40
0.0000000000
40
0.0000000000
40
0.0000000000
40
0.1958739384
40
0.6432991942
40
1.0000000000
40
1.0000000000
40
1.0000000000
40
1.0000000000
10
-178.6584610544
20
-76.6306574592
30
0.0000000000
10
-178.6584720481
20
-76.7099693380
30
0.0000000000
10
-178.6214450986
20
-76.9704455127
30
0.0000000000
10
-178.3745645957
20
-77.3053875174
30
0.0000000000
10
-178.1166697923
20
-77.4985685566
30
0.0000000000
10
-177.9956591493
20
-77.5732768294
30
0.0000000000
11
-178.6584610544
21
-76.6306574592
31
0.0000000000
11
-178.6246325941
21
-76.8644179687
31
0.0000000000
11
-178.3337853506
21
-77.3121979432
31
0.0000000000
11
-177.9956591493
21
-77.5732768294
31
0.0000000000
0
SPLINE
5
5EE
100
AcDbEntity
8
0
100
AcDbSpline
62
7
6
CONTINUOUS
70
0
71
3
72
8
73
4
74
2
42
0.0000001000
43
0.0000001000
44
0.0000000001
12
0.2075384826
22
-0.1281279166
32
0.0000000000
13
0.2176608238
23
-0.1088304119
33
0.0000000000
40
0.0000000000
40
0.0000000000
40
0.0000000000
40
0.0000000000
40
1.0000000000
40
1.0000000000
40
1.0000000000
40
1.0000000000
10
-177.9956591493
20
-77.5732768294
30
0.0000000000
10
-177.9264796551
20
-77.6159861349
30
0.0000000000
10
-177.8551393759
20
-77.6551054780
30
0.0000000000
10
-177.7825857679
20
-77.6913822819
30
0.0000000000
11
-177.9956591493
21
-77.5732768294
31
0.0000000000
11
-177.7825857679
21
-77.6913822819
31
0.0000000000
0
ENDSEC
0
SECTION
2
OBJECTS
0
DICTIONARY
5
C
100
AcDbDictionary
280
0
281
1
3
ACAD_GROUP
350
D
3
ACAD_MLINESTYLE
350
17
3
ACAD_LAYOUT
350
1A
3
ACAD_PLOTSETTINGS
350
19
3
ACAD_PLOTSTYLENAME
350
E
0
DICTIONARY
5
D
102
{ACAD_REACTORS
330
C
102
}
100
AcDbDictionary
280
0
281
1
0
ACDBDICTIONARYWDFLT
5
E
102
{ACAD_REACTORS
330
C
102
}
100
AcDbDictionary
281
1
3
Normal
350
F
100
AcDbDictionaryWithDefault
340
F
0
DICTIONARY
5
17
102
{ACAD_REACTORS
330
C
102
}
100
AcDbDictionary
280
0
281
1
3
Standard
350
18
0
DICTIONARY
5
19
102
{ACAD_REACTORS
330
C
102
}
100
AcDbDictionary
281
1
0
DICTIONARY
5
1A
102
{ACAD_REACTORS
330
C
102
}
100
AcDbDictionary
281
1
3
Layout1
350
1E
3
Model
350
22
0
ACDBPLACEHOLDER
5
F
102
{ACAD_REACTORS
330
E
102
}
0
MLINESTYLE
5
18
102
{ACAD_REACTORS
330
17
102
}
100
AcDbMlineStyle
2
STANDARD
70
0
3

62
256
51
90.0
52
90.0
71
2
49
0.5
62
256
6
BYLAYER
49
-0.5
62
256
6
BYLAYER
0
LAYOUT
5
1E
102
{ACAD_REACTORS
330
1A
102
}
100
AcDbPlotSettings
1

2

4

6

40
0.0
41
0.0
42
0.0
43
0.0
44
0.0
45
0.0
46
0.0
47
0.0
48
0.0
49
0.0
140
0.0
141
0.0
142
1.0
143
1.0
70
0
72
0
73
0
74
0
7

75
0
147
1.0
148
0.0
149
0.0
100
AcDbLayout
1
Layout1
70
0
71
0
10
0.0
20
0.0
11
0.0
21
0.0
12
0.0
22
0.0
32
0.0
14
0.0
24
0.0
34
0.0
15
0.0
25
0.0
35
0.0
146
0.0
13
0.0
23
0.0
33
0.0
16
0.0
26
0.0
36
0.0
17
0.0
27
0.0
37
0.0
76
0
330
1B
331
0
345
0
346
0
0
LAYOUT
5
22
102
{ACAD_REACTORS
330
1A
102
}
100
AcDbPlotSettings
1

2

4

6

40
0.0
41
0.0
42
0.0
43
0.0
44
0.0
45
0.0
46
0.0
47
0.0
48
0.0
49
0.0
140
0.0
141
0.0
142
1.0
143
1.0
70
0
72
0
73
0
74
0
7

75
0
147
1.0
148
0.0
149
0.0
100
AcDbLayout
1
Model
70
0
71
0
10
0.0
20
0.0
11
0.0
21
0.0
12
0.0
22
0.0
32
0.0
14
0.0
24
0.0
34
0.0
15
0.0
25
0.0
35
0.0
146
0.0
13
0.0
23
0.0
33
0.0
16
0.0
26
0.0
36
0.0
17
0.0
27
0.0
37
0.0
76
0
330
1F
331
0
345
0
346
0
0
ENDSEC
0
EOF
