  0
SECTION
  2
HEADER
  9
$ACADVER
  1
AC1032
  9
$ACADMAINTVER
 90
      155
  9
$DWGCODEPAGE
  3
ANSI_1252
  9
$REQUIREDVERSIONS
160
                 0
  9
$INSBASE
 10
0.0
 20
0.0
 30
0.0
  9
$EXTMIN
 10
1.000000000000000E+20
 20
1.000000000000000E+20
 30
1.000000000000000E+20
  9
$EXTMAX
 10
-1.000000000000000E+20
 20
-1.000000000000000E+20
 30
-1.000000000000000E+20
  9
$LIMMIN
 10
0.0
 20
0.0
  9
$LIMMAX
 10
12.0
 20
9.0
  9
$ORTHOMODE
 70
     0
  9
$REGENMODE
 70
     1
  9
$FILLMODE
 70
     1
  9
$QTEXTMODE
 70
     0
  9
$MIRRTEXT
 70
     0
  9
$LTSCALE
 40
1.0
  9
$ATTMODE
 70
     1
  9
$TEXTSIZE
 40
0.2
  9
$TRACEWID
 40
0.05
  9
$TEXTSTYLE
  7
Standard
  9
$CLAYER
  8
0
  9
$CELTYPE
  6
ByLayer
  9
$CECOLOR
 62
   256
  9
$CELTSCALE
 40
1.0
  9
$DISPSILH
 70
     0
  9
$DIMSCALE
 40
1.0
  9
$DIMASZ
 40
0.18
  9
$DIMEXO
 40
0.0625
  9
$DIMDLI
 40
0.38
  9
$DIMRND
 40
0.0
  9
$DIMDLE
 40
0.0
  9
$DIMEXE
 40
0.18
  9
$DIMTP
 40
0.0
  9
$DIMTM
 40
0.0
  9
$DIMTXT
 40
0.18
  9
$DIMCEN
 40
0.09
  9
$DIMTSZ
 40
0.0
  9
$DIMTOL
 70
     0
  9
$DIMLIM
 70
     0
  9
$DIMTIH
 70
     1
  9
$DIMTOH
 70
     1
  9
$DIMSE1
 70
     0
  9
$DIMSE2
 70
     0
  9
$DIMTAD
 70
     0
  9
$DIMZIN
 70
     0
  9
$DIMBLK
  1

  9
$DIMASO
 70
     1
  9
$DIMSHO
 70
     1
  9
$DIMPOST
  1

  9
$DIMAPOST
  1

  9
$DIMALT
 70
     0
  9
$DIMALTD
 70
     2
  9
$DIMALTF
 40
25.4
  9
$DIMLFAC
 40
1.0
  9
$DIMTOFL
 70
     0
  9
$DIMTVP
 40
0.0
  9
$DIMTIX
 70
     0
  9
$DIMSOXD
 70
     0
  9
$DIMSAH
 70
     0
  9
$DIMBLK1
  1

  9
$DIMBLK2
  1

  9
$DIMSTYLE
  2
Standard
  9
$DIMCLRD
 70
     0
  9
$DIMCLRE
 70
     0
  9
$DIMCLRT
 70
     0
  9
$DIMTFAC
 40
1.0
  9
$DIMGAP
 40
0.09
  9
$DIMJUST
 70
     0
  9
$DIMSD1
 70
     0
  9
$DIMSD2
 70
     0
  9
$DIMTOLJ
 70
     1
  9
$DIMTZIN
 70
     0
  9
$DIMALTZ
 70
     0
  9
$DIMALTTZ
 70
     0
  9
$DIMUPT
 70
     0
  9
$DIMDEC
 70
     4
  9
$DIMTDEC
 70
     4
  9
$DIMALTU
 70
     2
  9
$DIMALTTD
 70
     2
  9
$DIMTXSTY
  7
Standard
  9
$DIMAUNIT
 70
     0
  9
$DIMADEC
 70
     0
  9
$DIMALTRND
 40
0.0
  9
$DIMAZIN
 70
     0
  9
$DIMDSEP
 70
    46
  9
$DIMATFIT
 70
     3
  9
$DIMFRAC
 70
     0
  9
$DIMLDRBLK
  1

  9
$DIMLUNIT
 70
     2
  9
$DIMLWD
 70
    -2
  9
$DIMLWE
 70
    -2
  9
$DIMTMOVE
 70
     0
  9
$DIMFXL
 40
1.0
  9
$DIMFXLON
 70
     0
  9
$DIMJOGANG
 40
0.7853981633974483
  9
$DIMTFILL
 70
     0
  9
$DIMTFILLCLR
 70
     0
  9
$DIMARCSYM
 70
     0
  9
$DIMLTYPE
  6

  9
$DIMLTEX1
  6

  9
$DIMLTEX2
  6

  9
$DIMTXTDIRECTION
 70
     0
  9
$LUNITS
 70
     2
  9
$LUPREC
 70
     4
  9
$SKETCHINC
 40
0.1
  9
$FILLETRAD
 40
0.0
  9
$AUNITS
 70
     0
  9
$AUPREC
 70
     0
  9
$MENU
  1
.
  9
$ELEVATION
 40
0.0
  9
$PELEVATION
 40
0.0
  9
$THICKNESS
 40
0.0
  9
$LIMCHECK
 70
     0
  9
$CHAMFERA
 40
0.0
  9
$CHAMFERB
 40
0.0
  9
$CHAMFERC
 40
0.0
  9
$CHAMFERD
 40
0.0
  9
$SKPOLY
 70
     0
  9
$TDCREATE
 40
2460216.749826389
  9
$TDUCREATE
 40
2460216.666493056
  9
$TDUPDATE
 40
2460216.749826389
  9
$TDUUPDATE
 40
2460216.666493056
  9
$TDINDWG
 40
0.0000000000
  9
$TDUSRTIMER
 40
0.0000000000
  9
$USRTIMER
 70
     1
  9
$ANGBASE
 50
0.0
  9
$ANGDIR
 70
     0
  9
$PDMODE
 70
     0
  9
$PDSIZE
 40
0.0
  9
$PLINEWID
 40
0.0
  9
$SPLFRAME
 70
     0
  9
$SPLINETYPE
 70
     6
  9
$SPLINESEGS
 70
     8
  9
$HANDSEED
  5
2D5
  9
$SURFTAB1
 70
     6
  9
$SURFTAB2
 70
     6
  9
$SURFTYPE
 70
     6
  9
$SURFU
 70
     6
  9
$SURFV
 70
     6
  9
$UCSBASE
  2

  9
$UCSNAME
  2

  9
$UCSORG
 10
0.0
 20
0.0
 30
0.0
  9
$UCSXDIR
 10
1.0
 20
0.0
 30
0.0
  9
$UCSYDIR
 10
0.0
 20
1.0
 30
0.0
  9
$UCSORTHOREF
  2

  9
$UCSORTHOVIEW
 70
     0
  9
$UCSORGTOP
 10
0.0
 20
0.0
 30
0.0
  9
$UCSORGBOTTOM
 10
0.0
 20
0.0
 30
0.0
  9
$UCSORGLEFT
 10
0.0
 20
0.0
 30
0.0
  9
$UCSORGRIGHT
 10
0.0
 20
0.0
 30
0.0
  9
$UCSORGFRONT
 10
0.0
 20
0.0
 30
0.0
  9
$UCSORGBACK
 10
0.0
 20
0.0
 30
0.0
  9
$PUCSBASE
  2

  9
$PUCSNAME
  2

  9
$PUCSORG
 10
0.0
 20
0.0
 30
0.0
  9
$PUCSXDIR
 10
1.0
 20
0.0
 30
0.0
  9
$PUCSYDIR
 10
0.0
 20
1.0
 30
0.0
  9
$PUCSORTHOREF
  2

  9
$PUCSORTHOVIEW
 70
     0
  9
$PUCSORGTOP
 10
0.0
 20
0.0
 30
0.0
  9
$PUCSORGBOTTOM
 10
0.0
 20
0.0
 30
0.0
  9
$PUCSORGLEFT
 10
0.0
 20
0.0
 30
0.0
  9
$PUCSORGRIGHT
 10
0.0
 20
0.0
 30
0.0
  9
$PUCSORGFRONT
 10
0.0
 20
0.0
 30
0.0
  9
$PUCSORGBACK
 10
0.0
 20
0.0
 30
0.0
  9
$USERI1
 70
     0
  9
$USERI2
 70
     0
  9
$USERI3
 70
     0
  9
$USERI4
 70
     0
  9
$USERI5
 70
     0
  9
$USERR1
 40
0.0
  9
$USERR2
 40
0.0
  9
$USERR3
 40
0.0
  9
$USERR4
 40
0.0
  9
$USERR5
 40
0.0
  9
$WORLDVIEW
 70
     1
  9
$SHADEDGE
 70
     3
  9
$SHADEDIF
 70
    70
  9
$TILEMODE
 70
     1
  9
$MAXACTVP
 70
    64
  9
$PINSBASE
 10
0.0
 20
0.0
 30
0.0
  9
$PLIMCHECK
 70
     0
  9
$PEXTMIN
 10
1.000000000000000E+20
 20
1.000000000000000E+20
 30
1.000000000000000E+20
  9
$PEXTMAX
 10
-1.000000000000000E+20
 20
-1.000000000000000E+20
 30
-1.000000000000000E+20
  9
$PLIMMIN
 10
0.0
 20
0.0
  9
$PLIMMAX
 10
12.0
 20
9.0
  9
$UNITMODE
 70
     0
  9
$VISRETAIN
 70
     1
  9
$PLINEGEN
 70
     0
  9
$PSLTSCALE
 70
     1
  9
$TREEDEPTH
 70
  3020
  9
$CMLSTYLE
  2
Standard
  9
$CMLJUST
 70
     0
  9
$CMLSCALE
 40
1.0
  9
$PROXYGRAPHICS
 70
     1
  9
$MEASUREMENT
 70
     0
  9
$CELWEIGHT
370
    -1
  9
$ENDCAPS
280
     0
  9
$JOINSTYLE
280
     0
  9
$LWDISPLAY
290
     1
  9
$INSUNITS
 70
     4
  9
$HYPERLINKBASE
  1

  9
$STYLESHEET
  1

  9
$XEDIT
290
     1
  9
$CEPSNTYPE
380
     0
  9
$PSTYLEMODE
290
     1
  9
$FINGERPRINTGUID
  2
{238B801F-9AD3-064F-8961-A73043181F00}
  9
$VERSIONGUID
  2
{FFFFC360-2404-8643-A571-AE2C2141F2DC}
  9
$EXTNAMES
290
     1
  9
$PSVPSCALE
 40
0.0
  9
$OLESTARTUP
290
     0
  9
$SORTENTS
280
   127
  9
$INDEXCTL
280
     0
  9
$HIDETEXT
280
     1
  9
$XCLIPFRAME
280
     2
  9
$HALOGAP
280
     0
  9
$OBSCOLOR
 70
   257
  9
$OBSLTYPE
280
     0
  9
$INTERSECTIONDISPLAY
280
     0
  9
$INTERSECTIONCOLOR
 70
   257
  9
$DIMASSOC
280
     2
  9
$PROJECTNAME
  1

  9
$CAMERADISPLAY
290
     0
  9
$LENSLENGTH
 40
50.0
  9
$CAMERAHEIGHT
 40
0.0
  9
$STEPSPERSEC
 40
2.0
  9
$STEPSIZE
 40
6.0
  9
$3DDWFPREC
 40
2.0
  9
$PSOLWIDTH
 40
0.25
  9
$PSOLHEIGHT
 40
4.0
  9
$LOFTANG1
 40
1.570796326794896
  9
$LOFTANG2
 40
1.570796326794896
  9
$LOFTMAG1
 40
0.0
  9
$LOFTMAG2
 40
0.0
  9
$LOFTPARAM
 70
     7
  9
$LOFTNORMALS
280
     1
  9
$LATITUDE
 40
37.795
  9
$LONGITUDE
 40
-122.394
  9
$NORTHDIRECTION
 40
0.0
  9
$TIMEZONE
 70
 -8000
  9
$LIGHTGLYPHDISPLAY
280
     1
  9
$TILEMODELIGHTSYNCH
280
     1
  9
$CMATERIAL
347
11
  9
$SOLIDHIST
280
     0
  9
$SHOWHIST
280
     1
  9
$DWFFRAME
280
     2
  9
$DGNFRAME
280
     0
  9
$REALWORLDSCALE
290
     1
  9
$INTERFERECOLOR
 62
     1
  9
$INTERFEREOBJVS
345
33
  9
$INTERFEREVPVS
346
30
  9
$CSHADOW
280
     0
  9
$SHADOWPLANELOCATION
 40
0.0
  0
ENDSEC
  0
SECTION
  2
CLASSES
  0
CLASS
  1
ACDBDICTIONARYWDFLT
  2
AcDbDictionaryWithDefault
  3
ObjectDBX Classes
 90
        0
 91
        1
280
     0
281
     0
  0
CLASS
  1
MATERIAL
  2
AcDbMaterial
  3
ObjectDBX Classes
 90
     1153
 91
        3
280
     0
281
     0
  0
CLASS
  1
VISUALSTYLE
  2
AcDbVisualStyle
  3
ObjectDBX Classes
 90
     4095
 91
       24
280
     0
281
     0
  0
CLASS
  1
SCALE
  2
AcDbScale
  3
ObjectDBX Classes
 90
     1153
 91
       17
280
     0
281
     0
  0
CLASS
  1
TABLESTYLE
  2
AcDbTableStyle
  3
ObjectDBX Classes
 90
     4095
 91
        1
280
     0
281
     0
  0
CLASS
  1
MLEADERSTYLE
  2
AcDbMLeaderStyle
  3
ACDB_MLEADERSTYLE_CLASS
 90
     4095
 91
        1
280
     0
281
     0
  0
CLASS
  1
ACDBSECTIONVIEWSTYLE
  2
AcDbSectionViewStyle
  3
ObjectDBX Classes
 90
     1025
 91
        1
280
     0
281
     0
  0
CLASS
  1
ACDBDETAILVIEWSTYLE
  2
AcDbDetailViewStyle
  3
ObjectDBX Classes
 90
     1025
 91
        1
280
     0
281
     0
  0
CLASS
  1
DICTIONARYVAR
  2
AcDbDictionaryVar
  3
ObjectDBX Classes
 90
        0
 91
        5
280
     0
281
     0
  0
CLASS
  1
CELLSTYLEMAP
  2
AcDbCellStyleMap
  3
ObjectDBX Classes
 90
     1152
 91
        1
280
     0
281
     0
  0
ENDSEC
  0
SECTION
  2
TABLES
  0
TABLE
  2
VPORT
  5
8
330
0
100
AcDbSymbolTable
 70
     1
  0
VPORT
  5
57
330
8
100
AcDbSymbolTableRecord
100
AcDbViewportTableRecord
  2
*Active
 70
     0
 10
0.0
 20
0.0
 11
1.0
 21
1.0
 12
0.0
 22
0.0
 13
0.0
 23
0.0
 14
1.0
 24
1.0
 15
0.0
 25
0.0
 16
0.0
 26
0.0
 36
1.0
 17
148.6958332961578
 27
232.1289804241768
 37
0.0
 40
473.5431200653206
 41
0.7894401961077371
 42
50.0
 43
0.0
 44
0.0
 50
0.0
 51
0.0
 71
     0
 72
   100
 73
     1
 74
     0
 75
     1
 76
     0
 77
     0
 78
     0
281
     0
 65
     1
110
0.0
120
0.0
130
0.0
111
1.0
121
0.0
131
0.0
112
0.0
122
1.0
132
0.0
 79
     0
146
0.0
 60
     3
 61
     5
292
     1
282
     1
141
0.0
142
0.0
 63
   250
421
  3355443
  0
ENDTAB
  0
TABLE
  2
LTYPE
  5
5
330
0
100
AcDbSymbolTable
 70
     1
  0
LTYPE
  5
5B
330
5
100
AcDbSymbolTableRecord
100
AcDbLinetypeTableRecord
  2
ByBlock
 70
     0
  3

 72
    65
 73
     0
 40
0.0
  0
LTYPE
  5
5C
330
5
100
AcDbSymbolTableRecord
100
AcDbLinetypeTableRecord
  2
ByLayer
 70
     0
  3

 72
    65
 73
     0
 40
0.0
  0
LTYPE
  5
5D
330
5
100
AcDbSymbolTableRecord
100
AcDbLinetypeTableRecord
  2
Continuous
 70
     0
  3
Solid line
 72
    65
 73
     0
 40
0.0
  0
ENDTAB
  0
TABLE
  2
LAYER
  5
2
330
0
100
AcDbSymbolTable
 70
     2
  0
LAYER
  5
54
330
2
100
AcDbSymbolTableRecord
100
AcDbLayerTableRecord
  2
0
 70
     0
 62
     7
  6
Continuous
370
     0
390
F
347
21
348
0
  0
LAYER
  5
1D0
330
2
100
AcDbSymbolTableRecord
100
AcDbLayerTableRecord
  2
Livello 2
 70
     0
 62
     7
  6
Continuous
370
     0
390
F
347
21
348
0
  0
ENDTAB
  0
TABLE
  2
STYLE
  5
3
330
0
100
AcDbSymbolTable
 70
     2
  0
STYLE
  5
55
330
3
100
AcDbSymbolTableRecord
100
AcDbTextStyleTableRecord
  2
Standard
 70
     0
 40
0.0
 41
1.0
 50
0.0
 71
     0
 42
0.2
  3
txt
  4

  0
STYLE
  5
5A
330
3
100
AcDbSymbolTableRecord
100
AcDbTextStyleTableRecord
  2
Annotative
 70
     0
 40
0.0
 41
1.0
 50
0.0
 71
     0
 42
0.2
  3
txt
  4

1001
AcadAnnotative
1000
AnnotativeData
1002
{
1070
     1
1070
     1
1002
}
  0
ENDTAB
  0
TABLE
  2
VIEW
  5
6
330
0
100
AcDbSymbolTable
 70
     0
  0
ENDTAB
  0
TABLE
  2
UCS
  5
7
330
0
100
AcDbSymbolTable
 70
     0
  0
ENDTAB
  0
TABLE
  2
APPID
  5
9
330
0
100
AcDbSymbolTable
 70
     2
  0
APPID
  5
56
330
9
100
AcDbSymbolTableRecord
100
AcDbRegAppTableRecord
  2
ACAD
 70
     0
  0
APPID
  5
5E
330
9
100
AcDbSymbolTableRecord
100
AcDbRegAppTableRecord
  2
AcadAnnotative
 70
     0
  0
ENDTAB
  0
TABLE
  2
DIMSTYLE
  5
A
330
0
100
AcDbSymbolTable
 70
     2
100
AcDbDimStyleTable
 71
     0
  0
DIMSTYLE
105
58
330
A
100
AcDbSymbolTableRecord
100
AcDbDimStyleTableRecord
  2
Standard
 70
     0
340
55
  0
DIMSTYLE
105
59
330
A
100
AcDbSymbolTableRecord
100
AcDbDimStyleTableRecord
  2
Annotative
 70
     0
340
55
1001
AcadAnnotative
1000
AnnotativeData
1002
{
1070
     1
1070
     1
1002
}
  0
ENDTAB
  0
TABLE
  2
BLOCK_RECORD
  5
1
330
0
100
AcDbSymbolTable
 70
     2
  0
BLOCK_RECORD
  5
70
330
1
100
AcDbSymbolTableRecord
100
AcDbBlockTableRecord
  2
*Model_Space
340
73
 70
     0
280
     1
281
     0
  0
BLOCK_RECORD
  5
6C
330
1
100
AcDbSymbolTableRecord
100
AcDbBlockTableRecord
  2
*Paper_Space
340
6F
 70
     0
280
     1
281
     0
  0
BLOCK_RECORD
  5
74
330
1
100
AcDbSymbolTableRecord
100
AcDbBlockTableRecord
  2
*Paper_Space0
340
77
 70
     0
280
     1
281
     0
  0
BLOCK_RECORD
  5
1D1
330
1
100
AcDbSymbolTableRecord
100
AcDbBlockTableRecord
  2
Block_0
340
0
102
{BLKREFS
331
1D2
102
}
 70
     0
280
     1
281
     0
  0
ENDTAB
  0
ENDSEC
  0
SECTION
  2
BLOCKS
  0
BLOCK
  5
71
330
70
100
AcDbEntity
  8
0
100
AcDbBlockBegin
  2
*Model_Space
 70
     0
 10
0.0
 20
0.0
 30
0.0
  3
*Model_Space
  1

  0
ENDBLK
  5
72
330
70
100
AcDbEntity
  8
0
100
AcDbBlockEnd
  0
BLOCK
  5
6D
330
6C
100
AcDbEntity
 67
     1
  8
0
100
AcDbBlockBegin
  2
*Paper_Space
 70
     0
 10
0.0
 20
0.0
 30
0.0
  3
*Paper_Space
  1

  0
ENDBLK
  5
6E
330
6C
100
AcDbEntity
 67
     1
  8
0
100
AcDbBlockEnd
  0
BLOCK
  5
75
330
74
100
AcDbEntity
 67
     1
  8
0
100
AcDbBlockBegin
  2
*Paper_Space0
 70
     0
 10
0.0
 20
0.0
 30
0.0
  3
*Paper_Space0
  1

  0
ENDBLK
  5
76
330
74
100
AcDbEntity
 67
     1
  8
0
100
AcDbBlockEnd
  0
BLOCK
  5
1D3
330
1D1
100
AcDbEntity
  8
0
100
AcDbBlockBegin
  2
Block_0
 70
     0
 10
0.0
 20
0.0
 30
0.0
  3
Block_0
  1

  0
LWPOLYLINE
  5
1D5
330
1D1
100
AcDbEntity
  8
Livello 2
 62
    18
420
        0
370
    25
100
AcDbPolyline
 90
        4
 70
     0
 43
0.0
 10
198.5923481158092
 20
262.72094143023
 10
198.6096080247089
 20
262.7619865303303
 10
198.7151333862096
 20
262.97138795613
 10
198.7152225440089
 20
262.9715423667303
  0
LWPOLYLINE
  5
1D6
330
1D1
100
AcDbEntity
  8
Livello 2
 62
    18
420
        0
370
    25
100
AcDbPolyline
 90
       36
 70
     0
 43
0.0
 10
300.1485603834094
 20
279.0332195360302
 10
301.5879106024089
 20
279.7145462576303
 10
302.9809989210089
 20
280.07478963143
 10
304.2830503345094
 20
280.1023711388302
 10
305.4522158391086
 20
279.7964042876302
 10
306.4509174936087
 20
279.1667231041298
 10
307.247056204809
 20
278.2335660597301
 10
307.8150434198089
 20
277.0269255895298
 10
308.1366235619097
 20
275.5855841112303
 10
308.2014607809088
 20
273.9558675256302
 10
308.0074711551087
 20
272.1901562650302
 10
307.5608896708086
 20
270.3452017419303
 10
306.8760698243087
 20
268.4803023128299
 10
305.9750222890091
 20
266.6553973799303
 10
304.886707474009
 20
264.9291408891297
 10
303.6461047130091
 20
263.3570161444297
 10
302.2930879994092
 20
261.9895525288299
 10
300.8711444037086
 20
260.8707014479307
 10
299.4259763630089
 20
260.03642369623
 10
298.0040327674097
 20
259.5135336469298
 10
296.6510160538085
 20
259.3188374165298
 10
295.4104132927085
 20
259.4585927021304
 10
294.3220984777097
 20
259.9283076537299
 10
293.4210509424088
 20
260.7128852464298
 10
292.7362310959089
 20
261.78710851073
 10
292.2896496116089
 20
263.1164510272301
 10
292.0956599859088
 20
264.65818663343
 10
292.1604972049092
 20
266.3627626785299
 10
292.4820773470088
 20
268.1753926859299
 10
293.0500645619085
 20
270.03781723573
 10
293.846203273209
 20
271.8901764704302
 10
294.844904927609
 20
273.6729340401303
 10
296.0140704322094
 20
275.3287906497302
 10
297.3161218457087
 20
276.8045257053299
 10
298.7092101644088
 20
278.0527078680298
 10
300.1485603834094
 20
279.0332195360302
  0
LWPOLYLINE
  5
1D7
330
1D1
100
AcDbEntity
  8
Livello 2
 62
    18
420
        0
370
    25
100
AcDbPolyline
 90
       36
 70
     0
 43
0.0
 10
132.782493336776
 20
163.1938428611662
 10
131.3431431178067
 20
163.8751695828314
 10
129.9500547992229
 20
164.2354129566937
 10
128.6480033857235
 20
164.2629944641523
 10
127.4788378811109
 20
163.9570276130053
 10
126.4801362265825
 20
163.3273464295491
 10
125.6839975153405
 20
162.394189385185
 10
125.116010300286
 20
161.1875489150104
 10
124.7944301581205
 20
159.746207436725
 10
124.7295929390482
 20
158.1164908511281
 10
124.9235825647694
 20
156.3507795905191
 10
125.3701640489866
 20
154.5058250673994
 10
126.0549838954025
 20
152.6409256382682
 10
126.9560314306207
 20
150.8160207053281
 10
128.0443462455431
 20
149.0897642144788
 10
129.2849490064724
 20
147.517639469723
 10
130.6379657200107
 20
146.1501758540621
 10
132.0599093156613
 20
145.0313247730997
 10
133.5050773563231
 20
144.1970470213339
 10
134.9270209518992
 20
143.6741569719696
 10
136.2800376654914
 20
143.4794607415092
 10
137.5206404265978
 20
143.6192160270539
 10
138.6089552416178
 20
144.0889309786047
 10
139.510002776954
 20
144.8735085712641
 10
140.1948226235021
 20
145.9477318355337
 10
140.6414041078618
 20
147.2770743520138
 10
140.8353937336311
 20
148.8188099582047
 10
140.770556514707
 20
150.5233860033079
 10
140.4489763726891
 20
152.3360160107219
 10
139.8809891578727
 20
154.1984405605477
 10
139.0848504466557
 20
156.0507997952838
 10
138.0861487923359
 20
157.8335573650282
 10
136.9169832878092
 20
159.4894139746808
 10
135.6149318743766
 20
160.9651490303389
 10
134.2218435557324
 20
162.2133311931017
 10
132.782493336776
 20
163.1938428611662
  0
LWPOLYLINE
  5
1D8
330
1D1
100
AcDbEntity
  8
Livello 2
 62
    18
420
        0
370
    25
100
AcDbPolyline
 90
       19
 70
     0
 43
0.0
 10
294.0405670845097
 20
260.1240021224297
 10
294.5618851553092
 20
259.9484375692298
 10
295.802487916309
 20
259.8086822836299
 10
297.1555046299089
 20
260.00337851403
 10
298.5774482256096
 20
260.5262685633302
 10
300.0226162663092
 20
261.3605463150299
 10
301.4445598620086
 20
262.47939739593
 10
302.7975765756098
 20
263.8468610115299
 10
304.0381793366096
 20
265.4189857562299
 10
305.1264941516097
 20
267.1452422470298
 10
306.0275416869093
 20
268.9701471799304
 10
306.7123615334093
 20
270.8350466090301
 10
307.1589430177093
 20
272.6800011321303
 10
307.3529326434093
 20
274.4457123927304
 10
307.288095424509
 20
276.0754289783298
 10
306.9665152823095
 20
277.5167704566299
 10
306.3985280674097
 20
278.7234109268303
 10
305.6023893561092
 20
279.6565679712306
 10
305.4080255448097
 20
279.8151513057304
  0
LWPOLYLINE
  5
1D9
330
1D1
100
AcDbEntity
  8
Livello 2
 62
    18
420
        0
370
    25
100
AcDbPolyline
 90
        8
 70
     0
 43
0.0
 10
273.1084199611089
 20
235.1709666459306
 10
273.2587249755093
 20
235.14669295453
 10
273.5521236054089
 20
235.1584130618302
 10
273.8092896553086
 20
235.2536678462298
 10
274.0203403782087
 20
235.4287967198299
 10
274.1771652131092
 20
235.6770695782301
 10
274.2737374697092
 20
235.9889454347302
 10
274.3063459301087
 20
236.3524390750303
  0
LWPOLYLINE
  5
1DA
330
1D1
100
AcDbEntity
  8
Livello 2
 62
    18
420
        0
370
    25
100
AcDbPolyline
 90
        3
 70
     0
 43
0.0
 10
-14.20781879119068
 20
385.8893977495288
 10
-14.19734377339072
 20
385.8549120420297
 10
-14.12881861289087
 20
385.5718786799306
  0
LWPOLYLINE
  5
1DB
330
1D1
100
AcDbEntity
  8
Livello 2
 62
    18
420
        0
370
    25
100
AcDbPolyline
 90
        7
 70
     0
 43
0.0
 10
-28.51467151209062
 20
394.1485680239288
 10
-30.40204759879076
 20
395.4059861666309
 10
-31.96023012139082
 20
396.8056660218313
 10
-33.15749897719084
 20
398.31911414403
 10
-33.96948122479085
 20
399.9155210939292
 10
-34.37964724729072
 20
401.5623886295285
 10
-34.43111453219071
 20
402.3942899533296
  0
LWPOLYLINE
  5
1DC
330
1D1
100
AcDbEntity
  8
Livello 2
 62
    18
420
        0
370
    25
100
AcDbPolyline
 90
        7
 70
     0
 43
0.0
 10
-28.51467151209062
 20
355.2812253781299
 10
-30.40204759879076
 20
356.5386435208286
 10
-31.96023012139082
 20
357.9383233761312
 10
-33.15749897719084
 20
359.4517714983299
 10
-33.96948122479085
 20
361.0481784481302
 10
-34.37964724729072
 20
362.6950459837296
 10
-34.43111453219071
 20
363.5269473075307
  0
LWPOLYLINE
  5
1DD
330
1D1
100
AcDbEntity
  8
Livello 2
 62
    18
420
        0
370
    25
100
AcDbPolyline
 90
       19
 70
     0
 43
0.0
 10
12.25003442330932
 20
373.9222162935307
 10
11.62255125480903
 20
374.4395462320306
 10
11.33940748500909
 20
375.0495701608309
 10
11.43475443120918
 20
375.6787101910308
 10
11.89709184450933
 20
376.2510827499297
 10
12.67065500950905
 20
376.6976512596299
 10
13.66214079190925
 20
376.9645529671296
 10
14.75196137370905
 20
377.0195955875291
 10
15.80866830850934
 20
376.8561401685313
 10
16.70480714480924
 20
376.4939018458311
 10
17.33229031320911
 20
375.9765719073313
 10
17.61543408300904
 20
375.3665479785309
 10
17.52008713680928
 20
374.7374079483311
 10
17.05774972350913
 20
374.1650353894283
 10
16.28418655850909
 20
373.7184668797316
 10
15.2927007761092
 20
373.4515651722284
 10
14.20288019440919
 20
373.3965225518293
 10
13.14617325950911
 20
373.5599779709291
 10
12.25003442330932
 20
373.9222162935307
  0
LWPOLYLINE
  5
1DE
330
1D1
100
AcDbEntity
  8
Livello 2
 62
    18
420
        0
370
    25
100
AcDbPolyline
 90
       19
 70
     0
 43
0.0
 10
174.8845940962097
 20
280.0352834339303
 10
174.2571109277094
 20
280.5526133724301
 10
173.9739671579098
 20
281.1626373012298
 10
174.0693141041086
 20
281.79177733143
 10
174.5316515174087
 20
282.3641498903299
 10
175.3052146824088
 20
282.8107184000304
 10
176.2967004648086
 20
283.0776201075298
 10
177.3865210466091
 20
283.1326627279305
 10
178.4432279814087
 20
282.9692073089301
 10
179.3393668177086
 20
282.60696898623
 10
179.9668499861088
 20
282.0896390477301
 10
180.2499937559097
 20
281.4796151189301
 10
180.1546468097096
 20
280.8504750887303
 10
179.6923093964095
 20
280.2781025298301
 10
178.9187462314094
 20
279.8315340201305
 10
177.9272604490096
 20
279.5646323126298
 10
176.8374398673092
 20
279.5095896922304
 10
175.7807329324095
 20
279.6730451112301
 10
174.8845940962097
 20
280.0352834339303
  0
LWPOLYLINE
  5
1DF
330
1D1
100
AcDbEntity
  8
Livello 2
 62
    18
420
        0
370
    25
100
AcDbPolyline
 90
       19
 70
     0
 43
0.0
 10
311.0026494746089
 20
313.7121180465305
 10
310.3751663062087
 20
314.2294479850304
 10
310.0920225364091
 20
314.8394719138301
 10
310.1873694825091
 20
315.4686119440299
 10
310.6497068958092
 20
316.0409845029302
 10
311.4232700608093
 20
316.48755301263
 10
312.4147558433092
 20
316.7544547201304
 10
313.5045764250096
 20
316.8094973405301
 10
314.5612833598093
 20
316.6460419214299
 10
315.4574221960091
 20
316.2838035988299
 10
316.0849053645093
 20
315.7664736603301
 10
316.368049134309
 20
315.1564497315301
 10
316.2727021881089
 20
314.5273097013305
 10
315.8103647748087
 20
313.95493714243
 10
315.0368016098087
 20
313.5083686327301
 10
314.0453158274088
 20
313.24146692523
 10
312.9554952457084
 20
313.18642430483
 10
311.8987883109088
 20
313.3498797239302
 10
311.0026494746089
 20
313.7121180465305
  0
LWPOLYLINE
  5
1E0
330
1D1
100
AcDbEntity
  8
Livello 2
 62
    18
420
        0
370
    25
100
AcDbPolyline
 90
       19
 70
     0
 43
0.0
 10
70.58634387120903
 20
452.5014970564311
 10
69.95886070280917
 20
453.0188269949309
 10
69.67571693290913
 20
453.6288509236289
 10
69.77106387910922
 20
454.2579909538288
 10
70.23340129240906
 20
454.8303635127315
 10
71.0069644574091
 20
455.2769320224315
 10
71.9984502398093
 20
455.5438337299315
 10
73.0882708216091
 20
455.5988763504294
 10
74.14497775640907
 20
455.4354209313292
 10
75.04111659260918
 20
455.073182608629
 10
75.66859976100904
 20
454.5558526701293
 10
75.95174353090908
 20
453.9458287414312
 10
75.856396584709
 20
453.3166887112314
 10
75.39405917140918
 20
452.7443161523289
 10
74.62049600640914
 20
452.2977476426287
 10
73.62901022400958
 20
452.0308459351286
 10
72.53918964220914
 20
451.9758033147296
 10
71.48248270740916
 20
452.1392587337309
 10
70.58634387120903
 20
452.5014970564311
  0
LWPOLYLINE
  5
1E1
330
1D1
100
AcDbEntity
  8
Livello 2
 62
    18
420
        0
370
    25
100
AcDbPolyline
 90
       12
 70
     0
 43
0.0
 10
-28.51467151209062
 20
395.1284169981287
 10
-30.40204759879076
 20
396.3858351409296
 10
-31.96023012139082
 20
397.78551499613
 10
-33.15749897719084
 20
399.2989631183287
 10
-33.96948122479085
 20
400.8953700681293
 10
-34.37964724729072
 20
402.5422376038306
 10
-34.37964724729072
 20
404.2060402513306
 10
-33.96948122479085
 20
405.8529077870288
 10
-33.15749897719084
 20
407.4493147368291
 10
-31.96023012139082
 20
408.9627628590314
 10
-30.40204759879076
 20
410.3624427142317
 10
-28.51467151209062
 20
411.6198608570291
  0
LWPOLYLINE
  5
1E2
330
1D1
100
AcDbEntity
  8
Livello 2
 62
    18
420
        0
370
    25
100
AcDbPolyline
 90
        7
 70
     0
 43
0.0
 10
-34.43111453219071
 20
402.3942899533296
 10
-34.37964724729072
 20
401.5623886295285
 10
-33.96948122479085
 20
399.9155210939292
 10
-33.15749897719084
 20
398.31911414403
 10
-31.96023012139082
 20
396.8056660218313
 10
-30.40204759879076
 20
395.4059861666309
 10
-28.51467151209062
 20
394.1485680239288
  0
LWPOLYLINE
  5
1E3
330
1D1
100
AcDbEntity
  8
Livello 2
 62
    18
420
        0
370
    25
100
AcDbPolyline
 90
       18
 70
     0
 43
0.0
 10
312.2137575177089
 20
313.5228039442298
 10
313.2054738591085
 20
313.4104829380299
 10
314.2005074315086
 20
313.5125596167302
 10
315.0644734373087
 20
313.8152479592299
 10
315.6806884799093
 20
314.2776682275299
 10
315.965929303409
 20
314.83736800213
 10
315.8816725539091
 20
315.4187567270303
 10
315.4392975723093
 20
315.9433146333304
 10
314.6985495512085
 20
316.3401972691298
 10
313.7594706155093
 20
316.5558034353299
 10
312.7488885790098
 20
316.5610143243305
 10
311.8032881456092
 20
316.3551261768301
 10
311.0503778935088
 20
315.9659453278302
 10
310.591842524509
 20
315.4460328077302
 10
310.489609780709
 20
314.8656056832298
 10
310.7574867609097
 20
314.3030538537301
 10
311.3592951945097
 20
313.8343530609303
 10
312.2137575177089
 20
313.5228039442298
  0
SPLINE
  5
1E4
330
1D1
100
AcDbEntity
  8
Livello 2
 62
    18
420
        0
370
    25
100
AcDbSpline
210
0.0
220
0.0
230
1.0
 70
     8
 71
     3
 72
    11
 73
     7
 74
     0
 42
0.0000000001
 43
0.0000000001
 40
0.0
 40
0.0
 40
0.0
 40
0.0
 40
1.0
 40
1.0
 40
1.0
 40
2.0
 40
2.0
 40
2.0
 40
2.0
 10
312.6911067504811
 20
314.1897930193185
 30
0.0
 10
312.6884445061396
 20
314.2545662806341
 30
0.0
 10
312.6857822617995
 20
314.3193395419511
 30
0.0
 10
312.6831512286148
 20
314.3841639257403
 30
0.0
 10
312.6780673135833
 20
314.5094233337665
 30
0.0
 10
312.6730999328556
 20
314.6348736197452
 30
0.0
 10
312.6681325521279
 20
314.7603239057241
 30
0.0
  0
SPLINE
  5
1E5
330
1D1
100
AcDbEntity
  8
Livello 2
 62
    18
420
        0
370
    25
100
AcDbSpline
210
0.0
220
0.0
230
1.0
 70
     8
 71
     3
 72
    14
 73
    10
 74
     0
 42
0.0000000001
 43
0.0000000001
 40
0.0
 40
0.0
 40
0.0
 40
0.0
 40
1.0
 40
1.0
 40
1.0
 40
2.0
 40
2.0
 40
2.0
 40
3.0
 40
3.0
 40
3.0
 40
3.0
 10
312.9314362193762
 20
314.1346150002739
 30
0.0
 10
312.9191520611377
 20
314.2594026814626
 30
0.0
 10
312.9068679028992
 20
314.3841903626504
 30
0.0
 10
312.8948068880246
 20
314.5089439107212
 30
0.0
 10
312.8816949375683
 20
314.6445678493701
 30
0.0
 10
312.8688467118491
 20
314.7801514473721
 30
0.0
 10
312.8561548804603
 20
314.9157105701578
 30
0.0
 10
312.8434629961467
 20
315.0512702582348
 30
0.0
 10
312.8309275074674
 20
315.1868054708908
 30
0.0
 10
312.8183920187881
 20
315.3223406835461
 30
0.0
  0
SPLINE
  5
1E6
330
1D1
100
AcDbEntity
  8
Livello 2
 62
    18
420
        0
370
    25
100
AcDbSpline
210
0.0
220
0.0
230
1.0
 70
     8
 71
     3
 72
    14
 73
    10
 74
     0
 42
0.0000000001
 43
0.0000000001
 40
0.0
 40
0.0
 40
0.0
 40
0.0
 40
1.0
 40
1.0
 40
1.0
 40
2.0
 40
2.0
 40
2.0
 40
3.0
 40
3.0
 40
3.0
 40
3.0
 10
313.1043247848233
 20
315.3934693357382
 30
0.0
 10
313.0976709054879
 20
315.2071964810512
 30
0.0
 10
313.0910170261527
 20
315.0209236263642
 30
0.0
 10
313.084255134255
 20
314.8345137808666
 30
0.0
 10
313.0774931930479
 20
314.6481025760329
 30
0.0
 10
313.0706232377024
 20
314.4615543783906
 30
0.0
 10
313.0635056399928
 20
314.2746953893246
 30
0.0
 10
313.0622094480059
 20
314.2406663342506
 30
0.0
 10
313.0609050431146
 20
314.2066269719742
 30
0.0
 10
313.0596006382233
 20
314.1725876096979
 30
0.0
  0
LWPOLYLINE
  5
1E7
330
1D1
100
AcDbEntity
  8
Livello 2
 62
    18
420
        0
370
    25
100
AcDbPolyline
 90
       18
 70
     0
 43
0.0
 10
175.5687381597089
 20
280.0071271551301
 10
176.4951936125096
 20
279.77403025453
 10
177.5049495463092
 20
279.7498772354304
 10
178.4616328271092
 20
279.93793009703
 10
179.2360380767087
 20
280.3127912582301
 10
179.7235775748092
 20
280.8238336420302
 10
179.858406410909
 20
281.4020381427302
 10
179.6223152034095
 20
281.9693150386303
 10
179.0471893781097
 20
282.4490504414301
 10
178.2107028647092
 20
282.7764534268299
 10
177.2258278018091
 20
282.90730640733
 10
176.2255770242093
 20
282.82393696283
 10
175.3450399419095
 20
282.5376045988302
 10
174.7031379671088
 20
282.0869800877298
 10
174.386563518409
 20
281.5329227666298
 10
174.4380717293089
 20
280.9502611470299
 10
174.8507061305088
 20
280.4176869092298
 10
175.5687381597089
 20
280.0071271551301
  0
SPLINE
  5
1E8
330
1D1
100
AcDbEntity
  8
Livello 2
 62
    18
420
        0
370
    25
100
AcDbSpline
210
0.0
220
0.0
230
1.0
 70
     8
 71
     3
 72
    11
 73
     7
 74
     0
 42
0.0000000001
 43
0.0000000001
 40
0.0
 40
0.0
 40
0.0
 40
0.0
 40
1.0
 40
1.0
 40
1.0
 40
2.0
 40
2.0
 40
2.0
 40
2.0
 10
176.5141231797459
 20
280.5089319591203
 30
0.0
 10
176.5085071368499
 20
280.5994160091749
 30
0.0
 10
176.5028910939538
 20
280.6899000592289
 30
0.0
 10
176.4973556859542
 20
280.7804626655624
 30
0.0
 10
176.4896494274647
 20
280.9065416924198
 30
0.0
 10
176.482099451673
 20
281.0327729733
 30
0.0
 10
176.4745494758813
 20
281.1590042541798
 30
0.0
  0
SPLINE
  5
1E9
330
1D1
100
AcDbEntity
  8
Livello 2
 62
    18
420
        0
370
    25
100
AcDbSpline
210
0.0
220
0.0
230
1.0
 70
     8
 71
     3
 72
    14
 73
    10
 74
     0
 42
0.0000000001
 43
0.0000000001
 40
0.0
 40
0.0
 40
0.0
 40
0.0
 40
1.0
 40
1.0
 40
1.0
 40
2.0
 40
2.0
 40
2.0
 40
3.0
 40
3.0
 40
3.0
 40
3.0
 10
176.9078238513607
 20
280.7666754700048
 30
0.0
 10
176.9049462469295
 20
280.7999903636235
 30
0.0
 10
176.9020686424971
 20
280.8333052572424
 30
0.0
 10
176.8992132669005
 20
280.8666133627064
 30
0.0
 10
176.887450759926
 20
281.0038236209107
 30
0.0
 10
176.8760654688823
 20
281.1409186863813
 30
0.0
 10
176.8647839108433
 20
281.2779815219067
 30
0.0
 10
176.8535023057601
 20
281.4150449289946
 30
0.0
 10
176.8423244345492
 20
281.552076105868
 30
0.0
 10
176.8311465633371
 20
281.6891072827413
 30
0.0
  0
SPLINE
  5
1EA
330
1D1
100
AcDbEntity
  8
Livello 2
 62
    18
420
        0
370
    25
100
AcDbSpline
210
0.0
220
0.0
230
1.0
 70
     8
 71
     3
 72
    11
 73
     7
 74
     0
 42
0.0000000001
 43
0.0000000001
 40
0.0
 40
0.0
 40
0.0
 40
0.0
 40
1.0
 40
1.0
 40
1.0
 40
2.0
 40
2.0
 40
2.0
 40
2.0
 10
177.1369175413331
 20
281.7229798616507
 30
0.0
 10
177.1268777968419
 20
281.5378087847989
 30
0.0
 10
177.1168380523494
 20
281.3526377079467
 30
0.0
 10
177.106441309468
 20
281.1672068810296
 30
0.0
 10
177.1018088852087
 20
281.0845854032304
 30
0.0
 10
177.0971055867266
 20
281.0019123577367
 30
0.0
 10
177.0924022882458
 20
280.9192393122436
 30
0.0
  0
LWPOLYLINE
  5
1EB
330
1D1
100
AcDbEntity
  8
Livello 2
 62
    18
420
        0
370
    25
100
AcDbPolyline
 90
       18
 70
     0
 43
0.0
 10
12.53287713570905
 20
374.0854979159317
 10
13.36663802060919
 20
373.7557861064306
 10
14.35041627270931
 20
373.6222118079293
 10
15.35134718790932
 20
373.7028149696289
 10
16.23424949960926
 20
373.9867096878285
 10
16.8798823583093
 20
374.4355544078282
 10
17.20104946890914
 20
374.9887301630295
 10
17.15437543350915
 20
375.5715275024305
 10
16.74616383920916
 20
376.1052364158306
 10
16.03154592370925
 20
376.5177765573291
 10
15.10703479640927
 20
376.7534320946293
 10
14.09749080790912
 20
376.78037644173
 10
13.13925846790927
 20
376.5949706153293
 10
12.36175236380913
 20
376.2222546994313
 10
11.86997900310915
 20
375.7125660439316
 10
11.73035510330906
 20
375.1347409259304
 10
11.96173764570914
 20
374.5668178296303
 10
12.53287713570905
 20
374.0854979159317
  0
SPLINE
  5
1EC
330
1D1
100
AcDbEntity
  8
Livello 2
 62
    18
420
        0
370
    25
100
AcDbSpline
210
0.0
220
0.0
230
1.0
 70
     8
 71
     3
 72
    11
 73
     7
 74
     0
 42
0.0000000001
 43
0.0000000001
 40
0.0
 40
0.0
 40
0.0
 40
0.0
 40
1.0
 40
1.0
 40
1.0
 40
2.0
 40
2.0
 40
2.0
 40
2.0
 10
15.15635469716389
 20
375.1181898656914
 30
0.0
 10
15.14374437975808
 20
374.948843000007
 30
0.0
 10
15.13113406235227
 20
374.7794961343195
 30
0.0
 10
15.11795349263446
 20
374.6105345228564
 30
0.0
 10
15.11610421488641
 20
374.5868286470845
 30
0.0
 10
15.11424371170841
 20
374.5631303550472
 30
0.0
 10
15.11238320853073
 20
374.5394320630134
 30
0.0
  0
SPLINE
  5
1ED
330
1D1
100
AcDbEntity
  8
Livello 2
 62
    18
420
        0
370
    25
100
AcDbSpline
210
0.0
220
0.0
230
1.0
 70
     8
 71
     3
 72
    11
 73
     7
 74
     0
 42
0.0000000001
 43
0.0000000001
 40
0.0
 40
0.0
 40
0.0
 40
0.0
 40
1.0
 40
1.0
 40
1.0
 40
2.0
 40
2.0
 40
2.0
 40
2.0
 10
13.84246510004266
 20
374.539435954244
 30
0.0
 10
13.83736463729983
 20
374.6052169050464
 30
0.0
 10
13.83226417455699
 20
374.6709978558449
 30
0.0
 10
13.82722355791853
 20
374.7368191860114
 30
0.0
 10
13.81749607615049
 20
374.8638424919014
 30
0.0
 10
13.80799147351006
 20
374.991016178798
 30
0.0
 10
13.79848687086964
 20
375.1181898656914
 30
0.0
  0
SPLINE
  5
1EE
330
1D1
100
AcDbEntity
  8
Livello 2
 62
    18
420
        0
370
    25
100
AcDbSpline
210
0.0
220
0.0
230
1.0
 70
     8
 71
     3
 72
    11
 73
     7
 74
     0
 42
0.0000000001
 43
0.0000000001
 40
0.0
 40
0.0
 40
0.0
 40
0.0
 40
1.0
 40
1.0
 40
1.0
 40
2.0
 40
2.0
 40
2.0
 40
2.0
 10
14.37692994583161
 20
374.8124118707225
 30
0.0
 10
14.3680661400547
 20
374.9367809287219
 30
0.0
 10
14.35920233427747
 20
375.0611499867248
 30
0.0
 10
14.35048257599657
 20
375.1854499227553
 30
0.0
 10
14.34078490099972
 20
375.3236900370904
 30
0.0
 10
14.33126539497354
 20
375.4618446560836
 30
0.0
 10
14.32174588894769
 20
375.5999992750734
 30
0.0
  0
SPLINE
  5
1EF
330
1D1
100
AcDbEntity
  8
Livello 2
 62
    18
420
        0
370
    25
100
AcDbSpline
210
0.0
220
0.0
230
1.0
 70
     8
 71
     3
 72
    11
 73
     7
 74
     0
 42
0.0000000001
 43
0.0000000001
 40
0.0
 40
0.0
 40
0.0
 40
0.0
 40
1.0
 40
1.0
 40
1.0
 40
2.0
 40
2.0
 40
2.0
 40
2.0
 10
14.63309567908584
 20
375.5999992750734
 30
0.0
 10
14.62044780678439
 20
375.4160748584037
 30
0.0
 10
14.60779993448261
 20
375.2321504417375
 30
0.0
 10
14.59469447455641
 20
375.0480068452294
 30
0.0
 10
14.58917625703618
 20
374.9704708849344
 30
0.0
 10
14.58357691215117
 20
374.8928960654542
 30
0.0
 10
14.57797756726615
 20
374.8153212459744
 30
0.0
  0
LWPOLYLINE
  5
1F0
330
1D1
100
AcDbEntity
  8
Livello 2
 62
    18
420
        0
370
    25
100
AcDbPolyline
 90
       18
 70
     0
 43
0.0
 10
72.42482150220965
 20
452.2157542173304
 10
73.43451390420928
 20
452.240776717931
 10
74.36036603130933
 20
452.474671136929
 10
75.07733642350901
 20
452.8858487371299
 10
75.4885942565093
 20
453.4187777050314
 10
75.53859688100911
 20
454.00148303053
 10
75.22059116550909
 20
454.5552671305299
 10
74.57752554410916
 20
455.0053383937293
 10
73.6962495922091
 20
455.2909122021307
 10
72.69578451050915
 20
455.3734202304302
 10
71.71124865210908
 20
455.2417193122307
 10
70.87560904010901
 20
454.9135963863308
 10
70.30172343450868
 20
454.4333662720286
 10
70.06709826640907
 20
453.8658867073286
 10
70.20342096490903
 20
453.2877989519303
 10
70.69228039410915
 20
452.7771769606285
 10
71.46765337930917
 20
452.4029830626308
 10
72.42482150220965
 20
452.2157542173304
  0
SPLINE
  5
1F1
330
1D1
100
AcDbEntity
  8
Livello 2
 62
    18
420
        0
370
    25
100
AcDbSpline
210
0.0
220
0.0
230
1.0
 70
     8
 71
     3
 72
    11
 73
     7
 74
     0
 42
0.0000000001
 43
0.0000000001
 40
0.0
 40
0.0
 40
0.0
 40
0.0
 40
1.0
 40
1.0
 40
1.0
 40
2.0
 40
2.0
 40
2.0
 40
2.0
 10
72.37219642000505
 20
452.9490300048331
 30
0.0
 10
72.37137328836048
 20
453.0011891989907
 30
0.0
 10
72.3705501567159
 20
453.053348393145
 30
0.0
 10
72.36973537584039
 20
453.1055454010481
 30
0.0
 10
72.36778778787313
 20
453.2303130134674
 30
0.0
 10
72.36588791315175
 20
453.355296679835
 30
0.0
 10
72.36398803843067
 20
453.4802803462029
 30
0.0
  0
SPLINE
  5
1F2
330
1D1
100
AcDbEntity
  8
Livello 2
 62
    18
420
        0
370
    25
100
AcDbSpline
210
0.0
220
0.0
230
1.0
 70
     8
 71
     3
 72
    11
 73
     7
 74
     0
 42
0.0000000001
 43
0.0000000001
 40
0.0
 40
0.0
 40
0.0
 40
0.0
 40
1.0
 40
1.0
 40
1.0
 40
2.0
 40
2.0
 40
2.0
 40
2.0
 10
72.33701226414233
 20
453.4999947705105
 30
0.0
 10
72.33201334827295
 20
453.5485609073814
 30
0.0
 10
72.32701443240356
 20
453.5971270442522
 30
0.0
 10
72.32206132983177
 20
453.6456925912682
 30
0.0
 10
72.30841918387857
 20
453.7794548687665
 30
0.0
 10
72.29512457592085
 20
453.9132126716494
 30
0.0
 10
72.28182996796313
 20
454.0469704745319
 30
0.0
  0
SPLINE
  5
1F3
330
1D1
100
AcDbEntity
  8
Livello 2
 62
    18
420
        0
370
    25
100
AcDbSpline
210
0.0
220
0.0
230
1.0
 70
     8
 71
     3
 72
    14
 73
    10
 74
     0
 42
0.0000000001
 43
0.0000000001
 40
0.0
 40
0.0
 40
0.0
 40
0.0
 40
1.0
 40
1.0
 40
1.0
 40
2.0
 40
2.0
 40
2.0
 40
3.0
 40
3.0
 40
3.0
 40
3.0
 10
72.53090980007392
 20
454.1548135193347
 30
0.0
 10
72.52836339488019
 20
453.9679089535977
 30
0.0
 10
72.52581698968646
 20
453.7810043878571
 30
0.0
 10
72.52322955916802
 20
453.5939536720897
 30
0.0
 10
72.52064210978173
 20
453.4069015923145
 30
0.0
 10
72.5180136344717
 20
453.2197033603782
 30
0.0
 10
72.5152891561165
 20
453.0321664817637
 30
0.0
 10
72.51483006151097
 20
453.0005651408345
 30
0.0
 10
72.51436824092526
 20
452.9689541841293
 30
0.0
 10
72.51390642033955
 20
452.9373432274234
 30
0.0
  0
LINE
  5
1F4
330
1D1
100
AcDbEntity
  8
Livello 2
 62
    18
420
        0
370
    25
100
AcDbLine
 10
198.8708356250088
 20
262.8817088473304
 30
0.0
 11
198.4566360098094
 21
262.6425964990299
 31
0.0
  0
LINE
  5
1F5
330
1D1
100
AcDbEntity
  8
Livello 2
 62
    18
420
        0
370
    25
100
AcDbLine
 10
273.4677870317095
 20
274.25746727643
 30
0.0
 11
273.0535874165088
 21
274.4965796246298
 31
0.0
  0
LINE
  5
1F6
330
1D1
100
AcDbEntity
  8
Livello 2
 62
    18
420
        0
370
    25
100
AcDbLine
 10
-28.01751771649079
 20
354.1823978426307
 30
0.0
 11
212.1159451745097
 21
215.5563004551299
 31
0.0
  0
LINE
  5
1F7
330
1D1
100
AcDbEntity
  8
Livello 2
 62
    18
420
        0
370
    25
100
AcDbLine
 10
273.0536547367096
 20
234.14781869293
 30
0.0
 11
273.0536547367096
 21
235.1276676672306
 31
0.0
  0
LINE
  5
1F8
330
1D1
100
AcDbEntity
  8
Livello 2
 62
    18
420
        0
370
    25
100
AcDbLine
 10
273.8091921345088
 20
235.25361153943
 30
0.0
 11
311.2479577991094
 21
256.8665509133302
 31
0.0
  0
LINE
  5
1F9
330
1D1
100
AcDbEntity
  8
Livello 2
 62
    18
420
        0
370
    25
100
AcDbLine
 10
330.9742529871098
 20
269.64001444793
 30
0.0
 11
330.9742529871098
 21
306.5476591451302
 31
0.0
  0
LINE
  5
1FA
330
1D1
100
AcDbEntity
  8
Livello 2
 62
    18
420
        0
370
    25
100
AcDbLine
 10
-34.43111453219071
 20
403.3741389275294
 30
0.0
 11
-34.43111453219071
 21
363.5269473075307
 31
0.0
  0
LINE
  5
1FB
330
1D1
100
AcDbEntity
  8
Livello 2
 62
    18
420
        0
370
    25
100
AcDbLine
 10
-34.43111453219071
 20
362.5470983333305
 30
0.0
 11
-34.43111453219071
 21
361.5672493590284
 31
0.0
  0
LINE
  5
1FC
330
1D1
100
AcDbEntity
  8
Livello 2
 62
    18
420
        0
370
    25
100
AcDbLine
 10
331.1399384120093
 20
308.5073570937301
 30
0.0
 11
331.1399384120093
 21
309.4872060679303
 31
0.0
  0
LINE
  5
1FD
330
1D1
100
AcDbEntity
  8
Livello 2
 62
    18
420
        0
370
    25
100
AcDbLine
 10
310.4800358353091
 20
314.9979608227304
 30
0.0
 11
310.4800358353091
 21
314.6713444980299
 31
0.0
  0
LINE
  5
1FE
330
1D1
100
AcDbEntity
  8
Livello 2
 62
    18
420
        0
370
    25
100
AcDbLine
 10
315.9800358353089
 20
314.6713444980299
 30
0.0
 11
315.9800358353089
 21
314.9979608227304
 31
0.0
  0
LINE
  5
1FF
330
1D1
100
AcDbEntity
  8
Livello 2
 62
    18
420
        0
370
    25
100
AcDbLine
 10
174.3619804569085
 20
281.3211262101301
 30
0.0
 11
174.3619804569085
 21
280.9945098853298
 31
0.0
  0
LINE
  5
200
330
1D1
100
AcDbEntity
  8
Livello 2
 62
    18
420
        0
370
    25
100
AcDbLine
 10
179.8619804569097
 20
280.9945098853298
 30
0.0
 11
179.8619804569097
 21
281.3211262101301
 31
0.0
  0
LINE
  5
201
330
1D1
100
AcDbEntity
  8
Livello 2
 62
    18
420
        0
370
    25
100
AcDbLine
 10
11.72742078400913
 20
375.2080590697284
 30
0.0
 11
11.72742078400913
 21
374.8814427449307
 31
0.0
  0
LINE
  5
202
330
1D1
100
AcDbEntity
  8
Livello 2
 62
    18
420
        0
370
    25
100
AcDbLine
 10
17.22742078400932
 20
374.8814427449307
 30
0.0
 11
17.22742078400932
 21
375.2080590697284
 31
0.0
  0
LINE
  5
203
330
1D1
100
AcDbEntity
  8
Livello 2
 62
    18
420
        0
370
    25
100
AcDbLine
 10
70.06373023190917
 20
453.787339832629
 30
0.0
 11
70.06373023190917
 21
453.4607235078309
 31
0.0
  0
LINE
  5
204
330
1D1
100
AcDbEntity
  8
Livello 2
 62
    18
420
        0
370
    25
100
AcDbLine
 10
75.56373023190904
 20
453.4607235078309
 30
0.0
 11
75.56373023190904
 21
453.787339832629
 31
0.0
  0
LINE
  5
205
330
1D1
100
AcDbEntity
  8
Livello 2
 62
    18
420
        0
370
    25
100
AcDbLine
 10
211.6187913788097
 20
256.5023196106301
 30
0.0
 11
211.6187913788097
 21
216.6551279906304
 31
0.0
  0
LINE
  5
206
330
1D1
100
AcDbEntity
  8
Livello 2
 62
    18
420
        0
370
    25
100
AcDbLine
 10
240.1859053388086
 20
216.1652035035303
 30
0.0
 11
240.1859053388086
 21
256.5023196106301
 31
0.0
  0
LINE
  5
207
330
1D1
100
AcDbEntity
  8
Livello 2
 62
    18
420
        0
370
    25
100
AcDbLine
 10
273.8820818614089
 20
237.3323278593299
 30
0.0
 11
273.8820818614089
 21
235.6175921543298
 31
0.0
  0
LINE
  5
208
330
1D1
100
AcDbEntity
  8
Livello 2
 62
    18
420
        0
370
    25
100
AcDbLine
 10
273.8820818614089
 20
235.6175921543298
 30
0.0
 11
240.1859053388086
 21
216.1652035035303
 31
0.0
  0
LINE
  5
209
330
1D1
100
AcDbEntity
  8
Livello 2
 62
    18
420
        0
370
    25
100
AcDbLine
 10
261.3991087743097
 20
267.7685923137302
 30
0.0
 11
261.3991087743097
 21
255.0933595062304
 31
0.0
  0
LINE
  5
20A
330
1D1
100
AcDbEntity
  8
Livello 2
 62
    18
420
        0
370
    25
100
AcDbLine
 10
261.3991087743097
 20
255.0933595062304
 30
0.0
 11
273.8820818614089
 21
237.3323278593299
 31
0.0
  0
LINE
  5
20B
330
1D1
100
AcDbEntity
  8
Livello 2
 62
    18
420
        0
370
    25
100
AcDbLine
 10
211.6187913788097
 20
216.6551279906304
 30
0.0
 11
-28.51467151209062
 21
355.2812253781299
 31
0.0
  0
LINE
  5
20C
330
1D1
100
AcDbEntity
  8
Livello 2
 62
    18
420
        0
370
    25
100
AcDbLine
 10
-28.51467151209062
 20
355.2812253781299
 30
0.0
 11
-28.51467151209062
 21
395.1284169981287
 31
0.0
  0
LINE
  5
20D
330
1D1
100
AcDbEntity
  8
Livello 2
 62
    18
420
        0
370
    25
100
AcDbLine
 10
-28.51467151209062
 20
394.1485680239288
 30
0.0
 11
211.6187913788097
 21
255.5224706364299
 31
0.0
  0
LINE
  5
20E
330
1D1
100
AcDbEntity
  8
Livello 2
 62
    18
420
        0
370
    25
100
AcDbLine
 10
-14.93822131339082
 20
384.6779685266308
 30
0.0
 11
-14.93822131339082
 21
383.861427714731
 31
0.0
  0
LINE
  5
20F
330
1D1
100
AcDbEntity
  8
Livello 2
 62
    18
420
        0
370
    25
100
AcDbLine
 10
-14.93822131339082
 20
383.861427714731
 30
0.0
 11
-14.51395724459069
 21
383.6165052812297
 31
0.0
  0
LINE
  5
210
330
1D1
100
AcDbEntity
  8
Livello 2
 62
    18
420
        0
370
    25
100
AcDbLine
 10
-14.51395724459069
 20
383.6165052812297
 30
0.0
 11
-14.51395724459069
 21
384.1064297683313
 31
0.0
  0
LINE
  5
211
330
1D1
100
AcDbEntity
  8
Livello 2
 62
    18
420
        0
370
    25
100
AcDbLine
 10
-14.51395724459069
 20
384.1064297683313
 30
0.0
 11
197.6180771113088
 21
261.6452129949302
 31
0.0
  0
LINE
  5
212
330
1D1
100
AcDbEntity
  8
Livello 2
 62
    18
420
        0
370
    25
100
AcDbLine
 10
197.6180771113088
 20
261.6452129949302
 30
0.0
 11
197.6180771113088
 21
261.1552885078298
 31
0.0
  0
LINE
  5
213
330
1D1
100
AcDbEntity
  8
Livello 2
 62
    18
420
        0
370
    25
100
AcDbLine
 10
197.6180771113088
 20
261.1552885078298
 30
0.0
 11
198.0423411800085
 21
260.91036607423
 31
0.0
  0
LINE
  5
214
330
1D1
100
AcDbEntity
  8
Livello 2
 62
    18
420
        0
370
    25
100
AcDbLine
 10
198.0423411800085
 20
260.91036607423
 30
0.0
 11
198.0423411800085
 21
261.7269068861298
 31
0.0
  0
LINE
  5
215
330
1D1
100
AcDbEntity
  8
Livello 2
 62
    18
420
        0
370
    25
100
AcDbLine
 10
198.0423411800085
 20
261.4002109413302
 30
0.0
 11
197.6180771113088
 21
261.1552885078298
 31
0.0
  0
LINE
  5
216
330
1D1
100
AcDbEntity
  8
Livello 2
 62
    18
420
        0
370
    25
100
AcDbLine
 10
273.8820818614089
 20
273.3417776634299
 30
0.0
 11
273.8820818614089
 21
272.5252368515301
 31
0.0
  0
LINE
  5
217
330
1D1
100
AcDbEntity
  8
Livello 2
 62
    18
420
        0
370
    25
100
AcDbLine
 10
273.8820818614089
 20
272.5252368515301
 30
0.0
 11
274.3063459301087
 21
272.7701592851305
 31
0.0
  0
LINE
  5
218
330
1D1
100
AcDbEntity
  8
Livello 2
 62
    18
420
        0
370
    25
100
AcDbLine
 10
274.3063459301087
 20
272.7701592851305
 30
0.0
 11
274.3063459301087
 21
273.2600837722302
 31
0.0
  0
LINE
  5
219
330
1D1
100
AcDbEntity
  8
Livello 2
 62
    18
420
        0
370
    25
100
AcDbLine
 10
274.3063459301087
 20
273.2600837722302
 30
0.0
 11
324.4730336562085
 21
302.2206961525298
 31
0.0
  0
LINE
  5
21A
330
1D1
100
AcDbEntity
  8
Livello 2
 62
    18
420
        0
370
    25
100
AcDbLine
 10
324.4730336562085
 20
302.2206961525298
 30
0.0
 11
324.4730336562085
 21
291.63643616413
 31
0.0
  0
LINE
  5
21B
330
1D1
100
AcDbEntity
  8
Livello 2
 62
    18
420
        0
370
    25
100
AcDbLine
 10
324.4730336562085
 20
291.63643616413
 30
0.0
 11
311.7451115948093
 21
258.8315400502302
 31
0.0
  0
LINE
  5
21C
330
1D1
100
AcDbEntity
  8
Livello 2
 62
    18
420
        0
370
    25
100
AcDbLine
 10
311.7451115948093
 20
257.9653784488304
 30
0.0
 11
311.7451115948093
 21
258.8315400502302
 31
0.0
  0
LINE
  5
21D
330
1D1
100
AcDbEntity
  8
Livello 2
 62
    18
420
        0
370
    25
100
AcDbLine
 10
311.7451115948093
 20
257.9653784488304
 30
0.0
 11
274.3063459301087
 21
236.3524390750303
 31
0.0
  0
LINE
  5
21E
330
1D1
100
AcDbEntity
  8
Livello 2
 62
    18
420
        0
370
    25
100
AcDbLine
 10
274.3063459301087
 20
237.7085251635298
 30
0.0
 11
274.3063459301087
 21
236.3524390750303
 31
0.0
  0
LINE
  5
21F
330
1D1
100
AcDbEntity
  8
Livello 2
 62
    18
420
        0
370
    25
100
AcDbLine
 10
274.3063459301087
 20
237.7085251635298
 30
0.0
 11
261.8233728431095
 21
255.4695568104297
 31
0.0
  0
LINE
  5
220
330
1D1
100
AcDbEntity
  8
Livello 2
 62
    18
420
        0
370
    25
100
AcDbLine
 10
261.8233728431095
 20
255.4695568104297
 30
0.0
 11
261.8233728431095
 21
268.01351474733
 31
0.0
  0
LINE
  5
221
330
1D1
100
AcDbEntity
  8
Livello 2
 62
    18
420
        0
370
    25
100
AcDbLine
 10
261.3991087743097
 20
255.71447924393
 30
0.0
 11
261.8233728431095
 21
255.4695568104297
 31
0.0
  0
LINE
  5
222
330
1D1
100
AcDbEntity
  8
Livello 2
 62
    18
420
        0
370
    25
100
AcDbLine
 10
330.2713092619085
 20
267.6804757395302
 30
0.0
 11
329.8469762328098
 21
267.9254379830298
 31
0.0
  0
LINE
  5
223
330
1D1
100
AcDbEntity
  8
Livello 2
 62
    18
420
        0
370
    25
100
AcDbLine
 10
313.5835892259094
 20
258.0468600200302
 30
0.0
 11
330.2713092619085
 21
267.6804757395302
 31
0.0
  0
LINE
  5
224
330
1D1
100
AcDbEntity
  8
Livello 2
 62
    18
420
        0
370
    25
100
AcDbLine
 10
240.1859053388086
 20
215.6752790164302
 30
0.0
 11
272.4678682991087
 21
234.3112595553297
 31
0.0
  0
LINE
  5
225
330
1D1
100
AcDbEntity
  8
Livello 2
 62
    18
420
        0
370
    25
100
AcDbLine
 10
217.3165417633093
 20
214.3454172012298
 30
0.0
 11
220.0686248601092
 21
212.7566734468302
 31
0.0
  0
LINE
  5
226
330
1D1
100
AcDbEntity
  8
Livello 2
 62
    18
420
        0
370
    25
100
AcDbLine
 10
-33.57039244369076
 20
359.1793614418307
 30
0.0
 11
-32.51564146359097
 21
358.5704666616304
 31
0.0
  0
LINE
  5
227
330
1D1
100
AcDbEntity
  8
Livello 2
 62
    18
420
        0
370
    25
100
AcDbLine
 10
220.0686248601092
 20
212.7566734468302
 30
0.0
 11
220.0686248601092
 21
211.77682447253
 31
0.0
  0
LINE
  5
228
330
1D1
100
AcDbEntity
  8
Livello 2
 62
    18
420
        0
370
    25
100
AcDbLine
 10
240.1859053388086
 20
215.6752790164302
 30
0.0
 11
240.1859053388086
 21
214.6954300421302
 31
0.0
  0
LINE
  5
229
330
1D1
100
AcDbEntity
  8
Livello 2
 62
    18
420
        0
370
    25
100
AcDbLine
 10
213.3158476537087
 20
215.6751197763302
 30
0.0
 11
213.3158476537087
 21
215.7800694484299
 31
0.0
  0
LINE
  5
22A
330
1D1
100
AcDbEntity
  8
Livello 2
 62
    18
420
        0
370
    25
100
AcDbLine
 10
220.0686248601092
 20
211.77682447253
 30
0.0
 11
213.3158476537087
 21
215.6751197763302
 31
0.0
  0
LINE
  5
22B
330
1D1
100
AcDbEntity
  8
Livello 2
 62
    18
420
        0
370
    25
100
AcDbLine
 10
273.4578177927093
 20
238.19837003063
 30
0.0
 11
274.3063459301087
 21
237.7085251635298
 31
0.0
  0
LINE
  5
22C
330
1D1
100
AcDbEntity
  8
Livello 2
 62
    18
420
        0
370
    25
100
AcDbLine
 10
273.4578177927093
 20
238.19837003063
 30
0.0
 11
261.3991087743097
 21
255.3557500075299
 31
0.0
  0
LINE
  5
22D
330
1D1
100
AcDbEntity
  8
Livello 2
 62
    18
420
        0
370
    25
100
AcDbLine
 10
240.1859053388086
 20
216.1652035035303
 30
0.0
 11
239.755267918309
 21
216.4138051947298
 31
0.0
  0
LINE
  5
22E
330
1D1
100
AcDbEntity
  8
Livello 2
 62
    18
420
        0
370
    25
100
AcDbLine
 10
273.8820818614089
 20
273.0150817186302
 30
0.0
 11
274.3063459301087
 21
272.7701592851305
 31
0.0
  0
LINE
  5
22F
330
1D1
100
AcDbEntity
  8
Livello 2
 62
    18
420
        0
370
    25
100
AcDbLine
 10
272.4678682991087
 20
234.3112595553297
 30
0.0
 11
272.4678682991087
 21
233.3314105811299
 31
0.0
  0
LINE
  5
230
330
1D1
100
AcDbEntity
  8
Livello 2
 62
    18
420
        0
370
    25
100
AcDbLine
 10
240.1859053388086
 20
214.6954300421302
 30
0.0
 11
272.4678682991087
 21
233.3314105811299
 31
0.0
  0
LINE
  5
231
330
1D1
100
AcDbEntity
  8
Livello 2
 62
    18
420
        0
370
    25
100
AcDbLine
 10
273.4578177927093
 20
237.9359795293299
 30
0.0
 11
273.4578177927093
 21
238.19837003063
 31
0.0
  0
LINE
  5
232
330
1D1
100
AcDbEntity
  8
Livello 2
 62
    18
420
        0
370
    25
100
AcDbLine
 10
330.2713092619085
 20
268.1704002266303
 30
0.0
 11
312.169375663509
 21
257.7203763953301
 31
0.0
  0
LINE
  5
233
330
1D1
100
AcDbEntity
  8
Livello 2
 62
    18
420
        0
370
    25
100
AcDbLine
 10
312.169375663509
 20
257.7203763953301
 30
0.0
 11
312.169375663509
 21
258.9451876131301
 31
0.0
  0
LINE
  5
234
330
1D1
100
AcDbEntity
  8
Livello 2
 62
    18
420
        0
370
    25
100
AcDbLine
 10
312.169375663509
 20
258.9451876131301
 30
0.0
 11
324.8972977249096
 21
291.7500837270299
 31
0.0
  0
LINE
  5
235
330
1D1
100
AcDbEntity
  8
Livello 2
 62
    18
420
        0
370
    25
100
AcDbLine
 10
324.8972977249096
 20
291.7500837270299
 30
0.0
 11
324.8972977249096
 21
301.3224614494298
 31
0.0
  0
LINE
  5
236
330
1D1
100
AcDbEntity
  8
Livello 2
 62
    18
420
        0
370
    25
100
AcDbLine
 10
326.3115112873086
 20
303.7719511850302
 30
0.0
 11
330.2713092619085
 21
306.0578938981302
 31
0.0
  0
LINE
  5
237
330
1D1
100
AcDbEntity
  8
Livello 2
 62
    18
420
        0
370
    25
100
AcDbLine
 10
330.2713092619085
 20
306.0578938981302
 30
0.0
 11
330.2713092619085
 21
268.1704002266303
 31
0.0
  0
LINE
  5
238
330
1D1
100
AcDbEntity
  8
Livello 2
 62
    18
420
        0
370
    25
100
AcDbLine
 10
324.4730336562085
 20
291.99500616063
 30
0.0
 11
324.8972977249096
 21
291.7500837270299
 31
0.0
  0
LINE
  5
239
330
1D1
100
AcDbEntity
  8
Livello 2
 62
    18
420
        0
370
    25
100
AcDbLine
 10
312.169375663509
 20
258.9451876131301
 30
0.0
 11
311.8587743334087
 21
259.1244939443299
 31
0.0
  0
LINE
  5
23A
330
1D1
100
AcDbEntity
  8
Livello 2
 62
    18
420
        0
370
    25
100
AcDbLine
 10
240.1859053388086
 20
255.5224706364299
 30
0.0
 11
330.5541519744096
 21
307.6909489819303
 31
0.0
  0
LINE
  5
23B
330
1D1
100
AcDbEntity
  8
Livello 2
 62
    18
420
        0
370
    25
100
AcDbLine
 10
326.3115112873086
 20
304.26187567213
 30
0.0
 11
326.3115112873086
 21
305.2417246464299
 31
0.0
  0
LINE
  5
23C
330
1D1
100
AcDbEntity
  8
Livello 2
 62
    18
420
        0
370
    25
100
AcDbLine
 10
330.2713092619085
 20
306.5478183852302
 30
0.0
 11
330.2713092619085
 21
307.5276673595299
 31
0.0
  0
LINE
  5
23D
330
1D1
100
AcDbEntity
  8
Livello 2
 62
    18
420
        0
370
    25
100
AcDbLine
 10
330.2713092619085
 20
306.5478183852302
 30
0.0
 11
326.3115112873086
 21
304.26187567213
 31
0.0
  0
LINE
  5
23E
330
1D1
100
AcDbEntity
  8
Livello 2
 62
    18
420
        0
370
    25
100
AcDbLine
 10
330.2713092619085
 20
306.0578938981302
 30
0.0
 11
329.8469762328098
 21
306.3028561417302
 31
0.0
  0
LINE
  5
23F
330
1D1
100
AcDbEntity
  8
Livello 2
 62
    18
420
        0
370
    25
100
AcDbLine
 10
312.169375663509
 20
257.7203763953301
 30
0.0
 11
311.7451115934092
 21
257.9652988296303
 31
0.0
  0
LINE
  5
240
330
1D1
100
AcDbEntity
  8
Livello 2
 62
    18
420
        0
370
    25
100
AcDbLine
 10
313.5835892259094
 20
258.0468600200302
 30
0.0
 11
313.5835892259094
 21
257.0670110457303
 31
0.0
  0
LINE
  5
241
330
1D1
100
AcDbEntity
  8
Livello 2
 62
    18
420
        0
370
    25
100
AcDbLine
 10
330.2713092619085
 20
267.6804757395302
 30
0.0
 11
330.2713092619085
 21
266.7006267652299
 31
0.0
  0
LINE
  5
242
330
1D1
100
AcDbEntity
  8
Livello 2
 62
    18
420
        0
370
    25
100
AcDbLine
 10
313.5835892259094
 20
257.0670110457303
 30
0.0
 11
330.2713092619085
 21
266.7006267652299
 31
0.0
  0
LINE
  5
243
330
1D1
100
AcDbEntity
  8
Livello 2
 62
    18
420
        0
370
    25
100
AcDbLine
 10
-14.51395724459069
 20
384.1063501483308
 30
0.0
 11
-14.93822131339082
 21
383.861427714731
 31
0.0
  0
LINE
  5
244
330
1D1
100
AcDbEntity
  8
Livello 2
 62
    18
420
        0
370
    25
100
AcDbLine
 10
-33.57039244369076
 20
359.1793614418307
 30
0.0
 11
-33.57039244369076
 21
358.1995124675318
 31
0.0
  0
LINE
  5
245
330
1D1
100
AcDbEntity
  8
Livello 2
 62
    18
420
        0
370
    25
100
AcDbLine
 10
-33.57039244369076
 20
358.1995124675318
 30
0.0
 11
-28.51467148969084
 21
355.2809068850288
 31
0.0
  0
LINE
  5
246
330
1D1
100
AcDbEntity
  8
Livello 2
 62
    18
420
        0
370
    25
100
AcDbLine
 10
211.6187913788097
 20
256.5023196106301
 30
0.0
 11
-28.51467151209062
 21
395.1284169981287
 31
0.0
  0
LINE
  5
247
330
1D1
100
AcDbEntity
  8
Livello 2
 62
    18
420
        0
370
    25
100
AcDbLine
 10
-28.51467151209062
 20
411.6198608570291
 30
0.0
 11
61.85357512350908
 21
463.78833920243
 31
0.0
  0
LINE
  5
248
330
1D1
100
AcDbEntity
  8
Livello 2
 62
    18
420
        0
370
    25
100
AcDbLine
 10
64.68200224830916
 20
463.78833920243
 30
0.0
 11
330.5541519744096
 21
310.3036141798303
 31
0.0
  0
LINE
  5
249
330
1D1
100
AcDbEntity
  8
Livello 2
 62
    18
420
        0
370
    25
100
AcDbLine
 10
330.5541519744096
 20
308.6707979561301
 30
0.0
 11
240.1859053388086
 21
256.5023196106301
 31
0.0
  0
LINE
  5
24A
330
1D1
100
AcDbEntity
  8
Livello 2
 62
    18
420
        0
370
    25
100
AcDbLine
 10
330.5541519744096
 20
308.6707979561301
 30
0.0
 11
330.5541519744096
 21
307.6909489819303
 31
0.0
  0
LINE
  5
24B
330
1D1
100
AcDbEntity
  8
Livello 2
 62
    18
420
        0
370
    25
100
AcDbLine
 10
313.6416796519095
 20
314.6735809620305
 30
0.0
 11
314.4871130457095
 21
314.47947517833
 31
0.0
  0
LINE
  5
24C
330
1D1
100
AcDbEntity
  8
Livello 2
 62
    18
420
        0
370
    25
100
AcDbLine
 10
314.4871130457095
 20
314.47947517833
 30
0.0
 11
314.7605843021091
 21
314.8764264838301
 31
0.0
  0
LINE
  5
24D
330
1D1
100
AcDbEntity
  8
Livello 2
 62
    18
420
        0
370
    25
100
AcDbLine
 10
314.7605843021091
 20
314.8764264838301
 30
0.0
 11
313.9151509083091
 21
315.0705322675301
 31
0.0
  0
LINE
  5
24E
330
1D1
100
AcDbEntity
  8
Livello 2
 62
    18
420
        0
370
    25
100
AcDbLine
 10
313.7919391185094
 20
315.2355977398298
 30
0.0
 11
314.1281766300097
 21
315.7236560495298
 31
0.0
  0
LINE
  5
24F
330
1D1
100
AcDbEntity
  8
Livello 2
 62
    18
420
        0
370
    25
100
AcDbLine
 10
314.1281766300097
 20
315.7236560495298
 30
0.0
 11
313.4405622963094
 21
315.8815276454298
 31
0.0
  0
LINE
  5
250
330
1D1
100
AcDbEntity
  8
Livello 2
 62
    18
420
        0
370
    25
100
AcDbLine
 10
313.4405622963094
 20
315.8815276454298
 30
0.0
 11
313.1043247848091
 21
315.3934693357299
 31
0.0
  0
LINE
  5
251
330
1D1
100
AcDbEntity
  8
Livello 2
 62
    18
420
        0
370
    25
100
AcDbLine
 10
312.8183920188086
 20
315.3223406835301
 30
0.0
 11
311.9729586249098
 21
315.51644646723
 31
0.0
  0
LINE
  5
252
330
1D1
100
AcDbEntity
  8
Livello 2
 62
    18
420
        0
370
    25
100
AcDbLine
 10
311.9729586249098
 20
315.51644646723
 30
0.0
 11
311.6994873685089
 21
315.1194951617302
 31
0.0
  0
LINE
  5
253
330
1D1
100
AcDbEntity
  8
Livello 2
 62
    18
420
        0
370
    25
100
AcDbLine
 10
311.6994873685089
 20
315.1194951617302
 30
0.0
 11
312.544920762409
 21
314.9253893780296
 31
0.0
  0
LINE
  5
254
330
1D1
100
AcDbEntity
  8
Livello 2
 62
    18
420
        0
370
    25
100
AcDbLine
 10
312.6681325521086
 20
314.7603239057302
 30
0.0
 11
312.3318950407097
 21
314.2722655960299
 31
0.0
  0
LINE
  5
255
330
1D1
100
AcDbEntity
  8
Livello 2
 62
    18
420
        0
370
    25
100
AcDbLine
 10
313.0195093744086
 20
314.1143940001299
 30
0.0
 11
312.3318950407097
 21
314.2722655960299
 31
0.0
  0
LINE
  5
256
330
1D1
100
AcDbEntity
  8
Livello 2
 62
    18
420
        0
370
    25
100
AcDbLine
 10
313.0195093744086
 20
314.1143940001299
 30
0.0
 11
313.3557468858088
 21
314.6024523098301
 31
0.0
  0
LINE
  5
257
330
1D1
100
AcDbEntity
  8
Livello 2
 62
    18
420
        0
370
    25
100
AcDbLine
 10
313.9151509083091
 20
315.0705322675301
 30
0.0
 11
313.8713631871085
 21
314.6208471772302
 31
0.0
  0
LINE
  5
258
330
1D1
100
AcDbEntity
  8
Livello 2
 62
    18
420
        0
370
    25
100
AcDbLine
 10
312.2338035059087
 20
314.9968197939297
 30
0.0
 11
311.9729586249098
 21
315.51644646723
 31
0.0
  0
LINE
  5
259
330
1D1
100
AcDbEntity
  8
Livello 2
 62
    18
420
        0
370
    25
100
AcDbLine
 10
313.770534283709
 20
314.6439968108302
 30
0.0
 11
313.7919391185094
 21
315.2355977398298
 31
0.0
  0
LINE
  5
25A
330
1D1
100
AcDbEntity
  8
Livello 2
 62
    18
420
        0
370
    25
100
AcDbLine
 10
313.1797174153092
 20
314.3469405275299
 30
0.0
 11
313.4405622963094
 21
315.8815276454298
 31
0.0
  0
LINE
  5
25B
330
1D1
100
AcDbEntity
  8
Livello 2
 62
    18
420
        0
370
    25
100
AcDbLine
 10
177.3928143505094
 20
280.9531451374299
 30
0.0
 11
178.145885902909
 21
280.6583909836299
 31
0.0
  0
LINE
  5
25C
330
1D1
100
AcDbEntity
  8
Livello 2
 62
    18
420
        0
370
    25
100
AcDbLine
 10
178.145885902909
 20
280.6583909836299
 30
0.0
 11
178.561158375609
 21
281.0119761838302
 31
0.0
  0
LINE
  5
25D
330
1D1
100
AcDbEntity
  8
Livello 2
 62
    18
420
        0
370
    25
100
AcDbLine
 10
178.561158375609
 20
281.0119761838302
 30
0.0
 11
177.8080868232094
 21
281.3067303376298
 31
0.0
  0
LINE
  5
25E
330
1D1
100
AcDbEntity
  8
Livello 2
 62
    18
420
        0
370
    25
100
AcDbLine
 10
177.7494114380088
 20
281.4832481660298
 30
0.0
 11
178.2599959310089
 21
281.9179871195303
 31
0.0
  0
LINE
  5
25F
330
1D1
100
AcDbEntity
  8
Livello 2
 62
    18
420
        0
370
    25
100
AcDbLine
 10
178.2599959310089
 20
281.9179871195303
 30
0.0
 11
177.6475020344089
 21
282.1577188152298
 31
0.0
  0
LINE
  5
260
330
1D1
100
AcDbEntity
  8
Livello 2
 62
    18
420
        0
370
    25
100
AcDbLine
 10
177.6475020344089
 20
282.1577188152298
 30
0.0
 11
177.1369175413087
 21
281.7229798616299
 31
0.0
  0
LINE
  5
261
330
1D1
100
AcDbEntity
  8
Livello 2
 62
    18
420
        0
370
    25
100
AcDbLine
 10
176.8311465633088
 20
281.6891072827304
 30
0.0
 11
176.0780750109092
 21
281.9838614365306
 31
0.0
  0
LINE
  5
262
330
1D1
100
AcDbEntity
  8
Livello 2
 62
    18
420
        0
370
    25
100
AcDbLine
 10
176.0780750109092
 20
281.9838614365306
 30
0.0
 11
175.6628025382092
 21
281.6302762363303
 31
0.0
  0
LINE
  5
263
330
1D1
100
AcDbEntity
  8
Livello 2
 62
    18
420
        0
370
    25
100
AcDbLine
 10
175.6628025382092
 20
281.6302762363303
 30
0.0
 11
176.4158740906088
 21
281.3355220825298
 31
0.0
  0
LINE
  5
264
330
1D1
100
AcDbEntity
  8
Livello 2
 62
    18
420
        0
370
    25
100
AcDbLine
 10
176.4745494759096
 20
281.1590042542299
 30
0.0
 11
175.9639649828093
 21
280.72426530063
 31
0.0
  0
LINE
  5
265
330
1D1
100
AcDbEntity
  8
Livello 2
 62
    18
420
        0
370
    25
100
AcDbLine
 10
176.5764588795094
 20
280.4845336050298
 30
0.0
 11
175.9639649828093
 21
280.72426530063
 31
0.0
  0
LINE
  5
266
330
1D1
100
AcDbEntity
  8
Livello 2
 62
    18
420
        0
370
    25
100
AcDbLine
 10
176.5764588795094
 20
280.4845336050298
 30
0.0
 11
177.0870433725095
 21
280.9192725585303
 31
0.0
  0
LINE
  5
267
330
1D1
100
AcDbEntity
  8
Livello 2
 62
    18
420
        0
370
    25
100
AcDbLine
 10
177.8080868232094
 20
281.3067303376298
 30
0.0
 11
177.7642991020087
 21
280.8077450446304
 31
0.0
  0
LINE
  5
268
330
1D1
100
AcDbEntity
  8
Livello 2
 62
    18
420
        0
370
    25
100
AcDbLine
 10
176.4158740906088
 20
281.3355220825298
 30
0.0
 11
176.4204190456088
 21
281.2810703859302
 31
0.0
  0
LINE
  5
269
330
1D1
100
AcDbEntity
  8
Livello 2
 62
    18
420
        0
370
    25
100
AcDbLine
 10
176.6752091311095
 20
280.5686148523303
 30
0.0
 11
176.4826189217095
 21
281.0250661364301
 31
0.0
  0
LINE
  5
26A
330
1D1
100
AcDbEntity
  8
Livello 2
 62
    18
420
        0
370
    25
100
AcDbLine
 10
176.3389198919095
 20
281.3656421549302
 30
0.0
 11
176.0780750109092
 21
281.9838614365306
 31
0.0
  0
LINE
  5
26B
330
1D1
100
AcDbEntity
  8
Livello 2
 62
    18
420
        0
370
    25
100
AcDbLine
 10
177.7131892082088
 20
280.8277495893301
 30
0.0
 11
177.7494114380088
 21
281.4832481660298
 31
0.0
  0
LINE
  5
26C
330
1D1
100
AcDbEntity
  8
Livello 2
 62
    18
420
        0
370
    25
100
AcDbLine
 10
177.3239781972091
 20
280.9380911846298
 30
0.0
 11
177.6475020344089
 21
282.1577188152298
 31
0.0
  0
LINE
  5
26D
330
1D1
100
AcDbEntity
  8
Livello 2
 62
    18
420
        0
370
    25
100
AcDbLine
 10
14.63309567910927
 20
374.8161188643305
 30
0.0
 11
15.27645144670919
 21
374.444717485131
 31
0.0
  0
LINE
  5
26E
330
1D1
100
AcDbEntity
  8
Livello 2
 62
    18
420
        0
370
    25
100
AcDbLine
 10
15.27645144670919
 20
374.444717485131
 30
0.0
 11
15.79971046480906
 21
374.7467884865306
 31
0.0
  0
LINE
  5
26F
330
1D1
100
AcDbEntity
  8
Livello 2
 62
    18
420
        0
370
    25
100
AcDbLine
 10
15.79971046480906
 20
374.7467884865306
 30
0.0
 11
15.15635469720913
 21
375.1181898657302
 31
0.0
  0
LINE
  5
270
330
1D1
100
AcDbEntity
  8
Livello 2
 62
    18
420
        0
370
    25
100
AcDbLine
 10
15.15635469720913
 20
375.2979282737302
 30
0.0
 11
15.79971046480906
 21
375.6693296528309
 31
0.0
  0
LINE
  5
271
330
1D1
100
AcDbEntity
  8
Livello 2
 62
    18
420
        0
370
    25
100
AcDbLine
 10
15.79971046480906
 20
375.6693296528309
 30
0.0
 11
15.27645144670919
 21
375.9714006542306
 31
0.0
  0
LINE
  5
272
330
1D1
100
AcDbEntity
  8
Livello 2
 62
    18
420
        0
370
    25
100
AcDbLine
 10
15.27645144670919
 20
375.9714006542306
 30
0.0
 11
14.63309567910927
 21
375.599999275031
 31
0.0
  0
LINE
  5
273
330
1D1
100
AcDbEntity
  8
Livello 2
 62
    18
420
        0
370
    25
100
AcDbLine
 10
14.32174588890919
 20
375.599999275031
 30
0.0
 11
13.67839012130926
 21
375.9714006542306
 31
0.0
  0
LINE
  5
274
330
1D1
100
AcDbEntity
  8
Livello 2
 62
    18
420
        0
370
    25
100
AcDbLine
 10
13.67839012130926
 20
375.9714006542306
 30
0.0
 11
13.15513110320907
 21
375.6693296528309
 31
0.0
  0
LINE
  5
275
330
1D1
100
AcDbEntity
  8
Livello 2
 62
    18
420
        0
370
    25
100
AcDbLine
 10
13.15513110320907
 20
375.6693296528309
 30
0.0
 11
13.79848687090911
 21
375.2979282737302
 31
0.0
  0
LINE
  5
276
330
1D1
100
AcDbEntity
  8
Livello 2
 62
    18
420
        0
370
    25
100
AcDbLine
 10
13.79848687090911
 20
375.1181898657302
 30
0.0
 11
13.15513110320907
 21
374.7467884865306
 31
0.0
  0
LINE
  5
277
330
1D1
100
AcDbEntity
  8
Livello 2
 62
    18
420
        0
370
    25
100
AcDbLine
 10
13.67839012130926
 20
374.444717485131
 30
0.0
 11
13.15513110320907
 21
374.7467884865306
 31
0.0
  0
LINE
  5
278
330
1D1
100
AcDbEntity
  8
Livello 2
 62
    18
420
        0
370
    25
100
AcDbLine
 10
13.67839012130926
 20
374.444717485131
 30
0.0
 11
14.32174588890919
 21
374.8161188643305
 31
0.0
  0
LINE
  5
279
330
1D1
100
AcDbEntity
  8
Livello 2
 62
    18
420
        0
370
    25
100
AcDbLine
 10
13.79848687090911
 20
375.2979282737302
 30
0.0
 11
13.85173866850911
 21
374.5447894713309
 31
0.0
  0
LINE
  5
27A
330
1D1
100
AcDbEntity
  8
Livello 2
 62
    18
420
        0
370
    25
100
AcDbLine
 10
15.10353532620908
 20
374.5445398367303
 30
0.0
 11
15.15635469720913
 21
375.2979282737302
 31
0.0
  0
LINE
  5
27B
330
1D1
100
AcDbEntity
  8
Livello 2
 62
    18
420
        0
370
    25
100
AcDbLine
 10
14.8365703356091
 20
374.6986554454299
 30
0.0
 11
15.27645144670919
 21
375.9714006542306
 31
0.0
  0
LINE
  5
27C
330
1D1
100
AcDbEntity
  8
Livello 2
 62
    18
420
        0
370
    25
100
AcDbLine
 10
14.11827123240904
 20
374.6986554454299
 30
0.0
 11
13.67839012130926
 21
375.9714006542306
 31
0.0
  0
LINE
  5
27D
330
1D1
100
AcDbEntity
  8
Livello 2
 62
    18
420
        0
370
    25
100
AcDbLine
 10
73.34563049580953
 20
453.5277091907294
 30
0.0
 11
74.24632857060903
 21
453.4534289149305
 31
0.0
  0
LINE
  5
27E
330
1D1
100
AcDbEntity
  8
Livello 2
 62
    18
420
        0
370
    25
100
AcDbLine
 10
74.24632857060903
 20
453.4534289149305
 30
0.0
 11
74.35098037420916
 21
453.8763283168299
 31
0.0
  0
LINE
  5
27F
330
1D1
100
AcDbEntity
  8
Livello 2
 62
    18
420
        0
370
    25
100
AcDbLine
 10
74.35098037420916
 20
453.8763283168299
 30
0.0
 11
73.45028229950914
 21
453.9506085926288
 31
0.0
  0
LINE
  5
280
330
1D1
100
AcDbEntity
  8
Livello 2
 62
    18
420
        0
370
    25
100
AcDbLine
 10
73.26347242540904
 20
454.0943993190301
 30
0.0
 11
73.3921435789092
 21
454.6143612499299
 31
0.0
  0
LINE
  5
281
330
1D1
100
AcDbEntity
  8
Livello 2
 62
    18
420
        0
370
    25
100
AcDbLine
 10
73.3921435789092
 20
454.6143612499299
 30
0.0
 11
72.65958095360905
 21
454.674775450231
 31
0.0
  0
LINE
  5
282
330
1D1
100
AcDbEntity
  8
Livello 2
 62
    18
420
        0
370
    25
100
AcDbLine
 10
72.65958095360905
 20
454.674775450231
 30
0.0
 11
72.53090980010921
 21
454.1548135193312
 31
0.0
  0
LINE
  5
283
330
1D1
100
AcDbEntity
  8
Livello 2
 62
    18
420
        0
370
    25
100
AcDbLine
 10
72.28182996800902
 20
454.0469704745284
 30
0.0
 11
71.38113189320922
 21
454.1212507503309
 31
0.0
  0
LINE
  5
284
330
1D1
100
AcDbEntity
  8
Livello 2
 62
    18
420
        0
370
    25
100
AcDbLine
 10
71.38113189320922
 20
454.1212507503309
 30
0.0
 11
71.27648008960939
 21
453.6983513484314
 31
0.0
  0
LINE
  5
285
330
1D1
100
AcDbEntity
  8
Livello 2
 62
    18
420
        0
370
    25
100
AcDbLine
 10
71.27648008960939
 20
453.6983513484314
 30
0.0
 11
72.17717816430909
 21
453.624071072629
 31
0.0
  0
LINE
  5
286
330
1D1
100
AcDbEntity
  8
Livello 2
 62
    18
420
        0
370
    25
100
AcDbLine
 10
72.36398803840919
 20
453.4802803462311
 30
0.0
 11
72.23531688490902
 21
452.9603184153311
 31
0.0
  0
LINE
  5
287
330
1D1
100
AcDbEntity
  8
Livello 2
 62
    18
420
        0
370
    25
100
AcDbLine
 10
72.96787951020919
 20
452.8999042151289
 30
0.0
 11
72.23531688490902
 21
452.9603184153311
 31
0.0
  0
LINE
  5
288
330
1D1
100
AcDbEntity
  8
Livello 2
 62
    18
420
        0
370
    25
100
AcDbLine
 10
72.96787951020919
 20
452.8999042151289
 30
0.0
 11
73.09655066370933
 21
453.4198661459298
 31
0.0
  0
LINE
  5
289
330
1D1
100
AcDbEntity
  8
Livello 2
 62
    18
420
        0
370
    25
100
AcDbLine
 10
74.35098037420916
 20
453.8763283168299
 30
0.0
 11
74.09013549320923
 21
453.4663101069313
 31
0.0
  0
LINE
  5
28A
330
1D1
100
AcDbEntity
  8
Livello 2
 62
    18
420
        0
370
    25
100
AcDbLine
 10
71.64197677420915
 20
453.6682089563314
 30
0.0
 11
71.38113189320922
 21
454.1212507503309
 31
0.0
  0
LINE
  5
28B
330
1D1
100
AcDbEntity
  8
Livello 2
 62
    18
420
        0
370
    25
100
AcDbLine
 10
73.45028229950914
 20
453.9506085926288
 30
0.0
 11
73.40649457830918
 21
453.5226897497316
 31
0.0
  0
LINE
  5
28C
330
1D1
100
AcDbEntity
  8
Livello 2
 62
    18
420
        0
370
    25
100
AcDbLine
 10
73.25508324780908
 20
453.486418732529
 30
0.0
 11
73.26347242540904
 21
454.0943993190301
 31
0.0
  0
LINE
  5
28D
330
1D1
100
AcDbEntity
  8
Livello 2
 62
    18
420
        0
370
    25
100
AcDbLine
 10
72.3946616052093
 20
452.9471773083299
 30
0.0
 11
72.36834654130925
 21
453.1960994789305
 31
0.0
  0
LINE
  5
28E
330
1D1
100
AcDbEntity
  8
Livello 2
 62
    18
420
        0
370
    25
100
AcDbLine
 10
72.54817942920921
 20
452.9345167435301
 30
0.0
 11
72.65958095360905
 21
454.674775450231
 31
0.0
  0
LINE
  5
28F
330
1D1
100
AcDbEntity
  8
Livello 2
 62
    18
420
        0
370
    25
100
AcDbLine
 10
324.8972977249096
 20
301.3224614494298
 30
0.0
 11
324.4730336562085
 21
301.5673838829298
 31
0.0
  0
LINE
  5
290
330
1D1
100
AcDbEntity
  8
Livello 2
 62
    18
420
        0
370
    25
100
AcDbLine
 10
326.3115112873086
 20
303.7719511850302
 30
0.0
 11
325.8220167631093
 21
304.0545303589299
 31
0.0
  0
LINE
  5
291
330
1D1
100
AcDbEntity
  8
Livello 2
 62
    18
420
        0
370
    25
100
AcDbLine
 10
-14.35965743279078
 20
385.0119663455291
 30
0.0
 11
-14.93822131339082
 21
384.6779685266308
 31
0.0
  0
SPLINE
  5
292
330
1D1
100
AcDbEntity
  8
Livello 2
 62
    18
420
        0
370
    25
100
AcDbSpline
210
0.0
220
0.0
230
1.0
 70
     8
 71
     3
 72
     8
 73
     4
 74
     0
 42
0.0000000001
 43
0.0000000001
 40
0.0
 40
0.0
 40
0.0
 40
0.0
 40
1.0
 40
1.0
 40
1.0
 40
1.0
 10
211.6187913788585
 20
255.5224706364148
 30
0.0
 10
220.570618894939
 20
250.8607413628879
 30
0.0
 10
231.2340778226794
 20
250.8607413628879
 30
0.0
 10
240.1859053387599
 20
255.5224706364148
 30
0.0
  0
SPLINE
  5
293
330
1D1
100
AcDbEntity
  8
Livello 2
 62
    18
420
        0
370
    25
100
AcDbSpline
210
0.0
220
0.0
230
1.0
 70
     8
 71
     3
 72
     8
 73
     4
 74
     0
 42
0.0000000001
 43
0.0000000001
 40
0.0
 40
0.0
 40
0.0
 40
0.0
 40
1.0
 40
1.0
 40
1.0
 40
1.0
 10
211.6187913788585
 20
216.6551279906153
 30
0.0
 10
220.570618894939
 20
211.9933987170877
 30
0.0
 10
231.2340778226794
 20
211.9933987170877
 30
0.0
 10
240.1859053387599
 20
216.6551279906153
 30
0.0
  0
SPLINE
  5
294
330
1D1
100
AcDbEntity
  8
Livello 2
 62
    18
420
        0
370
    25
100
AcDbSpline
210
0.0
220
0.0
230
1.0
 70
     8
 71
     3
 72
     8
 73
     4
 74
     0
 42
0.0000000001
 43
0.0000000001
 40
0.0
 40
0.0
 40
0.0
 40
0.0
 40
1.0
 40
1.0
 40
1.0
 40
1.0
 10
-14.93822131335617
 20
384.6779685266554
 30
0.0
 10
-14.98362585120458
 20
385.6757487615517
 30
0.0
 10
-15.511034112471
 20
386.5892466637145
 30
0.0
 10
-16.35243487573023
 20
387.1274582622456
 30
0.0
  0
SPLINE
  5
295
330
1D1
100
AcDbEntity
  8
Livello 2
 62
    18
420
        0
370
    25
100
AcDbSpline
210
0.0
220
0.0
230
1.0
 70
     8
 71
     3
 72
    11
 73
     7
 74
     0
 42
0.0000000001
 43
0.0000000001
 40
0.0
 40
0.0
 40
0.0
 40
0.0
 40
1.0
 40
1.0
 40
1.0
 40
2.0
 40
2.0
 40
2.0
 40
2.0
 10
199.4565547424294
 20
262.5435803980778
 30
0.0
 10
199.0827578650821
 20
262.8484773832347
 30
0.0
 10
198.5325677819188
 20
262.7926229847969
 30
0.0
 10
198.2276707967619
 20
262.4188261074497
 30
0.0
 10
198.069809344957
 20
262.2252915019577
 30
0.0
 10
198.0023501925007
 20
261.9734359967898
 30
0.0
 10
198.042341180056
 20
261.7269068861282
 30
0.0
  0
SPLINE
  5
296
330
1D1
100
AcDbEntity
  8
Livello 2
 62
    18
420
        0
370
    25
100
AcDbSpline
210
0.0
220
0.0
230
1.0
 70
     8
 71
     3
 72
     8
 73
     4
 74
     0
 42
0.0000000001
 43
0.0000000001
 40
0.0
 40
0.0
 40
0.0
 40
0.0
 40
1.0
 40
1.0
 40
1.0
 40
1.0
 10
198.1151737797069
 20
263.3179431451397
 30
0.0
 10
197.8130691829144
 20
262.810328239741
 30
0.0
 10
197.6422229755123
 20
262.2354307995307
 30
0.0
 10
197.6180771113666
 20
261.6452129949617
 30
0.0
  0
SPLINE
  5
297
330
1D1
100
AcDbEntity
  8
Livello 2
 62
    18
420
        0
370
    25
100
AcDbSpline
210
0.0
220
0.0
230
1.0
 70
     8
 71
     3
 72
     8
 73
     4
 74
     0
 42
0.0000000001
 43
0.0000000001
 40
0.0
 40
0.0
 40
0.0
 40
0.0
 40
1.0
 40
1.0
 40
1.0
 40
1.0
 10
-14.01686057626999
 20
385.7791599184953
 30
0.0
 10
-14.31896517309484
 20
385.2715450131126
 30
0.0
 10
-14.4898113805002
 20
384.6966475728905
 30
0.0
 10
-14.51395724461123
 20
384.1064297683173
 30
0.0
  0
SPLINE
  5
298
330
1D1
100
AcDbEntity
  8
Livello 2
 62
    18
420
        0
370
    25
100
AcDbSpline
210
0.0
220
0.0
230
1.0
 70
     8
 71
     3
 72
    11
 73
     7
 74
     0
 42
0.0000000001
 43
0.0000000001
 40
0.0
 40
0.0
 40
0.0
 40
0.0
 40
1.0
 40
1.0
 40
1.0
 40
2.0
 40
2.0
 40
2.0
 40
2.0
 10
273.8820818614629
 20
273.3417776634279
 30
0.0
 10
273.9593213103561
 20
273.8179292617734
 30
0.0
 10
273.6359391187567
 20
274.2665413431893
 30
0.0
 10
273.1597875204105
 20
274.3437807920834
 30
0.0
 10
272.9132584097502
 20
274.3837717796384
 30
0.0
 10
272.6614029045813
 20
274.3163126271827
 30
0.0
 10
272.4678682990894
 20
274.1584511753779
 30
0.0
  0
SPLINE
  5
299
330
1D1
100
AcDbEntity
  8
Livello 2
 62
    18
420
        0
370
    25
100
AcDbSpline
210
0.0
220
0.0
230
1.0
 70
     8
 71
     3
 72
     8
 73
     4
 74
     0
 42
0.0000000001
 43
0.0000000001
 40
0.0
 40
0.0
 40
0.0
 40
0.0
 40
1.0
 40
1.0
 40
1.0
 40
1.0
 10
311.7327643847364
 20
257.7365405501991
 30
0.0
 10
312.3669768613768
 20
257.6439256083856
 30
0.0
 10
313.0142668443061
 20
257.7524538061011
 30
0.0
 10
313.5835892259145
 20
258.0468600199846
 30
0.0
  0
SPLINE
  5
29A
330
1D1
100
AcDbEntity
  8
Livello 2
 62
    18
420
        0
370
    25
100
AcDbSpline
210
0.0
220
0.0
230
1.0
 70
     8
 71
     3
 72
     8
 73
     4
 74
     0
 42
0.0000000001
 43
0.0000000001
 40
0.0
 40
0.0
 40
0.0
 40
0.0
 40
1.0
 40
1.0
 40
1.0
 40
1.0
 10
272.4678682990638
 20
234.311259555409
 30
0.0
 10
272.7948057042395
 20
234.459390616394
 30
0.0
 10
273.0180382996987
 20
234.7705089524454
 30
0.0
 10
273.0536547366904
 20
235.1276676672316
 30
0.0
  0
SPLINE
  5
29B
330
1D1
100
AcDbEntity
  8
Livello 2
 62
    18
420
        0
370
    25
100
AcDbSpline
210
0.0
220
0.0
230
1.0
 70
     8
 71
     3
 72
     8
 73
     4
 74
     0
 42
0.0000000001
 43
0.0000000001
 40
0.0
 40
0.0
 40
0.0
 40
0.0
 40
1.0
 40
1.0
 40
1.0
 40
1.0
 10
220.0686248601336
 20
212.7566734468623
 30
0.0
 10
226.9120899016339
 20
211.4527446447931
 30
0.0
 10
233.9951325937976
 20
212.4803491399805
 30
0.0
 10
240.1859053387547
 20
215.6752790164241
 30
0.0
  0
SPLINE
  5
29C
330
1D1
100
AcDbEntity
  8
Livello 2
 62
    18
420
        0
370
    25
100
AcDbSpline
210
0.0
220
0.0
230
1.0
 70
     8
 71
     3
 72
     8
 73
     4
 74
     0
 42
0.0000000001
 43
0.0000000001
 40
0.0
 40
0.0
 40
0.0
 40
0.0
 40
1.0
 40
1.0
 40
1.0
 40
1.0
 10
-34.4132790821219
 20
363.0370228207217
 30
0.0
 10
-34.50275658000317
 20
361.6973020668365
 30
0.0
 10
-34.21048884045344
 20
360.359672639766
 30
0.0
 10
-33.57039244376391
 20
359.1793614418378
 30
0.0
  0
SPLINE
  5
29D
330
1D1
100
AcDbEntity
  8
Livello 2
 62
    18
420
        0
370
    25
100
AcDbSpline
210
0.0
220
0.0
230
1.0
 70
     8
 71
     3
 72
     8
 73
     4
 74
     0
 42
0.0000000001
 43
0.0000000001
 40
0.0
 40
0.0
 40
0.0
 40
0.0
 40
1.0
 40
1.0
 40
1.0
 40
1.0
 10
220.0686248601336
 20
211.7768244725627
 30
0.0
 10
226.9120899016339
 20
210.4728956704931
 30
0.0
 10
233.9951325937976
 20
211.5005001656812
 30
0.0
 10
240.1859053387547
 20
214.6954300421242
 30
0.0
  0
SPLINE
  5
29E
330
1D1
100
AcDbEntity
  8
Livello 2
 62
    18
420
        0
370
    25
100
AcDbSpline
210
0.0
220
0.0
230
1.0
 70
     8
 71
     3
 72
    11
 73
     7
 74
     0
 42
0.0000000001
 43
0.0000000001
 40
0.0
 40
0.0
 40
0.0
 40
0.0
 40
1.0
 40
1.0
 40
1.0
 40
2.0
 40
2.0
 40
2.0
 40
2.0
 10
211.6187913787853
 20
216.6551279906929
 30
0.0
 10
211.5261040401135
 20
216.0837460726781
 30
0.0
 10
211.9141626700325
 20
215.5454115749789
 30
0.0
 10
212.4855445880473
 20
215.4527242363064
 30
0.0
 10
212.7813795208408
 20
215.4047350512402
 30
0.0
 10
213.0836061270429
 20
215.4856860341873
 30
0.0
 10
213.3158476536329
 20
215.6751197763527
 30
0.0
  0
SPLINE
  5
29F
330
1D1
100
AcDbEntity
  8
Livello 2
 62
    18
420
        0
370
    25
100
AcDbSpline
210
0.0
220
0.0
230
1.0
 70
     8
 71
     3
 72
     8
 73
     4
 74
     0
 42
0.0000000001
 43
0.0000000001
 40
0.0
 40
0.0
 40
0.0
 40
0.0
 40
1.0
 40
1.0
 40
1.0
 40
1.0
 10
-28.51467151213875
 20
355.2812253780946
 30
0.0
 10
-28.56208959474602
 20
354.8516385355282
 30
0.0
 10
-28.37149420759185
 20
354.430377627201
 30
0.0
 10
-28.01751771645518
 20
354.1823978425707
 30
0.0
  0
SPLINE
  5
2A0
330
1D1
100
AcDbEntity
  8
Livello 2
 62
    18
420
        0
370
    25
100
AcDbSpline
210
0.0
220
0.0
230
1.0
 70
     8
 71
     3
 72
     8
 73
     4
 74
     0
 42
0.0000000001
 43
0.0000000001
 40
0.0
 40
0.0
 40
0.0
 40
0.0
 40
1.0
 40
1.0
 40
1.0
 40
1.0
 10
273.3320749256403
 20
274.3358122075313
 30
0.0
 10
273.2968712782424
 20
274.4220464949831
 30
0.0
 10
273.2558175573827
 20
274.505775070905
 30
0.0
 10
273.209200497388
 20
274.5864131440454
 30
0.0
  0
SPLINE
  5
2A1
330
1D1
100
AcDbEntity
  8
Livello 2
 62
    18
420
        0
370
    25
100
AcDbSpline
210
0.0
220
0.0
230
1.0
 70
     8
 71
     3
 72
     8
 73
     4
 74
     0
 42
0.0000000001
 43
0.0000000001
 40
0.0
 40
0.0
 40
0.0
 40
0.0
 40
1.0
 40
1.0
 40
1.0
 40
1.0
 10
274.306345930142
 20
273.2600837721943
 30
0.0
 10
274.2822000660335
 20
273.8503015767678
 30
0.0
 10
274.1113538586288
 20
274.4251990169856
 30
0.0
 10
273.8092492618017
 20
274.9328139223663
 30
0.0
  0
SPLINE
  5
2A2
330
1D1
100
AcDbEntity
  8
Livello 2
 62
    18
420
        0
370
    25
100
AcDbSpline
210
0.0
220
0.0
230
1.0
 70
     8
 71
     3
 72
     8
 73
     4
 74
     0
 42
0.0000000001
 43
0.0000000001
 40
0.0
 40
0.0
 40
0.0
 40
0.0
 40
1.0
 40
1.0
 40
1.0
 40
1.0
 10
324.4730336562099
 20
302.2206961524939
 30
0.0
 10
324.4488877921167
 20
302.8109139570706
 30
0.0
 10
324.2780415847095
 20
303.3858113972934
 30
0.0
 10
323.9759369878695
 20
303.893426302669
 30
0.0
  0
SPLINE
  5
2A3
330
1D1
100
AcDbEntity
  8
Livello 2
 62
    18
420
        0
370
    25
100
AcDbSpline
210
0.0
220
0.0
230
1.0
 70
     8
 71
     3
 72
     8
 73
     4
 74
     0
 42
0.0000000001
 43
0.0000000001
 40
0.0
 40
0.0
 40
0.0
 40
0.0
 40
1.0
 40
1.0
 40
1.0
 40
1.0
 10
272.4678682990638
 20
233.3314105811093
 30
0.0
 10
272.7948057042395
 20
233.479541642094
 30
0.0
 10
273.0180382996987
 20
233.7906599781448
 30
0.0
 10
273.0536547366904
 20
234.147818692932
 30
0.0
  0
SPLINE
  5
2A4
330
1D1
100
AcDbEntity
  8
Livello 2
 62
    18
420
        0
370
    25
100
AcDbSpline
210
0.0
220
0.0
230
1.0
 70
     8
 71
     3
 72
     8
 73
     4
 74
     0
 42
0.0000000001
 43
0.0000000001
 40
0.0
 40
0.0
 40
0.0
 40
0.0
 40
1.0
 40
1.0
 40
1.0
 40
1.0
 10
311.2479577991607
 20
256.866550913363
 30
0.0
 10
311.601934290333
 20
257.1145306979656
 30
0.0
 10
311.7925296774978
 20
257.5357916063169
 30
0.0
 10
311.7451115948465
 20
257.9653784488898
 30
0.0
  0
SPLINE
  5
2A5
330
1D1
100
AcDbEntity
  8
Livello 2
 62
    18
420
        0
370
    25
100
AcDbSpline
210
0.0
220
0.0
230
1.0
 70
     8
 71
     3
 72
     8
 73
     4
 74
     0
 42
0.0000000001
 43
0.0000000001
 40
0.0
 40
0.0
 40
0.0
 40
0.0
 40
1.0
 40
1.0
 40
1.0
 40
1.0
 10
326.3115112872483
 20
303.7719511850462
 30
0.0
 10
325.4701105239884
 20
303.2337395865138
 30
0.0
 10
324.942702262723
 20
302.3202416843507
 30
0.0
 10
324.8972977248736
 20
301.3224614494536
 30
0.0
  0
SPLINE
  5
2A6
330
1D1
100
AcDbEntity
  8
Livello 2
 62
    18
420
        0
370
    25
100
AcDbSpline
210
0.0
220
0.0
230
1.0
 70
     8
 71
     3
 72
     8
 73
     4
 74
     0
 42
0.0000000001
 43
0.0000000001
 40
0.0
 40
0.0
 40
0.0
 40
0.0
 40
1.0
 40
1.0
 40
1.0
 40
1.0
 10
324.1666369044415
 20
304.0035150211987
 30
0.0
 10
324.889416966595
 20
303.8291739393778
 30
0.0
 10
325.6508052369869
 20
303.9208868950304
 30
0.0
 10
326.3115112873176
 20
304.2618756721386
 30
0.0
  0
SPLINE
  5
2A7
330
1D1
100
AcDbEntity
  8
Livello 2
 62
    18
420
        0
370
    25
100
AcDbSpline
210
0.0
220
0.0
230
1.0
 70
     8
 71
     3
 72
     8
 73
     4
 74
     0
 42
0.0000000001
 43
0.0000000001
 40
0.0
 40
0.0
 40
0.0
 40
0.0
 40
1.0
 40
1.0
 40
1.0
 40
1.0
 10
325.0221713027613
 20
303.9259610283766
 30
0.0
 10
324.7481809603832
 20
303.660015020285
 30
0.0
 10
324.5225986798808
 20
303.3483847408414
 30
0.0
 10
324.3555347646191
 20
303.0050370524066
 30
0.0
  0
SPLINE
  5
2A8
330
1D1
100
AcDbEntity
  8
Livello 2
 62
    18
420
        0
370
    25
100
AcDbSpline
210
0.0
220
0.0
230
1.0
 70
     8
 71
     3
 72
    11
 73
     7
 74
     0
 42
0.0000000001
 43
0.0000000001
 40
0.0
 40
0.0
 40
0.0
 40
0.0
 40
1.0
 40
1.0
 40
1.0
 40
2.0
 40
2.0
 40
2.0
 40
2.0
 10
330.27130926192
 20
305.5679694109428
 30
0.0
 10
330.8123769616765
 20
305.7733226131095
 30
0.0
 10
331.0845273339633
 20
306.3784163096834
 30
0.0
 10
330.8791741317965
 20
306.9194840094405
 30
0.0
 10
330.7728159796866
 20
307.1997180652279
 30
0.0
 10
330.5515433177068
 20
307.4209907272083
 30
0.0
 10
330.27130926192
 20
307.527348879317
 30
0.0
  0
SPLINE
  5
2A9
330
1D1
100
AcDbEntity
  8
Livello 2
 62
    18
420
        0
370
    25
100
AcDbSpline
210
0.0
220
0.0
230
1.0
 70
     8
 71
     3
 72
     8
 73
     4
 74
     0
 42
0.0000000001
 43
0.0000000001
 40
0.0
 40
0.0
 40
0.0
 40
0.0
 40
1.0
 40
1.0
 40
1.0
 40
1.0
 10
330.2713092619342
 20
268.6603247137849
 30
0.0
 10
330.6636341481458
 20
268.8380819869667
 30
0.0
 10
330.9315132626966
 20
269.2114239902282
 30
0.0
 10
330.9742529870866
 20
269.6400144479723
 30
0.0
  0
SPLINE
  5
2AA
330
1D1
100
AcDbEntity
  8
Livello 2
 62
    18
420
        0
370
    25
100
AcDbSpline
210
0.0
220
0.0
230
1.0
 70
     8
 71
     3
 72
     8
 73
     4
 74
     0
 42
0.0000000001
 43
0.0000000001
 40
0.0
 40
0.0
 40
0.0
 40
0.0
 40
1.0
 40
1.0
 40
1.0
 40
1.0
 10
311.2389948375766
 20
256.8613767057731
 30
0.0
 10
312.0171817823182
 20
256.6191453079964
 30
0.0
 10
312.8594487827489
 20
256.693016942069
 30
0.0
 10
313.583589225935
 20
257.0670110457342
 30
0.0
  0
SPLINE
  5
2AB
330
1D1
100
AcDbEntity
  8
Livello 2
 62
    18
420
        0
370
    25
100
AcDbSpline
210
0.0
220
0.0
230
1.0
 70
     8
 71
     3
 72
     8
 73
     4
 74
     0
 42
0.0000000001
 43
0.0000000001
 40
0.0
 40
0.0
 40
0.0
 40
0.0
 40
1.0
 40
1.0
 40
1.0
 40
1.0
 10
-34.43111453219329
 20
361.567249359046
 30
0.0
 10
-34.42564803137593
 20
360.3909533012497
 30
0.0
 10
-34.13000167952244
 20
359.234181400824
 30
0.0
 10
-33.5703924437652
 20
358.1995124675565
 30
0.0
  0
SPLINE
  5
2AC
330
1D1
100
AcDbEntity
  8
Livello 2
 62
    18
420
        0
370
    25
100
AcDbSpline
210
0.0
220
0.0
230
1.0
 70
     8
 71
     3
 72
     8
 73
     4
 74
     0
 42
0.0000000001
 43
0.0000000001
 40
0.0
 40
0.0
 40
0.0
 40
0.0
 40
1.0
 40
1.0
 40
1.0
 40
1.0
 10
211.6187913788585
 20
256.5023196107148
 30
0.0
 10
220.570618894939
 20
251.8405903371875
 30
0.0
 10
231.2340778226794
 20
251.8405903371875
 30
0.0
 10
240.1859053387599
 20
256.5023196107148
 30
0.0
  0
SPLINE
  5
2AD
330
1D1
100
AcDbEntity
  8
Livello 2
 62
    18
420
        0
370
    25
100
AcDbSpline
210
0.0
220
0.0
230
1.0
 70
     8
 71
     3
 72
     8
 73
     4
 74
     0
 42
0.0000000001
 43
0.0000000001
 40
0.0
 40
0.0
 40
0.0
 40
0.0
 40
1.0
 40
1.0
 40
1.0
 40
1.0
 10
64.68200224828253
 20
463.7883392024409
 30
0.0
 10
63.79517913036899
 20
464.2478347303245
 30
0.0
 10
62.74039824144957
 20
464.2478347303245
 30
0.0
 10
61.85357512353602
 20
463.7883392024409
 30
0.0
  0
SPLINE
  5
2AE
330
1D1
100
AcDbEntity
  8
Livello 2
 62
    18
420
        0
370
    25
100
AcDbSpline
210
0.0
220
0.0
230
1.0
 70
     8
 71
     3
 72
    11
 73
     7
 74
     0
 42
0.0000000001
 43
0.0000000001
 40
0.0
 40
0.0
 40
0.0
 40
0.0
 40
1.0
 40
1.0
 40
1.0
 40
2.0
 40
2.0
 40
2.0
 40
2.0
 10
330.5541519744019
 20
308.6707979561077
 30
0.0
 10
331.0050417241996
 20
308.8419256245803
 30
0.0
 10
331.2318337011038
 20
309.3461703717244
 30
0.0
 10
331.0607060326315
 20
309.7970601215221
 30
0.0
 10
330.972074239208
 20
310.0305885013453
 30
0.0
 10
330.7876803542236
 20
310.2149823863282
 30
0.0
 10
330.5541519744019
 20
310.303614179752
 30
0.0
  0
SPLINE
  5
2AF
330
1D1
100
AcDbEntity
  8
Livello 2
 62
    18
420
        0
370
    25
100
AcDbSpline
210
0.0
220
0.0
230
1.0
 70
     8
 71
     3
 72
     8
 73
     4
 74
     0
 42
0.0000000001
 43
0.0000000001
 40
0.0
 40
0.0
 40
0.0
 40
0.0
 40
1.0
 40
1.0
 40
1.0
 40
1.0
 10
330.5541519743634
 20
307.6909489819094
 30
0.0
 10
330.8810893795405
 20
307.8390800428937
 30
0.0
 10
331.1043219749996
 20
308.1501983789448
 30
0.0
 10
331.13993841199
 20
308.5073570937317
 30
0.0
  0
SPLINE
  5
2B0
330
1D1
100
AcDbEntity
  8
Livello 2
 62
    18
420
        0
370
    25
100
AcDbSpline
210
0.0
220
0.0
230
1.0
 70
     8
 71
     3
 72
     8
 73
     4
 74
     0
 42
0.0000000001
 43
0.0000000001
 40
0.0
 40
0.0
 40
0.0
 40
0.0
 40
1.0
 40
1.0
 40
1.0
 40
1.0
 10
313.3557468857986
 20
314.6024523097727
 30
0.0
 10
313.4540148922349
 20
314.6121004047807
 30
0.0
 10
313.5503444667363
 20
314.6360633555664
 30
0.0
 10
313.6416796518312
 20
314.6735809619648
 30
0.0
  0
SPLINE
  5
2B1
330
1D1
100
AcDbEntity
  8
Livello 2
 62
    18
420
        0
370
    25
100
AcDbSpline
210
0.0
220
0.0
230
1.0
 70
     8
 71
     3
 72
     8
 73
     4
 74
     0
 42
0.0000000001
 43
0.0000000001
 40
0.0
 40
0.0
 40
0.0
 40
0.0
 40
1.0
 40
1.0
 40
1.0
 40
1.0
 10
313.9151509083117
 20
315.0705322675535
 30
0.0
 10
313.8914530170286
 20
315.136606189342
 30
0.0
 10
313.8485458933134
 20
315.1940883885499
 30
0.0
 10
313.7919391185864
 20
315.235597739867
 30
0.0
  0
SPLINE
  5
2B2
330
1D1
100
AcDbEntity
  8
Livello 2
 62
    18
420
        0
370
    25
100
AcDbSpline
210
0.0
220
0.0
230
1.0
 70
     8
 71
     3
 72
     8
 73
     4
 74
     0
 42
0.0000000001
 43
0.0000000001
 40
0.0
 40
0.0
 40
0.0
 40
0.0
 40
1.0
 40
1.0
 40
1.0
 40
1.0
 10
313.1043247848219
 20
315.3934693357867
 30
0.0
 10
313.0060567783857
 20
315.3838212407783
 30
0.0
 10
312.909727203883
 20
315.3598582899927
 30
0.0
 10
312.8183920187868
 20
315.3223406835942
 30
0.0
  0
SPLINE
  5
2B3
330
1D1
100
AcDbEntity
  8
Livello 2
 62
    18
420
        0
370
    25
100
AcDbSpline
210
0.0
220
0.0
230
1.0
 70
     8
 71
     3
 72
     8
 73
     4
 74
     0
 42
0.0000000001
 43
0.0000000001
 40
0.0
 40
0.0
 40
0.0
 40
0.0
 40
1.0
 40
1.0
 40
1.0
 40
1.0
 10
312.5449207624064
 20
314.9253893780068
 30
0.0
 10
312.5686186536895
 20
314.8593154562187
 30
0.0
 10
312.6115257774047
 20
314.8018332570105
 30
0.0
 10
312.6681325521317
 20
314.7603239056926
 30
0.0
  0
SPLINE
  5
2B4
330
1D1
100
AcDbEntity
  8
Livello 2
 62
    18
420
        0
370
    25
100
AcDbSpline
210
0.0
220
0.0
230
1.0
 70
     8
 71
     3
 72
     8
 73
     4
 74
     0
 42
0.0000000001
 43
0.0000000001
 40
0.0
 40
0.0
 40
0.0
 40
0.0
 40
1.0
 40
1.0
 40
1.0
 40
1.0
 10
315.3067250880411
 20
313.6306464106074
 30
0.0
 10
315.6963122400359
 20
313.8374595901051
 30
0.0
 10
315.9510665425025
 20
314.2312188110801
 30
0.0
 10
315.9800358353423
 20
314.6713444979991
 30
0.0
  0
SPLINE
  5
2B5
330
1D1
100
AcDbEntity
  8
Livello 2
 62
    18
420
        0
370
    25
100
AcDbSpline
210
0.0
220
0.0
230
1.0
 70
     8
 71
     3
 72
     8
 73
     4
 74
     0
 42
0.0000000001
 43
0.0000000001
 40
0.0
 40
0.0
 40
0.0
 40
0.0
 40
1.0
 40
1.0
 40
1.0
 40
1.0
 10
310.4800358353386
 20
314.6713444980633
 30
0.0
 10
310.5072280478798
 20
314.2306319526249
 30
0.0
 10
310.762495779359
 20
313.836079154164
 30
0.0
 10
311.153346584162
 20
313.6306464096589
 30
0.0
  0
SPLINE
  5
2B6
330
1D1
100
AcDbEntity
  8
Livello 2
 62
    18
420
        0
370
    25
100
AcDbSpline
210
0.0
220
0.0
230
1.0
 70
     8
 71
     3
 72
     8
 73
     4
 74
     0
 42
0.0000000001
 43
0.0000000001
 40
0.0
 40
0.0
 40
0.0
 40
0.0
 40
1.0
 40
1.0
 40
1.0
 40
1.0
 10
177.0870433725609
 20
280.9192725585618
 30
0.0
 10
177.1900226970398
 20
280.9168497778947
 30
0.0
 10
177.2928621168234
 20
280.9282420832877
 30
0.0
 10
177.3928143505569
 20
280.9531451374722
 30
0.0
  0
SPLINE
  5
2B7
330
1D1
100
AcDbEntity
  8
Livello 2
 62
    18
420
        0
370
    25
100
AcDbSpline
210
0.0
220
0.0
230
1.0
 70
     8
 71
     3
 72
     8
 73
     4
 74
     0
 42
0.0000000001
 43
0.0000000001
 40
0.0
 40
0.0
 40
0.0
 40
0.0
 40
1.0
 40
1.0
 40
1.0
 40
1.0
 10
177.8080868231978
 20
281.3067303376889
 30
0.0
 10
177.8106759699602
 20
281.3707515410824
 30
0.0
 10
177.7898123982044
 20
281.4335170834153
 30
0.0
 10
177.7494114379433
 20
281.4832481659977
 30
0.0
  0
SPLINE
  5
2B8
330
1D1
100
AcDbEntity
  8
Livello 2
 62
    18
420
        0
370
    25
100
AcDbSpline
210
0.0
220
0.0
230
1.0
 70
     8
 71
     3
 72
     8
 73
     4
 74
     0
 42
0.0000000001
 43
0.0000000001
 40
0.0
 40
0.0
 40
0.0
 40
0.0
 40
1.0
 40
1.0
 40
1.0
 40
1.0
 10
177.1369175413587
 20
281.7229798616941
 30
0.0
 10
177.0339382168798
 20
281.7254026423618
 30
0.0
 10
176.9310987970961
 20
281.7140103369687
 30
0.0
 10
176.8311465633627
 20
281.6891072827843
 30
0.0
  0
SPLINE
  5
2B9
330
1D1
100
AcDbEntity
  8
Livello 2
 62
    18
420
        0
370
    25
100
AcDbSpline
210
0.0
220
0.0
230
1.0
 70
     8
 71
     3
 72
     8
 73
     4
 74
     0
 42
0.0000000001
 43
0.0000000001
 40
0.0
 40
0.0
 40
0.0
 40
0.0
 40
1.0
 40
1.0
 40
1.0
 40
1.0
 10
176.4158740906204
 20
281.3355220824714
 30
0.0
 10
176.4132849438567
 20
281.2715008790778
 30
0.0
 10
176.4341485156138
 20
281.2087353367449
 30
0.0
 10
176.4745494758749
 20
281.1590042541625
 30
0.0
  0
SPLINE
  5
2BA
330
1D1
100
AcDbEntity
  8
Livello 2
 62
    18
420
        0
370
    25
100
AcDbSpline
210
0.0
220
0.0
230
1.0
 70
     8
 71
     3
 72
     8
 73
     4
 74
     0
 42
0.0000000001
 43
0.0000000001
 40
0.0
 40
0.0
 40
0.0
 40
0.0
 40
1.0
 40
1.0
 40
1.0
 40
1.0
 10
179.1886696880153
 20
279.9538117835917
 30
0.0
 10
179.5622786330465
 20
280.1776000075888
 30
0.0
 10
179.8109785887192
 20
280.5620013623925
 30
0.0
 10
179.8619804569431
 20
280.9945098853658
 30
0.0
  0
SPLINE
  5
2BB
330
1D1
100
AcDbEntity
  8
Livello 2
 62
    18
420
        0
370
    25
100
AcDbSpline
210
0.0
220
0.0
230
1.0
 70
     8
 71
     3
 72
     8
 73
     4
 74
     0
 42
0.0000000001
 43
0.0000000001
 40
0.0
 40
0.0
 40
0.0
 40
0.0
 40
1.0
 40
1.0
 40
1.0
 40
1.0
 10
174.3619804568854
 20
280.9945098853593
 30
0.0
 10
174.4045783828557
 20
280.5590206330903
 30
0.0
 10
174.6555189905217
 20
280.1711560301157
 30
0.0
 10
175.0352912257568
 20
279.9538117836231
 30
0.0
  0
SPLINE
  5
2BC
330
1D1
100
AcDbEntity
  8
Livello 2
 62
    18
420
        0
370
    25
100
AcDbSpline
210
0.0
220
0.0
230
1.0
 70
     8
 71
     3
 72
     8
 73
     4
 74
     0
 42
0.0000000001
 43
0.0000000001
 40
0.0
 40
0.0
 40
0.0
 40
0.0
 40
1.0
 40
1.0
 40
1.0
 40
1.0
 10
14.32174588894063
 20
374.8161188642917
 30
0.0
 10
14.42508485658523
 20
374.8025379274723
 30
0.0
 10
14.5297567114329
 20
374.8025379274723
 30
0.0
 10
14.6330956790775
 20
374.8161188642917
 30
0.0
  0
SPLINE
  5
2BD
330
1D1
100
AcDbEntity
  8
Livello 2
 62
    18
420
        0
370
    25
100
AcDbSpline
210
0.0
220
0.0
230
1.0
 70
     8
 71
     3
 72
     8
 73
     4
 74
     0
 42
0.0000000001
 43
0.0000000001
 40
0.0
 40
0.0
 40
0.0
 40
0.0
 40
1.0
 40
1.0
 40
1.0
 40
1.0
 10
15.15635469713791
 20
375.1181898657267
 30
0.0
 10
15.17975012143839
 20
375.175818741363
 30
0.0
 10
15.17975012143839
 20
375.2402993980973
 30
0.0
 10
15.15635469713791
 20
375.2979282737337
 30
0.0
  0
SPLINE
  5
2BE
330
1D1
100
AcDbEntity
  8
Livello 2
 62
    18
420
        0
370
    25
100
AcDbSpline
210
0.0
220
0.0
230
1.0
 70
     8
 71
     3
 72
     8
 73
     4
 74
     0
 42
0.0000000001
 43
0.0000000001
 40
0.0
 40
0.0
 40
0.0
 40
0.0
 40
1.0
 40
1.0
 40
1.0
 40
1.0
 10
14.63309567907911
 20
375.5999992750628
 30
0.0
 10
14.52975671143355
 20
375.6135802118825
 30
0.0
 10
14.42508485658491
 20
375.6135802118825
 30
0.0
 10
14.32174588893935
 20
375.5999992750628
 30
0.0
  0
SPLINE
  5
2BF
330
1D1
100
AcDbEntity
  8
Livello 2
 62
    18
420
        0
370
    25
100
AcDbSpline
210
0.0
220
0.0
230
1.0
 70
     8
 71
     3
 72
     8
 73
     4
 74
     0
 42
0.0000000001
 43
0.0000000001
 40
0.0
 40
0.0
 40
0.0
 40
0.0
 40
1.0
 40
1.0
 40
1.0
 40
1.0
 10
13.79848687088055
 20
375.2979282737337
 30
0.0
 10
13.77509144657975
 20
375.2402993980973
 30
0.0
 10
13.77509144657975
 20
375.175818741363
 30
0.0
 10
13.79848687088055
 20
375.1181898657267
 30
0.0
  0
SPLINE
  5
2C0
330
1D1
100
AcDbEntity
  8
Livello 2
 62
    18
420
        0
370
    25
100
AcDbSpline
210
0.0
220
0.0
230
1.0
 70
     8
 71
     3
 72
     8
 73
     4
 74
     0
 42
0.0000000001
 43
0.0000000001
 40
0.0
 40
0.0
 40
0.0
 40
0.0
 40
1.0
 40
1.0
 40
1.0
 40
1.0
 10
16.55411023950291
 20
373.8407447923535
 30
0.0
 10
16.94102300057828
 20
374.0504607519924
 30
0.0
 10
17.19470767094998
 20
374.4425667708127
 30
0.0
 10
17.22742078404847
 20
374.8814427449095
 30
0.0
  0
SPLINE
  5
2C1
330
1D1
100
AcDbEntity
  8
Livello 2
 62
    18
420
        0
370
    25
100
AcDbSpline
210
0.0
220
0.0
230
1.0
 70
     8
 71
     3
 72
     8
 73
     4
 74
     0
 42
0.0000000001
 43
0.0000000001
 40
0.0
 40
0.0
 40
0.0
 40
0.0
 40
1.0
 40
1.0
 40
1.0
 40
1.0
 10
11.72742078400656
 20
374.8814427448985
 30
0.0
 10
11.75095319426608
 20
374.4395343919194
 30
0.0
 10
12.00728979384299
 20
374.0433294329025
 30
0.0
 10
12.40073131808601
 20
373.8407447993031
 30
0.0
  0
SPLINE
  5
2C2
330
1D1
100
AcDbEntity
  8
Livello 2
 62
    18
420
        0
370
    25
100
AcDbSpline
210
0.0
220
0.0
230
1.0
 70
     8
 71
     3
 72
     8
 73
     4
 74
     0
 42
0.0000000001
 43
0.0000000001
 40
0.0
 40
0.0
 40
0.0
 40
0.0
 40
1.0
 40
1.0
 40
1.0
 40
1.0
 10
73.09655066370837
 20
453.4198661459086
 30
0.0
 10
73.18515837289024
 20
453.4412310109503
 30
0.0
 10
73.26941915150675
 20
453.4777130450313
 30
0.0
 10
73.34563049581884
 20
453.5277091907118
 30
0.0
  0
SPLINE
  5
2C3
330
1D1
100
AcDbEntity
  8
Livello 2
 62
    18
420
        0
370
    25
100
AcDbSpline
210
0.0
220
0.0
230
1.0
 70
     8
 71
     3
 72
     8
 73
     4
 74
     0
 42
0.0000000001
 43
0.0000000001
 40
0.0
 40
0.0
 40
0.0
 40
0.0
 40
1.0
 40
1.0
 40
1.0
 40
1.0
 10
73.45028229947963
 20
453.9506085926041
 30
0.0
 10
73.39978708784359
 20
454.0121520689603
 30
0.0
 10
73.33588894967916
 20
454.0613355489471
 30
0.0
 10
73.26347242539653
 20
454.0943993190125
 30
0.0
  0
SPLINE
  5
2C4
330
1D1
100
AcDbEntity
  8
Livello 2
 62
    18
420
        0
370
    25
100
AcDbSpline
210
0.0
220
0.0
230
1.0
 70
     8
 71
     3
 72
     8
 73
     4
 74
     0
 42
0.0000000001
 43
0.0000000001
 40
0.0
 40
0.0
 40
0.0
 40
0.0
 40
1.0
 40
1.0
 40
1.0
 40
1.0
 10
72.53090980010985
 20
454.1548135193523
 30
0.0
 10
72.44230209092767
 20
454.1334486543075
 30
0.0
 10
72.35804131231116
 20
454.09696662023
 30
0.0
 10
72.28182996799874
 20
454.0469704745496
 30
0.0
  0
SPLINE
  5
2C5
330
1D1
100
AcDbEntity
  8
Livello 2
 62
    18
420
        0
370
    25
100
AcDbSpline
210
0.0
220
0.0
230
1.0
 70
     8
 71
     3
 72
     8
 73
     4
 74
     0
 42
0.0000000001
 43
0.0000000001
 40
0.0
 40
0.0
 40
0.0
 40
0.0
 40
1.0
 40
1.0
 40
1.0
 40
1.0
 10
72.17717816433861
 20
453.6240710726537
 30
0.0
 10
72.22767337597463
 20
453.5625275962975
 30
0.0
 10
72.29157151413907
 20
453.5133441163142
 30
0.0
 10
72.36398803842138
 20
453.4802803462485
 30
0.0
  0
SPLINE
  5
2C6
330
1D1
100
AcDbEntity
  8
Livello 2
 62
    18
420
        0
370
    25
100
AcDbSpline
210
0.0
220
0.0
230
1.0
 70
     8
 71
     3
 72
     8
 73
     4
 74
     0
 42
0.0000000001
 43
0.0000000001
 40
0.0
 40
0.0
 40
0.0
 40
0.0
 40
1.0
 40
1.0
 40
1.0
 40
1.0
 10
74.89041950727868
 20
452.4200254355176
 30
0.0
 10
75.27030245541022
 20
452.6372527283948
 30
0.0
 10
75.52128437653881
 20
453.0251812017443
 30
0.0
 10
75.56373023194692
 20
453.4607235078557
 30
0.0
  0
SPLINE
  5
2C7
330
1D1
100
AcDbEntity
  8
Livello 2
 62
    18
420
        0
370
    25
100
AcDbSpline
210
0.0
220
0.0
230
1.0
 70
     8
 71
     3
 72
     8
 73
     4
 74
     0
 42
0.0000000001
 43
0.0000000001
 40
0.0
 40
0.0
 40
0.0
 40
0.0
 40
1.0
 40
1.0
 40
1.0
 40
1.0
 10
70.06373023194351
 20
453.4607235079262
 30
0.0
 10
70.11488231073798
 20
453.0282691406752
 30
0.0
 10
70.36354297971877
 20
452.6439284936696
 30
0.0
 10
70.73704095350912
 20
452.4200254376483
 30
0.0
  0
LWPOLYLINE
  5
2C8
330
1D1
100
AcDbEntity
  8
Livello 2
 62
    18
420
        0
370
    25
100
AcDbPolyline
 90
       36
 70
     0
 43
0.0
 10
131.6958785411667
 20
160.7793900294768
 10
130.5443841241378
 20
161.3244581482925
 10
129.4298996851625
 20
161.6126564118605
 10
128.3882456710321
 20
161.634721890737
 10
127.4529016988695
 20
161.3899453823868
 10
126.6539304934526
 20
160.8861942051531
 10
126.0170116469526
 20
160.1396593364082
 10
125.5626162548796
 20
159.1743350209944
 10
125.3053489592269
 20
158.0212475768103
 10
125.2534785424281
 20
156.7174581828727
 10
125.408672162463
 20
155.3048717033066
 10
125.7659417685999
 20
153.8288898296489
 10
126.3138044217789
 20
152.3369518338341
 10
127.0346513654953
 20
150.8770098307034
 10
127.9053139859171
 20
149.4959875573358
 10
128.8978084699793
 20
148.238272205922
 10
129.9802352284241
 20
147.1442877828318
 10
131.1178041745657
 20
146.2491958474328
 10
132.2739529065138
 20
145.5817653911415
 10
133.4115218525957
 20
145.1634481778409
 10
134.4939486110836
 20
145.0076892670227
 10
135.4864430952873
 20
145.119494878287
 10
136.3571057157874
 20
145.4952714871884
 10
137.0779526595981
 20
146.1229413244294
 10
137.6258153128829
 20
146.9823305648985
 10
137.9830849191338
 20
148.0458177314493
 10
138.1382785392072
 20
149.2792214713214
 10
138.0864081225267
 20
150.6428991735718
 10
137.8291408269924
 20
152.0930211148256
 10
137.3747454351101
 20
153.5829791827083
 10
136.7378265886299
 20
155.0648848989264
 10
135.9388553833799
 20
156.491108594467
 10
135.0035114112859
 20
157.8158102662958
 10
133.9618573972091
 20
158.9964129126905
 10
132.8473729581853
 20
159.9949709932146
 10
131.6958785411667
 20
160.7793900294768
  0
LWPOLYLINE
  5
2C9
330
1D1
100
AcDbEntity
  8
Livello 2
 62
    18
420
        0
370
    25
100
AcDbPolyline
 90
       36
 70
     0
 43
0.0
 10
131.6958785410621
 20
158.5420157313197
 10
130.889819937561
 20
158.9235693369367
 10
130.1096687208298
 20
159.1253112528575
 10
129.3804995928303
 20
159.140757327824
 10
128.7257486493214
 20
158.9694111123555
 10
128.1664601242953
 20
158.6167798147756
 10
127.7206100112934
 20
158.0941972951673
 10
127.4025282996021
 20
157.418459785631
 10
127.2224383973033
 20
156.6112860458123
 10
127.1861285419453
 20
155.6986193037114
 10
127.2947657622282
 20
154.7097934195345
 10
127.5448583684429
 20
153.6765900706692
 10
127.9283681784786
 20
152.6322172629229
 10
128.4329688714539
 20
151.6102419977088
 10
129.0424421659476
 20
150.6435114008317
 10
129.7371990887559
 20
149.7630969891161
 10
130.4949095807924
 20
148.9972960062475
 10
131.291220203365
 20
148.3707219258325
 10
132.1005368778811
 20
147.9035133544524
 10
132.8968475004119
 20
147.6106867599097
 10
133.6545579924786
 20
147.5016538299357
 10
134.3493149153857
 20
147.5799189726469
 10
134.9587882099346
 20
147.8429666818842
 10
135.463388902976
 20
148.2823423879097
 10
135.8468987130858
 20
148.8839241939453
 10
136.0969913193801
 20
149.6283767658676
 10
136.2056285396903
 20
150.4917727853464
 10
136.1693186844151
 20
151.4463619939833
 10
135.9892287821991
 20
152.461463109184
 10
135.6711470706408
 20
153.5044499458653
 10
135.2252969576534
 20
154.5418000488878
 10
134.6660084327437
 20
155.5401721324223
 10
134.0112574892831
 20
156.4674776962698
 10
133.2820883613211
 20
157.2939123766029
 10
132.5019371445559
 20
157.9929138828187
 10
131.6958785410621
 20
158.5420157313197
  0
LWPOLYLINE
  5
2CA
330
1D1
100
AcDbEntity
  8
Livello 2
 62
    18
420
        0
370
    25
100
AcDbPolyline
 90
       17
 70
     0
 43
0.0
 10
128.0734100111956
 20
158.4469972950699
 10
127.7553282995042
 20
157.7712597855335
 10
127.5752383972055
 20
156.9640860457148
 10
127.5389285418475
 20
156.0514193036139
 10
127.6475657621304
 20
155.062593419437
 10
127.8976583683451
 20
154.0293900705717
 10
128.2811681783808
 20
152.9850172628254
 10
128.7857688713561
 20
151.9630419976113
 10
129.3952421658498
 20
150.9963114007342
 10
130.0899990886581
 20
150.1158969890186
 10
130.8477095806943
 20
149.35009600615
 10
131.6440202032675
 20
148.7235219257351
 10
132.4533368777832
 20
148.2563133543549
 10
133.2496475003141
 20
147.9634867598122
 10
134.0073579923808
 20
147.8544538298382
 10
134.7021149152879
 20
147.9327189725494
 10
135.3115882098368
 20
148.1957666817866
  0
LWPOLYLINE
  5
2CB
330
1D1
100
AcDbEntity
  8
Livello 2
 62
    18
420
        0
370
    25
100
AcDbPolyline
 90
       36
 70
     0
 43
0.0
 10
132.0486785408421
 20
156.2842659460344
 10
131.6456715812006
 20
156.4750321730457
 10
131.2556175968498
 20
156.5758975391797
 10
130.8910532437581
 20
156.5836201485329
 10
130.5636959202088
 20
156.4979517901252
 10
130.2840671598999
 20
156.3216459154723
 10
130.061154461349
 20
156.0603691404653
 10
129.902122422004
 20
155.7225191156019
 10
129.8120824625364
 20
155.3189546187106
 10
129.793928541284
 20
154.862646544704
 10
129.8482441402491
 20
154.3682610106172
 10
129.9732835113591
 20
153.8516879742283
 10
130.1650277863583
 20
153.3295305179908
 10
130.4173141464637
 20
152.8185712122112
 10
130.7220339004989
 20
152.3352327093428
 10
131.0693931048231
 20
151.8950499065679
 10
131.4482273488321
 20
151.5121706413927
 10
131.8463605882016
 20
151.1989009683915
 10
132.2509964930445
 20
150.9653096326597
 10
132.6491297323929
 20
150.8189044518747
 10
133.0279639764169
 20
150.7643910090319
 10
133.3753231807906
 20
150.8035214110561
 10
133.6800429348534
 20
150.9350379745915
 10
133.9323292949915
 20
151.1547136491101
 10
134.1240735700283
 20
151.4554878776499
 10
134.2491129411774
 20
151.8276935290815
 10
134.3034285401565
 20
152.259367607449
 10
134.2852746189453
 20
152.7366357527286
 10
134.1952346595193
 20
153.2441581740377
 10
134.0362026202408
 20
153.7656226831587
 10
133.8132899216972
 20
154.2842689816873
 10
133.5336611614464
 20
154.783427350854
 10
133.2063038379209
 20
155.247054429979
 10
132.8417394848478
 20
155.6602488632587
 10
132.4516855004803
 20
156.0097302416367
 10
132.0486785408421
 20
156.2842659460344
  0
ENDBLK
  5
1D4
330
1D1
100
AcDbEntity
  8
0
100
AcDbBlockEnd
  0
ENDSEC
  0
SECTION
  2
ENTITIES
  0
LWPOLYLINE
  5
78
330
70
100
AcDbEntity
  8
0
 62
    18
420
        0
370
    25
100
AcDbPolyline
 90
        3
 70
     0
 43
0.0
 10
201.8264923812094
 20
219.3086304736806
 10
201.9549862483093
 20
219.5045622557807
 10
201.9820381420097
 20
219.5402068417806
  0
LWPOLYLINE
  5
79
330
70
100
AcDbEntity
  8
0
 62
    18
420
        0
370
    25
100
AcDbPolyline
 90
        3
 70
     0
 43
0.0
 10
141.8273520757094
 20
249.9047230656804
 10
141.9965908912095
 20
249.5519944512805
 10
142.0416447107092
 20
249.4769119141809
  0
LWPOLYLINE
  5
7A
330
70
100
AcDbEntity
  8
0
 62
    18
420
        0
370
    25
100
AcDbPolyline
 90
        3
 70
     0
 43
0.0
 10
317.4726765224094
 20
219.8949417417809
 10
317.4455028054094
 20
220.1978531086805
 10
317.3882081012096
 20
220.4021203703806
  0
LWPOLYLINE
  5
7B
330
70
100
AcDbEntity
  8
0
 62
    18
420
        0
370
    25
100
AcDbPolyline
 90
        3
 70
     0
 43
0.0
 10
317.4726765224094
 20
121.0935035035806
 10
317.4455028054094
 20
121.3964148704802
 10
317.3882081012096
 20
121.6006821321806
  0
LWPOLYLINE
  5
7C
330
70
100
AcDbEntity
  8
0
 62
    18
420
        0
370
    25
100
AcDbPolyline
 90
        3
 70
     0
 43
0.0
 10
-15.62177405519062
 20
344.8388427017805
 10
-15.58706801099054
 20
344.8469228613806
 10
-15.30771237689048
 20
344.9290769486806
  0
LWPOLYLINE
  5
7D
330
70
100
AcDbEntity
  8
0
 62
    18
420
        0
370
    25
100
AcDbPolyline
 90
        3
 70
     0
 43
0.0
 10
312.4621876150091
 20
54.03260180228034
 10
312.2479638407091
 20
54.11193386698067
 10
312.0784254767092
 20
54.12613640958028
  0
LWPOLYLINE
  5
7E
330
70
100
AcDbEntity
  8
0
 62
    18
420
        0
370
    25
100
AcDbPolyline
 90
        7
 70
     0
 43
0.0
 10
-34.37964724729072
 20
360.3796874957816
 10
-34.37964724729072
 20
358.7158848481792
 10
-33.96948122479053
 20
357.0690173125799
 10
-33.15749897719052
 20
355.4726103627796
 10
-31.9602301213905
 20
353.9591622405809
 10
-30.40204759889054
 20
352.5594823852804
 10
-28.51467151219073
 20
351.3020642425806
  0
LWPOLYLINE
  5
7F
330
70
100
AcDbEntity
  8
0
 62
    18
420
        0
370
    25
100
AcDbPolyline
 90
        6
 70
     0
 43
0.0
 10
-27.66614337469058
 20
351.7919091096804
 10
-29.44139810979044
 20
352.97462914488
 10
-30.90701533399047
 20
354.2911597017804
 10
-32.03315930719075
 20
355.7147000147818
 10
-32.79690498559067
 20
357.2162709081801
 10
-32.95302564247578
 20
357.8431147404994
  0
LWPOLYLINE
  5
80
330
70
100
AcDbEntity
  8
0
 62
    18
420
        0
370
    25
100
AcDbPolyline
 90
        7
 70
     0
 43
0.0
 10
-34.43111453219071
 20
150.5133383292807
 10
-34.37964724729072
 20
149.6814370054805
 10
-33.96948122479053
 20
148.0345694697804
 10
-33.15749897719052
 20
146.4381625199804
 10
-31.9602301213905
 20
144.9247143977807
 10
-30.40204759889054
 20
143.5250345425807
 10
-28.51467151219073
 20
142.2676163998805
  0
LWPOLYLINE
  5
81
330
70
100
AcDbEntity
  8
0
 62
    18
420
        0
370
    25
100
AcDbPolyline
 90
       17
 70
     0
 43
0.0
 10
306.4418107359097
 20
203.9735902105805
 10
306.3072474890093
 20
203.1147169002806
 10
305.9240437829091
 20
202.2312358478805
 10
305.3505389081095
 20
201.4576490349804
 10
304.6740437829096
 20
200.9117280410808
 10
303.9975486578097
 20
200.6765843888802
 10
303.4240437829093
 20
200.7880165676808
 10
303.0408400768091
 20
201.2290600385805
 10
302.9062768300095
 20
201.9325699309805
 10
303.0408400768091
 20
202.7914432412804
 10
303.4240437829093
 20
203.6749242936805
 10
303.997548657809
 20
204.4485111066807
 10
304.6740437829096
 20
204.9944321004809
 10
305.3505389081095
 20
205.2295757527809
 10
305.9240437829091
 20
205.1181435738808
 10
306.3072474890093
 20
204.6771001030807
 10
306.441810735909
 20
203.9735902105805
  0
LWPOLYLINE
  5
82
330
70
100
AcDbEntity
  8
0
 62
    18
420
        0
370
    25
100
AcDbPolyline
 90
       17
 70
     0
 43
0.0
 10
306.4418107359097
 20
187.6427739728806
 10
306.3072474890093
 20
186.7839006625807
 10
305.9240437829091
 20
185.9004196101807
 10
305.3505389081095
 20
185.1268327972805
 10
304.6740437829096
 20
184.5809118033803
 10
303.9975486578097
 20
184.3457681510803
 10
303.4240437829093
 20
184.4572003299803
 10
303.0408400768091
 20
184.8982438007805
 10
302.9062768300095
 20
185.6017536932807
 10
303.0408400768091
 20
186.4606270035805
 10
303.4240437829093
 20
187.3441080559806
 10
303.997548657809
 20
188.1176948688807
 10
304.6740437829096
 20
188.6636158627804
 10
305.3505389081095
 20
188.8987595150804
 10
305.9240437829091
 20
188.7873273361803
 10
306.3072474890093
 20
188.3462838653808
 10
306.441810735909
 20
187.6427739728806
  0
LWPOLYLINE
  5
83
330
70
100
AcDbEntity
  8
0
 62
    18
420
        0
370
    25
100
AcDbPolyline
 90
       17
 70
     0
 43
0.0
 10
306.4418107359097
 20
105.1721519723802
 10
306.3072474890093
 20
104.3132786620803
 10
305.9240437829091
 20
103.4297976096802
 10
305.3505389081095
 20
102.6562107967808
 10
304.6740437829096
 20
102.1102898028805
 10
303.9975486578097
 20
101.8751461506806
 10
303.4240437829093
 20
101.9865783294805
 10
303.0408400768091
 20
102.4276218003808
 10
302.9062768300095
 20
103.1311316928804
 10
303.0408400768091
 20
103.9900050031802
 10
303.4240437829093
 20
104.8734860554802
 10
303.997548657809
 20
105.6470728684804
 10
304.6740437829096
 20
106.1929938623807
 10
305.3505389081095
 20
106.4281375145806
 10
305.9240437829091
 20
106.3167053356805
 10
306.3072474890093
 20
105.8756618648804
 10
306.441810735909
 20
105.1721519723802
  0
LWPOLYLINE
  5
84
330
70
100
AcDbEntity
  8
0
 62
    18
420
        0
370
    25
100
AcDbPolyline
 90
       17
 70
     0
 43
0.0
 10
306.4418107359097
 20
88.84133573468037
 10
306.3072474890093
 20
87.98246242438052
 10
305.9240437829091
 20
87.09898137198042
 10
305.3505389081095
 20
86.3253945590803
 10
304.6740437829096
 20
85.77947356518068
 10
303.9975486578097
 20
85.54432991298078
 10
303.4240437829093
 20
85.65576209178074
 10
303.0408400768091
 20
86.09680556268036
 10
302.9062768300095
 20
86.80031545508043
 10
303.0408400768091
 20
87.6591887654804
 10
303.4240437829093
 20
88.54266981778039
 10
303.997548657809
 20
89.3162566307806
 10
304.6740437829096
 20
89.86217762458078
 10
305.3505389081095
 20
90.09732127688078
 10
305.9240437829091
 20
89.98588909798073
 10
306.3072474890093
 20
89.54484562718056
 10
306.441810735909
 20
88.84133573468037
  0
LWPOLYLINE
  5
85
330
70
100
AcDbEntity
  8
0
 62
    18
420
        0
370
    25
100
AcDbPolyline
 90
       17
 70
     0
 43
0.0
 10
271.5107357453094
 20
126.2421826105803
 10
271.3761724984091
 20
125.3833093002804
 10
270.9929687923095
 20
124.4998282479804
 10
270.4194639175092
 20
123.7262414349802
 10
269.7429687923092
 20
123.1803204410806
 10
269.0664736671093
 20
122.9451767888807
 10
268.4929687923091
 20
123.0566089676807
 10
268.1097650862095
 20
123.4976524385803
 10
267.9752018394092
 20
124.2011623310805
 10
268.1097650862095
 20
125.0600356413803
 10
268.4929687923091
 20
125.9435166936803
 10
269.0664736671093
 20
126.7171035066805
 10
269.7429687923092
 20
127.2630245005808
 10
270.4194639175092
 20
127.4981681527807
 10
270.9929687923095
 20
127.3867359738807
 10
271.3761724984091
 20
126.9456925030805
 10
271.5107357453094
 20
126.2421826105803
  0
LWPOLYLINE
  5
86
330
70
100
AcDbEntity
  8
0
 62
    18
420
        0
370
    25
100
AcDbPolyline
 90
        3
 70
     0
 43
0.0
 10
312.3207662587091
 20
245.8380517841804
 10
312.1065424845093
 20
245.9173838489808
 10
311.9370041204093
 20
245.9315863915804
  0
LWPOLYLINE
  5
87
330
70
100
AcDbEntity
  8
0
 62
    18
420
        0
370
    25
100
AcDbPolyline
 90
       17
 70
     0
 43
0.0
 10
305.047616896309
 20
203.7579310426803
 10
304.9803352729093
 20
203.3284943874807
 10
304.7887334199095
 20
202.8867538612803
 10
304.5019809825094
 20
202.4999604547805
 10
304.1637334199094
 20
202.2269999578805
 10
303.8254858573094
 20
202.1094281317805
 10
303.5387334199093
 20
202.1651442211808
 10
303.3471315668094
 20
202.3856659565806
 10
303.2798499434097
 20
202.7374209028804
 10
303.3471315668094
 20
203.1668575579806
 10
303.5387334199093
 20
203.6085980841803
 10
303.8254858573094
 20
203.9953914906807
 10
304.1637334199094
 20
204.2683519875808
 10
304.5019809825094
 20
204.3859238136807
 10
304.7887334199095
 20
204.3302077242805
 10
304.9803352729093
 20
204.1096859888807
 10
305.047616896309
 20
203.7579310426803
  0
LWPOLYLINE
  5
88
330
70
100
AcDbEntity
  8
0
 62
    18
420
        0
370
    25
100
AcDbPolyline
 90
        7
 70
     0
 43
0.0
 10
304.7093991220092
 20
203.9531800077806
 10
304.6421174986095
 20
203.5237433525803
 10
304.4505156455096
 20
203.0820028264807
 10
304.1637632081095
 20
202.6952094199803
 10
303.8255156455095
 20
202.4222489229807
 10
303.4872680829095
 20
202.3046770968808
 10
303.3929826200092
 20
202.3031131713808
  0
LWPOLYLINE
  5
89
330
70
100
AcDbEntity
  8
0
 62
    18
420
        0
370
    25
100
AcDbPolyline
 90
        3
 70
     0
 43
0.0
 10
304.5962664454091
 20
204.3874877392809
 10
304.6421174986095
 20
204.3049349539804
 10
304.7093991220092
 20
203.9531800077806
  0
LWPOLYLINE
  5
8A
330
70
100
AcDbEntity
  8
0
 62
    18
420
        0
370
    25
100
AcDbPolyline
 90
       17
 70
     0
 43
0.0
 10
305.047616896309
 20
187.4271148048804
 10
304.9803352729093
 20
186.9976781497808
 10
304.7887334199095
 20
186.5559376235804
 10
304.5019809825094
 20
186.1691442170807
 10
304.1637334199094
 20
185.8961837201806
 10
303.8254858573094
 20
185.7786118940806
 10
303.5387334199093
 20
185.8343279834803
 10
303.3471315668094
 20
186.0548497188807
 10
303.2798499434097
 20
186.4066046651805
 10
303.3471315668094
 20
186.8360413202807
 10
303.5387334199093
 20
187.2777818464804
 10
303.8254858573094
 20
187.6645752529802
 10
304.1637334199094
 20
187.9375357498803
 10
304.5019809825094
 20
188.0551075759803
 10
304.7887334199095
 20
187.9993914865806
 10
304.9803352729093
 20
187.7788697511802
 10
305.047616896309
 20
187.4271148048804
  0
LWPOLYLINE
  5
8B
330
70
100
AcDbEntity
  8
0
 62
    18
420
        0
370
    25
100
AcDbPolyline
 90
       17
 70
     0
 43
0.0
 10
270.1165419057094
 20
126.0265234426808
 10
270.0492602823096
 20
125.5970867874805
 10
269.8576584292091
 20
125.1553462613802
 10
269.5709059918096
 20
124.7685528548805
 10
269.2326584292096
 20
124.4955923578803
 10
268.8944108667091
 20
124.3780205317803
 10
268.6076584292095
 20
124.4337366211806
 10
268.4160565762091
 20
124.6542583566805
 10
268.3487749528093
 20
125.0060133028802
 10
268.4160565762091
 20
125.4354499580805
 10
268.6076584292095
 20
125.8771904841808
 10
268.8944108667091
 20
126.2639838906806
 10
269.2326584292096
 20
126.5369443876807
 10
269.5709059918096
 20
126.6545162137807
 10
269.8576584292091
 20
126.5988001243804
 10
270.0492602823096
 20
126.3782783888805
 10
270.1165419057094
 20
126.0265234426808
  0
LWPOLYLINE
  5
8C
330
70
100
AcDbEntity
  8
0
 62
    18
420
        0
370
    25
100
AcDbPolyline
 90
        7
 70
     0
 43
0.0
 10
304.7093991220092
 20
187.6223637700808
 10
304.6421174986095
 20
187.1929271148805
 10
304.4505156455096
 20
186.7511865886807
 10
304.1637632081095
 20
186.3643931822804
 10
303.8255156455095
 20
186.0914326852809
 10
303.4872680829095
 20
185.9738608591803
 10
303.3929826200092
 20
185.9722969336803
  0
LWPOLYLINE
  5
8D
330
70
100
AcDbEntity
  8
0
 62
    18
420
        0
370
    25
100
AcDbPolyline
 90
        3
 70
     0
 43
0.0
 10
304.5962664454091
 20
188.0566715014809
 10
304.6421174986095
 20
187.9741187162805
 10
304.7093991220092
 20
187.6223637700808
  0
LWPOLYLINE
  5
8E
330
70
100
AcDbEntity
  8
0
 62
    18
420
        0
370
    25
100
AcDbPolyline
 90
        7
 70
     0
 43
0.0
 10
269.7783241314096
 20
126.2217724077804
 10
269.7110425080091
 20
125.7923357526802
 10
269.5194406549093
 20
125.3505952264805
 10
269.2326882175092
 20
124.9638018199807
 10
268.8944406549092
 20
124.6908413230807
 10
268.5561930923092
 20
124.5732694969807
 10
268.4619076294095
 20
124.5717055713806
  0
LWPOLYLINE
  5
8F
330
70
100
AcDbEntity
  8
0
 62
    18
420
        0
370
    25
100
AcDbPolyline
 90
        3
 70
     0
 43
0.0
 10
269.6651914548094
 20
126.6560801392807
 10
269.7110425080091
 20
126.5735273540803
 10
269.7783241314096
 20
126.2217724077804
  0
LWPOLYLINE
  5
90
330
70
100
AcDbEntity
  8
0
 62
    18
420
        0
370
    25
100
AcDbPolyline
 90
        3
 70
     0
 43
0.0
 10
310.9672941355092
 20
181.0282095162802
 10
310.6913947562095
 20
180.9003154003805
 10
310.4860771318095
 20
180.8478595325808
  0
LWPOLYLINE
  5
91
330
70
100
AcDbEntity
  8
0
 62
    18
420
        0
370
    25
100
AcDbPolyline
 90
       17
 70
     0
 43
0.0
 10
305.047616896309
 20
104.9564928044807
 10
304.9803352729093
 20
104.5270561492804
 10
304.7887334199095
 20
104.0853156230807
 10
304.5019809825094
 20
103.6985222166803
 10
304.1637334199094
 20
103.4255617196808
 10
303.8254858573094
 20
103.3079898935808
 10
303.5387334199093
 20
103.3637059829805
 10
303.3471315668094
 20
103.5842277184804
 10
303.2798499434097
 20
103.9359826646807
 10
303.3471315668094
 20
104.3654193198804
 10
303.5387334199093
 20
104.8071598459807
 10
303.8254858573094
 20
105.1939532524804
 10
304.1637334199094
 20
105.4669137493805
 10
304.5019809825094
 20
105.5844855755806
 10
304.7887334199095
 20
105.5287694860802
 10
304.9803352729093
 20
105.3082477506804
 10
305.047616896309
 20
104.9564928044807
  0
LWPOLYLINE
  5
92
330
70
100
AcDbEntity
  8
0
 62
    18
420
        0
370
    25
100
AcDbPolyline
 90
        7
 70
     0
 43
0.0
 10
304.7093991220092
 20
105.1517417695803
 10
304.6421174986095
 20
104.7223051144808
 10
304.4505156455096
 20
104.2805645882804
 10
304.1637632081095
 20
103.8937711817806
 10
303.8255156455095
 20
103.6208106848806
 10
303.4872680829095
 20
103.5032388586805
 10
303.3929826200092
 20
103.5016749331805
  0
LWPOLYLINE
  5
93
330
70
100
AcDbEntity
  8
0
 62
    18
420
        0
370
    25
100
AcDbPolyline
 90
        3
 70
     0
 43
0.0
 10
304.5962664454091
 20
105.5860495010806
 10
304.6421174986095
 20
105.5034967158808
 10
304.7093991220092
 20
105.1517417695803
  0
LWPOLYLINE
  5
94
330
70
100
AcDbEntity
  8
0
 62
    18
420
        0
370
    25
100
AcDbPolyline
 90
       17
 70
     0
 43
0.0
 10
305.047616896309
 20
88.62567656678024
 10
304.9803352729093
 20
88.19623991158058
 10
304.7887334199095
 20
87.75449938538086
 10
304.5019809825094
 20
87.36770597898054
 10
304.1637334199094
 20
87.09474548198034
 10
303.8254858573094
 20
86.97717365588038
 10
303.5387334199093
 20
87.03288974528069
 10
303.3471315668094
 20
87.25341148068045
 10
303.2798499434097
 20
87.60516642698027
 10
303.3471315668094
 20
88.03460308208046
 10
303.5387334199093
 20
88.47634360828021
 10
303.8254858573094
 20
88.86313701478062
 10
304.1637334199094
 20
89.13609751168072
 10
304.5019809825094
 20
89.25366933788076
 10
304.7887334199095
 20
89.19795324838036
 10
304.9803352729093
 20
88.9774315129806
 10
305.047616896309
 20
88.62567656678024
  0
LWPOLYLINE
  5
95
330
70
100
AcDbEntity
  8
0
 62
    18
420
        0
370
    25
100
AcDbPolyline
 90
        7
 70
     0
 43
0.0
 10
304.7093991220092
 20
88.82092553188051
 10
304.6421174986095
 20
88.39148887668086
 10
304.4505156455096
 20
87.94974835058059
 10
304.1637632081095
 20
87.56295494408082
 10
303.8255156455095
 20
87.28999444718073
 10
303.4872680829095
 20
87.17242262098068
 10
303.3929826200092
 20
87.17085869548069
  0
LWPOLYLINE
  5
96
330
70
100
AcDbEntity
  8
0
 62
    18
420
        0
370
    25
100
AcDbPolyline
 90
        3
 70
     0
 43
0.0
 10
304.5962664454091
 20
89.25523326338073
 10
304.6421174986095
 20
89.17268047808025
 10
304.7093991220092
 20
88.82092553188051
  0
LWPOLYLINE
  5
97
330
70
100
AcDbEntity
  8
0
 62
    18
420
        0
370
    25
100
AcDbPolyline
 90
        3
 70
     0
 43
0.0
 10
310.9672941355092
 20
82.22677127808061
 10
310.6913947562095
 20
82.09887716218025
 10
310.4860771318095
 20
82.04642129438052
  0
LINE
  5
98
330
70
100
AcDbEntity
  8
0
 62
    18
420
        0
370
    25
100
AcDbLine
 10
201.9820381420097
 20
219.6970766167806
 30
0.0
 11
201.9820381420097
 21
219.2188358172806
 31
0.0
  0
LINE
  5
99
330
70
100
AcDbEntity
  8
0
 62
    18
420
        0
370
    25
100
AcDbLine
 10
258.5893670840097
 20
217.9315946422807
 30
0.0
 11
259.437895221409
 21
217.4417497751806
 31
0.0
  0
LINE
  5
9A
330
70
100
AcDbEntity
  8
0
 62
    18
420
        0
370
    25
100
AcDbLine
 10
330.7055425696091
 20
264.4536164344804
 30
0.0
 11
329.857014432209
 21
264.9434613015805
 31
0.0
  0
LINE
  5
9B
330
70
100
AcDbEntity
  8
0
 62
    18
420
        0
370
    25
100
AcDbLine
 10
331.8227811245092
 20
59.07594828528076
 30
0.0
 11
331.8227811245092
 21
264.1910002309806
 31
0.0
  0
LINE
  5
9C
330
70
100
AcDbEntity
  8
0
 62
    18
420
        0
370
    25
100
AcDbLine
 10
314.7049908368097
 20
220.4084971247807
 30
0.0
 11
315.5535189742091
 21
219.9186522576805
 31
0.0
  0
LINE
  5
9D
330
70
100
AcDbEntity
  8
0
 62
    18
420
        0
370
    25
100
AcDbLine
 10
314.7049908368097
 20
121.6070588865807
 30
0.0
 11
315.5535189742091
 21
121.1172140194806
 31
0.0
  0
LINE
  5
9E
330
70
100
AcDbEntity
  8
0
 62
    18
420
        0
370
    25
100
AcDbLine
 10
32.86904500030953
 20
108.9591120594805
 30
0.0
 11
41.41818914720929
 21
104.0237961946802
 31
0.0
  0
LINE
  5
9F
330
70
100
AcDbEntity
  8
0
 62
    18
420
        0
370
    25
100
AcDbLine
 10
141.7634893030093
 20
46.09568744918035
 30
0.0
 11
150.3126334499091
 21
41.16037158428063
 31
0.0
  0
LINE
  5
A0
330
70
100
AcDbEntity
  8
0
 62
    18
420
        0
370
    25
100
AcDbLine
 10
257.3664210727096
 20
14.70749082318065
 30
0.0
 11
313.2278567864093
 21
46.95561124018064
 31
0.0
  0
LINE
  5
A1
330
70
100
AcDbEntity
  8
0
 62
    18
420
        0
370
    25
100
AcDbLine
 10
313.3107157524092
 20
53.54275693518085
 30
0.0
 11
312.4621876150091
 21
54.03260180228034
 31
0.0
  0
LINE
  5
A2
330
70
100
AcDbEntity
  8
0
 62
    18
420
        0
370
    25
100
AcDbLine
 10
314.7049908368097
 20
48.11838581688039
 30
0.0
 11
315.5535189742091
 21
47.62854094978027
 31
0.0
  0
LINE
  5
A3
330
70
100
AcDbEntity
  8
0
 62
    18
420
        0
370
    25
100
AcDbLine
 10
42.68101211440923
 20
310.7031359691804
 30
0.0
 11
41.8324839769094
 21
310.2132911021804
 31
0.0
  0
LINE
  5
A4
330
70
100
AcDbEntity
  8
0
 62
    18
420
        0
370
    25
100
AcDbLine
 10
-34.43111453219071
 20
359.5477861719804
 30
0.0
 11
-34.43111453219071
 21
150.5133383292807
 31
0.0
  0
LINE
  5
A5
330
70
100
AcDbEntity
  8
0
 62
    18
420
        0
370
    25
100
AcDbLine
 10
33.00579749990937
 20
111.5749104411805
 30
0.0
 11
41.41818914720929
 21
106.7185401139805
 31
0.0
  0
LINE
  5
A6
330
70
100
AcDbEntity
  8
0
 62
    18
420
        0
370
    25
100
AcDbLine
 10
31.67008480580931
 20
108.0019208190808
 30
0.0
 11
32.51861294320935
 21
108.4917656861803
 31
0.0
  0
LINE
  5
A7
330
70
100
AcDbEntity
  8
0
 62
    18
420
        0
370
    25
100
AcDbLine
 10
256.7421732575092
 20
221.7554721861807
 30
0.0
 11
255.8936451200091
 21
222.2453170532805
 31
0.0
  0
LINE
  5
A8
330
70
100
AcDbEntity
  8
0
 62
    18
420
        0
370
    25
100
AcDbLine
 10
151.5754564171093
 20
247.8397113588806
 30
0.0
 11
150.7269282797093
 21
247.3498664917808
 31
0.0
  0
LINE
  5
A9
330
70
100
AcDbEntity
  8
0
 62
    18
420
        0
370
    25
100
AcDbLine
 10
313.1692943962093
 20
245.348206917081
 30
0.0
 11
312.3207662587091
 21
245.8380517841804
 31
0.0
  0
LINE
  5
AA
330
70
100
AcDbEntity
  8
0
 62
    18
420
        0
370
    25
100
AcDbLine
 10
94.72407120970927
 20
278.2100931186804
 30
0.0
 11
93.87554307230955
 21
277.7202482515806
 31
0.0
  0
LINE
  5
AB
330
70
100
AcDbEntity
  8
0
 62
    18
420
        0
370
    25
100
AcDbLine
 10
313.1692943962093
 20
180.8414827781806
 30
0.0
 11
312.3207662587091
 21
181.3313276452808
 31
0.0
  0
LINE
  5
AC
330
70
100
AcDbEntity
  8
0
 62
    18
420
        0
370
    25
100
AcDbLine
 10
313.1692943962093
 20
82.04004453998042
 30
0.0
 11
312.3207662587091
 21
82.52988940708055
 31
0.0
  0
LINE
  5
AD
330
70
100
AcDbEntity
  8
0
 62
    18
420
        0
370
    25
100
AcDbLine
 10
141.9002418027092
 20
48.71148583088038
 30
0.0
 11
150.3126334499091
 21
43.85511550358031
 31
0.0
  0
LINE
  5
AE
330
70
100
AcDbEntity
  8
0
 62
    18
420
        0
370
    25
100
AcDbLine
 10
140.5645291085094
 20
45.13849620878064
 30
0.0
 11
141.4130572459094
 21
45.62834107578067
 31
0.0
  0
LINE
  5
AF
330
70
100
AcDbEntity
  8
0
 62
    18
420
        0
370
    25
100
AcDbLine
 10
255.8434738557093
 20
222.6944192551805
 30
0.0
 11
255.8434738557093
 21
222.2715099338807
 31
0.0
  0
LINE
  5
B0
330
70
100
AcDbEntity
  8
0
 62
    18
420
        0
370
    25
100
AcDbLine
 10
238.4888490639097
 20
213.6556565892806
 30
0.0
 11
329.4227811245091
 21
266.1506981794807
 31
0.0
  0
LINE
  5
B1
330
70
100
AcDbEntity
  8
0
 62
    18
420
        0
370
    25
100
AcDbLine
 10
212.4673195162091
 20
213.1658117221805
 30
0.0
 11
152.5753751497095
 21
247.7406952578804
 31
0.0
  0
LINE
  5
B2
330
70
100
AcDbEntity
  8
0
 62
    18
420
        0
370
    25
100
AcDbLine
 10
203.2749313608095
 20
220.9216887844806
 30
0.0
 11
202.5678245796094
 21
220.5134847285805
 31
0.0
  0
LINE
  5
B3
330
70
100
AcDbEntity
  8
0
 62
    18
420
        0
370
    25
100
AcDbLine
 10
202.8506672921092
 20
221.1666112180807
 30
0.0
 11
203.2749313608095
 21
220.9216887844806
 31
0.0
  0
LINE
  5
B4
330
70
100
AcDbEntity
  8
0
 62
    18
420
        0
370
    25
100
AcDbLine
 10
202.4264032234095
 20
220.9216887844806
 30
0.0
 11
202.8506672921092
 21
221.1666112180807
 31
0.0
  0
LINE
  5
B5
330
70
100
AcDbEntity
  8
0
 62
    18
420
        0
370
    25
100
AcDbLine
 10
-14.23111453219064
 20
345.9954115157805
 30
0.0
 11
202.4264032234095
 21
220.9216887844806
 31
0.0
  0
LINE
  5
B6
330
70
100
AcDbEntity
  8
0
 62
    18
420
        0
370
    25
100
AcDbLine
 10
-13.80685046349062
 20
346.2403339492805
 30
0.0
 11
-14.23111453219064
 21
345.9954115157805
 31
0.0
  0
LINE
  5
B7
330
70
100
AcDbEntity
  8
0
 62
    18
420
        0
370
    25
100
AcDbLine
 10
-14.23111453219064
 20
346.4852563828809
 30
0.0
 11
-13.80685046349062
 21
346.2403339492805
 31
0.0
  0
LINE
  5
B8
330
70
100
AcDbEntity
  8
0
 62
    18
420
        0
370
    25
100
AcDbLine
 10
-14.9382213133905
 20
346.0770523269805
 30
0.0
 11
-14.23111453219064
 21
346.4852563828809
 31
0.0
  0
LINE
  5
B9
330
70
100
AcDbEntity
  8
0
 62
    18
420
        0
370
    25
100
AcDbLine
 10
31.51869421060952
 20
317.6252296298802
 30
0.0
 11
-27.66614337469058
 21
351.7919091096804
 31
0.0
  0
LINE
  5
BA
330
70
100
AcDbEntity
  8
0
 62
    18
420
        0
370
    25
100
AcDbLine
 10
256.1665185935094
 20
222.8809090127804
 30
0.0
 11
256.1665185935094
 21
223.8607579870807
 31
0.0
  0
LINE
  5
BB
330
70
100
AcDbEntity
  8
0
 62
    18
420
        0
370
    25
100
AcDbLine
 10
254.9134752301095
 20
222.1575424763805
 30
0.0
 11
256.1665185935094
 21
222.8809090127804
 31
0.0
  0
LINE
  5
BC
330
70
100
AcDbEntity
  8
0
 62
    18
420
        0
370
    25
100
AcDbLine
 10
202.8506672921092
 20
221.1666112180807
 30
0.0
 11
202.8506672921092
 21
220.6767663509805
 31
0.0
  0
LINE
  5
BD
330
70
100
AcDbEntity
  8
0
 62
    18
420
        0
370
    25
100
AcDbLine
 10
41.41818914720929
 20
308.7258636807805
 30
0.0
 11
32.93290777300924
 21
313.6243123517806
 31
0.0
  0
LINE
  5
BE
330
70
100
AcDbEntity
  8
0
 62
    18
420
        0
370
    25
100
AcDbLine
 10
150.3126334499091
 20
245.8624390704807
 30
0.0
 11
141.8980627538093
 21
250.7200673357806
 31
0.0
  0
LINE
  5
BF
330
70
100
AcDbEntity
  8
0
 62
    18
420
        0
370
    25
100
AcDbLine
 10
141.8980627538093
 20
250.7200673357806
 30
0.0
 11
141.8273520757094
 21
250.7581629076804
 31
0.0
  0
LINE
  5
C0
330
70
100
AcDbEntity
  8
0
 62
    18
420
        0
370
    25
100
AcDbLine
 10
257.8635748684096
 20
220.9213703043806
 30
0.0
 11
313.7250105821093
 21
253.1694907213807
 31
0.0
  0
LINE
  5
C1
330
70
100
AcDbEntity
  8
0
 62
    18
420
        0
370
    25
100
AcDbLine
 10
263.2375864054091
 20
217.8180109589804
 30
0.0
 11
312.3107970198096
 21
246.1473724391806
 31
0.0
  0
LINE
  5
C2
330
70
100
AcDbEntity
  8
0
 62
    18
420
        0
370
    25
100
AcDbLine
 10
313.7250105821093
 20
248.5968621747807
 30
0.0
 11
313.7250105821093
 21
253.1694907213807
 31
0.0
  0
LINE
  5
C3
330
70
100
AcDbEntity
  8
0
 62
    18
420
        0
370
    25
100
AcDbLine
 10
331.1198373993092
 20
263.537926821581
 30
0.0
 11
331.1198373993092
 21
57.7696422262808
 31
0.0
  0
LINE
  5
C4
330
70
100
AcDbEntity
  8
0
 62
    18
420
        0
370
    25
100
AcDbLine
 10
329.7056238369095
 20
55.3201524907805
 30
0.0
 11
316.5534377069093
 21
47.72755705078043
 31
0.0
  0
LINE
  5
C5
330
70
100
AcDbEntity
  8
0
 62
    18
420
        0
370
    25
100
AcDbLine
 10
315.1392241445096
 20
48.54423056268034
 30
0.0
 11
315.1392241445096
 21
82.02240385008057
 31
0.0
  0
LINE
  5
C6
330
70
100
AcDbEntity
  8
0
 62
    18
420
        0
370
    25
100
AcDbLine
 10
316.5534377069093
 20
84.47189358568031
 30
0.0
 11
316.9069910975092
 21
84.67599561358063
 31
0.0
  0
LINE
  5
C7
330
70
100
AcDbEntity
  8
0
 62
    18
420
        0
370
    25
100
AcDbLine
 10
318.3212046598094
 20
87.1254853491804
 30
0.0
 11
318.3212046598094
 21
120.6036586364805
 31
0.0
  0
LINE
  5
C8
330
70
100
AcDbEntity
  8
0
 62
    18
420
        0
370
    25
100
AcDbLine
 10
316.9069910975092
 20
121.4203321484805
 30
0.0
 11
316.5534377069093
 21
121.2162301204807
 31
0.0
  0
LINE
  5
C9
330
70
100
AcDbEntity
  8
0
 62
    18
420
        0
370
    25
100
AcDbLine
 10
315.1392241445096
 20
122.0329036324808
 30
0.0
 11
315.1392241445096
 21
180.8238420881807
 31
0.0
  0
LINE
  5
CA
330
70
100
AcDbEntity
  8
0
 62
    18
420
        0
370
    25
100
AcDbLine
 10
316.5534377069093
 20
183.2733318237804
 30
0.0
 11
316.9069910975092
 21
183.4774338517802
 31
0.0
  0
LINE
  5
CB
330
70
100
AcDbEntity
  8
0
 62
    18
420
        0
370
    25
100
AcDbLine
 10
318.3212046598094
 20
185.9269235873806
 30
0.0
 11
318.3212046598094
 21
219.4050968746807
 31
0.0
  0
LINE
  5
CC
330
70
100
AcDbEntity
  8
0
 62
    18
420
        0
370
    25
100
AcDbLine
 10
316.9069910975092
 20
220.2217703865807
 30
0.0
 11
316.5534377069093
 21
220.0176683586803
 31
0.0
  0
LINE
  5
CD
330
70
100
AcDbEntity
  8
0
 62
    18
420
        0
370
    25
100
AcDbLine
 10
315.1392241445096
 20
220.8343418705806
 30
0.0
 11
315.1392241445096
 21
254.3125151579805
 31
0.0
  0
LINE
  5
CE
330
70
100
AcDbEntity
  8
0
 62
    18
420
        0
370
    25
100
AcDbLine
 10
316.5534377069093
 20
256.7620048935806
 30
0.0
 11
329.7056238369095
 21
264.3546003334805
 31
0.0
  0
LINE
  5
CF
330
70
100
AcDbEntity
  8
0
 62
    18
420
        0
370
    25
100
AcDbLine
 10
316.5534377069093
 20
256.7620048935806
 30
0.0
 11
315.7049095695093
 21
257.2518497605806
 31
0.0
  0
LINE
  5
D0
330
70
100
AcDbEntity
  8
0
 62
    18
420
        0
370
    25
100
AcDbLine
 10
314.2906960071096
 20
254.8023600250806
 30
0.0
 11
315.1392241445096
 21
254.3125151579805
 31
0.0
  0
LINE
  5
D1
330
70
100
AcDbEntity
  8
0
 62
    18
420
        0
370
    25
100
AcDbLine
 10
330.2916187961091
 20
264.6925695425805
 30
0.0
 11
331.1198373993092
 21
265.1706899651805
 31
0.0
  0
LINE
  5
D2
330
70
100
AcDbEntity
  8
0
 62
    18
420
        0
370
    25
100
AcDbLine
 10
312.7262656428092
 20
255.5321559829806
 30
0.0
 11
315.6851607268094
 21
257.2402897563805
 31
0.0
  0
LINE
  5
D3
330
70
100
AcDbEntity
  8
0
 62
    18
420
        0
370
    25
100
AcDbLine
 10
328.8768445422093
 20
264.8556867246806
 30
0.0
 11
329.4227811245091
 21
265.1708492051804
 31
0.0
  0
LINE
  5
D4
330
70
100
AcDbEntity
  8
0
 62
    18
420
        0
370
    25
100
AcDbLine
 10
315.1392241445096
 20
220.8343418705806
 30
0.0
 11
314.2906960071096
 21
221.3241867376805
 31
0.0
  0
LINE
  5
D5
330
70
100
AcDbEntity
  8
0
 62
    18
420
        0
370
    25
100
AcDbLine
 10
314.2906960071096
 20
221.3241867376805
 30
0.0
 11
314.2906960071096
 21
254.8023600250806
 31
0.0
  0
LINE
  5
D6
330
70
100
AcDbEntity
  8
0
 62
    18
420
        0
370
    25
100
AcDbLine
 10
328.8570956995094
 20
264.8444452005807
 30
0.0
 11
329.7056238369095
 21
264.3546003334805
 31
0.0
  0
LINE
  5
D7
330
70
100
AcDbEntity
  8
0
 62
    18
420
        0
370
    25
100
AcDbLine
 10
315.7049095695093
 20
257.2518497605806
 30
0.0
 11
328.8570956995094
 21
264.8444452005807
 31
0.0
  0
LINE
  5
D8
330
70
100
AcDbEntity
  8
0
 62
    18
420
        0
370
    25
100
AcDbLine
 10
313.0179038009091
 20
83.48881999988075
 30
0.0
 11
312.5228715871094
 21
83.77459601398083
 31
0.0
  0
LINE
  5
D9
330
70
100
AcDbEntity
  8
0
 62
    18
420
        0
370
    25
100
AcDbLine
 10
313.0179038009091
 20
87.16351905348041
 30
0.0
 11
313.0179038009091
 21
83.48881999988075
 31
0.0
  0
LINE
  5
DA
330
70
100
AcDbEntity
  8
0
 62
    18
420
        0
370
    25
100
AcDbLine
 10
318.3212046598094
 20
219.4050968746807
 30
0.0
 11
317.4726765224094
 21
219.8949417417809
 31
0.0
  0
LINE
  5
DB
330
70
100
AcDbEntity
  8
0
 62
    18
420
        0
370
    25
100
AcDbLine
 10
318.3212046598094
 20
185.9269235873806
 30
0.0
 11
317.4726765224094
 21
186.4167684544808
 31
0.0
  0
LINE
  5
DC
330
70
100
AcDbEntity
  8
0
 62
    18
420
        0
370
    25
100
AcDbLine
 10
317.4726765224094
 20
186.4167684544808
 30
0.0
 11
317.4726765224094
 21
219.8949417417809
 31
0.0
  0
LINE
  5
DD
330
70
100
AcDbEntity
  8
0
 62
    18
420
        0
370
    25
100
AcDbLine
 10
314.2906960071096
 20
181.3136869552802
 30
0.0
 11
315.1392241445096
 21
180.8238420881807
 31
0.0
  0
LINE
  5
DE
330
70
100
AcDbEntity
  8
0
 62
    18
420
        0
370
    25
100
AcDbLine
 10
316.5534377069093
 20
183.2733318237804
 30
0.0
 11
315.7049095695093
 21
183.7631766908806
 31
0.0
  0
LINE
  5
DF
330
70
100
AcDbEntity
  8
0
 62
    18
420
        0
370
    25
100
AcDbLine
 10
316.9069910975092
 20
183.4774338517802
 30
0.0
 11
316.0584629600096
 21
183.9672787188804
 31
0.0
  0
LINE
  5
E0
330
70
100
AcDbEntity
  8
0
 62
    18
420
        0
370
    25
100
AcDbLine
 10
315.1392241445096
 20
122.0329036324808
 30
0.0
 11
314.2906960071096
 21
122.5227484995802
 31
0.0
  0
LINE
  5
E1
330
70
100
AcDbEntity
  8
0
 62
    18
420
        0
370
    25
100
AcDbLine
 10
314.2906960071096
 20
122.5227484995802
 30
0.0
 11
314.2906960071096
 21
181.3136869552802
 31
0.0
  0
LINE
  5
E2
330
70
100
AcDbEntity
  8
0
 62
    18
420
        0
370
    25
100
AcDbLine
 10
315.7049095695093
 20
183.7631766908806
 30
0.0
 11
316.0584629600096
 21
183.9672787188804
 31
0.0
  0
LINE
  5
E3
330
70
100
AcDbEntity
  8
0
 62
    18
420
        0
370
    25
100
AcDbLine
 10
314.2906960071096
 20
49.36053251448081
 30
0.0
 11
313.7250105821093
 21
49.03396926978075
 31
0.0
  0
LINE
  5
E4
330
70
100
AcDbEntity
  8
0
 62
    18
420
        0
370
    25
100
AcDbLine
 10
32.93290777300924
 20
312.1543796502805
 30
0.0
 11
33.00560246620945
 21
312.1124138971805
 31
0.0
  0
LINE
  5
E5
330
70
100
AcDbEntity
  8
0
 62
    18
420
        0
370
    25
100
AcDbLine
 10
32.93290777300924
 20
110.9588828416806
 30
0.0
 11
41.41818914720929
 21
106.0604341707807
 31
0.0
  0
LINE
  5
E6
330
70
100
AcDbEntity
  8
0
 62
    18
420
        0
370
    25
100
AcDbLine
 10
141.8980627538093
 20
48.0546378257808
 30
0.0
 11
150.3126334499091
 21
43.19700956038045
 31
0.0
  0
LINE
  5
E7
330
70
100
AcDbEntity
  8
0
 62
    18
420
        0
370
    25
100
AcDbLine
 10
141.8273520757094
 20
48.09818306498062
 30
0.0
 11
141.8980627538093
 21
48.0546378257808
 31
0.0
  0
LINE
  5
E8
330
70
100
AcDbEntity
  8
0
 62
    18
420
        0
370
    25
100
AcDbLine
 10
313.7250105821093
 20
48.05443877568049
 30
0.0
 11
257.8635748684096
 21
15.8063183586805
 31
0.0
  0
LINE
  5
E9
330
70
100
AcDbEntity
  8
0
 62
    18
420
        0
370
    25
100
AcDbLine
 10
312.3107970198096
 20
53.44374083418069
 30
0.0
 11
263.2375864054091
 21
25.11437935388039
 31
0.0
  0
LINE
  5
EA
330
70
100
AcDbEntity
  8
0
 62
    18
420
        0
370
    25
100
AcDbLine
 10
313.7250105821093
 20
48.05443877568049
 30
0.0
 11
313.7250105821093
 21
52.62706732218068
 31
0.0
  0
LINE
  5
EB
330
70
100
AcDbEntity
  8
0
 62
    18
420
        0
370
    25
100
AcDbLine
 10
318.3212046598094
 20
120.6036586364805
 30
0.0
 11
317.4726765224094
 21
121.0935035035806
 31
0.0
  0
LINE
  5
EC
330
70
100
AcDbEntity
  8
0
 62
    18
420
        0
370
    25
100
AcDbLine
 10
318.3212046598094
 20
87.1254853491804
 30
0.0
 11
317.4726765224094
 21
87.61533021628052
 31
0.0
  0
LINE
  5
ED
330
70
100
AcDbEntity
  8
0
 62
    18
420
        0
370
    25
100
AcDbLine
 10
317.4726765224094
 20
87.61533021628052
 30
0.0
 11
317.4726765224094
 21
121.0935035035806
 31
0.0
  0
LINE
  5
EE
330
70
100
AcDbEntity
  8
0
 62
    18
420
        0
370
    25
100
AcDbLine
 10
314.2906960071096
 20
82.5122487171807
 30
0.0
 11
315.1392241445096
 21
82.02240385008057
 31
0.0
  0
LINE
  5
EF
330
70
100
AcDbEntity
  8
0
 62
    18
420
        0
370
    25
100
AcDbLine
 10
316.5534377069093
 20
84.47189358568031
 30
0.0
 11
315.7049095695093
 21
84.96173845278045
 31
0.0
  0
LINE
  5
F0
330
70
100
AcDbEntity
  8
0
 62
    18
420
        0
370
    25
100
AcDbLine
 10
316.9069910975092
 20
84.67599561358063
 30
0.0
 11
316.0584629600096
 21
85.16584048068077
 31
0.0
  0
LINE
  5
F1
330
70
100
AcDbEntity
  8
0
 62
    18
420
        0
370
    25
100
AcDbLine
 10
315.1392241445096
 20
48.54423056268034
 30
0.0
 11
314.2906960071096
 21
49.03407542978047
 31
0.0
  0
LINE
  5
F2
330
70
100
AcDbEntity
  8
0
 62
    18
420
        0
370
    25
100
AcDbLine
 10
314.2906960071096
 20
49.03407542978047
 30
0.0
 11
314.2906960071096
 21
82.5122487171807
 31
0.0
  0
LINE
  5
F3
330
70
100
AcDbEntity
  8
0
 62
    18
420
        0
370
    25
100
AcDbLine
 10
315.7049095695093
 20
84.96173845278045
 30
0.0
 11
316.0584629600096
 21
85.16584048068077
 31
0.0
  0
LINE
  5
F4
330
70
100
AcDbEntity
  8
0
 62
    18
420
        0
370
    25
100
AcDbLine
 10
-14.23111453219064
 20
346.4852563828809
 30
0.0
 11
-14.23111453219064
 21
345.9954115157805
 31
0.0
  0
LINE
  5
F5
330
70
100
AcDbEntity
  8
0
 62
    18
420
        0
370
    25
100
AcDbLine
 10
313.7250105597094
 20
48.05412028258039
 30
0.0
 11
314.4088216223092
 21
48.44887600638076
 31
0.0
  0
LINE
  5
F6
330
70
100
AcDbEntity
  8
0
 62
    18
420
        0
370
    25
100
AcDbLine
 10
41.41818914720929
 20
103.5293168939808
 30
0.0
 11
41.41818914720929
 21
108.0202913593805
 31
0.0
  0
LINE
  5
F7
330
70
100
AcDbEntity
  8
0
 62
    18
420
        0
370
    25
100
AcDbLine
 10
41.41818914720929
 20
108.0202913593805
 30
0.0
 11
40.99392507850926
 21
108.2652137928805
 31
0.0
  0
LINE
  5
F8
330
70
100
AcDbEntity
  8
0
 62
    18
420
        0
370
    25
100
AcDbLine
 10
40.99392507850926
 20
108.2652137928805
 30
0.0
 11
40.99392507850926
 21
107.7752893057804
 31
0.0
  0
LINE
  5
F9
330
70
100
AcDbEntity
  8
0
 62
    18
420
        0
370
    25
100
AcDbLine
 10
32.50864370420944
 20
112.6737379766803
 30
0.0
 11
40.99392507850926
 21
107.7752893057804
 31
0.0
  0
LINE
  5
FA
330
70
100
AcDbEntity
  8
0
 62
    18
420
        0
370
    25
100
AcDbLine
 10
32.50864370420944
 20
112.6737379766803
 30
0.0
 11
32.50864370420944
 21
113.1636624638805
 31
0.0
  0
LINE
  5
FB
330
70
100
AcDbEntity
  8
0
 62
    18
420
        0
370
    25
100
AcDbLine
 10
32.50864370420944
 20
113.1636624638805
 30
0.0
 11
32.08437963550942
 21
113.4085848973805
 31
0.0
  0
LINE
  5
FC
330
70
100
AcDbEntity
  8
0
 62
    18
420
        0
370
    25
100
AcDbLine
 10
32.08437963550942
 20
113.4085848973805
 30
0.0
 11
32.08437963550942
 21
108.9176104319808
 31
0.0
  0
LINE
  5
FD
330
70
100
AcDbEntity
  8
0
 62
    18
420
        0
370
    25
100
AcDbLine
 10
30.67016607320947
 20
108.1009369200803
 30
0.0
 11
-28.51467151219073
 21
142.2676163998805
 31
0.0
  0
LINE
  5
FE
330
70
100
AcDbEntity
  8
0
 62
    18
420
        0
370
    25
100
AcDbLine
 10
-28.51467151219073
 20
351.3020642425806
 30
0.0
 11
-28.51467151219073
 21
142.2676163998805
 31
0.0
  0
LINE
  5
FF
330
70
100
AcDbEntity
  8
0
 62
    18
420
        0
370
    25
100
AcDbLine
 10
-28.51467151219073
 20
351.3020642425806
 30
0.0
 11
30.67016607320947
 21
317.1353847627807
 31
0.0
  0
LINE
  5
100
330
70
100
AcDbEntity
  8
0
 62
    18
420
        0
370
    25
100
AcDbLine
 10
32.08437963550942
 20
314.6858950271806
 30
0.0
 11
32.08437963550942
 21
310.1949205618807
 31
0.0
  0
LINE
  5
101
330
70
100
AcDbEntity
  8
0
 62
    18
420
        0
370
    25
100
AcDbLine
 10
32.08437963550942
 20
310.1949205618807
 30
0.0
 11
32.50864370420944
 21
309.9499981282806
 31
0.0
  0
LINE
  5
102
330
70
100
AcDbEntity
  8
0
 62
    18
420
        0
370
    25
100
AcDbLine
 10
32.50864370420944
 20
309.9499981282806
 30
0.0
 11
32.50864370420944
 21
310.4399226154805
 31
0.0
  0
LINE
  5
103
330
70
100
AcDbEntity
  8
0
 62
    18
420
        0
370
    25
100
AcDbLine
 10
40.99392507850926
 20
305.5414739444807
 30
0.0
 11
32.50864370420944
 21
310.4399226154805
 31
0.0
  0
LINE
  5
104
330
70
100
AcDbEntity
  8
0
 62
    18
420
        0
370
    25
100
AcDbLine
 10
40.99392507850926
 20
305.5414739444807
 30
0.0
 11
40.99392507850926
 21
305.0515494573807
 31
0.0
  0
LINE
  5
105
330
70
100
AcDbEntity
  8
0
 62
    18
420
        0
370
    25
100
AcDbLine
 10
40.99392507850926
 20
305.0515494573807
 30
0.0
 11
41.41818914720929
 21
304.8066270237805
 31
0.0
  0
LINE
  5
106
330
70
100
AcDbEntity
  8
0
 62
    18
420
        0
370
    25
100
AcDbLine
 10
41.41818914720929
 20
304.8066270237805
 30
0.0
 11
41.41818914720929
 21
309.2976014891805
 31
0.0
  0
LINE
  5
107
330
70
100
AcDbEntity
  8
0
 62
    18
420
        0
370
    25
100
AcDbLine
 10
42.83240270960933
 20
310.1142750011805
 30
0.0
 11
106.7548557288094
 21
273.2126283467807
 31
0.0
  0
LINE
  5
108
330
70
100
AcDbEntity
  8
0
 62
    18
420
        0
370
    25
100
AcDbLine
 10
93.46124824250933
 20
71.8524167551806
 30
0.0
 11
42.83240270960933
 21
101.0798271583804
 31
0.0
  0
LINE
  5
109
330
70
100
AcDbEntity
  8
0
 62
    18
420
        0
370
    25
100
AcDbLine
 10
106.7548557288094
 20
273.2126283467807
 30
0.0
 11
107.6033838663092
 21
273.7024732138805
 31
0.0
  0
LINE
  5
10A
330
70
100
AcDbEntity
  8
0
 62
    18
420
        0
370
    25
100
AcDbLine
 10
42.83240270960933
 20
310.1142750011805
 30
0.0
 11
43.68093084700937
 21
310.6041198682803
 31
0.0
  0
LINE
  5
10B
330
70
100
AcDbEntity
  8
0
 62
    18
420
        0
370
    25
100
AcDbLine
 10
107.6033838663092
 20
273.7024732138805
 30
0.0
 11
43.68093084700937
 21
310.6041198682803
 31
0.0
  0
LINE
  5
10C
330
70
100
AcDbEntity
  8
0
 62
    18
420
        0
370
    25
100
AcDbLine
 10
40.99392507850926
 20
305.0515494573807
 30
0.0
 11
41.41818914720929
 21
305.296471890881
 31
0.0
  0
LINE
  5
10D
330
70
100
AcDbEntity
  8
0
 62
    18
420
        0
370
    25
100
AcDbLine
 10
30.67016607320947
 20
317.1353847627807
 30
0.0
 11
31.51869421060952
 21
317.6252296298802
 31
0.0
  0
LINE
  5
10E
330
70
100
AcDbEntity
  8
0
 62
    18
420
        0
370
    25
100
AcDbLine
 10
32.08437963550942
 20
314.6858950271806
 30
0.0
 11
32.93290777300924
 21
315.1757398942804
 31
0.0
  0
LINE
  5
10F
330
70
100
AcDbEntity
  8
0
 62
    18
420
        0
370
    25
100
AcDbLine
 10
32.08437963550942
 20
310.1949205618807
 30
0.0
 11
32.50864370420944
 21
310.4398429953807
 31
0.0
  0
LINE
  5
110
330
70
100
AcDbEntity
  8
0
 62
    18
420
        0
370
    25
100
AcDbLine
 10
32.93290777300924
 20
311.9810634031805
 30
0.0
 11
32.93290777300924
 21
315.1757398942804
 31
0.0
  0
LINE
  5
111
330
70
100
AcDbEntity
  8
0
 62
    18
420
        0
370
    25
100
AcDbLine
 10
32.08437963550942
 20
108.9176104319808
 30
0.0
 11
32.93290777300924
 21
109.4074552990803
 31
0.0
  0
LINE
  5
112
330
70
100
AcDbEntity
  8
0
 62
    18
420
        0
370
    25
100
AcDbLine
 10
32.93290777300924
 20
109.4074552990803
 30
0.0
 11
32.93290777300924
 21
111.6224420560807
 31
0.0
  0
LINE
  5
113
330
70
100
AcDbEntity
  8
0
 62
    18
420
        0
370
    25
100
AcDbLine
 10
151.7268470123094
 20
247.2508503907806
 30
0.0
 11
152.5753751497095
 21
247.7406952578804
 31
0.0
  0
LINE
  5
114
330
70
100
AcDbEntity
  8
0
 62
    18
420
        0
370
    25
100
AcDbLine
 10
254.8937263874096
 20
222.1463009522806
 30
0.0
 11
239.3373772013091
 21
213.1658117221805
 31
0.0
  0
LINE
  5
115
330
70
100
AcDbEntity
  8
0
 62
    18
420
        0
370
    25
100
AcDbLine
 10
255.7422545248096
 20
221.6564560851805
 30
0.0
 11
254.8937263874096
 21
222.1463009522806
 31
0.0
  0
LINE
  5
116
330
70
100
AcDbEntity
  8
0
 62
    18
420
        0
370
    25
100
AcDbLine
 10
240.1859053387092
 20
212.6759668550807
 30
0.0
 11
255.7422545248096
 21
221.6564560851805
 31
0.0
  0
LINE
  5
117
330
70
100
AcDbEntity
  8
0
 62
    18
420
        0
370
    25
100
AcDbLine
 10
151.7268470123094
 20
247.2508503907806
 30
0.0
 11
211.6187913788091
 21
212.6759668550807
 31
0.0
  0
LINE
  5
118
330
70
100
AcDbEntity
  8
0
 62
    18
420
        0
370
    25
100
AcDbLine
 10
240.1859053387092
 20
3.641519012380618
 30
0.0
 11
240.1859053387092
 21
212.6759668550807
 31
0.0
  0
LINE
  5
119
330
70
100
AcDbEntity
  8
0
 62
    18
420
        0
370
    25
100
AcDbLine
 10
211.6187913788091
 20
3.641519012380618
 30
0.0
 11
211.6187913788091
 21
212.6759668550807
 31
0.0
  0
LINE
  5
11A
330
70
100
AcDbEntity
  8
0
 62
    18
420
        0
370
    25
100
AcDbLine
 10
140.9788239383093
 20
247.3314959514804
 30
0.0
 11
141.4030880070093
 21
247.0865735179804
 31
0.0
  0
LINE
  5
11B
330
70
100
AcDbEntity
  8
0
 62
    18
420
        0
370
    25
100
AcDbLine
 10
141.4030880070093
 20
247.0865735179804
 30
0.0
 11
141.4030880070093
 21
247.5764980050805
 31
0.0
  0
LINE
  5
11C
330
70
100
AcDbEntity
  8
0
 62
    18
420
        0
370
    25
100
AcDbLine
 10
149.8883693812094
 20
242.6780493341806
 30
0.0
 11
141.4030880070093
 21
247.5764980050805
 31
0.0
  0
LINE
  5
11D
330
70
100
AcDbEntity
  8
0
 62
    18
420
        0
370
    25
100
AcDbLine
 10
149.8883693812094
 20
242.6780493341806
 30
0.0
 11
149.8883693812094
 21
242.1881248469804
 31
0.0
  0
LINE
  5
11E
330
70
100
AcDbEntity
  8
0
 62
    18
420
        0
370
    25
100
AcDbLine
 10
149.8883693812094
 20
242.1881248469804
 30
0.0
 11
150.3126334499091
 21
241.943202413481
 31
0.0
  0
LINE
  5
11F
330
70
100
AcDbEntity
  8
0
 62
    18
420
        0
370
    25
100
AcDbLine
 10
150.3126334499091
 20
241.943202413481
 30
0.0
 11
150.3126334499091
 21
246.4341768788807
 31
0.0
  0
LINE
  5
120
330
70
100
AcDbEntity
  8
0
 62
    18
420
        0
370
    25
100
AcDbLine
 10
211.6187913788091
 20
3.641519012380618
 30
0.0
 11
151.7268470123094
 21
38.21640254808026
 31
0.0
  0
LINE
  5
121
330
70
100
AcDbEntity
  8
0
 62
    18
420
        0
370
    25
100
AcDbLine
 10
150.3126334499091
 20
40.66589228368065
 30
0.0
 11
150.3126334499091
 21
45.15686674898026
 31
0.0
  0
LINE
  5
122
330
70
100
AcDbEntity
  8
0
 62
    18
420
        0
370
    25
100
AcDbLine
 10
150.3126334499091
 20
45.15686674898026
 30
0.0
 11
149.8883693812094
 21
45.40178918258038
 31
0.0
  0
LINE
  5
123
330
70
100
AcDbEntity
  8
0
 62
    18
420
        0
370
    25
100
AcDbLine
 10
149.8883693812094
 20
45.40178918258038
 30
0.0
 11
149.8883693812094
 21
44.91186469538083
 31
0.0
  0
LINE
  5
124
330
70
100
AcDbEntity
  8
0
 62
    18
420
        0
370
    25
100
AcDbLine
 10
141.4030880070093
 20
49.81031336638088
 30
0.0
 11
149.8883693812094
 21
44.91186469538083
 31
0.0
  0
LINE
  5
125
330
70
100
AcDbEntity
  8
0
 62
    18
420
        0
370
    25
100
AcDbLine
 10
141.4030880070093
 20
49.81031336638088
 30
0.0
 11
141.4030880070093
 21
50.30023785348032
 31
0.0
  0
LINE
  5
126
330
70
100
AcDbEntity
  8
0
 62
    18
420
        0
370
    25
100
AcDbLine
 10
141.4030880070093
 20
50.30023785348032
 30
0.0
 11
140.9788239383093
 21
50.54516028708044
 31
0.0
  0
LINE
  5
127
330
70
100
AcDbEntity
  8
0
 62
    18
420
        0
370
    25
100
AcDbLine
 10
140.9788239383093
 20
50.54516028708044
 30
0.0
 11
140.9788239383093
 21
46.05418582168073
 31
0.0
  0
LINE
  5
128
330
70
100
AcDbEntity
  8
0
 62
    18
420
        0
370
    25
100
AcDbLine
 10
139.5646103759093
 20
45.2375123096807
 30
0.0
 11
110.2903896348093
 21
62.13716022448064
 31
0.0
  0
LINE
  5
129
330
70
100
AcDbEntity
  8
0
 62
    18
420
        0
370
    25
100
AcDbLine
 10
110.2903896348093
 20
271.1716080671804
 30
0.0
 11
110.2903896348093
 21
62.13716022448064
 31
0.0
  0
LINE
  5
12A
330
70
100
AcDbEntity
  8
0
 62
    18
420
        0
370
    25
100
AcDbLine
 10
110.2903896348093
 20
271.1716080671804
 30
0.0
 11
139.5646103759093
 21
254.2719601524805
 31
0.0
  0
LINE
  5
12B
330
70
100
AcDbEntity
  8
0
 62
    18
420
        0
370
    25
100
AcDbLine
 10
140.9788239383093
 20
251.8224704168805
 30
0.0
 11
140.9788239383093
 21
247.3314959514804
 31
0.0
  0
LINE
  5
12C
330
70
100
AcDbEntity
  8
0
 62
    18
420
        0
370
    25
100
AcDbLine
 10
257.1564680872094
 20
219.6966254365805
 30
0.0
 11
257.1564680872094
 21
220.8397825731808
 31
0.0
  0
LINE
  5
12D
330
70
100
AcDbEntity
  8
0
 62
    18
420
        0
370
    25
100
AcDbLine
 10
312.169375663509
 20
245.2491908161805
 30
0.0
 11
262.5304796242096
 21
216.5932660911805
 31
0.0
  0
LINE
  5
12E
330
70
100
AcDbEntity
  8
0
 62
    18
420
        0
370
    25
100
AcDbLine
 10
313.5835892259094
 20
244.4325173041805
 30
0.0
 11
313.5835892259094
 21
219.9362929475807
 31
0.0
  0
LINE
  5
12F
330
70
100
AcDbEntity
  8
0
 62
    18
420
        0
370
    25
100
AcDbLine
 10
311.8158222729093
 20
217.2827011840806
 30
0.0
 11
312.169375663509
 21
217.4868032119806
 31
0.0
  0
LINE
  5
130
330
70
100
AcDbEntity
  8
0
 62
    18
420
        0
370
    25
100
AcDbLine
 10
310.4016087106097
 20
181.3550381611807
 30
0.0
 11
310.4016087106097
 21
214.8332114484805
 31
0.0
  0
LINE
  5
131
330
70
100
AcDbEntity
  8
0
 62
    18
420
        0
370
    25
100
AcDbLine
 10
312.169375663509
 20
180.7424666771805
 30
0.0
 11
311.8158222729093
 21
180.5383646491807
 31
0.0
  0
LINE
  5
132
330
70
100
AcDbEntity
  8
0
 62
    18
420
        0
370
    25
100
AcDbLine
 10
313.5835892259094
 20
179.9257931651805
 30
0.0
 11
313.5835892259094
 21
121.1348547094805
 31
0.0
  0
LINE
  5
133
330
70
100
AcDbEntity
  8
0
 62
    18
420
        0
370
    25
100
AcDbLine
 10
311.8158222729093
 20
118.4812629458803
 30
0.0
 11
312.169375663509
 21
118.6853649738808
 31
0.0
  0
LINE
  5
134
330
70
100
AcDbEntity
  8
0
 62
    18
420
        0
370
    25
100
AcDbLine
 10
310.4016087106097
 20
82.5535999229805
 30
0.0
 11
310.4016087106097
 21
116.0317732102806
 31
0.0
  0
LINE
  5
135
330
70
100
AcDbEntity
  8
0
 62
    18
420
        0
370
    25
100
AcDbLine
 10
312.169375663509
 20
81.94102843898026
 30
0.0
 11
311.8158222729093
 21
81.73692641108059
 31
0.0
  0
LINE
  5
136
330
70
100
AcDbEntity
  8
0
 62
    18
420
        0
370
    25
100
AcDbLine
 10
313.5835892259094
 20
81.12435492708035
 30
0.0
 11
313.5835892259094
 21
56.62813057048083
 31
0.0
  0
LINE
  5
137
330
70
100
AcDbEntity
  8
0
 62
    18
420
        0
370
    25
100
AcDbLine
 10
312.169375663509
 20
54.17864083488044
 30
0.0
 11
262.5304796242096
 21
25.52271610988072
 31
0.0
  0
LINE
  5
138
330
70
100
AcDbEntity
  8
0
 62
    18
420
        0
370
    25
100
AcDbLine
 10
257.1564680872094
 20
16.21465511468084
 30
0.0
 11
257.1564680872094
 21
15.07149797798071
 31
0.0
  0
LINE
  5
139
330
70
100
AcDbEntity
  8
0
 62
    18
420
        0
370
    25
100
AcDbLine
 10
255.7422545248096
 20
12.62200824238032
 30
0.0
 11
240.1859053387092
 21
3.641519012380618
 31
0.0
  0
LINE
  5
13A
330
70
100
AcDbEntity
  8
0
 62
    18
420
        0
370
    25
100
AcDbLine
 10
261.6819514868095
 20
217.0831109582807
 30
0.0
 11
262.5304796242096
 21
216.5932660911805
 31
0.0
  0
LINE
  5
13B
330
70
100
AcDbEntity
  8
0
 62
    18
420
        0
370
    25
100
AcDbLine
 10
262.0134308399091
 20
217.2744699155804
 30
0.0
 11
261.6819514868095
 21
217.0831109582807
 31
0.0
  0
LINE
  5
13C
330
70
100
AcDbEntity
  8
0
 62
    18
420
        0
370
    25
100
AcDbLine
 10
149.8883693812094
 20
242.1881248469804
 30
0.0
 11
150.3126334499091
 21
242.4330472805805
 31
0.0
  0
LINE
  5
13D
330
70
100
AcDbEntity
  8
0
 62
    18
420
        0
370
    25
100
AcDbLine
 10
109.1590187849094
 20
271.1716080671804
 30
0.0
 11
109.0175974286095
 21
271.0899672559807
 31
0.0
  0
LINE
  5
13E
330
70
100
AcDbEntity
  8
0
 62
    18
420
        0
370
    25
100
AcDbLine
 10
94.87546180490939
 20
277.6212321505805
 30
0.0
 11
106.1891703039095
 21
271.0899672559807
 31
0.0
  0
LINE
  5
13F
330
70
100
AcDbEntity
  8
0
 62
    18
420
        0
370
    25
100
AcDbLine
 10
94.87546180490939
 20
277.6212321505805
 30
0.0
 11
95.72398994230942
 21
278.1110770176806
 31
0.0
  0
LINE
  5
140
330
70
100
AcDbEntity
  8
0
 62
    18
420
        0
370
    25
100
AcDbLine
 10
107.0376984413092
 20
271.5798121230805
 30
0.0
 11
95.72398994230942
 21
278.1110770176806
 31
0.0
  0
LINE
  5
141
330
70
100
AcDbEntity
  8
0
 62
    18
420
        0
370
    25
100
AcDbLine
 10
108.3104906474093
 20
271.6614529342805
 30
0.0
 11
108.1690692912094
 21
271.5798121230805
 31
0.0
  0
LINE
  5
142
330
70
100
AcDbEntity
  8
0
 62
    18
420
        0
370
    25
100
AcDbLine
 10
139.5646103759093
 20
254.2719601524805
 30
0.0
 11
140.4131385133096
 21
254.7618050195807
 31
0.0
  0
LINE
  5
143
330
70
100
AcDbEntity
  8
0
 62
    18
420
        0
370
    25
100
AcDbLine
 10
140.4131385133096
 20
254.7618050195807
 30
0.0
 11
111.1389177722094
 21
271.6614529342805
 31
0.0
  0
LINE
  5
144
330
70
100
AcDbEntity
  8
0
 62
    18
420
        0
370
    25
100
AcDbLine
 10
140.9788239383093
 20
251.8224704168805
 30
0.0
 11
141.8273520757094
 21
252.3123152839803
 31
0.0
  0
LINE
  5
145
330
70
100
AcDbEntity
  8
0
 62
    18
420
        0
370
    25
100
AcDbLine
 10
140.9788239383093
 20
247.3314959514804
 30
0.0
 11
141.4030880070093
 21
247.5764183850805
 31
0.0
  0
LINE
  5
146
330
70
100
AcDbEntity
  8
0
 62
    18
420
        0
370
    25
100
AcDbLine
 10
141.8273520757094
 20
249.1176387927809
 30
0.0
 11
141.8273520757094
 21
252.3123152839803
 31
0.0
  0
LINE
  5
147
330
70
100
AcDbEntity
  8
0
 62
    18
420
        0
370
    25
100
AcDbLine
 10
109.0175974286095
 20
271.0899672559807
 30
0.0
 11
109.0175974286095
 21
62.0555194132806
 31
0.0
  0
LINE
  5
148
330
70
100
AcDbEntity
  8
0
 62
    18
420
        0
370
    25
100
AcDbLine
 10
106.1891703039095
 20
271.0899672559807
 30
0.0
 11
106.1891703039095
 21
62.0555194132806
 31
0.0
  0
LINE
  5
149
330
70
100
AcDbEntity
  8
0
 62
    18
420
        0
370
    25
100
AcDbLine
 10
109.1590187849094
 20
62.13716022448064
 30
0.0
 11
109.1590187849094
 21
271.1716080671804
 31
0.0
  0
LINE
  5
14A
330
70
100
AcDbEntity
  8
0
 62
    18
420
        0
370
    25
100
AcDbLine
 10
109.0175974286095
 20
62.0555194132806
 30
0.0
 11
109.1590187849094
 21
62.13716022448064
 31
0.0
  0
LINE
  5
14B
330
70
100
AcDbEntity
  8
0
 62
    18
420
        0
370
    25
100
AcDbLine
 10
106.1891703039095
 20
62.0555194132806
 30
0.0
 11
94.87546180490939
 21
68.58678430788039
 31
0.0
  0
LINE
  5
14C
330
70
100
AcDbEntity
  8
0
 62
    18
420
        0
370
    25
100
AcDbLine
 10
93.46124824250933
 20
71.03627404348078
 30
0.0
 11
93.46124824250933
 21
276.8045586386805
 31
0.0
  0
LINE
  5
14D
330
70
100
AcDbEntity
  8
0
 62
    18
420
        0
370
    25
100
AcDbLine
 10
310.9672941355092
 20
181.0282095162802
 30
0.0
 11
311.8158222729093
 21
180.5383646491807
 31
0.0
  0
LINE
  5
14E
330
70
100
AcDbEntity
  8
0
 62
    18
420
        0
370
    25
100
AcDbLine
 10
311.3208475261096
 20
181.2323115442806
 30
0.0
 11
312.169375663509
 21
180.7424666771805
 31
0.0
  0
LINE
  5
14F
330
70
100
AcDbEntity
  8
0
 62
    18
420
        0
370
    25
100
AcDbLine
 10
311.3208475261096
 20
181.2323115442806
 30
0.0
 11
310.9672941355092
 21
181.0282095162802
 31
0.0
  0
LINE
  5
150
330
70
100
AcDbEntity
  8
0
 62
    18
420
        0
370
    25
100
AcDbLine
 10
310.9672941355092
 20
82.22677127808061
 30
0.0
 11
311.8158222729093
 21
81.73692641108059
 31
0.0
  0
LINE
  5
151
330
70
100
AcDbEntity
  8
0
 62
    18
420
        0
370
    25
100
AcDbLine
 10
311.3208475261096
 20
82.43087330608039
 30
0.0
 11
312.169375663509
 21
81.94102843898026
 31
0.0
  0
LINE
  5
152
330
70
100
AcDbEntity
  8
0
 62
    18
420
        0
370
    25
100
AcDbLine
 10
311.3208475261096
 20
82.43087330608039
 30
0.0
 11
310.9672941355092
 21
82.22677127808061
 31
0.0
  0
LINE
  5
153
330
70
100
AcDbEntity
  8
0
 62
    18
420
        0
370
    25
100
AcDbLine
 10
140.9788239383093
 20
46.05418582168073
 30
0.0
 11
141.8273520757094
 21
46.54403068878021
 31
0.0
  0
LINE
  5
154
330
70
100
AcDbEntity
  8
0
 62
    18
420
        0
370
    25
100
AcDbLine
 10
141.8273520757094
 20
46.54403068878021
 30
0.0
 11
141.8273520757094
 21
48.75901744578058
 31
0.0
  0
LINE
  5
155
330
70
100
AcDbEntity
  8
0
 62
    18
420
        0
370
    25
100
AcDbLine
 10
310.4016087106097
 20
86.63272108068033
 30
0.0
 11
311.9800882566094
 21
87.54395792648073
 31
0.0
  0
LINE
  5
156
330
70
100
AcDbEntity
  8
0
 62
    18
420
        0
370
    25
100
AcDbLine
 10
313.0179038009091
 20
84.06037202818035
 30
0.0
 11
310.4016121142096
 21
82.55001898618067
 31
0.0
  0
LINE
  5
157
330
70
100
AcDbEntity
  8
0
 62
    18
420
        0
370
    25
100
AcDbLine
 10
312.8764824447092
 20
87.24515986468047
 30
0.0
 11
316.2547244426096
 21
85.29494227078066
 31
0.0
  0
LINE
  5
158
330
70
100
AcDbEntity
  8
0
 62
    18
420
        0
370
    25
100
AcDbLine
 10
313.5747508844092
 20
254.0624373783806
 30
0.0
 11
314.2906960071096
 21
254.4757437002806
 31
0.0
  0
LINE
  5
159
330
70
100
AcDbEntity
  8
0
 62
    18
420
        0
370
    25
100
AcDbLine
 10
314.8560750774093
 20
256.4349463138806
 30
0.0
 11
312.9114482843095
 21
255.3123371616805
 31
0.0
  0
LINE
  5
15A
330
70
100
AcDbEntity
  8
0
 62
    18
420
        0
370
    25
100
AcDbLine
 10
314.2906960071096
 20
246.3919896625806
 30
0.0
 11
313.1990137863094
 21
247.0224092660805
 31
0.0
  0
LINE
  5
15B
330
70
100
AcDbEntity
  8
0
 62
    18
420
        0
370
    25
100
AcDbLine
 10
313.198886598409
 20
247.0222173137806
 30
0.0
 11
314.2906960071096
 21
246.3917242624805
 31
0.0
  0
LINE
  5
15C
330
70
100
AcDbEntity
  8
0
 62
    18
420
        0
370
    25
100
AcDbLine
 10
313.5209049375091
 20
56.11112855248058
 30
0.0
 11
314.2906960071096
 21
57.44444579228055
 31
0.0
  0
LINE
  5
15D
330
70
100
AcDbEntity
  8
0
 62
    18
420
        0
370
    25
100
AcDbLine
 10
314.2906960071096
 20
49.36069175458081
 30
0.0
 11
313.7250105821093
 21
49.03412850988075
 31
0.0
  0
LINE
  5
15E
330
70
100
AcDbEntity
  8
0
 62
    18
420
        0
370
    25
100
AcDbLine
 10
314.2906960071096
 20
60.71034363968049
 30
0.0
 11
313.5835892259094
 21
59.48559877188061
 31
0.0
  0
LINE
  5
15F
330
70
100
AcDbEntity
  8
0
 62
    18
420
        0
370
    25
100
AcDbLine
 10
238.4888490639097
 20
213.6556565892806
 30
0.0
 11
238.4888490639097
 21
212.7051180795807
 31
0.0
  0
LINE
  5
160
330
70
100
AcDbEntity
  8
0
 62
    18
420
        0
370
    25
100
AcDbLine
 10
32.93290777300924
 20
314.8491235695805
 30
0.0
 11
41.53619439480964
 21
309.8825519192808
 31
0.0
  0
LINE
  5
161
330
70
100
AcDbEntity
  8
0
 62
    18
420
        0
370
    25
100
AcDbLine
 10
141.8273520757094
 20
251.9856989591806
 30
0.0
 11
150.4306386975091
 21
247.0191273088806
 31
0.0
  0
LINE
  5
162
330
70
100
AcDbEntity
  8
0
 62
    18
420
        0
370
    25
100
AcDbLine
 10
257.8635748684096
 20
220.9213703043806
 30
0.0
 11
257.0552813728092
 21
221.3879882071807
 31
0.0
  0
LINE
  5
163
330
70
100
AcDbEntity
  8
0
 62
    18
420
        0
370
    25
100
AcDbLine
 10
329.7047062415094
 20
265.0079380593806
 30
0.0
 11
329.4226432036096
 21
265.1707695851805
 31
0.0
  0
LINE
  5
164
330
70
100
AcDbEntity
  8
0
 62
    18
420
        0
370
    25
100
AcDbLine
 10
313.5835892259094
 20
69.1994088718808
 30
0.0
 11
314.2906960071096
 21
68.79120481598071
 31
0.0
  0
LINE
  5
165
330
70
100
AcDbEntity
  8
0
 62
    18
420
        0
370
    25
100
AcDbLine
 10
314.2906960071096
 20
66.83166610748081
 30
0.0
 11
313.5835892259094
 21
67.23987016338027
 31
0.0
  0
LINE
  5
166
330
70
100
AcDbEntity
  8
0
 62
    18
420
        0
370
    25
100
AcDbLine
 10
150.3126334499091
 20
41.9721983425805
 30
0.0
 11
141.8273520757094
 21
46.87064701348044
 31
0.0
  0
LINE
  5
167
330
70
100
AcDbEntity
  8
0
 62
    18
420
        0
370
    25
100
AcDbLine
 10
41.41818914720929
 20
104.8356229528806
 30
0.0
 11
32.93290777300924
 21
109.7340716238807
 31
0.0
  0
LINE
  5
168
330
70
100
AcDbEntity
  8
0
 62
    18
420
        0
370
    25
100
AcDbLine
 10
263.2375864054091
 20
25.11437935388039
 30
0.0
 11
262.5303646914095
 21
25.52264975918056
 31
0.0
  0
LINE
  5
169
330
70
100
AcDbEntity
  8
0
 62
    18
420
        0
370
    25
100
AcDbLine
 10
257.1564680872094
 20
16.2145224145806
 30
0.0
 11
257.8635748684096
 21
15.8063183586805
 31
0.0
  0
LINE
  5
16A
330
70
100
AcDbEntity
  8
0
 62
    18
420
        0
370
    25
100
AcDbLine
 10
311.6035753045093
 20
53.85201124008085
 30
0.0
 11
312.3107970198096
 21
53.44374083418069
 31
0.0
  0
LINE
  5
16B
330
70
100
AcDbEntity
  8
0
 62
    18
420
        0
370
    25
100
AcDbLine
 10
-14.9382213133905
 20
346.0770523269805
 30
0.0
 11
-14.9382213133905
 21
345.4089912406807
 31
0.0
  0
LINE
  5
16C
330
70
100
AcDbEntity
  8
0
 62
    18
420
        0
370
    25
100
AcDbLine
 10
142.4680609795094
 20
48.38369079738073
 30
0.0
 11
141.8980627538093
 21
48.0546378257808
 31
0.0
  0
LINE
  5
16D
330
70
100
AcDbEntity
  8
0
 62
    18
420
        0
370
    25
100
AcDbLine
 10
311.4621539483094
 20
245.6574612220804
 30
0.0
 11
312.169375663509
 21
245.2491908161805
 31
0.0
  0
LINE
  5
16E
330
70
100
AcDbEntity
  8
0
 62
    18
420
        0
370
    25
100
AcDbLine
 10
312.8764824447092
 20
246.6102732762804
 30
0.0
 11
312.8764824447092
 21
245.5172436586806
 31
0.0
  0
LINE
  5
16F
330
70
100
AcDbEntity
  8
0
 62
    18
420
        0
370
    25
100
AcDbLine
 10
312.8764824447092
 20
218.1137987190805
 30
0.0
 11
312.8764824447092
 21
181.0105195196802
 31
0.0
  0
LINE
  5
170
330
70
100
AcDbEntity
  8
0
 62
    18
420
        0
370
    25
100
AcDbLine
 10
312.8764824447092
 20
119.3123604808808
 30
0.0
 11
312.8764824447092
 21
87.24515986468047
 31
0.0
  0
SPLINE
  5
171
330
70
100
AcDbEntity
  8
0
 62
    18
420
        0
370
    25
100
AcDbSpline
210
0.0
220
0.0
230
1.0
 70
     8
 71
     3
 72
     8
 73
     4
 74
     0
 42
0.0000000001
 43
0.0000000001
 40
0.0
 40
0.0
 40
0.0
 40
0.0
 40
1.0
 40
1.0
 40
1.0
 40
1.0
 10
211.6187913787809
 20
213.6556565892973
 30
0.0
 10
220.0388271612332
 20
209.2708617280594
 30
0.0
 10
230.0688132813855
 20
209.2708617280594
 30
0.0
 10
238.4888490638378
 20
213.6556565892973
 30
0.0
  0
SPLINE
  5
172
330
70
100
AcDbEntity
  8
0
 62
    18
420
        0
370
    25
100
AcDbSpline
210
0.0
220
0.0
230
1.0
 70
     8
 71
     3
 72
    11
 73
     7
 74
     0
 42
0.0000000001
 43
0.0000000001
 40
0.0
 40
0.0
 40
0.0
 40
0.0
 40
1.0
 40
1.0
 40
1.0
 40
2.0
 40
2.0
 40
2.0
 40
2.0
 10
202.5678245796171
 20
220.5134847286029
 30
0.0
 10
202.1169348298194
 20
220.342357060131
 30
0.0
 10
201.8901428529146
 20
219.8381123129862
 30
0.0
 10
202.0612705213868
 20
219.3872225631885
 30
0.0
 10
202.149902314811
 20
219.1536941833655
 30
0.0
 10
202.3342961997941
 20
218.9693002983824
 30
0.0
 10
202.5678245796171
 20
218.8806685049577
 30
0.0
  0
SPLINE
  5
173
330
70
100
AcDbEntity
  8
0
 62
    18
420
        0
370
    25
100
AcDbSpline
210
0.0
220
0.0
230
1.0
 70
     8
 71
     3
 72
     8
 73
     4
 74
     0
 42
0.0000000001
 43
0.0000000001
 40
0.0
 40
0.0
 40
0.0
 40
0.0
 40
1.0
 40
1.0
 40
1.0
 40
1.0
 10
-17.76664843806385
 20
346.0770523269693
 30
0.0
 10
-16.87982532015031
 20
345.6175567990861
 30
0.0
 10
-15.8250444312309
 20
345.6175567990861
 30
0.0
 10
-14.93822131331735
 20
346.0770523269693
 30
0.0
  0
SPLINE
  5
174
330
70
100
AcDbEntity
  8
0
 62
    18
420
        0
370
    25
100
AcDbSpline
210
0.0
220
0.0
230
1.0
 70
     8
 71
     3
 72
     8
 73
     4
 74
     0
 42
0.0000000001
 43
0.0000000001
 40
0.0
 40
0.0
 40
0.0
 40
0.0
 40
1.0
 40
1.0
 40
1.0
 40
1.0
 10
202.4264032233813
 20
220.9216887844738
 30
0.0
 10
201.9248431717539
 20
220.6088312653599
 30
0.0
 10
201.5117391705562
 20
220.1727655078124
 30
0.0
 10
201.2264436168759
 20
219.6550312519389
 30
0.0
  0
SPLINE
  5
175
330
70
100
AcDbEntity
  8
0
 62
    18
420
        0
370
    25
100
AcDbSpline
210
0.0
220
0.0
230
1.0
 70
     8
 71
     3
 72
     8
 73
     4
 74
     0
 42
0.0000000001
 43
0.0000000001
 40
0.0
 40
0.0
 40
0.0
 40
0.0
 40
1.0
 40
1.0
 40
1.0
 40
1.0
 10
-14.2311145322192
 20
345.9954115157747
 30
0.0
 10
-14.73267458384722
 20
345.6825539966608
 30
0.0
 10
-15.14577858504456
 20
345.246488239113
 30
0.0
 10
-15.43107413872522
 20
344.7287539832392
 30
0.0
  0
SPLINE
  5
176
330
70
100
AcDbEntity
  8
0
 62
    18
420
        0
370
    25
100
AcDbSpline
210
0.0
220
0.0
230
1.0
 70
     8
 71
     3
 72
     8
 73
     4
 74
     0
 42
0.0000000001
 43
0.0000000001
 40
0.0
 40
0.0
 40
0.0
 40
0.0
 40
1.0
 40
1.0
 40
1.0
 40
1.0
 10
257.8635748683909
 20
220.9213703044089
 30
0.0
 10
257.8090894229728
 20
222.1187065862853
 30
0.0
 10
257.1761995094533
 20
223.2149040688808
 30
0.0
 10
256.166518593542
 20
223.8607579871199
 30
0.0
  0
SPLINE
  5
177
330
70
100
AcDbEntity
  8
0
 62
    18
420
        0
370
    25
100
AcDbSpline
210
0.0
220
0.0
230
1.0
 70
     8
 71
     3
 72
     8
 73
     4
 74
     0
 42
0.0000000001
 43
0.0000000001
 40
0.0
 40
0.0
 40
0.0
 40
0.0
 40
1.0
 40
1.0
 40
1.0
 40
1.0
 10
313.7250105820913
 20
253.1694907214089
 30
0.0
 10
313.6705251366732
 20
254.3668270032853
 30
0.0
 10
313.037635223153
 20
255.4630244858805
 30
0.0
 10
312.0279543072424
 20
256.1088784041198
 30
0.0
  0
SPLINE
  5
178
330
70
100
AcDbEntity
  8
0
 62
    18
420
        0
370
    25
100
AcDbSpline
210
0.0
220
0.0
230
1.0
 70
     8
 71
     3
 72
     8
 73
     4
 74
     0
 42
0.0000000001
 43
0.0000000001
 40
0.0
 40
0.0
 40
0.0
 40
0.0
 40
1.0
 40
1.0
 40
1.0
 40
1.0
 10
257.0134134781581
 20
221.4729237472682
 30
0.0
 10
256.9652563755909
 20
222.0483588507483
 30
0.0
 10
256.6522800284428
 20
222.5686903502715
 30
0.0
 10
256.1665185935601
 20
222.8809090127904
 30
0.0
  0
SPLINE
  5
179
330
70
100
AcDbEntity
  8
0
 62
    18
420
        0
370
    25
100
AcDbSpline
210
0.0
220
0.0
230
1.0
 70
     8
 71
     3
 72
    11
 73
     7
 74
     0
 42
0.0000000001
 43
0.0000000001
 40
0.0
 40
0.0
 40
0.0
 40
0.0
 40
1.0
 40
1.0
 40
1.0
 40
2.0
 40
2.0
 40
2.0
 40
2.0
 10
257.8635748683678
 20
220.9213703043281
 30
0.0
 10
257.5700649625717
 20
219.1119942306157
 30
0.0
 10
258.7989172906501
 20
217.4072683212345
 30
0.0
 10
260.6082933643622
 20
217.1137584154387
 30
0.0
 10
261.5451039848743
 20
216.96179266273
 30
0.0
 10
262.5021549045144
 20
217.218137442061
 30
0.0
 10
263.2375864053847
 20
217.8180109589197
 30
0.0
  0
SPLINE
  5
17A
330
70
100
AcDbEntity
  8
0
 62
    18
420
        0
370
    25
100
AcDbSpline
210
0.0
220
0.0
230
1.0
 70
     8
 71
     3
 72
     8
 73
     4
 74
     0
 42
0.0000000001
 43
0.0000000001
 40
0.0
 40
0.0
 40
0.0
 40
0.0
 40
1.0
 40
1.0
 40
1.0
 40
1.0
 10
312.3107970197705
 20
246.1473724391642
 30
0.0
 10
313.1521977830297
 20
246.685584037697
 30
0.0
 10
313.6796060442958
 20
247.5990819398601
 30
0.0
 10
313.7250105821445
 20
248.5968621747573
 30
0.0
  0
SPLINE
  5
17B
330
70
100
AcDbEntity
  8
0
 62
    18
420
        0
370
    25
100
AcDbSpline
210
0.0
220
0.0
230
1.0
 70
     8
 71
     3
 72
     8
 73
     4
 74
     0
 42
0.0000000001
 43
0.0000000001
 40
0.0
 40
0.0
 40
0.0
 40
0.0
 40
1.0
 40
1.0
 40
1.0
 40
1.0
 10
257.1564680871978
 20
220.0785658100059
 30
0.0
 10
257.3017166962044
 20
219.1895919715926
 30
0.0
 10
257.8241547469674
 20
218.4068016741374
 30
0.0
 10
258.5893670839628
 20
217.9315946422961
 30
0.0
  0
SPLINE
  5
17C
330
70
100
AcDbEntity
  8
0
 62
    18
420
        0
370
    25
100
AcDbSpline
210
0.0
220
0.0
230
1.0
 70
     8
 71
     3
 72
     8
 73
     4
 74
     0
 42
0.0000000001
 43
0.0000000001
 40
0.0
 40
0.0
 40
0.0
 40
0.0
 40
1.0
 40
1.0
 40
1.0
 40
1.0
 10
329.7056238369704
 20
55.32015249076447
 30
0.0
 10
330.5470246002296
 20
55.85836408929688
 30
0.0
 10
331.0744328614957
 20
56.77186199145998
 30
0.0
 10
331.1198373993445
 20
57.76964222635716
 30
0.0
  0
SPLINE
  5
17D
330
70
100
AcDbEntity
  8
0
 62
    18
420
        0
370
    25
100
AcDbSpline
210
0.0
220
0.0
230
1.0
 70
     8
 71
     3
 72
    11
 73
     7
 74
     0
 42
0.0000000001
 43
0.0000000001
 40
0.0
 40
0.0
 40
0.0
 40
0.0
 40
1.0
 40
1.0
 40
1.0
 40
2.0
 40
2.0
 40
2.0
 40
2.0
 10
315.1392241445565
 20
48.54423056268227
 30
0.0
 10
315.0619846956626
 20
48.0680789643374
 30
0.0
 10
315.385366887262
 20
47.61946688292095
 30
0.0
 10
315.8615184856075
 20
47.54222743402773
 30
0.0
 10
316.1080475962685
 20
47.50223644647244
 30
0.0
 10
316.3599031014367
 20
47.56969559892811
 30
0.0
 10
316.5534377069292
 20
47.72755705073294
 30
0.0
  0
SPLINE
  5
17E
330
70
100
AcDbEntity
  8
0
 62
    18
420
        0
370
    25
100
AcDbSpline
210
0.0
220
0.0
230
1.0
 70
     8
 71
     3
 72
     8
 73
     4
 74
     0
 42
0.0000000001
 43
0.0000000001
 40
0.0
 40
0.0
 40
0.0
 40
0.0
 40
1.0
 40
1.0
 40
1.0
 40
1.0
 10
316.5534377068484
 20
84.4718935855969
 30
0.0
 10
315.7120369435892
 20
83.93368198706449
 30
0.0
 10
315.1846286823224
 20
83.02018408490139
 30
0.0
 10
315.1392241444743
 20
82.0224038500042
 30
0.0
  0
SPLINE
  5
17F
330
70
100
AcDbEntity
  8
0
 62
    18
420
        0
370
    25
100
AcDbSpline
210
0.0
220
0.0
230
1.0
 70
     8
 71
     3
 72
     8
 73
     4
 74
     0
 42
0.0000000001
 43
0.0000000001
 40
0.0
 40
0.0
 40
0.0
 40
0.0
 40
1.0
 40
1.0
 40
1.0
 40
1.0
 10
316.90699109747
 20
84.67599561356459
 30
0.0
 10
317.7483918607304
 20
85.21420721209828
 30
0.0
 10
318.2758001219978
 20
86.12770511426331
 30
0.0
 10
318.3212046598441
 20
87.12548534916242
 30
0.0
  0
SPLINE
  5
180
330
70
100
AcDbEntity
  8
0
 62
    18
420
        0
370
    25
100
AcDbSpline
210
0.0
220
0.0
230
1.0
 70
     8
 71
     3
 72
    11
 73
     7
 74
     0
 42
0.0000000001
 43
0.0000000001
 40
0.0
 40
0.0
 40
0.0
 40
0.0
 40
1.0
 40
1.0
 40
1.0
 40
2.0
 40
2.0
 40
2.0
 40
2.0
 10
318.3212046598626
 20
120.6036586364786
 30
0.0
 10
318.3984441087559
 20
121.0798102348241
 30
0.0
 10
318.0750619171565
 20
121.5284223162399
 30
0.0
 10
317.598910318811
 20
121.6056617651337
 30
0.0
 10
317.35238120815
 20
121.6456527526884
 30
0.0
 10
317.1005257029818
 20
121.5781936002334
 30
0.0
 10
316.9069910974899
 20
121.4203321484279
 30
0.0
  0
SPLINE
  5
181
330
70
100
AcDbEntity
  8
0
 62
    18
420
        0
370
    25
100
AcDbSpline
210
0.0
220
0.0
230
1.0
 70
     8
 71
     3
 72
    11
 73
     7
 74
     0
 42
0.0000000001
 43
0.0000000001
 40
0.0
 40
0.0
 40
0.0
 40
0.0
 40
1.0
 40
1.0
 40
1.0
 40
2.0
 40
2.0
 40
2.0
 40
2.0
 10
315.1392241445565
 20
122.0329036324827
 30
0.0
 10
315.0619846956626
 20
121.5567520341372
 30
0.0
 10
315.385366887262
 20
121.1081399527214
 30
0.0
 10
315.8615184856075
 20
121.0309005038275
 30
0.0
 10
316.1080475962685
 20
120.9909095162722
 30
0.0
 10
316.3599031014367
 20
121.0583686687279
 30
0.0
 10
316.5534377069292
 20
121.2162301205327
 30
0.0
  0
SPLINE
  5
182
330
70
100
AcDbEntity
  8
0
 62
    18
420
        0
370
    25
100
AcDbSpline
210
0.0
220
0.0
230
1.0
 70
     8
 71
     3
 72
     8
 73
     4
 74
     0
 42
0.0000000001
 43
0.0000000001
 40
0.0
 40
0.0
 40
0.0
 40
0.0
 40
1.0
 40
1.0
 40
1.0
 40
1.0
 10
316.5534377068484
 20
183.2733318237965
 30
0.0
 10
315.7120369435892
 20
182.7351202252641
 30
0.0
 10
315.1846286823224
 20
181.821622323101
 30
0.0
 10
315.1392241444743
 20
180.8238420882044
 30
0.0
  0
SPLINE
  5
183
330
70
100
AcDbEntity
  8
0
 62
    18
420
        0
370
    25
100
AcDbSpline
210
0.0
220
0.0
230
1.0
 70
     8
 71
     3
 72
     8
 73
     4
 74
     0
 42
0.0000000001
 43
0.0000000001
 40
0.0
 40
0.0
 40
0.0
 40
0.0
 40
1.0
 40
1.0
 40
1.0
 40
1.0
 10
316.90699109747
 20
183.4774338517642
 30
0.0
 10
317.7483918607312
 20
184.0156454502979
 30
0.0
 10
318.2758001219978
 20
184.9291433524635
 30
0.0
 10
318.3212046598447
 20
185.926923587362
 30
0.0
  0
SPLINE
  5
184
330
70
100
AcDbEntity
  8
0
 62
    18
420
        0
370
    25
100
AcDbSpline
210
0.0
220
0.0
230
1.0
 70
     8
 71
     3
 72
    11
 73
     7
 74
     0
 42
0.0000000001
 43
0.0000000001
 40
0.0
 40
0.0
 40
0.0
 40
0.0
 40
1.0
 40
1.0
 40
1.0
 40
2.0
 40
2.0
 40
2.0
 40
2.0
 10
318.3212046598626
 20
219.4050968746785
 30
0.0
 10
318.3984441087559
 20
219.8812484730237
 30
0.0
 10
318.0750619171565
 20
220.3298605544401
 30
0.0
 10
317.598910318811
 20
220.4071000033337
 30
0.0
 10
317.35238120815
 20
220.4470909908887
 30
0.0
 10
317.1005257029818
 20
220.379631838433
 30
0.0
 10
316.9069910974899
 20
220.2217703866282
 30
0.0
  0
SPLINE
  5
185
330
70
100
AcDbEntity
  8
0
 62
    18
420
        0
370
    25
100
AcDbSpline
210
0.0
220
0.0
230
1.0
 70
     8
 71
     3
 72
    11
 73
     7
 74
     0
 42
0.0000000001
 43
0.0000000001
 40
0.0
 40
0.0
 40
0.0
 40
0.0
 40
1.0
 40
1.0
 40
1.0
 40
2.0
 40
2.0
 40
2.0
 40
2.0
 10
315.1392241445565
 20
220.8343418705829
 30
0.0
 10
315.0619846956626
 20
220.3581902722373
 30
0.0
 10
315.385366887262
 20
219.9095781908209
 30
0.0
 10
315.8615184856075
 20
219.8323387419274
 30
0.0
 10
316.1080475962685
 20
219.7923477543724
 30
0.0
 10
316.3599031014367
 20
219.859806906828
 30
0.0
 10
316.5534377069292
 20
220.0176683586329
 30
0.0
  0
SPLINE
  5
186
330
70
100
AcDbEntity
  8
0
 62
    18
420
        0
370
    25
100
AcDbSpline
210
0.0
220
0.0
230
1.0
 70
     8
 71
     3
 72
     8
 73
     4
 74
     0
 42
0.0000000001
 43
0.0000000001
 40
0.0
 40
0.0
 40
0.0
 40
0.0
 40
1.0
 40
1.0
 40
1.0
 40
1.0
 10
316.5534377068484
 20
256.7620048934969
 30
0.0
 10
315.7120369435892
 20
256.2237932949642
 30
0.0
 10
315.1846286823224
 20
255.310295392801
 30
0.0
 10
315.1392241444743
 20
254.3125151579042
 30
0.0
  0
SPLINE
  5
187
330
70
100
AcDbEntity
  8
0
 62
    18
420
        0
370
    25
100
AcDbSpline
210
0.0
220
0.0
230
1.0
 70
     8
 71
     3
 72
    11
 73
     7
 74
     0
 42
0.0000000001
 43
0.0000000001
 40
0.0
 40
0.0
 40
0.0
 40
0.0
 40
1.0
 40
1.0
 40
1.0
 40
2.0
 40
2.0
 40
2.0
 40
2.0
 10
331.1198373993625
 20
263.5379268215788
 30
0.0
 10
331.1970768482563
 20
264.0140784199239
 30
0.0
 10
330.8736946566563
 20
264.46269050134
 30
0.0
 10
330.3975430583114
 20
264.5399299502336
 30
0.0
 10
330.1510139476504
 20
264.5799209377886
 30
0.0
 10
329.8991584424816
 20
264.5124617853332
 30
0.0
 10
329.7056238369897
 20
264.3546003335281
 30
0.0
  0
SPLINE
  5
188
330
70
100
AcDbEntity
  8
0
 62
    18
420
        0
370
    25
100
AcDbSpline
210
0.0
220
0.0
230
1.0
 70
     8
 71
     3
 72
     8
 73
     4
 74
     0
 42
0.0000000001
 43
0.0000000001
 40
0.0
 40
0.0
 40
0.0
 40
0.0
 40
1.0
 40
1.0
 40
1.0
 40
1.0
 10
315.704909569449
 20
257.2518497605967
 30
0.0
 10
314.8635088061891
 20
256.713638162064
 30
0.0
 10
314.336100544923
 20
255.8001402599014
 30
0.0
 10
314.2906960070743
 20
254.8023600250046
 30
0.0
  0
SPLINE
  5
189
330
70
100
AcDbEntity
  8
0
 62
    18
420
        0
370
    25
100
AcDbSpline
210
0.0
220
0.0
230
1.0
 70
     8
 71
     3
 72
    11
 73
     7
 74
     0
 42
0.0000000001
 43
0.0000000001
 40
0.0
 40
0.0
 40
0.0
 40
0.0
 40
1.0
 40
1.0
 40
1.0
 40
2.0
 40
2.0
 40
2.0
 40
2.0
 10
330.2710602553127
 20
264.7044377356366
 30
0.0
 10
330.3065080756403
 20
264.9900094001941
 30
0.0
 10
330.1037426371108
 20
265.2502471109557
 30
0.0
 10
329.8181709725531
 20
265.2856949312837
 30
0.0
 10
329.6761966984961
 20
265.3033181032666
 30
0.0
 10
329.5332218800026
 20
265.2617893515326
 30
0.0
 10
329.4227811245059
 20
265.1708492052273
 30
0.0
  0
SPLINE
  5
18A
330
70
100
AcDbEntity
  8
0
 62
    18
420
        0
370
    25
100
AcDbSpline
210
0.0
220
0.0
230
1.0
 70
     8
 71
     3
 72
    11
 73
     7
 74
     0
 42
0.0000000001
 43
0.0000000001
 40
0.0
 40
0.0
 40
0.0
 40
0.0
 40
1.0
 40
1.0
 40
1.0
 40
2.0
 40
2.0
 40
2.0
 40
2.0
 10
331.1198373993329
 20
265.1706899651183
 30
0.0
 10
331.2125247380054
 20
265.7420718831325
 30
0.0
 10
330.8244661080858
 20
266.280406380832
 30
0.0
 10
330.2530841900715
 20
266.3730937195042
 30
0.0
 10
329.9572492572782
 20
266.4210829045701
 30
0.0
 10
329.655022651076
 20
266.3401319216236
 30
0.0
 10
329.422781124486
 20
266.1506981794576
 30
0.0
  0
SPLINE
  5
18B
330
70
100
AcDbEntity
  8
0
 62
    18
420
        0
370
    25
100
AcDbSpline
210
0.0
220
0.0
230
1.0
 70
     8
 71
     3
 72
     8
 73
     4
 74
     0
 42
0.0000000001
 43
0.0000000001
 40
0.0
 40
0.0
 40
0.0
 40
0.0
 40
1.0
 40
1.0
 40
1.0
 40
1.0
 10
329.8570144321442
 20
264.9434613016075
 30
0.0
 10
329.5299113652353
 20
265.0912029308068
 30
0.0
 10
329.1488702097933
 20
265.0534706548758
 30
0.0
 10
328.8570956995081
 20
264.8444452006176
 30
0.0
  0
SPLINE
  5
18C
330
70
100
AcDbEntity
  8
0
 62
    18
420
        0
370
    25
100
AcDbSpline
210
0.0
220
0.0
230
1.0
 70
     8
 71
     3
 72
    11
 73
     7
 74
     0
 42
0.0000000001
 43
0.0000000001
 40
0.0
 40
0.0
 40
0.0
 40
0.0
 40
1.0
 40
1.0
 40
1.0
 40
2.0
 40
2.0
 40
2.0
 40
2.0
 10
331.1198373993201
 20
263.2113104967935
 30
0.0
 10
331.6609050990772
 20
263.4166636989602
 30
0.0
 10
331.9330554713634
 20
264.0217573955337
 30
0.0
 10
331.7277022691966
 20
264.5628250952912
 30
0.0
 10
331.6213441170873
 20
264.8430591510786
 30
0.0
 10
331.4000714551075
 20
265.0643318130583
 30
0.0
 10
331.1198373993201
 20
265.1706899651677
 30
0.0
  0
SPLINE
  5
18D
330
70
100
AcDbEntity
  8
0
 62
    18
420
        0
370
    25
100
AcDbSpline
210
0.0
220
0.0
230
1.0
 70
     8
 71
     3
 72
     8
 73
     4
 74
     0
 42
0.0000000001
 43
0.0000000001
 40
0.0
 40
0.0
 40
0.0
 40
0.0
 40
1.0
 40
1.0
 40
1.0
 40
1.0
 10
331.1198373993348
 20
58.09625855103558
 30
0.0
 10
331.5121622855465
 20
58.2740158242168
 30
0.0
 10
331.7800414000972
 20
58.64735782747862
 30
0.0
 10
331.8227811244867
 20
59.07594828522237
 30
0.0
  0
SPLINE
  5
18E
330
70
100
AcDbEntity
  8
0
 62
    18
420
        0
370
    25
100
AcDbSpline
210
0.0
220
0.0
230
1.0
 70
     8
 71
     3
 72
     8
 73
     4
 74
     0
 42
0.0000000001
 43
0.0000000001
 40
0.0
 40
0.0
 40
0.0
 40
0.0
 40
1.0
 40
1.0
 40
1.0
 40
1.0
 10
314.2906960071295
 20
221.3241867377016
 30
0.0
 10
314.2449953568779
 20
220.9652420020086
 30
0.0
 10
314.4052090965413
 20
220.6111317241837
 30
0.0
 10
314.7049908368668
 20
220.4084971247627
 30
0.0
  0
SPLINE
  5
18F
330
70
100
AcDbEntity
  8
0
 62
    18
420
        0
370
    25
100
AcDbSpline
210
0.0
220
0.0
230
1.0
 70
     8
 71
     3
 72
     8
 73
     4
 74
     0
 42
0.0000000001
 43
0.0000000001
 40
0.0
 40
0.0
 40
0.0
 40
0.0
 40
1.0
 40
1.0
 40
1.0
 40
1.0
 10
315.7049095694483
 20
183.7631766908966
 30
0.0
 10
314.8635088061891
 20
183.2249650923642
 30
0.0
 10
314.3361005449224
 20
182.3114671902011
 30
0.0
 10
314.2906960070743
 20
181.3136869553039
 30
0.0
  0
SPLINE
  5
190
330
70
100
AcDbEntity
  8
0
 62
    18
420
        0
370
    25
100
AcDbSpline
210
0.0
220
0.0
230
1.0
 70
     8
 71
     3
 72
     8
 73
     4
 74
     0
 42
0.0000000001
 43
0.0000000001
 40
0.0
 40
0.0
 40
0.0
 40
0.0
 40
1.0
 40
1.0
 40
1.0
 40
1.0
 10
316.05846296007
 20
183.9672787188643
 30
0.0
 10
316.8998637233291
 20
184.5054903173967
 30
0.0
 10
317.4272719845959
 20
185.4189882195598
 30
0.0
 10
317.4726765224446
 20
186.416768454457
 30
0.0
  0
SPLINE
  5
191
330
70
100
AcDbEntity
  8
0
 62
    18
420
        0
370
    25
100
AcDbSpline
210
0.0
220
0.0
230
1.0
 70
     8
 71
     3
 72
     8
 73
     4
 74
     0
 42
0.0000000001
 43
0.0000000001
 40
0.0
 40
0.0
 40
0.0
 40
0.0
 40
1.0
 40
1.0
 40
1.0
 40
1.0
 10
314.2906960070474
 20
122.5227484995539
 30
0.0
 10
314.2449953567694
 20
122.1638037638571
 30
0.0
 10
314.4052090964393
 20
121.8096934860193
 30
0.0
 10
314.7049908367853
 20
121.6070588866154
 30
0.0
  0
SPLINE
  5
192
330
70
100
AcDbEntity
  8
0
 62
    18
420
        0
370
    25
100
AcDbSpline
210
0.0
220
0.0
230
1.0
 70
     8
 71
     3
 72
     8
 73
     4
 74
     0
 42
0.0000000001
 43
0.0000000001
 40
0.0
 40
0.0
 40
0.0
 40
0.0
 40
1.0
 40
1.0
 40
1.0
 40
1.0
 10
263.2375864054387
 20
25.11437935392146
 30
0.0
 10
260.0402635050537
 20
23.06917527949778
 30
0.0
 10
258.0361121122408
 20
19.59788325127878
 30
0.0
 10
257.8635748684172
 20
15.80631835867024
 30
0.0
  0
SPLINE
  5
193
330
70
100
AcDbEntity
  8
0
 62
    18
420
        0
370
    25
100
AcDbSpline
210
0.0
220
0.0
230
1.0
 70
     8
 71
     3
 72
    11
 73
     7
 74
     0
 42
0.0000000001
 43
0.0000000001
 40
0.0
 40
0.0
 40
0.0
 40
0.0
 40
1.0
 40
1.0
 40
1.0
 40
2.0
 40
2.0
 40
2.0
 40
2.0
 10
313.7250105821626
 20
52.62706732217875
 30
0.0
 10
313.8022500310563
 20
53.10321892052361
 30
0.0
 10
313.4788678394564
 20
53.55183100194007
 30
0.0
 10
313.0027162411115
 20
53.62907045083392
 30
0.0
 10
312.7561871304499
 20
53.66906143838858
 30
0.0
 10
312.5043316252817
 20
53.6016022859329
 30
0.0
 10
312.3107970197897
 20
53.44374083412808
 30
0.0
  0
SPLINE
  5
194
330
70
100
AcDbEntity
  8
0
 62
    18
420
        0
370
    25
100
AcDbSpline
210
0.0
220
0.0
230
1.0
 70
     8
 71
     3
 72
     8
 73
     4
 74
     0
 42
0.0000000001
 43
0.0000000001
 40
0.0
 40
0.0
 40
0.0
 40
0.0
 40
1.0
 40
1.0
 40
1.0
 40
1.0
 10
313.2278567864773
 20
46.95561124018128
 30
0.0
 10
313.581833277565
 20
47.20359102485391
 30
0.0
 10
313.7724286647053
 20
47.62485193315259
 30
0.0
 10
313.7250105821613
 20
48.05443877570809
 30
0.0
  0
SPLINE
  5
195
330
70
100
AcDbEntity
  8
0
 62
    18
420
        0
370
    25
100
AcDbSpline
210
0.0
220
0.0
230
1.0
 70
     8
 71
     3
 72
     8
 73
     4
 74
     0
 42
0.0000000001
 43
0.0000000001
 40
0.0
 40
0.0
 40
0.0
 40
0.0
 40
1.0
 40
1.0
 40
1.0
 40
1.0
 10
257.1063614462323
 20
14.61171646207547
 30
0.0
 10
257.6241494627433
 20
14.76165898789401
 30
0.0
 10
257.9489407482427
 20
15.2740591570971
 30
0.0
 10
257.8635748684224
 20
15.80631835866574
 30
0.0
  0
SPLINE
  5
196
330
70
100
AcDbEntity
  8
0
 62
    18
420
        0
370
    25
100
AcDbSpline
210
0.0
220
0.0
230
1.0
 70
     8
 71
     3
 72
     8
 73
     4
 74
     0
 42
0.0000000001
 43
0.0000000001
 40
0.0
 40
0.0
 40
0.0
 40
0.0
 40
1.0
 40
1.0
 40
1.0
 40
1.0
 10
315.7049095694483
 20
84.96173845269703
 30
0.0
 10
314.8635088061891
 20
84.42352685416398
 30
0.0
 10
314.3361005449224
 20
83.51002895200153
 30
0.0
 10
314.2906960070743
 20
82.51224871710434
 30
0.0
  0
SPLINE
  5
197
330
70
100
AcDbEntity
  8
0
 62
    18
420
        0
370
    25
100
AcDbSpline
210
0.0
220
0.0
230
1.0
 70
     8
 71
     3
 72
     8
 73
     4
 74
     0
 42
0.0000000001
 43
0.0000000001
 40
0.0
 40
0.0
 40
0.0
 40
0.0
 40
1.0
 40
1.0
 40
1.0
 40
1.0
 10
316.05846296007
 20
85.16584048066409
 30
0.0
 10
316.8998637233298
 20
85.70405207919714
 30
0.0
 10
317.4272719845959
 20
86.61754998135959
 30
0.0
 10
317.4726765224446
 20
87.61533021625679
 30
0.0
  0
SPLINE
  5
198
330
70
100
AcDbEntity
  8
0
 62
    18
420
        0
370
    25
100
AcDbSpline
210
0.0
220
0.0
230
1.0
 70
     8
 71
     3
 72
     8
 73
     4
 74
     0
 42
0.0000000001
 43
0.0000000001
 40
0.0
 40
0.0
 40
0.0
 40
0.0
 40
1.0
 40
1.0
 40
1.0
 40
1.0
 10
314.2906960070884
 20
49.03407542982796
 30
0.0
 10
314.2449953568239
 20
48.67513069413303
 30
0.0
 10
314.4052090964899
 20
48.32102041630168
 30
0.0
 10
314.7049908368251
 20
48.11838581688938
 30
0.0
  0
SPLINE
  5
199
330
70
100
AcDbEntity
  8
0
 62
    18
420
        0
370
    25
100
AcDbSpline
210
0.0
220
0.0
230
1.0
 70
     8
 71
     3
 72
     8
 73
     4
 74
     0
 42
0.0000000001
 43
0.0000000001
 40
0.0
 40
0.0
 40
0.0
 40
0.0
 40
1.0
 40
1.0
 40
1.0
 40
1.0
 10
41.41818914717464
 20
103.5293168939622
 30
0.0
 10
41.46359368502143
 20
102.5315366590637
 30
0.0
 10
41.99100194628818
 20
101.618038756898
 30
0.0
 10
42.83240270954901
 20
101.079827158365
 30
0.0
  0
SPLINE
  5
19A
330
70
100
AcDbEntity
  8
0
 62
    18
420
        0
370
    25
100
AcDbSpline
210
0.0
220
0.0
230
1.0
 70
     8
 71
     3
 72
    11
 73
     7
 74
     0
 42
0.0000000001
 43
0.0000000001
 40
0.0
 40
0.0
 40
0.0
 40
0.0
 40
1.0
 40
1.0
 40
1.0
 40
2.0
 40
2.0
 40
2.0
 40
2.0
 10
30.67016607318958
 20
108.1009369200328
 30
0.0
 10
31.04396295053656
 20
107.7960399348759
 30
0.0
 10
31.59415303369991
 20
107.8518943333137
 30
0.0
 10
31.89905001885683
 20
108.225691210661
 30
0.0
 10
32.05691147066197
 20
108.4192258161529
 30
0.0
 10
32.12437062311733
 20
108.6710813213211
 30
0.0
 10
32.08437963556235
 20
108.9176104319821
 30
0.0
  0
SPLINE
  5
19B
330
70
100
AcDbEntity
  8
0
 62
    18
420
        0
370
    25
100
AcDbSpline
210
0.0
220
0.0
230
1.0
 70
     8
 71
     3
 72
     8
 73
     4
 74
     0
 42
0.0000000001
 43
0.0000000001
 40
0.0
 40
0.0
 40
0.0
 40
0.0
 40
1.0
 40
1.0
 40
1.0
 40
1.0
 10
32.08437963554438
 20
314.6858950271989
 30
0.0
 10
32.03897509769758
 20
315.6836752620977
 30
0.0
 10
31.51156683643084
 20
316.597173164263
 30
0.0
 10
30.67016607317001
 20
317.1353847627965
 30
0.0
  0
SPLINE
  5
19C
330
70
100
AcDbEntity
  8
0
 62
    18
420
        0
370
    25
100
AcDbSpline
210
0.0
220
0.0
230
1.0
 70
     8
 71
     3
 72
    11
 73
     7
 74
     0
 42
0.0000000001
 43
0.0000000001
 40
0.0
 40
0.0
 40
0.0
 40
0.0
 40
1.0
 40
1.0
 40
1.0
 40
2.0
 40
2.0
 40
2.0
 40
2.0
 10
42.83240270952911
 20
310.1142750011286
 30
0.0
 10
42.45860583218245
 20
310.4191719862852
 30
0.0
 10
41.90841574901879
 20
310.3633175878467
 30
0.0
 10
41.60351876386187
 20
309.9895207105003
 30
0.0
 10
41.44565731205672
 20
309.7959861050081
 30
0.0
 10
41.37819815960137
 20
309.5441305998396
 30
0.0
 10
41.41818914715634
 20
309.2976014891786
 30
0.0
  0
SPLINE
  5
19D
330
70
100
AcDbEntity
  8
0
 62
    18
420
        0
370
    25
100
AcDbSpline
210
0.0
220
0.0
230
1.0
 70
     8
 71
     3
 72
     8
 73
     4
 74
     0
 42
0.0000000001
 43
0.0000000001
 40
0.0
 40
0.0
 40
0.0
 40
0.0
 40
1.0
 40
1.0
 40
1.0
 40
1.0
 10
108.0399610179844
 20
271.519377086185
 30
0.0
 10
107.8251905760403
 20
272.2179457756553
 30
0.0
 10
107.3698927934499
 20
272.8178449051881
 30
0.0
 10
106.7548557288197
 20
273.2126283468025
 30
0.0
  0
SPLINE
  5
19E
330
70
100
AcDbEntity
  8
0
 62
    18
420
        0
370
    25
100
AcDbSpline
210
0.0
220
0.0
230
1.0
 70
     8
 71
     3
 72
     8
 73
     4
 74
     0
 42
0.0000000001
 43
0.0000000001
 40
0.0
 40
0.0
 40
0.0
 40
0.0
 40
1.0
 40
1.0
 40
1.0
 40
1.0
 10
108.9209090120524
 20
271.9022717788838
 30
0.0
 10
108.7205390216511
 20
272.645137698196
 30
0.0
 10
108.2508839201977
 20
273.2868512854373
 30
0.0
 10
107.6033838663082
 20
273.7024732138073
 30
0.0
  0
SPLINE
  5
19F
330
70
100
AcDbEntity
  8
0
 62
    18
420
        0
370
    25
100
AcDbSpline
210
0.0
220
0.0
230
1.0
 70
     8
 71
     3
 72
     8
 73
     4
 74
     0
 42
0.0000000001
 43
0.0000000001
 40
0.0
 40
0.0
 40
0.0
 40
0.0
 40
1.0
 40
1.0
 40
1.0
 40
1.0
 10
43.68093084701066
 20
310.6041198682181
 30
0.0
 10
43.38915633672547
 20
310.8131453224759
 30
0.0
 10
43.00811518128345
 20
310.8508775984069
 30
0.0
 10
42.68101211437458
 20
310.7031359692077
 30
0.0
  0
SPLINE
  5
1A0
330
70
100
AcDbEntity
  8
0
 62
    18
420
        0
370
    25
100
AcDbSpline
210
0.0
220
0.0
230
1.0
 70
     8
 71
     3
 72
     8
 73
     4
 74
     0
 42
0.0000000001
 43
0.0000000001
 40
0.0
 40
0.0
 40
0.0
 40
0.0
 40
1.0
 40
1.0
 40
1.0
 40
1.0
 10
41.41818914720704
 20
307.0826147322004
 30
0.0
 10
41.15696277946276
 20
306.6096482870277
 30
0.0
 10
41.01156692539505
 20
306.0814973131635
 30
0.0
 10
40.99392507849482
 20
305.5414739445006
 30
0.0
  0
SPLINE
  5
1A1
330
70
100
AcDbEntity
  8
0
 62
    18
420
        0
370
    25
100
AcDbSpline
210
0.0
220
0.0
230
1.0
 70
     8
 71
     3
 72
     8
 73
     4
 74
     0
 42
0.0000000001
 43
0.0000000001
 40
0.0
 40
0.0
 40
0.0
 40
0.0
 40
1.0
 40
1.0
 40
1.0
 40
1.0
 10
33.82480835463623
 20
313.1094291055069
 30
0.0
 10
33.03822765471303
 20
312.4380025381909
 30
0.0
 10
32.56230155507426
 20
311.4727070400728
 30
0.0
 10
32.50864370425532
 20
310.4399226154057
 30
0.0
  0
SPLINE
  5
1A2
330
70
100
AcDbEntity
  8
0
 62
    18
420
        0
370
    25
100
AcDbSpline
210
0.0
220
0.0
230
1.0
 70
     8
 71
     3
 72
     8
 73
     4
 74
     0
 42
0.0000000001
 43
0.0000000001
 40
0.0
 40
0.0
 40
0.0
 40
0.0
 40
1.0
 40
1.0
 40
1.0
 40
1.0
 10
32.93290777294411
 20
315.1757398943042
 30
0.0
 10
32.88750323509571
 20
316.1735201292013
 30
0.0
 10
32.36009497382929
 20
317.0870180313638
 30
0.0
 10
31.51869421057006
 20
317.6252296298965
 30
0.0
  0
SPLINE
  5
1A3
330
70
100
AcDbEntity
  8
0
 62
    18
420
        0
370
    25
100
AcDbSpline
210
0.0
220
0.0
230
1.0
 70
     8
 71
     3
 72
     8
 73
     4
 74
     0
 42
0.0000000001
 43
0.0000000001
 40
0.0
 40
0.0
 40
0.0
 40
0.0
 40
1.0
 40
1.0
 40
1.0
 40
1.0
 10
40.99392507850413
 20
107.7752893058003
 30
0.0
 10
40.9580087592643
 20
107.3770137696344
 30
0.0
 10
41.11589613874587
 20
106.9857801719661
 30
0.0
 10
41.41818914721571
 20
106.7239933851974
 30
0.0
  0
SPLINE
  5
1A4
330
70
100
AcDbEntity
  8
0
 62
    18
420
        0
370
    25
100
AcDbSpline
210
0.0
220
0.0
230
1.0
 70
     8
 71
     3
 72
     8
 73
     4
 74
     0
 42
0.0000000001
 43
0.0000000001
 40
0.0
 40
0.0
 40
0.0
 40
0.0
 40
1.0
 40
1.0
 40
1.0
 40
1.0
 10
32.5086437042566
 20
112.6737379766707
 30
0.0
 10
32.4538029238827
 20
112.2430042938285
 30
0.0
 10
32.64605941149517
 20
111.8180719604024
 30
0.0
 10
33.00579749994178
 20
111.5749104411446
 30
0.0
  0
SPLINE
  5
1A5
330
70
100
AcDbEntity
  8
0
 62
    18
420
        0
370
    25
100
AcDbSpline
210
0.0
220
0.0
230
1.0
 70
     8
 71
     3
 72
     8
 73
     4
 74
     0
 42
0.0000000001
 43
0.0000000001
 40
0.0
 40
0.0
 40
0.0
 40
0.0
 40
1.0
 40
1.0
 40
1.0
 40
1.0
 10
32.51861294326486
 20
108.4917656862072
 30
0.0
 10
32.81359335258622
 20
108.6984155066998
 30
0.0
 10
32.97242284189329
 20
109.0494662636663
 30
0.0
 10
32.93290777300251
 20
109.4074552991451
 30
0.0
  0
SPLINE
  5
1A6
330
70
100
AcDbEntity
  8
0
 62
    18
420
        0
370
    25
100
AcDbSpline
210
0.0
220
0.0
230
1.0
 70
     8
 71
     3
 72
     8
 73
     4
 74
     0
 42
0.0000000001
 43
0.0000000001
 40
0.0
 40
0.0
 40
0.0
 40
0.0
 40
1.0
 40
1.0
 40
1.0
 40
1.0
 10
212.467319516281
 20
213.1658117221975
 30
0.0
 10
220.8873552987334
 20
208.7810168609593
 30
0.0
 10
230.9173414188856
 20
208.7810168609593
 30
0.0
 10
239.3373772013374
 20
213.1658117221975
 30
0.0
  0
SPLINE
  5
1A7
330
70
100
AcDbEntity
  8
0
 62
    18
420
        0
370
    25
100
AcDbSpline
210
0.0
220
0.0
230
1.0
 70
     8
 71
     3
 72
     8
 73
     4
 74
     0
 42
0.0000000001
 43
0.0000000001
 40
0.0
 40
0.0
 40
0.0
 40
0.0
 40
1.0
 40
1.0
 40
1.0
 40
1.0
 10
211.6187913788579
 20
212.6759668550643
 30
0.0
 10
220.570618894939
 20
208.0142375815376
 30
0.0
 10
231.2340778226801
 20
208.0142375815376
 30
0.0
 10
240.1859053387605
 20
212.6759668550643
 30
0.0
  0
SPLINE
  5
1A8
330
70
100
AcDbEntity
  8
0
 62
    18
420
        0
370
    25
100
AcDbSpline
210
0.0
220
0.0
230
1.0
 70
     8
 71
     3
 72
     8
 73
     4
 74
     0
 42
0.0000000001
 43
0.0000000001
 40
0.0
 40
0.0
 40
0.0
 40
0.0
 40
1.0
 40
1.0
 40
1.0
 40
1.0
 10
211.6187913788585
 20
3.641519012365217
 30
0.0
 10
220.570618894939
 20
-1.020210261162078
 30
0.0
 10
231.2340778226794
 20
-1.020210261162078
 30
0.0
 10
240.1859053387605
 20
3.641519012365217
 30
0.0
  0
SPLINE
  5
1A9
330
70
100
AcDbEntity
  8
0
 62
    18
420
        0
370
    25
100
AcDbSpline
210
0.0
220
0.0
230
1.0
 70
     8
 71
     3
 72
    11
 73
     7
 74
     0
 42
0.0000000001
 43
0.0000000001
 40
0.0
 40
0.0
 40
0.0
 40
0.0
 40
1.0
 40
1.0
 40
1.0
 40
2.0
 40
2.0
 40
2.0
 40
2.0
 10
151.7268470123293
 20
247.2508503908281
 30
0.0
 10
151.353050134982
 20
247.5557473759854
 30
0.0
 10
150.8028600518187
 20
247.4998929775472
 30
0.0
 10
150.4979630666618
 20
247.1260961002005
 30
0.0
 10
150.3401016148569
 20
246.9325614947086
 30
0.0
 10
150.2726424624013
 20
246.6807059895398
 30
0.0
 10
150.3126334499566
 20
246.4341768788788
 30
0.0
  0
SPLINE
  5
1AA
330
70
100
AcDbEntity
  8
0
 62
    18
420
        0
370
    25
100
AcDbSpline
210
0.0
220
0.0
230
1.0
 70
     8
 71
     3
 72
     8
 73
     4
 74
     0
 42
0.0000000001
 43
0.0000000001
 40
0.0
 40
0.0
 40
0.0
 40
0.0
 40
1.0
 40
1.0
 40
1.0
 40
1.0
 10
150.3126334499739
 20
40.6658922836569
 30
0.0
 10
150.3580379878226
 20
39.66811204875972
 30
0.0
 10
150.8854462490887
 20
38.75461414659663
 30
0.0
 10
151.7268470123486
 20
38.21640254806421
 30
0.0
  0
SPLINE
  5
1AB
330
70
100
AcDbEntity
  8
0
 62
    18
420
        0
370
    25
100
AcDbSpline
210
0.0
220
0.0
230
1.0
 70
     8
 71
     3
 72
    11
 73
     7
 74
     0
 42
0.0000000001
 43
0.0000000001
 40
0.0
 40
0.0
 40
0.0
 40
0.0
 40
1.0
 40
1.0
 40
1.0
 40
2.0
 40
2.0
 40
2.0
 40
2.0
 10
139.5646103758897
 20
45.23751230973267
 30
0.0
 10
139.9384072532363
 20
44.93261532457576
 30
0.0
 10
140.4885973363997
 20
44.98846972301422
 30
0.0
 10
140.7934943215569
 20
45.36226660036088
 30
0.0
 10
140.9513557733617
 20
45.55580120585283
 30
0.0
 10
141.0188149258174
 20
45.80765671102103
 30
0.0
 10
140.9788239382625
 20
46.05418582168264
 30
0.0
  0
SPLINE
  5
1AC
330
70
100
AcDbEntity
  8
0
 62
    18
420
        0
370
    25
100
AcDbSpline
210
0.0
220
0.0
230
1.0
 70
     8
 71
     3
 72
     8
 73
     4
 74
     0
 42
0.0000000001
 43
0.0000000001
 40
0.0
 40
0.0
 40
0.0
 40
0.0
 40
1.0
 40
1.0
 40
1.0
 40
1.0
 10
140.9788239382445
 20
251.8224704169042
 30
0.0
 10
140.9334194003961
 20
252.8202506518011
 30
0.0
 10
140.4060111391293
 20
253.7337485539642
 30
0.0
 10
139.5646103758701
 20
254.2719601524966
 30
0.0
  0
SPLINE
  5
1AD
330
70
100
AcDbEntity
  8
0
 62
    18
420
        0
370
    25
100
AcDbSpline
210
0.0
220
0.0
230
1.0
 70
     8
 71
     3
 72
    11
 73
     7
 74
     0
 42
0.0000000001
 43
0.0000000001
 40
0.0
 40
0.0
 40
0.0
 40
0.0
 40
1.0
 40
1.0
 40
1.0
 40
2.0
 40
2.0
 40
2.0
 40
2.0
 10
257.1564680872626
 20
220.8397825731786
 30
0.0
 10
257.2337075361558
 20
221.3159341715237
 30
0.0
 10
256.9103253445565
 20
221.7645462529402
 30
0.0
 10
256.4341737462116
 20
221.8417857018337
 30
0.0
 10
256.18764463555
 20
221.8817766893887
 30
0.0
 10
255.9357891303818
 20
221.8143175369331
 30
0.0
 10
255.7422545248898
 20
221.6564560851282
 30
0.0
  0
SPLINE
  5
1AE
330
70
100
AcDbEntity
  8
0
 62
    18
420
        0
370
    25
100
AcDbSpline
210
0.0
220
0.0
230
1.0
 70
     8
 71
     3
 72
    11
 73
     7
 74
     0
 42
0.0000000001
 43
0.0000000001
 40
0.0
 40
0.0
 40
0.0
 40
0.0
 40
1.0
 40
1.0
 40
1.0
 40
2.0
 40
2.0
 40
2.0
 40
2.0
 10
257.1564680871676
 20
219.6966254365282
 30
0.0
 10
256.8629581813715
 20
217.8872493628158
 30
0.0
 10
258.09181050945
 20
216.1825234534346
 30
0.0
 10
259.901186583162
 20
215.8890135476388
 30
0.0
 10
260.8379972036741
 20
215.7370477949298
 30
0.0
 10
261.7950481233143
 20
215.9933925742608
 30
0.0
 10
262.5304796241846
 20
216.5932660911195
 30
0.0
  0
SPLINE
  5
1AF
330
70
100
AcDbEntity
  8
0
 62
    18
420
        0
370
    25
100
AcDbSpline
210
0.0
220
0.0
230
1.0
 70
     8
 71
     3
 72
    11
 73
     7
 74
     0
 42
0.0000000001
 43
0.0000000001
 40
0.0
 40
0.0
 40
0.0
 40
0.0
 40
1.0
 40
1.0
 40
1.0
 40
2.0
 40
2.0
 40
2.0
 40
2.0
 10
313.5835892258626
 20
244.4325173041786
 30
0.0
 10
313.6608286747564
 20
244.9086689025238
 30
0.0
 10
313.3374464831564
 20
245.3572809839399
 30
0.0
 10
312.8612948848116
 20
245.4345204328338
 30
0.0
 10
312.6147657741499
 20
245.4745114203888
 30
0.0
 10
312.3629102689818
 20
245.4070522679331
 30
0.0
 10
312.1693756634898
 20
245.2491908161282
 30
0.0
  0
SPLINE
  5
1B0
330
70
100
AcDbEntity
  8
0
 62
    18
420
        0
370
    25
100
AcDbSpline
210
0.0
220
0.0
230
1.0
 70
     8
 71
     3
 72
     8
 73
     4
 74
     0
 42
0.0000000001
 43
0.0000000001
 40
0.0
 40
0.0
 40
0.0
 40
0.0
 40
1.0
 40
1.0
 40
1.0
 40
1.0
 10
312.16937566357
 20
217.4868032120644
 30
0.0
 10
313.0107764268292
 20
218.0250148105971
 30
0.0
 10
313.538184688096
 20
218.9385127127599
 30
0.0
 10
313.5835892259441
 20
219.9362929476571
 30
0.0
  0
SPLINE
  5
1B1
330
70
100
AcDbEntity
  8
0
 62
    18
420
        0
370
    25
100
AcDbSpline
210
0.0
220
0.0
230
1.0
 70
     8
 71
     3
 72
     8
 73
     4
 74
     0
 42
0.0000000001
 43
0.0000000001
 40
0.0
 40
0.0
 40
0.0
 40
0.0
 40
1.0
 40
1.0
 40
1.0
 40
1.0
 10
311.8158222729484
 20
217.2827011840967
 30
0.0
 10
310.9744215096892
 20
216.744489585564
 30
0.0
 10
310.4470132484231
 20
215.8309916834012
 30
0.0
 10
310.4016087105744
 20
214.833211448504
 30
0.0
  0
SPLINE
  5
1B2
330
70
100
AcDbEntity
  8
0
 62
    18
420
        0
370
    25
100
AcDbSpline
210
0.0
220
0.0
230
1.0
 70
     8
 71
     3
 72
    11
 73
     7
 74
     0
 42
0.0000000001
 43
0.0000000001
 40
0.0
 40
0.0
 40
0.0
 40
0.0
 40
1.0
 40
1.0
 40
1.0
 40
2.0
 40
2.0
 40
2.0
 40
2.0
 10
310.4016087105564
 20
181.3550381611826
 30
0.0
 10
310.3243692616625
 20
180.8788865628372
 30
0.0
 10
310.6477514532619
 20
180.4302744814213
 30
0.0
 10
311.1239030516074
 20
180.3530350325275
 30
0.0
 10
311.3704321622684
 20
180.3130440449722
 30
0.0
 10
311.6222876674372
 20
180.3805031974279
 30
0.0
 10
311.8158222729292
 20
180.5383646492327
 30
0.0
  0
SPLINE
  5
1B3
330
70
100
AcDbEntity
  8
0
 62
    18
420
        0
370
    25
100
AcDbSpline
210
0.0
220
0.0
230
1.0
 70
     8
 71
     3
 72
    11
 73
     7
 74
     0
 42
0.0000000001
 43
0.0000000001
 40
0.0
 40
0.0
 40
0.0
 40
0.0
 40
1.0
 40
1.0
 40
1.0
 40
2.0
 40
2.0
 40
2.0
 40
2.0
 10
313.5835892258626
 20
179.9257931651785
 30
0.0
 10
313.6608286747564
 20
180.4019447635241
 30
0.0
 10
313.3374464831564
 20
180.8505568449399
 30
0.0
 10
312.8612948848116
 20
180.9277962938337
 30
0.0
 10
312.6147657741499
 20
180.9677872813884
 30
0.0
 10
312.3629102689818
 20
180.9003281289333
 30
0.0
 10
312.1693756634898
 20
180.7424666771279
 30
0.0
  0
SPLINE
  5
1B4
330
70
100
AcDbEntity
  8
0
 62
    18
420
        0
370
    25
100
AcDbSpline
210
0.0
220
0.0
230
1.0
 70
     8
 71
     3
 72
     8
 73
     4
 74
     0
 42
0.0000000001
 43
0.0000000001
 40
0.0
 40
0.0
 40
0.0
 40
0.0
 40
1.0
 40
1.0
 40
1.0
 40
1.0
 10
312.16937566357
 20
118.6853649738641
 30
0.0
 10
313.0107764268292
 20
119.2235765723971
 30
0.0
 10
313.538184688096
 20
120.1370744745596
 30
0.0
 10
313.5835892259441
 20
121.1348547094568
 30
0.0
  0
SPLINE
  5
1B5
330
70
100
AcDbEntity
  8
0
 62
    18
420
        0
370
    25
100
AcDbSpline
210
0.0
220
0.0
230
1.0
 70
     8
 71
     3
 72
     8
 73
     4
 74
     0
 42
0.0000000001
 43
0.0000000001
 40
0.0
 40
0.0
 40
0.0
 40
0.0
 40
1.0
 40
1.0
 40
1.0
 40
1.0
 10
311.8158222729484
 20
118.4812629458964
 30
0.0
 10
310.9744215096892
 20
117.943051347364
 30
0.0
 10
310.4470132484231
 20
117.0295534452009
 30
0.0
 10
310.4016087105744
 20
116.0317732103044
 30
0.0
  0
SPLINE
  5
1B6
330
70
100
AcDbEntity
  8
0
 62
    18
420
        0
370
    25
100
AcDbSpline
210
0.0
220
0.0
230
1.0
 70
     8
 71
     3
 72
    11
 73
     7
 74
     0
 42
0.0000000001
 43
0.0000000001
 40
0.0
 40
0.0
 40
0.0
 40
0.0
 40
1.0
 40
1.0
 40
1.0
 40
2.0
 40
2.0
 40
2.0
 40
2.0
 10
310.4016087105564
 20
82.55359992298243
 30
0.0
 10
310.3243692616625
 20
82.07744832463692
 30
0.0
 10
310.6477514532619
 20
81.62883624322111
 30
0.0
 10
311.1239030516074
 20
81.55159679432726
 30
0.0
 10
311.3704321622684
 20
81.5116058067726
 30
0.0
 10
311.6222876674372
 20
81.57906495922828
 30
0.0
 10
311.8158222729292
 20
81.73692641103309
 30
0.0
  0
SPLINE
  5
1B7
330
70
100
AcDbEntity
  8
0
 62
    18
420
        0
370
    25
100
AcDbSpline
210
0.0
220
0.0
230
1.0
 70
     8
 71
     3
 72
    11
 73
     7
 74
     0
 42
0.0000000001
 43
0.0000000001
 40
0.0
 40
0.0
 40
0.0
 40
0.0
 40
1.0
 40
1.0
 40
1.0
 40
2.0
 40
2.0
 40
2.0
 40
2.0
 10
313.5835892258626
 20
81.12435492707842
 30
0.0
 10
313.6608286747564
 20
81.60050652542393
 30
0.0
 10
313.3374464831564
 20
82.04911860684036
 30
0.0
 10
312.8612948848116
 20
82.12635805573359
 30
0.0
 10
312.6147657741499
 20
82.16634904328889
 30
0.0
 10
312.3629102689818
 20
82.09888989083321
 30
0.0
 10
312.1693756634898
 20
81.94102843902838
 30
0.0
  0
SPLINE
  5
1B8
330
70
100
AcDbEntity
  8
0
 62
    18
420
        0
370
    25
100
AcDbSpline
210
0.0
220
0.0
230
1.0
 70
     8
 71
     3
 72
     8
 73
     4
 74
     0
 42
0.0000000001
 43
0.0000000001
 40
0.0
 40
0.0
 40
0.0
 40
0.0
 40
1.0
 40
1.0
 40
1.0
 40
1.0
 10
312.16937566357
 20
54.17864083486439
 30
0.0
 10
313.0107764268292
 20
54.71685243339681
 30
0.0
 10
313.538184688096
 20
55.63035033555991
 30
0.0
 10
313.5835892259447
 20
56.6281305704571
 30
0.0
  0
SPLINE
  5
1B9
330
70
100
AcDbEntity
  8
0
 62
    18
420
        0
370
    25
100
AcDbSpline
210
0.0
220
0.0
230
1.0
 70
     8
 71
     3
 72
     8
 73
     4
 74
     0
 42
0.0000000001
 43
0.0000000001
 40
0.0
 40
0.0
 40
0.0
 40
0.0
 40
1.0
 40
1.0
 40
1.0
 40
1.0
 10
262.5304796242385
 20
25.52271610992179
 30
0.0
 10
259.3331567238535
 20
23.4775120354981
 30
0.0
 10
257.3290053310401
 20
20.00622000727911
 30
0.0
 10
257.1564680872164
 20
16.21465511467057
 30
0.0
  0
SPLINE
  5
1BA
330
70
100
AcDbEntity
  8
0
 62
    18
420
        0
370
    25
100
AcDbSpline
210
0.0
220
0.0
230
1.0
 70
     8
 71
     3
 72
     8
 73
     4
 74
     0
 42
0.0000000001
 43
0.0000000001
 40
0.0
 40
0.0
 40
0.0
 40
0.0
 40
1.0
 40
1.0
 40
1.0
 40
1.0
 10
255.74225452487
 20
12.62200824236427
 30
0.0
 10
256.5836552881292
 20
13.16021984089669
 30
0.0
 10
257.1110635493959
 20
14.07371774305978
 30
0.0
 10
257.1564680872447
 20
15.07149797795697
 30
0.0
  0
SPLINE
  5
1BB
330
70
100
AcDbEntity
  8
0
 62
    18
420
        0
370
    25
100
AcDbSpline
210
0.0
220
0.0
230
1.0
 70
     8
 71
     3
 72
     8
 73
     4
 74
     0
 42
0.0000000001
 43
0.0000000001
 40
0.0
 40
0.0
 40
0.0
 40
0.0
 40
1.0
 40
1.0
 40
1.0
 40
1.0
 10
255.8936451200444
 20
222.2453170532076
 30
0.0
 10
255.5665420531349
 20
222.3930586824069
 30
0.0
 10
255.1855008976935
 20
222.3553264064755
 30
0.0
 10
254.8937263874083
 20
222.1463009522177
 30
0.0
  0
SPLINE
  5
1BC
330
70
100
AcDbEntity
  8
0
 62
    18
420
        0
370
    25
100
AcDbSpline
210
0.0
220
0.0
230
1.0
 70
     8
 71
     3
 72
     8
 73
     4
 74
     0
 42
0.0000000001
 43
0.0000000001
 40
0.0
 40
0.0
 40
0.0
 40
0.0
 40
1.0
 40
1.0
 40
1.0
 40
1.0
 10
258.3302770503459
 20
216.5030726457653
 30
0.0
 10
259.4783631430496
 20
216.1924859031448
 30
0.0
 10
260.7050087893433
 20
216.4047682963722
 30
0.0
 10
261.6819514867614
 20
217.0831109582415
 30
0.0
  0
SPLINE
  5
1BD
330
70
100
AcDbEntity
  8
0
 62
    18
420
        0
370
    25
100
AcDbSpline
210
0.0
220
0.0
230
1.0
 70
     8
 71
     3
 72
     8
 73
     4
 74
     0
 42
0.0000000001
 43
0.0000000001
 40
0.0
 40
0.0
 40
0.0
 40
0.0
 40
1.0
 40
1.0
 40
1.0
 40
1.0
 10
152.5753751497108
 20
247.7406952579177
 30
0.0
 10
152.2836006394256
 20
247.9497207121758
 30
0.0
 10
151.9025594839835
 20
247.9874529881068
 30
0.0
 10
151.575456417074
 20
247.8397113589076
 30
0.0
  0
SPLINE
  5
1BE
330
70
100
AcDbEntity
  8
0
 62
    18
420
        0
370
    25
100
AcDbSpline
210
0.0
220
0.0
230
1.0
 70
     8
 71
     3
 72
     8
 73
     4
 74
     0
 42
0.0000000001
 43
0.0000000001
 40
0.0
 40
0.0
 40
0.0
 40
0.0
 40
1.0
 40
1.0
 40
1.0
 40
1.0
 10
150.3126334499078
 20
244.2191901219003
 30
0.0
 10
150.0514070821635
 20
243.7462236767276
 30
0.0
 10
149.9060112280958
 20
243.2180727028634
 30
0.0
 10
149.8883693811952
 20
242.6780493342004
 30
0.0
  0
SPLINE
  5
1BF
330
70
100
AcDbEntity
  8
0
 62
    18
420
        0
370
    25
100
AcDbSpline
210
0.0
220
0.0
230
1.0
 70
     8
 71
     3
 72
     8
 73
     4
 74
     0
 42
0.0000000001
 43
0.0000000001
 40
0.0
 40
0.0
 40
0.0
 40
0.0
 40
1.0
 40
1.0
 40
1.0
 40
1.0
 10
142.7192526573312
 20
250.2460044952029
 30
0.0
 10
141.9326719574109
 20
249.5745779278869
 30
0.0
 10
141.4567458577737
 20
248.6092824297707
 30
0.0
 10
141.4030880069551
 20
247.5764980051059
 30
0.0
  0
SPLINE
  5
1C0
330
70
100
AcDbEntity
  8
0
 62
    18
420
        0
370
    25
100
AcDbSpline
210
0.0
220
0.0
230
1.0
 70
     8
 71
     3
 72
     8
 73
     4
 74
     0
 42
0.0000000001
 43
0.0000000001
 40
0.0
 40
0.0
 40
0.0
 40
0.0
 40
1.0
 40
1.0
 40
1.0
 40
1.0
 10
110.290389634759
 20
271.1716080672449
 30
0.0
 10
109.9356603875933
 20
271.3554062783986
 30
0.0
 10
109.5137480320254
 20
271.3554062783986
 30
0.0
 10
109.15901878486
 20
271.1716080672449
 30
0.0
  0
SPLINE
  5
1C1
330
70
100
AcDbEntity
  8
0
 62
    18
420
        0
370
    25
100
AcDbSpline
210
0.0
220
0.0
230
1.0
 70
     8
 71
     3
 72
     8
 73
     4
 74
     0
 42
0.0000000001
 43
0.0000000001
 40
0.0
 40
0.0
 40
0.0
 40
0.0
 40
1.0
 40
1.0
 40
1.0
 40
1.0
 10
106.1891703039361
 20
271.0899672560695
 30
0.0
 10
107.0759934218497
 20
270.6304717281863
 30
0.0
 10
108.1307743107691
 20
270.6304717281863
 30
0.0
 10
109.0175974286826
 20
271.0899672560695
 30
0.0
  0
SPLINE
  5
1C2
330
70
100
AcDbEntity
  8
0
 62
    18
420
        0
370
    25
100
AcDbSpline
210
0.0
220
0.0
230
1.0
 70
     8
 71
     3
 72
     8
 73
     4
 74
     0
 42
0.0000000001
 43
0.0000000001
 40
0.0
 40
0.0
 40
0.0
 40
0.0
 40
1.0
 40
1.0
 40
1.0
 40
1.0
 10
107.0376984413599
 20
271.5798121231164
 30
0.0
 10
107.3924276885256
 20
271.3960139119627
 30
0.0
 10
107.8143400440932
 20
271.3960139119627
 30
0.0
 10
108.1690692912585
 20
271.5798121231164
 30
0.0
  0
SPLINE
  5
1C3
330
70
100
AcDbEntity
  8
0
 62
    18
420
        0
370
    25
100
AcDbSpline
210
0.0
220
0.0
230
1.0
 70
     8
 71
     3
 72
     8
 73
     4
 74
     0
 42
0.0000000001
 43
0.0000000001
 40
0.0
 40
0.0
 40
0.0
 40
0.0
 40
1.0
 40
1.0
 40
1.0
 40
1.0
 10
111.1389177721824
 20
271.6614529342917
 30
0.0
 10
110.2520946542692
 20
272.1209484621747
 30
0.0
 10
109.1973137653498
 20
272.1209484621747
 30
0.0
 10
108.3104906474362
 20
271.6614529342917
 30
0.0
  0
SPLINE
  5
1C4
330
70
100
AcDbEntity
  8
0
 62
    18
420
        0
370
    25
100
AcDbSpline
210
0.0
220
0.0
230
1.0
 70
     8
 71
     3
 72
     8
 73
     4
 74
     0
 42
0.0000000001
 43
0.0000000001
 40
0.0
 40
0.0
 40
0.0
 40
0.0
 40
1.0
 40
1.0
 40
1.0
 40
1.0
 10
141.8273520756442
 20
252.312315284004
 30
0.0
 10
141.7819475377958
 20
253.3100955189012
 30
0.0
 10
141.2545392765294
 20
254.2235934210643
 30
0.0
 10
140.4131385132702
 20
254.7618050195964
 30
0.0
  0
SPLINE
  5
1C5
330
70
100
AcDbEntity
  8
0
 62
    18
420
        0
370
    25
100
AcDbSpline
210
0.0
220
0.0
230
1.0
 70
     8
 71
     3
 72
     8
 73
     4
 74
     0
 42
0.0000000001
 43
0.0000000001
 40
0.0
 40
0.0
 40
0.0
 40
0.0
 40
1.0
 40
1.0
 40
1.0
 40
1.0
 10
106.1891703039361
 20
62.05551941326906
 30
0.0
 10
107.0759934218497
 20
61.59602388538644
 30
0.0
 10
108.1307743107691
 20
61.59602388538644
 30
0.0
 10
109.0175974286826
 20
62.05551941326906
 30
0.0
  0
SPLINE
  5
1C6
330
70
100
AcDbEntity
  8
0
 62
    18
420
        0
370
    25
100
AcDbSpline
210
0.0
220
0.0
230
1.0
 70
     8
 71
     3
 72
     8
 73
     4
 74
     0
 42
0.0000000001
 43
0.0000000001
 40
0.0
 40
0.0
 40
0.0
 40
0.0
 40
1.0
 40
1.0
 40
1.0
 40
1.0
 10
110.290389634759
 20
62.13716022444471
 30
0.0
 10
109.9356603875933
 20
62.32095843559815
 30
0.0
 10
109.5137480320254
 20
62.32095843559815
 30
0.0
 10
109.1590187848604
 20
62.13716022444471
 30
0.0
  0
SPLINE
  5
1C7
330
70
100
AcDbEntity
  8
0
 62
    18
420
        0
370
    25
100
AcDbSpline
210
0.0
220
0.0
230
1.0
 70
     8
 71
     3
 72
     8
 73
     4
 74
     0
 42
0.0000000001
 43
0.0000000001
 40
0.0
 40
0.0
 40
0.0
 40
0.0
 40
1.0
 40
1.0
 40
1.0
 40
1.0
 10
93.46124824257415
 20
71.03627404345704
 30
0.0
 10
93.50665278042255
 20
70.03849380855985
 30
0.0
 10
94.03406104168899
 20
69.12499590639676
 30
0.0
 10
94.87546180494852
 20
68.58678430786435
 30
0.0
  0
SPLINE
  5
1C8
330
70
100
AcDbEntity
  8
0
 62
    18
420
        0
370
    25
100
AcDbSpline
210
0.0
220
0.0
230
1.0
 70
     8
 71
     3
 72
    11
 73
     7
 74
     0
 42
0.0000000001
 43
0.0000000001
 40
0.0
 40
0.0
 40
0.0
 40
0.0
 40
1.0
 40
1.0
 40
1.0
 40
2.0
 40
2.0
 40
2.0
 40
2.0
 10
94.87546180492927
 20
277.6212321506283
 30
0.0
 10
94.5016649275823
 20
277.9261291357852
 30
0.0
 10
93.95147484441896
 20
277.870274737347
 30
0.0
 10
93.64657785926171
 20
277.4964778600004
 30
0.0
 10
93.4887164074569
 20
277.3029432545081
 30
0.0
 10
93.42125725500121
 20
277.0510877493399
 30
0.0
 10
93.46124824255618
 20
276.8045586386786
 30
0.0
  0
SPLINE
  5
1C9
330
70
100
AcDbEntity
  8
0
 62
    18
420
        0
370
    25
100
AcDbSpline
210
0.0
220
0.0
230
1.0
 70
     8
 71
     3
 72
     8
 73
     4
 74
     0
 42
0.0000000001
 43
0.0000000001
 40
0.0
 40
0.0
 40
0.0
 40
0.0
 40
1.0
 40
1.0
 40
1.0
 40
1.0
 10
95.7239899423104
 20
278.1110770177178
 30
0.0
 10
95.43221543202554
 20
278.3201024719759
 30
0.0
 10
95.05117427658349
 20
278.357834747907
 30
0.0
 10
94.7240712096743
 20
278.210093118708
 30
0.0
  0
SPLINE
  5
1CA
330
70
100
AcDbEntity
  8
0
 62
    18
420
        0
370
    25
100
AcDbSpline
210
0.0
220
0.0
230
1.0
 70
     8
 71
     3
 72
     8
 73
     4
 74
     0
 42
0.0000000001
 43
0.0000000001
 40
0.0
 40
0.0
 40
0.0
 40
0.0
 40
1.0
 40
1.0
 40
1.0
 40
1.0
 10
312.3207662587444
 20
181.3313276452077
 30
0.0
 10
311.9936631918355
 20
181.4790692744072
 30
0.0
 10
311.6126220363929
 20
181.4413369984759
 30
0.0
 10
311.3208475261084
 20
181.2323115442177
 30
0.0
  0
SPLINE
  5
1CB
330
70
100
AcDbEntity
  8
0
 62
    18
420
        0
370
    25
100
AcDbSpline
210
0.0
220
0.0
230
1.0
 70
     8
 71
     3
 72
     8
 73
     4
 74
     0
 42
0.0000000001
 43
0.0000000001
 40
0.0
 40
0.0
 40
0.0
 40
0.0
 40
1.0
 40
1.0
 40
1.0
 40
1.0
 10
312.3207662587444
 20
82.5298894071075
 30
0.0
 10
311.9936631918349
 20
82.67763103630711
 30
0.0
 10
311.6126220363935
 20
82.63989876037573
 30
0.0
 10
311.3208475261084
 20
82.43087330611761
 30
0.0
  0
SPLINE
  5
1CC
330
70
100
AcDbEntity
  8
0
 62
    18
420
        0
370
    25
100
AcDbSpline
210
0.0
220
0.0
230
1.0
 70
     8
 71
     3
 72
     8
 73
     4
 74
     0
 42
0.0000000001
 43
0.0000000001
 40
0.0
 40
0.0
 40
0.0
 40
0.0
 40
1.0
 40
1.0
 40
1.0
 40
1.0
 10
149.8883693812042
 20
44.91186469540072
 30
0.0
 10
149.8524530619644
 20
44.5135891592342
 30
0.0
 10
150.0103404414457
 20
44.12235556156588
 30
0.0
 10
150.3126334499161
 20
43.86056877479786
 30
0.0
  0
SPLINE
  5
1CD
330
70
100
AcDbEntity
  8
0
 62
    18
420
        0
370
    25
100
AcDbSpline
210
0.0
220
0.0
230
1.0
 70
     8
 71
     3
 72
     8
 73
     4
 74
     0
 42
0.0000000001
 43
0.0000000001
 40
0.0
 40
0.0
 40
0.0
 40
0.0
 40
1.0
 40
1.0
 40
1.0
 40
1.0
 10
141.4030880069772
 20
49.81031336640077
 30
0.0
 10
141.3482472266874
 20
49.37957968357071
 30
0.0
 10
141.5405037142803
 20
48.95464735018631
 30
0.0
 10
141.9002418026618
 20
48.71148583087332
 30
0.0
  0
SPLINE
  5
1CE
330
70
100
AcDbEntity
  8
0
 62
    18
420
        0
370
    25
100
AcDbSpline
210
0.0
220
0.0
230
1.0
 70
     8
 71
     3
 72
     8
 73
     4
 74
     0
 42
0.0000000001
 43
0.0000000001
 40
0.0
 40
0.0
 40
0.0
 40
0.0
 40
1.0
 40
1.0
 40
1.0
 40
1.0
 10
141.4130572459621
 20
45.62834107584548
 30
0.0
 10
141.7080376553325
 20
45.83499089629703
 30
0.0
 10
141.8668671446531
 20
46.18604165329431
 30
0.0
 10
141.8273520756987
 20
46.54403068878342
 30
0.0
  0
SPLINE
  5
1CF
330
70
100
AcDbEntity
  8
0
 62
    18
420
        0
370
    25
100
AcDbSpline
210
0.0
220
0.0
230
1.0
 70
     8
 71
     3
 72
     8
 73
     4
 74
     0
 42
0.0000000001
 43
0.0000000001
 40
0.0
 40
0.0
 40
0.0
 40
0.0
 40
1.0
 40
1.0
 40
1.0
 40
1.0
 10
312.8764824447208
 20
87.24515986464259
 30
0.0
 10
312.1087848712512
 20
87.63668964060798
 30
0.0
 10
311.2138941580049
 20
87.69542307712823
 30
0.0
 10
310.4016087105692
 20
87.40759069246321
 30
0.0
  0
INSERT
  5
1D2
330
70
100
AcDbEntity
  8
Livello 2
100
AcDbBlockReference
  2
Block_0
 10
0.0
 20
0.0
 30
0.0
  0
ENDSEC
  0
SECTION
  2
OBJECTS
  0
DICTIONARY
  5
C
330
0
100
AcDbDictionary
281
     1
  3
ACAD_COLOR
350
63
  3
ACAD_DETAILVIEWSTYLE
350
6A
  3
ACAD_GROUP
350
D
  3
ACAD_LAYOUT
350
62
  3
ACAD_MATERIAL
350
10
  3
ACAD_MLEADERSTYLE
350
66
  3
ACAD_MLINESTYLE
350
5F
  3
ACAD_PLOTSETTINGS
350
61
  3
ACAD_PLOTSTYLENAME
350
E
  3
ACAD_SCALELIST
350
42
  3
ACAD_SECTIONVIEWSTYLE
350
68
  3
ACAD_TABLESTYLE
350
64
  3
ACAD_VISUALSTYLE
350
29
  3
ACDB_RECOMPOSE_DATA
350
2D4
  3
AcDbVariableDictionary
350
2CC
  0
DICTIONARY
  5
63
102
{ACAD_REACTORS
330
C
102
}
330
C
100
AcDbDictionary
281
     1
  0
DICTIONARY
  5
6A
102
{ACAD_REACTORS
330
C
102
}
330
C
100
AcDbDictionary
281
     1
  3
Imperial24
350
6B
  0
DICTIONARY
  5
D
102
{ACAD_REACTORS
330
C
102
}
330
C
100
AcDbDictionary
281
     1
  0
DICTIONARY
  5
62
102
{ACAD_REACTORS
330
C
102
}
330
C
100
AcDbDictionary
281
     1
  3
Layout1
350
6F
  3
Layout2
350
77
  3
Model
350
73
  0
DICTIONARY
  5
10
102
{ACAD_REACTORS
330
C
102
}
330
C
100
AcDbDictionary
281
     1
  3
ByBlock
350
19
  3
ByLayer
350
11
  3
Global
350
21
  0
DICTIONARY
  5
66
102
{ACAD_REACTORS
330
C
102
}
330
C
100
AcDbDictionary
281
     1
  3
Standard
350
67
  0
DICTIONARY
  5
5F
102
{ACAD_REACTORS
330
C
102
}
330
C
100
AcDbDictionary
281
     1
  3
Standard
350
60
  0
DICTIONARY
  5
61
102
{ACAD_REACTORS
330
C
102
}
330
C
100
AcDbDictionary
281
     1
  0
ACDBDICTIONARYWDFLT
  5
E
102
{ACAD_REACTORS
330
C
102
}
330
C
100
AcDbDictionary
281
     1
  3
Normal
350
F
100
AcDbDictionaryWithDefault
340
F
  0
DICTIONARY
  5
42
102
{ACAD_REACTORS
330
C
102
}
330
C
100
AcDbDictionary
281
     1
  3
A0
350
43
  3
A1
350
44
  3
A2
350
45
  3
A3
350
46
  3
A4
350
47
  3
A5
350
48
  3
A6
350
49
  3
A7
350
4A
  3
A8
350
4B
  3
A9
350
4C
  3
B0
350
4D
  3
B1
350
4E
  3
B2
350
4F
  3
B3
350
50
  3
B4
350
51
  3
B5
350
52
  3
B6
350
53
  0
DICTIONARY
  5
68
102
{ACAD_REACTORS
330
C
102
}
330
C
100
AcDbDictionary
281
     1
  3
Imperial24
350
69
  0
DICTIONARY
  5
64
102
{ACAD_REACTORS
330
C
102
}
330
C
100
AcDbDictionary
281
     1
  3
Standard
350
65
  0
DICTIONARY
  5
29
102
{ACAD_REACTORS
330
C
102
}
330
C
100
AcDbDictionary
281
     1
  3
2dWireframe
350
2F
  3
Basic
350
2E
  3
Brighten
350
35
  3
ColorChange
350
39
  3
Conceptual
350
32
  3
Dim
350
34
  3
EdgeColorOff
350
41
  3
Facepattern
350
38
  3
Flat
350
2A
  3
FlatWithEdges
350
2B
  3
Gouraud
350
2C
  3
GouraudWithEdges
350
2D
  3
Hidden
350
31
  3
JitterOff
350
3F
  3
Linepattern
350
37
  3
OverhangOff
350
40
  3
Realistic
350
33
  3
Shaded
350
3E
  3
Shaded with edges
350
3D
  3
Shades of Gray
350
3A
  3
Sketchy
350
3B
  3
Thicken
350
36
  3
Wireframe
350
30
  3
X-Ray
350
3C
  0
XRECORD
  5
2D4
102
{ACAD_REACTORS
330
C
102
}
330
C
100
AcDbXrecord
280
     1
 90
        1
330
65
  0
DICTIONARY
  5
2CC
102
{ACAD_REACTORS
330
C
102
}
330
C
100
AcDbDictionary
281
     1
  3
CANNOSCALE
350
2D1
  3
CMLEADERSTYLE
350
2CE
  3
CTABLESTYLE
350
2CD
  3
CVIEWDETAILSTYLE
350
2CF
  3
CVIEWSECTIONSTYLE
350
2D0
  0
ACDBDETAILVIEWSTYLE
  5
6B
102
{ACAD_REACTORS
330
6A
102
}
330
6A
100
AcDbModelDocViewStyle
 70
     0
  3
Imperial24
290
     1
300
Imperial24
 90
        0
100
AcDbDetailViewStyle
 70
     0
 71
     0
 90
        3
 71
     1
340
55
 62
   256
 40
0.24
340
0
 62
   256
 40
0.24
300

 40
0.36
280
     3
 71
     2
340
5D
 90
       25
 62
   256
 71
     3
340
55
 62
   256
 40
0.24
 90
        1
 40
0.75
 90
        1
300
%<\AcVar ViewType \f "%tc1">% %<\AcVar ViewDetailId>%\PSCALE %<\AcVar ViewScale \f "%sn">%
 71
     4
340
5D
 90
       25
 62
   256
340
5D
 90
       25
 62
   256
280
     0
  0
LAYOUT
  5
6F
102
{ACAD_REACTORS
330
62
102
}
330
62
100
AcDbPlotSettings
  1

  2

  4

  6

 40
0.0
 41
0.0
 42
0.0
 43
0.0
 44
0.0
 45
0.0
 46
0.0
 47
0.0
 48
0.0
 49
0.0
140
0.0
141
0.0
142
1.0
143
1.0
 70
   688
 72
     0
 73
     0
 74
     5
  7

 75
    16
147
1.0
 76
     0
 77
     2
 78
   300
148
0.0
149
0.0
100
AcDbLayout
  1
Layout1
 70
     1
 71
     1
 10
0.0
 20
0.0
 11
12.0
 21
9.0
 12
0.0
 22
0.0
 32
0.0
 14
0.0
 24
0.0
 34
0.0
 15
0.0
 25
0.0
 35
0.0
146
0.0
 13
0.0
 23
0.0
 33
0.0
 16
1.0
 26
0.0
 36
0.0
 17
0.0
 27
1.0
 37
0.0
 76
     0
330
6C
  0
LAYOUT
  5
77
102
{ACAD_REACTORS
330
62
102
}
330
62
100
AcDbPlotSettings
  1

  2

  4

  6

 40
0.0
 41
0.0
 42
0.0
 43
0.0
 44
0.0
 45
0.0
 46
0.0
 47
0.0
 48
0.0
 49
0.0
140
0.0
141
0.0
142
1.0
143
1.0
 70
   688
 72
     0
 73
     0
 74
     5
  7

 75
    16
147
1.0
 76
     0
 77
     2
 78
   300
148
0.0
149
0.0
100
AcDbLayout
  1
Layout2
 70
     1
 71
     2
 10
0.0
 20
0.0
 11
12.0
 21
9.0
 12
0.0
 22
0.0
 32
0.0
 14
0.0
 24
0.0
 34
0.0
 15
0.0
 25
0.0
 35
0.0
146
0.0
 13
0.0
 23
0.0
 33
0.0
 16
1.0
 26
0.0
 36
0.0
 17
0.0
 27
1.0
 37
0.0
 76
     0
330
74
  0
LAYOUT
  5
73
102
{ACAD_REACTORS
330
62
102
}
330
62
100
AcDbPlotSettings
  1

  2

  4

  6

 40
0.0
 41
0.0
 42
0.0
 43
0.0
 44
0.0
 45
0.0
 46
0.0
 47
0.0
 48
0.0
 49
0.0
140
0.0
141
0.0
142
1.0
143
1.0
 70
  1712
 72
     0
 73
     0
 74
     0
  7

 75
     0
147
1.0
 76
     0
 77
     2
 78
   300
148
0.0
149
0.0
100
AcDbLayout
  1
Model
 70
     1
 71
     0
 10
0.0
 20
0.0
 11
12.0
 21
9.0
 12
0.0
 22
0.0
 32
0.0
 14
0.0
 24
0.0
 34
0.0
 15
0.0
 25
0.0
 35
0.0
146
0.0
 13
0.0
 23
0.0
 33
0.0
 16
1.0
 26
0.0
 36
0.0
 17
0.0
 27
1.0
 37
0.0
 76
     0
330
70
  0
MATERIAL
  5
19
102
{ACAD_XDICTIONARY
360
1A
102
}
102
{ACAD_REACTORS
330
10
102
}
330
10
100
AcDbMaterial
  1
ByBlock
 72
     0
 43
0.0208333333333333
 43
0.0
 43
0.0
 43
0.0
 43
0.0
 43
0.0208333333333333
 43
0.0
 43
0.0
 43
0.0
 43
0.0
 43
1.0
 43
0.0
 43
0.0
 43
0.0
 43
0.0
 43
1.0
 77
     0
 47
0.0208333333333333
 47
0.0
 47
0.0
 47
0.0
 47
0.0
 47
0.0208333333333333
 47
0.0
 47
0.0
 47
0.0
 47
0.0
 47
1.0
 47
0.0
 47
0.0
 47
0.0
 47
0.0
 47
1.0
171
     0
 49
0.0208333333333333
 49
0.0
 49
0.0
 49
0.0
 49
0.0
 49
0.0208333333333333
 49
0.0
 49
0.0
 49
0.0
 49
0.0
 49
1.0
 49
0.0
 49
0.0
 49
0.0
 49
0.0
 49
1.0
175
     0
142
0.0208333333333333
142
0.0
142
0.0
142
0.0
142
0.0
142
0.0208333333333333
142
0.0
142
0.0
142
0.0
142
0.0
142
1.0
142
0.0
142
0.0
142
0.0
142
0.0
142
1.0
179
     0
144
0.0208333333333333
144
0.0
144
0.0
144
0.0
144
0.0
144
0.0208333333333333
144
0.0
144
0.0
144
0.0
144
0.0
144
1.0
144
0.0
144
0.0
144
0.0
144
0.0
144
1.0
147
0.0208333333333333
147
0.0
147
0.0
147
0.0
147
0.0
147
0.0208333333333333
147
0.0
147
0.0
147
0.0
147
0.0
147
1.0
147
0.0
147
0.0
147
0.0
147
0.0
147
1.0
  0
MATERIAL
  5
11
102
{ACAD_XDICTIONARY
360
12
102
}
102
{ACAD_REACTORS
330
10
102
}
330
10
100
AcDbMaterial
  1
ByLayer
 72
     0
 43
0.0208333333333333
 43
0.0
 43
0.0
 43
0.0
 43
0.0
 43
0.0208333333333333
 43
0.0
 43
0.0
 43
0.0
 43
0.0
 43
1.0
 43
0.0
 43
0.0
 43
0.0
 43
0.0
 43
1.0
 77
     0
 47
0.0208333333333333
 47
0.0
 47
0.0
 47
0.0
 47
0.0
 47
0.0208333333333333
 47
0.0
 47
0.0
 47
0.0
 47
0.0
 47
1.0
 47
0.0
 47
0.0
 47
0.0
 47
0.0
 47
1.0
171
     0
 49
0.0208333333333333
 49
0.0
 49
0.0
 49
0.0
 49
0.0
 49
0.0208333333333333
 49
0.0
 49
0.0
 49
0.0
 49
0.0
 49
1.0
 49
0.0
 49
0.0
 49
0.0
 49
0.0
 49
1.0
175
     0
142
0.0208333333333333
142
0.0
142
0.0
142
0.0
142
0.0
142
0.0208333333333333
142
0.0
142
0.0
142
0.0
142
0.0
142
1.0
142
0.0
142
0.0
142
0.0
142
0.0
142
1.0
179
     0
144
0.0208333333333333
144
0.0
144
0.0
144
0.0
144
0.0
144
0.0208333333333333
144
0.0
144
0.0
144
0.0
144
0.0
144
1.0
144
0.0
144
0.0
144
0.0
144
0.0
144
1.0
147
0.0208333333333333
147
0.0
147
0.0
147
0.0
147
0.0
147
0.0208333333333333
147
0.0
147
0.0
147
0.0
147
0.0
147
1.0
147
0.0
147
0.0
147
0.0
147
0.0
147
1.0
  0
MATERIAL
  5
21
102
{ACAD_XDICTIONARY
360
22
102
}
102
{ACAD_REACTORS
330
10
102
}
330
10
100
AcDbMaterial
  1
Global
 72
     0
 43
0.0208333333333333
 43
0.0
 43
0.0
 43
0.0
 43
0.0
 43
0.0208333333333333
 43
0.0
 43
0.0
 43
0.0
 43
0.0
 43
1.0
 43
0.0
 43
0.0
 43
0.0
 43
0.0
 43
1.0
 77
     0
 47
0.0208333333333333
 47
0.0
 47
0.0
 47
0.0
 47
0.0
 47
0.0208333333333333
 47
0.0
 47
0.0
 47
0.0
 47
0.0
 47
1.0
 47
0.0
 47
0.0
 47
0.0
 47
0.0
 47
1.0
171
     0
 49
0.0208333333333333
 49
0.0
 49
0.0
 49
0.0
 49
0.0
 49
0.0208333333333333
 49
0.0
 49
0.0
 49
0.0
 49
0.0
 49
1.0
 49
0.0
 49
0.0
 49
0.0
 49
0.0
 49
1.0
175
     0
142
0.0208333333333333
142
0.0
142
0.0
142
0.0
142
0.0
142
0.0208333333333333
142
0.0
142
0.0
142
0.0
142
0.0
142
1.0
142
0.0
142
0.0
142
0.0
142
0.0
142
1.0
179
     0
144
0.0208333333333333
144
0.0
144
0.0
144
0.0
144
0.0
144
0.0208333333333333
144
0.0
144
0.0
144
0.0
144
0.0
144
1.0
144
0.0
144
0.0
144
0.0
144
0.0
144
1.0
147
0.0208333333333333
147
0.0
147
0.0
147
0.0
147
0.0
147
0.0208333333333333
147
0.0
147
0.0
147
0.0
147
0.0
147
1.0
147
0.0
147
0.0
147
0.0
147
0.0
147
1.0
  0
MLEADERSTYLE
  5
67
102
{ACAD_REACTORS
330
66
102
}
330
66
100
AcDbMLeaderStyle
179
     2
170
     2
171
     1
172
     0
 90
        2
 40
0.0
 41
0.0
173
     1
 91
-1056964608
340
5B
 92
       -2
290
     1
 42
0.09
291
     1
 43
0.36
  3
Standard
 44
0.18
300

342
55
174
     1
178
     6
175
     1
176
     0
 93
-1056964608
 45
0.18
292
     0
297
     0
 46
0.18
 94
-1056964608
 47
1.0
 49
1.0
140
1.0
293
     1
141
0.0
294
     1
177
     0
142
1.0
295
     1
296
     0
143
0.125
271
     0
272
     9
273
     9
298
     1
  0
MLINESTYLE
  5
60
102
{ACAD_REACTORS
330
5F
102
}
330
5F
100
AcDbMlineStyle
  2
STANDARD
 70
     0
  3

 62
   256
 51
90.0
 52
90.0
 71
     2
 49
0.5
 62
   256
  6
BYLAYER
 49
-0.5
 62
   256
  6
BYLAYER
  0
ACDBPLACEHOLDER
  5
F
102
{ACAD_REACTORS
330
E
102
}
330
E
  0
SCALE
  5
43
102
{ACAD_REACTORS
330
42
102
}
330
42
100
AcDbScale
 70
     0
300
1:1
140
1.0
141
1.0
290
     1
  0
SCALE
  5
44
102
{ACAD_REACTORS
330
42
102
}
330
42
100
AcDbScale
 70
     0
300
1/128" = 1'-0"
140
0.0078125
141
12.0
290
     0
  0
SCALE
  5
45
102
{ACAD_REACTORS
330
42
102
}
330
42
100
AcDbScale
 70
     0
300
1/64" = 1'-0"
140
0.015625
141
12.0
290
     0
  0
SCALE
  5
46
102
{ACAD_REACTORS
330
42
102
}
330
42
100
AcDbScale
 70
     0
300
1/32" = 1'-0"
140
0.03125
141
12.0
290
     0
  0
SCALE
  5
47
102
{ACAD_REACTORS
330
42
102
}
330
42
100
AcDbScale
 70
     0
300
1/16" = 1'-0"
140
0.0625
141
12.0
290
     0
  0
SCALE
  5
48
102
{ACAD_REACTORS
330
42
102
}
330
42
100
AcDbScale
 70
     0
300
3/32" = 1'-0"
140
0.09375
141
12.0
290
     0
  0
SCALE
  5
49
102
{ACAD_REACTORS
330
42
102
}
330
42
100
AcDbScale
 70
     0
300
1/8" = 1'-0"
140
0.125
141
12.0
290
     0
  0
SCALE
  5
4A
102
{ACAD_REACTORS
330
42
102
}
330
42
100
AcDbScale
 70
     0
300
3/16" = 1'-0"
140
0.1875
141
12.0
290
     0
  0
SCALE
  5
4B
102
{ACAD_REACTORS
330
42
102
}
330
42
100
AcDbScale
 70
     0
300
1/4" = 1'-0"
140
0.25
141
12.0
290
     0
  0
SCALE
  5
4C
102
{ACAD_REACTORS
330
42
102
}
330
42
100
AcDbScale
 70
     0
300
3/8" = 1'-0"
140
0.375
141
12.0
290
     0
  0
SCALE
  5
4D
102
{ACAD_REACTORS
330
42
102
}
330
42
100
AcDbScale
 70
     0
300
1/2" = 1'-0"
140
0.5
141
12.0
290
     0
  0
SCALE
  5
4E
102
{ACAD_REACTORS
330
42
102
}
330
42
100
AcDbScale
 70
     0
300
3/4" = 1'-0"
140
0.75
141
12.0
290
     0
  0
SCALE
  5
4F
102
{ACAD_REACTORS
330
42
102
}
330
42
100
AcDbScale
 70
     0
300
1" = 1'-0"
140
1.0
141
12.0
290
     0
  0
SCALE
  5
50
102
{ACAD_REACTORS
330
42
102
}
330
42
100
AcDbScale
 70
     0
300
1-1/2" = 1'-0"
140
1.5
141
12.0
290
     0
  0
SCALE
  5
51
102
{ACAD_REACTORS
330
42
102
}
330
42
100
AcDbScale
 70
     0
300
3" = 1'-0"
140
3.0
141
12.0
290
     0
  0
SCALE
  5
52
102
{ACAD_REACTORS
330
42
102
}
330
42
100
AcDbScale
 70
     0
300
6" = 1'-0"
140
6.0
141
12.0
290
     0
  0
SCALE
  5
53
102
{ACAD_REACTORS
330
42
102
}
330
42
100
AcDbScale
 70
     0
300
1'-0" = 1'-0"
140
12.0
141
12.0
290
     0
  0
ACDBSECTIONVIEWSTYLE
  5
69
102
{ACAD_REACTORS
330
68
102
}
330
68
100
AcDbModelDocViewStyle
 70
     0
  3
Imperial24
290
     1
300
Imperial24
 90
        0
100
AcDbSectionViewStyle
 70
     0
 71
     0
 90
       78
 71
     1
340
55
 62
   256
 40
0.24
340
0
340
0
 62
   256
 40
0.24
300
I, O, Q, S, X, Z
 40
0.48
 90
        3
 40
0.18
 90
        1
 71
     2
340
5D
 90
       25
 62
   256
340
5D
 90
       50
 62
   256
 40
0.24
 40
0.0
 40
0.24
 71
     3
340
55
 62
   256
 40
0.24
 90
        1
 40
0.75
 90
        1
300
%<\AcVar ViewType \f "%tc1">% %<\AcVar ViewSectionStartId>%-%<\AcVar ViewSectionEndId>%\PSCALE %<\AcVar ViewScale \f "%sn">%
 71
     4
 62
   256
 62
   257
300
ANSI31
 40
1.0
 90
        0
290
     0
290
     0
 90
        6
 40
0.0
 40
1.570796326794896
 40
0.2617993877991494
 40
1.308996938995747
 40
-0.2617993877991494
 40
1.832595714594046
  0
TABLESTYLE
  5
65
102
{ACAD_XDICTIONARY
360
2D2
102
}
102
{ACAD_REACTORS
330
64
102
}
330
64
100
AcDbTableStyle
280
     0
  3
Standard
 70
     0
 71
     0
 40
0.06
 41
0.06
280
     0
281
     0
  7
Standard
140
0.18
170
     2
 62
     0
 63
     7
283
     0
 90
      512
 91
        0
  1

274
    -2
284
     1
 64
     0
275
    -2
285
     1
 65
     0
276
    -2
286
     1
 66
     0
277
    -2
287
     1
 67
     0
278
    -2
288
     1
 68
     0
279
    -2
289
     1
 69
     0
  7
Standard
140
0.25
170
     5
 62
     0
 63
     7
283
     0
 90
      512
 91
        0
  1

274
    -2
284
     1
 64
     0
275
    -2
285
     1
 65
     0
276
    -2
286
     1
 66
     0
277
    -2
287
     1
 67
     0
278
    -2
288
     1
 68
     0
279
    -2
289
     1
 69
     0
  7
Standard
140
0.18
170
     5
 62
     0
 63
     7
283
     0
 90
      512
 91
        0
  1

274
    -2
284
     1
 64
     0
275
    -2
285
     1
 65
     0
276
    -2
286
     1
 66
     0
277
    -2
287
     1
 67
     0
278
    -2
288
     1
 68
     0
279
    -2
289
     1
 69
     0
  0
VISUALSTYLE
  5
2F
102
{ACAD_REACTORS
330
29
102
}
330
29
100
AcDbVisualStyle
  2
2dWireframe
 70
     4
177
     3
291
     0
 70
    58
 90
        0
176
     1
 90
        2
176
     1
 90
        0
176
     1
 90
        0
176
     1
 40
0.6
176
     1
 40
30.0
176
     1
 62
     7
420
 16777215
176
     1
 90
        1
176
     1
 90
        4
176
     1
 62
     7
176
     1
 62
   257
176
     1
 90
        1
176
     1
 90
        1
176
     1
 40
1.0
176
     1
 90
        0
176
     1
 62
   257
176
     1
 40
1.0
176
     1
 90
        1
176
     1
 90
        6
176
     1
 90
        2
176
     1
 62
     7
176
     1
 90
        5
176
     1
 90
        0
176
     1
 90
        0
176
     1
290
     0
176
     1
 90
        1
176
     1
 40
0.0
176
     1
 90
        0
176
     1
290
     1
176
     1
290
     1
176
     1
290
     0
176
     1
290
     0
176
     1
290
     0
176
     1
290
     0
176
     1
290
     0
176
     1
290
     0
176
     1
290
     0
176
     1
 90
       50
176
     1
 40
0.0
176
     1
 40
1.0
176
     1
 90
        0
176
     1
 62
    18
420
        0
176
     1
 90
       50
176
     1
 90
        3
176
     1
 62
     5
420
      255
176
     1
290
     0
176
     1
 90
       50
176
     1
 90
       50
176
     1
 90
       50
176
     1
290
     0
176
     1
 90
       50
176
     1
 62
   256
176
     0
 40
1.0
176
     0
 90
        2
176
     1
  1
strokes_ogs.tif
176
     1
290
     0
176
     1
 40
1.0
176
     1
 40
1.0
176
     1
  0
VISUALSTYLE
  5
2E
102
{ACAD_REACTORS
330
29
102
}
330
29
100
AcDbVisualStyle
  2
Basic
 70
     7
177
     3
291
     1
 70
    58
 90
        1
176
     1
 90
        0
176
     1
 90
        1
176
     1
 90
        0
176
     1
 40
0.6
176
     1
 40
30.0
176
     1
 62
     7
420
 16777215
176
     1
 90
        0
176
     1
 90
        4
176
     1
 62
     7
176
     1
 62
   257
176
     1
 90
        1
176
     1
 90
        1
176
     1
 40
1.0
176
     1
 90
        8
176
     1
 62
     7
176
     1
 40
1.0
176
     1
 90
        1
176
     1
 90
        6
176
     1
 90
        2
176
     1
 62
     7
176
     1
 90
        5
176
     1
 90
        0
176
     1
 90
        0
176
     1
290
     0
176
     1
 90
        1
176
     1
 40
0.0
176
     1
 90
        0
176
     1
290
     0
176
     1
290
     1
176
     1
290
     1
176
     1
290
     0
176
     1
290
     0
176
     1
290
     0
176
     1
290
     0
176
     1
290
     0
176
     1
290
     0
176
     1
 90
       50
176
     1
 40
0.0
176
     1
 40
1.0
176
     1
 90
        0
176
     1
 62
    18
420
        0
176
     1
 90
       50
176
     1
 90
        3
176
     1
 62
     5
420
      255
176
     1
290
     0
176
     1
 90
       50
176
     1
 90
       50
176
     1
 90
       50
176
     1
290
     0
176
     1
 90
       50
176
     1
 62
   256
176
     0
 40
1.0
176
     0
 90
        2
176
     1
  1
strokes_ogs.tif
176
     1
290
     0
176
     1
 40
1.0
176
     1
 40
1.0
176
     1
  0
VISUALSTYLE
  5
35
102
{ACAD_REACTORS
330
29
102
}
330
29
100
AcDbVisualStyle
  2
Brighten
 70
    12
177
     3
291
     1
 70
    58
 90
        2
176
     1
 90
        2
176
     1
 90
        0
176
     1
 90
        0
176
     1
 40
0.6
176
     1
 40
30.0
176
     1
 62
     7
420
 16777215
176
     1
 90
        1
176
     1
 90
        4
176
     1
 62
     7
176
     1
 62
   257
176
     1
 90
        1
176
     1
 90
        1
176
     1
 40
1.0
176
     1
 90
        8
176
     1
 62
     7
176
     1
 40
1.0
176
     1
 90
        1
176
     1
 90
        6
176
     1
 90
        2
176
     1
 62
     7
176
     1
 90
        5
176
     1
 90
        0
176
     1
 90
        0
176
     1
290
     0
176
     1
 90
        1
176
     1
 40
50.0
176
     1
 90
        0
176
     1
290
     0
176
     1
290
     1
176
     1
290
     1
176
     1
290
     0
176
     1
290
     0
176
     1
290
     0
176
     1
290
     0
176
     1
290
     0
176
     1
290
     0
176
     1
 90
       50
176
     1
 40
0.0
176
     1
 40
1.0
176
     1
 90
        0
176
     1
 62
    18
420
        0
176
     1
 90
       50
176
     1
 90
        3
176
     1
 62
     5
420
      255
176
     1
290
     0
176
     1
 90
       50
176
     1
 90
       50
176
     1
 90
       50
176
     1
290
     0
176
     1
 90
       50
176
     1
 62
   256
176
     0
 40
1.0
176
     0
 90
        2
176
     1
  1
strokes_ogs.tif
176
     1
290
     0
176
     1
 40
1.0
176
     1
 40
1.0
176
     1
  0
VISUALSTYLE
  5
39
102
{ACAD_REACTORS
330
29
102
}
330
29
100
AcDbVisualStyle
  2
ColorChange
 70
    16
177
     3
291
     1
 70
    58
 90
        2
176
     1
 90
        2
176
     1
 90
        3
176
     1
 90
        0
176
     1
 40
0.6
176
     1
 40
30.0
176
     1
 62
     8
420
  8421504
176
     1
 90
        1
176
     1
 90
        4
176
     1
 62
     7
176
     1
 62
   257
176
     1
 90
        1
176
     1
 90
        1
176
     1
 40
1.0
176
     1
 90
        8
176
     1
 62
     8
420
  8421504
176
     1
 40
1.0
176
     1
 90
        1
176
     1
 90
        6
176
     1
 90
        2
176
     1
 62
     7
176
     1
 90
        5
176
     1
 90
        0
176
     1
 90
        0
176
     1
290
     0
176
     1
 90
        1
176
     1
 40
0.0
176
     1
 90
        0
176
     1
290
     0
176
     1
290
     1
176
     1
290
     1
176
     1
290
     0
176
     1
290
     0
176
     1
290
     0
176
     1
290
     0
176
     1
290
     0
176
     1
290
     0
176
     1
 90
       50
176
     1
 40
0.0
176
     1
 40
1.0
176
     1
 90
        0
176
     1
 62
    18
420
        0
176
     1
 90
       50
176
     1
 90
        3
176
     1
 62
     5
420
      255
176
     1
290
     0
176
     1
 90
       50
176
     1
 90
       50
176
     1
 90
       50
176
     1
290
     0
176
     1
 90
       50
176
     1
 62
   256
176
     0
 40
1.0
176
     0
 90
        2
176
     1
  1
strokes_ogs.tif
176
     1
290
     0
176
     1
 40
1.0
176
     1
 40
1.0
176
     1
  0
VISUALSTYLE
  5
32
102
{ACAD_REACTORS
330
29
102
}
330
29
100
AcDbVisualStyle
  2
Conceptual
 70
     9
177
     3
291
     0
 70
    58
 90
        3
176
     1
 90
        2
176
     1
 90
        0
176
     1
 90
        0
176
     1
 40
0.6
176
     1
 40
30.0
176
     1
 62
     7
420
 16777215
176
     1
 90
        2
176
     1
 90
        2
176
     1
 62
     7
176
     1
 62
   257
176
     1
 90
        1
176
     1
 90
        1
176
     1
 40
179.0
176
     1
 90
        8
176
     1
 62
     7
176
     1
 40
1.0
176
     1
 90
        1
176
     1
 90
        6
176
     1
 90
        2
176
     1
 62
     7
176
     1
 90
        3
176
     1
 90
        0
176
     1
 90
        0
176
     1
290
     0
176
     1
 90
        1
176
     1
 40
0.0
176
     1
 90
        0
176
     1
290
     0
176
     1
290
     1
176
     1
290
     1
176
     1
290
     0
176
     1
290
     0
176
     1
290
     0
176
     1
290
     0
176
     1
290
     0
176
     1
290
     0
176
     1
 90
       50
176
     1
 40
0.0
176
     1
 40
1.0
176
     1
 90
        0
176
     1
 62
    18
420
        0
176
     1
 90
       50
176
     1
 90
        3
176
     1
 62
     5
420
      255
176
     1
290
     0
176
     1
 90
       50
176
     1
 90
       50
176
     1
 90
       50
176
     1
290
     0
176
     1
 90
       50
176
     1
 62
   256
176
     0
 40
1.0
176
     0
 90
        2
176
     1
  1
strokes_ogs.tif
176
     1
290
     0
176
     1
 40
1.0
176
     1
 40
1.0
176
     1
  0
VISUALSTYLE
  5
34
102
{ACAD_REACTORS
330
29
102
}
330
29
100
AcDbVisualStyle
  2
Dim
 70
    11
177
     3
291
     1
 70
    58
 90
        2
176
     1
 90
        2
176
     1
 90
        0
176
     1
 90
        0
176
     1
 40
0.6
176
     1
 40
30.0
176
     1
 62
     7
420
 16777215
176
     1
 90
        1
176
     1
 90
        4
176
     1
 62
     7
176
     1
 62
   257
176
     1
 90
        1
176
     1
 90
        1
176
     1
 40
1.0
176
     1
 90
        8
176
     1
 62
     7
176
     1
 40
1.0
176
     1
 90
        1
176
     1
 90
        6
176
     1
 90
        2
176
     1
 62
     7
176
     1
 90
        5
176
     1
 90
        0
176
     1
 90
        0
176
     1
290
     0
176
     1
 90
        1
176
     1
 40
-50.0
176
     1
 90
        0
176
     1
290
     0
176
     1
290
     1
176
     1
290
     1
176
     1
290
     0
176
     1
290
     0
176
     1
290
     0
176
     1
290
     0
176
     1
290
     0
176
     1
290
     0
176
     1
 90
       50
176
     1
 40
0.0
176
     1
 40
1.0
176
     1
 90
        0
176
     1
 62
    18
420
        0
176
     1
 90
       50
176
     1
 90
        3
176
     1
 62
     5
420
      255
176
     1
290
     0
176
     1
 90
       50
176
     1
 90
       50
176
     1
 90
       50
176
     1
290
     0
176
     1
 90
       50
176
     1
 62
   256
176
     0
 40
1.0
176
     0
 90
        2
176
     1
  1
strokes_ogs.tif
176
     1
290
     0
176
     1
 40
1.0
176
     1
 40
1.0
176
     1
  0
VISUALSTYLE
  5
41
102
{ACAD_REACTORS
330
29
102
}
330
29
100
AcDbVisualStyle
  2
EdgeColorOff
 70
    22
177
     3
291
     1
 70
    58
 90
        2
176
     0
 90
        2
176
     0
 90
        0
176
     0
 90
        0
176
     0
 40
0.6
176
     0
 40
30.0
176
     0
 62
     7
420
 16777215
176
     0
 90
        1
176
     0
 90
        4
176
     0
 62
     7
176
     0
 62
   257
176
     0
 90
        1
176
     0
 90
        1
176
     0
 40
1.0
176
     0
 90
        8
176
     2
 62
     7
176
     0
 40
1.0
176
     0
 90
        1
176
     0
 90
        6
176
     0
 90
        2
176
     0
 62
     7
176
     0
 90
        5
176
     0
 90
        0
176
     0
 90
        0
176
     0
290
     0
176
     0
 90
        1
176
     0
 40
0.0
176
     0
 90
        0
176
     0
290
     0
176
     0
290
     1
176
     0
290
     1
176
     0
290
     0
176
     0
290
     0
176
     0
290
     0
176
     0
290
     0
176
     0
290
     0
176
     0
290
     0
176
     0
 90
       50
176
     0
 40
0.0
176
     0
 40
1.0
176
     0
 90
        0
176
     0
 62
    18
420
        0
176
     0
 90
       50
176
     0
 90
        3
176
     0
 62
     5
420
      255
176
     0
290
     0
176
     0
 90
       50
176
     0
 90
       50
176
     0
 90
       50
176
     0
290
     0
176
     0
 90
       50
176
     0
 62
   256
176
     0
 40
1.0
176
     0
 90
        2
176
     0
  1
strokes_ogs.tif
176
     0
290
     0
176
     0
 40
1.0
176
     0
 40
1.0
176
     0
  0
VISUALSTYLE
  5
38
102
{ACAD_REACTORS
330
29
102
}
330
29
100
AcDbVisualStyle
  2
Facepattern
 70
    15
177
     3
291
     1
 70
    58
 90
        2
176
     1
 90
        2
176
     1
 90
        0
176
     1
 90
        0
176
     1
 40
0.6
176
     1
 40
30.0
176
     1
 62
     7
420
 16777215
176
     1
 90
        1
176
     1
 90
        4
176
     1
 62
     7
176
     1
 62
   257
176
     1
 90
        1
176
     1
 90
        1
176
     1
 40
1.0
176
     1
 90
        8
176
     1
 62
     7
176
     1
 40
1.0
176
     1
 90
        1
176
     1
 90
        6
176
     1
 90
        2
176
     1
 62
     7
176
     1
 90
        5
176
     1
 90
        0
176
     1
 90
        0
176
     1
290
     0
176
     1
 90
        1
176
     1
 40
0.0
176
     1
 90
        0
176
     1
290
     0
176
     1
290
     1
176
     1
290
     1
176
     1
290
     0
176
     1
290
     0
176
     1
290
     0
176
     1
290
     0
176
     1
290
     0
176
     1
290
     0
176
     1
 90
       50
176
     1
 40
0.0
176
     1
 40
1.0
176
     1
 90
        0
176
     1
 62
    18
420
        0
176
     1
 90
       50
176
     1
 90
        3
176
     1
 62
     5
420
      255
176
     1
290
     0
176
     1
 90
       50
176
     1
 90
       50
176
     1
 90
       50
176
     1
290
     0
176
     1
 90
       50
176
     1
 62
   256
176
     0
 40
1.0
176
     0
 90
        2
176
     1
  1
strokes_ogs.tif
176
     1
290
     0
176
     1
 40
1.0
176
     1
 40
1.0
176
     1
  0
VISUALSTYLE
  5
2A
102
{ACAD_REACTORS
330
29
102
}
330
29
100
AcDbVisualStyle
  2
Flat
 70
     0
177
     3
291
     1
 70
    58
 90
        2
176
     1
 90
        1
176
     1
 90
        1
176
     1
 90
        2
176
     1
 40
0.6
176
     1
 40
30.0
176
     1
 62
     7
420
 16777215
176
     1
 90
        0
176
     1
 90
        0
176
     1
 62
     7
176
     1
 62
   257
176
     1
 90
        1
176
     1
 90
        1
176
     1
 40
1.0
176
     1
 90
        8
176
     1
 62
     7
176
     1
 40
1.0
176
     1
 90
        1
176
     1
 90
        6
176
     1
 90
        2
176
     1
 62
     7
176
     1
 90
        5
176
     1
 90
        0
176
     1
 90
        0
176
     1
290
     0
176
     1
 90
       13
176
     1
 40
0.0
176
     1
 90
        0
176
     1
290
     0
176
     1
290
     1
176
     1
290
     1
176
     1
290
     0
176
     1
290
     0
176
     1
290
     0
176
     1
290
     0
176
     1
290
     0
176
     1
290
     0
176
     1
 90
       50
176
     1
 40
0.0
176
     1
 40
1.0
176
     1
 90
        0
176
     1
 62
    18
420
        0
176
     1
 90
       50
176
     1
 90
        3
176
     1
 62
     5
420
      255
176
     1
290
     0
176
     1
 90
       50
176
     1
 90
       50
176
     1
 90
       50
176
     1
290
     0
176
     1
 90
       50
176
     1
 62
   256
176
     0
 40
1.0
176
     0
 90
        2
176
     1
  1
strokes_ogs.tif
176
     1
290
     0
176
     1
 40
1.0
176
     1
 40
1.0
176
     1
  0
VISUALSTYLE
  5
2B
102
{ACAD_REACTORS
330
29
102
}
330
29
100
AcDbVisualStyle
  2
FlatWithEdges
 70
     1
177
     3
291
     1
 70
    58
 90
        2
176
     1
 90
        1
176
     1
 90
        1
176
     1
 90
        2
176
     1
 40
0.6
176
     1
 40
30.0
176
     1
 62
     7
420
 16777215
176
     1
 90
        1
176
     1
 90
        0
176
     1
 62
     7
176
     1
 62
   257
176
     1
 90
        1
176
     1
 90
        1
176
     1
 40
1.0
176
     1
 90
        0
176
     1
 62
   257
176
     1
 40
1.0
176
     1
 90
        1
176
     1
 90
        6
176
     1
 90
        2
176
     1
 62
     7
176
     1
 90
        5
176
     1
 90
        0
176
     1
 90
        0
176
     1
290
     0
176
     1
 90
       13
176
     1
 40
0.0
176
     1
 90
        0
176
     1
290
     0
176
     1
290
     1
176
     1
290
     1
176
     1
290
     0
176
     1
290
     0
176
     1
290
     0
176
     1
290
     0
176
     1
290
     0
176
     1
290
     0
176
     1
 90
       50
176
     1
 40
0.0
176
     1
 40
1.0
176
     1
 90
        0
176
     1
 62
    18
420
        0
176
     1
 90
       50
176
     1
 90
        3
176
     1
 62
     5
420
      255
176
     1
290
     0
176
     1
 90
       50
176
     1
 90
       50
176
     1
 90
       50
176
     1
290
     0
176
     1
 90
       50
176
     1
 62
   256
176
     0
 40
1.0
176
     0
 90
        2
176
     1
  1
strokes_ogs.tif
176
     1
290
     0
176
     1
 40
1.0
176
     1
 40
1.0
176
     1
  0
VISUALSTYLE
  5
2C
102
{ACAD_REACTORS
330
29
102
}
330
29
100
AcDbVisualStyle
  2
Gouraud
 70
     2
177
     3
291
     1
 70
    58
 90
        2
176
     1
 90
        2
176
     1
 90
        1
176
     1
 90
        2
176
     1
 40
0.6
176
     1
 40
30.0
176
     1
 62
     7
420
 16777215
176
     1
 90
        0
176
     1
 90
        0
176
     1
 62
     7
176
     1
 62
   257
176
     1
 90
        1
176
     1
 90
        1
176
     1
 40
1.0
176
     1
 90
        0
176
     1
 62
     7
176
     1
 40
1.0
176
     1
 90
        1
176
     1
 90
        6
176
     1
 90
        2
176
     1
 62
     7
176
     1
 90
        5
176
     1
 90
        0
176
     1
 90
        0
176
     1
290
     0
176
     1
 90
       13
176
     1
 40
0.0
176
     1
 90
        0
176
     1
290
     0
176
     1
290
     1
176
     1
290
     1
176
     1
290
     0
176
     1
290
     0
176
     1
290
     0
176
     1
290
     0
176
     1
290
     0
176
     1
290
     0
176
     1
 90
       50
176
     1
 40
0.0
176
     1
 40
1.0
176
     1
 90
        0
176
     1
 62
    18
420
        0
176
     1
 90
       50
176
     1
 90
        3
176
     1
 62
     5
420
      255
176
     1
290
     0
176
     1
 90
       50
176
     1
 90
       50
176
     1
 90
       50
176
     1
290
     0
176
     1
 90
       50
176
     1
 62
   256
176
     0
 40
1.0
176
     0
 90
        2
176
     1
  1
strokes_ogs.tif
176
     1
290
     0
176
     1
 40
1.0
176
     1
 40
1.0
176
     1
  0
VISUALSTYLE
  5
2D
102
{ACAD_REACTORS
330
29
102
}
330
29
100
AcDbVisualStyle
  2
GouraudWithEdges
 70
     3
177
     3
291
     1
 70
    58
 90
        2
176
     1
 90
        2
176
     1
 90
        1
176
     1
 90
        2
176
     1
 40
0.6
176
     1
 40
30.0
176
     1
 62
     7
420
 16777215
176
     1
 90
        1
176
     1
 90
        0
176
     1
 62
     7
176
     1
 62
   257
176
     1
 90
        1
176
     1
 90
        1
176
     1
 40
1.0
176
     1
 90
        0
176
     1
 62
   257
176
     1
 40
1.0
176
     1
 90
        1
176
     1
 90
        6
176
     1
 90
        2
176
     1
 62
     7
176
     1
 90
        5
176
     1
 90
        0
176
     1
 90
        0
176
     1
290
     0
176
     1
 90
       13
176
     1
 40
0.0
176
     1
 90
        0
176
     1
290
     0
176
     1
290
     1
176
     1
290
     1
176
     1
290
     0
176
     1
290
     0
176
     1
290
     0
176
     1
290
     0
176
     1
290
     0
176
     1
290
     0
176
     1
 90
       50
176
     1
 40
0.0
176
     1
 40
1.0
176
     1
 90
        0
176
     1
 62
    18
420
        0
176
     1
 90
       50
176
     1
 90
        3
176
     1
 62
     5
420
      255
176
     1
290
     0
176
     1
 90
       50
176
     1
 90
       50
176
     1
 90
       50
176
     1
290
     0
176
     1
 90
       50
176
     1
 62
   256
176
     0
 40
1.0
176
     0
 90
        2
176
     1
  1
strokes_ogs.tif
176
     1
290
     0
176
     1
 40
1.0
176
     1
 40
1.0
176
     1
  0
VISUALSTYLE
  5
31
102
{ACAD_REACTORS
330
29
102
}
330
29
100
AcDbVisualStyle
  2
Hidden
 70
     6
177
     3
291
     0
 70
    58
 90
        1
176
     1
 90
        2
176
     1
 90
        2
176
     1
 90
        0
176
     1
 40
0.6
176
     1
 40
30.0
176
     1
 62
     7
420
 16777215
176
     1
 90
        2
176
     1
 90
        2
176
     1
 62
     7
176
     1
 62
   257
176
     1
 90
        2
176
     1
 90
        1
176
     1
 40
40.0
176
     1
 90
        0
176
     1
 62
   257
176
     1
 40
1.0
176
     1
 90
        1
176
     1
 90
        6
176
     1
 90
        2
176
     1
 62
     7
176
     1
 90
        3
176
     1
 90
        0
176
     1
 90
        0
176
     1
290
     0
176
     1
 90
        1
176
     1
 40
0.0
176
     1
 90
        0
176
     1
290
     0
176
     1
290
     1
176
     1
290
     1
176
     1
290
     0
176
     1
290
     0
176
     1
290
     0
176
     1
290
     0
176
     1
290
     0
176
     1
290
     0
176
     1
 90
       50
176
     1
 40
0.0
176
     1
 40
1.0
176
     1
 90
        0
176
     1
 62
    18
420
        0
176
     1
 90
       50
176
     1
 90
        3
176
     1
 62
     5
420
      255
176
     1
290
     0
176
     1
 90
       50
176
     1
 90
       50
176
     1
 90
       50
176
     1
290
     0
176
     1
 90
       50
176
     1
 62
   256
176
     0
 40
1.0
176
     0
 90
        2
176
     1
  1
strokes_ogs.tif
176
     1
290
     0
176
     1
 40
1.0
176
     1
 40
1.0
176
     1
  0
VISUALSTYLE
  5
3F
102
{ACAD_REACTORS
330
29
102
}
330
29
100
AcDbVisualStyle
  2
JitterOff
 70
    20
177
     3
291
     1
 70
    58
 90
        2
176
     0
 90
        2
176
     0
 90
        0
176
     0
 90
        0
176
     0
 40
0.6
176
     0
 40
30.0
176
     0
 62
     7
420
 16777215
176
     0
 90
        1
176
     0
 90
        4
176
     0
 62
     7
176
     0
 62
   257
176
     0
 90
        1
176
     0
 90
        1
176
     0
 40
1.0
176
     0
 90
       10
176
     2
 62
     7
176
     0
 40
1.0
176
     0
 90
        1
176
     0
 90
        6
176
     0
 90
        2
176
     0
 62
     7
176
     0
 90
        5
176
     0
 90
        0
176
     0
 90
        0
176
     0
290
     0
176
     0
 90
        1
176
     0
 40
0.0
176
     0
 90
        0
176
     0
290
     0
176
     0
290
     1
176
     0
290
     1
176
     0
290
     0
176
     0
290
     0
176
     0
290
     0
176
     0
290
     0
176
     0
290
     0
176
     0
290
     0
176
     0
 90
       50
176
     0
 40
0.0
176
     0
 40
1.0
176
     0
 90
        0
176
     0
 62
    18
420
        0
176
     0
 90
       50
176
     0
 90
        3
176
     0
 62
     5
420
      255
176
     0
290
     0
176
     0
 90
       50
176
     0
 90
       50
176
     0
 90
       50
176
     0
290
     0
176
     0
 90
       50
176
     0
 62
   256
176
     0
 40
1.0
176
     0
 90
        2
176
     0
  1
strokes_ogs.tif
176
     0
290
     0
176
     0
 40
1.0
176
     0
 40
1.0
176
     0
  0
VISUALSTYLE
  5
37
102
{ACAD_REACTORS
330
29
102
}
330
29
100
AcDbVisualStyle
  2
Linepattern
 70
    14
177
     3
291
     1
 70
    58
 90
        2
176
     1
 90
        2
176
     1
 90
        0
176
     1
 90
        0
176
     1
 40
0.6
176
     1
 40
30.0
176
     1
 62
     7
420
 16777215
176
     1
 90
        1
176
     1
 90
        4
176
     1
 62
     7
176
     1
 62
   257
176
     1
 90
        7
176
     1
 90
        7
176
     1
 40
1.0
176
     1
 90
        8
176
     1
 62
     7
176
     1
 40
1.0
176
     1
 90
        1
176
     1
 90
        6
176
     1
 90
        2
176
     1
 62
     7
176
     1
 90
        5
176
     1
 90
        0
176
     1
 90
        0
176
     1
290
     0
176
     1
 90
        1
176
     1
 40
0.0
176
     1
 90
        0
176
     1
290
     0
176
     1
290
     1
176
     1
290
     1
176
     1
290
     0
176
     1
290
     0
176
     1
290
     0
176
     1
290
     0
176
     1
290
     0
176
     1
290
     0
176
     1
 90
       50
176
     1
 40
0.0
176
     1
 40
1.0
176
     1
 90
        0
176
     1
 62
    18
420
        0
176
     1
 90
       50
176
     1
 90
        3
176
     1
 62
     5
420
      255
176
     1
290
     0
176
     1
 90
       50
176
     1
 90
       50
176
     1
 90
       50
176
     1
290
     0
176
     1
 90
       50
176
     1
 62
   256
176
     0
 40
1.0
176
     0
 90
        2
176
     1
  1
strokes_ogs.tif
176
     1
290
     0
176
     1
 40
1.0
176
     1
 40
1.0
176
     1
  0
VISUALSTYLE
  5
40
102
{ACAD_REACTORS
330
29
102
}
330
29
100
AcDbVisualStyle
  2
OverhangOff
 70
    21
177
     3
291
     1
 70
    58
 90
        2
176
     0
 90
        2
176
     0
 90
        0
176
     0
 90
        0
176
     0
 40
0.6
176
     0
 40
30.0
176
     0
 62
     7
420
 16777215
176
     0
 90
        1
176
     0
 90
        4
176
     0
 62
     7
176
     0
 62
   257
176
     0
 90
        1
176
     0
 90
        1
176
     0
 40
1.0
176
     0
 90
        9
176
     2
 62
     7
176
     0
 40
1.0
176
     0
 90
        1
176
     0
 90
        6
176
     0
 90
        2
176
     0
 62
     7
176
     0
 90
        5
176
     0
 90
        0
176
     0
 90
        0
176
     0
290
     0
176
     0
 90
        1
176
     0
 40
0.0
176
     0
 90
        0
176
     0
290
     0
176
     0
290
     1
176
     0
290
     1
176
     0
290
     0
176
     0
290
     0
176
     0
290
     0
176
     0
290
     0
176
     0
290
     0
176
     0
290
     0
176
     0
 90
       50
176
     0
 40
0.0
176
     0
 40
1.0
176
     0
 90
        0
176
     0
 62
    18
420
        0
176
     0
 90
       50
176
     0
 90
        3
176
     0
 62
     5
420
      255
176
     0
290
     0
176
     0
 90
       50
176
     0
 90
       50
176
     0
 90
       50
176
     0
290
     0
176
     0
 90
       50
176
     0
 62
   256
176
     0
 40
1.0
176
     0
 90
        2
176
     0
  1
strokes_ogs.tif
176
     0
290
     0
176
     0
 40
1.0
176
     0
 40
1.0
176
     0
  0
VISUALSTYLE
  5
33
102
{ACAD_REACTORS
330
29
102
}
330
29
100
AcDbVisualStyle
  2
Realistic
 70
     8
177
     3
291
     0
 70
    58
 90
        2
176
     1
 90
        3
176
     1
 90
        0
176
     1
 90
        2
176
     1
 40
0.6
176
     1
 40
30.0
176
     1
 62
     7
420
 16777215
176
     1
 90
        0
176
     1
 90
        0
176
     1
 62
     7
176
     1
 62
   257
176
     1
 90
        1
176
     1
 90
        1
176
     1
 40
1.0
176
     1
 90
        8
176
     1
 62
   257
176
     1
 40
1.0
176
     1
 90
        1
176
     1
 90
        6
176
     1
 90
        2
176
     1
 62
     7
176
     1
 90
        3
176
     1
 90
        0
176
     1
 90
        0
176
     1
290
     0
176
     1
 90
       13
176
     1
 40
0.0
176
     1
 90
        0
176
     1
290
     0
176
     1
290
     1
176
     1
290
     1
176
     1
290
     0
176
     1
290
     0
176
     1
290
     0
176
     1
290
     0
176
     1
290
     0
176
     1
290
     0
176
     1
 90
       50
176
     1
 40
0.0
176
     1
 40
1.0
176
     1
 90
        0
176
     1
 62
    18
420
        0
176
     1
 90
       50
176
     1
 90
        3
176
     1
 62
     5
420
      255
176
     1
290
     0
176
     1
 90
       50
176
     1
 90
       50
176
     1
 90
       50
176
     1
290
     0
176
     1
 90
       50
176
     1
 62
   256
176
     0
 40
1.0
176
     0
 90
        2
176
     1
  1
strokes_ogs.tif
176
     1
290
     0
176
     1
 40
1.0
176
     1
 40
1.0
176
     1
  0
VISUALSTYLE
  5
3E
102
{ACAD_REACTORS
330
29
102
}
330
29
100
AcDbVisualStyle
  2
Shaded
 70
    27
177
     3
291
     0
 70
    58
 90
        2
176
     1
 90
        2
176
     1
 90
        1
176
     1
 90
        2
176
     1
 40
0.6
176
     1
 40
30.0
176
     1
 62
     7
420
 16777215
176
     1
 90
        0
176
     1
 90
        4
176
     1
 62
     7
176
     1
 62
   257
176
     1
 90
        1
176
     1
 90
        1
176
     1
 40
1.0
176
     1
 90
        8
176
     1
 62
   257
176
     1
 40
1.0
176
     1
 90
        1
176
     1
 90
        6
176
     1
 90
        2
176
     1
 62
     8
420
  7895160
176
     1
 90
        3
176
     1
 90
        0
176
     1
 90
        0
176
     1
290
     0
176
     1
 90
        5
176
     1
 40
0.0
176
     1
 90
        0
176
     1
290
     0
176
     1
290
     1
176
     1
290
     1
176
     1
290
     0
176
     1
290
     0
176
     1
290
     0
176
     1
290
     0
176
     1
290
     0
176
     1
290
     0
176
     1
 90
       50
176
     1
 40
0.0
176
     1
 40
1.0
176
     1
 90
        0
176
     1
 62
    18
420
        0
176
     1
 90
       50
176
     1
 90
        3
176
     1
 62
     5
420
      255
176
     1
290
     0
176
     1
 90
       50
176
     1
 90
       50
176
     1
 90
       50
176
     1
290
     0
176
     1
 90
       50
176
     1
 62
   256
176
     0
 40
1.0
176
     0
 90
        2
176
     1
  1
strokes_ogs.tif
176
     1
290
     0
176
     1
 40
1.0
176
     1
 40
1.0
176
     1
  0
VISUALSTYLE
  5
3D
102
{ACAD_REACTORS
330
29
102
}
330
29
100
AcDbVisualStyle
  2
Shaded with edges
 70
    26
177
     3
291
     0
 70
    58
 90
        2
176
     1
 90
        2
176
     1
 90
        1
176
     1
 90
        2
176
     1
 40
0.6
176
     1
 40
30.0
176
     1
 62
     7
420
 16777215
176
     1
 90
        1
176
     1
 90
        2
176
     1
 62
     7
176
     1
 62
   257
176
     1
 90
        2
176
     1
 90
        1
176
     1
 40
1.0
176
     1
 90
        8
176
     1
 62
   257
176
     1
 40
1.0
176
     1
 90
        1
176
     1
 90
        6
176
     1
 90
        2
176
     1
 62
     7
176
     1
 90
        3
176
     1
 90
        0
176
     1
 90
        0
176
     1
290
     0
176
     1
 90
        5
176
     1
 40
0.0
176
     1
 90
        0
176
     1
290
     0
176
     1
290
     1
176
     1
290
     1
176
     1
290
     0
176
     1
290
     0
176
     1
290
     0
176
     1
290
     0
176
     1
290
     0
176
     1
290
     0
176
     1
 90
       50
176
     1
 40
0.0
176
     1
 40
1.0
176
     1
 90
        0
176
     1
 62
    18
420
        0
176
     1
 90
       50
176
     1
 90
        3
176
     1
 62
     5
420
      255
176
     1
290
     0
176
     1
 90
       50
176
     1
 90
       50
176
     1
 90
       50
176
     1
290
     0
176
     1
 90
       50
176
     1
 62
   256
176
     0
 40
1.0
176
     0
 90
        2
176
     1
  1
strokes_ogs.tif
176
     1
290
     0
176
     1
 40
1.0
176
     1
 40
1.0
176
     1
  0
VISUALSTYLE
  5
3A
102
{ACAD_REACTORS
330
29
102
}
330
29
100
AcDbVisualStyle
  2
Shades of Gray
 70
    23
177
     3
291
     0
 70
    58
 90
        2
176
     1
 90
        2
176
     1
 90
        3
176
     1
 90
        0
176
     1
 40
0.6
176
     1
 40
30.0
176
     1
 62
     7
420
 16777215
176
     1
 90
        2
176
     1
 90
        2
176
     1
 62
     7
176
     1
 62
     7
176
     1
 90
        1
176
     1
 90
        1
176
     1
 40
40.0
176
     1
 90
        8
176
     1
 62
     7
176
     1
 40
1.0
176
     1
 90
        1
176
     1
 90
        6
176
     1
 90
        2
176
     1
 62
     7
176
     1
 90
        3
176
     1
 90
        0
176
     1
 90
        0
176
     1
290
     0
176
     1
 90
        1
176
     1
 40
0.0
176
     1
 90
        0
176
     1
290
     0
176
     1
290
     1
176
     1
290
     1
176
     1
290
     0
176
     1
290
     0
176
     1
290
     0
176
     1
290
     0
176
     1
290
     0
176
     1
290
     0
176
     1
 90
       50
176
     1
 40
0.0
176
     1
 40
1.0
176
     1
 90
        0
176
     1
 62
    18
420
        0
176
     1
 90
       50
176
     1
 90
        3
176
     1
 62
     5
420
      255
176
     1
290
     0
176
     1
 90
       50
176
     1
 90
       50
176
     1
 90
       50
176
     1
290
     0
176
     1
 90
       50
176
     1
 62
   256
176
     0
 40
1.0
176
     0
 90
        2
176
     1
  1
strokes_ogs.tif
176
     1
290
     0
176
     1
 40
1.0
176
     1
 40
1.0
176
     1
  0
VISUALSTYLE
  5
3B
102
{ACAD_REACTORS
330
29
102
}
330
29
100
AcDbVisualStyle
  2
Sketchy
 70
    24
177
     3
291
     0
 70
    58
 90
        1
176
     1
 90
        2
176
     1
 90
        2
176
     1
 90
        0
176
     1
 40
0.6
176
     1
 40
30.0
176
     1
 62
     7
420
 16777215
176
     1
 90
        2
176
     1
 90
        2
176
     1
 62
     7
176
     1
 62
     7
176
     1
 90
        1
176
     1
 90
        1
176
     1
 40
40.0
176
     1
 90
       11
176
     1
 62
     7
176
     1
 40
1.0
176
     1
 90
        1
176
     1
 90
        6
176
     1
 90
        2
176
     1
 62
     7
176
     1
 90
        6
176
     1
 90
        0
176
     1
 90
        0
176
     1
290
     0
176
     1
 90
        1
176
     1
 40
0.0
176
     1
 90
        0
176
     1
290
     0
176
     1
290
     1
176
     1
290
     1
176
     1
290
     0
176
     1
290
     0
176
     1
290
     0
176
     1
290
     0
176
     1
290
     0
176
     1
290
     0
176
     1
 90
       50
176
     1
 40
0.0
176
     1
 40
1.0
176
     1
 90
        0
176
     1
 62
    18
420
        0
176
     1
 90
       50
176
     1
 90
        3
176
     1
 62
     5
420
      255
176
     1
290
     0
176
     1
 90
       50
176
     1
 90
       50
176
     1
 90
       50
176
     1
290
     0
176
     1
 90
       50
176
     1
 62
   256
176
     0
 40
1.0
176
     0
 90
        2
176
     1
  1
strokes_ogs.tif
176
     1
290
     0
176
     1
 40
1.0
176
     1
 40
1.0
176
     1
  0
VISUALSTYLE
  5
36
102
{ACAD_REACTORS
330
29
102
}
330
29
100
AcDbVisualStyle
  2
Thicken
 70
    13
177
     3
291
     1
 70
    58
 90
        2
176
     1
 90
        2
176
     1
 90
        0
176
     1
 90
        0
176
     1
 40
0.6
176
     1
 40
30.0
176
     1
 62
     7
420
 16777215
176
     1
 90
        1
176
     1
 90
        4
176
     1
 62
     7
176
     1
 62
   257
176
     1
 90
        1
176
     1
 90
        1
176
     1
 40
1.0
176
     1
 90
       12
176
     1
 62
     7
176
     1
 40
1.0
176
     1
 90
        1
176
     1
 90
        6
176
     1
 90
        2
176
     1
 62
     7
176
     1
 90
        5
176
     1
 90
        0
176
     1
 90
        0
176
     1
290
     0
176
     1
 90
        1
176
     1
 40
0.0
176
     1
 90
        0
176
     1
290
     0
176
     1
290
     1
176
     1
290
     1
176
     1
290
     0
176
     1
290
     0
176
     1
290
     0
176
     1
290
     0
176
     1
290
     0
176
     1
290
     0
176
     1
 90
       50
176
     1
 40
0.0
176
     1
 40
1.0
176
     1
 90
        0
176
     1
 62
    18
420
        0
176
     1
 90
       50
176
     1
 90
        3
176
     1
 62
     5
420
      255
176
     1
290
     0
176
     1
 90
       50
176
     1
 90
       50
176
     1
 90
       50
176
     1
290
     0
176
     1
 90
       50
176
     1
 62
   256
176
     0
 40
1.0
176
     0
 90
        2
176
     1
  1
strokes_ogs.tif
176
     1
290
     0
176
     1
 40
1.0
176
     1
 40
1.0
176
     1
  0
VISUALSTYLE
  5
30
102
{ACAD_REACTORS
330
29
102
}
330
29
100
AcDbVisualStyle
  2
Wireframe
 70
     5
177
     3
291
     0
 70
    58
 90
        0
176
     1
 90
        2
176
     1
 90
        0
176
     1
 90
        0
176
     1
 40
0.6
176
     1
 40
30.0
176
     1
 62
     7
420
 16777215
176
     1
 90
        1
176
     1
 90
        4
176
     1
 62
     7
176
     1
 62
   257
176
     1
 90
        1
176
     1
 90
        1
176
     1
 40
1.0
176
     1
 90
        0
176
     1
 62
   257
176
     1
 40
1.0
176
     1
 90
        1
176
     1
 90
        6
176
     1
 90
        2
176
     1
 62
     7
176
     1
 90
        3
176
     1
 90
        0
176
     1
 90
        0
176
     1
290
     0
176
     1
 90
        1
176
     1
 40
0.0
176
     1
 90
        0
176
     1
290
     0
176
     1
290
     1
176
     1
290
     1
176
     1
290
     0
176
     1
290
     0
176
     1
290
     0
176
     1
290
     0
176
     1
290
     0
176
     1
290
     0
176
     1
 90
       50
176
     1
 40
0.0
176
     1
 40
1.0
176
     1
 90
        0
176
     1
 62
    18
420
        0
176
     1
 90
       50
176
     1
 90
        3
176
     1
 62
     5
420
      255
176
     1
290
     0
176
     1
 90
       50
176
     1
 90
       50
176
     1
 90
       50
176
     1
290
     0
176
     1
 90
       50
176
     1
 62
   256
176
     0
 40
1.0
176
     0
 90
        2
176
     1
  1
strokes_ogs.tif
176
     1
290
     0
176
     1
 40
1.0
176
     1
 40
1.0
176
     1
  0
VISUALSTYLE
  5
3C
102
{ACAD_REACTORS
330
29
102
}
330
29
100
AcDbVisualStyle
  2
X-Ray
 70
    25
177
     3
291
     0
 70
    58
 90
        2
176
     1
 90
        2
176
     1
 90
        1
176
     1
 90
        1
176
     1
 40
0.5
176
     1
 40
30.0
176
     1
 62
     7
420
 16777215
176
     1
 90
        1
176
     1
 90
        0
176
     1
 62
     7
176
     1
 62
   257
176
     1
 90
        1
176
     1
 90
        1
176
     1
 40
1.0
176
     1
 90
        8
176
     1
 62
     7
176
     1
 40
1.0
176
     1
 90
        1
176
     1
 90
        6
176
     1
 90
        2
176
     1
 62
     7
176
     1
 90
        3
176
     1
 90
        0
176
     1
 90
        0
176
     1
290
     0
176
     1
 90
       13
176
     1
 40
0.0
176
     1
 90
        0
176
     1
290
     0
176
     1
290
     1
176
     1
290
     1
176
     1
290
     0
176
     1
290
     0
176
     1
290
     0
176
     1
290
     0
176
     1
290
     0
176
     1
290
     0
176
     1
 90
       50
176
     1
 40
0.0
176
     1
 40
1.0
176
     1
 90
        0
176
     1
 62
    18
420
        0
176
     1
 90
       50
176
     1
 90
        3
176
     1
 62
     5
420
      255
176
     1
290
     0
176
     1
 90
       50
176
     1
 90
       50
176
     1
 90
       50
176
     1
290
     0
176
     1
 90
       50
176
     1
 62
   256
176
     0
 40
1.0
176
     0
 90
        2
176
     1
  1
strokes_ogs.tif
176
     1
290
     0
176
     1
 40
1.0
176
     1
 40
1.0
176
     1
  0
DICTIONARYVAR
  5
2D1
102
{ACAD_REACTORS
330
2CC
102
}
330
2CC
100
DictionaryVariables
280
     0
  1
1:1
  0
DICTIONARYVAR
  5
2CE
102
{ACAD_REACTORS
330
2CC
102
}
330
2CC
100
DictionaryVariables
280
     0
  1
STANDARD
  0
DICTIONARYVAR
  5
2CD
102
{ACAD_REACTORS
330
2CC
102
}
330
2CC
100
DictionaryVariables
280
     0
  1
STANDARD
  0
DICTIONARYVAR
  5
2CF
102
{ACAD_REACTORS
330
2CC
102
}
330
2CC
100
DictionaryVariables
280
     0
  1
Imperial24
  0
DICTIONARYVAR
  5
2D0
102
{ACAD_REACTORS
330
2CC
102
}
330
2CC
100
DictionaryVariables
280
     0
  1
Imperial24
  0
DICTIONARY
  5
1A
330
19
100
AcDbDictionary
280
     1
281
     1
  3
BUMPTILE
360
1C
  3
DIFFUSETILE
360
1B
  3
OPACITYTILE
360
1F
  3
REFLECTIONTILE
360
1E
  3
REFRACTIONTILE
360
20
  3
SPECULARTILE
360
1D
  0
DICTIONARY
  5
12
330
11
100
AcDbDictionary
280
     1
281
     1
  3
BUMPTILE
360
14
  3
DIFFUSETILE
360
13
  3
OPACITYTILE
360
17
  3
REFLECTIONTILE
360
16
  3
REFRACTIONTILE
360
18
  3
SPECULARTILE
360
15
  0
DICTIONARY
  5
22
330
21
100
AcDbDictionary
280
     1
281
     1
  3
BUMPTILE
360
24
  3
DIFFUSETILE
360
23
  3
OPACITYTILE
360
27
  3
REFLECTIONTILE
360
26
  3
REFRACTIONTILE
360
28
  3
SPECULARTILE
360
25
  0
DICTIONARY
  5
2D2
330
65
100
AcDbDictionary
280
     1
281
     1
  3
ACAD_ROUNDTRIP_2008_TABLESTYLE_CELLSTYLEMAP
360
2D3
  0
XRECORD
  5
1C
102
{ACAD_REACTORS
330
1A
102
}
330
1A
100
AcDbXrecord
280
     1
270
     1
271
     1
  0
XRECORD
  5
1B
102
{ACAD_REACTORS
330
1A
102
}
330
1A
100
AcDbXrecord
280
     1
270
     1
271
     1
  0
XRECORD
  5
1F
102
{ACAD_REACTORS
330
1A
102
}
330
1A
100
AcDbXrecord
280
     1
270
     1
271
     1
  0
XRECORD
  5
1E
102
{ACAD_REACTORS
330
1A
102
}
330
1A
100
AcDbXrecord
280
     1
270
     1
271
     1
  0
XRECORD
  5
20
102
{ACAD_REACTORS
330
1A
102
}
330
1A
100
AcDbXrecord
280
     1
270
     1
271
     1
  0
XRECORD
  5
1D
102
{ACAD_REACTORS
330
1A
102
}
330
1A
100
AcDbXrecord
280
     1
270
     1
271
     1
  0
XRECORD
  5
14
102
{ACAD_REACTORS
330
12
102
}
330
12
100
AcDbXrecord
280
     1
270
     1
271
     1
  0
XRECORD
  5
13
102
{ACAD_REACTORS
330
12
102
}
330
12
100
AcDbXrecord
280
     1
270
     1
271
     1
  0
XRECORD
  5
17
102
{ACAD_REACTORS
330
12
102
}
330
12
100
AcDbXrecord
280
     1
270
     1
271
     1
  0
XRECORD
  5
16
102
{ACAD_REACTORS
330
12
102
}
330
12
100
AcDbXrecord
280
     1
270
     1
271
     1
  0
XRECORD
  5
18
102
{ACAD_REACTORS
330
12
102
}
330
12
100
AcDbXrecord
280
     1
270
     1
271
     1
  0
XRECORD
  5
15
102
{ACAD_REACTORS
330
12
102
}
330
12
100
AcDbXrecord
280
     1
270
     1
271
     1
  0
XRECORD
  5
24
102
{ACAD_REACTORS
330
22
102
}
330
22
100
AcDbXrecord
280
     1
270
     1
271
     1
  0
XRECORD
  5
23
102
{ACAD_REACTORS
330
22
102
}
330
22
100
AcDbXrecord
280
     1
270
     1
271
     1
  0
XRECORD
  5
27
102
{ACAD_REACTORS
330
22
102
}
330
22
100
AcDbXrecord
280
     1
270
     1
271
     1
  0
XRECORD
  5
26
102
{ACAD_REACTORS
330
22
102
}
330
22
100
AcDbXrecord
280
     1
270
     1
271
     1
  0
XRECORD
  5
28
102
{ACAD_REACTORS
330
22
102
}
330
22
100
AcDbXrecord
280
     1
270
     1
271
     1
  0
XRECORD
  5
25
102
{ACAD_REACTORS
330
22
102
}
330
22
100
AcDbXrecord
280
     1
270
     1
271
     1
  0
CELLSTYLEMAP
  5
2D3
102
{ACAD_REACTORS
330
2D2
102
}
330
2D2
100
AcDbCellStyleMap
 90
        3
300
CELLSTYLE
  1
TABLEFORMAT_BEGIN
 90
        5
170
     1
 91
        0
 92
    32768
 62
   257
 93
        1
300
CONTENTFORMAT
  1
CONTENTFORMAT_BEGIN
 90
        0
 91
        0
 92
      512
 93
        0
300

 40
0.0
140
1.0
 94
        5
 62
     0
340
55
144
0.25
309
CONTENTFORMAT_END
171
     0
 94
        0
309
TABLEFORMAT_END
  1
CELLSTYLE_BEGIN
 90
        1
 91
        1
300
_TITLE
309
CELLSTYLE_END
300
CELLSTYLE
  1
TABLEFORMAT_BEGIN
 90
        5
170
     1
 91
        0
 92
        0
 62
   257
 93
        1
300
CONTENTFORMAT
  1
CONTENTFORMAT_BEGIN
 90
        0
 91
        0
 92
      512
 93
        0
300

 40
0.0
140
1.0
 94
        5
 62
     0
340
55
144
0.18
309
CONTENTFORMAT_END
171
     0
 94
        0
309
TABLEFORMAT_END
  1
CELLSTYLE_BEGIN
 90
        2
 91
        1
300
_HEADER
309
CELLSTYLE_END
300
CELLSTYLE
  1
TABLEFORMAT_BEGIN
 90
        5
170
     1
 91
        0
 92
        0
 62
   257
 93
        1
300
CONTENTFORMAT
  1
CONTENTFORMAT_BEGIN
 90
        0
 91
        0
 92
      512
 93
        0
300

 40
0.0
140
1.0
 94
        2
 62
     0
340
55
144
0.18
309
CONTENTFORMAT_END
171
     0
 94
        0
309
TABLEFORMAT_END
  1
CELLSTYLE_BEGIN
 90
        3
 91
        2
300
_DATA
309
CELLSTYLE_END
  0
ENDSEC
  0
EOF
