0
SECTION
2
HEADER
9
$ACADVER
1
AC1014
9
$HANDSEED
5
       3B6
9
$EXTMAX
10
297.0000000000
20
210.0000000000
9
$EXTMIN
10
0.0000000000
20
0.0000000000
9
$LIMMIN
10
0.0000000000
20
0.0000000000
9
$LIMMAX
10
297.0000000000
20
210.0000000000
9
$VIEWCTR
10
148.5000000000
20
105.0000000000
9
$VIEWSIZE
40
210.0000000000
9
$CLAYER
8
0
9
$LTSCALE
40
16.3350000000
9
$CELTYPE
6
BYLAYER
9
$DIMSCALE
40
1
9
$DIMASZ
40
3.0000000000
9
$DIMEXO
40
1.8562500000
9
$DIMDLI
40
11.2860000000
9
$DIMEXE
40
5.3460000000
9
$DIMCEN
40
2.6730000000
9
$DIMLFAC
40
1.0000000000
9
$DIMTXT
40
3.0000000000
9
$DIMTOL
70
1
9
$DIMLIM
70
0
9
$DIMTFAC
40
1.0000000000
9
$DIMTP
40
0.0100000000
9
$DIMTM
40
0.0100000000
9
$MEASUREMENT
70
1
0
ENDSEC
0
SECTION
2
CLASSES
0
ENDSEC
0
SECTION
2
TABLES
0
TABLE
2
VPORT
5
8
100
AcDbSymbolTable
70
2
0
VPORT
5
1F4
100
AcDbSymbolTableRecord
100
AcDbViewportTableRecord
2
*ACTIVE
70
0
10
0.0
20
0.0
11
1.0
21
1.0
12
148.5000000000
22
105.0000000000
13
0.0
23
0.0
14
1.0
24
1.0
15
0.0
25
0.0
16
0.0
26
0.0
36
1.0
17
0.0
27
0.0
37
0.0
40
210.0000000000
41
1.4142857143
42
50.0
43
0.0
44
0.0
50
0.0
51
0.0
71
0
72
100
73
1
74
1
75
0
76
0
77
0
78
0
0
ENDTAB
0
TABLE
2
LTYPE
5
5
100
AcDbSymbolTable
70
6
0
LTYPE
5
14
100
AcDbSymbolTableRecord
100
AcDbLinetypeTableRecord
2
BYBLOCK
70
0
3

72
65
73
0
40
0.0
0
LTYPE
5
15
100
AcDbSymbolTableRecord
100
AcDbLinetypeTableRecord
2
BYLAYER
70
0
3

72
65
73
0
40
0.0
0
LTYPE
5
16
100
AcDbSymbolTableRecord
100
AcDbLinetypeTableRecord
2
CONTINUOUS
70
64
3
Solid line
72
65
73
0
40
0
0
LTYPE
5
1F5
100
AcDbSymbolTableRecord
100
AcDbLinetypeTableRecord
2
CENTER
70
64
3
____ _ ____ _ ____ _ ____ _ ____ _ ____ _ ____
72
65
73
4
40
0.6
49
0.375
74
0
49
-0.075
74
0
49
0.075
74
0
49
-0.075
74
0
0
LTYPE
5
1F6
100
AcDbSymbolTableRecord
100
AcDbLinetypeTableRecord
2
HIDDEN
70
64
3
- - - - - - - - - - - - - - - - - - - -
72
65
73
2
40
0.2
49
0.1
74
0
49
-0.1
74
0
0
LTYPE
5
1F7
100
AcDbSymbolTableRecord
100
AcDbLinetypeTableRecord
2
PHANTOM
70
64
3
_____ _ _ _____ _ _ _____ _ _ _____
72
65
73
6
40
0.8
49
0.45
74
0
49
-0.05
74
0
49
0.1
74
0
49
-0.05
74
0
49
0.1
74
0
49
-0.05
74
0
0
LTYPE
5
1F8
100
AcDbSymbolTableRecord
100
AcDbLinetypeTableRecord
2
DOT
70
64
3
. . . . . . . . . . . . . . . . . . . .
72
65
73
2
40
0.2
49
0.1
74
0
49
-0.1
74
0
0
LTYPE
5
1F9
100
AcDbSymbolTableRecord
100
AcDbLinetypeTableRecord
2
DASHED
70
64
3
- - - - - - - - - - - - - - - - - - - -
72
65
73
2
40
0.2
49
0.1
74
0
49
-0.1
74
0
0
ENDTAB
0
TABLE
2
LAYER
5
2
100
AcDbSymbolTable
70
36
0
LAYER
5
10
100
AcDbSymbolTableRecord
100
AcDbLayerTableRecord
2
0
70
0
62
7
6
CONTINUOUS
0
LAYER
5
1FA
100
AcDbSymbolTableRecord
100
AcDbLayerTableRecord
2
DEFAULT_1
70
0
62
7
6
CENTER
0
LAYER
5
1FB
100
AcDbSymbolTableRecord
100
AcDbLayerTableRecord
2
DEFAULT_2
70
0
62
8
6
HIDDEN
0
LAYER
5
1FC
100
AcDbSymbolTableRecord
100
AcDbLayerTableRecord
2
DEFAULT_3
70
0
62
7
6
PHANTOM
0
LAYER
5
1FD
100
AcDbSymbolTableRecord
100
AcDbLayerTableRecord
2
ASSI
70
0
62
7
6
CONTINUOUS
0
LAYER
5
1FE
100
AcDbSymbolTableRecord
100
AcDbLayerTableRecord
2
COORDINATE
70
0
62
7
6
CONTINUOUS
0
LAYER
5
1FF
100
AcDbSymbolTableRecord
100
AcDbLayerTableRecord
2
COORD_ORIGINE
70
0
62
7
6
CONTINUOUS
0
LAYER
5
200
100
AcDbSymbolTableRecord
100
AcDbLayerTableRecord
2
CURVE
70
0
62
7
6
CONTINUOUS
0
LAYER
5
201
100
AcDbSymbolTableRecord
100
AcDbLayerTableRecord
2
DRAFT
70
0
62
7
6
CONTINUOUS
0
LAYER
5
202
100
AcDbSymbolTableRecord
100
AcDbLayerTableRecord
2
IGES
70
0
62
7
6
CONTINUOUS
0
LAYER
5
203
100
AcDbSymbolTableRecord
100
AcDbLayerTableRecord
2
NOTE
70
0
62
7
6
CONTINUOUS
0
LAYER
5
204
100
AcDbSymbolTableRecord
100
AcDbLayerTableRecord
2
PIANI
70
0
62
7
6
CONTINUOUS
0
LAYER
5
205
100
AcDbSymbolTableRecord
100
AcDbLayerTableRecord
2
PIANI_ORIGINE
70
0
62
7
6
CONTINUOUS
0
LAYER
5
206
100
AcDbSymbolTableRecord
100
AcDbLayerTableRecord
2
PUNTI
70
0
62
7
6
CONTINUOUS
0
LAYER
5
207
100
AcDbSymbolTableRecord
100
AcDbLayerTableRecord
2
RACCORDO
70
0
62
7
6
CONTINUOUS
0
LAYER
5
208
100
AcDbSymbolTableRecord
100
AcDbLayerTableRecord
2
SMUSSO
70
0
62
7
6
CONTINUOUS
0
LAYER
5
209
100
AcDbSymbolTableRecord
100
AcDbLayerTableRecord
2
SNAPLINE
70
0
62
7
6
CONTINUOUS
0
LAYER
5
20A
100
AcDbSymbolTableRecord
100
AcDbLayerTableRecord
2
SUPERFICI
70
0
62
7
6
CONTINUOUS
0
LAYER
5
20B
100
AcDbSymbolTableRecord
100
AcDbLayerTableRecord
2
TRASH
70
0
62
7
6
CONTINUOUS
0
ENDTAB
0
TABLE
2
STYLE
5
3
100
AcDbSymbolTable
70
1
0
STYLE
5
11
100
AcDbSymbolTableRecord
100
AcDbTextStyleTableRecord
2
STANDARD
70
0
40
0.0
41
0.8000000000
50
0.0
71
0
42
0.2
3
txt
4

0
ENDTAB
0
TABLE
2
VIEW
5
6
100
AcDbSymbolTable
70
0
0
ENDTAB
0
TABLE
2
UCS
5
7
100
AcDbSymbolTable
70
0
0
ENDTAB
0
TABLE
2
APPID
5
9
100
AcDbSymbolTable
70
1
0
APPID
5
20C
100
AcDbSymbolTableRecord
100
AcDbRegAppTableRecord
2
ACAD
70
0
0
ENDTAB
0
TABLE
2
DIMSTYLE
5
A
100
AcDbSymbolTable
70
1
0
DIMSTYLE
105
20D
100
AcDbSymbolTableRecord
100
AcDbDimStyleTableRecord
2
STANDARD
70
0
3

4

5

6

7

40
1.0
41
3.0000000000
42
0.0625
43
0.38
44
0.18
45
0.0
46
0.0
47
0.0100000000
48
0.0100000000
140
3.0000000000
141
0.09
142
0.0
143
25.4
144
1.0000000000
145
0.0
146
1.0000000000
147
0.09
71
1
72
0
73
0
74
0
75
0
76
0
77
1
78
8
170
0
171
2
172
0
173
0
174
0
175
0
176
0
177
0
178
0
270
2
271
2
272
2
273
2
274
2
340
11
275
0
280
0
281
0
282
0
283
1
284
8
285
0
286
0
287
3
288
0
0
ENDTAB
0
TABLE
2
BLOCK_RECORD
5
1
100
AcDbSymbolTable
70
0
0
BLOCK_RECORD
5
1B
100
AcDbSymbolTableRecord
100
AcDbBlockTableRecord
2
*MODEL_SPACE
0
BLOCK_RECORD
5
1C
100
AcDbSymbolTableRecord
100
AcDbBlockTableRecord
2
*PAPER_SPACE
0
ENDTAB
0
ENDSEC
0
SECTION
2
BLOCKS
0
BLOCK
5
1E
100
AcDbEntity
8
0
100
AcDbBlockBegin
2
*MODEL_SPACE
70
0
10
0.0
20
0.0
30
0.0
3
*MODEL_SPACE
1

0
ENDBLK
5
1F
100
AcDbEntity
8
0
100
AcDbBlockEnd
0
BLOCK
5
20
100
AcDbEntity
8
0
100
AcDbBlockBegin
2
*PAPER_SPACE
70
0
10
0.0
20
0.0
30
0.0
3
*PAPER_SPACE
1

0
ENDBLK
5
21
100
AcDbEntity
8
0
100
AcDbBlockEnd
0
ENDSEC
0
SECTION
2
ENTITIES
0
LINE
5
20E
100
AcDbEntity
8
0
100
AcDbLine
62
7
6
CONTINUOUS
10
-352.0089749989
20
-479.1681363435
11
-342.1094800623
21
-484.1178838118
0
LINE
5
20F
100
AcDbEntity
8
0
100
AcDbLine
62
7
6
CONTINUOUS
10
-353.4231885613
20
-478.1431923171
11
-343.5236936246
21
-483.0929397854
0
LINE
5
210
100
AcDbEntity
8
0
100
AcDbLine
62
7
6
CONTINUOUS
10
-315.3145171173
20
-396.6504349865
11
-321.4969454525
21
-392.1368739694
0
LINE
5
211
100
AcDbEntity
8
0
100
AcDbLine
62
7
6
CONTINUOUS
10
-318.2132306561
20
-390.4201192302
11
-312.0306580712
21
-394.9336081224
0
LINE
5
212
100
AcDbEntity
8
0
100
AcDbLine
62
7
6
CONTINUOUS
10
-354.0089749989
20
-477.4360855359
11
-354.0089749989
21
-8.9163420886
0
LINE
5
213
100
AcDbEntity
8
0
100
AcDbLine
62
9
6
CONTINUOUS
10
-353.4231885613
20
-478.1431923171
11
-353.4231885613
21
-9.6234488697
0
LINE
5
214
100
AcDbEntity
8
0
100
AcDbLine
62
7
6
CONTINUOUS
10
-352.5947614365
20
-6.4771844998
11
-352.5947614365
21
-7.7762226055
0
LINE
5
215
100
AcDbEntity
8
0
100
AcDbLine
62
9
6
CONTINUOUS
10
-352.3625283895
20
-9.0931187838
11
-352.3625283895
21
-8.7395653933
0
LINE
5
216
100
AcDbEntity
8
0
100
AcDbLine
62
9
6
CONTINUOUS
10
-352.0089749989
20
-7.1842912810
11
-352.0089749989
21
-8.4833293867
0
LINE
5
217
100
AcDbEntity
8
0
100
AcDbLine
62
9
6
CONTINUOUS
10
-352.0089749989
20
-478.8502990983
11
-352.0089749989
21
-479.1681363435
0
LINE
5
218
100
AcDbEntity
8
0
100
AcDbLine
62
7
6
CONTINUOUS
10
21.3434054676
20
180.9061125146
11
63.0627055576
21
201.7657625596
0
LINE
5
219
100
AcDbEntity
8
0
100
AcDbLine
62
7
6
CONTINUOUS
10
-310.2896749089
20
15.0895723264
11
-352.0089749989
21
-5.7700777186
0
LINE
5
21A
100
AcDbEntity
8
0
100
AcDbLine
62
7
6
CONTINUOUS
10
-312.0234795231
20
-371.4284432467
11
-326.1497010017
21
-372.7305243693
0
LINE
5
21B
100
AcDbEntity
8
0
100
AcDbLine
62
7
6
CONTINUOUS
10
-343.8772470152
20
-13.3357594710
11
-343.8772470152
21
-12.5491933785
0
LINE
5
21C
100
AcDbEntity
8
0
100
AcDbLine
62
9
6
CONTINUOUS
10
-343.5236936246
20
-483.0929397854
11
-343.5236936246
21
-14.5731963380
0
LINE
5
21D
100
AcDbEntity
8
0
100
AcDbLine
62
9
6
CONTINUOUS
10
-340.6952664999
20
-483.0929397854
11
-340.6952664999
21
-14.5731963380
0
LINE
5
21E
100
AcDbEntity
8
0
100
AcDbLine
62
7
6
CONTINUOUS
10
-326.1719522378
20
-394.4743773621
11
-326.1719522378
21
-409.6510499430
0
LINE
5
21F
100
AcDbEntity
8
0
100
AcDbLine
62
7
6
CONTINUOUS
10
-326.1718080462
20
-324.7811259021
11
-326.1718080462
21
-333.4585337146
0
LINE
5
220
100
AcDbEntity
8
0
100
AcDbLine
62
7
6
CONTINUOUS
10
-326.1718080462
20
-339.5856036202
11
-326.1718080462
21
-343.4144509202
0
LINE
5
221
100
AcDbEntity
8
0
100
AcDbLine
62
7
6
CONTINUOUS
10
-326.1718079881
20
-349.6586112282
11
-326.1718079881
21
-354.6724358586
0
LINE
5
222
100
AcDbEntity
8
0
100
AcDbLine
62
7
6
CONTINUOUS
10
-326.1718079881
20
-362.0477766651
11
-326.1718079881
21
-367.0615995634
0
LINE
5
223
100
AcDbEntity
8
0
100
AcDbLine
62
7
6
CONTINUOUS
10
-326.1571652208
20
-368.8095921617
11
-326.1571652208
21
-372.3981035223
0
LINE
5
224
100
AcDbEntity
8
0
100
AcDbLine
62
7
6
CONTINUOUS
10
-326.1497010017
20
-372.7305243693
11
-326.1497010017
21
-376.4391170803
0
LINE
5
225
100
AcDbEntity
8
0
100
AcDbLine
62
7
6
CONTINUOUS
10
-326.1497010017
20
-384.1085912908
11
-326.1497010017
21
-387.8171822698
0
LINE
5
226
100
AcDbEntity
8
0
100
AcDbLine
62
7
6
CONTINUOUS
10
-326.1279808027
20
-53.4994467774
11
-326.1279808027
21
-67.8495769187
0
LINE
5
227
100
AcDbEntity
8
0
100
AcDbLine
62
7
6
CONTINUOUS
10
-326.1279808027
20
-72.3610115521
11
-326.1279808027
21
-86.0128108508
0
LINE
5
228
100
AcDbEntity
8
0
100
AcDbLine
62
7
6
CONTINUOUS
10
-326.1279808027
20
-129.1796271319
11
-326.1279808027
21
-145.8002792942
0
LINE
5
229
100
AcDbEntity
8
0
100
AcDbLine
62
7
6
CONTINUOUS
10
-326.1279808027
20
-148.4781225074
11
-326.1279808027
21
-162.8282517827
0
LINE
5
22A
100
AcDbEntity
8
0
100
AcDbLine
62
7
6
CONTINUOUS
10
-326.1279808027
20
-168.7659592420
11
-326.1279808027
21
-171.3857657628
0
LINE
5
22B
100
AcDbEntity
8
0
100
AcDbLine
62
7
6
CONTINUOUS
10
-326.1279808027
20
-182.3885024705
11
-326.1279808027
21
-185.3284560664
0
LINE
5
22C
100
AcDbEntity
8
0
100
AcDbLine
62
7
6
CONTINUOUS
10
-325.2970737662
20
-96.8409437846
11
-325.2970737662
21
-99.3263379625
0
LINE
5
22D
100
AcDbEntity
8
0
100
AcDbLine
62
7
6
CONTINUOUS
10
-352.5872417807
20
-7.7912619171
11
-353.4231885613
21
-8.2092353074
0
LINE
5
22E
100
AcDbEntity
8
0
100
AcDbLine
62
7
6
CONTINUOUS
10
-352.3625283895
20
-8.7395653933
11
-351.9771912744
21
-8.5468968357
0
LINE
5
22F
100
AcDbEntity
8
0
100
AcDbLine
62
9
6
CONTINUOUS
10
31.2429004042
20
174.5421514840
11
68.0136795130
21
192.9275410384
0
LINE
5
230
100
AcDbEntity
8
0
100
AcDbLine
62
9
6
CONTINUOUS
10
-297.5617528475
20
10.1398248581
11
-342.1094800623
21
-12.1340387493
0
LINE
5
231
100
AcDbEntity
8
DEFAULT_3
100
AcDbLine
62
8
6
PHANTOM
10
31.5964537948
20
172.1565681133
11
-296.2178080985
21
8.2494371666
0
LINE
5
232
100
AcDbEntity
8
0
100
AcDbLine
62
9
6
CONTINUOUS
10
-340.6952664999
20
-14.5731963380
11
-296.1475392851
21
7.7006672693
0
LINE
5
233
100
AcDbEntity
8
0
100
AcDbLine
62
9
6
CONTINUOUS
10
32.6571139666
20
172.1029938952
11
77.2048411814
21
194.3768575026
0
LINE
5
234
100
AcDbEntity
8
DEFAULT_3
100
AcDbLine
62
8
6
PHANTOM
10
31.5964537948
20
170.7423545509
11
-296.1475392851
21
6.8703580109
0
LINE
5
235
100
AcDbEntity
8
DEFAULT_3
100
AcDbLine
62
8
6
PHANTOM
10
31.5964537948
20
169.1692223660
11
-296.1475392851
21
5.2972258260
0
LINE
5
236
100
AcDbEntity
8
0
100
AcDbLine
62
7
6
CONTINUOUS
10
-326.1718079881
20
-354.6724358586
11
-316.0731804682
21
-353.3106166987
0
LINE
5
237
100
AcDbEntity
8
0
100
AcDbLine
62
7
6
CONTINUOUS
10
-312.0111348530
20
-349.4824370257
11
-321.7863430448
21
-350.7514665553
0
LINE
5
238
100
AcDbEntity
8
0
100
AcDbLine
62
7
6
CONTINUOUS
10
-326.1497010017
20
-376.4391170803
11
-315.9848967723
21
-375.1913628703
0
LINE
5
239
100
AcDbEntity
8
0
100
AcDbLine
62
7
6
CONTINUOUS
10
-326.1718080462
20
-343.4144509202
11
-312.0160154664
21
-342.3134805561
0
LINE
5
23A
100
AcDbEntity
8
0
100
AcDbLine
62
7
6
CONTINUOUS
10
-304.2792672688
20
-244.3136454722
11
-300.7083780238
21
-250.4725183838
0
LINE
5
23B
100
AcDbEntity
8
0
100
AcDbLine
62
7
6
CONTINUOUS
10
-295.5984014823
20
-246.6824865520
11
-297.9484014823
21
-242.6293361043
0
LINE
5
23C
100
AcDbEntity
8
0
100
AcDbLine
62
7
6
CONTINUOUS
10
-294.3139444319
20
-245.7515828923
11
-296.5341879199
21
-241.9222293231
0
LINE
5
23D
100
AcDbEntity
8
0
100
AcDbLine
62
7
6
CONTINUOUS
10
-295.5984014823
20
-240.9261856565
11
-293.2484014823
21
-244.9793361043
0
LINE
5
23E
100
AcDbEntity
8
0
100
AcDbLine
62
7
6
CONTINUOUS
10
-304.6369597217
20
-231.3952541276
11
-305.1517112553
21
-230.2839914147
0
LINE
5
23F
100
AcDbEntity
8
0
100
AcDbLine
62
7
6
CONTINUOUS
10
-303.2366558607
20
-231.9759426448
11
-303.3102163436
21
-230.7861898525
0
LINE
5
240
100
AcDbEntity
8
0
100
AcDbLine
62
7
6
CONTINUOUS
10
-324.5435326969
20
-159.2707427977
11
-324.5435326969
21
-147.6858854648
0
LINE
5
241
100
AcDbEntity
8
0
100
AcDbLine
62
7
6
CONTINUOUS
10
-324.5435326969
20
-145.0080491795
11
-324.5435326969
21
-138.0803534398
0
LINE
5
242
100
AcDbEntity
8
0
100
AcDbLine
62
7
6
CONTINUOUS
10
-324.5435326969
20
-135.3150763018
11
-324.5435326969
21
-128.3873805635
0
LINE
5
243
100
AcDbEntity
8
0
100
AcDbLine
62
7
6
CONTINUOUS
10
-324.5435326969
20
-82.4551355888
11
-324.5435326969
21
-71.5687874992
0
LINE
5
244
100
AcDbEntity
8
0
100
AcDbLine
62
7
6
CONTINUOUS
10
-324.5435326969
20
-64.2919813311
11
-324.5435326969
21
-52.7072478380
0
LINE
5
245
100
AcDbEntity
8
0
100
AcDbLine
62
7
6
CONTINUOUS
10
-323.8933760113
20
-328.7489149527
11
-323.8933760113
21
-324.5058531133
0
LINE
5
246
100
AcDbEntity
8
0
100
AcDbLine
62
7
6
CONTINUOUS
10
-321.7892570115
20
-111.3667768606
11
-321.7892570115
21
-108.4177057999
0
LINE
5
247
100
AcDbEntity
8
0
100
AcDbLine
62
7
6
CONTINUOUS
10
-320.0476226242
20
-51.2450090730
11
-320.0476226242
21
-62.0440314909
0
LINE
5
248
100
AcDbEntity
8
0
100
AcDbLine
62
7
6
CONTINUOUS
10
-320.0476226242
20
-70.6599320377
11
-320.0476226242
21
-80.2071805525
0
LINE
5
249
100
AcDbEntity
8
0
100
AcDbLine
62
7
6
CONTINUOUS
10
-320.0476226242
20
-146.2238025824
11
-320.0476226242
21
-157.0227877613
0
LINE
5
24A
100
AcDbEntity
8
0
100
AcDbLine
62
7
6
CONTINUOUS
10
-319.4321165115
20
-322.5452715520
11
-319.4321165115
21
-326.5182852028
0
LINE
5
24B
100
AcDbEntity
8
0
100
AcDbLine
62
7
6
CONTINUOUS
10
-318.4632148236
20
-156.2305838610
11
-318.4632148236
21
-145.4315986821
0
LINE
5
24C
100
AcDbEntity
8
0
100
AcDbLine
62
7
6
CONTINUOUS
10
-318.4632148236
20
-79.4149766521
11
-318.4632148236
21
-69.8677281374
0
LINE
5
24D
100
AcDbEntity
8
0
100
AcDbLine
62
7
6
CONTINUOUS
10
-318.4632148236
20
-61.2518275906
11
-318.4632148236
21
-50.4528051726
0
LINE
5
24E
100
AcDbEntity
8
0
100
AcDbLine
62
7
6
CONTINUOUS
10
-317.2050755217
20
-334.7963233942
11
-317.2050755217
21
-339.2369986217
0
LINE
5
24F
100
AcDbEntity
8
0
100
AcDbLine
62
7
6
CONTINUOUS
10
-317.1756476886
20
-325.4048190516
11
-317.1756476886
21
-323.0373262726
0
LINE
5
250
100
AcDbEntity
8
0
100
AcDbLine
62
7
6
CONTINUOUS
10
-316.7583820017
20
-118.9826026142
11
-316.7583820017
21
-121.9316747589
0
LINE
5
251
100
AcDbEntity
8
0
100
AcDbLine
62
7
6
CONTINUOUS
10
-314.8235742957
20
-338.8743254622
11
-314.8235742957
21
-332.7774953277
0
LINE
5
252
100
AcDbEntity
8
0
100
AcDbLine
62
7
6
CONTINUOUS
10
-313.5711517123
20
-47.1336225562
11
-313.5711517123
21
-58.8057960350
0
LINE
5
253
100
AcDbEntity
8
0
100
AcDbLine
62
7
6
CONTINUOUS
10
-313.5711517123
20
-142.1123736304
11
-313.5711517123
21
-153.7845523053
0
LINE
5
254
100
AcDbEntity
8
0
100
AcDbLine
62
7
6
CONTINUOUS
10
-313.1073448182
20
-99.0680999275
11
-313.1073448182
21
-96.6078066117
0
LINE
5
255
100
AcDbEntity
8
0
100
AcDbLine
62
7
6
CONTINUOUS
10
-313.1073448182
20
-87.4885425402
11
-313.1073448182
21
-84.9984318476
0
LINE
5
256
100
AcDbEntity
8
0
100
AcDbLine
62
7
6
CONTINUOUS
10
-312.0306580712
20
-402.5055055187
11
-312.0306580712
21
-387.3288329377
0
LINE
5
257
100
AcDbEntity
8
0
100
AcDbLine
62
7
6
CONTINUOUS
10
-312.0234795231
20
-374.9930436459
11
-312.0234795231
21
-371.4284432467
0
LINE
5
258
100
AcDbEntity
8
0
100
AcDbLine
62
7
6
CONTINUOUS
10
-312.0208961802
20
-326.3830777816
11
-312.0208961802
21
-322.8274432974
0
LINE
5
259
100
AcDbEntity
8
0
100
AcDbLine
62
7
6
CONTINUOUS
10
-312.0160153040
20
-359.9837032213
11
-312.0160153040
21
-356.7070839817
0
LINE
5
25A
100
AcDbEntity
8
0
100
AcDbLine
62
7
6
CONTINUOUS
10
-312.0160153040
20
-345.8571591886
11
-312.0160153040
21
-342.5807148862
0
LINE
5
25B
100
AcDbEntity
8
0
100
AcDbLine
62
7
6
CONTINUOUS
10
-312.0160154664
20
-342.3134805561
11
-312.0160154664
21
-338.4969401397
0
LINE
5
25C
100
AcDbEntity
8
0
100
AcDbLine
62
7
6
CONTINUOUS
10
-312.0160154664
20
-330.3473218210
11
-312.0160154664
21
-326.5307814046
0
LINE
5
25D
100
AcDbEntity
8
0
100
AcDbLine
62
7
6
CONTINUOUS
10
-312.0160154664
20
-316.5509536822
11
-312.0160154664
21
-312.6081798026
0
LINE
5
25E
100
AcDbEntity
8
0
100
AcDbLine
62
7
6
CONTINUOUS
10
-312.0111348530
20
-353.0771023628
11
-312.0111348530
21
-349.4824370257
0
LINE
5
25F
100
AcDbEntity
8
0
100
AcDbLine
62
7
6
CONTINUOUS
10
-311.9867311837
20
-365.3128865037
11
-311.9867311837
21
-361.7243751432
0
LINE
5
260
100
AcDbEntity
8
0
100
AcDbLine
62
7
6
CONTINUOUS
10
-311.9867311837
20
-178.2578312569
11
-311.9867311837
21
-175.6380247362
0
LINE
5
261
100
AcDbEntity
8
0
100
AcDbLine
62
7
6
CONTINUOUS
10
-311.9867311837
20
-164.7225972456
11
-311.9867311837
21
-161.6953344326
0
LINE
5
262
100
AcDbEntity
8
0
100
AcDbLine
62
7
6
CONTINUOUS
10
-311.9867311837
20
-155.7576269733
11
-311.9867311837
21
-141.3201633661
0
LINE
5
263
100
AcDbEntity
8
0
100
AcDbLine
62
7
6
CONTINUOUS
10
-311.9867311837
20
-131.8019526832
11
-311.9867311837
21
-129.0366755452
0
LINE
5
264
100
AcDbEntity
8
0
100
AcDbLine
62
7
6
CONTINUOUS
10
-311.9867311837
20
-78.9421860413
11
-311.9867311837
21
-76.1767348322
0
LINE
5
265
100
AcDbEntity
8
0
100
AcDbLine
62
7
6
CONTINUOUS
10
-311.9867311837
20
-60.7789521093
11
-311.9867311837
21
-46.3414122919
0
LINE
5
266
100
AcDbEntity
8
0
100
AcDbLine
62
7
6
CONTINUOUS
10
-309.9714768573
20
-231.7601102244
11
-309.9714768573
21
-233.9895096354
0
LINE
5
267
100
AcDbEntity
8
0
100
AcDbLine
62
7
6
CONTINUOUS
10
-309.9361215183
20
-235.0766303595
11
-309.9361215183
21
-239.6665649995
0
LINE
5
268
100
AcDbEntity
8
0
100
AcDbLine
62
7
6
CONTINUOUS
10
-309.9007661792
20
-235.0589526899
11
-309.9007661792
21
-231.7247548854
0
LINE
5
269
100
AcDbEntity
8
0
100
AcDbLine
62
7
6
CONTINUOUS
10
-308.4865526168
20
-233.2470475152
11
-308.4865526168
21
-231.0176481042
0
LINE
5
26A
100
AcDbEntity
8
0
100
AcDbLine
62
7
6
CONTINUOUS
10
-304.2792672688
20
-234.6141609498
11
-304.2792672688
21
-236.4328142978
0
LINE
5
26B
100
AcDbEntity
8
0
100
AcDbLine
62
7
6
CONTINUOUS
10
-304.2792672688
20
-242.4949921243
11
-304.2792672688
21
-244.3136454722
0
LINE
5
26C
100
AcDbEntity
8
0
100
AcDbLine
62
7
6
CONTINUOUS
10
-321.0787901150
20
-119.6047737179
11
-321.3860187242
21
-120.1675894362
0
LINE
5
26D
100
AcDbEntity
8
0
100
AcDbLine
62
7
6
CONTINUOUS
10
-313.1073448182
20
-84.9984318476
11
-325.2970737662
21
-96.8409437846
0
LINE
5
26E
100
AcDbEntity
8
0
100
AcDbLine
62
7
6
CONTINUOUS
10
67.6850690101
20
207.3490858895
11
67.0318717454
21
206.8872056742
0
LINE
5
26F
100
AcDbEntity
8
0
100
AcDbLine
62
7
6
CONTINUOUS
10
-311.9867311837
20
-46.3414122919
11
-313.5711517123
21
-47.1336225562
0
LINE
5
270
100
AcDbEntity
8
0
100
AcDbLine
62
7
6
CONTINUOUS
10
-324.5435326969
20
-52.7072478380
11
-326.1279808027
21
-53.4994467774
0
LINE
5
271
100
AcDbEntity
8
0
100
AcDbLine
62
7
6
CONTINUOUS
10
-312.0160154664
20
-338.4969401397
11
-314.8235742957
21
-338.8743254622
0
LINE
5
272
100
AcDbEntity
8
0
100
AcDbLine
62
7
6
CONTINUOUS
10
-317.2050755217
20
-339.2369986217
11
-323.2313215415
21
-340.0299598305
0
LINE
5
273
100
AcDbEntity
8
0
100
AcDbLine
62
7
6
CONTINUOUS
10
-315.9868419187
20
-245.2013829811
11
-317.7546088716
21
-244.3174995046
0
LINE
5
274
100
AcDbEntity
8
0
100
AcDbLine
62
7
6
CONTINUOUS
10
-300.7083780238
20
-250.4725183838
11
-295.4050771649
21
-253.1241688133
0
LINE
5
275
100
AcDbEntity
8
0
100
AcDbLine
62
7
6
CONTINUOUS
10
-309.9361215183
20
-239.6665649995
11
-304.2792672688
21
-242.4949921243
0
LINE
5
276
100
AcDbEntity
8
0
100
AcDbLine
62
7
6
CONTINUOUS
10
-292.1877413105
20
-248.5407551034
11
-290.9856597825
21
-249.1417958674
0
LINE
5
277
100
AcDbEntity
8
0
100
AcDbLine
62
7
6
CONTINUOUS
10
-307.1076943935
20
-236.4908439218
11
-309.9361215183
21
-235.0766303595
0
LINE
5
278
100
AcDbEntity
8
0
100
AcDbLine
62
7
6
CONTINUOUS
10
-305.7492231719
20
-235.7558659703
11
-308.5219079559
21
-234.3695235783
0
LINE
5
279
100
AcDbEntity
8
0
100
AcDbLine
62
7
6
CONTINUOUS
10
-290.9856597825
20
-243.0796180409
11
-292.1877413105
21
-242.4785772769
0
LINE
5
27A
100
AcDbEntity
8
0
100
AcDbLine
62
7
6
CONTINUOUS
10
-304.2792672688
20
-236.4328142978
11
-305.6934808312
21
-235.7257075166
0
LINE
5
27B
100
AcDbEntity
8
0
100
AcDbLine
62
7
6
CONTINUOUS
10
-289.5714462201
20
-242.3725112597
11
-290.7735277481
21
-241.7714704957
0
LINE
5
27C
100
AcDbEntity
8
0
100
AcDbLine
62
7
6
CONTINUOUS
10
-292.1877413105
20
-239.8805010656
11
-295.4050771649
21
-234.6778277127
0
LINE
5
27D
100
AcDbEntity
8
0
100
AcDbLine
62
7
6
CONTINUOUS
10
-290.7735277481
20
-239.1733942844
11
-293.9908636025
21
-233.9707209315
0
LINE
5
27E
100
AcDbEntity
8
0
100
AcDbLine
62
7
6
CONTINUOUS
10
-296.1475392851
20
-460.8190761780
11
-296.1475392851
21
-252.7529377531
0
LINE
5
27F
100
AcDbEntity
8
0
100
AcDbLine
62
7
6
CONTINUOUS
10
-296.1475392851
20
-242.5890995729
11
-296.1475392851
21
-241.6420077080
0
LINE
5
280
100
AcDbEntity
8
0
100
AcDbLine
62
7
6
CONTINUOUS
10
-296.1475392851
20
-232.8923830902
11
-296.1475392851
21
7.7006672693
0
LINE
5
281
100
AcDbEntity
8
0
100
AcDbLine
62
7
6
CONTINUOUS
10
-292.1877413105
20
-251.1388313148
11
-292.1877413105
21
-248.5407551034
0
LINE
5
282
100
AcDbEntity
8
0
100
AcDbLine
62
7
6
CONTINUOUS
10
-292.1877413105
20
-242.4785772769
11
-292.1877413105
21
-239.8805010656
0
LINE
5
283
100
AcDbEntity
8
0
100
AcDbLine
62
7
6
CONTINUOUS
10
-290.9856597825
20
-249.1417958674
11
-290.9856597825
21
-243.0796180409
0
LINE
5
284
100
AcDbEntity
8
0
100
AcDbLine
62
7
6
CONTINUOUS
10
-290.7735277481
20
-250.4317245336
11
-290.7735277481
21
-249.0357298502
0
LINE
5
285
100
AcDbEntity
8
0
100
AcDbLine
62
7
6
CONTINUOUS
10
-290.7735277481
20
-241.7714704957
11
-290.7735277481
21
-239.1733942844
0
LINE
5
286
100
AcDbEntity
8
0
100
AcDbLine
62
7
6
CONTINUOUS
10
-289.5714462201
20
-248.4346890862
11
-289.5714462201
21
-242.3725112597
0
LINE
5
287
100
AcDbEntity
8
0
100
AcDbLine
62
7
6
CONTINUOUS
10
-322.5675992777
20
-96.7189623268
11
-313.1073448182
21
-87.4885425402
0
LINE
5
288
100
AcDbEntity
8
0
100
AcDbLine
62
7
6
CONTINUOUS
10
-318.4632148236
20
-50.4528051726
11
-320.0476226242
21
-51.2450090730
0
LINE
5
289
100
AcDbEntity
8
0
100
AcDbLine
62
7
6
CONTINUOUS
10
-313.5711517123
20
-58.8057960350
11
-318.4632148236
21
-61.2518275906
0
LINE
5
28A
100
AcDbEntity
8
0
100
AcDbLine
62
7
6
CONTINUOUS
10
-320.0476226242
20
-62.0440314909
11
-324.5435326969
21
-64.2919813311
0
LINE
5
28B
100
AcDbEntity
8
0
100
AcDbLine
62
7
6
CONTINUOUS
10
-326.1279808027
20
-67.8495769187
11
-311.9867311837
21
-60.7789521093
0
LINE
5
28C
100
AcDbEntity
8
0
100
AcDbLine
62
7
6
CONTINUOUS
10
-324.5435326969
20
-71.5687874992
11
-326.1279808027
21
-72.3610115521
0
LINE
5
28D
100
AcDbEntity
8
0
100
AcDbLine
62
7
6
CONTINUOUS
10
-318.4632148236
20
-69.8677281374
11
-320.0476226242
21
-70.6599320377
0
LINE
5
28E
100
AcDbEntity
8
0
100
AcDbLine
62
7
6
CONTINUOUS
10
-311.9867311837
20
-76.1767348322
11
-318.4632148236
21
-79.4149766521
0
LINE
5
28F
100
AcDbEntity
8
0
100
AcDbLine
62
7
6
CONTINUOUS
10
-320.0476226242
20
-80.2071805525
11
-324.5435326969
21
-82.4551355888
0
LINE
5
290
100
AcDbEntity
8
0
100
AcDbLine
62
7
6
CONTINUOUS
10
-295.4050771649
20
-234.6778277127
11
-300.7083780238
21
-232.0261772832
0
LINE
5
291
100
AcDbEntity
8
0
100
AcDbLine
62
7
6
CONTINUOUS
10
-293.9908636025
20
-233.9707209315
11
-299.2941644614
21
-231.3190705020
0
LINE
5
292
100
AcDbEntity
8
0
100
AcDbLine
62
7
6
CONTINUOUS
10
-306.1481428177
20
-225.5239847791
11
-307.9159097706
21
-224.6401013026
0
LINE
5
293
100
AcDbEntity
8
0
100
AcDbLine
62
7
6
CONTINUOUS
10
-323.3352745912
20
-181.3122964399
11
-311.9867311837
21
-164.7225972456
0
LINE
5
294
100
AcDbEntity
8
0
100
AcDbLine
62
7
6
CONTINUOUS
10
-314.6604596082
20
-165.6520051656
11
-326.1279808027
21
-182.3885024705
0
LINE
5
295
100
AcDbEntity
8
0
100
AcDbLine
62
7
6
CONTINUOUS
10
-326.1279808027
20
-86.0128108508
11
-311.9867311837
21
-78.9421860413
0
LINE
5
296
100
AcDbEntity
8
0
100
AcDbLine
62
7
6
CONTINUOUS
10
-324.5435326969
20
-128.3873805635
11
-326.1279808027
21
-129.1796271319
0
LINE
5
297
100
AcDbEntity
8
0
100
AcDbLine
62
7
6
CONTINUOUS
10
-311.9867311837
20
-129.0366755452
11
-324.5435326969
21
-135.3150763018
0
LINE
5
298
100
AcDbEntity
8
0
100
AcDbLine
62
7
6
CONTINUOUS
10
-324.5435326969
20
-138.0803534398
11
-311.9867311837
21
-131.8019526832
0
LINE
5
299
100
AcDbEntity
8
0
100
AcDbLine
62
7
6
CONTINUOUS
10
-326.1279808027
20
-145.8002792942
11
-324.5435326969
21
-145.0080491795
0
LINE
5
29A
100
AcDbEntity
8
0
100
AcDbLine
62
7
6
CONTINUOUS
10
-311.9867311837
20
-141.3201633661
11
-313.5711517123
21
-142.1123736304
0
LINE
5
29B
100
AcDbEntity
8
0
100
AcDbLine
62
7
6
CONTINUOUS
10
-324.5435326969
20
-147.6858854648
11
-326.1279808027
21
-148.4781225074
0
LINE
5
29C
100
AcDbEntity
8
0
100
AcDbLine
62
7
6
CONTINUOUS
10
-318.4632148236
20
-145.4315986821
11
-320.0476226242
21
-146.2238025824
0
LINE
5
29D
100
AcDbEntity
8
0
100
AcDbLine
62
7
6
CONTINUOUS
10
-313.5711517123
20
-153.7845523053
11
-318.4632148236
21
-156.2305838610
0
LINE
5
29E
100
AcDbEntity
8
0
100
AcDbLine
62
7
6
CONTINUOUS
10
-320.0476226242
20
-157.0227877613
11
-324.5435326969
21
-159.2707427977
0
LINE
5
29F
100
AcDbEntity
8
0
100
AcDbLine
62
7
6
CONTINUOUS
10
-326.1279808027
20
-162.8282517827
11
-311.9867311837
21
-155.7576269733
0
LINE
5
2A0
100
AcDbEntity
8
0
100
AcDbLine
62
7
6
CONTINUOUS
10
-311.9867311837
20
-161.6953344326
11
-326.1279808027
21
-168.7659592420
0
LINE
5
2A1
100
AcDbEntity
8
0
100
AcDbLine
62
7
6
CONTINUOUS
10
-326.1279808027
20
-171.3857657628
11
-314.6604596082
21
-165.6520051656
0
LINE
5
2A2
100
AcDbEntity
8
0
100
AcDbLine
62
7
6
CONTINUOUS
10
-310.3831165823
20
-242.8875678488
11
-311.5809776728
21
-243.1425242497
0
LINE
5
2A3
100
AcDbEntity
8
0
100
AcDbLine
62
7
6
CONTINUOUS
10
21.3434054676
20
-292.4919461103
11
31.2429004042
21
-297.4416935786
0
LINE
5
2A4
100
AcDbEntity
8
0
100
AcDbLine
62
7
6
CONTINUOUS
10
31.2429004042
20
-296.1426554729
11
21.3434054676
21
-291.1929080046
0
LINE
5
2A5
100
AcDbEntity
8
0
100
AcDbLine
62
7
6
CONTINUOUS
10
-321.4969454525
20
-407.3135465503
11
-315.3145171173
21
-396.6504349865
0
LINE
5
2A6
100
AcDbEntity
8
0
100
AcDbLine
62
7
6
CONTINUOUS
10
-312.0160154664
20
-312.6081798026
11
-317.3374289955
21
-319.5175744105
0
LINE
5
2A7
100
AcDbEntity
8
0
100
AcDbLine
62
7
6
CONTINUOUS
10
-317.1756476886
20
-323.0373262726
11
-312.0160154664
21
-316.5509536822
0
LINE
5
2A8
100
AcDbEntity
8
0
100
AcDbLine
62
7
6
CONTINUOUS
10
-311.9867311837
20
-175.6380247362
11
-323.3352745912
21
-181.3122964399
0
LINE
5
2A9
100
AcDbEntity
8
0
100
AcDbLine
62
7
6
CONTINUOUS
10
-326.1279808027
20
-185.3284560664
11
-311.9867311837
21
-178.2578312569
0
LINE
5
2AA
100
AcDbEntity
8
0
100
AcDbLine
62
7
6
CONTINUOUS
10
31.5964537948
20
-254.7212845017
11
30.4838193712
21
-254.1649672899
0
LINE
5
2AB
100
AcDbEntity
8
0
100
AcDbLine
62
7
6
CONTINUOUS
10
30.4923290340
20
-253.4408411830
11
30.2548130083
21
-253.3220831701
0
LINE
5
2AC
100
AcDbEntity
8
0
100
AcDbLine
62
7
6
CONTINUOUS
10
-312.0306580712
20
-394.9336081224
11
-318.2132306561
21
-405.5967918111
0
LINE
5
2AD
100
AcDbEntity
8
0
100
AcDbLine
62
7
6
CONTINUOUS
10
-300.7083780238
20
-232.0261772832
11
-304.2792672688
21
-234.6141609498
0
LINE
5
2AE
100
AcDbEntity
8
0
100
AcDbLine
62
7
6
CONTINUOUS
10
-297.9484014823
20
-242.6293361043
11
-295.5984014823
21
-240.9261856565
0
LINE
5
2AF
100
AcDbEntity
8
0
100
AcDbLine
62
7
6
CONTINUOUS
10
-296.5341879199
20
-241.9222293231
11
-295.4686449703
21
-241.1499825351
0
LINE
5
2B0
100
AcDbEntity
8
0
100
AcDbLine
62
7
6
CONTINUOUS
10
-293.2484014823
20
-244.9793361043
11
-295.5984014823
21
-246.6824865520
0
LINE
5
2B1
100
AcDbEntity
8
0
100
AcDbLine
62
7
6
CONTINUOUS
10
-309.0783834519
20
-243.6593978273
11
-310.0743219756
21
-244.3144011164
0
LINE
5
2B2
100
AcDbEntity
8
0
100
AcDbLine
62
7
6
CONTINUOUS
10
67.6850690101
20
-286.0544541599
11
67.2906478362
21
-285.7755562732
0
LINE
5
2B3
100
AcDbEntity
8
0
100
AcDbLine
62
7
6
CONTINUOUS
10
-312.0160154664
20
-326.5307814046
11
-326.1718080462
21
-339.5856036202
0
LINE
5
2B4
100
AcDbEntity
8
0
100
AcDbLine
62
7
6
CONTINUOUS
10
-295.4050771649
20
-253.1241688133
11
-292.1877413105
21
-251.1388313148
0
LINE
5
2B5
100
AcDbEntity
8
0
100
AcDbLine
62
7
6
CONTINUOUS
10
-293.9908636025
20
-252.4170620321
11
-290.7735277481
21
-250.4317245336
0
LINE
5
2B6
100
AcDbEntity
8
0
100
AcDbLine
62
7
6
CONTINUOUS
10
-305.6934808312
20
-235.7257075166
11
-307.1076943935
21
-236.4908439218
0
LINE
5
2B7
100
AcDbEntity
8
0
100
AcDbLine
62
7
6
CONTINUOUS
10
-308.4865526168
20
-231.0176481042
11
-309.9714768573
21
-231.7601102244
0
LINE
5
2B8
100
AcDbEntity
8
0
100
AcDbLine
62
7
6
CONTINUOUS
10
-308.5219079559
20
-234.3695235783
11
-309.9361215183
21
-235.0766303595
0
LINE
5
2B9
100
AcDbEntity
8
0
100
AcDbLine
62
7
6
CONTINUOUS
10
-299.2941644614
20
-231.3190705020
11
-300.7083780238
21
-232.0261772832
0
LINE
5
2BA
100
AcDbEntity
8
0
100
AcDbLine
62
7
6
CONTINUOUS
10
-310.4994036485
20
-237.5380632879
11
-309.9361215183
21
-237.2564222228
0
LINE
5
2BB
100
AcDbEntity
8
0
100
AcDbLine
62
7
6
CONTINUOUS
10
-304.2792672688
20
-235.0186007354
11
-305.6934808312
21
-235.7257075166
0
LINE
5
2BC
100
AcDbEntity
8
0
100
AcDbLine
62
7
6
CONTINUOUS
10
-293.9908636025
20
-233.9707209315
11
-295.4050771649
21
-234.6778277127
0
LINE
5
2BD
100
AcDbEntity
8
0
100
AcDbLine
62
7
6
CONTINUOUS
10
-296.5341879199
20
-241.9222293231
11
-297.9484014823
21
-242.6293361043
0
LINE
5
2BE
100
AcDbEntity
8
0
100
AcDbLine
62
7
6
CONTINUOUS
10
-290.7735277481
20
-239.1733942844
11
-292.1877413105
21
-239.8805010656
0
LINE
5
2BF
100
AcDbEntity
8
0
100
AcDbLine
62
7
6
CONTINUOUS
10
-290.7735277481
20
-241.7714704957
11
-292.1877413105
21
-242.4785772769
0
LINE
5
2C0
100
AcDbEntity
8
0
100
AcDbLine
62
7
6
CONTINUOUS
10
-289.5714462201
20
-242.3725112597
11
-290.9856597825
21
-243.0796180409
0
LINE
5
2C1
100
AcDbEntity
8
0
100
AcDbLine
62
7
6
CONTINUOUS
10
-289.5714462201
20
-248.4346890862
11
-290.9856597825
21
-249.1417958674
0
LINE
5
2C2
100
AcDbEntity
8
0
100
AcDbLine
62
7
6
CONTINUOUS
10
-353.4231885613
20
-9.6234488697
11
-343.5236936246
21
-14.5731963380
0
LINE
5
2C3
100
AcDbEntity
8
0
100
AcDbLine
62
7
6
CONTINUOUS
10
-342.4630334529
20
-14.0428662522
11
-352.3625283895
21
-9.0931187838
0
LINE
5
2C4
100
AcDbEntity
8
0
100
AcDbLine
62
7
6
CONTINUOUS
10
-340.6952664999
20
-14.5731963380
11
-341.7559266717
21
-14.0428662522
0
LINE
5
2C5
100
AcDbEntity
8
0
100
AcDbLine
62
7
6
CONTINUOUS
10
-342.1094800623
20
-13.4330768550
11
-352.0089749989
21
-8.4833293867
0
LINE
5
2C6
100
AcDbEntity
8
0
100
AcDbLine
62
7
6
CONTINUOUS
10
-352.0089749989
20
-7.1842912810
11
-342.1094800623
21
-12.1340387493
0
LINE
5
2C7
100
AcDbEntity
8
0
100
AcDbLine
62
7
6
CONTINUOUS
10
-321.7863430448
20
-361.5832810252
11
-312.0111348530
21
-353.0771023628
0
LINE
5
2C8
100
AcDbEntity
8
0
100
AcDbLine
62
7
6
CONTINUOUS
10
-323.2313215415
20
-340.0299598305
11
-317.2050755217
21
-334.7963233942
0
LINE
5
2C9
100
AcDbEntity
8
0
100
AcDbLine
62
7
6
CONTINUOUS
10
-314.8235742957
20
-332.7774953277
11
-312.0160154664
21
-330.3473218210
0
LINE
5
2CA
100
AcDbEntity
8
0
100
AcDbLine
62
7
6
CONTINUOUS
10
-316.0731804682
20
-353.3106166987
11
-326.1718079881
21
-362.0477766651
0
LINE
5
2CB
100
AcDbEntity
8
0
100
AcDbLine
62
7
6
CONTINUOUS
10
-290.7735277481
20
-250.4317245336
11
-292.1877413105
21
-251.1388313148
0
LINE
5
2CC
100
AcDbEntity
8
0
100
AcDbLine
62
7
6
CONTINUOUS
10
-293.9908636025
20
-252.4170620321
11
-295.4050771649
21
-253.1241688133
0
LINE
5
2CD
100
AcDbEntity
8
0
100
AcDbLine
62
7
6
CONTINUOUS
10
-325.2970737662
20
-99.3263379625
11
-313.1073448182
21
-99.0680999275
0
LINE
5
2CE
100
AcDbEntity
8
0
100
AcDbLine
62
7
6
CONTINUOUS
10
-313.1073448182
20
-96.6078066117
11
-322.5675992777
21
-96.7189623268
0
LINE
5
2CF
100
AcDbEntity
8
0
100
AcDbLine
62
7
6
CONTINUOUS
10
-326.1497010017
20
-387.8171822698
11
-312.0234795231
21
-374.9930436459
0
LINE
5
2D0
100
AcDbEntity
8
0
100
AcDbLine
62
7
6
CONTINUOUS
10
-315.9848967723
20
-375.1913628703
11
-326.1497010017
21
-384.1085912908
0
LINE
5
2D1
100
AcDbEntity
8
0
100
AcDbLine
62
7
6
CONTINUOUS
10
-307.4612477841
20
15.0895723264
11
-297.5617528475
21
10.1398248581
0
LINE
5
2D2
100
AcDbEntity
8
0
100
AcDbLine
62
7
6
CONTINUOUS
10
-321.7863430448
20
-350.7514665553
11
-312.0160153040
21
-345.8571591886
0
LINE
5
2D3
100
AcDbEntity
8
0
100
AcDbLine
62
7
6
CONTINUOUS
10
-319.4321165115
20
-326.5182852028
11
-323.8933760113
21
-328.7489149527
0
LINE
5
2D4
100
AcDbEntity
8
0
100
AcDbLine
62
7
6
CONTINUOUS
10
-312.0208961802
20
-322.8274432974
11
-317.1756476886
21
-325.4048190516
0
LINE
5
2D5
100
AcDbEntity
8
0
100
AcDbLine
62
7
6
CONTINUOUS
10
-326.1718080462
20
-333.4585337146
11
-312.0208961802
21
-326.3830777816
0
LINE
5
2D6
100
AcDbEntity
8
0
100
AcDbLine
62
7
6
CONTINUOUS
10
-312.0160153040
20
-342.5807148862
11
-326.1718079881
21
-349.6586112282
0
LINE
5
2D7
100
AcDbEntity
8
0
100
AcDbLine
62
7
6
CONTINUOUS
10
-326.1718079881
20
-367.0615995634
11
-312.0160153040
21
-359.9837032213
0
LINE
5
2D8
100
AcDbEntity
8
0
100
AcDbLine
62
7
6
CONTINUOUS
10
-311.9867311837
20
-361.7243751432
11
-326.1571652208
21
-368.8095921617
0
LINE
5
2D9
100
AcDbEntity
8
0
100
AcDbLine
62
7
6
CONTINUOUS
10
-326.1571652208
20
-372.3981035223
11
-311.9867311837
21
-365.3128865037
0
LINE
5
2DA
100
AcDbEntity
8
0
100
AcDbLine
62
7
6
CONTINUOUS
10
-312.0160153040
20
-356.7070839817
11
-321.7863430448
21
-361.5832810252
0
LINE
5
2DB
100
AcDbEntity
8
0
100
AcDbLine
62
7
6
CONTINUOUS
10
20.7576190300
20
180.1990057335
11
20.7576190300
21
178.8999676278
0
LINE
5
2DC
100
AcDbEntity
8
0
100
AcDbLine
62
7
6
CONTINUOUS
10
20.7576190300
20
-290.4858012234
11
20.7576190300
21
-291.7848393291
0
LINE
5
2DD
100
AcDbEntity
8
0
100
AcDbLine
62
9
6
CONTINUOUS
10
21.3434054676
20
179.4918989523
11
21.3434054676
21
178.1928608466
0
LINE
5
2DE
100
AcDbEntity
8
0
100
AcDbLine
62
9
6
CONTINUOUS
10
21.3434054676
20
-291.1929080046
11
21.3434054676
21
-292.4919461103
0
LINE
5
2DF
100
AcDbEntity
8
0
100
AcDbLine
62
7
6
CONTINUOUS
10
-312.0306580712
20
-387.3288329377
11
-318.2132306561
21
-390.4201192302
0
LINE
5
2E0
100
AcDbEntity
8
0
100
AcDbLine
62
7
6
CONTINUOUS
10
-321.4969454525
20
-392.1368739694
11
-326.1719522378
21
-394.4743773621
0
LINE
5
2E1
100
AcDbEntity
8
0
100
AcDbLine
62
7
6
CONTINUOUS
10
-318.2132306561
20
-405.5967918111
11
-312.0306580712
21
-402.5055055187
0
LINE
5
2E2
100
AcDbEntity
8
0
100
AcDbLine
62
7
6
CONTINUOUS
10
-326.1719522378
20
-409.6510499430
11
-321.4969454525
21
-407.3135465503
0
LINE
5
2E3
100
AcDbEntity
8
0
100
AcDbLine
62
7
6
CONTINUOUS
10
30.4838193712
20
-254.1649672899
11
30.4838193712
21
-253.4578605087
0
LINE
5
2E4
100
AcDbEntity
8
0
100
AcDbLine
62
7
6
CONTINUOUS
10
30.4838193712
20
145.0727438547
11
30.4838193712
21
145.7798506359
0
LINE
5
2E5
100
AcDbEntity
8
0
100
AcDbLine
62
7
6
CONTINUOUS
10
31.5964537948
20
172.6333239811
11
31.5964537948
21
-295.8864194663
0
LINE
5
2E6
100
AcDbEntity
8
0
100
AcDbLine
62
7
6
CONTINUOUS
10
32.6571139666
20
172.1029938952
11
32.6571139666
21
-296.4167495522
0
LINE
5
2E7
100
AcDbEntity
8
0
100
AcDbLine
62
7
6
CONTINUOUS
10
61.5731131977
20
196.6392383960
11
61.5731131977
21
199.0641095266
0
LINE
5
2E8
100
AcDbEntity
8
0
100
AcDbLine
62
7
6
CONTINUOUS
10
66.5731131977
20
-284.8708861081
11
66.5731131977
21
-281.3042582205
0
LINE
5
2E9
100
AcDbEntity
8
0
100
AcDbLine
62
7
6
CONTINUOUS
10
66.5731131977
20
206.1655178377
11
66.5731131977
21
198.7082793249
0
LINE
5
2EA
100
AcDbEntity
8
0
100
AcDbLine
62
7
6
CONTINUOUS
10
71.5731131977
20
-284.8708861081
11
71.5731131977
21
-281.3049639237
0
LINE
5
2EB
100
AcDbEntity
8
0
100
AcDbLine
62
7
6
CONTINUOUS
10
71.5731131977
20
206.1655178377
11
71.5731131977
21
198.7085567093
0
LINE
5
2EC
100
AcDbEntity
8
0
100
AcDbLine
62
7
6
CONTINUOUS
10
76.5731131977
20
196.6392383960
11
76.5731131977
21
199.0641095266
0
LINE
5
2ED
100
AcDbEntity
8
0
100
AcDbLine
62
7
6
CONTINUOUS
10
76.5731131977
20
-275.3446066665
11
76.5731131977
21
-277.7694777971
0
LINE
5
2EE
100
AcDbEntity
8
0
100
AcDbLine
62
9
6
CONTINUOUS
10
77.2048411814
20
194.3768575026
11
77.2048411814
21
-274.1428859448
0
LINE
5
2EF
100
AcDbEntity
8
0
100
AcDbLine
62
7
6
CONTINUOUS
10
77.7906276190
20
195.0839642838
11
77.7906276190
21
-273.4357791636
0
LINE
5
2F0
100
AcDbEntity
8
0
100
AcDbLine
62
7
6
CONTINUOUS
10
21.3434054676
20
-289.7786944422
11
31.5964537948
21
-284.6521702786
0
LINE
5
2F1
100
AcDbEntity
8
DEFAULT_3
100
AcDbLine
62
8
6
PHANTOM
10
-296.1475392851
20
-456.2943143911
11
31.5964537948
21
-292.4223178511
0
LINE
5
2F2
100
AcDbEntity
8
DEFAULT_3
100
AcDbLine
62
8
6
PHANTOM
10
-296.1475392851
20
-456.4532330137
11
31.5964537948
21
-292.5812364737
0
LINE
5
2F3
100
AcDbEntity
8
0
100
AcDbLine
62
9
6
CONTINUOUS
10
31.2429004042
20
-296.1426554729
11
31.4155577344
21
-296.0563268078
0
LINE
5
2F4
100
AcDbEntity
8
0
100
AcDbLine
62
9
6
CONTINUOUS
10
77.2048411814
20
-274.1428859448
11
32.6571139666
21
-296.4167495522
0
LINE
5
2F5
100
AcDbEntity
8
0
100
AcDbLine
62
9
6
CONTINUOUS
10
-296.1475392851
20
-460.8190761780
11
-340.6952664999
21
-483.0929397854
0
LINE
5
2F6
100
AcDbEntity
8
0
100
AcDbLine
62
7
6
CONTINUOUS
10
76.6850548100
20
-275.2246335456
11
32.1373275952
21
-297.4984971530
0
LINE
5
2F7
100
AcDbEntity
8
0
100
AcDbLine
62
7
6
CONTINUOUS
10
-296.6673256565
20
-461.9008237789
11
-341.2150528713
21
-484.1746873862
0
LINE
5
2F8
100
AcDbEntity
8
0
100
AcDbLine
62
7
6
CONTINUOUS
10
70.4611573853
20
-286.0544541599
11
71.1143546500
21
-285.5925739446
0
LINE
5
2F9
100
AcDbEntity
8
0
100
AcDbLine
62
7
6
CONTINUOUS
10
31.5964537948
20
144.5164266429
11
30.4838193712
21
145.0727438547
0
LINE
5
2FA
100
AcDbEntity
8
0
100
AcDbLine
62
7
6
CONTINUOUS
10
30.4923290340
20
145.7968699617
11
30.2548130083
21
145.9156279745
0
LINE
5
2FB
100
AcDbEntity
8
0
100
AcDbLine
62
7
6
CONTINUOUS
10
31.2429004042
20
173.2431133783
11
21.3434054676
21
178.1928608466
0
LINE
5
2FC
100
AcDbEntity
8
0
100
AcDbLine
62
7
6
CONTINUOUS
10
21.3434054676
20
179.4918989523
11
31.2429004042
21
174.5421514840
0
LINE
5
2FD
100
AcDbEntity
8
0
100
AcDbLine
62
7
6
CONTINUOUS
10
76.6058491007
20
196.0905671053
11
77.2048411814
21
195.7910710650
0
LINE
5
2FE
100
AcDbEntity
8
0
100
AcDbLine
62
7
6
CONTINUOUS
10
70.4611573853
20
207.3490858895
11
71.1143546500
21
206.8872056742
0
SPLINE
5
2FF
100
AcDbEntity
8
0
100
AcDbSpline
62
7
6
CONTINUOUS
70
0
71
3
72
13
73
9
74
7
42
0.0000001000
43
0.0000001000
44
0.0000000001
12
0.0000000000
22
3.8350899536
32
0.0000000000
13
2.0268558855
23
3.2571953911
33
0.0000000000
40
0.0000000000
40
0.0000000000
40
0.0000000000
40
0.0000000000
40
0.1581392036
40
0.3239317453
40
0.4956759678
40
0.6713802388
40
0.8488723156
40
1.0000000000
40
1.0000000000
40
1.0000000000
40
1.0000000000
10
30.4838193712
20
-253.4578605087
30
0.0000000000
10
30.4838193712
20
-253.2557011517
30
0.0000000000
10
30.5085320219
20
-252.8413318620
30
0.0000000000
10
30.6120143364
20
-252.2151953659
30
0.0000000000
10
30.7807644021
20
-251.5801597790
30
0.0000000000
10
31.0113812974
20
-250.9490308742
30
0.0000000000
10
31.2851722657
20
-250.3644426073
30
0.0000000000
10
31.4936428047
20
-249.9992292645
30
0.0000000000
10
31.5957474836
20
-249.8351451322
30
0.0000000000
11
30.4838193712
21
-253.4578605087
31
0.0000000000
11
30.5181758332
21
-252.8523563516
31
0.0000000000
11
30.6205458209
21
-252.2248220510
31
0.0000000000
11
30.7888453764
21
-251.5880323955
31
0.0000000000
11
31.0196484061
21
-250.9549505862
31
0.0000000000
11
31.3082564260
21
-250.3384643431
31
0.0000000000
11
31.5957474836
21
-249.8351451322
31
0.0000000000
0
SPLINE
5
300
100
AcDbEntity
8
0
100
AcDbSpline
62
7
6
CONTINUOUS
70
0
71
3
72
15
73
11
74
9
42
0.0000001000
43
0.0000001000
44
0.0000000001
12
-1.6222826825
22
1.9889722638
32
0.0000000000
13
-0.0000000000
23
2.5665175100
33
0.0000000000
40
0.0000000000
40
0.0000000000
40
0.0000000000
40
0.0000000000
40
0.1036544851
40
0.2726674161
40
0.4240567277
40
0.5598297850
40
0.6821468928
40
0.7937948610
40
0.8982910305
40
1.0000000000
40
1.0000000000
40
1.0000000000
40
1.0000000000
10
31.5962890655
20
-256.4263872026
30
0.0000000000
10
31.5402367735
20
-256.3576652373
30
0.0000000000
10
31.3946649780
20
-256.1753616727
30
0.0000000000
10
31.1775204418
20
-255.8845726418
30
0.0000000000
10
30.9609393341
20
-255.5596487908
30
0.0000000000
10
30.7864117568
20
-255.2555358549
30
0.0000000000
10
30.6520330733
20
-254.9687057296
30
0.0000000000
10
30.5560614662
20
-254.6948839354
30
0.0000000000
10
30.4974326875
20
-254.4286244054
30
0.0000000000
10
30.4838193712
20
-254.2519799070
30
0.0000000000
10
30.4838193712
20
-254.1649672899
30
0.0000000000
11
31.5962890655
21
-256.4263872026
31
0.0000000000
11
31.4304181996
21
-256.2183845598
31
0.0000000000
11
31.1718204766
21
-255.8701207778
31
0.0000000000
11
30.9574005681
21
-255.5460991527
31
0.0000000000
11
30.7851603677
21
-255.2431793230
31
0.0000000000
11
30.6532642229
21
-254.9583024666
31
0.0000000000
11
30.5597487762
21
-254.6874450538
31
0.0000000000
11
30.5031901777
21
-254.4252854253
31
0.0000000000
11
30.4838193712
21
-254.1649672899
31
0.0000000000
0
SPLINE
5
301
100
AcDbEntity
8
0
100
AcDbSpline
62
7
6
CONTINUOUS
70
0
71
3
72
8
73
4
74
2
42
0.0000001000
43
0.0000001000
44
0.0000000001
12
0.0000000000
22
0.6882998543
32
0.0000000000
13
0.0403264304
23
0.6872535657
33
0.0000000000
40
0.0000000000
40
0.0000000000
40
0.0000000000
40
0.0000000000
40
1.0000000000
40
1.0000000000
40
1.0000000000
40
1.0000000000
10
30.4838193712
20
-254.1649672899
30
0.0000000000
10
30.4838193712
20
-253.9355340052
30
0.0000000000
10
30.4897508713
20
-253.7060246675
30
0.0000000000
10
30.5031930148
20
-253.4769401456
30
0.0000000000
11
30.4838193712
21
-254.1649672899
31
0.0000000000
11
30.5031930148
21
-253.4769401456
31
0.0000000000
0
SPLINE
5
302
100
AcDbEntity
8
0
100
AcDbSpline
62
7
6
CONTINUOUS
70
0
71
3
72
8
73
4
74
2
42
0.0000001000
43
0.0000001000
44
0.0000000001
12
0.0010370535
22
0.0176737366
32
0.0000000000
13
0.0010669463
23
0.0176720128
33
0.0000000000
40
0.0000000000
40
0.0000000000
40
0.0000000000
40
0.0000000000
40
1.0000000000
40
1.0000000000
40
1.0000000000
40
1.0000000000
10
30.5031930148
20
-253.4769401456
30
0.0000000000
10
30.5035386993
20
-253.4710489000
30
0.0000000000
10
30.5038893509
20
-253.4651579354
30
0.0000000000
10
30.5042449996
20
-253.4592672645
30
0.0000000000
11
30.5031930148
21
-253.4769401456
31
0.0000000000
11
30.5042449996
21
-253.4592672645
31
0.0000000000
0
SPLINE
5
303
100
AcDbEntity
8
0
100
AcDbSpline
62
7
6
CONTINUOUS
70
0
71
3
72
14
73
10
74
8
42
0.0000001000
43
0.0000001000
44
0.0000000001
12
0.2227241590
22
3.6890181300
32
0.0000000000
13
2.0301873525
23
3.0884928604
33
0.0000000000
40
0.0000000000
40
0.0000000000
40
0.0000000000
40
0.0000000000
40
0.1644880653
40
0.3227456111
40
0.4741193142
40
0.6216994345
40
0.7680094445
40
0.9155948140
40
1.0000000000
40
1.0000000000
40
1.0000000000
40
1.0000000000
10
30.5042449996
20
-253.4592672645
30
0.0000000000
10
30.5164568216
20
-253.2570007794
30
0.0000000000
10
30.5519782515
20
-252.8608086694
30
0.0000000000
10
30.6443806538
20
-252.2836658683
30
0.0000000000
10
30.7765637007
20
-251.7356339089
30
0.0000000000
10
30.9496363116
20
-251.2145309527
30
0.0000000000
10
31.1656266706
20
-250.7147624207
30
0.0000000000
10
31.3871963603
20
-250.3042333400
30
0.0000000000
10
31.5389231800
20
-250.0619399818
30
0.0000000000
10
31.5960426270
20
-249.9750450437
30
0.0000000000
11
30.5042449996
21
-253.4592672645
31
0.0000000000
11
30.5597756448
21
-252.8540215161
31
0.0000000000
11
30.6533430759
21
-252.2767951027
31
0.0000000000
11
30.7852937304
21
-251.7332571320
31
0.0000000000
11
30.9575816384
21
-251.2158815986
31
0.0000000000
11
31.1720279561
21
-250.7196185098
31
0.0000000000
11
31.4306157353
21
-250.2394996914
31
0.0000000000
11
31.5960426270
21
-249.9750450437
31
0.0000000000
0
SPLINE
5
304
100
AcDbEntity
8
0
100
AcDbSpline
62
7
6
CONTINUOUS
70
0
71
3
72
26
73
22
74
20
42
0.0000001000
43
0.0000001000
44
0.0000000001
12
12.4603809719
22
-3.7790197219
32
0.0000000000
13
-0.0043092175
23
13.0471745113
33
0.0000000000
40
0.0000000000
40
0.0000000000
40
0.0000000000
40
0.0000000000
40
0.0572384065
40
0.1207173582
40
0.1860086427
40
0.2524747474
40
0.3194494158
40
0.3862542265
40
0.4522148031
40
0.5166771450
40
0.5790245958
40
0.6386961056
40
0.6952067191
40
0.7481716478
40
0.7973358411
40
0.8426114224
40
0.8841248265
40
0.9222715671
40
0.9577648014
40
0.9916422954
40
1.0000000000
40
1.0000000000
40
1.0000000000
40
1.0000000000
10
65.1835650220
20
-280.9757768445
30
0.0000000000
10
65.4213024725
20
-281.0478785335
30
0.0000000000
10
65.9279558789
20
-281.1825278886
30
0.0000000000
10
66.7203722680
20
-281.3390453791
30
0.0000000000
10
67.5606844364
20
-281.4510278235
30
0.0000000000
10
68.4212848166
20
-281.5137340134
30
0.0000000000
10
69.2906328000
20
-281.5263178599
30
0.0000000000
10
70.1570614976
20
-281.4886090055
30
0.0000000000
10
71.0089459974
20
-281.4011171391
30
0.0000000000
10
71.8348672541
20
-281.2650229831
30
0.0000000000
10
72.6237750879
20
-281.0821577416
30
0.0000000000
10
73.3651470752
20
-280.8549688143
30
0.0000000000
10
74.0491409122
20
-280.5864688341
30
0.0000000000
10
74.6667345569
20
-280.2801625656
30
0.0000000000
10
75.2098410589
20
-279.9399440531
30
0.0000000000
10
75.6713676866
20
-279.5699596187
30
0.0000000000
10
76.0451585927
20
-279.1744596393
30
0.0000000000
10
76.3257467174
20
-278.7577570580
30
0.0000000000
10
76.5079885285
20
-278.3245835109
30
0.0000000000
10
76.5678231414
20
-277.9895899326
30
0.0000000000
10
76.5730925991
20
-277.8059183247
30
0.0000000000
10
76.5730805941
20
-277.7695701815
30
0.0000000000
11
65.1835650220
21
-280.9757768445
31
0.0000000000
11
65.9034762347
21
-281.1681319985
31
0.0000000000
11
66.7140275266
21
-281.3291377105
31
0.0000000000
11
67.5564814052
21
-281.4420051287
31
0.0000000000
11
68.4194451271
21
-281.5052079149
31
0.0000000000
11
69.2912485883
21
-281.5178913599
31
0.0000000000
11
70.1601021425
21
-281.4798839418
31
0.0000000000
11
71.0142560360
21
-281.3916996457
31
0.0000000000
11
71.8421593026
21
-281.2545310129
31
0.0000000000
11
72.6326159708
21
-281.0702330140
31
0.0000000000
11
73.3749364703
21
-280.8412979632
31
0.0000000000
11
74.0590821898
21
-280.5708218142
31
0.0000000000
11
74.6758012320
21
-280.2624622931
31
0.0000000000
11
75.2167535299
21
-279.9203894334
31
0.0000000000
11
75.6746236316
21
-279.5492291836
31
0.0000000000
11
76.0432196294
21
-279.1540008495
31
0.0000000000
11
76.3175568949
21
-278.7400492162
31
0.0000000000
11
76.4939254871
21
-278.3129722695
31
0.0000000000
11
76.5699403233
21
-277.8785454924
31
0.0000000000
11
76.5730805941
21
-277.7695701815
31
0.0000000000
0
SPLINE
5
305
100
AcDbEntity
8
0
100
AcDbSpline
62
7
6
CONTINUOUS
70
0
71
3
72
8
73
4
74
2
42
0.0000001000
43
0.0000001000
44
0.0000000001
12
-0.0000208623
22
0.0631656288
32
0.0000000000
13
-0.0021373624
23
0.0631340569
33
0.0000000000
40
0.0000000000
40
0.0000000000
40
0.0000000000
40
0.0000000000
40
1.0000000000
40
1.0000000000
40
1.0000000000
40
1.0000000000
10
76.5730805941
20
-275.3446990509
30
0.0000000000
10
76.5730736399
20
-275.3236438413
30
0.0000000000
10
76.5727127663
20
-275.3025878529
30
0.0000000000
10
76.5720003122
20
-275.2815431673
30
0.0000000000
11
76.5730805941
21
-275.3446990509
31
0.0000000000
11
76.5720003122
21
-275.2815431673
31
0.0000000000
0
SPLINE
5
306
100
AcDbEntity
8
0
100
AcDbSpline
62
7
6
CONTINUOUS
70
0
71
3
72
22
73
18
74
16
42
0.0000001000
43
0.0000001000
44
0.0000000001
12
9.2047452187
22
-0.0773173501
32
0.0000000000
13
-0.0030465654
23
9.2241967627
33
0.0000000000
40
0.0000000000
40
0.0000000000
40
0.0000000000
40
0.0000000000
40
0.0373945327
40
0.1318866653
40
0.2251846700
40
0.3163634953
40
0.4045509106
40
0.4889533384
40
0.5688848332
40
0.6438011305
40
0.7133414739
40
0.7773815661
40
0.8361002428
40
0.8900569388
40
0.9402603802
40
0.9881784363
40
1.0000000000
40
1.0000000000
40
1.0000000000
40
1.0000000000
10
68.9470380447
20
-279.0940799963
30
0.0000000000
10
69.0617737599
20
-279.0950437450
30
0.0000000000
10
69.4664742247
20
-279.0937937295
30
0.0000000000
10
70.1570614976
20
-279.0637378749
30
0.0000000000
10
71.0089459974
20
-278.9762460085
30
0.0000000000
10
71.8348672541
20
-278.8401518525
30
0.0000000000
10
72.6237750879
20
-278.6572866110
30
0.0000000000
10
73.3651470752
20
-278.4300976837
30
0.0000000000
10
74.0491409122
20
-278.1615977035
30
0.0000000000
10
74.6667345569
20
-277.8552914350
30
0.0000000000
10
75.2098410589
20
-277.5150729225
30
0.0000000000
10
75.6713676866
20
-277.1450884881
30
0.0000000000
10
76.0451585927
20
-276.7495885087
30
0.0000000000
10
76.3257467174
20
-276.3328859274
30
0.0000000000
10
76.5079885285
20
-275.8997123803
30
0.0000000000
10
76.5678231414
20
-275.5647188020
30
0.0000000000
10
76.5730925991
20
-275.3810471941
30
0.0000000000
10
76.5730805941
20
-275.3446990509
30
0.0000000000
11
68.9470380447
21
-279.0940799963
31
0.0000000000
11
69.2912485883
21
-279.0930202293
31
0.0000000000
11
70.1601021425
21
-279.0550128112
31
0.0000000000
11
71.0142560360
21
-278.9668285151
31
0.0000000000
11
71.8421593026
21
-278.8296598823
31
0.0000000000
11
72.6326159708
21
-278.6453618834
31
0.0000000000
11
73.3749364703
21
-278.4164268326
31
0.0000000000
11
74.0590821898
21
-278.1459506836
31
0.0000000000
11
74.6758012320
21
-277.8375911625
31
0.0000000000
11
75.2167535299
21
-277.4955183028
31
0.0000000000
11
75.6746236316
21
-277.1243580530
31
0.0000000000
11
76.0432196294
21
-276.7291297189
31
0.0000000000
11
76.3175568949
21
-276.3151780856
31
0.0000000000
11
76.4939254871
21
-275.8881011389
31
0.0000000000
11
76.5699403233
21
-275.4536743618
31
0.0000000000
11
76.5730805941
21
-275.3446990509
31
0.0000000000
0
SPLINE
5
307
100
AcDbEntity
8
0
100
AcDbSpline
62
7
6
CONTINUOUS
70
0
71
3
72
13
73
9
74
7
42
0.0000001000
43
0.0000001000
44
0.0000000001
12
0.0000000000
22
3.8350899536
32
0.0000000000
13
2.0268558855
23
3.2571953911
33
0.0000000000
40
0.0000000000
40
0.0000000000
40
0.0000000000
40
0.0000000000
40
0.1581392036
40
0.3239317453
40
0.4956759678
40
0.6713802388
40
0.8488723156
40
1.0000000000
40
1.0000000000
40
1.0000000000
40
1.0000000000
10
30.4838193712
20
145.7798506359
30
0.0000000000
10
30.4838193712
20
145.9820099929
30
0.0000000000
10
30.5085320219
20
146.3963792826
30
0.0000000000
10
30.6120143364
20
147.0225157787
30
0.0000000000
10
30.7807644021
20
147.6575513656
30
0.0000000000
10
31.0113812974
20
148.2886802705
30
0.0000000000
10
31.2851722657
20
148.8732685373
30
0.0000000000
10
31.4936428047
20
149.2384818801
30
0.0000000000
10
31.5957474836
20
149.4025660125
30
0.0000000000
11
30.4838193712
21
145.7798506359
31
0.0000000000
11
30.5181758332
21
146.3853547930
31
0.0000000000
11
30.6205458209
21
147.0128890936
31
0.0000000000
11
30.7888453764
21
147.6496787491
31
0.0000000000
11
31.0196484061
21
148.2827605584
31
0.0000000000
11
31.3082564260
21
148.8992468015
31
0.0000000000
11
31.5957474836
21
149.4025660125
31
0.0000000000
0
SPLINE
5
308
100
AcDbEntity
8
0
100
AcDbSpline
62
7
6
CONTINUOUS
70
0
71
3
72
15
73
11
74
9
42
0.0000001000
43
0.0000001000
44
0.0000000001
12
-1.6222826825
22
1.9889722638
32
0.0000000000
13
-0.0000000000
23
2.5665175100
33
0.0000000000
40
0.0000000000
40
0.0000000000
40
0.0000000000
40
0.0000000000
40
0.1036544851
40
0.2726674161
40
0.4240567277
40
0.5598297850
40
0.6821468928
40
0.7937948610
40
0.8982910305
40
1.0000000000
40
1.0000000000
40
1.0000000000
40
1.0000000000
10
31.5962890655
20
142.8113239420
30
0.0000000000
10
31.5402367735
20
142.8800459073
30
0.0000000000
10
31.3946649780
20
143.0623494719
30
0.0000000000
10
31.1775204418
20
143.3531385028
30
0.0000000000
10
30.9609393341
20
143.6780623538
30
0.0000000000
10
30.7864117568
20
143.9821752898
30
0.0000000000
10
30.6520330733
20
144.2690054151
30
0.0000000000
10
30.5560614662
20
144.5428272092
30
0.0000000000
10
30.4974326875
20
144.8090867392
30
0.0000000000
10
30.4838193712
20
144.9857312376
30
0.0000000000
10
30.4838193712
20
145.0727438547
30
0.0000000000
11
31.5962890655
21
142.8113239420
31
0.0000000000
11
31.4304181996
21
143.0193265849
31
0.0000000000
11
31.1718204766
21
143.3675903668
31
0.0000000000
11
30.9574005681
21
143.6916119919
31
0.0000000000
11
30.7851603677
21
143.9945318217
31
0.0000000000
11
30.6532642229
21
144.2794086781
31
0.0000000000
11
30.5597487762
21
144.5502660908
31
0.0000000000
11
30.5031901777
21
144.8124257193
31
0.0000000000
11
30.4838193712
21
145.0727438547
31
0.0000000000
0
SPLINE
5
309
100
AcDbEntity
8
0
100
AcDbSpline
62
7
6
CONTINUOUS
70
0
71
3
72
8
73
4
74
2
42
0.0000001000
43
0.0000001000
44
0.0000000001
12
0.0000000000
22
0.6882998543
32
0.0000000000
13
0.0403264304
23
0.6872535657
33
0.0000000000
40
0.0000000000
40
0.0000000000
40
0.0000000000
40
0.0000000000
40
1.0000000000
40
1.0000000000
40
1.0000000000
40
1.0000000000
10
30.4838193712
20
145.0727438547
30
0.0000000000
10
30.4838193712
20
145.3021771395
30
0.0000000000
10
30.4897508713
20
145.5316864772
30
0.0000000000
10
30.5031930148
20
145.7607709991
30
0.0000000000
11
30.4838193712
21
145.0727438547
31
0.0000000000
11
30.5031930148
21
145.7607709991
31
0.0000000000
0
SPLINE
5
30A
100
AcDbEntity
8
0
100
AcDbSpline
62
7
6
CONTINUOUS
70
0
71
3
72
8
73
4
74
2
42
0.0000001000
43
0.0000001000
44
0.0000000001
12
0.0010370535
22
0.0176737366
32
0.0000000000
13
0.0010669463
23
0.0176720128
33
0.0000000000
40
0.0000000000
40
0.0000000000
40
0.0000000000
40
0.0000000000
40
1.0000000000
40
1.0000000000
40
1.0000000000
40
1.0000000000
10
30.5031930148
20
145.7607709991
30
0.0000000000
10
30.5035386993
20
145.7666622446
30
0.0000000000
10
30.5038893509
20
145.7725532092
30
0.0000000000
10
30.5042449996
20
145.7784438801
30
0.0000000000
11
30.5031930148
21
145.7607709991
31
0.0000000000
11
30.5042449996
21
145.7784438801
31
0.0000000000
0
SPLINE
5
30B
100
AcDbEntity
8
0
100
AcDbSpline
62
7
6
CONTINUOUS
70
0
71
3
72
14
73
10
74
8
42
0.0000001000
43
0.0000001000
44
0.0000000001
12
0.2227241590
22
3.6890181300
32
0.0000000000
13
2.0301873525
23
3.0884928604
33
0.0000000000
40
0.0000000000
40
0.0000000000
40
0.0000000000
40
0.0000000000
40
0.1644880653
40
0.3227456111
40
0.4741193142
40
0.6216994345
40
0.7680094445
40
0.9155948140
40
1.0000000000
40
1.0000000000
40
1.0000000000
40
1.0000000000
10
30.5042449996
20
145.7784438801
30
0.0000000000
10
30.5164568216
20
145.9807103652
30
0.0000000000
10
30.5519782515
20
146.3769024752
30
0.0000000000
10
30.6443806538
20
146.9540452763
30
0.0000000000
10
30.7765637007
20
147.5020772357
30
0.0000000000
10
30.9496363116
20
148.0231801919
30
0.0000000000
10
31.1656266706
20
148.5229487239
30
0.0000000000
10
31.3871963603
20
148.9334778046
30
0.0000000000
10
31.5389231800
20
149.1757711628
30
0.0000000000
10
31.5960426270
20
149.2626661010
30
0.0000000000
11
30.5042449996
21
145.7784438801
31
0.0000000000
11
30.5597756448
21
146.3836896285
31
0.0000000000
11
30.6533430759
21
146.9609160419
31
0.0000000000
11
30.7852937304
21
147.5044540126
31
0.0000000000
11
30.9575816384
21
148.0218295460
31
0.0000000000
11
31.1720279561
21
148.5180926348
31
0.0000000000
11
31.4306157353
21
148.9982114532
31
0.0000000000
11
31.5960426270
21
149.2626661010
31
0.0000000000
0
SPLINE
5
30C
100
AcDbEntity
8
0
100
AcDbSpline
62
7
6
CONTINUOUS
70
0
71
3
72
11
73
7
74
5
42
0.0000001000
43
0.0000001000
44
0.0000000001
12
-2.6372161335
22
1.3186080667
32
0.0000000000
13
-2.9039928971
23
0.5133255146
33
0.0000000000
40
0.0000000000
40
0.0000000000
40
0.0000000000
40
0.0000000000
40
0.2418597775
40
0.4985878578
40
0.7682496076
40
1.0000000000
40
1.0000000000
40
1.0000000000
40
1.0000000000
10
74.3764140566
20
201.7157599561
30
0.0000000000
10
74.1638018875
20
201.8220660406
30
0.0000000000
10
73.7148607922
20
202.0203245514
30
0.0000000000
10
73.0010474831
20
202.2685542861
30
0.0000000000
10
72.2807199565
20
202.4615768510
30
0.0000000000
10
71.7975765480
20
202.5599682047
30
0.0000000000
10
71.5732427169
20
202.5996226678
30
0.0000000000
11
74.3764140566
21
201.7157599561
31
0.0000000000
11
73.7248793822
21
202.0056682701
31
0.0000000000
11
73.0104375502
21
202.2557970483
31
0.0000000000
11
72.2427501608
21
202.4627637280
31
0.0000000000
11
71.5732427169
21
202.5996226678
31
0.0000000000
0
SPLINE
5
30D
100
AcDbEntity
8
0
100
AcDbSpline
62
7
6
CONTINUOUS
70
0
71
3
72
14
73
10
74
8
42
0.0000001000
43
0.0000001000
44
0.0000000001
12
-4.0669324460
22
-0.7190057213
32
0.0000000000
13
-3.2640265755
23
-2.5340523334
33
0.0000000000
40
0.0000000000
40
0.0000000000
40
0.0000000000
40
0.0000000000
40
0.0662799359
40
0.2628386403
40
0.4509610815
40
0.6291183730
40
0.7960974174
40
0.9510941338
40
1.0000000000
40
1.0000000000
40
1.0000000000
40
1.0000000000
10
66.5731043693
20
202.5996455896
30
0.0000000000
10
66.4832523620
20
202.5837603719
30
0.0000000000
10
66.1275921401
20
202.5170583590
30
0.0000000000
10
65.5224513075
20
202.3767894711
30
0.0000000000
10
64.7810793202
20
202.1496005439
30
0.0000000000
10
64.0970854833
20
201.8811005637
30
0.0000000000
10
63.4794918385
20
201.5747942952
30
0.0000000000
10
63.0460454378
20
201.3032702218
30
0.0000000000
10
62.8205785534
20
201.1356832361
30
0.0000000000
10
62.7673685377
20
201.0943732280
30
0.0000000000
11
66.5731043693
21
202.5996455896
31
0.0000000000
11
66.3040670929
21
202.5491627425
31
0.0000000000
11
65.5136104246
21
202.3648647436
31
0.0000000000
11
64.7712899251
21
202.1359296927
31
0.0000000000
11
64.0871442056
21
201.8654535438
31
0.0000000000
11
63.4704251634
21
201.5570940227
31
0.0000000000
11
62.9294728655
21
201.2150211630
31
0.0000000000
11
62.7673685377
21
201.0943732280
31
0.0000000000
0
SPLINE
5
30E
100
AcDbEntity
8
0
100
AcDbSpline
62
7
6
CONTINUOUS
70
0
71
3
72
13
73
9
74
7
42
0.0000001000
43
0.0000001000
44
0.0000000001
12
-1.9258412471
22
-1.4951417806
32
0.0000000000
13
0.0008064763
23
-2.4417977525
33
0.0000000000
40
0.0000000000
40
0.0000000000
40
0.0000000000
40
0.0000000000
40
0.1590309904
40
0.3808481442
40
0.5846763198
40
0.7743261060
40
0.9553425628
40
1.0000000000
40
1.0000000000
40
1.0000000000
40
1.0000000000
10
62.7673685377
20
201.0943732280
30
0.0000000000
10
62.6652790574
20
201.0151152686
30
0.0000000000
10
62.4284467965
20
200.8154839194
30
0.0000000000
10
62.1010678027
20
200.4690913689
30
0.0000000000
10
61.8204796780
20
200.0523887875
30
0.0000000000
10
61.6382378669
20
199.6192152404
30
0.0000000000
10
61.5784032540
20
199.2842216621
30
0.0000000000
10
61.5731337963
20
199.1005500543
30
0.0000000000
10
61.5731458014
20
199.0642019110
30
0.0000000000
11
62.7673685377
21
201.0943732280
31
0.0000000000
11
62.4716027639
21
200.8438609132
31
0.0000000000
11
62.1030067660
21
200.4486325791
31
0.0000000000
11
61.8286695005
21
200.0346809458
31
0.0000000000
11
61.6523009084
21
199.6076039990
31
0.0000000000
11
61.5762860721
21
199.1731772219
31
0.0000000000
11
61.5731458014
21
199.0642019110
31
0.0000000000
0
SPLINE
5
30F
100
AcDbEntity
8
0
100
AcDbSpline
62
7
6
CONTINUOUS
70
0
71
3
72
9
73
5
74
3
42
0.0000001000
43
0.0000001000
44
0.0000000001
12
0.0001459817
22
-0.4419939486
32
0.0000000000
13
-0.1010880197
23
-0.4302856841
33
0.0000000000
40
0.0000000000
40
0.0000000000
40
0.0000000000
40
0.0000000000
40
0.2467102324
40
1.0000000000
40
1.0000000000
40
1.0000000000
40
1.0000000000
10
76.5730805941
20
196.6391460116
30
0.0000000000
10
76.5730925991
20
196.6027978684
30
0.0000000000
10
76.5688659983
20
196.4554759590
30
0.0000000000
10
76.5471126089
20
196.3092133837
30
0.0000000000
10
76.5217297519
20
196.2011701161
30
0.0000000000
11
76.5730805941
21
196.6391460116
31
0.0000000000
11
76.5699403233
21
196.5301707008
31
0.0000000000
11
76.5217297519
21
196.2011701161
31
0.0000000000
0
SPLINE
5
310
100
AcDbEntity
8
0
100
AcDbSpline
62
7
6
CONTINUOUS
70
0
71
3
72
27
73
23
74
21
42
0.0000001000
43
0.0000001000
44
0.0000000001
12
-3.2313362157
22
-13.7543273432
32
0.0000000000
13
-12.6090183705
23
6.3045091853
33
0.0000000000
40
0.0000000000
40
0.0000000000
40
0.0000000000
40
0.0000000000
40
0.0077188218
40
0.0404953738
40
0.0757223304
40
0.1140582632
40
0.1558684131
40
0.2012695373
40
0.2501804853
40
0.3023657284
40
0.3574699301
40
0.4150452540
40
0.4745735935
40
0.5354854915
40
0.5971770052
40
0.6590253756
40
0.7204041082
40
0.7806979422
40
0.8393181610
40
0.8957187702
40
0.9494142614
40
1.0000000000
40
1.0000000000
40
1.0000000000
40
1.0000000000
10
76.5217297519
20
196.2011701161
30
0.0000000000
10
76.5134157158
20
196.1657810488
30
0.0000000000
10
76.4647340668
20
195.9813204436
30
0.0000000000
10
76.3257467174
20
195.6509591351
30
0.0000000000
10
76.0451585927
20
195.2342565538
30
0.0000000000
10
75.6713676866
20
194.8387565744
30
0.0000000000
10
75.2098410589
20
194.4687721400
30
0.0000000000
10
74.6667345569
20
194.1285536275
30
0.0000000000
10
74.0491409122
20
193.8222473590
30
0.0000000000
10
73.3651470752
20
193.5537473788
30
0.0000000000
10
72.6237750879
20
193.3265584515
30
0.0000000000
10
71.8348672541
20
193.1436932100
30
0.0000000000
10
71.0089459974
20
193.0075990540
30
0.0000000000
10
70.1570614976
20
192.9201071876
30
0.0000000000
10
69.2906328000
20
192.8823983332
30
0.0000000000
10
68.4212848166
20
192.8949821797
30
0.0000000000
10
67.5606844364
20
192.9576883696
30
0.0000000000
10
66.7203722680
20
193.0696708140
30
0.0000000000
10
65.9116100111
20
193.2294169280
30
0.0000000000
10
65.1451789123
20
193.4347936366
30
0.0000000000
10
64.4313656032
20
193.6830233713
30
0.0000000000
10
63.9824245079
20
193.8812818821
30
0.0000000000
10
63.7698123388
20
193.9875879666
30
0.0000000000
11
76.5217297519
21
196.2011701161
31
0.0000000000
11
76.4939254871
21
196.0957439236
31
0.0000000000
11
76.3175568949
21
195.6686669769
31
0.0000000000
11
76.0432196294
21
195.2547153436
31
0.0000000000
11
75.6746236316
21
194.8594870095
31
0.0000000000
11
75.2167535299
21
194.4883267597
31
0.0000000000
11
74.6758012320
21
194.1462539000
31
0.0000000000
11
74.0590821898
21
193.8378943789
31
0.0000000000
11
73.3749364703
21
193.5674182300
31
0.0000000000
11
72.6326159708
21
193.3384831791
31
0.0000000000
11
71.8421593026
21
193.1541851802
31
0.0000000000
11
71.0142560360
21
193.0170165475
31
0.0000000000
11
70.1601021425
21
192.9288322514
31
0.0000000000
11
69.2912485883
21
192.8908248332
31
0.0000000000
11
68.4194451271
21
192.9035082782
31
0.0000000000
11
67.5564814052
21
192.9667110644
31
0.0000000000
11
66.7140275266
21
193.0795784826
31
0.0000000000
11
65.9034762347
21
193.2405841947
31
0.0000000000
11
65.1357888452
21
193.4475508744
31
0.0000000000
11
64.4213470132
21
193.6976796526
31
0.0000000000
11
63.7698123388
21
193.9875879666
31
0.0000000000
0
SPLINE
5
311
100
AcDbEntity
8
0
100
AcDbSpline
62
7
6
CONTINUOUS
70
0
71
3
72
14
73
10
74
8
42
0.0000001000
43
0.0000001000
44
0.0000000001
12
3.2353829529
22
-1.6176914764
32
0.0000000000
13
0.0011973611
23
-3.6252937129
33
0.0000000000
40
0.0000000000
40
0.0000000000
40
0.0000000000
40
0.0000000000
40
0.1838584119
40
0.3537951558
40
0.5098562077
40
0.6529556164
40
0.7850718775
40
0.9093691237
40
1.0000000000
40
1.0000000000
40
1.0000000000
40
1.0000000000
10
74.3764140566
20
201.7157599561
30
0.0000000000
10
74.5746981805
20
201.6166178941
30
0.0000000000
10
74.9480979472
20
201.4086538621
30
0.0000000000
10
75.4511990248
20
201.0530431662
30
0.0000000000
10
75.8695853773
20
200.6697631371
30
0.0000000000
10
76.1974281434
20
200.2631133289
30
0.0000000000
10
76.4294745481
20
199.8375249582
30
0.0000000000
10
76.5502496041
20
199.4333141481
30
0.0000000000
10
76.5730444214
20
199.1735383243
30
0.0000000000
10
76.5730805941
20
199.0640171422
30
0.0000000000
11
74.3764140566
21
201.7157599561
31
0.0000000000
11
74.9562306846
21
201.3899926189
31
0.0000000000
11
75.4564882410
21
201.0327717029
31
0.0000000000
11
75.8704216005
21
200.6489280082
31
0.0000000000
11
76.1924330245
21
200.2436523622
31
0.0000000000
11
76.4181678610
21
199.8224254229
31
0.0000000000
11
76.5445734334
21
199.3909435619
31
0.0000000000
11
76.5730805941
21
199.0640171422
31
0.0000000000
0
SPLINE
5
312
100
AcDbEntity
8
0
100
AcDbSpline
62
7
6
CONTINUOUS
70
0
71
3
72
10
73
6
74
4
42
0.0000001000
43
0.0000001000
44
0.0000000001
12
0.0004259631
22
-0.3738637456
32
0.0000000000
13
-0.1847506574
23
-0.3243511399
33
0.0000000000
40
0.0000000000
40
0.0000000000
40
0.0000000000
40
0.0000000000
40
0.1436547420
40
0.7335149866
40
1.0000000000
40
1.0000000000
40
1.0000000000
40
1.0000000000
10
71.6730560276
20
199.0640175113
30
0.0000000000
10
71.6730764248
20
199.0461150780
30
0.0000000000
10
71.6694230316
20
198.9547285522
30
0.0000000000
10
71.6376682270
20
198.8325245113
30
0.0000000000
10
71.5901942098
20
198.7369866960
30
0.0000000000
10
71.5737831160
20
198.7081751234
30
0.0000000000
11
71.6730560276
21
199.0640175113
31
0.0000000000
11
71.6708921695
21
199.0103870601
31
0.0000000000
11
71.6177769956
21
198.7973295818
31
0.0000000000
11
71.5737831160
21
198.7081751234
31
0.0000000000
0
SPLINE
5
313
100
AcDbEntity
8
0
100
AcDbSpline
62
7
6
CONTINUOUS
70
0
71
3
72
20
73
16
74
14
42
0.0000001000
43
0.0000001000
44
0.0000000001
12
-2.3154817332
22
-4.0650958996
32
0.0000000000
13
-4.1729292040
23
2.0864646020
33
0.0000000000
40
0.0000000000
40
0.0000000000
40
0.0000000000
40
0.0000000000
40
0.0300710563
40
0.0878934335
40
0.1531862407
40
0.2259506093
40
0.3054877454
40
0.3906104767
40
0.4797965581
40
0.5713074118
40
0.6632889045
40
0.7538641480
40
0.8412248667
40
0.9237272256
40
1.0000000000
40
1.0000000000
40
1.0000000000
40
1.0000000000
10
71.5737831160
20
198.7081751234
30
0.0000000000
10
71.5505734554
20
198.6674278808
30
0.0000000000
10
71.4731605828
20
198.5537004536
30
0.0000000000
10
71.3032091681
20
198.3843837168
30
0.0000000000
10
71.0509548738
20
198.2112864932
30
0.0000000000
10
70.7464609287
20
198.0615010520
30
0.0000000000
10
70.3975038074
20
197.9386123852
30
0.0000000000
10
70.0131851750
20
197.8457833095
30
0.0000000000
10
69.6036846152
20
197.7854845490
30
0.0000000000
10
69.1799453499
20
197.7593458213
30
0.0000000000
10
68.7533351999
20
197.7680791048
30
0.0000000000
10
68.3353173327
20
197.8114432934
30
0.0000000000
10
67.9370633977
20
197.8882731182
30
0.0000000000
10
67.5692697755
20
197.9964643743
30
0.0000000000
10
67.3407291959
20
198.0918238964
30
0.0000000000
10
67.2346355666
20
198.1448707111
30
0.0000000000
11
71.5737831160
21
198.7081751234
31
0.0000000000
11
71.4952500266
21
198.5915491649
31
0.0000000000
11
71.3066534791
21
198.3986589628
31
0.0000000000
11
71.0571317750
21
198.2239205174
31
0.0000000000
11
70.7534912161
21
198.0721002380
31
0.0000000000
11
70.4040143253
21
197.9473393860
31
0.0000000000
11
70.0182339212
21
197.8530411122
31
0.0000000000
11
69.6066730874
21
197.7917776277
31
0.0000000000
11
69.1805581308
21
197.7652200407
31
0.0000000000
11
68.7515123564
21
197.7740927730
31
0.0000000000
11
68.3312390147
21
197.8181537994
31
0.0000000000
11
67.9312020667
21
197.8962012502
31
0.0000000000
11
67.5623134777
21
198.0061061942
31
0.0000000000
11
67.2346355666
21
198.1448707111
31
0.0000000000
0
SPLINE
5
314
100
AcDbEntity
8
0
100
AcDbSpline
62
7
6
CONTINUOUS
70
0
71
3
72
9
73
5
74
3
42
0.0000001000
43
0.0000001000
44
0.0000000001
12
0.0004263260
22
-0.3741822730
32
0.0000000000
13
0.1849420702
23
-0.3249819440
33
0.0000000000
40
0.0000000000
40
0.0000000000
40
0.0000000000
40
0.0000000000
40
0.4342228399
40
1.0000000000
40
1.0000000000
40
1.0000000000
40
1.0000000000
10
66.4731703678
20
199.0642015420
30
0.0000000000
10
66.4732320747
20
199.0100420456
30
0.0000000000
10
66.4888847410
20
198.8852113109
30
0.0000000000
10
66.5377070847
20
198.7692682839
30
0.0000000000
10
66.5725857512
20
198.7079791634
30
0.0000000000
11
66.4731703678
21
199.0642015420
31
0.0000000000
11
66.4930796904
21
198.9033091060
31
0.0000000000
11
66.5725857512
21
198.7079791634
31
0.0000000000
0
SPLINE
5
315
100
AcDbEntity
8
0
100
AcDbSpline
62
7
6
CONTINUOUS
70
0
71
3
72
11
73
7
74
5
42
0.0000001000
43
0.0000001000
44
0.0000000001
12
0.4368333141
22
-0.7676076053
32
0.0000000000
13
0.7871102044
23
-0.3935551022
33
0.0000000000
40
0.0000000000
40
0.0000000000
40
0.0000000000
40
0.0000000000
40
0.0194009351
40
0.3077120283
40
0.6337773079
40
1.0000000000
40
1.0000000000
40
1.0000000000
40
1.0000000000
10
66.5725857512
20
198.7079791634
30
0.0000000000
10
66.5754107427
20
198.7030150617
30
0.0000000000
10
66.6209720184
20
198.6247293550
30
0.0000000000
10
66.7385500139
20
198.4785372098
30
0.0000000000
10
66.9621502961
20
198.2951645942
30
0.0000000000
10
67.1385496939
20
198.1929136474
30
0.0000000000
10
67.2346355666
20
198.1448707111
30
0.0000000000
11
66.5725857512
21
198.7079791634
31
0.0000000000
11
66.5812017433
21
198.6931724351
31
0.0000000000
11
66.7372966448
21
198.4931539611
31
0.0000000000
11
66.9571065328
21
198.3087096666
31
0.0000000000
11
67.2346355666
21
198.1448707111
31
0.0000000000
0
SPLINE
5
316
100
AcDbEntity
8
0
100
AcDbSpline
62
7
6
CONTINUOUS
70
0
71
3
72
14
73
10
74
8
42
0.0000001000
43
0.0000001000
44
0.0000000001
12
0.0011973611
22
-3.6252937129
32
0.0000000000
13
3.2353829529
23
-1.6176914764
33
0.0000000000
40
0.0000000000
40
0.0000000000
40
0.0000000000
40
0.0000000000
40
0.0906308763
40
0.2149281225
40
0.3470443836
40
0.4901437923
40
0.6462048442
40
0.8161415881
40
1.0000000000
40
1.0000000000
40
1.0000000000
40
1.0000000000
10
61.5731458014
20
196.6393307804
30
0.0000000000
10
61.5731819740
20
196.5298095984
30
0.0000000000
10
61.5959767913
20
196.2700337746
30
0.0000000000
10
61.7167518474
20
195.8658229645
30
0.0000000000
10
61.9487982520
20
195.4402345938
30
0.0000000000
10
62.2766410181
20
195.0335847856
30
0.0000000000
10
62.6950273706
20
194.6503047565
30
0.0000000000
10
63.1981284482
20
194.2946940606
30
0.0000000000
10
63.5715282149
20
194.0867300285
30
0.0000000000
10
63.7698123388
20
193.9875879666
30
0.0000000000
11
61.5731458014
21
196.6393307804
31
0.0000000000
11
61.6016529620
21
196.3124043607
31
0.0000000000
11
61.7280585345
21
195.8809224998
31
0.0000000000
11
61.9537933709
21
195.4596955605
31
0.0000000000
11
62.2758047949
21
195.0544199145
31
0.0000000000
11
62.6897381544
21
194.6705762198
31
0.0000000000
11
63.1899957108
21
194.3133553038
31
0.0000000000
11
63.7698123388
21
193.9875879666
31
0.0000000000
0
SPLINE
5
317
100
AcDbEntity
8
0
100
AcDbSpline
62
7
6
CONTINUOUS
70
0
71
3
72
10
73
6
74
4
42
0.0000001000
43
0.0000001000
44
0.0000000001
12
-0.1847506574
22
-0.3243511399
32
0.0000000000
13
0.0004259631
23
-0.3738637456
33
0.0000000000
40
0.0000000000
40
0.0000000000
40
0.0000000000
40
0.0000000000
40
0.2664850134
40
0.8563452580
40
1.0000000000
40
1.0000000000
40
1.0000000000
40
1.0000000000
10
66.5724432795
20
199.4200439299
30
0.0000000000
10
66.5560321857
20
199.3912323573
30
0.0000000000
10
66.5085581684
20
199.2956945420
30
0.0000000000
10
66.4768033638
20
199.1734905011
30
0.0000000000
10
66.4731499706
20
199.0821039753
30
0.0000000000
10
66.4731703678
20
199.0642015420
30
0.0000000000
11
66.5724432795
21
199.4200439299
31
0.0000000000
11
66.5284493999
21
199.3308894715
31
0.0000000000
11
66.4753342259
21
199.1178319932
31
0.0000000000
11
66.4731703678
21
199.0642015420
31
0.0000000000
0
SPLINE
5
318
100
AcDbEntity
8
0
100
AcDbSpline
62
7
6
CONTINUOUS
70
0
71
3
72
9
73
5
74
3
42
0.0000001000
43
0.0000001000
44
0.0000000001
12
0.1849420702
22
-0.3249819440
32
0.0000000000
13
0.0004263260
23
-0.3741822730
33
0.0000000000
40
0.0000000000
40
0.0000000000
40
0.0000000000
40
0.0000000000
40
0.5657771601
40
1.0000000000
40
1.0000000000
40
1.0000000000
40
1.0000000000
10
71.5736406443
20
199.4202398898
30
0.0000000000
10
71.6085193107
20
199.3589507694
30
0.0000000000
10
71.6573416544
20
199.2430077423
30
0.0000000000
10
71.6729943207
20
199.1181770077
30
0.0000000000
10
71.6730560276
20
199.0640175113
30
0.0000000000
11
71.5736406443
21
199.4202398898
31
0.0000000000
11
71.6531467050
21
199.2249099473
31
0.0000000000
11
71.6730560276
21
199.0640175113
31
0.0000000000
0
SPLINE
5
319
100
AcDbEntity
8
0
100
AcDbSpline
62
7
6
CONTINUOUS
70
0
71
3
72
16
73
12
74
10
42
0.0000001000
43
0.0000001000
44
0.0000000001
12
0.0014742062
22
-4.4635076688
32
0.0000000000
13
-4.1646755781
23
-1.5816375757
33
0.0000000000
40
0.0000000000
40
0.0000000000
40
0.0000000000
40
0.0000000000
40
0.0244302100
40
0.1234567179
40
0.2272061581
40
0.3387120001
40
0.4600588573
40
0.5924028465
40
0.7361135462
40
0.8909340862
40
1.0000000000
40
1.0000000000
40
1.0000000000
40
1.0000000000
10
76.5730805941
20
199.0640171422
30
0.0000000000
10
76.5730925991
20
199.0276689990
30
0.0000000000
10
76.5678231414
20
198.8439973911
30
0.0000000000
10
76.5079885285
20
198.5090038129
30
0.0000000000
10
76.3257467174
20
198.0758302657
30
0.0000000000
10
76.0451585927
20
197.6591276844
30
0.0000000000
10
75.6713676866
20
197.2636277050
30
0.0000000000
10
75.2098410589
20
196.8936432706
30
0.0000000000
10
74.6667345569
20
196.5534247581
30
0.0000000000
10
74.1238821126
20
196.2841876829
30
0.0000000000
10
73.7612079950
20
196.1354467340
30
0.0000000000
10
73.6097999458
20
196.0779458182
30
0.0000000000
11
76.5730805941
21
199.0640171422
31
0.0000000000
11
76.5699403233
21
198.9550418313
31
0.0000000000
11
76.4939254871
21
198.5206150542
31
0.0000000000
11
76.3175568949
21
198.0935381075
31
0.0000000000
11
76.0432196294
21
197.6795864742
31
0.0000000000
11
75.6746236316
21
197.2843581401
31
0.0000000000
11
75.2167535299
21
196.9131978903
31
0.0000000000
11
74.6758012320
21
196.5711250306
31
0.0000000000
11
74.0590821898
21
196.2627655095
31
0.0000000000
11
73.6097999458
21
196.0779458182
31
0.0000000000
0
SPLINE
5
31A
100
AcDbEntity
8
0
100
AcDbSpline
62
7
6
CONTINUOUS
70
0
71
3
72
9
73
5
74
3
42
0.0000001000
43
0.0000001000
44
0.0000000001
12
-0.3097659921
22
-0.1176412240
32
0.0000000000
13
-0.3136104823
23
-0.1069173185
33
0.0000000000
40
0.0000000000
40
0.0000000000
40
0.0000000000
40
0.0000000000
40
0.7544958465
40
1.0000000000
40
1.0000000000
40
1.0000000000
40
1.0000000000
10
73.6097999458
20
196.0779458182
30
0.0000000000
10
73.5318942276
20
196.0483592132
30
0.0000000000
10
73.4281081323
20
196.0105401762
30
0.0000000000
10
73.3237152858
20
195.9744756153
30
0.0000000000
10
73.2980510605
20
195.9657260667
30
0.0000000000
11
73.6097999458
21
196.0779458182
31
0.0000000000
11
73.3749364703
21
195.9922893606
31
0.0000000000
11
73.2980510605
21
195.9657260667
31
0.0000000000
0
SPLINE
5
31B
100
AcDbEntity
8
0
100
AcDbSpline
62
7
6
CONTINUOUS
70
0
71
3
72
18
73
14
74
12
42
0.0000001000
43
0.0000001000
44
0.0000000001
12
-8.1377044784
22
-2.7743382024
32
0.0000000000
13
-8.1349476029
23
2.7821191340
33
0.0000000000
40
0.0000000000
40
0.0000000000
40
0.0000000000
40
0.0000000000
40
0.0809127312
40
0.1753394683
40
0.2729692596
40
0.3728681639
40
0.4740456814
40
0.5754804527
40
0.6761449916
40
0.7750302367
40
0.8711706595
40
0.9636707990
40
1.0000000000
40
1.0000000000
40
1.0000000000
40
1.0000000000
10
73.2980510605
20
195.9657260667
30
0.0000000000
10
73.0785697622
20
195.8908996396
30
0.0000000000
10
72.5973472160
20
195.7453037218
30
0.0000000000
10
71.8348672541
20
195.5685643406
30
0.0000000000
10
71.0089459974
20
195.4324701846
30
0.0000000000
10
70.1570614976
20
195.3449783182
30
0.0000000000
10
69.2906328000
20
195.3072694638
30
0.0000000000
10
68.4212848166
20
195.3198533103
30
0.0000000000
10
67.5606844364
20
195.3825595002
30
0.0000000000
10
66.7203722680
20
195.4945419446
30
0.0000000000
10
65.9116100111
20
195.6542880586
30
0.0000000000
10
65.2884758149
20
195.8212662128
30
0.0000000000
10
64.9372593012
20
195.9352449363
30
0.0000000000
10
64.8387472522
20
195.9689356580
30
0.0000000000
11
73.2980510605
21
195.9657260667
31
0.0000000000
11
72.6326159708
21
195.7633543097
31
0.0000000000
11
71.8421593026
21
195.5790563108
31
0.0000000000
11
71.0142560360
21
195.4418876781
31
0.0000000000
11
70.1601021425
21
195.3537033820
31
0.0000000000
11
69.2912485883
21
195.3156959638
31
0.0000000000
11
68.4194451271
21
195.3283794088
31
0.0000000000
11
67.5564814052
21
195.3915821950
31
0.0000000000
11
66.7140275266
21
195.5044496132
31
0.0000000000
11
65.9034762347
21
195.6654553252
31
0.0000000000
11
65.1357888452
21
195.8724220050
31
0.0000000000
11
64.8387472522
21
195.9689356580
31
0.0000000000
0
SPLINE
5
31C
100
AcDbEntity
8
0
100
AcDbSpline
62
7
6
CONTINUOUS
70
0
71
3
72
9
73
5
74
3
42
0.0000001000
43
0.0000001000
44
0.0000000001
12
-1.0957597268
22
0.3747453888
32
0.0000000000
13
-1.0355790576
23
0.5177895288
33
0.0000000000
40
0.0000000000
40
0.0000000000
40
0.0000000000
40
0.0000000000
40
0.3840774371
40
1.0000000000
40
1.0000000000
40
1.0000000000
40
1.0000000000
10
64.8387472522
20
195.9689356580
30
0.0000000000
10
64.6984617231
20
196.0169127409
30
0.0000000000
10
64.3360024788
20
196.1500081583
30
0.0000000000
10
63.9824245079
20
196.3061530126
30
0.0000000000
10
63.7698123388
20
196.4124590972
30
0.0000000000
11
64.8387472522
21
195.9689356580
31
0.0000000000
11
64.4213470132
21
196.1225507832
31
0.0000000000
11
63.7698123388
21
196.4124590972
31
0.0000000000
0
SPLINE
5
31D
100
AcDbEntity
8
0
100
AcDbSpline
62
7
6
CONTINUOUS
70
0
71
3
72
14
73
10
74
8
42
0.0000001000
43
0.0000001000
44
0.0000000001
12
0.0011973611
22
-3.6252937129
32
0.0000000000
13
3.2353829529
23
-1.6176914764
33
0.0000000000
40
0.0000000000
40
0.0000000000
40
0.0000000000
40
0.0000000000
40
0.0906308763
40
0.2149281225
40
0.3470443836
40
0.4901437923
40
0.6462048442
40
0.8161415881
40
1.0000000000
40
1.0000000000
40
1.0000000000
40
1.0000000000
10
61.5731458014
20
199.0642019110
30
0.0000000000
10
61.5731819740
20
198.9546807290
30
0.0000000000
10
61.5959767913
20
198.6949049052
30
0.0000000000
10
61.7167518474
20
198.2906940951
30
0.0000000000
10
61.9487982520
20
197.8651057244
30
0.0000000000
10
62.2766410181
20
197.4584559162
30
0.0000000000
10
62.6950273706
20
197.0751758871
30
0.0000000000
10
63.1981284482
20
196.7195651912
30
0.0000000000
10
63.5715282149
20
196.5116011591
30
0.0000000000
10
63.7698123388
20
196.4124590972
30
0.0000000000
11
61.5731458014
21
199.0642019110
31
0.0000000000
11
61.6016529620
21
198.7372754913
31
0.0000000000
11
61.7280585345
21
198.3057936304
31
0.0000000000
11
61.9537933709
21
197.8845666911
31
0.0000000000
11
62.2758047949
21
197.4792910451
31
0.0000000000
11
62.6897381544
21
197.0954473504
31
0.0000000000
11
63.1899957108
21
196.7382264344
31
0.0000000000
11
63.7698123388
21
196.4124590972
31
0.0000000000
0
SPLINE
5
31E
100
AcDbEntity
8
0
100
AcDbSpline
62
7
6
CONTINUOUS
70
0
71
3
72
10
73
6
74
4
42
0.0000001000
43
0.0000001000
44
0.0000000001
12
0.7219252891
22
0.5113118816
32
0.0000000000
13
-0.0000258973
23
0.8866455414
33
0.0000000000
40
0.0000000000
40
0.0000000000
40
0.0000000000
40
0.0000000000
40
0.1774504663
40
0.6209785461
40
1.0000000000
40
1.0000000000
40
1.0000000000
40
1.0000000000
10
71.1143905921
20
-285.5926246914
30
0.0000000000
10
71.1570925851
20
-285.5623805142
30
0.0000000000
10
71.3018603185
20
-285.4498059694
30
0.0000000000
10
71.5023832288
20
-285.2260037231
30
0.0000000000
10
71.5731164696
20
-284.9829053355
30
0.0000000000
10
71.5731131977
20
-284.8708861081
30
0.0000000000
11
71.1143905921
21
-285.5926246914
31
0.0000000000
11
71.2381767072
21
-285.4958861081
31
0.0000000000
11
71.4879277634
21
-285.1944099145
31
0.0000000000
11
71.5731131977
21
-284.8708861081
31
0.0000000000
0
SPLINE
5
31F
100
AcDbEntity
8
0
100
AcDbSpline
62
7
6
CONTINUOUS
70
0
71
3
72
8
73
4
74
2
42
0.0000001000
43
0.0000001000
44
0.0000000001
12
0.1778807629
22
-0.1263196766
32
0.0000000000
13
0.1945155095
23
-0.0972577547
33
0.0000000000
40
0.0000000000
40
0.0000000000
40
0.0000000000
40
0.0000000000
40
1.0000000000
40
1.0000000000
40
1.0000000000
40
1.0000000000
10
67.6838268098
20
-286.0536620382
30
0.0000000000
10
67.7431203974
20
-286.0957685971
30
0.0000000000
10
67.8061931665
20
-286.1323279436
30
0.0000000000
10
67.8710316697
20
-286.1647471951
30
0.0000000000
11
67.6838268098
21
-286.0536620382
31
0.0000000000
11
67.8710316697
21
-286.1647471951
31
0.0000000000
0
SPLINE
5
320
100
AcDbEntity
8
0
100
AcDbSpline
62
7
6
CONTINUOUS
70
0
71
3
72
14
73
10
74
8
42
0.0000001000
43
0.0000001000
44
0.0000000001
12
2.4046852019
22
-1.2023426009
32
0.0000000000
13
2.2102390594
23
1.5524642044
33
0.0000000000
40
0.0000000000
40
0.0000000000
40
0.0000000000
40
0.0000000000
40
0.1538404250
40
0.3253766633
40
0.5050093789
40
0.6819100992
40
0.8456531640
40
0.9879371005
40
1.0000000000
40
1.0000000000
40
1.0000000000
40
1.0000000000
10
67.8710316697
20
-286.1647471951
30
0.0000000000
10
67.9943442675
20
-286.2264034941
30
0.0000000000
10
68.2708869229
20
-286.3257314793
30
0.0000000000
10
68.7177577581
20
-286.4063291843
30
0.0000000000
10
69.1923373272
20
-286.4228218252
30
0.0000000000
10
69.6575976954
20
-286.3737298280
30
0.0000000000
10
70.0780949967
20
-286.2631108430
30
0.0000000000
10
70.3372926994
20
-286.1393153259
30
0.0000000000
10
70.4520360862
20
-286.0609558796
30
0.0000000000
10
70.4609233834
20
-286.0547134731
30
0.0000000000
11
67.8710316697
21
-286.1647471951
31
0.0000000000
11
68.2583899203
21
-286.3097335723
31
0.0000000000
11
68.7117522055
21
-286.3942812672
31
0.0000000000
11
69.1943898091
21
-286.4115407286
31
0.0000000000
11
69.6672023030
21
-286.3601136974
31
0.0000000000
11
70.0918852308
21
-286.2441664859
31
0.0000000000
11
70.4340333073
21
-286.0730924477
31
0.0000000000
11
70.4609233834
21
-286.0547134731
31
0.0000000000
0
SPLINE
5
321
100
AcDbEntity
8
0
100
AcDbSpline
62
7
6
CONTINUOUS
70
0
71
3
72
10
73
6
74
4
42
0.0000001000
43
0.0000001000
44
0.0000000001
12
0.0000258944
22
-0.8865472936
32
0.0000000000
13
0.7223512071
23
-0.5115113000
33
0.0000000000
40
0.0000000000
40
0.0000000000
40
0.0000000000
40
0.0000000000
40
0.3790634573
40
0.8226406892
40
1.0000000000
40
1.0000000000
40
1.0000000000
40
1.0000000000
10
66.5731131977
20
-284.8708861081
30
0.0000000000
10
66.5731164696
20
-284.9829053355
30
0.0000000000
10
66.6438639116
20
-285.2260135323
30
0.0000000000
10
66.8442694734
20
-285.4497511487
30
0.0000000000
10
66.9891440773
20
-285.5623651905
30
0.0000000000
10
67.0318493147
20
-285.5926056210
30
0.0000000000
11
66.5731131977
21
-284.8708861081
31
0.0000000000
11
66.6582986320
21
-285.1944099145
31
0.0000000000
11
66.9080496882
21
-285.4958861081
31
0.0000000000
11
67.0318493147
21
-285.5926056210
31
0.0000000000
0
SPLINE
5
322
100
AcDbEntity
8
0
100
AcDbSpline
62
7
6
CONTINUOUS
70
0
71
3
72
8
73
4
74
2
42
0.0000001000
43
0.0000001000
44
0.0000000001
12
0.3236956160
22
-0.1618478080
32
0.0000000000
13
0.3423217389
23
-0.1197196267
33
0.0000000000
40
0.0000000000
40
0.0000000000
40
0.0000000000
40
0.0000000000
40
1.0000000000
40
1.0000000000
40
1.0000000000
40
1.0000000000
10
67.3053462447
20
-285.7547695846
30
0.0000000000
10
67.4132447834
20
-285.8087188539
30
0.0000000000
10
67.5250407842
20
-285.8549884640
30
0.0000000000
10
67.6391480306
20
-285.8948950063
30
0.0000000000
11
67.3053462447
21
-285.7547695846
31
0.0000000000
11
67.6391480306
21
-285.8948950063
31
0.0000000000
0
SPLINE
5
323
100
AcDbEntity
8
0
100
AcDbSpline
62
7
6
CONTINUOUS
70
0
71
3
72
14
73
10
74
8
42
0.0000001000
43
0.0000001000
44
0.0000000001
12
3.3987792199
22
-1.1886495458
32
0.0000000000
13
2.9388290600
23
2.0814594515
33
0.0000000000
40
0.0000000000
40
0.0000000000
40
0.0000000000
40
0.0000000000
40
0.0536190753
40
0.2249842792
40
0.4054500444
40
0.5859158097
40
0.7572810136
40
0.9116191167
40
1.0000000000
40
1.0000000000
40
1.0000000000
40
1.0000000000
10
67.6391480306
20
-285.8948950063
30
0.0000000000
10
67.6998944968
20
-285.9161397694
30
0.0000000000
10
67.9575336200
20
-285.9977154087
30
0.0000000000
10
68.4350216093
20
-286.0938096320
30
0.0000000000
10
69.0731272256
20
-286.1347696117
30
0.0000000000
10
69.7111500892
20
-286.0938288098
30
0.0000000000
10
70.3074803984
20
-285.9737751170
30
0.0000000000
10
70.7749903202
20
-285.8006155295
30
0.0000000000
10
71.0278118227
20
-285.6539450997
30
0.0000000000
10
71.1143905921
20
-285.5926246914
30
0.0000000000
11
67.6391480306
21
-285.8948950063
31
0.0000000000
11
67.8231131977
21
-285.9534178628
31
0.0000000000
11
68.4260655850
21
-286.0782933910
31
0.0000000000
11
69.0731131977
21
-286.1208861081
31
0.0000000000
11
69.7201608105
21
-286.0782933910
31
0.0000000000
11
70.3231131977
21
-285.9534178628
31
0.0000000000
11
70.8408801507
21
-285.7547695846
31
0.0000000000
11
71.1143905921
21
-285.5926246914
31
0.0000000000
0
SPLINE
5
324
100
AcDbEntity
8
0
100
AcDbSpline
62
7
6
CONTINUOUS
70
0
71
3
72
8
73
4
74
2
42
0.0000001000
43
0.0000001000
44
0.0000000001
12
0.2599983988
22
-0.1841100529
32
0.0000000000
13
0.2841301800
23
-0.1420650900
33
0.0000000000
40
0.0000000000
40
0.0000000000
40
0.0000000000
40
0.0000000000
40
1.0000000000
40
1.0000000000
40
1.0000000000
40
1.0000000000
10
67.0318493147
20
-285.5926056210
30
0.0000000000
10
67.1185154476
20
-285.6539756387
30
0.0000000000
10
67.2106361847
20
-285.7074145546
30
0.0000000000
10
67.3053462447
20
-285.7547695846
30
0.0000000000
11
67.0318493147
21
-285.5926056210
31
0.0000000000
11
67.3053462447
21
-285.7547695846
31
0.0000000000
0
SPLINE
5
325
100
AcDbEntity
8
0
100
AcDbSpline
62
7
6
CONTINUOUS
70
0
71
3
72
14
73
10
74
8
42
0.0000001000
43
0.0000001000
44
0.0000000001
12
2.2102390594
22
1.5524642044
32
0.0000000000
13
2.4046852019
23
-1.2023426009
33
0.0000000000
40
0.0000000000
40
0.0000000000
40
0.0000000000
40
0.0000000000
40
0.0120628995
40
0.1543468360
40
0.3180899008
40
0.4949906211
40
0.6746233367
40
0.8461595750
40
1.0000000000
40
1.0000000000
40
1.0000000000
40
1.0000000000
10
67.6853030120
20
207.3493452026
30
0.0000000000
10
67.6941903092
20
207.3555876092
30
0.0000000000
10
67.8089336960
20
207.4339470555
30
0.0000000000
10
68.0681313987
20
207.5577425726
30
0.0000000000
10
68.4886287000
20
207.6683615575
30
0.0000000000
10
68.9538890683
20
207.7174535548
30
0.0000000000
10
69.4284686374
20
207.7009609139
30
0.0000000000
10
69.8753394725
20
207.6203632088
30
0.0000000000
10
70.1518821279
20
207.5210352236
30
0.0000000000
10
70.2751947257
20
207.4593789247
30
0.0000000000
11
67.6853030120
21
207.3493452026
31
0.0000000000
11
67.7121930881
21
207.3677241772
31
0.0000000000
11
68.0543411646
21
207.5387982155
31
0.0000000000
11
68.4790240924
21
207.6547454269
31
0.0000000000
11
68.9518365863
21
207.7061724581
31
0.0000000000
11
69.4344741899
21
207.6889129968
31
0.0000000000
11
69.8878364751
21
207.6043653018
31
0.0000000000
11
70.2751947257
21
207.4593789247
31
0.0000000000
0
SPLINE
5
326
100
AcDbEntity
8
0
100
AcDbSpline
62
7
6
CONTINUOUS
70
0
71
3
72
10
73
6
74
4
42
0.0000001000
43
0.0000001000
44
0.0000000001
12
0.7223512071
22
-0.5115113000
32
0.0000000000
13
0.0000258944
23
-0.8865472936
33
0.0000000000
40
0.0000000000
40
0.0000000000
40
0.0000000000
40
0.0000000000
40
0.1773593108
40
0.6209365427
40
1.0000000000
40
1.0000000000
40
1.0000000000
40
1.0000000000
10
71.1143770807
20
206.8872373506
30
0.0000000000
10
71.1570823182
20
206.8569969200
30
0.0000000000
10
71.3019569220
20
206.7443828783
30
0.0000000000
10
71.5023624839
20
206.5206452619
30
0.0000000000
10
71.5731099258
20
206.2775370651
30
0.0000000000
10
71.5731131977
20
206.1655178377
30
0.0000000000
11
71.1143770807
21
206.8872373506
31
0.0000000000
11
71.2381767072
21
206.7905178377
31
0.0000000000
11
71.4879277634
21
206.4890416440
31
0.0000000000
11
71.5731131977
21
206.1655178377
31
0.0000000000
0
SPLINE
5
327
100
AcDbEntity
8
0
100
AcDbSpline
62
7
6
CONTINUOUS
70
0
71
3
72
8
73
4
74
2
42
0.0000001000
43
0.0000001000
44
0.0000000001
12
0.1945155095
22
-0.0972577547
32
0.0000000000
13
0.1778807629
23
-0.1263196766
33
0.0000000000
40
0.0000000000
40
0.0000000000
40
0.0000000000
40
0.0000000000
40
1.0000000000
40
1.0000000000
40
1.0000000000
40
1.0000000000
10
70.2751947257
20
207.4593789247
30
0.0000000000
10
70.3400332289
20
207.4269596731
30
0.0000000000
10
70.4031059980
20
207.3904003266
30
0.0000000000
10
70.4623995857
20
207.3482937678
30
0.0000000000
11
70.2751947257
21
207.4593789247
31
0.0000000000
11
70.4623995857
21
207.3482937678
31
0.0000000000
0
SPLINE
5
328
100
AcDbEntity
8
0
100
AcDbSpline
62
7
6
CONTINUOUS
70
0
71
3
72
10
73
6
74
4
42
0.0000001000
43
0.0000001000
44
0.0000000001
12
-0.0000258973
22
0.8866455414
32
0.0000000000
13
0.7219252891
23
0.5113118816
33
0.0000000000
40
0.0000000000
40
0.0000000000
40
0.0000000000
40
0.0000000000
40
0.3790214539
40
0.8225495337
40
1.0000000000
40
1.0000000000
40
1.0000000000
40
1.0000000000
10
66.5731131977
20
206.1655178377
30
0.0000000000
10
66.5731099258
20
206.2775370651
30
0.0000000000
10
66.6438431666
20
206.5206354527
30
0.0000000000
10
66.8443660769
20
206.7444376990
30
0.0000000000
10
66.9891338103
20
206.8570122437
30
0.0000000000
10
67.0318358034
20
206.8872564210
30
0.0000000000
11
66.5731131977
21
206.1655178377
31
0.0000000000
11
66.6582986320
21
206.4890416440
31
0.0000000000
11
66.9080496882
21
206.7905178377
31
0.0000000000
11
67.0318358034
21
206.8872564210
31
0.0000000000
0
SPLINE
5
329
100
AcDbEntity
8
0
100
AcDbSpline
62
7
6
CONTINUOUS
70
0
71
3
72
18
73
14
74
12
42
0.0000001000
43
0.0000001000
44
0.0000000001
12
3.1786133224
22
-2.2572503088
32
0.0000000000
13
-3.4758654038
23
1.7379327019
33
0.0000000000
40
0.0000000000
40
0.0000000000
40
0.0000000000
40
0.0000000000
40
0.0337690076
40
0.1065413247
40
0.1692707721
40
0.2356121766
40
0.3165219449
40
0.4149573090
40
0.5282386013
40
0.6506226683
40
0.7748967936
40
0.8935695861
40
1.0000000000
40
1.0000000000
40
1.0000000000
40
1.0000000000
10
70.4623995857
20
207.3482937678
30
0.0000000000
10
70.4981791248
20
207.3228854001
30
0.0000000000
10
70.6067220652
20
207.2363491453
30
0.0000000000
10
70.7504135773
20
207.0620281991
30
0.0000000000
10
70.7943168534
20
206.7887443623
30
0.0000000000
10
70.6695273877
20
206.5324415499
30
0.0000000000
10
70.4227618574
20
206.3235502242
30
0.0000000000
10
70.0780949967
20
206.1589337488
30
0.0000000000
10
69.6575976954
20
206.0483147639
30
0.0000000000
10
69.1923373272
20
205.9992227666
30
0.0000000000
10
68.7177577581
20
206.0157154075
30
0.0000000000
10
68.2708869229
20
206.0963131126
30
0.0000000000
10
67.9943442675
20
206.1956410978
30
0.0000000000
10
67.8710316697
20
206.2572973967
30
0.0000000000
11
70.4623995857
21
207.3482937678
31
0.0000000000
11
70.5651674800
21
207.2656997994
31
0.0000000000
11
70.7342628699
21
207.0390186568
31
0.0000000000
11
70.7687817925
21
206.7976998550
31
0.0000000000
11
70.6659277302
21
206.5612936080
31
0.0000000000
11
70.4340333073
21
206.3489521442
31
0.0000000000
11
70.0918852308
21
206.1778781059
31
0.0000000000
11
69.6672023030
21
206.0619308944
31
0.0000000000
11
69.1943898091
21
206.0105038633
31
0.0000000000
11
68.7117522055
21
206.0277633246
31
0.0000000000
11
68.2583899203
21
206.1123110196
31
0.0000000000
11
67.8710316697
21
206.2572973967
31
0.0000000000
0
SPLINE
5
32A
100
AcDbEntity
8
0
100
AcDbSpline
62
7
6
CONTINUOUS
70
0
71
3
72
12
73
8
74
6
42
0.0000001000
43
0.0000001000
44
0.0000000001
12
-1.2656957114
22
0.6328478557
32
0.0000000000
13
1.1633498208
23
0.8171328555
33
0.0000000000
40
0.0000000000
40
0.0000000000
40
0.0000000000
40
0.0000000000
40
0.2464194451
40
0.4462674629
40
0.6185356582
40
0.8007230441
40
1.0000000000
40
1.0000000000
40
1.0000000000
40
1.0000000000
10
67.8710316697
20
206.2572973967
30
0.0000000000
10
67.7670676581
20
206.3092794025
30
0.0000000000
10
67.5870094507
20
206.4226958140
30
0.0000000000
10
67.3958128181
20
206.6546481222
30
0.0000000000
10
67.3519095420
20
206.9279319591
30
0.0000000000
10
67.4717394186
20
207.1740483616
30
0.0000000000
10
67.6080267417
20
207.2950666200
30
0.0000000000
10
67.6853030120
20
207.3493452026
30
0.0000000000
11
67.8710316697
21
206.2572973967
31
0.0000000000
11
67.5810589154
21
206.4509765220
31
0.0000000000
11
67.4119635256
21
206.6776576646
31
0.0000000000
11
67.3774446029
21
206.9189764664
31
0.0000000000
11
67.4802986652
21
207.1553827134
31
0.0000000000
11
67.6853030120
21
207.3493452026
31
0.0000000000
0
SPLINE
5
32B
100
AcDbEntity
8
0
100
AcDbSpline
62
7
6
CONTINUOUS
70
0
71
3
72
10
73
6
74
4
42
0.0000001000
43
0.0000001000
44
0.0000000001
12
-1.0735264972
22
0.5367632486
32
0.0000000000
13
-0.0000352147
23
1.2056453647
33
0.0000000000
40
0.0000000000
40
0.0000000000
40
0.0000000000
40
0.0000000000
40
0.3950875622
40
0.7212632404
40
1.0000000000
40
1.0000000000
40
1.0000000000
40
1.0000000000
10
67.3053462447
20
205.2816343612
30
0.0000000000
10
67.1639672558
20
205.3523238556
30
0.0000000000
10
66.9164021489
20
205.5061221335
30
0.0000000000
10
66.6438639116
20
205.8103904135
30
0.0000000000
10
66.5731164696
20
206.0534986103
30
0.0000000000
10
66.5731131977
20
206.1655178377
30
0.0000000000
11
67.3053462447
21
205.2816343612
31
0.0000000000
11
66.9080496882
21
205.5405178377
31
0.0000000000
11
66.6582986320
21
205.8419940313
31
0.0000000000
11
66.5731131977
21
206.1655178377
31
0.0000000000
0
SPLINE
5
32C
100
AcDbEntity
8
0
100
AcDbSpline
62
7
6
CONTINUOUS
70
0
71
3
72
16
73
12
74
10
42
0.0000001000
43
0.0000001000
44
0.0000000001
12
0.0001419387
22
-4.8595541861
32
0.0000000000
13
-4.3270271144
23
2.1635135572
33
0.0000000000
40
0.0000000000
40
0.0000000000
40
0.0000000000
40
0.0000000000
40
0.0691540148
40
0.1500775274
40
0.2480979363
40
0.3627307187
40
0.4900101768
40
0.6240489681
40
0.7580877595
40
0.8853672176
40
1.0000000000
40
1.0000000000
40
1.0000000000
40
1.0000000000
10
71.5731131977
20
206.1655178377
30
0.0000000000
10
71.5731164696
20
206.0534986103
30
0.0000000000
10
71.5023832288
20
205.8104002226
30
0.0000000000
10
71.2297156226
20
205.5060777756
30
0.0000000000
10
70.8242052939
20
205.2540170017
30
0.0000000000
10
70.3074803984
20
205.0626288288
30
0.0000000000
10
69.7111500892
20
204.9425751360
30
0.0000000000
10
69.0731272256
20
204.9016343341
30
0.0000000000
10
68.4350216093
20
204.9425943137
30
0.0000000000
10
67.8389194362
20
205.0625595833
30
0.0000000000
10
67.4706859640
20
205.1989645016
30
0.0000000000
10
67.3053462447
20
205.2816343612
30
0.0000000000
11
71.5731131977
21
206.1655178377
31
0.0000000000
11
71.4879277634
21
205.8419940313
31
0.0000000000
11
71.2381767072
21
205.5405178377
31
0.0000000000
11
70.8408801507
21
205.2816343612
31
0.0000000000
11
70.3231131977
21
205.0829860829
31
0.0000000000
11
69.7201608105
21
204.9581105548
31
0.0000000000
11
69.0731131977
21
204.9155178377
31
0.0000000000
11
68.4260655850
21
204.9581105548
31
0.0000000000
11
67.8231131977
21
205.0829860829
31
0.0000000000
11
67.3053462447
21
205.2816343612
31
0.0000000000
0
SPLINE
5
32D
100
AcDbEntity
8
0
100
AcDbSpline
62
7
6
CONTINUOUS
70
0
71
3
72
8
73
4
74
2
42
0.0000001000
43
0.0000001000
44
0.0000000001
12
0.0000000000
22
0.3534303628
32
0.0000000000
13
0.0134596449
23
0.3533300318
33
0.0000000000
40
0.0000000000
40
0.0000000000
40
0.0000000000
40
0.0000000000
40
1.0000000000
40
1.0000000000
40
1.0000000000
40
1.0000000000
10
-315.9465291584
20
-238.9335731251
30
0.0000000000
10
-315.9465291584
20
-238.8157630042
30
0.0000000000
10
-315.9442290363
20
-238.6979274635
30
0.0000000000
10
-315.9397424879
20
-238.5801507862
30
0.0000000000
11
-315.9465291584
21
-238.9335731251
31
0.0000000000
11
-315.9397424879
21
-238.5801507862
31
0.0000000000
0
SPLINE
5
32E
100
AcDbEntity
8
0
100
AcDbSpline
62
7
6
CONTINUOUS
70
0
71
3
72
8
73
4
74
2
42
0.0000001000
43
0.0000001000
44
0.0000000001
12
0.0007172671
22
0.0188290270
32
0.0000000000
13
0.0007544702
23
0.0188279858
33
0.0000000000
40
0.0000000000
40
0.0000000000
40
0.0000000000
40
0.0000000000
40
1.0000000000
40
1.0000000000
40
1.0000000000
40
1.0000000000
10
-315.9397424879
20
-238.5801507862
30
0.0000000000
10
-315.9395033989
20
-238.5738744438
30
0.0000000000
10
-315.9392581007
20
-238.5675982687
30
0.0000000000
10
-315.9390066107
20
-238.5613222734
30
0.0000000000
11
-315.9397424879
21
-238.5801507862
31
0.0000000000
11
-315.9390066107
21
-238.5613222734
31
0.0000000000
0
SPLINE
5
32F
100
AcDbEntity
8
0
100
AcDbSpline
62
7
6
CONTINUOUS
70
0
71
3
72
23
73
19
74
17
42
0.0000001000
43
0.0000001000
44
0.0000000001
12
0.6443543557
22
16.0800187179
32
0.0000000000
13
14.4193234283
23
-7.2129855948
33
0.0000000000
40
0.0000000000
40
0.0000000000
40
0.0000000000
40
0.0000000000
40
0.0472739746
40
0.1212219207
40
0.1978588502
40
0.2761998981
40
0.3551754306
40
0.4336852695
40
0.5106516032
40
0.5850728575
40
0.6560809517
40
0.7230047937
40
0.7854430240
40
0.8433472963
40
0.8971097228
40
0.9476281311
40
0.9962912219
40
1.0000000000
40
1.0000000000
40
1.0000000000
40
1.0000000000
10
-315.9390066107
20
-238.5613222734
30
0.0000000000
10
-315.9288528802
20
-238.3079334748
30
0.0000000000
10
-315.8769345458
20
-237.6589352680
30
0.0000000000
10
-315.6960221297
20
-236.6117949442
30
0.0000000000
10
-315.3670691078
20
-235.4272045486
30
0.0000000000
10
-314.9184982300
20
-234.2538234342
30
0.0000000000
10
-314.3601796501
20
-233.1173465296
30
0.0000000000
10
-313.7043897804
20
-232.0427791673
30
0.0000000000
10
-312.9655225063
20
-231.0537327774
30
0.0000000000
10
-312.1597295886
20
-230.1719118065
30
0.0000000000
10
-311.3044934438
20
-229.4166303772
30
0.0000000000
10
-310.4181414085
20
-228.8044486146
30
0.0000000000
10
-309.5193365333
20
-228.3489823855
30
0.0000000000
10
-308.6266676211
20
-228.0609761939
30
0.0000000000
10
-307.7586452175
20
-227.9486232170
30
0.0000000000
10
-306.9345086721
20
-228.0176271625
30
0.0000000000
10
-306.4057020499
20
-228.1932150906
30
0.0000000000
10
-306.1527918329
20
-228.3167502899
30
0.0000000000
10
-306.1349658095
20
-228.3256674108
30
0.0000000000
11
-315.9390066107
21
-238.5613222734
31
0.0000000000
11
-315.8793978710
21
-237.8028751771
31
0.0000000000
11
-315.6795036108
21
-236.6303038654
31
0.0000000000
11
-315.3513116854
21
-235.4420524955
31
0.0000000000
11
-314.9021533600
21
-234.2646646396
31
0.0000000000
11
-314.3420620893
21
-233.1244411967
31
0.0000000000
11
-313.6835493869
21
-232.0468528744
31
0.0000000000
11
-312.9413253383
21
-231.0559712151
31
0.0000000000
11
-312.1319700024
21
-230.1739308778
31
0.0000000000
11
-311.2735630398
21
-229.4204351860
31
0.0000000000
11
-310.3852798437
21
-228.8123159884
31
0.0000000000
11
-309.4869631928
21
-228.3631576629
31
0.0000000000
11
-308.5986799968
21
-228.0829936644
31
0.0000000000
11
-307.7402730342
21
-227.9780823937
31
0.0000000000
11
-306.9309176982
21
-228.0507673951
31
0.0000000000
11
-306.1886936497
21
-228.2994250058
31
0.0000000000
11
-306.1349658095
21
-228.3256674108
31
0.0000000000
0
SPLINE
5
330
100
AcDbEntity
8
0
100
AcDbSpline
62
7
6
CONTINUOUS
70
0
71
3
72
13
73
9
74
7
42
0.0000001000
43
0.0000001000
44
0.0000000001
12
0.0000000000
22
-5.3621237719
32
0.0000000000
13
4.8067091774
23
-2.4044626107
33
0.0000000000
40
0.0000000000
40
0.0000000000
40
0.0000000000
40
0.0000000000
40
0.1987427427
40
0.3839314396
40
0.5556078083
40
0.7151725504
40
0.8655577878
40
1.0000000000
40
1.0000000000
40
1.0000000000
40
1.0000000000
10
-315.9465291584
20
-238.9335731251
30
0.0000000000
10
-315.9465291584
20
-239.2888008535
30
0.0000000000
10
-315.9061460030
20
-239.9760764966
30
0.0000000000
10
-315.7109496233
20
-240.9533892174
30
0.0000000000
10
-315.3860413527
20
-241.8223409456
30
0.0000000000
10
-314.9362860750
20
-242.5632088840
30
0.0000000000
10
-314.3830220627
20
-243.1428045619
30
0.0000000000
10
-313.9526854322
20
-243.4233174419
30
0.0000000000
10
-313.7372772271
20
-243.5310711994
30
0.0000000000
11
-315.9465291584
21
-238.9335731251
31
0.0000000000
11
-315.8793978710
21
-239.9971397858
31
0.0000000000
11
-315.6795036108
21
-240.9698168373
31
0.0000000000
11
-315.3513116854
21
-241.8298762817
31
0.0000000000
11
-314.9021533600
21
-242.5581058122
31
0.0000000000
11
-314.3420620893
21
-243.1382379845
31
0.0000000000
11
-313.7372772271
21
-243.5310711994
31
0.0000000000
0
SPLINE
5
331
100
AcDbEntity
8
0
100
AcDbSpline
62
7
6
CONTINUOUS
70
0
71
3
72
23
73
19
74
17
42
0.0000001000
43
0.0000001000
44
0.0000000001
12
-2.7381353183
22
-3.8440367233
32
0.0000000000
13
1.4085563897
23
-4.5044391713
33
0.0000000000
40
0.0000000000
40
0.0000000000
40
0.0000000000
40
0.0000000000
40
0.0771456939
40
0.1493823823
40
0.2171223952
40
0.2802329081
40
0.3381606561
40
0.3904930749
40
0.4380923279
40
0.4847332509
40
0.5326035783
40
0.5811943921
40
0.6308354999
40
0.6854337001
40
0.7488804789
40
0.8221071777
40
0.9056350886
40
1.0000000000
40
1.0000000000
40
1.0000000000
40
1.0000000000
10
-309.9714768573
20
-233.9895096354
30
0.0000000000
10
-310.0418886403
20
-234.0883599288
30
0.0000000000
10
-310.1652401543
20
-234.2893116139
30
0.0000000000
10
-310.3091709738
20
-234.5997099671
30
0.0000000000
10
-310.4153577343
20
-234.9014813883
30
0.0000000000
10
-310.4913775222
20
-235.1888356462
30
0.0000000000
10
-310.5435143342
20
-235.4567189886
30
0.0000000000
10
-310.5774338792
20
-235.7028378742
30
0.0000000000
10
-310.5982936485
20
-235.9325468018
30
0.0000000000
10
-310.6093758254
20
-236.1558945990
30
0.0000000000
10
-310.6118239398
20
-236.3810608588
30
0.0000000000
10
-310.6057491517
20
-236.6108766299
30
0.0000000000
10
-310.5907496021
20
-236.8508873482
30
0.0000000000
10
-310.5647466146
20
-237.1134632988
30
0.0000000000
10
-310.5234128252
20
-237.4115997893
30
0.0000000000
10
-310.4611545203
20
-237.7524950217
30
0.0000000000
10
-310.3721100884
20
-238.1375342128
30
0.0000000000
10
-310.2953829729
20
-238.4068264457
30
0.0000000000
10
-310.2510768733
20
-238.5485134467
30
0.0000000000
11
-309.9714768573
21
-233.9895096354
31
0.0000000000
11
-310.1628060533
21
-234.2992771870
31
0.0000000000
11
-310.3069313696
21
-234.6082379324
31
0.0000000000
11
-310.4135641901
21
-234.9096319750
31
0.0000000000
11
-310.4901091520
21
-235.1974805764
31
0.0000000000
11
-310.5425841734
21
-235.4657892645
31
0.0000000000
11
-310.5764624976
21
-235.7104393667
31
0.0000000000
11
-310.5968833359
21
-235.9341555960
31
0.0000000000
11
-310.6078787786
21
-236.1540042390
31
0.0000000000
11
-310.6104174351
21
-236.3799156241
31
0.0000000000
11
-310.6044332164
21
-236.6091635413
31
0.0000000000
11
-310.5898904170
21
-236.8429946508
31
0.0000000000
11
-310.5645775703
21
-237.0994264158
31
0.0000000000
11
-310.5235636816
21
-237.3960435460
31
0.0000000000
11
-310.4616090068
21
-237.7360408287
31
0.0000000000
11
-310.3729437976
21
-238.1201531038
31
0.0000000000
11
-310.2510768733
21
-238.5485134467
31
0.0000000000
0
SPLINE
5
332
100
AcDbEntity
8
0
100
AcDbSpline
62
7
6
CONTINUOUS
70
0
71
3
72
12
73
8
74
6
42
0.0000001000
43
0.0000001000
44
0.0000000001
12
3.6166639089
22
0.7700887706
32
0.0000000000
13
2.5898593224
23
2.6337765214
33
0.0000000000
40
0.0000000000
40
0.0000000000
40
0.0000000000
40
0.0000000000
40
0.1014858646
40
0.3325040242
40
0.5819366938
40
0.8487493125
40
1.0000000000
40
1.0000000000
40
1.0000000000
40
1.0000000000
10
-310.3830255163
20
-242.8875622505
30
0.0000000000
10
-310.2606787618
20
-242.8615112090
30
0.0000000000
10
-309.8636995158
20
-242.7576557762
30
0.0000000000
10
-309.1983984873
20
-242.4839649076
30
0.0000000000
10
-308.4084241321
20
-242.0072523411
30
0.0000000000
10
-307.7654388199
20
-241.4926879910
30
0.0000000000
10
-307.3935682739
20
-241.1364623475
30
0.0000000000
10
-307.2629956063
20
-241.0036755110
30
0.0000000000
11
-310.3830255163
21
-242.8875622505
31
0.0000000000
11
-310.0199182150
21
-242.7932212716
31
0.0000000000
11
-309.2290147371
21
-242.4740043327
31
0.0000000000
11
-308.4381112591
21
-242.0023177936
31
0.0000000000
11
-307.6666824497
21
-241.3897761423
31
0.0000000000
11
-307.2629956063
21
-241.0036755110
31
0.0000000000
0
SPLINE
5
333
100
AcDbEntity
8
0
100
AcDbSpline
62
7
6
CONTINUOUS
70
0
71
3
72
8
73
4
74
2
42
0.0000001000
43
0.0000001000
44
0.0000000001
12
0.0815087450
22
0.8124708248
32
0.0000000000
13
0.0000000000
23
0.8158270821
33
0.0000000000
40
0.0000000000
40
0.0000000000
40
0.0000000000
40
0.0000000000
40
1.0000000000
40
1.0000000000
40
1.0000000000
40
1.0000000000
10
-304.2149347885
20
-234.5688889779
30
0.0000000000
10
-304.1877652068
20
-234.2980653696
30
0.0000000000
10
-304.1732012516
20
-234.0259583136
30
0.0000000000
10
-304.1732012516
20
-233.7540159529
30
0.0000000000
11
-304.2149347885
21
-234.5688889779
31
0.0000000000
11
-304.1732012516
21
-233.7540159529
31
0.0000000000
0
SPLINE
5
334
100
AcDbEntity
8
0
100
AcDbSpline
62
7
6
CONTINUOUS
70
0
71
3
72
11
73
7
74
5
42
0.0000001000
43
0.0000001000
44
0.0000000001
12
2.8626522607
22
1.8830272411
32
0.0000000000
13
2.1802063759
23
2.6419075593
33
0.0000000000
40
0.0000000000
40
0.0000000000
40
0.0000000000
40
0.0000000000
40
0.0343867813
40
0.3790034239
40
0.7419867714
40
1.0000000000
40
1.0000000000
40
1.0000000000
40
1.0000000000
10
-309.0781398059
20
-243.6592417655
30
0.0000000000
10
-309.0453273402
20
-243.6376580169
30
0.0000000000
10
-308.6852072251
20
-243.3974551678
30
0.0000000000
10
-308.0132980560
20
-242.8789568738
30
0.0000000000
10
-307.2174095489
20
-242.1137861239
30
0.0000000000
10
-306.7485175873
20
-241.5814439101
30
0.0000000000
10
-306.5610102253
20
-241.3542282104
30
0.0000000000
11
-309.0781398059
21
-243.6592417655
31
0.0000000000
11
-308.9801195398
21
-243.5938681977
31
0.0000000000
11
-308.0435790048
21
-242.8760783024
31
0.0000000000
11
-307.1455651776
21
-242.0168530874
31
0.0000000000
11
-306.5610102253
21
-241.3542282104
31
0.0000000000
0
SPLINE
5
335
100
AcDbEntity
8
0
100
AcDbSpline
62
7
6
CONTINUOUS
70
0
71
3
72
9
73
5
74
3
42
0.0000001000
43
0.0000001000
44
0.0000000001
12
0.1627677366
22
1.3315262022
32
0.0000000000
13
0.0000000000
23
1.3407163552
33
0.0000000000
40
0.0000000000
40
0.0000000000
40
0.0000000000
40
0.0000000000
40
0.0997468937
40
1.0000000000
40
1.0000000000
40
1.0000000000
40
1.0000000000
10
-303.3024745364
20
-233.9075675333
30
0.0000000000
10
-303.2970626777
20
-233.8632956657
30
0.0000000000
10
-303.2452773523
20
-233.4191335330
30
0.0000000000
10
-303.2186070970
20
-232.9719401156
30
0.0000000000
10
-303.2186070970
20
-232.5696120944
30
0.0000000000
11
-303.3024745364
21
-233.9075675333
31
0.0000000000
11
-303.2869817080
21
-233.7746579201
31
0.0000000000
11
-303.2186070970
21
-232.5696120944
31
0.0000000000
0
SPLINE
5
336
100
AcDbEntity
8
0
100
AcDbSpline
62
7
6
CONTINUOUS
70
0
71
3
72
14
73
10
74
8
42
0.0000001000
43
0.0000001000
44
0.0000000001
12
5.6050508211
22
-2.8023852227
32
0.0000000000
13
5.2275796806
23
3.4379157780
33
0.0000000000
40
0.0000000000
40
0.0000000000
40
0.0000000000
40
0.0000000000
40
0.0754156359
40
0.2247512389
40
0.3805440020
40
0.5460150298
40
0.7232108240
40
0.9130172437
40
1.0000000000
40
1.0000000000
40
1.0000000000
40
1.0000000000
10
-315.9868005038
20
-245.2013001473
30
0.0000000000
10
-315.8458976799
20
-245.2717480351
30
0.0000000000
10
-315.4140341129
20
-245.4578021189
30
0.0000000000
10
-314.6367952647
20
-245.6452738636
30
0.0000000000
10
-313.6497067265
20
-245.6714985525
30
0.0000000000
10
-312.6189431977
20
-245.5035961943
30
0.0000000000
10
-311.5632900433
20
-245.1471451469
30
0.0000000000
10
-310.7163216388
20
-244.7189011798
30
0.0000000000
10
-310.2258798517
20
-244.4140989881
30
0.0000000000
10
-310.0743100886
20
-244.3144191913
30
0.0000000000
11
-315.9868005038
21
-245.2013001473
31
0.0000000000
11
-315.5530125980
21
-245.3881274912
31
0.0000000000
11
-314.6459585558
21
-245.6101596765
31
0.0000000000
11
-313.6722444593
21
-245.6413007767
31
0.0000000000
11
-312.6500087597
21
-245.4809706920
31
0.0000000000
11
-311.5982937740
21
-245.1321560685
31
0.0000000000
11
-310.5366909624
21
-244.6013546627
31
0.0000000000
11
-310.0743100886
21
-244.3144191913
31
0.0000000000
0
SPLINE
5
337
100
AcDbEntity
8
0
100
AcDbSpline
62
7
6
CONTINUOUS
70
0
71
3
72
9
73
5
74
3
42
0.0000001000
43
0.0000001000
44
0.0000000001
12
0.5913254304
22
-1.2761630967
32
0.0000000000
13
0.2098966766
23
-1.3904680351
33
0.0000000000
40
0.0000000000
40
0.0000000000
40
0.0000000000
40
0.0000000000
40
0.4333298338
40
1.0000000000
40
1.0000000000
40
1.0000000000
40
1.0000000000
10
-304.6370631618
20
-231.3949888641
30
0.0000000000
10
-304.5516501783
20
-231.5793220450
30
0.0000000000
10
-304.3864769289
20
-232.0194309833
30
0.0000000000
10
-304.2860045618
20
-232.4783675216
30
0.0000000000
10
-304.2463571669
20
-232.7410131057
30
0.0000000000
11
-304.6370631618
21
-231.3949888641
31
0.0000000000
11
-304.4206503766
21
-231.9642820590
31
0.0000000000
11
-304.2463571669
21
-232.7410131057
31
0.0000000000
0
SPLINE
5
338
100
AcDbEntity
8
0
100
AcDbSpline
62
7
6
CONTINUOUS
70
0
71
3
72
8
73
4
74
2
42
0.0000001000
43
0.0000001000
44
0.0000000001
12
0.0113823453
22
-0.0754027532
32
0.0000000000
13
0.0104416357
23
-0.0755354007
33
0.0000000000
40
0.0000000000
40
0.0000000000
40
0.0000000000
40
0.0000000000
40
1.0000000000
40
1.0000000000
40
1.0000000000
40
1.0000000000
10
-304.2463571669
20
-232.7410131057
30
0.0000000000
10
-304.2425630518
20
-232.7661473568
30
0.0000000000
10
-304.2389272505
20
-232.7913052345
30
0.0000000000
10
-304.2354467053
20
-232.8164837014
30
0.0000000000
11
-304.2463571669
21
-232.7410131057
31
0.0000000000
11
-304.2354467053
21
-232.8164837014
31
0.0000000000
0
SPLINE
5
339
100
AcDbEntity
8
0
100
AcDbSpline
62
7
6
CONTINUOUS
70
0
71
3
72
8
73
4
74
2
42
0.0000001000
43
0.0000001000
44
0.0000000001
12
0.1288074326
22
-0.9318004654
32
0.0000000000
13
0.0000000000
23
-0.9395963065
33
0.0000000000
40
0.0000000000
40
0.0000000000
40
0.0000000000
40
0.0000000000
40
1.0000000000
40
1.0000000000
40
1.0000000000
40
1.0000000000
10
-304.2354467053
20
-232.8164837014
30
0.0000000000
10
-304.1925108944
20
-233.1270838565
30
0.0000000000
10
-304.1732012516
20
-233.4408171841
30
0.0000000000
10
-304.1732012516
20
-233.7540159529
30
0.0000000000
11
-304.2354467053
21
-232.8164837014
31
0.0000000000
11
-304.1732012516
21
-233.7540159529
31
0.0000000000
0
SPLINE
5
33A
100
AcDbEntity
8
0
100
AcDbSpline
62
7
6
CONTINUOUS
70
0
71
3
72
8
73
4
74
2
42
0.0000001000
43
0.0000001000
44
0.0000000001
12
0.0368499223
22
-0.5944623568
32
0.0000000000
13
0.0000000000
23
-0.5951582595
33
0.0000000000
40
0.0000000000
40
0.0000000000
40
0.0000000000
40
0.0000000000
40
1.0000000000
40
1.0000000000
40
1.0000000000
40
1.0000000000
10
-303.2367264142
20
-231.9745437486
30
0.0000000000
10
-303.2244431068
20
-232.1726978676
30
0.0000000000
10
-303.2186070970
20
-232.3712260080
30
0.0000000000
10
-303.2186070970
20
-232.5696120944
30
0.0000000000
11
-303.2367264142
21
-231.9745437486
31
0.0000000000
11
-303.2186070970
21
-232.5696120944
31
0.0000000000
0
SPLINE
5
33B
100
AcDbEntity
8
0
100
AcDbSpline
62
7
6
CONTINUOUS
70
0
71
3
72
14
73
10
74
8
42
0.0000001000
43
0.0000001000
44
0.0000000001
12
5.6049648883
22
-2.8023422585
32
0.0000000000
13
0.3862203809
23
-6.2455528223
33
0.0000000000
40
0.0000000000
40
0.0000000000
40
0.0000000000
40
0.0000000000
40
0.0716092638
40
0.2208322789
40
0.3764153021
40
0.5416078958
40
0.7184876283
40
0.9079688028
40
1.0000000000
40
1.0000000000
40
1.0000000000
40
1.0000000000
10
-306.1481842325
20
-225.5240676130
30
0.0000000000
10
-306.0143950961
20
-225.5909588350
30
0.0000000000
10
-305.6129575976
20
-225.8195316476
30
0.0000000000
10
-305.0004738572
20
-226.3198588689
30
0.0000000000
10
-304.3840214266
20
-227.0896495160
30
0.0000000000
10
-303.8964538851
20
-228.0113103012
30
0.0000000000
10
-303.5446451728
20
-229.0665359954
30
0.0000000000
10
-303.3742069107
20
-230.0094551929
30
0.0000000000
10
-303.3220493076
20
-230.5945936815
30
0.0000000000
10
-303.3102011996
20
-230.7861889160
30
0.0000000000
11
-306.1481842325
21
-225.5240676130
31
0.0000000000
11
-305.7584748512
21
-225.7460274999
31
0.0000000000
11
-305.0338745153
21
-226.3339548438
31
0.0000000000
11
-304.4216690639
21
-227.0900703266
31
0.0000000000
11
-303.9332627263
21
-228.0002889475
31
0.0000000000
11
-303.5777535885
21
-229.0476550558
31
0.0000000000
11
-303.3617641130
21
-230.2126582026
31
0.0000000000
11
-303.3102011996
21
-230.7861889160
31
0.0000000000
0
SPLINE
5
33C
100
AcDbEntity
8
0
100
AcDbSpline
62
7
6
CONTINUOUS
70
0
71
3
72
8
73
4
74
2
42
0.0000001000
43
0.0000001000
44
0.0000000001
12
0.0004130068
22
-0.0098973603
32
0.0000000000
13
0.0004253494
23
-0.0098969440
33
0.0000000000
40
0.0000000000
40
0.0000000000
40
0.0000000000
40
0.0000000000
40
1.0000000000
40
1.0000000000
40
1.0000000000
40
1.0000000000
10
-315.9394543434
20
-238.9231967699
30
0.0000000000
10
-315.9393166745
20
-238.9264958900
30
0.0000000000
10
-315.9391769505
20
-238.9297949424
30
0.0000000000
10
-315.9390351673
20
-238.9330939238
30
0.0000000000
11
-315.9394543434
21
-238.9231967699
31
0.0000000000
11
-315.9390351673
21
-238.9330939238
31
0.0000000000
0
SPLINE
5
33D
100
AcDbEntity
8
0
100
AcDbSpline
62
7
6
CONTINUOUS
70
0
71
3
72
16
73
12
74
10
42
0.0000001000
43
0.0000001000
44
0.0000000001
12
0.3021564840
22
-7.0305168284
32
0.0000000000
13
6.8887017775
23
1.4659574256
33
0.0000000000
40
0.0000000000
40
0.0000000000
40
0.0000000000
40
0.0000000000
40
0.0924266602
40
0.2253295925
40
0.3485352372
40
0.4630488250
40
0.5709746291
40
0.6754432307
40
0.7802083745
40
0.8889677693
40
1.0000000000
40
1.0000000000
40
1.0000000000
40
1.0000000000
10
-315.9390351673
20
-238.9330939238
30
0.0000000000
10
-315.9297260625
20
-239.1496963204
30
0.0000000000
10
-315.8853908040
20
-239.6770104737
30
0.0000000000
10
-315.7248072430
20
-240.4810231155
30
0.0000000000
10
-315.4190112237
20
-241.2988600361
30
0.0000000000
10
-314.9957121388
20
-241.9961475076
30
0.0000000000
10
-314.4619564501
20
-242.5553063961
30
0.0000000000
10
-313.8292091384
20
-242.9597547447
30
0.0000000000
10
-313.1147222935
20
-243.1969969792
30
0.0000000000
10
-312.3501623361
20
-243.2610126499
30
0.0000000000
10
-311.8358261411
20
-243.1967552979
30
0.0000000000
10
-311.5808701662
20
-243.1424991236
30
0.0000000000
11
-315.9390351673
21
-238.9330939238
31
0.0000000000
11
-315.8833467702
21
-239.5810236504
31
0.0000000000
11
-315.6952109960
21
-240.4964844048
31
0.0000000000
11
-315.3863244779
21
-241.3059521172
31
0.0000000000
11
-314.9635872305
21
-241.9913446165
31
0.0000000000
11
-314.4364425051
21
-242.5373513669
31
0.0000000000
11
-313.8166658440
21
-242.9317754797
31
0.0000000000
11
-313.1181020336
21
-243.1658061722
31
0.0000000000
11
-312.3563558351
21
-243.2342155852
31
0.0000000000
11
-311.5808701662
21
-243.1424991236
31
0.0000000000
0
SPLINE
5
33E
100
AcDbEntity
8
0
100
AcDbSpline
62
7
6
CONTINUOUS
70
0
71
3
72
21
73
17
74
15
42
0.0000001000
43
0.0000001000
44
0.0000000001
12
0.0000000000
22
18.9215211411
32
0.0000000000
13
18.9100222388
23
1.2222535392
33
0.0000000000
40
0.0000000000
40
0.0000000000
40
0.0000000000
40
0.0000000000
40
0.0705731511
40
0.1444457068
40
0.2209311004
40
0.2992255175
40
0.3784491825
40
0.4576847783
40
0.5360145121
40
0.6125571638
40
0.6865064532
40
0.7571722307
40
0.8240262414
40
0.8867541805
40
0.9453145127
40
1.0000000000
40
1.0000000000
40
1.0000000000
40
1.0000000000
10
-318.8456669612
20
-239.2517711767
30
0.0000000000
10
-318.8456669612
20
-238.8066540534
30
0.0000000000
10
-318.7937024089
20
-237.8950617917
30
0.0000000000
10
-318.5753815647
20
-236.5168054414
30
0.0000000000
10
-318.2188180724
20
-235.1173978188
30
0.0000000000
10
-317.7305980261
20
-233.7226917818
30
0.0000000000
10
-317.1197051022
20
-232.3582152972
30
0.0000000000
10
-316.3973733910
20
-231.0490644646
30
0.0000000000
10
-315.5768748813
20
-229.8193000438
30
0.0000000000
10
-314.6732544435
20
-228.6915127062
30
0.0000000000
10
-313.7030152449
20
-227.6863887540
30
0.0000000000
10
-312.6837585909
20
-226.8223434203
30
0.0000000000
10
-311.6337864047
20
-226.1152371769
30
0.0000000000
10
-310.5716946931
20
-225.5782226133
30
0.0000000000
10
-309.5160415387
20
-225.2217715660
30
0.0000000000
10
-308.8074415373
20
-225.1063468270
30
0.0000000000
10
-308.4627402771
20
-225.0840669835
30
0.0000000000
11
-318.8456669612
21
-239.2517711767
31
0.0000000000
11
-318.7732206233
21
-237.9183864578
31
0.0000000000
11
-318.5572311478
21
-236.5373938355
31
0.0000000000
11
-318.2017220100
21
-235.1345185893
31
0.0000000000
11
-317.7133156724
21
-233.7358936308
31
0.0000000000
11
-317.1011102211
21
-232.3675726967
31
0.0000000000
11
-316.3765098852
21
-231.0550450169
31
0.0000000000
11
-315.5530125980
21
-229.8227604988
31
0.0000000000
11
-314.6459585558
21
-228.6936742714
31
0.0000000000
11
-313.6722444593
21
-227.6888190747
31
0.0000000000
11
-312.6500087597
21
-226.8269134598
31
0.0000000000
11
-311.5982937740
21
-226.1240130975
31
0.0000000000
11
-310.5366909624
21
-225.5932116917
31
0.0000000000
11
-309.4849759766
21
-225.2443970683
31
0.0000000000
11
-308.4627402771
21
-225.0840669835
31
0.0000000000
0
SPLINE
5
33F
100
AcDbEntity
8
0
100
AcDbSpline
62
7
6
CONTINUOUS
70
0
71
3
72
8
73
4
74
2
42
0.0000001000
43
0.0000001000
44
0.0000000001
12
0.9736198993
22
0.0629301411
32
0.0000000000
13
0.9671901622
23
-0.1303082524
33
0.0000000000
40
0.0000000000
40
0.0000000000
40
0.0000000000
40
0.0000000000
40
1.0000000000
40
1.0000000000
40
1.0000000000
40
1.0000000000
10
-308.4627402771
20
-225.0840669835
30
0.0000000000
10
-308.1382003106
20
-225.0630902698
30
0.0000000000
10
-307.8114229013
20
-225.0717719996
30
0.0000000000
10
-307.4890261805
20
-225.1152080837
30
0.0000000000
11
-308.4627402771
21
-225.0840669835
31
0.0000000000
11
-307.4890261805
21
-225.1152080837
31
0.0000000000
0
SPLINE
5
340
100
AcDbEntity
8
0
100
AcDbSpline
62
7
6
CONTINUOUS
70
0
71
3
72
9
73
5
74
3
42
0.0000001000
43
0.0000001000
44
0.0000000001
12
1.3952970788
22
-0.1879865316
32
0.0000000000
13
1.2597421164
23
-0.6298395508
33
0.0000000000
40
0.0000000000
40
0.0000000000
40
0.0000000000
40
0.0000000000
40
0.6644484086
40
1.0000000000
40
1.0000000000
40
1.0000000000
40
1.0000000000
10
-307.4890261805
20
-225.1152080837
30
0.0000000000
10
-307.1799918727
20
-225.1568438676
30
0.0000000000
10
-306.7209506234
20
-225.2675656413
30
0.0000000000
10
-306.2890870565
20
-225.4536197251
30
0.0000000000
10
-306.1481842325
20
-225.5240676130
30
0.0000000000
11
-307.4890261805
21
-225.1152080837
31
0.0000000000
11
-306.5819721384
21
-225.3372402690
31
0.0000000000
11
-306.1481842325
21
-225.5240676130
31
0.0000000000
0
SPLINE
5
341
100
AcDbEntity
8
0
100
AcDbSpline
62
7
6
CONTINUOUS
70
0
71
3
72
28
73
24
74
22
42
0.0000001000
43
0.0000001000
44
0.0000000001
12
0.0000000000
22
22.5317686710
32
0.0000000000
13
4.8437492835
23
-22.0219960840
33
0.0000000000
40
0.0000000000
40
0.0000000000
40
0.0000000000
40
0.0000000000
40
0.0535681012
40
0.1097286954
40
0.1679053629
40
0.2274234581
40
0.2875471548
40
0.3475139836
40
0.4065683209
40
0.4639951447
40
0.5191554092
40
0.5715246027
40
0.6207362594
40
0.6666318348
40
0.7093159414
40
0.7492085554
40
0.7870706955
40
0.8239635998
40
0.8611109382
40
0.8996924175
40
0.9406571000
40
0.9846262997
40
1.0000000000
40
1.0000000000
40
1.0000000000
40
1.0000000000
10
-316.6536359396
20
-239.2871265157
30
0.0000000000
10
-316.6536359396
20
-238.8847984946
30
0.0000000000
10
-316.6044539872
20
-238.0601402706
30
0.0000000000
10
-316.3985083637
20
-236.8140329367
30
0.0000000000
10
-316.0626699391
20
-235.5502150518
30
0.0000000000
10
-315.6037070671
20
-234.2941720614
30
0.0000000000
10
-315.0308366968
20
-233.0710006072
30
0.0000000000
10
-314.3555561937
20
-231.9052587811
30
0.0000000000
10
-313.5914016279
20
-230.8203283732
30
0.0000000000
10
-312.7536466570
20
-229.8379519067
30
0.0000000000
10
-311.8589449806
20
-228.9777817364
30
0.0000000000
10
-310.9249217076
20
-228.2570154545
30
0.0000000000
10
-309.9697296346
20
-227.6901471305
30
0.0000000000
10
-309.0116275061
20
-227.2889003786
30
0.0000000000
10
-308.0687398833
20
-227.0623883103
30
0.0000000000
10
-307.1593002322
20
-227.0173569895
30
0.0000000000
10
-306.3025367318
20
-227.1578369393
30
0.0000000000
10
-305.5191888774
20
-227.4832472691
30
0.0000000000
10
-304.8295328067
20
-227.9860227121
30
0.0000000000
10
-304.2497334841
20
-228.6521699974
30
0.0000000000
10
-303.7905866815
20
-229.4645526805
30
0.0000000000
10
-303.5390479139
20
-230.1782367568
30
0.0000000000
10
-303.4328119364
20
-230.6115541940
30
0.0000000000
10
-303.4079898198
20
-230.7244073833
30
0.0000000000
11
-316.6536359396
21
-239.2871265157
31
0.0000000000
11
-316.5852613286
21
-238.0820806901
31
0.0000000000
11
-316.3815294056
21
-236.8331915114
31
0.0000000000
11
-316.0465875651
21
-235.5658827620
31
0.0000000000
11
-315.5872542570
21
-234.3059531932
31
0.0000000000
11
-315.0128801829
21
-233.0790513378
31
0.0000000000
11
-314.3351579425
21
-231.9101533794
31
0.0000000000
11
-313.5678840063
21
-230.8230547097
31
0.0000000000
11
-312.7266778589
21
-229.8398855227
31
0.0000000000
11
-311.8286640318
21
-228.9806603078
31
0.0000000000
11
-310.8921234967
21
-228.2628704125
31
0.0000000000
11
-309.9361215183
21
-227.7011279691
31
0.0000000000
11
-308.9801195398
21
-227.3068684340
31
0.0000000000
11
-308.0435790048
21
-227.0881177942
31
0.0000000000
11
-307.1455651776
21
-227.0493291821
31
0.0000000000
11
-306.3043590303
21
-227.1912922218
31
0.0000000000
11
-305.5370850941
21
-227.5111169552
31
0.0000000000
11
-304.8593628537
21
-228.0022926732
31
0.0000000000
11
-304.2849887795
21
-228.6548204544
31
0.0000000000
11
-303.8256554714
21
-229.4554167151
31
0.0000000000
11
-303.4907136309
21
-230.3877836241
31
0.0000000000
11
-303.4079898198
21
-230.7244073833
31
0.0000000000
0
SPLINE
5
342
100
AcDbEntity
8
0
100
AcDbSpline
62
7
6
CONTINUOUS
70
0
71
3
72
8
73
4
74
2
42
0.0000001000
43
0.0000001000
44
0.0000000001
12
0.0170437112
22
-0.0774888460
32
0.0000000000
13
0.0162007508
23
-0.0776706790
33
0.0000000000
40
0.0000000000
40
0.0000000000
40
0.0000000000
40
0.0000000000
40
1.0000000000
40
1.0000000000
40
1.0000000000
40
1.0000000000
10
-303.4079898198
20
-230.7244073833
30
0.0000000000
10
-303.4023085827
20
-230.7502369986
30
0.0000000000
10
-303.3967687837
20
-230.7760978132
30
0.0000000000
10
-303.3913685334
20
-230.8019880395
30
0.0000000000
11
-303.4079898198
21
-230.7244073833
31
0.0000000000
11
-303.3913685334
21
-230.8019880395
31
0.0000000000
0
SPLINE
5
343
100
AcDbEntity
8
0
100
AcDbSpline
62
7
6
CONTINUOUS
70
0
71
3
72
9
73
5
74
3
42
0.0000001000
43
0.0000001000
44
0.0000000001
12
0.2416786224
22
-1.1586711608
32
0.0000000000
13
0.0732293203
23
-1.1813342236
33
0.0000000000
40
0.0000000000
40
0.0000000000
40
0.0000000000
40
0.0000000000
40
0.5404077947
40
1.0000000000
40
1.0000000000
40
1.0000000000
40
1.0000000000
10
-303.3913685334
20
-230.8019880395
30
0.0000000000
10
-303.3478335296
20
-231.0107063484
30
0.0000000000
10
-303.2840563826
20
-231.4004671783
30
0.0000000000
10
-303.2479449558
20
-231.7935664150
30
0.0000000000
10
-303.2367264142
20
-231.9745437486
30
0.0000000000
11
-303.3913685334
21
-230.8019880395
31
0.0000000000
11
-303.2869817080
21
-231.4329408798
31
0.0000000000
11
-303.2367264142
21
-231.9745437486
31
0.0000000000
0
SPLINE
5
344
100
AcDbEntity
8
0
100
AcDbSpline
62
7
6
CONTINUOUS
70
0
71
3
72
8
73
4
74
2
42
0.0000001000
43
0.0000001000
44
0.0000000001
12
0.2123008957
22
-0.1246822634
32
0.0000000000
13
0.2022543637
23
-0.1404245382
33
0.0000000000
40
0.0000000000
40
0.0000000000
40
0.0000000000
40
0.0000000000
40
1.0000000000
40
1.0000000000
40
1.0000000000
40
1.0000000000
10
-306.3002201367
20
-228.2511560125
30
0.0000000000
10
-306.2294531715
20
-228.2927167670
30
0.0000000000
10
-306.1602699095
20
-228.3369879084
30
0.0000000000
10
-306.0928517882
20
-228.3837960878
30
0.0000000000
11
-306.3002201367
21
-228.2511560125
31
0.0000000000
11
-306.0928517882
21
-228.3837960878
31
0.0000000000
0
SPLINE
5
345
100
AcDbEntity
8
0
100
AcDbSpline
62
7
6
CONTINUOUS
70
0
71
3
72
13
73
9
74
7
42
0.0000001000
43
0.0000001000
44
0.0000000001
12
3.8516506686
22
-2.6741883654
32
0.0000000000
13
0.1191447595
23
-4.6779200416
33
0.0000000000
40
0.0000000000
40
0.0000000000
40
0.0000000000
40
0.0000000000
40
0.0559082864
40
0.2283191433
40
0.4112539472
40
0.6080742625
40
0.8203859394
40
1.0000000000
40
1.0000000000
40
1.0000000000
40
1.0000000000
10
-306.0928517882
20
-228.3837960878
30
0.0000000000
10
-306.0210720586
20
-228.4336325175
30
0.0000000000
10
-305.7361082528
20
-228.6489000579
30
0.0000000000
10
-305.2895103521
20
-229.1167530308
30
0.0000000000
10
-304.8397550744
20
-229.8576209693
30
0.0000000000
10
-304.5148468039
20
-230.7265726975
30
0.0000000000
10
-304.3344320618
20
-231.6298764510
30
0.0000000000
10
-304.2892532484
20
-232.2406692936
30
0.0000000000
10
-304.2821198903
20
-232.5207426982
30
0.0000000000
11
-306.0928517882
21
-228.3837960878
31
0.0000000000
11
-305.8837343378
21
-228.5417239304
31
0.0000000000
11
-305.3236430672
21
-229.1218561026
31
0.0000000000
11
-304.8744847418
21
-229.8500856331
31
0.0000000000
11
-304.5462928163
21
-230.7101450775
31
0.0000000000
11
-304.3463985562
21
-231.6828221291
31
0.0000000000
11
-304.2821198903
21
-232.5207426982
31
0.0000000000
0
SPLINE
5
346
100
AcDbEntity
8
0
100
AcDbSpline
62
7
6
CONTINUOUS
70
0
71
3
72
13
73
9
74
7
42
0.0000001000
43
0.0000001000
44
0.0000000001
12
4.8067091774
22
-2.4044626107
32
0.0000000000
13
-0.0000000000
23
-5.3621237719
33
0.0000000000
40
0.0000000000
40
0.0000000000
40
0.0000000000
40
0.0000000000
40
0.1344422122
40
0.2848274496
40
0.4443921917
40
0.6160685604
40
0.8012572573
40
1.0000000000
40
1.0000000000
40
1.0000000000
40
1.0000000000
10
-306.1349658095
20
-228.3256674108
30
0.0000000000
10
-305.9195576044
20
-228.4334211683
30
0.0000000000
10
-305.4892209739
20
-228.7139340482
30
0.0000000000
10
-304.9359569615
20
-229.2935297261
30
0.0000000000
10
-304.4862016838
20
-230.0343976646
30
0.0000000000
10
-304.1612934133
20
-230.9033493927
30
0.0000000000
10
-303.9660970336
20
-231.8806621136
30
0.0000000000
10
-303.9257138782
20
-232.5679377566
30
0.0000000000
10
-303.9257138782
20
-232.9231654850
30
0.0000000000
11
-306.1349658095
21
-228.3256674108
31
0.0000000000
11
-305.5301809473
21
-228.7185006257
31
0.0000000000
11
-304.9700896766
21
-229.2986327979
31
0.0000000000
11
-304.5209313512
21
-230.0268623284
31
0.0000000000
11
-304.1927394257
21
-230.8869217728
31
0.0000000000
11
-303.9928451656
21
-231.8595988244
31
0.0000000000
11
-303.9257138782
21
-232.9231654850
31
0.0000000000
0
SPLINE
5
347
100
AcDbEntity
8
0
100
AcDbSpline
62
7
6
CONTINUOUS
70
0
71
3
72
18
73
14
74
12
42
0.0000001000
43
0.0000001000
44
0.0000000001
12
0.0000000000
22
-10.0499444532
32
0.0000000000
13
9.2017758367
23
4.0651372609
33
0.0000000000
40
0.0000000000
40
0.0000000000
40
0.0000000000
40
0.0000000000
40
0.1133066799
40
0.2192603806
40
0.3178384215
40
0.4096803967
40
0.4961792796
40
0.5794628477
40
0.6621759801
40
0.7470621192
40
0.8365005389
40
0.9321974276
40
1.0000000000
40
1.0000000000
40
1.0000000000
40
1.0000000000
10
-316.6536359396
20
-239.2871265157
30
0.0000000000
10
-316.6536359396
20
-239.6667017956
30
0.0000000000
10
-316.6122936921
20
-240.4022263194
30
0.0000000000
10
-316.4131530704
20
-241.4516393518
30
0.0000000000
10
-316.0816563550
20
-242.3921859296
30
0.0000000000
10
-315.6225095524
20
-243.2045686128
30
0.0000000000
10
-315.0427102298
20
-243.8707158980
30
0.0000000000
10
-314.3530541591
20
-244.3734913411
30
0.0000000000
10
-313.5697063047
20
-244.6989016708
30
0.0000000000
10
-312.7129428044
20
-244.8393816206
30
0.0000000000
10
-311.8035031532
20
-244.7943502998
30
0.0000000000
10
-310.9754986431
20
-244.5954368667
30
0.0000000000
10
-310.4634471094
20
-244.3978817045
30
0.0000000000
10
-310.2554790854
20
-244.3060061167
30
0.0000000000
11
-316.6536359396
21
-239.2871265157
31
0.0000000000
11
-316.5852613286
21
-240.4237977304
31
0.0000000000
11
-316.3815294056
21
-241.4689549861
31
0.0000000000
11
-316.0465875651
21
-242.4013218950
31
0.0000000000
11
-315.5872542570
21
-243.2019181557
31
0.0000000000
11
-315.0128801829
21
-243.8544459370
31
0.0000000000
11
-314.3351579425
21
-244.3456216549
31
0.0000000000
11
-313.5678840063
21
-244.6654463884
31
0.0000000000
11
-312.7266778589
21
-244.8074094281
31
0.0000000000
11
-311.8286640318
21
-244.7686208159
31
0.0000000000
11
-310.8921234967
21
-244.5498701762
31
0.0000000000
11
-310.2554790854
21
-244.3060061167
31
0.0000000000
0
SPLINE
5
348
100
AcDbEntity
8
0
100
AcDbSpline
62
7
6
CONTINUOUS
70
0
71
3
72
9
73
5
74
3
42
0.0000001000
43
0.0000001000
44
0.0000000001
12
1.2303725036
22
0.5435508534
32
0.0000000000
13
1.1234721267
23
0.7390099902
33
0.0000000000
40
0.0000000000
40
0.0000000000
40
0.0000000000
40
0.0000000000
40
0.2624656053
40
1.0000000000
40
1.0000000000
40
1.0000000000
40
1.0000000000
10
-310.2554790854
20
-244.3060061167
30
0.0000000000
10
-310.1478355974
20
-244.2584516488
30
0.0000000000
10
-309.7421798684
20
-244.0671115306
30
0.0000000000
10
-309.3543395842
20
-243.8409235274
30
0.0000000000
10
-309.0781398059
20
-243.6592417655
30
0.0000000000
11
-310.2554790854
21
-244.3060061167
31
0.0000000000
11
-309.9361215183
21
-244.1556106410
31
0.0000000000
11
-309.0781398059
21
-243.6592417655
31
0.0000000000
0
SPLINE
5
349
100
AcDbEntity
8
0
100
AcDbSpline
62
7
6
CONTINUOUS
70
0
71
3
72
9
73
5
74
3
42
0.0000001000
43
0.0000001000
44
0.0000000001
12
0.3037795857
22
0.2291843229
32
0.0000000000
13
0.3247456120
23
0.1984428140
33
0.0000000000
40
0.0000000000
40
0.0000000000
40
0.0000000000
40
0.0000000000
40
0.4956255797
40
1.0000000000
40
1.0000000000
40
1.0000000000
40
1.0000000000
10
-310.2510768733
20
-238.5485134467
30
0.0000000000
10
-310.2008898955
20
-238.5106502424
30
0.0000000000
10
-310.0975593844
20
-238.4369685544
30
0.0000000000
10
-309.9907792623
20
-238.3684166632
30
0.0000000000
10
-309.9361814690
20
-238.3350535035
30
0.0000000000
11
-310.2510768733
21
-238.5485134467
31
0.0000000000
11
-310.0976160279
21
-238.4388732913
31
0.0000000000
11
-309.9361814690
21
-238.3350535035
31
0.0000000000
0
SPLINE
5
34A
100
AcDbEntity
8
0
100
AcDbSpline
62
7
6
CONTINUOUS
70
0
71
3
72
17
73
13
74
11
42
0.0000001000
43
0.0000001000
44
0.0000000001
12
5.8623396320
22
4.2124240216
32
0.0000000000
13
3.0369054219
23
-6.5538791576
33
0.0000000000
40
0.0000000000
40
0.0000000000
40
0.0000000000
40
0.0000000000
40
0.0945212920
40
0.2255575623
40
0.3470786215
40
0.4599073776
40
0.5659280602
40
0.6680550727
40
0.7698930103
40
0.8751010932
40
0.9867310704
40
1.0000000000
40
1.0000000000
40
1.0000000000
40
1.0000000000
10
-311.2830878043
20
-229.4277422108
30
0.0000000000
10
-311.0983824989
20
-229.2950209572
30
0.0000000000
10
-310.6444807759
20
-228.9966291627
30
0.0000000000
10
-309.8974066877
20
-228.6180519796
30
0.0000000000
10
-309.0572477115
20
-228.3469873287
30
0.0000000000
10
-308.2402854494
20
-228.2412433504
30
0.0000000000
10
-307.4646275242
20
-228.3061882403
30
0.0000000000
10
-306.7501406794
20
-228.5434304749
30
0.0000000000
10
-306.1173933676
20
-228.9478788235
30
0.0000000000
10
-305.5836376790
20
-229.5070377120
30
0.0000000000
10
-305.2945543804
20
-229.9832356757
30
0.0000000000
10
-305.1652373018
20
-230.2547823591
30
0.0000000000
10
-305.1518051403
20
-230.2837700129
30
0.0000000000
11
-311.2830878043
21
-229.4277422108
31
0.0000000000
11
-310.7124121563
21
-229.0541306646
31
0.0000000000
11
-309.8669376614
21
-228.6313934172
31
0.0000000000
11
-309.0309064180
21
-228.3677096539
31
0.0000000000
11
-308.2229939827
21
-228.2689696343
31
0.0000000000
11
-307.4612477841
21
-228.3373790474
31
0.0000000000
11
-306.7626839737
21
-228.5714097398
31
0.0000000000
11
-306.1429073126
21
-228.9658338527
31
0.0000000000
11
-305.6157625873
21
-229.5118406030
31
0.0000000000
11
-305.1930253398
21
-230.1972331023
31
0.0000000000
11
-305.1518051403
21
-230.2837700129
31
0.0000000000
0
SPLINE
5
34B
100
AcDbEntity
8
0
100
AcDbSpline
62
7
6
CONTINUOUS
70
0
71
3
72
20
73
16
74
14
42
0.0000001000
43
0.0000001000
44
0.0000000001
12
-6.6502428143
22
-0.6912327740
32
0.0000000000
13
4.9251246166
23
4.5218004985
33
0.0000000000
40
0.0000000000
40
0.0000000000
40
0.0000000000
40
0.0000000000
40
0.0605784697
40
0.1180586992
40
0.1757672670
40
0.2369623545
40
0.3039483185
40
0.3777636601
40
0.4583188143
40
0.5446693091
40
0.6352741831
40
0.7282130790
40
0.8213742251
40
0.9126279961
40
1.0000000000
40
1.0000000000
40
1.0000000000
40
1.0000000000
10
-309.9361215183
20
-239.3135117470
30
0.0000000000
10
-310.0704086960
20
-239.3274696882
30
0.0000000000
10
-310.3375292615
20
-239.3222124998
30
0.0000000000
10
-310.7149951333
20
-239.1956255590
30
0.0000000000
10
-311.0342127252
20
-238.9551524134
30
0.0000000000
10
-311.2801752873
20
-238.6152790280
30
0.0000000000
10
-311.4465719150
20
-238.1928333523
30
0.0000000000
10
-311.5305389935
20
-237.7038280985
30
0.0000000000
10
-311.5307705292
20
-237.1651661680
30
0.0000000000
10
-311.4479060505
20
-236.5954839620
30
0.0000000000
10
-311.2851011682
20
-236.0148286138
30
0.0000000000
10
-311.0482465017
20
-235.4439022836
30
0.0000000000
10
-310.7458196836
20
-234.9031458639
30
0.0000000000
10
-310.3887893461
20
-234.4120949669
30
0.0000000000
10
-310.1149161931
20
-234.1212025590
30
0.0000000000
10
-309.9714768573
20
-233.9895096354
30
0.0000000000
11
-309.9361215183
21
-239.3135117470
31
0.0000000000
11
-310.3409623337
21
-239.3010720487
31
0.0000000000
11
-310.7048172281
21
-239.1773423099
31
0.0000000000
11
-311.0142733846
21
-238.9468816564
31
0.0000000000
11
-311.2579227966
21
-238.6181834924
31
0.0000000000
11
-311.4267828269
21
-238.2033625960
31
0.0000000000
11
-311.5146274037
21
-237.7177087333
31
0.0000000000
11
-311.5182166451
21
-237.1791232921
31
0.0000000000
11
-311.4374165334
21
-236.6074598288
31
0.0000000000
11
-311.2752038077
21
-236.0237910874
31
0.0000000000
11
-311.0375564816
21
-235.4496337108
31
0.0000000000
11
-310.7332336902
21
-234.9061545884
31
0.0000000000
11
-310.3734535144
21
-234.4133912106
31
0.0000000000
11
-309.9714768573
21
-233.9895096354
31
0.0000000000
0
SPLINE
5
34C
100
AcDbEntity
8
0
100
AcDbSpline
62
7
6
CONTINUOUS
70
0
71
3
72
16
73
12
74
10
42
0.0000001000
43
0.0000001000
44
0.0000000001
12
0.0000000000
22
-6.5994417060
32
0.0000000000
13
6.4649702725
23
1.3765727573
33
0.0000000000
40
0.0000000000
40
0.0000000000
40
0.0000000000
40
0.0000000000
40
0.1423751203
40
0.2745217613
40
0.3965484801
40
0.5097112710
40
0.6165414700
40
0.7206928574
40
0.8263602658
40
0.9374270193
40
1.0000000000
40
1.0000000000
40
1.0000000000
40
1.0000000000
10
-314.2848282226
20
-238.8098294384
30
0.0000000000
10
-314.2848282226
20
-239.1230282073
30
0.0000000000
10
-314.2475961758
20
-239.7279557080
30
0.0000000000
10
-314.0669327862
20
-240.5849511195
30
0.0000000000
10
-313.7662159998
20
-241.3400070248
30
0.0000000000
10
-313.3501892744
20
-241.9740063257
30
0.0000000000
10
-312.8265342104
20
-242.4685753706
30
0.0000000000
10
-312.2084972606
20
-242.8066696736
30
0.0000000000
10
-311.5157239224
20
-242.9769712111
30
0.0000000000
10
-310.8960458039
20
-242.9769136230
30
0.0000000000
10
-310.5178696698
20
-242.9162743374
30
0.0000000000
10
-310.3830255163
20
-242.8875622505
30
0.0000000000
11
-314.2848282226
21
-238.8098294384
31
0.0000000000
11
-314.2225827689
21
-239.7473616900
31
0.0000000000
11
-314.0373790976
21
-240.5995633324
31
0.0000000000
11
-313.7337775377
21
-241.3454503328
31
0.0000000000
11
-313.3192537672
21
-241.9666564780
31
0.0000000000
11
-312.8040147371
21
-242.4478856109
31
0.0000000000
11
-312.2007473422
21
-242.7772882732
31
0.0000000000
11
-311.5243060280
21
-242.9467534780
31
0.0000000000
11
-310.7913470245
21
-242.9521084297
31
0.0000000000
11
-310.3830255163
21
-242.8875622505
31
0.0000000000
0
SPLINE
5
34D
100
AcDbEntity
8
0
100
AcDbSpline
62
7
6
CONTINUOUS
70
0
71
3
72
12
73
8
74
6
42
0.0000001000
43
0.0000001000
44
0.0000000001
12
0.2743156880
22
1.4752127108
32
0.0000000000
13
0.8704151595
23
1.2219658449
33
0.0000000000
40
0.0000000000
40
0.0000000000
40
0.0000000000
40
0.0000000000
40
0.1184172553
40
0.3169538991
40
0.5300598996
40
0.7573087454
40
1.0000000000
40
1.0000000000
40
1.0000000000
40
1.0000000000
10
-309.0411428318
20
-234.6290648896
30
0.0000000000
10
-309.0303149282
20
-234.5708346762
30
0.0000000000
10
-308.9982952310
20
-234.4155404358
30
0.0000000000
10
-308.9304446533
20
-234.1590546205
30
0.0000000000
10
-308.8242566268
20
-233.8572710668
30
0.0000000000
10
-308.6803219272
20
-233.5468597719
30
0.0000000000
10
-308.5569666659
20
-233.3459009898
30
0.0000000000
10
-308.4865526168
20
-233.2470475152
30
0.0000000000
11
-309.0411428318
21
-234.6290648896
31
0.0000000000
11
-309.0051953999
21
-234.4550644932
31
0.0000000000
11
-308.9286516611
21
-234.1672081111
31
0.0000000000
11
-308.8220160777
21
-233.8657979115
31
0.0000000000
11
-308.6778873428
21
-233.5568254234
31
0.0000000000
11
-308.4865526168
21
-233.2470475152
31
0.0000000000
0
SPLINE
5
34E
100
AcDbEntity
8
0
100
AcDbSpline
62
7
6
CONTINUOUS
70
0
71
3
72
14
73
10
74
8
42
0.0000001000
43
0.0000001000
44
0.0000000001
12
2.7992191271
22
0.2292312730
32
0.0000000000
13
-0.0255094818
23
-2.8112385081
33
0.0000000000
40
0.0000000000
40
0.0000000000
40
0.0000000000
40
0.0000000000
40
0.1432974779
40
0.2798384121
40
0.4176200293
40
0.5642699140
40
0.7250265977
40
0.9021131543
40
1.0000000000
40
1.0000000000
40
1.0000000000
40
1.0000000000
10
-308.4865526168
20
-233.2470475152
30
0.0000000000
10
-308.3528456031
20
-233.2360980941
30
0.0000000000
10
-308.0869670938
20
-233.2477184675
30
0.0000000000
10
-307.7137228144
20
-233.3841871459
30
0.0000000000
10
-307.4002541465
20
-233.6336123076
30
0.0000000000
10
-307.1608223419
20
-233.9809944558
30
0.0000000000
10
-307.0012522902
20
-234.4095788804
30
0.0000000000
10
-306.9380587497
20
-234.8148753395
30
0.0000000000
10
-306.9302040200
20
-235.0726161362
30
0.0000000000
10
-306.9310363676
20
-235.1643438929
30
0.0000000000
11
-308.4865526168
21
-233.2470475152
31
0.0000000000
11
-308.0846841857
21
-233.2689304323
31
0.0000000000
11
-307.7249655293
21
-233.4018405336
31
0.0000000000
11
-307.4206607060
21
-233.6408926214
31
0.0000000000
11
-307.1829936464
21
-233.9772836766
31
0.0000000000
11
-307.0207302594
21
-234.3986177663
31
0.0000000000
11
-306.9398547176
21
-234.8893616228
31
0.0000000000
11
-306.9310363676
21
-235.1643438929
31
0.0000000000
0
SPLINE
5
34F
100
AcDbEntity
8
0
100
AcDbSpline
62
7
6
CONTINUOUS
70
0
71
3
72
25
73
21
74
19
42
0.0000001000
43
0.0000001000
44
0.0000000001
12
0.0000000000
22
15.9322687331
32
0.0000000000
13
6.7075120115
23
-14.4757503394
33
0.0000000000
40
0.0000000000
40
0.0000000000
40
0.0000000000
40
0.0000000000
40
0.0628732497
40
0.1290162133
40
0.1975890015
40
0.2676105023
40
0.3380206399
40
0.4077387550
40
0.4757210114
40
0.5410195571
40
0.6028464696
40
0.6606460291
40
0.7141785030
40
0.7636141142
40
0.8096200269
40
0.8533894306
40
0.8965308702
40
0.9407819234
40
0.9876560538
40
1.0000000000
40
1.0000000000
40
1.0000000000
40
1.0000000000
10
-314.2848282226
20
-238.8098294384
30
0.0000000000
10
-314.2848282226
20
-238.4759249350
30
0.0000000000
10
-314.2397726468
20
-237.7902417677
30
0.0000000000
10
-314.0525530657
20
-236.7558003566
30
0.0000000000
10
-313.7483818737
20
-235.7099424591
30
0.0000000000
10
-313.3346462689
20
-234.6781080447
30
0.0000000000
10
-312.8213638831
20
-233.6851679959
30
0.0000000000
10
-312.2209514123
20
-232.7551661269
30
0.0000000000
10
-311.5478951704
20
-231.9105814226
30
0.0000000000
10
-310.8183407330
20
-231.1717919036
30
0.0000000000
10
-310.0496053421
20
-230.5565930502
30
0.0000000000
10
-309.2596309868
20
-230.0798804837
30
0.0000000000
10
-308.4664543609
20
-229.7535842803
30
0.0000000000
10
-307.6879432768
20
-229.5869434741
30
0.0000000000
10
-306.9423055518
20
-229.5868741802
30
0.0000000000
10
-306.2495322136
20
-229.7571757177
30
0.0000000000
10
-305.6314952638
20
-230.0952700208
30
0.0000000000
10
-305.1078401998
20
-230.5898390657
30
0.0000000000
10
-304.8039957412
20
-231.0528794487
30
0.0000000000
10
-304.6646622176
20
-231.3354262363
30
0.0000000000
10
-304.6370631618
20
-231.3949888641
30
0.0000000000
11
-314.2848282226
21
-238.8098294384
31
0.0000000000
11
-314.2225827689
21
-237.8100517332
31
0.0000000000
11
-314.0373790976
21
-236.7726464195
31
0.0000000000
11
-313.7337775377
21
-235.7231578592
31
0.0000000000
11
-313.3192537672
21
-234.6874279435
31
0.0000000000
11
-312.8040147371
21
-233.6909597804
31
0.0000000000
11
-312.2007473422
21
-232.7582897233
31
0.0000000000
11
-311.5243060280
21
-231.9123832042
31
0.0000000000
11
-310.7913470245
21
-231.1740692490
31
0.0000000000
11
-310.0199182150
21
-230.5615275977
31
0.0000000000
11
-309.2290147371
21
-230.0898410586
31
0.0000000000
11
-308.4381112591
21
-229.7706241198
31
0.0000000000
11
-307.6666824497
21
-229.6117369616
31
0.0000000000
11
-306.9337234462
21
-229.6170919133
31
0.0000000000
11
-306.2572821320
21
-229.7865571182
31
0.0000000000
11
-305.6540147371
21
-230.1159597804
31
0.0000000000
11
-305.1387757069
21
-230.5971889133
31
0.0000000000
11
-304.7242519364
21
-231.2183950585
31
0.0000000000
11
-304.6370631618
21
-231.3949888641
31
0.0000000000
0
SPLINE
5
350
100
AcDbEntity
8
0
100
AcDbSpline
62
7
6
CONTINUOUS
70
0
71
3
72
12
73
8
74
6
42
0.0000001000
43
0.0000001000
44
0.0000000001
12
0.0000000000
22
-4.9169746218
32
0.0000000000
13
2.9719785125
23
-3.9278194038
33
0.0000000000
40
0.0000000000
40
0.0000000000
40
0.0000000000
40
0.0000000000
40
0.2568688961
40
0.4978414677
40
0.7227881630
40
0.9328717463
40
1.0000000000
40
1.0000000000
40
1.0000000000
40
1.0000000000
10
-318.8456669612
20
-239.2517711767
30
0.0000000000
10
-318.8456669612
20
-239.6727771244
30
0.0000000000
10
-318.8016590060
20
-240.4897447501
30
0.0000000000
10
-318.5903395636
20
-241.6588317649
30
0.0000000000
10
-318.2385308513
20
-242.7140574591
30
0.0000000000
10
-317.8516783483
20
-243.4453341567
30
0.0000000000
10
-317.5889621107
20
-243.8173083547
30
0.0000000000
10
-317.5224608681
20
-243.9051975739
30
0.0000000000
11
-318.8456669612
21
-239.2517711767
31
0.0000000000
11
-318.7732206233
21
-240.5127095576
31
0.0000000000
11
-318.5572311478
21
-241.6777127045
31
0.0000000000
11
-318.2017220100
21
-242.7250788128
31
0.0000000000
11
-317.7133156724
21
-243.6352974337
31
0.0000000000
11
-317.5224608681
21
-243.9051975739
31
0.0000000000
0
SPLINE
5
351
100
AcDbEntity
8
0
100
AcDbSpline
62
7
6
CONTINUOUS
70
0
71
3
72
8
73
4
74
2
42
0.0000001000
43
0.0000001000
44
0.0000000001
12
0.1958594690
22
-0.2588513408
32
0.0000000000
13
0.2125339632
23
-0.2452829605
33
0.0000000000
40
0.0000000000
40
0.0000000000
40
0.0000000000
40
0.0000000000
40
1.0000000000
40
1.0000000000
40
1.0000000000
40
1.0000000000
10
-317.5224608681
20
-243.9051975739
30
0.0000000000
10
-317.4571743785
20
-243.9914813542
30
0.0000000000
10
-317.3891090865
20
-244.0756580534
30
0.0000000000
10
-317.3182644322
20
-244.1574190402
30
0.0000000000
11
-317.5224608681
21
-243.9051975739
31
0.0000000000
11
-317.3182644322
21
-244.1574190402
31
0.0000000000
0
SPLINE
5
352
100
AcDbEntity
8
0
100
AcDbSpline
62
7
6
CONTINUOUS
70
0
71
3
72
10
73
6
74
4
42
0.0000001000
43
0.0000001000
44
0.0000000001
12
1.1148031942
22
-1.2865813246
32
0.0000000000
13
1.5234918081
23
-0.7617078000
33
0.0000000000
40
0.0000000000
40
0.0000000000
40
0.0000000000
40
0.0000000000
40
0.1875524616
40
0.7365477076
40
1.0000000000
40
1.0000000000
40
1.0000000000
40
1.0000000000
10
-317.3182644322
20
-244.1574190402
30
0.0000000000
10
-317.2485697377
20
-244.2378528717
30
0.0000000000
10
-316.9643043076
20
-244.5445476534
30
0.0000000000
10
-316.5220271387
20
-244.9058361126
30
0.0000000000
10
-316.1205896403
20
-245.1344089253
30
0.0000000000
10
-315.9868005038
20
-245.2013001473
30
0.0000000000
11
-317.3182644322
21
-244.1574190402
31
0.0000000000
11
-317.1011102211
21
-244.3914129165
31
0.0000000000
11
-316.3765098852
21
-244.9793402603
31
0.0000000000
11
-315.9868005038
21
-245.2013001473
31
0.0000000000
0
SPLINE
5
353
100
AcDbEntity
8
0
100
AcDbSpline
62
7
6
CONTINUOUS
70
0
71
3
72
8
73
4
74
2
42
0.0000001000
43
0.0000001000
44
0.0000000001
12
0.1268081301
22
-0.0545729923
32
0.0000000000
13
0.1290501397
23
-0.0490725712
33
0.0000000000
40
0.0000000000
40
0.0000000000
40
0.0000000000
40
0.0000000000
40
1.0000000000
40
1.0000000000
40
1.0000000000
40
1.0000000000
10
-313.9263354589
20
-243.4307459020
30
0.0000000000
10
-313.8840660822
20
-243.4489368994
30
0.0000000000
10
-313.8414009993
20
-243.4662124705
30
0.0000000000
10
-313.7983842861
20
-243.4825699943
30
0.0000000000
11
-313.9263354589
21
-243.4307459020
31
0.0000000000
11
-313.7983842861
21
-243.4825699943
31
0.0000000000
0
SPLINE
5
354
100
AcDbEntity
8
0
100
AcDbSpline
62
7
6
CONTINUOUS
70
0
71
3
72
12
73
8
74
6
42
0.0000001000
43
0.0000001000
44
0.0000000001
12
3.4130153210
22
-1.2978322829
32
0.0000000000
13
3.2568476126
23
1.6386594159
33
0.0000000000
40
0.0000000000
40
0.0000000000
40
0.0000000000
40
0.0000000000
40
0.1437666728
40
0.3668492835
40
0.6042570499
40
0.8599546595
40
1.0000000000
40
1.0000000000
40
1.0000000000
40
1.0000000000
10
-313.7983842861
20
-243.4825699943
30
0.0000000000
10
-313.6348250005
20
-243.5447650040
30
0.0000000000
10
-313.2044993783
20
-243.6696014370
30
0.0000000000
10
-312.4671512096
20
-243.7313386979
30
0.0000000000
10
-311.5991288060
20
-243.6189857210
30
0.0000000000
10
-310.8639882431
20
-243.3818036807
30
0.0000000000
10
-310.4263600897
20
-243.1816353581
30
0.0000000000
10
-310.2743246454
20
-243.1051398195
30
0.0000000000
11
-313.7983842861
21
-243.4825699943
31
0.0000000000
11
-313.2948787289
21
-243.6291945198
31
0.0000000000
11
-312.4855233930
21
-243.7018795212
31
0.0000000000
11
-311.6271164304
21
-243.5969682504
31
0.0000000000
11
-310.7388332343
21
-243.3168042519
31
0.0000000000
11
-310.2743246454
21
-243.1051398195
31
0.0000000000
0
SPLINE
5
355
100
AcDbEntity
8
0
100
AcDbSpline
62
7
6
CONTINUOUS
70
0
71
3
72
9
73
5
74
3
42
0.0000001000
43
0.0000001000
44
0.0000000001
12
1.0622695674
22
0.5344732809
32
0.0000000000
13
0.9679515515
23
0.6903797686
33
0.0000000000
40
0.0000000000
40
0.0000000000
40
0.0000000000
40
0.0000000000
40
0.4159662902
40
1.0000000000
40
1.0000000000
40
1.0000000000
40
1.0000000000
10
-310.2743246454
20
-243.1051398195
30
0.0000000000
10
-310.1270352017
20
-243.0310321969
30
0.0000000000
10
-309.7793356480
20
-242.8401036831
30
0.0000000000
10
-309.4474946224
20
-242.6228983792
30
0.0000000000
10
-309.2590558439
20
-242.4884966934
30
0.0000000000
11
-310.2743246454
21
-243.1051398195
31
0.0000000000
11
-309.8405165834
21
-242.8676459265
31
0.0000000000
11
-309.2590558439
21
-242.4884966934
31
0.0000000000
0
SPLINE
5
356
100
AcDbEntity
8
0
100
AcDbSpline
62
7
6
CONTINUOUS
70
0
71
3
72
16
73
12
74
10
42
0.0000001000
43
0.0000001000
44
0.0000000001
12
6.7517219836
22
-3.3774173698
32
0.0000000000
13
4.9679540297
23
5.6656942231
33
0.0000000000
40
0.0000000000
40
0.0000000000
40
0.0000000000
40
0.0000000000
40
0.0079206565
40
0.1118480467
40
0.2197377480
40
0.3345555410
40
0.4582188720
40
0.5915651559
40
0.7344911420
40
0.8861396666
40
1.0000000000
40
1.0000000000
40
1.0000000000
40
1.0000000000
10
-313.7372772271
20
-243.5310711994
30
0.0000000000
10
-313.7194512037
20
-243.5399883203
30
0.0000000000
10
-313.4665409867
20
-243.6635235196
30
0.0000000000
10
-312.9377343645
20
-243.8391114476
30
0.0000000000
10
-312.1135978190
20
-243.9081153932
30
0.0000000000
10
-311.2455754155
20
-243.7957624163
30
0.0000000000
10
-310.3529065033
20
-243.5077562246
30
0.0000000000
10
-309.4541016281
20
-243.0522899956
30
0.0000000000
10
-308.5677495927
20
-242.4401082330
30
0.0000000000
10
-307.7975208703
20
-241.7598990838
30
0.0000000000
10
-307.3397787446
20
-241.2743178512
30
0.0000000000
10
-307.1512277772
20
-241.0592852400
30
0.0000000000
11
-313.7372772271
21
-243.5310711994
31
0.0000000000
11
-313.6835493869
21
-243.5573136044
31
0.0000000000
11
-312.9413253383
21
-243.8059712151
31
0.0000000000
11
-312.1319700024
21
-243.8786562165
31
0.0000000000
11
-311.2735630398
21
-243.7737449457
31
0.0000000000
11
-310.3852798437
21
-243.4935809472
31
0.0000000000
11
-309.4869631928
21
-243.0444226218
31
0.0000000000
11
-308.5986799968
21
-242.4363034242
31
0.0000000000
11
-307.7402730342
21
-241.6828077324
31
0.0000000000
11
-307.1512277772
21
-241.0592852400
31
0.0000000000
0
SPLINE
5
357
100
AcDbEntity
8
0
100
AcDbSpline
62
7
6
CONTINUOUS
70
0
71
3
72
9
73
5
74
3
42
0.0000001000
43
0.0000001000
44
0.0000000001
12
0.2306712199
22
1.5101023957
32
0.0000000000
13
0.0000000000
23
1.5269229258
33
0.0000000000
40
0.0000000000
40
0.0000000000
40
0.0000000000
40
0.0000000000
40
0.2581884652
40
1.0000000000
40
1.0000000000
40
1.0000000000
40
1.0000000000
10
-304.0453910039
20
-234.4447774941
30
0.0000000000
10
-304.0255387878
20
-234.3148138208
30
0.0000000000
10
-303.9575610590
20
-233.8100547655
30
0.0000000000
10
-303.9257138782
20
-233.3007284981
30
0.0000000000
10
-303.9257138782
20
-232.9231654850
30
0.0000000000
11
-304.0453910039
21
-234.4447774941
31
0.0000000000
11
-303.9928451656
21
-234.0538634331
31
0.0000000000
11
-303.9257138782
21
-232.9231654850
31
0.0000000000
0
SPLINE
5
358
100
AcDbEntity
8
0
100
AcDbSpline
62
7
6
CONTINUOUS
70
0
71
3
72
10
73
6
74
4
42
0.0000001000
43
0.0000001000
44
0.0000000001
12
0.8588211978
22
-0.4294105989
32
0.0000000000
13
0.0000000000
23
-0.9645276564
33
0.0000000000
40
0.0000000000
40
0.0000000000
40
0.0000000000
40
0.0000000000
40
0.3950875622
40
0.7212632404
40
1.0000000000
40
1.0000000000
40
1.0000000000
40
1.0000000000
10
77.2048411814
20
195.7910710650
30
0.0000000000
10
77.3179443725
20
195.7345194694
30
0.0000000000
10
77.5159969919
20
195.6114810624
30
0.0000000000
10
77.7340256196
20
195.3680656469
30
0.0000000000
10
77.7906276190
20
195.1735807216
30
0.0000000000
10
77.7906276190
20
195.0839642838
30
0.0000000000
11
77.2048411814
21
195.7910710650
31
0.0000000000
11
77.5226784266
21
195.5839642838
31
0.0000000000
11
77.7224792716
21
195.3427833289
31
0.0000000000
11
77.7906276190
21
195.0839642838
31
0.0000000000
0
SPLINE
5
359
100
AcDbEntity
8
0
100
AcDbSpline
62
7
6
CONTINUOUS
70
0
71
3
72
10
73
6
74
4
42
0.0000001000
43
0.0000001000
44
0.0000000001
12
-1.7071296543
22
0.8313538952
32
0.0000000000
13
0.0000000000
23
1.8759801700
33
0.0000000000
40
0.0000000000
40
0.0000000000
40
0.0000000000
40
0.0000000000
40
0.0970401048
40
0.5055039983
40
1.0000000000
40
1.0000000000
40
1.0000000000
40
1.0000000000
10
30.2542113920
20
-253.3193695372
30
0.0000000000
10
30.1989913784
20
-253.2924779809
30
0.0000000000
10
29.9235333573
20
-253.1301469622
30
0.0000000000
10
29.5514765174
20
-252.5816979394
30
0.0000000000
10
29.4751334513
20
-252.0086833333
30
0.0000000000
10
29.4751334513
20
-251.6994617689
30
0.0000000000
11
30.2542113920
21
-253.3193695372
31
0.0000000000
11
30.0964537948
21
-253.2259189042
31
0.0000000000
11
29.6366093475
21
-252.6129645429
31
0.0000000000
11
29.4751334513
21
-251.6994617689
31
0.0000000000
0
SPLINE
5
35A
100
AcDbEntity
8
0
100
AcDbSpline
62
7
6
CONTINUOUS
70
0
71
3
72
10
73
6
74
4
42
0.0000001000
43
0.0000001000
44
0.0000000001
12
-1.7071296543
22
0.8313538952
32
0.0000000000
13
0.0000000000
23
1.8759801700
33
0.0000000000
40
0.0000000000
40
0.0000000000
40
0.0000000000
40
0.0000000000
40
0.0970401048
40
0.5055039983
40
1.0000000000
40
1.0000000000
40
1.0000000000
40
1.0000000000
10
30.2542113920
20
145.9183416074
30
0.0000000000
10
30.1989913784
20
145.9452331638
30
0.0000000000
10
29.9235333573
20
146.1075641824
30
0.0000000000
10
29.5514765174
20
146.6560132052
30
0.0000000000
10
29.4751334513
20
147.2290278113
30
0.0000000000
10
29.4751334513
20
147.5382493757
30
0.0000000000
11
30.2542113920
21
145.9183416074
31
0.0000000000
11
30.0964537948
21
146.0117922404
31
0.0000000000
11
29.6366093475
21
146.6247466018
31
0.0000000000
11
29.4751334513
21
147.5382493757
31
0.0000000000
0
SPLINE
5
35B
100
AcDbEntity
8
0
100
AcDbSpline
62
7
6
CONTINUOUS
70
0
71
3
72
9
73
5
74
3
42
0.0000001000
43
0.0000001000
44
0.0000000001
12
0.0000000000
22
-0.3100831148
32
0.0000000000
13
-0.2799904430
23
-0.1475251504
33
0.0000000000
40
0.0000000000
40
0.0000000000
40
0.0000000000
40
0.0000000000
40
0.6403297784
40
1.0000000000
40
1.0000000000
40
1.0000000000
40
1.0000000000
10
31.5964537948
20
-295.8864194663
30
0.0000000000
10
31.5964537948
20
-295.9526046170
30
0.0000000000
10
31.5804746023
20
-296.0623364794
30
0.0000000000
10
31.4988812419
20
-296.1381883627
30
0.0000000000
10
31.4653131670
20
-296.1558751639
30
0.0000000000
11
31.5964537948
21
-295.8864194663
31
0.0000000000
11
31.5490866221
21
-296.0792422309
31
0.0000000000
11
31.4653131670
21
-296.1558751639
31
0.0000000000
0
SPLINE
5
35C
100
AcDbEntity
8
0
100
AcDbSpline
62
7
6
CONTINUOUS
70
0
71
3
72
10
73
6
74
4
42
0.0000001000
43
0.0000001000
44
0.0000000001
12
0.0000000000
22
0.7323450078
32
0.0000000000
13
-0.6550292881
23
0.3275146441
33
0.0000000000
40
0.0000000000
40
0.0000000000
40
0.0000000000
40
0.0000000000
40
0.3342904765
40
0.6865843886
40
1.0000000000
40
1.0000000000
40
1.0000000000
40
1.0000000000
10
31.5964537948
20
172.6333239811
30
0.0000000000
10
31.5964537948
20
172.7149293016
30
0.0000000000
10
31.5592255325
20
172.8828994580
30
0.0000000000
10
31.4367127762
20
173.0969421820
30
0.0000000000
10
31.3113325392
20
173.2088973108
30
0.0000000000
10
31.2429004042
20
173.2431133783
30
0.0000000000
11
31.5964537948
21
172.6333239811
31
0.0000000000
11
31.5490866221
21
172.8735139184
31
0.0000000000
11
31.4196770995
21
173.0967123287
31
0.0000000000
11
31.2429004042
21
173.2431133783
31
0.0000000000
0
SPLINE
5
35D
100
AcDbEntity
8
0
100
AcDbSpline
62
7
6
CONTINUOUS
70
0
71
3
72
9
73
5
74
3
42
0.0000001000
43
0.0000001000
44
0.0000000001
12
0.8145087617
22
-0.4072543809
32
0.0000000000
13
0.8222726718
23
0.4332501435
33
0.0000000000
40
0.0000000000
40
0.0000000000
40
0.0000000000
40
0.0000000000
40
0.7878668781
40
1.0000000000
40
1.0000000000
40
1.0000000000
40
1.0000000000
10
31.2429004042
20
-297.4416935786
30
0.0000000000
10
31.4568085626
20
-297.5486476578
30
0.0000000000
10
31.7853909766
20
-297.6356993346
30
0.0000000000
10
32.0744076990
20
-297.5252079109
30
0.0000000000
10
32.1325514553
20
-297.4945723424
30
0.0000000000
11
31.2429004042
21
-297.4416935786
31
0.0000000000
11
31.9500071854
21
-297.5631961616
31
0.0000000000
11
32.1325514553
21
-297.4945723424
31
0.0000000000
0
SPLINE
5
35E
100
AcDbEntity
8
0
100
AcDbSpline
62
7
6
CONTINUOUS
70
0
71
3
72
8
73
4
74
2
42
0.0000001000
43
0.0000001000
44
0.0000000001
12
0.0562382672
22
-0.0696799688
32
0.0000000000
13
0.0541114193
23
-0.0713374435
33
0.0000000000
40
0.0000000000
40
0.0000000000
40
0.0000000000
40
0.0000000000
40
1.0000000000
40
1.0000000000
40
1.0000000000
40
1.0000000000
10
76.5211488586
20
196.2017840896
30
0.0000000000
10
76.5398949477
20
196.1785574333
30
0.0000000000
10
76.5582854376
20
196.1550435659
30
0.0000000000
10
76.5763225774
20
196.1312644180
30
0.0000000000
11
76.5211488586
21
196.2017840896
31
0.0000000000
11
76.5763225774
21
196.1312644180
31
0.0000000000
0
SPLINE
5
35F
100
AcDbEntity
8
0
100
AcDbSpline
62
7
6
CONTINUOUS
70
0
71
3
72
9
73
5
74
3
42
0.0000001000
43
0.0000001000
44
0.0000000001
12
0.3130893726
22
-0.4127593720
32
0.0000000000
13
0.2416440479
23
-0.4581774275
33
0.0000000000
40
0.0000000000
40
0.0000000000
40
0.0000000000
40
0.0000000000
40
0.7480497243
40
1.0000000000
40
1.0000000000
40
1.0000000000
40
1.0000000000
10
76.5763225774
20
196.1312644180
30
0.0000000000
10
76.6543913836
20
196.0283429066
30
0.0000000000
10
76.7499054991
20
195.8841129876
30
0.0000000000
10
76.8335135434
20
195.7330002989
30
0.0000000000
10
76.8538076382
20
195.6945209892
30
0.0000000000
11
76.5763225774
21
196.1312644180
31
0.0000000000
11
76.7906276190
21
195.8087091552
31
0.0000000000
11
76.8538076382
21
195.6945209892
31
0.0000000000
0
SPLINE
5
360
100
AcDbEntity
8
0
100
AcDbSpline
62
7
6
CONTINUOUS
70
0
71
3
72
11
73
7
74
5
42
0.0000001000
43
0.0000001000
44
0.0000000001
12
0.5333038307
22
-1.0111888925
32
0.0000000000
13
0.1165083498
23
-1.1380877662
33
0.0000000000
40
0.0000000000
40
0.0000000000
40
0.0000000000
40
0.0000000000
40
0.2289964630
40
0.5681515403
40
0.8954266680
40
1.0000000000
40
1.0000000000
40
1.0000000000
40
1.0000000000
10
76.8538076382
20
195.6945209892
30
0.0000000000
10
76.8945158685
20
195.6173347626
30
0.0000000000
10
76.9878183666
20
195.4217745736
30
0.0000000000
10
77.1035814048
20
195.1000867948
30
0.0000000000
10
77.1678503018
20
194.8127850175
30
0.0000000000
10
77.1886187675
20
194.6493423509
30
0.0000000000
10
77.1926799896
20
194.6096711409
30
0.0000000000
11
76.8538076382
21
195.6945209892
31
0.0000000000
11
76.9665032214
21
195.4583023533
31
0.0000000000
11
77.0971905839
21
195.0935099494
31
0.0000000000
11
77.1776674643
21
194.7283507109
31
0.0000000000
11
77.1926799896
21
194.6096711409
31
0.0000000000
0
SPLINE
5
361
100
AcDbEntity
8
0
100
AcDbSpline
62
7
6
CONTINUOUS
70
0
71
3
72
8
73
4
74
2
42
0.0000001000
43
0.0000001000
44
0.0000000001
12
0.0237664028
22
-0.2321572003
32
0.0000000000
13
0.0000000000
23
-0.2330636966
33
0.0000000000
40
0.0000000000
40
0.0000000000
40
0.0000000000
40
0.0000000000
40
1.0000000000
40
1.0000000000
40
1.0000000000
40
1.0000000000
10
77.1926799896
20
194.6096711409
30
0.0000000000
10
77.2006021239
20
194.5322854075
30
0.0000000000
10
77.2048411814
20
194.4545454015
30
0.0000000000
10
77.2048411814
20
194.3768575026
30
0.0000000000
11
77.1926799896
21
194.6096711409
31
0.0000000000
11
77.2048411814
21
194.3768575026
31
0.0000000000
0
SPLINE
5
362
100
AcDbEntity
8
0
100
AcDbSpline
62
7
6
CONTINUOUS
70
0
71
3
72
9
73
5
74
3
42
0.0000001000
43
0.0000001000
44
0.0000000001
12
-0.8526513230
22
-0.4263256615
32
0.0000000000
13
-0.0005885361
23
-0.9467188597
33
0.0000000000
40
0.0000000000
40
0.0000000000
40
0.0000000000
40
0.0000000000
40
0.5687138628
40
1.0000000000
40
1.0000000000
40
1.0000000000
40
1.0000000000
10
21.3434054676
20
180.9061125146
30
0.0000000000
10
21.1817672584
20
180.8252934100
30
0.0000000000
10
20.9061958878
20
180.6508521657
30
0.0000000000
10
20.7577042623
20
180.3350745697
30
0.0000000000
10
20.7576196531
20
180.1989723297
30
0.0000000000
11
21.3434054676
21
180.9061125146
31
0.0000000000
11
20.9094268366
21
180.5811659146
31
0.0000000000
11
20.7576196531
21
180.1989723297
31
0.0000000000
0
SPLINE
5
363
100
AcDbEntity
8
0
100
AcDbSpline
62
7
6
CONTINUOUS
70
0
71
3
72
10
73
6
74
4
42
0.0000001000
43
0.0000001000
44
0.0000000001
12
-1.5299941709
22
0.0283997584
32
0.0000000000
13
-1.3673594747
23
-0.6836797374
33
0.0000000000
40
0.0000000000
40
0.0000000000
40
0.0000000000
40
0.0000000000
40
0.0477312962
40
0.5518174995
40
1.0000000000
40
1.0000000000
40
1.0000000000
40
1.0000000000
10
64.5525122579
20
202.0579555767
30
0.0000000000
10
64.5281693896
20
202.0584074291
30
0.0000000000
10
64.2466974358
20
202.0610894311
30
0.0000000000
10
63.7365901305
20
202.0135249593
30
0.0000000000
10
63.2669810871
20
201.8679003244
30
0.0000000000
10
63.0627055576
20
201.7657625596
30
0.0000000000
11
64.5525122579
21
202.0579555767
31
0.0000000000
11
64.4794755714
21
202.0586549615
31
0.0000000000
11
63.7125987576
21
201.9827518751
31
0.0000000000
11
63.0627055576
21
201.7657625596
31
0.0000000000
0
SPLINE
5
364
100
AcDbEntity
8
0
100
AcDbSpline
62
7
6
CONTINUOUS
70
0
71
3
72
9
73
5
74
3
42
0.0000001000
43
0.0000001000
44
0.0000000001
12
-0.8527268306
22
0.4263634153
32
0.0000000000
13
0.0005885883
23
0.9468026976
33
0.0000000000
40
0.0000000000
40
0.0000000000
40
0.0000000000
40
0.0000000000
40
0.5663521442
40
1.0000000000
40
1.0000000000
40
1.0000000000
40
1.0000000000
10
21.3434054676
20
178.1928608466
30
0.0000000000
10
21.1824242446
20
178.2733514581
30
0.0000000000
10
20.9070443526
20
178.4476821453
30
0.0000000000
10
20.7575345731
20
178.7630745708
30
0.0000000000
10
20.7576196531
20
178.8999342240
30
0.0000000000
11
21.3434054676
21
178.1928608466
31
0.0000000000
11
20.9108736967
21
178.5160627978
31
0.0000000000
11
20.7576196531
21
178.8999342240
31
0.0000000000
0
SPLINE
5
365
100
AcDbEntity
8
0
100
AcDbSpline
62
7
6
CONTINUOUS
70
0
71
3
72
9
73
5
74
3
42
0.0000001000
43
0.0000001000
44
0.0000000001
12
1.1199617721
22
0.5901006018
32
0.0000000000
13
-0.0000000000
23
1.2403324592
33
0.0000000000
40
0.0000000000
40
0.0000000000
40
0.0000000000
40
0.0000000000
40
0.3596702216
40
1.0000000000
40
1.0000000000
40
1.0000000000
40
1.0000000000
10
76.6802786701
20
-275.2207087351
30
0.0000000000
10
76.8145509696
20
-275.1499615303
30
0.0000000000
10
77.1409244111
20
-274.8465539974
30
0.0000000000
10
77.2048411814
20
-274.4076265477
30
0.0000000000
10
77.2048411814
20
-274.1428859448
30
0.0000000000
11
76.6802786701
21
-275.2207087351
31
0.0000000000
11
77.0153724904
21
-274.9141770031
31
0.0000000000
11
77.2048411814
21
-274.1428859448
31
0.0000000000
0
SPLINE
5
366
100
AcDbEntity
8
0
100
AcDbSpline
62
7
6
CONTINUOUS
70
0
71
3
72
9
73
5
74
3
42
0.0000001000
43
0.0000001000
44
0.0000000001
12
-0.8527267367
22
0.4263633684
32
0.0000000000
13
0.0005925500
23
0.9468010764
33
0.0000000000
40
0.0000000000
40
0.0000000000
40
0.0000000000
40
0.0000000000
40
0.5663261103
40
1.0000000000
40
1.0000000000
40
1.0000000000
40
1.0000000000
10
21.3434054676
20
-292.4919461103
30
0.0000000000
10
21.1824316623
20
-292.4114592076
30
0.0000000000
10
20.9070535531
20
-292.2371311286
30
0.0000000000
10
20.7575340037
20
-291.9217406022
30
0.0000000000
10
20.7576196616
20
-291.7848729670
30
0.0000000000
11
21.3434054676
21
-292.4919461103
31
0.0000000000
11
20.9108900551
21
-292.1687638312
31
0.0000000000
11
20.7576196616
21
-291.7848729670
31
0.0000000000
0
SPLINE
5
367
100
AcDbEntity
8
0
100
AcDbSpline
62
7
6
CONTINUOUS
70
0
71
3
72
10
73
6
74
4
42
0.0000001000
43
0.0000001000
44
0.0000000001
12
0.0000000000
22
-0.9645276564
32
0.0000000000
13
-0.8588211978
23
-0.4294105989
33
0.0000000000
40
0.0000000000
40
0.0000000000
40
0.0000000000
40
0.0000000000
40
0.2787367596
40
0.6049124378
40
1.0000000000
40
1.0000000000
40
1.0000000000
40
1.0000000000
10
77.7906276190
20
-273.4357791636
30
0.0000000000
10
77.7906276190
20
-273.5253956014
30
0.0000000000
10
77.7340256196
20
-273.7198805268
30
0.0000000000
10
77.5159969919
20
-273.9632959423
30
0.0000000000
10
77.3179443725
20
-274.0863343492
30
0.0000000000
10
77.2048411814
20
-274.1428859448
30
0.0000000000
11
77.7906276190
21
-273.4357791636
31
0.0000000000
11
77.7224792716
21
-273.6945982087
31
0.0000000000
11
77.5226784266
21
-273.9357791636
31
0.0000000000
11
77.2048411814
21
-274.1428859448
31
0.0000000000
0
SPLINE
5
368
100
AcDbEntity
8
0
100
AcDbSpline
62
7
6
CONTINUOUS
70
0
71
3
72
9
73
5
74
3
42
0.0000001000
43
0.0000001000
44
0.0000000001
12
-0.8526506915
22
-0.4263253458
32
0.0000000000
13
-0.0005924972
23
-0.9467166417
33
0.0000000000
40
0.0000000000
40
0.0000000000
40
0.0000000000
40
0.0000000000
40
0.5687010423
40
1.0000000000
40
1.0000000000
40
1.0000000000
40
1.0000000000
10
21.3434054676
20
-289.7786944422
30
0.0000000000
10
21.1817710219
20
-289.8595116650
30
0.0000000000
10
20.9062003240
20
-290.0339507276
30
0.0000000000
10
20.7577048427
20
-290.3497288944
30
0.0000000000
10
20.7576196616
20
-290.4858348614
30
0.0000000000
11
21.3434054676
21
-289.7786944422
31
0.0000000000
11
20.9094351135
21
-290.1036310353
31
0.0000000000
11
20.7576196616
21
-290.4858348614
31
0.0000000000
0
SPLINE
5
369
100
AcDbEntity
8
0
100
AcDbSpline
62
7
6
CONTINUOUS
70
0
71
3
72
11
73
7
74
5
42
0.0000001000
43
0.0000001000
44
0.0000000001
12
0.0000000000
22
4.4046567014
32
0.0000000000
13
3.9793580163
23
1.9974944306
33
0.0000000000
40
0.0000000000
40
0.0000000000
40
0.0000000000
40
0.0000000000
40
0.2467931079
40
0.5117852234
40
0.7703244106
40
1.0000000000
40
1.0000000000
40
1.0000000000
40
1.0000000000
10
29.4751334513
20
147.5382493757
30
0.0000000000
10
29.4751334513
20
147.9005956813
30
0.0000000000
10
29.6003010224
20
148.6533867983
30
0.0000000000
10
30.0525281474
20
149.6997974519
30
0.0000000000
10
30.7200991010
20
150.5964024323
30
0.0000000000
10
31.2917999955
20
151.0440605220
30
0.0000000000
10
31.5964537948
20
151.1969857589
30
0.0000000000
11
29.4751334513
21
147.5382493757
31
0.0000000000
11
29.6366093475
21
148.6132280460
31
0.0000000000
11
30.0964537948
21
149.6860268546
31
0.0000000000
11
30.7846596446
21
150.5933219080
31
0.0000000000
11
31.5964537948
21
151.1969857589
31
0.0000000000
0
SPLINE
5
36A
100
AcDbEntity
8
0
100
AcDbSpline
62
7
6
CONTINUOUS
70
0
71
3
72
11
73
7
74
5
42
0.0000001000
43
0.0000001000
44
0.0000000001
12
0.0000000000
22
4.4046567014
32
0.0000000000
13
3.9793580163
23
1.9974944306
33
0.0000000000
40
0.0000000000
40
0.0000000000
40
0.0000000000
40
0.0000000000
40
0.2467931079
40
0.5117852234
40
0.7703244106
40
1.0000000000
40
1.0000000000
40
1.0000000000
40
1.0000000000
10
29.4751334513
20
-251.6994617689
30
0.0000000000
10
29.4751334513
20
-251.3371154633
30
0.0000000000
10
29.6003010224
20
-250.5843243463
30
0.0000000000
10
30.0525281474
20
-249.5379136927
30
0.0000000000
10
30.7200991010
20
-248.6413087124
30
0.0000000000
10
31.2917999955
20
-248.1936506227
30
0.0000000000
10
31.5964537948
20
-248.0407253858
30
0.0000000000
11
29.4751334513
21
-251.6994617689
31
0.0000000000
11
29.6366093475
21
-250.6244830987
31
0.0000000000
11
30.0964537948
21
-249.5516842900
31
0.0000000000
11
30.7846596446
21
-248.6443892366
31
0.0000000000
11
31.5964537948
21
-248.0407253858
31
0.0000000000
0
SPLINE
5
36B
100
AcDbEntity
8
0
100
AcDbSpline
62
7
6
CONTINUOUS
70
0
71
3
72
15
73
11
74
9
42
0.0000001000
43
0.0000001000
44
0.0000000001
12
2.6326381227
22
-1.3163190613
32
0.0000000000
13
0.0000000000
23
-2.9433789012
33
0.0000000000
40
0.0000000000
40
0.0000000000
40
0.0000000000
40
0.0000000000
40
0.1103207721
40
0.2298809776
40
0.3567647248
40
0.4883338301
40
0.6215371336
40
0.7531869865
40
0.8802253985
40
1.0000000000
40
1.0000000000
40
1.0000000000
40
1.0000000000
10
31.2429004042
20
174.5421514840
30
0.0000000000
10
31.3397119610
20
174.4937457056
30
0.0000000000
10
31.5315998243
20
174.3725994933
30
0.0000000000
10
31.7951173811
20
174.1404636773
30
0.0000000000
10
32.0377592700
20
173.8585282968
30
0.0000000000
10
32.2504502444
20
173.5373568989
30
0.0000000000
10
32.4253321792
20
173.1889238941
30
0.0000000000
10
32.5558541901
20
172.8262231875
30
0.0000000000
10
32.6371270785
20
172.4629083276
30
0.0000000000
10
32.6571139666
20
172.2205079068
30
0.0000000000
10
32.6571139666
20
172.1029938952
30
0.0000000000
11
31.2429004042
21
174.5421514840
31
0.0000000000
11
31.5187997835
21
174.3709209237
31
0.0000000000
11
31.7840965044
21
174.1397089167
31
0.0000000000
11
32.0285953626
21
173.8574008107
31
0.0000000000
11
32.2429004042
21
173.5348455478
31
0.0000000000
11
32.4187760066
21
173.1844387459
31
0.0000000000
11
32.5494633691
21
172.8196463420
31
0.0000000000
11
32.6299402496
21
172.4544871035
31
0.0000000000
11
32.6571139666
21
172.1029938952
31
0.0000000000
0
SPLINE
5
36C
100
AcDbEntity
8
0
100
AcDbSpline
62
7
6
CONTINUOUS
70
0
71
3
72
9
73
5
74
3
42
0.0000001000
43
0.0000001000
44
0.0000000001
12
-0.0005925500
22
-0.9468010764
32
0.0000000000
13
0.8527267367
23
-0.4263633684
33
0.0000000000
40
0.0000000000
40
0.0000000000
40
0.0000000000
40
0.0000000000
40
0.4336738897
40
1.0000000000
40
1.0000000000
40
1.0000000000
40
1.0000000000
10
20.7576196616
20
-290.4858348614
30
0.0000000000
10
20.7575340037
20
-290.6227024965
30
0.0000000000
10
20.9070535531
20
-290.9380930229
30
0.0000000000
10
21.1824316623
20
-291.1124211019
30
0.0000000000
10
21.3434054676
20
-291.1929080046
30
0.0000000000
11
20.7576196616
21
-290.4858348614
31
0.0000000000
11
20.9108900551
21
-290.8697257255
31
0.0000000000
11
21.3434054676
21
-291.1929080046
31
0.0000000000
0
SPLINE
5
36D
100
AcDbEntity
8
0
100
AcDbSpline
62
7
6
CONTINUOUS
70
0
71
3
72
9
73
5
74
3
42
0.0000001000
43
0.0000001000
44
0.0000000001
12
-0.2055681679
22
-0.1083125359
32
0.0000000000
13
-0.2036271904
23
0.1018135952
33
0.0000000000
40
0.0000000000
40
0.0000000000
40
0.0000000000
40
0.0000000000
40
0.2121331219
40
1.0000000000
40
1.0000000000
40
1.0000000000
40
1.0000000000
10
31.4653131670
20
-296.1558751639
30
0.0000000000
10
31.4507772279
20
-296.1635340560
30
0.0000000000
10
31.3785230473
20
-296.1911569119
30
0.0000000000
10
31.2963774438
20
-296.1693939927
30
0.0000000000
10
31.2429004042
20
-296.1426554729
30
0.0000000000
11
31.4653131670
21
-296.1558751639
31
0.0000000000
11
31.4196770995
21
-296.1730311186
31
0.0000000000
11
31.2429004042
21
-296.1426554729
31
0.0000000000
0
SPLINE
5
36E
100
AcDbEntity
8
0
100
AcDbSpline
62
7
6
CONTINUOUS
70
0
71
3
72
9
73
5
74
3
42
0.0000001000
43
0.0000001000
44
0.0000000001
12
1.1199617721
22
0.5901006018
32
0.0000000000
13
0.0000000000
23
1.2403324592
33
0.0000000000
40
0.0000000000
40
0.0000000000
40
0.0000000000
40
0.0000000000
40
0.3596702216
40
1.0000000000
40
1.0000000000
40
1.0000000000
40
1.0000000000
10
32.1325514553
20
-297.4945723424
30
0.0000000000
10
32.2668237549
20
-297.4238251377
30
0.0000000000
10
32.5931971964
20
-297.1204176048
30
0.0000000000
10
32.6571139666
20
-296.6814901551
30
0.0000000000
10
32.6571139666
20
-296.4167495522
30
0.0000000000
11
32.1325514553
21
-297.4945723424
31
0.0000000000
11
32.4676452756
21
-297.1880406105
31
0.0000000000
11
32.6571139666
21
-296.4167495522
31
0.0000000000
0
SPLINE
5
36F
100
AcDbEntity
8
0
100
AcDbSpline
62
7
6
CONTINUOUS
70
0
71
3
72
9
73
5
74
3
42
0.0000001000
43
0.0000001000
44
0.0000000001
12
-0.0005885883
22
-0.9468026976
32
0.0000000000
13
0.8527268306
23
-0.4263634153
33
0.0000000000
40
0.0000000000
40
0.0000000000
40
0.0000000000
40
0.0000000000
40
0.4336478558
40
1.0000000000
40
1.0000000000
40
1.0000000000
40
1.0000000000
10
20.7576196531
20
180.1989723297
30
0.0000000000
10
20.7575345731
20
180.0621126764
30
0.0000000000
10
20.9070443526
20
179.7467202510
30
0.0000000000
10
21.1824242446
20
179.5723895637
30
0.0000000000
10
21.3434054676
20
179.4918989523
30
0.0000000000
11
20.7576196531
21
180.1989723297
31
0.0000000000
11
20.9108736967
21
179.8151009035
31
0.0000000000
11
21.3434054676
21
179.4918989523
31
0.0000000000
0
SPLINE
5
370
100
AcDbEntity
8
0
100
AcDbSpline
62
7
6
CONTINUOUS
70
0
71
3
72
10
73
6
74
4
42
0.0000001000
43
0.0000001000
44
0.0000000001
12
0.0000000000
22
-0.9645276564
32
0.0000000000
13
-0.8588211978
23
-0.4294105989
33
0.0000000000
40
0.0000000000
40
0.0000000000
40
0.0000000000
40
0.0000000000
40
0.2787367596
40
0.6049124378
40
1.0000000000
40
1.0000000000
40
1.0000000000
40
1.0000000000
10
77.7906276190
20
195.0839642838
30
0.0000000000
10
77.7906276190
20
194.9943478459
30
0.0000000000
10
77.7340256196
20
194.7998629206
30
0.0000000000
10
77.5159969919
20
194.5564475051
30
0.0000000000
10
77.3179443725
20
194.4334090981
30
0.0000000000
10
77.2048411814
20
194.3768575026
30
0.0000000000
11
77.7906276190
21
195.0839642838
31
0.0000000000
11
77.7224792716
21
194.8251452387
31
0.0000000000
11
77.5226784266
21
194.5839642838
31
0.0000000000
11
77.2048411814
21
194.3768575026
31
0.0000000000
0
SPLINE
5
371
100
AcDbEntity
8
0
100
AcDbSpline
62
7
6
CONTINUOUS
70
0
71
3
72
8
73
4
74
2
42
0.0000001000
43
0.0000001000
44
0.0000000001
12
-0.1006428146
22
0.0572836747
32
0.0000000000
13
-0.1030318284
23
0.0515159142
33
0.0000000000
40
0.0000000000
40
0.0000000000
40
0.0000000000
40
0.0000000000
40
1.0000000000
40
1.0000000000
40
1.0000000000
40
1.0000000000
10
-304.5308109553
20
8.7865180053
30
0.0000000000
10
-304.5643585601
20
8.8056125635
30
0.0000000000
10
-304.5984767166
20
8.8236147810
30
0.0000000000
10
-304.6328206594
20
8.8407867524
30
0.0000000000
11
-304.5308109553
21
8.7865180053
31
0.0000000000
11
-304.6328206594
21
8.8407867524
31
0.0000000000
0
SPLINE
5
372
100
AcDbEntity
8
0
100
AcDbSpline
62
7
6
CONTINUOUS
70
0
71
3
72
12
73
8
74
6
42
0.0000001000
43
0.0000001000
44
0.0000000001
12
2.0634393451
22
-1.0317196726
32
0.0000000000
13
2.2486039804
23
0.5250938537
33
0.0000000000
40
0.0000000000
40
0.0000000000
40
0.0000000000
40
0.0000000000
40
0.1923077250
40
0.4058314877
40
0.6306946942
40
0.8555579008
40
1.0000000000
40
1.0000000000
40
1.0000000000
40
1.0000000000
10
-343.5236936246
20
-483.0929397854
30
0.0000000000
10
-343.3914218492
20
-483.1590756731
30
0.0000000000
10
-343.0968357863
20
-483.2681998961
30
0.0000000000
10
-342.6199504701
20
-483.3641706685
30
0.0000000000
10
-342.1094800623
20
-483.3969443342
30
0.0000000000
10
-341.6521783474
20
-483.3675842512
30
0.0000000000
10
-341.3721496479
20
-483.3173680390
30
0.0000000000
10
-341.2638852881
20
-483.2920861528
30
0.0000000000
11
-343.5236936246
21
-483.0929397854
31
0.0000000000
11
-343.1094800623
21
-483.2518584080
31
0.0000000000
11
-342.6271181525
21
-483.3517588305
31
0.0000000000
11
-342.1094800623
21
-483.3858330042
31
0.0000000000
11
-341.5918419721
21
-483.3517588305
31
0.0000000000
11
-341.2638852881
21
-483.2920861528
31
0.0000000000
0
SPLINE
5
373
100
AcDbEntity
8
0
100
AcDbSpline
62
7
6
CONTINUOUS
70
0
71
3
72
9
73
5
74
3
42
0.0000001000
43
0.0000001000
44
0.0000000001
12
0.5877612194
22
0.1372539613
32
0.0000000000
13
0.5393611486
23
0.2696805743
33
0.0000000000
40
0.0000000000
40
0.0000000000
40
0.0000000000
40
0.0000000000
40
0.2642864115
40
1.0000000000
40
1.0000000000
40
1.0000000000
40
1.0000000000
10
-341.2638852881
20
-483.2920861528
30
0.0000000000
10
-341.2121061870
20
-483.2799947006
30
0.0000000000
10
-341.0172763148
20
-483.2293607909
30
0.0000000000
10
-340.8275382753
20
-483.1590756731
30
0.0000000000
10
-340.6952664999
20
-483.0929397854
30
0.0000000000
11
-341.2638852881
21
-483.2920861528
31
0.0000000000
11
-341.1094800623
21
-483.2518584080
31
0.0000000000
11
-340.6952664999
21
-483.0929397854
31
0.0000000000
0
SPLINE
5
374
100
AcDbEntity
8
0
100
AcDbSpline
62
7
6
CONTINUOUS
70
0
71
3
72
10
73
6
74
4
42
0.0000001000
43
0.0000001000
44
0.0000000001
12
-0.8588211978
22
-0.4294105989
32
0.0000000000
13
0.0000000000
23
-0.9645276564
33
0.0000000000
40
0.0000000000
40
0.0000000000
40
0.0000000000
40
0.0000000000
40
0.3950875622
40
0.7212632404
40
1.0000000000
40
1.0000000000
40
1.0000000000
40
1.0000000000
10
-353.4231885613
20
-8.2092353074
30
0.0000000000
10
-353.5362917524
20
-8.2657869029
30
0.0000000000
10
-353.7343443718
20
-8.3888253099
30
0.0000000000
10
-353.9523729995
20
-8.6322407254
30
0.0000000000
10
-354.0089749989
20
-8.8267256507
30
0.0000000000
10
-354.0089749989
20
-8.9163420886
30
0.0000000000
11
-353.4231885613
21
-8.2092353074
31
0.0000000000
11
-353.7410258064
21
-8.4163420886
31
0.0000000000
11
-353.9408266515
21
-8.6575230434
31
0.0000000000
11
-354.0089749989
21
-8.9163420886
31
0.0000000000
0
SPLINE
5
375
100
AcDbEntity
8
0
100
AcDbSpline
62
7
6
CONTINUOUS
70
0
71
3
72
9
73
5
74
3
42
0.0000001000
43
0.0000001000
44
0.0000000001
12
-0.2131744153
22
0.1065872076
32
0.0000000000
13
0.0000000000
23
0.2367008792
33
0.0000000000
40
0.0000000000
40
0.0000000000
40
0.0000000000
40
0.0000000000
40
0.5679903392
40
1.0000000000
40
1.0000000000
40
1.0000000000
40
1.0000000000
10
-352.3625283895
20
-9.0931187838
30
0.0000000000
10
-352.4028887256
20
-9.0729386158
30
0.0000000000
10
-352.4717647464
20
-9.0293280705
30
0.0000000000
10
-352.5089749989
20
-8.9504277774
30
0.0000000000
10
-352.5089749989
20
-8.9163420886
30
0.0000000000
11
-352.3625283895
21
-9.0931187838
31
0.0000000000
11
-352.4709147651
21
-9.0120129466
31
0.0000000000
11
-352.5089749989
21
-8.9163420886
31
0.0000000000
0
SPLINE
5
376
100
AcDbEntity
8
0
100
AcDbSpline
62
7
6
CONTINUOUS
70
0
71
3
72
11
73
7
74
5
42
0.0000001000
43
0.0000001000
44
0.0000000001
12
-0.6499098581
22
-0.3249549290
32
0.0000000000
13
-0.6499098581
23
0.3249549290
33
0.0000000000
40
0.0000000000
40
0.0000000000
40
0.0000000000
40
0.0000000000
40
0.2353701082
40
0.5000000000
40
0.7646298918
40
1.0000000000
40
1.0000000000
40
1.0000000000
40
1.0000000000
10
-341.7559266717
20
-14.0428662522
30
0.0000000000
10
-341.8069164562
20
-14.0683611444
30
0.0000000000
10
-341.9241016522
20
-14.1047293960
30
0.0000000000
10
-342.1094800623
20
-14.1221020331
30
0.0000000000
10
-342.2948584724
20
-14.1047293960
30
0.0000000000
10
-342.4120436683
20
-14.0683611444
30
0.0000000000
10
-342.4630334529
20
-14.0428662522
30
0.0000000000
11
-341.7559266717
21
-14.0428662522
31
0.0000000000
11
-341.9181383461
21
-14.0970594400
31
0.0000000000
11
-342.1094800623
21
-14.1160895569
31
0.0000000000
11
-342.3008217785
21
-14.0970594400
31
0.0000000000
11
-342.4630334529
21
-14.0428662522
31
0.0000000000
0
SPLINE
5
377
100
AcDbEntity
8
0
100
AcDbSpline
62
7
6
CONTINUOUS
70
0
71
3
72
9
73
5
74
3
42
0.0000001000
43
0.0000001000
44
0.0000000001
12
-0.0005852348
22
-0.9465240543
32
0.0000000000
13
0.8526976612
23
-0.4263488306
33
0.0000000000
40
0.0000000000
40
0.0000000000
40
0.0000000000
40
0.0000000000
40
0.4320096608
40
1.0000000000
40
1.0000000000
40
1.0000000000
40
1.0000000000
10
-308.0470342218
20
9.4327180769
30
0.0000000000
10
-308.0471184974
20
9.2964155650
30
0.0000000000
10
-307.8981378107
20
8.9807476939
30
0.0000000000
10
-307.6226891287
20
8.8063319680
30
0.0000000000
10
-307.4612477841
20
8.7256112957
30
0.0000000000
11
-308.0470342218
21
9.4327180769
31
0.0000000000
11
-307.8947932868
21
9.0500346445
31
0.0000000000
11
-307.4612477841
21
8.7256112957
31
0.0000000000
0
SPLINE
5
378
100
AcDbEntity
8
0
100
AcDbSpline
62
7
6
CONTINUOUS
70
0
71
3
72
12
73
8
74
6
42
0.0000001000
43
0.0000001000
44
0.0000000001
12
1.1323170694
22
0.5662428658
32
0.0000000000
13
-0.0000000000
23
1.2603180291
33
0.0000000000
40
0.0000000000
40
0.0000000000
40
0.0000000000
40
0.0000000000
40
0.0977006842
40
0.2942993550
40
0.5070334244
40
0.7417668452
40
1.0000000000
40
1.0000000000
40
1.0000000000
40
1.0000000000
10
-296.6673735894
20
-461.9007500186
30
0.0000000000
10
-296.6304975386
20
-461.8823092468
30
0.0000000000
10
-296.5239235917
20
-461.8177423976
30
0.0000000000
10
-296.3718210876
20
-461.6638963610
30
0.0000000000
10
-296.2414712889
20
-461.4233904960
30
0.0000000000
10
-296.1633039328
20
-461.1352561690
30
0.0000000000
10
-296.1475392851
20
-460.9275614783
30
0.0000000000
10
-296.1475392851
20
-460.8190761780
30
0.0000000000
11
-296.6673735894
21
-461.9007500186
31
0.0000000000
11
-296.5617528475
21
-461.8367142683
31
0.0000000000
11
-296.3858772451
21
-461.6621830688
31
0.0000000000
11
-296.2551898826
21
-461.4280780274
31
0.0000000000
11
-296.1747130022
21
-461.1433956693
31
0.0000000000
11
-296.1475392851
21
-460.8190761780
31
0.0000000000
0
SPLINE
5
379
100
AcDbEntity
8
0
100
AcDbSpline
62
7
6
CONTINUOUS
70
0
71
3
72
10
73
6
74
4
42
0.0000001000
43
0.0000001000
44
0.0000000001
12
2.6201171525
22
-1.3100585763
32
0.0000000000
13
0.0000000000
23
-2.9293800310
33
0.0000000000
40
0.0000000000
40
0.0000000000
40
0.0000000000
40
0.0000000000
40
0.3134156114
40
0.6657095235
40
1.0000000000
40
1.0000000000
40
1.0000000000
40
1.0000000000
10
-297.5617528475
20
10.1398248581
30
0.0000000000
10
-297.2880243077
20
10.0029605882
30
0.0000000000
10
-296.7865033598
20
9.5551400729
30
0.0000000000
10
-296.2964523344
20
8.6989691770
30
0.0000000000
10
-296.1475392851
20
8.0270885514
30
0.0000000000
10
-296.1475392851
20
7.7006672693
30
0.0000000000
11
-297.5617528475
21
10.1398248581
31
0.0000000000
11
-296.8546460663
21
9.5542206599
31
0.0000000000
11
-296.3370079761
21
8.6614270186
31
0.0000000000
11
-296.1475392851
21
7.7006672693
31
0.0000000000
0
SPLINE
5
37A
100
AcDbEntity
8
0
100
AcDbSpline
62
7
6
CONTINUOUS
70
0
71
3
72
10
73
6
74
4
42
0.0000001000
43
0.0000001000
44
0.0000000001
12
0.0000000000
22
-0.9645276564
32
0.0000000000
13
0.8588211978
23
-0.4294105989
33
0.0000000000
40
0.0000000000
40
0.0000000000
40
0.0000000000
40
0.0000000000
40
0.2787367596
40
0.6049124378
40
1.0000000000
40
1.0000000000
40
1.0000000000
40
1.0000000000
10
-354.0089749989
20
-477.4360855359
30
0.0000000000
10
-354.0089749989
20
-477.5257019738
30
0.0000000000
10
-353.9523729995
20
-477.7201868991
30
0.0000000000
10
-353.7343443718
20
-477.9636023146
30
0.0000000000
10
-353.5362917524
20
-478.0866407216
30
0.0000000000
10
-353.4231885613
20
-478.1431923171
30
0.0000000000
11
-354.0089749989
21
-477.4360855359
31
0.0000000000
11
-353.9408266515
21
-477.6949045810
31
0.0000000000
11
-353.7410258064
21
-477.9360855359
31
0.0000000000
11
-353.4231885613
21
-478.1431923171
31
0.0000000000
0
SPLINE
5
37B
100
AcDbEntity
8
0
100
AcDbSpline
62
7
6
CONTINUOUS
70
0
71
3
72
11
73
7
74
5
42
0.0000001000
43
0.0000001000
44
0.0000000001
12
0.8290696914
22
-0.4145348457
32
0.0000000000
13
0.8327870257
23
0.4164555360
33
0.0000000000
40
0.0000000000
40
0.0000000000
40
0.0000000000
40
0.0000000000
40
0.3183488335
40
0.6069120174
40
0.8738205244
40
1.0000000000
40
1.0000000000
40
1.0000000000
40
1.0000000000
10
-342.1094800623
20
-484.1178838118
30
0.0000000000
10
-342.0215022726
20
-484.1618727067
30
0.0000000000
10
-341.8454136995
20
-484.2308646205
30
0.0000000000
10
-341.5751862643
20
-484.2689839138
30
0.0000000000
10
-341.3634518133
20
-484.2382824503
30
0.0000000000
10
-341.2501276809
20
-484.1921296731
30
0.0000000000
10
-341.2151008042
20
-484.1746136260
30
0.0000000000
11
-342.1094800623
21
-484.1178838118
31
0.0000000000
11
-341.8335806830
21
-484.2225526309
31
0.0000000000
11
-341.5682839621
21
-484.2566373447
31
0.0000000000
11
-341.3237851039
21
-484.2188280969
31
0.0000000000
11
-341.2151008042
21
-484.1746136260
31
0.0000000000
0
SPLINE
5
37C
100
AcDbEntity
8
0
100
AcDbSpline
62
7
6
CONTINUOUS
70
0
71
3
72
9
73
5
74
3
42
0.0000001000
43
0.0000001000
44
0.0000000001
12
-0.7585976713
22
0.3792988357
32
0.0000000000
13
-0.1864337921
23
0.8314631916
33
0.0000000000
40
0.0000000000
40
0.0000000000
40
0.0000000000
40
0.0000000000
40
0.6366268803
40
1.0000000000
40
1.0000000000
40
1.0000000000
40
1.0000000000
10
-352.0089749989
20
-479.1681363435
30
0.0000000000
10
-352.1699562218
20
-479.0876457320
30
0.0000000000
10
-352.4149375734
20
-478.9325587213
30
0.0000000000
10
-352.5603050630
20
-478.6658336301
30
0.0000000000
10
-352.5828867392
20
-478.5651231722
30
0.0000000000
11
-352.0089749989
21
-479.1681363435
31
0.0000000000
11
-352.4415067698
21
-478.8449343923
31
0.0000000000
11
-352.5828867392
21
-478.5651231722
31
0.0000000000
0
SPLINE
5
37D
100
AcDbEntity
8
0
100
AcDbSpline
62
7
6
CONTINUOUS
70
0
71
3
72
10
73
6
74
4
42
0.0000001000
43
0.0000001000
44
0.0000000001
12
-1.5316188661
22
0.7658094330
32
0.0000000000
13
-1.7121961138
23
-0.1105137594
33
0.0000000000
40
0.0000000000
40
0.0000000000
40
0.0000000000
40
0.0000000000
40
0.3994971777
40
0.8486574205
40
1.0000000000
40
1.0000000000
40
1.0000000000
40
1.0000000000
10
-304.6328206594
20
8.8407867524
30
0.0000000000
10
-304.8367797975
20
8.9427663215
30
0.0000000000
10
-305.3056039665
20
9.0882791459
30
0.0000000000
10
-305.8766390236
20
9.1416708772
30
0.0000000000
10
-306.2201385950
20
9.1310278046
30
0.0000000000
10
-306.3065146538
20
9.1254526588
30
0.0000000000
11
-304.6328206594
21
8.8407867524
31
0.0000000000
11
-305.2816673570
21
9.0575595037
31
0.0000000000
11
-306.0470342218
21
9.1336799712
31
0.0000000000
11
-306.3065146538
21
9.1254526588
31
0.0000000000
0
SPLINE
5
37E
100
AcDbEntity
8
0
100
AcDbSpline
62
7
6
CONTINUOUS
70
0
71
3
72
8
73
4
74
2
42
0.0000001000
43
0.0000001000
44
0.0000000001
12
-0.5099222458
22
-0.0329129496
32
0.0000000000
13
-0.5000791085
23
-0.1042473321
33
0.0000000000
40
0.0000000000
40
0.0000000000
40
0.0000000000
40
0.0000000000
40
1.0000000000
40
1.0000000000
40
1.0000000000
40
1.0000000000
10
-306.3065146538
20
9.1254526588
30
0.0000000000
10
-306.4764887357
20
9.1144816756
30
0.0000000000
10
-306.6457080503
20
9.0923086144
30
0.0000000000
10
-306.8124010865
20
9.0575595037
30
0.0000000000
11
-306.3065146538
21
9.1254526588
31
0.0000000000
11
-306.8124010865
21
9.0575595037
31
0.0000000000
0
SPLINE
5
37F
100
AcDbEntity
8
0
100
AcDbSpline
62
7
6
CONTINUOUS
70
0
71
3
72
9
73
5
74
3
42
0.0000001000
43
0.0000001000
44
0.0000000001
12
-0.7830611025
22
-0.1632382346
32
0.0000000000
13
-0.7006628512
23
-0.3955264415
33
0.0000000000
40
0.0000000000
40
0.0000000000
40
0.0000000000
40
0.0000000000
40
0.8566557295
40
1.0000000000
40
1.0000000000
40
1.0000000000
40
1.0000000000
10
-306.8124010865
20
9.0575595037
30
0.0000000000
10
-307.0360056798
20
9.0109465141
30
0.0000000000
10
-307.2917196298
20
8.9301179282
30
0.0000000000
10
-307.5298886076
20
8.8061268035
30
0.0000000000
10
-307.5633672760
20
8.7872279871
30
0.0000000000
11
-306.8124010865
21
9.0575595037
31
0.0000000000
11
-307.4612477841
21
8.8407867524
31
0.0000000000
11
-307.5633672760
21
8.7872279871
31
0.0000000000
0
SPLINE
5
380
100
AcDbEntity
8
0
100
AcDbSpline
62
7
6
CONTINUOUS
70
0
71
3
72
10
73
6
74
4
42
0.0000001000
43
0.0000001000
44
0.0000000001
12
0.0000000000
22
0.6151711258
32
0.0000000000
13
-0.4723824280
23
0.4023547691
33
0.0000000000
40
0.0000000000
40
0.0000000000
40
0.0000000000
40
0.0000000000
40
0.3979639995
40
0.8173606145
40
1.0000000000
40
1.0000000000
40
1.0000000000
40
1.0000000000
10
-341.7559266717
20
-14.0428662522
30
0.0000000000
10
-341.7559266717
20
-13.9612609316
30
0.0000000000
10
-341.7931549340
20
-13.7932907752
30
0.0000000000
10
-341.8960658700
20
-13.6134945015
30
0.0000000000
10
-341.9833109357
20
-13.5228718886
30
0.0000000000
10
-342.0120694811
20
-13.4983766127
30
0.0000000000
11
-341.7559266717
21
-14.0428662522
31
0.0000000000
11
-341.8032938444
21
-13.8026763148
31
0.0000000000
11
-341.9327033670
21
-13.5794779045
31
0.0000000000
11
-342.0120694811
21
-13.4983766127
31
0.0000000000
0
SPLINE
5
381
100
AcDbEntity
8
0
100
AcDbSpline
62
7
6
CONTINUOUS
70
0
71
3
72
8
73
4
74
2
42
0.0000001000
43
0.0000001000
44
0.0000000001
12
-0.0899763993
22
0.0766379764
32
0.0000000000
13
-0.1048035061
23
0.0524017531
33
0.0000000000
40
0.0000000000
40
0.0000000000
40
0.0000000000
40
0.0000000000
40
1.0000000000
40
1.0000000000
40
1.0000000000
40
1.0000000000
10
-342.0120694811
20
-13.4983766127
30
0.0000000000
10
-342.0420616143
20
-13.4728306205
30
0.0000000000
10
-342.0745455602
20
-13.4505441060
30
0.0000000000
10
-342.1094800623
20
-13.4330768550
30
0.0000000000
11
-342.0120694811
21
-13.4983766127
31
0.0000000000
11
-342.1094800623
21
-13.4330768550
31
0.0000000000
0
SPLINE
5
382
100
AcDbEntity
8
0
100
AcDbSpline
62
7
6
CONTINUOUS
70
0
71
3
72
11
73
7
74
5
42
0.0000001000
43
0.0000001000
44
0.0000000001
12
-2.5996413100
22
1.2998206550
32
0.0000000000
13
-2.5996413100
23
-1.2998206550
33
0.0000000000
40
0.0000000000
40
0.0000000000
40
0.0000000000
40
0.0000000000
40
0.2345038175
40
0.4991197935
40
0.7642719269
40
1.0000000000
40
1.0000000000
40
1.0000000000
40
1.0000000000
10
-307.4612477841
20
15.0895723264
30
0.0000000000
10
-307.6644563879
20
15.1911766283
30
0.0000000000
10
-308.1322558481
20
15.3366340273
30
0.0000000000
10
-308.8733958491
20
15.4065592408
30
0.0000000000
10
-309.6157918603
20
15.3373353162
30
0.0000000000
10
-310.0854054300
20
15.1917070659
30
0.0000000000
10
-310.2896749089
20
15.0895723264
30
0.0000000000
11
-307.4612477841
21
15.0895723264
31
0.0000000000
11
-308.1076123422
21
15.3058300326
31
0.0000000000
11
-308.8728878003
21
15.3824647173
31
0.0000000000
11
-309.6398017227
21
15.3065575035
31
0.0000000000
11
-310.2896749089
21
15.0895723264
31
0.0000000000
0
SPLINE
5
383
100
AcDbEntity
8
0
100
AcDbSpline
62
7
6
CONTINUOUS
70
0
71
3
72
9
73
5
74
3
42
0.0000001000
43
0.0000001000
44
0.0000000001
12
-0.8526506915
22
-0.4263253458
32
0.0000000000
13
-0.0005924972
23
-0.9467166417
33
0.0000000000
40
0.0000000000
40
0.0000000000
40
0.0000000000
40
0.0000000000
40
0.5687010423
40
1.0000000000
40
1.0000000000
40
1.0000000000
40
1.0000000000
10
-352.0089749989
20
-5.7700777186
30
0.0000000000
10
-352.1706094446
20
-5.8508949414
30
0.0000000000
10
-352.4461801425
20
-6.0253340040
30
0.0000000000
10
-352.5946756238
20
-6.3411121709
30
0.0000000000
10
-352.5947608049
20
-6.4772181378
30
0.0000000000
11
-352.0089749989
21
-5.7700777186
31
0.0000000000
11
-352.4429453530
21
-6.0950143117
31
0.0000000000
11
-352.5947608049
21
-6.4772181378
31
0.0000000000
0
SPLINE
5
384
100
AcDbEntity
8
0
100
AcDbSpline
62
7
6
CONTINUOUS
70
0
71
3
72
10
73
6
74
4
42
0.0000001000
43
0.0000001000
44
0.0000000001
12
1.5316188661
22
-0.7658094330
32
0.0000000000
13
1.7121961138
23
0.1105137594
33
0.0000000000
40
0.0000000000
40
0.0000000000
40
0.0000000000
40
0.0000000000
40
0.3994971777
40
0.8486574205
40
1.0000000000
40
1.0000000000
40
1.0000000000
40
1.0000000000
10
-307.4612477841
20
8.7256112957
30
0.0000000000
10
-307.2572886460
20
8.6236317267
30
0.0000000000
10
-306.7884644770
20
8.4781189022
30
0.0000000000
10
-306.2174294199
20
8.4247271710
30
0.0000000000
10
-305.8739298485
20
8.4353702435
30
0.0000000000
10
-305.7875537897
20
8.4409453893
30
0.0000000000
11
-307.4612477841
21
8.7256112957
31
0.0000000000
11
-306.8124010865
21
8.5088385444
31
0.0000000000
11
-306.0470342218
21
8.4327180769
31
0.0000000000
11
-305.7875537897
21
8.4409453893
31
0.0000000000
0
SPLINE
5
385
100
AcDbEntity
8
0
100
AcDbSpline
62
7
6
CONTINUOUS
70
0
71
3
72
11
73
7
74
5
42
0.0000001000
43
0.0000001000
44
0.0000000001
12
2.0158365450
22
0.1301122419
32
0.0000000000
13
0.5431360837
23
1.9621468805
33
0.0000000000
40
0.0000000000
40
0.0000000000
40
0.0000000000
40
0.0000000000
40
0.2529581315
40
0.5922800457
40
0.8608661291
40
1.0000000000
40
1.0000000000
40
1.0000000000
40
1.0000000000
10
-305.7875537897
20
8.4409453893
30
0.0000000000
10
-305.6175797078
20
8.4519163725
30
0.0000000000
10
-305.2213670113
20
8.5038327177
30
0.0000000000
10
-304.6656106311
20
8.6795016726
30
0.0000000000
10
-304.2341204061
20
8.9568769829
30
0.0000000000
10
-304.0906276075
20
9.2121731119
30
0.0000000000
10
-304.0654380656
20
9.3031734755
30
0.0000000000
11
-305.7875537897
21
8.4409453893
31
0.0000000000
11
-305.2816673570
21
8.5088385444
31
0.0000000000
11
-304.6328206594
21
8.7256112957
31
0.0000000000
11
-304.1992751567
21
9.0500346445
31
0.0000000000
11
-304.0654380656
21
9.3031734755
31
0.0000000000
0
SPLINE
5
386
100
AcDbEntity
8
0
100
AcDbSpline
62
7
6
CONTINUOUS
70
0
71
3
72
8
73
4
74
2
42
0.0000001000
43
0.0000001000
44
0.0000000001
12
0.0353858109
22
0.1278356576
32
0.0000000000
13
0.0000806321
23
0.1304096092
33
0.0000000000
40
0.0000000000
40
0.0000000000
40
0.0000000000
40
0.0000000000
40
1.0000000000
40
1.0000000000
40
1.0000000000
40
1.0000000000
10
-304.0654380656
20
9.3031734755
30
0.0000000000
10
-304.0536427953
20
9.3457853614
30
0.0000000000
10
-304.0470610991
20
9.3892482072
30
0.0000000000
10
-304.0470342218
20
9.4327180769
30
0.0000000000
11
-304.0654380656
21
9.3031734755
31
0.0000000000
11
-304.0470342218
21
9.4327180769
31
0.0000000000
0
SPLINE
5
387
100
AcDbEntity
8
0
100
AcDbSpline
62
7
6
CONTINUOUS
70
0
71
3
72
8
73
4
74
2
42
0.0000001000
43
0.0000001000
44
0.0000000001
12
-0.1803627364
22
0.0901813682
32
0.0000000000
13
-0.1706369785
23
0.1096670248
33
0.0000000000
40
0.0000000000
40
0.0000000000
40
0.0000000000
40
0.0000000000
40
1.0000000000
40
1.0000000000
40
1.0000000000
40
1.0000000000
10
-352.0089749989
20
-8.4833293867
30
0.0000000000
10
-352.0690959110
20
-8.4532689306
30
0.0000000000
10
-352.1285165489
20
-8.4206642408
30
0.0000000000
10
-352.1853955417
20
-8.3841085659
30
0.0000000000
11
-352.0089749989
21
-8.4833293867
31
0.0000000000
11
-352.1853955417
21
-8.3841085659
31
0.0000000000
0
SPLINE
5
388
100
AcDbEntity
8
0
100
AcDbSpline
62
7
6
CONTINUOUS
70
0
71
3
72
8
73
4
74
2
42
0.0000001000
43
0.0000001000
44
0.0000000001
12
-0.1517815911
22
0.0975488177
32
0.0000000000
13
-0.1358279695
23
0.1192753142
33
0.0000000000
40
0.0000000000
40
0.0000000000
40
0.0000000000
40
0.0000000000
40
1.0000000000
40
1.0000000000
40
1.0000000000
40
1.0000000000
10
-352.1853955417
20
-8.3841085659
30
0.0000000000
10
-352.2359894054
20
-8.3515922934
30
0.0000000000
10
-352.2845722935
20
-8.3159499609
30
0.0000000000
10
-352.3298482833
20
-8.2761915228
30
0.0000000000
11
-352.1853955417
21
-8.3841085659
31
0.0000000000
11
-352.3298482833
21
-8.2761915228
31
0.0000000000
0
SPLINE
5
389
100
AcDbEntity
8
0
100
AcDbSpline
62
7
6
CONTINUOUS
70
0
71
3
72
9
73
5
74
3
42
0.0000001000
43
0.0000001000
44
0.0000000001
12
-0.3328963683
22
0.2923280018
32
0.0000000000
13
-0.1191507785
23
0.4276976940
33
0.0000000000
40
0.0000000000
40
0.0000000000
40
0.0000000000
40
0.0000000000
40
0.3614606313
40
1.0000000000
40
1.0000000000
40
1.0000000000
40
1.0000000000
10
-352.3298482833
20
-8.2761915228
30
0.0000000000
10
-352.3699579271
20
-8.2409698348
30
0.0000000000
10
-352.4737434313
20
-8.1345902612
30
0.0000000000
10
-352.5507691796
20
-7.9982178984
30
0.0000000000
10
-352.5761300006
20
-7.9071839600
30
0.0000000000
11
-352.3298482833
21
-8.2761915228
31
0.0000000000
11
-352.4414904114
21
-8.1601471076
31
0.0000000000
11
-352.5761300006
21
-7.9071839600
31
0.0000000000
0
SPLINE
5
38A
100
AcDbEntity
8
0
100
AcDbSpline
62
7
6
CONTINUOUS
70
0
71
3
72
8
73
4
74
2
42
0.0000001000
43
0.0000001000
44
0.0000000001
12
-0.0359792939
22
0.1291494796
32
0.0000000000
13
0.0000825056
23
0.1318309032
33
0.0000000000
40
0.0000000000
40
0.0000000000
40
0.0000000000
40
0.0000000000
40
1.0000000000
40
1.0000000000
40
1.0000000000
40
1.0000000000
10
-352.5761300006
20
-7.9071839600
30
0.0000000000
10
-352.5881230986
20
-7.8641341334
30
0.0000000000
10
-352.5947883068
20
-7.8201998779
30
0.0000000000
10
-352.5947608049
20
-7.7762562434
30
0.0000000000
11
-352.5761300006
21
-7.9071839600
31
0.0000000000
11
-352.5947608049
21
-7.7762562434
31
0.0000000000
0
SPLINE
5
38B
100
AcDbEntity
8
0
100
AcDbSpline
62
7
6
CONTINUOUS
70
0
71
3
72
13
73
9
74
7
42
0.0000001000
43
0.0000001000
44
0.0000000001
12
2.6028004938
22
-1.3014002469
32
0.0000000000
13
2.6028004938
23
1.3014002469
33
0.0000000000
40
0.0000000000
40
0.0000000000
40
0.0000000000
40
0.0000000000
40
0.1524570658
40
0.3217337100
40
0.5000000000
40
0.6782662900
40
0.8475429342
40
1.0000000000
40
1.0000000000
40
1.0000000000
40
1.0000000000
10
-343.5236936246
20
-14.5731963380
30
0.0000000000
10
-343.3914218492
20
-14.6393322257
30
0.0000000000
10
-343.0968357863
20
-14.7484564487
30
0.0000000000
10
-342.6199504701
20
-14.8444272211
30
0.0000000000
10
-342.1094800623
20
-14.8772008869
30
0.0000000000
10
-341.5990096544
20
-14.8444272211
30
0.0000000000
10
-341.1221243383
20
-14.7484564487
30
0.0000000000
10
-340.8275382753
20
-14.6393322257
30
0.0000000000
10
-340.6952664999
20
-14.5731963380
30
0.0000000000
11
-343.5236936246
21
-14.5731963380
31
0.0000000000
11
-343.1094800623
21
-14.7321149606
31
0.0000000000
11
-342.6271181525
21
-14.8320153831
31
0.0000000000
11
-342.1094800623
21
-14.8660895569
31
0.0000000000
11
-341.5918419721
21
-14.8320153831
31
0.0000000000
11
-341.1094800623
21
-14.7321149606
31
0.0000000000
11
-340.6952664999
21
-14.5731963380
31
0.0000000000
0
SPLINE
5
38C
100
AcDbEntity
8
0
100
AcDbSpline
62
7
6
CONTINUOUS
70
0
71
3
72
12
73
8
74
6
42
0.0000001000
43
0.0000001000
44
0.0000000001
12
1.1323170694
22
0.5662428658
32
0.0000000000
13
-0.0000000000
23
1.2603180291
33
0.0000000000
40
0.0000000000
40
0.0000000000
40
0.0000000000
40
0.0000000000
40
0.0977006842
40
0.2942993550
40
0.5070334244
40
0.7417668452
40
1.0000000000
40
1.0000000000
40
1.0000000000
40
1.0000000000
10
-341.2151008042
20
-484.1746136260
30
0.0000000000
10
-341.1782247534
20
-484.1561728542
30
0.0000000000
10
-341.0716508065
20
-484.0916060050
30
0.0000000000
10
-340.9195483024
20
-483.9377599683
30
0.0000000000
10
-340.7891985037
20
-483.6972541034
30
0.0000000000
10
-340.7110311476
20
-483.4091197763
30
0.0000000000
10
-340.6952664999
20
-483.2014250857
30
0.0000000000
10
-340.6952664999
20
-483.0929397854
30
0.0000000000
11
-341.2151008042
21
-484.1746136260
31
0.0000000000
11
-341.1094800623
21
-484.1105778756
31
0.0000000000
11
-340.9336044598
21
-483.9360466762
31
0.0000000000
11
-340.8029170974
21
-483.7019416347
31
0.0000000000
11
-340.7224402169
21
-483.4172592767
31
0.0000000000
11
-340.6952664999
21
-483.0929397854
31
0.0000000000
0
SPLINE
5
38D
100
AcDbEntity
8
0
100
AcDbSpline
62
7
6
CONTINUOUS
70
0
71
3
72
9
73
5
74
3
42
0.0000001000
43
0.0000001000
44
0.0000000001
12
0.0005852348
22
0.9465240543
32
0.0000000000
13
-0.8526976612
23
0.4263488306
33
0.0000000000
40
0.0000000000
40
0.0000000000
40
0.0000000000
40
0.0000000000
40
0.4320096608
40
1.0000000000
40
1.0000000000
40
1.0000000000
40
1.0000000000
10
-304.0470342218
20
9.4327180769
30
0.0000000000
10
-304.0469499461
20
9.5690205888
30
0.0000000000
10
-304.1959306328
20
9.8846884599
30
0.0000000000
10
-304.4713793148
20
10.0591041858
30
0.0000000000
10
-304.6328206594
20
10.1398248581
30
0.0000000000
11
-304.0470342218
21
9.4327180769
31
0.0000000000
11
-304.1992751567
21
9.8154015093
31
0.0000000000
11
-304.6328206594
21
10.1398248581
31
0.0000000000
0
SPLINE
5
38E
100
AcDbEntity
8
0
100
AcDbSpline
62
7
6
CONTINUOUS
70
0
71
3
72
9
73
5
74
3
42
0.0000001000
43
0.0000001000
44
0.0000000001
12
-0.0005925500
22
-0.9468010764
32
0.0000000000
13
0.8527267367
23
-0.4263633684
33
0.0000000000
40
0.0000000000
40
0.0000000000
40
0.0000000000
40
0.0000000000
40
0.4336738897
40
1.0000000000
40
1.0000000000
40
1.0000000000
40
1.0000000000
10
-352.5947608049
20
-6.4772181378
30
0.0000000000
10
-352.5948464628
20
-6.6140857729
30
0.0000000000
10
-352.4453269134
20
-6.9294762993
30
0.0000000000
10
-352.1699488042
20
-7.1038043783
30
0.0000000000
10
-352.0089749989
20
-7.1842912810
30
0.0000000000
11
-352.5947608049
21
-6.4772181378
31
0.0000000000
11
-352.4414904114
21
-6.8611090019
31
0.0000000000
11
-352.0089749989
21
-7.1842912810
31
0.0000000000
0
SPLINE
5
38F
100
AcDbEntity
8
0
100
AcDbSpline
62
7
6
CONTINUOUS
70
0
71
3
72
10
73
6
74
4
42
0.0000001000
43
0.0000001000
44
0.0000000001
12
2.6201171525
22
-1.3100585763
32
0.0000000000
13
0.0000000000
23
-2.9293800310
33
0.0000000000
40
0.0000000000
40
0.0000000000
40
0.0000000000
40
0.0000000000
40
0.3134156114
40
0.6657095235
40
1.0000000000
40
1.0000000000
40
1.0000000000
40
1.0000000000
10
-342.1094800623
20
-12.1340387493
30
0.0000000000
10
-341.8357515225
20
-12.2709030192
30
0.0000000000
10
-341.3342305746
20
-12.7187235344
30
0.0000000000
10
-340.8441795492
20
-13.5748944304
30
0.0000000000
10
-340.6952664999
20
-14.2467750559
30
0.0000000000
10
-340.6952664999
20
-14.5731963380
30
0.0000000000
11
-342.1094800623
21
-12.1340387493
31
0.0000000000
11
-341.4023732811
21
-12.7196429475
31
0.0000000000
11
-340.8847351909
21
-13.6124365888
31
0.0000000000
11
-340.6952664999
21
-14.5731963380
31
0.0000000000
0
SPLINE
5
390
100
AcDbEntity
8
0
100
AcDbSpline
62
7
6
CONTINUOUS
70
0
71
3
72
9
73
5
74
3
42
0.0000001000
43
0.0000001000
44
0.0000000001
12
0.0000000000
22
0.2367008792
32
0.0000000000
13
0.2131744153
23
0.1065872076
33
0.0000000000
40
0.0000000000
40
0.0000000000
40
0.0000000000
40
0.0000000000
40
0.4320096608
40
1.0000000000
40
1.0000000000
40
1.0000000000
40
1.0000000000
10
-352.5089749989
20
-8.9163420886
30
0.0000000000
10
-352.5089749989
20
-8.8822563997
30
0.0000000000
10
-352.4717647464
20
-8.8033561066
30
0.0000000000
10
-352.4028887256
20
-8.7597455613
30
0.0000000000
10
-352.3625283895
20
-8.7395653933
30
0.0000000000
11
-352.5089749989
21
-8.9163420886
31
0.0000000000
11
-352.4709147651
21
-8.8206712305
31
0.0000000000
11
-352.3625283895
21
-8.7395653933
31
0.0000000000
0
SPLINE
5
391
100
AcDbEntity
8
0
100
AcDbSpline
62
7
6
CONTINUOUS
70
0
71
3
72
13
73
9
74
7
42
0.0000001000
43
0.0000001000
44
0.0000000001
12
-3.4523370934
22
1.7261685467
32
0.0000000000
13
-0.0023694538
23
-3.8322142202
33
0.0000000000
40
0.0000000000
40
0.0000000000
40
0.0000000000
40
0.0000000000
40
0.1772357096
40
0.3765042871
40
0.5757728646
40
0.7530085742
40
0.8932973179
40
1.0000000000
40
1.0000000000
40
1.0000000000
40
1.0000000000
10
-304.6328206594
20
10.1398248581
30
0.0000000000
10
-304.8367797975
20
10.2418044271
30
0.0000000000
10
-305.3056039665
20
10.3873172516
30
0.0000000000
10
-306.0467033500
20
10.4566099835
30
0.0000000000
10
-306.7897147961
20
10.3878346701
30
0.0000000000
10
-307.4284578124
20
10.1859344812
30
0.0000000000
10
-307.8975791028
20
9.8843687539
30
0.0000000000
10
-308.0469499461
20
9.5690205888
30
0.0000000000
10
-308.0470342218
20
9.4327180769
30
0.0000000000
11
-304.6328206594
21
10.1398248581
31
0.0000000000
11
-305.2816673570
21
10.3565976094
31
0.0000000000
11
-306.0470342218
21
10.4327180769
31
0.0000000000
11
-306.8124010865
21
10.3565976094
31
0.0000000000
11
-307.4612477841
21
10.1398248581
31
0.0000000000
11
-307.8947932868
21
9.8154015093
31
0.0000000000
11
-308.0470342218
21
9.4327180769
31
0.0000000000
0
SPLINE
5
392
100
AcDbEntity
8
0
100
AcDbSpline
62
7
6
CONTINUOUS
70
0
71
3
72
10
73
6
74
4
42
0.0000001000
43
0.0000001000
44
0.0000000001
12
0.0000000000
22
-0.9645276564
32
0.0000000000
13
0.8588211978
23
-0.4294105989
33
0.0000000000
40
0.0000000000
40
0.0000000000
40
0.0000000000
40
0.0000000000
40
0.2787367596
40
0.6049124378
40
1.0000000000
40
1.0000000000
40
1.0000000000
40
1.0000000000
10
-354.0089749989
20
-8.9163420886
30
0.0000000000
10
-354.0089749989
20
-9.0059585264
30
0.0000000000
10
-353.9523729995
20
-9.2004434517
30
0.0000000000
10
-353.7343443718
20
-9.4438588672
30
0.0000000000
10
-353.5362917524
20
-9.5668972742
30
0.0000000000
10
-353.4231885613
20
-9.6234488697
30
0.0000000000
11
-354.0089749989
21
-8.9163420886
31
0.0000000000
11
-353.9408266515
21
-9.1751611337
31
0.0000000000
11
-353.7410258064
21
-9.4163420886
31
0.0000000000
11
-353.4231885613
21
-9.6234488697
31
0.0000000000
0
SPLINE
5
393
100
AcDbEntity
8
0
100
AcDbSpline
62
7
6
CONTINUOUS
70
0
71
3
72
15
73
11
74
9
42
0.0000001000
43
0.0000001000
44
0.0000000001
12
-8.5794275494
22
9.1219008540
32
0.0000000000
13
-1.1165450997
23
-12.4727294249
33
0.0000000000
40
0.0000000000
40
0.0000000000
40
0.0000000000
40
0.0000000000
40
0.0911681124
40
0.1886680942
40
0.2978230799
40
0.4227887469
40
0.5621940001
40
0.7123368459
40
0.8649851652
40
1.0000000000
40
1.0000000000
40
1.0000000000
40
1.0000000000
10
-318.1163334954
20
-318.0349738525
30
0.0000000000
10
-318.3770569005
20
-317.7577650251
30
0.0000000000
10
-319.0663678732
20
-317.3080500000
30
0.0000000000
10
-320.3449134152
20
-317.1818568167
30
0.0000000000
10
-321.6893867589
20
-317.6124397109
30
0.0000000000
10
-322.9968927064
20
-318.4899255887
30
0.0000000000
10
-324.1819635508
20
-319.7678741068
30
0.0000000000
10
-325.1730546911
20
-321.3365867504
30
0.0000000000
10
-325.8663084299
20
-323.0365853573
30
0.0000000000
10
-326.1215579955
20
-324.2197914012
30
0.0000000000
10
-326.1718080462
20
-324.7811259021
30
0.0000000000
11
-318.1163334954
21
-318.0349738525
31
0.0000000000
11
-319.0714025074
21
-317.4094852161
31
0.0000000000
11
-320.2838976315
21
-317.2660146222
31
0.0000000000
11
-321.5971019897
21
-317.6453866775
31
0.0000000000
11
-322.9084542691
21
-318.4993503550
31
0.0000000000
11
-324.1098100727
21
-319.7659489967
31
0.0000000000
11
-325.1184643986
21
-321.3526726541
31
0.0000000000
11
-325.8378403804
21
-323.1237004879
31
0.0000000000
11
-326.1718080462
21
-324.7811259021
31
0.0000000000
0
SPLINE
5
394
100
AcDbEntity
8
0
100
AcDbSpline
62
7
6
CONTINUOUS
70
0
71
3
72
10
73
6
74
4
42
0.0000001000
43
0.0000001000
44
0.0000000001
12
-0.5341309286
22
1.5961011143
32
0.0000000000
13
-1.0751438105
23
1.2949518920
33
0.0000000000
40
0.0000000000
40
0.0000000000
40
0.0000000000
40
0.0000000000
40
0.3645829734
40
0.6975253721
40
1.0000000000
40
1.0000000000
40
1.0000000000
40
1.0000000000
10
-317.3374289955
20
-319.5175744105
30
0.0000000000
10
-317.4023406762
20
-319.3236039805
30
0.0000000000
10
-317.5434189555
20
-318.9577074134
30
0.0000000000
10
-317.8024882909
20
-318.4587141773
30
0.0000000000
10
-318.0079322541
20
-318.1655372164
30
0.0000000000
10
-318.1163334954
20
-318.0349738525
30
0.0000000000
11
-317.3374289955
21
-319.5175744105
31
0.0000000000
11
-317.5606449199
21
-318.9459826530
31
0.0000000000
11
-317.8215905563
21
-318.4500704556
31
0.0000000000
11
-318.1163334954
21
-318.0349738525
31
0.0000000000
0
SPLINE
5
395
100
AcDbEntity
8
0
100
AcDbSpline
62
7
6
CONTINUOUS
70
0
71
3
72
10
73
6
74
4
42
0.0000001000
43
0.0000001000
44
0.0000000001
12
1.6646196145
22
-0.9591224345
32
0.0000000000
13
0.0350329678
23
-1.9208453859
33
0.0000000000
40
0.0000000000
40
0.0000000000
40
0.0000000000
40
0.0000000000
40
0.2761884048
40
0.6204155801
40
1.0000000000
40
1.0000000000
40
1.0000000000
40
1.0000000000
10
-320.2038434911
20
-320.8607655954
30
0.0000000000
10
-320.0505939457
20
-320.9490650938
30
0.0000000000
10
-319.7597855124
20
-321.2409936641
30
0.0000000000
10
-319.5008604944
20
-321.8372698148
30
0.0000000000
10
-319.4365491678
20
-322.3022305582
30
0.0000000000
10
-319.4321165115
20
-322.5452715520
30
0.0000000000
11
-320.2038434911
21
-320.8607655954
31
0.0000000000
11
-319.8174731470
21
-321.2244384955
31
0.0000000000
11
-319.5378575309
21
-321.8237343077
31
0.0000000000
11
-319.4321165115
21
-322.5452715520
31
0.0000000000
0
SPLINE
5
396
100
AcDbEntity
8
0
100
AcDbSpline
62
7
6
CONTINUOUS
70
0
71
3
72
14
73
10
74
8
42
0.0000001000
43
0.0000001000
44
0.0000000001
12
0.3272246375
22
5.8681841269
32
0.0000000000
13
4.9763161762
23
-3.1271293905
33
0.0000000000
40
0.0000000000
40
0.0000000000
40
0.0000000000
40
0.0000000000
40
0.1521585279
40
0.3314318485
40
0.5039349559
40
0.6533987589
40
0.7919026641
40
0.9083340584
40
1.0000000000
40
1.0000000000
40
1.0000000000
40
1.0000000000
10
-323.8933760113
20
-324.5058531133
30
0.0000000000
10
-323.8767793383
20
-324.2082216939
30
0.0000000000
10
-323.7456454707
20
-323.5649825661
30
0.0000000000
10
-323.3591429712
20
-322.6514043375
30
0.0000000000
10
-322.8157474281
20
-321.8244846840
30
0.0000000000
10
-322.1520721231
20
-321.2004748090
30
0.0000000000
10
-321.4506126263
20
-320.8135168625
30
0.0000000000
10
-320.7742093723
20
-320.6645999950
30
0.0000000000
10
-320.3558963937
20
-320.7652151753
30
0.0000000000
10
-320.2038434911
20
-320.8607655954
30
0.0000000000
11
-323.8933760113
21
-324.5058531133
31
0.0000000000
11
-323.7304357327
21
-323.6265410710
31
0.0000000000
11
-323.3249765902
21
-322.6540356368
31
0.0000000000
11
-322.7577572260
21
-321.8137027987
31
0.0000000000
11
-322.1135244956
21
-321.2165198370
31
0.0000000000
11
-321.3960005473
21
-320.8320686607
31
0.0000000000
11
-320.7220582604
21
-320.7134456554
31
0.0000000000
11
-320.2038434911
21
-320.8607655954
31
0.0000000000
0
SPLINE
5
397
100
AcDbEntity
8
0
100
AcDbSpline
62
7
6
CONTINUOUS
70
0
71
3
72
10
73
6
74
4
42
0.0000001000
43
0.0000001000
44
0.0000000001
12
-1.4679182256
22
-3.6453890771
32
0.0000000000
13
-3.3598810733
23
-2.0383435956
33
0.0000000000
40
0.0000000000
40
0.0000000000
40
0.0000000000
40
0.0000000000
40
0.3080625608
40
0.6267630055
40
1.0000000000
40
1.0000000000
40
1.0000000000
40
1.0000000000
10
-314.2279320084
20
-116.0581948032
30
0.0000000000
10
-314.3786688909
20
-116.4325307680
30
0.0000000000
10
-314.7612296965
20
-117.1667861766
30
0.0000000000
10
-315.6087352483
20
-118.1783639818
30
0.0000000000
10
-316.3403713638
20
-118.7290075350
30
0.0000000000
10
-316.7583820017
20
-118.9826026142
30
0.0000000000
11
-314.2279320084
21
-116.0581948032
31
0.0000000000
11
-314.7906420957
21
-117.1301083063
31
0.0000000000
11
-315.5933218386
21
-118.0915217904
31
0.0000000000
11
-316.7583820017
21
-118.9826026142
31
0.0000000000
0
SPLINE
5
398
100
AcDbEntity
8
0
100
AcDbSpline
62
7
6
CONTINUOUS
70
0
71
3
72
10
73
6
74
4
42
0.0000001000
43
0.0000001000
44
0.0000000001
12
0.0000000000
22
-4.3954410940
32
0.0000000000
13
-1.6418346450
23
-4.0772884873
33
0.0000000000
40
0.0000000000
40
0.0000000000
40
0.0000000000
40
0.0000000000
40
0.3903955356
40
0.7189182421
40
1.0000000000
40
1.0000000000
40
1.0000000000
40
1.0000000000
10
-313.4940734973
20
-111.7486218677
30
0.0000000000
10
-313.4940734973
20
-112.3206087277
30
0.0000000000
10
-313.5467763911
20
-113.3755082001
30
0.0000000000
10
-313.8014668208
20
-114.8221685948
30
0.0000000000
10
-314.0741020857
20
-115.6761776647
30
0.0000000000
10
-314.2279320084
20
-116.0581948032
30
0.0000000000
11
-313.4940734973
21
-111.7486218677
31
0.0000000000
11
-313.5897646458
21
-113.4619122449
31
0.0000000000
11
-313.8476382047
21
-114.8827020232
31
0.0000000000
11
-314.2279320084
21
-116.0581948032
31
0.0000000000
0
SPLINE
5
399
100
AcDbEntity
8
0
100
AcDbSpline
62
7
6
CONTINUOUS
70
0
71
3
72
10
73
6
74
4
42
0.0000001000
43
0.0000001000
44
0.0000000001
12
1.7516859019
22
-2.8980554070
32
0.0000000000
13
-0.0000000000
23
-3.3863149058
33
0.0000000000
40
0.0000000000
40
0.0000000000
40
0.0000000000
40
0.0000000000
40
0.2432995478
40
0.5669953880
40
1.0000000000
40
1.0000000000
40
1.0000000000
40
1.0000000000
10
-314.1299709181
20
-108.4565443615
30
0.0000000000
10
-313.9879094555
20
-108.6915762181
30
0.0000000000
10
-313.7418166939
20
-109.2904366973
30
0.0000000000
10
-313.5316556740
20
-110.4039518656
30
0.0000000000
10
-313.4940734973
20
-111.2598585438
30
0.0000000000
10
-313.4940734973
20
-111.7486218677
30
0.0000000000
11
-314.1299709181
21
-108.4565443615
31
0.0000000000
11
-313.8000830766
21
-109.2115058885
31
0.0000000000
11
-313.5768516033
21
-110.2846703431
31
0.0000000000
11
-313.4940734973
21
-111.7486218677
31
0.0000000000
0
SPLINE
5
39A
100
AcDbEntity
8
0
100
AcDbSpline
62
7
6
CONTINUOUS
70
0
71
3
72
10
73
6
74
4
42
0.0000001000
43
0.0000001000
44
0.0000000001
12
1.8340863337
22
0.9170431669
32
0.0000000000
13
1.0607271223
23
-1.7549070692
33
0.0000000000
40
0.0000000000
40
0.0000000000
40
0.0000000000
40
0.0000000000
40
0.3501754134
40
0.6394316898
40
1.0000000000
40
1.0000000000
40
1.0000000000
40
1.0000000000
10
-315.9039010097
20
-107.9725668634
30
0.0000000000
10
-315.6898170297
20
-107.8655248734
30
0.0000000000
10
-315.2607018352
20
-107.7112719244
30
0.0000000000
10
-314.5563286850
20
-107.8811565656
30
0.0000000000
10
-314.2574591135
20
-108.2456230693
30
0.0000000000
10
-314.1299709181
20
-108.4565443615
30
0.0000000000
11
-315.9039010097
21
-107.9725668634
31
0.0000000000
11
-315.2134367452
21
-107.7754157976
31
0.0000000000
11
-314.6380334740
21
-107.9193835639
31
0.0000000000
11
-314.1299709181
21
-108.4565443615
31
0.0000000000
0
SPLINE
5
39B
100
AcDbEntity
8
0
100
AcDbSpline
62
7
6
CONTINUOUS
70
0
71
3
72
10
73
6
74
4
42
0.0000001000
43
0.0000001000
44
0.0000000001
12
0.7415383007
22
1.1937060539
32
0.0000000000
13
1.2569210618
23
0.6284605309
33
0.0000000000
40
0.0000000000
40
0.0000000000
40
0.0000000000
40
0.0000000000
40
0.3660963603
40
0.6894343387
40
1.0000000000
40
1.0000000000
40
1.0000000000
40
1.0000000000
10
-316.8994078944
20
-108.9418628451
30
0.0000000000
10
-316.8089164034
20
-108.7961923646
30
0.0000000000
10
-316.6196066235
20
-108.5326057112
30
0.0000000000
10
-316.2847430710
20
-108.2018244980
30
0.0000000000
10
-316.0340198500
20
-108.0376262835
30
0.0000000000
10
-315.9039010097
20
-107.9725668634
30
0.0000000000
11
-316.8994078944
21
-108.9418628451
31
0.0000000000
11
-316.5961479374
21
-108.5262779705
31
0.0000000000
11
-316.2704618076
21
-108.2094338052
31
0.0000000000
11
-315.9039010097
21
-107.9725668634
31
0.0000000000
0
SPLINE
5
39C
100
AcDbEntity
8
0
100
AcDbSpline
62
7
6
CONTINUOUS
70
0
71
3
72
10
73
6
74
4
42
0.0000001000
43
0.0000001000
44
0.0000000001
12
0.3393650651
22
0.9404972808
32
0.0000000000
13
0.5276017713
23
0.8493174633
33
0.0000000000
40
0.0000000000
40
0.0000000000
40
0.0000000000
40
0.0000000000
40
0.3209336150
40
0.6506259768
40
1.0000000000
40
1.0000000000
40
1.0000000000
40
1.0000000000
10
-317.3373582098
20
-109.8388737764
30
0.0000000000
10
-317.3010536574
20
-109.7382613790
30
0.0000000000
10
-317.2200633369
20
-109.5368738878
30
0.0000000000
10
-317.0740037141
20
-109.2370261576
30
0.0000000000
10
-316.9608513456
20
-109.0407726649
30
0.0000000000
10
-316.8994078944
20
-108.9418628451
30
0.0000000000
11
-317.3373582098
21
-109.8388737764
31
0.0000000000
11
-317.2177375315
21
-109.5411175528
31
0.0000000000
11
-317.0735858525
21
-109.2446632581
31
0.0000000000
11
-316.8994078944
21
-108.9418628451
31
0.0000000000
0
SPLINE
5
39D
100
AcDbEntity
8
0
100
AcDbSpline
62
7
6
CONTINUOUS
70
0
71
3
72
10
73
6
74
4
42
0.0000001000
43
0.0000001000
44
0.0000000001
12
0.6572148227
22
5.1037111507
32
0.0000000000
13
1.7465813007
23
4.8403773192
33
0.0000000000
40
0.0000000000
40
0.0000000000
40
0.0000000000
40
0.0000000000
40
0.4731756390
40
0.7949304334
40
1.0000000000
40
1.0000000000
40
1.0000000000
40
1.0000000000
10
-318.2810377224
20
-114.8911182385
30
0.0000000000
10
-318.1773783745
20
-114.0861343102
30
0.0000000000
10
-317.9895110917
20
-112.7349830009
30
0.0000000000
10
-317.6810703091
20
-111.0479014925
30
0.0000000000
10
-317.4567484333
20
-110.1697451361
30
0.0000000000
10
-317.3373582098
20
-109.8388737764
30
0.0000000000
11
-318.2810377224
21
-114.8911182385
31
0.0000000000
11
-317.9334157518
21
-112.4811683566
31
0.0000000000
11
-317.6220175668
21
-110.8550125413
31
0.0000000000
11
-317.3373582098
21
-109.8388737764
31
0.0000000000
0
SPLINE
5
39E
100
AcDbEntity
8
0
100
AcDbSpline
62
7
6
CONTINUOUS
70
0
71
3
72
10
73
6
74
4
42
0.0000001000
43
0.0000001000
44
0.0000000001
12
2.1830515336
22
5.5936586564
32
0.0000000000
13
0.7668865835
23
5.9553854728
33
0.0000000000
40
0.0000000000
40
0.0000000000
40
0.0000000000
40
0.0000000000
40
0.2183631487
40
0.5414632464
40
1.0000000000
40
1.0000000000
40
1.0000000000
40
1.0000000000
10
-319.4729536623
20
-120.7658133209
30
0.0000000000
10
-319.3140543268
20
-120.3586636819
30
0.0000000000
10
-319.0135006213
20
-119.3139264257
30
0.0000000000
10
-318.6213323151
20
-117.3507303494
30
0.0000000000
10
-318.3982529505
20
-115.8013726122
30
0.0000000000
10
-318.2810377224
20
-114.8911182385
30
0.0000000000
11
-319.4729536623
21
-120.7658133209
31
0.0000000000
11
-319.0859837651
21
-119.5130432921
31
0.0000000000
11
-318.6887059803
21
-117.6140814226
31
0.0000000000
11
-318.2810377224
21
-114.8911182385
31
0.0000000000
0
SPLINE
5
39F
100
AcDbEntity
8
0
100
AcDbSpline
62
7
6
CONTINUOUS
70
0
71
3
72
10
73
6
74
4
42
0.0000001000
43
0.0000001000
44
0.0000000001
12
0.6762129958
22
1.0958990734
32
0.0000000000
13
0.4681758544
23
1.1996125058
33
0.0000000000
40
0.0000000000
40
0.0000000000
40
0.0000000000
40
0.0000000000
40
0.3476700691
40
0.6781485525
40
1.0000000000
40
1.0000000000
40
1.0000000000
40
1.0000000000
10
-320.0501111653
20
-121.9151979003
30
0.0000000000
10
-319.9717448257
20
-121.7881941314
30
0.0000000000
10
-319.8257005727
20
-121.5361583732
30
0.0000000000
10
-319.6331308127
20
-121.1522634349
30
0.0000000000
10
-319.5231813545
20
-120.8945123280
30
0.0000000000
10
-319.4729536623
20
-120.7658133209
30
0.0000000000
11
-320.0501111653
21
-121.9151979003
31
0.0000000000
11
-319.8260599361
21
-121.5275869986
31
0.0000000000
11
-319.6354911962
21
-121.1470715660
31
0.0000000000
11
-319.4729536623
21
-120.7658133209
31
0.0000000000
0
SPLINE
5
3A0
100
AcDbEntity
8
0
100
AcDbSpline
62
7
6
CONTINUOUS
70
0
71
3
72
10
73
6
74
4
42
0.0000001000
43
0.0000001000
44
0.0000000001
12
2.5603360176
22
1.2801680088
32
0.0000000000
13
1.5031742605
23
2.4361070987
33
0.0000000000
40
0.0000000000
40
0.0000000000
40
0.0000000000
40
0.0000000000
40
0.3454507809
40
0.6692614392
40
1.0000000000
40
1.0000000000
40
1.0000000000
40
1.0000000000
10
-322.1156877250
20
-123.8483662928
30
0.0000000000
10
-321.8208643661
20
-123.7009546133
30
0.0000000000
10
-321.2768914898
20
-123.3560895821
30
0.0000000000
10
-320.5848892071
20
-122.6918253016
30
0.0000000000
10
-320.2158303958
20
-122.1837694188
30
0.0000000000
10
-320.0501111653
20
-121.9151979003
30
0.0000000000
11
-322.1156877250
21
-123.8483662928
31
0.0000000000
11
-321.2808412210
21
-123.3183752924
31
0.0000000000
11
-320.6102144069
21
-122.6784973660
31
0.0000000000
11
-320.0501111653
21
-121.9151979003
31
0.0000000000
0
SPLINE
5
3A1
100
AcDbEntity
8
0
100
AcDbSpline
62
7
6
CONTINUOUS
70
0
71
3
72
10
73
6
74
4
42
0.0000001000
43
0.0000001000
44
0.0000000001
12
2.2239114510
22
-2.5949655380
32
0.0000000000
13
3.0567470664
23
1.5283735332
33
0.0000000000
40
0.0000000000
40
0.0000000000
40
0.0000000000
40
0.0000000000
40
0.3263918844
40
0.6223725197
40
1.0000000000
40
1.0000000000
40
1.0000000000
40
1.0000000000
10
-325.2455834498
20
-123.4519695783
30
0.0000000000
10
-325.0036279001
20
-123.7342948090
30
0.0000000000
10
-324.4197681342
20
-124.2023315009
30
0.0000000000
10
-323.2375036139
20
-124.3175071927
30
0.0000000000
10
-322.5004582892
20
-124.0407515749
30
0.0000000000
10
-322.1156877250
20
-123.8483662928
30
0.0000000000
11
-325.2455834498
21
-123.4519695783
31
0.0000000000
11
-324.3494483762
21
-124.1161925417
31
0.0000000000
11
-323.3454880277
21
-124.2396916943
31
0.0000000000
11
-322.1156877250
21
-123.8483662928
31
0.0000000000
0
SPLINE
5
3A2
100
AcDbEntity
8
0
100
AcDbSpline
62
7
6
CONTINUOUS
70
0
71
3
72
10
73
6
74
4
42
0.0000001000
43
0.0000001000
44
0.0000000001
12
0.0000000000
22
-5.0935781403
32
0.0000000000
13
3.3145605227
23
-3.8675866911
33
0.0000000000
40
0.0000000000
40
0.0000000000
40
0.0000000000
40
0.0000000000
40
0.4488085424
40
0.7670709893
40
1.0000000000
40
1.0000000000
40
1.0000000000
40
1.0000000000
10
-326.4360954167
20
-118.5865030390
30
0.0000000000
10
-326.4360954167
20
-119.3485168325
30
0.0000000000
10
-326.3665779777
20
-120.6552105269
30
0.0000000000
10
-325.9669287893
20
-122.3174455522
30
0.0000000000
10
-325.5029358843
20
-123.1516785311
30
0.0000000000
10
-325.2455834498
20
-123.4519695783
30
0.0000000000
11
-326.4360954167
21
-118.5865030390
31
0.0000000000
11
-326.2735992709
21
-120.8667618394
31
0.0000000000
11
-325.8515724959
21
-122.4319587092
31
0.0000000000
11
-325.2455834498
21
-123.4519695783
31
0.0000000000
0
SPLINE
5
3A3
100
AcDbEntity
8
0
100
AcDbSpline
62
7
6
CONTINUOUS
70
0
71
3
72
10
73
6
74
4
42
0.0000001000
43
0.0000001000
44
0.0000000001
12
-0.9962192417
22
-4.1021380437
32
0.0000000000
13
0.0000000000
23
-4.2213729173
33
0.0000000000
40
0.0000000000
40
0.0000000000
40
0.0000000000
40
0.0000000000
40
0.2999469345
40
0.6320881951
40
1.0000000000
40
1.0000000000
40
1.0000000000
40
1.0000000000
10
-325.9615268289
20
-114.4007525203
30
0.0000000000
10
-326.0611311315
20
-114.8108937640
30
0.0000000000
10
-326.2347514580
20
-115.6843575540
30
0.0000000000
10
-326.3989297766
20
-117.0832009038
30
0.0000000000
10
-326.4360954167
20
-118.0688053959
30
0.0000000000
10
-326.4360954167
20
-118.5865030390
30
0.0000000000
11
-325.9615268289
21
-114.4007525203
31
0.0000000000
11
-326.2101805409
21
-115.6422850585
31
0.0000000000
11
-326.3755511434
21
-117.0345906582
31
0.0000000000
11
-326.4360954167
21
-118.5865030390
31
0.0000000000
0
SPLINE
5
3A4
100
AcDbEntity
8
0
100
AcDbSpline
62
7
6
CONTINUOUS
70
0
71
3
72
10
73
6
74
4
42
0.0000001000
43
0.0000001000
44
0.0000000001
12
-2.0404762638
22
-3.1370931827
32
0.0000000000
13
-0.8831636101
23
-3.6366081804
33
0.0000000000
40
0.0000000000
40
0.0000000000
40
0.0000000000
40
0.0000000000
40
0.3073697482
40
0.6344884867
40
1.0000000000
40
1.0000000000
40
1.0000000000
40
1.0000000000
10
-324.5159145014
20
-110.9663069642
30
0.0000000000
10
-324.7249747265
20
-111.2877228113
30
0.0000000000
10
-325.1174991222
20
-111.9774402469
30
0.0000000000
10
-325.6067951013
20
-113.1275342034
30
0.0000000000
10
-325.8539246731
20
-113.9576784673
30
0.0000000000
10
-325.9615268289
20
-114.4007525203
30
0.0000000000
11
-324.5159145014
21
-110.9663069642
31
0.0000000000
11
-325.0860209339
21
-111.9653603043
31
0.0000000000
11
-325.5675397410
21
-113.0908633119
31
0.0000000000
11
-325.9615268289
21
-114.4007525203
31
0.0000000000
0
SPLINE
5
3A5
100
AcDbEntity
8
0
100
AcDbSpline
62
7
6
CONTINUOUS
70
0
71
3
72
10
73
6
74
4
42
0.0000001000
43
0.0000001000
44
0.0000000001
12
-3.2309507290
22
-1.9268508359
32
0.0000000000
13
-2.0511497983
23
-3.1535030144
33
0.0000000000
40
0.0000000000
40
0.0000000000
40
0.0000000000
40
0.0000000000
40
0.3795717023
40
0.7064794505
40
1.0000000000
40
1.0000000000
40
1.0000000000
40
1.0000000000
10
-321.7892570115
20
-108.4177057999
30
0.0000000000
10
-322.1980495009
20
-108.6614984838
30
0.0000000000
10
-322.9298692911
20
-109.1680544452
30
0.0000000000
10
-323.8404325505
20
-110.0370333843
30
0.0000000000
10
-324.3152296294
20
-110.6577676516
30
0.0000000000
10
-324.5159145014
20
-110.9663069642
30
0.0000000000
11
-321.7892570115
21
-108.4177057999
31
0.0000000000
11
-322.9588683166
21
-109.2368058821
31
0.0000000000
11
-323.8458074978
21
-110.0886994602
31
0.0000000000
11
-324.5159145014
21
-110.9663069642
31
0.0000000000
0
SPLINE
5
3A6
100
AcDbEntity
8
0
100
AcDbSpline
62
7
6
CONTINUOUS
70
0
71
3
72
10
73
6
74
4
42
0.0000001000
43
0.0000001000
44
0.0000000001
12
1.3000542537
22
3.1832884550
32
0.0000000000
13
2.8834163643
23
1.8733329978
33
0.0000000000
40
0.0000000000
40
0.0000000000
40
0.0000000000
40
0.0000000000
40
0.3035337178
40
0.6235229183
40
1.0000000000
40
1.0000000000
40
1.0000000000
40
1.0000000000
10
-323.9848106437
20
-113.9495489962
30
0.0000000000
10
-323.8532738767
20
-113.6274705364
30
0.0000000000
10
-323.5184303510
20
-112.9897921889
30
0.0000000000
10
-322.7835194019
20
-112.1003404474
30
0.0000000000
10
-322.1511037375
20
-111.6018658406
30
0.0000000000
10
-321.7892570115
20
-111.3667768606
30
0.0000000000
11
-323.9848106437
21
-113.9495489962
31
0.0000000000
11
-323.4980264014
21
-113.0263105656
31
0.0000000000
11
-322.7995806307
21
-112.1761254377
31
0.0000000000
11
-321.7892570115
21
-111.3667768606
31
0.0000000000
0
SPLINE
5
3A7
100
AcDbEntity
8
0
100
AcDbSpline
62
7
6
CONTINUOUS
70
0
71
3
72
10
73
6
74
4
42
0.0000001000
43
0.0000001000
44
0.0000000001
12
0.0000000000
22
3.8808583452
32
0.0000000000
13
1.4672930343
23
3.5927861956
33
0.0000000000
40
0.0000000000
40
0.0000000000
40
0.0000000000
40
0.0000000000
40
0.3969004789
40
0.7250949394
40
1.0000000000
40
1.0000000000
40
1.0000000000
40
1.0000000000
10
-324.6311254406
20
-117.7545704673
30
0.0000000000
10
-324.6311254406
20
-117.2411322888
30
0.0000000000
10
-324.5840097668
20
-116.3017031298
30
0.0000000000
10
-324.3586634638
20
-115.0244934235
30
0.0000000000
10
-324.1192660705
20
-114.2787740318
30
0.0000000000
10
-323.9848106437
20
-113.9495489962
30
0.0000000000
11
-324.6311254406
21
-117.7545704673
31
0.0000000000
11
-324.5447047776
21
-116.2166821951
31
0.0000000000
11
-324.3160079120
21
-114.9637062042
31
0.0000000000
11
-323.9848106437
21
-113.9495489962
31
0.0000000000
0
SPLINE
5
3A8
100
AcDbEntity
8
0
100
AcDbSpline
62
7
6
CONTINUOUS
70
0
71
3
72
10
73
6
74
4
42
0.0000001000
43
0.0000001000
44
0.0000000001
12
-1.6818201136
22
2.4741553481
32
0.0000000000
13
0.0000000000
23
2.9916489736
33
0.0000000000
40
0.0000000000
40
0.0000000000
40
0.0000000000
40
0.0000000000
40
0.2419861291
40
0.5652436891
40
1.0000000000
40
1.0000000000
40
1.0000000000
40
1.0000000000
10
-324.0135756803
20
-120.6454864898
30
0.0000000000
10
-324.1492347267
20
-120.4459160646
30
0.0000000000
10
-324.3873465907
20
-119.9264460492
30
0.0000000000
10
-324.5934969839
20
-118.9459343556
30
0.0000000000
10
-324.6311254406
20
-118.1881165577
30
0.0000000000
10
-324.6311254406
20
-117.7545704673
30
0.0000000000
11
-324.0135756803
21
-120.6454864898
31
0.0000000000
11
-324.3308264588
21
-119.9947657150
31
0.0000000000
11
-324.5489359641
21
-119.0526092967
31
0.0000000000
11
-324.6311254406
21
-117.7545704673
31
0.0000000000
0
SPLINE
5
3A9
100
AcDbEntity
8
0
100
AcDbSpline
62
7
6
CONTINUOUS
70
0
71
3
72
10
73
6
74
4
42
0.0000001000
43
0.0000001000
44
0.0000000001
12
-1.6963859339
22
-0.8481929669
32
0.0000000000
13
-1.0662243026
23
1.5685414506
33
0.0000000000
40
0.0000000000
40
0.0000000000
40
0.0000000000
40
0.0000000000
40
0.3633735880
40
0.6536794362
40
1.0000000000
40
1.0000000000
40
1.0000000000
40
1.0000000000
10
-322.3365085513
20
-121.0097045612
30
0.0000000000
10
-322.5419824991
20
-121.1124415351
30
0.0000000000
10
-322.9436085936
20
-121.2614323550
30
0.0000000000
10
-323.5990805920
20
-121.1382398699
30
0.0000000000
10
-323.8904905465
20
-120.8265592096
30
0.0000000000
10
-324.0135756803
20
-120.6454864898
30
0.0000000000
11
-322.3365085513
21
-121.0097045612
31
0.0000000000
11
-322.9967967008
21
-121.2071619512
31
0.0000000000
11
-323.5361885996
21
-121.0966373465
31
0.0000000000
11
-324.0135756803
21
-120.6454864898
31
0.0000000000
0
SPLINE
5
3AA
100
AcDbEntity
8
0
100
AcDbSpline
62
7
6
CONTINUOUS
70
0
71
3
72
10
73
6
74
4
42
0.0000001000
43
0.0000001000
44
0.0000000001
12
-0.7062520661
22
-1.0717228269
32
0.0000000000
13
-1.1480006267
23
-0.5740003133
33
0.0000000000
40
0.0000000000
40
0.0000000000
40
0.0000000000
40
0.0000000000
40
0.3219642630
40
0.6480386589
40
1.0000000000
40
1.0000000000
40
1.0000000000
40
1.0000000000
10
-321.3860187242
20
-120.1675894362
30
0.0000000000
10
-321.4618146996
20
-120.2826082529
30
0.0000000000
10
-321.6328152944
20
-120.5027866474
30
0.0000000000
10
-321.9524162479
20
-120.7905066908
30
0.0000000000
10
-322.2018246046
20
-120.9423625879
30
0.0000000000
10
-322.3365085513
20
-121.0097045612
30
0.0000000000
11
-321.3860187242
21
-120.1675894362
31
0.0000000000
11
-321.6406448723
21
-120.4930656217
31
0.0000000000
11
-321.9517071719
21
-120.7730608199
31
0.0000000000
11
-322.3365085513
21
-121.0097045612
31
0.0000000000
0
SPLINE
5
3AB
100
AcDbEntity
8
0
100
AcDbSpline
62
7
6
CONTINUOUS
70
0
71
3
72
10
73
6
74
4
42
0.0000001000
43
0.0000001000
44
0.0000000001
12
-0.6635816773
22
-5.3334906321
32
0.0000000000
13
-2.0442049212
23
-4.9706829717
33
0.0000000000
40
0.0000000000
40
0.0000000000
40
0.0000000000
40
0.0000000000
40
0.4889321581
40
0.8082465087
40
1.0000000000
40
1.0000000000
40
1.0000000000
40
1.0000000000
10
-320.0719442711
20
-114.3344004045
30
0.0000000000
10
-320.1800930783
20
-115.2036387661
30
0.0000000000
10
-320.3760590703
20
-116.6394432913
30
0.0000000000
10
-320.7073589203
20
-118.3992082795
30
0.0000000000
10
-320.9481289714
20
-119.2870584465
30
0.0000000000
10
-321.0787901150
20
-119.6047737179
30
0.0000000000
11
-320.0719442711
21
-114.3344004045
31
0.0000000000
11
-320.4434609481
21
-116.9358267061
31
0.0000000000
11
-320.7775132727
21
-118.6191925609
31
0.0000000000
11
-321.0787901150
21
-119.6047737179
31
0.0000000000
0
SPLINE
5
3AC
100
AcDbEntity
8
0
100
AcDbSpline
62
7
6
CONTINUOUS
70
0
71
3
72
10
73
6
74
4
42
0.0000001000
43
0.0000001000
44
0.0000000001
12
-2.1007761165
22
-5.5454204915
32
0.0000000000
13
-0.7321535902
23
-5.8846325152
33
0.0000000000
40
0.0000000000
40
0.0000000000
40
0.0000000000
40
0.0000000000
40
0.2250988703
40
0.5488322592
40
1.0000000000
40
1.0000000000
40
1.0000000000
40
1.0000000000
10
-318.9088533573
20
-108.5297798792
30
0.0000000000
10
-319.0664808008
20
-108.9458691752
30
0.0000000000
10
-319.3650427681
20
-109.9919442641
30
0.0000000000
10
-319.7484627630
20
-111.9317877409
30
0.0000000000
10
-319.9618362441
20
-113.4494149520
30
0.0000000000
10
-320.0719442711
20
-114.3344004045
30
0.0000000000
11
-318.9088533573
21
-108.5297798792
31
0.0000000000
11
-319.2965614293
21
-109.8070711026
31
0.0000000000
11
-319.6849864840
21
-111.6871053833
31
0.0000000000
11
-320.0719442711
21
-114.3344004045
31
0.0000000000
0
SPLINE
5
3AD
100
AcDbEntity
8
0
100
AcDbSpline
62
7
6
CONTINUOUS
70
0
71
3
72
10
73
6
74
4
42
0.0000001000
43
0.0000001000
44
0.0000000001
12
-0.8901006921
22
-1.4146402623
32
0.0000000000
13
-0.5921040765
23
-1.5629776315
33
0.0000000000
40
0.0000000000
40
0.0000000000
40
0.0000000000
40
0.0000000000
40
0.3276094535
40
0.6570139168
40
1.0000000000
40
1.0000000000
40
1.0000000000
40
1.0000000000
10
-318.1673739781
20
-107.0346636684
30
0.0000000000
10
-318.2645757785
20
-107.1891468428
30
0.0000000000
10
-318.4492448978
20
-107.5055686879
30
0.0000000000
10
-318.6972007663
20
-108.0048915068
30
0.0000000000
10
-318.8411588713
20
-108.3510866873
30
0.0000000000
10
-318.9088533573
20
-108.5297798792
30
0.0000000000
11
-318.1673739781
21
-107.0346636684
31
0.0000000000
11
-318.4433303851
21
-107.5075983701
31
0.0000000000
11
-318.6883694487
21
-108.0006191772
31
0.0000000000
11
-318.9088533573
21
-108.5297798792
31
0.0000000000
0
SPLINE
5
3AE
100
AcDbEntity
8
0
100
AcDbSpline
62
7
6
CONTINUOUS
70
0
71
3
72
10
73
6
74
4
42
0.0000001000
43
0.0000001000
44
0.0000000001
12
-2.5426862986
22
-1.2713431493
32
0.0000000000
13
-1.5139573965
23
-2.4061379881
33
0.0000000000
40
0.0000000000
40
0.0000000000
40
0.0000000000
40
0.0000000000
40
0.3468442531
40
0.6715311315
40
1.0000000000
40
1.0000000000
40
1.0000000000
40
1.0000000000
10
-316.1055201533
20
-105.1243041357
30
0.0000000000
10
-316.3994921967
20
-105.2712901573
30
0.0000000000
10
-316.9415831018
20
-105.6146114032
30
0.0000000000
10
-317.6317002182
20
-106.2709341201
30
0.0000000000
10
-318.0016113537
20
-106.7712165276
30
0.0000000000
10
-318.1673739781
20
-107.0346636684
30
0.0000000000
11
-316.1055201533
21
-105.1243041357
31
0.0000000000
11
-316.9384865688
21
-105.6519280797
31
0.0000000000
11
-317.6091128717
21
-106.2861455794
31
0.0000000000
11
-318.1673739781
21
-107.0346636684
31
0.0000000000
0
SPLINE
5
3AF
100
AcDbEntity
8
0
100
AcDbSpline
62
7
6
CONTINUOUS
70
0
71
3
72
10
73
6
74
4
42
0.0000001000
43
0.0000001000
44
0.0000000001
12
-2.2577050568
22
2.6743898238
32
0.0000000000
13
-3.1304431703
23
-1.5652215851
33
0.0000000000
40
0.0000000000
40
0.0000000000
40
0.0000000000
40
0.0000000000
40
0.3375669762
40
0.6342978556
40
1.0000000000
40
1.0000000000
40
1.0000000000
40
1.0000000000
10
-312.9152899546
20
-105.5999281413
30
0.0000000000
10
-313.1693321777
20
-105.2989995793
30
0.0000000000
10
-313.7690394328
20
-104.8002525684
30
0.0000000000
10
-314.9785482839
20
-104.6584946404
30
0.0000000000
10
-315.7239168932
20
-104.9335025056
30
0.0000000000
10
-316.1055201533
20
-105.1243041357
30
0.0000000000
11
-312.9152899546
21
-105.5999281413
31
0.0000000000
11
-313.8550837677
21
-104.8839346752
31
0.0000000000
11
-314.8839205654
21
-104.7422946616
31
0.0000000000
11
-316.1055201533
21
-105.1243041357
31
0.0000000000
0
SPLINE
5
3B0
100
AcDbEntity
8
0
100
AcDbSpline
62
7
6
CONTINUOUS
70
0
71
3
72
10
73
6
74
4
42
0.0000001000
43
0.0000001000
44
0.0000000001
12
0.0000000000
22
5.4061951016
32
0.0000000000
13
-3.4873705029
23
4.1310038069
33
0.0000000000
40
0.0000000000
40
0.0000000000
40
0.0000000000
40
0.0000000000
40
0.4511910475
40
0.7693808513
40
1.0000000000
40
1.0000000000
40
1.0000000000
40
1.0000000000
10
-311.6891030734
20
-110.7755848587
30
0.0000000000
10
-311.6891030734
20
-109.9625092485
30
0.0000000000
10
-311.7580376994
20
-108.5718167139
30
0.0000000000
10
-312.1654923893
20
-106.8040710609
30
0.0000000000
10
-312.6472051490
20
-105.9174910018
30
0.0000000000
10
-312.9152899546
20
-105.5999281413
30
0.0000000000
11
-311.6891030734
21
-110.7755848587
31
0.0000000000
11
-311.8540572985
21
-108.3419419853
31
0.0000000000
11
-312.2879325050
21
-106.6773618192
31
0.0000000000
11
-312.9152899546
21
-105.5999281413
31
0.0000000000
0
SPLINE
5
3B1
100
AcDbEntity
8
0
100
AcDbSpline
62
7
6
CONTINUOUS
70
0
71
3
72
13
73
9
74
7
42
0.0000001000
43
0.0000001000
44
0.0000000001
12
11.2836341935
22
6.2071630109
32
0.0000000000
13
-0.0000000000
23
12.8782480663
33
0.0000000000
40
0.0000000000
40
0.0000000000
40
0.0000000000
40
0.0000000000
40
0.1463897501
40
0.2782301626
40
0.4116567817
40
0.5654721537
40
0.7566313359
40
1.0000000000
40
1.0000000000
40
1.0000000000
40
1.0000000000
10
-316.7583820017
20
-121.9316747589
30
0.0000000000
10
-316.2077792052
20
-121.6287864116
30
0.0000000000
10
-315.2176084898
20
-120.9402714920
30
0.0000000000
10
-314.0091309398
20
-119.6352997397
30
0.0000000000
10
-313.0600292464
20
-118.0950239973
30
0.0000000000
10
-312.3094126496
20
-116.1725148708
30
0.0000000000
10
-311.7931985875
20
-113.6897200836
30
0.0000000000
10
-311.6891030734
20
-111.8203055349
30
0.0000000000
10
-311.6891030734
20
-110.7755848587
30
0.0000000000
11
-316.7583820017
21
-121.9316747589
31
0.0000000000
11
-315.2138284969
21
-120.8507040908
31
0.0000000000
11
-314.0577508344
21
-119.6072174658
31
0.0000000000
11
-313.1493221647
21
-118.1486853197
31
0.0000000000
11
-312.4154375879
21
-116.3087751700
31
0.0000000000
11
-311.8926470500
21
-113.9031304572
31
0.0000000000
11
-311.6891030734
21
-110.7755848587
31
0.0000000000
0
ENDSEC
0
SECTION
2
OBJECTS
0
DICTIONARY
5
3B2
100
AcDbDictionary
3
ACAD_GROUP
350
3B3
3
ACAD_MLINESTYLE
350
3B4
0
DICTIONARY
5
3B3
102
{ACAD_REACTORS
330
3B2
102
}
100
AcDbDictionary
0
DICTIONARY
5
3B4
102
{ACAD_REACTORS
330
3B2
102
}
100
AcDbDictionary
3
STANDARD
350
3B5
0
MLINESTYLE
5
3B5
102
{ACAD_REACTORS
330
3B4
102
}
100
AcDbMlineStyle
2
STANDARD
70
0
3

62
256
51
90.0
52
90.0
71
2
49
0.5
62
256
6
BYLAYER
49
-0.5
62
256
6
BYLAYER
0
ENDSEC
0
EOF
