  0
SECTION
  2
HEADER
  9
$ACADVER
  1
AC1024
  9
$DWGCODEPAGE
  3
ANSI_1252
  9
$EXTMAX
 10
297.0
 20
210.0
 30
0.0
  9
$EXTMIN
 10
0.0
 20
0.0
 30
0.0
  9
$LIMMIN
 10
0.0
 20
0.0
  9
$LIMMAX
 10
297.0
 20
210.0
  9
$VIEWCTR
 10
148.5
 20
105.0
  9
$VIEWSIZE
 40
210.0
  9
$CLAYER
  8
0
  9
$LTSCALE
 40
16.335
  9
$CELTYPE
  6
BYLAYER
  9
$DIMSCALE
 40
1.0
  9
$DIMASZ
 40
3.0
  9
$DIMEXO
 40
0.5
  9
$DIMDLI
 40
11.286
  9
$DIMEXE
 40
1.5
  9
$DIMCEN
 40
2.673
  9
$DIMLFAC
 40
1.0
  9
$DIMBLK
  1
_FILLED
  9
$DIMALT
 70
0
  9
$DIMALTF
 40
0.0393700787
  9
$DIMTXT
 40
3.0
  9
$DIMTOL
 70
1
  9
$DIMLIM
 70
0
  9
$DIMTFAC
 40
1.0
  9
$DIMTP
 40
0.01
  9
$DIMTM
 40
0.01
  9
$DIMGAP
 40
0.625
  9
$DIMDSEP
 70
44
  9
$AUNITS
 70
0
  9
$PDMODE
 70
3
  9
$PDSIZE
 40
3.0
  9
$HANDSEED
  5
43B
  9
$TILEMODE
 70
1
  9
$MEASUREMENT
 70
1
  9
$INSUNITS
 70
4
  0
ENDSEC
  0
SECTION
  2
CLASSES
  0
CLASS
  1
ACDBDICTIONARYWDFLT
  2
AcDbDictionaryWithDefault
  3
AutoCAD 2000
 90
0
 91
1
280
0
281
0
  0
CLASS
  1
ACDBPLACEHOLDER
  2
AcDbPlaceHolder
  3
AutoCAD 2000
 90
0
 91
1
280
0
281
0
  0
CLASS
  1
LAYOUT
  2
AcDbLayout
  3
AutoCAD 2000
 90
0
 91
0
280
0
281
0
  0
ENDSEC
  0
SECTION
  2
TABLES
  0
TABLE
  2
VPORT
  5
8
100
AcDbSymbolTable
 70
2
  0
VPORT
  5
1F4
100
AcDbSymbolTableRecord
100
AcDbViewportTableRecord
  2
*ACTIVE
 70
0
 10
0.0
 20
0.0
 11
1.0
 21
1.0
 12
148.5
 22
105.0
 13
0.0
 23
0.0
 14
1.0
 24
1.0
 15
0.0
 25
0.0
 16
0.0
 26
0.0
 36
1.0
 17
0.0
 27
0.0
 37
0.0
 40
210.0
 41
1.4142857143
 42
50.0
 43
0.0
 44
0.0
 50
0.0
 51
0.0
 71
0
 72
100
 73
1
 74
1
 75
0
 76
0
 77
0
 78
0
  0
ENDTAB
  0
TABLE
  2
LTYPE
  5
5
100
AcDbSymbolTable
 70
6
  0
LTYPE
  5
14
100
AcDbSymbolTableRecord
100
AcDbLinetypeTableRecord
  2
BYBLOCK
 70
0
  3

 72
65
 73
0
 40
0.0
  0
LTYPE
  5
15
100
AcDbSymbolTableRecord
100
AcDbLinetypeTableRecord
  2
BYLAYER
 70
0
  3

 72
65
 73
0
 40
0.0
  0
LTYPE
  5
16
100
AcDbSymbolTableRecord
100
AcDbLinetypeTableRecord
  2
CONTINUOUS
 70
64
  3
Solid line
 72
65
 73
0
 40
0.0
  0
LTYPE
  5
1F5
100
AcDbSymbolTableRecord
100
AcDbLinetypeTableRecord
  2
CENTER
 70
64
  3
____ _ ____ _ ____ _ ____ _ ____ _ ____ _ ____
 72
65
 73
4
 40
0.6
 49
0.375
 74
0
 49
-0.075
 74
0
 49
0.075
 74
0
 49
-0.075
 74
0
  0
LTYPE
  5
1F6
100
AcDbSymbolTableRecord
100
AcDbLinetypeTableRecord
  2
HIDDEN
 70
64
  3
- - - - - - - - - - - - - - - - - - - -
 72
65
 73
2
 40
0.2
 49
0.1
 74
0
 49
-0.1
 74
0
  0
LTYPE
  5
1F7
100
AcDbSymbolTableRecord
100
AcDbLinetypeTableRecord
  2
PHANTOM
 70
64
  3
_____ _ _ _____ _ _ _____ _ _ _____
 72
65
 73
6
 40
0.8
 49
0.45
 74
0
 49
-0.05
 74
0
 49
0.1
 74
0
 49
-0.05
 74
0
 49
0.1
 74
0
 49
-0.05
 74
0
  0
LTYPE
  5
1F8
100
AcDbSymbolTableRecord
100
AcDbLinetypeTableRecord
  2
DOT
 70
64
  3
. . . . . . . . . . . . . . . . . . . .
 72
65
 73
2
 40
0.2
 49
0.1
 74
0
 49
-0.1
 74
0
  0
LTYPE
  5
1F9
100
AcDbSymbolTableRecord
100
AcDbLinetypeTableRecord
  2
DASHED
 70
64
  3
- - - - - - - - - - - - - - - - - - - -
 72
65
 73
2
 40
0.2
 49
0.1
 74
0
 49
-0.1
 74
0
  0
ENDTAB
  0
TABLE
  2
LAYER
  5
2
100
AcDbSymbolTable
 70
36
  0
LAYER
  5
10
100
AcDbSymbolTableRecord
100
AcDbLayerTableRecord
  2
0
 70
0
 62
7
  6
CONTINUOUS
370
-3
390
F
  0
LAYER
  5
1FA
100
AcDbSymbolTableRecord
100
AcDbLayerTableRecord
  2
DEFAULT_1
 70
0
 62
7
  6
CENTER
370
-3
390
F
  0
LAYER
  5
1FB
100
AcDbSymbolTableRecord
100
AcDbLayerTableRecord
  2
DEFAULT_2
 70
0
 62
7
  6
HIDDEN
370
-3
390
F
  0
LAYER
  5
1FC
100
AcDbSymbolTableRecord
100
AcDbLayerTableRecord
  2
DEFAULT_3
 70
0
 62
7
  6
PHANTOM
370
-3
390
F
  0
LAYER
  5
1FD
100
AcDbSymbolTableRecord
100
AcDbLayerTableRecord
  2
0402_C_REF_70000
 70
0
 62
7
  6
CONTINUOUS
370
-3
390
F
  0
LAYER
  5
1FE
100
AcDbSymbolTableRecord
100
AcDbLayerTableRecord
  2
0402_C_REF_70000_1
 70
0
 62
7
  6
CONTINUOUS
370
-3
390
F
  0
LAYER
  5
1FF
100
AcDbSymbolTableRecord
100
AcDbLayerTableRecord
  2
0402_C_REF_70000_10
 70
0
 62
7
  6
CONTINUOUS
370
-3
390
F
  0
LAYER
  5
200
100
AcDbSymbolTableRecord
100
AcDbLayerTableRecord
  2
0402_C_REF_70000_11
 70
0
 62
7
  6
CONTINUOUS
370
-3
390
F
  0
LAYER
  5
201
100
AcDbSymbolTableRecord
100
AcDbLayerTableRecord
  2
0402_C_REF_70000_12
 70
0
 62
7
  6
CONTINUOUS
370
-3
390
F
  0
LAYER
  5
202
100
AcDbSymbolTableRecord
100
AcDbLayerTableRecord
  2
0402_C_REF_70000_13
 70
0
 62
7
  6
CONTINUOUS
370
-3
390
F
  0
LAYER
  5
203
100
AcDbSymbolTableRecord
100
AcDbLayerTableRecord
  2
0402_C_REF_70000_14
 70
0
 62
7
  6
CONTINUOUS
370
-3
390
F
  0
LAYER
  5
204
100
AcDbSymbolTableRecord
100
AcDbLayerTableRecord
  2
0402_C_REF_70000_15
 70
0
 62
7
  6
CONTINUOUS
370
-3
390
F
  0
LAYER
  5
205
100
AcDbSymbolTableRecord
100
AcDbLayerTableRecord
  2
0402_C_REF_70000_16
 70
0
 62
7
  6
CONTINUOUS
370
-3
390
F
  0
LAYER
  5
206
100
AcDbSymbolTableRecord
100
AcDbLayerTableRecord
  2
0402_C_REF_70000_17
 70
0
 62
7
  6
CONTINUOUS
370
-3
390
F
  0
LAYER
  5
207
100
AcDbSymbolTableRecord
100
AcDbLayerTableRecord
  2
0402_C_REF_70000_18
 70
0
 62
7
  6
CONTINUOUS
370
-3
390
F
  0
LAYER
  5
208
100
AcDbSymbolTableRecord
100
AcDbLayerTableRecord
  2
0402_C_REF_70000_19
 70
0
 62
7
  6
CONTINUOUS
370
-3
390
F
  0
LAYER
  5
209
100
AcDbSymbolTableRecord
100
AcDbLayerTableRecord
  2
0402_C_REF_70000_2
 70
0
 62
7
  6
CONTINUOUS
370
-3
390
F
  0
LAYER
  5
20A
100
AcDbSymbolTableRecord
100
AcDbLayerTableRecord
  2
0402_C_REF_70000_20
 70
0
 62
7
  6
CONTINUOUS
370
-3
390
F
  0
LAYER
  5
20B
100
AcDbSymbolTableRecord
100
AcDbLayerTableRecord
  2
0402_C_REF_70000_21
 70
0
 62
7
  6
CONTINUOUS
370
-3
390
F
  0
LAYER
  5
20C
100
AcDbSymbolTableRecord
100
AcDbLayerTableRecord
  2
0402_C_REF_70000_22
 70
0
 62
7
  6
CONTINUOUS
370
-3
390
F
  0
LAYER
  5
20D
100
AcDbSymbolTableRecord
100
AcDbLayerTableRecord
  2
0402_C_REF_70000_23
 70
0
 62
7
  6
CONTINUOUS
370
-3
390
F
  0
LAYER
  5
20E
100
AcDbSymbolTableRecord
100
AcDbLayerTableRecord
  2
0402_C_REF_70000_24
 70
0
 62
7
  6
CONTINUOUS
370
-3
390
F
  0
LAYER
  5
20F
100
AcDbSymbolTableRecord
100
AcDbLayerTableRecord
  2
0402_C_REF_70000_25
 70
0
 62
7
  6
CONTINUOUS
370
-3
390
F
  0
LAYER
  5
210
100
AcDbSymbolTableRecord
100
AcDbLayerTableRecord
  2
0402_C_REF_70000_26
 70
0
 62
7
  6
CONTINUOUS
370
-3
390
F
  0
LAYER
  5
211
100
AcDbSymbolTableRecord
100
AcDbLayerTableRecord
  2
0402_C_REF_70000_27
 70
0
 62
7
  6
CONTINUOUS
370
-3
390
F
  0
LAYER
  5
212
100
AcDbSymbolTableRecord
100
AcDbLayerTableRecord
  2
0402_C_REF_70000_28
 70
0
 62
7
  6
CONTINUOUS
370
-3
390
F
  0
LAYER
  5
213
100
AcDbSymbolTableRecord
100
AcDbLayerTableRecord
  2
0402_C_REF_70000_29
 70
0
 62
7
  6
CONTINUOUS
370
-3
390
F
  0
LAYER
  5
214
100
AcDbSymbolTableRecord
100
AcDbLayerTableRecord
  2
0402_C_REF_70000_3
 70
0
 62
7
  6
CONTINUOUS
370
-3
390
F
  0
LAYER
  5
215
100
AcDbSymbolTableRecord
100
AcDbLayerTableRecord
  2
0402_C_REF_70000_30
 70
0
 62
7
  6
CONTINUOUS
370
-3
390
F
  0
LAYER
  5
216
100
AcDbSymbolTableRecord
100
AcDbLayerTableRecord
  2
0402_C_REF_70000_31
 70
0
 62
7
  6
CONTINUOUS
370
-3
390
F
  0
LAYER
  5
217
100
AcDbSymbolTableRecord
100
AcDbLayerTableRecord
  2
0402_C_REF_70000_32
 70
0
 62
7
  6
CONTINUOUS
370
-3
390
F
  0
LAYER
  5
218
100
AcDbSymbolTableRecord
100
AcDbLayerTableRecord
  2
0402_C_REF_70000_33
 70
0
 62
7
  6
CONTINUOUS
370
-3
390
F
  0
LAYER
  5
219
100
AcDbSymbolTableRecord
100
AcDbLayerTableRecord
  2
0402_C_REF_70000_34
 70
0
 62
7
  6
CONTINUOUS
370
-3
390
F
  0
LAYER
  5
21A
100
AcDbSymbolTableRecord
100
AcDbLayerTableRecord
  2
0402_C_REF_70000_35
 70
0
 62
7
  6
CONTINUOUS
370
-3
390
F
  0
LAYER
  5
21B
100
AcDbSymbolTableRecord
100
AcDbLayerTableRecord
  2
0402_C_REF_70000_36
 70
0
 62
7
  6
CONTINUOUS
370
-3
390
F
  0
LAYER
  5
21C
100
AcDbSymbolTableRecord
100
AcDbLayerTableRecord
  2
0402_C_REF_70000_4
 70
0
 62
7
  6
CONTINUOUS
370
-3
390
F
  0
LAYER
  5
21D
100
AcDbSymbolTableRecord
100
AcDbLayerTableRecord
  2
0402_C_REF_70000_5
 70
0
 62
7
  6
CONTINUOUS
370
-3
390
F
  0
LAYER
  5
21E
100
AcDbSymbolTableRecord
100
AcDbLayerTableRecord
  2
0402_C_REF_70000_6
 70
0
 62
7
  6
CONTINUOUS
370
-3
390
F
  0
LAYER
  5
21F
100
AcDbSymbolTableRecord
100
AcDbLayerTableRecord
  2
0402_C_REF_70000_7
 70
0
 62
7
  6
CONTINUOUS
370
-3
390
F
  0
LAYER
  5
220
100
AcDbSymbolTableRecord
100
AcDbLayerTableRecord
  2
0402_C_REF_70000_8
 70
0
 62
7
  6
CONTINUOUS
370
-3
390
F
  0
LAYER
  5
221
100
AcDbSymbolTableRecord
100
AcDbLayerTableRecord
  2
0402_C_REF_70000_9
 70
0
 62
7
  6
CONTINUOUS
370
-3
390
F
  0
LAYER
  5
222
100
AcDbSymbolTableRecord
100
AcDbLayerTableRecord
  2
0402_R_REF_30000
 70
0
 62
7
  6
CONTINUOUS
370
-3
390
F
  0
LAYER
  5
223
100
AcDbSymbolTableRecord
100
AcDbLayerTableRecord
  2
0402_R_REF_30000_1
 70
0
 62
7
  6
CONTINUOUS
370
-3
390
F
  0
LAYER
  5
224
100
AcDbSymbolTableRecord
100
AcDbLayerTableRecord
  2
0402_R_REF_30000_10
 70
0
 62
7
  6
CONTINUOUS
370
-3
390
F
  0
LAYER
  5
225
100
AcDbSymbolTableRecord
100
AcDbLayerTableRecord
  2
0402_R_REF_30000_11
 70
0
 62
7
  6
CONTINUOUS
370
-3
390
F
  0
LAYER
  5
226
100
AcDbSymbolTableRecord
100
AcDbLayerTableRecord
  2
0402_R_REF_30000_12
 70
0
 62
7
  6
CONTINUOUS
370
-3
390
F
  0
LAYER
  5
227
100
AcDbSymbolTableRecord
100
AcDbLayerTableRecord
  2
0402_R_REF_30000_13
 70
0
 62
7
  6
CONTINUOUS
370
-3
390
F
  0
LAYER
  5
228
100
AcDbSymbolTableRecord
100
AcDbLayerTableRecord
  2
0402_R_REF_30000_14
 70
0
 62
7
  6
CONTINUOUS
370
-3
390
F
  0
LAYER
  5
229
100
AcDbSymbolTableRecord
100
AcDbLayerTableRecord
  2
0402_R_REF_30000_15
 70
0
 62
7
  6
CONTINUOUS
370
-3
390
F
  0
LAYER
  5
22A
100
AcDbSymbolTableRecord
100
AcDbLayerTableRecord
  2
0402_R_REF_30000_16
 70
0
 62
7
  6
CONTINUOUS
370
-3
390
F
  0
LAYER
  5
22B
100
AcDbSymbolTableRecord
100
AcDbLayerTableRecord
  2
0402_R_REF_30000_17
 70
0
 62
7
  6
CONTINUOUS
370
-3
390
F
  0
LAYER
  5
22C
100
AcDbSymbolTableRecord
100
AcDbLayerTableRecord
  2
0402_R_REF_30000_18
 70
0
 62
7
  6
CONTINUOUS
370
-3
390
F
  0
LAYER
  5
22D
100
AcDbSymbolTableRecord
100
AcDbLayerTableRecord
  2
0402_R_REF_30000_19
 70
0
 62
7
  6
CONTINUOUS
370
-3
390
F
  0
LAYER
  5
22E
100
AcDbSymbolTableRecord
100
AcDbLayerTableRecord
  2
0402_R_REF_30000_2
 70
0
 62
7
  6
CONTINUOUS
370
-3
390
F
  0
LAYER
  5
22F
100
AcDbSymbolTableRecord
100
AcDbLayerTableRecord
  2
0402_R_REF_30000_20
 70
0
 62
7
  6
CONTINUOUS
370
-3
390
F
  0
LAYER
  5
230
100
AcDbSymbolTableRecord
100
AcDbLayerTableRecord
  2
0402_R_REF_30000_21
 70
0
 62
7
  6
CONTINUOUS
370
-3
390
F
  0
LAYER
  5
231
100
AcDbSymbolTableRecord
100
AcDbLayerTableRecord
  2
0402_R_REF_30000_22
 70
0
 62
7
  6
CONTINUOUS
370
-3
390
F
  0
LAYER
  5
232
100
AcDbSymbolTableRecord
100
AcDbLayerTableRecord
  2
0402_R_REF_30000_23
 70
0
 62
7
  6
CONTINUOUS
370
-3
390
F
  0
LAYER
  5
233
100
AcDbSymbolTableRecord
100
AcDbLayerTableRecord
  2
0402_R_REF_30000_24
 70
0
 62
7
  6
CONTINUOUS
370
-3
390
F
  0
LAYER
  5
234
100
AcDbSymbolTableRecord
100
AcDbLayerTableRecord
  2
0402_R_REF_30000_25
 70
0
 62
7
  6
CONTINUOUS
370
-3
390
F
  0
LAYER
  5
235
100
AcDbSymbolTableRecord
100
AcDbLayerTableRecord
  2
0402_R_REF_30000_26
 70
0
 62
7
  6
CONTINUOUS
370
-3
390
F
  0
LAYER
  5
236
100
AcDbSymbolTableRecord
100
AcDbLayerTableRecord
  2
0402_R_REF_30000_27
 70
0
 62
7
  6
CONTINUOUS
370
-3
390
F
  0
LAYER
  5
237
100
AcDbSymbolTableRecord
100
AcDbLayerTableRecord
  2
0402_R_REF_30000_28
 70
0
 62
7
  6
CONTINUOUS
370
-3
390
F
  0
LAYER
  5
238
100
AcDbSymbolTableRecord
100
AcDbLayerTableRecord
  2
0402_R_REF_30000_29
 70
0
 62
7
  6
CONTINUOUS
370
-3
390
F
  0
LAYER
  5
239
100
AcDbSymbolTableRecord
100
AcDbLayerTableRecord
  2
0402_R_REF_30000_3
 70
0
 62
7
  6
CONTINUOUS
370
-3
390
F
  0
LAYER
  5
23A
100
AcDbSymbolTableRecord
100
AcDbLayerTableRecord
  2
0402_R_REF_30000_30
 70
0
 62
7
  6
CONTINUOUS
370
-3
390
F
  0
LAYER
  5
23B
100
AcDbSymbolTableRecord
100
AcDbLayerTableRecord
  2
0402_R_REF_30000_31
 70
0
 62
7
  6
CONTINUOUS
370
-3
390
F
  0
LAYER
  5
23C
100
AcDbSymbolTableRecord
100
AcDbLayerTableRecord
  2
0402_R_REF_30000_4
 70
0
 62
7
  6
CONTINUOUS
370
-3
390
F
  0
LAYER
  5
23D
100
AcDbSymbolTableRecord
100
AcDbLayerTableRecord
  2
0402_R_REF_30000_5
 70
0
 62
7
  6
CONTINUOUS
370
-3
390
F
  0
LAYER
  5
23E
100
AcDbSymbolTableRecord
100
AcDbLayerTableRecord
  2
0402_R_REF_30000_6
 70
0
 62
7
  6
CONTINUOUS
370
-3
390
F
  0
LAYER
  5
23F
100
AcDbSymbolTableRecord
100
AcDbLayerTableRecord
  2
0402_R_REF_30000_7
 70
0
 62
7
  6
CONTINUOUS
370
-3
390
F
  0
LAYER
  5
240
100
AcDbSymbolTableRecord
100
AcDbLayerTableRecord
  2
0402_R_REF_30000_8
 70
0
 62
7
  6
CONTINUOUS
370
-3
390
F
  0
LAYER
  5
241
100
AcDbSymbolTableRecord
100
AcDbLayerTableRecord
  2
0402_R_REF_30000_9
 70
0
 62
7
  6
CONTINUOUS
370
-3
390
F
  0
LAYER
  5
242
100
AcDbSymbolTableRecord
100
AcDbLayerTableRecord
  2
0603_C_REF_90000
 70
0
 62
7
  6
CONTINUOUS
370
-3
390
F
  0
LAYER
  5
243
100
AcDbSymbolTableRecord
100
AcDbLayerTableRecord
  2
0603_C_REF_90000_1
 70
0
 62
7
  6
CONTINUOUS
370
-3
390
F
  0
LAYER
  5
244
100
AcDbSymbolTableRecord
100
AcDbLayerTableRecord
  2
0603_C_REF_90000_2
 70
0
 62
7
  6
CONTINUOUS
370
-3
390
F
  0
LAYER
  5
245
100
AcDbSymbolTableRecord
100
AcDbLayerTableRecord
  2
0603_C_REF_90000_3
 70
0
 62
7
  6
CONTINUOUS
370
-3
390
F
  0
LAYER
  5
246
100
AcDbSymbolTableRecord
100
AcDbLayerTableRecord
  2
0603_C_REF_90000_4
 70
0
 62
7
  6
CONTINUOUS
370
-3
390
F
  0
LAYER
  5
247
100
AcDbSymbolTableRecord
100
AcDbLayerTableRecord
  2
0603_C_REF_90000_5
 70
0
 62
7
  6
CONTINUOUS
370
-3
390
F
  0
LAYER
  5
248
100
AcDbSymbolTableRecord
100
AcDbLayerTableRecord
  2
0603_C_REF_90000_6
 70
0
 62
7
  6
CONTINUOUS
370
-3
390
F
  0
LAYER
  5
249
100
AcDbSymbolTableRecord
100
AcDbLayerTableRecord
  2
0603_C_REF_90000_7
 70
0
 62
7
  6
CONTINUOUS
370
-3
390
F
  0
LAYER
  5
24A
100
AcDbSymbolTableRecord
100
AcDbLayerTableRecord
  2
0603_C_REF_90000_8
 70
0
 62
7
  6
CONTINUOUS
370
-3
390
F
  0
LAYER
  5
24B
100
AcDbSymbolTableRecord
100
AcDbLayerTableRecord
  2
0603_C_REF_90000_9
 70
0
 62
7
  6
CONTINUOUS
370
-3
390
F
  0
LAYER
  5
24C
100
AcDbSymbolTableRecord
100
AcDbLayerTableRecord
  2
0603_R_REF_55000
 70
0
 62
7
  6
CONTINUOUS
370
-3
390
F
  0
LAYER
  5
24D
100
AcDbSymbolTableRecord
100
AcDbLayerTableRecord
  2
0603_R_REF_55000_1
 70
0
 62
7
  6
CONTINUOUS
370
-3
390
F
  0
LAYER
  5
24E
100
AcDbSymbolTableRecord
100
AcDbLayerTableRecord
  2
0603_R_REF_55000_2
 70
0
 62
7
  6
CONTINUOUS
370
-3
390
F
  0
LAYER
  5
24F
100
AcDbSymbolTableRecord
100
AcDbLayerTableRecord
  2
0603_R_REF_55000_3
 70
0
 62
7
  6
CONTINUOUS
370
-3
390
F
  0
LAYER
  5
250
100
AcDbSymbolTableRecord
100
AcDbLayerTableRecord
  2
0603_R_REF_55000_4
 70
0
 62
7
  6
CONTINUOUS
370
-3
390
F
  0
LAYER
  5
251
100
AcDbSymbolTableRecord
100
AcDbLayerTableRecord
  2
0603_R_REF_55000_5
 70
0
 62
7
  6
CONTINUOUS
370
-3
390
F
  0
LAYER
  5
252
100
AcDbSymbolTableRecord
100
AcDbLayerTableRecord
  2
06___PRT_ALL_SURFS
 70
0
 62
7
  6
CONTINUOUS
370
-3
390
F
  0
LAYER
  5
253
100
AcDbSymbolTableRecord
100
AcDbLayerTableRecord
  2
06___PRT_ALL_SURFS_1
 70
0
 62
7
  6
CONTINUOUS
370
-3
390
F
  0
LAYER
  5
254
100
AcDbSymbolTableRecord
100
AcDbLayerTableRecord
  2
06___PRT_ALL_SURFS_13
 70
0
 62
7
  6
CONTINUOUS
370
-3
390
F
  0
LAYER
  5
255
100
AcDbSymbolTableRecord
100
AcDbLayerTableRecord
  2
06___PRT_ALL_SURFS_15
 70
0
 62
7
  6
CONTINUOUS
370
-3
390
F
  0
LAYER
  5
256
100
AcDbSymbolTableRecord
100
AcDbLayerTableRecord
  2
06___PRT_ALL_SURFS_16
 70
0
 62
7
  6
CONTINUOUS
370
-3
390
F
  0
LAYER
  5
257
100
AcDbSymbolTableRecord
100
AcDbLayerTableRecord
  2
06___PRT_ALL_SURFS_2
 70
0
 62
7
  6
CONTINUOUS
370
-3
390
F
  0
LAYER
  5
258
100
AcDbSymbolTableRecord
100
AcDbLayerTableRecord
  2
06___PRT_ALL_SURFS_20
 70
0
 62
7
  6
CONTINUOUS
370
-3
390
F
  0
LAYER
  5
259
100
AcDbSymbolTableRecord
100
AcDbLayerTableRecord
  2
06___PRT_ALL_SURFS_22
 70
0
 62
7
  6
CONTINUOUS
370
-3
390
F
  0
LAYER
  5
25A
100
AcDbSymbolTableRecord
100
AcDbLayerTableRecord
  2
06___PRT_ALL_SURFS_23
 70
0
 62
7
  6
CONTINUOUS
370
-3
390
F
  0
LAYER
  5
25B
100
AcDbSymbolTableRecord
100
AcDbLayerTableRecord
  2
06___PRT_ALL_SURFS_24
 70
0
 62
7
  6
CONTINUOUS
370
-3
390
F
  0
LAYER
  5
25C
100
AcDbSymbolTableRecord
100
AcDbLayerTableRecord
  2
06___PRT_ALL_SURFS_26
 70
0
 62
7
  6
CONTINUOUS
370
-3
390
F
  0
LAYER
  5
25D
100
AcDbSymbolTableRecord
100
AcDbLayerTableRecord
  2
06___PRT_ALL_SURFS_27
 70
0
 62
7
  6
CONTINUOUS
370
-3
390
F
  0
LAYER
  5
25E
100
AcDbSymbolTableRecord
100
AcDbLayerTableRecord
  2
06___PRT_ALL_SURFS_28
 70
0
 62
7
  6
CONTINUOUS
370
-3
390
F
  0
LAYER
  5
25F
100
AcDbSymbolTableRecord
100
AcDbLayerTableRecord
  2
06___PRT_ALL_SURFS_29
 70
0
 62
7
  6
CONTINUOUS
370
-3
390
F
  0
LAYER
  5
260
100
AcDbSymbolTableRecord
100
AcDbLayerTableRecord
  2
06___PRT_ALL_SURFS_3
 70
0
 62
7
  6
CONTINUOUS
370
-3
390
F
  0
LAYER
  5
261
100
AcDbSymbolTableRecord
100
AcDbLayerTableRecord
  2
06___PRT_ALL_SURFS_30
 70
0
 62
7
  6
CONTINUOUS
370
-3
390
F
  0
LAYER
  5
262
100
AcDbSymbolTableRecord
100
AcDbLayerTableRecord
  2
06___PRT_ALL_SURFS_31
 70
0
 62
7
  6
CONTINUOUS
370
-3
390
F
  0
LAYER
  5
263
100
AcDbSymbolTableRecord
100
AcDbLayerTableRecord
  2
06___PRT_ALL_SURFS_32
 70
0
 62
7
  6
CONTINUOUS
370
-3
390
F
  0
LAYER
  5
264
100
AcDbSymbolTableRecord
100
AcDbLayerTableRecord
  2
06___PRT_ALL_SURFS_34
 70
0
 62
7
  6
CONTINUOUS
370
-3
390
F
  0
LAYER
  5
265
100
AcDbSymbolTableRecord
100
AcDbLayerTableRecord
  2
06___PRT_ALL_SURFS_37
 70
0
 62
7
  6
CONTINUOUS
370
-3
390
F
  0
LAYER
  5
266
100
AcDbSymbolTableRecord
100
AcDbLayerTableRecord
  2
06___PRT_ALL_SURFS_4
 70
0
 62
7
  6
CONTINUOUS
370
-3
390
F
  0
LAYER
  5
267
100
AcDbSymbolTableRecord
100
AcDbLayerTableRecord
  2
06___PRT_ALL_SURFS_5
 70
0
 62
7
  6
CONTINUOUS
370
-3
390
F
  0
LAYER
  5
268
100
AcDbSymbolTableRecord
100
AcDbLayerTableRecord
  2
06___PRT_ALL_SURFS_6
 70
0
 62
7
  6
CONTINUOUS
370
-3
390
F
  0
LAYER
  5
269
100
AcDbSymbolTableRecord
100
AcDbLayerTableRecord
  2
06___PRT_ALL_SURFS_7
 70
0
 62
7
  6
CONTINUOUS
370
-3
390
F
  0
LAYER
  5
26A
100
AcDbSymbolTableRecord
100
AcDbLayerTableRecord
  2
06___PRT_ALL_SURFS_8
 70
0
 62
7
  6
CONTINUOUS
370
-3
390
F
  0
LAYER
  5
26B
100
AcDbSymbolTableRecord
100
AcDbLayerTableRecord
  2
06___PRT_ALL_SURFS_9
 70
0
 62
7
  6
CONTINUOUS
370
-3
390
F
  0
LAYER
  5
26C
100
AcDbSymbolTableRecord
100
AcDbLayerTableRecord
  2
0805_C_REF_145000
 70
0
 62
7
  6
CONTINUOUS
370
-3
390
F
  0
LAYER
  5
26D
100
AcDbSymbolTableRecord
100
AcDbLayerTableRecord
  2
1206_C_REF_180000
 70
0
 62
7
  6
CONTINUOUS
370
-3
390
F
  0
LAYER
  5
26E
100
AcDbSymbolTableRecord
100
AcDbLayerTableRecord
  2
43001034A0
 70
0
 62
7
  6
CONTINUOUS
370
-3
390
F
  0
LAYER
  5
26F
100
AcDbSymbolTableRecord
100
AcDbLayerTableRecord
  2
43001034B0
 70
0
 62
7
  6
CONTINUOUS
370
-3
390
F
  0
LAYER
  5
270
100
AcDbSymbolTableRecord
100
AcDbLayerTableRecord
  2
43001034B0_1
 70
0
 62
7
  6
CONTINUOUS
370
-3
390
F
  0
LAYER
  5
271
100
AcDbSymbolTableRecord
100
AcDbLayerTableRecord
  2
43001034C0
 70
0
 62
7
  6
CONTINUOUS
370
-3
390
F
  0
LAYER
  5
272
100
AcDbSymbolTableRecord
100
AcDbLayerTableRecord
  2
43001035A0
 70
0
 62
7
  6
CONTINUOUS
370
-3
390
F
  0
LAYER
  5
273
100
AcDbSymbolTableRecord
100
AcDbLayerTableRecord
  2
43001035B0
 70
0
 62
7
  6
CONTINUOUS
370
-3
390
F
  0
LAYER
  5
274
100
AcDbSymbolTableRecord
100
AcDbLayerTableRecord
  2
43901034A0
 70
0
 62
7
  6
CONTINUOUS
370
-3
390
F
  0
LAYER
  5
275
100
AcDbSymbolTableRecord
100
AcDbLayerTableRecord
  2
43901034B0
 70
0
 62
7
  6
CONTINUOUS
370
-3
390
F
  0
LAYER
  5
276
100
AcDbSymbolTableRecord
100
AcDbLayerTableRecord
  2
43901034C0
 70
0
 62
7
  6
CONTINUOUS
370
-3
390
F
  0
LAYER
  5
277
100
AcDbSymbolTableRecord
100
AcDbLayerTableRecord
  2
43901035A0
 70
0
 62
7
  6
CONTINUOUS
370
-3
390
F
  0
LAYER
  5
278
100
AcDbSymbolTableRecord
100
AcDbLayerTableRecord
  2
43901035B0
 70
0
 62
7
  6
CONTINUOUS
370
-3
390
F
  0
LAYER
  5
279
100
AcDbSymbolTableRecord
100
AcDbLayerTableRecord
  2
43901035C0
 70
0
 62
7
  6
CONTINUOUS
370
-3
390
F
  0
LAYER
  5
27A
100
AcDbSymbolTableRecord
100
AcDbLayerTableRecord
  2
ASSI
 70
0
 62
7
  6
CONTINUOUS
370
-3
390
F
  0
LAYER
  5
27B
100
AcDbSymbolTableRecord
100
AcDbLayerTableRecord
  2
CAP-E-SMD-6_6-6_3-5_4_570000
 70
0
 62
7
  6
CONTINUOUS
370
-3
390
F
  0
LAYER
  5
27C
100
AcDbSymbolTableRecord
100
AcDbLayerTableRecord
  2
CAP-E-SMD-8_3-8_3-10_5_1050000
 70
0
 62
7
  6
CONTINUOUS
370
-3
390
F
  0
LAYER
  5
27D
100
AcDbSymbolTableRecord
100
AcDbLayerTableRecord
  2
CAP-E-SMD-8_3-8_3-10_5_105000_1
 70
0
 62
7
  6
CONTINUOUS
370
-3
390
F
  0
LAYER
  5
27E
100
AcDbSymbolTableRecord
100
AcDbLayerTableRecord
  2
CC-20MILS-VIMAR_1000
 70
0
 62
7
  6
CONTINUOUS
370
-3
390
F
  0
LAYER
  5
27F
100
AcDbSymbolTableRecord
100
AcDbLayerTableRecord
  2
COLOR124
 70
0
 62
7
  6
CONTINUOUS
370
-3
390
F
  0
LAYER
  5
280
100
AcDbSymbolTableRecord
100
AcDbLayerTableRecord
  2
COLOR2
 70
0
 62
7
  6
CONTINUOUS
370
-3
390
F
  0
LAYER
  5
281
100
AcDbSymbolTableRecord
100
AcDbLayerTableRecord
  2
COLOR5
 70
0
 62
7
  6
CONTINUOUS
370
-3
390
F
  0
LAYER
  5
282
100
AcDbSymbolTableRecord
100
AcDbLayerTableRecord
  2
COLOR6
 70
0
 62
7
  6
CONTINUOUS
370
-3
390
F
  0
LAYER
  5
283
100
AcDbSymbolTableRecord
100
AcDbLayerTableRecord
  2
COLOR7
 70
0
 62
7
  6
CONTINUOUS
370
-3
390
F
  0
LAYER
  5
284
100
AcDbSymbolTableRecord
100
AcDbLayerTableRecord
  2
COORDINATE
 70
0
 62
7
  6
CONTINUOUS
370
-3
390
F
  0
LAYER
  5
285
100
AcDbSymbolTableRecord
100
AcDbLayerTableRecord
  2
COORD_ORIGINE
 70
0
 62
7
  6
CONTINUOUS
370
-3
390
F
  0
LAYER
  5
286
100
AcDbSymbolTableRecord
100
AcDbLayerTableRecord
  2
COPY_PUBLISH
 70
0
 62
7
  6
CONTINUOUS
370
-3
390
F
  0
LAYER
  5
287
100
AcDbSymbolTableRecord
100
AcDbLayerTableRecord
  2
COSMETIC
 70
0
 62
7
  6
CONTINUOUS
370
-3
390
F
  0
LAYER
  5
288
100
AcDbSymbolTableRecord
100
AcDbLayerTableRecord
  2
COSMETICI
 70
0
 62
7
  6
CONTINUOUS
370
-3
390
F
  0
LAYER
  5
289
100
AcDbSymbolTableRecord
100
AcDbLayerTableRecord
  2
CR_MR2P5_MSB_SW_PTH_1000000
 70
0
 62
7
  6
CONTINUOUS
370
-3
390
F
  0
LAYER
  5
28A
100
AcDbSymbolTableRecord
100
AcDbLayerTableRecord
  2
CURVE
 70
0
 62
7
  6
CONTINUOUS
370
-3
390
F
  0
LAYER
  5
28B
100
AcDbSymbolTableRecord
100
AcDbLayerTableRecord
  2
DATAMATRIX_RESIST_1000
 70
0
 62
7
  6
CONTINUOUS
370
-3
390
F
  0
LAYER
  5
28C
100
AcDbSymbolTableRecord
100
AcDbLayerTableRecord
  2
DL_RGB_1_6-1_6-0_5MM_50000
 70
0
 62
7
  6
CONTINUOUS
370
-3
390
F
  0
LAYER
  5
28D
100
AcDbSymbolTableRecord
100
AcDbLayerTableRecord
  2
DRAFT
 70
0
 62
7
  6
CONTINUOUS
370
-3
390
F
  0
LAYER
  5
28E
100
AcDbSymbolTableRecord
100
AcDbLayerTableRecord
  2
FIDUCIAL_1_2_MM_RUOTATO_45_1000
 70
0
 62
7
  6
CONTINUOUS
370
-3
390
F
  0
LAYER
  5
28F
100
AcDbSymbolTableRecord
100
AcDbLayerTableRecord
  2
FIDUCIAL_1_2_MM_RUOTATO_45_10_1
 70
0
 62
7
  6
CONTINUOUS
370
-3
390
F
  0
LAYER
  5
290
100
AcDbSymbolTableRecord
100
AcDbLayerTableRecord
  2
FIDUCIAL_1_2_MM_RUOTATO_45_10_2
 70
0
 62
7
  6
CONTINUOUS
370
-3
390
F
  0
LAYER
  5
291
100
AcDbSymbolTableRecord
100
AcDbLayerTableRecord
  2
GEOMETRIA_SOLIDA
 70
0
 62
7
  6
CONTINUOUS
370
-3
390
F
  0
LAYER
  5
292
100
AcDbSymbolTableRecord
100
AcDbLayerTableRecord
  2
GEOMETRIA_SOLIDA_1
 70
0
 62
7
  6
CONTINUOUS
370
-3
390
F
  0
LAYER
  5
293
100
AcDbSymbolTableRecord
100
AcDbLayerTableRecord
  2
GEOMETRIA_SOLIDA_10
 70
0
 62
7
  6
CONTINUOUS
370
-3
390
F
  0
LAYER
  5
294
100
AcDbSymbolTableRecord
100
AcDbLayerTableRecord
  2
GEOMETRIA_SOLIDA_2
 70
0
 62
7
  6
CONTINUOUS
370
-3
390
F
  0
LAYER
  5
295
100
AcDbSymbolTableRecord
100
AcDbLayerTableRecord
  2
GEOMETRIA_SOLIDA_3
 70
0
 62
7
  6
CONTINUOUS
370
-3
390
F
  0
LAYER
  5
296
100
AcDbSymbolTableRecord
100
AcDbLayerTableRecord
  2
GEOMETRIA_SOLIDA_4
 70
0
 62
7
  6
CONTINUOUS
370
-3
390
F
  0
LAYER
  5
297
100
AcDbSymbolTableRecord
100
AcDbLayerTableRecord
  2
GEOMETRIA_SOLIDA_5
 70
0
 62
7
  6
CONTINUOUS
370
-3
390
F
  0
LAYER
  5
298
100
AcDbSymbolTableRecord
100
AcDbLayerTableRecord
  2
GEOMETRIA_SOLIDA_6
 70
0
 62
7
  6
CONTINUOUS
370
-3
390
F
  0
LAYER
  5
299
100
AcDbSymbolTableRecord
100
AcDbLayerTableRecord
  2
GEOMETRIA_SOLIDA_7
 70
0
 62
7
  6
CONTINUOUS
370
-3
390
F
  0
LAYER
  5
29A
100
AcDbSymbolTableRecord
100
AcDbLayerTableRecord
  2
GEOMETRIA_SOLIDA_8
 70
0
 62
7
  6
CONTINUOUS
370
-3
390
F
  0
LAYER
  5
29B
100
AcDbSymbolTableRecord
100
AcDbLayerTableRecord
  2
GEOMETRIA_SOLIDA_9
 70
0
 62
7
  6
CONTINUOUS
370
-3
390
F
  0
LAYER
  5
29C
100
AcDbSymbolTableRecord
100
AcDbLayerTableRecord
  2
IMPORT_IGES
 70
0
 62
7
  6
CONTINUOUS
370
-3
390
F
  0
LAYER
  5
29D
100
AcDbSymbolTableRecord
100
AcDbLayerTableRecord
  2
IMPORT_IGES_3
 70
0
 62
7
  6
CONTINUOUS
370
-3
390
F
  0
LAYER
  5
29E
100
AcDbSymbolTableRecord
100
AcDbLayerTableRecord
  2
IMPORT_IGES_5
 70
0
 62
7
  6
CONTINUOUS
370
-3
390
F
  0
LAYER
  5
29F
100
AcDbSymbolTableRecord
100
AcDbLayerTableRecord
  2
IMPORT_IGES_7
 70
0
 62
7
  6
CONTINUOUS
370
-3
390
F
  0
LAYER
  5
2A0
100
AcDbSymbolTableRecord
100
AcDbLayerTableRecord
  2
IMPORT_IGES_8
 70
0
 62
7
  6
CONTINUOUS
370
-3
390
F
  0
LAYER
  5
2A1
100
AcDbSymbolTableRecord
100
AcDbLayerTableRecord
  2
INTF_1
 70
0
 62
7
  6
CONTINUOUS
370
-3
390
F
  0
LAYER
  5
2A2
100
AcDbSymbolTableRecord
100
AcDbLayerTableRecord
  2
INTF_11
 70
0
 62
7
  6
CONTINUOUS
370
-3
390
F
  0
LAYER
  5
2A3
100
AcDbSymbolTableRecord
100
AcDbLayerTableRecord
  2
INTF_2
 70
0
 62
7
  6
CONTINUOUS
370
-3
390
F
  0
LAYER
  5
2A4
100
AcDbSymbolTableRecord
100
AcDbLayerTableRecord
  2
INTF_BLUE
 70
0
 62
7
  6
CONTINUOUS
370
-3
390
F
  0
LAYER
  5
2A5
100
AcDbSymbolTableRecord
100
AcDbLayerTableRecord
  2
INTF_GREEN
 70
0
 62
7
  6
CONTINUOUS
370
-3
390
F
  0
LAYER
  5
2A6
100
AcDbSymbolTableRecord
100
AcDbLayerTableRecord
  2
LOGO_RESIST-RESTYLING_10000
 70
0
 62
7
  6
CONTINUOUS
370
-3
390
F
  0
LAYER
  5
2A7
100
AcDbSymbolTableRecord
100
AcDbLayerTableRecord
  2
MINIMELF_R_REF_140000
 70
0
 62
7
  6
CONTINUOUS
370
-3
390
F
  0
LAYER
  5
2A8
100
AcDbSymbolTableRecord
100
AcDbLayerTableRecord
  2
MINIMELF_R_REF_140000_1
 70
0
 62
7
  6
CONTINUOUS
370
-3
390
F
  0
LAYER
  5
2A9
100
AcDbSymbolTableRecord
100
AcDbLayerTableRecord
  2
NOTE
 70
0
 62
7
  6
CONTINUOUS
370
-3
390
F
  0
LAYER
  5
2AA
100
AcDbSymbolTableRecord
100
AcDbLayerTableRecord
  2
PIANI
 70
0
 62
7
  6
CONTINUOUS
370
-3
390
F
  0
LAYER
  5
2AB
100
AcDbSymbolTableRecord
100
AcDbLayerTableRecord
  2
PIANI_ORIGINE
 70
0
 62
7
  6
CONTINUOUS
370
-3
390
F
  0
LAYER
  5
2AC
100
AcDbSymbolTableRecord
100
AcDbLayerTableRecord
  2
PIANI_RIFERIMENTO
 70
0
 62
7
  6
CONTINUOUS
370
-3
390
F
  0
LAYER
  5
2AD
100
AcDbSymbolTableRecord
100
AcDbLayerTableRecord
  2
PUNTI
 70
0
 62
7
  6
CONTINUOUS
370
-3
390
F
  0
LAYER
  5
2AE
100
AcDbSymbolTableRecord
100
AcDbLayerTableRecord
  2
RACCORDO
 70
0
 62
7
  6
CONTINUOUS
370
-3
390
F
  0
LAYER
  5
2AF
100
AcDbSymbolTableRecord
100
AcDbLayerTableRecord
  2
SC88-6_REF_H1_1_110000
 70
0
 62
7
  6
CONTINUOUS
370
-3
390
F
  0
LAYER
  5
2B0
100
AcDbSymbolTableRecord
100
AcDbLayerTableRecord
  2
SC88-6_REF_H1_1_110000_1
 70
0
 62
7
  6
CONTINUOUS
370
-3
390
F
  0
LAYER
  5
2B1
100
AcDbSymbolTableRecord
100
AcDbLayerTableRecord
  2
SIMBOLI
 70
0
 62
7
  6
CONTINUOUS
370
-3
390
F
  0
LAYER
  5
2B2
100
AcDbSymbolTableRecord
100
AcDbLayerTableRecord
  2
SMUSSO
 70
0
 62
7
  6
CONTINUOUS
370
-3
390
F
  0
LAYER
  5
2B3
100
AcDbSymbolTableRecord
100
AcDbLayerTableRecord
  2
SOD123_REF_140000
 70
0
 62
7
  6
CONTINUOUS
370
-3
390
F
  0
LAYER
  5
2B4
100
AcDbSymbolTableRecord
100
AcDbLayerTableRecord
  2
SOD523F_70000
 70
0
 62
7
  6
CONTINUOUS
370
-3
390
F
  0
LAYER
  5
2B5
100
AcDbSymbolTableRecord
100
AcDbLayerTableRecord
  2
SOT23-5_REF_H1_5_150000
 70
0
 62
7
  6
CONTINUOUS
370
-3
390
F
  0
LAYER
  5
2B6
100
AcDbSymbolTableRecord
100
AcDbLayerTableRecord
  2
SOT23-5_REF_H1_5_150000_1
 70
0
 62
7
  6
CONTINUOUS
370
-3
390
F
  0
LAYER
  5
2B7
100
AcDbSymbolTableRecord
100
AcDbLayerTableRecord
  2
SOT23-5_REF_H1_5_150000_2
 70
0
 62
7
  6
CONTINUOUS
370
-3
390
F
  0
LAYER
  5
2B8
100
AcDbSymbolTableRecord
100
AcDbLayerTableRecord
  2
SOT89_REF_H1_6_160000
 70
0
 62
7
  6
CONTINUOUS
370
-3
390
F
  0
LAYER
  5
2B9
100
AcDbSymbolTableRecord
100
AcDbLayerTableRecord
  2
SUB_SMA_143000
 70
0
 62
7
  6
CONTINUOUS
370
-3
390
F
  0
LAYER
  5
2BA
100
AcDbSymbolTableRecord
100
AcDbLayerTableRecord
  2
SUB_SMA_143000_1
 70
0
 62
7
  6
CONTINUOUS
370
-3
390
F
  0
LAYER
  5
2BB
100
AcDbSymbolTableRecord
100
AcDbLayerTableRecord
  2
SUB_SMA_143000_2
 70
0
 62
7
  6
CONTINUOUS
370
-3
390
F
  0
LAYER
  5
2BC
100
AcDbSymbolTableRecord
100
AcDbLayerTableRecord
  2
SUB_SMA_143000_3
 70
0
 62
7
  6
CONTINUOUS
370
-3
390
F
  0
LAYER
  5
2BD
100
AcDbSymbolTableRecord
100
AcDbLayerTableRecord
  2
SUPERFICI
 70
0
 62
7
  6
CONTINUOUS
370
-3
390
F
  0
LAYER
  5
2BE
100
AcDbSymbolTableRecord
100
AcDbLayerTableRecord
  2
SYMBOL_DATA_10000
 70
0
 62
7
  6
CONTINUOUS
370
-3
390
F
  0
LAYER
  5
2BF
100
AcDbSymbolTableRecord
100
AcDbLayerTableRecord
  2
SYMBOL_DATA_10000_1
 70
0
 62
7
  6
CONTINUOUS
370
-3
390
F
  0
LAYER
  5
2C0
100
AcDbSymbolTableRecord
100
AcDbLayerTableRecord
  2
SYMBOL_NO-PB_10000
 70
0
 62
7
  6
CONTINUOUS
370
-3
390
F
  0
LAYER
  5
2C1
100
AcDbSymbolTableRecord
100
AcDbLayerTableRecord
  2
TP_PROGRAMMAZIONE_SWD_D1_5_1000
 70
0
 62
7
  6
CONTINUOUS
370
-3
390
F
  0
LAYER
  5
2C2
100
AcDbSymbolTableRecord
100
AcDbLayerTableRecord
  2
TRASH
 70
0
 62
7
  6
CONTINUOUS
370
-3
390
F
  0
LAYER
  5
2C3
100
AcDbSymbolTableRecord
100
AcDbLayerTableRecord
  2
VG_ANTENNA_WE_7488960245_85000
 70
0
 62
7
  6
CONTINUOUS
370
-3
390
F
  0
LAYER
  5
2C4
100
AcDbSymbolTableRecord
100
AcDbLayerTableRecord
  2
VG_CN-M-THT-P5_0-R1-P2-SET-H14_
 70
0
 62
7
  6
CONTINUOUS
370
-3
390
F
  0
LAYER
  5
2C5
100
AcDbSymbolTableRecord
100
AcDbLayerTableRecord
  2
VG_CN-M-THT-P5_0-R1-P3-SET-H14_
 70
0
 62
7
  6
CONTINUOUS
370
-3
390
F
  0
LAYER
  5
2C6
100
AcDbSymbolTableRecord
100
AcDbLayerTableRecord
  2
VG_CN-MEZZANINE-F-SMT-P0_8-R2-P
 70
0
 62
7
  6
CONTINUOUS
370
-3
390
F
  0
LAYER
  5
2C7
100
AcDbSymbolTableRecord
100
AcDbLayerTableRecord
  2
VG_CN-MEZZANINE-M-SMT-P0_8-R2-P
 70
0
 62
7
  6
CONTINUOUS
370
-3
390
F
  0
LAYER
  5
2C8
100
AcDbSymbolTableRecord
100
AcDbLayerTableRecord
  2
VG_CN-THT-CII5-R1-P2-SET_100000
 70
0
 62
7
  6
CONTINUOUS
370
-3
390
F
  0
LAYER
  5
2C9
100
AcDbSymbolTableRecord
100
AcDbLayerTableRecord
  2
VG_DO-214AC-NP_230000
 70
0
 62
7
  6
CONTINUOUS
370
-3
390
F
  0
LAYER
  5
2CA
100
AcDbSymbolTableRecord
100
AcDbLayerTableRecord
  2
VG_IND-CHIP-0402-POL-1_0-REF_10
 70
0
 62
7
  6
CONTINUOUS
370
-3
390
F
  0
LAYER
  5
2CB
100
AcDbSymbolTableRecord
100
AcDbLayerTableRecord
  2
VG_IND-SMT-4_0-4_0-2_5-1_55-3_6
 70
0
 62
7
  6
CONTINUOUS
370
-3
390
F
  0
LAYER
  5
2CC
100
AcDbSymbolTableRecord
100
AcDbLayerTableRecord
  2
VG_IND-SMT-8_0-8_0-6_5-4_0-6_3-
 70
0
 62
7
  6
CONTINUOUS
370
-3
390
F
  0
LAYER
  5
2CD
100
AcDbSymbolTableRecord
100
AcDbLayerTableRecord
  2
VG_MCM_LT103SPI_250000
 70
0
 62
7
  6
CONTINUOUS
370
-3
390
F
  0
LAYER
  5
2CE
100
AcDbSymbolTableRecord
100
AcDbLayerTableRecord
  2
VG_PB-2-3_9-2_9-2_0-SMT_200000
 70
0
 62
7
  6
CONTINUOUS
370
-3
390
F
  0
LAYER
  5
2CF
100
AcDbSymbolTableRecord
100
AcDbLayerTableRecord
  2
VG_PHOTOTRANSISTOR-0805-1_0-2PI
 70
0
 62
7
  6
CONTINUOUS
370
-3
390
F
  0
LAYER
  5
2D0
100
AcDbSymbolTableRecord
100
AcDbLayerTableRecord
  2
VG_PTC-6_5-10_0-5_0-5_0-0-0_6_1
 70
0
 62
7
  6
CONTINUOUS
370
-3
390
F
  0
LAYER
  5
2D1
100
AcDbSymbolTableRecord
100
AcDbLayerTableRecord
  2
VG_QCS5F_40000
 70
0
 62
7
  6
CONTINUOUS
370
-3
390
F
  0
LAYER
  5
2D2
100
AcDbSymbolTableRecord
100
AcDbLayerTableRecord
  2
VG_QFN73-7_0-7_0-7_0-7_0-0_85-0
 70
0
 62
7
  6
CONTINUOUS
370
-3
390
F
  0
LAYER
  5
2D3
100
AcDbSymbolTableRecord
100
AcDbLayerTableRecord
  2
VG_SOP4-4_6-10_0-4_5-2_54-REF_4
 70
0
 62
7
  6
CONTINUOUS
370
-3
390
F
  0
LAYER
  5
2D4
100
AcDbSymbolTableRecord
100
AcDbLayerTableRecord
  2
VG_SOT23-5-H1_1-REF_150000
 70
0
 62
7
  6
CONTINUOUS
370
-3
390
F
  0
LAYER
  5
2D5
100
AcDbSymbolTableRecord
100
AcDbLayerTableRecord
  2
VG_SOT23_H1_1_REF_110000
 70
0
 62
7
  6
CONTINUOUS
370
-3
390
F
  0
LAYER
  5
2D6
100
AcDbSymbolTableRecord
100
AcDbLayerTableRecord
  2
VG_SOT23_H1_1_REF_110000_1
 70
0
 62
7
  6
CONTINUOUS
370
-3
390
F
  0
LAYER
  5
2D7
100
AcDbSymbolTableRecord
100
AcDbLayerTableRecord
  2
VG_SOT23_H1_1_REF_110000_2
 70
0
 62
7
  6
CONTINUOUS
370
-3
390
F
  0
LAYER
  5
2D8
100
AcDbSymbolTableRecord
100
AcDbLayerTableRecord
  2
VG_SOT23_H1_2_REF_120000
 70
0
 62
7
  6
CONTINUOUS
370
-3
390
F
  0
LAYER
  5
2D9
100
AcDbSymbolTableRecord
100
AcDbLayerTableRecord
  2
VG_VAR_S05_D7_S4_3_H8_5_850000
 70
0
 62
7
  6
CONTINUOUS
370
-3
390
F
  0
LAYER
  5
2DA
100
AcDbSymbolTableRecord
100
AcDbLayerTableRecord
  2
VG_X-SMT-2-3_2-1_5-1_0_100000
 70
0
 62
7
  6
CONTINUOUS
370
-3
390
F
  0
LAYER
  5
2DB
100
AcDbSymbolTableRecord
100
AcDbLayerTableRecord
  2
VG_X-SMT-2-5_0-3_2-1_5_150000
 70
0
 62
7
  6
CONTINUOUS
370
-3
390
F
  0
LAYER
  5
2DC
100
AcDbSymbolTableRecord
100
AcDbLayerTableRecord
  2
XSEC_DATUMS
 70
0
 62
7
  6
CONTINUOUS
370
-3
390
F
  0
LAYER
  5
2DD
100
AcDbSymbolTableRecord
100
AcDbLayerTableRecord
  2
___SHELL
 70
0
 62
7
  6
CONTINUOUS
370
-3
390
F
  0
ENDTAB
  0
TABLE
  2
STYLE
  5
3
100
AcDbSymbolTable
 70
1
  0
STYLE
  5
11
100
AcDbSymbolTableRecord
100
AcDbTextStyleTableRecord
  2
STANDARD
 70
0
 40
0.0
 41
0.8
 50
0.0
 71
0
 42
0.2
  3
txt
  4

  0
STYLE
  5
2DE
100
AcDbSymbolTableRecord
100
AcDbTextStyleTableRecord
  2
TEXTSTYLE_1
 70
0
 40
0.0
 41
0.8
 50
0.0
 71
0
 42
0.2
  3
gdt
  4

  0
ENDTAB
  0
TABLE
  2
VIEW
  5
6
100
AcDbSymbolTable
 70
0
  0
ENDTAB
  0
TABLE
  2
UCS
  5
7
100
AcDbSymbolTable
 70
0
  0
ENDTAB
  0
TABLE
  2
APPID
  5
9
100
AcDbSymbolTable
 70
1
  0
APPID
  5
2DF
100
AcDbSymbolTableRecord
100
AcDbRegAppTableRecord
  2
ACAD
 70
0
  0
ENDTAB
  0
TABLE
  2
BLOCK_RECORD
  5
1
100
AcDbSymbolTable
 70
0
  0
BLOCK_RECORD
  5
2E0
100
AcDbSymbolTableRecord
100
AcDbBlockTableRecord
  2
*Model_Space
  0
BLOCK_RECORD
  5
2E1
100
AcDbSymbolTableRecord
100
AcDbBlockTableRecord
  2
*Paper_Space
  0
BLOCK_RECORD
  5
2E2
100
AcDbSymbolTableRecord
100
AcDbBlockTableRecord
  2
_FILLED
  0
ENDTAB
  0
TABLE
  2
DIMSTYLE
  5
A
100
AcDbSymbolTable
 70
1
100
AcDbDimStyleTable
 71
0
  0
DIMSTYLE
105
2E3
100
AcDbSymbolTableRecord
100
AcDbDimStyleTableRecord
  2
STANDARD
 70
0
  3

  4

 40
1.0
 41
3.0
 42
0.5
 43
0.38
 44
1.5
 45
0.0
 46
0.0
 47
0.01
 48
0.01
140
3.0
141
0.09
142
0.0
143
25.4
144
1.0
145
0.0
146
1.0
147
0.625
 71
1
 72
0
 73
0
 74
0
 75
0
 76
0
 77
1
 78
8
 79
2
170
0
171
1
172
0
173
0
174
0
175
0
176
0
177
0
178
0
270
2
179
2
271
2
272
2
273
2
274
2
275
0
280
0
281
0
282
0
283
1
284
8
285
0
286
0
287
3
288
0
340
11
278
44
341
2E2
342
2E2
343
2E2
344
2E2
  0
ENDTAB
  0
ENDSEC
  0
SECTION
  2
BLOCKS
  0
BLOCK
  5
20
100
AcDbEntity
  8
0
100
AcDbBlockBegin
  2
*Model_Space
 70
0
 10
0.0
 20
0.0
 30
0.0
  3
*Model_Space
  1

  0
ENDBLK
  5
21
100
AcDbEntity
  8
0
100
AcDbBlockEnd
  0
BLOCK
  5
1C
100
AcDbEntity
  8
0
100
AcDbBlockBegin
  2
*Paper_Space
 70
0
 10
0.0
 20
0.0
 30
0.0
  3
*Paper_Space
  1

  0
ENDBLK
  5
1D
100
AcDbEntity
  8
0
100
AcDbBlockEnd
  0
BLOCK
  5
2E4
100
AcDbEntity
  8
0
100
AcDbBlockBegin
  2
_FILLED
 70
64
 10
0.0
 20
0.0
  3
_FILLED
  1

  0
SOLID
  5
2E5
100
AcDbEntity
  8
0
  6
BYBLOCK
 62
0
100
AcDbTrace
 10
0.0
 20
0.0
 11
-1.0
 21
0.3166666667
 12
-1.0
 22
-0.3166666667
 13
-1.0
 23
-0.3166666667
  0
ENDBLK
  5
2E6
100
AcDbEntity
  8
0
  6
BYBLOCK
 62
0
100
AcDbBlockEnd
  0
ENDSEC
  0
SECTION
  2
ENTITIES
  0
LWPOLYLINE
  5
2E7
100
AcDbEntity
  8
ASSI
100
AcDbPolyline
 62
250
  6
CONTINUOUS
 90
31
 70
0
 10
132.5293248827
 20
65.4040704531
 10
132.5480960575
 20
65.39381674
 10
132.5677637536
 20
65.3841832009
 10
132.5882752532
 20
65.3751956576
 10
132.6095755768
 20
65.3668782007
 10
132.6316076303
 20
65.3592531245
 10
132.6543123586
 20
65.3523408674
 10
132.6776289032
 20
65.3461599573
 10
132.7014947659
 20
65.3407269615
 10
132.7258459761
 20
65.3360564429
 10
132.750617262
 20
65.3321609205
 10
132.7757422261
 20
65.3290508358
 10
132.8011535227
 20
65.3267345253
 10
132.8267830389
 20
65.3252181976
 10
132.8525620765
 20
65.3245059172
 10
132.8784215367
 20
65.3245995932
 10
132.9042921053
 20
65.3254989746
 10
132.9301044379
 20
65.3272016506
 10
132.9557893466
 20
65.3297030574
 10
132.981277985
 20
65.3329964901
 10
133.0065020324
 20
65.3370731209
 10
133.0313938779
 20
65.3419220227
 10
133.0558868006
 20
65.3475301983
 10
133.079915149
 20
65.3538826156
 10
133.103414517
 20
65.3609622472
 10
133.1263219162
 20
65.3687501168
 10
133.148575945
 20
65.3772253496
 10
133.1701169532
 20
65.3863652282
 10
133.1908872016
 20
65.396145254
 10
133.2108310173
 20
65.4065392124
 10
133.2298949421
 20
65.417519243
  0
LWPOLYLINE
  5
2E8
100
AcDbEntity
  8
ASSI
100
AcDbPolyline
 62
7
  6
CONTINUOUS
 90
14
 70
0
 10
132.7373328237
 20
64.9793993646
 10
132.764282268
 20
64.9646345807
 10
132.816724143
 20
64.940236845
 10
132.8709821948
 20
64.9204325338
 10
132.9271977215
 20
64.9051830756
 10
132.9850292715
 20
64.8946504399
 10
133.0440672686
 20
64.888963816
 10
133.1044548714
 20
64.8882033556
 10
133.1659060039
 20
64.8925266759
 10
133.2280170561
 20
64.9020427569
 10
133.2908851099
 20
64.9169421327
 10
133.3543924683
 20
64.9374439742
 10
133.4181021229
 20
64.9636642559
 10
133.4458783348
 20
64.9769232028
  0
LINE
  5
2E9
100
AcDbEntity
  8
ASSI
100
AcDbLine
 62
7
  6
CONTINUOUS
 10
117.9086667463
 20
73.5412851556
 11
132.7375843117
 21
64.9792540034
  0
LINE
  5
2EA
100
AcDbEntity
  8
ASSI
100
AcDbLine
 62
250
  6
CONTINUOUS
 10
117.7040109746
 20
73.9640208988
 11
132.5293248827
 21
65.4040704531
  0
LINE
  5
2EB
100
AcDbEntity
  8
ASSI
100
AcDbLine
 62
7
  6
CONTINUOUS
 10
132.7375842872
 20
64.9792540175
 11
132.7373354552
 21
64.9793978306
  0
LWPOLYLINE
  5
2EC
100
AcDbEntity
  8
ASSI
100
AcDbPolyline
 62
250
  6
CONTINUOUS
 90
20
 70
0
 10
132.7373354552
 20
64.9793978306
 10
132.7349905076
 20
64.980766984
 10
132.7148451075
 20
64.9936138296
 10
132.6955860548
 20
65.0078888753
 10
132.6772462865
 20
65.0235677647
 10
132.6598564584
 20
65.0406241797
 10
132.6434454472
 20
65.0590296291
 10
132.628041174
 20
65.0787530513
 10
132.613669166
 20
65.0997617258
 10
132.6003535951
 20
65.1220201881
 10
132.5881176807
 20
65.1454899099
 10
132.5769818445
 20
65.1701311808
 10
132.5669643951
 20
65.1959027486
 10
132.5580824687
 20
65.2227606347
 10
132.5503508258
 20
65.2506593376
 10
132.5437820594
 20
65.27955213
 10
132.538387174
 20
65.3093905644
 10
132.5341751164
 20
65.3401245061
 10
132.5311527148
 20
65.3717021794
 10
132.5293248827
 20
65.4040704531
  0
LWPOLYLINE
  5
2ED
100
AcDbEntity
  8
ASSI
100
AcDbPolyline
 62
250
  6
CONTINUOUS
 90
16
 70
0
 10
117.7040109746
 20
73.9640208988
 10
117.6861855031
 20
73.9748976309
 10
117.669354648
 20
73.9863378984
 10
117.6535635234
 20
73.9983110365
 10
117.638854456
 20
74.0107849523
 10
117.6252668725
 20
74.0237262101
 10
117.6128371933
 20
74.0371001218
 10
117.6015987354
 20
74.0508708397
 10
117.5915816225
 20
74.0650014523
 10
117.5828127047
 20
74.0794540835
 10
117.5753154865
 20
74.094189994
 10
117.5691100634
 20
74.1091696853
 10
117.5642130687
 20
74.1243530054
 10
117.5606376284
 20
74.1396992564
 10
117.5583933259
 20
74.155167304
 10
117.5575874331
 20
74.1668227571
  0
LWPOLYLINE
  5
2EE
100
AcDbEntity
  8
ASSI
100
AcDbPolyline
 62
250
  6
CONTINUOUS
 90
4
 70
0
 10
117.8674305072
 20
73.5694721947
 10
117.8863580225
 20
73.5553922218
 10
117.9061569721
 20
73.5427491486
 10
117.9086667463
 20
73.5412851556
  0
LWPOLYLINE
  5
2EF
100
AcDbEntity
  8
CURVE
100
AcDbPolyline
 62
250
  6
CONTINUOUS
 90
67
 70
0
 10
120.2713554374
 20
78.9400422361
 10
120.297864266
 20
78.9071587733
 10
120.3237603261
 20
78.8738012272
 10
120.3490568516
 20
78.8399556408
 10
120.3737670761
 20
78.8056080567
 10
120.3979042334
 20
78.7707445178
 10
120.4214815572
 20
78.7353510667
 10
120.4445044382
 20
78.6994244134
 10
120.4669468953
 20
78.6630039365
 10
120.4887751039
 20
78.6261396818
 10
120.5099552399
 20
78.5888816952
 10
120.530453479
 20
78.5512800224
 10
120.5502359968
 20
78.5133847092
 10
120.5692717637
 20
78.4752450291
 10
120.5875409282
 20
78.4369071664
 10
120.6050264335
 20
78.3984165329
 10
120.6217112228
 20
78.3598185405
 10
120.6375782393
 20
78.3211586011
 10
120.6526104262
 20
78.2824821266
 10
120.6667920729
 20
78.2438308652
 10
120.6801128543
 20
78.2052319097
 10
120.6925637915
 20
78.1667086891
 10
120.7041359055
 20
78.1282846327
 10
120.7148202176
 20
78.0899831695
 10
120.7246077487
 20
78.0518277286
 10
120.7334894855
 20
78.0138474322
 10
120.7414562766
 20
77.9760941747
 10
120.7484989361
 20
77.9386255437
 10
120.7546082782
 20
77.9014991267
 10
120.7597751169
 20
77.8647725114
 10
120.7639902664
 20
77.8285032852
 10
120.7672459592
 20
77.7927417528
 10
120.7695401016
 20
77.757509087
 10
120.7708720185
 20
77.7228191778
 10
120.7712410346
 20
77.6886859152
 10
120.7706464746
 20
77.655123189
 10
120.7690876634
 20
77.6221448891
 10
120.7665652455
 20
77.5897709163
 10
120.7630851448
 20
77.5580452136
 10
120.7586546053
 20
77.527017735
 10
120.7532808705
 20
77.4967384342
 10
120.7469711844
 20
77.4672572652
 10
120.7397327906
 20
77.4386241818
 10
120.7315728808
 20
77.410882689
 10
120.722498438
 20
77.3840504966
 10
120.7125163931
 20
77.3581388653
 10
120.701633677
 20
77.3331590562
 10
120.6898572205
 20
77.3091223301
 10
120.6771939545
 20
77.2860399479
 10
120.6636524828
 20
77.2639260354
 10
120.6492480999
 20
77.2428061783
 10
120.6339977734
 20
77.2227088273
 10
120.6179184709
 20
77.2036624332
 10
120.6010271599
 20
77.1856954465
 10
120.5833408078
 20
77.1688363179
 10
120.5648786741
 20
77.1531104002
 10
120.5456691862
 20
77.1385306542
 10
120.5257430633
 20
77.1251069428
 10
120.5051310249
 20
77.1128491291
 10
120.4838637901
 20
77.1017670759
 10
120.4619720784
 20
77.0918706461
 10
120.4394793913
 20
77.083168378
 10
120.4163803605
 20
77.0756635111
 10
120.3926623999
 20
77.06935796
 10
120.3683129235
 20
77.0642536395
 10
120.3433193451
 20
77.0603524643
 10
120.3176690788
 20
77.0576563492
  0
LWPOLYLINE
  5
2F0
100
AcDbEntity
  8
ASSI
100
AcDbPolyline
 62
7
  6
CONTINUOUS
 90
11
 70
0
 10
117.5575874331
 20
74.1668227571
 10
117.5643912623
 20
74.0837009571
 10
117.5788166298
 20
74.0024343566
 10
117.600282668
 20
73.9259884752
 10
117.6281103389
 20
73.8549998835
 10
117.6618065601
 20
73.7893937407
 10
117.7012619938
 20
73.7287160088
 10
117.7458693496
 20
73.6735193382
 10
117.7950755551
 20
73.6240922892
 10
117.8491323423
 20
73.5800673008
 10
117.9094291168
 20
73.5408463777
  0
LWPOLYLINE
  5
2F1
100
AcDbEntity
  8
ASSI
100
AcDbPolyline
 62
250
  6
CONTINUOUS
 90
17
 70
0
 10
117.7040109746
 20
73.9640208988
 10
117.7058077812
 20
73.9316600911
 10
117.7087794084
 20
73.9001032411
 10
117.7129208245
 20
73.8694034499
 10
117.7182249142
 20
73.8396124688
 10
117.7246827852
 20
73.8107803681
 10
117.7322837937
 20
73.7829554612
 10
117.7410150348
 20
73.7561845836
 10
117.7508617484
 20
73.7305128961
 10
117.7618076254
 20
73.7059835506
 10
117.7738340039
 20
73.6826380037
 10
117.7869205637
 20
73.6605155017
 10
117.8010457622
 20
73.6396529145
 10
117.8161856386
 20
73.6200854579
 10
117.8323145412
 20
73.6018462108
 10
117.8494058263
 20
73.5849656062
 10
117.8674305072
 20
73.5694721947
  0
LWPOLYLINE
  5
2F2
100
AcDbEntity
  8
ASSI
100
AcDbPolyline
 62
7
  6
CONTINUOUS
 90
10
 70
0
 10
117.5575587241
 20
108.4899897662
 10
117.4377065209
 20
104.6581667004
 10
117.3460323518
 20
100.7762026342
 10
117.2849041208
 20
96.9116174079
 10
117.2543276726
 20
93.0647460893
 10
117.25430646
 20
89.2359270961
 10
117.2848412589
 20
85.4254912955
 10
117.3459301723
 20
81.6337738367
 10
117.4375688911
 20
77.8611037603
 10
117.5575861348
 20
74.1668581482
  0
LWPOLYLINE
  5
2F3
100
AcDbEntity
  8
ASSI
100
AcDbPolyline
 62
7
  6
CONTINUOUS
 90
34
 70
0
 10
124.6075081813
 20
77.4406226338
 10
124.6620706721
 20
77.3932801788
 10
124.7162879593
 20
77.3441838075
 10
124.7699937974
 20
77.293473857
 10
124.8231943182
 20
77.2411366149
 10
124.8758839175
 20
77.1871861125
 10
124.9278787651
 20
77.1318043148
 10
124.9791713996
 20
77.0749906244
 10
125.0297699266
 20
77.0167460282
 10
125.0795138707
 20
76.9572548707
 10
125.1284037876
 20
76.8965078397
 10
125.1764398594
 20
76.8345146939
 10
125.2234610355
 20
76.7714883746
 10
125.2694598776
 20
76.7074299184
 10
125.3144446201
 20
76.642338771
 10
125.3582776862
 20
76.5764254666
 10
125.4009471282
 20
76.5097032059
 10
125.4424657173
 20
76.4421592875
 10
125.4827329108
 20
76.3739653666
 10
125.5217558465
 20
76.3051029554
 10
125.559528231
 20
76.2355910544
 10
125.5959293104
 20
76.1656575112
 10
125.6309463308
 20
76.0953209978
 10
125.6645928524
 20
76.0245633326
 10
125.6967875145
 20
75.9535570357
 10
125.727535027
 20
75.8822849218
 10
125.75683146
 20
75.8107646514
 10
125.7845824007
 20
75.7392209567
 10
125.8107817511
 20
75.6676579258
 10
125.8354363027
 20
75.596071894
 10
125.8584708576
 20
75.5246758923
 10
125.8798800369
 20
75.4534763564
 10
125.8996698106
 20
75.3824672122
 10
125.9177818812
 20
75.311842652
  0
LWPOLYLINE
  5
2F4
100
AcDbEntity
  8
ASSI
100
AcDbPolyline
 62
250
  6
CONTINUOUS
 90
13
 70
0
 10
125.5303374614
 20
75.4623761506
 10
125.5847422583
 20
75.40289358
 10
125.6365234267
 20
75.3425614077
 10
125.6856469504
 20
75.2814192677
 10
125.7320805586
 20
75.2195073259
 10
125.775793748
 20
75.1568662539
 10
125.8167578021
 20
75.0935372023
 10
125.8549458106
 20
75.0295617736
 10
125.8903326868
 20
74.964981995
 10
125.922895184
 20
74.8998402906
 10
125.9526119111
 20
74.8341794539
 10
125.9794633465
 20
74.7680426192
 10
126.0034318506
 20
74.7014732335
  0
LWPOLYLINE
  5
2F5
100
AcDbEntity
  8
CURVE
100
AcDbPolyline
 62
250
  6
CONTINUOUS
 90
67
 70
0
 10
120.5250292908
 20
79.3106173957
 10
120.566267063
 20
79.2594047915
 10
120.6065453089
 20
79.2074576605
 10
120.6458842972
 20
79.1547562218
 10
120.6843042967
 20
79.1012806947
 10
120.7218255761
 20
79.0470112986
 10
120.758468404
 20
78.9919282527
 10
120.7942413089
 20
78.9360273849
 10
120.8291058574
 20
78.8793669572
 10
120.8630118756
 20
78.8220208401
 10
120.8959091898
 20
78.7640629041
 10
120.9277476262
 20
78.7055670198
 10
120.958477011
 20
78.6466070578
 10
120.988050849
 20
78.5872569279
 10
121.016437359
 20
78.5275906974
 10
121.0436084383
 20
78.4676824729
 10
121.0695359842
 20
78.4076063611
 10
121.094191894
 20
78.3474364686
 10
121.1175480651
 20
78.2872469021
 10
121.1395789258
 20
78.2271051987
 10
121.1602690289
 20
78.167052618
 10
121.1796054583
 20
78.1071238503
 10
121.1975752978
 20
78.0473535856
 10
121.2141656312
 20
77.9877765142
 10
121.2293635424
 20
77.9284273262
 10
121.2431558431
 20
77.8693498832
 10
121.2555282563
 20
77.8106247325
 10
121.2664662329
 20
77.7523415928
 10
121.2759552237
 20
77.6945901828
 10
121.2839806797
 20
77.6374602212
 10
121.2905280515
 20
77.5810414267
 10
121.2955850828
 20
77.5254123357
 10
121.2991486873
 20
77.4706067552
 10
121.3012180715
 20
77.4166473102
 10
121.3017924416
 20
77.3635566253
 10
121.3008710042
 20
77.3113573254
 10
121.2984529657
 20
77.2600720353
 10
121.2945394938
 20
77.2097322776
 10
121.2891396018
 20
77.1604051663
 10
121.2822642644
 20
77.1121667129
 10
121.2739244561
 20
77.0650929293
 10
121.2641311517
 20
77.0192598272
 10
121.2528953258
 20
76.9747434183
 10
121.2402279068
 20
76.9316101282
 10
121.2261396385
 20
76.8898880377
 10
121.2106412185
 20
76.8495956415
 10
121.1937433442
 20
76.8107514343
 10
121.1754567133
 20
76.7733739108
 10
121.1557920233
 20
76.7374815658
 10
121.1347626324
 20
76.7030971404
 10
121.1123925415
 20
76.6702603622
 10
121.0887084121
 20
76.6390152052
 10
121.0637369057
 20
76.6094056434
 10
121.0375046839
 20
76.581475651
 10
121.0100384081
 20
76.555269202
 10
120.9813679452
 20
76.5308254133
 10
120.9515359832
 20
76.5081639735
 10
120.9205884156
 20
76.4872997141
 10
120.8885711356
 20
76.4682474665
 10
120.8555300366
 20
76.4510220621
 10
120.821511012
 20
76.4356383325
 10
120.786549041
 20
76.42210935
 10
120.7506354466
 20
76.410441151
 10
120.7137506377
 20
76.4006380125
 10
120.6758750233
 20
76.3927042119
 10
120.6369890121
 20
76.3866440264
 10
120.5970730131
 20
76.3824617332
  0
LINE
  5
2F6
100
AcDbEntity
  8
CURVE
100
AcDbLine
 62
250
  6
CONTINUOUS
 10
119.8880985197
 20
75.6618333951
 11
119.8315008159
 21
77.6703302327
  0
LINE
  5
2F7
100
AcDbEntity
  8
CURVE
100
AcDbLine
 62
250
  6
CONTINUOUS
 10
119.759351884
 20
80.8945535003
 11
119.801790647
 21
78.8778814499
  0
LWPOLYLINE
  5
2F8
100
AcDbEntity
  8
CURVE
100
AcDbPolyline
 62
250
  6
CONTINUOUS
 90
81
 70
0
 10
119.4626941246
 20
78.4780132218
 10
119.4625757191
 20
78.4938531148
 10
119.4630074973
 20
78.5091432149
 10
119.463979143
 20
78.5239388728
 10
119.4654803397
 20
78.5382954388
 10
119.4675033265
 20
78.5522570282
 10
119.4700505647
 20
78.5658228148
 10
119.4731270709
 20
78.578980737
 10
119.4767378619
 20
78.5917187333
 10
119.4808854543
 20
78.6040209352
 10
119.4855623647
 20
78.6158562468
 10
119.4907586098
 20
78.6271897651
 10
119.4964642061
 20
78.6379865874
 10
119.502668486
 20
78.648215187
 10
119.5093580448
 20
78.6578575425
 10
119.5165187937
 20
78.6668990088
 10
119.5241366438
 20
78.6753249409
 10
119.5321979406
 20
78.6831219368
 10
119.5406907681
 20
78.6902815666
 10
119.5496036446
 20
78.6967966436
 10
119.5589250885
 20
78.7026599813
 10
119.5686436084
 20
78.7078644176
 10
119.5787476737
 20
78.7124028902
 10
119.5892257442
 20
78.7162683615
 10
119.6000662793
 20
78.7194537938
 10
119.6112560872
 20
78.7219525105
 10
119.6227753696
 20
78.7237592786
 10
119.6346026767
 20
78.7248692261
 10
119.6467165586
 20
78.725277481
 10
119.6590950029
 20
78.724980803
 10
119.6717137462
 20
78.7239824783
 10
119.6845479627
 20
78.7222874249
 10
119.6975728266
 20
78.7199005606
 10
119.7107648365
 20
78.716827023
 10
119.7241057905
 20
78.7130728278
 10
119.7375788111
 20
78.7086442105
 10
119.7511670208
 20
78.7035474064
 10
119.7648535423
 20
78.6977886509
 10
119.7786214981
 20
78.6913741793
 10
119.7924540109
 20
78.6843102271
 10
119.8063342031
 20
78.6766030296
 10
119.8202438715
 20
78.6682608334
 10
119.8341595086
 20
78.6592999303
 10
119.8480562811
 20
78.6497386229
 10
119.8619093558
 20
78.6395952143
 10
119.8756938993
 20
78.6288880072
 10
119.8893850783
 20
78.6176353045
 10
119.9029580595
 20
78.6058554091
 10
119.9163880095
 20
78.5935666238
 10
119.9296513985
 20
78.5807876174
 10
119.9427299102
 20
78.5675385224
 10
119.9556065317
 20
78.5538398371
 10
119.9682642503
 20
78.5397120599
 10
119.9806860531
 20
78.5251756891
 10
119.9928549273
 20
78.510251223
 10
120.00475386
 20
78.49495916
 10
120.0163658384
 20
78.4793199985
 10
120.0276735727
 20
78.4633554473
 10
120.038658665
 20
78.4470920571
 10
120.0493024404
 20
78.4305575889
 10
120.059586224
 20
78.4137798041
 10
120.0694922134
 20
78.3967860413
 10
120.0790060947
 20
78.3796019503
 10
120.0881144267
 20
78.3622527584
 10
120.0968037679
 20
78.344763693
 10
120.105060783
 20
78.3271603823
 10
120.1128725603
 20
78.3094700586
 10
120.120226294
 20
78.2917203552
 10
120.1271091784
 20
78.2739389053
 10
120.1335085386
 20
78.256156535
 10
120.1394122227
 20
78.2384168414
 10
120.14480821
 20
78.2207666143
 10
120.1496844795
 20
78.2032526436
 10
120.1540317211
 20
78.1859151504
 10
120.1578514676
 20
78.1687680805
 10
120.1611479625
 20
78.1518188112
 10
120.1639254495
 20
78.1350747194
 10
120.166186152
 20
78.1185344473
 10
120.1679242133
 20
78.1021616968
 10
120.1691317568
 20
78.0859114349
 10
120.1698009058
 20
78.0697386284
  0
LWPOLYLINE
  5
2F9
100
AcDbEntity
  8
CURVE
100
AcDbPolyline
 62
250
  6
CONTINUOUS
 90
81
 70
0
 10
120.1698009058
 20
78.0697386284
 10
120.1699198611
 20
78.0538988618
 10
120.1694897048
 20
78.0386095325
 10
120.1685207271
 20
78.0238152725
 10
120.167023218
 20
78.0094607141
 10
120.1650049127
 20
77.9955017245
 10
120.1624633269
 20
77.9819391133
 10
120.1593934213
 20
77.9687849251
 10
120.1557901568
 20
77.9560512049
 10
120.1516509869
 20
77.9437538022
 10
120.1469833375
 20
77.9319237864
 10
120.141797127
 20
77.9205960315
 10
120.1361022743
 20
77.9098054117
 10
120.12990938
 20
77.8995834216
 10
120.123231774
 20
77.8899480385
 10
120.1160834683
 20
77.8809138601
 10
120.108478475
 20
77.8724954842
 10
120.100430371
 20
77.8647062648
 10
120.0919509925
 20
77.8575545817
 10
120.0830517407
 20
77.8510475709
 10
120.0737440166
 20
77.8451923686
 10
120.0640392322
 20
77.839996086
 10
120.0539488428
 20
77.8354657362
 10
120.0434843145
 20
77.8316083074
 10
120.0326571136
 20
77.828430788
 10
120.0214803556
 20
77.8259398046
 10
120.0099737544
 20
77.824140538
 10
119.9981586733
 20
77.8230378075
 10
119.9860564757
 20
77.8226364323
 10
119.9736890912
 20
77.8229396017
 10
119.961080716
 20
77.8239439858
 10
119.9482561124
 20
77.8256446246
 10
119.9352400429
 20
77.8280365581
 10
119.9220559507
 20
77.8311146114
 10
119.9087220013
 20
77.8348727484
 10
119.8952550408
 20
77.8393047179
 10
119.8816719155
 20
77.8444042686
 10
119.8679894716
 20
77.8501651494
 10
119.8542245553
 20
77.856581109
 10
119.8403940127
 20
77.8636458962
 10
119.8265146901
 20
77.8713532598
 10
119.8126047688
 20
77.8796949432
 10
119.7986877709
 20
77.8886546691
 10
119.7847885536
 20
77.8982141548
 10
119.7709319741
 20
77.9083551176
 10
119.7571428896
 20
77.9190592747
 10
119.7434461573
 20
77.9303083436
 10
119.7298666344
 20
77.9420840414
 10
119.7164291782
 20
77.9543680856
 10
119.7031573501
 20
77.9671418317
 10
119.6900695278
 20
77.9803851886
 10
119.6771827933
 20
77.9940777037
 10
119.6645142288
 20
78.0081989241
 10
119.6520809162
 20
78.0227283971
 10
119.6398999375
 20
78.0376456699
 10
119.6279883746
 20
78.0529302898
 10
119.6163633097
 20
78.068561804
 10
119.6050421062
 20
78.0845185496
 10
119.5940432531
 20
78.1007740229
 10
119.583385521
 20
78.1173005098
 10
119.5730876805
 20
78.1340702964
 10
119.5631676281
 20
78.1510560917
 10
119.5536397637
 20
78.1682322956
 10
119.5445176131
 20
78.1855737308
 10
119.5358147022
 20
78.2030552201
 10
119.5275444508
 20
78.2206511837
 10
119.5197198539
 20
78.2383344314
 10
119.5123538007
 20
78.2560773704
 10
119.5054591801
 20
78.2738524079
 10
119.4990487481
 20
78.291628756
 10
119.4931347286
 20
78.3093628456
 10
119.4877292123
 20
78.3270079123
 10
119.48284429
 20
78.344517192
 10
119.4784893329
 20
78.3618504883
 10
119.4746628332
 20
78.3789938773
 10
119.4713605635
 20
78.3959400034
 10
119.4685782965
 20
78.4126815105
 10
119.4663138269
 20
78.4292197772
 10
119.4645730381
 20
78.4455911185
 10
119.4633638355
 20
78.4618405836
 10
119.4626941246
 20
78.4780132218
  0
LWPOLYLINE
  5
2FA
100
AcDbEntity
  8
ASSI
100
AcDbPolyline
 62
250
  6
CONTINUOUS
 90
22
 70
0
 10
117.7040109746
 20
108.2856785745
 10
117.6476868997
 20
106.5992261746
 10
117.5974561706
 20
104.9296248293
 10
117.5531789941
 20
103.2768261527
 10
117.514815369
 20
101.6453445329
 10
117.4820982636
 20
100.03054983
 10
117.4546862886
 20
98.4187513059
 10
117.432525554
 20
96.8052992323
 10
117.4157029576
 20
95.1949106872
 10
117.4042214273
 20
93.5880182551
 10
117.3980886005
 20
91.9892159733
 10
117.3972586774
 20
90.3939369925
 10
117.4017852721
 20
88.7889480279
 10
117.4118390718
 20
87.1697108551
 10
117.4275470512
 20
85.540988088
 10
117.4490266126
 20
83.9035740368
 10
117.476442407
 20
82.2555466516
 10
117.5099014456
 20
80.5990449464
 10
117.5493558364
 20
78.9409090787
 10
117.5947952515
 20
77.2834418491
 10
117.6463279151
 20
75.6244576597
 10
117.7040109746
 20
73.9640208988
  0
LWPOLYLINE
  5
2FB
100
AcDbEntity
  8
ASSI
100
AcDbPolyline
 62
7
  6
CONTINUOUS
 90
16
 70
0
 10
118.1110708525
 20
109.4771686423
 10
118.0757487618
 20
109.4528025038
 10
118.0111271353
 20
109.4023414415
 10
117.9502042083
 20
109.3471214494
 10
117.8927791981
 20
109.2873323751
 10
117.838959673
 20
109.2233208377
 10
117.7891920613
 20
109.1558361635
 10
117.7435363941
 20
109.0851430472
 10
117.7021139884
 20
109.0114649131
 10
117.665422461
 20
108.9356885456
 10
117.6335885518
 20
108.8580349779
 10
117.6068070768
 20
108.7786972762
 10
117.5854878649
 20
108.698458679
 10
117.5698692101
 20
108.6175994746
 10
117.560213147
 20
108.5360455324
 10
117.5575512401
 20
108.4897718022
  0
LINE
  5
2FC
100
AcDbEntity
  8
ASSI
100
AcDbLine
 62
7
  6
CONTINUOUS
 10
129.605638276
 20
72.0531646581
 11
129.5795963286
 21
72.0567101144
  0
LWPOLYLINE
  5
2FD
100
AcDbEntity
  8
ASSI
100
AcDbPolyline
 62
250
  6
CONTINUOUS
 90
12
 70
0
 10
128.067165842
 20
73.911866949
 10
128.0568258381
 20
73.9145928965
 10
127.9612285569
 20
73.9382012761
 10
127.8646731903
 20
73.9604690527
 10
127.7672118825
 20
73.9813842009
 10
127.668897267
 20
74.0009354255
 10
127.5697824382
 20
74.0191121678
 10
127.4699209226
 20
74.0359046118
 10
127.3693666499
 20
74.0513036887
 10
127.2681739239
 20
74.0653010822
 10
127.1663973935
 20
74.0778892332
 10
127.0640920223
 20
74.0890613435
  0
LWPOLYLINE
  5
2FE
100
AcDbEntity
  8
ASSI
100
AcDbPolyline
 62
250
  6
CONTINUOUS
 90
13
 70
0
 10
123.6693920637
 20
76.5111023267
 10
123.6610247036
 20
76.5136239862
 10
123.5579691552
 20
76.5426925937
 10
123.4536214198
 20
76.5701628352
 10
123.3480500464
 20
76.5960166648
 10
123.2413243875
 20
76.6202370983
 10
123.1335145541
 20
76.6428082247
 10
123.0246913694
 20
76.6637152165
 10
122.9149263223
 20
76.6829443392
 10
122.8042915203
 20
76.7004829608
 10
122.6928596423
 20
76.7163195596
 10
122.5807038911
 20
76.7304437323
 10
122.4678979446
 20
76.7428462001
  0
LINE
  5
2FF
100
AcDbEntity
  8
RACCORDO
100
AcDbLine
 62
250
  6
CONTINUOUS
 10
124.4369332423
 20
76.8477184666
 11
124.3163884489
 21
76.896355407
  0
LWPOLYLINE
  5
300
100
AcDbEntity
  8
ASSI
100
AcDbPolyline
 62
7
  6
CONTINUOUS
 90
43
 70
0
 10
129.1924186572
 20
74.3982395236
 10
129.2284831028
 20
74.3766578233
 10
129.2645321776
 20
74.3535803479
 10
129.3005162481
 20
74.3290389956
 10
129.3363950782
 20
74.3030622226
 10
129.3721100224
 20
74.2756908199
 10
129.4075846062
 20
74.2469810509
 10
129.4427565353
 20
74.2169866389
 10
129.4775929172
 20
74.1857415313
 10
129.5120622482
 20
74.1532759432
 10
129.5460963318
 20
74.1196570278
 10
129.5796714555
 20
74.0849118995
 10
129.6128197628
 20
74.0490033533
 10
129.6455398126
 20
74.0119218351
 10
129.6777343289
 20
73.9737617447
 10
129.7092921329
 20
73.9346425739
 10
129.7401656182
 20
73.8946207656
 10
129.7703160794
 20
73.8537496702
 10
129.7996546119
 20
73.8121558566
 10
129.8281149392
 20
73.7699501568
 10
129.8556939602
 20
73.7271466349
 10
129.8823989736
 20
73.6837281932
 10
129.9082011404
 20
73.6397377412
 10
129.9330562936
 20
73.5952524234
 10
129.9569440109
 20
73.5503035169
 10
129.9798421354
 20
73.504927716
 10
130.0017028548
 20
73.4592119696
 10
130.0224705179
 20
73.4132641655
 10
130.0421250652
 20
73.3671321479
 10
130.0606320341
 20
73.3208971523
 10
130.0779272773
 20
73.2747188474
 10
130.0939713932
 20
73.228730848
 10
130.1087792817
 20
73.1829276466
 10
130.1223696522
 20
73.1372602635
 10
130.1347284597
 20
73.0917806771
 10
130.1458339743
 20
73.046563411
 10
130.1556807623
 20
73.0015952712
 10
130.1642624406
 20
72.9568590374
 10
130.1715429365
 20
72.9125030136
 10
130.1774838132
 20
72.8687583275
 10
130.1820802878
 20
72.825737557
 10
130.185344215
 20
72.7834409553
 10
130.1872802361
 20
72.7419232402
  0
LWPOLYLINE
  5
301
100
AcDbEntity
  8
ASSI
100
AcDbPolyline
 62
250
  6
CONTINUOUS
 90
13
 70
0
 10
130.1872802361
 20
72.7419232402
 10
130.2340541797
 20
72.6871659831
 10
130.2786426091
 20
72.6317437388
 10
130.3210214445
 20
72.5756864379
 10
130.3611677994
 20
72.5190243539
 10
130.399059993
 20
72.4617880867
 10
130.4346775618
 20
72.4040085466
 10
130.4680012706
 20
72.3457169372
 10
130.4990131233
 20
72.2869447386
 10
130.5276963719
 20
72.2277236903
 10
130.5540355262
 20
72.1680857746
 10
130.5780163619
 20
72.1080631984
 10
130.5996259283
 20
72.0476883769
  0
LWPOLYLINE
  5
302
100
AcDbEntity
  8
RACCORDO
100
AcDbPolyline
 62
250
  6
CONTINUOUS
 90
17
 70
0
 10
123.68222571
 20
76.3444021234
 10
123.6913188206
 20
76.1989217447
 10
123.718405818
 20
76.0461398253
 10
123.7628976997
 20
75.8894604001
 10
123.8238245413
 20
75.7323597704
 10
123.8998341431
 20
75.5783689491
 10
123.9892033862
 20
75.4309890136
 10
124.0899141272
 20
75.2935335387
 10
124.1997271969
 20
75.1690457382
 10
124.31620075
 20
75.0602914508
 10
124.4367387729
 20
74.9696975524
 10
124.5586433943
 20
74.899294523
 10
124.6791881877
 20
74.8506575825
 10
124.7956789695
 20
74.8248733962
 10
124.9055142076
 20
74.8225174033
 10
125.006240238
 20
74.843642193
 10
125.0956067228
 20
74.8877758684
  0
LWPOLYLINE
  5
303
100
AcDbEntity
  8
RACCORDO
100
AcDbPolyline
 62
7
  6
CONTINUOUS
 90
19
 70
0
 10
123.6606201128
 20
76.380248153
 10
123.6684369506
 20
76.2407767482
 10
123.6915174701
 20
76.0964698497
 10
123.7291770841
 20
75.9496702123
 10
123.7805582439
 20
75.8027370615
 10
123.8446972712
 20
75.6578923764
 10
123.9205387485
 20
75.5172873698
 10
124.0068243001
 20
75.3831832321
 10
124.1021799602
 20
75.2577275248
 10
124.205263062
 20
75.1428119575
 10
124.3148923006
 20
75.0400734208
 10
124.4291423606
 20
74.9516998972
 10
124.5456036553
 20
74.8797504312
 10
124.663143507
 20
74.8251533617
 10
124.7797358621
 20
74.789197844
 10
124.8918282416
 20
74.7728565846
 10
124.9973310782
 20
74.7757309036
 10
125.095403785
 20
74.797097384
 10
125.1845180395
 20
74.8360640935
  0
LWPOLYLINE
  5
304
100
AcDbEntity
  8
ASSI
100
AcDbPolyline
 62
7
  6
CONTINUOUS
 90
58
 70
0
 10
122.4678979447
 20
76.7428462006
 10
122.4672324672
 20
76.8065896089
 10
122.4683610437
 20
76.8690799245
 10
122.4712835775
 20
76.9303170869
 10
122.4760087308
 20
76.9903551369
 10
122.4825276651
 20
77.049139923
 10
122.4908139582
 20
77.1065090515
 10
122.5008730757
 20
77.1624624831
 10
122.5126992149
 20
77.2170000488
 10
122.5262489007
 20
77.2699590693
 10
122.5415249078
 20
77.3213296623
 10
122.5585239771
 20
77.3711214127
 10
122.5771934437
 20
77.4192007575
 10
122.5975381019
 20
77.4655658634
 10
122.619552563
 20
77.5102182
 10
122.6431687636
 20
77.5530290838
 10
122.6683933616
 20
77.5939955822
 10
122.6952190045
 20
77.6331202038
 10
122.7235564951
 20
77.6702823552
 10
122.7534011186
 20
77.7054680618
 10
122.7847568069
 20
77.7386908212
 10
122.8175472406
 20
77.7698711927
 10
122.8517858204
 20
77.7990132257
 10
122.8874583388
 20
77.82611238
 10
122.9244469858
 20
77.8510762823
 10
122.9627438087
 20
77.8738923053
 10
123.0023559134
 20
77.8945725621
 10
123.0431880142
 20
77.9130617514
 10
123.0852507104
 20
77.9293588048
 10
123.1285325794
 20
77.9434642913
 10
123.1729052603
 20
77.9553253397
 10
123.2183756875
 20
77.9649343153
 10
123.2649361328
 20
77.9722983719
 10
123.3124362081
 20
77.9773868006
 10
123.3608771533
 20
77.9801905615
 10
123.4102569936
 20
77.9807182498
 10
123.4604205038
 20
77.9789656007
 10
123.5113775786
 20
77.9749220367
 10
123.5631176805
 20
77.9685977464
 10
123.6154549385
 20
77.9600196163
 10
123.6683843913
 20
77.9491790244
 10
123.721910472
 20
77.9360842734
 10
123.7758614202
 20
77.920787648
 10
123.8302277416
 20
77.9032866715
 10
123.8850185417
 20
77.8835835857
 10
123.9400899902
 20
77.8617377715
 10
123.9954546693
 20
77.837738472
 10
124.05109976
 20
77.811596301
 10
124.1068433673
 20
77.7834027188
 10
124.1626653921
 20
77.7531644477
 10
124.2185858538
 20
77.7208747172
 10
124.2744830752
 20
77.6866047716
 10
124.3303768996
 20
77.6503384653
 10
124.3862475635
 20
77.612091992
 10
124.4419140184
 20
77.571985128
 10
124.4973632515
 20
77.530022512
 10
124.5526085122
 20
77.4861996483
 10
124.6075081813
 20
77.4406226338
  0
LWPOLYLINE
  5
305
100
AcDbEntity
  8
ASSI
100
AcDbPolyline
 62
250
  6
CONTINUOUS
 90
37
 70
0
 10
118.3676427519
 20
109.4566281106
 10
118.3389740106
 20
109.4373451117
 10
118.3104142952
 20
109.4167599507
 10
118.2820120624
 20
109.3949070004
 10
118.2538159133
 20
109.3718225401
 10
118.2258732765
 20
109.3475453779
 10
118.1982303293
 20
109.3221167827
 10
118.1709338981
 20
109.2955792051
 10
118.1440303778
 20
109.2679771075
 10
118.1175644085
 20
109.2393575977
 10
118.0915809906
 20
109.2097687738
 10
118.0661240917
 20
109.1792600314
 10
118.0412355778
 20
109.147882875
 10
118.0169575885
 20
109.1156897796
 10
117.9933314145
 20
109.0827347501
 10
117.9703961093
 20
109.0490736306
 10
117.9481905085
 20
109.0147627776
 10
117.926752377
 20
108.9798597601
 10
117.9061172897
 20
108.9444239016
 10
117.8863202536
 20
108.9085147419
 10
117.8673948292
 20
108.8721924063
 10
117.8493722726
 20
108.8355183108
 10
117.8322831552
 20
108.7985541207
 10
117.8161564394
 20
108.7613617268
 10
117.8010186204
 20
108.7240036181
 10
117.7868951346
 20
108.6865419388
 10
117.7738102442
 20
108.6490401216
 10
117.7617860133
 20
108.6115628578
 10
117.7508427685
 20
108.5741733896
 10
117.7409989088
 20
108.5369341619
 10
117.7322706919
 20
108.499908442
 10
117.7246727664
 20
108.463158712
 10
117.7182178309
 20
108.4267463034
 10
117.7129163355
 20
108.3907320605
 10
117.708777039
 20
108.3551763438
 10
117.705806949
 20
108.3201389145
 10
117.7040109746
 20
108.2856785745
  0
LINE
  5
306
100
AcDbEntity
  8
ASSI
100
AcDbLine
 62
7
  6
CONTINUOUS
 10
123.7449381802
 20
113.1926513768
 11
118.1108733292
 21
109.4770385941
  0
LINE
  5
307
100
AcDbEntity
  8
ASSI
100
AcDbLine
 62
250
  6
CONTINUOUS
 10
124.0030522466
 20
113.1731276732
 11
118.3676427519
 21
109.4566281106
  0
LWPOLYLINE
  5
308
100
AcDbEntity
  8
ASSI
100
AcDbPolyline
 62
7
  6
CONTINUOUS
 90
11
 70
0
 10
128.8405584858
 20
74.5263805444
 10
128.8740560927
 20
74.5211083492
 10
128.908155971
 20
74.5141115967
 10
128.942760364
 20
74.5053953564
 10
128.9777473923
 20
74.4949852278
 10
129.0130555727
 20
74.4828992918
 10
129.0486477281
 20
74.4691511812
 10
129.0844345445
 20
74.453780543
 10
129.1203522713
 20
74.4368218674
 10
129.1563636846
 20
74.4182978484
 10
129.1924186572
 20
74.3982395236
  0
LWPOLYLINE
  5
309
100
AcDbEntity
  8
RACCORDO
100
AcDbPolyline
 62
250
  6
CONTINUOUS
 90
9
 70
0
 10
124.3163884489
 20
76.896355407
 10
124.1998976671
 20
76.9221395933
 10
124.0900624291
 20
76.9244955863
 10
123.9893363986
 20
76.9033707965
 10
123.8999699139
 20
76.8592371212
 10
123.8239596558
 20
76.7930805592
 10
123.7630038381
 20
76.7063791339
 10
123.7184643353
 20
76.6010698788
 10
123.6913362562
 20
76.4795055622
  0
LWPOLYLINE
  5
30A
100
AcDbEntity
  8
ASSI
100
AcDbPolyline
 62
7
  6
CONTINUOUS
 90
10
 70
0
 10
125.9177818812
 20
75.311842652
 10
125.9342140549
 20
75.2415981255
 10
125.9489690091
 20
75.1717384799
 10
125.9619956197
 20
75.1024719223
 10
125.973289291
 20
75.0338040345
 10
125.9828549634
 20
74.9657294475
 10
125.9906556731
 20
74.8984398551
 10
125.996679136
 20
74.8319991788
 10
126.0009378271
 20
74.7663436165
 10
126.0034318505
 20
74.7014732334
  0
LWPOLYLINE
  5
30B
100
AcDbEntity
  8
RACCORDO
100
AcDbPolyline
 62
250
  6
CONTINUOUS
 90
16
 70
0
 10
125.4455250038
 20
75.4066926248
 10
125.4357175028
 20
75.5634709209
 10
125.4065139875
 20
75.7280730017
 10
125.3585666675
 20
75.8968220721
 10
125.2929464568
 20
76.0659486603
 10
125.2111190595
 20
76.2316748175
 10
125.1149122351
 20
76.3902985096
 10
125.0064749277
 20
76.5382763763
 10
124.8882293988
 20
76.6723027007
 10
124.7628171585
 20
76.7893833176
 10
124.6330397379
 20
76.8869027492
 10
124.5017961149
 20
76.9626825378
 10
124.3720181126
 20
77.0150297946
 10
124.2466047846
 20
77.0427751066
 10
124.1283576961
 20
77.0452986283
 10
124.0199183719
 20
77.0225439437
  0
LWPOLYLINE
  5
30C
100
AcDbEntity
  8
RACCORDO
100
AcDbPolyline
 62
250
  6
CONTINUOUS
 90
12
 70
0
 10
125.3133509267
 20
75.4026108661
 10
125.304257816
 20
75.5480912448
 10
125.2771708186
 20
75.7008731643
 10
125.232678937
 20
75.8575525894
 10
125.1717520953
 20
76.0146532191
 10
125.0957424935
 20
76.1686440405
 10
125.0063732504
 20
76.3160239759
 10
124.9056625095
 20
76.4534794509
 10
124.7958494397
 20
76.5779672513
 10
124.6793758867
 20
76.6867215388
 10
124.5588378637
 20
76.7773154371
 10
124.4369332423
 20
76.8477184666
  0
LWPOLYLINE
  5
30D
100
AcDbEntity
  8
ASSI
100
AcDbPolyline
 62
7
  6
CONTINUOUS
 90
61
 70
0
 10
125.5303374614
 20
75.4623761506
 10
125.5285049609
 20
75.5003432749
 10
125.5254603823
 20
75.5389522637
 10
125.5212059374
 20
75.5781497982
 10
125.5157438114
 20
75.6178890069
 10
125.509080803
 20
75.6581077439
 10
125.5012306076
 20
75.698727823
 10
125.4922059679
 20
75.7396786682
 10
125.48201831
 20
75.7809163835
 10
125.4706825318
 20
75.8224017807
 10
125.4582129387
 20
75.8640822826
 10
125.4446253695
 20
75.9058949663
 10
125.4299378933
 20
75.9477850425
 10
125.4141663893
 20
75.9896991092
 10
125.3973339701
 20
76.0315740916
 10
125.3794726486
 20
76.0733407156
 10
125.3606127807
 20
76.1149292257
 10
125.3407745969
 20
76.1562939562
 10
125.3199763873
 20
76.1974018874
 10
125.2982362731
 20
76.2382126975
 10
125.275590298
 20
76.2786520406
 10
125.2520859051
 20
76.3186368507
 10
125.2277628084
 20
76.3580982439
 10
125.2026479428
 20
76.3969963141
 10
125.1767723149
 20
76.4352929861
 10
125.1501728277
 20
76.4729361564
 10
125.1228834458
 20
76.5098729517
 10
125.094930807
 20
76.5460642004
 10
125.066343486
 20
76.5814665301
 10
125.0371679842
 20
76.6160222747
 10
125.0074592087
 20
76.6496726379
 10
124.9772608769
 20
76.6823700608
 10
124.9466110463
 20
76.7140707803
 10
124.9155581277
 20
76.7447253585
 10
124.8841506723
 20
76.7742868368
 10
124.8524260484
 20
76.8027212049
 10
124.8204165178
 20
76.8300001633
 10
124.7881620173
 20
76.8560874719
 10
124.7557101921
 20
76.8809449342
 10
124.7231050246
 20
76.9045421254
 10
124.6903893566
 20
76.9268494723
 10
124.6576097274
 20
76.9478314676
 10
124.6248160068
 20
76.9674520389
 10
124.5920534063
 20
76.9856820405
 10
124.5593669012
 20
77.002499171
 10
124.5268060266
 20
77.0178817131
 10
124.4944178426
 20
77.0318101146
 10
124.4622447701
 20
77.0442646322
 10
124.4303290428
 20
77.0552266326
 10
124.3987182165
 20
77.0646800332
 10
124.3674522489
 20
77.072614729
 10
124.3365617506
 20
77.0790225214
 10
124.3060843308
 20
77.0838942758
 10
124.2760682639
 20
77.0872210028
 10
124.246559629
 20
77.0889967852
 10
124.2175975937
 20
77.0892196029
 10
124.1892249721
 20
77.0878877878
 10
124.1614911826
 20
77.0850022742
 10
124.1344412842
 20
77.0805699375
 10
124.1081048492
 20
77.0745993149
 10
124.0825066945
 20
77.0670972619
  0
LINE
  5
30E
100
AcDbEntity
  8
ASSI
100
AcDbLine
 62
7
  6
CONTINUOUS
 10
125.530691768
 20
75.449205518
 11
125.5303374614
 21
75.4623761506
  0
LWPOLYLINE
  5
30F
100
AcDbEntity
  8
ASSI
100
AcDbPolyline
 62
7
  6
CONTINUOUS
 90
100
 70
0
 10
126.0034318505
 20
74.7014732334
 10
126.0041050348
 20
74.6377147216
 10
126.0030026585
 20
74.5752280634
 10
126.000124621
 20
74.5140131992
 10
125.9954615688
 20
74.454017215
 10
125.989022672
 20
74.3952929161
 10
125.9808355423
 20
74.3379987774
 10
125.9708954515
 20
74.2821364472
 10
125.9592067855
 20
74.2277040713
 10
125.9458106823
 20
74.1748547815
 10
125.9307026824
 20
74.1235932133
 10
125.9138867661
 20
74.0739144411
 10
125.8954165933
 20
74.0259571715
 10
125.8752904021
 20
73.979729208
 10
125.8535093561
 20
73.9352223836
 10
125.8301313836
 20
73.8925513758
 10
125.8051478385
 20
73.8517130587
 10
125.7785666858
 20
73.8127101436
 10
125.7504706583
 20
73.7756659945
 10
125.7208620488
 20
73.7405925553
 10
125.6897377923
 20
73.7074774109
 10
125.6571724882
 20
73.6764073278
 10
125.6231561997
 20
73.6473805178
 10
125.587698059
 20
73.6203982773
 10
125.5509011904
 20
73.5955519522
 10
125.5127527138
 20
73.5728462815
 10
125.4732646731
 20
73.5522760143
 10
125.4325775026
 20
73.5339174638
 10
125.3906897876
 20
73.5177826047
 10
125.3476020953
 20
73.5038589428
 10
125.3034577774
 20
73.4921860547
 10
125.2582553575
 20
73.482772647
 10
125.2119955021
 20
73.4756095161
 10
125.1648247506
 20
73.4707093562
 10
125.1167406588
 20
73.4680792633
 10
125.0677449326
 20
73.4677116879
 10
125.0179903292
 20
73.469597351
 10
124.9674900934
 20
73.4737384397
 10
124.9162303397
 20
73.480132373
 10
124.8643231404
 20
73.4887627262
 10
124.8117525445
 20
73.4996351985
 10
124.7585339863
 20
73.5127437729
 10
124.7048266369
 20
73.528054463
 10
124.6506363498
 20
73.5455699179
 10
124.595956886
 20
73.5652872513
 10
124.5409293044
 20
73.5871641896
 10
124.4855414415
 20
73.6112109004
 10
124.429805223
 20
73.6374170698
 10
124.3738978765
 20
73.6657097237
 10
124.3178067473
 20
73.6961054026
 10
124.2615444092
 20
73.7285875162
 10
124.2053259717
 20
73.763033418
 10
124.1491607656
 20
73.7994477674
 10
124.0930395412
 20
73.837825955
 10
124.0371495756
 20
73.8780314545
 10
123.9815032166
 20
73.9200615551
 10
123.9260883547
 20
73.9639191144
 10
123.871055616
 20
74.0094759802
 10
123.8164004501
 20
74.0567414694
 10
123.7621277932
 20
74.1057065024
 10
123.7084025289
 20
74.1562153496
 10
123.6552416575
 20
74.2082551247
 10
123.6026286949
 20
74.2618390315
 10
123.5506783178
 20
74.316850487
 10
123.4993782894
 20
74.3733058952
 10
123.4487414855
 20
74.4311892449
 10
123.398920262
 20
74.4903353366
 10
123.3499164127
 20
74.5507489638
 10
123.3017288804
 20
74.6124257854
 10
123.254505738
 20
74.6751868963
 10
123.2082471682
 20
74.7390407727
 10
123.1629537983
 20
74.8039794353
 10
123.1187743434
 20
74.8697992802
 10
123.0757074735
 20
74.9365150797
 10
123.0337553696
 20
75.004112583
 10
122.9930719584
 20
75.072344618
 10
122.9536698515
 20
75.1412035955
 10
122.9155372771
 20
75.2106976189
 10
122.8787915086
 20
75.2806030065
 10
122.8434438412
 20
75.350906511
 10
122.8094837847
 20
75.4216218717
 10
122.7769958517
 20
75.4925658367
 10
122.7459782322
 20
75.563751934
 10
122.7164335052
 20
75.6351671048
 10
122.6884526688
 20
75.7065881567
 10
122.662044382
 20
75.7780036098
 10
122.6372006639
 20
75.849425357
 10
122.6139874406
 20
75.9206651966
 10
122.5924066867
 20
75.9917274399
 10
122.5724570203
 20
76.0626081358
 10
122.554199214
 20
76.1331066153
 10
122.5376372928
 20
76.2032213781
 10
122.5227677087
 20
76.2729542133
 10
122.5096397413
 20
76.3421093049
 10
122.4982571069
 20
76.4106834399
 10
122.4886164376
 20
76.478680041
 10
122.4807562518
 20
76.5459131629
 10
122.47468943
 20
76.6123208478
 10
122.4704032915
 20
76.6779651722
 10
122.4678979447
 20
76.7428462006
  0
LINE
  5
310
100
AcDbEntity
  8
RACCORDO
100
AcDbLine
 62
250
  6
CONTINUOUS
 10
123.6913362562
 20
76.4795055622
 11
123.68222571
 21
76.3444021234
  0
LINE
  5
311
100
AcDbEntity
  8
RACCORDO
100
AcDbLine
 62
7
  6
CONTINUOUS
 10
129.0467922619
 20
109.0637387818
 11
128.2556335992
 21
108.1068635813
  0
LINE
  5
312
100
AcDbEntity
  8
RACCORDO
100
AcDbLine
 62
7
  6
CONTINUOUS
 10
129.6174570693
 20
109.6523782321
 11
129.0467922619
 21
109.0637387818
  0
LINE
  5
313
100
AcDbEntity
  8
ASSI
100
AcDbLine
 62
7
  6
CONTINUOUS
 10
129.6181810802
 20
110.7903612395
 11
127.118179649
 21
109.1928264518
  0
LINE
  5
314
100
AcDbEntity
  8
0
100
AcDbLine
 62
7
  6
CONTINUOUS
 10
153.6787046866
 20
125.5136405653
 11
153.4419762128
 21
125.3745278782
  0
LINE
  5
315
100
AcDbEntity
  8
DRAFT
100
AcDbLine
 62
7
  6
CONTINUOUS
 10
153.7100078116
 20
125.2197697924
 11
152.8762907879
 21
124.7298388027
  0
LINE
  5
316
100
AcDbEntity
  8
0
100
AcDbLine
 62
7
  6
CONTINUOUS
 10
153.1481786915
 20
124.5728541347
 11
153.6664489621
 21
124.8616512996
  0
LINE
  5
317
100
AcDbEntity
  8
ASSI
100
AcDbLine
 62
7
  6
CONTINUOUS
 10
129.6054665147
 20
111.638778839
 11
130.7084931977
 21
112.2530402287
  0
LINE
  5
318
100
AcDbEntity
  8
ASSI
100
AcDbLine
 62
7
  6
CONTINUOUS
 10
128.5575343211
 20
111.5580320341
 11
130.6825673418
 21
112.73096934
  0
LINE
  5
319
100
AcDbEntity
  8
ASSI
100
AcDbLine
 62
7
  6
CONTINUOUS
 10
129.4228480693
 20
111.7442204406
 11
131.5551230685
 21
112.9199645147
  0
LINE
  5
31A
100
AcDbEntity
  8
RACCORDO
100
AcDbLine
 62
7
  6
CONTINUOUS
 10
127.3737102399
 20
111.2269519921
 11
153.1548467101
 21
125.3925544595
  0
LINE
  5
31B
100
AcDbEntity
  8
ASSI
100
AcDbLine
 62
7
  6
CONTINUOUS
 10
127.3798186284
 20
111.2234250852
 11
132.560450124
 21
114.0664314632
  0
LINE
  5
31C
100
AcDbEntity
  8
ASSI
100
AcDbLine
 62
7
  6
CONTINUOUS
 10
129.44707139
 20
112.3162516639
 11
132.6018506977
 21
114.042487062
  0
LINE
  5
31D
100
AcDbEntity
  8
ASSI
100
AcDbLine
 62
7
  6
CONTINUOUS
 10
129.0909677724
 20
111.6819893967
 11
131.2515268315
 21
112.8631821166
  0
LWPOLYLINE
  5
31E
100
AcDbEntity
  8
ASSI
100
AcDbPolyline
 62
7
  6
CONTINUOUS
 90
29
 70
0
 10
128.9841320738
 20
111.382811654
 10
128.9777149979
 20
111.3794597595
 10
128.9652018584
 20
111.3738619807
 10
128.9521620916
 20
111.3692079723
 10
128.938682787
 20
111.3655314216
 10
128.9247602888
 20
111.362840446
 10
128.9103982528
 20
111.3611269281
 10
128.8956947355
 20
111.3604002025
 10
128.8806573328
 20
111.3606649575
 10
128.8652784487
 20
111.3619165049
 10
128.849633352
 20
111.3641501149
 10
128.8337030532
 20
111.367376002
 10
128.8175065419
 20
111.3715839518
 10
128.8011760555
 20
111.376738591
 10
128.7847332874
 20
111.3828375693
 10
128.7681565442
 20
111.3898832372
 10
128.7515129837
 20
111.3978472721
 10
128.7347778539
 20
111.4067476629
 10
128.7179759068
 20
111.4165664208
 10
128.7012485557
 20
111.4272212569
 10
128.6846188025
 20
111.4387029762
 10
128.6680636453
 20
111.4510207736
 10
128.6516554918
 20
111.4641199452
 10
128.6353778908
 20
111.4780186408
 10
128.6192472935
 20
111.4926987104
 10
128.6033854616
 20
111.508051
 10
128.5878329826
 20
111.5240391248
 10
128.5725492691
 20
111.5406994695
 10
128.5575343211
 20
111.5580320341
  0
LWPOLYLINE
  5
31F
100
AcDbEntity
  8
0
100
AcDbPolyline
 62
7
  6
CONTINUOUS
 90
10
 70
0
 10
153.1548467101
 20
125.3925544595
 10
153.1983433956
 20
125.4147653155
 10
153.2454877346
 20
125.4348927082
 10
153.2962797273
 20
125.4529366377
 10
153.3506796596
 20
125.469038101
 10
153.4087272455
 20
125.483056101
 10
153.4705416269
 20
125.4945676466
 10
153.5361625179
 20
125.5034317406
 10
153.6055502045
 20
125.5097893802
 10
153.6787046866
 20
125.5136405653
  0
LWPOLYLINE
  5
320
100
AcDbEntity
  8
0
100
AcDbPolyline
 62
7
  6
CONTINUOUS
 90
3
 70
0
 10
153.7361868296
 20
124.8963993252
 10
153.701710491
 20
124.8801240621
 10
153.6664489621
 20
124.8616512996
  0
LWPOLYLINE
  5
321
100
AcDbEntity
  8
ASSI
100
AcDbPolyline
 62
7
  6
CONTINUOUS
 90
10
 70
0
 10
129.44707139
 20
112.3162516639
 10
129.5804671287
 20
112.3701636893
 10
129.7148413554
 20
112.4221203595
 10
129.8501940699
 20
112.4721216746
 10
129.9865360597
 20
112.5201712555
 10
130.1238565374
 20
112.5662654813
 10
130.2621231407
 20
112.610393489
 10
130.4013250822
 20
112.6525516575
 10
130.5414731492
 20
112.6927436078
 10
130.6825673418
 20
112.73096934
  0
LINE
  5
322
100
AcDbEntity
  8
ASSI
100
AcDbLine
 62
250
  6
CONTINUOUS
 10
127.1313869925
 20
108.7559894819
 11
127.118179649
 21
109.1928264518
  0
LWPOLYLINE
  5
323
100
AcDbEntity
  8
ASSI
100
AcDbPolyline
 62
7
  6
CONTINUOUS
 90
100
 70
0
 10
127.0640920224
 20
74.089061344
 10
127.0634265449
 20
74.1528047522
 10
127.0645551214
 20
74.2152950679
 10
127.0674776552
 20
74.2765322303
 10
127.0722028085
 20
74.3365702802
 10
127.0787217429
 20
74.3953550664
 10
127.087008036
 20
74.4527241949
 10
127.0970671534
 20
74.5086776264
 10
127.1088932926
 20
74.5632151921
 10
127.1224429784
 20
74.6161742127
 10
127.1377189855
 20
74.6675448057
 10
127.1547180548
 20
74.7173365561
 10
127.1733875214
 20
74.7654159009
 10
127.1937321796
 20
74.8117810067
 10
127.2157466407
 20
74.8564333433
 10
127.2393628413
 20
74.8992442272
 10
127.2645874393
 20
74.9402107255
 10
127.2914130822
 20
74.9793353472
 10
127.3197505729
 20
75.0164974986
 10
127.3495951963
 20
75.0516832051
 10
127.3809508846
 20
75.0849059646
 10
127.4137413183
 20
75.116086336
 10
127.4479798981
 20
75.1452283691
 10
127.4836524165
 20
75.1723275234
 10
127.5206410636
 20
75.1972914257
 10
127.5589378864
 20
75.2201074487
 10
127.5985499911
 20
75.2407877055
 10
127.6393820919
 20
75.2592768947
 10
127.6814447881
 20
75.2755739481
 10
127.7247266571
 20
75.2896794347
 10
127.769099338
 20
75.3015404831
 10
127.8145697652
 20
75.3111494587
 10
127.8611302105
 20
75.3185135152
 10
127.9086302858
 20
75.323601944
 10
127.957071231
 20
75.3264057049
 10
128.0064510713
 20
75.3269333932
 10
128.0566145815
 20
75.3251807441
 10
128.1075716564
 20
75.3211371801
 10
128.1593117582
 20
75.3148128898
 10
128.2116490162
 20
75.3062347597
 10
128.264578469
 20
75.2953941678
 10
128.3181045497
 20
75.2822994168
 10
128.3720554979
 20
75.2670027913
 10
128.4264218194
 20
75.2495018149
 10
128.4812126194
 20
75.229798729
 10
128.5362840679
 20
75.2079529149
 10
128.591648747
 20
75.1839536153
 10
128.6472938377
 20
75.1578114444
 10
128.703037445
 20
75.1296178621
 10
128.7588594698
 20
75.0993795911
 10
128.8147799315
 20
75.0670898606
 10
128.8706771529
 20
75.032819915
 10
128.9265709774
 20
74.9965536087
 10
128.9824416412
 20
74.9583071354
 10
129.0381080961
 20
74.9182002714
 10
129.0935573292
 20
74.8762376554
 10
129.1488025899
 20
74.8324147916
 10
129.203702259
 20
74.7868377772
 10
129.2582647499
 20
74.7394953222
 10
129.312482037
 20
74.6903989508
 10
129.3661878751
 20
74.6396890004
 10
129.4193883959
 20
74.5873517582
 10
129.4720779952
 20
74.5334012559
 10
129.5240728428
 20
74.4780194582
 10
129.5753654774
 20
74.4212057678
 10
129.6259640043
 20
74.3629611716
 10
129.6757079484
 20
74.3034700141
 10
129.7245978653
 20
74.2427229831
 10
129.7726339371
 20
74.1807298373
 10
129.8196551132
 20
74.117703518
 10
129.8656539553
 20
74.0536450618
 10
129.9106386978
 20
73.9885539143
 10
129.954471764
 20
73.92264061
 10
129.9971412059
 20
73.8559183492
 10
130.038659795
 20
73.7883744309
 10
130.0789269885
 20
73.7201805099
 10
130.1179499242
 20
73.6513180988
 10
130.1557223087
 20
73.5818061977
 10
130.1921233882
 20
73.5118726545
 10
130.2271404085
 20
73.4415361412
 10
130.2607869301
 20
73.370778476
 10
130.2929815922
 20
73.2997721791
 10
130.3237291047
 20
73.2285000652
 10
130.3530255377
 20
73.1569797947
 10
130.3807764784
 20
73.0854361
 10
130.4069758288
 20
73.0138730692
 10
130.4316303804
 20
72.9422870374
 10
130.4546649353
 20
72.8708910357
 10
130.4760741146
 20
72.7996914997
 10
130.4958638883
 20
72.7286823556
 10
130.513975959
 20
72.6580577954
 10
130.5304081326
 20
72.5878132688
 10
130.5451630869
 20
72.5179536233
 10
130.5581896974
 20
72.4486870657
 10
130.5694833687
 20
72.3800191778
 10
130.5790490411
 20
72.3119445909
 10
130.5868497508
 20
72.2446549984
 10
130.5928732137
 20
72.1782143221
 10
130.5971319048
 20
72.1125587599
 10
130.5996259282
 20
72.0476883768
  0
LINE
  5
324
100
AcDbEntity
  8
RACCORDO
100
AcDbLine
 62
250
  6
CONTINUOUS
 10
128.712134113
 20
107.8432859059
 11
130.1133340985
 21
109.3660650502
  0
LINE
  5
325
100
AcDbEntity
  8
RACCORDO
100
AcDbLine
 62
250
  6
CONTINUOUS
 10
129.0199941341
 20
107.6655313882
 11
130.3601232764
 21
109.1219407014
  0
LWPOLYLINE
  5
326
100
AcDbEntity
  8
RACCORDO
100
AcDbPolyline
 62
250
  6
CONTINUOUS
 90
10
 70
0
 10
130.1133340985
 20
109.3660650502
 10
130.1413576374
 20
109.395798014
 10
130.169883013
 20
109.4244429876
 10
130.198859218
 20
109.45194712
 10
130.2282368743
 20
109.4782605721
 10
130.2579609814
 20
109.503333579
 10
130.287970838
 20
109.5271172433
 10
130.3182100677
 20
109.5495673792
 10
130.3486268909
 20
109.5706438862
 10
130.3791667568
 20
109.5903082833
  0
LWPOLYLINE
  5
327
100
AcDbEntity
  8
RACCORDO
100
AcDbPolyline
 62
250
  6
CONTINUOUS
 90
10
 70
0
 10
130.3601232764
 20
109.1219407014
 10
130.3812832426
 20
109.1443877076
 10
130.402745715
 20
109.1659421076
 10
130.4245106936
 20
109.1866039014
 10
130.4466198713
 20
109.2064082845
 10
130.4690315552
 20
109.2253200614
 10
130.4916206659
 20
109.243233646
 10
130.5143455101
 20
109.2601138428
 10
130.537247781
 20
109.2759958472
 10
130.5603274786
 20
109.2908796593
  0
LINE
  5
328
100
AcDbEntity
  8
ASSI
100
AcDbLine
 62
7
  6
CONTINUOUS
 10
134.6634141604
 20
112.852166156
 11
133.9400145931
 21
112.404257306
  0
LINE
  5
329
100
AcDbEntity
  8
ASSI
100
AcDbLine
 62
7
  6
CONTINUOUS
 10
133.289432949
 20
112.0014352845
 11
133.2202014965
 21
111.9585690987
  0
LINE
  5
32A
100
AcDbEntity
  8
RACCORDO
100
AcDbLine
 62
250
  6
CONTINUOUS
 10
130.3791667568
 20
109.5903082833
 11
130.6042571703
 21
109.7292007266
  0
LINE
  5
32B
100
AcDbEntity
  8
RACCORDO
100
AcDbLine
 62
250
  6
CONTINUOUS
 10
130.5603274786
 20
109.2908796593
 11
130.7792038758
 21
109.4259377328
  0
LINE
  5
32C
100
AcDbEntity
  8
ASSI
100
AcDbLine
 62
7
  6
CONTINUOUS
 10
134.7160873438
 20
112.8217594109
 11
134.027930601
 21
112.4100434044
  0
LINE
  5
32D
100
AcDbEntity
  8
ASSI
100
AcDbLine
 62
7
  6
CONTINUOUS
 10
133.289432949
 20
111.9682090297
 11
133.2472331241
 21
111.9429613757
  0
LINE
  5
32E
100
AcDbEntity
  8
DRAFT
100
AcDbLine
 62
7
  6
CONTINUOUS
 10
153.9075126111
 20
124.1344242462
 11
146.5476850963
 21
119.8849448488
  0
LINE
  5
32F
100
AcDbEntity
  8
RACCORDO
100
AcDbLine
 62
7
  6
CONTINUOUS
 10
130.125831044
 20
110.0054379759
 11
129.8930080817
 21
109.8710102093
  0
LINE
  5
330
100
AcDbEntity
  8
DRAFT
100
AcDbLine
 62
7
  6
CONTINUOUS
 10
153.9075126111
 20
122.9913658587
 11
147.5375380808
 21
119.3134161413
  0
LINE
  5
331
100
AcDbEntity
  8
RACCORDO
100
AcDbLine
 62
250
  6
CONTINUOUS
 10
130.7792038758
 20
108.6483621831
 11
129.0484945349
 21
107.649075614
  0
LINE
  5
332
100
AcDbEntity
  8
RACCORDO
100
AcDbLine
 62
7
  6
CONTINUOUS
 10
130.3216921289
 20
110.0960006378
 11
130.125831044
 21
110.0054379759
  0
LINE
  5
333
100
AcDbEntity
  8
ASSI
100
AcDbLine
 62
7
  6
CONTINUOUS
 10
133.7053273415
 20
112.3888116147
 11
133.289432949
 21
112.2206692312
  0
LWPOLYLINE
  5
334
100
AcDbEntity
  8
ASSI
100
AcDbPolyline
 62
7
  6
CONTINUOUS
 90
22
 70
0
 10
129.0909677724
 20
111.6819893967
 10
129.0929081372
 20
111.6616158131
 10
129.0940821213
 20
111.641669966
 10
129.0944897246
 20
111.6221518554
 10
129.0941265599
 20
111.6030084628
 10
129.0929970144
 20
111.5842928068
 10
129.0911142502
 20
111.5661639421
 10
129.0884790371
 20
111.5486578805
 10
129.0850906052
 20
111.5317386103
 10
129.0809598061
 20
111.5154571513
 10
129.0760740054
 20
111.4997855417
 10
129.0704458374
 20
111.4847517433
 10
129.0641240578
 20
111.4704906613
 10
129.0571144545
 20
111.4570301895
 10
129.0494112396
 20
111.4443424341
 10
129.0410458039
 20
111.4324786183
 10
129.0320024756
 20
111.4214277106
 10
129.0222969267
 20
111.4112007425
 10
129.0120075638
 20
111.4018820316
 10
129.0011414602
 20
111.393487846
 10
128.9896915427
 20
111.3860019175
 10
128.9841320738
 20
111.382811654
  0
LWPOLYLINE
  5
335
100
AcDbEntity
  8
ASSI
100
AcDbPolyline
 62
250
  6
CONTINUOUS
 90
5
 70
0
 10
132.5293248827
 20
65.4040704531
 10
132.4710101407
 20
67.0243228802
 10
132.4189950617
 20
68.6348810014
 10
132.3731398651
 20
70.2356317808
 10
132.3334102288
 20
71.8220180024
  0
LWPOLYLINE
  5
336
100
AcDbEntity
  8
ASSI
100
AcDbPolyline
 62
7
  6
CONTINUOUS
 90
11
 70
0
 10
130.1872802361
 20
72.7419232402
 10
130.1878892569
 20
72.7032624402
 10
130.1873044159
 20
72.6653000124
 10
130.1855254435
 20
72.6280844167
 10
130.1825541598
 20
72.5916564419
 10
130.1783921151
 20
72.5560701783
 10
130.1730431221
 20
72.5213910574
 10
130.1665157516
 20
72.4876693595
 10
130.1588191845
 20
72.4549393313
 10
130.1499623785
 20
72.4232390387
 10
130.1399604769
 20
72.3926144051
  0
LINE
  5
337
100
AcDbEntity
  8
ASSI
100
AcDbLine
 62
7
  6
CONTINUOUS
 10
129.6054665147
 20
111.638778839
 11
129.6181810802
 21
110.7903612395
  0
LWPOLYLINE
  5
338
100
AcDbEntity
  8
ASSI
100
AcDbPolyline
 62
7
  6
CONTINUOUS
 90
100
 70
0
 10
130.5996259282
 20
72.0476883768
 10
130.6002991125
 20
71.983929865
 10
130.5991967362
 20
71.9214432068
 10
130.5963186987
 20
71.8602283426
 10
130.5916556465
 20
71.8002323584
 10
130.5852167497
 20
71.7415080595
 10
130.57702962
 20
71.6842139207
 10
130.5670895292
 20
71.6283515906
 10
130.5554008632
 20
71.5739192147
 10
130.54200476
 20
71.5210699249
 10
130.5268967601
 20
71.4698083566
 10
130.5100808438
 20
71.4201295844
 10
130.491610671
 20
71.3721723149
 10
130.4714844798
 20
71.3259443514
 10
130.4497034338
 20
71.2814375269
 10
130.4263254613
 20
71.2387665191
 10
130.4013419162
 20
71.1979282021
 10
130.3747607635
 20
71.1589252869
 10
130.346664736
 20
71.1218811379
 10
130.3170561266
 20
71.0868076987
 10
130.28593187
 20
71.0536925542
 10
130.2533665659
 20
71.0226224712
 10
130.2193502774
 20
70.9935956612
 10
130.1838921367
 20
70.9666134207
 10
130.1470952681
 20
70.9417670956
 10
130.1089467915
 20
70.9190614249
 10
130.0694587508
 20
70.8984911577
 10
130.0287715803
 20
70.8801326072
 10
129.9868838653
 20
70.863997748
 10
129.943796173
 20
70.8500740862
 10
129.8996518551
 20
70.8384011981
 10
129.8544494352
 20
70.8289877904
 10
129.8081895798
 20
70.8218246595
 10
129.7610188284
 20
70.8169244995
 10
129.7129347365
 20
70.8142944066
 10
129.6639390103
 20
70.8139268312
 10
129.614184407
 20
70.8158124943
 10
129.5636841711
 20
70.819953583
 10
129.5124244174
 20
70.8263475163
 10
129.4605172181
 20
70.8349778695
 10
129.4079466222
 20
70.8458503419
 10
129.354728064
 20
70.8589589163
 10
129.3010207146
 20
70.8742696063
 10
129.2468304275
 20
70.8917850613
 10
129.1921509637
 20
70.9115023946
 10
129.1371233822
 20
70.933379333
 10
129.0817355192
 20
70.9574260438
 10
129.0259993007
 20
70.9836322132
 10
128.9700919542
 20
71.0119248671
 10
128.9140008251
 20
71.042320546
 10
128.8577384869
 20
71.0748026596
 10
128.8015200494
 20
71.1092485613
 10
128.7453548434
 20
71.1456629108
 10
128.6892336189
 20
71.1840410983
 10
128.6333436533
 20
71.2242465979
 10
128.5776972943
 20
71.2662766985
 10
128.5222824324
 20
71.3101342578
 10
128.4672496938
 20
71.3556911236
 10
128.4125945278
 20
71.4029566127
 10
128.358321871
 20
71.4519216458
 10
128.3045966066
 20
71.5024304929
 10
128.2514357352
 20
71.5544702681
 10
128.1988227727
 20
71.6080541749
 10
128.1468723956
 20
71.6630656303
 10
128.0955723671
 20
71.7195210385
 10
128.0449355632
 20
71.7774043882
 10
127.9951143397
 20
71.8365504799
 10
127.9461104904
 20
71.8969641071
 10
127.8979229581
 20
71.9586409288
 10
127.8506998157
 20
72.0214020397
 10
127.8044412459
 20
72.085255916
 10
127.759147876
 20
72.1501945787
 10
127.7149684211
 20
72.2160144236
 10
127.6719015512
 20
72.282730223
 10
127.6299494473
 20
72.3503277264
 10
127.5892660361
 20
72.4185597614
 10
127.5498639292
 20
72.4874187389
 10
127.5117313548
 20
72.5569127623
 10
127.4749855863
 20
72.6268181499
 10
127.4396379189
 20
72.6971216543
 10
127.4056778624
 20
72.7678370151
 10
127.3731899294
 20
72.8387809801
 10
127.34217231
 20
72.9099670773
 10
127.3126275829
 20
72.9813822481
 10
127.2846467465
 20
73.0528033001
 10
127.2582384597
 20
73.1242187531
 10
127.2333947417
 20
73.1956405004
 10
127.2101815183
 20
73.2668803399
 10
127.1886007644
 20
73.3379425833
 10
127.168651098
 20
73.4088232792
 10
127.1503932917
 20
73.4793217587
 10
127.1338313706
 20
73.5494365215
 10
127.1189617864
 20
73.6191693566
 10
127.1058338191
 20
73.6883244483
 10
127.0944511846
 20
73.7568985832
 10
127.0848105153
 20
73.8248951844
 10
127.0769503295
 20
73.8921283063
 10
127.0708835077
 20
73.9585359912
 10
127.0665973692
 20
74.0241803156
 10
127.0640920224
 20
74.089061344
  0
LINE
  5
339
100
AcDbEntity
  8
ASSI
100
AcDbLine
 62
7
  6
CONTINUOUS
 10
130.7084931977
 20
110.1847600354
 11
130.7084931977
 21
112.2530402287
  0
LINE
  5
33A
100
AcDbEntity
  8
RACCORDO
100
AcDbLine
 62
7
  6
CONTINUOUS
 10
130.7792038758
 20
108.6483621831
 11
130.7792038758
 21
109.4259377328
  0
LWPOLYLINE
  5
33B
100
AcDbEntity
  8
0
100
AcDbPolyline
 62
7
  6
CONTINUOUS
 90
7
 70
0
 10
128.0214874292
 20
73.6211629691
 10
128.0290491749
 20
73.7500103573
 10
128.0516050283
 20
73.8679210166
 10
128.0887690526
 20
73.9728774629
 10
128.1399053611
 20
74.0630838624
 10
128.2041389972
 20
74.1369967585
 10
128.2803407055
 20
74.1933340455
  0
LWPOLYLINE
  5
33C
100
AcDbEntity
  8
0
100
AcDbPolyline
 62
7
  6
CONTINUOUS
 90
7
 70
0
 10
129.7892543822
 20
72.6004764858
 10
129.7816926365
 20
72.4716290976
 10
129.759136783
 20
72.3537184383
 10
129.7219727587
 20
72.248761992
 10
129.6708364503
 20
72.1585555925
 10
129.6066028142
 20
72.0846426964
 10
129.5304011058
 20
72.0283054094
  0
LINE
  5
33D
100
AcDbEntity
  8
ASSI
100
AcDbLine
 62
7
  6
CONTINUOUS
 10
137.6734949924
 20
109.6893667526
 11
137.9647073811
 21
109.9294989624
  0
LWPOLYLINE
  5
33E
100
AcDbEntity
  8
RACCORDO
100
AcDbPolyline
 62
7
  6
CONTINUOUS
 90
6
 70
0
 10
134.1449158411
 20
107.3523949247
 10
134.1362047047
 20
107.3465682367
 10
134.0980237886
 20
107.3194772675
 10
134.0606729637
 20
107.2904662415
 10
134.0241809662
 20
107.259623325
 10
134.0133829152
 20
107.2497385036
  0
LINE
  5
33F
100
AcDbEntity
  8
RACCORDO
100
AcDbLine
 62
7
  6
CONTINUOUS
 10
134.3618661554
 20
107.4954718463
 11
134.1451647389
 21
107.3525593002
  0
LINE
  5
340
100
AcDbEntity
  8
ASSI
100
AcDbLine
 62
7
  6
CONTINUOUS
 10
134.8393644743
 20
107.7757153845
 11
132.3347849465
 21
106.1808239325
  0
LINE
  5
341
100
AcDbEntity
  8
ASSI
100
AcDbLine
 62
7
  6
CONTINUOUS
 10
135.3665777821
 20
108.058530829
 11
137.4486594101
 21
109.285035434
  0
LINE
  5
342
100
AcDbEntity
  8
RACCORDO
100
AcDbLine
 62
250
  6
CONTINUOUS
 10
131.1327034185
 20
108.0360830154
 11
129.7554600447
 21
107.240882589
  0
LINE
  5
343
100
AcDbEntity
  8
ASSI
100
AcDbLine
 62
7
  6
CONTINUOUS
 10
135.0346974852
 20
108.5040089209
 11
137.1450631732
 21
109.6924031566
  0
LINE
  5
344
100
AcDbEntity
  8
ASSI
100
AcDbLine
 62
7
  6
CONTINUOUS
 10
134.8520790398
 20
108.6094505225
 11
135.9544337887
 21
109.2240998785
  0
LINE
  5
345
100
AcDbEntity
  8
0
100
AcDbLine
 62
7
  6
CONTINUOUS
 10
149.5466964696
 20
118.1533532683
 11
156.9067994407
 21
122.2546436393
  0
LINE
  5
346
100
AcDbEntity
  8
ASSI
100
AcDbLine
 62
7
  6
CONTINUOUS
 10
139.0713144582
 20
110.3070725578
 11
137.9647073811
 21
109.9294989624
  0
LWPOLYLINE
  5
347
100
AcDbEntity
  8
ASSI
100
AcDbPolyline
 62
250
  6
CONTINUOUS
 90
22
 70
0
 10
133.2298949421
 20
65.417519243
 10
133.17186854
 20
67.036337
 10
133.1198580369
 20
68.6452474373
 10
133.0738634328
 20
70.2442505549
 10
133.034049903
 20
71.8289667863
 10
133.0002522722
 20
73.403775698
 10
132.9719750149
 20
74.9818159896
 10
132.9490529129
 20
76.5676269756
 10
132.9316511844
 20
78.1566693414
 10
132.9197699585
 20
79.7484638433
 10
132.9133460891
 20
81.3384139111
 10
132.9124427225
 20
82.9311161148
 10
132.9172494259
 20
84.5398809209
 10
132.9276987323
 20
86.1693316195
 10
132.9438581088
 20
87.8148449205
 10
132.9661195242
 20
89.4758614195
 10
132.9945662211
 20
91.1544744078
 10
133.0291149568
 20
92.8485905941
 10
133.0699079727
 20
94.5513707004
 10
133.1169926824
 20
96.2605349673
 10
133.1703216722
 20
97.9783631542
 10
133.2298949421
 20
99.704855261
  0
LINE
  5
348
100
AcDbEntity
  8
ASSI
100
AcDbLine
 62
250
  6
CONTINUOUS
 10
132.3334102288
 20
71.8220180024
 11
132.2931799621
 21
73.7519547871
  0
LWPOLYLINE
  5
349
100
AcDbEntity
  8
ASSI
100
AcDbPolyline
 62
250
  6
CONTINUOUS
 90
17
 70
0
 10
132.2931799621
 20
73.7519547871
 10
132.2711512066
 20
74.977938513
 10
132.2482038964
 20
76.5653433108
 10
132.2307841106
 20
78.155959208
 10
132.2188947893
 20
79.7493572683
 10
132.2125414163
 20
81.3409507655
 10
132.2116803678
 20
82.9352551821
 10
132.2163717769
 20
84.5455705343
 10
132.2267840521
 20
86.1766324774
 10
132.2430465054
 20
87.8238247322
 10
132.265289955
 20
89.4864924388
 10
132.2936818689
 20
91.1667481955
 10
132.3283263996
 20
92.8625761244
 10
132.3691805136
 20
94.5670833387
 10
132.4162354881
 20
96.2779559621
 10
132.469597902
 20
97.9975036942
 10
132.5293248827
 20
99.7257281288
  0
LINE
  5
34A
100
AcDbEntity
  8
ASSI
100
AcDbLine
 62
7
  6
CONTINUOUS
 10
133.289432949
 20
111.9185957256
 11
133.289432949
 21
112.2206692312
  0
LWPOLYLINE
  5
34B
100
AcDbEntity
  8
ASSI
100
AcDbPolyline
 62
250
  6
CONTINUOUS
 90
37
 70
0
 10
132.5293248827
 20
99.7257281288
 10
132.5311535454
 20
99.7601822368
 10
132.5341774742
 20
99.7952008366
 10
132.5383916364
 20
99.8307250158
 10
132.543789102
 20
99.8666949106
 10
132.5503607912
 20
99.9030500778
 10
132.5580955016
 20
99.9397296003
 10
132.5669804377
 20
99.9766718097
 10
132.5770007305
 20
100.0138144318
 10
132.5881391851
 20
100.0510949628
 10
132.6003772269
 20
100.0884504425
 10
132.6136944467
 20
100.125818113
 10
132.6280681505
 20
100.1631355677
 10
132.6434744708
 20
100.2003399762
 10
132.6598876627
 20
100.2373685839
 10
132.6772796518
 20
100.2741593669
 10
132.6956215352
 20
100.310650351
 10
132.7148826686
 20
100.3467799504
 10
132.7350299721
 20
100.3824874742
 10
132.7560298404
 20
100.4177126038
 10
132.7778472604
 20
100.4523960191
 10
132.8004448911
 20
100.4864797406
 10
132.8237850148
 20
100.5199061437
 10
132.8478287432
 20
100.5526189377
 10
132.8725351412
 20
100.5845637749
 10
132.8978634505
 20
100.6156871709
 10
132.923771046
 20
100.6459360607
 10
132.9502125904
 20
100.6752588713
 10
132.9771437531
 20
100.7036059085
 10
133.0045197778
 20
100.7309296358
 10
133.0322933964
 20
100.7571843267
 10
133.0604180205
 20
100.7823255416
 10
133.0888469646
 20
100.8063111615
 10
133.117531946
 20
100.8291017557
 10
133.1464248511
 20
100.8506592138
 10
133.1754778044
 20
100.8709468575
 10
133.2046423832
 20
100.8899304747
  0
LWPOLYLINE
  5
34C
100
AcDbEntity
  8
ASSI
100
AcDbPolyline
 62
250
  6
CONTINUOUS
 90
37
 70
0
 10
133.2298949421
 20
99.704855261
 10
133.2308230758
 20
99.722127497
 10
133.2323472743
 20
99.7396194301
 10
133.2344675377
 20
99.7573310601
 10
133.23718942
 20
99.7752928575
 10
133.2405073672
 20
99.7934743518
 10
133.2444047173
 20
99.8117841318
 10
133.2488844055
 20
99.8302228989
 10
133.2539434967
 20
99.8487899516
 10
133.2595565226
 20
99.8673917737
 10
133.2657262531
 20
99.8860284714
 10
133.2724499183
 20
99.9046999385
 10
133.2796937414
 20
99.9233123405
 10
133.2874603547
 20
99.941865421
 10
133.2957471259
 20
99.9603594363
 10
133.3045123803
 20
99.9787013211
 10
133.313758556
 20
99.9968903457
 10
133.3234832151
 20
100.0149272398
 10
133.3336373693
 20
100.0327211267
 10
133.3442231677
 20
100.0502707409
 10
133.3552384612
 20
100.0675773479
 10
133.3666278149
 20
100.0845538673
 10
133.3783930748
 20
100.1011985924
 10
133.3905323948
 20
100.1175132299
 10
133.4029848012
 20
100.1334158197
 10
133.4157520833
 20
100.1489045001
 10
133.4288324519
 20
100.1639811329
 10
133.4421595654
 20
100.1785693428
 10
133.4557345736
 20
100.1926664909
 10
133.4695563268
 20
100.2062752162
 10
133.4835550339
 20
100.2193270602
 10
133.4977314539
 20
100.2318190945
 10
133.5120848278
 20
100.2437542475
 10
133.5265430884
 20
100.2550728455
 10
133.5410822133
 20
100.2657549974
 10
133.5557262249
 20
100.2758205944
 10
133.5704751232
 20
100.2852696364
  0
LINE
  5
34D
100
AcDbEntity
  8
ASSI
100
AcDbLine
 62
7
  6
CONTINUOUS
 10
137.6734949924
 20
108.8500940091
 11
139.3171059439
 21
110.1651889355
  0
LINE
  5
34E
100
AcDbEntity
  8
ASSI
100
AcDbLine
 62
7
  6
CONTINUOUS
 10
139.2531148517
 20
106.6543650677
 11
142.2428496425
 21
108.4758951013
  0
LINE
  5
34F
100
AcDbEntity
  8
ASSI
100
AcDbLine
 62
7
  6
CONTINUOUS
 10
135.9000112334
 20
107.3185778878
 11
138.0176188999
 21
108.4958025001
  0
LINE
  5
350
100
AcDbEntity
  8
ASSI
100
AcDbLine
 62
7
  6
CONTINUOUS
 10
140.1812861798
 20
109.6662160072
 11
138.0153456283
 21
108.5000245951
  0
LINE
  5
351
100
AcDbEntity
  8
ASSI
100
AcDbLine
 62
7
  6
CONTINUOUS
 10
134.8520790398
 20
108.6094505225
 11
134.8393644743
 21
107.7757153845
  0
LWPOLYLINE
  5
352
100
AcDbEntity
  8
ASSI
100
AcDbPolyline
 62
7
  6
CONTINUOUS
 90
46
 70
0
 10
137.4486594101
 20
109.285035434
 10
137.4475935194
 20
109.2640318398
 10
137.447384195
 20
109.2426211576
 10
137.4480314371
 20
109.2208033874
 10
137.4495401126
 20
109.1985433149
 10
137.4519053545
 20
109.1758761545
 10
137.4551125618
 20
109.1529075491
 10
137.4591657817
 20
109.1296241892
 10
137.464060967
 20
109.1060393845
 10
137.4697713756
 20
109.0822987067
 10
137.4763070904
 20
109.0583890749
 10
137.4836580284
 20
109.0343235701
 10
137.4917671987
 20
109.0102870069
 10
137.500630883
 20
108.9863025873
 10
137.5102527995
 20
108.9623471094
 10
137.520587112
 20
108.9385357822
 10
137.5316506864
 20
108.9148429325
 10
137.5434266567
 20
108.8912942335
 10
137.5558185886
 20
108.8680819137
 10
137.5688145619
 20
108.8452365175
 10
137.5824264968
 20
108.8227275005
 10
137.5965937198
 20
108.8006554575
 10
137.6113385298
 20
108.7789949336
 10
137.6266386278
 20
108.7577713837
 10
137.6423664437
 20
108.7371617671
 10
137.6585041394
 20
108.7171963056
 10
137.675069553
 20
108.6978447775
 10
137.6919886289
 20
108.6791934769
 10
137.7092846915
 20
108.6612240571
 10
137.7269344164
 20
108.6439548649
 10
137.7447937742
 20
108.6275272342
 10
137.7628440503
 20
108.6119648509
 10
137.7811039592
 20
108.5972440293
 10
137.799485615
 20
108.5834350453
 10
137.8180074194
 20
108.5705304109
 10
137.8366509707
 20
108.5585376142
 10
137.855273178
 20
108.5475493958
 10
137.8738599561
 20
108.5375807282
 10
137.8924253901
 20
108.528616639
 10
137.9108686453
 20
108.5207049519
 10
137.9291984006
 20
108.5138478461
 10
137.9474059771
 20
108.5080431425
 10
137.9653645024
 20
108.5033321274
 10
137.983031686
 20
108.4997285631
 10
138.0004498185
 20
108.4972186873
 10
138.0176188999
 20
108.4958025001
  0
LINE
  5
353
100
AcDbEntity
  8
ASSI
100
AcDbLine
 62
7
  6
CONTINUOUS
 10
142.7649018282
 20
107.1174166842
 11
138.7699729427
 21
104.6468927363
  0
LINE
  5
354
100
AcDbEntity
  8
ASSI
100
AcDbLine
 62
250
  6
CONTINUOUS
 10
133.2046423832
 20
100.8899304747
 11
139.0402797456
 21
104.490820976
  0
LINE
  5
355
100
AcDbEntity
  8
ASSI
100
AcDbLine
 62
250
  6
CONTINUOUS
 10
133.5704751232
 20
100.2852696364
 11
139.3935640115
 21
103.8784170793
  0
LINE
  5
356
100
AcDbEntity
  8
ASSI
100
AcDbLine
 62
7
  6
CONTINUOUS
 10
138.0023492839
 20
105.0901090163
 11
143.0052269655
 21
108.0357482187
  0
LINE
  5
357
100
AcDbEntity
  8
DRAFT
100
AcDbLine
 62
7
  6
CONTINUOUS
 10
156.9111617073
 20
113.9012033384
 11
139.3935640115
 21
103.6405802747
  0
LINE
  5
358
100
AcDbEntity
  8
0
100
AcDbLine
 62
250
  6
CONTINUOUS
 10
164.5031777244
 20
118.6046599283
 11
156.5522428451
 21
114.1084385912
  0
LINE
  5
359
100
AcDbEntity
  8
0
100
AcDbLine
 62
250
  6
CONTINUOUS
 10
165.0095557019
 20
118.0657290979
 11
157.0823102601
 21
113.5975585742
  0
LWPOLYLINE
  5
35A
100
AcDbEntity
  8
ASSI
100
AcDbPolyline
 62
7
  6
CONTINUOUS
 90
4
 70
0
 10
139.4059066063
 20
99.15200099
 10
139.4036493452
 20
99.244747247
 10
139.3970746542
 20
99.3391284611
 10
139.3935640115
 20
99.3700754617
  0
LINE
  5
35B
100
AcDbEntity
  8
ASSI
100
AcDbLine
 62
7
  6
CONTINUOUS
 10
137.6734949924
 20
108.8500940091
 11
137.6734949924
 21
109.6893667526
  0
LINE
  5
35C
100
AcDbEntity
  8
ASSI
100
AcDbLine
 62
7
  6
CONTINUOUS
 10
139.3935640115
 20
68.1173926576
 11
139.3935640115
 21
103.8784170793
  0
LINE
  5
35D
100
AcDbEntity
  8
ASSI
100
AcDbLine
 62
7
  6
CONTINUOUS
 10
139.4059066063
 20
72.8295558278
 11
139.4059066063
 21
99.15200099
  0
LWPOLYLINE
  5
35E
100
AcDbEntity
  8
ASSI
100
AcDbPolyline
 62
7
  6
CONTINUOUS
 90
4
 70
0
 10
139.4059066063
 20
72.8295558278
 10
139.4036493452
 20
72.7394161992
 10
139.3970746542
 20
72.6526272734
 10
139.3935640115
 20
72.6257342751
  0
LWPOLYLINE
  5
35F
100
AcDbEntity
  8
ASSI
100
AcDbPolyline
 62
7
  6
CONTINUOUS
 90
14
 70
0
 10
130.1399604769
 20
72.3926144051
 10
130.1288240824
 20
72.3630968244
 10
130.1165551322
 20
72.3347028794
 10
130.103159765
 20
72.307456919
 10
130.0886603676
 20
72.2814097316
 10
130.0730857768
 20
72.2566147784
 10
130.0564588729
 20
72.2331044427
 10
130.0387995548
 20
72.2109055948
 10
130.020138536
 20
72.1900555476
 10
130.0005112145
 20
72.1705862372
 10
129.979936782
 20
72.1525082176
 10
129.9584225383
 20
72.1358254545
 10
129.936004274
 20
72.1205650837
 10
129.9240336955
 20
72.1132184808
  0
LWPOLYLINE
  5
360
100
AcDbEntity
  8
ASSI
100
AcDbPolyline
 62
7
  6
CONTINUOUS
 90
4
 70
0
 10
128.2985003425
 20
74.2038191923
 10
128.3061501292
 20
74.2236417845
 10
128.3193576419
 20
74.2533461288
 10
128.3338089267
 20
74.281751006
  0
LINE
  5
361
100
AcDbEntity
  8
SMUSSO
100
AcDbLine
 62
250
  6
CONTINUOUS
 10
157.5494207533
 20
111.2525773941
 11
139.3935640115
 21
100.512934423
  0
LINE
  5
362
100
AcDbEntity
  8
0
100
AcDbLine
 62
250
  6
CONTINUOUS
 10
157.1729517442
 20
113.4319726674
 11
165.0095557019
 21
118.0657290979
  0
LINE
  5
363
100
AcDbEntity
  8
0
100
AcDbLine
 62
250
  6
CONTINUOUS
 10
157.5442019272
 20
112.0129052032
 11
165.4301622672
 21
116.6609314586
  0
LINE
  5
364
100
AcDbEntity
  8
SUPERFICI
100
AcDbLine
 62
250
  6
CONTINUOUS
 10
165.3697726196
 20
118.2588274668
 11
165.0158368133
 21
118.0544557449
  0
LINE
  5
365
100
AcDbEntity
  8
ASSI
100
AcDbLine
 62
7
  6
CONTINUOUS
 10
143.1062212679
 20
107.977446845
 11
143.1062212679
 21
107.7296652989
  0
LWPOLYLINE
  5
366
100
AcDbEntity
  8
ASSI
100
AcDbPolyline
 62
7
  6
CONTINUOUS
 90
10
 70
0
 10
128.3338089267
 20
74.281751006
 10
128.3495013456
 20
74.308839453
 10
128.3664020152
 20
74.3345413243
 10
128.3844616597
 20
74.3587790332
 10
128.4036344901
 20
74.3815037198
 10
128.4239047444
 20
74.4027091091
 10
128.4452629246
 20
74.4223881542
 10
128.4676777375
 20
74.4405126822
 10
128.4911181806
 20
74.457058376
 10
128.5167228737
 20
74.472664529
  0
LWPOLYLINE
  5
367
100
AcDbEntity
  8
RACCORDO
100
AcDbPolyline
 62
250
  6
CONTINUOUS
 90
5
 70
0
 10
125.292940667
 20
74.9236240081
 10
125.3585631174
 20
75.0169740224
 10
125.4065122851
 20
75.1303558018
 10
125.4357170485
 20
75.2612365668
 10
125.4455250038
 20
75.4066926248
  0
LINE
  5
368
100
AcDbEntity
  8
SMUSSO
100
AcDbLine
 62
250
  6
CONTINUOUS
 10
157.5548796055
 20
109.8733377495
 11
139.4059066063
 21
99.15200099
  0
LWPOLYLINE
  5
369
100
AcDbEntity
  8
ASSI
100
AcDbPolyline
 62
250
  6
CONTINUOUS
 90
31
 70
0
 10
132.5293248827
 20
99.7257281288
 10
132.5480960613
 20
99.7153974368
 10
132.5677637615
 20
99.7055951287
 10
132.5882752653
 20
99.6963474789
 10
132.6095755931
 20
99.6876792749
 10
132.6316076511
 20
99.6796137512
 10
132.6543123836
 20
99.672172527
 10
132.6776289324
 20
99.6653755478
 10
132.7014947991
 20
99.6592410324
 10
132.7258460129
 20
99.6537854239
 10
132.7506173022
 20
99.6490233457
 10
132.7757422693
 20
99.6449675622
 10
132.8011535685
 20
99.6416289445
 10
132.8267830867
 20
99.6390164415
 10
132.8525621258
 20
99.6371370559
 10
132.878421587
 20
99.6359958251
 10
132.9042921558
 20
99.6355958081
 10
132.9301044882
 20
99.635938077
 10
132.955789396
 20
99.6370217145
 10
132.9812780328
 20
99.6388438158
 10
133.0065020781
 20
99.6413994968
 10
133.0313939208
 20
99.6446819073
 10
133.0558868401
 20
99.6486822489
 10
133.0799151847
 20
99.653389799
 10
133.1034145484
 20
99.6587919393
 10
133.1263219429
 20
99.6648741896
 10
133.1485759667
 20
99.671620247
 10
133.1701169696
 20
99.6790120291
 10
133.1908872126
 20
99.6870297227
 10
133.2108310227
 20
99.695651837
 10
133.2298949421
 20
99.704855261
  0
LINE
  5
36A
100
AcDbEntity
  8
ASSI
100
AcDbLine
 62
250
  6
CONTINUOUS
 10
117.7040109746
 20
108.2856785745
 11
132.5293248827
 21
99.7257281288
  0
LINE
  5
36B
100
AcDbEntity
  8
ASSI
100
AcDbLine
 62
250
  6
CONTINUOUS
 10
118.3676427519
 20
109.4566281106
 11
133.2046423832
 21
100.8899304747
  0
LWPOLYLINE
  5
36C
100
AcDbEntity
  8
ASSI
100
AcDbPolyline
 62
250
  6
CONTINUOUS
 90
17
 70
0
 10
117.7040109746
 20
108.2856785745
 10
117.686185507
 20
108.2964783271
 10
117.6693546554
 20
108.3077498247
 10
117.6535635335
 20
108.3194628549
 10
117.6388544682
 20
108.3315860218
 10
117.6252668863
 20
108.34408683
 10
117.612837208
 20
108.3569317722
 10
117.6015987504
 20
108.3700864184
 10
117.5915816373
 20
108.3835155086
 10
117.5828127187
 20
108.397183047
 10
117.5753154991
 20
108.4110523989
 10
117.5691100743
 20
108.4250863884
 10
117.5642130774
 20
108.4392473986
 10
117.5606376345
 20
108.4534974717
 10
117.5583933293
 20
108.4677984117
 10
117.5574861775
 20
108.4821118859
 10
117.5575512401
 20
108.4897718022
  0
LWPOLYLINE
  5
36D
100
AcDbEntity
  8
ASSI
100
AcDbPolyline
 62
250
  6
CONTINUOUS
 90
34
 70
0
 10
133.2046423832
 20
100.8899304747
 10
133.2211811131
 20
100.8795885502
 10
133.2377242888
 20
100.8683717571
 10
133.2542344782
 20
100.8563054756
 10
133.270674324
 20
100.843417008
 10
133.2870066278
 20
100.8297355167
 10
133.3031944347
 20
100.8152919588
 10
133.3192011169
 20
100.8001190156
 10
133.3349904561
 20
100.7842510186
 10
133.3505267261
 20
100.7677238722
 10
133.365774773
 20
100.7505749722
 10
133.3807000952
 20
100.7328431212
 10
133.3952689215
 20
100.7145684409
 10
133.4094482872
 20
100.6957922811
 10
133.4232061087
 20
100.6765571265
 10
133.4365112563
 20
100.6569065003
 10
133.4493336247
 20
100.6368848656
 10
133.4616442008
 20
100.6165375251
 10
133.4734151297
 20
100.5959105187
 10
133.4846197774
 20
100.5750505188
 10
133.4952327913
 20
100.554004725
 10
133.5052301574
 20
100.5328207574
 10
133.5145892548
 20
100.5115465488
 10
133.5232889068
 20
100.490230236
 10
133.5313094287
 20
100.4689200512
 10
133.5386326727
 20
100.4476642128
 10
133.5452420686
 20
100.426510816
 10
133.5511226612
 20
100.4055077245
 10
133.5562611447
 20
100.3847024616
 10
133.5606458923
 20
100.3641421032
 10
133.5642669827
 20
100.343873171
 10
133.5671162224
 20
100.3239415273
 10
133.5691871646
 20
100.3043922711
 10
133.5704751232
 20
100.2852696364
  0
LWPOLYLINE
  5
36E
100
AcDbEntity
  8
ASSI
100
AcDbPolyline
 62
250
  6
CONTINUOUS
 90
19
 70
0
 10
118.3676427519
 20
109.4566281106
 10
118.3505606393
 20
109.4656984387
 10
118.3335590462
 20
109.473849974
 10
118.3166764419
 20
109.4810642721
 10
118.2999510263
 20
109.4873250092
 10
118.2834206441
 20
109.4926180193
 10
118.2671226983
 20
109.4969313259
 10
118.251094066
 20
109.5002551694
 10
118.2353710152
 20
109.5025820291
 10
118.2199891222
 20
109.5039066399
 10
118.2049831915
 20
109.5042260048
 10
118.1903871768
 20
109.5035394011
 10
118.1762341043
 20
109.5018483825
 10
118.162555998
 20
109.4991567752
 10
118.1493838073
 20
109.4954706697
 10
118.1367473366
 20
109.4907984064
 10
118.1246751783
 20
109.4851505572
 10
118.1131946481
 20
109.4785399017
 10
118.1110708525
 20
109.4771686423
  0
LINE
  5
36F
100
AcDbEntity
  8
RACCORDO
100
AcDbLine
 62
250
  6
CONTINUOUS
 10
162.4252136171
 20
86.8539050913
 11
161.6817476874
 21
87.2831730013
  0
LWPOLYLINE
  5
370
100
AcDbEntity
  8
ASSI
100
AcDbPolyline
 62
7
  6
CONTINUOUS
 90
8
 70
0
 10
130.6825673418
 20
112.73096934
 10
130.6997364232
 20
112.7125591023
 10
130.7171545556
 20
112.6949549553
 10
130.7348217392
 20
112.6781568989
 10
130.7527802645
 20
112.6621298591
 10
130.770987841
 20
112.6469089098
 10
130.7893175963
 20
112.6325992736
 10
130.8067166998
 20
112.6199709976
  0
LINE
  5
371
100
AcDbEntity
  8
ASSI
100
AcDbLine
 62
7
  6
CONTINUOUS
 10
135.0346974852
 20
108.5040089209
 11
135.1827455672
 21
108.3066557105
  0
LWPOLYLINE
  5
372
100
AcDbEntity
  8
ASSI
100
AcDbPolyline
 62
7
  6
CONTINUOUS
 90
3
 70
0
 10
135.1827455672
 20
108.3066557105
 10
135.3299211849
 20
108.1082822758
 10
135.3665777821
 20
108.058530829
  0
LWPOLYLINE
  5
373
100
AcDbEntity
  8
ASSI
100
AcDbPolyline
 62
7
  6
CONTINUOUS
 90
10
 70
0
 10
138.0176188999
 20
108.4958025001
 10
138.1587130924
 20
108.294644731
 10
138.2988611595
 20
108.0926133058
 10
138.4380631009
 20
107.8897082246
 10
138.5763297042
 20
107.6859134092
 10
138.7136501819
 20
107.4812449378
 10
138.8499921717
 20
107.2757510445
 10
138.9853448863
 20
107.0694478074
 10
139.1197191129
 20
106.8623191485
 10
139.2531148517
 20
106.6543650677
  0
LINE
  5
374
100
AcDbEntity
  8
ASSI
100
AcDbLine
 62
7
  6
CONTINUOUS
 10
135.9000112334
 20
107.3185778878
 11
136.022158581
 21
107.1448096884
  0
LINE
  5
375
100
AcDbEntity
  8
ASSI
100
AcDbLine
 62
7
  6
CONTINUOUS
 10
136.022158581
 20
107.1448096884
 11
136.0829748446
 21
107.0576703428
  0
LINE
  5
376
100
AcDbEntity
  8
ASSI
100
AcDbLine
 62
7
  6
CONTINUOUS
 10
131.6277858611
 20
106.1598251283
 11
127.1188258074
 21
108.7632421528
  0
LINE
  5
377
100
AcDbEntity
  8
RACCORDO
100
AcDbLine
 62
7
  6
CONTINUOUS
 10
162.0625879436
 20
89.8417271063
 11
164.0814827755
 21
88.676042533
  0
LINE
  5
378
100
AcDbEntity
  8
RACCORDO
100
AcDbLine
 62
7
  6
CONTINUOUS
 10
131.1327034185
 20
108.0360830154
 11
133.2911461116
 21
106.789825256
  0
LINE
  5
379
100
AcDbEntity
  8
RACCORDO
100
AcDbLine
 62
250
  6
CONTINUOUS
 10
130.1133340985
 20
109.3660650502
 11
129.6174570693
 21
109.6523782321
  0
LINE
  5
37A
100
AcDbEntity
  8
DRAFT
100
AcDbLine
 62
250
  6
CONTINUOUS
 10
161.6927835045
 20
91.3591524427
 11
162.4252136171
 21
90.9362564752
  0
LINE
  5
37B
100
AcDbEntity
  8
ASSI
100
AcDbLine
 62
7
  6
CONTINUOUS
 10
139.0402797456
 20
104.490820976
 11
135.4461086317
 21
106.5660503317
  0
LINE
  5
37C
100
AcDbEntity
  8
ASSI
100
AcDbLine
 62
7
  6
CONTINUOUS
 10
127.5972233605
 20
111.0978983176
 11
124.0030522466
 21
113.1731276732
  0
LINE
  5
37D
100
AcDbEntity
  8
RACCORDO
100
AcDbLine
 62
250
  6
CONTINUOUS
 10
130.3791667568
 20
109.5903082833
 11
129.8930080817
 21
109.8710102093
  0
LINE
  5
37E
100
AcDbEntity
  8
RACCORDO
100
AcDbLine
 62
7
  6
CONTINUOUS
 10
130.125831044
 20
110.0054379759
 11
134.4343063102
 21
107.5177783551
  0
LWPOLYLINE
  5
37F
100
AcDbEntity
  8
RACCORDO
100
AcDbPolyline
 62
250
  6
CONTINUOUS
 90
16
 70
0
 10
130.1133340985
 20
109.3660650502
 10
130.1317470514
 20
109.3544577416
 10
130.1507658633
 20
109.3414465629
 10
130.1701841126
 20
109.3271727289
 10
130.1897910448
 20
109.311791157
 10
130.20937385
 20
109.295468793
 10
130.2287199729
 20
109.2783828011
 10
130.2476194379
 20
109.260718625
 10
130.265867114
 20
109.2426679871
 10
130.283264933
 20
109.2244268168
 10
130.2996240643
 20
109.2061930994
 10
130.3147669536
 20
109.1881647366
 10
130.3285292399
 20
109.1705374107
 10
130.3407615539
 20
109.1535024442
 10
130.3513311373
 20
109.1372447236
 10
130.3601232764
 20
109.1219407014
  0
LWPOLYLINE
  5
380
100
AcDbEntity
  8
RACCORDO
100
AcDbPolyline
 62
250
  6
CONTINUOUS
 90
16
 70
0
 10
130.3791667568
 20
109.5903082833
 10
130.3971860465
 20
109.5784705542
 10
130.4151084097
 20
109.5646109832
 10
130.4327377131
 20
109.5488812451
 10
130.4498810301
 20
109.5314534814
 10
130.4663507547
 20
109.5125184137
 10
130.4819666544
 20
109.4922832558
 10
130.4965578369
 20
109.4709694523
 10
130.5099646258
 20
109.4488102499
 10
130.5220403085
 20
109.4260481409
 10
130.5326527348
 20
109.4029322223
 10
130.541685768
 20
109.3797154614
 10
130.5490405581
 20
109.3566519203
 10
130.5546366164
 20
109.3339939916
 10
130.5584126986
 20
109.311989636
 10
130.5603274786
 20
109.2908796593
  0
LINE
  5
381
100
AcDbEntity
  8
ASSI
100
AcDbLine
 62
7
  6
CONTINUOUS
 10
137.1450631732
 20
109.6924031566
 11
137.2804520147
 21
109.5118849571
  0
LWPOLYLINE
  5
382
100
AcDbEntity
  8
ASSI
100
AcDbPolyline
 62
7
  6
CONTINUOUS
 90
3
 70
0
 10
137.2804520147
 20
109.5118849571
 10
137.4151099051
 20
109.3305114412
 10
137.4486594101
 20
109.285035434
  0
LINE
  5
383
100
AcDbEntity
  8
RACCORDO
100
AcDbLine
 62
250
  6
CONTINUOUS
 10
151.7167334322
 20
119.3625689185
 11
151.7167334322
 21
121.7264352654
  0
LWPOLYLINE
  5
384
100
AcDbEntity
  8
RACCORDO
100
AcDbPolyline
 62
250
  6
CONTINUOUS
 90
6
 70
0
 10
125.0956067228
 20
74.8877758684
 10
125.1716169808
 20
74.9539324304
 10
125.2325727986
 20
75.0406338557
 10
125.2771123013
 20
75.1459431107
 10
125.3042403804
 20
75.2675074273
 10
125.3133509267
 20
75.4026108661
  0
LWPOLYLINE
  5
385
100
AcDbEntity
  8
ASSI
100
AcDbPolyline
 62
7
  6
CONTINUOUS
 90
20
 70
0
 10
125.3305481529
 20
74.9149596814
 10
125.3510365051
 20
74.9318255286
 10
125.3705321356
 20
74.9501210503
 10
125.3890115425
 20
74.9698223276
 10
125.4064574948
 20
74.9909104213
 10
125.4228472931
 20
75.0133609206
 10
125.438152883
 20
75.0371383671
 10
125.4523506146
 20
75.0622052281
 10
125.46541814
 20
75.0885230479
 10
125.4773381688
 20
75.1160567026
 10
125.4880976053
 20
75.1447702484
 10
125.4976808547
 20
75.1746215315
 10
125.5060732167
 20
75.2055693731
 10
125.5132644782
 20
75.2375777377
 10
125.5192424855
 20
75.2706079777
 10
125.5239967764
 20
75.3046081738
 10
125.5275228208
 20
75.3395197853
 10
125.5298167346
 20
75.3752890712
 10
125.5308736914
 20
75.4118683944
 10
125.530691768
 20
75.449205518
  0
LWPOLYLINE
  5
386
100
AcDbEntity
  8
0
100
AcDbPolyline
 62
7
  6
CONTINUOUS
 90
6
 70
0
 10
165.4301622672
 20
104.9879988302
 10
165.5415618677
 20
105.0698842873
 10
165.624739224
 20
105.1559334287
 10
165.6796943361
 20
105.2461462545
 10
165.7063838199
 20
105.3433931396
 10
165.710822448
 20
105.3891980491
  0
LWPOLYLINE
  5
387
100
AcDbEntity
  8
RACCORDO
100
AcDbPolyline
 62
7
  6
CONTINUOUS
 90
10
 70
0
 10
123.9426395796
 20
76.9869221062
 10
123.8880099086
 20
76.9492937393
 10
123.8378929543
 20
76.9035213609
 10
123.7929357266
 20
76.8497465449
 10
123.7536182624
 20
76.7879756734
 10
123.7206200773
 20
76.7186226999
 10
123.6946034775
 20
76.6426499388
 10
123.6758414121
 20
76.5607273062
 10
123.6644533882
 20
76.4731013294
 10
123.6606201128
 20
76.3802481529
  0
LWPOLYLINE
  5
388
100
AcDbEntity
  8
ASSI
100
AcDbPolyline
 62
7
  6
CONTINUOUS
 90
5
 70
0
 10
124.0063660812
 20
77.0331643762
 10
123.9881617896
 20
77.021987936
 10
123.9667353145
 20
77.0069961458
 10
123.9462511678
 20
76.9905661076
 10
123.941125701
 20
76.9858793619
  0
LINE
  5
389
100
AcDbEntity
  8
0
100
AcDbLine
 62
7
  6
CONTINUOUS
 10
165.4301622672
 20
104.9879988302
 11
157.5548796055
 21
100.2793498047
  0
LINE
  5
38A
100
AcDbEntity
  8
RACCORDO
100
AcDbLine
 62
7
  6
CONTINUOUS
 10
164.6441059713
 20
104.2927295934
 11
157.5548796055
 21
100.1267696927
  0
LINE
  5
38B
100
AcDbEntity
  8
SMUSSO
100
AcDbLine
 62
7
  6
CONTINUOUS
 10
166.4443587646
 20
103.21808262
 11
157.5548796055
 21
97.9942102532
  0
LINE
  5
38C
100
AcDbEntity
  8
ASSI
100
AcDbLine
 62
7
  6
CONTINUOUS
 10
136.0829748446
 20
107.0576703428
 11
134.8393644743
 21
107.7757153845
  0
LINE
  5
38D
100
AcDbEntity
  8
ASSI
100
AcDbLine
 62
7
  6
CONTINUOUS
 10
129.6181810802
 20
110.7903612395
 11
128.3745707099
 21
111.5084062812
  0
LINE
  5
38E
100
AcDbEntity
  8
RACCORDO
100
AcDbLine
 62
7
  6
CONTINUOUS
 10
131.3544437815
 20
110.0502430503
 11
134.8433308489
 21
108.0358033836
  0
LINE
  5
38F
100
AcDbEntity
  8
RACCORDO
100
AcDbLine
 62
7
  6
CONTINUOUS
 10
166.4321257454
 20
90.0181029004
 11
166.2347445153
 21
90.1320683489
  0
LINE
  5
390
100
AcDbEntity
  8
ASSI
100
AcDbLine
 62
7
  6
CONTINUOUS
 10
129.4228480693
 20
111.7442204406
 11
129.6054665147
 21
111.638778839
  0
LINE
  5
391
100
AcDbEntity
  8
ASSI
100
AcDbLine
 62
7
  6
CONTINUOUS
 10
134.8520790398
 20
108.6094505225
 11
135.0346974852
 21
108.5040089209
  0
LINE
  5
392
100
AcDbEntity
  8
ASSI
100
AcDbLine
 62
7
  6
CONTINUOUS
 10
130.7084931977
 20
112.2530402287
 11
135.9544337887
 21
109.2240998785
  0
LINE
  5
393
100
AcDbEntity
  8
ASSI
100
AcDbLine
 62
7
  6
CONTINUOUS
 10
137.5206860035
 20
108.9383240041
 11
137.6734949924
 21
108.8500940091
  0
LINE
  5
394
100
AcDbEntity
  8
RACCORDO
100
AcDbLine
 62
250
  6
CONTINUOUS
 10
152.2095390481
 20
119.6371763438
 11
152.2095390481
 21
122.0109755359
  0
LINE
  5
395
100
AcDbEntity
  8
DRAFT
100
AcDbLine
 62
7
  6
CONTINUOUS
 10
153.2236728811
 20
122.5965246973
 11
153.2236728811
 21
120.2022849219
  0
LINE
  5
396
100
AcDbEntity
  8
RACCORDO
100
AcDbLine
 62
7
  6
CONTINUOUS
 10
153.512686891
 20
120.3633329915
 11
153.512686891
 21
122.7633980483
  0
LINE
  5
397
100
AcDbEntity
  8
SMUSSO
100
AcDbLine
 62
7
  6
CONTINUOUS
 10
153.7100078116
 20
124.8840409826
 11
153.7100078116
 21
125.2197697924
  0
LINE
  5
398
100
AcDbEntity
  8
DRAFT
100
AcDbLine
 62
7
  6
CONTINUOUS
 10
153.9075126111
 20
124.1344242462
 11
153.9075126111
 21
122.9913658587
  0
LWPOLYLINE
  5
399
100
AcDbEntity
  8
ASSI
100
AcDbPolyline
 62
7
  6
CONTINUOUS
 90
3
 70
0
 10
125.2867900693
 20
74.8856672951
 10
125.3090993741
 20
74.8995524875
 10
125.3305481529
 20
74.9149596814
  0
LWPOLYLINE
  5
39A
100
AcDbEntity
  8
RACCORDO
100
AcDbPolyline
 62
250
  6
CONTINUOUS
 90
3
 70
0
 10
125.1845180395
 20
74.8360640935
 10
125.2111108613
 20
74.8523910723
 10
125.292940667
 20
74.9236240081
  0
LINE
  5
39B
100
AcDbEntity
  8
RACCORDO
100
AcDbLine
 62
7
  6
CONTINUOUS
 10
166.4443587646
 20
100.7286392091
 11
162.4252136171
 21
98.2843646116
  0
LINE
  5
39C
100
AcDbEntity
  8
DRAFT
100
AcDbLine
 62
7
  6
CONTINUOUS
 10
124.0711682608
 20
77.0629760458
 11
123.9426395796
 21
76.9869221062
  0
LINE
  5
39D
100
AcDbEntity
  8
DRAFT
100
AcDbLine
 62
250
  6
CONTINUOUS
 10
161.6927835045
 20
95.4415038267
 11
162.4252136171
 21
95.0186078592
  0
LINE
  5
39E
100
AcDbEntity
  8
ASSI
100
AcDbLine
 62
7
  6
CONTINUOUS
 10
131.5551230685
 20
112.9199645147
 11
137.1450631732
 21
109.6924031566
  0
LINE
  5
39F
100
AcDbEntity
  8
ASSI
100
AcDbLine
 62
7
  6
CONTINUOUS
 10
133.289432949
 20
112.2206692312
 11
137.6734949924
 21
109.6893667526
  0
LINE
  5
3A0
100
AcDbEntity
  8
ASSI
100
AcDbLine
 62
7
  6
CONTINUOUS
 10
137.9647073811
 20
109.9294989624
 11
133.7053273415
 21
112.3888116147
  0
LINE
  5
3A1
100
AcDbEntity
  8
RACCORDO
100
AcDbLine
 62
7
  6
CONTINUOUS
 10
166.4321257454
 20
94.1004542844
 11
166.2347445153
 21
94.2144197329
  0
LINE
  5
3A2
100
AcDbEntity
  8
ASSI
100
AcDbLine
 62
7
  6
CONTINUOUS
 10
132.560450124
 20
114.0664314632
 11
143.1062212679
 21
107.977446845
  0
LWPOLYLINE
  5
3A3
100
AcDbEntity
  8
RACCORDO
100
AcDbPolyline
 62
7
  6
CONTINUOUS
 90
7
 70
0
 10
165.150610527
 20
89.5614985815
 10
165.1627311373
 20
89.5488326422
 10
165.1743319689
 20
89.5362997065
 10
165.1853651529
 20
89.5239612323
 10
165.195779727
 20
89.5118772622
 10
165.2055217636
 20
89.5001060491
 10
165.2145345213
 20
89.4887036717
  0
LINE
  5
3A4
100
AcDbEntity
  8
SMUSSO
100
AcDbLine
 62
7
  6
CONTINUOUS
 10
157.5548796055
 20
97.9942102532
 11
157.5535697058
 21
110.4821284341
  0
LINE
  5
3A5
100
AcDbEntity
  8
RACCORDO
100
AcDbLine
 62
250
  6
CONTINUOUS
 10
166.0224183785
 20
98.6642041055
 11
165.0173450509
 21
98.0303849106
  0
LINE
  5
3A6
100
AcDbEntity
  8
RACCORDO
100
AcDbLine
 62
250
  6
CONTINUOUS
 10
165.2132477125
 20
97.6525949524
 11
166.2347445153
 21
98.2967711169
  0
LINE
  5
3A7
100
AcDbEntity
  8
RACCORDO
100
AcDbLine
 62
7
  6
CONTINUOUS
 10
166.4443587646
 20
96.6462878251
 11
162.4252136171
 21
94.2020132276
  0
LINE
  5
3A8
100
AcDbEntity
  8
RACCORDO
100
AcDbLine
 62
7
  6
CONTINUOUS
 10
166.4443587646
 20
97.3804449138
 11
162.4252136171
 21
95.0186078592
  0
LINE
  5
3A9
100
AcDbEntity
  8
RACCORDO
100
AcDbLine
 62
7
  6
CONTINUOUS
 10
165.1417440229
 20
97.4328937928
 11
161.6927835045
 21
95.4415038267
  0
LINE
  5
3AA
100
AcDbEntity
  8
0
100
AcDbLine
 62
7
  6
CONTINUOUS
 10
128.2803407055
 20
74.1933340455
 11
128.8536015791
 21
74.5243276893
  0
LINE
  5
3AB
100
AcDbEntity
  8
DRAFT
100
AcDbLine
 62
7
  6
CONTINUOUS
 10
125.3434420136
 20
74.9255738041
 11
125.1845180395
 21
74.8360640935
  0
LINE
  5
3AC
100
AcDbEntity
  8
ASSI
100
AcDbLine
 62
7
  6
CONTINUOUS
 10
125.2634493134
 20
74.8732064792
 11
125.2867900693
 21
74.8856672951
  0
LINE
  5
3AD
100
AcDbEntity
  8
RACCORDO
100
AcDbLine
 62
250
  6
CONTINUOUS
 10
124.0199183719
 20
77.0225439437
 11
123.9426395796
 21
76.9869221062
  0
LWPOLYLINE
  5
3AE
100
AcDbEntity
  8
ASSI
100
AcDbPolyline
 62
7
  6
CONTINUOUS
 90
5
 70
0
 10
124.0825066945
 20
77.0670972619
 10
124.0576831736
 20
77.0580745788
 10
124.0336690307
 20
77.0475430816
 10
124.010486809
 20
77.0355108521
 10
124.0063660812
 20
77.0331643762
  0
LWPOLYLINE
  5
3AF
100
AcDbEntity
  8
RACCORDO
100
AcDbPolyline
 62
250
  6
CONTINUOUS
 90
5
 70
0
 10
134.195555422
 20
107.3657441527
 10
134.1845401576
 20
107.3656825322
 10
134.1694330038
 20
107.3631864685
 10
134.1555520337
 20
107.3583120991
 10
134.1451647389
 20
107.3525593002
  0
LWPOLYLINE
  5
3B0
100
AcDbEntity
  8
ASSI
100
AcDbPolyline
 62
7
  6
CONTINUOUS
 90
49
 70
0
 10
135.9000112334
 20
107.3185778878
 10
135.8849962854
 20
107.3185842088
 10
135.8697125719
 20
107.3195731133
 10
135.8541600929
 20
107.3215446015
 10
135.8382982611
 20
107.3245091577
 10
135.8221676637
 20
107.3284562975
 10
135.8058900627
 20
107.3333545676
 10
135.7894819092
 20
107.3392031204
 10
135.772926752
 20
107.3460028035
 10
135.7562969988
 20
107.3537247063
 10
135.7395696477
 20
107.362386196
 10
135.7227677006
 20
107.3719699055
 10
135.7060325708
 20
107.3823948231
 10
135.6893890103
 20
107.3936503546
 10
135.6728122671
 20
107.4057470943
 10
135.656369499
 20
107.4186358124
 10
135.6400390126
 20
107.4323392096
 10
135.6238425013
 20
107.4468345852
 10
135.6079122025
 20
107.4620046078
 10
135.5922671058
 20
107.4778375632
 10
135.5768882217
 20
107.4943451657
 10
135.561850819
 20
107.5114452265
 10
135.5471473017
 20
107.5291512053
 10
135.5327852657
 20
107.5474496424
 10
135.5188627675
 20
107.5662179698
 10
135.5053834629
 20
107.5854600836
 10
135.4923436961
 20
107.6051720878
 10
135.4798305566
 20
107.6252197266
 10
135.4678540118
 20
107.6455920983
 10
135.4564040943
 20
107.6663001045
 10
135.4455379907
 20
107.6872421941
 10
135.4352486278
 20
107.7084428034
 10
135.4255430789
 20
107.7298774962
 10
135.4164997506
 20
107.7513714126
 10
135.4081343149
 20
107.7728954239
 10
135.4004311
 20
107.7944786589
 10
135.3934214967
 20
107.8160336448
 10
135.3870997171
 20
107.8375949595
 10
135.3814715491
 20
107.8591280251
 10
135.3765857484
 20
107.880441635
 10
135.3724549493
 20
107.9014932372
 10
135.3690665174
 20
107.9223253836
 10
135.3664313043
 20
107.9428745232
 10
135.3645485401
 20
107.9631775569
 10
135.3634189946
 20
107.9831975837
 10
135.3630558299
 20
108.0027603498
 10
135.3634634332
 20
108.0218077703
 10
135.3646374173
 20
108.0403979301
 10
135.3665777821
 20
108.058530829
  0
LINE
  5
3B1
100
AcDbEntity
  8
RACCORDO
100
AcDbLine
 62
7
  6
CONTINUOUS
 10
166.4321257454
 20
98.1828056683
 11
166.2347445153
 21
98.2967711169
  0
LWPOLYLINE
  5
3B2
100
AcDbEntity
  8
RACCORDO
100
AcDbPolyline
 62
7
  6
CONTINUOUS
 90
13
 70
0
 10
165.1505712741
 20
89.5615477632
 10
165.1311957005
 20
89.5830938642
 10
165.1131176362
 20
89.6057507516
 10
165.0963370812
 20
89.6295184255
 10
165.0807147599
 20
89.6546521307
 10
165.0663899479
 20
89.6808966224
 10
165.0537804717
 20
89.7074861656
 10
165.0429380611
 20
89.7344268448
 10
165.0338109863
 20
89.7617125756
 10
165.0266618842
 20
89.7885593695
 10
165.0215783004
 20
89.8147058973
 10
165.0184726893
 20
89.8404134884
 10
165.0173450509
 20
89.8656821427
  0
LINE
  5
3B3
100
AcDbEntity
  8
SMUSSO
100
AcDbLine
 62
7
  6
CONTINUOUS
 10
157.5535697058
 20
110.4821284341
 11
157.5494207535
 21
111.2525773942
  0
LINE
  5
3B4
100
AcDbEntity
  8
RACCORDO
100
AcDbLine
 62
250
  6
CONTINUOUS
 10
166.0224183785
 20
94.5818527215
 11
165.0173450509
 21
93.9480335266
  0
LINE
  5
3B5
100
AcDbEntity
  8
RACCORDO
100
AcDbLine
 62
250
  6
CONTINUOUS
 10
165.2132477125
 20
93.5702435685
 11
166.2347445153
 21
94.2144197329
  0
LINE
  5
3B6
100
AcDbEntity
  8
RACCORDO
100
AcDbLine
 62
7
  6
CONTINUOUS
 10
166.4443587646
 20
93.2980935298
 11
162.4252136171
 21
90.9362564752
  0
LINE
  5
3B7
100
AcDbEntity
  8
RACCORDO
100
AcDbLine
 62
7
  6
CONTINUOUS
 10
165.1417440229
 20
93.3505424089
 11
161.6927835045
 21
91.3591524427
  0
LINE
  5
3B8
100
AcDbEntity
  8
0
100
AcDbLine
 62
7
  6
CONTINUOUS
 10
129.5304011058
 20
72.0283054094
 11
130.1339999944
 21
72.3768158427
  0
LWPOLYLINE
  5
3B9
100
AcDbEntity
  8
ASSI
100
AcDbPolyline
 62
7
  6
CONTINUOUS
 90
13
 70
0
 10
129.9240336955
 20
72.1132184808
 10
129.9127015436
 20
72.1067402544
 10
129.8884913551
 20
72.0943438317
 10
129.8633573597
 20
72.0833838114
 10
129.8373657079
 20
72.0739052208
 10
129.8106208113
 20
72.0659495112
 10
129.7831816921
 20
72.0595281853
 10
129.755062456
 20
72.0546385591
 10
129.7263084663
 20
72.0512832582
 10
129.6969772107
 20
72.0494622664
 10
129.6670888066
 20
72.049170095
 10
129.6366313898
 20
72.0504040037
 10
129.605638276
 20
72.0531646581
  0
LWPOLYLINE
  5
3BA
100
AcDbEntity
  8
ASSI
100
AcDbPolyline
 62
7
  6
CONTINUOUS
 90
12
 70
0
 10
128.5167228737
 20
74.472664529
 10
128.5410404933
 20
74.4853711435
 10
128.5674585851
 20
74.4970865564
 10
128.5947922259
 20
74.5071415355
 10
128.6230200216
 20
74.5155234172
 10
128.6520886441
 20
74.5222107301
 10
128.6819016668
 20
74.5271826333
 10
128.7123841252
 20
74.5304351806
 10
128.7435196809
 20
74.5319763909
 10
128.7752963201
 20
74.5318117919
 10
128.8076523386
 20
74.5299452715
 10
128.8405584858
 20
74.5263805444
  0
LWPOLYLINE
  5
3BB
100
AcDbEntity
  8
0
100
AcDbPolyline
 62
7
  6
CONTINUOUS
 90
19
 70
0
 10
128.2803407055
 20
74.1933340455
 10
128.3672967375
 20
74.2311837852
 10
128.4634291674
 20
74.2498463497
 10
128.5671233431
 20
74.2490198529
 10
128.6766050283
 20
74.2287184364
 10
128.7900009611
 20
74.189289463
 10
128.9053709057
 20
74.1314075734
 10
129.0207408502
 20
74.0560631429
 10
129.134136783
 20
73.9645453354
 10
129.2436184683
 20
73.8584200461
 10
129.3473126439
 20
73.739503108
 10
129.4434450739
 20
73.6098292231
 10
129.5303709057
 20
73.4716171472
 10
129.6066028142
 20
73.3272317275
 10
129.6708364503
 20
73.1791434385
 10
129.7219727587
 20
73.0298861119
 10
129.759136783
 20
72.8820135818
 10
129.7816926365
 20
72.7380559883
 10
129.7892543822
 20
72.6004764858
  0
LWPOLYLINE
  5
3BC
100
AcDbEntity
  8
ASSI
100
AcDbPolyline
 62
7
  6
CONTINUOUS
 90
3
 70
0
 10
125.2147370607
 20
74.8530841552
 10
125.2393137786
 20
74.8623048774
 10
125.2634493134
 20
74.8732064792
  0
LWPOLYLINE
  5
3BD
100
AcDbEntity
  8
RACCORDO
100
AcDbPolyline
 62
7
  6
CONTINUOUS
 90
6
 70
0
 10
165.1395937391
 20
93.6557285786
 10
165.1677146795
 20
93.624403149
 10
165.1805948848
 20
93.6097760767
 10
165.1925484373
 20
93.5958586455
 10
165.2034685294
 20
93.5826721113
 10
165.2132477125
 20
93.5702435685
  0
LWPOLYLINE
  5
3BE
100
AcDbEntity
  8
RACCORDO
100
AcDbPolyline
 62
7
  6
CONTINUOUS
 90
6
 70
0
 10
165.1395937391
 20
97.7380799625
 10
165.1677146795
 20
97.706754533
 10
165.1805948848
 20
97.6921274606
 10
165.1925484373
 20
97.6782100295
 10
165.2034685294
 20
97.6650234952
 10
165.2132477125
 20
97.6525949524
  0
LWPOLYLINE
  5
3BF
100
AcDbEntity
  8
RACCORDO
100
AcDbPolyline
 62
7
  6
CONTINUOUS
 90
7
 70
0
 10
165.2145345213
 20
89.4887036717
 10
165.2253134364
 20
89.4722380355
 10
165.2332232964
 20
89.4556695189
 10
165.2382641015
 20
89.4389981218
 10
165.2404505851
 20
89.4221068957
 10
165.2397680137
 20
89.4051127891
 10
165.2373156553
 20
89.3923917823
  0
LWPOLYLINE
  5
3C0
100
AcDbEntity
  8
RACCORDO
100
AcDbPolyline
 62
250
  6
CONTINUOUS
 90
7
 70
0
 10
165.0679513713
 20
89.4306931051
 10
165.0841000114
 20
89.4042507403
 10
165.0977752486
 20
89.3767677893
 10
165.1088289127
 20
89.3485420277
 10
165.1171412382
 20
89.3198792795
 10
165.1226221616
 20
89.2910901033
 10
165.1235939967
 20
89.280357825
  0
LWPOLYLINE
  5
3C1
100
AcDbEntity
  8
0
100
AcDbPolyline
 62
7
  6
CONTINUOUS
 90
3
 70
0
 10
153.9717377474
 20
125.0095038462
 10
153.967481829
 20
125.0345598634
 10
153.9514626223
 20
125.1039759344
  0
LINE
  5
3C2
100
AcDbEntity
  8
RACCORDO
100
AcDbLine
 62
250
  6
CONTINUOUS
 10
166.0224183785
 20
90.4995013376
 11
165.0173450509
 21
89.8656821427
  0
LINE
  5
3C3
100
AcDbEntity
  8
RACCORDO
100
AcDbLine
 62
250
  6
CONTINUOUS
 10
165.2145345213
 20
89.4887036717
 11
166.2347445153
 21
90.1320683489
  0
LINE
  5
3C4
100
AcDbEntity
  8
RACCORDO
100
AcDbLine
 62
7
  6
CONTINUOUS
 10
166.4443587646
 20
92.5639364411
 11
162.4252136171
 21
90.1196618437
  0
LINE
  5
3C5
100
AcDbEntity
  8
RACCORDO
100
AcDbLine
 62
7
  6
CONTINUOUS
 10
166.4443587646
 20
89.2157421459
 11
162.4252136171
 21
86.8539050913
  0
LINE
  5
3C6
100
AcDbEntity
  8
RACCORDO
100
AcDbLine
 62
7
  6
CONTINUOUS
 10
165.1568787886
 20
89.299683964
 11
161.6817476874
 21
87.2831730013
  0
LWPOLYLINE
  5
3C7
100
AcDbEntity
  8
RACCORDO
100
AcDbPolyline
 62
7
  6
CONTINUOUS
 90
10
 70
0
 10
161.6817476874
 20
87.2831730013
 10
161.6258240955
 20
87.2517260985
 10
161.5687002169
 20
87.2220122267
 10
161.510490273
 20
87.1943247907
 10
161.4518504954
 20
87.1690181588
 10
161.3923996386
 20
87.1463109345
 10
161.330753258
 20
87.1264958579
 10
161.266632614
 20
87.1101186148
 10
161.2008339923
 20
87.0977640458
 10
161.1585091674
 20
87.0928738509
  0
LWPOLYLINE
  5
3C8
100
AcDbEntity
  8
0
100
AcDbPolyline
 62
7
  6
CONTINUOUS
 90
19
 70
0
 10
129.5304011058
 20
72.0283054094
 10
129.4434450739
 20
71.9904556697
 10
129.3473126439
 20
71.9717931052
 10
129.2436184683
 20
71.972619602
 10
129.134136783
 20
71.9929210185
 10
129.0207408502
 20
72.0323499919
 10
128.9053709057
 20
72.0902318815
 10
128.7900009611
 20
72.165576312
 10
128.6766050283
 20
72.2570941195
 10
128.5671233431
 20
72.3632194088
 10
128.4634291674
 20
72.4821363469
 10
128.3672967375
 20
72.6118102319
 10
128.2803709057
 20
72.7500223077
 10
128.2041389972
 20
72.8944077274
 10
128.1399053611
 20
73.0424960164
 10
128.0887690526
 20
73.191753343
 10
128.0516050283
 20
73.3396258731
 10
128.0290491749
 20
73.4835834666
 10
128.0214874292
 20
73.6211629691
  0
LINE
  5
3C9
100
AcDbEntity
  8
ASSI
100
AcDbLine
 62
7
  6
CONTINUOUS
 10
129.0909677724
 20
111.6819893967
 11
129.1643358528
 21
111.6967053855
  0
LINE
  5
3CA
100
AcDbEntity
  8
ASSI
100
AcDbLine
 62
7
  6
CONTINUOUS
 10
129.1643358528
 20
111.6967053855
 11
129.2379236616
 21
111.7109147457
  0
LINE
  5
3CB
100
AcDbEntity
  8
ASSI
100
AcDbLine
 62
7
  6
CONTINUOUS
 10
129.2379236616
 20
111.7109147457
 11
129.3117306462
 21
111.7246173735
  0
LWPOLYLINE
  5
3CC
100
AcDbEntity
  8
ASSI
100
AcDbPolyline
 62
7
  6
CONTINUOUS
 90
3
 70
0
 10
129.3117306462
 20
111.7246173735
 10
129.3857545951
 20
111.7378128544
 10
129.4228480693
 20
111.7442204406
  0
LINE
  5
3CD
100
AcDbEntity
  8
ASSI
100
AcDbLine
 62
7
  6
CONTINUOUS
 10
135.2857260329
 20
112.49282387
 11
133.7053273415
 21
112.3888116147
  0
LINE
  5
3CE
100
AcDbEntity
  8
RACCORDO
100
AcDbLine
 62
250
  6
CONTINUOUS
 10
164.6441059713
 20
104.2927295934
 11
166.4659763855
 21
103.2316073622
  0
LINE
  5
3CF
100
AcDbEntity
  8
RACCORDO
100
AcDbLine
 62
7
  6
CONTINUOUS
 10
165.3107144866
 20
104.9165807364
 11
166.0400404868
 21
104.4917952925
  0
LWPOLYLINE
  5
3D0
100
AcDbEntity
  8
SMUSSO
100
AcDbPolyline
 62
7
  6
CONTINUOUS
 90
7
 70
0
 10
157.5389742584
 20
112.754845475
 10
157.4365881754
 20
112.9469873897
 10
157.3333023554
 20
113.1386963962
 10
157.2291167987
 20
113.3299724942
 10
157.1240315051
 20
113.520815684
 10
157.0180464746
 20
113.7112259654
 10
156.9111617073
 20
113.9012033384
  0
LWPOLYLINE
  5
3D1
100
AcDbEntity
  8
0
100
AcDbPolyline
 62
7
  6
CONTINUOUS
 90
6
 70
0
 10
153.9330222929
 20
125.1678867799
 10
153.9122400968
 20
125.2261401755
 10
153.889036778
 20
125.2788883454
 10
153.8640436476
 20
125.3266065827
 10
153.8374362077
 20
125.3692532233
 10
153.8090389561
 20
125.4068699313
  0
LINE
  5
3D2
100
AcDbEntity
  8
0
100
AcDbLine
 62
7
  6
CONTINUOUS
 10
153.9514626223
 20
125.1039759344
 11
153.9330222929
 21
125.1678867799
  0
LINE
  5
3D3
100
AcDbEntity
  8
RACCORDO
100
AcDbLine
 62
7
  6
CONTINUOUS
 10
165.0173450509
 20
89.8656821427
 11
165.0173450509
 21
91.6960868754
  0
LINE
  5
3D4
100
AcDbEntity
  8
RACCORDO
100
AcDbLine
 62
7
  6
CONTINUOUS
 10
165.0173450509
 20
93.9480335266
 11
165.0173450509
 21
95.7784382594
  0
LINE
  5
3D5
100
AcDbEntity
  8
RACCORDO
100
AcDbLine
 62
7
  6
CONTINUOUS
 10
165.0173450509
 20
98.0303849106
 11
165.0173450509
 21
99.8607896434
  0
LINE
  5
3D6
100
AcDbEntity
  8
RACCORDO
100
AcDbLine
 62
250
  6
CONTINUOUS
 10
165.1395937391
 20
97.7380799625
 11
165.1395937391
 21
97.4328937928
  0
LINE
  5
3D7
100
AcDbEntity
  8
RACCORDO
100
AcDbLine
 62
250
  6
CONTINUOUS
 10
165.1395937391
 20
93.6557285786
 11
165.1395937391
 21
93.3505424089
  0
LINE
  5
3D8
100
AcDbEntity
  8
0
100
AcDbLine
 62
250
  6
CONTINUOUS
 10
165.4301622672
 20
104.9879988302
 11
165.4301622672
 21
116.6609314586
  0
LINE
  5
3D9
100
AcDbEntity
  8
SUPERFICI
100
AcDbLine
 62
7
  6
CONTINUOUS
 10
165.7108224668
 20
117.0620210876
 11
165.7108224668
 21
105.3890858672
  0
LINE
  5
3DA
100
AcDbEntity
  8
RACCORDO
100
AcDbLine
 62
7
  6
CONTINUOUS
 10
166.0224183785
 20
90.4995013376
 11
166.0224183785
 21
92.3073300909
  0
LINE
  5
3DB
100
AcDbEntity
  8
RACCORDO
100
AcDbLine
 62
7
  6
CONTINUOUS
 10
166.0224183785
 20
94.5818527215
 11
166.0224183785
 21
96.3896814748
  0
LINE
  5
3DC
100
AcDbEntity
  8
RACCORDO
100
AcDbLine
 62
7
  6
CONTINUOUS
 10
166.0224183785
 20
98.6642041055
 11
166.0224183785
 21
100.4720328588
  0
LWPOLYLINE
  5
3DD
100
AcDbEntity
  8
SUPERFICI
100
AcDbPolyline
 62
250
  6
CONTINUOUS
 90
28
 70
0
 10
165.7108201411
 20
117.0607758327
 10
165.7106216935
 20
117.0504516144
 10
165.7096317598
 20
117.0338531217
 10
165.707815408
 20
117.0172779351
 10
165.7051741409
 20
117.0007397693
 10
165.7017101438
 20
116.9842523077
 10
165.697426283
 20
116.9678291924
 10
165.6923261028
 20
116.9514840117
 10
165.6864138232
 20
116.9352302898
 10
165.6796943361
 20
116.919081475
 10
165.6721732011
 20
116.9030509289
 10
165.6638566412
 20
116.8871519153
 10
165.6547515377
 20
116.871397589
 10
165.6448654242
 20
116.8558009852
 10
165.6342064803
 20
116.8403750087
 10
165.6227835254
 20
116.8251324228
 10
165.6106060108
 20
116.8100858394
 10
165.5976840123
 20
116.7952477081
 10
165.5840282216
 20
116.780630306
 10
165.5696499375
 20
116.7662457276
 10
165.5545610567
 20
116.7521058747
 10
165.5387740637
 20
116.7382224467
 10
165.5223020208
 20
116.7246069308
 10
165.505158557
 20
116.7112705924
 10
165.4873578568
 20
116.6982244663
 10
165.4689146486
 20
116.6854793466
 10
165.4498441924
 20
116.6730457789
 10
165.4301622672
 20
116.6609340506
  0
LWPOLYLINE
  5
3DE
100
AcDbEntity
  8
RACCORDO
100
AcDbPolyline
 62
7
  6
CONTINUOUS
 90
15
 70
0
 10
166.2194816738
 20
88.4101256892
 10
166.2701598999
 20
88.4558377839
 10
166.33324044
 20
88.5197998685
 10
166.3923856774
 20
88.588267819
 10
166.4473718977
 20
88.661089044
 10
166.4981221155
 20
88.7383481899
 10
166.544359771
 20
88.8198668816
 10
166.585792567
 20
88.9053686231
 10
166.6222922584
 20
88.9949080597
 10
166.6536189726
 20
89.088343057
 10
166.6795235156
 20
89.1854198358
 10
166.6998350297
 20
89.2861831395
 10
166.7143293678
 20
89.3905976838
 10
166.7227702634
 20
89.4983952185
 10
166.7250189588
 20
89.5910454196
  0
LWPOLYLINE
  5
3DF
100
AcDbEntity
  8
RACCORDO
100
AcDbPolyline
 62
250
  6
CONTINUOUS
 90
13
 70
0
 10
165.0679513713
 20
89.4306931051
 10
164.9958943742
 20
89.3676851863
 10
164.9226185637
 20
89.305058888
 10
164.84812394
 20
89.2428142102
 10
164.7728459464
 20
89.1812294498
 10
164.6963491395
 20
89.1200263098
 10
164.6173271887
 20
89.0583699001
 10
164.5355695407
 20
88.9960263856
 10
164.4512867488
 20
88.9332296013
 10
164.3638041434
 20
88.8698461624
 10
164.2728968344
 20
88.8058316072
 10
164.1787897118
 20
88.7412303974
 10
164.0814827755
 20
88.676042533
  0
LINE
  5
3E0
100
AcDbEntity
  8
RACCORDO
100
AcDbLine
 62
7
  6
CONTINUOUS
 10
166.2191200396
 20
88.4098157636
 11
166.2194816736
 21
88.4101256896
  0
LWPOLYLINE
  5
3E1
100
AcDbEntity
  8
RACCORDO
100
AcDbPolyline
 62
7
  6
CONTINUOUS
 90
10
 70
0
 10
166.2191200396
 20
88.4098157636
 10
166.0822552883
 20
88.2946996896
 10
165.9436711643
 20
88.182293845
 10
165.8033889707
 20
88.0726098423
 10
165.6614402548
 20
87.9656662523
 10
165.5178371536
 20
87.8614661236
 10
165.3725712804
 20
87.759998921
 10
165.2256537768
 20
87.6612695779
 10
165.0771164206
 20
87.5652965504
 10
164.9269862933
 20
87.4720937996
  0
LWPOLYLINE
  5
3E2
100
AcDbEntity
  8
RACCORDO
100
AcDbPolyline
 62
250
  6
CONTINUOUS
 90
6
 70
0
 10
165.4551222363
 20
87.8190822933
 10
165.586367715
 20
87.9136962543
 10
165.7195710583
 20
88.0133723217
 10
165.8553270131
 20
88.1188822769
 10
165.9927338603
 20
88.2298653818
 10
166.1316384768
 20
88.3465176017
  0
LINE
  5
3E3
100
AcDbEntity
  8
RACCORDO
100
AcDbLine
 62
250
  6
CONTINUOUS
 10
165.3236560735
 20
87.7277666145
 11
165.3725712804
 21
87.759998921
  0
LWPOLYLINE
  5
3E4
100
AcDbEntity
  8
RACCORDO
100
AcDbPolyline
 62
250
  6
CONTINUOUS
 90
3
 70
0
 10
166.1316384768
 20
88.3465176018
 10
166.1896513089
 20
88.3860120776
 10
166.2191200396
 20
88.4098157636
  0
LINE
  5
3E5
100
AcDbEntity
  8
RACCORDO
100
AcDbLine
 62
250
  6
CONTINUOUS
 10
165.1912454386
 20
87.6391772343
 11
165.2256537768
 21
87.6612695779
  0
LWPOLYLINE
  5
3E6
100
AcDbEntity
  8
RACCORDO
100
AcDbPolyline
 62
250
  6
CONTINUOUS
 90
9
 70
0
 10
166.4443587646
 20
89.1900187849
 10
166.5015543542
 20
89.2273092008
 10
166.5529705611
 20
89.2673071813
 10
166.598224719
 20
89.3097150408
 10
166.6369800228
 20
89.3542171576
 10
166.6689480352
 20
89.4004823237
 10
166.6938908335
 20
89.4481662096
 10
166.7116227804
 20
89.496913927
 10
166.7220119054
 20
89.5463626697
  0
LINE
  5
3E7
100
AcDbEntity
  8
RACCORDO
100
AcDbLine
 62
250
  6
CONTINUOUS
 10
165.0587087536
 20
87.5537937619
 11
165.0771164206
 21
87.5652965504
  0
LINE
  5
3E8
100
AcDbEntity
  8
RACCORDO
100
AcDbLine
 62
7
  6
CONTINUOUS
 10
139.3935640115
 20
71.9932805466
 11
164.9261005084
 21
87.47155585
  0
LINE
  5
3E9
100
AcDbEntity
  8
RACCORDO
100
AcDbLine
 62
250
  6
CONTINUOUS
 10
166.4443587646
 20
89.1900187849
 11
139.4059066063
 21
72.8295558278
  0
LINE
  5
3EA
100
AcDbEntity
  8
RACCORDO
100
AcDbLine
 62
250
  6
CONTINUOUS
 10
166.1316384768
 20
88.3465176017
 11
139.3935640115
 21
72.1699349269
  0
LINE
  5
3EB
100
AcDbEntity
  8
ASSI
100
AcDbLine
 62
7
  6
CONTINUOUS
 10
128.3745707099
 20
111.5084062812
 11
128.4353869735
 21
111.5253165301
  0
LINE
  5
3EC
100
AcDbEntity
  8
ASSI
100
AcDbLine
 62
7
  6
CONTINUOUS
 10
128.4353869735
 20
111.5253165301
 11
128.4963751413
 21
111.5418585284
  0
LINE
  5
3ED
100
AcDbEntity
  8
ASSI
100
AcDbLine
 62
7
  6
CONTINUOUS
 10
128.4963751413
 20
111.5418585284
 11
128.5575343211
 21
111.5580320341
  0
LINE
  5
3EE
100
AcDbEntity
  8
ASSI
100
AcDbLine
 62
7
  6
CONTINUOUS
 10
131.2515268315
 20
112.8631821166
 11
131.3186718003
 21
112.8765437148
  0
LINE
  5
3EF
100
AcDbEntity
  8
ASSI
100
AcDbLine
 62
7
  6
CONTINUOUS
 10
131.3186718003
 20
112.8765437148
 11
131.3860007455
 21
112.8894806945
  0
LINE
  5
3F0
100
AcDbEntity
  8
ASSI
100
AcDbLine
 62
7
  6
CONTINUOUS
 10
131.3860007455
 20
112.8894806945
 11
131.4535132423
 21
112.9019929763
  0
LWPOLYLINE
  5
3F1
100
AcDbEntity
  8
ASSI
100
AcDbPolyline
 62
7
  6
CONTINUOUS
 90
3
 70
0
 10
131.4535132423
 20
112.9019929763
 10
131.5212075924
 20
112.9140802426
 10
131.5551230685
 20
112.9199645147
  0
LINE
  5
3F2
100
AcDbEntity
  8
DRAFT
100
AcDbLine
 62
7
  6
CONTINUOUS
 10
156.9111617073
 20
113.9012033384
 11
146.5476850963
 21
119.8849448488
  0
LWPOLYLINE
  5
3F3
100
AcDbEntity
  8
RACCORDO
100
AcDbPolyline
 62
7
  6
CONTINUOUS
 90
12
 70
0
 10
166.4321257454
 20
104.2042706305
 10
166.4807028562
 20
104.1604484338
 10
166.5256829147
 20
104.1153780272
 10
166.566766968
 20
104.0691935386
 10
166.6037039368
 20
104.0221567346
 10
166.6361802789
 20
103.9743156837
 10
166.6638693007
 20
103.9255178048
 10
166.686585691
 20
103.8758946711
 10
166.7041657094
 20
103.8257241585
 10
166.7164437066
 20
103.7751056909
 10
166.7233537804
 20
103.724277497
 10
166.7250189642
 20
103.6842559698
  0
LWPOLYLINE
  5
3F4
100
AcDbEntity
  8
SUPERFICI
100
AcDbPolyline
 62
7
  6
CONTINUOUS
 90
7
 70
0
 10
165.7108201301
 20
117.0607758328
 10
165.6968342839
 20
117.2987103552
 10
165.6584951623
 20
117.5249207951
 10
165.5963646128
 20
117.7520672014
 10
165.5121235775
 20
117.9752582162
 10
165.4071680331
 20
118.1919047508
 10
165.3697726196
 20
118.2588274668
  0
LINE
  5
3F5
100
AcDbEntity
  8
RACCORDO
100
AcDbLine
 62
250
  6
CONTINUOUS
 10
166.4443587646
 20
89.1900187849
 11
166.4443587646
 21
89.2157421459
  0
LINE
  5
3F6
100
AcDbEntity
  8
RACCORDO
100
AcDbLine
 62
250
  6
CONTINUOUS
 10
166.4443587646
 20
92.5639364411
 11
166.4443587646
 21
93.2980935298
  0
LINE
  5
3F7
100
AcDbEntity
  8
RACCORDO
100
AcDbLine
 62
250
  6
CONTINUOUS
 10
166.4443587646
 20
96.6462878251
 11
166.4443587646
 21
97.3804449138
  0
LINE
  5
3F8
100
AcDbEntity
  8
SMUSSO
100
AcDbLine
 62
250
  6
CONTINUOUS
 10
166.4443587646
 20
100.7286392091
 11
166.4443587646
 21
103.21808262
  0
LINE
  5
3F9
100
AcDbEntity
  8
RACCORDO
100
AcDbLine
 62
7
  6
CONTINUOUS
 10
166.7250189643
 20
92.9699374229
 11
166.7250189643
 21
93.6942666221
  0
LINE
  5
3FA
100
AcDbEntity
  8
RACCORDO
100
AcDbLine
 62
7
  6
CONTINUOUS
 10
166.7250189643
 20
97.0522888069
 11
166.7250189643
 21
97.776618006
  0
LINE
  5
3FB
100
AcDbEntity
  8
RACCORDO
100
AcDbLine
 62
7
  6
CONTINUOUS
 10
166.7250189643
 20
101.1346401908
 11
166.7250189643
 21
103.6843089789
  0
LWPOLYLINE
  5
3FC
100
AcDbEntity
  8
RACCORDO
100
AcDbPolyline
 62
7
  6
CONTINUOUS
 90
12
 70
0
 10
166.7250189642
 20
103.6842559698
 10
166.7248976301
 20
103.6734570201
 10
166.7210572456
 20
103.6227210988
 10
166.7117720213
 20
103.5720156375
 10
166.6970595695
 20
103.5218601919
 10
166.6771484531
 20
103.4731786181
 10
166.6522323303
 20
103.4260967734
 10
166.6225382513
 20
103.3808904981
 10
166.5886403954
 20
103.3386407763
 10
166.5510422279
 20
103.2997665423
 10
166.5100278196
 20
103.2640628669
 10
166.4659763855
 20
103.2316073622
  0
LWPOLYLINE
  5
3FD
100
AcDbEntity
  8
RACCORDO
100
AcDbPolyline
 62
7
  6
CONTINUOUS
 90
8
 70
0
 10
165.2373156553
 20
89.3923917823
 10
165.2361721866
 20
89.3883666483
 10
165.2295169502
 20
89.3717674519
 10
165.219948458
 20
89.3554162211
 10
165.2078609698
 20
89.339966866
 10
165.1933859055
 20
89.3256373564
 10
165.1763918451
 20
89.3122097224
 10
165.1568787886
 20
89.299683964
  0
LWPOLYLINE
  5
3FE
100
AcDbEntity
  8
RACCORDO
100
AcDbPolyline
 62
250
  6
CONTINUOUS
 90
7
 70
0
 10
165.1505712741
 20
89.5615477632
 10
165.1412797276
 20
89.5361628729
 10
165.1301968062
 20
89.5122082949
 10
165.1173225098
 20
89.4896840291
 10
165.1026568386
 20
89.4685900755
 10
165.0861997924
 20
89.4489264342
 10
165.0679513713
 20
89.4306931051
  0
LWPOLYLINE
  5
3FF
100
AcDbEntity
  8
RACCORDO
100
AcDbPolyline
 62
250
  6
CONTINUOUS
 90
10
 70
0
 10
166.2629956327
 20
88.4942912103
 10
166.2993187709
 20
88.5527287942
 10
166.3317848858
 20
88.6155372881
 10
166.360520287
 20
88.6831162057
 10
166.385328168
 20
88.7553579084
 10
166.4060256626
 20
88.8321439744
 10
166.4225583899
 20
88.914028821
 10
166.4346690913
 20
89.0011707858
 10
166.4420253948
 20
89.0932219555
 10
166.4443587646
 20
89.1900187849
  0
LINE
  5
400
100
AcDbEntity
  8
RACCORDO
100
AcDbLine
 62
250
  6
CONTINUOUS
 10
166.222807588
 20
88.440252061
 11
166.2629956327
 21
88.4942912103
  0
LWPOLYLINE
  5
401
100
AcDbEntity
  8
RACCORDO
100
AcDbPolyline
 62
250
  6
CONTINUOUS
 90
3
 70
0
 10
166.1316384771
 20
88.3465176012
 10
166.1789768312
 20
88.3909451058
 10
166.222807588
 20
88.440252061
  0
LWPOLYLINE
  5
402
100
AcDbEntity
  8
ASSI
100
AcDbPolyline
 62
250
  6
CONTINUOUS
 90
19
 70
0
 10
133.4460726967
 20
64.9770198668
 10
133.4493336507
 20
64.9786862419
 10
133.461644226
 20
64.9857761547
 10
133.4734151538
 20
64.9938589276
 10
133.4846198002
 20
65.0029162716
 10
133.4952328125
 20
65.0129276929
 10
133.5052301768
 20
65.0238705387
 10
133.5145892723
 20
65.0357200485
 10
133.5232889223
 20
65.0484494107
 10
133.5313094422
 20
65.0620298226
 10
133.5386326841
 20
65.076430556
 10
133.5452420779
 20
65.0916190263
 10
133.5511226685
 20
65.1075608668
 10
133.5562611502
 20
65.1242200061
 10
133.5606458961
 20
65.1415587496
 10
133.564266985
 20
65.1595378652
 10
133.5671162236
 20
65.1781166717
 10
133.569187165
 20
65.1972531311
 10
133.5704751232
 20
65.2169039434
  0
LINE
  5
403
100
AcDbEntity
  8
ASSI
100
AcDbLine
 62
250
  6
CONTINUOUS
 10
139.3935640115
 20
68.1173926576
 11
133.5704751232
 21
65.2169039434
  0
LINE
  5
404
100
AcDbEntity
  8
ASSI
100
AcDbLine
 62
7
  6
CONTINUOUS
 10
139.2809355761
 20
67.8833732224
 11
133.4460726967
 21
64.9770198668
  0
LWPOLYLINE
  5
405
100
AcDbEntity
  8
ASSI
100
AcDbPolyline
 62
250
  6
CONTINUOUS
 90
37
 70
0
 10
133.5704751232
 20
65.2169039434
 10
133.5557209286
 20
65.2099034319
 10
133.54107218
 20
65.2036370239
 10
133.5265288775
 20
65.1981047196
 10
133.5120669481
 20
65.1932996897
 10
133.4977104647
 20
65.1892287634
 10
133.4835316462
 20
65.1859124282
 10
133.4695313485
 20
65.183354488
 10
133.4557087156
 20
65.1815511388
 10
133.4421333987
 20
65.1805114558
 10
133.4288067139
 20
65.180239291
 10
133.415727345
 20
65.1807307924
 10
133.4029609944
 20
65.1819834789
 10
133.3905092006
 20
65.1840011803
 10
133.3783704251
 20
65.1867800668
 10
133.3666057552
 20
65.190306169
 10
133.355217056
 20
65.1945832729
 10
133.3442024625
 20
65.1996075925
 10
133.3336174663
 20
65.2053538
 10
133.3234642639
 20
65.2118255297
 10
133.3137406588
 20
65.2190191474
 10
133.3044955533
 20
65.2268984232
 10
133.2957313791
 20
65.2354667738
 10
133.2874457046
 20
65.2447207825
 10
133.2796801364
 20
65.2546139695
 10
133.2724372115
 20
65.2651497444
 10
133.265714393
 20
65.2763246976
 10
133.2595456774
 20
65.2880821208
 10
133.2539339617
 20
65.3004249053
 10
133.2488763488
 20
65.3133501598
 10
133.2443981444
 20
65.3267925014
 10
133.2405023082
 20
65.3407544086
 10
133.2371858804
 20
65.3552334029
 10
133.2344652873
 20
65.3701566653
 10
133.2323460042
 20
65.385499923
 10
133.2308225558
 20
65.4012874489
 10
133.2298949421
 20
65.417519243
  0
LWPOLYLINE
  5
406
100
AcDbEntity
  8
0
100
AcDbPolyline
 62
7
  6
CONTINUOUS
 90
5
 70
0
 10
153.8662402816
 20
124.9395253828
 10
153.8349047039
 20
124.9320401176
 10
153.8027839361
 20
124.922357353
 10
153.769877978
 20
124.9104770888
 10
153.7361868296
 20
124.8963993252
  0
LINE
  5
407
100
AcDbEntity
  8
0
100
AcDbLine
 62
7
  6
CONTINUOUS
 10
156.0431504693
 20
121.7733901536
 11
153.9140577346
 21
123.0027016148
  0
LWPOLYLINE
  5
408
100
AcDbEntity
  8
0
100
AcDbPolyline
 62
7
  6
CONTINUOUS
 90
5
 70
0
 10
153.8090389561
 20
125.4068699313
 10
153.7789566978
 20
125.440056991
 10
153.7472243675
 20
125.4690144973
 10
153.7138070305
 20
125.4935423554
 10
153.6787046866
 20
125.5136405653
  0
LWPOLYLINE
  5
409
100
AcDbEntity
  8
SUPERFICI
100
AcDbPolyline
 62
250
  6
CONTINUOUS
 90
25
 70
0
 10
165.2064858654
 20
117.6737047922
 10
165.2243934595
 20
117.6304892681
 10
165.2416097471
 20
117.5871830512
 10
165.2581250577
 20
117.5438106236
 10
165.2739300394
 20
117.500396514
 10
165.2890157035
 20
117.4569653128
 10
165.3033735306
 20
117.4135416334
 10
165.3169953954
 20
117.3701500638
 10
165.3298735668
 20
117.3268151666
 10
165.3420007487
 20
117.2835614931
 10
165.3533700906
 20
117.2404135479
 10
165.3639751518
 20
117.1973957575
 10
165.3738099011
 20
117.1545324702
 10
165.3828687947
 20
117.1118479979
 10
165.3911467182
 20
117.0693664908
 10
165.3986389467
 20
117.0271119073
 10
165.4053412842
 20
116.9851081525
 10
165.4112499439
 20
116.943379071
 10
165.4163614916
 20
116.9019483203
 10
165.4206730906
 20
116.8608393488
 10
165.4241823299
 20
116.8200754967
 10
165.4268871155
 20
116.779679983
 10
165.4287859313
 20
116.7396757422
 10
165.4298778268
 20
116.7000854169
 10
165.4301622585
 20
116.6609314535
  0
LWPOLYLINE
  5
40A
100
AcDbEntity
  8
0
100
AcDbPolyline
 62
7
  6
CONTINUOUS
 90
3
 70
0
 10
153.7100078116
 20
125.1426912005
 10
153.7666840132
 20
125.1254092535
 10
153.8011201194
 20
125.1080156492
  0
LWPOLYLINE
  5
40B
100
AcDbEntity
  8
SUPERFICI
100
AcDbPolyline
 62
250
  6
CONTINUOUS
 90
30
 70
0
 10
164.9903119805
 20
118.6475164833
 10
164.9883811595
 20
118.6486178755
 10
164.9745056876
 20
118.6560449682
 10
164.96027104
 20
118.6628223867
 10
164.9456877875
 20
118.668945098
 10
164.9307667595
 20
118.6744085553
 10
164.9155190367
 20
118.6792087015
 10
164.8999559419
 20
118.6833419718
 10
164.8840890326
 20
118.686805297
 10
164.8679300913
 20
118.689596105
 10
164.8514911179
 20
118.6917123235
 10
164.8347843206
 20
118.6931523808
 10
164.8178221061
 20
118.6939152075
 10
164.8006170705
 20
118.6940002373
 10
164.7831819897
 20
118.6934074069
 10
164.7655298103
 20
118.6921371565
 10
164.7476736417
 20
118.6901904294
 10
164.7296267458
 20
118.6875686715
 10
164.7114025256
 20
118.68427383
 10
164.6930145134
 20
118.6803083518
 10
164.6744763628
 20
118.6756751814
 10
164.655801838
 20
118.6703777587
 10
164.6370048093
 20
118.6644200182
 10
164.6180992406
 20
118.657806386
 10
164.5990991481
 20
118.6505417648
 10
164.5800186646
 20
118.6426315575
 10
164.5608720357
 20
118.6340816741
 10
164.5416735059
 20
118.6248984844
 10
164.5224373072
 20
118.615088805
 10
164.5031777244
 20
118.6046599283
  0
LINE
  5
40C
100
AcDbEntity
  8
0
100
AcDbLine
 62
7
  6
CONTINUOUS
 10
153.8434116841
 20
124.0234053367
 11
156.9067994407
 21
122.2546436393
  0
LINE
  5
40D
100
AcDbEntity
  8
DRAFT
100
AcDbLine
 62
7
  6
CONTINUOUS
 10
152.8762907879
 20
124.7298388027
 11
153.9075126111
 21
124.1344242462
  0
LINE
  5
40E
100
AcDbEntity
  8
0
100
AcDbLine
 62
250
  6
CONTINUOUS
 10
164.5031777244
 20
118.6046599283
 11
153.6664489621
 21
124.8616512996
  0
LINE
  5
40F
100
AcDbEntity
  8
0
100
AcDbLine
 62
7
  6
CONTINUOUS
 10
153.7100078116
 20
125.0297320529
 11
153.8662402816
 21
124.9395253828
  0
LINE
  5
410
100
AcDbEntity
  8
SUPERFICI
100
AcDbLine
 62
7
  6
CONTINUOUS
 10
153.8005790168
 20
125.1083287521
 11
164.9908611696
 21
118.6472000842
  0
LINE
  5
411
100
AcDbEntity
  8
0
100
AcDbLine
 62
7
  6
CONTINUOUS
 10
153.4419762128
 20
125.3745278782
 11
153.7100078116
 21
125.2197697924
  0
LWPOLYLINE
  5
412
100
AcDbEntity
  8
SUPERFICI
100
AcDbPolyline
 62
250
  6
CONTINUOUS
 90
31
 70
0
 10
164.5031777244
 20
118.6046599283
 10
164.5218124798
 20
118.5937677143
 10
164.5404263852
 20
118.5823186207
 10
164.5590066872
 20
118.5703204581
 10
164.5775407776
 20
118.5577813309
 10
164.5960158308
 20
118.5447098744
 10
164.614418817
 20
118.5311152839
 10
164.6327370036
 20
118.5170069664
 10
164.6509579646
 20
118.5023945024
 10
164.6690692203
 20
118.487287906
 10
164.6870583635
 20
118.4716975286
 10
164.7049130673
 20
118.4556340507
 10
164.7226210971
 20
118.4391084775
 10
164.7401703199
 20
118.4221321312
 10
164.7575487122
 20
118.4047166434
 10
164.7747443678
 20
118.3868739465
 10
164.7917455051
 20
118.3686162655
 10
164.8085404757
 20
118.3499561095
 10
164.8251177722
 20
118.3309062633
 10
164.8414660362
 20
118.3114797785
 10
164.8575740671
 20
118.2916899656
 10
164.8734308298
 20
118.271550384
 10
164.8890254618
 20
118.2510748334
 10
164.9043472766
 20
118.2302773416
 10
164.9193857727
 20
118.2091721558
 10
164.9341307678
 20
118.1877735511
 10
164.9485720329
 20
118.166096369
 10
164.9626993209
 20
118.1441560279
 10
164.9765028627
 20
118.1219677701
 10
164.9899733471
 20
118.0995466281
 10
165.003101572
 20
118.0769079788
  0
LINE
  5
413
100
AcDbEntity
  8
SUPERFICI
100
AcDbLine
 62
250
  6
CONTINUOUS
 10
165.0160098211
 20
118.0545502108
 11
165.0396366613
 21
118.0132427259
  0
LWPOLYLINE
  5
414
100
AcDbEntity
  8
SUPERFICI
100
AcDbPolyline
 62
250
  6
CONTINUOUS
 90
9
 70
0
 10
165.0396366613
 20
118.0132427259
 10
165.062677175
 20
117.9716275718
 10
165.085118242
 20
117.9297282688
 10
165.1069470831
 20
117.8875683791
 10
165.1281512699
 20
117.8451718588
 10
165.1487187454
 20
117.80256305
 10
165.1686377961
 20
117.759766128
 10
165.1878971233
 20
117.7168052262
 10
165.2064858654
 20
117.6737047922
  0
ARC
  5
415
100
AcDbEntity
  8
SUPERFICI
100
AcDbCircle
 62
7
  6
CONTINUOUS
 10
164.4908370095
 20
117.7811886298
 40
1.0
100
AcDbArc
 50
28.5211121487
 51
60.0347162927
  0
ELLIPSE
  5
416
100
AcDbEntity
  8
ASSI
100
AcDbEllipse
 62
7
  6
CONTINUOUS
 10
139.0399567648
 20
68.321934439
 30
0.0
 11
-0.2498600223
 21
0.43379745
 31
0.0
 40
0.5768037941
 41
-3.1764860629
 42
-2.355482613
  0
ELLIPSE
  5
417
100
AcDbEntity
  8
ASSI
100
AcDbEllipse
 62
7
  6
CONTINUOUS
 10
124.0033752273
 20
112.7641458099
 30
0.0
 11
-0.2498600223
 21
0.43379745
 31
0.0
 40
0.5768037941
 41
-0.7837728977
 42
0.0348934093
  0
ELLIPSE
  5
418
100
AcDbEntity
  8
ASSI
100
AcDbEllipse
 62
7
  6
CONTINUOUS
 10
139.0399567648
 20
104.0822120828
 30
0.0
 11
-0.2496303025
 21
0.4334023309
 31
0.0
 40
0.5778584463
 41
-2.3545649475
 42
-0.7846820092
  0
ELLIPSE
  5
419
100
AcDbEntity
  8
ASSI
100
AcDbEllipse
 62
7
  6
CONTINUOUS
 10
131.9812854038
 20
106.3850609098
 30
0.0
 11
0.4997968968
 21
0.0234982643
 31
0.0
 40
0.6064268933
 41
-2.3845460153
 42
-0.814054275
  0
ELLIPSE
  5
41A
100
AcDbEntity
  8
ASSI
100
AcDbEllipse
 62
7
  6
CONTINUOUS
 10
142.7588391747
 20
107.5219647724
 30
0.0
 11
0.2435694555
 21
0.4367051162
 31
0.0
 40
0.5671693725
 41
-2.347120172
 42
-0.7937771377
  0
ELLIPSE
  5
41B
100
AcDbEntity
  8
ASSI
100
AcDbEllipse
 62
7
  6
CONTINUOUS
 10
-357.8991252077
 20
-193.7023850274
 30
0.0
 11
538.6034906352
 21
342.8574411228
 31
0.0
 40
0.0426638613
 41
-0.440867184
 42
-0.4379170629
  0
ELLIPSE
  5
41C
100
AcDbEntity
  8
ASSI
100
AcDbEllipse
 62
7
  6
CONTINUOUS
 10
-341.989222631
 20
-202.8885633773
 30
0.0
 11
538.6034906352
 21
342.8574411228
 31
0.0
 40
0.0426638613
 41
0.4823643236
 42
0.4853144447
  0
ELLIPSE
  5
41D
100
AcDbEntity
  8
ASSI
100
AcDbEllipse
 62
7
  6
CONTINUOUS
 10
127.4718944028
 20
108.9887267579
 30
0.0
 11
0.4994913699
 21
0.0235167935
 31
0.0
 40
0.6071652398
 41
2.3286828298
 42
3.8991745701
  0
ELLIPSE
  5
41E
100
AcDbEntity
  8
RACCORDO
100
AcDbEllipse
 62
7
  6
CONTINUOUS
 10
166.9225073091
 20
101.894762306
 30
0.0
 11
-1.539201288
 21
2.7010962753
 31
0.0
 40
0.3342829843
 41
-0.761888124
 42
-0.5229898071
  0
ELLIPSE
  5
41F
100
AcDbEntity
  8
RACCORDO
100
AcDbEllipse
 62
7
  6
CONTINUOUS
 10
165.7250189643
 20
92.9648991257
 30
0.0
 11
0.9999901407
 21
0.0076245443
 31
0.0
 40
0.5824033911
 41
-0.7723854459
 42
-0.0044405839
  0
ELLIPSE
  5
420
100
AcDbEntity
  8
RACCORDO
100
AcDbEllipse
 62
7
  6
CONTINUOUS
 10
165.7250189643
 20
97.0472505097
 30
0.0
 11
0.9999901407
 21
0.0076245443
 31
0.0
 40
0.5824033911
 41
-0.7723854459
 42
-0.0044405839
  0
ELLIPSE
  5
421
100
AcDbEntity
  8
RACCORDO
100
AcDbEllipse
 62
7
  6
CONTINUOUS
 10
165.7250189643
 20
101.1296018937
 30
0.0
 11
0.9999901407
 21
0.0076245443
 31
0.0
 40
0.5824033911
 41
-0.7723854459
 42
-0.0044405839
  0
ELLIPSE
  5
422
100
AcDbEntity
  8
DRAFT
100
AcDbEllipse
 62
7
  6
CONTINUOUS
 10
161.7050169895
 20
97.0815700329
 30
0.0
 11
0.9870617226
 21
1.7394999776
 31
0.0
 40
0.5722717666
 41
-2.7611914799
 42
-2.369160648
  0
ELLIPSE
  5
423
100
AcDbEntity
  8
DRAFT
100
AcDbEllipse
 62
7
  6
CONTINUOUS
 10
161.7050169895
 20
92.999218649
 30
0.0
 11
0.9870617226
 21
1.7394999776
 31
0.0
 40
0.5722717666
 41
-2.7611914799
 42
-2.369160648
  0
ELLIPSE
  5
424
100
AcDbEntity
  8
SMUSSO
100
AcDbEllipse
 62
7
  6
CONTINUOUS
 10
157.2921001974
 20
114.2281142057
 30
0.0
 11
-0.2341248175
 21
31.2424301276
 31
0.0
 40
0.0075565085
 41
-1.6662377759
 42
-1.6180264703
  0
ELLIPSE
  5
425
100
AcDbEntity
  8
RACCORDO
100
AcDbEllipse
 62
7
  6
CONTINUOUS
 10
129.9319546517
 20
109.0759064977
 30
0.0
 11
0.5413005334
 21
0.8416911418
 31
0.0
 40
0.6067084637
 41
0.8668757693
 42
1.2508482047
  0
ELLIPSE
  5
426
100
AcDbEntity
  8
RACCORDO
100
AcDbEllipse
 62
7
  6
CONTINUOUS
 10
130.8235133385
 20
109.7758559579
 30
0.0
 11
0.7502241868
 21
-0.0317536877
 31
0.0
 40
0.5464092453
 41
0.807955647
 42
2.3264000782
  0
ELLIPSE
  5
427
100
AcDbEntity
  8
RACCORDO
100
AcDbEllipse
 62
7
  6
CONTINUOUS
 10
166.2348415314
 20
90.3769627431
 30
0.0
 11
-0.1503791627
 21
0.2597538454
 31
0.0
 40
0.5775943014
 41
0.7842436748
 42
2.35458329
  0
ELLIPSE
  5
428
100
AcDbEntity
  8
RACCORDO
100
AcDbEllipse
 62
7
  6
CONTINUOUS
 10
166.2348415314
 20
94.459314127
 30
0.0
 11
-0.1503791627
 21
0.2597538454
 31
0.0
 40
0.5775943014
 41
0.7842436748
 42
2.35458329
  0
ELLIPSE
  5
429
100
AcDbEntity
  8
RACCORDO
100
AcDbEllipse
 62
7
  6
CONTINUOUS
 10
166.2348415314
 20
98.541665511
 30
0.0
 11
-0.1503791627
 21
0.2597538454
 31
0.0
 40
0.5775943014
 41
0.7842436748
 42
2.35458329
  0
ELLIPSE
  5
42A
100
AcDbEntity
  8
ASSI
100
AcDbEllipse
 62
7
  6
CONTINUOUS
 10
162.4373393858
 20
96.6587362595
 30
0.0
 11
0.974277822
 21
1.7468204648
 31
0.0
 40
0.5671693725
 41
0.7857458354
 42
3.9098851964
  0
ELLIPSE
  5
42B
100
AcDbEntity
  8
ASSI
100
AcDbEllipse
 62
7
  6
CONTINUOUS
 10
162.4373393858
 20
92.5763848755
 30
0.0
 11
0.974277822
 21
1.7468204648
 31
0.0
 40
0.5671693725
 41
0.7857458354
 42
3.9098851964
  0
ELLIPSE
  5
42C
100
AcDbEntity
  8
ASSI
100
AcDbEllipse
 62
7
  6
CONTINUOUS
 10
162.4373393858
 20
88.4940334915
 30
0.0
 11
0.974277822
 21
1.7468204648
 31
0.0
 40
0.5671693725
 41
0.7857458354
 42
3.9098851964
  0
ELLIPSE
  5
42D
100
AcDbEntity
  8
RACCORDO
100
AcDbEllipse
 62
7
  6
CONTINUOUS
 10
130.60409723
 20
109.5268572129
 30
0.0
 11
-0.1236171639
 21
0.2146212477
 31
0.0
 40
0.5778584463
 41
-2.3545649475
 42
-0.7846820092
  0
ELLIPSE
  5
42E
100
AcDbEntity
  8
RACCORDO
100
AcDbEllipse
 62
7
  6
CONTINUOUS
 10
161.9361888932
 20
104.7989717831
 30
0.0
 11
3.1087653488
 21
-0.0002532566
 31
0.0
 40
0.3314073625
 41
-0.5134157011
 42
-0.0418856395
  0
ELLIPSE
  5
42F
100
AcDbEntity
  8
RACCORDO
100
AcDbEllipse
 62
7
  6
CONTINUOUS
 10
134.4898444276
 20
107.2832754809
 30
0.0
 11
-0.1237309214
 21
0.214816911
 31
0.0
 40
0.5768037941
 41
-0.3782877895
 42
0.0348936514
  0
ELLIPSE
  5
430
100
AcDbEntity
  8
RACCORDO
100
AcDbEllipse
 62
7
  6
CONTINUOUS
 10
165.7250189643
 20
89.6169535352
 30
0.0
 11
0.9999908055
 21
-0.0074926161
 31
0.0
 40
0.5723275643
 41
5.5195286802
 42
7.0728717145
  0
ELLIPSE
  5
431
100
AcDbEntity
  8
RACCORDO
100
AcDbEllipse
 62
7
  6
CONTINUOUS
 10
165.7250189643
 20
93.6993049192
 30
0.0
 11
0.9999908055
 21
-0.0074926161
 31
0.0
 40
0.5723275643
 41
-0.763656627
 42
0.7896864073
  0
ELLIPSE
  5
432
100
AcDbEntity
  8
RACCORDO
100
AcDbEllipse
 62
7
  6
CONTINUOUS
 10
165.7250189643
 20
97.7816563032
 30
0.0
 11
0.9999908055
 21
-0.0074926161
 31
0.0
 40
0.5723275643
 41
-0.763656627
 42
0.7896864073
  0
ELLIPSE
  5
433
100
AcDbEntity
  8
RACCORDO
100
AcDbEllipse
 62
7
  6
CONTINUOUS
 10
164.8921063657
 20
97.574559234
 30
0.0
 11
0.3499967819
 21
-0.0026224156
 31
0.0
 40
0.5723275643
 41
5.5108020339
 42
6.6964038144
  0
ELLIPSE
  5
434
100
AcDbEntity
  8
RACCORDO
100
AcDbEllipse
 62
7
  6
CONTINUOUS
 10
164.8921063657
 20
93.49220785
 30
0.0
 11
0.3499967819
 21
-0.0026224156
 31
0.0
 40
0.5723275643
 41
5.5108020339
 42
6.6964038144
  0
ELLIPSE
  5
435
100
AcDbEntity
  8
RACCORDO
100
AcDbEllipse
 62
7
  6
CONTINUOUS
 10
165.2297682038
 20
93.8254949321
 30
0.0
 11
-0.1503791627
 21
0.2597538454
 31
0.0
 40
0.5775943014
 41
0.7842436748
 42
1.9166260648
  0
ELLIPSE
  5
436
100
AcDbEntity
  8
RACCORDO
100
AcDbEllipse
 62
7
  6
CONTINUOUS
 10
165.2297682038
 20
97.9078463161
 30
0.0
 11
-0.1503791627
 21
0.2597538454
 31
0.0
 40
0.5775943014
 41
0.7842436748
 42
1.9166260648
  0
ELLIPSE
  5
437
100
AcDbEntity
  8
RACCORDO
100
AcDbEllipse
 62
7
  6
CONTINUOUS
 10
131.1328111225
 20
108.4443181525
 30
0.0
 11
-0.2500120911
 21
0.4330057209
 31
0.0
 40
0.5775075436
 41
0.7855021057
 42
2.355993846
  0
ELLIPSE
  5
438
100
AcDbEntity
  8
RACCORDO
100
AcDbEllipse
 62
7
  6
CONTINUOUS
 10
165.7250189643
 20
104.435795376
 30
0.0
 11
-0.7206795846
 21
1.2169223791
 31
0.0
 40
0.5696898276
 41
-3.1435232799
 42
-3.1118798121
  0
ENDSEC
  0
SECTION
  2
OBJECTS
  0
DICTIONARY
  5
C
100
AcDbDictionary
280
0
281
1
  3
ACAD_GROUP
350
D
  3
ACAD_MLINESTYLE
350
17
  3
ACAD_LAYOUT
350
1A
  3
ACAD_PLOTSETTINGS
350
19
  3
ACAD_PLOTSTYLENAME
350
E
  0
DICTIONARY
  5
D
102
{ACAD_REACTORS
330
C
102
}
100
AcDbDictionary
280
0
281
1
  0
ACDBDICTIONARYWDFLT
  5
E
102
{ACAD_REACTORS
330
C
102
}
100
AcDbDictionary
281
1
  3
Normal
350
F
100
AcDbDictionaryWithDefault
340
F
  0
DICTIONARY
  5
17
102
{ACAD_REACTORS
330
C
102
}
100
AcDbDictionary
280
0
281
1
  3
Standard
350
18
  0
DICTIONARY
  5
19
102
{ACAD_REACTORS
330
C
102
}
100
AcDbDictionary
281
1
  0
DICTIONARY
  5
1A
102
{ACAD_REACTORS
330
C
102
}
100
AcDbDictionary
281
1
  3
Model
350
439
  3
Layout1
350
43A
  0
ACDBPLACEHOLDER
  5
F
102
{ACAD_REACTORS
330
E
102
}
  0
MLINESTYLE
  5
18
102
{ACAD_REACTORS
330
17
102
}
100
AcDbMlineStyle
  2
STANDARD
 70
0
  3

 62
256
 51
90.0
 52
90.0
 71
2
 49
0.5
 62
256
  6
BYLAYER
 49
-0.5
 62
256
  6
BYLAYER
  0
LAYOUT
  5
439
102
{ACAD_REACTORS
330
1A
102
}
100
AcDbPlotSettings
  1

  2
none_device
  4
ISO_A4_(297.00_x_210.00_MM)
  6

 40
0.0
 41
0.0
 42
0.0
 43
0.0
 44
297.0
 45
210.0
 46
0.0
 47
0.0
 48
0.0
 49
0.0
140
0.0
141
0.0
142
1.0
143
1.0
 70
1024
 72
1
 73
0
 74
0
  7

 75
0
147
1.0
148
0.0
149
0.0
100
AcDbLayout
  1
Model
 70
0
 71
0
 10
0.0
 20
0.0
 11
297.0
 21
210.0
 12
0.0
 22
0.0
 32
0.0
 14
0.0
 24
0.0
 34
0.0
 15
0.0
 25
0.0
 35
0.0
146
0.0
 13
0.0
 23
0.0
 33
0.0
 16
1.0
 26
0.0
 36
0.0
 17
0.0
 27
1.0
 37
0.0
 76
0
330
2E0
345
0
346
0
  0
LAYOUT
  5
43A
102
{ACAD_REACTORS
330
1A
102
}
100
AcDbPlotSettings
  1

  2
none_device
  4
ISO_A4_(297.00_x_210.00_MM)
  6

 40
0.0
 41
0.0
 42
0.0
 43
0.0
 44
297.0
 45
210.0
 46
0.0
 47
0.0
 48
0.0
 49
0.0
140
0.0
141
0.0
142
1.0
143
1.0
 70
0
 72
1
 73
0
 74
0
  7

 75
0
147
1.0
148
0.0
149
0.0
100
AcDbLayout
  1
Layout1
 70
0
 71
1
 10
0.0
 20
0.0
 11
297.0
 21
210.0
 12
0.0
 22
0.0
 32
0.0
 14
0.0
 24
0.0
 34
0.0
 15
0.0
 25
0.0
 35
0.0
146
0.0
 13
0.0
 23
0.0
 33
0.0
 16
1.0
 26
0.0
 36
0.0
 17
0.0
 27
1.0
 37
0.0
 76
0
330
2E1
345
0
346
0
  0
ENDSEC
  0
EOF
