  0
SECTION
  2
HEADER
  9
$ACADVER
  1
AC1024
  9
$DWGCODEPAGE
  3
ANSI_1252
  9
$EXTMAX
 10
420.0
 20
297.0
 30
0.0
  9
$EXTMIN
 10
0.0
 20
0.0
 30
0.0
  9
$LIMMIN
 10
0.0
 20
0.0
  9
$LIMMAX
 10
420.0
 20
297.0
  9
$VIEWCTR
 10
210.0
 20
148.5
  9
$VIEWSIZE
 40
297.0
  9
$CLAYER
  8
0
  9
$LTSCALE
 40
23.1
  9
$CELTYPE
  6
BYLAYER
  9
$DIMSCALE
 40
1.0
  9
$DIMASZ
 40
3.0
  9
$DIMEXO
 40
0.5
  9
$DIMDLI
 40
15.96
  9
$DIMEXE
 40
1.5
  9
$DIMCEN
 40
3.78
  9
$DIMLFAC
 40
1.0
  9
$DIMBLK
  1
_FILLED
  9
$DIMALT
 70
0
  9
$DIMALTF
 40
0.0393700787
  9
$DIMTXT
 40
3.0
  9
$DIMTOL
 70
1
  9
$DIMLIM
 70
0
  9
$DIMTFAC
 40
1.0
  9
$DIMTP
 40
0.01
  9
$DIMTM
 40
0.01
  9
$DIMGAP
 40
0.625
  9
$DIMDSEP
 70
44
  9
$AUNITS
 70
0
  9
$PDMODE
 70
3
  9
$PDSIZE
 40
3.0
  9
$HANDSEED
  5
6FC
  9
$TILEMODE
 70
1
  9
$MEASUREMENT
 70
1
  9
$INSUNITS
 70
4
  0
ENDSEC
  0
SECTION
  2
CLASSES
  0
CLASS
  1
ACDBDICTIONARYWDFLT
  2
AcDbDictionaryWithDefault
  3
AutoCAD 2000
 90
0
 91
1
280
0
281
0
  0
CLASS
  1
ACDBPLACEHOLDER
  2
AcDbPlaceHolder
  3
AutoCAD 2000
 90
0
 91
1
280
0
281
0
  0
CLASS
  1
LAYOUT
  2
AcDbLayout
  3
AutoCAD 2000
 90
0
 91
0
280
0
281
0
  0
ENDSEC
  0
SECTION
  2
TABLES
  0
TABLE
  2
VPORT
  5
8
100
AcDbSymbolTable
 70
2
  0
VPORT
  5
1F4
100
AcDbSymbolTableRecord
100
AcDbViewportTableRecord
  2
*ACTIVE
 70
0
 10
0.0
 20
0.0
 11
1.0
 21
1.0
 12
210.0
 22
148.5
 13
0.0
 23
0.0
 14
1.0
 24
1.0
 15
0.0
 25
0.0
 16
0.0
 26
0.0
 36
1.0
 17
0.0
 27
0.0
 37
0.0
 40
297.0
 41
1.4141414141
 42
50.0
 43
0.0
 44
0.0
 50
0.0
 51
0.0
 71
0
 72
100
 73
1
 74
1
 75
0
 76
0
 77
0
 78
0
  0
ENDTAB
  0
TABLE
  2
LTYPE
  5
5
100
AcDbSymbolTable
 70
6
  0
LTYPE
  5
14
100
AcDbSymbolTableRecord
100
AcDbLinetypeTableRecord
  2
BYBLOCK
 70
0
  3

 72
65
 73
0
 40
0.0
  0
LTYPE
  5
15
100
AcDbSymbolTableRecord
100
AcDbLinetypeTableRecord
  2
BYLAYER
 70
0
  3

 72
65
 73
0
 40
0.0
  0
LTYPE
  5
16
100
AcDbSymbolTableRecord
100
AcDbLinetypeTableRecord
  2
CONTINUOUS
 70
64
  3
Solid line
 72
65
 73
0
 40
0.0
  0
LTYPE
  5
1F5
100
AcDbSymbolTableRecord
100
AcDbLinetypeTableRecord
  2
CENTER
 70
64
  3
____ _ ____ _ ____ _ ____ _ ____ _ ____ _ ____
 72
65
 73
4
 40
0.6
 49
0.375
 74
0
 49
-0.075
 74
0
 49
0.075
 74
0
 49
-0.075
 74
0
  0
LTYPE
  5
1F6
100
AcDbSymbolTableRecord
100
AcDbLinetypeTableRecord
  2
HIDDEN
 70
64
  3
- - - - - - - - - - - - - - - - - - - -
 72
65
 73
2
 40
0.2
 49
0.1
 74
0
 49
-0.1
 74
0
  0
LTYPE
  5
1F7
100
AcDbSymbolTableRecord
100
AcDbLinetypeTableRecord
  2
PHANTOM
 70
64
  3
_____ _ _ _____ _ _ _____ _ _ _____
 72
65
 73
6
 40
0.8
 49
0.45
 74
0
 49
-0.05
 74
0
 49
0.1
 74
0
 49
-0.05
 74
0
 49
0.1
 74
0
 49
-0.05
 74
0
  0
LTYPE
  5
1F8
100
AcDbSymbolTableRecord
100
AcDbLinetypeTableRecord
  2
DOT
 70
64
  3
. . . . . . . . . . . . . . . . . . . .
 72
65
 73
2
 40
0.2
 49
0.1
 74
0
 49
-0.1
 74
0
  0
LTYPE
  5
1F9
100
AcDbSymbolTableRecord
100
AcDbLinetypeTableRecord
  2
DASHED
 70
64
  3
- - - - - - - - - - - - - - - - - - - -
 72
65
 73
2
 40
0.2
 49
0.1
 74
0
 49
-0.1
 74
0
  0
ENDTAB
  0
TABLE
  2
LAYER
  5
2
100
AcDbSymbolTable
 70
36
  0
LAYER
  5
10
100
AcDbSymbolTableRecord
100
AcDbLayerTableRecord
  2
0
 70
0
 62
7
  6
CONTINUOUS
370
-3
390
F
  0
LAYER
  5
1FA
100
AcDbSymbolTableRecord
100
AcDbLayerTableRecord
  2
DEFAULT_1
 70
0
 62
7
  6
CENTER
370
-3
390
F
  0
LAYER
  5
1FB
100
AcDbSymbolTableRecord
100
AcDbLayerTableRecord
  2
DEFAULT_2
 70
0
 62
7
  6
HIDDEN
370
-3
390
F
  0
LAYER
  5
1FC
100
AcDbSymbolTableRecord
100
AcDbLayerTableRecord
  2
DEFAULT_3
 70
0
 62
7
  6
PHANTOM
370
-3
390
F
  0
LAYER
  5
1FD
100
AcDbSymbolTableRecord
100
AcDbLayerTableRecord
  2
0402_C_REF_70000
 70
0
 62
7
  6
CONTINUOUS
370
-3
390
F
  0
LAYER
  5
1FE
100
AcDbSymbolTableRecord
100
AcDbLayerTableRecord
  2
0402_C_REF_70000_1
 70
0
 62
7
  6
CONTINUOUS
370
-3
390
F
  0
LAYER
  5
1FF
100
AcDbSymbolTableRecord
100
AcDbLayerTableRecord
  2
0402_C_REF_70000_10
 70
0
 62
7
  6
CONTINUOUS
370
-3
390
F
  0
LAYER
  5
200
100
AcDbSymbolTableRecord
100
AcDbLayerTableRecord
  2
0402_C_REF_70000_11
 70
0
 62
7
  6
CONTINUOUS
370
-3
390
F
  0
LAYER
  5
201
100
AcDbSymbolTableRecord
100
AcDbLayerTableRecord
  2
0402_C_REF_70000_12
 70
0
 62
7
  6
CONTINUOUS
370
-3
390
F
  0
LAYER
  5
202
100
AcDbSymbolTableRecord
100
AcDbLayerTableRecord
  2
0402_C_REF_70000_13
 70
0
 62
7
  6
CONTINUOUS
370
-3
390
F
  0
LAYER
  5
203
100
AcDbSymbolTableRecord
100
AcDbLayerTableRecord
  2
0402_C_REF_70000_14
 70
0
 62
7
  6
CONTINUOUS
370
-3
390
F
  0
LAYER
  5
204
100
AcDbSymbolTableRecord
100
AcDbLayerTableRecord
  2
0402_C_REF_70000_15
 70
0
 62
7
  6
CONTINUOUS
370
-3
390
F
  0
LAYER
  5
205
100
AcDbSymbolTableRecord
100
AcDbLayerTableRecord
  2
0402_C_REF_70000_16
 70
0
 62
7
  6
CONTINUOUS
370
-3
390
F
  0
LAYER
  5
206
100
AcDbSymbolTableRecord
100
AcDbLayerTableRecord
  2
0402_C_REF_70000_17
 70
0
 62
7
  6
CONTINUOUS
370
-3
390
F
  0
LAYER
  5
207
100
AcDbSymbolTableRecord
100
AcDbLayerTableRecord
  2
0402_C_REF_70000_18
 70
0
 62
7
  6
CONTINUOUS
370
-3
390
F
  0
LAYER
  5
208
100
AcDbSymbolTableRecord
100
AcDbLayerTableRecord
  2
0402_C_REF_70000_19
 70
0
 62
7
  6
CONTINUOUS
370
-3
390
F
  0
LAYER
  5
209
100
AcDbSymbolTableRecord
100
AcDbLayerTableRecord
  2
0402_C_REF_70000_2
 70
0
 62
7
  6
CONTINUOUS
370
-3
390
F
  0
LAYER
  5
20A
100
AcDbSymbolTableRecord
100
AcDbLayerTableRecord
  2
0402_C_REF_70000_20
 70
0
 62
7
  6
CONTINUOUS
370
-3
390
F
  0
LAYER
  5
20B
100
AcDbSymbolTableRecord
100
AcDbLayerTableRecord
  2
0402_C_REF_70000_3
 70
0
 62
7
  6
CONTINUOUS
370
-3
390
F
  0
LAYER
  5
20C
100
AcDbSymbolTableRecord
100
AcDbLayerTableRecord
  2
0402_C_REF_70000_4
 70
0
 62
7
  6
CONTINUOUS
370
-3
390
F
  0
LAYER
  5
20D
100
AcDbSymbolTableRecord
100
AcDbLayerTableRecord
  2
0402_C_REF_70000_5
 70
0
 62
7
  6
CONTINUOUS
370
-3
390
F
  0
LAYER
  5
20E
100
AcDbSymbolTableRecord
100
AcDbLayerTableRecord
  2
0402_C_REF_70000_6
 70
0
 62
7
  6
CONTINUOUS
370
-3
390
F
  0
LAYER
  5
20F
100
AcDbSymbolTableRecord
100
AcDbLayerTableRecord
  2
0402_C_REF_70000_7
 70
0
 62
7
  6
CONTINUOUS
370
-3
390
F
  0
LAYER
  5
210
100
AcDbSymbolTableRecord
100
AcDbLayerTableRecord
  2
0402_C_REF_70000_8
 70
0
 62
7
  6
CONTINUOUS
370
-3
390
F
  0
LAYER
  5
211
100
AcDbSymbolTableRecord
100
AcDbLayerTableRecord
  2
0402_C_REF_70000_9
 70
0
 62
7
  6
CONTINUOUS
370
-3
390
F
  0
LAYER
  5
212
100
AcDbSymbolTableRecord
100
AcDbLayerTableRecord
  2
0402_L_REF_55000
 70
0
 62
7
  6
CONTINUOUS
370
-3
390
F
  0
LAYER
  5
213
100
AcDbSymbolTableRecord
100
AcDbLayerTableRecord
  2
0402_R_REF_30000
 70
0
 62
7
  6
CONTINUOUS
370
-3
390
F
  0
LAYER
  5
214
100
AcDbSymbolTableRecord
100
AcDbLayerTableRecord
  2
0402_R_REF_30000_1
 70
0
 62
7
  6
CONTINUOUS
370
-3
390
F
  0
LAYER
  5
215
100
AcDbSymbolTableRecord
100
AcDbLayerTableRecord
  2
0402_R_REF_30000_10
 70
0
 62
7
  6
CONTINUOUS
370
-3
390
F
  0
LAYER
  5
216
100
AcDbSymbolTableRecord
100
AcDbLayerTableRecord
  2
0402_R_REF_30000_11
 70
0
 62
7
  6
CONTINUOUS
370
-3
390
F
  0
LAYER
  5
217
100
AcDbSymbolTableRecord
100
AcDbLayerTableRecord
  2
0402_R_REF_30000_12
 70
0
 62
7
  6
CONTINUOUS
370
-3
390
F
  0
LAYER
  5
218
100
AcDbSymbolTableRecord
100
AcDbLayerTableRecord
  2
0402_R_REF_30000_13
 70
0
 62
7
  6
CONTINUOUS
370
-3
390
F
  0
LAYER
  5
219
100
AcDbSymbolTableRecord
100
AcDbLayerTableRecord
  2
0402_R_REF_30000_14
 70
0
 62
7
  6
CONTINUOUS
370
-3
390
F
  0
LAYER
  5
21A
100
AcDbSymbolTableRecord
100
AcDbLayerTableRecord
  2
0402_R_REF_30000_15
 70
0
 62
7
  6
CONTINUOUS
370
-3
390
F
  0
LAYER
  5
21B
100
AcDbSymbolTableRecord
100
AcDbLayerTableRecord
  2
0402_R_REF_30000_16
 70
0
 62
7
  6
CONTINUOUS
370
-3
390
F
  0
LAYER
  5
21C
100
AcDbSymbolTableRecord
100
AcDbLayerTableRecord
  2
0402_R_REF_30000_17
 70
0
 62
7
  6
CONTINUOUS
370
-3
390
F
  0
LAYER
  5
21D
100
AcDbSymbolTableRecord
100
AcDbLayerTableRecord
  2
0402_R_REF_30000_18
 70
0
 62
7
  6
CONTINUOUS
370
-3
390
F
  0
LAYER
  5
21E
100
AcDbSymbolTableRecord
100
AcDbLayerTableRecord
  2
0402_R_REF_30000_2
 70
0
 62
7
  6
CONTINUOUS
370
-3
390
F
  0
LAYER
  5
21F
100
AcDbSymbolTableRecord
100
AcDbLayerTableRecord
  2
0402_R_REF_30000_3
 70
0
 62
7
  6
CONTINUOUS
370
-3
390
F
  0
LAYER
  5
220
100
AcDbSymbolTableRecord
100
AcDbLayerTableRecord
  2
0402_R_REF_30000_4
 70
0
 62
7
  6
CONTINUOUS
370
-3
390
F
  0
LAYER
  5
221
100
AcDbSymbolTableRecord
100
AcDbLayerTableRecord
  2
0402_R_REF_30000_5
 70
0
 62
7
  6
CONTINUOUS
370
-3
390
F
  0
LAYER
  5
222
100
AcDbSymbolTableRecord
100
AcDbLayerTableRecord
  2
0402_R_REF_30000_6
 70
0
 62
7
  6
CONTINUOUS
370
-3
390
F
  0
LAYER
  5
223
100
AcDbSymbolTableRecord
100
AcDbLayerTableRecord
  2
0402_R_REF_30000_7
 70
0
 62
7
  6
CONTINUOUS
370
-3
390
F
  0
LAYER
  5
224
100
AcDbSymbolTableRecord
100
AcDbLayerTableRecord
  2
0402_R_REF_30000_8
 70
0
 62
7
  6
CONTINUOUS
370
-3
390
F
  0
LAYER
  5
225
100
AcDbSymbolTableRecord
100
AcDbLayerTableRecord
  2
0402_R_REF_30000_9
 70
0
 62
7
  6
CONTINUOUS
370
-3
390
F
  0
LAYER
  5
226
100
AcDbSymbolTableRecord
100
AcDbLayerTableRecord
  2
0603_C_REF_90000
 70
0
 62
7
  6
CONTINUOUS
370
-3
390
F
  0
LAYER
  5
227
100
AcDbSymbolTableRecord
100
AcDbLayerTableRecord
  2
0603_C_REF_90000_1
 70
0
 62
7
  6
CONTINUOUS
370
-3
390
F
  0
LAYER
  5
228
100
AcDbSymbolTableRecord
100
AcDbLayerTableRecord
  2
0603_C_REF_90000_2
 70
0
 62
7
  6
CONTINUOUS
370
-3
390
F
  0
LAYER
  5
229
100
AcDbSymbolTableRecord
100
AcDbLayerTableRecord
  2
0603_C_REF_90000_3
 70
0
 62
7
  6
CONTINUOUS
370
-3
390
F
  0
LAYER
  5
22A
100
AcDbSymbolTableRecord
100
AcDbLayerTableRecord
  2
0603_C_REF_90000_4
 70
0
 62
7
  6
CONTINUOUS
370
-3
390
F
  0
LAYER
  5
22B
100
AcDbSymbolTableRecord
100
AcDbLayerTableRecord
  2
0603_C_REF_90000_5
 70
0
 62
7
  6
CONTINUOUS
370
-3
390
F
  0
LAYER
  5
22C
100
AcDbSymbolTableRecord
100
AcDbLayerTableRecord
  2
0603_R_REF_55000
 70
0
 62
7
  6
CONTINUOUS
370
-3
390
F
  0
LAYER
  5
22D
100
AcDbSymbolTableRecord
100
AcDbLayerTableRecord
  2
0603_R_REF_55000_1
 70
0
 62
7
  6
CONTINUOUS
370
-3
390
F
  0
LAYER
  5
22E
100
AcDbSymbolTableRecord
100
AcDbLayerTableRecord
  2
0603_R_REF_55000_10
 70
0
 62
7
  6
CONTINUOUS
370
-3
390
F
  0
LAYER
  5
22F
100
AcDbSymbolTableRecord
100
AcDbLayerTableRecord
  2
0603_R_REF_55000_11
 70
0
 62
7
  6
CONTINUOUS
370
-3
390
F
  0
LAYER
  5
230
100
AcDbSymbolTableRecord
100
AcDbLayerTableRecord
  2
0603_R_REF_55000_12
 70
0
 62
7
  6
CONTINUOUS
370
-3
390
F
  0
LAYER
  5
231
100
AcDbSymbolTableRecord
100
AcDbLayerTableRecord
  2
0603_R_REF_55000_13
 70
0
 62
7
  6
CONTINUOUS
370
-3
390
F
  0
LAYER
  5
232
100
AcDbSymbolTableRecord
100
AcDbLayerTableRecord
  2
0603_R_REF_55000_2
 70
0
 62
7
  6
CONTINUOUS
370
-3
390
F
  0
LAYER
  5
233
100
AcDbSymbolTableRecord
100
AcDbLayerTableRecord
  2
0603_R_REF_55000_3
 70
0
 62
7
  6
CONTINUOUS
370
-3
390
F
  0
LAYER
  5
234
100
AcDbSymbolTableRecord
100
AcDbLayerTableRecord
  2
0603_R_REF_55000_4
 70
0
 62
7
  6
CONTINUOUS
370
-3
390
F
  0
LAYER
  5
235
100
AcDbSymbolTableRecord
100
AcDbLayerTableRecord
  2
0603_R_REF_55000_5
 70
0
 62
7
  6
CONTINUOUS
370
-3
390
F
  0
LAYER
  5
236
100
AcDbSymbolTableRecord
100
AcDbLayerTableRecord
  2
0603_R_REF_55000_6
 70
0
 62
7
  6
CONTINUOUS
370
-3
390
F
  0
LAYER
  5
237
100
AcDbSymbolTableRecord
100
AcDbLayerTableRecord
  2
0603_R_REF_55000_7
 70
0
 62
7
  6
CONTINUOUS
370
-3
390
F
  0
LAYER
  5
238
100
AcDbSymbolTableRecord
100
AcDbLayerTableRecord
  2
0603_R_REF_55000_8
 70
0
 62
7
  6
CONTINUOUS
370
-3
390
F
  0
LAYER
  5
239
100
AcDbSymbolTableRecord
100
AcDbLayerTableRecord
  2
0603_R_REF_55000_9
 70
0
 62
7
  6
CONTINUOUS
370
-3
390
F
  0
LAYER
  5
23A
100
AcDbSymbolTableRecord
100
AcDbLayerTableRecord
  2
06___PRT_ALL_SURFS_1
 70
0
 62
7
  6
CONTINUOUS
370
-3
390
F
  0
LAYER
  5
23B
100
AcDbSymbolTableRecord
100
AcDbLayerTableRecord
  2
06___PRT_ALL_SURFS_10
 70
0
 62
7
  6
CONTINUOUS
370
-3
390
F
  0
LAYER
  5
23C
100
AcDbSymbolTableRecord
100
AcDbLayerTableRecord
  2
06___PRT_ALL_SURFS_11
 70
0
 62
7
  6
CONTINUOUS
370
-3
390
F
  0
LAYER
  5
23D
100
AcDbSymbolTableRecord
100
AcDbLayerTableRecord
  2
06___PRT_ALL_SURFS_13
 70
0
 62
7
  6
CONTINUOUS
370
-3
390
F
  0
LAYER
  5
23E
100
AcDbSymbolTableRecord
100
AcDbLayerTableRecord
  2
06___PRT_ALL_SURFS_15
 70
0
 62
7
  6
CONTINUOUS
370
-3
390
F
  0
LAYER
  5
23F
100
AcDbSymbolTableRecord
100
AcDbLayerTableRecord
  2
06___PRT_ALL_SURFS_17
 70
0
 62
7
  6
CONTINUOUS
370
-3
390
F
  0
LAYER
  5
240
100
AcDbSymbolTableRecord
100
AcDbLayerTableRecord
  2
06___PRT_ALL_SURFS_3
 70
0
 62
7
  6
CONTINUOUS
370
-3
390
F
  0
LAYER
  5
241
100
AcDbSymbolTableRecord
100
AcDbLayerTableRecord
  2
06___PRT_ALL_SURFS_4
 70
0
 62
7
  6
CONTINUOUS
370
-3
390
F
  0
LAYER
  5
242
100
AcDbSymbolTableRecord
100
AcDbLayerTableRecord
  2
06___PRT_ALL_SURFS_6
 70
0
 62
7
  6
CONTINUOUS
370
-3
390
F
  0
LAYER
  5
243
100
AcDbSymbolTableRecord
100
AcDbLayerTableRecord
  2
06___PRT_ALL_SURFS_7
 70
0
 62
7
  6
CONTINUOUS
370
-3
390
F
  0
LAYER
  5
244
100
AcDbSymbolTableRecord
100
AcDbLayerTableRecord
  2
0805_C_REF_145000
 70
0
 62
7
  6
CONTINUOUS
370
-3
390
F
  0
LAYER
  5
245
100
AcDbSymbolTableRecord
100
AcDbLayerTableRecord
  2
0805_R_REF_60000
 70
0
 62
7
  6
CONTINUOUS
370
-3
390
F
  0
LAYER
  5
246
100
AcDbSymbolTableRecord
100
AcDbLayerTableRecord
  2
1206_C_REF_180000
 70
0
 62
7
  6
CONTINUOUS
370
-3
390
F
  0
LAYER
  5
247
100
AcDbSymbolTableRecord
100
AcDbLayerTableRecord
  2
1206_C_REF_180000_1
 70
0
 62
7
  6
CONTINUOUS
370
-3
390
F
  0
LAYER
  5
248
100
AcDbSymbolTableRecord
100
AcDbLayerTableRecord
  2
1206_C_REF_180000_2
 70
0
 62
7
  6
CONTINUOUS
370
-3
390
F
  0
LAYER
  5
249
100
AcDbSymbolTableRecord
100
AcDbLayerTableRecord
  2
2512_R_H1_REF_100000
 70
0
 62
7
  6
CONTINUOUS
370
-3
390
F
  0
LAYER
  5
24A
100
AcDbSymbolTableRecord
100
AcDbLayerTableRecord
  2
43000895A0
 70
0
 62
7
  6
CONTINUOUS
370
-3
390
F
  0
LAYER
  5
24B
100
AcDbSymbolTableRecord
100
AcDbLayerTableRecord
  2
43000896C0
 70
0
 62
7
  6
CONTINUOUS
370
-3
390
F
  0
LAYER
  5
24C
100
AcDbSymbolTableRecord
100
AcDbLayerTableRecord
  2
ASSI
 70
0
 62
7
  6
CONTINUOUS
370
-3
390
F
  0
LAYER
  5
24D
100
AcDbSymbolTableRecord
100
AcDbLayerTableRecord
  2
CAP-E-SMD-8_3-8_3-10_5_1050000
 70
0
 62
7
  6
CONTINUOUS
370
-3
390
F
  0
LAYER
  5
24E
100
AcDbSymbolTableRecord
100
AcDbLayerTableRecord
  2
CAP-E-SMD-8_3-8_3-10_5_105000_1
 70
0
 62
7
  6
CONTINUOUS
370
-3
390
F
  0
LAYER
  5
24F
100
AcDbSymbolTableRecord
100
AcDbLayerTableRecord
  2
COLOR15
 70
0
 62
7
  6
CONTINUOUS
370
-3
390
F
  0
LAYER
  5
250
100
AcDbSymbolTableRecord
100
AcDbLayerTableRecord
  2
COLOR6
 70
0
 62
7
  6
CONTINUOUS
370
-3
390
F
  0
LAYER
  5
251
100
AcDbSymbolTableRecord
100
AcDbLayerTableRecord
  2
COORDINATE
 70
0
 62
7
  6
CONTINUOUS
370
-3
390
F
  0
LAYER
  5
252
100
AcDbSymbolTableRecord
100
AcDbLayerTableRecord
  2
COORD_ORIGINE
 70
0
 62
7
  6
CONTINUOUS
370
-3
390
F
  0
LAYER
  5
253
100
AcDbSymbolTableRecord
100
AcDbLayerTableRecord
  2
COPY_PUBLISH
 70
0
 62
7
  6
CONTINUOUS
370
-3
390
F
  0
LAYER
  5
254
100
AcDbSymbolTableRecord
100
AcDbLayerTableRecord
  2
COSMETICI
 70
0
 62
7
  6
CONTINUOUS
370
-3
390
F
  0
LAYER
  5
255
100
AcDbSymbolTableRecord
100
AcDbLayerTableRecord
  2
CURVE
 70
0
 62
7
  6
CONTINUOUS
370
-3
390
F
  0
LAYER
  5
256
100
AcDbSymbolTableRecord
100
AcDbLayerTableRecord
  2
DL_RGB_1_6-1_6-0_5MM_50000
 70
0
 62
7
  6
CONTINUOUS
370
-3
390
F
  0
LAYER
  5
257
100
AcDbSymbolTableRecord
100
AcDbLayerTableRecord
  2
DL_RGB_1_6-1_6-0_5MM_50000_1
 70
0
 62
7
  6
CONTINUOUS
370
-3
390
F
  0
LAYER
  5
258
100
AcDbSymbolTableRecord
100
AcDbLayerTableRecord
  2
DRAFT
 70
0
 62
7
  6
CONTINUOUS
370
-3
390
F
  0
LAYER
  5
259
100
AcDbSymbolTableRecord
100
AcDbLayerTableRecord
  2
E4_MARK_10000
 70
0
 62
7
  6
CONTINUOUS
370
-3
390
F
  0
LAYER
  5
25A
100
AcDbSymbolTableRecord
100
AcDbLayerTableRecord
  2
FIDUCIAL_1MM_0
 70
0
 62
7
  6
CONTINUOUS
370
-3
390
F
  0
LAYER
  5
25B
100
AcDbSymbolTableRecord
100
AcDbLayerTableRecord
  2
FIDUCIAL_1MM_0_1
 70
0
 62
7
  6
CONTINUOUS
370
-3
390
F
  0
LAYER
  5
25C
100
AcDbSymbolTableRecord
100
AcDbLayerTableRecord
  2
FIDUCIAL_1MM_0_2
 70
0
 62
7
  6
CONTINUOUS
370
-3
390
F
  0
LAYER
  5
25D
100
AcDbSymbolTableRecord
100
AcDbLayerTableRecord
  2
FIDUCIAL_1MM_0_3
 70
0
 62
7
  6
CONTINUOUS
370
-3
390
F
  0
LAYER
  5
25E
100
AcDbSymbolTableRecord
100
AcDbLayerTableRecord
  2
FIDUCIAL_1_2_MM_RUOTATO_45_1000
 70
0
 62
7
  6
CONTINUOUS
370
-3
390
F
  0
LAYER
  5
25F
100
AcDbSymbolTableRecord
100
AcDbLayerTableRecord
  2
FIDUCIAL_1_2_MM_RUOTATO_45_10_1
 70
0
 62
7
  6
CONTINUOUS
370
-3
390
F
  0
LAYER
  5
260
100
AcDbSymbolTableRecord
100
AcDbLayerTableRecord
  2
FIDUCIAL_1_2_MM_RUOTATO_45_10_2
 70
0
 62
7
  6
CONTINUOUS
370
-3
390
F
  0
LAYER
  5
261
100
AcDbSymbolTableRecord
100
AcDbLayerTableRecord
  2
FIDUCIAL_1_2_MM_RUOTATO_45_10_3
 70
0
 62
7
  6
CONTINUOUS
370
-3
390
F
  0
LAYER
  5
262
100
AcDbSymbolTableRecord
100
AcDbLayerTableRecord
  2
GEOMETRIA_SOLIDA
 70
0
 62
7
  6
CONTINUOUS
370
-3
390
F
  0
LAYER
  5
263
100
AcDbSymbolTableRecord
100
AcDbLayerTableRecord
  2
GEOMETRIA_SOLIDA_1
 70
0
 62
7
  6
CONTINUOUS
370
-3
390
F
  0
LAYER
  5
264
100
AcDbSymbolTableRecord
100
AcDbLayerTableRecord
  2
GEOMETRIA_SOLIDA_2
 70
0
 62
7
  6
CONTINUOUS
370
-3
390
F
  0
LAYER
  5
265
100
AcDbSymbolTableRecord
100
AcDbLayerTableRecord
  2
GEOMETRIA_SOLIDA_3
 70
0
 62
7
  6
CONTINUOUS
370
-3
390
F
  0
LAYER
  5
266
100
AcDbSymbolTableRecord
100
AcDbLayerTableRecord
  2
GEOMETRIA_SOLIDA_4
 70
0
 62
7
  6
CONTINUOUS
370
-3
390
F
  0
LAYER
  5
267
100
AcDbSymbolTableRecord
100
AcDbLayerTableRecord
  2
IGES
 70
0
 62
7
  6
CONTINUOUS
370
-3
390
F
  0
LAYER
  5
268
100
AcDbSymbolTableRecord
100
AcDbLayerTableRecord
  2
IMPORT
 70
0
 62
7
  6
CONTINUOUS
370
-3
390
F
  0
LAYER
  5
269
100
AcDbSymbolTableRecord
100
AcDbLayerTableRecord
  2
IMPORT_IGES
 70
0
 62
7
  6
CONTINUOUS
370
-3
390
F
  0
LAYER
  5
26A
100
AcDbSymbolTableRecord
100
AcDbLayerTableRecord
  2
IMPORT_IGES_3
 70
0
 62
7
  6
CONTINUOUS
370
-3
390
F
  0
LAYER
  5
26B
100
AcDbSymbolTableRecord
100
AcDbLayerTableRecord
  2
IND-CHIP-0805_H1_2_REF_140000
 70
0
 62
7
  6
CONTINUOUS
370
-3
390
F
  0
LAYER
  5
26C
100
AcDbSymbolTableRecord
100
AcDbLayerTableRecord
  2
INTF_1
 70
0
 62
7
  6
CONTINUOUS
370
-3
390
F
  0
LAYER
  5
26D
100
AcDbSymbolTableRecord
100
AcDbLayerTableRecord
  2
INTF_11
 70
0
 62
7
  6
CONTINUOUS
370
-3
390
F
  0
LAYER
  5
26E
100
AcDbSymbolTableRecord
100
AcDbLayerTableRecord
  2
INTF_2
 70
0
 62
7
  6
CONTINUOUS
370
-3
390
F
  0
LAYER
  5
26F
100
AcDbSymbolTableRecord
100
AcDbLayerTableRecord
  2
INTF_CYAN
 70
0
 62
7
  6
CONTINUOUS
370
-3
390
F
  0
LAYER
  5
270
100
AcDbSymbolTableRecord
100
AcDbLayerTableRecord
  2
INTF_GREEN
 70
0
 62
7
  6
CONTINUOUS
370
-3
390
F
  0
LAYER
  5
271
100
AcDbSymbolTableRecord
100
AcDbLayerTableRecord
  2
LOGO_RESIST-RESTYLING_10000
 70
0
 62
7
  6
CONTINUOUS
370
-3
390
F
  0
LAYER
  5
272
100
AcDbSymbolTableRecord
100
AcDbLayerTableRecord
  2
MINIMELF_R_REF_140000
 70
0
 62
7
  6
CONTINUOUS
370
-3
390
F
  0
LAYER
  5
273
100
AcDbSymbolTableRecord
100
AcDbLayerTableRecord
  2
MINIMELF_R_REF_140000_1
 70
0
 62
7
  6
CONTINUOUS
370
-3
390
F
  0
LAYER
  5
274
100
AcDbSymbolTableRecord
100
AcDbLayerTableRecord
  2
MINIMELF_R_REF_140000_2
 70
0
 62
7
  6
CONTINUOUS
370
-3
390
F
  0
LAYER
  5
275
100
AcDbSymbolTableRecord
100
AcDbLayerTableRecord
  2
MINIMELF_R_REF_140000_3
 70
0
 62
7
  6
CONTINUOUS
370
-3
390
F
  0
LAYER
  5
276
100
AcDbSymbolTableRecord
100
AcDbLayerTableRecord
  2
MM2-SWITCH-1-VIMAR_150000
 70
0
 62
7
  6
CONTINUOUS
370
-3
390
F
  0
LAYER
  5
277
100
AcDbSymbolTableRecord
100
AcDbLayerTableRecord
  2
NO-PB_MARK_10000
 70
0
 62
7
  6
CONTINUOUS
370
-3
390
F
  0
LAYER
  5
278
100
AcDbSymbolTableRecord
100
AcDbLayerTableRecord
  2
NOTE
 70
0
 62
7
  6
CONTINUOUS
370
-3
390
F
  0
LAYER
  5
279
100
AcDbSymbolTableRecord
100
AcDbLayerTableRecord
  2
PIANI
 70
0
 62
7
  6
CONTINUOUS
370
-3
390
F
  0
LAYER
  5
27A
100
AcDbSymbolTableRecord
100
AcDbLayerTableRecord
  2
PIANI_DI_RIFERIMENTO
 70
0
 62
7
  6
CONTINUOUS
370
-3
390
F
  0
LAYER
  5
27B
100
AcDbSymbolTableRecord
100
AcDbLayerTableRecord
  2
PIANI_ORIGINE
 70
0
 62
7
  6
CONTINUOUS
370
-3
390
F
  0
LAYER
  5
27C
100
AcDbSymbolTableRecord
100
AcDbLayerTableRecord
  2
PIANI_RIFERIMENTO
 70
0
 62
7
  6
CONTINUOUS
370
-3
390
F
  0
LAYER
  5
27D
100
AcDbSymbolTableRecord
100
AcDbLayerTableRecord
  2
PUNTI
 70
0
 62
7
  6
CONTINUOUS
370
-3
390
F
  0
LAYER
  5
27E
100
AcDbSymbolTableRecord
100
AcDbLayerTableRecord
  2
RACCORDO
 70
0
 62
7
  6
CONTINUOUS
370
-3
390
F
  0
LAYER
  5
27F
100
AcDbSymbolTableRecord
100
AcDbLayerTableRecord
  2
RGB__255__255__255__
 70
0
 62
7
  6
CONTINUOUS
370
-3
390
F
  0
LAYER
  5
280
100
AcDbSymbolTableRecord
100
AcDbLayerTableRecord
  2
RGB____0____0____0__
 70
0
 62
7
  6
CONTINUOUS
370
-3
390
F
  0
LAYER
  5
281
100
AcDbSymbolTableRecord
100
AcDbLayerTableRecord
  2
SC88-6_REF_H1_1_110000
 70
0
 62
7
  6
CONTINUOUS
370
-3
390
F
  0
LAYER
  5
282
100
AcDbSymbolTableRecord
100
AcDbLayerTableRecord
  2
SC88-6_REF_H1_1_110000_1
 70
0
 62
7
  6
CONTINUOUS
370
-3
390
F
  0
LAYER
  5
283
100
AcDbSymbolTableRecord
100
AcDbLayerTableRecord
  2
SC88-6_REF_H1_1_110000_2
 70
0
 62
7
  6
CONTINUOUS
370
-3
390
F
  0
LAYER
  5
284
100
AcDbSymbolTableRecord
100
AcDbLayerTableRecord
  2
SIMBOLI
 70
0
 62
7
  6
CONTINUOUS
370
-3
390
F
  0
LAYER
  5
285
100
AcDbSymbolTableRecord
100
AcDbLayerTableRecord
  2
SKETCH
 70
0
 62
7
  6
CONTINUOUS
370
-3
390
F
  0
LAYER
  5
286
100
AcDbSymbolTableRecord
100
AcDbLayerTableRecord
  2
SMUSSO
 70
0
 62
7
  6
CONTINUOUS
370
-3
390
F
  0
LAYER
  5
287
100
AcDbSymbolTableRecord
100
AcDbLayerTableRecord
  2
SOD123_REF_140000
 70
0
 62
7
  6
CONTINUOUS
370
-3
390
F
  0
LAYER
  5
288
100
AcDbSymbolTableRecord
100
AcDbLayerTableRecord
  2
SOD123_REF_140000_1
 70
0
 62
7
  6
CONTINUOUS
370
-3
390
F
  0
LAYER
  5
289
100
AcDbSymbolTableRecord
100
AcDbLayerTableRecord
  2
SOT23-5_REF_H1_5_150000
 70
0
 62
7
  6
CONTINUOUS
370
-3
390
F
  0
LAYER
  5
28A
100
AcDbSymbolTableRecord
100
AcDbLayerTableRecord
  2
SOT323_H1_1_REF_110000
 70
0
 62
7
  6
CONTINUOUS
370
-3
390
F
  0
LAYER
  5
28B
100
AcDbSymbolTableRecord
100
AcDbLayerTableRecord
  2
SOT323_H1_1_REF_110000_1
 70
0
 62
7
  6
CONTINUOUS
370
-3
390
F
  0
LAYER
  5
28C
100
AcDbSymbolTableRecord
100
AcDbLayerTableRecord
  2
SOT323_H1_1_REF_110000_2
 70
0
 62
7
  6
CONTINUOUS
370
-3
390
F
  0
LAYER
  5
28D
100
AcDbSymbolTableRecord
100
AcDbLayerTableRecord
  2
SOT323_H1_1_REF_110000_3
 70
0
 62
7
  6
CONTINUOUS
370
-3
390
F
  0
LAYER
  5
28E
100
AcDbSymbolTableRecord
100
AcDbLayerTableRecord
  2
SOT89_REF_H1_6_160000
 70
0
 62
7
  6
CONTINUOUS
370
-3
390
F
  0
LAYER
  5
28F
100
AcDbSymbolTableRecord
100
AcDbLayerTableRecord
  2
SUB_SMA_143000
 70
0
 62
7
  6
CONTINUOUS
370
-3
390
F
  0
LAYER
  5
290
100
AcDbSymbolTableRecord
100
AcDbLayerTableRecord
  2
SUB_SMA_143000_1
 70
0
 62
7
  6
CONTINUOUS
370
-3
390
F
  0
LAYER
  5
291
100
AcDbSymbolTableRecord
100
AcDbLayerTableRecord
  2
SUB_SMA_143000_2
 70
0
 62
7
  6
CONTINUOUS
370
-3
390
F
  0
LAYER
  5
292
100
AcDbSymbolTableRecord
100
AcDbLayerTableRecord
  2
SUB_SMA_143000_3
 70
0
 62
7
  6
CONTINUOUS
370
-3
390
F
  0
LAYER
  5
293
100
AcDbSymbolTableRecord
100
AcDbLayerTableRecord
  2
SUB_SMA_143000_4
 70
0
 62
7
  6
CONTINUOUS
370
-3
390
F
  0
LAYER
  5
294
100
AcDbSymbolTableRecord
100
AcDbLayerTableRecord
  2
SUPERFICI
 70
0
 62
7
  6
CONTINUOUS
370
-3
390
F
  0
LAYER
  5
295
100
AcDbSymbolTableRecord
100
AcDbLayerTableRecord
  2
SWITCH_SKRP_250000
 70
0
 62
7
  6
CONTINUOUS
370
-3
390
F
  0
LAYER
  5
296
100
AcDbSymbolTableRecord
100
AcDbLayerTableRecord
  2
SWITCH_SKRP_250000_1
 70
0
 62
7
  6
CONTINUOUS
370
-3
390
F
  0
LAYER
  5
297
100
AcDbSymbolTableRecord
100
AcDbLayerTableRecord
  2
SWITCH_SKRP_250000_2
 70
0
 62
7
  6
CONTINUOUS
370
-3
390
F
  0
LAYER
  5
298
100
AcDbSymbolTableRecord
100
AcDbLayerTableRecord
  2
TP-RND-1_0_3500
 70
0
 62
7
  6
CONTINUOUS
370
-3
390
F
  0
LAYER
  5
299
100
AcDbSymbolTableRecord
100
AcDbLayerTableRecord
  2
TP-RND-1_5_1000
 70
0
 62
7
  6
CONTINUOUS
370
-3
390
F
  0
LAYER
  5
29A
100
AcDbSymbolTableRecord
100
AcDbLayerTableRecord
  2
TP_PROGRAMMAZIONE_SWD_D1_5_1000
 70
0
 62
7
  6
CONTINUOUS
370
-3
390
F
  0
LAYER
  5
29B
100
AcDbSymbolTableRecord
100
AcDbLayerTableRecord
  2
TRASH
 70
0
 62
7
  6
CONTINUOUS
370
-3
390
F
  0
LAYER
  5
29C
100
AcDbSymbolTableRecord
100
AcDbLayerTableRecord
  2
TSSOP8-3_0-6_4-1_2-REF_120000
 70
0
 62
7
  6
CONTINUOUS
370
-3
390
F
  0
LAYER
  5
29D
100
AcDbSymbolTableRecord
100
AcDbLayerTableRecord
  2
VG_CN-M-THT-P5_0-R1-P5-SET-H14_
 70
0
 62
7
  6
CONTINUOUS
370
-3
390
F
  0
LAYER
  5
29E
100
AcDbSymbolTableRecord
100
AcDbLayerTableRecord
  2
VG_CN-MEZZANINE-F-SMT-P0_8-R2-P
 70
0
 62
7
  6
CONTINUOUS
370
-3
390
F
  0
LAYER
  5
29F
100
AcDbSymbolTableRecord
100
AcDbLayerTableRecord
  2
VG_CN-MEZZANINE-M-SMT-P0_8-R2-P
 70
0
 62
7
  6
CONTINUOUS
370
-3
390
F
  0
LAYER
  5
2A0
100
AcDbSymbolTableRecord
100
AcDbLayerTableRecord
  2
VG_IND-SMT-4_0-4_0-2_5-1_55-3_6
 70
0
 62
7
  6
CONTINUOUS
370
-3
390
F
  0
LAYER
  5
2A1
100
AcDbSymbolTableRecord
100
AcDbLayerTableRecord
  2
VG_IND-SMT-8_0-8_0-6_5-4_0-6_3-
 70
0
 62
7
  6
CONTINUOUS
370
-3
390
F
  0
LAYER
  5
2A2
100
AcDbSymbolTableRecord
100
AcDbLayerTableRecord
  2
VG_K-THT-HONGFA-HF49FD-5_08_128
 70
0
 62
7
  6
CONTINUOUS
370
-3
390
F
  0
LAYER
  5
2A3
100
AcDbSymbolTableRecord
100
AcDbLayerTableRecord
  2
VG_K-THT-HONGFA-HF49FD-5_08_1_1
 70
0
 62
7
  6
CONTINUOUS
370
-3
390
F
  0
LAYER
  5
2A4
100
AcDbSymbolTableRecord
100
AcDbLayerTableRecord
  2
VG_PTC-6_5-10_0-5_0-5_0-0-0_6_1
 70
0
 62
7
  6
CONTINUOUS
370
-3
390
F
  0
LAYER
  5
2A5
100
AcDbSymbolTableRecord
100
AcDbLayerTableRecord
  2
VG_QFN48-6_0-6_0-6_0-6_0-1_0-0_
 70
0
 62
7
  6
CONTINUOUS
370
-3
390
F
  0
LAYER
  5
2A6
100
AcDbSymbolTableRecord
100
AcDbLayerTableRecord
  2
VG_SOT23_H1_2_REF_120000
 70
0
 62
7
  6
CONTINUOUS
370
-3
390
F
  0
LAYER
  5
2A7
100
AcDbSymbolTableRecord
100
AcDbLayerTableRecord
  2
VG_VAR_S05_D7_S4_3_H8_5_850000
 70
0
 62
7
  6
CONTINUOUS
370
-3
390
F
  0
LAYER
  5
2A8
100
AcDbSymbolTableRecord
100
AcDbLayerTableRecord
  2
VG_X-SMT-2-3_2-1_5-1_0_100000
 70
0
 62
7
  6
CONTINUOUS
370
-3
390
F
  0
LAYER
  5
2A9
100
AcDbSymbolTableRecord
100
AcDbLayerTableRecord
  2
VG_X-SMT-2-5_0-3_2-1_5_150000
 70
0
 62
7
  6
CONTINUOUS
370
-3
390
F
  0
LAYER
  5
2AA
100
AcDbSymbolTableRecord
100
AcDbLayerTableRecord
  2
XSEC_DATUMS
 70
0
 62
7
  6
CONTINUOUS
370
-3
390
F
  0
LAYER
  5
2AB
100
AcDbSymbolTableRecord
100
AcDbLayerTableRecord
  2
___SHELL
 70
0
 62
7
  6
CONTINUOUS
370
-3
390
F
  0
ENDTAB
  0
TABLE
  2
STYLE
  5
3
100
AcDbSymbolTable
 70
1
  0
STYLE
  5
11
100
AcDbSymbolTableRecord
100
AcDbTextStyleTableRecord
  2
STANDARD
 70
0
 40
0.0
 41
0.8
 50
0.0
 71
0
 42
0.2
  3
txt
  4

  0
STYLE
  5
2AC
100
AcDbSymbolTableRecord
100
AcDbTextStyleTableRecord
  2
TEXTSTYLE_1
 70
0
 40
0.0
 41
0.8
 50
0.0
 71
0
 42
0.2
  3
gdt
  4

  0
ENDTAB
  0
TABLE
  2
VIEW
  5
6
100
AcDbSymbolTable
 70
0
  0
ENDTAB
  0
TABLE
  2
UCS
  5
7
100
AcDbSymbolTable
 70
0
  0
ENDTAB
  0
TABLE
  2
APPID
  5
9
100
AcDbSymbolTable
 70
1
  0
APPID
  5
2AD
100
AcDbSymbolTableRecord
100
AcDbRegAppTableRecord
  2
ACAD
 70
0
  0
ENDTAB
  0
TABLE
  2
BLOCK_RECORD
  5
1
100
AcDbSymbolTable
 70
0
  0
BLOCK_RECORD
  5
2AE
100
AcDbSymbolTableRecord
100
AcDbBlockTableRecord
  2
*Model_Space
  0
BLOCK_RECORD
  5
2AF
100
AcDbSymbolTableRecord
100
AcDbBlockTableRecord
  2
*Paper_Space
  0
BLOCK_RECORD
  5
2B0
100
AcDbSymbolTableRecord
100
AcDbBlockTableRecord
  2
_FILLED
  0
ENDTAB
  0
TABLE
  2
DIMSTYLE
  5
A
100
AcDbSymbolTable
 70
1
100
AcDbDimStyleTable
 71
0
  0
DIMSTYLE
105
2B1
100
AcDbSymbolTableRecord
100
AcDbDimStyleTableRecord
  2
STANDARD
 70
0
  3

  4

 40
1.0
 41
3.0
 42
0.5
 43
0.38
 44
1.5
 45
0.0
 46
0.0
 47
0.01
 48
0.01
140
3.0
141
0.09
142
0.0
143
25.4
144
1.0
145
0.0
146
1.0
147
0.625
 71
1
 72
0
 73
0
 74
0
 75
0
 76
0
 77
1
 78
8
 79
2
170
0
171
1
172
0
173
0
174
0
175
0
176
0
177
0
178
0
270
2
179
2
271
2
272
2
273
2
274
2
275
0
280
0
281
0
282
0
283
1
284
8
285
0
286
0
287
3
288
0
340
11
278
44
341
2B0
342
2B0
343
2B0
344
2B0
  0
ENDTAB
  0
ENDSEC
  0
SECTION
  2
BLOCKS
  0
BLOCK
  5
20
100
AcDbEntity
  8
0
100
AcDbBlockBegin
  2
*Model_Space
 70
0
 10
0.0
 20
0.0
 30
0.0
  3
*Model_Space
  1

  0
ENDBLK
  5
21
100
AcDbEntity
  8
0
100
AcDbBlockEnd
  0
BLOCK
  5
1C
100
AcDbEntity
  8
0
100
AcDbBlockBegin
  2
*Paper_Space
 70
0
 10
0.0
 20
0.0
 30
0.0
  3
*Paper_Space
  1

  0
ENDBLK
  5
1D
100
AcDbEntity
  8
0
100
AcDbBlockEnd
  0
BLOCK
  5
2B2
100
AcDbEntity
  8
0
100
AcDbBlockBegin
  2
_FILLED
 70
64
 10
0.0
 20
0.0
  3
_FILLED
  1

  0
SOLID
  5
2B3
100
AcDbEntity
  8
0
  6
BYBLOCK
 62
0
100
AcDbTrace
 10
0.0
 20
0.0
 11
-1.0
 21
0.3166666667
 12
-1.0
 22
-0.3166666667
 13
-1.0
 23
-0.3166666667
  0
ENDBLK
  5
2B4
100
AcDbEntity
  8
0
  6
BYBLOCK
 62
0
100
AcDbBlockEnd
  0
ENDSEC
  0
SECTION
  2
ENTITIES
  0
LWPOLYLINE
  5
2B5
100
AcDbEntity
  8
0
100
AcDbPolyline
 62
250
  6
CONTINUOUS
 90
4
 70
0
 10
9.9857011461
 20
-33.7671255598
 10
10.0075165612
 20
-33.7670334484
 10
10.0279827411
 20
-33.7638500159
 10
10.047191687
 20
-33.757744699
  0
LWPOLYLINE
  5
2B6
100
AcDbEntity
  8
RACCORDO
100
AcDbPolyline
 62
7
  6
CONTINUOUS
 90
11
 70
0
 10
1.3835701942
 20
-37.4948702522
 10
1.4239657012
 20
-37.5164868146
 10
1.4862554008
 20
-37.5433564317
 10
1.5522055414
 20
-37.5642227118
 10
1.6211710049
 20
-37.578541224
 10
1.6923251
 20
-37.5859077512
 10
1.7651261226
 20
-37.5861046829
 10
1.8388757104
 20
-37.578982757
 10
1.9127005263
 20
-37.5645406741
 10
1.9860907269
 20
-37.5428858631
 10
2.0449396756
 20
-37.5201672133
  0
LINE
  5
2B7
100
AcDbEntity
  8
RACCORDO
100
AcDbLine
 62
7
  6
CONTINUOUS
 10
1.3846406948
 20
-37.4955106683
 11
-29.2166010196
 21
-19.8267372261
  0
LWPOLYLINE
  5
2B8
100
AcDbEntity
  8
RACCORDO
100
AcDbPolyline
 62
250
  6
CONTINUOUS
 90
11
 70
0
 10
-29.2166008944
 20
-19.8267372983
 10
-29.254404105
 20
-19.8012552472
 10
-29.2904274471
 20
-19.7687902596
 10
-29.3224777663
 20
-19.7306812358
 10
-29.3503378172
 20
-19.6871883044
 10
-29.3738121468
 20
-19.6386126982
 10
-29.3927329669
 20
-19.5852947876
 10
-29.4069700986
 20
-19.5276055297
 10
-29.4164240952
 20
-19.4659471556
 10
-29.4210264837
 20
-19.4007499153
 10
-29.420744166
 20
-19.3324683497
  0
LWPOLYLINE
  5
2B9
100
AcDbEntity
  8
RACCORDO
100
AcDbPolyline
 62
7
  6
CONTINUOUS
 90
13
 70
0
 10
-29.5671611501
 20
-19.1277938261
 10
-29.5672202076
 20
-19.2040049726
 10
-29.5608242957
 20
-19.2825835721
 10
-29.5479438607
 20
-19.3579066873
 10
-29.5287905367
 20
-19.4298376414
 10
-29.5035821496
 20
-19.4980697683
 10
-29.4726421581
 20
-19.5621110727
 10
-29.4362962925
 20
-19.6216942023
 10
-29.3948795482
 20
-19.6765678618
 10
-29.3489169002
 20
-19.7262831433
 10
-29.2989332994
 20
-19.7705210555
 10
-29.2453520918
 20
-19.809129787
 10
-29.2165190731
 20
-19.8267638859
  0
LWPOLYLINE
  5
2BA
100
AcDbEntity
  8
RACCORDO
100
AcDbPolyline
 62
250
  6
CONTINUOUS
 90
8
 70
0
 10
-29.5671832023
 20
-19.1277929754
 10
-29.5672697582
 20
-19.1360564488
 10
-29.5624937518
 20
-19.1717323504
 10
-29.5494360358
 20
-19.2069982823
 10
-29.5283151051
 20
-19.2412641392
 10
-29.4994843764
 20
-19.2739565502
 10
-29.4634262746
 20
-19.3045284729
 10
-29.4207441604
 20
-19.3324683467
  0
LINE
  5
2BB
100
AcDbEntity
  8
RACCORDO
100
AcDbLine
 62
7
  6
CONTINUOUS
 10
-29.5671732711
 20
-19.1275355045
 11
-29.5671832023
 21
-19.1277929754
  0
LWPOLYLINE
  5
2BC
100
AcDbEntity
  8
RACCORDO
100
AcDbPolyline
 62
250
  6
CONTINUOUS
 90
10
 70
0
 10
-29.420744166
 20
-19.3324683497
 10
-29.2544864144
 20
-15.4810075316
 10
-29.0587629537
 20
-11.6138356278
 10
-28.8335902787
 20
-7.7312812371
 10
-28.5789874332
 20
-3.8336742788
 10
-28.294976001
 20
0.0786541536
 10
-27.9815801003
 20
4.0053718221
 10
-27.6388263939
 20
7.9461452137
 10
-27.26674409
 20
11.9006395669
 10
-26.8653649295
 20
15.8685190204
  0
LWPOLYLINE
  5
2BD
100
AcDbEntity
  8
RACCORDO
100
AcDbPolyline
 62
7
  6
CONTINUOUS
 90
10
 70
0
 10
-27.0120207586
 20
16.0706062687
 10
-27.4072818426
 20
12.1653091864
 10
-27.7814765027
 20
8.1923263486
 10
-28.1260733294
 20
4.2331403686
 10
-28.4410365353
 20
0.2881362431
 10
-28.7263411616
 20
-3.6423674552
 10
-28.981965255
 20
-7.5580774323
 10
-29.2078862758
 20
-11.4586766142
 10
-29.4040833162
 20
-15.3437876302
 10
-29.5671732711
 20
-19.1275355045
  0
LWPOLYLINE
  5
2BE
100
AcDbEntity
  8
RACCORDO
100
AcDbPolyline
 62
250
  6
CONTINUOUS
 90
19
 70
0
 10
-26.8653649295
 20
15.8685190204
 10
-26.8553917266
 20
15.9415099869
 10
-26.8406411261
 20
16.016106392
 10
-26.8212168175
 20
16.0917885009
 10
-26.7972563552
 20
16.1680312456
 10
-26.7689270334
 20
16.2443018299
 10
-26.736425385
 20
16.3200634704
 10
-26.6999827098
 20
16.3947870063
 10
-26.659853723
 20
16.4679555438
 10
-26.6163112806
 20
16.5390616325
 10
-26.5696618183
 20
16.6076116315
 10
-26.5202323875
 20
16.6731291565
 10
-26.468358185
 20
16.7351584155
 10
-26.4144018412
 20
16.7932702603
 10
-26.3587434496
 20
16.8470584203
 10
-26.3017660783
 20
16.8961419172
 10
-26.2438675574
 20
16.9401777785
 10
-26.1854575275
 20
16.9788629383
 10
-26.1269466979
 20
17.0119292115
  0
LWPOLYLINE
  5
2BF
100
AcDbEntity
  8
0
100
AcDbPolyline
 62
7
  6
CONTINUOUS
 90
10
 70
0
 10
-21.8850117457
 20
20.1981335297
 10
-21.9096270757
 20
20.1811813767
 10
-21.9379326204
 20
20.1566162492
 10
-21.9636490031
 20
20.1280147745
 10
-21.9863295222
 20
20.0954612753
 10
-22.0054155035
 20
20.0593192554
 10
-22.0204370729
 20
20.0201952235
 10
-22.0311909319
 20
19.9784230921
 10
-22.0375702802
 20
19.9341887149
 10
-22.039463916
 20
19.8922273646
  0
LINE
  5
2C0
100
AcDbEntity
  8
0
100
AcDbLine
 62
7
  6
CONTINUOUS
 10
-21.8851396617
 20
20.1980570898
 11
-20.8395648142
 21
20.8446562594
  0
LINE
  5
2C1
100
AcDbEntity
  8
0
100
AcDbLine
 62
250
  6
CONTINUOUS
 10
-21.6298323392
 20
20.176483655
 11
-20.5852609982
 21
20.8224622412
  0
LINE
  5
2C2
100
AcDbEntity
  8
RACCORDO
100
AcDbLine
 62
250
  6
CONTINUOUS
 10
1.1761009654
 20
-36.99870326
 11
-29.420744166
 21
-19.3324683497
  0
LWPOLYLINE
  5
2C3
100
AcDbEntity
  8
RACCORDO
100
AcDbPolyline
 62
250
  6
CONTINUOUS
 90
8
 70
0
 10
-27.0120601052
 20
16.0702246668
 10
-27.0126364338
 20
16.0544100755
 10
-27.0076384195
 20
16.0217701395
 10
-26.9943928461
 20
15.9890764914
 10
-26.9731213424
 20
15.9568761711
 10
-26.9441798291
 20
15.9257079637
 10
-26.9080525638
 20
15.8960933844
 10
-26.8653440381
 20
15.8685279527
  0
LWPOLYLINE
  5
2C4
100
AcDbEntity
  8
RACCORDO
100
AcDbPolyline
 62
7
  6
CONTINUOUS
 90
14
 70
0
 10
-26.3810984822
 20
17.034585728
 10
-26.452507614
 20
16.9929858187
 10
-26.5265149696
 20
16.9407741391
 10
-26.5975733173
 20
16.8809608113
 10
-26.6650350303
 20
16.8141690884
 10
-26.7271497925
 20
16.7424611601
 10
-26.7836253131
 20
16.6668774081
 10
-26.8348259542
 20
16.5873260865
 10
-26.8802209959
 20
16.5049029985
 10
-26.9196723431
 20
16.4200834669
 10
-26.9530185859
 20
16.3330755639
 10
-26.9798675763
 20
16.2445814322
 10
-26.9998800257
 20
16.1548536046
 10
-27.0120434923
 20
16.0702229499
  0
LINE
  5
2C5
100
AcDbEntity
  8
RACCORDO
100
AcDbLine
 62
7
  6
CONTINUOUS
 10
-26.3813135546
 20
17.0344998442
 11
-22.1502171246
 21
19.2602904456
  0
LINE
  5
2C6
100
AcDbEntity
  8
RACCORDO
100
AcDbLine
 62
250
  6
CONTINUOUS
 10
-26.1269466979
 20
17.0119292115
 11
-21.8975148643
 21
19.2368441432
  0
LWPOLYLINE
  5
2C7
100
AcDbEntity
  8
RACCORDO
100
AcDbPolyline
 62
7
  6
CONTINUOUS
 90
13
 70
0
 10
7.7670119545
 20
32.5849272856
 10
7.7781912057
 20
32.5906372696
 10
7.799688212
 20
32.5992998374
 10
7.8223573132
 20
32.6055570922
 10
7.8463403919
 20
32.6094317713
 10
7.8714955656
 20
32.6109011374
 10
7.8973971862
 20
32.6098969798
 10
7.9240618402
 20
32.6063480052
 10
7.9514729411
 20
32.6003255069
 10
7.9791550818
 20
32.5919751534
 10
8.0069497932
 20
32.581345501
 10
8.0350155443
 20
32.5683879934
 10
8.0633523352
 20
32.5531026307
  0
LWPOLYLINE
  5
2C8
100
AcDbEntity
  8
ASSI
100
AcDbPolyline
 62
7
  6
CONTINUOUS
 90
13
 70
0
 10
7.7670119545
 20
32.5849272856
 10
7.7781912057
 20
32.5906372696
 10
7.799688212
 20
32.5992998374
 10
7.8223573132
 20
32.6055570922
 10
7.8463403919
 20
32.6094317713
 10
7.8714955656
 20
32.6109011374
 10
7.8973971862
 20
32.6098969798
 10
7.9240618402
 20
32.6063480052
 10
7.9514729411
 20
32.6003255069
 10
7.9791550818
 20
32.5919751534
 10
8.0069497932
 20
32.581345501
 10
8.0350155443
 20
32.5683879934
 10
8.0633523352
 20
32.5531026307
  0
LWPOLYLINE
  5
2C9
100
AcDbEntity
  8
RACCORDO
100
AcDbPolyline
 62
250
  6
CONTINUOUS
 90
7
 70
0
 10
-26.3811096417
 20
17.0346069584
 10
-26.3502950171
 20
17.0475217952
 10
-26.3096174761
 20
17.0561670241
 10
-26.2661852952
 20
17.0568747232
 10
-26.2207411793
 20
17.0496327905
 10
-26.1740622382
 20
17.0345650656
 10
-26.1269466979
 20
17.0119292115
  0
LWPOLYLINE
  5
2CA
100
AcDbEntity
  8
0
100
AcDbPolyline
 62
250
  6
CONTINUOUS
 90
10
 70
0
 10
10.1332578235
 20
-33.5905631819
 10
10.1530492552
 20
-33.6001707432
 10
10.1754043106
 20
-33.6076730551
 10
10.1996587157
 20
-33.6128471888
 10
10.2250917582
 20
-33.6155393967
 10
10.2509477028
 20
-33.6156696804
 10
10.276458248
 20
-33.6132341677
 10
10.3008653554
 20
-33.6083052289
 10
10.3234437752
 20
-33.6010293262
 10
10.3435225962
 20
-33.5916226607
  0
LWPOLYLINE
  5
2CB
100
AcDbEntity
  8
0
100
AcDbPolyline
 62
250
  6
CONTINUOUS
 90
5
 70
0
 10
9.8859588373
 20
-33.7336712392
 10
9.9127726433
 20
-33.7470906007
 10
9.9383291872
 20
-33.757154136
 10
9.9626284689
 20
-33.7638618451
 10
9.9857011461
 20
-33.7671255598
  0
LWPOLYLINE
  5
2CC
100
AcDbEntity
  8
0
100
AcDbPolyline
 62
7
  6
CONTINUOUS
 90
10
 70
0
 10
9.9170281823
 20
-33.8023357816
 10
9.9527026527
 20
-33.8209018021
 10
9.9913154061
 20
-33.836561894
 10
10.0297996058
 20
-33.8476670925
 10
10.0679743606
 20
-33.8541863657
 10
10.1055195172
 20
-33.8561077607
 10
10.1418334927
 20
-33.8535117092
 10
10.1764388996
 20
-33.846607389
 10
10.2090862977
 20
-33.8356475425
 10
10.2278539756
 20
-33.8271350543
  0
LWPOLYLINE
  5
2CD
100
AcDbEntity
  8
RACCORDO
100
AcDbPolyline
 62
250
  6
CONTINUOUS
 90
55
 70
0
 10
-21.7896457014
 20
-17.8383477514
 10
-21.7525330181
 20
-17.8584328202
 10
-21.7153550875
 20
-17.8758723906
 10
-21.6782370308
 20
-17.8906071487
 10
-21.6413220319
 20
-17.9025815379
 10
-21.6047159067
 20
-17.9117626924
 10
-21.5684884912
 20
-17.9181266782
 10
-21.5327270077
 20
-17.9216410676
 10
-21.4975940888
 20
-17.9222721714
 10
-21.4632694686
 20
-17.9200103945
 10
-21.4298744028
 20
-17.914865343
 10
-21.3975169855
 20
-17.9068555084
 10
-21.3663446439
 20
-17.8960243686
 10
-21.3364867167
 20
-17.8824347634
 10
-21.3080076683
 20
-17.8661345814
 10
-21.2809530753
 20
-17.8471553078
 10
-21.255398703
 20
-17.825542697
 10
-21.2314511552
 20
-17.8013790862
 10
-21.2092001803
 20
-17.7747530458
 10
-21.1887213325
 20
-17.7457553102
 10
-21.1700830757
 20
-17.7144831685
 10
-21.1533524018
 20
-17.6810513071
 10
-21.1385928399
 20
-17.6455972042
 10
-21.1258413168
 20
-17.608221494
 10
-21.115123336
 20
-17.5689862983
 10
-21.1064760613
 20
-17.5279762054
 10
-21.0999488333
 20
-17.4853611669
 10
-21.095576774
 20
-17.441338121
 10
-21.0933754816
 20
-17.396073992
 10
-21.0933506706
 20
-17.3497058929
 10
-21.0955022269
 20
-17.3023987403
 10
-21.0998214997
 20
-17.2543191435
 10
-21.1062932364
 20
-17.2056251401
 10
-21.114896608
 20
-17.156472787
 10
-21.125604483
 20
-17.1070222866
 10
-21.1383799944
 20
-17.0574480706
 10
-21.1531769505
 20
-17.0079288373
 10
-21.1699417999
 20
-16.958639742
 10
-21.1886188661
 20
-16.9097409012
 10
-21.2091487775
 20
-16.8613874939
 10
-21.2314660928
 20
-16.8137362253
 10
-21.2554923496
 20
-16.766956974
 10
-21.2811394657
 20
-16.721220741
 10
-21.3083140296
 20
-16.6766909229
 10
-21.3369280052
 20
-16.6335088346
 10
-21.3668937708
 20
-16.5918067341
 10
-21.3981313114
 20
-16.5517010124
 10
-21.4305156467
 20
-16.5133568222
 10
-21.463881242
 20
-16.4769638044
 10
-21.4980746598
 20
-16.442671042
 10
-21.5330108966
 20
-16.4105462767
 10
-21.5686218222
 20
-16.3806458534
 10
-21.604805414
 20
-16.3530572783
 10
-21.6414226013
 20
-16.327888263
 10
-21.678350117
 20
-16.3052232726
  0
LWPOLYLINE
  5
2CE
100
AcDbEntity
  8
RACCORDO
100
AcDbPolyline
 62
7
  6
CONTINUOUS
 90
43
 70
0
 10
-21.7689377902
 20
-17.88386426
 10
-21.8102028157
 20
-17.8585320613
 10
-21.8508911249
 20
-17.8305420336
 10
-21.8908942719
 20
-17.7999932811
 10
-21.9301247333
 20
-17.766971972
 10
-21.968460217
 20
-17.7315968983
 10
-22.00574254
 20
-17.6940354923
 10
-22.0418622651
 20
-17.6544248274
 10
-22.0767322129
 20
-17.6128846009
 10
-22.1102313889
 20
-17.5695829151
 10
-22.1422571746
 20
-17.5246801011
 10
-22.1727368197
 20
-17.4783036277
 10
-22.2015969178
 20
-17.4305841587
 10
-22.2287575072
 20
-17.3816680909
 10
-22.2541398421
 20
-17.3317087338
 10
-22.277674374
 20
-17.2808507068
 10
-22.299289501
 20
-17.2292524278
 10
-22.3189215021
 20
-17.1770656683
 10
-22.3365160631
 20
-17.124425295
 10
-22.3520169114
 20
-17.0714774992
 10
-22.3653656245
 20
-17.0183901701
 10
-22.3765108365
 20
-16.9653271718
 10
-22.3854098656
 20
-16.912431122
 10
-22.3920190727
 20
-16.8598724739
 10
-22.3962999948
 20
-16.8078476891
 10
-22.3982267324
 20
-16.7564972704
 10
-22.3977761101
 20
-16.7059816873
 10
-22.3949350602
 20
-16.6565097289
 10
-22.3896932411
 20
-16.6081853512
 10
-22.3820497363
 20
-16.5611831851
 10
-22.3720429224
 20
-16.5157865159
 10
-22.359688741
 20
-16.4720735154
 10
-22.3450262853
 20
-16.4301987456
 10
-22.3281976825
 20
-16.3905047513
 10
-22.3093328626
 20
-16.3531580347
 10
-22.2884761954
 20
-16.3181274443
 10
-22.2656816045
 20
-16.2854335134
 10
-22.241018316
 20
-16.255130092
 10
-22.2145991715
 20
-16.2273141029
 10
-22.1865587616
 20
-16.2020766396
 10
-22.1570311237
 20
-16.1794810423
 10
-22.1261378795
 20
-16.1595634737
 10
-22.0940162943
 20
-16.1423575763
  0
LWPOLYLINE
  5
2CF
100
AcDbEntity
  8
0
100
AcDbPolyline
 62
250
  6
CONTINUOUS
 90
29
 70
0
 10
-21.7630646557
 20
-18.0691388385
 10
-21.8400862043
 20
-18.0203846022
 10
-21.9163304412
 20
-17.9634693687
 10
-21.9911464139
 20
-17.8987874749
 10
-22.0639697792
 20
-17.8267331445
 10
-22.1340695293
 20
-17.7479092298
 10
-22.2005903367
 20
-17.6631899488
 10
-22.2629188695
 20
-17.5733899696
 10
-22.3205876594
 20
-17.4791966277
 10
-22.373051094
 20
-17.3814245395
 10
-22.4198620401
 20
-17.2809533597
 10
-22.4606511193
 20
-17.178613589
 10
-22.495052896
 20
-17.0751822007
 10
-22.5228137095
 20
-16.9713890982
 10
-22.5436354149
 20
-16.8682981504
 10
-22.5572410781
 20
-16.7671779849
 10
-22.563613339
 20
-16.668361898
 10
-22.5626960352
 20
-16.5732290919
 10
-22.5547683867
 20
-16.4843209304
 10
-22.5404346792
 20
-16.40224512
 10
-22.5202910982
 20
-16.327086992
 10
-22.4953363818
 20
-16.2599690095
 10
-22.4666141217
 20
-16.2010935603
 10
-22.4347765459
 20
-16.1497114108
 10
-22.4003688168
 20
-16.105210021
 10
-22.3640184891
 20
-16.067214983
 10
-22.3263158505
 20
-16.0353080108
 10
-22.2875686962
 20
-16.0088888721
 10
-22.2473051583
 20
-15.9871081294
  0
LWPOLYLINE
  5
2D0
100
AcDbEntity
  8
0
100
AcDbPolyline
 62
250
  6
CONTINUOUS
 90
35
 70
0
 10
-21.8398165665
 20
-18.1900043552
 10
-21.924411251
 20
-18.1363357743
 10
-22.0067470396
 20
-18.0748044614
 10
-22.086823203
 20
-18.0054100445
 10
-22.165371811
 20
-17.9273849585
 10
-22.2416578469
 20
-17.8414952675
 10
-22.3134794779
 20
-17.7500408043
 10
-22.3806379891
 20
-17.6529150192
 10
-22.4433270393
 20
-17.5502218892
 10
-22.4999336704
 20
-17.4445771977
 10
-22.5502899929
 20
-17.3359385507
 10
-22.5945582667
 20
-17.2243454836
 10
-22.6316220583
 20
-17.1125373362
 10
-22.6612992651
 20
-17.0003451637
 10
-22.6837673082
 20
-16.8879355414
 10
-22.6984515321
 20
-16.7785523571
 10
-22.7048494889
 20
-16.6719373175
 10
-22.7034617447
 20
-16.5683477724
 10
-22.6952224565
 20
-16.4718032515
 10
-22.6795867149
 20
-16.3832002599
 10
-22.6571031494
 20
-16.301644186
 10
-22.6303503181
 20
-16.2284699558
 10
-22.5994827931
 20
-16.1645728377
 10
-22.5643520311
 20
-16.1090606175
 10
-22.5270830671
 20
-16.0605875776
 10
-22.4879014655
 20
-16.0192165274
 10
-22.44658611
 20
-15.9848869066
 10
-22.4045914481
 20
-15.9560676556
 10
-22.3621532106
 20
-15.9327184375
 10
-22.3190386028
 20
-15.9148810716
 10
-22.2759985975
 20
-15.9011473851
 10
-22.2332893689
 20
-15.8913745799
 10
-22.1906564524
 20
-15.8857063164
 10
-22.1480843111
 20
-15.8831638314
 10
-22.1059610118
 20
-15.8834407536
  0
LWPOLYLINE
  5
2D1
100
AcDbEntity
  8
0
100
AcDbPolyline
 62
250
  6
CONTINUOUS
 90
3
 70
0
 10
-21.7272044838
 20
-16.0050017881
 10
-21.6426173764
 20
-16.0586896813
 10
-21.5603295563
 20
-16.1202590989
  0
LWPOLYLINE
  5
2D2
100
AcDbEntity
  8
0
100
AcDbPolyline
 62
7
  6
CONTINUOUS
 90
28
 70
0
 10
-21.7065619245
 20
-16.0561142434
 10
-21.6286874627
 20
-16.1055617663
 10
-21.5546460589
 20
-16.1609440722
 10
-21.4813436716
 20
-16.224183897
 10
-21.4096151738
 20
-16.2948327527
 10
-21.3402628421
 20
-16.3722389111
 10
-21.2739143663
 20
-16.4558249249
 10
-21.211220506
 20
-16.5449308384
 10
-21.1528860593
 20
-16.6386076798
 10
-21.0994512238
 20
-16.7360098949
 10
-21.0514067509
 20
-16.8363137381
 10
-21.0092178819
 20
-16.938488782
 10
-20.9732195303
 20
-17.04159388
 10
-20.9436955409
 20
-17.1447423252
 10
-20.9208556514
 20
-17.2469462005
 10
-20.9048562371
 20
-17.3468928689
 10
-20.8956599093
 20
-17.4441286069
 10
-20.8932463842
 20
-17.5388525177
 10
-20.8977392012
 20
-17.6303922152
 10
-20.9092133646
 20
-17.7174577006
 10
-20.927623083
 20
-17.7991512765
 10
-20.9528506814
 20
-17.8747088324
 10
-20.9846105626
 20
-17.9430345415
 10
-21.0222577575
 20
-18.0030213094
 10
-21.0650954615
 20
-18.0540813766
 10
-21.1127482598
 20
-18.096227346
 10
-21.1650926556
 20
-18.1295882867
 10
-21.180720669
 20
-18.1374184638
  0
LWPOLYLINE
  5
2D3
100
AcDbEntity
  8
0
100
AcDbPolyline
 62
250
  6
CONTINUOUS
 90
15
 70
0
 10
-21.5603295563
 20
-16.1202590989
 10
-21.4803402942
 20
-16.1897096737
 10
-21.4019164373
 20
-16.2678088526
 10
-21.3257881918
 20
-16.3537877042
 10
-21.2541493946
 20
-16.4453410552
 10
-21.1871952198
 20
-16.5425729124
 10
-21.1247254385
 20
-16.6453767197
 10
-21.0683410982
 20
-16.751131617
 10
-21.0182050631
 20
-16.8598767202
 10
-20.9741488408
 20
-16.9715700692
 10
-20.9372777428
 20
-17.0834698438
 10
-20.9077693375
 20
-17.1957441923
 10
-20.8854413728
 20
-17.308222592
 10
-20.8708619215
 20
-17.4176564733
 10
-20.864532629
 20
-17.5243039718
  0
LINE
  5
2D4
100
AcDbEntity
  8
0
100
AcDbLine
 62
7
  6
CONTINUOUS
 10
-22.0394639218
 20
19.8921994898
 11
-22.0394639218
 21
19.2827806598
  0
LINE
  5
2D5
100
AcDbEntity
  8
0
100
AcDbLine
 62
250
  6
CONTINUOUS
 10
-21.980885278
 20
19.8105445723
 11
-21.980885278
 21
19.2725291278
  0
LWPOLYLINE
  5
2D6
100
AcDbEntity
  8
0
100
AcDbPolyline
 62
250
  6
CONTINUOUS
 90
13
 70
0
 10
-21.7687855524
 20
19.9329846263
 10
-21.7676025197
 20
19.9547449383
 10
-21.7640731753
 20
19.9775076259
 10
-21.7582564752
 20
20.0008918811
 10
-21.7502496449
 20
20.0245064856
 10
-21.7401865709
 20
20.0479563109
 10
-21.7282355761
 20
20.0708489319
 10
-21.7145965627
 20
20.0928012808
 10
-21.6994977046
 20
20.1134459753
 10
-21.6831916713
 20
20.1324374422
 10
-21.6659513184
 20
20.1494578212
 10
-21.6480651078
 20
20.1642222681
 10
-21.6298323392
 20
20.176483655
  0
LWPOLYLINE
  5
2D7
100
AcDbEntity
  8
RACCORDO
100
AcDbPolyline
 62
250
  6
CONTINUOUS
 90
9
 70
0
 10
-11.9272581139
 20
21.5537035449
 10
-11.9381491715
 20
21.5413872335
 10
-11.9466544517
 20
21.5292660874
 10
-11.9523292223
 20
21.5173246191
 10
-11.9550198144
 20
21.5056256193
 10
-11.954682258
 20
21.4942874932
 10
-11.9510435774
 20
21.4833269012
 10
-11.9439480485
 20
21.4727762127
 10
-11.9333482208
 20
21.4627065548
  0
LWPOLYLINE
  5
2D8
100
AcDbEntity
  8
ASSI
100
AcDbPolyline
 62
250
  6
CONTINUOUS
 90
9
 70
0
 10
-11.9272581139
 20
21.5537035449
 10
-11.9381491715
 20
21.5413872335
 10
-11.9466544517
 20
21.5292660874
 10
-11.9523292223
 20
21.5173246191
 10
-11.9550198144
 20
21.5056256193
 10
-11.954682258
 20
21.4942874932
 10
-11.9510435774
 20
21.4833269012
 10
-11.9439480485
 20
21.4727762127
 10
-11.9333482208
 20
21.4627065548
  0
LWPOLYLINE
  5
2D9
100
AcDbEntity
  8
0
100
AcDbPolyline
 62
250
  6
CONTINUOUS
 90
5
 70
0
 10
-16.4781318853
 20
16.1077603319
 10
-16.4690107361
 20
16.1167881604
 10
-16.4577036357
 20
16.1248784672
 10
-16.4455486617
 20
16.1309506796
 10
-16.4368660761
 20
16.1339825234
  0
LWPOLYLINE
  5
2DA
100
AcDbEntity
  8
0
100
AcDbPolyline
 62
250
  6
CONTINUOUS
 90
10
 70
0
 10
-16.5945631215
 20
16.1749862685
 10
-16.5810396438
 20
16.1843064172
 10
-16.5631612819
 20
16.1931420635
 10
-16.5441075722
 20
16.1992318008
 10
-16.523887318
 20
16.2026935404
 10
-16.5025369111
 20
16.2037103356
 10
-16.4800199597
 20
16.2020991332
 10
-16.4562360911
 20
16.1974286841
 10
-16.4311518478
 20
16.1895552387
 10
-16.4048006872
 20
16.1786225467
  0
LINE
  5
2DB
100
AcDbEntity
  8
DRAFT
100
AcDbLine
 62
7
  6
CONTINUOUS
 10
-15.5080533658
 20
18.7890634911
 11
-16.0563665739
 21
18.4381121884
  0
LINE
  5
2DC
100
AcDbEntity
  8
ASSI
100
AcDbLine
 62
7
  6
CONTINUOUS
 10
-15.5080533658
 20
18.7890634911
 11
-16.0563665739
 21
18.4381121884
  0
LINE
  5
2DD
100
AcDbEntity
  8
ASSI
100
AcDbLine
 62
7
  6
CONTINUOUS
 10
-12.6302558619
 20
20.3366498595
 11
-14.0892606534
 21
19.494235886
  0
LINE
  5
2DE
100
AcDbEntity
  8
DRAFT
100
AcDbLine
 62
7
  6
CONTINUOUS
 10
-13.8936185849
 20
20.3733017465
 11
-16.7267109968
 21
18.8094515541
  0
LINE
  5
2DF
100
AcDbEntity
  8
ASSI
100
AcDbLine
 62
7
  6
CONTINUOUS
 10
-13.8936185849
 20
20.3733017465
 11
-16.7267109968
 21
18.8094515541
  0
LINE
  5
2E0
100
AcDbEntity
  8
0
100
AcDbLine
 62
250
  6
CONTINUOUS
 10
-13.2009808622
 20
20.5297696906
 11
-16.0438440202
 21
18.9623654133
  0
LINE
  5
2E1
100
AcDbEntity
  8
ASSI
100
AcDbLine
 62
250
  6
CONTINUOUS
 10
-13.2009808622
 20
20.5297696906
 11
-16.0438440202
 21
18.9623654133
  0
LINE
  5
2E2
100
AcDbEntity
  8
0
100
AcDbLine
 62
250
  6
CONTINUOUS
 10
-12.809713252
 20
20.4402663074
 11
-15.6530365733
 21
18.8727749781
  0
LINE
  5
2E3
100
AcDbEntity
  8
ASSI
100
AcDbLine
 62
250
  6
CONTINUOUS
 10
-12.809713252
 20
20.4402663074
 11
-15.6530365733
 21
18.8727749781
  0
LINE
  5
2E4
100
AcDbEntity
  8
RACCORDO
100
AcDbLine
 62
250
  6
CONTINUOUS
 10
-12.4502043628
 20
21.4447338401
 11
-15.2295490467
 21
19.9164259855
  0
LINE
  5
2E5
100
AcDbEntity
  8
ASSI
100
AcDbLine
 62
250
  6
CONTINUOUS
 10
-12.4502043628
 20
21.4447338401
 11
-15.2295490467
 21
19.9164259855
  0
LINE
  5
2E6
100
AcDbEntity
  8
RACCORDO
100
AcDbLine
 62
250
  6
CONTINUOUS
 10
-12.2180127872
 20
21.4110664929
 11
-14.33879953
 21
20.244912764
  0
LINE
  5
2E7
100
AcDbEntity
  8
ASSI
100
AcDbLine
 62
250
  6
CONTINUOUS
 10
-12.2180127872
 20
21.4110664929
 11
-14.33879953
 21
20.244912764
  0
LINE
  5
2E8
100
AcDbEntity
  8
RACCORDO
100
AcDbLine
 62
7
  6
CONTINUOUS
 10
7.7670172134
 20
32.5849180353
 11
-9.910304675
 21
22.8714731652
  0
LINE
  5
2E9
100
AcDbEntity
  8
ASSI
100
AcDbLine
 62
7
  6
CONTINUOUS
 10
7.7670172134
 20
32.5849180353
 11
-9.910304675
 21
22.8714731652
  0
LINE
  5
2EA
100
AcDbEntity
  8
RACCORDO
100
AcDbLine
 62
250
  6
CONTINUOUS
 10
8.0633523352
 20
32.5531026307
 11
-11.8197415037
 21
21.6275792932
  0
LINE
  5
2EB
100
AcDbEntity
  8
ASSI
100
AcDbLine
 62
250
  6
CONTINUOUS
 10
8.0633523352
 20
32.5531026307
 11
-11.8197415037
 21
21.6275792932
  0
LINE
  5
2EC
100
AcDbEntity
  8
ASSI
100
AcDbLine
 62
7
  6
CONTINUOUS
 10
-12.5117734776
 20
21.4616127925
 11
-17.2167319794
 21
18.8775158033
  0
LWPOLYLINE
  5
2ED
100
AcDbEntity
  8
DRAFT
100
AcDbPolyline
 62
7
  6
CONTINUOUS
 90
3
 70
0
 10
-13.3246590952
 20
20.5055145231
 10
-15.888785603
 20
19.1037332329
 10
-16.2056894563
 20
18.9305246811
  0
LWPOLYLINE
  5
2EE
100
AcDbEntity
  8
ASSI
100
AcDbPolyline
 62
7
  6
CONTINUOUS
 90
3
 70
0
 10
-13.3246590952
 20
20.5055145231
 10
-15.888785603
 20
19.1037332329
 10
-16.2056894563
 20
18.9305246811
  0
LINE
  5
2EF
100
AcDbEntity
  8
RACCORDO
100
AcDbLine
 62
7
  6
CONTINUOUS
 10
-9.910304675
 20
22.8714731652
 11
-12.171961328
 21
21.6288347564
  0
LINE
  5
2F0
100
AcDbEntity
  8
ASSI
100
AcDbLine
 62
7
  6
CONTINUOUS
 10
-9.910304675
 20
22.8714731652
 11
-12.171961328
 21
21.6288347564
  0
LWPOLYLINE
  5
2F1
100
AcDbEntity
  8
RACCORDO
100
AcDbPolyline
 62
250
  6
CONTINUOUS
 90
7
 70
0
 10
-11.8197415037
 20
21.6275792932
 10
-11.841999792
 20
21.6154716282
 10
-11.8625993856
 20
21.6031464593
 10
-11.881487135
 20
21.5907044003
 10
-11.8987052754
 20
21.5783324757
 10
-11.914087966
 20
21.5660455627
 10
-11.9272581139
 20
21.5537035449
  0
LWPOLYLINE
  5
2F2
100
AcDbEntity
  8
ASSI
100
AcDbPolyline
 62
250
  6
CONTINUOUS
 90
7
 70
0
 10
-11.8197415037
 20
21.6275792932
 10
-11.841999792
 20
21.6154716282
 10
-11.8625993856
 20
21.6031464593
 10
-11.881487135
 20
21.5907044003
 10
-11.8987052754
 20
21.5783324757
 10
-11.914087966
 20
21.5660455627
 10
-11.9272581139
 20
21.5537035449
  0
LINE
  5
2F3
100
AcDbEntity
  8
0
100
AcDbLine
 62
7
  6
CONTINUOUS
 10
-13.8460731474
 20
19.3538224679
 11
-13.572404908
 21
19.501171612
  0
LINE
  5
2F4
100
AcDbEntity
  8
0
100
AcDbLine
 62
250
  6
CONTINUOUS
 10
-13.7828657615
 20
19.3240013788
 11
-13.4775902696
 21
19.4883685796
  0
LINE
  5
2F5
100
AcDbEntity
  8
RACCORDO
100
AcDbLine
 62
7
  6
CONTINUOUS
 10
-12.171961328
 20
21.6288347564
 11
-12.2269736183
 21
21.5991036644
  0
LINE
  5
2F6
100
AcDbEntity
  8
ASSI
100
AcDbLine
 62
7
  6
CONTINUOUS
 10
-12.171961328
 20
21.6288347564
 11
-12.2269736183
 21
21.5991036644
  0
LINE
  5
2F7
100
AcDbEntity
  8
RACCORDO
100
AcDbLine
 62
7
  6
CONTINUOUS
 10
-12.2269736183
 20
21.5991036644
 11
-12.2751688258
 21
21.5733617542
  0
LINE
  5
2F8
100
AcDbEntity
  8
ASSI
100
AcDbLine
 62
7
  6
CONTINUOUS
 10
-12.2269736183
 20
21.5991036644
 11
-12.2751688258
 21
21.5733617542
  0
LWPOLYLINE
  5
2F9
100
AcDbEntity
  8
0
100
AcDbPolyline
 62
250
  6
CONTINUOUS
 90
10
 70
0
 10
-13.4775902696
 20
19.4883685796
 10
-13.4652645918
 20
19.4948638888
 10
-13.4530327184
 20
19.5000670002
 10
-13.4409877413
 20
19.5039383144
 10
-13.42922133
 20
19.506448368
 10
-13.4178230342
 20
19.5075780575
 10
-13.406879602
 20
19.5073187847
 10
-13.3964743198
 20
19.5056725225
 10
-13.3866863781
 20
19.5026517995
 10
-13.3775902696
 20
19.4982796048
  0
LINE
  5
2FA
100
AcDbEntity
  8
RACCORDO
100
AcDbLine
 62
7
  6
CONTINUOUS
 10
-12.2751688258
 20
21.5733617542
 11
-12.3165653031
 21
21.5515714232
  0
LINE
  5
2FB
100
AcDbEntity
  8
ASSI
100
AcDbLine
 62
7
  6
CONTINUOUS
 10
-12.2751688258
 20
21.5733617542
 11
-12.3165653031
 21
21.5515714232
  0
LINE
  5
2FC
100
AcDbEntity
  8
RACCORDO
100
AcDbLine
 62
7
  6
CONTINUOUS
 10
-12.3165653031
 20
21.5515714232
 11
-12.3518344391
 21
21.5332907637
  0
LINE
  5
2FD
100
AcDbEntity
  8
ASSI
100
AcDbLine
 62
7
  6
CONTINUOUS
 10
-12.3165653031
 20
21.5515714232
 11
-12.3518344391
 21
21.5332907637
  0
LINE
  5
2FE
100
AcDbEntity
  8
RACCORDO
100
AcDbLine
 62
7
  6
CONTINUOUS
 10
-12.3518344391
 20
21.5332907637
 11
-12.3717708582
 21
21.5231024772
  0
LINE
  5
2FF
100
AcDbEntity
  8
ASSI
100
AcDbLine
 62
7
  6
CONTINUOUS
 10
-12.3518344391
 20
21.5332907637
 11
-12.3717708582
 21
21.5231024772
  0
LWPOLYLINE
  5
300
100
AcDbEntity
  8
RACCORDO
100
AcDbPolyline
 62
250
  6
CONTINUOUS
 90
9
 70
0
 10
-12.1225041275
 20
21.4084123547
 10
-12.0924000719
 20
21.4237019213
 10
-12.0625599514
 20
21.4358843083
 10
-12.0332008925
 20
21.4448708735
 10
-12.0045365205
 20
21.4505962286
 10
-11.976775407
 20
21.4530187147
 10
-11.9501195518
 20
21.4521207058
 10
-11.9247629112
 20
21.4479087374
 10
-11.9008899869
 20
21.440413458
  0
LWPOLYLINE
  5
301
100
AcDbEntity
  8
ASSI
100
AcDbPolyline
 62
250
  6
CONTINUOUS
 90
9
 70
0
 10
-12.1225041275
 20
21.4084123547
 10
-12.0924000719
 20
21.4237019213
 10
-12.0625599514
 20
21.4358843083
 10
-12.0332008925
 20
21.4448708735
 10
-12.0045365205
 20
21.4505962286
 10
-11.976775407
 20
21.4530187147
 10
-11.9501195518
 20
21.4521207058
 10
-11.9247629112
 20
21.4479087374
 10
-11.9008899869
 20
21.440413458
  0
LINE
  5
302
100
AcDbEntity
  8
ASSI
100
AcDbLine
 62
7
  6
CONTINUOUS
 10
-12.6302558619
 20
19.4381651348
 11
-12.9741311234
 21
19.2653273503
  0
LINE
  5
303
100
AcDbEntity
  8
RACCORDO
100
AcDbLine
 62
7
  6
CONTINUOUS
 10
-12.3717708582
 20
21.5231024772
 11
-12.3889683014
 21
21.5144303832
  0
LINE
  5
304
100
AcDbEntity
  8
ASSI
100
AcDbLine
 62
7
  6
CONTINUOUS
 10
-12.3717708582
 20
21.5231024772
 11
-12.3889683014
 21
21.5144303832
  0
LWPOLYLINE
  5
305
100
AcDbEntity
  8
RACCORDO
100
AcDbPolyline
 62
7
  6
CONTINUOUS
 90
3
 70
0
 10
-12.3889683014
 20
21.5144303832
 10
-12.4035558694
 20
21.5071840387
 10
-12.4035790833
 20
21.5071726484
  0
LWPOLYLINE
  5
306
100
AcDbEntity
  8
ASSI
100
AcDbPolyline
 62
7
  6
CONTINUOUS
 90
3
 70
0
 10
-12.3889683014
 20
21.5144303832
 10
-12.4035558694
 20
21.5071840387
 10
-12.4035790833
 20
21.5071726484
  0
LWPOLYLINE
  5
307
100
AcDbEntity
  8
DRAFT
100
AcDbPolyline
 62
7
  6
CONTINUOUS
 90
15
 70
0
 10
-16.3078256025
 20
18.6320218684
 10
-16.3257084945
 20
18.6236007603
 10
-16.3516967204
 20
18.6153492737
 10
-16.3794864354
 20
18.6111040346
 10
-16.4090320912
 20
18.6107637489
 10
-16.439573648
 20
18.6143372144
 10
-16.4711370881
 20
18.6219260724
 10
-16.5036964291
 20
18.6334286815
 10
-16.5364136847
 20
18.6485489155
 10
-16.5692927281
 20
18.6673805334
 10
-16.6023296861
 20
18.6898297763
 10
-16.6346749526
 20
18.7153192401
 10
-16.6660453255
 20
18.7436564571
 10
-16.6967240069
 20
18.7750338951
 10
-16.7267109968
 20
18.8094515541
  0
LWPOLYLINE
  5
308
100
AcDbEntity
  8
ASSI
100
AcDbPolyline
 62
7
  6
CONTINUOUS
 90
15
 70
0
 10
-16.3078256025
 20
18.6320218684
 10
-16.3257084945
 20
18.6236007603
 10
-16.3516967204
 20
18.6153492737
 10
-16.3794864354
 20
18.6111040346
 10
-16.4090320912
 20
18.6107637489
 10
-16.439573648
 20
18.6143372144
 10
-16.4711370881
 20
18.6219260724
 10
-16.5036964291
 20
18.6334286815
 10
-16.5364136847
 20
18.6485489155
 10
-16.5692927281
 20
18.6673805334
 10
-16.6023296861
 20
18.6898297763
 10
-16.6346749526
 20
18.7153192401
 10
-16.6660453255
 20
18.7436564571
 10
-16.6967240069
 20
18.7750338951
 10
-16.7267109968
 20
18.8094515541
  0
LWPOLYLINE
  5
309
100
AcDbEntity
  8
0
100
AcDbPolyline
 62
250
  6
CONTINUOUS
 90
7
 70
0
 10
-13.572404908
 20
19.501171612
 10
-13.5605410344
 20
19.5060624094
 10
-13.5456783741
 20
19.5087267327
 10
-13.5296661725
 20
19.508242925
 10
-13.5127887812
 20
19.5046318227
 10
-13.4953305605
 20
19.4979658527
 10
-13.4775902696
 20
19.4883685796
  0
LINE
  5
30A
100
AcDbEntity
  8
ASSI
100
AcDbLine
 62
7
  6
CONTINUOUS
 10
-10.825347498
 20
20.045281987
 11
-11.2867529777
 21
19.8630016378
  0
LINE
  5
30B
100
AcDbEntity
  8
DRAFT
100
AcDbLine
 62
7
  6
CONTINUOUS
 10
-16.7267109968
 20
18.8094515541
 11
-16.9750819553
 21
18.737990108
  0
LINE
  5
30C
100
AcDbEntity
  8
ASSI
100
AcDbLine
 62
7
  6
CONTINUOUS
 10
-16.7267109968
 20
18.8094515541
 11
-16.9750819553
 21
18.737990108
  0
LWPOLYLINE
  5
30D
100
AcDbEntity
  8
0
100
AcDbPolyline
 62
250
  6
CONTINUOUS
 90
3
 70
0
 10
-21.8333479972
 20
-15.9516936903
 10
-21.7813142366
 20
-15.9763378279
 10
-21.7272044838
 20
-16.0050017881
  0
LWPOLYLINE
  5
30E
100
AcDbEntity
  8
RACCORDO
100
AcDbPolyline
 62
250
  6
CONTINUOUS
 90
55
 70
0
 10
-21.678350117
 20
-16.3052232726
 10
-21.7154627619
 20
-16.2851381855
 10
-21.7526406734
 20
-16.267698606
 10
-21.7897587306
 20
-16.2529638481
 10
-21.8266737623
 20
-16.2409894746
 10
-21.8632799398
 20
-16.231808345
 10
-21.8995073884
 20
-16.2254443749
 10
-21.9352688643
 20
-16.2219299819
 10
-21.9704017562
 20
-16.2212988653
 10
-22.0047263568
 20
-16.2235606328
 10
-22.0381214217
 20
-16.2287056839
 10
-22.0704788453
 20
-16.2367155215
 10
-22.1016511914
 20
-16.2475466635
 10
-22.1315091174
 20
-16.2611362681
 10
-22.1599881628
 20
-16.2774364487
 10
-22.1870427532
 20
-16.296415721
 10
-22.2125971244
 20
-16.3180283313
 10
-22.2365446715
 20
-16.3421919417
 10
-22.2587956456
 20
-16.3688179818
 10
-22.2792744923
 20
-16.3978157168
 10
-22.2979127478
 20
-16.4290878579
 10
-22.3146434206
 20
-16.4625197189
 10
-22.329402982
 20
-16.4979738215
 10
-22.3421545048
 20
-16.5353495315
 10
-22.3528724853
 20
-16.574584727
 10
-22.3615197593
 20
-16.6155948196
 10
-22.3680469866
 20
-16.6582098578
 10
-22.3724190452
 20
-16.7022329034
 10
-22.3746203372
 20
-16.7474970322
 10
-22.374645148
 20
-16.7938651313
 10
-22.3724935916
 20
-16.8411722838
 10
-22.3681743188
 20
-16.8892518805
 10
-22.361702582
 20
-16.9379458839
 10
-22.3530992105
 20
-16.9870982371
 10
-22.3423913356
 20
-17.0365487375
 10
-22.3296158247
 20
-17.0861229536
 10
-22.3148188689
 20
-17.1356421871
 10
-22.2980540195
 20
-17.1849312825
 10
-22.2793769534
 20
-17.2338301233
 10
-22.2588470425
 20
-17.2821835309
 10
-22.236529729
 20
-17.3298348003
 10
-22.2125034745
 20
-17.3766140527
 10
-22.1868563592
 20
-17.4223502861
 10
-22.1596817921
 20
-17.4668801027
 10
-22.1310678119
 20
-17.5100621887
 10
-22.1011020465
 20
-17.5517642894
 10
-22.0698645191
 20
-17.5918700173
 10
-22.0374802019
 20
-17.6302142161
 10
-22.0041146115
 20
-17.6666072364
 10
-21.9699211709
 20
-17.7008999878
 10
-21.934984898
 20
-17.733024736
 10
-21.8993739505
 20
-17.7629251489
 10
-21.8631903599
 20
-17.7905137245
 10
-21.8265731878
 20
-17.8156827471
 10
-21.7896457014
 20
-17.8383477514
  0
LWPOLYLINE
  5
30F
100
AcDbEntity
  8
RACCORDO
100
AcDbPolyline
 62
250
  6
CONTINUOUS
 90
14
 70
0
 10
-21.6029588186
 20
-16.194752059
 10
-21.6438104288
 20
-16.1726437813
 10
-21.6847338487
 20
-16.1534473944
 10
-21.7255913728
 20
-16.1372281765
 10
-21.7662254326
 20
-16.1240471753
 10
-21.806519561
 20
-16.1139406581
 10
-21.8463968194
 20
-16.106935269
 10
-21.8857611216
 20
-16.1030668775
 10
-21.9244334722
 20
-16.1023724016
 10
-21.9622160968
 20
-16.1048621967
 10
-21.9989755731
 20
-16.1105255971
 10
-22.0345928896
 20
-16.1193423409
 10
-22.0689057349
 20
-16.1312646399
 10
-22.0940162966
 20
-16.1423575775
  0
LINE
  5
310
100
AcDbEntity
  8
0
100
AcDbLine
 62
7
  6
CONTINUOUS
 10
6.7997169163
 20
-32.0024393264
 11
9.917021232
 21
-33.8023317693
  0
LINE
  5
311
100
AcDbEntity
  8
0
100
AcDbLine
 62
250
  6
CONTINUOUS
 10
6.8032511443
 20
-31.9537544527
 11
9.8859588373
 21
-33.7336712392
  0
LWPOLYLINE
  5
312
100
AcDbEntity
  8
0
100
AcDbPolyline
 62
250
  6
CONTINUOUS
 90
4
 70
0
 10
-20.864532629
 20
-17.5243039718
 10
-20.8659499657
 20
-17.6279059877
 10
-20.874178535
 20
-17.7244402715
 10
-20.8897672649
 20
-17.8130107178
  0
LINE
  5
313
100
AcDbEntity
  8
DRAFT
100
AcDbLine
 62
7
  6
CONTINUOUS
 10
-15.9821271149
 20
15.8976409722
 11
-16.003131921
 21
15.8335013057
  0
LWPOLYLINE
  5
314
100
AcDbEntity
  8
SMUSSO
100
AcDbPolyline
 62
7
  6
CONTINUOUS
 90
13
 70
0
 10
-3.4507738672
 20
22.3966496848
 10
-3.5062912578
 20
22.3618116871
 10
-3.5562245803
 20
22.3249827505
 10
-3.6005738347
 20
22.2861628749
 10
-3.6395750575
 20
22.2450560547
 10
-3.6729922121
 20
22.2019582955
 10
-3.700117189
 20
22.1577576142
 10
-3.7207990465
 20
22.1124659955
 10
-3.7351887263
 20
22.0660714547
 10
-3.7430309447
 20
22.0194260546
 10
-3.7442074024
 20
21.9725089809
 10
-3.7388363987
 20
21.9253410479
 10
-3.727226516
 20
21.8794776015
  0
LWPOLYLINE
  5
315
100
AcDbEntity
  8
ASSI
100
AcDbPolyline
 62
7
  6
CONTINUOUS
 90
13
 70
0
 10
-3.4507738672
 20
22.3966496848
 10
-3.5062912578
 20
22.3618116871
 10
-3.5562245803
 20
22.3249827505
 10
-3.6005738347
 20
22.2861628749
 10
-3.6395750575
 20
22.2450560547
 10
-3.6729922121
 20
22.2019582955
 10
-3.700117189
 20
22.1577576142
 10
-3.7207990465
 20
22.1124659955
 10
-3.7351887263
 20
22.0660714547
 10
-3.7430309447
 20
22.0194260546
 10
-3.7442074024
 20
21.9725089809
 10
-3.7388363987
 20
21.9253410479
 10
-3.727226516
 20
21.8794776015
  0
LINE
  5
316
100
AcDbEntity
  8
0
100
AcDbLine
 62
250
  6
CONTINUOUS
 10
-9.2130729733
 20
17.0260897397
 11
-9.497746975
 21
16.8498274966
  0
LINE
  5
317
100
AcDbEntity
  8
DRAFT
100
AcDbLine
 62
7
  6
CONTINUOUS
 10
10.239564358
 20
28.8422131373
 11
11.2909682887
 21
29.4599694649
  0
LINE
  5
318
100
AcDbEntity
  8
ASSI
100
AcDbLine
 62
7
  6
CONTINUOUS
 10
10.239564358
 20
28.8422131373
 11
11.2909682887
 21
29.4599694649
  0
LINE
  5
319
100
AcDbEntity
  8
SMUSSO
100
AcDbLine
 62
7
  6
CONTINUOUS
 10
11.1014564558
 20
30.7989393878
 11
-3.4507738672
 21
22.3966496848
  0
LINE
  5
31A
100
AcDbEntity
  8
ASSI
100
AcDbLine
 62
7
  6
CONTINUOUS
 10
11.1014564558
 20
30.7989393878
 11
-3.4507738672
 21
22.3966496848
  0
LINE
  5
31B
100
AcDbEntity
  8
SMUSSO
100
AcDbLine
 62
7
  6
CONTINUOUS
 10
11.2909682887
 20
29.8730162664
 11
-3.2434676468
 21
21.4810008371
  0
LINE
  5
31C
100
AcDbEntity
  8
ASSI
100
AcDbLine
 62
7
  6
CONTINUOUS
 10
11.2909682887
 20
29.8730162664
 11
-3.2434676468
 21
21.4810008371
  0
LINE
  5
31D
100
AcDbEntity
  8
RACCORDO
100
AcDbLine
 62
7
  6
CONTINUOUS
 10
10.239564358
 20
28.7872039714
 11
-2.5488498916
 21
21.4033212961
  0
LINE
  5
31E
100
AcDbEntity
  8
ASSI
100
AcDbLine
 62
7
  6
CONTINUOUS
 10
10.239564358
 20
28.7872039714
 11
-2.5488498916
 21
21.4033212961
  0
LINE
  5
31F
100
AcDbEntity
  8
0
100
AcDbLine
 62
250
  6
CONTINUOUS
 10
-10.4560032879
 20
15.8720730932
 11
-7.6424723597
 21
17.4567661769
  0
LINE
  5
320
100
AcDbEntity
  8
ASSI
100
AcDbLine
 62
250
  6
CONTINUOUS
 10
-10.4560032879
 20
15.8720730932
 11
-7.6424723597
 21
17.4567661769
  0
LINE
  5
321
100
AcDbEntity
  8
DRAFT
100
AcDbLine
 62
7
  6
CONTINUOUS
 10
-10.6009864955
 20
15.9557845802
 11
-11.1889804232
 21
15.6277444277
  0
LINE
  5
322
100
AcDbEntity
  8
ASSI
100
AcDbLine
 62
7
  6
CONTINUOUS
 10
-10.6009864955
 20
15.9557845802
 11
-11.1889804232
 21
15.6277444277
  0
LINE
  5
323
100
AcDbEntity
  8
SMUSSO
100
AcDbLine
 62
7
  6
CONTINUOUS
 10
-2.0017553108
 20
21.5600045307
 11
12.8067018501
 21
29.8143520689
  0
LINE
  5
324
100
AcDbEntity
  8
ASSI
100
AcDbLine
 62
7
  6
CONTINUOUS
 10
-2.0017553108
 20
21.5600045307
 11
12.8067018501
 21
29.8143520689
  0
LINE
  5
325
100
AcDbEntity
  8
ASSI
100
AcDbLine
 62
7
  6
CONTINUOUS
 10
-7.8219297499
 20
17.5603826249
 11
-9.3327734394
 21
16.7478997814
  0
LINE
  5
326
100
AcDbEntity
  8
ASSI
100
AcDbLine
 62
7
  6
CONTINUOUS
 10
-5.7284038524
 20
17.8785472167
 11
-6.5869924482
 21
17.5981089003
  0
LINE
  5
327
100
AcDbEntity
  8
0
100
AcDbLine
 62
7
  6
CONTINUOUS
 10
-16.4368660761
 20
16.1339825234
 11
-16.4364743891
 21
16.1340969188
  0
LINE
  5
328
100
AcDbEntity
  8
0
100
AcDbLine
 62
250
  6
CONTINUOUS
 10
-16.3488332594
 20
16.0331049258
 11
-16.2608743654
 21
16.0585861411
  0
LINE
  5
329
100
AcDbEntity
  8
DRAFT
100
AcDbLine
 62
7
  6
CONTINUOUS
 10
-16.1904674341
 20
18.1918114718
 11
-16.1904674341
 21
18.0401866505
  0
LINE
  5
32A
100
AcDbEntity
  8
ASSI
100
AcDbLine
 62
7
  6
CONTINUOUS
 10
-16.1904674341
 20
18.1918114718
 11
-16.1904674341
 21
18.0401866505
  0
LINE
  5
32B
100
AcDbEntity
  8
ASSI
100
AcDbLine
 62
7
  6
CONTINUOUS
 10
-6.5869924482
 20
17.5981089003
 11
-6.9026909343
 21
17.3316991591
  0
LINE
  5
32C
100
AcDbEntity
  8
RACCORDO
100
AcDbLine
 62
7
  6
CONTINUOUS
 10
-5.5405773366
 20
17.6080903165
 11
-6.9026909343
 21
16.4924264156
  0
LINE
  5
32D
100
AcDbEntity
  8
ASSI
100
AcDbLine
 62
7
  6
CONTINUOUS
 10
-5.5405773366
 20
17.6080903165
 11
-6.9026909343
 21
16.4924264156
  0
LWPOLYLINE
  5
32E
100
AcDbEntity
  8
SMUSSO
100
AcDbPolyline
 62
7
  6
CONTINUOUS
 90
13
 70
0
 10
-0.4102147081
 20
20.6410689334
 10
-0.4657554391
 20
20.6062103657
 10
-0.5157039263
 20
20.5693669126
 10
-0.5600601696
 20
20.530538574
 10
-0.599056906
 20
20.4894324089
 10
-0.6324613985
 20
20.4463413584
 10
-0.6595754359
 20
20.4021442456
 10
-0.6802523046
 20
20.3568484136
 10
-0.6946387181
 20
20.3104465193
 10
-0.7024766064
 20
20.2637953563
 10
-0.7036465788
 20
20.216876239
 10
-0.6982680261
 20
20.169707853
 10
-0.6866704415
 20
20.1239063114
  0
LWPOLYLINE
  5
32F
100
AcDbEntity
  8
ASSI
100
AcDbPolyline
 62
7
  6
CONTINUOUS
 90
13
 70
0
 10
-0.4102147081
 20
20.6410689334
 10
-0.4657554391
 20
20.6062103657
 10
-0.5157039263
 20
20.5693669126
 10
-0.5600601696
 20
20.530538574
 10
-0.599056906
 20
20.4894324089
 10
-0.6324613985
 20
20.4463413584
 10
-0.6595754359
 20
20.4021442456
 10
-0.6802523046
 20
20.3568484136
 10
-0.6946387181
 20
20.3104465193
 10
-0.7024766064
 20
20.2637953563
 10
-0.7036465788
 20
20.216876239
 10
-0.6982680261
 20
20.169707853
 10
-0.6866704415
 20
20.1239063114
  0
LINE
  5
330
100
AcDbEntity
  8
DRAFT
100
AcDbLine
 62
7
  6
CONTINUOUS
 10
-7.1275265166
 20
16.9273678405
 11
-9.903350405
 21
15.2916330998
  0
LINE
  5
331
100
AcDbEntity
  8
ASSI
100
AcDbLine
 62
7
  6
CONTINUOUS
 10
-7.1275265166
 20
16.9273678405
 11
-9.903350405
 21
15.2916330998
  0
LINE
  5
332
100
AcDbEntity
  8
DRAFT
100
AcDbLine
 62
7
  6
CONTINUOUS
 10
13.2801235171
 20
27.086632386
 11
14.3315274478
 21
27.7043887136
  0
LINE
  5
333
100
AcDbEntity
  8
ASSI
100
AcDbLine
 62
7
  6
CONTINUOUS
 10
13.2801235171
 20
27.086632386
 11
14.3315274478
 21
27.7043887136
  0
LINE
  5
334
100
AcDbEntity
  8
SMUSSO
100
AcDbLine
 62
7
  6
CONTINUOUS
 10
14.1420156149
 20
29.0433586365
 11
-0.4102147081
 21
20.6410689334
  0
LINE
  5
335
100
AcDbEntity
  8
ASSI
100
AcDbLine
 62
7
  6
CONTINUOUS
 10
14.1420156149
 20
29.0433586365
 11
-0.4102147081
 21
20.6410689334
  0
LINE
  5
336
100
AcDbEntity
  8
SMUSSO
100
AcDbLine
 62
7
  6
CONTINUOUS
 10
14.3315274478
 20
28.1174355151
 11
-0.202907924
 21
19.7254204113
  0
LINE
  5
337
100
AcDbEntity
  8
ASSI
100
AcDbLine
 62
7
  6
CONTINUOUS
 10
14.3315274478
 20
28.1174355151
 11
-0.202907924
 21
19.7254204113
  0
LINE
  5
338
100
AcDbEntity
  8
RACCORDO
100
AcDbLine
 62
7
  6
CONTINUOUS
 10
13.2801235171
 20
27.0316232201
 11
0.4917119188
 21
19.6477420757
  0
LINE
  5
339
100
AcDbEntity
  8
ASSI
100
AcDbLine
 62
7
  6
CONTINUOUS
 10
13.2801235171
 20
27.0316232201
 11
0.4917119188
 21
19.6477420757
  0
LINE
  5
33A
100
AcDbEntity
  8
0
100
AcDbLine
 62
250
  6
CONTINUOUS
 10
-10.0651958411
 20
15.5103688848
 11
-7.2512047496
 21
17.0944435315
  0
LINE
  5
33B
100
AcDbEntity
  8
ASSI
100
AcDbLine
 62
250
  6
CONTINUOUS
 10
-10.0651958411
 20
15.5103688848
 11
-7.2512047496
 21
17.0944435315
  0
LINE
  5
33C
100
AcDbEntity
  8
SMUSSO
100
AcDbLine
 62
7
  6
CONTINUOUS
 10
1.0388038484
 20
19.8044237794
 11
15.8472610092
 21
28.0587713176
  0
LINE
  5
33D
100
AcDbEntity
  8
ASSI
100
AcDbLine
 62
7
  6
CONTINUOUS
 10
1.0388038484
 20
19.8044237794
 11
15.8472610092
 21
28.0587713176
  0
LINE
  5
33E
100
AcDbEntity
  8
DRAFT
100
AcDbLine
 62
7
  6
CONTINUOUS
 10
-6.5585670268
 20
16.1381349067
 11
-7.5068523175
 21
15.6106719857
  0
LINE
  5
33F
100
AcDbEntity
  8
ASSI
100
AcDbLine
 62
7
  6
CONTINUOUS
 10
-6.5585670268
 20
16.1381349067
 11
-7.5068523175
 21
15.6106719857
  0
LINE
  5
340
100
AcDbEntity
  8
DRAFT
100
AcDbLine
 62
7
  6
CONTINUOUS
 10
-7.5068523175
 20
15.6106719857
 11
-8.4481414524
 21
15.0875628708
  0
LINE
  5
341
100
AcDbEntity
  8
ASSI
100
AcDbLine
 62
7
  6
CONTINUOUS
 10
-7.5068523175
 20
15.6106719857
 11
-8.4481414524
 21
15.0875628708
  0
LINE
  5
342
100
AcDbEntity
  8
DRAFT
100
AcDbLine
 62
7
  6
CONTINUOUS
 10
-8.4481414524
 20
15.0875628708
 11
-9.3823288645
 21
14.5688973576
  0
LINE
  5
343
100
AcDbEntity
  8
ASSI
100
AcDbLine
 62
7
  6
CONTINUOUS
 10
-8.4481414524
 20
15.0875628708
 11
-9.3823288645
 21
14.5688973576
  0
LINE
  5
344
100
AcDbEntity
  8
DRAFT
100
AcDbLine
 62
7
  6
CONTINUOUS
 10
-10.7534511667
 20
15.060193087
 11
-10.6009864955
 21
15.1393143034
  0
LINE
  5
345
100
AcDbEntity
  8
ASSI
100
AcDbLine
 62
7
  6
CONTINUOUS
 10
-10.7534511667
 20
15.060193087
 11
-10.6009864955
 21
15.1393143034
  0
LWPOLYLINE
  5
346
100
AcDbEntity
  8
0
100
AcDbPolyline
 62
250
  6
CONTINUOUS
 90
7
 70
0
 10
-22.1059610118
 20
-15.8834407536
 10
-22.063899392
 20
-15.88684391
 10
-22.0207207286
 20
-15.8933141628
 10
-21.9763522375
 20
-15.9025144628
 10
-21.9308671542
 20
-15.9147820866
 10
-21.8833056798
 20
-15.9310693321
 10
-21.8333479972
 20
-15.9516936903
  0
LINE
  5
347
100
AcDbEntity
  8
RACCORDO
100
AcDbLine
 62
7
  6
CONTINUOUS
 10
13.4833836661
 20
-26.9504472663
 11
13.6849406727
 21
-27.0668237559
  0
LWPOLYLINE
  5
348
100
AcDbEntity
  8
DRAFT
100
AcDbPolyline
 62
7
  6
CONTINUOUS
 90
12
 70
0
 10
-16.2056894563
 20
18.9305246811
 10
-16.2020304522
 20
18.8895286964
 10
-16.201386674
 20
18.8508956611
 10
-16.2037581215
 20
18.8146255752
 10
-16.2092071389
 20
18.7805377383
 10
-16.2176713822
 20
18.7488128508
 10
-16.2289638191
 20
18.7199930144
 10
-16.243171725
 20
18.6940298556
 10
-16.2602078246
 20
18.6709717479
 10
-16.2796232598
 20
18.6515059136
 10
-16.3014762094
 20
18.6357572002
 10
-16.3078256025
 20
18.6320218684
  0
LWPOLYLINE
  5
349
100
AcDbEntity
  8
ASSI
100
AcDbPolyline
 62
7
  6
CONTINUOUS
 90
12
 70
0
 10
-16.2056894563
 20
18.9305246811
 10
-16.2020304522
 20
18.8895286964
 10
-16.201386674
 20
18.8508956611
 10
-16.2037581215
 20
18.8146255752
 10
-16.2092071389
 20
18.7805377383
 10
-16.2176713822
 20
18.7488128508
 10
-16.2289638191
 20
18.7199930144
 10
-16.243171725
 20
18.6940298556
 10
-16.2602078246
 20
18.6709717479
 10
-16.2796232598
 20
18.6515059136
 10
-16.3014762094
 20
18.6357572002
 10
-16.3078256025
 20
18.6320218684
  0
LWPOLYLINE
  5
34A
100
AcDbEntity
  8
0
100
AcDbPolyline
 62
250
  6
CONTINUOUS
 90
7
 70
0
 10
-16.3771826096
 20
16.1646306079
 10
-16.3762675464
 20
16.1511126486
 10
-16.3735429513
 20
16.1389556163
 10
-16.3690701439
 20
16.1284331174
 10
-16.3629497894
 20
16.119781971
 10
-16.3553196322
 20
16.1131968799
 10
-16.353526802
 20
16.112083004
  0
LINE
  5
34B
100
AcDbEntity
  8
ASSI
100
AcDbLine
 62
7
  6
CONTINUOUS
 10
-12.6302558619
 20
20.3366498595
 11
-12.6302558619
 21
19.0667780841
  0
LWPOLYLINE
  5
34C
100
AcDbEntity
  8
0
100
AcDbPolyline
 62
250
  6
CONTINUOUS
 90
6
 70
0
 10
-20.8897672649
 20
-17.8130107178
 10
-20.9121709503
 20
-17.8945153088
 10
-20.9388170897
 20
-17.9676250019
 10
-20.9695580578
 20
-18.0314485589
 10
-21.0045475097
 20
-18.0868802721
 10
-21.0416660129
 20
-18.135269979
  0
LWPOLYLINE
  5
34D
100
AcDbEntity
  8
0
100
AcDbPolyline
 62
7
  6
CONTINUOUS
 90
10
 70
0
 10
-5.3188523593
 20
11.4409256812
 10
-5.3358940655
 20
11.4287628781
 10
-5.3617337854
 20
11.4059883611
 10
-5.3850601057
 20
11.3794726598
 10
-5.4055215801
 20
11.3492993339
 10
-5.422691782
 20
11.3157743101
 10
-5.436193317
 20
11.2793762391
 10
-5.445867362
 20
11.2403831622
 10
-5.451644696
 20
11.198964832
 10
-5.4534161765
 20
11.1586034542
  0
LINE
  5
34E
100
AcDbEntity
  8
0
100
AcDbLine
 62
7
  6
CONTINUOUS
 10
-5.319379064
 20
11.4405886431
 11
-4.9322078495
 21
11.6959244179
  0
LWPOLYLINE
  5
34F
100
AcDbEntity
  8
SMUSSO
100
AcDbPolyline
 62
7
  6
CONTINUOUS
 90
13
 70
0
 10
2.630344451
 20
18.8854881821
 10
2.5748270604
 20
18.8506501845
 10
2.5248937379
 20
18.8138212479
 10
2.4805444835
 20
18.7750013723
 10
2.4415432607
 20
18.7338945521
 10
2.4081261061
 20
18.6907967929
 10
2.3810011292
 20
18.6465961116
 10
2.3603192717
 20
18.6013044929
 10
2.3459295919
 20
18.5549099521
 10
2.3380873735
 20
18.5082645519
 10
2.3369109158
 20
18.4613474783
 10
2.3422819195
 20
18.4141795453
 10
2.3538918023
 20
18.3683160988
  0
LWPOLYLINE
  5
350
100
AcDbEntity
  8
ASSI
100
AcDbPolyline
 62
7
  6
CONTINUOUS
 90
13
 70
0
 10
2.630344451
 20
18.8854881821
 10
2.5748270604
 20
18.8506501845
 10
2.5248937379
 20
18.8138212479
 10
2.4805444835
 20
18.7750013723
 10
2.4415432607
 20
18.7338945521
 10
2.4081261061
 20
18.6907967929
 10
2.3810011292
 20
18.6465961116
 10
2.3603192717
 20
18.6013044929
 10
2.3459295919
 20
18.5549099521
 10
2.3380873735
 20
18.5082645519
 10
2.3369109158
 20
18.4613474783
 10
2.3422819195
 20
18.4141795453
 10
2.3538918023
 20
18.3683160988
  0
LWPOLYLINE
  5
351
100
AcDbEntity
  8
0
100
AcDbPolyline
 62
250
  6
CONTINUOUS
 90
12
 70
0
 10
-5.3188763807
 20
11.4409188195
 10
-5.3128573203
 20
11.4446722021
 10
-5.2916333474
 20
11.4552767122
 10
-5.2699447491
 20
11.462561045
 10
-5.2479028304
 20
11.4669331
 10
-5.2248872324
 20
11.4687224237
 10
-5.2010913099
 20
11.4679705328
 10
-5.1766192325
 20
11.4647205902
 10
-5.1504684916
 20
11.4587050312
 10
-5.122319814
 20
11.4495089086
 10
-5.0926651108
 20
11.4369496504
 10
-5.0616682842
 20
11.4207989758
  0
LWPOLYLINE
  5
352
100
AcDbEntity
  8
RACCORDO
100
AcDbPolyline
 62
250
  6
CONTINUOUS
 90
34
 70
0
 10
-2.7110628076
 20
15.9218726604
 10
-2.7085432796
 20
15.9233653218
 10
-2.7062118406
 20
15.9248498655
 10
-2.7040684906
 20
15.9263262915
 10
-2.7021231809
 20
15.9277939147
 10
-2.7003659603
 20
15.9292534203
 10
-2.6987669746
 20
15.9307068638
 10
-2.6973232959
 20
15.9321532616
 10
-2.6960378522
 20
15.9335935974
 10
-2.694889574
 20
15.935032878
 10
-2.6938753588
 20
15.9364698567
 10
-2.692998309
 20
15.9379057801
 10
-2.6922466621
 20
15.9393493952
 10
-2.6916163657
 20
15.9407999616
 10
-2.6911114722
 20
15.9422582196
 10
-2.6907323761
 20
15.9437351367
 10
-2.6904743807
 20
15.9452305048
 10
-2.6903421827
 20
15.9467445321
 10
-2.6903502665
 20
15.9482888106
 10
-2.6904935098
 20
15.94986369
 10
-2.690777035
 20
15.9514688206
 10
-2.6912306935
 20
15.9531147456
 10
-2.6918501229
 20
15.954803416
 10
-2.6926396857
 20
15.9565328809
 10
-2.6936423201
 20
15.9583078296
 10
-2.6948566944
 20
15.9601316068
 10
-2.6962841403
 20
15.962000868
 10
-2.6979715911
 20
15.9639102695
 10
-2.6999200888
 20
15.9658622244
 10
-2.7021285913
 20
15.9678543198
 10
-2.704640906
 20
15.9698739732
 10
-2.7074716353
 20
15.9719169904
 10
-2.7106061768
 20
15.9739875657
 10
-2.7140445305
 20
15.976085699
  0
LWPOLYLINE
  5
353
100
AcDbEntity
  8
ASSI
100
AcDbPolyline
 62
250
  6
CONTINUOUS
 90
34
 70
0
 10
-2.7110628076
 20
15.9218726604
 10
-2.7085432796
 20
15.9233653218
 10
-2.7062118406
 20
15.9248498655
 10
-2.7040684906
 20
15.9263262915
 10
-2.7021231809
 20
15.9277939147
 10
-2.7003659603
 20
15.9292534203
 10
-2.6987669746
 20
15.9307068638
 10
-2.6973232959
 20
15.9321532616
 10
-2.6960378522
 20
15.9335935974
 10
-2.694889574
 20
15.935032878
 10
-2.6938753588
 20
15.9364698567
 10
-2.692998309
 20
15.9379057801
 10
-2.6922466621
 20
15.9393493952
 10
-2.6916163657
 20
15.9407999616
 10
-2.6911114722
 20
15.9422582196
 10
-2.6907323761
 20
15.9437351367
 10
-2.6904743807
 20
15.9452305048
 10
-2.6903421827
 20
15.9467445321
 10
-2.6903502665
 20
15.9482888106
 10
-2.6904935098
 20
15.94986369
 10
-2.690777035
 20
15.9514688206
 10
-2.6912306935
 20
15.9531147456
 10
-2.6918501229
 20
15.954803416
 10
-2.6926396857
 20
15.9565328809
 10
-2.6936423201
 20
15.9583078296
 10
-2.6948566944
 20
15.9601316068
 10
-2.6962841403
 20
15.962000868
 10
-2.6979715911
 20
15.9639102695
 10
-2.6999200888
 20
15.9658622244
 10
-2.7021285913
 20
15.9678543198
 10
-2.704640906
 20
15.9698739732
 10
-2.7074716353
 20
15.9719169904
 10
-2.7106061768
 20
15.9739875657
 10
-2.7140445305
 20
15.976085699
  0
LINE
  5
354
100
AcDbEntity
  8
DRAFT
100
AcDbLine
 62
7
  6
CONTINUOUS
 10
16.3206826762
 20
25.3310516347
 11
17.3720866069
 21
25.9488079623
  0
LINE
  5
355
100
AcDbEntity
  8
ASSI
100
AcDbLine
 62
7
  6
CONTINUOUS
 10
16.3206826762
 20
25.3310516347
 11
17.3720866069
 21
25.9488079623
  0
LINE
  5
356
100
AcDbEntity
  8
RACCORDO
100
AcDbLine
 62
250
  6
CONTINUOUS
 10
19.3803398767
 20
26.0188158594
 11
0.1163995195
 21
14.7358010613
  0
LINE
  5
357
100
AcDbEntity
  8
ASSI
100
AcDbLine
 62
250
  6
CONTINUOUS
 10
19.3803398767
 20
26.0188158594
 11
0.1163995195
 21
14.7358010613
  0
LINE
  5
358
100
AcDbEntity
  8
SMUSSO
100
AcDbLine
 62
7
  6
CONTINUOUS
 10
17.182574774
 20
27.2877778852
 11
2.630344451
 21
18.8854881821
  0
LINE
  5
359
100
AcDbEntity
  8
ASSI
100
AcDbLine
 62
7
  6
CONTINUOUS
 10
17.182574774
 20
27.2877778852
 11
2.630344451
 21
18.8854881821
  0
LINE
  5
35A
100
AcDbEntity
  8
SMUSSO
100
AcDbLine
 62
7
  6
CONTINUOUS
 10
17.3720866069
 20
26.3618547638
 11
2.8376506714
 21
17.9698393345
  0
LINE
  5
35B
100
AcDbEntity
  8
ASSI
100
AcDbLine
 62
7
  6
CONTINUOUS
 10
17.3720866069
 20
26.3618547638
 11
2.8376506714
 21
17.9698393345
  0
LINE
  5
35C
100
AcDbEntity
  8
RACCORDO
100
AcDbLine
 62
7
  6
CONTINUOUS
 10
16.3206826762
 20
25.2760424687
 11
3.5322684266
 21
17.8921597935
  0
LINE
  5
35D
100
AcDbEntity
  8
ASSI
100
AcDbLine
 62
7
  6
CONTINUOUS
 10
16.3206826762
 20
25.2760424687
 11
3.5322684266
 21
17.8921597935
  0
LINE
  5
35E
100
AcDbEntity
  8
0
100
AcDbLine
 62
250
  6
CONTINUOUS
 10
-5.5237788631
 20
12.1261512211
 11
-6.6054641516
 21
11.5016017631
  0
LINE
  5
35F
100
AcDbEntity
  8
0
100
AcDbLine
 62
250
  6
CONTINUOUS
 10
-5.3664881997
 20
11.4005838811
 11
-6.2519646089
 21
10.8893225953
  0
LINE
  5
360
100
AcDbEntity
  8
RACCORDO
100
AcDbLine
 62
250
  6
CONTINUOUS
 10
-5.3937577789
 20
14.4069744207
 11
-2.7110628076
 21
15.9218726604
  0
LINE
  5
361
100
AcDbEntity
  8
ASSI
100
AcDbLine
 62
250
  6
CONTINUOUS
 10
-5.3937577789
 20
14.4069744207
 11
-2.7110628076
 21
15.9218726604
  0
LINE
  5
362
100
AcDbEntity
  8
RACCORDO
100
AcDbLine
 62
250
  6
CONTINUOUS
 10
-5.2226365635
 20
14.1385601322
 11
-2.4788714682
 21
15.6874110597
  0
LINE
  5
363
100
AcDbEntity
  8
ASSI
100
AcDbLine
 62
250
  6
CONTINUOUS
 10
-5.2226365635
 20
14.1385601322
 11
-2.4788714682
 21
15.6874110597
  0
LINE
  5
364
100
AcDbEntity
  8
SMUSSO
100
AcDbLine
 62
7
  6
CONTINUOUS
 10
4.0793630075
 20
18.0488430281
 11
18.8878201684
 21
26.3031905663
  0
LINE
  5
365
100
AcDbEntity
  8
ASSI
100
AcDbLine
 62
7
  6
CONTINUOUS
 10
4.0793630075
 20
18.0488430281
 11
18.8878201684
 21
26.3031905663
  0
LWPOLYLINE
  5
366
100
AcDbEntity
  8
RACCORDO
100
AcDbPolyline
 62
250
  6
CONTINUOUS
 90
16
 70
0
 10
0.4269299129
 20
14.409139115
 10
0.383992689
 20
14.3857501013
 10
0.3381102237
 20
14.3660775921
 10
0.2892807115
 20
14.350121264
 10
0.2375250391
 20
14.3375563793
 10
0.1828152702
 20
14.3287052422
 10
0.1250735353
 20
14.324536715
 10
0.0637264011
 20
14.325222406
 10
-0.0006711754
 20
14.3305824816
 10
-0.0665070644
 20
14.3410571056
 10
-0.1340740215
 20
14.3571763982
 10
-0.203105969
 20
14.3783967068
 10
-0.2711470117
 20
14.4035496263
 10
-0.3373814253
 20
14.4322436012
 10
-0.4026410452
 20
14.4648604526
 10
-0.4669352686
 20
14.501394433
  0
LWPOLYLINE
  5
367
100
AcDbEntity
  8
ASSI
100
AcDbPolyline
 62
250
  6
CONTINUOUS
 90
16
 70
0
 10
0.4269299129
 20
14.409139115
 10
0.383992689
 20
14.3857501013
 10
0.3381102237
 20
14.3660775921
 10
0.2892807115
 20
14.350121264
 10
0.2375250391
 20
14.3375563793
 10
0.1828152702
 20
14.3287052422
 10
0.1250735353
 20
14.324536715
 10
0.0637264011
 20
14.325222406
 10
-0.0006711754
 20
14.3305824816
 10
-0.0665070644
 20
14.3410571056
 10
-0.1340740215
 20
14.3571763982
 10
-0.203105969
 20
14.3783967068
 10
-0.2711470117
 20
14.4035496263
 10
-0.3373814253
 20
14.4322436012
 10
-0.4026410452
 20
14.4648604526
 10
-0.4669352686
 20
14.501394433
  0
LWPOLYLINE
  5
368
100
AcDbEntity
  8
RACCORDO
100
AcDbPolyline
 62
250
  6
CONTINUOUS
 90
16
 70
0
 10
0.1163995195
 20
14.7358010613
 10
0.093378121
 20
14.7234113349
 10
0.0676300369
 20
14.7133283063
 10
0.0392145251
 20
14.7056714519
 10
0.0083653708
 20
14.7004838849
 10
-0.0250104309
 20
14.6979657187
 10
-0.0613302632
 20
14.6984858142
 10
-0.1008880042
 20
14.7022694263
 10
-0.1431858812
 20
14.7093935089
 10
-0.1874714065
 20
14.7199014571
 10
-0.2340127989
 20
14.7339831649
 10
-0.2823800035
 20
14.7514860106
 10
-0.3308716969
 20
14.7716598675
 10
-0.3789517587
 20
14.7940838756
 10
-0.4271772409
 20
14.8188420973
 10
-0.4755651782
 20
14.8457860467
  0
LWPOLYLINE
  5
369
100
AcDbEntity
  8
ASSI
100
AcDbPolyline
 62
250
  6
CONTINUOUS
 90
16
 70
0
 10
0.1163995195
 20
14.7358010613
 10
0.093378121
 20
14.7234113349
 10
0.0676300369
 20
14.7133283063
 10
0.0392145251
 20
14.7056714519
 10
0.0083653708
 20
14.7004838849
 10
-0.0250104309
 20
14.6979657187
 10
-0.0613302632
 20
14.6984858142
 10
-0.1008880042
 20
14.7022694263
 10
-0.1431858812
 20
14.7093935089
 10
-0.1874714065
 20
14.7199014571
 10
-0.2340127989
 20
14.7339831649
 10
-0.2823800035
 20
14.7514860106
 10
-0.3308716969
 20
14.7716598675
 10
-0.3789517587
 20
14.7940838756
 10
-0.4271772409
 20
14.8188420973
 10
-0.4755651782
 20
14.8457860467
  0
LWPOLYLINE
  5
36A
100
AcDbEntity
  8
RACCORDO
100
AcDbPolyline
 62
250
  6
CONTINUOUS
 90
10
 70
0
 10
-2.7140445305
 20
15.976085699
 10
-2.6839404385
 20
15.9913752346
 10
-2.654100291
 20
16.0035575999
 10
-2.6247412141
 20
16.0125441523
 10
-2.5960768338
 20
16.0182695028
 10
-2.5683157213
 20
16.0206919919
 10
-2.5416598751
 20
16.0197939927
 10
-2.5163032516
 20
16.0155820395
 10
-2.4924303537
 20
16.0080867797
 10
-2.4702148879
 20
15.9973627512
  0
LWPOLYLINE
  5
36B
100
AcDbEntity
  8
ASSI
100
AcDbPolyline
 62
250
  6
CONTINUOUS
 90
10
 70
0
 10
-2.7140445305
 20
15.976085699
 10
-2.6839404385
 20
15.9913752346
 10
-2.654100291
 20
16.0035575999
 10
-2.6247412141
 20
16.0125441523
 10
-2.5960768338
 20
16.0182695028
 10
-2.5683157213
 20
16.0206919919
 10
-2.5416598751
 20
16.0197939927
 10
-2.5163032516
 20
16.0155820395
 10
-2.4924303537
 20
16.0080867797
 10
-2.4702148879
 20
15.9973627512
  0
LWPOLYLINE
  5
36C
100
AcDbEntity
  8
0
100
AcDbPolyline
 62
250
  6
CONTINUOUS
 90
10
 70
0
 10
-5.3232519294
 20
11.2645331868
 10
-5.3081050965
 20
11.2698697445
 10
-5.2924799567
 20
11.2729094749
 10
-5.2762811256
 20
11.2741090837
 10
-5.2596496475
 20
11.2737362643
 10
-5.2424444782
 20
11.2715233233
 10
-5.2241471013
 20
11.2671238859
 10
-5.204584678
 20
11.2604224939
 10
-5.1839300471
 20
11.2515346054
 10
-5.1621832086
 20
11.2404602205
  0
LWPOLYLINE
  5
36D
100
AcDbEntity
  8
0
100
AcDbPolyline
 62
250
  6
CONTINUOUS
 90
7
 70
0
 10
-12.1360203077
 20
13.7158366491
 10
-12.1351052439
 20
13.7023186689
 10
-12.1323806429
 20
13.6901616257
 10
-12.1279078272
 20
13.6796391246
 10
-12.1217874644
 20
13.6709879832
 10
-12.1141573015
 20
13.6644029014
 10
-12.1122058125
 20
13.6631969136
  0
LINE
  5
36E
100
AcDbEntity
  8
DRAFT
100
AcDbLine
 62
7
  6
CONTINUOUS
 10
-11.3327859896
 20
15.3870470868
 11
-11.3327859896
 21
15.2354222655
  0
LINE
  5
36F
100
AcDbEntity
  8
ASSI
100
AcDbLine
 62
7
  6
CONTINUOUS
 10
-11.3327859896
 20
15.3870470868
 11
-11.3327859896
 21
15.2354222655
  0
LINE
  5
370
100
AcDbEntity
  8
ASSI
100
AcDbLine
 62
7
  6
CONTINUOUS
 10
-11.2867529777
 20
19.8630016378
 11
-11.2867529777
 21
19.0237288943
  0
LINE
  5
371
100
AcDbEntity
  8
DRAFT
100
AcDbLine
 62
7
  6
CONTINUOUS
 10
-10.6009864955
 20
15.9557845802
 11
-10.6009864955
 21
15.1393143034
  0
LINE
  5
372
100
AcDbEntity
  8
RACCORDO
100
AcDbLine
 62
7
  6
CONTINUOUS
 10
-10.6009864955
 20
15.1393143034
 11
-10.6009864955
 21
15.0576672757
  0
LINE
  5
373
100
AcDbEntity
  8
ASSI
100
AcDbLine
 62
7
  6
CONTINUOUS
 10
-10.6009864955
 20
15.9557845802
 11
-10.6009864955
 21
15.0576672757
  0
LWPOLYLINE
  5
374
100
AcDbEntity
  8
RACCORDO
100
AcDbPolyline
 62
250
  6
CONTINUOUS
 90
34
 70
0
 10
-2.4788716396
 20
15.6874112003
 10
-2.4720352863
 20
15.701162481
 10
-2.4657021852
 20
15.7144872916
 10
-2.45986026
 20
15.7273856658
 10
-2.4545118515
 20
15.7398367812
 10
-2.4496282686
 20
15.7518666758
 10
-2.4451549246
 20
15.7635436436
 10
-2.441081262
 20
15.7748656724
 10
-2.4373998532
 20
15.7858377081
 10
-2.4340697903
 20
15.7965310718
 10
-2.4310852952
 20
15.8069379103
 10
-2.4284422875
 20
15.8170640138
 10
-2.4261126423
 20
15.8269912204
 10
-2.4240943352
 20
15.8367088707
 10
-2.4223900357
 20
15.8462155519
 10
-2.4209905363
 20
15.8555939651
 10
-2.4198990372
 20
15.8648281414
 10
-2.4191250949
 20
15.8739074585
 10
-2.4186820701
 20
15.8829068781
 10
-2.4185795249
 20
15.8918023513
 10
-2.4188342355
 20
15.9005720241
 10
-2.419484243
 20
15.9092757735
 10
-2.4205476292
 20
15.9178837171
 10
-2.4220479274
 20
15.9263546538
 10
-2.4240440612
 20
15.934712821
 10
-2.426564398
 20
15.9429206056
 10
-2.4296348026
 20
15.9509185114
 10
-2.4333179118
 20
15.9586848181
 10
-2.4376445895
 20
15.9661679248
 10
-2.4426417789
 20
15.9733051946
 10
-2.4483673992
 20
15.9800532113
 10
-2.4548587084
 20
15.9863566124
 10
-2.462132571
 20
15.9921476841
 10
-2.4702148879
 20
15.9973627512
  0
LWPOLYLINE
  5
375
100
AcDbEntity
  8
ASSI
100
AcDbPolyline
 62
250
  6
CONTINUOUS
 90
34
 70
0
 10
-2.4788716396
 20
15.6874112003
 10
-2.4720352863
 20
15.701162481
 10
-2.4657021852
 20
15.7144872916
 10
-2.45986026
 20
15.7273856658
 10
-2.4545118515
 20
15.7398367812
 10
-2.4496282686
 20
15.7518666758
 10
-2.4451549246
 20
15.7635436436
 10
-2.441081262
 20
15.7748656724
 10
-2.4373998532
 20
15.7858377081
 10
-2.4340697903
 20
15.7965310718
 10
-2.4310852952
 20
15.8069379103
 10
-2.4284422875
 20
15.8170640138
 10
-2.4261126423
 20
15.8269912204
 10
-2.4240943352
 20
15.8367088707
 10
-2.4223900357
 20
15.8462155519
 10
-2.4209905363
 20
15.8555939651
 10
-2.4198990372
 20
15.8648281414
 10
-2.4191250949
 20
15.8739074585
 10
-2.4186820701
 20
15.8829068781
 10
-2.4185795249
 20
15.8918023513
 10
-2.4188342355
 20
15.9005720241
 10
-2.419484243
 20
15.9092757735
 10
-2.4205476292
 20
15.9178837171
 10
-2.4220479274
 20
15.9263546538
 10
-2.4240440612
 20
15.934712821
 10
-2.426564398
 20
15.9429206056
 10
-2.4296348026
 20
15.9509185114
 10
-2.4333179118
 20
15.9586848181
 10
-2.4376445895
 20
15.9661679248
 10
-2.4426417789
 20
15.9733051946
 10
-2.4483673992
 20
15.9800532113
 10
-2.4548587084
 20
15.9863566124
 10
-2.462132571
 20
15.9921476841
 10
-2.4702148879
 20
15.9973627512
  0
LWPOLYLINE
  5
376
100
AcDbEntity
  8
0
100
AcDbPolyline
 62
250
  6
CONTINUOUS
 90
6
 70
0
 10
-5.3888747643
 20
11.1997034779
 10
-5.3780093066
 20
11.2184289193
 10
-5.3659179705
 20
11.2342858439
 10
-5.3526726447
 20
11.2470462453
 10
-5.3382014406
 20
11.2569381297
 10
-5.3232519294
 20
11.2645331868
  0
LWPOLYLINE
  5
377
100
AcDbEntity
  8
0
100
AcDbPolyline
 62
250
  6
CONTINUOUS
 90
10
 70
0
 10
-5.0616682578
 20
11.4207989932
 10
-5.0793752055
 20
11.4077624141
 10
-5.0964216859
 20
11.3917139831
 10
-5.1123236243
 20
11.3731094332
 10
-5.1266294474
 20
11.3524770846
 10
-5.1389329083
 20
11.3304028414
 10
-5.1488846227
 20
11.3075135539
 10
-5.1562019887
 20
11.2844592174
 10
-5.1606772121
 20
11.2618945137
 10
-5.1621832086
 20
11.2404602205
  0
LINE
  5
378
100
AcDbEntity
  8
0
100
AcDbLine
 62
250
  6
CONTINUOUS
 10
-5.0616682578
 20
11.4207989932
 11
-4.6740937831
 21
11.6764007143
  0
LINE
  5
379
100
AcDbEntity
  8
0
100
AcDbLine
 62
250
  6
CONTINUOUS
 10
20.8262093997
 20
23.5398633495
 11
3.3752677113
 21
13.2175832913
  0
LINE
  5
37A
100
AcDbEntity
  8
ASSI
100
AcDbLine
 62
250
  6
CONTINUOUS
 10
20.8262093997
 20
23.5398633495
 11
3.3752677113
 21
13.2175832913
  0
LINE
  5
37B
100
AcDbEntity
  8
0
100
AcDbLine
 62
250
  6
CONTINUOUS
 10
3.3752677113
 20
13.2175832913
 11
-1.9191719904
 21
10.0857433984
  0
LINE
  5
37C
100
AcDbEntity
  8
ASSI
100
AcDbLine
 62
250
  6
CONTINUOUS
 10
3.3752677113
 20
13.2175832913
 11
-1.9191719904
 21
10.0857433984
  0
LINE
  5
37D
100
AcDbEntity
  8
RACCORDO
100
AcDbLine
 62
250
  6
CONTINUOUS
 10
19.6858300861
 20
25.692507594
 11
0.4269299129
 21
14.409139115
  0
LINE
  5
37E
100
AcDbEntity
  8
ASSI
100
AcDbLine
 62
250
  6
CONTINUOUS
 10
19.6858300861
 20
25.692507594
 11
0.4269299129
 21
14.409139115
  0
LWPOLYLINE
  5
37F
100
AcDbEntity
  8
0
100
AcDbPolyline
 62
7
  6
CONTINUOUS
 90
3
 70
0
 10
-2.9734760185
 20
8.7656578978
 10
-3.372981048
 20
8.5664682278
 10
-3.395370614
 20
8.5539379394
  0
LWPOLYLINE
  5
380
100
AcDbEntity
  8
RACCORDO
100
AcDbPolyline
 62
7
  6
CONTINUOUS
 90
4
 70
0
 10
0.4646954448
 20
10.5646114087
 10
0.1917781029
 20
10.4327079202
 10
-0.0761782348
 20
10.2922909528
 10
-0.1026143796
 20
10.2778337144
  0
LWPOLYLINE
  5
381
100
AcDbEntity
  8
RACCORDO
100
AcDbPolyline
 62
250
  6
CONTINUOUS
 90
5
 70
0
 10
-1.743880871
 20
9.2228441487
 10
-2.217851441
 20
9.0557154027
 10
-2.6835964029
 20
8.8684550423
 10
-3.1407848665
 20
8.6611846338
 10
-3.3753111593
 20
8.5423558616
  0
LWPOLYLINE
  5
382
100
AcDbEntity
  8
0
100
AcDbPolyline
 62
7
  6
CONTINUOUS
 90
6
 70
0
 10
-1.67450262
 20
9.2638429173
 10
-1.6885095703
 20
9.2589811173
 10
-1.6953709459
 20
9.2566551002
 10
-1.7021269952
 20
9.2544177951
 10
-1.7087701216
 20
9.2522840004
 10
-1.7152930609
 20
9.2502690489
  0
LWPOLYLINE
  5
383
100
AcDbEntity
  8
0
100
AcDbPolyline
 62
7
  6
CONTINUOUS
 90
4
 70
0
 10
-1.7152930609
 20
9.2502690489
 10
-2.144784082
 20
9.1074741381
 10
-2.5641784012
 20
8.9459370877
 10
-2.9734760185
 20
8.7656578978
  0
LINE
  5
384
100
AcDbEntity
  8
RACCORDO
100
AcDbLine
 62
250
  6
CONTINUOUS
 10
7.8905655818
 20
-16.9757264425
 11
7.9509133065
 21
-17.0105704624
  0
LINE
  5
385
100
AcDbEntity
  8
RACCORDO
100
AcDbLine
 62
250
  6
CONTINUOUS
 10
7.9044310052
 20
-16.7847267711
 11
7.9509133065
 21
-16.8115650693
  0
LINE
  5
386
100
AcDbEntity
  8
ASSI
100
AcDbLine
 62
7
  6
CONTINUOUS
 10
-6.9026909343
 20
17.3316991591
 11
-6.9026909343
 21
16.4924264156
  0
LINE
  5
387
100
AcDbEntity
  8
0
100
AcDbLine
 62
250
  6
CONTINUOUS
 10
-6.5323176393
 20
10.3651718366
 11
-6.5323176393
 21
10.8907352337
  0
LINE
  5
388
100
AcDbEntity
  8
0
100
AcDbLine
 62
250
  6
CONTINUOUS
 10
-6.2519646089
 20
10.2032995105
 11
-6.2519646089
 21
10.8893225953
  0
LWPOLYLINE
  5
389
100
AcDbEntity
  8
DRAFT
100
AcDbPolyline
 62
7
  6
CONTINUOUS
 90
22
 70
0
 10
-7.1275265166
 20
16.9273678405
 10
-7.1287094461
 20
16.8814693714
 10
-7.1260319578
 20
16.8342168995
 10
-7.1194940518
 20
16.7856104249
 10
-7.1089182403
 20
16.7350457527
 10
-7.094482011
 20
16.6831270778
 10
-7.0767178271
 20
16.631666984
 10
-7.0556541393
 20
16.5809422963
 10
-7.0312624968
 20
16.5306761898
 10
-7.0039900102
 20
16.4818507743
 10
-6.9735408194
 20
16.4341762802
 10
-6.9402107845
 20
16.3879424771
 10
-6.9053345964
 20
16.3450007833
 10
-6.8691098884
 20
16.3057459799
 10
-6.8313390271
 20
16.2697832858
 10
-6.7927638036
 20
16.2377797769
 10
-6.7531624964
 20
16.2096652507
 10
-6.7127568269
 20
16.1855099096
 10
-6.6729537498
 20
16.1661914364
 10
-6.6342222498
 20
16.1520023919
 10
-6.5960933422
 20
16.1426502154
 10
-6.5585670268
 20
16.1381349067
  0
LWPOLYLINE
  5
38A
100
AcDbEntity
  8
ASSI
100
AcDbPolyline
 62
7
  6
CONTINUOUS
 90
22
 70
0
 10
-7.1275265166
 20
16.9273678405
 10
-7.1287094461
 20
16.8814693714
 10
-7.1260319578
 20
16.8342168995
 10
-7.1194940518
 20
16.7856104249
 10
-7.1089182403
 20
16.7350457527
 10
-7.094482011
 20
16.6831270778
 10
-7.0767178271
 20
16.631666984
 10
-7.0556541393
 20
16.5809422963
 10
-7.0312624968
 20
16.5306761898
 10
-7.0039900102
 20
16.4818507743
 10
-6.9735408194
 20
16.4341762802
 10
-6.9402107845
 20
16.3879424771
 10
-6.9053345964
 20
16.3450007833
 10
-6.8691098884
 20
16.3057459799
 10
-6.8313390271
 20
16.2697832858
 10
-6.7927638036
 20
16.2377797769
 10
-6.7531624964
 20
16.2096652507
 10
-6.7127568269
 20
16.1855099096
 10
-6.6729537498
 20
16.1661914364
 10
-6.6342222498
 20
16.1520023919
 10
-6.5960933422
 20
16.1426502154
 10
-6.5585670268
 20
16.1381349067
  0
LWPOLYLINE
  5
38B
100
AcDbEntity
  8
0
100
AcDbPolyline
 62
250
  6
CONTINUOUS
 90
13
 70
0
 10
-6.7444173649
 20
11.2581027344
 10
-6.7432341851
 20
11.2798645467
 10
-6.7397044434
 20
11.3026285317
 10
-6.733887202
 20
11.3260137867
 10
-6.7258797989
 20
11.3496290137
 10
-6.7158162195
 20
11.3730790662
 10
-6.7038648545
 20
11.3959715618
 10
-6.6902256825
 20
11.4179234476
 10
-6.6751269234
 20
11.4385674094
 10
-6.6588212202
 20
11.4575580183
 10
-6.641581411
 20
11.4745775102
 10
-6.6236959643
 20
11.4893411034
 10
-6.6054641516
 20
11.5016017631
  0
LWPOLYLINE
  5
38C
100
AcDbEntity
  8
0
100
AcDbPolyline
 62
250
  6
CONTINUOUS
 90
5
 70
0
 10
-5.4094821947
 20
11.0973521632
 10
-5.4076942814
 20
11.1270649128
 10
-5.4037172517
 20
11.1540214746
 10
-5.3975511058
 20
11.1782218486
 10
-5.3888747643
 20
11.1997034779
  0
LWPOLYLINE
  5
38D
100
AcDbEntity
  8
IMPORT_IGES
100
AcDbPolyline
 62
7
  6
CONTINUOUS
 90
6
 70
0
 10
15.5772942998
 20
16.942107756
 10
15.6842023222
 20
17.0086653117
 10
15.7892846012
 20
17.0830344941
 10
15.8925411367
 20
17.1652153033
 10
15.9945192917
 20
17.2557628765
 10
16.0946717033
 20
17.3541220764
  0
LINE
  5
38E
100
AcDbEntity
  8
RACCORDO
100
AcDbLine
 62
7
  6
CONTINUOUS
 10
0.0286529445
 20
8.2837748891
 11
0.5957130088
 21
8.6336803188
  0
LINE
  5
38F
100
AcDbEntity
  8
RACCORDO
100
AcDbLine
 62
250
  6
CONTINUOUS
 10
17.4802781995
 20
19.341262064
 11
21.1387035085
 21
21.5661620667
  0
LINE
  5
390
100
AcDbEntity
  8
ASSI
100
AcDbLine
 62
250
  6
CONTINUOUS
 10
17.4802781995
 20
19.341262064
 11
21.1387035085
 21
21.5661620667
  0
LINE
  5
391
100
AcDbEntity
  8
RACCORDO
100
AcDbLine
 62
7
  6
CONTINUOUS
 10
17.4203597457
 20
19.2052674021
 11
21.0785479391
 21
21.4300232011
  0
LINE
  5
392
100
AcDbEntity
  8
ASSI
100
AcDbLine
 62
7
  6
CONTINUOUS
 10
17.4203597457
 20
19.2052674021
 11
21.0785479391
 21
21.4300232011
  0
LINE
  5
393
100
AcDbEntity
  8
RACCORDO
100
AcDbLine
 62
7
  6
CONTINUOUS
 10
6.7206684519
 20
11.7852398781
 11
16.028110103
 21
17.4456331373
  0
LINE
  5
394
100
AcDbEntity
  8
ASSI
100
AcDbLine
 62
7
  6
CONTINUOUS
 10
6.7206684519
 20
11.7852398781
 11
16.028110103
 21
17.4456331373
  0
LWPOLYLINE
  5
395
100
AcDbEntity
  8
RACCORDO
100
AcDbPolyline
 62
7
  6
CONTINUOUS
 90
9
 70
0
 10
-2.4134965149
 20
8.373697335
 10
-2.4280029366
 20
8.3649448041
 10
-2.466831288
 20
8.3373785745
 10
-2.5033728019
 20
8.3047636951
 10
-2.5367535119
 20
8.2673364702
 10
-2.5664715628
 20
8.2250069617
 10
-2.591799143
 20
8.1778861985
 10
-2.6117281549
 20
8.126883131
 10
-2.6174185502
 20
8.1047581678
  0
LINE
  5
396
100
AcDbEntity
  8
0
100
AcDbLine
 62
250
  6
CONTINUOUS
 10
-1.3592151323
 20
9.2830489611
 11
-1.5285994207
 21
9.1829128878
  0
LINE
  5
397
100
AcDbEntity
  8
0
100
AcDbLine
 62
250
  6
CONTINUOUS
 10
-1.6745026301
 20
9.2638429138
 11
-1.743880871
 21
9.2228441487
  0
LINE
  5
398
100
AcDbEntity
  8
0
100
AcDbLine
 62
250
  6
CONTINUOUS
 10
21.1387035085
 20
22.3356955841
 11
9.4991833067
 21
15.4602820579
  0
LINE
  5
399
100
AcDbEntity
  8
ASSI
100
AcDbLine
 62
250
  6
CONTINUOUS
 10
21.1387035085
 20
22.3356955841
 11
9.4991833067
 21
15.4602820579
  0
LINE
  5
39A
100
AcDbEntity
  8
0
100
AcDbLine
 62
250
  6
CONTINUOUS
 10
9.4991833067
 20
15.4602820579
 11
3.3785594144
 21
11.8446395069
  0
LINE
  5
39B
100
AcDbEntity
  8
ASSI
100
AcDbLine
 62
250
  6
CONTINUOUS
 10
9.4991833067
 20
15.4602820579
 11
3.3785594144
 21
11.8446395069
  0
LINE
  5
39C
100
AcDbEntity
  8
SMUSSO
100
AcDbLine
 62
7
  6
CONTINUOUS
 10
15.4577524893
 20
16.2890561655
 11
6.0389715021
 21
10.7541413693
  0
LINE
  5
39D
100
AcDbEntity
  8
ASSI
100
AcDbLine
 62
7
  6
CONTINUOUS
 10
15.4577524893
 20
16.2890561655
 11
6.0389715021
 21
10.7541413693
  0
LINE
  5
39E
100
AcDbEntity
  8
ASSI
100
AcDbLine
 62
7
  6
CONTINUOUS
 10
-2.0272151813
 20
8.5967313928
 11
-2.4136076653
 21
8.3736332152
  0
LINE
  5
39F
100
AcDbEntity
  8
ASSI
100
AcDbLine
 62
7
  6
CONTINUOUS
 10
-1.588580335
 20
7.6952745179
 11
-1.7483990458
 21
7.6029971973
  0
LINE
  5
3A0
100
AcDbEntity
  8
IMPORT_IGES
100
AcDbLine
 62
250
  6
CONTINUOUS
 10
9.8143740331
 20
13.6147724032
 11
10.3800594581
 21
13.9413920779
  0
LINE
  5
3A1
100
AcDbEntity
  8
RACCORDO
100
AcDbLine
 62
7
  6
CONTINUOUS
 10
15.3645439127
 20
16.3428736295
 11
6.1092823821
 21
10.9989925246
  0
LINE
  5
3A2
100
AcDbEntity
  8
ASSI
100
AcDbLine
 62
7
  6
CONTINUOUS
 10
15.3645439127
 20
16.3428736295
 11
6.1092823821
 21
10.9989925246
  0
LINE
  5
3A3
100
AcDbEntity
  8
DRAFT
100
AcDbLine
 62
7
  6
CONTINUOUS
 10
4.6246295142
 20
9.8186985082
 11
-0.2127005909
 21
7.0256939926
  0
LINE
  5
3A4
100
AcDbEntity
  8
RACCORDO
100
AcDbLine
 62
250
  6
CONTINUOUS
 10
-2.4134965149
 20
8.373697335
 11
-2.4136076653
 21
8.3736332152
  0
LINE
  5
3A5
100
AcDbEntity
  8
DRAFT
100
AcDbLine
 62
7
  6
CONTINUOUS
 10
2.5258213358
 20
11.2479539563
 11
1.6010456915
 21
10.7346475707
  0
LINE
  5
3A6
100
AcDbEntity
  8
DRAFT
100
AcDbLine
 62
7
  6
CONTINUOUS
 10
1.6010456915
 20
10.7346475707
 11
0.6620091853
 21
10.2140514929
  0
LINE
  5
3A7
100
AcDbEntity
  8
DRAFT
100
AcDbLine
 62
7
  6
CONTINUOUS
 10
0.6620091853
 20
10.2140514929
 11
-0.2907621899
 21
9.6863732091
  0
LINE
  5
3A8
100
AcDbEntity
  8
DRAFT
100
AcDbLine
 62
7
  6
CONTINUOUS
 10
3.0207875582
 20
11.3407805516
 11
0.1779058191
 21
9.7730342583
  0
LINE
  5
3A9
100
AcDbEntity
  8
DRAFT
100
AcDbLine
 62
7
  6
CONTINUOUS
 10
-0.1027296605
 20
10.2777703999
 11
-1.204097071
 21
9.672868102
  0
LINE
  5
3AA
100
AcDbEntity
  8
DRAFT
100
AcDbLine
 62
7
  6
CONTINUOUS
 10
3.0953479183
 20
12.0082012547
 11
0.4646954448
 21
10.5646114087
  0
LINE
  5
3AB
100
AcDbEntity
  8
DRAFT
100
AcDbLine
 62
7
  6
CONTINUOUS
 10
3.1356746918
 20
11.9848781017
 11
0.862178472
 21
10.7377580017
  0
LINE
  5
3AC
100
AcDbEntity
  8
DRAFT
100
AcDbLine
 62
7
  6
CONTINUOUS
 10
3.4735105126
 20
9.2300076092
 11
4.6246295142
 21
9.8604442582
  0
LINE
  5
3AD
100
AcDbEntity
  8
DRAFT
100
AcDbLine
 62
7
  6
CONTINUOUS
 10
2.1578300573
 20
11.1624414557
 11
-0.7384333877
 21
9.5823449731
  0
LWPOLYLINE
  5
3AE
100
AcDbEntity
  8
DRAFT
100
AcDbPolyline
 62
7
  6
CONTINUOUS
 90
16
 70
0
 10
-0.3933475645
 20
9.4875784219
 10
-0.400235617
 20
9.4838420138
 10
-0.4198718074
 20
9.4752498671
 10
-0.4405937171
 20
9.4690987344
 10
-0.4624168547
 20
9.465429053
 10
-0.4853257117
 20
9.4642003856
 10
-0.5089499
 20
9.4654235486
 10
-0.5332939691
 20
9.4691334895
 10
-0.5583533695
 20
9.4752952608
 10
-0.5837440644
 20
9.4838148373
 10
-0.6094804105
 20
9.4947317355
 10
-0.6355480511
 20
9.5080064388
 10
-0.6615198797
 20
9.5234263718
 10
-0.6872535276
 20
9.5409206759
 10
-0.7128913636
 20
9.5605602097
 10
-0.7384333877
 20
9.5823449731
  0
LINE
  5
3AF
100
AcDbEntity
  8
DRAFT
100
AcDbLine
 62
7
  6
CONTINUOUS
 10
3.4735105126
 20
11.0793839917
 11
0.5957130088
 21
9.5317976233
  0
LINE
  5
3B0
100
AcDbEntity
  8
0
100
AcDbLine
 62
7
  6
CONTINUOUS
 10
4.6246295142
 20
10.7168158127
 11
5.0405239066
 21
10.8849581962
  0
LWPOLYLINE
  5
3B1
100
AcDbEntity
  8
RACCORDO
100
AcDbPolyline
 62
250
  6
CONTINUOUS
 90
4
 70
0
 10
-1.7960514651
 20
8.9837854421
 10
-2.2674027601
 20
8.8174778641
 10
-2.7299819494
 20
8.6314272812
 10
-3.1778331966
 20
8.428334561
  0
LWPOLYLINE
  5
3B2
100
AcDbEntity
  8
0
100
AcDbPolyline
 62
250
  6
CONTINUOUS
 90
8
 70
0
 10
-9.0383497775
 20
16.9062312989
 10
-9.0410576208
 20
16.9288521816
 10
-9.0467581709
 20
16.9515058822
 10
-9.0552235475
 20
16.9726882772
 10
-9.0663002042
 20
16.9920259569
 10
-9.079791364
 20
17.0091980278
 10
-9.0954706325
 20
17.0239348692
 10
-9.1130729733
 20
17.0360007649
  0
LWPOLYLINE
  5
3B3
100
AcDbEntity
  8
0
100
AcDbPolyline
 62
250
  6
CONTINUOUS
 90
6
 70
0
 10
-5.4534161776
 20
11.1585933216
 10
-5.4527389143
 20
11.1503724853
 10
-5.4480752739
 20
11.1356880932
 10
-5.4391135872
 20
11.121684705
 10
-5.4261204484
 20
11.108778277
 10
-5.4094821947
 20
11.0973521632
  0
LWPOLYLINE
  5
3B4
100
AcDbEntity
  8
0
100
AcDbPolyline
 62
250
  6
CONTINUOUS
 90
19
 70
0
 10
-6.5323176393
 20
10.8907352337
 10
-6.5339567533
 20
10.9186398001
 10
-6.53751208
 20
10.94625705
 10
-6.5429836193
 20
10.9735869834
 10
-6.5506673461
 20
11.0009802742
 10
-6.5602672855
 20
11.0280862485
 10
-6.5708955133
 20
11.0538528842
 10
-6.5824804156
 20
11.0780056795
 10
-6.5950936063
 20
11.1008191363
 10
-6.6080620024
 20
11.1220647375
 10
-6.6211454219
 20
11.1415016569
 10
-6.6345840469
 20
11.1593707208
 10
-6.6484253408
 20
11.1761658916
 10
-6.6625224105
 20
11.1919507252
 10
-6.6770221491
 20
11.2066616658
 10
-6.6924126996
 20
11.2206020075
 10
-6.7088567762
 20
11.2338728486
 10
-6.7261916646
 20
11.2463730909
 10
-6.7444173649
 20
11.2581027344
  0
LWPOLYLINE
  5
3B5
100
AcDbEntity
  8
0
100
AcDbPolyline
 62
250
  6
CONTINUOUS
 90
19
 70
0
 10
-6.2519647054
 20
10.8893225396
 10
-6.254316324
 20
10.9347326422
 10
-6.2605839346
 20
10.9808467996
 10
-6.2704007572
 20
11.0270280484
 10
-6.2834379231
 20
11.0728730605
 10
-6.299265243
 20
11.1177133745
 10
-6.3172479225
 20
11.1606155494
 10
-6.3368020258
 20
11.2010241044
 10
-6.3575718595
 20
11.2389162915
 10
-6.3792313858
 20
11.2742792717
 10
-6.4012017565
 20
11.3066849801
 10
-6.4233796687
 20
11.3364331426
 10
-6.4463416255
 20
11.3645413928
 10
-6.4698353307
 20
11.3907971819
 10
-6.4938037041
 20
11.4152132488
 10
-6.5193283349
 20
11.4387895585
 10
-6.5467388664
 20
11.4615026567
 10
-6.5755067193
 20
11.482576734
 10
-6.6054641516
 20
11.5016017631
  0
LINE
  5
3B6
100
AcDbEntity
  8
0
100
AcDbLine
 62
7
  6
CONTINUOUS
 10
-5.4534161776
 20
9.7422276544
 11
-5.4534161776
 21
11.1585933216
  0
LINE
  5
3B7
100
AcDbEntity
  8
0
100
AcDbLine
 62
250
  6
CONTINUOUS
 10
-5.4094821947
 20
9.7168607234
 11
-5.4094821947
 21
11.0973521632
  0
LWPOLYLINE
  5
3B8
100
AcDbEntity
  8
RACCORDO
100
AcDbPolyline
 62
250
  6
CONTINUOUS
 90
10
 70
0
 10
-1.6615652217
 20
8.9629703736
 10
-1.6572164461
 20
8.9902854162
 10
-1.6496006029
 20
9.0184132692
 10
-1.6389005386
 20
9.0466783368
 10
-1.6253731836
 20
9.0744017113
 10
-1.609343402
 20
9.1009174432
 10
-1.5911962029
 20
9.125588545
 10
-1.5713674643
 20
9.1478223446
 10
-1.5503334555
 20
9.1670847179
 10
-1.5285994225
 20
9.1829128889
  0
LWPOLYLINE
  5
3B9
100
AcDbEntity
  8
RACCORDO
100
AcDbPolyline
 62
250
  6
CONTINUOUS
 90
19
 70
0
 10
-1.8207898018
 20
7.6447947126
 10
-1.8177776357
 20
7.6560283549
 10
-1.8119825637
 20
7.6948991803
 10
-1.8100421954
 20
7.7364640193
 10
-1.8119778249
 20
7.7802671116
 10
-1.8177682539
 20
7.825828356
 10
-1.8273496484
 20
7.8726466884
 10
-1.8406163078
 20
7.920207761
 10
-1.8574226429
 20
7.9679911854
 10
-1.8775847862
 20
8.0154746579
 10
-1.900882606
 20
8.0621393389
 10
-1.9270600779
 20
8.1074720656
 10
-1.9558280365
 20
8.1509727903
 10
-1.9868707472
 20
8.1921653456
 10
-2.019847487
 20
8.2305987731
 10
-2.054393623
 20
8.2658498525
 10
-2.0901291118
 20
8.2975332484
 10
-2.1266631548
 20
8.3253048562
 10
-2.1635955852
 20
8.3488626263
  0
LWPOLYLINE
  5
3BA
100
AcDbEntity
  8
RACCORDO
100
AcDbPolyline
 62
250
  6
CONTINUOUS
 90
13
 70
0
 10
-0.4669354488
 20
14.5013943297
 10
-0.4537996487
 20
14.5438508223
 10
-0.4430580869
 20
14.584687573
 10
-0.4347906911
 20
14.623600718
 10
-0.4290589787
 20
14.6603007063
 10
-0.4259055994
 20
14.6945144556
 10
-0.4253540175
 20
14.7259873832
 10
-0.4274083377
 20
14.7544853006
 10
-0.4320532743
 20
14.7797961558
 10
-0.4392542651
 20
14.801731612
 10
-0.4489577283
 20
14.8201284479
 10
-0.4610914614
 20
14.8348497733
 10
-0.4755651782
 20
14.8457860467
  0
LWPOLYLINE
  5
3BB
100
AcDbEntity
  8
ASSI
100
AcDbPolyline
 62
250
  6
CONTINUOUS
 90
13
 70
0
 10
-0.4669354488
 20
14.5013943297
 10
-0.4537996487
 20
14.5438508223
 10
-0.4430580869
 20
14.584687573
 10
-0.4347906911
 20
14.623600718
 10
-0.4290589787
 20
14.6603007063
 10
-0.4259055994
 20
14.6945144556
 10
-0.4253540175
 20
14.7259873832
 10
-0.4274083377
 20
14.7544853006
 10
-0.4320532743
 20
14.7797961558
 10
-0.4392542651
 20
14.801731612
 10
-0.4489577283
 20
14.8201284479
 10
-0.4610914614
 20
14.8348497733
 10
-0.4755651782
 20
14.8457860467
  0
LWPOLYLINE
  5
3BC
100
AcDbEntity
  8
0
100
AcDbPolyline
 62
250
  6
CONTINUOUS
 90
19
 70
0
 10
-21.0416660129
 20
-18.135269979
 10
-21.0806931553
 20
-18.1765581412
 10
-21.1218537965
 20
-18.2108065542
 10
-21.1636958439
 20
-18.2395467684
 10
-21.2059870579
 20
-18.262820852
 10
-21.2489626139
 20
-18.2805882289
 10
-21.291870856
 20
-18.2942561356
 10
-21.3344574811
 20
-18.3039682112
 10
-21.3769785018
 20
-18.3095816862
 10
-21.4194471847
 20
-18.3120739042
 10
-21.4614761409
 20
-18.3117515037
 10
-21.5034536636
 20
-18.3083083067
 10
-21.5465562008
 20
-18.3018022575
 10
-21.5908554382
 20
-18.2925698914
 10
-21.6362801415
 20
-18.2802749032
 10
-21.6837922725
 20
-18.2639659225
 10
-21.733712601
 20
-18.2433258851
 10
-21.7857206704
 20
-18.2186720147
 10
-21.8398165665
 20
-18.1900043552
  0
LWPOLYLINE
  5
3BD
100
AcDbEntity
  8
RACCORDO
100
AcDbPolyline
 62
250
  6
CONTINUOUS
 90
3
 70
0
 10
17.2798138097
 20
19.2050539668
 10
17.3794138479
 20
19.2762167735
 10
17.4802781995
 20
19.341262064
  0
LWPOLYLINE
  5
3BE
100
AcDbEntity
  8
ASSI
100
AcDbPolyline
 62
250
  6
CONTINUOUS
 90
3
 70
0
 10
17.2798138097
 20
19.2050539668
 10
17.3794138479
 20
19.2762167735
 10
17.4802781995
 20
19.341262064
  0
LWPOLYLINE
  5
3BF
100
AcDbEntity
  8
RACCORDO
100
AcDbPolyline
 62
7
  6
CONTINUOUS
 90
16
 70
0
 10
16.0281135312
 20
15.5814762319
 10
16.0487912307
 20
15.5951202224
 10
16.0670270371
 20
15.609588119
 10
16.0828209504
 20
15.6248799217
 10
16.0961893849
 20
15.6411499751
 10
16.1071159262
 20
15.6582439347
 10
16.1155513311
 20
15.6756987659
 10
16.121470186
 20
15.6934213779
 10
16.1248979044
 20
15.7115048616
 10
16.125861484
 20
15.7297654555
 10
16.1243954708
 20
15.7482448371
 10
16.1204653187
 20
15.7669013289
 10
16.1139943875
 20
15.7854261371
 10
16.1048431208
 20
15.8039222274
 10
16.0931510749
 20
15.8222866342
 10
16.0912397174
 20
15.8249365545
  0
LWPOLYLINE
  5
3C0
100
AcDbEntity
  8
ASSI
100
AcDbPolyline
 62
7
  6
CONTINUOUS
 90
16
 70
0
 10
16.0281135312
 20
15.5814762319
 10
16.0487912307
 20
15.5951202224
 10
16.0670270371
 20
15.609588119
 10
16.0828209504
 20
15.6248799217
 10
16.0961893849
 20
15.6411499751
 10
16.1071159262
 20
15.6582439347
 10
16.1155513311
 20
15.6756987659
 10
16.121470186
 20
15.6934213779
 10
16.1248979044
 20
15.7115048616
 10
16.125861484
 20
15.7297654555
 10
16.1243954708
 20
15.7482448371
 10
16.1204653187
 20
15.7669013289
 10
16.1139943875
 20
15.7854261371
 10
16.1048431208
 20
15.8039222274
 10
16.0931510749
 20
15.8222866342
 10
16.0912397174
 20
15.8249365545
  0
LINE
  5
3C1
100
AcDbEntity
  8
RACCORDO
100
AcDbLine
 62
250
  6
CONTINUOUS
 10
17.4802781995
 20
15.2589106801
 11
21.1387035085
 21
17.4838106827
  0
LINE
  5
3C2
100
AcDbEntity
  8
ASSI
100
AcDbLine
 62
250
  6
CONTINUOUS
 10
17.4802781995
 20
15.2589106801
 11
21.1387035085
 21
17.4838106827
  0
LINE
  5
3C3
100
AcDbEntity
  8
RACCORDO
100
AcDbLine
 62
7
  6
CONTINUOUS
 10
17.4203597457
 20
15.1229160181
 11
21.0785479391
 21
17.3476718171
  0
LINE
  5
3C4
100
AcDbEntity
  8
ASSI
100
AcDbLine
 62
7
  6
CONTINUOUS
 10
17.4203597457
 20
15.1229160181
 11
21.0785479391
 21
17.3476718171
  0
LINE
  5
3C5
100
AcDbEntity
  8
RACCORDO
100
AcDbLine
 62
7
  6
CONTINUOUS
 10
8.5864557449
 20
8.8375815937
 11
16.028110103
 21
13.3632817533
  0
LINE
  5
3C6
100
AcDbEntity
  8
ASSI
100
AcDbLine
 62
7
  6
CONTINUOUS
 10
8.5864557449
 20
8.8375815937
 11
16.028110103
 21
13.3632817533
  0
LINE
  5
3C7
100
AcDbEntity
  8
RACCORDO
100
AcDbLine
 62
7
  6
CONTINUOUS
 10
16.0281101069
 20
15.5814738112
 11
6.7206684519
 21
10.1119869319
  0
LINE
  5
3C8
100
AcDbEntity
  8
ASSI
100
AcDbLine
 62
7
  6
CONTINUOUS
 10
16.0281101069
 20
15.5814738112
 11
6.7206684519
 21
10.1119869319
  0
LINE
  5
3C9
100
AcDbEntity
  8
RACCORDO
100
AcDbLine
 62
250
  6
CONTINUOUS
 10
20.9265714729
 20
17.9396107055
 11
17.2663274371
 21
15.7886806755
  0
LINE
  5
3CA
100
AcDbEntity
  8
ASSI
100
AcDbLine
 62
250
  6
CONTINUOUS
 10
20.9265714729
 20
17.9396107055
 11
17.2663274371
 21
15.7886806755
  0
LINE
  5
3CB
100
AcDbEntity
  8
RACCORDO
100
AcDbLine
 62
250
  6
CONTINUOUS
 10
21.1387035085
 20
17.5722152225
 11
17.4802781995
 21
15.4223539611
  0
LINE
  5
3CC
100
AcDbEntity
  8
ASSI
100
AcDbLine
 62
250
  6
CONTINUOUS
 10
21.1387035085
 20
17.5722152225
 11
17.4802781995
 21
15.4223539611
  0
LINE
  5
3CD
100
AcDbEntity
  8
DRAFT
100
AcDbLine
 62
7
  6
CONTINUOUS
 10
19.3310594855
 20
17.6467033928
 11
16.6897044996
 21
16.1216155328
  0
LINE
  5
3CE
100
AcDbEntity
  8
ASSI
100
AcDbLine
 62
7
  6
CONTINUOUS
 10
19.3310594855
 20
17.6467033928
 11
16.6897044996
 21
16.1216155328
  0
LINE
  5
3CF
100
AcDbEntity
  8
DRAFT
100
AcDbLine
 62
7
  6
CONTINUOUS
 10
7.8970688593
 20
8.5252768425
 11
5.1180121136
 21
6.9206787979
  0
LINE
  5
3D0
100
AcDbEntity
  8
RACCORDO
100
AcDbLine
 62
7
  6
CONTINUOUS
 10
15.3645439127
 20
12.2605222455
 11
9.0113426506
 21
8.5922572195
  0
LINE
  5
3D1
100
AcDbEntity
  8
ASSI
100
AcDbLine
 62
7
  6
CONTINUOUS
 10
15.3645439127
 20
12.2605222455
 11
9.0113426506
 21
8.5922572195
  0
LINE
  5
3D2
100
AcDbEntity
  8
ASSI
100
AcDbLine
 62
7
  6
CONTINUOUS
 10
19.2726343383
 20
17.6804373405
 11
20.33329451
 21
18.2821613883
  0
LINE
  5
3D3
100
AcDbEntity
  8
DRAFT
100
AcDbLine
 62
7
  6
CONTINUOUS
 10
8.3497918137
 20
8.2638802826
 11
5.5358193033
 21
6.6794421629
  0
LWPOLYLINE
  5
3D4
100
AcDbEntity
  8
RACCORDO
100
AcDbPolyline
 62
250
  6
CONTINUOUS
 90
15
 70
0
 10
17.2663274371
 20
15.7886806755
 10
17.1826321573
 20
15.7420788746
 10
17.0993674456
 20
15.701398496
 10
17.0168118757
 20
15.666744632
 10
16.935276003
 20
15.6382084273
 10
16.8549911999
 20
15.6158420398
 10
16.7761137552
 20
15.5996823328
 10
16.6988841802
 20
15.5897713928
 10
16.6235803531
 20
15.5861376984
 10
16.5504121652
 20
15.5887947188
 10
16.4796153051
 20
15.5977328235
 10
16.4114347741
 20
15.6129201102
 10
16.3460846328
 20
15.6343123226
 10
16.2837821376
 20
15.6618376423
 10
16.2499232282
 20
15.6801156883
  0
LWPOLYLINE
  5
3D5
100
AcDbEntity
  8
ASSI
100
AcDbPolyline
 62
250
  6
CONTINUOUS
 90
15
 70
0
 10
17.2663274371
 20
15.7886806755
 10
17.1826321573
 20
15.7420788746
 10
17.0993674456
 20
15.701398496
 10
17.0168118757
 20
15.666744632
 10
16.935276003
 20
15.6382084273
 10
16.8549911999
 20
15.6158420398
 10
16.7761137552
 20
15.5996823328
 10
16.6988841802
 20
15.5897713928
 10
16.6235803531
 20
15.5861376984
 10
16.5504121652
 20
15.5887947188
 10
16.4796153051
 20
15.5977328235
 10
16.4114347741
 20
15.6129201102
 10
16.3460846328
 20
15.6343123226
 10
16.2837821376
 20
15.6618376423
 10
16.2499232282
 20
15.6801156883
  0
LWPOLYLINE
  5
3D6
100
AcDbEntity
  8
RACCORDO
100
AcDbPolyline
 62
250
  6
CONTINUOUS
 90
19
 70
0
 10
17.4802781995
 20
15.4223539611
 10
17.3806677595
 20
15.3674083607
 10
17.2822280407
 20
15.3199028291
 10
17.1849590431
 20
15.2798373662
 10
17.088552151
 20
15.247141595
 10
16.99331598
 20
15.2218858926
 10
16.9001763776
 20
15.2042813899
 10
16.8091357438
 20
15.194393511
 10
16.7201916786
 20
15.1921568319
 10
16.6342628281
 20
15.1975862118
 10
16.5513792786
 20
15.2107596904
 10
16.4715109439
 20
15.231599228
 10
16.3954862123
 20
15.2598855639
 10
16.3233441819
 20
15.2956965003
 10
16.2550457546
 20
15.338954235
 10
16.1913020241
 20
15.3892061002
 10
16.1323500216
 20
15.4463012067
 10
16.0779527159
 20
15.5103904437
 10
16.0281101069
 20
15.5814738112
  0
LWPOLYLINE
  5
3D7
100
AcDbEntity
  8
ASSI
100
AcDbPolyline
 62
250
  6
CONTINUOUS
 90
19
 70
0
 10
17.4802781995
 20
15.4223539611
 10
17.3806677595
 20
15.3674083607
 10
17.2822280407
 20
15.3199028291
 10
17.1849590431
 20
15.2798373662
 10
17.088552151
 20
15.247141595
 10
16.99331598
 20
15.2218858926
 10
16.9001763776
 20
15.2042813899
 10
16.8091357438
 20
15.194393511
 10
16.7201916786
 20
15.1921568319
 10
16.6342628281
 20
15.1975862118
 10
16.5513792786
 20
15.2107596904
 10
16.4715109439
 20
15.231599228
 10
16.3954862123
 20
15.2598855639
 10
16.3233441819
 20
15.2956965003
 10
16.2550457546
 20
15.338954235
 10
16.1913020241
 20
15.3892061002
 10
16.1323500216
 20
15.4463012067
 10
16.0779527159
 20
15.5103904437
 10
16.0281101069
 20
15.5814738112
  0
LWPOLYLINE
  5
3D8
100
AcDbEntity
  8
SMUSSO
100
AcDbPolyline
 62
7
  6
CONTINUOUS
 90
5
 70
0
 10
6.7206684519
 20
10.1119869319
 10
6.6632718427
 20
10.0810358289
 10
6.6069278518
 20
10.0559178524
 10
6.5516364791
 20
10.0366330024
 10
6.5223290745
 20
10.0293824636
  0
LWPOLYLINE
  5
3D9
100
AcDbEntity
  8
ASSI
100
AcDbPolyline
 62
7
  6
CONTINUOUS
 90
5
 70
0
 10
6.7206684519
 20
10.1119869319
 10
6.6632718427
 20
10.0810358289
 10
6.6069278518
 20
10.0559178524
 10
6.5516364791
 20
10.0366330024
 10
6.5223290745
 20
10.0293824636
  0
LINE
  5
3DA
100
AcDbEntity
  8
RACCORDO
100
AcDbLine
 62
7
  6
CONTINUOUS
 10
-0.1066337832
 20
8.0651724488
 11
-0.2127005909
 21
7.0256939926
  0
LWPOLYLINE
  5
3DB
100
AcDbEntity
  8
DRAFT
100
AcDbPolyline
 62
7
  6
CONTINUOUS
 90
11
 70
0
 10
-0.2907621899
 20
9.6863732091
 10
-0.2937376263
 20
9.6579170334
 10
-0.2985461114
 20
9.6311629354
 10
-0.3051876454
 20
9.6061109151
 10
-0.3137185935
 20
9.582642431
 10
-0.3240825905
 20
9.5608760246
 10
-0.3361105401
 20
9.5411673204
 10
-0.3498308671
 20
9.5235511323
 10
-0.3652151469
 20
9.5079926464
 10
-0.3820090088
 20
9.4947430454
 10
-0.3933475645
 20
9.4875784219
  0
LINE
  5
3DC
100
AcDbEntity
  8
IMPORT_IGES
100
AcDbLine
 62
7
  6
CONTINUOUS
 10
16.0946717033
 20
17.3541220764
 11
16.1913562826
 21
17.4586274917
  0
LINE
  5
3DD
100
AcDbEntity
  8
0
100
AcDbLine
 62
7
  6
CONTINUOUS
 10
9.2999039462
 20
8.4256455439
 11
9.0086915575
 21
8.1855133341
  0
LINE
  5
3DE
100
AcDbEntity
  8
DRAFT
100
AcDbLine
 62
7
  6
CONTINUOUS
 10
9.9187339095
 20
8.0684247211
 11
9.0086915575
 21
7.3291417796
  0
LWPOLYLINE
  5
3DF
100
AcDbEntity
  8
RACCORDO
100
AcDbPolyline
 62
250
  6
CONTINUOUS
 90
10
 70
0
 10
6.1276609402
 20
4.7622841109
 10
6.1059257004
 20
4.746455011
 10
6.0848908655
 20
4.7271916245
 10
6.0650617052
 20
4.7049569145
 10
6.0469144565
 20
4.6802851433
 10
6.0308849539
 20
4.6537691164
 10
6.0173581397
 20
4.6260459545
 10
6.0066587431
 20
4.5977816465
 10
5.9990435189
 20
4.569655032
 10
5.9946951392
 20
4.5423415966
  0
LWPOLYLINE
  5
3E0
100
AcDbEntity
  8
RACCORDO
100
AcDbPolyline
 62
250
  6
CONTINUOUS
 90
3
 70
0
 10
17.2798138097
 20
15.1227025828
 10
17.3794138479
 20
15.1938653895
 10
17.4802781995
 20
15.2589106801
  0
LWPOLYLINE
  5
3E1
100
AcDbEntity
  8
ASSI
100
AcDbPolyline
 62
250
  6
CONTINUOUS
 90
3
 70
0
 10
17.2798138097
 20
15.1227025828
 10
17.3794138479
 20
15.1938653895
 10
17.4802781995
 20
15.2589106801
  0
LINE
  5
3E2
100
AcDbEntity
  8
0
100
AcDbLine
 62
250
  6
CONTINUOUS
 10
6.3420433585
 20
4.5541328391
 11
6.4059717164
 21
4.5982782982
  0
LINE
  5
3E3
100
AcDbEntity
  8
0
100
AcDbLine
 62
250
  6
CONTINUOUS
 10
6.1276609401
 20
4.762284111
 11
6.2840206625
 21
4.8699404055
  0
LWPOLYLINE
  5
3E4
100
AcDbEntity
  8
RACCORDO
100
AcDbPolyline
 62
7
  6
CONTINUOUS
 90
16
 70
0
 10
16.0281135312
 20
11.499124848
 10
16.0487912307
 20
11.5127688385
 10
16.0670270371
 20
11.5272367351
 10
16.0828209504
 20
11.5425285377
 10
16.0961893849
 20
11.5587985912
 10
16.1071159262
 20
11.5758925507
 10
16.1155513311
 20
11.593347382
 10
16.121470186
 20
11.6110699939
 10
16.1248979044
 20
11.6291534776
 10
16.125861484
 20
11.6474140715
 10
16.1243954708
 20
11.6658934531
 10
16.1204653187
 20
11.6845499449
 10
16.1139943875
 20
11.7030747532
 10
16.1048431208
 20
11.7215708435
 10
16.0931510749
 20
11.7399352502
 10
16.0912397174
 20
11.7425851706
  0
LWPOLYLINE
  5
3E5
100
AcDbEntity
  8
ASSI
100
AcDbPolyline
 62
7
  6
CONTINUOUS
 90
16
 70
0
 10
16.0281135312
 20
11.499124848
 10
16.0487912307
 20
11.5127688385
 10
16.0670270371
 20
11.5272367351
 10
16.0828209504
 20
11.5425285377
 10
16.0961893849
 20
11.5587985912
 10
16.1071159262
 20
11.5758925507
 10
16.1155513311
 20
11.593347382
 10
16.121470186
 20
11.6110699939
 10
16.1248979044
 20
11.6291534776
 10
16.125861484
 20
11.6474140715
 10
16.1243954708
 20
11.6658934531
 10
16.1204653187
 20
11.6845499449
 10
16.1139943875
 20
11.7030747532
 10
16.1048431208
 20
11.7215708435
 10
16.0931510749
 20
11.7399352502
 10
16.0912397174
 20
11.7425851706
  0
LINE
  5
3E6
100
AcDbEntity
  8
RACCORDO
100
AcDbLine
 62
7
  6
CONTINUOUS
 10
4.5704085749
 20
5.6614221097
 11
5.1180121136
 21
6.0225614934
  0
LWPOLYLINE
  5
3E7
100
AcDbEntity
  8
IMPORT_IGES
100
AcDbPolyline
 62
7
  6
CONTINUOUS
 90
6
 70
0
 10
15.5772942998
 20
12.859756372
 10
15.6842023222
 20
12.9263139277
 10
15.7892846012
 20
13.0006831101
 10
15.8925411367
 20
13.0828639194
 10
15.9945192917
 20
13.1734114925
 10
16.0946717033
 20
13.2717706924
  0
LINE
  5
3E8
100
AcDbEntity
  8
RACCORDO
100
AcDbLine
 62
250
  6
CONTINUOUS
 10
17.4802781995
 20
11.1765592961
 11
21.1387035085
 21
13.4014592988
  0
LINE
  5
3E9
100
AcDbEntity
  8
ASSI
100
AcDbLine
 62
250
  6
CONTINUOUS
 10
17.4802781995
 20
11.1765592961
 11
21.1387035085
 21
13.4014592988
  0
LINE
  5
3EA
100
AcDbEntity
  8
RACCORDO
100
AcDbLine
 62
7
  6
CONTINUOUS
 10
17.4203597457
 20
11.0405646341
 11
21.0785479391
 21
13.2653204332
  0
LINE
  5
3EB
100
AcDbEntity
  8
ASSI
100
AcDbLine
 62
7
  6
CONTINUOUS
 10
17.4203597457
 20
11.0405646341
 11
21.0785479391
 21
13.2653204332
  0
LINE
  5
3EC
100
AcDbEntity
  8
RACCORDO
100
AcDbLine
 62
7
  6
CONTINUOUS
 10
12.0299642569
 20
6.8494267785
 11
16.028110103
 21
9.2809303694
  0
LINE
  5
3ED
100
AcDbEntity
  8
ASSI
100
AcDbLine
 62
7
  6
CONTINUOUS
 10
12.0299642569
 20
6.8494267785
 11
16.028110103
 21
9.2809303694
  0
LWPOLYLINE
  5
3EE
100
AcDbEntity
  8
DRAFT
100
AcDbPolyline
 62
7
  6
CONTINUOUS
 90
10
 70
0
 10
9.2127493146
 20
7.0890194954
 10
8.9121764761
 20
6.9068573126
 10
8.6100535841
 20
6.724190561
 10
8.3063775836
 20
6.5410088267
 10
8.0011244618
 20
6.357300422
 10
7.6943135103
 20
6.1730553557
 10
7.3860068528
 20
5.9882685135
 10
7.0762238443
 20
5.8029342252
 10
6.764941512
 20
5.6170431282
 10
6.4521585101
 20
5.4305873306
  0
LWPOLYLINE
  5
3EF
100
AcDbEntity
  8
RACCORDO
100
AcDbPolyline
 62
7
  6
CONTINUOUS
 90
9
 70
0
 10
5.3646780782
 20
3.8826768084
 10
5.3501716565
 20
3.8739242775
 10
5.3113433051
 20
3.8463580479
 10
5.2748017912
 20
3.8137431685
 10
5.2414210812
 20
3.7763159436
 10
5.2117030302
 20
3.7339864351
 10
5.1863754501
 20
3.6868656719
 10
5.1664464382
 20
3.6358626044
 10
5.1607560429
 20
3.6137376412
  0
LINE
  5
3F0
100
AcDbEntity
  8
SMUSSO
100
AcDbLine
 62
7
  6
CONTINUOUS
 10
15.4577524893
 20
12.2067047816
 11
9.1604914029
 21
8.5061405992
  0
LINE
  5
3F1
100
AcDbEntity
  8
ASSI
100
AcDbLine
 62
7
  6
CONTINUOUS
 10
15.4577524893
 20
12.2067047816
 11
9.1604914029
 21
8.5061405992
  0
LINE
  5
3F2
100
AcDbEntity
  8
RACCORDO
100
AcDbLine
 62
7
  6
CONTINUOUS
 10
16.0281101069
 20
11.4991224272
 11
10.0556026318
 21
7.9893984362
  0
LINE
  5
3F3
100
AcDbEntity
  8
ASSI
100
AcDbLine
 62
7
  6
CONTINUOUS
 10
16.0281101069
 20
11.4991224272
 11
10.0556026318
 21
7.9893984362
  0
LINE
  5
3F4
100
AcDbEntity
  8
DRAFT
100
AcDbLine
 62
7
  6
CONTINUOUS
 10
8.973103627
 20
7.3082286525
 11
9.0086915575
 21
7.3291417796
  0
LINE
  5
3F5
100
AcDbEntity
  8
RACCORDO
100
AcDbLine
 62
250
  6
CONTINUOUS
 10
20.9265714729
 20
13.8572593215
 11
17.2663274371
 21
11.7063292915
  0
LINE
  5
3F6
100
AcDbEntity
  8
ASSI
100
AcDbLine
 62
250
  6
CONTINUOUS
 10
20.9265714729
 20
13.8572593215
 11
17.2663274371
 21
11.7063292915
  0
LINE
  5
3F7
100
AcDbEntity
  8
RACCORDO
100
AcDbLine
 62
250
  6
CONTINUOUS
 10
21.1387035085
 20
13.4898638385
 11
17.4802781995
 21
11.3400025772
  0
LINE
  5
3F8
100
AcDbEntity
  8
ASSI
100
AcDbLine
 62
250
  6
CONTINUOUS
 10
21.1387035085
 20
13.4898638385
 11
17.4802781995
 21
11.3400025772
  0
LINE
  5
3F9
100
AcDbEntity
  8
DRAFT
100
AcDbLine
 62
7
  6
CONTINUOUS
 10
19.3310594855
 20
13.5643520088
 11
16.6897044996
 21
12.0392641489
  0
LINE
  5
3FA
100
AcDbEntity
  8
ASSI
100
AcDbLine
 62
7
  6
CONTINUOUS
 10
19.3310594855
 20
13.5643520088
 11
16.6897044996
 21
12.0392641489
  0
LINE
  5
3FB
100
AcDbEntity
  8
ASSI
100
AcDbLine
 62
7
  6
CONTINUOUS
 10
5.7509594117
 20
4.1057108662
 11
5.3645669278
 21
3.8826126886
  0
LINE
  5
3FC
100
AcDbEntity
  8
ASSI
100
AcDbLine
 62
7
  6
CONTINUOUS
 10
6.189594258
 20
3.2042539913
 11
6.0297755473
 21
3.1119766707
  0
LINE
  5
3FD
100
AcDbEntity
  8
RACCORDO
100
AcDbLine
 62
250
  6
CONTINUOUS
 10
5.3646780782
 20
3.8826768084
 11
5.3645669278
 21
3.8826126886
  0
LINE
  5
3FE
100
AcDbEntity
  8
ASSI
100
AcDbLine
 62
7
  6
CONTINUOUS
 10
19.2726343383
 20
13.5980859566
 11
20.33329451
 21
14.1998100043
  0
LWPOLYLINE
  5
3FF
100
AcDbEntity
  8
RACCORDO
100
AcDbPolyline
 62
250
  6
CONTINUOUS
 90
15
 70
0
 10
17.2663274371
 20
11.7063292915
 10
17.1826321573
 20
11.6597274907
 10
17.0993674456
 20
11.619047112
 10
17.0168118757
 20
11.584393248
 10
16.935276003
 20
11.5558570433
 10
16.8549911999
 20
11.5334906558
 10
16.7761137552
 20
11.5173309488
 10
16.6988841802
 20
11.5074200088
 10
16.6235803531
 20
11.5037863144
 10
16.5504121652
 20
11.5064433348
 10
16.4796153051
 20
11.5153814395
 10
16.4114347741
 20
11.5305687262
 10
16.3460846328
 20
11.5519609386
 10
16.2837821376
 20
11.5794862584
 10
16.2499232282
 20
11.5977643044
  0
LWPOLYLINE
  5
400
100
AcDbEntity
  8
ASSI
100
AcDbPolyline
 62
250
  6
CONTINUOUS
 90
15
 70
0
 10
17.2663274371
 20
11.7063292915
 10
17.1826321573
 20
11.6597274907
 10
17.0993674456
 20
11.619047112
 10
17.0168118757
 20
11.584393248
 10
16.935276003
 20
11.5558570433
 10
16.8549911999
 20
11.5334906558
 10
16.7761137552
 20
11.5173309488
 10
16.6988841802
 20
11.5074200088
 10
16.6235803531
 20
11.5037863144
 10
16.5504121652
 20
11.5064433348
 10
16.4796153051
 20
11.5153814395
 10
16.4114347741
 20
11.5305687262
 10
16.3460846328
 20
11.5519609386
 10
16.2837821376
 20
11.5794862584
 10
16.2499232282
 20
11.5977643044
  0
LWPOLYLINE
  5
401
100
AcDbEntity
  8
RACCORDO
100
AcDbPolyline
 62
250
  6
CONTINUOUS
 90
19
 70
0
 10
17.4802781995
 20
11.3400025772
 10
17.3806677595
 20
11.2850569768
 10
17.2822280407
 20
11.2375514451
 10
17.1849590431
 20
11.1974859822
 10
17.088552151
 20
11.1647902111
 10
16.99331598
 20
11.1395345086
 10
16.9001763776
 20
11.121930006
 10
16.8091357438
 20
11.1120421271
 10
16.7201916786
 20
11.109805448
 10
16.6342628281
 20
11.1152348278
 10
16.5513792786
 20
11.1284083065
 10
16.4715109439
 20
11.1492478441
 10
16.3954862123
 20
11.1775341799
 10
16.3233441819
 20
11.2133451163
 10
16.2550457546
 20
11.256602851
 10
16.1913020241
 20
11.3068547163
 10
16.1323500216
 20
11.3639498227
 10
16.0779527159
 20
11.4280390597
 10
16.0281101069
 20
11.4991224272
  0
LWPOLYLINE
  5
402
100
AcDbEntity
  8
ASSI
100
AcDbPolyline
 62
250
  6
CONTINUOUS
 90
19
 70
0
 10
17.4802781995
 20
11.3400025772
 10
17.3806677595
 20
11.2850569768
 10
17.2822280407
 20
11.2375514451
 10
17.1849590431
 20
11.1974859822
 10
17.088552151
 20
11.1647902111
 10
16.99331598
 20
11.1395345086
 10
16.9001763776
 20
11.121930006
 10
16.8091357438
 20
11.1120421271
 10
16.7201916786
 20
11.109805448
 10
16.6342628281
 20
11.1152348278
 10
16.5513792786
 20
11.1284083065
 10
16.4715109439
 20
11.1492478441
 10
16.3954862123
 20
11.1775341799
 10
16.3233441819
 20
11.2133451163
 10
16.2550457546
 20
11.256602851
 10
16.1913020241
 20
11.3068547163
 10
16.1323500216
 20
11.3639498227
 10
16.0779527159
 20
11.4280390597
 10
16.0281101069
 20
11.4991224272
  0
LWPOLYLINE
  5
403
100
AcDbEntity
  8
DRAFT
100
AcDbPolyline
 62
7
  6
CONTINUOUS
 90
10
 70
0
 10
8.8447580361
 20
7.5994791004
 10
8.5338911831
 20
7.4315962739
 10
8.2218586613
 20
7.2626756788
 10
7.9086515956
 20
7.0927149746
 10
7.5942534522
 20
6.921692099
 10
7.2786625015
 20
6.7496262208
 10
6.9618943458
 20
6.5765767573
 10
6.643950782
 20
6.4025623945
 10
6.3248173042
 20
6.2275620246
 10
6.0044873123
 20
6.0515750446
  0
LWPOLYLINE
  5
404
100
AcDbEntity
  8
RACCORDO
100
AcDbPolyline
 62
250
  6
CONTINUOUS
 90
10
 70
0
 10
6.3420431562
 20
4.5541326473
 10
6.3166499343
 20
4.5417239667
 10
6.2897448468
 20
4.5275776868
 10
6.262030829
 20
4.5120634001
 10
6.234231951
 20
4.4955864406
 10
6.2070744998
 20
4.4785772932
 10
6.1812680041
 20
4.461480347
 10
6.157486697
 20
4.4447422849
 10
6.1363519006
 20
4.4288004139
 10
6.1184157928
 20
4.414071239
  0
LINE
  5
405
100
AcDbEntity
  8
RACCORDO
100
AcDbLine
 62
250
  6
CONTINUOUS
 10
3.731480202
 20
-1.7977158899
 11
-26.8653649295
 21
15.8685190204
  0
LWPOLYLINE
  5
406
100
AcDbEntity
  8
0
100
AcDbPolyline
 62
250
  6
CONTINUOUS
 90
6
 70
0
 10
-12.0204267212
 20
13.6210047991
 10
-11.9940853316
 20
13.5904837283
 10
-11.9693228971
 20
13.5578918837
 10
-11.9461016651
 20
13.5232569246
 10
-11.9244593883
 20
13.4865511917
 10
-11.9186885907
 20
13.4751949169
  0
LWPOLYLINE
  5
407
100
AcDbEntity
  8
0
100
AcDbPolyline
 62
250
  6
CONTINUOUS
 90
9
 70
0
 10
-9.0879087398
 20
16.8795800928
 10
-9.0970748256
 20
16.8998140191
 10
-9.1097070613
 20
16.9226779065
 10
-9.1241183045
 20
16.9445268213
 10
-9.1400565447
 20
16.9649753748
 10
-9.1572276083
 20
16.9836513615
 10
-9.1753265669
 20
17.0002353396
 10
-9.1940484849
 20
17.0144594518
 10
-9.2130729733
 20
17.0260897397
  0
LINE
  5
408
100
AcDbEntity
  8
DRAFT
100
AcDbLine
 62
7
  6
CONTINUOUS
 10
0.5957130088
 20
9.5317976233
 11
0.5957130088
 21
8.6336803188
  0
LINE
  5
409
100
AcDbEntity
  8
DRAFT
100
AcDbLine
 62
7
  6
CONTINUOUS
 10
3.4735105126
 20
11.0793839917
 11
3.4735105126
 21
9.2300076092
  0
LWPOLYLINE
  5
40A
100
AcDbEntity
  8
RACCORDO
100
AcDbPolyline
 62
250
  6
CONTINUOUS
 90
19
 70
0
 10
1.8766364297
 20
-37.0205009822
 10
1.8765795545
 20
-37.054802153
 10
1.8789709443
 20
-37.0872403608
 10
1.8838105991
 20
-37.1178156058
 10
1.8911637464
 20
-37.1467392633
 10
1.9009651586
 20
-37.1737999578
 10
1.9130191535
 20
-37.1983635635
 10
1.9273726336
 20
-37.2203562209
 10
1.9439786962
 20
-37.2398517895
 10
1.9625009516
 20
-37.2564377208
 10
1.9829870445
 20
-37.2700530798
 10
2.0053893302
 20
-37.2807588017
 10
2.0292284839
 20
-37.2883251435
 10
2.0545550531
 20
-37.2926712862
 10
2.0813184903
 20
-37.2938780489
 10
2.1088878296
 20
-37.291958146
 10
2.1370527487
 20
-37.2869158159
 10
2.1660235699
 20
-37.2787468202
 10
2.195800293
 20
-37.2674511591
  0
LWPOLYLINE
  5
40B
100
AcDbEntity
  8
RACCORDO
100
AcDbPolyline
 62
250
  6
CONTINUOUS
 90
11
 70
0
 10
1.1761009654
 20
-36.99870326
 10
1.1759072898
 20
-37.0670360065
 10
1.180680295
 20
-37.1323317587
 10
1.1903868829
 20
-37.1941359759
 10
1.2049614726
 20
-37.2520200778
 10
1.2243017253
 20
-37.3055801635
 10
1.2482687861
 20
-37.3544402665
 10
1.2766963222
 20
-37.3982608568
 10
1.3093874253
 20
-37.4367398612
 10
1.3461118077
 20
-37.4696096207
 10
1.3836541382
 20
-37.4949388332
  0
LWPOLYLINE
  5
40C
100
AcDbEntity
  8
IMPORT_IGES
100
AcDbPolyline
 62
7
  6
CONTINUOUS
 90
12
 70
0
 10
16.1913562826
 20
17.4586274917
 10
16.284555659
 20
17.5694631698
 10
16.3742872032
 20
17.6864450633
 10
16.4589609386
 20
17.8073556192
 10
16.5383365457
 20
17.9319593124
 10
16.612654344
 20
18.0604916679
 10
16.6810453152
 20
18.1914417075
 10
16.7435870999
 20
18.3251010558
 10
16.8002020576
 20
18.4611780881
 10
16.8497882477
 20
18.5972869529
 10
16.8922005051
 20
18.7334507408
 10
16.9049243886
 20
18.782426611
  0
LINE
  5
40D
100
AcDbEntity
  8
IMPORT_IGES
100
AcDbLine
 62
7
  6
CONTINUOUS
 10
16.0946717033
 20
13.2717706924
 11
16.1913562826
 21
13.3762761078
  0
LWPOLYLINE
  5
40E
100
AcDbEntity
  8
RACCORDO
100
AcDbPolyline
 62
250
  6
CONTINUOUS
 90
3
 70
0
 10
17.2798140338
 20
11.0403513903
 10
17.3794139965
 20
11.1115141342
 10
17.4802781995
 20
11.1765592961
  0
LWPOLYLINE
  5
40F
100
AcDbEntity
  8
ASSI
100
AcDbPolyline
 62
250
  6
CONTINUOUS
 90
3
 70
0
 10
17.2798140338
 20
11.0403513903
 10
17.3794139965
 20
11.1115141342
 10
17.4802781995
 20
11.1765592961
  0
LWPOLYLINE
  5
410
100
AcDbEntity
  8
RACCORDO
100
AcDbPolyline
 62
7
  6
CONTINUOUS
 90
16
 70
0
 10
16.0281135312
 20
7.416773464
 10
16.0487912307
 20
7.4304174545
 10
16.0670270371
 20
7.4448853511
 10
16.0828209504
 20
7.4601771537
 10
16.0961893849
 20
7.4764472072
 10
16.1071159262
 20
7.4935411668
 10
16.1155513311
 20
7.510995998
 10
16.121470186
 20
7.52871861
 10
16.1248979044
 20
7.5468020936
 10
16.125861484
 20
7.5650626875
 10
16.1243954708
 20
7.5835420691
 10
16.1204653187
 20
7.602198561
 10
16.1139943875
 20
7.6207233692
 10
16.1048431208
 20
7.6392194595
 10
16.0931510749
 20
7.6575838662
 10
16.0912397174
 20
7.6602337866
  0
LWPOLYLINE
  5
411
100
AcDbEntity
  8
ASSI
100
AcDbPolyline
 62
7
  6
CONTINUOUS
 90
16
 70
0
 10
16.0281135312
 20
7.416773464
 10
16.0487912307
 20
7.4304174545
 10
16.0670270371
 20
7.4448853511
 10
16.0828209504
 20
7.4601771537
 10
16.0961893849
 20
7.4764472072
 10
16.1071159262
 20
7.4935411668
 10
16.1155513311
 20
7.510995998
 10
16.121470186
 20
7.52871861
 10
16.1248979044
 20
7.5468020936
 10
16.125861484
 20
7.5650626875
 10
16.1243954708
 20
7.5835420691
 10
16.1204653187
 20
7.602198561
 10
16.1139943875
 20
7.6207233692
 10
16.1048431208
 20
7.6392194595
 10
16.0931510749
 20
7.6575838662
 10
16.0912397174
 20
7.6602337866
  0
LWPOLYLINE
  5
412
100
AcDbEntity
  8
IMPORT_IGES
100
AcDbPolyline
 62
7
  6
CONTINUOUS
 90
6
 70
0
 10
15.5772942998
 20
8.7774049881
 10
15.6842023222
 20
8.8439625437
 10
15.7892846012
 20
8.9183317262
 10
15.8925411367
 20
9.0005125354
 10
15.9945192917
 20
9.0910601085
 10
16.0946717033
 20
9.1894193085
  0
LINE
  5
413
100
AcDbEntity
  8
0
100
AcDbLine
 62
250
  6
CONTINUOUS
 10
10.3878189055
 20
2.979841098
 11
9.986473788
 21
2.7321903734
  0
LINE
  5
414
100
AcDbEntity
  8
DRAFT
100
AcDbLine
 62
7
  6
CONTINUOUS
 10
13.6849406727
 20
5.7059909664
 11
11.137432523
 21
4.1567039343
  0
LINE
  5
415
100
AcDbEntity
  8
RACCORDO
100
AcDbLine
 62
250
  6
CONTINUOUS
 10
17.4802781995
 20
7.0942079121
 11
21.1387035085
 21
9.3191079148
  0
LINE
  5
416
100
AcDbEntity
  8
ASSI
100
AcDbLine
 62
250
  6
CONTINUOUS
 10
17.4802781995
 20
7.0942079121
 11
21.1387035085
 21
9.3191079148
  0
LINE
  5
417
100
AcDbEntity
  8
RACCORDO
100
AcDbLine
 62
7
  6
CONTINUOUS
 10
17.4203597457
 20
6.9582132502
 11
21.0785479391
 21
9.1829690492
  0
LINE
  5
418
100
AcDbEntity
  8
ASSI
100
AcDbLine
 62
7
  6
CONTINUOUS
 10
17.4203597457
 20
6.9582132502
 11
21.0785479391
 21
9.1829690492
  0
LINE
  5
419
100
AcDbEntity
  8
DRAFT
100
AcDbLine
 62
7
  6
CONTINUOUS
 10
13.4462754912
 20
6.0317054017
 11
10.9058839271
 21
4.5360000378
  0
LINE
  5
41A
100
AcDbEntity
  8
SMUSSO
100
AcDbLine
 62
7
  6
CONTINUOUS
 10
15.4577524893
 20
8.1243533976
 11
12.6646251251
 21
6.4829815473
  0
LINE
  5
41B
100
AcDbEntity
  8
ASSI
100
AcDbLine
 62
7
  6
CONTINUOUS
 10
15.4577524893
 20
8.1243533976
 11
12.6646251251
 21
6.4829815473
  0
LINE
  5
41C
100
AcDbEntity
  8
RACCORDO
100
AcDbLine
 62
7
  6
CONTINUOUS
 10
16.0281101069
 20
7.4167710432
 11
13.5597088191
 21
5.9662233034
  0
LINE
  5
41D
100
AcDbEntity
  8
ASSI
100
AcDbLine
 62
7
  6
CONTINUOUS
 10
16.0281101069
 20
7.4167710432
 11
13.5597088191
 21
5.9662233034
  0
LINE
  5
41E
100
AcDbEntity
  8
RACCORDO
100
AcDbLine
 62
250
  6
CONTINUOUS
 10
20.9265714729
 20
9.7749079375
 11
17.2663274371
 21
7.6239779075
  0
LINE
  5
41F
100
AcDbEntity
  8
ASSI
100
AcDbLine
 62
250
  6
CONTINUOUS
 10
20.9265714729
 20
9.7749079375
 11
17.2663274371
 21
7.6239779075
  0
LINE
  5
420
100
AcDbEntity
  8
RACCORDO
100
AcDbLine
 62
250
  6
CONTINUOUS
 10
21.1387035085
 20
9.4075124545
 11
17.4802781995
 21
7.2576511932
  0
LINE
  5
421
100
AcDbEntity
  8
ASSI
100
AcDbLine
 62
250
  6
CONTINUOUS
 10
21.1387035085
 20
9.4075124545
 11
17.4802781995
 21
7.2576511932
  0
LINE
  5
422
100
AcDbEntity
  8
DRAFT
100
AcDbLine
 62
7
  6
CONTINUOUS
 10
12.7073639029
 20
6.4583047127
 11
10.5084008998
 21
5.1681500675
  0
LINE
  5
423
100
AcDbEntity
  8
RACCORDO
100
AcDbLine
 62
7
  6
CONTINUOUS
 10
15.3645439127
 20
8.1781708616
 11
12.546604486
 21
6.5511251852
  0
LINE
  5
424
100
AcDbEntity
  8
ASSI
100
AcDbLine
 62
7
  6
CONTINUOUS
 10
15.3645439127
 20
8.1781708616
 11
12.546604486
 21
6.5511251852
  0
LINE
  5
425
100
AcDbEntity
  8
DRAFT
100
AcDbLine
 62
7
  6
CONTINUOUS
 10
19.3310594855
 20
9.4820006248
 11
16.6897044996
 21
7.9569127649
  0
LINE
  5
426
100
AcDbEntity
  8
ASSI
100
AcDbLine
 62
7
  6
CONTINUOUS
 10
19.3310594855
 20
9.4820006248
 11
16.6897044996
 21
7.9569127649
  0
LINE
  5
427
100
AcDbEntity
  8
ASSI
100
AcDbLine
 62
7
  6
CONTINUOUS
 10
19.2726343383
 20
9.5157345726
 11
20.33329451
 21
10.1174586204
  0
LWPOLYLINE
  5
428
100
AcDbEntity
  8
RACCORDO
100
AcDbPolyline
 62
250
  6
CONTINUOUS
 90
15
 70
0
 10
17.2663274371
 20
7.6239779075
 10
17.1826321573
 20
7.5773761067
 10
17.0993674456
 20
7.536695728
 10
17.0168118757
 20
7.502041864
 10
16.935276003
 20
7.4735056593
 10
16.8549911999
 20
7.4511392718
 10
16.7761137552
 20
7.4349795648
 10
16.6988841802
 20
7.4250686249
 10
16.6235803531
 20
7.4214349304
 10
16.5504121652
 20
7.4240919508
 10
16.4796153051
 20
7.4330300555
 10
16.4114347741
 20
7.4482173423
 10
16.3460846328
 20
7.4696095547
 10
16.2837821376
 20
7.4971348744
 10
16.2499232282
 20
7.5154129204
  0
LWPOLYLINE
  5
429
100
AcDbEntity
  8
ASSI
100
AcDbPolyline
 62
250
  6
CONTINUOUS
 90
15
 70
0
 10
17.2663274371
 20
7.6239779075
 10
17.1826321573
 20
7.5773761067
 10
17.0993674456
 20
7.536695728
 10
17.0168118757
 20
7.502041864
 10
16.935276003
 20
7.4735056593
 10
16.8549911999
 20
7.4511392718
 10
16.7761137552
 20
7.4349795648
 10
16.6988841802
 20
7.4250686249
 10
16.6235803531
 20
7.4214349304
 10
16.5504121652
 20
7.4240919508
 10
16.4796153051
 20
7.4330300555
 10
16.4114347741
 20
7.4482173423
 10
16.3460846328
 20
7.4696095547
 10
16.2837821376
 20
7.4971348744
 10
16.2499232282
 20
7.5154129204
  0
LWPOLYLINE
  5
42A
100
AcDbEntity
  8
RACCORDO
100
AcDbPolyline
 62
250
  6
CONTINUOUS
 90
19
 70
0
 10
17.4802781995
 20
7.2576511932
 10
17.3806677595
 20
7.2027055928
 10
17.2822280407
 20
7.1552000612
 10
17.1849590431
 20
7.1151345983
 10
17.088552151
 20
7.0824388271
 10
16.99331598
 20
7.0571831247
 10
16.9001763776
 20
7.039578622
 10
16.8091357438
 20
7.0296907431
 10
16.7201916786
 20
7.027454064
 10
16.6342628281
 20
7.0328834438
 10
16.5513792786
 20
7.0460569225
 10
16.4715109439
 20
7.0668964601
 10
16.3954862123
 20
7.0951827959
 10
16.3233441819
 20
7.1309937324
 10
16.2550457546
 20
7.1742514671
 10
16.1913020241
 20
7.2245033323
 10
16.1323500216
 20
7.2815984388
 10
16.0779527159
 20
7.3456876757
 10
16.0281101069
 20
7.4167710432
  0
LWPOLYLINE
  5
42B
100
AcDbEntity
  8
ASSI
100
AcDbPolyline
 62
250
  6
CONTINUOUS
 90
19
 70
0
 10
17.4802781995
 20
7.2576511932
 10
17.3806677595
 20
7.2027055928
 10
17.2822280407
 20
7.1552000612
 10
17.1849590431
 20
7.1151345983
 10
17.088552151
 20
7.0824388271
 10
16.99331598
 20
7.0571831247
 10
16.9001763776
 20
7.039578622
 10
16.8091357438
 20
7.0296907431
 10
16.7201916786
 20
7.027454064
 10
16.6342628281
 20
7.0328834438
 10
16.5513792786
 20
7.0460569225
 10
16.4715109439
 20
7.0668964601
 10
16.3954862123
 20
7.0951827959
 10
16.3233441819
 20
7.1309937324
 10
16.2550457546
 20
7.1742514671
 10
16.1913020241
 20
7.2245033323
 10
16.1323500216
 20
7.2815984388
 10
16.0779527159
 20
7.3456876757
 10
16.0281101069
 20
7.4167710432
  0
LWPOLYLINE
  5
42C
100
AcDbEntity
  8
RACCORDO
100
AcDbPolyline
 62
250
  6
CONTINUOUS
 90
19
 70
0
 10
4.4819073221
 20
-0.6612394806
 10
4.422356875
 20
-0.6937054917
 10
4.362930678
 20
-0.7318039294
 10
4.3040394405
 20
-0.7752666085
 10
4.2460863033
 20
-0.8237867105
 10
4.1894755963
 20
-0.8770250154
 10
4.1346098865
 20
-0.9346118037
 10
4.0818700734
 20
-0.99614127
 10
4.0316179815
 20
-1.0611838007
 10
3.9842058883
 20
-1.1292934663
 10
3.9399620691
 20
-1.1999945888
 10
3.8991917359
 20
-1.2727928209
 10
3.8621811542
 20
-1.3471884547
 10
3.829186658
 20
-1.4226655311
 10
3.8004379284
 20
-1.4986939546
 10
3.7761400509
 20
-1.57474188
 10
3.7564631707
 20
-1.6502781572
 10
3.7415419912
 20
-1.7247760721
 10
3.731480202
 20
-1.7977158899
  0
LWPOLYLINE
  5
42D
100
AcDbEntity
  8
RACCORDO
100
AcDbPolyline
 62
250
  6
CONTINUOUS
 90
19
 70
0
 10
4.8076760692
 20
-1.2882098403
 10
4.7775288401
 20
-1.3043815067
 10
4.7477858051
 20
-1.3231187179
 10
4.7184469644
 20
-1.3444214738
 10
4.6892934525
 20
-1.368481851
 10
4.6605441347
 20
-1.395107773
 10
4.6328556079
 20
-1.4237230097
 10
4.6062692365
 20
-1.4543585861
 10
4.5807436561
 20
-1.4869834773
 10
4.5568113693
 20
-1.5209283787
 10
4.5345019531
 20
-1.5562315231
 10
4.5137858305
 20
-1.5928546777
 10
4.4951067731
 20
-1.6300138392
 10
4.4785104102
 20
-1.6677418344
 10
4.4639511125
 20
-1.7060058365
 10
4.4517357631
 20
-1.7439233624
 10
4.4419666562
 20
-1.781200251
 10
4.4345414975
 20
-1.8181306634
 10
4.4294602871
 20
-1.8547145995
  0
LINE
  5
42E
100
AcDbEntity
  8
RACCORDO
100
AcDbLine
 62
250
  6
CONTINUOUS
 10
8.8618454966
 20
1.4767749761
 11
4.4819073221
 21
-0.6612394806
  0
LINE
  5
42F
100
AcDbEntity
  8
RACCORDO
100
AcDbLine
 62
250
  6
CONTINUOUS
 10
9.1844805086
 20
0.8482749211
 11
4.8076760692
 21
-1.2882098403
  0
LWPOLYLINE
  5
430
100
AcDbEntity
  8
0
100
AcDbPolyline
 62
250
  6
CONTINUOUS
 90
10
 70
0
 10
10.3435225962
 20
2.1221093942
 10
10.3234437745
 20
2.112702734
 10
10.300865354
 20
2.1054268348
 10
10.2764582462
 20
2.1004978977
 10
10.2509477009
 20
2.0980623839
 10
10.2250917565
 20
2.0981926644
 10
10.1996587143
 20
2.1008848696
 10
10.1754043096
 20
2.1060590018
 10
10.1530492548
 20
2.1135613126
 10
10.1332578235
 20
2.1231688729
  0
LWPOLYLINE
  5
431
100
AcDbEntity
  8
RACCORDO
100
AcDbPolyline
 62
250
  6
CONTINUOUS
 90
13
 70
0
 10
4.4294602871
 20
-1.8547145995
 10
4.3805044525
 20
-1.8718867018
 10
4.3265555402
 20
-1.8853071544
 10
4.268516278
 20
-1.8947513927
 10
4.2073578375
 20
-1.9000613862
 10
4.1441035837
 20
-1.9011482827
 10
4.0798119508
 20
-1.8979938951
 10
4.0155587313
 20
-1.890651006
 10
3.9524190753
 20
-1.8792424838
 10
3.8914494994
 20
-1.8639592269
 10
3.8336702082
 20
-1.8450569701
 10
3.7800480234
 20
-1.8228520053
 10
3.7314802056
 20
-1.7977158884
  0
LWPOLYLINE
  5
432
100
AcDbEntity
  8
IMPORT_IGES
100
AcDbPolyline
 62
7
  6
CONTINUOUS
 90
8
 70
0
 10
14.8879882037
 20
0.4228535728
 10
14.959951428
 20
0.4200566889
 10
15.0572833056
 20
0.4269593351
 10
15.1581487955
 20
0.4441626505
 10
15.2607612996
 20
0.4713684183
 10
15.3645252854
 20
0.5084772331
 10
15.4700362855
 20
0.5555885004
 10
15.5772942998
 20
0.6127022201
  0
LINE
  5
433
100
AcDbEntity
  8
RACCORDO
100
AcDbLine
 62
250
  6
CONTINUOUS
 10
4.4819073221
 20
-0.6612394806
 11
-26.1269466979
 21
17.0119292115
  0
LWPOLYLINE
  5
434
100
AcDbEntity
  8
0
100
AcDbPolyline
 62
250
  6
CONTINUOUS
 90
3
 70
0
 10
-12.0761610558
 20
13.6738513783
 10
-12.047841473
 20
13.6488601237
 10
-12.0204267212
 20
13.6210047991
  0
LINE
  5
435
100
AcDbEntity
  8
0
100
AcDbLine
 62
7
  6
CONTINUOUS
 10
-10.0651958356
 20
15.5103688774
 11
-9.9751498319
 21
15.3889998853
  0
LINE
  5
436
100
AcDbEntity
  8
ASSI
100
AcDbLine
 62
7
  6
CONTINUOUS
 10
-10.0651958356
 20
15.5103688774
 11
-9.9751498319
 21
15.3889998853
  0
LINE
  5
437
100
AcDbEntity
  8
0
100
AcDbLine
 62
7
  6
CONTINUOUS
 10
-9.9751498319
 20
15.3889998853
 11
-9.903350405
 21
15.2916330998
  0
LINE
  5
438
100
AcDbEntity
  8
ASSI
100
AcDbLine
 62
7
  6
CONTINUOUS
 10
-9.9751498319
 20
15.3889998853
 11
-9.903350405
 21
15.2916330998
  0
LINE
  5
439
100
AcDbEntity
  8
DRAFT
100
AcDbLine
 62
7
  6
CONTINUOUS
 10
-9.133957906
 20
14.2106233543
 11
-9.3823288645
 21
14.5688973576
  0
LINE
  5
43A
100
AcDbEntity
  8
ASSI
100
AcDbLine
 62
7
  6
CONTINUOUS
 10
-9.133957906
 20
14.2106233543
 11
-9.3823288645
 21
14.5688973576
  0
LWPOLYLINE
  5
43B
100
AcDbEntity
  8
RACCORDO
100
AcDbPolyline
 62
7
  6
CONTINUOUS
 90
10
 70
0
 10
-5.2226365635
 20
14.1385601322
 10
-5.3664876373
 20
14.3646387422
 10
-5.5114954608
 20
14.5897569204
 10
-5.6576600339
 20
14.8139146669
 10
-5.8049951416
 20
15.0371326178
 10
-5.9534869991
 20
15.259390137
 10
-6.1030942517
 20
15.4806253163
 10
-6.2538031148
 20
15.7008175197
 10
-6.4056273732
 20
15.9199873831
 10
-6.5585670268
 20
16.1381349067
  0
LWPOLYLINE
  5
43C
100
AcDbEntity
  8
ASSI
100
AcDbPolyline
 62
7
  6
CONTINUOUS
 90
10
 70
0
 10
-5.2226365635
 20
14.1385601322
 10
-5.3664876373
 20
14.3646387422
 10
-5.5114954608
 20
14.5897569204
 10
-5.6576600339
 20
14.8139146669
 10
-5.8049951416
 20
15.0371326178
 10
-5.9534869991
 20
15.259390137
 10
-6.1030942517
 20
15.4806253163
 10
-6.2538031148
 20
15.7008175197
 10
-6.4056273732
 20
15.9199873831
 10
-6.5585670268
 20
16.1381349067
  0
LWPOLYLINE
  5
43D
100
AcDbEntity
  8
RACCORDO
100
AcDbPolyline
 62
250
  6
CONTINUOUS
 90
10
 70
0
 10
-1.7960514651
 20
8.9837854421
 10
-1.8059204487
 20
9.0145689292
 10
-1.8118642837
 20
9.0461456626
 10
-1.8137276785
 20
9.0776906533
 10
-1.8114619491
 20
9.1083797416
 10
-1.8051262912
 20
9.1374111296
 10
-1.7948862332
 20
9.1640263292
 10
-1.7810093118
 20
9.1875299787
 10
-1.7638580822
 20
9.2073080105
 10
-1.7438806457
 20
9.2228436942
  0
LINE
  5
43E
100
AcDbEntity
  8
SMUSSO
100
AcDbLine
 62
250
  6
CONTINUOUS
 10
-3.2701666807
 20
21.4903589779
 11
-3.4507738672
 21
22.3966496848
  0
LINE
  5
43F
100
AcDbEntity
  8
ASSI
100
AcDbLine
 62
250
  6
CONTINUOUS
 10
-3.2701666807
 20
21.4903589779
 11
-3.4507738672
 21
22.3966496848
  0
LWPOLYLINE
  5
440
100
AcDbEntity
  8
RACCORDO
100
AcDbPolyline
 62
250
  6
CONTINUOUS
 90
13
 70
0
 10
9.3654510676
 20
-29.2959308334
 10
9.3723448444
 20
-29.3721091791
 10
9.3752545917
 20
-29.4453696466
 10
9.3741803093
 20
-29.5157122359
 10
9.3690928827
 20
-29.5833614716
 10
9.3600214266
 20
-29.6480928292
 10
9.3470532847
 20
-29.7092327345
 10
9.3301363842
 20
-29.7667321118
 10
9.309322798
 20
-29.8206400369
 10
9.284856089
 20
-29.8704301636
 10
9.2568174451
 20
-29.9159270429
 10
9.2251256785
 20
-29.9573061238
 10
9.1897807891
 20
-29.9945674062
  0
LWPOLYLINE
  5
441
100
AcDbEntity
  8
RACCORDO
100
AcDbPolyline
 62
250
  6
CONTINUOUS
 90
13
 70
0
 10
4.8076760692
 20
-1.2882098403
 10
4.8075020285
 20
-1.2316328047
 10
4.8013915103
 20
-1.1724826295
 10
4.789448862
 20
-1.1117706903
 10
4.7718781562
 20
-1.0505350884
 10
4.7489797231
 20
-0.9898229599
 10
4.7211450359
 20
-0.9306725673
 10
4.6888499675
 20
-0.8740954241
 10
4.6526467044
 20
-0.8210591148
 10
4.6131543591
 20
-0.7724707774
 10
4.5710482746
 20
-0.7291614171
 10
4.5270484528
 20
-0.6918717199
 10
4.4819073241
 20
-0.6612394796
  0
LINE
  5
442
100
AcDbEntity
  8
DRAFT
100
AcDbLine
 62
7
  6
CONTINUOUS
 10
4.6246295142
 20
9.8186985082
 11
4.6246295142
 21
10.7168158127
  0
LINE
  5
443
100
AcDbEntity
  8
DRAFT
100
AcDbLine
 62
7
  6
CONTINUOUS
 10
5.1180121136
 20
6.9206787979
 11
5.1180121136
 21
6.0225614934
  0
LINE
  5
444
100
AcDbEntity
  8
RACCORDO
100
AcDbLine
 62
7
  6
CONTINUOUS
 10
4.4397637006
 20
5.4401395214
 11
4.337336175
 21
4.3985597893
  0
LWPOLYLINE
  5
445
100
AcDbEntity
  8
RACCORDO
100
AcDbPolyline
 62
250
  6
CONTINUOUS
 90
10
 70
0
 10
3.731480202
 20
-1.7977158899
 10
3.3259117989
 20
-5.7631765273
 10
2.9506875631
 20
-9.7158567685
 10
2.6058392355
 20
-13.6554207519
 10
2.291396024
 20
-17.5815337163
 10
2.0073845916
 20
-21.4938621486
 10
1.7538290567
 20
-25.3920738109
 10
1.530751003
 20
-29.2758376098
 10
1.3381694743
 20
-33.1448236257
 10
1.1761009654
 20
-36.99870326
  0
LWPOLYLINE
  5
446
100
AcDbEntity
  8
RACCORDO
100
AcDbPolyline
 62
250
  6
CONTINUOUS
 90
10
 70
0
 10
4.4294602871
 20
-1.8547145995
 10
4.0242471528
 20
-5.8167602679
 10
3.6494073123
 20
-9.7653730088
 10
3.3049407657
 20
-13.7005528222
 10
2.9908232251
 20
-17.6226344949
 10
2.7070789783
 20
-21.5312832402
 10
2.453780889
 20
-25.4254946976
 10
2.2309532451
 20
-29.3049340803
 10
2.0385717587
 20
-33.1699361752
 10
1.8766364297
 20
-37.0205009822
  0
LWPOLYLINE
  5
447
100
AcDbEntity
  8
RACCORDO
100
AcDbPolyline
 62
250
  6
CONTINUOUS
 90
19
 70
0
 10
5.9573847912
 20
3.153774186
 10
5.9603969574
 20
3.1650078283
 10
5.9661920294
 20
3.2038786537
 10
5.9681323977
 20
3.2454434927
 10
5.9661967682
 20
3.289246585
 10
5.9604063391
 20
3.3348078294
 10
5.9508249446
 20
3.3816261618
 10
5.9375582853
 20
3.4291872344
 10
5.9207519502
 20
3.4769706587
 10
5.9005898068
 20
3.5244541313
 10
5.8772919871
 20
3.5711188123
 10
5.8511145151
 20
3.616451539
 10
5.8223465566
 20
3.6599522637
 10
5.7913038458
 20
3.701144819
 10
5.7583271061
 20
3.7395782465
 10
5.72378097
 20
3.7748293259
 10
5.6880454812
 20
3.8065127218
 10
5.6515114382
 20
3.8342843296
 10
5.6145790078
 20
3.8578420997
  0
LWPOLYLINE
  5
448
100
AcDbEntity
  8
IMPORT_IGES
100
AcDbPolyline
 62
7
  6
CONTINUOUS
 90
12
 70
0
 10
16.1913562826
 20
13.3762761078
 10
16.284555659
 20
13.4871117858
 10
16.3742872032
 20
13.6040936794
 10
16.4589609386
 20
13.7250042352
 10
16.5383365457
 20
13.8496079284
 10
16.612654344
 20
13.9781402839
 10
16.6810453152
 20
14.1090903236
 10
16.7435870999
 20
14.2427496718
 10
16.8002020576
 20
14.3788267042
 10
16.8497882477
 20
14.5149355689
 10
16.8922005051
 20
14.6510993568
 10
16.9049243886
 20
14.700075227
  0
LWPOLYLINE
  5
449
100
AcDbEntity
  8
IMPORT_IGES
100
AcDbPolyline
 62
7
  6
CONTINUOUS
 90
12
 70
0
 10
16.1913562826
 20
9.2939247238
 10
16.284555659
 20
9.4047604019
 10
16.3742872032
 20
9.5217422954
 10
16.4589609386
 20
9.6426528512
 10
16.5383365457
 20
9.7672565444
 10
16.612654344
 20
9.8957889
 10
16.6810453152
 20
10.0267389396
 10
16.7435870999
 20
10.1603982879
 10
16.8002020576
 20
10.2964753202
 10
16.8497882477
 20
10.432584185
 10
16.8922005051
 20
10.5687479728
 10
16.9049243817
 20
10.6177238168
  0
LINE
  5
44A
100
AcDbEntity
  8
IMPORT_IGES
100
AcDbLine
 62
7
  6
CONTINUOUS
 10
16.0946717033
 20
9.1894193085
 11
16.1913562826
 21
9.2939247238
  0
LWPOLYLINE
  5
44B
100
AcDbEntity
  8
0
100
AcDbPolyline
 62
250
  6
CONTINUOUS
 90
10
 70
0
 10
9.986473788
 20
2.7321903734
 10
9.9687652305
 20
2.719152445
 10
9.9517176522
 20
2.7031025122
 10
9.9358151719
 20
2.6844965893
 10
9.9215092985
 20
2.6638631689
 10
9.9092062438
 20
2.6417883826
 10
9.8992553312
 20
2.6188993829
 10
9.8919389269
 20
2.5958462437
 10
9.8874645009
 20
2.5732834668
 10
9.8859588373
 20
2.5518516007
  0
LWPOLYLINE
  5
44C
100
AcDbEntity
  8
RACCORDO
100
AcDbPolyline
 62
250
  6
CONTINUOUS
 90
3
 70
0
 10
17.2798138097
 20
6.9579998149
 10
17.3794138479
 20
7.0291626216
 10
17.4802781995
 20
7.0942079121
  0
LWPOLYLINE
  5
44D
100
AcDbEntity
  8
ASSI
100
AcDbPolyline
 62
250
  6
CONTINUOUS
 90
3
 70
0
 10
17.2798138097
 20
6.9579998149
 10
17.3794138479
 20
7.0291626216
 10
17.4802781995
 20
7.0942079121
  0
LWPOLYLINE
  5
44E
100
AcDbEntity
  8
RACCORDO
100
AcDbPolyline
 62
7
  6
CONTINUOUS
 90
16
 70
0
 10
16.0281135312
 20
3.33442208
 10
16.0487912307
 20
3.3480660706
 10
16.0670270371
 20
3.3625339671
 10
16.0828209504
 20
3.3778257698
 10
16.0961893849
 20
3.3940958233
 10
16.1071159262
 20
3.4111897828
 10
16.1155513311
 20
3.428644614
 10
16.121470186
 20
3.446367226
 10
16.1248979044
 20
3.4644507097
 10
16.125861484
 20
3.4827113036
 10
16.1243954708
 20
3.5011906852
 10
16.1204653187
 20
3.519847177
 10
16.1139943875
 20
3.5383719852
 10
16.1048431208
 20
3.5568680755
 10
16.0931510749
 20
3.5752324823
 10
16.0912397174
 20
3.5778824026
  0
LWPOLYLINE
  5
44F
100
AcDbEntity
  8
ASSI
100
AcDbPolyline
 62
7
  6
CONTINUOUS
 90
16
 70
0
 10
16.0281135312
 20
3.33442208
 10
16.0487912307
 20
3.3480660706
 10
16.0670270371
 20
3.3625339671
 10
16.0828209504
 20
3.3778257698
 10
16.0961893849
 20
3.3940958233
 10
16.1071159262
 20
3.4111897828
 10
16.1155513311
 20
3.428644614
 10
16.121470186
 20
3.446367226
 10
16.1248979044
 20
3.4644507097
 10
16.125861484
 20
3.4827113036
 10
16.1243954708
 20
3.5011906852
 10
16.1204653187
 20
3.519847177
 10
16.1139943875
 20
3.5383719852
 10
16.1048431208
 20
3.5568680755
 10
16.0931510749
 20
3.5752324823
 10
16.0912397174
 20
3.5778824026
  0
LWPOLYLINE
  5
450
100
AcDbEntity
  8
IMPORT_IGES
100
AcDbPolyline
 62
7
  6
CONTINUOUS
 90
6
 70
0
 10
15.5772942998
 20
4.6950536041
 10
15.6842023222
 20
4.7616111598
 10
15.7892846012
 20
4.8359803422
 10
15.8925411367
 20
4.9181611514
 10
15.9945192917
 20
5.0087087246
 10
16.0946717033
 20
5.1070679245
  0
LINE
  5
451
100
AcDbEntity
  8
0
100
AcDbLine
 62
250
  6
CONTINUOUS
 10
10.7411031714
 20
2.3674372012
 11
10.3435225962
 21
2.1221093942
  0
LINE
  5
452
100
AcDbEntity
  8
RACCORDO
100
AcDbLine
 62
7
  6
CONTINUOUS
 10
11.968523618
 20
2.7297097906
 11
16.028110103
 21
5.1985789854
  0
LINE
  5
453
100
AcDbEntity
  8
ASSI
100
AcDbLine
 62
7
  6
CONTINUOUS
 10
11.968523618
 20
2.7297097906
 11
16.028110103
 21
5.1985789854
  0
LINE
  5
454
100
AcDbEntity
  8
RACCORDO
100
AcDbLine
 62
250
  6
CONTINUOUS
 10
17.4802781995
 20
3.0118565282
 11
21.1387035085
 21
5.2367565309
  0
LINE
  5
455
100
AcDbEntity
  8
ASSI
100
AcDbLine
 62
250
  6
CONTINUOUS
 10
17.4802781995
 20
3.0118565282
 11
21.1387035085
 21
5.2367565309
  0
LINE
  5
456
100
AcDbEntity
  8
RACCORDO
100
AcDbLine
 62
7
  6
CONTINUOUS
 10
17.4203597457
 20
2.8758618662
 11
21.0785479391
 21
5.1006176652
  0
LINE
  5
457
100
AcDbEntity
  8
ASSI
100
AcDbLine
 62
7
  6
CONTINUOUS
 10
17.4203597457
 20
2.8758618662
 11
21.0785479391
 21
5.1006176652
  0
LINE
  5
458
100
AcDbEntity
  8
RACCORDO
100
AcDbLine
 62
250
  6
CONTINUOUS
 10
13.1809895294
 20
0.4169007449
 11
10.7411031714
 21
-1.0264553352
  0
LINE
  5
459
100
AcDbEntity
  8
SMUSSO
100
AcDbLine
 62
7
  6
CONTINUOUS
 10
15.4577524893
 20
4.0420020136
 11
12.2752415308
 21
2.171810211
  0
LINE
  5
45A
100
AcDbEntity
  8
ASSI
100
AcDbLine
 62
7
  6
CONTINUOUS
 10
15.4577524893
 20
4.0420020136
 11
12.2752415308
 21
2.171810211
  0
LINE
  5
45B
100
AcDbEntity
  8
RACCORDO
100
AcDbLine
 62
7
  6
CONTINUOUS
 10
16.0281101069
 20
3.3344196593
 11
12.6969995691
 21
1.3769037215
  0
LINE
  5
45C
100
AcDbEntity
  8
ASSI
100
AcDbLine
 62
7
  6
CONTINUOUS
 10
16.0281101069
 20
3.3344196593
 11
12.6969995691
 21
1.3769037215
  0
LINE
  5
45D
100
AcDbEntity
  8
RACCORDO
100
AcDbLine
 62
250
  6
CONTINUOUS
 10
20.9265714729
 20
5.6925565536
 11
17.2663274371
 21
3.5416265236
  0
LINE
  5
45E
100
AcDbEntity
  8
ASSI
100
AcDbLine
 62
250
  6
CONTINUOUS
 10
20.9265714729
 20
5.6925565536
 11
17.2663274371
 21
3.5416265236
  0
LINE
  5
45F
100
AcDbEntity
  8
RACCORDO
100
AcDbLine
 62
250
  6
CONTINUOUS
 10
21.1387035085
 20
5.3251610706
 11
17.4802781995
 21
3.1752998092
  0
LINE
  5
460
100
AcDbEntity
  8
ASSI
100
AcDbLine
 62
250
  6
CONTINUOUS
 10
21.1387035085
 20
5.3251610706
 11
17.4802781995
 21
3.1752998092
  0
LINE
  5
461
100
AcDbEntity
  8
RACCORDO
100
AcDbLine
 62
7
  6
CONTINUOUS
 10
15.3645439127
 20
4.0958194776
 11
12.2175719703
 21
2.2787942272
  0
LINE
  5
462
100
AcDbEntity
  8
ASSI
100
AcDbLine
 62
7
  6
CONTINUOUS
 10
15.3645439127
 20
4.0958194776
 11
12.2175719703
 21
2.2787942272
  0
LINE
  5
463
100
AcDbEntity
  8
DRAFT
100
AcDbLine
 62
7
  6
CONTINUOUS
 10
19.3310594855
 20
5.3996492409
 11
16.6897044996
 21
3.8745613809
  0
LINE
  5
464
100
AcDbEntity
  8
ASSI
100
AcDbLine
 62
7
  6
CONTINUOUS
 10
19.3310594855
 20
5.3996492409
 11
16.6897044996
 21
3.8745613809
  0
LINE
  5
465
100
AcDbEntity
  8
ASSI
100
AcDbLine
 62
7
  6
CONTINUOUS
 10
19.2726343383
 20
5.4333831887
 11
20.33329451
 21
6.0351072364
  0
LINE
  5
466
100
AcDbEntity
  8
0
100
AcDbLine
 62
250
  6
CONTINUOUS
 10
9.9327955371
 20
-1.4477514401
 11
9.4385963189
 21
-1.7263417079
  0
LWPOLYLINE
  5
467
100
AcDbEntity
  8
RACCORDO
100
AcDbPolyline
 62
250
  6
CONTINUOUS
 90
15
 70
0
 10
17.2663274371
 20
3.5416265236
 10
17.1826321573
 20
3.4950247227
 10
17.0993674456
 20
3.4543443441
 10
17.0168118757
 20
3.4196904801
 10
16.935276003
 20
3.3911542754
 10
16.8549911999
 20
3.3687878879
 10
16.7761137552
 20
3.3526281809
 10
16.6988841802
 20
3.3427172409
 10
16.6235803531
 20
3.3390835465
 10
16.5504121652
 20
3.3417405669
 10
16.4796153051
 20
3.3506786716
 10
16.4114347741
 20
3.3658659583
 10
16.3460846328
 20
3.3872581707
 10
16.2837821376
 20
3.4147834905
 10
16.2499232282
 20
3.4330615365
  0
LWPOLYLINE
  5
468
100
AcDbEntity
  8
ASSI
100
AcDbPolyline
 62
250
  6
CONTINUOUS
 90
15
 70
0
 10
17.2663274371
 20
3.5416265236
 10
17.1826321573
 20
3.4950247227
 10
17.0993674456
 20
3.4543443441
 10
17.0168118757
 20
3.4196904801
 10
16.935276003
 20
3.3911542754
 10
16.8549911999
 20
3.3687878879
 10
16.7761137552
 20
3.3526281809
 10
16.6988841802
 20
3.3427172409
 10
16.6235803531
 20
3.3390835465
 10
16.5504121652
 20
3.3417405669
 10
16.4796153051
 20
3.3506786716
 10
16.4114347741
 20
3.3658659583
 10
16.3460846328
 20
3.3872581707
 10
16.2837821376
 20
3.4147834905
 10
16.2499232282
 20
3.4330615365
  0
LWPOLYLINE
  5
469
100
AcDbEntity
  8
RACCORDO
100
AcDbPolyline
 62
250
  6
CONTINUOUS
 90
19
 70
0
 10
17.4802781995
 20
3.1752998092
 10
17.3806677595
 20
3.1203542089
 10
17.2822280407
 20
3.0728486772
 10
17.1849590431
 20
3.0327832143
 10
17.088552151
 20
3.0000874431
 10
16.99331598
 20
2.9748317407
 10
16.9001763776
 20
2.957227238
 10
16.8091357438
 20
2.9473393591
 10
16.7201916786
 20
2.94510268
 10
16.6342628281
 20
2.9505320599
 10
16.5513792786
 20
2.9637055385
 10
16.4715109439
 20
2.9845450761
 10
16.3954862123
 20
3.012831412
 10
16.3233441819
 20
3.0486423484
 10
16.2550457546
 20
3.0919000831
 10
16.1913020241
 20
3.1421519483
 10
16.1323500216
 20
3.1992470548
 10
16.0779527159
 20
3.2633362918
 10
16.0281101069
 20
3.3344196593
  0
LWPOLYLINE
  5
46A
100
AcDbEntity
  8
ASSI
100
AcDbPolyline
 62
250
  6
CONTINUOUS
 90
19
 70
0
 10
17.4802781995
 20
3.1752998092
 10
17.3806677595
 20
3.1203542089
 10
17.2822280407
 20
3.0728486772
 10
17.1849590431
 20
3.0327832143
 10
17.088552151
 20
3.0000874431
 10
16.99331598
 20
2.9748317407
 10
16.9001763776
 20
2.957227238
 10
16.8091357438
 20
2.9473393591
 10
16.7201916786
 20
2.94510268
 10
16.6342628281
 20
2.9505320599
 10
16.5513792786
 20
2.9637055385
 10
16.4715109439
 20
2.9845450761
 10
16.3954862123
 20
3.012831412
 10
16.3233441819
 20
3.0486423484
 10
16.2550457546
 20
3.0919000831
 10
16.1913020241
 20
3.1421519483
 10
16.1323500216
 20
3.1992470548
 10
16.0779527159
 20
3.2633362918
 10
16.0281101069
 20
3.3344196593
  0
LWPOLYLINE
  5
46B
100
AcDbEntity
  8
RACCORDO
100
AcDbPolyline
 62
250
  6
CONTINUOUS
 90
43
 70
0
 10
-21.2391207178
 20
-17.9369710932
 10
-21.2266540633
 20
-17.9308610427
 10
-21.1953058807
 20
-17.9129186617
 10
-21.1655256611
 20
-17.8920272859
 10
-21.1373967972
 20
-17.8682372861
 10
-21.1110366369
 20
-17.8416392873
 10
-21.086543973
 20
-17.8123307789
 10
-21.0640019733
 20
-17.7804116348
 10
-21.0434859974
 20
-17.7459889479
 10
-21.0250697843
 20
-17.7091889606
 10
-21.0088232616
 20
-17.6701630031
 10
-20.9947870777
 20
-17.6290218461
 10
-20.9829893076
 20
-17.5858338679
 10
-20.9734708607
 20
-17.5406921779
 10
-20.9662860471
 20
-17.4937838509
 10
-20.9614735254
 20
-17.445325667
 10
-20.9590504645
 20
-17.3955013674
 10
-20.9590231552
 20
-17.3444618781
 10
-20.9613914724
 20
-17.29238873
 10
-20.9661458942
 20
-17.2394653173
 10
-20.9732696312
 20
-17.1858655994
 10
-20.9827397556
 20
-17.131761355
 10
-20.9945264024
 20
-17.0773289262
 10
-21.0085889904
 20
-17.0227603178
 10
-21.0248766754
 20
-16.968252231
 10
-21.043330512
 20
-16.9139974677
 10
-21.0638892133
 20
-16.8601722753
 10
-21.0864874236
 20
-16.8069474654
 10
-21.1110531049
 20
-16.754495528
 10
-21.1374998948
 20
-16.7030034568
 10
-21.1657308466
 20
-16.6526594866
 10
-21.1956431488
 20
-16.6036434881
 10
-21.2271398814
 20
-16.5561110063
 10
-21.2601245696
 20
-16.5102075951
 10
-21.294509112
 20
-16.4660613244
 10
-21.3301559757
 20
-16.4238540153
 10
-21.366883008
 20
-16.3837945151
 10
-21.4045213407
 20
-16.3460470332
 10
-21.4429773438
 20
-16.3106860645
 10
-21.4821759551
 20
-16.2777734559
 10
-21.5220048726
 20
-16.2474054525
 10
-21.5623110508
 20
-16.219700665
 10
-21.6029588186
 20
-16.194752059
  0
LINE
  5
46C
100
AcDbEntity
  8
DRAFT
100
AcDbLine
 62
7
  6
CONTINUOUS
 10
-22.0940162955
 20
-16.1423575769
 11
-21.8103087741
 21
-16.0048651227
  0
LINE
  5
46D
100
AcDbEntity
  8
0
100
AcDbLine
 62
7
  6
CONTINUOUS
 10
-22.2473051583
 20
-15.9871081294
 11
-22.2471773111
 21
-15.9870472024
  0
LWPOLYLINE
  5
46E
100
AcDbEntity
  8
0
100
AcDbPolyline
 62
7
  6
CONTINUOUS
 90
11
 70
0
 10
-22.2473257648
 20
-15.987120486
 10
-22.2418363847
 20
-15.984555374
 10
-22.1874831848
 20
-15.9643795288
 10
-22.1295903665
 20
-15.9519951048
 10
-22.0678536404
 20
-15.9474673518
 10
-22.0024409388
 20
-15.9511061266
 10
-21.9340124156
 20
-15.9631434808
 10
-21.8631280429
 20
-15.9837089756
 10
-21.790419679
 20
-16.0128314697
 10
-21.7166537781
 20
-16.0503611076
 10
-21.7067132262
 20
-16.0560269028
  0
LWPOLYLINE
  5
46F
100
AcDbEntity
  8
RACCORDO
100
AcDbPolyline
 62
250
  6
CONTINUOUS
 90
10
 70
0
 10
9.4385921259
 20
-1.7263430911
 10
9.4124362686
 20
-1.7374084931
 10
9.3840668521
 20
-1.7491391776
 10
9.3542469743
 20
-1.7612196052
 10
9.3237787483
 20
-1.7733248292
 10
9.2934817269
 20
-1.7851292358
 10
9.2641708579
 20
-1.7963153026
 10
9.2366345628
 20
-1.8065821399
 10
9.2116135296
 20
-1.8156535839
 10
9.1897807892
 20
-1.8232856252
  0
LWPOLYLINE
  5
470
100
AcDbEntity
  8
RACCORDO
100
AcDbPolyline
 62
250
  6
CONTINUOUS
 90
13
 70
0
 10
9.6447499645
 20
-2.9707002209
 10
9.6251532922
 20
-2.9777141293
 10
9.6035594903
 20
-2.9832204803
 10
9.5803299416
 20
-2.9871271224
 10
9.5558534041
 20
-2.9893686761
 10
9.5305395045
 20
-2.9899076278
 10
9.5048118833
 20
-2.9887349581
 10
9.4791011048
 20
-2.985870292
 10
9.4538374515
 20
-2.9813615713
 10
9.4294437229
 20
-2.9752842515
 10
9.4063281601
 20
-2.9677400396
 10
9.3848776131
 20
-2.9588551916
 10
9.3654510676
 20
-2.9487783999
  0
LWPOLYLINE
  5
471
100
AcDbEntity
  8
IMPORT_IGES
100
AcDbPolyline
 62
7
  6
CONTINUOUS
 90
8
 70
0
 10
14.8879882037
 20
4.5052049568
 10
14.959951428
 20
4.5024080729
 10
15.0572833056
 20
4.509310719
 10
15.1581487955
 20
4.5265140344
 10
15.2607612996
 20
4.5537198023
 10
15.3645252854
 20
4.5908286171
 10
15.4700362855
 20
4.6379398843
 10
15.5772942998
 20
4.6950536041
  0
LWPOLYLINE
  5
472
100
AcDbEntity
  8
0
100
AcDbPolyline
 62
250
  6
CONTINUOUS
 90
13
 70
0
 10
-6.5323176393
 20
10.8907352337
 10
-6.512880847
 20
10.8808787561
 10
-6.4914028916
 20
10.8725531484
 10
-6.4682430224
 20
10.8658977793
 10
-6.4437886397
 20
10.8610240796
 10
-6.4184488707
 20
10.8580136871
 10
-6.3926477321
 20
10.8569170629
 10
-6.3668169177
 20
10.8577526364
 10
-6.3413886831
 20
10.8605065061
 10
-6.3167886628
 20
10.8651326436
 10
-6.2934285727
 20
10.8715536764
 10
-6.2716993286
 20
10.8796622083
 10
-6.251964609
 20
10.8893225926
  0
LWPOLYLINE
  5
473
100
AcDbEntity
  8
RACCORDO
100
AcDbPolyline
 62
250
  6
CONTINUOUS
 90
9
 70
0
 10
5.6145790078
 20
3.8578420997
 10
5.5776181226
 20
3.8769459516
 10
5.5410713872
 20
3.8913636258
 10
5.5053386568
 20
3.9009407821
 10
5.4708178545
 20
3.9055757763
 10
5.4378775043
 20
3.9052243075
 10
5.4068565194
 20
3.8998887865
 10
5.378086452
 20
3.889616649
 10
5.3646780782
 20
3.8826768084
  0
LWPOLYLINE
  5
474
100
AcDbEntity
  8
RACCORDO
100
AcDbPolyline
 62
250
  6
CONTINUOUS
 90
9
 70
0
 10
-2.1635955852
 20
8.3488626263
 10
-2.2005564705
 20
8.3679664782
 10
-2.2371032058
 20
8.3823841524
 10
-2.2728359363
 20
8.3919613087
 10
-2.3073567385
 20
8.3965963029
 10
-2.3402970888
 20
8.3962448341
 10
-2.3713180736
 20
8.3909093131
 10
-2.400088141
 20
8.3806371756
 10
-2.4134965149
 20
8.373697335
  0
LINE
  5
475
100
AcDbEntity
  8
DRAFT
100
AcDbLine
 62
7
  6
CONTINUOUS
 10
16.3436054577
 20
-3.5035844629
 11
16.3206826762
 21
-3.4903491361
  0
LINE
  5
476
100
AcDbEntity
  8
ASSI
100
AcDbLine
 62
7
  6
CONTINUOUS
 10
16.3436054577
 20
-3.5035844629
 11
16.3206826762
 21
-3.4903491361
  0
LINE
  5
477
100
AcDbEntity
  8
DRAFT
100
AcDbLine
 62
7
  6
CONTINUOUS
 10
15.7748184545
 20
-3.1201648099
 11
16.3206826762
 21
-3.4353399702
  0
LINE
  5
478
100
AcDbEntity
  8
ASSI
100
AcDbLine
 62
7
  6
CONTINUOUS
 10
15.7748184545
 20
-3.1201648099
 11
16.3206826762
 21
-3.4353399702
  0
LINE
  5
479
100
AcDbEntity
  8
RACCORDO
100
AcDbLine
 62
7
  6
CONTINUOUS
 10
-21.8975148643
 20
19.2368441432
 11
8.8618454966
 21
1.4767749761
  0
LINE
  5
47A
100
AcDbEntity
  8
0
100
AcDbLine
 62
7
  6
CONTINUOUS
 10
-16.3533681081
 20
16.1119908689
 11
-12.1122058125
 21
13.6631969136
  0
LINE
  5
47B
100
AcDbEntity
  8
0
100
AcDbLine
 62
250
  6
CONTINUOUS
 10
-16.3771826096
 20
16.1646306079
 11
-12.1360203077
 21
13.7158366491
  0
LINE
  5
47C
100
AcDbEntity
  8
DRAFT
100
AcDbLine
 62
7
  6
CONTINUOUS
 10
4.337336175
 20
4.3985597893
 11
-0.2127005909
 21
7.0256939926
  0
LINE
  5
47D
100
AcDbEntity
  8
0
100
AcDbLine
 62
250
  6
CONTINUOUS
 10
-6.7444173649
 20
11.2581027344
 11
-21.7687855524
 21
19.9329846263
  0
LINE
  5
47E
100
AcDbEntity
  8
0
100
AcDbLine
 62
250
  6
CONTINUOUS
 10
-6.6054641516
 20
11.5016017631
 11
-21.6298323392
 21
20.176483655
  0
LWPOLYLINE
  5
47F
100
AcDbEntity
  8
0
100
AcDbPolyline
 62
7
  6
CONTINUOUS
 90
10
 70
0
 10
-12.1121647725
 20
13.6631732515
 10
-12.1057823015
 20
13.6593679326
 10
-12.0861075803
 20
13.6461964316
 10
-12.0652657591
 20
13.6299122138
 10
-12.0439654187
 20
13.6107489762
 10
-12.0226209257
 20
13.5888382545
 10
-12.0015711346
 20
13.564324735
 10
-11.9813275022
 20
13.5376403096
 10
-11.9622224136
 20
13.5091123568
 10
-11.954386656
 20
13.4958065324
  0
LWPOLYLINE
  5
480
100
AcDbEntity
  8
0
100
AcDbPolyline
 62
250
  6
CONTINUOUS
 90
3
 70
0
 10
-12.1360203077
 20
13.7158366491
 10
-12.1055540007
 20
13.6961768867
 10
-12.0761610558
 20
13.6738513783
  0
LWPOLYLINE
  5
481
100
AcDbEntity
  8
0
100
AcDbPolyline
 62
250
  6
CONTINUOUS
 90
7
 70
0
 10
-21.980885278
 20
19.8105445723
 10
-21.9979573403
 20
19.8217680735
 10
-22.0123773816
 20
19.8341700815
 10
-22.0239041157
 20
19.8475430776
 10
-22.0323446694
 20
19.8616632954
 10
-22.0375578096
 20
19.8762944658
 10
-22.0394639218
 20
19.8921994898
  0
LWPOLYLINE
  5
482
100
AcDbEntity
  8
DRAFT
100
AcDbPolyline
 62
7
  6
CONTINUOUS
 90
5
 70
0
 10
-13.8936185849
 20
20.3733017465
 10
-13.8560922696
 20
20.3344826069
 10
-13.817963362
 20
20.2998044767
 10
-13.779231862
 20
20.2692673558
 10
-13.769117123
 20
20.2624963099
  0
LWPOLYLINE
  5
483
100
AcDbEntity
  8
ASSI
100
AcDbPolyline
 62
7
  6
CONTINUOUS
 90
5
 70
0
 10
-13.8936185849
 20
20.3733017465
 10
-13.8560922696
 20
20.3344826069
 10
-13.817963362
 20
20.2998044767
 10
-13.779231862
 20
20.2692673558
 10
-13.769117123
 20
20.2624963099
  0
LINE
  5
484
100
AcDbEntity
  8
DRAFT
100
AcDbLine
 62
7
  6
CONTINUOUS
 10
-7.1275265166
 20
16.9273678405
 11
-7.2512047496
 21
17.0944435315
  0
LINE
  5
485
100
AcDbEntity
  8
ASSI
100
AcDbLine
 62
7
  6
CONTINUOUS
 10
-7.1275265166
 20
16.9273678405
 11
-7.2512047496
 21
17.0944435315
  0
LWPOLYLINE
  5
486
100
AcDbEntity
  8
SMUSSO
100
AcDbPolyline
 62
7
  6
CONTINUOUS
 90
28
 70
0
 10
-3.727226516
 20
21.8794776015
 10
-3.7086269174
 20
21.8330156482
 10
-3.6837884398
 20
21.7878581815
 10
-3.6529735194
 20
21.7442202792
 10
-3.6160662027
 20
21.7021281999
 10
-3.5731824432
 20
21.661555685
 10
-3.5251415063
 20
21.623279877
 10
-3.471843356
 20
21.5873454063
 10
-3.4133880283
 20
21.5537076426
 10
-3.3508948962
 20
21.5230098371
 10
-3.2842913176
 20
21.4953097316
 10
-3.2136499346
 20
21.4705495845
 10
-3.1403080464
 20
21.4491994218
 10
-3.064196235
 20
21.4313230668
 10
-2.9853839183
 20
21.4168566963
 10
-2.90541665
 20
21.4060788664
 10
-2.824318998
 20
21.3990602197
 10
-2.7420663943
 20
21.3957301137
 10
-2.6601306881
 20
21.3961551767
 10
-2.5784582205
 20
21.4004071853
 10
-2.4971026503
 20
21.408414363
 10
-2.4176968033
 20
21.4200280093
 10
-2.3401818526
 20
21.4353890686
 10
-2.2646166251
 20
21.4543565966
 10
-2.1928104265
 20
21.4763590601
 10
-2.125366359
 20
21.5012059481
 10
-2.0616813204
 20
21.5290877716
 10
-2.0017553108
 20
21.5600045307
  0
LWPOLYLINE
  5
487
100
AcDbEntity
  8
ASSI
100
AcDbPolyline
 62
7
  6
CONTINUOUS
 90
28
 70
0
 10
-3.727226516
 20
21.8794776015
 10
-3.7086269174
 20
21.8330156482
 10
-3.6837884398
 20
21.7878581815
 10
-3.6529735194
 20
21.7442202792
 10
-3.6160662027
 20
21.7021281999
 10
-3.5731824432
 20
21.661555685
 10
-3.5251415063
 20
21.623279877
 10
-3.471843356
 20
21.5873454063
 10
-3.4133880283
 20
21.5537076426
 10
-3.3508948962
 20
21.5230098371
 10
-3.2842913176
 20
21.4953097316
 10
-3.2136499346
 20
21.4705495845
 10
-3.1403080464
 20
21.4491994218
 10
-3.064196235
 20
21.4313230668
 10
-2.9853839183
 20
21.4168566963
 10
-2.90541665
 20
21.4060788664
 10
-2.824318998
 20
21.3990602197
 10
-2.7420663943
 20
21.3957301137
 10
-2.6601306881
 20
21.3961551767
 10
-2.5784582205
 20
21.4004071853
 10
-2.4971026503
 20
21.408414363
 10
-2.4176968033
 20
21.4200280093
 10
-2.3401818526
 20
21.4353890686
 10
-2.2646166251
 20
21.4543565966
 10
-2.1928104265
 20
21.4763590601
 10
-2.125366359
 20
21.5012059481
 10
-2.0616813204
 20
21.5290877716
 10
-2.0017553108
 20
21.5600045307
  0
LINE
  5
488
100
AcDbEntity
  8
SMUSSO
100
AcDbLine
 62
250
  6
CONTINUOUS
 10
-0.2296070401
 20
19.7347758108
 11
-0.4102147081
 21
20.6410689334
  0
LINE
  5
489
100
AcDbEntity
  8
ASSI
100
AcDbLine
 62
250
  6
CONTINUOUS
 10
-0.2296070401
 20
19.7347758108
 11
-0.4102147081
 21
20.6410689334
  0
LINE
  5
48A
100
AcDbEntity
  8
SMUSSO
100
AcDbLine
 62
250
  6
CONTINUOUS
 10
2.8109516375
 20
17.9791974753
 11
2.630344451
 21
18.8854881821
  0
LINE
  5
48B
100
AcDbEntity
  8
ASSI
100
AcDbLine
 62
250
  6
CONTINUOUS
 10
2.8109516375
 20
17.9791974753
 11
2.630344451
 21
18.8854881821
  0
LINE
  5
48C
100
AcDbEntity
  8
RACCORDO
100
AcDbLine
 62
7
  6
CONTINUOUS
 10
7.5925315811
 20
-21.0812192576
 11
8.5901470619
 21
-29.6090781936
  0
LINE
  5
48D
100
AcDbEntity
  8
RACCORDO
100
AcDbLine
 62
250
  6
CONTINUOUS
 10
7.9509133065
 20
-17.0105704624
 11
9.3654510676
 21
-29.2959308334
  0
LINE
  5
48E
100
AcDbEntity
  8
RACCORDO
100
AcDbLine
 62
250
  6
CONTINUOUS
 10
8.2302122034
 20
-16.9926912049
 11
9.6447499645
 21
-29.2780515758
  0
LWPOLYLINE
  5
48F
100
AcDbEntity
  8
RACCORDO
100
AcDbPolyline
 62
250
  6
CONTINUOUS
 90
13
 70
0
 10
9.6447499645
 20
-29.2780515758
 10
9.6514297407
 20
-29.3630508962
 10
9.653628455
 20
-29.4452325956
 10
9.6513728295
 20
-29.524328248
 10
9.6447297604
 20
-29.6000644278
 10
9.6337256865
 20
-29.6722097534
 10
9.6183460162
 20
-29.7405752897
 10
9.5986671143
 20
-29.8049393494
 10
9.5747822637
 20
-29.8650915915
 10
9.5467200743
 20
-29.9208790579
 10
9.5145701464
 20
-29.9721341472
 10
9.4784832353
 20
-30.0186757606
 10
9.4385963189
 20
-30.0603524587
  0
LWPOLYLINE
  5
490
100
AcDbEntity
  8
0
100
AcDbPolyline
 62
250
  6
CONTINUOUS
 90
6
 70
0
 10
9.8859588373
 20
-33.7336712392
 10
9.8874648434
 20
-33.7533664992
 10
9.8919400887
 20
-33.770763353
 10
9.8992574811
 20
-33.78536778
 10
9.9092092182
 20
-33.7967650582
 10
9.917021232
 20
-33.8023317693
  0
LINE
  5
491
100
AcDbEntity
  8
DRAFT
100
AcDbLine
 62
7
  6
CONTINUOUS
 10
9.0086915575
 20
7.3291417796
 11
9.0086915575
 21
8.1855133341
  0
LINE
  5
492
100
AcDbEntity
  8
RACCORDO
100
AcDbLine
 62
7
  6
CONTINUOUS
 10
6.552940076
 20
-35.401851952
 11
9.1844805086
 21
0.8482749211
  0
LWPOLYLINE
  5
493
100
AcDbEntity
  8
RACCORDO
100
AcDbPolyline
 62
250
  6
CONTINUOUS
 90
16
 70
0
 10
7.9509133065
 20
-16.8115650693
 10
7.9495804977
 20
-16.8255691006
 10
7.9484389549
 20
-16.8394776053
 10
7.9474885052
 20
-16.8532870927
 10
7.9467290272
 20
-16.8669920677
 10
7.9461600879
 20
-16.8805912003
 10
7.9457812249
 20
-16.8940871788
 10
7.9455923143
 20
-16.9074765194
 10
7.9455931865
 20
-16.9207558266
 10
7.9457837453
 20
-16.933927696
 10
7.9461639739
 20
-16.9469886241
 10
7.9467338114
 20
-16.9599351314
 10
7.947493532
 20
-16.9727695823
 10
7.9484433856
 20
-16.9854903069
 10
7.9495833131
 20
-16.9980917817
 10
7.9509133065
 20
-17.0105704624
  0
LWPOLYLINE
  5
494
100
AcDbEntity
  8
RACCORDO
100
AcDbPolyline
 62
250
  6
CONTINUOUS
 90
16
 70
0
 10
8.2302122034
 20
-16.8334868904
 10
8.2291425891
 20
-16.8446925933
 10
8.2282261676
 20
-16.8558166502
 10
8.2274629388
 20
-16.8668590612
 10
8.2268531316
 20
-16.8778209419
 10
8.2263965171
 20
-16.8887011767
 10
8.2260924088
 20
-16.899496418
 10
8.2259406535
 20
-16.9102067075
 10
8.2259414044
 20
-16.9208320036
 10
8.2260944343
 20
-16.9313688343
 10
8.2263995867
 20
-16.9418172975
 10
8.2268570182
 20
-16.9521772953
 10
8.2274669713
 20
-16.9624450616
 10
8.228229527
 20
-16.9726193409
 10
8.2291446044
 20
-16.9827013887
 10
8.2302122034
 20
-16.9926912049
  0
LINE
  5
495
100
AcDbEntity
  8
RACCORDO
100
AcDbLine
 62
250
  6
CONTINUOUS
 10
9.3654510676
 20
-2.9487783999
 11
7.9509133065
 21
-16.8115650693
  0
LINE
  5
496
100
AcDbEntity
  8
RACCORDO
100
AcDbLine
 62
250
  6
CONTINUOUS
 10
9.6447499645
 20
-2.9707002209
 11
8.2302122034
 21
-16.8334868904
  0
LWPOLYLINE
  5
497
100
AcDbEntity
  8
IMPORT_IGES
100
AcDbPolyline
 62
250
  6
CONTINUOUS
 90
7
 70
0
 10
10.4093487799
 20
13.9822195372
 10
10.4084936701
 20
13.9746848905
 10
10.4059419791
 20
13.9672769785
 10
10.401737375
 20
13.9601247701
 10
10.3959518752
 20
13.9533507187
 10
10.3886844492
 20
13.9470706675
 10
10.3800594581
 20
13.9413920779
  0
LWPOLYLINE
  5
498
100
AcDbEntity
  8
RACCORDO
100
AcDbPolyline
 62
250
  6
CONTINUOUS
 90
8
 70
0
 10
2.195800293
 20
-37.2674511591
 10
2.1875870724
 20
-37.321611643
 10
2.173574452
 20
-37.3713056059
 10
2.1540020525
 20
-37.4156832641
 10
2.1292045684
 20
-37.4539857445
 10
2.0996060453
 20
-37.4855580618
 10
2.0657126278
 20
-37.5098603185
 10
2.0452516238
 20
-37.5200559731
  0
LINE
  5
499
100
AcDbEntity
  8
RACCORDO
100
AcDbLine
 62
250
  6
CONTINUOUS
 10
16.028110103
 20
17.4456331373
 11
16.0776323265
 21
17.5755217197
  0
LINE
  5
49A
100
AcDbEntity
  8
ASSI
100
AcDbLine
 62
250
  6
CONTINUOUS
 10
16.028110103
 20
17.4456331373
 11
16.0776323265
 21
17.5755217197
  0
LWPOLYLINE
  5
49B
100
AcDbEntity
  8
RACCORDO
100
AcDbPolyline
 62
7
  6
CONTINUOUS
 90
18
 70
0
 10
16.1216128432
 20
17.5368199047
 10
16.1649376362
 20
17.6442905783
 10
16.2208768879
 20
17.770616662
 10
16.2815993521
 20
17.8954422598
 10
16.3468187505
 20
18.0182291864
 10
16.416266734
 20
18.138498683
 10
16.4896140214
 20
18.2557325068
 10
16.5665041979
 20
18.3694213215
 10
16.6466064119
 20
18.4791180103
 10
16.729533139
 20
18.5843526594
 10
16.8148800463
 20
18.6846934138
 10
16.9022627847
 20
18.7797533037
 10
16.9912561516
 20
18.8691379849
 10
17.0814318021
 20
18.9525088181
 10
17.1723608862
 20
19.0295531488
 10
17.2635717764
 20
19.0999606381
 10
17.3545415652
 20
19.1634673727
 10
17.420335556
 20
19.2052440609
  0
LWPOLYLINE
  5
49C
100
AcDbEntity
  8
ASSI
100
AcDbPolyline
 62
7
  6
CONTINUOUS
 90
18
 70
0
 10
16.1216128432
 20
17.5368199047
 10
16.1649376362
 20
17.6442905783
 10
16.2208768879
 20
17.770616662
 10
16.2815993521
 20
17.8954422598
 10
16.3468187505
 20
18.0182291864
 10
16.416266734
 20
18.138498683
 10
16.4896140214
 20
18.2557325068
 10
16.5665041979
 20
18.3694213215
 10
16.6466064119
 20
18.4791180103
 10
16.729533139
 20
18.5843526594
 10
16.8148800463
 20
18.6846934138
 10
16.9022627847
 20
18.7797533037
 10
16.9912561516
 20
18.8691379849
 10
17.0814318021
 20
18.9525088181
 10
17.1723608862
 20
19.0295531488
 10
17.2635717764
 20
19.0999606381
 10
17.3545415652
 20
19.1634673727
 10
17.420335556
 20
19.2052440609
  0
LWPOLYLINE
  5
49D
100
AcDbEntity
  8
RACCORDO
100
AcDbPolyline
 62
7
  6
CONTINUOUS
 90
18
 70
0
 10
16.1216128432
 20
13.4544685208
 10
16.1649376362
 20
13.5619391944
 10
16.2208768879
 20
13.6882652781
 10
16.2815993521
 20
13.8130908758
 10
16.3468187505
 20
13.9358778024
 10
16.416266734
 20
14.056147299
 10
16.4896140214
 20
14.1733811228
 10
16.5665041979
 20
14.2870699375
 10
16.6466064119
 20
14.3967666263
 10
16.729533139
 20
14.5020012755
 10
16.8148800463
 20
14.6023420298
 10
16.9022627847
 20
14.6974019197
 10
16.9912561516
 20
14.7867866009
 10
17.0814318021
 20
14.8701574341
 10
17.1723608862
 20
14.9472017648
 10
17.2635717764
 20
15.0176092541
 10
17.3545415652
 20
15.0811159888
 10
17.420335556
 20
15.1228926769
  0
LWPOLYLINE
  5
49E
100
AcDbEntity
  8
ASSI
100
AcDbPolyline
 62
7
  6
CONTINUOUS
 90
18
 70
0
 10
16.1216128432
 20
13.4544685208
 10
16.1649376362
 20
13.5619391944
 10
16.2208768879
 20
13.6882652781
 10
16.2815993521
 20
13.8130908758
 10
16.3468187505
 20
13.9358778024
 10
16.416266734
 20
14.056147299
 10
16.4896140214
 20
14.1733811228
 10
16.5665041979
 20
14.2870699375
 10
16.6466064119
 20
14.3967666263
 10
16.729533139
 20
14.5020012755
 10
16.8148800463
 20
14.6023420298
 10
16.9022627847
 20
14.6974019197
 10
16.9912561516
 20
14.7867866009
 10
17.0814318021
 20
14.8701574341
 10
17.1723608862
 20
14.9472017648
 10
17.2635717764
 20
15.0176092541
 10
17.3545415652
 20
15.0811159888
 10
17.420335556
 20
15.1228926769
  0
LWPOLYLINE
  5
49F
100
AcDbEntity
  8
RACCORDO
100
AcDbPolyline
 62
250
  6
CONTINUOUS
 90
16
 70
0
 10
16.0776323265
 20
17.5755217197
 10
16.1316589299
 20
17.7038901941
 10
16.1901899132
 20
17.8307385606
 10
16.2534654913
 20
17.9565040621
 10
16.3212454492
 20
18.0807494556
 10
16.3928091425
 20
18.2021630124
 10
16.4681441957
 20
18.3206528505
 10
16.5472629843
 20
18.4363108519
 10
16.6294819899
 20
18.5481009337
 10
16.7147606124
 20
18.6559654868
 10
16.8031394518
 20
18.7599621204
 10
16.8940567906
 20
18.8592275784
 10
16.987750118
 20
18.9539362226
 10
17.0839819447
 20
19.0439136914
 10
17.1814780848
 20
19.1277736439
 10
17.2798138097
 20
19.2050539668
  0
LWPOLYLINE
  5
4A0
100
AcDbEntity
  8
ASSI
100
AcDbPolyline
 62
250
  6
CONTINUOUS
 90
16
 70
0
 10
16.0776323265
 20
17.5755217197
 10
16.1316589299
 20
17.7038901941
 10
16.1901899132
 20
17.8307385606
 10
16.2534654913
 20
17.9565040621
 10
16.3212454492
 20
18.0807494556
 10
16.3928091425
 20
18.2021630124
 10
16.4681441957
 20
18.3206528505
 10
16.5472629843
 20
18.4363108519
 10
16.6294819899
 20
18.5481009337
 10
16.7147606124
 20
18.6559654868
 10
16.8031394518
 20
18.7599621204
 10
16.8940567906
 20
18.8592275784
 10
16.987750118
 20
18.9539362226
 10
17.0839819447
 20
19.0439136914
 10
17.1814780848
 20
19.1277736439
 10
17.2798138097
 20
19.2050539668
  0
LWPOLYLINE
  5
4A1
100
AcDbEntity
  8
RACCORDO
100
AcDbPolyline
 62
250
  6
CONTINUOUS
 90
16
 70
0
 10
16.0776323265
 20
13.4931703357
 10
16.1316589299
 20
13.6215388101
 10
16.1901899132
 20
13.7483871766
 10
16.2534654913
 20
13.8741526781
 10
16.3212454492
 20
13.9983980716
 10
16.3928091425
 20
14.1198116284
 10
16.4681441957
 20
14.2383014665
 10
16.5472629843
 20
14.3539594679
 10
16.6294819899
 20
14.4657495497
 10
16.7147606124
 20
14.5736141029
 10
16.8031394518
 20
14.6776107364
 10
16.8940567906
 20
14.7768761945
 10
16.987750118
 20
14.8715848387
 10
17.0839819447
 20
14.9615623074
 10
17.1814780848
 20
15.04542226
 10
17.2798138097
 20
15.1227025828
  0
LWPOLYLINE
  5
4A2
100
AcDbEntity
  8
ASSI
100
AcDbPolyline
 62
250
  6
CONTINUOUS
 90
16
 70
0
 10
16.0776323265
 20
13.4931703357
 10
16.1316589299
 20
13.6215388101
 10
16.1901899132
 20
13.7483871766
 10
16.2534654913
 20
13.8741526781
 10
16.3212454492
 20
13.9983980716
 10
16.3928091425
 20
14.1198116284
 10
16.4681441957
 20
14.2383014665
 10
16.5472629843
 20
14.3539594679
 10
16.6294819899
 20
14.4657495497
 10
16.7147606124
 20
14.5736141029
 10
16.8031394518
 20
14.6776107364
 10
16.8940567906
 20
14.7768761945
 10
16.987750118
 20
14.8715848387
 10
17.0839819447
 20
14.9615623074
 10
17.1814780848
 20
15.04542226
 10
17.2798138097
 20
15.1227025828
  0
LWPOLYLINE
  5
4A3
100
AcDbEntity
  8
RACCORDO
100
AcDbPolyline
 62
7
  6
CONTINUOUS
 90
8
 70
0
 10
16.1216612022
 20
17.5368247561
 10
16.1155498448
 20
17.5242664504
 10
16.1071145809
 20
17.5117102345
 10
16.0961882144
 20
17.4987233415
 10
16.0828200088
 20
17.485593677
 10
16.0670263853
 20
17.4724172096
 10
16.0487909225
 20
17.4590979706
 10
16.0281136207
 20
17.4456359601
  0
LWPOLYLINE
  5
4A4
100
AcDbEntity
  8
ASSI
100
AcDbPolyline
 62
7
  6
CONTINUOUS
 90
8
 70
0
 10
16.1216612022
 20
17.5368247561
 10
16.1155498448
 20
17.5242664504
 10
16.1071145809
 20
17.5117102345
 10
16.0961882144
 20
17.4987233415
 10
16.0828200088
 20
17.485593677
 10
16.0670263853
 20
17.4724172096
 10
16.0487909225
 20
17.4590979706
 10
16.0281136207
 20
17.4456359601
  0
LWPOLYLINE
  5
4A5
100
AcDbEntity
  8
RACCORDO
100
AcDbPolyline
 62
7
  6
CONTINUOUS
 90
8
 70
0
 10
16.1216612022
 20
13.4544733721
 10
16.1155498448
 20
13.4419150664
 10
16.1071145809
 20
13.4293588505
 10
16.0961882144
 20
13.4163719575
 10
16.0828200088
 20
13.4032422931
 10
16.0670263853
 20
13.3900658256
 10
16.0487909225
 20
13.3767465866
 10
16.0281136207
 20
13.3632845762
  0
LWPOLYLINE
  5
4A6
100
AcDbEntity
  8
ASSI
100
AcDbPolyline
 62
7
  6
CONTINUOUS
 90
8
 70
0
 10
16.1216612022
 20
13.4544733721
 10
16.1155498448
 20
13.4419150664
 10
16.1071145809
 20
13.4293588505
 10
16.0961882144
 20
13.4163719575
 10
16.0828200088
 20
13.4032422931
 10
16.0670263853
 20
13.3900658256
 10
16.0487909225
 20
13.3767465866
 10
16.0281136207
 20
13.3632845762
  0
LWPOLYLINE
  5
4A7
100
AcDbEntity
  8
IMPORT_IGES
100
AcDbPolyline
 62
7
  6
CONTINUOUS
 90
12
 70
0
 10
16.1913562826
 20
5.2115733399
 10
16.284555659
 20
5.3224090179
 10
16.3742872032
 20
5.4393909114
 10
16.4589609386
 20
5.5603014673
 10
16.5383365457
 20
5.6849051605
 10
16.612654344
 20
5.813437516
 10
16.6810453152
 20
5.9443875556
 10
16.7435870999
 20
6.0780469039
 10
16.8002020576
 20
6.2141239362
 10
16.8497882477
 20
6.350232801
 10
16.8922005051
 20
6.4863965889
 10
16.9049243886
 20
6.5353724591
  0
LINE
  5
4A8
100
AcDbEntity
  8
IMPORT_IGES
100
AcDbLine
 62
7
  6
CONTINUOUS
 10
16.0946717033
 20
5.1070679245
 11
16.1913562826
 21
5.2115733399
  0
LWPOLYLINE
  5
4A9
100
AcDbEntity
  8
RACCORDO
100
AcDbPolyline
 62
250
  6
CONTINUOUS
 90
3
 70
0
 10
17.2798138097
 20
2.8756484309
 10
17.3794138479
 20
2.9468112376
 10
17.4802781995
 20
3.0118565282
  0
LWPOLYLINE
  5
4AA
100
AcDbEntity
  8
ASSI
100
AcDbPolyline
 62
250
  6
CONTINUOUS
 90
3
 70
0
 10
17.2798138097
 20
2.8756484309
 10
17.3794138479
 20
2.9468112376
 10
17.4802781995
 20
3.0118565282
  0
LWPOLYLINE
  5
4AB
100
AcDbEntity
  8
RACCORDO
100
AcDbPolyline
 62
7
  6
CONTINUOUS
 90
16
 70
0
 10
16.0281135312
 20
-0.7479293039
 10
16.0487912307
 20
-0.7342853134
 10
16.0670270371
 20
-0.7198174168
 10
16.0828209504
 20
-0.7045256142
 10
16.0961893849
 20
-0.6882555607
 10
16.1071159262
 20
-0.6711616012
 10
16.1155513311
 20
-0.6537067699
 10
16.121470186
 20
-0.6359841579
 10
16.1248979044
 20
-0.6179006743
 10
16.125861484
 20
-0.5996400804
 10
16.1243954708
 20
-0.5811606988
 10
16.1204653187
 20
-0.562504207
 10
16.1139943875
 20
-0.5439793987
 10
16.1048431208
 20
-0.5254833084
 10
16.0931510749
 20
-0.5071189017
 10
16.0912397174
 20
-0.5044689813
  0
LWPOLYLINE
  5
4AC
100
AcDbEntity
  8
ASSI
100
AcDbPolyline
 62
7
  6
CONTINUOUS
 90
16
 70
0
 10
16.0281135312
 20
-0.7479293039
 10
16.0487912307
 20
-0.7342853134
 10
16.0670270371
 20
-0.7198174168
 10
16.0828209504
 20
-0.7045256142
 10
16.0961893849
 20
-0.6882555607
 10
16.1071159262
 20
-0.6711616012
 10
16.1155513311
 20
-0.6537067699
 10
16.121470186
 20
-0.6359841579
 10
16.1248979044
 20
-0.6179006743
 10
16.125861484
 20
-0.5996400804
 10
16.1243954708
 20
-0.5811606988
 10
16.1204653187
 20
-0.562504207
 10
16.1139943875
 20
-0.5439793987
 10
16.1048431208
 20
-0.5254833084
 10
16.0931510749
 20
-0.5071189017
 10
16.0912397174
 20
-0.5044689813
  0
LWPOLYLINE
  5
4AD
100
AcDbEntity
  8
IMPORT_IGES
100
AcDbPolyline
 62
7
  6
CONTINUOUS
 90
6
 70
0
 10
15.5772942998
 20
0.6127022201
 10
15.6842023222
 20
0.6792597758
 10
15.7892846012
 20
0.7536289583
 10
15.8925411367
 20
0.8358097675
 10
15.9945192917
 20
0.9263573406
 10
16.0946717033
 20
1.0247165405
  0
LINE
  5
4AE
100
AcDbEntity
  8
RACCORDO
100
AcDbLine
 62
7
  6
CONTINUOUS
 10
13.4587994179
 20
-0.4463187381
 11
16.028110103
 21
1.1162276014
  0
LINE
  5
4AF
100
AcDbEntity
  8
ASSI
100
AcDbLine
 62
7
  6
CONTINUOUS
 10
13.4587994179
 20
-0.4463187381
 11
16.028110103
 21
1.1162276014
  0
LINE
  5
4B0
100
AcDbEntity
  8
RACCORDO
100
AcDbLine
 62
250
  6
CONTINUOUS
 10
13.484804578
 20
-0.7696792074
 11
10.7411031714
 21
-2.3906333178
  0
LINE
  5
4B1
100
AcDbEntity
  8
SMUSSO
100
AcDbLine
 62
7
  6
CONTINUOUS
 10
15.4577524893
 20
-0.0403493703
 11
13.484804578
 21
-1.1997455386
  0
LINE
  5
4B2
100
AcDbEntity
  8
ASSI
100
AcDbLine
 62
7
  6
CONTINUOUS
 10
15.4577524893
 20
-0.0403493703
 11
13.484804578
 21
-1.1997455386
  0
LINE
  5
4B3
100
AcDbEntity
  8
RACCORDO
100
AcDbLine
 62
7
  6
CONTINUOUS
 10
16.0281101069
 20
-0.7479317247
 11
13.484804578
 21
-2.2424966907
  0
LINE
  5
4B4
100
AcDbEntity
  8
ASSI
100
AcDbLine
 62
7
  6
CONTINUOUS
 10
16.0281101069
 20
-0.7479317247
 11
13.484804578
 21
-2.2424966907
  0
LINE
  5
4B5
100
AcDbEntity
  8
RACCORDO
100
AcDbLine
 62
250
  6
CONTINUOUS
 10
20.9265714729
 20
1.6102051696
 11
17.2663274371
 21
-0.5407248604
  0
LINE
  5
4B6
100
AcDbEntity
  8
ASSI
100
AcDbLine
 62
250
  6
CONTINUOUS
 10
20.9265714729
 20
1.6102051696
 11
17.2663274371
 21
-0.5407248604
  0
LINE
  5
4B7
100
AcDbEntity
  8
RACCORDO
100
AcDbLine
 62
250
  6
CONTINUOUS
 10
21.1387035085
 20
1.2428096866
 11
17.4802781995
 21
-0.9070515747
  0
LINE
  5
4B8
100
AcDbEntity
  8
ASSI
100
AcDbLine
 62
250
  6
CONTINUOUS
 10
21.1387035085
 20
1.2428096866
 11
17.4802781995
 21
-0.9070515747
  0
LINE
  5
4B9
100
AcDbEntity
  8
IMPORT_IGES
100
AcDbLine
 62
7
  6
CONTINUOUS
 10
17.7339699824
 20
1.4497045914
 11
13.484804578
 21
-1.0037102586
  0
LINE
  5
4BA
100
AcDbEntity
  8
RACCORDO
100
AcDbLine
 62
7
  6
CONTINUOUS
 10
15.3645439127
 20
0.0134680937
 11
13.484804578
 21
-1.0718716863
  0
LINE
  5
4BB
100
AcDbEntity
  8
ASSI
100
AcDbLine
 62
7
  6
CONTINUOUS
 10
15.3645439127
 20
0.0134680937
 11
13.484804578
 21
-1.0718716863
  0
LINE
  5
4BC
100
AcDbEntity
  8
DRAFT
100
AcDbLine
 62
7
  6
CONTINUOUS
 10
19.3310594855
 20
1.3172978569
 11
16.6897044996
 21
-0.207790003
  0
LINE
  5
4BD
100
AcDbEntity
  8
ASSI
100
AcDbLine
 62
7
  6
CONTINUOUS
 10
19.3310594855
 20
1.3172978569
 11
16.6897044996
 21
-0.207790003
  0
LINE
  5
4BE
100
AcDbEntity
  8
ASSI
100
AcDbLine
 62
7
  6
CONTINUOUS
 10
19.2726343383
 20
1.3510318047
 11
20.33329451
 21
1.9527558524
  0
LINE
  5
4BF
100
AcDbEntity
  8
0
100
AcDbLine
 62
250
  6
CONTINUOUS
 10
10.3435225962
 20
-2.5762703546
 11
9.6447499645
 21
-2.9707002209
  0
LWPOLYLINE
  5
4C0
100
AcDbEntity
  8
RACCORDO
100
AcDbPolyline
 62
250
  6
CONTINUOUS
 90
15
 70
0
 10
17.2663274371
 20
-0.5407248604
 10
17.1826321573
 20
-0.5873266612
 10
17.0993674456
 20
-0.6280070399
 10
17.0168118757
 20
-0.6626609039
 10
16.935276003
 20
-0.6911971086
 10
16.8549911999
 20
-0.7135634961
 10
16.7761137552
 20
-0.7297232031
 10
16.6988841802
 20
-0.7396341431
 10
16.6235803531
 20
-0.7432678375
 10
16.5504121652
 20
-0.7406108171
 10
16.4796153051
 20
-0.7316727124
 10
16.4114347741
 20
-0.7164854257
 10
16.3460846328
 20
-0.6950932133
 10
16.2837821376
 20
-0.6675678935
 10
16.2499232282
 20
-0.6492898475
  0
LWPOLYLINE
  5
4C1
100
AcDbEntity
  8
ASSI
100
AcDbPolyline
 62
250
  6
CONTINUOUS
 90
15
 70
0
 10
17.2663274371
 20
-0.5407248604
 10
17.1826321573
 20
-0.5873266612
 10
17.0993674456
 20
-0.6280070399
 10
17.0168118757
 20
-0.6626609039
 10
16.935276003
 20
-0.6911971086
 10
16.8549911999
 20
-0.7135634961
 10
16.7761137552
 20
-0.7297232031
 10
16.6988841802
 20
-0.7396341431
 10
16.6235803531
 20
-0.7432678375
 10
16.5504121652
 20
-0.7406108171
 10
16.4796153051
 20
-0.7316727124
 10
16.4114347741
 20
-0.7164854257
 10
16.3460846328
 20
-0.6950932133
 10
16.2837821376
 20
-0.6675678935
 10
16.2499232282
 20
-0.6492898475
  0
LWPOLYLINE
  5
4C2
100
AcDbEntity
  8
RACCORDO
100
AcDbPolyline
 62
250
  6
CONTINUOUS
 90
19
 70
0
 10
17.4802781995
 20
-0.9070515747
 10
17.3806677595
 20
-0.9619971751
 10
17.2822280407
 20
-1.0095027067
 10
17.1849590431
 20
-1.0495681696
 10
17.088552151
 20
-1.0822639408
 10
16.99331598
 20
-1.1075196433
 10
16.9001763776
 20
-1.1251241459
 10
16.8091357438
 20
-1.1350120248
 10
16.7201916786
 20
-1.1372487039
 10
16.6342628281
 20
-1.1318193241
 10
16.5513792786
 20
-1.1186458454
 10
16.4715109439
 20
-1.0978063078
 10
16.3954862123
 20
-1.069519972
 10
16.3233441819
 20
-1.0337090355
 10
16.2550457546
 20
-0.9904513009
 10
16.1913020241
 20
-0.9401994356
 10
16.1323500216
 20
-0.8831043292
 10
16.0779527159
 20
-0.8190150922
 10
16.0281101069
 20
-0.7479317247
  0
LWPOLYLINE
  5
4C3
100
AcDbEntity
  8
ASSI
100
AcDbPolyline
 62
250
  6
CONTINUOUS
 90
19
 70
0
 10
17.4802781995
 20
-0.9070515747
 10
17.3806677595
 20
-0.9619971751
 10
17.2822280407
 20
-1.0095027067
 10
17.1849590431
 20
-1.0495681696
 10
17.088552151
 20
-1.0822639408
 10
16.99331598
 20
-1.1075196433
 10
16.9001763776
 20
-1.1251241459
 10
16.8091357438
 20
-1.1350120248
 10
16.7201916786
 20
-1.1372487039
 10
16.6342628281
 20
-1.1318193241
 10
16.5513792786
 20
-1.1186458454
 10
16.4715109439
 20
-1.0978063078
 10
16.3954862123
 20
-1.069519972
 10
16.3233441819
 20
-1.0337090355
 10
16.2550457546
 20
-0.9904513009
 10
16.1913020241
 20
-0.9401994356
 10
16.1323500216
 20
-0.8831043292
 10
16.0779527159
 20
-0.8190150922
 10
16.0281101069
 20
-0.7479317247
  0
LINE
  5
4C4
100
AcDbEntity
  8
0
100
AcDbLine
 62
7
  6
CONTINUOUS
 10
-21.1797681558
 20
-18.1369687676
 11
-21.1807414415
 21
-18.1374309676
  0
LINE
  5
4C5
100
AcDbEntity
  8
DRAFT
100
AcDbLine
 62
7
  6
CONTINUOUS
 10
-21.2391207154
 20
-17.9369710921
 11
-20.9256048799
 21
-17.7901954509
  0
LWPOLYLINE
  5
4C6
100
AcDbEntity
  8
RACCORDO
100
AcDbPolyline
 62
7
  6
CONTINUOUS
 90
16
 70
0
 10
-21.2391207143
 20
-17.9369710916
 10
-21.2692221535
 20
-17.9497516179
 10
-21.3004194379
 20
-17.9603978389
 10
-21.3326324395
 20
-17.9688436856
 10
-21.3657537106
 20
-17.9750274472
 10
-21.3997189231
 20
-17.9789059051
 10
-21.4345173449
 20
-17.9804380547
 10
-21.4701155742
 20
-17.9795712641
 10
-21.5063842401
 20
-17.976258374
 10
-21.5431784694
 20
-17.9704736903
 10
-21.5804477985
 20
-17.9621890493
 10
-21.618080368
 20
-17.9513923294
 10
-21.6558417574
 20
-17.9381302564
 10
-21.6936001364
 20
-17.9224465197
 10
-21.7313256363
 20
-17.9043489131
 10
-21.7689377902
 20
-17.88386426
  0
LWPOLYLINE
  5
4C7
100
AcDbEntity
  8
0
100
AcDbPolyline
 62
250
  6
CONTINUOUS
 90
15
 70
0
 10
-21.1807414415
 20
-18.1374309676
 10
-21.2180842255
 20
-18.1530817338
 10
-21.2576480976
 20
-18.1655891964
 10
-21.2970437586
 20
-18.1743208542
 10
-21.3360945754
 20
-18.1796532157
 10
-21.3752480332
 20
-18.1819427717
 10
-21.4140953417
 20
-18.1813954369
 10
-21.4527242791
 20
-18.1782340742
 10
-21.4924663539
 20
-18.1723963234
 10
-21.533351968
 20
-18.163763984
 10
-21.5751919846
 20
-18.1522728735
 10
-21.6190713137
 20
-18.1374277384
 10
-21.6652925055
 20
-18.1187609443
 10
-21.7133417615
 20
-18.0960924985
 10
-21.7630646563
 20
-18.0691388388
  0
LINE
  5
4C8
100
AcDbEntity
  8
DRAFT
100
AcDbLine
 62
7
  6
CONTINUOUS
 10
-0.9026575751
 20
9.5387316955
 11
-0.9493510587
 21
9.5257809472
  0
LINE
  5
4C9
100
AcDbEntity
  8
DRAFT
100
AcDbLine
 62
7
  6
CONTINUOUS
 10
-0.8558626607
 20
9.55146481
 11
-0.9026575751
 21
9.5387316955
  0
LINE
  5
4CA
100
AcDbEntity
  8
DRAFT
100
AcDbLine
 62
7
  6
CONTINUOUS
 10
-0.8089664682
 20
9.5639802498
 11
-0.8558626607
 21
9.55146481
  0
LWPOLYLINE
  5
4CB
100
AcDbEntity
  8
DRAFT
100
AcDbPolyline
 62
7
  6
CONTINUOUS
 90
3
 70
0
 10
-0.7384333877
 20
9.5823449731
 10
-0.7619696071
 20
9.5762778514
 10
-0.8089664682
 20
9.5639802498
  0
LWPOLYLINE
  5
4CC
100
AcDbEntity
  8
DRAFT
100
AcDbPolyline
 62
7
  6
CONTINUOUS
 90
10
 70
0
 10
0.1779058191
 20
9.7730342583
 10
0.1253981872
 20
9.7644174486
 10
0.0729985167
 20
9.7555475178
 10
0.0207068077
 20
9.7464244658
 10
-0.031477461
 20
9.7370481962
 10
-0.0835537682
 20
9.7274188053
 10
-0.135520551
 20
9.7175365823
 10
-0.1873772884
 20
9.7074016235
 10
-0.2391245013
 20
9.6970138324
 10
-0.2907621899
 20
9.6863732091
  0
LWPOLYLINE
  5
4CD
100
AcDbEntity
  8
IMPORT_IGES
100
AcDbPolyline
 62
7
  6
CONTINUOUS
 90
8
 70
0
 10
14.8879882037
 20
8.5875563408
 10
14.959951428
 20
8.5847594568
 10
15.0572833056
 20
8.591662103
 10
15.1581487955
 20
8.6088654184
 10
15.2607612996
 20
8.6360711863
 10
15.3645252854
 20
8.673180001
 10
15.4700362855
 20
8.7202912683
 10
15.5772942998
 20
8.7774049881
  0
LWPOLYLINE
  5
4CE
100
AcDbEntity
  8
0
100
AcDbPolyline
 62
7
  6
CONTINUOUS
 90
13
 70
0
 10
-1.3592151323
 20
9.2830489611
 10
-1.3922593463
 20
9.2875222653
 10
-1.4244809097
 20
9.2904792426
 10
-1.4557586446
 20
9.292059745
 10
-1.4860564592
 20
9.2924582111
 10
-1.5152005199
 20
9.2917786768
 10
-1.5428782958
 20
9.2900304008
 10
-1.568910216
 20
9.2873659052
 10
-1.5933391722
 20
9.2839393163
 10
-1.6161762352
 20
9.2797469166
 10
-1.6373681818
 20
9.2748781658
 10
-1.6568279957
 20
9.2695277819
 10
-1.67450262
 20
9.2638429173
  0
LWPOLYLINE
  5
4CF
100
AcDbEntity
  8
DRAFT
100
AcDbPolyline
 62
7
  6
CONTINUOUS
 90
25
 70
0
 10
6.4521585101
 20
5.4305873306
 10
6.4266005719
 20
5.4382989555
 10
6.4009365218
 20
5.4482789306
 10
6.3751663598
 20
5.460527256
 10
6.3491435871
 20
5.4751387898
 10
6.3230147024
 20
5.4920186739
 10
6.2972192022
 20
5.5108823336
 10
6.2717712114
 20
5.5317569563
 10
6.246656605
 20
5.5546153546
 10
6.2222725049
 20
5.5790913911
 10
6.1986276802
 20
5.6052136743
 10
6.1757133618
 20
5.6329535957
 10
6.1539003641
 20
5.6618591918
 10
6.1332079402
 20
5.6919478276
 10
6.113616837
 20
5.7232021381
 10
6.0954401098
 20
5.755118065
 10
6.0787013154
 20
5.7877032251
 10
6.0633768971
 20
5.8209500016
 10
6.0497092391
 20
5.854331485
 10
6.0377233112
 20
5.8878505713
 10
6.0273941436
 20
5.9215043646
 10
6.0188892124
 20
5.9547572682
 10
6.0122643427
 20
5.98743075
 10
6.0074637093
 20
6.0197033421
 10
6.0044873123
 20
6.0515750446
  0
LINE
  5
4D0
100
AcDbEntity
  8
0
100
AcDbLine
 62
250
  6
CONTINUOUS
 10
-16.4048006872
 20
16.1786225467
 11
-16.3771826096
 21
16.1646306079
  0
LWPOLYLINE
  5
4D1
100
AcDbEntity
  8
0
100
AcDbPolyline
 62
250
  6
CONTINUOUS
 90
19
 70
0
 10
-21.7687855524
 20
19.9329846263
 10
-21.7898912744
 20
19.9438072345
 10
-21.8102741758
 20
19.9521106162
 10
-21.8299342566
 20
19.9578947712
 10
-21.8490968015
 20
19.9610443231
 10
-21.8675365258
 20
19.9616746483
 10
-21.884577576
 20
19.9601318764
 10
-21.9000253139
 20
19.9562906567
 10
-21.9140743776
 20
19.9502763398
 10
-21.9266328286
 20
19.9428111063
 10
-21.9375550865
 20
19.934099149
 10
-21.9469867315
 20
19.9239362751
 10
-21.9552725663
 20
19.9124320871
 10
-21.9625545575
 20
19.8998051188
 10
-21.9686907385
 20
19.8858368363
 10
-21.9736000108
 20
19.8699812404
 10
-21.9772553418
 20
19.8520563312
 10
-21.9796837642
 20
19.8322441085
 10
-21.980885278
 20
19.8105445723
  0
LWPOLYLINE
  5
4D2
100
AcDbEntity
  8
0
100
AcDbPolyline
 62
250
  6
CONTINUOUS
 90
10
 70
0
 10
-21.6298324189
 20
20.1764836057
 10
-21.6647519602
 20
20.19440784
 10
-21.6990266997
 20
20.2081326249
 10
-21.7323425456
 20
20.2176321729
 10
-21.7646013825
 20
20.2229428589
 10
-21.79532597
 20
20.2240534636
 10
-21.8237492044
 20
20.2211538474
 10
-21.8496375119
 20
20.2146317525
 10
-21.8730665545
 20
20.2048464721
 10
-21.8849761734
 20
20.1981580605
  0
LWPOLYLINE
  5
4D3
100
AcDbEntity
  8
RACCORDO
100
AcDbPolyline
 62
250
  6
CONTINUOUS
 90
10
 70
0
 10
-1.6615652217
 20
8.9629703736
 10
-1.6770475688
 20
8.9711709828
 10
-1.6924586006
 20
8.9779134534
 10
-1.707798317
 20
8.9831977855
 10
-1.7231514415
 20
8.9870424023
 10
-1.7384332506
 20
8.9894288805
 10
-1.7533895746
 20
8.9903019506
 10
-1.76793569
 20
8.9896431893
 10
-1.7821563201
 20
8.9874710198
 10
-1.7960514651
 20
8.9837854421
  0
LWPOLYLINE
  5
4D4
100
AcDbEntity
  8
RACCORDO
100
AcDbPolyline
 62
250
  6
CONTINUOUS
 90
10
 70
0
 10
-1.5285994208
 20
9.1829128878
 10
-1.553819404
 20
9.1968280405
 10
-1.5790060841
 20
9.208480846
 10
-1.6040323887
 20
9.2178064714
 10
-1.628776994
 20
9.2247463337
 10
-1.6531131318
 20
9.2292649952
 10
-1.6769082782
 20
9.2313470185
 10
-1.7000407294
 20
9.2309765184
 10
-1.7224011912
 20
9.2281406912
 10
-1.743880871
 20
9.2228441487
  0
LINE
  5
4D5
100
AcDbEntity
  8
RACCORDO
100
AcDbLine
 62
250
  6
CONTINUOUS
 10
4.4397637006
 20
5.4401395214
 11
5.9946951392
 21
4.5423415966
  0
LINE
  5
4D6
100
AcDbEntity
  8
RACCORDO
100
AcDbLine
 62
250
  6
CONTINUOUS
 10
-0.1066337832
 20
8.0651724488
 11
-1.6615652217
 21
8.9629703736
  0
LINE
  5
4D7
100
AcDbEntity
  8
0
100
AcDbLine
 62
250
  6
CONTINUOUS
 10
-5.1621832086
 20
11.2404602205
 11
-1.7152930609
 21
9.2502690489
  0
LINE
  5
4D8
100
AcDbEntity
  8
0
100
AcDbLine
 62
250
  6
CONTINUOUS
 10
6.4390686897
 20
4.5420427723
 11
9.8859588373
 21
2.5518516007
  0
LINE
  5
4D9
100
AcDbEntity
  8
RACCORDO
100
AcDbLine
 62
250
  6
CONTINUOUS
 10
4.5704085749
 20
5.6614221097
 11
6.1276609401
 21
4.762284111
  0
LINE
  5
4DA
100
AcDbEntity
  8
RACCORDO
100
AcDbLine
 62
250
  6
CONTINUOUS
 10
0.0286529445
 20
8.2837748891
 11
-1.5285994207
 21
9.1829128878
  0
LINE
  5
4DB
100
AcDbEntity
  8
0
100
AcDbLine
 62
250
  6
CONTINUOUS
 10
-5.0616682578
 20
11.4207989932
 11
-1.3592151323
 21
9.2830489611
  0
LINE
  5
4DC
100
AcDbEntity
  8
0
100
AcDbLine
 62
250
  6
CONTINUOUS
 10
6.2840206625
 20
4.8699404055
 11
9.986473788
 21
2.7321903734
  0
LINE
  5
4DD
100
AcDbEntity
  8
DRAFT
100
AcDbLine
 62
7
  6
CONTINUOUS
 10
-16.1504925434
 20
17.9494716597
 11
-11.2899181677
 21
15.1430369325
  0
LINE
  5
4DE
100
AcDbEntity
  8
ASSI
100
AcDbLine
 62
7
  6
CONTINUOUS
 10
-16.1504925434
 20
17.9494716597
 11
-11.2899181677
 21
15.1430369325
  0
LINE
  5
4DF
100
AcDbEntity
  8
DRAFT
100
AcDbLine
 62
7
  6
CONTINUOUS
 10
-11.1067332725
 20
15.0372880226
 11
-11.2899181677
 21
15.1430369325
  0
LINE
  5
4E0
100
AcDbEntity
  8
ASSI
100
AcDbLine
 62
7
  6
CONTINUOUS
 10
-11.1067332725
 20
15.0372880226
 11
-11.2899181677
 21
15.1430369325
  0
LINE
  5
4E1
100
AcDbEntity
  8
DRAFT
100
AcDbLine
 62
250
  6
CONTINUOUS
 10
-16.1904674341
 20
18.0401866505
 11
-11.3327859896
 21
15.2354222655
  0
LINE
  5
4E2
100
AcDbEntity
  8
ASSI
100
AcDbLine
 62
250
  6
CONTINUOUS
 10
-16.1904674341
 20
18.0401866505
 11
-11.3327859896
 21
15.2354222655
  0
LINE
  5
4E3
100
AcDbEntity
  8
DRAFT
100
AcDbLine
 62
250
  6
CONTINUOUS
 10
-16.1904674341
 20
18.1918114718
 11
-11.3327859896
 21
15.3870470868
  0
LINE
  5
4E4
100
AcDbEntity
  8
ASSI
100
AcDbLine
 62
250
  6
CONTINUOUS
 10
-16.1904674341
 20
18.1918114718
 11
-11.3327859896
 21
15.3870470868
  0
LINE
  5
4E5
100
AcDbEntity
  8
SMUSSO
100
AcDbLine
 62
7
  6
CONTINUOUS
 10
15.3645439127
 20
0.0134680937
 11
15.4577524893
 21
-0.0403493703
  0
LINE
  5
4E6
100
AcDbEntity
  8
ASSI
100
AcDbLine
 62
7
  6
CONTINUOUS
 10
15.3645439127
 20
0.0134680937
 11
15.4577524893
 21
-0.0403493703
  0
LINE
  5
4E7
100
AcDbEntity
  8
0
100
AcDbLine
 62
7
  6
CONTINUOUS
 10
-20.5852609982
 20
20.8224622412
 11
-16.1751944377
 21
18.2761450803
  0
LINE
  5
4E8
100
AcDbEntity
  8
0
100
AcDbLine
 62
7
  6
CONTINUOUS
 10
-10.6754591727
 20
15.1006668662
 11
-5.5237788631
 21
12.1261512211
  0
LINE
  5
4E9
100
AcDbEntity
  8
0
100
AcDbLine
 62
7
  6
CONTINUOUS
 10
-4.6740937831
 20
11.6764007143
 11
-0.9493510861
 21
9.525780963
  0
LINE
  5
4EA
100
AcDbEntity
  8
0
100
AcDbLine
 62
7
  6
CONTINUOUS
 10
6.6630762085
 20
5.1304608492
 11
10.3878189055
 21
2.979841098
  0
LINE
  5
4EB
100
AcDbEntity
  8
0
100
AcDbLine
 62
7
  6
CONTINUOUS
 10
6.6626705908
 20
5.1306950478
 11
5.1180121136
 21
6.0225614934
  0
LINE
  5
4EC
100
AcDbEntity
  8
0
100
AcDbLine
 62
7
  6
CONTINUOUS
 10
0.5957130088
 20
8.6336803188
 11
-0.9489454685
 21
9.5255467645
  0
LINE
  5
4ED
100
AcDbEntity
  8
DRAFT
100
AcDbLine
 62
250
  6
CONTINUOUS
 10
-16.0563665739
 20
18.4381121884
 11
-11.1889804232
 21
15.6277444277
  0
LINE
  5
4EE
100
AcDbEntity
  8
ASSI
100
AcDbLine
 62
250
  6
CONTINUOUS
 10
-16.0563665739
 20
18.4381121884
 11
-11.1889804232
 21
15.6277444277
  0
LINE
  5
4EF
100
AcDbEntity
  8
DRAFT
100
AcDbLine
 62
7
  6
CONTINUOUS
 10
19.3310594855
 20
-1.7786630138
 11
19.3079896773
 21
-1.7653427956
  0
LINE
  5
4F0
100
AcDbEntity
  8
ASSI
100
AcDbLine
 62
7
  6
CONTINUOUS
 10
19.3310594855
 20
-1.7786630138
 11
19.3079896773
 21
-1.7653427956
  0
LINE
  5
4F1
100
AcDbEntity
  8
RACCORDO
100
AcDbLine
 62
250
  6
CONTINUOUS
 10
17.2663274371
 20
-0.5407248604
 11
16.6897044996
 21
-0.207790003
  0
LINE
  5
4F2
100
AcDbEntity
  8
ASSI
100
AcDbLine
 62
250
  6
CONTINUOUS
 10
17.2663274371
 20
-0.5407248604
 11
16.6897044996
 21
-0.207790003
  0
LINE
  5
4F3
100
AcDbEntity
  8
DRAFT
100
AcDbLine
 62
7
  6
CONTINUOUS
 10
-10.4560032879
 20
15.8720730932
 11
-15.6530365733
 21
18.8727749781
  0
LINE
  5
4F4
100
AcDbEntity
  8
ASSI
100
AcDbLine
 62
7
  6
CONTINUOUS
 10
-10.4560032879
 20
15.8720730932
 11
-15.6530365733
 21
18.8727749781
  0
LINE
  5
4F5
100
AcDbEntity
  8
DRAFT
100
AcDbLine
 62
7
  6
CONTINUOUS
 10
5.5358193033
 20
6.6794421629
 11
5.1180121136
 21
6.9206787979
  0
LINE
  5
4F6
100
AcDbEntity
  8
DRAFT
100
AcDbLine
 62
7
  6
CONTINUOUS
 10
0.5957130088
 20
9.5317976233
 11
0.1779058191
 21
9.7730342583
  0
LINE
  5
4F7
100
AcDbEntity
  8
SMUSSO
100
AcDbLine
 62
7
  6
CONTINUOUS
 10
20.4314890233
 20
-1.1999012995
 11
20.3686498491
 21
-1.1636187479
  0
LINE
  5
4F8
100
AcDbEntity
  8
ASSI
100
AcDbLine
 62
7
  6
CONTINUOUS
 10
20.4314890233
 20
-1.1999012995
 11
20.3686498491
 21
-1.1636187479
  0
LINE
  5
4F9
100
AcDbEntity
  8
ASSI
100
AcDbLine
 62
7
  6
CONTINUOUS
 10
-14.0892606534
 20
19.494235886
 11
-9.3327734394
 21
16.7478997814
  0
LINE
  5
4FA
100
AcDbEntity
  8
0
100
AcDbLine
 62
7
  6
CONTINUOUS
 10
-13.7828657615
 20
19.3240013788
 11
-9.497746975
 21
16.8498274966
  0
LINE
  5
4FB
100
AcDbEntity
  8
RACCORDO
100
AcDbLine
 62
7
  6
CONTINUOUS
 10
16.2499232282
 20
-0.6492898475
 11
16.2497679904
 21
-0.6492001875
  0
LINE
  5
4FC
100
AcDbEntity
  8
ASSI
100
AcDbLine
 62
7
  6
CONTINUOUS
 10
16.2499232282
 20
-0.6492898475
 11
16.2497679904
 21
-0.6492001875
  0
LWPOLYLINE
  5
4FD
100
AcDbEntity
  8
0
100
AcDbPolyline
 62
7
  6
CONTINUOUS
 90
10
 70
0
 10
-10.4560032854
 20
15.8720730917
 10
-10.4098875088
 20
15.8437051703
 10
-10.3642638038
 20
15.8122147045
 10
-10.3191321705
 20
15.7776016943
 10
-10.2742511288
 20
15.7396432258
 10
-10.2298621588
 20
15.6985622129
 10
-10.1866897005
 20
15.6550273975
 10
-10.1449752338
 20
15.6092616934
 10
-10.1044772789
 20
15.5610421867
 10
-10.0651958356
 20
15.5103688774
  0
LWPOLYLINE
  5
4FE
100
AcDbEntity
  8
ASSI
100
AcDbPolyline
 62
7
  6
CONTINUOUS
 90
10
 70
0
 10
-10.4560032854
 20
15.8720730917
 10
-10.4098875088
 20
15.8437051703
 10
-10.3642638038
 20
15.8122147045
 10
-10.3191321705
 20
15.7776016943
 10
-10.2742511288
 20
15.7396432258
 10
-10.2298621588
 20
15.6985622129
 10
-10.1866897005
 20
15.6550273975
 10
-10.1449752338
 20
15.6092616934
 10
-10.1044772789
 20
15.5610421867
 10
-10.0651958356
 20
15.5103688774
  0
LWPOLYLINE
  5
4FF
100
AcDbEntity
  8
RACCORDO
100
AcDbPolyline
 62
250
  6
CONTINUOUS
 90
7
 70
0
 10
6.1276609402
 20
4.7622841109
 10
6.1664182866
 20
4.738064227
 10
6.204579397
 20
4.7091809771
 10
6.2416766225
 20
4.6759546528
 10
6.277249122
 20
4.6387547597
 10
6.3108483386
 20
4.5979958567
 10
6.3420433585
 20
4.554132839
  0
LWPOLYLINE
  5
500
100
AcDbEntity
  8
RACCORDO
100
AcDbPolyline
 62
7
  6
CONTINUOUS
 90
6
 70
0
 10
16.2498336533
 20
-0.649235782
 10
16.2101102731
 20
-0.6235569941
 10
16.1731329851
 20
-0.5941730669
 10
16.1383590234
 20
-0.5607739748
 10
16.1056744112
 20
-0.5231982855
 10
16.0913118252
 20
-0.5044478915
  0
LWPOLYLINE
  5
501
100
AcDbEntity
  8
ASSI
100
AcDbPolyline
 62
7
  6
CONTINUOUS
 90
6
 70
0
 10
16.2498336533
 20
-0.649235782
 10
16.2101102731
 20
-0.6235569941
 10
16.1731329851
 20
-0.5941730669
 10
16.1383590234
 20
-0.5607739748
 10
16.1056744112
 20
-0.5231982855
 10
16.0913118252
 20
-0.5044478915
  0
LWPOLYLINE
  5
502
100
AcDbEntity
  8
0
100
AcDbPolyline
 62
250
  6
CONTINUOUS
 90
19
 70
0
 10
9.9864737162
 20
2.732190329
 10
10.0248687382
 20
2.7073521365
 10
10.0618606308
 20
2.6788469449
 10
10.0970696285
 20
2.6473392882
 10
10.130259054
 20
2.6133672105
 10
10.1611141012
 20
2.5776255742
 10
10.1892736188
 20
2.5410251712
 10
10.2145499731
 20
2.504303163
 10
10.2370678916
 20
2.467782013
 10
10.2570314646
 20
2.4316890585
 10
10.2743502282
 20
2.3966988699
 10
10.2892954346
 20
2.3627625897
 10
10.3024649321
 20
2.3288927711
 10
10.3137928264
 20
2.2953963829
 10
10.3232914256
 20
2.2623314553
 10
10.3312792212
 20
2.2283366915
 10
10.3375693173
 20
2.1931646619
 10
10.3417439667
 20
2.1576382561
 10
10.3435225962
 20
2.1221093942
  0
LWPOLYLINE
  5
503
100
AcDbEntity
  8
RACCORDO
100
AcDbPolyline
 62
250
  6
CONTINUOUS
 90
7
 70
0
 10
5.9946951392
 20
4.5423415966
 10
6.0179688686
 20
4.527123205
 10
6.0401811498
 20
4.5094408128
 10
6.0613319828
 20
4.4892944201
 10
6.0814213676
 20
4.4666840269
 10
6.1004493043
 20
4.4416096332
 10
6.1184157928
 20
4.414071239
  0
LWPOLYLINE
  5
504
100
AcDbEntity
  8
0
100
AcDbPolyline
 62
250
  6
CONTINUOUS
 90
19
 70
0
 10
9.8859588373
 20
2.5518516007
 10
9.9133089762
 20
2.5337926837
 10
9.9391856331
 20
2.5140378836
 10
9.9635888079
 20
2.4925872005
 10
9.9866708403
 20
2.4689596804
 10
10.0082793906
 20
2.4436362773
 10
10.02795744
 20
2.4180598526
 10
10.0454933969
 20
2.3924608427
 10
10.0610988527
 20
2.3666088112
 10
10.0749515632
 20
2.3412553101
 10
10.0869624433
 20
2.3167620659
 10
10.0972205779
 20
2.2927673522
 10
10.1061709782
 20
2.2689375413
 10
10.1139635791
 20
2.2453682947
 10
10.1204484456
 20
2.221963951
 10
10.1256207828
 20
2.1981038982
 10
10.1294789923
 20
2.1735812656
 10
10.1320246726
 20
2.1486029238
 10
10.1332578235
 20
2.1231688729
  0
LWPOLYLINE
  5
505
100
AcDbEntity
  8
RACCORDO
100
AcDbPolyline
 62
7
  6
CONTINUOUS
 90
7
 70
0
 10
15.4577524893
 20
-0.0403493703
 10
15.555787761
 20
-0.1113031564
 10
15.6524079194
 20
-0.1806369838
 10
15.7476129646
 20
-0.2483508525
 10
15.8414028965
 20
-0.3144447626
 10
15.9337777151
 20
-0.3789187141
 10
16.0247374205
 20
-0.4417727069
  0
LWPOLYLINE
  5
506
100
AcDbEntity
  8
ASSI
100
AcDbPolyline
 62
7
  6
CONTINUOUS
 90
7
 70
0
 10
15.4577524893
 20
-0.0403493703
 10
15.555787761
 20
-0.1113031564
 10
15.6524079194
 20
-0.1806369838
 10
15.7476129646
 20
-0.2483508525
 10
15.8414028965
 20
-0.3144447626
 10
15.9337777151
 20
-0.3789187141
 10
16.0247374205
 20
-0.4417727069
  0
LINE
  5
507
100
AcDbEntity
  8
DRAFT
100
AcDbLine
 62
7
  6
CONTINUOUS
 10
5.6407266057
 20
6.5408110993
 11
5.5358193033
 21
6.6794421629
  0
LINE
  5
508
100
AcDbEntity
  8
DRAFT
100
AcDbLine
 62
7
  6
CONTINUOUS
 10
5.7452025834
 20
6.4016655374
 11
5.6407266057
 21
6.5408110993
  0
LINE
  5
509
100
AcDbEntity
  8
DRAFT
100
AcDbLine
 62
7
  6
CONTINUOUS
 10
5.8492456734
 20
6.2620075712
 11
5.7452025834
 21
6.4016655374
  0
LWPOLYLINE
  5
50A
100
AcDbEntity
  8
DRAFT
100
AcDbPolyline
 62
7
  6
CONTINUOUS
 90
3
 70
0
 10
6.0044873123
 20
6.0515750446
 10
5.9528496237
 20
6.1218455763
 10
5.8492456734
 20
6.2620075712
  0
LINE
  5
50B
100
AcDbEntity
  8
DRAFT
100
AcDbLine
 62
7
  6
CONTINUOUS
 10
6.5929979382
 20
5.2307299681
 11
6.4521585101
 21
5.4305873306
  0
LINE
  5
50C
100
AcDbEntity
  8
DRAFT
100
AcDbLine
 62
7
  6
CONTINUOUS
 10
6.6630761811
 20
5.130460865
 11
6.5929979382
 21
5.2307299681
  0
LWPOLYLINE
  5
50D
100
AcDbEntity
  8
0
100
AcDbPolyline
 62
7
  6
CONTINUOUS
 90
7
 70
0
 10
6.8685597107
 20
3.9032823959
 10
6.4327652347
 20
4.5514697546
 10
6.4267870733
 20
4.5608950666
 10
6.4211266525
 20
4.5703032099
 10
6.4157760945
 20
4.5796792541
 10
6.4107272432
 20
4.5890088621
 10
6.4059717091
 20
4.5982783118
  0
LWPOLYLINE
  5
50E
100
AcDbEntity
  8
RACCORDO
100
AcDbPolyline
 62
250
  6
CONTINUOUS
 90
10
 70
0
 10
0.4269299129
 20
14.409139115
 10
0.3992057658
 20
14.4553389654
 10
0.3691707187
 20
14.4998325965
 10
0.3370670263
 20
14.542261134
 10
0.3031536277
 20
14.5822823597
 10
0.26770406
 20
14.6195734732
 10
0.2310042514
 20
14.6538336953
 10
0.1933502128
 20
14.6847866919
 10
0.1550456508
 20
14.7121828039
 10
0.1163995195
 20
14.7358010613
  0
LWPOLYLINE
  5
50F
100
AcDbEntity
  8
ASSI
100
AcDbPolyline
 62
250
  6
CONTINUOUS
 90
10
 70
0
 10
0.4269299129
 20
14.409139115
 10
0.3992057658
 20
14.4553389654
 10
0.3691707187
 20
14.4998325965
 10
0.3370670263
 20
14.542261134
 10
0.3031536277
 20
14.5822823597
 10
0.26770406
 20
14.6195734732
 10
0.2310042514
 20
14.6538336953
 10
0.1933502128
 20
14.6847866919
 10
0.1550456508
 20
14.7121828039
 10
0.1163995195
 20
14.7358010613
  0
LWPOLYLINE
  5
510
100
AcDbEntity
  8
RACCORDO
100
AcDbPolyline
 62
250
  6
CONTINUOUS
 90
5
 70
0
 10
6.3420433585
 20
4.5541328391
 10
6.732949003
 20
3.8876365778
 10
7.1128553714
 20
3.2121085022
 10
7.4814315451
 20
2.5280522557
 10
7.6681181307
 20
2.1660181963
  0
LWPOLYLINE
  5
511
100
AcDbEntity
  8
RACCORDO
100
AcDbPolyline
 62
250
  6
CONTINUOUS
 90
4
 70
0
 10
6.1184157928
 20
4.414071239
 10
6.5067113695
 20
3.7514191884
 10
6.8834544367
 20
3.0807602902
 10
7.2438657742
 20
2.4109761898
  0
LWPOLYLINE
  5
512
100
AcDbEntity
  8
0
100
AcDbPolyline
 62
7
  6
CONTINUOUS
 90
5
 70
0
 10
8.1191462427
 20
1.9056002171
 10
8.0967566767
 20
1.9439854151
 10
7.6972516472
 20
2.6045134793
 10
7.2879540299
 20
3.2574392982
 10
6.8685597107
 20
3.9032823959
  0
LWPOLYLINE
  5
513
100
AcDbEntity
  8
0
100
AcDbPolyline
 62
7
  6
CONTINUOUS
 90
4
 70
0
 10
9.9327955371
 20
-1.4477514401
 10
9.5877274978
 20
-0.7585635787
 10
9.2316504148
 20
-0.0748998672
 10
9.1309660714
 20
0.111100179
  0
LWPOLYLINE
  5
514
100
AcDbEntity
  8
0
100
AcDbPolyline
 62
7
  6
CONTINUOUS
 90
6
 70
0
 10
6.4059717091
 20
4.5982783118
 10
6.3951980836
 20
4.6203512892
 10
6.3846956151
 20
4.6429619507
 10
6.374411781
 20
4.6659641432
 10
6.3642596945
 20
4.68916504
 10
6.3541873318
 20
4.7124750326
  0
LWPOLYLINE
  5
515
100
AcDbEntity
  8
0
100
AcDbPolyline
 62
7
  6
CONTINUOUS
 90
10
 70
0
 10
9.9327955371
 20
-1.4477514401
 10
9.9597961032
 20
-1.5040874898
 10
9.985632693
 20
-1.5606330966
 10
10.0103053063
 20
-1.6173882606
 10
10.0338376342
 20
-1.6744127007
 10
10.0562059857
 20
-1.7316466979
 10
10.0773392877
 20
-1.7889110953
 10
10.0972138492
 20
-1.8461461739
 10
10.1158533611
 20
-1.9034116528
 10
10.1332578235
 20
-1.9607075318
  0
LWPOLYLINE
  5
516
100
AcDbEntity
  8
0
100
AcDbPolyline
 62
7
  6
CONTINUOUS
 90
4
 70
0
 10
6.31423729
 20
4.8054390396
 10
6.3043326599
 20
4.8277097425
 10
6.2943008775
 20
4.8492610795
 10
6.2840206625
 20
4.8699404055
  0
LWPOLYLINE
  5
517
100
AcDbEntity
  8
RACCORDO
100
AcDbPolyline
 62
250
  6
CONTINUOUS
 90
3
 70
0
 10
9.0637664888
 20
-0.8145908595
 10
9.143985397
 20
-1.0020548153
 10
9.4385963189
 20
-1.7263417079
  0
LWPOLYLINE
  5
518
100
AcDbEntity
  8
0
100
AcDbPolyline
 62
7
  6
CONTINUOUS
 90
3
 70
0
 10
6.3541873318
 20
4.7124750326
 10
6.3342218488
 20
4.7593383394
 10
6.31423729
 20
4.8054390396
  0
LINE
  5
519
100
AcDbEntity
  8
RACCORDO
100
AcDbLine
 62
250
  6
CONTINUOUS
 10
9.0207444024
 20
-1.4072308474
 11
9.1897807891
 21
-1.8232856253
  0
LWPOLYLINE
  5
51A
100
AcDbEntity
  8
SMUSSO
100
AcDbPolyline
 62
7
  6
CONTINUOUS
 90
28
 70
0
 10
-0.6866704415
 20
20.1239063114
 10
-0.6680417679
 20
20.0773805646
 10
-0.6431940624
 20
20.0322216622
 10
-0.6123696884
 20
19.988582982
 10
-0.5754527468
 20
19.9464910592
 10
-0.5325591367
 20
19.9059193586
 10
-0.4845083099
 20
19.8676449149
 10
-0.4312001242
 20
19.8317122941
 10
-0.3727347219
 20
19.7980769302
 10
-0.3102319811
 20
19.7673821591
 10
-0.2436195758
 20
19.7396858187
 10
-0.172969832
 20
19.7149300711
 10
-0.0996196067
 20
19.693584739
 10
-0.0234982541
 20
19.675713556
 10
0.05532358
 20
19.6612527884
 10
0.1352971023
 20
19.650481058
 10
0.2163932534
 20
19.6434688132
 10
0.2986410927
 20
19.6401456056
 10
0.3805790051
 20
19.6405787112
 10
0.4622708951
 20
19.6448411749
 10
0.5436528582
 20
19.6528599518
 10
0.6230715661
 20
19.6644831833
 10
0.7005775743
 20
19.6798524213
 10
0.7761203272
 20
19.698826114
 10
0.8478948306
 20
19.7208277476
 10
0.9152994195
 20
19.7456651507
 10
0.9789357587
 20
19.7735304946
 10
1.0388038484
 20
19.8044237794
  0
LWPOLYLINE
  5
51B
100
AcDbEntity
  8
ASSI
100
AcDbPolyline
 62
7
  6
CONTINUOUS
 90
28
 70
0
 10
-0.6866704415
 20
20.1239063114
 10
-0.6680417679
 20
20.0773805646
 10
-0.6431940624
 20
20.0322216622
 10
-0.6123696884
 20
19.988582982
 10
-0.5754527468
 20
19.9464910592
 10
-0.5325591367
 20
19.9059193586
 10
-0.4845083099
 20
19.8676449149
 10
-0.4312001242
 20
19.8317122941
 10
-0.3727347219
 20
19.7980769302
 10
-0.3102319811
 20
19.7673821591
 10
-0.2436195758
 20
19.7396858187
 10
-0.172969832
 20
19.7149300711
 10
-0.0996196067
 20
19.693584739
 10
-0.0234982541
 20
19.675713556
 10
0.05532358
 20
19.6612527884
 10
0.1352971023
 20
19.650481058
 10
0.2163932534
 20
19.6434688132
 10
0.2986410927
 20
19.6401456056
 10
0.3805790051
 20
19.6405787112
 10
0.4622708951
 20
19.6448411749
 10
0.5436528582
 20
19.6528599518
 10
0.6230715661
 20
19.6644831833
 10
0.7005775743
 20
19.6798524213
 10
0.7761203272
 20
19.698826114
 10
0.8478948306
 20
19.7208277476
 10
0.9152994195
 20
19.7456651507
 10
0.9789357587
 20
19.7735304946
 10
1.0388038484
 20
19.8044237794
  0
LWPOLYLINE
  5
51C
100
AcDbEntity
  8
SMUSSO
100
AcDbPolyline
 62
7
  6
CONTINUOUS
 90
28
 70
0
 10
2.3538918023
 20
18.3683160988
 10
2.3724914008
 20
18.3218541456
 10
2.3973298784
 20
18.2766966789
 10
2.4281447988
 20
18.2330587766
 10
2.4650521155
 20
18.1909666973
 10
2.507935875
 20
18.1503941824
 10
2.5559768119
 20
18.1121183744
 10
2.6092749622
 20
18.0761839037
 10
2.6677302899
 20
18.0425461399
 10
2.730223422
 20
18.0118483345
 10
2.7968270006
 20
17.984148229
 10
2.8674683836
 20
17.9593880819
 10
2.9408102718
 20
17.9380379192
 10
3.0169220833
 20
17.9201615642
 10
3.0957343999
 20
17.9056951937
 10
3.1757016682
 20
17.8949173638
 10
3.2567993202
 20
17.8878987171
 10
3.3390519239
 20
17.8845686111
 10
3.4209876301
 20
17.8849936741
 10
3.5026600977
 20
17.8892456827
 10
3.5840156679
 20
17.8972528604
 10
3.6634215149
 20
17.9088665067
 10
3.7409364656
 20
17.924227566
 10
3.8165016931
 20
17.943195094
 10
3.8883078917
 20
17.9651975575
 10
3.9557519592
 20
17.9900444455
 10
4.0194369978
 20
18.017926269
 10
4.0793630075
 20
18.0488430281
  0
LWPOLYLINE
  5
51D
100
AcDbEntity
  8
ASSI
100
AcDbPolyline
 62
7
  6
CONTINUOUS
 90
28
 70
0
 10
2.3538918023
 20
18.3683160988
 10
2.3724914008
 20
18.3218541456
 10
2.3973298784
 20
18.2766966789
 10
2.4281447988
 20
18.2330587766
 10
2.4650521155
 20
18.1909666973
 10
2.507935875
 20
18.1503941824
 10
2.5559768119
 20
18.1121183744
 10
2.6092749622
 20
18.0761839037
 10
2.6677302899
 20
18.0425461399
 10
2.730223422
 20
18.0118483345
 10
2.7968270006
 20
17.984148229
 10
2.8674683836
 20
17.9593880819
 10
2.9408102718
 20
17.9380379192
 10
3.0169220833
 20
17.9201615642
 10
3.0957343999
 20
17.9056951937
 10
3.1757016682
 20
17.8949173638
 10
3.2567993202
 20
17.8878987171
 10
3.3390519239
 20
17.8845686111
 10
3.4209876301
 20
17.8849936741
 10
3.5026600977
 20
17.8892456827
 10
3.5840156679
 20
17.8972528604
 10
3.6634215149
 20
17.9088665067
 10
3.7409364656
 20
17.924227566
 10
3.8165016931
 20
17.943195094
 10
3.8883078917
 20
17.9651975575
 10
3.9557519592
 20
17.9900444455
 10
4.0194369978
 20
18.017926269
 10
4.0793630075
 20
18.0488430281
  0
LWPOLYLINE
  5
51E
100
AcDbEntity
  8
RACCORDO
100
AcDbPolyline
 62
250
  6
CONTINUOUS
 90
13
 70
0
 10
9.4385963189
 20
-1.7263417079
 10
9.4784832427
 20
-1.8303692684
 10
9.5145701573
 20
-1.9354030848
 10
9.5467200855
 20
-2.0411307821
 10
9.5747822722
 20
-2.1472502017
 10
9.5986671188
 20
-2.2534334266
 10
9.6183460177
 20
-2.3593277167
 10
9.6337256862
 20
-2.4646198686
 10
9.6447297593
 20
-2.5689947394
 10
9.6513728287
 20
-2.6720991405
 10
9.6536284549
 20
-2.7736118039
 10
9.6514297412
 20
-2.8732444607
 10
9.6447499645
 20
-2.9707002209
  0
LWPOLYLINE
  5
51F
100
AcDbEntity
  8
RACCORDO
100
AcDbPolyline
 62
250
  6
CONTINUOUS
 90
13
 70
0
 10
9.1897807891
 20
-1.8232856253
 10
9.2251256786
 20
-1.9175080265
 10
9.2568174454
 20
-2.0121920252
 10
9.2848560893
 20
-2.1073376214
 10
9.3093227982
 20
-2.2032762623
 10
9.3301363843
 20
-2.2996765006
 10
9.3470532847
 20
-2.3955439946
 10
9.3600214266
 20
-2.4908730095
 10
9.3690928828
 20
-2.5856692801
 10
9.3741803094
 20
-2.6789556683
 10
9.3752545917
 20
-2.7704064613
 10
9.3723448444
 20
-2.8603473718
 10
9.3654510676
 20
-2.9487783999
  0
LINE
  5
520
100
AcDbEntity
  8
0
100
AcDbLine
 62
7
  6
CONTINUOUS
 10
10.2605953801
 20
-2.3258435492
 11
10.2146352898
 21
-2.2006688913
  0
LWPOLYLINE
  5
521
100
AcDbEntity
  8
0
100
AcDbPolyline
 62
7
  6
CONTINUOUS
 90
8
 70
0
 10
10.2146352898
 20
-2.2006688913
 10
10.1950207846
 20
-2.1466550072
 10
10.1849442878
 20
-2.118388787
 10
10.1747734878
 20
-2.0892395327
 10
10.1643903735
 20
-2.0589746612
 10
10.1538634023
 20
-2.0274662032
 10
10.1434248661
 20
-1.9947248683
 10
10.1332578235
 20
-1.9607075318
  0
LWPOLYLINE
  5
522
100
AcDbEntity
  8
SMUSSO
100
AcDbPolyline
 62
7
  6
CONTINUOUS
 90
25
 70
0
 10
6.0451391635
 20
10.3049059376
 10
6.0426029203
 20
10.3124227688
 10
6.0290209958
 20
10.3697531709
 10
6.0199641441
 20
10.4304230466
 10
6.0155197752
 20
10.4944957931
 10
6.0156004791
 20
10.5619080132
 10
6.0202039455
 20
10.6313731439
 10
6.0294154093
 20
10.7029268561
 10
6.0431496357
 20
10.776533479
 10
6.0611486091
 20
10.8507994368
 10
6.0835003299
 20
10.9257515069
 10
6.1101167978
 20
11.0013629119
 10
6.1404759971
 20
11.0761597445
 10
6.1746334051
 20
11.1500963668
 10
6.2125335446
 20
11.2232184167
 10
6.2534879677
 20
11.2941888998
 10
6.2975679719
 20
11.3629956631
 10
6.3447022597
 20
11.4296508596
 10
6.3939884903
 20
11.4928539535
 10
6.4455860147
 20
11.5526061517
 10
6.4993354819
 20
11.6089062473
 10
6.5538564985
 20
11.6604500835
 10
6.6086889335
 20
11.7068029412
 10
6.664292918
 20
11.7483995394
 10
6.7206684519
 20
11.7852398781
  0
LWPOLYLINE
  5
523
100
AcDbEntity
  8
ASSI
100
AcDbPolyline
 62
7
  6
CONTINUOUS
 90
25
 70
0
 10
6.0451391635
 20
10.3049059376
 10
6.0426029203
 20
10.3124227688
 10
6.0290209958
 20
10.3697531709
 10
6.0199641441
 20
10.4304230466
 10
6.0155197752
 20
10.4944957931
 10
6.0156004791
 20
10.5619080132
 10
6.0202039455
 20
10.6313731439
 10
6.0294154093
 20
10.7029268561
 10
6.0431496357
 20
10.776533479
 10
6.0611486091
 20
10.8507994368
 10
6.0835003299
 20
10.9257515069
 10
6.1101167978
 20
11.0013629119
 10
6.1404759971
 20
11.0761597445
 10
6.1746334051
 20
11.1500963668
 10
6.2125335446
 20
11.2232184167
 10
6.2534879677
 20
11.2941888998
 10
6.2975679719
 20
11.3629956631
 10
6.3447022597
 20
11.4296508596
 10
6.3939884903
 20
11.4928539535
 10
6.4455860147
 20
11.5526061517
 10
6.4993354819
 20
11.6089062473
 10
6.5538564985
 20
11.6604500835
 10
6.6086889335
 20
11.7068029412
 10
6.664292918
 20
11.7483995394
 10
6.7206684519
 20
11.7852398781
  0
LWPOLYLINE
  5
524
100
AcDbEntity
  8
0
100
AcDbPolyline
 62
7
  6
CONTINUOUS
 90
11
 70
0
 10
10.3435225962
 20
-2.5762703546
 10
10.3373151568
 20
-2.5544853881
 10
10.330793883
 20
-2.5325463605
 10
10.3239784648
 20
-2.510443034
 10
10.3169019984
 20
-2.4881788842
 10
10.3095745762
 20
-2.4657326967
 10
10.3019792165
 20
-2.4430545152
 10
10.2941301771
 20
-2.4201113301
 10
10.2860552573
 20
-2.3969134842
 10
10.2777550871
 20
-2.3734709965
 10
10.2605953801
 20
-2.3258435492
  0
LINE
  5
525
100
AcDbEntity
  8
IMPORT_IGES
100
AcDbLine
 62
250
  6
CONTINUOUS
 10
10.3794545267
 20
13.9523983604
 11
10.3800594581
 21
13.9413920779
  0
LINE
  5
526
100
AcDbEntity
  8
0
100
AcDbLine
 62
250
  6
CONTINUOUS
 10
10.1332578235
 20
2.1231688729
 11
10.1332578235
 21
-1.9607075318
  0
LINE
  5
527
100
AcDbEntity
  8
0
100
AcDbLine
 62
250
  6
CONTINUOUS
 10
10.1332578235
 20
-33.5905631819
 11
10.1332578235
 21
-29.5066867772
  0
LINE
  5
528
100
AcDbEntity
  8
DRAFT
100
AcDbLine
 62
7
  6
CONTINUOUS
 10
10.239564358
 20
28.7872039714
 11
10.239564358
 21
28.8422131373
  0
LINE
  5
529
100
AcDbEntity
  8
ASSI
100
AcDbLine
 62
7
  6
CONTINUOUS
 10
10.239564358
 20
28.7872039714
 11
10.239564358
 21
28.8422131373
  0
LINE
  5
52A
100
AcDbEntity
  8
0
100
AcDbLine
 62
250
  6
CONTINUOUS
 10
10.3435225962
 20
2.1221093942
 11
10.3435225962
 21
-2.5762703546
  0
LINE
  5
52B
100
AcDbEntity
  8
0
100
AcDbLine
 62
250
  6
CONTINUOUS
 10
10.3435225962
 20
-33.5916226607
 11
10.3435225962
 21
-28.893242912
  0
LINE
  5
52C
100
AcDbEntity
  8
IMPORT_IGES
100
AcDbLine
 62
250
  6
CONTINUOUS
 10
10.3800594581
 20
13.9413920779
 11
10.3800594581
 21
13.4648898787
  0
LINE
  5
52D
100
AcDbEntity
  8
IMPORT_IGES
100
AcDbLine
 62
7
  6
CONTINUOUS
 10
10.4093487799
 20
13.9822195372
 11
10.4093487799
 21
13.4818011948
  0
LINE
  5
52E
100
AcDbEntity
  8
0
100
AcDbLine
 62
7
  6
CONTINUOUS
 10
10.7411031714
 20
2.3674372012
 11
10.7411031714
 21
-33.3935872205
  0
LINE
  5
52F
100
AcDbEntity
  8
SMUSSO
100
AcDbLine
 62
7
  6
CONTINUOUS
 10
11.2909682887
 20
29.8730162664
 11
11.2909682887
 21
29.4599694649
  0
LINE
  5
530
100
AcDbEntity
  8
ASSI
100
AcDbLine
 62
7
  6
CONTINUOUS
 10
11.2909682887
 20
29.8730162664
 11
11.2909682887
 21
29.4599694649
  0
LINE
  5
531
100
AcDbEntity
  8
RACCORDO
100
AcDbLine
 62
250
  6
CONTINUOUS
 10
16.028110103
 20
13.3632817533
 11
16.0776323265
 21
13.4931703357
  0
LINE
  5
532
100
AcDbEntity
  8
ASSI
100
AcDbLine
 62
250
  6
CONTINUOUS
 10
16.028110103
 20
13.3632817533
 11
16.0776323265
 21
13.4931703357
  0
LINE
  5
533
100
AcDbEntity
  8
RACCORDO
100
AcDbLine
 62
250
  6
CONTINUOUS
 10
16.028110103
 20
9.2809303694
 11
16.0776323041
 21
9.4108189017
  0
LINE
  5
534
100
AcDbEntity
  8
ASSI
100
AcDbLine
 62
250
  6
CONTINUOUS
 10
16.028110103
 20
9.2809303694
 11
16.0776323041
 21
9.4108189017
  0
LINE
  5
535
100
AcDbEntity
  8
RACCORDO
100
AcDbLine
 62
250
  6
CONTINUOUS
 10
16.028110103
 20
5.1985789854
 11
16.0776323265
 21
5.3284675678
  0
LINE
  5
536
100
AcDbEntity
  8
ASSI
100
AcDbLine
 62
250
  6
CONTINUOUS
 10
16.028110103
 20
5.1985789854
 11
16.0776323265
 21
5.3284675678
  0
LWPOLYLINE
  5
537
100
AcDbEntity
  8
RACCORDO
100
AcDbPolyline
 62
7
  6
CONTINUOUS
 90
18
 70
0
 10
16.1216128487
 20
9.3721171402
 10
16.1649375041
 20
9.4795874953
 10
16.2208766774
 20
9.6059134528
 10
16.2815990761
 20
9.7307389468
 10
16.3468184094
 20
9.8535257975
 10
16.4162663267
 20
9.9737952449
 10
16.4896135641
 20
10.0910290366
 10
16.5665037021
 20
10.2047178444
 10
16.6466058869
 20
10.3144145571
 10
16.7295326081
 20
10.419649247
 10
16.8148795323
 20
10.5199900613
 10
16.9022623056
 20
10.6150500341
 10
16.991255721
 20
10.704434802
 10
17.0814314316
 20
10.787805721
 10
17.1723605824
 20
10.8648501377
 10
17.263571553
 20
10.9352577128
 10
17.3545414451
 20
10.9987645297
 10
17.4203355548
 20
11.0405412938
  0
LWPOLYLINE
  5
538
100
AcDbEntity
  8
ASSI
100
AcDbPolyline
 62
7
  6
CONTINUOUS
 90
18
 70
0
 10
16.1216128487
 20
9.3721171402
 10
16.1649375041
 20
9.4795874953
 10
16.2208766774
 20
9.6059134528
 10
16.2815990761
 20
9.7307389468
 10
16.3468184094
 20
9.8535257975
 10
16.4162663267
 20
9.9737952449
 10
16.4896135641
 20
10.0910290366
 10
16.5665037021
 20
10.2047178444
 10
16.6466058869
 20
10.3144145571
 10
16.7295326081
 20
10.419649247
 10
16.8148795323
 20
10.5199900613
 10
16.9022623056
 20
10.6150500341
 10
16.991255721
 20
10.704434802
 10
17.0814314316
 20
10.787805721
 10
17.1723605824
 20
10.8648501377
 10
17.263571553
 20
10.9352577128
 10
17.3545414451
 20
10.9987645297
 10
17.4203355548
 20
11.0405412938
  0
LWPOLYLINE
  5
539
100
AcDbEntity
  8
RACCORDO
100
AcDbPolyline
 62
7
  6
CONTINUOUS
 90
18
 70
0
 10
16.1216128432
 20
5.2897657528
 10
16.1649376362
 20
5.3972364264
 10
16.2208768879
 20
5.5235625101
 10
16.2815993521
 20
5.6483881079
 10
16.3468187505
 20
5.7711750345
 10
16.416266734
 20
5.8914445311
 10
16.4896140214
 20
6.0086783549
 10
16.5665041979
 20
6.1223671696
 10
16.6466064119
 20
6.2320638584
 10
16.729533139
 20
6.3372985075
 10
16.8148800463
 20
6.4376392619
 10
16.9022627847
 20
6.5326991518
 10
16.9912561516
 20
6.622083833
 10
17.0814318021
 20
6.7054546662
 10
17.1723608862
 20
6.7824989969
 10
17.2635717764
 20
6.8529064862
 10
17.3545415652
 20
6.9164132209
 10
17.420335556
 20
6.958189909
  0
LWPOLYLINE
  5
53A
100
AcDbEntity
  8
ASSI
100
AcDbPolyline
 62
7
  6
CONTINUOUS
 90
18
 70
0
 10
16.1216128432
 20
5.2897657528
 10
16.1649376362
 20
5.3972364264
 10
16.2208768879
 20
5.5235625101
 10
16.2815993521
 20
5.6483881079
 10
16.3468187505
 20
5.7711750345
 10
16.416266734
 20
5.8914445311
 10
16.4896140214
 20
6.0086783549
 10
16.5665041979
 20
6.1223671696
 10
16.6466064119
 20
6.2320638584
 10
16.729533139
 20
6.3372985075
 10
16.8148800463
 20
6.4376392619
 10
16.9022627847
 20
6.5326991518
 10
16.9912561516
 20
6.622083833
 10
17.0814318021
 20
6.7054546662
 10
17.1723608862
 20
6.7824989969
 10
17.2635717764
 20
6.8529064862
 10
17.3545415652
 20
6.9164132209
 10
17.420335556
 20
6.958189909
  0
LWPOLYLINE
  5
53B
100
AcDbEntity
  8
RACCORDO
100
AcDbPolyline
 62
250
  6
CONTINUOUS
 90
16
 70
0
 10
16.0776323041
 20
9.4108189017
 10
16.1316588826
 20
9.5391873281
 10
16.1901898384
 20
9.6660356485
 10
16.2534653711
 20
9.7918010854
 10
16.3212452811
 20
9.9160464162
 10
16.3928089699
 20
10.0374599734
 10
16.4681441148
 20
10.1559499467
 10
16.5472630383
 20
10.2716081464
 10
16.6294821104
 20
10.3833983347
 10
16.7147606426
 20
10.4912627915
 10
16.8031393232
 20
10.595259237
 10
16.8940565869
 20
10.6945245947
 10
16.9877500262
 20
10.7892333371
 10
17.0839820487
 20
10.8792109917
 10
17.1814783115
 20
10.9630710644
 10
17.2798140338
 20
11.0403513903
  0
LWPOLYLINE
  5
53C
100
AcDbEntity
  8
ASSI
100
AcDbPolyline
 62
250
  6
CONTINUOUS
 90
16
 70
0
 10
16.0776323041
 20
9.4108189017
 10
16.1316588826
 20
9.5391873281
 10
16.1901898384
 20
9.6660356485
 10
16.2534653711
 20
9.7918010854
 10
16.3212452811
 20
9.9160464162
 10
16.3928089699
 20
10.0374599734
 10
16.4681441148
 20
10.1559499467
 10
16.5472630383
 20
10.2716081464
 10
16.6294821104
 20
10.3833983347
 10
16.7147606426
 20
10.4912627915
 10
16.8031393232
 20
10.595259237
 10
16.8940565869
 20
10.6945245947
 10
16.9877500262
 20
10.7892333371
 10
17.0839820487
 20
10.8792109917
 10
17.1814783115
 20
10.9630710644
 10
17.2798140338
 20
11.0403513903
  0
LWPOLYLINE
  5
53D
100
AcDbEntity
  8
RACCORDO
100
AcDbPolyline
 62
250
  6
CONTINUOUS
 90
16
 70
0
 10
16.0776323265
 20
5.3284675678
 10
16.1316589299
 20
5.4568360422
 10
16.1901899132
 20
5.5836844087
 10
16.2534654913
 20
5.7094499102
 10
16.3212454492
 20
5.8336953037
 10
16.3928091425
 20
5.9551088605
 10
16.4681441957
 20
6.0735986986
 10
16.5472629843
 20
6.1892567
 10
16.6294819899
 20
6.3010467818
 10
16.7147606124
 20
6.4089113349
 10
16.8031394518
 20
6.5129079685
 10
16.8940567906
 20
6.6121734265
 10
16.987750118
 20
6.7068820707
 10
17.0839819447
 20
6.7968595395
 10
17.1814780848
 20
6.880719492
 10
17.2798138097
 20
6.9579998149
  0
LWPOLYLINE
  5
53E
100
AcDbEntity
  8
ASSI
100
AcDbPolyline
 62
250
  6
CONTINUOUS
 90
16
 70
0
 10
16.0776323265
 20
5.3284675678
 10
16.1316589299
 20
5.4568360422
 10
16.1901899132
 20
5.5836844087
 10
16.2534654913
 20
5.7094499102
 10
16.3212454492
 20
5.8336953037
 10
16.3928091425
 20
5.9551088605
 10
16.4681441957
 20
6.0735986986
 10
16.5472629843
 20
6.1892567
 10
16.6294819899
 20
6.3010467818
 10
16.7147606124
 20
6.4089113349
 10
16.8031394518
 20
6.5129079685
 10
16.8940567906
 20
6.6121734265
 10
16.987750118
 20
6.7068820707
 10
17.0839819447
 20
6.7968595395
 10
17.1814780848
 20
6.880719492
 10
17.2798138097
 20
6.9579998149
  0
LWPOLYLINE
  5
53F
100
AcDbEntity
  8
RACCORDO
100
AcDbPolyline
 62
7
  6
CONTINUOUS
 90
8
 70
0
 10
16.1216612078
 20
9.3721219915
 10
16.1155498516
 20
9.359563689
 10
16.1071145872
 20
9.3470074725
 10
16.0961882201
 20
9.3340205787
 10
16.0828200136
 20
9.3208909133
 10
16.0670263887
 20
9.3077144446
 10
16.0487909244
 20
9.2943952042
 10
16.0281136206
 20
9.2809331922
  0
LWPOLYLINE
  5
540
100
AcDbEntity
  8
ASSI
100
AcDbPolyline
 62
7
  6
CONTINUOUS
 90
8
 70
0
 10
16.1216612078
 20
9.3721219915
 10
16.1155498516
 20
9.359563689
 10
16.1071145872
 20
9.3470074725
 10
16.0961882201
 20
9.3340205787
 10
16.0828200136
 20
9.3208909133
 10
16.0670263887
 20
9.3077144446
 10
16.0487909244
 20
9.2943952042
 10
16.0281136206
 20
9.2809331922
  0
LWPOLYLINE
  5
541
100
AcDbEntity
  8
RACCORDO
100
AcDbPolyline
 62
7
  6
CONTINUOUS
 90
8
 70
0
 10
16.1216612022
 20
5.2897706042
 10
16.1155498448
 20
5.2772122985
 10
16.1071145809
 20
5.2646560826
 10
16.0961882144
 20
5.2516691896
 10
16.0828200088
 20
5.2385395251
 10
16.0670263853
 20
5.2253630577
 10
16.0487909225
 20
5.2120438187
 10
16.0281136207
 20
5.1985818082
  0
LWPOLYLINE
  5
542
100
AcDbEntity
  8
ASSI
100
AcDbPolyline
 62
7
  6
CONTINUOUS
 90
8
 70
0
 10
16.1216612022
 20
5.2897706042
 10
16.1155498448
 20
5.2772122985
 10
16.1071145809
 20
5.2646560826
 10
16.0961882144
 20
5.2516691896
 10
16.0828200088
 20
5.2385395251
 10
16.0670263853
 20
5.2253630577
 10
16.0487909225
 20
5.2120438187
 10
16.0281136207
 20
5.1985818082
  0
LWPOLYLINE
  5
543
100
AcDbEntity
  8
IMPORT_IGES
100
AcDbPolyline
 62
7
  6
CONTINUOUS
 90
12
 70
0
 10
16.1913562826
 20
1.1292219559
 10
16.284555659
 20
1.240057634
 10
16.3742872032
 20
1.3570395275
 10
16.4589609386
 20
1.4779500833
 10
16.5383365457
 20
1.6025537765
 10
16.612654344
 20
1.731086132
 10
16.6810453152
 20
1.8620361717
 10
16.7435870999
 20
1.9956955199
 10
16.8002020576
 20
2.1317725523
 10
16.8497882477
 20
2.267881417
 10
16.8922005051
 20
2.4040452049
 10
16.9049243886
 20
2.4530210751
  0
LINE
  5
544
100
AcDbEntity
  8
IMPORT_IGES
100
AcDbLine
 62
7
  6
CONTINUOUS
 10
16.0946717033
 20
1.0247165405
 11
16.1913562826
 21
1.1292219559
  0
LINE
  5
545
100
AcDbEntity
  8
SMUSSO
100
AcDbLine
 62
7
  6
CONTINUOUS
 10
13.484804578
 20
-4.5128546832
 11
21.1387035085
 21
0.141923893
  0
LINE
  5
546
100
AcDbEntity
  8
ASSI
100
AcDbLine
 62
7
  6
CONTINUOUS
 10
13.484804578
 20
-4.5128546832
 11
21.1387035085
 21
0.141923893
  0
LINE
  5
547
100
AcDbEntity
  8
RACCORDO
100
AcDbLine
 62
7
  6
CONTINUOUS
 10
16.3206826762
 20
-3.4353399702
 11
13.484804578
 21
-5.1303983632
  0
LINE
  5
548
100
AcDbEntity
  8
ASSI
100
AcDbLine
 62
7
  6
CONTINUOUS
 10
16.3206826762
 20
-3.4353399702
 11
13.484804578
 21
-5.1303983632
  0
LINE
  5
549
100
AcDbEntity
  8
SMUSSO
100
AcDbLine
 62
7
  6
CONTINUOUS
 10
20.4314890233
 20
-1.1999012995
 11
13.484804578
 21
-5.2820969226
  0
LINE
  5
54A
100
AcDbEntity
  8
ASSI
100
AcDbLine
 62
7
  6
CONTINUOUS
 10
20.4314890233
 20
-1.1999012995
 11
13.484804578
 21
-5.2820969226
  0
LINE
  5
54B
100
AcDbEntity
  8
SMUSSO
100
AcDbLine
 62
7
  6
CONTINUOUS
 10
21.1387035085
 20
-1.8270604435
 11
13.484804578
 21
-6.3248482673
  0
LINE
  5
54C
100
AcDbEntity
  8
ASSI
100
AcDbLine
 62
7
  6
CONTINUOUS
 10
21.1387035085
 20
-1.8270604435
 11
13.484804578
 21
-6.3248482673
  0
LINE
  5
54D
100
AcDbEntity
  8
RACCORDO
100
AcDbLine
 62
7
  6
CONTINUOUS
 10
19.3310594855
 20
-1.7786630138
 11
13.484804578
 21
-5.1542230702
  0
LINE
  5
54E
100
AcDbEntity
  8
ASSI
100
AcDbLine
 62
7
  6
CONTINUOUS
 10
19.3310594855
 20
-1.7786630138
 11
13.484804578
 21
-5.1542230702
  0
LINE
  5
54F
100
AcDbEntity
  8
DRAFT
100
AcDbLine
 62
7
  6
CONTINUOUS
 10
19.3079896773
 20
-1.7653427956
 11
20.3686498491
 21
-1.1636187479
  0
LINE
  5
550
100
AcDbEntity
  8
ASSI
100
AcDbLine
 62
7
  6
CONTINUOUS
 10
19.3079896773
 20
-1.7653427956
 11
20.3686498491
 21
-1.1636187479
  0
LWPOLYLINE
  5
551
100
AcDbEntity
  8
DRAFT
100
AcDbPolyline
 62
7
  6
CONTINUOUS
 90
10
 70
0
 10
2.1578300573
 20
11.1624414557
 10
2.0097082538
 20
11.1238736202
 10
1.8626172429
 20
11.0831479208
 10
1.7165570246
 20
11.0402643573
 10
1.5715151503
 20
10.9952188494
 10
1.4275040686
 20
10.9480154776
 10
1.2845611254
 20
10.8986664828
 10
1.1426987692
 20
10.8471759454
 10
1.0019045514
 20
10.793539785
 10
0.862178472
 20
10.7377580017
  0
LWPOLYLINE
  5
552
100
AcDbEntity
  8
DRAFT
100
AcDbPolyline
 62
7
  6
CONTINUOUS
 90
10
 70
0
 10
3.0207875582
 20
11.3407805516
 10
2.9653045978
 20
11.3316004841
 10
2.9099428522
 20
11.32213683
 10
2.8547023213
 20
11.3123895892
 10
2.7995823872
 20
11.302358646
 10
2.7445836679
 20
11.2920441162
 10
2.6897080176
 20
11.2814463475
 10
2.6349560546
 20
11.2705654559
 10
2.5803271606
 20
11.2594013255
 10
2.5258213358
 20
11.2479539563
  0
LWPOLYLINE
  5
553
100
AcDbEntity
  8
0
100
AcDbPolyline
 62
250
  6
CONTINUOUS
 90
10
 70
0
 10
-9.1130729733
 20
17.0360007649
 10
-9.1221690749
 20
17.0403729568
 10
-9.1319570103
 20
17.0433936796
 10
-9.1423622878
 20
17.0450399432
 10
-9.1533057171
 20
17.0452992184
 10
-9.1647040121
 20
17.0441695315
 10
-9.176470425
 20
17.0416594798
 10
-9.1885154063
 20
17.0377881662
 10
-9.2007472864
 20
17.0325850533
 10
-9.2130729733
 20
17.0260897397
  0
LWPOLYLINE
  5
554
100
AcDbEntity
  8
RACCORDO
100
AcDbPolyline
 62
250
  6
CONTINUOUS
 90
10
 70
0
 10
-12.2180127872
 20
21.4110664929
 10
-12.2459651427
 20
21.4260989101
 10
-12.2737795171
 20
21.4384279142
 10
-12.3012797171
 20
21.4479754059
 10
-12.3282915382
 20
21.4546809062
 10
-12.3546438721
 20
21.458501938
 10
-12.3801697902
 20
21.4594142947
 10
-12.404707597
 20
21.4574121965
 10
-12.4281018538
 20
21.4525083264
 10
-12.4502043669
 20
21.444733749
  0
LWPOLYLINE
  5
555
100
AcDbEntity
  8
ASSI
100
AcDbPolyline
 62
250
  6
CONTINUOUS
 90
10
 70
0
 10
-12.2180127872
 20
21.4110664929
 10
-12.2459651427
 20
21.4260989101
 10
-12.2737795171
 20
21.4384279142
 10
-12.3012797171
 20
21.4479754059
 10
-12.3282915382
 20
21.4546809062
 10
-12.3546438721
 20
21.458501938
 10
-12.3801697902
 20
21.4594142947
 10
-12.404707597
 20
21.4574121965
 10
-12.4281018538
 20
21.4525083264
 10
-12.4502043669
 20
21.444733749
  0
LWPOLYLINE
  5
556
100
AcDbEntity
  8
IMPORT_IGES
100
AcDbPolyline
 62
7
  6
CONTINUOUS
 90
12
 70
0
 10
16.5773670881
 20
3.9776515544
 10
16.5431940755
 20
3.9960954116
 10
16.4636445329
 20
4.0298345652
 10
16.3786243783
 20
4.0536401061
 10
16.2883975811
 20
4.0675848169
 10
16.1946371716
 20
4.0712288586
 10
16.097305294
 20
4.0643262124
 10
15.9964398041
 20
4.047122897
 10
15.8938272999
 20
4.0199171291
 10
15.7900633141
 20
3.9828083143
 10
15.6845523141
 20
3.9356970471
 10
15.638915905
 20
3.9113961583
  0
LWPOLYLINE
  5
557
100
AcDbEntity
  8
RACCORDO
100
AcDbPolyline
 62
250
  6
CONTINUOUS
 90
37
 70
0
 10
-12.1225041275
 20
21.4084123547
 10
-12.1253451461
 20
21.4099851449
 10
-12.1281563284
 20
21.4114471
 10
-12.1309376746
 20
21.4127982201
 10
-12.1336868091
 20
21.4140323284
 10
-12.1364061075
 20
21.4151556017
 10
-12.1391026956
 20
21.4161865699
 10
-12.1417762273
 20
21.4171272814
 10
-12.1444270487
 20
21.4179756878
 10
-12.1470633244
 20
21.4187441743
 10
-12.1496859014
 20
21.4194345284
 10
-12.1522939326
 20
21.4200449626
 10
-12.1548930408
 20
21.4205824988
 10
-12.1574840908
 20
21.4210483084
 10
-12.1600662177
 20
21.4214412201
 10
-12.1626424507
 20
21.421764742
 10
-12.165212718
 20
21.4220196329
 10
-12.1677770913
 20
21.422205134
 10
-12.1703388148
 20
21.4223224773
 10
-12.1728976182
 20
21.4223724537
 10
-12.1754537718
 20
21.4223542724
 10
-12.1780113306
 20
21.4222667934
 10
-12.1805712806
 20
21.4221107031
 10
-12.1831326358
 20
21.4218853151
 10
-12.1856964935
 20
21.4215874306
 10
-12.1882573746
 20
21.4212194391
 10
-12.1908207583
 20
21.420778951
 10
-12.1934041797
 20
21.4202555991
 10
-12.1960087553
 20
21.4196521278
 10
-12.1986333687
 20
21.4189657927
 10
-12.2012922052
 20
21.4181779932
 10
-12.2039892338
 20
21.4172905569
 10
-12.2067204856
 20
21.4163016563
 10
-12.209488239
 20
21.4151872079
 10
-12.2122932535
 20
21.413939184
 10
-12.2151347695
 20
21.4125656123
 10
-12.2180127872
 20
21.4110664929
  0
LWPOLYLINE
  5
558
100
AcDbEntity
  8
ASSI
100
AcDbPolyline
 62
250
  6
CONTINUOUS
 90
37
 70
0
 10
-12.1225041275
 20
21.4084123547
 10
-12.1253451461
 20
21.4099851449
 10
-12.1281563284
 20
21.4114471
 10
-12.1309376746
 20
21.4127982201
 10
-12.1336868091
 20
21.4140323284
 10
-12.1364061075
 20
21.4151556017
 10
-12.1391026956
 20
21.4161865699
 10
-12.1417762273
 20
21.4171272814
 10
-12.1444270487
 20
21.4179756878
 10
-12.1470633244
 20
21.4187441743
 10
-12.1496859014
 20
21.4194345284
 10
-12.1522939326
 20
21.4200449626
 10
-12.1548930408
 20
21.4205824988
 10
-12.1574840908
 20
21.4210483084
 10
-12.1600662177
 20
21.4214412201
 10
-12.1626424507
 20
21.421764742
 10
-12.165212718
 20
21.4220196329
 10
-12.1677770913
 20
21.422205134
 10
-12.1703388148
 20
21.4223224773
 10
-12.1728976182
 20
21.4223724537
 10
-12.1754537718
 20
21.4223542724
 10
-12.1780113306
 20
21.4222667934
 10
-12.1805712806
 20
21.4221107031
 10
-12.1831326358
 20
21.4218853151
 10
-12.1856964935
 20
21.4215874306
 10
-12.1882573746
 20
21.4212194391
 10
-12.1908207583
 20
21.420778951
 10
-12.1934041797
 20
21.4202555991
 10
-12.1960087553
 20
21.4196521278
 10
-12.1986333687
 20
21.4189657927
 10
-12.2012922052
 20
21.4181779932
 10
-12.2039892338
 20
21.4172905569
 10
-12.2067204856
 20
21.4163016563
 10
-12.209488239
 20
21.4151872079
 10
-12.2122932535
 20
21.413939184
 10
-12.2151347695
 20
21.4125656123
 10
-12.2180127872
 20
21.4110664929
  0
LINE
  5
559
100
AcDbEntity
  8
RACCORDO
100
AcDbLine
 62
7
  6
CONTINUOUS
 10
-11.878674485
 20
21.4296894069
 11
-11.8942743629
 21
21.4383923887
  0
LINE
  5
55A
100
AcDbEntity
  8
ASSI
100
AcDbLine
 62
7
  6
CONTINUOUS
 10
-11.878674485
 20
21.4296894069
 11
-11.8942743629
 21
21.4383923887
  0
LINE
  5
55B
100
AcDbEntity
  8
RACCORDO
100
AcDbLine
 62
7
  6
CONTINUOUS
 10
-11.9262318747
 20
21.4572226657
 11
-11.9203496722
 21
21.4538592471
  0
LINE
  5
55C
100
AcDbEntity
  8
ASSI
100
AcDbLine
 62
7
  6
CONTINUOUS
 10
-11.9262318747
 20
21.4572226657
 11
-11.9203496722
 21
21.4538592471
  0
LINE
  5
55D
100
AcDbEntity
  8
0
100
AcDbLine
 62
250
  6
CONTINUOUS
 10
-9.2130729733
 20
17.0260897397
 11
-13.4775902696
 21
19.4883685796
  0
LINE
  5
55E
100
AcDbEntity
  8
0
100
AcDbLine
 62
7
  6
CONTINUOUS
 10
-9.1130729733
 20
17.0360007649
 11
-13.3775902696
 21
19.4982796048
  0
LINE
  5
55F
100
AcDbEntity
  8
0
100
AcDbLine
 62
7
  6
CONTINUOUS
 10
-8.9606539901
 20
16.948013579
 11
-9.1130729733
 21
17.0360007649
  0
LINE
  5
560
100
AcDbEntity
  8
DRAFT
100
AcDbLine
 62
7
  6
CONTINUOUS
 10
19.3310594855
 20
1.3172978569
 11
19.2726343383
 21
1.3510318047
  0
LINE
  5
561
100
AcDbEntity
  8
ASSI
100
AcDbLine
 62
7
  6
CONTINUOUS
 10
19.3310594855
 20
1.3172978569
 11
19.2726343383
 21
1.3510318047
  0
LINE
  5
562
100
AcDbEntity
  8
DRAFT
100
AcDbLine
 62
7
  6
CONTINUOUS
 10
7.380913929
 20
8.2272544315
 11
4.6246295142
 21
9.8186985082
  0
LINE
  5
563
100
AcDbEntity
  8
ASSI
100
AcDbLine
 62
7
  6
CONTINUOUS
 10
-11.2867529777
 20
19.0237288943
 11
-8.3036557762
 21
17.3013259571
  0
LINE
  5
564
100
AcDbEntity
  8
ASSI
100
AcDbLine
 62
7
  6
CONTINUOUS
 10
-7.0555214424
 20
16.5806688356
 11
-6.9026909343
 21
16.4924264156
  0
LINE
  5
565
100
AcDbEntity
  8
SMUSSO
100
AcDbLine
 62
7
  6
CONTINUOUS
 10
15.3645439127
 20
4.0958194776
 11
15.4577524893
 21
4.0420020136
  0
LINE
  5
566
100
AcDbEntity
  8
ASSI
100
AcDbLine
 62
7
  6
CONTINUOUS
 10
15.3645439127
 20
4.0958194776
 11
15.4577524893
 21
4.0420020136
  0
LINE
  5
567
100
AcDbEntity
  8
ASSI
100
AcDbLine
 62
7
  6
CONTINUOUS
 10
-12.809713252
 20
20.4402663074
 11
-12.6302558619
 21
20.3366498595
  0
LINE
  5
568
100
AcDbEntity
  8
ASSI
100
AcDbLine
 62
7
  6
CONTINUOUS
 10
-7.8219297499
 20
17.5603826249
 11
-7.6424723597
 21
17.4567661769
  0
LINE
  5
569
100
AcDbEntity
  8
DRAFT
100
AcDbLine
 62
7
  6
CONTINUOUS
 10
8.3497918137
 20
8.2638802826
 11
7.8970688593
 21
8.5252768425
  0
LINE
  5
56A
100
AcDbEntity
  8
DRAFT
100
AcDbLine
 62
7
  6
CONTINUOUS
 10
3.4735105126
 20
11.0793839917
 11
3.0207875582
 21
11.3407805516
  0
LINE
  5
56B
100
AcDbEntity
  8
ASSI
100
AcDbLine
 62
7
  6
CONTINUOUS
 10
-11.2867529777
 20
19.8630016378
 11
-6.9026909343
 21
17.3316991591
  0
LINE
  5
56C
100
AcDbEntity
  8
0
100
AcDbLine
 62
7
  6
CONTINUOUS
 10
9.0086915575
 20
8.1855133341
 11
4.6246295142
 21
10.7168158127
  0
LINE
  5
56D
100
AcDbEntity
  8
RACCORDO
100
AcDbLine
 62
250
  6
CONTINUOUS
 10
17.2663274371
 20
3.5416265236
 11
16.6897044996
 21
3.8745613809
  0
LINE
  5
56E
100
AcDbEntity
  8
ASSI
100
AcDbLine
 62
250
  6
CONTINUOUS
 10
17.2663274371
 20
3.5416265236
 11
16.6897044996
 21
3.8745613809
  0
LINE
  5
56F
100
AcDbEntity
  8
RACCORDO
100
AcDbLine
 62
7
  6
CONTINUOUS
 10
20.9265714729
 20
1.6102051696
 11
20.33329451
 21
1.9527558524
  0
LINE
  5
570
100
AcDbEntity
  8
ASSI
100
AcDbLine
 62
7
  6
CONTINUOUS
 10
20.9265714729
 20
1.6102051696
 11
20.33329451
 21
1.9527558524
  0
LINE
  5
571
100
AcDbEntity
  8
ASSI
100
AcDbLine
 62
7
  6
CONTINUOUS
 10
-10.825347498
 20
20.045281987
 11
-6.5869924482
 21
17.5981089003
  0
LINE
  5
572
100
AcDbEntity
  8
0
100
AcDbLine
 62
7
  6
CONTINUOUS
 10
5.0405239066
 20
10.8849581962
 11
9.2999039462
 21
8.4256455439
  0
LINE
  5
573
100
AcDbEntity
  8
DRAFT
100
AcDbLine
 62
7
  6
CONTINUOUS
 10
13.6849406727
 20
5.8939302242
 11
9.2999039462
 21
8.4256455439
  0
LINE
  5
574
100
AcDbEntity
  8
RACCORDO
100
AcDbLine
 62
250
  6
CONTINUOUS
 10
-2.7140445305
 20
15.976085699
 11
-5.5405773366
 21
17.6080903165
  0
LINE
  5
575
100
AcDbEntity
  8
ASSI
100
AcDbLine
 62
250
  6
CONTINUOUS
 10
-2.7140445305
 20
15.976085699
 11
-5.5405773366
 21
17.6080903165
  0
LINE
  5
576
100
AcDbEntity
  8
RACCORDO
100
AcDbLine
 62
250
  6
CONTINUOUS
 10
-9.8324091794
 20
20.0861402333
 11
-12.1225041275
 21
21.4084123547
  0
LINE
  5
577
100
AcDbEntity
  8
ASSI
100
AcDbLine
 62
250
  6
CONTINUOUS
 10
-9.8324091794
 20
20.0861402333
 11
-12.1225041275
 21
21.4084123547
  0
LINE
  5
578
100
AcDbEntity
  8
RACCORDO
100
AcDbLine
 62
7
  6
CONTINUOUS
 10
-5.3424657521
 20
17.6557644024
 11
-0.4755651782
 21
14.8457860467
  0
LINE
  5
579
100
AcDbEntity
  8
ASSI
100
AcDbLine
 62
7
  6
CONTINUOUS
 10
-5.3424657521
 20
17.6557644024
 11
-0.4755651782
 21
14.8457860467
  0
LINE
  5
57A
100
AcDbEntity
  8
RACCORDO
100
AcDbLine
 62
7
  6
CONTINUOUS
 10
-5.7284038524
 20
17.8785472167
 11
-5.3424657521
 21
17.6557644024
  0
LINE
  5
57B
100
AcDbEntity
  8
RACCORDO
100
AcDbLine
 62
250
  6
CONTINUOUS
 10
-11.8197415037
 20
21.6275792932
 11
0.1163995195
 21
14.7358010613
  0
LINE
  5
57C
100
AcDbEntity
  8
ASSI
100
AcDbLine
 62
250
  6
CONTINUOUS
 10
-11.8197415037
 20
21.6275792932
 11
0.1163995195
 21
14.7358010613
  0
LINE
  5
57D
100
AcDbEntity
  8
RACCORDO
100
AcDbLine
 62
7
  6
CONTINUOUS
 10
16.2499232282
 20
3.4330615365
 11
16.2497679904
 21
3.4331511964
  0
LINE
  5
57E
100
AcDbEntity
  8
ASSI
100
AcDbLine
 62
7
  6
CONTINUOUS
 10
16.2499232282
 20
3.4330615365
 11
16.2497679904
 21
3.4331511964
  0
LINE
  5
57F
100
AcDbEntity
  8
DRAFT
100
AcDbLine
 62
7
  6
CONTINUOUS
 10
5.0405602126
 20
10.8850210758
 11
3.0953479183
 21
12.0082012547
  0
LINE
  5
580
100
AcDbEntity
  8
RACCORDO
100
AcDbLine
 62
7
  6
CONTINUOUS
 10
-11.922901204
 20
21.4553090049
 11
-9.5704642887
 21
20.0969577682
  0
LINE
  5
581
100
AcDbEntity
  8
ASSI
100
AcDbLine
 62
7
  6
CONTINUOUS
 10
-11.922901204
 20
21.4553090049
 11
-5.3424657521
 21
17.6557644024
  0
LINE
  5
582
100
AcDbEntity
  8
RACCORDO
100
AcDbLine
 62
250
  6
CONTINUOUS
 10
-2.2678472867
 20
15.563050895
 11
-2.4788714682
 21
15.6874110597
  0
LINE
  5
583
100
AcDbEntity
  8
ASSI
100
AcDbLine
 62
250
  6
CONTINUOUS
 10
-2.2678472867
 20
15.563050895
 11
-2.4788714682
 21
15.6874110597
  0
LINE
  5
584
100
AcDbEntity
  8
RACCORDO
100
AcDbLine
 62
250
  6
CONTINUOUS
 10
-0.4669352686
 20
14.501394433
 11
-2.2678472867
 21
15.563050895
  0
LINE
  5
585
100
AcDbEntity
  8
ASSI
100
AcDbLine
 62
250
  6
CONTINUOUS
 10
-0.4669352686
 20
14.501394433
 11
-2.2678472867
 21
15.563050895
  0
LWPOLYLINE
  5
586
100
AcDbEntity
  8
ASSI
100
AcDbPolyline
 62
7
  6
CONTINUOUS
 90
10
 70
0
 10
-7.6424723597
 20
17.4567661769
 10
-7.5961134921
 20
17.4282056411
 10
-7.550336112
 20
17.3965913703
 10
-7.5051402197
 20
17.3619233645
 10
-7.460339569
 20
17.3240291556
 10
-7.416120406
 20
17.2830812118
 10
-7.3730414687
 20
17.239596937
 10
-7.3312890033
 20
17.1937487994
 10
-7.2906767636
 20
17.1453643309
 10
-7.2512047496
 20
17.0944435315
  0
LWPOLYLINE
  5
587
100
AcDbEntity
  8
RACCORDO
100
AcDbPolyline
 62
250
  6
CONTINUOUS
 90
10
 70
0
 10
-2.7110628076
 20
15.9218726604
 10
-2.6827820494
 20
15.9044368381
 10
-2.6547195178
 20
15.8845032888
 10
-2.6270529964
 20
15.8621982749
 10
-2.5999577688
 20
15.837663074
 10
-2.5736054843
 20
15.8110531031
 10
-2.5481630557
 20
15.7825369432
 10
-2.5237916402
 20
15.7522952423
 10
-2.5006456333
 20
15.7205195614
 10
-2.4788716572
 20
15.6874111861
  0
LWPOLYLINE
  5
588
100
AcDbEntity
  8
ASSI
100
AcDbPolyline
 62
250
  6
CONTINUOUS
 90
10
 70
0
 10
-2.7110628076
 20
15.9218726604
 10
-2.6827820494
 20
15.9044368381
 10
-2.6547195178
 20
15.8845032888
 10
-2.6270529964
 20
15.8621982749
 10
-2.5999577688
 20
15.837663074
 10
-2.5736054843
 20
15.8110531031
 10
-2.5481630557
 20
15.7825369432
 10
-2.5237916402
 20
15.7522952423
 10
-2.5006456333
 20
15.7205195614
 10
-2.4788716572
 20
15.6874111861
  0
LWPOLYLINE
  5
589
100
AcDbEntity
  8
DRAFT
100
AcDbPolyline
 62
7
  6
CONTINUOUS
 90
7
 70
0
 10
2.1578300573
 20
11.1624414557
 10
2.1782057338
 20
11.1495485544
 10
2.1984712685
 20
11.1380545777
 10
2.2186266612
 20
11.1279595256
 10
2.2387373888
 20
11.1192394256
 10
2.2587379745
 20
11.1119182503
 10
2.2731635345
 20
11.1076329714
  0
LWPOLYLINE
  5
58A
100
AcDbEntity
  8
RACCORDO
100
AcDbPolyline
 62
7
  6
CONTINUOUS
 90
6
 70
0
 10
16.2498336533
 20
3.4331156019
 10
16.2101102731
 20
3.4587943899
 10
16.1731329851
 20
3.488178317
 10
16.1383590234
 20
3.5215774091
 10
16.1056744112
 20
3.5591530985
 10
16.0913118252
 20
3.5779034924
  0
LWPOLYLINE
  5
58B
100
AcDbEntity
  8
ASSI
100
AcDbPolyline
 62
7
  6
CONTINUOUS
 90
6
 70
0
 10
16.2498336533
 20
3.4331156019
 10
16.2101102731
 20
3.4587943899
 10
16.1731329851
 20
3.488178317
 10
16.1383590234
 20
3.5215774091
 10
16.1056744112
 20
3.5591530985
 10
16.0913118252
 20
3.5779034924
  0
LINE
  5
58C
100
AcDbEntity
  8
RACCORDO
100
AcDbLine
 62
250
  6
CONTINUOUS
 10
-11.9333482208
 20
21.4627065548
 11
-11.9191379766
 21
21.4531615589
  0
LINE
  5
58D
100
AcDbEntity
  8
ASSI
100
AcDbLine
 62
250
  6
CONTINUOUS
 10
-11.9333482208
 20
21.4627065548
 11
-11.9191379766
 21
21.4531615589
  0
LWPOLYLINE
  5
58E
100
AcDbEntity
  8
RACCORDO
100
AcDbPolyline
 62
7
  6
CONTINUOUS
 90
7
 70
0
 10
15.4577524893
 20
4.0420020136
 10
15.555787761
 20
3.9710482276
 10
15.6524079194
 20
3.9017144002
 10
15.7476129646
 20
3.8340005314
 10
15.8414028965
 20
3.7679066213
 10
15.9337777151
 20
3.7034326699
 10
16.0247374205
 20
3.640578677
  0
LWPOLYLINE
  5
58F
100
AcDbEntity
  8
ASSI
100
AcDbPolyline
 62
7
  6
CONTINUOUS
 90
7
 70
0
 10
15.4577524893
 20
4.0420020136
 10
15.555787761
 20
3.9710482276
 10
15.6524079194
 20
3.9017144002
 10
15.7476129646
 20
3.8340005314
 10
15.8414028965
 20
3.7679066213
 10
15.9337777151
 20
3.7034326699
 10
16.0247374205
 20
3.640578677
  0
LINE
  5
590
100
AcDbEntity
  8
SMUSSO
100
AcDbLine
 62
250
  6
CONTINUOUS
 10
6.7206684519
 20
10.1119869319
 11
6.0305646633
 21
10.7090861188
  0
LINE
  5
591
100
AcDbEntity
  8
ASSI
100
AcDbLine
 62
250
  6
CONTINUOUS
 10
6.7206684519
 20
10.1119869319
 11
6.0305646633
 21
10.7090861188
  0
LINE
  5
592
100
AcDbEntity
  8
SMUSSO
100
AcDbLine
 62
7
  6
CONTINUOUS
 10
20.4314890233
 20
-1.1999012995
 11
21.1387035085
 21
-1.8270604435
  0
LINE
  5
593
100
AcDbEntity
  8
ASSI
100
AcDbLine
 62
7
  6
CONTINUOUS
 10
20.4314890233
 20
-1.1999012995
 11
21.1387035085
 21
-1.8270604435
  0
LWPOLYLINE
  5
594
100
AcDbEntity
  8
RACCORDO
100
AcDbPolyline
 62
7
  6
CONTINUOUS
 90
5
 70
0
 10
16.0912397174
 20
-0.5044689813
 10
16.0792602791
 20
-0.4895038691
 10
16.0632847429
 20
-0.4728441076
 10
16.0451104567
 20
-0.4569337202
 10
16.0247374205
 20
-0.4417727069
  0
LWPOLYLINE
  5
595
100
AcDbEntity
  8
ASSI
100
AcDbPolyline
 62
7
  6
CONTINUOUS
 90
5
 70
0
 10
16.0912397174
 20
-0.5044689813
 10
16.0792602791
 20
-0.4895038691
 10
16.0632847429
 20
-0.4728441076
 10
16.0451104567
 20
-0.4569337202
 10
16.0247374205
 20
-0.4417727069
  0
LINE
  5
596
100
AcDbEntity
  8
DRAFT
100
AcDbLine
 62
7
  6
CONTINUOUS
 10
8.4606365197
 20
8.1172358728
 11
8.3497918137
 21
8.2638802826
  0
LINE
  5
597
100
AcDbEntity
  8
DRAFT
100
AcDbLine
 62
7
  6
CONTINUOUS
 10
8.5709969847
 20
7.9700161902
 11
8.4606365197
 21
8.1172358728
  0
LINE
  5
598
100
AcDbEntity
  8
DRAFT
100
AcDbLine
 62
7
  6
CONTINUOUS
 10
8.6808713543
 20
7.8222237239
 11
8.5709969847
 21
7.9700161902
  0
LWPOLYLINE
  5
599
100
AcDbEntity
  8
DRAFT
100
AcDbPolyline
 62
7
  6
CONTINUOUS
 90
3
 70
0
 10
8.8447580361
 20
7.5994791004
 10
8.7902522113
 20
7.6738684299
 10
8.6808713543
 20
7.8222237239
  0
LWPOLYLINE
  5
59A
100
AcDbEntity
  8
DRAFT
100
AcDbPolyline
 62
7
  6
CONTINUOUS
 90
10
 70
0
 10
10.5084008998
 20
5.1681500675
 10
10.3686748205
 20
5.3852840249
 10
10.2278806027
 20
5.6015058188
 10
10.0860182465
 20
5.8168154492
 10
9.9430753033
 20
6.0312313719
 10
9.7990642216
 20
6.2447351311
 10
9.6540223473
 20
6.4572713597
 10
9.507962129
 20
6.6688216022
 10
9.3608711181
 20
6.8794043141
 10
9.2127493146
 20
7.0890194954
  0
LWPOLYLINE
  5
59B
100
AcDbEntity
  8
RACCORDO
100
AcDbPolyline
 62
7
  6
CONTINUOUS
 90
10
 70
0
 10
13.1809895298
 20
0.4169007441
 10
12.948895477
 20
0.8841496735
 10
12.7115566061
 20
1.3491364047
 10
12.4689729169
 20
1.8118609379
 10
12.2210498049
 20
2.2724974188
 10
11.9678818747
 20
2.7308717016
 10
11.7097529404
 20
3.1864613487
 10
11.4467576067
 20
3.6390922142
 10
11.178801269
 20
4.0889384439
 10
10.9058839271
 20
4.5360000378
  0
LWPOLYLINE
  5
59C
100
AcDbEntity
  8
RACCORDO
100
AcDbPolyline
 62
7
  6
CONTINUOUS
 90
13
 70
0
 10
13.1809895298
 20
0.4169007441
 10
13.2280583025
 20
0.3167242047
 10
13.2713476399
 20
0.2161914807
 10
13.3108575421
 20
0.1153025722
 10
13.3467108464
 20
0.0136927437
 10
13.3787847155
 20
-0.0882732692
 10
13.4067106369
 20
-0.1895012605
 10
13.4304256867
 20
-0.2899784628
 10
13.4499927889
 20
-0.3897176435
 10
13.4652322031
 20
-0.4876628987
 10
13.476084016
 20
-0.5834622604
 10
13.482608141
 20
-0.6774676966
 10
13.484804578
 20
-0.7696792072
  0
LWPOLYLINE
  5
59D
100
AcDbEntity
  8
DRAFT
100
AcDbPolyline
 62
7
  6
CONTINUOUS
 90
25
 70
0
 10
8.8447580361
 20
7.5994791004
 10
8.850787556
 20
7.573470479
 10
8.857867747
 20
7.5474325954
 10
8.865998609
 20
7.5213654498
 10
8.8752140713
 20
7.4951831037
 10
8.8854802047
 20
7.4689714954
 10
8.8966952211
 20
7.44298844
 10
8.9088684498
 20
7.4172362842
 10
8.9219905616
 20
7.3917126812
 10
8.9359317802
 20
7.3666684059
 10
8.9507001117
 20
7.3421083223
 10
8.9662875502
 20
7.3180275665
 10
8.9825403008
 20
7.2946623215
 10
8.9994645499
 20
7.2720200089
 10
9.0170541111
 20
7.2500932071
 10
9.0351366312
 20
7.229095834
 10
9.0537168534
 20
7.2090369154
 10
9.0727900344
 20
7.1899074256
 10
9.0921695909
 20
7.1718942048
 10
9.1118584518
 20
7.1550080784
 10
9.1318536883
 20
7.1392382211
 10
9.1519599298
 20
7.1247389977
 10
9.172112053
 20
7.1115618631
 10
9.1923751812
 20
7.0996553623
 10
9.2127493146
 20
7.0890194954
  0
LINE
  5
59E
100
AcDbEntity
  8
DRAFT
100
AcDbLine
 62
7
  6
CONTINUOUS
 10
13.2801235171
 20
27.0316232201
 11
13.2801235171
 21
27.086632386
  0
LINE
  5
59F
100
AcDbEntity
  8
ASSI
100
AcDbLine
 62
7
  6
CONTINUOUS
 10
13.2801235171
 20
27.0316232201
 11
13.2801235171
 21
27.086632386
  0
LINE
  5
5A0
100
AcDbEntity
  8
IMPORT_IGES
100
AcDbLine
 62
7
  6
CONTINUOUS
 10
13.4206186172
 20
15.8598668459
 11
13.4206186172
 21
15.2204736172
  0
LINE
  5
5A1
100
AcDbEntity
  8
IMPORT_IGES
100
AcDbLine
 62
7
  6
CONTINUOUS
 10
13.4206186172
 20
11.7775154619
 11
13.4206186172
 21
11.1381222332
  0
LINE
  5
5A2
100
AcDbEntity
  8
IMPORT_IGES
100
AcDbLine
 62
7
  6
CONTINUOUS
 10
13.4206186172
 20
7.6951640779
 11
13.4206186172
 21
7.0557708492
  0
LINE
  5
5A3
100
AcDbEntity
  8
IMPORT_IGES
100
AcDbLine
 62
7
  6
CONTINUOUS
 10
13.4206186172
 20
3.612812694
 11
13.4206186172
 21
2.9734194653
  0
LINE
  5
5A4
100
AcDbEntity
  8
RACCORDO
100
AcDbLine
 62
7
  6
CONTINUOUS
 10
13.484804578
 20
-0.7696792072
 11
13.484804578
 21
-26.8924349298
  0
LINE
  5
5A5
100
AcDbEntity
  8
DRAFT
100
AcDbLine
 62
7
  6
CONTINUOUS
 10
13.6849406727
 20
-27.2547630136
 11
13.6849406727
 21
-27.0668237559
  0
LINE
  5
5A6
100
AcDbEntity
  8
DRAFT
100
AcDbLine
 62
7
  6
CONTINUOUS
 10
13.6849406727
 20
5.7059909664
 11
13.6849406727
 21
5.8939302242
  0
LINE
  5
5A7
100
AcDbEntity
  8
SMUSSO
100
AcDbLine
 62
7
  6
CONTINUOUS
 10
14.3315274478
 20
28.1174355151
 11
14.3315274478
 21
27.7043887136
  0
LINE
  5
5A8
100
AcDbEntity
  8
ASSI
100
AcDbLine
 62
7
  6
CONTINUOUS
 10
14.3315274478
 20
28.1174355151
 11
14.3315274478
 21
27.7043887136
  0
LINE
  5
5A9
100
AcDbEntity
  8
DRAFT
100
AcDbLine
 62
7
  6
CONTINUOUS
 10
16.3206826762
 20
-3.4353399702
 11
16.3206826762
 21
-3.4903491361
  0
LINE
  5
5AA
100
AcDbEntity
  8
ASSI
100
AcDbLine
 62
7
  6
CONTINUOUS
 10
16.3206826762
 20
-3.4353399702
 11
16.3206826762
 21
-3.4903491361
  0
LINE
  5
5AB
100
AcDbEntity
  8
DRAFT
100
AcDbLine
 62
7
  6
CONTINUOUS
 10
16.3206826762
 20
25.2760424687
 11
16.3206826762
 21
25.3310516347
  0
LINE
  5
5AC
100
AcDbEntity
  8
ASSI
100
AcDbLine
 62
7
  6
CONTINUOUS
 10
16.3206826762
 20
25.2760424687
 11
16.3206826762
 21
25.3310516347
  0
LWPOLYLINE
  5
5AD
100
AcDbEntity
  8
RACCORDO
100
AcDbPolyline
 62
7
  6
CONTINUOUS
 90
13
 70
0
 10
13.484804578
 20
-26.8924349298
 10
13.482608141
 20
-26.9821100501
 10
13.476084016
 20
-27.0685815903
 10
13.4652322031
 20
-27.1518495505
 10
13.4499927889
 20
-27.232196712
 10
13.4304256867
 20
-27.3093402936
 10
13.4067106369
 20
-27.3824319508
 10
13.3787847155
 20
-27.4514117881
 10
13.3467108464
 20
-27.516339701
 10
13.3108575421
 20
-27.5765470323
 10
13.2713476399
 20
-27.6318108962
 10
13.2280583025
 20
-27.6823541784
 10
13.1809895298
 20
-27.7281768789
  0
LINE
  5
5AE
100
AcDbEntity
  8
RACCORDO
100
AcDbLine
 62
250
  6
CONTINUOUS
 10
16.028110103
 20
1.1162276014
 11
16.0776323265
 21
1.2461161838
  0
LINE
  5
5AF
100
AcDbEntity
  8
ASSI
100
AcDbLine
 62
250
  6
CONTINUOUS
 10
16.028110103
 20
1.1162276014
 11
16.0776323265
 21
1.2461161838
  0
LWPOLYLINE
  5
5B0
100
AcDbEntity
  8
RACCORDO
100
AcDbPolyline
 62
7
  6
CONTINUOUS
 90
18
 70
0
 10
16.1216128432
 20
1.2074143689
 10
16.1649376362
 20
1.3148850425
 10
16.2208768879
 20
1.4412111262
 10
16.2815993521
 20
1.5660367239
 10
16.3468187505
 20
1.6888236505
 10
16.416266734
 20
1.8090931471
 10
16.4896140214
 20
1.9263269709
 10
16.5665041979
 20
2.0400157856
 10
16.6466064119
 20
2.1497124744
 10
16.729533139
 20
2.2549471236
 10
16.8148800463
 20
2.3552878779
 10
16.9022627847
 20
2.4503477678
 10
16.9912561516
 20
2.539732449
 10
17.0814318021
 20
2.6231032822
 10
17.1723608862
 20
2.7001476129
 10
17.2635717764
 20
2.7705551022
 10
17.3545415652
 20
2.8340618369
 10
17.420335556
 20
2.8758385251
  0
LWPOLYLINE
  5
5B1
100
AcDbEntity
  8
ASSI
100
AcDbPolyline
 62
7
  6
CONTINUOUS
 90
18
 70
0
 10
16.1216128432
 20
1.2074143689
 10
16.1649376362
 20
1.3148850425
 10
16.2208768879
 20
1.4412111262
 10
16.2815993521
 20
1.5660367239
 10
16.3468187505
 20
1.6888236505
 10
16.416266734
 20
1.8090931471
 10
16.4896140214
 20
1.9263269709
 10
16.5665041979
 20
2.0400157856
 10
16.6466064119
 20
2.1497124744
 10
16.729533139
 20
2.2549471236
 10
16.8148800463
 20
2.3552878779
 10
16.9022627847
 20
2.4503477678
 10
16.9912561516
 20
2.539732449
 10
17.0814318021
 20
2.6231032822
 10
17.1723608862
 20
2.7001476129
 10
17.2635717764
 20
2.7705551022
 10
17.3545415652
 20
2.8340618369
 10
17.420335556
 20
2.8758385251
  0
LWPOLYLINE
  5
5B2
100
AcDbEntity
  8
RACCORDO
100
AcDbPolyline
 62
250
  6
CONTINUOUS
 90
16
 70
0
 10
16.0776323265
 20
1.2461161838
 10
16.1316589299
 20
1.3744846582
 10
16.1901899132
 20
1.5013330247
 10
16.2534654913
 20
1.6270985262
 10
16.3212454492
 20
1.7513439197
 10
16.3928091425
 20
1.8727574765
 10
16.4681441957
 20
1.9912473147
 10
16.5472629843
 20
2.1069053161
 10
16.6294819899
 20
2.2186953978
 10
16.7147606124
 20
2.326559951
 10
16.8031394518
 20
2.4305565845
 10
16.8940567906
 20
2.5298220426
 10
16.987750118
 20
2.6245306868
 10
17.0839819447
 20
2.7145081555
 10
17.1814780848
 20
2.7983681081
 10
17.2798138097
 20
2.8756484309
  0
LWPOLYLINE
  5
5B3
100
AcDbEntity
  8
ASSI
100
AcDbPolyline
 62
250
  6
CONTINUOUS
 90
16
 70
0
 10
16.0776323265
 20
1.2461161838
 10
16.1316589299
 20
1.3744846582
 10
16.1901899132
 20
1.5013330247
 10
16.2534654913
 20
1.6270985262
 10
16.3212454492
 20
1.7513439197
 10
16.3928091425
 20
1.8727574765
 10
16.4681441957
 20
1.9912473147
 10
16.5472629843
 20
2.1069053161
 10
16.6294819899
 20
2.2186953978
 10
16.7147606124
 20
2.326559951
 10
16.8031394518
 20
2.4305565845
 10
16.8940567906
 20
2.5298220426
 10
16.987750118
 20
2.6245306868
 10
17.0839819447
 20
2.7145081555
 10
17.1814780848
 20
2.7983681081
 10
17.2798138097
 20
2.8756484309
  0
LWPOLYLINE
  5
5B4
100
AcDbEntity
  8
RACCORDO
100
AcDbPolyline
 62
7
  6
CONTINUOUS
 90
8
 70
0
 10
16.1216612022
 20
1.2074192202
 10
16.1155498448
 20
1.1948609146
 10
16.1071145809
 20
1.1823046986
 10
16.0961882144
 20
1.1693178056
 10
16.0828200088
 20
1.1561881412
 10
16.0670263853
 20
1.1430116737
 10
16.0487909225
 20
1.1296924347
 10
16.0281136207
 20
1.1162304243
  0
LWPOLYLINE
  5
5B5
100
AcDbEntity
  8
ASSI
100
AcDbPolyline
 62
7
  6
CONTINUOUS
 90
8
 70
0
 10
16.1216612022
 20
1.2074192202
 10
16.1155498448
 20
1.1948609146
 10
16.1071145809
 20
1.1823046986
 10
16.0961882144
 20
1.1693178056
 10
16.0828200088
 20
1.1561881412
 10
16.0670263853
 20
1.1430116737
 10
16.0487909225
 20
1.1296924347
 10
16.0281136207
 20
1.1162304243
  0
LINE
  5
5B6
100
AcDbEntity
  8
RACCORDO
100
AcDbLine
 62
7
  6
CONTINUOUS
 10
19.6858259168
 20
-5.2881480016
 11
19.6840407136
 21
-5.2892441269
  0
LINE
  5
5B7
100
AcDbEntity
  8
ASSI
100
AcDbLine
 62
7
  6
CONTINUOUS
 10
19.6858259168
 20
-5.2881480016
 11
19.6840407136
 21
-5.2892441269
  0
LINE
  5
5B8
100
AcDbEntity
  8
RACCORDO
100
AcDbLine
 62
250
  6
CONTINUOUS
 10
19.6840402343
 20
-5.2892433105
 11
19.6858242433
 21
-5.2881490401
  0
LINE
  5
5B9
100
AcDbEntity
  8
ASSI
100
AcDbLine
 62
250
  6
CONTINUOUS
 10
19.6840402343
 20
-5.2892433105
 11
19.6858242433
 21
-5.2881490401
  0
LINE
  5
5BA
100
AcDbEntity
  8
RACCORDO
100
AcDbLine
 62
7
  6
CONTINUOUS
 10
13.484804578
 20
-9.0471956775
 11
19.6840402343
 21
-5.2892433105
  0
LINE
  5
5BB
100
AcDbEntity
  8
ASSI
100
AcDbLine
 62
7
  6
CONTINUOUS
 10
13.484804578
 20
-9.0471956775
 11
19.6840402343
 21
-5.2892433105
  0
LINE
  5
5BC
100
AcDbEntity
  8
0
100
AcDbLine
 62
250
  6
CONTINUOUS
 10
21.1387035085
 20
-3.6090752148
 11
13.484804578
 21
-8.2405739923
  0
LINE
  5
5BD
100
AcDbEntity
  8
ASSI
100
AcDbLine
 62
250
  6
CONTINUOUS
 10
21.1387035085
 20
-3.6090752148
 11
13.484804578
 21
-8.2405739923
  0
LINE
  5
5BE
100
AcDbEntity
  8
0
100
AcDbLine
 62
250
  6
CONTINUOUS
 10
20.8262093997
 20
-4.4523826163
 11
13.484804578
 21
-8.8942123065
  0
LINE
  5
5BF
100
AcDbEntity
  8
ASSI
100
AcDbLine
 62
250
  6
CONTINUOUS
 10
20.8262093997
 20
-4.4523826163
 11
13.484804578
 21
-8.8942123065
  0
LWPOLYLINE
  5
5C0
100
AcDbEntity
  8
DRAFT
100
AcDbPolyline
 62
7
  6
CONTINUOUS
 90
25
 70
0
 10
-9.3823288645
 20
14.5688973576
 10
-9.4123158543
 20
14.5691079228
 10
-9.4429945358
 20
14.5731574572
 10
-9.4743649087
 20
14.5810459605
 10
-9.5067101752
 20
14.5929079996
 10
-9.5397471332
 20
14.6086090078
 10
-9.5726261766
 20
14.627745285
 10
-9.6053434322
 20
14.6504061177
 10
-9.6379027732
 20
14.6765022195
 10
-9.6694662132
 20
14.7053620309
 10
-9.7000077701
 20
14.7370571897
 10
-9.7295534259
 20
14.7715160582
 10
-9.7573431409
 20
14.8078521636
 10
-9.7833313668
 20
14.846114202
 10
-9.8075636519
 20
14.8862534774
 10
-9.8294166015
 20
14.9272374292
 10
-9.8488320366
 20
14.9691237213
 10
-9.8658681363
 20
15.0118546898
 10
-9.8800760422
 20
15.0542247822
 10
-9.8913684791
 20
15.0960848417
 10
-9.8998327223
 20
15.1375840251
 10
-9.9052817397
 20
15.1779642508
 10
-9.9076531873
 20
15.2169728249
 10
-9.9070094091
 20
15.2548624412
 10
-9.903350405
 20
15.2916330998
  0
LWPOLYLINE
  5
5C1
100
AcDbEntity
  8
ASSI
100
AcDbPolyline
 62
7
  6
CONTINUOUS
 90
25
 70
0
 10
-9.3823288645
 20
14.5688973576
 10
-9.4123158543
 20
14.5691079228
 10
-9.4429945358
 20
14.5731574572
 10
-9.4743649087
 20
14.5810459605
 10
-9.5067101752
 20
14.5929079996
 10
-9.5397471332
 20
14.6086090078
 10
-9.5726261766
 20
14.627745285
 10
-9.6053434322
 20
14.6504061177
 10
-9.6379027732
 20
14.6765022195
 10
-9.6694662132
 20
14.7053620309
 10
-9.7000077701
 20
14.7370571897
 10
-9.7295534259
 20
14.7715160582
 10
-9.7573431409
 20
14.8078521636
 10
-9.7833313668
 20
14.846114202
 10
-9.8075636519
 20
14.8862534774
 10
-9.8294166015
 20
14.9272374292
 10
-9.8488320366
 20
14.9691237213
 10
-9.8658681363
 20
15.0118546898
 10
-9.8800760422
 20
15.0542247822
 10
-9.8913684791
 20
15.0960848417
 10
-9.8998327223
 20
15.1375840251
 10
-9.9052817397
 20
15.1779642508
 10
-9.9076531873
 20
15.2169728249
 10
-9.9070094091
 20
15.2548624412
 10
-9.903350405
 20
15.2916330998
  0
LWPOLYLINE
  5
5C2
100
AcDbEntity
  8
IMPORT_IGES
100
AcDbPolyline
 62
7
  6
CONTINUOUS
 90
8
 70
0
 10
14.8879882037
 20
12.6699077247
 10
14.959951428
 20
12.6671108408
 10
15.0572833056
 20
12.674013487
 10
15.1581487955
 20
12.6912168023
 10
15.2607612996
 20
12.7184225702
 10
15.3645252854
 20
12.755531385
 10
15.4700362855
 20
12.8026426523
 10
15.5772942998
 20
12.859756372
  0
LWPOLYLINE
  5
5C3
100
AcDbEntity
  8
RACCORDO
100
AcDbPolyline
 62
250
  6
CONTINUOUS
 90
32
 70
0
 10
-11.9596284103
 20
21.4687301273
 10
-11.9754332451
 20
21.4746964764
 10
-11.9911381386
 20
21.4801314093
 10
-12.0067188425
 20
21.4850502028
 10
-12.0222545661
 20
21.4894970775
 10
-12.0377394124
 20
21.4934844855
 10
-12.0531500605
 20
21.4970202568
 10
-12.0685443246
 20
21.500128853
 10
-12.0839173203
 20
21.5028170788
 10
-12.0992502499
 20
21.5050892961
 10
-12.1145824517
 20
21.506957294
 10
-12.129903696
 20
21.5084237128
 10
-12.1452031799
 20
21.5094913313
 10
-12.1605204811
 20
21.5101648455
 10
-12.1758438083
 20
21.5104438347
 10
-12.1911649308
 20
21.510328184
 10
-12.2065289958
 20
21.509815375
 10
-12.2219305965
 20
21.5089011623
 10
-12.2373543993
 20
21.5075819455
 10
-12.2528300557
 20
21.5058491534
 10
-12.2683098879
 20
21.5037020953
 10
-12.28381891
 20
21.5011310521
 10
-12.2994930751
 20
21.4980993462
 10
-12.3153165479
 20
21.4945899904
 10
-12.3312743135
 20
21.4905855411
 10
-12.3474969616
 20
21.4860247058
 10
-12.3639751143
 20
21.4808742399
 10
-12.3806718148
 20
21.4751083154
 10
-12.3976668788
 20
21.4686548481
 10
-12.4149627738
 20
21.4614599036
 10
-12.4324881699
 20
21.4534986993
 10
-12.4502042961
 20
21.4447336947
  0
LWPOLYLINE
  5
5C4
100
AcDbEntity
  8
ASSI
100
AcDbPolyline
 62
250
  6
CONTINUOUS
 90
32
 70
0
 10
-11.9596284103
 20
21.4687301273
 10
-11.9754332451
 20
21.4746964764
 10
-11.9911381386
 20
21.4801314093
 10
-12.0067188425
 20
21.4850502028
 10
-12.0222545661
 20
21.4894970775
 10
-12.0377394124
 20
21.4934844855
 10
-12.0531500605
 20
21.4970202568
 10
-12.0685443246
 20
21.500128853
 10
-12.0839173203
 20
21.5028170788
 10
-12.0992502499
 20
21.5050892961
 10
-12.1145824517
 20
21.506957294
 10
-12.129903696
 20
21.5084237128
 10
-12.1452031799
 20
21.5094913313
 10
-12.1605204811
 20
21.5101648455
 10
-12.1758438083
 20
21.5104438347
 10
-12.1911649308
 20
21.510328184
 10
-12.2065289958
 20
21.509815375
 10
-12.2219305965
 20
21.5089011623
 10
-12.2373543993
 20
21.5075819455
 10
-12.2528300557
 20
21.5058491534
 10
-12.2683098879
 20
21.5037020953
 10
-12.28381891
 20
21.5011310521
 10
-12.2994930751
 20
21.4980993462
 10
-12.3153165479
 20
21.4945899904
 10
-12.3312743135
 20
21.4905855411
 10
-12.3474969616
 20
21.4860247058
 10
-12.3639751143
 20
21.4808742399
 10
-12.3806718148
 20
21.4751083154
 10
-12.3976668788
 20
21.4686548481
 10
-12.4149627738
 20
21.4614599036
 10
-12.4324881699
 20
21.4534986993
 10
-12.4502042961
 20
21.4447336947
  0
LINE
  5
5C5
100
AcDbEntity
  8
RACCORDO
100
AcDbLine
 62
250
  6
CONTINUOUS
 10
-11.9437390703
 20
21.4622138326
 11
-11.9596284103
 21
21.4687301273
  0
LINE
  5
5C6
100
AcDbEntity
  8
ASSI
100
AcDbLine
 62
250
  6
CONTINUOUS
 10
-11.9437390703
 20
21.4622138326
 11
-11.9596284103
 21
21.4687301273
  0
LINE
  5
5C7
100
AcDbEntity
  8
RACCORDO
100
AcDbLine
 62
250
  6
CONTINUOUS
 10
-11.9276807953
 20
21.4550821923
 11
-11.9437390703
 21
21.4622138326
  0
LINE
  5
5C8
100
AcDbEntity
  8
ASSI
100
AcDbLine
 62
250
  6
CONTINUOUS
 10
-11.9276807953
 20
21.4550821923
 11
-11.9437390703
 21
21.4622138326
  0
LINE
  5
5C9
100
AcDbEntity
  8
RACCORDO
100
AcDbLine
 62
250
  6
CONTINUOUS
 10
-11.9008899869
 20
21.440413458
 11
-11.878674485
 21
21.4296894068
  0
LINE
  5
5CA
100
AcDbEntity
  8
ASSI
100
AcDbLine
 62
250
  6
CONTINUOUS
 10
-11.9008899869
 20
21.440413458
 11
-11.878674485
 21
21.4296894068
  0
LWPOLYLINE
  5
5CB
100
AcDbEntity
  8
RACCORDO
100
AcDbPolyline
 62
7
  6
CONTINUOUS
 90
12
 70
0
 10
-11.9229336366
 20
21.4553277298
 10
-11.9740123724
 20
21.4816412341
 10
-12.0274454476
 20
21.5029728171
 10
-12.0827496956
 20
21.5191062174
 10
-12.1394154079
 20
21.5298710084
 10
-12.1969286789
 20
21.5351482799
 10
-12.254776726
 20
21.5348664231
 10
-12.3124297928
 20
21.5289997367
 10
-12.3693391373
 20
21.5175755827
 10
-12.4249608028
 20
21.5006763583
 10
-12.4787633602
 20
21.4784373091
 10
-12.5117714634
 20
21.46161338
  0
LWPOLYLINE
  5
5CC
100
AcDbEntity
  8
ASSI
100
AcDbPolyline
 62
7
  6
CONTINUOUS
 90
12
 70
0
 10
-11.9229336366
 20
21.4553277298
 10
-11.9740123724
 20
21.4816412341
 10
-12.0274454476
 20
21.5029728171
 10
-12.0827496956
 20
21.5191062174
 10
-12.1394154079
 20
21.5298710084
 10
-12.1969286789
 20
21.5351482799
 10
-12.254776726
 20
21.5348664231
 10
-12.3124297928
 20
21.5289997367
 10
-12.3693391373
 20
21.5175755827
 10
-12.4249608028
 20
21.5006763583
 10
-12.4787633602
 20
21.4784373091
 10
-12.5117714634
 20
21.46161338
  0
LWPOLYLINE
  5
5CD
100
AcDbEntity
  8
RACCORDO
100
AcDbPolyline
 62
250
  6
CONTINUOUS
 90
3
 70
0
 10
-11.8942743629
 20
21.4383923887
 10
-11.911446063
 20
21.4472927792
 10
-11.9276807953
 20
21.4550821923
  0
LWPOLYLINE
  5
5CE
100
AcDbEntity
  8
ASSI
100
AcDbPolyline
 62
250
  6
CONTINUOUS
 90
3
 70
0
 10
-11.8942743629
 20
21.4383923887
 10
-11.911446063
 20
21.4472927792
 10
-11.9276807953
 20
21.4550821923
  0
LWPOLYLINE
  5
5CF
100
AcDbEntity
  8
IMPORT_IGES
100
AcDbPolyline
 62
7
  6
CONTINUOUS
 90
12
 70
0
 10
16.5773670881
 20
8.0600029384
 10
16.5431940755
 20
8.0784467956
 10
16.4636445329
 20
8.1121859492
 10
16.3786243783
 20
8.1359914901
 10
16.2883975811
 20
8.1499362009
 10
16.1946371716
 20
8.1535802425
 10
16.097305294
 20
8.1466775963
 10
15.9964398041
 20
8.129474281
 10
15.8938272999
 20
8.1022685131
 10
15.7900633141
 20
8.0651596983
 10
15.6845523141
 20
8.018048431
 10
15.638915905
 20
7.9937475422
  0
LWPOLYLINE
  5
5D0
100
AcDbEntity
  8
RACCORDO
100
AcDbPolyline
 62
250
  6
CONTINUOUS
 90
10
 70
0
 10
-11.8197415046
 20
21.6275792927
 10
-11.857214552
 20
21.647911177
 10
-11.8944152999
 20
21.6641108644
 10
-11.9310436916
 20
21.6760476642
 10
-11.9668042609
 20
21.683625271
 10
-12.0014085751
 20
21.6867825369
 10
-12.034577564
 20
21.6854939471
 10
-12.0660436896
 20
21.679769841
 10
-12.0955531027
 20
21.6696563481
 10
-12.1123953114
 20
21.6614174711
  0
LWPOLYLINE
  5
5D1
100
AcDbEntity
  8
ASSI
100
AcDbPolyline
 62
250
  6
CONTINUOUS
 90
10
 70
0
 10
-11.8197415046
 20
21.6275792927
 10
-11.857214552
 20
21.647911177
 10
-11.8944152999
 20
21.6641108644
 10
-11.9310436916
 20
21.6760476642
 10
-11.9668042609
 20
21.683625271
 10
-12.0014085751
 20
21.6867825369
 10
-12.034577564
 20
21.6854939471
 10
-12.0660436896
 20
21.679769841
 10
-12.0955531027
 20
21.6696563481
 10
-12.1123953114
 20
21.6614174711
  0
LINE
  5
5D2
100
AcDbEntity
  8
DRAFT
100
AcDbLine
 62
7
  6
CONTINUOUS
 10
19.3310594855
 20
5.3996492409
 11
19.2726343383
 21
5.4333831887
  0
LINE
  5
5D3
100
AcDbEntity
  8
ASSI
100
AcDbLine
 62
7
  6
CONTINUOUS
 10
19.3310594855
 20
5.3996492409
 11
19.2726343383
 21
5.4333831887
  0
LINE
  5
5D4
100
AcDbEntity
  8
SMUSSO
100
AcDbLine
 62
7
  6
CONTINUOUS
 10
15.3645439127
 20
8.1781708616
 11
15.4577524893
 21
8.1243533976
  0
LINE
  5
5D5
100
AcDbEntity
  8
ASSI
100
AcDbLine
 62
7
  6
CONTINUOUS
 10
15.3645439127
 20
8.1781708616
 11
15.4577524893
 21
8.1243533976
  0
LINE
  5
5D6
100
AcDbEntity
  8
RACCORDO
100
AcDbLine
 62
250
  6
CONTINUOUS
 10
17.2663274371
 20
7.6239779075
 11
16.6897044996
 21
7.9569127649
  0
LINE
  5
5D7
100
AcDbEntity
  8
ASSI
100
AcDbLine
 62
250
  6
CONTINUOUS
 10
17.2663274371
 20
7.6239779075
 11
16.6897044996
 21
7.9569127649
  0
LINE
  5
5D8
100
AcDbEntity
  8
RACCORDO
100
AcDbLine
 62
7
  6
CONTINUOUS
 10
20.9265714729
 20
5.6925565536
 11
20.33329451
 21
6.0351072364
  0
LINE
  5
5D9
100
AcDbEntity
  8
ASSI
100
AcDbLine
 62
7
  6
CONTINUOUS
 10
20.9265714729
 20
5.6925565536
 11
20.33329451
 21
6.0351072364
  0
LINE
  5
5DA
100
AcDbEntity
  8
RACCORDO
100
AcDbLine
 62
7
  6
CONTINUOUS
 10
16.2499232282
 20
7.5154129204
 11
16.2497679904
 21
7.5155025804
  0
LINE
  5
5DB
100
AcDbEntity
  8
ASSI
100
AcDbLine
 62
7
  6
CONTINUOUS
 10
16.2499232282
 20
7.5154129204
 11
16.2497679904
 21
7.5155025804
  0
LWPOLYLINE
  5
5DC
100
AcDbEntity
  8
RACCORDO
100
AcDbPolyline
 62
7
  6
CONTINUOUS
 90
6
 70
0
 10
16.2498336533
 20
7.5154669859
 10
16.2101102731
 20
7.5411457738
 10
16.1731329851
 20
7.570529701
 10
16.1383590234
 20
7.6039287931
 10
16.1056744112
 20
7.6415044824
 10
16.0913118252
 20
7.6602548764
  0
LWPOLYLINE
  5
5DD
100
AcDbEntity
  8
ASSI
100
AcDbPolyline
 62
7
  6
CONTINUOUS
 90
6
 70
0
 10
16.2498336533
 20
7.5154669859
 10
16.2101102731
 20
7.5411457738
 10
16.1731329851
 20
7.570529701
 10
16.1383590234
 20
7.6039287931
 10
16.1056744112
 20
7.6415044824
 10
16.0913118252
 20
7.6602548764
  0
LWPOLYLINE
  5
5DE
100
AcDbEntity
  8
RACCORDO
100
AcDbPolyline
 62
7
  6
CONTINUOUS
 90
7
 70
0
 10
15.4577524893
 20
8.1243533976
 10
15.555787761
 20
8.0533996116
 10
15.6524079194
 20
7.9840657842
 10
15.7476129646
 20
7.9163519154
 10
15.8414028965
 20
7.8502580053
 10
15.9337777151
 20
7.7857840538
 10
16.0247374205
 20
7.722930061
  0
LWPOLYLINE
  5
5DF
100
AcDbEntity
  8
ASSI
100
AcDbPolyline
 62
7
  6
CONTINUOUS
 90
7
 70
0
 10
15.4577524893
 20
8.1243533976
 10
15.555787761
 20
8.0533996116
 10
15.6524079194
 20
7.9840657842
 10
15.7476129646
 20
7.9163519154
 10
15.8414028965
 20
7.8502580053
 10
15.9337777151
 20
7.7857840538
 10
16.0247374205
 20
7.722930061
  0
LWPOLYLINE
  5
5E0
100
AcDbEntity
  8
IMPORT_IGES
100
AcDbPolyline
 62
7
  6
CONTINUOUS
 90
3
 70
0
 10
16.6857921105
 20
3.899692801
 10
16.6175369755
 20
3.952495428
 10
16.5773670881
 20
3.9776515544
  0
LINE
  5
5E1
100
AcDbEntity
  8
IMPORT_IGES
100
AcDbLine
 62
7
  6
CONTINUOUS
 10
16.703160854
 20
3.8823309246
 11
16.6857921105
 21
3.899692801
  0
LINE
  5
5E2
100
AcDbEntity
  8
IMPORT_IGES
100
AcDbLine
 62
7
  6
CONTINUOUS
 10
16.38521796
 20
4.0517939112
 11
16.4428111627
 21
3.9812012363
  0
LWPOLYLINE
  5
5E3
100
AcDbEntity
  8
RACCORDO
100
AcDbPolyline
 62
7
  6
CONTINUOUS
 90
5
 70
0
 10
16.0912397174
 20
3.5778824026
 10
16.0792602791
 20
3.5928475148
 10
16.0632847429
 20
3.6095072764
 10
16.0451104567
 20
3.6254176638
 10
16.0247374205
 20
3.640578677
  0
LWPOLYLINE
  5
5E4
100
AcDbEntity
  8
ASSI
100
AcDbPolyline
 62
7
  6
CONTINUOUS
 90
5
 70
0
 10
16.0912397174
 20
3.5778824026
 10
16.0792602791
 20
3.5928475148
 10
16.0632847429
 20
3.6095072764
 10
16.0451104567
 20
3.6254176638
 10
16.0247374205
 20
3.640578677
  0
LINE
  5
5E5
100
AcDbEntity
  8
IMPORT_IGES
100
AcDbLine
 62
7
  6
CONTINUOUS
 10
16.4428111627
 20
3.9812012363
 11
16.4936727197
 21
3.9015744182
  0
LWPOLYLINE
  5
5E6
100
AcDbEntity
  8
IMPORT_IGES
100
AcDbPolyline
 62
250
  6
CONTINUOUS
 90
4
 70
0
 10
10.3645249587
 20
14.001279643
 10
10.3654461828
 20
13.9995348913
 10
10.3705855082
 20
13.9876867621
 10
10.3746767928
 20
13.9757453036
  0
LWPOLYLINE
  5
5E7
100
AcDbEntity
  8
IMPORT_IGES
100
AcDbPolyline
 62
250
  6
CONTINUOUS
 90
5
 70
0
 10
9.8048919554
 20
13.6609344657
 10
9.808656468
 20
13.6502366813
 10
9.8117961036
 20
13.6381059435
 10
9.8137221842
 20
13.6262094865
 10
9.8143740331
 20
13.6147724032
  0
LWPOLYLINE
  5
5E8
100
AcDbEntity
  8
IMPORT_IGES
100
AcDbPolyline
 62
250
  6
CONTINUOUS
 90
3
 70
0
 10
10.3746767928
 20
13.9757453036
 10
10.3776500361
 20
13.9639151142
 10
10.3794545267
 20
13.9523983604
  0
LWPOLYLINE
  5
5E9
100
AcDbEntity
  8
RACCORDO
100
AcDbPolyline
 62
250
  6
CONTINUOUS
 90
16
 70
0
 10
17.4802781995
 20
-0.9070515747
 10
17.4792862243
 20
-0.8806782334
 10
17.4759410831
 20
-0.8532758045
 10
17.4702794563
 20
-0.8251444852
 10
17.4623634011
 20
-0.796592456
 10
17.4522796659
 20
-0.7679324851
 10
17.440138734
 20
-0.7394785021
 10
17.4260736278
 20
-0.7115421967
 10
17.4102384407
 20
-0.6844295732
 10
17.3928066331
 20
-0.6584375823
 10
17.3739691687
 20
-0.6338509286
 10
17.3539324013
 20
-0.6109389131
 10
17.3329157891
 20
-0.589952463
 10
17.3111495367
 20
-0.5711214391
 10
17.288872079
 20
-0.5546521092
 10
17.2663274383
 20
-0.5407248597
  0
LWPOLYLINE
  5
5EA
100
AcDbEntity
  8
ASSI
100
AcDbPolyline
 62
250
  6
CONTINUOUS
 90
16
 70
0
 10
17.4802781995
 20
-0.9070515747
 10
17.4792862243
 20
-0.8806782334
 10
17.4759410831
 20
-0.8532758045
 10
17.4702794563
 20
-0.8251444852
 10
17.4623634011
 20
-0.796592456
 10
17.4522796659
 20
-0.7679324851
 10
17.440138734
 20
-0.7394785021
 10
17.4260736278
 20
-0.7115421967
 10
17.4102384407
 20
-0.6844295732
 10
17.3928066331
 20
-0.6584375823
 10
17.3739691687
 20
-0.6338509286
 10
17.3539324013
 20
-0.6109389131
 10
17.3329157891
 20
-0.589952463
 10
17.3111495367
 20
-0.5711214391
 10
17.288872079
 20
-0.5546521092
 10
17.2663274383
 20
-0.5407248597
  0
LWPOLYLINE
  5
5EB
100
AcDbEntity
  8
RACCORDO
100
AcDbPolyline
 62
250
  6
CONTINUOUS
 90
16
 70
0
 10
17.4802781995
 20
3.1752998092
 10
17.4792862243
 20
3.2016731506
 10
17.4759410831
 20
3.2290755794
 10
17.4702794563
 20
3.2572068988
 10
17.4623634011
 20
3.285758928
 10
17.4522796659
 20
3.3144188988
 10
17.440138734
 20
3.3428728819
 10
17.4260736278
 20
3.3708091873
 10
17.4102384407
 20
3.3979218108
 10
17.3928066331
 20
3.4239138017
 10
17.3739691687
 20
3.4485004554
 10
17.3539324013
 20
3.4714124708
 10
17.3329157891
 20
3.4923989209
 10
17.3111495367
 20
3.5112299449
 10
17.288872079
 20
3.5276992748
 10
17.2663274383
 20
3.5416265243
  0
LWPOLYLINE
  5
5EC
100
AcDbEntity
  8
ASSI
100
AcDbPolyline
 62
250
  6
CONTINUOUS
 90
16
 70
0
 10
17.4802781995
 20
3.1752998092
 10
17.4792862243
 20
3.2016731506
 10
17.4759410831
 20
3.2290755794
 10
17.4702794563
 20
3.2572068988
 10
17.4623634011
 20
3.285758928
 10
17.4522796659
 20
3.3144188988
 10
17.440138734
 20
3.3428728819
 10
17.4260736278
 20
3.3708091873
 10
17.4102384407
 20
3.3979218108
 10
17.3928066331
 20
3.4239138017
 10
17.3739691687
 20
3.4485004554
 10
17.3539324013
 20
3.4714124708
 10
17.3329157891
 20
3.4923989209
 10
17.3111495367
 20
3.5112299449
 10
17.288872079
 20
3.5276992748
 10
17.2663274383
 20
3.5416265243
  0
LWPOLYLINE
  5
5ED
100
AcDbEntity
  8
RACCORDO
100
AcDbPolyline
 62
250
  6
CONTINUOUS
 90
16
 70
0
 10
17.4802781995
 20
7.2576511932
 10
17.4792862243
 20
7.2840245346
 10
17.4759410831
 20
7.3114269634
 10
17.4702794563
 20
7.3395582828
 10
17.4623634011
 20
7.3681103119
 10
17.4522796659
 20
7.3967702828
 10
17.440138734
 20
7.4252242658
 10
17.4260736278
 20
7.4531605712
 10
17.4102384407
 20
7.4802731947
 10
17.3928066331
 20
7.5062651857
 10
17.3739691687
 20
7.5308518393
 10
17.3539324013
 20
7.5537638548
 10
17.3329157891
 20
7.5747503049
 10
17.3111495367
 20
7.5935813289
 10
17.288872079
 20
7.6100506588
 10
17.2663274383
 20
7.6239779082
  0
LWPOLYLINE
  5
5EE
100
AcDbEntity
  8
ASSI
100
AcDbPolyline
 62
250
  6
CONTINUOUS
 90
16
 70
0
 10
17.4802781995
 20
7.2576511932
 10
17.4792862243
 20
7.2840245346
 10
17.4759410831
 20
7.3114269634
 10
17.4702794563
 20
7.3395582828
 10
17.4623634011
 20
7.3681103119
 10
17.4522796659
 20
7.3967702828
 10
17.440138734
 20
7.4252242658
 10
17.4260736278
 20
7.4531605712
 10
17.4102384407
 20
7.4802731947
 10
17.3928066331
 20
7.5062651857
 10
17.3739691687
 20
7.5308518393
 10
17.3539324013
 20
7.5537638548
 10
17.3329157891
 20
7.5747503049
 10
17.3111495367
 20
7.5935813289
 10
17.288872079
 20
7.6100506588
 10
17.2663274383
 20
7.6239779082
  0
LWPOLYLINE
  5
5EF
100
AcDbEntity
  8
RACCORDO
100
AcDbPolyline
 62
250
  6
CONTINUOUS
 90
16
 70
0
 10
17.4802781995
 20
11.3400025772
 10
17.4792862243
 20
11.3663759185
 10
17.4759410831
 20
11.3937783474
 10
17.4702794563
 20
11.4219096667
 10
17.4623634011
 20
11.4504616959
 10
17.4522796659
 20
11.4791216667
 10
17.440138734
 20
11.5075756498
 10
17.4260736278
 20
11.5355119552
 10
17.4102384407
 20
11.5626245787
 10
17.3928066331
 20
11.5886165696
 10
17.3739691687
 20
11.6132032233
 10
17.3539324013
 20
11.6361152388
 10
17.3329157891
 20
11.6571016889
 10
17.3111495367
 20
11.6759327128
 10
17.288872079
 20
11.6924020427
 10
17.2663274383
 20
11.7063292922
  0
LWPOLYLINE
  5
5F0
100
AcDbEntity
  8
ASSI
100
AcDbPolyline
 62
250
  6
CONTINUOUS
 90
16
 70
0
 10
17.4802781995
 20
11.3400025772
 10
17.4792862243
 20
11.3663759185
 10
17.4759410831
 20
11.3937783474
 10
17.4702794563
 20
11.4219096667
 10
17.4623634011
 20
11.4504616959
 10
17.4522796659
 20
11.4791216667
 10
17.440138734
 20
11.5075756498
 10
17.4260736278
 20
11.5355119552
 10
17.4102384407
 20
11.5626245787
 10
17.3928066331
 20
11.5886165696
 10
17.3739691687
 20
11.6132032233
 10
17.3539324013
 20
11.6361152388
 10
17.3329157891
 20
11.6571016889
 10
17.3111495367
 20
11.6759327128
 10
17.288872079
 20
11.6924020427
 10
17.2663274383
 20
11.7063292922
  0
LWPOLYLINE
  5
5F1
100
AcDbEntity
  8
RACCORDO
100
AcDbPolyline
 62
250
  6
CONTINUOUS
 90
16
 70
0
 10
17.4802781995
 20
15.4223539611
 10
17.4792862243
 20
15.4487273025
 10
17.4759410831
 20
15.4761297313
 10
17.4702794563
 20
15.5042610507
 10
17.4623634011
 20
15.5328130799
 10
17.4522796659
 20
15.5614730507
 10
17.440138734
 20
15.5899270338
 10
17.4260736278
 20
15.6178633392
 10
17.4102384407
 20
15.6449759626
 10
17.3928066331
 20
15.6709679536
 10
17.3739691687
 20
15.6955546073
 10
17.3539324013
 20
15.7184666227
 10
17.3329157891
 20
15.7394530728
 10
17.3111495367
 20
15.7582840968
 10
17.288872079
 20
15.7747534267
 10
17.2663274383
 20
15.7886806762
  0
LWPOLYLINE
  5
5F2
100
AcDbEntity
  8
ASSI
100
AcDbPolyline
 62
250
  6
CONTINUOUS
 90
16
 70
0
 10
17.4802781995
 20
15.4223539611
 10
17.4792862243
 20
15.4487273025
 10
17.4759410831
 20
15.4761297313
 10
17.4702794563
 20
15.5042610507
 10
17.4623634011
 20
15.5328130799
 10
17.4522796659
 20
15.5614730507
 10
17.440138734
 20
15.5899270338
 10
17.4260736278
 20
15.6178633392
 10
17.4102384407
 20
15.6449759626
 10
17.3928066331
 20
15.6709679536
 10
17.3739691687
 20
15.6955546073
 10
17.3539324013
 20
15.7184666227
 10
17.3329157891
 20
15.7394530728
 10
17.3111495367
 20
15.7582840968
 10
17.288872079
 20
15.7747534267
 10
17.2663274383
 20
15.7886806762
  0
LINE
  5
5F3
100
AcDbEntity
  8
SMUSSO
100
AcDbLine
 62
7
  6
CONTINUOUS
 10
17.3720866069
 20
26.3618547638
 11
17.3720866069
 21
25.9488079623
  0
LINE
  5
5F4
100
AcDbEntity
  8
ASSI
100
AcDbLine
 62
7
  6
CONTINUOUS
 10
17.3720866069
 20
26.3618547638
 11
17.3720866069
 21
25.9488079623
  0
LINE
  5
5F5
100
AcDbEntity
  8
IMPORT_IGES
100
AcDbLine
 62
7
  6
CONTINUOUS
 10
17.7339699824
 20
19.3959919236
 11
17.7339699824
 21
16.7245623608
  0
LINE
  5
5F6
100
AcDbEntity
  8
IMPORT_IGES
100
AcDbLine
 62
7
  6
CONTINUOUS
 10
17.7339699824
 20
15.3136405396
 11
17.7339699824
 21
12.6422109769
  0
LINE
  5
5F7
100
AcDbEntity
  8
IMPORT_IGES
100
AcDbLine
 62
7
  6
CONTINUOUS
 10
17.7339699824
 20
11.2312891556
 11
17.7339699824
 21
8.5598595929
  0
LINE
  5
5F8
100
AcDbEntity
  8
IMPORT_IGES
100
AcDbLine
 62
7
  6
CONTINUOUS
 10
17.7339699824
 20
7.1489377717
 11
17.7339699824
 21
4.4775082089
  0
LINE
  5
5F9
100
AcDbEntity
  8
IMPORT_IGES
100
AcDbLine
 62
7
  6
CONTINUOUS
 10
17.7339699824
 20
3.0665863877
 11
17.7339699824
 21
1.4497045914
  0
LINE
  5
5FA
100
AcDbEntity
  8
ASSI
100
AcDbLine
 62
7
  6
CONTINUOUS
 10
19.2726343383
 20
1.3510318047
 11
19.2726343383
 21
4.0023371658
  0
LINE
  5
5FB
100
AcDbEntity
  8
ASSI
100
AcDbLine
 62
7
  6
CONTINUOUS
 10
19.2726343383
 20
5.4333831887
 11
19.2726343383
 21
8.0846885498
  0
LINE
  5
5FC
100
AcDbEntity
  8
ASSI
100
AcDbLine
 62
7
  6
CONTINUOUS
 10
19.2726343383
 20
9.5157345726
 11
19.2726343383
 21
12.1670399337
  0
LINE
  5
5FD
100
AcDbEntity
  8
ASSI
100
AcDbLine
 62
7
  6
CONTINUOUS
 10
19.2726343383
 20
13.5980859566
 11
19.2726343383
 21
16.2493913177
  0
LINE
  5
5FE
100
AcDbEntity
  8
ASSI
100
AcDbLine
 62
7
  6
CONTINUOUS
 10
19.2726343383
 20
17.6804373405
 11
19.2726343383
 21
20.3317427017
  0
LINE
  5
5FF
100
AcDbEntity
  8
DRAFT
100
AcDbLine
 62
7
  6
CONTINUOUS
 10
19.3079896773
 20
-0.9714390606
 11
19.3079896773
 21
-1.7653427956
  0
LINE
  5
600
100
AcDbEntity
  8
ASSI
100
AcDbLine
 62
7
  6
CONTINUOUS
 10
19.3079896773
 20
-0.9714390606
 11
19.3079896773
 21
-1.7653427956
  0
LWPOLYLINE
  5
601
100
AcDbEntity
  8
RACCORDO
100
AcDbPolyline
 62
250
  6
CONTINUOUS
 90
9
 70
0
 10
17.4802781995
 20
19.341262064
 10
17.4792862898
 20
19.3164348577
 10
17.4759413325
 20
19.2931976734
 10
17.4702799684
 20
19.2718050533
 10
17.4623642127
 20
19.252491334
 10
17.4522807752
 20
19.2354680796
 10
17.4401401108
 20
19.2209217644
 10
17.4260752093
 20
19.2090117299
 10
17.4203635775
 20
19.2052610985
  0
LWPOLYLINE
  5
602
100
AcDbEntity
  8
ASSI
100
AcDbPolyline
 62
250
  6
CONTINUOUS
 90
9
 70
0
 10
17.4802781995
 20
19.341262064
 10
17.4792862898
 20
19.3164348577
 10
17.4759413325
 20
19.2931976734
 10
17.4702799684
 20
19.2718050533
 10
17.4623642127
 20
19.252491334
 10
17.4522807752
 20
19.2354680796
 10
17.4401401108
 20
19.2209217644
 10
17.4260752093
 20
19.2090117299
 10
17.4203635775
 20
19.2052610985
  0
LWPOLYLINE
  5
603
100
AcDbEntity
  8
RACCORDO
100
AcDbPolyline
 62
250
  6
CONTINUOUS
 90
9
 70
0
 10
17.4802781995
 20
15.2589106801
 10
17.4792862898
 20
15.2340834737
 10
17.4759413325
 20
15.2108462894
 10
17.4702799684
 20
15.1894536693
 10
17.4623642127
 20
15.17013995
 10
17.4522807752
 20
15.1531166956
 10
17.4401401108
 20
15.1385703804
 10
17.4260752093
 20
15.126660346
 10
17.4203635775
 20
15.1229097146
  0
LWPOLYLINE
  5
604
100
AcDbEntity
  8
ASSI
100
AcDbPolyline
 62
250
  6
CONTINUOUS
 90
9
 70
0
 10
17.4802781995
 20
15.2589106801
 10
17.4792862898
 20
15.2340834737
 10
17.4759413325
 20
15.2108462894
 10
17.4702799684
 20
15.1894536693
 10
17.4623642127
 20
15.17013995
 10
17.4522807752
 20
15.1531166956
 10
17.4401401108
 20
15.1385703804
 10
17.4260752093
 20
15.126660346
 10
17.4203635775
 20
15.1229097146
  0
LWPOLYLINE
  5
605
100
AcDbEntity
  8
RACCORDO
100
AcDbPolyline
 62
250
  6
CONTINUOUS
 90
9
 70
0
 10
17.4802781995
 20
11.1765592961
 10
17.4792862898
 20
11.1517320898
 10
17.4759413325
 20
11.1284949055
 10
17.4702799684
 20
11.1071022853
 10
17.4623642127
 20
11.087788566
 10
17.4522807752
 20
11.0707653117
 10
17.4401401108
 20
11.0562189965
 10
17.4260752093
 20
11.044308962
 10
17.4203635768
 20
11.0405583318
  0
LWPOLYLINE
  5
606
100
AcDbEntity
  8
ASSI
100
AcDbPolyline
 62
250
  6
CONTINUOUS
 90
9
 70
0
 10
17.4802781995
 20
11.1765592961
 10
17.4792862898
 20
11.1517320898
 10
17.4759413325
 20
11.1284949055
 10
17.4702799684
 20
11.1071022853
 10
17.4623642127
 20
11.087788566
 10
17.4522807752
 20
11.0707653117
 10
17.4401401108
 20
11.0562189965
 10
17.4260752093
 20
11.044308962
 10
17.4203635768
 20
11.0405583318
  0
LWPOLYLINE
  5
607
100
AcDbEntity
  8
RACCORDO
100
AcDbPolyline
 62
250
  6
CONTINUOUS
 90
9
 70
0
 10
17.4802781995
 20
7.0942079121
 10
17.4792862898
 20
7.0693807058
 10
17.4759413325
 20
7.0461435215
 10
17.4702799684
 20
7.0247509014
 10
17.4623642127
 20
7.0054371821
 10
17.4522807752
 20
6.9884139277
 10
17.4401401108
 20
6.9738676125
 10
17.4260752093
 20
6.961957578
 10
17.4203635775
 20
6.9582069467
  0
LWPOLYLINE
  5
608
100
AcDbEntity
  8
ASSI
100
AcDbPolyline
 62
250
  6
CONTINUOUS
 90
9
 70
0
 10
17.4802781995
 20
7.0942079121
 10
17.4792862898
 20
7.0693807058
 10
17.4759413325
 20
7.0461435215
 10
17.4702799684
 20
7.0247509014
 10
17.4623642127
 20
7.0054371821
 10
17.4522807752
 20
6.9884139277
 10
17.4401401108
 20
6.9738676125
 10
17.4260752093
 20
6.961957578
 10
17.4203635775
 20
6.9582069467
  0
LWPOLYLINE
  5
609
100
AcDbEntity
  8
RACCORDO
100
AcDbPolyline
 62
250
  6
CONTINUOUS
 90
9
 70
0
 10
17.4802781995
 20
3.0118565282
 10
17.4792862898
 20
2.9870293218
 10
17.4759413325
 20
2.9637921375
 10
17.4702799684
 20
2.9423995174
 10
17.4623642127
 20
2.9230857981
 10
17.4522807752
 20
2.9060625437
 10
17.4401401108
 20
2.8915162285
 10
17.4260752093
 20
2.8796061941
 10
17.4203635775
 20
2.8758555627
  0
LWPOLYLINE
  5
60A
100
AcDbEntity
  8
ASSI
100
AcDbPolyline
 62
250
  6
CONTINUOUS
 90
9
 70
0
 10
17.4802781995
 20
3.0118565282
 10
17.4792862898
 20
2.9870293218
 10
17.4759413325
 20
2.9637921375
 10
17.4702799684
 20
2.9423995174
 10
17.4623642127
 20
2.9230857981
 10
17.4522807752
 20
2.9060625437
 10
17.4401401108
 20
2.8915162285
 10
17.4260752093
 20
2.8796061941
 10
17.4203635775
 20
2.8758555627
  0
LWPOLYLINE
  5
60B
100
AcDbEntity
  8
0
100
AcDbPolyline
 62
7
  6
CONTINUOUS
 90
25
 70
0
 10
20.8262094027
 20
-4.4523826139
 10
20.8508149286
 20
-4.4302515177
 10
20.8744917327
 20
-4.4068483033
 10
20.897239815
 20
-4.3821729708
 10
20.9190777042
 20
-4.3562023447
 10
20.9399868715
 20
-4.3289596003
 10
20.9599117306
 20
-4.3005142643
 10
20.9788480799
 20
-4.2708650999
 10
20.996800121
 20
-4.2400133437
 10
21.0137248723
 20
-4.2080322321
 10
21.0296199704
 20
-4.1749188584
 10
21.0444877787
 20
-4.1406761291
 10
21.0582924058
 20
-4.1053860003
 10
21.071031348
 20
-4.0690454192
 10
21.0827071089
 20
-4.0316574384
 10
21.0932913084
 20
-3.9933131726
 10
21.1027810753
 20
-3.9540109007
 10
21.1111792809
 20
-3.9137523437
 10
21.1184661585
 20
-3.8726337793
 10
21.1246390639
 20
-3.8306495065
 10
21.1297006414
 20
-3.7878052263
 10
21.1336390579
 20
-3.744214319
 10
21.136450369
 20
-3.699914578
 10
21.1381385192
 20
-3.6548682099
 10
21.1387035085
 20
-3.6090752148
  0
LWPOLYLINE
  5
60C
100
AcDbEntity
  8
ASSI
100
AcDbPolyline
 62
7
  6
CONTINUOUS
 90
25
 70
0
 10
20.8262094027
 20
-4.4523826139
 10
20.8508149286
 20
-4.4302515177
 10
20.8744917327
 20
-4.4068483033
 10
20.897239815
 20
-4.3821729708
 10
20.9190777042
 20
-4.3562023447
 10
20.9399868715
 20
-4.3289596003
 10
20.9599117306
 20
-4.3005142643
 10
20.9788480799
 20
-4.2708650999
 10
20.996800121
 20
-4.2400133437
 10
21.0137248723
 20
-4.2080322321
 10
21.0296199704
 20
-4.1749188584
 10
21.0444877787
 20
-4.1406761291
 10
21.0582924058
 20
-4.1053860003
 10
21.071031348
 20
-4.0690454192
 10
21.0827071089
 20
-4.0316574384
 10
21.0932913084
 20
-3.9933131726
 10
21.1027810753
 20
-3.9540109007
 10
21.1111792809
 20
-3.9137523437
 10
21.1184661585
 20
-3.8726337793
 10
21.1246390639
 20
-3.8306495065
 10
21.1297006414
 20
-3.7878052263
 10
21.1336390579
 20
-3.744214319
 10
21.136450369
 20
-3.699914578
 10
21.1381385192
 20
-3.6548682099
 10
21.1387035085
 20
-3.6090752148
  0
LWPOLYLINE
  5
60D
100
AcDbEntity
  8
RACCORDO
100
AcDbPolyline
 62
7
  6
CONTINUOUS
 90
7
 70
0
 10
20.8262094027
 20
-4.4523826139
 10
20.6438236352
 20
-4.6047236621
 10
20.458366609
 20
-4.7518459836
 10
20.2698383241
 20
-4.8937495782
 10
20.0782387804
 20
-5.0304344461
 10
19.8835679779
 20
-5.1619005873
 10
19.6858259168
 20
-5.2881480016
  0
LWPOLYLINE
  5
60E
100
AcDbEntity
  8
ASSI
100
AcDbPolyline
 62
7
  6
CONTINUOUS
 90
7
 70
0
 10
20.8262094027
 20
-4.4523826139
 10
20.6438236352
 20
-4.6047236621
 10
20.458366609
 20
-4.7518459836
 10
20.2698383241
 20
-4.8937495782
 10
20.0782387804
 20
-5.0304344461
 10
19.8835679779
 20
-5.1619005873
 10
19.6858259168
 20
-5.2881480016
  0
LWPOLYLINE
  5
60F
100
AcDbEntity
  8
RACCORDO
100
AcDbPolyline
 62
250
  6
CONTINUOUS
 90
13
 70
0
 10
8.2302122034
 20
-16.9926912049
 10
8.2106155311
 20
-17.0048439967
 10
8.1890217292
 20
-17.0154032295
 10
8.1657921806
 20
-17.0241921893
 10
8.1413156431
 20
-17.0310637886
 10
8.1160017435
 20
-17.0359030278
 10
8.0902741223
 20
-17.0386289199
 10
8.0645633438
 20
-17.0391958457
 10
8.0392996905
 20
-17.0375943174
 10
8.0149059619
 20
-17.0338511375
 10
7.991790399
 20
-17.0280289498
 10
7.9703398521
 20
-17.0202251915
 10
7.9509133065
 20
-17.0105704624
  0
LWPOLYLINE
  5
610
100
AcDbEntity
  8
RACCORDO
100
AcDbPolyline
 62
250
  6
CONTINUOUS
 90
13
 70
0
 10
8.2302122034
 20
-16.8334868904
 10
8.2106155312
 20
-16.8405007986
 10
8.1890217294
 20
-16.8460071494
 10
8.1657921809
 20
-16.8499137915
 10
8.1413156434
 20
-16.8521553452
 10
8.1160017439
 20
-16.852694297
 10
8.0902741227
 20
-16.8515216274
 10
8.0645633442
 20
-16.8486569614
 10
8.0392996908
 20
-16.8441482407
 10
8.0149059621
 20
-16.838070921
 10
7.9917903992
 20
-16.8305267091
 10
7.9703398522
 20
-16.8216418611
 10
7.9509133065
 20
-16.8115650693
  0
LWPOLYLINE
  5
611
100
AcDbEntity
  8
0
100
AcDbPolyline
 62
7
  6
CONTINUOUS
 90
7
 70
0
 10
-16.4368368577
 20
16.1339868763
 10
-16.4290200628
 20
16.135430283
 10
-16.4183628572
 20
16.1353965441
 10
-16.4042715029
 20
16.1331569574
 10
-16.3872771416
 20
16.1280685763
 10
-16.3684752279
 20
16.1200381495
 10
-16.3535268067
 20
16.1120830067
  0
LWPOLYLINE
  5
612
100
AcDbEntity
  8
IMPORT_IGES
100
AcDbPolyline
 62
7
  6
CONTINUOUS
 90
8
 70
0
 10
14.8879882037
 20
16.7522591087
 10
14.959951428
 20
16.7494622247
 10
15.0572833056
 20
16.7563648709
 10
15.1581487955
 20
16.7735681863
 10
15.2607612996
 20
16.8007739542
 10
15.3645252854
 20
16.837882769
 10
15.4700362855
 20
16.8849940362
 10
15.5772942998
 20
16.942107756
  0
LWPOLYLINE
  5
613
100
AcDbEntity
  8
IMPORT_IGES
100
AcDbPolyline
 62
7
  6
CONTINUOUS
 90
12
 70
0
 10
16.5773670881
 20
12.1423543224
 10
16.5431940755
 20
12.1607981796
 10
16.4636445329
 20
12.1945373331
 10
16.3786243783
 20
12.218342874
 10
16.2883975811
 20
12.2322875849
 10
16.1946371716
 20
12.2359316265
 10
16.097305294
 20
12.2290289803
 10
15.9964398041
 20
12.2118256649
 10
15.8938272999
 20
12.1846198971
 10
15.7900633141
 20
12.1475110823
 10
15.6845523141
 20
12.100399815
 10
15.638915905
 20
12.0760989262
  0
LINE
  5
614
100
AcDbEntity
  8
DRAFT
100
AcDbLine
 62
7
  6
CONTINUOUS
 10
19.3310594855
 20
9.4820006248
 11
19.2726343383
 21
9.5157345726
  0
LINE
  5
615
100
AcDbEntity
  8
ASSI
100
AcDbLine
 62
7
  6
CONTINUOUS
 10
19.3310594855
 20
9.4820006248
 11
19.2726343383
 21
9.5157345726
  0
LINE
  5
616
100
AcDbEntity
  8
SMUSSO
100
AcDbLine
 62
7
  6
CONTINUOUS
 10
15.3645439127
 20
12.2605222455
 11
15.4577524893
 21
12.2067047816
  0
LINE
  5
617
100
AcDbEntity
  8
ASSI
100
AcDbLine
 62
7
  6
CONTINUOUS
 10
15.3645439127
 20
12.2605222455
 11
15.4577524893
 21
12.2067047816
  0
LINE
  5
618
100
AcDbEntity
  8
RACCORDO
100
AcDbLine
 62
250
  6
CONTINUOUS
 10
17.2663274371
 20
11.7063292915
 11
16.6897044996
 21
12.0392641489
  0
LINE
  5
619
100
AcDbEntity
  8
ASSI
100
AcDbLine
 62
250
  6
CONTINUOUS
 10
17.2663274371
 20
11.7063292915
 11
16.6897044996
 21
12.0392641489
  0
LINE
  5
61A
100
AcDbEntity
  8
RACCORDO
100
AcDbLine
 62
7
  6
CONTINUOUS
 10
20.9265714729
 20
9.7749079375
 11
20.33329451
 21
10.1174586204
  0
LINE
  5
61B
100
AcDbEntity
  8
ASSI
100
AcDbLine
 62
7
  6
CONTINUOUS
 10
20.9265714729
 20
9.7749079375
 11
20.33329451
 21
10.1174586204
  0
LINE
  5
61C
100
AcDbEntity
  8
RACCORDO
100
AcDbLine
 62
7
  6
CONTINUOUS
 10
16.2499232282
 20
11.5977643044
 11
16.2497679904
 21
11.5978539644
  0
LINE
  5
61D
100
AcDbEntity
  8
ASSI
100
AcDbLine
 62
7
  6
CONTINUOUS
 10
16.2499232282
 20
11.5977643044
 11
16.2497679904
 21
11.5978539644
  0
LWPOLYLINE
  5
61E
100
AcDbEntity
  8
RACCORDO
100
AcDbPolyline
 62
7
  6
CONTINUOUS
 90
6
 70
0
 10
16.2498336533
 20
11.5978183699
 10
16.2101102731
 20
11.6234971578
 10
16.1731329851
 20
11.6528810849
 10
16.1383590234
 20
11.6862801771
 10
16.1056744112
 20
11.7238558664
 10
16.0913118252
 20
11.7426062604
  0
LWPOLYLINE
  5
61F
100
AcDbEntity
  8
ASSI
100
AcDbPolyline
 62
7
  6
CONTINUOUS
 90
6
 70
0
 10
16.2498336533
 20
11.5978183699
 10
16.2101102731
 20
11.6234971578
 10
16.1731329851
 20
11.6528810849
 10
16.1383590234
 20
11.6862801771
 10
16.1056744112
 20
11.7238558664
 10
16.0913118252
 20
11.7426062604
  0
LWPOLYLINE
  5
620
100
AcDbEntity
  8
RACCORDO
100
AcDbPolyline
 62
7
  6
CONTINUOUS
 90
7
 70
0
 10
15.4577524893
 20
12.2067047816
 10
15.555787761
 20
12.1357509955
 10
15.6524079194
 20
12.0664171681
 10
15.7476129646
 20
11.9987032994
 10
15.8414028965
 20
11.9326093893
 10
15.9337777151
 20
11.8681354378
 10
16.0247374205
 20
11.805281445
  0
LWPOLYLINE
  5
621
100
AcDbEntity
  8
ASSI
100
AcDbPolyline
 62
7
  6
CONTINUOUS
 90
7
 70
0
 10
15.4577524893
 20
12.2067047816
 10
15.555787761
 20
12.1357509955
 10
15.6524079194
 20
12.0664171681
 10
15.7476129646
 20
11.9987032994
 10
15.8414028965
 20
11.9326093893
 10
15.9337777151
 20
11.8681354378
 10
16.0247374205
 20
11.805281445
  0
LWPOLYLINE
  5
622
100
AcDbEntity
  8
IMPORT_IGES
100
AcDbPolyline
 62
250
  6
CONTINUOUS
 90
8
 70
0
 10
9.7136197875
 20
13.6054265847
 10
9.7143762024
 20
13.6048651353
 10
9.7280838701
 20
13.5989307363
 10
9.7434557168
 20
13.5958787799
 10
9.7598362097
 20
13.5959162681
 10
9.7770068379
 20
13.5991122018
 10
9.7951861124
 20
13.6053975802
 10
9.8143740331
 20
13.6147724032
  0
LWPOLYLINE
  5
623
100
AcDbEntity
  8
IMPORT_IGES
100
AcDbPolyline
 62
7
  6
CONTINUOUS
 90
3
 70
0
 10
16.6857921105
 20
7.982044185
 10
16.6175369755
 20
8.034846812
 10
16.5773670881
 20
8.0600029384
  0
LINE
  5
624
100
AcDbEntity
  8
IMPORT_IGES
100
AcDbLine
 62
7
  6
CONTINUOUS
 10
16.703160854
 20
7.9646823085
 11
16.6857921105
 21
7.982044185
  0
LINE
  5
625
100
AcDbEntity
  8
IMPORT_IGES
100
AcDbLine
 62
7
  6
CONTINUOUS
 10
16.38521796
 20
8.1341452952
 11
16.4428111627
 21
8.0635526203
  0
LWPOLYLINE
  5
626
100
AcDbEntity
  8
RACCORDO
100
AcDbPolyline
 62
7
  6
CONTINUOUS
 90
5
 70
0
 10
16.0912397174
 20
7.6602337866
 10
16.0792602791
 20
7.6751988988
 10
16.0632847429
 20
7.6918586604
 10
16.0451104567
 20
7.7077690478
 10
16.0247374205
 20
7.722930061
  0
LWPOLYLINE
  5
627
100
AcDbEntity
  8
ASSI
100
AcDbPolyline
 62
7
  6
CONTINUOUS
 90
5
 70
0
 10
16.0912397174
 20
7.6602337866
 10
16.0792602791
 20
7.6751988988
 10
16.0632847429
 20
7.6918586604
 10
16.0451104567
 20
7.7077690478
 10
16.0247374205
 20
7.722930061
  0
LINE
  5
628
100
AcDbEntity
  8
IMPORT_IGES
100
AcDbLine
 62
7
  6
CONTINUOUS
 10
16.4428111627
 20
8.0635526203
 11
16.4936727197
 21
7.9839258022
  0
LWPOLYLINE
  5
629
100
AcDbEntity
  8
IMPORT_IGES
100
AcDbPolyline
 62
7
  6
CONTINUOUS
 90
3
 70
0
 10
16.4936727197
 20
3.9015744182
 10
16.5370994305
 20
3.8134858341
 10
16.5427209833
 20
3.7984789221
  0
LWPOLYLINE
  5
62A
100
AcDbEntity
  8
IMPORT_IGES
100
AcDbPolyline
 62
7
  6
CONTINUOUS
 90
3
 70
0
 10
16.4936727197
 20
7.9839258022
 10
16.5370994305
 20
7.8958372181
 10
16.5427209833
 20
7.8808303061
  0
LINE
  5
62B
100
AcDbEntity
  8
SMUSSO
100
AcDbLine
 62
7
  6
CONTINUOUS
 10
11.1014564558
 20
30.7989393878
 11
11.2909682887
 21
29.8730162664
  0
LINE
  5
62C
100
AcDbEntity
  8
ASSI
100
AcDbLine
 62
7
  6
CONTINUOUS
 10
11.1014564558
 20
30.7989393878
 11
11.2909682887
 21
29.8730162664
  0
LWPOLYLINE
  5
62D
100
AcDbEntity
  8
0
100
AcDbPolyline
 62
7
  6
CONTINUOUS
 90
25
 70
0
 10
21.1387035085
 20
22.3356955841
 10
21.1381384348
 20
22.382142141
 10
21.1364502402
 20
22.4291385725
 10
21.1336389246
 20
22.4766848789
 10
21.1297005351
 20
22.524823292
 10
21.1246390247
 20
22.5735115798
 10
21.1184662522
 20
22.6226230467
 10
21.11117959
 20
22.6721550987
 10
21.1027816659
 20
22.7221103297
 10
21.0932922216
 20
22.7723698253
 10
21.0827084775
 20
22.8229349401
 10
21.0710332133
 20
22.8738043194
 10
21.0582945106
 20
22.924854985
 10
21.044489686
 20
22.9760874384
 10
21.0296214228
 20
23.0275011781
 10
21.0137258528
 20
23.0789717209
 10
20.9968006834
 20
23.1304985328
 10
20.9788482071
 20
23.1820821479
 10
20.959911433
 20
23.2335996858
 10
20.9399860733
 20
23.285054934
 10
20.9190764159
 20
23.336444105
 10
20.8972383329
 20
23.3876329557
 10
20.8744904484
 20
23.4385767386
 10
20.8508141383
 20
23.4893202012
 10
20.8262094027
 20
23.5398633437
  0
LWPOLYLINE
  5
62E
100
AcDbEntity
  8
ASSI
100
AcDbPolyline
 62
7
  6
CONTINUOUS
 90
25
 70
0
 10
21.1387035085
 20
22.3356955841
 10
21.1381384348
 20
22.382142141
 10
21.1364502402
 20
22.4291385725
 10
21.1336389246
 20
22.4766848789
 10
21.1297005351
 20
22.524823292
 10
21.1246390247
 20
22.5735115798
 10
21.1184662522
 20
22.6226230467
 10
21.11117959
 20
22.6721550987
 10
21.1027816659
 20
22.7221103297
 10
21.0932922216
 20
22.7723698253
 10
21.0827084775
 20
22.8229349401
 10
21.0710332133
 20
22.8738043194
 10
21.0582945106
 20
22.924854985
 10
21.044489686
 20
22.9760874384
 10
21.0296214228
 20
23.0275011781
 10
21.0137258528
 20
23.0789717209
 10
20.9968006834
 20
23.1304985328
 10
20.9788482071
 20
23.1820821479
 10
20.959911433
 20
23.2335996858
 10
20.9399860733
 20
23.285054934
 10
20.9190764159
 20
23.336444105
 10
20.8972383329
 20
23.3876329557
 10
20.8744904484
 20
23.4385767386
 10
20.8508141383
 20
23.4893202012
 10
20.8262094027
 20
23.5398633437
  0
LINE
  5
62F
100
AcDbEntity
  8
ASSI
100
AcDbLine
 62
7
  6
CONTINUOUS
 10
20.33329451
 20
1.9527558524
 11
20.33329451
 21
4.6473859559
  0
LINE
  5
630
100
AcDbEntity
  8
ASSI
100
AcDbLine
 62
7
  6
CONTINUOUS
 10
20.33329451
 20
6.0351072364
 11
20.33329451
 21
8.7297373398
  0
LINE
  5
631
100
AcDbEntity
  8
ASSI
100
AcDbLine
 62
7
  6
CONTINUOUS
 10
20.33329451
 20
10.1174586204
 11
20.33329451
 21
12.8120887238
  0
LINE
  5
632
100
AcDbEntity
  8
ASSI
100
AcDbLine
 62
7
  6
CONTINUOUS
 10
20.33329451
 20
14.1998100043
 11
20.33329451
 21
16.8944401078
  0
LINE
  5
633
100
AcDbEntity
  8
ASSI
100
AcDbLine
 62
7
  6
CONTINUOUS
 10
20.33329451
 20
18.2821613883
 11
20.33329451
 21
20.9767914917
  0
LINE
  5
634
100
AcDbEntity
  8
DRAFT
100
AcDbLine
 62
7
  6
CONTINUOUS
 10
20.3686498491
 20
-0.3263902706
 11
20.3686498491
 21
-1.1636187479
  0
LINE
  5
635
100
AcDbEntity
  8
ASSI
100
AcDbLine
 62
7
  6
CONTINUOUS
 10
20.3686498491
 20
-0.3263902706
 11
20.3686498491
 21
-1.1636187479
  0
LINE
  5
636
100
AcDbEntity
  8
SMUSSO
100
AcDbLine
 62
7
  6
CONTINUOUS
 10
21.1387035085
 20
-3.6090752148
 11
21.1387035085
 21
-1.8270604435
  0
LINE
  5
637
100
AcDbEntity
  8
ASSI
100
AcDbLine
 62
7
  6
CONTINUOUS
 10
21.1387035085
 20
-3.6090752148
 11
21.1387035085
 21
-1.8270604435
  0
LINE
  5
638
100
AcDbEntity
  8
RACCORDO
100
AcDbLine
 62
7
  6
CONTINUOUS
 10
21.1387035085
 20
0.141923893
 11
21.1387035085
 21
1.2428096866
  0
LINE
  5
639
100
AcDbEntity
  8
ASSI
100
AcDbLine
 62
7
  6
CONTINUOUS
 10
21.1387035085
 20
0.141923893
 11
21.1387035085
 21
1.2428096866
  0
LINE
  5
63A
100
AcDbEntity
  8
RACCORDO
100
AcDbLine
 62
7
  6
CONTINUOUS
 10
21.1387035085
 20
5.2367565309
 11
21.1387035085
 21
5.3251610706
  0
LINE
  5
63B
100
AcDbEntity
  8
ASSI
100
AcDbLine
 62
7
  6
CONTINUOUS
 10
21.1387035085
 20
5.2367565309
 11
21.1387035085
 21
5.3251610706
  0
LINE
  5
63C
100
AcDbEntity
  8
RACCORDO
100
AcDbLine
 62
7
  6
CONTINUOUS
 10
21.1387035085
 20
9.3191079148
 11
21.1387035085
 21
9.4075124545
  0
LINE
  5
63D
100
AcDbEntity
  8
ASSI
100
AcDbLine
 62
7
  6
CONTINUOUS
 10
21.1387035085
 20
9.3191079148
 11
21.1387035085
 21
9.4075124545
  0
LINE
  5
63E
100
AcDbEntity
  8
RACCORDO
100
AcDbLine
 62
7
  6
CONTINUOUS
 10
21.1387035085
 20
13.4014592988
 11
21.1387035085
 21
13.4898638385
  0
LINE
  5
63F
100
AcDbEntity
  8
ASSI
100
AcDbLine
 62
7
  6
CONTINUOUS
 10
21.1387035085
 20
13.4014592988
 11
21.1387035085
 21
13.4898638385
  0
LINE
  5
640
100
AcDbEntity
  8
RACCORDO
100
AcDbLine
 62
7
  6
CONTINUOUS
 10
21.1387035085
 20
17.4838106827
 11
21.1387035085
 21
17.5722152225
  0
LINE
  5
641
100
AcDbEntity
  8
ASSI
100
AcDbLine
 62
7
  6
CONTINUOUS
 10
21.1387035085
 20
17.4838106827
 11
21.1387035085
 21
17.5722152225
  0
LINE
  5
642
100
AcDbEntity
  8
RACCORDO
100
AcDbLine
 62
7
  6
CONTINUOUS
 10
21.1387035085
 20
21.5661620667
 11
21.1387035085
 21
22.3356955841
  0
LINE
  5
643
100
AcDbEntity
  8
ASSI
100
AcDbLine
 62
7
  6
CONTINUOUS
 10
21.1387035085
 20
21.5661620667
 11
21.1387035085
 21
22.3356955841
  0
LWPOLYLINE
  5
644
100
AcDbEntity
  8
0
100
AcDbPolyline
 62
7
  6
CONTINUOUS
 90
13
 70
0
 10
10.1710526479
 20
-29.4205887271
 10
10.1849538465
 20
-29.3879913145
 10
10.199249437
 20
-29.3534232956
 10
10.2139416951
 20
-29.3168550836
 10
10.2288880169
 20
-29.2782831622
 10
10.2439318706
 20
-29.2376833598
 10
10.2590680043
 20
-29.1949552782
 10
10.2741495546
 20
-29.150039866
 10
10.2889989567
 20
-29.1029703101
 10
10.3035464507
 20
-29.0537543647
 10
10.3176337327
 20
-29.0023875693
 10
10.3310270309
 20
-28.9488757407
 10
10.3435225962
 20
-28.893242912
  0
LINE
  5
645
100
AcDbEntity
  8
0
100
AcDbLine
 62
7
  6
CONTINUOUS
 10
10.1332578235
 20
-29.5066867772
 11
10.1710526479
 21
-29.4205887271
  0
LWPOLYLINE
  5
646
100
AcDbEntity
  8
0
100
AcDbPolyline
 62
7
  6
CONTINUOUS
 90
10
 70
0
 10
10.1332578235
 20
-29.5066867772
 10
10.1158533607
 20
-29.54388442
 10
10.0972138485
 20
-29.5796254579
 10
10.0773392872
 20
-29.6139098912
 10
10.0562059856
 20
-29.6467700806
 10
10.0338376347
 20
-29.6781736653
 10
10.0103053072
 20
-29.7080235623
 10
9.9856326938
 20
-29.7362874109
 10
9.9597961038
 20
-29.7629975719
 10
9.9327955371
 20
-29.7881540454
  0
LINE
  5
647
100
AcDbEntity
  8
0
100
AcDbLine
 62
7
  6
CONTINUOUS
 10
-16.2056894563
 20
18.9305246811
 11
-16.1518597261
 21
18.9414111005
  0
LINE
  5
648
100
AcDbEntity
  8
ASSI
100
AcDbLine
 62
7
  6
CONTINUOUS
 10
-16.2056894563
 20
18.9305246811
 11
-16.1518597261
 21
18.9414111005
  0
LINE
  5
649
100
AcDbEntity
  8
DRAFT
100
AcDbLine
 62
7
  6
CONTINUOUS
 10
-13.2697681099
 20
20.5164720014
 11
-13.3246590952
 21
20.5055145231
  0
LINE
  5
64A
100
AcDbEntity
  8
ASSI
100
AcDbLine
 62
7
  6
CONTINUOUS
 10
-13.2697681099
 20
20.5164720014
 11
-13.3246590952
 21
20.5055145231
  0
LINE
  5
64B
100
AcDbEntity
  8
0
100
AcDbLine
 62
7
  6
CONTINUOUS
 10
-16.1518597261
 20
18.9414111005
 11
-16.0979110538
 21
18.952024716
  0
LINE
  5
64C
100
AcDbEntity
  8
ASSI
100
AcDbLine
 62
7
  6
CONTINUOUS
 10
-16.1518597261
 20
18.9414111005
 11
-16.0979110538
 21
18.952024716
  0
LWPOLYLINE
  5
64D
100
AcDbEntity
  8
DRAFT
100
AcDbPolyline
 62
7
  6
CONTINUOUS
 90
3
 70
0
 10
-13.2009808622
 20
20.5297696906
 10
-13.2147536987
 20
20.5271456408
 10
-13.2697681099
 20
20.5164720014
  0
LWPOLYLINE
  5
64E
100
AcDbEntity
  8
ASSI
100
AcDbPolyline
 62
7
  6
CONTINUOUS
 90
3
 70
0
 10
-13.2009808622
 20
20.5297696906
 10
-13.2147536987
 20
20.5271456408
 10
-13.2697681099
 20
20.5164720014
  0
LINE
  5
64F
100
AcDbEntity
  8
0
100
AcDbLine
 62
7
  6
CONTINUOUS
 10
-16.0979110538
 20
18.952024716
 11
-16.0438440366
 21
18.9623654102
  0
LINE
  5
650
100
AcDbEntity
  8
ASSI
100
AcDbLine
 62
7
  6
CONTINUOUS
 10
-16.0979110538
 20
18.952024716
 11
-16.0438440366
 21
18.9623654102
  0
LWPOLYLINE
  5
651
100
AcDbEntity
  8
0
100
AcDbPolyline
 62
7
  6
CONTINUOUS
 90
10
 70
0
 10
-16.0438440366
 20
18.9623654102
 10
-16.0045625933
 20
18.9676774946
 10
-15.9640646383
 20
18.9691309791
 10
-15.9223501715
 20
18.9667258637
 10
-15.879177713
 20
18.9604062073
 10
-15.8347887426
 20
18.950227951
 10
-15.7899077006
 20
18.9363589182
 10
-15.7447760669
 20
18.9188550501
 10
-15.6991523615
 20
18.8976604055
 10
-15.6530365844
 20
18.8727749845
  0
LWPOLYLINE
  5
652
100
AcDbEntity
  8
ASSI
100
AcDbPolyline
 62
7
  6
CONTINUOUS
 90
10
 70
0
 10
-16.0438440366
 20
18.9623654102
 10
-16.0045625933
 20
18.9676774946
 10
-15.9640646383
 20
18.9691309791
 10
-15.9223501715
 20
18.9667258637
 10
-15.879177713
 20
18.9604062073
 10
-15.8347887426
 20
18.950227951
 10
-15.7899077006
 20
18.9363589182
 10
-15.7447760669
 20
18.9188550501
 10
-15.6991523615
 20
18.8976604055
 10
-15.6530365844
 20
18.8727749845
  0
LWPOLYLINE
  5
653
100
AcDbEntity
  8
ASSI
100
AcDbPolyline
 62
7
  6
CONTINUOUS
 90
10
 70
0
 10
-13.2009808622
 20
20.5297696906
 10
-13.1615088482
 20
20.5351091978
 10
-13.1208966085
 20
20.5365956699
 10
-13.079144143
 20
20.5342291069
 10
-13.0360652058
 20
20.5279669047
 10
-12.9918460428
 20
20.5178516675
 10
-12.9470453921
 20
20.5040112079
 10
-12.9018494997
 20
20.4864881301
 10
-12.8560721197
 20
20.46523983
 10
-12.809713252
 20
20.4402663074
  0
LINE
  5
654
100
AcDbEntity
  8
ASSI
100
AcDbLine
 62
7
  6
CONTINUOUS
 10
-9.5704872425
 20
20.0969180135
 11
-10.825347498
 21
20.045281987
  0
LWPOLYLINE
  5
655
100
AcDbEntity
  8
IMPORT_IGES
100
AcDbPolyline
 62
7
  6
CONTINUOUS
 90
12
 70
0
 10
16.5773670881
 20
16.2247057063
 10
16.5431940755
 20
16.2431495635
 10
16.4636445329
 20
16.2768887171
 10
16.3786243783
 20
16.300694258
 10
16.2883975811
 20
16.3146389688
 10
16.1946371716
 20
16.3182830105
 10
16.097305294
 20
16.3113803643
 10
15.9964398041
 20
16.2941770489
 10
15.8938272999
 20
16.266971281
 10
15.7900633141
 20
16.2298624662
 10
15.6845523141
 20
16.182751199
 10
15.638915905
 20
16.1584503102
  0
LINE
  5
656
100
AcDbEntity
  8
DRAFT
100
AcDbLine
 62
7
  6
CONTINUOUS
 10
19.3310594855
 20
13.5643520088
 11
19.2726343383
 21
13.5980859566
  0
LINE
  5
657
100
AcDbEntity
  8
ASSI
100
AcDbLine
 62
7
  6
CONTINUOUS
 10
19.3310594855
 20
13.5643520088
 11
19.2726343383
 21
13.5980859566
  0
LINE
  5
658
100
AcDbEntity
  8
SMUSSO
100
AcDbLine
 62
7
  6
CONTINUOUS
 10
15.3645439127
 20
16.3428736295
 11
15.4577524893
 21
16.2890561655
  0
LINE
  5
659
100
AcDbEntity
  8
ASSI
100
AcDbLine
 62
7
  6
CONTINUOUS
 10
15.3645439127
 20
16.3428736295
 11
15.4577524893
 21
16.2890561655
  0
LINE
  5
65A
100
AcDbEntity
  8
IMPORT_IGES
100
AcDbLine
 62
250
  6
CONTINUOUS
 10
8.5941106146
 20
20.5653979529
 11
8.3781284057
 21
20.6901033734
  0
LINE
  5
65B
100
AcDbEntity
  8
IMPORT_IGES
100
AcDbLine
 62
250
  6
CONTINUOUS
 10
5.5535514555
 20
22.3209787042
 11
5.3375692466
 21
22.4456841247
  0
LINE
  5
65C
100
AcDbEntity
  8
IMPORT_IGES
100
AcDbLine
 62
250
  6
CONTINUOUS
 10
2.5129922964
 20
24.0765594555
 11
2.2970100875
 21
24.201264876
  0
LINE
  5
65D
100
AcDbEntity
  8
IMPORT_IGES
100
AcDbLine
 62
7
  6
CONTINUOUS
 10
8.6239176565
 20
20.5820126266
 11
8.4074197043
 21
20.7070158308
  0
LINE
  5
65E
100
AcDbEntity
  8
IMPORT_IGES
100
AcDbLine
 62
7
  6
CONTINUOUS
 10
5.5833584974
 20
22.3375933779
 11
5.3668605452
 21
22.4625965822
  0
LINE
  5
65F
100
AcDbEntity
  8
IMPORT_IGES
100
AcDbLine
 62
7
  6
CONTINUOUS
 10
2.5427993383
 20
24.0931741292
 11
2.3263013861
 21
24.2181773335
  0
LINE
  5
660
100
AcDbEntity
  8
RACCORDO
100
AcDbLine
 62
250
  6
CONTINUOUS
 10
17.2663274371
 20
15.7886806755
 11
16.6897044996
 21
16.1216155328
  0
LINE
  5
661
100
AcDbEntity
  8
ASSI
100
AcDbLine
 62
250
  6
CONTINUOUS
 10
17.2663274371
 20
15.7886806755
 11
16.6897044996
 21
16.1216155328
  0
LINE
  5
662
100
AcDbEntity
  8
RACCORDO
100
AcDbLine
 62
7
  6
CONTINUOUS
 10
20.9265714729
 20
13.8572593215
 11
20.33329451
 21
14.1998100043
  0
LINE
  5
663
100
AcDbEntity
  8
ASSI
100
AcDbLine
 62
7
  6
CONTINUOUS
 10
20.9265714729
 20
13.8572593215
 11
20.33329451
 21
14.1998100043
  0
LINE
  5
664
100
AcDbEntity
  8
RACCORDO
100
AcDbLine
 62
7
  6
CONTINUOUS
 10
16.2499232282
 20
15.6801156883
 11
16.2497679904
 21
15.6802053483
  0
LINE
  5
665
100
AcDbEntity
  8
ASSI
100
AcDbLine
 62
7
  6
CONTINUOUS
 10
16.2499232282
 20
15.6801156883
 11
16.2497679904
 21
15.6802053483
  0
LWPOLYLINE
  5
666
100
AcDbEntity
  8
RACCORDO
100
AcDbPolyline
 62
7
  6
CONTINUOUS
 90
6
 70
0
 10
16.2498336533
 20
15.6801697538
 10
16.2101102731
 20
15.7058485418
 10
16.1731329851
 20
15.7352324689
 10
16.1383590234
 20
15.768631561
 10
16.1056744112
 20
15.8062072504
 10
16.0913118252
 20
15.8249576443
  0
LWPOLYLINE
  5
667
100
AcDbEntity
  8
ASSI
100
AcDbPolyline
 62
7
  6
CONTINUOUS
 90
6
 70
0
 10
16.2498336533
 20
15.6801697538
 10
16.2101102731
 20
15.7058485418
 10
16.1731329851
 20
15.7352324689
 10
16.1383590234
 20
15.768631561
 10
16.1056744112
 20
15.8062072504
 10
16.0913118252
 20
15.8249576443
  0
LWPOLYLINE
  5
668
100
AcDbEntity
  8
RACCORDO
100
AcDbPolyline
 62
7
  6
CONTINUOUS
 90
7
 70
0
 10
15.4577524893
 20
16.2890561655
 10
15.555787761
 20
16.2181023795
 10
15.6524079194
 20
16.1487685521
 10
15.7476129646
 20
16.0810546833
 10
15.8414028965
 20
16.0149607732
 10
15.9337777151
 20
15.9504868217
 10
16.0247374205
 20
15.8876328289
  0
LWPOLYLINE
  5
669
100
AcDbEntity
  8
ASSI
100
AcDbPolyline
 62
7
  6
CONTINUOUS
 90
7
 70
0
 10
15.4577524893
 20
16.2890561655
 10
15.555787761
 20
16.2181023795
 10
15.6524079194
 20
16.1487685521
 10
15.7476129646
 20
16.0810546833
 10
15.8414028965
 20
16.0149607732
 10
15.9337777151
 20
15.9504868217
 10
16.0247374205
 20
15.8876328289
  0
LWPOLYLINE
  5
66A
100
AcDbEntity
  8
IMPORT_IGES
100
AcDbPolyline
 62
7
  6
CONTINUOUS
 90
3
 70
0
 10
16.6857921105
 20
12.0643955689
 10
16.6175369755
 20
12.1171981959
 10
16.5773670881
 20
12.1423543224
  0
LINE
  5
66B
100
AcDbEntity
  8
IMPORT_IGES
100
AcDbLine
 62
7
  6
CONTINUOUS
 10
16.703160854
 20
12.0470336925
 11
16.6857921105
 21
12.0643955689
  0
LINE
  5
66C
100
AcDbEntity
  8
IMPORT_IGES
100
AcDbLine
 62
7
  6
CONTINUOUS
 10
16.38521796
 20
12.2164966791
 11
16.4428111627
 21
12.1459040043
  0
LWPOLYLINE
  5
66D
100
AcDbEntity
  8
RACCORDO
100
AcDbPolyline
 62
7
  6
CONTINUOUS
 90
5
 70
0
 10
16.0912397174
 20
11.7425851706
 10
16.0792602791
 20
11.7575502828
 10
16.0632847429
 20
11.7742100443
 10
16.0451104567
 20
11.7901204317
 10
16.0247374205
 20
11.805281445
  0
LWPOLYLINE
  5
66E
100
AcDbEntity
  8
ASSI
100
AcDbPolyline
 62
7
  6
CONTINUOUS
 90
5
 70
0
 10
16.0912397174
 20
11.7425851706
 10
16.0792602791
 20
11.7575502828
 10
16.0632847429
 20
11.7742100443
 10
16.0451104567
 20
11.7901204317
 10
16.0247374205
 20
11.805281445
  0
LWPOLYLINE
  5
66F
100
AcDbEntity
  8
RACCORDO
100
AcDbPolyline
 62
7
  6
CONTINUOUS
 90
5
 70
0
 10
16.0912397174
 20
15.8249365545
 10
16.0792602791
 20
15.8399016667
 10
16.0632847429
 20
15.8565614283
 10
16.0451104567
 20
15.8724718157
 10
16.0247374205
 20
15.8876328289
  0
LWPOLYLINE
  5
670
100
AcDbEntity
  8
ASSI
100
AcDbPolyline
 62
7
  6
CONTINUOUS
 90
5
 70
0
 10
16.0912397174
 20
15.8249365545
 10
16.0792602791
 20
15.8399016667
 10
16.0632847429
 20
15.8565614283
 10
16.0451104567
 20
15.8724718157
 10
16.0247374205
 20
15.8876328289
  0
LINE
  5
671
100
AcDbEntity
  8
IMPORT_IGES
100
AcDbLine
 62
7
  6
CONTINUOUS
 10
16.4428111627
 20
12.1459040043
 11
16.4936727197
 21
12.0662771862
  0
LINE
  5
672
100
AcDbEntity
  8
IMPORT_IGES
100
AcDbLine
 62
7
  6
CONTINUOUS
 10
16.4428111627
 20
16.2282553882
 11
16.4936727197
 21
16.1486285701
  0
LWPOLYLINE
  5
673
100
AcDbEntity
  8
IMPORT_IGES
100
AcDbPolyline
 62
7
  6
CONTINUOUS
 90
3
 70
0
 10
16.4936727197
 20
12.0662771862
 10
16.5370994305
 20
11.978188602
 10
16.5427209833
 20
11.96318169
  0
LWPOLYLINE
  5
674
100
AcDbEntity
  8
IMPORT_IGES
100
AcDbPolyline
 62
7
  6
CONTINUOUS
 90
3
 70
0
 10
16.4936727197
 20
16.1486285701
 10
16.5370994305
 20
16.060539986
 10
16.5427209833
 20
16.045533074
  0
LINE
  5
675
100
AcDbEntity
  8
SMUSSO
100
AcDbLine
 62
7
  6
CONTINUOUS
 10
14.1420156149
 20
29.0433586365
 11
14.3315274478
 21
28.1174355151
  0
LINE
  5
676
100
AcDbEntity
  8
ASSI
100
AcDbLine
 62
7
  6
CONTINUOUS
 10
14.1420156149
 20
29.0433586365
 11
14.3315274478
 21
28.1174355151
  0
LINE
  5
677
100
AcDbEntity
  8
SMUSSO
100
AcDbLine
 62
7
  6
CONTINUOUS
 10
17.182574774
 20
27.2877778852
 11
17.3720866069
 21
26.3618547638
  0
LINE
  5
678
100
AcDbEntity
  8
ASSI
100
AcDbLine
 62
7
  6
CONTINUOUS
 10
17.182574774
 20
27.2877778852
 11
17.3720866069
 21
26.3618547638
  0
LINE
  5
679
100
AcDbEntity
  8
DRAFT
100
AcDbLine
 62
7
  6
CONTINUOUS
 10
13.4462754912
 20
-27.6779350773
 11
13.6849406727
 21
-27.2547630136
  0
LWPOLYLINE
  5
67A
100
AcDbEntity
  8
RACCORDO
100
AcDbPolyline
 62
7
  6
CONTINUOUS
 90
10
 70
0
 10
-13.8936185849
 20
20.3733017465
 10
-14.0465582384
 20
20.3317651015
 10
-14.1983824966
 20
20.287918086
 10
-14.3490913595
 20
20.2417607002
 10
-14.498698612
 20
20.1932882263
 10
-14.6471904692
 20
20.1425053821
 10
-14.7945255768
 20
20.0894263205
 10
-14.9406901498
 20
20.0340557594
 10
-15.0856979731
 20
19.9763889811
 10
-15.2295490467
 20
19.9164259855
  0
LWPOLYLINE
  5
67B
100
AcDbEntity
  8
ASSI
100
AcDbPolyline
 62
7
  6
CONTINUOUS
 90
10
 70
0
 10
-13.8936185849
 20
20.3733017465
 10
-14.0465582384
 20
20.3317651015
 10
-14.1983824966
 20
20.287918086
 10
-14.3490913595
 20
20.2417607002
 10
-14.498698612
 20
20.1932882263
 10
-14.6471904692
 20
20.1425053821
 10
-14.7945255768
 20
20.0894263205
 10
-14.9406901498
 20
20.0340557594
 10
-15.0856979731
 20
19.9763889811
 10
-15.2295490467
 20
19.9164259855
  0
LWPOLYLINE
  5
67C
100
AcDbEntity
  8
RACCORDO
100
AcDbPolyline
 62
250
  6
CONTINUOUS
 90
6
 70
0
 10
-12.5117989064
 20
21.4615988262
 10
-12.5085413004
 20
21.4623994792
 10
-12.5000892846
 20
21.4616308197
 10
-12.4875244443
 20
21.4584272306
 10
-12.4708837898
 20
21.4527931851
 10
-12.4502043628
 20
21.4447338401
  0
LWPOLYLINE
  5
67D
100
AcDbEntity
  8
ASSI
100
AcDbPolyline
 62
250
  6
CONTINUOUS
 90
6
 70
0
 10
-12.5117989064
 20
21.4615988262
 10
-12.5085413004
 20
21.4623994792
 10
-12.5000892846
 20
21.4616308197
 10
-12.4875244443
 20
21.4584272306
 10
-12.4708837898
 20
21.4527931851
 10
-12.4502043628
 20
21.4447338401
  0
LINE
  5
67E
100
AcDbEntity
  8
IMPORT_IGES
100
AcDbLine
 62
7
  6
CONTINUOUS
 10
9.1989469563
 20
20.9025383662
 11
8.9208103666
 21
21.0034416694
  0
LINE
  5
67F
100
AcDbEntity
  8
DRAFT
100
AcDbLine
 62
7
  6
CONTINUOUS
 10
19.3310594855
 20
17.6467033928
 11
19.2726343383
 21
17.6804373405
  0
LINE
  5
680
100
AcDbEntity
  8
ASSI
100
AcDbLine
 62
7
  6
CONTINUOUS
 10
19.3310594855
 20
17.6467033928
 11
19.2726343383
 21
17.6804373405
  0
LWPOLYLINE
  5
681
100
AcDbEntity
  8
IMPORT_IGES
100
AcDbPolyline
 62
7
  6
CONTINUOUS
 90
3
 70
0
 10
16.6857921105
 20
16.1467469529
 10
16.6175369755
 20
16.1995495799
 10
16.5773670881
 20
16.2247057063
  0
LINE
  5
682
100
AcDbEntity
  8
IMPORT_IGES
100
AcDbLine
 62
7
  6
CONTINUOUS
 10
16.703160854
 20
16.1293850764
 11
16.6857921105
 21
16.1467469529
  0
LINE
  5
683
100
AcDbEntity
  8
IMPORT_IGES
100
AcDbLine
 62
7
  6
CONTINUOUS
 10
16.38521796
 20
16.2988480631
 11
16.4428111627
 21
16.2282553882
  0
LWPOLYLINE
  5
684
100
AcDbEntity
  8
RACCORDO
100
AcDbPolyline
 62
250
  6
CONTINUOUS
 90
9
 70
0
 10
9.1897807891
 20
-29.9945674062
 10
8.8971917379
 20
-30.2562805925
 10
8.5922285194
 20
-30.5002906906
 10
8.2748911336
 20
-30.7265977005
 10
7.9449052662
 20
-30.9353463847
 10
7.6025452316
 20
-31.1263919808
 10
7.2486339726
 20
-31.2993002006
 10
6.8834458036
 20
-31.4539262817
 10
6.8383496222
 20
-31.4702641521
  0
LINE
  5
685
100
AcDbEntity
  8
RACCORDO
100
AcDbLine
 62
250
  6
CONTINUOUS
 10
9.4385963189
 20
-30.0603524587
 11
9.1439852336
 21
-30.3238527464
  0
LINE
  5
686
100
AcDbEntity
  8
RACCORDO
100
AcDbLine
 62
7
  6
CONTINUOUS
 10
20.9265714729
 20
17.9396107055
 11
20.33329451
 21
18.2821613883
  0
LINE
  5
687
100
AcDbEntity
  8
ASSI
100
AcDbLine
 62
7
  6
CONTINUOUS
 10
20.9265714729
 20
17.9396107055
 11
20.33329451
 21
18.2821613883
  0
LINE
  5
688
100
AcDbEntity
  8
DRAFT
100
AcDbLine
 62
7
  6
CONTINUOUS
 10
8.5903097528
 20
27.834943412
 11
8.9171005619
 21
27.6462584945
  0
LINE
  5
689
100
AcDbEntity
  8
ASSI
100
AcDbLine
 62
7
  6
CONTINUOUS
 10
8.5903097528
 20
27.834943412
 11
8.9171005619
 21
27.6462584945
  0
LINE
  5
68A
100
AcDbEntity
  8
DRAFT
100
AcDbLine
 62
7
  6
CONTINUOUS
 10
11.6308689119
 20
26.0793626607
 11
11.957659721
 21
25.8906777431
  0
LINE
  5
68B
100
AcDbEntity
  8
ASSI
100
AcDbLine
 62
7
  6
CONTINUOUS
 10
11.6308689119
 20
26.0793626607
 11
11.957659721
 21
25.8906777431
  0
LINE
  5
68C
100
AcDbEntity
  8
DRAFT
100
AcDbLine
 62
7
  6
CONTINUOUS
 10
14.671428071
 20
24.3237819094
 11
14.9982188801
 21
24.1350969918
  0
LINE
  5
68D
100
AcDbEntity
  8
ASSI
100
AcDbLine
 62
7
  6
CONTINUOUS
 10
14.671428071
 20
24.3237819094
 11
14.9982188801
 21
24.1350969918
  0
LWPOLYLINE
  5
68E
100
AcDbEntity
  8
RACCORDO
100
AcDbPolyline
 62
250
  6
CONTINUOUS
 90
5
 70
0
 10
9.1439852336
 20
-30.3238527464
 10
8.836353355
 20
-30.5698969086
 10
8.5159848871
 20
-30.798278873
 10
8.1832176458
 20
-31.0087820514
 10
7.9697324649
 20
-31.1308282416
  0
LWPOLYLINE
  5
68F
100
AcDbEntity
  8
0
100
AcDbPolyline
 62
7
  6
CONTINUOUS
 90
4
 70
0
 10
8.8645642883
 20
-30.6055785098
 10
9.2316504148
 20
-30.3513408058
 10
9.5877274978
 20
-30.0788659844
 10
9.9327955371
 20
-29.7881540454
  0
LWPOLYLINE
  5
690
100
AcDbEntity
  8
RACCORDO
100
AcDbPolyline
 62
250
  6
CONTINUOUS
 90
13
 70
0
 10
9.6447499645
 20
-29.2780515758
 10
9.6251529535
 20
-29.2902045551
 10
9.6035588021
 20
-29.3007638987
 10
9.5803289211
 20
-29.3095528969
 10
9.5558520793
 20
-29.3164244733
 10
9.5305379359
 20
-29.3212636337
 10
9.5048101882
 20
-29.323989402
 10
9.4790994135
 20
-29.3245561849
 10
9.4538358871
 20
-29.3229545224
 10
9.4294424212
 20
-29.3192112484
 10
9.4063272378
 20
-29.3133890403
 10
9.3848771406
 20
-29.3055853615
 10
9.3654510676
 20
-29.2959308334
  0
LWPOLYLINE
  5
691
100
AcDbEntity
  8
RACCORDO
100
AcDbPolyline
 62
7
  6
CONTINUOUS
 90
7
 70
0
 10
11.8168079147
 20
-28.7348672686
 10
11.9678818747
 20
-28.641281524
 10
12.2210498049
 20
-28.4752592211
 10
12.4689729169
 20
-28.3009181355
 10
12.7115566061
 20
-28.118323166
 10
12.948895477
 20
-27.9274094138
 10
13.1809895298
 20
-27.7281768789
  0
LINE
  5
692
100
AcDbEntity
  8
DRAFT
100
AcDbLine
 62
7
  6
CONTINUOUS
 10
13.4462754912
 20
-27.6779350773
 11
12.6730332256
 21
-28.1473200681
  0
LINE
  5
693
100
AcDbEntity
  8
DRAFT
100
AcDbLine
 62
7
  6
CONTINUOUS
 10
11.816772467
 20
-28.7348887589
 11
10.7411031714
 21
-29.3870136853
  0
LINE
  5
694
100
AcDbEntity
  8
RACCORDO
100
AcDbLine
 62
250
  6
CONTINUOUS
 10
10.7411031714
 20
-28.5524111704
 11
13.484804578
 21
-26.8924349296
  0
LINE
  5
695
100
AcDbEntity
  8
RACCORDO
100
AcDbLine
 62
250
  6
CONTINUOUS
 10
10.7411031714
 20
-29.2041389954
 11
13.1809895294
 21
-27.7281768793
  0
LINE
  5
696
100
AcDbEntity
  8
DRAFT
100
AcDbLine
 62
7
  6
CONTINUOUS
 10
13.6849406727
 20
-27.0668237559
 11
13.4558217099
 21
-27.2014647396
  0
LWPOLYLINE
  5
697
100
AcDbEntity
  8
0
100
AcDbPolyline
 62
7
  6
CONTINUOUS
 90
3
 70
0
 10
8.2277700262
 20
-30.9891066758
 10
8.4861650043
 20
-30.8417474369
 10
8.8645642883
 20
-30.6055785098
  0
LINE
  5
698
100
AcDbEntity
  8
0
100
AcDbLine
 62
250
  6
CONTINUOUS
 10
9.6447499645
 20
-29.2780515758
 11
10.3435225962
 21
-28.893242912
  0
LINE
  5
699
100
AcDbEntity
  8
0
100
AcDbLine
 62
250
  6
CONTINUOUS
 10
9.4385963189
 20
-30.0603524587
 11
9.9327955371
 21
-29.7881540454
  0
LINE
  5
69A
100
AcDbEntity
  8
DRAFT
100
AcDbLine
 62
7
  6
CONTINUOUS
 10
8.2277333104
 20
-30.9891268413
 11
7.9697309628
 21
-31.1308290666
  0
LINE
  5
69B
100
AcDbEntity
  8
RACCORDO
100
AcDbLine
 62
7
  6
CONTINUOUS
 10
7.9697324649
 20
-31.1308282416
 11
7.9691539219
 21
-31.1311459594
  0
LINE
  5
69C
100
AcDbEntity
  8
RACCORDO
100
AcDbLine
 62
250
  6
CONTINUOUS
 10
8.5901470619
 20
-29.6090781936
 11
6.9126375527
 21
-30.4469293503
  0
LINE
  5
69D
100
AcDbEntity
  8
RACCORDO
100
AcDbLine
 62
7
  6
CONTINUOUS
 10
8.4632066401
 20
-29.9563895628
 11
6.8912520406
 21
-30.7415201222
  0
LWPOLYLINE
  5
69E
100
AcDbEntity
  8
RACCORDO
100
AcDbPolyline
 62
250
  6
CONTINUOUS
 90
10
 70
0
 10
9.4385961754
 20
-30.0603522381
 10
9.4124396688
 20
-30.0721392244
 10
9.3840695319
 20
-30.0791240961
 10
9.3542489145
 20
-30.0811189618
 10
9.3237799842
 20
-30.0780701603
 10
9.293482348
 20
-30.0700597034
 10
9.2641710051
 20
-30.0573030707
 10
9.2366344237
 20
-30.0401434125
 10
9.2116133312
 20
-30.0190423195
 10
9.1897807891
 20
-29.9945674062
  0
LWPOLYLINE
  5
69F
100
AcDbEntity
  8
RACCORDO
100
AcDbPolyline
 62
7
  6
CONTINUOUS
 90
6
 70
0
 10
6.8261903206
 20
-31.6377615692
 10
6.9376062219
 20
-31.5996459045
 10
7.2648598668
 20
-31.470941198
 10
7.5835310343
 20
-31.3284195252
 10
7.8933948927
 20
-31.1721734663
 10
7.9691524016
 20
-31.131149521
  0
LINE
  5
6A0
100
AcDbEntity
  8
DRAFT
100
AcDbLine
 62
7
  6
CONTINUOUS
 10
10.239564358
 20
28.8422131373
 11
10.6438692163
 21
28.6087725792
  0
LINE
  5
6A1
100
AcDbEntity
  8
ASSI
100
AcDbLine
 62
7
  6
CONTINUOUS
 10
10.239564358
 20
28.8422131373
 11
10.6438692163
 21
28.6087725792
  0
LINE
  5
6A2
100
AcDbEntity
  8
DRAFT
100
AcDbLine
 62
7
  6
CONTINUOUS
 10
13.2801235171
 20
27.086632386
 11
13.6844283754
 21
26.8531918279
  0
LINE
  5
6A3
100
AcDbEntity
  8
ASSI
100
AcDbLine
 62
7
  6
CONTINUOUS
 10
13.2801235171
 20
27.086632386
 11
13.6844283754
 21
26.8531918279
  0
LINE
  5
6A4
100
AcDbEntity
  8
DRAFT
100
AcDbLine
 62
7
  6
CONTINUOUS
 10
16.3206826762
 20
25.3310516347
 11
16.7249875345
 21
25.0976110766
  0
LINE
  5
6A5
100
AcDbEntity
  8
ASSI
100
AcDbLine
 62
7
  6
CONTINUOUS
 10
16.3206826762
 20
25.3310516347
 11
16.7249875345
 21
25.0976110766
  0
LINE
  5
6A6
100
AcDbEntity
  8
DRAFT
100
AcDbLine
 62
7
  6
CONTINUOUS
 10
11.2909682887
 20
29.4599694649
 11
11.7232039303
 21
29.2104020226
  0
LINE
  5
6A7
100
AcDbEntity
  8
ASSI
100
AcDbLine
 62
7
  6
CONTINUOUS
 10
11.2909682887
 20
29.4599694649
 11
11.7232039303
 21
29.2104020226
  0
LINE
  5
6A8
100
AcDbEntity
  8
DRAFT
100
AcDbLine
 62
7
  6
CONTINUOUS
 10
14.3315274478
 20
27.7043887136
 11
14.7637630894
 21
27.4548212713
  0
LINE
  5
6A9
100
AcDbEntity
  8
ASSI
100
AcDbLine
 62
7
  6
CONTINUOUS
 10
14.3315274478
 20
27.7043887136
 11
14.7637630894
 21
27.4548212713
  0
LINE
  5
6AA
100
AcDbEntity
  8
DRAFT
100
AcDbLine
 62
7
  6
CONTINUOUS
 10
17.3720866069
 20
25.9488079623
 11
17.8043222485
 21
25.69924052
  0
LINE
  5
6AB
100
AcDbEntity
  8
ASSI
100
AcDbLine
 62
7
  6
CONTINUOUS
 10
17.3720866069
 20
25.9488079623
 11
17.8043222485
 21
25.69924052
  0
LINE
  5
6AC
100
AcDbEntity
  8
RACCORDO
100
AcDbLine
 62
7
  6
CONTINUOUS
 10
8.0633523352
 20
32.5531026307
 11
11.1014564558
 21
30.7989393878
  0
LINE
  5
6AD
100
AcDbEntity
  8
ASSI
100
AcDbLine
 62
7
  6
CONTINUOUS
 10
8.0633523352
 20
32.5531026307
 11
11.1014564558
 21
30.7989393878
  0
LINE
  5
6AE
100
AcDbEntity
  8
SMUSSO
100
AcDbLine
 62
7
  6
CONTINUOUS
 10
12.8067018501
 20
29.8143520689
 11
14.1420156149
 21
29.0433586365
  0
LINE
  5
6AF
100
AcDbEntity
  8
ASSI
100
AcDbLine
 62
7
  6
CONTINUOUS
 10
12.8067018501
 20
29.8143520689
 11
14.1420156149
 21
29.0433586365
  0
LINE
  5
6B0
100
AcDbEntity
  8
SMUSSO
100
AcDbLine
 62
7
  6
CONTINUOUS
 10
15.8472610092
 20
28.0587713176
 11
17.182574774
 21
27.2877778852
  0
LINE
  5
6B1
100
AcDbEntity
  8
ASSI
100
AcDbLine
 62
7
  6
CONTINUOUS
 10
15.8472610092
 20
28.0587713176
 11
17.182574774
 21
27.2877778852
  0
LINE
  5
6B2
100
AcDbEntity
  8
RACCORDO
100
AcDbLine
 62
7
  6
CONTINUOUS
 10
18.8878201684
 20
26.3031905663
 11
19.3803398767
 21
26.0188158594
  0
LINE
  5
6B3
100
AcDbEntity
  8
ASSI
100
AcDbLine
 62
7
  6
CONTINUOUS
 10
18.8878201684
 20
26.3031905663
 11
19.3803398767
 21
26.0188158594
  0
LWPOLYLINE
  5
6B4
100
AcDbEntity
  8
RACCORDO
100
AcDbPolyline
 62
7
  6
CONTINUOUS
 90
7
 70
0
 10
20.8262094027
 20
23.5398633437
 10
20.6438236352
 20
23.9028189045
 10
20.4583666091
 20
24.2641023511
 10
20.2698383242
 20
24.6237136834
 10
20.0782387807
 20
24.9816529015
 10
19.8835679784
 20
25.3379200054
 10
19.6858259175
 20
25.692514995
  0
LWPOLYLINE
  5
6B5
100
AcDbEntity
  8
ASSI
100
AcDbPolyline
 62
7
  6
CONTINUOUS
 90
7
 70
0
 10
20.8262094027
 20
23.5398633437
 10
20.6438236352
 20
23.9028189045
 10
20.4583666091
 20
24.2641023511
 10
20.2698383242
 20
24.6237136834
 10
20.0782387807
 20
24.9816529015
 10
19.8835679784
 20
25.3379200054
 10
19.6858259175
 20
25.692514995
  0
LWPOLYLINE
  5
6B6
100
AcDbEntity
  8
0
100
AcDbPolyline
 62
250
  6
CONTINUOUS
 90
9
 70
0
 10
10.2278777634
 20
-33.8271434919
 10
10.2424860364
 20
-33.8188792043
 10
10.2660773213
 20
-33.8009411193
 10
10.2874396932
 20
-33.7780700569
 10
10.3059805148
 20
-33.7503217938
 10
10.3213006966
 20
-33.7176579634
 10
10.3329580962
 20
-33.6801534931
 10
10.3405012125
 20
-33.638036173
 10
10.3435223893
 20
-33.5916227638
  0
LWPOLYLINE
  5
6B7
100
AcDbEntity
  8
0
100
AcDbPolyline
 62
250
  6
CONTINUOUS
 90
9
 70
0
 10
10.047191687
 20
-33.757744699
 10
10.0650513976
 20
-33.7485480611
 10
10.0811938959
 20
-33.7360162976
 10
10.095792584
 20
-33.7200584101
 10
10.1086740598
 20
-33.700765397
 10
10.11895014
 20
-33.6781664486
 10
10.1263247634
 20
-33.652271295
 10
10.1310939913
 20
-33.6230702061
 10
10.1332578235
 20
-33.5905631819
  0
LINE
  5
6B8
100
AcDbEntity
  8
0
100
AcDbLine
 62
250
  6
CONTINUOUS
 10
10.3435225962
 20
-33.5916226607
 11
10.7411031714
 21
-33.3935872205
  0
LINE
  5
6B9
100
AcDbEntity
  8
0
100
AcDbLine
 62
7
  6
CONTINUOUS
 10
10.2273655644
 20
-33.8273996947
 11
10.628474736
 21
-33.6276066557
  0
LWPOLYLINE
  5
6BA
100
AcDbEntity
  8
RACCORDO
100
AcDbPolyline
 62
250
  6
CONTINUOUS
 90
13
 70
0
 10
1.8766364294
 20
-37.020500982
 10
1.8273518051
 20
-37.0422151854
 10
1.7730801263
 20
-37.0601018119
 10
1.7147294733
 20
-37.0738615803
 10
1.6532761765
 20
-37.0832642605
 10
1.58974848
 20
-37.0881525258
 10
1.5252093369
 20
-37.088444585
 10
1.460738624
 20
-37.0841355514
 10
1.3974150732
 20
-37.0752975242
 10
1.3362982219
 20
-37.0620783824
 10
1.2784106847
 20
-37.0446993102
 10
1.2247210432
 20
-37.0234510963
 10
1.1761276388
 20
-36.9986892681
  0
LINE
  5
6BB
100
AcDbEntity
  8
RACCORDO
100
AcDbLine
 62
250
  6
CONTINUOUS
 10
2.195800293
 20
-37.2674511591
 11
6.552940076
 21
-35.401851952
  0
LINE
  5
6BC
100
AcDbEntity
  8
RACCORDO
100
AcDbLine
 62
7
  6
CONTINUOUS
 10
6.4073107832
 20
-35.6523504336
 11
2.0449476305
 21
-37.5201858334
  0
LWPOLYLINE
  5
6BD
100
AcDbEntity
  8
RACCORDO
100
AcDbPolyline
 62
7
  6
CONTINUOUS
 90
13
 70
0
 10
19.3803398767
 20
26.0188158594
 10
19.4086672747
 20
26.0013883716
 10
19.4367323997
 20
25.9819367611
 10
19.4645352516
 20
25.9604610281
 10
19.492243061
 20
25.9368173649
 10
19.5196885974
 20
25.9111495791
 10
19.5463701691
 20
25.8838890934
 10
19.5722533992
 20
25.8550029498
 10
19.5973726646
 20
25.8245241064
 10
19.6213294052
 20
25.7929828595
 10
19.6439907675
 20
25.7605559748
 10
19.665489605
 20
25.7270666866
 10
19.6858259175
 20
25.692514995
  0
LWPOLYLINE
  5
6BE
100
AcDbEntity
  8
ASSI
100
AcDbPolyline
 62
7
  6
CONTINUOUS
 90
13
 70
0
 10
19.3803398767
 20
26.0188158594
 10
19.4086672747
 20
26.0013883716
 10
19.4367323997
 20
25.9819367611
 10
19.4645352516
 20
25.9604610281
 10
19.492243061
 20
25.9368173649
 10
19.5196885974
 20
25.9111495791
 10
19.5463701691
 20
25.8838890934
 10
19.5722533992
 20
25.8550029498
 10
19.5973726646
 20
25.8245241064
 10
19.6213294052
 20
25.7929828595
 10
19.6439907675
 20
25.7605559748
 10
19.665489605
 20
25.7270666866
 10
19.6858259175
 20
25.692514995
  0
ARC
  5
6BF
100
AcDbEntity
  8
0
100
AcDbCircle
 62
7
  6
CONTINUOUS
 10
-13.4775902696
 20
19.3250745242
 40
0.2
100
AcDbArc
 50
60.0028004914
 51
118.4316564299
  0
ARC
  5
6C0
100
AcDbEntity
  8
IMPORT_IGES
100
AcDbCircle
 62
7
  6
CONTINUOUS
 10
10.3093487799
 20
13.9822195372
 40
0.1
100
AcDbArc
 50
0.0
 51
24.1851312374
  0
ELLIPSE
  5
6C1
100
AcDbEntity
  8
0
100
AcDbEllipse
 62
7
  6
CONTINUOUS
 10
-20.5851532942
 20
20.4141027302
 30
0.0
 11
-0.2500882309
 21
0.4331376414
 31
0.0
 40
0.5771558487
 41
-0.7852941622
 42
0.0174472731
  0
ELLIPSE
  5
6C2
100
AcDbEntity
  8
0
100
AcDbEllipse
 62
7
  6
CONTINUOUS
 10
-5.5238865671
 20
11.717916084
 30
0.0
 11
-0.2500120911
 21
0.4330057209
 31
0.0
 40
0.5775075436
 41
-2.2981025644
 42
-0.7855988075
  0
ELLIPSE
  5
6C3
100
AcDbEntity
  8
0
100
AcDbEllipse
 62
7
  6
CONTINUOUS
 10
-9.497746975
 20
16.6865334412
 30
0.0
 11
-0.1001267379
 21
0.173202296
 31
0.0
 40
0.577331421
 41
-1.0687329456
 42
-0.7860558137
  0
ELLIPSE
  5
6C4
100
AcDbEntity
  8
0
100
AcDbEllipse
 62
7
  6
CONTINUOUS
 10
-13.7828657615
 20
19.1607073234
 30
0.0
 11
-0.1001267379
 21
0.173202296
 31
0.0
 40
0.577331421
 41
-0.7860558137
 42
-0.5033786817
  0
ELLIPSE
  5
6C5
100
AcDbEntity
  8
0
100
AcDbEllipse
 62
7
  6
CONTINUOUS
 10
10.3874959247
 20
-33.1890454391
 30
0.0
 11
-0.2498600223
 21
0.43379745
 31
0.0
 40
0.5768037941
 41
-3.1764863044
 42
-2.355482613
  0
ELLIPSE
  5
6C6
100
AcDbEntity
  8
0
100
AcDbEllipse
 62
7
  6
CONTINUOUS
 10
10.3874959247
 20
2.5712322047
 30
0.0
 11
-0.2496303025
 21
0.4334023309
 31
0.0
 40
0.5778584463
 41
-2.3545649475
 42
-0.7846820092
  0
ELLIPSE
  5
6C7
100
AcDbEntity
  8
0
100
AcDbEllipse
 62
7
  6
CONTINUOUS
 10
-4.6737708023
 20
11.267418851
 30
0.0
 11
-0.2498600223
 21
0.43379745
 31
0.0
 40
0.5768037941
 41
-0.7837728977
 42
0.0348936515
  0
ELLIPSE
  5
6C8
100
AcDbEntity
  8
RACCORDO
100
AcDbEllipse
 62
7
  6
CONTINUOUS
 10
4.5776808045
 20
5.5026999254
 30
0.0
 11
0.0974277822
 21
0.1746820465
 31
0.0
 40
0.5671693725
 41
0.8293790667
 42
2.2256424683
  0
ELLIPSE
  5
6C9
100
AcDbEntity
  8
RACCORDO
100
AcDbEllipse
 62
7
  6
CONTINUOUS
 10
0.0361835587
 20
8.1249035168
 30
0.0
 11
0.1026656474
 21
0.17165654
 31
0.0
 40
0.5873179545
 41
0.846842987
 42
2.2431063886
  0
ELLIPSE
  5
6CA
100
AcDbEntity
  8
ASSI
100
AcDbEllipse
 62
7
  6
CONTINUOUS
 10
-1.8078977582
 20
8.1460029553
 30
0.0
 11
-0.1967987478
 21
0.4619779435
 31
0.0
 40
0.6426901439
 41
-3.0636580277
 42
0.0779346259
  0
ELLIPSE
  5
6CB
100
AcDbEntity
  8
ASSI
100
AcDbEllipse
 62
7
  6
CONTINUOUS
 10
5.9702768349
 20
3.6549824287
 30
0.0
 11
-0.1967987478
 21
0.4619779435
 31
0.0
 40
0.6426901439
 41
3.2195272795
 42
6.3611199331
  0
ELLIPSE
  5
6CC
100
AcDbEntity
  8
RACCORDO
100
AcDbEllipse
 62
7
  6
CONTINUOUS
 10
8.0240288444
 20
-29.2815073363
 30
0.0
 11
-0.4657599682
 21
0.6589874682
 31
0.0
 40
0.5004821238
 41
-3.2181310412
 42
-2.3985276257
  0
ELLIPSE
  5
6CD
100
AcDbEntity
  8
DRAFT
100
AcDbEllipse
 62
7
  6
CONTINUOUS
 10
16.7025496588
 20
1.5142795135
 30
0.0
 11
1.0364148088
 21
1.8264749765
 31
0.0
 40
0.5722717666
 41
3.4005887847
 42
3.9140246592
  0
ELLIPSE
  5
6CE
100
AcDbEntity
  8
DRAFT
100
AcDbEllipse
 62
7
  6
CONTINUOUS
 10
16.7025496588
 20
5.5966308975
 30
0.0
 11
1.0364148088
 21
1.8264749765
 31
0.0
 40
0.5722717666
 41
3.4005887847
 42
3.9140246592
  0
ELLIPSE
  5
6CF
100
AcDbEntity
  8
DRAFT
100
AcDbEllipse
 62
7
  6
CONTINUOUS
 10
16.7025496588
 20
9.6789822815
 30
0.0
 11
1.0364148088
 21
1.8264749765
 31
0.0
 40
0.5722717666
 41
3.4005887847
 42
3.9140246592
  0
ELLIPSE
  5
6D0
100
AcDbEntity
  8
DRAFT
100
AcDbEllipse
 62
7
  6
CONTINUOUS
 10
16.7025496588
 20
13.7613336654
 30
0.0
 11
1.0364148088
 21
1.8264749765
 31
0.0
 40
0.5722717666
 41
3.4005887847
 42
3.9140246592
  0
ELLIPSE
  5
6D1
100
AcDbEntity
  8
DRAFT
100
AcDbEllipse
 62
7
  6
CONTINUOUS
 10
16.7025496588
 20
17.8436850494
 30
0.0
 11
1.0364148088
 21
1.8264749765
 31
0.0
 40
0.5722717666
 41
3.4005887847
 42
3.9140246592
  0
ELLIPSE
  5
6D2
100
AcDbEntity
  8
DRAFT
100
AcDbEllipse
 62
7
  6
CONTINUOUS
 10
-16.0539846204
 20
18.2763178431
 30
0.0
 11
0.094929149
 21
0.1761023365
 31
0.0
 40
0.5568425968
 41
0.7866234057
 42
2.33996644
  0
ELLIPSE
  5
6D3
100
AcDbEntity
  8
DRAFT
100
AcDbEllipse
 62
7
  6
CONTINUOUS
 10
-10.7445110032
 20
15.6364488195
 30
0.0
 11
0.3689546588
 21
0.5951320477
 31
0.0
 40
0.5971151412
 41
-3.1228291748
 42
-2.3548843039
  0
ELLIPSE
  5
6D4
100
AcDbEntity
  8
DRAFT
100
AcDbEllipse
 62
7
  6
CONTINUOUS
 10
-16.0539846204
 20
18.1246930217
 30
0.0
 11
0.094929149
 21
0.1761023365
 31
0.0
 40
0.5568425968
 41
-3.9432188672
 42
-3.1578207038
  0
ELLIPSE
  5
6D5
100
AcDbEntity
  8
RACCORDO
100
AcDbEllipse
 62
7
  6
CONTINUOUS
 10
20.9265391605
 20
1.3652734164
 30
0.0
 11
-0.1500358188
 21
0.2597935388
 31
0.0
 40
0.5774195892
 41
-2.3562809449
 42
-0.7856369171
  0
ELLIPSE
  5
6D6
100
AcDbEntity
  8
RACCORDO
100
AcDbEllipse
 62
7
  6
CONTINUOUS
 10
20.9265391605
 20
5.3592948721
 30
0.0
 11
-0.1500586486
 21
0.259833121
 31
0.0
 40
0.5772437351
 41
-3.1285044957
 42
-2.3564331449
  0
ELLIPSE
  5
6D7
100
AcDbEntity
  8
RACCORDO
100
AcDbEllipse
 62
7
  6
CONTINUOUS
 10
20.9265391605
 20
5.4476248004
 30
0.0
 11
-0.1500358188
 21
0.2597935388
 31
0.0
 40
0.5774195892
 41
-2.3562809449
 42
-0.7856369171
  0
ELLIPSE
  5
6D8
100
AcDbEntity
  8
RACCORDO
100
AcDbEllipse
 62
7
  6
CONTINUOUS
 10
20.9265391605
 20
9.441646256
 30
0.0
 11
-0.1500586486
 21
0.259833121
 31
0.0
 40
0.5772437351
 41
-3.1285044957
 42
-2.3564331449
  0
ELLIPSE
  5
6D9
100
AcDbEntity
  8
RACCORDO
100
AcDbEllipse
 62
7
  6
CONTINUOUS
 10
20.9265391605
 20
9.5299761843
 30
0.0
 11
-0.1500358188
 21
0.2597935388
 31
0.0
 40
0.5774195892
 41
-2.3562809449
 42
-0.7856369171
  0
ELLIPSE
  5
6DA
100
AcDbEntity
  8
RACCORDO
100
AcDbEllipse
 62
7
  6
CONTINUOUS
 10
20.9265391605
 20
13.52399764
 30
0.0
 11
-0.1500586486
 21
0.259833121
 31
0.0
 40
0.5772437351
 41
-3.1285044957
 42
-2.3564331449
  0
ELLIPSE
  5
6DB
100
AcDbEntity
  8
RACCORDO
100
AcDbEllipse
 62
7
  6
CONTINUOUS
 10
20.9265391605
 20
13.6123275683
 30
0.0
 11
-0.1500358188
 21
0.2597935388
 31
0.0
 40
0.5774195892
 41
-2.3562809449
 42
-0.7856369171
  0
ELLIPSE
  5
6DC
100
AcDbEntity
  8
RACCORDO
100
AcDbEllipse
 62
7
  6
CONTINUOUS
 10
20.9265391605
 20
17.606349024
 30
0.0
 11
-0.1500586486
 21
0.259833121
 31
0.0
 40
0.5772437351
 41
-3.1285044957
 42
-2.3564331449
  0
ELLIPSE
  5
6DD
100
AcDbEntity
  8
RACCORDO
100
AcDbEllipse
 62
7
  6
CONTINUOUS
 10
20.9265391605
 20
17.6946789523
 30
0.0
 11
-0.1500358188
 21
0.2597935388
 31
0.0
 40
0.5774195892
 41
-2.3562809449
 42
-0.7856369171
  0
ELLIPSE
  5
6DE
100
AcDbEntity
  8
RACCORDO
100
AcDbEllipse
 62
7
  6
CONTINUOUS
 10
20.9265391605
 20
21.6887004079
 30
0.0
 11
-0.1500586486
 21
0.259833121
 31
0.0
 40
0.5772437351
 41
-3.1285044957
 42
-2.3564331449
  0
ELLIPSE
  5
6DF
100
AcDbEntity
  8
DRAFT
100
AcDbEllipse
 62
7
  6
CONTINUOUS
 10
-11.1864260908
 20
15.4658505529
 30
0.0
 11
0.1054156168
 21
0.1700377279
 31
0.0
 40
0.5971151412
 41
0.8216149347
 42
2.374957969
  0
ELLIPSE
  5
6E0
100
AcDbEntity
  8
DRAFT
100
AcDbEllipse
 62
7
  6
CONTINUOUS
 10
-11.1864260908
 20
15.3142257316
 30
0.0
 11
0.1054156168
 21
0.1700377279
 31
0.0
 40
0.5971151412
 41
-3.9082273382
 42
-3.1228291748
  0
ELLIPSE
  5
6E1
100
AcDbEntity
  8
RACCORDO
100
AcDbEllipse
 62
7
  6
CONTINUOUS
 10
-5.5455907521
 20
17.1956866634
 30
0.0
 11
0.1897722078
 21
0.4666129278
 31
0.0
 40
0.4621659175
 41
-0.0637487301
 42
0.7041961408
  0
ELLIPSE
  5
6E2
100
AcDbEntity
  8
ASSI
100
AcDbEllipse
 62
7
  6
CONTINUOUS
 10
20.9265391605
 20
1.3652734164
 30
0.0
 11
-0.1500358188
 21
0.2597935388
 31
0.0
 40
0.5774195892
 41
-2.3562809449
 42
-0.7856369171
  0
ELLIPSE
  5
6E3
100
AcDbEntity
  8
ASSI
100
AcDbEllipse
 62
7
  6
CONTINUOUS
 10
20.9265391605
 20
5.3592948721
 30
0.0
 11
-0.1500586486
 21
0.259833121
 31
0.0
 40
0.5772437351
 41
-3.1285044957
 42
-2.3564331449
  0
ELLIPSE
  5
6E4
100
AcDbEntity
  8
ASSI
100
AcDbEllipse
 62
7
  6
CONTINUOUS
 10
20.9265391605
 20
5.4476248004
 30
0.0
 11
-0.1500358188
 21
0.2597935388
 31
0.0
 40
0.5774195892
 41
-2.3562809449
 42
-0.7856369171
  0
ELLIPSE
  5
6E5
100
AcDbEntity
  8
ASSI
100
AcDbEllipse
 62
7
  6
CONTINUOUS
 10
20.9265391605
 20
9.441646256
 30
0.0
 11
-0.1500586486
 21
0.259833121
 31
0.0
 40
0.5772437351
 41
-3.1285044957
 42
-2.3564331449
  0
ELLIPSE
  5
6E6
100
AcDbEntity
  8
ASSI
100
AcDbEllipse
 62
7
  6
CONTINUOUS
 10
20.9265391605
 20
9.5299761843
 30
0.0
 11
-0.1500358188
 21
0.2597935388
 31
0.0
 40
0.5774195892
 41
-2.3562809449
 42
-0.7856369171
  0
ELLIPSE
  5
6E7
100
AcDbEntity
  8
ASSI
100
AcDbEllipse
 62
7
  6
CONTINUOUS
 10
20.9265391605
 20
13.52399764
 30
0.0
 11
-0.1500586486
 21
0.259833121
 31
0.0
 40
0.5772437351
 41
-3.1285044957
 42
-2.3564331449
  0
ELLIPSE
  5
6E8
100
AcDbEntity
  8
ASSI
100
AcDbEllipse
 62
7
  6
CONTINUOUS
 10
20.9265391605
 20
13.6123275683
 30
0.0
 11
-0.1500358188
 21
0.2597935388
 31
0.0
 40
0.5774195892
 41
-2.3562809449
 42
-0.7856369171
  0
ELLIPSE
  5
6E9
100
AcDbEntity
  8
ASSI
100
AcDbEllipse
 62
7
  6
CONTINUOUS
 10
20.9265391605
 20
17.606349024
 30
0.0
 11
-0.1500586486
 21
0.259833121
 31
0.0
 40
0.5772437351
 41
-3.1285044957
 42
-2.3564331449
  0
ELLIPSE
  5
6EA
100
AcDbEntity
  8
ASSI
100
AcDbEllipse
 62
7
  6
CONTINUOUS
 10
20.9265391605
 20
17.6946789523
 30
0.0
 11
-0.1500358188
 21
0.2597935388
 31
0.0
 40
0.5774195892
 41
-2.3562809449
 42
-0.7856369171
  0
ELLIPSE
  5
6EB
100
AcDbEntity
  8
ASSI
100
AcDbEllipse
 62
7
  6
CONTINUOUS
 10
20.9265391605
 20
21.6887004079
 30
0.0
 11
-0.1500586486
 21
0.259833121
 31
0.0
 40
0.5772437351
 41
-3.1285044957
 42
-2.3564331449
  0
ELLIPSE
  5
6EC
100
AcDbEntity
  8
ASSI
100
AcDbEllipse
 62
7
  6
CONTINUOUS
 10
-16.0539846204
 20
18.1246930217
 30
0.0
 11
0.094929149
 21
0.1761023365
 31
0.0
 40
0.5568425968
 41
-3.9432188672
 42
-3.1578207038
  0
ELLIPSE
  5
6ED
100
AcDbEntity
  8
ASSI
100
AcDbEllipse
 62
7
  6
CONTINUOUS
 10
-10.7445110032
 20
15.6364488195
 30
0.0
 11
0.3689546588
 21
0.5951320477
 31
0.0
 40
0.5971151412
 41
-3.1228291748
 42
-2.3548843039
  0
ELLIPSE
  5
6EE
100
AcDbEntity
  8
ASSI
100
AcDbEllipse
 62
7
  6
CONTINUOUS
 10
-16.0539846204
 20
18.2763178431
 30
0.0
 11
0.094929149
 21
0.1761023365
 31
0.0
 40
0.5568425968
 41
0.7866234057
 42
2.33996644
  0
ELLIPSE
  5
6EF
100
AcDbEntity
  8
ASSI
100
AcDbEllipse
 62
7
  6
CONTINUOUS
 10
16.7025496588
 20
17.8436850494
 30
0.0
 11
1.0364148088
 21
1.8264749765
 31
0.0
 40
0.5722717666
 41
3.4005887847
 42
3.9140246592
  0
ELLIPSE
  5
6F0
100
AcDbEntity
  8
ASSI
100
AcDbEllipse
 62
7
  6
CONTINUOUS
 10
16.7025496588
 20
13.7613336654
 30
0.0
 11
1.0364148088
 21
1.8264749765
 31
0.0
 40
0.5722717666
 41
3.4005887847
 42
3.9140246592
  0
ELLIPSE
  5
6F1
100
AcDbEntity
  8
ASSI
100
AcDbEllipse
 62
7
  6
CONTINUOUS
 10
16.7025496588
 20
9.6789822815
 30
0.0
 11
1.0364148088
 21
1.8264749765
 31
0.0
 40
0.5722717666
 41
3.4005887847
 42
3.9140246592
  0
ELLIPSE
  5
6F2
100
AcDbEntity
  8
ASSI
100
AcDbEllipse
 62
7
  6
CONTINUOUS
 10
16.7025496588
 20
5.5966308975
 30
0.0
 11
1.0364148088
 21
1.8264749765
 31
0.0
 40
0.5722717666
 41
3.4005887847
 42
3.9140246592
  0
ELLIPSE
  5
6F3
100
AcDbEntity
  8
ASSI
100
AcDbEllipse
 62
7
  6
CONTINUOUS
 10
16.7025496588
 20
1.5142795135
 30
0.0
 11
1.0364148088
 21
1.8264749765
 31
0.0
 40
0.5722717666
 41
3.4005887847
 42
3.9140246592
  0
ELLIPSE
  5
6F4
100
AcDbEntity
  8
ASSI
100
AcDbEllipse
 62
7
  6
CONTINUOUS
 10
-5.5455907521
 20
17.1956866634
 30
0.0
 11
0.1897722078
 21
0.4666129278
 31
0.0
 40
0.4621659175
 41
-0.0637487301
 42
0.7041961408
  0
ELLIPSE
  5
6F5
100
AcDbEntity
  8
ASSI
100
AcDbEllipse
 62
7
  6
CONTINUOUS
 10
-11.1864260908
 20
15.3142257316
 30
0.0
 11
0.1054156168
 21
0.1700377279
 31
0.0
 40
0.5971151412
 41
-3.9082273382
 42
-3.1228291748
  0
ELLIPSE
  5
6F6
100
AcDbEntity
  8
ASSI
100
AcDbEllipse
 62
7
  6
CONTINUOUS
 10
-11.1864260908
 20
15.4658505529
 30
0.0
 11
0.1054156168
 21
0.1700377279
 31
0.0
 40
0.5971151412
 41
0.8216149347
 42
2.374957969
  0
ELLIPSE
  5
6F7
100
AcDbEntity
  8
RACCORDO
100
AcDbEllipse
 62
7
  6
CONTINUOUS
 10
-21.9281780898
 20
18.8121319442
 30
0.0
 11
-0.2150682679
 21
0.4516499944
 31
0.0
 40
0.625161676
 41
-0.7374440818
 42
0.0249272352
  0
ELLIPSE
  5
6F8
100
AcDbEntity
  8
RACCORDO
100
AcDbEllipse
 62
7
  6
CONTINUOUS
 10
8.8308591796
 20
1.0522493262
 30
0.0
 11
-0.2149300551
 21
0.4514638951
 31
0.0
 40
0.6257305402
 41
-2.3081408118
 42
-0.7378013358
  0
ELLIPSE
  5
6F9
100
AcDbEntity
  8
RACCORDO
100
AcDbEllipse
 62
7
  6
CONTINUOUS
 10
6.1993469116
 20
-35.197489572
 30
0.0
 11
-0.2150682679
 21
0.4516499944
 31
0.0
 40
0.625161676
 41
-3.1665198758
 42
-2.3086972593
  0
ENDSEC
  0
SECTION
  2
OBJECTS
  0
DICTIONARY
  5
C
100
AcDbDictionary
280
0
281
1
  3
ACAD_GROUP
350
D
  3
ACAD_MLINESTYLE
350
17
  3
ACAD_LAYOUT
350
1A
  3
ACAD_PLOTSETTINGS
350
19
  3
ACAD_PLOTSTYLENAME
350
E
  0
DICTIONARY
  5
D
102
{ACAD_REACTORS
330
C
102
}
100
AcDbDictionary
280
0
281
1
  0
ACDBDICTIONARYWDFLT
  5
E
102
{ACAD_REACTORS
330
C
102
}
100
AcDbDictionary
281
1
  3
Normal
350
F
100
AcDbDictionaryWithDefault
340
F
  0
DICTIONARY
  5
17
102
{ACAD_REACTORS
330
C
102
}
100
AcDbDictionary
280
0
281
1
  3
Standard
350
18
  0
DICTIONARY
  5
19
102
{ACAD_REACTORS
330
C
102
}
100
AcDbDictionary
281
1
  0
DICTIONARY
  5
1A
102
{ACAD_REACTORS
330
C
102
}
100
AcDbDictionary
281
1
  3
Model
350
6FA
  3
Layout1
350
6FB
  0
ACDBPLACEHOLDER
  5
F
102
{ACAD_REACTORS
330
E
102
}
  0
MLINESTYLE
  5
18
102
{ACAD_REACTORS
330
17
102
}
100
AcDbMlineStyle
  2
STANDARD
 70
0
  3

 62
256
 51
90.0
 52
90.0
 71
2
 49
0.5
 62
256
  6
BYLAYER
 49
-0.5
 62
256
  6
BYLAYER
  0
LAYOUT
  5
6FA
102
{ACAD_REACTORS
330
1A
102
}
100
AcDbPlotSettings
  1

  2
none_device
  4
ISO_A3_(420.00_x_297.00_MM)
  6

 40
0.0
 41
0.0
 42
0.0
 43
0.0
 44
420.0
 45
297.0
 46
0.0
 47
0.0
 48
0.0
 49
0.0
140
0.0
141
0.0
142
1.0
143
1.0
 70
1024
 72
1
 73
0
 74
0
  7

 75
0
147
1.0
148
0.0
149
0.0
100
AcDbLayout
  1
Model
 70
0
 71
0
 10
0.0
 20
0.0
 11
420.0
 21
297.0
 12
0.0
 22
0.0
 32
0.0
 14
0.0
 24
0.0
 34
0.0
 15
0.0
 25
0.0
 35
0.0
146
0.0
 13
0.0
 23
0.0
 33
0.0
 16
1.0
 26
0.0
 36
0.0
 17
0.0
 27
1.0
 37
0.0
 76
0
330
2AE
345
0
346
0
  0
LAYOUT
  5
6FB
102
{ACAD_REACTORS
330
1A
102
}
100
AcDbPlotSettings
  1

  2
none_device
  4
ISO_A3_(420.00_x_297.00_MM)
  6

 40
0.0
 41
0.0
 42
0.0
 43
0.0
 44
420.0
 45
297.0
 46
0.0
 47
0.0
 48
0.0
 49
0.0
140
0.0
141
0.0
142
1.0
143
1.0
 70
0
 72
1
 73
0
 74
0
  7

 75
0
147
1.0
148
0.0
149
0.0
100
AcDbLayout
  1
Layout1
 70
0
 71
1
 10
0.0
 20
0.0
 11
420.0
 21
297.0
 12
0.0
 22
0.0
 32
0.0
 14
0.0
 24
0.0
 34
0.0
 15
0.0
 25
0.0
 35
0.0
146
0.0
 13
0.0
 23
0.0
 33
0.0
 16
1.0
 26
0.0
 36
0.0
 17
0.0
 27
1.0
 37
0.0
 76
0
330
2AF
345
0
346
0
  0
ENDSEC
  0
EOF
