  0
SECTION
  2
HEADER
  9
$ACADVER
  1
AC1024
  9
$DWGCODEPAGE
  3
ANSI_1252
  9
$EXTMAX
 10
297.0
 20
210.0
 30
0.0
  9
$EXTMIN
 10
0.0
 20
0.0
 30
0.0
  9
$LIMMIN
 10
0.0
 20
0.0
  9
$LIMMAX
 10
297.0
 20
210.0
  9
$VIEWCTR
 10
148.5
 20
105.0
  9
$VIEWSIZE
 40
210.0
  9
$CLAYER
  8
0
  9
$LTSCALE
 40
16.335
  9
$CELTYPE
  6
BYLAYER
  9
$DIMSCALE
 40
1.0
  9
$DIMASZ
 40
3.0
  9
$DIMEXO
 40
0.5
  9
$DIMDLI
 40
11.286
  9
$DIMEXE
 40
1.5
  9
$DIMCEN
 40
2.673
  9
$DIMLFAC
 40
1.0
  9
$DIMBLK
  1
_FILLED
  9
$DIMALT
 70
0
  9
$DIMALTF
 40
0.0393700787
  9
$DIMTXT
 40
3.0
  9
$DIMTOL
 70
1
  9
$DIMLIM
 70
0
  9
$DIMTFAC
 40
1.0
  9
$DIMTP
 40
0.01
  9
$DIMTM
 40
0.01
  9
$DIMGAP
 40
0.625
  9
$DIMDSEP
 70
44
  9
$AUNITS
 70
0
  9
$PDMODE
 70
3
  9
$PDSIZE
 40
3.0
  9
$HANDSEED
  5
5FF
  9
$TILEMODE
 70
1
  9
$MEASUREMENT
 70
1
  9
$INSUNITS
 70
4
  0
ENDSEC
  0
SECTION
  2
CLASSES
  0
CLASS
  1
ACDBDICTIONARYWDFLT
  2
AcDbDictionaryWithDefault
  3
AutoCAD 2000
 90
0
 91
1
280
0
281
0
  0
CLASS
  1
ACDBPLACEHOLDER
  2
AcDbPlaceHolder
  3
AutoCAD 2000
 90
0
 91
1
280
0
281
0
  0
CLASS
  1
LAYOUT
  2
AcDbLayout
  3
AutoCAD 2000
 90
0
 91
0
280
0
281
0
  0
ENDSEC
  0
SECTION
  2
TABLES
  0
TABLE
  2
VPORT
  5
8
100
AcDbSymbolTable
 70
2
  0
VPORT
  5
1F4
100
AcDbSymbolTableRecord
100
AcDbViewportTableRecord
  2
*ACTIVE
 70
0
 10
0.0
 20
0.0
 11
1.0
 21
1.0
 12
148.5
 22
105.0
 13
0.0
 23
0.0
 14
1.0
 24
1.0
 15
0.0
 25
0.0
 16
0.0
 26
0.0
 36
1.0
 17
0.0
 27
0.0
 37
0.0
 40
210.0
 41
1.4142857143
 42
50.0
 43
0.0
 44
0.0
 50
0.0
 51
0.0
 71
0
 72
100
 73
1
 74
1
 75
0
 76
0
 77
0
 78
0
  0
ENDTAB
  0
TABLE
  2
LTYPE
  5
5
100
AcDbSymbolTable
 70
6
  0
LTYPE
  5
14
100
AcDbSymbolTableRecord
100
AcDbLinetypeTableRecord
  2
BYBLOCK
 70
0
  3

 72
65
 73
0
 40
0.0
  0
LTYPE
  5
15
100
AcDbSymbolTableRecord
100
AcDbLinetypeTableRecord
  2
BYLAYER
 70
0
  3

 72
65
 73
0
 40
0.0
  0
LTYPE
  5
16
100
AcDbSymbolTableRecord
100
AcDbLinetypeTableRecord
  2
CONTINUOUS
 70
64
  3
Solid line
 72
65
 73
0
 40
0.0
  0
LTYPE
  5
1F5
100
AcDbSymbolTableRecord
100
AcDbLinetypeTableRecord
  2
CENTER
 70
64
  3
____ _ ____ _ ____ _ ____ _ ____ _ ____ _ ____
 72
65
 73
4
 40
0.6
 49
0.375
 74
0
 49
-0.075
 74
0
 49
0.075
 74
0
 49
-0.075
 74
0
  0
LTYPE
  5
1F6
100
AcDbSymbolTableRecord
100
AcDbLinetypeTableRecord
  2
HIDDEN
 70
64
  3
- - - - - - - - - - - - - - - - - - - -
 72
65
 73
2
 40
0.2
 49
0.1
 74
0
 49
-0.1
 74
0
  0
LTYPE
  5
1F7
100
AcDbSymbolTableRecord
100
AcDbLinetypeTableRecord
  2
PHANTOM
 70
64
  3
_____ _ _ _____ _ _ _____ _ _ _____
 72
65
 73
6
 40
0.8
 49
0.45
 74
0
 49
-0.05
 74
0
 49
0.1
 74
0
 49
-0.05
 74
0
 49
0.1
 74
0
 49
-0.05
 74
0
  0
LTYPE
  5
1F8
100
AcDbSymbolTableRecord
100
AcDbLinetypeTableRecord
  2
DOT
 70
64
  3
. . . . . . . . . . . . . . . . . . . .
 72
65
 73
2
 40
0.2
 49
0.1
 74
0
 49
-0.1
 74
0
  0
LTYPE
  5
1F9
100
AcDbSymbolTableRecord
100
AcDbLinetypeTableRecord
  2
DASHED
 70
64
  3
- - - - - - - - - - - - - - - - - - - -
 72
65
 73
2
 40
0.2
 49
0.1
 74
0
 49
-0.1
 74
0
  0
ENDTAB
  0
TABLE
  2
LAYER
  5
2
100
AcDbSymbolTable
 70
36
  0
LAYER
  5
10
100
AcDbSymbolTableRecord
100
AcDbLayerTableRecord
  2
0
 70
0
 62
7
  6
CONTINUOUS
370
-3
390
F
  0
LAYER
  5
1FA
100
AcDbSymbolTableRecord
100
AcDbLayerTableRecord
  2
DEFAULT_1
 70
0
 62
7
  6
CENTER
370
-3
390
F
  0
LAYER
  5
1FB
100
AcDbSymbolTableRecord
100
AcDbLayerTableRecord
  2
DEFAULT_2
 70
0
 62
7
  6
HIDDEN
370
-3
390
F
  0
LAYER
  5
1FC
100
AcDbSymbolTableRecord
100
AcDbLayerTableRecord
  2
DEFAULT_3
 70
0
 62
7
  6
PHANTOM
370
-3
390
F
  0
LAYER
  5
1FD
100
AcDbSymbolTableRecord
100
AcDbLayerTableRecord
  2
ASSI
 70
0
 62
7
  6
CONTINUOUS
370
-3
390
F
  0
LAYER
  5
1FE
100
AcDbSymbolTableRecord
100
AcDbLayerTableRecord
  2
COLOR5
 70
0
 62
7
  6
CONTINUOUS
370
-3
390
F
  0
LAYER
  5
1FF
100
AcDbSymbolTableRecord
100
AcDbLayerTableRecord
  2
COORDINATE
 70
0
 62
7
  6
CONTINUOUS
370
-3
390
F
  0
LAYER
  5
200
100
AcDbSymbolTableRecord
100
AcDbLayerTableRecord
  2
COORD_ORIGINE
 70
0
 62
7
  6
CONTINUOUS
370
-3
390
F
  0
LAYER
  5
201
100
AcDbSymbolTableRecord
100
AcDbLayerTableRecord
  2
COPY_PUBLISH
 70
0
 62
7
  6
CONTINUOUS
370
-3
390
F
  0
LAYER
  5
202
100
AcDbSymbolTableRecord
100
AcDbLayerTableRecord
  2
COSMETICI
 70
0
 62
7
  6
CONTINUOUS
370
-3
390
F
  0
LAYER
  5
203
100
AcDbSymbolTableRecord
100
AcDbLayerTableRecord
  2
CURVE
 70
0
 62
7
  6
CONTINUOUS
370
-3
390
F
  0
LAYER
  5
204
100
AcDbSymbolTableRecord
100
AcDbLayerTableRecord
  2
DRAFT
 70
0
 62
7
  6
CONTINUOUS
370
-3
390
F
  0
LAYER
  5
205
100
AcDbSymbolTableRecord
100
AcDbLayerTableRecord
  2
IMPORT_IGES
 70
0
 62
7
  6
CONTINUOUS
370
-3
390
F
  0
LAYER
  5
206
100
AcDbSymbolTableRecord
100
AcDbLayerTableRecord
  2
INTF_11
 70
0
 62
7
  6
CONTINUOUS
370
-3
390
F
  0
LAYER
  5
207
100
AcDbSymbolTableRecord
100
AcDbLayerTableRecord
  2
INTF_2
 70
0
 62
7
  6
CONTINUOUS
370
-3
390
F
  0
LAYER
  5
208
100
AcDbSymbolTableRecord
100
AcDbLayerTableRecord
  2
INTF_8
 70
0
 62
7
  6
CONTINUOUS
370
-3
390
F
  0
LAYER
  5
209
100
AcDbSymbolTableRecord
100
AcDbLayerTableRecord
  2
NOTE
 70
0
 62
7
  6
CONTINUOUS
370
-3
390
F
  0
LAYER
  5
20A
100
AcDbSymbolTableRecord
100
AcDbLayerTableRecord
  2
PIANI
 70
0
 62
7
  6
CONTINUOUS
370
-3
390
F
  0
LAYER
  5
20B
100
AcDbSymbolTableRecord
100
AcDbLayerTableRecord
  2
PIANI_ORIGINE
 70
0
 62
7
  6
CONTINUOUS
370
-3
390
F
  0
LAYER
  5
20C
100
AcDbSymbolTableRecord
100
AcDbLayerTableRecord
  2
PUNTI
 70
0
 62
7
  6
CONTINUOUS
370
-3
390
F
  0
LAYER
  5
20D
100
AcDbSymbolTableRecord
100
AcDbLayerTableRecord
  2
RACCORDO
 70
0
 62
7
  6
CONTINUOUS
370
-3
390
F
  0
LAYER
  5
20E
100
AcDbSymbolTableRecord
100
AcDbLayerTableRecord
  2
SIMBOLI
 70
0
 62
7
  6
CONTINUOUS
370
-3
390
F
  0
LAYER
  5
20F
100
AcDbSymbolTableRecord
100
AcDbLayerTableRecord
  2
SMUSSO
 70
0
 62
7
  6
CONTINUOUS
370
-3
390
F
  0
LAYER
  5
210
100
AcDbSymbolTableRecord
100
AcDbLayerTableRecord
  2
SNAPLINE
 70
0
 62
7
  6
CONTINUOUS
370
-3
390
F
  0
LAYER
  5
211
100
AcDbSymbolTableRecord
100
AcDbLayerTableRecord
  2
SUPERFICI
 70
0
 62
7
  6
CONTINUOUS
370
-3
390
F
  0
LAYER
  5
212
100
AcDbSymbolTableRecord
100
AcDbLayerTableRecord
  2
SVILUPPO
 70
0
 62
7
  6
CONTINUOUS
370
-3
390
F
  0
LAYER
  5
213
100
AcDbSymbolTableRecord
100
AcDbLayerTableRecord
  2
TESTO
 70
0
 62
7
  6
CONTINUOUS
370
-3
390
F
  0
LAYER
  5
214
100
AcDbSymbolTableRecord
100
AcDbLayerTableRecord
  2
TRASH
 70
0
 62
7
  6
CONTINUOUS
370
-3
390
F
  0
ENDTAB
  0
TABLE
  2
STYLE
  5
3
100
AcDbSymbolTable
 70
1
  0
STYLE
  5
11
100
AcDbSymbolTableRecord
100
AcDbTextStyleTableRecord
  2
STANDARD
 70
0
 40
0.0
 41
0.8
 50
0.0
 71
0
 42
0.2
  3
txt
  4

  0
STYLE
  5
215
100
AcDbSymbolTableRecord
100
AcDbTextStyleTableRecord
  2
TEXTSTYLE_1
 70
0
 40
0.0
 41
0.8
 50
0.0
 71
0
 42
0.2
  3
gdt
  4

  0
ENDTAB
  0
TABLE
  2
VIEW
  5
6
100
AcDbSymbolTable
 70
0
  0
ENDTAB
  0
TABLE
  2
UCS
  5
7
100
AcDbSymbolTable
 70
0
  0
ENDTAB
  0
TABLE
  2
APPID
  5
9
100
AcDbSymbolTable
 70
1
  0
APPID
  5
216
100
AcDbSymbolTableRecord
100
AcDbRegAppTableRecord
  2
ACAD
 70
0
  0
ENDTAB
  0
TABLE
  2
BLOCK_RECORD
  5
1
100
AcDbSymbolTable
 70
0
  0
BLOCK_RECORD
  5
217
100
AcDbSymbolTableRecord
100
AcDbBlockTableRecord
  2
*Model_Space
  0
BLOCK_RECORD
  5
218
100
AcDbSymbolTableRecord
100
AcDbBlockTableRecord
  2
*Paper_Space
  0
BLOCK_RECORD
  5
219
100
AcDbSymbolTableRecord
100
AcDbBlockTableRecord
  2
_FILLED
  0
ENDTAB
  0
TABLE
  2
DIMSTYLE
  5
A
100
AcDbSymbolTable
 70
1
100
AcDbDimStyleTable
 71
0
  0
DIMSTYLE
105
21A
100
AcDbSymbolTableRecord
100
AcDbDimStyleTableRecord
  2
STANDARD
 70
0
  3

  4

 40
1.0
 41
3.0
 42
0.5
 43
0.38
 44
1.5
 45
0.0
 46
0.0
 47
0.01
 48
0.01
140
3.0
141
0.09
142
0.0
143
25.4
144
1.0
145
0.0
146
1.0
147
0.625
 71
1
 72
0
 73
0
 74
0
 75
0
 76
0
 77
1
 78
8
 79
2
170
0
171
1
172
0
173
0
174
0
175
0
176
0
177
0
178
0
270
2
179
2
271
2
272
2
273
2
274
2
275
0
280
0
281
0
282
0
283
1
284
8
285
0
286
0
287
3
288
0
340
11
278
44
341
219
342
219
343
219
344
219
  0
ENDTAB
  0
ENDSEC
  0
SECTION
  2
BLOCKS
  0
BLOCK
  5
20
100
AcDbEntity
  8
0
100
AcDbBlockBegin
  2
*Model_Space
 70
0
 10
0.0
 20
0.0
 30
0.0
  3
*Model_Space
  1

  0
ENDBLK
  5
21
100
AcDbEntity
  8
0
100
AcDbBlockEnd
  0
BLOCK
  5
1C
100
AcDbEntity
  8
0
100
AcDbBlockBegin
  2
*Paper_Space
 70
0
 10
0.0
 20
0.0
 30
0.0
  3
*Paper_Space
  1

  0
ENDBLK
  5
1D
100
AcDbEntity
  8
0
100
AcDbBlockEnd
  0
BLOCK
  5
21B
100
AcDbEntity
  8
0
100
AcDbBlockBegin
  2
_FILLED
 70
64
 10
0.0
 20
0.0
  3
_FILLED
  1

  0
SOLID
  5
21C
100
AcDbEntity
  8
0
  6
BYBLOCK
 62
0
100
AcDbTrace
 10
0.0
 20
0.0
 11
-1.0
 21
0.3166666667
 12
-1.0
 22
-0.3166666667
 13
-1.0
 23
-0.3166666667
  0
ENDBLK
  5
21D
100
AcDbEntity
  8
0
  6
BYBLOCK
 62
0
100
AcDbBlockEnd
  0
ENDSEC
  0
SECTION
  2
ENTITIES
  0
LWPOLYLINE
  5
21E
100
AcDbEntity
  8
RACCORDO
100
AcDbPolyline
 62
7
  6
CONTINUOUS
 90
19
 70
0
 10
-38.4577909098
 20
50.3814386303
 10
-38.5406305558
 20
50.3275213558
 10
-38.6710222278
 20
50.2311684727
 10
-38.7961527026
 20
50.1238747394
 10
-38.91558877
 20
50.0057799324
 10
-39.0290346462
 20
49.8769490101
 10
-39.1358248786
 20
49.7380051799
 10
-39.2357324068
 20
49.5891860269
 10
-39.3286263222
 20
49.4306393758
 10
-39.4141737609
 20
49.2629706665
 10
-39.4922855064
 20
49.0864469186
 10
-39.5629370151
 20
48.9012541631
 10
-39.6259912788
 20
48.7079577201
 10
-39.6814388083
 20
48.506835636
 10
-39.7293001713
 20
48.2981332595
 10
-39.769531367
 20
48.0824530381
 10
-39.8021590176
 20
47.8602487395
 10
-39.8272641721
 20
47.6318245454
 10
-39.8404920833
 20
47.4669421311
  0
LINE
  5
21F
100
AcDbEntity
  8
RACCORDO
100
AcDbLine
 62
7
  6
CONTINUOUS
 10
-38.4577709814
 20
50.3814510897
 11
-28.4697412692
 21
56.5581986313
  0
LINE
  5
220
100
AcDbEntity
  8
RACCORDO
100
AcDbLine
 62
250
  6
CONTINUOUS
 10
-35.6569941873
 20
49.9599818634
 11
-25.4180954769
 21
56.2918704126
  0
LWPOLYLINE
  5
221
100
AcDbEntity
  8
RACCORDO
100
AcDbPolyline
 62
250
  6
CONTINUOUS
 90
19
 70
0
 10
-38.4572025708
 20
50.3818027473
 10
-38.3520350294
 20
50.4420753494
 10
-38.2258616432
 20
50.5026551408
 10
-38.0945398409
 20
50.5534116143
 10
-37.9581625128
 20
50.5940817248
 10
-37.8169658769
 20
50.6243618542
 10
-37.6709050066
 20
50.6439809247
 10
-37.5201006061
 20
50.652642419
 10
-37.3648271183
 20
50.6500357726
 10
-37.2052614127
 20
50.6357948732
 10
-37.0413701148
 20
50.6095769508
 10
-36.8736960924
 20
50.5711278798
 10
-36.7033453412
 20
50.5203460661
 10
-36.5306247892
 20
50.4571024409
 10
-36.3559603417
 20
50.3813702794
 10
-36.1807339124
 20
50.293551755
 10
-36.0057068892
 20
50.1939789509
 10
-35.830983041
 20
50.0827175094
 10
-35.6569941873
 20
49.9599818634
  0
LWPOLYLINE
  5
222
100
AcDbEntity
  8
RACCORDO
100
AcDbPolyline
 62
250
  6
CONTINUOUS
 90
16
 70
0
 10
-35.6569941873
 20
49.9599818634
 10
-35.6938080101
 20
49.9413565418
 10
-35.7302517271
 20
49.9194078585
 10
-35.7660115546
 20
49.8943247961
 10
-35.8007795975
 20
49.8663233245
 10
-35.8342565012
 20
49.8356445408
 10
-35.8661540289
 20
49.8025525927
 10
-35.8961975413
 20
49.7673324063
 10
-35.9241283631
 20
49.730287231
 10
-35.9497060106
 20
49.6917360277
 10
-35.9727102599
 20
49.6520107259
 10
-35.9929430443
 20
49.6114533632
 10
-36.0102301609
 20
49.5704131388
 10
-36.0244227679
 20
49.5292434107
 10
-36.035398667
 20
49.4882986536
 10
-36.0430633564
 20
49.4479314038
  0
LINE
  5
223
100
AcDbEntity
  8
RACCORDO
100
AcDbLine
 62
250
  6
CONTINUOUS
 10
-34.605935483
 20
39.2701841561
 11
-34.5812469436
 21
39.2834608537
  0
LINE
  5
224
100
AcDbEntity
  8
RACCORDO
100
AcDbLine
 62
7
  6
CONTINUOUS
 10
-25.1407440165
 20
42.8317420707
 11
-21.6075919739
 21
45.0149790204
  0
LWPOLYLINE
  5
225
100
AcDbEntity
  8
RACCORDO
100
AcDbPolyline
 62
250
  6
CONTINUOUS
 90
19
 70
0
 10
-25.8878724048
 20
43.2711547646
 10
-25.9150713626
 20
43.2545567701
 10
-25.9419711679
 20
43.2358292697
 10
-25.9684261993
 20
43.2151009486
 10
-25.9943628437
 20
43.1924499033
 10
-26.0195754825
 20
43.1680727056
 10
-26.043744615
 20
43.1423276888
 10
-26.0668155079
 20
43.1153476165
 10
-26.0886486738
 20
43.0873775188
 10
-26.1088752468
 20
43.0590325252
 10
-26.1272281524
 20
43.0309375444
 10
-26.143995833
 20
43.0029073539
 10
-26.1596220094
 20
42.9743115637
 10
-26.1739935784
 20
42.9453865987
 10
-26.1871118925
 20
42.9161461817
 10
-26.1993618339
 20
42.8855435417
 10
-26.2106573362
 20
42.8533117638
 10
-26.220608081
 20
42.8200011423
 10
-26.2289780052
 20
42.7858091065
  0
LWPOLYLINE
  5
226
100
AcDbEntity
  8
RACCORDO
100
AcDbPolyline
 62
250
  6
CONTINUOUS
 90
19
 70
0
 10
-25.6834537651
 20
42.903366534
 10
-25.694700425
 20
42.8967962932
 10
-25.7057017752
 20
42.889475454
 10
-25.7164578176
 20
42.8814040041
 10
-25.7270434123
 20
42.8724909458
 10
-25.7373837068
 20
42.8628272308
 10
-25.7472541344
 20
42.8526857671
 10
-25.7566427861
 20
42.8420231571
 10
-25.7655615823
 20
42.830882729
 10
-25.7738216985
 20
42.8196674954
 10
-25.7813089771
 20
42.8085498894
 10
-25.7881375832
 20
42.7973574312
 10
-25.7944611743
 20
42.7859757764
 10
-25.8003182446
 20
42.7744695902
 10
-25.8056703097
 20
42.7627741466
 10
-25.8105555635
 20
42.7505809869
 10
-25.8149867461
 20
42.7377872381
 10
-25.8189511394
 20
42.7244956384
 10
-25.8224487553
 20
42.7107061157
  0
LINE
  5
227
100
AcDbEntity
  8
RACCORDO
100
AcDbLine
 62
250
  6
CONTINUOUS
 10
-25.8878724047
 20
43.2711547647
 11
-20.8803217235
 21
45.9717916105
  0
LINE
  5
228
100
AcDbEntity
  8
RACCORDO
100
AcDbLine
 62
250
  6
CONTINUOUS
 10
-20.8874166769
 20
45.489945903
 11
-25.6834537651
 21
42.903366534
  0
LINE
  5
229
100
AcDbEntity
  8
RACCORDO
100
AcDbLine
 62
250
  6
CONTINUOUS
 10
-18.3643107162
 20
43.6122801358
 11
-18.1956098514
 21
43.7030020015
  0
LINE
  5
22A
100
AcDbEntity
  8
RACCORDO
100
AcDbLine
 62
250
  6
CONTINUOUS
 10
-34.605935483
 20
39.2701841561
 11
-34.6275355974
 21
39.2622017802
  0
LWPOLYLINE
  5
22B
100
AcDbEntity
  8
RACCORDO
100
AcDbPolyline
 62
250
  6
CONTINUOUS
 90
18
 70
0
 10
-34.6275355974
 20
39.2622017802
 10
-34.6508738729
 20
39.2554531043
 10
-34.6757331455
 20
39.2500009252
 10
-34.701882098
 20
39.2458959757
 10
-34.7290774128
 20
39.2431764527
 10
-34.7570660358
 20
39.2418676613
 10
-34.7855875311
 20
39.2419817799
 10
-34.8143765044
 20
39.2435177467
 10
-34.8431650727
 20
39.2464612693
 10
-34.8716853565
 20
39.2507849581
 10
-34.8996719729
 20
39.2564485808
 10
-34.9268645048
 20
39.2633994371
 10
-34.9530099239
 20
39.2715728488
 10
-34.9778649457
 20
39.2808927618
 10
-35.0011982927
 20
39.2912724537
 10
-35.0227928467
 20
39.302615341
 10
-35.0424476691
 20
39.3148158773
 10
-35.0599798705
 20
39.3277605359
  0
LWPOLYLINE
  5
22C
100
AcDbEntity
  8
RACCORDO
100
AcDbPolyline
 62
7
  6
CONTINUOUS
 90
10
 70
0
 10
-39.8404902687
 20
47.4669687366
 10
-40.0216825721
 20
44.6174233928
 10
-40.1822583768
 20
41.6174396683
 10
-40.3131825032
 20
38.532784226
 10
-40.4111164665
 20
35.36605817
 10
-40.4801157694
 20
32.1161049085
 10
-40.532541946
 20
28.7762400948
 10
-40.5736412516
 20
25.342714134
 10
-40.5983317876
 20
21.8184681747
 10
-40.6059391658
 20
18.270445545
  0
LWPOLYLINE
  5
22D
100
AcDbEntity
  8
RACCORDO
100
AcDbPolyline
 62
250
  6
CONTINUOUS
 90
37
 70
0
 10
-39.7599130711
 20
47.3096451685
 10
-39.7413521464
 20
47.5157537727
 10
-39.7175579925
 20
47.7130386422
 10
-39.6884905952
 20
47.9015140358
 10
-39.6541299889
 20
48.0804063666
 10
-39.6144162547
 20
48.2505176881
 10
-39.569242702
 20
48.4142281239
 10
-39.5184426013
 20
48.5726160599
 10
-39.4620818043
 20
48.7246390576
 10
-39.4004010437
 20
48.8694965205
 10
-39.3333311101
 20
49.007164076
 10
-39.2608539742
 20
49.1376971837
 10
-39.183301503
 20
49.2604098773
 10
-39.100640827
 20
49.375259642
 10
-39.012837199
 20
49.4823130875
 10
-38.9202366145
 20
49.581041895
 10
-38.822855954
 20
49.6714229641
 10
-38.7206344978
 20
49.7534950171
 10
-38.6138175856
 20
49.8268168591
 10
-38.502436515
 20
49.8914276334
 10
-38.3864383952
 20
49.9472958913
 10
-38.2659563337
 20
49.9938695427
 10
-38.1409437917
 20
50.0312237283
 10
-38.0114484296
 20
50.0592829078
 10
-37.8777614919
 20
50.0772629687
 10
-37.7398199819
 20
50.0851816587
 10
-37.5977185345
 20
50.083009956
 10
-37.4520086451
 20
50.0698851111
 10
-37.3024159383
 20
50.0456371357
 10
-37.1492817143
 20
50.0104121698
 10
-36.9941154067
 20
49.9638093891
 10
-36.8368647665
 20
49.9055057246
 10
-36.6776953127
 20
49.8357838821
 10
-36.5184788096
 20
49.755138986
 10
-36.3598921812
 20
49.6637171904
 10
-36.2013991903
 20
49.5613222079
 10
-36.0430633563
 20
49.4479314038
  0
LWPOLYLINE
  5
22E
100
AcDbEntity
  8
RACCORDO
100
AcDbPolyline
 62
250
  6
CONTINUOUS
 90
3
 70
0
 10
-34.5985336073
 20
39.297589902
 10
-34.6023510899
 20
39.2847381617
 10
-34.6059385835
 20
39.2701824888
  0
LWPOLYLINE
  5
22F
100
AcDbEntity
  8
RACCORDO
100
AcDbPolyline
 62
250
  6
CONTINUOUS
 90
11
 70
0
 10
-18.3643107162
 20
43.6122801358
 10
-18.3864378672
 20
43.5926720696
 10
-18.4105634112
 20
43.5746111785
 10
-18.4364285115
 20
43.5582912255
 10
-18.4637556683
 20
43.5438872956
 10
-18.4922516995
 20
43.5315539158
 10
-18.5216108866
 20
43.5214233982
 10
-18.5515182479
 20
43.5136044231
 10
-18.5816529232
 20
43.5081808706
 10
-18.6116916199
 20
43.5052109216
 10
-18.6246522252
 20
43.5049989315
  0
LINE
  5
230
100
AcDbEntity
  8
RACCORDO
100
AcDbLine
 62
250
  6
CONTINUOUS
 10
-27.0524381348
 20
34.4009608452
 11
-27.361544449
 21
34.246235419
  0
LINE
  5
231
100
AcDbEntity
  8
RACCORDO
100
AcDbLine
 62
7
  6
CONTINUOUS
 10
-27.4058317479
 20
34.1516475104
 11
-27.064483863
 21
34.3225130288
  0
LINE
  5
232
100
AcDbEntity
  8
RACCORDO
100
AcDbLine
 62
250
  6
CONTINUOUS
 10
-27.4345383939
 20
34.1395255334
 11
-27.4425458467
 21
34.1363471027
  0
LWPOLYLINE
  5
233
100
AcDbEntity
  8
RACCORDO
100
AcDbPolyline
 62
7
  6
CONTINUOUS
 90
27
 70
0
 10
8.0664981304
 20
-45.0669316832
 10
8.554311868
 20
-44.9866114843
 10
8.6490751253
 20
-44.9716827558
 10
8.74294015
 20
-44.9574692965
 10
8.8359508986
 20
-44.9441011418
 10
8.9281392139
 20
-44.9317145276
 10
9.0194337995
 20
-44.9204514163
 10
9.1098136935
 20
-44.9104368864
 10
9.1992954569
 20
-44.9017992272
 10
9.2878407838
 20
-44.894677337
 10
9.3753871027
 20
-44.8892031101
 10
9.4618723328
 20
-44.8854988944
 10
9.5471623152
 20
-44.8836860722
 10
9.6310642756
 20
-44.8838795425
 10
9.7133989406
 20
-44.8861813404
 10
9.7939398048
 20
-44.8906678321
 10
9.8722634072
 20
-44.8973579704
 10
9.9482046848
 20
-44.9062673623
 10
10.0217736608
 20
-44.9174312708
 10
10.0925632796
 20
-44.9307755198
 10
10.1603019916
 20
-44.9462058236
 10
10.2250765138
 20
-44.9637094542
 10
10.2865222632
 20
-44.9831117809
 10
10.3444278581
 20
-45.0042274873
 10
10.3990419469
 20
-45.0270427154
 10
10.4503164156
 20
-45.0514035499
 10
10.5009067163
 20
-45.0786811178
  0
LWPOLYLINE
  5
234
100
AcDbEntity
  8
RACCORDO
100
AcDbPolyline
 62
250
  6
CONTINUOUS
 90
33
 70
0
 10
8.4641775206
 20
-44.8311589277
 10
7.9939449992
 20
-44.8985538356
 10
7.9078077346
 20
-44.9103233988
 10
7.8243351165
 20
-44.9212793849
 10
7.7434969038
 20
-44.9313297296
 10
7.6648217827
 20
-44.9405092469
 10
7.5883526609
 20
-44.9487512551
 10
7.5141050711
 20
-44.9559980697
 10
7.4415792478
 20
-44.9622836913
 10
7.3707570893
 20
-44.9675590818
 10
7.3017046689
 20
-44.9717749602
 10
7.2340686379
 20
-44.9749363622
 10
7.1678286883
 20
-44.9769963609
 10
7.1030534145
 20
-44.977907569
 10
7.0395402696
 20
-44.9776480558
 10
6.9772190856
 20
-44.9761712856
 10
6.9162107327
 20
-44.9734272978
 10
6.8566013121
 20
-44.9693859934
 10
6.7982152131
 20
-44.9640101213
 10
6.7412596052
 20
-44.9572711111
 10
6.6863516926
 20
-44.9492209111
 10
6.6333993527
 20
-44.9399060399
 10
6.5824319109
 20
-44.9293665311
 10
6.5341613091
 20
-44.9177865376
 10
6.4886280277
 20
-44.9053445557
 10
6.4456127753
 20
-44.8921403492
 10
6.4053680373
 20
-44.8783554876
 10
6.3679103262
 20
-44.8642075698
 10
6.3330065084
 20
-44.8498247766
 10
6.3005192589
 20
-44.8352821607
 10
6.2703411808
 20
-44.8207047086
 10
6.2423926782
 20
-44.8062699235
 10
6.2165862137
 20
-44.7921198956
  0
LWPOLYLINE
  5
235
100
AcDbEntity
  8
RACCORDO
100
AcDbPolyline
 62
250
  6
CONTINUOUS
 90
8
 70
0
 10
21.6474564425
 20
-50.8903872151
 10
21.6254916776
 20
-50.883283542
 10
21.6058177478
 20
-50.8742436181
 10
21.5886525251
 20
-50.8633678693
 10
21.5741861306
 20
-50.850777156
 10
21.562578499
 20
-50.8366111474
 10
21.5539578281
 20
-50.821026656
 10
21.5525283218
 20
-50.8175685541
  0
LWPOLYLINE
  5
236
100
AcDbEntity
  8
RACCORDO
100
AcDbPolyline
 62
7
  6
CONTINUOUS
 90
34
 70
0
 10
-39.8402774941
 20
-10.01611455
 10
-39.825722644
 20
-10.1841410417
 10
-39.7992536881
 20
-10.4155428841
 10
-39.7650252391
 20
-10.6514697456
 10
-39.723117817
 20
-10.8912520128
 10
-39.6736160019
 20
-11.134396615
 10
-39.6165722461
 20
-11.3805417361
 10
-39.5520729994
 20
-11.6291372385
 10
-39.4802462589
 20
-11.8795925343
 10
-39.4011778144
 20
-12.1314600541
 10
-39.3150006202
 20
-12.3841565188
 10
-39.2218856391
 20
-12.6371013661
 10
-39.1219586502
 20
-12.8898334124
 10
-39.0154083306
 20
-13.1417762098
 10
-38.9024514578
 20
-13.3923697441
 10
-38.7832516709
 20
-13.6411673712
 10
-38.658053535
 20
-13.8876174
 10
-38.5271212612
 20
-14.1311777564
 10
-38.3906628804
 20
-14.3714208091
 10
-38.2489798479
 20
-14.6078244474
 10
-38.1023826082
 20
-14.8398692664
 10
-37.9511271625
 20
-15.0671577643
 10
-37.7955613709
 20
-15.2892000611
 10
-37.6360426811
 20
-15.5055004772
 10
-37.4728706176
 20
-15.7156939947
 10
-37.3064315806
 20
-15.9193163959
 10
-37.1371204946
 20
-16.1159125282
 10
-36.9652534308
 20
-16.3051622959
 10
-36.7912518003
 20
-16.4866198661
 10
-36.6155179158
 20
-16.6598878851
 10
-36.438302648
 20
-16.8247264976
 10
-36.2599512959
 20
-16.9807863444
 10
-36.0809732734
 20
-17.1276089572
 10
-35.9516928912
 20
-17.2275870378
  0
LWPOLYLINE
  5
237
100
AcDbEntity
  8
RACCORDO
100
AcDbPolyline
 62
250
  6
CONTINUOUS
 90
23
 70
0
 10
-39.7599130711
 20
-10.1686772105
 10
-39.806066696
 20
-9.5606509707
 10
-39.8499659628
 20
-8.9608983401
 10
-39.891691916
 20
-8.3694660932
 10
-39.931120898
 20
-7.789287013
 10
-39.9685218003
 20
-7.2175121376
 10
-40.0044914072
 20
-6.6454734447
 10
-40.0391562482
 20
-6.0708722051
 10
-40.0723611316
 20
-5.4959906056
 10
-40.1041990985
 20
-4.9189851553
 10
-40.1346184003
 20
-4.3403838975
 10
-40.1636273824
 20
-3.7596337389
 10
-40.191374875
 20
-3.1732496575
 10
-40.21784746
 20
-2.5807150531
 10
-40.2429804036
 20
-1.9825014209
 10
-40.2668111075
 20
-1.3765859961
 10
-40.2893870871
 20
-0.7607614691
 10
-40.3105772823
 20
-0.1371869322
 10
-40.3301978289
 20
0.4895838838
 10
-40.3483757133
 20
1.1208749053
 10
-40.3651773606
 20
1.7552505792
 10
-40.3804855496
 20
2.3839270627
 10
-40.3944372639
 20
3.0059931895
  0
LINE
  5
238
100
AcDbEntity
  8
RACCORDO
100
AcDbLine
 62
7
  6
CONTINUOUS
 10
-39.8402774941
 20
-10.01611455
 11
-39.8402750057
 21
-10.0161480437
  0
LWPOLYLINE
  5
239
100
AcDbEntity
  8
RACCORDO
100
AcDbPolyline
 62
250
  6
CONTINUOUS
 90
7
 70
0
 10
-40.6059391658
 20
18.2700540176
 10
-40.604922681
 20
18.2518599432
 10
-40.6005503041
 20
18.227999892
 10
-40.5927583581
 20
18.2044295853
 10
-40.5816007143
 20
18.1813119729
 10
-40.5671545133
 20
18.158806823
 10
-40.5495196315
 20
18.1370696849
  0
LINE
  5
23A
100
AcDbEntity
  8
RACCORDO
100
AcDbLine
 62
250
  6
CONTINUOUS
 10
-40.3944372639
 20
3.0059931895
 11
-40.4189142782
 21
4.2260644067
  0
LINE
  5
23B
100
AcDbEntity
  8
RACCORDO
100
AcDbLine
 62
250
  6
CONTINUOUS
 10
-40.4189142782
 20
4.2260644067
 11
-40.4395625309
 21
5.3937533122
  0
LINE
  5
23C
100
AcDbEntity
  8
RACCORDO
100
AcDbLine
 62
250
  6
CONTINUOUS
 10
-40.4395625309
 20
5.3937533122
 11
-40.4657055422
 21
7.0373609789
  0
LINE
  5
23D
100
AcDbEntity
  8
RACCORDO
100
AcDbLine
 62
250
  6
CONTINUOUS
 10
-40.4657055422
 20
7.0373609789
 11
-40.4873935117
 21
8.5535856326
  0
LINE
  5
23E
100
AcDbEntity
  8
RACCORDO
100
AcDbLine
 62
250
  6
CONTINUOUS
 10
-40.4873935117
 20
8.5535856326
 11
-40.5051341031
 21
9.9671671012
  0
LINE
  5
23F
100
AcDbEntity
  8
RACCORDO
100
AcDbLine
 62
250
  6
CONTINUOUS
 10
-40.5051341031
 20
9.9671671012
 11
-40.5195892943
 21
11.327251393
  0
LINE
  5
240
100
AcDbEntity
  8
RACCORDO
100
AcDbLine
 62
250
  6
CONTINUOUS
 10
-40.5195892943
 20
11.327251393
 11
-40.5277152352
 21
12.2404321368
  0
LINE
  5
241
100
AcDbEntity
  8
RACCORDO
100
AcDbLine
 62
250
  6
CONTINUOUS
 10
-40.5277152352
 20
12.2404321368
 11
-40.5346561314
 21
13.1790570999
  0
LINE
  5
242
100
AcDbEntity
  8
RACCORDO
100
AcDbLine
 62
250
  6
CONTINUOUS
 10
-40.5346561314
 20
13.1790570999
 11
-40.5403173086
 21
14.1647531681
  0
LWPOLYLINE
  5
243
100
AcDbEntity
  8
RACCORDO
100
AcDbPolyline
 62
250
  6
CONTINUOUS
 90
8
 70
0
 10
-39.8404920833
 20
47.4669421311
 10
-39.8404149478
 20
47.4469753777
 10
-39.836634037
 20
47.4232698576
 10
-39.8288848596
 20
47.3996413595
 10
-39.8172295455
 20
47.3762793142
 10
-39.8017615399
 20
47.3533710154
 10
-39.782604854
 20
47.3311001185
 10
-39.7599130711
 20
47.3096451685
  0
LINE
  5
244
100
AcDbEntity
  8
RACCORDO
100
AcDbLine
 62
250
  6
CONTINUOUS
 10
-40.5403173086
 20
14.1647531681
 11
-40.5444422141
 21
15.2092282034
  0
LWPOLYLINE
  5
245
100
AcDbEntity
  8
RACCORDO
100
AcDbPolyline
 62
7
  6
CONTINUOUS
 90
10
 70
0
 10
-40.6059396592
 20
18.2700554852
 10
-40.5983262886
 20
14.7255367702
 10
-40.5735918759
 20
11.2305924539
 10
-40.5324702103
 20
7.845933954
 10
-40.4800151289
 20
4.5684455478
 10
-40.4109638875
 20
1.4005935324
 10
-40.3129375741
 20
-1.6495949637
 10
-40.1819106934
 20
-4.5784567692
 10
-40.0212148626
 20
-7.3873663903
 10
-39.8402750057
 20
-10.0161480437
  0
LINE
  5
246
100
AcDbEntity
  8
RACCORDO
100
AcDbLine
 62
250
  6
CONTINUOUS
 10
-40.5444422141
 20
15.2092282034
 11
-40.5480452592
 21
16.9066017148
  0
LINE
  5
247
100
AcDbEntity
  8
RACCORDO
100
AcDbLine
 62
250
  6
CONTINUOUS
 10
-40.5480452592
 20
16.9066017148
 11
-40.5495197341
 21
18.1367850047
  0
LINE
  5
248
100
AcDbEntity
  8
RACCORDO
100
AcDbLine
 62
250
  6
CONTINUOUS
 10
-40.5495195662
 20
18.1367850337
 11
-40.5454390561
 21
20.7198415397
  0
LINE
  5
249
100
AcDbEntity
  8
RACCORDO
100
AcDbLine
 62
250
  6
CONTINUOUS
 10
-40.5454390561
 20
20.7198415397
 11
-40.5419964362
 21
21.7487947239
  0
LINE
  5
24A
100
AcDbEntity
  8
RACCORDO
100
AcDbLine
 62
250
  6
CONTINUOUS
 10
-40.5419964362
 20
21.7487947239
 11
-40.5366274125
 21
22.7999707766
  0
LINE
  5
24B
100
AcDbEntity
  8
RACCORDO
100
AcDbLine
 62
250
  6
CONTINUOUS
 10
-40.5366274125
 20
22.7999707766
 11
-40.5293204083
 21
23.8577920379
  0
LINE
  5
24C
100
AcDbEntity
  8
RACCORDO
100
AcDbLine
 62
250
  6
CONTINUOUS
 10
-40.5293204083
 20
23.8577920379
 11
-40.5201972889
 21
24.9185175244
  0
LINE
  5
24D
100
AcDbEntity
  8
RACCORDO
100
AcDbLine
 62
250
  6
CONTINUOUS
 10
-40.5201972889
 20
24.9185175244
 11
-40.5093796996
 21
25.9803730564
  0
LINE
  5
24E
100
AcDbEntity
  8
RACCORDO
100
AcDbLine
 62
250
  6
CONTINUOUS
 10
-40.5093796996
 20
25.9803730564
 11
-40.4969982338
 21
27.0427765727
  0
LINE
  5
24F
100
AcDbEntity
  8
RACCORDO
100
AcDbLine
 62
250
  6
CONTINUOUS
 10
-40.4969982338
 20
27.0427765727
 11
-40.4758057206
 21
28.638590277
  0
LINE
  5
250
100
AcDbEntity
  8
RACCORDO
100
AcDbLine
 62
250
  6
CONTINUOUS
 10
-40.4758057206
 20
28.638590277
 11
-40.4519393759
 21
30.2368221593
  0
LINE
  5
251
100
AcDbEntity
  8
RACCORDO
100
AcDbLine
 62
250
  6
CONTINUOUS
 10
-40.4519393759
 20
30.2368221593
 11
-40.4346586147
 21
31.3032257459
  0
LINE
  5
252
100
AcDbEntity
  8
RACCORDO
100
AcDbLine
 62
250
  6
CONTINUOUS
 10
-40.4346586147
 20
31.3032257459
 11
-40.4157783697
 21
32.3704151757
  0
LINE
  5
253
100
AcDbEntity
  8
RACCORDO
100
AcDbLine
 62
250
  6
CONTINUOUS
 10
-40.4157783697
 20
32.3704151757
 11
-40.3946579669
 21
33.4384191551
  0
LINE
  5
254
100
AcDbEntity
  8
RACCORDO
100
AcDbLine
 62
250
  6
CONTINUOUS
 10
-40.3946579669
 20
33.4384191551
 11
-40.3706211051
 21
34.5087324581
  0
LWPOLYLINE
  5
255
100
AcDbEntity
  8
RACCORDO
100
AcDbPolyline
 62
250
  6
CONTINUOUS
 90
20
 70
0
 10
-40.3706211051
 20
34.5087324581
 10
-40.3429947399
 20
35.5838980652
 10
-40.3276138436
 20
36.1248624027
 10
-40.3110632452
 20
36.6686254929
 10
-40.2931536847
 20
37.2193381657
 10
-40.2738415358
 20
37.7763989547
 10
-40.253049252
 20
38.3404525057
 10
-40.230501705
 20
38.9175312845
 10
-40.206092213
 20
39.507795568
 10
-40.1797311093
 20
40.1111550471
 10
-40.151081308
 20
40.7332974821
 10
-40.1199623386
 20
41.375084853
 10
-40.0862727333
 20
42.0357556472
 10
-40.0497292791
 20
42.7185854172
 10
-40.0101562409
 20
43.4240058352
 10
-39.9674134618
 20
44.1516977957
 10
-39.9212226972
 20
44.903827931
 10
-39.8713588545
 20
45.6811656122
 10
-39.8176639893
 20
46.4830779618
 10
-39.7599130711
 20
47.3096451685
  0
LINE
  5
256
100
AcDbEntity
  8
RACCORDO
100
AcDbLine
 62
250
  6
CONTINUOUS
 10
-34.7917510098
 20
32.642051595
 11
-34.7521693689
 21
33.2755286951
  0
LINE
  5
257
100
AcDbEntity
  8
RACCORDO
100
AcDbLine
 62
250
  6
CONTINUOUS
 10
-34.7521693689
 20
33.2755286951
 11
-34.7079543786
 21
33.9280395907
  0
LWPOLYLINE
  5
258
100
AcDbEntity
  8
RACCORDO
100
AcDbPolyline
 62
250
  6
CONTINUOUS
 90
12
 70
0
 10
-34.7079543786
 20
33.9280395907
 10
-34.6583722455
 20
34.6050088424
 10
-34.6312900136
 20
34.9547302838
 10
-34.6024710149
 20
35.3134866928
 10
-34.5719055386
 20
35.6804534133
 10
-34.5395845927
 20
36.0550724487
 10
-34.5052427611
 20
36.4395474387
 10
-34.4689931037
 20
36.8317290351
 10
-34.4314742339
 20
37.2245012897
 10
-34.392939162
 20
37.6154779166
 10
-34.3531727286
 20
38.0070317138
 10
-34.3121857023
 20
38.3991588441
  0
LWPOLYLINE
  5
259
100
AcDbEntity
  8
RACCORDO
100
AcDbPolyline
 62
7
  6
CONTINUOUS
 90
13
 70
0
 10
-34.4054228263
 20
38.539681678
 10
-34.5847199586
 20
36.6957534056
 10
-34.7472776611
 20
34.7262346834
 10
-34.8810186839
 20
32.7212746999
 10
-34.9843964082
 20
30.6825799336
 10
-35.0588126252
 20
28.61047377
 10
-35.1093169736
 20
26.5030602064
 10
-35.1432311975
 20
24.3566494933
 10
-35.1664647148
 20
22.1676527692
 10
-35.1822877414
 20
19.9341049339
 10
-35.1926547536
 20
17.6546959863
 10
-35.1980959783
 20
15.3291108433
 10
-35.1989417163
 20
13.0229958705
  0
LWPOLYLINE
  5
25A
100
AcDbEntity
  8
RACCORDO
100
AcDbPolyline
 62
250
  6
CONTINUOUS
 90
25
 70
0
 10
-34.605935483
 20
39.2701841561
 10
-34.6505133999
 20
38.8380047037
 10
-34.6944777729
 20
38.3962792038
 10
-34.737828602
 20
37.9450076563
 10
-34.7803905155
 20
37.4882626082
 10
-34.822338885
 20
37.0219715126
 10
-34.8641998261
 20
36.5339167286
 10
-34.9065698537
 20
36.0176187834
 10
-34.9488524529
 20
35.4795571498
 10
-34.9897841938
 20
34.9269526052
 10
-35.0292802698
 20
34.3588952917
 10
-35.0674254877
 20
33.7762950672
 10
-35.1032108372
 20
33.1891022826
 10
-35.1363647526
 20
32.5986581036
 10
-35.1671587998
 20
32.0036213646
 10
-35.1953986656
 20
31.4099189193
 10
-35.2208879129
 20
30.8190902759
 10
-35.2438229788
 20
30.2295959262
 10
-35.264598862
 20
29.6427442
 10
-35.2831511404
 20
29.059332901
 10
-35.299544236
 20
28.4785642255
 10
-35.314366413
 20
27.8993530922
 10
-35.3276329605
 20
27.3217930235
 10
-35.3393285895
 20
26.7457904971
 10
-35.3597172438
 20
25.5939712954
  0
LWPOLYLINE
  5
25B
100
AcDbEntity
  8
RACCORDO
100
AcDbPolyline
 62
250
  6
CONTINUOUS
 90
26
 70
0
 10
-35.0599799308
 20
39.3277599654
 10
-35.1048895861
 20
38.8950445689
 10
-35.149423028
 20
38.4526506584
 10
-35.1934571227
 20
38.0006221124
 10
-35.2364685546
 20
37.5431625822
 10
-35.2787537617
 20
37.0761492631
 10
-35.3212671933
 20
36.5871905305
 10
-35.3642386109
 20
36.0699278895
 10
-35.4067963839
 20
35.5309485623
 10
-35.4481716673
 20
34.9773048733
 10
-35.48821641
 20
34.4081017149
 10
-35.5266271125
 20
33.8243951029
 10
-35.5626518292
 20
33.2360749358
 10
-35.5961827689
 20
32.6444170571
 10
-35.6272406348
 20
32.0481766567
 10
-35.6555427971
 20
31.4533640975
 10
-35.6811734233
 20
30.8614248333
 10
-35.7043411264
 20
30.2708090791
 10
-35.7251149447
 20
29.6829755427
 10
-35.7436638784
 20
29.0986460415
 10
-35.7602270951
 20
28.5169533093
 10
-35.775002718
 20
27.9369639341
 10
-35.7881873808
 20
27.3587148408
 10
-35.7999827406
 20
26.7820271753
 10
-35.8105750585
 20
26.2056507695
 10
-35.8288662239
 20
25.0528707509
  0
LINE
  5
25C
100
AcDbEntity
  8
RACCORDO
100
AcDbLine
 62
7
  6
CONTINUOUS
 10
-26.896751658
 20
35.4126000536
 11
-26.7671064029
 21
35.7901000623
  0
LWPOLYLINE
  5
25D
100
AcDbEntity
  8
RACCORDO
100
AcDbPolyline
 62
250
  6
CONTINUOUS
 90
7
 70
0
 10
-27.3724645764
 20
34.2416646884
 10
-27.3706348208
 20
34.2423061447
 10
-27.3688089589
 20
34.2429957338
 10
-27.3669869909
 20
34.2437334556
 10
-27.3651689165
 20
34.2445193104
 10
-27.3633547359
 20
34.2453532982
 10
-27.361544449
 20
34.246235419
  0
LWPOLYLINE
  5
25E
100
AcDbEntity
  8
RACCORDO
100
AcDbPolyline
 62
7
  6
CONTINUOUS
 90
6
 70
0
 10
-27.4425458467
 20
34.1363471027
 10
-27.4413752734
 20
34.1367433418
 10
-27.4307142392
 20
34.140623589
 10
-27.4200938781
 20
34.1449845982
 10
-27.4095432663
 20
34.1498223352
 10
-27.4058461742
 20
34.151640237
  0
LWPOLYLINE
  5
25F
100
AcDbEntity
  8
RACCORDO
100
AcDbPolyline
 62
250
  6
CONTINUOUS
 90
49
 70
0
 10
-27.3724277669
 20
34.2416786708
 10
-27.3799912974
 20
34.2393847369
 10
-27.3875262994
 20
34.2373981505
 10
-27.3950039519
 20
34.2356997903
 10
-27.4023504095
 20
34.2342788758
 10
-27.4095885084
 20
34.2331044113
 10
-27.4168457063
 20
34.2321392704
 10
-27.424112854
 20
34.2313753596
 10
-27.4313748212
 20
34.2308048979
 10
-27.438764815
 20
34.230413777
 10
-27.4463220895
 20
34.2302035789
 10
-27.4539964117
 20
34.230179084
 10
-27.4617926573
 20
34.230342423
 10
-27.4697175435
 20
34.2306967637
 10
-27.4777516892
 20
34.2312439198
 10
-27.4858601614
 20
34.2319827976
 10
-27.4940358332
 20
34.2329131486
 10
-27.5022707715
 20
34.2340342266
 10
-27.5105276507
 20
34.2353401618
 10
-27.5187978396
 20
34.2368278749
 10
-27.5270744897
 20
34.2384942112
 10
-27.5353224981
 20
34.2403294047
 10
-27.5435107337
 20
34.2423223251
 10
-27.5516561342
 20
34.2444727867
 10
-27.5597957495
 20
34.2467884467
 10
-27.567895664
 20
34.2492581158
 10
-27.5759769967
 20
34.2518865644
 10
-27.5841579932
 20
34.2547153056
 10
-27.5924351233
 20
34.2577502521
 10
-27.6007955409
 20
34.2609937836
 10
-27.6093394161
 20
34.2644954448
 10
-27.6180739277
 20
34.2682734629
 10
-27.6269665534
 20
34.2723292532
 10
-27.636052586
 20
34.2766959949
 10
-27.6453229939
 20
34.2813892234
 10
-27.654750563
 20
34.2864156537
 10
-27.6643381646
 20
34.2917988448
 10
-27.6740625693
 20
34.2975497456
 10
-27.6838983465
 20
34.3036776145
 10
-27.6938394308
 20
34.3102049668
 10
-27.7038513438
 20
34.3171377844
 10
-27.7139054091
 20
34.3244867047
 10
-27.7239965434
 20
34.3322826459
 10
-27.7340786154
 20
34.3405317076
 10
-27.7441151935
 20
34.3492373406
 10
-27.7541037501
 20
34.3584282627
 10
-27.7639974099
 20
34.3681151409
 10
-27.7736900418
 20
34.3782899628
 10
-27.7830739143
 20
34.3889529302
  0
LWPOLYLINE
  5
260
100
AcDbEntity
  8
RACCORDO
100
AcDbPolyline
 62
7
  6
CONTINUOUS
 90
19
 70
0
 10
25.8115222111
 20
-52.8899099461
 10
25.9776453986
 20
-52.960891662
 10
26.2020888812
 20
-53.0484383934
 10
26.4249024874
 20
-53.1256261376
 10
26.6457625689
 20
-53.1922574127
 10
26.8642922955
 20
-53.2481555182
 10
27.0800474755
 20
-53.2931578067
 10
27.2927681227
 20
-53.3271507876
 10
27.5021431413
 20
-53.3500423418
 10
27.7076699223
 20
-53.3617464585
 10
27.9090804744
 20
-53.3622109911
 10
28.1060418636
 20
-53.3514218959
 10
28.2979506639
 20
-53.3294283776
 10
28.484516482
 20
-53.2962882104
 10
28.6653876173
 20
-53.2521129405
 10
28.8398626134
 20
-53.1971696183
 10
29.0076544159
 20
-53.1316711029
 10
29.1684070788
 20
-53.0559098082
 10
29.209996956
 20
-53.0340399226
  0
LINE
  5
261
100
AcDbEntity
  8
RACCORDO
100
AcDbLine
 62
250
  6
CONTINUOUS
 10
25.7145167951
 20
-52.7247316602
 11
24.9547952837
 21
-52.3898056237
  0
LINE
  5
262
100
AcDbEntity
  8
RACCORDO
100
AcDbLine
 62
250
  6
CONTINUOUS
 10
24.9547952837
 20
-52.3898056237
 11
24.2299517843
 21
-52.0673485161
  0
LINE
  5
263
100
AcDbEntity
  8
RACCORDO
100
AcDbLine
 62
250
  6
CONTINUOUS
 10
24.2299517843
 20
-52.0673485161
 11
23.5388313566
 21
-51.7569195194
  0
LINE
  5
264
100
AcDbEntity
  8
RACCORDO
100
AcDbLine
 62
250
  6
CONTINUOUS
 10
23.5388313566
 20
-51.7569195194
 11
22.8766601039
 21
-51.4563990841
  0
LINE
  5
265
100
AcDbEntity
  8
RACCORDO
100
AcDbLine
 62
250
  6
CONTINUOUS
 10
22.8766601039
 20
-51.4563990841
 11
22.246129156
 21
-51.1673710216
  0
LWPOLYLINE
  5
266
100
AcDbEntity
  8
RACCORDO
100
AcDbPolyline
 62
7
  6
CONTINUOUS
 90
7
 70
0
 10
22.5371187528
 20
-51.4097508393
 10
22.9797926754
 20
-51.6138616172
 10
23.4338658999
 20
-51.8218099097
 10
23.8993980856
 20
-52.0335422647
 10
24.3763671335
 20
-52.2490522054
 10
24.8647339353
 20
-52.4683426282
 10
25.8115399486
 20
-52.8899178046
  0
LINE
  5
267
100
AcDbEntity
  8
RACCORDO
100
AcDbLine
 62
250
  6
CONTINUOUS
 10
22.246129156
 20
-51.1673710216
 11
21.6474505456
 21
-50.8903860576
  0
LINE
  5
268
100
AcDbEntity
  8
RACCORDO
100
AcDbLine
 62
7
  6
CONTINUOUS
 10
21.7953637434
 20
-51.0647219318
 11
22.5371187528
 21
-51.4097508393
  0
LWPOLYLINE
  5
269
100
AcDbEntity
  8
RACCORDO
100
AcDbPolyline
 62
7
  6
CONTINUOUS
 90
20
 70
0
 10
6.3205362937
 20
-45.0018297597
 10
6.3767136777
 20
-45.0316613913
 10
6.4477073822
 20
-45.0640991477
 10
6.5238278663
 20
-45.0929159408
 10
6.604584667
 20
-45.1174279962
 10
6.6892546399
 20
-45.1371996126
 10
6.777333264
 20
-45.1522143807
 10
6.8685135432
 20
-45.1626769231
 10
6.962250611
 20
-45.1689148461
 10
7.0582025539
 20
-45.1713211897
 10
7.1560293817
 20
-45.1703104274
 10
7.2551451371
 20
-45.166283842
 10
7.3555841458
 20
-45.159610984
 10
7.4571560189
 20
-45.1506271501
 10
7.5588828808
 20
-45.1397381117
 10
7.6608332896
 20
-45.1272396837
 10
7.7630795642
 20
-45.1133949597
 10
7.8647177257
 20
-45.098575171
 10
7.965802439
 20
-45.083025907
 10
8.0664981304
 20
-45.0669316832
  0
LWPOLYLINE
  5
26A
100
AcDbEntity
  8
RACCORDO
100
AcDbPolyline
 62
250
  6
CONTINUOUS
 90
16
 70
0
 10
-32.9195893497
 20
-19.2531666268
 10
-32.911648119
 20
-19.2651110094
 10
-32.9041555432
 20
-19.2770291722
 10
-32.8971117245
 20
-19.2889211742
 10
-32.8905122643
 20
-19.3008022801
 10
-32.8843617656
 20
-19.3126573431
 10
-32.8786738563
 20
-19.3244408186
 10
-32.8734342194
 20
-19.3361588533
 10
-32.8686574259
 20
-19.3478054469
 10
-32.8644004927
 20
-19.3593168667
 10
-32.860643643
 20
-19.3707361137
 10
-32.85740697
 20
-19.3820203695
 10
-32.8548074178
 20
-19.3929772423
 10
-32.8528841654
 20
-19.4035427158
 10
-32.85159853
 20
-19.4137810927
 10
-32.8509507388
 20
-19.4236925043
  0
LWPOLYLINE
  5
26B
100
AcDbEntity
  8
RACCORDO
100
AcDbPolyline
 62
250
  6
CONTINUOUS
 90
16
 70
0
 10
-32.5525489528
 20
-18.9993258588
 10
-32.5345980857
 20
-19.0296816031
 10
-32.5178699275
 20
-19.0603899997
 10
-32.5024110448
 20
-19.0912844104
 10
-32.4882976611
 20
-19.1220906875
 10
-32.4755094002
 20
-19.1527642161
 10
-32.4639778362
 20
-19.1834942009
 10
-32.4537604498
 20
-19.2141356104
 10
-32.4449071829
 20
-19.244536439
 10
-32.4374195214
 20
-19.2748654724
 10
-32.4313706646
 20
-19.3050284979
 10
-32.4268639453
 20
-19.3347647931
 10
-32.4239965424
 20
-19.3639634546
 10
-32.4228566365
 20
-19.3924448822
 10
-32.4235089276
 20
-19.419968418
 10
-32.4260141029
 20
-19.4463131768
  0
LWPOLYLINE
  5
26C
100
AcDbEntity
  8
RACCORDO
100
AcDbPolyline
 62
250
  6
CONTINUOUS
 90
7
 70
0
 10
-39.8402750057
 20
-10.0161480437
 10
-39.8366340773
 20
-10.0418533702
 10
-39.8288849222
 20
-10.0690789787
 10
-39.817229619
 20
-10.0955827389
 10
-39.8017616089
 20
-10.1211521694
 10
-39.7826048996
 20
-10.1455822789
 10
-39.7599130711
 20
-10.1686772105
  0
LWPOLYLINE
  5
26D
100
AcDbEntity
  8
RACCORDO
100
AcDbPolyline
 62
250
  6
CONTINUOUS
 90
23
 70
0
 10
-35.2147893905
 20
-3.7034398144
 10
-35.1973122152
 20
-4.0838445259
 10
-35.1778676436
 20
-4.4800158007
 10
-35.1564258068
 20
-4.8915392646
 10
-35.1323149685
 20
-5.3188474897
 10
-35.1055438218
 20
-5.762199843
 10
-35.0761036737
 20
-6.2213369575
 10
-35.0432967092
 20
-6.6959133037
 10
-35.007122102
 20
-7.1860942418
 10
-34.9675806784
 20
-7.6917144118
 10
-34.9239771014
 20
-8.2119322038
 10
-34.8763794955
 20
-8.7460976345
 10
-34.8247197362
 20
-9.2948606874
 10
-34.7680981133
 20
-9.8593297028
 10
-34.7065926338
 20
-10.4391063767
 10
-34.6401252907
 20
-11.0345890131
 10
-34.5675623527
 20
-11.6480808653
 10
-34.4889558802
 20
-12.2796284172
 10
-34.4042538128
 20
-12.9291851848
 10
-34.3121662378
 20
-13.5989149694
 10
-34.2122631843
 20
-14.2895390381
 10
-34.1049746232
 20
-15.0003361239
 10
-33.9903005545
 20
-15.7313062267
  0
LWPOLYLINE
  5
26E
100
AcDbEntity
  8
RACCORDO
100
AcDbPolyline
 62
250
  6
CONTINUOUS
 90
8
 70
0
 10
-35.1989417163
 20
13.0229958705
 10
-35.1983319127
 20
13.0088342773
 10
-35.1940350706
 20
12.9827269763
 10
-35.1856577749
 20
12.956953739
 10
-35.1732690856
 20
12.9317558168
 10
-35.1569711135
 20
12.9073507005
 10
-35.1368981778
 20
12.8839304048
 10
-35.1132157162
 20
12.8616887032
  0
LWPOLYLINE
  5
26F
100
AcDbEntity
  8
RACCORDO
100
AcDbPolyline
 62
250
  6
CONTINUOUS
 90
24
 70
0
 10
-35.6906452821
 20
-3.3184980951
 10
-35.6749594883
 20
-3.6842569989
 10
-35.6574688062
 20
-4.0655678018
 10
-35.6379515738
 20
-4.4627044691
 10
-35.6162092263
 20
-4.8751505035
 10
-35.5919964432
 20
-5.303590114
 10
-35.5650703428
 20
-5.7481358593
 10
-35.5352116162
 20
-6.2084084294
 10
-35.5022017117
 20
-6.6843492732
 10
-35.4657677948
 20
-7.1759681154
 10
-35.4256595458
 20
-7.682953295
 10
-35.3816890664
 20
-8.2047623822
 10
-35.3336585259
 20
-8.7405909781
 10
-35.2812500213
 20
-9.290945828
 10
-35.2240792031
 20
-9.8572417865
 10
-35.1619198677
 20
-10.4389031742
 10
-35.0944620891
 20
-11.0361962456
 10
-35.0211332858
 20
-11.6517625983
 10
-34.9416166385
 20
-12.2854357529
 10
-34.8556130113
 20
-12.9370266929
 10
-34.7624833553
 20
-13.6090895398
 10
-34.6617515518
 20
-14.3023238191
 10
-34.5531646526
 20
-15.0156092274
 10
-34.4363619415
 20
-15.7487375787
  0
LINE
  5
270
100
AcDbEntity
  8
RACCORDO
100
AcDbLine
 62
250
  6
CONTINUOUS
 10
-35.2443340748
 20
-2.9870112651
 11
-35.2147893905
 21
-3.7034398144
  0
LINE
  5
271
100
AcDbEntity
  8
RACCORDO
100
AcDbLine
 62
250
  6
CONTINUOUS
 10
-35.7174131755
 20
-2.6291009056
 11
-35.6906452821
 21
-3.3184980951
  0
LINE
  5
272
100
AcDbEntity
  8
RACCORDO
100
AcDbLine
 62
250
  6
CONTINUOUS
 10
-35.268262431
 20
-2.3274983779
 11
-35.2443340748
 21
-2.9870112651
  0
LINE
  5
273
100
AcDbEntity
  8
RACCORDO
100
AcDbLine
 62
250
  6
CONTINUOUS
 10
-35.7391862402
 20
-1.9908552317
 11
-35.7174131755
 21
-2.6291009056
  0
LINE
  5
274
100
AcDbEntity
  8
RACCORDO
100
AcDbLine
 62
250
  6
CONTINUOUS
 10
-35.2881317527
 20
-1.7079473564
 11
-35.268262431
 21
-2.3274983779
  0
LINE
  5
275
100
AcDbEntity
  8
RACCORDO
100
AcDbLine
 62
250
  6
CONTINUOUS
 10
-35.7573503055
 20
-1.3879429904
 11
-35.7391862402
 21
-1.9908552317
  0
LINE
  5
276
100
AcDbEntity
  8
RACCORDO
100
AcDbLine
 62
250
  6
CONTINUOUS
 10
-35.3123827152
 20
-0.8267247271
 11
-35.2881317527
 21
-1.7079473564
  0
LINE
  5
277
100
AcDbEntity
  8
RACCORDO
100
AcDbLine
 62
250
  6
CONTINUOUS
 10
-35.7800407443
 20
-0.5142185414
 11
-35.7573503055
 21
-1.3879429904
  0
LINE
  5
278
100
AcDbEntity
  8
RACCORDO
100
AcDbLine
 62
250
  6
CONTINUOUS
 10
-35.3324781739
 20
0.0433445
 11
-35.3123827152
 21
-0.8267247271
  0
LINE
  5
279
100
AcDbEntity
  8
RACCORDO
100
AcDbLine
 62
250
  6
CONTINUOUS
 10
-35.7991475123
 20
0.3629869187
 11
-35.7800407443
 21
-0.5142185414
  0
LINE
  5
27A
100
AcDbEntity
  8
RACCORDO
100
AcDbLine
 62
250
  6
CONTINUOUS
 10
-35.3549664204
 20
1.228408121
 11
-35.3324781739
 21
0.0433445
  0
LINE
  5
27B
100
AcDbEntity
  8
RACCORDO
100
AcDbLine
 62
250
  6
CONTINUOUS
 10
-35.8204498125
 20
1.5530909717
 11
-35.7991475123
 21
0.3629869187
  0
LINE
  5
27C
100
AcDbEntity
  8
RACCORDO
100
AcDbLine
 62
250
  6
CONTINUOUS
 10
-35.3773398596
 20
2.7141862409
 11
-35.3549664204
 21
1.228408121
  0
LINE
  5
27D
100
AcDbEntity
  8
RACCORDO
100
AcDbLine
 62
250
  6
CONTINUOUS
 10
-35.0431022599
 20
0.485415686
 11
-35.0598261546
 21
1.6567242199
  0
LINE
  5
27E
100
AcDbEntity
  8
RACCORDO
100
AcDbLine
 62
250
  6
CONTINUOUS
 10
-35.8414803977
 20
3.0348838252
 11
-35.8204498125
 21
1.5530909717
  0
LINE
  5
27F
100
AcDbEntity
  8
RACCORDO
100
AcDbLine
 62
250
  6
CONTINUOUS
 10
-35.0598261546
 20
1.6567242199
 11
-35.0732243824
 21
2.8340360842
  0
LINE
  5
280
100
AcDbEntity
  8
RACCORDO
100
AcDbLine
 62
250
  6
CONTINUOUS
 10
-35.3974901441
 20
4.4857642785
 11
-35.3773398596
 21
2.7141862409
  0
LINE
  5
281
100
AcDbEntity
  8
RACCORDO
100
AcDbLine
 62
250
  6
CONTINUOUS
 10
-35.8605057181
 20
4.8210293951
 11
-35.8414803977
 21
3.0348838252
  0
LINE
  5
282
100
AcDbEntity
  8
RACCORDO
100
AcDbLine
 62
250
  6
CONTINUOUS
 10
-35.0732243824
 20
2.8340360842
 11
-35.0838391369
 21
4.0091819133
  0
LINE
  5
283
100
AcDbEntity
  8
RACCORDO
100
AcDbLine
 62
250
  6
CONTINUOUS
 10
-35.4140229001
 20
6.5012348899
 11
-35.3974901441
 21
4.4857642785
  0
LINE
  5
284
100
AcDbEntity
  8
RACCORDO
100
AcDbLine
 62
250
  6
CONTINUOUS
 10
-35.0838391369
 20
4.0091819133
 11
-35.0923193582
 21
5.1799960574
  0
LINE
  5
285
100
AcDbEntity
  8
RACCORDO
100
AcDbLine
 62
250
  6
CONTINUOUS
 10
-35.8764097244
 20
6.9146826844
 11
-35.8605057181
 21
4.8210293951
  0
LINE
  5
286
100
AcDbEntity
  8
RACCORDO
100
AcDbLine
 62
250
  6
CONTINUOUS
 10
-35.0923193582
 20
5.1799960574
 11
-35.099109802
 21
6.3410106762
  0
LINE
  5
287
100
AcDbEntity
  8
RACCORDO
100
AcDbLine
 62
250
  6
CONTINUOUS
 10
-35.425668916
 20
8.5966721142
 11
-35.4140229001
 21
6.5012348899
  0
LINE
  5
288
100
AcDbEntity
  8
RACCORDO
100
AcDbLine
 62
250
  6
CONTINUOUS
 10
-35.099109802
 20
6.3410106762
 11
-35.1045456105
 21
7.5254738453
  0
LINE
  5
289
100
AcDbEntity
  8
RACCORDO
100
AcDbLine
 62
250
  6
CONTINUOUS
 10
-35.8871938663
 20
9.096328642
 11
-35.8764097244
 21
6.9146826844
  0
LINE
  5
28A
100
AcDbEntity
  8
RACCORDO
100
AcDbLine
 62
250
  6
CONTINUOUS
 10
-35.1045456105
 20
7.5254738453
 11
-35.1087094674
 21
8.7497982018
  0
LINE
  5
28B
100
AcDbEntity
  8
RACCORDO
100
AcDbLine
 62
250
  6
CONTINUOUS
 10
-35.4320112425
 20
10.5880090517
 11
-35.425668916
 21
8.5966721142
  0
LINE
  5
28C
100
AcDbEntity
  8
RACCORDO
100
AcDbLine
 62
250
  6
CONTINUOUS
 10
-35.1087094674
 20
8.7497982018
 11
-35.1116365809
 21
10.0369185542
  0
LINE
  5
28D
100
AcDbEntity
  8
RACCORDO
100
AcDbLine
 62
250
  6
CONTINUOUS
 10
-35.8925511495
 20
11.1615418212
 11
-35.8871938663
 21
9.096328642
  0
LINE
  5
28E
100
AcDbEntity
  8
RACCORDO
100
AcDbLine
 62
250
  6
CONTINUOUS
 10
-35.1116365809
 20
10.0369185542
 11
-35.1132098196
 21
11.4054994592
  0
LINE
  5
28F
100
AcDbEntity
  8
RACCORDO
100
AcDbLine
 62
250
  6
CONTINUOUS
 10
-35.434188186
 20
12.2806062528
 11
-35.4320112425
 21
10.5880090517
  0
LWPOLYLINE
  5
290
100
AcDbEntity
  8
RACCORDO
100
AcDbPolyline
 62
7
  6
CONTINUOUS
 90
16
 70
0
 10
-35.1989418401
 20
13.0231880514
 10
-35.1982972458
 20
10.8791367399
 10
-35.1936792639
 20
8.7133916287
 10
-35.1848022522
 20
6.5866958127
 10
-35.1712602149
 20
4.4993283777
 10
-35.1517644096
 20
2.4519088618
 10
-35.1237857286
 20
0.4457935341
 10
-35.0832384689
 20
-1.5167515852
 10
-35.0236744337
 20
-3.4316112378
 10
-34.9393090729
 20
-5.2946396078
 10
-34.8268244626
 20
-7.1029413902
 10
-34.685998402
 20
-8.8554011626
 10
-34.5183600146
 20
-10.5521044196
 10
-34.326414939
 20
-12.1940357332
 10
-34.1131792833
 20
-13.7828879782
 10
-33.8911221674
 20
-15.2610685159
  0
LINE
  5
291
100
AcDbEntity
  8
RACCORDO
100
AcDbLine
 62
250
  6
CONTINUOUS
 10
-35.1132098196
 20
11.4054994592
 11
-35.1133063897
 21
14.1288671655
  0
LINE
  5
292
100
AcDbEntity
  8
RACCORDO
100
AcDbLine
 62
250
  6
CONTINUOUS
 10
-35.8929490417
 20
15.6370498293
 11
-35.8925511495
 21
11.1615418212
  0
LINE
  5
293
100
AcDbEntity
  8
RACCORDO
100
AcDbLine
 62
250
  6
CONTINUOUS
 10
-35.4334280968
 20
15.6068561072
 11
-35.434188186
 21
12.2806062528
  0
LINE
  5
294
100
AcDbEntity
  8
RACCORDO
100
AcDbLine
 62
250
  6
CONTINUOUS
 10
-35.1133063897
 20
14.1288671655
 11
-35.1117468313
 21
15.6228429584
  0
LINE
  5
295
100
AcDbEntity
  8
RACCORDO
100
AcDbLine
 62
250
  6
CONTINUOUS
 10
-35.1117468313
 20
15.6228429584
 11
-35.1083820882
 21
17.093171295
  0
LINE
  5
296
100
AcDbEntity
  8
RACCORDO
100
AcDbLine
 62
250
  6
CONTINUOUS
 10
-35.8887025855
 20
17.5508191992
 11
-35.8929490417
 21
15.6370498293
  0
LINE
  5
297
100
AcDbEntity
  8
RACCORDO
100
AcDbLine
 62
250
  6
CONTINUOUS
 10
-35.4291066832
 20
17.5200208115
 11
-35.4334280968
 21
15.6068561072
  0
LINE
  5
298
100
AcDbEntity
  8
RACCORDO
100
AcDbLine
 62
250
  6
CONTINUOUS
 10
-35.1083820882
 20
17.093171295
 11
-35.1030870887
 21
18.5615196397
  0
LINE
  5
299
100
AcDbEntity
  8
RACCORDO
100
AcDbLine
 62
250
  6
CONTINUOUS
 10
-35.8812692968
 20
19.3304516584
 11
-35.8887025855
 21
17.5508191992
  0
LINE
  5
29A
100
AcDbEntity
  8
RACCORDO
100
AcDbLine
 62
250
  6
CONTINUOUS
 10
-35.4215244669
 20
19.2989623734
 11
-35.4291066832
 21
17.5200208115
  0
LINE
  5
29B
100
AcDbEntity
  8
RACCORDO
100
AcDbLine
 62
250
  6
CONTINUOUS
 10
-35.1030870887
 20
18.5615196397
 11
-35.0955467798
 21
20.0464473133
  0
LINE
  5
29C
100
AcDbEntity
  8
RACCORDO
100
AcDbLine
 62
250
  6
CONTINUOUS
 10
-35.8706898384
 20
21.0358021518
 11
-35.8812692968
 21
19.3304516584
  0
LINE
  5
29D
100
AcDbEntity
  8
RACCORDO
100
AcDbLine
 62
250
  6
CONTINUOUS
 10
-35.4107452097
 20
21.0035549748
 11
-35.4215244669
 21
19.2989623734
  0
LINE
  5
29E
100
AcDbEntity
  8
RACCORDO
100
AcDbLine
 62
250
  6
CONTINUOUS
 10
-35.0955467798
 20
20.0464473133
 11
-35.0871393901
 21
21.3214271182
  0
LINE
  5
29F
100
AcDbEntity
  8
RACCORDO
100
AcDbLine
 62
250
  6
CONTINUOUS
 10
-35.4015218184
 20
22.1428146956
 11
-35.4107452097
 21
21.0035549748
  0
LINE
  5
2A0
100
AcDbEntity
  8
RACCORDO
100
AcDbLine
 62
250
  6
CONTINUOUS
 10
-35.0871393901
 20
21.3214271182
 11
-35.0785589166
 21
22.3770789636
  0
LINE
  5
2A1
100
AcDbEntity
  8
RACCORDO
100
AcDbLine
 62
250
  6
CONTINUOUS
 10
-35.8563044532
 20
22.7477865926
 11
-35.8706898384
 21
21.0358021518
  0
LINE
  5
2A2
100
AcDbEntity
  8
RACCORDO
100
AcDbLine
 62
250
  6
CONTINUOUS
 10
-35.3901656213
 20
23.2893164838
 11
-35.4015218184
 21
22.1428146956
  0
LINE
  5
2A3
100
AcDbEntity
  8
RACCORDO
100
AcDbLine
 62
250
  6
CONTINUOUS
 10
-35.0785589166
 20
22.3770789636
 11
-35.0672280547
 21
23.5089169824
  0
LINE
  5
2A4
100
AcDbEntity
  8
RACCORDO
100
AcDbLine
 62
250
  6
CONTINUOUS
 10
-35.8439517817
 20
23.8997102012
 11
-35.8563044532
 21
22.7477865926
  0
LINE
  5
2A5
100
AcDbEntity
  8
RACCORDO
100
AcDbLine
 62
250
  6
CONTINUOUS
 10
-35.0672280547
 20
23.5089169824
 11
-35.0580068309
 21
24.2780153962
  0
LINE
  5
2A6
100
AcDbEntity
  8
RACCORDO
100
AcDbLine
 62
250
  6
CONTINUOUS
 10
-35.3763682924
 20
24.4423336816
 11
-35.3901656213
 21
23.2893164838
  0
LINE
  5
2A7
100
AcDbEntity
  8
RACCORDO
100
AcDbLine
 62
250
  6
CONTINUOUS
 10
-35.8288662239
 20
25.0528707509
 11
-35.8439517817
 21
23.8997102012
  0
LINE
  5
2A8
100
AcDbEntity
  8
RACCORDO
100
AcDbLine
 62
250
  6
CONTINUOUS
 10
-35.0580068309
 20
24.2780153962
 11
-35.0475962788
 21
25.0316190919
  0
LINE
  5
2A9
100
AcDbEntity
  8
RACCORDO
100
AcDbLine
 62
250
  6
CONTINUOUS
 10
-35.3597172438
 20
25.5939712954
 11
-35.3763682924
 21
24.4423336816
  0
LWPOLYLINE
  5
2AA
100
AcDbEntity
  8
RACCORDO
100
AcDbPolyline
 62
7
  6
CONTINUOUS
 90
10
 70
0
 10
-34.4054246918
 20
38.539682361
 10
-34.4055877574
 20
38.5291618757
 10
-34.4032731231
 20
38.5151020331
 10
-34.3981805258
 20
38.5002665148
 10
-34.3902129413
 20
38.4845817698
 10
-34.3794666574
 20
38.468122243
 10
-34.3662591877
 20
38.451307994
 10
-34.3506963163
 20
38.4342791116
 10
-34.332671888
 20
38.4168959674
 10
-34.3121856881
 20
38.3991588282
  0
LINE
  5
2AB
100
AcDbEntity
  8
RACCORDO
100
AcDbLine
 62
250
  6
CONTINUOUS
 10
-35.0475962788
 20
25.0316190919
 11
-35.0360847592
 21
25.7589032368
  0
LINE
  5
2AC
100
AcDbEntity
  8
RACCORDO
100
AcDbLine
 62
250
  6
CONTINUOUS
 10
-35.0360847592
 20
25.7589032368
 11
-35.0233994013
 21
26.4560082573
  0
LINE
  5
2AD
100
AcDbEntity
  8
RACCORDO
100
AcDbLine
 62
250
  6
CONTINUOUS
 10
-35.0233994013
 20
26.4560082573
 11
-35.0094432956
 21
27.1232565563
  0
LINE
  5
2AE
100
AcDbEntity
  8
RACCORDO
100
AcDbLine
 62
250
  6
CONTINUOUS
 10
-35.0094432956
 20
27.1232565563
 11
-34.9940173999
 21
27.7675515465
  0
LINE
  5
2AF
100
AcDbEntity
  8
RACCORDO
100
AcDbLine
 62
250
  6
CONTINUOUS
 10
-34.9940173999
 20
27.7675515465
 11
-34.9769750122
 21
28.3929204652
  0
LINE
  5
2B0
100
AcDbEntity
  8
RACCORDO
100
AcDbLine
 62
250
  6
CONTINUOUS
 10
-34.9769750122
 20
28.3929204652
 11
-34.958067979
 21
29.0060694926
  0
LINE
  5
2B1
100
AcDbEntity
  8
RACCORDO
100
AcDbLine
 62
250
  6
CONTINUOUS
 10
-34.958067979
 20
29.0060694926
 11
-34.9370512531
 21
29.611819437
  0
LINE
  5
2B2
100
AcDbEntity
  8
RACCORDO
100
AcDbLine
 62
250
  6
CONTINUOUS
 10
-34.9370512531
 20
29.611819437
 11
-34.9137224357
 21
30.2130440492
  0
LINE
  5
2B3
100
AcDbEntity
  8
RACCORDO
100
AcDbLine
 62
250
  6
CONTINUOUS
 10
-34.9137224357
 20
30.2130440492
 11
-34.8878449126
 21
30.8131698663
  0
LINE
  5
2B4
100
AcDbEntity
  8
RACCORDO
100
AcDbLine
 62
250
  6
CONTINUOUS
 10
-34.8878449126
 20
30.8131698663
 11
-34.8591194268
 21
31.4158706701
  0
LINE
  5
2B5
100
AcDbEntity
  8
RACCORDO
100
AcDbLine
 62
250
  6
CONTINUOUS
 10
-34.8591194268
 20
31.4158706701
 11
-34.8272265558
 21
32.0239674179
  0
LINE
  5
2B6
100
AcDbEntity
  8
RACCORDO
100
AcDbLine
 62
250
  6
CONTINUOUS
 10
-34.8272265558
 20
32.0239674179
 11
-34.7917510098
 21
32.642051595
  0
LINE
  5
2B7
100
AcDbEntity
  8
RACCORDO
100
AcDbLine
 62
7
  6
CONTINUOUS
 10
-26.9122137275
 20
35.2898252398
 11
-26.9921205818
 21
34.7898365689
  0
LWPOLYLINE
  5
2B8
100
AcDbEntity
  8
RACCORDO
100
AcDbPolyline
 62
250
  6
CONTINUOUS
 90
9
 70
0
 10
-27.3724256243
 20
34.2416793997
 10
-27.375599402
 20
34.223774536
 10
-27.3802247178
 20
34.2070046761
 10
-27.3862501831
 20
34.1915561421
 10
-27.3936088523
 20
34.1776005762
 10
-27.4022189683
 20
34.1652930329
 10
-27.4119848714
 20
34.154770256
 10
-27.4227980598
 20
34.1461491604
 10
-27.4345383939
 20
34.1395255334
  0
LWPOLYLINE
  5
2B9
100
AcDbEntity
  8
DRAFT
100
AcDbPolyline
 62
7
  6
CONTINUOUS
 90
10
 70
0
 10
-25.8006867142
 20
40.9401580945
 10
-25.9260249119
 20
40.329758504
 10
-26.0468342902
 20
39.7289593226
 10
-26.1631148491
 20
39.1377605503
 10
-26.2748142402
 20
38.5562390925
 10
-26.3819848118
 20
37.9843180438
 10
-26.4847836093
 20
37.4217666881
 10
-26.5832629813
 20
36.8685081199
 10
-26.6773705791
 20
36.3246192446
 10
-26.7671064029
 20
35.7901000623
  0
LWPOLYLINE
  5
2BA
100
AcDbEntity
  8
RACCORDO
100
AcDbPolyline
 62
250
  6
CONTINUOUS
 90
19
 70
0
 10
-25.8224487553
 20
42.7107061157
 10
-25.9533086991
 20
42.0945726789
 10
-26.0779453663
 20
41.4979829565
 10
-26.1963463909
 20
40.9210326532
 10
-26.3083142229
 20
40.3638779687
 10
-26.414022666
 20
39.8265358128
 10
-26.5140177689
 20
39.3088795371
 10
-26.6081413186
 20
38.8119206984
 10
-26.6965352505
 20
38.3347599873
 10
-26.7801996518
 20
37.874380239
 10
-26.858992728
 20
37.4319426212
 10
-26.9330417263
 20
37.0063740107
 10
-27.0037553926
 20
36.5912787188
 10
-27.071166927
 20
36.1870327413
 10
-27.1352356866
 20
35.7933192974
 10
-27.1972677453
 20
35.4026670218
 10
-27.257700914
 20
35.0125841574
 10
-27.3160996805
 20
34.6255798733
 10
-27.3724645764
 20
34.2416646884
  0
LWPOLYLINE
  5
2BB
100
AcDbEntity
  8
RACCORDO
100
AcDbPolyline
 62
250
  6
CONTINUOUS
 90
19
 70
0
 10
-26.2289934406
 20
42.7858113854
 10
-26.36038491
 20
42.1764200798
 10
-26.4850142827
 20
41.586424848
 10
-26.6031843794
 20
41.015717781
 10
-26.7152084175
 20
40.4641060706
 10
-26.8212619312
 20
39.9316083606
 10
-26.9214373032
 20
39.4184353152
 10
-27.0157502813
 20
38.9254528896
 10
-27.1045845341
 20
38.4516527984
 10
-27.1885552054
 20
37.9944447221
 10
-27.2676073901
 20
37.5548939915
 10
-27.342104981
 20
37.1318251693
 10
-27.4131712075
 20
36.7193295858
 10
-27.4808066466
 20
36.3178179486
 10
-27.5451825072
 20
35.9268183347
 10
-27.6075087625
 20
35.5391584238
 10
-27.6681411236
 20
35.1524644092
 10
-27.7266888983
 20
34.7691225628
 10
-27.7831476059
 20
34.3891344815
  0
LINE
  5
2BC
100
AcDbEntity
  8
RACCORDO
100
AcDbLine
 62
7
  6
CONTINUOUS
 10
-25.6566373593
 20
41.5678931582
 11
-25.8006867142
 21
40.9401580945
  0
LWPOLYLINE
  5
2BD
100
AcDbEntity
  8
RACCORDO
100
AcDbPolyline
 62
7
  6
CONTINUOUS
 90
3
 70
0
 10
-25.4736558319
 20
42.3468956969
 10
-25.5105135914
 20
42.1915846166
 10
-25.6566373593
 20
41.5678931582
  0
LWPOLYLINE
  5
2BE
100
AcDbEntity
  8
RACCORDO
100
AcDbPolyline
 62
7
  6
CONTINUOUS
 90
16
 70
0
 10
-25.4736558319
 20
42.3468956969
 10
-25.463452134
 20
42.3850277401
 10
-25.4511239041
 20
42.4230469856
 10
-25.4366711422
 20
42.4609534333
 10
-25.419935882
 20
42.499069129
 10
-25.4010760898
 20
42.537072027
 10
-25.3805656646
 20
42.5739959897
 10
-25.3584192704
 20
42.6097250846
 10
-25.3346222432
 20
42.6443752442
 10
-25.3096044901
 20
42.677328129
 10
-25.2832864032
 20
42.7086154824
 10
-25.2557475903
 20
42.7382055609
 10
-25.2276567824
 20
42.765384795
 10
-25.1992368898
 20
42.7899153281
 10
-25.1702650022
 20
42.8120350167
 10
-25.1407411196
 20
42.8317438608
  0
LWPOLYLINE
  5
2BF
100
AcDbEntity
  8
RACCORDO
100
AcDbPolyline
 62
250
  6
CONTINUOUS
 90
7
 70
0
 10
-25.2839910576
 20
23.1712929839
 10
-25.2566707631
 20
23.2265968852
 10
-25.2208045581
 20
23.2874790192
 10
-25.1805273561
 20
23.3449205023
 10
-25.1362243779
 20
23.3979670835
 10
-25.0878764106
 20
23.4463802374
 10
-25.0355941264
 20
23.489806229
  0
LINE
  5
2C0
100
AcDbEntity
  8
RACCORDO
100
AcDbLine
 62
7
  6
CONTINUOUS
 10
-25.0841593788
 20
23.3559867413
 11
-25.0541745217
 21
23.4018748738
  0
LWPOLYLINE
  5
2C1
100
AcDbEntity
  8
RACCORDO
100
AcDbPolyline
 62
7
  6
CONTINUOUS
 90
3
 70
0
 10
-25.0541745217
 20
23.4018748738
 10
-25.0095279733
 20
23.4586820761
 10
-24.9608194162
 20
23.5101624716
  0
LINE
  5
2C2
100
AcDbEntity
  8
RACCORDO
100
AcDbLine
 62
7
  6
CONTINUOUS
 10
-24.9608194162
 20
23.5101624716
 11
-24.9083275149
 21
23.5559990874
  0
LINE
  5
2C3
100
AcDbEntity
  8
RACCORDO
100
AcDbLine
 62
7
  6
CONTINUOUS
 10
-24.9083275149
 20
23.5559990874
 11
-24.8797395512
 21
23.5764279771
  0
LINE
  5
2C4
100
AcDbEntity
  8
RACCORDO
100
AcDbLine
 62
250
  6
CONTINUOUS
 10
-25.0355941264
 20
23.489806229
 11
-24.9802354719
 21
23.5274908991
  0
LWPOLYLINE
  5
2C5
100
AcDbEntity
  8
RACCORDO
100
AcDbPolyline
 62
7
  6
CONTINUOUS
 90
16
 70
0
 10
-24.9789074687
 20
23.4279677508
 10
-25.0545293989
 20
23.3784655294
 10
-25.1272180918
 20
23.3233202429
 10
-25.1965309967
 20
23.2626760717
 10
-25.2619398066
 20
23.1968329278
 10
-25.3231567075
 20
23.1259309994
 10
-25.3800808281
 20
23.0498533076
 10
-25.4323014504
 20
22.9688405808
 10
-25.4794501606
 20
22.8831536744
 10
-25.5214133237
 20
22.7925619044
 10
-25.5578580848
 20
22.6971350916
 10
-25.5883496997
 20
22.5972820133
 10
-25.6125990749
 20
22.4931010168
 10
-25.6303036241
 20
22.3847047013
 10
-25.6411422634
 20
22.2723547231
 10
-25.6448190564
 20
22.1562873354
  0
LINE
  5
2C6
100
AcDbEntity
  8
DRAFT
100
AcDbLine
 62
7
  6
CONTINUOUS
 10
-24.6692818104
 20
23.6156784259
 11
-24.9789074687
 21
23.4279677508
  0
LINE
  5
2C7
100
AcDbEntity
  8
RACCORDO
100
AcDbLine
 62
250
  6
CONTINUOUS
 10
-23.9614321865
 20
23.3680891084
 11
-24.0085287857
 21
23.3399469033
  0
LINE
  5
2C8
100
AcDbEntity
  8
RACCORDO
100
AcDbLine
 62
250
  6
CONTINUOUS
 10
-24.9802354719
 20
23.5274908991
 11
-24.9497620124
 21
23.5451017487
  0
LINE
  5
2C9
100
AcDbEntity
  8
RACCORDO
100
AcDbLine
 62
250
  6
CONTINUOUS
 10
-24.9388185807
 20
23.4503435354
 11
-24.9789074687
 21
23.4279677508
  0
LINE
  5
2CA
100
AcDbEntity
  8
RACCORDO
100
AcDbLine
 62
7
  6
CONTINUOUS
 10
-24.9497620124
 20
23.5451017487
 11
-24.9496666723
 21
23.5451536374
  0
LWPOLYLINE
  5
2CB
100
AcDbEntity
  8
RACCORDO
100
AcDbPolyline
 62
7
  6
CONTINUOUS
 90
16
 70
0
 10
-24.9497978629
 20
23.545080575
 10
-24.9068710028
 20
23.5661098639
 10
-24.8548856846
 20
23.5858799229
 10
-24.8006741374
 20
23.6006954347
 10
-24.744393565
 20
23.6105899361
 10
-24.6861471214
 20
23.6156220632
 10
-24.625979484
 20
23.6158231394
 10
-24.5640442392
 20
23.6112164891
 10
-24.5006532403
 20
23.6018567793
 10
-24.4361268157
 20
23.5878334365
 10
-24.3707066684
 20
23.5692597665
 10
-24.3046763125
 20
23.5462798179
 10
-24.2384000118
 20
23.5190974881
 10
-24.1721764099
 20
23.487947757
 10
-24.1062381391
 20
23.4530563308
 10
-24.0656290014
 20
23.4296617004
  0
LWPOLYLINE
  5
2CC
100
AcDbEntity
  8
RACCORDO
100
AcDbPolyline
 62
250
  6
CONTINUOUS
 90
10
 70
0
 10
22.5051830854
 20
-48.6260720321
 10
22.4833282117
 20
-48.6160007338
 10
22.4632370038
 20
-48.6044398384
 10
22.4450882566
 20
-48.5914922366
 10
22.4290434777
 20
-48.5772731605
 10
22.4152454483
 20
-48.5619091553
 10
22.4038169538
 20
-48.5455369535
 10
22.3948596935
 20
-48.5283022611
 10
22.3884533736
 20
-48.5103584582
 10
22.385104239
 20
-48.4949723368
  0
LINE
  5
2CD
100
AcDbEntity
  8
RACCORDO
100
AcDbLine
 62
250
  6
CONTINUOUS
 10
18.1658783061
 20
-49.2143370327
 11
17.9866937776
 21
-49.1286253115
  0
LWPOLYLINE
  5
2CE
100
AcDbEntity
  8
RACCORDO
100
AcDbPolyline
 62
250
  6
CONTINUOUS
 90
9
 70
0
 10
25.8115222111
 20
-52.8899099461
 10
25.8044408952
 20
-52.8864950348
 10
25.785022618
 20
-52.873923917
 10
25.7675761733
 20
-52.8575543323
 10
25.7522517762
 20
-52.8375272243
 10
25.7391813702
 20
-52.814015028
 10
25.7284774924
 20
-52.7872201851
 10
25.7202323035
 20
-52.7573734015
 10
25.7145167951
 20
-52.7247316602
  0
LWPOLYLINE
  5
2CF
100
AcDbEntity
  8
RACCORDO
100
AcDbPolyline
 62
7
  6
CONTINUOUS
 90
19
 70
0
 10
18.08065903
 20
-49.2667652244
 10
18.2243717767
 20
-49.3368143569
 10
18.4235220679
 20
-49.4265375574
 10
18.6213007615
 20
-49.506958047
 10
18.817498573
 20
-49.5778507116
 10
19.0116671124
 20
-49.638929436
 10
19.2031375672
 20
-49.6898888143
 10
19.3916977199
 20
-49.730582218
 10
19.5770818808
 20
-49.7608696867
 10
19.7586235748
 20
-49.7805736544
 10
19.9361550935
 20
-49.7896197308
 10
20.1093952618
 20
-49.7879483937
 10
20.2775524648
 20
-49.7755554513
 10
20.4404603806
 20
-49.7524801819
 10
20.5977864764
 20
-49.7188090249
 10
20.7485134236
 20
-49.6748732398
 10
20.8924749063
 20
-49.620918288
 10
21.0293205627
 20
-49.5573009303
 10
21.0767080499
 20
-49.5321478907
  0
LINE
  5
2D0
100
AcDbEntity
  8
RACCORDO
100
AcDbLine
 62
250
  6
CONTINUOUS
 10
17.9866937776
 20
-49.1286253115
 11
17.5002808866
 21
-48.8838301872
  0
LINE
  5
2D1
100
AcDbEntity
  8
RACCORDO
100
AcDbLine
 62
250
  6
CONTINUOUS
 10
17.5002808866
 20
-48.8838301872
 11
17.0276593103
 21
-48.642826767
  0
LINE
  5
2D2
100
AcDbEntity
  8
RACCORDO
100
AcDbLine
 62
250
  6
CONTINUOUS
 10
17.0276593103
 20
-48.642826767
 11
16.7141520885
 21
-48.4811415525
  0
LINE
  5
2D3
100
AcDbEntity
  8
RACCORDO
100
AcDbLine
 62
250
  6
CONTINUOUS
 10
16.7141520885
 20
-48.4811415525
 11
16.2595432
 21
-48.243963318
  0
LINE
  5
2D4
100
AcDbEntity
  8
RACCORDO
100
AcDbLine
 62
250
  6
CONTINUOUS
 10
16.2595432
 20
-48.243963318
 11
15.8333432365
 21
-48.0185393454
  0
LINE
  5
2D5
100
AcDbEntity
  8
RACCORDO
100
AcDbLine
 62
250
  6
CONTINUOUS
 10
15.8333432365
 20
-48.0185393454
 11
15.4427008296
 21
-47.8091965528
  0
LWPOLYLINE
  5
2D6
100
AcDbEntity
  8
RACCORDO
100
AcDbPolyline
 62
250
  6
CONTINUOUS
 90
25
 70
0
 10
10.4140634125
 20
-44.9644785208
 10
10.367717658
 20
-44.939245975
 10
10.3195216121
 20
-44.9155456051
 10
10.269486826
 20
-44.893385537
 10
10.2179745547
 20
-44.8729058407
 10
10.1646779555
 20
-44.8539229334
 10
10.1085315277
 20
-44.8360933485
 10
10.049527518
 20
-44.8195577505
 10
9.9875784593
 20
-44.8043989927
 10
9.9213377815
 20
-44.7904817576
 10
9.8504703542
 20
-44.7780169818
 10
9.7750727646
 20
-44.7672864284
 10
9.6943250862
 20
-44.7584862961
 10
9.6074480612
 20
-44.7518247546
 10
9.5149633966
 20
-44.7476370566
 10
9.4180556962
 20
-44.7462096897
 10
9.3162233294
 20
-44.7475365522
 10
9.2100101289
 20
-44.7516187285
 10
9.1024024339
 20
-44.7583003503
 10
8.9938963351
 20
-44.767182377
 10
8.8844132092
 20
-44.7779365565
 10
8.7762591353
 20
-44.7901414701
 10
8.6702765622
 20
-44.8032871837
 10
8.5660852718
 20
-44.8170349587
 10
8.4641775206
 20
-44.8311589277
  0
LINE
  5
2D7
100
AcDbEntity
  8
RACCORDO
100
AcDbLine
 62
250
  6
CONTINUOUS
 10
15.4427008296
 20
-47.8091965528
 11
15.0893170766
 21
-47.6174944439
  0
LINE
  5
2D8
100
AcDbEntity
  8
RACCORDO
100
AcDbLine
 62
250
  6
CONTINUOUS
 10
15.0893170766
 20
-47.6174944439
 11
14.7669108775
 21
-47.4406180645
  0
LINE
  5
2D9
100
AcDbEntity
  8
RACCORDO
100
AcDbLine
 62
250
  6
CONTINUOUS
 10
14.7669108775
 20
-47.4406180645
 11
14.4634036348
 21
-47.2723500723
  0
LINE
  5
2DA
100
AcDbEntity
  8
RACCORDO
100
AcDbLine
 62
7
  6
CONTINUOUS
 10
6.3205362912
 20
-45.0018297558
 11
6.3198879435
 21
-45.0014646338
  0
LINE
  5
2DB
100
AcDbEntity
  8
RACCORDO
100
AcDbLine
 62
250
  6
CONTINUOUS
 10
14.4634036348
 20
-47.2723500723
 11
14.0695790929
 21
-47.0514297332
  0
LWPOLYLINE
  5
2DC
100
AcDbEntity
  8
RACCORDO
100
AcDbPolyline
 62
7
  6
CONTINUOUS
 90
6
 70
0
 10
13.9641050512
 20
-47.064864795
 10
14.810862329
 20
-47.5424624446
 10
15.6534231571
 20
-48.003978783
 10
16.4904449498
 20
-48.4498556051
 10
17.3203507604
 20
-48.8807379703
 10
18.0806716592
 20
-49.2667715767
  0
LWPOLYLINE
  5
2DD
100
AcDbEntity
  8
RACCORDO
100
AcDbPolyline
 62
250
  6
CONTINUOUS
 90
8
 70
0
 10
18.08065903
 20
-49.2667652244
 10
18.0684793233
 20
-49.2598724235
 10
18.0495547777
 20
-49.2456495816
 10
18.0325906383
 20
-49.2281638354
 10
18.0177169627
 20
-49.2075492417
 10
18.0050477818
 20
-49.1839638446
 10
17.9946802254
 20
-49.1575884645
 10
17.9866937776
 20
-49.1286253115
  0
LINE
  5
2DE
100
AcDbEntity
  8
RACCORDO
100
AcDbLine
 62
250
  6
CONTINUOUS
 10
6.2165861792
 20
-44.7921198582
 11
5.5028459397
 21
-44.3864782203
  0
LINE
  5
2DF
100
AcDbEntity
  8
RACCORDO
100
AcDbLine
 62
250
  6
CONTINUOUS
 10
14.0695790929
 20
-47.0514297332
 11
13.3872013114
 21
-46.6638158587
  0
LINE
  5
2E0
100
AcDbEntity
  8
RACCORDO
100
AcDbLine
 62
250
  6
CONTINUOUS
 10
13.3872013114
 20
-46.6638158587
 11
12.807966006
 21
-46.3337295685
  0
LINE
  5
2E1
100
AcDbEntity
  8
RACCORDO
100
AcDbLine
 62
250
  6
CONTINUOUS
 10
12.807966006
 20
-46.3337295685
 11
12.6152597235
 21
-46.2238541193
  0
LINE
  5
2E2
100
AcDbEntity
  8
RACCORDO
100
AcDbLine
 62
250
  6
CONTINUOUS
 10
12.6152597235
 20
-46.2238541193
 11
12.0383232287
 21
-45.8944774121
  0
LINE
  5
2E3
100
AcDbEntity
  8
RACCORDO
100
AcDbLine
 62
250
  6
CONTINUOUS
 10
12.0383232287
 20
-45.8944774121
 11
11.7499451196
 21
-45.7295934344
  0
LINE
  5
2E4
100
AcDbEntity
  8
RACCORDO
100
AcDbLine
 62
250
  6
CONTINUOUS
 10
5.5028459397
 20
-44.3864782203
 11
4.8210271018
 21
-43.996804954
  0
LINE
  5
2E5
100
AcDbEntity
  8
RACCORDO
100
AcDbLine
 62
250
  6
CONTINUOUS
 10
11.7499451196
 20
-45.7295934344
 11
11.4509889439
 21
-45.5585312882
  0
LINE
  5
2E6
100
AcDbEntity
  8
RACCORDO
100
AcDbLine
 62
7
  6
CONTINUOUS
 10
12.2378056822
 20
-46.0761338724
 11
13.9641050512
 21
-47.064864795
  0
LINE
  5
2E7
100
AcDbEntity
  8
RACCORDO
100
AcDbLine
 62
250
  6
CONTINUOUS
 10
11.4509889439
 20
-45.5585312882
 11
10.4140652123
 21
-44.9644601732
  0
LINE
  5
2E8
100
AcDbEntity
  8
RACCORDO
100
AcDbLine
 62
7
  6
CONTINUOUS
 10
10.5008374535
 20
-45.0786413078
 11
12.2378056822
 21
-46.0761338724
  0
LINE
  5
2E9
100
AcDbEntity
  8
RACCORDO
100
AcDbLine
 62
250
  6
CONTINUOUS
 10
4.8210271018
 20
-43.996804954
 11
3.8460430798
 21
-43.4370356379
  0
LINE
  5
2EA
100
AcDbEntity
  8
RACCORDO
100
AcDbLine
 62
7
  6
CONTINUOUS
 10
-18.0820468988
 20
-30.9262608353
 11
-14.9162045573
 21
-32.7518426856
  0
LINE
  5
2EB
100
AcDbEntity
  8
RACCORDO
100
AcDbLine
 62
7
  6
CONTINUOUS
 10
-14.9162045573
 20
-32.7518426856
 11
-8.0440210576
 21
-36.7189463967
  0
LINE
  5
2EC
100
AcDbEntity
  8
RACCORDO
100
AcDbLine
 62
250
  6
CONTINUOUS
 10
-10.6148291024
 20
-35.0850481166
 11
-18.9234410183
 21
-30.2911638595
  0
LINE
  5
2ED
100
AcDbEntity
  8
RACCORDO
100
AcDbLine
 62
250
  6
CONTINUOUS
 10
3.8460430798
 20
-43.4370356379
 11
2.5937386408
 21
-42.7149078149
  0
LINE
  5
2EE
100
AcDbEntity
  8
RACCORDO
100
AcDbLine
 62
7
  6
CONTINUOUS
 10
-8.0440540831
 20
-36.7189273411
 11
-1.1686394387
 21
-40.6895165583
  0
LWPOLYLINE
  5
2EF
100
AcDbEntity
  8
RACCORDO
100
AcDbPolyline
 62
7
  6
CONTINUOUS
 90
5
 70
0
 10
-1.1686394387
 20
-40.6895165583
 10
1.9930677972
 20
-42.5173818753
 10
3.4999288279
 20
-43.3875582055
 10
4.9605601833
 20
-44.2269009938
 10
6.3198879435
 20
-45.0014646338
  0
LINE
  5
2F0
100
AcDbEntity
  8
RACCORDO
100
AcDbLine
 62
250
  6
CONTINUOUS
 10
2.5937386408
 20
-42.7149078149
 11
-10.6148291024
 21
-35.0850481166
  0
LINE
  5
2F1
100
AcDbEntity
  8
RACCORDO
100
AcDbLine
 62
250
  6
CONTINUOUS
 10
-18.9234410183
 20
-30.2911638595
 11
-20.2297782286
 21
-29.5357822296
  0
LINE
  5
2F2
100
AcDbEntity
  8
RACCORDO
100
AcDbLine
 62
7
  6
CONTINUOUS
 10
-24.2427521001
 20
-25.0124552673
 11
-22.9243067306
 21
-25.7780561487
  0
LINE
  5
2F3
100
AcDbEntity
  8
RACCORDO
100
AcDbLine
 62
250
  6
CONTINUOUS
 10
-20.2297782286
 20
-29.5357822296
 11
-21.3000490933
 21
-28.9138901325
  0
LINE
  5
2F4
100
AcDbEntity
  8
RACCORDO
100
AcDbLine
 62
250
  6
CONTINUOUS
 10
-22.9285253345
 20
-25.7112279669
 11
-24.8526074246
 21
-24.589479163
  0
LWPOLYLINE
  5
2F5
100
AcDbEntity
  8
RACCORDO
100
AcDbPolyline
 62
7
  6
CONTINUOUS
 90
4
 70
0
 10
-22.3886416899
 20
-28.4255193959
 10
-21.0427547146
 20
-29.2129308479
 10
-19.5891590036
 20
-30.0562141915
 10
-18.0820468988
 20
-30.9262608353
  0
LINE
  5
2F6
100
AcDbEntity
  8
RACCORDO
100
AcDbLine
 62
250
  6
CONTINUOUS
 10
-21.3000490933
 20
-28.9138901325
 11
-22.0812420962
 21
-28.4574272137
  0
LINE
  5
2F7
100
AcDbEntity
  8
RACCORDO
100
AcDbLine
 62
250
  6
CONTINUOUS
 10
-22.0812420962
 20
-28.4574272137
 11
-22.4915638875
 21
-28.2163938072
  0
LINE
  5
2F8
100
AcDbEntity
  8
RACCORDO
100
AcDbLine
 62
250
  6
CONTINUOUS
 10
-24.8526074246
 20
-24.589479163
 11
-26.2287068467
 21
-23.7829573519
  0
LINE
  5
2F9
100
AcDbEntity
  8
RACCORDO
100
AcDbLine
 62
250
  6
CONTINUOUS
 10
-26.2287068467
 20
-23.7829573519
 11
-26.5224770115
 21
-23.6083606341
  0
LINE
  5
2FA
100
AcDbEntity
  8
RACCORDO
100
AcDbLine
 62
250
  6
CONTINUOUS
 10
-26.5224770115
 20
-23.6083606341
 11
-26.8257804352
 21
-23.426236324
  0
LWPOLYLINE
  5
2FB
100
AcDbEntity
  8
RACCORDO
100
AcDbPolyline
 62
250
  6
CONTINUOUS
 90
19
 70
0
 10
-22.491563852
 20
-28.2163938554
 10
-22.5156361448
 20
-28.2017663062
 10
-22.540292314
 20
-28.185881048
 10
-22.5653116828
 20
-28.1686619239
 10
-22.5904863535
 20
-28.1499860634
 10
-22.6155452673
 20
-28.1298117666
 10
-22.6401704152
 20
-28.108183782
 10
-22.6641874731
 20
-28.0849432918
 10
-22.6872590485
 20
-28.0600745341
 10
-22.7088997073
 20
-28.0338632219
 10
-22.7289174175
 20
-28.0062662915
 10
-22.7471434211
 20
-27.9772060399
 10
-22.7632688734
 20
-27.9469646871
 10
-22.777225246
 20
-27.9154358544
 10
-22.7888687437
 20
-27.882658389
 10
-22.7979822986
 20
-27.8492019749
 10
-22.804629396
 20
-27.8150038354
 10
-22.8088314593
 20
-27.7801620164
 10
-22.8099315247
 20
-27.7644400289
  0
LINE
  5
2FC
100
AcDbEntity
  8
RACCORDO
100
AcDbLine
 62
250
  6
CONTINUOUS
 10
-26.8257804352
 20
-23.426236324
 11
-27.1522824679
 21
-23.2280221917
  0
LINE
  5
2FD
100
AcDbEntity
  8
RACCORDO
100
AcDbLine
 62
250
  6
CONTINUOUS
 10
-27.1522824679
 20
-23.2280221917
 11
-27.5122450428
 21
-23.0068590124
  0
LINE
  5
2FE
100
AcDbEntity
  8
RACCORDO
100
AcDbLine
 62
250
  6
CONTINUOUS
 10
-27.5122450428
 20
-23.0068590124
 11
-27.910911616
 21
-22.7586554518
  0
LINE
  5
2FF
100
AcDbEntity
  8
RACCORDO
100
AcDbLine
 62
250
  6
CONTINUOUS
 10
-27.910911616
 20
-22.7586554518
 11
-28.1947720049
 21
-22.5798328106
  0
LINE
  5
300
100
AcDbEntity
  8
RACCORDO
100
AcDbLine
 62
250
  6
CONTINUOUS
 10
-28.1947720049
 20
-22.5798328106
 11
-28.4887828894
 21
-22.3927813965
  0
LINE
  5
301
100
AcDbEntity
  8
RACCORDO
100
AcDbLine
 62
250
  6
CONTINUOUS
 10
-28.4887828894
 20
-22.3927813965
 11
-28.7925361817
 21
-22.1975868646
  0
LWPOLYLINE
  5
302
100
AcDbEntity
  8
RACCORDO
100
AcDbPolyline
 62
250
  6
CONTINUOUS
 90
7
 70
0
 10
10.5008375904
 20
-45.0786413824
 10
10.485951536
 20
-45.0689877577
 10
10.4675042892
 20
-45.0534687686
 10
10.4509809424
 20
-45.0351324215
 10
10.4364963623
 20
-45.0140906347
 10
10.4241612008
 20
-44.9904863702
 10
10.4140664656
 20
-44.9644758553
  0
LINE
  5
303
100
AcDbEntity
  8
RACCORDO
100
AcDbLine
 62
250
  6
CONTINUOUS
 10
-28.7925361817
 20
-22.1975868646
 11
-29.1081465142
 21
-21.9927029158
  0
LWPOLYLINE
  5
304
100
AcDbEntity
  8
RACCORDO
100
AcDbPolyline
 62
250
  6
CONTINUOUS
 90
10
 70
0
 10
6.3198879435
 20
-45.0014646338
 10
6.302455919
 20
-44.9900739631
 10
6.2841646339
 20
-44.9742284151
 10
6.2678433419
 20
-44.9555345982
 10
6.2536060197
 20
-44.9341230595
 10
6.2415520937
 20
-44.9101433273
 10
6.2317657498
 20
-44.8837628693
 10
6.2243153307
 20
-44.8551659143
 10
6.2192528588
 20
-44.8245521662
 10
6.2166136827
 20
-44.7921354149
  0
LWPOLYLINE
  5
305
100
AcDbEntity
  8
RACCORDO
100
AcDbPolyline
 62
7
  6
CONTINUOUS
 90
7
 70
0
 10
-29.7008321311
 20
-21.6781821443
 10
-29.0662937427
 20
-22.0951606104
 10
-28.3498734412
 20
-22.5559910519
 10
-27.5985011814
 20
-23.0274630958
 10
-26.8106302623
 20
-23.5085304333
 10
-25.9848460282
 20
-23.9982090244
 10
-24.2427521001
 20
-25.0124552673
  0
LINE
  5
306
100
AcDbEntity
  8
RACCORDO
100
AcDbLine
 62
250
  6
CONTINUOUS
 10
-29.1081465142
 20
-21.9927029158
 11
-29.4406164422
 21
-21.774639568
  0
LWPOLYLINE
  5
307
100
AcDbEntity
  8
RACCORDO
100
AcDbPolyline
 62
250
  6
CONTINUOUS
 90
10
 70
0
 10
-8.0440540751
 20
-36.7189273328
 10
-8.0604277963
 20
-36.7081418808
 10
-8.0789041625
 20
-36.6921905029
 10
-8.0953912851
 20
-36.6734018622
 10
-8.1097740297
 20
-36.6519071677
 10
-8.121951954
 20
-36.6278565286
 10
-8.1318400061
 20
-36.6014179076
 10
-8.1393691329
 20
-36.57277594
 10
-8.1444867626
 20
-36.5421306438
 10
-8.1471571612
 20
-36.509696029
  0
LWPOLYLINE
  5
308
100
AcDbEntity
  8
RACCORDO
100
AcDbPolyline
 62
250
  6
CONTINUOUS
 90
10
 70
0
 10
-22.3887484918
 20
-28.4254564298
 10
-22.4039462024
 20
-28.4153577547
 10
-22.4226064595
 20
-28.3992994614
 10
-22.4392582925
 20
-28.3804150355
 10
-22.4537854011
 20
-28.3588363429
 10
-22.4660863223
 20
-28.3347140669
 10
-22.4760751347
 20
-28.3082166637
 10
-22.4836820676
 20
-28.2795291746
 10
-22.4888539867
 20
-28.2488519327
 10
-22.4915547612
 20
-28.2163991709
  0
LINE
  5
309
100
AcDbEntity
  8
RACCORDO
100
AcDbLine
 62
250
  6
CONTINUOUS
 10
-29.4406164422
 20
-21.774639568
 11
-29.7911037703
 21
-21.5423238037
  0
LWPOLYLINE
  5
30A
100
AcDbEntity
  8
RACCORDO
100
AcDbPolyline
 62
7
  6
CONTINUOUS
 90
14
 70
0
 10
-32.7925087064
 20
-19.5472231297
 10
-32.7822498399
 20
-19.554225146
 10
-32.75979731
 20
-19.5675299905
 10
-32.7362969596
 20
-19.5788317127
 10
-32.7118855573
 20
-19.5880636967
 10
-32.6867209468
 20
-19.5951562436
 10
-32.6610129009
 20
-19.6000405696
 10
-32.6349842176
 20
-19.6026720259
 10
-32.608847245
 20
-19.6030328593
 10
-32.5827842944
 20
-19.6011244038
 10
-32.556976705
 20
-19.59695995
 10
-32.5316118978
 20
-19.5905668338
 10
-32.5068904267
 20
-19.5819929486
 10
-32.4815050202
 20
-19.5705484999
  0
LWPOLYLINE
  5
30B
100
AcDbEntity
  8
RACCORDO
100
AcDbPolyline
 62
250
  6
CONTINUOUS
 90
37
 70
0
 10
-29.7911037703
 20
-21.5423238037
 10
-29.9422730556
 20
-21.4379970864
 10
-30.0924619392
 20
-21.328289899
 10
-30.2416601226
 20
-21.2131962976
 10
-30.3895468589
 20
-21.0929052063
 10
-30.5364169706
 20
-20.9672127389
 10
-30.6831732225
 20
-20.835517797
 10
-30.8304436705
 20
-20.6972861126
 10
-30.9775433932
 20
-20.5530191339
 10
-31.1234059604
 20
-20.4036694932
 10
-31.267943
 20
-20.2492450885
 10
-31.4112010469
 20
-20.0897138756
 10
-31.5523326118
 20
-19.9259781424
 10
-31.6912962857
 20
-19.7580273168
 10
-31.8281024365
 20
-19.5858540557
 10
-31.961997207
 20
-19.4103747052
 10
-32.0929627432
 20
-19.2315670046
 10
-32.220999549
 20
-19.049443201
 10
-32.3453981199
 20
-18.8649811079
 10
-32.4661393306
 20
-18.6781775346
 10
-32.5832407061
 20
-18.4890347482
 10
-32.6960650623
 20
-18.2985487591
 10
-32.8046485303
 20
-18.1066195062
 10
-32.9089688495
 20
-17.9133550559
 10
-33.0083206122
 20
-17.7200747863
 10
-33.1024331185
 20
-17.5274654307
 10
-33.1916155457
 20
-17.3348624629
 10
-33.2760381264
 20
-17.1415617332
 10
-33.3560400081
 20
-16.9469611358
 10
-33.4313037171
 20
-16.7516752853
 10
-33.5010190355
 20
-16.5568277
 10
-33.5652777454
 20
-16.3620583051
 10
-33.6240288352
 20
-16.1677507057
 10
-33.6762724945
 20
-15.9761581367
 10
-33.7217051571
 20
-15.7880488197
 10
-33.7607014844
 20
-15.6026955653
 10
-33.7932920241
 20
-15.420116004
  0
LINE
  5
30C
100
AcDbEntity
  8
RACCORDO
100
AcDbLine
 62
250
  6
CONTINUOUS
 10
-32.8509507388
 20
-19.4236925043
 11
-33.3176839581
 21
-19.0877297337
  0
LINE
  5
30D
100
AcDbEntity
  8
RACCORDO
100
AcDbLine
 62
250
  6
CONTINUOUS
 10
-33.3176839581
 20
-19.0877297337
 11
-33.8121013853
 21
-18.7286191902
  0
LINE
  5
30E
100
AcDbEntity
  8
RACCORDO
100
AcDbLine
 62
250
  6
CONTINUOUS
 10
-33.8121013853
 20
-18.7286191902
 11
-34.3332448484
 21
-18.3463680586
  0
LINE
  5
30F
100
AcDbEntity
  8
RACCORDO
100
AcDbLine
 62
250
  6
CONTINUOUS
 10
-34.3332448484
 20
-18.3463680586
 11
-34.8790133453
 21
-17.941882647
  0
LWPOLYLINE
  5
310
100
AcDbEntity
  8
RACCORDO
100
AcDbPolyline
 62
250
  6
CONTINUOUS
 90
7
 70
0
 10
-29.7008321311
 20
-21.6781821443
 10
-29.7183452233
 20
-21.6650627574
 10
-29.7379480407
 20
-21.6460534498
 10
-29.7551473572
 20
-21.6240960489
 10
-29.7698113144
 20
-21.5993588967
 10
-29.7818274923
 20
-21.5720316452
 10
-29.7911037703
 20
-21.5423238037
  0
LINE
  5
311
100
AcDbEntity
  8
RACCORDO
100
AcDbLine
 62
250
  6
CONTINUOUS
 10
-34.8790133453
 20
-17.941882647
 11
-35.4490319059
 21
-17.5153042837
  0
LWPOLYLINE
  5
312
100
AcDbEntity
  8
RACCORDO
100
AcDbPolyline
 62
7
  6
CONTINUOUS
 90
9
 70
0
 10
-35.9517339339
 20
-17.2275561185
 10
-35.6102784668
 20
-17.4842515073
 10
-35.2292493881
 20
-17.7691849125
 10
-34.8534752665
 20
-18.0485104661
 10
-34.4829170029
 20
-18.3222195511
 10
-34.1175902976
 20
-18.5902953254
 10
-33.7575334018
 20
-18.8527204318
 10
-33.4027960864
 20
-19.1094949305
 10
-32.7925071865
 20
-19.5472205515
  0
LINE
  5
313
100
AcDbEntity
  8
RACCORDO
100
AcDbLine
 62
250
  6
CONTINUOUS
 10
-35.4490319059
 20
-17.5153042837
 11
-36.0430633563
 21
-17.066678885
  0
LWPOLYLINE
  5
314
100
AcDbEntity
  8
RACCORDO
100
AcDbPolyline
 62
250
  6
CONTINUOUS
 90
37
 70
0
 10
-36.0430633563
 20
-17.066678885
 10
-36.1961448558
 20
-16.9460747005
 10
-36.3468632304
 20
-16.8205721484
 10
-36.495180555
 20
-16.6901493402
 10
-36.640483446
 20
-16.555167923
 10
-36.7833077826
 20
-16.4152215185
 10
-36.9253306595
 20
-16.2691310786
 10
-37.0673203633
 20
-16.1162003231
 10
-37.2084085248
 20
-15.9570677701
 10
-37.3478151529
 20
-15.7925553561
 10
-37.485491957
 20
-15.6226110948
 10
-37.6214021899
 20
-15.4472378933
 10
-37.7547987902
 20
-15.2673490402
 10
-37.8855998724
 20
-15.0829741966
 10
-38.0138244996
 20
-14.8940474438
 10
-38.138894564
 20
-14.7013488197
 10
-38.2607166339
 20
-14.5050095356
 10
-38.379346174
 20
-14.3048764678
 10
-38.4944423254
 20
-14.1013111765
 10
-38.6060171191
 20
-13.8943450621
 10
-38.7140398107
 20
-13.6839359238
 10
-38.8181159714
 20
-13.470341034
 10
-38.9183928783
 20
-13.2532892573
 10
-39.0147233526
 20
-13.0330517859
 10
-39.1062894771
 20
-12.8107098848
 10
-39.1931843672
 20
-12.5859765412
 10
-39.275350788
 20
-12.3591594762
 10
-39.3517773174
 20
-12.1322505369
 10
-39.4224324024
 20
-11.9052591948
 10
-39.487431103
 20
-11.6782241741
 10
-39.5460164105
 20
-11.4532011087
 10
-39.5981579636
 20
-11.2302599267
 10
-39.6440031958
 20
-11.0093982678
 10
-39.6830873877
 20
-10.7925781056
 10
-39.7153040993
 20
-10.580481404
 10
-39.7408922254
 20
-10.3725026449
 10
-39.7599130711
 20
-10.1686772105
  0
LWPOLYLINE
  5
315
100
AcDbEntity
  8
RACCORDO
100
AcDbPolyline
 62
250
  6
CONTINUOUS
 90
7
 70
0
 10
-35.9517339339
 20
-17.2275561185
 10
-35.9727103642
 20
-17.2094866162
 10
-35.9929431333
 20
-17.1866254513
 10
-36.0102302291
 20
-17.1606785799
 10
-36.0244228122
 20
-17.1318694095
 10
-36.0353986876
 20
-17.1004459914
 10
-36.0430633563
 20
-17.066678885
  0
LWPOLYLINE
  5
316
100
AcDbEntity
  8
RACCORDO
100
AcDbPolyline
 62
250
  6
CONTINUOUS
 90
7
 70
0
 10
-33.8911221674
 20
-15.2610685159
 10
-33.8859936954
 20
-15.2849769937
 10
-33.8755895257
 20
-15.3148176582
 10
-33.8609706133
 20
-15.3434981554
 10
-33.8422657637
 20
-15.3707657854
 10
-33.8196397824
 20
-15.3963802969
 10
-33.7932920241
 20
-15.420116004
  0
LWPOLYLINE
  5
317
100
AcDbEntity
  8
RACCORDO
100
AcDbPolyline
 62
250
  6
CONTINUOUS
 90
22
 70
0
 10
-33.9903005545
 20
-15.7313062267
 10
-33.9634180521
 20
-15.8750501405
 10
-33.9321742093
 20
-16.0199411719
 10
-33.8968128624
 20
-16.1656097881
 10
-33.8578041391
 20
-16.3109301211
 10
-33.8152261068
 20
-16.4563289479
 10
-33.7685061898
 20
-16.6038788935
 10
-33.7173161201
 20
-16.7542858963
 10
-33.6619825269
 20
-16.9063997257
 10
-33.6027324923
 20
-17.0595788683
 10
-33.5399422186
 20
-17.2128575579
 10
-33.4734524616
 20
-17.3667087735
 10
-33.4025843781
 20
-17.5226532765
 10
-33.3271419468
 20
-17.680679974
 10
-33.247229159
 20
-17.8402985438
 10
-33.1623997735
 20
-18.0022921408
 10
-33.0721765207
 20
-18.1670221983
 10
-32.9768320038
 20
-18.3334820994
 10
-32.8770674795
 20
-18.5003834909
 10
-32.7731834396
 20
-18.6670744904
 10
-32.6649879593
 20
-18.8335117195
 10
-32.552548959
 20
-18.9993258603
  0
LWPOLYLINE
  5
318
100
AcDbEntity
  8
RACCORDO
100
AcDbPolyline
 62
250
  6
CONTINUOUS
 90
22
 70
0
 10
-34.4363619415
 20
-15.7487375787
 10
-34.408503402
 20
-15.9037218614
 10
-34.3764871167
 20
-16.059168867
 10
-34.3402984731
 20
-16.2150701619
 10
-34.3000007512
 20
-16.3708691665
 10
-34.2555021743
 20
-16.5271060138
 10
-34.2065474664
 20
-16.6854126768
 10
-34.1528901356
 20
-16.8467089968
 10
-34.0947257077
 20
-17.0100457176
 10
-34.0324603466
 20
-17.174250251
 10
-33.9664191278
 20
-17.3385482396
 10
-33.8962443074
 20
-17.5036951864
 10
-33.8213166069
 20
-17.6708125925
 10
-33.7415824277
 20
-17.8401714474
 10
-33.657041549
 20
-18.0114697
 10
-33.5671436385
 20
-18.1849628725
 10
-33.4714297813
 20
-18.3614102783
 10
-33.3702947637
 20
-18.5400155924
 10
-33.2644800288
 20
-18.7187073564
 10
-33.1542289911
 20
-18.8967929297
 10
-33.039270539
 20
-19.0749489676
 10
-32.9195893497
 20
-19.2531666268
  0
LWPOLYLINE
  5
319
100
AcDbEntity
  8
RACCORDO
100
AcDbPolyline
 62
250
  6
CONTINUOUS
 90
9
 70
0
 10
-32.8509480947
 20
-19.4236922967
 10
-32.8467186298
 20
-19.4475435687
 10
-32.8411588978
 20
-19.4693089808
 10
-32.8343546303
 20
-19.4888966611
 10
-32.8264578614
 20
-19.5061358988
 10
-32.8175255867
 20
-19.5210708432
 10
-32.8074361589
 20
-19.5338711356
 10
-32.7961689538
 20
-19.544459128
 10
-32.792503741
 20
-19.5472230087
  0
LWPOLYLINE
  5
31A
100
AcDbEntity
  8
RACCORDO
100
AcDbPolyline
 62
7
  6
CONTINUOUS
 90
34
 70
0
 10
-33.8911310832
 20
-15.2610119535
 10
-33.8650788593
 20
-15.4131917929
 10
-33.8223350206
 20
-15.6248764974
 10
-33.7715839611
 20
-15.8399779679
 10
-33.7130421605
 20
-16.057873635
 10
-33.6468995342
 20
-16.2781543852
 10
-33.5732830315
 20
-16.5005728321
 10
-33.4923809899
 20
-16.7246520221
 10
-33.4044216832
 20
-16.9498716626
 10
-33.3095559825
 20
-17.1758937684
 10
-33.2080070643
 20
-17.4022199196
 10
-33.1000248228
 20
-17.6283487482
 10
-32.9857861129
 20
-17.8539233576
 10
-32.8655562075
 20
-18.078450475
 10
-32.7396106362
 20
-18.3014454059
 10
-32.608151251
 20
-18.522556106
 10
-32.4714770794
 20
-18.7413087935
 10
-32.3298896368
 20
-18.9572345218
 10
-32.1836181687
 20
-19.1699949003
 10
-32.0329905104
 20
-19.3791374631
 10
-31.8783353419
 20
-19.58421136
 10
-31.7199073551
 20
-19.7848974653
 10
-31.5580562197
 20
-19.9807665471
 10
-31.3931380927
 20
-20.1713885844
 10
-31.2254255552
 20
-20.3564654289
 10
-31.0552879752
 20
-20.5355863125
 10
-30.8830995662
 20
-20.7083549947
 10
-30.7091288662
 20
-20.8745063558
 10
-30.5337648946
 20
-21.0336454139
 10
-30.3573762186
 20
-21.1854204785
 10
-30.1801625666
 20
-21.3296260919
 10
-30.0024289457
 20
-21.4659499106
 10
-29.8246509057
 20
-21.5939784893
 10
-29.7008157781
 20
-21.6781929879
  0
LINE
  5
31B
100
AcDbEntity
  8
RACCORDO
100
AcDbLine
 62
7
  6
CONTINUOUS
 10
-33.8911310832
 20
-15.2610119535
 11
-33.8911221674
 21
-15.2610685159
  0
LWPOLYLINE
  5
31C
100
AcDbEntity
  8
RACCORDO
100
AcDbPolyline
 62
250
  6
CONTINUOUS
 90
29
 70
0
 10
-33.7932920241
 20
-15.420116004
 10
-33.8819160275
 20
-14.856700378
 10
-33.9665710567
 20
-14.2976279389
 10
-34.0472979155
 20
-13.7429222365
 10
-34.1237946213
 20
-13.1951355725
 10
-34.1964827033
 20
-12.651784641
 10
-34.2663604246
 20
-12.1052658165
 10
-34.3337056609
 20
-11.5524466446
 10
-34.3980436566
 20
-10.9963459513
 10
-34.4591458648
 20
-10.4385305507
 10
-34.5169188275
 20
-9.8795684033
 10
-34.5713929488
 20
-9.3188551574
 10
-34.6225774565
 20
-8.7562291594
 10
-34.6704736078
 20
-8.1917400575
 10
-34.7150890412
 20
-7.6253433377
 10
-34.7564577201
 20
-7.0567448552
 10
-34.7946282635
 20
-6.4858962935
 10
-34.8296416805
 20
-5.9128976975
 10
-34.8615437367
 20
-5.3376908643
 10
-34.8904465669
 20
-4.7600947523
 10
-34.9164928418
 20
-4.180437463
 10
-34.9398004857
 20
-3.5994397173
 10
-34.9605556139
 20
-3.0171956771
 10
-34.9789660616
 20
-2.4338385475
 10
-34.9952059867
 20
-1.8501612665
 10
-35.0095066152
 20
-1.2667817513
 10
-35.0221189877
 20
-0.6833604228
 10
-35.0332437991
 20
-0.0992521371
 10
-35.0431022599
 20
0.485415686
  0
LWPOLYLINE
  5
31D
100
AcDbEntity
  8
RACCORDO
100
AcDbPolyline
 62
250
  6
CONTINUOUS
 90
9
 70
0
 10
-27.3615345692
 20
34.2462403644
 10
-27.3624136289
 20
34.2293202759
 10
-27.3647652693
 20
34.2135208707
 10
-27.3685634413
 20
34.199017158
 10
-27.3737660729
 20
34.1859697945
 10
-27.3803155347
 20
34.1745233054
 10
-27.3881392782
 20
34.1648044834
 10
-27.3971506402
 20
34.156920983
 10
-27.4058317479
 20
34.1516475104
  0
LWPOLYLINE
  5
31E
100
AcDbEntity
  8
RACCORDO
100
AcDbPolyline
 62
7
  6
CONTINUOUS
 90
6
 70
0
 10
-26.896751658
 20
35.4126000536
 10
-26.8993799967
 20
35.3877525889
 10
-26.902240406
 20
35.3630475073
 10
-26.9053328751
 20
35.3384886918
 10
-26.9086573487
 20
35.3140799954
 10
-26.9122137275
 20
35.2898252398
  0
LINE
  5
31F
100
AcDbEntity
  8
RACCORDO
100
AcDbLine
 62
7
  6
CONTINUOUS
 10
-27.166789043
 20
33.6328387907
 11
-27.230589863
 21
33.1824658231
  0
LINE
  5
320
100
AcDbEntity
  8
RACCORDO
100
AcDbLine
 62
7
  6
CONTINUOUS
 10
-27.0995526113
 20
34.090213455
 11
-27.166789043
 21
33.6328387907
  0
LWPOLYLINE
  5
321
100
AcDbEntity
  8
RACCORDO
100
AcDbPolyline
 62
7
  6
CONTINUOUS
 90
3
 70
0
 10
-26.9921205818
 20
34.7898365689
 10
-27.0288283426
 20
34.5547196393
 10
-27.0995526113
 20
34.090213455
  0
LWPOLYLINE
  5
322
100
AcDbEntity
  8
RACCORDO
100
AcDbPolyline
 62
250
  6
CONTINUOUS
 90
10
 70
0
 10
-32.4260141029
 20
-19.4463131768
 10
-32.4297258699
 20
-19.4697617767
 10
-32.434380868
 20
-19.4909966013
 10
-32.439900458
 20
-19.5099346927
 10
-32.4461413921
 20
-19.5264176779
 10
-32.4530580556
 20
-19.5404990962
 10
-32.4607739466
 20
-19.552346046
 10
-32.4693021948
 20
-19.5618832783
 10
-32.4785540349
 20
-19.5689222705
 10
-32.4814571096
 20
-19.5705279154
  0
LWPOLYLINE
  5
323
100
AcDbEntity
  8
RACCORDO
100
AcDbPolyline
 62
250
  6
CONTINUOUS
 90
16
 70
0
 10
-5.7383737601
 20
31.6087686411
 10
-5.7671944728
 20
31.5901829745
 10
-5.7957819114
 20
31.5690230476
 10
-5.8239454302
 20
31.5454299688
 10
-5.8514972096
 20
31.5195610717
 10
-5.8782535131
 20
31.4915888692
 10
-5.9040359125
 20
31.4616999026
 10
-5.928672472
 20
31.4300934943
 10
-5.9519988943
 20
31.396980418
 10
-5.9738596211
 20
31.3625814969
 10
-5.9941088707
 20
31.3271261297
 10
-6.0126116054
 20
31.2908507594
 10
-6.0292444315
 20
31.2539972955
 10
-6.0438964293
 20
31.2168115051
 10
-6.0564698926
 20
31.1795413733
 10
-6.0668809749
 20
31.1424354473
  0
LINE
  5
324
100
AcDbEntity
  8
0
100
AcDbLine
 62
7
  6
CONTINUOUS
 10
-12.2631184216
 20
26.0159273581
 11
-12.3136711693
 21
25.9867388352
  0
LINE
  5
325
100
AcDbEntity
  8
0
100
AcDbLine
 62
7
  6
CONTINUOUS
 10
-11.7326961235
 20
25.7112428107
 11
-11.783248061
 21
25.6820547555
  0
LWPOLYLINE
  5
326
100
AcDbEntity
  8
RACCORDO
100
AcDbPolyline
 62
250
  6
CONTINUOUS
 90
19
 70
0
 10
-35.4341921809
 20
13.5093248805
 10
-35.4562514791
 20
13.4981860064
 10
-35.4800902547
 20
13.4883431291
 10
-35.5054808213
 20
13.4798902674
 10
-35.5321806725
 20
13.4729081821
 10
-35.559934813
 20
13.4674635359
 10
-35.5884781962
 20
13.4636082599
 10
-35.6175382258
 20
13.4613791566
 10
-35.6468373828
 20
13.4607975216
 10
-35.6760958922
 20
13.4618688776
 10
-35.7050343438
 20
13.4645829668
 10
-35.7333763924
 20
13.4689138689
 10
-35.7608514201
 20
13.4748202346
 10
-35.787197057
 20
13.4822456254
 10
-35.8121617232
 20
13.4911191219
 10
-35.8355070555
 20
13.5013560369
 10
-35.8570101299
 20
13.512858612
 10
-35.8764655961
 20
13.5255169458
 10
-35.893687668
 20
13.5392101221
  0
LINE
  5
327
100
AcDbEntity
  8
RACCORDO
100
AcDbLine
 62
250
  6
CONTINUOUS
 10
-24.8799109874
 20
23.4768622987
 11
-24.9388185807
 21
23.4503435354
  0
LWPOLYLINE
  5
328
100
AcDbEntity
  8
RACCORDO
100
AcDbPolyline
 62
250
  6
CONTINUOUS
 90
5
 70
0
 10
-23.0221070364
 20
-24.3840759352
 10
-23.1197322639
 20
-24.0587448369
 10
-23.379704334
 20
-23.1354881434
 10
-23.6199375381
 20
-22.2220475674
 10
-23.8398751094
 20
-21.3201794469
  0
LWPOLYLINE
  5
329
100
AcDbEntity
  8
RACCORDO
100
AcDbPolyline
 62
250
  6
CONTINUOUS
 90
6
 70
0
 10
-23.8398751094
 20
-21.3201794469
 10
-24.0380582517
 20
-20.4352748644
 10
-24.213399542
 20
-19.5743252008
 10
-24.3678895335
 20
-18.730860313
 10
-24.5044535574
 20
-17.8899446176
 10
-24.6239018014
 20
-17.0465044023
  0
LINE
  5
32A
100
AcDbEntity
  8
SUPERFICI
100
AcDbLine
 62
7
  6
CONTINUOUS
 10
-23.1208523337
 20
-23.3182692104
 11
-23.1084193352
 21
-23.4339600335
  0
LINE
  5
32B
100
AcDbEntity
  8
SUPERFICI
100
AcDbLine
 62
7
  6
CONTINUOUS
 10
-23.1084193352
 20
-23.4339600335
 11
-23.09350887
 21
-23.5796355648
  0
LINE
  5
32C
100
AcDbEntity
  8
SUPERFICI
100
AcDbLine
 62
7
  6
CONTINUOUS
 10
-23.09350887
 20
-23.5796355648
 11
-23.0792508208
 21
-23.7260484518
  0
LWPOLYLINE
  5
32D
100
AcDbEntity
  8
RACCORDO
100
AcDbPolyline
 62
250
  6
CONTINUOUS
 90
27
 70
0
 10
-27.7830739143
 20
34.3889529302
 10
-27.781626745
 20
34.3738108744
 10
-27.7795613291
 20
34.3592169833
 10
-27.7770639195
 20
34.3453589347
 10
-27.7741955671
 20
34.3321861568
 10
-27.7709884062
 20
34.3196474488
 10
-27.7674728761
 20
34.3077012763
 10
-27.7636939387
 20
34.2963515905
 10
-27.7596901367
 20
34.28559825
 10
-27.7554780023
 20
34.2754015744
 10
-27.751086746
 20
34.2657489367
 10
-27.7465501413
 20
34.2566353829
 10
-27.7418857101
 20
34.2480327486
 10
-27.7371209038
 20
34.2399314374
 10
-27.7322814692
 20
34.232319334
 10
-27.7273778569
 20
34.2251650294
 10
-27.7224363159
 20
34.2184620976
 10
-27.7174732665
 20
34.2121910262
 10
-27.7124790982
 20
34.2063042803
 10
-27.7074822139
 20
34.2008031432
 10
-27.7024862286
 20
34.1956628636
 10
-27.6974367092
 20
34.1908073759
 10
-27.692348166
 20
34.1862353624
 10
-27.687225896
 20
34.1819394182
 10
-27.6819934206
 20
34.177850916
 10
-27.6766404664
 20
34.1739632362
 10
-27.6728682539
 20
34.1713948231
  0
LINE
  5
32E
100
AcDbEntity
  8
SUPERFICI
100
AcDbLine
 62
7
  6
CONTINUOUS
 10
-23.0792508208
 20
-23.7260484518
 11
-23.0627123395
 21
-23.9046781222
  0
LINE
  5
32F
100
AcDbEntity
  8
RACCORDO
100
AcDbLine
 62
250
  6
CONTINUOUS
 10
-25.4344166586
 20
-14.9845578322
 11
-25.4555840096
 21
-14.7513195183
  0
LINE
  5
330
100
AcDbEntity
  8
SUPERFICI
100
AcDbLine
 62
7
  6
CONTINUOUS
 10
-23.0627123395
 20
-23.9046781222
 11
-23.0439269431
 21
-24.1191867091
  0
LINE
  5
331
100
AcDbEntity
  8
RACCORDO
100
AcDbLine
 62
250
  6
CONTINUOUS
 10
-25.4555840096
 20
-14.7513195183
 11
-25.4679703
 21
-14.6083786667
  0
LINE
  5
332
100
AcDbEntity
  8
SUPERFICI
100
AcDbLine
 62
7
  6
CONTINUOUS
 10
-23.0439269431
 20
-24.1191867091
 11
-23.0254579397
 21
-24.3422714865
  0
LINE
  5
333
100
AcDbEntity
  8
SUPERFICI
100
AcDbLine
 62
7
  6
CONTINUOUS
 10
-23.0254579397
 20
-24.3422714865
 11
-23.0045606107
 21
-24.6093908137
  0
LINE
  5
334
100
AcDbEntity
  8
SUPERFICI
100
AcDbLine
 62
7
  6
CONTINUOUS
 10
-23.0045606107
 20
-24.6093908137
 11
-22.9812225509
 21
-24.9261742347
  0
LINE
  5
335
100
AcDbEntity
  8
SUPERFICI
100
AcDbLine
 62
7
  6
CONTINUOUS
 10
-22.9812225509
 20
-24.9261742347
 11
-22.953048801
 21
-25.3341691008
  0
LINE
  5
336
100
AcDbEntity
  8
SUPERFICI
100
AcDbLine
 62
7
  6
CONTINUOUS
 10
-22.953048801
 20
-25.3341691008
 11
-22.9229889504
 21
-25.7990200451
  0
LWPOLYLINE
  5
337
100
AcDbEntity
  8
RACCORDO
100
AcDbPolyline
 62
7
  6
CONTINUOUS
 90
14
 70
0
 10
-22.8099278311
 20
-27.7645724836
 10
-22.8094702141
 20
-27.7723148506
 10
-22.803188289
 20
-27.8345123693
 10
-22.7917752376
 20
-27.89788364
 10
-22.7748166707
 20
-27.9615619326
 10
-22.7519505908
 20
-28.0249266193
 10
-22.7229243052
 20
-28.0872561369
 10
-22.6877962113
 20
-28.1475966453
 10
-22.6466430005
 20
-28.2053717471
 10
-22.5998089282
 20
-28.2598272651
 10
-22.5480988208
 20
-28.310233516
 10
-22.4920761168
 20
-28.3564206823
 10
-22.432232946
 20
-28.3985290126
 10
-22.3887484918
 20
-28.4254564298
  0
LINE
  5
338
100
AcDbEntity
  8
SUPERFICI
100
AcDbLine
 62
7
  6
CONTINUOUS
 10
-22.9229889504
 20
-25.7990200451
 11
-22.888636508
 21
-26.3643126043
  0
LINE
  5
339
100
AcDbEntity
  8
SUPERFICI
100
AcDbLine
 62
7
  6
CONTINUOUS
 10
-22.888636508
 20
-26.3643126043
 11
-22.8492505099
 21
-27.0500543194
  0
LINE
  5
33A
100
AcDbEntity
  8
SUPERFICI
100
AcDbLine
 62
7
  6
CONTINUOUS
 10
-22.8492505099
 20
-27.0500543194
 11
-22.8442596664
 21
-27.1393213834
  0
LINE
  5
33B
100
AcDbEntity
  8
SUPERFICI
100
AcDbLine
 62
7
  6
CONTINUOUS
 10
-22.8442596664
 20
-27.1393213834
 11
-22.8342073629
 21
-27.320482266
  0
LINE
  5
33C
100
AcDbEntity
  8
RACCORDO
100
AcDbLine
 62
7
  6
CONTINUOUS
 10
-22.8099315247
 20
-27.7644400289
 11
-22.8099496557
 21
-27.7641074609
  0
LINE
  5
33D
100
AcDbEntity
  8
SUPERFICI
100
AcDbLine
 62
7
  6
CONTINUOUS
 10
-22.8342073629
 20
-27.320482266
 11
-22.8099506587
 21
-27.7640889568
  0
LINE
  5
33E
100
AcDbEntity
  8
RACCORDO
100
AcDbLine
 62
250
  6
CONTINUOUS
 10
-25.6448190564
 20
-11.5210894659
 11
-25.6554498295
 21
-11.1991158765
  0
LWPOLYLINE
  5
33F
100
AcDbEntity
  8
RACCORDO
100
AcDbPolyline
 62
250
  6
CONTINUOUS
 90
22
 70
0
 10
-25.3519258376
 20
-14.1766794368
 10
-25.3500782807
 20
-14.233939639
 10
-25.3446950968
 20
-14.2924093387
 10
-25.3357762858
 20
-14.352088536
 10
-25.3232307739
 20
-14.4133599801
 10
-25.307149635
 20
-14.4758409217
 10
-25.2878060904
 20
-14.5383831131
 10
-25.2651484796
 20
-14.6009472758
 10
-25.239228463
 20
-14.6635726882
 10
-25.2104742437
 20
-14.7252289378
 10
-25.178836012
 20
-14.7859060472
 10
-25.1443635776
 20
-14.8456139939
 10
-25.1076345719
 20
-14.9033522973
 10
-25.0686155909
 20
-14.959082693
 10
-25.0273400386
 20
-15.0128434454
 10
-24.9844857587
 20
-15.0637488675
 10
-24.9399923152
 20
-15.111774354
 10
-24.893920144
 20
-15.1569445101
 10
-24.8471283969
 20
-15.1984474657
 10
-24.7999034578
 20
-15.2360125971
 10
-24.7519589428
 20
-15.269910528
 10
-24.703294852
 20
-15.3001412581
  0
LWPOLYLINE
  5
340
100
AcDbEntity
  8
RACCORDO
100
AcDbPolyline
 62
7
  6
CONTINUOUS
 90
22
 70
0
 10
-25.6448190564
 20
-13.7684048435
 10
-25.6414410992
 20
-13.8815086542
 10
-25.6314757335
 20
-13.9947218298
 10
-25.6151431226
 20
-14.1079043555
 10
-25.5924841109
 20
-14.2215287845
 10
-25.5636774505
 20
-14.3349637791
 10
-25.5293646884
 20
-14.4463945097
 10
-25.4900179713
 20
-14.5552589004
 10
-25.4457158962
 20
-14.6619965165
 10
-25.3967873485
 20
-14.7662138595
 10
-25.3434892711
 20
-14.8676820391
 10
-25.2858985139
 20
-14.966441849
 10
-25.2240809076
 20
-15.062431598
 10
-25.157974971
 20
-15.1556763379
 10
-25.0877197617
 20
-15.2458336579
 10
-25.0136549868
 20
-15.3323320421
 10
-24.9356440453
 20
-15.4151584046
 10
-24.8537971898
 20
-15.4939551237
 10
-24.768853345
 20
-15.5678343994
 10
-24.6810677888
 20
-15.6364719379
 10
-24.5901854763
 20
-15.6999037605
 10
-24.4962122309
 20
-15.7578781193
  0
LWPOLYLINE
  5
341
100
AcDbEntity
  8
RACCORDO
100
AcDbPolyline
 62
250
  6
CONTINUOUS
 90
12
 70
0
 10
-24.703294852
 20
-15.3001412581
 10
-24.7018143273
 20
-15.352093636
 10
-24.6973789529
 20
-15.4021187876
 10
-24.6900073023
 20
-15.4500072296
 10
-24.6797302446
 20
-15.4955584267
 10
-24.6665908156
 20
-15.5385816306
 10
-24.6506440374
 20
-15.5788966791
 10
-24.6319566881
 20
-15.6163347508
 10
-24.6106070219
 20
-15.6507390717
 10
-24.5866844417
 20
-15.6819655717
 10
-24.5602891248
 20
-15.709883488
 10
-24.531531603
 20
-15.7343759129
  0
LINE
  5
342
100
AcDbEntity
  8
RACCORDO
100
AcDbLine
 62
250
  6
CONTINUOUS
 10
-25.6554498295
 20
-11.1991158765
 11
-25.6704526306
 21
-10.6853216286
  0
LINE
  5
343
100
AcDbEntity
  8
RACCORDO
100
AcDbLine
 62
250
  6
CONTINUOUS
 10
-25.6704526306
 20
-10.6853216286
 11
-25.6845816704
 21
-10.1379088766
  0
LINE
  5
344
100
AcDbEntity
  8
RACCORDO
100
AcDbLine
 62
250
  6
CONTINUOUS
 10
-25.6845816704
 20
-10.1379088766
 11
-25.7038615144
 21
-9.2980811702
  0
LINE
  5
345
100
AcDbEntity
  8
RACCORDO
100
AcDbLine
 62
250
  6
CONTINUOUS
 10
-25.7038615144
 20
-9.2980811702
 11
-25.7202058635
 21
-8.4896386545
  0
LINE
  5
346
100
AcDbEntity
  8
RACCORDO
100
AcDbLine
 62
250
  6
CONTINUOUS
 10
-25.7202058635
 20
-8.4896386545
 11
-25.7374650143
 21
-7.5215346113
  0
LINE
  5
347
100
AcDbEntity
  8
RACCORDO
100
AcDbLine
 62
250
  6
CONTINUOUS
 10
-25.7374650143
 20
-7.5215346113
 11
-25.7564563729
 21
-6.3097610421
  0
LINE
  5
348
100
AcDbEntity
  8
RACCORDO
100
AcDbLine
 62
250
  6
CONTINUOUS
 10
-25.7564563729
 20
-6.3097610421
 11
-25.7757512289
 21
-4.9406383313
  0
LWPOLYLINE
  5
349
100
AcDbEntity
  8
RACCORDO
100
AcDbPolyline
 62
250
  6
CONTINUOUS
 90
9
 70
0
 10
-24.1067843851
 20
23.5275661525
 10
-24.1065655617
 20
23.5102988992
 10
-24.1047239169
 20
23.4940668999
 10
-24.1012803342
 20
23.4790542208
 10
-24.0962738626
 20
23.4654311016
 10
-24.0897612735
 20
23.4533520241
 10
-24.0818164169
 20
23.4429539613
 10
-24.0725293845
 20
23.4343548245
 10
-24.0656290014
 20
23.4296617004
  0
LINE
  5
34A
100
AcDbEntity
  8
RACCORDO
100
AcDbLine
 62
250
  6
CONTINUOUS
 10
-25.7757512289
 20
-4.9406383313
 11
-25.7932852659
 21
-3.5677953036
  0
LINE
  5
34B
100
AcDbEntity
  8
RACCORDO
100
AcDbLine
 62
250
  6
CONTINUOUS
 10
-25.7932852659
 20
-3.5677953036
 11
-25.8094069325
 21
-2.159791012
  0
LINE
  5
34C
100
AcDbEntity
  8
RACCORDO
100
AcDbLine
 62
250
  6
CONTINUOUS
 10
-25.8094069325
 20
-2.159791012
 11
-25.8240690285
 21
-0.7063198559
  0
LINE
  5
34D
100
AcDbEntity
  8
RACCORDO
100
AcDbLine
 62
250
  6
CONTINUOUS
 10
-25.8240690285
 20
-0.7063198559
 11
-25.836145507
 21
0.702385319
  0
LINE
  5
34E
100
AcDbEntity
  8
RACCORDO
100
AcDbLine
 62
250
  6
CONTINUOUS
 10
-25.836145507
 20
0.702385319
 11
-25.8445331627
 21
1.9008210806
  0
LINE
  5
34F
100
AcDbEntity
  8
RACCORDO
100
AcDbLine
 62
250
  6
CONTINUOUS
 10
-25.8445331627
 20
1.9008210806
 11
-25.8508477802
 21
3.0644189817
  0
LINE
  5
350
100
AcDbEntity
  8
RACCORDO
100
AcDbLine
 62
250
  6
CONTINUOUS
 10
-25.8508477802
 20
3.0644189817
 11
-25.855857908
 21
4.3539474709
  0
LWPOLYLINE
  5
351
100
AcDbEntity
  8
RACCORDO
100
AcDbPolyline
 62
250
  6
CONTINUOUS
 90
10
 70
0
 10
-22.7426637074
 20
-16.7703550596
 10
-22.739448049
 20
-17.9131145776
 10
-22.7296772985
 20
-19.2137145459
 10
-22.7138040558
 20
-20.5108873161
 10
-22.6917857631
 20
-21.804724681
 10
-22.6636623318
 20
-23.0950589506
 10
-22.6295610878
 20
-24.3814659663
 10
-22.5895291887
 20
-25.6637824967
 10
-22.5435286789
 20
-26.9421032243
 10
-22.4915638875
 20
-28.2163938072
  0
LINE
  5
352
100
AcDbEntity
  8
RACCORDO
100
AcDbLine
 62
250
  6
CONTINUOUS
 10
-25.855857908
 20
4.3539474709
 11
-25.8595784682
 21
5.8853781887
  0
LINE
  5
353
100
AcDbEntity
  8
RACCORDO
100
AcDbLine
 62
7
  6
CONTINUOUS
 10
-25.6448190564
 20
22.1562873354
 11
-25.6448190564
 21
-13.7684048435
  0
LINE
  5
354
100
AcDbEntity
  8
RACCORDO
100
AcDbLine
 62
250
  6
CONTINUOUS
 10
-25.3519258376
 20
21.7480127421
 11
-25.3519258376
 21
-14.1766794368
  0
LINE
  5
355
100
AcDbEntity
  8
RACCORDO
100
AcDbLine
 62
250
  6
CONTINUOUS
 10
-25.8595784682
 20
5.8853781887
 11
-25.8596781254
 21
6.4195137776
  0
LINE
  5
356
100
AcDbEntity
  8
RACCORDO
100
AcDbLine
 62
250
  6
CONTINUOUS
 10
-25.8596781254
 20
6.4195137776
 11
-25.8563029161
 21
7.867085256
  0
LINE
  5
357
100
AcDbEntity
  8
RACCORDO
100
AcDbLine
 62
250
  6
CONTINUOUS
 10
-25.8563029161
 20
7.867085256
 11
-25.8515595721
 21
9.1500690929
  0
LINE
  5
358
100
AcDbEntity
  8
RACCORDO
100
AcDbLine
 62
250
  6
CONTINUOUS
 10
-25.8515595721
 20
9.1500690929
 11
-25.8451333434
 21
10.3799736123
  0
LINE
  5
359
100
AcDbEntity
  8
RACCORDO
100
AcDbLine
 62
250
  6
CONTINUOUS
 10
-25.8451333434
 20
10.3799736123
 11
-25.8369827142
 21
11.5764408553
  0
LINE
  5
35A
100
AcDbEntity
  8
RACCORDO
100
AcDbLine
 62
250
  6
CONTINUOUS
 10
-25.8369827142
 20
11.5764408553
 11
-25.8257773727
 21
12.9225219513
  0
LINE
  5
35B
100
AcDbEntity
  8
RACCORDO
100
AcDbLine
 62
250
  6
CONTINUOUS
 10
-25.8257773727
 20
12.9225219513
 11
-25.811184892
 21
14.4111656403
  0
LINE
  5
35C
100
AcDbEntity
  8
RACCORDO
100
AcDbLine
 62
250
  6
CONTINUOUS
 10
-25.811184892
 20
14.4111656403
 11
-25.7936845645
 21
15.9719454766
  0
LINE
  5
35D
100
AcDbEntity
  8
RACCORDO
100
AcDbLine
 62
250
  6
CONTINUOUS
 10
-25.7936845645
 20
15.9719454766
 11
-25.7726139009
 21
17.6330793649
  0
LINE
  5
35E
100
AcDbEntity
  8
RACCORDO
100
AcDbLine
 62
250
  6
CONTINUOUS
 10
-25.7726139009
 20
17.6330793649
 11
-25.7388342539
 21
19.9379454402
  0
LINE
  5
35F
100
AcDbEntity
  8
RACCORDO
100
AcDbLine
 62
250
  6
CONTINUOUS
 10
-25.7388342539
 20
19.9379454402
 11
-25.7209343581
 21
20.9701334107
  0
LINE
  5
360
100
AcDbEntity
  8
RACCORDO
100
AcDbLine
 62
250
  6
CONTINUOUS
 10
-25.7209343581
 20
20.9701334107
 11
-25.7056517438
 21
21.7505180923
  0
LINE
  5
361
100
AcDbEntity
  8
RACCORDO
100
AcDbLine
 62
250
  6
CONTINUOUS
 10
-25.7056517438
 20
21.7505180923
 11
-25.6865643538
 21
22.6152032535
  0
LWPOLYLINE
  5
362
100
AcDbEntity
  8
RACCORDO
100
AcDbPolyline
 62
250
  6
CONTINUOUS
 90
25
 70
0
 10
-24.703294852
 20
22.1224517597
 10
-24.7018143273
 20
22.1761138104
 10
-24.6973789529
 20
22.2312608211
 10
-24.6900073023
 20
22.2876618605
 10
-24.6797302446
 20
22.3450807462
 10
-24.6665908156
 20
22.4032770333
 10
-24.6506440374
 20
22.4620070216
 10
-24.6319566881
 20
22.5210247759
 10
-24.6106070219
 20
22.5800831562
 10
-24.5866844417
 20
22.638934852
 10
-24.5602891248
 20
22.6973334187
 10
-24.531531603
 20
22.7550343089
 10
-24.5005323001
 20
22.811795897
 10
-24.4674210273
 20
22.8673804905
 10
-24.43233644
 20
22.9215553259
 10
-24.3954254569
 20
22.974093543
 10
-24.3568426447
 20
23.024775135
 10
-24.3167495713
 20
23.0733878699
 10
-24.2753141285
 20
23.1197281793
 10
-24.2327098296
 20
23.1636020103
 10
-24.1891150826
 20
23.204825639
 10
-24.1447124429
 20
23.2432264389
 10
-24.099687849
 20
23.2786436047
 10
-24.054229844
 20
23.3109288249
 10
-24.0085287857
 20
23.3399469033
  0
LWPOLYLINE
  5
363
100
AcDbEntity
  8
RACCORDO
100
AcDbPolyline
 62
250
  6
CONTINUOUS
 90
31
 70
0
 10
-25.6865643538
 20
22.6152032535
 10
-25.6834931684
 20
22.6946445079
 10
-25.6769844225
 20
22.7731770529
 10
-25.6670359232
 20
22.85080167
 10
-25.6539515715
 20
22.9275637637
 10
-25.6374206044
 20
23.0034203747
 10
-25.6165168896
 20
23.0782404311
 10
-25.5910281242
 20
23.1527355433
 10
-25.5611540379
 20
23.2261985813
 10
-25.5265878988
 20
23.2963698811
 10
-25.487107211
 20
23.3631071705
 10
-25.4429250442
 20
23.4265560807
 10
-25.3943940969
 20
23.4848866356
 10
-25.3412197661
 20
23.537879535
 10
-25.2836925189
 20
23.5857555529
 10
-25.2230507283
 20
23.6273419487
 10
-25.1591168802
 20
23.6622476802
 10
-25.0920726103
 20
23.6908623209
 10
-25.0237036089
 20
23.7131809925
 10
-24.9543008963
 20
23.7289030324
 10
-24.8835850513
 20
23.7383249699
 10
-24.8124909067
 20
23.7423360025
 10
-24.7418848025
 20
23.7412208408
 10
-24.6709116433
 20
23.7346907673
 10
-24.5979215398
 20
23.7227757525
 10
-24.5226440563
 20
23.7058818401
 10
-24.4453522751
 20
23.6836020434
 10
-24.3652069359
 20
23.6547484443
 10
-24.2819258284
 20
23.6189259456
 10
-24.1957860695
 20
23.5765314594
 10
-24.1067843851
 20
23.5275661525
  0
LINE
  5
364
100
AcDbEntity
  8
DRAFT
100
AcDbLine
 62
7
  6
CONTINUOUS
 10
4.8453093559
 20
30.3994640218
 11
4.465944722
 21
30.1727776474
  0
LINE
  5
365
100
AcDbEntity
  8
0
100
AcDbLine
 62
7
  6
CONTINUOUS
 10
-10.8275712867
 20
25.1910012863
 11
-10.8781218518
 21
25.1618140235
  0
LINE
  5
366
100
AcDbEntity
  8
0
100
AcDbLine
 62
7
  6
CONTINUOUS
 10
-10.3399287391
 20
24.9105406081
 11
-10.390478499
 21
24.8813538103
  0
LINE
  5
367
100
AcDbEntity
  8
0
100
AcDbLine
 62
7
  6
CONTINUOUS
 10
-10.1588389374
 20
24.8065520956
 11
-10.2093884076
 21
24.7773654651
  0
LINE
  5
368
100
AcDbEntity
  8
0
100
AcDbLine
 62
7
  6
CONTINUOUS
 10
-9.6710159321
 20
24.5258118334
 11
-9.7215644671
 21
24.4966257428
  0
LINE
  5
369
100
AcDbEntity
  8
0
100
AcDbLine
 62
7
  6
CONTINUOUS
 10
-9.1975232425
 20
24.2530002277
 11
-9.2480707338
 21
24.2238147397
  0
LINE
  5
36A
100
AcDbEntity
  8
0
100
AcDbLine
 62
7
  6
CONTINUOUS
 10
-11.5155152392
 20
22.4037964029
 11
-11.565611672
 21
22.3748713505
  0
LINE
  5
36B
100
AcDbEntity
  8
0
100
AcDbLine
 62
7
  6
CONTINUOUS
 10
-8.7103229601
 20
23.9723650296
 11
-8.7608692944
 21
23.9431802096
  0
LINE
  5
36C
100
AcDbEntity
  8
0
100
AcDbLine
 62
7
  6
CONTINUOUS
 10
-7.7405946781
 20
23.413406445
 11
-7.7911384298
 21
23.3842231163
  0
LINE
  5
36D
100
AcDbEntity
  8
0
100
AcDbLine
 62
7
  6
CONTINUOUS
 10
-10.0955821486
 20
21.5864831853
 11
-10.145683434
 21
21.5575553309
  0
LINE
  5
36E
100
AcDbEntity
  8
0
100
AcDbLine
 62
7
  6
CONTINUOUS
 10
-7.2589847927
 20
23.1350387978
 11
-7.3095295269
 21
23.1058549018
  0
LINE
  5
36F
100
AcDbEntity
  8
0
100
AcDbLine
 62
7
  6
CONTINUOUS
 10
-9.3665559113
 20
21.1666163665
 11
-9.4166589757
 21
21.1376874851
  0
LWPOLYLINE
  5
370
100
AcDbEntity
  8
RACCORDO
100
AcDbPolyline
 62
250
  6
CONTINUOUS
 90
22
 70
0
 10
6.4094035202
 20
-33.2642233646
 10
6.4580700398
 20
-33.2901894968
 10
6.5060160644
 20
-33.3116571654
 10
6.5532415939
 20
-33.3286263701
 10
6.6000325684
 20
-33.3411570498
 10
6.6461030478
 20
-33.3491892657
 10
6.6905952122
 20
-33.352543202
 10
6.7334492117
 20
-33.3511246516
 10
6.7747248962
 20
-33.3450278217
 10
6.8137439958
 20
-33.3343555179
 10
6.8504729622
 20
-33.3190308565
 10
6.8849453436
 20
-33.2991307213
 10
6.9165835144
 20
-33.2749885682
 10
6.9453376316
 20
-33.2465370483
 10
6.9712575382
 20
-33.2138435105
 10
6.9939151365
 20
-33.1774434579
 10
7.0132588958
 20
-33.137237354
 10
7.0293403468
 20
-33.0933247353
 10
7.0418859839
 20
-33.046539714
 10
7.0508046385
 20
-32.9971603275
 10
7.0561874792
 20
-32.9449085385
 10
7.0580345059
 20
-32.8897843469
  0
LWPOLYLINE
  5
371
100
AcDbEntity
  8
RACCORDO
100
AcDbPolyline
 62
250
  6
CONTINUOUS
 90
25
 70
0
 10
7.0580345059
 20
-32.8897843469
 10
7.105248893
 20
-32.9153356695
 10
7.1552266167
 20
-32.9390703217
 10
7.2077583924
 20
-32.9608889132
 10
7.2626242402
 20
-32.9807000775
 10
7.3195944065
 20
-32.9984208543
 10
7.3784303254
 20
-33.0139770368
 10
7.4388856183
 20
-33.0273034825
 10
7.500707125
 20
-33.0383443863
 10
7.5636359647
 20
-33.0470535138
 10
7.6274086193
 20
-33.053394395
 10
7.6917580372
 20
-33.057340477
 10
7.7564147516
 20
-33.0588752355
 10
7.8211080088
 20
-33.0579922436
 10
7.8855669022
 20
-33.0546951988
 10
7.9495215066
 20
-33.0489979077
 10
8.0127040085
 20
-33.0409242281
 10
8.0748498275
 20
-33.0305079688
 10
8.1356987246
 20
-33.0177927487
 10
8.1949958916
 20
-33.0028318134
 10
8.2524930182
 20
-32.9856878126
 10
8.3079493321
 20
-32.9664325378
 10
8.3611326067
 20
-32.9451466216
 10
8.4118201341
 20
-32.9219191999
 10
8.4597996575
 20
-32.8968475389
  0
LINE
  5
372
100
AcDbEntity
  8
RACCORDO
100
AcDbLine
 62
250
  6
CONTINUOUS
 10
8.8043437932
 20
-34.7535890045
 11
8.3791222681
 21
-34.5239426428
  0
LWPOLYLINE
  5
373
100
AcDbEntity
  8
RACCORDO
100
AcDbPolyline
 62
7
  6
CONTINUOUS
 90
19
 70
0
 10
6.6164861413
 20
-33.7219602257
 10
6.7021229649
 20
-33.7684254729
 10
6.7878235367
 20
-33.8091269892
 10
6.8733742746
 20
-33.8441851257
 10
6.9585091936
 20
-33.8737111633
 10
7.0431160326
 20
-33.8978780705
 10
7.1271784076
 20
-33.9168642579
 10
7.2103568076
 20
-33.9307700686
 10
7.2925516417
 20
-33.9397583752
 10
7.3740378819
 20
-33.943989025
 10
7.454640708
 20
-33.9435407634
 10
7.5340728956
 20
-33.938509711
 10
7.612389532
 20
-33.9289736219
 10
7.6892462346
 20
-33.9150475505
 10
7.7645127534
 20
-33.8968367899
 10
7.8385142972
 20
-33.8742911964
 10
7.9111724692
 20
-33.8474004795
 10
7.9820462185
 20
-33.8163012995
 10
8.0508879453
 20
-33.7811020919
  0
LINE
  5
374
100
AcDbEntity
  8
RACCORDO
100
AcDbLine
 62
250
  6
CONTINUOUS
 10
8.7154551029
 20
-34.3724008041
 11
8.2736571427
 21
-34.1326486379
  0
LINE
  5
375
100
AcDbEntity
  8
RACCORDO
100
AcDbLine
 62
250
  6
CONTINUOUS
 10
8.2736571427
 20
-34.1326486379
 11
7.8137878611
 21
-33.881824447
  0
LINE
  5
376
100
AcDbEntity
  8
RACCORDO
100
AcDbLine
 62
250
  6
CONTINUOUS
 10
8.3791222681
 20
-34.5239426428
 11
7.9789926328
 21
-34.3056912692
  0
LINE
  5
377
100
AcDbEntity
  8
RACCORDO
100
AcDbLine
 62
250
  6
CONTINUOUS
 10
7.9789926328
 20
-34.3056912692
 11
7.3165222712
 21
-33.9410028962
  0
LINE
  5
378
100
AcDbEntity
  8
RACCORDO
100
AcDbLine
 62
7
  6
CONTINUOUS
 10
-24.4962122309
 20
-15.7578781193
 11
6.6164861413
 21
-33.7219602257
  0
LINE
  5
379
100
AcDbEntity
  8
RACCORDO
100
AcDbLine
 62
250
  6
CONTINUOUS
 10
-24.703294852
 20
-15.3001412581
 11
6.4094035202
 21
-33.2642233646
  0
LINE
  5
37A
100
AcDbEntity
  8
DRAFT
100
AcDbLine
 62
7
  6
CONTINUOUS
 10
8.004852251
 20
-33.8046404317
 11
8.7021388685
 21
-34.2072449856
  0
LWPOLYLINE
  5
37B
100
AcDbEntity
  8
RACCORDO
100
AcDbPolyline
 62
250
  6
CONTINUOUS
 90
14
 70
0
 10
-25.3519258376
 20
-14.1766794368
 10
-25.3961791753
 20
-14.1494184414
 10
-25.4372861503
 20
-14.1205619301
 10
-25.4750746247
 20
-14.0902307412
 10
-25.5093863572
 20
-14.0585518883
 10
-25.5400776656
 20
-14.0256580283
 10
-25.5670200281
 20
-13.9916869061
 10
-25.5901006222
 20
-13.9567807777
 10
-25.6092227965
 20
-13.9210858145
 10
-25.624306476
 20
-13.8847514911
 10
-25.6352884968
 20
-13.8479299596
 10
-25.642122871
 20
-13.8107754122
 10
-25.6447809795
 20
-13.7734434357
 10
-25.6448190564
 20
-13.7684048435
  0
LINE
  5
37C
100
AcDbEntity
  8
RACCORDO
100
AcDbLine
 62
250
  6
CONTINUOUS
 10
-25.1582648531
 20
-15.1552674491
 11
-25.4344166586
 21
-14.9845578322
  0
LWPOLYLINE
  5
37D
100
AcDbEntity
  8
RACCORDO
100
AcDbPolyline
 62
250
  6
CONTINUOUS
 90
3
 70
0
 10
-24.531531603
 20
-15.7343759129
 10
-24.5005323001
 20
-15.7553402829
 10
-24.4962122309
 20
-15.7578781193
  0
LINE
  5
37E
100
AcDbEntity
  8
SUPERFICI
100
AcDbLine
 62
7
  6
CONTINUOUS
 10
-23.1878560894
 20
-22.7907515082
 11
-23.1879813249
 21
-22.7900000548
  0
LINE
  5
37F
100
AcDbEntity
  8
SUPERFICI
100
AcDbLine
 62
7
  6
CONTINUOUS
 10
-23.1878245419
 20
-22.7909763399
 11
-23.1863973028
 21
-22.7999972976
  0
LINE
  5
380
100
AcDbEntity
  8
SUPERFICI
100
AcDbLine
 62
7
  6
CONTINUOUS
 10
-23.1863973028
 20
-22.7999972976
 11
-23.1834930449
 21
-22.8189728404
  0
LINE
  5
381
100
AcDbEntity
  8
SUPERFICI
100
AcDbLine
 62
7
  6
CONTINUOUS
 10
-23.1834930449
 20
-22.8189728404
 11
-23.1793461748
 21
-22.847045682
  0
LINE
  5
382
100
AcDbEntity
  8
SUPERFICI
100
AcDbLine
 62
7
  6
CONTINUOUS
 10
-23.1793461748
 20
-22.847045682
 11
-23.1741674236
 21
-22.8833811827
  0
LINE
  5
383
100
AcDbEntity
  8
SUPERFICI
100
AcDbLine
 62
7
  6
CONTINUOUS
 10
-23.1741674236
 20
-22.8833811827
 11
-23.1683215599
 21
-22.9258638384
  0
LINE
  5
384
100
AcDbEntity
  8
SUPERFICI
100
AcDbLine
 62
7
  6
CONTINUOUS
 10
-23.1683215599
 20
-22.9258638384
 11
-23.1589865768
 21
-22.996588523
  0
LINE
  5
385
100
AcDbEntity
  8
SUPERFICI
100
AcDbLine
 62
7
  6
CONTINUOUS
 10
-23.1589865768
 20
-22.996588523
 11
-23.1494485893
 21
-23.072244392
  0
LWPOLYLINE
  5
386
100
AcDbEntity
  8
RACCORDO
100
AcDbPolyline
 62
250
  6
CONTINUOUS
 90
3
 70
0
 10
-24.6239018014
 20
-17.0465044023
 10
-24.7257364575
 20
-16.205793668
 10
-24.7927387767
 20
-15.5470602232
  0
LINE
  5
387
100
AcDbEntity
  8
SUPERFICI
100
AcDbLine
 62
7
  6
CONTINUOUS
 10
-23.1494485893
 20
-23.072244392
 11
-23.1398859124
 21
-23.151366176
  0
LINE
  5
388
100
AcDbEntity
  8
SUPERFICI
100
AcDbLine
 62
7
  6
CONTINUOUS
 10
-23.1398859124
 20
-23.151366176
 11
-23.1271691549
 21
-23.261503483
  0
LINE
  5
389
100
AcDbEntity
  8
SUPERFICI
100
AcDbLine
 62
7
  6
CONTINUOUS
 10
-23.1271691549
 20
-23.261503483
 11
-23.1208523337
 21
-23.3182692104
  0
LWPOLYLINE
  5
38A
100
AcDbEntity
  8
RACCORDO
100
AcDbPolyline
 62
250
  6
CONTINUOUS
 90
16
 70
0
 10
-25.6834537651
 20
42.903366534
 10
-25.68524582
 20
42.92936584
 10
-25.6891732231
 20
42.9564281693
 10
-25.6951938327
 20
42.9842630294
 10
-25.7032430373
 20
43.0125716321
 10
-25.7132344479
 20
43.0410500982
 10
-25.7250608238
 20
43.0693927198
 10
-25.7385952275
 20
43.0972952479
 10
-25.7536923824
 20
43.124458149
 10
-25.7701902293
 20
43.1505898196
 10
-25.7879116764
 20
43.1754097342
 10
-25.8066664922
 20
43.1986514418
 10
-25.8262533403
 20
43.2200654215
 10
-25.8464619563
 20
43.2394217814
 10
-25.8670754064
 20
43.2565127236
 10
-25.8878724057
 20
43.2711547641
  0
LWPOLYLINE
  5
38B
100
AcDbEntity
  8
RACCORDO
100
AcDbPolyline
 62
7
  6
CONTINUOUS
 90
3
 70
0
 10
-20.8875081343
 20
45.5094103171
 10
-20.8879431434
 20
45.5543935755
 10
-20.8880549503
 20
45.5798469297
  0
LINE
  5
38C
100
AcDbEntity
  8
RACCORDO
100
AcDbLine
 62
7
  6
CONTINUOUS
 10
-20.8874166769
 20
45.489945903
 11
-20.8875081343
 21
45.5094103171
  0
LINE
  5
38D
100
AcDbEntity
  8
RACCORDO
100
AcDbLine
 62
7
  6
CONTINUOUS
 10
-20.8880549503
 20
45.5798469297
 11
-20.8873393065
 21
45.6955172256
  0
LINE
  5
38E
100
AcDbEntity
  8
RACCORDO
100
AcDbLine
 62
7
  6
CONTINUOUS
 10
-20.8873393065
 20
45.6955172256
 11
-20.8858958325
 21
45.7873778218
  0
LINE
  5
38F
100
AcDbEntity
  8
RACCORDO
100
AcDbLine
 62
7
  6
CONTINUOUS
 10
-20.8858958325
 20
45.7873778218
 11
-20.8838176616
 21
45.8739332249
  0
LWPOLYLINE
  5
390
100
AcDbEntity
  8
RACCORDO
100
AcDbPolyline
 62
7
  6
CONTINUOUS
 90
5
 70
0
 10
-20.8838176616
 20
45.8739332249
 10
-20.8829766063
 20
45.9005780431
 10
-20.8819530056
 20
45.9258188492
 10
-20.8810210937
 20
45.9495884956
 10
-20.8803217235
 20
45.9717916105
  0
LINE
  5
391
100
AcDbEntity
  8
0
100
AcDbLine
 62
7
  6
CONTINUOUS
 10
-11.6418798152
 20
23.3957161607
 11
-11.4777255413
 21
23.7838245974
  0
LINE
  5
392
100
AcDbEntity
  8
0
100
AcDbLine
 62
7
  6
CONTINUOUS
 10
-11.4777255413
 20
23.7838245974
 11
-11.3103875463
 21
24.1744334143
  0
LINE
  5
393
100
AcDbEntity
  8
0
100
AcDbLine
 62
7
  6
CONTINUOUS
 10
-11.3103875463
 20
24.1744334143
 11
-11.1398665247
 21
24.5675356783
  0
LWPOLYLINE
  5
394
100
AcDbEntity
  8
0
100
AcDbPolyline
 62
7
  6
CONTINUOUS
 90
3
 70
0
 10
-11.1398665247
 20
24.5675356783
 10
-10.9661652541
 20
24.9631036575
 10
-10.8781218518
 20
25.1618140235
  0
LWPOLYLINE
  5
395
100
AcDbEntity
  8
0
100
AcDbPolyline
 62
7
  6
CONTINUOUS
 90
6
 70
0
 10
-11.5155152392
 20
22.4037964029
 10
-11.3915941828
 20
22.677217492
 10
-11.2659977311
 20
22.9519199555
 10
-11.1387258842
 20
23.2279037935
 10
-11.0097780037
 20
23.5051754902
 10
-10.879154728
 20
23.7837285615
  0
LWPOLYLINE
  5
396
100
AcDbEntity
  8
0
100
AcDbPolyline
 62
7
  6
CONTINUOUS
 90
6
 70
0
 10
-10.9294785191
 20
23.7546861541
 10
-11.0600512729
 20
23.4761625417
 10
-11.1889511452
 20
23.1989173381
 10
-11.3161775357
 20
22.9229569335
 10
-11.4417310446
 20
22.6482749377
 10
-11.565611672
 20
22.3748713505
  0
LINE
  5
397
100
AcDbEntity
  8
0
100
AcDbLine
 62
7
  6
CONTINUOUS
 10
-10.6633203701
 20
24.3155047018
 11
-10.9294785191
 21
23.7546861541
  0
LINE
  5
398
100
AcDbEntity
  8
0
100
AcDbLine
 62
7
  6
CONTINUOUS
 10
-10.879154728
 20
23.7837285615
 11
-10.6128883746
 21
24.344613984
  0
LINE
  5
399
100
AcDbEntity
  8
0
100
AcDbLine
 62
7
  6
CONTINUOUS
 10
-10.390478499
 20
24.8813538103
 11
-10.6633203701
 21
24.3155047018
  0
LINE
  5
39A
100
AcDbEntity
  8
0
100
AcDbLine
 62
7
  6
CONTINUOUS
 10
-10.6128883746
 20
24.344613984
 11
-10.3399287391
 21
24.9105406081
  0
LINE
  5
39B
100
AcDbEntity
  8
0
100
AcDbLine
 62
7
  6
CONTINUOUS
 10
-8.0410314855
 20
22.9285509259
 11
-7.7911384298
 21
23.3842231163
  0
LWPOLYLINE
  5
39C
100
AcDbEntity
  8
0
100
AcDbPolyline
 62
7
  6
CONTINUOUS
 90
17
 70
0
 10
-4.1088240869
 20
19.9551620368
 10
-4.0950359693
 20
19.9639356746
 10
-4.0807346413
 20
19.9748875125
 10
-4.0672009368
 20
19.9872268788
 10
-4.0545123544
 20
20.0008513837
 10
-4.042703277
 20
20.0156833847
 10
-4.0318006461
 20
20.0316523254
 10
-4.021863292
 20
20.0486664997
 10
-4.0128637659
 20
20.0666250292
 10
-4.0047325017
 20
20.0854385537
 10
-3.9974274177
 20
20.1050256314
 10
-3.9908954657
 20
20.1252847692
 10
-3.9850767961
 20
20.1461335818
 10
-3.9799307018
 20
20.1675294158
 10
-3.9754132946
 20
20.1894021977
 10
-3.971470295
 20
20.2116489645
 10
-3.9680511489
 20
20.2341813819
  0
LINE
  5
39D
100
AcDbEntity
  8
DRAFT
100
AcDbLine
 62
7
  6
CONTINUOUS
 10
7.7222626626
 20
28.7383472392
 11
7.3428980287
 21
28.5116608648
  0
LINE
  5
39E
100
AcDbEntity
  8
DRAFT
100
AcDbLine
 62
7
  6
CONTINUOUS
 10
7.8989106498
 20
28.1906261459
 11
8.0141506508
 21
28.2594869085
  0
LWPOLYLINE
  5
39F
100
AcDbEntity
  8
0
100
AcDbPolyline
 62
7
  6
CONTINUOUS
 90
46
 70
0
 10
-3.7289083339
 20
19.5392845539
 10
-3.7225795657
 20
19.5429927681
 10
-3.7102474467
 20
19.5505917234
 10
-3.6977937142
 20
19.5589894532
 10
-3.685215596
 20
19.5681975986
 10
-3.6725149886
 20
19.5782050243
 10
-3.6597778173
 20
19.5892126125
 10
-3.6470062813
 20
19.601239775
 10
-3.6341969651
 20
19.6142678026
 10
-3.6214271754
 20
19.6284405094
 10
-3.6086886054
 20
19.6437474042
 10
-3.5959880098
 20
19.6601998748
 10
-3.5834250739
 20
19.6779746773
 10
-3.5709796234
 20
19.697061897
 10
-3.5586698357
 20
19.7174726023
 10
-3.5466526596
 20
19.7394151767
 10
-3.5349110341
 20
19.7628811894
 10
-3.5234595027
 20
19.7878805254
 10
-3.5125021147
 20
19.8146492186
 10
-3.5020234782
 20
19.8432019045
 10
-3.4920358449
 20
19.8735257617
 10
-3.4827844518
 20
19.905815799
 10
-3.4742559617
 20
19.9400698553
 10
-3.4664600536
 20
19.9762922052
 10
-3.4596762704
 20
20.014687637
 10
-3.4538185409
 20
20.0551860906
 10
-3.448968771
 20
20.0978600326
 10
-3.4456581564
 20
20.1431282216
 10
-3.4437379345
 20
20.1911544173
 10
-3.4433516712
 20
20.2417778621
 10
-3.4454697825
 20
20.2949301191
 10
-3.4503322303
 20
20.3514329943
 10
-3.4576950487
 20
20.4104669947
 10
-3.4678081825
 20
20.469498603
 10
-3.4811385818
 20
20.5286306218
 10
-3.4972248837
 20
20.5877570209
 10
-3.5149321439
 20
20.6440266546
 10
-3.5341846357
 20
20.6965236846
 10
-3.5550690907
 20
20.746157592
 10
-3.5766963248
 20
20.7928140135
 10
-3.5988968016
 20
20.8364097369
 10
-3.6218467676
 20
20.877024098
 10
-3.6451743836
 20
20.9147873235
 10
-3.6687569728
 20
20.949742089
 10
-3.6927213524
 20
20.981843327
 10
-3.7170691925
 20
21.0110900727
  0
LINE
  5
3A0
100
AcDbEntity
  8
0
100
AcDbLine
 62
7
  6
CONTINUOUS
 10
-6.233556395
 20
22.5417491618
 11
-6.2841037236
 21
22.5125637677
  0
LINE
  5
3A1
100
AcDbEntity
  8
0
100
AcDbLine
 62
7
  6
CONTINUOUS
 10
-8.6210081173
 20
20.7370754852
 11
-8.671112466
 21
20.7081458622
  0
LINE
  5
3A2
100
AcDbEntity
  8
0
100
AcDbLine
 62
7
  6
CONTINUOUS
 10
-5.7630692553
 20
22.2693447986
 11
-5.8136176098
 21
22.2401588123
  0
LINE
  5
3A3
100
AcDbEntity
  8
0
100
AcDbLine
 62
7
  6
CONTINUOUS
 10
-4.9112807703
 20
21.7378583846
 11
-4.9618247348
 21
21.708674933
  0
LINE
  5
3A4
100
AcDbEntity
  8
0
100
AcDbLine
 62
7
  6
CONTINUOUS
 10
-6.5372482583
 20
20.6449310217
 11
-6.5874940815
 21
20.6159197132
  0
LINE
  5
3A5
100
AcDbEntity
  8
0
100
AcDbLine
 62
7
  6
CONTINUOUS
 10
-7.4655556963
 20
20.0697933208
 11
-7.5156598739
 21
20.0408637966
  0
LINE
  5
3A6
100
AcDbEntity
  8
0
100
AcDbLine
 62
7
  6
CONTINUOUS
 10
-6.9079467136
 20
19.7471356186
 11
-6.9580499145
 21
19.7182066584
  0
LINE
  5
3A7
100
AcDbEntity
  8
0
100
AcDbLine
 62
250
  6
CONTINUOUS
 10
-3.7170697464
 20
21.0110907696
 11
-3.7676099992
 21
20.9819094611
  0
LINE
  5
3A8
100
AcDbEntity
  8
0
100
AcDbLine
 62
7
  6
CONTINUOUS
 10
-4.6411522315
 20
20.1852926858
 11
-4.6914853249
 21
20.1562309885
  0
LINE
  5
3A9
100
AcDbEntity
  8
0
100
AcDbLine
 62
250
  6
CONTINUOUS
 10
-4.3634303053
 20
20.0242377452
 11
-4.4137630563
 21
19.9951762456
  0
LINE
  5
3AA
100
AcDbEntity
  8
0
100
AcDbLine
 62
7
  6
CONTINUOUS
 10
-5.4727689292
 20
18.9162583973
 11
-5.5228682304
 21
18.8873316887
  0
LINE
  5
3AB
100
AcDbEntity
  8
0
100
AcDbLine
 62
7
  6
CONTINUOUS
 10
-3.9255156345
 20
19.4561103198
 11
-3.9475838446
 21
19.4433684119
  0
LINE
  5
3AC
100
AcDbEntity
  8
0
100
AcDbLine
 62
7
  6
CONTINUOUS
 10
-4.8457064013
 20
18.5530268961
 11
-4.8958034147
 21
18.5241015084
  0
LINE
  5
3AD
100
AcDbEntity
  8
0
100
AcDbLine
 62
250
  6
CONTINUOUS
 10
-3.697208707
 20
18.7352931897
 11
-3.7474125276
 21
18.7063061329
  0
LWPOLYLINE
  5
3AE
100
AcDbEntity
  8
0
100
AcDbPolyline
 62
7
  6
CONTINUOUS
 90
17
 70
0
 10
-3.7792100031
 20
19.5102103309
 10
-3.7823185822
 20
19.5084310868
 10
-3.7944390162
 20
19.5017763293
 10
-3.8063364462
 20
19.4956407835
 10
-3.8179967366
 20
19.4899598945
 10
-3.8293779398
 20
19.4846908234
 10
-3.8404709618
 20
19.4797831801
 10
-3.8513156857
 20
19.4751720639
 10
-3.8618597129
 20
19.4708368928
 10
-3.8721192592
 20
19.4667468023
 10
-3.8822725038
 20
19.462970074
 10
-3.892361133
 20
19.4597474585
 10
-3.9024159639
 20
19.4573085878
 10
-3.9126446654
 20
19.4558864518
 10
-3.92316046
 20
19.455781631
 10
-3.9339612409
 20
19.4572889913
 10
-3.945104134
 20
19.4607195212
  0
LWPOLYLINE
  5
3AF
100
AcDbEntity
  8
0
100
AcDbPolyline
 62
7
  6
CONTINUOUS
 90
5
 70
0
 10
-4.0842774436
 20
19.972174464
 10
-4.0868876658
 20
19.9710777129
 10
-4.1054474916
 20
19.965506821
 10
-4.1244570688
 20
19.9617433677
 10
-4.1439272077
 20
19.9598900371
  0
LINE
  5
3B0
100
AcDbEntity
  8
RACCORDO
100
AcDbLine
 62
250
  6
CONTINUOUS
 10
-17.4553862864
 20
42.8298794328
 11
-17.4553862864
 21
43.2756061923
  0
LINE
  5
3B1
100
AcDbEntity
  8
RACCORDO
100
AcDbLine
 62
250
  6
CONTINUOUS
 10
-17.0348567409
 20
42.5870709437
 11
-17.0348567409
 21
43.0327977032
  0
LWPOLYLINE
  5
3B2
100
AcDbEntity
  8
0
100
AcDbPolyline
 62
7
  6
CONTINUOUS
 90
10
 70
0
 10
-9.7215644671
 20
24.4966257428
 10
-9.7745081252
 20
24.1667261093
 10
-9.8259964936
 20
23.8376538508
 10
-9.8760295722
 20
23.5094089673
 10
-9.9246067507
 20
23.1819825408
 10
-9.9717286394
 20
22.8553834892
 10
-10.0173970691
 20
22.529638567
 10
-10.0616126498
 20
22.2047566923
 10
-10.1043747715
 20
21.880728947
 10
-10.145683434
 20
21.5575553309
  0
LINE
  5
3B3
100
AcDbEntity
  8
0
100
AcDbLine
 62
7
  6
CONTINUOUS
 10
-9.1339705864
 20
22.5748280348
 11
-9.2177937353
 21
22.1625048984
  0
LINE
  5
3B4
100
AcDbEntity
  8
0
100
AcDbLine
 62
7
  6
CONTINUOUS
 10
-9.1675446895
 20
22.1915152428
 11
-9.0836581467
 21
22.6038759581
  0
LWPOLYLINE
  5
3B5
100
AcDbEntity
  8
0
100
AcDbPolyline
 62
7
  6
CONTINUOUS
 90
10
 70
0
 10
-9.8831559607
 20
21.4063752964
 10
-9.818416303
 20
21.7159202563
 10
-9.7522198503
 20
22.0263475984
 10
-9.6845666027
 20
22.3376573227
 10
-9.6154559558
 20
22.6498579833
 10
-9.544888514
 20
22.9629410261
 10
-9.4728660896
 20
23.2768807894
 10
-9.3993892869
 20
23.5916687191
 10
-9.3244575016
 20
23.9073133692
 10
-9.2480707338
 20
24.2238147397
  0
LINE
  5
3B6
100
AcDbEntity
  8
0
100
AcDbLine
 62
7
  6
CONTINUOUS
 10
-9.0477049783
 20
22.9885004563
 11
-9.1339705864
 21
22.5748280348
  0
LINE
  5
3B7
100
AcDbEntity
  8
0
100
AcDbLine
 62
7
  6
CONTINUOUS
 10
-9.0836581467
 20
22.6038759581
 11
-9.0310200561
 21
22.8571282467
  0
LINE
  5
3B8
100
AcDbEntity
  8
RACCORDO
100
AcDbLine
 62
250
  6
CONTINUOUS
 10
-6.0669008404
 20
31.1424469264
 11
-6.1532529233
 21
30.7970669741
  0
LINE
  5
3B9
100
AcDbEntity
  8
0
100
AcDbLine
 62
7
  6
CONTINUOUS
 10
-6.7953912864
 20
20.1098188542
 11
-6.9580499145
 21
19.7182066584
  0
LINE
  5
3BA
100
AcDbEntity
  8
0
100
AcDbLine
 62
7
  6
CONTINUOUS
 10
-6.9079467136
 20
19.7471356186
 11
-6.7452274659
 21
20.1387829378
  0
LINE
  5
3BB
100
AcDbEntity
  8
0
100
AcDbLine
 62
7
  6
CONTINUOUS
 10
-6.7452274659
 20
20.1387829378
 11
-6.7178669466
 21
20.2041345605
  0
LINE
  5
3BC
100
AcDbEntity
  8
0
100
AcDbLine
 62
7
  6
CONTINUOUS
 10
-6.7484700991
 20
20.2218506458
 11
-6.7953912864
 21
20.1098188542
  0
LINE
  5
3BD
100
AcDbEntity
  8
0
100
AcDbLine
 62
7
  6
CONTINUOUS
 10
-6.4109243358
 20
21.038159783
 11
-6.5874940815
 21
20.6159197132
  0
LINE
  5
3BE
100
AcDbEntity
  8
0
100
AcDbLine
 62
7
  6
CONTINUOUS
 10
-6.5372482583
 20
20.6449310217
 11
-6.3606081549
 21
21.0672085491
  0
LINE
  5
3BF
100
AcDbEntity
  8
0
100
AcDbLine
 62
7
  6
CONTINUOUS
 10
-6.3606081549
 20
21.0672085491
 11
-6.1811304985
 21
21.4904929657
  0
LWPOLYLINE
  5
3C0
100
AcDbEntity
  8
0
100
AcDbPolyline
 62
7
  6
CONTINUOUS
 90
3
 70
0
 10
-6.1862317838
 20
21.5673611563
 10
-6.2315232866
 20
21.4613980354
 10
-6.4109243358
 20
21.038159783
  0
LINE
  5
3C1
100
AcDbEntity
  8
0
100
AcDbLine
 62
7
  6
CONTINUOUS
 10
-7.4392623993
 20
19.9966624967
 11
-7.1913634203
 21
20.5526943138
  0
LINE
  5
3C2
100
AcDbEntity
  8
0
100
AcDbLine
 62
7
  6
CONTINUOUS
 10
-7.1913634203
 20
20.5526943138
 11
-6.9384168071
 21
21.1105069156
  0
LINE
  5
3C3
100
AcDbEntity
  8
0
100
AcDbLine
 62
7
  6
CONTINUOUS
 10
-6.9384168071
 20
21.1105069156
 11
-6.6804343316
 21
21.6700774561
  0
LWPOLYLINE
  5
3C4
100
AcDbEntity
  8
0
100
AcDbPolyline
 62
7
  6
CONTINUOUS
 90
3
 70
0
 10
-6.6804343316
 20
21.6700774561
 10
-6.4174630819
 20
22.2313145509
 10
-6.2841037236
 20
22.5125637677
  0
LINE
  5
3C5
100
AcDbEntity
  8
0
100
AcDbLine
 62
7
  6
CONTINUOUS
 10
-8.4256639763
 20
21.1720787419
 11
-8.671112466
 21
20.7081458622
  0
LINE
  5
3C6
100
AcDbEntity
  8
0
100
AcDbLine
 62
7
  6
CONTINUOUS
 10
-8.6210081173
 20
20.7370754852
 11
-8.3754959915
 21
21.2010294473
  0
LINE
  5
3C7
100
AcDbEntity
  8
0
100
AcDbLine
 62
7
  6
CONTINUOUS
 10
-8.1754402764
 20
21.6393628528
 11
-8.4256639763
 21
21.1720787419
  0
LINE
  5
3C8
100
AcDbEntity
  8
0
100
AcDbLine
 62
7
  6
CONTINUOUS
 10
-8.3754959915
 20
21.2010294473
 11
-8.1252108379
 21
21.6683254382
  0
LINE
  5
3C9
100
AcDbEntity
  8
0
100
AcDbLine
 62
7
  6
CONTINUOUS
 10
-8.5283149133
 20
22.0252578983
 11
-8.2867599549
 21
22.4755529583
  0
LINE
  5
3CA
100
AcDbEntity
  8
0
100
AcDbLine
 62
7
  6
CONTINUOUS
 10
-8.1252108379
 20
21.6683254382
 11
-7.8701694537
 21
22.1389176343
  0
LINE
  5
3CB
100
AcDbEntity
  8
0
100
AcDbLine
 62
7
  6
CONTINUOUS
 10
-8.2867599549
 20
22.4755529583
 11
-8.0410314855
 21
22.9285509259
  0
LINE
  5
3CC
100
AcDbEntity
  8
0
100
AcDbLine
 62
7
  6
CONTINUOUS
 10
-7.8900835435
 20
22.1656901877
 11
-8.1754402764
 21
21.6393628528
  0
LINE
  5
3CD
100
AcDbEntity
  8
0
100
AcDbLine
 62
7
  6
CONTINUOUS
 10
-7.8701694537
 20
22.1389176343
 11
-7.8397336781
 21
22.1947549742
  0
LINE
  5
3CE
100
AcDbEntity
  8
0
100
AcDbLine
 62
7
  6
CONTINUOUS
 10
-7.8290474751
 20
22.2774615524
 11
-7.8900835435
 21
22.1656901877
  0
LINE
  5
3CF
100
AcDbEntity
  8
0
100
AcDbLine
 62
7
  6
CONTINUOUS
 10
-3.6337512519
 20
17.8505840891
 11
-3.6838430338
 21
17.821661722
  0
LWPOLYLINE
  5
3D0
100
AcDbEntity
  8
RACCORDO
100
AcDbPolyline
 62
250
  6
CONTINUOUS
 90
10
 70
0
 10
-40.5495197341
 20
18.1367850047
 10
-40.0803179431
 20
17.6226988068
 10
-39.5995313714
 20
17.1091772643
 10
-39.1068902249
 20
16.5963760877
 10
-38.6021954474
 20
16.0844248803
 10
-38.0853043481
 20
15.5733912768
 10
-37.5561096884
 20
15.0632930129
 10
-37.0145176873
 20
14.5541694952
 10
-36.4604242367
 20
14.0460955281
 10
-35.8936879002
 20
13.539152741
  0
LINE
  5
3D1
100
AcDbEntity
  8
0
100
AcDbLine
 62
7
  6
CONTINUOUS
 10
-11.6783155272
 20
23.9024671334
 11
-11.6418798152
 21
23.3957161607
  0
LINE
  5
3D2
100
AcDbEntity
  8
0
100
AcDbLine
 62
7
  6
CONTINUOUS
 10
-11.5972781649
 20
23.5015106722
 11
-11.6280228272
 21
23.9314832025
  0
LINE
  5
3D3
100
AcDbEntity
  8
0
100
AcDbLine
 62
7
  6
CONTINUOUS
 10
-11.7118818647
 20
24.4099909766
 11
-11.6783155272
 21
23.9024671334
  0
LINE
  5
3D4
100
AcDbEntity
  8
0
100
AcDbLine
 62
7
  6
CONTINUOUS
 10
-11.6280228272
 20
23.9314832025
 11
-11.661517973
 21
24.4390388917
  0
LINE
  5
3D5
100
AcDbEntity
  8
0
100
AcDbLine
 62
7
  6
CONTINUOUS
 10
-11.7425791602
 20
24.9182767538
 11
-11.7118818647
 21
24.4099909766
  0
LINE
  5
3D6
100
AcDbEntity
  8
0
100
AcDbLine
 62
7
  6
CONTINUOUS
 10
-11.661517973
 20
24.4390388917
 11
-11.6921418876
 21
24.9473706218
  0
LWPOLYLINE
  5
3D7
100
AcDbEntity
  8
0
100
AcDbPolyline
 62
7
  6
CONTINUOUS
 90
3
 70
0
 10
-11.6921418876
 20
24.9473706218
 10
-11.7198956317
 20
25.4564339884
 10
-11.7326961235
 20
25.7112428107
  0
LWPOLYLINE
  5
3D8
100
AcDbEntity
  8
0
100
AcDbPolyline
 62
7
  6
CONTINUOUS
 90
3
 70
0
 10
-11.783248061
 20
25.6820547555
 10
-11.7704087441
 20
25.4272807186
 10
-11.7425791602
 20
24.9182767538
  0
LWPOLYLINE
  5
3D9
100
AcDbEntity
  8
RACCORDO
100
AcDbPolyline
 62
250
  6
CONTINUOUS
 90
10
 70
0
 10
-8.1471804593
 20
-36.5096825804
 10
-8.1992322474
 20
-35.2348330051
 10
-8.2452556117
 20
-33.9562016847
 10
-8.2852492436
 20
-32.6738249852
 10
-8.3192120062
 20
-31.3877393785
 10
-8.3471429334
 20
-30.0979814425
 10
-8.3690412306
 20
-28.8045878596
 10
-8.3849062749
 20
-27.5075954157
 10
-8.3947376153
 20
-26.2070409986
 10
-8.3980988694
 20
-25.0527270175
  0
LINE
  5
3DA
100
AcDbEntity
  8
0
100
AcDbLine
 62
7
  6
CONTINUOUS
 10
-7.9916489846
 20
20.3162138764
 11
-7.9596995172
 21
20.7498999296
  0
LINE
  5
3DB
100
AcDbEntity
  8
0
100
AcDbLine
 62
7
  6
CONTINUOUS
 10
-7.9596995172
 20
20.7498999296
 11
-7.9253588788
 21
21.1848243858
  0
LWPOLYLINE
  5
3DC
100
AcDbEntity
  8
0
100
AcDbPolyline
 62
7
  6
CONTINUOUS
 90
10
 70
0
 10
-7.3095295269
 20
23.1058549018
 10
-7.3381433709
 20
22.7622583495
 10
-7.3653292759
 20
22.419415321
 10
-7.391087242
 20
22.0773258162
 10
-7.415416841
 20
21.7359805386
 10
-7.4383185011
 20
21.3953887847
 10
-7.459793506
 20
21.0555784446
 10
-7.4798422838
 20
20.7165588149
 10
-7.4984644064
 20
20.3783205989
 10
-7.5156598739
 20
20.0408637966
  0
LINE
  5
3DD
100
AcDbEntity
  8
0
100
AcDbLine
 62
7
  6
CONTINUOUS
 10
-7.9253588788
 20
21.1848243858
 11
-7.888627204
 21
21.6209793321
  0
LWPOLYLINE
  5
3DE
100
AcDbEntity
  8
0
100
AcDbPolyline
 62
7
  6
CONTINUOUS
 90
3
 70
0
 10
-7.888627204
 20
21.6209793321
 10
-7.8495050316
 20
22.0583331171
 10
-7.8290474751
 20
22.2774615524
  0
LWPOLYLINE
  5
3DF
100
AcDbEntity
  8
0
100
AcDbPolyline
 62
7
  6
CONTINUOUS
 90
10
 70
0
 10
-10.6333983474
 20
21.8383580041
 10
-10.5921727876
 20
22.1612299621
 10
-10.5494765669
 20
22.4850295925
 10
-10.5053096853
 20
22.8097568955
 10
-10.4596734801
 20
23.1354206256
 10
-10.412566614
 20
23.4620120281
 10
-10.3639850748
 20
23.7895048397
 10
-10.3139275254
 20
24.1178903058
 10
-10.262395303
 20
24.4471771809
 10
-10.2093884076
 20
24.7773654651
  0
LWPOLYLINE
  5
3E0
100
AcDbEntity
  8
0
100
AcDbPolyline
 62
7
  6
CONTINUOUS
 90
10
 70
0
 10
-10.0955821486
 20
21.5864831853
 10
-10.054192387
 20
21.9099603789
 10
-10.0113563167
 20
22.2342233292
 10
-9.9670739375
 20
22.5592720364
 10
-9.9213449253
 20
22.8851158832
 10
-9.8741696043
 20
23.2117454867
 10
-9.8255489472
 20
23.5391326984
 10
-9.7754832782
 20
23.8672681353
 10
-9.7239722732
 20
24.1961611803
 10
-9.6710159321
 20
24.5258118334
  0
LWPOLYLINE
  5
3E1
100
AcDbEntity
  8
0
100
AcDbPolyline
 62
250
  6
CONTINUOUS
 90
7
 70
0
 10
-7.870195466
 20
22.1388699933
 10
-8.0492702642
 20
20.8543303375
 10
-8.2071743887
 20
19.5743710235
 10
-8.3436819833
 20
18.2991225252
 10
-8.4586318595
 20
17.028677959
 10
-8.5518252862
 20
15.7631521292
 10
-8.6229089695
 20
14.5027491287
  0
LINE
  5
3E2
100
AcDbEntity
  8
0
100
AcDbLine
 62
250
  6
CONTINUOUS
 10
-7.8588139009
 20
22.522202251
 11
-7.9205057203
 21
22.1098648755
  0
LINE
  5
3E3
100
AcDbEntity
  8
0
100
AcDbLine
 62
250
  6
CONTINUOUS
 10
-7.7949580865
 20
22.9350337504
 11
-7.8588139009
 21
22.522202251
  0
LINE
  5
3E4
100
AcDbEntity
  8
0
100
AcDbLine
 62
250
  6
CONTINUOUS
 10
-7.7289434556
 20
23.3483565805
 11
-7.7949580865
 21
22.9350337504
  0
LINE
  5
3E5
100
AcDbEntity
  8
0
100
AcDbLine
 62
7
  6
CONTINUOUS
 10
-9.338946803
 20
21.5465760761
 11
-9.4166589757
 21
21.1376874851
  0
LINE
  5
3E6
100
AcDbEntity
  8
0
100
AcDbLine
 62
7
  6
CONTINUOUS
 10
-9.3665559113
 20
21.1666163665
 11
-9.2887875198
 21
21.5755351952
  0
LWPOLYLINE
  5
3E7
100
AcDbEntity
  8
0
100
AcDbPolyline
 62
7
  6
CONTINUOUS
 90
3
 70
0
 10
-9.2887875198
 20
21.5755351952
 10
-9.2085710122
 20
21.9858414831
 10
-9.1675446895
 20
22.1915152428
  0
LWPOLYLINE
  5
3E8
100
AcDbEntity
  8
0
100
AcDbPolyline
 62
7
  6
CONTINUOUS
 90
3
 70
0
 10
-9.2177937353
 20
22.1625048984
 10
-9.2587894122
 20
21.9568489993
 10
-9.338946803
 20
21.5465760761
  0
LWPOLYLINE
  5
3E9
100
AcDbEntity
  8
0
100
AcDbPolyline
 62
250
  6
CONTINUOUS
 90
7
 70
0
 10
-6.3217794938
 20
30.1071405572
 10
-6.586092649
 20
28.9763620718
 10
-6.8350820846
 20
27.8492794388
 10
-7.0688024502
 20
26.7258610877
 10
-7.2872862535
 20
25.6060882392
 10
-7.4905074184
 20
24.4899759573
 10
-7.6784194299
 20
23.3775511129
  0
LINE
  5
3EA
100
AcDbEntity
  8
RACCORDO
100
AcDbLine
 62
250
  6
CONTINUOUS
 10
-6.2100464447
 20
30.5669684511
 11
-6.3217794938
 21
30.1071405572
  0
LINE
  5
3EB
100
AcDbEntity
  8
RACCORDO
100
AcDbLine
 62
250
  6
CONTINUOUS
 10
-6.1532529233
 20
30.7970669741
 11
-6.2100464447
 21
30.5669684511
  0
LINE
  5
3EC
100
AcDbEntity
  8
RACCORDO
100
AcDbLine
 62
7
  6
CONTINUOUS
 10
18.6641819674
 20
22.880289448
 11
14.2924361597
 21
19.9854148688
  0
LWPOLYLINE
  5
3ED
100
AcDbEntity
  8
RACCORDO
100
AcDbPolyline
 62
7
  6
CONTINUOUS
 90
16
 70
0
 10
13.6982318143
 20
20.4066076554
 10
13.6677470627
 20
20.3874572558
 10
13.6379463398
 20
20.3658188136
 10
13.6088296455
 20
20.3416923287
 10
13.5801701966
 20
20.3148418659
 10
13.5521947763
 20
20.2855033604
 10
13.5255837349
 20
20.2543846178
 10
13.500420432
 20
20.2215155203
 10
13.476621508
 20
20.1868661858
 10
13.454617235
 20
20.1510547737
 10
13.434396919
 20
20.1139624931
 10
13.4159712541
 20
20.075708135
 10
13.3998025938
 20
20.0372662317
 10
13.386045056
 20
19.9989616272
 10
13.3745445229
 20
19.9604694774
 10
13.3653009945
 20
19.9217897823
  0
LINE
  5
3EE
100
AcDbEntity
  8
RACCORDO
100
AcDbLine
 62
7
  6
CONTINUOUS
 10
13.698177392
 20
20.4065762081
 11
17.3539916694
 21
22.5190489281
  0
LINE
  5
3EF
100
AcDbEntity
  8
DRAFT
100
AcDbLine
 62
7
  6
CONTINUOUS
 10
13.8993854245
 20
18.9515710673
 11
13.0766835455
 21
18.4928517544
  0
LWPOLYLINE
  5
3F0
100
AcDbEntity
  8
RACCORDO
100
AcDbPolyline
 62
250
  6
CONTINUOUS
 90
9
 70
0
 10
14.2925568254
 20
19.9854946535
 10
14.3073962401
 20
19.9936859529
 10
14.325203755
 20
20.0000099614
 10
14.3444375409
 20
20.0034921836
 10
14.3648911273
 20
20.0040952386
 10
14.3863449497
 20
20.0018126526
 10
14.408568706
 20
19.9966689288
 10
14.431323829
 20
19.9887192838
 10
14.4543660476
 20
19.9780490554
  0
LWPOLYLINE
  5
3F1
100
AcDbEntity
  8
RACCORDO
100
AcDbPolyline
 62
250
  6
CONTINUOUS
 90
10
 70
0
 10
29.0850489597
 20
-22.0693048459
 10
28.1944031582
 20
-21.7981278495
 10
27.3048919846
 20
-21.5203523586
 10
26.4167335555
 20
-21.2357927936
 10
25.5300887849
 20
-20.9442975255
 10
24.6450730068
 20
-20.6457831439
 10
23.7617728867
 20
-20.3402200687
 10
22.8802642068
 20
-20.0275585416
 10
22.0006311063
 20
-19.7077122554
 10
21.1229879279
 20
-19.3805839243
  0
LINE
  5
3F2
100
AcDbEntity
  8
RACCORDO
100
AcDbLine
 62
250
  6
CONTINUOUS
 10
19.9488657638
 20
-18.930699282
 11
19.5089579533
 21
-18.7578985124
  0
LINE
  5
3F3
100
AcDbEntity
  8
RACCORDO
100
AcDbLine
 62
250
  6
CONTINUOUS
 10
19.5089579533
 20
-18.7578985124
 11
19.2890735727
 21
-18.6706663188
  0
LWPOLYLINE
  5
3F4
100
AcDbEntity
  8
RACCORDO
100
AcDbPolyline
 62
250
  6
CONTINUOUS
 90
10
 70
0
 10
19.2890735727
 20
-18.6706663188
 10
18.0528900347
 20
-18.1706472212
 10
16.8217445523
 20
-17.6551698374
 10
15.5959986103
 20
-17.1239266061
 10
14.3760261
 20
-16.5765415611
 10
13.1622144832
 20
-16.0127428887
 10
11.9549660138
 20
-15.4323618889
 10
10.754690241
 20
-14.8351079556
 10
9.561909901
 20
-14.220478481
 10
8.3773134214
 20
-13.5878877324
  0
LWPOLYLINE
  5
3F5
100
AcDbEntity
  8
RACCORDO
100
AcDbPolyline
 62
250
  6
CONTINUOUS
 90
12
 70
0
 10
21.122987706
 20
-19.3805268295
 10
21.0992631299
 20
-19.370577943
 10
21.0773327957
 20
-19.3593406306
 10
21.0574061299
 20
-19.346922168
 10
21.0396734298
 20
-19.3334410967
 10
21.0243040311
 20
-19.319026146
 10
21.0114446971
 20
-19.3038150014
 10
21.0012182379
 20
-19.2879529169
 10
20.993722322
 20
-19.2715913408
 10
20.9890285398
 20
-19.2548865208
 10
20.9871817317
 20
-19.2379979921
 10
20.9871516866
 20
-19.2355977706
  0
LWPOLYLINE
  5
3F6
100
AcDbEntity
  8
RACCORDO
100
AcDbPolyline
 62
250
  6
CONTINUOUS
 90
10
 70
0
 10
-34.6631738462
 20
12.4806851604
 10
-33.7971641608
 20
11.7669190393
 10
-32.904243633
 20
11.0559821308
 10
-31.9839650872
 20
10.3481325205
 10
-31.0358659983
 20
9.643695
 10
-30.0594670567
 20
8.9428883537
 10
-29.0542706578
 20
8.2458262305
 10
-28.0197701671
 20
7.5527431853
 10
-26.9553189277
 20
6.8640702806
 10
-25.86006534
 20
6.1802990136
  0
LINE
  5
3F7
100
AcDbEntity
  8
RACCORDO
100
AcDbLine
 62
250
  6
CONTINUOUS
 10
-34.8892039024
 20
12.6710512105
 11
-34.6631738462
 21
12.4806851604
  0
LINE
  5
3F8
100
AcDbEntity
  8
RACCORDO
100
AcDbLine
 62
250
  6
CONTINUOUS
 10
-35.1132156324
 20
12.8615584611
 11
-34.8892039024
 21
12.6710512105
  0
LINE
  5
3F9
100
AcDbEntity
  8
RACCORDO
100
AcDbLine
 62
250
  6
CONTINUOUS
 10
21.6686662853
 20
-50.7717412202
 11
21.6511538894
 21
-50.7482349647
  0
LWPOLYLINE
  5
3FA
100
AcDbEntity
  8
0
100
AcDbPolyline
 62
7
  6
CONTINUOUS
 90
10
 70
0
 10
-11.9955836711
 20
22.6222293172
 10
-12.0371137778
 20
22.9952384986
 10
-12.0770970618
 20
23.368462125
 10
-12.115533523
 20
23.7419001965
 10
-12.1524230814
 20
24.1155635698
 10
-12.1877658169
 20
24.4894413882
 10
-12.2215619695
 20
24.863501081
 10
-12.2538116191
 20
25.2377317913
 10
-12.2845146857
 20
25.612144376
 10
-12.3136711693
 20
25.9867388352
  0
LINE
  5
3FB
100
AcDbEntity
  8
0
100
AcDbLine
 62
7
  6
CONTINUOUS
 10
-6.0354243677
 20
19.184138401
 11
-6.069754989
 21
19.6198724265
  0
LINE
  5
3FC
100
AcDbEntity
  8
0
100
AcDbLine
 62
7
  6
CONTINUOUS
 10
-6.069754989
 20
19.6198724265
 11
-6.0861498572
 21
19.8383657789
  0
LWPOLYLINE
  5
3FD
100
AcDbEntity
  8
0
100
AcDbPolyline
 62
7
  6
CONTINUOUS
 90
10
 70
0
 10
-5.8136176098
 20
22.2401588123
 10
-5.7870049138
 20
21.862415815
 10
-5.7589661473
 20
21.4859675873
 10
-5.7295013103
 20
21.1108141291
 10
-5.6986065724
 20
20.7369462497
 10
-5.6662857641
 20
20.3643731399
 10
-5.6325503766
 20
19.9931223717
 10
-5.5974042403
 20
19.6232031358
 10
-5.5608435249
 20
19.2546062414
 10
-5.5228682304
 20
18.8873316887
  0
LINE
  5
3FE
100
AcDbEntity
  8
0
100
AcDbLine
 62
7
  6
CONTINUOUS
 10
-6.1218824201
 20
20.3462969381
 11
-6.1451064798
 21
20.7518288226
  0
LINE
  5
3FF
100
AcDbEntity
  8
0
100
AcDbLine
 62
7
  6
CONTINUOUS
 10
-6.1451064798
 20
20.7518288226
 11
-6.1665577361
 21
21.1588549692
  0
LINE
  5
400
100
AcDbEntity
  8
0
100
AcDbLine
 62
7
  6
CONTINUOUS
 10
-6.1665577361
 20
21.1588549692
 11
-6.1862317838
 21
21.5673611563
  0
LWPOLYLINE
  5
401
100
AcDbEntity
  8
RACCORDO
100
AcDbPolyline
 62
250
  6
CONTINUOUS
 90
9
 70
0
 10
-8.6228244866
 20
14.5027003696
 10
-8.6228599886
 20
14.4850990509
 10
-8.6212603318
 20
14.4685402647
 10
-8.6180440149
 20
14.4532158451
 10
-8.6132482552
 20
14.439303317
 10
-8.6069286116
 20
14.4269638713
 10
-8.5991583419
 20
14.4163404971
 10
-8.5900274804
 20
14.4075562829
 10
-8.5816833063
 20
14.4018465919
  0
LWPOLYLINE
  5
402
100
AcDbEntity
  8
0
100
AcDbPolyline
 62
7
  6
CONTINUOUS
 90
10
 70
0
 10
-7.4655556963
 20
20.0697933208
 10
-7.4483171473
 20
20.4072773623
 10
-7.4296504676
 20
20.7455431703
 10
-7.4095556574
 20
21.0845907446
 10
-7.3880331337
 20
21.4244295107
 10
-7.3650824794
 20
21.7650500431
 10
-7.3407024432
 20
22.1064240657
 10
-7.3148926082
 20
22.4485421529
 10
-7.2876533914
 20
22.7914137303
 10
-7.2589847927
 20
23.1350387978
  0
LWPOLYLINE
  5
403
100
AcDbEntity
  8
0
100
AcDbPolyline
 62
7
  6
CONTINUOUS
 90
19
 70
0
 10
-3.9680511382
 20
20.2341813759
 10
-3.9649523953
 20
20.2628478985
 10
-3.9636184878
 20
20.2928727361
 10
-3.9640680245
 20
20.3240756363
 10
-3.9662713669
 20
20.356237208
 10
-3.9702829448
 20
20.389169566
 10
-3.9762662949
 20
20.4227203539
 10
-3.9842837189
 20
20.4567810611
 10
-3.9943435448
 20
20.4909432061
 10
-4.0065062467
 20
20.5245833236
 10
-4.0207809876
 20
20.557412432
 10
-4.0370096186
 20
20.5892276723
 10
-4.0549044081
 20
20.6195738348
 10
-4.0742067556
 20
20.648225569
 10
-4.0947492734
 20
20.6751600211
 10
-4.1163457412
 20
20.7002566882
 10
-4.1387993363
 20
20.7233898588
 10
-4.1619013764
 20
20.7444309474
 10
-4.1854508328
 20
20.7632542443
  0
LWPOLYLINE
  5
404
100
AcDbEntity
  8
0
100
AcDbPolyline
 62
7
  6
CONTINUOUS
 90
10
 70
0
 10
-5.3800751237
 20
18.8046297875
 10
-5.3393869086
 20
19.1235872003
 10
-5.2972538641
 20
19.4434794923
 10
-5.2536759904
 20
19.7643066635
 10
-5.208654865
 20
20.0860771295
 10
-5.1621889103
 20
20.4087824747
 10
-5.1142733932
 20
20.7323974523
 10
-5.0649067361
 20
21.0569136468
 10
-5.0140905166
 20
21.3823394737
 10
-4.9618247348
 20
21.708674933
  0
LINE
  5
405
100
AcDbEntity
  8
0
100
AcDbLine
 62
7
  6
CONTINUOUS
 10
-4.8472810192
 20
18.9037225881
 11
-4.8958034147
 21
18.5241015084
  0
LINE
  5
406
100
AcDbEntity
  8
0
100
AcDbLine
 62
7
  6
CONTINUOUS
 10
-4.8457064013
 20
18.5530268961
 11
-4.797132424
 21
18.9326759436
  0
LINE
  5
407
100
AcDbEntity
  8
0
100
AcDbLine
 62
7
  6
CONTINUOUS
 10
-4.7967566096
 20
19.2843315301
 11
-4.8472810192
 21
18.9037225881
  0
LINE
  5
408
100
AcDbEntity
  8
0
100
AcDbLine
 62
7
  6
CONTINUOUS
 10
-4.797132424
 20
18.9326759436
 11
-4.7465539442
 21
19.3133162425
  0
LINE
  5
409
100
AcDbEntity
  8
0
100
AcDbLine
 62
7
  6
CONTINUOUS
 10
-4.7442306466
 20
19.6659113872
 11
-4.7967566096
 21
19.2843315301
  0
LINE
  5
40A
100
AcDbEntity
  8
0
100
AcDbLine
 62
7
  6
CONTINUOUS
 10
-4.7465539442
 20
19.3133162425
 11
-4.7014735416
 21
19.6411217204
  0
LINE
  5
40B
100
AcDbEntity
  8
0
100
AcDbLine
 62
7
  6
CONTINUOUS
 10
-3.945104134
 20
19.4607195212
 11
-3.9475838446
 21
19.4433684119
  0
LINE
  5
40C
100
AcDbEntity
  8
0
100
AcDbLine
 62
7
  6
CONTINUOUS
 10
-4.6381379624
 20
20.5154822118
 11
-4.6914853249
 21
20.1562309885
  0
LINE
  5
40D
100
AcDbEntity
  8
0
100
AcDbLine
 62
7
  6
CONTINUOUS
 10
-4.6411522315
 20
20.1852926858
 11
-4.5877212367
 21
20.5447523149
  0
LINE
  5
40E
100
AcDbEntity
  8
0
100
AcDbLine
 62
7
  6
CONTINUOUS
 10
-4.5877212367
 20
20.5447523149
 11
-4.532481929
 21
20.9053937297
  0
LWPOLYLINE
  5
40F
100
AcDbEntity
  8
0
100
AcDbPolyline
 62
7
  6
CONTINUOUS
 90
3
 70
0
 10
-4.5688539976
 20
20.9665999352
 10
-4.5829421416
 20
20.8761946166
 10
-4.6381379624
 20
20.5154822118
  0
LINE
  5
410
100
AcDbEntity
  8
0
100
AcDbLine
 62
7
  6
CONTINUOUS
 10
-4.532481929
 20
20.9053937297
 11
-4.5253934033
 21
20.9508369471
  0
LWPOLYLINE
  5
411
100
AcDbEntity
  8
RACCORDO
100
AcDbPolyline
 62
7
  6
CONTINUOUS
 90
14
 70
0
 10
14.2925568254
 20
19.9854946535
 10
14.2768065011
 20
19.9746277954
 10
14.2471001728
 20
19.9516081022
 10
14.2190652817
 20
19.9265796479
 10
14.1925491496
 20
19.8995454898
 10
14.1675886389
 20
19.8706440915
 10
14.1444309762
 20
19.840277082
 10
14.1230179916
 20
19.8084721698
 10
14.1033510799
 20
19.775272492
 10
14.0857344212
 20
19.7412156741
 10
14.0701574209
 20
19.706346349
 10
14.0566393636
 20
19.6706448503
 10
14.0453859839
 20
19.6345945402
 10
14.036679363
 20
19.5993930433
  0
LWPOLYLINE
  5
412
100
AcDbEntity
  8
RACCORDO
100
AcDbPolyline
 62
250
  6
CONTINUOUS
 90
19
 70
0
 10
-33.9903005545
 20
-15.7313062267
 10
-34.0112823719
 20
-15.745755726
 10
-34.0339320619
 20
-15.7589677717
 10
-34.0580480585
 20
-15.7708247852
 10
-34.083415745
 20
-15.781221246
 10
-34.1098093688
 20
-15.7900646329
 10
-34.1369940507
 20
-15.7972762465
 10
-34.1647278667
 20
-15.8027919066
 10
-34.1927640047
 20
-15.8065625255
 10
-34.2208529671
 20
-15.8085545455
 10
-34.2487447808
 20
-15.8087502362
 10
-34.2761912261
 20
-15.807147853
 10
-34.3029480495
 20
-15.8037616525
 10
-34.3287771311
 20
-15.7986217663
 10
-34.3534486054
 20
-15.7917739326
 10
-34.3767429103
 20
-15.7832790889
 10
-34.3984527375
 20
-15.7732128304
 10
-34.4183848776
 20
-15.7616647375
 10
-34.4363619415
 20
-15.7487375787
  0
LINE
  5
413
100
AcDbEntity
  8
RACCORDO
100
AcDbLine
 62
250
  6
CONTINUOUS
 10
18.9655727768
 20
22.9652715124
 11
14.4543660484
 21
19.978049056
  0
LINE
  5
414
100
AcDbEntity
  8
RACCORDO
100
AcDbLine
 62
250
  6
CONTINUOUS
 10
12.045777799
 20
12.769684941
 11
12.8129017705
 21
13.2283500704
  0
LINE
  5
415
100
AcDbEntity
  8
DRAFT
100
AcDbLine
 62
7
  6
CONTINUOUS
 10
12.9141526126
 20
13.8299947601
 11
12.075926662
 21
13.3626195882
  0
LWPOLYLINE
  5
416
100
AcDbEntity
  8
RACCORDO
100
AcDbPolyline
 62
250
  6
CONTINUOUS
 90
13
 70
0
 10
-25.8600653316
 20
6.1804165042
 10
-25.8448097949
 20
6.1720146887
 10
-25.8281022116
 20
6.1645861067
 10
-25.8101286425
 20
6.1582137121
 10
-25.7910892467
 20
6.1529689449
 10
-25.7711960529
 20
6.148910211
 10
-25.7506705987
 20
6.1460822294
 10
-25.7297414621
 20
6.1445167304
 10
-25.7086417157
 20
6.1442313967
 10
-25.6876063319
 20
6.1452289398
 10
-25.666869564
 20
6.1474984502
 10
-25.646662346
 20
6.151014903
 10
-25.6448190564
 20
6.1514625228
  0
LWPOLYLINE
  5
417
100
AcDbEntity
  8
RACCORDO
100
AcDbPolyline
 62
250
  6
CONTINUOUS
 90
9
 70
0
 10
8.3773131298
 20
-13.5877704169
 10
8.3627283385
 20
-13.5791034886
 10
8.3498323626
 20
-13.5695638575
 10
8.3387688175
 20
-13.5592589849
 10
8.3296608956
 20
-13.5482939812
 10
8.3226100421
 20
-13.5368018723
 10
8.3176948259
 20
-13.5249422354
 10
8.3149700006
 20
-13.5128578461
 10
8.3143824494
 20
-13.5041146276
  0
LINE
  5
418
100
AcDbEntity
  8
RACCORDO
100
AcDbLine
 62
250
  6
CONTINUOUS
 10
21.6511538894
 20
-50.7482349647
 11
21.6356029149
 21
-50.7231917357
  0
LWPOLYLINE
  5
419
100
AcDbEntity
  8
RACCORDO
100
AcDbPolyline
 62
250
  6
CONTINUOUS
 90
9
 70
0
 10
-18.4709746171
 20
43.8511775697
 10
-18.4694252817
 20
43.844162056
 10
-18.4624189726
 20
43.8209782736
 10
-18.4526055379
 20
43.7942111309
 10
-18.4398341692
 20
43.7640864793
 10
-18.4246076628
 20
43.7306123644
 10
-18.4070729878
 20
43.6939615628
 10
-18.3869841227
 20
43.6544336871
 10
-18.3643107162
 20
43.6122801358
  0
LINE
  5
41A
100
AcDbEntity
  8
0
100
AcDbLine
 62
7
  6
CONTINUOUS
 10
-8.739485111
 20
20.7475453722
 11
-8.8125068657
 21
21.2450225295
  0
LINE
  5
41B
100
AcDbEntity
  8
0
100
AcDbLine
 62
7
  6
CONTINUOUS
 10
-8.8125068657
 20
21.2450225295
 11
-8.8829410818
 21
21.7428055282
  0
LINE
  5
41C
100
AcDbEntity
  8
0
100
AcDbLine
 62
7
  6
CONTINUOUS
 10
-8.8829410818
 20
21.7428055282
 11
-8.9507876593
 21
22.2408857125
  0
LWPOLYLINE
  5
41D
100
AcDbEntity
  8
0
100
AcDbPolyline
 62
7
  6
CONTINUOUS
 90
3
 70
0
 10
-8.9507876593
 20
22.2408857125
 10
-9.0160461983
 20
22.7392284586
 10
-9.0477049783
 20
22.9885004563
  0
LINE
  5
41E
100
AcDbEntity
  8
0
100
AcDbLine
 62
7
  6
CONTINUOUS
 10
-8.5832681878
 20
22.4509571877
 11
-8.5283149133
 21
22.0252578983
  0
LINE
  5
41F
100
AcDbEntity
  8
0
100
AcDbLine
 62
7
  6
CONTINUOUS
 10
-8.4848358962
 20
22.1066157645
 11
-8.5329275549
 21
22.4800153148
  0
LINE
  5
420
100
AcDbEntity
  8
0
100
AcDbLine
 62
7
  6
CONTINUOUS
 10
-8.6363505483
 20
22.8769534603
 11
-8.5832681878
 21
22.4509571877
  0
LINE
  5
421
100
AcDbEntity
  8
0
100
AcDbLine
 62
7
  6
CONTINUOUS
 10
-8.5329275549
 20
22.4800153148
 11
-8.5859529247
 21
22.9060412647
  0
LINE
  5
422
100
AcDbEntity
  8
0
100
AcDbLine
 62
7
  6
CONTINUOUS
 10
-8.6875618308
 20
23.3032412765
 11
-8.6363505483
 21
22.8769534603
  0
LINE
  5
423
100
AcDbEntity
  8
0
100
AcDbLine
 62
7
  6
CONTINUOUS
 10
-8.5859529247
 20
22.9060412647
 11
-8.6371058377
 21
23.3323641361
  0
LWPOLYLINE
  5
424
100
AcDbEntity
  8
0
100
AcDbPolyline
 62
7
  6
CONTINUOUS
 90
3
 70
0
 10
-8.6371058377
 20
23.3323641361
 10
-8.6863855266
 20
23.758961782
 10
-8.7103229601
 20
23.9723650296
  0
LWPOLYLINE
  5
425
100
AcDbEntity
  8
0
100
AcDbPolyline
 62
7
  6
CONTINUOUS
 90
3
 70
0
 10
-8.7608692944
 20
23.9431802096
 10
-8.7369013794
 20
23.7297988788
 10
-8.6875618308
 20
23.3032412765
  0
LWPOLYLINE
  5
426
100
AcDbEntity
  8
0
100
AcDbPolyline
 62
7
  6
CONTINUOUS
 90
10
 70
0
 10
-5.4727689292
 20
18.9162583973
 10
-5.510700098
 20
19.2835541321
 10
-5.5472152525
 20
19.6521742124
 10
-5.5823143929
 20
20.0221186382
 10
-5.6160013591
 20
20.3933967298
 10
-5.6482723112
 20
20.7659991669
 10
-5.6791157288
 20
21.1398979884
 10
-5.7085277721
 20
21.515083874
 10
-5.7365122809
 20
21.8915661441
 10
-5.7630692553
 20
22.2693447986
  0
LWPOLYLINE
  5
427
100
AcDbEntity
  8
0
100
AcDbPolyline
 62
7
  6
CONTINUOUS
 90
6
 70
0
 10
-4.221142536
 20
18.8645342434
 10
-4.2257991897
 20
18.911301958
 10
-4.2307824849
 20
18.9581950087
 10
-4.2361531442
 20
19.0052569462
 10
-4.2419581178
 20
19.0524628733
 10
-4.2482516665
 20
19.0998221877
  0
LINE
  5
428
100
AcDbEntity
  8
0
100
AcDbLine
 62
7
  6
CONTINUOUS
 10
-4.1513539651
 20
18.092693697
 11
-4.1840483154
 21
18.4401153852
  0
LINE
  5
429
100
AcDbEntity
  8
0
100
AcDbLine
 62
7
  6
CONTINUOUS
 10
-4.2125418578
 20
18.7710357156
 11
-4.221142536
 21
18.8645342434
  0
LINE
  5
42A
100
AcDbEntity
  8
0
100
AcDbLine
 62
7
  6
CONTINUOUS
 10
-4.1840483154
 20
18.4401153852
 11
-4.1925759233
 21
18.5358030657
  0
LWPOLYLINE
  5
42B
100
AcDbEntity
  8
0
100
AcDbPolyline
 62
7
  6
CONTINUOUS
 90
21
 70
0
 10
-3.7063433667
 20
18.8594165787
 10
-3.7085436991
 20
18.8843851191
 10
-3.7109971568
 20
18.9095477613
 10
-3.7136925197
 20
18.9348966192
 10
-3.716756257
 20
18.9605965743
 10
-3.72018783
 20
18.9866838259
 10
-3.723987553
 20
19.0131223045
 10
-3.7282831156
 20
19.0399685224
 10
-3.7330615218
 20
19.0672616969
 10
-3.7383355625
 20
19.0949627293
 10
-3.7442717441
 20
19.1230105795
 10
-3.7508390325
 20
19.1514071262
 10
-3.7580685211
 20
19.1801504566
 10
-3.7662202026
 20
19.2091736735
 10
-3.7752381883
 20
19.2385005389
 10
-3.7851787494
 20
19.2681070699
 10
-3.7964705823
 20
19.297854484
 10
-3.8091162922
 20
19.3279404356
 10
-3.8231141522
 20
19.3581667629
 10
-3.8388873296
 20
19.3878004004
 10
-3.8565778757
 20
19.4165964177
  0
LINE
  5
42C
100
AcDbEntity
  8
0
100
AcDbLine
 62
7
  6
CONTINUOUS
 10
-4.1925759233
 20
18.5358030657
 11
-4.2125418578
 21
18.7710357156
  0
LINE
  5
42D
100
AcDbEntity
  8
0
100
AcDbLine
 62
7
  6
CONTINUOUS
 10
-3.6912915554
 20
17.9157265529
 11
-3.6838430338
 21
17.821661722
  0
LINE
  5
42E
100
AcDbEntity
  8
0
100
AcDbLine
 62
7
  6
CONTINUOUS
 10
-3.7025084277
 20
18.8098495239
 11
-3.7063433667
 21
18.8594165787
  0
LINE
  5
42F
100
AcDbEntity
  8
0
100
AcDbLine
 62
7
  6
CONTINUOUS
 10
-3.6337512519
 20
17.8505840891
 11
-3.6552500799
 21
18.1366587622
  0
LINE
  5
430
100
AcDbEntity
  8
0
100
AcDbLine
 62
7
  6
CONTINUOUS
 10
-3.7121872629
 20
18.2040307282
 11
-3.6912915554
 21
17.9157265529
  0
LINE
  5
431
100
AcDbEntity
  8
0
100
AcDbLine
 62
7
  6
CONTINUOUS
 10
-3.7544998647
 20
18.8046033326
 11
-3.7400487957
 21
18.6035990524
  0
LINE
  5
432
100
AcDbEntity
  8
0
100
AcDbLine
 62
7
  6
CONTINUOUS
 10
-3.7400487957
 20
18.6035990524
 11
-3.7121872629
 21
18.2040307282
  0
LWPOLYLINE
  5
433
100
AcDbEntity
  8
0
100
AcDbPolyline
 62
7
  6
CONTINUOUS
 90
3
 70
0
 10
-3.6552500799
 20
18.1366587622
 10
-3.6988936281
 20
18.7601475996
 10
-3.7025084277
 20
18.8098495239
  0
LINE
  5
434
100
AcDbEntity
  8
RACCORDO
100
AcDbLine
 62
250
  6
CONTINUOUS
 10
-32.9092657182
 20
-19.2457326499
 11
-32.9195893497
 21
-19.2531666268
  0
LINE
  5
435
100
AcDbEntity
  8
RACCORDO
100
AcDbLine
 62
250
  6
CONTINUOUS
 10
-32.8823636424
 20
-19.2266239662
 11
-32.9092657182
 21
-19.2457326499
  0
LINE
  5
436
100
AcDbEntity
  8
RACCORDO
100
AcDbLine
 62
250
  6
CONTINUOUS
 10
-32.8284727233
 20
-19.188845411
 11
-32.8823636424
 21
-19.2266239662
  0
LINE
  5
437
100
AcDbEntity
  8
RACCORDO
100
AcDbLine
 62
250
  6
CONTINUOUS
 10
-32.738951243
 20
-19.1267784528
 11
-32.8284727233
 21
-19.188845411
  0
LINE
  5
438
100
AcDbEntity
  8
RACCORDO
100
AcDbLine
 62
250
  6
CONTINUOUS
 10
-32.6183696019
 20
-19.0440488134
 11
-32.738951243
 21
-19.1267784528
  0
LINE
  5
439
100
AcDbEntity
  8
RACCORDO
100
AcDbLine
 62
250
  6
CONTINUOUS
 10
-32.5525489477
 20
-18.9993258566
 11
-32.6183696019
 21
-19.0440488134
  0
LWPOLYLINE
  5
43A
100
AcDbEntity
  8
RACCORDO
100
AcDbPolyline
 62
250
  6
CONTINUOUS
 90
16
 70
0
 10
-32.4260157281
 20
-19.4463143101
 10
-32.4509357112
 20
-19.4619397995
 10
-32.4777571487
 20
-19.4754077378
 10
-32.5061828172
 20
-19.4865688212
 10
-32.5358977795
 20
-19.4952993302
 10
-32.5665726479
 20
-19.5015024192
 10
-32.5978672128
 20
-19.5051092552
 10
-32.6294345406
 20
-19.5060798651
 10
-32.6609248362
 20
-19.5044035137
 10
-32.6919890784
 20
-19.5000987853
 10
-32.7222828225
 20
-19.493213431
 10
-32.7514704732
 20
-19.4838237545
 10
-32.779228941
 20
-19.472033644
 10
-32.8052506199
 20
-19.4579735982
 10
-32.8292468635
 20
-19.4417994061
 10
-32.8509515975
 20
-19.4236902519
  0
LINE
  5
43B
100
AcDbEntity
  8
RACCORDO
100
AcDbLine
 62
7
  6
CONTINUOUS
 10
-25.3163788438
 20
-14.9141724965
 11
-25.3269832465
 21
-14.9206853326
  0
LINE
  5
43C
100
AcDbEntity
  8
RACCORDO
100
AcDbLine
 62
7
  6
CONTINUOUS
 10
-25.3269832465
 20
-14.9206853326
 11
-25.3759065699
 21
-14.9502706739
  0
LINE
  5
43D
100
AcDbEntity
  8
RACCORDO
100
AcDbLine
 62
250
  6
CONTINUOUS
 10
7.1504816097
 20
5.4035381847
 11
7.1041695865
 21
5.3758647969
  0
LWPOLYLINE
  5
43E
100
AcDbEntity
  8
RACCORDO
100
AcDbPolyline
 62
7
  6
CONTINUOUS
 90
3
 70
0
 10
-25.3759065699
 20
-14.9502706739
 10
-25.3915625294
 20
-14.9595492157
 10
-25.4211002751
 20
-14.9766929684
  0
LINE
  5
43F
100
AcDbEntity
  8
RACCORDO
100
AcDbLine
 62
7
  6
CONTINUOUS
 10
-25.4211002751
 20
-14.9766929684
 11
-25.4344167002
 21
-14.9845578593
  0
LINE
  5
440
100
AcDbEntity
  8
RACCORDO
100
AcDbLine
 62
250
  6
CONTINUOUS
 10
15.0660207147
 20
9.5119468001
 11
15.2586889562
 21
9.6250726579
  0
LINE
  5
441
100
AcDbEntity
  8
RACCORDO
100
AcDbLine
 62
250
  6
CONTINUOUS
 10
26.0078669261
 20
14.3554638987
 11
36.6105569206
 21
20.4773039199
  0
LINE
  5
442
100
AcDbEntity
  8
RACCORDO
100
AcDbLine
 62
250
  6
CONTINUOUS
 10
-33.9903005545
 20
-15.7313062267
 11
-33.8196710847
 21
-15.6361672278
  0
LWPOLYLINE
  5
443
100
AcDbEntity
  8
RACCORDO
100
AcDbPolyline
 62
250
  6
CONTINUOUS
 90
12
 70
0
 10
21.6356029149
 20
-50.7231917357
 10
21.6221645703
 20
-50.6968550199
 10
21.6109695234
 20
-50.6694808816
 10
21.6021266329
 20
-50.6413354755
 10
21.5957218894
 20
-50.6126924582
 10
21.5918175759
 20
-50.5838303232
 10
21.5904516637
 20
-50.555029699
 10
21.5916374436
 20
-50.5265706219
 10
21.5953633945
 20
-50.4987298023
 10
21.6015932968
 20
-50.4717779427
 10
21.6102665817
 20
-50.44597711
 10
21.6212989235
 20
-50.4215781716
  0
LWPOLYLINE
  5
444
100
AcDbEntity
  8
RACCORDO
100
AcDbPolyline
 62
7
  6
CONTINUOUS
 90
11
 70
0
 10
21.5525283218
 20
-50.8175685541
 10
21.5622917034
 20
-50.8404900699
 10
21.5804787641
 20
-50.8752995499
 10
21.6013768836
 20
-50.9076004826
 10
21.6247030713
 20
-50.9374800759
 10
21.650774791
 20
-50.9655152891
 10
21.6793731222
 20
-50.9915099579
 10
21.7102363327
 20
-51.0153264832
 10
21.7439482081
 20
-51.0373914721
 10
21.7804706062
 20
-51.05749764
 10
21.7953523691
 20
-51.0647165228
  0
LWPOLYLINE
  5
445
100
AcDbEntity
  8
RACCORDO
100
AcDbPolyline
 62
250
  6
CONTINUOUS
 90
3
 70
0
 10
-18.3643107162
 20
43.6122801358
 10
-18.3025995442
 20
43.435690711
 10
-18.2617233787
 20
43.2954483641
  0
LWPOLYLINE
  5
446
100
AcDbEntity
  8
RACCORDO
100
AcDbPolyline
 62
250
  6
CONTINUOUS
 90
13
 70
0
 10
10.4140652123
 20
-44.9644601732
 10
10.1120167246
 20
-44.0190949199
 10
9.8314524913
 20
-43.0843459658
 10
9.5713985341
 20
-42.1610419982
 10
9.33117581
 20
-41.2476074731
 10
9.111287341
 20
-40.345767698
 10
8.9130712165
 20
-39.4608440665
 10
8.7376882716
 20
-38.5998703483
 10
8.5832476032
 20
-37.7564339355
 10
8.4466979131
 20
-36.9155265127
 10
8.3271554217
 20
-36.0720318764
 10
8.2252513885
 20
-35.2312810811
 10
8.1402121548
 20
-34.3939323768
  0
LWPOLYLINE
  5
447
100
AcDbEntity
  8
0
100
AcDbPolyline
 62
7
  6
CONTINUOUS
 90
22
 70
0
 10
-4.2482516409
 20
19.099822184
 10
-4.2519445855
 20
19.1238144782
 10
-4.2564624071
 20
19.1478913211
 10
-4.2617699345
 20
19.1719463458
 10
-4.2678064158
 20
19.1958338594
 10
-4.2745618866
 20
19.2195001216
 10
-4.2820923689
 20
19.2429818055
 10
-4.2903829471
 20
19.2662008515
 10
-4.2994122156
 20
19.2890479497
 10
-4.3092492426
 20
19.3115075523
 10
-4.3198967871
 20
19.3335095326
 10
-4.3313336203
 20
19.354920659
 10
-4.3436023261
 20
19.3756216356
 10
-4.3567184952
 20
19.3955254489
 10
-4.3706468851
 20
19.4144987199
 10
-4.3853175632
 20
19.432386093
 10
-4.4006352037
 20
19.449128197
 10
-4.4165127288
 20
19.4647150516
 10
-4.4328472957
 20
19.4791115483
 10
-4.4495423471
 20
19.4922837422
 10
-4.4665078919
 20
19.5041978772
 10
-4.483650247
 20
19.5148198532
  0
LINE
  5
448
100
AcDbEntity
  8
DRAFT
100
AcDbLine
 62
7
  6
CONTINUOUS
 10
17.3539916694
 20
22.5190489281
 11
16.7174122109
 21
21.5911810397
  0
LINE
  5
449
100
AcDbEntity
  8
RACCORDO
100
AcDbLine
 62
250
  6
CONTINUOUS
 10
18.932576515
 20
7.7684043444
 11
19.1363203303
 21
7.8892216464
  0
LINE
  5
44A
100
AcDbEntity
  8
RACCORDO
100
AcDbLine
 62
250
  6
CONTINUOUS
 10
8.4861366178
 20
3.0425295126
 11
8.4597996575
 21
3.02784464
  0
LINE
  5
44B
100
AcDbEntity
  8
RACCORDO
100
AcDbLine
 62
250
  6
CONTINUOUS
 10
8.4118201341
 20
3.002772979
 11
8.4597996575
 21
3.02784464
  0
LINE
  5
44C
100
AcDbEntity
  8
RACCORDO
100
AcDbLine
 62
250
  6
CONTINUOUS
 10
-32.3653891635
 20
-18.9030965204
 11
-32.552548959
 21
-18.9993258603
  0
LINE
  5
44D
100
AcDbEntity
  8
RACCORDO
100
AcDbLine
 62
7
  6
CONTINUOUS
 10
-32.4814668406
 20
-19.5705328566
 11
-32.0520836601
 21
-19.3526271242
  0
LWPOLYLINE
  5
44E
100
AcDbEntity
  8
RACCORDO
100
AcDbPolyline
 62
250
  6
CONTINUOUS
 90
16
 70
0
 10
30.4545494083
 20
7.126297762
 10
30.4210976321
 20
7.1123029288
 10
30.3851294894
 20
7.1000851821
 10
30.3469333379
 20
7.0897424721
 10
30.3068153975
 20
7.0813577167
 10
30.2650972951
 20
7.0749981368
 10
30.2221134862
 20
7.0707147174
 10
30.1782085737
 20
7.0685417989
 10
30.1337345446
 20
7.0684968018
 10
30.0890479491
 20
7.0705800867
 10
30.0445070411
 20
7.0747749521
 10
30.0004689068
 20
7.0810477675
 10
29.9572866016
 20
7.0893482435
 10
29.9153063197
 20
7.099609835
 10
29.8748646184
 20
7.1117502744
 10
29.8362857205
 20
7.1256722315
  0
LWPOLYLINE
  5
44F
100
AcDbEntity
  8
RACCORDO
100
AcDbPolyline
 62
250
  6
CONTINUOUS
 90
14
 70
0
 10
-25.3519258376
 20
21.7480127421
 10
-25.3961791753
 20
21.7752737375
 10
-25.4372861503
 20
21.8041302488
 10
-25.4750746247
 20
21.8344614377
 10
-25.5093863573
 20
21.8661402906
 10
-25.5400776656
 20
21.8990341506
 10
-25.5670200281
 20
21.9330052728
 10
-25.5901006222
 20
21.9679114012
 10
-25.6092227966
 20
22.0036063644
 10
-25.624306476
 20
22.0399406878
 10
-25.6352884968
 20
22.0767622193
 10
-25.642122871
 20
22.1139167667
 10
-25.6447809795
 20
22.1512487432
 10
-25.6448190564
 20
22.1562873354
  0
LINE
  5
450
100
AcDbEntity
  8
RACCORDO
100
AcDbLine
 62
7
  6
CONTINUOUS
 10
21.5525283218
 20
-50.8175685541
 11
21.552496137
 21
-50.8174859824
  0
LWPOLYLINE
  5
451
100
AcDbEntity
  8
RACCORDO
100
AcDbPolyline
 62
7
  6
CONTINUOUS
 90
9
 70
0
 10
8.7309022052
 20
-34.5640663437
 10
8.7339278134
 20
-34.5870005289
 10
8.7384528065
 20
-34.6092775366
 10
8.7447205903
 20
-34.6322176768
 10
8.7528117826
 20
-34.655722967
 10
8.7627041867
 20
-34.6797958178
 10
8.7744911917
 20
-34.7043011041
 10
8.788333952
 20
-34.7289754855
 10
8.8043437886
 20
-34.753589008
  0
LINE
  5
452
100
AcDbEntity
  8
RACCORDO
100
AcDbLine
 62
250
  6
CONTINUOUS
 10
8.7565203087
 20
-34.210217723
 11
8.8043437932
 21
-34.7535890045
  0
LINE
  5
453
100
AcDbEntity
  8
RACCORDO
100
AcDbLine
 62
250
  6
CONTINUOUS
 10
8.7292602416
 20
-33.8647174367
 11
8.7565203087
 21
-34.210217723
  0
LINE
  5
454
100
AcDbEntity
  8
RACCORDO
100
AcDbLine
 62
250
  6
CONTINUOUS
 10
8.7041414654
 20
-33.516506273
 11
8.7292602416
 21
-33.8647174367
  0
LINE
  5
455
100
AcDbEntity
  8
RACCORDO
100
AcDbLine
 62
250
  6
CONTINUOUS
 10
8.6805709699
 20
-33.1572388024
 11
8.7041414654
 21
-33.516506273
  0
LINE
  5
456
100
AcDbEntity
  8
RACCORDO
100
AcDbLine
 62
250
  6
CONTINUOUS
 10
8.6579242619
 20
-32.7743777286
 11
8.6805709699
 21
-33.1572388024
  0
LINE
  5
457
100
AcDbEntity
  8
RACCORDO
100
AcDbLine
 62
250
  6
CONTINUOUS
 10
8.6362791172
 20
-32.363053286
 11
8.6579242619
 21
-32.7743777286
  0
LINE
  5
458
100
AcDbEntity
  8
RACCORDO
100
AcDbLine
 62
250
  6
CONTINUOUS
 10
8.6158585815
 20
-31.920106432
 11
8.6362791172
 21
-32.363053286
  0
LWPOLYLINE
  5
459
100
AcDbEntity
  8
RACCORDO
100
AcDbPolyline
 62
250
  6
CONTINUOUS
 90
16
 70
0
 10
8.1402139095
 20
-34.3939365719
 10
8.1395111524
 20
-34.3763412738
 10
8.1404810148
 20
-34.3577710849
 10
8.1431041584
 20
-34.3384557429
 10
8.1473388089
 20
-34.3186424063
 10
8.1531275369
 20
-34.2985625241
 10
8.160405909
 20
-34.2784279826
 10
8.169091084
 20
-34.2584710313
 10
8.1790751235
 20
-34.238942258
 10
8.1902377655
 20
-34.220076888
 10
8.2024445604
 20
-34.2021021524
 10
8.2155484761
 20
-34.1852345487
 10
8.2293916656
 20
-34.1696772377
 10
8.2438073896
 20
-34.1556175998
 10
8.2586220253
 20
-34.1432249787
 10
8.2736571427
 20
-34.1326486379
  0
LINE
  5
45A
100
AcDbEntity
  8
RACCORDO
100
AcDbLine
 62
250
  6
CONTINUOUS
 10
8.5968441042
 20
-31.442129159
 11
8.6158585815
 21
-31.920106432
  0
LINE
  5
45B
100
AcDbEntity
  8
RACCORDO
100
AcDbLine
 62
250
  6
CONTINUOUS
 10
8.579301382
 20
-30.9282463043
 11
8.5968441042
 21
-31.442129159
  0
LWPOLYLINE
  5
45C
100
AcDbEntity
  8
RACCORDO
100
AcDbPolyline
 62
250
  6
CONTINUOUS
 90
22
 70
0
 10
7.0580345059
 20
3.034907832
 10
7.056186949
 20
3.0921680342
 10
7.050803765
 20
3.1506377339
 10
7.041884954
 20
3.2103169312
 10
7.0293394422
 20
3.2715883753
 10
7.0132583033
 20
3.3340693169
 10
6.9939147587
 20
3.3966115083
 10
6.9712571479
 20
3.4591756709
 10
6.9453371313
 20
3.5218010833
 10
6.916582912
 20
3.5834573329
 10
6.8849446803
 20
3.6441344424
 10
6.8504722459
 20
3.703842389
 10
6.8137432401
 20
3.7615806925
 10
6.7747242591
 20
3.8173110881
 10
6.7334487069
 20
3.8710718405
 10
6.690594427
 20
3.9219772627
 10
6.6461009834
 20
3.9700027491
 10
6.6000288123
 20
4.0151729053
 10
6.5532370652
 20
4.0566758609
 10
6.5060121261
 20
4.0942409923
 10
6.4580676111
 20
4.1281389231
 10
6.4094035202
 20
4.1583696533
  0
LWPOLYLINE
  5
45D
100
AcDbEntity
  8
RACCORDO
100
AcDbPolyline
 62
250
  6
CONTINUOUS
 90
14
 70
0
 10
6.4094035202
 20
-33.2642233646
 10
6.4108840449
 20
-33.3161757424
 10
6.4153194193
 20
-33.366200894
 10
6.4226910699
 20
-33.4140893361
 10
6.4329681276
 20
-33.4596405331
 10
6.4461075566
 20
-33.502663737
 10
6.4620543348
 20
-33.5429787855
 10
6.4807416841
 20
-33.5804168572
 10
6.5020913503
 20
-33.6148211781
 10
6.5260139305
 20
-33.6460476781
 10
6.5524092474
 20
-33.6739655944
 10
6.5811667692
 20
-33.6984580193
 10
6.6121660721
 20
-33.7194223893
 10
6.6164861413
 20
-33.7219602257
  0
LINE
  5
45E
100
AcDbEntity
  8
RACCORDO
100
AcDbLine
 62
250
  6
CONTINUOUS
 10
8.5631727977
 20
-30.3797721046
 11
8.579301382
 21
-30.9282463043
  0
LWPOLYLINE
  5
45F
100
AcDbEntity
  8
RACCORDO
100
AcDbPolyline
 62
250
  6
CONTINUOUS
 90
28
 70
0
 10
8.4597996575
 20
3.02784464
 10
8.4575061466
 20
3.1201827603
 10
8.4506333742
 20
3.2148569287
 10
8.4392045953
 20
3.3115467982
 10
8.4232584811
 20
3.4099251996
 10
8.4028489879
 20
3.509659253
 10
8.3780451734
 20
3.6104114943
 10
8.3489309633
 20
3.7118410159
 10
8.3156048713
 20
3.8136046066
 10
8.2781796668
 20
3.915357917
 10
8.2367819897
 20
4.0167566371
 10
8.1915519141
 20
4.1174576748
 10
8.1426424788
 20
4.2171203024
 10
8.0902191729
 20
4.3154073005
 10
8.0344593834
 20
4.411986089
 10
7.9755517902
 20
4.5065298646
 10
7.9136957234
 20
4.5987187144
 10
7.8491004803
 20
4.6882407085
 10
7.7819846228
 20
4.7747929438
 10
7.7125752433
 20
4.858082561
 10
7.6411072063
 20
4.9378277265
 10
7.5678223457
 20
5.0137585979
 10
7.4929686385
 20
5.0856182463
 10
7.4167993625
 20
5.153163526
 10
7.339572249
 20
5.216165887
 10
7.2615486098
 20
5.2744121504
 10
7.1829924525
 20
5.3277052291
 10
7.1041695865
 20
5.3758647969
  0
LINE
  5
460
100
AcDbEntity
  8
RACCORDO
100
AcDbLine
 62
250
  6
CONTINUOUS
 10
8.5411637606
 20
-29.5037278384
 11
8.5631727977
 21
-30.3797721046
  0
LINE
  5
461
100
AcDbEntity
  8
RACCORDO
100
AcDbLine
 62
250
  6
CONTINUOUS
 10
8.515790793
 20
-28.2940394579
 11
8.5411637606
 21
-29.5037278384
  0
LINE
  5
462
100
AcDbEntity
  8
DRAFT
100
AcDbLine
 62
7
  6
CONTINUOUS
 10
8.0141506508
 20
28.2594869085
 11
8.0093760706
 21
28.5725715558
  0
LINE
  5
463
100
AcDbEntity
  8
RACCORDO
100
AcDbLine
 62
250
  6
CONTINUOUS
 10
8.4781963814
 20
-25.9771068464
 11
8.515790793
 21
-28.2940394579
  0
LINE
  5
464
100
AcDbEntity
  8
RACCORDO
100
AcDbLine
 62
250
  6
CONTINUOUS
 10
8.4599678922
 20
-24.6339852028
 11
8.4781963814
 21
-25.9771068464
  0
LWPOLYLINE
  5
465
100
AcDbEntity
  8
RACCORDO
100
AcDbPolyline
 62
250
  6
CONTINUOUS
 90
9
 70
0
 10
7.0142257177
 20
5.558684957
 10
7.0144333069
 20
5.5414240958
 10
7.0162178217
 20
5.5252250252
 10
7.0195590223
 20
5.5102714365
 10
7.0244190159
 20
5.4967328974
 10
7.0307426875
 20
5.4847629272
 10
7.0384583258
 20
5.4744972571
 10
7.0474784344
 20
5.4660522932
 10
7.0556145636
 20
5.4606447278
  0
LINE
  5
466
100
AcDbEntity
  8
RACCORDO
100
AcDbLine
 62
250
  6
CONTINUOUS
 10
8.4477437043
 20
-23.6567252547
 11
8.4599678922
 21
-24.6339852028
  0
LINE
  5
467
100
AcDbEntity
  8
RACCORDO
100
AcDbLine
 62
250
  6
CONTINUOUS
 10
8.4013071926
 20
-19.0232817596
 11
8.4477437043
 21
-23.6567252547
  0
LINE
  5
468
100
AcDbEntity
  8
RACCORDO
100
AcDbLine
 62
250
  6
CONTINUOUS
 10
8.3820980498
 20
-15.562332466
 11
8.4013071926
 21
-19.0232817596
  0
LWPOLYLINE
  5
469
100
AcDbEntity
  8
RACCORDO
100
AcDbPolyline
 62
250
  6
CONTINUOUS
 90
10
 70
0
 10
5.9659445172
 20
-33.3463456452
 10
5.9693840093
 20
-34.4892344047
 10
5.9792746146
 20
-35.7899035721
 10
5.9951321018
 20
-37.0870672428
 10
6.0169190072
 20
-38.3807710062
 10
6.0446753659
 20
-39.6708933324
 10
6.0785137369
 20
-40.9571485689
 10
6.1184668304
 20
-42.2394195988
 10
6.1644924832
 20
-43.5177548453
 10
6.2165861792
 20
-44.7921198582
  0
LWPOLYLINE
  5
46A
100
AcDbEntity
  8
RACCORDO
100
AcDbPolyline
 62
7
  6
CONTINUOUS
 90
16
 70
0
 10
8.3143824494
 20
-13.5041146276
 10
8.3178026088
 20
-15.0604290485
 10
8.3238644394
 20
-16.6545459528
 10
8.3329280905
 20
-18.2200629367
 10
8.3448657972
 20
-19.7570165271
 10
8.3591042639
 20
-21.2657297108
 10
8.3751483985
 20
-22.746487597
 10
8.3928229363
 20
-24.1994157254
 10
8.4120694252
 20
-25.6245320278
 10
8.4331127238
 20
-27.0216962092
 10
8.4574165586
 20
-28.3899883252
 10
8.4866164452
 20
-29.7284819473
 10
8.523271888
 20
-31.0359877031
 10
8.5749162271
 20
-32.3080544346
 10
8.6483215598
 20
-33.5397708815
 10
8.7309086403
 20
-34.5640647182
  0
LINE
  5
46B
100
AcDbEntity
  8
RACCORDO
100
AcDbLine
 62
250
  6
CONTINUOUS
 10
8.3773134214
 20
-13.5878877324
 11
8.3820980498
 21
-15.562332466
  0
LINE
  5
46C
100
AcDbEntity
  8
RACCORDO
100
AcDbLine
 62
250
  6
CONTINUOUS
 10
7.0580345059
 20
-32.8897843469
 11
7.0580345059
 21
3.034907832
  0
LINE
  5
46D
100
AcDbEntity
  8
RACCORDO
100
AcDbLine
 62
250
  6
CONTINUOUS
 10
8.4597996575
 20
-32.8968475389
 11
8.4597996575
 21
-28.4992271988
  0
LINE
  5
46E
100
AcDbEntity
  8
RACCORDO
100
AcDbLine
 62
250
  6
CONTINUOUS
 10
8.4597996575
 20
1.6433822002
 11
8.4597996575
 21
3.02784464
  0
LINE
  5
46F
100
AcDbEntity
  8
RACCORDO
100
AcDbLine
 62
250
  6
CONTINUOUS
 10
8.3921025056
 20
-9.4645274139
 11
8.3773134439
 21
-13.5878877328
  0
LINE
  5
470
100
AcDbEntity
  8
RACCORDO
100
AcDbLine
 62
250
  6
CONTINUOUS
 10
8.4291009848
 20
-5.1010613127
 11
8.3921025056
 21
-9.4645274139
  0
LINE
  5
471
100
AcDbEntity
  8
RACCORDO
100
AcDbLine
 62
250
  6
CONTINUOUS
 10
8.4885799952
 20
-0.3609927634
 11
8.4291009848
 21
-5.1010613127
  0
LINE
  5
472
100
AcDbEntity
  8
RACCORDO
100
AcDbLine
 62
250
  6
CONTINUOUS
 10
8.5222461447
 20
1.6195770559
 11
8.4885799952
 21
-0.3609927634
  0
LWPOLYLINE
  5
473
100
AcDbEntity
  8
RACCORDO
100
AcDbPolyline
 62
7
  6
CONTINUOUS
 90
10
 70
0
 10
8.4869195623
 20
2.9318348164
 10
8.4542080317
 20
1.3777269544
 10
8.4261755983
 20
-0.2965342297
 10
8.4017895509
 20
-2.0256590414
 10
8.379528342
 20
-3.8105877647
 10
8.3594966128
 20
-5.6512739876
 10
8.3420784338
 20
-7.5475090823
 10
8.3283073865
 20
-9.4987128927
 10
8.3191814255
 20
-11.5042733261
 10
8.3143818499
 20
-13.5039071876
  0
LINE
  5
474
100
AcDbEntity
  8
RACCORDO
100
AcDbLine
 62
250
  6
CONTINUOUS
 10
8.548792548
 20
2.848137248
 11
8.5222461447
 21
1.6195770559
  0
LWPOLYLINE
  5
475
100
AcDbEntity
  8
RACCORDO
100
AcDbPolyline
 62
250
  6
CONTINUOUS
 90
25
 70
0
 10
6.4094035202
 20
4.1583696533
 10
6.4108840449
 20
4.212031704
 10
6.4153194193
 20
4.2671787147
 10
6.4226910699
 20
4.3235797541
 10
6.4329681276
 20
4.3809986398
 10
6.4461075566
 20
4.4391949269
 10
6.4620543348
 20
4.4979249152
 10
6.4807416841
 20
4.5569426695
 10
6.5020913503
 20
4.6160010498
 10
6.5260139305
 20
4.6748527456
 10
6.5524092474
 20
4.7332513123
 10
6.5811667692
 20
4.7909522025
 10
6.6121660721
 20
4.8477137906
 10
6.6452773449
 20
4.9032983841
 10
6.6803619322
 20
4.9574732195
 10
6.7172729154
 20
5.0100114366
 10
6.7558557275
 20
5.0606930286
 10
6.795948801
 20
5.1093057635
 10
6.8373842437
 20
5.1556460729
 10
6.8799885426
 20
5.1995199039
 10
6.9235832896
 20
5.2407435325
 10
6.9679859293
 20
5.2791443325
 10
7.0130105232
 20
5.3145614982
 10
7.0584685283
 20
5.3468467184
 10
7.1041695865
 20
5.3758647969
  0
LWPOLYLINE
  5
476
100
AcDbEntity
  8
RACCORDO
100
AcDbPolyline
 62
7
  6
CONTINUOUS
 90
3
 70
0
 10
11.93295129
 20
12.0586763853
 10
12.0072679536
 20
12.530794814
 10
12.045777799
 20
12.769684941
  0
LWPOLYLINE
  5
477
100
AcDbEntity
  8
RACCORDO
100
AcDbPolyline
 62
7
  6
CONTINUOUS
 90
7
 70
0
 10
12.045777799
 20
12.769684941
 10
12.0498168033
 20
12.7936369087
 10
12.0541262593
 20
12.8174567201
 10
12.058706318
 20
12.8411404151
 10
12.0635570848
 20
12.8646840539
 10
12.0686786194
 20
12.8880837172
 10
12.0740709354
 20
12.9113355073
  0
LWPOLYLINE
  5
478
100
AcDbEntity
  8
DRAFT
100
AcDbPolyline
 62
7
  6
CONTINUOUS
 90
10
 70
0
 10
12.075926662
 20
13.3626195882
 10
12.16892314
 20
13.8957163838
 10
12.2664690158
 20
14.4381792973
 10
12.3685642896
 20
14.9900083287
 10
12.4752085814
 20
15.5513819683
 10
12.5864022711
 20
16.1221217258
 10
12.7021464984
 20
16.7016921302
 10
12.8224416432
 20
17.2899146913
 10
12.9472873256
 20
17.8869678994
 10
13.0766835455
 20
18.4928517544
  0
LINE
  5
479
100
AcDbEntity
  8
RACCORDO
100
AcDbLine
 62
7
  6
CONTINUOUS
 10
13.0766835455
 20
18.4928517544
 11
13.1715568836
 21
18.971530961
  0
LINE
  5
47A
100
AcDbEntity
  8
RACCORDO
100
AcDbLine
 62
7
  6
CONTINUOUS
 10
13.1715568836
 20
18.971530961
 11
13.2677577111
 21
19.4478042754
  0
LINE
  5
47B
100
AcDbEntity
  8
RACCORDO
100
AcDbLine
 62
7
  6
CONTINUOUS
 10
13.2677577111
 20
19.4478042754
 11
13.3653009945
 21
19.9217897823
  0
LWPOLYLINE
  5
47C
100
AcDbEntity
  8
RACCORDO
100
AcDbPolyline
 62
7
  6
CONTINUOUS
 90
10
 70
0
 10
14.0367036999
 20
19.5995067071
 10
13.8273782056
 20
18.6118053419
 10
13.6162569882
 20
17.5816551286
 10
13.4171926642
 20
16.5753214238
 10
13.2300545112
 20
15.592847105
 10
13.0547900082
 20
14.6343039033
 10
12.8913854508
 20
13.6997887337
 10
12.7398282266
 20
12.7894092135
 10
12.6000732752
 20
11.9032642855
 10
12.4847722922
 20
11.1297781858
  0
LWPOLYLINE
  5
47D
100
AcDbEntity
  8
RACCORDO
100
AcDbPolyline
 62
250
  6
CONTINUOUS
 90
16
 70
0
 10
14.127670653
 20
19.4843830949
 10
14.1370584925
 20
19.5229867403
 10
14.1487165446
 20
19.5617419348
 10
14.1625205902
 20
19.6003660726
 10
14.178284609
 20
19.6384776942
 10
14.1958982416
 20
19.675925575
 10
14.2153837229
 20
19.7127731626
 10
14.2366501597
 20
19.7488085595
 10
14.259534119
 20
19.7837173499
 10
14.283996716
 20
19.8173802071
 10
14.3099401273
 20
19.849584284
 10
14.3371520712
 20
19.8799895372
 10
14.3654116289
 20
19.9082825597
 10
14.3945047442
 20
19.9342022764
 10
14.4242308151
 20
19.9575309924
 10
14.4543660483
 20
19.9780490559
  0
LWPOLYLINE
  5
47E
100
AcDbEntity
  8
RACCORDO
100
AcDbPolyline
 62
250
  6
CONTINUOUS
 90
16
 70
0
 10
26.0078669261
 20
14.3554638987
 10
25.9797859438
 20
14.3317963417
 10
25.9519998738
 20
14.3048488344
 10
25.9247479566
 20
14.2748533991
 10
25.8982648327
 20
14.2420682999
 10
25.8727785246
 20
14.2067758217
 10
25.8485084732
 20
14.1692798404
 10
25.8256636448
 20
14.1299032015
 10
25.8044407339
 20
14.0889849421
 10
25.7850224712
 20
14.0468773754
 10
25.7675760476
 20
14.0039430519
 10
25.7522516758
 20
13.960551639
 10
25.739181298
 20
13.9170767416
 10
25.7284774483
 20
13.8738926812
 10
25.7202322845
 20
13.8313712735
 10
25.7145167951
 20
13.7898786286
  0
LINE
  5
47F
100
AcDbEntity
  8
RACCORDO
100
AcDbLine
 62
250
  6
CONTINUOUS
 10
30.4545494083
 20
7.126297762
 11
40.852551433
 21
13.1299539066
  0
LINE
  5
480
100
AcDbEntity
  8
RACCORDO
100
AcDbLine
 62
7
  6
CONTINUOUS
 10
21.3865382704
 20
6.4698962518
 11
21.7801303443
 21
6.4817290775
  0
LWPOLYLINE
  5
481
100
AcDbEntity
  8
RACCORDO
100
AcDbPolyline
 62
7
  6
CONTINUOUS
 90
20
 70
0
 10
21.404292931
 20
6.9449051816
 10
21.3667368936
 20
6.9490584166
 10
21.2982541036
 20
6.9578441025
 10
21.2271342559
 20
6.9681807499
 10
21.1536156761
 20
6.9800795143
 10
21.078302025
 20
6.9934795746
 10
21.0015104768
 20
7.0083551034
 10
20.9235454797
 20
7.0246705065
 10
20.8450234137
 20
7.0423120875
 10
20.7662931084
 20
7.0612136278
 10
20.6877066836
 20
7.0812926497
 10
20.6099006339
 20
7.1023799372
 10
20.5332396928
 20
7.1243678591
 10
20.4580518659
 20
7.1471404847
 10
20.3849026225
 20
7.1704957151
 10
20.3140775921
 20
7.1943095398
 10
20.2458476339
 20
7.2184450612
 10
20.1807171233
 20
7.2426689099
 10
20.1189935414
 20
7.2668045132
 10
20.073990545
 20
7.2851961779
  0
LWPOLYLINE
  5
482
100
AcDbEntity
  8
RACCORDO
100
AcDbPolyline
 62
250
  6
CONTINUOUS
 90
22
 70
0
 10
-24.703294852
 20
22.1224517597
 10
-24.7519613716
 20
22.148417892
 10
-24.7999073961
 20
22.1698855605
 10
-24.8471329257
 20
22.1868547653
 10
-24.8939239001
 20
22.1993854449
 10
-24.9399943795
 20
22.2074176608
 10
-24.984486544
 20
22.2107715972
 10
-25.0273405435
 20
22.2093530468
 10
-25.068616228
 20
22.2032562169
 10
-25.1076353275
 20
22.192583913
 10
-25.1443642939
 20
22.1772592517
 10
-25.1788366754
 20
22.1573591165
 10
-25.2104748461
 20
22.1332169634
 10
-25.2392289634
 20
22.1047654434
 10
-25.2651488699
 20
22.0720719056
 10
-25.2878064682
 20
22.035671853
 10
-25.3071502275
 20
21.9954657491
 10
-25.3232316786
 20
21.9515531304
 10
-25.3357773157
 20
21.9047681091
 10
-25.3446959703
 20
21.8553887227
 10
-25.3500788109
 20
21.8031369337
 10
-25.3519258376
 20
21.7480127421
  0
LWPOLYLINE
  5
483
100
AcDbEntity
  8
RACCORDO
100
AcDbPolyline
 62
250
  6
CONTINUOUS
 90
24
 70
0
 10
7.0580345059
 20
3.034907832
 10
7.105248893
 20
3.0093565094
 10
7.1552266167
 20
2.9856218572
 10
7.2077583924
 20
2.9638032657
 10
7.2626242402
 20
2.9439921014
 10
7.3195944065
 20
2.9262713246
 10
7.3784303254
 20
2.9107151421
 10
7.4388856182
 20
2.8973886964
 10
7.500707125
 20
2.8863477926
 10
7.5636359647
 20
2.8776386651
 10
7.6274086193
 20
2.8712977839
 10
7.6917580372
 20
2.8673517019
 10
7.7564147516
 20
2.8658169434
 10
7.8211080088
 20
2.8666999353
 10
7.8855669022
 20
2.8699969801
 10
7.9495215066
 20
2.8756942712
 10
8.0127040085
 20
2.8837679508
 10
8.0748498275
 20
2.89418421
 10
8.1356987246
 20
2.9068994302
 10
8.1949958916
 20
2.9218603655
 10
8.2524930182
 20
2.9390043663
 10
8.307949332
 20
2.9582596411
 10
8.3611326067
 20
2.9795455573
 10
8.4118201341
 20
3.002772979
  0
LINE
  5
484
100
AcDbEntity
  8
RACCORDO
100
AcDbLine
 62
250
  6
CONTINUOUS
 10
-24.0085287857
 20
23.3399469033
 11
-24.0878091614
 21
23.3830279483
  0
LWPOLYLINE
  5
485
100
AcDbEntity
  8
RACCORDO
100
AcDbPolyline
 62
250
  6
CONTINUOUS
 90
7
 70
0
 10
-25.6865643537
 20
22.6152032535
 10
-25.6712772882
 20
22.6068684182
 10
-25.6545634929
 20
22.5994552812
 10
-25.636607396
 20
22.5930456385
 10
-25.6176071331
 20
22.5877102128
 10
-25.5977723591
 20
22.5835078732
 10
-25.5917625675
 20
22.5826195336
  0
LINE
  5
486
100
AcDbEntity
  8
RACCORDO
100
AcDbLine
 62
250
  6
CONTINUOUS
 10
5.8939546779
 20
6.189926277
 11
7.0142257177
 21
5.558684957
  0
LINE
  5
487
100
AcDbEntity
  8
RACCORDO
100
AcDbLine
 62
250
  6
CONTINUOUS
 10
3.6174929121
 20
7.4830299566
 11
5.8939546779
 21
6.189926277
  0
LWPOLYLINE
  5
488
100
AcDbEntity
  8
RACCORDO
100
AcDbPolyline
 62
7
  6
CONTINUOUS
 90
31
 70
0
 10
7.0556397311
 20
5.460630613
 10
7.0774801841
 20
5.4481749718
 10
7.1553348515
 20
5.4005706657
 10
7.2334327319
 20
5.3477701662
 10
7.3114777583
 20
5.2898740038
 10
7.3891492284
 20
5.2270380189
 10
7.4660997231
 20
5.1594728294
 10
7.5420518089
 20
5.0873606429
 10
7.6167243938
 20
5.0109200421
 10
7.6897857187
 20
4.9304419121
 10
7.7609651644
 20
4.8461901198
 10
7.8300185554
 20
4.758431639
 10
7.8966758841
 20
4.6674807265
 10
7.9607011431
 20
4.5736415293
 10
8.0218785019
 20
4.4772265085
 10
8.0799856325
 20
4.3785731666
 10
8.1348238952
 20
4.2780128345
 10
8.1862136675
 20
4.1758888135
 10
8.2339752569
 20
4.0725641583
 10
8.2779553982
 20
3.9683813754
 10
8.3180158069
 20
3.8637045838
 10
8.3540157657
 20
3.758937675
 10
8.3858572285
 20
3.6544215808
 10
8.4134540605
 20
3.5505309249
 10
8.4367143425
 20
3.4477272307
 10
8.4556018548
 20
3.3463603941
 10
8.4701033265
 20
3.246749479
 10
8.4802071401
 20
3.1493091824
 10
8.4859499941
 20
3.0544161225
 10
8.4873948666
 20
2.9623879696
 10
8.4869202759
 20
2.9318645632
  0
LWPOLYLINE
  5
489
100
AcDbEntity
  8
RACCORDO
100
AcDbPolyline
 62
7
  6
CONTINUOUS
 90
5
 70
0
 10
0.6360679118
 20
9.1101824813
 10
2.3317242765
 20
8.1411850215
 10
3.975017799
 20
7.2046120144
 10
5.5665240991
 20
6.3007446605
 10
7.0556145636
 20
5.4606447278
  0
LWPOLYLINE
  5
48A
100
AcDbEntity
  8
RACCORDO
100
AcDbPolyline
 62
7
  6
CONTINUOUS
 90
5
 70
0
 10
-8.5815928148
 20
14.4017943429
 10
-6.6778575182
 20
13.3056276435
 10
-4.7699207098
 20
12.2087165164
 10
-2.9147630459
 20
11.1439373128
 10
0.6360679118
 20
9.1101824813
  0
LINE
  5
48B
100
AcDbEntity
  8
RACCORDO
100
AcDbLine
 62
250
  6
CONTINUOUS
 10
-8.6229089695
 20
14.5027491287
 11
3.6174929121
 21
7.4830299566
  0
LINE
  5
48C
100
AcDbEntity
  8
RACCORDO
100
AcDbLine
 62
250
  6
CONTINUOUS
 10
6.4094035202
 20
4.1583696533
 11
-24.703294852
 21
22.1224517597
  0
LINE
  5
48D
100
AcDbEntity
  8
RACCORDO
100
AcDbLine
 62
250
  6
CONTINUOUS
 10
7.1041695865
 20
5.3758647969
 11
0.6838273893
 21
9.0828899158
  0
LINE
  5
48E
100
AcDbEntity
  8
RACCORDO
100
AcDbLine
 62
250
  6
CONTINUOUS
 10
-17.7931261472
 20
19.7512513171
 11
-24.0085287857
 21
23.3399469033
  0
LINE
  5
48F
100
AcDbEntity
  8
RACCORDO
100
AcDbLine
 62
250
  6
CONTINUOUS
 10
-13.1851795285
 20
17.1467779024
 11
-8.6229089707
 21
14.5027491305
  0
LWPOLYLINE
  5
490
100
AcDbEntity
  8
RACCORDO
100
AcDbPolyline
 62
7
  6
CONTINUOUS
 90
4
 70
0
 10
-14.2285513789
 20
17.6763934664
 10
-12.3845300433
 20
16.6053101068
 10
-10.4848206733
 20
15.5037273767
 10
-8.5816834086
 20
14.4018465246
  0
LWPOLYLINE
  5
491
100
AcDbEntity
  8
RACCORDO
100
AcDbPolyline
 62
250
  6
CONTINUOUS
 90
3
 70
0
 10
7.0142257177
 20
5.558684957
 10
7.0831968437
 20
5.5185907316
 10
7.1530520203
 20
5.4739068819
  0
LINE
  5
492
100
AcDbEntity
  8
RACCORDO
100
AcDbLine
 62
250
  6
CONTINUOUS
 10
-15.4639830087
 20
18.4712077617
 11
-13.1851795285
 21
17.1467779024
  0
LINE
  5
493
100
AcDbEntity
  8
RACCORDO
100
AcDbLine
 62
250
  6
CONTINUOUS
 10
-19.8691280518
 20
21.0373853722
 11
-15.4639830087
 21
18.4712077617
  0
LINE
  5
494
100
AcDbEntity
  8
RACCORDO
100
AcDbLine
 62
250
  6
CONTINUOUS
 10
-22.0218021685
 20
22.2974856737
 11
-19.8691280518
 21
21.0373853722
  0
LINE
  5
495
100
AcDbEntity
  8
RACCORDO
100
AcDbLine
 62
250
  6
CONTINUOUS
 10
-23.0670947792
 20
22.9123623676
 11
-22.0218021685
 21
22.2974856737
  0
LWPOLYLINE
  5
496
100
AcDbEntity
  8
RACCORDO
100
AcDbPolyline
 62
7
  6
CONTINUOUS
 90
6
 70
0
 10
-24.0656020018
 20
23.4296456507
 10
-22.6156392857
 20
22.5728265126
 10
-21.0504924012
 20
21.6540663837
 10
-19.4286427499
 20
20.7053760972
 10
-17.7505831877
 20
19.7264326807
 10
-14.2285513789
 20
17.6763934664
  0
LINE
  5
497
100
AcDbEntity
  8
RACCORDO
100
AcDbLine
 62
250
  6
CONTINUOUS
 10
-24.1067843851
 20
23.5275661525
 11
-23.0670947792
 21
22.9123623676
  0
LWPOLYLINE
  5
498
100
AcDbEntity
  8
RACCORDO
100
AcDbPolyline
 62
250
  6
CONTINUOUS
 90
9
 70
0
 10
8.5487925479
 20
2.8481372479
 10
8.5343816239
 20
2.8569496709
 10
8.5216532103
 20
2.8665360904
 10
8.5107477545
 20
2.8767907281
 10
8.5017855893
 20
2.8876004325
 10
8.4948656048
 20
2.8988459275
 10
8.4900641572
 20
2.9104031284
 10
8.4874342266
 20
2.9221445111
 10
8.4869195623
 20
2.9318348164
  0
LWPOLYLINE
  5
499
100
AcDbEntity
  8
RACCORDO
100
AcDbPolyline
 62
250
  6
CONTINUOUS
 90
29
 70
0
 10
7.1530520203
 20
5.4739068819
 10
7.2237922544
 20
5.4246339896
 10
7.2953072871
 20
5.3712101326
 10
7.3677102404
 20
5.3131988869
 10
7.4413384119
 20
5.2492897852
 10
7.5168971655
 20
5.1788725501
 10
7.5936913834
 20
5.102563378
 10
7.6699581136
 20
5.0208917857
 10
7.7456884976
 20
4.9336041368
 10
7.8209011276
 20
4.8409596909
 10
7.8938706748
 20
4.7442552562
 10
7.9645597592
 20
4.6431536105
 10
8.033012865
 20
4.5379960801
 10
8.0976217918
 20
4.4310940223
 10
8.1581446916
 20
4.3223415887
 10
8.2148240658
 20
4.211845005
 10
8.2667710131
 20
4.1022295659
 10
8.3135850427
 20
3.9940453555
 10
8.3556605956
 20
3.8867387948
 10
8.3932965008
 20
3.7812769878
 10
8.4263234035
 20
3.6787756841
 10
8.4549033072
 20
3.5781148874
 10
8.4798339609
 20
3.4769091691
 10
8.5015908287
 20
3.3745620734
 10
8.519699022
 20
3.2716703886
 10
8.5335345352
 20
3.1676407339
 10
8.5428905265
 20
3.062275986
 10
8.547976105
 20
2.9557745781
 10
8.548792548
 20
2.848137248
  0
LWPOLYLINE
  5
49A
100
AcDbEntity
  8
RACCORDO
100
AcDbPolyline
 62
250
  6
CONTINUOUS
 90
16
 70
0
 10
-31.3543604276
 20
36.7449293981
 10
-31.1206332886
 20
36.5643346891
 10
-30.8863198226
 20
36.3847576821
 10
-30.6508308971
 20
36.2057281385
 10
-30.4147621495
 20
36.0277238869
 10
-30.1770102632
 20
35.8499310672
 10
-29.9370375414
 20
35.6719592591
 10
-29.6953793981
 20
35.4942200297
 10
-29.4525398061
 20
35.3171061097
 10
-29.2084680647
 20
35.1405939826
 10
-28.9632210437
 20
34.9647156142
 10
-28.7174703907
 20
34.789936854
 10
-28.4719581161
 20
34.6167653013
 10
-28.2259635545
 20
34.4446776767
 10
-27.9779614173
 20
34.2725988137
 10
-27.7293143531
 20
34.1014345695
  0
LINE
  5
49B
100
AcDbEntity
  8
RACCORDO
100
AcDbLine
 62
250
  6
CONTINUOUS
 10
-31.6115903733
 20
36.9454771147
 11
-31.3543604276
 21
36.7449293981
  0
LWPOLYLINE
  5
49C
100
AcDbEntity
  8
RACCORDO
100
AcDbPolyline
 62
7
  6
CONTINUOUS
 90
4
 70
0
 10
-34.6713530142
 20
39.357107975
 10
-33.950269809
 20
38.7677392244
 10
-33.1805874311
 20
38.1528510989
 10
-32.4041768848
 20
37.5476457375
  0
LINE
  5
49D
100
AcDbEntity
  8
RACCORDO
100
AcDbLine
 62
250
  6
CONTINUOUS
 10
-34.2704577659
 20
39.1506413732
 11
-34.7246067833
 21
39.5221085963
  0
LWPOLYLINE
  5
49E
100
AcDbEntity
  8
RACCORDO
100
AcDbPolyline
 62
250
  6
CONTINUOUS
 90
10
 70
0
 10
-34.6713700895
 20
39.3571220833
 10
-34.6806859659
 20
39.3655769695
 10
-34.6931862134
 20
39.3798692345
 10
-34.7038256838
 20
39.3959840092
 10
-34.7125113861
 20
39.413780451
 10
-34.719167405
 20
39.4331030191
 10
-34.7237355648
 20
39.4537828343
 10
-34.7261759378
 20
39.4756391546
 10
-34.7264671931
 20
39.4984809548
 10
-34.7246067833
 20
39.5221085963
  0
LINE
  5
49F
100
AcDbEntity
  8
0
100
AcDbLine
 62
7
  6
CONTINUOUS
 10
-3.9475838446
 20
19.4433684119
 11
-3.9264240699
 21
19.4165911201
  0
LINE
  5
4A0
100
AcDbEntity
  8
0
100
AcDbLine
 62
7
  6
CONTINUOUS
 10
-3.8760459589
 20
19.4447984629
 11
-3.8884998127
 21
19.4609808818
  0
LINE
  5
4A1
100
AcDbEntity
  8
0
100
AcDbLine
 62
7
  6
CONTINUOUS
 10
-3.8565778757
 20
19.4165964177
 11
-3.8760459589
 21
19.4447984629
  0
LWPOLYLINE
  5
4A2
100
AcDbEntity
  8
0
100
AcDbPolyline
 62
7
  6
CONTINUOUS
 90
23
 70
0
 10
-3.9264240699
 20
19.4165911201
 10
-3.907126339
 20
19.3885562442
 10
-3.8895895614
 20
19.3595107488
 10
-3.8737107099
 20
19.3295620545
 10
-3.8594117944
 20
19.2990311195
 10
-3.8466096658
 20
19.2684845908
 10
-3.8352611609
 20
19.2383256598
 10
-3.8251939547
 20
19.2085206528
 10
-3.8161359453
 20
19.1789580867
 10
-3.8080068722
 20
19.1497548182
 10
-3.8007578793
 20
19.1210115368
 10
-3.7942081455
 20
19.0925511516
 10
-3.788301588
 20
19.0644048383
 10
-3.7830174899
 20
19.0366871644
 10
-3.7782557009
 20
19.0093299285
 10
-3.7739873951
 20
18.9824073089
 10
-3.7701862658
 20
18.9559588102
 10
-3.7667738581
 20
18.9298624263
 10
-3.7637260811
 20
18.9041745188
 10
-3.7610335391
 20
18.8789433034
 10
-3.7586399822
 20
18.854000864
 10
-3.7564771115
 20
18.8292240558
 10
-3.7544998647
 20
18.8046033326
  0
LWPOLYLINE
  5
4A3
100
AcDbEntity
  8
RACCORDO
100
AcDbPolyline
 62
250
  6
CONTINUOUS
 90
11
 70
0
 10
21.6474518397
 20
-50.8903853242
 10
21.6544245863
 20
-50.9125245586
 10
21.6631343681
 20
-50.9338392351
 10
21.6735779289
 20
-50.9542353343
 10
21.6857467028
 20
-50.9736197058
 10
21.6996277641
 20
-50.9919056415
 10
21.7152048722
 20
-51.0090117713
 10
21.7324730393
 20
-51.0248622843
 10
21.7513865833
 20
-51.0393725434
 10
21.771863853
 20
-51.052448569
 10
21.7953750144
 20
-51.0647272034
  0
LWPOLYLINE
  5
4A4
100
AcDbEntity
  8
RACCORDO
100
AcDbPolyline
 62
7
  6
CONTINUOUS
 90
3
 70
0
 10
12.075926662
 20
13.3626195882
 10
12.0756060822
 20
13.3122954988
 10
12.0740709354
 20
12.9113355073
  0
LWPOLYLINE
  5
4A5
100
AcDbEntity
  8
RACCORDO
100
AcDbPolyline
 62
250
  6
CONTINUOUS
 90
10
 70
0
 10
14.036679363
 20
19.5993930433
 10
14.0356286373
 20
19.5893258044
 10
14.0371443413
 20
19.5767088949
 10
14.0416826553
 20
19.5636753399
 10
14.0491967446
 20
19.550359669
 10
14.059609058
 20
19.5368993246
 10
14.0728121233
 20
19.5234332487
 10
14.0886696619
 20
19.5101004394
 10
14.1070179993
 20
19.4970385157
 10
14.1276677489
 20
19.484382303
  0
LWPOLYLINE
  5
4A6
100
AcDbEntity
  8
RACCORDO
100
AcDbPolyline
 62
7
  6
CONTINUOUS
 90
13
 70
0
 10
12.4847815895
 20
11.1297960933
 10
12.4835204868
 20
11.1190718905
 10
12.4827427446
 20
11.097234992
 10
12.484345523
 20
11.0754538976
 10
12.4883073975
 20
11.0539850535
 10
12.4945774869
 20
11.0330870631
 10
12.5030877145
 20
11.0129860861
 10
12.5137452135
 20
10.9939141666
 10
12.5264223786
 20
10.9761093484
 10
12.5409670603
 20
10.959788972
 10
12.5572048413
 20
10.945149852
 10
12.5749451256
 20
10.9323647063
 10
12.5929379834
 20
10.922106027
  0
LINE
  5
4A7
100
AcDbEntity
  8
RACCORDO
100
AcDbLine
 62
7
  6
CONTINUOUS
 10
11.7311894899
 20
10.6864227306
 11
11.7949892168
 21
11.1367963292
  0
LWPOLYLINE
  5
4A8
100
AcDbEntity
  8
RACCORDO
100
AcDbPolyline
 62
250
  6
CONTINUOUS
 90
19
 70
0
 10
12.5985578959
 20
11.0732435225
 10
12.6504425116
 20
11.4272808308
 10
12.7051390444
 20
11.7910338661
 10
12.7627179538
 20
12.1645433321
 10
12.822991274
 20
12.5463089389
 10
12.8862704653
 20
12.9379023174
 10
12.9534228469
 20
13.3439996192
 10
13.0247611674
 20
13.7658525514
 10
13.1002048243
 20
14.2023435145
 10
13.18008987
 20
14.6546286449
 10
13.2645458188
 20
15.1228566545
 10
13.353669374
 20
15.6070095142
 10
13.447775808
 20
16.1080096763
 10
13.5469785452
 20
16.6258375758
 10
13.6514262131
 20
17.1606641616
 10
13.7615089347
 20
17.7137103922
 10
13.8774739951
 20
18.2854509841
 10
13.9994507011
 20
18.8756287728
 10
14.1276712939
 20
19.4843779209
  0
LINE
  5
4A9
100
AcDbEntity
  8
RACCORDO
100
AcDbLine
 62
7
  6
CONTINUOUS
 10
11.7949892168
 20
11.1367963292
 11
11.8622271591
 21
11.5941701214
  0
LINE
  5
4AA
100
AcDbEntity
  8
RACCORDO
100
AcDbLine
 62
7
  6
CONTINUOUS
 10
11.8622271591
 20
11.5941701214
 11
11.93295129
 21
12.0586763853
  0
LINE
  5
4AB
100
AcDbEntity
  8
RACCORDO
100
AcDbLine
 62
7
  6
CONTINUOUS
 10
12.5366586716
 20
10.7268050888
 11
11.7311894899
 21
10.6864227306
  0
LWPOLYLINE
  5
4AC
100
AcDbEntity
  8
RACCORDO
100
AcDbPolyline
 62
7
  6
CONTINUOUS
 90
6
 70
0
 10
12.5366592221
 20
10.7268069351
 10
12.5589325183
 20
10.7267483757
 10
12.580371214
 20
10.7243118954
 10
12.6008612783
 20
10.7194857572
 10
12.6203364689
 20
10.7122508529
 10
12.6275375274
 20
10.7088235358
  0
LWPOLYLINE
  5
4AD
100
AcDbEntity
  8
RACCORDO
100
AcDbPolyline
 62
250
  6
CONTINUOUS
 90
12
 70
0
 10
12.598845346
 20
11.0734135563
 10
12.5761847656
 20
11.0764680769
 10
12.556094039
 20
11.0802537448
 10
12.5385492198
 20
11.0846909225
 10
12.5235306833
 20
11.0897031158
 10
12.5110206411
 20
11.0952079247
 10
12.5009863575
 20
11.1011279558
 10
12.493425543
 20
11.1073673917
 10
12.4882259155
 20
11.1138779354
 10
12.4852753641
 20
11.1206818467
 10
12.4845727557
 20
11.1277586456
 10
12.484779146
 20
11.1297793362
  0
LWPOLYLINE
  5
4AE
100
AcDbEntity
  8
RACCORDO
100
AcDbPolyline
 62
250
  6
CONTINUOUS
 90
18
 70
0
 10
20.1489043217
 20
7.2364882607
 10
20.2229935028
 20
7.209361278
 10
20.299417349
 20
7.1827618325
 10
20.3779421245
 20
7.1567757586
 10
20.4578667441
 20
7.1316623969
 10
20.5391892239
 20
7.1074291733
 10
20.6219114021
 20
7.0840645928
 10
20.7053379073
 20
7.0617983526
 10
20.7895158566
 20
7.0406252088
 10
20.8743980073
 20
7.0205456553
 10
20.9591474403
 20
7.0017969805
 10
21.0437493438
 20
6.9843893073
 10
21.1282184318
 20
6.968307427
 10
21.2117620713
 20
6.9537499128
 10
21.294481307
 20
6.9407147961
 10
21.3762750289
 20
6.9291993382
 10
21.456047374
 20
6.9194005752
 10
21.4702929971
 20
6.9179256156
  0
LINE
  5
4AF
100
AcDbEntity
  8
RACCORDO
100
AcDbLine
 62
250
  6
CONTINUOUS
 10
20.0769162102
 20
7.2642312835
 11
20.1489043217
 21
7.2364882607
  0
LWPOLYLINE
  5
4B0
100
AcDbEntity
  8
RACCORDO
100
AcDbPolyline
 62
250
  6
CONTINUOUS
 90
5
 70
0
 10
20.0739705498
 20
7.2852045592
 10
20.0685501218
 20
7.2873001369
 10
20.0491715331
 20
7.2923604644
 10
20.0286164481
 20
7.2941284977
 10
20.0070292412
 20
7.292591788
  0
LWPOLYLINE
  5
4B1
100
AcDbEntity
  8
RACCORDO
100
AcDbPolyline
 62
7
  6
CONTINUOUS
 90
19
 70
0
 10
20.7661859815
 20
6.5975975899
 10
20.7977740507
 20
6.5852676964
 10
20.8305475775
 20
6.5733207358
 10
20.8645065614
 20
6.5617563176
 10
20.8999493645
 20
6.5504805074
 10
20.9365776242
 20
6.5395865654
 10
20.9734962562
 20
6.5293545697
 10
21.0105837366
 20
6.519835837
 10
21.0479615992
 20
6.5109777257
 10
21.0850993521
 20
6.5029039648
 10
21.1219785673
 20
6.4956183234
 10
21.1586176863
 20
6.4891157652
 10
21.194541523
 20
6.4835066744
 10
21.2298729378
 20
6.4787872335
 10
21.264489084
 20
6.4749602097
 10
21.2975462169
 20
6.4721458176
 10
21.328763092
 20
6.4703838787
 10
21.3584209635
 20
6.4696338981
 10
21.3865198342
 20
6.4698956975
  0
LINE
  5
4B2
100
AcDbEntity
  8
RACCORDO
100
AcDbLine
 62
250
  6
CONTINUOUS
 10
20.0070292473
 20
7.2925918092
 11
20.0769162102
 21
7.2642312835
  0
LWPOLYLINE
  5
4B3
100
AcDbEntity
  8
RACCORDO
100
AcDbPolyline
 62
7
  6
CONTINUOUS
 90
10
 70
0
 10
20.7661847366
 20
6.5975979498
 10
19.6790748041
 20
7.0416893616
 10
18.6182378323
 20
7.4860370699
 10
17.5836819335
 20
7.9306457609
 10
16.5823934568
 20
8.3722742118
 10
15.6068933755
 20
8.8138790323
 10
14.6359420864
 20
9.2650218178
 10
13.6628244968
 20
9.7291004922
 10
12.6946349779
 20
10.2029362356
 10
11.7311894899
 20
10.6864227306
  0
LWPOLYLINE
  5
4B4
100
AcDbEntity
  8
RACCORDO
100
AcDbPolyline
 62
7
  6
CONTINUOUS
 90
10
 70
0
 10
20.0739705498
 20
7.2852045592
 10
19.2621039822
 20
7.626809666
 10
18.3972907202
 20
7.9984113316
 10
17.5399359011
 20
8.3750795746
 10
16.6902824094
 20
8.7568786092
 10
15.8485415703
 20
9.1438700756
 10
15.0148502028
 20
9.53601603
 10
14.1892838881
 20
9.9331859664
 10
13.3718248647
 20
10.3352156048
 10
12.6275396729
 20
10.7088224486
  0
LWPOLYLINE
  5
4B5
100
AcDbEntity
  8
RACCORDO
100
AcDbPolyline
 62
250
  6
CONTINUOUS
 90
12
 70
0
 10
-24.0878091614
 20
23.3830279483
 10
-24.1659078117
 20
23.4202316092
 10
-24.2439314509
 20
23.4520850886
 10
-24.3211585629
 20
23.4782626617
 10
-24.3973278365
 20
23.4986757521
 10
-24.4721815422
 20
23.5132552884
 10
-24.5454664026
 20
23.5219519372
 10
-24.6169344401
 20
23.5247362697
 10
-24.68634382
 20
23.5215988643
 10
-24.7534596776
 20
23.5125503392
 10
-24.8180549206
 20
23.4976213129
 10
-24.8799109874
 20
23.4768622987
  0
LINE
  5
4B6
100
AcDbEntity
  8
0
100
AcDbLine
 62
7
  6
CONTINUOUS
 10
-11.565611672
 20
22.3748713505
 11
-11.9955836711
 21
22.6222293172
  0
LINE
  5
4B7
100
AcDbEntity
  8
0
100
AcDbLine
 62
7
  6
CONTINUOUS
 10
-10.145683434
 20
21.5575553309
 11
-10.6333983474
 21
21.8383580041
  0
LINE
  5
4B8
100
AcDbEntity
  8
0
100
AcDbLine
 62
7
  6
CONTINUOUS
 10
-9.4166589757
 20
21.1376874851
 11
-9.8831559607
 21
21.4063752964
  0
LINE
  5
4B9
100
AcDbEntity
  8
0
100
AcDbLine
 62
7
  6
CONTINUOUS
 10
-8.671112466
 20
20.7081458622
 11
-8.739485111
 21
20.7475453722
  0
LINE
  5
4BA
100
AcDbEntity
  8
0
100
AcDbLine
 62
7
  6
CONTINUOUS
 10
-7.5156598739
 20
20.0408637966
 11
-7.9916489846
 21
20.3162138764
  0
LINE
  5
4BB
100
AcDbEntity
  8
0
100
AcDbLine
 62
7
  6
CONTINUOUS
 10
-6.9580499145
 20
19.7182066584
 11
-7.4392623993
 21
19.9966624967
  0
LINE
  5
4BC
100
AcDbEntity
  8
0
100
AcDbLine
 62
7
  6
CONTINUOUS
 10
-6.0861498572
 20
19.8383657789
 11
-6.7484700991
 21
20.2218506458
  0
LINE
  5
4BD
100
AcDbEntity
  8
0
100
AcDbLine
 62
7
  6
CONTINUOUS
 10
-5.5228682304
 20
18.8873316887
 11
-6.0354243677
 21
19.184138401
  0
LINE
  5
4BE
100
AcDbEntity
  8
0
100
AcDbLine
 62
7
  6
CONTINUOUS
 10
-6.5874940815
 20
20.6159197132
 11
-6.1218824201
 21
20.3462969381
  0
LINE
  5
4BF
100
AcDbEntity
  8
0
100
AcDbLine
 62
7
  6
CONTINUOUS
 10
-6.1254196556
 20
20.4064565125
 11
-6.5372482583
 21
20.6449310217
  0
LINE
  5
4C0
100
AcDbEntity
  8
0
100
AcDbLine
 62
7
  6
CONTINUOUS
 10
-4.8958034147
 20
18.5241015084
 11
-5.3800751237
 21
18.8046297875
  0
LINE
  5
4C1
100
AcDbEntity
  8
0
100
AcDbLine
 62
7
  6
CONTINUOUS
 10
-3.6838430338
 20
17.821661722
 11
-4.151353965
 21
18.092693697
  0
LWPOLYLINE
  5
4C2
100
AcDbEntity
  8
RACCORDO
100
AcDbPolyline
 62
7
  6
CONTINUOUS
 90
10
 70
0
 10
-27.6728659367
 20
34.1713932881
 10
-27.6675347308
 20
34.1679372916
 10
-27.6459138981
 20
34.1554214887
 10
-27.6237728384
 20
34.1449435054
 10
-27.6013798618
 20
34.1365849196
 10
-27.5788858672
 20
34.1303304269
 10
-27.55597706
 20
34.1260807608
 10
-27.5328821775
 20
34.1239149121
 10
-27.5098348762
 20
34.1238648394
 10
-27.4865748813
 20
34.1259882168
  0
LWPOLYLINE
  5
4C3
100
AcDbEntity
  8
RACCORDO
100
AcDbPolyline
 62
7
  6
CONTINUOUS
 90
10
 70
0
 10
-27.230589863
 20
33.1824658231
 10
-28.0679895154
 20
33.7387647662
 10
-28.8886736999
 20
34.2978022985
 10
-29.6924147517
 20
34.8596595474
 10
-30.4737015531
 20
35.420237075
 10
-31.2385144106
 20
35.983467126
 10
-32.0034405055
 20
36.5616288321
 10
-32.7735151194
 20
37.1589911931
 10
-33.5430935063
 20
37.7715023892
 10
-34.3121857023
 20
38.3991588441
  0
LWPOLYLINE
  5
4C4
100
AcDbEntity
  8
RACCORDO
100
AcDbPolyline
 62
250
  6
CONTINUOUS
 90
13
 70
0
 10
-27.7831476059
 20
34.3891344815
 10
-28.1003382723
 20
34.6000003666
 10
-28.4260087469
 20
34.8185803131
 10
-28.7599549896
 20
35.0449470296
 10
-29.1017494309
 20
35.2789971966
 10
-29.4514024277
 20
35.5209828056
 10
-29.8093498821
 20
35.7715155711
 10
-30.1754658575
 20
36.0307510443
 10
-30.5494171442
 20
36.2986972888
 10
-30.9313082962
 20
36.575752071
 10
-31.3206871014
 20
36.8618358323
 10
-31.7175529751
 20
37.1571894834
 10
-32.1226647112
 20
37.4626997619
  0
LINE
  5
4C5
100
AcDbEntity
  8
RACCORDO
100
AcDbLine
 62
7
  6
CONTINUOUS
 10
-27.1491786408
 20
33.7537275291
 11
-27.6183057262
 21
34.0718702451
  0
LWPOLYLINE
  5
4C6
100
AcDbEntity
  8
RACCORDO
100
AcDbPolyline
 62
250
  6
CONTINUOUS
 90
3
 70
0
 10
-27.7293143531
 20
34.1014345695
 10
-27.4786712152
 20
33.9302806608
 10
-27.1553061289
 20
33.7116646451
  0
LWPOLYLINE
  5
4C7
100
AcDbEntity
  8
RACCORDO
100
AcDbPolyline
 62
7
  6
CONTINUOUS
 90
5
 70
0
 10
-27.6183057262
 20
34.0718702451
 10
-28.3008997128
 20
34.5451350004
 10
-28.9752414016
 20
35.0233776667
 10
-29.64119157
 20
35.5066550192
 10
-29.8810173689
 20
35.6847469292
  0
LWPOLYLINE
  5
4C8
100
AcDbEntity
  8
0
100
AcDbPolyline
 62
7
  6
CONTINUOUS
 90
10
 70
0
 10
-4.1854508328
 20
20.7632542441
 10
-4.2251989288
 20
20.7919188583
 10
-4.2657881779
 20
20.8192273843
 10
-4.3071594631
 20
20.8451003734
 10
-4.3492286343
 20
20.869447277
 10
-4.3919504114
 20
20.8921935551
 10
-4.4353180072
 20
20.913273265
 10
-4.4792781686
 20
20.932599225
 10
-4.5237777638
 20
20.9502509609
 10
-4.5688539976
 20
20.9665999352
  0
LWPOLYLINE
  5
4C9
100
AcDbEntity
  8
RACCORDO
100
AcDbPolyline
 62
250
  6
CONTINUOUS
 90
22
 70
0
 10
-34.7246067833
 20
39.5221085963
 10
-34.7465920559
 20
39.5387439403
 10
-34.7683215477
 20
39.5527520825
 10
-34.7897945303
 20
39.5641332825
 10
-34.8110629147
 20
39.5728790209
 10
-34.8320730276
 20
39.5789984452
 10
-34.8526659479
 20
39.5825182486
 10
-34.8729102211
 20
39.5834323004
 10
-34.8927357033
 20
39.581747301
 10
-34.9117763935
 20
39.5775088509
 10
-34.9299635822
 20
39.5707185158
 10
-34.9473657504
 20
39.5613748113
 10
-34.9638237014
 20
39.5495183993
 10
-34.9793415992
 20
39.5352356944
 10
-34.9939154426
 20
39.5184402239
 10
-35.0073742388
 20
39.4989131583
 10
-35.0198244861
 20
39.4764400964
 10
-35.0311596507
 20
39.451235452
 10
-35.0408905075
 20
39.4237231492
 10
-35.0488552398
 20
39.3940440477
 10
-35.0552180794
 20
39.3620564272
 10
-35.0599799308
 20
39.3277599654
  0
LWPOLYLINE
  5
4CA
100
AcDbEntity
  8
RACCORDO
100
AcDbPolyline
 62
7
  6
CONTINUOUS
 90
7
 70
0
 10
-32.4041768848
 20
37.5476457375
 10
-31.6208611071
 20
36.9523427379
 10
-30.8306167563
 20
36.3671118306
 10
-30.0336288196
 20
35.7920518736
 10
-29.2302474613
 20
35.2271742606
 10
-28.4209987349
 20
34.6724026755
 10
-27.6728561191
 20
34.1713868614
  0
LWPOLYLINE
  5
4CB
100
AcDbEntity
  8
RACCORDO
100
AcDbPolyline
 62
250
  6
CONTINUOUS
 90
6
 70
0
 10
-32.1226647112
 20
37.4626997619
 10
-32.5358025877
 20
37.7784577227
 10
-32.9567370905
 20
38.1045323943
 10
-33.3861917834
 20
38.4417847949
 10
-33.8242651832
 20
38.790552771
 10
-34.2704577659
 20
39.1506413732
  0
LWPOLYLINE
  5
4CC
100
AcDbEntity
  8
0
100
AcDbPolyline
 62
7
  6
CONTINUOUS
 90
25
 70
0
 10
-3.7170691925
 20
21.0110900727
 10
-3.7619883456
 20
21.0590026817
 10
-3.8078832629
 20
21.1047984801
 10
-3.8547555064
 20
21.1484765655
 10
-3.9028050469
 20
21.1898930245
 10
-3.9518344328
 20
21.2291903151
 10
-4.0012484897
 20
21.2667974409
 10
-4.0509215142
 20
21.302741556
 10
-4.1009800753
 20
21.3369950061
 10
-4.1512068897
 20
21.3699048807
 10
-4.2015827227
 20
21.4015381031
 10
-4.2521270288
 20
21.4318276229
 10
-4.3026803773
 20
21.4609196741
 10
-4.3531882951
 20
21.4887856494
 10
-4.4037051432
 20
21.5154542206
 10
-4.4542346895
 20
21.5411575707
 10
-4.5047652119
 20
21.565897911
 10
-4.5553081578
 20
21.5896731889
 10
-4.6059020704
 20
21.6127091792
 10
-4.6565346565
 20
21.6350070512
 10
-4.7072178802
 20
21.6565658258
 10
-4.7580267353
 20
21.677608019
 10
-4.8089861383
 20
21.6982078499
 10
-4.8600708735
 20
21.7182912722
 10
-4.9112807703
 20
21.7378583846
  0
LWPOLYLINE
  5
4CD
100
AcDbEntity
  8
0
100
AcDbPolyline
 62
7
  6
CONTINUOUS
 90
46
 70
0
 10
-3.7676099992
 20
20.9819094611
 10
-3.7441003487
 20
20.9537860868
 10
-3.7207393034
 20
20.9226346512
 10
-3.6976150314
 20
20.8885740429
 10
-3.674875112
 20
20.8518916503
 10
-3.6525637914
 20
20.8126866505
 10
-3.6306842608
 20
20.7706649689
 10
-3.609381019
 20
20.7256887467
 10
-3.5889633551
 20
20.6778557668
 10
-3.5697458152
 20
20.6271902634
 10
-3.5519045843
 20
20.5733217912
 10
-3.5358687315
 20
20.5168546591
 10
-3.5222081405
 20
20.4593825826
 10
-3.5110747827
 20
20.400868376
 10
-3.5026874397
 20
20.3418947025
 10
-3.497187258
 20
20.2849456537
 10
-3.4943354135
 20
20.2307024047
 10
-3.4938235288
 20
20.1786871079
 10
-3.4952548555
 20
20.1294744909
 10
-3.4982595276
 20
20.0834084926
 10
-3.5025711736
 20
20.0400692346
 10
-3.5080226548
 20
19.9988894979
 10
-3.5145223952
 20
19.9597652806
 10
-3.5219569158
 20
19.922825416
 10
-3.5302454108
 20
19.8878939503
 10
-3.5392994108
 20
19.8549308935
 10
-3.5490252435
 20
19.8239297536
 10
-3.5593584525
 20
19.7947658607
 10
-3.5702082909
 20
19.767402723
 10
-3.5814939999
 20
19.7417763389
 10
-3.5931846578
 20
19.7177305789
 10
-3.6051932858
 20
19.6952414223
 10
-3.6174311581
 20
19.6742764236
 10
-3.6298864822
 20
19.6546887525
 10
-3.6424883145
 20
19.6364541555
 10
-3.6551705979
 20
19.619543065
 10
-3.6679573889
 20
19.6038180652
 10
-3.6808128304
 20
19.5892373006
 10
-3.6936757893
 20
19.5757891764
 10
-3.7065510306
 20
19.5633962908
 10
-3.71940597
 20
19.5520229572
 10
-3.7321969461
 20
19.5416457722
 10
-3.7449181466
 20
19.5321884144
 10
-3.7575350791
 20
19.5235565919
 10
-3.7700069724
 20
19.5156672383
 10
-3.7792100031
 20
19.5102103309
  0
LINE
  5
4CE
100
AcDbEntity
  8
RACCORDO
100
AcDbLine
 62
7
  6
CONTINUOUS
 10
22.385104239
 20
-48.4949723368
 11
22.3850953883
 21
-48.494915748
  0
LWPOLYLINE
  5
4CF
100
AcDbEntity
  8
0
100
AcDbPolyline
 62
7
  6
CONTINUOUS
 90
25
 70
0
 10
-4.9618247348
 20
21.708674933
 10
-4.9105092389
 20
21.688978362
 10
-4.8593193788
 20
21.6688681235
 10
-4.8082625428
 20
21.648294134
 10
-4.7573785337
 20
21.6272306967
 10
-4.7066421232
 20
21.6056066767
 10
-4.6559625377
 20
21.5833005603
 10
-4.6053321394
 20
21.5602546946
 10
-4.5547717533
 20
21.5364222158
 10
-4.5042326216
 20
21.5116894887
 10
-4.4537116883
 20
21.4859962923
 10
-4.4032249976
 20
21.4592889637
 10
-4.3527522488
 20
21.4314556888
 10
-4.3022469921
 20
21.4024037547
 10
-4.251769078
 20
21.3720987532
 10
-4.201457766
 20
21.3405178519
 10
-4.1513486323
 20
21.3076358533
 10
-4.1014200221
 20
21.2733634698
 10
-4.0517459491
 20
21.2375659763
 10
-4.0023637524
 20
21.2000619271
 10
-3.953458394
 20
21.1607064072
 10
-3.905389565
 20
21.1193655139
 10
-3.8583541547
 20
21.0758955784
 10
-3.8123889775
 20
21.0301287623
 10
-3.7676099992
 20
20.9819094611
  0
LWPOLYLINE
  5
4D0
100
AcDbEntity
  8
RACCORDO
100
AcDbPolyline
 62
7
  6
CONTINUOUS
 90
24
 70
0
 10
21.6021975184
 20
6.8640054708
 10
21.6111784125
 20
6.8600986009
 10
21.6236033507
 20
6.8538139214
 10
21.6366668202
 20
6.8461347502
 10
21.6501897633
 20
6.8370311011
 10
21.6639102773
 20
6.8265612101
 10
21.6776175957
 20
6.814790089
 10
21.6911269615
 20
6.8017980985
 10
21.7042340105
 20
6.7877172081
 10
21.7167604405
 20
6.7726945823
 10
21.7285650909
 20
6.7568799334
 10
21.7395223614
 20
6.7404341216
 10
21.7495187281
 20
6.7235351957
 10
21.7584625614
 20
6.7063803302
 10
21.7662854414
 20
6.6891702484
 10
21.7729363949
 20
6.6721187842
 10
21.7784043197
 20
6.6554193931
 10
21.7827050145
 20
6.6392490618
 10
21.7858640429
 20
6.6238151154
 10
21.7879437409
 20
6.6092862334
 10
21.7890318577
 20
6.5957929672
 10
21.7892290834
 20
6.583457828
 10
21.7886640526
 20
6.5724933217
 10
21.6118208538
 20
4.6916779993
  0
LWPOLYLINE
  5
4D1
100
AcDbEntity
  8
RACCORDO
100
AcDbPolyline
 62
250
  6
CONTINUOUS
 90
22
 70
0
 10
21.5450052181
 20
7.0327398506
 10
21.5765038929
 20
7.0185513545
 10
21.6071355092
 20
7.0023024209
 10
21.6369007611
 20
6.9839934505
 10
21.6659157202
 20
6.963513635
 10
21.6940660101
 20
6.9409747622
 10
21.7210063598
 20
6.916710958
 10
21.7467545712
 20
6.890676572
 10
21.7712940423
 20
6.8629179478
 10
21.7942270163
 20
6.833906694
 10
21.8154951022
 20
6.8037134074
 10
21.8351569459
 20
6.7722676385
 10
21.8529895361
 20
6.7398289591
 10
21.8690406772
 20
6.7062801198
 10
21.8832625367
 20
6.6717383536
 10
21.8952877474
 20
6.6368144353
 10
21.9050584631
 20
6.6013966643
 10
21.9126314373
 20
6.5655961099
 10
21.917809838
 20
6.5303569141
 10
21.9205269491
 20
6.4959931523
 10
21.9208470588
 20
6.4621893464
 10
21.9187691967
 20
6.428944936
  0
LWPOLYLINE
  5
4D2
100
AcDbEntity
  8
RACCORDO
100
AcDbPolyline
 62
250
  6
CONTINUOUS
 90
12
 70
0
 10
21.9187691967
 20
6.428944936
 10
21.8957496993
 20
6.4394143199
 10
21.8745097032
 20
6.4508259392
 10
21.8552468477
 20
6.4630736081
 10
21.8381403751
 20
6.4760433611
 10
21.8233494619
 20
6.489614514
 10
21.8110117386
 20
6.5036607865
 10
21.8012420085
 20
6.518051477
 10
21.7941311794
 20
6.5326526794
 10
21.7897454182
 20
6.5473285286
 10
21.7881255347
 20
6.561942465
 10
21.7884870523
 20
6.5706092583
  0
LWPOLYLINE
  5
4D3
100
AcDbEntity
  8
RACCORDO
100
AcDbPolyline
 62
250
  6
CONTINUOUS
 90
20
 70
0
 10
13.180801202
 20
10.4030148848
 10
13.5062497031
 20
10.2415004015
 10
13.8344180785
 20
10.0800239067
 10
14.1648288791
 20
9.9188448447
 10
14.4960557085
 20
9.7586931796
 10
14.8275012365
 20
9.5998700476
 10
15.1597506411
 20
9.4420863852
 10
15.4931500299
 20
9.2851791301
 10
15.8262182313
 20
9.1298301147
 10
16.1604247883
 20
8.9753700606
 10
16.5005458477
 20
8.8196404733
 10
16.84658828
 20
8.6626380187
 10
17.1985395447
 20
8.5044267175
 10
17.5611525637
 20
8.3430097823
 10
17.9346445827
 20
8.178329838
 10
18.3187945587
 20
8.0105762565
 10
18.7177015752
 20
7.8381871569
 10
19.1327302292
 20
7.6607215759
 10
19.5625082781
 20
7.4788253664
 10
20.0070292473
 20
7.2925918092
  0
LWPOLYLINE
  5
4D4
100
AcDbEntity
  8
RACCORDO
100
AcDbPolyline
 62
7
  6
CONTINUOUS
 90
10
 70
0
 10
12.5929700794
 20
10.9220995298
 10
13.4605761983
 20
10.4899783166
 10
14.4197630155
 20
10.0232080065
 10
15.3978371815
 20
9.5590360455
 10
16.3949688385
 20
9.0977865295
 10
17.4111914787
 20
8.639679464
 10
18.4464026956
 20
8.1848295648
 10
19.5003567818
 20
7.7332435235
 10
20.5726915441
 20
7.2848479396
 10
21.6022212138
 20
6.8639958813
  0
LWPOLYLINE
  5
4D5
100
AcDbEntity
  8
RACCORDO
100
AcDbPolyline
 62
250
  6
CONTINUOUS
 90
19
 70
0
 10
12.5985578959
 20
11.0732435225
 10
12.9649196136
 20
10.8893971999
 10
13.344800818
 20
10.7005652819
 10
13.7383672446
 20
10.5068435116
 10
14.1455488351
 20
10.3084198302
 10
14.5667550845
 20
10.1053023844
 10
15.0028836582
 20
9.8973245047
 10
15.4541993628
 20
9.6845561824
 10
15.9208078048
 20
9.4671414088
 10
16.4033838141
 20
9.2450337368
 10
16.9018291228
 20
9.0184719295
 10
17.4166092237
 20
8.7874293648
 10
17.9492648868
 20
8.5514732435
 10
18.500008154
 20
8.3107026201
 10
19.0689932372
 20
8.06523002
 10
19.6576918096
 20
7.8146530468
 10
20.2667109352
 20
7.5589048725
 10
20.8957710387
 20
7.2982415108
 10
21.5450052181
 20
7.0327398506
  0
LINE
  5
4D6
100
AcDbEntity
  8
RACCORDO
100
AcDbLine
 62
250
  6
CONTINUOUS
 10
12.5366586797
 20
10.7268050814
 11
13.180801202
 21
10.4030148848
  0
LWPOLYLINE
  5
4D7
100
AcDbEntity
  8
0
100
AcDbPolyline
 62
7
  6
CONTINUOUS
 90
18
 70
0
 10
-4.4137630563
 20
19.9951762456
 10
-4.3955229739
 20
19.9854637883
 10
-4.3771467732
 20
19.9763456227
 10
-4.3586976155
 20
19.9678850055
 10
-4.3402834964
 20
19.9601562234
 10
-4.3219155492
 20
19.9532002175
 10
-4.3035093533
 20
19.9470405895
 10
-4.2851200265
 20
19.9417434497
 10
-4.2668070229
 20
19.9373819372
 10
-4.2484978381
 20
19.934021083
 10
-4.2302148413
 20
19.931744204
 10
-4.2120674293
 20
19.9306536665
 10
-4.194119522
 20
19.9308591135
 10
-4.1764134765
 20
19.9324581103
 10
-4.1590484624
 20
19.9355445352
 10
-4.1421649626
 20
19.9401988624
 10
-4.1258239285
 20
19.9464968659
 10
-4.1088240869
 20
19.9551620368
  0
LINE
  5
4D8
100
AcDbEntity
  8
0
100
AcDbLine
 62
7
  6
CONTINUOUS
 10
-12.3136711693
 20
25.9867388352
 11
-11.783248061
 21
25.6820547555
  0
LINE
  5
4D9
100
AcDbEntity
  8
0
100
AcDbLine
 62
7
  6
CONTINUOUS
 10
-11.7326961235
 20
25.7112428107
 11
-12.2631184216
 21
26.0159273581
  0
LINE
  5
4DA
100
AcDbEntity
  8
0
100
AcDbLine
 62
7
  6
CONTINUOUS
 10
-10.8781218518
 20
25.1618140235
 11
-10.390478499
 21
24.8813538103
  0
LINE
  5
4DB
100
AcDbEntity
  8
0
100
AcDbLine
 62
7
  6
CONTINUOUS
 10
-10.3399287391
 20
24.9105406081
 11
-10.8275712867
 21
25.1910012863
  0
LINE
  5
4DC
100
AcDbEntity
  8
0
100
AcDbLine
 62
7
  6
CONTINUOUS
 10
-10.2093884076
 20
24.7773654651
 11
-9.7215644671
 21
24.4966257428
  0
LINE
  5
4DD
100
AcDbEntity
  8
0
100
AcDbLine
 62
7
  6
CONTINUOUS
 10
-9.6710159321
 20
24.5258118334
 11
-10.1588389374
 21
24.8065520956
  0
LINE
  5
4DE
100
AcDbEntity
  8
0
100
AcDbLine
 62
7
  6
CONTINUOUS
 10
-9.2480707338
 20
24.2238147397
 11
-8.7608692944
 21
23.9431802096
  0
LINE
  5
4DF
100
AcDbEntity
  8
0
100
AcDbLine
 62
7
  6
CONTINUOUS
 10
-8.7103229601
 20
23.9723650296
 11
-9.1975232425
 21
24.2530002277
  0
LINE
  5
4E0
100
AcDbEntity
  8
0
100
AcDbLine
 62
7
  6
CONTINUOUS
 10
-7.7911384298
 20
23.3842231163
 11
-7.3095295269
 21
23.1058549018
  0
LINE
  5
4E1
100
AcDbEntity
  8
0
100
AcDbLine
 62
7
  6
CONTINUOUS
 10
-7.2589847927
 20
23.1350387978
 11
-7.7405946781
 21
23.413406445
  0
LINE
  5
4E2
100
AcDbEntity
  8
0
100
AcDbLine
 62
7
  6
CONTINUOUS
 10
-6.2841037236
 20
22.5125637677
 11
-5.8136176098
 21
22.2401588123
  0
LINE
  5
4E3
100
AcDbEntity
  8
0
100
AcDbLine
 62
7
  6
CONTINUOUS
 10
-5.7630692553
 20
22.2693447986
 11
-6.233556395
 21
22.5417491618
  0
LINE
  5
4E4
100
AcDbEntity
  8
0
100
AcDbLine
 62
7
  6
CONTINUOUS
 10
-4.483650247
 20
19.5148198532
 11
-4.7442306466
 21
19.6659113872
  0
LINE
  5
4E5
100
AcDbEntity
  8
0
100
AcDbLine
 62
7
  6
CONTINUOUS
 10
-4.6914853249
 20
20.1562309885
 11
-4.4137630563
 21
19.9951762456
  0
LINE
  5
4E6
100
AcDbEntity
  8
0
100
AcDbLine
 62
7
  6
CONTINUOUS
 10
-4.3634303053
 20
20.0242377452
 11
-4.6411522315
 21
20.1852926858
  0
LWPOLYLINE
  5
4E7
100
AcDbEntity
  8
RACCORDO
100
AcDbPolyline
 62
250
  6
CONTINUOUS
 90
12
 70
0
 10
12.5930274829
 20
10.9220609916
 10
12.5844160476
 20
10.9278205454
 10
12.5780955223
 20
10.9348687876
 10
12.5733789627
 20
10.9434963002
 10
12.5700910649
 20
10.9538624306
 10
12.5685255447
 20
10.9659021093
 10
12.5687421118
 20
10.9796709884
 10
12.57071344
 20
10.9952178823
 10
12.5746472663
 20
11.0123768607
 10
12.5806287393
 20
11.0310919038
 10
12.5886844812
 20
11.0514531661
 10
12.598845346
 20
11.0734135563
  0
LINE
  5
4E8
100
AcDbEntity
  8
RACCORDO
100
AcDbLine
 62
250
  6
CONTINUOUS
 10
-33.4331942101
 20
47.5249155813
 11
-33.0183990306
 21
47.2277074868
  0
LINE
  5
4E9
100
AcDbEntity
  8
RACCORDO
100
AcDbLine
 62
250
  6
CONTINUOUS
 10
-33.8654792474
 20
47.8371529115
 11
-33.4331942101
 21
47.5249155813
  0
LINE
  5
4EA
100
AcDbEntity
  8
RACCORDO
100
AcDbLine
 62
250
  6
CONTINUOUS
 10
-34.3155907865
 20
48.1650465132
 11
-33.8654792474
 21
47.8371529115
  0
LINE
  5
4EB
100
AcDbEntity
  8
RACCORDO
100
AcDbLine
 62
250
  6
CONTINUOUS
 10
-33.7080111969
 20
48.5020085418
 11
-33.2683255752
 21
48.1802093056
  0
LINE
  5
4EC
100
AcDbEntity
  8
RACCORDO
100
AcDbLine
 62
250
  6
CONTINUOUS
 10
-34.7836568036
 20
48.5090407304
 11
-34.3155907865
 21
48.1650465132
  0
LINE
  5
4ED
100
AcDbEntity
  8
RACCORDO
100
AcDbLine
 62
250
  6
CONTINUOUS
 10
-34.1656055217
 20
48.8398056725
 11
-33.7080111969
 21
48.5020085418
  0
LINE
  5
4EE
100
AcDbEntity
  8
RACCORDO
100
AcDbLine
 62
250
  6
CONTINUOUS
 10
-35.270722709
 20
48.869986155
 11
-34.7836568036
 21
48.5090407304
  0
LINE
  5
4EF
100
AcDbEntity
  8
RACCORDO
100
AcDbLine
 62
250
  6
CONTINUOUS
 10
-34.6411580701
 20
49.1940047016
 11
-34.1656055217
 21
48.8398056725
  0
LWPOLYLINE
  5
4F0
100
AcDbEntity
  8
RACCORDO
100
AcDbPolyline
 62
250
  6
CONTINUOUS
 90
3
 70
0
 10
-36.0430633563
 20
49.4479314038
 10
-35.7801941677
 20
49.2504918179
 10
-35.270722709
 20
48.869986155
  0
LINE
  5
4F1
100
AcDbEntity
  8
RACCORDO
100
AcDbLine
 62
250
  6
CONTINUOUS
 10
-35.1380007885
 20
49.5671701457
 11
-34.6411580701
 21
49.1940047016
  0
LINE
  5
4F2
100
AcDbEntity
  8
RACCORDO
100
AcDbLine
 62
250
  6
CONTINUOUS
 10
-35.6569941873
 20
49.9599818634
 11
-35.1380007885
 21
49.5671701457
  0
LWPOLYLINE
  5
4F3
100
AcDbEntity
  8
RACCORDO
100
AcDbPolyline
 62
7
  6
CONTINUOUS
 90
8
 70
0
 10
16.3789613842
 20
8.9000088631
 10
16.339551401
 20
8.954648381
 10
16.2980770409
 20
9.0108543908
 10
16.2574606851
 20
9.0645917731
 10
16.2177073606
 20
9.1160121567
 10
16.1787427607
 20
9.1655045315
 10
16.1406222352
 20
9.2131032376
 10
16.1375622576
 20
9.2168567245
  0
LWPOLYLINE
  5
4F4
100
AcDbEntity
  8
RACCORDO
100
AcDbPolyline
 62
250
  6
CONTINUOUS
 90
3
 70
0
 10
16.9900317567
 20
8.6221836865
 10
16.922347109
 20
8.7698711452
 10
16.8659710228
 20
8.8854615724
  0
LWPOLYLINE
  5
4F5
100
AcDbEntity
  8
RACCORDO
100
AcDbPolyline
 62
7
  6
CONTINUOUS
 90
8
 70
0
 10
15.8188665981
 20
9.3642777974
 10
15.82113562
 20
9.3588281214
 10
15.843228013
 20
9.3102124079
 10
15.8670772275
 20
9.2619012715
 10
15.8926102213
 20
9.2139912832
 10
15.9194776643
 20
9.1671153565
 10
15.9475631131
 20
9.1214844625
 10
15.9694731548
 20
9.0882716194
  0
LINE
  5
4F6
100
AcDbEntity
  8
RACCORDO
100
AcDbLine
 62
250
  6
CONTINUOUS
 10
22.395588557
 20
-47.8976309942
 11
22.5051830854
 21
-48.6260720321
  0
LWPOLYLINE
  5
4F7
100
AcDbEntity
  8
RACCORDO
100
AcDbPolyline
 62
7
  6
CONTINUOUS
 90
19
 70
0
 10
22.385104239
 20
-48.4949723368
 10
22.3979380803
 20
-48.58458117
 10
22.4135272532
 20
-48.7286367898
 10
22.4223397545
 20
-48.8690711395
 10
22.424327722
 20
-49.0054810384
 10
22.4194795375
 20
-49.1374119005
 10
22.4078314905
 20
-49.2643153544
 10
22.3894557861
 20
-49.3857925626
 10
22.3644533514
 20
-49.5015088766
 10
22.3329764821
 20
-49.6110240384
 10
22.2952212197
 20
-49.713989705
 10
22.2513503624
 20
-49.8102553207
 10
22.2014817462
 20
-49.8997527628
 10
22.1458608587
 20
-49.982241974
 10
22.0845454279
 20
-50.0577856329
 10
22.0171969975
 20
-50.1267748905
 10
21.9435977023
 20
-50.189233068
 10
21.86380252
 20
-50.244900295
 10
21.8460510179
 20
-50.2558396198
  0
LWPOLYLINE
  5
4F8
100
AcDbEntity
  8
RACCORDO
100
AcDbPolyline
 62
250
  6
CONTINUOUS
 90
36
 70
0
 10
21.2829508363
 20
-47.2204483641
 10
21.3059945122
 20
-47.3916085993
 10
21.3212266958
 20
-47.5566137804
 10
21.3286644812
 20
-47.7154493631
 10
21.3282217891
 20
-47.8677402843
 10
21.3200217502
 20
-48.0138300829
 10
21.304401059
 20
-48.1547771953
 10
21.2814235273
 20
-48.2912165705
 10
21.2510792886
 20
-48.4224673612
 10
21.2135926271
 20
-48.5476159205
 10
21.1689356956
 20
-48.6665555138
 10
21.1171764986
 20
-48.7793587087
 10
21.0586693914
 20
-48.8853924721
 10
20.9933931831
 20
-48.9845991545
 10
20.9213966105
 20
-49.0770129686
 10
20.8431249858
 20
-49.162150531
 10
20.7585546838
 20
-49.2399683907
 10
20.6677232523
 20
-49.3104981529
 10
20.5711536743
 20
-49.3733810062
 10
20.4688310845
 20
-49.4285793701
 10
20.3607711272
 20
-49.4761301622
 10
20.2475287855
 20
-49.5157980296
 10
20.1289903699
 20
-49.5475543633
 10
20.0052587602
 20
-49.5714369693
 10
19.8771985326
 20
-49.5873231018
 10
19.7453273472
 20
-49.595269581
 10
19.6090981913
 20
-49.5952445606
 10
19.4677753618
 20
-49.5869950763
 10
19.3209890939
 20
-49.5706177427
 10
19.1690992789
 20
-49.5460243457
 10
19.0124631601
 20
-49.5126859873
 10
18.8506801999
 20
-49.4704337822
 10
18.684131318
 20
-49.419453307
 10
18.5143266457
 20
-49.3597637746
 10
18.3417507806
 20
-49.2913875673
 10
18.1658783061
 20
-49.2143370327
  0
LWPOLYLINE
  5
4F9
100
AcDbEntity
  8
RACCORDO
100
AcDbPolyline
 62
250
  6
CONTINUOUS
 90
22
 70
0
 10
22.5051830854
 20
-48.6260720321
 10
22.5247945993
 20
-48.7758344936
 10
22.5382715833
 20
-48.9203098497
 10
22.5456266758
 20
-49.0594873474
 10
22.5467748705
 20
-49.1928499158
 10
22.5418261086
 20
-49.3208934104
 10
22.5310914045
 20
-49.4451214014
 10
22.5146304166
 20
-49.5663025115
 10
22.4924252327
 20
-49.6836325993
 10
22.4646710135
 20
-49.7962556616
 10
22.4315831815
 20
-49.9037179292
 10
22.3929731311
 20
-50.0064503546
 10
22.348430402
 20
-50.1049236592
 10
22.2980396809
 20
-50.1994496591
 10
22.2417594911
 20
-50.2896797738
 10
22.178997501
 20
-50.3750878553
 10
22.109480186
 20
-50.4559508631
 10
22.0335294605
 20
-50.5319506664
 10
21.9514360364
 20
-50.6016770878
 10
21.8632989783
 20
-50.66465823
 10
21.7690387627
 20
-50.7213493642
 10
21.6686662853
 20
-50.7717412202
  0
LWPOLYLINE
  5
4FA
100
AcDbEntity
  8
RACCORDO
100
AcDbPolyline
 62
250
  6
CONTINUOUS
 90
20
 70
0
 10
21.9241143371
 20
-47.1321203051
 10
21.9477528628
 20
-47.3207932803
 10
21.9624294257
 20
-47.5030241336
 10
21.9684125923
 20
-47.6785794839
 10
21.9660103537
 20
-47.846618428
 10
21.9555395508
 20
-48.0076574871
 10
21.937043086
 20
-48.1633433778
 10
21.9104659285
 20
-48.3139692218
 10
21.8759293471
 20
-48.4585363535
 10
21.8335342732
 20
-48.5965906928
 10
21.7834216976
 20
-48.7278157144
 10
21.7257157536
 20
-48.8520016463
 10
21.6605406158
 20
-48.9689047931
 10
21.5880686407
 20
-49.0782914182
 10
21.5084687434
 20
-49.1799637501
 10
21.4218798516
 20
-49.2737581557
 10
21.3285036838
 20
-49.3594936818
 10
21.2285429603
 20
-49.4370130724
 10
21.1221506254
 20
-49.5062081157
 10
21.0770568128
 20
-49.5319574985
  0
LWPOLYLINE
  5
4FB
100
AcDbEntity
  8
RACCORDO
100
AcDbPolyline
 62
250
  6
CONTINUOUS
 90
22
 70
0
 10
21.3372085752
 20
-36.6126713048
 10
21.3539332416
 20
-36.9929431022
 10
21.3725664329
 20
-37.3889722339
 10
21.3932705452
 20
-37.8002096945
 10
21.4163279198
 20
-38.2273661905
 10
21.4419334452
 20
-38.6705158731
 10
21.4702647208
 20
-39.1292676682
 10
21.5015854851
 20
-39.6036282066
 10
21.5361171196
 20
-40.0935805292
 10
21.5740611185
 20
-40.5987818009
 10
21.6156549829
 20
-41.1187467809
 10
21.6610520542
 20
-41.6526696208
 10
21.7105173346
 20
-42.2010002309
 10
21.7644687309
 20
-42.7651260198
 10
21.8230771465
 20
-43.3444350807
 10
21.8866050955
 20
-43.939170557
 10
21.9556574376
 20
-44.5519602847
 10
22.0304790469
 20
-45.1825958334
 10
22.1113220057
 20
-45.8308628094
 10
22.1988761045
 20
-46.4993170413
 10
22.2935831014
 20
-47.1886302431
 10
22.395588557
 20
-47.8976309942
  0
LINE
  5
4FC
100
AcDbEntity
  8
RACCORDO
100
AcDbLine
 62
250
  6
CONTINUOUS
 10
21.3086883126
 20
-35.8966614627
 11
21.3372085752
 21
-36.6126713048
  0
LINE
  5
4FD
100
AcDbEntity
  8
RACCORDO
100
AcDbLine
 62
250
  6
CONTINUOUS
 10
21.2856098334
 20
-35.2373363611
 11
21.3086883126
 21
-35.8966614627
  0
LINE
  5
4FE
100
AcDbEntity
  8
RACCORDO
100
AcDbLine
 62
250
  6
CONTINUOUS
 10
21.2664526416
 20
-34.617695528
 11
21.2856098334
 21
-35.2373363611
  0
LINE
  5
4FF
100
AcDbEntity
  8
RACCORDO
100
AcDbLine
 62
250
  6
CONTINUOUS
 10
21.2429317463
 20
-33.7358893104
 11
21.2664526416
 21
-34.617695528
  0
LINE
  5
500
100
AcDbEntity
  8
RACCORDO
100
AcDbLine
 62
250
  6
CONTINUOUS
 10
21.2233762684
 20
-32.8647316352
 11
21.2429317463
 21
-33.7358893104
  0
LWPOLYLINE
  5
501
100
AcDbEntity
  8
RACCORDO
100
AcDbPolyline
 62
250
  6
CONTINUOUS
 90
28
 70
0
 10
20.0285051923
 20
-31.4562388898
 10
20.0392607001
 20
-32.0378173427
 10
20.0513148983
 20
-32.6194104686
 10
20.0649166069
 20
-33.2006449934
 10
20.0802542397
 20
-33.7814830622
 10
20.0975109484
 20
-34.3616463918
 10
20.1169225267
 20
-34.9404054332
 10
20.1386717169
 20
-35.5174640218
 10
20.1629116801
 20
-36.0928325264
 10
20.1898154084
 20
-36.6662568789
 10
20.2195096034
 20
-37.2373938791
 10
20.2521193718
 20
-37.8063724818
 10
20.2877649021
 20
-38.3736897419
 10
20.32652893
 20
-38.9397550237
 10
20.3684231715
 20
-39.5040786009
 10
20.4134231751
 20
-40.0658413173
 10
20.4613336474
 20
-40.6228826629
 10
20.5123214071
 20
-41.1773873749
 10
20.5669544197
 20
-41.7350122661
 10
20.6251493273
 20
-42.2944601463
 10
20.6870869342
 20
-42.8569452958
 10
20.7539507038
 20
-43.4317051864
 10
20.8259425277
 20
-44.0189214147
 10
20.903213104
 20
-44.6181123913
 10
20.9871325644
 20
-45.237296651
 10
21.0784031296
 20
-45.878938152
 10
21.176916779
 20
-46.5400673746
 10
21.2829508363
 20
-47.2204483641
  0
LINE
  5
502
100
AcDbEntity
  8
RACCORDO
100
AcDbLine
 62
250
  6
CONTINUOUS
 10
21.2014273422
 20
-31.6782898213
 11
21.2233762684
 21
-32.8647316352
  0
LWPOLYLINE
  5
503
100
AcDbEntity
  8
RACCORDO
100
AcDbPolyline
 62
250
  6
CONTINUOUS
 90
29
 70
0
 10
20.6434710811
 20
-30.8359642787
 10
20.6530051048
 20
-31.4159990445
 10
20.6636148055
 20
-31.9965261366
 10
20.6753798302
 20
-32.5770781782
 10
20.688903978
 20
-33.1569679287
 10
20.7041872548
 20
-33.736300797
 10
20.7212296546
 20
-34.3149713743
 10
20.7406349592
 20
-34.891976193
 10
20.7624430524
 20
-35.4671297802
 10
20.7866140503
 20
-36.0406176089
 10
20.8136320819
 20
-36.6119926313
 10
20.8435542044
 20
-37.1809662956
 10
20.8763233606
 20
-37.7478271536
 10
20.9122525082
 20
-38.312993814
 10
20.9514373793
 20
-38.8768779796
 10
20.9937822418
 20
-39.4390679475
 10
21.0393128569
 20
-39.9987472178
 10
21.08782653
 20
-40.5537703739
 10
21.1395259558
 20
-41.1062828323
 10
21.1950449798
 20
-41.6619043435
 10
21.2541149545
 20
-42.2194945501
 10
21.3170045275
 20
-42.7801938094
 10
21.3851534869
 20
-43.3530429431
 10
21.4584217473
 20
-43.9385091305
 10
21.5369493942
 20
-44.5361251922
 10
21.6225964721
 20
-45.1535304122
 10
21.715982996
 20
-45.7932712183
 10
21.816488951
 20
-46.4528011826
 10
21.9241143371
 20
-47.1321203051
  0
LINE
  5
504
100
AcDbEntity
  8
RACCORDO
100
AcDbLine
 62
250
  6
CONTINUOUS
 10
20.0101947067
 20
-30.2945459537
 11
20.0285051923
 21
-31.4562388898
  0
LINE
  5
505
100
AcDbEntity
  8
RACCORDO
100
AcDbLine
 62
250
  6
CONTINUOUS
 10
21.1794960408
 20
-30.1914034573
 11
21.2014273422
 21
-31.6782898213
  0
LINE
  5
506
100
AcDbEntity
  8
RACCORDO
100
AcDbLine
 62
250
  6
CONTINUOUS
 10
20.6275041483
 20
-29.675254706
 11
20.6434710811
 21
-30.8359642787
  0
LINE
  5
507
100
AcDbEntity
  8
RACCORDO
100
AcDbLine
 62
250
  6
CONTINUOUS
 10
19.9953406029
 20
-29.1308580449
 11
20.0101947067
 21
-30.2945459537
  0
LINE
  5
508
100
AcDbEntity
  8
RACCORDO
100
AcDbLine
 62
250
  6
CONTINUOUS
 10
20.614606908
 20
-28.5113241348
 11
20.6275041483
 21
-29.675254706
  0
LINE
  5
509
100
AcDbEntity
  8
RACCORDO
100
AcDbLine
 62
250
  6
CONTINUOUS
 10
19.9833427766
 20
-27.9643964793
 11
19.9953406029
 21
-29.1308580449
  0
LINE
  5
50A
100
AcDbEntity
  8
RACCORDO
100
AcDbLine
 62
250
  6
CONTINUOUS
 10
21.1595872541
 20
-28.4180618904
 11
21.1794960408
 21
-30.1914034573
  0
LINE
  5
50B
100
AcDbEntity
  8
RACCORDO
100
AcDbLine
 62
250
  6
CONTINUOUS
 10
20.6041627275
 20
-27.3438748833
 11
20.614606908
 21
-28.5113241348
  0
LINE
  5
50C
100
AcDbEntity
  8
RACCORDO
100
AcDbLine
 62
250
  6
CONTINUOUS
 10
21.1431277311
 20
-26.3989206075
 11
21.1595872541
 21
-28.4180618904
  0
LINE
  5
50D
100
AcDbEntity
  8
RACCORDO
100
AcDbLine
 62
250
  6
CONTINUOUS
 10
19.9657309701
 20
-25.6280785632
 11
19.9833427766
 21
-27.9643964793
  0
LINE
  5
50E
100
AcDbEntity
  8
RACCORDO
100
AcDbLine
 62
250
  6
CONTINUOUS
 10
20.5922379904
 20
-25.5936646328
 11
20.6041627275
 21
-27.3438748833
  0
LINE
  5
50F
100
AcDbEntity
  8
RACCORDO
100
AcDbLine
 62
250
  6
CONTINUOUS
 10
21.1315009048
 20
-24.2998088591
 11
21.1431277311
 21
-26.3989206075
  0
LINE
  5
510
100
AcDbEntity
  8
RACCORDO
100
AcDbLine
 62
250
  6
CONTINUOUS
 10
19.9569827673
 20
-23.8887943101
 11
19.9657309701
 21
-25.6280785632
  0
LINE
  5
511
100
AcDbEntity
  8
RACCORDO
100
AcDbLine
 62
250
  6
CONTINUOUS
 10
20.5838847943
 20
-23.855381373
 11
20.5922379904
 21
-25.5936646328
  0
LINE
  5
512
100
AcDbEntity
  8
RACCORDO
100
AcDbLine
 62
250
  6
CONTINUOUS
 10
19.951450188
 20
-22.127149625
 11
19.9569827673
 21
-23.8887943101
  0
LINE
  5
513
100
AcDbEntity
  8
RACCORDO
100
AcDbLine
 62
250
  6
CONTINUOUS
 10
20.5785982139
 20
-22.0946039654
 11
20.5838847943
 21
-23.855381373
  0
LINE
  5
514
100
AcDbEntity
  8
RACCORDO
100
AcDbLine
 62
250
  6
CONTINUOUS
 10
21.1251674126
 20
-22.305562999
 11
21.1315009048
 21
-24.2998088591
  0
LINE
  5
515
100
AcDbEntity
  8
RACCORDO
100
AcDbLine
 62
250
  6
CONTINUOUS
 10
19.948854144
 20
-20.2616408456
 11
19.951450188
 21
-22.127149625
  0
LINE
  5
516
100
AcDbEntity
  8
RACCORDO
100
AcDbLine
 62
250
  6
CONTINUOUS
 10
20.5761364609
 20
-20.2297895504
 11
20.5785982139
 21
-22.0946039654
  0
LWPOLYLINE
  5
517
100
AcDbEntity
  8
RACCORDO
100
AcDbPolyline
 62
7
  6
CONTINUOUS
 90
16
 70
0
 10
20.9871516867
 20
-19.23549585
 10
20.988047561
 20
-21.4529631809
 10
20.9936111073
 20
-23.6956582852
 10
21.0043983535
 20
-25.897420386
 10
21.0207317382
 20
-28.0580046217
 10
21.0439229117
 20
-30.1767192102
 10
21.076535133
 20
-32.2521151351
 10
21.1232899732
 20
-34.2814249426
 10
21.1910955712
 20
-36.2600628789
 10
21.2852939786
 20
-38.1840550427
 10
21.4081183278
 20
-40.0511890516
 10
21.5589082263
 20
-41.8611302068
 10
21.735680497
 20
-43.6144398527
 10
21.9356814168
 20
-45.3124328925
 10
22.155925999
 20
-46.9568602044
 10
22.3850953883
 20
-48.494915748
  0
LINE
  5
518
100
AcDbEntity
  8
RACCORDO
100
AcDbLine
 62
250
  6
CONTINUOUS
 10
21.1228355608
 20
-20.0056566391
 11
21.1251674126
 21
-22.305562999
  0
LINE
  5
519
100
AcDbEntity
  8
RACCORDO
100
AcDbLine
 62
250
  6
CONTINUOUS
 10
21.1237666081
 20
-17.2825078574
 11
21.1228355608
 21
-20.0056566391
  0
LINE
  5
51A
100
AcDbEntity
  8
RACCORDO
100
AcDbLine
 62
250
  6
CONTINUOUS
 10
19.9530147226
 20
-15.1184563148
 11
19.948854144
 21
-20.2616408456
  0
LINE
  5
51B
100
AcDbEntity
  8
RACCORDO
100
AcDbLine
 62
250
  6
CONTINUOUS
 10
20.5808857707
 20
-14.8151183911
 11
20.5761364609
 21
-20.2297895504
  0
LINE
  5
51C
100
AcDbEntity
  8
RACCORDO
100
AcDbLine
 62
250
  6
CONTINUOUS
 10
21.1280601177
 20
-15.3686871263
 11
21.1237666081
 21
-17.2825078574
  0
LINE
  5
51D
100
AcDbEntity
  8
RACCORDO
100
AcDbLine
 62
250
  6
CONTINUOUS
 10
21.1356181431
 20
-13.5892884853
 11
21.1280601177
 21
-15.3686871263
  0
LINE
  5
51E
100
AcDbEntity
  8
RACCORDO
100
AcDbLine
 62
250
  6
CONTINUOUS
 10
19.9687525283
 20
-11.735440019
 11
19.9530147226
 21
-15.1184563148
  0
LINE
  5
51F
100
AcDbEntity
  8
RACCORDO
100
AcDbLine
 62
250
  6
CONTINUOUS
 10
21.1463411538
 20
-11.8846858253
 11
21.1356181431
 21
-13.5892884853
  0
LINE
  5
520
100
AcDbEntity
  8
RACCORDO
100
AcDbLine
 62
250
  6
CONTINUOUS
 10
20.6007623627
 20
-10.877123008
 11
20.5808857707
 21
-14.8151183911
  0
LINE
  5
521
100
AcDbEntity
  8
RACCORDO
100
AcDbLine
 62
250
  6
CONTINUOUS
 10
21.1608253748
 20
-10.1737684547
 11
21.1463411538
 21
-11.8846858253
  0
LINE
  5
522
100
AcDbEntity
  8
RACCORDO
100
AcDbLine
 62
250
  6
CONTINUOUS
 10
19.9879409163
 20
-9.3788765421
 11
19.9687525283
 21
-11.735440019
  0
LINE
  5
523
100
AcDbEntity
  8
RACCORDO
100
AcDbLine
 62
250
  6
CONTINUOUS
 10
20.6197190645
 20
-8.7443669
 11
20.6007623627
 21
-10.877123008
  0
LINE
  5
524
100
AcDbEntity
  8
RACCORDO
100
AcDbLine
 62
250
  6
CONTINUOUS
 10
21.1731546223
 20
-9.0224379462
 11
21.1608253748
 21
-10.1737684547
  0
LINE
  5
525
100
AcDbEntity
  8
RACCORDO
100
AcDbLine
 62
250
  6
CONTINUOUS
 10
20.0028798603
 20
-8.0526095058
 11
19.9879409163
 21
-9.3788765421
  0
LINE
  5
526
100
AcDbEntity
  8
RACCORDO
100
AcDbLine
 62
250
  6
CONTINUOUS
 10
20.636755964
 20
-7.3551405532
 11
20.6197190645
 21
-8.7443669
  0
LINE
  5
527
100
AcDbEntity
  8
RACCORDO
100
AcDbLine
 62
250
  6
CONTINUOUS
 10
21.188081324
 20
-7.8697520856
 11
21.1731546223
 21
-9.0224379462
  0
LINE
  5
528
100
AcDbEntity
  8
RACCORDO
100
AcDbLine
 62
250
  6
CONTINUOUS
 10
20.0181175534
 20
-6.9616126225
 11
20.0028798603
 21
-8.0526095058
  0
LINE
  5
529
100
AcDbEntity
  8
RACCORDO
100
AcDbLine
 62
250
  6
CONTINUOUS
 10
20.6541640673
 20
-6.2270502113
 11
20.636755964
 21
-7.3551405532
  0
LINE
  5
52A
100
AcDbEntity
  8
RACCORDO
100
AcDbLine
 62
250
  6
CONTINUOUS
 10
20.0376622115
 20
-5.8118222842
 11
20.0181175534
 21
-6.9616126225
  0
LINE
  5
52B
100
AcDbEntity
  8
RACCORDO
100
AcDbLine
 62
250
  6
CONTINUOUS
 10
20.6682921625
 20
-5.4617618788
 11
20.6541640673
 21
-6.2270502113
  0
LINE
  5
52C
100
AcDbEntity
  8
RACCORDO
100
AcDbLine
 62
250
  6
CONTINUOUS
 10
20.0532521201
 20
-5.0443875016
 11
20.0376622115
 21
-5.8118222842
  0
LINE
  5
52D
100
AcDbEntity
  8
RACCORDO
100
AcDbLine
 62
250
  6
CONTINUOUS
 10
20.684427508
 20
-4.7055685286
 11
20.6682921625
 21
-5.4617618788
  0
LINE
  5
52E
100
AcDbEntity
  8
RACCORDO
100
AcDbLine
 62
250
  6
CONTINUOUS
 10
20.0706674101
 20
-4.3044904786
 11
20.0532521201
 21
-5.0443875016
  0
LINE
  5
52F
100
AcDbEntity
  8
RACCORDO
100
AcDbLine
 62
250
  6
CONTINUOUS
 10
20.7023613442
 20
-3.9847232933
 11
20.684427508
 21
-4.7055685286
  0
LINE
  5
530
100
AcDbEntity
  8
RACCORDO
100
AcDbLine
 62
250
  6
CONTINUOUS
 10
20.0897248426
 20
-3.6017076742
 11
20.0706674101
 21
-4.3044904786
  0
LINE
  5
531
100
AcDbEntity
  8
RACCORDO
100
AcDbLine
 62
250
  6
CONTINUOUS
 10
20.7217732247
 20
-3.3048962307
 11
20.7023613442
 21
-3.9847232933
  0
LINE
  5
532
100
AcDbEntity
  8
RACCORDO
100
AcDbLine
 62
250
  6
CONTINUOUS
 10
20.1100706522
 20
-2.9438365236
 11
20.0897248426
 21
-3.6017076742
  0
LINE
  5
533
100
AcDbEntity
  8
RACCORDO
100
AcDbLine
 62
250
  6
CONTINUOUS
 10
20.742595807
 20
-2.6657091439
 11
20.7217732247
 21
-3.3048962307
  0
LINE
  5
534
100
AcDbEntity
  8
RACCORDO
100
AcDbLine
 62
250
  6
CONTINUOUS
 10
20.1318779782
 20
-2.3187436307
 11
20.1100706522
 21
-2.9438365236
  0
LINE
  5
535
100
AcDbEntity
  8
RACCORDO
100
AcDbLine
 62
250
  6
CONTINUOUS
 10
20.7648746241
 20
-2.0577059122
 11
20.742595807
 21
-2.6657091439
  0
LINE
  5
536
100
AcDbEntity
  8
RACCORDO
100
AcDbLine
 62
250
  6
CONTINUOUS
 10
20.1552366736
 20
-1.7195086359
 11
20.1318779782
 21
-2.3187436307
  0
LINE
  5
537
100
AcDbEntity
  8
RACCORDO
100
AcDbLine
 62
250
  6
CONTINUOUS
 10
20.7889820428
 20
-1.4677708033
 11
20.7648746241
 21
-2.0577059122
  0
LINE
  5
538
100
AcDbEntity
  8
RACCORDO
100
AcDbLine
 62
250
  6
CONTINUOUS
 10
20.1805466811
 20
-1.1329998847
 11
20.1552366736
 21
-1.7195086359
  0
LINE
  5
539
100
AcDbEntity
  8
RACCORDO
100
AcDbLine
 62
250
  6
CONTINUOUS
 10
20.8151367899
 20
-0.8893894445
 11
20.7889820428
 21
-1.4677708033
  0
LINE
  5
53A
100
AcDbEntity
  8
RACCORDO
100
AcDbLine
 62
250
  6
CONTINUOUS
 10
20.2081089773
 20
-0.5523497907
 11
20.1805466811
 21
-1.1329998847
  0
LINE
  5
53B
100
AcDbEntity
  8
RACCORDO
100
AcDbLine
 62
250
  6
CONTINUOUS
 10
20.8437055498
 20
-0.3143544759
 11
20.8151367899
 21
-0.8893894445
  0
LINE
  5
53C
100
AcDbEntity
  8
RACCORDO
100
AcDbLine
 62
250
  6
CONTINUOUS
 10
20.2381376537
 20
0.0258786528
 11
20.2081089773
 21
-0.5523497907
  0
LINE
  5
53D
100
AcDbEntity
  8
RACCORDO
100
AcDbLine
 62
250
  6
CONTINUOUS
 10
20.8748889939
 20
0.2595503362
 11
20.8437055498
 21
-0.3143544759
  0
LINE
  5
53E
100
AcDbEntity
  8
RACCORDO
100
AcDbLine
 62
250
  6
CONTINUOUS
 10
20.2708227065
 20
0.6043136366
 11
20.2381376537
 21
0.0258786528
  0
LWPOLYLINE
  5
53F
100
AcDbEntity
  8
RACCORDO
100
AcDbPolyline
 62
250
  6
CONTINUOUS
 90
12
 70
0
 10
21.5450052177
 20
7.0327398507
 10
21.5436067406
 20
7.0088453546
 10
21.5437037153
 20
6.9861156309
 10
21.5452952896
 20
6.9647493376
 10
21.5483675482
 20
6.944933215
 10
21.5528936345
 20
6.9268404533
 10
21.5588339858
 20
6.9106291795
 10
21.5661366782
 20
6.896441076
 10
21.5747378817
 20
6.8844001413
 10
21.5845624187
 20
6.8746116063
 10
21.5955244187
 20
6.8671610173
 10
21.6021975184
 20
6.8640054708
  0
LINE
  5
540
100
AcDbEntity
  8
RACCORDO
100
AcDbLine
 62
250
  6
CONTINUOUS
 10
20.9088058772
 20
0.8338783378
 11
20.8748889939
 21
0.2595503362
  0
LINE
  5
541
100
AcDbEntity
  8
RACCORDO
100
AcDbLine
 62
250
  6
CONTINUOUS
 10
20.3062673373
 20
1.1841976037
 11
20.2708227065
 21
0.6043136366
  0
LINE
  5
542
100
AcDbEntity
  8
RACCORDO
100
AcDbLine
 62
250
  6
CONTINUOUS
 10
20.9455551153
 20
1.40974679
 11
20.9088058772
 21
0.8338783378
  0
LINE
  5
543
100
AcDbEntity
  8
RACCORDO
100
AcDbLine
 62
250
  6
CONTINUOUS
 10
20.3446171559
 20
1.7671353734
 11
20.3062673373
 21
1.1841976037
  0
LINE
  5
544
100
AcDbEntity
  8
RACCORDO
100
AcDbLine
 62
250
  6
CONTINUOUS
 10
20.9854221429
 20
1.9903087075
 11
20.9455551153
 21
1.40974679
  0
LINE
  5
545
100
AcDbEntity
  8
RACCORDO
100
AcDbLine
 62
250
  6
CONTINUOUS
 10
20.3861506573
 20
2.3561982689
 11
20.3446171559
 21
1.7671353734
  0
LINE
  5
546
100
AcDbEntity
  8
RACCORDO
100
AcDbLine
 62
250
  6
CONTINUOUS
 10
21.0286433742
 20
2.5779229863
 11
20.9854221429
 21
1.9903087075
  0
LINE
  5
547
100
AcDbEntity
  8
RACCORDO
100
AcDbLine
 62
250
  6
CONTINUOUS
 10
20.4312969123
 20
2.9557618805
 11
20.3861506573
 21
2.3561982689
  0
LINE
  5
548
100
AcDbEntity
  8
RACCORDO
100
AcDbLine
 62
250
  6
CONTINUOUS
 10
21.0756480234
 20
3.1768023668
 11
21.0286433742
 21
2.5779229863
  0
LWPOLYLINE
  5
549
100
AcDbEntity
  8
RACCORDO
100
AcDbPolyline
 62
7
  6
CONTINUOUS
 90
12
 70
0
 10
21.6118208538
 20
4.6916779993
 10
21.4522083456
 20
2.7043866752
 10
21.3194930007
 20
0.6803676778
 10
21.2154074731
 20
-1.3787503289
 10
21.1391671811
 20
-3.4725260216
 10
21.0863695745
 20
-5.6026355287
 10
21.0500028358
 20
-7.7726251128
 10
21.0243244355
 20
-9.9858487776
 10
21.006366813
 20
-12.2440878018
 10
20.9944376687
 20
-14.5484064071
 10
20.9882178664
 20
-16.8989756094
 10
20.9871516178
 20
-19.2355977615
  0
LINE
  5
54A
100
AcDbEntity
  8
RACCORDO
100
AcDbLine
 62
250
  6
CONTINUOUS
 10
20.4804158152
 20
3.5686524756
 11
20.4312969123
 21
2.9557618805
  0
LINE
  5
54B
100
AcDbEntity
  8
RACCORDO
100
AcDbLine
 62
250
  6
CONTINUOUS
 10
21.1269952101
 20
3.7911620519
 11
21.0756480234
 21
3.1768023668
  0
LINE
  5
54C
100
AcDbEntity
  8
RACCORDO
100
AcDbLine
 62
250
  6
CONTINUOUS
 10
20.5340548171
 20
4.1991768629
 11
20.4804158152
 21
3.5686524756
  0
LINE
  5
54D
100
AcDbEntity
  8
RACCORDO
100
AcDbLine
 62
250
  6
CONTINUOUS
 10
21.1830872133
 20
4.4237623493
 11
21.1269952101
 21
3.7911620519
  0
LINE
  5
54E
100
AcDbEntity
  8
RACCORDO
100
AcDbLine
 62
250
  6
CONTINUOUS
 10
20.5928268551
 20
4.8513419397
 11
20.5340548171
 21
4.1991768629
  0
LINE
  5
54F
100
AcDbEntity
  8
RACCORDO
100
AcDbLine
 62
250
  6
CONTINUOUS
 10
21.2445777631
 20
5.0787335155
 11
21.1830872133
 21
4.4237623493
  0
LINE
  5
550
100
AcDbEntity
  8
RACCORDO
100
AcDbLine
 62
250
  6
CONTINUOUS
 10
20.6572672261
 20
5.5279162277
 11
20.5928268551
 21
4.8513419397
  0
LWPOLYLINE
  5
551
100
AcDbEntity
  8
RACCORDO
100
AcDbPolyline
 62
250
  6
CONTINUOUS
 90
26
 70
0
 10
21.9187691967
 20
6.428944936
 10
21.8763995023
 20
5.9942913718
 10
21.8343958062
 20
5.5499099472
 10
21.792858259
 20
5.0958585177
 10
21.7522352763
 20
4.6363685243
 10
21.7122632286
 20
4.1673152745
 10
21.6720968956
 20
3.6762933042
 10
21.6314655928
 20
3.156922907
 10
21.5911600454
 20
2.6158842098
 10
21.551982345
 20
2.0603933853
 10
21.5140629998
 20
1.4896277667
 10
21.4776323035
 20
0.9046184513
 10
21.4434379191
 20
0.3152443489
 10
21.4116024167
 20
-0.2771846191
 10
21.3820694939
 20
-0.8739400921
 10
21.3550964098
 20
-1.4691438029
 10
21.3306408501
 20
-2.0614177155
 10
21.308508649
 20
-2.6522764771
 10
21.2885981258
 20
-3.2402566161
 10
21.2707836815
 20
-3.8246623167
 10
21.2548611842
 20
-4.4063798757
 10
21.2405918605
 20
-4.986330136
 10
21.2278153417
 20
-5.5645015508
 10
21.2163707039
 20
-6.1410912731
 10
21.2060340509
 20
-6.7173241214
 10
21.188081324
 20
-7.8697520856
  0
LINE
  5
552
100
AcDbEntity
  8
RACCORDO
100
AcDbLine
 62
7
  6
CONTINUOUS
 10
21.7884870523
 20
6.5706092583
 11
21.7884911496
 21
6.5706501985
  0
LINE
  5
553
100
AcDbEntity
  8
RACCORDO
100
AcDbLine
 62
250
  6
CONTINUOUS
 10
21.3123121237
 20
5.7603464254
 11
21.2445777631
 21
5.0787335155
  0
LWPOLYLINE
  5
554
100
AcDbEntity
  8
RACCORDO
100
AcDbPolyline
 62
250
  6
CONTINUOUS
 90
3
 70
0
 10
20.7661847366
 20
6.5975979498
 10
20.7282057161
 20
6.2338688898
 10
20.6572672261
 20
5.5279162277
  0
LINE
  5
555
100
AcDbEntity
  8
RACCORDO
100
AcDbLine
 62
250
  6
CONTINUOUS
 10
21.3865382704
 20
6.4698962518
 11
21.3123121237
 21
5.7603464254
  0
LWPOLYLINE
  5
556
100
AcDbEntity
  8
RACCORDO
100
AcDbPolyline
 62
7
  6
CONTINUOUS
 90
11
 70
0
 10
18.9655727768
 20
22.9652715124
 10
18.9293730241
 20
22.9635658734
 10
18.8936762057
 20
22.9598690483
 10
18.8586231744
 20
22.9542764089
 10
18.8242640374
 20
22.946984511
 10
18.7908250845
 20
22.9380318452
 10
18.7587160047
 20
22.9272808028
 10
18.7279947364
 20
22.9148138858
 10
18.6988894452
 20
22.9008239223
 10
18.6720500637
 20
22.8853607389
 10
18.6641974884
 20
22.8802520451
  0
LWPOLYLINE
  5
557
100
AcDbEntity
  8
0
100
AcDbPolyline
 62
7
  6
CONTINUOUS
 90
12
 70
0
 10
-4.1439272077
 20
19.9598900371
 10
-4.1638484859
 20
19.9598433435
 10
-4.1838514348
 20
19.9612054671
 10
-4.2038480183
 20
19.9639600466
 10
-4.2239270846
 20
19.9681229743
 10
-4.24398426
 20
19.973344944
 10
-4.2639936259
 20
19.9795826287
 10
-4.2839814835
 20
19.9868791345
 10
-4.3039216375
 20
19.9950148919
 10
-4.3238053968
 20
20.0039166877
 10
-4.3436416047
 20
20.0136576473
 10
-4.3634303053
 20
20.0242377451
  0
LWPOLYLINE
  5
558
100
AcDbEntity
  8
RACCORDO
100
AcDbPolyline
 62
7
  6
CONTINUOUS
 90
5
 70
0
 10
-34.6691620176
 20
39.3573533847
 10
-34.67343855
 20
39.3592145313
 10
-34.6755466713
 20
39.3603143211
 10
-34.6736770439
 20
39.3589545088
 10
-34.6713700895
 20
39.3571220833
  0
LWPOLYLINE
  5
559
100
AcDbEntity
  8
RACCORDO
100
AcDbPolyline
 62
250
  6
CONTINUOUS
 90
37
 70
0
 10
25.7145167951
 20
13.7898786286
 10
25.9136343028
 20
13.6955455517
 10
26.1077115064
 20
13.5946076238
 10
26.2967797397
 20
13.4870829461
 10
26.4801309586
 20
13.3732375853
 10
26.6585374294
 20
13.252842575
 10
26.8342578248
 20
13.1251774365
 10
27.0083727717
 20
12.9897589792
 10
27.1798833866
 20
12.8471176158
 10
27.3479302762
 20
12.6980539654
 10
27.5125250391
 20
12.5425574642
 10
27.6737253833
 20
12.3806787135
 10
27.8307282371
 20
12.213302661
 10
27.9835077487
 20
12.0404651107
 10
28.1321409999
 20
11.8621598535
 10
28.2759645811
 20
11.6792003036
 10
28.4149411207
 20
11.4916759449
 10
28.549138177
 20
11.2995147321
 10
28.6780362164
 20
11.1032799764
 10
28.8016474665
 20
10.903041936
 10
28.9199702082
 20
10.6987364234
 10
29.0324526013
 20
10.4907185035
 10
29.1391865543
 20
10.2788957082
 10
29.240072864
 20
10.0633562914
 10
29.3342599095
 20
9.8447188258
 10
29.4218234422
 20
9.6227121792
 10
29.5026577685
 20
9.3975901864
 10
29.5756186927
 20
9.1707470825
 10
29.6406303814
 20
8.9419656545
 10
29.6977065632
 20
8.7114272383
 10
29.7458116759
 20
8.4811090394
 10
29.7847515204
 20
8.2509300327
 10
29.8146288324
 20
8.0209184064
 10
29.8348310126
 20
7.7932022234
 10
29.8451143596
 20
7.5684680187
 10
29.8456157203
 20
7.3459675289
 10
29.8362857205
 20
7.1256722315
  0
LWPOLYLINE
  5
55A
100
AcDbEntity
  8
RACCORDO
100
AcDbPolyline
 62
250
  6
CONTINUOUS
 90
21
 70
0
 10
17.3638019004
 20
17.7334880146
 10
17.6517948836
 20
17.5863874891
 10
17.9522166878
 20
17.4341640671
 10
18.2651495619
 20
17.2768547387
 10
18.5906501365
 20
17.1145027426
 10
18.9291886308
 20
16.9469628948
 10
19.2807982265
 20
16.7742822698
 10
19.6455599637
 20
16.5964797776
 10
20.0240149827
 20
16.4133674876
 10
20.4162296016
 20
16.2249601975
 10
20.8222317464
 20
16.0312975531
 10
21.242510022
 20
15.8322318146
 10
21.6771316018
 20
15.6277878199
 10
22.1261468679
 20
15.4180086414
 10
22.5900414284
 20
15.2027867094
 10
23.0682325988
 20
14.9825097168
 10
23.5615491976
 20
14.7569321591
 10
24.0725826928
 20
14.5249900878
 10
24.6021651077
 20
14.2863104836
 10
25.1494687631
 20
14.0412688754
 10
25.7145167951
 20
13.7898786286
  0
LINE
  5
55B
100
AcDbEntity
  8
RACCORDO
100
AcDbLine
 62
250
  6
CONTINUOUS
 10
16.8236315633
 20
18.0126716747
 11
17.3638019004
 21
17.7334880146
  0
LINE
  5
55C
100
AcDbEntity
  8
RACCORDO
100
AcDbLine
 62
250
  6
CONTINUOUS
 10
16.3298210904
 20
18.2719557571
 11
16.8236315633
 21
18.0126716747
  0
LINE
  5
55D
100
AcDbEntity
  8
RACCORDO
100
AcDbLine
 62
250
  6
CONTINUOUS
 10
15.8794746215
 20
18.5120808609
 11
16.3298210904
 21
18.2719557571
  0
LINE
  5
55E
100
AcDbEntity
  8
RACCORDO
100
AcDbLine
 62
250
  6
CONTINUOUS
 10
15.4677615878
 20
18.7348816483
 11
15.8794746215
 21
18.5120808609
  0
LINE
  5
55F
100
AcDbEntity
  8
RACCORDO
100
AcDbLine
 62
250
  6
CONTINUOUS
 10
15.0913297069
 20
18.9415252017
 11
15.4677615878
 21
18.7348816483
  0
LINE
  5
560
100
AcDbEntity
  8
RACCORDO
100
AcDbLine
 62
250
  6
CONTINUOUS
 10
14.7450066737
 20
19.1342438736
 11
15.0913297069
 21
18.9415252017
  0
LINE
  5
561
100
AcDbEntity
  8
RACCORDO
100
AcDbLine
 62
250
  6
CONTINUOUS
 10
14.4243181845
 20
19.3150279357
 11
14.7450066737
 21
19.1342438736
  0
LINE
  5
562
100
AcDbEntity
  8
RACCORDO
100
AcDbLine
 62
250
  6
CONTINUOUS
 10
14.1276712939
 20
19.4843779209
 11
14.4243181845
 21
19.3150279357
  0
LINE
  5
563
100
AcDbEntity
  8
RACCORDO
100
AcDbLine
 62
250
  6
CONTINUOUS
 10
-14.2971767726
 20
35.8946093503
 11
13.163481542
 21
20.0384373302
  0
LINE
  5
564
100
AcDbEntity
  8
RACCORDO
100
AcDbLine
 62
250
  6
CONTINUOUS
 10
-25.3782244147
 20
42.2919084769
 11
-14.2971767726
 21
35.8946093503
  0
LINE
  5
565
100
AcDbEntity
  8
RACCORDO
100
AcDbLine
 62
250
  6
CONTINUOUS
 10
13.163481542
 20
20.0384373302
 11
13.36529299
 21
19.9217581523
  0
LINE
  5
566
100
AcDbEntity
  8
RACCORDO
100
AcDbLine
 62
250
  6
CONTINUOUS
 10
-26.58791016
 20
42.9957409829
 11
-26.2289934406
 21
42.7858113854
  0
LINE
  5
567
100
AcDbEntity
  8
RACCORDO
100
AcDbLine
 62
250
  6
CONTINUOUS
 10
-26.9174153825
 20
43.1912482297
 11
-26.58791016
 21
42.9957409829
  0
LINE
  5
568
100
AcDbEntity
  8
RACCORDO
100
AcDbLine
 62
250
  6
CONTINUOUS
 10
-26.572156282
 20
43.6785058771
 11
-26.2448695832
 21
43.4823417295
  0
LINE
  5
569
100
AcDbEntity
  8
RACCORDO
100
AcDbLine
 62
250
  6
CONTINUOUS
 10
-27.2275177369
 20
43.3776448047
 11
-26.9174153825
 21
43.1912482297
  0
LINE
  5
56A
100
AcDbEntity
  8
RACCORDO
100
AcDbLine
 62
250
  6
CONTINUOUS
 10
-26.8802559631
 20
43.8654013226
 11
-26.572156282
 21
43.6785058771
  0
LINE
  5
56B
100
AcDbEntity
  8
RACCORDO
100
AcDbLine
 62
250
  6
CONTINUOUS
 10
-27.5330928723
 20
43.5635749016
 11
-27.2275177369
 21
43.3776448047
  0
LINE
  5
56C
100
AcDbEntity
  8
RACCORDO
100
AcDbLine
 62
250
  6
CONTINUOUS
 10
-27.1838849784
 20
44.0517184116
 11
-26.8802559631
 21
43.8654013226
  0
LINE
  5
56D
100
AcDbEntity
  8
RACCORDO
100
AcDbLine
 62
250
  6
CONTINUOUS
 10
-27.8463188084
 20
43.7564513963
 11
-27.5330928723
 21
43.5635749016
  0
LINE
  5
56E
100
AcDbEntity
  8
RACCORDO
100
AcDbLine
 62
250
  6
CONTINUOUS
 10
-27.4950991698
 20
44.2448859657
 11
-27.1838849784
 21
44.0517184116
  0
LINE
  5
56F
100
AcDbEntity
  8
RACCORDO
100
AcDbLine
 62
250
  6
CONTINUOUS
 10
-28.1742383446
 20
43.9608205922
 11
-27.8463188084
 21
43.7564513963
  0
LINE
  5
570
100
AcDbEntity
  8
RACCORDO
100
AcDbLine
 62
250
  6
CONTINUOUS
 10
-27.8209132822
 20
44.4494876209
 11
-27.4950991698
 21
44.2448859657
  0
LINE
  5
571
100
AcDbEntity
  8
RACCORDO
100
AcDbLine
 62
250
  6
CONTINUOUS
 10
-28.5199863009
 20
44.1789549442
 11
-28.1742383446
 21
43.9608205922
  0
LINE
  5
572
100
AcDbEntity
  8
RACCORDO
100
AcDbLine
 62
250
  6
CONTINUOUS
 10
-28.1644831536
 20
44.6678434031
 11
-27.8209132822
 21
44.4494876209
  0
LINE
  5
573
100
AcDbEntity
  8
RACCORDO
100
AcDbLine
 62
250
  6
CONTINUOUS
 10
-28.8847079403
 20
44.4119397909
 11
-28.5199863009
 21
44.1789549442
  0
LINE
  5
574
100
AcDbEntity
  8
RACCORDO
100
AcDbLine
 62
250
  6
CONTINUOUS
 10
-28.5269825926
 20
44.9010850596
 11
-28.1644831536
 21
44.6678434031
  0
LINE
  5
575
100
AcDbEntity
  8
RACCORDO
100
AcDbLine
 62
250
  6
CONTINUOUS
 10
-29.2689562344
 20
44.6605008127
 11
-28.8847079403
 21
44.4119397909
  0
LINE
  5
576
100
AcDbEntity
  8
RACCORDO
100
AcDbLine
 62
250
  6
CONTINUOUS
 10
-28.9089890293
 20
45.1499822689
 11
-28.5269825926
 21
44.9010850596
  0
LINE
  5
577
100
AcDbEntity
  8
RACCORDO
100
AcDbLine
 62
250
  6
CONTINUOUS
 10
-29.6734009379
 20
44.9254415508
 11
-29.2689562344
 21
44.6605008127
  0
LINE
  5
578
100
AcDbEntity
  8
RACCORDO
100
AcDbLine
 62
250
  6
CONTINUOUS
 10
-29.3111875085
 20
45.4153793871
 11
-28.9089890293
 21
45.1499822689
  0
LINE
  5
579
100
AcDbEntity
  8
RACCORDO
100
AcDbLine
 62
250
  6
CONTINUOUS
 10
-30.0990999545
 20
45.2078229142
 11
-29.6734009379
 21
44.9254415508
  0
LINE
  5
57A
100
AcDbEntity
  8
RACCORDO
100
AcDbLine
 62
250
  6
CONTINUOUS
 10
-29.7346484009
 20
45.6983774134
 11
-29.3111875085
 21
45.4153793871
  0
LINE
  5
57B
100
AcDbEntity
  8
RACCORDO
100
AcDbLine
 62
250
  6
CONTINUOUS
 10
-30.5476399904
 20
45.5090640183
 11
-30.0990999545
 21
45.2078229142
  0
LINE
  5
57C
100
AcDbEntity
  8
RACCORDO
100
AcDbLine
 62
250
  6
CONTINUOUS
 10
-30.1809696114
 20
46.0004361706
 11
-29.7346484009
 21
45.6983774134
  0
LINE
  5
57D
100
AcDbEntity
  8
RACCORDO
100
AcDbLine
 62
250
  6
CONTINUOUS
 10
-31.0212095562
 20
45.8310163122
 11
-30.5476399904
 21
45.5090640183
  0
LINE
  5
57E
100
AcDbEntity
  8
RACCORDO
100
AcDbLine
 62
250
  6
CONTINUOUS
 10
-30.6523473044
 20
46.3234428578
 11
-30.1809696114
 21
46.0004361706
  0
LINE
  5
57F
100
AcDbEntity
  8
RACCORDO
100
AcDbLine
 62
250
  6
CONTINUOUS
 10
-31.522537431
 20
46.1759405368
 11
-31.0212095562
 21
45.8310163122
  0
LINE
  5
580
100
AcDbEntity
  8
RACCORDO
100
AcDbLine
 62
250
  6
CONTINUOUS
 10
-31.1515183866
 20
46.6696916912
 11
-30.6523473044
 21
46.3234428578
  0
LINE
  5
581
100
AcDbEntity
  8
RACCORDO
100
AcDbLine
 62
250
  6
CONTINUOUS
 10
-32.0546927508
 20
46.5463840424
 11
-31.522537431
 21
46.1759405368
  0
LINE
  5
582
100
AcDbEntity
  8
RACCORDO
100
AcDbLine
 62
250
  6
CONTINUOUS
 10
-31.6815530671
 20
47.0417547518
 11
-31.1515183866
 21
46.6696916912
  0
LINE
  5
583
100
AcDbEntity
  8
RACCORDO
100
AcDbLine
 62
250
  6
CONTINUOUS
 10
-32.6207770047
 20
46.945018387
 11
-32.0546927508
 21
46.5463840424
  0
LINE
  5
584
100
AcDbEntity
  8
RACCORDO
100
AcDbLine
 62
250
  6
CONTINUOUS
 10
-33.0183990306
 20
47.2277074868
 11
-32.6207770047
 21
46.945018387
  0
LINE
  5
585
100
AcDbEntity
  8
RACCORDO
100
AcDbLine
 62
250
  6
CONTINUOUS
 10
-32.2455393989
 20
47.442310475
 11
-31.6815530671
 21
47.0417547518
  0
LINE
  5
586
100
AcDbEntity
  8
RACCORDO
100
AcDbLine
 62
250
  6
CONTINUOUS
 10
-32.8462713928
 20
47.8739588034
 11
-32.2455393989
 21
47.442310475
  0
LINE
  5
587
100
AcDbEntity
  8
RACCORDO
100
AcDbLine
 62
250
  6
CONTINUOUS
 10
-33.2683255752
 20
48.1802093056
 11
-32.8462713928
 21
47.8739588034
  0
LWPOLYLINE
  5
588
100
AcDbEntity
  8
RACCORDO
100
AcDbPolyline
 62
250
  6
CONTINUOUS
 90
20
 70
0
 10
30.4545494083
 20
-50.2856182852
 10
30.4639264614
 20
-50.4938519833
 10
30.4636991464
 20
-50.6943832542
 10
30.4542728351
 20
-50.887066039
 10
30.4361271105
 20
-51.0708046592
 10
30.4096882208
 20
-51.2465966671
 10
30.3749225999
 20
-51.4171929431
 10
30.3316716365
 20
-51.5831880751
 10
30.2801507867
 20
-51.7432904705
 10
30.2205447543
 20
-51.8971355486
 10
30.1529590078
 20
-52.044432755
 10
30.0775058297
 20
-52.1849147772
 10
29.9944009034
 20
-52.318272323
 10
29.9038140162
 20
-52.4442219479
 10
29.805867509
 20
-52.5625696812
 10
29.7007089503
 20
-52.6731408554
 10
29.588581549
 20
-52.7756413527
 10
29.4695785764
 20
-52.869936791
 10
29.3435820679
 20
-52.9560223622
 10
29.2101269728
 20
-53.0339737786
  0
LWPOLYLINE
  5
589
100
AcDbEntity
  8
RACCORDO
100
AcDbPolyline
 62
250
  6
CONTINUOUS
 90
37
 70
0
 10
29.8362857205
 20
-50.3526501475
 10
29.8448182034
 20
-50.5429168964
 10
29.845086963
 20
-50.726074322
 10
29.8371238784
 20
-50.9020953006
 10
29.8208519752
 20
-51.0702083782
 10
29.7964116947
 20
-51.2311310094
 10
29.7641667124
 20
-51.387064607
 10
29.7241879707
 20
-51.538980719
 10
29.6764854994
 20
-51.685838904
 10
29.621333079
 20
-51.8268213359
 10
29.5587252333
 20
-51.9618660387
 10
29.4887374047
 20
-52.0909754592
 10
29.4117532542
 20
-52.2134381885
 10
29.327794122
 20
-52.3291805502
 10
29.236892959
 20
-52.4382300283
 10
29.1394373836
 20
-52.5400384051
 10
29.0355134507
 20
-52.6345492098
 10
28.9250704283
 20
-52.7217888597
 10
28.8082791013
 20
-52.8013433837
 10
28.6852465032
 20
-52.8732417956
 10
28.5558849116
 20
-52.9374386512
 10
28.4200640609
 20
-52.9934158808
 10
28.2777268417
 20
-53.0412780442
 10
28.1289348677
 20
-53.0809167491
 10
27.973723937
 20
-53.1115047249
 10
27.8117734723
 20
-53.1330570484
 10
27.643384615
 20
-53.1455751794
 10
27.4695013322
 20
-53.1482321891
 10
27.2898414498
 20
-53.140880452
 10
27.1046265463
 20
-53.1237191499
 10
26.9155234895
 20
-53.0964694119
 10
26.722504262
 20
-53.0590042948
 10
26.5255003205
 20
-53.0115328983
 10
26.3260922752
 20
-52.9543020851
 10
26.1247660687
 20
-52.8874289651
 10
25.9209244545
 20
-52.8108911289
 10
25.7145167951
 20
-52.7247316602
  0
LWPOLYLINE
  5
58A
100
AcDbEntity
  8
RACCORDO
100
AcDbPolyline
 62
250
  6
CONTINUOUS
 90
17
 70
0
 10
29.2800810761
 20
-38.8355757112
 10
29.2960917182
 20
-39.4420779728
 10
29.3134908453
 20
-40.0547028967
 10
29.3324474909
 20
-40.6739888925
 10
29.353367991
 20
-41.3063110741
 10
29.376370867
 20
-41.9516654738
 10
29.4015697235
 20
-42.6098585601
 10
29.4294158452
 20
-43.286936583
 10
29.4601004169
 20
-43.9835273093
 10
29.493746633
 20
-44.6987354897
 10
29.5307685886
 20
-45.4362677202
 10
29.5713676283
 20
-46.1963835478
 10
29.615689931
 20
-46.978527743
 10
29.6641107922
 20
-47.7851473421
 10
29.7169034033
 20
-48.6169320227
 10
29.7742137246
 20
-49.4728354817
 10
29.8362857205
 20
-50.3526501475
  0
LINE
  5
58B
100
AcDbEntity
  8
RACCORDO
100
AcDbLine
 62
250
  6
CONTINUOUS
 10
29.2516530249
 20
-37.6387985687
 11
29.2800810761
 21
-38.8355757112
  0
LINE
  5
58C
100
AcDbEntity
  8
RACCORDO
100
AcDbLine
 62
250
  6
CONTINUOUS
 10
29.2267905185
 20
-36.4505768295
 11
29.2516530249
 21
-37.6387985687
  0
LINE
  5
58D
100
AcDbEntity
  8
RACCORDO
100
AcDbLine
 62
250
  6
CONTINUOUS
 10
29.204740927
 20
-35.2664935918
 11
29.2267905185
 21
-36.4505768295
  0
LINE
  5
58E
100
AcDbEntity
  8
RACCORDO
100
AcDbLine
 62
250
  6
CONTINUOUS
 10
29.1847620964
 20
-34.0832933693
 11
29.204740927
 21
-35.2664935918
  0
LWPOLYLINE
  5
58F
100
AcDbEntity
  8
RACCORDO
100
AcDbPolyline
 62
250
  6
CONTINUOUS
 90
16
 70
0
 10
20.5761542955
 20
-18.8991715464
 10
20.5421042729
 20
-18.9164865497
 10
20.5054722697
 20
-18.9319478776
 10
20.4665601994
 20
-18.9454280688
 10
20.4256887669
 20
-18.9568159785
 10
20.383194826
 20
-18.9660177445
 10
20.3394286028
 20
-18.972957561
 10
20.2947508094
 20
-18.9775782372
 10
20.2495296704
 20
-18.979841668
 10
20.2041378891
 20
-18.9797291987
 10
20.1589495746
 20
-18.9772417788
 10
20.1143371596
 20
-18.9723999038
 10
20.0706683298
 20
-18.965243446
 10
20.0283029944
 20
-18.9558313928
 10
19.9875903194
 20
-18.9442413606
 10
19.9488658498
 20
-18.9305689045
  0
LWPOLYLINE
  5
590
100
AcDbEntity
  8
RACCORDO
100
AcDbPolyline
 62
250
  6
CONTINUOUS
 90
37
 70
0
 10
26.0078669261
 20
14.3554638987
 10
26.2217712845
 20
14.2536091254
 10
26.4309814269
 20
14.1433500268
 10
26.6351549779
 20
14.0253705389
 10
26.8328581849
 20
13.9010330568
 10
27.0249580222
 20
13.7703850147
 10
27.2145474625
 20
13.6317323322
 10
27.4024150828
 20
13.4845128592
 10
27.5871506547
 20
13.3297502755
 10
27.7684877068
 20
13.1677671105
 10
27.9461300648
 20
12.9988748751
 10
28.1197914444
 20
12.8233832395
 10
28.2892272463
 20
12.6416289063
 10
28.4541268689
 20
12.4540000817
 10
28.6142524377
 20
12.260792584
 10
28.7694680253
 20
12.0622066226
 10
28.9194529581
 20
11.8586970728
 10
29.0640014167
 20
11.6505275847
 10
29.2031197463
 20
11.4375900788
 10
29.336505173
 20
11.2203298926
 10
29.4639071441
 20
10.9990352766
 10
29.5853357788
 20
10.7733327688
 10
29.7005303096
 20
10.5435413215
 10
29.8091100179
 20
10.3101171749
 10
29.9108170226
 20
10.0728875042
 10
30.0053989423
 20
9.8320675118
 10
30.0923915291
 20
9.5883275229
 10
30.1711980558
 20
9.3422036084
 10
30.2415338627
 20
9.0940389158
 10
30.3030304183
 20
8.844511204
 10
30.3550536652
 20
8.5946771576
 10
30.3973573342
 20
8.3450249683
 10
30.4297299208
 20
8.0961537949
 10
30.4517500259
 20
7.8492617289
 10
30.4632444281
 20
7.6050844674
 10
30.4642020012
 20
7.3639247131
 10
30.4545494083
 20
7.126297762
  0
LWPOLYLINE
  5
591
100
AcDbEntity
  8
RACCORDO
100
AcDbPolyline
 62
250
  6
CONTINUOUS
 90
20
 70
0
 10
17.9609238527
 20
18.1060463384
 10
18.2601931589
 20
17.9556592592
 10
18.5720040045
 20
17.8002446232
 10
18.8963346978
 20
17.6398011755
 10
19.2338076049
 20
17.4742604079
 10
19.5844129523
 20
17.3036411062
 10
19.9481605135
 20
17.1279244845
 10
20.3257019741
 20
16.9469856782
 10
20.7170635425
 20
16.7608071687
 10
21.1222190105
 20
16.5694064744
 10
21.5417414391
 20
16.3727112859
 10
21.9756106756
 20
16.1706940829
 10
22.4238468728
 20
15.9633823857
 10
22.8870835503
 20
15.7507864452
 10
23.3646027633
 20
15.5332355414
 10
23.8571224567
 20
15.3104003944
 10
24.3674299842
 20
15.0813034155
 10
24.896454464
 20
14.8456187418
 10
25.4432667779
 20
14.6036722362
 10
26.0078669261
 20
14.3554638987
  0
LWPOLYLINE
  5
592
100
AcDbEntity
  8
RACCORDO
100
AcDbPolyline
 62
250
  6
CONTINUOUS
 90
3
 70
0
 10
17.1362988713
 20
18.5271664415
 10
17.3992573437
 20
18.391798805
 10
17.9609238527
 20
18.1060463384
  0
LINE
  5
593
100
AcDbEntity
  8
RACCORDO
100
AcDbLine
 62
250
  6
CONTINUOUS
 10
16.6448131987
 20
18.7832617364
 11
17.1362988713
 21
18.5271664415
  0
LINE
  5
594
100
AcDbEntity
  8
RACCORDO
100
AcDbLine
 62
250
  6
CONTINUOUS
 10
16.1967078196
 20
19.0203194425
 11
16.6448131987
 21
18.7832617364
  0
LINE
  5
595
100
AcDbEntity
  8
RACCORDO
100
AcDbLine
 62
250
  6
CONTINUOUS
 10
15.787104963
 20
19.2400949599
 11
16.1967078196
 21
19.0203194425
  0
LINE
  5
596
100
AcDbEntity
  8
RACCORDO
100
AcDbLine
 62
250
  6
CONTINUOUS
 10
15.4127803649
 20
19.4438059204
 11
15.787104963
 21
19.2400949599
  0
LINE
  5
597
100
AcDbEntity
  8
RACCORDO
100
AcDbLine
 62
250
  6
CONTINUOUS
 10
15.0684690133
 20
19.6335777813
 11
15.4127803649
 21
19.4438059204
  0
LINE
  5
598
100
AcDbEntity
  8
RACCORDO
100
AcDbLine
 62
250
  6
CONTINUOUS
 10
14.7494820161
 20
19.8114510061
 11
15.0684690133
 21
19.6335777813
  0
LINE
  5
599
100
AcDbEntity
  8
RACCORDO
100
AcDbLine
 62
250
  6
CONTINUOUS
 10
14.4543660484
 20
19.978049056
 11
14.7494820161
 21
19.8114510061
  0
LINE
  5
59A
100
AcDbEntity
  8
RACCORDO
100
AcDbLine
 62
250
  6
CONTINUOUS
 10
-25.4736559849
 20
42.3468946802
 11
-25.3782244147
 21
42.2919084769
  0
LINE
  5
59B
100
AcDbEntity
  8
RACCORDO
100
AcDbLine
 62
250
  6
CONTINUOUS
 10
2.4608573786
 20
26.8752581681
 11
13.698177392
 21
20.4065762081
  0
LINE
  5
59C
100
AcDbEntity
  8
DRAFT
100
AcDbLine
 62
7
  6
CONTINUOUS
 10
-21.6075919739
 20
45.0149790204
 11
17.3539916694
 21
22.5190489281
  0
LINE
  5
59D
100
AcDbEntity
  8
ASSI
100
AcDbLine
 62
7
  6
CONTINUOUS
 10
-20.8032284232
 20
44.7628815243
 11
17.9337680036
 21
22.3966252761
  0
LINE
  5
59E
100
AcDbEntity
  8
RACCORDO
100
AcDbLine
 62
250
  6
CONTINUOUS
 10
-25.1407440165
 20
42.8317420707
 11
-24.5294401116
 21
42.4757803411
  0
LINE
  5
59F
100
AcDbEntity
  8
RACCORDO
100
AcDbLine
 62
250
  6
CONTINUOUS
 10
-24.5294401116
 20
42.4757803411
 11
2.4608573786
 21
26.8752581681
  0
LINE
  5
5A0
100
AcDbEntity
  8
RACCORDO
100
AcDbLine
 62
250
  6
CONTINUOUS
 10
-26.2448695832
 20
43.4823417295
 11
-25.8878724047
 21
43.2711547647
  0
LWPOLYLINE
  5
5A1
100
AcDbEntity
  8
RACCORDO
100
AcDbPolyline
 62
7
  6
CONTINUOUS
 90
23
 70
0
 10
-20.7630216769
 20
45.3160340467
 10
-20.7075432092
 20
45.2807063705
 10
-20.6531422631
 20
45.2436927259
 10
-20.599835549
 20
45.205004557
 10
-20.5476418766
 20
45.1646553087
 10
-20.4965821655
 20
45.1226603963
 10
-20.4466734423
 20
45.0790338702
 10
-20.3979319726
 20
45.0337900735
 10
-20.3503770162
 20
44.9869456511
 10
-20.3040244982
 20
44.9385163793
 10
-20.2588895136
 20
44.8885182163
 10
-20.2149896011
 20
44.8369687619
 10
-20.1723394965
 20
44.7838853401
 10
-20.1309532018
 20
44.7292855162
 10
-20.0908467245
 20
44.6731878363
 10
-20.0520335704
 20
44.6156110328
 10
-20.0145266693
 20
44.5565742678
 10
-19.9783407515
 20
44.496097265
 10
-19.9434880947
 20
44.4342001297
 10
-19.9099804948
 20
44.370903567
 10
-19.8778315269
 20
44.3062287308
 10
-19.8470529694
 20
44.240197182
 10
-19.8299015943
 20
44.2008948119
  0
LWPOLYLINE
  5
5A2
100
AcDbEntity
  8
RACCORDO
100
AcDbPolyline
 62
7
  6
CONTINUOUS
 90
10
 70
0
 10
-20.8195593606
 20
45.3496642137
 10
-20.8329322103
 20
45.3586585618
 10
-20.8450416143
 20
45.3695557153
 10
-20.8557915104
 20
45.3822906236
 10
-20.8651242735
 20
45.396830729
 10
-20.8729238669
 20
45.4130421578
 10
-20.8790616128
 20
45.4306427318
 10
-20.8835084053
 20
45.4494108554
 10
-20.8862892717
 20
45.4692346124
 10
-20.8874166769
 20
45.489945903
  0
LWPOLYLINE
  5
5A3
100
AcDbEntity
  8
RACCORDO
100
AcDbPolyline
 62
250
  6
CONTINUOUS
 90
3
 70
0
 10
-18.2797935347
 20
43.7516086106
 10
-18.2923978458
 20
43.7602330913
 10
-18.3060162299
 20
43.7733309013
  0
LWPOLYLINE
  5
5A4
100
AcDbEntity
  8
RACCORDO
100
AcDbPolyline
 62
250
  6
CONTINUOUS
 90
18
 70
0
 10
18.1341140321
 20
22.5292900399
 10
18.1261257681
 20
22.5381303689
 10
18.0723160706
 20
22.5943111752
 10
18.0160391759
 20
22.6500602483
 10
17.9585186302
 20
22.7044150607
 10
17.8998952205
 20
22.7573743493
 10
17.8401902533
 20
22.8091220089
 10
17.7804752201
 20
22.8590097485
 10
17.721187592
 20
22.9068405189
 10
17.6620354618
 20
22.9529873706
 10
17.6029921324
 20
22.9976546049
 10
17.5439149581
 20
23.0410664291
 10
17.4850429944
 20
23.0831205221
 10
17.4269124314
 20
23.123520542
 10
17.3694327674
 20
23.1623818608
 10
17.3127643805
 20
23.1996807343
 10
17.2578146655
 20
23.2349061492
 10
17.2048983899
 20
23.2679042938
  0
LWPOLYLINE
  5
5A5
100
AcDbEntity
  8
RACCORDO
100
AcDbPolyline
 62
250
  6
CONTINUOUS
 90
20
 70
0
 10
29.8188896289
 20
-36.9863062805
 10
29.8322111243
 20
-37.5811597227
 10
29.8465485858
 20
-38.1777418465
 10
29.8619492574
 20
-38.7768205307
 10
29.8789461212
 20
-39.3826456379
 10
29.8974993098
 20
-39.9945686174
 10
29.9176486906
 20
-40.6132380199
 10
29.9400468488
 20
-41.2448493599
 10
29.9646670684
 20
-41.8895255864
 10
29.9915360654
 20
-42.5471437503
 10
30.0213865726
 20
-43.223530519
 10
30.0542057109
 20
-43.9194770712
 10
30.0900063594
 20
-44.6341922281
 10
30.129559888
 20
-45.371129121
 10
30.1728524891
 20
-46.1307237898
 10
30.2198979703
 20
-46.9125401945
 10
30.2715091235
 20
-47.7187233454
 10
30.3279568796
 20
-48.5499882458
 10
30.3889703079
 20
-49.4056198924
 10
30.4545494083
 20
-50.2856182852
  0
LINE
  5
5A6
100
AcDbEntity
  8
RACCORDO
100
AcDbLine
 62
250
  6
CONTINUOUS
 10
29.7950450174
 20
-35.8021428518
 11
29.8188896289
 21
-36.9863062805
  0
LINE
  5
5A7
100
AcDbEntity
  8
RACCORDO
100
AcDbLine
 62
250
  6
CONTINUOUS
 10
29.7738169515
 20
-34.6198796343
 11
29.7950450174
 21
-35.8021428518
  0
LINE
  5
5A8
100
AcDbEntity
  8
RACCORDO
100
AcDbLine
 62
250
  6
CONTINUOUS
 10
29.7451347127
 20
-32.8426339342
 11
29.7738169515
 21
-34.6198796343
  0
LINE
  5
5A9
100
AcDbEntity
  8
RACCORDO
100
AcDbLine
 62
250
  6
CONTINUOUS
 10
29.1576206399
 20
-32.3000749079
 11
29.1847620964
 21
-34.0832933693
  0
LINE
  5
5AA
100
AcDbEntity
  8
RACCORDO
100
AcDbLine
 62
250
  6
CONTINUOUS
 10
29.7196528342
 20
-31.0404615399
 11
29.7451347127
 21
-32.8426339342
  0
LINE
  5
5AB
100
AcDbEntity
  8
RACCORDO
100
AcDbLine
 62
250
  6
CONTINUOUS
 10
29.1338454106
 20
-30.4813892079
 11
29.1576206399
 21
-32.3000749079
  0
LINE
  5
5AC
100
AcDbEntity
  8
RACCORDO
100
AcDbLine
 62
250
  6
CONTINUOUS
 10
29.7046541997
 20
-29.8065382466
 11
29.7196528342
 21
-31.0404615399
  0
LINE
  5
5AD
100
AcDbEntity
  8
RACCORDO
100
AcDbLine
 62
250
  6
CONTINUOUS
 10
29.1200842024
 20
-29.2301371143
 11
29.1338454106
 21
-30.4813892079
  0
LINE
  5
5AE
100
AcDbEntity
  8
RACCORDO
100
AcDbLine
 62
250
  6
CONTINUOUS
 10
29.6914870021
 20
-28.5349680075
 11
29.7046541997
 21
-29.8065382466
  0
LINE
  5
5AF
100
AcDbEntity
  8
RACCORDO
100
AcDbLine
 62
250
  6
CONTINUOUS
 10
29.1082312561
 20
-27.9321930569
 11
29.1200842024
 21
-29.2301371143
  0
LINE
  5
5B0
100
AcDbEntity
  8
RACCORDO
100
AcDbLine
 62
250
  6
CONTINUOUS
 10
29.6804856812
 20
-27.2122116491
 11
29.6914870021
 21
-28.5349680075
  0
LINE
  5
5B1
100
AcDbEntity
  8
RACCORDO
100
AcDbLine
 62
250
  6
CONTINUOUS
 10
29.0986314588
 20
-26.5792594932
 11
29.1082312561
 21
-27.9321930569
  0
LINE
  5
5B2
100
AcDbEntity
  8
RACCORDO
100
AcDbLine
 62
250
  6
CONTINUOUS
 10
29.6723033947
 20
-25.8276754059
 11
29.6804856812
 21
-27.2122116491
  0
LINE
  5
5B3
100
AcDbEntity
  8
RACCORDO
100
AcDbLine
 62
250
  6
CONTINUOUS
 10
29.0916919477
 20
-25.1611703167
 11
29.0986314588
 21
-26.5792594932
  0
LINE
  5
5B4
100
AcDbEntity
  8
RACCORDO
100
AcDbLine
 62
250
  6
CONTINUOUS
 10
29.6669634966
 20
-24.3723036931
 11
29.6723033947
 21
-25.8276754059
  0
LINE
  5
5B5
100
AcDbEntity
  8
RACCORDO
100
AcDbLine
 62
250
  6
CONTINUOUS
 10
29.0874921542
 20
-23.6593228319
 11
29.0916919477
 21
-25.1611703167
  0
LINE
  5
5B6
100
AcDbEntity
  8
RACCORDO
100
AcDbLine
 62
250
  6
CONTINUOUS
 10
29.0850489597
 20
-22.0693048459
 11
29.0874921542
 21
-23.6593228319
  0
LWPOLYLINE
  5
5B7
100
AcDbEntity
  8
RACCORDO
100
AcDbPolyline
 62
250
  6
CONTINUOUS
 90
3
 70
0
 10
29.6631086612
 20
-22.0208292216
 10
29.6638199668
 20
-22.826411048
 10
29.6669634966
 20
-24.3723036931
  0
LINE
  5
5B8
100
AcDbEntity
  8
RACCORDO
100
AcDbLine
 62
250
  6
CONTINUOUS
 10
29.0886467174
 20
-19.9558328683
 11
29.0850490594
 21
-22.0693046885
  0
LINE
  5
5B9
100
AcDbEntity
  8
RACCORDO
100
AcDbLine
 62
250
  6
CONTINUOUS
 10
29.6663765299
 20
-19.9082906087
 11
29.6631086612
 21
-22.0208292216
  0
LINE
  5
5BA
100
AcDbEntity
  8
RACCORDO
100
AcDbLine
 62
250
  6
CONTINUOUS
 10
29.6705382412
 20
-18.5946756844
 11
29.6663765299
 21
-19.9082906087
  0
LINE
  5
5BB
100
AcDbEntity
  8
RACCORDO
100
AcDbLine
 62
250
  6
CONTINUOUS
 10
29.0930202358
 20
-18.6414939647
 11
29.0886467174
 21
-19.9558328683
  0
LINE
  5
5BC
100
AcDbEntity
  8
RACCORDO
100
AcDbLine
 62
250
  6
CONTINUOUS
 10
29.099537717
 20
-17.3967450163
 11
29.0930202358
 21
-18.6414939647
  0
LINE
  5
5BD
100
AcDbEntity
  8
RACCORDO
100
AcDbLine
 62
250
  6
CONTINUOUS
 10
29.6768811344
 20
-17.3508266826
 11
29.6705382412
 21
-18.5946756844
  0
LINE
  5
5BE
100
AcDbEntity
  8
RACCORDO
100
AcDbLine
 62
250
  6
CONTINUOUS
 10
29.1079446062
 20
-16.2174700756
 11
29.099537717
 21
-17.3967450163
  0
LINE
  5
5BF
100
AcDbEntity
  8
RACCORDO
100
AcDbLine
 62
250
  6
CONTINUOUS
 10
29.6854017025
 20
-16.1724623216
 11
29.6768811344
 21
-17.3508266826
  0
LINE
  5
5C0
100
AcDbEntity
  8
RACCORDO
100
AcDbLine
 62
250
  6
CONTINUOUS
 10
29.12330451
 20
-14.5544087006
 11
29.1079446062
 21
-16.2174700756
  0
LINE
  5
5C1
100
AcDbEntity
  8
RACCORDO
100
AcDbLine
 62
250
  6
CONTINUOUS
 10
29.7011274404
 20
-14.5106411113
 11
29.6854017025
 21
-16.1724623216
  0
LINE
  5
5C2
100
AcDbEntity
  8
RACCORDO
100
AcDbLine
 62
250
  6
CONTINUOUS
 10
29.1415618661
 20
-12.9667322991
 11
29.12330451
 21
-14.5544087006
  0
LINE
  5
5C3
100
AcDbEntity
  8
RACCORDO
100
AcDbLine
 62
250
  6
CONTINUOUS
 10
29.7198599
 20
-12.9240780178
 11
29.7011274404
 21
-14.5106411113
  0
LINE
  5
5C4
100
AcDbEntity
  8
RACCORDO
100
AcDbLine
 62
250
  6
CONTINUOUS
 10
29.1628336025
 20
-11.389254796
 11
29.1415618661
 21
-12.9667322991
  0
LINE
  5
5C5
100
AcDbEntity
  8
RACCORDO
100
AcDbLine
 62
250
  6
CONTINUOUS
 10
29.7495569948
 20
-10.8156958375
 11
29.7198599
 21
-12.9240780178
  0
LINE
  5
5C6
100
AcDbEntity
  8
RACCORDO
100
AcDbLine
 62
250
  6
CONTINUOUS
 10
29.1961969182
 20
-9.2390644401
 11
29.1628336025
 21
-11.389254796
  0
LINE
  5
5C7
100
AcDbEntity
  8
RACCORDO
100
AcDbLine
 62
250
  6
CONTINUOUS
 10
29.7848986273
 20
-8.6517073995
 11
29.7495569948
 21
-10.8156958375
  0
LINE
  5
5C8
100
AcDbEntity
  8
RACCORDO
100
AcDbLine
 62
250
  6
CONTINUOUS
 10
29.2255694731
 20
-7.590763985
 11
29.1961969182
 21
-9.2390644401
  0
LINE
  5
5C9
100
AcDbEntity
  8
RACCORDO
100
AcDbLine
 62
250
  6
CONTINUOUS
 10
29.805381229
 20
-7.5516018692
 11
29.7848986273
 21
-8.6517073995
  0
LINE
  5
5CA
100
AcDbEntity
  8
RACCORDO
100
AcDbLine
 62
250
  6
CONTINUOUS
 10
29.2479511887
 20
-6.4819992559
 11
29.2255694731
 21
-7.590763985
  0
LINE
  5
5CB
100
AcDbEntity
  8
RACCORDO
100
AcDbLine
 62
250
  6
CONTINUOUS
 10
29.8283720642
 20
-6.444203001
 11
29.805381229
 21
-7.5516018692
  0
LINE
  5
5CC
100
AcDbEntity
  8
RACCORDO
100
AcDbLine
 62
250
  6
CONTINUOUS
 10
29.2730210027
 20
-5.3699040046
 11
29.2479511887
 21
-6.4819992559
  0
LWPOLYLINE
  5
5CD
100
AcDbEntity
  8
RACCORDO
100
AcDbPolyline
 62
250
  6
CONTINUOUS
 90
22
 70
0
 10
29.8362857205
 20
7.1256722315
 10
29.796624167
 20
6.519943202
 10
29.7587323563
 20
5.923460074
 10
29.7225584129
 20
5.3361928798
 10
29.6882193536
 20
4.7609334388
 10
29.6555022241
 20
4.1948345099
 10
29.6239071012
 20
3.6294346328
 10
29.5932917397
 20
3.0619717822
 10
29.5638227484
 20
2.4952220579
 10
29.5355102723
 20
1.9290582161
 10
29.5083637957
 20
1.363423351
 10
29.4823937226
 20
0.7983858576
 10
29.4576088806
 20
0.2340048847
 10
29.4340131521
 20
-0.3297390632
 10
29.4116028346
 20
-0.8928263867
 10
29.3903687665
 20
-1.4551431146
 10
29.3703135068
 20
-2.0166640817
 10
29.3514189132
 20
-2.5774234555
 10
29.3336424973
 20
-3.1373975788
 10
29.3169788455
 20
-3.6965775488
 10
29.3013906595
 20
-4.2549969424
 10
29.2730210027
 20
-5.3699040046
  0
LWPOLYLINE
  5
5CE
100
AcDbEntity
  8
RACCORDO
100
AcDbPolyline
 62
250
  6
CONTINUOUS
 90
24
 70
0
 10
30.4545494083
 20
7.126297762
 10
30.4124779213
 20
6.5226635949
 10
30.3721811178
 20
5.928157386
 10
30.3336589976
 20
5.3427791352
 10
30.2971034528
 20
4.769343385
 10
30.2623225913
 20
4.2050355929
 10
30.2287407373
 20
3.6414121316
 10
30.1961574591
 20
3.0756966324
 10
30.1647731883
 20
2.510665464
 10
30.1346135441
 20
1.9462041048
 10
30.1056793549
 20
1.3822552223
 10
30.0779697924
 20
0.818876149
 10
30.051507991
 20
0.2561243606
 10
30.0263026229
 20
-0.306014116
 10
30.0023450159
 20
-0.8675253076
 10
29.9796322872
 20
-1.4283098197
 10
29.9581795902
 20
-1.98832784
 10
29.9379717714
 20
-2.5476191807
 10
29.9189604882
 20
-3.1062038832
 10
29.9011870814
 20
-3.664040842
 10
29.8846102103
 20
-4.2211711625
 10
29.8690575095
 20
-4.7777382029
 10
29.8545472955
 20
-5.3338972652
 10
29.8283720642
 20
-6.444203001
  0
LWPOLYLINE
  5
5CF
100
AcDbEntity
  8
RACCORDO
100
AcDbPolyline
 62
250
  6
CONTINUOUS
 90
15
 70
0
 10
8.0508879453
 20
-33.7811020919
 10
8.0902191711
 20
-33.7576279208
 10
8.1426424771
 20
-33.7198780425
 10
8.1915519126
 20
-33.6766948049
 10
8.2367819884
 20
-33.6282243248
 10
8.2781796657
 20
-33.5746306047
 10
8.3156048701
 20
-33.5160949828
 10
8.348930962
 20
-33.4528155283
 10
8.3780451724
 20
-33.3850063668
 10
8.4028489875
 20
-33.3128969472
 10
8.4232584814
 20
-33.2367312627
 10
8.4392045958
 20
-33.1567670326
 10
8.4506333745
 20
-33.0732748304
 10
8.4575061467
 20
-32.9865371682
 10
8.4597996575
 20
-32.8968475389
  0
LINE
  5
5D0
100
AcDbEntity
  8
RACCORDO
100
AcDbLine
 62
250
  6
CONTINUOUS
 10
8.6051751919
 20
-32.8157895433
 11
8.4597996575
 21
-32.8968475389
  0
LWPOLYLINE
  5
5D1
100
AcDbEntity
  8
RACCORDO
100
AcDbPolyline
 62
250
  6
CONTINUOUS
 90
16
 70
0
 10
29.6631086612
 20
-22.0208292216
 10
29.6320280955
 20
-22.0368015489
 10
29.5987610865
 20
-22.0512267721
 10
29.5635376223
 20
-22.0640051996
 10
29.5266012171
 20
-22.07504854
 10
29.4882072313
 20
-22.0842804454
 10
29.448621107
 20
-22.0916370395
 10
29.4081165249
 20
-22.0970674492
 10
29.366973518
 20
-22.1005341546
 10
29.3254765406
 20
-22.1020131829
 10
29.2839124883
 20
-22.1014942742
 10
29.2425687226
 20
-22.098981019
 10
29.2017310905
 20
-22.0944908338
 10
29.1616819351
 20
-22.0880547526
 10
29.1226981435
 20
-22.0797172106
 10
29.0850492405
 20
-22.0695358051
  0
LWPOLYLINE
  5
5D2
100
AcDbEntity
  8
RACCORDO
100
AcDbPolyline
 62
250
  6
CONTINUOUS
 90
20
 70
0
 10
-18.5028120826
 20
43.8776183823
 10
-18.547498048
 20
43.8978819858
 10
-18.5896581889
 20
43.9151538499
 10
-18.6294459489
 20
43.9293722905
 10
-18.6668295876
 20
43.9404402505
 10
-18.7008758003
 20
43.947699601
 10
-18.7316256905
 20
43.9509067824
 10
-18.7592297347
 20
43.9500664691
 10
-18.7829114642
 20
43.9449056366
 10
-18.8025570499
 20
43.9351877603
 10
-18.8184803208
 20
43.920918341
 10
-18.8305045554
 20
43.902244042
 10
-18.838652136
 20
43.8790713229
 10
-18.8430760532
 20
43.8513130853
 10
-18.8437450376
 20
43.8191903823
 10
-18.8406673953
 20
43.7825266064
 10
-18.8339823857
 20
43.7413685235
 10
-18.8237841545
 20
43.696355309
 10
-18.8101017893
 20
43.6477163896
 10
-18.7957536786
 20
43.6037907663
  0
LINE
  5
5D3
100
AcDbEntity
  8
RACCORDO
100
AcDbLine
 62
250
  6
CONTINUOUS
 10
-18.4562750406
 20
43.854944408
 11
-18.5028120826
 21
43.8776183823
  0
LWPOLYLINE
  5
5D4
100
AcDbEntity
  8
RACCORDO
100
AcDbPolyline
 62
250
  6
CONTINUOUS
 90
3
 70
0
 10
-18.3580138514
 20
43.8028650666
 10
-18.4080958988
 20
43.8300752574
 10
-18.4562750406
 20
43.854944408
  0
LINE
  5
5D5
100
AcDbEntity
  8
RACCORDO
100
AcDbLine
 62
250
  6
CONTINUOUS
 10
-18.3060162299
 20
43.7733309013
 11
-18.3580138514
 21
43.8028650666
  0
LINE
  5
5D6
100
AcDbEntity
  8
RACCORDO
100
AcDbLine
 62
7
  6
CONTINUOUS
 10
17.1305873092
 20
23.3060985023
 11
-18.2876751887
 21
43.7561452405
  0
LINE
  5
5D7
100
AcDbEntity
  8
RACCORDO
100
AcDbLine
 62
250
  6
CONTINUOUS
 10
17.1043381476
 20
23.3278360797
 11
-18.3060162299
 21
43.7733309013
  0
LINE
  5
5D8
100
AcDbEntity
  8
RACCORDO
100
AcDbLine
 62
7
  6
CONTINUOUS
 10
18.3995387541
 20
22.7050484929
 11
-20.8195593606
 21
45.3496642137
  0
LINE
  5
5D9
100
AcDbEntity
  8
RACCORDO
100
AcDbLine
 62
250
  6
CONTINUOUS
 10
18.9655727768
 20
22.9652715124
 11
-20.8803217235
 21
45.9717916105
  0
LINE
  5
5DA
100
AcDbEntity
  8
RACCORDO
100
AcDbLine
 62
7
  6
CONTINUOUS
 10
-18.27976713
 20
43.7515933594
 11
-18.2797935347
 21
43.7516086106
  0
LWPOLYLINE
  5
5DB
100
AcDbEntity
  8
RACCORDO
100
AcDbPolyline
 62
7
  6
CONTINUOUS
 90
20
 70
0
 10
17.1306034257
 20
23.3060891988
 10
17.160692433
 20
23.2885172369
 10
17.2062878728
 20
23.2611622329
 10
17.2547985794
 20
23.2311569856
 10
17.3059615683
 20
23.1985815443
 10
17.3593017081
 20
23.1636447486
 10
17.414517409
 20
23.1264377515
 10
17.4713268417
 20
23.0870550621
 10
17.5292376365
 20
23.0457344536
 10
17.5879383054
 20
23.0025808961
 10
17.6470543159
 20
22.9577490727
 10
17.7060114804
 20
22.9115632205
 10
17.7645120692
 20
22.8641420506
 10
17.8222341622
 20
22.8156192593
 10
17.8786109347
 20
22.7663711663
 10
17.9333897195
 20
22.7165234911
 10
17.986319451
 20
22.6661953512
 10
18.0368888533
 20
22.6158053657
 10
18.0849174448
 20
22.5654829344
 10
18.1238013036
 20
22.5224611763
  0
LINE
  5
5DC
100
AcDbEntity
  8
RACCORDO
100
AcDbLine
 62
250
  6
CONTINUOUS
 10
17.1537366488
 20
23.2988770268
 11
17.1043381476
 21
23.3278360797
  0
LINE
  5
5DD
100
AcDbEntity
  8
RACCORDO
100
AcDbLine
 62
250
  6
CONTINUOUS
 10
17.2048983899
 20
23.2679042938
 11
17.1537366488
 21
23.2988770268
  0
LWPOLYLINE
  5
5DE
100
AcDbEntity
  8
RACCORDO
100
AcDbPolyline
 62
250
  6
CONTINUOUS
 90
3
 70
0
 10
17.1305873092
 20
23.3060985023
 10
17.1179560244
 20
23.3147386847
 10
17.1043381476
 20
23.3278360797
  0
LINE
  5
5DF
100
AcDbEntity
  8
DRAFT
100
AcDbLine
 62
7
  6
CONTINUOUS
 10
8.6433127952
 20
-33.4557255194
 11
8.0508879453
 21
-33.7811020919
  0
LINE
  5
5E0
100
AcDbEntity
  8
RACCORDO
100
AcDbLine
 62
7
  6
CONTINUOUS
 10
-25.4180954769
 20
56.2918704126
 11
36.6105569206
 21
20.4773039199
  0
LINE
  5
5E1
100
AcDbEntity
  8
RACCORDO
100
AcDbLine
 62
7
  6
CONTINUOUS
 10
40.852551433
 20
13.1299539066
 11
40.852551433
 21
-44.6939092888
  0
LWPOLYLINE
  5
5E2
100
AcDbEntity
  8
RACCORDO
100
AcDbPolyline
 62
7
  6
CONTINUOUS
 90
3
 70
0
 10
-27.4865748813
 20
34.1259882168
 10
-27.4632355358
 20
34.1304032048
 10
-27.4427170047
 20
34.1362898102
  0
LWPOLYLINE
  5
5E3
100
AcDbEntity
  8
RACCORDO
100
AcDbPolyline
 62
7
  6
CONTINUOUS
 90
11
 70
0
 10
-34.2760507656
 20
38.6087663453
 10
-34.3009398034
 20
38.6066511473
 10
-34.3232546621
 20
38.6031613004
 10
-34.3429952417
 20
38.5982969237
 10
-34.3602454543
 20
38.5919845746
 10
-34.3749210104
 20
38.5842981454
 10
-34.3867694611
 20
38.5754588125
 10
-34.3956986644
 20
38.5654815318
 10
-34.4018001744
 20
38.5543520506
 10
-34.4050971139
 20
38.5422477011
 10
-34.4054246918
 20
38.539682361
  0
LINE
  5
5E4
100
AcDbEntity
  8
RACCORDO
100
AcDbLine
 62
7
  6
CONTINUOUS
 10
-34.2760193014
 20
38.6087679704
 11
-33.7831422091
 21
38.6342234008
  0
LWPOLYLINE
  5
5E5
100
AcDbEntity
  8
RACCORDO
100
AcDbPolyline
 62
7
  6
CONTINUOUS
 90
16
 70
0
 10
-18.5559483574
 20
43.8826209055
 10
-18.5587618865
 20
43.8828941132
 10
-18.5580363335
 20
43.8827617088
 10
-18.5538423828
 20
43.8818528303
 10
-18.5466117566
 20
43.8799612682
 10
-18.5362719115
 20
43.876830387
 10
-18.5227864533
 20
43.872233782
 10
-18.5066423248
 20
43.8661721081
 10
-18.4878773142
 20
43.8585385124
 10
-18.466416536
 20
43.8491925744
 10
-18.4425375939
 20
43.8381672118
 10
-18.416248657
 20
43.8254018503
 10
-18.3874943127
 20
43.8108115848
 10
-18.3564402763
 20
43.7944175854
 10
-18.3231623894
 20
43.7762064744
 10
-18.2876751887
 20
43.7561452405
  0
LWPOLYLINE
  5
5E6
100
AcDbEntity
  8
RACCORDO
100
AcDbPolyline
 62
250
  6
CONTINUOUS
 90
5
 70
0
 10
21.6212989235
 20
-50.4215781716
 10
21.6345830584
 20
-50.3988183661
 10
21.6499898216
 20
-50.3779190023
 10
21.6673694106
 20
-50.3590832931
 10
21.686552845
 20
-50.342494381
  0
LWPOLYLINE
  5
5E7
100
AcDbEntity
  8
RACCORDO
100
AcDbPolyline
 62
250
  6
CONTINUOUS
 90
16
 70
0
 10
-25.8224487553
 20
42.7107061157
 10
-25.8453324667
 20
42.7068654696
 10
-25.8700517967
 20
42.7043551953
 10
-25.8963515741
 20
42.7032011973
 10
-25.9239603135
 20
42.7034153803
 10
-25.952593025
 20
42.7049955258
 10
-25.9819541572
 20
42.7079253167
 10
-26.0117406335
 20
42.7121745047
 10
-26.0416449924
 20
42.7176992228
 10
-26.0713585678
 20
42.7244424411
 10
-26.1005746525
 20
42.7323345508
 10
-26.1289916777
 20
42.741294085
 10
-26.1563163369
 20
42.7512285647
 10
-26.1822665894
 20
42.7620354458
 10
-26.2065745732
 20
42.7736031755
 10
-26.2289893833
 20
42.7858123498
  0
LWPOLYLINE
  5
5E8
100
AcDbEntity
  8
RACCORDO
100
AcDbPolyline
 62
250
  6
CONTINUOUS
 90
16
 70
0
 10
21.9241143371
 20
-47.1321203051
 10
21.8893346268
 20
-47.1561404698
 10
21.8518010843
 20
-47.1781192458
 10
21.8118444143
 20
-47.1978629814
 10
21.7698166701
 20
-47.2151977184
 10
21.7260881549
 20
-47.229970723
 10
21.6810441594
 20
-47.2420518324
 10
21.6350815615
 20
-47.2513346031
 10
21.5886053319
 20
-47.257737248
 10
21.5420249693
 20
-47.2612033559
 10
21.4957508871
 20
-47.26170239
 10
21.4501907988
 20
-47.2592299558
 10
21.4057461282
 20
-47.2538078404
 10
21.3628084698
 20
-47.2454838202
 10
21.3217561381
 20
-47.2343312393
 10
21.2829508363
 20
-47.2204483641
  0
LINE
  5
5E9
100
AcDbEntity
  8
RACCORDO
100
AcDbLine
 62
250
  6
CONTINUOUS
 10
22.1622552421
 20
-46.99933851
 11
21.9241143371
 21
-47.1321203051
  0
LWPOLYLINE
  5
5EA
100
AcDbEntity
  8
RACCORDO
100
AcDbPolyline
 62
7
  6
CONTINUOUS
 90
17
 70
0
 10
21.6874506021
 20
-50.3391676546
 10
21.6609270056
 20
-50.3574409144
 10
21.6359630974
 20
-50.3782576186
 10
21.6128671586
 20
-50.4014685823
 10
21.591877087
 20
-50.4269360514
 10
21.573172763
 20
-50.4545565803
 10
21.5569855812
 20
-50.4841237576
 10
21.5435248413
 20
-50.51538669
 10
21.5329266575
 20
-50.5481879146
 10
21.5253242958
 20
-50.5823305093
 10
21.5208422742
 20
-50.6174835971
 10
21.519542586
 20
-50.6533746862
 10
21.5214506534
 20
-50.6898580788
 10
21.5265695174
 20
-50.7267195085
 10
21.5348782962
 20
-50.7637652729
 10
21.5463614318
 20
-50.8009259737
 10
21.5524954388
 20
-50.8174862531
  0
LINE
  5
5EB
100
AcDbEntity
  8
RACCORDO
100
AcDbLine
 62
250
  6
CONTINUOUS
 10
21.686552845
 20
-50.342494381
 11
21.7073536029
 21
-50.3283135659
  0
LINE
  5
5EC
100
AcDbEntity
  8
RACCORDO
100
AcDbLine
 62
7
  6
CONTINUOUS
 10
21.9722055324
 20
-50.1649557577
 11
21.6874506021
 21
-50.3391676546
  0
LINE
  5
5ED
100
AcDbEntity
  8
RACCORDO
100
AcDbLine
 62
250
  6
CONTINUOUS
 10
21.7073535764
 20
-50.3283134841
 11
21.9658339102
 21
-50.1703628734
  0
LINE
  5
5EE
100
AcDbEntity
  8
RACCORDO
100
AcDbLine
 62
7
  6
CONTINUOUS
 10
21.848352748
 20
-50.2544566698
 11
21.8459928882
 21
-50.2558837829
  0
LWPOLYLINE
  5
5EF
100
AcDbEntity
  8
RACCORDO
100
AcDbPolyline
 62
250
  6
CONTINUOUS
 90
3
 70
0
 10
21.8459928882
 20
-50.2558837829
 10
21.8006454919
 20
-50.281972231
 10
21.7073535764
 20
-50.3283134841
  0
LINE
  5
5F0
100
AcDbEntity
  8
DRAFT
100
AcDbLine
 62
7
  6
CONTINUOUS
 10
22.4177306489
 20
-48.7956213072
 11
21.0770632786
 21
-49.5319539473
  0
LINE
  5
5F1
100
AcDbEntity
  8
RACCORDO
100
AcDbLine
 62
7
  6
CONTINUOUS
 10
21.0770568128
 20
-49.5319574985
 11
21.0766586785
 21
-49.5321760902
  0
LWPOLYLINE
  5
5F2
100
AcDbEntity
  8
RACCORDO
100
AcDbPolyline
 62
250
  6
CONTINUOUS
 90
16
 70
0
 10
21.6686662853
 20
-50.7717412202
 10
21.6620217457
 20
-50.7753051276
 10
21.6560989467
 20
-50.7795625257
 10
21.6508978257
 20
-50.7845134678
 10
21.6464075468
 20
-50.7901865683
 10
21.6426388274
 20
-50.7965533135
 10
21.6396238742
 20
-50.8035281167
 10
21.637363984
 20
-50.8111081672
 10
21.6358576044
 20
-50.819296493
 10
21.6351325622
 20
-50.8280163557
 10
21.635190057
 20
-50.8372780944
 10
21.6360285527
 20
-50.8470716563
 10
21.6376716774
 20
-50.8572897957
 10
21.6401271496
 20
-50.8678968983
 10
21.6433868353
 20
-50.8789289321
 10
21.6474505456
 20
-50.8903860576
  0
LINE
  5
5F3
100
AcDbEntity
  8
RACCORDO
100
AcDbLine
 62
250
  6
CONTINUOUS
 10
21.7073536444
 20
-50.3283136388
 11
21.6904681019
 21
-50.3373017123
  0
LWPOLYLINE
  5
5F4
100
AcDbEntity
  8
RACCORDO
100
AcDbPolyline
 62
250
  6
CONTINUOUS
 90
16
 70
0
 10
30.4545494083
 20
-50.2856182851
 10
30.4210975699
 20
-50.3057098583
 10
30.3851293637
 20
-50.3239754578
 10
30.3469331504
 20
-50.3402686482
 10
30.3068151514
 20
-50.3544588076
 10
30.2650969969
 20
-50.3664321735
 10
30.2221131477
 20
-50.3760927554
 10
30.1782082086
 20
-50.3833631059
 10
30.1337341678
 20
-50.3881849401
 10
30.0890475784
 20
-50.3905196033
 10
30.0445066946
 20
-50.3903483808
 10
30.0004686015
 20
-50.3876726479
 10
29.9572863541
 20
-50.3825138586
 10
29.9153061448
 20
-50.3749133738
 10
29.8748645273
 20
-50.3649321294
 10
29.8362857205
 20
-50.3526501475
  0
LINE
  5
5F5
100
AcDbEntity
  8
RACCORDO
100
AcDbLine
 62
250
  6
CONTINUOUS
 10
30.4545494083
 20
-50.2856182852
 11
40.852551433
 21
-44.6939092888
  0
LINE
  5
5F6
100
AcDbEntity
  8
RACCORDO
100
AcDbLine
 62
7
  6
CONTINUOUS
 10
29.2099693846
 20
-53.0340585161
 11
39.5575302683
 21
-47.4694751413
  0
ELLIPSE
  5
5F7
100
AcDbEntity
  8
DRAFT
100
AcDbEllipse
 62
7
  6
CONTINUOUS
 10
-23.389231175
 20
40.2514675866
 30
0.0
 11
2.5780217366
 21
4.5159960093
 31
0.0
 40
0.6006155494
 41
-0.0029465731
 42
0.2637828795
  0
ELLIPSE
  5
5F8
100
AcDbEntity
  8
DRAFT
100
AcDbEllipse
 62
7
  6
CONTINUOUS
 10
15.4898095267
 20
17.8031967542
 30
0.0
 11
2.6204953926
 21
4.4914794487
 31
0.0
 40
0.5540306858
 41
0.0730928699
 42
0.2692365279
  0
ELLIPSE
  5
5F9
100
AcDbEntity
  8
RACCORDO
100
AcDbEllipse
 62
7
  6
CONTINUOUS
 10
52.4899364322
 20
35.2830852083
 30
0.0
 11
41.9733507302
 21
23.8103593035
 31
0.0
 40
0.034575876
 41
2.7862545149
 42
2.8480257269
  0
ELLIPSE
  5
5FA
100
AcDbEntity
  8
RACCORDO
100
AcDbEllipse
 62
7
  6
CONTINUOUS
 10
36.6092644727
 20
-42.2423962366
 30
0.0
 11
-3.0010587713
 21
5.1976516967
 31
0.0
 40
0.5771558487
 41
-3.1590397888
 42
-2.3563950755
  0
ELLIPSE
  5
5FB
100
AcDbEntity
  8
RACCORDO
100
AcDbEllipse
 62
7
  6
CONTINUOUS
 10
36.6092644727
 20
15.5784822744
 30
0.0
 11
-3.0001450934
 21
5.1960686503
 31
0.0
 40
0.5775075436
 41
-2.3560905478
 42
-0.7855988075
  0
ELLIPSE
  5
5FC
100
AcDbEntity
  8
RACCORDO
100
AcDbEllipse
 62
7
  6
CONTINUOUS
 10
-25.416803029
 20
51.3915562807
 30
0.0
 11
-3.0010587713
 21
5.1976516967
 31
0.0
 40
0.5771558487
 41
-0.7852941622
 42
0.0174471352
  0
ENDSEC
  0
SECTION
  2
OBJECTS
  0
DICTIONARY
  5
C
100
AcDbDictionary
280
0
281
1
  3
ACAD_GROUP
350
D
  3
ACAD_MLINESTYLE
350
17
  3
ACAD_LAYOUT
350
1A
  3
ACAD_PLOTSETTINGS
350
19
  3
ACAD_PLOTSTYLENAME
350
E
  0
DICTIONARY
  5
D
102
{ACAD_REACTORS
330
C
102
}
100
AcDbDictionary
280
0
281
1
  0
ACDBDICTIONARYWDFLT
  5
E
102
{ACAD_REACTORS
330
C
102
}
100
AcDbDictionary
281
1
  3
Normal
350
F
100
AcDbDictionaryWithDefault
340
F
  0
DICTIONARY
  5
17
102
{ACAD_REACTORS
330
C
102
}
100
AcDbDictionary
280
0
281
1
  3
Standard
350
18
  0
DICTIONARY
  5
19
102
{ACAD_REACTORS
330
C
102
}
100
AcDbDictionary
281
1
  0
DICTIONARY
  5
1A
102
{ACAD_REACTORS
330
C
102
}
100
AcDbDictionary
281
1
  3
Model
350
5FD
  3
Layout1
350
5FE
  0
ACDBPLACEHOLDER
  5
F
102
{ACAD_REACTORS
330
E
102
}
  0
MLINESTYLE
  5
18
102
{ACAD_REACTORS
330
17
102
}
100
AcDbMlineStyle
  2
STANDARD
 70
0
  3

 62
256
 51
90.0
 52
90.0
 71
2
 49
0.5
 62
256
  6
BYLAYER
 49
-0.5
 62
256
  6
BYLAYER
  0
LAYOUT
  5
5FD
102
{ACAD_REACTORS
330
1A
102
}
100
AcDbPlotSettings
  1

  2
none_device
  4
ISO_A4_(297.00_x_210.00_MM)
  6

 40
0.0
 41
0.0
 42
0.0
 43
0.0
 44
297.0
 45
210.0
 46
0.0
 47
0.0
 48
0.0
 49
0.0
140
0.0
141
0.0
142
1.0
143
1.0
 70
1024
 72
1
 73
0
 74
0
  7

 75
0
147
1.0
148
0.0
149
0.0
100
AcDbLayout
  1
Model
 70
0
 71
0
 10
0.0
 20
0.0
 11
297.0
 21
210.0
 12
0.0
 22
0.0
 32
0.0
 14
0.0
 24
0.0
 34
0.0
 15
0.0
 25
0.0
 35
0.0
146
0.0
 13
0.0
 23
0.0
 33
0.0
 16
1.0
 26
0.0
 36
0.0
 17
0.0
 27
1.0
 37
0.0
 76
0
330
217
345
0
346
0
  0
LAYOUT
  5
5FE
102
{ACAD_REACTORS
330
1A
102
}
100
AcDbPlotSettings
  1

  2
none_device
  4
ISO_A4_(297.00_x_210.00_MM)
  6

 40
0.0
 41
0.0
 42
0.0
 43
0.0
 44
297.0
 45
210.0
 46
0.0
 47
0.0
 48
0.0
 49
0.0
140
0.0
141
0.0
142
1.0
143
1.0
 70
0
 72
1
 73
0
 74
0
  7

 75
0
147
1.0
148
0.0
149
0.0
100
AcDbLayout
  1
Layout1
 70
0
 71
1
 10
0.0
 20
0.0
 11
297.0
 21
210.0
 12
0.0
 22
0.0
 32
0.0
 14
0.0
 24
0.0
 34
0.0
 15
0.0
 25
0.0
 35
0.0
146
0.0
 13
0.0
 23
0.0
 33
0.0
 16
1.0
 26
0.0
 36
0.0
 17
0.0
 27
1.0
 37
0.0
 76
0
330
218
345
0
346
0
  0
ENDSEC
  0
EOF
