  0
SECTION
  2
HEADER
  9
$ACADVER
  1
AC1024
  9
$DWGCODEPAGE
  3
ANSI_1252
  9
$EXTMAX
 10
297.0
 20
210.0
 30
0.0
  9
$EXTMIN
 10
0.0
 20
0.0
 30
0.0
  9
$LIMMIN
 10
0.0
 20
0.0
  9
$LIMMAX
 10
297.0
 20
210.0
  9
$VIEWCTR
 10
148.5
 20
105.0
  9
$VIEWSIZE
 40
210.0
  9
$CLAYER
  8
0
  9
$LTSCALE
 40
16.335
  9
$CELTYPE
  6
BYLAYER
  9
$DIMSCALE
 40
1.0
  9
$DIMASZ
 40
3.0
  9
$DIMEXO
 40
0.5
  9
$DIMDLI
 40
11.286
  9
$DIMEXE
 40
1.5
  9
$DIMCEN
 40
2.673
  9
$DIMLFAC
 40
1.0
  9
$DIMBLK
  1
_FILLED
  9
$DIMALT
 70
0
  9
$DIMALTF
 40
0.0393700787
  9
$DIMTXT
 40
3.0
  9
$DIMTOL
 70
1
  9
$DIMLIM
 70
0
  9
$DIMTFAC
 40
1.0
  9
$DIMTP
 40
0.01
  9
$DIMTM
 40
0.01
  9
$DIMGAP
 40
0.625
  9
$DIMDSEP
 70
44
  9
$AUNITS
 70
0
  9
$PDMODE
 70
3
  9
$PDSIZE
 40
3.0
  9
$HANDSEED
  5
63F
  9
$TILEMODE
 70
1
  9
$MEASUREMENT
 70
1
  9
$INSUNITS
 70
4
  0
ENDSEC
  0
SECTION
  2
CLASSES
  0
CLASS
  1
ACDBDICTIONARYWDFLT
  2
AcDbDictionaryWithDefault
  3
AutoCAD 2000
 90
0
 91
1
280
0
281
0
  0
CLASS
  1
ACDBPLACEHOLDER
  2
AcDbPlaceHolder
  3
AutoCAD 2000
 90
0
 91
1
280
0
281
0
  0
CLASS
  1
LAYOUT
  2
AcDbLayout
  3
AutoCAD 2000
 90
0
 91
0
280
0
281
0
  0
ENDSEC
  0
SECTION
  2
TABLES
  0
TABLE
  2
VPORT
  5
8
100
AcDbSymbolTable
 70
2
  0
VPORT
  5
1F4
100
AcDbSymbolTableRecord
100
AcDbViewportTableRecord
  2
*ACTIVE
 70
0
 10
0.0
 20
0.0
 11
1.0
 21
1.0
 12
148.5
 22
105.0
 13
0.0
 23
0.0
 14
1.0
 24
1.0
 15
0.0
 25
0.0
 16
0.0
 26
0.0
 36
1.0
 17
0.0
 27
0.0
 37
0.0
 40
210.0
 41
1.4142857143
 42
50.0
 43
0.0
 44
0.0
 50
0.0
 51
0.0
 71
0
 72
100
 73
1
 74
1
 75
0
 76
0
 77
0
 78
0
  0
ENDTAB
  0
TABLE
  2
LTYPE
  5
5
100
AcDbSymbolTable
 70
6
  0
LTYPE
  5
14
100
AcDbSymbolTableRecord
100
AcDbLinetypeTableRecord
  2
BYBLOCK
 70
0
  3

 72
65
 73
0
 40
0.0
  0
LTYPE
  5
15
100
AcDbSymbolTableRecord
100
AcDbLinetypeTableRecord
  2
BYLAYER
 70
0
  3

 72
65
 73
0
 40
0.0
  0
LTYPE
  5
16
100
AcDbSymbolTableRecord
100
AcDbLinetypeTableRecord
  2
CONTINUOUS
 70
64
  3
Solid line
 72
65
 73
0
 40
0.0
  0
LTYPE
  5
1F5
100
AcDbSymbolTableRecord
100
AcDbLinetypeTableRecord
  2
CENTER
 70
64
  3
____ _ ____ _ ____ _ ____ _ ____ _ ____ _ ____
 72
65
 73
4
 40
0.6
 49
0.375
 74
0
 49
-0.075
 74
0
 49
0.075
 74
0
 49
-0.075
 74
0
  0
LTYPE
  5
1F6
100
AcDbSymbolTableRecord
100
AcDbLinetypeTableRecord
  2
HIDDEN
 70
64
  3
- - - - - - - - - - - - - - - - - - - -
 72
65
 73
2
 40
0.2
 49
0.1
 74
0
 49
-0.1
 74
0
  0
LTYPE
  5
1F7
100
AcDbSymbolTableRecord
100
AcDbLinetypeTableRecord
  2
PHANTOM
 70
64
  3
_____ _ _ _____ _ _ _____ _ _ _____
 72
65
 73
6
 40
0.8
 49
0.45
 74
0
 49
-0.05
 74
0
 49
0.1
 74
0
 49
-0.05
 74
0
 49
0.1
 74
0
 49
-0.05
 74
0
  0
LTYPE
  5
1F8
100
AcDbSymbolTableRecord
100
AcDbLinetypeTableRecord
  2
DOT
 70
64
  3
. . . . . . . . . . . . . . . . . . . .
 72
65
 73
2
 40
0.2
 49
0.1
 74
0
 49
-0.1
 74
0
  0
LTYPE
  5
1F9
100
AcDbSymbolTableRecord
100
AcDbLinetypeTableRecord
  2
DASHED
 70
64
  3
- - - - - - - - - - - - - - - - - - - -
 72
65
 73
2
 40
0.2
 49
0.1
 74
0
 49
-0.1
 74
0
  0
ENDTAB
  0
TABLE
  2
LAYER
  5
2
100
AcDbSymbolTable
 70
36
  0
LAYER
  5
10
100
AcDbSymbolTableRecord
100
AcDbLayerTableRecord
  2
0
 70
0
 62
7
  6
CONTINUOUS
370
-3
390
F
  0
LAYER
  5
1FA
100
AcDbSymbolTableRecord
100
AcDbLayerTableRecord
  2
DEFAULT_1
 70
0
 62
7
  6
CENTER
370
-3
390
F
  0
LAYER
  5
1FB
100
AcDbSymbolTableRecord
100
AcDbLayerTableRecord
  2
DEFAULT_2
 70
0
 62
7
  6
HIDDEN
370
-3
390
F
  0
LAYER
  5
1FC
100
AcDbSymbolTableRecord
100
AcDbLayerTableRecord
  2
DEFAULT_3
 70
0
 62
7
  6
PHANTOM
370
-3
390
F
  0
LAYER
  5
1FD
100
AcDbSymbolTableRecord
100
AcDbLayerTableRecord
  2
ASSI
 70
0
 62
7
  6
CONTINUOUS
370
-3
390
F
  0
LAYER
  5
1FE
100
AcDbSymbolTableRecord
100
AcDbLayerTableRecord
  2
COLOR5
 70
0
 62
7
  6
CONTINUOUS
370
-3
390
F
  0
LAYER
  5
1FF
100
AcDbSymbolTableRecord
100
AcDbLayerTableRecord
  2
COORDINATE
 70
0
 62
7
  6
CONTINUOUS
370
-3
390
F
  0
LAYER
  5
200
100
AcDbSymbolTableRecord
100
AcDbLayerTableRecord
  2
COORD_ORIGINE
 70
0
 62
7
  6
CONTINUOUS
370
-3
390
F
  0
LAYER
  5
201
100
AcDbSymbolTableRecord
100
AcDbLayerTableRecord
  2
COPY_PUBLISH
 70
0
 62
7
  6
CONTINUOUS
370
-3
390
F
  0
LAYER
  5
202
100
AcDbSymbolTableRecord
100
AcDbLayerTableRecord
  2
COSMETICI
 70
0
 62
7
  6
CONTINUOUS
370
-3
390
F
  0
LAYER
  5
203
100
AcDbSymbolTableRecord
100
AcDbLayerTableRecord
  2
CURVE
 70
0
 62
7
  6
CONTINUOUS
370
-3
390
F
  0
LAYER
  5
204
100
AcDbSymbolTableRecord
100
AcDbLayerTableRecord
  2
DRAFT
 70
0
 62
7
  6
CONTINUOUS
370
-3
390
F
  0
LAYER
  5
205
100
AcDbSymbolTableRecord
100
AcDbLayerTableRecord
  2
IMPORT_IGES
 70
0
 62
7
  6
CONTINUOUS
370
-3
390
F
  0
LAYER
  5
206
100
AcDbSymbolTableRecord
100
AcDbLayerTableRecord
  2
INTF_1
 70
0
 62
7
  6
CONTINUOUS
370
-3
390
F
  0
LAYER
  5
207
100
AcDbSymbolTableRecord
100
AcDbLayerTableRecord
  2
INTF_11
 70
0
 62
7
  6
CONTINUOUS
370
-3
390
F
  0
LAYER
  5
208
100
AcDbSymbolTableRecord
100
AcDbLayerTableRecord
  2
INTF_2
 70
0
 62
7
  6
CONTINUOUS
370
-3
390
F
  0
LAYER
  5
209
100
AcDbSymbolTableRecord
100
AcDbLayerTableRecord
  2
INTF_8
 70
0
 62
7
  6
CONTINUOUS
370
-3
390
F
  0
LAYER
  5
20A
100
AcDbSymbolTableRecord
100
AcDbLayerTableRecord
  2
NOTE
 70
0
 62
7
  6
CONTINUOUS
370
-3
390
F
  0
LAYER
  5
20B
100
AcDbSymbolTableRecord
100
AcDbLayerTableRecord
  2
PIANI
 70
0
 62
7
  6
CONTINUOUS
370
-3
390
F
  0
LAYER
  5
20C
100
AcDbSymbolTableRecord
100
AcDbLayerTableRecord
  2
PIANI_ORIGINE
 70
0
 62
7
  6
CONTINUOUS
370
-3
390
F
  0
LAYER
  5
20D
100
AcDbSymbolTableRecord
100
AcDbLayerTableRecord
  2
PUNTI
 70
0
 62
7
  6
CONTINUOUS
370
-3
390
F
  0
LAYER
  5
20E
100
AcDbSymbolTableRecord
100
AcDbLayerTableRecord
  2
RACCORDO
 70
0
 62
7
  6
CONTINUOUS
370
-3
390
F
  0
LAYER
  5
20F
100
AcDbSymbolTableRecord
100
AcDbLayerTableRecord
  2
SIMBOLI
 70
0
 62
7
  6
CONTINUOUS
370
-3
390
F
  0
LAYER
  5
210
100
AcDbSymbolTableRecord
100
AcDbLayerTableRecord
  2
SMUSSO
 70
0
 62
7
  6
CONTINUOUS
370
-3
390
F
  0
LAYER
  5
211
100
AcDbSymbolTableRecord
100
AcDbLayerTableRecord
  2
SNAPLINE
 70
0
 62
7
  6
CONTINUOUS
370
-3
390
F
  0
LAYER
  5
212
100
AcDbSymbolTableRecord
100
AcDbLayerTableRecord
  2
SUPERFICI
 70
0
 62
7
  6
CONTINUOUS
370
-3
390
F
  0
LAYER
  5
213
100
AcDbSymbolTableRecord
100
AcDbLayerTableRecord
  2
SVILUPPO
 70
0
 62
7
  6
CONTINUOUS
370
-3
390
F
  0
LAYER
  5
214
100
AcDbSymbolTableRecord
100
AcDbLayerTableRecord
  2
TESTO
 70
0
 62
7
  6
CONTINUOUS
370
-3
390
F
  0
LAYER
  5
215
100
AcDbSymbolTableRecord
100
AcDbLayerTableRecord
  2
TRASH
 70
0
 62
7
  6
CONTINUOUS
370
-3
390
F
  0
ENDTAB
  0
TABLE
  2
STYLE
  5
3
100
AcDbSymbolTable
 70
1
  0
STYLE
  5
11
100
AcDbSymbolTableRecord
100
AcDbTextStyleTableRecord
  2
STANDARD
 70
0
 40
0.0
 41
0.8
 50
0.0
 71
0
 42
0.2
  3
txt
  4

  0
STYLE
  5
216
100
AcDbSymbolTableRecord
100
AcDbTextStyleTableRecord
  2
TEXTSTYLE_1
 70
0
 40
0.0
 41
0.8
 50
0.0
 71
0
 42
0.2
  3
gdt
  4

  0
ENDTAB
  0
TABLE
  2
VIEW
  5
6
100
AcDbSymbolTable
 70
0
  0
ENDTAB
  0
TABLE
  2
UCS
  5
7
100
AcDbSymbolTable
 70
0
  0
ENDTAB
  0
TABLE
  2
APPID
  5
9
100
AcDbSymbolTable
 70
1
  0
APPID
  5
217
100
AcDbSymbolTableRecord
100
AcDbRegAppTableRecord
  2
ACAD
 70
0
  0
ENDTAB
  0
TABLE
  2
BLOCK_RECORD
  5
1
100
AcDbSymbolTable
 70
0
  0
BLOCK_RECORD
  5
218
100
AcDbSymbolTableRecord
100
AcDbBlockTableRecord
  2
*Model_Space
  0
BLOCK_RECORD
  5
219
100
AcDbSymbolTableRecord
100
AcDbBlockTableRecord
  2
*Paper_Space
  0
BLOCK_RECORD
  5
21A
100
AcDbSymbolTableRecord
100
AcDbBlockTableRecord
  2
_FILLED
  0
ENDTAB
  0
TABLE
  2
DIMSTYLE
  5
A
100
AcDbSymbolTable
 70
1
100
AcDbDimStyleTable
 71
0
  0
DIMSTYLE
105
21B
100
AcDbSymbolTableRecord
100
AcDbDimStyleTableRecord
  2
STANDARD
 70
0
  3

  4

 40
1.0
 41
3.0
 42
0.5
 43
0.38
 44
1.5
 45
0.0
 46
0.0
 47
0.01
 48
0.01
140
3.0
141
0.09
142
0.0
143
25.4
144
1.0
145
0.0
146
1.0
147
0.625
 71
1
 72
0
 73
0
 74
0
 75
0
 76
0
 77
1
 78
8
 79
2
170
0
171
1
172
0
173
0
174
0
175
0
176
0
177
0
178
0
270
2
179
2
271
2
272
2
273
2
274
2
275
0
280
0
281
0
282
0
283
1
284
8
285
0
286
0
287
3
288
0
340
11
278
44
341
21A
342
21A
343
21A
344
21A
  0
ENDTAB
  0
ENDSEC
  0
SECTION
  2
BLOCKS
  0
BLOCK
  5
20
100
AcDbEntity
  8
0
100
AcDbBlockBegin
  2
*Model_Space
 70
0
 10
0.0
 20
0.0
 30
0.0
  3
*Model_Space
  1

  0
ENDBLK
  5
21
100
AcDbEntity
  8
0
100
AcDbBlockEnd
  0
BLOCK
  5
1C
100
AcDbEntity
  8
0
100
AcDbBlockBegin
  2
*Paper_Space
 70
0
 10
0.0
 20
0.0
 30
0.0
  3
*Paper_Space
  1

  0
ENDBLK
  5
1D
100
AcDbEntity
  8
0
100
AcDbBlockEnd
  0
BLOCK
  5
21C
100
AcDbEntity
  8
0
100
AcDbBlockBegin
  2
_FILLED
 70
64
 10
0.0
 20
0.0
  3
_FILLED
  1

  0
SOLID
  5
21D
100
AcDbEntity
  8
0
  6
BYBLOCK
 62
0
100
AcDbTrace
 10
0.0
 20
0.0
 11
-1.0
 21
0.3166666667
 12
-1.0
 22
-0.3166666667
 13
-1.0
 23
-0.3166666667
  0
ENDBLK
  5
21E
100
AcDbEntity
  8
0
  6
BYBLOCK
 62
0
100
AcDbBlockEnd
  0
ENDSEC
  0
SECTION
  2
ENTITIES
  0
LWPOLYLINE
  5
21F
100
AcDbEntity
  8
RACCORDO
100
AcDbPolyline
 62
7
  6
CONTINUOUS
 90
22
 70
0
 10
-58.2900527706
 20
61.6181992639
 10
-58.3598920694
 20
61.573353728
 10
-58.4781460994
 20
61.4892972957
 10
-58.5923426414
 20
61.3974682994
 10
-58.7022849657
 20
61.2979328129
 10
-58.8077104853
 20
61.1908368487
 10
-58.9083122523
 20
61.0764128702
 10
-59.0039123925
 20
60.954816617
 10
-59.0943785672
 20
60.8261776164
 10
-59.1795303139
 20
60.690704598
 10
-59.2592489971
 20
60.5485581628
 10
-59.33345239
 20
60.3998709015
 10
-59.4020420829
 20
60.2448028236
 10
-59.464934918
 20
60.0835139185
 10
-59.5220763164
 20
59.9161404409
 10
-59.5734105988
 20
59.7427990706
 10
-59.6188749202
 20
59.563641353
 10
-59.6584237223
 20
59.378804988
 10
-59.6920131236
 20
59.1883845463
 10
-59.7195929843
 20
58.9925441594
 10
-59.7411179835
 20
58.7915300377
 10
-59.7520402045
 20
58.6553504736
  0
LINE
  5
220
100
AcDbEntity
  8
RACCORDO
100
AcDbLine
 62
7
  6
CONTINUOUS
 10
-58.2907106458
 20
61.6177960497
 11
-48.3991521181
 21
67.7348842198
  0
LINE
  5
221
100
AcDbEntity
  8
RACCORDO
100
AcDbLine
 62
250
  6
CONTINUOUS
 10
-55.3301931885
 20
61.2951127017
 11
-45.3475063257
 21
67.4685560011
  0
LWPOLYLINE
  5
222
100
AcDbEntity
  8
RACCORDO
100
AcDbPolyline
 62
250
  6
CONTINUOUS
 90
21
 70
0
 10
-58.2900542201
 20
61.6182018277
 10
-58.2464642035
 20
61.6443969306
 10
-58.126205939
 20
61.7093504995
 10
-58.0016095204
 20
61.7661748372
 10
-57.8727902489
 20
61.8147106777
 10
-57.7394751525
 20
61.8548840763
 10
-57.6016983149
 20
61.8864745576
 10
-57.4596758642
 20
61.9092149165
 10
-57.3133584924
 20
61.9228306084
 10
-57.1628086555
 20
61.9270614478
 10
-57.0082681434
 20
61.9216321775
 10
-56.8499526589
 20
61.9061864169
 10
-56.687772395
 20
61.8804213056
 10
-56.5222210788
 20
61.8441177972
 10
-56.354448208
 20
61.7971752977
 10
-56.1846852622
 20
61.7394829065
 10
-56.01329002
 20
61.6710180776
 10
-55.8416847823
 20
61.5921349494
 10
-55.6705864244
 20
61.5031306673
 10
-55.4999740424
 20
61.4040619063
 10
-55.3301931885
 20
61.2951127017
  0
LWPOLYLINE
  5
223
100
AcDbEntity
  8
RACCORDO
100
AcDbPolyline
 62
250
  6
CONTINUOUS
 90
19
 70
0
 10
-55.3301931885
 20
61.2951127017
 10
-55.3595334858
 20
61.279041066
 10
-55.3886635148
 20
61.2606687505
 10
-55.4174107857
 20
61.2401045436
 10
-55.4456050752
 20
61.2174702131
 10
-55.4730794345
 20
61.1928997846
 10
-55.4996711774
 20
61.1665387484
 10
-55.5252228443
 20
61.1385431976
 10
-55.5495831338
 20
61.1090789038
 10
-55.5726077993
 20
61.0783203361
 10
-55.5941605028
 20
61.046449627
 10
-55.6141136225
 20
61.0136554949
 10
-55.6323490079
 20
60.9801321262
 10
-55.6487586803
 20
60.9460780252
 10
-55.6632454715
 20
60.9116948391
 10
-55.6757235993
 20
60.877186164
 10
-55.6861191757
 20
60.8427563389
 10
-55.6943706446
 20
60.8086092357
 10
-55.7004291457
 20
60.7749470523
  0
LWPOLYLINE
  5
224
100
AcDbEntity
  8
RACCORDO
100
AcDbPolyline
 62
250
  6
CONTINUOUS
 90
5
 70
0
 10
-54.1838554172
 20
50.6694823412
 10
-54.1843381519
 20
50.66833097
 10
-54.1886432234
 20
50.6561043194
 10
-54.1924699108
 20
50.6431232408
 10
-54.1958156616
 20
50.6294583514
  0
LINE
  5
225
100
AcDbEntity
  8
RACCORDO
100
AcDbLine
 62
7
  6
CONTINUOUS
 10
-44.7545945837
 20
54.2018575991
 11
-41.5370028228
 21
56.1916646089
  0
LWPOLYLINE
  5
226
100
AcDbEntity
  8
RACCORDO
100
AcDbPolyline
 62
250
  6
CONTINUOUS
 90
19
 70
0
 10
-45.2514520569
 20
54.2955724908
 10
-45.2616649566
 20
54.2896517365
 10
-45.2716914057
 20
54.283091754
 10
-45.2815314061
 20
54.2758925311
 10
-45.2912213305
 20
54.26801698
 10
-45.3007248131
 20
54.2595021436
 10
-45.309932749
 20
54.2504591989
 10
-45.3188280076
 20
54.2409110392
 10
-45.3274277312
 20
54.2308346949
 10
-45.3356742262
 20
54.2202725439
 10
-45.3435752437
 20
54.2092387393
 10
-45.3511230491
 20
54.1977190207
 10
-45.358236721
 20
54.1857131339
 10
-45.3649600346
 20
54.1731426258
 10
-45.3712492386
 20
54.1600857944
 10
-45.3768921221
 20
54.1467775144
 10
-45.381817955
 20
54.1332960333
 10
-45.3860974904
 20
54.119562955
 10
-45.3897307409
 20
54.1055781973
  0
LWPOLYLINE
  5
227
100
AcDbEntity
  8
RACCORDO
100
AcDbPolyline
 62
250
  6
CONTINUOUS
 90
19
 70
0
 10
-45.4558682032
 20
54.6631623313
 10
-45.4813475711
 20
54.6486104324
 10
-45.5066002358
 20
54.6322777862
 10
-45.5315101163
 20
54.6142547145
 10
-45.5559489837
 20
54.5946502077
 10
-45.579823525
 20
54.5735571489
 10
-45.6030724899
 20
54.5510426372
 10
-45.625542746
 20
54.5272664551
 10
-45.647185711
 20
54.5022917465
 10
-45.6680781872
 20
54.4760112617
 10
-45.6880816487
 20
54.4485513085
 10
-45.7071018743
 20
54.4199903418
 10
-45.7252207902
 20
54.3901063052
 10
-45.7423605395
 20
54.3588433975
 10
-45.7582552091
 20
54.3264838411
 10
-45.7726790962
 20
54.2933187183
 10
-45.785468387
 20
54.2595649949
 10
-45.7964994538
 20
54.2253586807
 10
-45.8056323208
 20
54.1908981984
  0
LINE
  5
228
100
AcDbEntity
  8
RACCORDO
100
AcDbLine
 62
250
  6
CONTINUOUS
 10
-45.4558682032
 20
54.6631623313
 11
-40.8280685423
 21
57.1590641582
  0
LINE
  5
229
100
AcDbEntity
  8
RACCORDO
100
AcDbLine
 62
250
  6
CONTINUOUS
 10
-40.8351635023
 20
56.6774183346
 11
-45.2514520569
 21
54.2955724908
  0
LINE
  5
22A
100
AcDbEntity
  8
RACCORDO
100
AcDbLine
 62
250
  6
CONTINUOUS
 10
-54.1958130458
 20
50.6294597582
 11
-54.158270169
 21
50.6496491024
  0
LINE
  5
22B
100
AcDbEntity
  8
RACCORDO
100
AcDbLine
 62
250
  6
CONTINUOUS
 10
-38.2937215651
 20
54.7889657243
 11
-38.1250207002
 21
54.87968759
  0
LINE
  5
22C
100
AcDbEntity
  8
RACCORDO
100
AcDbLine
 62
250
  6
CONTINUOUS
 10
-54.1958130458
 20
50.6294597582
 11
-54.2170271777
 21
50.6215580205
  0
LINE
  5
22D
100
AcDbEntity
  8
RACCORDO
100
AcDbLine
 62
250
  6
CONTINUOUS
 10
-60.3430601627
 20
16.6768358646
 11
-60.3657291118
 21
18.0584226619
  0
LINE
  5
22E
100
AcDbEntity
  8
RACCORDO
100
AcDbLine
 62
250
  6
CONTINUOUS
 10
-60.3657291118
 20
18.0584226619
 11
-60.3855155873
 21
19.4138117573
  0
LINE
  5
22F
100
AcDbEntity
  8
RACCORDO
100
AcDbLine
 62
250
  6
CONTINUOUS
 10
-60.3855155873
 20
19.4138117573
 11
-60.4027362002
 21
20.76064454
  0
LINE
  5
230
100
AcDbEntity
  8
RACCORDO
100
AcDbLine
 62
250
  6
CONTINUOUS
 10
-60.4027362002
 20
20.76064454
 11
-60.4141263172
 21
21.7815121277
  0
LINE
  5
231
100
AcDbEntity
  8
RACCORDO
100
AcDbLine
 62
250
  6
CONTINUOUS
 10
-60.4141263172
 20
21.7815121277
 11
-60.4242994596
 21
22.8304160948
  0
LINE
  5
232
100
AcDbEntity
  8
RACCORDO
100
AcDbLine
 62
250
  6
CONTINUOUS
 10
-60.4242994596
 20
22.8304160948
 11
-60.4332647657
 21
23.9311705659
  0
LINE
  5
233
100
AcDbEntity
  8
RACCORDO
100
AcDbLine
 62
250
  6
CONTINUOUS
 10
-60.4332647657
 20
23.9311705659
 11
-60.4408756091
 21
25.1108423002
  0
LINE
  5
234
100
AcDbEntity
  8
RACCORDO
100
AcDbLine
 62
250
  6
CONTINUOUS
 10
-60.4408756091
 20
25.1108423002
 11
-60.4467444793
 21
26.3914480568
  0
LWPOLYLINE
  5
235
100
AcDbEntity
  8
RACCORDO
100
AcDbPolyline
 62
7
  6
CONTINUOUS
 90
10
 70
0
 10
-60.5251950998
 20
29.4529864259
 10
-60.5169033528
 20
25.9086476592
 10
-60.4919350359
 20
22.4138408175
 10
-60.451380787
 20
19.0286682631
 10
-60.3976522192
 20
15.7516378756
 10
-60.3265861903
 20
12.5849154284
 10
-60.2282136962
 20
9.5347957066
 10
-60.09683899
 20
6.6059837081
 10
-59.9354078354
 20
3.7973224029
 10
-59.7518103307
 20
1.1700054317
  0
LINE
  5
236
100
AcDbEntity
  8
RACCORDO
100
AcDbLine
 62
250
  6
CONTINUOUS
 10
-60.4467444793
 20
26.3914480568
 11
-60.4505615898
 21
27.7835757471
  0
LINE
  5
237
100
AcDbEntity
  8
RACCORDO
100
AcDbLine
 62
250
  6
CONTINUOUS
 10
-60.4505615898
 20
27.7835757471
 11
-60.4524303748
 21
29.3029924958
  0
LINE
  5
238
100
AcDbEntity
  8
RACCORDO
100
AcDbLine
 62
250
  6
CONTINUOUS
 10
-60.4524299991
 20
29.3029926224
 11
-60.450663427
 21
30.7702283736
  0
LINE
  5
239
100
AcDbEntity
  8
RACCORDO
100
AcDbLine
 62
250
  6
CONTINUOUS
 10
-60.450663427
 20
30.7702283736
 11
-60.4469352878
 21
32.1675421077
  0
LINE
  5
23A
100
AcDbEntity
  8
RACCORDO
100
AcDbLine
 62
250
  6
CONTINUOUS
 10
-60.4469352878
 20
32.1675421077
 11
-60.4424188954
 21
33.2175478702
  0
LINE
  5
23B
100
AcDbEntity
  8
RACCORDO
100
AcDbLine
 62
250
  6
CONTINUOUS
 10
-60.4424188954
 20
33.2175478702
 11
-60.4361683693
 21
34.2804660954
  0
LINE
  5
23C
100
AcDbEntity
  8
RACCORDO
100
AcDbLine
 62
250
  6
CONTINUOUS
 10
-60.4361683693
 20
34.2804660954
 11
-60.4280964741
 21
35.3637939202
  0
LINE
  5
23D
100
AcDbEntity
  8
RACCORDO
100
AcDbLine
 62
250
  6
CONTINUOUS
 10
-60.4280964741
 20
35.3637939202
 11
-60.4181550631
 21
36.4680150485
  0
LINE
  5
23E
100
AcDbEntity
  8
RACCORDO
100
AcDbLine
 62
250
  6
CONTINUOUS
 10
-60.4181550631
 20
36.4680150485
 11
-60.4063683496
 21
37.5872525294
  0
LINE
  5
23F
100
AcDbEntity
  8
RACCORDO
100
AcDbLine
 62
250
  6
CONTINUOUS
 10
-60.4063683496
 20
37.5872525294
 11
-60.3928292815
 21
38.7128402566
  0
LINE
  5
240
100
AcDbEntity
  8
RACCORDO
100
AcDbLine
 62
250
  6
CONTINUOUS
 10
-60.3928292815
 20
38.7128402566
 11
-60.3776804506
 21
39.8359892809
  0
LINE
  5
241
100
AcDbEntity
  8
RACCORDO
100
AcDbLine
 62
250
  6
CONTINUOUS
 10
-60.3776804506
 20
39.8359892809
 11
-60.3610986562
 21
40.9488435661
  0
LINE
  5
242
100
AcDbEntity
  8
RACCORDO
100
AcDbLine
 62
250
  6
CONTINUOUS
 10
-60.3610986562
 20
40.9488435661
 11
-60.3432346194
 21
42.0456331556
  0
LWPOLYLINE
  5
243
100
AcDbEntity
  8
RACCORDO
100
AcDbPolyline
 62
250
  6
CONTINUOUS
 90
10
 70
0
 10
-59.7520402045
 20
58.6553504736
 10
-59.7522978808
 20
58.6411642572
 10
-59.7500859091
 20
58.6204776705
 10
-59.7448251814
 20
58.5997917056
 10
-59.7365479816
 20
58.5792332988
 10
-59.7253051035
 20
58.5589286037
 10
-59.7111655397
 20
58.5390022169
 10
-59.6942160577
 20
58.5195764137
 10
-59.6745606674
 20
58.5007703966
 10
-59.6523199829
 20
58.4826995654
  0
LINE
  5
244
100
AcDbEntity
  8
RACCORDO
100
AcDbLine
 62
250
  6
CONTINUOUS
 10
-60.3432346194
 20
42.0456331556
 11
-60.3239084302
 21
43.1246338527
  0
LINE
  5
245
100
AcDbEntity
  8
RACCORDO
100
AcDbLine
 62
250
  6
CONTINUOUS
 10
-60.3239084302
 20
43.1246338527
 11
-60.30271827
 21
44.189226197
  0
LINE
  5
246
100
AcDbEntity
  8
RACCORDO
100
AcDbLine
 62
250
  6
CONTINUOUS
 10
-60.30271827
 20
44.189226197
 11
-60.2791729011
 21
45.2466391102
  0
LINE
  5
247
100
AcDbEntity
  8
RACCORDO
100
AcDbLine
 62
250
  6
CONTINUOUS
 10
-60.2791729011
 20
45.2466391102
 11
-60.2618784519
 21
45.9522864387
  0
LINE
  5
248
100
AcDbEntity
  8
RACCORDO
100
AcDbLine
 62
250
  6
CONTINUOUS
 10
-60.2618784519
 20
45.9522864387
 11
-60.2430479266
 21
46.6619256419
  0
LINE
  5
249
100
AcDbEntity
  8
RACCORDO
100
AcDbLine
 62
250
  6
CONTINUOUS
 10
-60.2430479266
 20
46.6619256419
 11
-60.2223847189
 21
47.3798350077
  0
LINE
  5
24A
100
AcDbEntity
  8
RACCORDO
100
AcDbLine
 62
250
  6
CONTINUOUS
 10
-60.2223847189
 20
47.3798350077
 11
-60.1993877042
 21
48.1154325351
  0
LINE
  5
24B
100
AcDbEntity
  8
RACCORDO
100
AcDbLine
 62
250
  6
CONTINUOUS
 10
-60.1993877042
 20
48.1154325351
 11
-60.1734821924
 21
48.8763064929
  0
LINE
  5
24C
100
AcDbEntity
  8
RACCORDO
100
AcDbLine
 62
250
  6
CONTINUOUS
 10
-60.1734821924
 20
48.8763064929
 11
-60.1438400293
 21
49.676482927
  0
LINE
  5
24D
100
AcDbEntity
  8
RACCORDO
100
AcDbLine
 62
250
  6
CONTINUOUS
 10
-60.1438400293
 20
49.676482927
 11
-60.1094715234
 21
50.5305340203
  0
LINE
  5
24E
100
AcDbEntity
  8
RACCORDO
100
AcDbLine
 62
250
  6
CONTINUOUS
 10
-60.1094715234
 20
50.5305340203
 11
-60.0694868918
 21
51.4459897172
  0
LWPOLYLINE
  5
24F
100
AcDbEntity
  8
RACCORDO
100
AcDbPolyline
 62
250
  6
CONTINUOUS
 90
12
 70
0
 10
-60.0694868918
 20
51.4459897172
 10
-60.0227692813
 20
52.4319319062
 10
-59.9966005582
 20
52.9518461209
 10
-59.9683843337
 20
53.4902561639
 10
-59.9380127428
 20
54.0470202663
 10
-59.9053400202
 20
54.6225077611
 10
-59.8702452187
 20
55.2164901397
 10
-59.8325771728
 20
55.8292972259
 10
-59.7921258701
 20
56.4621428952
 10
-59.7487051316
 20
57.1154750279
 10
-59.7021617313
 20
57.7889721136
 10
-59.6523199829
 20
58.4826995654
  0
LWPOLYLINE
  5
250
100
AcDbEntity
  8
RACCORDO
100
AcDbPolyline
 62
7
  6
CONTINUOUS
 90
10
 70
0
 10
-59.7520396025
 20
58.6553591152
 10
-59.9358842422
 20
55.8042015851
 10
-60.0971900216
 20
52.8036532446
 10
-60.2284611644
 20
49.718671128
 10
-60.3267447333
 20
46.5516220904
 10
-60.3977593376
 20
43.3004036074
 10
-60.4514565969
 20
39.9595009506
 10
-60.4919842771
 20
36.5261645336
 10
-60.5169292299
 20
33.0017882167
 10
-60.5251949593
 20
29.4531869561
  0
LWPOLYLINE
  5
251
100
AcDbEntity
  8
RACCORDO
100
AcDbPolyline
 62
250
  6
CONTINUOUS
 90
40
 70
0
 10
-59.6523199829
 20
58.4826995654
 10
-59.6345012485
 20
58.6758194208
 10
-59.6118313128
 20
58.861039834
 10
-59.5842811788
 20
59.0383716015
 10
-59.5518531595
 20
59.2069464667
 10
-59.5144914398
 20
59.3676526064
 10
-59.4720738536
 20
59.523137693
 10
-59.4244540756
 20
59.6745067224
 10
-59.3717097739
 20
59.8206802615
 10
-59.3140520574
 20
59.9610303501
 10
-59.2514300721
 20
60.0955460604
 10
-59.1838401677
 20
60.2242586135
 10
-59.1115748346
 20
60.3465993347
 10
-59.0346005013
 20
60.4625397774
 10
-58.952911634
 20
60.5721229483
 10
-58.8668548889
 20
60.6748828439
 10
-58.7764342648
 20
60.7707818899
 10
-58.6816237602
 20
60.8598658529
 10
-58.5827368189
 20
60.941789351
 10
-58.4798330464
 20
61.0165335797
 10
-58.3728477175
 20
61.0841192498
 10
-58.2619167701
 20
61.1442569046
 10
-58.1470944648
 20
61.1969975488
 10
-58.0283322113
 20
61.2422880665
 10
-57.9056181208
 20
61.2796804194
 10
-57.7788935918
 20
61.3092568555
 10
-57.6482338973
 20
61.3309289195
 10
-57.5138380876
 20
61.3439887465
 10
-57.3756329223
 20
61.348452073
 10
-57.2337301537
 20
61.3442888234
 10
-57.088623741
 20
61.3307159295
 10
-56.9400395639
 20
61.30757652
 10
-56.7883198754
 20
61.2750020984
 10
-56.6349086133
 20
61.2326326947
 10
-56.4797541804
 20
61.1801808356
 10
-56.323015509
 20
61.1178940304
 10
-56.1664766844
 20
61.0462057157
 10
-56.0107786384
 20
60.965243155
 10
-55.8554088192
 20
60.8748312853
 10
-55.7004291457
 20
60.7749470523
  0
LINE
  5
252
100
AcDbEntity
  8
RACCORDO
100
AcDbLine
 62
250
  6
CONTINUOUS
 10
-46.6551518028
 20
45.760634718
 11
-46.9432669115
 21
45.6164141184
  0
LINE
  5
253
100
AcDbEntity
  8
RACCORDO
100
AcDbLine
 62
7
  6
CONTINUOUS
 10
-46.9875636881
 20
45.5219010388
 11
-46.6665045691
 21
45.6826135528
  0
LINE
  5
254
100
AcDbEntity
  8
RACCORDO
100
AcDbLine
 62
250
  6
CONTINUOUS
 10
-47.0100882521
 20
45.5119584269
 11
-47.0151856621
 21
45.5098313568
  0
LWPOLYLINE
  5
255
100
AcDbEntity
  8
RACCORDO
100
AcDbPolyline
 62
250
  6
CONTINUOUS
 90
18
 70
0
 10
-54.2170271777
 20
50.6215580205
 10
-54.2399230829
 20
50.6148467707
 10
-54.2642950508
 20
50.609386307
 10
-54.289924109
 20
50.6052256902
 10
-54.3165799906
 20
50.6024023023
 10
-54.3440232023
 20
50.6009415107
 10
-54.3720071776
 20
50.6008564404
 10
-54.4002804907
 20
50.6021478563
 10
-54.4285891162
 20
50.6048041556
 10
-54.4566787114
 20
50.6088014729
 10
-54.4842969017
 20
50.6141038939
 10
-54.5111955469
 20
50.6206637786
 10
-54.5371329726
 20
50.6284221888
 10
-54.5618761403
 20
50.6373094183
 10
-54.5852027408
 20
50.6472456184
 10
-54.6069031929
 20
50.658141516
 10
-54.6267825262
 20
50.6698992155
 10
-54.6446621319
 20
50.6824130782
  0
LWPOLYLINE
  5
256
100
AcDbEntity
  8
RACCORDO
100
AcDbPolyline
 62
7
  6
CONTINUOUS
 90
37
 70
0
 10
-59.7518126086
 20
1.1700354186
 10
-59.7385450892
 20
1.0193178677
 10
-59.7138329198
 20
0.8060188774
 10
-59.6819273395
 20
0.5892167285
 10
-59.6429031531
 20
0.3694169525
 10
-59.5968413898
 20
0.1470007346
 10
-59.5438050758
 20
-0.0777393078
 10
-59.483876788
 20
-0.304391704
 10
-59.4171712526
 20
-0.5325166272
 10
-59.3437815177
 20
-0.7617587369
 10
-59.2638250302
 20
-0.9916846874
 10
-59.1774506037
 20
-1.2218593951
 10
-59.0847864372
 20
-1.4519112539
 10
-58.9859913198
 20
-1.6814115021
 10
-58.8812494984
 20
-1.9099386714
 10
-58.7707214058
 20
-2.1371236593
 10
-58.6546083749
 20
-2.3625504668
 10
-58.5331299308
 20
-2.5858128411
 10
-58.4064789432
 20
-2.8065553991
 10
-58.2748971088
 20
-3.0243835935
 10
-58.1386348405
 20
-3.238907903
 10
-57.997918151
 20
-3.4497916214
 10
-57.8530244208
 20
-3.6566626707
 10
-57.7042335508
 20
-3.8591511212
 10
-57.5518038989
 20
-4.0569480812
 10
-57.3960414686
 20
-4.2497072875
 10
-57.2372575561
 20
-4.4370824323
 10
-57.0757376667
 20
-4.6187961786
 10
-56.9118126022
 20
-4.7945256354
 10
-56.7458184279
 20
-4.9639608079
 10
-56.5780483135
 20
-5.1268646966
 10
-56.4088563003
 20
-5.2829360483
 10
-56.2385805164
 20
-5.4319119522
 10
-56.0674634372
 20
-5.5736187549
 10
-55.8958102637
 20
-5.7078227558
 10
-55.7240415209
 20
-5.8342272065
 10
-55.6054891108
 20
-5.9168721239
  0
LINE
  5
257
100
AcDbEntity
  8
RACCORDO
100
AcDbLine
 62
250
  6
CONTINUOUS
 10
-59.6523199829
 20
1.0013577704
 11
-59.7133922353
 21
1.7898343769
  0
LINE
  5
258
100
AcDbEntity
  8
RACCORDO
100
AcDbLine
 62
7
  6
CONTINUOUS
 10
-59.7518126086
 20
1.1700354186
 11
-59.7518103307
 21
1.1700054317
  0
LINE
  5
259
100
AcDbEntity
  8
RACCORDO
100
AcDbLine
 62
250
  6
CONTINUOUS
 10
-59.7133922353
 20
1.7898343769
 11
-59.7688314292
 21
2.5432255473
  0
LINE
  5
25A
100
AcDbEntity
  8
RACCORDO
100
AcDbLine
 62
250
  6
CONTINUOUS
 10
-59.7688314292
 20
2.5432255473
 11
-59.8192687839
 21
3.2643275607
  0
LINE
  5
25B
100
AcDbEntity
  8
RACCORDO
100
AcDbLine
 62
250
  6
CONTINUOUS
 10
-59.8192687839
 20
3.2643275607
 11
-59.8657673719
 21
3.963826315
  0
LINE
  5
25C
100
AcDbEntity
  8
RACCORDO
100
AcDbLine
 62
250
  6
CONTINUOUS
 10
-59.8657673719
 20
3.963826315
 11
-59.9089114093
 21
4.6471419532
  0
LINE
  5
25D
100
AcDbEntity
  8
RACCORDO
100
AcDbLine
 62
250
  6
CONTINUOUS
 10
-59.9089114093
 20
4.6471419532
 11
-59.9491036244
 21
5.3179108849
  0
LINE
  5
25E
100
AcDbEntity
  8
RACCORDO
100
AcDbLine
 62
250
  6
CONTINUOUS
 10
-59.9491036244
 20
5.3179108849
 11
-59.9867707311
 21
5.9813322691
  0
LINE
  5
25F
100
AcDbEntity
  8
RACCORDO
100
AcDbLine
 62
250
  6
CONTINUOUS
 10
-59.9867707311
 20
5.9813322691
 11
-60.0221925311
 21
6.6409894257
  0
LINE
  5
260
100
AcDbEntity
  8
RACCORDO
100
AcDbLine
 62
250
  6
CONTINUOUS
 10
-60.0221925311
 20
6.6409894257
 11
-60.05553113
 21
7.2991019013
  0
LINE
  5
261
100
AcDbEntity
  8
RACCORDO
100
AcDbLine
 62
250
  6
CONTINUOUS
 10
-60.05553113
 20
7.2991019013
 11
-60.0869521401
 21
7.9585020207
  0
LINE
  5
262
100
AcDbEntity
  8
RACCORDO
100
AcDbLine
 62
250
  6
CONTINUOUS
 10
-60.0869521401
 20
7.9585020207
 11
-60.1165903278
 21
8.6220052391
  0
LINE
  5
263
100
AcDbEntity
  8
RACCORDO
100
AcDbLine
 62
250
  6
CONTINUOUS
 10
-60.1165903278
 20
8.6220052391
 11
-60.144500359
 21
9.2913603516
  0
LINE
  5
264
100
AcDbEntity
  8
RACCORDO
100
AcDbLine
 62
250
  6
CONTINUOUS
 10
-60.144500359
 20
9.2913603516
 11
-60.1707583819
 21
9.9692908162
  0
LINE
  5
265
100
AcDbEntity
  8
RACCORDO
100
AcDbLine
 62
250
  6
CONTINUOUS
 10
-60.1707583819
 20
9.9692908162
 11
-60.1953400631
 21
10.6565755366
  0
LINE
  5
266
100
AcDbEntity
  8
RACCORDO
100
AcDbLine
 62
250
  6
CONTINUOUS
 10
-60.1953400631
 20
10.6565755366
 11
-60.2182344044
 21
11.3531357645
  0
LINE
  5
267
100
AcDbEntity
  8
RACCORDO
100
AcDbLine
 62
250
  6
CONTINUOUS
 10
-60.2182344044
 20
11.3531357645
 11
-60.2394986203
 21
12.057829432
  0
LINE
  5
268
100
AcDbEntity
  8
RACCORDO
100
AcDbLine
 62
250
  6
CONTINUOUS
 10
-60.2394986203
 20
12.057829432
 11
-60.2591652848
 21
12.7680630718
  0
LINE
  5
269
100
AcDbEntity
  8
RACCORDO
100
AcDbLine
 62
250
  6
CONTINUOUS
 10
-60.2591652848
 20
12.7680630718
 11
-60.2773408676
 21
13.4821179353
  0
LINE
  5
26A
100
AcDbEntity
  8
RACCORDO
100
AcDbLine
 62
250
  6
CONTINUOUS
 10
-60.2773408676
 20
13.4821179353
 11
-60.2940976775
 21
14.1972731978
  0
LINE
  5
26B
100
AcDbEntity
  8
RACCORDO
100
AcDbLine
 62
250
  6
CONTINUOUS
 10
-60.2940976775
 20
14.1972731978
 11
-60.3167860034
 21
15.2669290185
  0
LWPOLYLINE
  5
26C
100
AcDbEntity
  8
RACCORDO
100
AcDbPolyline
 62
250
  6
CONTINUOUS
 90
3
 70
0
 10
-60.3167860034
 20
15.2669290185
 10
-60.3368705152
 20
16.3267227818
 10
-60.3430601627
 20
16.6768358646
  0
LWPOLYLINE
  5
26D
100
AcDbEntity
  8
RACCORDO
100
AcDbPolyline
 62
250
  6
CONTINUOUS
 90
8
 70
0
 10
-60.5251949599
 20
29.4529863903
 10
-60.5250890937
 20
29.4471467046
 10
-60.5222712726
 20
29.421920677
 10
-60.5156402235
 20
29.3969322896
 10
-60.5052468148
 20
29.3723732666
 10
-60.4911707776
 20
29.3484320034
 10
-60.4735200934
 20
29.3252921208
 10
-60.4524301658
 20
29.3031311029
  0
LWPOLYLINE
  5
26E
100
AcDbEntity
  8
RACCORDO
100
AcDbPolyline
 62
250
  6
CONTINUOUS
 90
31
 70
0
 10
-54.6509009106
 20
14.1016991581
 10
-54.6437795057
 20
13.5180061187
 10
-54.6355521658
 20
12.9346723023
 10
-54.6261192497
 20
12.3518478348
 10
-54.6153842764
 20
11.7694177625
 10
-54.60323868
 20
11.1872991974
 10
-54.5895768084
 20
10.6057095541
 10
-54.5743046313
 20
10.0249855396
 10
-54.5573151236
 20
9.445204033
 10
-54.5385021337
 20
8.8664220279
 10
-54.5177770273
 20
8.2889438362
 10
-54.4950304101
 20
7.7129221782
 10
-54.4701316004
 20
7.1383550989
 10
-54.4429563468
 20
6.5653172121
 10
-54.4133632685
 20
5.9940719954
 10
-54.3811941665
 20
5.4245441045
 10
-54.3462951705
 20
4.856302678
 10
-54.3085293714
 20
4.2889535783
 10
-54.2678372132
 20
3.7230143212
 10
-54.2242177729
 20
3.1593983423
 10
-54.1777990531
 20
2.600419468
 10
-54.1283475497
 20
2.0438301257
 10
-54.0752538211
 20
1.4837432628
 10
-54.0185016234
 20
0.9214164403
 10
-53.9578568214
 20
0.3557493325
 10
-53.8921134007
 20
-0.2225125522
 10
-53.8208984071
 20
-0.8134751174
 10
-53.7439380924
 20
-1.4166263369
 10
-53.6598087401
 20
-2.0400636425
 10
-53.5676016413
 20
-2.6862135445
 10
-53.4671172661
 20
-3.3519535697
  0
LWPOLYLINE
  5
26F
100
AcDbEntity
  8
RACCORDO
100
AcDbPolyline
 62
250
  6
CONTINUOUS
 90
31
 70
0
 10
-55.4554320878
 20
16.1797366445
 10
-55.4485635024
 20
15.4952962904
 10
-55.4404480107
 20
14.809569667
 10
-55.4309729657
 20
14.1245872786
 10
-55.4200094356
 20
13.4408549503
 10
-55.4074159879
 20
12.758036643
 10
-55.3930751083
 20
12.0768913461
 10
-55.376863753
 20
11.3980913494
 10
-55.3586341662
 20
10.7211344225
 10
-55.3382231966
 20
10.045023156
 10
-55.3154719803
 20
9.3696213273
 10
-55.29024123
 20
8.6952523949
 10
-55.2623569561
 20
8.0216337186
 10
-55.2315632145
 20
7.3487529883
 10
-55.1976109573
 20
6.6769396437
 10
-55.1602707587
 20
6.0064649786
 10
-55.119250808
 20
5.3367100606
 10
-55.0744276321
 20
4.6685546161
 10
-55.0258699868
 20
4.0044892429
 10
-54.9737413472
 20
3.347534291
 10
-54.9177537167
 20
2.6947476087
 10
-54.8572561535
 20
2.039702724
 10
-54.7923135964
 20
1.3844995699
 10
-54.7226140284
 20
0.7271933761
 10
-54.6465901006
 20
0.0555110231
 10
-54.5637907128
 20
-0.6306421134
 10
-54.4738627997
 20
-1.3306664015
 10
-54.3748610904
 20
-2.0554638968
 10
-54.2655447778
 20
-2.8082966073
 10
-54.1456716777
 20
-3.5849712216
 10
-54.0145001495
 20
-4.3850219971
  0
LINE
  5
270
100
AcDbEntity
  8
RACCORDO
100
AcDbLine
 62
250
  6
CONTINUOUS
 10
-54.662224209
 20
15.2706136386
 11
-54.6509009106
 21
14.1016991581
  0
LWPOLYLINE
  5
271
100
AcDbEntity
  8
RACCORDO
100
AcDbPolyline
 62
250
  6
CONTINUOUS
 90
32
 70
0
 10
-55.0057347993
 20
16.8363634878
 10
-54.9997862865
 20
16.1557848737
 10
-54.9927409226
 20
15.4717208201
 10
-54.984594393
 20
14.7863334495
 10
-54.974971992
 20
14.1018378342
 10
-54.9638750468
 20
13.4186587727
 10
-54.9513022302
 20
12.7363714667
 10
-54.9368748539
 20
12.0559165929
 10
-54.9206133917
 20
11.37787587
 10
-54.9024973697
 20
10.7016675793
 10
-54.8820866789
 20
10.0264872423
 10
-54.8594239014
 20
9.352065085
 10
-54.8344664551
 20
8.6786708812
 10
-54.8066464846
 20
8.0063094739
 10
-54.7759983136
 20
7.3348030378
 10
-54.7424876183
 20
6.6643293982
 10
-54.7054435723
 20
5.9954268726
 10
-54.6647117572
 20
5.3273983992
 10
-54.6204465913
 20
4.6609410399
 10
-54.5724405031
 20
3.9986842979
 10
-54.5209099746
 20
3.3435999468
 10
-54.4656385238
 20
2.6927162131
 10
-54.4057691326
 20
2.0397472792
 10
-54.3417085622
 20
1.3865607807
 10
-54.2730500514
 20
0.7312890819
 10
-54.1977162989
 20
0.0620434583
 10
-54.1160179404
 20
-0.6217551072
 10
-54.0276443402
 20
-1.3195275977
 10
-53.9295862894
 20
-2.0414256867
 10
-53.8208407184
 20
-2.7908332655
 10
-53.7024106968
 20
-3.5643664428
 10
-53.5742962245
 20
-4.3620252187
  0
LINE
  5
272
100
AcDbEntity
  8
RACCORDO
100
AcDbLine
 62
250
  6
CONTINUOUS
 10
-55.4659726919
 20
17.5400955591
 11
-55.4554320878
 21
16.1797366445
  0
LINE
  5
273
100
AcDbEntity
  8
RACCORDO
100
AcDbLine
 62
250
  6
CONTINUOUS
 10
-54.6702950465
 20
16.4422894872
 11
-54.662224209
 21
15.2706136386
  0
LINE
  5
274
100
AcDbEntity
  8
RACCORDO
100
AcDbLine
 62
250
  6
CONTINUOUS
 10
-55.0146900901
 20
18.1978220598
 11
-55.0057347993
 21
16.8363634878
  0
LINE
  5
275
100
AcDbEntity
  8
RACCORDO
100
AcDbLine
 62
250
  6
CONTINUOUS
 10
-55.4731683183
 20
18.9054492223
 11
-55.4659726919
 21
17.5400955591
  0
LINE
  5
276
100
AcDbEntity
  8
RACCORDO
100
AcDbLine
 62
250
  6
CONTINUOUS
 10
-54.6758271743
 20
17.6178223605
 11
-54.6702950465
 21
16.4422894872
  0
LINE
  5
277
100
AcDbEntity
  8
RACCORDO
100
AcDbLine
 62
250
  6
CONTINUOUS
 10
-55.0207406899
 20
19.5662433507
 11
-55.0146900901
 21
18.1978220598
  0
LINE
  5
278
100
AcDbEntity
  8
RACCORDO
100
AcDbLine
 62
250
  6
CONTINUOUS
 10
-55.4778381339
 20
20.291512492
 11
-55.4731683183
 21
18.9054492223
  0
LINE
  5
279
100
AcDbEntity
  8
RACCORDO
100
AcDbLine
 62
250
  6
CONTINUOUS
 10
-54.6805989825
 20
19.3901663546
 11
-54.6758271743
 21
17.6178223605
  0
LINE
  5
27A
100
AcDbEntity
  8
RACCORDO
100
AcDbLine
 62
250
  6
CONTINUOUS
 10
-55.0260534291
 20
21.711904918
 11
-55.0207406899
 21
19.5662433507
  0
LINE
  5
27B
100
AcDbEntity
  8
RACCORDO
100
AcDbLine
 62
250
  6
CONTINUOUS
 10
-55.4817202996
 20
22.4904752811
 11
-55.4778381339
 21
20.291512492
  0
LWPOLYLINE
  5
27C
100
AcDbEntity
  8
RACCORDO
100
AcDbPolyline
 62
7
  6
CONTINUOUS
 90
15
 70
0
 10
-54.7756315964
 20
22.2720258042
 10
-54.7734330388
 20
20.1050440842
 10
-54.7679145382
 20
17.9763016937
 10
-54.7563627524
 20
15.8873792751
 10
-54.7357729327
 20
13.8400839511
 10
-54.7028677899
 20
11.8364772998
 10
-54.6545949909
 20
9.8786111509
 10
-54.5881828877
 20
7.968405398
 10
-54.5007912387
 20
6.1078135962
 10
-54.3892566541
 20
4.2992789375
 10
-54.2518915896
 20
2.54468851
 10
-54.0886601284
 20
0.8448467528
 10
-53.9003602251
 20
-0.8000786601
 10
-53.6883412802
 20
-2.3904761156
 10
-53.4630224265
 20
-3.8724908726
  0
LINE
  5
27D
100
AcDbEntity
  8
RACCORDO
100
AcDbLine
 62
250
  6
CONTINUOUS
 10
-55.4829589995
 20
24.8985231175
 11
-55.4817202996
 21
22.4904752811
  0
LINE
  5
27E
100
AcDbEntity
  8
RACCORDO
100
AcDbLine
 62
250
  6
CONTINUOUS
 10
-55.0284497463
 20
24.8729719692
 11
-55.0260534291
 21
21.711904918
  0
LINE
  5
27F
100
AcDbEntity
  8
RACCORDO
100
AcDbLine
 62
250
  6
CONTINUOUS
 10
-54.6835127108
 20
23.6126969113
 11
-54.6805989825
 21
19.3901663546
  0
LINE
  5
280
100
AcDbEntity
  8
RACCORDO
100
AcDbLine
 62
250
  6
CONTINUOUS
 10
-55.4813095285
 20
27.6610442871
 11
-55.4829590535
 21
24.8985230823
  0
LINE
  5
281
100
AcDbEntity
  8
RACCORDO
100
AcDbLine
 62
250
  6
CONTINUOUS
 10
-55.0266336144
 20
27.6349812862
 11
-55.0284497463
 21
24.8729719692
  0
LINE
  5
282
100
AcDbEntity
  8
RACCORDO
100
AcDbLine
 62
250
  6
CONTINUOUS
 10
-54.680594951
 20
29.104053258
 11
-54.6835127108
 21
23.6126969113
  0
LINE
  5
283
100
AcDbEntity
  8
RACCORDO
100
AcDbLine
 62
250
  6
CONTINUOUS
 10
-55.4782950674
 20
29.3315516748
 11
-55.4813095285
 21
27.6610442871
  0
LINE
  5
284
100
AcDbEntity
  8
RACCORDO
100
AcDbLine
 62
250
  6
CONTINUOUS
 10
-55.0234748373
 20
29.3049604014
 11
-55.0266336144
 21
27.6349812862
  0
LINE
  5
285
100
AcDbEntity
  8
RACCORDO
100
AcDbLine
 62
250
  6
CONTINUOUS
 10
-54.6763615663
 20
30.7354217275
 11
-54.680594951
 21
29.104053258
  0
LINE
  5
286
100
AcDbEntity
  8
RACCORDO
100
AcDbLine
 62
250
  6
CONTINUOUS
 10
-55.4731700845
 20
30.9044476205
 11
-55.4782950674
 21
29.3315516748
  0
LWPOLYLINE
  5
287
100
AcDbEntity
  8
RACCORDO
100
AcDbPolyline
 62
250
  6
CONTINUOUS
 90
3
 70
0
 10
-55.0143667163
 20
31.6308056761
 10
-55.0180264845
 20
30.8771842544
 10
-55.0234748373
 20
29.3049604014
  0
LINE
  5
288
100
AcDbEntity
  8
RACCORDO
100
AcDbLine
 62
250
  6
CONTINUOUS
 10
-54.6685177838
 20
32.3635711981
 11
-54.6763615663
 21
30.7354217275
  0
LINE
  5
289
100
AcDbEntity
  8
RACCORDO
100
AcDbLine
 62
250
  6
CONTINUOUS
 10
-54.6604904722
 20
33.455187944
 11
-54.6685177838
 21
32.3635711981
  0
LINE
  5
28A
100
AcDbEntity
  8
RACCORDO
100
AcDbLine
 62
250
  6
CONTINUOUS
 10
-54.6495550728
 20
34.5497340064
 11
-54.6604904722
 21
33.455187944
  0
LWPOLYLINE
  5
28B
100
AcDbEntity
  8
RACCORDO
100
AcDbPolyline
 62
7
  6
CONTINUOUS
 90
12
 70
0
 10
-53.9778472893
 20
49.9269295907
 10
-53.9781407544
 20
49.9213336798
 10
-53.9771417684
 20
49.9095707578
 10
-53.9739627866
 20
49.8972226859
 10
-53.9686419121
 20
49.8842798065
 10
-53.9613338285
 20
49.8709258086
 10
-53.9520402826
 20
49.8571756186
 10
-53.9407593769
 20
49.8430145161
 10
-53.927640374
 20
49.8285816574
 10
-53.9127329991
 20
49.813923468
 10
-53.8959874141
 20
49.798993678
 10
-53.8774035574
 20
49.783792372
  0
LWPOLYLINE
  5
28C
100
AcDbEntity
  8
RACCORDO
100
AcDbPolyline
 62
7
  6
CONTINUOUS
 90
13
 70
0
 10
-53.9778878659
 20
49.9269440961
 10
-54.1524154124
 20
48.0931519619
 10
-54.3107668298
 20
46.1257099784
 10
-54.4420251539
 20
44.1222573706
 10
-54.5463771684
 20
42.0835287174
 10
-54.626347754
 20
40.0089271883
 10
-54.6852084435
 20
37.8970168378
 10
-54.7258336437
 20
35.746479766
 10
-54.7515156885
 20
33.5556980409
 10
-54.7659744494
 20
31.3227015174
 10
-54.7728705455
 20
29.0453660777
 10
-54.7755357705
 20
26.7216770356
 10
-54.7756315964
 20
22.2720258042
  0
LWPOLYLINE
  5
28D
100
AcDbEntity
  8
RACCORDO
100
AcDbPolyline
 62
250
  6
CONTINUOUS
 90
25
 70
0
 10
-54.1958130458
 20
50.6294597582
 10
-54.2789978536
 20
49.7881035138
 10
-54.3559968129
 20
48.9626904992
 10
-54.4268099236
 20
48.1532207142
 10
-54.4909187049
 20
47.3633060615
 10
-54.5488416376
 20
46.5893346386
 10
-54.6021341648
 20
45.8204707376
 10
-54.6510633015
 20
45.0536229062
 10
-54.6953620328
 20
44.2918825968
 10
-54.7357847563
 20
43.5336884587
 10
-54.7722770922
 20
42.7794910488
 10
-54.8048934203
 20
42.0288398103
 10
-54.8345512779
 20
41.2788217223
 10
-54.861373009
 20
40.5285860389
 10
-54.8852362695
 20
39.778983506
 10
-54.9066915645
 20
39.0296533399
 10
-54.9257740353
 20
38.279488223
 10
-54.9424485406
 20
37.5295954728
 10
-54.9571601611
 20
36.7829362578
 10
-54.9698845867
 20
36.0405572159
 10
-54.9806461274
 20
35.3014117091
 10
-54.9899627951
 20
34.5653209923
 10
-54.9978407616
 20
33.8363198342
 10
-55.0042738549
 20
33.110373466
 10
-55.0143667163
 20
31.6308056761
  0
LWPOLYLINE
  5
28E
100
AcDbEntity
  8
RACCORDO
100
AcDbPolyline
 62
250
  6
CONTINUOUS
 90
26
 70
0
 10
-54.6446621319
 20
50.6824130782
 10
-54.7294705907
 20
49.8394636861
 10
-54.8073196606
 20
49.0127153241
 10
-54.8785505215
 20
48.2020409615
 10
-54.943225436
 20
47.4108289721
 10
-55.0019879947
 20
46.6354281731
 10
-55.0558902977
 20
45.8652121702
 10
-55.1053166849
 20
45.0970375073
 10
-55.1502369167
 20
44.3339157991
 10
-55.1909004039
 20
43.5745205819
 10
-55.2275836924
 20
42.8191969546
 10
-55.2606378581
 20
42.0673661371
 10
-55.2904519899
 20
41.3163054647
 10
-55.3173219309
 20
40.5651017902
 10
-55.3414155652
 20
39.8144956022
 10
-55.3628919356
 20
39.0642588786
 10
-55.3819442027
 20
38.3132160227
 10
-55.3987094038
 20
37.5624196892
 10
-55.4132909096
 20
36.8149736168
 10
-55.4258650441
 20
36.0718503184
 10
-55.4366380886
 20
35.3319348265
 10
-55.4457814559
 20
34.5951910561
 10
-55.4534308708
 20
33.8656107088
 10
-55.4598126838
 20
33.1390672721
 10
-55.4651672401
 20
32.4033722886
 10
-55.4731700845
 20
30.9044476205
  0
LWPOLYLINE
  5
28F
100
AcDbEntity
  8
RACCORDO
100
AcDbPolyline
 62
250
  6
CONTINUOUS
 90
27
 70
0
 10
-53.8773947294
 20
49.7837834903
 10
-53.9389379493
 20
49.1796632843
 10
-53.9970121003
 20
48.5814213181
 10
-54.0517140747
 20
47.989021516
 10
-54.103087396
 20
47.4030817271
 10
-54.1512843805
 20
46.8229111856
 10
-54.1965361315
 20
46.2465216829
 10
-54.2389386592
 20
45.6737291567
 10
-54.2785749958
 20
45.1046510068
 10
-54.3156206983
 20
44.5377646508
 10
-54.3501625462
 20
43.9728368761
 10
-54.3822559685
 20
43.4100479471
 10
-54.4120211195
 20
42.8484986159
 10
-54.4395929385
 20
42.2878438246
 10
-54.4650741094
 20
41.7283401572
 10
-54.4885584688
 20
41.1699826129
 10
-54.5101663901
 20
40.6126656972
 10
-54.5300146166
 20
40.0564066193
 10
-54.548172958
 20
39.5013913517
 10
-54.5647212895
 20
38.9477224699
 10
-54.5797538534
 20
38.3952325696
 10
-54.5933555536
 20
37.8437050582
 10
-54.6056096089
 20
37.2931554221
 10
-54.6166008048
 20
36.7435056222
 10
-54.6264121145
 20
36.1944003723
 10
-54.6351253969
 20
35.6457004151
 10
-54.6495550728
 20
34.5497340064
  0
LWPOLYLINE
  5
290
100
AcDbEntity
  8
RACCORDO
100
AcDbPolyline
 62
250
  6
CONTINUOUS
 90
11
 70
0
 10
-46.1704107316
 20
52.5315015721
 10
-46.334428173
 20
51.7428100141
 10
-46.486902153
 20
50.9818020577
 10
-46.6284971842
 20
50.2476222064
 10
-46.7600067447
 20
49.5381507872
 10
-46.8818777562
 20
48.8534922073
 10
-46.9946704247
 20
48.1931670776
 10
-47.0992303949
 20
47.5542238754
 10
-47.1961058116
 20
46.9355796225
 10
-47.2856048219
 20
46.3379984757
 10
-47.3681489652
 20
45.7613234839
  0
LWPOLYLINE
  5
291
100
AcDbEntity
  8
RACCORDO
100
AcDbPolyline
 62
7
  6
CONTINUOUS
 90
9
 70
0
 10
-45.4361291565
 20
52.2525352784
 10
-45.5587476196
 20
51.6651138864
 10
-45.6768317593
 20
51.0843309602
 10
-45.7903815757
 20
50.5101864997
 10
-45.8992946937
 20
49.9429734996
 10
-46.0036734883
 20
49.3823989652
 10
-46.1038250843
 20
48.8275839131
 10
-46.1998518565
 20
48.2782353487
 10
-46.2916514299
 20
47.7346462665
  0
LINE
  5
292
100
AcDbEntity
  8
RACCORDO
100
AcDbLine
 62
250
  6
CONTINUOUS
 10
-45.9943543521
 20
53.3474531319
 11
-46.1704107316
 21
52.5315015721
  0
LWPOLYLINE
  5
293
100
AcDbEntity
  8
RACCORDO
100
AcDbPolyline
 62
7
  6
CONTINUOUS
 90
9
 70
0
 10
-45.4361291565
 20
52.2525352784
 10
-45.4339587087
 20
52.2623819407
 10
-45.4316432834
 20
52.2721196797
 10
-45.4291833108
 20
52.281744883
 10
-45.426578325
 20
52.2912549157
 10
-45.4238298511
 20
52.3006453556
 10
-45.420941474
 20
52.3099100407
 10
-45.4179149545
 20
52.3190447398
 10
-45.41475016
 20
52.3280471078
  0
LINE
  5
294
100
AcDbEntity
  8
RACCORDO
100
AcDbLine
 62
7
  6
CONTINUOUS
 10
-45.1855719263
 20
53.2524081959
 11
-45.3118274838
 21
52.6749643036
  0
LWPOLYLINE
  5
295
100
AcDbEntity
  8
RACCORDO
100
AcDbPolyline
 62
250
  6
CONTINUOUS
 90
13
 70
0
 10
-45.3897307409
 20
54.1055781973
 10
-45.5781707876
 20
53.2543566477
 10
-45.7550132281
 20
52.4303536114
 10
-45.9202314582
 20
51.6338406849
 10
-46.0731271352
 20
50.8661528871
 10
-46.2143455178
 20
50.1264325654
 10
-46.3458783858
 20
49.4116187925
 10
-46.4677370017
 20
48.7221158812
 10
-46.5798645911
 20
48.0578577299
 10
-46.6841569506
 20
47.4150388365
 10
-46.781233896
 20
46.7924877954
 10
-46.8704361712
 20
46.1916666686
 10
-46.9517441123
 20
45.6127037487
  0
LINE
  5
296
100
AcDbEntity
  8
RACCORDO
100
AcDbLine
 62
250
  6
CONTINUOUS
 10
-45.8056317307
 20
54.1908982562
 11
-45.9943543521
 21
53.3474531319
  0
LWPOLYLINE
  5
297
100
AcDbEntity
  8
RACCORDO
100
AcDbPolyline
 62
7
  6
CONTINUOUS
 90
10
 70
0
 10
-45.3118274838
 20
52.6749643036
 10
-45.3206959815
 20
52.6354611666
 10
-45.3301246528
 20
52.5964010639
 10
-45.3401120498
 20
52.5577986201
 10
-45.3506631355
 20
52.5196554232
 10
-45.3617695549
 20
52.4819987024
 10
-45.3734078433
 20
52.4448801285
 10
-45.3855665834
 20
52.4083247158
 10
-45.3982482044
 20
52.3723320142
 10
-45.41475016
 20
52.3280471078
  0
LINE
  5
298
100
AcDbEntity
  8
RACCORDO
100
AcDbLine
 62
7
  6
CONTINUOUS
 10
-45.0816559421
 20
53.7174231399
 11
-45.1855719263
 21
53.2524081959
  0
LWPOLYLINE
  5
299
100
AcDbEntity
  8
RACCORDO
100
AcDbPolyline
 62
7
  6
CONTINUOUS
 90
19
 70
0
 10
-45.0816559421
 20
53.7174231399
 10
-45.0737514813
 20
53.7490962536
 10
-45.064322862
 20
53.7808077346
 10
-45.0533700843
 20
53.812557583
 10
-45.0407976537
 20
53.8445669369
 10
-45.0267010647
 20
53.8766146581
 10
-45.0113668006
 20
53.9080373321
 10
-44.9948128878
 20
53.9387319805
 10
-44.9770212999
 20
53.9688015817
 10
-44.958224441
 20
53.9978916553
 10
-44.9384278534
 20
54.025987717
 10
-44.9176259948
 20
54.0531042511
 10
-44.8960346421
 20
54.0789302312
 10
-44.8735680956
 20
54.1035214199
 10
-44.8503120549
 20
54.1268220545
 10
-44.8267393958
 20
54.1483538212
 10
-44.8030077436
 20
54.1679572818
 10
-44.7789594729
 20
54.1857918745
 10
-44.7545945837
 20
54.2018575991
  0
LWPOLYLINE
  5
29A
100
AcDbEntity
  8
RACCORDO
100
AcDbPolyline
 62
7
  6
CONTINUOUS
 90
13
 70
0
 10
-46.3995644988
 20
47.1128228082
 10
-46.3972642071
 20
47.1198667777
 10
-46.3951146391
 20
47.1268195953
 10
-46.3931080318
 20
47.133673343
 10
-46.3912526246
 20
47.1403594673
 10
-46.389523429
 20
47.1469307748
 10
-46.3878704595
 20
47.1535671452
 10
-46.3862948635
 20
47.1602672062
 10
-46.384795667
 20
47.167029328
 10
-46.3833343957
 20
47.1740428481
 10
-46.3819066095
 20
47.1813749325
 10
-46.3805337577
 20
47.1889653208
 10
-46.2916514299
 20
47.7346462665
  0
LINE
  5
29B
100
AcDbEntity
  8
RACCORDO
100
AcDbLine
 62
7
  6
CONTINUOUS
 10
-46.5002707671
 20
46.8105305389
 11
-46.3995644988
 21
47.1128228082
  0
LWPOLYLINE
  5
29C
100
AcDbEntity
  8
RACCORDO
100
AcDbPolyline
 62
7
  6
CONTINUOUS
 90
5
 70
0
 10
-47.0151856621
 20
45.5098313568
 10
-47.0081547205
 20
45.5125777238
 10
-47.0007776469
 20
45.5156952874
 10
-46.9934323367
 20
45.5190447483
 10
-46.9875678512
 20
45.5218988352
  0
LWPOLYLINE
  5
29D
100
AcDbEntity
  8
RACCORDO
100
AcDbPolyline
 62
250
  6
CONTINUOUS
 90
7
 70
0
 10
-46.9517441123
 20
45.6127037487
 10
-46.9503016576
 20
45.6132613625
 10
-46.9488710381
 20
45.6138432887
 10
-46.9474522538
 20
45.6144495273
 10
-46.9460453046
 20
45.6150800785
 10
-46.9446501905
 20
45.6157349422
 10
-46.9432669115
 20
45.6164141184
  0
LINE
  5
29E
100
AcDbEntity
  8
RACCORDO
100
AcDbLine
 62
7
  6
CONTINUOUS
 10
-47.0151856621
 20
45.5098313568
 11
-47.0153403372
 21
45.5097735177
  0
LWPOLYLINE
  5
29F
100
AcDbEntity
  8
RACCORDO
100
AcDbPolyline
 62
250
  6
CONTINUOUS
 90
40
 70
0
 10
-46.9516235854
 20
45.6127526862
 10
-46.9586841497
 20
45.6104637589
 10
-46.9657051789
 20
45.6084510024
 10
-46.9726620144
 20
45.6066977932
 10
-46.979461324
 20
45.6052019275
 10
-46.986151602
 20
45.603927999
 10
-46.992934938
 20
45.6028263509
 10
-46.9998053867
 20
45.6018961908
 10
-47.0067552576
 20
45.6011365564
 10
-47.0140046088
 20
45.6005300757
 10
-47.0216184479
 20
45.6000891865
 10
-47.0295348646
 20
45.59983531
 10
-47.0377926838
 20
45.5997843773
 10
-47.0463979738
 20
45.5999556111
 10
-47.0553413539
 20
45.6003679153
 10
-47.0646381046
 20
45.6010418911
 10
-47.0742768746
 20
45.601997516
 10
-47.0842562644
 20
45.6032552313
 10
-47.0946045673
 20
45.6048413158
 10
-47.1053121903
 20
45.6067790961
 10
-47.1163641519
 20
45.6090904609
 10
-47.1277772456
 20
45.6118054169
 10
-47.1395283171
 20
45.6149469012
 10
-47.1515996048
 20
45.6185383318
 10
-47.1640102356
 20
45.6226164769
 10
-47.1767291357
 20
45.6272051798
 10
-47.1897251885
 20
45.6323276355
 10
-47.2030085698
 20
45.6380261843
 10
-47.216535829
 20
45.6443246022
 10
-47.2302601933
 20
45.6512429672
 10
-47.2441742216
 20
45.6588234766
 10
-47.2582072398
 20
45.6670783914
 10
-47.2723065087
 20
45.6760309698
 10
-47.2864722596
 20
45.6857459596
 10
-47.3006148081
 20
45.6962427058
 10
-47.3146503049
 20
45.7075220797
 10
-47.3285578412
 20
45.719627052
 10
-47.3422303215
 20
45.7325726496
 10
-47.3554498208
 20
45.7463453821
 10
-47.3679899804
 20
45.7609439139
  0
LWPOLYLINE
  5
2A0
100
AcDbEntity
  8
RACCORDO
100
AcDbPolyline
 62
250
  6
CONTINUOUS
 90
9
 70
0
 10
-59.7518103307
 20
1.1700054317
 10
-59.7500859436
 20
1.1550076761
 10
-59.7448252392
 20
1.1309378065
 10
-59.736548057
 20
1.1073403958
 10
-59.7253051885
 20
1.0843602463
 10
-59.7111656239
 20
1.0621383728
 10
-59.6942161287
 20
1.0408111368
 10
-59.6745607108
 20
1.0205094097
 10
-59.6523199829
 20
1.0013577704
  0
LWPOLYLINE
  5
2A1
100
AcDbEntity
  8
RACCORDO
100
AcDbPolyline
 62
250
  6
CONTINUOUS
 90
11
 70
0
 10
-46.9432671225
 20
45.6164140128
 10
-46.9439022663
 20
45.6022490898
 10
-46.9455615824
 20
45.5888416022
 10
-46.9482323081
 20
45.5762946491
 10
-46.951893902
 20
45.5647047152
 10
-46.9565182052
 20
45.5541609176
 10
-46.9620696611
 20
45.5447443243
 10
-46.9685055824
 20
45.5365273445
 10
-46.9757764769
 20
45.5295731682
 10
-46.9838264333
 20
45.5239352716
 10
-46.9875636881
 20
45.5219010388
  0
LWPOLYLINE
  5
2A2
100
AcDbEntity
  8
RACCORDO
100
AcDbPolyline
 62
7
  6
CONTINUOUS
 90
6
 70
0
 10
-46.5002707671
 20
46.8105305389
 10
-46.5027941288
 20
46.7855621541
 10
-46.5055440522
 20
46.7607443826
 10
-46.5085204864
 20
46.7360811726
 10
-46.511723335
 20
46.7115764398
 10
-46.5151524561
 20
46.6872340665
  0
LINE
  5
2A3
100
AcDbEntity
  8
RACCORDO
100
AcDbLine
 62
7
  6
CONTINUOUS
 10
-46.7602655924
 20
45.0184324261
 11
-46.8227232458
 21
44.5537788479
  0
LINE
  5
2A4
100
AcDbEntity
  8
RACCORDO
100
AcDbLine
 62
7
  6
CONTINUOUS
 10
-46.6949377506
 20
45.4852495854
 11
-46.7602655924
 21
45.0184324261
  0
LINE
  5
2A5
100
AcDbEntity
  8
RACCORDO
100
AcDbLine
 62
7
  6
CONTINUOUS
 10
-46.6267151114
 20
45.9543431787
 11
-46.6949377506
 21
45.4852495854
  0
LWPOLYLINE
  5
2A6
100
AcDbEntity
  8
RACCORDO
100
AcDbPolyline
 62
250
  6
CONTINUOUS
 90
9
 70
0
 10
-46.9516221697
 20
45.6127533507
 10
-46.9542703569
 20
45.5950235986
 10
-46.9583793767
 20
45.5784304699
 10
-46.9639034689
 20
45.5631587592
 10
-46.9707811135
 20
45.5493785455
 10
-46.9789357171
 20
45.5372432973
 10
-46.9882764662
 20
45.5268881632
 10
-46.9986993368
 20
45.5184284676
 10
-47.0100882521
 20
45.5119584269
  0
LINE
  5
2A7
100
AcDbEntity
  8
RACCORDO
100
AcDbLine
 62
7
  6
CONTINUOUS
 10
-46.5151524561
 20
46.6872340665
 11
-46.6267151114
 21
45.9543431787
  0
LWPOLYLINE
  5
2A8
100
AcDbEntity
  8
RACCORDO
100
AcDbPolyline
 62
250
  6
CONTINUOUS
 90
9
 70
0
 10
-51.9336273951
 20
-8.0604684394
 10
-51.9375389405
 20
-8.0829335293
 10
-51.9423675557
 20
-8.1034557642
 10
-51.9480824794
 20
-8.1219098726
 10
-51.9546158595
 20
-8.1381462741
 10
-51.9619441561
 20
-8.152092427
 10
-51.9701094168
 20
-8.1637236878
 10
-51.9790703775
 20
-8.1729280757
 10
-51.9895624577
 20
-8.1799874329
  0
LWPOLYLINE
  5
2A9
100
AcDbEntity
  8
RACCORDO
100
AcDbPolyline
 62
250
  6
CONTINUOUS
 90
4
 70
0
 10
-40.8908668533
 20
32.2257772271
 10
-40.8622796733
 20
32.2580555697
 10
-40.8163289261
 20
32.3023307418
 10
-40.7672470188
 20
32.3424163428
  0
LINE
  5
2AA
100
AcDbEntity
  8
RACCORDO
100
AcDbLine
 62
7
  6
CONTINUOUS
 10
-40.7163666166
 20
32.3335151501
 11
-40.7053234263
 21
32.3454917832
  0
LINE
  5
2AB
100
AcDbEntity
  8
RACCORDO
100
AcDbLine
 62
7
  6
CONTINUOUS
 10
-40.7053234263
 20
32.3454917832
 11
-40.656281125
 21
32.3902242164
  0
LWPOLYLINE
  5
2AC
100
AcDbEntity
  8
RACCORDO
100
AcDbPolyline
 62
7
  6
CONTINUOUS
 90
3
 70
0
 10
-40.656281125
 20
32.3902242164
 10
-40.6040356254
 20
32.4300139319
 10
-40.5911389935
 20
32.4385017462
  0
LWPOLYLINE
  5
2AD
100
AcDbEntity
  8
RACCORDO
100
AcDbPolyline
 62
250
  6
CONTINUOUS
 90
3
 70
0
 10
-40.7672470188
 20
32.3424163428
 10
-40.7150885898
 20
32.3781502075
 10
-40.6582801537
 20
32.4102028622
  0
LWPOLYLINE
  5
2AE
100
AcDbEntity
  8
RACCORDO
100
AcDbPolyline
 62
7
  6
CONTINUOUS
 90
19
 70
0
 10
-40.8424543257
 20
32.2570744277
 10
-40.9058224116
 20
32.2161089216
 10
-40.9670973011
 20
32.1712659163
 10
-41.0260319008
 20
32.1226402118
 10
-41.0822857401
 20
32.0704483083
 10
-41.1357451539
 20
32.0147386554
 10
-41.1864736492
 20
31.9553234582
 10
-41.2342757907
 20
31.8922424653
 10
-41.2788486934
 20
31.8257051577
 10
-41.3200554928
 20
31.7557121715
 10
-41.3576531811
 20
31.6824453348
 10
-41.3914565192
 20
31.6060249278
 10
-41.4213902125
 20
31.526284731
 10
-41.447280393
 20
31.4431908268
 10
-41.4688565559
 20
31.3570390645
 10
-41.4859110318
 20
31.2680674463
 10
-41.498282339
 20
31.1764070483
 10
-41.5058192808
 20
31.0821408742
 10
-41.5083659134
 20
30.9853940123
  0
LINE
  5
2AF
100
AcDbEntity
  8
DRAFT
100
AcDbLine
 62
7
  6
CONTINUOUS
 10
-40.5006525077
 20
32.464291912
 11
-40.8424543257
 21
32.2570744277
  0
LINE
  5
2B0
100
AcDbEntity
  8
RACCORDO
100
AcDbLine
 62
250
  6
CONTINUOUS
 10
-39.7084863718
 20
32.2668050715
 11
-39.8720756427
 21
32.1690535802
  0
LWPOLYLINE
  5
2B1
100
AcDbEntity
  8
RACCORDO
100
AcDbPolyline
 62
7
  6
CONTINUOUS
 90
29
 70
0
 10
17.1207367718
 20
-50.5973738051
 10
17.5758625498
 20
-50.5276952135
 10
17.6637223587
 20
-50.5147114403
 10
17.7506892548
 20
-50.5022963716
 10
17.8367956964
 20
-50.4905569305
 10
17.9221050155
 20
-50.4795913325
 10
18.0066446833
 20
-50.4694970381
 10
18.090424262
 20
-50.460374913
 10
18.1734558199
 20
-50.4523323961
 10
18.2557200718
 20
-50.4454757293
 10
18.3371929449
 20
-50.4399056692
 10
18.4178279963
 20
-50.4357263341
 10
18.4975366051
 20
-50.4330450878
 10
18.5762139729
 20
-50.4319628407
 10
18.6537154452
 20
-50.4325700888
 10
18.7298359459
 20
-50.4349404446
 10
18.8044147644
 20
-50.4391374529
 10
18.8772739193
 20
-50.4452120073
 10
18.9480735569
 20
-50.4531636935
 10
19.0166667491
 20
-50.4629870915
 10
19.0830650672
 20
-50.4747002937
 10
19.1469680535
 20
-50.4882357921
 10
19.2081322651
 20
-50.5035018514
 10
19.2665699865
 20
-50.520463527
 10
19.3220026109
 20
-50.5389640352
 10
19.3742836035
 20
-50.5588458735
 10
19.4235927454
 20
-50.5800774329
 10
19.4699054579
 20
-50.6025238131
 10
19.5156002287
 20
-50.6274137987
  0
LWPOLYLINE
  5
2B2
100
AcDbEntity
  8
RACCORDO
100
AcDbPolyline
 62
250
  6
CONTINUOUS
 90
27
 70
0
 10
17.5141061675
 20
-50.3700627387
 10
17.6166666912
 20
-50.3574053845
 10
17.7198724045
 20
-50.3452628588
 10
17.8238770792
 20
-50.3339101968
 10
17.9281608601
 20
-50.323724738
 10
18.0305519643
 20
-50.3150533889
 10
18.1307912742
 20
-50.3081165416
 10
18.2288682133
 20
-50.3031344976
 10
18.3230933746
 20
-50.3002238142
 10
18.4130643789
 20
-50.2994046383
 10
18.4991387426
 20
-50.3006723899
 10
18.5808714919
 20
-50.3039020943
 10
18.6580308886
 20
-50.3089600197
 10
18.7309595479
 20
-50.3157175059
 10
18.8000963761
 20
-50.3240159551
 10
18.8651059443
 20
-50.3336681523
 10
18.9264752804
 20
-50.3445351757
 10
18.9857778326
 20
-50.3567156807
 10
19.0434295894
 20
-50.3703236155
 10
19.0989896606
 20
-50.3852477153
 10
19.1526450267
 20
-50.4014320793
 10
19.2045528512
 20
-50.4188866728
 10
19.2545321951
 20
-50.437591921
 10
19.3022783537
 20
-50.4574179862
 10
19.3477217135
 20
-50.478247435
 10
19.390998691
 20
-50.5000259438
 10
19.4321449711
 20
-50.5226631174
  0
LWPOLYLINE
  5
2B3
100
AcDbEntity
  8
RACCORDO
100
AcDbPolyline
 62
250
  6
CONTINUOUS
 90
16
 70
0
 10
-52.0643217621
 20
-7.6078189603
 10
-52.0463979314
 20
-7.6372410131
 10
-52.0296016832
 20
-7.6670904839
 10
-52.0139861858
 20
-7.6972151738
 10
-51.9996821321
 20
-7.7272596091
 10
-51.9866244568
 20
-7.7572804701
 10
-51.9746411622
 20
-7.7877555019
 10
-51.9638040634
 20
-7.818652005
 10
-51.9542667485
 20
-7.8496951164
 10
-51.9460964372
 20
-7.8809793011
 10
-51.9394061092
 20
-7.9124389631
 10
-51.9343800742
 20
-7.9437074157
 10
-51.9311977402
 20
-7.9744035155
 10
-51.929966371
 20
-8.0042416925
 10
-51.9307522062
 20
-8.033017168
 10
-51.9336273951
 20
-8.0604684394
  0
LWPOLYLINE
  5
2B4
100
AcDbEntity
  8
RACCORDO
100
AcDbPolyline
 62
250
  6
CONTINUOUS
 90
7
 70
0
 10
-49.2629232992
 20
-10.1185034397
 10
-49.2531628295
 20
-10.1472387153
 10
-49.2407630522
 20
-10.1736228907
 10
-49.2258160764
 20
-10.1974599768
 10
-49.2084329326
 20
-10.2185729048
 10
-49.1887427479
 20
-10.2368048418
 10
-49.1746854667
 20
-10.2471055509
  0
LWPOLYLINE
  5
2B5
100
AcDbEntity
  8
RACCORDO
100
AcDbPolyline
 62
250
  6
CONTINUOUS
 90
22
 70
0
 10
-53.5742962245
 20
-4.3620252187
 10
-53.5468947432
 20
-4.5030125697
 10
-53.5146980796
 20
-4.6466749836
 10
-53.4777621172
 20
-4.7927384148
 10
-53.4361926612
 20
-4.9407458025
 10
-53.3900317233
 20
-5.0906023254
 10
-53.3391960735
 20
-5.2425979626
 10
-53.2836145107
 20
-5.3967385425
 10
-53.2234138643
 20
-5.5525064914
 10
-53.1587887322
 20
-5.7094160272
 10
-53.0899218985
 20
-5.8669560981
 10
-53.0168127032
 20
-6.0250975665
 10
-52.9393725169
 20
-6.1840750529
 10
-52.8575824963
 20
-6.3437446287
 10
-52.7715837251
 20
-6.5037064381
 10
-52.6814911445
 20
-6.6638077166
 10
-52.5872634368
 20
-6.8239606198
 10
-52.489101475
 20
-6.983683994
 10
-52.3875308782
 20
-7.1422434736
 10
-52.2828441005
 20
-7.2992210807
 10
-52.1750551251
 20
-7.4545005323
 10
-52.0643217013
 20
-7.6078189217
  0
LWPOLYLINE
  5
2B6
100
AcDbEntity
  8
RACCORDO
100
AcDbPolyline
 62
250
  6
CONTINUOUS
 90
22
 70
0
 10
-54.0145001495
 20
-4.3850219971
 10
-53.9863994983
 20
-4.5370377533
 10
-53.9533355267
 20
-4.6913470609
 10
-53.9152842424
 20
-4.8479348532
 10
-53.8721877037
 20
-5.0068560786
 10
-53.8240539569
 20
-5.1680244548
 10
-53.7709586461
 20
-5.3312134795
 10
-53.7127795989
 20
-5.4966866681
 10
-53.6495886311
 20
-5.6641488817
 10
-53.5817606474
 20
-5.8325408346
 10
-53.5093748759
 20
-6.0016041689
 10
-53.4323186646
 20
-6.1715762524
 10
-53.3506889395
 20
-6.3421475681
 10
-53.2644067853
 20
-6.5134572868
 10
-53.1735226481
 20
-6.6853483592
 10
-53.07833637
 20
-6.8570725103
 10
-52.9786810446
 20
-7.0288411621
 10
-52.8747109003
 20
-7.2004349309
 10
-52.7672260291
 20
-7.3704709801
 10
-52.6565039851
 20
-7.538495182
 10
-52.5422872282
 20
-7.704974233
 10
-52.424586238
 20
-7.8699147139
  0
LWPOLYLINE
  5
2B7
100
AcDbEntity
  8
RACCORDO
100
AcDbPolyline
 62
250
  6
CONTINUOUS
 90
40
 70
0
 10
-53.3577923419
 20
-4.0369299888
 10
-53.328018308
 20
-4.2006571946
 10
-53.2932385136
 20
-4.3654961234
 10
-53.2534379479
 20
-4.5314373486
 10
-53.2086262713
 20
-4.698148724
 10
-53.1587640514
 20
-4.8659436992
 10
-53.103755997
 20
-5.0357770708
 10
-53.0434278535
 20
-5.2082796857
 10
-52.9779055022
 20
-5.382790319
 10
-52.90754422
 20
-5.5583258882
 10
-52.8323188502
 20
-5.7348399972
 10
-52.7522226729
 20
-5.9123590237
 10
-52.6676525267
 20
-6.0900177793
 10
-52.578578315
 20
-6.2678170164
 10
-52.4850133507
 20
-6.4457454425
 10
-52.3874340195
 20
-6.6229288649
 10
-52.2858219195
 20
-6.7993664798
 10
-52.1801967487
 20
-6.9750599049
 10
-52.0711072939
 20
-7.1491481583
 10
-51.9585499644
 20
-7.32162788
 10
-51.842549021
 20
-7.4925154104
 10
-51.7237100926
 20
-7.6609887791
 10
-51.6020692359
 20
-7.8270154429
 10
-51.4776296687
 20
-7.990652609
 10
-51.3509608824
 20
-8.1512211714
 10
-51.2220024597
 20
-8.3088132264
 10
-51.0908679131
 20
-8.4633700211
 10
-50.9584000766
 20
-8.6139939936
 10
-50.8251586078
 20
-8.7601835991
 10
-50.6906534451
 20
-8.9024840878
 10
-50.5541553256
 20
-9.041569649
 10
-50.4153079057
 20
-9.1779372499
 10
-50.2745248909
 20
-9.3111259458
 10
-50.1322334925
 20
-9.4403739383
 10
-49.9881072344
 20
-9.5659722169
 10
-49.8425398522
 20
-9.6876720303
 10
-49.6970507862
 20
-9.8039094492
 10
-49.5521750158
 20
-9.9141810609
 10
-49.4074543868
 20
-10.0190385235
 10
-49.2629232992
 20
-10.1185034397
  0
LWPOLYLINE
  5
2B8
100
AcDbEntity
  8
RACCORDO
100
AcDbPolyline
 62
250
  6
CONTINUOUS
 90
10
 70
0
 10
-52.3516531899
 20
-8.0415275868
 10
-52.3480986675
 20
-8.0612064865
 10
-52.3436374956
 20
-8.0795401224
 10
-52.3382884101
 20
-8.0964480637
 10
-52.3320865086
 20
-8.1118344214
 10
-52.3250524932
 20
-8.1256479724
 10
-52.3171786551
 20
-8.1378674867
 10
-52.3084945819
 20
-8.1484164974
 10
-52.2990287317
 20
-8.1572133146
 10
-52.2935789568
 20
-8.1612277319
  0
LWPOLYLINE
  5
2B9
100
AcDbEntity
  8
RACCORDO
100
AcDbPolyline
 62
7
  6
CONTINUOUS
 90
37
 70
0
 10
-53.4630311946
 20
-3.8724364709
 10
-53.4403137206
 20
-4.0034569625
 10
-53.4008978711
 20
-4.1982594969
 10
-53.3543762504
 20
-4.3958292026
 10
-53.3009244864
 20
-4.5956912831
 10
-53.2406988507
 20
-4.7975303073
 10
-53.1738123243
 20
-5.0011415186
 10
-53.1004240613
 20
-5.2061602285
 10
-53.0207199011
 20
-5.4121898738
 10
-52.9348349929
 20
-5.6189525044
 10
-52.8429581816
 20
-5.8260682693
 10
-52.7452927123
 20
-6.0331564231
 10
-52.6419997513
 20
-6.239924441
 10
-52.5333009946
 20
-6.4459983237
 10
-52.4194201957
 20
-6.6510125406
 10
-52.3005440424
 20
-6.8546817816
 10
-52.1769213252
 20
-7.0566496524
 10
-52.0488006525
 20
-7.2565637959
 10
-51.9163982872
 20
-7.4541499366
 10
-51.7799882441
 20
-7.649069133
 10
-51.6398446181
 20
-7.8409863487
 10
-51.4962095443
 20
-8.0296442252
 10
-51.3493775374
 20
-8.2147231745
 10
-51.1996490787
 20
-8.3959069657
 10
-51.0472877623
 20
-8.5729546093
 10
-50.8926052858
 20
-8.745566216
 10
-50.7359259264
 20
-8.9134463554
 10
-50.5775260565
 20
-9.0763699434
 10
-50.417732779
 20
-9.2340552978
 10
-50.2568807086
 20
-9.3862375152
 10
-50.0952385782
 20
-9.532719394
 10
-49.9331422988
 20
-9.6732379491
 10
-49.7709092607
 20
-9.8075659989
 10
-49.6087512082
 20
-9.93555793
 10
-49.4469470247
 20
-10.0570082511
 10
-49.2858798675
 20
-10.1716512659
 10
-49.1746478808
 20
-10.2471305344
  0
LINE
  5
2BA
100
AcDbEntity
  8
RACCORDO
100
AcDbLine
 62
7
  6
CONTINUOUS
 10
-53.4630224265
 20
-3.8724908726
 11
-53.4630311946
 21
-3.8724364709
  0
LINE
  5
2BB
100
AcDbEntity
  8
RACCORDO
100
AcDbLine
 62
250
  6
CONTINUOUS
 10
-53.4671172661
 20
-3.3519535697
 11
-53.3577923419
 21
-4.0369299888
  0
LWPOLYLINE
  5
2BC
100
AcDbEntity
  8
RACCORDO
100
AcDbPolyline
 62
250
  6
CONTINUOUS
 90
18
 70
0
 10
-47.3679899804
 20
45.7609439139
 10
-47.3659733682
 20
45.7403545104
 10
-47.3627625002
 20
45.720657643
 10
-47.3587448182
 20
45.702233569
 10
-47.3540485415
 20
45.6849691759
 10
-47.3487428245
 20
45.6687723066
 10
-47.342891352
 20
45.653582428
 10
-47.3365930308
 20
45.639414261
 10
-47.3299267934
 20
45.6262583005
 10
-47.3229156636
 20
45.6140311404
 10
-47.3156174784
 20
45.602703646
 10
-47.3081021066
 20
45.5922669135
 10
-47.3003970955
 20
45.5826672145
 10
-47.2925568381
 20
45.5738814782
 10
-47.2846318197
 20
45.5658845873
 10
-47.2766339149
 20
45.5586191649
 10
-47.2686027037
 20
45.5520559191
 10
-47.260910502
 20
45.5463990911
  0
LINE
  5
2BD
100
AcDbEntity
  8
RACCORDO
100
AcDbLine
 62
250
  6
CONTINUOUS
 10
-41.5738865735
 20
22.5342010239
 11
-41.5626591789
 21
23.6513322273
  0
LINE
  5
2BE
100
AcDbEntity
  8
RACCORDO
100
AcDbLine
 62
250
  6
CONTINUOUS
 10
-41.5626591789
 20
23.6513322273
 11
-41.5494251757
 21
24.7991169798
  0
LINE
  5
2BF
100
AcDbEntity
  8
RACCORDO
100
AcDbLine
 62
250
  6
CONTINUOUS
 10
-41.5494251757
 20
24.7991169798
 11
-41.5350587571
 21
25.904204035
  0
LINE
  5
2C0
100
AcDbEntity
  8
RACCORDO
100
AcDbLine
 62
250
  6
CONTINUOUS
 10
-41.5350587571
 20
25.904204035
 11
-41.5201462237
 21
26.9390550647
  0
LINE
  5
2C1
100
AcDbEntity
  8
RACCORDO
100
AcDbLine
 62
250
  6
CONTINUOUS
 10
-41.5201462237
 20
26.9390550647
 11
-41.5083659134
 21
27.6925453171
  0
LINE
  5
2C2
100
AcDbEntity
  8
RACCORDO
100
AcDbLine
 62
7
  6
CONTINUOUS
 10
-40.8344653243
 20
56.9263184262
 11
-40.8329820586
 21
57.0049884428
  0
LINE
  5
2C3
100
AcDbEntity
  8
RACCORDO
100
AcDbLine
 62
7
  6
CONTINUOUS
 10
-40.8329820586
 20
57.0049884428
 11
-40.8310644784
 21
57.0776954098
  0
LWPOLYLINE
  5
2C4
100
AcDbEntity
  8
RACCORDO
100
AcDbPolyline
 62
7
  6
CONTINUOUS
 90
3
 70
0
 10
-40.8310644784
 20
57.0776954098
 10
-40.8303321025
 20
57.0998879375
 10
-40.8287005306
 20
57.1405844034
  0
LINE
  5
2C5
100
AcDbEntity
  8
RACCORDO
100
AcDbLine
 62
7
  6
CONTINUOUS
 10
-40.8287005306
 20
57.1405844034
 11
-40.8280685423
 21
57.1590641582
  0
LWPOLYLINE
  5
2C6
100
AcDbEntity
  8
RACCORDO
100
AcDbPolyline
 62
250
  6
CONTINUOUS
 90
34
 70
0
 10
-41.434121114
 20
31.4854252127
 10
-41.4340335588
 20
31.4878699482
 10
-41.4287539318
 20
31.5594090306
 10
-41.4207710033
 20
31.6305438154
 10
-41.4103357565
 20
31.7012425219
 10
-41.3971941147
 20
31.7715380826
 10
-41.3805870322
 20
31.8415281094
 10
-41.3603529944
 20
31.9118633947
 10
-41.3366473678
 20
31.9818954351
 10
-41.309187214
 20
32.0497726067
 10
-41.2778839342
 20
32.1153162845
 10
-41.2428218933
 20
32.1787066697
 10
-41.2039803087
 20
32.2386293691
 10
-41.1612295366
 20
32.2950084121
 10
-41.1146967443
 20
32.3479206913
 10
-41.0647492543
 20
32.3962800325
 10
-41.0113013305
 20
32.4399381302
 10
-40.9544389484
 20
32.4790432008
 10
-40.8947900098
 20
32.5129527313
 10
-40.8323537233
 20
32.5415232061
 10
-40.7671335004
 20
32.5648971653
 10
-40.6997659007
 20
32.5828603026
 10
-40.6303564203
 20
32.5953550807
 10
-40.5588032913
 20
32.602437649
 10
-40.4854333855
 20
32.6040637813
 10
-40.4101274716
 20
32.6002062524
 10
-40.333007739
 20
32.5908911861
 10
-40.2547640894
 20
32.5761540457
 10
-40.1753362464
 20
32.5558927666
 10
-40.0947872694
 20
32.5302083772
 10
-40.0139932774
 20
32.4994405282
 10
-39.9332474629
 20
32.4637020074
 10
-39.8522590876
 20
32.4228791133
 10
-39.7710286341
 20
32.3769716662
  0
LINE
  5
2C7
100
AcDbEntity
  8
RACCORDO
100
AcDbLine
 62
7
  6
CONTINUOUS
 10
-40.6582801537
 20
32.4102028622
 11
-40.6578489258
 21
32.4104213545
  0
LWPOLYLINE
  5
2C8
100
AcDbEntity
  8
RACCORDO
100
AcDbPolyline
 62
250
  6
CONTINUOUS
 90
19
 70
0
 10
-55.0284497463
 20
24.8729719692
 10
-55.0501206859
 20
24.8619981292
 10
-55.0735151702
 20
24.8522757639
 10
-55.0984172598
 20
24.8438946075
 10
-55.1245970996
 20
24.8369320116
 10
-55.1518130409
 20
24.8314522417
 10
-55.1798138719
 20
24.8275058846
 10
-55.2083411359
 20
24.8251293653
 10
-55.237131517
 20
24.8243446148
 10
-55.2659192717
 20
24.8251588786
 10
-55.2944386801
 20
24.8275646424
 10
-55.3224264993
 20
24.8315396978
 10
-55.3496243941
 20
24.837047351
 10
-55.3757813198
 20
24.844036769
 10
-55.4006558402
 20
24.8524434375
 10
-55.4240183568
 20
24.8621897534
 10
-55.445653227
 20
24.873185756
 10
-55.465360754
 20
24.8853299574
 10
-55.4829590315
 20
24.8985102686
  0
LWPOLYLINE
  5
2C9
100
AcDbEntity
  8
RACCORDO
100
AcDbPolyline
 62
7
  6
CONTINUOUS
 90
16
 70
0
 10
-40.6582841074
 20
32.4102008499
 10
-40.6196599276
 20
32.4280918717
 10
-40.5644748567
 20
32.4482339071
 10
-40.5069959946
 20
32.463239256
 10
-40.4473874343
 20
32.4731308679
 10
-40.3857630183
 20
32.4779642621
 10
-40.3221811663
 20
32.4777727612
 10
-40.2568024005
 20
32.472576575
 10
-40.1899392967
 20
32.4624363958
 10
-40.1219096807
 20
32.4474436325
 10
-40.0529601522
 20
32.4277091211
 10
-39.9833803793
 20
32.4033836328
 10
-39.9135320623
 20
32.3746705766
 10
-39.8437048018
 20
32.3417910836
 10
-39.7741331266
 20
32.3049692133
 10
-39.7298630167
 20
32.2794479324
  0
LWPOLYLINE
  5
2CA
100
AcDbEntity
  8
RACCORDO
100
AcDbPolyline
 62
250
  6
CONTINUOUS
 90
9
 70
0
 10
42.0505992568
 20
-62.5482039313
 10
42.0331620897
 20
-62.5423924354
 10
42.0172558609
 20
-62.5352820862
 10
42.0029976634
 20
-62.5269253653
 10
41.9904925215
 20
-62.517384008
 10
41.9798323281
 20
-62.5067283341
 10
41.9710953114
 20
-62.4950366459
 10
41.9643457919
 20
-62.4823949824
 10
41.963564834
 20
-62.4805602705
  0
LWPOLYLINE
  5
2CB
100
AcDbEntity
  8
RACCORDO
100
AcDbPolyline
 62
250
  6
CONTINUOUS
 90
16
 70
0
 10
-52.424586238
 20
-7.8699147139
 10
-52.4164851098
 20
-7.8813941475
 10
-52.4088059771
 20
-7.8928909221
 10
-52.4015488228
 20
-7.904405027
 10
-52.3947193375
 20
-7.9159149557
 10
-52.3883118322
 20
-7.9274422158
 10
-52.3823091991
 20
-7.9390513034
 10
-52.3766632666
 20
-7.9508005885
 10
-52.3714221634
 20
-7.9626316744
 10
-52.3667132839
 20
-7.9744339397
 10
-52.3625142738
 20
-7.9862779443
 10
-52.3588476565
 20
-7.9980932347
 10
-52.3559084197
 20
-8.0095578433
 10
-52.3537618505
 20
-8.0205646305
 10
-52.3523433292
 20
-8.031221155
 10
-52.3516531801
 20
-8.0415276206
  0
LWPOLYLINE
  5
2CC
100
AcDbEntity
  8
RACCORDO
100
AcDbPolyline
 62
250
  6
CONTINUOUS
 90
19
 70
0
 10
-45.2514520569
 20
54.2955724908
 10
-45.2528091818
 20
54.3171538089
 10
-45.2556513037
 20
54.3395041953
 10
-45.2599572565
 20
54.3624571655
 10
-45.2656949703
 20
54.3858417456
 10
-45.2728217096
 20
54.4094837454
 10
-45.2812843915
 20
54.4332070567
 10
-45.2910199819
 20
54.4568349652
 10
-45.3019559641
 20
54.4801914648
 10
-45.3140108782
 20
54.5031025695
 10
-45.3270949301
 20
54.5253976123
 10
-45.3411106586
 20
54.5469105135
 10
-45.3559536598
 20
54.5674810165
 10
-45.3715133693
 20
54.5869558875
 10
-45.3876738825
 20
54.6051900529
 10
-45.404314816
 20
54.6220476778
 10
-45.4213122091
 20
54.6374031838
 10
-45.4385394476
 20
54.6511421839
 10
-45.4558682037
 20
54.663162331
  0
LWPOLYLINE
  5
2CD
100
AcDbEntity
  8
RACCORDO
100
AcDbPolyline
 62
250
  6
CONTINUOUS
 90
12
 70
0
 10
-40.566841709
 20
-6.4710345813
 10
-40.5653611843
 20
-6.5229869592
 10
-40.5609258099
 20
-6.5730121107
 10
-40.5535541593
 20
-6.6209005528
 10
-40.5432771016
 20
-6.6664517498
 10
-40.5301376726
 20
-6.7094749537
 10
-40.5141908944
 20
-6.7497900022
 10
-40.4955035451
 20
-6.787228074
 10
-40.4741538789
 20
-6.8216323948
 10
-40.4502312987
 20
-6.8528588948
 10
-40.4238359818
 20
-6.8807768111
 10
-40.39507846
 20
-6.905269236
  0
LWPOLYLINE
  5
2CE
100
AcDbEntity
  8
RACCORDO
100
AcDbPolyline
 62
250
  6
CONTINUOUS
 90
25
 70
0
 10
-41.2154726946
 20
-5.3475727599
 10
-41.2140675545
 20
-5.3974920363
 10
-41.2099386284
 20
-5.4484321245
 10
-41.2030859161
 20
-5.5003930247
 10
-41.1934554227
 20
-5.5536329402
 10
-41.1811011433
 20
-5.6078936675
 10
-41.1661850629
 20
-5.6624005969
 10
-41.1486767925
 20
-5.7171255518
 10
-41.1286067213
 20
-5.7720967087
 10
-41.1062280019
 20
-5.8266239877
 10
-41.0815095798
 20
-5.8807069463
 10
-41.0544825096
 20
-5.934346027
 10
-41.0254931077
 20
-5.9868524778
 10
-40.9945156154
 20
-6.0382116292
 10
-40.9615757914
 20
-6.0884381508
 10
-40.9270972285
 20
-6.1368872992
 10
-40.8910642597
 20
-6.1835320979
 10
-40.853492552
 20
-6.2283995235
 10
-40.8148526986
 20
-6.2709257623
 10
-40.7751046008
 20
-6.311099027
 10
-40.7342883573
 20
-6.3489311049
 10
-40.6929948575
 20
-6.3838935444
 10
-40.6514210643
 20
-6.4158101951
 10
-40.6093700148
 20
-6.4448572074
 10
-40.566841709
 20
-6.4710345813
  0
LWPOLYLINE
  5
2CF
100
AcDbEntity
  8
RACCORDO
100
AcDbPolyline
 62
7
  6
CONTINUOUS
 90
25
 70
0
 10
-41.5083659134
 20
-4.9392981666
 10
-41.5058094433
 20
-5.0375996656
 10
-41.4982164604
 20
-5.1363523156
 10
-41.4856841222
 20
-5.2354697362
 10
-41.4681740866
 20
-5.3354317404
 10
-41.4457826694
 20
-5.4356408595
 10
-41.4190092821
 20
-5.5343840476
 10
-41.3882314011
 20
-5.6311265068
 10
-41.3534953712
 20
-5.7263311268
 10
-41.3150359192
 20
-5.8197337038
 10
-41.2730333067
 20
-5.9112032465
 10
-41.2275732307
 20
-6.0007601756
 10
-41.1787679826
 20
-6.0883042968
 10
-41.1266821162
 20
-6.1737777146
 10
-41.0713829482
 20
-6.257072746
 10
-41.0129740526
 20
-6.3380018725
 10
-40.9514319189
 20
-6.4165245848
 10
-40.8868086619
 20
-6.4924593844
 10
-40.8193006662
 20
-6.565456729
 10
-40.7487197547
 20
-6.6355662535
 10
-40.6752022457
 20
-6.7024593097
 10
-40.5994602612
 20
-6.765366883
 10
-40.5217531772
 20
-6.8240299957
 10
-40.441848342
 20
-6.8785461778
 10
-40.3597590879
 20
-6.9287714424
  0
LINE
  5
2D0
100
AcDbEntity
  8
RACCORDO
100
AcDbLine
 62
250
  6
CONTINUOUS
 10
-41.5083659134
 20
2.5803289663
 11
-41.5279951342
 21
3.8479077963
  0
LWPOLYLINE
  5
2D1
100
AcDbEntity
  8
RACCORDO
100
AcDbPolyline
 62
250
  6
CONTINUOUS
 90
9
 70
0
 10
-39.7710286341
 20
32.3769716662
 10
-39.7707763961
 20
32.3597541433
 10
-39.7689061898
 20
32.3435712395
 10
-39.7654391481
 20
32.3286058109
 10
-39.760414447
 20
32.3150269554
 10
-39.7538888634
 20
32.302988106
 10
-39.7459361355
 20
32.292625295
 10
-39.7366461262
 20
32.2840556135
 10
-39.7298630167
 20
32.2794479324
  0
LINE
  5
2D2
100
AcDbEntity
  8
RACCORDO
100
AcDbLine
 62
250
  6
CONTINUOUS
 10
-41.5279951342
 20
3.8479077963
 11
-41.5450526706
 21
5.0867988813
  0
LINE
  5
2D3
100
AcDbEntity
  8
RACCORDO
100
AcDbLine
 62
250
  6
CONTINUOUS
 10
-41.5450526706
 20
5.0867988813
 11
-41.5587338438
 21
6.2120052856
  0
LINE
  5
2D4
100
AcDbEntity
  8
RACCORDO
100
AcDbLine
 62
250
  6
CONTINUOUS
 10
-41.5587338438
 20
6.2120052856
 11
-41.5725268384
 21
7.5245403709
  0
LINE
  5
2D5
100
AcDbEntity
  8
RACCORDO
100
AcDbLine
 62
250
  6
CONTINUOUS
 10
-41.5725268384
 20
7.5245403709
 11
-41.5827220711
 21
8.675130563
  0
LINE
  5
2D6
100
AcDbEntity
  8
RACCORDO
100
AcDbLine
 62
250
  6
CONTINUOUS
 10
-41.5827220711
 20
8.675130563
 11
-41.5920712854
 21
9.9631503719
  0
LINE
  5
2D7
100
AcDbEntity
  8
RACCORDO
100
AcDbLine
 62
7
  6
CONTINUOUS
 10
-40.8351635023
 20
56.6774183346
 11
-40.8356479475
 21
56.7312576417
  0
LINE
  5
2D8
100
AcDbEntity
  8
RACCORDO
100
AcDbLine
 62
250
  6
CONTINUOUS
 10
-41.5920712854
 20
9.9631503719
 11
-41.5998144609
 21
11.3637852051
  0
LINE
  5
2D9
100
AcDbEntity
  8
RACCORDO
100
AcDbLine
 62
7
  6
CONTINUOUS
 10
-40.8356479475
 20
56.7312576417
 11
-40.8357500666
 21
56.7521011258
  0
LINE
  5
2DA
100
AcDbEntity
  8
RACCORDO
100
AcDbLine
 62
250
  6
CONTINUOUS
 10
-41.5998144609
 20
11.3637852051
 11
-41.6054528927
 21
12.8738891868
  0
LINE
  5
2DB
100
AcDbEntity
  8
RACCORDO
100
AcDbLine
 62
250
  6
CONTINUOUS
 10
-41.6054528927
 20
12.8738891868
 11
-41.6087261302
 21
14.5073983004
  0
LINE
  5
2DC
100
AcDbEntity
  8
RACCORDO
100
AcDbLine
 62
7
  6
CONTINUOUS
 10
-41.5083659134
 20
30.9853940123
 11
-41.5083659134
 21
-4.9392981666
  0
LINE
  5
2DD
100
AcDbEntity
  8
RACCORDO
100
AcDbLine
 62
250
  6
CONTINUOUS
 10
-41.2154726946
 20
30.577119419
 11
-41.2154726946
 21
-5.3475727599
  0
LINE
  5
2DE
100
AcDbEntity
  8
RACCORDO
100
AcDbLine
 62
250
  6
CONTINUOUS
 10
-37.3847971352
 20
54.0065650213
 11
-37.3847971352
 21
54.4522917808
  0
LINE
  5
2DF
100
AcDbEntity
  8
RACCORDO
100
AcDbLine
 62
250
  6
CONTINUOUS
 10
-36.9642675897
 20
53.7637565322
 11
-36.9642675897
 21
54.2094832917
  0
LINE
  5
2E0
100
AcDbEntity
  8
RACCORDO
100
AcDbLine
 62
250
  6
CONTINUOUS
 10
-41.6087261302
 20
14.5073983004
 11
-41.6089397512
 21
15.4579535211
  0
LINE
  5
2E1
100
AcDbEntity
  8
RACCORDO
100
AcDbLine
 62
250
  6
CONTINUOUS
 10
-41.6089397512
 20
15.4579535211
 11
-41.6062986333
 21
16.9769028674
  0
LINE
  5
2E2
100
AcDbEntity
  8
RACCORDO
100
AcDbLine
 62
7
  6
CONTINUOUS
 10
-40.8357500666
 20
56.7521011258
 11
-40.8355803811
 21
56.8220578616
  0
LINE
  5
2E3
100
AcDbEntity
  8
RACCORDO
100
AcDbLine
 62
250
  6
CONTINUOUS
 10
-41.6062986333
 20
16.9769028674
 11
-41.6024211677
 21
18.1944834611
  0
LINE
  5
2E4
100
AcDbEntity
  8
RACCORDO
100
AcDbLine
 62
250
  6
CONTINUOUS
 10
-41.6024211677
 20
18.1944834611
 11
-41.5962013887
 21
19.5221359973
  0
LINE
  5
2E5
100
AcDbEntity
  8
RACCORDO
100
AcDbLine
 62
250
  6
CONTINUOUS
 10
-41.5962013887
 20
19.5221359973
 11
-41.5869592168
 21
20.9633366383
  0
LWPOLYLINE
  5
2E6
100
AcDbEntity
  8
RACCORDO
100
AcDbPolyline
 62
250
  6
CONTINUOUS
 90
3
 70
0
 10
-41.5869592168
 20
20.9633366383
 10
-41.5787273633
 20
21.9954272373
 10
-41.5738865735
 20
22.5342010239
  0
LINE
  5
2E7
100
AcDbEntity
  8
RACCORDO
100
AcDbLine
 62
7
  6
CONTINUOUS
 10
-40.8355803811
 20
56.8220578616
 11
-40.8351156606
 21
56.8733742912
  0
LINE
  5
2E8
100
AcDbEntity
  8
RACCORDO
100
AcDbLine
 62
7
  6
CONTINUOUS
 10
-40.8351156606
 20
56.8733742912
 11
-40.8344653243
 21
56.9263184262
  0
LWPOLYLINE
  5
2E9
100
AcDbEntity
  8
RACCORDO
100
AcDbPolyline
 62
250
  6
CONTINUOUS
 90
25
 70
0
 10
-40.566841709
 20
30.9515584366
 10
-40.5653611843
 20
31.0052204873
 10
-40.5609258099
 20
31.060367498
 10
-40.5535541593
 20
31.1167685374
 10
-40.5432771016
 20
31.1741874231
 10
-40.5301376726
 20
31.2323837102
 10
-40.5141908944
 20
31.2911136984
 10
-40.4955035451
 20
31.3501314528
 10
-40.4741538789
 20
31.409189833
 10
-40.4502312987
 20
31.4680415289
 10
-40.4238359818
 20
31.5264400956
 10
-40.39507846
 20
31.5841409858
 10
-40.3640791571
 20
31.6409025739
 10
-40.3309678843
 20
31.6964871674
 10
-40.295883297
 20
31.7506620028
 10
-40.2589723138
 20
31.8032002198
 10
-40.2203895017
 20
31.8538818119
 10
-40.1802964282
 20
31.9024945468
 10
-40.1388609855
 20
31.9488348561
 10
-40.0962566866
 20
31.9927086872
 10
-40.0526619396
 20
32.0339323158
 10
-40.0082592999
 20
32.0723331158
 10
-39.963234706
 20
32.1077502815
 10
-39.917776701
 20
32.1400355017
 10
-39.8720756427
 20
32.1690535802
  0
LWPOLYLINE
  5
2EA
100
AcDbEntity
  8
RACCORDO
100
AcDbPolyline
 62
250
  6
CONTINUOUS
 90
19
 70
0
 10
41.6654720275
 20
-58.9021719145
 10
41.6976645733
 20
-58.9146856755
 10
41.73157506
 20
-58.925262958
 10
41.7669886585
 20
-58.933836753
 10
41.8036810174
 20
-58.9403527439
 10
41.8414196839
 20
-58.9447696508
 10
41.879965577
 20
-58.9470594916
 10
41.9190745013
 20
-58.9472077599
 10
41.9584986949
 20
-58.9452135163
 10
41.9979883983
 20
-58.9410893946
 10
42.0372934373
 20
-58.9348615218
 10
42.0761648073
 20
-58.9265693527
 10
42.1143562511
 20
-58.9162654195
 10
42.1516258191
 20
-58.9040149996
 10
42.1877374018
 20
-58.8898957013
 10
42.2224622258
 20
-58.8739969731
 10
42.2555803029
 20
-58.8564195362
 10
42.2868818241
 20
-58.8372747468
 10
42.3161684886
 20
-58.8166838906
  0
LWPOLYLINE
  5
2EB
100
AcDbEntity
  8
RACCORDO
100
AcDbPolyline
 62
250
  6
CONTINUOUS
 90
39
 70
0
 10
38.6245913605
 20
-60.8483128586
 10
38.7787390513
 20
-60.9173519516
 10
38.9293332695
 20
-60.9796817208
 10
39.0760180699
 20
-61.0350879578
 10
39.2192012911
 20
-61.0837426242
 10
39.3600563051
 20
-61.1262024274
 10
39.499282605
 20
-61.1627202817
 10
39.6362445831
 20
-61.192991263
 10
39.7701134892
 20
-61.2167348919
 10
39.9008404334
 20
-61.2338693197
 10
40.0285369017
 20
-61.244425435
 10
40.1526092076
 20
-61.2482963406
 10
40.2730662453
 20
-61.2454288403
 10
40.3899571657
 20
-61.2358288752
 10
40.5027412105
 20
-61.2194843263
 10
40.6114308509
 20
-61.1963439422
 10
40.7160625732
 20
-61.1664191173
 10
40.8161218419
 20
-61.1297996792
 10
40.9116080954
 20
-61.0864348058
 10
41.0025576109
 20
-61.0363462428
 10
41.0884991532
 20
-60.9797424039
 10
41.1694071939
 20
-60.9165933625
 10
41.245326657
 20
-60.846913255
 10
41.3158792119
 20
-60.7709869904
 10
41.3810605663
 20
-60.6887344996
 10
41.4408788374
 20
-60.6002327377
 10
41.4949599603
 20
-60.506013831
 10
41.5431849175
 20
-60.4065154091
 10
41.5856545215
 20
-60.3013146633
 10
41.6223219851
 20
-60.1896550706
 10
41.6534085997
 20
-60.0712887969
 10
41.6786892924
 20
-59.9464667548
 10
41.6974474104
 20
-59.8151808016
 10
41.7096349183
 20
-59.6770696815
 10
41.7152825663
 20
-59.5325087222
 10
41.7137735248
 20
-59.3826095991
 10
41.7048822341
 20
-59.2277591119
 10
41.6887885741
 20
-59.0676076493
 10
41.6654720275
 20
-58.9021719145
  0
LINE
  5
2EC
100
AcDbEntity
  8
RACCORDO
100
AcDbLine
 62
250
  6
CONTINUOUS
 10
46.1654950455
 20
-64.551149063
 11
45.9831474828
 21
-64.4664843866
  0
LWPOLYLINE
  5
2ED
100
AcDbEntity
  8
RACCORDO
100
AcDbPolyline
 62
7
  6
CONTINUOUS
 90
22
 70
0
 10
46.0815936708
 20
-64.6299664787
 10
46.2098026935
 20
-64.6910940367
 10
46.3937605967
 20
-64.7729892025
 10
46.5759939908
 20
-64.8472074098
 10
46.7562845517
 20
-64.913658372
 10
46.9344806287
 20
-64.9722936653
 10
47.1105036443
 20
-65.0231019291
 10
47.2842319094
 20
-65.0660475211
 10
47.4555280004
 20
-65.1010951761
 10
47.6242978958
 20
-65.128233807
 10
47.7904239776
 20
-65.1474389138
 10
47.9537442128
 20
-65.1586791339
 10
48.1140960367
 20
-65.1619492101
 10
48.2713498945
 20
-65.1572493398
 10
48.4253205893
 20
-65.1445782087
 10
48.5757440717
 20
-65.1239700198
 10
48.7224624106
 20
-65.0954704628
 10
48.8652570927
 20
-65.0591381993
 10
49.0037567406
 20
-65.0151073542
 10
49.1377056653
 20
-64.9635367406
 10
49.2669617028
 20
-64.9045569754
 10
49.338342818
 20
-64.8677479336
  0
LINE
  5
2EE
100
AcDbEntity
  8
RACCORDO
100
AcDbLine
 62
250
  6
CONTINUOUS
 10
38.4668659083
 20
-60.7725842156
 11
38.6245913605
 21
-60.8483128586
  0
LINE
  5
2EF
100
AcDbEntity
  8
RACCORDO
100
AcDbLine
 62
250
  6
CONTINUOUS
 10
45.9831474828
 20
-64.4664843866
 11
44.7021071349
 21
-63.8443743805
  0
LINE
  5
2F0
100
AcDbEntity
  8
RACCORDO
100
AcDbLine
 62
250
  6
CONTINUOUS
 10
44.7021071349
 20
-63.8443743805
 11
43.4323576178
 21
-63.2251934755
  0
LWPOLYLINE
  5
2F1
100
AcDbEntity
  8
RACCORDO
100
AcDbPolyline
 62
7
  6
CONTINUOUS
 90
21
 70
0
 10
38.5591632295
 20
-60.9036886897
 10
38.6702790066
 20
-60.9582070114
 10
38.842080788
 20
-61.0376225829
 10
39.0130025939
 20
-61.1105686072
 10
39.1829416577
 20
-61.1768494256
 10
39.3515636804
 20
-61.2361862559
 10
39.5183298267
 20
-61.2882654656
 10
39.6831130371
 20
-61.3329287635
 10
39.845754774
 20
-61.3700160134
 10
40.0057438511
 20
-61.3993058305
 10
40.1629872379
 20
-61.4206846768
 10
40.3173436143
 20
-61.4340430649
 10
40.4682856163
 20
-61.4392645924
 10
40.6157518947
 20
-61.4362914718
 10
40.7595668392
 20
-61.4250785287
 10
40.8990548947
 20
-61.4056704141
 10
41.0341413858
 20
-61.3781040735
 10
41.1645990274
 20
-61.3424660936
 10
41.2895518715
 20
-61.2991175294
 10
41.4089147142
 20
-61.2482820727
 10
41.514065145
 20
-61.1949157832
  0
LINE
  5
2F2
100
AcDbEntity
  8
RACCORDO
100
AcDbLine
 62
250
  6
CONTINUOUS
 10
43.4323576178
 20
-63.2251934755
 11
42.2322285266
 21
-62.6373630751
  0
LINE
  5
2F3
100
AcDbEntity
  8
RACCORDO
100
AcDbLine
 62
250
  6
CONTINUOUS
 10
42.2322285266
 20
-62.6373630751
 11
42.0505954829
 21
-62.5482028465
  0
LINE
  5
2F4
100
AcDbEntity
  8
RACCORDO
100
AcDbLine
 62
7
  6
CONTINUOUS
 10
43.8039059892
 20
-63.5115376994
 11
46.0816076628
 21
-64.6299733303
  0
LINE
  5
2F5
100
AcDbEntity
  8
RACCORDO
100
AcDbLine
 62
7
  6
CONTINUOUS
 10
42.1934561183
 20
-62.7163484101
 11
43.8039059892
 21
-63.5115376994
  0
LINE
  5
2F6
100
AcDbEntity
  8
RACCORDO
100
AcDbLine
 62
250
  6
CONTINUOUS
 10
37.3546813539
 20
-60.216322901
 11
38.4668659083
 21
-60.7725842156
  0
LINE
  5
2F7
100
AcDbEntity
  8
RACCORDO
100
AcDbLine
 62
250
  6
CONTINUOUS
 10
36.2969133518
 20
-59.6843056752
 11
37.3546813539
 21
-60.216322901
  0
LINE
  5
2F8
100
AcDbEntity
  8
RACCORDO
100
AcDbLine
 62
250
  6
CONTINUOUS
 10
35.2941159665
 20
-59.1769699082
 11
36.2969133518
 21
-59.6843056752
  0
LINE
  5
2F9
100
AcDbEntity
  8
RACCORDO
100
AcDbLine
 62
250
  6
CONTINUOUS
 10
34.3483035929
 20
-58.6956040396
 11
35.2941159665
 21
-59.1769699082
  0
LINE
  5
2FA
100
AcDbEntity
  8
RACCORDO
100
AcDbLine
 62
250
  6
CONTINUOUS
 10
33.4615358005
 20
-58.2415684754
 11
34.3483035929
 21
-58.6956040396
  0
LINE
  5
2FB
100
AcDbEntity
  8
RACCORDO
100
AcDbLine
 62
250
  6
CONTINUOUS
 10
32.6345233321
 20
-57.8155912678
 11
33.4615358005
 21
-58.2415684754
  0
LINE
  5
2FC
100
AcDbEntity
  8
RACCORDO
100
AcDbLine
 62
250
  6
CONTINUOUS
 10
31.5069626856
 20
-57.230574566
 11
32.6345233321
 21
-57.8155912678
  0
LINE
  5
2FD
100
AcDbEntity
  8
RACCORDO
100
AcDbLine
 62
250
  6
CONTINUOUS
 10
30.5013616775
 20
-56.7042294667
 11
31.5069626856
 21
-57.230574566
  0
LINE
  5
2FE
100
AcDbEntity
  8
RACCORDO
100
AcDbLine
 62
250
  6
CONTINUOUS
 10
29.6033253398
 20
-56.2299781797
 11
30.5013616775
 21
-56.7042294667
  0
LINE
  5
2FF
100
AcDbEntity
  8
RACCORDO
100
AcDbLine
 62
250
  6
CONTINUOUS
 10
29.0551193468
 20
-55.9383094064
 11
29.6033253398
 21
-56.2299781797
  0
LWPOLYLINE
  5
300
100
AcDbEntity
  8
RACCORDO
100
AcDbPolyline
 62
7
  6
CONTINUOUS
 90
21
 70
0
 10
15.3980206968
 20
-50.5154902036
 10
15.439884846
 20
-50.5382660419
 10
15.5058566239
 20
-50.5699383673
 10
15.5764701703
 20
-50.5985555294
 10
15.6513116734
 20
-50.6235017632
 10
15.7298338326
 20
-50.6443496441
 10
15.8116063373
 20
-50.6609986634
 10
15.8963948617
 20
-50.6735384862
 10
15.9837513961
 20
-50.6822056613
 10
16.073291949
 20
-50.6872804758
 10
16.1647705568
 20
-50.6891181479
 10
16.2577635048
 20
-50.6880527814
 10
16.3523617767
 20
-50.6843906982
 10
16.4482489964
 20
-50.6784440062
 10
16.5444736217
 20
-50.6705392728
 10
16.6410701924
 20
-50.6609757898
 10
16.7380685235
 20
-50.6499818221
 10
16.8345444073
 20
-50.6379033976
 10
16.9305651431
 20
-50.6249679567
 10
17.0262365355
 20
-50.6113529392
 10
17.1207367718
 20
-50.5973738051
  0
LWPOLYLINE
  5
301
100
AcDbEntity
  8
RACCORDO
100
AcDbPolyline
 62
250
  6
CONTINUOUS
 90
28
 70
0
 10
15.2942810124
 20
-50.3058982996
 10
15.3264954946
 20
-50.3235423239
 10
15.361944525
 20
-50.3415705368
 10
15.4007942565
 20
-50.3597187383
 10
15.4433495392
 20
-50.3777154237
 10
15.489670005
 20
-50.3952549385
 10
15.5395367651
 20
-50.4120533969
 10
15.5933694208
 20
-50.4279382804
 10
15.6510879811
 20
-50.4425577165
 10
15.711605343
 20
-50.4555540825
 10
15.774918475
 20
-50.4668560233
 10
15.8411526909
 20
-50.4763662902
 10
15.9092379586
 20
-50.4839692808
 10
15.9788228631
 20
-50.4897302265
 10
16.050184513
 20
-50.4937272104
 10
16.1231021436
 20
-50.4960108777
 10
16.1973424325
 20
-50.4966866186
 10
16.2730249245
 20
-50.4958529298
 10
16.3504589236
 20
-50.4935489701
 10
16.4296375526
 20
-50.4898639684
 10
16.5104687851
 20
-50.4848920269
 10
16.5931524611
 20
-50.4786527187
 10
16.6777317357
 20
-50.4712474938
 10
16.7640459935
 20
-50.4627931582
 10
16.8519857367
 20
-50.4533393297
 10
16.9412852068
 20
-50.443059628
 10
17.032039831
 20
-50.4320860387
 10
17.5141061675
 20
-50.3700627387
  0
LINE
  5
302
100
AcDbEntity
  8
RACCORDO
100
AcDbLine
 62
250
  6
CONTINUOUS
 10
10.5671005655
 20
-47.6064157062
 11
15.2942809926
 21
-50.3058982924
  0
LINE
  5
303
100
AcDbEntity
  8
RACCORDO
100
AcDbLine
 62
250
  6
CONTINUOUS
 10
7.6033096106
 20
-45.911363474
 11
10.5671005655
 21
-47.6064157062
  0
LINE
  5
304
100
AcDbEntity
  8
RACCORDO
100
AcDbLine
 62
250
  6
CONTINUOUS
 10
4.7886386781
 20
-44.2988481776
 11
7.6033096106
 21
-45.911363474
  0
LINE
  5
305
100
AcDbEntity
  8
RACCORDO
100
AcDbLine
 62
250
  6
CONTINUOUS
 10
2.1250765741
 20
-42.7695304235
 11
4.7886386781
 21
-44.2988481776
  0
LINE
  5
306
100
AcDbEntity
  8
RACCORDO
100
AcDbLine
 62
250
  6
CONTINUOUS
 10
-0.3834068471
 20
-41.3258249067
 11
2.1250765741
 21
-42.7695304235
  0
LWPOLYLINE
  5
307
100
AcDbEntity
  8
RACCORDO
100
AcDbPolyline
 62
7
  6
CONTINUOUS
 90
8
 70
0
 10
-2.9775775574
 20
-39.9789024954
 10
-0.4084473239
 20
-41.4612231492
 10
2.18225769
 20
-42.9523635197
 10
4.7945473564
 20
-44.452305657
 10
7.428020062
 20
-45.9612569635
 10
10.0821328651
 20
-47.4795152128
 10
12.7563098884
 20
-49.0074147548
 10
15.3974930634
 20
-50.5151903928
  0
LINE
  5
308
100
AcDbEntity
  8
RACCORDO
100
AcDbLine
 62
250
  6
CONTINUOUS
 10
-2.7077284725
 20
-39.9850652265
 11
-0.3834068471
 21
-41.3258249067
  0
LINE
  5
309
100
AcDbEntity
  8
RACCORDO
100
AcDbLine
 62
250
  6
CONTINUOUS
 10
-13.4296377485
 20
-33.7943672627
 11
-8.1007410377
 21
-36.8669095789
  0
LINE
  5
30A
100
AcDbEntity
  8
RACCORDO
100
AcDbLine
 62
250
  6
CONTINUOUS
 10
-15.8407937961
 20
-32.4009019933
 11
-13.4296377485
 21
-33.7943672627
  0
LINE
  5
30B
100
AcDbEntity
  8
RACCORDO
100
AcDbLine
 62
7
  6
CONTINUOUS
 10
-7.9978359606
 20
-37.0760267925
 11
-2.9775775574
 21
-39.9789024954
  0
LINE
  5
30C
100
AcDbEntity
  8
RACCORDO
100
AcDbLine
 62
250
  6
CONTINUOUS
 10
-8.1007413531
 20
-36.8669097786
 11
-2.7077284725
 21
-39.9850652265
  0
LINE
  5
30D
100
AcDbEntity
  8
RACCORDO
100
AcDbLine
 62
250
  6
CONTINUOUS
 10
-18.1814509734
 20
-31.0451519753
 11
-15.8407937961
 21
-32.4009019933
  0
LINE
  5
30E
100
AcDbEntity
  8
RACCORDO
100
AcDbLine
 62
250
  6
CONTINUOUS
 10
-20.5545160227
 20
-29.6676254869
 11
-18.1814509734
 21
-31.0451519753
  0
LINE
  5
30F
100
AcDbEntity
  8
RACCORDO
100
AcDbLine
 62
250
  6
CONTINUOUS
 10
-23.0163585457
 20
-28.2356439725
 11
-20.5545160227
 21
-29.6676254869
  0
LINE
  5
310
100
AcDbEntity
  8
RACCORDO
100
AcDbLine
 62
250
  6
CONTINUOUS
 10
-27.0299302748
 20
-25.8963953205
 11
-23.0163585457
 21
-28.2356439725
  0
LWPOLYLINE
  5
311
100
AcDbEntity
  8
RACCORDO
100
AcDbPolyline
 62
7
  6
CONTINUOUS
 90
9
 70
0
 10
-31.2715302435
 20
-23.5690810195
 10
-28.618819692
 20
-25.1182039241
 10
-25.9381268623
 20
-26.6823134313
 10
-23.2856381775
 20
-28.2280575793
 10
-20.6608107673
 20
-29.7551486225
 10
-18.0630793371
 20
-31.2632561578
 10
-15.4921206386
 20
-32.752191207
 10
-12.9481016438
 20
-34.2220221454
 10
-7.997647111
 20
-37.0761359276
  0
LINE
  5
312
100
AcDbEntity
  8
RACCORDO
100
AcDbLine
 62
250
  6
CONTINUOUS
 10
-31.3745269057
 20
-23.3599135095
 11
-27.0299302748
 21
-25.8963953205
  0
LINE
  5
313
100
AcDbEntity
  8
RACCORDO
100
AcDbLine
 62
7
  6
CONTINUOUS
 10
-49.1746854667
 20
-10.2471055509
 11
-49.1746478808
 21
-10.2471305344
  0
LINE
  5
314
100
AcDbEntity
  8
RACCORDO
100
AcDbLine
 62
250
  6
CONTINUOUS
 10
-49.2629232992
 20
-10.1185034397
 11
-48.3372008407
 21
-10.7352502142
  0
LINE
  5
315
100
AcDbEntity
  8
RACCORDO
100
AcDbLine
 62
7
  6
CONTINUOUS
 10
-53.6734940218
 20
-7.2291612714
 11
-52.2935734096
 21
-8.1612314696
  0
LINE
  5
316
100
AcDbEntity
  8
RACCORDO
100
AcDbLine
 62
250
  6
CONTINUOUS
 10
-52.3516531801
 20
-8.0415276206
 11
-53.1370854902
 21
-7.5081279591
  0
LWPOLYLINE
  5
317
100
AcDbEntity
  8
RACCORDO
100
AcDbPolyline
 62
7
  6
CONTINUOUS
 90
3
 70
0
 10
-55.60552529
 20
-5.9168474835
 10
-55.2441957788
 20
-6.1628697868
 10
-53.6734940218
 20
-7.2291612714
  0
LINE
  5
318
100
AcDbEntity
  8
RACCORDO
100
AcDbLine
 62
250
  6
CONTINUOUS
 10
-53.1370854902
 20
-7.5081279591
 11
-53.9447877805
 21
-6.9577826447
  0
LINE
  5
319
100
AcDbEntity
  8
RACCORDO
100
AcDbLine
 62
250
  6
CONTINUOUS
 10
-53.9447877805
 20
-6.9577826447
 11
-54.7963614776
 21
-6.3756540201
  0
LINE
  5
31A
100
AcDbEntity
  8
RACCORDO
100
AcDbLine
 62
250
  6
CONTINUOUS
 10
-54.7963614776
 20
-6.3756540201
 11
-55.7004291457
 21
-5.7556616358
  0
LWPOLYLINE
  5
31B
100
AcDbEntity
  8
RACCORDO
100
AcDbPolyline
 62
250
  6
CONTINUOUS
 90
40
 70
0
 10
-55.7004291457
 20
-5.7556616358
 10
-55.8494867934
 20
-5.6495306305
 10
-55.996324382
 20
-5.5393895624
 10
-56.1408982985
 20
-5.4252110431
 10
-56.2825296966
 20
-5.3073697198
 10
-56.4218137687
 20
-5.1854384114
 10
-56.560616356
 20
-5.0581859797
 10
-56.6997360204
 20
-4.9249750666
 10
-56.8382862356
 20
-4.7863877895
 10
-56.9756060014
 20
-4.6430227201
 10
-57.1116588388
 20
-4.4948278989
 10
-57.2464053615
 20
-4.3418076429
 10
-57.3791897196
 20
-4.1846509111
 10
-57.5099652479
 20
-4.0233326518
 10
-57.6387188483
 20
-3.8578403859
 10
-57.7648566951
 20
-3.6888892628
 10
-57.888317669
 20
-3.516506963
 10
-58.0091215105
 20
-3.3406398205
 10
-58.1268072402
 20
-3.1618882212
 10
-58.2413088658
 20
-2.9803464335
 10
-58.3526674926
 20
-2.7959045603
 10
-58.460591238
 20
-2.6088620454
 10
-58.5650765614
 20
-2.4192697059
 10
-58.6661123221
 20
-2.2270675052
 10
-58.7634007781
 20
-2.0323920861
 10
-58.8570347843
 20
-1.8351103695
 10
-58.9469167681
 20
-1.6353524718
 10
-59.0324718527
 20
-1.4336551713
 10
-59.1137708764
 20
-1.2298821266
 10
-59.1907561836
 20
-1.0241779577
 10
-59.262675005
 20
-0.8175102094
 10
-59.3296200577
 20
-0.6094991951
 10
-59.3915362784
 20
-0.4005482474
 10
-59.4474737473
 20
-0.192814839
 10
-59.4973568935
 20
0.0137353952
 10
-59.5413374153
 20
0.219020283
 10
-59.5788339903
 20
0.4206901547
 10
-59.6096921018
 20
0.6179371338
 10
-59.6341706727
 20
0.8115035308
 10
-59.6523199829
 20
1.0013577704
  0
LWPOLYLINE
  5
31C
100
AcDbEntity
  8
RACCORDO
100
AcDbPolyline
 62
250
  6
CONTINUOUS
 90
9
 70
0
 10
-55.60552529
 20
-5.9168474835
 10
-55.6141138556
 20
-5.9106486671
 10
-55.6323492097
 20
-5.8948583288
 10
-55.6487588464
 20
-5.876751334
 10
-55.6632455998
 20
-5.8564349023
 10
-55.6757236899
 20
-5.8340293367
 10
-55.6861192308
 20
-5.8096673103
 10
-55.6943706688
 20
-5.7834930806
 10
-55.7004291457
 20
-5.7556616358
  0
LWPOLYLINE
  5
31D
100
AcDbEntity
  8
RACCORDO
100
AcDbPolyline
 62
250
  6
CONTINUOUS
 90
8
 70
0
 10
-53.3577923419
 20
-4.0369299888
 10
-53.3811589611
 20
-4.0173645993
 10
-53.4019170498
 20
-3.9963769534
 10
-53.4199351002
 20
-3.9741000105
 10
-53.4350989631
 20
-3.9506748975
 10
-53.4473125706
 20
-3.9262500159
 10
-53.4564985451
 20
-3.9009801015
 10
-53.4630224265
 20
-3.8724908726
  0
LWPOLYLINE
  5
31E
100
AcDbEntity
  8
0
100
AcDbPolyline
 62
250
  6
CONTINUOUS
 90
7
 70
0
 10
-33.3149060408
 20
-13.9918550895
 10
-33.2976878878
 20
-14.0253108644
 10
-33.283521854
 20
-14.0586565041
 10
-33.2724044834
 20
-14.0918898382
 10
-33.2643320732
 20
-14.1250085413
 10
-33.2593006811
 20
-14.1580101378
 10
-33.2573061133
 20
-14.1908919941
  0
LINE
  5
31F
100
AcDbEntity
  8
SUPERFICI
100
AcDbLine
 62
7
  6
CONTINUOUS
 10
-31.9821079179
 20
-19.0611146173
 11
-31.9692550065
 21
-19.1801836191
  0
LINE
  5
320
100
AcDbEntity
  8
RACCORDO
100
AcDbLine
 62
250
  6
CONTINUOUS
 10
-33.6147261749
 20
-11.6658154313
 11
-33.5885611295
 21
-11.9118577116
  0
LINE
  5
321
100
AcDbEntity
  8
SUPERFICI
100
AcDbLine
 62
7
  6
CONTINUOUS
 10
-31.9692550065
 20
-19.1801836191
 11
-31.9534079526
 21
-19.3341899623
  0
LINE
  5
322
100
AcDbEntity
  8
RACCORDO
100
AcDbLine
 62
250
  6
CONTINUOUS
 10
-33.641096899
 20
-11.4054026781
 11
-33.6147261749
 21
-11.6658154313
  0
LINE
  5
323
100
AcDbEntity
  8
SUPERFICI
100
AcDbLine
 62
7
  6
CONTINUOUS
 10
-31.9534079526
 20
-19.3341899623
 11
-31.9377765696
 21
-19.4939319536
  0
LINE
  5
324
100
AcDbEntity
  8
RACCORDO
100
AcDbLine
 62
250
  6
CONTINUOUS
 10
-33.6675891119
 20
-11.1295004968
 11
-33.641096899
 21
-11.4054026781
  0
LINE
  5
325
100
AcDbEntity
  8
SUPERFICI
100
AcDbLine
 62
7
  6
CONTINUOUS
 10
-31.9377765696
 20
-19.4939319536
 11
-31.9192416357
 21
-19.6935256176
  0
LWPOLYLINE
  5
326
100
AcDbEntity
  8
RACCORDO
100
AcDbPolyline
 62
250
  6
CONTINUOUS
 90
3
 70
0
 10
-33.6995315137
 20
-10.7743033715
 10
-33.6941311882
 20
-10.8366990702
 10
-33.6675891119
 20
-11.1295004968
  0
LINE
  5
327
100
AcDbEntity
  8
SUPERFICI
100
AcDbLine
 62
7
  6
CONTINUOUS
 10
-31.9192416357
 20
-19.6935256176
 11
-31.9009161283
 21
-19.9018502059
  0
LWPOLYLINE
  5
328
100
AcDbEntity
  8
RACCORDO
100
AcDbPolyline
 62
250
  6
CONTINUOUS
 90
10
 70
0
 10
-31.374542647
 20
-23.3599043033
 10
-31.3718546181
 20
-23.3923488873
 10
-31.3667047081
 20
-23.4230126701
 10
-31.3591288848
 20
-23.4516815089
 10
-31.349180059
 20
-23.4781551916
 10
-31.3369277087
 20
-23.5022488387
 10
-31.3224573941
 20
-23.5237941945
 10
-31.3058701689
 20
-23.5426407965
 10
-31.2872818726
 20
-23.5586570276
 10
-31.2715480468
 20
-23.5690706179
  0
LINE
  5
329
100
AcDbEntity
  8
SUPERFICI
100
AcDbLine
 62
7
  6
CONTINUOUS
 10
-31.9009161283
 20
-19.9018502059
 11
-31.8798474737
 21
-20.1550172179
  0
LINE
  5
32A
100
AcDbEntity
  8
SUPERFICI
100
AcDbLine
 62
7
  6
CONTINUOUS
 10
-31.8798474737
 20
-20.1550172179
 11
-31.8563365586
 21
-20.4549237156
  0
LINE
  5
32B
100
AcDbEntity
  8
SUPERFICI
100
AcDbLine
 62
7
  6
CONTINUOUS
 10
-31.8563365586
 20
-20.4549237156
 11
-31.8306532579
 21
-20.8035205356
  0
LWPOLYLINE
  5
32C
100
AcDbEntity
  8
RACCORDO
100
AcDbPolyline
 62
250
  6
CONTINUOUS
 90
14
 70
0
 10
-31.6994112756
 20
-22.8996865646
 10
-31.6984833033
 20
-22.913112513
 10
-31.6936140201
 20
-22.9532832225
 10
-31.6855293727
 20
-22.9928183627
 10
-31.6740081771
 20
-23.0319354564
 10
-31.6588580407
 20
-23.0705478468
 10
-31.6398802011
 20
-23.108596392
 10
-31.6167091709
 20
-23.1462936728
 10
-31.5889868842
 20
-23.1836415477
 10
-31.5564991195
 20
-23.2204309537
 10
-31.5190415436
 20
-23.2565400503
 10
-31.4763948004
 20
-23.2918746606
 10
-31.4282997419
 20
-23.3263592206
 10
-31.3745268827
 20
-23.3599135835
  0
LINE
  5
32D
100
AcDbEntity
  8
SUPERFICI
100
AcDbLine
 62
7
  6
CONTINUOUS
 10
-31.8306532579
 20
-20.8035205356
 11
-31.8001639925
 21
-21.24536256
  0
LWPOLYLINE
  5
32E
100
AcDbEntity
  8
RACCORDO
100
AcDbPolyline
 62
7
  6
CONTINUOUS
 90
16
 70
0
 10
-31.6994570789
 20
-22.8989323954
 10
-31.6986280878
 20
-22.9120094463
 10
-31.6931277728
 20
-22.9658265577
 10
-31.683936272
 20
-23.0203950807
 10
-31.6706912102
 20
-23.0754749354
 10
-31.653110242
 20
-23.130646611
 10
-31.6311022788
 20
-23.1852067576
 10
-31.6045962985
 20
-23.2386936363
 10
-31.5735944035
 20
-23.2906077911
 10
-31.5382845339
 20
-23.3403310854
 10
-31.4989215511
 20
-23.3875447205
 10
-31.4558600613
 20
-23.4319552555
 10
-31.4094604062
 20
-23.4732985759
 10
-31.3600278791
 20
-23.5115706924
 10
-31.3079395621
 20
-23.5468922186
 10
-31.2715480506
 20
-23.5690706141
  0
LINE
  5
32F
100
AcDbEntity
  8
SUPERFICI
100
AcDbLine
 62
7
  6
CONTINUOUS
 10
-31.8001639925
 20
-21.24536256
 11
-31.7677751408
 21
-21.7466748976
  0
LINE
  5
330
100
AcDbEntity
  8
SUPERFICI
100
AcDbLine
 62
7
  6
CONTINUOUS
 10
-31.7677751408
 20
-21.7466748976
 11
-31.7334125586
 21
-22.311595125
  0
LINE
  5
331
100
AcDbEntity
  8
SUPERFICI
100
AcDbLine
 62
7
  6
CONTINUOUS
 10
-31.7334125586
 20
-22.311595125
 11
-31.6994110189
 21
-22.8996911005
  0
LINE
  5
332
100
AcDbEntity
  8
RACCORDO
100
AcDbLine
 62
7
  6
CONTINUOUS
 10
-31.6994421115
 20
-22.899136773
 11
-31.6994112756
 21
-22.8996865646
  0
LWPOLYLINE
  5
333
100
AcDbEntity
  8
RACCORDO
100
AcDbPolyline
 62
250
  6
CONTINUOUS
 90
10
 70
0
 10
-31.3745269057
 20
-23.3599135095
 10
-31.4098898431
 20
-22.5099038804
 10
-31.4425879581
 20
-21.6581566846
 10
-31.4726204579
 20
-20.8046824718
 10
-31.4999914181
 20
-19.9494847163
 10
-31.5246952525
 20
-19.0925810987
 10
-31.5467168515
 20
-18.2340035889
 10
-31.5660508892
 20
-17.373770031
 10
-31.5827016874
 20
-16.5118840594
 10
-31.5966687815
 20
-15.6483564389
  0
LINE
  5
334
100
AcDbEntity
  8
RACCORDO
100
AcDbLine
 62
250
  6
CONTINUOUS
 10
-31.6078501907
 20
-14.7854351698
 11
-31.5966687815
 21
-15.6483564389
  0
LINE
  5
335
100
AcDbEntity
  8
RACCORDO
100
AcDbLine
 62
250
  6
CONTINUOUS
 10
-31.616369564
 20
-13.9209296659
 11
-31.6078501907
 21
-14.7854351698
  0
LINE
  5
336
100
AcDbEntity
  8
RACCORDO
100
AcDbLine
 62
250
  6
CONTINUOUS
 10
-31.6226790675
 20
-12.9532504328
 11
-31.616369564
 21
-13.9209296659
  0
LINE
  5
337
100
AcDbEntity
  8
RACCORDO
100
AcDbLine
 62
250
  6
CONTINUOUS
 10
-31.6257189259
 20
-11.9716967687
 11
-31.6226790675
 21
-12.9532504328
  0
LWPOLYLINE
  5
338
100
AcDbEntity
  8
RACCORDO
100
AcDbPolyline
 62
250
  6
CONTINUOUS
 90
10
 70
0
 10
42.85371595
 20
-60.315515929
 10
42.832790755
 20
-60.3051574148
 10
42.8136190568
 20
-60.2933821481
 10
42.7963653188
 20
-60.2802911512
 10
42.7811775501
 20
-60.2659967331
 10
42.7681860347
 20
-60.2506215253
 10
42.7575022142
 20
-60.2342974289
 10
42.7492177347
 20
-60.2171644865
 10
42.7434036584
 20
-60.1993696778
 10
42.7410512336
 20
-60.1880029722
  0
LWPOLYLINE
  5
339
100
AcDbEntity
  8
RACCORDO
100
AcDbPolyline
 62
250
  6
CONTINUOUS
 90
10
 70
0
 10
46.0815936708
 20
-64.6299664787
 10
46.0724594238
 20
-64.625061162
 10
46.0556475172
 20
-64.6134946933
 10
46.040291245
 20
-64.5993667259
 10
46.0264815373
 20
-64.582760917
 10
46.0143001666
 20
-64.5637755956
 10
46.0038192633
 20
-64.5425231809
 10
45.9951008888
 20
-64.5191295163
 10
45.9881966678
 20
-64.4937331243
 10
45.9831474828
 20
-64.4664843866
  0
LINE
  5
33A
100
AcDbEntity
  8
RACCORDO
100
AcDbLine
 62
250
  6
CONTINUOUS
 10
28.2912317376
 20
-55.528905255
 11
29.0551193468
 21
-55.9383094064
  0
LINE
  5
33B
100
AcDbEntity
  8
RACCORDO
100
AcDbLine
 62
250
  6
CONTINUOUS
 10
27.3483811268
 20
-55.0183725636
 11
28.2912317376
 21
-55.528905255
  0
LINE
  5
33C
100
AcDbEntity
  8
RACCORDO
100
AcDbLine
 62
250
  6
CONTINUOUS
 10
26.6713936753
 20
-54.6479274285
 11
27.3483811268
 21
-55.0183725636
  0
LINE
  5
33D
100
AcDbEntity
  8
RACCORDO
100
AcDbLine
 62
250
  6
CONTINUOUS
 10
26.0018690386
 20
-54.2781209545
 11
26.6713936753
 21
-54.6479274285
  0
LINE
  5
33E
100
AcDbEntity
  8
RACCORDO
100
AcDbLine
 62
250
  6
CONTINUOUS
 10
25.3342694698
 20
-53.9057704188
 11
26.0018690386
 21
-54.2781209545
  0
LINE
  5
33F
100
AcDbEntity
  8
RACCORDO
100
AcDbLine
 62
250
  6
CONTINUOUS
 10
24.4491030998
 20
-53.4069560809
 11
25.3342694698
 21
-53.9057704188
  0
LINE
  5
340
100
AcDbEntity
  8
RACCORDO
100
AcDbLine
 62
250
  6
CONTINUOUS
 10
23.3453139645
 20
-52.778417675
 11
24.4491030998
 21
-53.4069560809
  0
LINE
  5
341
100
AcDbEntity
  8
RACCORDO
100
AcDbLine
 62
250
  6
CONTINUOUS
 10
21.7038749411
 20
-51.8349251821
 11
23.3453139645
 21
-52.778417675
  0
LWPOLYLINE
  5
342
100
AcDbEntity
  8
RACCORDO
100
AcDbPolyline
 62
7
  6
CONTINUOUS
 90
10
 70
0
 10
19.5155859011
 20
-50.6274055242
 10
21.5087035289
 20
-51.7790476975
 10
23.5659643942
 20
-52.9624425892
 10
25.6420742175
 20
-54.1384170243
 10
27.7487020961
 20
-55.29955157
 10
29.884049816
 20
-56.4454827275
 10
32.0424348495
 20
-57.5792192811
 10
34.2188810561
 20
-58.7037114151
 10
36.4105344563
 20
-59.8207519513
 10
38.559202981
 20
-60.9037086359
  0
LINE
  5
343
100
AcDbEntity
  8
RACCORDO
100
AcDbLine
 62
250
  6
CONTINUOUS
 10
20.6356959297
 20
-51.2181422321
 11
21.7038749411
 21
-51.8349251821
  0
LINE
  5
344
100
AcDbEntity
  8
RACCORDO
100
AcDbLine
 62
250
  6
CONTINUOUS
 10
19.4321451217
 20
-50.5226627797
 11
20.6356959297
 21
-51.2181422321
  0
LINE
  5
345
100
AcDbEntity
  8
RACCORDO
100
AcDbLine
 62
250
  6
CONTINUOUS
 10
-35.2201979665
 20
-18.964265745
 11
-31.8217499226
 21
-20.9294552375
  0
LINE
  5
346
100
AcDbEntity
  8
RACCORDO
100
AcDbLine
 62
250
  6
CONTINUOUS
 10
-36.2945377254
 20
-18.3362841947
 11
-35.2201979665
 21
-18.964265745
  0
LINE
  5
347
100
AcDbEntity
  8
RACCORDO
100
AcDbLine
 62
250
  6
CONTINUOUS
 10
-37.127009101
 20
-17.8450119346
 11
-36.2945377254
 21
-18.3362841947
  0
LINE
  5
348
100
AcDbEntity
  8
RACCORDO
100
AcDbLine
 62
250
  6
CONTINUOUS
 10
-37.955695911
 20
-17.3506134576
 11
-37.127009101
 21
-17.8450119346
  0
LINE
  5
349
100
AcDbEntity
  8
RACCORDO
100
AcDbLine
 62
250
  6
CONTINUOUS
 10
-38.5738495652
 20
-16.9777944269
 11
-37.955695911
 21
-17.3506134576
  0
LINE
  5
34A
100
AcDbEntity
  8
RACCORDO
100
AcDbLine
 62
250
  6
CONTINUOUS
 10
-39.3930170031
 20
-16.4785421835
 11
-38.5738495652
 21
-16.9777944269
  0
LINE
  5
34B
100
AcDbEntity
  8
RACCORDO
100
AcDbLine
 62
250
  6
CONTINUOUS
 10
-40.2230947795
 20
-15.9668970266
 11
-39.3930170031
 21
-16.4785421835
  0
LINE
  5
34C
100
AcDbEntity
  8
RACCORDO
100
AcDbLine
 62
250
  6
CONTINUOUS
 10
-41.1027646209
 20
-15.4187673804
 11
-40.2230947795
 21
-15.9668970266
  0
LINE
  5
34D
100
AcDbEntity
  8
RACCORDO
100
AcDbLine
 62
250
  6
CONTINUOUS
 10
-41.8189732496
 20
-14.9683007635
 11
-41.1027646209
 21
-15.4187673804
  0
LINE
  5
34E
100
AcDbEntity
  8
RACCORDO
100
AcDbLine
 62
250
  6
CONTINUOUS
 10
-42.6019216758
 20
-14.4718811014
 11
-41.8189732496
 21
-14.9683007635
  0
LINE
  5
34F
100
AcDbEntity
  8
RACCORDO
100
AcDbLine
 62
250
  6
CONTINUOUS
 10
-43.4661301378
 20
-13.9195329303
 11
-42.6019216758
 21
-14.4718811014
  0
LINE
  5
350
100
AcDbEntity
  8
RACCORDO
100
AcDbLine
 62
250
  6
CONTINUOUS
 10
-44.421766176
 20
-13.3039114268
 11
-43.4661301378
 21
-13.9195329303
  0
LINE
  5
351
100
AcDbEntity
  8
RACCORDO
100
AcDbLine
 62
250
  6
CONTINUOUS
 10
-45.1125461035
 20
-12.8559534773
 11
-44.421766176
 21
-13.3039114268
  0
LINE
  5
352
100
AcDbEntity
  8
RACCORDO
100
AcDbLine
 62
250
  6
CONTINUOUS
 10
-45.8482946333
 20
-12.3762333982
 11
-45.1125461035
 21
-12.8559534773
  0
LWPOLYLINE
  5
353
100
AcDbEntity
  8
RACCORDO
100
AcDbPolyline
 62
7
  6
CONTINUOUS
 90
14
 70
0
 10
-52.2935819496
 20
-8.1612293416
 10
-52.2862743119
 20
-8.1660003383
 10
-52.2638690637
 20
-8.1788562045
 10
-52.2404634793
 20
-8.1897329893
 10
-52.2161927426
 20
-8.1985677892
 10
-52.1912133568
 20
-8.2052951072
 10
-52.1657283413
 20
-8.209852007
 10
-52.1399491618
 20
-8.2121984486
 10
-52.1140789732
 20
-8.212318366
 10
-52.088297878
 20
-8.2102134343
 10
-52.0627855077
 20
-8.2058979245
 10
-52.0377259204
 20
-8.199400442
 10
-52.0133112966
 20
-8.1907684234
 10
-51.9896026722
 20
-8.1800034847
  0
LINE
  5
354
100
AcDbEntity
  8
RACCORDO
100
AcDbLine
 62
250
  6
CONTINUOUS
 10
-46.6300182344
 20
-11.863738324
 11
-45.8482946333
 21
-12.3762333982
  0
LINE
  5
355
100
AcDbEntity
  8
RACCORDO
100
AcDbLine
 62
250
  6
CONTINUOUS
 10
-47.4595772085
 20
-11.3169054266
 11
-46.6300182344
 21
-11.863738324
  0
LWPOLYLINE
  5
356
100
AcDbEntity
  8
RACCORDO
100
AcDbPolyline
 62
7
  6
CONTINUOUS
 90
10
 70
0
 10
-49.1746854667
 20
-10.2471055509
 10
-47.3252786762
 20
-11.4708607273
 10
-45.4080273977
 20
-12.7254949583
 10
-43.4731873749
 20
-13.974592513
 10
-41.5175073793
 20
-15.2165701616
 10
-39.5356830684
 20
-16.4485725479
 10
-37.5222393822
 20
-17.6672752864
 10
-35.4772996043
 20
-18.871398632
 10
-33.4139967233
 20
-20.0673681608
 10
-31.817643003
 20
-20.9884180339
  0
LINE
  5
357
100
AcDbEntity
  8
RACCORDO
100
AcDbLine
 62
250
  6
CONTINUOUS
 10
-48.3372008407
 20
-10.7352502142
 11
-47.4595772085
 21
-11.3169054266
  0
LWPOLYLINE
  5
358
100
AcDbEntity
  8
RACCORDO
100
AcDbPolyline
 62
250
  6
CONTINUOUS
 90
8
 70
0
 10
-32.8963515969
 20
-16.2386397055
 10
-32.7868337192
 20
-16.7380055307
 10
-32.6667049009
 20
-17.2490234913
 10
-32.5353492894
 20
-17.771306838
 10
-32.391989305
 20
-18.3041664068
 10
-32.2361721137
 20
-18.8475186744
 10
-32.0676998297
 20
-19.401841927
 10
-31.8987390798
 20
-19.9273616537
  0
LINE
  5
359
100
AcDbEntity
  8
SUPERFICI
100
AcDbLine
 62
7
  6
CONTINUOUS
 10
-32.0583338547
 20
-18.4690886546
 11
-32.0574480025
 21
-18.4744384414
  0
LINE
  5
35A
100
AcDbEntity
  8
SUPERFICI
100
AcDbLine
 62
7
  6
CONTINUOUS
 10
-32.0574480025
 20
-18.4744384414
 11
-32.0553484788
 21
-18.4875154206
  0
LINE
  5
35B
100
AcDbEntity
  8
SUPERFICI
100
AcDbLine
 62
7
  6
CONTINUOUS
 10
-32.0553484788
 20
-18.4875154206
 11
-32.0519722388
 21
-18.5092583633
  0
LINE
  5
35C
100
AcDbEntity
  8
RACCORDO
100
AcDbLine
 62
250
  6
CONTINUOUS
 10
-33.3482694655
 20
-13.7738987196
 11
-33.3149060408
 21
-13.9918550895
  0
LWPOLYLINE
  5
35D
100
AcDbEntity
  8
0
100
AcDbPolyline
 62
250
  6
CONTINUOUS
 90
7
 70
0
 10
-33.2573061133
 20
-14.1908919941
 10
-33.2045947325
 20
-14.5430814179
 10
-33.1488220862
 20
-14.890859976
 10
-33.0900498028
 20
-15.2342663703
 10
-33.0283395338
 20
-15.5733393173
 10
-32.9637529263
 20
-15.9081175308
 10
-32.8963515969
 20
-16.2386397055
  0
LINE
  5
35E
100
AcDbEntity
  8
SUPERFICI
100
AcDbLine
 62
7
  6
CONTINUOUS
 10
-32.0519722388
 20
-18.5092583633
 11
-32.0475985357
 21
-18.5384039694
  0
LINE
  5
35F
100
AcDbEntity
  8
RACCORDO
100
AcDbLine
 62
250
  6
CONTINUOUS
 10
-33.3817692789
 20
-13.5470913222
 11
-33.3482694655
 21
-13.7738987196
  0
LINE
  5
360
100
AcDbEntity
  8
SUPERFICI
100
AcDbLine
 62
7
  6
CONTINUOUS
 10
-32.0475985357
 20
-18.5384039694
 11
-32.0424176936
 21
-18.5741127945
  0
LINE
  5
361
100
AcDbEntity
  8
RACCORDO
100
AcDbLine
 62
250
  6
CONTINUOUS
 10
-33.4160482248
 20
-13.3059151789
 11
-33.3817692789
 21
-13.5470913222
  0
LINE
  5
362
100
AcDbEntity
  8
SUPERFICI
100
AcDbLine
 62
7
  6
CONTINUOUS
 10
-32.0424176936
 20
-18.5741127945
 11
-32.0337408207
 21
-18.6364139652
  0
LINE
  5
363
100
AcDbEntity
  8
RACCORDO
100
AcDbLine
 62
250
  6
CONTINUOUS
 10
-33.4512412151
 20
-13.0477553142
 11
-33.4160482248
 21
-13.3059151789
  0
LINE
  5
364
100
AcDbEntity
  8
SUPERFICI
100
AcDbLine
 62
7
  6
CONTINUOUS
 10
-32.0337408207
 20
-18.6364139652
 11
-32.0244754171
 21
-18.7060527989
  0
LINE
  5
365
100
AcDbEntity
  8
RACCORDO
100
AcDbLine
 62
250
  6
CONTINUOUS
 10
-33.4874209846
 20
-12.7699495497
 11
-33.4512412151
 21
-13.0477553142
  0
LINE
  5
366
100
AcDbEntity
  8
SUPERFICI
100
AcDbLine
 62
7
  6
CONTINUOUS
 10
-32.0244754171
 20
-18.7060527989
 11
-32.0148518115
 21
-18.781548183
  0
LINE
  5
367
100
AcDbEntity
  8
RACCORDO
100
AcDbLine
 62
250
  6
CONTINUOUS
 10
-33.524595984
 20
-12.469750072
 11
-33.4874209846
 21
-12.7699495497
  0
LINE
  5
368
100
AcDbEntity
  8
SUPERFICI
100
AcDbLine
 62
7
  6
CONTINUOUS
 10
-32.0148518115
 20
-18.781548183
 11
-32.0050142817
 21
-18.8619100201
  0
LINE
  5
369
100
AcDbEntity
  8
RACCORDO
100
AcDbLine
 62
250
  6
CONTINUOUS
 10
-33.5499004307
 20
-12.2558049023
 11
-33.524595984
 21
-12.469750072
  0
LINE
  5
36A
100
AcDbEntity
  8
SUPERFICI
100
AcDbLine
 62
7
  6
CONTINUOUS
 10
-32.0050142817
 20
-18.8619100201
 11
-31.9918550812
 21
-18.9743042213
  0
LINE
  5
36B
100
AcDbEntity
  8
SUPERFICI
100
AcDbLine
 62
7
  6
CONTINUOUS
 10
-31.9918550812
 20
-18.9743042213
 11
-31.9821079179
 21
-19.0611146173
  0
LWPOLYLINE
  5
36C
100
AcDbEntity
  8
RACCORDO
100
AcDbPolyline
 62
250
  6
CONTINUOUS
 90
3
 70
0
 10
-33.5885611295
 20
-11.9118577116
 10
-33.5755982002
 20
-12.0296531607
 10
-33.5499004307
 20
-12.2558049023
  0
LINE
  5
36D
100
AcDbEntity
  8
RACCORDO
100
AcDbLine
 62
250
  6
CONTINUOUS
 10
-52.0643217443
 20
-7.6078189479
 11
-52.3872618459
 21
-7.8429397276
  0
LINE
  5
36E
100
AcDbEntity
  8
RACCORDO
100
AcDbLine
 62
250
  6
CONTINUOUS
 10
-52.3872618459
 20
-7.8429397276
 11
-52.424586238
 21
-7.8699147139
  0
LWPOLYLINE
  5
36F
100
AcDbEntity
  8
RACCORDO
100
AcDbPolyline
 62
250
  6
CONTINUOUS
 90
19
 70
0
 10
-53.5742962246
 20
-4.3620252187
 10
-53.5948626455
 20
-4.3763327216
 10
-53.6170403976
 20
-4.3894485841
 10
-53.6406392276
 20
-4.40126029
 10
-53.6654566899
 20
-4.4116665098
 10
-53.6912798872
 20
-4.4205779728
 10
-53.7178872984
 20
-4.4279182313
 10
-53.7450506699
 20
-4.4336243144
 10
-53.7725369776
 20
-4.4376472697
 10
-53.8001104317
 20
-4.439952584
 10
-53.8275344898
 20
-4.4405204781
 10
-53.8545738898
 20
-4.4393460771
 10
-53.8809966724
 20
-4.4364394527
 10
-53.9065761644
 20
-4.431825536
 10
-53.931092925
 20
-4.4255439051
 10
-53.9543366319
 20
-4.4176484441
 10
-53.9761078816
 20
-4.4082068822
 10
-53.9962199006
 20
-4.3973002124
 10
-54.0145001495
 20
-4.3850219971
  0
LWPOLYLINE
  5
370
100
AcDbEntity
  8
RACCORDO
100
AcDbPolyline
 62
250
  6
CONTINUOUS
 90
16
 70
0
 10
-5.6919761135
 20
31.2519181724
 10
-5.7208070607
 20
31.2333231524
 10
-5.7494045262
 20
31.2121518146
 10
-5.7775776357
 20
31.18854546
 10
-5.805138345
 20
31.1626616408
 10
-5.831902704
 20
31.1346731134
 10
-5.8576920843
 20
31.1047666858
 10
-5.8823343601
 20
31.0731419636
 10
-5.9056650569
 20
31.0400100184
 10
-5.9275284579
 20
31.0055919836
 10
-5.9477786435
 20
30.9701175787
 10
-5.9662804564
 20
30.9338235707
 10
-5.9829104036
 20
30.8969521947
 10
-5.9975574924
 20
30.8597495428
 10
-6.0101239709
 20
30.8224639219
 10
-6.0205259717
 20
30.7853441917
  0
LINE
  5
371
100
AcDbEntity
  8
DRAFT
100
AcDbLine
 62
7
  6
CONTINUOUS
 10
1.7096845602
 20
31.8796280188
 11
1.3303199263
 21
31.6529416444
  0
LINE
  5
372
100
AcDbEntity
  8
DRAFT
100
AcDbLine
 62
7
  6
CONTINUOUS
 10
4.586637867
 20
30.2185112361
 11
4.2072732331
 21
29.9918248617
  0
LINE
  5
373
100
AcDbEntity
  8
0
100
AcDbLine
 62
7
  6
CONTINUOUS
 10
-12.2193005223
 20
25.6573903794
 11
-12.2698394938
 21
25.6282098107
  0
LINE
  5
374
100
AcDbEntity
  8
0
100
AcDbLine
 62
7
  6
CONTINUOUS
 10
-11.6888056953
 20
25.3527477093
 11
-11.7393453481
 21
25.3235667472
  0
LINE
  5
375
100
AcDbEntity
  8
0
100
AcDbLine
 62
7
  6
CONTINUOUS
 10
-10.7832774518
 20
24.8327391068
 11
-10.833818071
 21
24.8035575867
  0
LINE
  5
376
100
AcDbEntity
  8
0
100
AcDbLine
 62
7
  6
CONTINUOUS
 10
-10.295315325
 20
24.5524629497
 11
-10.3458563466
 21
24.5232811973
  0
LINE
  5
377
100
AcDbEntity
  8
0
100
AcDbLine
 62
7
  6
CONTINUOUS
 10
-10.1140955579
 20
24.4485494776
 11
-10.1646367362
 21
24.4193676347
  0
LINE
  5
378
100
AcDbEntity
  8
0
100
AcDbLine
 62
7
  6
CONTINUOUS
 10
-9.6259053275
 20
24.1680212465
 11
-9.6764467797
 21
24.1388392455
  0
LINE
  5
379
100
AcDbEntity
  8
0
100
AcDbLine
 62
7
  6
CONTINUOUS
 10
-9.1520536098
 20
23.8954169391
 11
-9.202595201
 21
23.8662348578
  0
LINE
  5
37A
100
AcDbEntity
  8
0
100
AcDbLine
 62
7
  6
CONTINUOUS
 10
-11.4702722149
 20
22.0460822735
 11
-11.5203708353
 21
22.017155958
  0
LINE
  5
37B
100
AcDbEntity
  8
0
100
AcDbLine
 62
7
  6
CONTINUOUS
 10
-8.6645088004
 20
23.6149806666
 11
-8.7150504617
 21
23.5857985448
  0
LINE
  5
37C
100
AcDbEntity
  8
0
100
AcDbLine
 62
7
  6
CONTINUOUS
 10
-7.6942806688
 20
23.056310689
 11
-7.7448221408
 21
23.0271286765
  0
LWPOLYLINE
  5
37D
100
AcDbEntity
  8
RACCORDO
100
AcDbPolyline
 62
250
  6
CONTINUOUS
 90
25
 70
0
 10
22.3656618166
 20
-42.8074733874
 10
22.4081919329
 20
-42.8304072798
 10
22.4502441021
 20
-42.8499201556
 10
22.4918183241
 20
-42.8660120148
 10
22.5331112167
 20
-42.8787340358
 10
22.5739261622
 20
-42.8880350402
 10
22.6136733076
 20
-42.8937614926
 10
22.6523130543
 20
-42.8958554402
 10
22.6898850009
 20
-42.8943748358
 10
22.72591809
 20
-42.889340003
 10
22.7603964094
 20
-42.8807058968
 10
22.7933358714
 20
-42.8685175621
 10
22.8243131548
 20
-42.8529304577
 10
22.8533026745
 20
-42.8339000684
 10
22.8803300156
 20
-42.8114709093
 10
22.9050486131
 20
-42.7859319851
 10
22.9274272695
 20
-42.7572471929
 10
22.9474971823
 20
-42.7254526355
 10
22.965005378
 20
-42.6909456261
 10
22.979921597
 20
-42.6536623927
 10
22.9922760989
 20
-42.6136667073
 10
23.0019066898
 20
-42.5715471993
 10
23.008759305
 20
-42.5275000787
 10
23.0128880092
 20
-42.4813291355
 10
23.0142928023
 20
-42.4330343698
  0
LWPOLYLINE
  5
37E
100
AcDbEntity
  8
RACCORDO
100
AcDbPolyline
 62
250
  6
CONTINUOUS
 90
25
 70
0
 10
23.0142928023
 20
-42.4330343698
 10
23.0615071894
 20
-42.4585856924
 10
23.1114849131
 20
-42.4823203445
 10
23.1640166888
 20
-42.5041389361
 10
23.2188825366
 20
-42.5239501004
 10
23.2758527029
 20
-42.5416708772
 10
23.3346886218
 20
-42.5572270596
 10
23.3951439147
 20
-42.5705535054
 10
23.4569654214
 20
-42.5815944092
 10
23.5198942611
 20
-42.5903035367
 10
23.5836669157
 20
-42.5966444178
 10
23.6480163336
 20
-42.6005904999
 10
23.712673048
 20
-42.6021252584
 10
23.7773663052
 20
-42.6012422665
 10
23.8418251986
 20
-42.5979452217
 10
23.905779803
 20
-42.5922479306
 10
23.9689623049
 20
-42.584174251
 10
24.0311081239
 20
-42.5737579917
 10
24.091957021
 20
-42.5610427716
 10
24.151254188
 20
-42.5460818363
 10
24.2087513146
 20
-42.5289378355
 10
24.2642076285
 20
-42.5096825607
 10
24.3173909031
 20
-42.4883966445
 10
24.3680784305
 20
-42.4651692228
 10
24.4160579539
 20
-42.4400975618
  0
LWPOLYLINE
  5
37F
100
AcDbEntity
  8
RACCORDO
100
AcDbPolyline
 62
7
  6
CONTINUOUS
 90
19
 70
0
 10
22.5727444377
 20
-43.2652102486
 10
22.6583812615
 20
-43.3116754958
 10
22.7440818333
 20
-43.3523770121
 10
22.8296325711
 20
-43.3874351487
 10
22.9147674901
 20
-43.4169611862
 10
22.9993743291
 20
-43.4411280934
 10
23.0834367041
 20
-43.4601142808
 10
23.1666151041
 20
-43.4740200915
 10
23.2488099382
 20
-43.4830083981
 10
23.3302961784
 20
-43.4872390479
 10
23.4108990044
 20
-43.4867907863
 10
23.4903311921
 20
-43.4817597339
 10
23.5686478284
 20
-43.4722236447
 10
23.645504531
 20
-43.4582975734
 10
23.7207710499
 20
-43.4400868127
 10
23.7947725936
 20
-43.4175412193
 10
23.8674307657
 20
-43.3906505024
 10
23.9383045149
 20
-43.3595513224
 10
24.0071462417
 20
-43.3243521148
  0
LINE
  5
380
100
AcDbEntity
  8
0
100
AcDbLine
 62
250
  6
CONTINUOUS
 10
17.6256198337
 20
-43.5699913235
 11
17.5967396427
 21
-43.5533806626
  0
LINE
  5
381
100
AcDbEntity
  8
RACCORDO
100
AcDbLine
 62
7
  6
CONTINUOUS
 10
-40.3597590879
 20
-6.9287714424
 11
22.5727444377
 21
-43.2652102486
  0
LINE
  5
382
100
AcDbEntity
  8
RACCORDO
100
AcDbLine
 62
250
  6
CONTINUOUS
 10
-40.566841709
 20
-6.4710345813
 11
22.3656618166
 21
-42.8074733874
  0
LWPOLYLINE
  5
383
100
AcDbEntity
  8
RACCORDO
100
AcDbPolyline
 62
250
  6
CONTINUOUS
 90
14
 70
0
 10
-41.2154726946
 20
-5.3475727599
 10
-41.2597260323
 20
-5.3203117645
 10
-41.3008330073
 20
-5.2914552532
 10
-41.3386214817
 20
-5.2611240644
 10
-41.3729332143
 20
-5.2294452114
 10
-41.4036245226
 20
-5.1965513514
 10
-41.4305668851
 20
-5.1625802292
 10
-41.4536474792
 20
-5.1276741008
 10
-41.4727696535
 20
-5.0919791376
 10
-41.487853333
 20
-5.0556448143
 10
-41.4988353538
 20
-5.0188232828
 10
-41.505669728
 20
-4.9816687354
 10
-41.5083278365
 20
-4.9443367588
 10
-41.5083659134
 20
-4.9392981666
  0
LWPOLYLINE
  5
384
100
AcDbEntity
  8
RACCORDO
100
AcDbPolyline
 62
250
  6
CONTINUOUS
 90
3
 70
0
 10
-40.39507846
 20
-6.905269236
 10
-40.3640791571
 20
-6.926233606
 10
-40.3597590879
 20
-6.9287714424
  0
LINE
  5
385
100
AcDbEntity
  8
0
100
AcDbLine
 62
7
  6
CONTINUOUS
 10
-11.5966550917
 20
23.0379914647
 11
-11.4318435633
 21
23.4278014179
  0
LINE
  5
386
100
AcDbEntity
  8
0
100
AcDbLine
 62
7
  6
CONTINUOUS
 10
-11.4318435633
 20
23.4278014179
 11
-11.2643403574
 21
23.8190717294
  0
LINE
  5
387
100
AcDbEntity
  8
0
100
AcDbLine
 62
7
  6
CONTINUOUS
 10
-11.2643403574
 20
23.8190717294
 11
-11.0941464907
 21
24.2117956043
  0
LWPOLYLINE
  5
388
100
AcDbEntity
  8
0
100
AcDbPolyline
 62
7
  6
CONTINUOUS
 90
3
 70
0
 10
-11.0941464907
 20
24.2117956043
 10
-10.921266029
 20
24.6059458639
 10
-10.833818071
 20
24.8035575867
  0
LINE
  5
389
100
AcDbEntity
  8
0
100
AcDbLine
 62
7
  6
CONTINUOUS
 10
-11.2698288183
 20
22.5674707798
 11
-11.5203708353
 21
22.017155958
  0
LINE
  5
38A
100
AcDbEntity
  8
0
100
AcDbLine
 62
7
  6
CONTINUOUS
 10
-11.4702722149
 20
22.0460822735
 11
-11.2196168047
 21
22.5965036207
  0
LINE
  5
38B
100
AcDbEntity
  8
0
100
AcDbLine
 62
7
  6
CONTINUOUS
 10
-11.0133052685
 20
23.1215857585
 11
-11.2698288183
 21
22.5674707798
  0
LINE
  5
38C
100
AcDbEntity
  8
0
100
AcDbLine
 62
7
  6
CONTINUOUS
 10
-11.2196168047
 20
22.5965036207
 11
-10.9629879912
 21
23.1506972429
  0
LINE
  5
38D
100
AcDbEntity
  8
0
100
AcDbLine
 62
7
  6
CONTINUOUS
 10
-10.7508026941
 20
23.6794821677
 11
-11.0133052685
 21
23.1215857585
  0
LINE
  5
38E
100
AcDbEntity
  8
0
100
AcDbLine
 62
7
  6
CONTINUOUS
 10
-10.9629879912
 20
23.1506972429
 11
-10.7003886138
 21
23.7086440388
  0
LWPOLYLINE
  5
38F
100
AcDbEntity
  8
0
100
AcDbPolyline
 62
7
  6
CONTINUOUS
 90
3
 70
0
 10
-10.7003886138
 20
23.7086440388
 10
-10.4318300295
 20
24.2702676037
 10
-10.295315325
 20
24.5524629497
  0
LWPOLYLINE
  5
390
100
AcDbEntity
  8
0
100
AcDbPolyline
 62
7
  6
CONTINUOUS
 90
3
 70
0
 10
-10.3458563466
 20
24.5232811973
 10
-10.4823311283
 20
24.2410851018
 10
-10.7508026941
 20
23.6794821677
  0
LINE
  5
391
100
AcDbEntity
  8
0
100
AcDbLine
 62
7
  6
CONTINUOUS
 10
-8.4818326526
 20
21.6682592885
 11
-8.2395983634
 21
22.1198684475
  0
LINE
  5
392
100
AcDbEntity
  8
0
100
AcDbLine
 62
7
  6
CONTINUOUS
 10
-8.2395983634
 20
22.1198684475
 11
-7.9939222121
 21
22.5728357753
  0
LINE
  5
393
100
AcDbEntity
  8
0
100
AcDbLine
 62
7
  6
CONTINUOUS
 10
-7.9939222121
 20
22.5728357753
 11
-7.7448221408
 21
23.0271286765
  0
LWPOLYLINE
  5
394
100
AcDbEntity
  8
RACCORDO
100
AcDbPolyline
 62
250
  6
CONTINUOUS
 90
19
 70
0
 10
-51.9336291318
 20
-8.0604696531
 10
-51.9538538407
 20
-8.0734288529
 10
-51.9753707145
 20
-8.0849484121
 10
-51.9980212743
 20
-8.0949434282
 10
-52.0216387608
 20
-8.1033402536
 10
-52.0460491295
 20
-8.1100769442
 10
-52.0710723082
 20
-8.1151037717
 10
-52.0965238555
 20
-8.1183836942
 10
-52.1222163411
 20
-8.1198925711
 10
-52.147960478
 20
-8.1196192852
 10
-52.1735665989
 20
-8.1175658498
 10
-52.1988460543
 20
-8.1137473957
 10
-52.2236126006
 20
-8.108192058
 10
-52.2476835877
 20
-8.1009408261
 10
-52.2708818763
 20
-8.092047086
 10
-52.2930370682
 20
-8.0815761021
 10
-52.3139860139
 20
-8.0696048117
 10
-52.3335740919
 20
-8.056221387
 10
-52.3516568691
 20
-8.0415243422
  0
LWPOLYLINE
  5
395
100
AcDbEntity
  8
0
100
AcDbPolyline
 62
7
  6
CONTINUOUS
 90
17
 70
0
 10
-4.0639397207
 20
19.5972408227
 10
-4.0502877107
 20
19.605920868
 10
-4.0360521209
 20
19.6168032776
 10
-4.0225738251
 20
19.6290656677
 10
-4.0099231258
 20
19.6426158092
 10
-3.9981349359
 20
19.657381741
 10
-3.9872401066
 20
19.6732945824
 10
-3.977298124
 20
19.6902690198
 10
-3.9682841247
 20
19.7082116368
 10
-3.9601336412
 20
19.7270321318
 10
-3.9528097385
 20
19.7466420321
 10
-3.9462598358
 20
19.7669416294
 10
-3.9404254713
 20
19.7878476089
 10
-3.9352696466
 20
19.8093036453
 10
-3.9307486771
 20
19.8312340232
 10
-3.9268064709
 20
19.8535392906
 10
-3.9233918514
 20
19.876130216
  0
LINE
  5
396
100
AcDbEntity
  8
DRAFT
100
AcDbLine
 62
7
  6
CONTINUOUS
 10
4.7632858541
 20
29.6707901428
 11
4.8785258551
 21
29.7396509055
  0
LWPOLYLINE
  5
397
100
AcDbEntity
  8
0
100
AcDbPolyline
 62
7
  6
CONTINUOUS
 90
46
 70
0
 10
-3.6839400179
 20
19.1814120849
 10
-3.677194446
 20
19.1853699872
 10
-3.6647905272
 20
19.1930328871
 10
-3.652253238
 20
19.2015187841
 10
-3.6395785678
 20
19.2108396394
 10
-3.6267696156
 20
19.2209839648
 10
-3.6139140809
 20
19.2321632563
 10
-3.6010126744
 20
19.2443969292
 10
-3.5880634095
 20
19.2576662303
 10
-3.5751497289
 20
19.2721255117
 10
-3.5622638676
 20
19.2877604076
 10
-3.5494119519
 20
19.3045861343
 10
-3.5366980219
 20
19.3228015412
 10
-3.5240979889
 20
19.3423975432
 10
-3.5116337921
 20
19.363384341
 10
-3.499478213
 20
19.3859898693
 10
-3.4876131673
 20
19.4102050463
 10
-3.4760540036
 20
19.4360403735
 10
-3.4650233082
 20
19.4637533394
 10
-3.4545048574
 20
19.4933531562
 10
-3.4445114298
 20
19.5248323996
 10
-3.4353087706
 20
19.5584237825
 10
-3.4268763695
 20
19.5941107509
 10
-3.419230628
 20
19.631911991
 10
-3.4126923018
 20
19.6721132622
 10
-3.4071437726
 20
19.7147117748
 10
-3.4026976642
 20
19.7597129105
 10
-3.4000199352
 20
19.8074147685
 10
-3.3990475907
 20
19.858266956
 10
-3.3998378426
 20
19.9118228671
 10
-3.4032394716
 20
19.9670349776
 10
-3.4096128169
 20
20.0244584873
 10
-3.4185966574
 20
20.0835386541
 10
-3.429964266
 20
20.1415594954
 10
-3.4439816318
 20
20.1981641565
 10
-3.4603908962
 20
20.2537052725
 10
-3.4781851342
 20
20.3065282036
 10
-3.4973050069
 20
20.3561115569
 10
-3.5178191624
 20
20.4029718942
 10
-3.5389132186
 20
20.4470112152
 10
-3.5604313513
 20
20.4881623239
 10
-3.5825353332
 20
20.5264893293
 10
-3.6048860775
 20
20.5620917599
 10
-3.627371724
 20
20.5950021856
 10
-3.6501078984
 20
20.6251860823
 10
-3.6730961262
 20
20.6526426584
  0
LINE
  5
398
100
AcDbEntity
  8
0
100
AcDbLine
 62
7
  6
CONTINUOUS
 10
-10.0497024972
 20
21.2291366364
 11
-10.0998053218
 21
21.2002078934
  0
LINE
  5
399
100
AcDbEntity
  8
0
100
AcDbLine
 62
7
  6
CONTINUOUS
 10
-7.2128164748
 20
22.7778589214
 11
-7.2633580684
 21
22.7486768386
  0
LINE
  5
39A
100
AcDbEntity
  8
0
100
AcDbLine
 62
7
  6
CONTINUOUS
 10
-9.3203115171
 20
20.8094804156
 11
-9.3704157123
 21
20.7805508812
  0
LINE
  5
39B
100
AcDbEntity
  8
0
100
AcDbLine
 62
7
  6
CONTINUOUS
 10
-6.1880338915
 20
22.1841964002
 11
-6.2385754997
 21
22.155014309
  0
LINE
  5
39C
100
AcDbEntity
  8
0
100
AcDbLine
 62
7
  6
CONTINUOUS
 10
-8.574478969
 20
20.3801039477
 11
-8.6245838938
 21
20.3511739921
  0
LINE
  5
39D
100
AcDbEntity
  8
0
100
AcDbLine
 62
7
  6
CONTINUOUS
 10
-5.7179024497
 20
21.9115866615
 11
-5.7684439041
 21
21.8824046591
  0
LINE
  5
39E
100
AcDbEntity
  8
0
100
AcDbLine
 62
7
  6
CONTINUOUS
 10
-4.866724348
 20
21.3797478199
 11
-4.9172593601
 21
21.3505695372
  0
LINE
  5
39F
100
AcDbEntity
  8
0
100
AcDbLine
 62
7
  6
CONTINUOUS
 10
-6.4910822992
 20
20.2877497833
 11
-6.5413268645
 21
20.258739201
  0
LINE
  5
3A0
100
AcDbEntity
  8
0
100
AcDbLine
 62
7
  6
CONTINUOUS
 10
-7.4190635561
 20
19.7128004153
 11
-7.4691684127
 21
19.683870499
  0
LINE
  5
3A1
100
AcDbEntity
  8
0
100
AcDbLine
 62
7
  6
CONTINUOUS
 10
-6.8616721839
 20
19.3900170675
 11
-6.911776473
 21
19.3610874789
  0
LINE
  5
3A2
100
AcDbEntity
  8
0
100
AcDbLine
 62
250
  6
CONTINUOUS
 10
-3.6730966977
 20
20.6526433722
 11
-3.7236250975
 21
20.6234689074
  0
LINE
  5
3A3
100
AcDbEntity
  8
0
100
AcDbLine
 62
7
  6
CONTINUOUS
 10
-4.5960461663
 20
19.8274994779
 11
-4.6463742207
 21
19.7984406901
  0
LINE
  5
3A4
100
AcDbEntity
  8
0
100
AcDbLine
 62
250
  6
CONTINUOUS
 10
-4.3184177283
 20
19.6663905584
 11
-4.368745144
 21
19.6373321393
  0
LINE
  5
3A5
100
AcDbEntity
  8
0
100
AcDbLine
 62
7
  6
CONTINUOUS
 10
-5.4272161315
 20
18.5587231272
 11
-5.4773172753
 21
18.5297953547
  0
LINE
  5
3A6
100
AcDbEntity
  8
0
100
AcDbLine
 62
7
  6
CONTINUOUS
 10
-3.8806742425
 20
19.098164293
 11
-3.9025403897
 21
19.0855390536
  0
LINE
  5
3A7
100
AcDbEntity
  8
0
100
AcDbLine
 62
7
  6
CONTINUOUS
 10
-4.800416534
 20
18.1953398132
 11
-4.85051567
 21
18.1664132
  0
LINE
  5
3A8
100
AcDbEntity
  8
0
100
AcDbLine
 62
250
  6
CONTINUOUS
 10
-3.6520085855
 20
18.3775542888
 11
-3.7022111854
 21
18.3485679368
  0
LWPOLYLINE
  5
3A9
100
AcDbEntity
  8
0
100
AcDbPolyline
 62
7
  6
CONTINUOUS
 90
18
 70
0
 10
-3.7342396213
 20
19.1523387811
 10
-3.739638087
 20
19.1492686181
 10
-3.7509977531
 20
19.1430960642
 10
-3.7621492309
 20
19.1373789338
 10
-3.7730668609
 20
19.1320714422
 10
-3.7837492398
 20
19.1271210181
 10
-3.7941593935
 20
19.1224982582
 10
-3.8042945634
 20
19.118164609
 10
-3.8142096185
 20
19.1140630395
 10
-3.8238724314
 20
19.1101758408
 10
-3.8332994281
 20
19.1065465255
 10
-3.8426455796
 20
19.1033209352
 10
-3.8519467018
 20
19.1006815802
 10
-3.8612217453
 20
19.0988008134
 10
-3.870619402
 20
19.0978625171
 10
-3.8802205885
 20
19.0980901681
 10
-3.8900234884
 20
19.0996919148
 10
-3.9000675886
 20
19.1028861735
  0
LINE
  5
3AA
100
AcDbEntity
  8
RACCORDO
100
AcDbLine
 62
250
  6
CONTINUOUS
 10
-53.5742962245
 20
-4.3620252187
 11
-53.3869351122
 21
-4.2575570476
  0
LWPOLYLINE
  5
3AB
100
AcDbEntity
  8
0
100
AcDbPolyline
 62
7
  6
CONTINUOUS
 90
5
 70
0
 10
-4.0394492757
 20
19.6142063195
 10
-4.0418985389
 20
19.6131772538
 10
-4.0599723318
 20
19.6077140217
 10
-4.0785403497
 20
19.6039853734
 10
-4.0976205354
 20
19.6020709988
  0
LWPOLYLINE
  5
3AC
100
AcDbEntity
  8
RACCORDO
100
AcDbPolyline
 62
250
  6
CONTINUOUS
 90
9
 70
0
 10
24.7382744129
 20
-42.4117439079
 10
24.7241056781
 20
-42.4031030947
 10
24.7115426027
 20
-42.3935686147
 10
24.7007181539
 20
-42.383241395
 10
24.6917468953
 20
-42.3722307535
 10
24.6847237717
 20
-42.3606532387
 10
24.6797231066
 20
-42.3486313956
 10
24.6767978183
 20
-42.3362924747
 10
24.676070107
 20
-42.3291354074
  0
LWPOLYLINE
  5
3AD
100
AcDbEntity
  8
RACCORDO
100
AcDbPolyline
 62
250
  6
CONTINUOUS
 90
9
 70
0
 10
-54.6834476658
 20
24.2433378159
 10
-54.7045384663
 20
24.2619334743
 10
-54.7230889083
 20
24.2814106781
 10
-54.7389890216
 20
24.3016539672
 10
-54.7521445478
 20
24.3225433428
 10
-54.7624774988
 20
24.3439549694
 10
-54.7699266192
 20
24.3657619098
 10
-54.7744477494
 20
24.387834889
 10
-54.7760152863
 20
24.4106513227
  0
LWPOLYLINE
  5
3AE
100
AcDbEntity
  8
RACCORDO
100
AcDbPolyline
 62
250
  6
CONTINUOUS
 90
10
 70
0
 10
-60.4524303748
 20
29.3029924958
 10
-59.9229702094
 20
28.8040051873
 10
-59.3878318135
 20
28.3074197095
 10
-58.8470158184
 20
27.8132356659
 10
-58.3005231512
 20
27.321452298
 10
-57.748355051
 20
26.8320690039
 10
-57.1905130814
 20
26.3450853308
 10
-56.6269991396
 20
25.8605002631
 10
-56.0578147133
 20
25.3783126906
 10
-55.4829589995
 20
24.8985231175
  0
LWPOLYLINE
  5
3AF
100
AcDbEntity
  8
RACCORDO
100
AcDbPolyline
 62
250
  6
CONTINUOUS
 90
23
 70
0
 10
-38.725140262
 20
54.7804623443
 10
-38.7360781348
 20
54.813273463
 10
-38.7491220157
 20
54.8576119256
 10
-38.7594295399
 20
54.8990715127
 10
-38.7669633573
 20
54.9375103924
 10
-38.7716142369
 20
54.9725295291
 10
-38.7732814375
 20
55.0041745145
 10
-38.7719883274
 20
55.0324587737
 10
-38.7677572603
 20
55.0569976623
 10
-38.7604339816
 20
55.0777686117
 10
-38.7500385806
 20
55.0949287457
 10
-38.7368066681
 20
55.1084221789
 10
-38.7205740327
 20
55.1182635442
 10
-38.7013541087
 20
55.1246069593
 10
-38.6796224164
 20
55.1276414716
 10
-38.6553228958
 20
55.1274084644
 10
-38.6283671698
 20
55.1240408071
 10
-38.59917754
 20
55.117873456
 10
-38.567853768
 20
55.1090462563
 10
-38.5341895657
 20
55.0975543489
 10
-38.4981581606
 20
55.0835043305
 10
-38.4595515431
 20
55.066876732
 10
-38.4185112908
 20
55.0477780995
  0
LWPOLYLINE
  5
3B0
100
AcDbEntity
  8
RACCORDO
100
AcDbPolyline
 62
250
  6
CONTINUOUS
 90
3
 70
0
 10
-38.1902375688
 20
54.4716162332
 10
-38.2358370481
 20
54.625086538
 10
-38.2937215651
 20
54.7889657243
  0
LWPOLYLINE
  5
3B1
100
AcDbEntity
  8
0
100
AcDbPolyline
 62
7
  6
CONTINUOUS
 90
10
 70
0
 10
-10.5877711712
 20
21.4808656792
 10
-10.546282388
 20
21.8054018836
 10
-10.5034109068
 20
22.13043616
 10
-10.4591567278
 20
22.4559685083
 10
-10.413518305
 20
22.7820083535
 10
-10.3664971843
 20
23.1085462706
 10
-10.3180980034
 20
23.4355539847
 10
-10.2683223079
 20
23.763022071
 10
-10.2171685522
 20
24.0909599543
 10
-10.1646367362
 20
24.4193676347
  0
LWPOLYLINE
  5
3B2
100
AcDbEntity
  8
0
100
AcDbPolyline
 62
7
  6
CONTINUOUS
 90
10
 70
0
 10
-10.0497024972
 20
21.2291366364
 10
-10.0081209486
 20
21.553789562
 10
-9.9651613924
 20
21.8789220946
 10
-9.9208238285
 20
22.204534234
 10
-9.8751065888
 20
22.5306355198
 10
-9.8280113415
 20
22.8572164126
 10
-9.7795430913
 20
23.1842482935
 10
-9.7297035063
 20
23.511721623
 10
-9.6784909184
 20
23.8396459407
 10
-9.6259053275
 20
24.1680212465
  0
LWPOLYLINE
  5
3B3
100
AcDbEntity
  8
0
100
AcDbPolyline
 62
7
  6
CONTINUOUS
 90
10
 70
0
 10
-9.6764467797
 20
24.1388392455
 10
-9.7289829869
 20
23.810458829
 10
-9.7801462935
 20
23.4825378236
 10
-9.8299366995
 20
23.1550762294
 10
-9.8783557939
 20
22.828064654
 10
-9.9254019878
 20
22.5015124897
 10
-9.9710705142
 20
22.1754479138
 10
-10.0153597842
 20
21.8498803186
 10
-10.0582713867
 20
21.5248003118
 10
-10.0998053218
 20
21.2002078934
  0
LWPOLYLINE
  5
3B4
100
AcDbEntity
  8
0
100
AcDbPolyline
 62
250
  6
CONTINUOUS
 90
4
 70
0
 10
-7.6320620937
 20
23.0204529567
 10
-7.4443147813
 20
24.1327194618
 10
-7.2411713653
 20
25.2487490946
 10
-7.0226460067
 20
26.3685345058
  0
LINE
  5
3B5
100
AcDbEntity
  8
0
100
AcDbLine
 62
7
  6
CONTINUOUS
 10
-9.2926376887
 20
21.1895953482
 11
-9.3704157123
 21
20.7805508812
  0
LINE
  5
3B6
100
AcDbEntity
  8
0
100
AcDbLine
 62
7
  6
CONTINUOUS
 10
-9.3203115171
 20
20.8094804156
 11
-9.2424686262
 21
21.2186034336
  0
LINE
  5
3B7
100
AcDbEntity
  8
0
100
AcDbLine
 62
7
  6
CONTINUOUS
 10
-9.2124685083
 20
21.5999251075
 11
-9.2926376887
 21
21.1895953482
  0
LINE
  5
3B8
100
AcDbEntity
  8
0
100
AcDbLine
 62
7
  6
CONTINUOUS
 10
-9.2424686262
 20
21.2186034336
 11
-9.1622369736
 21
21.6289870161
  0
LINE
  5
3B9
100
AcDbEntity
  8
0
100
AcDbLine
 62
7
  6
CONTINUOUS
 10
-9.1299092821
 20
22.0115326742
 11
-9.2124685083
 21
21.5999251075
  0
LINE
  5
3BA
100
AcDbEntity
  8
0
100
AcDbLine
 62
7
  6
CONTINUOUS
 10
-9.1622369736
 20
21.6289870161
 11
-9.0796178454
 21
22.0406234827
  0
LWPOLYLINE
  5
3BB
100
AcDbEntity
  8
0
100
AcDbPolyline
 62
7
  6
CONTINUOUS
 90
3
 70
0
 10
-9.0796178454
 20
22.0406234827
 10
-8.9946163857
 20
22.4534821117
 10
-8.9848668723
 20
22.4999644045
  0
LINE
  5
3BC
100
AcDbEntity
  8
0
100
AcDbLine
 62
250
  6
CONTINUOUS
 10
-7.0226460067
 20
26.3685345058
 11
-6.78876242
 21
27.4920633883
  0
LWPOLYLINE
  5
3BD
100
AcDbEntity
  8
0
100
AcDbPolyline
 62
7
  6
CONTINUOUS
 90
10
 70
0
 10
-9.8371415871
 20
21.0491065344
 10
-9.7721038571
 20
21.3598513469
 10
-9.7056979894
 20
21.6711700637
 10
-9.6379239841
 20
21.9830626848
 10
-9.5687801321
 20
22.295537934
 10
-9.4982681426
 20
22.6085870876
 10
-9.426393142
 20
22.9221839738
 10
-9.3531568393
 20
23.2363198691
 10
-9.2785575257
 20
23.551003497
 10
-9.202595201
 20
23.8662348578
  0
LWPOLYLINE
  5
3BE
100
AcDbEntity
  8
0
100
AcDbPolyline
 62
7
  6
CONTINUOUS
 90
3
 70
0
 10
-9.0015971629
 20
22.6312856465
 10
-9.0449644548
 20
22.424388108
 10
-9.1299092821
 20
22.0115326742
  0
LWPOLYLINE
  5
3BF
100
AcDbEntity
  8
0
100
AcDbPolyline
 62
250
  6
CONTINUOUS
 90
3
 70
0
 10
-6.78876242
 20
27.4920633883
 10
-6.5395492817
 20
28.61932086
 10
-6.2750530651
 20
29.7502828023
  0
LINE
  5
3C0
100
AcDbEntity
  8
RACCORDO
100
AcDbLine
 62
250
  6
CONTINUOUS
 10
-6.2750530651
 20
29.7502828023
 11
-6.1493851541
 21
30.267417755
  0
LINE
  5
3C1
100
AcDbEntity
  8
RACCORDO
100
AcDbLine
 62
250
  6
CONTINUOUS
 10
-6.1493851541
 20
30.267417755
 11
-6.020561292
 21
30.7853645721
  0
LINE
  5
3C2
100
AcDbEntity
  8
0
100
AcDbLine
 62
7
  6
CONTINUOUS
 10
-6.7491773507
 20
19.7525883179
 11
-6.911776473
 21
19.3610874789
  0
LINE
  5
3C3
100
AcDbEntity
  8
0
100
AcDbLine
 62
7
  6
CONTINUOUS
 10
-6.8616721839
 20
19.3900170675
 11
-6.699013563
 21
19.7815519436
  0
LINE
  5
3C4
100
AcDbEntity
  8
0
100
AcDbLine
 62
7
  6
CONTINUOUS
 10
-6.699013563
 20
19.7815519436
 11
-6.6716255636
 21
19.8469826784
  0
LINE
  5
3C5
100
AcDbEntity
  8
0
100
AcDbLine
 62
7
  6
CONTINUOUS
 10
-6.7022268147
 20
19.8647140541
 11
-6.7491773507
 21
19.7525883179
  0
LINE
  5
3C6
100
AcDbEntity
  8
0
100
AcDbLine
 62
7
  6
CONTINUOUS
 10
-6.3647947977
 20
20.6811523114
 11
-6.5413268645
 21
20.258739201
  0
LINE
  5
3C7
100
AcDbEntity
  8
0
100
AcDbLine
 62
7
  6
CONTINUOUS
 10
-6.4910822992
 20
20.2877497833
 11
-6.3144678826
 21
20.7102315986
  0
LINE
  5
3C8
100
AcDbEntity
  8
0
100
AcDbLine
 62
7
  6
CONTINUOUS
 10
-6.3144678826
 20
20.7102315986
 11
-6.1352811042
 21
21.1332165011
  0
LWPOLYLINE
  5
3C9
100
AcDbEntity
  8
0
100
AcDbPolyline
 62
7
  6
CONTINUOUS
 90
3
 70
0
 10
-6.1404920719
 20
21.2099338081
 10
-6.1856749581
 20
21.1041112333
 10
-6.3647947977
 20
20.6811523114
  0
LINE
  5
3CA
100
AcDbEntity
  8
0
100
AcDbLine
 62
7
  6
CONTINUOUS
 10
-7.3927965384
 20
19.6396544178
 11
-7.1447166136
 21
20.1961412561
  0
LINE
  5
3CB
100
AcDbEntity
  8
0
100
AcDbLine
 62
7
  6
CONTINUOUS
 10
-7.1447166136
 20
20.1961412561
 11
-6.8918060996
 21
20.7540816512
  0
LINE
  5
3CC
100
AcDbEntity
  8
0
100
AcDbLine
 62
7
  6
CONTINUOUS
 10
-6.8918060996
 20
20.7540816512
 11
-6.6340804384
 21
21.3134517199
  0
LWPOLYLINE
  5
3CD
100
AcDbEntity
  8
0
100
AcDbPolyline
 62
7
  6
CONTINUOUS
 90
3
 70
0
 10
-6.6340804384
 20
21.3134517199
 10
-6.3716013978
 20
21.8741559301
 10
-6.2385754997
 20
22.155014309
  0
LINE
  5
3CE
100
AcDbEntity
  8
0
100
AcDbLine
 62
7
  6
CONTINUOUS
 10
-8.3787529714
 20
20.8157531708
 11
-8.6245838938
 21
20.3511739921
  0
LINE
  5
3CF
100
AcDbEntity
  8
0
100
AcDbLine
 62
7
  6
CONTINUOUS
 10
-8.574478969
 20
20.3801039477
 11
-8.3285746516
 21
20.8447234723
  0
LINE
  5
3D0
100
AcDbEntity
  8
0
100
AcDbLine
 62
7
  6
CONTINUOUS
 10
-8.1285490689
 20
21.2829941306
 11
-8.3787529714
 21
20.8157531708
  0
LINE
  5
3D1
100
AcDbEntity
  8
0
100
AcDbLine
 62
7
  6
CONTINUOUS
 10
-8.3285746516
 20
20.8447234723
 11
-8.0782906594
 21
21.3120115999
  0
LINE
  5
3D2
100
AcDbEntity
  8
0
100
AcDbLine
 62
7
  6
CONTINUOUS
 10
-8.0782906594
 20
21.3120115999
 11
-7.8236417289
 21
21.7819309002
  0
LINE
  5
3D3
100
AcDbEntity
  8
0
100
AcDbLine
 62
7
  6
CONTINUOUS
 10
-7.8435570211
 20
21.8087141734
 11
-8.1285490689
 21
21.2829941306
  0
LINE
  5
3D4
100
AcDbEntity
  8
0
100
AcDbLine
 62
7
  6
CONTINUOUS
 10
-7.8236417289
 20
21.7819309002
 11
-7.7931996402
 21
21.8377947681
  0
LINE
  5
3D5
100
AcDbEntity
  8
0
100
AcDbLine
 62
7
  6
CONTINUOUS
 10
-7.7825448668
 20
21.920474691
 11
-7.8435570211
 21
21.8087141734
  0
LINE
  5
3D6
100
AcDbEntity
  8
0
100
AcDbLine
 62
7
  6
CONTINUOUS
 10
-3.5885824684
 20
17.4928270939
 11
-3.6386769232
 21
17.4639031836
  0
LINE
  5
3D7
100
AcDbEntity
  8
RACCORDO
100
AcDbLine
 62
250
  6
CONTINUOUS
 10
-51.8764281432
 20
-7.5112641209
 11
-52.0643217013
 21
-7.6078189217
  0
LINE
  5
3D8
100
AcDbEntity
  8
RACCORDO
100
AcDbLine
 62
7
  6
CONTINUOUS
 10
-51.9895767369
 20
-8.1799946785
 11
-51.5510582265
 21
-7.9576030752
  0
LWPOLYLINE
  5
3D9
100
AcDbEntity
  8
RACCORDO
100
AcDbPolyline
 62
250
  6
CONTINUOUS
 90
10
 70
0
 10
49.0886675678
 20
-33.9451874074
 10
48.2245645817
 20
-33.6394186695
 10
47.3646202932
 20
-33.3303720433
 10
46.5088341554
 20
-33.0180478125
 10
45.6572053663
 20
-32.7024462172
 10
44.8097328516
 20
-32.3835679911
 10
43.9664152533
 20
-32.061414368
 10
43.1272509269
 20
-31.7359863777
 10
42.2922385849
 20
-31.4072845121
 10
41.4613789227
 20
-31.0753084102
  0
LWPOLYLINE
  5
3DA
100
AcDbEntity
  8
RACCORDO
100
AcDbPolyline
 62
250
  6
CONTINUOUS
 90
19
 70
0
 10
40.3259778244
 20
-30.6140083614
 10
40.3581837407
 20
-30.6262099734
 10
40.3919168696
 20
-30.6369386453
 10
40.4269772353
 20
-30.6461308855
 10
40.4631569943
 20
-30.6537303037
 10
40.5002416664
 20
-30.6596938471
 10
40.5380114067
 20
-30.6639920666
 10
40.5762423097
 20
-30.6666014442
 10
40.614707736
 20
-30.6675045409
 10
40.6531796556
 20
-30.6666960014
 10
40.6914300005
 20
-30.6641806175
 10
40.7292320163
 20
-30.6599733026
 10
40.766361606
 20
-30.6540990005
 10
40.8025986593
 20
-30.6465925321
 10
40.8377283571
 20
-30.6374983969
 10
40.8715424448
 20
-30.6268705121
 10
40.9038404671
 20
-30.6147718812
 10
40.9344309563
 20
-30.6012742208
 10
40.9631325672
 20
-30.586457543
  0
LWPOLYLINE
  5
3DB
100
AcDbEntity
  8
RACCORDO
100
AcDbPolyline
 62
250
  6
CONTINUOUS
 90
3
 70
0
 10
40.3259778275
 20
-30.6140350038
 10
39.7887236583
 20
-30.392273214
 10
39.6814623439
 20
-30.347742325
  0
LINE
  5
3DC
100
AcDbEntity
  8
RACCORDO
100
AcDbLine
 62
250
  6
CONTINUOUS
 10
39.6814623439
 20
-30.347742325
 11
37.9038906191
 21
-29.5972649011
  0
LINE
  5
3DD
100
AcDbEntity
  8
RACCORDO
100
AcDbLine
 62
250
  6
CONTINUOUS
 10
37.9038906191
 20
-29.5972649011
 11
36.147754321
 21
-28.8319906319
  0
LWPOLYLINE
  5
3DE
100
AcDbEntity
  8
RACCORDO
100
AcDbPolyline
 62
250
  6
CONTINUOUS
 90
11
 70
0
 10
41.4613788875
 20
-31.0753213429
 10
41.4385528501
 20
-31.0651611596
 10
41.4175209515
 20
-31.0537829258
 10
41.3984773227
 20
-31.0412916719
 10
41.3815977425
 20
-31.0278027048
 10
41.3670380144
 20
-31.0134405324
 10
41.354932529
 20
-30.998337714
 10
41.3453930238
 20
-30.9826336538
 10
41.338507552
 20
-30.9664733094
 10
41.3343396688
 20
-30.9500058428
 10
41.3329277113
 20
-30.9332245802
  0
LWPOLYLINE
  5
3DF
100
AcDbEntity
  8
RACCORDO
100
AcDbPolyline
 62
250
  6
CONTINUOUS
 90
8
 70
0
 10
36.147754321
 20
-28.8319906319
 10
34.4129876396
 20
-28.0519536709
 10
32.699359139
 20
-27.2570841457
 10
31.0070350286
 20
-26.4474857794
 10
29.3365484691
 20
-25.6234518206
 10
27.6880538804
 20
-24.7850921111
 10
26.0613835697
 20
-23.9323036972
 10
24.456570565
 20
-23.0650694386
  0
LWPOLYLINE
  5
3E0
100
AcDbEntity
  8
RACCORDO
100
AcDbPolyline
 62
250
  6
CONTINUOUS
 90
10
 70
0
 10
-54.2223181972
 20
23.8711337069
 10
-52.9225837159
 20
22.8447590475
 10
-51.5971870017
 20
21.8307811411
 10
-50.2462040263
 20
20.8291522786
 10
-48.869523922
 20
19.8397329722
 10
-47.4673328544
 20
18.8626154233
 10
-46.040149456
 20
17.8981012692
 10
-44.5881735024
 20
16.9462741641
 10
-43.1112205403
 20
16.0070408316
 10
-41.609252442
 20
15.0804252153
  0
LWPOLYLINE
  5
3E1
100
AcDbEntity
  8
RACCORDO
100
AcDbPolyline
 62
250
  6
CONTINUOUS
 90
3
 70
0
 10
-54.6834476679
 20
24.2433111713
 10
-54.6068493244
 20
24.1811910452
 10
-54.2223181972
 20
23.8711337069
  0
LWPOLYLINE
  5
3E2
100
AcDbEntity
  8
RACCORDO
100
AcDbPolyline
 62
250
  6
CONTINUOUS
 90
10
 70
0
 10
-8.100880609
 20
-36.8668292494
 10
-8.0982148648
 20
-36.8992611776
 10
-8.0931000854
 20
-36.9299048295
 10
-8.0855720226
 20
-36.9585461845
 10
-8.0756832979
 20
-36.9849851959
 10
-8.063502974
 20
-37.0090372231
 10
-8.0491160723
 20
-37.0305343206
 10
-8.0326230671
 20
-37.049326361
 10
-8.0141391631
 20
-37.0652820943
 10
-7.9978359606
 20
-37.0760267925
  0
LINE
  5
3E3
100
AcDbEntity
  8
0
100
AcDbLine
 62
7
  6
CONTINUOUS
 10
-11.6333508037
 20
23.546448705
 11
-11.5966550917
 21
23.0379914647
  0
LINE
  5
3E4
100
AcDbEntity
  8
0
100
AcDbLine
 62
7
  6
CONTINUOUS
 10
-11.5520713295
 20
23.1437736057
 11
-11.5830652206
 21
23.5755105238
  0
LINE
  5
3E5
100
AcDbEntity
  8
0
100
AcDbLine
 62
7
  6
CONTINUOUS
 10
-11.6671931825
 20
24.0546070151
 11
-11.6333508037
 21
23.546448705
  0
LINE
  5
3E6
100
AcDbEntity
  8
0
100
AcDbLine
 62
7
  6
CONTINUOUS
 10
-11.5830652206
 20
23.5755105238
 11
-11.6168399367
 21
24.0837199461
  0
LINE
  5
3E7
100
AcDbEntity
  8
0
100
AcDbLine
 62
7
  6
CONTINUOUS
 10
-11.6981847702
 20
24.5624553649
 11
-11.6671931825
 21
24.0546070151
  0
LINE
  5
3E8
100
AcDbEntity
  8
0
100
AcDbLine
 62
7
  6
CONTINUOUS
 10
-11.6168399367
 20
24.0837199461
 11
-11.6477598229
 21
24.5916060714
  0
LWPOLYLINE
  5
3E9
100
AcDbEntity
  8
0
100
AcDbPolyline
 62
7
  6
CONTINUOUS
 90
3
 70
0
 10
-11.6477598229
 20
24.5916060714
 10
-11.6758352787
 20
25.0991240069
 10
-11.6888056953
 20
25.3527477093
  0
LWPOLYLINE
  5
3EA
100
AcDbEntity
  8
0
100
AcDbPolyline
 62
7
  6
CONTINUOUS
 90
3
 70
0
 10
-11.7393453481
 20
25.3235667472
 10
-11.7263357349
 20
25.0699496348
 10
-11.6981847702
 20
24.5624553649
  0
LWPOLYLINE
  5
3EB
100
AcDbEntity
  8
RACCORDO
100
AcDbPolyline
 62
250
  6
CONTINUOUS
 90
10
 70
0
 10
-8.1007413531
 20
-36.8669097786
 10
-8.1528173438
 20
-35.5923058792
 10
-8.198863462
 20
-34.3139239051
 10
-8.238878396
 20
-33.0318001983
 10
-8.2728610092
 20
-31.7459710615
 10
-8.3008103279
 20
-30.4564731933
 10
-8.3227255485
 20
-29.1633436918
 10
-8.3386060499
 20
-27.8666194692
 10
-8.3484513871
 20
-26.5663372464
 10
-8.3518311039
 20
-25.4097479068
  0
LWPOLYLINE
  5
3EC
100
AcDbEntity
  8
RACCORDO
100
AcDbPolyline
 62
250
  6
CONTINUOUS
 90
9
 70
0
 10
-8.57667928
 20
14.1475118756
 10
-8.5767207922
 20
14.1299162418
 10
-8.5751266605
 20
14.1133614988
 10
-8.5719153485
 20
14.0980393525
 10
-8.5671240481
 20
14.084127236
 10
-8.5608082432
 20
14.071786252
 10
-8.553041067
 20
14.0611593067
 10
-8.5439124629
 20
14.0523694598
 10
-8.5354924536
 20
14.046609151
  0
LWPOLYLINE
  5
3ED
100
AcDbEntity
  8
0
100
AcDbPolyline
 62
7
  6
CONTINUOUS
 90
10
 70
0
 10
-7.4190635561
 20
19.7128004153
 10
-7.4017411147
 20
20.0513506584
 10
-7.3830197903
 20
20.3904110586
 10
-7.3628995827
 20
20.7299816161
 10
-7.341379948
 20
21.0700719358
 10
-7.3184614302
 20
21.4106724127
 10
-7.2941456608
 20
21.7517542312
 10
-7.2684331837
 20
22.0933077863
 10
-7.241323455
 20
22.435342683
 10
-7.2128164748
 20
22.7778589214
  0
LWPOLYLINE
  5
3EE
100
AcDbEntity
  8
0
100
AcDbPolyline
 62
250
  6
CONTINUOUS
 90
7
 70
0
 10
-8.5766743595
 20
14.1475090364
 10
-8.5062609723
 20
15.3978110199
 10
-8.4136908494
 20
16.6570161387
 10
-8.2990324678
 20
17.925088855
 10
-8.1624158763
 20
19.2019616772
 10
-8.0039308618
 20
20.4875880084
 10
-7.8236390103
 20
21.7819358873
  0
LINE
  5
3EF
100
AcDbEntity
  8
0
100
AcDbLine
 62
7
  6
CONTINUOUS
 10
-7.9450349731
 20
19.9592913378
 11
-7.9130584671
 21
20.3932197503
  0
LINE
  5
3F0
100
AcDbEntity
  8
0
100
AcDbLine
 62
7
  6
CONTINUOUS
 10
-7.9130584671
 20
20.3932197503
 11
-7.8787197683
 21
20.8282399603
  0
LWPOLYLINE
  5
3F1
100
AcDbEntity
  8
0
100
AcDbPolyline
 62
7
  6
CONTINUOUS
 90
10
 70
0
 10
-7.2633580684
 20
22.7486768386
 10
-7.2918124647
 20
22.4061640602
 10
-7.3188705863
 20
22.0641388692
 10
-7.3445324331
 20
21.7226012656
 10
-7.3687984989
 20
21.3815417857
 10
-7.39166829
 20
21.0409698932
 10
-7.4131403251
 20
20.7009139791
 10
-7.4332141103
 20
20.3613835073
 10
-7.4518901395
 20
20.0223690139
 10
-7.4691684127
 20
19.683870499
  0
LINE
  5
3F2
100
AcDbEntity
  8
0
100
AcDbLine
 62
7
  6
CONTINUOUS
 10
-7.8787197683
 20
20.8282399603
 11
-7.8420194307
 21
21.2643440187
  0
LWPOLYLINE
  5
3F3
100
AcDbEntity
  8
0
100
AcDbPolyline
 62
7
  6
CONTINUOUS
 90
3
 70
0
 10
-7.8420194307
 20
21.2643440187
 10
-7.8029596696
 20
21.7015001291
 10
-7.7825448668
 20
21.920474691
  0
LWPOLYLINE
  5
3F4
100
AcDbEntity
  8
0
100
AcDbPolyline
 62
7
  6
CONTINUOUS
 90
22
 70
0
 10
-3.9233918407
 20
19.87613021
 10
-3.9206677921
 20
19.9005476179
 10
-3.9192216631
 20
19.9259962482
 10
-3.9190671838
 20
19.9523660619
 10
-3.9201908148
 20
19.9795280383
 10
-3.9226272499
 20
20.0073650797
 10
-3.926470678
 20
20.0357747488
 10
-3.9317409601
 20
20.0646521113
 10
-3.9384557501
 20
20.0938013178
 10
-3.9467090277
 20
20.1229689012
 10
-3.9565465549
 20
20.1520463986
 10
-3.9679434351
 20
20.1807671808
 10
-3.9808194618
 20
20.2086706884
 10
-3.9950604605
 20
20.2356154237
 10
-4.0105394108
 20
20.2615575659
 10
-4.0270539424
 20
20.2862717063
 10
-4.0444145795
 20
20.3096112967
 10
-4.0625370531
 20
20.3315833909
 10
-4.0813725251
 20
20.3521961769
 10
-4.1008238947
 20
20.3713889448
 10
-4.1207389308
 20
20.3890481152
 10
-4.140991493
 20
20.4050876253
  0
LWPOLYLINE
  5
3F5
100
AcDbEntity
  8
0
100
AcDbPolyline
 62
7
  6
CONTINUOUS
 90
10
 70
0
 10
-5.3345912257
 20
18.4470547355
 10
-5.2936344842
 20
18.767697421
 10
-5.2513232822
 20
19.088839465
 10
-5.2076576196
 20
19.4104808675
 10
-5.1626360377
 20
19.7326307497
 10
-5.1162599952
 20
20.0552799904
 10
-5.0685338686
 20
20.3784012258
 10
-5.0194591166
 20
20.7019853348
 10
-4.9690342804
 20
21.0260414386
 10
-4.9172593601
 20
21.3505695372
  0
LINE
  5
3F6
100
AcDbEntity
  8
0
100
AcDbLine
 62
7
  6
CONTINUOUS
 10
-4.8019844065
 20
18.5457268884
 11
-4.85051567
 21
18.1664132
  0
LINE
  5
3F7
100
AcDbEntity
  8
0
100
AcDbLine
 62
7
  6
CONTINUOUS
 10
-4.800416534
 20
18.1953398132
 11
-4.7518350834
 21
18.5746808727
  0
LINE
  5
3F8
100
AcDbEntity
  8
0
100
AcDbLine
 62
7
  6
CONTINUOUS
 10
-4.751465846
 20
18.9263323169
 11
-4.8019844065
 21
18.5457268884
  0
LINE
  5
3F9
100
AcDbEntity
  8
0
100
AcDbLine
 62
7
  6
CONTINUOUS
 10
-4.7518350834
 20
18.5746808727
 11
-4.7012640286
 21
18.9553167402
  0
LINE
  5
3FA
100
AcDbEntity
  8
0
100
AcDbLine
 62
7
  6
CONTINUOUS
 10
-4.6989576292
 20
19.3082145754
 11
-4.751465846
 21
18.9263323169
  0
LINE
  5
3FB
100
AcDbEntity
  8
0
100
AcDbLine
 62
7
  6
CONTINUOUS
 10
-4.7012640286
 20
18.9553167402
 11
-4.6561945314
 21
19.2834045475
  0
LINE
  5
3FC
100
AcDbEntity
  8
0
100
AcDbLine
 62
7
  6
CONTINUOUS
 10
-3.9000675886
 20
19.1028861735
 11
-3.9025403897
 21
19.0855390536
  0
LINE
  5
3FD
100
AcDbEntity
  8
0
100
AcDbLine
 62
7
  6
CONTINUOUS
 10
-4.5960461663
 20
19.8274994779
 11
-4.5427005626
 21
20.1875318684
  0
LINE
  5
3FE
100
AcDbEntity
  8
0
100
AcDbLine
 62
250
  6
CONTINUOUS
 10
-7.8739857018
 20
21.7528619677
 11
-7.8123717509
 21
22.1648669747
  0
LINE
  5
3FF
100
AcDbEntity
  8
0
100
AcDbLine
 62
7
  6
CONTINUOUS
 10
-4.5795112067
 20
20.248453266
 11
-4.6463742207
 21
19.7984406901
  0
LINE
  5
400
100
AcDbEntity
  8
0
100
AcDbLine
 62
7
  6
CONTINUOUS
 10
-4.5242219419
 20
20.6085330402
 11
-4.5795112067
 21
20.248453266
  0
LINE
  5
401
100
AcDbEntity
  8
0
100
AcDbLine
 62
7
  6
CONTINUOUS
 10
-4.5427005626
 20
20.1875318684
 11
-4.4807455632
 21
20.592737809
  0
LINE
  5
402
100
AcDbEntity
  8
0
100
AcDbLine
 62
250
  6
CONTINUOUS
 10
-7.8123717509
 20
22.1648669747
 11
-7.7485796449
 21
22.5776697077
  0
LINE
  5
403
100
AcDbEntity
  8
0
100
AcDbLine
 62
250
  6
CONTINUOUS
 10
-7.7485796449
 20
22.5776697077
 11
-7.6826055132
 21
22.9912721022
  0
LINE
  5
404
100
AcDbEntity
  8
RACCORDO
100
AcDbLine
 62
7
  6
CONTINUOUS
 10
41.7782648086
 20
-5.2188192358
 11
42.131359769
 21
-5.2082931113
  0
LWPOLYLINE
  5
405
100
AcDbEntity
  8
RACCORDO
100
AcDbPolyline
 62
250
  6
CONTINUOUS
 90
7
 70
0
 10
-41.6092524559
 20
15.0804877339
 10
-41.5943297995
 20
15.072317256
 10
-41.5780303573
 20
15.0650746823
 10
-41.5605266675
 20
15.0588367907
 10
-41.5420040156
 20
15.0536698481
 10
-41.5226584734
 20
15.049628548
 10
-41.5083659134
 20
15.0475715993
  0
LWPOLYLINE
  5
406
100
AcDbEntity
  8
RACCORDO
100
AcDbPolyline
 62
250
  6
CONTINUOUS
 90
9
 70
0
 10
24.456570551
 20
-23.0651319812
 10
24.4424024536
 20
-23.0565212801
 10
24.4298426419
 20
-23.047114669
 10
24.4190240678
 20
-23.0370117824
 10
24.4100612517
 20
-23.0263196869
 10
24.4030490693
 20
-23.0151515646
 10
24.3980617481
 20
-23.0036255141
 10
24.3951520813
 20
-22.9918636004
 10
24.3943352126
 20
-22.981481383
  0
LWPOLYLINE
  5
407
100
AcDbEntity
  8
RACCORDO
100
AcDbPolyline
 62
250
  6
CONTINUOUS
 90
10
 70
0
 10
-38.2937215651
 20
54.7889657243
 10
-38.3140081193
 20
54.8267310586
 10
-38.3322754258
 20
54.8624030948
 10
-38.3485439408
 20
54.8958024931
 10
-38.3629658153
 20
54.9266866929
 10
-38.3754596362
 20
54.9549639155
 10
-38.3857066361
 20
54.9806903645
 10
-38.393804677
 20
55.0037416191
 10
-38.3997671528
 20
55.0239447209
 10
-38.4005542321
 20
55.0279386372
  0
LINE
  5
408
100
AcDbEntity
  8
0
100
AcDbLine
 62
7
  6
CONTINUOUS
 10
-8.6929771557
 20
20.3905615982
 11
-8.7658790514
 21
20.8870423762
  0
LINE
  5
409
100
AcDbEntity
  8
0
100
AcDbLine
 62
7
  6
CONTINUOUS
 10
-8.7658790514
 20
20.8870423762
 11
-8.8363125287
 21
21.3843686543
  0
LINE
  5
40A
100
AcDbEntity
  8
0
100
AcDbLine
 62
7
  6
CONTINUOUS
 10
-8.8363125287
 20
21.3843686543
 11
-8.904277611
 21
21.8825320226
  0
LWPOLYLINE
  5
40B
100
AcDbEntity
  8
0
100
AcDbPolyline
 62
7
  6
CONTINUOUS
 90
3
 70
0
 10
-8.904277611
 20
21.8825320226
 10
-8.9697743916
 20
22.381498841
 10
-9.0015971629
 20
22.6312856465
  0
LINE
  5
40C
100
AcDbEntity
  8
0
100
AcDbLine
 62
7
  6
CONTINUOUS
 10
-8.4383643786
 20
21.7496033321
 11
-8.486656453
 21
22.1238732008
  0
LINE
  5
40D
100
AcDbEntity
  8
0
100
AcDbLine
 62
7
  6
CONTINUOUS
 10
-8.5638536855
 20
22.3079474387
 11
-8.4818326526
 21
21.6682592885
  0
LINE
  5
40E
100
AcDbEntity
  8
0
100
AcDbLine
 62
7
  6
CONTINUOUS
 10
-8.486656453
 20
22.1238732008
 11
-8.5398542529
 21
22.5502181104
  0
LINE
  5
40F
100
AcDbEntity
  8
0
100
AcDbLine
 62
7
  6
CONTINUOUS
 10
-8.6415894486
 20
22.9471442764
 11
-8.5638536855
 21
22.3079474387
  0
LINE
  5
410
100
AcDbEntity
  8
0
100
AcDbLine
 62
7
  6
CONTINUOUS
 10
-8.5398542529
 20
22.5502181104
 11
-8.5911437128
 21
22.9763213061
  0
LWPOLYLINE
  5
411
100
AcDbEntity
  8
0
100
AcDbPolyline
 62
7
  6
CONTINUOUS
 90
3
 70
0
 10
-8.5911437128
 20
22.9763213061
 10
-8.6405298177
 20
23.4021594944
 10
-8.6645088004
 20
23.6149806666
  0
LINE
  5
412
100
AcDbEntity
  8
0
100
AcDbLine
 62
7
  6
CONTINUOUS
 10
-8.7150504617
 20
23.5857985448
 11
-8.6415894486
 21
22.9471442764
  0
LWPOLYLINE
  5
413
100
AcDbEntity
  8
0
100
AcDbPolyline
 62
7
  6
CONTINUOUS
 90
10
 70
0
 10
-11.9504354534
 20
22.2644604477
 10
-11.9920158132
 20
22.6384969586
 10
-12.0320714505
 20
23.0124701033
 10
-12.0706023653
 20
23.386379882
 10
-12.1076059351
 20
23.7602373337
 10
-12.1430847825
 20
24.1340314192
 10
-12.1770467752
 20
24.5077290214
 10
-12.209494536
 20
24.8813191012
 10
-12.2404254422
 20
25.2548126976
 10
-12.2698394938
 20
25.6282098107
  0
LWPOLYLINE
  5
414
100
AcDbEntity
  8
0
100
AcDbPolyline
 62
7
  6
CONTINUOUS
 90
10
 70
0
 10
-5.4272161315
 20
18.5587231272
 10
-5.4652365065
 20
18.9277931135
 10
-5.5018287956
 20
19.2977375871
 10
-5.5369929989
 20
19.668556548
 10
-5.5707323004
 20
20.040259177
 10
-5.6030435161
 20
20.4128362932
 10
-5.633917094
 20
20.786260354
 10
-5.6633498503
 20
21.1605221786
 10
-5.6913449688
 20
21.5356309477
 10
-5.7179024497
 20
21.9115866615
  0
LWPOLYLINE
  5
415
100
AcDbEntity
  8
0
100
AcDbPolyline
 62
7
  6
CONTINUOUS
 90
6
 70
0
 10
-4.1759268693
 20
18.5067420419
 10
-4.1805861283
 20
18.5535208129
 10
-4.1855727745
 20
18.6004245007
 10
-4.1909475185
 20
18.6474963868
 10
-4.1967573938
 20
18.6947118556
 10
-4.2030566983
 20
18.7420803114
  0
LINE
  5
416
100
AcDbEntity
  8
0
100
AcDbLine
 62
7
  6
CONTINUOUS
 10
-4.1062210001
 20
17.7349160207
 11
-4.1388454275
 21
18.08226112
  0
LINE
  5
417
100
AcDbEntity
  8
0
100
AcDbLine
 62
7
  6
CONTINUOUS
 10
-4.1673234362
 20
18.4132226113
 11
-4.1759268693
 21
18.5067420419
  0
LINE
  5
418
100
AcDbEntity
  8
0
100
AcDbLine
 62
7
  6
CONTINUOUS
 10
-4.1388454275
 20
18.08226112
 11
-4.1473642026
 21
18.1779524921
  0
LWPOLYLINE
  5
419
100
AcDbEntity
  8
0
100
AcDbPolyline
 62
7
  6
CONTINUOUS
 90
24
 70
0
 10
-3.6601697291
 20
18.4895562792
 10
-3.6620598785
 20
18.5120235078
 10
-3.6641327869
 20
18.5346412961
 10
-3.6663819016
 20
18.5574027712
 10
-3.668910598
 20
18.5804528655
 10
-3.6717230031
 20
18.6038179725
 10
-3.6748148002
 20
18.627471797
 10
-3.6782766264
 20
18.6514802761
 10
-3.6821028615
 20
18.6758789856
 10
-3.6862989034
 20
18.7006324649
 10
-3.690971976
 20
18.7257000649
 10
-3.6961141777
 20
18.7511070856
 10
-3.7017333342
 20
18.7768282664
 10
-3.707960469
 20
18.8027470092
 10
-3.7147726688
 20
18.8288558673
 10
-3.7221930545
 20
18.8551621796
 10
-3.7304219816
 20
18.8815713816
 10
-3.7394122602
 20
18.9080820467
 10
-3.7492115565
 20
18.9346953542
 10
-3.760162838
 20
18.9613204786
 10
-3.7723261124
 20
18.9881694963
 10
-3.785642114
 20
19.0150299458
 10
-3.8002755724
 20
19.0411738465
 10
-3.8162821436
 20
19.0663581509
  0
LINE
  5
41A
100
AcDbEntity
  8
0
100
AcDbLine
 62
7
  6
CONTINUOUS
 10
-4.1473642026
 20
18.1779524921
 11
-4.1673234362
 21
18.4132226113
  0
LINE
  5
41B
100
AcDbEntity
  8
0
100
AcDbLine
 62
7
  6
CONTINUOUS
 10
-3.6460866953
 20
17.5577035916
 11
-3.6386769232
 21
17.4639031836
  0
LINE
  5
41C
100
AcDbEntity
  8
0
100
AcDbLine
 62
7
  6
CONTINUOUS
 10
-5.9896138426
 20
18.8267519394
 11
-6.023855992
 21
19.2624567457
  0
LINE
  5
41D
100
AcDbEntity
  8
0
100
AcDbLine
 62
7
  6
CONTINUOUS
 10
-6.023855992
 20
19.2624567457
 11
-6.040232124
 21
19.481041218
  0
LINE
  5
41E
100
AcDbEntity
  8
0
100
AcDbLine
 62
7
  6
CONTINUOUS
 10
-3.7103294997
 20
18.4597000061
 11
-3.7069639973
 21
18.4153110018
  0
LINE
  5
41F
100
AcDbEntity
  8
0
100
AcDbLine
 62
7
  6
CONTINUOUS
 10
-3.655146549
 20
18.422464803
 11
-3.6601697291
 21
18.4895562792
  0
LINE
  5
420
100
AcDbEntity
  8
0
100
AcDbLine
 62
7
  6
CONTINUOUS
 10
-3.5885824684
 20
17.4928270939
 11
-3.6099973689
 21
17.778352233
  0
LWPOLYLINE
  5
421
100
AcDbEntity
  8
0
100
AcDbPolyline
 62
7
  6
CONTINUOUS
 90
10
 70
0
 10
-5.7684439041
 20
21.8824046591
 10
-5.7418275336
 20
21.5064348774
 10
-5.7137759699
 20
21.1313227339
 10
-5.6842892131
 20
20.7570682287
 10
-5.6533640165
 20
20.3836623338
 10
-5.6210036267
 20
20.0111140771
 10
-5.5872177837
 20
19.6394505424
 10
-5.5520097341
 20
19.2686807578
 10
-5.5153762313
 20
18.8987956952
 10
-5.4773172753
 20
18.5297953547
  0
LINE
  5
422
100
AcDbEntity
  8
0
100
AcDbLine
 62
7
  6
CONTINUOUS
 10
-3.6669208703
 20
17.8456147206
 11
-3.6460866953
 21
17.5577035916
  0
LINE
  5
423
100
AcDbEntity
  8
0
100
AcDbLine
 62
7
  6
CONTINUOUS
 10
-3.7069639973
 20
18.4153110018
 11
-3.6669208703
 21
17.8456147206
  0
LINE
  5
424
100
AcDbEntity
  8
0
100
AcDbLine
 62
7
  6
CONTINUOUS
 10
-3.6099973689
 20
17.778352233
 11
-3.655146549
 21
18.422464803
  0
LINE
  5
425
100
AcDbEntity
  8
0
100
AcDbLine
 62
7
  6
CONTINUOUS
 10
-6.0759499903
 20
19.9889808628
 11
-6.0992438071
 21
20.3951873085
  0
LINE
  5
426
100
AcDbEntity
  8
0
100
AcDbLine
 62
7
  6
CONTINUOUS
 10
-6.0992438071
 20
20.3951873085
 11
-6.1207588659
 21
20.802176332
  0
LINE
  5
427
100
AcDbEntity
  8
0
100
AcDbLine
 62
7
  6
CONTINUOUS
 10
-6.1207588659
 20
20.802176332
 11
-6.1404920719
 21
21.2099338081
  0
LWPOLYLINE
  5
428
100
AcDbEntity
  8
RACCORDO
100
AcDbPolyline
 62
250
  6
CONTINUOUS
 90
4
 70
0
 10
6.1531319541
 20
29.314037183
 10
6.1493677867
 20
29.2999156403
 10
6.1462755796
 20
29.2836317913
 10
6.1440832138
 20
29.2660707467
  0
LINE
  5
429
100
AcDbEntity
  8
RACCORDO
100
AcDbLine
 62
7
  6
CONTINUOUS
 10
32.902715291
 20
-0.9692101405
 11
32.0903946685
 21
-1.0096664222
  0
LWPOLYLINE
  5
42A
100
AcDbEntity
  8
RACCORDO
100
AcDbPolyline
 62
7
  6
CONTINUOUS
 90
6
 70
0
 10
32.9027152821
 20
-0.969210164
 10
32.9248666729
 20
-0.9692674534
 10
32.9461832355
 20
-0.971666038
 10
32.9665573235
 20
-0.9764178266
 10
32.985930586
 20
-0.9835429315
 10
32.9905730047
 20
-0.9856802265
  0
LWPOLYLINE
  5
42B
100
AcDbEntity
  8
RACCORDO
100
AcDbPolyline
 62
250
  6
CONTINUOUS
 90
14
 70
0
 10
42.0679595583
 20
-62.4287263616
 10
42.0506582251
 20
-62.4051904308
 10
42.035356107
 20
-62.3801276662
 10
42.0222008248
 20
-62.3537798483
 10
42.0113192888
 20
-62.326401155
 10
42.0028164745
 20
-62.2982557091
 10
41.9967744101
 20
-62.2696150308
 10
41.9932513845
 20
-62.2407554177
 10
41.9922813856
 20
-62.2119552798
 10
41.993873772
 20
-62.183492454
 10
41.9980131825
 20
-62.1556415226
 10
42.004659685
 20
-62.1286711653
 10
42.0137491609
 20
-62.1028415677
 10
42.0251939239
 20
-62.0784019095
  0
LWPOLYLINE
  5
42C
100
AcDbEntity
  8
RACCORDO
100
AcDbPolyline
 62
250
  6
CONTINUOUS
 90
7
 70
0
 10
19.4321678902
 20
-50.522675954
 10
19.4427718683
 20
-50.5472478296
 10
19.4554912828
 20
-50.569508898
 10
19.4702428174
 20
-50.5893133417
 10
19.4869298448
 20
-50.6065314349
 10
19.5054430594
 20
-50.6210503931
 10
19.5155859011
 20
-50.6274055242
  0
LWPOLYLINE
  5
42D
100
AcDbEntity
  8
0
100
AcDbPolyline
 62
7
  6
CONTINUOUS
 90
22
 70
0
 10
-4.2030566727
 20
18.7420803077
 10
-4.2067618054
 20
18.7661300511
 10
-4.2112966554
 20
18.790268429
 10
-4.216626179
 20
18.8143883729
 10
-4.2226905948
 20
18.8383468816
 10
-4.2294793754
 20
18.8620859383
 10
-4.2370454661
 20
18.885631044
 10
-4.2453731845
 20
18.908902794
 10
-4.2544403502
 20
18.9317920798
 10
-4.2643114138
 20
18.954275168
 10
-4.2749870425
 20
18.9762800938
 10
-4.2864453535
 20
18.9976767664
 10
-4.2987257281
 20
19.0183462254
 10
-4.3118408044
 20
19.0382006365
 10
-4.3257554942
 20
19.0571118067
 10
-4.3404011281
 20
19.0749342898
 10
-4.3556802375
 20
19.0916091764
 10
-4.3715079751
 20
19.1071294678
 10
-4.3877917169
 20
19.1214701381
 10
-4.404439165
 20
19.1345994776
 10
-4.421358009
 20
19.1464802702
 10
-4.4384553076
 20
19.1570779602
  0
LINE
  5
42E
100
AcDbEntity
  8
DRAFT
100
AcDbLine
 62
7
  6
CONTINUOUS
 10
4.8785258551
 20
29.7396509055
 11
4.873751275
 21
30.0527355527
  0
LWPOLYLINE
  5
42F
100
AcDbEntity
  8
RACCORDO
100
AcDbPolyline
 62
250
  6
CONTINUOUS
 90
25
 70
0
 10
32.9754031131
 20
-0.6277928305
 10
32.9622715969
 20
-0.6262453435
 10
32.9502444634
 20
-0.6245593488
 10
32.9392283088
 20
-0.6227169924
 10
32.9291740361
 20
-0.6207151736
 10
32.9200119704
 20
-0.6185777777
 10
32.9116344778
 20
-0.616325839
 10
32.9040051627
 20
-0.6139815203
 10
32.8971038796
 20
-0.6115635563
 10
32.8908641888
 20
-0.6090785605
 10
32.8852522147
 20
-0.6065400235
 10
32.88024462
 20
-0.6039636196
 10
32.8757999598
 20
-0.6013547789
 10
32.8718894374
 20
-0.5987242803
 10
32.8684854893
 20
-0.5960850502
 10
32.8655533615
 20
-0.5934431822
 10
32.8630661029
 20
-0.5908093195
 10
32.8609949252
 20
-0.5881920385
 10
32.8593072702
 20
-0.5855922405
 10
32.8579786451
 20
-0.5830192189
 10
32.8569823501
 20
-0.5804787125
 10
32.8562900998
 20
-0.5779641265
 10
32.8558816242
 20
-0.5754862471
 10
32.8557343085
 20
-0.5730454022
 10
32.8558032266
 20
-0.5712971822
  0
LWPOLYLINE
  5
430
100
AcDbEntity
  8
RACCORDO
100
AcDbPolyline
 62
7
  6
CONTINUOUS
 90
20
 70
0
 10
41.689345603
 20
-4.7145342797
 10
41.6479131562
 20
-4.7083186267
 10
41.5813086502
 20
-4.697306858
 10
41.5131017209
 20
-4.6850132339
 10
41.4435095416
 20
-4.6714495019
 10
41.3730008992
 20
-4.6566876801
 10
41.301816673
 20
-4.640768661
 10
41.2302115641
 20
-4.6237371721
 10
41.1586704376
 20
-4.6057017503
 10
41.0874525506
 20
-4.5867332051
 10
41.016822812
 20
-4.5669071214
 10
40.9472641877
 20
-4.5463653001
 10
40.8790393624
 20
-4.5252058689
 10
40.8123777252
 20
-4.5035253558
 10
40.7476837341
 20
-4.4814787702
 10
40.6851512435
 20
-4.4591670118
 10
40.6249729161
 20
-4.4367011949
 10
40.5675262347
 20
-4.4142641381
 10
40.5130296083
 20
-4.391996293
 10
40.4796928969
 20
-4.377861281
  0
LWPOLYLINE
  5
431
100
AcDbEntity
  8
RACCORDO
100
AcDbPolyline
 62
250
  6
CONTINUOUS
 90
25
 70
0
 10
23.0142928023
 20
-6.5083421909
 10
23.0615071894
 20
-6.5338935135
 10
23.1114849131
 20
-6.5576281657
 10
23.1640166888
 20
-6.5794467572
 10
23.2188825366
 20
-6.5992579215
 10
23.2758527029
 20
-6.6169786983
 10
23.3346886218
 20
-6.6325348808
 10
23.3951439146
 20
-6.6458613265
 10
23.4569654214
 20
-6.6569022303
 10
23.5198942611
 20
-6.6656113578
 10
23.5836669157
 20
-6.671952239
 10
23.6480163336
 20
-6.675898321
 10
23.712673048
 20
-6.6774330795
 10
23.7773663052
 20
-6.6765500876
 10
23.8418251986
 20
-6.6732530428
 10
23.905779803
 20
-6.6675557517
 10
23.9689623049
 20
-6.6594820721
 10
24.0311081239
 20
-6.6490658129
 10
24.091957021
 20
-6.6363505927
 10
24.151254188
 20
-6.6213896574
 10
24.2087513146
 20
-6.6042456566
 10
24.2642076284
 20
-6.5849903818
 10
24.3173909031
 20
-6.5637044656
 10
24.3680784305
 20
-6.5404770439
 10
24.4160579539
 20
-6.5154053829
  0
LINE
  5
432
100
AcDbEntity
  8
RACCORDO
100
AcDbLine
 62
250
  6
CONTINUOUS
 10
22.3656618166
 20
-5.3848803696
 11
-40.566841709
 21
30.9515584366
  0
LWPOLYLINE
  5
433
100
AcDbEntity
  8
RACCORDO
100
AcDbPolyline
 62
250
  6
CONTINUOUS
 90
14
 70
0
 10
-41.2154726946
 20
30.577119419
 10
-41.2597260323
 20
30.6043804144
 10
-41.3008330073
 20
30.6332369256
 10
-41.3386214817
 20
30.6635681145
 10
-41.3729332143
 20
30.6952469675
 10
-41.4036245226
 20
30.7281408275
 10
-41.4305668851
 20
30.7621119497
 10
-41.4536474792
 20
30.7970180781
 10
-41.4727696536
 20
30.8327130413
 10
-41.487853333
 20
30.8690473646
 10
-41.4988353538
 20
30.9058688961
 10
-41.505669728
 20
30.9430234435
 10
-41.5083278365
 20
30.9803554201
 10
-41.5083659134
 20
30.9853940123
  0
LWPOLYLINE
  5
434
100
AcDbEntity
  8
RACCORDO
100
AcDbPolyline
 62
7
  6
CONTINUOUS
 90
3
 70
0
 10
-54.2444338304
 20
50.7164416722
 10
-53.4322874626
 20
50.0868799511
 10
-52.5929789871
 20
49.4432426557
  0
LWPOLYLINE
  5
435
100
AcDbEntity
  8
RACCORDO
100
AcDbPolyline
 62
250
  6
CONTINUOUS
 90
10
 70
0
 10
-54.244445133
 20
50.7164504785
 10
-54.2564190716
 20
50.7270213352
 10
-54.2686687316
 20
50.7410851162
 10
-54.2790977025
 20
50.7569993327
 10
-54.2876149597
 20
50.7746250898
 10
-54.2941461638
 20
50.7938085537
 10
-54.298634309
 20
50.8143822955
 10
-54.3010402211
 20
50.8361667514
 10
-54.3013428995
 20
50.8589717904
 10
-54.2995397
 20
50.8825983736
  0
LWPOLYLINE
  5
436
100
AcDbEntity
  8
0
100
AcDbPolyline
 62
250
  6
CONTINUOUS
 90
7
 70
0
 10
17.5967396427
 20
-43.5533806626
 10
17.5875409038
 20
-43.5163597207
 10
17.5820296433
 20
-43.4830972759
 10
17.5802022402
 20
-43.4535962761
 10
17.58205529
 20
-43.4278594928
 10
17.587585595
 20
-43.4058895294
 10
17.5967901698
 20
-43.3876888163
  0
LWPOLYLINE
  5
437
100
AcDbEntity
  8
RACCORDO
100
AcDbPolyline
 62
250
  6
CONTINUOUS
 90
10
 70
0
 10
15.2942739577
 20
-50.3058942273
 10
15.2969255718
 20
-50.3383181174
 10
15.3020103955
 20
-50.3689445457
 10
15.3094929098
 20
-50.3975596349
 10
15.3193208531
 20
-50.423963557
 10
15.3314255818
 20
-50.4479719242
 10
15.3457225497
 20
-50.4694170775
 10
15.3621119078
 20
-50.488149265
 10
15.3804791924
 20
-50.5040376799
 10
15.3974930688
 20
-50.5151903804
  0
LINE
  5
438
100
AcDbEntity
  8
RACCORDO
100
AcDbLine
 62
250
  6
CONTINUOUS
 10
7.4811281311
 20
28.1015420747
 11
7.4811281311
 21
28.5472688341
  0
LINE
  5
439
100
AcDbEntity
  8
RACCORDO
100
AcDbLine
 62
250
  6
CONTINUOUS
 10
7.9016576766
 20
27.8587335856
 11
7.9016576766
 21
28.304460345
  0
LINE
  5
43A
100
AcDbEntity
  8
RACCORDO
100
AcDbLine
 62
7
  6
CONTINUOUS
 10
38.7046402844
 20
10.9788762003
 11
34.6748929428
 21
8.3105401982
  0
LINE
  5
43B
100
AcDbEntity
  8
RACCORDO
100
AcDbLine
 62
250
  6
CONTINUOUS
 10
39.0060310348
 20
11.0638556187
 11
34.8368196367
 21
8.3031722698
  0
LWPOLYLINE
  5
43C
100
AcDbEntity
  8
RACCORDO
100
AcDbPolyline
 62
7
  6
CONTINUOUS
 90
19
 70
0
 10
34.0442001518
 20
8.7044210997
 10
34.0189697799
 20
8.6888553334
 10
33.9940672271
 20
8.6715141772
 10
33.9694924935
 20
8.6523976309
 10
33.9450823363
 20
8.6313494796
 10
33.9209999983
 20
8.6085259384
 10
33.8977352077
 20
8.5843956522
 10
33.8753767332
 20
8.5590126479
 10
33.8538358062
 20
8.5323228988
 10
33.8333358489
 20
8.5046329696
 10
33.8138711061
 20
8.4759284671
 10
33.795447333
 20
8.4462237845
 10
33.7783052176
 20
8.4158686672
 10
33.7624261017
 20
8.3847604582
 10
33.7478286436
 20
8.3530018144
 10
33.7348095058
 20
8.3212504515
 10
33.7234675759
 20
8.289725608
 10
33.7137039664
 20
8.2582080454
 10
33.7055186773
 20
8.2266977637
  0
LWPOLYLINE
  5
43D
100
AcDbEntity
  8
RACCORDO
100
AcDbPolyline
 62
250
  6
CONTINUOUS
 90
11
 70
0
 10
34.6750656866
 20
8.3106543414
 10
34.6816060707
 20
8.314638092
 10
34.6956773402
 20
8.3212539308
 10
34.7108275634
 20
8.3259267017
 10
34.7269438855
 20
8.3286215969
 10
34.7439062554
 20
8.3293185421
 10
34.7615883195
 20
8.3280123457
 10
34.7798583632
 20
8.3247127375
 10
34.7985802922
 20
8.3194442966
 10
34.8176146458
 20
8.3122462678
 10
34.8368196363
 20
8.3031722695
  0
LINE
  5
43E
100
AcDbEntity
  8
RACCORDO
100
AcDbLine
 62
7
  6
CONTINUOUS
 10
34.0442001518
 20
8.7044210997
 11
37.3761139577
 21
10.6282199936
  0
LINE
  5
43F
100
AcDbEntity
  8
RACCORDO
100
AcDbLine
 62
250
  6
CONTINUOUS
 10
33.4671685919
 20
7.1889593022
 11
34.3671831771
 21
7.6907863706
  0
LINE
  5
440
100
AcDbEntity
  8
RACCORDO
100
AcDbLine
 62
250
  6
CONTINUOUS
 10
34.281738618
 20
7.3058494454
 11
33.4158233988
 21
6.8230353854
  0
LINE
  5
441
100
AcDbEntity
  8
RACCORDO
100
AcDbLine
 62
250
  6
CONTINUOUS
 10
34.2603774782
 20
7.2096152142
 11
33.40321903
 21
6.7316837246
  0
LWPOLYLINE
  5
442
100
AcDbEntity
  8
RACCORDO
100
AcDbPolyline
 62
7
  6
CONTINUOUS
 90
12
 70
0
 10
39.0060310348
 20
11.0638556187
 10
38.9756989419
 20
11.062524332
 10
38.9454867408
 20
11.0597797187
 10
38.915481878
 20
11.055654395
 10
38.8856868016
 20
11.0502423063
 10
38.8562820377
 20
11.0435432047
 10
38.8276258635
 20
11.035462209
 10
38.7997573431
 20
11.0260427448
 10
38.772833404
 20
11.0153884685
 10
38.7473762099
 20
11.0035256552
 10
38.7234969232
 20
10.9905481199
 10
38.7046446203
 20
10.9788655759
  0
LWPOLYLINE
  5
443
100
AcDbEntity
  8
RACCORDO
100
AcDbPolyline
 62
250
  6
CONTINUOUS
 90
16
 70
0
 10
40.5524682462
 20
-4.4275637849
 10
40.6265519433
 20
-4.4555800303
 10
40.7025463215
 20
-4.4829003458
 10
40.7803544824
 20
-4.5094907849
 10
40.8596858273
 20
-4.5352479772
 10
40.9406956015
 20
-4.5602251781
 10
41.0232284563
 20
-4.5843709087
 10
41.106527884
 20
-4.6074250981
 10
41.1906259828
 20
-4.6293851148
 10
41.2754905377
 20
-4.6502557863
 10
41.3602685491
 20
-4.6697887281
 10
41.4448652517
 20
-4.6879609605
 10
41.5293752944
 20
-4.7047978115
 10
41.6132297871
 20
-4.720123661
 10
41.6964917064
 20
-4.7339560093
 10
41.7545411149
 20
-4.7426159975
  0
LWPOLYLINE
  5
444
100
AcDbEntity
  8
RACCORDO
100
AcDbPolyline
 62
250
  6
CONTINUOUS
 90
5
 70
0
 10
40.4796792335
 20
-4.3778580547
 10
40.4726267376
 20
-4.3750867795
 10
40.4528127634
 20
-4.36989041
 10
40.431802403
 20
-4.3679685148
 10
40.4097428826
 20
-4.3693345851
  0
LINE
  5
445
100
AcDbEntity
  8
RACCORDO
100
AcDbLine
 62
250
  6
CONTINUOUS
 10
40.4801984367
 20
-4.3988159811
 11
40.5524682462
 21
-4.4275637849
  0
LWPOLYLINE
  5
446
100
AcDbEntity
  8
RACCORDO
100
AcDbPolyline
 62
7
  6
CONTINUOUS
 90
22
 70
0
 10
41.1484503559
 20
-5.0829473073
 10
41.175475805
 20
-5.0940799614
 10
41.203351411
 20
-5.104913605
 10
41.232077169
 20
-5.1154483559
 10
41.2617411606
 20
-5.125717577
 10
41.2922552956
 20
-5.135688122
 10
41.3233553101
 20
-5.1452603838
 10
41.3550824144
 20
-5.1544445202
 10
41.3873953876
 20
-5.1632306602
 10
41.4199063162
 20
-5.171489242
 10
41.4526771143
 20
-5.1792243587
 10
41.4856458557
 20
-5.1864322624
 10
41.5182388632
 20
-5.1929717143
 10
41.5504035588
 20
-5.1988210264
 10
41.5821925083
 20
-5.2040022542
 10
41.6131897485
 20
-5.2084398197
 10
41.6433831741
 20
-5.2121266319
 10
41.6727848811
 20
-5.2150700713
 10
41.7010152086
 20
-5.2172162657
 10
41.7279476013
 20
-5.2185473176
 10
41.7537086092
 20
-5.2190812936
 10
41.7782982309
 20
-5.2188182394
  0
LINE
  5
447
100
AcDbEntity
  8
RACCORDO
100
AcDbLine
 62
250
  6
CONTINUOUS
 10
40.4097425717
 20
-4.369335725
 11
40.4801984367
 21
-4.3988159811
  0
LWPOLYLINE
  5
448
100
AcDbEntity
  8
RACCORDO
100
AcDbPolyline
 62
7
  6
CONTINUOUS
 90
10
 70
0
 10
41.1484491898
 20
-5.0829469292
 10
40.0367387774
 20
-4.6081080639
 10
38.9518403355
 20
-4.1391299513
 10
37.8938717682
 20
-3.6759514024
 10
36.8636814323
 20
-3.2188730008
 10
35.860487039
 20
-2.7675598756
 10
34.8818913419
 20
-2.3210335601
 10
33.9270391935
 20
-1.8789969952
 10
32.9965850787
 20
-1.4418513782
 10
32.0903946685
 20
-1.0096664222
  0
LWPOLYLINE
  5
449
100
AcDbEntity
  8
RACCORDO
100
AcDbPolyline
 62
7
  6
CONTINUOUS
 90
10
 70
0
 10
40.4796792335
 20
-4.3778580547
 10
39.6041515909
 20
-3.9992633428
 10
38.6913851329
 20
-3.6001803912
 10
37.80083749
 20
-3.2061708298
 10
36.9325062339
 20
-2.8172789129
 10
36.0863378169
 20
-2.4335663548
 10
35.2622454894
 20
-2.0551156503
 10
34.4601277545
 20
-1.6820338971
 10
33.6798758853
 20
-1.3144397191
 10
32.9905768691
 20
-0.9856820805
  0
LWPOLYLINE
  5
44A
100
AcDbEntity
  8
RACCORDO
100
AcDbPolyline
 62
7
  6
CONTINUOUS
 90
26
 70
0
 10
41.9562673395
 20
-4.8295057373
 10
41.9590879764
 20
-4.8307446928
 10
41.9692271044
 20
-4.8356818894
 10
41.9800712674
 20
-4.8417682668
 10
41.9914974157
 20
-4.8490584374
 10
42.0033190199
 20
-4.8575453912
 10
42.0153781143
 20
-4.8672158924
 10
42.0275180262
 20
-4.8780347925
 10
42.0395688601
 20
-4.8899261595
 10
42.0513870711
 20
-4.9028132179
 10
42.062832905
 20
-4.9166000097
 10
42.0737656325
 20
-4.9311539308
 10
42.0840690471
 20
-4.9463387734
 10
42.0936487102
 20
-4.9620274307
 10
42.1024240537
 20
-4.9780825179
 10
42.1103223439
 20
-4.9943410187
 10
42.1172930725
 20
-5.0106559449
 10
42.1233080499
 20
-5.0268993568
 10
42.1283450556
 20
-5.0429131011
 10
42.1323944049
 20
-5.0585235823
 10
42.1354657331
 20
-5.0735643569
 10
42.1375959702
 20
-5.0879063636
 10
42.1388321772
 20
-5.1013534162
 10
42.139249447
 20
-5.1136450623
 10
42.1389668217
 20
-5.124663935
 10
42.1384510154
 20
-5.1313230109
  0
LWPOLYLINE
  5
44B
100
AcDbEntity
  8
RACCORDO
100
AcDbPolyline
 62
250
  6
CONTINUOUS
 90
25
 70
0
 10
-40.566841709
 20
30.9515584366
 10
-40.6093718253
 20
30.974492329
 10
-40.6514239944
 20
30.9940052047
 10
-40.6929982165
 20
31.0100970639
 10
-40.7342911091
 20
31.0228190849
 10
-40.7751060546
 20
31.0321200893
 10
-40.8148531999
 20
31.0378465417
 10
-40.8534929466
 20
31.0399404893
 10
-40.8910648932
 20
31.038459885
 10
-40.9270979823
 20
31.0334250522
 10
-40.9615763018
 20
31.0247909459
 10
-40.9945157637
 20
31.0126026112
 10
-41.0254930471
 20
30.9970155069
 10
-41.0544825668
 20
30.9779851175
 10
-41.081509908
 20
30.9555559584
 10
-41.1062285054
 20
30.9300170342
 10
-41.1286071619
 20
30.901332242
 10
-41.1486770746
 20
30.8695376846
 10
-41.1661852703
 20
30.8350306753
 10
-41.1811014893
 20
30.7977474418
 10
-41.1934559913
 20
30.7577517564
 10
-41.2030865822
 20
30.7156322485
 10
-41.2099391974
 20
30.6715851278
 10
-41.2140679015
 20
30.6254141847
 10
-41.2154726946
 20
30.577119419
  0
LWPOLYLINE
  5
44C
100
AcDbEntity
  8
RACCORDO
100
AcDbPolyline
 62
250
  6
CONTINUOUS
 90
15
 70
0
 10
-39.8720756427
 20
32.1690535802
 10
-39.9508985102
 20
32.211916683
 10
-40.0294546687
 20
32.2493382861
 10
-40.1074783091
 20
32.2811917659
 10
-40.184705424
 20
32.3073693399
 10
-40.2608747014
 20
32.3277824308
 10
-40.3357284083
 20
32.3423619667
 10
-40.4090132651
 20
32.3510586145
 10
-40.4804812969
 20
32.3538429466
 10
-40.5498906737
 20
32.3507055415
 10
-40.6170065333
 20
32.3416570163
 10
-40.6816017802
 20
32.326727989
 10
-40.7434578487
 20
32.3059689739
 10
-40.8023654394
 20
32.2794502114
 10
-40.8424543257
 20
32.2570744277
  0
LINE
  5
44D
100
AcDbEntity
  8
RACCORDO
100
AcDbLine
 62
250
  6
CONTINUOUS
 10
21.7251792883
 20
-3.149467655
 11
23.0060781454
 21
-3.8697430064
  0
LINE
  5
44E
100
AcDbEntity
  8
RACCORDO
100
AcDbLine
 62
250
  6
CONTINUOUS
 10
18.1331210755
 20
-1.1187295597
 11
21.7251792883
 21
-3.149467655
  0
LINE
  5
44F
100
AcDbEntity
  8
RACCORDO
100
AcDbLine
 62
250
  6
CONTINUOUS
 10
13.339732048
 20
1.5982954245
 11
18.1331210755
 21
-1.1187295597
  0
LWPOLYLINE
  5
450
100
AcDbEntity
  8
RACCORDO
100
AcDbPolyline
 62
7
  6
CONTINUOUS
 90
34
 70
0
 10
19.9996539612
 20
-2.2494234068
 10
23.0664144309
 20
-3.978155569
 10
23.1413824308
 20
-4.0234553222
 10
23.2166005548
 20
-4.0732965305
 10
23.2918318049
 20
-4.1275971231
 10
23.3668056433
 20
-4.1862382449
 10
23.4412456947
 20
-4.2490547169
 10
23.5149398768
 20
-4.3159137187
 10
23.5876650467
 20
-4.3866644883
 10
23.6591489386
 20
-4.4610774927
 10
23.7291748661
 20
-4.5389530452
 10
23.7975396689
 20
-4.6200985119
 10
23.8640115714
 20
-4.7042619645
 10
23.9283972966
 20
-4.791206031
 10
23.9905186505
 20
-4.8807046438
 10
24.0501885606
 20
-4.9725021585
 10
24.1072433989
 20
-5.0663434128
 10
24.161525382
 20
-5.1619704199
 10
24.2128757532
 20
-5.2591089906
 10
24.2611594494
 20
-5.3574892993
 10
24.306248756
 20
-5.4568359877
 10
24.3480152921
 20
-5.5568570453
 10
24.3863580807
 20
-5.6572817165
 10
24.4211805304
 20
-5.7578197624
 10
24.4523822237
 20
-5.8581434986
 10
24.4799012722
 20
-5.957982508
 10
24.5036827736
 20
-6.0570470374
 10
24.5236673509
 20
-6.1549786932
 10
24.5398366659
 20
-6.2515048851
 10
24.5521872493
 20
-6.3463828767
 10
24.5607182757
 20
-6.4393019714
 10
24.5654630482
 20
-6.5299685717
 10
24.566470501
 20
-6.6181276813
 10
24.5660263608
 20
-6.645154308
  0
LINE
  5
451
100
AcDbEntity
  8
RACCORDO
100
AcDbLine
 62
250
  6
CONTINUOUS
 10
9.8673744711
 20
3.5717255766
 11
13.339732048
 21
1.5982954245
  0
LINE
  5
452
100
AcDbEntity
  8
RACCORDO
100
AcDbLine
 62
250
  6
CONTINUOUS
 10
6.8651042845
 20
5.2821280847
 11
9.8673744711
 21
3.5717255766
  0
LINE
  5
453
100
AcDbEntity
  8
RACCORDO
100
AcDbLine
 62
250
  6
CONTINUOUS
 10
4.686976241
 20
6.5255941703
 11
6.8651042845
 21
5.2821280847
  0
LINE
  5
454
100
AcDbEntity
  8
RACCORDO
100
AcDbLine
 62
250
  6
CONTINUOUS
 10
2.3654280325
 20
7.8534780213
 11
4.686976241
 21
6.5255941703
  0
LINE
  5
455
100
AcDbEntity
  8
RACCORDO
100
AcDbLine
 62
250
  6
CONTINUOUS
 10
-0.1064039386
 20
9.2702826179
 11
2.3654280325
 21
7.8534780213
  0
LINE
  5
456
100
AcDbEntity
  8
RACCORDO
100
AcDbLine
 62
250
  6
CONTINUOUS
 10
-2.7502844411
 20
10.7890963286
 11
-0.1064039386
 21
9.2702826179
  0
LINE
  5
457
100
AcDbEntity
  8
RACCORDO
100
AcDbLine
 62
250
  6
CONTINUOUS
 10
-5.572838977
 20
12.4142672567
 11
-2.7502844411
 21
10.7890963286
  0
LWPOLYLINE
  5
458
100
AcDbEntity
  8
RACCORDO
100
AcDbPolyline
 62
7
  6
CONTINUOUS
 90
9
 70
0
 10
-8.5354924536
 20
14.046609151
 10
-4.6543038961
 20
11.8081011171
 10
-0.819385784
 20
9.6028873044
 10
2.9123807676
 20
7.4639577573
 10
6.5405224659
 20
5.3910407697
 10
10.0642315217
 20
3.3837114465
 10
13.4826119983
 20
1.4415346398
 10
16.7947881906
 20
-0.4359523786
 10
19.9996539612
 20
-2.2494234068
  0
LINE
  5
459
100
AcDbEntity
  8
RACCORDO
100
AcDbLine
 62
250
  6
CONTINUOUS
 10
23.0604278829
 20
-4.167385226
 11
3.2246032887
 21
7.2855712934
  0
LINE
  5
45A
100
AcDbEntity
  8
RACCORDO
100
AcDbLine
 62
250
  6
CONTINUOUS
 10
-20.2449357878
 20
20.8365890138
 11
-39.8720756427
 21
32.1690535802
  0
LINE
  5
45B
100
AcDbEntity
  8
RACCORDO
100
AcDbLine
 62
250
  6
CONTINUOUS
 10
-10.1203042045
 20
15.0389331878
 11
-5.572838977
 21
12.4142672567
  0
LINE
  5
45C
100
AcDbEntity
  8
RACCORDO
100
AcDbLine
 62
250
  6
CONTINUOUS
 10
-13.064698072
 20
16.7419072108
 11
-10.1203042045
 21
15.0389331878
  0
LINE
  5
45D
100
AcDbEntity
  8
RACCORDO
100
AcDbLine
 62
250
  6
CONTINUOUS
 10
-15.8141554938
 20
18.335761883
 11
-13.064698072
 21
16.7419072108
  0
LINE
  5
45E
100
AcDbEntity
  8
RACCORDO
100
AcDbLine
 62
250
  6
CONTINUOUS
 10
-18.3941138015
 20
19.8348060886
 11
-15.8141554938
 21
18.335761883
  0
LINE
  5
45F
100
AcDbEntity
  8
RACCORDO
100
AcDbLine
 62
250
  6
CONTINUOUS
 10
-20.8177870485
 20
21.2461753072
 11
-18.3941138015
 21
19.8348060886
  0
LINE
  5
460
100
AcDbEntity
  8
RACCORDO
100
AcDbLine
 62
250
  6
CONTINUOUS
 10
-23.1052223454
 20
22.5809459182
 11
-20.8177870485
 21
21.2461753072
  0
LINE
  5
461
100
AcDbEntity
  8
RACCORDO
100
AcDbLine
 62
250
  6
CONTINUOUS
 10
-26.2952784952
 20
24.4466373971
 11
-23.1052223454
 21
22.5809459182
  0
LINE
  5
462
100
AcDbEntity
  8
RACCORDO
100
AcDbLine
 62
250
  6
CONTINUOUS
 10
-29.2309544344
 20
26.1676391306
 11
-26.2952784952
 21
24.4466373971
  0
LINE
  5
463
100
AcDbEntity
  8
RACCORDO
100
AcDbLine
 62
250
  6
CONTINUOUS
 10
-33.6397694433
 20
28.7589026794
 11
-29.2309544344
 21
26.1676391306
  0
LINE
  5
464
100
AcDbEntity
  8
RACCORDO
100
AcDbLine
 62
250
  6
CONTINUOUS
 10
-37.5059418684
 20
31.0364275581
 11
-33.6397694433
 21
28.7589026794
  0
LWPOLYLINE
  5
465
100
AcDbEntity
  8
RACCORDO
100
AcDbPolyline
 62
7
  6
CONTINUOUS
 90
10
 70
0
 10
-39.7298397105
 20
32.2794340595
 10
-36.7599306158
 20
30.5229430999
 10
-33.6199746235
 20
28.6729298503
 10
-30.3690242752
 20
26.7609651391
 10
-27.0059769746
 20
24.7876288434
 10
-23.5300020644
 20
22.753416543
 10
-19.9403152666
 20
20.6588437411
 10
-16.2361714298
 20
18.5043615899
 10
-12.4170821278
 20
16.2902387806
 10
-8.5354838888
 20
14.0466042045
  0
LINE
  5
466
100
AcDbEntity
  8
RACCORDO
100
AcDbLine
 62
250
  6
CONTINUOUS
 10
23.0060781454
 20
-3.8697430064
 11
23.0970236909
 21
-3.9236639489
  0
LWPOLYLINE
  5
467
100
AcDbEntity
  8
RACCORDO
100
AcDbPolyline
 62
250
  6
CONTINUOUS
 90
3
 70
0
 10
-39.7710286341
 20
32.3769716662
 10
-39.0154711323
 20
31.9285941058
 10
-37.5059418684
 20
31.0364275581
  0
LWPOLYLINE
  5
468
100
AcDbEntity
  8
RACCORDO
100
AcDbPolyline
 62
250
  6
CONTINUOUS
 90
9
 70
0
 10
24.6273650602
 20
-6.7285848325
 10
24.613342821
 20
-6.7199686697
 10
24.6009232844
 20
-6.7106159753
 10
24.5902368637
 20
-6.7006249587
 10
24.5813957738
 20
-6.6901005321
 10
24.5744928517
 20
-6.6791532086
 10
24.5696005828
 20
-6.6678979416
 10
24.5667703395
 20
-6.6564529186
 10
24.5660257703
 20
-6.6451794718
  0
LWPOLYLINE
  5
469
100
AcDbEntity
  8
RACCORDO
100
AcDbPolyline
 62
250
  6
CONTINUOUS
 90
30
 70
0
 10
23.0970236909
 20
-3.9236639489
 10
23.1870181276
 20
-3.9827338564
 10
23.2760617493
 20
-4.0469525765
 10
23.3643997198
 20
-4.1165269425
 10
23.4517890646
 20
-4.1912489849
 10
23.5374978656
 20
-4.2704963492
 10
23.6215107217
 20
-4.3542926205
 10
23.7038462914
 20
-4.4426125231
 10
23.783822875
 20
-4.5347608643
 10
23.8615142111
 20
-4.630917365
 10
23.9368506255
 20
-4.730900195
 10
24.0089337207
 20
-4.833472653
 10
24.0777261611
 20
-4.9387771238
 10
24.1432683355
 20
-5.0466696382
 10
24.2047757244
 20
-5.1554853695
 10
24.2621290023
 20
-5.2652892618
 10
24.3154481165
 20
-5.3760160485
 10
24.3643039927
 20
-5.4858073846
 10
24.4085045023
 20
-5.5945041188
 10
24.4482392855
 20
-5.7022666939
 10
24.483648721
 20
-5.8077178176
 10
24.5144848736
 20
-5.9095641803
 10
24.5409907273
 20
-6.0091016611
 10
24.5640436986
 20
-6.108836409
 10
24.5840950001
 20
-6.2091516403
 10
24.6006934467
 20
-6.3096641244
 10
24.6133659004
 20
-6.4117287611
 10
24.6219557636
 20
-6.5157966049
 10
24.626621485
 20
-6.6214156406
 10
24.6273650602
 20
-6.7285848325
  0
LWPOLYLINE
  5
46A
100
AcDbEntity
  8
RACCORDO
100
AcDbPolyline
 62
7
  6
CONTINUOUS
 90
10
 70
0
 10
-46.8227232458
 20
44.5537788479
 10
-47.5711922749
 20
45.0769735219
 10
-48.3283143197
 20
45.6142132384
 10
-49.0939343098
 20
46.1655557343
 10
-49.8673172912
 20
46.7306000009
 10
-50.6489665708
 20
47.3098332957
 10
-51.4405862377
 20
47.9046450967
 10
-52.2427637082
 20
48.5154913449
 10
-53.0549878359
 20
49.1418877018
 10
-53.8773947294
 20
49.7837834903
  0
LWPOLYLINE
  5
46B
100
AcDbEntity
  8
RACCORDO
100
AcDbPolyline
 62
250
  6
CONTINUOUS
 90
8
 70
0
 10
-47.3681489652
 20
45.7613234839
 10
-47.8705453709
 20
46.1130893563
 10
-48.3875129859
 20
46.4784353112
 10
-48.9188370916
 20
46.8574412942
 10
-49.4643644918
 20
47.2502064552
 10
-50.0238356293
 20
47.656785324
 10
-50.5968893453
 20
48.0771860387
 10
-51.1837910767
 20
48.5118151398
  0
LINE
  5
46C
100
AcDbEntity
  8
RACCORDO
100
AcDbLine
 62
7
  6
CONTINUOUS
 10
-46.740724572
 20
45.1594574612
 11
-47.0661748889
 21
45.3898539681
  0
LWPOLYLINE
  5
46D
100
AcDbEntity
  8
RACCORDO
100
AcDbPolyline
 62
250
  6
CONTINUOUS
 90
3
 70
0
 10
-47.3678588513
 20
45.5553526638
 10
-47.0195703928
 20
45.3071804473
 10
-46.7469839845
 20
45.114284085
  0
LWPOLYLINE
  5
46E
100
AcDbEntity
  8
RACCORDO
100
AcDbPolyline
 62
250
  6
CONTINUOUS
 90
22
 70
0
 10
-54.2995397
 20
50.8825983736
 10
-54.3223223606
 20
50.8988730898
 10
-54.3449213477
 20
50.9125053134
 10
-54.3673355078
 20
50.9234954738
 10
-54.38965742
 20
50.9318588668
 10
-54.4117918462
 20
50.9375811865
 10
-54.4334560749
 20
50.9406183978
 10
-54.4546757866
 20
50.940942496
 10
-54.4754228314
 20
50.9385824052
 10
-54.4953345033
 20
50.9335792028
 10
-54.5143709779
 20
50.9259128085
 10
-54.5325705112
 20
50.9156038867
 10
-54.5496884556
 20
50.9027542826
 10
-54.5657292879
 20
50.8873490352
 10
-54.5806877473
 20
50.8694033974
 10
-54.5943055257
 20
50.8490641829
 10
-54.6065969013
 20
50.8261815422
 10
-54.6175477449
 20
50.8009052694
 10
-54.6268585709
 20
50.7738311095
 10
-54.6344306198
 20
50.7451572462
 10
-54.6403648295
 20
50.7146846848
 10
-54.6446621319
 20
50.6824130782
  0
LWPOLYLINE
  5
46F
100
AcDbEntity
  8
RACCORDO
100
AcDbPolyline
 62
7
  6
CONTINUOUS
 90
3
 70
0
 10
-47.0661748889
 20
45.3898539681
 10
-47.7090714435
 20
45.8508833861
 10
-48.2209342129
 20
46.2226794984
  0
LWPOLYLINE
  5
470
100
AcDbEntity
  8
RACCORDO
100
AcDbPolyline
 62
7
  6
CONTINUOUS
 90
7
 70
0
 10
-51.7703821116
 20
48.8197834846
 10
-50.964570106
 20
48.2165135343
 10
-50.1757033777
 20
47.6334109668
 10
-49.4040119637
 20
47.0704180381
 10
-48.6498471575
 20
46.5274293806
 10
-47.9136056082
 20
46.0043173407
 10
-47.260897195
 20
45.5463901809
  0
LINE
  5
471
100
AcDbEntity
  8
RACCORDO
100
AcDbLine
 62
250
  6
CONTINUOUS
 10
-51.1837910767
 20
48.5118151398
 11
-51.8346362448
 21
48.9986082564
  0
LWPOLYLINE
  5
472
100
AcDbEntity
  8
RACCORDO
100
AcDbPolyline
 62
250
  6
CONTINUOUS
 90
4
 70
0
 10
-51.8346362448
 20
48.9986082564
 10
-52.3958020904
 20
49.4218422197
 10
-53.0187837726
 20
49.8958424411
 10
-53.6533655753
 20
50.3827601912
  0
LINE
  5
473
100
AcDbEntity
  8
RACCORDO
100
AcDbLine
 62
7
  6
CONTINUOUS
 10
-52.5929789871
 20
49.4432426557
 11
-51.7703821116
 21
48.8197834846
  0
LWPOLYLINE
  5
474
100
AcDbEntity
  8
RACCORDO
100
AcDbPolyline
 62
250
  6
CONTINUOUS
 90
10
 70
0
 10
-50.8833173699
 20
48.1564543667
 10
-50.4782665923
 20
47.8479494918
 10
-50.0457654409
 20
47.5211374546
 10
-49.6255805105
 20
47.2061300015
 10
-49.218548521
 20
46.9031983872
 10
-48.826351844
 20
46.6134799174
 10
-48.4474057613
 20
46.3357053789
 10
-48.077634387
 20
46.0665547429
 10
-47.7181239633
 20
45.8066872283
 10
-47.3678588513
 20
45.5553526638
  0
LINE
  5
475
100
AcDbEntity
  8
RACCORDO
100
AcDbLine
 62
250
  6
CONTINUOUS
 10
-53.6533655753
 20
50.3827601912
 11
-54.2995397
 21
50.8825983736
  0
LWPOLYLINE
  5
476
100
AcDbEntity
  8
0
100
AcDbPolyline
 62
7
  6
CONTINUOUS
 90
25
 70
0
 10
-3.6730961262
 20
20.6526426584
 10
-3.7180355832
 20
20.7005697277
 10
-3.7639523726
 20
20.7463839819
 10
-3.8108481316
 20
20.7900845713
 10
-3.8589246178
 20
20.8315292264
 10
-3.9079827466
 20
20.8708588296
 10
-3.9574222905
 20
20.908497571
 10
-4.0071177551
 20
20.9444720342
 10
-4.0571956609
 20
20.9787551032
 10
-4.1074332814
 20
21.0116906902
 10
-4.1578108526
 20
21.0433447997
 10
-4.2083484913
 20
21.073651244
 10
-4.2588831009
 20
21.102755747
 10
-4.3093577859
 20
21.1306284216
 10
-4.3598294526
 20
21.1572991493
 10
-4.4103056455
 20
21.1830033383
 10
-4.4607741104
 20
21.2077433506
 10
-4.5112469255
 20
21.2315169155
 10
-4.5617681416
 20
21.2545524882
 10
-4.6123253051
 20
21.2768514606
 10
-4.6629306207
 20
21.29841257
 10
-4.7136651769
 20
21.3194602625
 10
-4.7645559413
 20
21.3400693858
 10
-4.815575711
 20
21.3601652144
 10
-4.866724348
 20
21.3797478199
  0
LWPOLYLINE
  5
477
100
AcDbEntity
  8
0
100
AcDbPolyline
 62
7
  6
CONTINUOUS
 90
48
 70
0
 10
-3.7236250975
 20
20.6234689074
 10
-3.7014935663
 20
20.5971056937
 10
-3.679427539
 20
20.5679651162
 10
-3.6575067171
 20
20.5361304427
 10
-3.6358642609
 20
20.5018291866
 10
-3.6145347188
 20
20.4651541516
 10
-3.5935088344
 20
20.425875047
 10
-3.5729021795
 20
20.3838588715
 10
-3.552989543
 20
20.3391868548
 10
-3.5340588645
 20
20.2918868
 10
-3.5162845448
 20
20.241706107
 10
-3.5000044375
 20
20.189039681
 10
-3.4856850611
 20
20.1349595342
 10
-3.4734885262
 20
20.0794042068
 10
-3.4636626973
 20
20.0228877944
 10
-3.4564846064
 20
19.9673745284
 10
-3.4518538126
 20
19.9131992215
 10
-3.4496114363
 20
19.860306316
 10
-3.4495030212
 20
19.8099275554
 10
-3.4511894639
 20
19.7624691945
 10
-3.4543954799
 20
19.7174879369
 10
-3.4588403566
 20
19.6748514772
 10
-3.464346249
 20
19.6346423957
 10
-3.4708053106
 20
19.5967792535
 10
-3.4781478564
 20
19.5609162611
 10
-3.4862965032
 20
19.526970032
 10
-3.495148861
 20
19.4950019113
 10
-3.504638225
 20
19.4648830981
 10
-3.5146771587
 20
19.436568212
 10
-3.5251827335
 20
19.4100079231
 10
-3.53611213
 20
19.3850673502
 10
-3.5473808858
 20
19.3617186524
 10
-3.5589125145
 20
19.3399015831
 10
-3.5706950011
 20
19.3194547884
 10
-3.5826618109
 20
19.3003461446
 10
-3.5947369422
 20
19.2825601551
 10
-3.6069218673
 20
19.2659754779
 10
-3.6191618836
 20
19.2505650896
 10
-3.6314056539
 20
19.2362988269
 10
-3.643680106
 20
19.2230656194
 10
-3.6559600578
 20
19.2108244749
 10
-3.6681938924
 20
19.1995625863
 10
-3.6803813823
 20
19.1892215833
 10
-3.6924927628
 20
19.1797651099
 10
-3.7044906478
 20
19.1711288021
 10
-3.7163682224
 20
19.1632151446
 10
-3.728094215
 20
19.1559503275
 10
-3.7342396213
 20
19.1523387811
  0
LINE
  5
478
100
AcDbEntity
  8
0
100
AcDbLine
 62
7
  6
CONTINUOUS
 10
-3.9025403897
 20
19.0855390536
 11
-3.8840822259
 21
19.0624563779
  0
LINE
  5
479
100
AcDbEntity
  8
0
100
AcDbLine
 62
7
  6
CONTINUOUS
 10
-3.8336078514
 20
19.0908250347
 11
-3.8432776249
 21
19.1031415814
  0
LINE
  5
47A
100
AcDbEntity
  8
0
100
AcDbLine
 62
7
  6
CONTINUOUS
 10
-3.8162821436
 20
19.0663581509
 11
-3.8336078514
 21
19.0908250347
  0
LWPOLYLINE
  5
47B
100
AcDbEntity
  8
0
100
AcDbPolyline
 62
7
  6
CONTINUOUS
 90
25
 70
0
 10
-3.8840822259
 20
19.0624563779
 10
-3.8669507017
 20
19.0382464987
 10
-3.851094668
 20
19.0130529464
 10
-3.8364327913
 20
18.9868852165
 10
-3.8229558251
 20
18.9599917132
 10
-3.8106941519
 20
18.9328956143
 10
-3.7996359897
 20
18.9058979573
 10
-3.7896467169
 20
18.8789709096
 10
-3.7805568273
 20
18.8521494008
 10
-3.7723188181
 20
18.8255776191
 10
-3.7648757412
 20
18.7992936178
 10
-3.758069874
 20
18.7731452507
 10
-3.7518503758
 20
18.7471382079
 10
-3.7462076912
 20
18.7213898477
 10
-3.7410656789
 20
18.6959004055
 10
-3.7363979231
 20
18.6707270251
 10
-3.7321817894
 20
18.6459098006
 10
-3.7283556444
 20
18.6214182003
 10
-3.7249017529
 20
18.5973156178
 10
-3.7218006695
 20
18.5736191571
 10
-3.7189988785
 20
18.5502299433
 10
-3.7164771042
 20
18.5271795967
 10
-3.7142252666
 20
18.5044971451
 10
-3.7121930225
 20
18.4820329139
 10
-3.7103294997
 20
18.4597000061
  0
LWPOLYLINE
  5
47C
100
AcDbEntity
  8
RACCORDO
100
AcDbPolyline
 62
7
  6
CONTINUOUS
 90
10
 70
0
 10
41.9635355803
 20
-62.4804893469
 10
41.9746264091
 20
-62.5050300313
 10
41.9919143723
 20
-62.536610105
 10
42.0123580064
 20
-62.5673451875
 10
42.0359140647
 20
-62.596908907
 10
42.0623615741
 20
-62.624836341
 10
42.0914898588
 20
-62.6508599895
 10
42.1230319573
 20
-62.6747774528
 10
42.1568116825
 20
-62.6965027648
 10
42.193379207
 20
-62.7163102055
  0
LWPOLYLINE
  5
47D
100
AcDbEntity
  8
RACCORDO
100
AcDbPolyline
 62
250
  6
CONTINUOUS
 90
10
 70
0
 10
17.5943193363
 20
-43.3699899765
 10
17.5271953974
 20
-43.0036005159
 10
17.4653916296
 20
-42.6329191402
 10
17.4089519104
 20
-42.2579101283
 10
17.3581096539
 20
-41.8785200777
 10
17.3127165856
 20
-41.494733078
 10
17.2722322689
 20
-41.1065792371
 10
17.2364904924
 20
-40.7140572473
 10
17.2057024571
 20
-40.3171317899
 10
17.1956172242
 20
-40.1605243868
  0
LWPOLYLINE
  5
47E
100
AcDbEntity
  8
RACCORDO
100
AcDbPolyline
 62
250
  6
CONTINUOUS
 90
10
 70
0
 10
17.6256198337
 20
-43.5699913235
 10
17.7617478623
 20
-44.3682953846
 10
17.9131823155
 20
-45.1591299089
 10
18.0801745031
 20
-45.9422903026
 10
18.2624720447
 20
-46.7157027812
 10
18.4605530241
 20
-47.481257382
 10
18.6760617282
 20
-48.2444532239
 10
18.9098790631
 20
-49.0068524027
 10
19.1617880585
 20
-49.7663523062
 10
19.4321451217
 20
-50.5226627797
  0
LWPOLYLINE
  5
47F
100
AcDbEntity
  8
0
100
AcDbPolyline
 62
250
  6
CONTINUOUS
 90
7
 70
0
 10
17.5967901698
 20
-43.3876888163
 10
17.5961696424
 20
-43.3838698516
 10
17.5956326916
 20
-43.3803984786
 10
17.5951792465
 20
-43.377274755
 10
17.5948092428
 20
-43.3744987331
 10
17.594522623
 20
-43.3720704598
 10
17.5943193363
 20
-43.3699899765
  0
LWPOLYLINE
  5
480
100
AcDbEntity
  8
RACCORDO
100
AcDbPolyline
 62
250
  6
CONTINUOUS
 90
10
 70
0
 10
15.2942809926
 20
-50.3058982924
 10
15.25885781
 20
-49.4558538823
 10
15.2261316442
 20
-48.6040904928
 10
15.1961032788
 20
-47.7506186685
 10
15.1687780893
 20
-46.89544734
 10
15.1441521933
 20
-46.0385887214
 10
15.1222123155
 20
-45.1800583947
 10
15.102954316
 20
-44.319868739
 10
15.086383327
 20
-43.458028847
 10
15.0724998075
 20
-42.5945494801
  0
LINE
  5
481
100
AcDbEntity
  8
RACCORDO
100
AcDbLine
 62
250
  6
CONTINUOUS
 10
15.061251858
 20
-41.7315897643
 11
15.0724998075
 21
-42.5945494801
  0
LINE
  5
482
100
AcDbEntity
  8
RACCORDO
100
AcDbLine
 62
250
  6
CONTINUOUS
 10
15.0526881747
 20
-40.8670586646
 11
15.061251858
 21
-41.7315897643
  0
LINE
  5
483
100
AcDbEntity
  8
RACCORDO
100
AcDbLine
 62
250
  6
CONTINUOUS
 10
15.0468087631
 20
-40.0009673295
 11
15.0526881747
 21
-40.8670586646
  0
LINE
  5
484
100
AcDbEntity
  8
RACCORDO
100
AcDbLine
 62
250
  6
CONTINUOUS
 10
15.0433201921
 20
-38.917815055
 11
15.0468087631
 21
-40.0009673295
  0
LWPOLYLINE
  5
485
100
AcDbEntity
  8
RACCORDO
100
AcDbPolyline
 62
7
  6
CONTINUOUS
 90
13
 70
0
 10
34.6750656866
 20
8.3106543414
 10
34.6441679355
 20
8.2884838014
 10
34.6151191438
 20
8.264273058
 10
34.5875312246
 20
8.2378767406
 10
34.5614507758
 20
8.2094258751
 10
34.5371306061
 20
8.1793006067
 10
34.5145075747
 20
8.1475150682
 10
34.4936036811
 20
8.1141041352
 10
34.4747520816
 20
8.0796238174
 10
34.4579576745
 20
8.0441126177
 10
34.4432567983
 20
8.0075623706
 10
34.4309057382
 20
7.9704938534
 10
34.420360829
 20
7.9303590401
  0
LINE
  5
486
100
AcDbEntity
  8
RACCORDO
100
AcDbLine
 62
250
  6
CONTINUOUS
 10
32.3943101452
 20
1.0996126925
 11
33.1788859595
 21
1.5687123175
  0
LINE
  5
487
100
AcDbEntity
  8
RACCORDO
100
AcDbLine
 62
250
  6
CONTINUOUS
 10
23.0604278829
 20
-4.167385226
 11
23.2171833795
 21
-4.0737172031
  0
LINE
  5
488
100
AcDbEntity
  8
RACCORDO
100
AcDbLine
 62
250
  6
CONTINUOUS
 10
32.426615933
 20
1.6953124712
 11
33.2776216766
 21
2.1698133566
  0
LINE
  5
489
100
AcDbEntity
  8
RACCORDO
100
AcDbLine
 62
250
  6
CONTINUOUS
 10
32.4194598962
 20
1.603705957
 11
33.2611657103
 21
2.0730214193
  0
LINE
  5
48A
100
AcDbEntity
  8
RACCORDO
100
AcDbLine
 62
250
  6
CONTINUOUS
 10
24.4160579539
 20
-6.5154053829
 11
24.5603203712
 21
-6.4349680354
  0
LWPOLYLINE
  5
48B
100
AcDbEntity
  8
0
100
AcDbPolyline
 62
7
  6
CONTINUOUS
 90
25
 70
0
 10
-4.9172593601
 20
21.3505695372
 10
-4.866000489
 20
21.3308560132
 10
-4.8148716864
 20
21.310731784
 10
-4.7638803579
 20
21.2901469699
 10
-4.7130684094
 20
21.2690768926
 10
-4.6624085356
 20
21.2474499464
 10
-4.6118036825
 20
21.2251424303
 10
-4.5612460281
 20
21.2020967402
 10
-4.510756547
 20
21.1782661467
 10
-4.4602806678
 20
21.1535345052
 10
-4.4098148178
 20
21.1278412082
 10
-4.3593755115
 20
21.1011325395
 10
-4.3089381029
 20
21.0732941495
 10
-4.258453582
 20
21.0442312751
 10
-4.2079843414
 20
21.0139102471
 10
-4.1576729556
 20
20.9823097758
 10
-4.1075543854
 20
20.9494035498
 10
-4.0576076195
 20
20.9151022405
 10
-4.0079116631
 20
20.8792750651
 10
-3.9585040307
 20
20.8417402732
 10
-3.9095697929
 20
20.8023525831
 10
-3.8614734851
 20
20.7609828818
 10
-3.8144136131
 20
20.7174895244
 10
-3.7684255029
 20
20.6717032737
 10
-3.7236250975
 20
20.6234689074
  0
LWPOLYLINE
  5
48C
100
AcDbEntity
  8
RACCORDO
100
AcDbPolyline
 62
7
  6
CONTINUOUS
 90
10
 70
0
 10
32.9678676515
 20
-0.7773352202
 10
33.7651759657
 20
-1.1564758383
 10
34.6720378161
 20
-1.5823249178
 10
35.6141132007
 20
-2.0189392844
 10
36.5916482969
 20
-2.4660950008
 10
37.6048494513
 20
-2.923593585
 10
38.6538385274
 20
-3.3913027931
 10
39.7386715865
 20
-3.8691286155
 10
40.8593405392
 20
-4.3570254991
 10
41.9562841141
 20
-4.8295129296
  0
LWPOLYLINE
  5
48D
100
AcDbEntity
  8
RACCORDO
100
AcDbPolyline
 62
250
  6
CONTINUOUS
 90
13
 70
0
 10
32.9751783602
 20
-0.6278809735
 10
33.5823963346
 20
-0.9172946787
 10
34.2148353747
 20
-1.2159778522
 10
34.8726987267
 20
-1.523825015
 10
35.556807784
 20
-1.8410387973
 10
36.2667386224
 20
-2.1672102937
 10
37.0007959957
 20
-2.5013325583
 10
37.7591001508
 20
-2.8433013072
 10
38.5417997901
 20
-3.1930812473
 10
39.3471770415
 20
-3.5498028122
 10
40.1746755084
 20
-3.9131677251
 10
41.024921568
 20
-4.283437945
 10
41.8979216157
 20
-4.6606101527
  0
LWPOLYLINE
  5
48E
100
AcDbEntity
  8
RACCORDO
100
AcDbPolyline
 62
250
  6
CONTINUOUS
 90
22
 70
0
 10
41.8979216157
 20
-4.6606101527
 10
41.9286375082
 20
-4.6752647393
 10
41.9584271721
 20
-4.6918881658
 10
41.9872915429
 20
-4.7104799467
 10
42.0152969757
 20
-4.7311184311
 10
42.0423792443
 20
-4.7537241651
 10
42.0683433306
 20
-4.7780600009
 10
42.0932673747
 20
-4.8042126059
 10
42.1170753618
 20
-4.8320942097
 10
42.1393404658
 20
-4.8612063063
 10
42.1600022402
 20
-4.8915012019
 10
42.1791224394
 20
-4.9230259115
 10
42.1964567634
 20
-4.9554243949
 10
42.2120095863
 20
-4.9886626719
 10
42.2257772242
 20
-5.0227743644
 10
42.2375026874
 20
-5.0575051481
 10
42.2472151578
 20
-5.0930845984
 10
42.2548857691
 20
-5.129282976
 10
42.2601693207
 20
-5.165157576
 10
42.2629498623
 20
-5.200394622
 10
42.2633416659
 20
-5.2353087613
 10
42.2613440262
 20
-5.26990036
  0
LWPOLYLINE
  5
48F
100
AcDbEntity
  8
RACCORDO
100
AcDbPolyline
 62
250
  6
CONTINUOUS
 90
16
 70
0
 10
32.9027152886
 20
-0.9692101401
 10
33.3087918331
 20
-1.1634135234
 10
33.7266381023
 20
-1.3617885422
 10
34.1562558384
 20
-1.5642869939
 10
34.5965889926
 20
-1.7704069319
 10
35.0486951699
 20
-1.9805588748
 10
35.5157477922
 20
-2.1960474396
 10
35.998663075
 20
-2.4172336084
 10
36.4965253961
 20
-2.6436255798
 10
37.0097610356
 20
-2.8752321113
 10
37.538625995
 20
-3.1121019964
 10
38.0828637118
 20
-3.3540744029
 10
38.6421315054
 20
-3.6008519382
 10
39.2163129765
 20
-3.8523074993
 10
39.8055182166
 20
-4.1084810609
 10
40.4097425717
 20
-4.369335725
  0
LWPOLYLINE
  5
490
100
AcDbEntity
  8
RACCORDO
100
AcDbPolyline
 62
250
  6
CONTINUOUS
 90
12
 70
0
 10
42.2613440262
 20
-5.26990036
 10
42.2392342619
 20
-5.2593248594
 10
42.218901312
 20
-5.2478644881
 10
42.2005278606
 20
-5.2356222134
 10
42.1842789863
 20
-5.2227080274
 10
42.1703006793
 20
-5.2092379597
 10
42.15871853
 20
-5.1953330345
 10
42.1496365992
 20
-5.1811181825
 10
42.1431364844
 20
-5.1667211191
 10
42.1392765862
 20
-5.1522711971
 10
42.1380915837
 20
-5.1378982438
 10
42.1384510154
 20
-5.1313230109
  0
LWPOLYLINE
  5
491
100
AcDbEntity
  8
RACCORDO
100
AcDbPolyline
 62
250
  6
CONTINUOUS
 90
28
 70
0
 10
32.9678635857
 20
-0.7773333114
 10
32.9671136992
 20
-0.7769644759
 10
32.9645852384
 20
-0.7755647386
 10
32.962159604
 20
-0.7739638992
 10
32.9598497189
 20
-0.7721551189
 10
32.9576618916
 20
-0.7701292011
 10
32.9555818048
 20
-0.7678505766
 10
32.9536268791
 20
-0.7653031381
 10
32.9518182826
 20
-0.7624776854
 10
32.9501623117
 20
-0.7593429914
 10
32.9486803348
 20
-0.7558819051
 10
32.9473962878
 20
-0.7520815097
 10
32.9463278654
 20
-0.7479139895
 10
32.9454979866
 20
-0.7433611483
 10
32.9449324515
 20
-0.7384084503
 10
32.9446578814
 20
-0.7330325369
 10
32.944698781
 20
-0.7272179467
 10
32.9450807557
 20
-0.7209471247
 10
32.9458365018
 20
-0.7141932149
 10
32.9469901535
 20
-0.7069451723
 10
32.9485708451
 20
-0.6991818623
 10
32.9506272734
 20
-0.6908596055
 10
32.9531835703
 20
-0.6819699013
 10
32.9562778261
 20
-0.6724839522
 10
32.9599923505
 20
-0.662323479
 10
32.9643713941
 20
-0.6514630732
 10
32.9694421408
 20
-0.6399600205
 10
32.9754031131
 20
-0.6277928305
  0
LWPOLYLINE
  5
492
100
AcDbEntity
  8
0
100
AcDbPolyline
 62
7
  6
CONTINUOUS
 90
18
 70
0
 10
-4.368745144
 20
19.6373321393
 10
-4.3504704409
 20
19.6275956507
 10
-4.332055764
 20
19.618454547
 10
-4.3135646506
 20
19.6099728192
 10
-4.2951018811
 20
19.6022241078
 10
-4.2766827129
 20
19.5952518858
 10
-4.2582340951
 20
19.5890841531
 10
-4.2398116607
 20
19.5837869021
 10
-4.2214748169
 20
19.5794322976
 10
-4.203160963
 20
19.5760857116
 10
-4.1848949391
 20
19.5738284327
 10
-4.1667819254
 20
19.572758953
 10
-4.14888495
 20
19.5729827015
 10
-4.1312475696
 20
19.5745931772
 10
-4.1139639798
 20
19.5776800992
 10
-4.0971650449
 20
19.5823213961
 10
-4.0809114921
 20
19.5885897334
 10
-4.0639397207
 20
19.5972408227
  0
LINE
  5
493
100
AcDbEntity
  8
0
100
AcDbLine
 62
7
  6
CONTINUOUS
 10
-10.833818071
 20
24.8035575867
 11
-10.3458563466
 21
24.5232811973
  0
LINE
  5
494
100
AcDbEntity
  8
0
100
AcDbLine
 62
7
  6
CONTINUOUS
 10
-12.2698394938
 20
25.6282098107
 11
-11.7393453481
 21
25.3235667472
  0
LINE
  5
495
100
AcDbEntity
  8
0
100
AcDbLine
 62
7
  6
CONTINUOUS
 10
-10.295315325
 20
24.5524629497
 11
-10.7832774518
 21
24.8327391068
  0
LINE
  5
496
100
AcDbEntity
  8
0
100
AcDbLine
 62
7
  6
CONTINUOUS
 10
-11.6888056953
 20
25.3527477093
 11
-12.2193005223
 21
25.6573903794
  0
LINE
  5
497
100
AcDbEntity
  8
0
100
AcDbLine
 62
7
  6
CONTINUOUS
 10
-10.1646367362
 20
24.4193676347
 11
-9.6764467797
 21
24.1388392455
  0
LINE
  5
498
100
AcDbEntity
  8
0
100
AcDbLine
 62
7
  6
CONTINUOUS
 10
-9.6259053275
 20
24.1680212465
 11
-10.1140955579
 21
24.4485494776
  0
LINE
  5
499
100
AcDbEntity
  8
0
100
AcDbLine
 62
7
  6
CONTINUOUS
 10
-11.5203708353
 20
22.017155958
 11
-11.9504354534
 21
22.2644604477
  0
LINE
  5
49A
100
AcDbEntity
  8
0
100
AcDbLine
 62
7
  6
CONTINUOUS
 10
-10.0998053218
 20
21.2002078934
 11
-10.5877711712
 21
21.4808656792
  0
LINE
  5
49B
100
AcDbEntity
  8
0
100
AcDbLine
 62
7
  6
CONTINUOUS
 10
-9.202595201
 20
23.8662348578
 11
-8.7150504617
 21
23.5857985448
  0
LINE
  5
49C
100
AcDbEntity
  8
0
100
AcDbLine
 62
7
  6
CONTINUOUS
 10
-8.6645088004
 20
23.6149806666
 11
-9.1520536098
 21
23.8954169391
  0
LINE
  5
49D
100
AcDbEntity
  8
0
100
AcDbLine
 62
7
  6
CONTINUOUS
 10
-9.3704157123
 20
20.7805508812
 11
-9.8371415871
 21
21.0491065344
  0
LINE
  5
49E
100
AcDbEntity
  8
0
100
AcDbLine
 62
7
  6
CONTINUOUS
 10
-8.6245838938
 20
20.3511739921
 11
-8.6929771557
 21
20.3905615982
  0
LINE
  5
49F
100
AcDbEntity
  8
0
100
AcDbLine
 62
7
  6
CONTINUOUS
 10
-7.4691684127
 20
19.683870499
 11
-7.9450349731
 21
19.9592913378
  0
LINE
  5
4A0
100
AcDbEntity
  8
0
100
AcDbLine
 62
7
  6
CONTINUOUS
 10
-7.7448221408
 20
23.0271286765
 11
-7.2633580684
 21
22.7486768386
  0
LINE
  5
4A1
100
AcDbEntity
  8
0
100
AcDbLine
 62
7
  6
CONTINUOUS
 10
-7.2128164748
 20
22.7778589214
 11
-7.6942806688
 21
23.056310689
  0
LINE
  5
4A2
100
AcDbEntity
  8
0
100
AcDbLine
 62
7
  6
CONTINUOUS
 10
-6.911776473
 20
19.3610874789
 11
-7.3927965384
 21
19.6396544178
  0
LINE
  5
4A3
100
AcDbEntity
  8
0
100
AcDbLine
 62
7
  6
CONTINUOUS
 10
-3.6386769232
 20
17.4639031836
 11
-4.1062210001
 21
17.7349160207
  0
LINE
  5
4A4
100
AcDbEntity
  8
0
100
AcDbLine
 62
7
  6
CONTINUOUS
 10
-5.4773172753
 20
18.5297953547
 11
-5.9896138426
 21
18.8267519394
  0
LINE
  5
4A5
100
AcDbEntity
  8
0
100
AcDbLine
 62
7
  6
CONTINUOUS
 10
-6.040232124
 20
19.481041218
 11
-6.7022268147
 21
19.8647140541
  0
LINE
  5
4A6
100
AcDbEntity
  8
0
100
AcDbLine
 62
7
  6
CONTINUOUS
 10
-6.5413268645
 20
20.258739201
 11
-6.0759499903
 21
19.9889808628
  0
LINE
  5
4A7
100
AcDbEntity
  8
0
100
AcDbLine
 62
7
  6
CONTINUOUS
 10
-6.0794918768
 20
20.0491738159
 11
-6.4910822992
 21
20.2877497833
  0
LINE
  5
4A8
100
AcDbEntity
  8
0
100
AcDbLine
 62
7
  6
CONTINUOUS
 10
-4.85051567
 20
18.1664132
 11
-5.3345912257
 21
18.4470547355
  0
LINE
  5
4A9
100
AcDbEntity
  8
0
100
AcDbLine
 62
7
  6
CONTINUOUS
 10
-6.2385754997
 20
22.155014309
 11
-5.7684439041
 21
21.8824046591
  0
LINE
  5
4AA
100
AcDbEntity
  8
0
100
AcDbLine
 62
7
  6
CONTINUOUS
 10
-5.7179024497
 20
21.9115866615
 11
-6.1880338915
 21
22.1841964002
  0
LINE
  5
4AB
100
AcDbEntity
  8
0
100
AcDbLine
 62
7
  6
CONTINUOUS
 10
-4.4384553076
 20
19.1570779602
 11
-4.6989576292
 21
19.3082145754
  0
LINE
  5
4AC
100
AcDbEntity
  8
0
100
AcDbLine
 62
7
  6
CONTINUOUS
 10
-4.6463742207
 20
19.7984406901
 11
-4.368745144
 21
19.6373321393
  0
LINE
  5
4AD
100
AcDbEntity
  8
0
100
AcDbLine
 62
7
  6
CONTINUOUS
 10
-4.3184177283
 20
19.6663905584
 11
-4.5960461663
 21
19.8274994779
  0
LWPOLYLINE
  5
4AE
100
AcDbEntity
  8
RACCORDO
100
AcDbPolyline
 62
7
  6
CONTINUOUS
 90
12
 70
0
 10
-47.260913262
 20
45.5464010157
 10
-47.238393636
 20
45.5320592921
 10
-47.2170651172
 20
45.5208345054
 10
-47.1952068032
 20
45.5115216408
 10
-47.1730473812
 20
45.504202738
 10
-47.1507560484
 20
45.4988920118
 10
-47.1280406323
 20
45.4955303127
 10
-47.1051286998
 20
45.4942042608
 10
-47.0822526777
 20
45.4949554559
 10
-47.0591826375
 20
45.4978648659
 10
-47.0360669732
 20
45.5030519988
 10
-47.0153402856
 20
45.5097733745
  0
LWPOLYLINE
  5
4AF
100
AcDbEntity
  8
0
100
AcDbPolyline
 62
7
  6
CONTINUOUS
 90
10
 70
0
 10
-4.140991493
 20
20.4050876251
 10
-4.1806534017
 20
20.433706606
 10
-4.2211724504
 20
20.4609887148
 10
-4.2624899627
 20
20.4868526324
 10
-4.3045216073
 20
20.5112060351
 10
-4.3472226631
 20
20.5339720058
 10
-4.3905876334
 20
20.5550816102
 10
-4.4345634269
 20
20.5744448829
 10
-4.4790958505
 20
20.5921384584
 10
-4.5242219419
 20
20.6085330402
  0
LWPOLYLINE
  5
4B0
100
AcDbEntity
  8
RACCORDO
100
AcDbPolyline
 62
250
  6
CONTINUOUS
 90
3
 70
0
 10
-38.2354270788
 20
54.9500164898
 10
-38.2218092019
 20
54.9369190948
 10
-38.2092058811
 20
54.9282950644
  0
LWPOLYLINE
  5
4B1
100
AcDbEntity
  8
RACCORDO
100
AcDbPolyline
 62
250
  6
CONTINUOUS
 90
7
 70
0
 10
5.1121041032
 20
29.9216952575
 10
5.1134244889
 20
29.9188479014
 10
5.1143603582
 20
29.9166489024
 10
5.1148946114
 20
29.9150848612
 10
5.1149368395
 20
29.9141870071
 10
5.1145443078
 20
29.9138943572
 10
5.1138702284
 20
29.9140938789
  0
LWPOLYLINE
  5
4B2
100
AcDbEntity
  8
RACCORDO
100
AcDbPolyline
 62
250
  6
CONTINUOUS
 90
5
 70
0
 10
6.239144091
 20
29.2643748531
 10
6.3095649589
 20
29.1103929775
 10
6.3769376784
 20
28.9401741659
 10
6.4368937773
 20
28.763270495
 10
6.4570438639
 20
28.6928354958
  0
LWPOLYLINE
  5
4B3
100
AcDbEntity
  8
RACCORDO
100
AcDbPolyline
 62
250
  6
CONTINUOUS
 90
6
 70
0
 10
5.536038845
 20
29.2246122508
 10
5.4848203179
 20
29.3461012851
 10
5.4113819629
 20
29.497092175
 10
5.3314939439
 20
29.6403334827
 10
5.2450331728
 20
29.77603497
 10
5.1520088298
 20
29.9040673924
  0
LINE
  5
4B4
100
AcDbEntity
  8
RACCORDO
100
AcDbLine
 62
7
  6
CONTINUOUS
 10
41.963564834
 20
-62.4805602705
 11
41.9635355803
 21
-62.4804893469
  0
LINE
  5
4B5
100
AcDbEntity
  8
RACCORDO
100
AcDbLine
 62
7
  6
CONTINUOUS
 10
24.676070107
 20
-42.3291354074
 11
24.6760668717
 21
-42.3290739991
  0
LINE
  5
4B6
100
AcDbEntity
  8
RACCORDO
100
AcDbLine
 62
250
  6
CONTINUOUS
 10
24.7202272332
 20
-42.0472788416
 11
24.7382744132
 21
-42.4117439077
  0
LINE
  5
4B7
100
AcDbEntity
  8
RACCORDO
100
AcDbLine
 62
250
  6
CONTINUOUS
 10
24.700471107
 20
-41.5961685426
 11
24.7202272332
 21
-42.0472788416
  0
LINE
  5
4B8
100
AcDbEntity
  8
RACCORDO
100
AcDbLine
 62
250
  6
CONTINUOUS
 10
24.6805173111
 20
-41.0699913122
 11
24.700471107
 21
-41.5961685426
  0
LINE
  5
4B9
100
AcDbEntity
  8
RACCORDO
100
AcDbLine
 62
250
  6
CONTINUOUS
 10
24.661368313
 20
-40.4807007889
 11
24.6805173111
 21
-41.0699913122
  0
LWPOLYLINE
  5
4BA
100
AcDbEntity
  8
RACCORDO
100
AcDbPolyline
 62
250
  6
CONTINUOUS
 90
14
 70
0
 10
22.3656618166
 20
-42.8074733874
 10
22.3671423413
 20
-42.8594257653
 10
22.3715777157
 20
-42.9094509169
 10
22.3789493663
 20
-42.9573393589
 10
22.389226424
 20
-43.002890556
 10
22.402365853
 20
-43.0459137599
 10
22.4183126312
 20
-43.0862288084
 10
22.4369999805
 20
-43.1236668801
 10
22.4583496467
 20
-43.158071201
 10
22.4822722269
 20
-43.189297701
 10
22.5086675438
 20
-43.2172156173
 10
22.5374250656
 20
-43.2417080422
 10
22.5684243685
 20
-43.2626724122
 10
22.5727444377
 20
-43.2652102486
  0
LWPOLYLINE
  5
4BB
100
AcDbEntity
  8
RACCORDO
100
AcDbPolyline
 62
250
  6
CONTINUOUS
 90
30
 70
0
 10
24.7382744132
 20
-42.4117439077
 10
24.7408040818
 20
-42.5008509747
 10
24.7397094274
 20
-42.5863714576
 10
24.7349842163
 20
-42.6683104313
 10
24.7265890692
 20
-42.7465074002
 10
24.7145516108
 20
-42.8211324292
 10
24.6989682703
 20
-42.8926846785
 10
24.6798041003
 20
-42.9615223094
 10
24.6570888379
 20
-43.0272914021
 10
24.6310156167
 20
-43.0894232567
 10
24.6015568677
 20
-43.1478447379
 10
24.5687311281
 20
-43.2026363338
 10
24.5327971258
 20
-43.2534626827
 10
24.4937605699
 20
-43.3002800583
 10
24.4516056629
 20
-43.3431403997
 10
24.4065566779
 20
-43.3818536297
 10
24.3586161979
 20
-43.4164205766
 10
24.3077719681
 20
-43.4468482859
 10
24.2542245922
 20
-43.4729571563
 10
24.1978107845
 20
-43.4947522581
 10
24.1386852496
 20
-43.5122355069
 10
24.0775233884
 20
-43.5252243513
 10
24.0146318875
 20
-43.5336863138
 10
23.9496940448
 20
-43.5376620255
 10
23.8824494994
 20
-43.5370791506
 10
23.8128621704
 20
-43.5320596097
 10
23.7409631535
 20
-43.5224855407
 10
23.666593845
 20
-43.5079241256
 10
23.5894055545
 20
-43.4882818655
 10
23.5462755792
 20
-43.4749477628
  0
LWPOLYLINE
  5
4BC
100
AcDbEntity
  8
RACCORDO
100
AcDbPolyline
 62
250
  6
CONTINUOUS
 90
25
 70
0
 10
23.0142928023
 20
-6.5083421909
 10
23.0128876622
 20
-6.4584229146
 10
23.008758736
 20
-6.4074828263
 10
23.0019060238
 20
-6.3555219261
 10
22.9922755304
 20
-6.3022820107
 10
22.9799212509
 20
-6.2480212833
 10
22.9650051706
 20
-6.1935143539
 10
22.9474969002
 20
-6.1387893991
 10
22.927426829
 20
-6.0838182422
 10
22.9050481096
 20
-6.0292909631
 10
22.8803296875
 20
-5.9752080046
 10
22.8533026173
 20
-5.9215689239
 10
22.8243132154
 20
-5.869062473
 10
22.7933357231
 20
-5.8177033216
 10
22.7603958991
 20
-5.7674768001
 10
22.7259173361
 20
-5.7190276517
 10
22.6898843674
 20
-5.672382853
 10
22.6523126597
 20
-5.6275154274
 10
22.6136728063
 20
-5.5849891886
 10
22.5739247085
 20
-5.5448159239
 10
22.533108465
 20
-5.506983846
 10
22.4918149651
 20
-5.4720214064
 10
22.450241172
 20
-5.4401047558
 10
22.4081901225
 20
-5.4110577435
 10
22.3656618166
 20
-5.3848803696
  0
LINE
  5
4BD
100
AcDbEntity
  8
RACCORDO
100
AcDbLine
 62
250
  6
CONTINUOUS
 10
24.637946812
 20
-39.6281291468
 11
24.661368313
 21
-40.4807007889
  0
LWPOLYLINE
  5
4BE
100
AcDbEntity
  8
RACCORDO
100
AcDbPolyline
 62
250
  6
CONTINUOUS
 90
28
 70
0
 10
24.4160579539
 20
-6.5154053829
 10
24.4137644431
 20
-6.4230672632
 10
24.4068916706
 20
-6.3283930943
 10
24.3954628915
 20
-6.2317032233
 10
24.3795167765
 20
-6.133324818
 10
24.3591072819
 20
-6.0335907595
 10
24.3343034665
 20
-5.9328385161
 10
24.3051892573
 20
-5.8314089993
 10
24.2718631678
 20
-5.7296454165
 10
24.2344379652
 20
-5.6278921109
 10
24.1930402869
 20
-5.5264933878
 10
24.1478102086
 20
-5.425792344
 10
24.0989007716
 20
-5.3261297134
 10
24.0464774677
 20
-5.2278427194
 10
23.9907176823
 20
-5.131263938
 10
23.9318100917
 20
-5.0367201661
 10
23.8699540231
 20
-4.9445313132
 10
23.805358776
 20
-4.8550093134
 10
23.7382429165
 20
-4.7684570757
 10
23.6688335402
 20
-4.6851674624
 10
23.597365509
 20
-4.6054223032
 10
23.5240806523
 20
-4.5294914352
 10
23.4492269443
 20
-4.4576317852
 10
23.3730576651
 20
-4.3900865022
 10
23.2958305488
 20
-4.3270841385
 10
23.217806908
 20
-4.2688378738
 10
23.1392507496
 20
-4.2155447942
 10
23.0604278829
 20
-4.167385226
  0
LINE
  5
4BF
100
AcDbEntity
  8
RACCORDO
100
AcDbLine
 62
250
  6
CONTINUOUS
 10
24.5986577186
 20
-37.9125862715
 11
24.637946812
 21
-39.6281291468
  0
LWPOLYLINE
  5
4C0
100
AcDbEntity
  8
RACCORDO
100
AcDbPolyline
 62
7
  6
CONTINUOUS
 90
14
 70
0
 10
24.6769309786
 20
-42.3474011721
 10
24.678575823
 20
-42.4266045468
 10
24.6766633036
 20
-42.5041567575
 10
24.6710722245
 20
-42.5797072968
 10
24.6617074722
 20
-42.6528014125
 10
24.648543621
 20
-42.7228823161
 10
24.6315745137
 20
-42.7895602811
 10
24.6108162017
 20
-42.8525063881
 10
24.5863747196
 20
-42.9112603508
 10
24.5583943896
 20
-42.9654475966
 10
24.5269510294
 20
-43.0149565439
 10
24.4920308003
 20
-43.0597666577
 10
24.4536257652
 20
-43.0998053505
 10
24.4117695755
 20
-43.1349557071
  0
LINE
  5
4C1
100
AcDbEntity
  8
RACCORDO
100
AcDbLine
 62
250
  6
CONTINUOUS
 10
24.5641946784
 20
-36.082426653
 11
24.5986577186
 21
-37.9125862715
  0
LINE
  5
4C2
100
AcDbEntity
  8
RACCORDO
100
AcDbLine
 62
250
  6
CONTINUOUS
 10
24.5338726083
 20
-34.138598192
 11
24.5641946784
 21
-36.082426653
  0
LWPOLYLINE
  5
4C3
100
AcDbEntity
  8
RACCORDO
100
AcDbPolyline
 62
250
  6
CONTINUOUS
 90
9
 70
0
 10
23.0060781454
 20
-3.8697430064
 10
23.006317335
 20
-3.8869532268
 10
23.0081264568
 20
-3.9031009956
 10
23.0114850548
 20
-3.9180038588
 10
23.016355164
 20
-3.93149343
 10
23.0226817421
 20
-3.9434172988
 10
23.0303932933
 20
-3.9536407503
 10
23.039402671
 20
-3.9620482782
 10
23.0474835692
 20
-3.9674061609
  0
LINE
  5
4C4
100
AcDbEntity
  8
RACCORDO
100
AcDbLine
 62
250
  6
CONTINUOUS
 10
24.5090723681
 20
-32.2102624247
 11
24.5338726083
 21
-34.138598192
  0
LINE
  5
4C5
100
AcDbEntity
  8
RACCORDO
100
AcDbLine
 62
250
  6
CONTINUOUS
 10
24.4906035997
 20
-30.4222452829
 11
24.5090723681
 21
-32.2102624247
  0
LINE
  5
4C6
100
AcDbEntity
  8
RACCORDO
100
AcDbLine
 62
250
  6
CONTINUOUS
 10
24.4785276214
 20
-28.9453566675
 11
24.4906035997
 21
-30.4222452829
  0
LINE
  5
4C7
100
AcDbEntity
  8
RACCORDO
100
AcDbLine
 62
250
  6
CONTINUOUS
 10
24.4688202292
 20
-27.390070058
 11
24.4785276214
 21
-28.9453566675
  0
LINE
  5
4C8
100
AcDbEntity
  8
RACCORDO
100
AcDbLine
 62
250
  6
CONTINUOUS
 10
24.4619623511
 20
-25.7983040682
 11
24.4688202292
 21
-27.390070058
  0
LWPOLYLINE
  5
4C9
100
AcDbEntity
  8
RACCORDO
100
AcDbPolyline
 62
7
  6
CONTINUOUS
 90
13
 70
0
 10
24.3943352126
 20
-22.981481383
 10
24.3970048727
 20
-24.7610107282
 10
24.4031036134
 20
-26.5661649611
 10
24.4128550111
 20
-28.3309623725
 10
24.4262339568
 20
-30.0553931712
 10
24.4430845553
 20
-31.7395370452
 10
24.4632313207
 20
-33.3834871533
 10
24.4864685897
 20
-34.9873676072
 10
24.5127269889
 20
-36.5512109839
 10
24.5426054124
 20
-38.0746227251
 10
24.5768234913
 20
-39.557141157
 10
24.6190588697
 20
-40.9968484808
 10
24.6769309786
 20
-42.3474011721
  0
LWPOLYLINE
  5
4CA
100
AcDbEntity
  8
RACCORDO
100
AcDbPolyline
 62
250
  6
CONTINUOUS
 90
3
 70
0
 10
24.456570506
 20
-23.0650694692
 10
24.4570903154
 20
-23.625786411
 10
24.4619623511
 20
-25.7983040682
  0
LINE
  5
4CB
100
AcDbEntity
  8
RACCORDO
100
AcDbLine
 62
250
  6
CONTINUOUS
 10
23.0142928023
 20
-42.4330343698
 11
23.0142928023
 21
-6.5083421909
  0
LINE
  5
4CC
100
AcDbEntity
  8
RACCORDO
100
AcDbLine
 62
250
  6
CONTINUOUS
 10
24.4160579539
 20
-42.4400975618
 11
24.4160579539
 21
-28.7437940972
  0
LINE
  5
4CD
100
AcDbEntity
  8
RACCORDO
100
AcDbLine
 62
250
  6
CONTINUOUS
 10
24.4160579539
 20
-17.1606550449
 11
24.4160579539
 21
-6.5154053829
  0
LINE
  5
4CE
100
AcDbEntity
  8
RACCORDO
100
AcDbLine
 62
250
  6
CONTINUOUS
 10
24.4603726275
 20
-20.8415930473
 11
24.456570565
 21
-23.0650694386
  0
LINE
  5
4CF
100
AcDbEntity
  8
RACCORDO
100
AcDbLine
 62
250
  6
CONTINUOUS
 10
24.4681369469
 20
-18.8583001135
 11
24.4603726275
 21
-20.8415930473
  0
LINE
  5
4D0
100
AcDbEntity
  8
RACCORDO
100
AcDbLine
 62
250
  6
CONTINUOUS
 10
24.4773935694
 20
-17.3192006878
 11
24.4681369469
 21
-18.8583001135
  0
LINE
  5
4D1
100
AcDbEntity
  8
RACCORDO
100
AcDbLine
 62
250
  6
CONTINUOUS
 10
24.4905460805
 20
-15.6748838768
 11
24.4773935694
 21
-17.3192006878
  0
LINE
  5
4D2
100
AcDbEntity
  8
RACCORDO
100
AcDbLine
 62
250
  6
CONTINUOUS
 10
24.5064673851
 20
-14.0918868676
 11
24.4905460805
 21
-15.6748838768
  0
LINE
  5
4D3
100
AcDbEntity
  8
RACCORDO
100
AcDbLine
 62
250
  6
CONTINUOUS
 10
24.5344903684
 20
-11.8581088199
 11
24.5064673851
 21
-14.0918868676
  0
LINE
  5
4D4
100
AcDbEntity
  8
RACCORDO
100
AcDbLine
 62
250
  6
CONTINUOUS
 10
24.5680350542
 20
-9.6927229601
 11
24.5344903684
 21
-11.8581088199
  0
LINE
  5
4D5
100
AcDbEntity
  8
RACCORDO
100
AcDbLine
 62
250
  6
CONTINUOUS
 10
24.606207477
 20
-7.6808758438
 11
24.5680350542
 21
-9.6927229601
  0
LWPOLYLINE
  5
4D6
100
AcDbEntity
  8
RACCORDO
100
AcDbPolyline
 62
7
  6
CONTINUOUS
 90
10
 70
0
 10
24.5660257703
 20
-6.6451794718
 10
24.5329423193
 20
-8.1897744057
 10
24.5027015622
 20
-9.8553297511
 10
24.4759997182
 20
-11.5755059974
 10
24.4525231076
 20
-13.3504931132
 10
24.432620642
 20
-15.1801189185
 10
24.4166429566
 20
-17.0641973084
 10
24.4048871074
 20
-19.0025519073
 10
24.3975127716
 20
-20.9950475166
 10
24.3943351348
 20
-22.9813910255
  0
LINE
  5
4D7
100
AcDbEntity
  8
RACCORDO
100
AcDbLine
 62
250
  6
CONTINUOUS
 10
24.6273650602
 20
-6.7285848325
 11
24.606207477
 21
-7.6808758438
  0
LWPOLYLINE
  5
4D8
100
AcDbEntity
  8
RACCORDO
100
AcDbPolyline
 62
250
  6
CONTINUOUS
 90
25
 70
0
 10
22.3656618166
 20
-5.3848803696
 10
22.3671423413
 20
-5.3312183189
 10
22.3715777157
 20
-5.2760713082
 10
22.3789493663
 20
-5.2196702688
 10
22.389226424
 20
-5.1622513831
 10
22.402365853
 20
-5.104055096
 10
22.4183126312
 20
-5.0453251077
 10
22.4369999805
 20
-4.9863073534
 10
22.4583496467
 20
-4.9272489731
 10
22.4822722269
 20
-4.8683972773
 10
22.5086675438
 20
-4.8099987106
 10
22.5374250656
 20
-4.7522978203
 10
22.5684243685
 20
-4.6955362323
 10
22.6015356413
 20
-4.6399516388
 10
22.6366202286
 20
-4.5857768034
 10
22.6735312118
 20
-4.5332385863
 10
22.7121140239
 20
-4.4825569943
 10
22.7522070974
 20
-4.4339442594
 10
22.7936425401
 20
-4.38760395
 10
22.836246839
 20
-4.343730119
 10
22.879841586
 20
-4.3025064903
 10
22.9242442257
 20
-4.2641056904
 10
22.9692688196
 20
-4.2286885246
 10
23.0147268247
 20
-4.1964033044
 10
23.0604278829
 20
-4.167385226
  0
LINE
  5
4D9
100
AcDbEntity
  8
RACCORDO
100
AcDbLine
 62
250
  6
CONTINUOUS
 10
46.2953043493
 20
2.61782409
 11
56.6326792088
 21
8.5864749854
  0
LWPOLYLINE
  5
4DA
100
AcDbEntity
  8
RACCORDO
100
AcDbPolyline
 62
250
  6
CONTINUOUS
 90
19
 70
0
 10
50.4951186265
 20
-4.7538801817
 10
50.4660023185
 20
-4.7661598991
 10
50.4349333423
 20
-4.7770899338
 10
50.4021023478
 20
-4.7866032148
 10
50.3677107974
 20
-4.7946413653
 10
50.3319697299
 20
-4.80115506
 10
50.2950984652
 20
-4.8061043285
 10
50.2573232584
 20
-4.8094588
 10
50.2188759115
 20
-4.8111978902
 10
50.1799923515
 20
-4.8113109272
 10
50.1409111817
 20
-4.8097972172
 10
50.1018722182
 20
-4.8066660488
 10
50.0631150184
 20
-4.8019366358
 10
50.0248774105
 20
-4.7956379995
 10
49.9873940341
 20
-4.7878087904
 10
49.9508949012
 20
-4.7784970514
 10
49.9156039836
 20
-4.7677599227
 10
49.8817378393
 20
-4.755663291
 10
49.849504283
 20
-4.7422813855
  0
LWPOLYLINE
  5
4DB
100
AcDbEntity
  8
0
100
AcDbPolyline
 62
7
  6
CONTINUOUS
 90
12
 70
0
 10
-4.0976205354
 20
19.6020709988
 10
-4.1171961951
 20
19.60189056
 10
-4.1369669343
 20
19.6031201154
 10
-4.156876262
 20
19.605752339
 10
-4.1769814317
 20
19.609794161
 10
-4.1971524779
 20
19.6149431219
 10
-4.2173792566
 20
19.6211756412
 10
-4.2376722953
 20
19.6285151003
 10
-4.2579325063
 20
19.6367295497
 10
-4.2781269038
 20
19.6457416504
 10
-4.2982886296
 20
19.6556286604
 10
-4.3184177268
 20
19.6663905575
  0
LINE
  5
4DC
100
AcDbEntity
  8
RACCORDO
100
AcDbLine
 62
250
  6
CONTINUOUS
 10
44.1448284756
 20
2.9727510874
 11
45.9831474828
 21
2.0641243015
  0
LINE
  5
4DD
100
AcDbEntity
  8
RACCORDO
100
AcDbLine
 62
250
  6
CONTINUOUS
 10
42.3929850033
 20
3.8424656651
 11
44.1448284756
 21
2.9727510874
  0
LINE
  5
4DE
100
AcDbEntity
  8
RACCORDO
100
AcDbLine
 62
250
  6
CONTINUOUS
 10
40.7304652604
 20
4.6717135161
 11
42.3929850033
 21
3.8424656651
  0
LWPOLYLINE
  5
4DF
100
AcDbEntity
  8
RACCORDO
100
AcDbPolyline
 62
250
  6
CONTINUOUS
 90
11
 70
0
 10
38.0218445158
 20
6.6953904525
 10
38.7371869058
 20
6.3378511954
 10
39.4797699152
 20
5.9678807386
 10
40.2488345485
 20
5.5858496994
 10
41.042607209
 20
5.1927795412
 10
41.861432261
 20
4.7885202304
 10
42.7049653402
 20
4.3732218005
 10
43.5703997576
 20
3.9483558152
 10
44.45679995
 20
3.5144127956
 10
45.3651014806
 20
3.0709022205
 10
46.2953043493
 20
2.61782409
  0
LINE
  5
4E0
100
AcDbEntity
  8
RACCORDO
100
AcDbLine
 62
250
  6
CONTINUOUS
 10
39.1676188872
 20
5.4550164561
 11
40.7304652604
 21
4.6717135161
  0
LINE
  5
4E1
100
AcDbEntity
  8
RACCORDO
100
AcDbLine
 62
250
  6
CONTINUOUS
 10
37.7099164734
 20
6.1892991182
 11
39.1676188872
 21
5.4550164561
  0
LINE
  5
4E2
100
AcDbEntity
  8
RACCORDO
100
AcDbLine
 62
250
  6
CONTINUOUS
 10
36.3582260368
 20
6.8738362706
 11
37.7099164734
 21
6.1892991182
  0
LWPOLYLINE
  5
4E3
100
AcDbEntity
  8
RACCORDO
100
AcDbPolyline
 62
250
  6
CONTINUOUS
 90
5
 70
0
 10
34.8368196367
 20
8.3031722698
 10
35.421935263
 20
8.0055442434
 10
36.0330291234
 20
7.6959460226
 10
36.6701012178
 20
7.3743776074
 10
38.0218445158
 20
6.6953904525
  0
LWPOLYLINE
  5
4E4
100
AcDbEntity
  8
RACCORDO
100
AcDbPolyline
 62
250
  6
CONTINUOUS
 90
3
 70
0
 10
34.5225691468
 20
7.810402405
 10
35.1088555851
 20
7.5103371586
 10
36.3582260368
 20
6.8738362706
  0
LWPOLYLINE
  5
4E5
100
AcDbEntity
  8
RACCORDO
100
AcDbPolyline
 62
250
  6
CONTINUOUS
 90
40
 70
0
 10
46.2953043493
 20
2.61782409
 10
46.4840642286
 20
2.5194345961
 10
46.6684729129
 20
2.4141417684
 10
46.8482635584
 20
2.3025335898
 10
47.0221032876
 20
2.1858801752
 10
47.1908887353
 20
2.0641228128
 10
47.3576833743
 20
1.9354784891
 10
47.5233013201
 20
1.7993114379
 10
47.6864415088
 20
1.6565797984
 10
47.8469418538
 20
1.5075519077
 10
48.0045767708
 20
1.3524500022
 10
48.1591104182
 20
1.1915099894
 10
48.3103705103
 20
1.0250365297
 10
48.4581298221
 20
0.8532962265
 10
48.6021762971
 20
0.6765340631
 10
48.742366358
 20
0.4950342727
 10
48.8784582012
 20
0.3091275362
 10
49.0102806439
 20
0.1190356989
 10
49.1377918405
 20
-0.0751219979
 10
49.260727202
 20
-0.2729448159
 10
49.3789484283
 20
-0.4742610082
 10
49.4925653466
 20
-0.6793164008
 10
49.6013285206
 20
-0.8877489654
 10
49.7050374312
 20
-1.0993419954
 10
49.803791968
 20
-1.3145848092
 10
49.8973753716
 20
-1.5332714687
 10
49.9854488142
 20
-1.7549890661
 10
50.0678403766
 20
-1.9799163799
 10
50.1443272129
 20
-2.207937712
 10
50.2144983625
 20
-2.4384444169
 10
50.2778850766
 20
-2.6708504212
 10
50.3342343317
 20
-2.9048762545
 10
50.383226288
 20
-3.139957179
 10
50.4243781137
 20
-3.3750654319
 10
50.4574818495
 20
-3.6097985843
 10
50.4823396106
 20
-3.8436571642
 10
50.4986303801
 20
-4.0754935665
 10
50.5062182041
 20
-4.3046481842
 10
50.5050713002
 20
-4.5309202551
 10
50.4951186265
 20
-4.7538801817
  0
LWPOLYLINE
  5
4E6
100
AcDbEntity
  8
RACCORDO
100
AcDbPolyline
 62
250
  6
CONTINUOUS
 90
40
 70
0
 10
45.9831474828
 20
2.0641243015
 10
46.1578905596
 20
1.9726691328
 10
46.3280521986
 20
1.8758280006
 10
46.4936702843
 20
1.7736205659
 10
46.654015528
 20
1.6663916273
 10
46.8098898924
 20
1.553834102
 10
46.9636295303
 20
1.4349905509
 10
47.1162652217
 20
1.309355519
 10
47.2668426018
 20
1.1774741185
 10
47.4147193905
 20
1.0399643905
 10
47.559920269
 20
0.8968126634
 10
47.7024863958
 20
0.7480667776
 10
47.8417919247
 20
0.5944327442
 10
47.9778392508
 20
0.4359128406
 10
48.1106778394
 20
0.2725317035
 10
48.2397423074
 20
0.1050236188
 10
48.3650068393
 20
-0.0665636103
 10
48.4865331256
 20
-0.2422591689
 10
48.6038769896
 20
-0.4214494699
 10
48.7170028638
 20
-0.6040234209
 10
48.8259678481
 20
-0.7900809396
 10
48.9304593938
 20
-0.979328781
 10
49.0305047541
 20
-1.1716996849
 10
49.1260892995
 20
-1.3672543601
 10
49.2168327612
 20
-1.5658940556
 10
49.302840418
 20
-1.7677385006
 10
49.3840108248
 20
-1.9726659765
 10
49.4596462439
 20
-2.1802193915
 10
49.5298232281
 20
-2.3906759331
 10
49.594454067
 20
-2.6037642043
 10
49.652579849
 20
-2.8182119076
 10
49.7041379034
 20
-3.0341987692
 10
49.749153578
 20
-3.2515644323
 10
49.7867789919
 20
-3.4685373711
 10
49.816859726
 20
-3.6851823088
 10
49.8394849661
 20
-3.9014683764
 10
49.854152078
 20
-4.1154911221
 10
49.8606614638
 20
-4.3266323634
 10
49.8591262222
 20
-4.5355551735
 10
49.849504283
 20
-4.7422813855
  0
LWPOLYLINE
  5
4E7
100
AcDbEntity
  8
RACCORDO
100
AcDbPolyline
 62
250
  6
CONTINUOUS
 90
8
 70
0
 10
30.1555952552
 20
10.7249650192
 10
30.6471262738
 20
10.4658263788
 10
31.1551520552
 20
10.199269811
 10
31.6812033808
 20
9.9245084212
 10
32.2324198893
 20
9.6379973419
 10
32.8111814605
 20
9.3385549506
 10
33.4151082147
 20
9.0273628699
 10
34.0442001518
 20
8.7044210997
  0
LINE
  5
4E8
100
AcDbEntity
  8
RACCORDO
100
AcDbLine
 62
250
  6
CONTINUOUS
 10
28.7811686815
 20
11.4568913783
 11
30.1555952552
 21
10.7249650192
  0
LWPOLYLINE
  5
4E9
100
AcDbEntity
  8
RACCORDO
100
AcDbPolyline
 62
250
  6
CONTINUOUS
 90
4
 70
0
 10
27.5418178873
 20
12.127319952
 10
27.9403030832
 20
11.9106119093
 10
28.3537530564
 20
11.6869501006
 10
28.7811686815
 20
11.4568913783
  0
LWPOLYLINE
  5
4EA
100
AcDbEntity
  8
RACCORDO
100
AcDbPolyline
 62
250
  6
CONTINUOUS
 90
14
 70
0
 10
27.2080605172
 20
11.6618127983
 10
27.6066106473
 20
11.4443233822
 10
28.0200719977
 20
11.2198849924
 10
28.4474857867
 20
10.9890750558
 10
28.8902763402
 20
10.7511916648
 10
29.3481678742
 20
10.506438725
 10
29.8215288438
 20
10.2546604244
 10
30.3127649475
 20
9.9946230709
 10
30.8203902513
 20
9.7271578101
 10
31.3459637116
 20
9.4514713928
 10
31.8964994005
 20
9.1639148311
 10
32.4743841675
 20
8.863297135
 10
33.0773629024
 20
8.5508776635
 10
33.7055189924
 20
8.2266996923
  0
LINE
  5
4EB
100
AcDbEntity
  8
RACCORDO
100
AcDbLine
 62
250
  6
CONTINUOUS
 10
26.4480571006
 20
12.0798725543
 11
27.2080605172
 21
11.6618127983
  0
LWPOLYLINE
  5
4EC
100
AcDbEntity
  8
RACCORDO
100
AcDbPolyline
 62
250
  6
CONTINUOUS
 90
3
 70
0
 10
26.4171507886
 20
12.7456474624
 10
26.7822344769
 20
12.5438395789
 10
27.5418178873
 20
12.127319952
  0
LINE
  5
4ED
100
AcDbEntity
  8
RACCORDO
100
AcDbLine
 62
250
  6
CONTINUOUS
 10
25.726571891
 20
12.4810692316
 11
26.4480571006
 21
12.0798725543
  0
LINE
  5
4EE
100
AcDbEntity
  8
RACCORDO
100
AcDbLine
 62
250
  6
CONTINUOUS
 10
25.7092669689
 20
13.1401435661
 11
26.4171507886
 21
12.7456474624
  0
LINE
  5
4EF
100
AcDbEntity
  8
RACCORDO
100
AcDbLine
 62
250
  6
CONTINUOUS
 10
25.0238367263
 20
12.8759515306
 11
25.726571891
 21
12.4810692316
  0
LINE
  5
4F0
100
AcDbEntity
  8
RACCORDO
100
AcDbLine
 62
250
  6
CONTINUOUS
 10
25.0131561338
 20
13.5319679852
 11
25.7092669689
 21
13.1401435661
  0
LINE
  5
4F1
100
AcDbEntity
  8
RACCORDO
100
AcDbLine
 62
250
  6
CONTINUOUS
 10
24.3301709056
 20
13.2692160244
 11
25.0238367263
 21
12.8759515306
  0
LINE
  5
4F2
100
AcDbEntity
  8
RACCORDO
100
AcDbLine
 62
250
  6
CONTINUOUS
 10
24.3188456728
 20
13.9259030107
 11
25.0131561338
 21
13.5319679852
  0
LINE
  5
4F3
100
AcDbEntity
  8
RACCORDO
100
AcDbLine
 62
250
  6
CONTINUOUS
 10
23.2855968307
 20
13.8662576797
 11
24.3301709056
 21
13.2692160244
  0
LINE
  5
4F4
100
AcDbEntity
  8
RACCORDO
100
AcDbLine
 62
250
  6
CONTINUOUS
 10
23.2742745939
 20
14.5232219273
 11
24.3188456728
 21
13.9259030107
  0
LINE
  5
4F5
100
AcDbEntity
  8
RACCORDO
100
AcDbLine
 62
250
  6
CONTINUOUS
 10
21.5457455336
 20
14.8683946661
 11
23.2855968307
 21
13.8662576797
  0
LINE
  5
4F6
100
AcDbEntity
  8
RACCORDO
100
AcDbLine
 62
250
  6
CONTINUOUS
 10
-14.1551226351
 20
36.1354001194
 11
-6.2804967463
 21
31.591753615
  0
LWPOLYLINE
  5
4F7
100
AcDbEntity
  8
RACCORDO
100
AcDbPolyline
 62
250
  6
CONTINUOUS
 90
3
 70
0
 10
-3.5165153253
 20
29.3397706595
 10
9.5822930558
 20
21.7767594541
 10
18.4367304882
 20
16.6649699938
  0
LINE
  5
4F8
100
AcDbEntity
  8
RACCORDO
100
AcDbLine
 62
250
  6
CONTINUOUS
 10
21.1906394399
 20
15.7241977325
 11
23.2742745939
 21
14.5232219273
  0
LINE
  5
4F9
100
AcDbEntity
  8
RACCORDO
100
AcDbLine
 62
250
  6
CONTINUOUS
 10
-29.7153255532
 20
44.4671992911
 11
-3.5165153253
 21
29.3397706595
  0
LINE
  5
4FA
100
AcDbEntity
  8
RACCORDO
100
AcDbLine
 62
250
  6
CONTINUOUS
 10
18.4367304882
 20
16.6649699938
 11
21.5457455336
 21
14.8683946661
  0
LINE
  5
4FB
100
AcDbEntity
  8
RACCORDO
100
AcDbLine
 62
250
  6
CONTINUOUS
 10
-2.6679497979
 20
29.5051570231
 11
9.9156278783
 21
22.2363742606
  0
LINE
  5
4FC
100
AcDbEntity
  8
RACCORDO
100
AcDbLine
 62
250
  6
CONTINUOUS
 10
-6.2804967463
 20
31.591753615
 11
-2.6679497979
 21
29.5051570231
  0
LWPOLYLINE
  5
4FD
100
AcDbEntity
  8
RACCORDO
100
AcDbPolyline
 62
250
  6
CONTINUOUS
 90
3
 70
0
 10
9.9156278783
 20
22.2363742606
 10
12.5454792312
 20
20.7168394548
 10
19.8088155061
 20
16.5227991604
  0
LINE
  5
4FE
100
AcDbEntity
  8
RACCORDO
100
AcDbLine
 62
250
  6
CONTINUOUS
 10
19.8088155061
 20
16.5227991604
 11
21.1906394399
 21
15.7241977325
  0
LINE
  5
4FF
100
AcDbEntity
  8
RACCORDO
100
AcDbLine
 62
250
  6
CONTINUOUS
 10
-34.9867742546
 20
47.5109157942
 11
-29.7153255532
 21
44.4671992911
  0
LINE
  5
500
100
AcDbEntity
  8
RACCORDO
100
AcDbLine
 62
250
  6
CONTINUOUS
 10
-34.6709375051
 20
47.9801198147
 11
-14.1551226351
 21
36.1354001194
  0
LINE
  5
501
100
AcDbEntity
  8
RACCORDO
100
AcDbLine
 62
250
  6
CONTINUOUS
 10
-35.9745539322
 20
48.0855410933
 11
-34.9867742546
 21
47.5109157942
  0
LINE
  5
502
100
AcDbEntity
  8
RACCORDO
100
AcDbLine
 62
250
  6
CONTINUOUS
 10
-35.6578171943
 20
48.5553909749
 11
-34.6709375051
 21
47.9801198147
  0
LINE
  5
503
100
AcDbEntity
  8
RACCORDO
100
AcDbLine
 62
250
  6
CONTINUOUS
 10
-36.6325181687
 20
48.4708283458
 11
-35.9745539322
 21
48.0855410933
  0
LINE
  5
504
100
AcDbEntity
  8
RACCORDO
100
AcDbLine
 62
250
  6
CONTINUOUS
 10
-36.3148462811
 20
48.941150675
 11
-35.6578171943
 21
48.5553909749
  0
LINE
  5
505
100
AcDbEntity
  8
RACCORDO
100
AcDbLine
 62
250
  6
CONTINUOUS
 10
-37.2889554886
 20
48.8580710353
 11
-36.6325181687
 21
48.4708283458
  0
LINE
  5
506
100
AcDbEntity
  8
RACCORDO
100
AcDbLine
 62
250
  6
CONTINUOUS
 10
-36.9699357961
 20
49.3287832533
 11
-36.3148462811
 21
48.941150675
  0
LINE
  5
507
100
AcDbEntity
  8
RACCORDO
100
AcDbLine
 62
250
  6
CONTINUOUS
 10
-37.940560953
 20
49.24598746
 11
-37.2889554886
 21
48.8580710353
  0
LINE
  5
508
100
AcDbEntity
  8
RACCORDO
100
AcDbLine
 62
250
  6
CONTINUOUS
 10
-37.6199321429
 20
49.7169911649
 11
-36.9699357961
 21
49.3287832533
  0
LINE
  5
509
100
AcDbEntity
  8
RACCORDO
100
AcDbLine
 62
250
  6
CONTINUOUS
 10
-38.5864707624
 20
49.63440051
 11
-37.940560953
 21
49.24598746
  0
LINE
  5
50A
100
AcDbEntity
  8
RACCORDO
100
AcDbLine
 62
250
  6
CONTINUOUS
 10
-38.2642205539
 20
50.1055984579
 11
-37.6199321429
 21
49.7169911649
  0
LINE
  5
50B
100
AcDbEntity
  8
RACCORDO
100
AcDbLine
 62
250
  6
CONTINUOUS
 10
-39.2258718047
 20
50.0226737706
 11
-38.5864707624
 21
49.63440051
  0
LINE
  5
50C
100
AcDbEntity
  8
RACCORDO
100
AcDbLine
 62
250
  6
CONTINUOUS
 10
-38.9021609118
 20
50.4942007738
 11
-38.2642205539
 21
50.1055984579
  0
LINE
  5
50D
100
AcDbEntity
  8
RACCORDO
100
AcDbLine
 62
250
  6
CONTINUOUS
 10
-39.8680815113
 20
50.4162168234
 11
-39.2258718047
 21
50.0226737706
  0
LINE
  5
50E
100
AcDbEntity
  8
RACCORDO
100
AcDbLine
 62
250
  6
CONTINUOUS
 10
-39.5432220303
 20
50.8882929812
 11
-38.9021609118
 21
50.4942007738
  0
LINE
  5
50F
100
AcDbEntity
  8
RACCORDO
100
AcDbLine
 62
250
  6
CONTINUOUS
 10
-40.5197768121
 20
50.8190323409
 11
-39.8680815113
 21
50.4162168234
  0
LINE
  5
510
100
AcDbEntity
  8
RACCORDO
100
AcDbLine
 62
250
  6
CONTINUOUS
 10
-40.194082725
 20
51.2919324499
 11
-39.5432220303
 21
50.8882929812
  0
LINE
  5
511
100
AcDbEntity
  8
RACCORDO
100
AcDbLine
 62
250
  6
CONTINUOUS
 10
-41.1940224937
 20
51.239224211
 11
-40.5197768121
 21
50.8190323409
  0
LINE
  5
512
100
AcDbEntity
  8
RACCORDO
100
AcDbLine
 62
250
  6
CONTINUOUS
 10
-40.8678110275
 20
51.7132351712
 11
-40.194082725
 21
51.2919324499
  0
LINE
  5
513
100
AcDbEntity
  8
RACCORDO
100
AcDbLine
 62
250
  6
CONTINUOUS
 10
-41.8988337202
 20
51.6819395548
 11
-41.1940224937
 21
51.239224211
  0
LINE
  5
514
100
AcDbEntity
  8
RACCORDO
100
AcDbLine
 62
250
  6
CONTINUOUS
 10
-41.5722474976
 20
52.1573633702
 11
-40.8678110275
 21
51.7132351712
  0
LINE
  5
515
100
AcDbEntity
  8
RACCORDO
100
AcDbLine
 62
250
  6
CONTINUOUS
 10
-42.6379097805
 20
52.1496699004
 11
-41.8988337202
 21
51.6819395548
  0
LINE
  5
516
100
AcDbEntity
  8
RACCORDO
100
AcDbLine
 62
250
  6
CONTINUOUS
 10
-42.3111148015
 20
52.6267948246
 11
-41.5722474976
 21
52.1573633702
  0
LINE
  5
517
100
AcDbEntity
  8
RACCORDO
100
AcDbLine
 62
250
  6
CONTINUOUS
 10
-43.4142579432
 20
52.6444561545
 11
-42.6379097805
 21
52.1496699004
  0
LINE
  5
518
100
AcDbEntity
  8
RACCORDO
100
AcDbLine
 62
250
  6
CONTINUOUS
 10
-43.0873506131
 20
53.123617531
 11
-42.3111148015
 21
52.6267948246
  0
LINE
  5
519
100
AcDbEntity
  8
RACCORDO
100
AcDbLine
 62
250
  6
CONTINUOUS
 10
-44.228761446
 20
53.1669287555
 11
-43.4142579432
 21
52.6444561545
  0
LINE
  5
51A
100
AcDbEntity
  8
RACCORDO
100
AcDbLine
 62
250
  6
CONTINUOUS
 10
-43.9017231868
 20
53.6485395563
 11
-43.0873506131
 21
53.123617531
  0
LINE
  5
51B
100
AcDbEntity
  8
RACCORDO
100
AcDbLine
 62
250
  6
CONTINUOUS
 10
-45.0816563468
 20
53.7174216136
 11
-44.228761446
 21
53.1669287555
  0
LINE
  5
51C
100
AcDbEntity
  8
RACCORDO
100
AcDbLine
 62
250
  6
CONTINUOUS
 10
-44.7545945837
 20
54.2018575991
 11
-43.9017231868
 21
53.6485395563
  0
LINE
  5
51D
100
AcDbEntity
  8
RACCORDO
100
AcDbLine
 62
250
  6
CONTINUOUS
 10
-46.8720512122
 20
54.8868500253
 11
-45.8056317307
 21
54.1908982562
  0
LINE
  5
51E
100
AcDbEntity
  8
RACCORDO
100
AcDbLine
 62
250
  6
CONTINUOUS
 10
-47.9531368356
 20
55.5966844781
 11
-46.8720512122
 21
54.8868500253
  0
LINE
  5
51F
100
AcDbEntity
  8
RACCORDO
100
AcDbLine
 62
250
  6
CONTINUOUS
 10
-46.5195768513
 20
55.3616521353
 11
-45.4558682032
 21
54.6631623313
  0
LINE
  5
520
100
AcDbEntity
  8
RACCORDO
100
AcDbLine
 62
250
  6
CONTINUOUS
 10
-49.0641440936
 20
56.3301255112
 11
-47.9531368356
 21
55.5966844781
  0
LINE
  5
521
100
AcDbEntity
  8
RACCORDO
100
AcDbLine
 62
250
  6
CONTINUOUS
 10
-47.5983341286
 20
56.0749033864
 11
-46.5195768513
 21
55.3616521353
  0
LINE
  5
522
100
AcDbEntity
  8
RACCORDO
100
AcDbLine
 62
250
  6
CONTINUOUS
 10
-50.2233103741
 20
57.0990429709
 11
-49.0641440936
 21
56.3301255112
  0
LINE
  5
523
100
AcDbEntity
  8
RACCORDO
100
AcDbLine
 62
250
  6
CONTINUOUS
 10
-48.7070688986
 20
56.8125688852
 11
-47.5983341286
 21
56.0749033864
  0
LINE
  5
524
100
AcDbEntity
  8
RACCORDO
100
AcDbLine
 62
250
  6
CONTINUOUS
 10
-51.4501745953
 20
57.916586196
 11
-50.2233103741
 21
57.0990429709
  0
LINE
  5
525
100
AcDbEntity
  8
RACCORDO
100
AcDbLine
 62
250
  6
CONTINUOUS
 10
-52.7631703499
 20
58.7954872041
 11
-51.4501745953
 21
57.916586196
  0
LINE
  5
526
100
AcDbEntity
  8
RACCORDO
100
AcDbLine
 62
250
  6
CONTINUOUS
 10
-49.8639203882
 20
57.5866613626
 11
-48.7070688986
 21
56.8125688852
  0
LINE
  5
527
100
AcDbEntity
  8
RACCORDO
100
AcDbLine
 62
250
  6
CONTINUOUS
 10
-54.176992317
 20
59.746118005
 11
-52.7631703499
 21
58.7954872041
  0
LINE
  5
528
100
AcDbEntity
  8
RACCORDO
100
AcDbLine
 62
250
  6
CONTINUOUS
 10
-51.0883332139
 20
58.4104328591
 11
-49.8639203882
 21
57.5866613626
  0
LINE
  5
529
100
AcDbEntity
  8
RACCORDO
100
AcDbLine
 62
250
  6
CONTINUOUS
 10
-55.7004291457
 20
60.7749470523
 11
-54.176992317
 21
59.746118005
  0
LINE
  5
52A
100
AcDbEntity
  8
RACCORDO
100
AcDbLine
 62
250
  6
CONTINUOUS
 10
-52.39868269
 20
59.2967452046
 11
-51.0883332139
 21
58.4104328591
  0
LINE
  5
52B
100
AcDbEntity
  8
RACCORDO
100
AcDbLine
 62
250
  6
CONTINUOUS
 10
-53.8096772536
 20
60.2561126311
 11
-52.39868269
 21
59.2967452046
  0
LINE
  5
52C
100
AcDbEntity
  8
RACCORDO
100
AcDbLine
 62
250
  6
CONTINUOUS
 10
-55.3301931885
 20
61.2951127017
 11
-53.8096772536
 21
60.2561126311
  0
LINE
  5
52D
100
AcDbEntity
  8
RACCORDO
100
AcDbLine
 62
250
  6
CONTINUOUS
 10
4.9298444191
 20
30.1310585776
 11
4.9391157135
 21
30.1219560163
  0
LWPOLYLINE
  5
52E
100
AcDbEntity
  8
RACCORDO
100
AcDbPolyline
 62
250
  6
CONTINUOUS
 90
9
 70
0
 10
4.9391157135
 20
30.1219560163
 10
4.9494430803
 20
30.1116695177
 10
4.9549968129
 20
30.1060652218
 10
4.9608199322
 20
30.1001325432
 10
4.9669066242
 20
30.0938661459
 10
4.9732536801
 20
30.0872584282
 10
4.9798743299
 20
30.0802861243
 10
4.9867619897
 20
30.0729429053
 10
4.9939125689
 20
30.0652201251
  0
LWPOLYLINE
  5
52F
100
AcDbEntity
  8
RACCORDO
100
AcDbPolyline
 62
250
  6
CONTINUOUS
 90
31
 70
0
 10
5.9411660673
 20
29.44300527
 10
5.9224769761
 20
29.4620080135
 10
5.9040244867
 20
29.4803928548
 10
5.8858200999
 20
29.4981740585
 10
5.8678851775
 20
29.5153546171
 10
5.850220394
 20
29.5319594218
 10
5.8328048678
 20
29.5480340335
 10
5.8156470069
 20
29.5635914078
 10
5.7987565955
 20
29.578642269
 10
5.7821129232
 20
29.5932264152
 10
5.7657228701
 20
29.6073550544
 10
5.7495947601
 20
29.6210373092
 10
5.7337085057
 20
29.6343078283
 10
5.7180698239
 20
29.6471762583
 10
5.7026857458
 20
29.6596504317
 10
5.6875369027
 20
29.6717605982
 10
5.6726281175
 20
29.6835150415
 10
5.6579652925
 20
29.6949205311
 10
5.6435296643
 20
29.7060036585
 10
5.6293252793
 20
29.7167715807
 10
5.6153571463
 20
29.7272301304
 10
5.6016071284
 20
29.7374027738
 10
5.5880786711
 20
29.7472957022
 10
5.5747760033
 20
29.7569139605
 10
5.5616815113
 20
29.7662783727
 10
5.5487980995
 20
29.7753943591
 10
5.5361293977
 20
29.7842662514
 10
5.5236583747
 20
29.7929125145
 10
5.5113873185
 20
29.8013380459
 10
5.4993195396
 20
29.8095464559
 10
5.4757479713
 20
29.8253644216
  0
LWPOLYLINE
  5
530
100
AcDbEntity
  8
RACCORDO
100
AcDbPolyline
 62
250
  6
CONTINUOUS
 90
9
 70
0
 10
5.3023243295
 20
29.9305750275
 10
5.4073430447
 20
29.8216273005
 10
5.5067431279
 20
29.7048143098
 10
5.6003513901
 20
29.5802717133
 10
5.6880452125
 20
29.4480812361
 10
5.7696171142
 20
29.3084644777
 10
5.844805034
 20
29.1618173801
 10
5.9134749965
 20
29.0084023283
 10
5.9143333715
 20
29.0061897323
  0
LWPOLYLINE
  5
531
100
AcDbEntity
  8
RACCORDO
100
AcDbPolyline
 62
250
  6
CONTINUOUS
 90
3
 70
0
 10
5.1527023669
 20
29.8898893402
 10
5.1644942953
 20
29.8775001669
 10
5.1753305393
 20
29.864300672
  0
LINE
  5
532
100
AcDbEntity
  8
RACCORDO
100
AcDbLine
 62
250
  6
CONTINUOUS
 10
5.052629811
 20
30.0240403422
 11
4.947029437
 21
30.135718248
  0
LINE
  5
533
100
AcDbEntity
  8
RACCORDO
100
AcDbLine
 62
7
  6
CONTINUOUS
 10
4.9641624476
 20
30.1073662668
 11
4.9640503697
 21
30.1074861415
  0
LINE
  5
534
100
AcDbEntity
  8
RACCORDO
100
AcDbLine
 62
250
  6
CONTINUOUS
 10
4.9640503697
 20
30.1074861415
 11
4.9559494508
 21
30.1161872984
  0
LWPOLYLINE
  5
535
100
AcDbEntity
  8
RACCORDO
100
AcDbPolyline
 62
7
  6
CONTINUOUS
 90
3
 70
0
 10
4.9641627817
 20
30.1073659091
 10
4.984125895
 20
30.0857121472
 10
5.0829166651
 20
29.9691151808
  0
LINE
  5
536
100
AcDbEntity
  8
RACCORDO
100
AcDbLine
 62
250
  6
CONTINUOUS
 10
4.9559494508
 20
30.1161872984
 11
4.952784312
 21
30.1196236614
  0
LWPOLYLINE
  5
537
100
AcDbEntity
  8
RACCORDO
100
AcDbPolyline
 62
250
  6
CONTINUOUS
 90
7
 70
0
 10
4.9939125689
 20
30.0652201251
 10
5.0013420378
 20
30.0570896749
 10
5.0090428421
 20
30.0485440935
 10
5.0170098639
 20
30.0395734755
 10
5.0252614937
 20
30.0301443944
 10
5.0337889423
 20
30.0202480961
 10
5.0425859044
 20
30.0098731606
  0
LWPOLYLINE
  5
538
100
AcDbEntity
  8
RACCORDO
100
AcDbPolyline
 62
250
  6
CONTINUOUS
 90
38
 70
0
 10
4.952784312
 20
30.1196236614
 10
4.949938147
 20
30.122747821
 10
4.9486343967
 20
30.1241944534
 10
4.9474101899
 20
30.125564828
 10
4.9462635911
 20
30.1268612415
 10
4.9451954166
 20
30.1280831894
 10
4.9442050199
 20
30.1292317682
 10
4.943288213
 20
30.1303115972
 10
4.942445287
 20
30.1313225921
 10
4.9416760483
 20
30.1322652936
 10
4.9409755656
 20
30.1331452163
 10
4.9403434744
 20
30.1339629813
 10
4.9397802212
 20
30.1347183498
 10
4.9392821014
 20
30.1354155354
 10
4.9388487561
 20
30.1360552121
 10
4.9384806183
 20
30.1366370372
 10
4.9381751667
 20
30.1371636783
 10
4.9379324434
 20
30.1376352716
 10
4.9377524328
 20
30.1380519275
 10
4.937632499
 20
30.1384162326
 10
4.937572683
 20
30.1387281388
 10
4.9375729134
 20
30.1389878455
 10
4.9376303655
 20
30.1391982766
 10
4.9377444545
 20
30.1393597151
 10
4.937915702
 20
30.139471962
 10
4.9381429815
 20
30.1395372577
 10
4.9384228889
 20
30.1395576785
 10
4.9387588042
 20
30.1395312576
 10
4.9391600401
 20
30.139454498
 10
4.9396198
 20
30.1393334038
 10
4.9401452871
 20
30.1391626298
 10
4.9407674311
 20
30.1389224655
 10
4.9414825511
 20
30.1386193747
 10
4.942295633
 20
30.1382487957
 10
4.9432513201
 20
30.1377754605
 10
4.9443652926
 20
30.1371887911
 10
4.9456239384
 20
30.1365024515
 10
4.9470282994
 20
30.135718044
  0
LWPOLYLINE
  5
539
100
AcDbEntity
  8
RACCORDO
100
AcDbPolyline
 62
250
  6
CONTINUOUS
 90
8
 70
0
 10
5.0425859044
 20
30.0098731606
 10
5.0516729776
 20
29.9989801761
 10
5.0610398652
 20
29.9875588918
 10
5.0706788272
 20
29.9755960925
 10
5.0806124289
 20
29.9630455382
 10
5.0908406273
 20
29.9498822038
 10
5.1013416305
 20
29.9361034964
 10
5.112104046
 20
29.9216952905
  0
LINE
  5
53A
100
AcDbEntity
  8
RACCORDO
100
AcDbLine
 62
250
  6
CONTINUOUS
 10
5.1520088298
 20
29.9040673924
 11
5.052629811
 21
30.0240403422
  0
LINE
  5
53B
100
AcDbEntity
  8
RACCORDO
100
AcDbLine
 62
250
  6
CONTINUOUS
 10
5.1753305393
 20
29.864300672
 11
5.1779675749
 21
29.8607676334
  0
LINE
  5
53C
100
AcDbEntity
  8
RACCORDO
100
AcDbLine
 62
7
  6
CONTINUOUS
 10
5.0829166651
 20
29.9691151808
 11
5.1751364374
 21
29.8439825923
  0
LINE
  5
53D
100
AcDbEntity
  8
RACCORDO
100
AcDbLine
 62
7
  6
CONTINUOUS
 10
5.1779675749
 20
29.8607676334
 11
5.1780135006
 21
29.8607048481
  0
LWPOLYLINE
  5
53E
100
AcDbEntity
  8
RACCORDO
100
AcDbPolyline
 62
7
  6
CONTINUOUS
 90
6
 70
0
 10
5.1751364374
 20
29.8439825923
 10
5.2606230846
 20
29.7107233123
 10
5.3393575338
 20
29.5695839129
 10
5.4114211039
 20
29.4205893134
 10
5.476704363
 20
29.2640511616
 10
5.479031456
 20
29.2575276027
  0
LWPOLYLINE
  5
53F
100
AcDbEntity
  8
RACCORDO
100
AcDbPolyline
 62
250
  6
CONTINUOUS
 90
10
 70
0
 10
42.0505955198
 20
-62.5482028721
 10
42.0578007202
 20
-62.5695465155
 10
42.0666564222
 20
-62.5901336712
 10
42.0771615227
 20
-62.6098759849
 10
42.0893110877
 20
-62.6286870718
 10
42.1030939917
 20
-62.6464825954
 10
42.118492969
 20
-62.6631804867
 10
42.1355187499
 20
-62.6787214444
 10
42.1541167591
 20
-62.6930093975
 10
42.1741588835
 20
-62.7059216166
  0
LWPOLYLINE
  5
540
100
AcDbEntity
  8
RACCORDO
100
AcDbPolyline
 62
250
  6
CONTINUOUS
 90
8
 70
0
 10
38.4668659083
 20
-60.7725842156
 10
38.4752548895
 20
-60.8005275707
 10
38.4859327301
 20
-60.8259175013
 10
38.4988201143
 20
-60.848565402
 10
38.513821313
 20
-60.8683030356
 10
38.5308248951
 20
-60.8849837829
 10
38.5497045544
 20
-60.8984837315
 10
38.5591632295
 20
-60.9036886897
  0
LINE
  5
541
100
AcDbEntity
  8
RACCORDO
100
AcDbLine
 62
7
  6
CONTINUOUS
 10
33.4671685919
 20
7.1889593022
 11
33.5714285807
 21
7.6485124552
  0
LWPOLYLINE
  5
542
100
AcDbEntity
  8
RACCORDO
100
AcDbPolyline
 62
7
  6
CONTINUOUS
 90
3
 70
0
 10
33.5714285807
 20
7.6485124552
 10
33.6783642122
 20
8.110724546
 10
33.7055186773
 20
8.2266977637
  0
LWPOLYLINE
  5
543
100
AcDbEntity
  8
RACCORDO
100
AcDbPolyline
 62
250
  6
CONTINUOUS
 90
19
 70
0
 10
46.2953043493
 20
2.61782409
 10
46.2705077178
 20
2.5991289302
 10
46.2458944568
 20
2.5781486198
 10
46.2216103107
 20
2.555007392
 10
46.1977990748
 20
2.5298422753
 10
46.1746017448
 20
2.5028022831
 10
46.1521556819
 20
2.4740475316
 10
46.1305937974
 20
2.4437482897
 10
46.1100437668
 20
2.4120839711
 10
46.0906272749
 20
2.3792420744
 10
46.0724592934
 20
2.3454170695
 10
46.0556474006
 20
2.3108092473
 10
46.0402911456
 20
2.2756235349
 10
46.0264814574
 20
2.2400682804
 10
46.0143001069
 20
2.2043540195
 10
46.0038192234
 20
2.1686922298
 10
45.9951008665
 20
2.1332940776
 10
45.9881966594
 20
2.0983691674
 10
45.9831474828
 20
2.0641243015
  0
LINE
  5
544
100
AcDbEntity
  8
RACCORDO
100
AcDbLine
 62
250
  6
CONTINUOUS
 10
50.4951186265
 20
-4.7538801817
 11
60.8746737212
 21
1.2391249721
  0
LWPOLYLINE
  5
545
100
AcDbEntity
  8
RACCORDO
100
AcDbPolyline
 62
250
  6
CONTINUOUS
 90
7
 70
0
 10
6.1440794624
 20
29.2660715376
 10
6.159930664
 20
29.266483183
 10
6.1755372971
 20
29.2672723552
 10
6.1908625918
 20
29.2684265221
 10
6.2058692391
 20
29.2699313781
 10
6.2205195053
 20
29.2717708153
 10
6.2251276628
 20
29.2724677632
  0
LWPOLYLINE
  5
546
100
AcDbEntity
  8
RACCORDO
100
AcDbPolyline
 62
250
  6
CONTINUOUS
 90
14
 70
0
 10
6.1440846045
 20
29.2660687241
 10
6.129393616
 20
29.2665451737
 10
6.1151979125
 20
29.2677575918
 10
6.1015791579
 20
29.269641076
 10
6.0887701989
 20
29.2721526911
 10
6.0766846778
 20
29.2751790528
 10
6.0648888617
 20
29.2785957374
 10
6.0533568728
 20
29.2823432739
 10
6.0421554431
 20
29.2864183824
 10
6.030954642
 20
29.2908599279
 10
6.0196754141
 20
29.295698953
 10
6.0084290936
 20
29.30090441
 10
5.9971606263
 20
29.3064591862
 10
5.9858470127
 20
29.3123857021
  0
LWPOLYLINE
  5
547
100
AcDbEntity
  8
RACCORDO
100
AcDbPolyline
 62
7
  6
CONTINUOUS
 90
6
 70
0
 10
-54.2443242747
 20
50.7177736846
 10
-54.2478764287
 20
50.7192169126
 10
-54.2494209958
 20
50.7199696545
 10
-54.2490264303
 20
50.7197268323
 10
-54.2468615528
 20
50.7182604867
 10
-54.244445133
 20
50.7164504785
  0
LWPOLYLINE
  5
548
100
AcDbEntity
  8
RACCORDO
100
AcDbPolyline
 62
250
  6
CONTINUOUS
 90
10
 70
0
 10
5.9411660715
 20
29.4430052848
 10
5.9284253956
 20
29.4489839862
 10
5.9150012687
 20
29.4539426411
 10
5.900949801
 20
29.4578605244
 10
5.8863297256
 20
29.4607212611
 10
5.8712021501
 20
29.4625128954
 10
5.8556303013
 20
29.4632279397
 10
5.8396792645
 20
29.4628634055
 10
5.8234157119
 20
29.4614208168
 10
5.8069076211
 20
29.4589062035
  0
LWPOLYLINE
  5
549
100
AcDbEntity
  8
RACCORDO
100
AcDbPolyline
 62
250
  6
CONTINUOUS
 90
18
 70
0
 10
5.9858470127
 20
29.3123857021
 10
5.974542234
 20
29.3186692701
 10
5.9632998614
 20
29.3252416968
 10
5.9521534644
 20
29.3320955647
 10
5.9411023996
 20
29.3392398965
 10
5.9301428785
 20
29.346632398
 10
5.9193276517
 20
29.3542675478
 10
5.9086494264
 20
29.3621602595
 10
5.898014017
 20
29.3703149288
 10
5.887488639
 20
29.3787563461
 10
5.8770982277
 20
29.387493017
 10
5.8666932738
 20
29.3965392638
 10
5.8564204231
 20
29.4059435679
 10
5.8463401882
 20
29.4157101584
 10
5.8361834639
 20
29.4258547752
 10
5.8259862563
 20
29.4364318897
 10
5.8161355623
 20
29.4474524687
 10
5.7944899864
 20
29.4742189271
  0
LINE
  5
54A
100
AcDbEntity
  8
RACCORDO
100
AcDbLine
 62
250
  6
CONTINUOUS
 10
-38.2841019003
 20
54.9776386719
 11
-38.2354270788
 21
54.9500164898
  0
LWPOLYLINE
  5
54B
100
AcDbEntity
  8
RACCORDO
100
AcDbPolyline
 62
250
  6
CONTINUOUS
 90
23
 70
0
 10
4.9308198927
 20
30.1487098628
 10
4.9251442273
 20
30.1519703595
 10
4.9199626468
 20
30.1549100503
 10
4.9152747027
 20
30.1575281877
 10
4.9110635704
 20
30.1598308953
 10
4.907344214
 20
30.1618089536
 10
4.904163621
 20
30.1634381927
 10
4.9015603736
 20
30.1646930093
 10
4.8994928799
 20
30.1655940269
 10
4.8978881137
 20
30.166186836
 10
4.8967447821
 20
30.1664696903
 10
4.8960608563
 20
30.1664388933
 10
4.8957626349
 20
30.166137835
 10
4.8958402176
 20
30.1655693784
 10
4.896299989
 20
30.164724972
 10
4.8970929459
 20
30.1636313512
 10
4.8982104314
 20
30.1622900611
 10
4.8996572844
 20
30.1606934662
 10
4.9014048167
 20
30.1588546752
 10
4.9034462232
 20
30.156773536
 10
4.9057840466
 20
30.1544435053
 10
4.9084035266
 20
30.1518679863
 10
4.9298444191
 20
30.1310585776
  0
LINE
  5
54C
100
AcDbEntity
  8
DRAFT
100
AcDbLine
 62
7
  6
CONTINUOUS
 10
-41.5370028228
 20
56.1916646089
 11
37.3761139577
 21
10.6282199936
  0
LINE
  5
54D
100
AcDbEntity
  8
ASSI
100
AcDbLine
 62
7
  6
CONTINUOUS
 10
-40.7462215243
 20
55.947409335
 11
37.9742132407
 21
10.4952169005
  0
LINE
  5
54E
100
AcDbEntity
  8
RACCORDO
100
AcDbLine
 62
7
  6
CONTINUOUS
 10
-38.2191961094
 20
54.9340405367
 11
5.1138506211
 21
29.9141051995
  0
LINE
  5
54F
100
AcDbEntity
  8
RACCORDO
100
AcDbLine
 62
7
  6
CONTINUOUS
 10
37.1527095974
 20
11.4152695677
 11
5.9919186177
 21
29.407119743
  0
LINE
  5
550
100
AcDbEntity
  8
RACCORDO
100
AcDbLine
 62
250
  6
CONTINUOUS
 10
-38.2354270788
 20
54.9500164898
 11
5.1121041032
 21
29.9216952575
  0
LINE
  5
551
100
AcDbEntity
  8
RACCORDO
100
AcDbLine
 62
250
  6
CONTINUOUS
 10
5.9411660317
 20
29.4430052905
 11
37.1264604358
 21
11.4370071451
  0
LINE
  5
552
100
AcDbEntity
  8
RACCORDO
100
AcDbLine
 62
250
  6
CONTINUOUS
 10
4.947029437
 20
30.135718248
 11
5.3023243295
 21
29.9305750275
  0
LINE
  5
553
100
AcDbEntity
  8
RACCORDO
100
AcDbLine
 62
7
  6
CONTINUOUS
 10
38.4399909533
 20
10.8036360976
 11
-40.7671833873
 21
56.5368658628
  0
LINE
  5
554
100
AcDbEntity
  8
RACCORDO
100
AcDbLine
 62
250
  6
CONTINUOUS
 10
39.0060310348
 20
11.0638556187
 11
-40.8280685423
 21
57.1590641582
  0
LWPOLYLINE
  5
555
100
AcDbEntity
  8
RACCORDO
100
AcDbPolyline
 62
7
  6
CONTINUOUS
 90
21
 70
0
 10
37.1527242731
 20
11.4152610958
 10
37.1827311392
 20
11.3977378573
 10
37.2282932629
 20
11.3704055012
 10
37.2767745846
 20
11.340420837
 10
37.3279109465
 20
11.3078636094
 10
37.3812278914
 20
11.2729457356
 10
37.4364253681
 20
11.2357558713
 10
37.4932214786
 20
11.1963861169
 10
37.5511215008
 20
11.1550777966
 10
37.6098182312
 20
11.1119329429
 10
37.6689387743
 20
11.0671036066
 10
37.7279039274
 20
11.0209170842
 10
37.7864179506
 20
10.9734915951
 10
37.8441578267
 20
10.9249608596
 10
37.9005518232
 20
10.8757034544
 10
37.9553496002
 20
10.8258452478
 10
38.0083002898
 20
10.7755047942
 10
38.0588891813
 20
10.7251011025
 10
38.1069370061
 20
10.6747642992
 10
38.1522545578
 20
10.6246307088
 10
38.158532089
 20
10.6172654006
  0
LINE
  5
556
100
AcDbEntity
  8
RACCORDO
100
AcDbLine
 62
250
  6
CONTINUOUS
 10
5.2990053519
 20
29.9360550411
 11
5.2861148002
 21
29.9435669685
  0
LINE
  5
557
100
AcDbEntity
  8
RACCORDO
100
AcDbLine
 62
250
  6
CONTINUOUS
 10
37.1776679042
 20
11.4069407218
 11
37.1264604358
 21
11.4370071451
  0
LWPOLYLINE
  5
558
100
AcDbEntity
  8
RACCORDO
100
AcDbPolyline
 62
250
  6
CONTINUOUS
 90
10
 70
0
 10
5.3023235685
 20
29.9305750761
 10
5.3039548709
 20
29.9296106817
 10
5.3056759757
 20
29.9285703974
 10
5.307486371
 20
29.9274536271
 10
5.3093770276
 20
29.9262644095
 10
5.3113558615
 20
29.9249973297
 10
5.3134481575
 20
29.9236381606
 10
5.3156628637
 20
29.9221820369
 10
5.3179908053
 20
29.9206337385
 10
5.3204304288
 20
29.9189940277
  0
LWPOLYLINE
  5
559
100
AcDbEntity
  8
RACCORDO
100
AcDbPolyline
 62
250
  6
CONTINUOUS
 90
7
 70
0
 10
5.991877303
 20
29.4071435996
 10
5.9827050068
 20
29.4125856478
 10
5.9733212918
 20
29.4184866263
 10
5.9644403647
 20
29.4244652265
 10
5.9561302561
 20
29.4305192665
 10
5.9483648269
 20
29.4366928431
 10
5.9411660317
 20
29.4430052905
  0
LINE
  5
55A
100
AcDbEntity
  8
RACCORDO
100
AcDbLine
 62
250
  6
CONTINUOUS
 10
5.3141059888
 20
29.9271178943
 11
5.2990053519
 21
29.9360550411
  0
LWPOLYLINE
  5
55B
100
AcDbEntity
  8
RACCORDO
100
AcDbPolyline
 62
7
  6
CONTINUOUS
 90
4
 70
0
 10
5.1138546689
 20
29.9141025241
 10
5.1198583865
 20
29.9105295746
 10
5.1285386741
 20
29.9049691784
 10
5.1319338556
 20
29.9026039786
  0
LINE
  5
55C
100
AcDbEntity
  8
RACCORDO
100
AcDbLine
 62
250
  6
CONTINUOUS
 10
5.3311974371
 20
29.9168716861
 11
5.3141059888
 21
29.9271178943
  0
LINE
  5
55D
100
AcDbEntity
  8
RACCORDO
100
AcDbLine
 62
250
  6
CONTINUOUS
 10
37.2303589926
 20
11.3750011194
 11
37.1776679042
 21
11.4069407218
  0
LINE
  5
55E
100
AcDbEntity
  8
RACCORDO
100
AcDbLine
 62
250
  6
CONTINUOUS
 10
5.349489549
 20
29.9057683467
 11
5.3311974371
 21
29.9168716861
  0
LINE
  5
55F
100
AcDbEntity
  8
RACCORDO
100
AcDbLine
 62
250
  6
CONTINUOUS
 10
5.3687113929
 20
29.8939588365
 11
5.349489549
 21
29.9057683467
  0
LINE
  5
560
100
AcDbEntity
  8
RACCORDO
100
AcDbLine
 62
250
  6
CONTINUOUS
 10
5.3887197542
 20
29.8815082498
 11
5.3687113929
 21
29.8939588365
  0
LINE
  5
561
100
AcDbEntity
  8
RACCORDO
100
AcDbLine
 62
250
  6
CONTINUOUS
 10
5.4094228474
 20
29.8684538204
 11
5.3887197542
 21
29.8815082498
  0
LWPOLYLINE
  5
562
100
AcDbEntity
  8
RACCORDO
100
AcDbPolyline
 62
7
  6
CONTINUOUS
 90
23
 70
0
 10
-40.7106002274
 20
56.5032092965
 10
-40.6550764593
 20
56.4678550109
 10
-40.6006303955
 20
56.4308145436
 10
-40.547278696
 20
56.3920993024
 10
-40.4950402351
 20
56.3517227626
 10
-40.4439361118
 20
56.3097004369
 10
-40.393983311
 20
56.2660463293
 10
-40.3451981563
 20
56.220774822
 10
-40.2976002251
 20
56.1739028004
 10
-40.251205384
 20
56.1254459937
 10
-40.2060287821
 20
56.0754204301
 10
-40.1620884104
 20
56.0238441726
 10
-40.1193989415
 20
55.970734544
 10
-40.0779743838
 20
55.9161091976
 10
-40.0378312416
 20
55.8599873524
 10
-39.998982952
 20
55.802387819
 10
-39.9614423782
 20
55.7433298499
 10
-39.9252246752
 20
55.6828339447
 10
-39.890342032
 20
55.6209203628
 10
-39.8568061101
 20
55.5576098977
 10
-39.8246307662
 20
55.4929244571
 10
-39.7938277567
 20
55.4268859662
 10
-39.776672877
 20
55.3876040974
  0
LINE
  5
563
100
AcDbEntity
  8
RACCORDO
100
AcDbLine
 62
250
  6
CONTINUOUS
 10
5.4308263172
 20
29.8547666971
 11
5.4094228474
 21
29.8684538204
  0
LWPOLYLINE
  5
564
100
AcDbEntity
  8
RACCORDO
100
AcDbPolyline
 62
7
  6
CONTINUOUS
 90
13
 70
0
 10
-40.7671833873
 20
56.5368658628
 10
-40.7772954511
 20
56.5434072519
 10
-40.7867382353
 20
56.5510383743
 10
-40.7954655608
 20
56.5597412559
 10
-40.8034514713
 20
56.5695152607
 10
-40.810632953
 20
56.5803131992
 10
-40.8169271378
 20
56.5920210704
 10
-40.8223069512
 20
56.6045663471
 10
-40.8267660075
 20
56.6179043297
 10
-40.8302804604
 20
56.6319334419
 10
-40.8328462694
 20
56.646570006
 10
-40.8344715499
 20
56.6617555943
 10
-40.8351635023
 20
56.6774183346
  0
LINE
  5
565
100
AcDbEntity
  8
RACCORDO
100
AcDbLine
 62
250
  6
CONTINUOUS
 10
5.4529281737
 20
29.840418183
 11
5.4308263172
 21
29.8547666971
  0
LINE
  5
566
100
AcDbEntity
  8
RACCORDO
100
AcDbLine
 62
250
  6
CONTINUOUS
 10
5.4757479713
 20
29.8253644216
 11
5.4529281737
 21
29.840418183
  0
LINE
  5
567
100
AcDbEntity
  8
RACCORDO
100
AcDbLine
 62
250
  6
CONTINUOUS
 10
5.1121040506
 20
29.9216953062
 11
5.1235388049
 21
29.9139951845
  0
LWPOLYLINE
  5
568
100
AcDbEntity
  8
RACCORDO
100
AcDbPolyline
 62
250
  6
CONTINUOUS
 90
3
 70
0
 10
37.1527095974
 20
11.4152695677
 10
37.1400783126
 20
11.4239097502
 10
37.1264604358
 20
11.4370071451
  0
LINE
  5
569
100
AcDbEntity
  8
RACCORDO
100
AcDbLine
 62
250
  6
CONTINUOUS
 10
5.3204304288
 20
29.9189940277
 11
5.3256373247
 21
29.9154442941
  0
LINE
  5
56A
100
AcDbEntity
  8
RACCORDO
100
AcDbLine
 62
250
  6
CONTINUOUS
 10
5.3256373247
 20
29.9154442941
 11
5.3313162705
 21
29.9115062092
  0
LINE
  5
56B
100
AcDbEntity
  8
RACCORDO
100
AcDbLine
 62
250
  6
CONTINUOUS
 10
5.3313162705
 20
29.9115062092
 11
5.3374746017
 21
29.907171022
  0
LINE
  5
56C
100
AcDbEntity
  8
RACCORDO
100
AcDbLine
 62
250
  6
CONTINUOUS
 10
5.3374746017
 20
29.907171022
 11
5.3441169878
 21
29.9024294687
  0
LINE
  5
56D
100
AcDbEntity
  8
RACCORDO
100
AcDbLine
 62
250
  6
CONTINUOUS
 10
5.3441169878
 20
29.9024294687
 11
5.3512010874
 21
29.8973068817
  0
LINE
  5
56E
100
AcDbEntity
  8
RACCORDO
100
AcDbLine
 62
250
  6
CONTINUOUS
 10
5.3512010874
 20
29.8973068817
 11
5.3587019467
 21
29.8918157076
  0
LINE
  5
56F
100
AcDbEntity
  8
RACCORDO
100
AcDbLine
 62
250
  6
CONTINUOUS
 10
5.3587019467
 20
29.8918157076
 11
5.3665758985
 21
29.8859827044
  0
LINE
  5
570
100
AcDbEntity
  8
RACCORDO
100
AcDbLine
 62
250
  6
CONTINUOUS
 10
5.3665758985
 20
29.8859827044
 11
5.3748208698
 21
29.879804491
  0
LINE
  5
571
100
AcDbEntity
  8
RACCORDO
100
AcDbLine
 62
250
  6
CONTINUOUS
 10
5.3748208698
 20
29.879804491
 11
5.3834404957
 21
29.8732715713
  0
LINE
  5
572
100
AcDbEntity
  8
RACCORDO
100
AcDbLine
 62
250
  6
CONTINUOUS
 10
5.3834404957
 20
29.8732715713
 11
5.3924553681
 21
29.8663620108
  0
LINE
  5
573
100
AcDbEntity
  8
RACCORDO
100
AcDbLine
 62
250
  6
CONTINUOUS
 10
5.3924553681
 20
29.8663620108
 11
5.4019023859
 21
29.8590382764
  0
LINE
  5
574
100
AcDbEntity
  8
RACCORDO
100
AcDbLine
 62
250
  6
CONTINUOUS
 10
5.4019023859
 20
29.8590382764
 11
5.4118050231
 21
29.8512724244
  0
LINE
  5
575
100
AcDbEntity
  8
RACCORDO
100
AcDbLine
 62
250
  6
CONTINUOUS
 10
5.4118050231
 20
29.8512724244
 11
5.4222064865
 21
29.8430188676
  0
LINE
  5
576
100
AcDbEntity
  8
RACCORDO
100
AcDbLine
 62
250
  6
CONTINUOUS
 10
5.4222064865
 20
29.8430188676
 11
5.4331356258
 21
29.8342399049
  0
LINE
  5
577
100
AcDbEntity
  8
RACCORDO
100
AcDbLine
 62
250
  6
CONTINUOUS
 10
5.4331356258
 20
29.8342399049
 11
5.4445989741
 21
29.824916013
  0
LINE
  5
578
100
AcDbEntity
  8
RACCORDO
100
AcDbLine
 62
250
  6
CONTINUOUS
 10
5.4445989741
 20
29.824916013
 11
5.4565966917
 21
29.8150294032
  0
LINE
  5
579
100
AcDbEntity
  8
RACCORDO
100
AcDbLine
 62
250
  6
CONTINUOUS
 10
5.4565966917
 20
29.8150294032
 11
5.4690919728
 21
29.8045927894
  0
LINE
  5
57A
100
AcDbEntity
  8
RACCORDO
100
AcDbLine
 62
250
  6
CONTINUOUS
 10
5.4690919728
 20
29.8045927894
 11
5.4820568365
 21
29.7936123569
  0
LINE
  5
57B
100
AcDbEntity
  8
RACCORDO
100
AcDbLine
 62
250
  6
CONTINUOUS
 10
5.4820568365
 20
29.7936123569
 11
5.49544306
 21
29.7821105031
  0
LINE
  5
57C
100
AcDbEntity
  8
RACCORDO
100
AcDbLine
 62
250
  6
CONTINUOUS
 10
5.49544306
 20
29.7821105031
 11
5.5092140352
 21
29.7701016578
  0
LINE
  5
57D
100
AcDbEntity
  8
RACCORDO
100
AcDbLine
 62
250
  6
CONTINUOUS
 10
5.5092140352
 20
29.7701016578
 11
5.5233550577
 21
29.7575807298
  0
LINE
  5
57E
100
AcDbEntity
  8
RACCORDO
100
AcDbLine
 62
250
  6
CONTINUOUS
 10
5.5233550577
 20
29.7575807298
 11
5.5378587279
 21
29.7445361858
  0
LINE
  5
57F
100
AcDbEntity
  8
RACCORDO
100
AcDbLine
 62
250
  6
CONTINUOUS
 10
5.5378587279
 20
29.7445361858
 11
5.552773955
 21
29.7309028947
  0
LWPOLYLINE
  5
580
100
AcDbEntity
  8
RACCORDO
100
AcDbPolyline
 62
250
  6
CONTINUOUS
 90
25
 70
0
 10
5.552773955
 20
29.7309028947
 10
5.5681341654
 20
29.716626746
 10
5.5760078506
 20
29.7092141363
 10
5.5840089172
 20
29.7016153802
 10
5.5921632919
 20
29.6938000553
 10
5.6004695578
 20
29.6857658282
 10
5.6089254059
 20
29.6775104024
 10
5.617554877
 20
29.6690027583
 10
5.6263559965
 20
29.6602401412
 10
5.6353261352
 20
29.6512196569
 10
5.644487714
 20
29.6419093004
 10
5.653838261
 20
29.6323056565
 10
5.6633745846
 20
29.6224052639
 10
5.6731172889
 20
29.6121751442
 10
5.6830632738
 20
29.6016111515
 10
5.6932087162
 20
29.5907091099
 10
5.703572294
 20
29.5794349629
 10
5.7141492804
 20
29.5677847277
 10
5.7249360044
 20
29.5557524012
 10
5.7359517336
 20
29.5432996885
 10
5.7471877655
 20
29.5304253173
 10
5.7586426291
 20
29.5171186128
 10
5.7703450888
 20
29.5033255646
 10
5.7823001897
 20
29.4890228864
 10
5.7944899864
 20
29.4742189271
  0
LWPOLYLINE
  5
581
100
AcDbEntity
  8
RACCORDO
100
AcDbPolyline
 62
250
  6
CONTINUOUS
 90
10
 70
0
 10
4.9470294369
 20
30.135718248
 10
4.9453436987
 20
30.1373364001
 10
4.9436284114
 20
30.1389115091
 10
4.9418838754
 20
30.1404432993
 10
4.9401103961
 20
30.1419315024
 10
4.9383082841
 20
30.143375858
 10
4.9364778548
 20
30.1447761131
 10
4.9346194287
 20
30.1461320225
 10
4.9327333313
 20
30.1474433489
 10
4.9308198927
 20
30.1487098627
  0
LWPOLYLINE
  5
582
100
AcDbEntity
  8
RACCORDO
100
AcDbPolyline
 62
250
  6
CONTINUOUS
 90
10
 70
0
 10
5.30232433
 20
29.9305750272
 10
5.3006384435
 20
29.9321933635
 10
5.2989230542
 20
29.9337686007
 10
5.2971784653
 20
29.9353004668
 10
5.2954050037
 20
29.9367886824
 10
5.2936029644
 20
29.9382330071
 10
5.2917726075
 20
29.9396332354
 10
5.289914234
 20
29.9409891362
 10
5.2880281881
 20
29.942300457
 10
5.2861148002
 20
29.9435669685
  0
LINE
  5
583
100
AcDbEntity
  8
RACCORDO
100
AcDbLine
 62
7
  6
CONTINUOUS
 10
32.4194598962
 20
1.603705957
 11
32.422015442
 21
1.2417916104
  0
LINE
  5
584
100
AcDbEntity
  8
RACCORDO
100
AcDbLine
 62
7
  6
CONTINUOUS
 10
35.7292727018
 20
-2.0716169114
 11
35.7289605599
 21
-2.2694467893
  0
LWPOLYLINE
  5
585
100
AcDbEntity
  8
RACCORDO
100
AcDbPolyline
 62
7
  6
CONTINUOUS
 90
10
 70
0
 10
33.4153725315
 20
6.8162246888
 10
33.4186912047
 20
6.8644257093
 10
33.4222634186
 20
6.9056831565
 10
33.4265445173
 20
6.9467904784
 10
33.4315440593
 20
6.9877440412
 10
33.4372610279
 20
7.0285127694
 10
33.4436820902
 20
7.0690389977
 10
33.4508032649
 20
7.1092929219
 10
33.4586316578
 20
7.1492717635
 10
33.4671685919
 20
7.1889593022
  0
LWPOLYLINE
  5
586
100
AcDbEntity
  8
RACCORDO
100
AcDbPolyline
 62
7
  6
CONTINUOUS
 90
15
 70
0
 10
33.4153725315
 20
6.8162246888
 10
33.4148647721
 20
6.8096209701
 10
33.4143051988
 20
6.8032232223
 10
33.4137006512
 20
6.7970542844
 10
33.4130545226
 20
6.7910887727
 10
33.4123646444
 20
6.7852540298
 10
33.4116414355
 20
6.7796029758
 10
33.4108808576
 20
6.7740810997
 10
33.410051345
 20
6.768458139
 10
33.4091416149
 20
6.7626829996
 10
33.4081557043
 20
6.7568118272
 10
33.407077339
 20
6.7507791651
 10
33.4058966985
 20
6.744566187
 10
33.4046124623
 20
6.7381996292
 10
33.40321903
 20
6.7316837246
  0
LWPOLYLINE
  5
587
100
AcDbEntity
  8
RACCORDO
100
AcDbPolyline
 62
7
  6
CONTINUOUS
 90
15
 70
0
 10
32.8559770022
 20
-0.5693232795
 10
32.8542304352
 20
-0.5891623928
 10
32.8543691576
 20
-0.6074320731
 10
32.8561696329
 20
-0.6255896197
 10
32.859612436
 20
-0.6434922477
 10
32.864673135
 20
-0.6610167051
 10
32.8713175925
 20
-0.6780284622
 10
32.8794898507
 20
-0.694372011
 10
32.8891167407
 20
-0.7098991558
 10
32.9001119354
 20
-0.7244746551
 10
32.9123871175
 20
-0.7379849894
 10
32.9258486472
 20
-0.7503262213
 10
32.9403905087
 20
-0.7613971531
 10
32.9558891866
 20
-0.771100044
 10
32.9678586456
 20
-0.777330948
  0
LINE
  5
588
100
AcDbEntity
  8
RACCORDO
100
AcDbLine
 62
250
  6
CONTINUOUS
 10
32.8558300534
 20
-0.570616677
 11
32.8559748441
 21
-0.5693388416
  0
LWPOLYLINE
  5
589
100
AcDbEntity
  8
RACCORDO
100
AcDbPolyline
 62
250
  6
CONTINUOUS
 90
12
 70
0
 10
34.420360829
 20
7.93035904
 10
34.4192814744
 20
7.9214582348
 10
34.420165952
 20
7.9109337538
 10
34.4232895724
 20
7.9000521679
 10
34.4286284515
 20
7.8888966873
 10
34.4361417647
 20
7.8775526176
 10
34.4457720598
 20
7.8661067058
 10
34.4574456963
 20
7.8546464778
 10
34.4710734069
 20
7.84325957
 10
34.4865509822
 20
7.8320330575
 10
34.5037600674
 20
7.8210527886
 10
34.5225690666
 20
7.8104027287
  0
LINE
  5
58A
100
AcDbEntity
  8
RACCORDO
100
AcDbLine
 62
7
  6
CONTINUOUS
 10
32.0903946685
 20
-1.0096664222
 11
32.1528521431
 21
-0.5450127406
  0
LINE
  5
58B
100
AcDbEntity
  8
RACCORDO
100
AcDbLine
 62
7
  6
CONTINUOUS
 10
32.1528521431
 20
-0.5450127406
 11
32.2181801673
 21
-0.0781956866
  0
LWPOLYLINE
  5
58C
100
AcDbEntity
  8
RACCORDO
100
AcDbPolyline
 62
250
  6
CONTINUOUS
 90
16
 70
0
 10
32.9751783602
 20
-0.6278809735
 10
33.0767999994
 20
0.0841846278
 10
33.1804167805
 20
0.7730795947
 10
33.2854130766
 20
1.4384844344
 10
33.3910407093
 20
2.0789178745
 10
33.4968740387
 20
2.6952520088
 10
33.6028844385
 20
3.2907509478
 10
33.7086159314
 20
3.8652498486
 10
33.8136293918
 20
4.418449021
 10
33.9180808247
 20
4.9534930053
 10
34.0216223682
 20
5.4702156572
 10
34.1239364974
 20
5.9684378041
 10
34.2253560185
 20
6.4513525827
 10
34.3258578077
 20
6.919954799
 10
34.4250027896
 20
7.3730097788
 10
34.5225691468
 20
7.810402405
  0
LINE
  5
58D
100
AcDbEntity
  8
RACCORDO
100
AcDbLine
 62
7
  6
CONTINUOUS
 10
32.2181801673
 20
-0.0781956866
 11
32.2864027895
 21
0.3908979164
  0
LWPOLYLINE
  5
58E
100
AcDbEntity
  8
RACCORDO
100
AcDbPolyline
 62
7
  6
CONTINUOUS
 90
3
 70
0
 10
32.2864027895
 20
0.3908979164
 10
32.3575975676
 20
0.8627111027
 10
32.3943101452
 20
1.0996126925
  0
LWPOLYLINE
  5
58F
100
AcDbEntity
  8
RACCORDO
100
AcDbPolyline
 62
7
  6
CONTINUOUS
 90
13
 70
0
 10
32.426615933
 20
1.6953124712
 10
32.4253692753
 20
1.6874245912
 10
32.4242663564
 20
1.6796783549
 10
32.4232994854
 20
1.6720801479
 10
32.4224682951
 20
1.6647028248
 10
32.4217567274
 20
1.6574859303
 10
32.4211408982
 20
1.6502317086
 10
32.4206195021
 20
1.6429419854
 10
32.4201936769
 20
1.635618134
 10
32.4198573923
 20
1.6280548895
 10
32.4196166793
 20
1.6201815324
 10
32.4194816817
 20
1.6120655192
 10
32.4194598962
 20
1.603705957
  0
LWPOLYLINE
  5
590
100
AcDbEntity
  8
RACCORDO
100
AcDbPolyline
 62
7
  6
CONTINUOUS
 90
7
 70
0
 10
32.3943101452
 20
1.0996126925
 10
32.3982196622
 20
1.123641994
 10
32.4024121802
 20
1.1475435745
 10
32.4068878936
 20
1.1713133656
 10
32.4116469494
 20
1.1949473178
 10
32.4166894479
 20
1.2184414021
 10
32.422015442
 20
1.2417916104
  0
LWPOLYLINE
  5
591
100
AcDbEntity
  8
RACCORDO
100
AcDbPolyline
 62
7
  6
CONTINUOUS
 90
10
 70
0
 10
32.426615933
 20
1.6953124712
 10
32.5172161983
 20
2.2308972348
 10
32.6122329335
 20
2.7723619512
 10
32.7116661387
 20
3.3197066204
 10
32.8154340438
 20
3.8727671653
 10
32.9236184188
 20
4.4317076631
 10
33.036464574
 20
4.9970203447
 10
33.1540542792
 20
5.5688692874
 10
33.2763057646
 20
6.1470904141
 10
33.40321903
 20
6.7316837246
  0
LWPOLYLINE
  5
592
100
AcDbEntity
  8
RACCORDO
100
AcDbPolyline
 62
7
  6
CONTINUOUS
 90
10
 70
0
 10
34.4203880679
 20
7.9304801243
 10
34.2097296292
 20
6.9814412088
 10
33.9965010178
 20
5.9791184213
 10
33.7956458911
 20
4.9901323393
 10
33.6070604415
 20
4.0146164462
 10
33.4306526121
 20
3.0527116877
 10
33.266309568
 20
2.1045491554
 10
33.1138752223
 20
1.1702484644
 10
32.9731704513
 20
0.2499185507
 10
32.8559748999
 20
-0.5693383452
  0
LWPOLYLINE
  5
593
100
AcDbEntity
  8
RACCORDO
100
AcDbPolyline
 62
250
  6
CONTINUOUS
 90
19
 70
0
 10
34.5225694242
 20
7.8104028312
 10
34.5300884182
 20
7.8418865544
 10
34.5390356874
 20
7.8734600449
 10
34.5493438821
 20
7.9049696941
 10
34.560917225
 20
7.9362040936
 10
34.5736975799
 20
7.9670833264
 10
34.5876900284
 20
7.997654779
 10
34.6028386033
 20
8.0277923866
 10
34.6190688884
 20
8.0573448316
 10
34.6363876358
 20
8.0863113591
 10
34.6546684452
 20
8.1144568175
 10
34.6738952316
 20
8.1417348823
 10
34.6942808846
 20
8.16837325
 10
34.7158926828
 20
8.1943142507
 10
34.7385455676
 20
8.2191929741
 10
34.7620832147
 20
8.2427304828
 10
34.7863773226
 20
8.2647008842
 10
34.8113332203
 20
8.2849176964
 10
34.8368196368
 20
8.3031722698
  0
LWPOLYLINE
  5
594
100
AcDbEntity
  8
RACCORDO
100
AcDbPolyline
 62
250
  6
CONTINUOUS
 90
4
 70
0
 10
-38.4185112908
 20
55.0477780995
 10
-38.3755435227
 20
55.0264935742
 10
-38.3308044334
 20
55.0031350061
 10
-38.2841019003
 20
54.9776386719
  0
LINE
  5
595
100
AcDbEntity
  8
RACCORDO
100
AcDbLine
 62
7
  6
CONTINUOUS
 10
-45.3475063257
 20
67.4685560011
 11
56.6326792088
 21
8.5864749854
  0
LWPOLYLINE
  5
596
100
AcDbEntity
  8
RACCORDO
100
AcDbPolyline
 62
250
  6
CONTINUOUS
 90
18
 70
0
 10
38.1691009729
 20
10.6242636888
 10
38.1519551722
 20
10.6433120939
 10
38.0990244224
 20
10.6988202762
 10
38.0436624636
 20
10.7539178927
 10
37.9868258256
 20
10.8078637164
 10
37.9285271552
 20
10.8607633448
 10
37.8689011981
 20
10.9126757533
 10
37.8091147946
 20
10.9628261381
 10
37.7495096707
 20
11.0110740071
 10
37.6898884125
 20
11.0577337875
 10
37.6306129718
 20
11.1027204931
 10
37.5718725701
 20
11.1460252475
 10
37.5135808796
 20
11.1877870133
 10
37.4556765735
 20
11.228131339
 10
37.3978439321
 20
11.2673445562
 10
37.340466181
 20
11.3052287145
 10
37.2845243022
 20
11.3411756743
 10
37.2303589926
 20
11.3750011194
  0
LINE
  5
597
100
AcDbEntity
  8
RACCORDO
100
AcDbLine
 62
250
  6
CONTINUOUS
 10
37.4002833187
 20
-3.0267781402
 11
37.3397180786
 21
-2.8038767577
  0
LINE
  5
598
100
AcDbEntity
  8
RACCORDO
100
AcDbLine
 62
250
  6
CONTINUOUS
 10
38.2025526993
 20
-3.3839037503
 11
38.1426314944
 21
-3.163372644
  0
LWPOLYLINE
  5
599
100
AcDbEntity
  8
RACCORDO
100
AcDbPolyline
 62
250
  6
CONTINUOUS
 90
32
 70
0
 10
42.3161684886
 20
-58.8166838906
 10
42.2252351509
 20
-58.2568100121
 10
42.1387056203
 20
-57.7012194064
 10
42.0565798966
 20
-57.1499120736
 10
41.9792676861
 20
-56.6054126809
 10
41.9063592827
 20
-56.065196561
 10
41.8366255679
 20
-55.5216897119
 10
41.7696159572
 20
-54.9718592043
 10
41.7057810353
 20
-54.4187379674
 10
41.645243437
 20
-53.8638507865
 10
41.5880889239
 20
-53.3076734295
 10
41.5342317345
 20
-52.7497301284
 10
41.48353722
 20
-52.1901183643
 10
41.436039025
 20
-51.6289196388
 10
41.391703505
 20
-51.0660524502
 10
41.3502950774
 20
-50.5013697742
 10
41.3118466079
 20
-49.9348423287
 10
41.2763252309
 20
-49.3664993959
 10
41.2433967674
 20
-48.7962817975
 10
41.2130873917
 20
-48.2240213667
 10
41.1853709295
 20
-47.6498862703
 10
41.1598346792
 20
-47.0743218313
 10
41.1364533908
 20
-46.4972666846
 10
41.1152523144
 20
-45.9187821953
 10
41.0958944981
 20
-45.3394977816
 10
41.0783727851
 20
-44.7595678476
 10
41.0626943322
 20
-44.1788379893
 10
41.0485436582
 20
-43.5974744125
 10
41.0359180049
 20
-43.0155934714
 10
41.0248201307
 20
-42.4330788119
 10
41.014942829
 20
-41.849747578
 10
41.0062809198
 20
-41.2657120716
  0
LINE
  5
59A
100
AcDbEntity
  8
RACCORDO
100
AcDbLine
 62
7
  6
CONTINUOUS
 10
42.7410512336
 20
-60.1880029722
 11
42.7410411198
 21
-60.1879405715
  0
LWPOLYLINE
  5
59B
100
AcDbEntity
  8
RACCORDO
100
AcDbPolyline
 62
250
  6
CONTINUOUS
 90
33
 70
0
 10
41.6654720275
 20
-58.9021719145
 10
41.5760163823
 20
-58.3408816169
 10
41.4911116999
 20
-57.7836450116
 10
41.4106366722
 20
-57.2305608569
 10
41.334820446
 20
-56.684299917
 10
41.2631614401
 20
-56.1424132193
 10
41.1945687209
 20
-55.5972169574
 10
41.1286812426
 20
-55.0455994574
 10
41.0659026832
 20
-54.4906376861
 10
41.0063846803
 20
-53.9338530623
 10
40.9501453227
 20
-53.3757726707
 10
40.8970952695
 20
-52.8159274336
 10
40.8471990141
 20
-52.2543656925
 10
40.8004207617
 20
-51.6912272445
 10
40.7566798199
 20
-51.1264671258
 10
40.7158721469
 20
-50.5598575048
 10
40.6779361711
 20
-49.9914397636
 10
40.6428011822
 20
-49.4212802121
 10
40.6103303956
 20
-48.8492039062
 10
40.5803938846
 20
-48.2751865829
 10
40.5528631204
 20
-47.6994629164
 10
40.5275676485
 20
-47.1222754866
 10
40.5043639877
 20
-46.543659412
 10
40.4831462864
 20
-45.9637825583
 10
40.4638100199
 20
-45.383078904
 10
40.446259558
 20
-44.8017648426
 10
40.43039853
 20
-44.2197802904
 10
40.416120737
 20
-43.6371449683
 10
40.4033350146
 20
-43.0540488065
 10
40.3919448373
 20
-42.4704546751
 10
40.3818409145
 20
-41.8860376754
 10
40.372938252
 20
-41.300975482
 10
40.3651483994
 20
-40.7152316232
  0
LINE
  5
59C
100
AcDbEntity
  8
RACCORDO
100
AcDbLine
 62
250
  6
CONTINUOUS
 10
42.730607294
 20
-59.5201365299
 11
42.85371595
 21
-60.315515929
  0
LWPOLYLINE
  5
59D
100
AcDbEntity
  8
RACCORDO
100
AcDbPolyline
 62
7
  6
CONTINUOUS
 90
19
 70
0
 10
42.5065207621
 20
-58.6534915577
 10
42.7542380119
 20
-60.2761461831
 10
42.7708272654
 20
-60.4186379446
 10
42.7809876584
 20
-60.5575189873
 10
42.7846589399
 20
-60.6923918141
 10
42.7818117624
 20
-60.8227788633
 10
42.7724672058
 20
-60.9480782085
 10
42.7566828919
 20
-61.0678823427
 10
42.7345496118
 20
-61.1818297203
 10
42.7062318888
 20
-61.2893874321
 10
42.6719305951
 20
-61.3901845066
 10
42.6318243876
 20
-61.4840623988
 10
42.586087016
 20
-61.5708797925
 10
42.5350142665
 20
-61.6503796721
 10
42.478682707
 20
-61.7227020243
 10
42.4167487927
 20
-61.7883195724
 10
42.3489760531
 20
-61.8473295546
 10
42.2753918732
 20
-61.8995270856
 10
42.2552507788
 20
-61.9120038427
  0
LWPOLYLINE
  5
59E
100
AcDbEntity
  8
RACCORDO
100
AcDbPolyline
 62
250
  6
CONTINUOUS
 90
22
 70
0
 10
42.85371595
 20
-60.315515929
 10
42.8743471994
 20
-60.4628987638
 10
42.8889071707
 20
-60.6063866135
 10
42.8974177002
 20
-60.7459617009
 10
42.8998911073
 20
-60.8817118303
 10
42.8963608285
 20
-61.0135119471
 10
42.8868788479
 20
-61.1410262298
 10
42.871431453
 20
-61.2643782776
 10
42.850076133
 20
-61.3834088523
 10
42.822963456
 20
-61.4973645662
 10
42.79012158
 20
-61.6060873988
 10
42.7515519585
 20
-61.7097112635
 10
42.7073555045
 20
-61.8079284887
 10
42.6575052242
 20
-61.9007963949
 10
42.6020508384
 20
-61.9882391592
 10
42.5411988116
 20
-62.0697571446
 10
42.4748381314
 20
-62.145359945
 10
42.4030870641
 20
-62.2150320609
 10
42.3264799105
 20
-62.2782493086
 10
42.2451850279
 20
-62.3348448919
 10
42.1590149159
 20
-62.3850011915
 10
42.0679595583
 20
-62.4287263616
  0
LINE
  5
59F
100
AcDbEntity
  8
RACCORDO
100
AcDbLine
 62
250
  6
CONTINUOUS
 10
41.0062809198
 20
-41.2657120716
 11
40.9923271533
 21
-40.0946715742
  0
LWPOLYLINE
  5
5A0
100
AcDbEntity
  8
RACCORDO
100
AcDbPolyline
 62
250
  6
CONTINUOUS
 90
30
 70
0
 10
41.4907393608
 20
-39.7967579301
 10
41.4976972984
 20
-40.4811847878
 10
41.5058380274
 20
-41.1668652867
 10
41.5152681933
 20
-41.8517723375
 10
41.5260984436
 20
-42.5353966344
 10
41.5384524538
 20
-43.2180567185
 10
41.5524443427
 20
-43.8989770961
 10
41.5681773648
 20
-44.577469524
 10
41.5857827452
 20
-45.2540313533
 10
41.605423871
 20
-45.9296595293
 10
41.6272318608
 20
-46.6044734484
 10
41.6513337465
 20
-47.2781435512
 10
41.6779216588
 20
-47.9509649595
 10
41.7072110951
 20
-48.6229271396
 10
41.7394239016
 20
-49.2936845796
 10
41.7748187225
 20
-49.9629835361
 10
41.8136625921
 20
-50.6314244632
 10
41.8560479903
 20
-51.298114223
 10
41.9019324068
 20
-51.9605906973
 10
41.951160133
 20
-52.6158461643
 10
42.003995204
 20
-53.2668001562
 10
42.0610615475
 20
-53.9198514583
 10
42.1222736215
 20
-54.5728839664
 10
42.187930932
 20
-55.2278395946
 10
42.2595388244
 20
-55.8969567917
 10
42.3374666567
 20
-56.5802840556
 10
42.4220417096
 20
-57.2772057483
 10
42.5151609365
 20
-57.9985939194
 10
42.6179697564
 20
-58.7476548651
 10
42.730607294
 20
-59.5201365299
  0
LINE
  5
5A1
100
AcDbEntity
  8
RACCORDO
100
AcDbLine
 62
250
  6
CONTINUOUS
 10
40.3651483994
 20
-40.7152316232
 11
40.3525031353
 21
-39.539534951
  0
LINE
  5
5A2
100
AcDbEntity
  8
RACCORDO
100
AcDbLine
 62
250
  6
CONTINUOUS
 10
40.9923271533
 20
-40.0946715742
 11
40.982069751
 21
-38.9177439127
  0
LINE
  5
5A3
100
AcDbEntity
  8
RACCORDO
100
AcDbLine
 62
250
  6
CONTINUOUS
 10
41.4799060461
 20
-38.4364013576
 11
41.4907393608
 21
-39.7967579301
  0
LINE
  5
5A4
100
AcDbEntity
  8
RACCORDO
100
AcDbLine
 62
250
  6
CONTINUOUS
 10
40.3525031353
 20
-39.539534951
 11
40.3432059433
 21
-38.3588629786
  0
LINE
  5
5A5
100
AcDbEntity
  8
RACCORDO
100
AcDbLine
 62
250
  6
CONTINUOUS
 10
40.982069751
 20
-38.9177439127
 11
40.9747267965
 21
-37.7382631455
  0
LINE
  5
5A6
100
AcDbEntity
  8
RACCORDO
100
AcDbLine
 62
250
  6
CONTINUOUS
 10
40.3432059433
 20
-38.3588629786
 11
40.3366107786
 21
-37.178084081
  0
LINE
  5
5A7
100
AcDbEntity
  8
RACCORDO
100
AcDbLine
 62
250
  6
CONTINUOUS
 10
41.47232822
 20
-37.0708529686
 11
41.4799060461
 21
-38.4364013576
  0
LINE
  5
5A8
100
AcDbEntity
  8
RACCORDO
100
AcDbLine
 62
250
  6
CONTINUOUS
 10
40.9747267965
 20
-37.7382631455
 11
40.9698113377
 21
-36.5510752221
  0
LINE
  5
5A9
100
AcDbEntity
  8
RACCORDO
100
AcDbLine
 62
250
  6
CONTINUOUS
 10
40.3366107786
 20
-37.178084081
 11
40.3320897955
 21
-35.9778525165
  0
LINE
  5
5AA
100
AcDbEntity
  8
RACCORDO
100
AcDbLine
 62
250
  6
CONTINUOUS
 10
41.4672660146
 20
-35.6843908612
 11
41.47232822
 21
-37.0708529686
  0
LINE
  5
5AB
100
AcDbEntity
  8
RACCORDO
100
AcDbLine
 62
250
  6
CONTINUOUS
 10
40.9698113377
 20
-36.5510752221
 11
40.9666386558
 21
-35.3396438049
  0
LINE
  5
5AC
100
AcDbEntity
  8
RACCORDO
100
AcDbLine
 62
250
  6
CONTINUOUS
 10
40.3320897955
 20
-35.9778525165
 11
40.3281067686
 21
-34.1063311064
  0
LINE
  5
5AD
100
AcDbEntity
  8
RACCORDO
100
AcDbLine
 62
250
  6
CONTINUOUS
 10
41.4629022642
 20
-33.4845319309
 11
41.4672660146
 21
-35.6843908612
  0
LINE
  5
5AE
100
AcDbEntity
  8
RACCORDO
100
AcDbLine
 62
250
  6
CONTINUOUS
 10
40.9666386558
 20
-35.3396438049
 11
40.9640038508
 21
-33.4253622736
  0
LINE
  5
5AF
100
AcDbEntity
  8
RACCORDO
100
AcDbLine
 62
250
  6
CONTINUOUS
 10
40.3281067686
 20
-34.1063311064
 11
40.326257254
 21
-32.0790971497
  0
LWPOLYLINE
  5
5B0
100
AcDbEntity
  8
RACCORDO
100
AcDbPolyline
 62
7
  6
CONTINUOUS
 90
15
 70
0
 10
41.3329277113
 20
-30.9332245802
 10
41.334054507
 20
-33.1504188878
 10
41.3378656773
 20
-35.3940761265
 10
41.3461522062
 20
-37.5974166133
 10
41.3615932125
 20
-39.7588191309
 10
41.3870920785
 20
-41.8765035898
 10
41.4257014379
 20
-43.9485218959
 10
41.4802233664
 20
-45.9729733125
 10
41.553277596
 20
-47.9480046163
 10
41.6481105839
 20
-49.8713343044
 10
41.7682132464
 20
-51.7401841121
 10
41.9147406371
 20
-53.5530767652
 10
42.0874246636
 20
-55.3094544861
 10
42.2851644108
 20
-57.0094309519
 10
42.5065207621
 20
-58.6534915577
  0
LINE
  5
5B1
100
AcDbEntity
  8
RACCORDO
100
AcDbLine
 62
250
  6
CONTINUOUS
 10
40.9640038508
 20
-33.4253622736
 11
40.96309488
 21
-31.3299194973
  0
LINE
  5
5B2
100
AcDbEntity
  8
RACCORDO
100
AcDbLine
 62
250
  6
CONTINUOUS
 10
41.4613788621
 20
-31.0753084415
 11
41.4629022642
 21
-33.4845319309
  0
LINE
  5
5B3
100
AcDbEntity
  8
RACCORDO
100
AcDbLine
 62
7
  6
CONTINUOUS
 10
37.3761139577
 20
10.6282199936
 11
37.3761139577
 21
10.0991797015
  0
LINE
  5
5B4
100
AcDbEntity
  8
RACCORDO
100
AcDbLine
 62
250
  6
CONTINUOUS
 10
40.326257254
 20
-32.0790971497
 11
40.3259778232
 21
-30.6140350128
  0
LINE
  5
5B5
100
AcDbEntity
  8
RACCORDO
100
AcDbLine
 62
250
  6
CONTINUOUS
 10
40.96309488
 20
-31.3299194973
 11
40.9636571168
 21
-28.2263416387
  0
LINE
  5
5B6
100
AcDbEntity
  8
RACCORDO
100
AcDbLine
 62
250
  6
CONTINUOUS
 10
40.3259778275
 20
-30.6140350038
 11
40.3267117518
 21
-28.4015206708
  0
LINE
  5
5B7
100
AcDbEntity
  8
RACCORDO
100
AcDbLine
 62
250
  6
CONTINUOUS
 10
41.4633760806
 20
-28.311213073
 11
41.4613789227
 21
-31.0753084102
  0
LINE
  5
5B8
100
AcDbEntity
  8
RACCORDO
100
AcDbLine
 62
250
  6
CONTINUOUS
 10
40.9636571168
 20
-28.2263416387
 11
40.9654641146
 21
-26.4966264596
  0
LINE
  5
5B9
100
AcDbEntity
  8
RACCORDO
100
AcDbLine
 62
250
  6
CONTINUOUS
 10
40.3267117518
 20
-28.4015206708
 11
40.3286301757
 21
-26.7810226795
  0
LINE
  5
5BA
100
AcDbEntity
  8
RACCORDO
100
AcDbLine
 62
250
  6
CONTINUOUS
 10
40.9654641146
 20
-26.4966264596
 11
40.9677372028
 21
-25.3334568424
  0
LINE
  5
5BB
100
AcDbEntity
  8
RACCORDO
100
AcDbLine
 62
250
  6
CONTINUOUS
 10
41.4667694379
 20
-26.6400918127
 11
41.4633760806
 21
-28.311213073
  0
LINE
  5
5BC
100
AcDbEntity
  8
RACCORDO
100
AcDbLine
 62
250
  6
CONTINUOUS
 10
40.3286301757
 20
-26.7810226795
 11
40.3323909499
 21
-25.1479368733
  0
LINE
  5
5BD
100
AcDbEntity
  8
RACCORDO
100
AcDbLine
 62
250
  6
CONTINUOUS
 10
40.9677372028
 20
-25.3334568424
 11
40.971396836
 21
-24.1686684922
  0
LINE
  5
5BE
100
AcDbEntity
  8
RACCORDO
100
AcDbLine
 62
250
  6
CONTINUOUS
 10
41.4723383085
 20
-25.0668468101
 11
41.4667694379
 21
-26.6400918127
  0
LINE
  5
5BF
100
AcDbEntity
  8
RACCORDO
100
AcDbLine
 62
250
  6
CONTINUOUS
 10
40.3323909499
 20
-25.1479368733
 11
40.3365430622
 21
-24.0563002685
  0
LINE
  5
5C0
100
AcDbEntity
  8
RACCORDO
100
AcDbLine
 62
250
  6
CONTINUOUS
 10
40.971396836
 20
-24.1686684922
 11
40.9770469582
 21
-23.0028714537
  0
LINE
  5
5C1
100
AcDbEntity
  8
RACCORDO
100
AcDbLine
 62
250
  6
CONTINUOUS
 10
40.3365430622
 20
-24.0563002685
 11
40.3424919609
 21
-22.9638854787
  0
LINE
  5
5C2
100
AcDbEntity
  8
RACCORDO
100
AcDbLine
 62
250
  6
CONTINUOUS
 10
40.9770469582
 20
-23.0028714537
 11
40.9851184603
 21
-21.8363323341
  0
LINE
  5
5C3
100
AcDbEntity
  8
RACCORDO
100
AcDbLine
 62
250
  6
CONTINUOUS
 10
40.3424919609
 20
-22.9638854787
 11
40.3506713276
 21
-21.8707196735
  0
LWPOLYLINE
  5
5C4
100
AcDbEntity
  8
RACCORDO
100
AcDbPolyline
 62
250
  6
CONTINUOUS
 90
27
 70
0
 10
40.9851184603
 20
-21.8363323341
 10
40.9962941359
 20
-20.6690942598
 10
41.003334042
 20
-20.0846234915
 10
41.0114319743
 20
-19.4993175022
 10
41.0205903089
 20
-18.913283563
 10
41.0310932451
 20
-18.3263630992
 10
41.0429403249
 20
-17.7384531345
 10
41.0561320062
 20
-17.1496566452
 10
41.0709538621
 20
-16.5601239858
 10
41.0873937758
 20
-15.9701180583
 10
41.105463864
 20
-15.3793759606
 10
41.1254860502
 20
-14.7872593406
 10
41.1474014299
 20
-14.1942126242
 10
41.1712689076
 20
-13.5997913855
 10
41.1975871202
 20
-13.0020239951
 10
41.2263084962
 20
-12.4010575296
 10
41.257480607
 20
-11.7967449125
 10
41.2917448042
 20
-11.1866732843
 10
41.329023786
 20
-10.5716914285
 10
41.3693948541
 20
-9.9509505617
 10
41.4137312657
 20
-9.3194914748
 10
41.4618242417
 20
-8.6785098641
 10
41.5138825611
 20
-8.0268100334
 10
41.5714058181
 20
-7.355845685
 10
41.6348938774
 20
-6.662768053
 10
41.7038468742
 20
-5.9504259032
 10
41.7782648086
 20
-5.2188192358
  0
LINE
  5
5C5
100
AcDbEntity
  8
RACCORDO
100
AcDbLine
 62
250
  6
CONTINUOUS
 10
40.3506713276
 20
-21.8707196735
 11
40.3615937797
 21
-20.7764369297
  0
LWPOLYLINE
  5
5C6
100
AcDbEntity
  8
RACCORDO
100
AcDbPolyline
 62
250
  6
CONTINUOUS
 90
27
 70
0
 10
40.3615937797
 20
-20.7764369297
 10
40.3758343721
 20
-19.6799034201
 10
40.384382815
 20
-19.1305562769
 10
40.3939825291
 20
-18.5802782071
 10
40.4047015262
 20
-18.0291405478
 10
40.4166175268
 20
-17.4772651662
 10
40.4298023162
 20
-16.9246633368
 10
40.4443287269
 20
-16.3712487326
 10
40.4602760723
 20
-15.8169968067
 10
40.477704785
 20
-15.2621521385
 10
40.4966986399
 20
-14.706395309
 10
40.5173789456
 20
-14.1488521499
 10
40.5398171165
 20
-13.5897318744
 10
40.5641403451
 20
-13.028722198
 10
40.5905790081
 20
-12.4641535235
 10
40.6192544779
 20
-11.8961287899
 10
40.6503116714
 20
-11.3244068616
 10
40.6840542756
 20
-10.7467823123
 10
40.7205597237
 20
-10.1639300315
 10
40.7599815734
 20
-9.5750552519
 10
40.8027927298
 20
-8.9757195017
 10
40.8490976841
 20
-8.3666764403
 10
40.8991441558
 20
-7.7469896209
 10
40.9537599066
 20
-7.1096127492
 10
41.013437597
 20
-6.4520845786
 10
41.0782399099
 20
-5.7765781482
 10
41.1484491898
 20
-5.0829469292
  0
LWPOLYLINE
  5
5C7
100
AcDbEntity
  8
RACCORDO
100
AcDbPolyline
 62
250
  6
CONTINUOUS
 90
12
 70
0
 10
41.8979216156
 20
-4.6606101527
 10
41.8965009202
 20
-4.6844578194
 10
41.8966335172
 20
-4.7071648166
 10
41.8983182416
 20
-4.7285329629
 10
41.9015403814
 20
-4.7483757636
 10
41.9062718064
 20
-4.7665200396
 10
41.9124712139
 20
-4.782807438
 10
41.9200844888
 20
-4.7970958125
 10
41.929045177
 20
-4.8092604659
 10
41.9392750665
 20
-4.8191952388
 10
41.9506848668
 20
-4.8268134313
 10
41.9562673395
 20
-4.8295057373
  0
LWPOLYLINE
  5
5C8
100
AcDbEntity
  8
RACCORDO
100
AcDbPolyline
 62
7
  6
CONTINUOUS
 90
13
 70
0
 10
42.1384529492
 20
-5.1313034264
 10
41.9655361221
 20
-7.0081501515
 10
41.8104933174
 20
-8.992715473
 10
41.6813596548
 20
-11.0142629197
 10
41.5779223867
 20
-13.0721834252
 10
41.4977393694
 20
-15.1671667055
 10
41.4372989838
 20
-17.3007893787
 10
41.3940871542
 20
-19.474238247
 10
41.3653061619
 20
-21.6888796992
 10
41.3478289155
 20
-23.9463778079
 10
41.3384274406
 20
-26.2485669115
 10
41.3341820953
 20
-28.5971775256
 10
41.3329277092
 20
-30.9332131247
  0
LWPOLYLINE
  5
5C9
100
AcDbEntity
  8
RACCORDO
100
AcDbPolyline
 62
250
  6
CONTINUOUS
 90
26
 70
0
 10
42.2613440262
 20
-5.26990036
 10
42.1816188991
 20
-6.1145649891
 10
42.1083320946
 20
-6.9429659507
 10
42.0411922688
 20
-7.7552544442
 10
41.9801839432
 20
-8.5481056425
 10
41.9247194971
 20
-9.3251573641
 10
41.8737866688
 20
-10.0969335239
 10
41.8270373851
 20
-10.8665889282
 10
41.7845159138
 20
-11.6311264369
 10
41.7459517647
 20
-12.3917625076
 10
41.7111137753
 20
-13.1481460018
 10
41.6796895495
 20
-13.9009101494
 10
41.6512615653
 20
-14.6527610281
 10
41.6255574916
 20
-15.4046286257
 10
41.602447473
 20
-16.1557916777
 10
41.5817608007
 20
-16.9064622059
 10
41.5633241919
 20
-17.6578234444
 10
41.5470247485
 20
-18.4088406788
 10
41.5327575846
 20
-19.1564118546
 10
41.5203709457
 20
-19.8995665044
 10
41.5096850286
 20
-20.6394471645
 10
41.5005330977
 20
-21.376131549
 10
41.4928002765
 20
-22.1056404421
 10
41.4862881475
 20
-22.8321156502
 10
41.4807630629
 20
-23.5677861126
 10
41.4723383085
 20
-25.0668468101
  0
LWPOLYLINE
  5
5CA
100
AcDbEntity
  8
RACCORDO
100
AcDbPolyline
 62
250
  6
CONTINUOUS
 90
11
 70
0
 10
50.127889562
 20
-56.5320320189
 10
50.1540093275
 20
-57.0221331817
 10
50.1821299723
 20
-57.5284948191
 10
50.212259551
 20
-58.0509282852
 10
50.2447705776
 20
-58.5894905908
 10
50.2796195772
 20
-59.1439472959
 10
50.3168500247
 20
-59.7145328406
 10
50.3569648594
 20
-60.3020075559
 10
50.4001317279
 20
-60.9066248858
 10
50.4461829836
 20
-61.5281313864
 10
50.4951186265
 20
-62.1665270577
  0
LWPOLYLINE
  5
5CB
100
AcDbEntity
  8
RACCORDO
100
AcDbPolyline
 62
250
  6
CONTINUOUS
 90
10
 70
0
 10
49.5277598052
 20
-57.0773230138
 10
49.5543735076
 20
-57.5840750534
 10
49.5829651426
 20
-58.1067946498
 10
49.6136488725
 20
-58.6457010511
 10
49.6465127795
 20
-59.2004450563
 10
49.6817044978
 20
-59.7711839675
 10
49.7194439074
 20
-60.3588834443
 10
49.7599049375
 20
-60.9637834446
 10
49.8032076669
 20
-61.5854046558
 10
49.849504283
 20
-62.2236231806
  0
LWPOLYLINE
  5
5CC
100
AcDbEntity
  8
RACCORDO
100
AcDbPolyline
 62
250
  6
CONTINUOUS
 90
39
 70
0
 10
49.849504283
 20
-62.2236231806
 10
49.8583429365
 20
-62.4014744205
 10
49.8604315167
 20
-62.5725069547
 10
49.8557951816
 20
-62.7367003017
 10
49.8443514741
 20
-62.8932330459
 10
49.8262292608
 20
-63.0428888205
 10
49.8017758842
 20
-63.1880504853
 10
49.7710706508
 20
-63.3296957486
 10
49.7340938501
 20
-63.4667983842
 10
49.6910466542
 20
-63.5987334325
 10
49.6419223396
 20
-63.7254636435
 10
49.5867749014
 20
-63.8469877828
 10
49.5258873893
 20
-63.9627424034
 10
49.4592551554
 20
-64.0726822373
 10
49.3869167407
 20
-64.1768249598
 10
49.3092094569
 20
-64.2747101045
 10
49.226154444
 20
-64.3662901965
 10
49.1377495821
 20
-64.4515972263
 10
49.0442870974
 20
-64.5302982256
 10
48.9458373347
 20
-64.6023702716
 10
48.842334405
 20
-64.6678326596
 10
48.7338584974
 20
-64.7264220059
 10
48.6204720318
 20
-64.7781857852
 10
48.5021078684
 20
-64.8230803653
 10
48.3786462952
 20
-64.8607102306
 10
48.2500245524
 20
-64.8911575146
 10
48.1162910273
 20
-64.9143517845
 10
47.9774837763
 20
-64.9296759644
 10
47.8333909822
 20
-64.9371401069
 10
47.6841911964
 20
-64.9367612413
 10
47.5304910667
 20
-64.9279465639
 10
47.3720932696
 20
-64.9106120075
 10
47.2091318769
 20
-64.8848931333
 10
47.0426889681
 20
-64.8505442149
 10
46.8726196023
 20
-64.8074524307
 10
46.6989768165
 20
-64.7558054223
 10
46.5231215959
 20
-64.695822862
 10
46.3454688215
 20
-64.6276095458
 10
46.1654950455
 20
-64.551149063
  0
LWPOLYLINE
  5
5CD
100
AcDbEntity
  8
RACCORDO
100
AcDbPolyline
 62
250
  6
CONTINUOUS
 90
22
 70
0
 10
50.4951186265
 20
-62.1665270577
 10
50.5047811352
 20
-62.3612932275
 10
50.5064415772
 20
-62.5486022711
 10
50.5004862584
 20
-62.7283704778
 10
50.4873692604
 20
-62.8995460854
 10
50.467488661
 20
-63.0631827427
 10
50.4408083863
 20
-63.2221291383
 10
50.4071921574
 20
-63.3770549777
 10
50.3668229647
 20
-63.5267350218
 10
50.3198186717
 20
-63.6709106544
 10
50.2662644375
 20
-63.80935903
 10
50.2062511433
 20
-63.9418606375
 10
50.1399204397
 20
-64.06817776
 10
50.067394017
 20
-64.1881047245
 10
49.9887825232
 20
-64.3014684643
 10
49.9042236576
 20
-64.4080953519
 10
49.8138868808
 20
-64.5077869558
 10
49.7178823238
 20
-64.6004255662
 10
49.6162538704
 20
-64.68595028
 10
49.5092187306
 20
-64.7641567
 10
49.396859222
 20
-64.8349579313
 10
49.3383897141
 20
-64.8677237578
  0
LINE
  5
5CE
100
AcDbEntity
  8
RACCORDO
100
AcDbLine
 62
250
  6
CONTINUOUS
 10
50.0813284818
 20
-55.5994222306
 11
50.127889562
 21
-56.5320320189
  0
LINE
  5
5CF
100
AcDbEntity
  8
RACCORDO
100
AcDbLine
 62
250
  6
CONTINUOUS
 10
49.4800814502
 20
-56.1123991432
 11
49.5277598052
 21
-57.0773230138
  0
LINE
  5
5D0
100
AcDbEntity
  8
RACCORDO
100
AcDbLine
 62
250
  6
CONTINUOUS
 10
50.0414213947
 20
-54.7298094269
 11
50.0813284818
 21
-55.5994222306
  0
LINE
  5
5D1
100
AcDbEntity
  8
RACCORDO
100
AcDbLine
 62
250
  6
CONTINUOUS
 10
49.4390827143
 20
-55.2103821701
 11
49.4800814502
 21
-56.1123991432
  0
LINE
  5
5D2
100
AcDbEntity
  8
RACCORDO
100
AcDbLine
 62
250
  6
CONTINUOUS
 10
50.0070537911
 20
-53.9153283844
 11
50.0414213947
 21
-54.7298094269
  0
LINE
  5
5D3
100
AcDbEntity
  8
RACCORDO
100
AcDbLine
 62
250
  6
CONTINUOUS
 10
49.4039374868
 20
-54.3683986336
 11
49.4390827143
 21
-55.2103821701
  0
LINE
  5
5D4
100
AcDbEntity
  8
RACCORDO
100
AcDbLine
 62
250
  6
CONTINUOUS
 10
49.9775099535
 20
-53.149293767
 11
50.0070537911
 21
-53.9153283844
  0
LINE
  5
5D5
100
AcDbEntity
  8
RACCORDO
100
AcDbLine
 62
250
  6
CONTINUOUS
 10
49.3737686464
 20
-53.579710377
 11
49.4039374868
 21
-54.3683986336
  0
LINE
  5
5D6
100
AcDbEntity
  8
RACCORDO
100
AcDbLine
 62
250
  6
CONTINUOUS
 10
49.9517062481
 20
-52.4182866644
 11
49.9775099535
 21
-53.149293767
  0
LINE
  5
5D7
100
AcDbEntity
  8
RACCORDO
100
AcDbLine
 62
250
  6
CONTINUOUS
 10
49.3475804314
 20
-52.8303324495
 11
49.3737686464
 21
-53.579710377
  0
LINE
  5
5D8
100
AcDbEntity
  8
RACCORDO
100
AcDbLine
 62
250
  6
CONTINUOUS
 10
49.9287776516
 20
-51.7091951291
 11
49.9517062481
 21
-52.4182866644
  0
LINE
  5
5D9
100
AcDbEntity
  8
RACCORDO
100
AcDbLine
 62
250
  6
CONTINUOUS
 10
49.3247048336
 20
-52.1118566851
 11
49.3475804314
 21
-52.8303324495
  0
LINE
  5
5DA
100
AcDbEntity
  8
RACCORDO
100
AcDbLine
 62
250
  6
CONTINUOUS
 10
49.898628804
 20
-50.6701351622
 11
49.9287776516
 21
-51.7091951291
  0
LINE
  5
5DB
100
AcDbEntity
  8
RACCORDO
100
AcDbLine
 62
250
  6
CONTINUOUS
 10
49.2948456768
 20
-51.0641797814
 11
49.3247048336
 21
-52.1118566851
  0
LINE
  5
5DC
100
AcDbEntity
  8
RACCORDO
100
AcDbLine
 62
250
  6
CONTINUOUS
 10
49.8721845119
 20
-49.6413173809
 11
49.898628804
 21
-50.6701351622
  0
LINE
  5
5DD
100
AcDbEntity
  8
RACCORDO
100
AcDbLine
 62
250
  6
CONTINUOUS
 10
49.2607906318
 20
-49.689414439
 11
49.2948456768
 21
-51.0641797814
  0
LINE
  5
5DE
100
AcDbEntity
  8
RACCORDO
100
AcDbLine
 62
250
  6
CONTINUOUS
 10
49.8412107769
 20
-48.2662622239
 11
49.8721845119
 21
-49.6413173809
  0
LINE
  5
5DF
100
AcDbEntity
  8
RACCORDO
100
AcDbLine
 62
250
  6
CONTINUOUS
 10
49.2311978457
 20
-48.3134382569
 11
49.2607906318
 21
-49.689414439
  0
LINE
  5
5E0
100
AcDbEntity
  8
RACCORDO
100
AcDbLine
 62
250
  6
CONTINUOUS
 10
49.8075545247
 20
-46.5151083875
 11
49.8412107769
 21
-48.2662622239
  0
LINE
  5
5E1
100
AcDbEntity
  8
RACCORDO
100
AcDbLine
 62
250
  6
CONTINUOUS
 10
49.1986637379
 20
-46.5612682468
 11
49.2311978457
 21
-48.3134382569
  0
LINE
  5
5E2
100
AcDbEntity
  8
RACCORDO
100
AcDbLine
 62
250
  6
CONTINUOUS
 10
49.7724544526
 20
-44.3461180825
 11
49.8075545247
 21
-46.5151083875
  0
LINE
  5
5E3
100
AcDbEntity
  8
RACCORDO
100
AcDbLine
 62
250
  6
CONTINUOUS
 10
49.1643884837
 20
-44.3913030026
 11
49.1986637379
 21
-46.5612682468
  0
LINE
  5
5E4
100
AcDbEntity
  8
RACCORDO
100
AcDbLine
 62
250
  6
CONTINUOUS
 10
49.7431102855
 20
-42.131724118
 11
49.7724544526
 21
-44.3461180825
  0
LINE
  5
5E5
100
AcDbEntity
  8
RACCORDO
100
AcDbLine
 62
250
  6
CONTINUOUS
 10
49.1355743658
 20
-42.1757673383
 11
49.1643884837
 21
-44.3913030026
  0
LINE
  5
5E6
100
AcDbEntity
  8
RACCORDO
100
AcDbLine
 62
250
  6
CONTINUOUS
 10
49.7208378103
 20
-39.9347690761
 11
49.7431102855
 21
-42.131724118
  0
LINE
  5
5E7
100
AcDbEntity
  8
RACCORDO
100
AcDbLine
 62
250
  6
CONTINUOUS
 10
49.1136303068
 20
-39.9775250301
 11
49.1355743658
 21
-42.1757673383
  0
LINE
  5
5E8
100
AcDbEntity
  8
RACCORDO
100
AcDbLine
 62
250
  6
CONTINUOUS
 10
49.7061178518
 20
-37.8065932213
 11
49.7208378103
 21
-39.9347690761
  0
LINE
  5
5E9
100
AcDbEntity
  8
RACCORDO
100
AcDbLine
 62
250
  6
CONTINUOUS
 10
49.0990547219
 20
-37.8479650108
 11
49.1136303068
 21
-39.9775250301
  0
LINE
  5
5EA
100
AcDbEntity
  8
RACCORDO
100
AcDbLine
 62
250
  6
CONTINUOUS
 10
49.0912386973
 20
-35.7594637193
 11
49.0990547219
 21
-37.8479650108
  0
LINE
  5
5EB
100
AcDbEntity
  8
RACCORDO
100
AcDbLine
 62
250
  6
CONTINUOUS
 10
49.088667787
 20
-33.9451871904
 11
49.0912386973
 21
-35.7594637193
  0
LINE
  5
5EC
100
AcDbEntity
  8
RACCORDO
100
AcDbLine
 62
250
  6
CONTINUOUS
 10
49.0930221631
 20
-31.4797784881
 11
49.0886675678
 21
-33.9451874074
  0
LINE
  5
5ED
100
AcDbEntity
  8
RACCORDO
100
AcDbLine
 62
250
  6
CONTINUOUS
 10
49.1006368765
 20
-29.7394574813
 11
49.0930221631
 21
-31.4797784881
  0
LINE
  5
5EE
100
AcDbEntity
  8
RACCORDO
100
AcDbLine
 62
250
  6
CONTINUOUS
 10
49.1143073953
 20
-27.803528838
 11
49.1006368765
 21
-29.7394574813
  0
LINE
  5
5EF
100
AcDbEntity
  8
RACCORDO
100
AcDbLine
 62
250
  6
CONTINUOUS
 10
49.1352665835
 20
-25.6879711966
 11
49.1143073953
 21
-27.803528838
  0
LWPOLYLINE
  5
5F0
100
AcDbEntity
  8
RACCORDO
100
AcDbPolyline
 62
250
  6
CONTINUOUS
 90
3
 70
0
 10
49.1711327366
 20
-22.9467086953
 10
49.1661045886
 20
-23.2920522691
 10
49.1352665835
 20
-25.6879711966
  0
LINE
  5
5F1
100
AcDbEntity
  8
RACCORDO
100
AcDbLine
 62
7
  6
CONTINUOUS
 10
24.4117695755
 20
-43.1349557071
 11
24.3891733102
 21
-43.1509222759
  0
LINE
  5
5F2
100
AcDbEntity
  8
RACCORDO
100
AcDbLine
 62
7
  6
CONTINUOUS
 10
24.3901933512
 20
-43.1502432743
 11
24.3891512467
 21
-43.1509386846
  0
LWPOLYLINE
  5
5F3
100
AcDbEntity
  8
RACCORDO
100
AcDbPolyline
 62
250
  6
CONTINUOUS
 90
15
 70
0
 10
24.0071462417
 20
-43.3243521148
 10
24.0464774651
 20
-43.3008779452
 10
24.0989007693
 20
-43.2631280687
 10
24.1478102065
 20
-43.2199448302
 10
24.1930402852
 20
-43.1714743471
 10
24.2344379637
 20
-43.1178806253
 10
24.2718631662
 20
-43.0593450061
 10
24.3051892557
 20
-42.996065557
 10
24.3343034651
 20
-42.9282563993
 10
24.3591072811
 20
-42.8561469793
 10
24.3795167763
 20
-42.7799812919
 10
24.3954628916
 20
-42.700017059
 10
24.4068916707
 20
-42.6165248553
 10
24.4137644431
 20
-42.5297871918
 10
24.4160579539
 20
-42.4400975618
  0
LINE
  5
5F4
100
AcDbEntity
  8
RACCORDO
100
AcDbLine
 62
250
  6
CONTINUOUS
 10
24.4160579539
 20
-42.4400975618
 11
24.6746478987
 21
-42.2959138607
  0
LINE
  5
5F5
100
AcDbEntity
  8
RACCORDO
100
AcDbLine
 62
7
  6
CONTINUOUS
 10
24.4392194982
 20
-43.1119035712
 11
24.3981577861
 21
-43.1318476834
  0
LWPOLYLINE
  5
5F6
100
AcDbEntity
  8
RACCORDO
100
AcDbPolyline
 62
7
  6
CONTINUOUS
 90
3
 70
0
 10
24.3981577861
 20
-43.1318476834
 10
24.3388815523
 20
-43.1540766717
 10
24.2960967351
 20
-43.1656522878
  0
LINE
  5
5F7
100
AcDbEntity
  8
RACCORDO
100
AcDbLine
 62
250
  6
CONTINUOUS
 10
49.6983130906
 20
-35.7193978042
 11
49.7061178518
 21
-37.8065932213
  0
LINE
  5
5F8
100
AcDbEntity
  8
RACCORDO
100
AcDbLine
 62
250
  6
CONTINUOUS
 10
49.6957469667
 20
-33.9061757566
 11
49.6983130906
 21
-35.7193978042
  0
LINE
  5
5F9
100
AcDbEntity
  8
RACCORDO
100
AcDbLine
 62
250
  6
CONTINUOUS
 10
49.7000904791
 20
-31.4421835283
 11
49.6957469667
 21
-33.9061757566
  0
LINE
  5
5FA
100
AcDbEntity
  8
RACCORDO
100
AcDbLine
 62
250
  6
CONTINUOUS
 10
49.7077063323
 20
-29.7030098264
 11
49.7000904791
 21
-31.4421835283
  0
LINE
  5
5FB
100
AcDbEntity
  8
RACCORDO
100
AcDbLine
 62
250
  6
CONTINUOUS
 10
49.7215243555
 20
-27.7684380214
 11
49.7077063323
 21
-29.7030098264
  0
LINE
  5
5FC
100
AcDbEntity
  8
RACCORDO
100
AcDbLine
 62
250
  6
CONTINUOUS
 10
49.7427958309
 20
-25.6543477528
 11
49.7215243555
 21
-27.7684380214
  0
LINE
  5
5FD
100
AcDbEntity
  8
RACCORDO
100
AcDbLine
 62
250
  6
CONTINUOUS
 10
49.7742050712
 20
-23.2600771011
 11
49.7427958309
 21
-25.6543477528
  0
LINE
  5
5FE
100
AcDbEntity
  8
RACCORDO
100
AcDbLine
 62
250
  6
CONTINUOUS
 10
49.8077372094
 20
-21.1618293032
 11
49.7742050712
 21
-23.2600771011
  0
LINE
  5
5FF
100
AcDbEntity
  8
RACCORDO
100
AcDbLine
 62
250
  6
CONTINUOUS
 10
49.2112724822
 20
-20.4757878457
 11
49.1711327366
 21
-22.9467086953
  0
LINE
  5
600
100
AcDbEntity
  8
RACCORDO
100
AcDbLine
 62
250
  6
CONTINUOUS
 10
49.8416906484
 20
-19.3595220896
 11
49.8077372094
 21
-21.1618293032
  0
LINE
  5
601
100
AcDbEntity
  8
RACCORDO
100
AcDbLine
 62
250
  6
CONTINUOUS
 10
49.2465424726
 20
-18.6568958451
 11
49.2112724822
 21
-20.4757878457
  0
LINE
  5
602
100
AcDbEntity
  8
RACCORDO
100
AcDbLine
 62
250
  6
CONTINUOUS
 10
49.8740300598
 20
-17.8963462399
 11
49.8416906484
 21
-19.3595220896
  0
LINE
  5
603
100
AcDbEntity
  8
RACCORDO
100
AcDbLine
 62
250
  6
CONTINUOUS
 10
49.2797010781
 20
-17.1883705175
 11
49.2465424726
 21
-18.6568958451
  0
LINE
  5
604
100
AcDbEntity
  8
RACCORDO
100
AcDbLine
 62
250
  6
CONTINUOUS
 10
49.9017872759
 20
-16.7973433259
 11
49.8740300598
 21
-17.8963462399
  0
LINE
  5
605
100
AcDbEntity
  8
RACCORDO
100
AcDbLine
 62
250
  6
CONTINUOUS
 10
49.3079527737
 20
-16.0911180217
 11
49.2797010781
 21
-17.1883705175
  0
LINE
  5
606
100
AcDbEntity
  8
RACCORDO
100
AcDbLine
 62
250
  6
CONTINUOUS
 10
49.9329319989
 20
-15.7054851303
 11
49.9017872759
 21
-16.7973433259
  0
LINE
  5
607
100
AcDbEntity
  8
RACCORDO
100
AcDbLine
 62
250
  6
CONTINUOUS
 10
49.3396130981
 20
-15.005438291
 11
49.3079527737
 21
-16.0911180217
  0
LINE
  5
608
100
AcDbEntity
  8
RACCORDO
100
AcDbLine
 62
250
  6
CONTINUOUS
 10
49.9677636414
 20
-14.6274792453
 11
49.9329319989
 21
-15.7054851303
  0
LINE
  5
609
100
AcDbEntity
  8
RACCORDO
100
AcDbLine
 62
250
  6
CONTINUOUS
 10
49.3750113412
 20
-13.9360668485
 11
49.3396130981
 21
-15.005438291
  0
LINE
  5
60A
100
AcDbEntity
  8
RACCORDO
100
AcDbLine
 62
250
  6
CONTINUOUS
 10
50.0064314743
 20
-13.5664376336
 11
49.9677636414
 21
-14.6274792453
  0
LINE
  5
60B
100
AcDbEntity
  8
RACCORDO
100
AcDbLine
 62
250
  6
CONTINUOUS
 10
49.4141084102
 20
-12.8823858734
 11
49.3750113412
 21
-13.9360668485
  0
LINE
  5
60C
100
AcDbEntity
  8
RACCORDO
100
AcDbLine
 62
250
  6
CONTINUOUS
 10
50.0488800068
 20
-12.519677836
 11
50.0064314743
 21
-13.5664376336
  0
LINE
  5
60D
100
AcDbEntity
  8
RACCORDO
100
AcDbLine
 62
250
  6
CONTINUOUS
 10
49.4568947055
 20
-11.8382753852
 11
49.4141084102
 21
-12.8823858734
  0
LINE
  5
60E
100
AcDbEntity
  8
RACCORDO
100
AcDbLine
 62
250
  6
CONTINUOUS
 10
50.0952554839
 20
-11.4798107021
 11
50.0488800068
 21
-12.519677836
  0
LINE
  5
60F
100
AcDbEntity
  8
RACCORDO
100
AcDbLine
 62
250
  6
CONTINUOUS
 10
49.5035741091
 20
-10.7952091672
 11
49.4568947055
 21
-11.8382753852
  0
LINE
  5
610
100
AcDbEntity
  8
RACCORDO
100
AcDbLine
 62
250
  6
CONTINUOUS
 10
49.5545063153
 20
-9.744245164
 11
49.5035741091
 21
-10.7952091672
  0
LINE
  5
611
100
AcDbEntity
  8
RACCORDO
100
AcDbLine
 62
250
  6
CONTINUOUS
 10
50.1458918861
 20
-10.4381031028
 11
50.0952554839
 21
-11.4798107021
  0
LINE
  5
612
100
AcDbEntity
  8
RACCORDO
100
AcDbLine
 62
250
  6
CONTINUOUS
 10
49.6102964396
 20
-8.6743340856
 11
49.5545063153
 21
-9.744245164
  0
LINE
  5
613
100
AcDbEntity
  8
RACCORDO
100
AcDbLine
 62
250
  6
CONTINUOUS
 10
50.2012843575
 20
-9.3853540654
 11
50.1458918861
 21
-10.4381031028
  0
LINE
  5
614
100
AcDbEntity
  8
RACCORDO
100
AcDbLine
 62
250
  6
CONTINUOUS
 10
50.2412115063
 20
-8.6718474278
 11
50.2012843575
 21
-9.3853540654
  0
LINE
  5
615
100
AcDbEntity
  8
RACCORDO
100
AcDbLine
 62
250
  6
CONTINUOUS
 10
49.6719820732
 20
-7.5703918706
 11
49.6102964396
 21
-8.6743340856
  0
LINE
  5
616
100
AcDbEntity
  8
RACCORDO
100
AcDbLine
 62
250
  6
CONTINUOUS
 10
50.2840314984
 20
-7.9426945039
 11
50.2412115063
 21
-8.6718474278
  0
LINE
  5
617
100
AcDbEntity
  8
RACCORDO
100
AcDbLine
 62
250
  6
CONTINUOUS
 10
49.7171715706
 20
-6.8060131449
 11
49.6719820732
 21
-7.5703918706
  0
LINE
  5
618
100
AcDbEntity
  8
RACCORDO
100
AcDbLine
 62
250
  6
CONTINUOUS
 10
50.3300994055
 20
-7.1938524399
 11
50.2840314984
 21
-7.9426945039
  0
LINE
  5
619
100
AcDbEntity
  8
RACCORDO
100
AcDbLine
 62
250
  6
CONTINUOUS
 10
49.7662906601
 20
-6.0119587105
 11
49.7171715706
 21
-6.8060131449
  0
LINE
  5
61A
100
AcDbEntity
  8
RACCORDO
100
AcDbLine
 62
250
  6
CONTINUOUS
 10
50.3799806638
 20
-6.4192779363
 11
50.3300994055
 21
-7.1938524399
  0
LWPOLYLINE
  5
61B
100
AcDbEntity
  8
RACCORDO
100
AcDbPolyline
 62
250
  6
CONTINUOUS
 90
3
 70
0
 10
49.849504283
 20
-4.7422813855
 10
49.8204618815
 20
-5.17557791
 10
49.7662906601
 20
-6.0119587105
  0
LINE
  5
61C
100
AcDbEntity
  8
RACCORDO
100
AcDbLine
 62
250
  6
CONTINUOUS
 10
50.4348754287
 20
-5.6070690302
 11
50.3799806638
 21
-6.4192779363
  0
LINE
  5
61D
100
AcDbEntity
  8
RACCORDO
100
AcDbLine
 62
250
  6
CONTINUOUS
 10
50.4951186265
 20
-4.7538801817
 11
50.4348754287
 21
-5.6070690302
  0
LWPOLYLINE
  5
61E
100
AcDbEntity
  8
RACCORDO
100
AcDbPolyline
 62
250
  6
CONTINUOUS
 90
6
 70
0
 10
24.3891512467
 20
-43.1509386846
 10
24.3393087653
 20
-43.1808528407
 10
24.2907473128
 20
-43.2043702793
 10
24.2395921161
 20
-43.2239952543
 10
24.186060848
 20
-43.2395936352
 10
24.1466218442
 20
-43.247748148
  0
LINE
  5
61F
100
AcDbEntity
  8
DRAFT
100
AcDbLine
 62
7
  6
CONTINUOUS
 10
24.4943836129
 20
-43.0567474965
 11
24.0071462417
 21
-43.3243521148
  0
LWPOLYLINE
  5
620
100
AcDbEntity
  8
RACCORDO
100
AcDbPolyline
 62
250
  6
CONTINUOUS
 90
16
 70
0
 10
49.6957469667
 20
-33.9061757566
 10
49.66294291
 20
-33.9229441674
 10
49.6277260319
 20
-33.9379902685
 10
49.5903664917
 20
-33.9511986658
 10
49.5511508856
 20
-33.9624680731
 10
49.5103800485
 20
-33.9717120438
 10
49.4683667463
 20
-33.9788596342
 10
49.4254332761
 20
-33.9838560076
 10
49.381908994
 20
-33.9866628553
 10
49.3381277886
 20
-33.9872586448
 10
49.2944255193
 20
-33.9856387852
 10
49.25113744
 20
-33.9818157076
 10
49.2085956277
 20
-33.97581877
 10
49.1671264343
 20
-33.9676939718
 10
49.1270479828
 20
-33.957503601
 10
49.0886677279
 20
-33.9453258014
  0
LWPOLYLINE
  5
621
100
AcDbEntity
  8
RACCORDO
100
AcDbPolyline
 62
7
  6
CONTINUOUS
 90
12
 70
0
 10
-53.8484888599
 20
49.9948901415
 10
-53.8704721576
 20
49.99312259
 10
-53.8904676118
 20
49.9903278031
 10
-53.9084751981
 20
49.9865058134
 10
-53.9245355841
 20
49.9816250154
 10
-53.9386080127
 20
49.9757171351
 10
-53.950570309
 20
49.968877222
 10
-53.9604054332
 20
49.9610959244
 10
-53.968130272
 20
49.9523828006
 10
-53.9736735385
 20
49.9428612656
 10
-53.9769980295
 20
49.932501547
 10
-53.9778472893
 20
49.9269295907
  0
LINE
  5
622
100
AcDbEntity
  8
RACCORDO
100
AcDbLine
 62
7
  6
CONTINUOUS
 10
-53.8484617936
 20
49.9948915323
 11
-53.3460018453
 21
50.0207104282
  0
LWPOLYLINE
  5
623
100
AcDbEntity
  8
RACCORDO
100
AcDbPolyline
 62
250
  6
CONTINUOUS
 90
13
 70
0
 10
-38.5538645977
 20
54.6815699223
 10
-38.5460756394
 20
54.6816428509
 10
-38.5211020208
 20
54.6836019911
 10
-38.4959869542
 20
54.6872749032
 10
-38.4709176058
 20
54.6926342112
 10
-38.4460807996
 20
54.6996399724
 10
-38.4216616115
 20
54.7082399792
 10
-38.3978420204
 20
54.7183701408
 10
-38.3747995366
 20
54.7299549634
 10
-38.3527058655
 20
54.7429081213
 10
-38.3317256531
 20
54.7571330885
 10
-38.3120152564
 20
54.7725238547
 10
-38.2937215651
 20
54.7889657242
  0
LWPOLYLINE
  5
624
100
AcDbEntity
  8
RACCORDO
100
AcDbPolyline
 62
7
  6
CONTINUOUS
 90
16
 70
0
 10
-38.4855317187
 20
55.0593183582
 10
-38.4881917007
 20
55.059581426
 10
-38.4873704093
 20
55.0594332875
 10
-38.4831250737
 20
55.0585096046
 10
-38.4758790561
 20
55.0566083829
 10
-38.4655683186
 20
55.0534805947
 10
-38.4521614732
 20
55.0489066098
 10
-38.4361357289
 20
55.0428880712
 10
-38.4175104146
 20
55.0353152012
 10
-38.3962116816
 20
55.0260494677
 10
-38.3725293272
 20
55.0151284409
 10
-38.3464841391
 20
55.0024968764
 10
-38.3180178131
 20
54.9880704737
 10
-38.2872738361
 20
54.9718649861
 10
-38.2543272769
 20
54.9538659471
 10
-38.2191961094
 20
54.9340405367
  0
LINE
  5
625
100
AcDbEntity
  8
RACCORDO
100
AcDbLine
 62
7
  6
CONTINUOUS
 10
60.8746737212
 20
1.2391249721
 11
60.8746737212
 21
-56.5847382233
  0
LWPOLYLINE
  5
626
100
AcDbEntity
  8
RACCORDO
100
AcDbPolyline
 62
250
  6
CONTINUOUS
 90
19
 70
0
 10
-45.3897307409
 20
54.1055781973
 10
-45.4092319674
 20
54.1025613275
 10
-45.4301189204
 20
54.1005222329
 10
-45.4522318798
 20
54.099476507
 10
-45.47540175
 20
54.0994321469
 10
-45.499451353
 20
54.1003894925
 10
-45.5241967828
 20
54.1023412234
 10
-45.5494488131
 20
54.1052724155
 10
-45.5750143432
 20
54.1091606545
 10
-45.600697874
 20
54.1139762077
 10
-45.6263030052
 20
54.1196822511
 10
-45.6516339353
 20
54.1262351512
 10
-45.6764969588
 20
54.1335847984
 10
-45.7007019492
 20
54.1416749904
 10
-45.7240638118
 20
54.1504438622
 10
-45.7464038981
 20
54.1598243584
 10
-45.7675513738
 20
54.1697447468
 10
-45.7873445253
 20
54.1801291668
 10
-45.8056319951
 20
54.1908982091
  0
LWPOLYLINE
  5
627
100
AcDbEntity
  8
RACCORDO
100
AcDbPolyline
 62
250
  6
CONTINUOUS
 90
5
 70
0
 10
42.0251939239
 20
-62.0784019095
 10
42.0388835664
 20
-62.0555879618
 10
42.0546860234
 20
-62.0346198132
 10
42.0724488478
 20
-62.0156997452
 10
42.092000681
 20
-61.9990102806
  0
LWPOLYLINE
  5
628
100
AcDbEntity
  8
RACCORDO
100
AcDbPolyline
 62
250
  6
CONTINUOUS
 90
21
 70
0
 10
41.5143122177
 20
-61.1947835216
 10
41.5607517102
 20
-61.168159055
 10
41.6560236018
 20
-61.1059561808
 10
41.7458574079
 20
-61.0365436532
 10
41.8300861246
 20
-60.9600268658
 10
41.9086417112
 20
-60.8764662737
 10
41.9813986729
 20
-60.7859460917
 10
42.0481580429
 20
-60.6886516165
 10
42.10877154
 20
-60.5848364408
 10
42.1629397929
 20
-60.4751174158
 10
42.210779391
 20
-60.3593251622
 10
42.2526267077
 20
-60.2363818227
 10
42.2883190073
 20
-60.105946612
 10
42.3174471713
 20
-59.9684258589
 10
42.3397778619
 20
-59.82367161
 10
42.3550418683
 20
-59.6714430909
 10
42.3629020402
 20
-59.5121459049
 10
42.3630985916
 20
-59.3466910358
 10
42.3554778908
 20
-59.1755802742
 10
42.3398838725
 20
-58.9988191087
 10
42.3161684886
 20
-58.8166838906
  0
LINE
  5
629
100
AcDbEntity
  8
RACCORDO
100
AcDbLine
 62
250
  6
CONTINUOUS
 10
42.5145563019
 20
-58.7060674891
 11
42.3161684886
 21
-58.8166838906
  0
LINE
  5
62A
100
AcDbEntity
  8
RACCORDO
100
AcDbLine
 62
7
  6
CONTINUOUS
 10
41.5140668999
 20
-61.1949182266
 11
41.5143122177
 21
-61.1947835216
  0
LINE
  5
62B
100
AcDbEntity
  8
DRAFT
100
AcDbLine
 62
7
  6
CONTINUOUS
 10
42.7768781318
 20
-60.5013464219
 11
41.5143109745
 21
-61.1947842044
  0
LINE
  5
62C
100
AcDbEntity
  8
RACCORDO
100
AcDbLine
 62
250
  6
CONTINUOUS
 10
42.092000681
 20
-61.9990102806
 11
42.1131529055
 21
-61.984712424
  0
LWPOLYLINE
  5
62D
100
AcDbEntity
  8
RACCORDO
100
AcDbPolyline
 62
7
  6
CONTINUOUS
 90
20
 70
0
 10
42.0951030595
 20
-61.994210485
 10
42.0730695271
 20
-62.0088417921
 10
42.0510998134
 20
-62.0260432173
 10
42.0304372382
 20
-62.0450973561
 10
42.0112477728
 20
-62.0659236204
 10
41.9936680514
 20
-62.0884533079
 10
41.9778611982
 20
-62.112560496
 10
41.9639762474
 20
-62.1380980817
 10
41.9521199447
 20
-62.1649615726
 10
41.9424063583
 20
-62.1930083357
 10
41.9349407156
 20
-62.2220426694
 10
41.9297876687
 20
-62.2519093626
 10
41.926992739
 20
-62.2824989373
 10
41.9265962149
 20
-62.3136090342
 10
41.9285994691
 20
-62.3450334764
 10
41.9329896197
 20
-62.3767168677
 10
41.9397568762
 20
-62.4085868086
 10
41.9488685474
 20
-62.4405207238
 10
41.9603069503
 20
-62.4724848397
 10
41.9635648377
 20
-62.4805602691
  0
LINE
  5
62E
100
AcDbEntity
  8
RACCORDO
100
AcDbLine
 62
7
  6
CONTINUOUS
 10
42.3819565693
 20
-61.8186132937
 11
42.0948496664
 21
-61.9943606161
  0
LINE
  5
62F
100
AcDbEntity
  8
RACCORDO
100
AcDbLine
 62
250
  6
CONTINUOUS
 10
42.1131528756
 20
-61.984712357
 11
42.3752283376
 21
-61.8244715906
  0
LWPOLYLINE
  5
630
100
AcDbEntity
  8
RACCORDO
100
AcDbPolyline
 62
250
  6
CONTINUOUS
 90
19
 70
0
 10
50.4951186265
 20
-62.1665270577
 10
50.466002271
 20
-62.1842538036
 10
50.4349332457
 20
-62.200597436
 10
50.4021022022
 20
-62.2154576646
 10
50.3677106039
 20
-62.2287433022
 10
50.3319694914
 20
-62.2403728234
 10
50.2950981878
 20
-62.2502748653
 10
50.2573229494
 20
-62.2583886659
 10
50.2188755793
 20
-62.264664437
 10
50.1799920065
 20
-62.2690636688
 10
50.1409108349
 20
-62.2715593671
 10
50.1018718806
 20
-62.2721362186
 10
50.0631147018
 20
-62.2707906848
 10
50.024877126
 20
-62.2675310236
 10
49.9873937919
 20
-62.2623772388
 10
49.9508947105
 20
-62.2553609573
 10
49.915603852
 20
-62.2465252349
 10
49.881737772
 20
-62.2359242919
 10
49.849504283
 20
-62.2236231806
  0
LINE
  5
631
100
AcDbEntity
  8
RACCORDO
100
AcDbLine
 62
7
  6
CONTINUOUS
 10
42.2577174586
 20
-61.910519736
 11
42.2551879124
 21
-61.9120487375
  0
LWPOLYLINE
  5
632
100
AcDbEntity
  8
RACCORDO
100
AcDbPolyline
 62
250
  6
CONTINUOUS
 90
3
 70
0
 10
42.2551879124
 20
-61.9120487375
 10
42.1974290632
 20
-61.9445999093
 10
42.1131528756
 20
-61.984712357
  0
LINE
  5
633
100
AcDbEntity
  8
RACCORDO
100
AcDbLine
 62
250
  6
CONTINUOUS
 10
50.4951186265
 20
-62.1665270577
 11
60.8746737212
 21
-56.5847382233
  0
LINE
  5
634
100
AcDbEntity
  8
RACCORDO
100
AcDbLine
 62
250
  6
CONTINUOUS
 10
42.1131529407
 20
-61.9847124876
 11
42.095088884
 21
-61.9942145191
  0
LWPOLYLINE
  5
635
100
AcDbEntity
  8
RACCORDO
100
AcDbPolyline
 62
250
  6
CONTINUOUS
 90
16
 70
0
 10
42.0679595583
 20
-62.4287263616
 10
42.0616913005
 20
-62.4319768659
 10
42.0561012775
 20
-62.4359244013
 10
42.0511895302
 20
-62.4405689345
 10
42.0469413712
 20
-62.4459072472
 10
42.0433715487
 20
-62.4519425082
 10
42.0405242231
 20
-62.4586842926
 10
42.0383814154
 20
-62.4661535952
 10
42.0369610793
 20
-62.4743294418
 10
42.0363611413
 20
-62.4831585613
 10
42.0365985338
 20
-62.492680765
 10
42.0376560406
 20
-62.5028564726
 10
42.039580127
 20
-62.5135135193
 10
42.0423860331
 20
-62.5245947191
 10
42.0460579148
 20
-62.5361577496
 10
42.0505954829
 20
-62.5482028465
  0
LINE
  5
636
100
AcDbEntity
  8
RACCORDO
100
AcDbLine
 62
7
  6
CONTINUOUS
 10
49.3379996214
 20
-64.8679335914
 11
59.5796525565
 21
-59.3603040758
  0
ELLIPSE
  5
637
100
AcDbEntity
  8
RACCORDO
100
AcDbEllipse
 62
7
  6
CONTINUOUS
 10
-43.3917325188
 20
51.4703547108
 30
0.0
 11
2.6693068322
 21
4.4630700403
 31
0.0
 40
0.5873179545
 41
0.0090366249
 42
0.2757660771
  0
ELLIPSE
  5
638
100
AcDbEntity
  8
RACCORDO
100
AcDbEllipse
 62
7
  6
CONTINUOUS
 10
35.5850223099
 20
5.870166284
 30
0.0
 11
2.5331223372
 21
4.5417332085
 31
0.0
 40
0.5671693725
 41
0.0586017408
 42
0.2583021568
  0
ELLIPSE
  5
639
100
AcDbEntity
  8
RACCORDO
100
AcDbEllipse
 62
7
  6
CONTINUOUS
 10
72.8330235938
 20
23.6100012253
 30
0.0
 11
41.9733507302
 21
23.8103593035
 31
0.0
 40
0.034575876
 41
2.7846344985
 42
2.8475983827
  0
ELLIPSE
  5
63A
100
AcDbEntity
  8
RACCORDO
100
AcDbEllipse
 62
7
  6
CONTINUOUS
 10
56.6313867609
 20
-54.1332251711
 30
0.0
 11
-3.0010587713
 21
5.1976516967
 31
0.0
 40
0.5771558487
 41
-3.1590397888
 42
-2.3563950755
  0
ELLIPSE
  5
63B
100
AcDbEntity
  8
RACCORDO
100
AcDbEllipse
 62
7
  6
CONTINUOUS
 10
56.6313867609
 20
3.6876533399
 30
0.0
 11
-3.0001450934
 21
5.1960686503
 31
0.0
 40
0.5775075436
 41
-2.3560905478
 42
-0.7855988075
  0
ELLIPSE
  5
63C
100
AcDbEntity
  8
RACCORDO
100
AcDbEllipse
 62
7
  6
CONTINUOUS
 10
-45.3462138778
 20
62.5682418692
 30
0.0
 11
-3.0010587713
 21
5.1976516967
 31
0.0
 40
0.5771558487
 41
-0.7852941622
 42
0.0174471352
  0
ENDSEC
  0
SECTION
  2
OBJECTS
  0
DICTIONARY
  5
C
100
AcDbDictionary
280
0
281
1
  3
ACAD_GROUP
350
D
  3
ACAD_MLINESTYLE
350
17
  3
ACAD_LAYOUT
350
1A
  3
ACAD_PLOTSETTINGS
350
19
  3
ACAD_PLOTSTYLENAME
350
E
  0
DICTIONARY
  5
D
102
{ACAD_REACTORS
330
C
102
}
100
AcDbDictionary
280
0
281
1
  0
ACDBDICTIONARYWDFLT
  5
E
102
{ACAD_REACTORS
330
C
102
}
100
AcDbDictionary
281
1
  3
Normal
350
F
100
AcDbDictionaryWithDefault
340
F
  0
DICTIONARY
  5
17
102
{ACAD_REACTORS
330
C
102
}
100
AcDbDictionary
280
0
281
1
  3
Standard
350
18
  0
DICTIONARY
  5
19
102
{ACAD_REACTORS
330
C
102
}
100
AcDbDictionary
281
1
  0
DICTIONARY
  5
1A
102
{ACAD_REACTORS
330
C
102
}
100
AcDbDictionary
281
1
  3
Model
350
63D
  3
Layout1
350
63E
  0
ACDBPLACEHOLDER
  5
F
102
{ACAD_REACTORS
330
E
102
}
  0
MLINESTYLE
  5
18
102
{ACAD_REACTORS
330
17
102
}
100
AcDbMlineStyle
  2
STANDARD
 70
0
  3

 62
256
 51
90.0
 52
90.0
 71
2
 49
0.5
 62
256
  6
BYLAYER
 49
-0.5
 62
256
  6
BYLAYER
  0
LAYOUT
  5
63D
102
{ACAD_REACTORS
330
1A
102
}
100
AcDbPlotSettings
  1

  2
none_device
  4
ISO_A4_(297.00_x_210.00_MM)
  6

 40
0.0
 41
0.0
 42
0.0
 43
0.0
 44
297.0
 45
210.0
 46
0.0
 47
0.0
 48
0.0
 49
0.0
140
0.0
141
0.0
142
1.0
143
1.0
 70
1024
 72
1
 73
0
 74
0
  7

 75
0
147
1.0
148
0.0
149
0.0
100
AcDbLayout
  1
Model
 70
0
 71
0
 10
0.0
 20
0.0
 11
297.0
 21
210.0
 12
0.0
 22
0.0
 32
0.0
 14
0.0
 24
0.0
 34
0.0
 15
0.0
 25
0.0
 35
0.0
146
0.0
 13
0.0
 23
0.0
 33
0.0
 16
1.0
 26
0.0
 36
0.0
 17
0.0
 27
1.0
 37
0.0
 76
0
330
218
345
0
346
0
  0
LAYOUT
  5
63E
102
{ACAD_REACTORS
330
1A
102
}
100
AcDbPlotSettings
  1

  2
none_device
  4
ISO_A4_(297.00_x_210.00_MM)
  6

 40
0.0
 41
0.0
 42
0.0
 43
0.0
 44
297.0
 45
210.0
 46
0.0
 47
0.0
 48
0.0
 49
0.0
140
0.0
141
0.0
142
1.0
143
1.0
 70
0
 72
1
 73
0
 74
0
  7

 75
0
147
1.0
148
0.0
149
0.0
100
AcDbLayout
  1
Layout1
 70
0
 71
1
 10
0.0
 20
0.0
 11
297.0
 21
210.0
 12
0.0
 22
0.0
 32
0.0
 14
0.0
 24
0.0
 34
0.0
 15
0.0
 25
0.0
 35
0.0
146
0.0
 13
0.0
 23
0.0
 33
0.0
 16
1.0
 26
0.0
 36
0.0
 17
0.0
 27
1.0
 37
0.0
 76
0
330
219
345
0
346
0
  0
ENDSEC
  0
EOF
