  0
SECTION
  2
HEADER
  9
$ACADVER
  1
AC1024
  9
$DWGCODEPAGE
  3
ANSI_1252
  9
$EXTMAX
 10
297.0
 20
210.0
 30
0.0
  9
$EXTMIN
 10
0.0
 20
0.0
 30
0.0
  9
$LIMMIN
 10
0.0
 20
0.0
  9
$LIMMAX
 10
297.0
 20
210.0
  9
$VIEWCTR
 10
148.5
 20
105.0
  9
$VIEWSIZE
 40
210.0
  9
$CLAYER
  8
0
  9
$LTSCALE
 40
16.335
  9
$CELTYPE
  6
BYLAYER
  9
$DIMSCALE
 40
1.0
  9
$DIMASZ
 40
3.0
  9
$DIMEXO
 40
0.5
  9
$DIMDLI
 40
11.286
  9
$DIMEXE
 40
1.5
  9
$DIMCEN
 40
2.673
  9
$DIMLFAC
 40
1.0
  9
$DIMBLK
  1
_FILLED
  9
$DIMALT
 70
0
  9
$DIMALTF
 40
0.0393700787
  9
$DIMTXT
 40
3.0
  9
$DIMTOL
 70
1
  9
$DIMLIM
 70
0
  9
$DIMTFAC
 40
1.0
  9
$DIMTP
 40
0.01
  9
$DIMTM
 40
0.01
  9
$DIMGAP
 40
0.625
  9
$DIMDSEP
 70
44
  9
$AUNITS
 70
0
  9
$PDMODE
 70
3
  9
$PDSIZE
 40
3.0
  9
$HANDSEED
  5
5A0
  9
$TILEMODE
 70
1
  9
$MEASUREMENT
 70
1
  9
$INSUNITS
 70
4
  0
ENDSEC
  0
SECTION
  2
CLASSES
  0
CLASS
  1
ACDBDICTIONARYWDFLT
  2
AcDbDictionaryWithDefault
  3
AutoCAD 2000
 90
0
 91
1
280
0
281
0
  0
CLASS
  1
ACDBPLACEHOLDER
  2
AcDbPlaceHolder
  3
AutoCAD 2000
 90
0
 91
1
280
0
281
0
  0
CLASS
  1
LAYOUT
  2
AcDbLayout
  3
AutoCAD 2000
 90
0
 91
0
280
0
281
0
  0
ENDSEC
  0
SECTION
  2
TABLES
  0
TABLE
  2
VPORT
  5
8
100
AcDbSymbolTable
 70
2
  0
VPORT
  5
1F4
100
AcDbSymbolTableRecord
100
AcDbViewportTableRecord
  2
*ACTIVE
 70
0
 10
0.0
 20
0.0
 11
1.0
 21
1.0
 12
148.5
 22
105.0
 13
0.0
 23
0.0
 14
1.0
 24
1.0
 15
0.0
 25
0.0
 16
0.0
 26
0.0
 36
1.0
 17
0.0
 27
0.0
 37
0.0
 40
210.0
 41
1.4142857143
 42
50.0
 43
0.0
 44
0.0
 50
0.0
 51
0.0
 71
0
 72
100
 73
1
 74
1
 75
0
 76
0
 77
0
 78
0
  0
ENDTAB
  0
TABLE
  2
LTYPE
  5
5
100
AcDbSymbolTable
 70
6
  0
LTYPE
  5
14
100
AcDbSymbolTableRecord
100
AcDbLinetypeTableRecord
  2
BYBLOCK
 70
0
  3

 72
65
 73
0
 40
0.0
  0
LTYPE
  5
15
100
AcDbSymbolTableRecord
100
AcDbLinetypeTableRecord
  2
BYLAYER
 70
0
  3

 72
65
 73
0
 40
0.0
  0
LTYPE
  5
16
100
AcDbSymbolTableRecord
100
AcDbLinetypeTableRecord
  2
CONTINUOUS
 70
64
  3
Solid line
 72
65
 73
0
 40
0.0
  0
LTYPE
  5
1F5
100
AcDbSymbolTableRecord
100
AcDbLinetypeTableRecord
  2
CENTER
 70
64
  3
____ _ ____ _ ____ _ ____ _ ____ _ ____ _ ____
 72
65
 73
4
 40
0.6
 49
0.375
 74
0
 49
-0.075
 74
0
 49
0.075
 74
0
 49
-0.075
 74
0
  0
LTYPE
  5
1F6
100
AcDbSymbolTableRecord
100
AcDbLinetypeTableRecord
  2
HIDDEN
 70
64
  3
- - - - - - - - - - - - - - - - - - - -
 72
65
 73
2
 40
0.2
 49
0.1
 74
0
 49
-0.1
 74
0
  0
LTYPE
  5
1F7
100
AcDbSymbolTableRecord
100
AcDbLinetypeTableRecord
  2
PHANTOM
 70
64
  3
_____ _ _ _____ _ _ _____ _ _ _____
 72
65
 73
6
 40
0.8
 49
0.45
 74
0
 49
-0.05
 74
0
 49
0.1
 74
0
 49
-0.05
 74
0
 49
0.1
 74
0
 49
-0.05
 74
0
  0
LTYPE
  5
1F8
100
AcDbSymbolTableRecord
100
AcDbLinetypeTableRecord
  2
DOT
 70
64
  3
. . . . . . . . . . . . . . . . . . . .
 72
65
 73
2
 40
0.2
 49
0.1
 74
0
 49
-0.1
 74
0
  0
LTYPE
  5
1F9
100
AcDbSymbolTableRecord
100
AcDbLinetypeTableRecord
  2
DASHED
 70
64
  3
- - - - - - - - - - - - - - - - - - - -
 72
65
 73
2
 40
0.2
 49
0.1
 74
0
 49
-0.1
 74
0
  0
ENDTAB
  0
TABLE
  2
LAYER
  5
2
100
AcDbSymbolTable
 70
36
  0
LAYER
  5
10
100
AcDbSymbolTableRecord
100
AcDbLayerTableRecord
  2
0
 70
0
 62
7
  6
CONTINUOUS
370
-3
390
F
  0
LAYER
  5
1FA
100
AcDbSymbolTableRecord
100
AcDbLayerTableRecord
  2
DEFAULT_1
 70
0
 62
7
  6
CENTER
370
-3
390
F
  0
LAYER
  5
1FB
100
AcDbSymbolTableRecord
100
AcDbLayerTableRecord
  2
DEFAULT_2
 70
0
 62
7
  6
HIDDEN
370
-3
390
F
  0
LAYER
  5
1FC
100
AcDbSymbolTableRecord
100
AcDbLayerTableRecord
  2
DEFAULT_3
 70
0
 62
7
  6
PHANTOM
370
-3
390
F
  0
LAYER
  5
1FD
100
AcDbSymbolTableRecord
100
AcDbLayerTableRecord
  2
21814000
 70
0
 62
7
  6
CONTINUOUS
370
-3
390
F
  0
LAYER
  5
1FE
100
AcDbSymbolTableRecord
100
AcDbLayerTableRecord
  2
260140000
 70
0
 62
7
  6
CONTINUOUS
370
-3
390
F
  0
LAYER
  5
1FF
100
AcDbSymbolTableRecord
100
AcDbLayerTableRecord
  2
26814000
 70
0
 62
7
  6
CONTINUOUS
370
-3
390
F
  0
LAYER
  5
200
100
AcDbSymbolTableRecord
100
AcDbLayerTableRecord
  2
28414000
 70
0
 62
7
  6
CONTINUOUS
370
-3
390
F
  0
LAYER
  5
201
100
AcDbSymbolTableRecord
100
AcDbLayerTableRecord
  2
290140000
 70
0
 62
7
  6
CONTINUOUS
370
-3
390
F
  0
LAYER
  5
202
100
AcDbSymbolTableRecord
100
AcDbLayerTableRecord
  2
340000230
 70
0
 62
7
  6
CONTINUOUS
370
-3
390
F
  0
LAYER
  5
203
100
AcDbSymbolTableRecord
100
AcDbLayerTableRecord
  2
712140000
 70
0
 62
7
  6
CONTINUOUS
370
-3
390
F
  0
LAYER
  5
204
100
AcDbSymbolTableRecord
100
AcDbLayerTableRecord
  2
715140000
 70
0
 62
7
  6
CONTINUOUS
370
-3
390
F
  0
LAYER
  5
205
100
AcDbSymbolTableRecord
100
AcDbLayerTableRecord
  2
ASSI
 70
0
 62
7
  6
CONTINUOUS
370
-3
390
F
  0
LAYER
  5
206
100
AcDbSymbolTableRecord
100
AcDbLayerTableRecord
  2
COLORE_TOP
 70
0
 62
7
  6
CONTINUOUS
370
-3
390
F
  0
LAYER
  5
207
100
AcDbSymbolTableRecord
100
AcDbLayerTableRecord
  2
COORDINATE
 70
0
 62
7
  6
CONTINUOUS
370
-3
390
F
  0
LAYER
  5
208
100
AcDbSymbolTableRecord
100
AcDbLayerTableRecord
  2
COORD_ORIGINE
 70
0
 62
7
  6
CONTINUOUS
370
-3
390
F
  0
LAYER
  5
209
100
AcDbSymbolTableRecord
100
AcDbLayerTableRecord
  2
COPY_PUBLISH
 70
0
 62
7
  6
CONTINUOUS
370
-3
390
F
  0
LAYER
  5
20A
100
AcDbSymbolTableRecord
100
AcDbLayerTableRecord
  2
COSMETIC
 70
0
 62
7
  6
CONTINUOUS
370
-3
390
F
  0
LAYER
  5
20B
100
AcDbSymbolTableRecord
100
AcDbLayerTableRecord
  2
COSMETICHE
 70
0
 62
7
  6
CONTINUOUS
370
-3
390
F
  0
LAYER
  5
20C
100
AcDbSymbolTableRecord
100
AcDbLayerTableRecord
  2
COSMETICI
 70
0
 62
7
  6
CONTINUOUS
370
-3
390
F
  0
LAYER
  5
20D
100
AcDbSymbolTableRecord
100
AcDbLayerTableRecord
  2
CURVE
 70
0
 62
7
  6
CONTINUOUS
370
-3
390
F
  0
LAYER
  5
20E
100
AcDbSymbolTableRecord
100
AcDbLayerTableRecord
  2
DRAFT
 70
0
 62
7
  6
CONTINUOUS
370
-3
390
F
  0
LAYER
  5
20F
100
AcDbSymbolTableRecord
100
AcDbLayerTableRecord
  2
IMPORT
 70
0
 62
7
  6
CONTINUOUS
370
-3
390
F
  0
LAYER
  5
210
100
AcDbSymbolTableRecord
100
AcDbLayerTableRecord
  2
IMPORTED
 70
0
 62
7
  6
CONTINUOUS
370
-3
390
F
  0
LAYER
  5
211
100
AcDbSymbolTableRecord
100
AcDbLayerTableRecord
  2
IMPORT_IGES
 70
0
 62
7
  6
CONTINUOUS
370
-3
390
F
  0
LAYER
  5
212
100
AcDbSymbolTableRecord
100
AcDbLayerTableRecord
  2
INCISIONI_LASER
 70
0
 62
7
  6
CONTINUOUS
370
-3
390
F
  0
LAYER
  5
213
100
AcDbSymbolTableRecord
100
AcDbLayerTableRecord
  2
INTF_1
 70
0
 62
7
  6
CONTINUOUS
370
-3
390
F
  0
LAYER
  5
214
100
AcDbSymbolTableRecord
100
AcDbLayerTableRecord
  2
INTF_11
 70
0
 62
7
  6
CONTINUOUS
370
-3
390
F
  0
LAYER
  5
215
100
AcDbSymbolTableRecord
100
AcDbLayerTableRecord
  2
INTF_12
 70
0
 62
7
  6
CONTINUOUS
370
-3
390
F
  0
LAYER
  5
216
100
AcDbSymbolTableRecord
100
AcDbLayerTableRecord
  2
INTF_13
 70
0
 62
7
  6
CONTINUOUS
370
-3
390
F
  0
LAYER
  5
217
100
AcDbSymbolTableRecord
100
AcDbLayerTableRecord
  2
INTF_2
 70
0
 62
7
  6
CONTINUOUS
370
-3
390
F
  0
LAYER
  5
218
100
AcDbSymbolTableRecord
100
AcDbLayerTableRecord
  2
INTF_6
 70
0
 62
7
  6
CONTINUOUS
370
-3
390
F
  0
LAYER
  5
219
100
AcDbSymbolTableRecord
100
AcDbLayerTableRecord
  2
NOTE
 70
0
 62
7
  6
CONTINUOUS
370
-3
390
F
  0
LAYER
  5
21A
100
AcDbSymbolTableRecord
100
AcDbLayerTableRecord
  2
PIANI
 70
0
 62
7
  6
CONTINUOUS
370
-3
390
F
  0
LAYER
  5
21B
100
AcDbSymbolTableRecord
100
AcDbLayerTableRecord
  2
PIANI_DI_RIFERIMENTO
 70
0
 62
7
  6
CONTINUOUS
370
-3
390
F
  0
LAYER
  5
21C
100
AcDbSymbolTableRecord
100
AcDbLayerTableRecord
  2
PIANI_ORIGINE
 70
0
 62
7
  6
CONTINUOUS
370
-3
390
F
  0
LAYER
  5
21D
100
AcDbSymbolTableRecord
100
AcDbLayerTableRecord
  2
PIANI_RIFERIMENTO
 70
0
 62
7
  6
CONTINUOUS
370
-3
390
F
  0
LAYER
  5
21E
100
AcDbSymbolTableRecord
100
AcDbLayerTableRecord
  2
PIANI_SFORMO
 70
0
 62
7
  6
CONTINUOUS
370
-3
390
F
  0
LAYER
  5
21F
100
AcDbSymbolTableRecord
100
AcDbLayerTableRecord
  2
PUNTI
 70
0
 62
7
  6
CONTINUOUS
370
-3
390
F
  0
LAYER
  5
220
100
AcDbSymbolTableRecord
100
AcDbLayerTableRecord
  2
RACCORDO
 70
0
 62
7
  6
CONTINUOUS
370
-3
390
F
  0
LAYER
  5
221
100
AcDbSymbolTableRecord
100
AcDbLayerTableRecord
  2
RGB__255__255__255__
 70
0
 62
7
  6
CONTINUOUS
370
-3
390
F
  0
LAYER
  5
222
100
AcDbSymbolTableRecord
100
AcDbLayerTableRecord
  2
RINTRACCIABILITA
 70
0
 62
7
  6
CONTINUOUS
370
-3
390
F
  0
LAYER
  5
223
100
AcDbSymbolTableRecord
100
AcDbLayerTableRecord
  2
SIMBOLI
 70
0
 62
7
  6
CONTINUOUS
370
-3
390
F
  0
LAYER
  5
224
100
AcDbSymbolTableRecord
100
AcDbLayerTableRecord
  2
SMUSSO
 70
0
 62
7
  6
CONTINUOUS
370
-3
390
F
  0
LAYER
  5
225
100
AcDbSymbolTableRecord
100
AcDbLayerTableRecord
  2
SNAPLINE
 70
0
 62
7
  6
CONTINUOUS
370
-3
390
F
  0
LAYER
  5
226
100
AcDbSymbolTableRecord
100
AcDbLayerTableRecord
  2
SUPERFICI
 70
0
 62
7
  6
CONTINUOUS
370
-3
390
F
  0
LAYER
  5
227
100
AcDbSymbolTableRecord
100
AcDbLayerTableRecord
  2
TRASH
 70
0
 62
7
  6
CONTINUOUS
370
-3
390
F
  0
LAYER
  5
228
100
AcDbSymbolTableRecord
100
AcDbLayerTableRecord
  2
WHITE
 70
0
 62
7
  6
CONTINUOUS
370
-3
390
F
  0
LAYER
  5
229
100
AcDbSymbolTableRecord
100
AcDbLayerTableRecord
  2
XSEC_DATUMS
 70
0
 62
7
  6
CONTINUOUS
370
-3
390
F
  0
ENDTAB
  0
TABLE
  2
STYLE
  5
3
100
AcDbSymbolTable
 70
1
  0
STYLE
  5
11
100
AcDbSymbolTableRecord
100
AcDbTextStyleTableRecord
  2
STANDARD
 70
0
 40
0.0
 41
0.8
 50
0.0
 71
0
 42
0.2
  3
txt
  4

  0
STYLE
  5
22A
100
AcDbSymbolTableRecord
100
AcDbTextStyleTableRecord
  2
TEXTSTYLE_1
 70
0
 40
0.0
 41
0.8
 50
0.0
 71
0
 42
0.2
  3
gdt
  4

  0
ENDTAB
  0
TABLE
  2
VIEW
  5
6
100
AcDbSymbolTable
 70
0
  0
ENDTAB
  0
TABLE
  2
UCS
  5
7
100
AcDbSymbolTable
 70
0
  0
ENDTAB
  0
TABLE
  2
APPID
  5
9
100
AcDbSymbolTable
 70
1
  0
APPID
  5
22B
100
AcDbSymbolTableRecord
100
AcDbRegAppTableRecord
  2
ACAD
 70
0
  0
ENDTAB
  0
TABLE
  2
BLOCK_RECORD
  5
1
100
AcDbSymbolTable
 70
0
  0
BLOCK_RECORD
  5
22C
100
AcDbSymbolTableRecord
100
AcDbBlockTableRecord
  2
*Model_Space
  0
BLOCK_RECORD
  5
22D
100
AcDbSymbolTableRecord
100
AcDbBlockTableRecord
  2
*Paper_Space
  0
BLOCK_RECORD
  5
22E
100
AcDbSymbolTableRecord
100
AcDbBlockTableRecord
  2
_FILLED
  0
ENDTAB
  0
TABLE
  2
DIMSTYLE
  5
A
100
AcDbSymbolTable
 70
1
100
AcDbDimStyleTable
 71
0
  0
DIMSTYLE
105
22F
100
AcDbSymbolTableRecord
100
AcDbDimStyleTableRecord
  2
STANDARD
 70
0
  3

  4

 40
1.0
 41
3.0
 42
0.5
 43
0.38
 44
1.5
 45
0.0
 46
0.0
 47
0.01
 48
0.01
140
3.0
141
0.09
142
0.0
143
25.4
144
1.0
145
0.0
146
1.0
147
0.625
 71
1
 72
0
 73
0
 74
0
 75
0
 76
0
 77
1
 78
8
 79
2
170
0
171
1
172
0
173
0
174
0
175
0
176
0
177
0
178
0
270
2
179
2
271
2
272
2
273
2
274
2
275
0
280
0
281
0
282
0
283
1
284
8
285
0
286
0
287
3
288
0
340
11
278
44
341
22E
342
22E
343
22E
344
22E
  0
ENDTAB
  0
ENDSEC
  0
SECTION
  2
BLOCKS
  0
BLOCK
  5
20
100
AcDbEntity
  8
0
100
AcDbBlockBegin
  2
*Model_Space
 70
0
 10
0.0
 20
0.0
 30
0.0
  3
*Model_Space
  1

  0
ENDBLK
  5
21
100
AcDbEntity
  8
0
100
AcDbBlockEnd
  0
BLOCK
  5
1C
100
AcDbEntity
  8
0
100
AcDbBlockBegin
  2
*Paper_Space
 70
0
 10
0.0
 20
0.0
 30
0.0
  3
*Paper_Space
  1

  0
ENDBLK
  5
1D
100
AcDbEntity
  8
0
100
AcDbBlockEnd
  0
BLOCK
  5
230
100
AcDbEntity
  8
0
100
AcDbBlockBegin
  2
_FILLED
 70
64
 10
0.0
 20
0.0
  3
_FILLED
  1

  0
SOLID
  5
231
100
AcDbEntity
  8
0
  6
BYBLOCK
 62
0
100
AcDbTrace
 10
0.0
 20
0.0
 11
-1.0
 21
0.3166666667
 12
-1.0
 22
-0.3166666667
 13
-1.0
 23
-0.3166666667
  0
ENDBLK
  5
232
100
AcDbEntity
  8
0
  6
BYBLOCK
 62
0
100
AcDbBlockEnd
  0
ENDSEC
  0
SECTION
  2
ENTITIES
  0
LWPOLYLINE
  5
233
100
AcDbEntity
  8
RACCORDO
100
AcDbPolyline
 62
250
  6
CONTINUOUS
 90
13
 70
0
 10
-18.9891782532
 20
23.6852302314
 10
-19.0677482604
 20
23.5996071205
 10
-19.1429940176
 20
23.5078374067
 10
-19.2144151413
 20
23.4105457646
 10
-19.2815224514
 20
23.3083934187
 10
-19.3438546682
 20
23.2020740574
 10
-19.4009962153
 20
23.0923091736
 10
-19.452556812
 20
22.9798417408
 10
-19.4981790989
 20
22.8654390771
 10
-19.5375539669
 20
22.7498867702
 10
-19.5704128759
 20
22.6339737131
 10
-19.5965289253
 20
22.5184865489
 10
-19.6157230117
 20
22.4042117153
  0
LWPOLYLINE
  5
234
100
AcDbEntity
  8
ASSI
100
AcDbPolyline
 62
250
  6
CONTINUOUS
 90
3
 70
0
 10
-18.9891782532
 20
23.6852302314
 10
-19.0677482604
 20
23.5996071205
 10
-19.1429940176
 20
23.5078374067
  0
LWPOLYLINE
  5
235
100
AcDbEntity
  8
ASSI
100
AcDbPolyline
 62
250
  6
CONTINUOUS
 90
3
 70
0
 10
-18.8242358681
 20
23.8357580991
 10
-18.9078207829
 20
23.7641270219
 10
-18.9891782532
 20
23.6852302314
  0
LWPOLYLINE
  5
236
100
AcDbEntity
  8
ASSI
100
AcDbPolyline
 62
7
  6
CONTINUOUS
 90
10
 70
0
 10
-18.8595732986
 20
24.0545905532
 10
-19.0353666276
 20
23.9634757519
 10
-19.2049128526
 20
23.8422490263
 10
-19.3603316545
 20
23.6961610685
 10
-19.5024134621
 20
23.5242054097
 10
-19.6276061818
 20
23.3283032027
 10
-19.7269676287
 20
23.1228253041
 10
-19.7994648366
 20
22.9146867096
 10
-19.8467965204
 20
22.700596723
 10
-19.8518118365
 20
22.6666684148
  0
LINE
  5
237
100
AcDbEntity
  8
26814000
100
AcDbLine
 62
7
  6
CONTINUOUS
 10
-15.4342832533
 20
28.3290478049
 11
-13.8515266502
 21
29.1410319023
  0
LINE
  5
238
100
AcDbEntity
  8
26814000
100
AcDbLine
 62
7
  6
CONTINUOUS
 10
-15.9182383657
 20
26.5863474029
 11
-14.9060160816
 21
27.1032773656
  0
LINE
  5
239
100
AcDbEntity
  8
26814000
100
AcDbLine
 62
250
  6
CONTINUOUS
 10
-15.7607149594
 20
26.5769140733
 11
-14.9060160816
 21
27.0133986933
  0
LINE
  5
23A
100
AcDbEntity
  8
26814000
100
AcDbLine
 62
7
  6
CONTINUOUS
 10
-13.8264618443
 20
27.5251371004
 11
-12.2251810534
 21
28.3278591039
  0
LINE
  5
23B
100
AcDbEntity
  8
26814000
100
AcDbLine
 62
7
  6
CONTINUOUS
 10
-12.2251810534
 20
28.3278591039
 11
-11.6969138817
 21
28.5912979239
  0
LINE
  5
23C
100
AcDbEntity
  8
26814000
100
AcDbLine
 62
7
  6
CONTINUOUS
 10
-13.8515266502
 20
29.1410319023
 11
-13.3170767715
 21
29.4013793688
  0
LINE
  5
23D
100
AcDbEntity
  8
RACCORDO
100
AcDbLine
 62
7
  6
CONTINUOUS
 10
8.2070196798
 20
-29.7932597766
 11
8.3033183558
 21
-29.7662848932
  0
LWPOLYLINE
  5
23E
100
AcDbEntity
  8
RACCORDO
100
AcDbPolyline
 62
250
  6
CONTINUOUS
 90
19
 70
0
 10
8.6129508517
 20
-29.2914518428
 10
8.5717733847
 20
-29.302665689
 10
8.531775057
 20
-29.309456176
 10
8.4929558686
 20
-29.3118233038
 10
8.4550423852
 20
-29.3097317309
 10
8.4183080411
 20
-29.3032167987
 10
8.3835731395
 20
-29.2923845324
 10
8.3509027746
 20
-29.2771386896
 10
8.3202318522
 20
-29.2575755126
 10
8.292185392
 20
-29.2340897538
 10
8.2668174774
 20
-29.2065988919
 10
8.2440740251
 20
-29.1751854481
 10
8.2244178052
 20
-29.1404917376
 10
8.2079140191
 20
-29.1024220015
 10
8.1944974655
 20
-29.0610719988
 10
8.18443531
 20
-29.0173713213
 10
8.1778166081
 20
-28.9716298332
 10
8.1745523044
 20
-28.9235376705
 10
8.174642399
 20
-28.8730948331
  0
LWPOLYLINE
  5
23F
100
AcDbEntity
  8
ASSI
100
AcDbPolyline
 62
250
  6
CONTINUOUS
 90
19
 70
0
 10
8.6129508517
 20
-29.2914518428
 10
8.5717733847
 20
-29.302665689
 10
8.531775057
 20
-29.309456176
 10
8.4929558686
 20
-29.3118233038
 10
8.4550423852
 20
-29.3097317309
 10
8.4183080411
 20
-29.3032167987
 10
8.3835731395
 20
-29.2923845324
 10
8.3509027746
 20
-29.2771386896
 10
8.3202318522
 20
-29.2575755126
 10
8.292185392
 20
-29.2340897538
 10
8.2668174774
 20
-29.2065988919
 10
8.2440740251
 20
-29.1751854481
 10
8.2244178052
 20
-29.1404917376
 10
8.2079140191
 20
-29.1024220015
 10
8.1944974655
 20
-29.0610719988
 10
8.18443531
 20
-29.0173713213
 10
8.1778166081
 20
-28.9716298332
 10
8.1745523044
 20
-28.9235376705
 10
8.174642399
 20
-28.8730948331
  0
LWPOLYLINE
  5
240
100
AcDbEntity
  8
ASSI
100
AcDbPolyline
 62
7
  6
CONTINUOUS
 90
3
 70
0
 10
8.0471656013
 20
-29.8200210822
 10
8.2155290519
 20
-29.7912090217
 10
8.3032507278
 20
-29.7663066795
  0
LWPOLYLINE
  5
241
100
AcDbEntity
  8
RACCORDO
100
AcDbPolyline
 62
7
  6
CONTINUOUS
 90
3
 70
0
 10
8.0067610931
 20
-29.8232615706
 10
8.1065082384
 20
-29.8126842119
 10
8.2070196798
 20
-29.7932597766
  0
LINE
  5
242
100
AcDbEntity
  8
ASSI
100
AcDbLine
 62
7
  6
CONTINUOUS
 10
7.8788385389
 20
-29.824068321
 11
8.0471656013
 21
-29.8200210822
  0
LWPOLYLINE
  5
243
100
AcDbEntity
  8
ASSI
100
AcDbPolyline
 62
250
  6
CONTINUOUS
 90
4
 70
0
 10
-19.3438546682
 20
23.2020740574
 10
-19.4009962153
 20
23.0923091736
 10
-19.452556812
 20
22.9798417408
 10
-19.4981790989
 20
22.8654390771
  0
LWPOLYLINE
  5
244
100
AcDbEntity
  8
ASSI
100
AcDbPolyline
 62
250
  6
CONTINUOUS
 90
4
 70
0
 10
-19.1429940176
 20
23.5078374067
 10
-19.2144151413
 20
23.4105457646
 10
-19.2815224514
 20
23.3083934187
 10
-19.3438546682
 20
23.2020740574
  0
LWPOLYLINE
  5
245
100
AcDbEntity
  8
26814000
100
AcDbPolyline
 62
7
  6
CONTINUOUS
 90
12
 70
0
 10
-4.2610551565
 20
29.8087618494
 10
-4.2673419479
 20
29.8054054758
 10
-4.2791963744
 20
29.7979012026
 10
-4.2908515545
 20
29.7890286914
 10
-4.3023471493
 20
29.7788435808
 10
-4.313638447
 20
29.7674125084
 10
-4.3247835134
 20
29.7547654823
 10
-4.3358503928
 20
29.7409359461
 10
-4.3467965119
 20
29.7259664473
 10
-4.3576438131
 20
29.7098835201
 10
-4.3684822418
 20
29.6927152658
 10
-4.3793666098
 20
29.6744966343
  0
LINE
  5
246
100
AcDbEntity
  8
26814000
100
AcDbLine
 62
7
  6
CONTINUOUS
 10
-9.960786622
 20
26.1763021064
 11
-9.4674646068
 21
26.4293856383
  0
LINE
  5
247
100
AcDbEntity
  8
26814000
100
AcDbLine
 62
7
  6
CONTINUOUS
 10
-12.2251810534
 20
26.5958082963
 11
-13.2920119656
 21
26.0572270468
  0
LINE
  5
248
100
AcDbEntity
  8
26814000
100
AcDbLine
 62
7
  6
CONTINUOUS
 10
-10.7694000769
 20
26.5674669001
 11
-4.2613634502
 21
29.8086085056
  0
LINE
  5
249
100
AcDbEntity
  8
26814000
100
AcDbLine
 62
250
  6
CONTINUOUS
 10
-10.6939069364
 20
26.5297203298
 11
-4.3793666098
 21
29.6744966343
  0
LINE
  5
24A
100
AcDbEntity
  8
26814000
100
AcDbLine
 62
7
  6
CONTINUOUS
 10
-3.3863462886
 20
28.7947531036
 11
-8.1239617225
 21
26.459702589
  0
LINE
  5
24B
100
AcDbEntity
  8
26814000
100
AcDbLine
 62
7
  6
CONTINUOUS
 10
-9.4674646068
 20
26.4293856383
 11
-3.9898246173
 21
29.0977176015
  0
LWPOLYLINE
  5
24C
100
AcDbEntity
  8
RACCORDO
100
AcDbPolyline
 62
250
  6
CONTINUOUS
 90
7
 70
0
 10
-18.4791366759
 20
24.040607627
 10
-18.5658413567
 20
24.0023989952
 10
-18.6526569941
 20
23.9552993205
 10
-18.7389872398
 20
23.8996275729
 10
-18.8242358681
 20
23.8357580991
 10
-18.9078207829
 20
23.7641270219
 10
-18.9891782532
 20
23.6852302314
  0
LWPOLYLINE
  5
24D
100
AcDbEntity
  8
ASSI
100
AcDbPolyline
 62
250
  6
CONTINUOUS
 90
5
 70
0
 10
-18.4791366759
 20
24.040607627
 10
-18.5658413567
 20
24.0023989952
 10
-18.6526569941
 20
23.9552993205
 10
-18.7389872398
 20
23.8996275729
 10
-18.8242358681
 20
23.8357580991
  0
LWPOLYLINE
  5
24E
100
AcDbEntity
  8
RACCORDO
100
AcDbPolyline
 62
7
  6
CONTINUOUS
 90
16
 70
0
 10
-18.8292291908
 20
24.0671248318
 10
-18.9141522195
 20
24.0297443145
 10
-19.0064210887
 20
23.9807462839
 10
-19.0963723478
 20
23.9239337856
 10
-19.1834827126
 20
23.8595920805
 10
-19.2668829603
 20
23.7884770374
 10
-19.3466021701
 20
23.7106451956
 10
-19.4224218009
 20
23.6262691541
 10
-19.4933104407
 20
23.5365896446
 10
-19.5592016076
 20
23.4417601957
 10
-19.6199128543
 20
23.3419737013
 10
-19.6744918826
 20
23.2388773015
 10
-19.7228389281
 20
23.1327321013
 10
-19.7648311317
 20
23.0237088452
 10
-19.7998077469
 20
22.9134810924
 10
-19.8275895498
 20
22.8027453017
  0
LINE
  5
24F
100
AcDbEntity
  8
ASSI
100
AcDbLine
 62
7
  6
CONTINUOUS
 10
-18.8294616343
 20
24.0670321389
 11
-18.8595732986
 21
24.0545905532
  0
LINE
  5
250
100
AcDbEntity
  8
RACCORDO
100
AcDbLine
 62
7
  6
CONTINUOUS
 10
-14.9163008765
 20
25.6237528135
 11
-18.8292355014
 21
24.0671406827
  0
LINE
  5
251
100
AcDbEntity
  8
ASSI
100
AcDbLine
 62
7
  6
CONTINUOUS
 10
-14.9163008765
 20
25.6237528135
 11
-18.8294679467
 21
24.0670479805
  0
LINE
  5
252
100
AcDbEntity
  8
RACCORDO
100
AcDbLine
 62
250
  6
CONTINUOUS
 10
-14.5701641143
 20
25.595643551
 11
-18.4791366759
 21
24.040607627
  0
LINE
  5
253
100
AcDbEntity
  8
ASSI
100
AcDbLine
 62
250
  6
CONTINUOUS
 10
-14.5701641143
 20
25.595643551
 11
-18.4791366759
 21
24.040607627
  0
LWPOLYLINE
  5
254
100
AcDbEntity
  8
26814000
100
AcDbPolyline
 62
7
  6
CONTINUOUS
 90
3
 70
0
 10
-4.2426074181
 20
29.8162191921
 10
-4.2551724378
 20
29.8115201413
 10
-4.2610551565
 20
29.8087618494
  0
LWPOLYLINE
  5
255
100
AcDbEntity
  8
26814000
100
AcDbPolyline
 62
7
  6
CONTINUOUS
 90
10
 70
0
 10
-4.2426074181
 20
29.8162191921
 10
-4.2333677972
 20
29.8189649911
 10
-4.2248046434
 20
29.8212307096
 10
-4.2169179565
 20
29.8230163476
 10
-4.2096685982
 20
29.8243427522
 10
-4.2030957069
 20
29.8251890764
 10
-4.1973166975
 20
29.8254927791
 10
-4.1923357403
 20
29.8252534433
 10
-4.1881486651
 20
29.8244714862
 10
-4.185558984
 20
29.823475053
  0
LWPOLYLINE
  5
256
100
AcDbEntity
  8
RACCORDO
100
AcDbPolyline
 62
7
  6
CONTINUOUS
 90
3
 70
0
 10
7.8110378459
 20
-29.8185822654
 10
7.9082290167
 20
-29.8251635562
 10
8.0067610931
 20
-29.8232615706
  0
LINE
  5
257
100
AcDbEntity
  8
ASSI
100
AcDbLine
 62
7
  6
CONTINUOUS
 10
7.7147954404
 20
-29.803495848
 11
7.8788385389
 21
-29.824068321
  0
LWPOLYLINE
  5
258
100
AcDbEntity
  8
ASSI
100
AcDbPolyline
 62
250
  6
CONTINUOUS
 90
4
 70
0
 10
-19.4981790989
 20
22.8654390771
 10
-19.5375539669
 20
22.7498867702
 10
-19.5704128759
 20
22.6339737131
 10
-19.5965289253
 20
22.5184865489
  0
LINE
  5
259
100
AcDbEntity
  8
26814000
100
AcDbLine
 62
7
  6
CONTINUOUS
 10
-11.6100622184
 20
27.9703003373
 11
-12.1373069341
 21
27.3285926093
  0
LINE
  5
25A
100
AcDbEntity
  8
26814000
100
AcDbLine
 62
7
  6
CONTINUOUS
 10
-2.0592724602
 20
27.32487887
 11
-3.4570569667
 21
26.6259866167
  0
LINE
  5
25B
100
AcDbEntity
  8
26814000
100
AcDbLine
 62
7
  6
CONTINUOUS
 10
-3.8106103573
 20
27.3553215014
 11
-3.3863462886
 21
27.5629189222
  0
LINE
  5
25C
100
AcDbEntity
  8
26814000
100
AcDbLine
 62
7
  6
CONTINUOUS
 10
-1.4002767088
 20
28.1849516839
 11
-3.4570569667
 21
27.1785448061
  0
LINE
  5
25D
100
AcDbEntity
  8
21814000
100
AcDbLine
 62
7
  6
CONTINUOUS
 10
-4.394264177
 20
25.9988908338
 11
-4.5323789791
 21
25.9336537485
  0
LINE
  5
25E
100
AcDbEntity
  8
21814000
100
AcDbLine
 62
250
  6
CONTINUOUS
 10
-4.3107301705
 20
25.9903917471
 11
-4.4470064596
 21
25.9260230642
  0
LWPOLYLINE
  5
25F
100
AcDbEntity
  8
21814000
100
AcDbPolyline
 62
250
  6
CONTINUOUS
 90
11
 70
0
 10
-3.4772640475
 20
26.0442117202
 10
-3.468171587
 20
26.0483021713
 10
-3.4591129128
 20
26.0516589565
 10
-3.4501257912
 20
26.0542659286
 10
-3.4412446035
 20
26.0561105328
 10
-3.4325101391
 20
26.0571816784
 10
-3.4239687907
 20
26.0574726925
 10
-3.4156519654
 20
26.0569821984
 10
-3.4075987414
 20
26.055712186
 10
-3.3998627611
 20
26.0536746698
 10
-3.3924891183
 20
26.0508913009
  0
LINE
  5
260
100
AcDbEntity
  8
21814000
100
AcDbLine
 62
7
  6
CONTINUOUS
 10
-4.3942106615
 20
25.9989161112
 11
-4.3910026214
 21
26.0003317409
  0
LWPOLYLINE
  5
261
100
AcDbEntity
  8
21814000
100
AcDbPolyline
 62
7
  6
CONTINUOUS
 90
5
 70
0
 10
-4.5324974478
 20
25.9335968462
 10
-4.5276542831
 20
25.9356544704
 10
-4.5202279232
 20
25.9379723329
 10
-4.512081505
 20
25.9395046975
 10
-4.5031631701
 20
25.9401556112
  0
LINE
  5
262
100
AcDbEntity
  8
21814000
100
AcDbLine
 62
7
  6
CONTINUOUS
 10
-4.3211620316
 20
26.0264328781
 11
-4.3910029827
 21
26.0003315706
  0
LINE
  5
263
100
AcDbEntity
  8
21814000
100
AcDbLine
 62
7
  6
CONTINUOUS
 10
-4.2461229214
 20
26.0493604431
 11
-4.3211620316
 21
26.0264328781
  0
LWPOLYLINE
  5
264
100
AcDbEntity
  8
21814000
100
AcDbPolyline
 62
7
  6
CONTINUOUS
 90
6
 70
0
 10
-4.3910026214
 20
26.0003317409
 10
-4.3777743468
 20
26.0042737658
 10
-4.3619907267
 20
26.0056124012
 10
-4.3453533941
 20
26.0037185761
 10
-4.328164793
 20
25.9986173672
 10
-4.3107301705
 20
25.9903917471
  0
LWPOLYLINE
  5
265
100
AcDbEntity
  8
RACCORDO
100
AcDbPolyline
 62
250
  6
CONTINUOUS
 90
9
 70
0
 10
15.9849972018
 20
-27.5315856747
 10
16.0108282824
 20
-27.5324846901
 10
16.0367487625
 20
-27.5319795447
 10
16.0625733518
 20
-27.5300849517
 10
16.0880392902
 20
-27.5268046979
 10
16.112849875
 20
-27.522163185
 10
16.1367675425
 20
-27.516207132
 10
16.1595310961
 20
-27.5089849097
 10
16.1808633101
 20
-27.5005531383
  0
LWPOLYLINE
  5
266
100
AcDbEntity
  8
RACCORDO
100
AcDbPolyline
 62
7
  6
CONTINUOUS
 90
3
 70
0
 10
7.623481224
 20
-29.780849025
 10
7.7159056647
 20
-29.8037201477
 10
7.8110378459
 20
-29.8185822654
  0
LINE
  5
267
100
AcDbEntity
  8
ASSI
100
AcDbLine
 62
7
  6
CONTINUOUS
 10
7.5589107337
 20
-29.759581454
 11
7.7147954404
 21
-29.803495848
  0
LINE
  5
268
100
AcDbEntity
  8
RACCORDO
100
AcDbLine
 62
7
  6
CONTINUOUS
 10
7.5339201937
 20
-29.7501240081
 11
7.623481224
 21
-29.780849025
  0
LWPOLYLINE
  5
269
100
AcDbEntity
  8
ASSI
100
AcDbPolyline
 62
7
  6
CONTINUOUS
 90
4
 70
0
 10
-22.8112199668
 20
-14.473187702
 10
-22.6707349556
 20
-14.6178215709
 10
-22.5091719325
 20
-14.7314887286
 10
-22.4591824465
 20
-14.7583289704
  0
LWPOLYLINE
  5
26A
100
AcDbEntity
  8
ASSI
100
AcDbPolyline
 62
7
  6
CONTINUOUS
 90
3
 70
0
 10
-23.0115703968
 20
-14.0995512567
 10
-22.9272110601
 20
-14.29786803
 10
-22.8112199668
 20
-14.473187702
  0
LWPOLYLINE
  5
26B
100
AcDbEntity
  8
RACCORDO
100
AcDbPolyline
 62
7
  6
CONTINUOUS
 90
14
 70
0
 10
-23.0771690177
 20
-13.6388942126
 10
-23.0745417114
 20
-13.7625310949
 10
-23.0621744141
 20
-13.8819260475
 10
-23.04036053
 20
-13.9965328125
 10
-23.0094013286
 20
-14.1061719802
 10
-22.9695226587
 20
-14.2106019811
 10
-22.9210777404
 20
-14.309164063
 10
-22.8644806874
 20
-14.4013492852
 10
-22.8001372845
 20
-14.4867234214
 10
-22.7286956028
 20
-14.5645876766
 10
-22.6508730048
 20
-14.6343544017
 10
-22.5673785651
 20
-14.6956413514
 10
-22.4790982086
 20
-14.7480520544
 10
-22.4558346978
 20
-14.760007281
  0
LWPOLYLINE
  5
26C
100
AcDbEntity
  8
RACCORDO
100
AcDbPolyline
 62
250
  6
CONTINUOUS
 90
11
 70
0
 10
-22.8419812857
 20
-13.8894122541
 10
-22.8424929483
 20
-13.9968162147
 10
-22.8358382414
 20
-14.1002584058
 10
-22.8220636795
 20
-14.1990337157
 10
-22.8012663812
 20
-14.2924688083
 10
-22.7735880883
 20
-14.3799261682
 10
-22.7392150456
 20
-14.460809226
 10
-22.6983871723
 20
-14.5345641646
 10
-22.6513842896
 20
-14.6006913469
 10
-22.5985184245
 20
-14.6587473921
 10
-22.5401538499
 20
-14.7083347178
  0
LWPOLYLINE
  5
26D
100
AcDbEntity
  8
ASSI
100
AcDbPolyline
 62
250
  6
CONTINUOUS
 90
13
 70
0
 10
-22.8419812857
 20
-13.8894122541
 10
-22.8424929483
 20
-13.9968162147
 10
-22.8358382414
 20
-14.1002584058
 10
-22.8220636795
 20
-14.1990337157
 10
-22.8012663812
 20
-14.2924688083
 10
-22.7735880883
 20
-14.3799261682
 10
-22.7392150456
 20
-14.460809226
 10
-22.6983871723
 20
-14.5345641646
 10
-22.6513842896
 20
-14.6006913469
 10
-22.5985184245
 20
-14.6587473921
 10
-22.5401538499
 20
-14.7083347178
 10
-22.4766908196
 20
-14.7491141741
 10
-22.4593038475
 20
-14.7582910029
  0
LWPOLYLINE
  5
26E
100
AcDbEntity
  8
ASSI
100
AcDbPolyline
 62
7
  6
CONTINUOUS
 90
4
 70
0
 10
-23.0763060596
 20
-13.6083797478
 10
-23.0774420501
 20
-13.6696297841
 10
-23.061204101
 20
-13.8884425825
 10
-23.0115703968
 20
-14.0995512567
  0
LINE
  5
26F
100
AcDbEntity
  8
RACCORDO
100
AcDbLine
 62
7
  6
CONTINUOUS
 10
-23.0763179437
 20
-13.6086950723
 11
-23.0771690177
 21
-13.6388942126
  0
LINE
  5
270
100
AcDbEntity
  8
RACCORDO
100
AcDbLine
 62
7
  6
CONTINUOUS
 10
-23.0763179437
 20
-13.6086950723
 11
-23.0763101155
 21
-13.6084857087
  0
LINE
  5
271
100
AcDbEntity
  8
ASSI
100
AcDbLine
 62
7
  6
CONTINUOUS
 10
-23.0763101263
 20
-13.6084859925
 11
-23.0763060596
 21
-13.6083797478
  0
LINE
  5
272
100
AcDbEntity
  8
ASSI
100
AcDbLine
 62
7
  6
CONTINUOUS
 10
-22.9158515359
 20
-9.9120661216
 11
-23.0763222761
 21
-13.6084855383
  0
LWPOLYLINE
  5
273
100
AcDbEntity
  8
RACCORDO
100
AcDbPolyline
 62
7
  6
CONTINUOUS
 90
3
 70
0
 10
-22.8018976246
 20
-7.7177018613
 10
-22.9538284833
 20
-10.7095530837
 10
-23.0763222653
 20
-13.6084852544
  0
LWPOLYLINE
  5
274
100
AcDbEntity
  8
RACCORDO
100
AcDbPolyline
 62
7
  6
CONTINUOUS
 90
10
 70
0
 10
-20.2528971628
 20
19.6715461265
 10
-20.6407338947
 20
16.591712335
 10
-21.0025174081
 20
13.5201081059
 10
-21.3381931285
 20
10.457167051
 10
-21.6477204222
 20
7.4032702597
 10
-21.9310625346
 20
4.358778396
 10
-22.1881823064
 20
1.324066433
 10
-22.4190478213
 20
-1.7004926435
 10
-22.6236293699
 20
-4.7145409743
 10
-22.8018976246
 20
-7.7177018613
  0
LWPOLYLINE
  5
275
100
AcDbEntity
  8
ASSI
100
AcDbPolyline
 62
7
  6
CONTINUOUS
 90
9
 70
0
 10
-19.851753241
 20
22.6671859421
 10
-20.3558955496
 20
18.8726988251
 10
-20.8654382397
 20
14.7092088563
 10
-21.3271986467
 20
10.5612618329
 10
-21.7410648143
 20
6.4298514347
 10
-22.1069430826
 20
2.3159002039
 10
-22.424750058
 20
-1.7796905352
 10
-22.6944095003
 20
-5.8560050999
 10
-22.9158515359
 20
-9.9120661216
  0
LWPOLYLINE
  5
276
100
AcDbEntity
  8
RACCORDO
100
AcDbPolyline
 62
250
  6
CONTINUOUS
 90
13
 70
0
 10
-19.6157230117
 20
22.4042117153
 10
-20.0271490231
 20
19.329529133
 10
-20.4127903434
 20
16.2627016454
 10
-20.7725983031
 20
13.2041141069
 10
-21.106527443
 20
10.154150359
 10
-21.4145357932
 20
7.1131932042
 10
-21.6965848755
 20
4.0816243581
 10
-21.9526394291
 20
1.0598244533
 10
-22.1826671654
 20
-1.9518272496
 10
-22.3866390412
 20
-4.9529528856
 10
-22.5645295085
 20
-7.9431757221
 10
-22.7163165218
 20
-10.9221202069
 10
-22.8419812857
 20
-13.8894122541
  0
LWPOLYLINE
  5
277
100
AcDbEntity
  8
ASSI
100
AcDbPolyline
 62
250
  6
CONTINUOUS
 90
12
 70
0
 10
-19.6157230117
 20
22.4042117153
 10
-20.0271490231
 20
19.329529133
 10
-20.4127903434
 20
16.2627016454
 10
-20.7725983031
 20
13.2041141069
 10
-21.106527443
 20
10.154150359
 10
-21.4145357932
 20
7.1131932042
 10
-21.6965848755
 20
4.0816243581
 10
-21.9526394291
 20
1.0598244533
 10
-22.1826671654
 20
-1.9518272496
 10
-22.3866390412
 20
-4.9529528856
 10
-22.5645295085
 20
-7.9431757221
 10
-22.7163165218
 20
-10.9221202069
  0
LINE
  5
278
100
AcDbEntity
  8
RACCORDO
100
AcDbLine
 62
7
  6
CONTINUOUS
 10
-19.8517532703
 20
22.6671857299
 11
-20.2528971628
 21
19.6715461265
  0
LINE
  5
279
100
AcDbEntity
  8
ASSI
100
AcDbLine
 62
250
  6
CONTINUOUS
 10
-19.5965289253
 20
22.5184865489
 11
-19.6157230117
 21
22.4042117153
  0
LWPOLYLINE
  5
27A
100
AcDbEntity
  8
RACCORDO
100
AcDbPolyline
 62
7
  6
CONTINUOUS
 90
3
 70
0
 10
-19.8275895498
 20
22.8027453017
 10
-19.8482432202
 20
22.6912785558
 10
-19.8517545907
 20
22.6670922099
  0
LINE
  5
27B
100
AcDbEntity
  8
21814000
100
AcDbLine
 62
7
  6
CONTINUOUS
 10
-4.5471101777
 20
25.9239773173
 11
-5.4580365361
 21
25.1267399958
  0
LINE
  5
27C
100
AcDbEntity
  8
21814000
100
AcDbLine
 62
250
  6
CONTINUOUS
 10
-4.447665334
 20
25.9263525014
 11
-5.3964755142
 21
25.0959594848
  0
LWPOLYLINE
  5
27D
100
AcDbEntity
  8
21814000
100
AcDbPolyline
 62
7
  6
CONTINUOUS
 90
5
 70
0
 10
-4.5472074166
 20
25.9238917188
 10
-4.5461266132
 20
25.9248232393
 10
-4.5405782485
 20
25.9290059757
 10
-4.5344237886
 20
25.9326436243
 10
-4.5324974478
 20
25.9335968462
  0
LINE
  5
27E
100
AcDbEntity
  8
21814000
100
AcDbLine
 62
250
  6
CONTINUOUS
 10
-4.8957465559
 20
24.8455950056
 11
-4.4219381123
 21
25.2170150621
  0
LINE
  5
27F
100
AcDbEntity
  8
21814000
100
AcDbLine
 62
250
  6
CONTINUOUS
 10
-4.6178568929
 20
24.7066501741
 11
-4.2491309823
 21
24.9956956742
  0
LWPOLYLINE
  5
280
100
AcDbEntity
  8
21814000
100
AcDbPolyline
 62
250
  6
CONTINUOUS
 90
13
 70
0
 10
-4.4219381123
 20
25.2170150621
 10
-4.380759193
 20
25.246561192
 10
-4.3375638206
 20
25.2731713282
 10
-4.2923519953
 20
25.2968454705
 10
-4.2445750272
 20
25.3177404386
 10
-4.1947816062
 20
25.3356994128
 10
-4.144617801
 20
25.350251935
 10
-4.09411201
 20
25.3612704331
 10
-4.0432358349
 20
25.3688824791
 10
-3.9935501495
 20
25.373000331
 10
-3.9451951952
 20
25.3735385265
 10
-3.8980307306
 20
25.3705825278
 10
-3.8531969056
 20
25.3643009796
  0
LINE
  5
281
100
AcDbEntity
  8
26814000
100
AcDbLine
 62
7
  6
CONTINUOUS
 10
-3.7440206652
 20
23.067919128
 11
-3.2449249324
 21
23.3181158011
  0
LINE
  5
282
100
AcDbEntity
  8
26814000
100
AcDbLine
 62
7
  6
CONTINUOUS
 10
-3.2449249324
 20
23.3181158011
 11
2.1693477628
 21
26.0181314115
  0
LINE
  5
283
100
AcDbEntity
  8
26814000
100
AcDbLine
 62
7
  6
CONTINUOUS
 10
1.5634011797
 20
26.3198793694
 11
-3.1742142542
 21
23.9848288548
  0
LWPOLYLINE
  5
284
100
AcDbEntity
  8
26814000
100
AcDbPolyline
 62
7
  6
CONTINUOUS
 90
18
 70
0
 10
2.8423639783
 20
26.0636313403
 10
2.870738499
 20
26.0768132971
 10
2.898972951
 20
26.0885476888
 10
2.9270673343
 20
26.0988345155
 10
2.9550716473
 20
26.1076866501
 10
2.9829358916
 20
26.1150912197
 10
3.0105100712
 20
26.1210096053
 10
3.0377791999
 20
26.1254330266
 10
3.0647582639
 20
26.1283702639
 10
3.0913422265
 20
26.1298090399
 10
3.1175471854
 20
26.1297419033
 10
3.1433570429
 20
26.1281763053
 10
3.1686184691
 20
26.1251223219
 10
3.1933082224
 20
26.1205765375
 10
3.2174495446
 20
26.1145423677
 10
3.2409588308
 20
26.1070401349
 10
3.263854611
 20
26.0980547203
 10
3.2834166953
 20
26.0889649872
  0
LWPOLYLINE
  5
285
100
AcDbEntity
  8
21814000
100
AcDbPolyline
 62
250
  6
CONTINUOUS
 90
9
 70
0
 10
9.4601599317
 20
28.6003134275
 10
9.5141663333
 20
28.6233449435
 10
9.5678864064
 20
28.6405865801
 10
9.6209222508
 20
28.6518513516
 10
9.6729081761
 20
28.6569952682
 10
9.723409426
 20
28.6559071292
 10
9.7719375622
 20
28.648551734
 10
9.8181198549
 20
28.6349575845
 10
9.8515309453
 20
28.6204477132
  0
LWPOLYLINE
  5
286
100
AcDbEntity
  8
21814000
100
AcDbPolyline
 62
7
  6
CONTINUOUS
 90
12
 70
0
 10
9.0717024492
 20
28.6325277632
 10
9.1373299253
 20
28.6597474128
 10
9.2060287558
 20
28.6820231822
 10
9.2773362384
 20
28.6989225644
 10
9.3508928879
 20
28.7100868889
 10
9.4259208702
 20
28.7151586117
 10
9.5013068276
 20
28.7139377649
 10
9.5764923363
 20
28.7063876299
 10
9.6508497679
 20
28.6925409984
 10
9.7233711393
 20
28.6726313816
 10
9.7937231709
 20
28.6468419308
 10
9.8515632998
 20
28.6204315357
  0
LWPOLYLINE
  5
287
100
AcDbEntity
  8
21814000
100
AcDbPolyline
 62
250
  6
CONTINUOUS
 90
9
 70
0
 10
9.0717024492
 20
28.6325277632
 10
9.0996150747
 20
28.6439267427
 10
9.1461294877
 20
28.6569057957
 10
9.1949484403
 20
28.663483389
 10
9.2457005348
 20
28.6636094826
 10
9.2979996669
 20
28.6572831171
 10
9.3514479626
 20
28.6445524215
 10
9.405638806
 20
28.6255142463
 10
9.4601599317
 20
28.6003134275
  0
LINE
  5
288
100
AcDbEntity
  8
RACCORDO
100
AcDbLine
 62
250
  6
CONTINUOUS
 10
17.6147251126
 20
-27.8425858153
 11
17.0843950268
 21
-27.7327508582
  0
LINE
  5
289
100
AcDbEntity
  8
RACCORDO
100
AcDbLine
 62
250
  6
CONTINUOUS
 10
17.526336765
 20
-27.5225032938
 11
16.9960066791
 21
-27.4126683368
  0
LINE
  5
28A
100
AcDbEntity
  8
ASSI
100
AcDbLine
 62
7
  6
CONTINUOUS
 10
7.4415471395
 20
-29.7086678424
 11
7.5589107337
 21
-29.759581454
  0
LINE
  5
28B
100
AcDbEntity
  8
RACCORDO
100
AcDbLine
 62
7
  6
CONTINUOUS
 10
7.4460127132
 20
-29.7109321002
 11
7.5339201937
 21
-29.7501240081
  0
LWPOLYLINE
  5
28C
100
AcDbEntity
  8
RACCORDO
100
AcDbPolyline
 62
250
  6
CONTINUOUS
 90
16
 70
0
 10
7.053770999
 20
-28.837288375
 10
7.1152785739
 20
-28.8650992263
 10
7.1821818653
 20
-28.8899277087
 10
7.2537640144
 20
-28.9115077888
 10
7.3292580292
 20
-28.9296082392
 10
7.4078550028
 20
-28.9440351163
 10
7.4887127804
 20
-28.954633838
 10
7.5709649829
 20
-28.9612908403
 10
7.6537302905
 20
-28.9639347947
 10
7.7361218853
 20
-28.9625373715
 10
7.8172569536
 20
-28.9571135439
 10
7.8962661455
 20
-28.9477214274
 10
7.9723028894
 20
-28.9344616571
 10
8.0445524628
 20
-28.9174763095
 10
8.1122407225
 20
-28.8969473801
 10
8.174642399
 20
-28.8730948331
  0
LWPOLYLINE
  5
28D
100
AcDbEntity
  8
ASSI
100
AcDbPolyline
 62
250
  6
CONTINUOUS
 90
16
 70
0
 10
7.053770999
 20
-28.837288375
 10
7.1152785739
 20
-28.8650992263
 10
7.1821818653
 20
-28.8899277087
 10
7.2537640144
 20
-28.9115077888
 10
7.3292580292
 20
-28.9296082392
 10
7.4078550028
 20
-28.9440351163
 10
7.4887127804
 20
-28.954633838
 10
7.5709649829
 20
-28.9612908403
 10
7.6537302905
 20
-28.9639347947
 10
7.7361218853
 20
-28.9625373715
 10
7.8172569536
 20
-28.9571135439
 10
7.8962661455
 20
-28.9477214274
 10
7.9723028894
 20
-28.9344616571
 10
8.0445524628
 20
-28.9174763095
 10
8.1122407225
 20
-28.8969473801
 10
8.174642399
 20
-28.8730948331
  0
LINE
  5
28E
100
AcDbEntity
  8
RACCORDO
100
AcDbLine
 62
7
  6
CONTINUOUS
 10
7.4464548012
 20
-29.7111757999
 11
-22.4572511566
 21
-14.759322821
  0
LINE
  5
28F
100
AcDbEntity
  8
RACCORDO
100
AcDbLine
 62
250
  6
CONTINUOUS
 10
7.0537709761
 20
-28.8372883851
 11
-22.8419812857
 21
-13.8894122541
  0
LINE
  5
290
100
AcDbEntity
  8
ASSI
100
AcDbLine
 62
250
  6
CONTINUOUS
 10
7.0537709761
 20
-28.8372883851
 11
-22.8419812857
 21
-13.8894122541
  0
LINE
  5
291
100
AcDbEntity
  8
ASSI
100
AcDbLine
 62
7
  6
CONTINUOUS
 10
-22.4593038475
 20
-14.7582910029
 11
7.4464548012
 21
-29.7111757999
  0
LINE
  5
292
100
AcDbEntity
  8
ASSI
100
AcDbLine
 62
250
  6
CONTINUOUS
 10
7.4464270121
 20
-29.7111619053
 11
7.4414338572
 21
-29.7086347184
  0
LWPOLYLINE
  5
293
100
AcDbEntity
  8
RACCORDO
100
AcDbPolyline
 62
250
  6
CONTINUOUS
 90
13
 70
0
 10
7.4458867125
 20
-29.710891396
 10
7.4266153024
 20
-29.7007672351
 10
7.3619998944
 20
-29.6594115899
 10
7.3025637626
 20
-29.6092884856
 10
7.2487088705
 20
-29.5507379269
 10
7.2007977813
 20
-29.4841566414
 10
7.1591609331
 20
-29.4099972154
 10
7.1240802303
 20
-29.3287603275
 10
7.0957935089
 20
-29.2409987533
 10
7.0744991745
 20
-29.1473151427
 10
7.0603430228
 20
-29.0483490379
 10
7.0534181185
 20
-28.9447717481
 10
7.0537709761
 20
-28.8372883851
  0
LWPOLYLINE
  5
294
100
AcDbEntity
  8
ASSI
100
AcDbPolyline
 62
250
  6
CONTINUOUS
 90
13
 70
0
 10
7.4414338572
 20
-29.7086347184
 10
7.4266153024
 20
-29.7007672351
 10
7.3619998944
 20
-29.6594115899
 10
7.3025637626
 20
-29.6092884856
 10
7.2487088705
 20
-29.5507379269
 10
7.2007977813
 20
-29.4841566414
 10
7.1591609331
 20
-29.4099972154
 10
7.1240802303
 20
-29.3287603275
 10
7.0957935089
 20
-29.2409987533
 10
7.0744991745
 20
-29.1473151427
 10
7.0603430228
 20
-29.0483490379
 10
7.0534181185
 20
-28.9447717481
 10
7.0537709761
 20
-28.8372883851
  0
LWPOLYLINE
  5
295
100
AcDbEntity
  8
RACCORDO
100
AcDbPolyline
 62
250
  6
CONTINUOUS
 90
9
 70
0
 10
-22.8419667486
 20
-13.8894058037
 10
-22.8974128047
 20
-13.8587399671
 10
-22.9462101947
 20
-13.8257184019
 10
-22.9878360717
 20
-13.7906949226
 10
-23.0218444291
 20
-13.7540447933
 10
-23.0478708792
 20
-13.7161607072
 10
-23.0656365579
 20
-13.6774485787
 10
-23.0749511121
 20
-13.6383231943
 10
-23.0763179437
 20
-13.6086950723
  0
LWPOLYLINE
  5
296
100
AcDbEntity
  8
ASSI
100
AcDbPolyline
 62
250
  6
CONTINUOUS
 90
9
 70
0
 10
-22.8419667486
 20
-13.8894058037
 10
-22.8974128047
 20
-13.8587399671
 10
-22.9462101947
 20
-13.8257184019
 10
-22.9878360717
 20
-13.7906949226
 10
-23.0218444291
 20
-13.7540447933
 10
-23.0478708792
 20
-13.7161607072
 10
-23.0656365579
 20
-13.6774485787
 10
-23.0749511121
 20
-13.6383231943
 10
-23.0763101263
 20
-13.6084859925
  0
LWPOLYLINE
  5
297
100
AcDbEntity
  8
RACCORDO
100
AcDbPolyline
 62
250
  6
CONTINUOUS
 90
3
 70
0
 10
-22.5401538499
 20
-14.7083347178
 10
-22.4766908196
 20
-14.7491141741
 10
-22.4572279875
 20
-14.7593344055
  0
LINE
  5
298
100
AcDbEntity
  8
ASSI
100
AcDbLine
 62
250
  6
CONTINUOUS
 10
-22.7163165218
 20
-10.9221202069
 11
-22.8419812857
 21
-13.8894122541
  0
LWPOLYLINE
  5
299
100
AcDbEntity
  8
21814000
100
AcDbPolyline
 62
250
  6
CONTINUOUS
 90
10
 70
0
 10
-3.4772640475
 20
26.0442117202
 10
-3.4720069201
 20
26.0497392257
 10
-3.466772452
 20
26.0545021834
 10
-3.4615832456
 20
26.0584778118
 10
-3.4564598077
 20
26.0616477129
 10
-3.451426571
 20
26.0639940411
 10
-3.4465113759
 20
26.0655028922
 10
-3.4417332545
 20
26.0661683544
 10
-3.4371150508
 20
26.0659871746
 10
-3.4350757359
 20
26.0656255077
  0
LWPOLYLINE
  5
29A
100
AcDbEntity
  8
21814000
100
AcDbPolyline
 62
250
  6
CONTINUOUS
 90
10
 70
0
 10
-3.7338194185
 20
25.325671683
 10
-3.752860307
 20
25.3076121178
 10
-3.7707083625
 20
25.2869016525
 10
-3.7869966589
 20
25.2639660595
 10
-3.8013903361
 20
25.2392768562
 10
-3.8135934842
 20
25.2133416112
 10
-3.8233552269
 20
25.1866935098
 10
-3.8304748792
 20
25.1598803921
 10
-3.834806073
 20
25.1334534911
 10
-3.836259766
 20
25.1079560995
  0
LWPOLYLINE
  5
29B
100
AcDbEntity
  8
21814000
100
AcDbPolyline
 62
250
  6
CONTINUOUS
 90
10
 70
0
 10
-2.9754138198
 20
24.9464688836
 10
-2.9944552724
 20
24.9284086893
 10
-3.0123036642
 20
24.9076976289
 10
-3.02859208
 20
24.8847615689
 10
-3.0429856808
 20
24.8600721203
 10
-3.0551886202
 20
24.8341368835
 10
-3.0649501063
 20
24.8074890025
 10
-3.0720695146
 20
24.7806762903
 10
-3.0764005282
 20
24.7542499738
 10
-3.0778541652
 20
24.7287532992
  0
LWPOLYLINE
  5
29C
100
AcDbEntity
  8
21814000
100
AcDbPolyline
 62
250
  6
CONTINUOUS
 90
16
 70
0
 10
-4.2491309823
 20
24.9956956742
 10
-4.2249016469
 20
25.0185586767
 10
-4.1988603187
 20
25.0395779886
 10
-4.1713050813
 20
25.0586769412
 10
-4.142536154
 20
25.0759077251
 10
-4.1128784716
 20
25.0911137958
 10
-4.082680635
 20
25.1039345649
 10
-4.0522659019
 20
25.1143285746
 10
-4.0219491267
 20
25.1223429852
 10
-3.9920612244
 20
25.1277822017
 10
-3.9629494806
 20
25.1306590946
 10
-3.934839323
 20
25.1310699589
 10
-3.9078698536
 20
25.1289490187
 10
-3.8822654805
 20
25.124313831
 10
-3.8583181408
 20
25.1172862156
 10
-3.836259766
 20
25.1079560995
  0
LINE
  5
29D
100
AcDbEntity
  8
21814000
100
AcDbLine
 62
250
  6
CONTINUOUS
 10
-2.9573947977
 20
24.4847434048
 11
-3.3840138365
 21
24.089728646
  0
LINE
  5
29E
100
AcDbEntity
  8
21814000
100
AcDbLine
 62
7
  6
CONTINUOUS
 10
-3.0541951687
 20
24.484583165
 11
-3.4467588738
 21
24.1211011646
  0
LINE
  5
29F
100
AcDbEntity
  8
26814000
100
AcDbLine
 62
7
  6
CONTINUOUS
 10
-2.0699650889
 20
21.6468887227
 11
-0.4872084857
 21
22.4588728201
  0
LINE
  5
2A0
100
AcDbEntity
  8
26814000
100
AcDbLine
 62
7
  6
CONTINUOUS
 10
-3.7440206652
 20
21.8537156552
 11
-3.2449249324
 21
22.1056802358
  0
LINE
  5
2A1
100
AcDbEntity
  8
26814000
100
AcDbLine
 62
7
  6
CONTINUOUS
 10
-3.2449249324
 20
22.1056802358
 11
2.1693477628
 21
24.7862928331
  0
LINE
  5
2A2
100
AcDbEntity
  8
26814000
100
AcDbLine
 62
7
  6
CONTINUOUS
 10
2.8423639783
 20
26.0636313403
 11
2.2559851912
 21
25.7767092727
  0
LINE
  5
2A3
100
AcDbEntity
  8
26814000
100
AcDbLine
 62
7
  6
CONTINUOUS
 10
-0.4872084857
 20
22.4588728201
 11
0.0472413929
 21
22.7192202866
  0
LINE
  5
2A4
100
AcDbEntity
  8
21814000
100
AcDbLine
 62
7
  6
CONTINUOUS
 10
10.4313187654
 20
28.1147340107
 11
7.000914865
 21
26.4773971977
  0
LINE
  5
2A5
100
AcDbEntity
  8
21814000
100
AcDbLine
 62
7
  6
CONTINUOUS
 10
9.0717024492
 20
28.6325277632
 11
3.4182325587
 21
26.0215680182
  0
LINE
  5
2A6
100
AcDbEntity
  8
21814000
100
AcDbLine
 62
250
  6
CONTINUOUS
 10
9.4601599317
 20
28.6003134275
 11
3.6382466813
 21
25.9115609569
  0
LINE
  5
2A7
100
AcDbEntity
  8
RACCORDO
100
AcDbLine
 62
250
  6
CONTINUOUS
 10
18.1450551985
 20
-19.0637721945
 11
22.3436652812
 21
-18.7675642717
  0
LINE
  5
2A8
100
AcDbEntity
  8
RACCORDO
100
AcDbLine
 62
250
  6
CONTINUOUS
 10
16.9960066791
 20
-27.4126683368
 11
16.9788313043
 21
-27.4074207896
  0
LINE
  5
2A9
100
AcDbEntity
  8
21814000
100
AcDbLine
 62
250
  6
CONTINUOUS
 10
-2.9242948729
 20
24.5184697865
 11
-2.9573947977
 21
24.4847434048
  0
LWPOLYLINE
  5
2AA
100
AcDbEntity
  8
RACCORDO
100
AcDbPolyline
 62
7
  6
CONTINUOUS
 90
10
 70
0
 10
0.4970036262
 20
20.4135777941
 10
0.4686688559
 20
20.3969994274
 10
0.4423374269
 20
20.3764851454
 10
0.418704623
 20
20.3523319421
 10
0.3984318911
 20
20.3250350153
 10
0.38200306
 20
20.2951371579
 10
0.3697407336
 20
20.2630962878
 10
0.3619148036
 20
20.2292667982
 10
0.3588512203
 20
20.1946715951
 10
0.3588070288
 20
20.1899925527
  0
LWPOLYLINE
  5
2AB
100
AcDbEntity
  8
RACCORDO
100
AcDbPolyline
 62
250
  6
CONTINUOUS
 90
13
 70
0
 10
0.6088070251
 20
20.4064773473
 10
0.5862462589
 20
20.3934265389
 10
0.5638984045
 20
20.376920181
 10
0.5421460565
 20
20.3571635105
 10
0.5213281108
 20
20.3343702097
 10
0.5018810628
 20
20.3089181595
 10
0.4842925673
 20
20.2813992407
 10
0.4688994969
 20
20.2523570423
 10
0.4559273424
 20
20.2222358188
 10
0.4456035553
 20
20.1915674657
 10
0.4381043771
 20
20.160886083
 10
0.4335548695
 20
20.1307178444
 10
0.4320303298
 20
20.1015826487
  0
LWPOLYLINE
  5
2AC
100
AcDbEntity
  8
21814000
100
AcDbPolyline
 62
7
  6
CONTINUOUS
 90
13
 70
0
 10
7.4154923766
 20
25.4018186575
 10
7.2865075585
 20
25.3314649391
 10
7.1675942743
 20
25.2568068905
 10
7.0593254408
 20
25.1782042096
 10
6.9622226908
 20
25.0960355994
 10
6.8767538594
 20
25.0106969433
 10
6.8033307304
 20
24.9225993976
 10
6.7423070517
 20
24.8321674112
 10
6.693976832
 20
24.7398366796
 10
6.6585729231
 20
24.646052047
 10
6.636265899
 20
24.5512653618
 10
6.6271632336
 20
24.4559333006
 10
6.6269311118
 20
24.4380684191
  0
LINE
  5
2AD
100
AcDbEntity
  8
26814000
100
AcDbLine
 62
250
  6
CONTINUOUS
 10
1.6532179441
 20
21.1651682509
 11
7.0115447243
 21
24.0561084779
  0
LINE
  5
2AE
100
AcDbEntity
  8
26814000
100
AcDbLine
 62
250
  6
CONTINUOUS
 10
2.7344269045
 20
21.5000931472
 11
6.9273931567
 21
23.762294634
  0
LINE
  5
2AF
100
AcDbEntity
  8
0
100
AcDbLine
 62
7
  6
CONTINUOUS
 10
7.0846615165
 20
24.1299165772
 11
7.7354351713
 21
24.4730823933
  0
LINE
  5
2B0
100
AcDbEntity
  8
RACCORDO
100
AcDbLine
 62
250
  6
CONTINUOUS
 10
7.7353073893
 20
24.4730150064
 11
7.7354351713
 21
24.4730823933
  0
LINE
  5
2B1
100
AcDbEntity
  8
26814000
100
AcDbLine
 62
250
  6
CONTINUOUS
 10
2.8807536341
 20
21.4548265326
 11
6.9273931567
 21
23.5500354799
  0
LINE
  5
2B2
100
AcDbEntity
  8
26814000
100
AcDbLine
 62
7
  6
CONTINUOUS
 10
3.0005197647
 20
21.3949434673
 11
7.009602869
 21
23.4707070098
  0
LINE
  5
2B3
100
AcDbEntity
  8
21814000
100
AcDbLine
 62
7
  6
CONTINUOUS
 10
11.4276483551
 20
27.4432184502
 11
7.4154923766
 21
25.4018186575
  0
LINE
  5
2B4
100
AcDbEntity
  8
26814000
100
AcDbLine
 62
7
  6
CONTINUOUS
 10
0.5224574585
 20
19.6023233104
 11
0.0723061989
 21
19.3750679646
  0
LINE
  5
2B5
100
AcDbEntity
  8
26814000
100
AcDbLine
 62
7
  6
CONTINUOUS
 10
-0.4621436798
 20
20.8429780182
 11
1.139137111
 21
21.6457000217
  0
LINE
  5
2B6
100
AcDbEntity
  8
0
100
AcDbLine
 62
7
  6
CONTINUOUS
 10
7.8637226001
 20
24.249990662
 11
8.3586973469
 21
24.4974780354
  0
LINE
  5
2B7
100
AcDbEntity
  8
RACCORDO
100
AcDbLine
 62
7
  6
CONTINUOUS
 10
0.4970036262
 20
20.4135777941
 11
2.6183239698
 21
21.4742379659
  0
LINE
  5
2B8
100
AcDbEntity
  8
RACCORDO
100
AcDbLine
 62
250
  6
CONTINUOUS
 10
0.6088070251
 20
20.4064773473
 11
2.7301273687
 21
21.4671375191
  0
LINE
  5
2B9
100
AcDbEntity
  8
26814000
100
AcDbLine
 62
7
  6
CONTINUOUS
 10
1.139137111
 20
21.6457000217
 11
1.6674042827
 21
21.9091388417
  0
LINE
  5
2BA
100
AcDbEntity
  8
21814000
100
AcDbLine
 62
7
  6
CONTINUOUS
 10
11.4276483551
 20
27.035367183
 11
7.4154923766
 21
25.0804943753
  0
LINE
  5
2BB
100
AcDbEntity
  8
21814000
100
AcDbLine
 62
7
  6
CONTINUOUS
 10
7.5933947964
 20
22.9711902921
 11
3.6647233021
 21
21.0628416986
  0
LINE
  5
2BC
100
AcDbEntity
  8
26814000
100
AcDbLine
 62
250
  6
CONTINUOUS
 10
1.0496149011
 20
22.2800109035
 11
5.8214538792
 21
24.5740863898
  0
LINE
  5
2BD
100
AcDbEntity
  8
26814000
100
AcDbLine
 62
250
  6
CONTINUOUS
 10
1.2772304009
 20
22.1662031535
 11
6.2632947471
 21
24.5632681095
  0
LINE
  5
2BE
100
AcDbEntity
  8
RACCORDO
100
AcDbLine
 62
7
  6
CONTINUOUS
 10
2.627725275
 20
21.4786963991
 11
2.6181623396
 21
21.4741569559
  0
LWPOLYLINE
  5
2BF
100
AcDbEntity
  8
RACCORDO
100
AcDbPolyline
 62
250
  6
CONTINUOUS
 90
7
 70
0
 10
0.4970036262
 20
20.4135777941
 10
0.5011921915
 20
20.4155444499
 10
0.5204186775
 20
20.4216651702
 10
0.5411575126
 20
20.423821539
 10
0.5630538496
 20
20.4219766601
 10
0.5857330362
 20
20.4161621
 10
0.6088070251
 20
20.4064773473
  0
LWPOLYLINE
  5
2C0
100
AcDbEntity
  8
RACCORDO
100
AcDbPolyline
 62
250
  6
CONTINUOUS
 90
7
 70
0
 10
2.6183493298
 20
21.4742506411
 10
2.6232014063
 20
21.4765042937
 10
2.6426484544
 20
21.4825092958
 10
2.6634664001
 20
21.4844846509
 10
2.6852187481
 20
21.4824889734
 10
2.7075666024
 20
21.4766474769
 10
2.7301273687
 20
21.4671375191
  0
LWPOLYLINE
  5
2C1
100
AcDbEntity
  8
RACCORDO
100
AcDbPolyline
 62
7
  6
CONTINUOUS
 90
10
 70
0
 10
11.6753770713
 20
24.2537006562
 10
11.6867735355
 20
24.2588693114
 10
11.697993938
 20
24.2629212078
 10
11.7090382787
 20
24.2658563453
 10
11.7200015377
 20
24.2676748766
 10
11.7307887348
 20
24.2683766491
 10
11.7411149303
 20
24.2679612048
 10
11.750885144
 20
24.2664283909
 10
11.760194356
 20
24.2637783601
 10
11.7690425663
 20
24.2600111126
  0
LINE
  5
2C2
100
AcDbEntity
  8
26814000
100
AcDbLine
 62
7
  6
CONTINUOUS
 10
-0.2397211123
 20
18.4889012113
 11
0.3257575502
 21
18.6866039963
  0
LINE
  5
2C3
100
AcDbEntity
  8
RACCORDO
100
AcDbLine
 62
7
  6
CONTINUOUS
 10
21.8759950525
 20
-18.131940775
 11
18.1450551985
 21
-18.3305922568
  0
LWPOLYLINE
  5
2C4
100
AcDbEntity
  8
RACCORDO
100
AcDbPolyline
 62
7
  6
CONTINUOUS
 90
18
 70
0
 10
21.8759810363
 20
-18.1318956935
 10
21.9129228894
 20
-18.1331873296
 10
21.9499425543
 20
-18.1404997284
 10
21.9881017498
 20
-18.1540439302
 10
22.0271502318
 20
-18.1735681712
 10
22.0653094273
 20
-18.1981831649
 10
22.1023290921
 20
-18.227890431
 10
22.1384594705
 20
-18.2626884497
 10
22.1726727215
 20
-18.3016833753
 10
22.2051229055
 20
-18.3452673916
 10
22.2356559621
 20
-18.3930483147
 10
22.2627818695
 20
-18.4429557481
 10
22.286275874
 20
-18.4948681521
 10
22.3063627292
 20
-18.5489070662
 10
22.3222266737
 20
-18.603366713
 10
22.3335957869
 20
-18.6576784999
 10
22.3407419895
 20
-18.7124110195
 10
22.3436652812
 20
-18.7675642717
  0
LINE
  5
2C5
100
AcDbEntity
  8
ASSI
100
AcDbLine
 62
250
  6
CONTINUOUS
 10
-15.464843143
 20
-12.1186345708
 11
-15.5387484735
 21
-12.0857975999
  0
LWPOLYLINE
  5
2C6
100
AcDbEntity
  8
RACCORDO
100
AcDbPolyline
 62
250
  6
CONTINUOUS
 90
3
 70
0
 10
17.5494332776
 20
-27.5304321554
 10
17.5435963776
 20
-27.5277855768
 10
17.526336765
 20
-27.5225032938
  0
LINE
  5
2C7
100
AcDbEntity
  8
RACCORDO
100
AcDbLine
 62
250
  6
CONTINUOUS
 10
16.9788313043
 20
-27.4074207896
 11
16.9725916279
 21
-27.4045809607
  0
LINE
  5
2C8
100
AcDbEntity
  8
RACCORDO
100
AcDbLine
 62
7
  6
CONTINUOUS
 10
15.2048246749
 20
-29.3897784092
 11
13.8613217907
 21
-28.7180269671
  0
LINE
  5
2C9
100
AcDbEntity
  8
RACCORDO
100
AcDbLine
 62
250
  6
CONTINUOUS
 10
15.1398513785
 20
-29.2545599591
 11
13.7963484942
 21
-28.582808517
  0
LINE
  5
2CA
100
AcDbEntity
  8
RACCORDO
100
AcDbLine
 62
250
  6
CONTINUOUS
 10
13.7963484942
 20
-28.2314945449
 11
15.1398513785
 21
-28.9032459871
  0
LINE
  5
2CB
100
AcDbEntity
  8
RACCORDO
100
AcDbLine
 62
250
  6
CONTINUOUS
 10
13.8847368419
 20
-27.9998003711
 11
15.2282397261
 21
-28.6715518132
  0
LINE
  5
2CC
100
AcDbEntity
  8
RACCORDO
100
AcDbLine
 62
250
  6
CONTINUOUS
 10
15.758569812
 20
-28.0313867703
 11
14.4150669278
 21
-27.3596353282
  0
LINE
  5
2CD
100
AcDbEntity
  8
RACCORDO
100
AcDbLine
 62
250
  6
CONTINUOUS
 10
15.8469581597
 20
-27.7996925965
 11
14.5034552754
 21
-27.1279411543
  0
LINE
  5
2CE
100
AcDbEntity
  8
RACCORDO
100
AcDbLine
 62
7
  6
CONTINUOUS
 10
12.807516501
 20
-26.1629251921
 11
15.63299212
 21
-27.5756630016
  0
LINE
  5
2CF
100
AcDbEntity
  8
DRAFT
100
AcDbLine
 62
7
  6
CONTINUOUS
 10
15.9867070706
 20
-27.2934402673
 11
12.8465889934
 21
-25.7233812286
  0
LWPOLYLINE
  5
2D0
100
AcDbEntity
  8
RACCORDO
100
AcDbPolyline
 62
7
  6
CONTINUOUS
 90
7
 70
0
 10
13.8615062928
 20
-28.7181189647
 10
13.8501135604
 20
-28.7120622917
 10
13.8230279196
 20
-28.6943471799
 10
13.7983969864
 20
-28.6732218707
 10
13.7766454866
 20
-28.649002595
 10
13.7581376108
 20
-28.6220146088
 10
13.7432334328
 20
-28.5926534641
  0
LWPOLYLINE
  5
2D1
100
AcDbEntity
  8
RACCORDO
100
AcDbPolyline
 62
250
  6
CONTINUOUS
 90
6
 70
0
 10
-15.5387484735
 20
-12.0857975999
 10
-15.6116331821
 20
-12.0453094446
 10
-15.6837681847
 20
-11.9970683448
 10
-15.7546060548
 20
-11.9413751833
 10
-15.823652887
 20
-11.8785611283
 10
-15.8395416944
 20
-11.8620009657
  0
LWPOLYLINE
  5
2D2
100
AcDbEntity
  8
ASSI
100
AcDbPolyline
 62
250
  6
CONTINUOUS
 90
6
 70
0
 10
-15.5387484735
 20
-12.0857975999
 10
-15.6116331821
 20
-12.0453094446
 10
-15.6837681847
 20
-11.9970683448
 10
-15.7546060548
 20
-11.9413751833
 10
-15.823652887
 20
-11.8785611283
 10
-15.8395416944
 20
-11.8620009657
  0
LWPOLYLINE
  5
2D3
100
AcDbEntity
  8
RACCORDO
100
AcDbPolyline
 62
250
  6
CONTINUOUS
 90
33
 70
0
 10
-15.617311059
 20
-12.2054350912
 10
-15.6971502416
 20
-12.1609687612
 10
-15.7749953576
 20
-12.1088503315
 10
-15.8508454359
 20
-12.0490793949
 10
-15.9252965166
 20
-11.9810859839
 10
-15.9977486478
 20
-11.9054384269
 10
-16.0664061867
 20
-11.8238434751
 10
-16.131157963
 20
-11.7361342993
 10
-16.1921082442
 20
-11.6424748425
 10
-16.2477848173
 20
-11.5450681309
 10
-16.298027753
 20
-11.4438712635
 10
-16.3429890479
 20
-11.3389238371
 10
-16.3816659226
 20
-11.2325532741
 10
-16.4139232861
 20
-11.1247067239
 10
-16.4398892762
 20
-11.0154341581
 10
-16.4589587444
 20
-10.9072183986
 10
-16.4709703324
 20
-10.8000825141
 10
-16.4760813623
 20
-10.6940017846
 10
-16.4741684617
 20
-10.5913889117
 10
-16.465069077
 20
-10.4923231904
 10
-16.4489457333
 20
-10.3967253421
 10
-16.4261667878
 20
-10.3067719097
 10
-16.3965797311
 20
-10.2225961418
 10
-16.3603410686
 20
-10.1440664642
 10
-16.3182864511
 20
-10.0729637397
 10
-16.2702900335
 20
-10.0094652869
 10
-16.2164845951
 20
-9.9533966581
 10
-16.1580965435
 20
-9.906012222
 10
-16.0950307682
 20
-9.8675116698
 10
-16.0273903512
 20
-9.8376985908
 10
-15.9567005243
 20
-9.8172338278
 10
-15.8828551773
 20
-9.8063450225
 10
-15.8059672953
 20
-9.8048073514
  0
LWPOLYLINE
  5
2D4
100
AcDbEntity
  8
ASSI
100
AcDbPolyline
 62
250
  6
CONTINUOUS
 90
30
 70
0
 10
-15.617311059
 20
-12.2054350912
 10
-15.6971502416
 20
-12.1609687612
 10
-15.7749953576
 20
-12.1088503315
 10
-15.8508454359
 20
-12.0490793949
 10
-15.9252965166
 20
-11.9810859839
 10
-15.9977486478
 20
-11.9054384269
 10
-16.0664061867
 20
-11.8238434751
 10
-16.131157963
 20
-11.7361342993
 10
-16.1921082442
 20
-11.6424748425
 10
-16.2477848173
 20
-11.5450681309
 10
-16.298027753
 20
-11.4438712635
 10
-16.3429890479
 20
-11.3389238371
 10
-16.3816659226
 20
-11.2325532741
 10
-16.4139232861
 20
-11.1247067239
 10
-16.4398892762
 20
-11.0154341581
 10
-16.4589587444
 20
-10.9072183986
 10
-16.4709703324
 20
-10.8000825141
 10
-16.4760813623
 20
-10.6940017846
 10
-16.4741684617
 20
-10.5913889117
 10
-16.465069077
 20
-10.4923231904
 10
-16.4489457333
 20
-10.3967253421
 10
-16.4261667878
 20
-10.3067719097
 10
-16.3965797311
 20
-10.2225961418
 10
-16.3603410686
 20
-10.1440664642
 10
-16.3182864511
 20
-10.0729637397
 10
-16.2702900335
 20
-10.0094652869
 10
-16.2164845951
 20
-9.9533966581
 10
-16.1580965435
 20
-9.906012222
 10
-16.0950307682
 20
-9.8675116698
 10
-16.0273903512
 20
-9.8376985908
  0
LWPOLYLINE
  5
2D5
100
AcDbEntity
  8
RACCORDO
100
AcDbPolyline
 62
250
  6
CONTINUOUS
 90
8
 70
0
 10
13.8613471506
 20
-28.7180396423
 10
13.8486107317
 20
-28.7103628715
 10
13.8332176613
 20
-28.6967137435
 10
13.8202455068
 20
-28.6795646745
 10
13.8099217198
 20
-28.6592201084
 10
13.8024225416
 20
-28.636037904
 10
13.7978730339
 20
-28.610419173
 10
13.7963484942
 20
-28.582808517
  0
LWPOLYLINE
  5
2D6
100
AcDbEntity
  8
RACCORDO
100
AcDbPolyline
 62
250
  6
CONTINUOUS
 90
8
 70
0
 10
15.2046630447
 20
-29.3896973992
 10
15.1921136159
 20
-29.3821143136
 10
15.1767205456
 20
-29.3684651856
 10
15.1637483911
 20
-29.3513161166
 10
15.153424604
 20
-29.3309715506
 10
15.1459254258
 20
-29.3077893461
 10
15.1413759182
 20
-29.2821706151
 10
15.1398513785
 20
-29.2545599591
  0
LINE
  5
2D7
100
AcDbEntity
  8
RACCORDO
100
AcDbLine
 62
250
  6
CONTINUOUS
 10
-15.3307934096
 20
-9.9886400948
 11
-15.2550701983
 21
-10.0484803684
  0
LINE
  5
2D8
100
AcDbEntity
  8
ASSI
100
AcDbLine
 62
250
  6
CONTINUOUS
 10
-15.3307934096
 20
-9.9886400948
 11
-15.2550701983
 21
-10.0484803684
  0
LWPOLYLINE
  5
2D9
100
AcDbEntity
  8
ASSI
100
AcDbPolyline
 62
7
  6
CONTINUOUS
 90
4
 70
0
 10
-15.3179187663
 20
-10.0415823542
 10
-15.1815767151
 20
-10.1577032263
 10
-15.0541630645
 20
-10.2995279237
 10
-14.9393039785
 20
-10.4634510487
  0
LWPOLYLINE
  5
2DA
100
AcDbEntity
  8
RACCORDO
100
AcDbPolyline
 62
250
  6
CONTINUOUS
 90
3
 70
0
 10
-15.2550701983
 20
-10.0484803684
 10
-15.1808034143
 20
-10.1165644827
 10
-15.1085869204
 20
-10.1923203201
  0
LINE
  5
2DB
100
AcDbEntity
  8
ASSI
100
AcDbLine
 62
250
  6
CONTINUOUS
 10
-15.2550701983
 20
-10.0484803684
 11
-15.1808034143
 21
-10.1165644827
  0
LINE
  5
2DC
100
AcDbEntity
  8
ASSI
100
AcDbLine
 62
250
  6
CONTINUOUS
 10
-15.1808034143
 20
-10.1165644827
 11
-15.1085869204
 21
-10.1923203201
  0
LWPOLYLINE
  5
2DD
100
AcDbEntity
  8
RACCORDO
100
AcDbPolyline
 62
250
  6
CONTINUOUS
 90
14
 70
0
 10
-15.1085869204
 20
-10.1923203201
 10
-15.0402065166
 20
-10.2740332503
 10
-14.9757693297
 20
-10.361866652
 10
-14.915161337
 20
-10.4556543196
 10
-14.8598368894
 20
-10.5531873566
 10
-14.8099490433
 20
-10.6545043694
 10
-14.7653368193
 20
-10.7595634911
 10
-14.7269850568
 20
-10.8660357448
 10
-14.6950217186
 20
-10.9739710308
 10
-14.6693118925
 20
-11.0833165718
 10
-14.6504488845
 20
-11.1915905139
 10
-14.6385893355
 20
-11.2987694824
 10
-14.633572559
 20
-11.4048751573
 10
-14.6355196183
 20
-11.5074948114
  0
LWPOLYLINE
  5
2DE
100
AcDbEntity
  8
ASSI
100
AcDbPolyline
 62
250
  6
CONTINUOUS
 90
5
 70
0
 10
-15.1085869204
 20
-10.1923203201
 10
-15.0402065166
 20
-10.2740332503
 10
-14.9757693297
 20
-10.361866652
 10
-14.915161337
 20
-10.4556543196
 10
-14.8598368894
 20
-10.5531873566
  0
LWPOLYLINE
  5
2DF
100
AcDbEntity
  8
ASSI
100
AcDbPolyline
 62
7
  6
CONTINUOUS
 90
8
 70
0
 10
-14.9393039785
 20
-10.4634510487
 10
-14.8407986021
 20
-10.6446346519
 10
-14.7618270954
 20
-10.8375221032
 10
-14.7046776847
 20
-11.0371585297
 10
-14.6713951581
 20
-11.2372899531
 10
-14.6632092611
 20
-11.431461502
 10
-14.6805157506
 20
-11.6136450438
 10
-14.7226291173
 20
-11.777258549
  0
LWPOLYLINE
  5
2E0
100
AcDbEntity
  8
ASSI
100
AcDbPolyline
 62
250
  6
CONTINUOUS
 90
8
 70
0
 10
-14.8598368894
 20
-10.5531873566
 10
-14.8099490433
 20
-10.6545043694
 10
-14.7653368193
 20
-10.7595634911
 10
-14.7269850568
 20
-10.8660357448
 10
-14.6950217186
 20
-10.9739710308
 10
-14.6693118925
 20
-11.0833165718
 10
-14.6504488845
 20
-11.1915905139
 10
-14.6385893355
 20
-11.2987694824
  0
LINE
  5
2E1
100
AcDbEntity
  8
RACCORDO
100
AcDbLine
 62
250
  6
CONTINUOUS
 10
-16.3187170504
 20
-10.883017518
 11
-16.3295313034
 21
-10.7892305109
  0
LWPOLYLINE
  5
2E2
100
AcDbEntity
  8
ASSI
100
AcDbPolyline
 62
250
  6
CONTINUOUS
 90
6
 70
0
 10
-16.3187170504
 20
-10.883017518
 10
-16.3295313034
 20
-10.7892305109
 10
-16.3344911132
 20
-10.6919795178
 10
-16.3329002654
 20
-10.5972180897
 10
-16.3247953912
 20
-10.5056797624
 10
-16.3102678087
 20
-10.4180724574
  0
LWPOLYLINE
  5
2E3
100
AcDbEntity
  8
RACCORDO
100
AcDbPolyline
 62
250
  6
CONTINUOUS
 90
13
 70
0
 10
-16.3295313034
 20
-10.7892305109
 10
-16.3344911132
 20
-10.6919795178
 10
-16.3329002654
 20
-10.5972180897
 10
-16.3247953912
 20
-10.5056797624
 10
-16.3102678087
 20
-10.4180724574
 10
-16.2893821969
 20
-10.3350520873
 10
-16.2623207366
 20
-10.257259326
 10
-16.2293199327
 20
-10.1852967591
 10
-16.1905967765
 20
-10.1197012665
 10
-16.1464676356
 20
-10.0609788103
 10
-16.0972959129
 20
-10.0095821821
 10
-16.0434287065
 20
-9.9658891514
 10
-15.9852937515
 20
-9.9302369718
  0
LWPOLYLINE
  5
2E4
100
AcDbEntity
  8
ASSI
100
AcDbPolyline
 62
250
  6
CONTINUOUS
 90
4
 70
0
 10
-14.6385893355
 20
-11.2987694824
 10
-14.633572559
 20
-11.4048751573
 10
-14.6355196183
 20
-11.5074948114
 10
-14.6445931065
 20
-11.6065507975
  0
LINE
  5
2E5
100
AcDbEntity
  8
26814000
100
AcDbLine
 62
7
  6
CONTINUOUS
 10
-16.0082023328
 20
26.3975373268
 11
-16.0082023328
 21
26.3731418215
  0
LINE
  5
2E6
100
AcDbEntity
  8
26814000
100
AcDbLine
 62
7
  6
CONTINUOUS
 10
-15.6090090358
 20
27.7707883595
 11
-15.6090090358
 21
28.0241597532
  0
LINE
  5
2E7
100
AcDbEntity
  8
26814000
100
AcDbLine
 62
7
  6
CONTINUOUS
 10
-15.1950295344
 20
25.9665554223
 11
-15.1950295344
 21
25.5128712278
  0
LINE
  5
2E8
100
AcDbEntity
  8
26814000
100
AcDbLine
 62
7
  6
CONTINUOUS
 10
-14.9060160816
 20
26.8642291048
 11
-14.9060160816
 21
27.3165600805
  0
LWPOLYLINE
  5
2E9
100
AcDbEntity
  8
RACCORDO
100
AcDbPolyline
 62
250
  6
CONTINUOUS
 90
55
 70
0
 10
-16.2921403321
 20
-10.7620186047
 10
-16.2952571293
 20
-10.8096983396
 10
-16.2962151849
 20
-10.8582955966
 10
-16.2950107728
 20
-10.907647017
 10
-16.2916495766
 20
-10.9575618394
 10
-16.286142407
 20
-11.0078965184
 10
-16.2784945836
 20
-11.0585569852
 10
-16.2687107073
 20
-11.1094265667
 10
-16.2568209806
 20
-11.1602794504
 10
-16.2428810928
 20
-11.2108574872
 10
-16.2269415945
 20
-11.2609815131
 10
-16.2090555613
 20
-11.3104887024
 10
-16.1893101222
 20
-11.3591513093
 10
-16.1678016542
 20
-11.4067618551
 10
-16.1445915691
 20
-11.4532117826
 10
-16.1197213706
 20
-11.4984250784
 10
-16.0932547354
 20
-11.5422774259
 10
-16.0652957577
 20
-11.5845883202
 10
-16.0359476145
 20
-11.6251998101
 10
-16.0053102207
 20
-11.6639738963
 10
-15.9734862807
 20
-11.7007808439
 10
-15.9405920239
 20
-11.735487647
 10
-15.9067608579
 20
-11.7679592432
 10
-15.8720870571
 20
-11.7981106812
 10
-15.8366297732
 20
-11.8258855848
 10
-15.8004704106
 20
-11.8512036484
 10
-15.7637635849
 20
-11.8739403273
 10
-15.7266806803
 20
-11.8939833445
 10
-15.6893619601
 20
-11.9112581254
 10
-15.6519201327
 20
-11.9257137272
 10
-15.6144882954
 20
-11.93729903
 10
-15.5771978991
 20
-11.9459747912
 10
-15.5401711449
 20
-11.9517140269
 10
-15.503526667
 20
-11.9544984717
 10
-15.4673842218
 20
-11.9543177286
 10
-15.4318716172
 20
-11.9511711221
 10
-15.3971168144
 20
-11.945070198
 10
-15.3632423174
 20
-11.9360382981
 10
-15.330357739
 20
-11.9241065293
 10
-15.298567402
 20
-11.9093129031
 10
-15.2679747193
 20
-11.8917037763
 10
-15.2386891429
 20
-11.8713403276
 10
-15.2108176359
 20
-11.848297363
 10
-15.1844591412
 20
-11.8226597968
 10
-15.1596966732
 20
-11.7945116044
 10
-15.136606081
 20
-11.7639389792
 10
-15.1152530894
 20
-11.7310219982
 10
-15.095726917
 20
-11.6958908944
 10
-15.0781222379
 20
-11.6587272023
 10
-15.0625052537
 20
-11.6197074949
 10
-15.0489006548
 20
-11.5789342329
 10
-15.0373298871
 20
-11.5364889161
 10
-15.0278275898
 20
-11.4924925825
 10
-15.0204316362
 20
-11.4471138008
 10
-15.0151667115
 20
-11.400505415
  0
LWPOLYLINE
  5
2EA
100
AcDbEntity
  8
RACCORDO
100
AcDbPolyline
 62
7
  6
CONTINUOUS
 90
19
 70
0
 10
-16.3153935463
 20
-10.7311356951
 10
-16.3098609927
 20
-10.681828294
 10
-16.3021342865
 20
-10.6336733395
 10
-16.2922305511
 20
-10.5867956702
 10
-16.2801579326
 20
-10.5412761358
 10
-16.265949262
 20
-10.4972819582
 10
-16.2496814765
 20
-10.4550492287
 10
-16.2314025441
 20
-10.4146770093
 10
-16.2111658448
 20
-10.3762654558
 10
-16.1890973724
 20
-10.3400157026
 10
-16.1652891599
 20
-10.3060196924
 10
-16.1398128193
 20
-10.2743269949
 10
-16.1127986146
 20
-10.2450456278
 10
-16.0843861487
 20
-10.2182597794
 10
-16.0546499855
 20
-10.1939760016
 10
-16.0236347881
 20
-10.1721877351
 10
-15.991429576
 20
-10.1529294308
 10
-15.9581736481
 20
-10.1362553306
 10
-15.923989056
 20
-10.1221932593
  0
LINE
  5
2EB
100
AcDbEntity
  8
28414000
100
AcDbLine
 62
7
  6
CONTINUOUS
 10
-9.0181311609
 20
22.8781062356
 11
-9.0350499714
 21
22.8280864796
  0
LWPOLYLINE
  5
2EC
100
AcDbEntity
  8
RACCORDO
100
AcDbPolyline
 62
7
  6
CONTINUOUS
 90
11
 70
0
 10
0.847317425
 20
19.0322983512
 10
0.8190887203
 20
19.0142051403
 10
0.7923316131
 20
18.9962147115
 10
0.7671053557
 20
18.9787039836
 10
0.7431975136
 20
18.9619002586
 10
0.7210132103
 20
18.946455011
 10
0.7013672294
 20
18.9331940919
 10
0.684355778
 20
18.9222972375
 10
0.67011715
 20
18.9138417251
 10
0.6592316594
 20
18.9079773501
 10
0.6574750025
 20
18.9070963306
  0
LWPOLYLINE
  5
2ED
100
AcDbEntity
  8
RACCORDO
100
AcDbPolyline
 62
250
  6
CONTINUOUS
 90
13
 70
0
 10
1.9523099094
 20
19.7347259052
 10
1.9297491431
 20
19.7216750967
 10
1.9074012888
 20
19.7051687389
 10
1.8856489407
 20
19.6854120684
 10
1.864830995
 20
19.6626187676
 10
1.845383947
 20
19.6371667174
 10
1.8277954515
 20
19.6096477986
 10
1.8124023811
 20
19.5806056002
 10
1.7994302267
 20
19.5504843767
 10
1.7891064396
 20
19.5198160236
 10
1.7816072614
 20
19.4891346409
 10
1.7770577537
 20
19.4589664022
 10
1.7755332141
 20
19.4298312066
  0
LWPOLYLINE
  5
2EE
100
AcDbEntity
  8
RACCORDO
100
AcDbPolyline
 62
250
  6
CONTINUOUS
 90
7
 70
0
 10
3.543300167
 20
19.0356240157
 10
3.5648618068
 20
19.0479171847
 10
3.5830298227
 20
19.0615123634
 10
3.5974933549
 20
19.0761769343
 10
3.6080049283
 20
19.0916599827
 10
3.6143846871
 20
19.1076965893
 10
3.6165234717
 20
19.1240123634
  0
LWPOLYLINE
  5
2EF
100
AcDbEntity
  8
26814000
100
AcDbPolyline
 62
7
  6
CONTINUOUS
 90
5
 70
0
 10
7.0098113627
 20
23.470805321
 10
7.0100457996
 20
23.4709383228
 10
7.0109730356
 20
23.4717659943
 10
7.011479453
 20
23.4728170656
 10
7.0115911984
 20
23.4737613099
  0
LWPOLYLINE
  5
2F0
100
AcDbEntity
  8
RACCORDO
100
AcDbPolyline
 62
250
  6
CONTINUOUS
 90
13
 70
0
 10
0.9952476118
 20
18.8067951571
 10
1.0139294566
 20
18.8172517866
 10
1.0323276904
 20
18.8305763467
 10
1.0501204902
 20
18.8465357634
 10
1.0669966232
 20
18.8648508738
 10
1.082660891
 20
18.8852013087
 10
1.0968392935
 20
18.9072310971
 10
1.1092838212
 20
18.9305548927
 10
1.1197767935
 20
18.9547647142
 10
1.1281346669
 20
18.9794370821
 10
1.1342112449
 20
19.0041404257
 10
1.1379002356
 20
19.0284426327
 10
1.139137111
 20
19.0519186075
  0
LWPOLYLINE
  5
2F1
100
AcDbEntity
  8
RACCORDO
100
AcDbPolyline
 62
250
  6
CONTINUOUS
 90
8
 70
0
 10
3.543300167
 20
18.711801588
 10
3.5610273089
 20
18.720926559
 10
3.5765164819
 20
18.7309212697
 10
3.5896184412
 20
18.7416575971
 10
3.600209929
 20
18.7529908917
 10
3.6082060376
 20
18.7647935687
 10
3.6135512759
 20
18.7769582366
 10
3.6162062279
 20
18.789334618
  0
LWPOLYLINE
  5
2F2
100
AcDbEntity
  8
RACCORDO
100
AcDbPolyline
 62
7
  6
CONTINUOUS
 90
4
 70
0
 10
0.9396242375
 20
19.0836354092
 10
0.90722222
 20
19.0670396584
 10
0.8766958855
 20
19.0499921331
 10
0.847317425
 20
19.0322983512
  0
LINE
  5
2F3
100
AcDbEntity
  8
26814000
100
AcDbLine
 62
250
  6
CONTINUOUS
 10
0.6674457999
 20
19.5298291397
 11
-0.4872084857
 21
18.9401608365
  0
LINE
  5
2F4
100
AcDbEntity
  8
26814000
100
AcDbLine
 62
250
  6
CONTINUOUS
 10
1.0659138063
 20
19.1800690455
 11
-0.2397211123
 21
18.5132967166
  0
LINE
  5
2F5
100
AcDbEntity
  8
RACCORDO
100
AcDbLine
 62
7
  6
CONTINUOUS
 10
10.8268752594
 20
24.6779778877
 11
9.5154109484
 21
24.0222457321
  0
LINE
  5
2F6
100
AcDbEntity
  8
RACCORDO
100
AcDbLine
 62
250
  6
CONTINUOUS
 10
1.9523099094
 20
19.7347259052
 11
4.0736302529
 21
20.795386077
  0
LINE
  5
2F7
100
AcDbEntity
  8
RACCORDO
100
AcDbLine
 62
7
  6
CONTINUOUS
 10
11.6754059672
 20
24.2537151041
 11
10.796513316
 21
23.8142687785
  0
LINE
  5
2F8
100
AcDbEntity
  8
RACCORDO
100
AcDbLine
 62
250
  6
CONTINUOUS
 10
2.1290866047
 20
19.4298312066
 11
4.2504069482
 21
20.4904913784
  0
LINE
  5
2F9
100
AcDbEntity
  8
21814000
100
AcDbLine
 62
250
  6
CONTINUOUS
 10
16.3581969915
 20
24.6374615017
 11
4.6840570223
 21
18.83317951
  0
LINE
  5
2FA
100
AcDbEntity
  8
RACCORDO
100
AcDbLine
 62
250
  6
CONTINUOUS
 10
0.6459963695
 20
18.7762390818
 11
0.8857630055
 21
18.8952039234
  0
LINE
  5
2FB
100
AcDbEntity
  8
RACCORDO
100
AcDbLine
 62
7
  6
CONTINUOUS
 10
0.4228392424
 20
18.7907071855
 11
0.6574655511
 21
18.9070835643
  0
LINE
  5
2FC
100
AcDbEntity
  8
RACCORDO
100
AcDbLine
 62
7
  6
CONTINUOUS
 10
1.0559041431
 20
19.1403938193
 11
0.9396742286
 21
19.0836577538
  0
LINE
  5
2FD
100
AcDbEntity
  8
RACCORDO
100
AcDbLine
 62
7
  6
CONTINUOUS
 10
1.0659138063
 20
19.1452808717
 11
1.0559041431
 21
19.1403938193
  0
LINE
  5
2FE
100
AcDbEntity
  8
RACCORDO
100
AcDbLine
 62
7
  6
CONTINUOUS
 10
0.9396250488
 20
19.0836337418
 11
0.9396742286
 21
19.0836577538
  0
LINE
  5
2FF
100
AcDbEntity
  8
21814000
100
AcDbLine
 62
7
  6
CONTINUOUS
 10
15.9386537806
 20
25.3610665031
 11
8.3460888804
 21
21.672985031
  0
LINE
  5
300
100
AcDbEntity
  8
RACCORDO
100
AcDbLine
 62
250
  6
CONTINUOUS
 10
1.043793129
 20
19.1045232673
 11
1.0622725958
 21
19.1134174518
  0
LINE
  5
301
100
AcDbEntity
  8
21814000
100
AcDbLine
 62
7
  6
CONTINUOUS
 10
15.1329818445
 20
25.7639024711
 11
11.7118357747
 21
24.1219367428
  0
LINE
  5
302
100
AcDbEntity
  8
RACCORDO
100
AcDbLine
 62
250
  6
CONTINUOUS
 10
2.8361933858
 20
18.373364727
 11
3.543300167
 21
18.711801588
  0
LINE
  5
303
100
AcDbEntity
  8
RACCORDO
100
AcDbLine
 62
250
  6
CONTINUOUS
 10
2.9751465991
 20
18.1282412766
 11
3.6822533803
 21
18.4666781376
  0
LWPOLYLINE
  5
304
100
AcDbEntity
  8
RACCORDO
100
AcDbPolyline
 62
250
  6
CONTINUOUS
 90
5
 70
0
 10
0.9396742286
 20
19.0836577538
 10
0.9466256721
 20
19.0868883496
 10
0.9772443686
 20
19.097586012
 10
1.0097457491
 20
19.1034846862
 10
1.043793129
 20
19.1045232672
  0
LWPOLYLINE
  5
305
100
AcDbEntity
  8
21814000
100
AcDbPolyline
 62
7
  6
CONTINUOUS
 90
9
 70
0
 10
15.9386537806
 20
25.3610665031
 10
15.9947996583
 20
25.3863295414
 10
16.0480323692
 20
25.4057820339
 10
16.0979028297
 20
25.4194116449
 10
16.1438735994
 20
25.4273193324
 10
16.1856655609
 20
25.4295523103
 10
16.223258471
 20
25.426095296
 10
16.2562927596
 20
25.4171586918
 10
16.27085471
 20
25.4107856339
  0
LWPOLYLINE
  5
306
100
AcDbEntity
  8
RACCORDO
100
AcDbPolyline
 62
250
  6
CONTINUOUS
 90
8
 70
0
 10
0.6574782873
 20
18.907089881
 10
0.6731536459
 20
18.9140418802
 10
0.7050764512
 20
18.9236555707
 10
0.7389114592
 20
18.9281798952
 10
0.7742921483
 20
18.9275649075
 10
0.8108326999
 20
18.9218152313
 10
0.8481315534
 20
18.9109920581
 10
0.885779932
 20
18.8952123192
  0
LWPOLYLINE
  5
307
100
AcDbEntity
  8
RACCORDO
100
AcDbPolyline
 62
250
  6
CONTINUOUS
 90
13
 70
0
 10
2.1290866047
 20
19.4298312066
 10
2.1050802922
 20
19.4192735966
 10
2.0783785264
 20
19.4102766251
 10
2.0493752834
 20
19.4030258987
 10
2.0184455762
 20
19.3976728065
 10
1.9861562404
 20
19.3943704264
 10
1.9532791149
 20
19.3932204936
 10
1.9204573836
 20
19.3942382889
 10
1.888187213
 20
19.3974012198
 10
1.8570374889
 20
19.4026522947
 10
1.8275485933
 20
19.4098975643
 10
1.8002241506
 20
19.419010278
 10
1.7755332141
 20
19.4298312066
  0
LWPOLYLINE
  5
308
100
AcDbEntity
  8
RACCORDO
100
AcDbPolyline
 62
250
  6
CONTINUOUS
 90
13
 70
0
 10
2.1290866047
 20
19.0785172345
 10
2.1045002666
 20
19.0677364146
 10
2.0773099094
 20
19.0586524067
 10
2.0479807675
 20
19.0514206406
 10
2.0170146706
 20
19.0461648539
 10
1.9849414574
 20
19.0429749745
 10
1.9523099094
 20
19.0419055822
 10
1.9196783613
 20
19.0429749745
 10
1.8876051481
 20
19.0461648539
 10
1.8566390513
 20
19.0514206406
 10
1.8273099094
 20
19.0586524067
 10
1.8001195521
 20
19.0677364146
 10
1.7755332141
 20
19.0785172345
  0
LWPOLYLINE
  5
309
100
AcDbEntity
  8
RACCORDO
100
AcDbPolyline
 62
250
  6
CONTINUOUS
 90
13
 70
0
 10
2.8361933858
 20
18.6820706251
 10
2.8116070478
 20
18.6712898052
 10
2.7844166905
 20
18.6622057973
 10
2.7550875486
 20
18.6549740312
 10
2.7241214518
 20
18.6497182445
 10
2.6920482386
 20
18.6465283651
 10
2.6594166905
 20
18.6454589728
 10
2.6267851425
 20
18.6465283651
 10
2.5947119293
 20
18.6497182445
 10
2.5637458325
 20
18.6549740312
 10
2.5344166905
 20
18.6622057973
 10
2.5072263333
 20
18.6712898052
 10
2.4826399953
 20
18.6820706251
  0
LWPOLYLINE
  5
30A
100
AcDbEntity
  8
RACCORDO
100
AcDbPolyline
 62
250
  6
CONTINUOUS
 90
4
 70
0
 10
3.6822533803
 20
18.7780737508
 10
3.6640215676
 20
18.7707969183
 10
3.6461361209
 20
18.7665602416
 10
3.6288963117
 20
18.7654346115
  0
LWPOLYLINE
  5
30B
100
AcDbEntity
  8
RACCORDO
100
AcDbPolyline
 62
250
  6
CONTINUOUS
 90
4
 70
0
 10
-15.3781496718
 20
-12.2848972129
 10
-15.4566335644
 20
-12.2677200705
 10
-15.5363536972
 20
-12.2412325584
 10
-15.617311059
 20
-12.2054350912
  0
LWPOLYLINE
  5
30C
100
AcDbEntity
  8
RACCORDO
100
AcDbPolyline
 62
250
  6
CONTINUOUS
 90
3
 70
0
 10
-15.3910106793
 20
-12.1431871283
 10
-15.464843143
 20
-12.1186345708
 10
-15.5387484735
 20
-12.0857975999
  0
LWPOLYLINE
  5
30D
100
AcDbEntity
  8
0
100
AcDbPolyline
 62
7
  6
CONTINUOUS
 90
3
 70
0
 10
-14.8479052354
 20
-11.8505137678
 10
-14.7898229652
 20
-11.8760323575
 10
-14.771614562
 20
-11.8819949479
  0
LWPOLYLINE
  5
30E
100
AcDbEntity
  8
ASSI
100
AcDbPolyline
 62
7
  6
CONTINUOUS
 90
3
 70
0
 10
-14.8650794348
 20
-11.8429682406
 10
-14.7898229652
 20
-11.8760323575
 10
-14.771614562
 20
-11.8819949479
  0
LINE
  5
30F
100
AcDbEntity
  8
RACCORDO
100
AcDbLine
 62
250
  6
CONTINUOUS
 10
-15.5694163586
 20
-9.8561856778
 11
-15.4884034029
 21
-9.8919799115
  0
LINE
  5
310
100
AcDbEntity
  8
ASSI
100
AcDbLine
 62
250
  6
CONTINUOUS
 10
-15.5694163586
 20
-9.8561856778
 11
-15.4884034029
 21
-9.8919799115
  0
LINE
  5
311
100
AcDbEntity
  8
RACCORDO
100
AcDbLine
 62
7
  6
CONTINUOUS
 10
-15.5250003082
 20
-9.9244993689
 11
-15.4626409311
 21
-9.9526155042
  0
LINE
  5
312
100
AcDbEntity
  8
ASSI
100
AcDbLine
 62
7
  6
CONTINUOUS
 10
-15.5116026474
 20
-9.9300281545
 11
-15.4626948007
 21
-9.952588452
  0
LINE
  5
313
100
AcDbEntity
  8
RACCORDO
100
AcDbLine
 62
250
  6
CONTINUOUS
 10
16.9960066791
 20
-27.4126683368
 11
16.9867285065
 21
-27.4080292505
  0
LINE
  5
314
100
AcDbEntity
  8
DRAFT
100
AcDbLine
 62
7
  6
CONTINUOUS
 10
16.454349165
 20
-26.9985244499
 11
12.8915899905
 21
-25.2171448626
  0
LINE
  5
315
100
AcDbEntity
  8
RACCORDO
100
AcDbLine
 62
250
  6
CONTINUOUS
 10
16.9808416362
 20
-27.2497557294
 11
17.526336765
 21
-27.5225032938
  0
LINE
  5
316
100
AcDbEntity
  8
RACCORDO
100
AcDbLine
 62
7
  6
CONTINUOUS
 10
16.9808416362
 20
-27.2461355798
 11
17.5497518162
 21
-27.5305906699
  0
LINE
  5
317
100
AcDbEntity
  8
DRAFT
100
AcDbLine
 62
7
  6
CONTINUOUS
 10
16.454349165
 20
-25.3778867267
 11
13.0295230877
 21
-23.665473688
  0
LINE
  5
318
100
AcDbEntity
  8
RACCORDO
100
AcDbLine
 62
250
  6
CONTINUOUS
 10
-15.4884034029
 20
-9.8919799115
 11
-15.408570821
 21
-9.9364731436
  0
LINE
  5
319
100
AcDbEntity
  8
ASSI
100
AcDbLine
 62
250
  6
CONTINUOUS
 10
-15.4884034029
 20
-9.8919799115
 11
-15.408570821
 21
-9.9364731436
  0
LINE
  5
31A
100
AcDbEntity
  8
RACCORDO
100
AcDbLine
 62
7
  6
CONTINUOUS
 10
-15.4625564659
 20
-9.9526651497
 11
-15.3860978125
 21
-9.9954975527
  0
LINE
  5
31B
100
AcDbEntity
  8
ASSI
100
AcDbLine
 62
7
  6
CONTINUOUS
 10
-15.4621701372
 20
-9.9528547962
 11
-15.3179187663
 21
-10.0415823542
  0
LINE
  5
31C
100
AcDbEntity
  8
RACCORDO
100
AcDbLine
 62
250
  6
CONTINUOUS
 10
-15.408570821
 20
-9.9364731436
 11
-15.3307934096
 21
-9.9886400948
  0
LINE
  5
31D
100
AcDbEntity
  8
ASSI
100
AcDbLine
 62
250
  6
CONTINUOUS
 10
-15.408570821
 20
-9.9364731436
 11
-15.3307934096
 21
-9.9886400948
  0
LWPOLYLINE
  5
31E
100
AcDbEntity
  8
RACCORDO
100
AcDbPolyline
 62
7
  6
CONTINUOUS
 90
22
 70
0
 10
-15.3860978125
 20
-9.9954975527
 10
-15.3149287487
 20
-10.0437793665
 10
-15.2451143459
 20
-10.0994368466
 10
-15.1772209946
 20
-10.1619800595
 10
-15.1117161402
 20
-10.2309792177
 10
-15.0491349079
 20
-10.3059034184
 10
-14.9899678192
 20
-10.3861212071
 10
-14.9345839146
 20
-10.4711230485
 10
-14.8834388516
 20
-10.5602674888
 10
-14.8369241265
 20
-10.6528504818
 10
-14.7953087459
 20
-10.7483066562
 10
-14.758941291
 20
-10.8459023997
 10
-14.7281100412
 20
-10.9448927118
 10
-14.7029889721
 20
-11.0446885048
 10
-14.6838067059
 20
-11.1445017596
 10
-14.6707504549
 20
-11.2435382826
 10
-14.6639015081
 20
-11.3411664986
 10
-14.6633425064
 20
-11.4365864309
 10
-14.6691239244
 20
-11.5289593725
 10
-14.681196035
 20
-11.6175594737
 10
-14.6994534042
 20
-11.7016342889
 10
-14.7237429387
 20
-11.7803671877
  0
LINE
  5
31F
100
AcDbEntity
  8
26814000
100
AcDbLine
 62
7
  6
CONTINUOUS
 10
-14.0032325737
 20
27.2212715222
 11
-14.0032325737
 21
26.9679001284
  0
LINE
  5
320
100
AcDbEntity
  8
26814000
100
AcDbLine
 62
7
  6
CONTINUOUS
 10
-13.2920119656
 20
26.0572270468
 11
-13.2920119656
 21
26.6943966055
  0
LWPOLYLINE
  5
321
100
AcDbEntity
  8
RACCORDO
100
AcDbPolyline
 62
250
  6
CONTINUOUS
 90
55
 70
0
 10
-15.0151667115
 20
-11.400505415
 10
-15.0120498759
 20
-11.3528256664
 10
-15.0110918013
 20
-11.3042284024
 10
-15.0122962139
 20
-11.2548769823
 10
-15.0156574428
 20
-11.2049621716
 10
-15.0211646646
 20
-11.1546275115
 10
-15.028812521
 20
-11.1039670565
 10
-15.0385963896
 20
-11.0530974723
 10
-15.0504860895
 20
-11.002244579
 10
-15.0644259577
 20
-10.951666535
 10
-15.0803654551
 20
-10.9015425088
 10
-15.0982514946
 20
-10.8520353218
 10
-15.1179969382
 20
-10.8033727165
 10
-15.1395054051
 20
-10.7557621703
 10
-15.162715487
 20
-10.7093122417
 10
-15.1875856831
 20
-10.6640989449
 10
-15.2140523171
 20
-10.620246597
 10
-15.2420112941
 20
-10.5779357025
 10
-15.2713594366
 20
-10.5373242124
 10
-15.3019968291
 20
-10.4985501257
 10
-15.3338207679
 20
-10.4617431776
 10
-15.3667150236
 20
-10.4270363742
 10
-15.4005461892
 20
-10.3945647778
 10
-15.4352199897
 20
-10.3644133397
 10
-15.4706772732
 20
-10.336638436
 10
-15.5068366352
 20
-10.3113203721
 10
-15.5435434601
 20
-10.2885836929
 10
-15.580626364
 20
-10.2685406755
 10
-15.6179450839
 20
-10.2512658945
 10
-15.6553869111
 20
-10.2368102926
 10
-15.6928187483
 20
-10.2252249898
 10
-15.7301091445
 20
-10.2165492285
 10
-15.7671358986
 20
-10.2108099928
 10
-15.8037803766
 20
-10.2080255481
 10
-15.839922822
 20
-10.2082062912
 10
-15.875435427
 20
-10.2113528979
 10
-15.91019023
 20
-10.2174538221
 10
-15.9440647271
 20
-10.226485722
 10
-15.9769493056
 20
-10.2384174908
 10
-16.0087396431
 20
-10.2532111173
 10
-16.0393323276
 20
-10.2708202447
 10
-16.0686179063
 20
-10.2911836942
 10
-16.0964894142
 20
-10.3142266591
 10
-16.1228479057
 20
-10.3398642242
 10
-16.1476103691
 20
-10.3680124149
 10
-16.1707009615
 20
-10.3985850401
 10
-16.1920539662
 20
-10.4315020259
 10
-16.2115801566
 20
-10.4666331362
 10
-16.2291848407
 20
-10.5037968301
 10
-16.244801802
 20
-10.5428165292
 10
-16.2584063651
 20
-10.5835897783
 10
-16.2699771109
 20
-10.6260350872
 10
-16.2794794094
 20
-10.6700314212
 10
-16.2868753781
 20
-10.7154102084
 10
-16.2921403321
 20
-10.7620186047
  0
LWPOLYLINE
  5
322
100
AcDbEntity
  8
RACCORDO
100
AcDbPolyline
 62
250
  6
CONTINUOUS
 90
39
 70
0
 10
-14.8812405858
 20
-11.4075794991
 10
-14.8778099947
 20
-11.3550961241
 10
-14.8767555235
 20
-11.3016028721
 10
-14.878081272
 20
-11.2472795334
 10
-14.8817809149
 20
-11.1923360779
 10
-14.8878426268
 20
-11.1369304542
 10
-14.8962607627
 20
-11.0811661616
 10
-14.9070303685
 20
-11.0251716557
 10
-14.9201180772
 20
-10.9691955473
 10
-14.9354624507
 20
-10.9135219941
 10
-14.9530077909
 20
-10.8583481829
 10
-14.9726957381
 20
-10.803853339
 10
-14.9944304291
 20
-10.7502881642
 10
-15.0181057926
 20
-10.6978810533
 10
-15.0436542109
 20
-10.6467514955
 10
-15.0710299893
 20
-10.5969831558
 10
-15.1001630323
 20
-10.5487128706
 10
-15.1309387632
 20
-10.5021393324
 10
-15.1632436121
 20
-10.4574364077
 10
-15.1969675988
 20
-10.4147560001
 10
-15.2319976709
 20
-10.3742409136
 10
-15.2682058883
 20
-10.3360375517
 10
-15.3054454031
 20
-10.3002945817
 10
-15.3436124439
 20
-10.2671055146
 10
-15.3826419004
 20
-10.2365324087
 10
-15.4224441671
 20
-10.2086636616
 10
-15.462849051
 20
-10.183636364
 10
-15.5036679016
 20
-10.1615741022
 10
-15.5447463249
 20
-10.1425589629
 10
-15.5859602578
 20
-10.1266470219
 10
-15.627163194
 20
-10.1138945499
 10
-15.6682104397
 20
-10.1043447432
 10
-15.7089674823
 20
-10.0980273042
 10
-15.7493037363
 20
-10.0949623379
 10
-15.7890873802
 20
-10.0951612882
 10
-15.8281777303
 20
-10.0986248994
 10
-15.8664339333
 20
-10.1053404634
 10
-15.903721143
 20
-10.1152822884
 10
-15.9239890561
 20
-10.1221932594
  0
LWPOLYLINE
  5
323
100
AcDbEntity
  8
RACCORDO
100
AcDbPolyline
 62
250
  6
CONTINUOUS
 90
4
 70
0
 10
-14.6355196183
 20
-11.5074948114
 10
-14.6445931065
 20
-11.6065507975
 10
-14.6606303856
 20
-11.7021207159
 10
-14.6832687824
 20
-11.7920264125
  0
LWPOLYLINE
  5
324
100
AcDbEntity
  8
ASSI
100
AcDbPolyline
 62
250
  6
CONTINUOUS
 90
3
 70
0
 10
-14.6445931065
 20
-11.6065507975
 10
-14.6606303856
 20
-11.7021207159
 10
-14.6832687824
 20
-11.7920264125
  0
LWPOLYLINE
  5
325
100
AcDbEntity
  8
ASSI
100
AcDbPolyline
 62
250
  6
CONTINUOUS
 90
4
 70
0
 10
-16.3102678087
 20
-10.4180724574
 10
-16.2893821969
 20
-10.3350520873
 10
-16.2623207366
 20
-10.257259326
 10
-16.2293199327
 20
-10.1852967591
  0
LWPOLYLINE
  5
326
100
AcDbEntity
  8
RACCORDO
100
AcDbPolyline
 62
250
  6
CONTINUOUS
 90
13
 70
0
 10
2.338750496
 20
18.135043715
 10
2.3574325886
 20
18.1455005041
 10
2.3758310104
 20
18.1588252588
 10
2.3936239317
 20
18.1747848747
 10
2.410500117
 20
18.1931001592
 10
2.4261643742
 20
18.2134507209
 10
2.4403427163
 20
18.2354805769
 10
2.4527871448
 20
18.2588043662
 10
2.4632799965
 20
18.2830141042
 10
2.4716377506
 20
18.3076863284
 10
2.4777142268
 20
18.3323894802
 10
2.4814031462
 20
18.3566914528
 10
2.4826399953
 20
18.3801671654
  0
LWPOLYLINE
  5
327
100
AcDbEntity
  8
RACCORDO
100
AcDbPolyline
 62
250
  6
CONTINUOUS
 90
16
 70
0
 10
3.6822533803
 20
18.4666781376
 10
3.7145649591
 20
18.4841201869
 10
3.7423839794
 20
18.5026260942
 10
3.7657104411
 20
18.5221958595
 10
3.7846501398
 20
18.5430651345
 10
3.7990972799
 20
18.5649982675
 10
3.8087344747
 20
18.5872883036
 10
3.8134443092
 20
18.6099176966
 10
3.8133441984
 20
18.6329039927
 10
3.8084690006
 20
18.6555928761
 10
3.7987102359
 20
18.6779920981
 10
3.7841763841
 20
18.7000939074
 10
3.7652277429
 20
18.7212207343
 10
3.7419844115
 20
18.7411467222
 10
3.7143262906
 20
18.7600977277
 10
3.6822533803
 20
18.7780737508
  0
LWPOLYLINE
  5
328
100
AcDbEntity
  8
RACCORDO
100
AcDbPolyline
 62
7
  6
CONTINUOUS
 90
13
 70
0
 10
6.088896274
 20
18.2996881174
 10
6.0661746969
 20
18.2876721707
 10
6.045235237
 20
18.2750543201
 10
6.0260778941
 20
18.2618345657
 10
6.0086355992
 20
18.2479508688
 10
5.9929754214
 20
18.2334652682
 10
5.9792985682
 20
18.2185638798
 10
5.9676306317
 20
18.2032413387
 10
5.9579460199
 20
18.1875030099
 10
5.950369164
 20
18.1715511052
 10
5.9449272618
 20
18.1553828685
 10
5.9415931156
 20
18.1390010558
 10
5.9404075486
 20
18.1219006497
  0
LINE
  5
329
100
AcDbEntity
  8
21814000
100
AcDbLine
 62
250
  6
CONTINUOUS
 10
16.6971604754
 20
23.4657339952
 11
12.6104443457
 21
21.3497747771
  0
LINE
  5
32A
100
AcDbEntity
  8
RACCORDO
100
AcDbLine
 62
7
  6
CONTINUOUS
 10
12.3821349319
 20
20.8078867279
 11
7.7859408542
 21
18.509789689
  0
LINE
  5
32B
100
AcDbEntity
  8
RACCORDO
100
AcDbLine
 62
7
  6
CONTINUOUS
 10
5.0865924909
 20
18.6319117757
 11
11.3515954755
 21
21.7393994423
  0
LINE
  5
32C
100
AcDbEntity
  8
RACCORDO
100
AcDbLine
 62
7
  6
CONTINUOUS
 10
11.7762839868
 20
21.1108122004
 11
6.088896274
 21
18.2996881174
  0
LWPOLYLINE
  5
32D
100
AcDbEntity
  8
ASSI
100
AcDbPolyline
 62
7
  6
CONTINUOUS
 90
3
 70
0
 10
-15.7175361605
 20
-9.8771140246
 10
-15.6156032061
 20
-9.8945619331
 10
-15.5116026474
 20
-9.9300281545
  0
LINE
  5
32E
100
AcDbEntity
  8
RACCORDO
100
AcDbLine
 62
7
  6
CONTINUOUS
 10
-15.6483963956
 20
-9.8870164624
 11
-15.587052372
 21
-9.9025779646
  0
LINE
  5
32F
100
AcDbEntity
  8
ASSI
100
AcDbLine
 62
250
  6
CONTINUOUS
 10
-15.6492459004
 20
-9.8297268669
 11
-15.5694163586
 21
-9.8561856778
  0
LINE
  5
330
100
AcDbEntity
  8
RACCORDO
100
AcDbLine
 62
7
  6
CONTINUOUS
 10
-15.587052372
 20
-9.9025779646
 11
-15.5250003082
 21
-9.9244993689
  0
LINE
  5
331
100
AcDbEntity
  8
RACCORDO
100
AcDbLine
 62
250
  6
CONTINUOUS
 10
17.548687375
 20
-27.536046081
 11
17.526336765
 21
-27.5225032938
  0
LINE
  5
332
100
AcDbEntity
  8
26814000
100
AcDbLine
 62
7
  6
CONTINUOUS
 10
-12.2251810534
 20
26.5958082963
 11
-12.2251810534
 21
28.3278591039
  0
LINE
  5
333
100
AcDbEntity
  8
26814000
100
AcDbLine
 62
7
  6
CONTINUOUS
 10
-11.5221880992
 20
28.4631806017
 11
-11.5221880992
 21
28.2022516253
  0
LINE
  5
334
100
AcDbEntity
  8
26814000
100
AcDbLine
 62
7
  6
CONTINUOUS
 10
-10.0474240504
 20
26.0697951645
 11
-10.0474240504
 21
24.8550617783
  0
LINE
  5
335
100
AcDbEntity
  8
26814000
100
AcDbLine
 62
250
  6
CONTINUOUS
 10
-9.9595560848
 20
25.9632862077
 11
-9.9595560848
 21
24.7483313416
  0
LINE
  5
336
100
AcDbEntity
  8
26814000
100
AcDbLine
 62
7
  6
CONTINUOUS
 10
-9.7856626583
 20
23.2618719843
 11
-9.7856626583
 21
23.203392823
  0
LWPOLYLINE
  5
337
100
AcDbEntity
  8
RACCORDO
100
AcDbPolyline
 62
250
  6
CONTINUOUS
 90
6
 70
0
 10
-14.6832687824
 20
-11.7920264125
 10
-14.7126658522
 20
-11.8761368369
 10
-14.7486680259
 20
-11.9545846699
 10
-14.7904497238
 20
-12.0255889264
 10
-14.8381450103
 20
-12.088974398
 10
-14.8916267585
 20
-12.1449191654
  0
LWPOLYLINE
  5
338
100
AcDbEntity
  8
ASSI
100
AcDbPolyline
 62
250
  6
CONTINUOUS
 90
3
 70
0
 10
-14.6832687824
 20
-11.7920264125
 10
-14.7126658522
 20
-11.8761368369
 10
-14.7486680259
 20
-11.9545846699
  0
LINE
  5
339
100
AcDbEntity
  8
26814000
100
AcDbLine
 62
7
  6
CONTINUOUS
 10
1.754255946
 20
21.2881412551
 11
1.4112933439
 21
20.870722653
  0
LINE
  5
33A
100
AcDbEntity
  8
0
100
AcDbLine
 62
7
  6
CONTINUOUS
 10
9.9581475927
 20
17.4236863198
 11
13.363291153
 21
19.1262580999
  0
LINE
  5
33B
100
AcDbEntity
  8
DRAFT
100
AcDbLine
 62
7
  6
CONTINUOUS
 10
12.7356883225
 20
19.6512956207
 11
9.0403088292
 21
17.8826057015
  0
LINE
  5
33C
100
AcDbEntity
  8
RACCORDO
100
AcDbLine
 62
7
  6
CONTINUOUS
 10
14.5157959904
 20
20.1572991849
 11
9.3938622198
 21
17.7058290062
  0
LWPOLYLINE
  5
33D
100
AcDbEntity
  8
ASSI
100
AcDbPolyline
 62
250
  6
CONTINUOUS
 90
6
 70
0
 10
-15.1076624659
 20
-12.1553046345
 10
-15.1755617837
 20
-12.1653552985
 10
-15.2458072117
 20
-12.1666643359
 10
-15.3178146586
 20
-12.1592440205
 10
-15.3910106793
 20
-12.1431871283
 10
-15.464843143
 20
-12.1186345708
  0
LWPOLYLINE
  5
33E
100
AcDbEntity
  8
RACCORDO
100
AcDbPolyline
 62
7
  6
CONTINUOUS
 90
3
 70
0
 10
-15.7673872028
 20
-9.8752955772
 10
-15.7086112726
 20
-9.8779227855
 10
-15.6483963956
 20
-9.8870164624
  0
LWPOLYLINE
  5
33F
100
AcDbEntity
  8
RACCORDO
100
AcDbPolyline
 62
250
  6
CONTINUOUS
 90
4
 70
0
 10
-15.8059672953
 20
-9.8048073514
 10
-15.7278910396
 20
-9.8126030749
 10
-15.6492459004
 20
-9.8297268669
 10
-15.5694163586
 20
-9.8561856778
  0
LWPOLYLINE
  5
340
100
AcDbEntity
  8
ASSI
100
AcDbPolyline
 62
250
  6
CONTINUOUS
 90
3
 70
0
 10
-15.8059672953
 20
-9.8048073514
 10
-15.7278910396
 20
-9.8126030749
 10
-15.6492459004
 20
-9.8297268669
  0
LWPOLYLINE
  5
341
100
AcDbEntity
  8
21814000
100
AcDbPolyline
 62
7
  6
CONTINUOUS
 90
9
 70
0
 10
-2.9903337528
 20
24.5814648983
 10
-2.9919167469
 20
24.5736478207
 10
-2.9953391072
 20
24.5633762135
 10
-3.0011028459
 20
24.5508198644
 10
-3.0094216014
 20
24.536578445
 10
-3.0201002156
 20
24.5215191914
 10
-3.0329147699
 20
24.5061498183
 10
-3.0477580537
 20
24.4906993152
 10
-3.0541949906
 20
24.4845829718
  0
LWPOLYLINE
  5
342
100
AcDbEntity
  8
RACCORDO
100
AcDbPolyline
 62
7
  6
CONTINUOUS
 90
7
 70
0
 10
-14.7237429387
 20
-11.7803671877
 10
-14.753773695
 20
-11.852979924
 10
-14.7891509478
 20
-11.9188098201
 10
-14.8295273974
 20
-11.9773787912
 10
-14.874564853
 20
-12.0283626879
 10
-14.9237451035
 20
-12.0713966337
 10
-14.9767940372
 20
-12.1063486478
  0
LWPOLYLINE
  5
343
100
AcDbEntity
  8
ASSI
100
AcDbPolyline
 62
7
  6
CONTINUOUS
 90
4
 70
0
 10
-14.7226291173
 20
-11.777258549
 10
-14.7877856784
 20
-11.9165706164
 10
-14.873630139
 20
-12.0274282594
 10
-14.977407707
 20
-12.1067184811
  0
LINE
  5
344
100
AcDbEntity
  8
0
100
AcDbLine
 62
7
  6
CONTINUOUS
 10
-15.5035478109
 20
-9.9337437036
 11
-15.5238438797
 21
-9.9747796663
  0
LINE
  5
345
100
AcDbEntity
  8
ASSI
100
AcDbLine
 62
7
  6
CONTINUOUS
 10
-15.5035478109
 20
-9.9337437036
 11
-15.5335444844
 21
-9.9943930043
  0
LWPOLYLINE
  5
346
100
AcDbEntity
  8
ASSI
100
AcDbPolyline
 62
250
  6
CONTINUOUS
 90
6
 70
0
 10
-16.2293199327
 20
-10.1852967591
 10
-16.1905967765
 20
-10.1197012665
 10
-16.1464676356
 20
-10.0609788103
 10
-16.0972959129
 20
-10.0095821821
 10
-16.0434287065
 20
-9.9658891514
 10
-15.9852937515
 20
-9.9302369718
  0
LWPOLYLINE
  5
347
100
AcDbEntity
  8
RACCORDO
100
AcDbPolyline
 62
250
  6
CONTINUOUS
 90
5
 70
0
 10
3.6936494916
 20
19.4650300211
 10
3.6691617445
 20
19.4297501724
 10
3.6466136211
 20
19.3931728173
 10
3.6258815278
 20
19.3550203446
 10
3.607089058
 20
19.3155703655
  0
LWPOLYLINE
  5
348
100
AcDbEntity
  8
RACCORDO
100
AcDbPolyline
 62
7
  6
CONTINUOUS
 90
7
 70
0
 10
4.266149291
 20
20.0680777608
 10
4.2852348615
 20
20.0944363627
 10
4.3007409338
 20
20.1230635771
 10
4.3123982005
 20
20.1534721157
 10
4.3200155814
 20
20.1852069877
 10
4.3234349278
 20
20.2176852484
 10
4.3236302519
 20
20.2275546498
  0
LWPOLYLINE
  5
349
100
AcDbEntity
  8
RACCORDO
100
AcDbPolyline
 62
250
  6
CONTINUOUS
 90
47
 70
0
 10
7.30065392
 20
24.0368238977
 10
7.3395866942
 20
24.0888658925
 10
7.3888699126
 20
24.1456465699
 10
7.4440035872
 20
24.2012371843
 10
7.5045070656
 20
24.2551797066
 10
7.5703794172
 20
24.3074326061
 10
7.6416215725
 20
24.3580374135
 10
7.7177556702
 20
24.406660692
 10
7.7987722991
 20
24.4532884345
 10
7.8846808705
 20
24.4979346482
 10
7.9750317562
 20
24.5403079173
 10
8.0700820364
 20
24.5804671153
 10
8.1695746309
 20
24.6183533687
 10
8.2722886713
 20
24.6534986419
 10
8.37862954
 20
24.6858763618
 10
8.4881918546
 20
24.7155131014
 10
8.598538599
 20
24.7420205435
 10
8.709643116
 20
24.765219937
 10
8.8215320627
 20
24.785290033
 10
8.9318483948
 20
24.8023787688
 10
9.0402388847
 20
24.8163526647
 10
9.14705676
 20
24.8273452003
 10
9.2510046591
 20
24.8359047515
 10
9.3518404935
 20
24.842007321
 10
9.4498063518
 20
24.8456769062
 10
9.5443311381
 20
24.847533875
 10
9.6352528782
 20
24.8475997439
 10
9.7227335464
 20
24.8458529964
 10
9.8066879698
 20
24.842849451
 10
9.8869920432
 20
24.8386306504
 10
9.9637698717
 20
24.8331550519
 10
10.0373085982
 20
24.8268538463
 10
10.1075751319
 20
24.8197678125
 10
10.1746025635
 20
24.8118561716
 10
10.2387773076
 20
24.8034277774
 10
10.3000850544
 20
24.7945171369
 10
10.3585401139
 20
24.7850897431
 10
10.4145718304
 20
24.7753509293
 10
10.4681764139
 20
24.7653294075
 10
10.5193576546
 20
24.7549964658
 10
10.5685562669
 20
24.744471301
 10
10.6157754118
 20
24.7337767619
 10
10.6610119283
 20
24.7228899998
 10
10.7046970482
 20
24.7118616661
 10
10.7469745153
 20
24.7007086448
 10
10.7877005857
 20
24.689414052
 10
10.8268752594
 20
24.6779778877
  0
LWPOLYLINE
  5
34A
100
AcDbEntity
  8
RACCORDO
100
AcDbPolyline
 62
250
  6
CONTINUOUS
 90
10
 70
0
 10
7.2190000504
 20
24.0704815398
 10
7.2212947385
 20
24.0735415505
 10
7.2741573896
 20
24.1342586485
 10
7.3332362601
 20
24.1935178657
 10
7.3983290395
 20
24.2511257989
 10
7.4692048714
 20
24.3068992665
 10
7.5456980091
 20
24.3607272021
 10
7.6276894129
 20
24.4125283857
 10
7.7149380099
 20
24.4621460251
 10
7.7353073893
 20
24.4730150064
  0
LINE
  5
34B
100
AcDbEntity
  8
RACCORDO
100
AcDbLine
 62
250
  6
CONTINUOUS
 10
3.7200768623
 20
19.4990123634
 11
3.6936494916
 21
19.4650300211
  0
LINE
  5
34C
100
AcDbEntity
  8
RACCORDO
100
AcDbLine
 62
250
  6
CONTINUOUS
 10
3.7200768623
 20
19.4990123634
 11
4.2504069482
 21
20.1391774063
  0
LINE
  5
34D
100
AcDbEntity
  8
RACCORDO
100
AcDbLine
 62
7
  6
CONTINUOUS
 10
3.7358192051
 20
19.4279127178
 11
4.266149291
 21
20.0680777608
  0
LINE
  5
34E
100
AcDbEntity
  8
RACCORDO
100
AcDbLine
 62
7
  6
CONTINUOUS
 10
17.9377333453
 20
18.0300875212
 11
12.3154851793
 21
15.1863936648
  0
LINE
  5
34F
100
AcDbEntity
  8
RACCORDO
100
AcDbLine
 62
7
  6
CONTINUOUS
 10
17.3318824002
 20
18.3330129937
 11
12.7356883225
 21
16.0349159549
  0
LINE
  5
350
100
AcDbEntity
  8
RACCORDO
100
AcDbLine
 62
7
  6
CONTINUOUS
 10
18.289250392
 20
16.8745145859
 11
12.3154851793
 21
13.9814728321
  0
LINE
  5
351
100
AcDbEntity
  8
RACCORDO
100
AcDbLine
 62
7
  6
CONTINUOUS
 10
18.2878262052
 20
17.8107343165
 11
18.7584366775
 21
18.0359788413
  0
LWPOLYLINE
  5
352
100
AcDbEntity
  8
RACCORDO
100
AcDbPolyline
 62
7
  6
CONTINUOUS
 90
12
 70
0
 10
17.3318824002
 20
18.3330129937
 10
17.3551685334
 20
18.3436960649
 10
17.3781601483
 20
18.3524184665
 10
17.400857245
 20
18.3591801985
 10
17.4233542234
 20
18.3639933892
 10
17.4455566835
 20
18.3668459103
 10
17.4671814252
 20
18.367701377
 10
17.488221048
 20
18.3665342072
 10
17.5086829525
 20
18.363369983
 10
17.5283061398
 20
18.358249065
 10
17.5470798661
 20
18.3511463885
 10
17.5554792331
 20
18.3471994835
  0
LWPOLYLINE
  5
353
100
AcDbEntity
  8
RACCORDO
100
AcDbPolyline
 62
7
  6
CONTINUOUS
 90
12
 70
0
 10
18.7584366775
 20
18.0359788413
 10
18.8044514489
 20
18.0561260734
 10
18.8498460013
 20
18.072427459
 10
18.8946203346
 20
18.0848829982
 10
18.938956241
 20
18.0935125843
 10
18.9826719282
 20
18.098296324
 10
19.0252220202
 20
18.0991745375
 10
19.0665919149
 20
18.0960982981
 10
19.1067962142
 20
18.0891165326
 10
19.1453333486
 20
18.0783163423
 10
19.1821824323
 20
18.0636498913
 10
19.1932742434
 20
18.058323887
  0
LWPOLYLINE
  5
354
100
AcDbEntity
  8
RACCORDO
100
AcDbPolyline
 62
7
  6
CONTINUOUS
 90
6
 70
0
 10
15.9826421342
 20
14.7920788837
 10
16.0109287294
 20
14.8041084489
 10
16.0409159305
 20
14.8126734177
 10
16.0720905134
 20
14.8174705861
 10
16.1039951572
 20
14.8182895688
 10
16.1358800455
 20
14.8150145291
  0
LWPOLYLINE
  5
355
100
AcDbEntity
  8
RACCORDO
100
AcDbPolyline
 62
250
  6
CONTINUOUS
 90
6
 70
0
 10
15.9868306994
 20
14.7940455395
 10
16.0060571854
 20
14.8001662598
 10
16.0267960206
 20
14.8023226285
 10
16.0486923576
 20
14.8004777496
 10
16.0713715442
 20
14.7946631895
 10
16.0944455331
 20
14.7849784369
  0
LINE
  5
356
100
AcDbEntity
  8
ASSI
100
AcDbLine
 62
250
  6
CONTINUOUS
 10
-15.0610423691
 20
-12.1428637701
 11
-15.1076624659
 21
-12.1553046345
  0
LINE
  5
357
100
AcDbEntity
  8
RACCORDO
100
AcDbLine
 62
7
  6
CONTINUOUS
 10
-15.8243041538
 20
-9.8791277909
 11
-15.7673872028
 21
-9.8752955772
  0
LINE
  5
358
100
AcDbEntity
  8
ASSI
100
AcDbLine
 62
7
  6
CONTINUOUS
 10
-15.8160825004
 20
-9.8781621895
 11
-15.7175361605
 21
-9.8771140246
  0
LINE
  5
359
100
AcDbEntity
  8
DRAFT
100
AcDbLine
 62
7
  6
CONTINUOUS
 10
22.3436652812
 20
-20.4093402618
 11
23.0774427362
 21
-20.7762289893
  0
LINE
  5
35A
100
AcDbEntity
  8
DRAFT
100
AcDbLine
 62
7
  6
CONTINUOUS
 10
18.1450551985
 20
-17.6061892491
 11
19.454427816
 21
-18.2608755578
  0
LINE
  5
35B
100
AcDbEntity
  8
26814000
100
AcDbLine
 62
7
  6
CONTINUOUS
 10
-4.83591519
 20
20.7869982502
 11
-4.83591519
 21
20.7285190889
  0
LINE
  5
35C
100
AcDbEntity
  8
21814000
100
AcDbLine
 62
7
  6
CONTINUOUS
 10
-2.9899911668
 20
24.586335251
 11
-2.9903337528
 21
24.5814648983
  0
LWPOLYLINE
  5
35D
100
AcDbEntity
  8
RACCORDO
100
AcDbPolyline
 62
250
  6
CONTINUOUS
 90
19
 70
0
 10
0.9012546051
 20
18.9464821327
 10
0.9043630795
 20
18.9561842122
 10
0.9077714759
 20
18.9661059309
 10
0.9117622725
 20
18.9761458917
 10
0.9163329434
 20
18.9862680142
 10
0.9214462807
 20
18.9964288217
 10
0.9273075212
 20
19.00652851
 10
0.9338729501
 20
19.0165035948
 10
0.9410679529
 20
19.026302061
 10
0.9490193147
 20
19.035853635
 10
0.9576821289
 20
19.0450987229
 10
0.966920116
 20
19.0539915514
 10
0.9767216079
 20
19.0625011875
 10
0.9870498287
 20
19.0705969908
 10
0.997821573
 20
19.078264156
 10
1.0089552166
 20
19.0855039841
 10
1.0203659012
 20
19.0923046137
 10
1.0319932552
 20
19.0986463772
 10
1.0437918922
 20
19.1045258621
  0
LWPOLYLINE
  5
35E
100
AcDbEntity
  8
RACCORDO
100
AcDbPolyline
 62
250
  6
CONTINUOUS
 90
7
 70
0
 10
0.8857404051
 20
18.8952397194
 10
0.8883534302
 20
18.9028112521
 10
0.8908988141
 20
18.9107929862
 10
0.8934317838
 20
18.9191780711
 10
0.8959115174
 20
18.9279516838
 10
0.8984352873
 20
18.937068569
 10
0.9012546051
 20
18.9464821327
  0
LWPOLYLINE
  5
35F
100
AcDbEntity
  8
RACCORDO
100
AcDbPolyline
 62
250
  6
CONTINUOUS
 90
12
 70
0
 10
2.1290866047
 20
19.0785172345
 10
2.1161416702
 20
19.0492372122
 10
2.1003955493
 20
19.0218829221
 10
2.0820972794
 20
18.9969326801
 10
2.0615263682
 20
18.9748136956
 10
2.0390340628
 20
18.955944872
 10
2.0150506912
 20
18.9407034034
 10
1.990007222
 20
18.9293581286
 10
1.9643166239
 20
18.9220913074
 10
1.9384209696
 20
18.9190276937
 10
1.9127651416
 20
18.9202193085
 10
1.902825975
 20
18.9218538526
  0
LWPOLYLINE
  5
360
100
AcDbEntity
  8
RACCORDO
100
AcDbPolyline
 62
250
  6
CONTINUOUS
 90
12
 70
0
 10
2.6594166905
 20
18.9686822775
 10
2.646367347
 20
18.9391962938
 10
2.630516583
 20
18.9117271726
 10
2.6121356096
 20
18.8867449181
 10
2.5915389304
 20
18.8646769838
 10
2.5690789601
 20
18.8459009579
 10
2.5451399953
 20
18.8307381037
 10
2.520131638
 20
18.8194478616
 10
2.4944817884
 20
18.8122234109
 10
2.4686293225
 20
18.8091883639
 10
2.443016583
 20
18.8103946511
 10
2.4319392427
 20
18.8122657361
  0
LWPOLYLINE
  5
361
100
AcDbEntity
  8
ASSI
100
AcDbPolyline
 62
250
  6
CONTINUOUS
 90
4
 70
0
 10
-14.7486680259
 20
-11.9545846699
 10
-14.7904497238
 20
-12.0255889264
 10
-14.8381450103
 20
-12.088974398
 10
-14.8916267585
 20
-12.1449191654
  0
LINE
  5
362
100
AcDbEntity
  8
21814000
100
AcDbLine
 62
7
  6
CONTINUOUS
 10
17.9554375071
 20
18.1472397328
 11
18.0204777491
 21
18.1893072121
  0
LWPOLYLINE
  5
363
100
AcDbEntity
  8
RACCORDO
100
AcDbPolyline
 62
250
  6
CONTINUOUS
 90
13
 70
0
 10
13.9731251895
 20
13.7243182651
 10
13.9500512006
 20
13.7109290288
 10
13.9273720141
 20
13.6940644024
 10
13.905475677
 20
13.6740129442
 10
13.8847368419
 20
13.6511177404
 10
13.8655103559
 20
13.6257705341
 10
13.8481251895
 20
13.5984050231
 10
13.8328788078
 20
13.5694894389
 10
13.8200320806
 20
13.5395185352
 10
13.8098048189
 20
13.5090051224
 10
13.8023720141
 20
13.4784712935
 10
13.7978608434
 20
13.4484394907
 10
13.7963484942
 20
13.4194235665
  0
LWPOLYLINE
  5
364
100
AcDbEntity
  8
RACCORDO
100
AcDbPolyline
 62
7
  6
CONTINUOUS
 90
10
 70
0
 10
13.8615062928
 20
13.7315107095
 10
13.8501135604
 20
13.7254540365
 10
13.8230279196
 20
13.7077389247
 10
13.7983969864
 20
13.6866136156
 10
13.7766454866
 20
13.6623943398
 10
13.7581376108
 20
13.6354063537
 10
13.7432334328
 20
13.6060452089
 10
13.7322731574
 20
13.5748215406
 10
13.7255152297
 20
13.5422982562
 10
13.7231253479
 20
13.5079526067
  0
LINE
  5
365
100
AcDbEntity
  8
RACCORDO
100
AcDbLine
 62
7
  6
CONTINUOUS
 10
13.8613217907
 20
13.7314187119
 11
15.9826421342
 21
14.7920788837
  0
LINE
  5
366
100
AcDbEntity
  8
RACCORDO
100
AcDbLine
 62
250
  6
CONTINUOUS
 10
13.9731251895
 20
13.7243182651
 11
16.0944455331
 21
14.7849784369
  0
LINE
  5
367
100
AcDbEntity
  8
RACCORDO
100
AcDbLine
 62
250
  6
CONTINUOUS
 10
15.3166280738
 20
13.052566823
 11
17.4379484173
 21
14.1132269948
  0
LINE
  5
368
100
AcDbEntity
  8
RACCORDO
100
AcDbLine
 62
250
  6
CONTINUOUS
 10
14.4294928732
 20
12.469500335
 11
14.3595657762
 21
12.4360316881
  0
LINE
  5
369
100
AcDbEntity
  8
RACCORDO
100
AcDbLine
 62
250
  6
CONTINUOUS
 10
15.9826421342
 20
14.7920788837
 11
15.9868306994
 21
14.7940455395
  0
LWPOLYLINE
  5
36A
100
AcDbEntity
  8
RACCORDO
100
AcDbPolyline
 62
250
  6
CONTINUOUS
 90
7
 70
0
 10
13.8615062928
 20
13.7315107095
 10
13.8661992272
 20
13.7336850397
 10
13.8856462752
 20
13.7396900418
 10
13.9064642209
 20
13.7416653969
 10
13.9282165689
 20
13.7396697194
 10
13.9505644233
 20
13.7338282229
 10
13.9731251895
 20
13.7243182651
  0
LINE
  5
36B
100
AcDbEntity
  8
RACCORDO
100
AcDbLine
 62
7
  6
CONTINUOUS
 10
17.2232837933
 20
14.283561453
 11
21.9226371923
 21
16.4538785839
  0
LWPOLYLINE
  5
36C
100
AcDbEntity
  8
RACCORDO
100
AcDbPolyline
 62
250
  6
CONTINUOUS
 90
13
 70
0
 10
15.4934047691
 20
12.3963581523
 10
15.4690055507
 20
12.3856491936
 10
15.4419733883
 20
12.376593192
 10
15.4127504542
 20
12.3693553305
 10
15.3817978978
 20
12.3640683184
 10
15.3496574394
 20
12.3608422416
 10
15.316949185
 20
12.3597466031
 10
15.2842592692
 20
12.3607986677
 10
15.2521252055
 20
12.3639787684
 10
15.2210998499
 20
12.3692320437
 10
15.1917160165
 20
12.3764679495
 10
15.1644774508
 20
12.385562091
 10
15.1398513785
 20
12.3963581523
  0
LWPOLYLINE
  5
36D
100
AcDbEntity
  8
RACCORDO
100
AcDbPolyline
 62
250
  6
CONTINUOUS
 90
13
 70
0
 10
15.4934047691
 20
12.7476721244
 10
15.468818431
 20
12.7368913045
 10
15.4416280738
 20
12.7278072966
 10
15.4122989319
 20
12.7205755305
 10
15.3813328351
 20
12.7153197438
 10
15.3492596218
 20
12.7121298644
 10
15.3166280738
 20
12.7110604721
 10
15.2839965257
 20
12.7121298644
 10
15.2519233125
 20
12.7153197438
 10
15.2209572157
 20
12.7205755305
 10
15.1916280738
 20
12.7278072966
 10
15.1644377165
 20
12.7368913045
 10
15.1398513785
 20
12.7476721244
  0
LWPOLYLINE
  5
36E
100
AcDbEntity
  8
RACCORDO
100
AcDbPolyline
 62
250
  6
CONTINUOUS
 90
4
 70
0
 10
17.0465715447
 20
12.0959146685
 10
17.028339732
 20
12.0886378361
 10
17.0104542853
 20
12.0844011594
 10
16.9932144761
 20
12.0832755293
  0
LINE
  5
36F
100
AcDbEntity
  8
DRAFT
100
AcDbLine
 62
7
  6
CONTINUOUS
 10
16.454349165
 20
10.8034844253
 11
15.9867070706
 21
10.6468035216
  0
LWPOLYLINE
  5
370
100
AcDbEntity
  8
RACCORDO
100
AcDbPolyline
 62
250
  6
CONTINUOUS
 90
13
 70
0
 10
17.3255841355
 20
11.3125559492
 10
17.3553964822
 20
11.3211338183
 10
17.3663091571
 20
11.3242472359
 10
17.377780336
 20
11.3276064469
 10
17.389832974
 20
11.3312034835
 10
17.402444116
 20
11.3350463135
 10
17.415618677
 20
11.3392736647
 10
17.4293417811
 20
11.3438657381
 10
17.4436283043
 20
11.3488423327
 10
17.4585277891
 20
11.3544015733
 10
17.4740567499
 20
11.3606095016
 10
17.4901986723
 20
11.3674000759
 10
17.5069535565
 20
11.3747732962
  0
LINE
  5
371
100
AcDbEntity
  8
ASSI
100
AcDbLine
 62
7
  6
CONTINUOUS
 10
-15.9098114565
 20
-9.8982480586
 11
-15.8160825004
 21
-9.8781621895
  0
LINE
  5
372
100
AcDbEntity
  8
21814000
100
AcDbLine
 62
7
  6
CONTINUOUS
 10
-2.9899862381
 20
24.5863923783
 11
-2.9899862026
 21
24.586293402
  0
LINE
  5
373
100
AcDbEntity
  8
21814000
100
AcDbLine
 62
250
  6
CONTINUOUS
 10
-4.2491309823
 20
24.9956956742
 11
-4.2491309823
 21
24.5222872188
  0
LINE
  5
374
100
AcDbEntity
  8
26814000
100
AcDbLine
 62
250
  6
CONTINUOUS
 10
-4.1670470167
 20
21.8520768076
 11
-4.1670470167
 21
23.0670316737
  0
LINE
  5
375
100
AcDbEntity
  8
21814000
100
AcDbLine
 62
250
  6
CONTINUOUS
 10
-3.836259766
 20
25.1079560995
 11
-3.836259766
 21
24.3158516107
  0
LINE
  5
376
100
AcDbEntity
  8
26814000
100
AcDbLine
 62
7
  6
CONTINUOUS
 10
-3.8106103573
 20
26.1050506421
 11
-3.8106103573
 21
27.3553215014
  0
LINE
  5
377
100
AcDbEntity
  8
26814000
100
AcDbLine
 62
250
  6
CONTINUOUS
 10
-3.7440206652
 20
21.8537156552
 11
-3.7440206652
 21
23.067919128
  0
LINE
  5
378
100
AcDbEntity
  8
26814000
100
AcDbLine
 62
7
  6
CONTINUOUS
 10
-3.4570569667
 20
26.6259866167
 11
-3.4570569667
 21
27.1785448061
  0
LINE
  5
379
100
AcDbEntity
  8
26814000
100
AcDbLine
 62
250
  6
CONTINUOUS
 10
-3.3863462886
 20
28.7947531036
 11
-3.3863462886
 21
27.5629189222
  0
LINE
  5
37A
100
AcDbEntity
  8
26814000
100
AcDbLine
 62
7
  6
CONTINUOUS
 10
-3.298478323
 20
28.8997503176
 11
-3.298478323
 21
27.6673817127
  0
LINE
  5
37B
100
AcDbEntity
  8
26814000
100
AcDbLine
 62
7
  6
CONTINUOUS
 10
-3.2449249324
 20
23.3181158011
 11
-3.2449249324
 21
22.1056802358
  0
LINE
  5
37C
100
AcDbEntity
  8
21814000
100
AcDbLine
 62
250
  6
CONTINUOUS
 10
-3.0778541674
 20
24.7287533002
 11
-3.0778541674
 21
24.4626771149
  0
LINE
  5
37D
100
AcDbEntity
  8
26814000
100
AcDbLine
 62
7
  6
CONTINUOUS
 10
-2.2446908714
 20
21.0886292773
 11
-2.2446908714
 21
21.342000671
  0
LWPOLYLINE
  5
37E
100
AcDbEntity
  8
RACCORDO
100
AcDbPolyline
 62
250
  6
CONTINUOUS
 90
3
 70
0
 10
3.607089058
 20
19.3155703655
 10
3.5906069929
 20
19.2756557139
 10
3.5764727959
 20
19.2352744209
  0
LWPOLYLINE
  5
37F
100
AcDbEntity
  8
RACCORDO
100
AcDbPolyline
 62
250
  6
CONTINUOUS
 90
13
 70
0
 10
15.3166280738
 20
13.052566823
 10
15.2934616769
 20
13.0391164524
 10
15.2706867419
 20
13.0221569987
 10
15.2486970245
 20
13.00197756
 10
15.2278710875
 20
12.9789205862
 10
15.2085730714
 20
12.9533839985
 10
15.1911444104
 20
12.925817084
 10
15.1758557804
 20
12.8966313494
 10
15.1630134926
 20
12.8663925331
 10
15.1529017312
 20
12.8358399802
 10
15.1456508361
 20
12.805573456
 10
15.1412969247
 20
12.7760260803
 10
15.1398513785
 20
12.7476721244
  0
LWPOLYLINE
  5
380
100
AcDbEntity
  8
RACCORDO
100
AcDbPolyline
 62
250
  6
CONTINUOUS
 90
7
 70
0
 10
16.9076183315
 20
12.3534649335
 10
16.9291799712
 20
12.3657581025
 10
16.9473479871
 20
12.3793532812
 10
16.9618115193
 20
12.3940178521
 10
16.9723230927
 20
12.4095009005
 10
16.9787028515
 20
12.4255375071
 10
16.9808416362
 20
12.4418532812
  0
LWPOLYLINE
  5
381
100
AcDbEntity
  8
RACCORDO
100
AcDbPolyline
 62
250
  6
CONTINUOUS
 90
13
 70
0
 10
14.3595657762
 20
12.1246360749
 10
14.3782476211
 20
12.1350927044
 10
14.3966458549
 20
12.1484172645
 10
14.4144386546
 20
12.1643766812
 10
14.4313147876
 20
12.1826917916
 10
14.4469790555
 20
12.2030422265
 10
14.4611574579
 20
12.2250720149
 10
14.4736019856
 20
12.2483958105
 10
14.484094958
 20
12.272605632
 10
14.4924528314
 20
12.2972779999
 10
14.4985294093
 20
12.3219813435
 10
14.5022184
 20
12.3462835505
 10
14.5034552754
 20
12.3697595253
  0
LWPOLYLINE
  5
382
100
AcDbEntity
  8
RACCORDO
100
AcDbPolyline
 62
250
  6
CONTINUOUS
 90
13
 70
0
 10
15.7030686605
 20
11.4528846328
 10
15.7217507531
 20
11.4633414219
 10
15.7401491748
 20
11.4766661766
 10
15.7579420961
 20
11.4926257925
 10
15.7748182814
 20
11.510941077
 10
15.7904825386
 20
11.5312916387
 10
15.8046608808
 20
11.5533214947
 10
15.8171053092
 20
11.5766452839
 10
15.8275981609
 20
11.600855022
 10
15.835955915
 20
11.6255272461
 10
15.8420323913
 20
11.650230398
 10
15.8457213106
 20
11.6745323706
 10
15.8469581597
 20
11.6980080832
  0
LWPOLYLINE
  5
383
100
AcDbEntity
  8
RACCORDO
100
AcDbPolyline
 62
250
  6
CONTINUOUS
 90
16
 70
0
 10
14.3595657762
 20
12.4360316881
 10
14.327254215
 20
12.4185896361
 10
14.2994351963
 20
12.4000837279
 10
14.2761087201
 20
12.3805139636
 10
14.2571689816
 20
12.3596446934
 10
14.2427217855
 20
12.3377115672
 10
14.2330845467
 20
12.3154215337
 10
14.2283747042
 20
12.292792139
 10
14.228474819
 20
12.2698058371
 10
14.2333499877
 20
12.2471169387
 10
14.2431086336
 20
12.2247176792
 10
14.2576423335
 20
12.2026158231
 10
14.2765909149
 20
12.1814889743
 10
14.2998343205
 20
12.1615630006
 10
14.3274926075
 20
12.1426120341
 10
14.3595657762
 20
12.1246360749
  0
LINE
  5
384
100
AcDbEntity
  8
RACCORDO
100
AcDbLine
 62
7
  6
CONTINUOUS
 10
17.1558065973
 20
12.812952338
 11
23.033974504
 21
15.9843587788
  0
LINE
  5
385
100
AcDbEntity
  8
DRAFT
100
AcDbLine
 62
7
  6
CONTINUOUS
 10
17.3913115137
 20
12.4795522643
 11
23.0774427362
 21
15.4236328889
  0
LWPOLYLINE
  5
386
100
AcDbEntity
  8
RACCORDO
100
AcDbPolyline
 62
250
  6
CONTINUOUS
 90
8
 70
0
 10
16.9076183315
 20
12.0296425058
 10
16.9253454733
 20
12.0387674768
 10
16.9408346463
 20
12.0487621875
 10
16.9539366056
 20
12.0594985149
 10
16.9645280934
 20
12.0708318095
 10
16.972524202
 20
12.0826344865
 10
16.9778694404
 20
12.0947991544
 10
16.9805243923
 20
12.1071755358
  0
LINE
  5
387
100
AcDbEntity
  8
RACCORDO
100
AcDbLine
 62
250
  6
CONTINUOUS
 10
15.4934047691
 20
12.7476721244
 11
17.6147251126
 21
13.8083322962
  0
LWPOLYLINE
  5
388
100
AcDbEntity
  8
RACCORDO
100
AcDbPolyline
 62
250
  6
CONTINUOUS
 90
24
 70
0
 10
17.0018288617
 20
11.8159668376
 10
17.0115263232
 20
11.8206550684
 10
17.0211327714
 20
11.8256272102
 10
17.0306435488
 20
11.8308689318
 10
17.0400359843
 20
11.8363494277
 10
17.0492587631
 20
11.8420527328
 10
17.0582430034
 20
11.8479790093
 10
17.0669266387
 20
11.8541092731
 10
17.0752931469
 20
11.8604263467
 10
17.0833359891
 20
11.8669309155
 10
17.0910028771
 20
11.8736257541
 10
17.0982684463
 20
11.880482115
 10
17.1051570526
 20
11.8874526486
 10
17.1115941858
 20
11.8945478074
 10
17.1175550065
 20
11.9017352204
 10
17.1231306879
 20
11.9089114997
 10
17.1282638274
 20
11.9160668491
 10
17.1329187404
 20
11.9232153463
 10
17.1372335438
 20
11.930304671
 10
17.1412106126
 20
11.9373696137
 10
17.1448478975
 20
11.944409908
 10
17.1482691227
 20
11.9513281407
 10
17.1514590537
 20
11.9581261442
 10
17.1573010074
 20
11.9714195037
  0
LWPOLYLINE
  5
389
100
AcDbEntity
  8
RACCORDO
100
AcDbPolyline
 62
250
  6
CONTINUOUS
 90
10
 70
0
 10
16.2224532073
 20
10.7815524405
 10
16.2394507439
 20
10.7897243173
 10
16.2564238382
 20
10.7983358184
 10
16.2733724901
 20
10.8073869437
 10
16.2904355214
 20
10.8170157231
 10
16.3074741105
 20
10.8270841267
 10
16.3240717918
 20
10.8371780652
 10
16.3402446102
 20
10.8473359776
 10
16.3559765209
 20
10.857519425
 10
16.3845344589
 20
10.8762270818
  0
LINE
  5
38A
100
AcDbEntity
  8
RACCORDO
100
AcDbLine
 62
250
  6
CONTINUOUS
 10
16.2005115503
 20
11.6912056448
 11
16.9076183315
 21
12.0296425058
  0
LINE
  5
38B
100
AcDbEntity
  8
RACCORDO
100
AcDbLine
 62
250
  6
CONTINUOUS
 10
16.2912172909
 20
11.4808111862
 11
17.0018286559
 21
11.81596594
  0
LINE
  5
38C
100
AcDbEntity
  8
RACCORDO
100
AcDbLine
 62
250
  6
CONTINUOUS
 10
17.1657952367
 20
11.9906394997
 11
17.7913402479
 21
12.2795378972
  0
LINE
  5
38D
100
AcDbEntity
  8
RACCORDO
100
AcDbLine
 62
250
  6
CONTINUOUS
 10
17.5069535565
 20
11.3747732962
 11
18.1450551985
 21
11.6694698501
  0
LINE
  5
38E
100
AcDbEntity
  8
RACCORDO
100
AcDbLine
 62
250
  6
CONTINUOUS
 10
15.9867070706
 20
10.6726731594
 11
16.2224532073
 21
10.7815524405
  0
LINE
  5
38F
100
AcDbEntity
  8
RACCORDO
100
AcDbLine
 62
250
  6
CONTINUOUS
 10
15.63299212
 20
11.2827412066
 11
15.8813568884
 21
11.3974068114
  0
LWPOLYLINE
  5
390
100
AcDbEntity
  8
RACCORDO
100
AcDbPolyline
 62
250
  6
CONTINUOUS
 90
4
 70
0
 10
16.5118289289
 20
10.9517992624
 10
16.5917270865
 20
10.9880902008
 10
16.6716332834
 20
11.0243903476
 10
17.2310521899
 20
11.2786807716
  0
LWPOLYLINE
  5
391
100
AcDbEntity
  8
RACCORDO
100
AcDbPolyline
 62
250
  6
CONTINUOUS
 90
14
 70
0
 10
17.2310521899
 20
11.2786807716
 10
17.2369792645
 20
11.2813441019
 10
17.2430874717
 20
11.2839876297
 10
17.2493768115
 20
11.2866113551
 10
17.2558244047
 20
11.2892107414
 10
17.2624531304
 20
11.2917903252
 10
17.2693316265
 20
11.2943637162
 10
17.2764629878
 20
11.2969290142
 10
17.2838441194
 20
11.2994881194
 10
17.2915343747
 20
11.3020603416
 10
17.2995282672
 20
11.3046393909
 10
17.3078312835
 20
11.3072315571
 10
17.3165192366
 20
11.3098750202
 10
17.3255841355
 20
11.3125559492
  0
LWPOLYLINE
  5
392
100
AcDbEntity
  8
RACCORDO
100
AcDbPolyline
 62
250
  6
CONTINUOUS
 90
13
 70
0
 10
16.2005115503
 20
11.9999115429
 10
16.1759252122
 20
11.989130723
 10
16.148734855
 20
11.9800467151
 10
16.1194057131
 20
11.972814949
 10
16.0884396162
 20
11.9675591623
 10
16.056366403
 20
11.9643692829
 10
16.023734855
 20
11.9632998906
 10
15.9911033069
 20
11.9643692829
 10
15.9590300937
 20
11.9675591623
 10
15.9280639969
 20
11.972814949
 10
15.898734855
 20
11.9800467151
 10
15.8715444977
 20
11.989130723
 10
15.8469581597
 20
11.9999115429
  0
LINE
  5
393
100
AcDbEntity
  8
RACCORDO
100
AcDbLine
 62
250
  6
CONTINUOUS
 10
11.433554617
 20
9.0842619805
 11
15.4820463994
 21
10.5695382942
  0
LINE
  5
394
100
AcDbEntity
  8
ASSI
100
AcDbLine
 62
250
  6
CONTINUOUS
 10
11.433554617
 20
9.0842619805
 11
15.4820463994
 21
10.5695382942
  0
LINE
  5
395
100
AcDbEntity
  8
RACCORDO
100
AcDbLine
 62
250
  6
CONTINUOUS
 10
11.9351262305
 20
8.0811865865
 11
15.9836180128
 21
9.5664629002
  0
LINE
  5
396
100
AcDbEntity
  8
ASSI
100
AcDbLine
 62
250
  6
CONTINUOUS
 10
11.9351262305
 20
8.0811865865
 11
15.9836180128
 21
9.5664629002
  0
LWPOLYLINE
  5
397
100
AcDbEntity
  8
RACCORDO
100
AcDbPolyline
 62
250
  6
CONTINUOUS
 90
13
 70
0
 10
16.023734855
 20
-28.2630809441
 10
16.0106855114
 20
-28.2436196057
 10
15.9948347474
 20
-28.2229789071
 10
15.976453774
 20
-28.2015120163
 10
15.9558570948
 20
-28.1795862378
 10
15.9333971246
 20
-28.1575767278
 10
15.9094581597
 20
-28.135860075
 10
15.8844498025
 20
-28.1148078574
 10
15.8587999529
 20
-28.0947802843
 10
15.8329474869
 20
-28.076120033
 10
15.8073347474
 20
-28.0591463856
 10
15.7823999755
 20
-28.044149766
 10
15.758569812
 20
-28.0313867703
  0
LWPOLYLINE
  5
398
100
AcDbEntity
  8
RACCORDO
100
AcDbPolyline
 62
250
  6
CONTINUOUS
 90
13
 70
0
 10
15.4934047691
 20
-28.9032459871
 10
15.4804598347
 20
-28.8839295982
 10
15.4647137137
 20
-28.8634012699
 10
15.4464154439
 20
-28.8420020867
 10
15.4258445326
 20
-28.8200754811
 10
15.4033522272
 20
-28.7980106582
 10
15.3793688556
 20
-28.7762355838
 10
15.3543253865
 20
-28.755139733
 10
15.3286347884
 20
-28.7350692449
 10
15.302739134
 20
-28.7163693794
 10
15.277083306
 20
-28.6993611771
 10
15.252107311
 20
-28.684336113
 10
15.2282397261
 20
-28.6715518132
  0
LWPOLYLINE
  5
399
100
AcDbEntity
  8
26814000
100
AcDbPolyline
 62
7
  6
CONTINUOUS
 90
24
 70
0
 10
-0.6993405201
 20
27.6694273501
 10
-0.6999137045
 20
27.7038997562
 10
-0.7016128175
 20
27.7376496772
 10
-0.7044378591
 20
27.770677113
 10
-0.7083982936
 20
27.8030386704
 10
-0.7134846567
 20
27.8346777426
 10
-0.7196685551
 20
27.8654245091
 10
-0.7269511705
 20
27.8952600365
 10
-0.7353313212
 20
27.9242032583
 10
-0.7447770684
 20
27.9521411542
 10
-0.755300927
 20
27.979087317
 10
-0.766890382
 20
28.005028154
 10
-0.7794759508
 20
28.0298098669
 10
-0.7930511366
 20
28.0534071683
 10
-0.8076224362
 20
28.0758453456
 10
-0.8231398562
 20
28.0970464628
 10
-0.8396231436
 20
28.1170235527
 10
-0.8570525514
 20
28.1357635826
 10
-0.8753188461
 20
28.1531495182
 10
-0.894407502
 20
28.1691584445
 10
-0.9143330447
 20
28.1838132766
 10
-0.9350298172
 20
28.1970657249
 10
-0.9565223317
 20
28.2089215862
 10
-4.1857235979
 20
29.8235460965
  0
LINE
  5
39A
100
AcDbEntity
  8
26814000
100
AcDbLine
 62
7
  6
CONTINUOUS
 10
-1.5416979171
 20
20.1820700226
 11
-1.5416979171
 21
20.6344009983
  0
LINE
  5
39B
100
AcDbEntity
  8
26814000
100
AcDbLine
 62
7
  6
CONTINUOUS
 10
-0.6993405201
 20
27.6694273501
 11
-0.6993405201
 21
27.3986270574
  0
LINE
  5
39C
100
AcDbEntity
  8
26814000
100
AcDbLine
 62
7
  6
CONTINUOUS
 10
-0.6389144092
 20
20.5391124399
 11
-0.6389144092
 21
20.2857410462
  0
LINE
  5
39D
100
AcDbEntity
  8
26814000
100
AcDbLine
 62
7
  6
CONTINUOUS
 10
-0.2397211123
 20
18.5132967166
 11
-0.2397211123
 21
18.4889012113
  0
LINE
  5
39E
100
AcDbEntity
  8
26814000
100
AcDbLine
 62
7
  6
CONTINUOUS
 10
0.0723061989
 20
19.3750679646
 11
0.0723061989
 21
20.0122375233
  0
LINE
  5
39F
100
AcDbEntity
  8
RACCORDO
100
AcDbLine
 62
7
  6
CONTINUOUS
 10
0.2922814188
 20
18.5198859853
 11
0.2922814188
 21
18.4940163475
  0
LWPOLYLINE
  5
3A0
100
AcDbEntity
  8
RACCORDO
100
AcDbPolyline
 62
250
  6
CONTINUOUS
 90
6
 70
0
 10
3.5764727959
 20
19.2352744209
 10
3.5646490034
 20
19.1944284554
 10
3.5553940053
 20
19.1539565581
 10
3.5487939315
 20
19.1141383092
 10
3.5447626521
 20
19.0746941284
 10
3.543300167
 20
19.0356240157
  0
LWPOLYLINE
  5
3A1
100
AcDbEntity
  8
21814000
100
AcDbPolyline
 62
7
  6
CONTINUOUS
 90
66
 70
0
 10
17.3501095848
 20
18.3926190253
 10
17.3960578636
 20
18.4351432954
 10
17.4406000714
 20
18.4769393062
 10
17.4837419607
 20
18.5180071035
 10
17.5254777789
 20
18.5583466415
 10
17.5658728546
 20
18.5980402118
 10
17.6049346756
 20
18.6370873352
 10
17.6426557541
 20
18.6754884908
 10
17.679078955
 20
18.7133274069
 10
17.7142149798
 20
18.7506030006
 10
17.7480531271
 20
18.7873163549
 10
17.7806041575
 20
18.8235544469
 10
17.8118862358
 20
18.8593174772
 10
17.8418811972
 20
18.8946052451
 10
17.8705453072
 20
18.9295041268
 10
17.8979093179
 20
18.9640167078
 10
17.9239424772
 20
18.9981404024
 10
17.9485087943
 20
19.0319538301
 10
17.9716772472
 20
19.0655021957
 10
17.9933788579
 20
19.0987402943
 10
18.0132707024
 20
19.1316111307
 10
18.0314289262
 20
19.1642317711
 10
18.0477773838
 20
19.1964851493
 10
18.0617447155
 20
19.2279630709
 10
18.0732841619
 20
19.2586789285
 10
18.0824424824
 20
19.2886193296
 10
18.0887885945
 20
19.3173359021
 10
18.0922132501
 20
19.3447882785
 10
18.0928256973
 20
19.3710168264
 10
18.0905225977
 20
19.3956942768
 10
18.0851384713
 20
19.4187828951
 10
18.076838798
 20
19.4403204159
 10
18.0660166793
 20
19.4600927753
 10
18.0525959026
 20
19.4779709814
 10
18.0366526805
 20
19.4940840261
 10
18.0188087523
 20
19.5086048207
 10
17.9991442791
 20
19.5214828819
 10
17.9775790999
 20
19.5327686931
 10
17.9544944703
 20
19.5427866156
 10
17.9299646921
 20
19.551565076
 10
17.9039154636
 20
19.5590756477
 10
17.8765051349
 20
19.5655574114
 10
17.8477690298
 20
19.5710419841
 10
17.8176718246
 20
19.5754977489
 10
17.7862658979
 20
19.5790689361
 10
17.753570631
 20
19.5817759275
 10
17.7195666427
 20
19.5835983414
 10
17.6842481681
 20
19.5846192635
 10
17.6476274269
 20
19.5848518562
 10
17.6096921994
 20
19.584282957
 10
17.5704000618
 20
19.5829561648
 10
17.529756566
 20
19.5808800675
 10
17.48775616
 20
19.5780460771
 10
17.4443397643
 20
19.574472028
 10
17.3995115168
 20
19.5701636391
 10
17.3532672795
 20
19.5651151916
 10
17.3055355599
 20
19.5593273638
 10
17.2563269672
 20
19.5528055699
 10
17.2056308921
 20
19.5455443956
 10
17.1533440132
 20
19.5375282771
 10
17.0994732242
 20
19.5287622578
 10
17.0440116313
 20
19.5192412942
 10
16.986835232
 20
19.5089346928
 10
16.9279026919
 20
19.4978322221
 10
16.8672553453
 20
19.4859441135
 10
16.8048931922
 20
19.473270367
  0
LINE
  5
3A2
100
AcDbEntity
  8
21814000
100
AcDbLine
 62
7
  6
CONTINUOUS
 10
17.3368682316
 20
18.3805226816
 11
17.3501095848
 21
18.3926190253
  0
LINE
  5
3A3
100
AcDbEntity
  8
RACCORDO
100
AcDbLine
 62
250
  6
CONTINUOUS
 10
-14.8916267585
 20
-12.1449191654
 11
-14.9496804305
 21
-12.1921733596
  0
LWPOLYLINE
  5
3A4
100
AcDbEntity
  8
ASSI
100
AcDbPolyline
 62
250
  6
CONTINUOUS
 90
11
 70
0
 10
-14.8916267585
 20
-12.1449191654
 10
-14.9496804305
 20
-12.1921733596
 10
-15.012409836
 20
-12.2305397809
 10
-15.0797191466
 20
-12.2602189534
 10
-15.1500959059
 20
-12.2805582396
 10
-15.2236535186
 20
-12.2913332482
 10
-15.3002854617
 20
-12.2927712478
 10
-15.3781496718
 20
-12.2848972129
 10
-15.4566335644
 20
-12.2677200705
 10
-15.5363536972
 20
-12.2412325584
 10
-15.617311059
 20
-12.2054350912
  0
LWPOLYLINE
  5
3A5
100
AcDbEntity
  8
RACCORDO
100
AcDbPolyline
 62
250
  6
CONTINUOUS
 90
14
 70
0
 10
16.3845344589
 20
10.8762270818
 10
16.409384486
 20
10.8926850971
 10
16.4205536213
 20
10.8999601894
 10
16.4309207291
 20
10.906644878
 10
16.4407478014
 20
10.9128575605
 10
16.4500645053
 20
10.918601423
 10
16.4588411737
 20
10.9238732792
 10
16.4672507965
 20
10.9287819682
 10
16.4752961343
 20
10.9333276956
 10
16.4829744265
 20
10.9375102558
 10
16.4904503813
 20
10.9414378704
 10
16.4977789013
 20
10.9451466133
 10
16.5049050838
 20
10.9486004107
 10
16.5118289289
 20
10.9517992624
  0
LINE
  5
3A6
100
AcDbEntity
  8
DRAFT
100
AcDbLine
 62
7
  6
CONTINUOUS
 10
14.6916981939
 20
-8.9486061406
 11
14.3528155007
 21
-8.779164794
  0
LWPOLYLINE
  5
3A7
100
AcDbEntity
  8
RACCORDO
100
AcDbPolyline
 62
7
  6
CONTINUOUS
 90
6
 70
0
 10
17.6517744115
 20
-27.6246659053
 10
17.6320426567
 20
-27.5966302765
 10
17.6087024937
 20
-27.5715966861
 10
17.5821643326
 20
-27.5499877322
 10
17.5528707012
 20
-27.5321780134
 10
17.5494332776
 20
-27.5304321554
  0
LINE
  5
3A8
100
AcDbEntity
  8
RACCORDO
100
AcDbLine
 62
7
  6
CONTINUOUS
 10
0.3606492886
 20
19.8083628368
 11
0.3588070291
 21
19.8386792716
  0
LWPOLYLINE
  5
3A9
100
AcDbEntity
  8
RACCORDO
100
AcDbPolyline
 62
250
  6
CONTINUOUS
 90
8
 70
0
 10
1.0659138071
 20
19.1383049236
 10
1.0662691798
 20
19.1319032031
 10
1.068994773
 20
19.1194444779
 10
1.0743915427
 20
19.1071153533
 10
1.0824096983
 20
19.0950622119
 10
1.0929955366
 20
19.0833858604
 10
1.1060672096
 20
19.0722105809
 10
1.1214975029
 20
19.0616796847
  0
LWPOLYLINE
  5
3AA
100
AcDbEntity
  8
RACCORDO
100
AcDbPolyline
 62
250
  6
CONTINUOUS
 90
9
 70
0
 10
0.4320303298
 20
19.7502686767
 10
0.4332378562
 20
19.7256098115
 10
0.4368439464
 20
19.7024953163
 10
0.4427993467
 20
19.6812409813
 10
0.4510385194
 20
19.6621067696
 10
0.4614404099
 20
19.6453926936
 10
0.4737945216
 20
19.6313922814
 10
0.4878783719
 20
19.6202705927
 10
0.4970948591
 20
19.6150046721
  0
LWPOLYLINE
  5
3AB
100
AcDbEntity
  8
RACCORDO
100
AcDbPolyline
 62
250
  6
CONTINUOUS
 90
9
 70
0
 10
1.7755332141
 20
19.0785172345
 10
1.7766921794
 20
19.0543455684
 10
1.7801777914
 20
19.0315363696
 10
1.7859794808
 20
19.0104172283
 10
1.7940700494
 20
18.9912702644
 10
1.8043653643
 20
18.9744275402
 10
1.8166886963
 20
18.9602233449
 10
1.8308456324
 20
18.9488691394
 10
1.8405065395
 20
18.9432987699
  0
LINE
  5
3AC
100
AcDbEntity
  8
RACCORDO
100
AcDbLine
 62
7
  6
CONTINUOUS
 10
0.3588070251
 20
19.8386570243
 11
0.3588070251
 21
20.1899709964
  0
LINE
  5
3AD
100
AcDbEntity
  8
RACCORDO
100
AcDbLine
 62
250
  6
CONTINUOUS
 10
0.4320303298
 20
19.7502686767
 11
0.4320303298
 21
20.1015826487
  0
LINE
  5
3AE
100
AcDbEntity
  8
26814000
100
AcDbLine
 62
7
  6
CONTINUOUS
 10
0.573451686
 20
18.3534312139
 11
0.573451686
 21
18.0238356509
  0
LINE
  5
3AF
100
AcDbEntity
  8
DRAFT
100
AcDbLine
 62
7
  6
CONTINUOUS
 10
0.74387814
 20
17.9386224239
 11
0.74387814
 21
18.2682179869
  0
LINE
  5
3B0
100
AcDbEntity
  8
RACCORDO
100
AcDbLine
 62
7
  6
CONTINUOUS
 10
1.0659138063
 20
19.1382568123
 11
1.0659138063
 21
19.3305951365
  0
LINE
  5
3B1
100
AcDbEntity
  8
RACCORDO
100
AcDbLine
 62
250
  6
CONTINUOUS
 10
1.139137111
 20
19.0519186075
 11
1.139137111
 21
19.2939834842
  0
LINE
  5
3B2
100
AcDbEntity
  8
26814000
100
AcDbLine
 62
7
  6
CONTINUOUS
 10
1.139137111
 20
20.7346445365
 11
1.139137111
 21
21.6457000217
  0
LINE
  5
3B3
100
AcDbEntity
  8
RACCORDO
100
AcDbLine
 62
250
  6
CONTINUOUS
 10
1.7755332141
 20
19.4298312066
 11
1.7755332141
 21
19.0785172345
  0
LINE
  5
3B4
100
AcDbEntity
  8
26814000
100
AcDbLine
 62
7
  6
CONTINUOUS
 10
1.8421300653
 20
21.7810215195
 11
1.8421300653
 21
21.5200925431
  0
LINE
  5
3B5
100
AcDbEntity
  8
RACCORDO
100
AcDbLine
 62
250
  6
CONTINUOUS
 10
2.1290866047
 20
19.4298312066
 11
2.1290866047
 21
19.0785172345
  0
LINE
  5
3B6
100
AcDbEntity
  8
26814000
100
AcDbLine
 62
250
  6
CONTINUOUS
 10
2.1693477628
 20
26.0181314115
 11
2.1693477628
 21
24.7862928331
  0
LINE
  5
3B7
100
AcDbEntity
  8
26814000
100
AcDbLine
 62
7
  6
CONTINUOUS
 10
2.2559851912
 20
26.1225187868
 11
2.2559851912
 21
24.8901502951
  0
LINE
  5
3B8
100
AcDbEntity
  8
RACCORDO
100
AcDbLine
 62
250
  6
CONTINUOUS
 10
2.4826399953
 20
18.6820706251
 11
2.4826399953
 21
18.3801671654
  0
LINE
  5
3B9
100
AcDbEntity
  8
RACCORDO
100
AcDbLine
 62
250
  6
CONTINUOUS
 10
2.8361933858
 20
18.6820706251
 11
2.8361933858
 21
18.373364727
  0
LWPOLYLINE
  5
3BA
100
AcDbEntity
  8
RACCORDO
100
AcDbPolyline
 62
7
  6
CONTINUOUS
 90
6
 70
0
 10
1.0659182205
 20
19.1384883547
 10
1.0657087454
 20
19.1321331233
 10
1.0640402713
 20
19.119878522
 10
1.0611963578
 20
19.1094836701
 10
1.0578824277
 20
19.1014338212
 10
1.0555280255
 20
19.097053227
  0
LINE
  5
3BB
100
AcDbEntity
  8
RACCORDO
100
AcDbLine
 62
250
  6
CONTINUOUS
 10
3.6162062279
 20
18.789334618
 11
3.6165234709
 21
18.7953895289
  0
LWPOLYLINE
  5
3BC
100
AcDbEntity
  8
RACCORDO
100
AcDbPolyline
 62
250
  6
CONTINUOUS
 90
7
 70
0
 10
4.3236302529
 20
20.578879726
 10
4.3214914683
 20
20.562563952
 10
4.3151117095
 20
20.5465273454
 10
4.304600136
 20
20.531044297
 10
4.2901366039
 20
20.516379726
 10
4.271968588
 20
20.5027845474
 10
4.2504069482
 20
20.4904913784
  0
LWPOLYLINE
  5
3BD
100
AcDbEntity
  8
RACCORDO
100
AcDbPolyline
 62
250
  6
CONTINUOUS
 90
7
 70
0
 10
4.3236302519
 20
20.2275546498
 10
4.3214387697
 20
20.2110510712
 10
4.3149866161
 20
20.194980842
 10
4.3044125919
 20
20.1795045638
 10
4.2899368689
 20
20.1648930967
 10
4.2718248657
 20
20.1513770155
 10
4.2504069482
 20
20.1391774063
  0
LWPOLYLINE
  5
3BE
100
AcDbEntity
  8
RACCORDO
100
AcDbPolyline
 62
250
  6
CONTINUOUS
 90
7
 70
0
 10
-14.9496804305
 20
-12.1921733596
 10
-15.012409836
 20
-12.2305397809
 10
-15.0797191466
 20
-12.2602189534
 10
-15.1500959059
 20
-12.2805582396
 10
-15.2236535186
 20
-12.2913332482
 10
-15.3002854617
 20
-12.2927712478
 10
-15.3781496718
 20
-12.2848972129
  0
LINE
  5
3BF
100
AcDbEntity
  8
ASSI
100
AcDbLine
 62
250
  6
CONTINUOUS
 10
-15.9852937515
 20
-9.9302369718
 11
-15.929605284
 21
-9.9052158115
  0
LINE
  5
3C0
100
AcDbEntity
  8
RACCORDO
100
AcDbLine
 62
250
  6
CONTINUOUS
 10
-15.9852937515
 20
-9.9302369718
 11
-15.9223891252
 21
-9.9025519456
  0
LWPOLYLINE
  5
3C1
100
AcDbEntity
  8
RACCORDO
100
AcDbPolyline
 62
250
  6
CONTINUOUS
 90
13
 70
0
 10
2.8361933858
 20
18.6820706251
 10
2.834721413
 20
18.7197494268
 10
2.8306763923
 20
18.755218082
 10
2.8240583237
 20
18.7884765908
 10
2.8147764001
 20
18.8197185478
 10
2.8029214286
 20
18.8487503583
 10
2.7887658305
 20
18.8749912388
 10
2.7722762361
 20
18.8983951187
 10
2.7534860151
 20
18.9190080685
 10
2.7327676971
 20
18.9363875165
 10
2.7102454586
 20
18.9503859387
 10
2.6857951231
 20
18.961150859
 10
2.6594166905
 20
18.9686822775
  0
LINE
  5
3C2
100
AcDbEntity
  8
RACCORDO
100
AcDbLine
 62
7
  6
CONTINUOUS
 10
3.6166566376
 20
18.79031543
 11
3.6165189458
 21
18.7954757468
  0
LINE
  5
3C3
100
AcDbEntity
  8
RACCORDO
100
AcDbLine
 62
250
  6
CONTINUOUS
 10
3.543300167
 20
18.711801588
 11
3.543300167
 21
19.0356240157
  0
LINE
  5
3C4
100
AcDbEntity
  8
RACCORDO
100
AcDbLine
 62
7
  6
CONTINUOUS
 10
3.6165234709
 20
18.7953895289
 11
3.6165234717
 21
19.1240123634
  0
LINE
  5
3C5
100
AcDbEntity
  8
RACCORDO
100
AcDbLine
 62
250
  6
CONTINUOUS
 10
4.2504069482
 20
20.4904913784
 11
4.2504069482
 21
20.1391774063
  0
LINE
  5
3C6
100
AcDbEntity
  8
RACCORDO
100
AcDbLine
 62
7
  6
CONTINUOUS
 10
4.3236302529
 20
20.578879726
 11
4.3236302529
 21
20.227565754
  0
LWPOLYLINE
  5
3C7
100
AcDbEntity
  8
RACCORDO
100
AcDbPolyline
 62
7
  6
CONTINUOUS
 90
13
 70
0
 10
3.6165234717
 20
19.1240123634
 10
3.6172014888
 20
19.1441109517
 10
3.6193868198
 20
19.1664579111
 10
3.6232741087
 20
19.1907816522
 10
3.6290285153
 20
19.2168291387
 10
3.6367335305
 20
19.2441504243
 10
3.6463467503
 20
19.272121434
 10
3.6578236467
 20
19.300341459
 10
3.6710539003
 20
19.3283645154
 10
3.6857402903
 20
19.3555179345
 10
3.7015936084
 20
19.3813411071
 10
3.718385869
 20
19.4055733482
 10
3.7358192051
 20
19.4279127178
  0
LINE
  5
3C8
100
AcDbEntity
  8
RACCORDO
100
AcDbLine
 62
250
  6
CONTINUOUS
 10
17.0843950268
 20
12.8168532812
 11
17.6147251126
 21
13.4570183241
  0
LINE
  5
3C9
100
AcDbEntity
  8
RACCORDO
100
AcDbLine
 62
7
  6
CONTINUOUS
 10
17.1001373696
 20
12.7457536356
 11
17.6304674554
 21
13.3859186786
  0
LINE
  5
3CA
100
AcDbEntity
  8
RACCORDO
100
AcDbLine
 62
7
  6
CONTINUOUS
 10
18.1450551985
 20
9.9871319394
 11
22.2579829264
 21
13.9003008957
  0
LINE
  5
3CB
100
AcDbEntity
  8
RACCORDO
100
AcDbLine
 62
250
  6
CONTINUOUS
 10
18.1450551985
 20
10.1724168887
 11
22.3436652812
 21
14.1487456263
  0
LWPOLYLINE
  5
3CC
100
AcDbEntity
  8
RACCORDO
100
AcDbPolyline
 62
7
  6
CONTINUOUS
 90
3
 70
0
 10
-14.9767940372
 20
-12.1063486478
 10
-15.033885339
 20
-12.1332844641
 10
-15.0440054402
 20
-12.1370605163
  0
LINE
  5
3CD
100
AcDbEntity
  8
ASSI
100
AcDbLine
 62
7
  6
CONTINUOUS
 10
-14.977407707
 20
-12.1067184811
 11
-15.0611302583
 21
-12.1428702904
  0
LINE
  5
3CE
100
AcDbEntity
  8
ASSI
100
AcDbLine
 62
250
  6
CONTINUOUS
 10
-15.929605284
 20
-9.9052158115
 11
-15.9223891252
 21
-9.9025519456
  0
LINE
  5
3CF
100
AcDbEntity
  8
DRAFT
100
AcDbLine
 62
7
  6
CONTINUOUS
 10
-15.9239890574
 20
-10.1221932598
 11
-15.4628038311
 21
-9.9522924957
  0
LINE
  5
3D0
100
AcDbEntity
  8
RACCORDO
100
AcDbLine
 62
7
  6
CONTINUOUS
 10
-15.9223891252
 20
-9.9025519456
 11
-15.922141478
 21
-9.9024627518
  0
LINE
  5
3D1
100
AcDbEntity
  8
ASSI
100
AcDbLine
 62
7
  6
CONTINUOUS
 10
-15.9296208443
 20
-9.9052480216
 11
-15.9098114565
 21
-9.8982480586
  0
LWPOLYLINE
  5
3D2
100
AcDbEntity
  8
RACCORDO
100
AcDbPolyline
 62
7
  6
CONTINUOUS
 90
3
 70
0
 10
-15.922125347
 20
-9.9024836956
 10
-15.8791681213
 20
-9.889409449
 10
-15.8243041538
 20
-9.8791277909
  0
LWPOLYLINE
  5
3D3
100
AcDbEntity
  8
ASSI
100
AcDbPolyline
 62
250
  6
CONTINUOUS
 90
4
 70
0
 10
-16.0273903512
 20
-9.8376985908
 10
-15.9567005243
 20
-9.8172338278
 10
-15.8828551773
 20
-9.8063450225
 10
-15.8059672953
 20
-9.8048073514
  0
LWPOLYLINE
  5
3D4
100
AcDbEntity
  8
RACCORDO
100
AcDbPolyline
 62
250
  6
CONTINUOUS
 90
5
 70
0
 10
17.6157779646
 20
-27.624413444
 10
17.6029742977
 20
-27.5978994903
 10
17.5873380458
 20
-27.5740699235
 10
17.5691382287
 20
-27.5533337157
 10
17.548687375
 20
-27.536046081
  0
LWPOLYLINE
  5
3D5
100
AcDbEntity
  8
RACCORDO
100
AcDbPolyline
 62
7
  6
CONTINUOUS
 90
8
 70
0
 10
16.9909142818
 20
-27.4192094267
 10
16.9909014192
 20
-27.4191823629
 10
16.9901374763
 20
-27.4176649107
 10
16.9884911644
 20
-27.4136249471
 10
16.9864274404
 20
-27.4070734923
 10
16.9843448109
 20
-27.3981361783
 10
16.9825488855
 20
-27.3868798891
 10
16.9813023002
 20
-27.3733623764
  0
LWPOLYLINE
  5
3D6
100
AcDbEntity
  8
RACCORDO
100
AcDbPolyline
 62
7
  6
CONTINUOUS
 90
4
 70
0
 10
13.7432334328
 20
-28.5926534641
 10
13.7322731574
 20
-28.5614297958
 10
13.7255152297
 20
-28.5289065113
 10
13.7231253479
 20
-28.4945608619
  0
LWPOLYLINE
  5
3D7
100
AcDbEntity
  8
RACCORDO
100
AcDbPolyline
 62
250
  6
CONTINUOUS
 90
7
 70
0
 10
0.3588070251
 20
19.8386570234
 10
0.3609113606
 20
19.822472622
 10
0.3672715619
 20
19.8064055902
 10
0.3777781125
 20
19.7908929124
 10
0.3922499242
 20
19.7762009956
 10
0.4104382072
 20
19.7625817128
 10
0.4320303298
 20
19.7502686767
  0
LWPOLYLINE
  5
3D8
100
AcDbEntity
  8
RACCORDO
100
AcDbPolyline
 62
250
  6
CONTINUOUS
 90
7
 70
0
 10
0.3588070251
 20
20.1899709842
 10
0.3608444945
 20
20.1740447335
 10
0.3671703561
 20
20.1579096482
 10
0.3776725061
 20
20.1423347861
 10
0.3921630452
 20
20.1275903384
 10
0.4103884726
 20
20.113928117
 10
0.4320303298
 20
20.1015826487
  0
LWPOLYLINE
  5
3D9
100
AcDbEntity
  8
RACCORDO
100
AcDbPolyline
 62
7
  6
CONTINUOUS
 90
10
 70
0
 10
4.3236302529
 20
20.578879726
 10
4.3215692852
 20
20.610910365
 10
4.3153341691
 20
20.6427470892
 10
4.3049319533
 20
20.673745544
 10
4.2904706121
 20
20.7032993531
 10
4.272205876
 20
20.730760326
 10
4.2505180418
 20
20.7555452579
 10
4.2256418591
 20
20.7773550258
 10
4.1981031425
 20
20.7956895476
 10
4.1854497036
 20
20.802478496
  0
LWPOLYLINE
  5
3DA
100
AcDbEntity
  8
RACCORDO
100
AcDbPolyline
 62
7
  6
CONTINUOUS
 90
13
 70
0
 10
5.9404075486
 20
18.1219006497
 10
5.9414043564
 20
18.1062281006
 10
5.9445497434
 20
18.089836958
 10
5.9498053117
 20
18.0736533181
 10
5.9571982901
 20
18.0576798582
 10
5.9667014498
 20
18.0419139009
 10
5.9781926907
 20
18.0265580129
 10
5.9916976663
 20
18.0116174854
 10
6.0071907232
 20
17.9970870272
 10
6.024472801
 20
17.9831533307
 10
6.0434775463
 20
17.9698786267
 10
6.0642713125
 20
17.9572006844
 10
6.0868540997
 20
17.9451195039
  0
LWPOLYLINE
  5
3DB
100
AcDbEntity
  8
26814000
100
AcDbPolyline
 62
7
  6
CONTINUOUS
 90
7
 70
0
 10
7.0115447243
 20
24.0561084779
 10
7.0114531162
 20
24.0604162792
 10
7.0113139454
 20
24.0647276098
 10
7.011127212
 20
24.0690424698
 10
7.0108929159
 20
24.0733608591
 10
7.0106110571
 20
24.0776827778
 10
7.0102816356
 20
24.0820082259
  0
LINE
  5
3DC
100
AcDbEntity
  8
26814000
100
AcDbLine
 62
7
  6
CONTINUOUS
 10
7.0115447243
 20
24.0561084779
 11
7.0115911949
 21
24.0499711398
  0
LINE
  5
3DD
100
AcDbEntity
  8
RACCORDO
100
AcDbLine
 62
7
  6
CONTINUOUS
 10
5.9404074903
 20
16.9223617916
 11
5.9404074903
 21
18.1218961992
  0
LINE
  5
3DE
100
AcDbEntity
  8
RACCORDO
100
AcDbLine
 62
250
  6
CONTINUOUS
 10
6.0868540997
 20
16.7478004682
 11
6.0868540997
 21
17.9451195039
  0
LINE
  5
3DF
100
AcDbEntity
  8
26814000
100
AcDbLine
 62
250
  6
CONTINUOUS
 10
6.9273931567
 20
23.762294634
 11
6.9273931567
 21
23.5500354799
  0
LINE
  5
3E0
100
AcDbEntity
  8
26814000
100
AcDbLine
 62
7
  6
CONTINUOUS
 10
7.0115912166
 20
24.0499155123
 11
7.0115912166
 21
23.4739523228
  0
LINE
  5
3E1
100
AcDbEntity
  8
21814000
100
AcDbLine
 62
250
  6
CONTINUOUS
 10
7.4154923766
 20
25.4018186575
 11
7.4154923766
 21
25.0804943753
  0
LWPOLYLINE
  5
3E2
100
AcDbEntity
  8
26814000
100
AcDbPolyline
 62
7
  6
CONTINUOUS
 90
16
 70
0
 10
7.0115911949
 20
24.0499711398
 10
7.0113566893
 20
24.0364568315
 10
7.0102159132
 20
24.0166916403
 10
7.0081715816
 20
23.9968379898
 10
7.0052804166
 20
23.9769022059
 10
7.0015916524
 20
23.9569199695
 10
6.9971316885
 20
23.9369581479
 10
6.9919388302
 20
23.9170374303
 10
6.986056173
 20
23.8971696789
 10
6.9794956388
 20
23.8774094527
 10
6.9722887357
 20
23.8577723861
 10
6.96447159
 20
23.8382704215
 10
6.9560476506
 20
23.8189548226
 10
6.9470347592
 20
23.7998520961
 10
6.9374729138
 20
23.7809616023
 10
6.9273931567
 20
23.762294634
  0
LWPOLYLINE
  5
3E3
100
AcDbEntity
  8
RACCORDO
100
AcDbPolyline
 62
250
  6
CONTINUOUS
 90
5
 70
0
 10
17.057967656
 20
12.7828709389
 10
17.033479909
 20
12.7475910902
 10
17.0109317856
 20
12.7110137351
 10
16.9901996922
 20
12.6728612624
 10
16.9714072225
 20
12.6334112833
  0
LINE
  5
3E4
100
AcDbEntity
  8
RACCORDO
100
AcDbLine
 62
250
  6
CONTINUOUS
 10
17.0843950268
 20
12.8168532812
 11
17.057967656
 21
12.7828709389
  0
LWPOLYLINE
  5
3E5
100
AcDbEntity
  8
RACCORDO
100
AcDbPolyline
 62
250
  6
CONTINUOUS
 90
18
 70
0
 10
-15.2499132941
 20
-11.9922439862
 10
-15.2281857702
 20
-11.9839312153
 10
-15.1931926891
 20
-11.9676471979
 10
-15.1595179155
 20
-11.9482640395
 10
-15.1272819306
 20
-11.9258490756
 10
-15.0966024818
 20
-11.9004846348
 10
-15.0675884946
 20
-11.8722641685
 10
-15.0403313358
 20
-11.8412801334
 10
-15.0149144632
 20
-11.8076274479
 10
-14.9914101753
 20
-11.7713943006
 10
-14.9699167178
 20
-11.7327239859
 10
-14.9505384072
 20
-11.6918162257
 10
-14.9333482122
 20
-11.6488653206
 10
-14.9183732288
 20
-11.6039841552
 10
-14.9056368961
 20
-11.5572625705
 10
-14.8951772791
 20
-11.5088338162
 10
-14.8870361191
 20
-11.4588833846
 10
-14.8812405858
 20
-11.4075794991
  0
LINE
  5
3E6
100
AcDbEntity
  8
RACCORDO
100
AcDbLine
 62
7
  6
CONTINUOUS
 10
-15.0435537133
 20
-12.1369246332
 11
-15.0439858193
 21
-12.1370801618
  0
LINE
  5
3E7
100
AcDbEntity
  8
DRAFT
100
AcDbLine
 62
7
  6
CONTINUOUS
 10
-15.249914284
 20
-11.9922443352
 11
-14.738920064
 21
-11.8120904282
  0
LINE
  5
3E8
100
AcDbEntity
  8
ASSI
100
AcDbLine
 62
250
  6
CONTINUOUS
 10
-15.0435537133
 20
-12.1369246332
 11
-15.0610423691
 21
-12.1428637701
  0
LWPOLYLINE
  5
3E9
100
AcDbEntity
  8
RACCORDO
100
AcDbPolyline
 62
7
  6
CONTINUOUS
 90
40
 70
0
 10
-15.2499142825
 20
-11.9922443347
 10
-15.2857949439
 20
-12.0033849042
 10
-15.3227207947
 20
-12.0118468932
 10
-15.360577862
 20
-12.0175568666
 10
-15.3992610864
 20
-12.0204528663
 10
-15.4386351564
 20
-12.0204812011
 10
-15.4785398634
 20
-12.0176058406
 10
-15.5188326789
 20
-12.0118088187
 10
-15.5594166242
 20
-12.0030763132
 10
-15.6002091044
 20
-11.9913922203
 10
-15.6411723513
 20
-11.9767207568
 10
-15.6821138774
 20
-11.9590827414
 10
-15.7227283357
 20
-11.93858906
 10
-15.7628829027
 20
-11.9153078158
 10
-15.8024957585
 20
-11.8892849666
 10
-15.8413491879
 20
-11.8606697629
 10
-15.879320022
 20
-11.8295728547
 10
-15.9163355734
 20
-11.7960709507
 10
-15.9522605909
 20
-11.7603030216
 10
-15.9870062959
 20
-11.7223762269
 10
-16.0204791532
 20
-11.682408752
 10
-16.0525439587
 20
-11.6405838086
 10
-16.0831054718
 20
-11.5970560181
 10
-16.1121040275
 20
-11.5519387173
 10
-16.1394651888
 20
-11.5053711788
 10
-16.1651162547
 20
-11.4574994176
 10
-16.1889943385
 20
-11.4084609062
 10
-16.2110424033
 20
-11.3583879486
 10
-16.2312029062
 20
-11.3074208176
 10
-16.2494175062
 20
-11.2557131945
 10
-16.2656329769
 20
-11.2034204616
 10
-16.2798020358
 20
-11.1506964691
 10
-16.2918837107
 20
-11.0976891517
 10
-16.3018412567
 20
-11.0445449931
 10
-16.3096409249
 20
-10.991415846
 10
-16.3152536024
 20
-10.9384521533
 10
-16.3186549069
 20
-10.8857945783
 10
-16.3198231525
 20
-10.8335881754
 10
-16.318740452
 20
-10.7819854246
 10
-16.3153935463
 20
-10.7311356951
  0
LWPOLYLINE
  5
3EA
100
AcDbEntity
  8
RACCORDO
100
AcDbPolyline
 62
250
  6
CONTINUOUS
 90
6
 70
0
 10
-15.0439858193
 20
-12.1370801618
 10
-15.1076624659
 20
-12.1553046345
 10
-15.1755617837
 20
-12.1653552985
 10
-15.2458072117
 20
-12.1666643359
 10
-15.3178146586
 20
-12.1592440205
 10
-15.3910106793
 20
-12.1431871283
  0
LINE
  5
3EB
100
AcDbEntity
  8
RACCORDO
100
AcDbLine
 62
250
  6
CONTINUOUS
 10
17.6255285405
 20
-27.6531557414
 11
17.6157779646
 21
-27.624413444
  0
LINE
  5
3EC
100
AcDbEntity
  8
21814000
100
AcDbLine
 62
7
  6
CONTINUOUS
 10
6.6269311118
 20
24.4380684191
 11
6.6286105402
 21
24.4083162687
  0
LWPOLYLINE
  5
3ED
100
AcDbEntity
  8
26814000
100
AcDbPolyline
 62
7
  6
CONTINUOUS
 90
5
 70
0
 10
7.0115911984
 20
23.4737613099
 10
7.011578548
 20
23.4740962456
 10
7.0112841448
 20
23.4756140343
 10
7.0106088099
 20
23.4773306986
 10
7.0095647169
 20
23.4792504025
  0
LINE
  5
3EE
100
AcDbEntity
  8
21814000
100
AcDbLine
 62
7
  6
CONTINUOUS
 10
8.0982025746
 20
24.9801236765
 11
8.0982025746
 21
25.4131363784
  0
LINE
  5
3EF
100
AcDbEntity
  8
0
100
AcDbLine
 62
7
  6
CONTINUOUS
 10
9.065666287
 20
24.1439935653
 11
9.065666287
 21
23.6781187989
  0
LINE
  5
3F0
100
AcDbEntity
  8
21814000
100
AcDbLine
 62
250
  6
CONTINUOUS
 10
9.4829994679
 20
24.8731087891
 11
9.4829994679
 21
25.3318403552
  0
LINE
  5
3F1
100
AcDbEntity
  8
0
100
AcDbLine
 62
7
  6
CONTINUOUS
 10
9.5154109484
 20
24.0222457321
 11
9.5154109484
 21
23.6690601784
  0
LINE
  5
3F2
100
AcDbEntity
  8
21814000
100
AcDbLine
 62
250
  6
CONTINUOUS
 10
9.6240123893
 20
24.8740390672
 11
9.6240123893
 21
25.3428362524
  0
LWPOLYLINE
  5
3F3
100
AcDbEntity
  8
RACCORDO
100
AcDbPolyline
 62
250
  6
CONTINUOUS
 90
13
 70
0
 10
7.0537709761
 20
-28.8372883851
 10
7.1743388941
 20
-25.8674479148
 10
7.3219556179
 20
-22.8864182853
 10
7.4966023523
 20
-19.8945735823
 10
7.6982568772
 20
-16.8922892709
 10
7.9268938193
 20
-13.879942171
 10
8.1824846585
 20
-10.8579104089
 10
8.4649974552
 20
-7.82657342
 10
8.7743965996
 20
-4.7863116623
 10
9.1106430902
 20
-1.7375065898
 10
9.4736947829
 20
1.3194590823
 10
9.8635063927
 20
4.3842014251
 10
10.2800292502
 20
7.4563355844
  0
LWPOLYLINE
  5
3F4
100
AcDbEntity
  8
ASSI
100
AcDbPolyline
 62
250
  6
CONTINUOUS
 90
13
 70
0
 10
7.0537709761
 20
-28.8372883851
 10
7.1743388941
 20
-25.8674479148
 10
7.3219556179
 20
-22.8864182853
 10
7.4966023523
 20
-19.8945735823
 10
7.6982568772
 20
-16.8922892709
 10
7.9268938193
 20
-13.879942171
 10
8.1824846585
 20
-10.8579104089
 10
8.4649974552
 20
-7.82657342
 10
8.7743965996
 20
-4.7863116623
 10
9.1106430902
 20
-1.7375065898
 10
9.4736947829
 20
1.3194590823
 10
9.8635063927
 20
4.3842014251
 10
10.2800292502
 20
7.4563355844
  0
LWPOLYLINE
  5
3F5
100
AcDbEntity
  8
RACCORDO
100
AcDbPolyline
 62
250
  6
CONTINUOUS
 90
13
 70
0
 10
8.174642399
 20
-28.8730948331
 10
8.2949179968
 20
-25.9105589093
 10
8.4421288035
 20
-22.93760761
 10
8.6162748191
 20
-19.9542409353
 10
8.8173847264
 20
-16.9600801368
 10
9.0454298425
 20
-13.9555039629
 10
9.3003241199
 20
-10.9416486584
 10
9.5820778671
 20
-7.9185105171
 10
9.8906807755
 20
-4.8860932453
 10
10.226015872
 20
-1.8455442074
 10
10.5880441658
 20
1.202754142
 10
10.9768046476
 20
4.2591842575
 10
11.3922973177
 20
7.3237461391
  0
LWPOLYLINE
  5
3F6
100
AcDbEntity
  8
ASSI
100
AcDbPolyline
 62
250
  6
CONTINUOUS
 90
13
 70
0
 10
8.174642399
 20
-28.8730948331
 10
8.2949179968
 20
-25.9105589093
 10
8.4421288035
 20
-22.93760761
 10
8.6162748191
 20
-19.9542409353
 10
8.8173847264
 20
-16.9600801368
 10
9.0454298425
 20
-13.9555039629
 10
9.3003241199
 20
-10.9416486584
 10
9.5820778671
 20
-7.9185105171
 10
9.8906807755
 20
-4.8860932453
 10
10.226015872
 20
-1.8455442074
 10
10.5880441658
 20
1.202754142
 10
10.9768046476
 20
4.2591842575
 10
11.3922973177
 20
7.3237461391
  0
LWPOLYLINE
  5
3F7
100
AcDbEntity
  8
RACCORDO
100
AcDbPolyline
 62
250
  6
CONTINUOUS
 90
19
 70
0
 10
10.2800292502
 20
7.4563355844
 10
10.2993821415
 20
7.5705310156
 10
10.3257683883
 20
7.685883081
 10
10.3590088872
 20
7.8016053432
 10
10.3988807912
 20
7.916909132
 10
10.4451115066
 20
8.0310075815
 10
10.4973797633
 20
8.1431211843
 10
10.5553302855
 20
8.2524815806
 10
10.6185707087
 20
8.3583468387
 10
10.6866670458
 20
8.4600046711
 10
10.7591597267
 20
8.5567605346
 10
10.8355578616
 20
8.6479540595
 10
10.915337527
 20
8.7329723413
 10
10.9979629131
 20
8.8112351739
 10
11.0828730243
 20
8.8822036529
 10
11.1694776576
 20
8.9453951242
 10
11.2571858931
 20
9.0003778769
 10
11.345410329
 20
9.0467731523
 10
11.433554617
 20
9.0842619805
  0
LWPOLYLINE
  5
3F8
100
AcDbEntity
  8
ASSI
100
AcDbPolyline
 62
250
  6
CONTINUOUS
 90
19
 70
0
 10
10.2800292502
 20
7.4563355844
 10
10.2993821415
 20
7.5705310156
 10
10.3257683883
 20
7.685883081
 10
10.3590088872
 20
7.8016053432
 10
10.3988807912
 20
7.916909132
 10
10.4451115066
 20
8.0310075815
 10
10.4973797633
 20
8.1431211843
 10
10.5553302855
 20
8.2524815806
 10
10.6185707087
 20
8.3583468387
 10
10.6866670458
 20
8.4600046711
 10
10.7591597267
 20
8.5567605346
 10
10.8355578616
 20
8.6479540595
 10
10.915337527
 20
8.7329723413
 10
10.9979629131
 20
8.8112351739
 10
11.0828730243
 20
8.8822036529
 10
11.1694776576
 20
8.9453951242
 10
11.2571858931
 20
9.0003778769
 10
11.345410329
 20
9.0467731523
 10
11.433554617
 20
9.0842619805
  0
LWPOLYLINE
  5
3F9
100
AcDbEntity
  8
RACCORDO
100
AcDbPolyline
 62
250
  6
CONTINUOUS
 90
19
 70
0
 10
11.3922973177
 20
7.3237461391
 10
11.4014538143
 20
7.3773223469
 10
11.4137461833
 20
7.4307909332
 10
11.4291744246
 20
7.484151898
 10
11.4478900745
 20
7.5377982543
 10
11.4697415966
 20
7.5913369891
 10
11.4942743821
 20
7.6435890632
 10
11.5215402014
 20
7.6944991435
 10
11.5514872841
 20
7.7441225631
 10
11.5835057101
 20
7.7914462826
 10
11.6176378551
 20
7.8364211172
 10
11.6538413435
 20
7.8790962517
 10
11.6913791287
 20
7.9186062003
 10
11.7303027787
 20
7.9548950396
 10
11.7705607256
 20
7.988018693
 10
11.8112612192
 20
8.0172794459
 10
11.8521070095
 20
8.0424447266
 10
11.8933953466
 20
8.0637471068
 10
11.9351262305
 20
8.0811865865
  0
LWPOLYLINE
  5
3FA
100
AcDbEntity
  8
ASSI
100
AcDbPolyline
 62
250
  6
CONTINUOUS
 90
19
 70
0
 10
11.3922973177
 20
7.3237461391
 10
11.4014538143
 20
7.3773223469
 10
11.4137461833
 20
7.4307909332
 10
11.4291744246
 20
7.484151898
 10
11.4478900745
 20
7.5377982543
 10
11.4697415966
 20
7.5913369891
 10
11.4942743821
 20
7.6435890632
 10
11.5215402014
 20
7.6944991435
 10
11.5514872841
 20
7.7441225631
 10
11.5835057101
 20
7.7914462826
 10
11.6176378551
 20
7.8364211172
 10
11.6538413435
 20
7.8790962517
 10
11.6913791287
 20
7.9186062003
 10
11.7303027787
 20
7.9548950396
 10
11.7705607256
 20
7.988018693
 10
11.8112612192
 20
8.0172794459
 10
11.8521070095
 20
8.0424447266
 10
11.8933953466
 20
8.0637471068
 10
11.9351262305
 20
8.0811865865
  0
LWPOLYLINE
  5
3FB
100
AcDbEntity
  8
RACCORDO
100
AcDbPolyline
 62
250
  6
CONTINUOUS
 90
12
 70
0
 10
15.4934047691
 20
12.3963581523
 10
15.4803554255
 20
12.3668721686
 10
15.4645046615
 20
12.3394030474
 10
15.4461236881
 20
12.314420793
 10
15.4255270089
 20
12.2923528586
 10
15.4030670387
 20
12.2735768328
 10
15.3791280738
 20
12.2584139785
 10
15.3541197166
 20
12.2471237364
 10
15.328469867
 20
12.2398992857
 10
15.302617401
 20
12.2368642387
 10
15.2770046615
 20
12.2380705259
 10
15.2659273212
 20
12.239941611
  0
LWPOLYLINE
  5
3FC
100
AcDbEntity
  8
RACCORDO
100
AcDbPolyline
 62
250
  6
CONTINUOUS
 90
12
 70
0
 10
16.023734855
 20
12.2865231953
 10
16.0106855114
 20
12.2570372116
 10
15.9948347474
 20
12.2295680904
 10
15.976453774
 20
12.2045858359
 10
15.9558570948
 20
12.1825179015
 10
15.9333971246
 20
12.1637418757
 10
15.9094581597
 20
12.1485790214
 10
15.8844498025
 20
12.1372887794
 10
15.8587999529
 20
12.1300643287
 10
15.8329474869
 20
12.1270292817
 10
15.8073347474
 20
12.1282355689
 10
15.7962574071
 20
12.1301066539
  0
LWPOLYLINE
  5
3FD
100
AcDbEntity
  8
RACCORDO
100
AcDbPolyline
 62
250
  6
CONTINUOUS
 90
20
 70
0
 10
15.9549198401
 20
11.4040576767
 10
15.9730316337
 20
11.4059079691
 10
15.9922408501
 20
11.4079991063
 10
16.0124194446
 20
11.4103715168
 10
16.0328795751
 20
11.4129857692
 10
16.0532694331
 20
11.4158286053
 10
16.0736728109
 20
11.4189450164
 10
16.0939778636
 20
11.422350276
 10
16.113913598
 20
11.4260277385
 10
16.1333110267
 20
11.4299579728
 10
16.1521778676
 20
11.4341475039
 10
16.1704045628
 20
11.4385704678
 10
16.187908344
 20
11.443203238
 10
16.2047914104
 20
11.4480714902
 10
16.2209936186
 20
11.4531499589
 10
16.2364382522
 20
11.4583905346
 10
16.2512048509
 20
11.4638007894
 10
16.2652906864
 20
11.4693670009
 10
16.2786313146
 20
11.4750455876
 10
16.2912178231
 20
11.4808104929
  0
LWPOLYLINE
  5
3FE
100
AcDbEntity
  8
RACCORDO
100
AcDbPolyline
 62
250
  6
CONTINUOUS
 90
5
 70
0
 10
15.8814129498
 20
11.3974024476
 10
15.8940824562
 20
11.3984244517
 10
15.9076256568
 20
11.3995875844
 10
15.9221455552
 20
11.4009016951
 10
15.9549198401
 20
11.4040576767
  0
LWPOLYLINE
  5
3FF
100
AcDbEntity
  8
RACCORDO
100
AcDbPolyline
 62
250
  6
CONTINUOUS
 90
10
 70
0
 10
-19.6157229871
 20
22.4042117221
 10
-19.6712310456
 20
22.4341851467
 10
-19.7201817663
 20
22.4654847758
 10
-19.7620506497
 20
22.4977752385
 10
-19.7963890769
 20
22.5307105476
 10
-19.8228291168
 20
22.5639378059
 10
-19.8410874684
 20
22.5971009881
 10
-19.8509684962
 20
22.6298447555
 10
-19.8523663266
 20
22.6618182638
 10
-19.8517659079
 20
22.6670937659
  0
LWPOLYLINE
  5
400
100
AcDbEntity
  8
ASSI
100
AcDbPolyline
 62
250
  6
CONTINUOUS
 90
10
 70
0
 10
-19.6157229871
 20
22.4042117221
 10
-19.6712310456
 20
22.4341851467
 10
-19.7201817663
 20
22.4654847758
 10
-19.7620506497
 20
22.4977752385
 10
-19.7963890769
 20
22.5307105476
 10
-19.8228291168
 20
22.5639378059
 10
-19.8410874684
 20
22.5971009881
 10
-19.8509684962
 20
22.6298447555
 10
-19.8523663266
 20
22.6618182638
 10
-19.8518231788
 20
22.6666699681
  0
LWPOLYLINE
  5
401
100
AcDbEntity
  8
RACCORDO
100
AcDbPolyline
 62
7
  6
CONTINUOUS
 90
4
 70
0
 10
0.3850032513
 20
19.7272484481
 10
0.3739049255
 20
19.7530941897
 10
0.3657364484
 20
19.7802046099
 10
0.3606492886
 20
19.8083628368
  0
LWPOLYLINE
  5
402
100
AcDbEntity
  8
RACCORDO
100
AcDbPolyline
 62
250
  6
CONTINUOUS
 90
5
 70
0
 10
2.4638367249
 20
18.7698368628
 10
2.4719790561
 20
18.7507896887
 10
2.4778749566
 20
18.7296179064
 10
2.4814446945
 20
18.706607828
 10
2.4826399953
 20
18.6820706251
  0
LWPOLYLINE
  5
403
100
AcDbEntity
  8
RACCORDO
100
AcDbPolyline
 62
250
  6
CONTINUOUS
 90
7
 70
0
 10
13.7231251895
 20
-28.1431061973
 10
13.7252639742
 20
-28.1594219713
 10
13.731643733
 20
-28.1754585779
 10
13.7421553064
 20
-28.1909416263
 10
13.7566188386
 20
-28.2056061973
 10
13.7747868545
 20
-28.2192013759
 10
13.7963484942
 20
-28.2314945449
  0
LWPOLYLINE
  5
404
100
AcDbEntity
  8
RACCORDO
100
AcDbPolyline
 62
250
  6
CONTINUOUS
 90
7
 70
0
 10
13.7231253479
 20
-28.4945608619
 10
13.7251626589
 20
-28.5103464323
 10
13.7314885205
 20
-28.5264815175
 10
13.7419906705
 20
-28.5420563796
 10
13.7564812097
 20
-28.5568008274
 10
13.774706637
 20
-28.5704630487
 10
13.7963484942
 20
-28.582808517
  0
LINE
  5
405
100
AcDbEntity
  8
RACCORDO
100
AcDbLine
 62
7
  6
CONTINUOUS
 10
13.5964221922
 20
-17.2881718178
 11
14.1697460762
 21
-22.631997176
  0
LINE
  5
406
100
AcDbEntity
  8
21814000
100
AcDbLine
 62
7
  6
CONTINUOUS
 10
11.4276483551
 20
27.4432184502
 11
11.4276483551
 21
27.035367183
  0
LINE
  5
407
100
AcDbEntity
  8
RACCORDO
100
AcDbLine
 62
250
  6
CONTINUOUS
 10
11.6063479522
 20
15.1853725777
 11
11.6063479522
 21
13.988053542
  0
LINE
  5
408
100
AcDbEntity
  8
RACCORDO
100
AcDbLine
 62
250
  6
CONTINUOUS
 10
12.3154851793
 20
15.1863936648
 11
12.3154851793
 21
13.9814728321
  0
LINE
  5
409
100
AcDbEntity
  8
RACCORDO
100
AcDbLine
 62
7
  6
CONTINUOUS
 10
12.7356883225
 20
19.6512956207
 11
12.7356883225
 21
20.5516507213
  0
LWPOLYLINE
  5
40A
100
AcDbEntity
  8
RACCORDO
100
AcDbPolyline
 62
250
  6
CONTINUOUS
 90
6
 70
0
 10
16.9407909603
 20
12.5531153387
 10
16.9289671678
 20
12.5122693732
 10
16.9197121697
 20
12.4717974759
 10
16.9131120959
 20
12.431979227
 10
16.9090808165
 20
12.3925350462
 10
16.9076183315
 20
12.3534649335
  0
LWPOLYLINE
  5
40B
100
AcDbEntity
  8
RACCORDO
100
AcDbPolyline
 62
250
  6
CONTINUOUS
 90
3
 70
0
 10
16.9714072225
 20
12.6334112833
 10
16.9549251573
 20
12.5934966317
 10
16.9407909603
 20
12.5531153387
  0
LINE
  5
40C
100
AcDbEntity
  8
RACCORDO
100
AcDbLine
 62
250
  6
CONTINUOUS
 10
17.1573010074
 20
11.9714195037
 11
17.1657956957
 21
11.9906385261
  0
LWPOLYLINE
  5
40D
100
AcDbEntity
  8
RACCORDO
100
AcDbPolyline
 62
250
  6
CONTINUOUS
 90
4
 70
0
 10
14.4138731927
 20
12.4222482641
 10
14.430607047
 20
12.4240432139
 10
14.4461676027
 20
12.4290275389
 10
14.4483780316
 20
12.4300429796
  0
LWPOLYLINE
  5
40E
100
AcDbEntity
  8
RACCORDO
100
AcDbPolyline
 62
250
  6
CONTINUOUS
 90
16
 70
0
 10
10.2800435651
 20
7.4563395339
 10
10.3414888883
 20
7.4278361808
 10
10.4082382498
 20
7.4012855464
 10
10.4795764536
 20
7.3769721114
 10
10.5547391361
 20
7.3551563857
 10
10.6329209554
 20
7.336072117
 10
10.7132842209
 20
7.3199237862
 10
10.7949678683
 20
7.3068844167
 10
10.8770966862
 20
7.2970937208
 10
10.9587906931
 20
7.2906566025
 10
11.0391745665
 20
7.2876420332
 10
11.1173870215
 20
7.2880823128
 10
11.1925900391
 20
7.2919727239
 10
11.2639778454
 20
7.2992715822
 10
11.3307855452
 20
7.3099006829
 10
11.3922973176
 20
7.3237461391
  0
LWPOLYLINE
  5
40F
100
AcDbEntity
  8
ASSI
100
AcDbPolyline
 62
250
  6
CONTINUOUS
 90
16
 70
0
 10
10.2800435651
 20
7.4563395339
 10
10.3414888883
 20
7.4278361808
 10
10.4082382498
 20
7.4012855464
 10
10.4795764536
 20
7.3769721114
 10
10.5547391361
 20
7.3551563857
 10
10.6329209554
 20
7.336072117
 10
10.7132842209
 20
7.3199237862
 10
10.7949678683
 20
7.3068844167
 10
10.8770966862
 20
7.2970937208
 10
10.9587906931
 20
7.2906566025
 10
11.0391745665
 20
7.2876420332
 10
11.1173870215
 20
7.2880823128
 10
11.1925900391
 20
7.2919727239
 10
11.2639778454
 20
7.2992715822
 10
11.3307855452
 20
7.3099006829
 10
11.3922973176
 20
7.3237461391
  0
LINE
  5
410
100
AcDbEntity
  8
RACCORDO
100
AcDbLine
 62
250
  6
CONTINUOUS
 10
-19.6157230117
 20
22.4042117153
 11
10.2800292502
 21
7.4563355844
  0
LINE
  5
411
100
AcDbEntity
  8
ASSI
100
AcDbLine
 62
250
  6
CONTINUOUS
 10
-19.6157230117
 20
22.4042117153
 11
10.2800292502
 21
7.4563355844
  0
LWPOLYLINE
  5
412
100
AcDbEntity
  8
RACCORDO
100
AcDbPolyline
 62
250
  6
CONTINUOUS
 90
7
 70
0
 10
0.8857630055
 20
18.8952039234
 10
0.8978946337
 20
18.8790029871
 10
0.9124725844
 20
18.8633885076
 10
0.9294968576
 20
18.8483604849
 10
0.9489674532
 20
18.8339189189
 10
0.9708843713
 20
18.8200638096
 10
0.9952476118
 20
18.8067951571
  0
LWPOLYLINE
  5
413
100
AcDbEntity
  8
RACCORDO
100
AcDbPolyline
 62
250
  6
CONTINUOUS
 90
7
 70
0
 10
3.7200768623
 20
19.4990123634
 10
3.7301015076
 20
19.4810633741
 10
3.7369299302
 20
19.4649338462
 10
3.7404452939
 20
19.4508997603
 10
3.7405874498
 20
19.4392012435
 10
3.7373539656
 20
19.4300384606
 10
3.7358192051
 20
19.4279127178
  0
LWPOLYLINE
  5
414
100
AcDbEntity
  8
RACCORDO
100
AcDbPolyline
 62
7
  6
CONTINUOUS
 90
5
 70
0
 10
3.6266868859
 20
18.7548913941
 10
3.6236992688
 20
18.7605775158
 10
3.6206482053
 20
18.768452509
 10
3.6180896319
 20
18.7785045579
 10
3.6166566376
 20
18.79031543
  0
LWPOLYLINE
  5
415
100
AcDbEntity
  8
RACCORDO
100
AcDbPolyline
 62
250
  6
CONTINUOUS
 90
7
 70
0
 10
14.4302319707
 20
-27.0395528067
 10
14.4323707554
 20
-27.0558685807
 10
14.4387505141
 20
-27.0719051873
 10
14.4492620876
 20
-27.0873882357
 10
14.4637256198
 20
-27.1020528067
 10
14.4818936356
 20
-27.1156479853
 10
14.5034552754
 20
-27.1279411543
  0
LINE
  5
416
100
AcDbEntity
  8
DRAFT
100
AcDbLine
 62
7
  6
CONTINUOUS
 10
16.454349165
 20
-25.3778867267
 11
14.6916981939
 21
-8.9486061406
  0
LWPOLYLINE
  5
417
100
AcDbEntity
  8
RACCORDO
100
AcDbPolyline
 62
250
  6
CONTINUOUS
 90
3
 70
0
 10
17.6352581457
 20
-27.7153686746
 10
17.6320621464
 20
-27.6836556986
 10
17.6255285405
 20
-27.6531557414
  0
LWPOLYLINE
  5
418
100
AcDbEntity
  8
RACCORDO
100
AcDbPolyline
 62
7
  6
CONTINUOUS
 90
10
 70
0
 10
13.7231251895
 20
13.1564979421
 10
13.7253924399
 20
13.1229101554
 10
13.7322299759
 20
13.0896453046
 10
13.7435906263
 20
13.0574328914
 10
13.7592991954
 20
13.0269663797
 10
13.7790309502
 20
12.998930751
 10
13.8023711132
 20
12.9738971606
 10
13.8289092742
 20
12.9522882066
 10
13.8582029057
 20
12.9344784879
 10
13.8616403293
 20
12.9327326299
  0
LWPOLYLINE
  5
419
100
AcDbEntity
  8
RACCORDO
100
AcDbPolyline
 62
250
  6
CONTINUOUS
 90
8
 70
0
 10
14.4302319715
 20
12.4561458413
 10
14.4305873442
 20
12.4497441209
 10
14.4333129374
 20
12.4372853957
 10
14.4387097071
 20
12.4249562711
 10
14.4467278627
 20
12.4129031296
 10
14.4573137011
 20
12.4012267782
 10
14.4703853741
 20
12.3900514986
 10
14.4858156673
 20
12.3795206025
  0
LWPOLYLINE
  5
41A
100
AcDbEntity
  8
RACCORDO
100
AcDbPolyline
 62
250
  6
CONTINUOUS
 90
9
 70
0
 10
13.7963484942
 20
13.0681095945
 10
13.7975074595
 20
13.0439379283
 10
13.8009930716
 20
13.0211287295
 10
13.806794761
 20
13.0000095882
 10
13.8148853296
 20
12.9808626243
 10
13.8251806445
 20
12.9640199001
 10
13.8375039764
 20
12.9498157048
 10
13.8516609126
 20
12.9384614993
 10
13.8613218196
 20
12.9328911299
  0
LWPOLYLINE
  5
41B
100
AcDbEntity
  8
RACCORDO
100
AcDbPolyline
 62
7
  6
CONTINUOUS
 90
15
 70
0
 10
12.7356883225
 20
20.5516507213
 10
12.7349044895
 20
20.579778377
 10
12.732640013
 20
20.6068050013
 10
12.7288948932
 20
20.6327305941
 10
12.723640494
 20
20.6576564534
 10
12.7169054513
 20
20.6814812812
 10
12.7087756731
 20
20.7039011836
 10
12.6992332929
 20
20.7248981637
 10
12.6882961771
 20
20.7444902183
 10
12.6761038325
 20
20.762427444
 10
12.6626401797
 20
20.7786886427
 10
12.647921298
 20
20.7932950124
 10
12.6321349319
 20
20.8060602438
 10
12.6152674071
 20
20.8169607524
 10
12.6057317648
 20
20.8220732176
  0
LINE
  5
41C
100
AcDbEntity
  8
RACCORDO
100
AcDbLine
 62
250
  6
CONTINUOUS
 10
13.7231251895
 20
-28.4944201816
 11
13.7231253479
 21
-28.4945608619
  0
LINE
  5
41D
100
AcDbEntity
  8
RACCORDO
100
AcDbLine
 62
7
  6
CONTINUOUS
 10
13.7231251895
 20
-28.4944201694
 11
13.7231251895
 21
-28.1431061973
  0
LINE
  5
41E
100
AcDbEntity
  8
RACCORDO
100
AcDbLine
 62
7
  6
CONTINUOUS
 10
13.7231251895
 20
13.1564979421
 11
13.7231251895
 21
13.5078119142
  0
LINE
  5
41F
100
AcDbEntity
  8
RACCORDO
100
AcDbLine
 62
250
  6
CONTINUOUS
 10
13.7963484942
 20
-28.582808517
 11
13.7963484942
 21
-28.2314945449
  0
LINE
  5
420
100
AcDbEntity
  8
RACCORDO
100
AcDbLine
 62
250
  6
CONTINUOUS
 10
13.7963484942
 20
13.0681095945
 11
13.7963484942
 21
13.4194235665
  0
LINE
  5
421
100
AcDbEntity
  8
RACCORDO
100
AcDbLine
 62
7
  6
CONTINUOUS
 10
14.4302319707
 20
-27.0395528067
 11
14.4302319707
 21
-26.974282927
  0
LINE
  5
422
100
AcDbEntity
  8
RACCORDO
100
AcDbLine
 62
7
  6
CONTINUOUS
 10
14.4302319707
 20
12.4560977301
 11
14.4302319707
 21
12.6484360543
  0
LINE
  5
423
100
AcDbEntity
  8
RACCORDO
100
AcDbLine
 62
250
  6
CONTINUOUS
 10
14.5034552754
 20
-27.1279411543
 11
14.5034552754
 21
-27.0108945793
  0
LINE
  5
424
100
AcDbEntity
  8
RACCORDO
100
AcDbLine
 62
250
  6
CONTINUOUS
 10
14.5034552754
 20
12.3697595253
 11
14.5034552754
 21
12.611824402
  0
LINE
  5
425
100
AcDbEntity
  8
RACCORDO
100
AcDbLine
 62
250
  6
CONTINUOUS
 10
15.1398513785
 20
12.7476721244
 11
15.1398513785
 21
12.3963581523
  0
LINE
  5
426
100
AcDbEntity
  8
RACCORDO
100
AcDbLine
 62
250
  6
CONTINUOUS
 10
15.1398513785
 20
-28.9032459871
 11
15.1398513785
 21
-29.2545599591
  0
LINE
  5
427
100
AcDbEntity
  8
RACCORDO
100
AcDbLine
 62
7
  6
CONTINUOUS
 10
15.2105620566
 20
19.4436757691
 11
15.2105620566
 21
19.6387887141
  0
LWPOLYLINE
  5
428
100
AcDbEntity
  8
RACCORDO
100
AcDbPolyline
 62
7
  6
CONTINUOUS
 90
6
 70
0
 10
14.430236385
 20
12.4563292724
 10
14.4300269099
 20
12.449974041
 10
14.4283584357
 20
12.4377194398
 10
14.4255145222
 20
12.4273245879
 10
14.4222005922
 20
12.419274739
 10
14.4198461899
 20
12.4148941448
  0
LWPOLYLINE
  5
429
100
AcDbEntity
  8
RACCORDO
100
AcDbPolyline
 62
7
  6
CONTINUOUS
 90
9
 70
0
 10
14.4302319707
 20
-27.0395528067
 10
14.4295539536
 20
-27.059651395
 10
14.4273686227
 20
-27.0819983544
 10
14.4234813337
 20
-27.1063220956
 10
14.4177269272
 20
-27.132369582
 10
14.410021912
 20
-27.1596908676
 10
14.4004086922
 20
-27.1876618773
 10
14.3889317958
 20
-27.2158819023
 10
14.3757015421
 20
-27.2439049587
  0
LWPOLYLINE
  5
42A
100
AcDbEntity
  8
21814000
100
AcDbPolyline
 62
250
  6
CONTINUOUS
 90
10
 70
0
 10
16.9497546551
 20
23.778330262
 10
16.9470483022
 20
23.7434586726
 10
16.9376980896
 20
23.704919675
 10
16.9217393374
 20
23.6669270373
 10
16.8992908189
 20
23.6297635208
 10
16.8705196078
 20
23.5937057156
 10
16.8356398344
 20
23.5590219829
 10
16.7949110923
 20
23.5259704572
 10
16.7486365061
 20
23.4947971253
 10
16.6971604754
 20
23.4657339952
  0
LINE
  5
42B
100
AcDbEntity
  8
RACCORDO
100
AcDbLine
 62
7
  6
CONTINUOUS
 10
15.9836180128
 20
9.5664629002
 11
12.6456486099
 21
-27.9838495792
  0
LINE
  5
42C
100
AcDbEntity
  8
ASSI
100
AcDbLine
 62
7
  6
CONTINUOUS
 10
15.9836180128
 20
9.5664629002
 11
12.6456486099
 21
-27.9838495792
  0
LWPOLYLINE
  5
42D
100
AcDbEntity
  8
RACCORDO
100
AcDbPolyline
 62
250
  6
CONTINUOUS
 90
4
 70
0
 10
16.9932144761
 20
12.0832755293
 10
16.9769087729
 20
12.0852797808
 10
16.9618100138
 20
12.0903803773
 10
16.9595969686
 20
12.0914420026
  0
LINE
  5
42E
100
AcDbEntity
  8
RACCORDO
100
AcDbLine
 62
7
  6
CONTINUOUS
 10
15.2659273212
 20
12.239941611
 11
15.7962574071
 21
12.1301066539
  0
LINE
  5
42F
100
AcDbEntity
  8
RACCORDO
100
AcDbLine
 62
250
  6
CONTINUOUS
 10
15.4934047691
 20
12.3963581523
 11
16.023734855
 21
12.2865231953
  0
LWPOLYLINE
  5
430
100
AcDbEntity
  8
RACCORDO
100
AcDbPolyline
 62
7
  6
CONTINUOUS
 90
10
 70
0
 10
15.2659273212
 20
12.239941611
 10
15.2583295641
 20
12.2416389453
 10
15.2507741204
 20
12.2435759039
 10
15.2432717481
 20
12.245750999
 10
15.2358073027
 20
12.2481709245
 10
15.2284191151
 20
12.2508251893
 10
15.2211929481
 20
12.2536791142
 10
15.2141582142
 20
12.2567115734
 10
15.2072940157
 20
12.2599219828
 10
15.204816992
 20
12.2611435441
  0
LWPOLYLINE
  5
431
100
AcDbEntity
  8
RACCORDO
100
AcDbPolyline
 62
250
  6
CONTINUOUS
 90
7
 70
0
 10
-18.4791366759
 20
24.040607627
 10
-18.5395709736
 20
24.0658455964
 10
-18.5999371153
 20
24.0829572355
 10
-18.6595739606
 20
24.0917551669
 10
-18.7178283718
 20
24.0921430663
 10
-18.7740623332
 20
24.0841167166
 10
-18.8290651159
 20
24.0672085148
  0
LWPOLYLINE
  5
432
100
AcDbEntity
  8
ASSI
100
AcDbPolyline
 62
250
  6
CONTINUOUS
 90
7
 70
0
 10
-18.4791366759
 20
24.040607627
 10
-18.5395709736
 20
24.0658455964
 10
-18.5999371153
 20
24.0829572355
 10
-18.6595739606
 20
24.0917551669
 10
-18.7178283718
 20
24.0921430663
 10
-18.7740623332
 20
24.0841167166
 10
-18.8290651159
 20
24.0672085148
  0
LINE
  5
433
100
AcDbEntity
  8
RACCORDO
100
AcDbLine
 62
250
  6
CONTINUOUS
 10
-18.4791366759
 20
24.040607627
 11
11.433554617
 21
9.0842619805
  0
LINE
  5
434
100
AcDbEntity
  8
ASSI
100
AcDbLine
 62
250
  6
CONTINUOUS
 10
-18.4791366759
 20
24.040607627
 11
11.433554617
 21
9.0842619805
  0
LWPOLYLINE
  5
435
100
AcDbEntity
  8
RACCORDO
100
AcDbPolyline
 62
250
  6
CONTINUOUS
 90
16
 70
0
 10
11.433554617
 20
9.0842619805
 10
11.4913406624
 20
9.0503898913
 10
11.5479000371
 20
9.009039057
 10
11.6026133049
 20
8.9606623503
 10
11.654881248
 20
8.9057895913
 10
11.7041314298
 20
8.8450217445
 10
11.7498244643
 20
8.7790243373
 10
11.7914599231
 20
8.708520171
 10
11.8285818161
 20
8.6342814047
 10
11.8607835856
 20
8.5571210989
 10
11.8877125591
 20
8.4778843103
 10
11.9090738112
 20
8.3974388375
 10
11.9246333945
 20
8.3166657166
 10
11.9342209008
 20
8.2364495718
 10
11.9377313282
 20
8.1576689274
 10
11.9351262305
 20
8.0811865865
  0
LWPOLYLINE
  5
436
100
AcDbEntity
  8
ASSI
100
AcDbPolyline
 62
250
  6
CONTINUOUS
 90
16
 70
0
 10
11.433554617
 20
9.0842619805
 10
11.4913406624
 20
9.0503898913
 10
11.5479000371
 20
9.009039057
 10
11.6026133049
 20
8.9606623503
 10
11.654881248
 20
8.9057895913
 10
11.7041314298
 20
8.8450217445
 10
11.7498244643
 20
8.7790243373
 10
11.7914599231
 20
8.708520171
 10
11.8285818161
 20
8.6342814047
 10
11.8607835856
 20
8.5571210989
 10
11.8877125591
 20
8.4778843103
 10
11.9090738112
 20
8.3974388375
 10
11.9246333945
 20
8.3166657166
 10
11.9342209008
 20
8.2364495718
 10
11.9377313282
 20
8.1576689274
 10
11.9351262305
 20
8.0811865865
  0
LWPOLYLINE
  5
437
100
AcDbEntity
  8
RACCORDO
100
AcDbPolyline
 62
250
  6
CONTINUOUS
 90
6
 70
0
 10
4.2504069482
 20
20.1391774063
 10
4.2604315935
 20
20.1212284171
 10
4.2672600161
 20
20.1050988891
 10
4.2707753798
 20
20.0910648032
 10
4.2709175357
 20
20.0793662864
 10
4.2676840514
 20
20.0702035036
  0
LWPOLYLINE
  5
438
100
AcDbEntity
  8
RACCORDO
100
AcDbPolyline
 62
250
  6
CONTINUOUS
 90
7
 70
0
 10
13.7231251895
 20
13.5078119264
 10
13.7254269338
 20
13.4908887487
 10
13.732031694
 20
13.4747440808
 10
13.7427378783
 20
13.4592792272
 10
13.7572393313
 20
13.4447776056
 10
13.7752332742
 20
13.4314267228
 10
13.7963484942
 20
13.4194235665
  0
LWPOLYLINE
  5
439
100
AcDbEntity
  8
RACCORDO
100
AcDbPolyline
 62
250
  6
CONTINUOUS
 90
7
 70
0
 10
13.7231251895
 20
13.1564979421
 10
13.7252639742
 20
13.1401821681
 10
13.731643733
 20
13.1241455615
 10
13.7421553064
 20
13.1086625131
 10
13.7566188386
 20
13.0939979421
 10
13.7747868545
 20
13.0804027635
 10
13.7963484942
 20
13.0681095945
  0
LWPOLYLINE
  5
43A
100
AcDbEntity
  8
RACCORDO
100
AcDbPolyline
 62
7
  6
CONTINUOUS
 90
5
 70
0
 10
17.6879484173
 20
-27.7541974676
 10
17.685681167
 20
-27.720609681
 10
17.678843631
 20
-27.6873448301
 10
17.6674829806
 20
-27.6551324169
 10
17.6517744115
 20
-27.6246659053
  0
LWPOLYLINE
  5
43B
100
AcDbEntity
  8
RACCORDO
100
AcDbPolyline
 62
250
  6
CONTINUOUS
 90
9
 70
0
 10
15.1398513785
 20
12.3963581523
 10
15.1410589049
 20
12.3716992871
 10
15.1446649951
 20
12.3485847919
 10
15.1506203954
 20
12.327330457
 10
15.1588595681
 20
12.3081962453
 10
15.1692614586
 20
12.2914821693
 10
15.1816155703
 20
12.2774817571
 10
15.1956994206
 20
12.2663600684
 10
15.204816992
 20
12.2611435441
  0
LWPOLYLINE
  5
43C
100
AcDbEntity
  8
RACCORDO
100
AcDbPolyline
 62
250
  6
CONTINUOUS
 90
13
 70
0
 10
16.9076183315
 20
-27.4461392059
 10
16.9090903043
 20
-27.4838180075
 10
16.913135325
 20
-27.5192866627
 10
16.9197533936
 20
-27.5525451716
 10
16.9290353172
 20
-27.5837871285
 10
16.9408902887
 20
-27.612818939
 10
16.9550458868
 20
-27.6390598195
 10
16.9715354812
 20
-27.6624636994
 10
16.9903257022
 20
-27.6830766493
 10
17.0110440203
 20
-27.7004560973
 10
17.0335662587
 20
-27.7144545194
 10
17.0580165942
 20
-27.7252194398
 10
17.0843950268
 20
-27.7327508582
  0
LWPOLYLINE
  5
43D
100
AcDbEntity
  8
RACCORDO
100
AcDbPolyline
 62
250
  6
CONTINUOUS
 90
13
 70
0
 10
16.2005115503
 20
11.9999115429
 10
16.1990395775
 20
12.0375903446
 10
16.1949945568
 20
12.0730589998
 10
16.1883764882
 20
12.1063175086
 10
16.1790945646
 20
12.1375594655
 10
16.1672395931
 20
12.1665912761
 10
16.1530839949
 20
12.1928321566
 10
16.1365944005
 20
12.2162360365
 10
16.1178041795
 20
12.2368489863
 10
16.0970858615
 20
12.2542284343
 10
16.074563623
 20
12.2682268565
 10
16.0501132875
 20
12.2789917768
 10
16.023734855
 20
12.2865231953
  0
LWPOLYLINE
  5
43E
100
AcDbEntity
  8
21814000
100
AcDbPolyline
 62
7
  6
CONTINUOUS
 90
10
 70
0
 10
16.9497546551
 20
23.7783302619
 10
16.945949759
 20
23.8922679583
 10
16.93480367
 20
24.0055321553
 10
16.9166653449
 20
24.1179194287
 10
16.8917102437
 20
24.2296562055
 10
16.8601632442
 20
24.340288373
 10
16.8225419781
 20
24.4485947621
 10
16.7792407426
 20
24.5540787331
 10
16.730287961
 20
24.6570056137
 10
16.6757559154
 20
24.7572500234
  0
LINE
  5
43F
100
AcDbEntity
  8
RACCORDO
100
AcDbLine
 62
7
  6
CONTINUOUS
 10
16.9813023002
 20
-27.3733623764
 11
16.9808416362
 21
-27.3577508582
  0
LWPOLYLINE
  5
440
100
AcDbEntity
  8
RACCORDO
100
AcDbPolyline
 62
7
  6
CONTINUOUS
 90
15
 70
0
 10
15.2105620566
 20
19.6387887141
 10
15.2090301751
 20
19.6944204619
 10
15.2046009918
 20
19.7479057715
 10
15.1972745069
 20
19.799244643
 10
15.1869959283
 20
19.8486335345
 10
15.173820048
 20
19.8958759878
 10
15.1579112421
 20
19.9403826286
 10
15.1392352734
 20
19.9821191835
 10
15.1178263791
 20
20.0211199258
 10
15.0939516464
 20
20.0568983008
 10
15.0675801841
 20
20.0894139398
 10
15.0387428834
 20
20.1187072114
 10
15.0077995047
 20
20.1444126668
 10
14.9747236639
 20
20.166485359
 10
14.9506335563
 20
20.1796442305
  0
LINE
  5
441
100
AcDbEntity
  8
RACCORDO
100
AcDbLine
 62
7
  6
CONTINUOUS
 10
16.9809775535
 20
12.1081064047
 11
16.9808371102
 21
12.1133166948
  0
LINE
  5
442
100
AcDbEntity
  8
RACCORDO
100
AcDbLine
 62
250
  6
CONTINUOUS
 10
15.4934047691
 20
12.7476721244
 11
15.4934047691
 21
12.3963581523
  0
LINE
  5
443
100
AcDbEntity
  8
RACCORDO
100
AcDbLine
 62
250
  6
CONTINUOUS
 10
15.4934047691
 20
-28.9032459871
 11
15.4934047691
 21
-29.2545599591
  0
LINE
  5
444
100
AcDbEntity
  8
RACCORDO
100
AcDbLine
 62
250
  6
CONTINUOUS
 10
15.8469581597
 20
11.9999115429
 11
15.8469581597
 21
11.6980080832
  0
LINE
  5
445
100
AcDbEntity
  8
RACCORDO
100
AcDbLine
 62
250
  6
CONTINUOUS
 10
15.8469581597
 20
-27.5896001952
 11
15.8469581597
 21
-27.7996925965
  0
LINE
  5
446
100
AcDbEntity
  8
RACCORDO
100
AcDbLine
 62
7
  6
CONTINUOUS
 10
15.9867070706
 20
10.6726731594
 11
15.9867070706
 21
10.6468035216
  0
LINE
  5
447
100
AcDbEntity
  8
RACCORDO
100
AcDbLine
 62
7
  6
CONTINUOUS
 10
15.9867070706
 20
-27.3193099051
 11
15.9867070706
 21
-27.2934402673
  0
LINE
  5
448
100
AcDbEntity
  8
RACCORDO
100
AcDbLine
 62
250
  6
CONTINUOUS
 10
16.2005115503
 20
11.9999115429
 11
16.2005115503
 21
11.6912056448
  0
LINE
  5
449
100
AcDbEntity
  8
RACCORDO
100
AcDbLine
 62
250
  6
CONTINUOUS
 10
16.2005115503
 20
-27.4909866984
 11
16.2005115503
 21
-27.7996925965
  0
LINE
  5
44A
100
AcDbEntity
  8
DRAFT
100
AcDbLine
 62
7
  6
CONTINUOUS
 10
16.454349165
 20
-26.9985244499
 11
16.454349165
 21
-25.3778867267
  0
LINE
  5
44B
100
AcDbEntity
  8
DRAFT
100
AcDbLine
 62
7
  6
CONTINUOUS
 10
16.454349165
 20
9.1828467022
 11
16.454349165
 21
10.8034844253
  0
LINE
  5
44C
100
AcDbEntity
  8
21814000
100
AcDbLine
 62
250
  6
CONTINUOUS
 10
16.6971604754
 20
23.4657339952
 11
16.6971604754
 21
19.4908416907
  0
LINE
  5
44D
100
AcDbEntity
  8
RACCORDO
100
AcDbLine
 62
250
  6
CONTINUOUS
 10
16.9076183315
 20
-27.4461392059
 11
16.9076183315
 21
-27.1223167781
  0
LINE
  5
44E
100
AcDbEntity
  8
RACCORDO
100
AcDbLine
 62
250
  6
CONTINUOUS
 10
16.9076183315
 20
12.0296425058
 11
16.9076183315
 21
12.3534649335
  0
LINE
  5
44F
100
AcDbEntity
  8
21814000
100
AcDbLine
 62
7
  6
CONTINUOUS
 10
16.9497546551
 20
23.778330262
 11
16.9497546551
 21
20.3726448153
  0
LINE
  5
450
100
AcDbEntity
  8
RACCORDO
100
AcDbLine
 62
7
  6
CONTINUOUS
 10
16.9808416362
 20
-27.3577508582
 11
16.9808416362
 21
-27.055695599
  0
LINE
  5
451
100
AcDbEntity
  8
RACCORDO
100
AcDbLine
 62
7
  6
CONTINUOUS
 10
16.9808416354
 20
12.1132304466
 11
16.9808416362
 21
12.4418532812
  0
LINE
  5
452
100
AcDbEntity
  8
RACCORDO
100
AcDbLine
 62
250
  6
CONTINUOUS
 10
17.6147251126
 20
13.8083322962
 11
17.6147251126
 21
13.4570183241
  0
LINE
  5
453
100
AcDbEntity
  8
RACCORDO
100
AcDbLine
 62
250
  6
CONTINUOUS
 10
17.6147251126
 20
-27.8425858153
 11
17.6147251126
 21
-28.1938997874
  0
LINE
  5
454
100
AcDbEntity
  8
RACCORDO
100
AcDbLine
 62
7
  6
CONTINUOUS
 10
17.6879484173
 20
13.8967206438
 11
17.6879484173
 21
13.5454066718
  0
LINE
  5
455
100
AcDbEntity
  8
RACCORDO
100
AcDbLine
 62
7
  6
CONTINUOUS
 10
17.6879484173
 20
-27.7541974676
 11
17.6879484173
 21
-28.1055114397
  0
LINE
  5
456
100
AcDbEntity
  8
21814000
100
AcDbLine
 62
7
  6
CONTINUOUS
 10
16.949754505
 20
20.3716263126
 11
16.9497544172
 21
20.3713787325
  0
LWPOLYLINE
  5
457
100
AcDbEntity
  8
21814000
100
AcDbPolyline
 62
250
  6
CONTINUOUS
 90
29
 70
0
 10
16.9497544172
 20
20.3713787325
 10
16.9494260463
 20
20.3279244251
 10
16.9482197304
 20
20.2761984757
 10
16.9461887717
 20
20.2258813652
 10
16.9433824176
 20
20.1769818517
 10
16.9398532139
 20
20.1295162973
 10
16.9356522742
 20
20.0834859474
 10
16.9308030131
 20
20.0388760787
 10
16.9253469568
 20
19.9957018681
 10
16.9193205638
 20
19.9539603848
 10
16.9127143082
 20
19.913610899
 10
16.9055512932
 20
19.8746260319
 10
16.8978573399
 20
19.8370443102
 10
16.8896020668
 20
19.8009266517
 10
16.8807934523
 20
19.766227167
 10
16.8714494962
 20
19.7330044451
 10
16.861535598
 20
19.701479419
 10
16.8510543672
 20
19.6716211235
 10
16.8400152299
 20
19.6434756761
 10
16.8283801017
 20
19.6173829175
 10
16.8161367904
 20
19.5933258201
 10
16.8032991452
 20
19.5713401806
 10
16.7898618509
 20
19.5518471317
 10
16.7758123916
 20
19.5349100777
 10
16.7611668377
 20
19.5204855388
 10
16.7459667016
 20
19.5088332607
 10
16.730232858
 20
19.5000447282
 10
16.7139612049
 20
19.4940447928
 10
16.6971604754
 20
19.4908416907
  0
LWPOLYLINE
  5
458
100
AcDbEntity
  8
RACCORDO
100
AcDbPolyline
 62
250
  6
CONTINUOUS
 90
10
 70
0
 10
16.5117574372
 20
-27.0913682854
 10
16.5108286543
 20
-27.1340189324
 10
16.5063114781
 20
-27.1743648307
 10
16.4982527022
 20
-27.2119880335
 10
16.4867358085
 20
-27.2464987986
 10
16.4718801013
 20
-27.2775396258
 10
16.4538394723
 20
-27.3047889604
 10
16.432800806
 20
-27.327964524
 10
16.4089820438
 20
-27.3468262389
 10
16.3922131524
 20
-27.356633347
  0
LWPOLYLINE
  5
459
100
AcDbEntity
  8
RACCORDO
100
AcDbPolyline
 62
250
  6
CONTINUOUS
 90
10
 70
0
 10
17.2311360245
 20
-26.7236235715
 10
17.2301276572
 20
-26.7671821214
 10
17.2253751313
 20
-26.80832553
 10
17.2169298265
 20
-26.8466089885
 10
17.2048830458
 20
-26.8816186074
 10
17.1893650288
 20
-26.9129758911
 10
17.1705435434
 20
-26.9403418303
 10
17.1486220719
 20
-26.9634205665
 10
17.1238376116
 20
-26.9819625913
 10
17.1113597891
 20
-26.9890078742
  0
LWPOLYLINE
  5
45A
100
AcDbEntity
  8
RACCORDO
100
AcDbPolyline
 62
250
  6
CONTINUOUS
 90
6
 70
0
 10
16.2005115503
 20
-27.4909866984
 10
16.2009928164
 20
-27.4738799908
 10
16.20293325
 20
-27.4576824659
 10
16.2063127615
 20
-27.4425618181
 10
16.2110963625
 20
-27.4286745931
 10
16.2111598741
 20
-27.4285451519
  0
LWPOLYLINE
  5
45B
100
AcDbEntity
  8
RACCORDO
100
AcDbPolyline
 62
250
  6
CONTINUOUS
 90
10
 70
0
 10
16.2224593884
 20
-27.2005315192
 10
16.2212111341
 20
-27.2444939208
 10
16.2161695464
 20
-27.2860030743
 10
16.2073899222
 20
-27.3246040349
 10
16.1949685284
 20
-27.3598737381
 10
16.1790415491
 20
-27.3914256482
 10
16.1597835868
 20
-27.4189139881
 10
16.1374057494
 20
-27.4420375091
 10
16.1121533313
 20
-27.4605428133
 10
16.1001106964
 20
-27.4672139276
  0
LWPOLYLINE
  5
45C
100
AcDbEntity
  8
RACCORDO
100
AcDbPolyline
 62
250
  6
CONTINUOUS
 90
3
 70
0
 10
16.9076183315
 20
-27.1223167781
 10
16.9081249404
 20
-27.1048660162
 10
16.9096985348
 20
-27.0920523424
  0
LWPOLYLINE
  5
45D
100
AcDbEntity
  8
RACCORDO
100
AcDbPolyline
 62
7
  6
CONTINUOUS
 90
13
 70
0
 10
16.9808416362
 20
12.4418532812
 10
16.9815196533
 20
12.4619518695
 10
16.9837049842
 20
12.4842988289
 10
16.9875922732
 20
12.50862257
 10
16.9933466797
 20
12.5346700565
 10
17.0010516949
 20
12.5619913421
 10
17.0106649147
 20
12.5899623518
 10
17.0221418111
 20
12.6181823768
 10
17.0353720647
 20
12.6462054332
 10
17.0500584548
 20
12.6733588523
 10
17.0659117729
 20
12.6991820249
 10
17.0827040334
 20
12.723414266
 10
17.1001373696
 20
12.7457536356
  0
LWPOLYLINE
  5
45E
100
AcDbEntity
  8
RACCORDO
100
AcDbPolyline
 62
250
  6
CONTINUOUS
 90
10
 70
0
 10
14.5034552754
 20
-27.1279411543
 10
14.5022599746
 20
-27.1536736579
 10
14.4986902367
 20
-27.1802534743
 10
14.4927943362
 20
-27.2073211571
 10
14.4846520051
 20
-27.2345106623
 10
14.4743733544
 20
-27.2614542985
 10
14.4620973852
 20
-27.2877876992
 10
14.447990109
 20
-27.3131547504
 10
14.4322423025
 20
-27.3372124063
 10
14.4150669278
 20
-27.3596353282
  0
LWPOLYLINE
  5
45F
100
AcDbEntity
  8
RACCORDO
100
AcDbPolyline
 62
250
  6
CONTINUOUS
 90
10
 70
0
 10
15.8469581597
 20
-27.7996925965
 10
15.8457628589
 20
-27.8254251001
 10
15.842193121
 20
-27.8520049165
 10
15.8362972205
 20
-27.8790725992
 10
15.8281548893
 20
-27.9062621044
 10
15.8178762386
 20
-27.9332057406
 10
15.8056002695
 20
-27.9595391414
 10
15.7914929933
 20
-27.9849061926
 10
15.7757451868
 20
-28.0089638484
 10
15.758569812
 20
-28.0313867703
  0
LINE
  5
460
100
AcDbEntity
  8
RACCORDO
100
AcDbLine
 62
250
  6
CONTINUOUS
 10
16.9805243923
 20
12.1071755358
 11
16.9808416354
 21
12.1132304466
  0
LWPOLYLINE
  5
461
100
AcDbEntity
  8
RACCORDO
100
AcDbPolyline
 62
250
  6
CONTINUOUS
 90
8
 70
0
 10
15.4934047691
 20
-29.2545599591
 10
15.4918924199
 20
-29.2820635342
 10
15.4873812493
 20
-29.3075841662
 10
15.4799484444
 20
-29.3306851903
 10
15.4697211827
 20
-29.3509713414
 10
15.4568744555
 20
-29.3680955179
 10
15.4416280738
 20
-29.3817647204
 10
15.4284314727
 20
-29.3897784092
  0
LWPOLYLINE
  5
462
100
AcDbEntity
  8
RACCORDO
100
AcDbPolyline
 62
7
  6
CONTINUOUS
 90
6
 70
0
 10
13.7231251895
 20
-28.1431061973
 10
13.7253924399
 20
-28.1095184106
 10
13.7322299759
 20
-28.0762535598
 10
13.7435906263
 20
-28.0440411466
 10
13.7592991954
 20
-28.0135746349
 10
13.7805888812
 20
-27.9836390804
  0
LWPOLYLINE
  5
463
100
AcDbEntity
  8
RACCORDO
100
AcDbPolyline
 62
7
  6
CONTINUOUS
 90
6
 70
0
 10
17.6879484173
 20
13.5454066718
 10
17.685681167
 20
13.5118188851
 10
17.678843631
 20
13.4785540343
 10
17.6674829806
 20
13.4463416211
 10
17.6517744115
 20
13.4158751094
 10
17.6304847257
 20
13.3859395548
  0
LINE
  5
464
100
AcDbEntity
  8
DRAFT
100
AcDbLine
 62
7
  6
CONTINUOUS
 10
14.6916981939
 20
-8.9486061406
 11
16.454349165
 21
9.1828467022
  0
LWPOLYLINE
  5
465
100
AcDbEntity
  8
RACCORDO
100
AcDbPolyline
 62
250
  6
CONTINUOUS
 90
7
 70
0
 10
17.6879484173
 20
13.8967206438
 10
17.6858096327
 20
13.8804048698
 10
17.6794298739
 20
13.8643682632
 10
17.6689183005
 20
13.8488852148
 10
17.6544547683
 20
13.8342206438
 10
17.6362867524
 20
13.8206254652
 10
17.6147251126
 20
13.8083322962
  0
LWPOLYLINE
  5
466
100
AcDbEntity
  8
RACCORDO
100
AcDbPolyline
 62
250
  6
CONTINUOUS
 90
7
 70
0
 10
17.6879484173
 20
13.5454066718
 10
17.6858096327
 20
13.5290908977
 10
17.6794298739
 20
13.5130542911
 10
17.6689183005
 20
13.4975712427
 10
17.6544547683
 20
13.4829066718
 10
17.6362867524
 20
13.4693114931
 10
17.6147251126
 20
13.4570183241
  0
LINE
  5
467
100
AcDbEntity
  8
0
100
AcDbLine
 62
7
  6
CONTINUOUS
 10
13.363291153
 20
19.1262580999
 11
15.2105620566
 21
19.4436757691
  0
LWPOLYLINE
  5
468
100
AcDbEntity
  8
21814000
100
AcDbPolyline
 62
7
  6
CONTINUOUS
 90
7
 70
0
 10
16.8048931922
 20
19.473270367
 10
16.7839212461
 20
19.4703806349
 10
16.7641558973
 20
19.4698182173
 10
16.7455971459
 20
19.471583114
 10
16.7282449917
 20
19.4756753251
 10
16.7120994349
 20
19.4820948507
 10
16.6971604754
 20
19.4908416907
  0
LWPOLYLINE
  5
469
100
AcDbEntity
  8
RACCORDO
100
AcDbPolyline
 62
250
  6
CONTINUOUS
 90
4
 70
0
 10
14.3595657762
 20
12.4360316881
 10
14.3780460515
 20
12.4282942285
 10
14.3962523618
 20
12.4236733983
 10
14.4138731927
 20
12.4222482641
  0
LWPOLYLINE
  5
46A
100
AcDbEntity
  8
RACCORDO
100
AcDbPolyline
 62
250
  6
CONTINUOUS
 90
16
 70
0
 10
2.338750496
 20
18.135043715
 10
2.3747871434
 20
18.1189647626
 10
2.4129128474
 20
18.1050237315
 10
2.4531276079
 20
18.0932206215
 10
2.495890407
 20
18.0834917817
 10
2.5407422627
 20
18.075900863
 10
2.5863062293
 20
18.0706388186
 10
2.6325688063
 20
18.067758845
 10
2.6795434942
 20
18.0672077456
 10
2.7258938483
 20
18.0690168842
 10
2.7716582933
 20
18.0732433139
 10
2.8167984045
 20
18.0798299816
 10
2.8598624626
 20
18.0886370914
 10
2.9003665612
 20
18.0996180444
 10
2.9387946067
 20
18.1128194395
 10
2.9751465991
 20
18.1282412766
  0
LWPOLYLINE
  5
46B
100
AcDbEntity
  8
RACCORDO
100
AcDbPolyline
 62
250
  6
CONTINUOUS
 90
16
 70
0
 10
15.8469581597
 20
11.6980080832
 10
15.8665651984
 20
11.689145837
 10
15.8878510595
 20
11.681318656
 10
15.910564872
 20
11.6746011928
 10
15.9344273438
 20
11.6690533892
 10
15.9591825802
 20
11.6647198345
 10
15.9846069749
 20
11.661638377
 10
16.0104096742
 20
11.659832956
 10
16.0363253777
 20
11.6593126708
 10
16.0621700465
 20
11.6600941939
 10
16.0876843456
 20
11.6621743311
 10
16.1125641277
 20
11.6655351709
 10
16.1365561056
 20
11.6701682201
 10
16.1593922753
 20
11.6760374424
 10
16.180796172
 20
11.6830747914
 10
16.2005115503
 20
11.6912056448
  0
LWPOLYLINE
  5
46C
100
AcDbEntity
  8
RACCORDO
100
AcDbPolyline
 62
250
  6
CONTINUOUS
 90
16
 70
0
 10
2.4826399953
 20
18.3801671654
 10
2.5022470339
 20
18.3713049192
 10
2.5235328951
 20
18.3634777382
 10
2.5462467075
 20
18.356760275
 10
2.5701091794
 20
18.3512124714
 10
2.5948644158
 20
18.3468789168
 10
2.6202888104
 20
18.3437974592
 10
2.6460915097
 20
18.3419920382
 10
2.6720072133
 20
18.341471753
 10
2.697851882
 20
18.3422532761
 10
2.7233661811
 20
18.3443334133
 10
2.7482459632
 20
18.3476942531
 10
2.7722379412
 20
18.3523273023
 10
2.7950741109
 20
18.3581965246
 10
2.8164780076
 20
18.3652338737
 10
2.8361933858
 20
18.373364727
  0
LWPOLYLINE
  5
46D
100
AcDbEntity
  8
RACCORDO
100
AcDbPolyline
 62
250
  6
CONTINUOUS
 90
7
 70
0
 10
15.7030686605
 20
11.4528846328
 10
15.7296530375
 20
11.4406794097
 10
15.7574895455
 20
11.4296577545
 10
15.7865781847
 20
11.419819667
 10
15.8169189549
 20
11.4111651474
 10
15.8485118561
 20
11.4036941955
 10
15.8813568884
 20
11.3974068114
  0
LINE
  5
46E
100
AcDbEntity
  8
DRAFT
100
AcDbLine
 62
7
  6
CONTINUOUS
 10
16.454349165
 20
9.1828467022
 11
15.9710003456
 21
9.4245211119
  0
LINE
  5
46F
100
AcDbEntity
  8
RACCORDO
100
AcDbLine
 62
7
  6
CONTINUOUS
 10
-14.5701641143
 20
25.595643551
 11
15.4820463994
 21
10.5695382942
  0
LINE
  5
470
100
AcDbEntity
  8
ASSI
100
AcDbLine
 62
7
  6
CONTINUOUS
 10
-14.5701641143
 20
25.595643551
 11
15.4820463994
 21
10.5695382942
  0
LINE
  5
471
100
AcDbEntity
  8
26814000
100
AcDbLine
 62
7
  6
CONTINUOUS
 10
-16.0082023328
 20
26.3731418215
 11
-0.2397211123
 21
18.4889012113
  0
LINE
  5
472
100
AcDbEntity
  8
DRAFT
100
AcDbLine
 62
7
  6
CONTINUOUS
 10
15.9867070706
 20
10.6468035216
 11
0.2922814188
 21
18.4940163475
  0
LINE
  5
473
100
AcDbEntity
  8
26814000
100
AcDbLine
 62
7
  6
CONTINUOUS
 10
-0.4872084857
 20
18.9401608365
 11
-15.7607149594
 21
26.5769140733
  0
LINE
  5
474
100
AcDbEntity
  8
RACCORDO
100
AcDbLine
 62
7
  6
CONTINUOUS
 10
15.63299212
 20
11.2827412066
 11
0.6459963695
 21
18.7762390818
  0
LINE
  5
475
100
AcDbEntity
  8
RACCORDO
100
AcDbLine
 62
250
  6
CONTINUOUS
 10
0.9952476118
 20
18.8067951571
 11
2.338750496
 21
18.135043715
  0
LINE
  5
476
100
AcDbEntity
  8
RACCORDO
100
AcDbLine
 62
250
  6
CONTINUOUS
 10
14.3595657762
 20
12.1246360749
 11
15.7030686605
 21
11.4528846328
  0
LINE
  5
477
100
AcDbEntity
  8
26814000
100
AcDbLine
 62
7
  6
CONTINUOUS
 10
0.0723061989
 20
19.3750679646
 11
-1.5416979171
 21
20.1820700226
  0
LINE
  5
478
100
AcDbEntity
  8
26814000
100
AcDbLine
 62
7
  6
CONTINUOUS
 10
-13.2920119656
 20
26.0572270468
 11
-14.9060160816
 21
26.8642291048
  0
LINE
  5
479
100
AcDbEntity
  8
RACCORDO
100
AcDbLine
 62
250
  6
CONTINUOUS
 10
1.139137111
 20
19.0519186075
 11
2.4826399953
 21
18.3801671654
  0
LINE
  5
47A
100
AcDbEntity
  8
RACCORDO
100
AcDbLine
 62
250
  6
CONTINUOUS
 10
14.5034552754
 20
12.3697595253
 11
15.8469581597
 21
11.6980080832
  0
LINE
  5
47B
100
AcDbEntity
  8
26814000
100
AcDbLine
 62
7
  6
CONTINUOUS
 10
-9.9595560848
 20
24.7483313416
 11
-4.1670470167
 21
21.8520768076
  0
LINE
  5
47C
100
AcDbEntity
  8
RACCORDO
100
AcDbLine
 62
7
  6
CONTINUOUS
 10
6.0868540997
 20
16.7478004682
 11
11.6063479522
 21
13.988053542
  0
LINE
  5
47D
100
AcDbEntity
  8
26814000
100
AcDbLine
 62
7
  6
CONTINUOUS
 10
-15.5444142899
 20
27.6357591846
 11
-13.9378807268
 21
26.8324924031
  0
LINE
  5
47E
100
AcDbEntity
  8
26814000
100
AcDbLine
 62
7
  6
CONTINUOUS
 10
-2.1800961254
 20
20.9536001024
 11
-0.5735625624
 21
20.1503333209
  0
LINE
  5
47F
100
AcDbEntity
  8
RACCORDO
100
AcDbLine
 62
7
  6
CONTINUOUS
 10
0.4970036262
 20
19.6150502266
 11
1.8405065105
 21
18.9432987844
  0
LINE
  5
480
100
AcDbEntity
  8
RACCORDO
100
AcDbLine
 62
7
  6
CONTINUOUS
 10
13.8613217907
 20
12.9328911444
 11
15.2049159078
 21
12.2610941478
  0
LINE
  5
481
100
AcDbEntity
  8
RACCORDO
100
AcDbLine
 62
250
  6
CONTINUOUS
 10
15.8469581597
 20
11.9999115429
 11
15.438295092
 21
12.2042430768
  0
LINE
  5
482
100
AcDbEntity
  8
RACCORDO
100
AcDbLine
 62
250
  6
CONTINUOUS
 10
2.4826399953
 20
18.6820706251
 11
2.0739769275
 21
18.886402159
  0
LINE
  5
483
100
AcDbEntity
  8
26814000
100
AcDbLine
 62
250
  6
CONTINUOUS
 10
-15.6090090358
 20
27.7707883595
 11
-14.0032325737
 21
26.9679001284
  0
LINE
  5
484
100
AcDbEntity
  8
26814000
100
AcDbLine
 62
250
  6
CONTINUOUS
 10
-2.2446908714
 20
21.0886292773
 11
-0.6389144092
 21
20.2857410462
  0
LINE
  5
485
100
AcDbEntity
  8
RACCORDO
100
AcDbLine
 62
250
  6
CONTINUOUS
 10
0.4320303298
 20
19.7502686767
 11
1.7755332141
 21
19.0785172345
  0
LINE
  5
486
100
AcDbEntity
  8
RACCORDO
100
AcDbLine
 62
250
  6
CONTINUOUS
 10
13.7963484942
 20
13.0681095945
 11
15.1398513785
 21
12.3963581523
  0
LINE
  5
487
100
AcDbEntity
  8
RACCORDO
100
AcDbLine
 62
250
  6
CONTINUOUS
 10
1.1214975029
 20
19.0616796847
 11
1.139137111
 21
19.0519186075
  0
LINE
  5
488
100
AcDbEntity
  8
RACCORDO
100
AcDbLine
 62
250
  6
CONTINUOUS
 10
14.4858156673
 20
12.3795206025
 11
14.5034552754
 21
12.3697595253
  0
LWPOLYLINE
  5
489
100
AcDbEntity
  8
RACCORDO
100
AcDbPolyline
 62
7
  6
CONTINUOUS
 90
7
 70
0
 10
0.4971111857
 20
19.614996533
 10
0.4766245765
 20
19.6264606078
 10
0.4542443615
 20
19.6421625417
 10
0.4335748481
 20
19.660349189
 10
0.415019314
 20
19.6807131285
 10
0.3987912633
 20
19.7030348293
 10
0.3850032513
 20
19.7272484481
  0
LWPOLYLINE
  5
48A
100
AcDbEntity
  8
RACCORDO
100
AcDbPolyline
 62
250
  6
CONTINUOUS
 90
5
 70
0
 10
2.4232816924
 20
18.8140587735
 10
2.4271748289
 20
18.8118190549
 10
2.4412821051
 20
18.8005592798
 10
2.4535580742
 20
18.7865018483
 10
2.4638367249
 20
18.7698368628
  0
LWPOLYLINE
  5
48B
100
AcDbEntity
  8
RACCORDO
100
AcDbPolyline
 62
250
  6
CONTINUOUS
 90
13
 70
0
 10
2.9751465991
 20
18.1282412766
 10
2.9567085233
 20
18.1389629976
 10
2.9386281587
 20
18.1524855179
 10
2.9212148653
 20
18.1685774634
 10
2.9047665894
 20
18.1869634964
 10
2.8895647657
 20
18.2073290269
 10
2.8758695014
 20
18.2293255949
 10
2.8639151265
 20
18.2525768331
 10
2.8539061835
 20
18.2766849063
 10
2.8460139282
 20
18.3012373188
 10
2.8403733993
 20
18.3258139719
 10
2.8370811079
 20
18.3499943523
 10
2.8361933858
 20
18.373364727
  0
LWPOLYLINE
  5
48C
100
AcDbEntity
  8
RACCORDO
100
AcDbPolyline
 62
250
  6
CONTINUOUS
 90
13
 70
0
 10
3.6822533803
 20
18.4666781376
 10
3.6638153355
 20
18.4773998379
 10
3.645734994
 20
18.4909223336
 10
3.6283217151
 20
18.5070142543
 10
3.6118734449
 20
18.5254002663
 10
3.5966716188
 20
18.5457657822
 10
3.5829763465
 20
18.567762343
 10
3.571021959
 20
18.591013583
 10
3.5610130012
 20
18.6151216676
 10
3.5531207317
 20
18.6396740981
 10
3.5474801911
 20
18.6642507744
 10
3.5441878917
 20
18.6884311826
 10
3.543300167
 20
18.711801588
  0
LWPOLYLINE
  5
48D
100
AcDbEntity
  8
RACCORDO
100
AcDbPolyline
 62
250
  6
CONTINUOUS
 90
16
 70
0
 10
15.8813535848
 20
11.3974052836
 10
15.9176530565
 20
11.3762200451
 10
15.9534795212
 20
11.3504872626
 10
15.9884404498
 20
11.3204906585
 10
16.0221509084
 20
11.2865615414
 10
16.0542441523
 20
11.2490723182
 10
16.0843749563
 20
11.2084310546
 10
16.1122149583
 20
11.1650816201
 10
16.1374570913
 20
11.1195001548
 10
16.1598248378
 20
11.0721861099
 10
16.1790730496
 20
11.0236578872
 10
16.1949907714
 20
10.9744472083
 10
16.2074036605
 20
10.9250933151
 10
16.2161756837
 20
10.8761369914
 10
16.2212106121
 20
10.8281146378
 10
16.2224532073
 20
10.7815524405
  0
LWPOLYLINE
  5
48E
100
AcDbEntity
  8
RACCORDO
100
AcDbPolyline
 62
7
  6
CONTINUOUS
 90
4
 70
0
 10
3.6285403906
 20
18.7519914429
 10
3.6288803029
 20
18.751639651
 10
3.628690003
 20
18.7519084404
 10
3.6266868859
 20
18.7548913941
  0
LINE
  5
48F
100
AcDbEntity
  8
21814000
100
AcDbLine
 62
250
  6
CONTINUOUS
 10
7.000914865
 20
26.4773971977
 11
7.4154923766
 21
25.4018186575
  0
LINE
  5
490
100
AcDbEntity
  8
0
100
AcDbLine
 62
7
  6
CONTINUOUS
 10
8.5601967048
 20
23.9017536096
 11
8.3586973469
 21
24.4974780354
  0
LWPOLYLINE
  5
491
100
AcDbEntity
  8
RACCORDO
100
AcDbPolyline
 62
7
  6
CONTINUOUS
 90
10
 70
0
 10
17.6879484173
 20
13.8967206438
 10
17.6858874496
 20
13.9287512828
 10
17.6796523336
 20
13.960588007
 10
17.6692501177
 20
13.9915864618
 10
17.6547887765
 20
14.0211402708
 10
17.6365240404
 20
14.0486012437
 10
17.6148362062
 20
14.0733861757
 10
17.5899600235
 20
14.0951959436
 10
17.5624213069
 20
14.1135304654
 10
17.549767868
 20
14.1203194138
  0
LINE
  5
492
100
AcDbEntity
  8
RACCORDO
100
AcDbLine
 62
7
  6
CONTINUOUS
 10
18.1450551985
 20
-26.2318140366
 11
18.1450551985
 21
11.6694698501
  0
LINE
  5
493
100
AcDbEntity
  8
RACCORDO
100
AcDbLine
 62
7
  6
CONTINUOUS
 10
18.289250392
 20
16.8745145859
 11
18.289250392
 21
17.7748696865
  0
LWPOLYLINE
  5
494
100
AcDbEntity
  8
RACCORDO
100
AcDbPolyline
 62
250
  6
CONTINUOUS
 90
10
 70
0
 10
17.5069434812
 20
-26.5533347176
 10
17.5056948613
 20
-26.5972942201
 10
17.5006534701
 20
-26.638801077
 10
17.4918745444
 20
-26.6774004138
 10
17.4794542815
 20
-26.7126692198
 10
17.4635287847
 20
-26.7442209842
 10
17.4442725717
 20
-26.771709932
 10
17.4218966623
 20
-26.7948348133
 10
17.3966462654
 20
-26.8133422048
 10
17.3845875906
 20
-26.8200230052
  0
LWPOLYLINE
  5
495
100
AcDbEntity
  8
RACCORDO
100
AcDbPolyline
 62
250
  6
CONTINUOUS
 90
8
 70
0
 10
17.6147251126
 20
-28.1938997874
 10
17.6132127635
 20
-28.2214033624
 10
17.6087015928
 20
-28.2469239945
 10
17.601268788
 20
-28.2700250185
 10
17.5910415263
 20
-28.2903111696
 10
17.578194799
 20
-28.3074353462
 10
17.5629484173
 20
-28.3211045486
 10
17.5497518162
 20
-28.3291182375
  0
LINE
  5
496
100
AcDbEntity
  8
RACCORDO
100
AcDbLine
 62
250
  6
CONTINUOUS
 10
16.9787028515
 20
-27.3740666323
 11
16.9808416362
 21
-27.3577508582
  0
LWPOLYLINE
  5
497
100
AcDbEntity
  8
RACCORDO
100
AcDbPolyline
 62
7
  6
CONTINUOUS
 90
3
 70
0
 10
2.6886928563
 20
21.4971736113
 10
2.6576853255
 20
21.4899053841
 10
2.627725275
 20
21.4786963991
  0
LWPOLYLINE
  5
498
100
AcDbEntity
  8
RACCORDO
100
AcDbPolyline
 62
250
  6
CONTINUOUS
 90
4
 70
0
 10
1.057143624
 20
19.1048104657
 10
1.0698788859
 20
19.1070418701
 10
1.0818670644
 20
19.1111943869
 10
1.0840598672
 20
19.1122020619
  0
LINE
  5
499
100
AcDbEntity
  8
RACCORDO
100
AcDbLine
 62
250
  6
CONTINUOUS
 10
1.043793129
 20
19.1045232673
 11
1.057143624
 21
19.1048104657
  0
LWPOLYLINE
  5
49A
100
AcDbEntity
  8
RACCORDO
100
AcDbPolyline
 62
250
  6
CONTINUOUS
 90
4
 70
0
 10
3.6288963117
 20
18.7654346115
 10
3.6125906084
 20
18.767438863
 10
3.5974918494
 20
18.7725394596
 10
3.5952788042
 20
18.7736010848
  0
LINE
  5
49B
100
AcDbEntity
  8
RACCORDO
100
AcDbLine
 62
7
  6
CONTINUOUS
 10
1.9016091568
 20
18.9221006932
 11
2.4319392427
 21
18.8122657361
  0
LINE
  5
49C
100
AcDbEntity
  8
RACCORDO
100
AcDbLine
 62
250
  6
CONTINUOUS
 10
2.1290866047
 20
19.0785172345
 11
2.6594166905
 21
18.9686822775
  0
LINE
  5
49D
100
AcDbEntity
  8
26814000
100
AcDbLine
 62
7
  6
CONTINUOUS
 10
0.0723061989
 20
20.0122375233
 11
-0.5500118332
 21
20.1421781058
  0
LWPOLYLINE
  5
49E
100
AcDbEntity
  8
RACCORDO
100
AcDbPolyline
 62
7
  6
CONTINUOUS
 90
3
 70
0
 10
16.1358800455
 20
14.8150145291
 10
16.1668875762
 20
14.8077463018
 10
16.1968476268
 20
14.7965373169
  0
LWPOLYLINE
  5
49F
100
AcDbEntity
  8
RACCORDO
100
AcDbPolyline
 62
250
  6
CONTINUOUS
 90
7
 70
0
 10
16.206223572
 20
14.7920915589
 10
16.2013714954
 20
14.7943452115
 10
16.1819244474
 20
14.8003502136
 10
16.1611065017
 20
14.8023255687
 10
16.1393541537
 20
14.8003298912
 10
16.1170062993
 20
14.7944883947
 10
16.0944455331
 20
14.7849784369
  0
LWPOLYLINE
  5
4A0
100
AcDbEntity
  8
RACCORDO
100
AcDbPolyline
 62
7
  6
CONTINUOUS
 90
25
 70
0
 10
11.6063479522
 20
15.1853725777
 10
11.6305103133
 20
15.1740811841
 10
11.6558661978
 20
15.1636843009
 10
11.6824156058
 20
15.1541819283
 10
11.7102829988
 20
15.1455408894
 10
11.7393439153
 20
15.137794361
 10
11.7692249702
 20
15.1310418732
 10
11.7999367463
 20
15.1252962527
 10
11.8314686608
 20
15.1205446729
 10
11.8634155805
 20
15.1168481836
 10
11.8957828604
 20
15.1142203995
 10
11.9285651456
 20
15.112647706
 10
11.9613412374
 20
15.1121503096
 10
11.994111056
 20
15.1127420856
 10
12.0268746814
 20
15.1144091587
 10
12.0592111547
 20
15.1171301098
 10
12.0911149643
 20
15.1209185377
 10
12.1225916218
 20
15.1257608436
 10
12.1532367041
 20
15.1315948119
 10
12.1830394807
 20
15.1384332385
 10
12.2120106821
 20
15.1462633274
 10
12.2397780758
 20
15.1549844749
 10
12.2662175846
 20
15.1645631463
 10
12.2914532857
 20
15.1750328763
 10
12.3154851793
 20
15.1863936648
  0
LWPOLYLINE
  5
4A1
100
AcDbEntity
  8
RACCORDO
100
AcDbPolyline
 62
250
  6
CONTINUOUS
 90
7
 70
0
 10
17.5497501486
 20
14.1203282754
 10
17.5460034198
 20
14.1220991727
 10
17.5267054037
 20
14.1283377443
 10
17.5058794666
 20
14.1305687811
 10
17.4838897493
 20
14.1287585024
 10
17.4611148142
 20
14.1229430211
 10
17.4379484173
 20
14.1132269948
  0
LINE
  5
4A2
100
AcDbEntity
  8
RACCORDO
100
AcDbLine
 62
7
  6
CONTINUOUS
 10
16.1968476268
 20
14.7965373169
 11
16.2064105622
 21
14.7919978737
  0
LINE
  5
4A3
100
AcDbEntity
  8
26814000
100
AcDbLine
 62
250
  6
CONTINUOUS
 10
-0.6389144092
 20
20.5391124399
 11
-2.2446908714
 21
21.342000671
  0
LINE
  5
4A4
100
AcDbEntity
  8
26814000
100
AcDbLine
 62
250
  6
CONTINUOUS
 10
-14.0032325737
 20
27.2212715222
 11
-15.6090090358
 21
28.0241597532
  0
LINE
  5
4A5
100
AcDbEntity
  8
RACCORDO
100
AcDbLine
 62
250
  6
CONTINUOUS
 10
0.4320303298
 20
20.1015826487
 11
1.7755332141
 21
19.4298312066
  0
LINE
  5
4A6
100
AcDbEntity
  8
RACCORDO
100
AcDbLine
 62
250
  6
CONTINUOUS
 10
13.7963484942
 20
13.4194235665
 11
15.1398513785
 21
12.7476721244
  0
LINE
  5
4A7
100
AcDbEntity
  8
26814000
100
AcDbLine
 62
7
  6
CONTINUOUS
 10
-12.2251810534
 20
26.5958082963
 11
-10.0474240504
 21
25.5069297948
  0
LINE
  5
4A8
100
AcDbEntity
  8
26814000
100
AcDbLine
 62
7
  6
CONTINUOUS
 10
-3.2449249324
 20
22.1056802358
 11
-2.1638029812
 21
21.5651192602
  0
LINE
  5
4A9
100
AcDbEntity
  8
26814000
100
AcDbLine
 62
250
  6
CONTINUOUS
 10
-0.4621436798
 20
20.8429780182
 11
-2.0699650889
 21
21.6468887227
  0
LINE
  5
4AA
100
AcDbEntity
  8
26814000
100
AcDbLine
 62
250
  6
CONTINUOUS
 10
-13.8264618443
 20
27.5251371004
 11
-15.4342832533
 21
28.3290478049
  0
LINE
  5
4AB
100
AcDbEntity
  8
RACCORDO
100
AcDbLine
 62
250
  6
CONTINUOUS
 10
17.0465715447
 20
12.0959146685
 11
16.9870231866
 21
12.1256888476
  0
LINE
  5
4AC
100
AcDbEntity
  8
RACCORDO
100
AcDbLine
 62
250
  6
CONTINUOUS
 10
3.6822533803
 20
18.7780737508
 11
3.6227050343
 21
18.8078479237
  0
LINE
  5
4AD
100
AcDbEntity
  8
RACCORDO
100
AcDbLine
 62
250
  6
CONTINUOUS
 10
0.6088070251
 20
20.4064773473
 11
1.9523099094
 21
19.7347259052
  0
LINE
  5
4AE
100
AcDbEntity
  8
RACCORDO
100
AcDbLine
 62
250
  6
CONTINUOUS
 10
13.9731251895
 20
13.7243182651
 11
15.3166280738
 21
13.052566823
  0
LINE
  5
4AF
100
AcDbEntity
  8
26814000
100
AcDbLine
 62
7
  6
CONTINUOUS
 10
-9.9595560848
 20
25.9632862077
 11
-4.1670470167
 21
23.0670316737
  0
LINE
  5
4B0
100
AcDbEntity
  8
RACCORDO
100
AcDbLine
 62
7
  6
CONTINUOUS
 10
6.0868540997
 20
17.9451195039
 11
11.6063479522
 21
15.1853725777
  0
LINE
  5
4B1
100
AcDbEntity
  8
RACCORDO
100
AcDbLine
 62
7
  6
CONTINUOUS
 10
3.6758717456
 20
19.3372721484
 11
5.0865924909
 21
18.6319117757
  0
LINE
  5
4B2
100
AcDbEntity
  8
RACCORDO
100
AcDbLine
 62
7
  6
CONTINUOUS
 10
17.04018991
 20
12.6551130661
 11
17.7913402479
 21
12.2795378972
  0
LINE
  5
4B3
100
AcDbEntity
  8
26814000
100
AcDbLine
 62
7
  6
CONTINUOUS
 10
-10.6939069364
 20
26.5297203298
 11
-12.1763849398
 21
27.2709593315
  0
LINE
  5
4B4
100
AcDbEntity
  8
26814000
100
AcDbLine
 62
7
  6
CONTINUOUS
 10
-9.4674646068
 20
26.4293856383
 11
-3.2449249324
 21
23.3181158011
  0
LINE
  5
4B5
100
AcDbEntity
  8
26814000
100
AcDbLine
 62
7
  6
CONTINUOUS
 10
-13.8515266502
 20
29.1410319023
 11
-12.2251810534
 21
28.3278591039
  0
LINE
  5
4B6
100
AcDbEntity
  8
26814000
100
AcDbLine
 62
7
  6
CONTINUOUS
 10
-0.4872084857
 20
22.4588728201
 11
1.139137111
 21
21.6457000217
  0
LINE
  5
4B7
100
AcDbEntity
  8
26814000
100
AcDbLine
 62
7
  6
CONTINUOUS
 10
-8.1239617225
 20
26.459702589
 11
-3.1742142542
 21
23.9848288548
  0
LINE
  5
4B8
100
AcDbEntity
  8
0
100
AcDbLine
 62
7
  6
CONTINUOUS
 10
7.7859408542
 20
18.509789689
 11
12.7356883225
 21
16.0349159549
  0
LINE
  5
4B9
100
AcDbEntity
  8
26814000
100
AcDbLine
 62
250
  6
CONTINUOUS
 10
-13.3170767715
 20
29.4013793688
 11
-11.6969138817
 21
28.5912979239
  0
LINE
  5
4BA
100
AcDbEntity
  8
26814000
100
AcDbLine
 62
250
  6
CONTINUOUS
 10
0.0472413929
 20
22.7192202866
 11
1.6674042827
 21
21.9091388417
  0
LINE
  5
4BB
100
AcDbEntity
  8
26814000
100
AcDbLine
 62
7
  6
CONTINUOUS
 10
-13.2056591561
 20
29.407647932
 11
-11.5867815779
 21
28.5982091429
  0
LINE
  5
4BC
100
AcDbEntity
  8
26814000
100
AcDbLine
 62
7
  6
CONTINUOUS
 10
0.1586590083
 20
22.7254888498
 11
1.7775365865
 21
21.9160500607
  0
LINE
  5
4BD
100
AcDbEntity
  8
RACCORDO
100
AcDbLine
 62
250
  6
CONTINUOUS
 10
2.7301273687
 20
21.4671375191
 11
4.0736302529
 21
20.795386077
  0
LINE
  5
4BE
100
AcDbEntity
  8
RACCORDO
100
AcDbLine
 62
250
  6
CONTINUOUS
 10
16.0944455331
 20
14.7849784369
 11
17.4379484173
 21
14.1132269948
  0
LWPOLYLINE
  5
4BF
100
AcDbEntity
  8
21814000
100
AcDbPolyline
 62
250
  6
CONTINUOUS
 90
15
 70
0
 10
-2.9754138198
 20
24.9464688836
 10
-2.9418318434
 20
24.9272257577
 10
-2.9125152554
 20
24.9056023548
 10
-2.8874640557
 20
24.881598675
 10
-2.8664748636
 20
24.8549663264
 10
-2.8497510599
 20
24.8259537008
 10
-2.8379027868
 20
24.7953059744
 10
-2.8310459932
 20
24.7629460267
 10
-2.8290647301
 20
24.7289509782
 10
-2.8322212929
 20
24.694297366
 10
-2.8406840322
 20
24.6589312773
 10
-2.8542845973
 20
24.622906625
 10
-2.8727802321
 20
24.587361684
 10
-2.8960900177
 20
24.5526758795
 10
-2.9242948729
 20
24.5184697865
  0
LWPOLYLINE
  5
4C0
100
AcDbEntity
  8
RACCORDO
100
AcDbPolyline
 62
250
  6
CONTINUOUS
 90
5
 70
0
 10
15.7875998568
 20
12.1318996913
 10
15.7914929933
 20
12.1296599726
 10
15.8056002695
 20
12.1184001976
 10
15.8178762386
 20
12.1043427661
 10
15.8281548893
 20
12.0876777806
  0
LWPOLYLINE
  5
4C1
100
AcDbEntity
  8
RACCORDO
100
AcDbPolyline
 62
250
  6
CONTINUOUS
 90
13
 70
0
 10
1.9523099094
 20
19.7347259052
 10
1.9753838983
 20
19.7213366689
 10
1.9980630848
 20
19.7044720425
 10
2.0199594219
 20
19.6844205843
 10
2.040698257
 20
19.6615253804
 10
2.059924743
 20
19.6361781742
 10
2.0773099094
 20
19.6088126632
 10
2.0925562911
 20
19.579897079
 10
2.1054030183
 20
19.5499261753
 10
2.11563028
 20
19.5194127625
 10
2.1230630848
 20
19.4888789335
 10
2.1275742555
 20
19.4588471308
 10
2.1290866047
 20
19.4298312066
  0
LWPOLYLINE
  5
4C2
100
AcDbEntity
  8
RACCORDO
100
AcDbPolyline
 62
250
  6
CONTINUOUS
 90
13
 70
0
 10
15.3166280738
 20
13.052566823
 10
15.3397944707
 20
13.0391164524
 10
15.3625694057
 20
13.0221569987
 10
15.3845591231
 20
13.00197756
 10
15.4053850601
 20
12.9789205862
 10
15.4246830762
 20
12.9533839985
 10
15.4421117372
 20
12.925817084
 10
15.4574003671
 20
12.8966313494
 10
15.470242655
 20
12.8663925331
 10
15.4803544164
 20
12.8358399802
 10
15.4876053114
 20
12.805573456
 10
15.4919592228
 20
12.7760260803
 10
15.4934047691
 20
12.7476721244
  0
LWPOLYLINE
  5
4C3
100
AcDbEntity
  8
RACCORDO
100
AcDbPolyline
 62
250
  6
CONTINUOUS
 90
13
 70
0
 10
4.0736302529
 20
20.795386077
 10
4.0967966498
 20
20.7819357064
 10
4.1195715848
 20
20.7649762527
 10
4.1415613022
 20
20.744796814
 10
4.1623872392
 20
20.7217398402
 10
4.1816852553
 20
20.6962032525
 10
4.1991139163
 20
20.668636338
 10
4.2144025463
 20
20.6394506034
 10
4.2272448341
 20
20.6092117871
 10
4.2373565955
 20
20.5786592342
 10
4.2446074906
 20
20.54839271
 10
4.248961402
 20
20.5188453343
 10
4.2504069482
 20
20.4904913784
  0
LWPOLYLINE
  5
4C4
100
AcDbEntity
  8
RACCORDO
100
AcDbPolyline
 62
250
  6
CONTINUOUS
 90
16
 70
0
 10
17.1657951351
 20
11.9906394528
 10
17.2020742882
 20
11.9694622106
 10
17.2378881665
 20
11.9437379941
 10
17.2728442353
 20
11.9137487514
 10
17.306559362
 20
11.8798231776
 10
17.3386640151
 20
11.842333111
 10
17.3688063148
 20
11.8016894589
 10
17.3966558893
 20
11.7583376926
 10
17.4219074961
 20
11.7127529658
 10
17.4442843675
 20
11.6654349064
 10
17.4635412441
 20
11.6169021401
 10
17.479467063
 20
11.5676866066
 10
17.4918872709
 20
11.5183277287
 10
17.5006657377
 20
11.4693665006
 10
17.5057062481
 20
11.421339558
 10
17.5069535565
 20
11.3747732962
  0
LWPOLYLINE
  5
4C5
100
AcDbEntity
  8
21814000
100
AcDbPolyline
 62
250
  6
CONTINUOUS
 90
9
 70
0
 10
-3.0778541674
 20
24.7287533002
 10
-3.057972991
 20
24.7171393094
 10
-3.0403112592
 20
24.7033948273
 10
-3.0250596843
 20
24.6876301419
 10
-3.0123951005
 20
24.6699363795
 10
-3.0024514047
 20
24.6504720945
 10
-2.9953367916
 20
24.6294587424
 10
-2.9911603749
 20
24.6069941292
 10
-2.9899862381
 20
24.5863923783
  0
LWPOLYLINE
  5
4C6
100
AcDbEntity
  8
21814000
100
AcDbPolyline
 62
250
  6
CONTINUOUS
 90
13
 70
0
 10
-4.4219381123
 20
25.2170150621
 10
-4.4042271766
 20
25.2058931861
 10
-4.3861590632
 20
25.1924886981
 10
-4.3680373019
 20
25.17702683
 10
-4.3501663165
 20
25.1597673706
 10
-4.3328462969
 20
25.1410002864
 10
-4.3163681584
 20
25.1210408457
 10
-4.3010086883
 20
25.1002243616
 10
-4.2870258514
 20
25.0789005028
 10
-4.2746544587
 20
25.057427401
 10
-4.2641022848
 20
25.0361657251
 10
-4.2555465642
 20
25.0154726258
 10
-4.2491309806
 20
24.9956956755
  0
LWPOLYLINE
  5
4C7
100
AcDbEntity
  8
RACCORDO
100
AcDbPolyline
 62
250
  6
CONTINUOUS
 90
13
 70
0
 10
17.0018286559
 20
11.81596594
 10
16.988242971
 20
11.8294438254
 10
16.975314206
 20
11.8443208418
 10
16.9631820572
 20
11.8604362401
 10
16.9519776151
 20
11.8776158878
 10
16.9418219421
 20
11.8956741584
 10
16.9328247666
 20
11.9144159387
 10
16.9250833036
 20
11.9336387252
 10
16.918681203
 20
11.9531348105
 10
16.9136876412
 20
11.9726935359
 10
16.9101565751
 20
11.9921035666
 10
16.9081261586
 20
12.011155175
 10
16.9076183315
 20
12.0296425058
  0
LWPOLYLINE
  5
4C8
100
AcDbEntity
  8
RACCORDO
100
AcDbPolyline
 62
250
  6
CONTINUOUS
 90
13
 70
0
 10
17.0018288617
 20
11.8159668376
 10
17.0351205004
 20
11.7819437473
 10
17.0667751254
 20
11.7444238913
 10
17.0964505051
 20
11.7038129045
 10
17.1238258075
 20
11.6605498417
 10
17.1486050687
 20
11.6151024306
 10
17.1705203934
 20
11.5679620155
 10
17.1893348512
 20
11.519638245
 10
17.2048450379
 20
11.4706535622
 10
17.2168832753
 20
11.4215375568
 10
17.2253194237
 20
11.3728212392
 10
17.2300622892
 20
11.3250313
 10
17.2310606096
 20
11.2786844155
  0
LWPOLYLINE
  5
4C9
100
AcDbEntity
  8
RACCORDO
100
AcDbPolyline
 62
250
  6
CONTINUOUS
 90
13
 70
0
 10
16.2912172909
 20
11.4808111862
 10
16.2780689101
 20
11.4943439123
 10
16.2655791545
 20
11.5091837655
 10
16.2538775786
 20
11.52517779
 10
16.2430851437
 20
11.5421618687
 10
16.233314668
 20
11.5599597778
 10
16.2246690956
 20
11.5783846189
 10
16.2172383174
 20
11.5972445874
 10
16.2110988031
 20
11.6163453231
 10
16.2063141296
 20
11.6354890302
 10
16.2029338445
 20
11.6544774675
 10
16.2009929517
 20
11.673114002
 10
16.2005115503
 20
11.6912056448
  0
LWPOLYLINE
  5
4CA
100
AcDbEntity
  8
RACCORDO
100
AcDbPolyline
 62
250
  6
CONTINUOUS
 90
13
 70
0
 10
16.2912172909
 20
11.4808111862
 10
16.3234409783
 20
11.4466370716
 10
16.3540174384
 20
11.4091994772
 10
16.3826299267
 20
11.3688862224
 10
16.4089820439
 20
11.3261149159
 10
16.4328008061
 20
11.2813286296
 10
16.4538394724
 20
11.2349913087
 10
16.4718801015
 20
11.1875829657
 10
16.4867358087
 20
11.1395947081
 10
16.4982527025
 20
11.0915236505
 10
16.5063114782
 20
11.0438677654
 10
16.5108286544
 20
10.9971207246
 10
16.5117574372
 20
10.9517667849
  0
LWPOLYLINE
  5
4CB
100
AcDbEntity
  8
26814000
100
AcDbPolyline
 62
7
  6
CONTINUOUS
 90
20
 70
0
 10
7.0095647169
 20
23.4792504025
 10
7.0081645653
 20
23.4813814672
 10
7.006418139
 20
23.4836899146
 10
7.0043365291
 20
23.4861795537
 10
7.0019315647
 20
23.4888569965
 10
6.9992114728
 20
23.4916922125
 10
6.9961865415
 20
23.4946887388
 10
6.9928680402
 20
23.497851817
 10
6.9892638833
 20
23.5011538095
 10
6.9853840264
 20
23.5045977922
 10
6.9812393549
 20
23.5081880366
 10
6.9768381222
 20
23.5118985361
 10
6.9721897836
 20
23.515732128
 10
6.9673053297
 20
23.5196920016
 10
6.9621949413
 20
23.523752422
 10
6.9568680663
 20
23.5279156372
 10
6.9513358629
 20
23.5321840086
 10
6.9456113917
 20
23.5365315082
 10
6.9397062083
 20
23.5409503903
 10
6.9273931567
 20
23.5500354799
  0
LINE
  5
4CC
100
AcDbEntity
  8
21814000
100
AcDbLine
 62
7
  6
CONTINUOUS
 10
8.3460888804
 20
21.672985031
 11
7.5933947964
 21
22.9711902921
  0
LWPOLYLINE
  5
4CD
100
AcDbEntity
  8
RACCORDO
100
AcDbPolyline
 62
250
  6
CONTINUOUS
 90
5
 70
0
 10
15.8281548893
 20
12.0876777806
 10
15.8362972205
 20
12.0686306065
 10
15.842193121
 20
12.0474588242
 10
15.8457628589
 20
12.0244487457
 10
15.8469581597
 20
11.9999115429
  0
LINE
  5
4CE
100
AcDbEntity
  8
RACCORDO
100
AcDbLine
 62
7
  6
CONTINUOUS
 10
22.3436652812
 20
15.0437084898
 11
22.3436652812
 21
14.1487456263
  0
LINE
  5
4CF
100
AcDbEntity
  8
RACCORDO
100
AcDbLine
 62
7
  6
CONTINUOUS
 10
22.3436652812
 20
-18.7675642717
 11
22.3436652812
 21
-20.4093402618
  0
LWPOLYLINE
  5
4D0
100
AcDbEntity
  8
RACCORDO
100
AcDbPolyline
 62
7
  6
CONTINUOUS
 90
8
 70
0
 10
22.3436652812
 20
14.1487456263
 10
22.3407419895
 20
14.0965156659
 10
22.3335957869
 20
14.0489293488
 10
22.3222266737
 20
14.0059866751
 10
22.3063627292
 20
13.9673909728
 10
22.286275874
 20
13.9334389139
 10
22.2627818695
 20
13.9050205145
 10
22.2579770543
 20
13.9003099271
  0
LWPOLYLINE
  5
4D1
100
AcDbEntity
  8
RACCORDO
100
AcDbPolyline
 62
250
  6
CONTINUOUS
 90
7
 70
0
 10
17.6879484173
 20
-27.7541974676
 10
17.6858096327
 20
-27.7705132417
 10
17.6794298739
 20
-27.7865498483
 10
17.6689183005
 20
-27.8020328967
 10
17.6544547683
 20
-27.8166974676
 10
17.6362867524
 20
-27.8302926463
 10
17.6147251126
 20
-27.8425858153
  0
LWPOLYLINE
  5
4D2
100
AcDbEntity
  8
RACCORDO
100
AcDbPolyline
 62
250
  6
CONTINUOUS
 90
7
 70
0
 10
17.6879484136
 20
-28.105532996
 10
17.685646673
 20
-28.1224346052
 10
17.6790419128
 20
-28.1385792731
 10
17.6683357286
 20
-28.1540441267
 10
17.6538342756
 20
-28.1685457482
 10
17.6358403326
 20
-28.1818966311
 10
17.6147251126
 20
-28.1938997874
  0
LWPOLYLINE
  5
4D3
100
AcDbEntity
  8
RACCORDO
100
AcDbPolyline
 62
250
  6
CONTINUOUS
 90
6
 70
0
 10
2.8377422023
 20
21.4762046217
 10
2.8185157163
 20
21.482325342
 10
2.7977768812
 20
21.4844817107
 10
2.7758805441
 20
21.4826368318
 10
2.7532013576
 20
21.4768222717
 10
2.7301273687
 20
21.4671375191
  0
LWPOLYLINE
  5
4D4
100
AcDbEntity
  8
21814000
100
AcDbPolyline
 62
250
  6
CONTINUOUS
 90
8
 70
0
 10
-2.9573947977
 20
24.4847434048
 10
-2.9762194708
 20
24.4918894654
 10
-2.9940731311
 20
24.4964461171
 10
-3.0106558751
 20
24.4983368179
 10
-3.025689148
 20
24.497529808
 10
-3.0389204226
 20
24.4940386434
 10
-3.0501274417
 20
24.4879219684
 10
-3.0541951687
 20
24.484583165
  0
LWPOLYLINE
  5
4D5
100
AcDbEntity
  8
RACCORDO
100
AcDbPolyline
 62
7
  6
CONTINUOUS
 90
6
 70
0
 10
2.8419307675
 20
21.4742379659
 10
2.8136441723
 20
21.4862675311
 10
2.7836569713
 20
21.4948325
 10
2.7524823884
 20
21.4996296684
 10
2.7205777445
 20
21.500448651
 10
2.6886928563
 20
21.4971736113
  0
LINE
  5
4D6
100
AcDbEntity
  8
21814000
100
AcDbLine
 62
250
  6
CONTINUOUS
 10
-3.3924891183
 20
26.0508913009
 11
-3.3890482889
 21
26.049278034
  0
LINE
  5
4D7
100
AcDbEntity
  8
RACCORDO
100
AcDbLine
 62
250
  6
CONTINUOUS
 10
2.8419307675
 20
21.4742379659
 11
2.8377422023
 21
21.4762046217
  0
LWPOLYLINE
  5
4D8
100
AcDbEntity
  8
RACCORDO
100
AcDbPolyline
 62
250
  6
CONTINUOUS
 90
7
 70
0
 10
4.1854319842
 20
20.8024873576
 10
4.1816852553
 20
20.8042582549
 10
4.1623872392
 20
20.8104968265
 10
4.1415613022
 20
20.8127278633
 10
4.1195715848
 20
20.8109175846
 10
4.0967966498
 20
20.8051021033
 10
4.0736302529
 20
20.795386077
  0
LINE
  5
4D9
100
AcDbEntity
  8
RACCORDO
100
AcDbLine
 62
7
  6
CONTINUOUS
 10
2.8419307675
 20
21.4742379659
 11
4.1854336518
 21
20.8024865238
  0
LINE
  5
4DA
100
AcDbEntity
  8
RACCORDO
100
AcDbLine
 62
7
  6
CONTINUOUS
 10
16.206248932
 20
14.7920788837
 11
17.5497518162
 21
14.1203274416
  0
LINE
  5
4DB
100
AcDbEntity
  8
21814000
100
AcDbLine
 62
250
  6
CONTINUOUS
 10
-3.836259766
 20
25.1079560995
 11
-3.0778541674
 21
24.7287533002
  0
LINE
  5
4DC
100
AcDbEntity
  8
21814000
100
AcDbLine
 62
250
  6
CONTINUOUS
 10
-3.7338194185
 20
25.325671683
 11
-2.9754138198
 21
24.9464688836
  0
LINE
  5
4DD
100
AcDbEntity
  8
21814000
100
AcDbLine
 62
7
  6
CONTINUOUS
 10
-4.4470064596
 20
25.9260230642
 11
-1.8600522739
 21
24.6325459714
  0
LINE
  5
4DE
100
AcDbEntity
  8
21814000
100
AcDbLine
 62
250
  6
CONTINUOUS
 10
-1.2526645575
 20
24.9319119752
 11
-3.4772640475
 21
26.0442117202
  0
LINE
  5
4DF
100
AcDbEntity
  8
21814000
100
AcDbLine
 62
7
  6
CONTINUOUS
 10
-1.2031374656
 20
24.9563226229
 11
-3.3890554469
 21
26.0492816135
  0
LINE
  5
4E0
100
AcDbEntity
  8
26814000
100
AcDbLine
 62
7
  6
CONTINUOUS
 10
-0.6565385095
 20
25.2257273881
 11
-3.4570569667
 21
26.6259866167
  0
LINE
  5
4E1
100
AcDbEntity
  8
26814000
100
AcDbLine
 62
7
  6
CONTINUOUS
 10
-3.8106103573
 20
27.3553215014
 11
-3.4570569667
 21
27.1785448061
  0
LWPOLYLINE
  5
4E2
100
AcDbEntity
  8
RACCORDO
100
AcDbPolyline
 62
250
  6
CONTINUOUS
 90
13
 70
0
 10
17.4379484173
 20
14.1132269948
 10
17.4611148142
 20
14.0997766242
 10
17.4838897493
 20
14.0828171705
 10
17.5058794666
 20
14.0626377318
 10
17.5267054037
 20
14.039580758
 10
17.5460034198
 20
14.0140441703
 10
17.5634320808
 20
13.9864772558
 10
17.5787207107
 20
13.9572915212
 10
17.5915629985
 20
13.9270527049
 10
17.60167476
 20
13.896500152
 10
17.608925655
 20
13.8662336278
 10
17.6132795664
 20
13.8366862521
 10
17.6147251126
 20
13.8083322962
  0
LWPOLYLINE
  5
4E3
100
AcDbEntity
  8
RACCORDO
100
AcDbPolyline
 62
7
  6
CONTINUOUS
 90
4
 70
0
 10
16.9928495429
 20
12.0698414641
 10
16.9931937103
 20
12.0694856182
 10
16.9930157372
 20
12.0697394647
 10
16.9910209637
 20
12.0727060357
  0
LWPOLYLINE
  5
4E4
100
AcDbEntity
  8
26814000
100
AcDbPolyline
 62
7
  6
CONTINUOUS
 90
17
 70
0
 10
7.0102816356
 20
24.0820082259
 10
6.9766443418
 20
24.1180703764
 10
6.9429607537
 20
24.1527090361
 10
6.9092308714
 20
24.1859242049
 10
6.8753859696
 20
24.2177315088
 10
6.8414947736
 20
24.2481153219
 10
6.8077634586
 20
24.2770287661
 10
6.7742116632
 20
24.3044479414
 10
6.7408197488
 20
24.3303967477
 10
6.7077349747
 20
24.3549000062
 10
6.6749726613
 20
24.3779437131
 10
6.6425174882
 20
24.3995418721
 10
6.6104707536
 20
24.4197613162
 10
6.578843614
 20
24.4385952302
 10
6.547624913
 20
24.4560504291
 10
6.5168824786
 20
24.4722141906
 10
6.5096098467
 20
24.4758906376
  0
LWPOLYLINE
  5
4E5
100
AcDbEntity
  8
RACCORDO
100
AcDbPolyline
 62
250
  6
CONTINUOUS
 90
7
 70
0
 10
17.1657952367
 20
11.9906394997
 10
17.1542559185
 20
12.0101622464
 10
17.1393840815
 20
12.028894239
 10
17.1211797256
 20
12.0468354776
 10
17.0996428508
 20
12.063985962
 10
17.0747734572
 20
12.0803456923
 10
17.0465715447
 20
12.0959146685
  0
LWPOLYLINE
  5
4E6
100
AcDbEntity
  8
RACCORDO
100
AcDbPolyline
 62
250
  6
CONTINUOUS
 90
6
 70
0
 10
17.6147251126
 20
13.4570183241
 10
17.6246887462
 20
13.4391925857
 10
17.631514708
 20
13.423124337
 10
17.6350657667
 20
13.4090987593
 10
17.6352581457
 20
13.3973614199
 10
17.6320621464
 20
13.3881407493
  0
LWPOLYLINE
  5
4E7
100
AcDbEntity
  8
RACCORDO
100
AcDbPolyline
 62
250
  6
CONTINUOUS
 90
7
 70
0
 10
17.0843950268
 20
12.8168532812
 10
17.0944196721
 20
12.7989042919
 10
17.1012480947
 20
12.782774764
 10
17.1047634583
 20
12.7687406781
 10
17.1049056142
 20
12.7570421613
 10
17.10167213
 20
12.7478793784
 10
17.1001373696
 20
12.7457536356
  0
LWPOLYLINE
  5
4E8
100
AcDbEntity
  8
RACCORDO
100
AcDbPolyline
 62
7
  6
CONTINUOUS
 90
5
 70
0
 10
16.9910209637
 20
12.0727060357
 10
16.9880368279
 20
12.0783761724
 10
16.9849835816
 20
12.0862402902
 10
16.9824183224
 20
12.0962901726
 10
16.9809775535
 20
12.1081064047
  0
LINE
  5
4E9
100
AcDbEntity
  8
21814000
100
AcDbLine
 62
7
  6
CONTINUOUS
 10
11.4185328964
 20
27.4671122513
 11
11.4276483551
 21
27.4432184502
  0
LWPOLYLINE
  5
4EA
100
AcDbEntity
  8
21814000
100
AcDbPolyline
 62
250
  6
CONTINUOUS
 90
35
 70
0
 10
16.9497546551
 20
21.0636498169
 10
16.9613521815
 20
21.0267748964
 10
16.9812896889
 20
20.9538610249
 10
16.997603686
 20
20.8828892745
 10
17.0111994463
 20
20.8138229396
 10
17.0222572031
 20
20.7468440703
 10
17.0307845781
 20
20.6819205688
 10
17.0373842595
 20
20.6186690057
 10
17.0421966734
 20
20.5571103173
 10
17.0452162129
 20
20.4973155116
 10
17.046788351
 20
20.4389568067
 10
17.0470045299
 20
20.3819860773
 10
17.0458735829
 20
20.326509684
 10
17.0435957548
 20
20.2724215821
 10
17.0402346093
 20
20.2197070686
 10
17.0358120332
 20
20.1684209443
 10
17.0304571161
 20
20.1185570077
 10
17.0242283766
 20
20.0701407641
 10
17.0171446085
 20
20.0231748093
 10
17.0092705248
 20
19.9776157642
 10
17.0006638406
 20
19.9334791382
 10
16.991334805
 20
19.890768028
 10
16.9812728865
 20
19.8494179998
 10
16.9705232948
 20
19.809390443
 10
16.9590997401
 20
19.770735407
 10
16.9469437708
 20
19.7335197308
 10
16.9340913272
 20
19.6976926805
 10
16.9205614395
 20
19.6633119947
 10
16.906274247
 20
19.6306064318
 10
16.8912627891
 20
19.599538787
 10
16.8755466908
 20
19.5701511423
 10
16.8590316065
 20
19.542791272
 10
16.8417033285
 20
19.5175770087
 10
16.8236224935
 20
19.4943960329
 10
16.8048066646
 20
19.4732514997
  0
LINE
  5
4EB
100
AcDbEntity
  8
RACCORDO
100
AcDbLine
 62
7
  6
CONTINUOUS
 10
23.0774427362
 20
15.7053483743
 11
23.0774427362
 21
15.4236328889
  0
LINE
  5
4EC
100
AcDbEntity
  8
RACCORDO
100
AcDbLine
 62
7
  6
CONTINUOUS
 10
23.0774427362
 20
-20.7762289893
 11
23.0774427362
 21
-21.0579444747
  0
LWPOLYLINE
  5
4ED
100
AcDbEntity
  8
RACCORDO
100
AcDbPolyline
 62
250
  6
CONTINUOUS
 90
13
 70
0
 10
17.0843950268
 20
-27.7327508582
 10
17.0944196721
 20
-27.7017525254
 10
17.1012480947
 20
-27.6697722335
 10
17.1047634583
 20
-27.6373571742
 10
17.1049056142
 20
-27.6050619781
 10
17.10167213
 20
-27.5734392251
 10
17.0951183315
 20
-27.5430299891
 10
17.085356356
 20
-27.5143545807
 10
17.0725532336
 20
-27.487903644
 10
17.0569280293
 20
-27.4641297618
 10
17.0387480947
 20
-27.443439712
 10
17.0183244934
 20
-27.426187507
 10
16.9960066791
 20
-27.4126683368
  0
LWPOLYLINE
  5
4EE
100
AcDbEntity
  8
RACCORDO
100
AcDbPolyline
 62
250
  6
CONTINUOUS
 90
5
 70
0
 10
17.6147251126
 20
-27.8425858153
 10
17.6246887462
 20
-27.8118151425
 10
17.631514708
 20
-27.7800007728
 10
17.6350657667
 20
-27.7476769253
 10
17.6352581457
 20
-27.7153686746
  0
LWPOLYLINE
  5
4EF
100
AcDbEntity
  8
21814000
100
AcDbPolyline
 62
7
  6
CONTINUOUS
 90
10
 70
0
 10
-3.5144925703
 20
26.0811583704
 10
-3.5956150287
 20
26.0928787251
 10
-3.6778886478
 20
26.1007819764
 10
-3.7606817094
 20
26.1048709399
 10
-3.8435608801
 20
26.105169237
 10
-3.9262907101
 20
26.1016772417
 10
-4.0083414564
 20
26.094381644
 10
-4.089173888
 20
26.083277345
 10
-4.1685720912
 20
26.0682972922
 10
-4.2461229214
 20
26.0493604431
  0
LWPOLYLINE
  5
4F0
100
AcDbEntity
  8
26814000
100
AcDbPolyline
 62
7
  6
CONTINUOUS
 90
13
 70
0
 10
6.2632947471
 20
24.5632681095
 10
6.2286439372
 20
24.5696977907
 10
6.1934397141
 20
24.5750809434
 10
6.1577198622
 20
24.5794430843
 10
6.1214945453
 20
24.5828370074
 10
6.0848268072
 20
24.5852667571
 10
6.0478305973
 20
24.5866779863
 10
6.0105435624
 20
24.5870881212
 10
5.9729925805
 20
24.5865242397
 10
5.9352718796
 20
24.5849322515
 10
5.8974325049
 20
24.5823031605
 10
5.8594833187
 20
24.5786811793
 10
5.8214538792
 20
24.5740863898
  0
LWPOLYLINE
  5
4F1
100
AcDbEntity
  8
21814000
100
AcDbPolyline
 62
250
  6
CONTINUOUS
 90
13
 70
0
 10
-3.4772640475
 20
26.0442117202
 10
-3.5469862775
 20
26.057786465
 10
-3.6177280764
 20
26.0680499661
 10
-3.6894894442
 20
26.0750022236
 10
-3.7629288205
 20
26.0786525982
 10
-3.8373877658
 20
26.0789917292
 10
-3.9108909616
 20
26.0759915346
 10
-3.9834154718
 20
26.0695469729
 10
-4.0549842325
 20
26.0597630856
 10
-4.1236907337
 20
26.0469269151
 10
-4.1888994721
 20
26.0311341423
 10
-4.2512459511
 20
26.0122890863
 10
-4.3107301705
 20
25.9903917471
  0
LINE
  5
4F2
100
AcDbEntity
  8
21814000
100
AcDbLine
 62
7
  6
CONTINUOUS
 10
-3.4350688783
 20
26.0656239832
 11
-3.5144925703
 21
26.0811583704
  0
LINE
  5
4F3
100
AcDbEntity
  8
26814000
100
AcDbLine
 62
7
  6
CONTINUOUS
 10
-13.2920119656
 20
26.6943966055
 11
-13.9143299977
 21
26.824337188
  0
LWPOLYLINE
  5
4F4
100
AcDbEntity
  8
21814000
100
AcDbPolyline
 62
250
  6
CONTINUOUS
 90
4
 70
0
 10
-3.8531969056
 20
25.3643009796
 10
-3.8110737702
 20
25.3547500969
 10
-3.7712812745
 20
25.3418736646
 10
-3.7338194185
 20
25.325671683
  0
LWPOLYLINE
  5
4F5
100
AcDbEntity
  8
21814000
100
AcDbPolyline
 62
7
  6
CONTINUOUS
 90
4
 70
0
 10
-4.4830719633
 20
25.9383633267
 10
-4.4719509236
 20
25.9356861002
 10
-4.4601344826
 20
25.9317089237
 10
-4.447665334
 20
25.9263525014
  0
LWPOLYLINE
  5
4F6
100
AcDbEntity
  8
21814000
100
AcDbPolyline
 62
7
  6
CONTINUOUS
 90
7
 70
0
 10
-3.4350757359
 20
26.0656255077
 10
-3.4272150532
 20
26.0637095022
 10
-3.4181190002
 20
26.0610643591
 10
-3.4091556166
 20
26.0579904471
 10
-3.4003353335
 20
26.054490096
 10
-3.3916778721
 20
26.0505689704
 10
-3.3890373139
 20
26.049272544
  0
LWPOLYLINE
  5
4F7
100
AcDbEntity
  8
26814000
100
AcDbPolyline
 62
7
  6
CONTINUOUS
 90
18
 70
0
 10
-0.9592239918
 20
28.2102853308
 10
-0.9787860761
 20
28.2193750638
 10
-1.0016818563
 20
28.2283604785
 10
-1.0251911426
 20
28.2358627113
 10
-1.0493324647
 20
28.2418968811
 10
-1.074022218
 20
28.2464426655
 10
-1.0992836443
 20
28.2494966489
 10
-1.1250935017
 20
28.2510622469
 10
-1.1512984606
 20
28.2511293834
 10
-1.1778824232
 20
28.2496906075
 10
-1.2048614872
 20
28.2467533701
 10
-1.2321306159
 20
28.2423299489
 10
-1.2597047955
 20
28.2364115632
 10
-1.2875690398
 20
28.2290069937
 10
-1.3155733529
 20
28.2201548591
 10
-1.3436677361
 20
28.2098680324
 10
-1.3719021881
 20
28.1981336407
 10
-1.4002767088
 20
28.1849516839
  0
LWPOLYLINE
  5
4F8
100
AcDbEntity
  8
RACCORDO
100
AcDbPolyline
 62
7
  6
CONTINUOUS
 90
12
 70
0
 10
12.6057317648
 20
20.8220732176
 10
12.5973323978
 20
20.8260201226
 10
12.5785586715
 20
20.8331227992
 10
12.5589354842
 20
20.8382437171
 10
12.5384735797
 20
20.8414079413
 10
12.5174339569
 20
20.8425751111
 10
12.4958092152
 20
20.8417196445
 10
12.4736067551
 20
20.8388671234
 10
12.4511097767
 20
20.8340539326
 10
12.42841268
 20
20.8272922006
 10
12.4054210651
 20
20.8185697991
 10
12.3821349319
 20
20.8078867279
  0
LWPOLYLINE
  5
4F9
100
AcDbEntity
  8
RACCORDO
100
AcDbPolyline
 62
7
  6
CONTINUOUS
 90
12
 70
0
 10
14.9506335563
 20
20.1796442305
 10
14.9395417452
 20
20.1849702348
 10
14.9026926615
 20
20.1996366859
 10
14.8641555271
 20
20.2104368762
 10
14.8239512277
 20
20.2174186417
 10
14.7825813331
 20
20.2204948811
 10
14.7400312411
 20
20.2196166675
 10
14.6963155538
 20
20.2148329278
 10
14.6519796475
 20
20.2062033418
 10
14.6072053142
 20
20.1937478026
 10
14.5618107618
 20
20.1774464169
 10
14.5157959904
 20
20.1572991849
  0
LWPOLYLINE
  5
4FA
100
AcDbEntity
  8
26814000
100
AcDbPolyline
 62
7
  6
CONTINUOUS
 90
10
 70
0
 10
6.5096098467
 20
24.4758906376
 10
6.4866301676
 20
24.4870820698
 10
6.4568541232
 20
24.5006585116
 10
6.4275806041
 20
24.5130441283
 10
6.3987905962
 20
24.5242459249
 10
6.3705031135
 20
24.5342568964
 10
6.3428014571
 20
24.5431566408
 10
6.3157133941
 20
24.5509716908
 10
6.2892111575
 20
24.5576755137
 10
6.2632947471
 20
24.5632681095
  0
LINE
  5
4FB
100
AcDbEntity
  8
0
100
AcDbLine
 62
7
  6
CONTINUOUS
 10
16.1408318827
 20
17.737487735
 11
13.363291153
 21
19.1262580999
  0
LINE
  5
4FC
100
AcDbEntity
  8
26814000
100
AcDbLine
 62
7
  6
CONTINUOUS
 10
0.7512771868
 20
25.9196040465
 11
-2.0592724602
 21
27.32487887
  0
LINE
  5
4FD
100
AcDbEntity
  8
21814000
100
AcDbLine
 62
7
  6
CONTINUOUS
 10
7.5933947964
 20
22.9711902921
 11
6.8056061487
 21
23.3650846159
  0
LINE
  5
4FE
100
AcDbEntity
  8
RACCORDO
100
AcDbLine
 62
250
  6
CONTINUOUS
 10
17.9377333453
 20
18.0300875212
 11
17.3318824002
 21
18.3330129937
  0
LINE
  5
4FF
100
AcDbEntity
  8
RACCORDO
100
AcDbLine
 62
250
  6
CONTINUOUS
 10
12.3821349319
 20
20.8078867279
 11
11.7762839868
 21
21.1108122004
  0
LINE
  5
500
100
AcDbEntity
  8
26814000
100
AcDbLine
 62
7
  6
CONTINUOUS
 10
-0.6993405201
 20
27.3986270574
 11
1.5104003681
 21
26.2937566133
  0
LINE
  5
501
100
AcDbEntity
  8
26814000
100
AcDbLine
 62
7
  6
CONTINUOUS
 10
2.2559851912
 20
25.9209642018
 11
2.4017986013
 21
25.8480574967
  0
LINE
  5
502
100
AcDbEntity
  8
0
100
AcDbLine
 62
7
  6
CONTINUOUS
 10
15.2105620566
 20
19.4436757691
 11
17.3875073683
 21
18.3552031132
  0
LINE
  5
503
100
AcDbEntity
  8
0
100
AcDbLine
 62
7
  6
CONTINUOUS
 10
18.2666023528
 20
17.915655621
 11
18.3841957722
 21
17.8568589113
  0
LINE
  5
504
100
AcDbEntity
  8
RACCORDO
100
AcDbLine
 62
7
  6
CONTINUOUS
 10
18.1600584563
 20
18.0449292582
 11
17.5554891979
 21
18.3472138873
  0
LINE
  5
505
100
AcDbEntity
  8
RACCORDO
100
AcDbLine
 62
7
  6
CONTINUOUS
 10
12.6057417296
 20
20.8220876215
 11
12.0011724713
 21
21.1243722507
  0
LINE
  5
506
100
AcDbEntity
  8
26814000
100
AcDbLine
 62
7
  6
CONTINUOUS
 10
-3.5667982657
 20
29.09559961
 11
-3.3863462886
 21
29.0053736214
  0
LINE
  5
507
100
AcDbEntity
  8
26814000
100
AcDbLine
 62
7
  6
CONTINUOUS
 10
1.9876652484
 20
26.3183678529
 11
2.1681172256
 21
26.2281418643
  0
LINE
  5
508
100
AcDbEntity
  8
RACCORDO
100
AcDbLine
 62
250
  6
CONTINUOUS
 10
11.3515954755
 20
21.7393994423
 11
14.5157959904
 21
20.1572991849
  0
LINE
  5
509
100
AcDbEntity
  8
RACCORDO
100
AcDbLine
 62
250
  6
CONTINUOUS
 10
18.7584366775
 20
18.0359788413
 11
21.9226371923
 21
16.4538785839
  0
LINE
  5
50A
100
AcDbEntity
  8
26814000
100
AcDbLine
 62
250
  6
CONTINUOUS
 10
-4.3793666098
 20
29.6744966343
 11
-1.4002767088
 21
28.1849516839
  0
LINE
  5
50B
100
AcDbEntity
  8
26814000
100
AcDbLine
 62
250
  6
CONTINUOUS
 10
2.8423639783
 20
26.0636313403
 11
5.8214538792
 21
24.5740863898
  0
LINE
  5
50C
100
AcDbEntity
  8
RACCORDO
100
AcDbLine
 62
7
  6
CONTINUOUS
 10
11.6257616125
 20
21.8421161437
 11
14.9506688709
 21
20.1796625145
  0
LINE
  5
50D
100
AcDbEntity
  8
RACCORDO
100
AcDbLine
 62
7
  6
CONTINUOUS
 10
19.193309558
 20
18.0583421709
 11
22.5182168164
 21
16.3958885418
  0
LINE
  5
50E
100
AcDbEntity
  8
26814000
100
AcDbLine
 62
7
  6
CONTINUOUS
 10
3.2834069813
 20
26.0889808069
 11
6.5098968735
 21
24.4757358608
  0
LINE
  5
50F
100
AcDbEntity
  8
0
100
AcDbLine
 62
7
  6
CONTINUOUS
 10
8.5706915402
 20
23.8965061919
 11
7.8637226001
 21
24.249990662
  0
LINE
  5
510
100
AcDbEntity
  8
0
100
AcDbLine
 62
7
  6
CONTINUOUS
 10
8.5706915402
 20
23.8965061919
 11
8.7845839942
 21
23.6989729242
  0
LINE
  5
511
100
AcDbEntity
  8
RACCORDO
100
AcDbLine
 62
250
  6
CONTINUOUS
 10
11.7431385821
 20
24.1926559645
 11
11.7651840804
 21
24.1708260776
  0
LINE
  5
512
100
AcDbEntity
  8
RACCORDO
100
AcDbLine
 62
250
  6
CONTINUOUS
 10
11.7651840804
 20
24.1708260776
 11
11.7805171195
 21
24.1549000867
  0
LWPOLYLINE
  5
513
100
AcDbEntity
  8
RACCORDO
100
AcDbPolyline
 62
7
  6
CONTINUOUS
 90
5
 70
0
 10
17.6647523825
 20
-28.2106776013
 10
17.6770147089
 20
-28.1786367312
 10
17.6848406389
 20
-28.1448072416
 10
17.6879042222
 20
-28.1102120384
 10
17.6879484136
 20
-28.105532996
  0
LWPOLYLINE
  5
514
100
AcDbEntity
  8
RACCORDO
100
AcDbPolyline
 62
7
  6
CONTINUOUS
 90
4
 70
0
 10
14.3757015421
 20
-27.2439049587
 10
14.3610151521
 20
-27.2710583778
 10
14.345161834
 20
-27.2968815504
 10
14.3283695734
 20
-27.3211137916
  0
LINE
  5
515
100
AcDbEntity
  8
RACCORDO
100
AcDbLine
 62
250
  6
CONTINUOUS
 10
13.0765106533
 20
-23.1368895228
 11
14.1697460762
 21
-22.631997176
  0
LINE
  5
516
100
AcDbEntity
  8
RACCORDO
100
AcDbLine
 62
7
  6
CONTINUOUS
 10
13.0569971543
 20
-23.3564056106
 11
14.0692022699
 21
-22.8889357449
  0
LINE
  5
517
100
AcDbEntity
  8
26814000
100
AcDbLine
 62
7
  6
CONTINUOUS
 10
-2.0592724602
 20
27.32487887
 11
-0.6993405201
 21
27.3986270574
  0
LWPOLYLINE
  5
518
100
AcDbEntity
  8
21814000
100
AcDbPolyline
 62
7
  6
CONTINUOUS
 90
3
 70
0
 10
-4.5031631701
 20
25.9401556112
 10
-4.4934831597
 20
25.9398181972
 10
-4.4830719633
 20
25.9383633267
  0
LWPOLYLINE
  5
519
100
AcDbEntity
  8
RACCORDO
100
AcDbPolyline
 62
7
  6
CONTINUOUS
 90
9
 70
0
 10
10.9084737471
 20
24.6890929619
 10
10.9023570066
 20
24.6906924596
 10
10.8925867928
 20
24.6922252735
 10
10.8822605974
 20
24.6926407178
 10
10.8714734002
 20
24.6919389454
 10
10.8605101413
 20
24.690120414
 10
10.8494658006
 20
24.6871852765
 10
10.8382453981
 20
24.6831333801
 10
10.8268489338
 20
24.6779647249
  0
LINE
  5
51A
100
AcDbEntity
  8
0
100
AcDbLine
 62
7
  6
CONTINUOUS
 10
9.5154109484
 20
24.0222457321
 11
9.065666287
 21
24.1439935653
  0
LWPOLYLINE
  5
51B
100
AcDbEntity
  8
RACCORDO
100
AcDbPolyline
 62
7
  6
CONTINUOUS
 90
28
 70
0
 10
10.9084636109
 20
24.6890690094
 10
10.7997482643
 20
24.7203548552
 10
10.6848932214
 20
24.7497085323
 10
10.5676317974
 20
24.7760356024
 10
10.4482586326
 20
24.7992976942
 10
10.3270382609
 20
24.819468247
 10
10.2042088915
 20
24.8365275223
 10
10.0800600941
 20
24.8504513638
 10
9.954876631
 20
24.8612220328
 10
9.8288961135
 20
24.8688294325
 10
9.7024097274
 20
24.8732628112
 10
9.5757070044
 20
24.8745173659
 10
9.449025259
 20
24.8725925928
 10
9.3226539892
 20
24.8674912578
 10
9.1968843986
 20
24.8592220457
 10
9.0719547993
 20
24.8477941702
 10
8.9481559246
 20
24.833224338
 10
8.8257711723
 20
24.8155343164
 10
8.7050227361
 20
24.794740141
 10
8.586187815
 20
24.770868541
 10
8.4695519916
 20
24.7439534892
 10
8.3553404185
 20
24.7140187219
 10
8.2438252403
 20
24.681101618
 10
8.1352790439
 20
24.6452449832
 10
8.0299121524
 20
24.6064733656
 10
7.9279653699
 20
24.5648205573
 10
7.8297192325
 20
24.5203397828
 10
7.7354351713
 20
24.4730823933
  0
LWPOLYLINE
  5
51C
100
AcDbEntity
  8
RACCORDO
100
AcDbPolyline
 62
7
  6
CONTINUOUS
 90
3
 70
0
 10
10.9205144289
 20
24.6842751813
 10
10.9116662186
 20
24.6880424289
 10
10.9084737471
 20
24.6890929619
  0
LINE
  5
51D
100
AcDbEntity
  8
0
100
AcDbLine
 62
7
  6
CONTINUOUS
 10
9.065666287
 20
24.1439935653
 11
8.3586973469
 21
24.4974780354
  0
LINE
  5
51E
100
AcDbEntity
  8
21814000
100
AcDbLine
 62
7
  6
CONTINUOUS
 10
8.0982025746
 20
24.9801236765
 11
7.6595921021
 21
25.1994289128
  0
LINE
  5
51F
100
AcDbEntity
  8
21814000
100
AcDbLine
 62
7
  6
CONTINUOUS
 10
12.3281155546
 20
24.740387302
 11
11.6016181658
 21
25.1036359963
  0
LINE
  5
520
100
AcDbEntity
  8
21814000
100
AcDbLine
 62
7
  6
CONTINUOUS
 10
12.1452858942
 20
24.8474619847
 11
11.8411665102
 21
24.9995216767
  0
LINE
  5
521
100
AcDbEntity
  8
RACCORDO
100
AcDbLine
 62
7
  6
CONTINUOUS
 10
11.7690425663
 20
24.2600111126
 11
11.8818174515
 21
24.2035187864
  0
LWPOLYLINE
  5
522
100
AcDbEntity
  8
RACCORDO
100
AcDbPolyline
 62
7
  6
CONTINUOUS
 90
10
 70
0
 10
11.731098499
 20
24.2726787675
 10
11.6336214453
 20
24.3227341992
 10
11.5380082435
 20
24.3717100748
 10
11.4442588936
 20
24.4196063944
 10
11.3523878123
 20
24.4664245822
 10
11.2623805829
 20
24.5121632139
 10
11.1741939548
 20
24.556818017
 10
11.0878135114
 20
24.6003875671
 10
11.0032536695
 20
24.6428732885
 10
10.9205144289
 20
24.6842751813
  0
LWPOLYLINE
  5
523
100
AcDbEntity
  8
21814000
100
AcDbPolyline
 62
7
  6
CONTINUOUS
 90
10
 70
0
 10
12.1452858942
 20
24.8474619847
 10
12.1138704398
 20
24.865514797
 10
12.0818534625
 20
24.8832820994
 10
12.0492349623
 20
24.900763892
 10
12.0160047716
 20
24.9179652586
 10
11.982173058
 20
24.9348811154
 10
11.9477703247
 20
24.9514962108
 10
11.9128067396
 20
24.9678054608
 10
11.8772721347
 20
24.9838139495
 10
11.8411665102
 20
24.9995216767
  0
LINE
  5
524
100
AcDbEntity
  8
RACCORDO
100
AcDbLine
 62
7
  6
CONTINUOUS
 10
11.7388569277
 20
24.2680922954
 11
11.731098499
 21
24.2726787675
  0
LWPOLYLINE
  5
525
100
AcDbEntity
  8
RACCORDO
100
AcDbPolyline
 62
250
  6
CONTINUOUS
 90
5
 70
0
 10
11.7690425663
 20
24.2600111126
 10
11.7935655566
 20
24.2395067342
 10
11.8179313183
 20
24.2182284697
 10
11.8420680685
 20
24.1961661925
 10
11.8502168959
 20
24.1883522228
  0
LWPOLYLINE
  5
526
100
AcDbEntity
  8
RACCORDO
100
AcDbPolyline
 62
250
  6
CONTINUOUS
 90
4
 70
0
 10
11.6754059672
 20
24.2537151041
 10
11.6982663966
 20
24.2341363707
 10
11.7208439349
 20
24.2137833241
 10
11.7431385821
 20
24.1926559645
  0
LINE
  5
527
100
AcDbEntity
  8
21814000
100
AcDbLine
 62
250
  6
CONTINUOUS
 10
15.9386537806
 20
25.3610665031
 11
16.3581969915
 21
24.6374615017
  0
LINE
  5
528
100
AcDbEntity
  8
21814000
100
AcDbLine
 62
7
  6
CONTINUOUS
 10
16.3289181449
 20
25.3554566893
 11
16.6757559154
 21
24.7572500234
  0
LWPOLYLINE
  5
529
100
AcDbEntity
  8
21814000
100
AcDbPolyline
 62
250
  6
CONTINUOUS
 90
13
 70
0
 10
16.3581969915
 20
24.6374615017
 10
16.4099662409
 20
24.5438809842
 10
16.4580095914
 20
24.4481615296
 10
16.5021213138
 20
24.3507130232
 10
16.5421125151
 20
24.2519527541
 10
16.5778119463
 20
24.1523036291
 10
16.6090667366
 20
24.0521923623
 10
16.6357430483
 20
23.9520476456
 10
16.6577266491
 20
23.852298314
 10
16.674923402
 20
23.7533715106
 10
16.6872596677
 20
23.6556908554
 10
16.6946826209
 20
23.5596746316
 10
16.6971604754
 20
23.4657339952
  0
LWPOLYLINE
  5
52A
100
AcDbEntity
  8
RACCORDO
100
AcDbPolyline
 62
250
  6
CONTINUOUS
 90
10
 70
0
 10
13.8847368419
 20
-27.9998003711
 10
13.8674772292
 20
-28.0223422668
 10
13.8516609126
 20
-28.0465340315
 10
13.8375039764
 20
-28.072045173
 10
13.8251806445
 20
-28.0985727003
 10
13.8148853296
 20
-28.1257107394
 10
13.806794761
 20
-28.152948272
 10
13.8009930716
 20
-28.1798691027
 10
13.7975074595
 20
-28.2061639135
 10
13.7963484942
 20
-28.2314945449
  0
LWPOLYLINE
  5
52B
100
AcDbEntity
  8
RACCORDO
100
AcDbPolyline
 62
250
  6
CONTINUOUS
 90
10
 70
0
 10
15.2282397261
 20
-28.6715518132
 10
15.2109801135
 20
-28.6940937089
 10
15.1951637969
 20
-28.7182854736
 10
15.1810068607
 20
-28.7437966152
 10
15.1686835288
 20
-28.7703241425
 10
15.1583882138
 20
-28.7974621816
 10
15.1502976452
 20
-28.8246997141
 10
15.1444959558
 20
-28.8516205448
 10
15.1410103438
 20
-28.8779153556
 10
15.1398513785
 20
-28.9032459871
  0
LWPOLYLINE
  5
52C
100
AcDbEntity
  8
RACCORDO
100
AcDbPolyline
 62
250
  6
CONTINUOUS
 90
13
 70
0
 10
16.023734855
 20
-28.2630809441
 10
16.0501622257
 20
-28.2290986018
 10
16.0746499728
 20
-28.1938187531
 10
16.0971980962
 20
-28.1572413981
 10
16.1179301895
 20
-28.1190889254
 10
16.1367226593
 20
-28.0796389463
 10
16.1532047245
 20
-28.0397242947
 10
16.1673389214
 20
-27.9993430017
 10
16.1791627139
 20
-27.9584970362
 10
16.188417712
 20
-27.9180251389
 10
16.1950177858
 20
-27.8782068899
 10
16.1990490652
 20
-27.8387627091
 10
16.2005115503
 20
-27.7996925965
  0
LINE
  5
52D
100
AcDbEntity
  8
RACCORDO
100
AcDbLine
 62
7
  6
CONTINUOUS
 10
14.3283695734
 20
-27.3211137916
 11
14.3109362373
 21
-27.3434531611
  0
LINE
  5
52E
100
AcDbEntity
  8
RACCORDO
100
AcDbLine
 62
7
  6
CONTINUOUS
 10
13.7806061514
 20
-27.9836182041
 11
14.3109362373
 21
-27.3434531611
  0
LINE
  5
52F
100
AcDbEntity
  8
RACCORDO
100
AcDbLine
 62
250
  6
CONTINUOUS
 10
13.8847368419
 20
-27.9998003711
 11
14.4150669278
 21
-27.3596353282
  0
LINE
  5
530
100
AcDbEntity
  8
RACCORDO
100
AcDbLine
 62
250
  6
CONTINUOUS
 10
15.758569812
 20
-28.0313867703
 11
15.2282397261
 21
-28.6715518132
  0
LINE
  5
531
100
AcDbEntity
  8
RACCORDO
100
AcDbLine
 62
250
  6
CONTINUOUS
 10
16.023734855
 20
-28.2630809441
 11
15.4934047691
 21
-28.9032459871
  0
LWPOLYLINE
  5
532
100
AcDbEntity
  8
RACCORDO
100
AcDbPolyline
 62
250
  6
CONTINUOUS
 90
8
 70
0
 10
13.7806036914
 20
-27.9836211743
 10
13.7855450664
 20
-27.9793236892
 10
13.7952956423
 20
-27.975624861
 10
13.8080993092
 20
-27.9748015054
 10
13.8237355611
 20
-27.9768675929
 10
13.8419353782
 20
-27.9817872132
 10
13.8623862318
 20
-27.9894755735
 10
13.8847368419
 20
-27.9998003711
  0
LWPOLYLINE
  5
533
100
AcDbEntity
  8
RACCORDO
100
AcDbPolyline
 62
250
  6
CONTINUOUS
 90
8
 70
0
 10
14.3109362373
 20
-27.3434531611
 10
14.3159552754
 20
-27.3391086329
 10
14.3257172509
 20
-27.3354415816
 10
14.3385203733
 20
-27.3346404945
 10
14.3541455776
 20
-27.3367190784
 10
14.3723255122
 20
-27.341641768
 10
14.3927491134
 20
-27.3493243349
 10
14.4150669278
 20
-27.3596353282
  0
LINE
  5
534
100
AcDbEntity
  8
DRAFT
100
AcDbLine
 62
7
  6
CONTINUOUS
 10
18.1450551985
 20
-23.3300473967
 11
23.0774427362
 21
-20.7762289893
  0
LINE
  5
535
100
AcDbEntity
  8
DRAFT
100
AcDbLine
 62
7
  6
CONTINUOUS
 10
18.1450551985
 20
-22.545608592
 11
22.3436652812
 21
-20.4093402618
  0
LINE
  5
536
100
AcDbEntity
  8
RACCORDO
100
AcDbLine
 62
7
  6
CONTINUOUS
 10
18.1450551985
 20
-23.9445572508
 11
21.9226371923
 21
-22.0412012729
  0
LINE
  5
537
100
AcDbEntity
  8
RACCORDO
100
AcDbLine
 62
7
  6
CONTINUOUS
 10
18.1450551985
 20
-23.8069075685
 11
23.033974504
 21
-21.3819675514
  0
LINE
  5
538
100
AcDbEntity
  8
21814000
100
AcDbLine
 62
7
  6
CONTINUOUS
 10
14.5398859279
 20
25.4792483965
 11
11.4276483551
 21
27.035367183
  0
LINE
  5
539
100
AcDbEntity
  8
21814000
100
AcDbLine
 62
250
  6
CONTINUOUS
 10
15.9386537806
 20
25.3610665031
 11
15.1329818445
 21
25.7639024711
  0
LINE
  5
53A
100
AcDbEntity
  8
21814000
100
AcDbLine
 62
250
  6
CONTINUOUS
 10
10.4313187654
 20
28.1147340107
 11
9.4601599317
 21
28.6003134275
  0
LINE
  5
53B
100
AcDbEntity
  8
21814000
100
AcDbLine
 62
7
  6
CONTINUOUS
 10
16.2689291581
 20
25.4117486072
 11
15.443170258
 21
25.8246280573
  0
LINE
  5
53C
100
AcDbEntity
  8
21814000
100
AcDbLine
 62
7
  6
CONTINUOUS
 10
10.9039015369
 20
28.0942624178
 11
9.8515455242
 21
28.6204404242
  0
LWPOLYLINE
  5
53D
100
AcDbEntity
  8
21814000
100
AcDbPolyline
 62
7
  6
CONTINUOUS
 90
4
 70
0
 10
16.27085471
 20
25.4107856339
 10
16.2844981861
 20
25.4029708921
 10
16.3080338826
 20
25.3835986136
 10
16.3282120254
 20
25.3567207821
  0
LWPOLYLINE
  5
53E
100
AcDbEntity
  8
21814000
100
AcDbPolyline
 62
7
  6
CONTINUOUS
 90
35
 70
0
 10
16.9497546551
 20
23.1457378887
 10
17.0665281838
 20
23.0686357825
 10
17.2063248573
 20
22.9641221362
 10
17.3430627131
 20
22.8495935392
 10
17.4759281566
 20
22.7258770347
 10
17.6043136099
 20
22.5937302596
 10
17.72789521
 20
22.4536628536
 10
17.8462753713
 20
22.3062573499
 10
17.9590297544
 20
22.1521464604
 10
18.0657053205
 20
21.9920396763
 10
18.1658623326
 20
21.8266839192
 10
18.2590782763
 20
21.6568661575
 10
18.345031399
 20
21.4832481269
 10
18.4234467806
 20
21.3064101682
 10
18.4940134556
 20
21.1270196044
 10
18.556388038
 20
20.9458850443
 10
18.610272774
 20
20.7637897493
 10
18.6554094971
 20
20.5814851663
 10
18.6915683998
 20
20.3997083293
 10
18.7185441438
 20
20.2191848694
 10
18.7361639491
 20
20.0404824172
 10
18.7442368503
 20
19.8644859014
 10
18.7426367885
 20
19.6923056606
 10
18.7312894164
 20
19.5243896852
 10
18.7101548141
 20
19.3616127489
 10
18.6794254601
 20
19.2055191086
 10
18.6393209677
 20
19.0567771438
 10
18.5899946195
 20
18.9156842134
 10
18.5317994998
 20
18.7830181234
 10
18.4649911162
 20
18.6591207727
 10
18.3899224025
 20
18.5444616745
 10
18.3073326971
 20
18.4398640364
 10
18.2178935261
 20
18.345736697
 10
18.1220692177
 20
18.2621561371
 10
18.0204777482
 20
18.1893072116
  0
LWPOLYLINE
  5
53F
100
AcDbEntity
  8
21814000
100
AcDbPolyline
 62
250
  6
CONTINUOUS
 90
34
 70
0
 10
16.9497546551
 20
23.0671273677
 10
17.0278497459
 20
23.0116155643
 10
17.1649906158
 20
22.902159955
 10
17.2995331074
 20
22.7826344815
 10
17.4308496863
 20
22.6535966328
 10
17.5583278448
 20
22.5156482844
 10
17.6813729816
 20
22.3694328739
 10
17.799411177
 20
22.2156323951
 10
17.9118918716
 20
22.054964213
 10
18.0182904262
 20
21.8881777257
 10
18.1181105692
 20
21.7160508701
 10
18.2108867106
 20
21.5393864953
 10
18.2961861158
 20
21.3590086144
 10
18.3736109246
 20
21.1757585606
 10
18.4428000064
 20
20.9904910627
 10
18.5034306441
 20
20.8040702596
 10
18.5552200396
 20
20.6173656698
 10
18.5979266326
 20
20.4312481357
 10
18.6313512277
 20
20.2465857613
 10
18.6553379232
 20
20.0642398636
 10
18.6697748385
 20
19.8850609545
 10
18.6745946358
 20
19.7098847745
 10
18.6697748342
 20
19.5395283941
 10
18.6553379146
 20
19.3747864029
 10
18.6313512148
 20
19.2164272035
 10
18.5979266155
 20
19.0651894273
 10
18.5552200182
 20
18.9217784896
 10
18.5034306186
 20
18.786863299
 10
18.4427999768
 20
18.6610731376
 10
18.3736108911
 20
18.5449947259
 10
18.2961860784
 20
18.4391694854
 10
18.2108866693
 20
18.3440910145
 10
18.1181105242
 20
18.2602027861
 10
18.0204777482
 20
18.1893072116
  0
LWPOLYLINE
  5
540
100
AcDbEntity
  8
21814000
100
AcDbPolyline
 62
250
  6
CONTINUOUS
 90
12
 70
0
 10
16.6757559154
 20
24.7572500234
 10
16.6743967788
 20
24.7588471374
 10
16.6664778607
 20
24.7613687405
 10
16.6528332682
 20
24.7604999314
 10
16.6335645515
 20
24.756247176
 10
16.6088151186
 20
24.7486421257
 10
16.5787691675
 20
24.7377413812
 10
16.5436503161
 20
24.7236260715
 10
16.5037199371
 20
24.7064012504
 10
16.4592752131
 20
24.6861951141
 10
16.4106469252
 20
24.6631580471
 10
16.3581969905
 20
24.6374615034
  0
LINE
  5
541
100
AcDbEntity
  8
RACCORDO
100
AcDbLine
 62
250
  6
CONTINUOUS
 10
17.330109547
 20
-26.6631983301
 11
17.3645938075
 21
-26.6397988889
  0
LWPOLYLINE
  5
542
100
AcDbEntity
  8
RACCORDO
100
AcDbPolyline
 62
250
  6
CONTINUOUS
 90
9
 70
0
 10
17.3645938075
 20
-26.6397988889
 10
17.3908043481
 20
-26.6221703714
 10
17.4050113828
 20
-26.6128699248
 10
17.420018947
 20
-26.6032335632
 10
17.4357986471
 20
-26.5933070983
 10
17.4523781808
 20
-26.5833300311
 10
17.4697667807
 20
-26.5733821955
 10
17.4879552141
 20
-26.5633837577
 10
17.5069434812
 20
-26.5533347176
  0
LINE
  5
543
100
AcDbEntity
  8
DRAFT
100
AcDbLine
 62
7
  6
CONTINUOUS
 10
15.9867070706
 20
-27.2934402673
 11
16.454349165
 21
-26.9985244499
  0
LWPOLYLINE
  5
544
100
AcDbEntity
  8
RACCORDO
100
AcDbPolyline
 62
250
  6
CONTINUOUS
 90
7
 70
0
 10
16.9076183315
 20
-27.1223167781
 10
16.9252912404
 20
-27.1117626724
 10
16.9407449017
 20
-27.1003916244
 10
16.9538295541
 20
-27.0883299515
 10
16.9644192747
 20
-27.0757099251
 10
16.9724300043
 20
-27.0626684848
 10
16.9737892626
 20
-27.0592996215
  0
LWPOLYLINE
  5
545
100
AcDbEntity
  8
RACCORDO
100
AcDbPolyline
 62
250
  6
CONTINUOUS
 90
6
 70
0
 10
16.9076183315
 20
-27.4461392059
 10
16.9291799712
 20
-27.4338460368
 10
16.9473479871
 20
-27.4202508582
 10
16.9618115193
 20
-27.4055862873
 10
16.9723230927
 20
-27.3901032389
 10
16.9787028515
 20
-27.3740666323
  0
LWPOLYLINE
  5
546
100
AcDbEntity
  8
RACCORDO
100
AcDbPolyline
 62
7
  6
CONTINUOUS
 90
11
 70
0
 10
17.117170348
 20
-26.9860158589
 10
17.1514949372
 20
-26.9674392074
 10
17.1839490168
 20
-26.9484653589
 10
17.215266006
 20
-26.9289653842
 10
17.2455130487
 20
-26.9091989288
 10
17.2741275869
 20
-26.8899237066
 10
17.3009000417
 20
-26.8717505116
 10
17.3261986837
 20
-26.8548593768
 10
17.3493060206
 20
-26.8400904222
 10
17.3687983646
 20
-26.8285077006
 10
17.3845058526
 20
-26.8200731913
  0
LINE
  5
547
100
AcDbEntity
  8
RACCORDO
100
AcDbLine
 62
250
  6
CONTINUOUS
 10
16.2005115503
 20
-27.4909866984
 11
16.9076183315
 21
-27.1223167781
  0
LWPOLYLINE
  5
548
100
AcDbEntity
  8
RACCORDO
100
AcDbPolyline
 62
250
  6
CONTINUOUS
 90
12
 70
0
 10
17.2310959395
 20
-26.7236450481
 10
17.2377437648
 20
-26.720209905
 10
17.2446366002
 20
-26.7165168928
 10
17.2517744459
 20
-26.7125660116
 10
17.2591296596
 20
-26.7083782202
 10
17.2667298835
 20
-26.7039325597
 10
17.274658044
 20
-26.6991661533
 10
17.2829110418
 20
-26.6940768554
 10
17.2914919762
 20
-26.6886668115
 10
17.3004930716
 20
-26.682879581
 10
17.3099048345
 20
-26.6767083325
 10
17.330109547
 20
-26.6631983301
  0
LINE
  5
549
100
AcDbEntity
  8
RACCORDO
100
AcDbLine
 62
7
  6
CONTINUOUS
 10
16.3921242623
 20
-27.3566788474
 11
16.794322222
 21
-27.151021546
  0
LINE
  5
54A
100
AcDbEntity
  8
RACCORDO
100
AcDbLine
 62
250
  6
CONTINUOUS
 10
16.5117825748
 20
-27.0913554299
 11
17.0712613416
 21
-26.8053132805
  0
LINE
  5
54B
100
AcDbEntity
  8
RACCORDO
100
AcDbLine
 62
250
  6
CONTINUOUS
 10
17.0712613416
 20
-26.8053132805
 11
17.2310959395
 21
-26.7236450481
  0
LINE
  5
54C
100
AcDbEntity
  8
RACCORDO
100
AcDbLine
 62
7
  6
CONTINUOUS
 10
16.794322222
 20
-27.151021546
 11
17.117170348
 21
-26.9860158589
  0
LINE
  5
54D
100
AcDbEntity
  8
RACCORDO
100
AcDbLine
 62
250
  6
CONTINUOUS
 10
15.9867070706
 20
-27.3193099051
 11
16.2224593884
 21
-27.2005315192
  0
LINE
  5
54E
100
AcDbEntity
  8
RACCORDO
100
AcDbLine
 62
250
  6
CONTINUOUS
 10
17.5069434812
 20
-26.5533347176
 11
18.1450551985
 21
-26.2318140366
  0
LWPOLYLINE
  5
54F
100
AcDbEntity
  8
RACCORDO
100
AcDbPolyline
 62
7
  6
CONTINUOUS
 90
7
 70
0
 10
15.857211225
 20
-27.5896001952
 10
16.1018994363
 20
-27.4663168877
 10
16.1166417951
 20
-27.4596011493
 10
16.1331173433
 20
-27.453211355
 10
16.1507485679
 20
-27.4471938868
 10
16.1699734088
 20
-27.4411383793
 10
16.2169940583
 20
-27.4267518158
  0
LINE
  5
550
100
AcDbEntity
  8
RACCORDO
100
AcDbLine
 62
7
  6
CONTINUOUS
 10
18.0155593528
 20
-26.5021043266
 11
17.3845021302
 21
-26.8200660357
  0
LINE
  5
551
100
AcDbEntity
  8
RACCORDO
100
AcDbLine
 62
250
  6
CONTINUOUS
 10
16.1808633101
 20
-27.5005531383
 11
16.2005115503
 21
-27.4909866984
  0
LWPOLYLINE
  5
552
100
AcDbEntity
  8
RACCORDO
100
AcDbPolyline
 62
250
  6
CONTINUOUS
 90
9
 70
0
 10
16.2224593884
 20
-27.2005315192
 10
16.2402405581
 20
-27.1919512292
 10
16.2577977397
 20
-27.183930074
 10
16.2751309332
 20
-27.1764680535
 10
16.2923815112
 20
-27.1695821942
 10
16.309408101
 20
-27.1632554696
 10
16.3257865847
 20
-27.1574368003
 10
16.3414224428
 20
-27.152169378
 10
16.3564101947
 20
-27.147410011
  0
LWPOLYLINE
  5
553
100
AcDbEntity
  8
RACCORDO
100
AcDbPolyline
 62
250
  6
CONTINUOUS
 90
13
 70
0
 10
15.4934047691
 20
-29.2545599591
 10
15.4693984566
 20
-29.2651175691
 10
15.4426966909
 20
-29.2741145406
 10
15.4136934478
 20
-29.2813652671
 10
15.3827637406
 20
-29.2867183592
 10
15.3504744048
 20
-29.2900207393
 10
15.3175972794
 20
-29.2911706721
 10
15.284775548
 20
-29.2901528768
 10
15.2525053774
 20
-29.286989946
 10
15.2213556533
 20
-29.281738871
 10
15.1918667577
 20
-29.2744936014
 10
15.164542315
 20
-29.2653808878
 10
15.1398513785
 20
-29.2545599591
  0
LWPOLYLINE
  5
554
100
AcDbEntity
  8
RACCORDO
100
AcDbPolyline
 62
250
  6
CONTINUOUS
 90
13
 70
0
 10
16.2005115503
 20
-27.7996925965
 10
16.1759252122
 20
-27.8104734164
 10
16.148734855
 20
-27.8195574243
 10
16.1194057131
 20
-27.8267891904
 10
16.0884396162
 20
-27.8320449771
 10
16.056366403
 20
-27.8352348565
 10
16.023734855
 20
-27.8363042488
 10
15.9911033069
 20
-27.8352348565
 10
15.9590300937
 20
-27.8320449771
 10
15.9280639969
 20
-27.8267891904
 10
15.898734855
 20
-27.8195574243
 10
15.8715444977
 20
-27.8104734164
 10
15.8469581597
 20
-27.7996925965
  0
LWPOLYLINE
  5
555
100
AcDbEntity
  8
RACCORDO
100
AcDbPolyline
 62
250
  6
CONTINUOUS
 90
13
 70
0
 10
15.4934047691
 20
-28.9032459871
 10
15.468818431
 20
-28.9140268069
 10
15.4416280738
 20
-28.9231108149
 10
15.4122989319
 20
-28.930342581
 10
15.3813328351
 20
-28.9355983677
 10
15.3492596218
 20
-28.9387882471
 10
15.3166280738
 20
-28.9398576394
 10
15.2839965257
 20
-28.9387882471
 10
15.2519233125
 20
-28.9355983677
 10
15.2209572157
 20
-28.930342581
 10
15.1916280738
 20
-28.9231108149
 10
15.1644377165
 20
-28.9140268069
 10
15.1398513785
 20
-28.9032459871
  0
LWPOLYLINE
  5
556
100
AcDbEntity
  8
RACCORDO
100
AcDbPolyline
 62
250
  6
CONTINUOUS
 90
11
 70
0
 10
8.3039133073
 20
-29.7661112777
 10
8.3240666219
 20
-29.7588889796
 10
8.3741375075
 20
-29.7344985329
 10
8.4207367684
 20
-29.7021199375
 10
8.4633540555
 20
-29.6621078647
 10
8.501522653
 20
-29.6149005786
 10
8.5348245774
 20
-29.5610151328
 10
8.5628951419
 20
-29.5010417258
 10
8.5854269618
 20
-29.4356372192
 10
8.6021733177
 20
-29.3655179397
 10
8.6129508517
 20
-29.2914518428
  0
LWPOLYLINE
  5
557
100
AcDbEntity
  8
ASSI
100
AcDbPolyline
 62
250
  6
CONTINUOUS
 90
11
 70
0
 10
8.3039133073
 20
-29.7661112777
 10
8.3240666219
 20
-29.7588889796
 10
8.3741375075
 20
-29.7344985329
 10
8.4207367684
 20
-29.7021199375
 10
8.4633540555
 20
-29.6621078647
 10
8.501522653
 20
-29.6149005786
 10
8.5348245774
 20
-29.5610151328
 10
8.5628951419
 20
-29.5010417258
 10
8.5854269618
 20
-29.4356372192
 10
8.6021733177
 20
-29.3655179397
 10
8.6129508517
 20
-29.2914518428
  0
LINE
  5
558
100
AcDbEntity
  8
RACCORDO
100
AcDbLine
 62
250
  6
CONTINUOUS
 10
12.6456486099
 20
-27.9838495792
 11
8.6129508517
 21
-29.2914518428
  0
LINE
  5
559
100
AcDbEntity
  8
ASSI
100
AcDbLine
 62
250
  6
CONTINUOUS
 10
12.6456486099
 20
-27.9838495792
 11
8.6129508517
 21
-29.2914518428
  0
LINE
  5
55A
100
AcDbEntity
  8
RACCORDO
100
AcDbLine
 62
7
  6
CONTINUOUS
 10
8.3033238388
 20
-29.7663018369
 11
12.3404599287
 21
-28.4572610202
  0
LINE
  5
55B
100
AcDbEntity
  8
ASSI
100
AcDbLine
 62
7
  6
CONTINUOUS
 10
8.30325621
 20
-29.7663236258
 11
12.3404599287
 21
-28.4572610202
  0
LWPOLYLINE
  5
55C
100
AcDbEntity
  8
RACCORDO
100
AcDbPolyline
 62
7
  6
CONTINUOUS
 90
7
 70
0
 10
16.2169940583
 20
-27.4267518158
 10
16.2432457706
 20
-27.4183110586
 10
16.2716030057
 20
-27.4085667196
 10
16.3005993836
 20
-27.3977494049
 10
16.3303275514
 20
-27.385619591
 10
16.363275363
 20
-27.3708409003
 10
16.3922143758
 20
-27.3566358956
  0
LWPOLYLINE
  5
55D
100
AcDbEntity
  8
RACCORDO
100
AcDbPolyline
 62
250
  6
CONTINUOUS
 90
13
 70
0
 10
16.4083339843
 20
-27.1314658926
 10
16.4194901582
 20
-27.1279684126
 10
16.4299653912
 20
-27.1246218075
 10
16.4399302198
 20
-27.121311615
 10
16.4493963509
 20
-27.1180150938
 10
16.4583520776
 20
-27.1147549851
 10
16.4669328154
 20
-27.1114850503
 10
16.4751478041
 20
-27.1081976985
 10
16.4829878039
 20
-27.1049005207
 10
16.4905605113
 20
-27.1015700515
 10
16.4979018249
 20
-27.098198469
 10
16.5049758461
 20
-27.0947935952
 10
16.5117825748
 20
-27.0913554299
  0
LWPOLYLINE
  5
55E
100
AcDbEntity
  8
RACCORDO
100
AcDbPolyline
 62
250
  6
CONTINUOUS
 90
3
 70
0
 10
16.3564101947
 20
-27.147410011
 10
16.3839369395
 20
-27.1388721018
 10
16.4083339843
 20
-27.1314658926
  0
LWPOLYLINE
  5
55F
100
AcDbEntity
  8
RACCORDO
100
AcDbPolyline
 62
7
  6
CONTINUOUS
 90
6
 70
0
 10
17.5497518162
 20
-28.3291182375
 10
17.5780865865
 20
-28.3125398707
 10
17.6044180155
 20
-28.2920255887
 10
17.6280508195
 20
-28.2678723855
 10
17.6483235513
 20
-28.2405754586
 10
17.6647523825
 20
-28.2106776013
  0
LINE
  5
560
100
AcDbEntity
  8
RACCORDO
100
AcDbLine
 62
250
  6
CONTINUOUS
 10
15.4934047691
 20
-29.2545599591
 11
17.6147251126
 21
-28.1938997874
  0
LINE
  5
561
100
AcDbEntity
  8
RACCORDO
100
AcDbLine
 62
7
  6
CONTINUOUS
 10
15.4284314727
 20
-29.3897784092
 11
17.5497518162
 21
-28.3291182375
  0
LWPOLYLINE
  5
562
100
AcDbEntity
  8
RACCORDO
100
AcDbPolyline
 62
7
  6
CONTINUOUS
 90
9
 70
0
 10
15.4284314727
 20
-29.3897784092
 10
15.4001448775
 20
-29.4018079744
 10
15.3701576764
 20
-29.4103729433
 10
15.3389830935
 20
-29.4151701117
 10
15.3070784496
 20
-29.4159890943
 10
15.2751935614
 20
-29.4127140546
 10
15.2441860307
 20
-29.4054458274
 10
15.2142259801
 20
-29.3942368424
 10
15.2046630447
 20
-29.3896973992
  0
ARC
  5
563
100
AcDbEntity
  8
RACCORDO
100
AcDbCircle
 62
7
  6
CONTINUOUS
 10
1.9523099094
 20
19.1669055822
 40
0.25
100
AcDbArc
 50
244.0406531095
 51
258.6758098606
  0
ELLIPSE
  5
564
100
AcDbEntity
  8
21814000
100
AcDbEllipse
 62
7
  6
CONTINUOUS
 10
9.3531922928
 20
25.2981435035
 30
0.0
 11
3.3311333813
 21
-0.0467042088
 31
0.0
 40
0.4892378494
 41
3.8528301344
 42
5.5059722822
  0
ELLIPSE
  5
565
100
AcDbEntity
  8
21814000
100
AcDbEllipse
 62
7
  6
CONTINUOUS
 10
10.0486825539
 20
24.0048836869
 30
0.0
 11
2.7583300471
 21
-0.038763314
 31
0.0
 40
0.4892375088
 41
0.4291477653
 42
0.6564870977
  0
ELLIPSE
  5
566
100
AcDbEntity
  8
21814000
100
AcDbEllipse
 62
7
  6
CONTINUOUS
 10
9.3769311118
 20
24.1163813709
 30
0.0
 11
2.7499350056
 21
-0.0386453369
 31
0.0
 40
0.4892375088
 41
8.654981679
 42
9.2557277435
  0
ELLIPSE
  5
567
100
AcDbEntity
  8
21814000
100
AcDbEllipse
 62
7
  6
CONTINUOUS
 10
10.0486825539
 20
24.0048836869
 30
0.0
 11
2.7583300471
 21
-0.038763314
 31
0.0
 40
0.4892375088
 41
0.9280596999
 42
2.3630697256
  0
ELLIPSE
  5
568
100
AcDbEntity
  8
21814000
100
AcDbEllipse
 62
7
  6
CONTINUOUS
 10
14.7543967851
 20
25.1627842039
 30
0.0
 11
0.716172246
 21
0.6416715914
 31
0.0
 40
0.2882345029
 41
0.1142323894
 42
0.7807533904
  0
ELLIPSE
  5
569
100
AcDbEntity
  8
21814000
100
AcDbEllipse
 62
7
  6
CONTINUOUS
 10
10.0486825539
 20
25.9495943981
 30
0.0
 11
2.7583515655
 21
-1.4175703156
 31
0.0
 40
0.0109499087
 41
-0.9155571536
 42
-0.85781018
  0
ELLIPSE
  5
56A
100
AcDbEntity
  8
21814000
100
AcDbEllipse
 62
7
  6
CONTINUOUS
 10
10.0486825539
 20
25.9495943981
 30
0.0
 11
2.7583515655
 21
-1.4175703156
 31
0.0
 40
0.0109499087
 41
-0.7017315251
 42
-0.6439845515
  0
ELLIPSE
  5
56B
100
AcDbEntity
  8
21814000
100
AcDbEllipse
 62
7
  6
CONTINUOUS
 10
10.0486825539
 20
24.4378963887
 30
0.0
 11
2.7583300471
 21
-0.038763314
 31
0.0
 40
0.4892375088
 41
0.1708839954
 42
2.3630697256
  0
ELLIPSE
  5
56C
100
AcDbEntity
  8
21814000
100
AcDbEllipse
 62
7
  6
CONTINUOUS
 10
10.787690538
 20
27.1461373274
 30
0.0
 11
-0.2796057293
 21
0.9974617846
 31
0.0
 40
0.6760995073
 41
4.8467711056
 42
6.4001141399
  0
ELLIPSE
  5
56D
100
AcDbEntity
  8
21814000
100
AcDbEllipse
 62
7
  6
CONTINUOUS
 10
9.3531922928
 20
25.2981435035
 30
0.0
 11
3.3311333813
 21
-0.0467042088
 31
0.0
 40
0.4892378494
 41
2.3616770883
 42
3.7058786528
  0
ELLIPSE
  5
56E
100
AcDbEntity
  8
26814000
100
AcDbEllipse
 62
7
  6
CONTINUOUS
 10
-15.4332607973
 20
27.8596909355
 30
0.0
 11
0.110769438
 21
0.2241226716
 31
0.0
 40
0.6088015717
 41
-4.0304836828
 42
-3.1443650652
  0
ELLIPSE
  5
56F
100
AcDbEntity
  8
26814000
100
AcDbEllipse
 62
7
  6
CONTINUOUS
 10
-2.0689426329
 20
21.1775318533
 30
0.0
 11
0.110769438
 21
0.2241226716
 31
0.0
 40
0.6088015717
 41
-4.0304836828
 42
-3.1443650652
  0
ELLIPSE
  5
570
100
AcDbEntity
  8
26814000
100
AcDbEllipse
 62
7
  6
CONTINUOUS
 10
-3.7789303001
 20
28.9910451093
 30
0.0
 11
0.2999991737
 21
-0.0014183462
 31
0.0
 40
0.4964289597
 41
0.7877451926
 42
2.3527237553
  0
ELLIPSE
  5
571
100
AcDbEntity
  8
26814000
100
AcDbEllipse
 62
7
  6
CONTINUOUS
 10
1.7755332141
 20
26.2138133523
 30
0.0
 11
0.2999991737
 21
-0.0014183462
 31
0.0
 40
0.4964289597
 41
0.7877451926
 42
2.3585415194
  0
ELLIPSE
  5
572
100
AcDbEntity
  8
26814000
100
AcDbEllipse
 62
7
  6
CONTINUOUS
 10
-12.0494328149
 20
27.1855438973
 30
0.0
 11
0.110769438
 21
0.2241226716
 31
0.0
 40
0.6088015717
 41
1.2055040732
 42
2.2526937431
  0
ELLIPSE
  5
573
100
AcDbEntity
  8
26814000
100
AcDbEllipse
 62
7
  6
CONTINUOUS
 10
1.6663818267
 20
21.4311899671
 30
0.0
 11
0.110769438
 21
0.2241226716
 31
0.0
 40
0.6088015717
 41
-1.9360885804
 42
-0.8888910292
  0
ELLIPSE
  5
574
100
AcDbEntity
  8
26814000
100
AcDbEllipse
 62
7
  6
CONTINUOUS
 10
0.0462069703
 20
22.5022063716
 30
0.0
 11
0.1128509832
 21
0.2230818409
 31
0.0
 40
0.6159267166
 41
0.0028979148
 42
0.6817883054
  0
ELLIPSE
  5
575
100
AcDbEntity
  8
26814000
100
AcDbEllipse
 62
7
  6
CONTINUOUS
 10
-2.0689426329
 20
21.430903247
 30
0.0
 11
0.110769438
 21
0.2241226716
 31
0.0
 40
0.6088015717
 41
0.6877230618
 42
2.2527016244
  0
ELLIPSE
  5
576
100
AcDbEntity
  8
26814000
100
AcDbEllipse
 62
7
  6
CONTINUOUS
 10
-11.6979363377
 20
28.1133490493
 30
0.0
 11
0.110769438
 21
0.2241226716
 31
0.0
 40
0.6088015717
 41
-1.9360885804
 42
-0.8888910292
  0
ELLIPSE
  5
577
100
AcDbEntity
  8
26814000
100
AcDbEllipse
 62
7
  6
CONTINUOUS
 10
-13.3181111941
 20
29.1843654538
 30
0.0
 11
0.1128509832
 21
0.2230818409
 31
0.0
 40
0.6159267166
 41
0.0028979148
 42
0.6817883054
  0
ELLIPSE
  5
578
100
AcDbEntity
  8
26814000
100
AcDbEllipse
 62
7
  6
CONTINUOUS
 10
-15.4332607973
 20
28.1130623293
 30
0.0
 11
0.110769438
 21
0.2241226716
 31
0.0
 40
0.6088015717
 41
0.6877230618
 42
2.2527016244
  0
ELLIPSE
  5
579
100
AcDbEntity
  8
26814000
100
AcDbEllipse
 62
7
  6
CONTINUOUS
 10
-11.6979363377
 20
28.3742780257
 30
0.0
 11
0.110769438
 21
0.2241226716
 31
0.0
 40
0.6088015717
 41
5.394294278
 42
6.9592728406
  0
ELLIPSE
  5
57A
100
AcDbEntity
  8
26814000
100
AcDbEllipse
 62
7
  6
CONTINUOUS
 10
1.6663818267
 20
21.6921189434
 30
0.0
 11
0.110769438
 21
0.2241226716
 31
0.0
 40
0.6088015717
 41
5.394294278
 42
6.9592728406
  0
ELLIPSE
  5
57B
100
AcDbEntity
  8
26814000
100
AcDbEllipse
 62
7
  6
CONTINUOUS
 10
-3.598478323
 20
27.6689849394
 30
0.0
 11
0.2999981629
 21
-0.0021225547
 31
0.0
 40
0.4946372042
 41
-0.7818985079
 42
0.0034997008
  0
ELLIPSE
  5
57C
100
AcDbEntity
  8
26814000
100
AcDbEllipse
 62
7
  6
CONTINUOUS
 10
1.9559851912
 20
24.8917531823
 30
0.0
 11
0.2999981629
 21
-0.0021225547
 31
0.0
 40
0.4946372042
 41
-0.7760807437
 42
0.0035109161
  0
ELLIPSE
  5
57D
100
AcDbEntity
  8
26814000
100
AcDbEllipse
 62
7
  6
CONTINUOUS
 10
-9.7474240504
 20
26.0708637414
 30
0.0
 11
0.2999991335
 21
0.0014318851
 31
0.0
 40
0.5035541159
 41
8.6427941204
 42
10.207772683
  0
ELLIPSE
  5
57E
100
AcDbEntity
  8
26814000
100
AcDbEllipse
 62
7
  6
CONTINUOUS
 10
-15.7607149594
 20
26.2737936401
 30
0.0
 11
-0.1565168911
 21
0.3130623908
 31
0.0
 40
0.6123677712
 41
-0.6846781644
 42
0.8861181623
  0
ELLIPSE
  5
57F
100
AcDbEntity
  8
26814000
100
AcDbEllipse
 62
7
  6
CONTINUOUS
 10
-0.4872084857
 20
18.6370404033
 30
0.0
 11
-0.1565168911
 21
0.3130623908
 31
0.0
 40
0.6123677712
 41
-2.2554744912
 42
-0.6846781644
  0
ELLIPSE
  5
580
100
AcDbEntity
  8
26814000
100
AcDbEllipse
 62
7
  6
CONTINUOUS
 10
-3.9549149824
 20
23.1746092074
 30
0.0
 11
0.2999991335
 21
0.0014318851
 31
0.0
 40
0.5035541159
 41
-2.3585979313
 42
-0.7936193687
  0
ELLIPSE
  5
581
100
AcDbEntity
  8
26814000
100
AcDbEllipse
 62
7
  6
CONTINUOUS
 10
-3.9549149824
 20
21.9604101315
 30
0.0
 11
0.2999980272
 21
0.0021530184
 31
0.0
 40
0.5053247124
 41
-2.3598210761
 42
-0.7948425135
  0
ELLIPSE
  5
582
100
AcDbEntity
  8
26814000
100
AcDbEllipse
 62
7
  6
CONTINUOUS
 10
-9.7474240504
 20
24.8566646656
 30
0.0
 11
0.2999980272
 21
0.0021530184
 31
0.0
 40
0.5053247124
 41
3.1379773283
 42
3.9233642311
  0
ELLIPSE
  5
583
100
AcDbEntity
  8
26814000
100
AcDbEllipse
 62
7
  6
CONTINUOUS
 10
1.9559851912
 20
26.1235873637
 30
0.0
 11
0.2999991737
 21
-0.0014183462
 31
0.0
 40
0.4964289597
 41
-0.77723337
 42
0.7877451926
  0
ELLIPSE
  5
584
100
AcDbEntity
  8
26814000
100
AcDbEllipse
 62
7
  6
CONTINUOUS
 10
-3.598478323
 20
28.9008191208
 30
0.0
 11
0.2999991737
 21
-0.0014183462
 31
0.0
 40
0.4964289597
 41
-0.7830511342
 42
0.7877451926
  0
ELLIPSE
  5
585
100
AcDbEntity
  8
26814000
100
AcDbEllipse
 62
7
  6
CONTINUOUS
 10
-0.4611092572
 20
20.6269865592
 30
0.0
 11
0.1128509832
 21
0.2230818409
 31
0.0
 40
0.6159267166
 41
0.6934238338
 42
2.2584023964
  0
ELLIPSE
  5
586
100
AcDbEntity
  8
26814000
100
AcDbEllipse
 62
7
  6
CONTINUOUS
 10
-0.4611092572
 20
20.3736151655
 30
0.0
 11
0.1128509832
 21
0.2230818409
 31
0.0
 40
0.6159267166
 41
-4.0247829108
 42
-2.9775853596
  0
ELLIPSE
  5
587
100
AcDbEntity
  8
26814000
100
AcDbEllipse
 62
7
  6
CONTINUOUS
 10
-13.8254274216
 20
27.3091456414
 30
0.0
 11
0.1128509832
 21
0.2230818409
 31
0.0
 40
0.6159267166
 41
0.6934238338
 42
2.2584023964
  0
ELLIPSE
  5
588
100
AcDbEntity
  8
26814000
100
AcDbEllipse
 62
7
  6
CONTINUOUS
 10
-13.8254274216
 20
27.0557742477
 30
0.0
 11
0.1128509832
 21
0.2230818409
 31
0.0
 40
0.6159267166
 41
-4.0247829108
 42
-2.9775853596
  0
ELLIPSE
  5
589
100
AcDbEntity
  8
RACCORDO
100
AcDbEllipse
 62
7
  6
CONTINUOUS
 10
17.7914479518
 20
11.8464053834
 30
0.0
 11
-0.2237009107
 21
0.4473351135
 31
0.0
 40
0.6121897086
 41
-2.2557347926
 42
-0.6846338794
  0
ELLIPSE
  5
58A
100
AcDbEntity
  8
RACCORDO
100
AcDbEllipse
 62
7
  6
CONTINUOUS
 10
17.7914479518
 20
-26.0551423231
 30
0.0
 11
-0.2235807756
 21
0.4472283268
 31
0.0
 40
0.6125552124
 41
-3.139671321
 42
-2.255296188
  0
ELLIPSE
  5
58B
100
AcDbEntity
  8
RACCORDO
100
AcDbEllipse
 62
7
  6
CONTINUOUS
 10
22.6172955628
 20
-21.5349776692
 30
0.0
 11
0.9987332359
 21
0.6172510855
 31
0.0
 40
0.0815198604
 41
-2.3890806779
 42
-1.1913468732
  0
ELLIPSE
  5
58C
100
AcDbEntity
  8
RACCORDO
100
AcDbEllipse
 62
7
  6
CONTINUOUS
 10
22.3826785498
 20
-21.4176691627
 30
0.0
 11
0.4349639225
 21
0.9005141702
 31
0.0
 40
0.6016116119
 41
-1.2499156631
 42
-0.8943064336
  0
ELLIPSE
  5
58D
100
AcDbEntity
  8
RACCORDO
100
AcDbEllipse
 62
7
  6
CONTINUOUS
 10
22.3826785498
 20
15.3456236863
 30
0.0
 11
0.4349639225
 21
0.9005141702
 31
0.0
 40
0.6016116119
 41
-0.8943064336
 42
-0.538697204
  0
ELLIPSE
  5
58E
100
AcDbEntity
  8
RACCORDO
100
AcDbEllipse
 62
7
  6
CONTINUOUS
 10
10.6322556752
 20
21.2208351236
 30
0.0
 11
0.9987332359
 21
0.6172510855
 31
0.0
 40
0.0815198604
 41
0.0505521044
 42
0.7176053907
  0
ELLIPSE
  5
58F
100
AcDbEntity
  8
RACCORDO
100
AcDbEllipse
 62
7
  6
CONTINUOUS
 10
11.7762839868
 20
20.6777994985
 30
0.0
 11
0.2256808774
 21
0.4461742732
 31
0.0
 40
0.6158912572
 41
0.0028657685
 42
0.6875768343
  0
ELLIPSE
  5
590
100
AcDbEntity
  8
RACCORDO
100
AcDbEllipse
 62
7
  6
CONTINUOUS
 10
15.633099824
 20
-27.1426381917
 30
0.0
 11
-0.2235807756
 21
0.4472283268
 31
0.0
 40
0.6125552124
 41
2.4567882058
 42
4.0278891191
  0
ELLIPSE
  5
591
100
AcDbEntity
  8
RACCORDO
100
AcDbEllipse
 62
7
  6
CONTINUOUS
 10
0.6458886655
 20
18.3432142719
 30
0.0
 11
-0.2235807756
 21
0.4472283268
 31
0.0
 40
0.6125552124
 41
-0.6848044477
 42
0.8862964655
  0
ELLIPSE
  5
592
100
AcDbEntity
  8
RACCORDO
100
AcDbEllipse
 62
7
  6
CONTINUOUS
 10
17.9377333453
 20
17.5970748193
 30
0.0
 11
0.2215594226
 21
0.4482351134
 31
0.0
 40
0.6088373611
 41
5.3943220613
 42
6.9651183881
  0
ELLIPSE
  5
593
100
AcDbEntity
  8
RACCORDO
100
AcDbEllipse
 62
7
  6
CONTINUOUS
 10
15.633099824
 20
10.8496086927
 30
0.0
 11
-0.2237009107
 21
0.4473351135
 31
0.0
 40
0.6121897086
 41
4.0274505145
 42
5.5985514278
  0
ELLIPSE
  5
594
100
AcDbEntity
  8
RACCORDO
100
AcDbEllipse
 62
7
  6
CONTINUOUS
 10
22.6172955628
 20
15.2283151798
 30
0.0
 11
-0.7417913999
 21
1.2002436976
 31
0.0
 40
0.5587454355
 41
5.0176587298
 42
6.2153925345
  0
ELLIPSE
  5
595
100
AcDbEntity
  8
RACCORDO
100
AcDbEllipse
 62
7
  6
CONTINUOUS
 10
11.9599013427
 20
14.1572719725
 30
0.0
 11
0.4999881828
 21
-0.0070264249
 31
0.0
 40
0.4892375088
 41
-2.3493192548
 42
-0.7727633415
  0
ELLIPSE
  5
596
100
AcDbEntity
  8
RACCORDO
100
AcDbEllipse
 62
7
  6
CONTINUOUS
 10
6.4404074903
 20
16.9170188987
 30
0.0
 11
0.4999881828
 21
-0.0070264249
 31
0.0
 40
0.4892375088
 41
-3.1347355197
 42
-2.3493192548
  0
ELLIPSE
  5
597
100
AcDbEntity
  8
RACCORDO
100
AcDbEllipse
 62
7
  6
CONTINUOUS
 10
13.8161253454
 20
-22.4550678701
 30
0.0
 11
-0.2713091605
 21
0.4239062184
 31
0.0
 40
0.5451249042
 41
-3.2164578779
 42
-2.3115524019
  0
ELLIPSE
  5
598
100
AcDbEntity
  8
RACCORDO
100
AcDbEllipse
 62
7
  6
CONTINUOUS
 10
-14.6340389507
 20
24.8750621749
 30
0.0
 11
-0.2714549605
 21
0.7527883138
 31
0.0
 40
0.6648474984
 41
-0.6093959365
 42
0.0215116483
  0
ELLIPSE
  5
599
100
AcDbEntity
  8
RACCORDO
100
AcDbEllipse
 62
7
  6
CONTINUOUS
 10
12.0798965231
 20
-27.7007443288
 30
0.0
 11
-0.2714549605
 21
0.7527883138
 31
0.0
 40
0.6648474984
 41
-3.1632188559
 42
-2.1804968498
  0
ELLIPSE
  5
59A
100
AcDbEntity
  8
RACCORDO
100
AcDbEllipse
 62
7
  6
CONTINUOUS
 10
15.4178269102
 20
9.8491292444
 30
0.0
 11
-0.2711888907
 21
0.7526410468
 31
0.0
 40
0.6652277853
 41
-2.1799207184
 42
-0.6094289781
  0
ELLIPSE
  5
59B
100
AcDbEntity
  8
ASSI
100
AcDbEllipse
 62
7
  6
CONTINUOUS
 10
-14.6340389507
 20
24.8750621749
 30
0.0
 11
-0.2714549605
 21
0.7527883138
 31
0.0
 40
0.6648474984
 41
-0.6093959365
 42
0.0215116483
  0
ELLIPSE
  5
59C
100
AcDbEntity
  8
ASSI
100
AcDbEllipse
 62
7
  6
CONTINUOUS
 10
12.0798965231
 20
-27.7007443288
 30
0.0
 11
-0.2714549605
 21
0.7527883138
 31
0.0
 40
0.6648474984
 41
-3.1632188559
 42
-2.1804968498
  0
ELLIPSE
  5
59D
100
AcDbEntity
  8
ASSI
100
AcDbEllipse
 62
7
  6
CONTINUOUS
 10
15.4178269102
 20
9.8491292444
 30
0.0
 11
-0.2711888907
 21
0.7526410468
 31
0.0
 40
0.6652277853
 41
-2.1799207184
 42
-0.6094289781
  0
ENDSEC
  0
SECTION
  2
OBJECTS
  0
DICTIONARY
  5
C
100
AcDbDictionary
280
0
281
1
  3
ACAD_GROUP
350
D
  3
ACAD_MLINESTYLE
350
17
  3
ACAD_LAYOUT
350
1A
  3
ACAD_PLOTSETTINGS
350
19
  3
ACAD_PLOTSTYLENAME
350
E
  0
DICTIONARY
  5
D
102
{ACAD_REACTORS
330
C
102
}
100
AcDbDictionary
280
0
281
1
  0
ACDBDICTIONARYWDFLT
  5
E
102
{ACAD_REACTORS
330
C
102
}
100
AcDbDictionary
281
1
  3
Normal
350
F
100
AcDbDictionaryWithDefault
340
F
  0
DICTIONARY
  5
17
102
{ACAD_REACTORS
330
C
102
}
100
AcDbDictionary
280
0
281
1
  3
Standard
350
18
  0
DICTIONARY
  5
19
102
{ACAD_REACTORS
330
C
102
}
100
AcDbDictionary
281
1
  0
DICTIONARY
  5
1A
102
{ACAD_REACTORS
330
C
102
}
100
AcDbDictionary
281
1
  3
Model
350
59E
  3
Layout1
350
59F
  0
ACDBPLACEHOLDER
  5
F
102
{ACAD_REACTORS
330
E
102
}
  0
MLINESTYLE
  5
18
102
{ACAD_REACTORS
330
17
102
}
100
AcDbMlineStyle
  2
STANDARD
 70
0
  3

 62
256
 51
90.0
 52
90.0
 71
2
 49
0.5
 62
256
  6
BYLAYER
 49
-0.5
 62
256
  6
BYLAYER
  0
LAYOUT
  5
59E
102
{ACAD_REACTORS
330
1A
102
}
100
AcDbPlotSettings
  1

  2
none_device
  4
ISO_A4_(297.00_x_210.00_MM)
  6

 40
0.0
 41
0.0
 42
0.0
 43
0.0
 44
297.0
 45
210.0
 46
0.0
 47
0.0
 48
0.0
 49
0.0
140
0.0
141
0.0
142
1.0
143
1.0
 70
1024
 72
1
 73
0
 74
0
  7

 75
0
147
1.0
148
0.0
149
0.0
100
AcDbLayout
  1
Model
 70
0
 71
0
 10
0.0
 20
0.0
 11
297.0
 21
210.0
 12
0.0
 22
0.0
 32
0.0
 14
0.0
 24
0.0
 34
0.0
 15
0.0
 25
0.0
 35
0.0
146
0.0
 13
0.0
 23
0.0
 33
0.0
 16
1.0
 26
0.0
 36
0.0
 17
0.0
 27
1.0
 37
0.0
 76
0
330
22C
345
0
346
0
  0
LAYOUT
  5
59F
102
{ACAD_REACTORS
330
1A
102
}
100
AcDbPlotSettings
  1

  2
none_device
  4
ISO_A4_(297.00_x_210.00_MM)
  6

 40
0.0
 41
0.0
 42
0.0
 43
0.0
 44
297.0
 45
210.0
 46
0.0
 47
0.0
 48
0.0
 49
0.0
140
0.0
141
0.0
142
1.0
143
1.0
 70
0
 72
1
 73
0
 74
0
  7

 75
0
147
1.0
148
0.0
149
0.0
100
AcDbLayout
  1
Layout1
 70
0
 71
1
 10
0.0
 20
0.0
 11
297.0
 21
210.0
 12
0.0
 22
0.0
 32
0.0
 14
0.0
 24
0.0
 34
0.0
 15
0.0
 25
0.0
 35
0.0
146
0.0
 13
0.0
 23
0.0
 33
0.0
 16
1.0
 26
0.0
 36
0.0
 17
0.0
 27
1.0
 37
0.0
 76
0
330
22D
345
0
346
0
  0
ENDSEC
  0
EOF
