  0
SECTION
  2
HEADER
  9
$ACADVER
  1
AC1024
  9
$DWGCODEPAGE
  3
ANSI_1252
  9
$EXTMAX
 10
297.0
 20
210.0
 30
0.0
  9
$EXTMIN
 10
0.0
 20
0.0
 30
0.0
  9
$LIMMIN
 10
0.0
 20
0.0
  9
$LIMMAX
 10
297.0
 20
210.0
  9
$VIEWCTR
 10
148.5
 20
105.0
  9
$VIEWSIZE
 40
210.0
  9
$CLAYER
  8
0
  9
$LTSCALE
 40
16.335
  9
$CELTYPE
  6
BYLAYER
  9
$DIMSCALE
 40
1.0
  9
$DIMASZ
 40
3.0
  9
$DIMEXO
 40
0.5
  9
$DIMDLI
 40
11.286
  9
$DIMEXE
 40
1.5
  9
$DIMCEN
 40
2.673
  9
$DIMLFAC
 40
1.0
  9
$DIMBLK
  1
_FILLED
  9
$DIMALT
 70
0
  9
$DIMALTF
 40
0.0393700787
  9
$DIMTXT
 40
3.0
  9
$DIMTOL
 70
1
  9
$DIMLIM
 70
0
  9
$DIMTFAC
 40
1.0
  9
$DIMTP
 40
0.01
  9
$DIMTM
 40
0.01
  9
$DIMGAP
 40
0.625
  9
$DIMDSEP
 70
44
  9
$AUNITS
 70
0
  9
$PDMODE
 70
3
  9
$PDSIZE
 40
3.0
  9
$HANDSEED
  5
3E7
  9
$TILEMODE
 70
1
  9
$MEASUREMENT
 70
1
  9
$INSUNITS
 70
4
  0
ENDSEC
  0
SECTION
  2
CLASSES
  0
CLASS
  1
ACDBDICTIONARYWDFLT
  2
AcDbDictionaryWithDefault
  3
AutoCAD 2000
 90
0
 91
1
280
0
281
0
  0
CLASS
  1
ACDBPLACEHOLDER
  2
AcDbPlaceHolder
  3
AutoCAD 2000
 90
0
 91
1
280
0
281
0
  0
CLASS
  1
LAYOUT
  2
AcDbLayout
  3
AutoCAD 2000
 90
0
 91
0
280
0
281
0
  0
ENDSEC
  0
SECTION
  2
TABLES
  0
TABLE
  2
VPORT
  5
8
100
AcDbSymbolTable
 70
2
  0
VPORT
  5
1F4
100
AcDbSymbolTableRecord
100
AcDbViewportTableRecord
  2
*ACTIVE
 70
0
 10
0.0
 20
0.0
 11
1.0
 21
1.0
 12
148.5
 22
105.0
 13
0.0
 23
0.0
 14
1.0
 24
1.0
 15
0.0
 25
0.0
 16
0.0
 26
0.0
 36
1.0
 17
0.0
 27
0.0
 37
0.0
 40
210.0
 41
1.4142857143
 42
50.0
 43
0.0
 44
0.0
 50
0.0
 51
0.0
 71
0
 72
100
 73
1
 74
1
 75
0
 76
0
 77
0
 78
0
  0
ENDTAB
  0
TABLE
  2
LTYPE
  5
5
100
AcDbSymbolTable
 70
6
  0
LTYPE
  5
14
100
AcDbSymbolTableRecord
100
AcDbLinetypeTableRecord
  2
BYBLOCK
 70
0
  3

 72
65
 73
0
 40
0.0
  0
LTYPE
  5
15
100
AcDbSymbolTableRecord
100
AcDbLinetypeTableRecord
  2
BYLAYER
 70
0
  3

 72
65
 73
0
 40
0.0
  0
LTYPE
  5
16
100
AcDbSymbolTableRecord
100
AcDbLinetypeTableRecord
  2
CONTINUOUS
 70
64
  3
Solid line
 72
65
 73
0
 40
0.0
  0
LTYPE
  5
1F5
100
AcDbSymbolTableRecord
100
AcDbLinetypeTableRecord
  2
CENTER
 70
64
  3
____ _ ____ _ ____ _ ____ _ ____ _ ____ _ ____
 72
65
 73
4
 40
0.6
 49
0.375
 74
0
 49
-0.075
 74
0
 49
0.075
 74
0
 49
-0.075
 74
0
  0
LTYPE
  5
1F6
100
AcDbSymbolTableRecord
100
AcDbLinetypeTableRecord
  2
HIDDEN
 70
64
  3
- - - - - - - - - - - - - - - - - - - -
 72
65
 73
2
 40
0.2
 49
0.1
 74
0
 49
-0.1
 74
0
  0
LTYPE
  5
1F7
100
AcDbSymbolTableRecord
100
AcDbLinetypeTableRecord
  2
PHANTOM
 70
64
  3
_____ _ _ _____ _ _ _____ _ _ _____
 72
65
 73
6
 40
0.8
 49
0.45
 74
0
 49
-0.05
 74
0
 49
0.1
 74
0
 49
-0.05
 74
0
 49
0.1
 74
0
 49
-0.05
 74
0
  0
LTYPE
  5
1F8
100
AcDbSymbolTableRecord
100
AcDbLinetypeTableRecord
  2
DOT
 70
64
  3
. . . . . . . . . . . . . . . . . . . .
 72
65
 73
2
 40
0.2
 49
0.1
 74
0
 49
-0.1
 74
0
  0
LTYPE
  5
1F9
100
AcDbSymbolTableRecord
100
AcDbLinetypeTableRecord
  2
DASHED
 70
64
  3
- - - - - - - - - - - - - - - - - - - -
 72
65
 73
2
 40
0.2
 49
0.1
 74
0
 49
-0.1
 74
0
  0
ENDTAB
  0
TABLE
  2
LAYER
  5
2
100
AcDbSymbolTable
 70
36
  0
LAYER
  5
10
100
AcDbSymbolTableRecord
100
AcDbLayerTableRecord
  2
0
 70
0
 62
7
  6
CONTINUOUS
370
-3
390
F
  0
LAYER
  5
1FA
100
AcDbSymbolTableRecord
100
AcDbLayerTableRecord
  2
DEFAULT_1
 70
0
 62
7
  6
CENTER
370
-3
390
F
  0
LAYER
  5
1FB
100
AcDbSymbolTableRecord
100
AcDbLayerTableRecord
  2
DEFAULT_2
 70
0
 62
7
  6
HIDDEN
370
-3
390
F
  0
LAYER
  5
1FC
100
AcDbSymbolTableRecord
100
AcDbLayerTableRecord
  2
DEFAULT_3
 70
0
 62
7
  6
PHANTOM
370
-3
390
F
  0
LAYER
  5
1FD
100
AcDbSymbolTableRecord
100
AcDbLayerTableRecord
  2
21814000
 70
0
 62
7
  6
CONTINUOUS
370
-3
390
F
  0
LAYER
  5
1FE
100
AcDbSymbolTableRecord
100
AcDbLayerTableRecord
  2
260140000
 70
0
 62
7
  6
CONTINUOUS
370
-3
390
F
  0
LAYER
  5
1FF
100
AcDbSymbolTableRecord
100
AcDbLayerTableRecord
  2
26814000
 70
0
 62
7
  6
CONTINUOUS
370
-3
390
F
  0
LAYER
  5
200
100
AcDbSymbolTableRecord
100
AcDbLayerTableRecord
  2
28414000
 70
0
 62
7
  6
CONTINUOUS
370
-3
390
F
  0
LAYER
  5
201
100
AcDbSymbolTableRecord
100
AcDbLayerTableRecord
  2
290140000
 70
0
 62
7
  6
CONTINUOUS
370
-3
390
F
  0
LAYER
  5
202
100
AcDbSymbolTableRecord
100
AcDbLayerTableRecord
  2
340000230
 70
0
 62
7
  6
CONTINUOUS
370
-3
390
F
  0
LAYER
  5
203
100
AcDbSymbolTableRecord
100
AcDbLayerTableRecord
  2
712140000
 70
0
 62
7
  6
CONTINUOUS
370
-3
390
F
  0
LAYER
  5
204
100
AcDbSymbolTableRecord
100
AcDbLayerTableRecord
  2
715140000
 70
0
 62
7
  6
CONTINUOUS
370
-3
390
F
  0
LAYER
  5
205
100
AcDbSymbolTableRecord
100
AcDbLayerTableRecord
  2
ASSI
 70
0
 62
7
  6
CONTINUOUS
370
-3
390
F
  0
LAYER
  5
206
100
AcDbSymbolTableRecord
100
AcDbLayerTableRecord
  2
COLORE_TOP
 70
0
 62
7
  6
CONTINUOUS
370
-3
390
F
  0
LAYER
  5
207
100
AcDbSymbolTableRecord
100
AcDbLayerTableRecord
  2
COORDINATE
 70
0
 62
7
  6
CONTINUOUS
370
-3
390
F
  0
LAYER
  5
208
100
AcDbSymbolTableRecord
100
AcDbLayerTableRecord
  2
COORD_ORIGINE
 70
0
 62
7
  6
CONTINUOUS
370
-3
390
F
  0
LAYER
  5
209
100
AcDbSymbolTableRecord
100
AcDbLayerTableRecord
  2
COPY_PUBLISH
 70
0
 62
7
  6
CONTINUOUS
370
-3
390
F
  0
LAYER
  5
20A
100
AcDbSymbolTableRecord
100
AcDbLayerTableRecord
  2
COSMETIC
 70
0
 62
7
  6
CONTINUOUS
370
-3
390
F
  0
LAYER
  5
20B
100
AcDbSymbolTableRecord
100
AcDbLayerTableRecord
  2
COSMETICHE
 70
0
 62
7
  6
CONTINUOUS
370
-3
390
F
  0
LAYER
  5
20C
100
AcDbSymbolTableRecord
100
AcDbLayerTableRecord
  2
COSMETICI
 70
0
 62
7
  6
CONTINUOUS
370
-3
390
F
  0
LAYER
  5
20D
100
AcDbSymbolTableRecord
100
AcDbLayerTableRecord
  2
CURVE
 70
0
 62
7
  6
CONTINUOUS
370
-3
390
F
  0
LAYER
  5
20E
100
AcDbSymbolTableRecord
100
AcDbLayerTableRecord
  2
DRAFT
 70
0
 62
7
  6
CONTINUOUS
370
-3
390
F
  0
LAYER
  5
20F
100
AcDbSymbolTableRecord
100
AcDbLayerTableRecord
  2
IMPORT
 70
0
 62
7
  6
CONTINUOUS
370
-3
390
F
  0
LAYER
  5
210
100
AcDbSymbolTableRecord
100
AcDbLayerTableRecord
  2
IMPORTED
 70
0
 62
7
  6
CONTINUOUS
370
-3
390
F
  0
LAYER
  5
211
100
AcDbSymbolTableRecord
100
AcDbLayerTableRecord
  2
IMPORT_IGES
 70
0
 62
7
  6
CONTINUOUS
370
-3
390
F
  0
LAYER
  5
212
100
AcDbSymbolTableRecord
100
AcDbLayerTableRecord
  2
INCISIONI_LASER
 70
0
 62
7
  6
CONTINUOUS
370
-3
390
F
  0
LAYER
  5
213
100
AcDbSymbolTableRecord
100
AcDbLayerTableRecord
  2
INTF_1
 70
0
 62
7
  6
CONTINUOUS
370
-3
390
F
  0
LAYER
  5
214
100
AcDbSymbolTableRecord
100
AcDbLayerTableRecord
  2
INTF_11
 70
0
 62
7
  6
CONTINUOUS
370
-3
390
F
  0
LAYER
  5
215
100
AcDbSymbolTableRecord
100
AcDbLayerTableRecord
  2
INTF_16
 70
0
 62
7
  6
CONTINUOUS
370
-3
390
F
  0
LAYER
  5
216
100
AcDbSymbolTableRecord
100
AcDbLayerTableRecord
  2
INTF_2
 70
0
 62
7
  6
CONTINUOUS
370
-3
390
F
  0
LAYER
  5
217
100
AcDbSymbolTableRecord
100
AcDbLayerTableRecord
  2
NOTE
 70
0
 62
7
  6
CONTINUOUS
370
-3
390
F
  0
LAYER
  5
218
100
AcDbSymbolTableRecord
100
AcDbLayerTableRecord
  2
PIANI
 70
0
 62
7
  6
CONTINUOUS
370
-3
390
F
  0
LAYER
  5
219
100
AcDbSymbolTableRecord
100
AcDbLayerTableRecord
  2
PIANI_DI_RIFERIMENTO
 70
0
 62
7
  6
CONTINUOUS
370
-3
390
F
  0
LAYER
  5
21A
100
AcDbSymbolTableRecord
100
AcDbLayerTableRecord
  2
PIANI_ORIGINE
 70
0
 62
7
  6
CONTINUOUS
370
-3
390
F
  0
LAYER
  5
21B
100
AcDbSymbolTableRecord
100
AcDbLayerTableRecord
  2
PIANI_RIFERIMENTO
 70
0
 62
7
  6
CONTINUOUS
370
-3
390
F
  0
LAYER
  5
21C
100
AcDbSymbolTableRecord
100
AcDbLayerTableRecord
  2
PIANI_SFORMO
 70
0
 62
7
  6
CONTINUOUS
370
-3
390
F
  0
LAYER
  5
21D
100
AcDbSymbolTableRecord
100
AcDbLayerTableRecord
  2
PUNTI
 70
0
 62
7
  6
CONTINUOUS
370
-3
390
F
  0
LAYER
  5
21E
100
AcDbSymbolTableRecord
100
AcDbLayerTableRecord
  2
RACCORDO
 70
0
 62
7
  6
CONTINUOUS
370
-3
390
F
  0
LAYER
  5
21F
100
AcDbSymbolTableRecord
100
AcDbLayerTableRecord
  2
RGB__255__255__255__
 70
0
 62
7
  6
CONTINUOUS
370
-3
390
F
  0
LAYER
  5
220
100
AcDbSymbolTableRecord
100
AcDbLayerTableRecord
  2
RINTRACCIABILITA
 70
0
 62
7
  6
CONTINUOUS
370
-3
390
F
  0
LAYER
  5
221
100
AcDbSymbolTableRecord
100
AcDbLayerTableRecord
  2
SIMBOLI
 70
0
 62
7
  6
CONTINUOUS
370
-3
390
F
  0
LAYER
  5
222
100
AcDbSymbolTableRecord
100
AcDbLayerTableRecord
  2
SMUSSO
 70
0
 62
7
  6
CONTINUOUS
370
-3
390
F
  0
LAYER
  5
223
100
AcDbSymbolTableRecord
100
AcDbLayerTableRecord
  2
SNAPLINE
 70
0
 62
7
  6
CONTINUOUS
370
-3
390
F
  0
LAYER
  5
224
100
AcDbSymbolTableRecord
100
AcDbLayerTableRecord
  2
SUPERFICI
 70
0
 62
7
  6
CONTINUOUS
370
-3
390
F
  0
LAYER
  5
225
100
AcDbSymbolTableRecord
100
AcDbLayerTableRecord
  2
TRASH
 70
0
 62
7
  6
CONTINUOUS
370
-3
390
F
  0
LAYER
  5
226
100
AcDbSymbolTableRecord
100
AcDbLayerTableRecord
  2
WHITE
 70
0
 62
7
  6
CONTINUOUS
370
-3
390
F
  0
LAYER
  5
227
100
AcDbSymbolTableRecord
100
AcDbLayerTableRecord
  2
XSEC_DATUMS
 70
0
 62
7
  6
CONTINUOUS
370
-3
390
F
  0
ENDTAB
  0
TABLE
  2
STYLE
  5
3
100
AcDbSymbolTable
 70
1
  0
STYLE
  5
11
100
AcDbSymbolTableRecord
100
AcDbTextStyleTableRecord
  2
STANDARD
 70
0
 40
0.0
 41
0.8
 50
0.0
 71
0
 42
0.2
  3
txt
  4

  0
STYLE
  5
228
100
AcDbSymbolTableRecord
100
AcDbTextStyleTableRecord
  2
TEXTSTYLE_1
 70
0
 40
0.0
 41
0.8
 50
0.0
 71
0
 42
0.2
  3
gdt
  4

  0
ENDTAB
  0
TABLE
  2
VIEW
  5
6
100
AcDbSymbolTable
 70
0
  0
ENDTAB
  0
TABLE
  2
UCS
  5
7
100
AcDbSymbolTable
 70
0
  0
ENDTAB
  0
TABLE
  2
APPID
  5
9
100
AcDbSymbolTable
 70
1
  0
APPID
  5
229
100
AcDbSymbolTableRecord
100
AcDbRegAppTableRecord
  2
ACAD
 70
0
  0
ENDTAB
  0
TABLE
  2
BLOCK_RECORD
  5
1
100
AcDbSymbolTable
 70
0
  0
BLOCK_RECORD
  5
22A
100
AcDbSymbolTableRecord
100
AcDbBlockTableRecord
  2
*Model_Space
  0
BLOCK_RECORD
  5
22B
100
AcDbSymbolTableRecord
100
AcDbBlockTableRecord
  2
*Paper_Space
  0
BLOCK_RECORD
  5
22C
100
AcDbSymbolTableRecord
100
AcDbBlockTableRecord
  2
_FILLED
  0
ENDTAB
  0
TABLE
  2
DIMSTYLE
  5
A
100
AcDbSymbolTable
 70
1
100
AcDbDimStyleTable
 71
0
  0
DIMSTYLE
105
22D
100
AcDbSymbolTableRecord
100
AcDbDimStyleTableRecord
  2
STANDARD
 70
0
  3

  4

 40
1.0
 41
3.0
 42
0.5
 43
0.38
 44
1.5
 45
0.0
 46
0.0
 47
0.01
 48
0.01
140
3.0
141
0.09
142
0.0
143
25.4
144
1.0
145
0.0
146
1.0
147
0.625
 71
1
 72
0
 73
0
 74
0
 75
0
 76
0
 77
1
 78
8
 79
2
170
0
171
1
172
0
173
0
174
0
175
0
176
0
177
0
178
0
270
2
179
2
271
2
272
2
273
2
274
2
275
0
280
0
281
0
282
0
283
1
284
8
285
0
286
0
287
3
288
0
340
11
278
44
341
22C
342
22C
343
22C
344
22C
  0
ENDTAB
  0
ENDSEC
  0
SECTION
  2
BLOCKS
  0
BLOCK
  5
20
100
AcDbEntity
  8
0
100
AcDbBlockBegin
  2
*Model_Space
 70
0
 10
0.0
 20
0.0
 30
0.0
  3
*Model_Space
  1

  0
ENDBLK
  5
21
100
AcDbEntity
  8
0
100
AcDbBlockEnd
  0
BLOCK
  5
1C
100
AcDbEntity
  8
0
100
AcDbBlockBegin
  2
*Paper_Space
 70
0
 10
0.0
 20
0.0
 30
0.0
  3
*Paper_Space
  1

  0
ENDBLK
  5
1D
100
AcDbEntity
  8
0
100
AcDbBlockEnd
  0
BLOCK
  5
22E
100
AcDbEntity
  8
0
100
AcDbBlockBegin
  2
_FILLED
 70
64
 10
0.0
 20
0.0
  3
_FILLED
  1

  0
SOLID
  5
22F
100
AcDbEntity
  8
0
  6
BYBLOCK
 62
0
100
AcDbTrace
 10
0.0
 20
0.0
 11
-1.0
 21
0.3166666667
 12
-1.0
 22
-0.3166666667
 13
-1.0
 23
-0.3166666667
  0
ENDBLK
  5
230
100
AcDbEntity
  8
0
  6
BYBLOCK
 62
0
100
AcDbBlockEnd
  0
ENDSEC
  0
SECTION
  2
ENTITIES
  0
LINE
  5
231
100
AcDbEntity
  8
26814000
100
AcDbLine
 62
7
  6
CONTINUOUS
 10
137.5685070123
 20
131.1319859449
 11
139.1512636154
 21
131.9439700422
  0
LINE
  5
232
100
AcDbEntity
  8
26814000
100
AcDbLine
 62
7
  6
CONTINUOUS
 10
137.0845518999
 20
129.3892855429
 11
138.096774184
 21
129.9062155055
  0
LINE
  5
233
100
AcDbEntity
  8
26814000
100
AcDbLine
 62
250
  6
CONTINUOUS
 10
137.2420753062
 20
129.3798522133
 11
138.096774184
 21
129.8163368333
  0
LINE
  5
234
100
AcDbEntity
  8
26814000
100
AcDbLine
 62
7
  6
CONTINUOUS
 10
139.1763284213
 20
130.3280752404
 11
140.7776092121
 21
131.1307972439
  0
LINE
  5
235
100
AcDbEntity
  8
26814000
100
AcDbLine
 62
7
  6
CONTINUOUS
 10
140.7776092121
 20
131.1307972439
 11
141.3058763839
 21
131.3942360639
  0
LINE
  5
236
100
AcDbEntity
  8
26814000
100
AcDbLine
 62
7
  6
CONTINUOUS
 10
139.1512636154
 20
131.9439700422
 11
139.6857134941
 21
132.2043175088
  0
LWPOLYLINE
  5
237
100
AcDbEntity
  8
RACCORDO
100
AcDbPolyline
 62
250
  6
CONTINUOUS
 90
14
 70
0
 10
130.5959117613
 20
88.1005726106
 10
130.5372161958
 20
88.1345615799
 10
130.4851240016
 20
88.1736043638
 10
130.4369294675
 20
88.2189952854
 10
130.3928517919
 20
88.2705257783
 10
130.3531076303
 20
88.3279527575
 10
130.3179101447
 20
88.3909805636
 10
130.2874416819
 20
88.4592801842
 10
130.2618575962
 20
88.5324981638
 10
130.2412824579
 20
88.6102744416
 10
130.225814056
 20
88.6922312233
 10
130.2155301663
 20
88.7779630083
 10
130.210485844
 20
88.8670366707
 10
130.2107077708
 20
88.959006504
  0
LINE
  5
238
100
AcDbEntity
  8
26814000
100
AcDbLine
 62
7
  6
CONTINUOUS
 10
140.7776092121
 20
129.3987464363
 11
139.7107783
 21
128.8601651868
  0
LWPOLYLINE
  5
239
100
AcDbEntity
  8
RACCORDO
100
AcDbPolyline
 62
7
  6
CONTINUOUS
 90
19
 70
0
 10
133.9665892869
 20
126.8325913058
 10
133.9489683582
 20
126.8252311938
 10
133.8565866211
 20
126.7815475875
 10
133.766818245
 20
126.7304896846
 10
133.6796563857
 20
126.6721170424
 10
133.5954931201
 20
126.606753846
 10
133.515092117
 20
126.5350994863
 10
133.4384248099
 20
126.4572486429
 10
133.365672535
 20
126.3734134973
 10
133.2977644141
 20
126.284707378
 10
133.2347318697
 20
126.1913158329
 10
133.1767304695
 20
126.0934196007
 10
133.1246078618
 20
125.9924822537
 10
133.0784275049
 20
125.888769796
 10
133.0383319062
 20
125.7824536489
 10
133.0048908332
 20
125.6750280361
 10
132.9782589994
 20
125.5670980634
 10
132.9584079884
 20
125.4584440098
 10
132.9538985054
 20
125.4264744353
  0
LINE
  5
23A
100
AcDbEntity
  8
RACCORDO
100
AcDbLine
 62
7
  6
CONTINUOUS
 10
133.9665847621
 20
126.8326023718
 11
137.8826929609
 21
128.4333880222
  0
LINE
  5
23B
100
AcDbEntity
  8
RACCORDO
100
AcDbLine
 62
250
  6
CONTINUOUS
 10
134.31873086
 20
126.8069743922
 11
138.2308951322
 21
128.4061478502
  0
LWPOLYLINE
  5
23C
100
AcDbEntity
  8
26814000
100
AcDbPolyline
 62
7
  6
CONTINUOUS
 90
3
 70
0
 10
148.7601828475
 20
132.6191573321
 10
148.7476178278
 20
132.6144582813
 10
148.7417351091
 20
132.6116999894
  0
LWPOLYLINE
  5
23D
100
AcDbEntity
  8
RACCORDO
100
AcDbPolyline
 62
250
  6
CONTINUOUS
 90
7
 70
0
 10
133.9667257465
 20
126.8326600374
 10
134.0244622463
 20
126.8506846638
 10
134.0804631368
 20
126.8586302725
 10
134.1385335651
 20
126.8581812969
 10
134.1980375459
 20
126.8493426541
 10
134.2583233937
 20
126.8322111446
 10
134.31873086
 20
126.8069743922
  0
LWPOLYLINE
  5
23E
100
AcDbEntity
  8
26814000
100
AcDbPolyline
 62
7
  6
CONTINUOUS
 90
10
 70
0
 10
148.7601828475
 20
132.6191573321
 10
148.7694224683
 20
132.621903131
 10
148.7779856222
 20
132.6241688495
 10
148.7858723091
 20
132.6259544876
 10
148.7931216674
 20
132.6272808922
 10
148.7996945587
 20
132.6281272163
 10
148.8054735681
 20
132.6284309191
 10
148.8104545253
 20
132.6281915833
 10
148.8146416005
 20
132.6274096261
 10
148.8172312816
 20
132.6264131929
  0
LWPOLYLINE
  5
23F
100
AcDbEntity
  8
RACCORDO
100
AcDbPolyline
 62
7
  6
CONTINUOUS
 90
12
 70
0
 10
144.7300323455
 20
81.0335262361
 10
144.7637690839
 20
81.0173495405
 10
144.8464037814
 20
80.9835583167
 10
144.9320542554
 20
80.9565844228
 10
145.0202697971
 20
80.9366808293
 10
145.1108592227
 20
80.9240272611
 10
145.2032734061
 20
80.9188498771
 10
145.2968931412
 20
80.9213173762
 10
145.3915282196
 20
80.9315911742
 10
145.486781362
 20
80.9498212854
 10
145.5819492802
 20
80.9760343376
 10
145.5996427985
 20
80.9818067526
  0
LINE
  5
240
100
AcDbEntity
  8
RACCORDO
100
AcDbLine
 62
7
  6
CONTINUOUS
 10
144.7309821579
 20
81.0330374122
 11
130.5958930264
 21
88.100581978
  0
LINE
  5
241
100
AcDbEntity
  8
RACCORDO
100
AcDbLine
 62
250
  6
CONTINUOUS
 10
144.3379788122
 20
81.8953709833
 11
130.2107077708
 21
88.959006504
  0
LINE
  5
242
100
AcDbEntity
  8
26814000
100
AcDbLine
 62
7
  6
CONTINUOUS
 10
141.3927280471
 20
130.7732384773
 11
140.8654833314
 21
130.1315307492
  0
LWPOLYLINE
  5
243
100
AcDbEntity
  8
26814000
100
AcDbPolyline
 62
7
  6
CONTINUOUS
 90
12
 70
0
 10
148.7417351091
 20
132.6116999894
 10
148.7354483177
 20
132.6083436158
 10
148.7235938911
 20
132.6008393426
 10
148.7119387111
 20
132.5919668313
 10
148.7004431163
 20
132.5817817208
 10
148.6891518186
 20
132.5703506484
 10
148.6780067522
 20
132.5577036223
 10
148.6669398728
 20
132.5438740861
 10
148.6559937536
 20
132.5289045873
 10
148.6451464525
 20
132.5128216601
 10
148.6343080237
 20
132.4956534058
 10
148.6234236558
 20
132.4774347743
  0
LINE
  5
244
100
AcDbEntity
  8
26814000
100
AcDbLine
 62
7
  6
CONTINUOUS
 10
143.0420036435
 20
128.9792402464
 11
143.5353256588
 21
129.2323237783
  0
LINE
  5
245
100
AcDbEntity
  8
26814000
100
AcDbLine
 62
7
  6
CONTINUOUS
 10
142.2333901887
 20
129.37040504
 11
148.7414268153
 21
132.6115466456
  0
LINE
  5
246
100
AcDbEntity
  8
26814000
100
AcDbLine
 62
250
  6
CONTINUOUS
 10
142.3088833292
 20
129.3326584698
 11
148.6234236558
 21
132.4774347743
  0
LINE
  5
247
100
AcDbEntity
  8
26814000
100
AcDbLine
 62
7
  6
CONTINUOUS
 10
149.616443977
 20
131.5976912436
 11
144.878828543
 21
129.2626407289
  0
LINE
  5
248
100
AcDbEntity
  8
26814000
100
AcDbLine
 62
7
  6
CONTINUOUS
 10
143.5353256588
 20
129.2323237783
 11
149.0129656482
 21
131.9006557415
  0
LINE
  5
249
100
AcDbEntity
  8
26814000
100
AcDbLine
 62
7
  6
CONTINUOUS
 10
154.2298014958
 20
83.2747675276
 11
154.7570462116
 21
83.1664752557
  0
LINE
  5
24A
100
AcDbEntity
  8
26814000
100
AcDbLine
 62
7
  6
CONTINUOUS
 10
150.8226928729
 20
82.2035633428
 11
152.4292289704
 21
81.4002952941
  0
LINE
  5
24B
100
AcDbEntity
  8
26814000
100
AcDbLine
 62
250
  6
CONTINUOUS
 10
150.7580993941
 20
82.3385918841
 11
152.3638758563
 21
81.535703653
  0
LWPOLYLINE
  5
24C
100
AcDbEntity
  8
RACCORDO
100
AcDbPolyline
 62
250
  6
CONTINUOUS
 90
9
 70
0
 10
129.9763762129
 20
89.2403496696
 10
129.9777729909
 20
89.2116356296
 10
129.9870738234
 20
89.1721134003
 10
130.0048278346
 20
89.1330579745
 10
130.0308447929
 20
89.0948878255
 10
130.0648459304
 20
89.0580119403
 10
130.1064669302
 20
89.0228254385
 10
130.1552618295
 20
88.9897053383
 10
130.2107077982
 20
88.9590065165
  0
LWPOLYLINE
  5
24D
100
AcDbEntity
  8
RACCORDO
100
AcDbPolyline
 62
7
  6
CONTINUOUS
 90
15
 70
0
 10
129.9763857947
 20
89.2403493804
 10
129.9756328361
 20
89.1907506574
 10
129.9802705421
 20
89.0727675221
 10
129.9938317085
 20
88.9590751816
 10
130.0159560606
 20
88.8500651183
 10
130.0463346365
 20
88.7458917207
 10
130.0847166813
 20
88.6467662391
 10
130.1306417329
 20
88.5532999416
 10
130.1837246087
 20
88.4658093504
 10
130.243765988
 20
88.3844028453
 10
130.3101910088
 20
88.3096796825
 10
130.3824023998
 20
88.2420814888
 10
130.4601547731
 20
88.1817206529
 10
130.5429078235
 20
88.1290026249
 10
130.5969572243
 20
88.1000648726
  0
LINE
  5
24E
100
AcDbEntity
  8
RACCORDO
100
AcDbLine
 62
7
  6
CONTINUOUS
 10
129.976382858
 20
89.2405673457
 11
129.9763762129
 21
89.2403496696
  0
LWPOLYLINE
  5
24F
100
AcDbEntity
  8
RACCORDO
100
AcDbPolyline
 62
250
  6
CONTINUOUS
 90
13
 70
0
 10
130.2107077708
 20
88.959006504
 10
130.3156548724
 20
91.9171448714
 10
130.4467365492
 20
94.8872260507
 10
130.603936605
 20
97.8688770685
 10
130.7872355917
 20
100.8617234487
 10
130.9966105565
 20
103.8653894979
 10
131.2320350478
 20
106.8794983535
 10
131.4934793668
 20
109.9036717203
 10
131.7809108392
 20
112.9375298939
 10
132.0942935691
 20
115.9806920496
 10
132.4335881658
 20
119.0327762386
 10
132.7987517453
 20
122.0933994358
 10
133.1897382087
 20
125.1621775658
  0
LWPOLYLINE
  5
250
100
AcDbEntity
  8
RACCORDO
100
AcDbPolyline
 62
250
  6
CONTINUOUS
 90
10
 70
0
 10
132.9538985054
 20
125.4264744353
 10
132.9533857222
 20
125.4218546609
 10
132.9547208519
 20
125.3894179502
 10
132.9645459753
 20
125.356262194
 10
132.9827558189
 20
125.3227426479
 10
133.0091552686
 20
125.2892184654
 10
133.0434614613
 20
125.2560488496
 10
133.0853068146
 20
125.2235892047
 10
133.1342429663
 20
125.1921873276
 10
133.189745578
 20
125.1621796814
  0
LWPOLYLINE
  5
251
100
AcDbEntity
  8
RACCORDO
100
AcDbPolyline
 62
7
  6
CONTINUOUS
 90
13
 70
0
 10
132.953904142
 20
125.4265627882
 10
132.5700645462
 20
122.4155572048
 10
132.203289452
 20
119.34478616
 10
131.8625564405
 20
116.2825316889
 10
131.5479170638
 20
113.2292253866
 10
131.2594092928
 20
110.1852464297
 10
130.9970673454
 20
107.1509535489
 10
130.7609257608
 20
104.1267197122
 10
130.5510138586
 20
101.1129159959
 10
130.3673588434
 20
98.1098984748
 10
130.2099874226
 20
95.1180416808
 10
130.0789207445
 20
92.137765219
 10
129.976382858
 20
89.2405673457
  0
LWPOLYLINE
  5
252
100
AcDbEntity
  8
RACCORDO
100
AcDbPolyline
 62
250
  6
CONTINUOUS
 90
22
 70
0
 10
133.1897382087
 20
125.1621775658
 10
133.2051254272
 20
125.2598941647
 10
133.2256253992
 20
125.3586383175
 10
133.2511337868
 20
125.457915692
 10
133.2815180057
 20
125.5572244259
 10
133.3166263703
 20
125.6560731552
 10
133.3562915774
 20
125.7539830841
 10
133.4003214079
 20
125.8504792545
 10
133.4484900471
 20
125.9450635043
 10
133.5005457484
 20
126.0372341816
 10
133.5562111163
 20
126.1265135919
 10
133.6152148561
 20
126.212477687
 10
133.6772875079
 20
126.2947255043
 10
133.7421308646
 20
126.3728604505
 10
133.8094072172
 20
126.4464727363
 10
133.8787683943
 20
126.5151718086
 10
133.9498544751
 20
126.5786084151
 10
134.0223154678
 20
126.6364766898
 10
134.0958039351
 20
126.6884920234
 10
134.1699553888
 20
126.734394942
 10
134.2443896017
 20
126.7739549721
 10
134.31873086
 20
126.8069743922
  0
LINE
  5
253
100
AcDbEntity
  8
26814000
100
AcDbLine
 62
7
  6
CONTINUOUS
 10
150.9435178054
 20
130.12781701
 11
149.5457332989
 21
129.4289247567
  0
LINE
  5
254
100
AcDbEntity
  8
26814000
100
AcDbLine
 62
7
  6
CONTINUOUS
 10
149.1921799083
 20
130.1582596413
 11
149.616443977
 21
130.3658570622
  0
LINE
  5
255
100
AcDbEntity
  8
26814000
100
AcDbLine
 62
7
  6
CONTINUOUS
 10
151.6025135567
 20
130.9878898238
 11
149.5457332989
 21
129.981482946
  0
LINE
  5
256
100
AcDbEntity
  8
21814000
100
AcDbLine
 62
7
  6
CONTINUOUS
 10
148.6085260886
 20
128.8018289738
 11
148.4704112864
 21
128.7365918884
  0
LINE
  5
257
100
AcDbEntity
  8
21814000
100
AcDbLine
 62
250
  6
CONTINUOUS
 10
148.6920600951
 20
128.7933298871
 11
148.555783806
 21
128.7289612042
  0
LWPOLYLINE
  5
258
100
AcDbEntity
  8
21814000
100
AcDbPolyline
 62
250
  6
CONTINUOUS
 90
11
 70
0
 10
149.525526218
 20
128.8471498602
 10
149.5346186785
 20
128.8512403113
 10
149.5436773528
 20
128.8545970965
 10
149.5526644744
 20
128.8572040686
 10
149.5615456621
 20
128.8590486728
 10
149.5702801264
 20
128.8601198184
 10
149.5788214748
 20
128.8604108325
 10
149.5871383002
 20
128.8599203384
 10
149.5951915242
 20
128.858650326
 10
149.6029275045
 20
128.8566128098
 10
149.6103011473
 20
128.8538294409
  0
LINE
  5
259
100
AcDbEntity
  8
21814000
100
AcDbLine
 62
7
  6
CONTINUOUS
 10
148.608579604
 20
128.8018542512
 11
148.6117876442
 21
128.8032698808
  0
LWPOLYLINE
  5
25A
100
AcDbEntity
  8
21814000
100
AcDbPolyline
 62
7
  6
CONTINUOUS
 90
5
 70
0
 10
148.4702928178
 20
128.7365349861
 10
148.4751359825
 20
128.7385926104
 10
148.4825623424
 20
128.7409104729
 10
148.4907087605
 20
128.7424428375
 10
148.4996270955
 20
128.7430937512
  0
LINE
  5
25B
100
AcDbEntity
  8
21814000
100
AcDbLine
 62
7
  6
CONTINUOUS
 10
148.681628234
 20
128.829371018
 11
148.6117872829
 21
128.8032697106
  0
LINE
  5
25C
100
AcDbEntity
  8
21814000
100
AcDbLine
 62
7
  6
CONTINUOUS
 10
148.7566673441
 20
128.8522985831
 11
148.681628234
 21
128.829371018
  0
LWPOLYLINE
  5
25D
100
AcDbEntity
  8
21814000
100
AcDbPolyline
 62
7
  6
CONTINUOUS
 90
6
 70
0
 10
148.6117876442
 20
128.8032698808
 10
148.6250159188
 20
128.8072119058
 10
148.6407995389
 20
128.8085505412
 10
148.6574368715
 20
128.806656716
 10
148.6746254725
 20
128.8015555072
 10
148.6920600951
 20
128.7933298871
  0
LWPOLYLINE
  5
25E
100
AcDbEntity
  8
RACCORDO
100
AcDbPolyline
 62
250
  6
CONTINUOUS
 90
55
 70
0
 10
137.3587733281
 20
90.9004673908
 10
137.3959046673
 20
90.8833219885
 10
137.4331385178
 20
90.8689621897
 10
137.470349579
 20
90.8574369745
 10
137.5073942904
 20
90.8487894559
 10
137.5441664439
 20
90.8430428881
 10
137.5805959756
 20
90.8402149712
 10
137.6165954142
 20
90.840330478
 10
137.6520012906
 20
90.8434074836
 10
137.6866325633
 20
90.8494369368
 10
137.7203668708
 20
90.8583958416
 10
137.7530949953
 20
90.8702532678
 10
137.7846677237
 20
90.8849478547
 10
137.8149538072
 20
90.9023998309
 10
137.8438875995
 20
90.9225520356
 10
137.8714227212
 20
90.9453665477
 10
137.8974821643
 20
90.9707872447
 10
137.9219573264
 20
90.9987162969
 10
137.9447565094
 20
91.0290511223
 10
137.9658022932
 20
91.0616883767
 10
137.9850243137
 20
91.0965185862
 10
138.002353449
 20
91.1334141608
 10
138.0177237514
 20
91.1722239397
 10
138.0310966003
 20
91.2128382925
 10
138.042445425
 20
91.2551892559
 10
138.0517315889
 20
91.2991840279
 10
138.0589029954
 20
91.3446388504
 10
138.0639215058
 20
91.3913431337
 10
138.0667690786
 20
91.4391198914
 10
138.0674380493
 20
91.4878245008
 10
138.0659262426
 20
91.5372837565
 10
138.0622400647
 20
91.5873235841
 10
138.0563926956
 20
91.6377796151
 10
138.0484029641
 20
91.688490155
 10
138.0382959943
 20
91.7392898257
 10
138.0261065265
 20
91.7899993404
 10
138.0118786409
 20
91.8404359234
 10
137.9956638856
 20
91.8904213036
 10
137.9775161602
 20
91.9397932322
 10
137.957493157
 20
91.9883950394
 10
137.9356586658
 20
92.0360690988
 10
137.9120894191
 20
92.0826453336
 10
137.8868718301
 20
92.1279535116
 10
137.8600977905
 20
92.1718319552
 10
137.8318540795
 20
92.2141416083
 10
137.8022271848
 20
92.2547528841
 10
137.7712961466
 20
92.2935520514
 10
137.7391846537
 20
92.3303789482
 10
137.7060569343
 20
92.3650520072
 10
137.6720655857
 20
92.397430973
 10
137.6372953523
 20
92.4274537446
 10
137.6018141283
 20
92.4550683968
 10
137.5657235393
 20
92.48019388
 10
137.5291622751
 20
92.5027318642
 10
137.4922534183
 20
92.5226067544
  0
LINE
  5
25F
100
AcDbEntity
  8
26814000
100
AcDbLine
 62
250
  6
CONTINUOUS
 10
152.3638758563
 20
81.7890750468
 11
150.7580993941
 21
82.5919632779
  0
LINE
  5
260
100
AcDbEntity
  8
26814000
100
AcDbLine
 62
250
  6
CONTINUOUS
 10
152.4527784323
 20
82.0205121064
 11
150.8459735134
 21
82.8239145659
  0
LINE
  5
261
100
AcDbEntity
  8
26814000
100
AcDbLine
 62
7
  6
CONTINUOUS
 10
150.0547074977
 20
84.213386474
 11
152.5155817798
 21
82.982949333
  0
LINE
  5
262
100
AcDbEntity
  8
26814000
100
AcDbLine
 62
7
  6
CONTINUOUS
 10
153.0750964644
 20
82.7655715239
 11
152.6658314681
 21
82.9702040221
  0
LINE
  5
263
100
AcDbEntity
  8
26814000
100
AcDbLine
 62
7
  6
CONTINUOUS
 10
150.0805926241
 20
84.5279598493
 11
152.7630691533
 21
83.1867215848
  0
LWPOLYLINE
  5
264
100
AcDbEntity
  8
RACCORDO
100
AcDbPolyline
 62
7
  6
CONTINUOUS
 90
46
 70
0
 10
137.3847554164
 20
90.8451379406
 10
137.3442050218
 20
90.8669239866
 10
137.3041995051
 20
90.8914456713
 10
137.2648439287
 20
90.9186258566
 10
137.2262299232
 20
90.948392376
 10
137.1884690613
 20
90.9806533497
 10
137.1516944087
 20
91.0152867743
 10
137.1159885754
 20
91.0522073065
 10
137.0814645041
 20
91.0912936659
 10
137.0482929367
 20
91.1323368952
 10
137.0165760605
 20
91.1751821486
 10
136.9863766018
 20
91.2197185327
 10
136.9577934891
 20
91.2657753127
 10
136.9309114526
 20
91.3131858561
 10
136.9057842755
 20
91.3618270266
 10
136.8824610001
 20
91.411585503
 10
136.8609995793
 20
91.4623289315
 10
136.8414669079
 20
91.5138938336
 10
136.8239222746
 20
91.5661178999
 10
136.8084184626
 20
91.6188385817
 10
136.7949974701
 20
91.6719126193
 10
136.7836964929
 20
91.7252062785
 10
136.7745506748
 20
91.7785904854
 10
136.7676000574
 20
91.8318871766
 10
136.7628779297
 20
91.8848931225
 10
136.7604038477
 20
91.937437455
 10
136.7601902125
 20
91.9893909354
 10
136.7622482423
 20
92.0406207256
 10
136.7665919181
 20
92.091034191
 10
136.7732244099
 20
92.1404316267
 10
136.7821179811
 20
92.1885378243
 10
136.7932510282
 20
92.2352267533
 10
136.8065971857
 20
92.2803699917
 10
136.8220792247
 20
92.3237226471
 10
136.8396351415
 20
92.3651581444
 10
136.8592178424
 20
92.4046010801
 10
136.8807412277
 20
92.4419113125
 10
136.9041354969
 20
92.4770040694
 10
136.9293233003
 20
92.5097941817
 10
136.9561816993
 20
92.5401591006
 10
136.9845941548
 20
92.5680150481
 10
137.0144724678
 20
92.5933210423
 10
137.0457136896
 20
92.6160286508
 10
137.0782004907
 20
92.6360892473
 10
137.1118046382
 20
92.653461036
 10
137.1463956784
 20
92.6681151614
  0
LWPOLYLINE
  5
265
100
AcDbEntity
  8
RACCORDO
100
AcDbPolyline
 62
250
  6
CONTINUOUS
 90
3
 70
0
 10
137.5479809096
 20
90.7120512437
 10
137.4802596695
 20
90.7493779164
 10
137.413173733
 20
90.7933371035
  0
LWPOLYLINE
  5
266
100
AcDbEntity
  8
RACCORDO
100
AcDbPolyline
 62
250
  6
CONTINUOUS
 90
39
 70
0
 10
137.4699938683
 20
90.5918649247
 10
137.3959533557
 20
90.632788687
 10
137.3235299306
 20
90.6802850702
 10
137.2527243112
 20
90.7343543831
 10
137.1830664697
 20
90.7954431563
 10
137.1150293193
 20
90.8631060993
 10
137.0500285119
 20
90.9360060138
 10
136.9881505803
 20
91.0142436536
 10
136.9293141284
 20
91.0977204686
 10
136.8746828311
 20
91.1848002661
 10
136.8243568434
 20
91.275526388
 10
136.7782421887
 20
91.3698581348
 10
136.7372104602
 20
91.466032871
 10
136.7013484669
 20
91.564119289
 10
136.6705753031
 20
91.6640512094
 10
136.6455092223
 20
91.7638629303
 10
136.626269822
 20
91.8635356596
 10
136.612741656
 20
91.9630899425
 10
136.6051878953
 20
92.060618007
 10
136.6037246794
 20
92.1560900858
 10
136.6082373984
 20
92.2495365753
 10
136.6186401785
 20
92.3391387068
 10
136.6350474797
 20
92.4248155315
 10
136.6573433373
 20
92.5066473384
 10
136.6850933093
 20
92.5830559725
 10
136.7184045789
 20
92.6539364751
 10
136.7571658056
 20
92.7193920288
 10
136.800612246
 20
92.7781556297
 10
136.8488247821
 20
92.8300881946
 10
136.9017166539
 20
92.8753263153
 10
136.9582698812
 20
92.9130157555
 10
137.0185434657
 20
92.9430143792
 10
137.0824722057
 20
92.965461707
 10
137.1488509302
 20
92.9799256171
 10
137.2177636767
 20
92.9862443663
 10
137.2891212827
 20
92.9845775428
 10
137.3614586892
 20
92.9749749862
 10
137.4342864996
 20
92.9574528721
 10
137.5080911991
 20
92.9319938031
  0
LINE
  5
267
100
AcDbEntity
  8
RACCORDO
100
AcDbLine
 62
250
  6
CONTINUOUS
 10
137.413173733
 20
90.7933371035
 11
137.3471566204
 21
90.8436735433
  0
LWPOLYLINE
  5
268
100
AcDbEntity
  8
RACCORDO
100
AcDbPolyline
 62
250
  6
CONTINUOUS
 90
3
 70
0
 10
137.3471566204
 20
90.8436735433
 10
137.2826023061
 20
90.900107674
 10
137.2608286349
 20
90.9217211408
  0
LINE
  5
269
100
AcDbEntity
  8
21814000
100
AcDbLine
 62
7
  6
CONTINUOUS
 10
148.4556800879
 20
128.7269154572
 11
147.5447537294
 21
127.9296781357
  0
LINE
  5
26A
100
AcDbEntity
  8
21814000
100
AcDbLine
 62
250
  6
CONTINUOUS
 10
148.5551249316
 20
128.7292906414
 11
147.6063147513
 21
127.8988976248
  0
LWPOLYLINE
  5
26B
100
AcDbEntity
  8
21814000
100
AcDbPolyline
 62
7
  6
CONTINUOUS
 90
5
 70
0
 10
148.455582849
 20
128.7268298588
 10
148.4566636523
 20
128.7277613793
 10
148.462212017
 20
128.7319441156
 10
148.468366477
 20
128.7355817643
 10
148.4702928178
 20
128.7365349861
  0
LINE
  5
26C
100
AcDbEntity
  8
21814000
100
AcDbLine
 62
250
  6
CONTINUOUS
 10
148.1070437097
 20
127.6485331456
 11
148.5808521533
 21
128.0199532021
  0
LINE
  5
26D
100
AcDbEntity
  8
21814000
100
AcDbLine
 62
250
  6
CONTINUOUS
 10
148.3849333727
 20
127.5095883141
 11
148.7536592833
 21
127.7986338142
  0
LWPOLYLINE
  5
26E
100
AcDbEntity
  8
21814000
100
AcDbPolyline
 62
250
  6
CONTINUOUS
 90
13
 70
0
 10
148.5808521533
 20
128.0199532021
 10
148.6220310726
 20
128.049499332
 10
148.6652264449
 20
128.0761094681
 10
148.7104382703
 20
128.0997836105
 10
148.7582152383
 20
128.1206785785
 10
148.8080086594
 20
128.1386375528
 10
148.8581724646
 20
128.153190075
 10
148.9086782556
 20
128.1642085731
 10
148.9595544307
 20
128.1718206191
 10
149.009240116
 20
128.175938471
 10
149.0575950704
 20
128.1764766664
 10
149.104759535
 20
128.1735206677
 10
149.14959336
 20
128.1672391196
  0
LINE
  5
26F
100
AcDbEntity
  8
26814000
100
AcDbLine
 62
7
  6
CONTINUOUS
 10
149.2587696004
 20
125.870857268
 11
149.7578653332
 21
126.1210539411
  0
LINE
  5
270
100
AcDbEntity
  8
26814000
100
AcDbLine
 62
7
  6
CONTINUOUS
 10
149.7578653332
 20
126.1210539411
 11
155.1721380284
 21
128.8210695514
  0
LINE
  5
271
100
AcDbEntity
  8
26814000
100
AcDbLine
 62
7
  6
CONTINUOUS
 10
154.5661914453
 20
129.1228175094
 11
149.8285760113
 21
126.7877669948
  0
LINE
  5
272
100
AcDbEntity
  8
26814000
100
AcDbLine
 62
7
  6
CONTINUOUS
 10
155.8451542438
 20
128.8665694803
 11
155.2587754568
 21
128.5796474126
  0
LWPOLYLINE
  5
273
100
AcDbEntity
  8
26814000
100
AcDbPolyline
 62
7
  6
CONTINUOUS
 90
18
 70
0
 10
155.8451542438
 20
128.8665694803
 10
155.8735287646
 20
128.8797514371
 10
155.9017632166
 20
128.8914858288
 10
155.9298575998
 20
128.9017726555
 10
155.9578619129
 20
128.9106247901
 10
155.9857261572
 20
128.9180293597
 10
156.0133003368
 20
128.9239477453
 10
156.0405694655
 20
128.9283711666
 10
156.0675485295
 20
128.9313084039
 10
156.0941324921
 20
128.9327471799
 10
156.1203374509
 20
128.9326800433
 10
156.1461473084
 20
128.9311144453
 10
156.1714087347
 20
128.9280604619
 10
156.196098488
 20
128.9235146775
 10
156.2202398101
 20
128.9174805077
 10
156.2437490964
 20
128.9099782749
 10
156.2666448766
 20
128.9009928602
 10
156.2862069609
 20
128.8919031272
  0
LINE
  5
274
100
AcDbEntity
  8
21814000
100
AcDbLine
 62
7
  6
CONTINUOUS
 10
162.0744927147
 20
131.4354659032
 11
156.4210228243
 21
128.8245061582
  0
LINE
  5
275
100
AcDbEntity
  8
21814000
100
AcDbLine
 62
250
  6
CONTINUOUS
 10
162.4629501973
 20
131.4032515675
 11
156.6410369469
 21
128.7144990969
  0
LWPOLYLINE
  5
276
100
AcDbEntity
  8
21814000
100
AcDbPolyline
 62
250
  6
CONTINUOUS
 90
9
 70
0
 10
162.4629501973
 20
131.4032515675
 10
162.5169565988
 20
131.4262830835
 10
162.570676672
 20
131.44352472
 10
162.6237125164
 20
131.4547894916
 10
162.6756984417
 20
131.4599334082
 10
162.7261996915
 20
131.4588452692
 10
162.7747278277
 20
131.451489874
 10
162.8209101204
 20
131.4378957245
 10
162.8543212108
 20
131.4233858532
  0
LWPOLYLINE
  5
277
100
AcDbEntity
  8
21814000
100
AcDbPolyline
 62
7
  6
CONTINUOUS
 90
12
 70
0
 10
162.0744927147
 20
131.4354659032
 10
162.1401201908
 20
131.4626855527
 10
162.2088190214
 20
131.4849613221
 10
162.280126504
 20
131.5018607044
 10
162.3536831534
 20
131.5130250289
 10
162.4287111357
 20
131.5180967517
 10
162.5040970932
 20
131.5168759049
 10
162.5792826019
 20
131.5093257699
 10
162.6536400335
 20
131.4954791384
 10
162.7261614049
 20
131.4755695216
 10
162.7965134365
 20
131.4497800708
 10
162.8543535654
 20
131.4233696757
  0
LWPOLYLINE
  5
278
100
AcDbEntity
  8
21814000
100
AcDbPolyline
 62
250
  6
CONTINUOUS
 90
9
 70
0
 10
162.0744927147
 20
131.4354659032
 10
162.1024053402
 20
131.4468648827
 10
162.1489197533
 20
131.4598439357
 10
162.1977387059
 20
131.466421529
 10
162.2484908004
 20
131.4665476226
 10
162.3007899324
 20
131.4602212571
 10
162.3542382282
 20
131.4474905614
 10
162.4084290716
 20
131.4284523863
 10
162.4629501973
 20
131.4032515675
  0
LWPOLYLINE
  5
279
100
AcDbEntity
  8
RACCORDO
100
AcDbPolyline
 62
7
  6
CONTINUOUS
 90
4
 70
0
 10
137.4750721665
 20
92.891580758
 10
137.5361061031
 20
92.8709147854
 10
137.5974334085
 20
92.844267406
 10
137.6086814628
 20
92.8387459778
  0
LWPOLYLINE
  5
27A
100
AcDbEntity
  8
0
100
AcDbPolyline
 62
7
  6
CONTINUOUS
 90
3
 70
0
 10
138.2450761458
 20
90.9523896783
 10
138.2975208037
 20
90.9293312774
 10
138.3178834746
 20
90.9226473378
  0
LINE
  5
27B
100
AcDbEntity
  8
RACCORDO
100
AcDbLine
 62
250
  6
CONTINUOUS
 10
137.5080911991
 20
92.9319938031
 11
137.5828720622
 21
92.8985974748
  0
LWPOLYLINE
  5
27C
100
AcDbEntity
  8
RACCORDO
100
AcDbPolyline
 62
250
  6
CONTINUOUS
 90
55
 70
0
 10
137.4922534183
 20
92.5226067544
 10
137.4551221175
 20
92.539752171
 10
137.417888286
 20
92.5541119769
 10
137.3806772243
 20
92.5656371919
 10
137.3436324802
 20
92.5742846983
 10
137.3068602745
 20
92.5800312468
 10
137.2704307097
 20
92.5828591514
 10
137.2344312788
 20
92.5827436474
 10
137.1990254292
 20
92.5796666518
 10
137.1643941761
 20
92.5736372059
 10
137.1306598695
 20
92.5646783014
 10
137.0979317387
 20
92.5528208729
 10
137.0663590059
 20
92.5381262843
 10
137.0360729236
 20
92.5206743086
 10
137.0071391343
 20
92.500522105
 10
136.9796040151
 20
92.4777075938
 10
136.9535445732
 20
92.4522868973
 10
136.9290694117
 20
92.4243578453
 10
136.9062702295
 20
92.3940230202
 10
136.8852244469
 20
92.3613857662
 10
136.8660024277
 20
92.3265555572
 10
136.8486732934
 20
92.289659983
 10
136.8333029915
 20
92.2508502043
 10
136.8199301429
 20
92.2102358516
 10
136.8085813185
 20
92.1678848883
 10
136.7992951553
 20
92.1238901165
 10
136.7921237496
 20
92.0784352944
 10
136.7871052398
 20
92.0317310113
 10
136.7842576673
 20
91.9839542537
 10
136.7835886968
 20
91.9352496443
 10
136.7851005037
 20
91.8857903887
 10
136.7887866817
 20
91.8357505611
 10
136.7946340508
 20
91.7852945301
 10
136.8026237823
 20
91.7345839903
 10
136.8127307518
 20
91.6837843195
 10
136.8249202193
 20
91.6330748047
 10
136.8391481046
 20
91.5826382215
 10
136.8553628598
 20
91.5326528413
 10
136.8735105851
 20
91.4832809127
 10
136.8935335878
 20
91.4346791053
 10
136.9153680772
 20
91.3870050452
 10
136.9389373217
 20
91.3404288096
 10
136.9641549098
 20
91.2951206313
 10
136.9909289527
 20
91.2512421888
 10
137.0191726682
 20
91.2089325374
 10
137.0487995627
 20
91.1683212616
 10
137.0797305877
 20
91.1295220894
 10
137.1118420626
 20
91.0926951859
 10
137.144969777
 20
91.058022125
 10
137.1789611485
 20
91.0256431677
 10
137.2137314179
 20
90.9956204094
 10
137.2492126637
 20
90.9680057654
 10
137.2853032515
 20
90.9428802817
 10
137.3218645005
 20
90.9203422919
 10
137.3587733281
 20
90.9004673908
  0
LWPOLYLINE
  5
27D
100
AcDbEntity
  8
RACCORDO
100
AcDbPolyline
 62
250
  6
CONTINUOUS
 90
12
 70
0
 10
137.5686450317
 20
92.6301844534
 10
137.527772882
 20
92.6490568877
 10
137.4867879065
 20
92.664863222
 10
137.4458280082
 20
92.6775495509
 10
137.4050511715
 20
92.6870685277
 10
137.3645742935
 20
92.6933944569
 10
137.3244745598
 20
92.6965075424
 10
137.2848483287
 20
92.6963803368
 10
137.2458755185
 20
92.6929931186
 10
137.2077553456
 20
92.6863560648
 10
137.1706224502
 20
92.6764945811
 10
137.1463956768
 20
92.6681151608
  0
LINE
  5
27E
100
AcDbEntity
  8
26814000
100
AcDbLine
 62
250
  6
CONTINUOUS
 10
154.2298014958
 20
83.2747675276
 11
154.1863791699
 21
83.2964786906
  0
LINE
  5
27F
100
AcDbEntity
  8
26814000
100
AcDbLine
 62
7
  6
CONTINUOUS
 10
150.1545262364
 20
85.4264505728
 11
153.5762419516
 21
83.7155927152
  0
LINE
  5
280
100
AcDbEntity
  8
26814000
100
AcDbLine
 62
250
  6
CONTINUOUS
 10
154.1419273766
 20
83.4740346732
 11
154.7570462116
 21
83.1664752557
  0
LINE
  5
281
100
AcDbEntity
  8
26814000
100
AcDbLine
 62
7
  6
CONTINUOUS
 10
154.1419273766
 20
83.4776548227
 11
154.7803255849
 21
83.1584557186
  0
LINE
  5
282
100
AcDbEntity
  8
26814000
100
AcDbLine
 62
7
  6
CONTINUOUS
 10
150.2849261883
 20
87.0111580344
 11
153.5762419516
 21
85.3655001528
  0
LWPOLYLINE
  5
283
100
AcDbEntity
  8
RACCORDO
100
AcDbPolyline
 62
7
  6
CONTINUOUS
 90
32
 70
0
 10
137.6087565748
 20
92.8387024471
 10
137.6255407909
 20
92.8300867418
 10
137.696513629
 20
92.7887963164
 10
137.7668341036
 20
92.7399506837
 10
137.8358349008
 20
92.6839567384
 10
137.9029681393
 20
92.6212793695
 10
137.9677741264
 20
92.5523232925
 10
138.0297347508
 20
92.4776201283
 10
138.0883664318
 20
92.3977799994
 10
138.1432945074
 20
92.3132811191
 10
138.1940859603
 20
92.2247540308
 10
138.2403620671
 20
92.1328910337
 10
138.2818313185
 20
92.0382315084
 10
138.318156724
 20
91.9414877263
 10
138.3490713159
 20
91.8433979022
 10
138.3743649796
 20
91.7445441453
 10
138.3938071506
 20
91.6456913884
 10
138.407247822
 20
91.5476128094
 10
138.414567269
 20
91.4509505891
 10
138.4156662938
 20
91.3564877184
 10
138.4105367312
 20
91.2650226138
 10
138.3991975329
 20
91.1773026347
 10
138.381726424
 20
91.094074151
 10
138.3583157074
 20
91.0160977213
 10
138.3292373133
 20
90.9441766262
 10
138.2948546115
 20
90.8789797252
 10
138.2555471369
 20
90.8209159815
 10
138.2116453295
 20
90.7703249755
 10
138.1636416627
 20
90.7275791269
 10
138.111830545
 20
90.6927359302
 10
138.0560263197
 20
90.6657346333
 10
138.0451625777
 20
90.661575596
  0
LINE
  5
284
100
AcDbEntity
  8
RACCORDO
100
AcDbLine
 62
250
  6
CONTINUOUS
 10
137.5828720622
 20
92.8985974748
 11
137.656909366
 21
92.857648891
  0
LWPOLYLINE
  5
285
100
AcDbEntity
  8
RACCORDO
100
AcDbPolyline
 62
250
  6
CONTINUOUS
 90
29
 70
0
 10
137.656909366
 20
92.857648891
 10
137.7292769221
 20
92.8101082842
 10
137.7999754484
 20
92.7559759556
 10
137.8694763106
 20
92.6948047089
 10
137.9373110276
 20
92.627042951
 10
138.0020710677
 20
92.5540346066
 10
138.0636728115
 20
92.4756816905
 10
138.1222050107
 20
92.3920843459
 10
138.1765176053
 20
92.304883655
 10
138.2265157376
 20
92.214039511
 10
138.2723004365
 20
92.1195946239
 10
138.3130145884
 20
92.0233139324
 10
138.3485770452
 20
91.9251316784
 10
138.3790748529
 20
91.8251161197
 10
138.4039014278
 20
91.7252324788
 10
138.4229418956
 20
91.6255005866
 10
138.4363152852
 20
91.5259023873
 10
138.4437633579
 20
91.4283452138
 10
138.4451717766
 20
91.332858246
 10
138.4406564192
 20
91.2394129793
 10
138.4303014527
 20
91.1498289843
 10
138.4139904976
 20
91.0641856289
 10
138.3918384401
 20
90.9824029316
 10
138.3642734105
 20
90.9060601896
 10
138.3311831482
 20
90.8352606188
 10
138.2926757601
 20
90.7698992493
 10
138.2495074041
 20
90.7112420205
 10
138.2015904484
 20
90.6594262292
 10
138.1490066418
 20
90.6143120744
  0
LWPOLYLINE
  5
286
100
AcDbEntity
  8
21814000
100
AcDbPolyline
 62
250
  6
CONTINUOUS
 90
10
 70
0
 10
149.525526218
 20
128.8471498602
 10
149.5307833455
 20
128.8526773657
 10
149.5360178135
 20
128.8574403233
 10
149.5412070199
 20
128.8614159518
 10
149.5463304579
 20
128.8645858528
 10
149.5513636945
 20
128.866932181
 10
149.5562788896
 20
128.8684410322
 10
149.5610570111
 20
128.8691064943
 10
149.5656752148
 20
128.8689253146
 10
149.5677145297
 20
128.8685636476
  0
LWPOLYLINE
  5
287
100
AcDbEntity
  8
21814000
100
AcDbPolyline
 62
250
  6
CONTINUOUS
 90
10
 70
0
 10
149.2689708471
 20
128.1286098229
 10
149.2499299586
 20
128.1105502578
 10
149.2320819031
 20
128.0898397925
 10
149.2157936067
 20
128.0669041995
 10
149.2013999295
 20
128.0422149962
 10
149.1891967814
 20
128.0162797512
 10
149.1794350386
 20
127.9896316497
 10
149.1723153863
 20
127.9628185321
 10
149.1679841926
 20
127.9363916311
 10
149.1665304995
 20
127.9108942395
  0
LWPOLYLINE
  5
288
100
AcDbEntity
  8
21814000
100
AcDbPolyline
 62
250
  6
CONTINUOUS
 90
10
 70
0
 10
150.0273764457
 20
127.7494070236
 10
150.0083349932
 20
127.7313468293
 10
149.9904866014
 20
127.7106357689
 10
149.9741981856
 20
127.6876997089
 10
149.9598045848
 20
127.6630102603
 10
149.9476016454
 20
127.6370750235
 10
149.9378401592
 20
127.6104271424
 10
149.930720751
 20
127.5836144303
 10
149.9263897374
 20
127.5571881138
 10
149.9249361003
 20
127.5316914391
  0
LWPOLYLINE
  5
289
100
AcDbEntity
  8
21814000
100
AcDbPolyline
 62
250
  6
CONTINUOUS
 90
16
 70
0
 10
148.7536592833
 20
127.7986338142
 10
148.7778886187
 20
127.8214968167
 10
148.8039299469
 20
127.8425161286
 10
148.8314851843
 20
127.8616150811
 10
148.8602541116
 20
127.8788458651
 10
148.8899117939
 20
127.8940519358
 10
148.9201096306
 20
127.9068727049
 10
148.9505243637
 20
127.9172667146
 10
148.9808411389
 20
127.9252811252
 10
149.0107290412
 20
127.9307203417
 10
149.039840785
 20
127.9335972346
 10
149.0679509425
 20
127.9340080989
 10
149.094920412
 20
127.9318871586
 10
149.1205247851
 20
127.9272519709
 10
149.1444721248
 20
127.9202243555
 10
149.1665304995
 20
127.9108942395
  0
LINE
  5
28A
100
AcDbEntity
  8
21814000
100
AcDbLine
 62
250
  6
CONTINUOUS
 10
150.0453954679
 20
127.2876815448
 11
149.618776429
 21
126.8926667859
  0
LINE
  5
28B
100
AcDbEntity
  8
21814000
100
AcDbLine
 62
7
  6
CONTINUOUS
 10
149.9485950968
 20
127.2875213049
 11
149.5560313918
 21
126.9240393045
  0
LINE
  5
28C
100
AcDbEntity
  8
26814000
100
AcDbLine
 62
7
  6
CONTINUOUS
 10
150.9328251767
 20
124.4498268627
 11
152.5155817798
 21
125.26181096
  0
LINE
  5
28D
100
AcDbEntity
  8
26814000
100
AcDbLine
 62
7
  6
CONTINUOUS
 10
149.2587696004
 20
124.6566537951
 11
149.7578653332
 21
124.9086183758
  0
LINE
  5
28E
100
AcDbEntity
  8
26814000
100
AcDbLine
 62
7
  6
CONTINUOUS
 10
149.7578653332
 20
124.9086183758
 11
155.1721380284
 21
127.5892309731
  0
LINE
  5
28F
100
AcDbEntity
  8
26814000
100
AcDbLine
 62
7
  6
CONTINUOUS
 10
152.5155817798
 20
125.26181096
 11
153.0500316585
 21
125.5221584266
  0
LINE
  5
290
100
AcDbEntity
  8
21814000
100
AcDbLine
 62
7
  6
CONTINUOUS
 10
163.434109031
 20
130.9176721507
 11
160.0037051305
 21
129.2803353377
  0
LWPOLYLINE
  5
291
100
AcDbEntity
  8
RACCORDO
100
AcDbPolyline
 62
250
  6
CONTINUOUS
 90
17
 70
0
 10
136.7608969486
 20
91.926965022
 10
136.754012082
 20
91.9765785357
 10
136.7468427768
 20
92.0666443115
 10
136.7452099111
 20
92.1548368391
 10
136.7491042027
 20
92.2405653789
 10
136.7585406593
 20
92.3232742261
 10
136.7734372366
 20
92.4024144218
 10
136.7936736385
 20
92.4774706345
 10
136.8191533577
 20
92.5479733077
 10
136.8496973835
 20
92.6134642422
 10
136.8850834268
 20
92.6735045336
 10
136.9251004153
 20
92.7277051827
 10
136.9694668552
 20
92.7757077749
 10
137.0178779625
 20
92.8172051377
 10
137.0700470523
 20
92.8519456599
 10
137.1256210667
 20
92.8796990276
 10
137.146286744
 20
92.8879049675
  0
LINE
  5
292
100
AcDbEntity
  8
26814000
100
AcDbLine
 62
7
  6
CONTINUOUS
 10
136.9945879328
 20
129.2004754668
 11
136.9945879328
 21
129.1760799615
  0
LINE
  5
293
100
AcDbEntity
  8
26814000
100
AcDbLine
 62
7
  6
CONTINUOUS
 10
137.3937812297
 20
130.5737264995
 11
137.3937812297
 21
130.8270978932
  0
LINE
  5
294
100
AcDbEntity
  8
26814000
100
AcDbLine
 62
7
  6
CONTINUOUS
 10
137.8077607312
 20
128.7694935623
 11
137.8077607312
 21
128.4027580116
  0
LINE
  5
295
100
AcDbEntity
  8
21814000
100
AcDbLine
 62
250
  6
CONTINUOUS
 10
150.0784953927
 20
127.3214079264
 11
150.0453954679
 21
127.2876815448
  0
LWPOLYLINE
  5
296
100
AcDbEntity
  8
21814000
100
AcDbPolyline
 62
7
  6
CONTINUOUS
 90
13
 70
0
 10
160.4182826422
 20
128.2047567975
 10
160.2892978241
 20
128.1344030791
 10
160.1703845398
 20
128.0597450305
 10
160.0621157064
 20
127.9811423496
 10
159.9650129564
 20
127.8989737394
 10
159.879544125
 20
127.8136350832
 10
159.8061209959
 20
127.7255375376
 10
159.7450973173
 20
127.6351055511
 10
159.6967670975
 20
127.5427748196
 10
159.6613631887
 20
127.4489901869
 10
159.6390561646
 20
127.3542035018
 10
159.6299534992
 20
127.2588714406
 10
159.6297213774
 20
127.2410065591
  0
LINE
  5
297
100
AcDbEntity
  8
26814000
100
AcDbLine
 62
250
  6
CONTINUOUS
 10
154.6560082097
 20
123.9681063909
 11
160.0143349898
 21
126.8590466179
  0
LINE
  5
298
100
AcDbEntity
  8
26814000
100
AcDbLine
 62
250
  6
CONTINUOUS
 10
154.2893880565
 20
123.5218942648
 11
159.9301834222
 21
126.565232774
  0
LINE
  5
299
100
AcDbEntity
  8
0
100
AcDbLine
 62
7
  6
CONTINUOUS
 10
160.0874517821
 20
126.9328547172
 11
160.7382254369
 21
127.2760205333
  0
LINE
  5
29A
100
AcDbEntity
  8
RACCORDO
100
AcDbLine
 62
250
  6
CONTINUOUS
 10
160.7380976548
 20
127.2759531464
 11
160.7382254369
 21
127.2760205333
  0
LINE
  5
29B
100
AcDbEntity
  8
26814000
100
AcDbLine
 62
250
  6
CONTINUOUS
 10
154.2009981017
 20
123.3866010835
 11
159.9301834222
 21
126.3529736199
  0
LINE
  5
29C
100
AcDbEntity
  8
26814000
100
AcDbLine
 62
7
  6
CONTINUOUS
 10
154.3207642323
 20
123.3267180182
 11
160.0123931346
 21
126.2736451498
  0
LINE
  5
29D
100
AcDbEntity
  8
21814000
100
AcDbLine
 62
7
  6
CONTINUOUS
 10
164.4304386207
 20
130.2461565902
 11
160.4182826422
 21
128.2047567975
  0
LINE
  5
29E
100
AcDbEntity
  8
26814000
100
AcDbLine
 62
7
  6
CONTINUOUS
 10
152.5406465857
 20
123.6459161582
 11
154.1419273766
 21
124.4486381617
  0
LINE
  5
29F
100
AcDbEntity
  8
0
100
AcDbLine
 62
7
  6
CONTINUOUS
 10
160.8665128656
 20
127.0529288019
 11
161.3614876125
 21
127.3004161753
  0
LINE
  5
2A0
100
AcDbEntity
  8
26814000
100
AcDbLine
 62
7
  6
CONTINUOUS
 10
154.1419273766
 20
124.4486381617
 11
154.6701945483
 21
124.7120769817
  0
LINE
  5
2A1
100
AcDbEntity
  8
21814000
100
AcDbLine
 62
7
  6
CONTINUOUS
 10
164.4304386207
 20
129.8383053229
 11
160.4182826422
 21
127.8834325153
  0
LINE
  5
2A2
100
AcDbEntity
  8
26814000
100
AcDbLine
 62
250
  6
CONTINUOUS
 10
154.0524051666
 20
125.0829490434
 11
158.8242441448
 21
127.3770245298
  0
LINE
  5
2A3
100
AcDbEntity
  8
26814000
100
AcDbLine
 62
250
  6
CONTINUOUS
 10
154.2800206665
 20
124.9691412935
 11
159.2660850127
 21
127.3662062495
  0
LINE
  5
2A4
100
AcDbEntity
  8
26814000
100
AcDbLine
 62
7
  6
CONTINUOUS
 10
152.7630691533
 20
121.2918393513
 11
153.5762419516
 21
121.5761410192
  0
LINE
  5
2A5
100
AcDbEntity
  8
26814000
100
AcDbLine
 62
7
  6
CONTINUOUS
 10
138.096774184
 20
129.6671672448
 11
138.096774184
 21
130.1194982204
  0
LINE
  5
2A6
100
AcDbEntity
  8
26814000
100
AcDbLine
 62
7
  6
CONTINUOUS
 10
138.9995576919
 20
130.0242096621
 11
138.9995576919
 21
129.7708382684
  0
LINE
  5
2A7
100
AcDbEntity
  8
26814000
100
AcDbLine
 62
7
  6
CONTINUOUS
 10
139.7107783
 20
128.8601651868
 11
139.7107783
 21
129.4973347455
  0
LINE
  5
2A8
100
AcDbEntity
  8
28414000
100
AcDbLine
 62
7
  6
CONTINUOUS
 10
143.8811267836
 20
125.7328105361
 11
143.8378985788
 21
125.6026461269
  0
LWPOLYLINE
  5
2A9
100
AcDbEntity
  8
26814000
100
AcDbPolyline
 62
7
  6
CONTINUOUS
 90
5
 70
0
 10
160.0126016283
 20
126.273743461
 10
160.0128360652
 20
126.2738764628
 10
160.0137633011
 20
126.2747041342
 10
160.0142697186
 20
126.2757552056
 10
160.0143814639
 20
126.2766994499
  0
LINE
  5
2AA
100
AcDbEntity
  8
26814000
100
AcDbLine
 62
250
  6
CONTINUOUS
 10
154.2833487328
 20
122.645876676
 11
152.5155817798
 21
121.7430989765
  0
LINE
  5
2AB
100
AcDbEntity
  8
26814000
100
AcDbLine
 62
250
  6
CONTINUOUS
 10
154.5308361062
 20
122.219012556
 11
152.7630691533
 21
121.3162348566
  0
LINE
  5
2AC
100
AcDbEntity
  8
26814000
100
AcDbLine
 62
7
  6
CONTINUOUS
 10
154.1419273766
 20
122.7165873541
 11
153.0750964644
 21
122.1780061046
  0
LINE
  5
2AD
100
AcDbEntity
  8
RACCORDO
100
AcDbLine
 62
7
  6
CONTINUOUS
 10
163.829665525
 20
127.4809160276
 11
162.518201214
 21
126.8251838721
  0
LINE
  5
2AE
100
AcDbEntity
  8
RACCORDO
100
AcDbLine
 62
7
  6
CONTINUOUS
 10
164.6781962327
 20
127.0566532441
 11
163.7993035815
 21
126.6172069185
  0
LINE
  5
2AF
100
AcDbEntity
  8
26814000
100
AcDbLine
 62
250
  6
CONTINUOUS
 10
154.990455514
 20
122.9918723774
 11
154.2833487328
 21
122.645876676
  0
LINE
  5
2B0
100
AcDbEntity
  8
26814000
100
AcDbLine
 62
250
  6
CONTINUOUS
 10
155.2379428874
 20
122.5650082574
 11
154.5308361062
 21
122.219012556
  0
LINE
  5
2B1
100
AcDbEntity
  8
21814000
100
AcDbLine
 62
7
  6
CONTINUOUS
 10
160.596185062
 20
125.7741284321
 11
154.9303204931
 21
123.0219398878
  0
LINE
  5
2B2
100
AcDbEntity
  8
21814000
100
AcDbLine
 62
7
  6
CONTINUOUS
 10
168.9414440461
 20
128.1640046431
 11
161.3488791459
 21
124.475923171
  0
LINE
  5
2B3
100
AcDbEntity
  8
21814000
100
AcDbLine
 62
7
  6
CONTINUOUS
 10
168.1357721101
 20
128.5668406111
 11
164.7146260403
 21
126.9248748828
  0
LWPOLYLINE
  5
2B4
100
AcDbEntity
  8
RACCORDO
100
AcDbPolyline
 62
7
  6
CONTINUOUS
 90
10
 70
0
 10
164.6781673368
 20
127.0566387961
 10
164.6895638011
 20
127.0618074514
 10
164.7007842036
 20
127.0658593478
 10
164.7118285443
 20
127.0687944853
 10
164.7227918032
 20
127.0706130166
 10
164.7335790004
 20
127.0713147891
 10
164.7439051958
 20
127.0708993447
 10
164.7536754096
 20
127.0693665308
 10
164.7629846216
 20
127.0667165001
 10
164.7718328319
 20
127.0629492525
  0
LWPOLYLINE
  5
2B5
100
AcDbEntity
  8
21814000
100
AcDbPolyline
 62
7
  6
CONTINUOUS
 90
9
 70
0
 10
168.9414440461
 20
128.1640046431
 10
168.9975899238
 20
128.1892676814
 10
169.0508226347
 20
128.2087201739
 10
169.1006930952
 20
128.2223497849
 10
169.146663865
 20
128.2302574723
 10
169.1884558265
 20
128.2324904503
 10
169.2260487366
 20
128.2290334359
 10
169.2590830251
 20
128.2200968318
 10
169.2736449756
 20
128.2137237739
  0
LWPOLYLINE
  5
2B6
100
AcDbEntity
  8
RACCORDO
100
AcDbPolyline
 62
250
  6
CONTINUOUS
 90
22
 70
0
 10
148.4629409325
 20
119.734869356
 10
148.3873687088
 20
119.7024654186
 10
148.3117232816
 20
119.6635109956
 10
148.2363803649
 20
119.6182038084
 10
148.1617145677
 20
119.5667771398
 10
148.0880959963
 20
119.5094876544
 10
148.0158889427
 20
119.4466115343
 10
147.9454436437
 20
119.378454523
 10
147.8771197752
 20
119.3053659952
 10
147.8112816286
 20
119.227728444
 10
147.7482680329
 20
119.1459510986
 10
147.6883760753
 20
119.0604311124
 10
147.6318879761
 20
118.9715630677
 10
147.5790757232
 20
118.8797706662
 10
147.530216019
 20
118.7855319489
 10
147.4855712918
 20
118.6893432269
 10
147.4453687013
 20
118.5917019897
 10
147.4097991214
 20
118.4930838681
 10
147.3790365014
 20
118.3939643348
 10
147.3532347419
 20
118.2948336461
 10
147.3325242122
 20
118.1961947722
 10
147.3170092501
 20
118.0985420451
  0
LWPOLYLINE
  5
2B7
100
AcDbEntity
  8
RACCORDO
100
AcDbPolyline
 62
250
  6
CONTINUOUS
 90
22
 70
0
 10
148.9694189785
 20
118.7335890717
 10
148.9337079996
 20
118.7185571105
 10
148.8982639535
 20
118.7006480965
 10
148.8630868401
 20
118.6798620297
 10
148.8279885331
 20
118.6560616016
 10
148.7931571587
 20
118.6293841207
 10
148.7591570959
 20
118.6002415127
 10
148.7260130617
 20
118.5685992108
 10
148.6937003389
 20
118.5344917819
 10
148.6627091553
 20
118.4984348522
 10
148.6330643466
 20
118.4604053117
 10
148.6047410771
 20
118.4204262704
 10
148.5781550676
 20
118.3790826844
 10
148.5533270424
 20
118.3363443671
 10
148.5302362772
 20
118.292241505
 10
148.5092363196
 20
118.2474496139
 10
148.4903604575
 20
118.2019476246
 10
148.4735754031
 20
118.1557566062
 10
148.4591348403
 20
118.109615282
 10
148.4471233303
 20
118.063769893
 10
148.4374563119
 20
118.0179741981
 10
148.4301337851
 20
117.9722281974
  0
LINE
  5
2B8
100
AcDbEntity
  8
RACCORDO
100
AcDbLine
 62
250
  6
CONTINUOUS
 10
152.5146244254
 20
121.2642832036
 11
148.4629409325
 21
119.734869356
  0
LINE
  5
2B9
100
AcDbEntity
  8
RACCORDO
100
AcDbLine
 62
250
  6
CONTINUOUS
 10
153.0211024714
 20
120.2630029193
 11
148.9694189785
 21
118.7335890717
  0
LINE
  5
2BA
100
AcDbEntity
  8
26814000
100
AcDbLine
 62
7
  6
CONTINUOUS
 10
140.7776092121
 20
129.3987464363
 11
140.7776092121
 21
131.1307972439
  0
LINE
  5
2BB
100
AcDbEntity
  8
26814000
100
AcDbLine
 62
7
  6
CONTINUOUS
 10
141.4806021664
 20
131.2661187416
 11
141.4806021664
 21
131.0051897653
  0
LINE
  5
2BC
100
AcDbEntity
  8
21814000
100
AcDbLine
 62
250
  6
CONTINUOUS
 10
169.699950741
 20
126.2686721352
 11
155.2379428874
 21
118.7807483699
  0
LINE
  5
2BD
100
AcDbEntity
  8
21814000
100
AcDbLine
 62
250
  6
CONTINUOUS
 10
169.3609872571
 20
127.4403996416
 11
155.2379428874
 21
120.4185434433
  0
LINE
  5
2BE
100
AcDbEntity
  8
26814000
100
AcDbLine
 62
7
  6
CONTINUOUS
 10
142.9553662151
 20
128.8727333045
 11
142.9553662151
 21
127.6579999183
  0
LINE
  5
2BF
100
AcDbEntity
  8
26814000
100
AcDbLine
 62
250
  6
CONTINUOUS
 10
143.0432341808
 20
128.7662243477
 11
143.0432341808
 21
127.5512694816
  0
LINE
  5
2C0
100
AcDbEntity
  8
26814000
100
AcDbLine
 62
7
  6
CONTINUOUS
 10
143.2171276072
 20
126.0648101243
 11
143.2171276072
 21
125.9130316126
  0
LWPOLYLINE
  5
2C1
100
AcDbEntity
  8
RACCORDO
100
AcDbPolyline
 62
250
  6
CONTINUOUS
 90
14
 70
0
 10
144.3379788122
 20
81.8953709833
 10
144.3378845866
 20
81.8033372994
 10
144.34313944
 20
81.7141583715
 10
144.3537166905
 20
81.6282799061
 10
144.3695635285
 20
81.5461339063
 10
144.3905999328
 20
81.4681269955
 10
144.4167213779
 20
81.3946403362
 10
144.4478045667
 20
81.3260333526
 10
144.4836928716
 20
81.2626601368
 10
144.5241933898
 20
81.2048549794
 10
144.5690936885
 20
81.1529131749
 10
144.6181763829
 20
81.1070781732
 10
144.6712095302
 20
81.0675649128
 10
144.7301100505
 20
81.0334743445
  0
LINE
  5
2C2
100
AcDbEntity
  8
28414000
100
AcDbLine
 62
7
  6
CONTINUOUS
 10
148.1237674707
 20
123.6114901925
 11
148.0805392659
 21
123.4813257833
  0
LINE
  5
2C3
100
AcDbEntity
  8
26814000
100
AcDbLine
 62
7
  6
CONTINUOUS
 10
154.7570462116
 20
124.0910793951
 11
154.2298014958
 21
123.449371667
  0
LWPOLYLINE
  5
2C4
100
AcDbEntity
  8
21814000
100
AcDbPolyline
 62
250
  6
CONTINUOUS
 90
32
 70
0
 10
169.8076100312
 20
120.7223750133
 10
169.8277011361
 20
120.7283216987
 10
169.8470209358
 20
120.7321728049
 10
169.865546555
 20
120.733955345
 10
169.8832415549
 20
120.7335714415
 10
169.9000802873
 20
120.7311885891
 10
169.9160574795
 20
120.7272292035
 10
169.9310972238
 20
120.7217680095
 10
169.9452108668
 20
120.7148005828
 10
169.9585333971
 20
120.7066208793
 10
169.9710485146
 20
120.6973259898
 10
169.9827042927
 20
120.6868966389
 10
169.9935844381
 20
120.675451884
 10
170.003688097
 20
120.6630678021
 10
170.0129368833
 20
120.6497648936
 10
170.0212951179
 20
120.6355846781
 10
170.0287436359
 20
120.6206046502
 10
170.0352117656
 20
120.6048648316
 10
170.040581929
 20
120.5883583333
 10
170.0448294412
 20
120.5712021171
 10
170.0478791826
 20
120.5534203571
 10
170.0495254766
 20
120.5348852502
 10
170.0497589277
 20
120.5157578385
 10
170.0484646791
 20
120.4960660562
 10
170.0452484481
 20
120.4755260392
 10
170.0401069198
 20
120.4543331662
 10
170.0328695636
 20
120.4325745559
 10
170.022844786
 20
120.4098730868
 10
170.0100380421
 20
120.3865061742
 10
169.9942107337
 20
120.3626072251
 10
169.9742494099
 20
120.3376706433
 10
169.9525449207
 20
120.3146309126
  0
LWPOLYLINE
  5
2C5
100
AcDbEntity
  8
RACCORDO
100
AcDbPolyline
 62
250
  6
CONTINUOUS
 90
22
 70
0
 10
145.4590474283
 20
81.8655989252
 10
145.4590536678
 20
81.8224972812
 10
145.461536251
 20
81.7810569539
 10
145.4664951777
 20
81.7412779432
 10
145.4739785908
 20
81.7029592284
 10
145.4839383475
 20
81.6663018302
 10
145.4962300195
 20
81.6319088111
 10
145.5108908656
 20
81.5998301097
 10
145.527883627
 20
81.5700157874
 10
145.5469520993
 20
81.5429190917
 10
145.5681240884
 20
81.5185850348
 10
145.5913717884
 20
81.4969686044
 10
145.6163555778
 20
81.4783880105
 10
145.6431076911
 20
81.4628856932
 10
145.6715958938
 20
81.4504192125
 10
145.701383861
 20
81.441179458
 10
145.7325006889
 20
81.4352223277
 10
145.7649172813
 20
81.4324919237
 10
145.7981100253
 20
81.4330114421
 10
145.8319043831
 20
81.4367886149
 10
145.8664748926
 20
81.44381571
 10
145.9018215536
 20
81.4540927275
  0
LWPOLYLINE
  5
2C6
100
AcDbEntity
  8
RACCORDO
100
AcDbPolyline
 62
250
  6
CONTINUOUS
 90
6
 70
0
 10
145.1076625844
 20
96.809863484
 10
144.8996784138
 20
93.8055020377
 10
144.7186967778
 20
90.8114969821
 10
144.564740455
 20
87.8282240978
 10
144.4378290677
 20
84.8560577738
 10
144.3379788122
 20
81.8953709833
  0
LWPOLYLINE
  5
2C7
100
AcDbEntity
  8
RACCORDO
100
AcDbPolyline
 62
250
  6
CONTINUOUS
 90
8
 70
0
 10
147.3170092501
 20
118.0985420451
 10
146.9209259407
 20
115.0323123381
 10
146.5515920718
 20
111.9737742856
 10
146.2090537422
 20
108.923311963
 10
145.8933536614
 20
105.8813084828
 10
145.6045313948
 20
102.8481457063
 10
145.3426233613
 20
99.8242041968
 10
145.1076625844
 20
96.809863484
  0
LWPOLYLINE
  5
2C8
100
AcDbEntity
  8
21814000
100
AcDbPolyline
 62
7
  6
CONTINUOUS
 90
9
 70
0
 10
150.0124565128
 20
127.3844030383
 10
150.0108735187
 20
127.3765859607
 10
150.0074511583
 20
127.3663143535
 10
150.0016874197
 20
127.3537580044
 10
149.9933686642
 20
127.3395165849
 10
149.98269005
 20
127.3244573314
 10
149.9698754957
 20
127.3090879582
 10
149.9550322119
 20
127.2936374552
 10
149.9485952749
 20
127.2875211118
  0
LINE
  5
2C9
100
AcDbEntity
  8
0
100
AcDbLine
 62
7
  6
CONTINUOUS
 10
137.5681617323
 20
92.8569862668
 11
137.5508466622
 21
92.8214979873
  0
LWPOLYLINE
  5
2CA
100
AcDbEntity
  8
RACCORDO
100
AcDbPolyline
 62
250
  6
CONTINUOUS
 90
47
 70
0
 10
160.3034441855
 20
126.8397620377
 10
160.3423769598
 20
126.8918040325
 10
160.3916601781
 20
126.9485847099
 10
160.4467938528
 20
127.0041753243
 10
160.5072973311
 20
127.0581178466
 10
160.5731696827
 20
127.1103707461
 10
160.644411838
 20
127.1609755535
 10
160.7205459357
 20
127.209598832
 10
160.8015625647
 20
127.2562265745
 10
160.8874711361
 20
127.3008727881
 10
160.9778220218
 20
127.3432460572
 10
161.072872302
 20
127.3834052552
 10
161.1723648965
 20
127.4212915087
 10
161.2750789369
 20
127.4564367819
 10
161.3814198056
 20
127.4888145018
 10
161.4909821202
 20
127.5184512413
 10
161.6013288646
 20
127.5449586835
 10
161.7124333815
 20
127.568158077
 10
161.8243223283
 20
127.588228173
 10
161.9346386604
 20
127.6053169088
 10
162.0430291503
 20
127.6192908046
 10
162.1498470255
 20
127.6302833402
 10
162.2537949247
 20
127.6388428915
 10
162.3546307591
 20
127.644945461
 10
162.4525966174
 20
127.6486150462
 10
162.5471214037
 20
127.650472015
 10
162.6380431438
 20
127.6505378839
 10
162.725523812
 20
127.6487911363
 10
162.8094782353
 20
127.645787591
 10
162.8897823087
 20
127.6415687903
 10
162.9665601373
 20
127.6360931918
 10
163.0400988638
 20
127.6297919862
 10
163.1103653975
 20
127.6227059524
 10
163.177392829
 20
127.6147943115
 10
163.2415675732
 20
127.6063659174
 10
163.30287532
 20
127.5974552768
 10
163.3613303794
 20
127.588027883
 10
163.4173620959
 20
127.5782890692
 10
163.4709666795
 20
127.5682675475
 10
163.5221479201
 20
127.5579346057
 10
163.5713465324
 20
127.547409441
 10
163.6185656773
 20
127.5367149019
 10
163.6638021939
 20
127.5258281397
 10
163.7074873138
 20
127.5147998061
 10
163.7497647809
 20
127.5036467848
 10
163.7904908513
 20
127.492352192
 10
163.829665525
 20
127.4809160276
  0
LWPOLYLINE
  5
2CB
100
AcDbEntity
  8
RACCORDO
100
AcDbPolyline
 62
250
  6
CONTINUOUS
 90
10
 70
0
 10
160.221790316
 20
126.8734196797
 10
160.2240850041
 20
126.8764796904
 10
160.2769476552
 20
126.9371967884
 10
160.3360265257
 20
126.9964560057
 10
160.4011193051
 20
127.0540639389
 10
160.4719951369
 20
127.1098374065
 10
160.5484882747
 20
127.163665342
 10
160.6304796785
 20
127.2154665257
 10
160.7177282754
 20
127.2650841651
 10
160.7380976548
 20
127.2759531464
  0
LINE
  5
2CC
100
AcDbEntity
  8
26814000
100
AcDbLine
 62
7
  6
CONTINUOUS
 10
148.1668750755
 20
123.5899363901
 11
148.1668750755
 21
123.4381578785
  0
LINE
  5
2CD
100
AcDbEntity
  8
21814000
100
AcDbLine
 62
250
  6
CONTINUOUS
 10
148.7536592833
 20
127.7986338142
 11
148.7536592833
 21
127.3252253588
  0
LINE
  5
2CE
100
AcDbEntity
  8
26814000
100
AcDbLine
 62
250
  6
CONTINUOUS
 10
148.8357432488
 20
124.6550149476
 11
148.8357432488
 21
125.8699698137
  0
LWPOLYLINE
  5
2CF
100
AcDbEntity
  8
RACCORDO
100
AcDbPolyline
 62
250
  6
CONTINUOUS
 90
16
 70
0
 10
148.9694189785
 20
118.7335890717
 10
148.9715103933
 20
118.8098721138
 10
148.9674921329
 20
118.8884569281
 10
148.9574081731
 20
118.9684828818
 10
148.9413689199
 20
119.0490735546
 10
148.9195500028
 20
119.1293463281
 10
148.8921903541
 20
119.208422053
 10
148.8595895863
 20
119.2854346949
 10
148.8221047183
 20
119.3595407993
 10
148.7801462727
 20
119.4299287236
 10
148.7341737598
 20
119.4958275645
 10
148.6846906591
 20
119.5565155723
 10
148.6322389209
 20
119.6113280449
 10
148.5773930013
 20
119.6596646474
 10
148.5207535664
 20
119.7009959803
 10
148.4629409344
 20
119.7348693567
  0
LINE
  5
2D0
100
AcDbEntity
  8
21814000
100
AcDbLine
 62
7
  6
CONTINUOUS
 10
150.0127990988
 20
127.389273391
 11
150.0124565128
 21
127.3844030383
  0
LWPOLYLINE
  5
2D1
100
AcDbEntity
  8
RACCORDO
100
AcDbPolyline
 62
250
  6
CONTINUOUS
 90
7
 70
0
 10
146.4609900137
 20
99.7466249207
 10
146.2266700938
 20
96.7404398918
 10
146.0192245619
 20
93.7438287698
 10
145.8387317012
 20
90.7579256978
 10
145.6852176058
 20
87.7831087236
 10
145.5586561815
 20
84.8189997994
 10
145.4590474283
 20
81.8655989252
  0
LWPOLYLINE
  5
2D2
100
AcDbEntity
  8
RACCORDO
100
AcDbPolyline
 62
250
  6
CONTINUOUS
 90
7
 70
0
 10
148.4301337851
 20
117.9722281974
 10
148.0350297788
 20
114.9135513994
 10
147.6666911236
 20
111.8633051022
 10
147.3251178195
 20
108.8214893057
 10
147.0102735208
 20
105.7877228745
 10
146.7221945732
 20
102.7623869442
 10
146.4609900137
 20
99.7466249207
  0
LINE
  5
2D3
100
AcDbEntity
  8
26814000
100
AcDbLine
 62
7
  6
CONTINUOUS
 10
151.5137542731
 20
101.9446990926
 11
151.8438303377
 21
101.7796610602
  0
LWPOLYLINE
  5
2D4
100
AcDbEntity
  8
26814000
100
AcDbPolyline
 62
7
  6
CONTINUOUS
 90
13
 70
0
 10
160.0109618472
 20
89.3499241779
 10
160.0080706822
 20
89.3538173689
 10
160.004381918
 20
89.3581997091
 10
159.9999219541
 20
89.3629570019
 10
159.9947290958
 20
89.3680968566
 10
159.9888464386
 20
89.3736442153
 10
159.9822859044
 20
89.3795118139
 10
159.9750790012
 20
89.3857091219
 10
159.9672618555
 20
89.3922542465
 10
159.9588379161
 20
89.3990751226
 10
159.9498250247
 20
89.4061571474
 10
159.9402631794
 20
89.4135407907
 10
159.9301834222
 20
89.4212373453
  0
LINE
  5
2D5
100
AcDbEntity
  8
26814000
100
AcDbLine
 62
7
  6
CONTINUOUS
 10
150.9064540827
 20
94.5643808524
 11
151.5706169353
 21
88.3738655213
  0
LINE
  5
2D6
100
AcDbEntity
  8
26814000
100
AcDbLine
 62
7
  6
CONTINUOUS
 10
151.2397528772
 20
98.6148508032
 11
151.2704739267
 21
98.3261619467
  0
LINE
  5
2D7
100
AcDbEntity
  8
21814000
100
AcDbLine
 62
7
  6
CONTINUOUS
 10
150.0128040274
 20
127.3893305183
 11
150.0128040629
 21
127.389231542
  0
LINE
  5
2D8
100
AcDbEntity
  8
21814000
100
AcDbLine
 62
250
  6
CONTINUOUS
 10
149.1665304995
 20
127.9108942395
 11
149.1665304995
 21
127.1187897507
  0
LINE
  5
2D9
100
AcDbEntity
  8
26814000
100
AcDbLine
 62
7
  6
CONTINUOUS
 10
149.1921799083
 20
128.9079887821
 11
149.1921799083
 21
130.1582596413
  0
LINE
  5
2DA
100
AcDbEntity
  8
26814000
100
AcDbLine
 62
250
  6
CONTINUOUS
 10
149.2587696004
 20
124.6566537951
 11
149.2587696004
 21
125.870857268
  0
LINE
  5
2DB
100
AcDbEntity
  8
26814000
100
AcDbLine
 62
7
  6
CONTINUOUS
 10
149.5457332989
 20
129.4289247567
 11
149.5457332989
 21
129.981482946
  0
LINE
  5
2DC
100
AcDbEntity
  8
26814000
100
AcDbLine
 62
250
  6
CONTINUOUS
 10
149.616443977
 20
131.5976912436
 11
149.616443977
 21
130.3658570622
  0
LINE
  5
2DD
100
AcDbEntity
  8
26814000
100
AcDbLine
 62
7
  6
CONTINUOUS
 10
149.7043119426
 20
131.7026884575
 11
149.7043119426
 21
130.4703198527
  0
LINE
  5
2DE
100
AcDbEntity
  8
26814000
100
AcDbLine
 62
7
  6
CONTINUOUS
 10
149.7578653332
 20
126.1210539411
 11
149.7578653332
 21
124.9086183758
  0
LINE
  5
2DF
100
AcDbEntity
  8
21814000
100
AcDbLine
 62
250
  6
CONTINUOUS
 10
149.9249360982
 20
127.5316914402
 11
149.9249360982
 21
127.2656152549
  0
LINE
  5
2E0
100
AcDbEntity
  8
26814000
100
AcDbLine
 62
7
  6
CONTINUOUS
 10
150.7580993941
 20
82.3385918841
 11
150.7580993941
 21
82.5919632779
  0
LINE
  5
2E1
100
AcDbEntity
  8
26814000
100
AcDbLine
 62
7
  6
CONTINUOUS
 10
150.7580993941
 20
123.8915674173
 11
150.7580993941
 21
124.144938811
  0
LWPOLYLINE
  5
2E2
100
AcDbEntity
  8
RACCORDO
100
AcDbPolyline
 62
250
  6
CONTINUOUS
 90
11
 70
0
 10
145.9018215536
 20
81.4540927275
 10
145.8915556462
 20
81.3802022716
 10
145.8753152792
 20
81.3102581966
 10
145.8532783166
 20
81.2450265277
 10
145.8256861063
 20
81.1852216798
 10
145.7928408374
 20
81.1314986334
 10
145.75510223
 20
81.0844457615
 10
145.7128835961
 20
81.0445783854
 10
145.6666473125
 20
81.0123331312
 10
145.6168997575
 20
80.9880631478
 10
145.600119024
 20
80.9819572996
  0
LINE
  5
2E3
100
AcDbEntity
  8
21814000
100
AcDbLine
 62
7
  6
CONTINUOUS
 10
169.9525449207
 20
120.299710695
 11
171.0232680146
 21
120.9922453521
  0
LINE
  5
2E4
100
AcDbEntity
  8
26814000
100
AcDbLine
 62
7
  6
CONTINUOUS
 10
151.8438303377
 20
101.7796610602
 11
153.5762419516
 21
85.3655001528
  0
LWPOLYLINE
  5
2E5
100
AcDbEntity
  8
26814000
100
AcDbPolyline
 62
7
  6
CONTINUOUS
 90
24
 70
0
 10
152.3034497455
 20
130.47236549
 10
152.3028765611
 20
130.5068378962
 10
152.3011774481
 20
130.5405878172
 10
152.2983524065
 20
130.5736152529
 10
152.294391972
 20
130.6059768103
 10
152.2893056088
 20
130.6376158825
 10
152.2831217105
 20
130.6683626491
 10
152.275839095
 20
130.6981981765
 10
152.2674589444
 20
130.7271413983
 10
152.2580131971
 20
130.7550792942
 10
152.2474893386
 20
130.782025457
 10
152.2358998836
 20
130.807966294
 10
152.2233143148
 20
130.8327480069
 10
152.209739129
 20
130.8563453082
 10
152.1951678294
 20
130.8787834856
 10
152.1796504094
 20
130.8999846028
 10
152.163167122
 20
130.9199616927
 10
152.1457377142
 20
130.9387017226
 10
152.1274714195
 20
130.9560876581
 10
152.1083827636
 20
130.9720965845
 10
152.0884572209
 20
130.9867514165
 10
152.0677604484
 20
131.0000038649
 10
152.0462679338
 20
131.0118597262
 10
148.8170666676
 20
132.6264842365
  0
LINE
  5
2E6
100
AcDbEntity
  8
26814000
100
AcDbLine
 62
7
  6
CONTINUOUS
 10
151.4610923484
 20
122.9850081626
 11
151.4610923484
 21
123.4373391382
  0
LINE
  5
2E7
100
AcDbEntity
  8
26814000
100
AcDbLine
 62
7
  6
CONTINUOUS
 10
152.3034497455
 20
130.47236549
 11
152.3034497455
 21
130.2015651974
  0
LINE
  5
2E8
100
AcDbEntity
  8
26814000
100
AcDbLine
 62
7
  6
CONTINUOUS
 10
152.3638758563
 20
123.3420505799
 11
152.3638758563
 21
123.0886791862
  0
LINE
  5
2E9
100
AcDbEntity
  8
26814000
100
AcDbLine
 62
7
  6
CONTINUOUS
 10
152.3638758563
 20
81.7890750468
 11
152.3638758563
 21
81.535703653
  0
LINE
  5
2EA
100
AcDbEntity
  8
26814000
100
AcDbLine
 62
7
  6
CONTINUOUS
 10
152.7630691533
 20
121.3162348566
 11
152.7630691533
 21
121.2918393513
  0
LINE
  5
2EB
100
AcDbEntity
  8
26814000
100
AcDbLine
 62
7
  6
CONTINUOUS
 10
152.7630691533
 20
83.1867215848
 11
152.7630691533
 21
83.1623260795
  0
LINE
  5
2EC
100
AcDbEntity
  8
26814000
100
AcDbLine
 62
7
  6
CONTINUOUS
 10
153.0750964644
 20
82.7655715239
 11
153.0750964644
 21
83.170193615
  0
LINE
  5
2ED
100
AcDbEntity
  8
26814000
100
AcDbLine
 62
7
  6
CONTINUOUS
 10
153.0750964644
 20
122.1780061046
 11
153.0750964644
 21
122.8151756633
  0
LINE
  5
2EE
100
AcDbEntity
  8
RACCORDO
100
AcDbLine
 62
7
  6
CONTINUOUS
 10
149.9389213167
 20
82.8062753337
 11
153.0211024714
 21
120.2630029193
  0
LINE
  5
2EF
100
AcDbEntity
  8
26814000
100
AcDbLine
 62
7
  6
CONTINUOUS
 10
153.5762419516
 20
119.9262335816
 11
151.8438303377
 21
101.7796610602
  0
LWPOLYLINE
  5
2F0
100
AcDbEntity
  8
21814000
100
AcDbPolyline
 62
250
  6
CONTINUOUS
 90
28
 70
0
 10
169.699950741
 20
120.5933171418
 10
169.716229217
 20
120.6077830306
 10
169.7322818435
 20
120.6199373743
 10
169.748075418
 20
120.629783363
 10
169.7636065217
 20
120.637370883
 10
169.7788069411
 20
120.6426554013
 10
169.7935549404
 20
120.6454936877
 10
169.807848498
 20
120.6457117448
 10
169.8216344974
 20
120.6434774318
 10
169.8347451773
 20
120.6391491426
 10
169.8471283925
 20
120.6326519297
 10
169.8588314686
 20
120.6240378036
 10
169.8698566128
 20
120.6138493634
 10
169.8801731954
 20
120.6021449699
 10
169.8898074534
 20
120.588844776
 10
169.8988298671
 20
120.5742878356
 10
169.9072192845
 20
120.558521732
 10
169.9149580886
 20
120.5414838912
 10
169.9220865697
 20
120.5233539085
 10
169.9285716689
 20
120.5041358645
 10
169.9343677545
 20
120.4838126197
 10
169.9394627824
 20
120.4625349703
 10
169.9438027656
 20
120.4403008409
 10
169.947333063
 20
120.4170946562
 10
169.9500104524
 20
120.3930471471
 10
169.9517616757
 20
120.3681742555
 10
169.9525189489
 20
120.3424329285
 10
169.9525445569
 20
120.3373723061
  0
LWPOLYLINE
  5
2F1
100
AcDbEntity
  8
21814000
100
AcDbPolyline
 62
7
  6
CONTINUOUS
 90
76
 70
0
 10
169.8076100311
 20
120.7223750133
 10
169.8696234594
 20
120.7739932189
 10
169.9299333524
 20
120.8246238595
 10
169.9885397101
 20
120.8742669349
 10
170.0454032992
 20
120.9228914939
 10
170.100563353
 20
120.9705284878
 10
170.1541375713
 20
121.0172707707
 10
170.206132795
 20
121.0631212863
 10
170.2565421833
 20
121.1080770908
 10
170.3054629139
 20
121.1522222067
 10
170.3528998504
 20
121.1955571653
 10
170.3988481292
 20
121.2380814354
 10
170.4433903369
 20
121.2798774461
 10
170.4865322262
 20
121.3209452435
 10
170.5282680445
 20
121.3612847815
 10
170.5686631202
 20
121.4009783517
 10
170.6077249412
 20
121.4400254751
 10
170.6454460197
 20
121.4784266307
 10
170.6818692206
 20
121.5162655469
 10
170.7170052454
 20
121.5535411406
 10
170.7508433927
 20
121.5902544949
 10
170.783394423
 20
121.6264925869
 10
170.8146765014
 20
121.6622556171
 10
170.8446714628
 20
121.6975433851
 10
170.8733355728
 20
121.7324422668
 10
170.9006995835
 20
121.7669548477
 10
170.9267327427
 20
121.8010785424
 10
170.9512990599
 20
121.83489197
 10
170.9744675127
 20
121.8684403356
 10
170.9961691234
 20
121.9016784343
 10
171.016060968
 20
121.9345492706
 10
171.0342191918
 20
121.9671699111
 10
171.0505676494
 20
121.9994232893
 10
171.064534981
 20
122.0309012109
 10
171.0760744275
 20
122.0616170685
 10
171.085232748
 20
122.0915574696
 10
171.0915788601
 20
122.1202740421
 10
171.0950035157
 20
122.1477264185
 10
171.0956159629
 20
122.1739549663
 10
171.0933128632
 20
122.1986324168
 10
171.0879287368
 20
122.221721035
 10
171.0796290636
 20
122.2432585559
 10
171.0688069449
 20
122.2630309153
 10
171.0553861682
 20
122.2809091214
 10
171.0394429461
 20
122.297022166
 10
171.0215990179
 20
122.3115429606
 10
171.0019345447
 20
122.3244210219
 10
170.9803693654
 20
122.3357068331
 10
170.9572847358
 20
122.3457247555
 10
170.9327549577
 20
122.354503216
 10
170.9067057291
 20
122.3620137877
 10
170.8792954004
 20
122.3684955514
 10
170.8505592954
 20
122.3739801241
 10
170.8204620902
 20
122.3784358888
 10
170.7890561635
 20
122.3820070761
 10
170.7563608966
 20
122.3847140675
 10
170.7223569082
 20
122.3865364814
 10
170.6870384336
 20
122.3875574035
 10
170.6504176924
 20
122.3877899961
 10
170.612482465
 20
122.387221097
 10
170.5731903274
 20
122.3858943048
 10
170.5325468315
 20
122.3838182075
 10
170.4905464255
 20
122.380984217
 10
170.4471300299
 20
122.377410168
 10
170.4023017823
 20
122.3731017791
 10
170.3560575451
 20
122.3680533316
 10
170.3083258254
 20
122.3622655038
 10
170.2591172328
 20
122.3557437098
 10
170.2084211577
 20
122.3484825355
 10
170.1561342788
 20
122.3404664171
 10
170.1022634898
 20
122.3317003977
 10
170.0468018969
 20
122.3221794342
 10
169.9896254975
 20
122.3118728328
 10
169.9306929574
 20
122.3007703621
 10
169.8700456109
 20
122.2888822535
 10
169.8076834578
 20
122.276208507
  0
LWPOLYLINE
  5
2F2
100
AcDbEntity
  8
26814000
100
AcDbPolyline
 62
7
  6
CONTINUOUS
 90
31
 70
0
 10
154.5308361062
 20
122.219012556
 10
154.5304964387
 20
122.2350455881
 10
154.5294800012
 20
122.2513741573
 10
154.5277892679
 20
122.2679533605
 10
154.5254282634
 20
122.2847374602
 10
154.5224034517
 20
122.3016804542
 10
154.5187237193
 20
122.3187362025
 10
154.5143988662
 20
122.3358578212
 10
154.5094404364
 20
122.352998232
 10
154.5038625858
 20
122.3701107368
 10
154.4976803416
 20
122.3871483066
 10
154.4909103513
 20
122.4040640987
 10
154.4835716929
 20
122.4208120063
 10
154.4756842509
 20
122.4373460135
 10
154.467269367
 20
122.4536206662
 10
154.4583505719
 20
122.4695915845
 10
154.4489521182
 20
122.4852148986
 10
154.4390995164
 20
122.5004476625
 10
154.428820171
 20
122.5152483168
 10
154.4181421056
 20
122.529576218
 10
154.4070943718
 20
122.5433919861
 10
154.3957075726
 20
122.5566579061
 10
154.3840128128
 20
122.5693375622
 10
154.3720419697
 20
122.58139611
 10
154.3598280907
 20
122.5928006088
 10
154.3474045962
 20
122.603519767
 10
154.3348054039
 20
122.6135241343
 10
154.3220651915
 20
122.6227863557
 10
154.3092188954
 20
122.631281047
 10
154.296301615
 20
122.6389848646
 10
154.2833487328
 20
122.645876676
  0
LINE
  5
2F3
100
AcDbEntity
  8
26814000
100
AcDbLine
 62
7
  6
CONTINUOUS
 10
153.5762419516
 20
121.5761410192
 11
153.5762419516
 21
119.9262335816
  0
LINE
  5
2F4
100
AcDbEntity
  8
26814000
100
AcDbLine
 62
7
  6
CONTINUOUS
 10
153.5762419516
 20
85.3655001528
 11
153.5762419516
 21
83.7155927152
  0
LINE
  5
2F5
100
AcDbEntity
  8
26814000
100
AcDbLine
 62
7
  6
CONTINUOUS
 10
154.1419273766
 20
82.186598457
 11
154.1419273766
 21
83.6922065832
  0
LINE
  5
2F6
100
AcDbEntity
  8
26814000
100
AcDbLine
 62
7
  6
CONTINUOUS
 10
154.1419273766
 20
122.7165873541
 11
154.1419273766
 21
124.4486381617
  0
LINE
  5
2F7
100
AcDbEntity
  8
26814000
100
AcDbLine
 62
7
  6
CONTINUOUS
 10
154.8449203308
 20
124.5839596594
 11
154.8449203308
 21
124.3230306831
  0
LINE
  5
2F8
100
AcDbEntity
  8
26814000
100
AcDbLine
 62
7
  6
CONTINUOUS
 10
154.8449203308
 20
83.0234265437
 11
154.8449203308
 21
82.7624975673
  0
LINE
  5
2F9
100
AcDbEntity
  8
26814000
100
AcDbLine
 62
250
  6
CONTINUOUS
 10
155.1721380284
 20
128.8210695514
 11
155.1721380284
 21
127.5892309731
  0
LINE
  5
2FA
100
AcDbEntity
  8
21814000
100
AcDbLine
 62
7
  6
CONTINUOUS
 10
155.2379428874
 20
88.1726863003
 11
155.2379428874
 21
118.7807483699
  0
LINE
  5
2FB
100
AcDbEntity
  8
26814000
100
AcDbLine
 62
7
  6
CONTINUOUS
 10
155.2379428874
 20
84.3884264127
 11
155.2379428874
 21
122.5650082574
  0
LINE
  5
2FC
100
AcDbEntity
  8
26814000
100
AcDbLine
 62
7
  6
CONTINUOUS
 10
155.2587754568
 20
128.9254569268
 11
155.2587754568
 21
127.693088435
  0
LWPOLYLINE
  5
2FD
100
AcDbEntity
  8
26814000
100
AcDbPolyline
 62
7
  6
CONTINUOUS
 90
18
 70
0
 10
154.5308361062
 20
84.0273153329
 10
154.5304974617
 20
84.0116214569
 10
154.5294808183
 20
83.9963094281
 10
154.5277892679
 20
83.9814213668
 10
154.5254280507
 20
83.966998378
 10
154.5224036392
 20
83.9530799956
 10
154.5187237193
 20
83.9397040734
 10
154.5143986555
 20
83.9269074132
 10
154.5094406058
 20
83.9147252421
 10
154.5038625858
 20
83.9031906727
 10
154.4976801379
 20
83.8923354488
 10
154.4909104985
 20
83.8821894716
 10
154.4835716929
 20
83.8727802959
 10
154.4756840594
 20
83.8641338266
 10
154.4672694884
 20
83.8562739013
 10
154.4583505719
 20
83.8492218388
 10
154.4489519435
 20
83.8429970658
 10
154.4408673321
 20
83.8385028015
  0
LWPOLYLINE
  5
2FE
100
AcDbEntity
  8
RACCORDO
100
AcDbPolyline
 62
250
  6
CONTINUOUS
 90
11
 70
0
 10
138.1490066418
 20
90.6143120744
 10
138.092764434
 20
90.5767490843
 10
138.0327981655
 20
90.5468772032
 10
137.9691672884
 20
90.5245538321
 10
137.9030670339
 20
90.5102043017
 10
137.8344080361
 20
90.5039877357
 10
137.7632745315
 20
90.5057428101
 10
137.6911220671
 20
90.5154141453
 10
137.6184347816
 20
90.5329828332
 10
137.544725624
 20
90.5584665304
 10
137.4699938683
 20
90.5918649247
  0
LWPOLYLINE
  5
2FF
100
AcDbEntity
  8
26814000
100
AcDbPolyline
 62
7
  6
CONTINUOUS
 90
4
 70
0
 10
160.0143814605
 20
89.3418443703
 10
160.0141469548
 20
89.3436125843
 10
160.0130061788
 20
89.34654481
 10
160.0109618472
 20
89.3499241779
  0
LINE
  5
300
100
AcDbEntity
  8
26814000
100
AcDbLine
 62
250
  6
CONTINUOUS
 10
159.9301834222
 20
126.565232774
 11
159.9301834222
 21
126.3529736199
  0
LINE
  5
301
100
AcDbEntity
  8
26814000
100
AcDbLine
 62
250
  6
CONTINUOUS
 10
159.9301834222
 20
89.6110070494
 11
159.9301834222
 21
89.4212373453
  0
LINE
  5
302
100
AcDbEntity
  8
26814000
100
AcDbLine
 62
7
  6
CONTINUOUS
 10
160.0143814821
 20
126.8528536523
 11
160.0143814821
 21
126.2768904627
  0
LINE
  5
303
100
AcDbEntity
  8
26814000
100
AcDbLine
 62
7
  6
CONTINUOUS
 10
160.0143814821
 20
89.6555323705
 11
160.0143814821
 21
89.3420139782
  0
LWPOLYLINE
  5
304
100
AcDbEntity
  8
26814000
100
AcDbPolyline
 62
7
  6
CONTINUOUS
 90
16
 70
0
 10
160.0143814605
 20
126.8529092798
 10
160.0141469548
 20
126.8393949715
 10
160.0130061788
 20
126.8196297803
 10
160.0109618472
 20
126.7997761297
 10
160.0080706822
 20
126.7798403458
 10
160.004381918
 20
126.7598581095
 10
159.9999219541
 20
126.7398962879
 10
159.9947290958
 20
126.7199755703
 10
159.9888464386
 20
126.7001078189
 10
159.9822859044
 20
126.6803475927
 10
159.9750790012
 20
126.6607105261
 10
159.9672618555
 20
126.6412085615
 10
159.9588379161
 20
126.6218929625
 10
159.9498250247
 20
126.6027902361
 10
159.9402631794
 20
126.5838997423
 10
159.9301834222
 20
126.565232774
  0
LWPOLYLINE
  5
305
100
AcDbEntity
  8
21814000
100
AcDbPolyline
 62
7
  6
CONTINUOUS
 90
7
 70
0
 10
169.699950741
 20
120.5933171418
 10
169.7149488565
 20
120.6176012621
 10
169.7311250118
 20
120.6407755924
 10
169.7484792069
 20
120.6628401327
 10
169.7670114419
 20
120.6837948829
 10
169.7867217166
 20
120.7036398431
 10
169.8076100311
 20
120.7223750133
  0
LINE
  5
306
100
AcDbEntity
  8
26814000
100
AcDbLine
 62
250
  6
CONTINUOUS
 10
151.2137023451
 20
98.2982673078
 11
151.2704739267
 21
98.3261619467
  0
LINE
  5
307
100
AcDbEntity
  8
26814000
100
AcDbLine
 62
7
  6
CONTINUOUS
 10
151.2066160838
 20
98.2121503195
 11
151.2316244298
 21
98.2244381361
  0
LINE
  5
308
100
AcDbEntity
  8
DRAFT
100
AcDbLine
 62
7
  6
CONTINUOUS
 10
137.1463956752
 20
92.6681151602
 11
137.6032969916
 21
92.8413890991
  0
LINE
  5
309
100
AcDbEntity
  8
RACCORDO
100
AcDbLine
 62
7
  6
CONTINUOUS
 10
137.146286744
 20
92.8879049675
 11
137.1474142142
 21
92.8883220416
  0
LWPOLYLINE
  5
30A
100
AcDbEntity
  8
RACCORDO
100
AcDbPolyline
 62
7
  6
CONTINUOUS
 90
7
 70
0
 10
137.1473143195
 20
92.888270855
 10
137.1886223126
 20
92.9012257905
 10
137.2423230217
 20
92.9118473789
 10
137.2980784571
 20
92.9162057438
 10
137.3557106396
 20
92.9142742023
 10
137.414809198
 20
92.9060617205
 10
137.4750721665
 20
92.891580758
  0
LINE
  5
30B
100
AcDbEntity
  8
RACCORDO
100
AcDbLine
 62
250
  6
CONTINUOUS
 10
147.3170092501
 20
118.0985420451
 11
133.1897382087
 21
125.1621775658
  0
LINE
  5
30C
100
AcDbEntity
  8
21814000
100
AcDbLine
 62
7
  6
CONTINUOUS
 10
159.6297213774
 20
127.2410065591
 11
159.6314008058
 21
127.2112544086
  0
LWPOLYLINE
  5
30D
100
AcDbEntity
  8
26814000
100
AcDbPolyline
 62
7
  6
CONTINUOUS
 90
5
 70
0
 10
160.0143814639
 20
126.2766994499
 10
160.0143688136
 20
126.2770343856
 10
160.0140744104
 20
126.2785521743
 10
160.0133990755
 20
126.2802688386
 10
160.0123549825
 20
126.2821885424
  0
LWPOLYLINE
  5
30E
100
AcDbEntity
  8
26814000
100
AcDbPolyline
 62
7
  6
CONTINUOUS
 90
7
 70
0
 10
160.0143349898
 20
126.8590466179
 10
160.0142433818
 20
126.8633544191
 10
160.014104211
 20
126.8676657498
 10
160.0139174776
 20
126.8719806098
 10
160.0136831815
 20
126.8762989991
 10
160.0134013227
 20
126.8806209178
 10
160.0130719012
 20
126.8849463659
  0
LINE
  5
30F
100
AcDbEntity
  8
26814000
100
AcDbLine
 62
7
  6
CONTINUOUS
 10
160.0143349898
 20
126.8590466179
 11
160.0143814605
 21
126.8529092798
  0
LINE
  5
310
100
AcDbEntity
  8
21814000
100
AcDbLine
 62
250
  6
CONTINUOUS
 10
160.4182826422
 20
128.2047567975
 11
160.4182826422
 21
127.8834325153
  0
LINE
  5
311
100
AcDbEntity
  8
21814000
100
AcDbLine
 62
7
  6
CONTINUOUS
 10
161.1009928401
 20
127.7830618165
 11
161.1009928401
 21
128.2160745184
  0
LINE
  5
312
100
AcDbEntity
  8
0
100
AcDbLine
 62
7
  6
CONTINUOUS
 10
162.0684565526
 20
126.9469317053
 11
162.0684565526
 21
126.4810569388
  0
LINE
  5
313
100
AcDbEntity
  8
26814000
100
AcDbLine
 62
7
  6
CONTINUOUS
 10
160.0143349898
 20
89.3411024155
 11
160.0143814605
 21
89.3418443703
  0
LWPOLYLINE
  5
314
100
AcDbEntity
  8
RACCORDO
100
AcDbPolyline
 62
250
  6
CONTINUOUS
 90
45
 70
0
 10
137.838308636
 20
90.8045897688
 10
137.8557653362
 20
90.8113632566
 10
137.890518904
 20
90.8275382281
 10
137.9238561821
 20
90.8467484287
 10
137.9557049224
 20
90.868930908
 10
137.9860140824
 20
90.8940439067
 10
138.0146989008
 20
90.9220256415
 10
138.0416398304
 20
90.9527684342
 10
138.0667359321
 20
90.9861593722
 10
138.0899019843
 20
91.0220847012
 10
138.1110605357
 20
91.0604239162
 10
138.1301355027
 20
91.1010365709
 10
138.1470542955
 20
91.1437562745
 10
138.1617744012
 20
91.1884623537
 10
138.17426657
 20
91.2350800001
 10
138.1844882715
 20
91.2835070627
 10
138.1923821619
 20
91.3335412696
 10
138.1979062619
 20
91.384950814
 10
138.2010407133
 20
91.4375408789
 10
138.2017770788
 20
91.4911522719
 10
138.2001129631
 20
91.5455943383
 10
138.1960554177
 20
91.6006754667
 10
138.1896189508
 20
91.6562147291
 10
138.1808242881
 20
91.7120341409
 10
138.1696990853
 20
91.7679516633
 10
138.1562815822
 20
91.8237699472
 10
138.1406202991
 20
91.8792878029
 10
138.1227719764
 20
91.934308999
 10
138.1027959447
 20
91.9886549408
 10
138.0807557115
 20
92.0421531761
 10
138.0567214969
 20
92.0946302016
 10
138.030777759
 20
92.1458988044
 10
138.0030196076
 20
92.1957715953
 10
137.9735481806
 20
92.2440705943
 10
137.9424590147
 20
92.2906427441
 10
137.9098473373
 20
92.3353454347
 10
137.8758001774
 20
92.3780535285
 10
137.8404536455
 20
92.4185906927
 10
137.8039884546
 20
92.4567569576
 10
137.7665725465
 20
92.492397824
 10
137.7282992673
 20
92.5254450147
 10
137.6892434222
 20
92.5558415609
 10
137.6495168772
 20
92.583498328
 10
137.6092722578
 20
92.6083070264
 10
137.5686450317
 20
92.6301844534
  0
LINE
  5
315
100
AcDbEntity
  8
RACCORDO
100
AcDbLine
 62
7
  6
CONTINUOUS
 10
138.0464028854
 20
90.6620197663
 11
138.0450596175
 21
90.6615232512
  0
LINE
  5
316
100
AcDbEntity
  8
RACCORDO
100
AcDbLine
 62
250
  6
CONTINUOUS
 10
137.838278505
 20
90.8045788194
 11
137.838308636
 21
90.8045897688
  0
LINE
  5
317
100
AcDbEntity
  8
DRAFT
100
AcDbLine
 62
7
  6
CONTINUOUS
 10
137.8382785034
 20
90.8045788188
 11
138.3476227244
 21
90.9896502136
  0
LWPOLYLINE
  5
318
100
AcDbEntity
  8
RACCORDO
100
AcDbPolyline
 62
250
  6
CONTINUOUS
 90
9
 70
0
 10
138.0450596175
 20
90.6615232512
 10
138.0085733789
 20
90.6496905723
 10
137.9475507935
 20
90.6365128517
 10
137.8841817983
 20
90.6307121625
 10
137.8189178551
 20
90.6323471583
 10
137.7522201792
 20
90.6413954575
 10
137.6845401369
 20
90.657778585
 10
137.6163121263
 20
90.6813851208
 10
137.5479809096
 20
90.7120512437
  0
LWPOLYLINE
  5
319
100
AcDbEntity
  8
RACCORDO
100
AcDbPolyline
 62
7
  6
CONTINUOUS
 90
13
 70
0
 10
137.8382785064
 20
90.8045788199
 10
137.8039805993
 20
90.7935226422
 10
137.768715078
 20
90.7849479083
 10
137.7325846913
 20
90.7789152842
 10
137.6957171078
 20
90.7754770557
 10
137.6582003355
 20
90.7746702261
 10
137.6200744157
 20
90.7765321613
 10
137.5813997924
 20
90.7811069812
 10
137.5423257554
 20
90.788423501
 10
137.5030163706
 20
90.798486673
 10
137.4635928428
 20
90.8112936381
 10
137.4241382488
 20
90.8268466912
 10
137.3847554164
 20
90.8451379406
  0
LINE
  5
31A
100
AcDbEntity
  8
RACCORDO
100
AcDbLine
 62
250
  6
CONTINUOUS
 10
148.4629409325
 20
119.734869356
 11
134.31873086
 21
126.8069743922
  0
LINE
  5
31B
100
AcDbEntity
  8
21814000
100
AcDbLine
 62
250
  6
CONTINUOUS
 10
162.4857897335
 20
127.676046929
 11
162.4857897335
 21
128.1347784952
  0
LINE
  5
31C
100
AcDbEntity
  8
0
100
AcDbLine
 62
7
  6
CONTINUOUS
 10
162.518201214
 20
126.8251838721
 11
162.518201214
 21
126.4719983183
  0
LINE
  5
31D
100
AcDbEntity
  8
21814000
100
AcDbLine
 62
250
  6
CONTINUOUS
 10
162.6268026549
 20
127.6769772072
 11
162.6268026549
 21
128.1457743923
  0
LINE
  5
31E
100
AcDbEntity
  8
21814000
100
AcDbLine
 62
7
  6
CONTINUOUS
 10
164.4304386207
 20
130.2461565902
 11
164.4304386207
 21
129.8383053229
  0
LWPOLYLINE
  5
31F
100
AcDbEntity
  8
26814000
100
AcDbPolyline
 62
7
  6
CONTINUOUS
 90
7
 70
0
 10
160.0143349898
 20
89.3411024155
 10
160.0142433818
 20
89.340616808
 10
160.014104211
 20
89.3401046603
 10
160.0139174776
 20
89.3395659722
 10
160.0136831815
 20
89.3390007439
 10
160.0134013227
 20
89.3384089753
 10
160.0130719012
 20
89.3377906664
  0
LWPOLYLINE
  5
320
100
AcDbEntity
  8
RACCORDO
100
AcDbPolyline
 62
250
  6
CONTINUOUS
 90
16
 70
0
 10
148.4301337851
 20
117.9722281974
 10
148.368532153
 20
117.9577226201
 10
148.3016354657
 20
117.9464416828
 10
148.2301605111
 20
117.9385062593
 10
148.1548731328
 20
117.9340013764
 10
148.0765800235
 20
117.9329753032
 10
147.9961200823
 20
117.9354390339
 10
147.9143554254
 20
117.9413661701
 10
147.8321621487
 20
117.9506932033
 10
147.750420941
 20
117.9633201958
 10
147.6700076469
 20
117.9791118513
 10
147.5917838829
 20
117.9978989646
 10
147.5165878048
 20
118.0194802347
 10
147.4452251274
 20
118.0436244215
 10
147.3784604911
 20
118.0700728236
 10
147.3170092688
 20
118.0985420505
  0
LWPOLYLINE
  5
321
100
AcDbEntity
  8
21814000
100
AcDbPolyline
 62
7
  6
CONTINUOUS
 90
7
 70
0
 10
169.8076834578
 20
122.276208507
 10
169.7867115117
 20
122.2733187749
 10
169.7669461629
 20
122.2727563572
 10
169.7483874114
 20
122.274521254
 10
169.7310352573
 20
122.2786134651
 10
169.7148897005
 20
122.2850329907
 10
169.699950741
 20
122.2937798306
  0
LINE
  5
322
100
AcDbEntity
  8
26814000
100
AcDbLine
 62
7
  6
CONTINUOUS
 10
153.0164236485
 20
120.2061427332
 11
153.5762419516
 21
119.9262335816
  0
LINE
  5
323
100
AcDbEntity
  8
26814000
100
AcDbLine
 62
7
  6
CONTINUOUS
 10
150.8459735134
 20
82.8239145659
 11
151.4247638537
 21
83.528358296
  0
LINE
  5
324
100
AcDbEntity
  8
RACCORDO
100
AcDbLine
 62
7
  6
CONTINUOUS
 10
138.2308951322
 20
128.4061478502
 11
152.5146244254
 21
121.2642832036
  0
LINE
  5
325
100
AcDbEntity
  8
26814000
100
AcDbLine
 62
7
  6
CONTINUOUS
 10
136.9945879328
 20
129.1760799615
 11
152.7630691533
 21
121.2918393513
  0
LINE
  5
326
100
AcDbEntity
  8
26814000
100
AcDbLine
 62
7
  6
CONTINUOUS
 10
152.5155817798
 20
121.7430989765
 11
137.2420753062
 21
129.3798522133
  0
LINE
  5
327
100
AcDbEntity
  8
26814000
100
AcDbLine
 62
7
  6
CONTINUOUS
 10
153.0750964644
 20
122.1780061046
 11
151.4610923484
 21
122.9850081626
  0
LINE
  5
328
100
AcDbEntity
  8
26814000
100
AcDbLine
 62
7
  6
CONTINUOUS
 10
139.7107783
 20
128.8601651868
 11
138.096774184
 21
129.6671672448
  0
LINE
  5
329
100
AcDbEntity
  8
26814000
100
AcDbLine
 62
7
  6
CONTINUOUS
 10
143.0432341808
 20
127.5512694816
 11
148.8357432488
 21
124.6550149476
  0
LINE
  5
32A
100
AcDbEntity
  8
26814000
100
AcDbLine
 62
7
  6
CONTINUOUS
 10
137.4583759757
 20
130.4386973246
 11
139.0649095388
 21
129.6354305431
  0
LINE
  5
32B
100
AcDbEntity
  8
26814000
100
AcDbLine
 62
7
  6
CONTINUOUS
 10
150.8226941401
 20
123.7565382424
 11
152.4292277032
 21
122.9532714608
  0
LINE
  5
32C
100
AcDbEntity
  8
26814000
100
AcDbLine
 62
250
  6
CONTINUOUS
 10
137.3937812297
 20
130.5737264995
 11
138.9995576919
 21
129.7708382684
  0
LINE
  5
32D
100
AcDbEntity
  8
26814000
100
AcDbLine
 62
250
  6
CONTINUOUS
 10
150.7580993941
 20
123.8915674173
 11
152.3638758563
 21
123.0886791862
  0
LINE
  5
32E
100
AcDbEntity
  8
26814000
100
AcDbLine
 62
250
  6
CONTINUOUS
 10
152.3638758563
 20
123.3420505799
 11
150.7580993941
 21
124.144938811
  0
LINE
  5
32F
100
AcDbEntity
  8
26814000
100
AcDbLine
 62
250
  6
CONTINUOUS
 10
138.9995576919
 20
130.0242096621
 11
137.3937812297
 21
130.8270978932
  0
LINE
  5
330
100
AcDbEntity
  8
26814000
100
AcDbLine
 62
7
  6
CONTINUOUS
 10
140.7776092121
 20
129.3987464363
 11
142.9553662151
 21
128.3098679348
  0
LINE
  5
331
100
AcDbEntity
  8
26814000
100
AcDbLine
 62
7
  6
CONTINUOUS
 10
149.7578653332
 20
124.9086183758
 11
150.8389872844
 21
124.3680574002
  0
LINE
  5
332
100
AcDbEntity
  8
26814000
100
AcDbLine
 62
7
  6
CONTINUOUS
 10
154.1419273766
 20
122.7165873541
 11
154.2833487328
 21
122.645876676
  0
LWPOLYLINE
  5
333
100
AcDbEntity
  8
21814000
100
AcDbPolyline
 62
250
  6
CONTINUOUS
 90
10
 70
0
 10
169.9525449207
 20
126.5812684019
 10
169.9498385677
 20
126.5463968126
 10
169.9404883552
 20
126.507857815
 10
169.924529603
 20
126.4698651773
 10
169.9020810845
 20
126.4327016607
 10
169.8733098734
 20
126.3966438556
 10
169.8384301
 20
126.3619601229
 10
169.7977013579
 20
126.3289085972
 10
169.7514267716
 20
126.2977352652
 10
169.699950741
 20
126.2686721352
  0
LINE
  5
334
100
AcDbEntity
  8
26814000
100
AcDbLine
 62
7
  6
CONTINUOUS
 10
152.4527784323
 20
82.0205121064
 11
153.0750964644
 21
82.7655715239
  0
LINE
  5
335
100
AcDbEntity
  8
26814000
100
AcDbLine
 62
250
  6
CONTINUOUS
 10
151.5706169353
 20
88.3738655213
 11
150.3506984648
 21
87.810466745
  0
LINE
  5
336
100
AcDbEntity
  8
26814000
100
AcDbLine
 62
7
  6
CONTINUOUS
 10
151.3697633493
 20
87.8600964647
 11
150.3146866503
 21
87.372827081
  0
LINE
  5
337
100
AcDbEntity
  8
26814000
100
AcDbLine
 62
7
  6
CONTINUOUS
 10
153.0750964644
 20
122.8151756633
 11
152.4527784323
 21
122.9451162458
  0
LINE
  5
338
100
AcDbEntity
  8
26814000
100
AcDbLine
 62
250
  6
CONTINUOUS
 10
152.5406465857
 20
123.6459161582
 11
150.9328251767
 21
124.4498268627
  0
LINE
  5
339
100
AcDbEntity
  8
26814000
100
AcDbLine
 62
250
  6
CONTINUOUS
 10
139.1763284213
 20
130.3280752404
 11
137.5685070123
 21
131.1319859449
  0
LINE
  5
33A
100
AcDbEntity
  8
26814000
100
AcDbLine
 62
7
  6
CONTINUOUS
 10
143.0432341808
 20
128.7662243477
 11
148.8357432488
 21
125.8699698137
  0
LINE
  5
33B
100
AcDbEntity
  8
26814000
100
AcDbLine
 62
7
  6
CONTINUOUS
 10
154.990455514
 20
122.9918723774
 11
154.1907234902
 21
123.3917383893
  0
LINE
  5
33C
100
AcDbEntity
  8
26814000
100
AcDbLine
 62
7
  6
CONTINUOUS
 10
142.3088833292
 20
129.3326584698
 11
140.8264053257
 21
130.0738974715
  0
LINE
  5
33D
100
AcDbEntity
  8
26814000
100
AcDbLine
 62
7
  6
CONTINUOUS
 10
143.5353256588
 20
129.2323237783
 11
149.7578653332
 21
126.1210539411
  0
LINE
  5
33E
100
AcDbEntity
  8
26814000
100
AcDbLine
 62
7
  6
CONTINUOUS
 10
139.1512636154
 20
131.9439700422
 11
140.7776092121
 21
131.1307972439
  0
LINE
  5
33F
100
AcDbEntity
  8
26814000
100
AcDbLine
 62
7
  6
CONTINUOUS
 10
152.5155817798
 20
125.26181096
 11
154.1419273766
 21
124.4486381617
  0
LINE
  5
340
100
AcDbEntity
  8
26814000
100
AcDbLine
 62
7
  6
CONTINUOUS
 10
144.878828543
 20
129.2626407289
 11
149.8285760113
 21
126.7877669948
  0
LINE
  5
341
100
AcDbEntity
  8
26814000
100
AcDbLine
 62
250
  6
CONTINUOUS
 10
139.6857134941
 20
132.2043175088
 11
141.3058763839
 21
131.3942360639
  0
LINE
  5
342
100
AcDbEntity
  8
26814000
100
AcDbLine
 62
250
  6
CONTINUOUS
 10
153.0500316585
 20
125.5221584266
 11
154.6701945483
 21
124.7120769817
  0
LINE
  5
343
100
AcDbEntity
  8
26814000
100
AcDbLine
 62
7
  6
CONTINUOUS
 10
139.7971311094
 20
132.210586072
 11
141.4160086876
 21
131.4011472829
  0
LINE
  5
344
100
AcDbEntity
  8
26814000
100
AcDbLine
 62
7
  6
CONTINUOUS
 10
153.1614492739
 20
125.5284269898
 11
154.7803268521
 21
124.7189882007
  0
LWPOLYLINE
  5
345
100
AcDbEntity
  8
21814000
100
AcDbPolyline
 62
250
  6
CONTINUOUS
 90
15
 70
0
 10
150.0273764457
 20
127.7494070236
 10
150.0609584222
 20
127.7301638976
 10
150.0902750102
 20
127.7085404948
 10
150.1153262099
 20
127.684536815
 10
150.136315402
 20
127.6579044663
 10
150.1530392057
 20
127.6288918408
 10
150.1648874788
 20
127.5982441143
 10
150.1717442724
 20
127.5658841667
 10
150.1737255355
 20
127.5318891182
 10
150.1705689726
 20
127.497235506
 10
150.1621062334
 20
127.4618694173
 10
150.1485056682
 20
127.4258447649
 10
150.1300100335
 20
127.390299824
 10
150.1067002479
 20
127.3556140195
 10
150.0784953927
 20
127.3214079264
  0
LWPOLYLINE
  5
346
100
AcDbEntity
  8
21814000
100
AcDbPolyline
 62
250
  6
CONTINUOUS
 90
9
 70
0
 10
149.9249360982
 20
127.5316914402
 10
149.9448172746
 20
127.5200774494
 10
149.9624790064
 20
127.5063329673
 10
149.9777305813
 20
127.4905682819
 10
149.990395165
 20
127.4728745195
 10
150.0003388609
 20
127.4534102344
 10
150.007453474
 20
127.4323968824
 10
150.0116298907
 20
127.4099322692
 10
150.0128040274
 20
127.3893305183
  0
LWPOLYLINE
  5
347
100
AcDbEntity
  8
21814000
100
AcDbPolyline
 62
250
  6
CONTINUOUS
 90
13
 70
0
 10
148.5808521533
 20
128.0199532021
 10
148.598563089
 20
128.0088313261
 10
148.6166312024
 20
127.995426838
 10
148.6347529637
 20
127.97996497
 10
148.652623949
 20
127.9627055106
 10
148.6699439687
 20
127.9439384263
 10
148.6864221072
 20
127.9239789856
 10
148.7017815773
 20
127.9031625015
 10
148.7157644142
 20
127.8818386428
 10
148.7281358069
 20
127.860365541
 10
148.7386879807
 20
127.8391038651
 10
148.7472437014
 20
127.8184107658
 10
148.7536592849
 20
127.7986338155
  0
LINE
  5
348
100
AcDbEntity
  8
21814000
100
AcDbLine
 62
7
  6
CONTINUOUS
 10
161.3488791459
 20
124.475923171
 11
160.596185062
 21
125.7741284321
  0
LINE
  5
349
100
AcDbEntity
  8
21814000
100
AcDbLine
 62
250
  6
CONTINUOUS
 10
160.0037051305
 20
129.2803353377
 11
160.4182826422
 21
128.2047567975
  0
LINE
  5
34A
100
AcDbEntity
  8
0
100
AcDbLine
 62
7
  6
CONTINUOUS
 10
161.5629869704
 20
126.7046917495
 11
161.3614876125
 21
127.3004161753
  0
LWPOLYLINE
  5
34B
100
AcDbEntity
  8
21814000
100
AcDbPolyline
 62
7
  6
CONTINUOUS
 90
10
 70
0
 10
169.9525449207
 20
126.5812684019
 10
169.9487400246
 20
126.6952060983
 10
169.9375939356
 20
126.8084702953
 10
169.9194556104
 20
126.9208575687
 10
169.8945005093
 20
127.0325943455
 10
169.8629535098
 20
127.143226513
 10
169.8253322436
 20
127.2515329021
 10
169.7820310082
 20
127.3570168731
 10
169.7330782265
 20
127.4599437537
 10
169.678546181
 20
127.5601881634
  0
LINE
  5
34C
100
AcDbEntity
  8
21814000
100
AcDbLine
 62
7
  6
CONTINUOUS
 10
169.9525445569
 20
120.3373723061
 11
169.9525448825
 21
120.3369132384
  0
LINE
  5
34D
100
AcDbEntity
  8
21814000
100
AcDbLine
 62
250
  6
CONTINUOUS
 10
169.699950741
 20
126.2686721352
 11
169.699950741
 21
122.2937798306
  0
LINE
  5
34E
100
AcDbEntity
  8
21814000
100
AcDbLine
 62
250
  6
CONTINUOUS
 10
169.699950741
 20
120.5933171418
 11
169.699950741
 21
95.6606100656
  0
LINE
  5
34F
100
AcDbEntity
  8
21814000
100
AcDbLine
 62
7
  6
CONTINUOUS
 10
169.9525449207
 20
126.5812684019
 11
169.9525449207
 21
123.1755829553
  0
LINE
  5
350
100
AcDbEntity
  8
21814000
100
AcDbLine
 62
7
  6
CONTINUOUS
 10
169.9525449207
 20
120.3366222858
 11
169.9525449207
 21
95.9732063323
  0
LINE
  5
351
100
AcDbEntity
  8
21814000
100
AcDbLine
 62
7
  6
CONTINUOUS
 10
169.9525447705
 20
123.1745644526
 11
169.9525446827
 21
123.1743168724
  0
LWPOLYLINE
  5
352
100
AcDbEntity
  8
21814000
100
AcDbPolyline
 62
250
  6
CONTINUOUS
 90
29
 70
0
 10
169.9525446827
 20
123.1743168724
 10
169.9522163119
 20
123.1308625651
 10
169.9510099959
 20
123.0791366157
 10
169.9489790373
 20
123.0288195052
 10
169.9461726832
 20
122.9799199917
 10
169.9426434795
 20
122.9324544373
 10
169.9384425398
 20
122.8864240874
 10
169.9335932787
 20
122.8418142186
 10
169.9281372224
 20
122.7986400081
 10
169.9221108294
 20
122.7568985248
 10
169.9155045738
 20
122.716549039
 10
169.9083415588
 20
122.6775641719
 10
169.9006476055
 20
122.6399824502
 10
169.8923923324
 20
122.6038647916
 10
169.8835837179
 20
122.569165307
 10
169.8742397617
 20
122.5359425851
 10
169.8643258635
 20
122.504417559
 10
169.8538446328
 20
122.4745592635
 10
169.8428054955
 20
122.4464138161
 10
169.8311703672
 20
122.4203210575
 10
169.8189270559
 20
122.3962639601
 10
169.8060894108
 20
122.3742783205
 10
169.7926521165
 20
122.3547852717
 10
169.7786026572
 20
122.3378482177
 10
169.7639571032
 20
122.3234236788
 10
169.7487569671
 20
122.3117714007
 10
169.7330231235
 20
122.3029828681
 10
169.7167514705
 20
122.2969829328
 10
169.699950741
 20
122.2937798306
  0
LWPOLYLINE
  5
353
100
AcDbEntity
  8
21814000
100
AcDbPolyline
 62
250
  6
CONTINUOUS
 90
11
 70
0
 10
169.9525449207
 20
95.9732063323
 10
169.951742281
 20
95.9542056271
 10
169.9457597277
 20
95.9180535706
 10
169.9339727385
 20
95.8822599168
 10
169.9164579095
 20
95.847057266
 10
169.8933290585
 20
95.8126743779
 10
169.8647364853
 20
95.779334685
 10
169.8308659947
 20
95.747254841
 10
169.7919376896
 20
95.7166433126
 10
169.7482045404
 20
95.6876990245
 10
169.699950741
 20
95.6606100674
  0
LINE
  5
354
100
AcDbEntity
  8
21814000
100
AcDbLine
 62
7
  6
CONTINUOUS
 10
161.3488791459
 20
90.5087108644
 11
160.596185062
 21
89.9631996873
  0
LWPOLYLINE
  5
355
100
AcDbEntity
  8
21814000
100
AcDbPolyline
 62
7
  6
CONTINUOUS
 90
3
 70
0
 10
168.9414440461
 20
94.5237842526
 10
168.9978358915
 20
94.5579762645
 10
169.0105702331
 20
94.5669710222
  0
LWPOLYLINE
  5
356
100
AcDbEntity
  8
26814000
100
AcDbPolyline
 62
7
  6
CONTINUOUS
 90
25
 70
0
 10
159.2660850127
 20
88.8779496012
 10
159.292001423
 20
88.8927818179
 10
159.3185036597
 20
88.9080487946
 10
159.3455917227
 20
88.9237505315
 10
159.3732933791
 20
88.9398996343
 10
159.4015808617
 20
88.9564834971
 10
159.4303708697
 20
88.9734643031
 10
159.4596443888
 20
88.9908308769
 10
159.4894204331
 20
89.0085943939
 10
159.5196727442
 20
89.0267505623
 10
159.5504151786
 20
89.0453074592
 10
159.5816338796
 20
89.0642570075
 10
159.6132610191
 20
89.0835706839
 10
159.6453077537
 20
89.1032553187
 10
159.6777629268
 20
89.1233040815
 10
159.7105252402
 20
89.1436679582
 10
159.7436100143
 20
89.1643567975
 10
159.7770019287
 20
89.1853607506
 10
159.8105537241
 20
89.2066012573
 10
159.8442850392
 20
89.2280915433
 10
159.8781762352
 20
89.2498183827
 10
159.9120211369
 20
89.2716635385
 10
159.9457510193
 20
89.2935875982
 10
159.9794346074
 20
89.3156299741
 10
160.0130719012
 20
89.3377906664
  0
LWPOLYLINE
  5
357
100
AcDbEntity
  8
26814000
100
AcDbPolyline
 62
7
  6
CONTINUOUS
 90
3
 70
0
 10
159.2660850127
 20
88.8779496012
 10
159.2315005356
 20
88.8590739036
 10
159.2156636299
 20
88.8509729853
  0
LINE
  5
358
100
AcDbEntity
  8
21814000
100
AcDbLine
 62
7
  6
CONTINUOUS
 10
168.9414440461
 20
94.5237842526
 11
161.3488791459
 21
90.5087108644
  0
LINE
  5
359
100
AcDbEntity
  8
21814000
100
AcDbLine
 62
7
  6
CONTINUOUS
 10
160.596185062
 20
89.9631996873
 11
155.2379428874
 21
87.1296729614
  0
LINE
  5
35A
100
AcDbEntity
  8
21814000
100
AcDbLine
 62
250
  6
CONTINUOUS
 10
169.3609872571
 20
94.8278460431
 11
155.2379428874
 21
87.3736710713
  0
LINE
  5
35B
100
AcDbEntity
  8
21814000
100
AcDbLine
 62
250
  6
CONTINUOUS
 10
169.699950741
 20
95.6606100656
 11
155.2379428874
 21
88.1726863003
  0
LINE
  5
35C
100
AcDbEntity
  8
26814000
100
AcDbLine
 62
250
  6
CONTINUOUS
 10
155.2379428874
 20
86.8560464177
 11
159.2660850127
 21
88.8779496012
  0
LINE
  5
35D
100
AcDbEntity
  8
26814000
100
AcDbLine
 62
7
  6
CONTINUOUS
 10
155.2379428874
 20
86.8543783369
 11
159.2157059584
 21
88.8509940388
  0
LINE
  5
35E
100
AcDbEntity
  8
26814000
100
AcDbLine
 62
250
  6
CONTINUOUS
 10
155.2379428874
 20
87.0938514484
 11
159.9301834222
 21
89.4212373453
  0
LINE
  5
35F
100
AcDbEntity
  8
26814000
100
AcDbLine
 62
250
  6
CONTINUOUS
 10
155.2379428874
 20
86.9719767207
 11
160.0143349898
 21
89.3411024155
  0
LINE
  5
360
100
AcDbEntity
  8
26814000
100
AcDbLine
 62
7
  6
CONTINUOUS
 10
139.7107783
 20
129.4973347455
 11
139.0884602679
 21
129.627275328
  0
LWPOLYLINE
  5
361
100
AcDbEntity
  8
21814000
100
AcDbPolyline
 62
250
  6
CONTINUOUS
 90
8
 70
0
 10
150.0453954679
 20
127.2876815448
 10
150.0265707948
 20
127.2948276054
 10
150.0087171345
 20
127.2993842571
 10
149.9921343904
 20
127.3012749579
 10
149.9771011176
 20
127.300467948
 10
149.963869843
 20
127.2969767834
 10
149.9526628239
 20
127.2908601084
 10
149.9485950968
 20
127.2875213049
  0
LINE
  5
362
100
AcDbEntity
  8
21814000
100
AcDbLine
 62
250
  6
CONTINUOUS
 10
149.6103011473
 20
128.8538294409
 11
149.6137419767
 21
128.852216174
  0
LINE
  5
363
100
AcDbEntity
  8
21814000
100
AcDbLine
 62
250
  6
CONTINUOUS
 10
149.1665304995
 20
127.9108942395
 11
149.9249360982
 21
127.5316914402
  0
LINE
  5
364
100
AcDbEntity
  8
21814000
100
AcDbLine
 62
250
  6
CONTINUOUS
 10
149.2689708471
 20
128.1286098229
 11
150.0273764457
 21
127.7494070236
  0
LINE
  5
365
100
AcDbEntity
  8
21814000
100
AcDbLine
 62
7
  6
CONTINUOUS
 10
148.555783806
 20
128.7289612042
 11
151.1427379917
 21
127.4354841114
  0
LINE
  5
366
100
AcDbEntity
  8
21814000
100
AcDbLine
 62
250
  6
CONTINUOUS
 10
151.7501257081
 20
127.7348501152
 11
149.525526218
 21
128.8471498602
  0
LINE
  5
367
100
AcDbEntity
  8
21814000
100
AcDbLine
 62
7
  6
CONTINUOUS
 10
151.7996528
 20
127.7592607629
 11
149.6137348187
 21
128.8522197535
  0
LINE
  5
368
100
AcDbEntity
  8
26814000
100
AcDbLine
 62
7
  6
CONTINUOUS
 10
152.3462517561
 20
128.0286655281
 11
149.5457332989
 21
129.4289247567
  0
LINE
  5
369
100
AcDbEntity
  8
26814000
100
AcDbLine
 62
7
  6
CONTINUOUS
 10
149.1921799083
 20
130.1582596413
 11
149.5457332989
 21
129.981482946
  0
LWPOLYLINE
  5
36A
100
AcDbEntity
  8
26814000
100
AcDbPolyline
 62
7
  6
CONTINUOUS
 90
20
 70
0
 10
160.0123549825
 20
126.2821885424
 10
160.0109548308
 20
126.2843196072
 10
160.0092084045
 20
126.2866280546
 10
160.0071267947
 20
126.2891176937
 10
160.0047218302
 20
126.2917951365
 10
160.0020017383
 20
126.2946303525
 10
159.9989768071
 20
126.2976268788
 10
159.9956583057
 20
126.300789957
 10
159.9920541488
 20
126.3040919494
 10
159.988174292
 20
126.3075359322
 10
159.9840296205
 20
126.3111261766
 10
159.9796283877
 20
126.3148366761
 10
159.9749800492
 20
126.318670268
 10
159.9700955953
 20
126.3226301416
 10
159.9649852069
 20
126.326690562
 10
159.9596583318
 20
126.3308537772
 10
159.9541261285
 20
126.3351221486
 10
159.9484016573
 20
126.3394696481
 10
159.9424964739
 20
126.3438885303
 10
159.9301834222
 20
126.3529736199
  0
LWPOLYLINE
  5
36B
100
AcDbEntity
  8
21814000
100
AcDbPolyline
 62
250
  6
CONTINUOUS
 90
11
 70
0
 10
169.4608012778
 20
94.9173349726
 10
169.5049131893
 20
94.9706723452
 10
169.5449042845
 20
95.0294417055
 10
169.580603413
 20
95.0933913435
 10
169.6118578354
 20
95.1622474844
 10
169.6385337075
 20
95.235715066
 10
169.6605169214
 20
95.3134796003
 10
169.6777135189
 20
95.3952087828
 10
169.6900498133
 20
95.480552957
 10
169.6974728429
 20
95.5691464926
 10
169.699950741
 20
95.6606100656
  0
LWPOLYLINE
  5
36C
100
AcDbEntity
  8
21814000
100
AcDbPolyline
 62
250
  6
CONTINUOUS
 90
3
 70
0
 10
169.3609872571
 20
94.8278460431
 10
169.4127574085
 20
94.8696581198
 10
169.4608012778
 20
94.9173349726
  0
LWPOLYLINE
  5
36D
100
AcDbEntity
  8
21814000
100
AcDbPolyline
 62
7
  6
CONTINUOUS
 90
13
 70
0
 10
169.4280980918
 20
94.8695719626
 10
169.502652816
 20
94.9282955412
 10
169.5734456648
 20
94.9939099368
 10
169.6398211061
 20
95.0662315047
 10
169.7010817365
 20
95.1449058013
 10
169.7567100118
 20
95.2296662534
 10
169.8063531235
 20
95.3204769048
 10
169.8495542935
 20
95.4171740592
 10
169.8857336151
 20
95.5192018339
 10
169.9144629695
 20
95.6261253421
 10
169.9353988036
 20
95.7376518535
 10
169.9482036194
 20
95.8534649224
 10
169.9525449207
 20
95.9732063323
  0
LINE
  5
36E
100
AcDbEntity
  8
21814000
100
AcDbLine
 62
250
  6
CONTINUOUS
 10
169.3609872571
 20
94.8278460431
 11
168.9414440461
 21
94.5237842526
  0
LINE
  5
36F
100
AcDbEntity
  8
21814000
100
AcDbLine
 62
7
  6
CONTINUOUS
 10
169.4280980917
 20
94.8695719626
 11
169.0117172522
 21
94.5678020846
  0
LWPOLYLINE
  5
370
100
AcDbEntity
  8
21814000
100
AcDbPolyline
 62
250
  6
CONTINUOUS
 90
3
 70
0
 10
169.4280980917
 20
94.8695719626
 10
169.4098096313
 20
94.8568673326
 10
169.3609872571
 20
94.8278460431
  0
LINE
  5
371
100
AcDbEntity
  8
26814000
100
AcDbLine
 62
7
  6
CONTINUOUS
 10
153.5762419516
 20
83.7155927152
 11
152.7630691533
 21
83.1867215848
  0
LINE
  5
372
100
AcDbEntity
  8
26814000
100
AcDbLine
 62
250
  6
CONTINUOUS
 10
154.5308361062
 20
84.0273153329
 11
155.2379428874
 21
84.3884264127
  0
LINE
  5
373
100
AcDbEntity
  8
26814000
100
AcDbLine
 62
7
  6
CONTINUOUS
 10
154.4408721381
 20
83.8385052564
 11
155.1479789203
 21
84.1996163366
  0
LINE
  5
374
100
AcDbEntity
  8
26814000
100
AcDbLine
 62
7
  6
CONTINUOUS
 10
154.4408673321
 20
83.8385028015
 11
154.4388597352
 21
83.8374990941
  0
LINE
  5
375
100
AcDbEntity
  8
26814000
100
AcDbLine
 62
250
  6
CONTINUOUS
 10
152.7630691533
 20
83.1623260795
 11
154.5308361062
 21
84.0273153329
  0
LINE
  5
376
100
AcDbEntity
  8
26814000
100
AcDbLine
 62
7
  6
CONTINUOUS
 10
152.6710882343
 20
82.9725076152
 11
154.4388551886
 21
83.8374968694
  0
LWPOLYLINE
  5
377
100
AcDbEntity
  8
RACCORDO
100
AcDbPolyline
 62
250
  6
CONTINUOUS
 90
16
 70
0
 10
145.4590474282
 20
81.8655989252
 10
145.3966248424
 20
81.8411126864
 10
145.3289161425
 20
81.8199580129
 10
145.2566468069
 20
81.8023615707
 10
145.1805911797
 20
81.7885119003
 10
145.101564174
 20
81.7785573967
 10
145.0204125403
 20
81.7726047194
 10
144.9380057939
 20
81.7707176497
 10
144.8552268983
 20
81.7729164068
 10
144.7729628042
 20
81.7791774317
 10
144.6920949467
 20
81.7894336395
 10
144.6134898005
 20
81.803575138
 10
144.537989596
 20
81.821450405
 10
144.466403295
 20
81.8428679125
 10
144.3994979233
 20
81.8675981784
 10
144.3379903516
 20
81.8953762252
  0
LINE
  5
378
100
AcDbEntity
  8
RACCORDO
100
AcDbLine
 62
250
  6
CONTINUOUS
 10
145.9018215536
 20
81.4540927275
 11
149.9389213167
 21
82.8062753337
  0
LWPOLYLINE
  5
379
100
AcDbEntity
  8
21814000
100
AcDbPolyline
 62
7
  6
CONTINUOUS
 90
6
 70
0
 10
148.4996270955
 20
128.7430937512
 10
148.5093071058
 20
128.7427563372
 10
148.5197183023
 20
128.7413014666
 10
148.5308393419
 20
128.7386242402
 10
148.5426557829
 20
128.7346470637
 10
148.5551249316
 20
128.7292906414
  0
LWPOLYLINE
  5
37A
100
AcDbEntity
  8
21814000
100
AcDbPolyline
 62
7
  6
CONTINUOUS
 90
10
 70
0
 10
149.4882976952
 20
128.8840965104
 10
149.4071752369
 20
128.8958168651
 10
149.3249016177
 20
128.9037201163
 10
149.2421085562
 20
128.9078090798
 10
149.1592293854
 20
128.908107377
 10
149.0764995555
 20
128.9046153816
 10
148.9944488092
 20
128.897319784
 10
148.9136163776
 20
128.886215485
 10
148.8342181744
 20
128.8712354322
 10
148.7566673441
 20
128.8522985831
  0
LWPOLYLINE
  5
37B
100
AcDbEntity
  8
26814000
100
AcDbPolyline
 62
7
  6
CONTINUOUS
 90
13
 70
0
 10
159.2660850127
 20
127.3662062495
 10
159.2314342027
 20
127.3726359306
 10
159.1962299797
 20
127.3780190834
 10
159.1605101278
 20
127.3823812243
 10
159.1242848109
 20
127.3857751474
 10
159.0876170728
 20
127.3882048971
 10
159.0506208629
 20
127.3896161263
 10
159.0133338279
 20
127.3900262612
 10
158.9757828461
 20
127.3894623797
 10
158.9380621452
 20
127.3878703915
 10
158.9002227705
 20
127.3852413005
 10
158.8622735842
 20
127.3816193193
 10
158.8242441448
 20
127.3770245298
  0
LWPOLYLINE
  5
37C
100
AcDbEntity
  8
21814000
100
AcDbPolyline
 62
250
  6
CONTINUOUS
 90
13
 70
0
 10
149.525526218
 20
128.8471498602
 10
149.4558039881
 20
128.8607246049
 10
149.3850621892
 20
128.8709881061
 10
149.3133008213
 20
128.8779403636
 10
149.239861445
 20
128.8815907382
 10
149.1654024998
 20
128.8819298692
 10
149.091899304
 20
128.8789296746
 10
149.0193747938
 20
128.8724851129
 10
148.9478060331
 20
128.8627012256
 10
148.8790995318
 20
128.8498650551
 10
148.8138907934
 20
128.8340722823
 10
148.7515443145
 20
128.8152272262
 10
148.6920600951
 20
128.7933298871
  0
LINE
  5
37D
100
AcDbEntity
  8
21814000
100
AcDbLine
 62
7
  6
CONTINUOUS
 10
149.5677213873
 20
128.8685621232
 11
149.4882976952
 21
128.8840965104
  0
LWPOLYLINE
  5
37E
100
AcDbEntity
  8
21814000
100
AcDbPolyline
 62
250
  6
CONTINUOUS
 90
4
 70
0
 10
149.14959336
 20
128.1672391196
 10
149.1917164953
 20
128.1576882368
 10
149.231508991
 20
128.1448118046
 10
149.2689708471
 20
128.1286098229
  0
LWPOLYLINE
  5
37F
100
AcDbEntity
  8
21814000
100
AcDbPolyline
 62
7
  6
CONTINUOUS
 90
7
 70
0
 10
149.5677145297
 20
128.8685636476
 10
149.5755752124
 20
128.8666476422
 10
149.5846712653
 20
128.8640024991
 10
149.593634649
 20
128.8609285871
 10
149.602454932
 20
128.857428236
 10
149.6111123934
 20
128.8535071104
 10
149.6137529516
 20
128.852210684
  0
LINE
  5
380
100
AcDbEntity
  8
0
100
AcDbLine
 62
7
  6
CONTINUOUS
 10
162.518201214
 20
126.8251838721
 11
162.0684565526
 21
126.9469317053
  0
LWPOLYLINE
  5
381
100
AcDbEntity
  8
26814000
100
AcDbPolyline
 62
7
  6
CONTINUOUS
 90
10
 70
0
 10
159.5124001123
 20
127.2788287776
 10
159.4894204331
 20
127.2900202098
 10
159.4596443888
 20
127.3035966516
 10
159.4303708697
 20
127.3159822683
 10
159.4015808617
 20
127.3271840648
 10
159.3732933791
 20
127.3371950364
 10
159.3455917227
 20
127.3460947808
 10
159.3185036597
 20
127.3539098308
 10
159.292001423
 20
127.3606136537
 10
159.2660850127
 20
127.3662062495
  0
LINE
  5
382
100
AcDbEntity
  8
26814000
100
AcDbLine
 62
7
  6
CONTINUOUS
 10
153.7540674523
 20
128.7225421865
 11
150.9435178054
 21
130.12781701
  0
LINE
  5
383
100
AcDbEntity
  8
21814000
100
AcDbLine
 62
7
  6
CONTINUOUS
 10
160.596185062
 20
125.7741284321
 11
159.8083964143
 21
126.1680227559
  0
LINE
  5
384
100
AcDbEntity
  8
26814000
100
AcDbLine
 62
7
  6
CONTINUOUS
 10
152.3034497455
 20
130.2015651974
 11
154.5131906336
 21
129.0966947533
  0
LINE
  5
385
100
AcDbEntity
  8
26814000
100
AcDbLine
 62
7
  6
CONTINUOUS
 10
155.2587754568
 20
128.7239023417
 11
155.4045888668
 21
128.6509956367
  0
LINE
  5
386
100
AcDbEntity
  8
26814000
100
AcDbLine
 62
7
  6
CONTINUOUS
 10
149.4359919998
 20
131.89853775
 11
149.616443977
 21
131.8083117614
  0
LINE
  5
387
100
AcDbEntity
  8
26814000
100
AcDbLine
 62
7
  6
CONTINUOUS
 10
154.990455514
 20
129.1213059929
 11
155.1709074911
 21
129.0310800043
  0
LINE
  5
388
100
AcDbEntity
  8
26814000
100
AcDbLine
 62
250
  6
CONTINUOUS
 10
148.6234236558
 20
132.4774347743
 11
151.6025135567
 21
130.9878898238
  0
LINE
  5
389
100
AcDbEntity
  8
26814000
100
AcDbLine
 62
250
  6
CONTINUOUS
 10
155.8451542438
 20
128.8665694803
 11
158.8242441448
 21
127.3770245298
  0
LINE
  5
38A
100
AcDbEntity
  8
26814000
100
AcDbLine
 62
7
  6
CONTINUOUS
 10
156.2861972469
 20
128.8919189469
 11
159.5126871391
 21
127.2786740008
  0
LINE
  5
38B
100
AcDbEntity
  8
0
100
AcDbLine
 62
7
  6
CONTINUOUS
 10
161.5734818058
 20
126.6994443319
 11
161.7873742597
 21
126.5019110642
  0
LWPOLYLINE
  5
38C
100
AcDbEntity
  8
26814000
100
AcDbPolyline
 62
7
  6
CONTINUOUS
 90
17
 70
0
 10
160.0130719012
 20
126.8849463659
 10
159.9794346074
 20
126.9210085164
 10
159.9457510193
 20
126.955647176
 10
159.9120211369
 20
126.9888623448
 10
159.8781762352
 20
127.0206696488
 10
159.8442850392
 20
127.0510534619
 10
159.8105537241
 20
127.079966906
 10
159.7770019287
 20
127.1073860813
 10
159.7436100143
 20
127.1333348877
 10
159.7105252402
 20
127.1578381462
 10
159.6777629268
 20
127.180881853
 10
159.6453077537
 20
127.2024800121
 10
159.6132610191
 20
127.2226994561
 10
159.5816338796
 20
127.2415333701
 10
159.5504151786
 20
127.2589885691
 10
159.5196727442
 20
127.2751523306
 10
159.5124001123
 20
127.2788287776
  0
LINE
  5
38D
100
AcDbEntity
  8
21814000
100
AcDbLine
 62
7
  6
CONTINUOUS
 10
164.421323162
 20
130.2700503913
 11
164.4304386207
 21
130.2461565902
  0
LINE
  5
38E
100
AcDbEntity
  8
26814000
100
AcDbLine
 62
7
  6
CONTINUOUS
 10
154.1419273766
 20
82.186598457
 11
154.6701945483
 21
82.4576095156
  0
LINE
  5
38F
100
AcDbEntity
  8
26814000
100
AcDbLine
 62
7
  6
CONTINUOUS
 10
152.5406465857
 20
81.4065638573
 11
154.1419273766
 21
82.186598457
  0
LINE
  5
390
100
AcDbEntity
  8
RACCORDO
100
AcDbLine
 62
7
  6
CONTINUOUS
 10
149.6410840131
 20
82.3354345211
 11
145.5996453792
 21
80.9817990371
  0
LINE
  5
391
100
AcDbEntity
  8
26814000
100
AcDbLine
 62
7
  6
CONTINUOUS
 10
150.9435178054
 20
130.12781701
 11
152.3034497455
 21
130.2015651974
  0
LWPOLYLINE
  5
392
100
AcDbEntity
  8
RACCORDO
100
AcDbPolyline
 62
7
  6
CONTINUOUS
 90
9
 70
0
 10
163.9112640127
 20
127.4920311019
 10
163.9051472721
 20
127.4936305996
 10
163.8953770584
 20
127.4951634134
 10
163.885050863
 20
127.4955788578
 10
163.8742636658
 20
127.4948770853
 10
163.8633004069
 20
127.493058554
 10
163.8522560662
 20
127.4901234165
 10
163.8410356637
 20
127.4860715201
 10
163.8296391994
 20
127.4809028648
  0
LWPOLYLINE
  5
393
100
AcDbEntity
  8
RACCORDO
100
AcDbPolyline
 62
7
  6
CONTINUOUS
 90
28
 70
0
 10
163.9112538765
 20
127.4920071494
 10
163.8025385299
 20
127.5232929952
 10
163.6876834869
 20
127.5526466722
 10
163.570422063
 20
127.5789737424
 10
163.4510488982
 20
127.6022358341
 10
163.3298285265
 20
127.6224063869
 10
163.206999157
 20
127.6394656622
 10
163.0828503597
 20
127.6533895038
 10
162.9576668966
 20
127.6641601728
 10
162.8316863791
 20
127.6717675725
 10
162.7051999929
 20
127.6762009512
 10
162.57849727
 20
127.6774555059
 10
162.4518155245
 20
127.6755307328
 10
162.3254442548
 20
127.6704293978
 10
162.1996746642
 20
127.6621601857
 10
162.0747450648
 20
127.6507323102
 10
161.9509461902
 20
127.636162478
 10
161.8285614378
 20
127.6184724564
 10
161.7078130017
 20
127.597678281
 10
161.5889780806
 20
127.573806681
 10
161.4723422571
 20
127.5468916292
 10
161.3581306841
 20
127.5169568619
 10
161.2466155059
 20
127.484039758
 10
161.1380693095
 20
127.4481831232
 10
161.0327024179
 20
127.4094115056
 10
160.9307556355
 20
127.3677586973
 10
160.8325094981
 20
127.3232779227
 10
160.7382254369
 20
127.2760205333
  0
LWPOLYLINE
  5
394
100
AcDbEntity
  8
RACCORDO
100
AcDbPolyline
 62
7
  6
CONTINUOUS
 90
3
 70
0
 10
163.9233046945
 20
127.4872133212
 10
163.9144564842
 20
127.4909805688
 10
163.9112640127
 20
127.4920311019
  0
LWPOLYLINE
  5
395
100
AcDbEntity
  8
26814000
100
AcDbPolyline
 62
7
  6
CONTINUOUS
 90
18
 70
0
 10
152.0435662738
 20
131.0132234707
 10
152.0240041895
 20
131.0223132038
 10
152.0011084093
 20
131.0312986184
 10
151.977599123
 20
131.0388008512
 10
151.9534578009
 20
131.0448350211
 10
151.9287680476
 20
131.0493808054
 10
151.9035066213
 20
131.0524347889
 10
151.8776967638
 20
131.0540003868
 10
151.851491805
 20
131.0540675234
 10
151.8249078423
 20
131.0526287475
 10
151.7979287783
 20
131.0496915101
 10
151.7706596497
 20
131.0452680889
 10
151.74308547
 20
131.0393497032
 10
151.7152212258
 20
131.0319451337
 10
151.6872169127
 20
131.0230929991
 10
151.6591225295
 20
131.0128061724
 10
151.6308880775
 20
131.0010717806
 10
151.6025135567
 20
130.9878898238
  0
LINE
  5
396
100
AcDbEntity
  8
0
100
AcDbLine
 62
7
  6
CONTINUOUS
 10
161.5734818058
 20
126.6994443319
 11
160.8665128656
 21
127.0529288019
  0
LINE
  5
397
100
AcDbEntity
  8
0
100
AcDbLine
 62
7
  6
CONTINUOUS
 10
162.0684565526
 20
126.9469317053
 11
161.3614876125
 21
127.3004161753
  0
LINE
  5
398
100
AcDbEntity
  8
21814000
100
AcDbLine
 62
7
  6
CONTINUOUS
 10
161.1009928401
 20
127.7830618165
 11
160.6623823676
 21
128.0023670528
  0
LINE
  5
399
100
AcDbEntity
  8
RACCORDO
100
AcDbLine
 62
7
  6
CONTINUOUS
 10
164.7718328319
 20
127.0629492525
 11
164.8846077171
 21
127.0064569264
  0
LWPOLYLINE
  5
39A
100
AcDbEntity
  8
RACCORDO
100
AcDbPolyline
 62
7
  6
CONTINUOUS
 90
10
 70
0
 10
164.7338887646
 20
127.0756169075
 10
164.6364117109
 20
127.1256723392
 10
164.5407985091
 20
127.1746482148
 10
164.4470491591
 20
127.2225445344
 10
164.3551780778
 20
127.2693627222
 10
164.2651708484
 20
127.3151013539
 10
164.1769842204
 20
127.359756157
 10
164.090603777
 20
127.4033257071
 10
164.006043935
 20
127.4458114285
 10
163.9233046945
 20
127.4872133212
  0
LINE
  5
39B
100
AcDbEntity
  8
RACCORDO
100
AcDbLine
 62
7
  6
CONTINUOUS
 10
164.7416471933
 20
127.0710304354
 11
164.7338887646
 21
127.0756169075
  0
LWPOLYLINE
  5
39C
100
AcDbEntity
  8
RACCORDO
100
AcDbPolyline
 62
250
  6
CONTINUOUS
 90
5
 70
0
 10
164.7718328319
 20
127.0629492525
 10
164.7963558222
 20
127.0424448741
 10
164.8207215839
 20
127.0211666097
 10
164.844858334
 20
126.9991043324
 10
164.8530071615
 20
126.9912903628
  0
LWPOLYLINE
  5
39D
100
AcDbEntity
  8
RACCORDO
100
AcDbPolyline
 62
250
  6
CONTINUOUS
 90
4
 70
0
 10
164.6781962327
 20
127.0566532441
 10
164.7010566621
 20
127.0370745106
 10
164.7236342004
 20
127.0167214641
 10
164.7459288476
 20
126.9955941045
  0
LINE
  5
39E
100
AcDbEntity
  8
RACCORDO
100
AcDbLine
 62
250
  6
CONTINUOUS
 10
164.7459288476
 20
126.9955941045
 11
164.767974346
 21
126.9737642175
  0
LINE
  5
39F
100
AcDbEntity
  8
RACCORDO
100
AcDbLine
 62
250
  6
CONTINUOUS
 10
164.767974346
 20
126.9737642175
 11
164.7833073851
 21
126.9578382267
  0
LWPOLYLINE
  5
3A0
100
AcDbEntity
  8
21814000
100
AcDbPolyline
 62
250
  6
CONTINUOUS
 90
35
 70
0
 10
169.9525449207
 20
123.8665879569
 10
169.964142447
 20
123.8297130364
 10
169.9840799545
 20
123.7567991649
 10
170.0003939515
 20
123.6858274145
 10
170.0139897118
 20
123.6167610795
 10
170.0250474687
 20
123.5497822102
 10
170.0335748437
 20
123.4848587088
 10
170.0401745251
 20
123.4216071456
 10
170.044986939
 20
123.3600484573
 10
170.0480064785
 20
123.3002536516
 10
170.0495786166
 20
123.2418949467
 10
170.0497947955
 20
123.1849242173
 10
170.0486638484
 20
123.129447824
 10
170.0463860204
 20
123.0753597221
 10
170.0430248748
 20
123.0226452086
 10
170.0386022987
 20
122.9713590842
 10
170.0332473817
 20
122.9214951477
 10
170.0270186422
 20
122.8730789041
 10
170.019934874
 20
122.8261129493
 10
170.0120607904
 20
122.7805539042
 10
170.0034541062
 20
122.7364172782
 10
169.9941250706
 20
122.693706168
 10
169.9840631521
 20
122.6523561398
 10
169.9733135604
 20
122.6123285829
 10
169.9618900056
 20
122.5736735469
 10
169.9497340363
 20
122.5364578708
 10
169.9368815928
 20
122.5006308205
 10
169.9233517051
 20
122.4662501346
 10
169.9090645126
 20
122.4335445718
 10
169.8940530547
 20
122.402476927
 10
169.8783369564
 20
122.3730892823
 10
169.8618218721
 20
122.345729412
 10
169.8444935941
 20
122.3205151487
 10
169.8264127591
 20
122.2973341729
 10
169.8075969302
 20
122.2761896397
  0
LINE
  5
3A1
100
AcDbEntity
  8
21814000
100
AcDbLine
 62
7
  6
CONTINUOUS
 10
165.3309058201
 20
127.5433254419
 11
164.6044084314
 21
127.9065741363
  0
LINE
  5
3A2
100
AcDbEntity
  8
21814000
100
AcDbLine
 62
7
  6
CONTINUOUS
 10
165.1480761597
 20
127.6504001247
 11
164.8439567758
 21
127.8024598167
  0
LINE
  5
3A3
100
AcDbEntity
  8
21814000
100
AcDbLine
 62
7
  6
CONTINUOUS
 10
167.5426761935
 20
128.2821865365
 11
164.4304386207
 21
129.8383053229
  0
LWPOLYLINE
  5
3A4
100
AcDbEntity
  8
21814000
100
AcDbPolyline
 62
7
  6
CONTINUOUS
 90
10
 70
0
 10
165.1480761597
 20
127.6504001247
 10
165.1166607053
 20
127.668452937
 10
165.084643728
 20
127.6862202394
 10
165.0520252279
 20
127.703702032
 10
165.0187950372
 20
127.7209033986
 10
164.9849633236
 20
127.7378192554
 10
164.9505605903
 20
127.7544343508
 10
164.9155970051
 20
127.7707436008
 10
164.8800624003
 20
127.7867520895
 10
164.8439567758
 20
127.8024598167
  0
LWPOLYLINE
  5
3A5
100
AcDbEntity
  8
21814000
100
AcDbPolyline
 62
7
  6
CONTINUOUS
 90
35
 70
0
 10
169.9525449207
 20
125.9486760287
 10
170.0693184494
 20
125.8715739224
 10
170.2091151229
 20
125.7670602762
 10
170.3458529787
 20
125.6525316791
 10
170.4787184222
 20
125.5288151747
 10
170.6071038754
 20
125.3966683996
 10
170.7306854756
 20
125.2566009936
 10
170.8490656369
 20
125.1091954899
 10
170.96182002
 20
124.9550846004
 10
171.068495586
 20
124.7949778163
 10
171.1686525981
 20
124.6296220592
 10
171.2618685419
 20
124.4598042974
 10
171.3478216645
 20
124.2861862668
 10
171.4262370462
 20
124.1093483081
 10
171.4968037212
 20
123.9299577444
 10
171.5591783035
 20
123.7488231843
 10
171.6130630396
 20
123.5667278893
 10
171.6581997627
 20
123.3844233063
 10
171.6943586654
 20
123.2026464692
 10
171.7213344094
 20
123.0221230094
 10
171.7389542147
 20
122.8434205571
 10
171.7470271158
 20
122.6674240414
 10
171.7454270541
 20
122.4952438006
 10
171.7340796819
 20
122.3273278252
 10
171.7129450797
 20
122.1645508889
 10
171.6822157256
 20
122.0084572485
 10
171.6421112333
 20
121.8597152838
 10
171.5927848851
 20
121.7186223533
 10
171.5345897654
 20
121.5859562634
 10
171.4677813817
 20
121.4620589126
 10
171.3927126681
 20
121.3473998144
 10
171.3101229626
 20
121.2428021764
 10
171.2206837916
 20
121.148674837
 10
171.1248594832
 20
121.065094277
 10
171.0232680138
 20
120.9922453516
  0
LWPOLYLINE
  5
3A6
100
AcDbEntity
  8
21814000
100
AcDbPolyline
 62
250
  6
CONTINUOUS
 90
34
 70
0
 10
169.9525449207
 20
125.8700655077
 10
170.0306400114
 20
125.8145537042
 10
170.1677808814
 20
125.705098095
 10
170.302323373
 20
125.5855726215
 10
170.4336399518
 20
125.4565347727
 10
170.5611181104
 20
125.3185864244
 10
170.6841632472
 20
125.1723710138
 10
170.8022014426
 20
125.0185705351
 10
170.9146821371
 20
124.857902353
 10
171.0210806918
 20
124.6911158656
 10
171.1209008348
 20
124.5189890101
 10
171.2136769761
 20
124.3423246353
 10
171.2989763814
 20
124.1619467544
 10
171.3764011902
 20
123.9786967006
 10
171.445590272
 20
123.7934292027
 10
171.5062209097
 20
123.6070083996
 10
171.5580103052
 20
123.4203038098
 10
171.6007168982
 20
123.2341862756
 10
171.6341414932
 20
123.0495239013
 10
171.6581281887
 20
122.8671780035
 10
171.672565104
 20
122.6879990945
 10
171.6773849013
 20
122.5128229145
 10
171.6725650997
 20
122.3424665341
 10
171.6581281801
 20
122.1777245429
 10
171.6341414804
 20
122.0193653435
 10
171.600716881
 20
121.8681275673
 10
171.5580102838
 20
121.7247166296
 10
171.5062208841
 20
121.5898014389
 10
171.4455902424
 20
121.4640112776
 10
171.3764011566
 20
121.3479328658
 10
171.2989763439
 20
121.2421076254
 10
171.2136769348
 20
121.1470291545
 10
171.1209007898
 20
121.0631409261
 10
171.0232680138
 20
120.9922453516
  0
LINE
  5
3A7
100
AcDbEntity
  8
21814000
100
AcDbLine
 62
250
  6
CONTINUOUS
 10
168.9414440461
 20
128.1640046431
 11
169.3609872571
 21
127.4403996416
  0
LINE
  5
3A8
100
AcDbEntity
  8
21814000
100
AcDbLine
 62
7
  6
CONTINUOUS
 10
169.3317084105
 20
128.1583948293
 11
169.678546181
 21
127.5601881634
  0
LWPOLYLINE
  5
3A9
100
AcDbEntity
  8
21814000
100
AcDbPolyline
 62
250
  6
CONTINUOUS
 90
13
 70
0
 10
169.3609872571
 20
127.4403996416
 10
169.4127565065
 20
127.3468191242
 10
169.460799857
 20
127.2510996696
 10
169.5049115794
 20
127.1536511632
 10
169.5449027806
 20
127.054890894
 10
169.5806022119
 20
126.9552417691
 10
169.6118570022
 20
126.8551305023
 10
169.6385333138
 20
126.7549857856
 10
169.6605169147
 20
126.655236454
 10
169.6777136675
 20
126.5563096506
 10
169.6900499333
 20
126.4586289954
 10
169.6974728865
 20
126.3626127715
 10
169.699950741
 20
126.2686721352
  0
LINE
  5
3AA
100
AcDbEntity
  8
21814000
100
AcDbLine
 62
250
  6
CONTINUOUS
 10
168.9414440461
 20
128.1640046431
 11
168.1357721101
 21
128.5668406111
  0
LINE
  5
3AB
100
AcDbEntity
  8
21814000
100
AcDbLine
 62
250
  6
CONTINUOUS
 10
163.434109031
 20
130.9176721507
 11
162.4629501973
 21
131.4032515675
  0
LINE
  5
3AC
100
AcDbEntity
  8
21814000
100
AcDbLine
 62
7
  6
CONTINUOUS
 10
169.2717194237
 20
128.2146867472
 11
168.4459605236
 21
128.6275661973
  0
LINE
  5
3AD
100
AcDbEntity
  8
21814000
100
AcDbLine
 62
7
  6
CONTINUOUS
 10
163.9066918025
 20
130.8972005578
 11
162.8543357898
 21
131.4233785642
  0
LWPOLYLINE
  5
3AE
100
AcDbEntity
  8
21814000
100
AcDbPolyline
 62
7
  6
CONTINUOUS
 90
4
 70
0
 10
169.2736449756
 20
128.2137237739
 10
169.2872884517
 20
128.2059090321
 10
169.3108241482
 20
128.1865367536
 10
169.3310022909
 20
128.1596589221
  0
LWPOLYLINE
  5
3AF
100
AcDbEntity
  8
21814000
100
AcDbPolyline
 62
250
  6
CONTINUOUS
 90
12
 70
0
 10
169.678546181
 20
127.5601881634
 10
169.6771870443
 20
127.5617852774
 10
169.6692681262
 20
127.5643068805
 10
169.6556235338
 20
127.5634380713
 10
169.6363548171
 20
127.559185316
 10
169.6116053841
 20
127.5515802657
 10
169.5815594331
 20
127.5406795212
 10
169.5464405817
 20
127.5265642115
 10
169.5065102026
 20
127.5093393904
 10
169.4620654787
 20
127.4891332541
 10
169.4134371908
 20
127.4660961871
 10
169.3609872561
 20
127.4403996434
  0
ELLIPSE
  5
3B0
100
AcDbEntity
  8
RACCORDO
100
AcDbEllipse
 62
7
  6
CONTINUOUS
 10
138.1719282232
 20
127.6873621307
 30
0.0
 11
-0.2786191524
 21
0.7501668109
 31
0.0
 40
0.6610921126
 41
-0.6157157441
 42
0.0213201202
  0
ELLIPSE
  5
3B1
100
AcDbEntity
  8
RACCORDO
100
AcDbEllipse
 62
7
  6
CONTINUOUS
 10
152.4553128636
 20
120.5456698105
 30
0.0
 11
-0.2783604326
 21
0.7500177284
 31
0.0
 40
0.6614719787
 41
-2.1862531203
 42
-0.61576138
  0
ELLIPSE
  5
3B2
100
AcDbEntity
  8
RACCORDO
100
AcDbEllipse
 62
7
  6
CONTINUOUS
 10
149.373167735
 20
83.0893800372
 30
0.0
 11
-0.2786191524
 21
0.7501668109
 31
0.0
 40
0.6610921126
 41
-3.1630638698
 42
-2.1868166574
  0
ELLIPSE
  5
3B3
100
AcDbEntity
  8
21814000
100
AcDbEllipse
 62
7
  6
CONTINUOUS
 10
162.3559825584
 20
128.1010816435
 30
0.0
 11
3.3311333813
 21
-0.0467042088
 31
0.0
 40
0.4892378494
 41
3.8528301344
 42
5.5059722822
  0
ELLIPSE
  5
3B4
100
AcDbEntity
  8
21814000
100
AcDbEllipse
 62
7
  6
CONTINUOUS
 10
163.0514728195
 20
126.8078218268
 30
0.0
 11
2.7583300471
 21
-0.038763314
 31
0.0
 40
0.4892375088
 41
0.4291477653
 42
0.6564870977
  0
ELLIPSE
  5
3B5
100
AcDbEntity
  8
21814000
100
AcDbEllipse
 62
7
  6
CONTINUOUS
 10
162.3797213774
 20
126.9193195108
 30
0.0
 11
2.7499350056
 21
-0.0386453369
 31
0.0
 40
0.4892375088
 41
8.654981679
 42
9.2557277435
  0
ELLIPSE
  5
3B6
100
AcDbEntity
  8
21814000
100
AcDbEllipse
 62
7
  6
CONTINUOUS
 10
163.0514728195
 20
126.8078218268
 30
0.0
 11
2.7583300471
 21
-0.038763314
 31
0.0
 40
0.4892375088
 41
0.9280596999
 42
2.3630697256
  0
ELLIPSE
  5
3B7
100
AcDbEntity
  8
21814000
100
AcDbEllipse
 62
7
  6
CONTINUOUS
 10
167.7571870506
 20
127.9657223439
 30
0.0
 11
0.716172246
 21
0.6416715914
 31
0.0
 40
0.2882345029
 41
0.1142323894
 42
0.7807533904
  0
ELLIPSE
  5
3B8
100
AcDbEntity
  8
21814000
100
AcDbEllipse
 62
7
  6
CONTINUOUS
 10
163.0514728195
 20
128.7525325381
 30
0.0
 11
2.7583515655
 21
-1.4175703156
 31
0.0
 40
0.0109499087
 41
-0.9155571536
 42
-0.85781018
  0
ELLIPSE
  5
3B9
100
AcDbEntity
  8
21814000
100
AcDbEllipse
 62
7
  6
CONTINUOUS
 10
163.0514728195
 20
128.7525325381
 30
0.0
 11
2.7583515655
 21
-1.4175703156
 31
0.0
 40
0.0109499087
 41
-0.7017315251
 42
-0.6439845515
  0
ELLIPSE
  5
3BA
100
AcDbEntity
  8
21814000
100
AcDbEllipse
 62
7
  6
CONTINUOUS
 10
163.0514728195
 20
127.2408345287
 30
0.0
 11
2.7583300471
 21
-0.038763314
 31
0.0
 40
0.4892375088
 41
0.1708839954
 42
2.3630697256
  0
ELLIPSE
  5
3BB
100
AcDbEntity
  8
21814000
100
AcDbEllipse
 62
7
  6
CONTINUOUS
 10
163.7904808035
 20
129.9490754674
 30
0.0
 11
-0.2796057293
 21
0.9974617846
 31
0.0
 40
0.6760995073
 41
4.8467711056
 42
6.4001141399
  0
ELLIPSE
  5
3BC
100
AcDbEntity
  8
21814000
100
AcDbEllipse
 62
7
  6
CONTINUOUS
 10
162.3559825584
 20
128.1010816435
 30
0.0
 11
3.3311333813
 21
-0.0467042088
 31
0.0
 40
0.4892378494
 41
2.3616770883
 42
3.7058786528
  0
ELLIPSE
  5
3BD
100
AcDbEntity
  8
26814000
100
AcDbEllipse
 62
7
  6
CONTINUOUS
 10
150.9338476327
 20
82.4274944601
 30
0.0
 11
0.110769438
 21
0.2241226716
 31
0.0
 40
0.6088015717
 41
-4.0304836828
 42
-3.1443955108
  0
ELLIPSE
  5
3BE
100
AcDbEntity
  8
26814000
100
AcDbEllipse
 62
7
  6
CONTINUOUS
 10
137.5695294683
 20
130.6626290755
 30
0.0
 11
0.110769438
 21
0.2241226716
 31
0.0
 40
0.6088015717
 41
-4.0304836828
 42
-3.1443650652
  0
ELLIPSE
  5
3BF
100
AcDbEntity
  8
26814000
100
AcDbEllipse
 62
7
  6
CONTINUOUS
 10
150.9338476327
 20
123.9804699933
 30
0.0
 11
0.110769438
 21
0.2241226716
 31
0.0
 40
0.6088015717
 41
-4.0304836828
 42
-3.1443650652
  0
ELLIPSE
  5
3C0
100
AcDbEntity
  8
26814000
100
AcDbEllipse
 62
7
  6
CONTINUOUS
 10
154.990455514
 20
122.6887519441
 30
0.0
 11
-0.1565168911
 21
0.3130623908
 31
0.0
 40
0.6123677712
 41
-2.2554744912
 42
-0.6846781644
  0
ELLIPSE
  5
3C1
100
AcDbEntity
  8
26814000
100
AcDbEllipse
 62
7
  6
CONTINUOUS
 10
154.990455514
 20
84.5121700994
 30
0.0
 11
-0.1565168911
 21
0.3130623908
 31
0.0
 40
0.6123677712
 41
-3.1363904945
 42
-2.2554744912
  0
ELLIPSE
  5
3C2
100
AcDbEntity
  8
26814000
100
AcDbEllipse
 62
7
  6
CONTINUOUS
 10
149.2238599655
 20
131.7939832493
 30
0.0
 11
0.2999991737
 21
-0.0014183462
 31
0.0
 40
0.4964289597
 41
0.7877451926
 42
2.3527237553
  0
ELLIPSE
  5
3C3
100
AcDbEntity
  8
26814000
100
AcDbEllipse
 62
7
  6
CONTINUOUS
 10
154.7783234796
 20
129.0167514922
 30
0.0
 11
0.2999991737
 21
-0.0014183462
 31
0.0
 40
0.4964289597
 41
0.7877451926
 42
2.3585415194
  0
ELLIPSE
  5
3C4
100
AcDbEntity
  8
26814000
100
AcDbEllipse
 62
7
  6
CONTINUOUS
 10
154.3176756151
 20
123.306322955
 30
0.0
 11
0.110769438
 21
0.2241226716
 31
0.0
 40
0.6088015717
 41
1.2055040732
 42
2.2526937431
  0
ELLIPSE
  5
3C5
100
AcDbEntity
  8
26814000
100
AcDbEllipse
 62
7
  6
CONTINUOUS
 10
140.9533574507
 20
129.9884820372
 30
0.0
 11
0.110769438
 21
0.2241226716
 31
0.0
 40
0.6088015717
 41
1.2055040732
 42
2.2526937431
  0
ELLIPSE
  5
3C6
100
AcDbEntity
  8
26814000
100
AcDbEllipse
 62
7
  6
CONTINUOUS
 10
154.6691720923
 20
124.234128107
 30
0.0
 11
0.110769438
 21
0.2241226716
 31
0.0
 40
0.6088015717
 41
-1.9360885804
 42
-0.8888910292
  0
ELLIPSE
  5
3C7
100
AcDbEntity
  8
26814000
100
AcDbEllipse
 62
7
  6
CONTINUOUS
 10
153.0489972359
 20
125.3051445116
 30
0.0
 11
0.1128509832
 21
0.2230818409
 31
0.0
 40
0.6159267166
 41
0.0028979148
 42
0.6817883054
  0
ELLIPSE
  5
3C8
100
AcDbEntity
  8
26814000
100
AcDbEllipse
 62
7
  6
CONTINUOUS
 10
150.9338476327
 20
124.233841387
 30
0.0
 11
0.110769438
 21
0.2241226716
 31
0.0
 40
0.6088015717
 41
0.6877230618
 42
2.2527016244
  0
ELLIPSE
  5
3C9
100
AcDbEntity
  8
26814000
100
AcDbEllipse
 62
7
  6
CONTINUOUS
 10
141.3048539278
 20
130.9162871893
 30
0.0
 11
0.110769438
 21
0.2241226716
 31
0.0
 40
0.6088015717
 41
-1.9360885804
 42
-0.8888910292
  0
ELLIPSE
  5
3CA
100
AcDbEntity
  8
26814000
100
AcDbEllipse
 62
7
  6
CONTINUOUS
 10
139.6846790715
 20
131.9873035938
 30
0.0
 11
0.1128509832
 21
0.2230818409
 31
0.0
 40
0.6159267166
 41
0.0028979148
 42
0.6817883054
  0
ELLIPSE
  5
3CB
100
AcDbEntity
  8
26814000
100
AcDbEllipse
 62
7
  6
CONTINUOUS
 10
137.5695294683
 20
130.9160004692
 30
0.0
 11
0.110769438
 21
0.2241226716
 31
0.0
 40
0.6088015717
 41
0.6877230618
 42
2.2527016244
  0
ELLIPSE
  5
3CC
100
AcDbEntity
  8
26814000
100
AcDbEllipse
 62
7
  6
CONTINUOUS
 10
154.6691720923
 20
82.6735949913
 30
0.0
 11
0.110769438
 21
0.2241226716
 31
0.0
 40
0.6088015717
 41
-2.4538695918
 42
-0.8888910292
  0
ELLIPSE
  5
3CD
100
AcDbEntity
  8
26814000
100
AcDbEllipse
 62
7
  6
CONTINUOUS
 10
150.9338476327
 20
82.6808658539
 30
0.0
 11
0.110769438
 21
0.2241226716
 31
0.0
 40
0.6088015717
 41
1.2055040732
 42
2.2527016244
  0
ELLIPSE
  5
3CE
100
AcDbEntity
  8
26814000
100
AcDbEllipse
 62
7
  6
CONTINUOUS
 10
154.6691720923
 20
82.9345239677
 30
0.0
 11
0.110769438
 21
0.2241226716
 31
0.0
 40
0.6088015717
 41
5.394294278
 42
6.4414918292
  0
ELLIPSE
  5
3CF
100
AcDbEntity
  8
26814000
100
AcDbEllipse
 62
7
  6
CONTINUOUS
 10
141.3048539278
 20
131.1772161656
 30
0.0
 11
0.110769438
 21
0.2241226716
 31
0.0
 40
0.6088015717
 41
5.394294278
 42
6.9592728406
  0
ELLIPSE
  5
3D0
100
AcDbEntity
  8
26814000
100
AcDbEllipse
 62
7
  6
CONTINUOUS
 10
154.6691720923
 20
124.4950570834
 30
0.0
 11
0.110769438
 21
0.2241226716
 31
0.0
 40
0.6088015717
 41
5.394294278
 42
6.9592728406
  0
ELLIPSE
  5
3D1
100
AcDbEntity
  8
26814000
100
AcDbEllipse
 62
7
  6
CONTINUOUS
 10
149.4043119426
 20
130.4719230793
 30
0.0
 11
0.2999981629
 21
-0.0021225547
 31
0.0
 40
0.4946372042
 41
-0.7818985079
 42
0.0034997008
  0
ELLIPSE
  5
3D2
100
AcDbEntity
  8
26814000
100
AcDbEllipse
 62
7
  6
CONTINUOUS
 10
154.9587754568
 20
127.6946913223
 30
0.0
 11
0.2999981629
 21
-0.0021225547
 31
0.0
 40
0.4946372042
 41
-0.7760807437
 42
0.0035109161
  0
ELLIPSE
  5
3D3
100
AcDbEntity
  8
26814000
100
AcDbEllipse
 62
7
  6
CONTINUOUS
 10
143.2553662151
 20
128.8738018814
 30
0.0
 11
0.2999991335
 21
0.0014318851
 31
0.0
 40
0.5035541159
 41
8.6427941204
 42
10.207772683
  0
ELLIPSE
  5
3D4
100
AcDbEntity
  8
26814000
100
AcDbEllipse
 62
7
  6
CONTINUOUS
 10
137.2420753062
 20
129.0767317801
 30
0.0
 11
-0.1565168911
 21
0.3130623908
 31
0.0
 40
0.6123677712
 41
-0.6846781644
 42
0.8861181623
  0
ELLIPSE
  5
3D5
100
AcDbEntity
  8
26814000
100
AcDbEllipse
 62
7
  6
CONTINUOUS
 10
152.5155817798
 20
121.4399785433
 30
0.0
 11
-0.1565168911
 21
0.3130623908
 31
0.0
 40
0.6123677712
 41
-2.2554744912
 42
-0.6846781644
  0
ELLIPSE
  5
3D6
100
AcDbEntity
  8
26814000
100
AcDbEllipse
 62
7
  6
CONTINUOUS
 10
151.1290471853
 20
98.3968753173
 30
0.0
 11
-0.1085782352
 21
0.1690527654
 31
0.0
 40
0.5459771812
 41
-3.2040641194
 42
-2.3138348679
  0
ELLIPSE
  5
3D7
100
AcDbEntity
  8
26814000
100
AcDbEllipse
 62
7
  6
CONTINUOUS
 10
149.0478752832
 20
125.9775473474
 30
0.0
 11
0.2999991335
 21
0.0014318851
 31
0.0
 40
0.5035541159
 41
-2.3585979313
 42
-0.7936193687
  0
ELLIPSE
  5
3D8
100
AcDbEntity
  8
26814000
100
AcDbEllipse
 62
7
  6
CONTINUOUS
 10
149.0478752832
 20
124.7633482715
 30
0.0
 11
0.2999980272
 21
0.0021530184
 31
0.0
 40
0.5053247124
 41
-2.3598210761
 42
-0.7948425135
  0
ELLIPSE
  5
3D9
100
AcDbEntity
  8
26814000
100
AcDbEllipse
 62
7
  6
CONTINUOUS
 10
143.2553662151
 20
127.6596028055
 30
0.0
 11
0.2999980272
 21
0.0021530184
 31
0.0
 40
0.5053247124
 41
3.1379773283
 42
3.9233642311
  0
ELLIPSE
  5
3DA
100
AcDbEntity
  8
26814000
100
AcDbEllipse
 62
7
  6
CONTINUOUS
 10
154.9587754568
 20
128.9265255037
 30
0.0
 11
0.2999991737
 21
-0.0014183462
 31
0.0
 40
0.4964289597
 41
-0.77723337
 42
0.7877451926
  0
ELLIPSE
  5
3DB
100
AcDbEntity
  8
26814000
100
AcDbEllipse
 62
7
  6
CONTINUOUS
 10
149.4043119426
 20
131.7037572607
 30
0.0
 11
0.2999991737
 21
-0.0014183462
 31
0.0
 40
0.4964289597
 41
-0.7830511342
 42
0.7877451926
  0
ELLIPSE
  5
3DC
100
AcDbEntity
  8
26814000
100
AcDbEllipse
 62
7
  6
CONTINUOUS
 10
152.5155817798
 20
83.2860697662
 30
0.0
 11
-0.1565168911
 21
0.3130623908
 31
0.0
 40
0.6123677712
 41
2.4569144891
 42
4.0277108159
  0
ELLIPSE
  5
3DD
100
AcDbEntity
  8
26814000
100
AcDbEllipse
 62
7
  6
CONTINUOUS
 10
154.3176756151
 20
83.5067188156
 30
0.0
 11
0.110769438
 21
0.2241226716
 31
0.0
 40
0.6088015717
 41
2.2527095058
 42
3.2998991756
  0
ELLIPSE
  5
3DE
100
AcDbEntity
  8
26814000
100
AcDbEllipse
 62
7
  6
CONTINUOUS
 10
152.5416810083
 20
123.4299246992
 30
0.0
 11
0.1128509832
 21
0.2230818409
 31
0.0
 40
0.6159267166
 41
0.6934238338
 42
2.2584023964
  0
ELLIPSE
  5
3DF
100
AcDbEntity
  8
26814000
100
AcDbEllipse
 62
7
  6
CONTINUOUS
 10
152.5416810083
 20
123.1765533055
 30
0.0
 11
0.1128509832
 21
0.2230818409
 31
0.0
 40
0.6159267166
 41
-4.0247829108
 42
-2.9775853596
  0
ELLIPSE
  5
3E0
100
AcDbEntity
  8
26814000
100
AcDbEllipse
 62
7
  6
CONTINUOUS
 10
139.1773628439
 20
130.1120837814
 30
0.0
 11
0.1128509832
 21
0.2230818409
 31
0.0
 40
0.6159267166
 41
0.6934238338
 42
2.2584023964
  0
ELLIPSE
  5
3E1
100
AcDbEntity
  8
26814000
100
AcDbEllipse
 62
7
  6
CONTINUOUS
 10
139.1773628439
 20
129.8587123877
 30
0.0
 11
0.1128509832
 21
0.2230818409
 31
0.0
 40
0.6159267166
 41
-4.0247829108
 42
-2.9775853596
  0
ELLIPSE
  5
3E2
100
AcDbEntity
  8
26814000
100
AcDbEllipse
 62
7
  6
CONTINUOUS
 10
152.5416810083
 20
81.6235777723
 30
0.0
 11
0.1128509832
 21
0.2230818409
 31
0.0
 40
0.6159267166
 41
-4.0247829108
 42
-2.4598043482
  0
ELLIPSE
  5
3E3
100
AcDbEntity
  8
26814000
100
AcDbEllipse
 62
7
  6
CONTINUOUS
 10
152.5416810083
 20
81.8769491661
 30
0.0
 11
0.1128509832
 21
0.2230818409
 31
0.0
 40
0.6159267166
 41
1.2112048452
 42
2.2584023964
  0
ELLIPSE
  5
3E4
100
AcDbEntity
  8
26814000
100
AcDbEllipse
 62
7
  6
CONTINUOUS
 10
150.8633754736
 20
88.727724133
 30
0.0
 11
-0.542618321
 21
0.8478124368
 31
0.0
 40
0.5451249042
 41
-3.2164376038
 42
-2.3115524019
  0
ENDSEC
  0
SECTION
  2
OBJECTS
  0
DICTIONARY
  5
C
100
AcDbDictionary
280
0
281
1
  3
ACAD_GROUP
350
D
  3
ACAD_MLINESTYLE
350
17
  3
ACAD_LAYOUT
350
1A
  3
ACAD_PLOTSETTINGS
350
19
  3
ACAD_PLOTSTYLENAME
350
E
  0
DICTIONARY
  5
D
102
{ACAD_REACTORS
330
C
102
}
100
AcDbDictionary
280
0
281
1
  0
ACDBDICTIONARYWDFLT
  5
E
102
{ACAD_REACTORS
330
C
102
}
100
AcDbDictionary
281
1
  3
Normal
350
F
100
AcDbDictionaryWithDefault
340
F
  0
DICTIONARY
  5
17
102
{ACAD_REACTORS
330
C
102
}
100
AcDbDictionary
280
0
281
1
  3
Standard
350
18
  0
DICTIONARY
  5
19
102
{ACAD_REACTORS
330
C
102
}
100
AcDbDictionary
281
1
  0
DICTIONARY
  5
1A
102
{ACAD_REACTORS
330
C
102
}
100
AcDbDictionary
281
1
  3
Model
350
3E5
  3
Layout1
350
3E6
  0
ACDBPLACEHOLDER
  5
F
102
{ACAD_REACTORS
330
E
102
}
  0
MLINESTYLE
  5
18
102
{ACAD_REACTORS
330
17
102
}
100
AcDbMlineStyle
  2
STANDARD
 70
0
  3

 62
256
 51
90.0
 52
90.0
 71
2
 49
0.5
 62
256
  6
BYLAYER
 49
-0.5
 62
256
  6
BYLAYER
  0
LAYOUT
  5
3E5
102
{ACAD_REACTORS
330
1A
102
}
100
AcDbPlotSettings
  1

  2
none_device
  4
ISO_A4_(297.00_x_210.00_MM)
  6

 40
0.0
 41
0.0
 42
0.0
 43
0.0
 44
297.0
 45
210.0
 46
0.0
 47
0.0
 48
0.0
 49
0.0
140
0.0
141
0.0
142
1.0
143
1.0
 70
1024
 72
1
 73
0
 74
0
  7

 75
0
147
1.0
148
0.0
149
0.0
100
AcDbLayout
  1
Model
 70
0
 71
0
 10
0.0
 20
0.0
 11
297.0
 21
210.0
 12
0.0
 22
0.0
 32
0.0
 14
0.0
 24
0.0
 34
0.0
 15
0.0
 25
0.0
 35
0.0
146
0.0
 13
0.0
 23
0.0
 33
0.0
 16
1.0
 26
0.0
 36
0.0
 17
0.0
 27
1.0
 37
0.0
 76
0
330
22A
345
0
346
0
  0
LAYOUT
  5
3E6
102
{ACAD_REACTORS
330
1A
102
}
100
AcDbPlotSettings
  1

  2
none_device
  4
ISO_A4_(297.00_x_210.00_MM)
  6

 40
0.0
 41
0.0
 42
0.0
 43
0.0
 44
297.0
 45
210.0
 46
0.0
 47
0.0
 48
0.0
 49
0.0
140
0.0
141
0.0
142
1.0
143
1.0
 70
0
 72
1
 73
0
 74
0
  7

 75
0
147
1.0
148
0.0
149
0.0
100
AcDbLayout
  1
Layout1
 70
0
 71
1
 10
0.0
 20
0.0
 11
297.0
 21
210.0
 12
0.0
 22
0.0
 32
0.0
 14
0.0
 24
0.0
 34
0.0
 15
0.0
 25
0.0
 35
0.0
146
0.0
 13
0.0
 23
0.0
 33
0.0
 16
1.0
 26
0.0
 36
0.0
 17
0.0
 27
1.0
 37
0.0
 76
0
330
22B
345
0
346
0
  0
ENDSEC
  0
EOF
